  0
SECTION
  2
HEADER
  9
$ACADVER
  1
AC1014
  9
$ACADMAINTVER
 70
     0
  9
$DWGCODEPAGE
  3
ANSI_932
  9
$INSBASE
 10
0.0
 20
0.0
 30
0.0
  9
$EXTMIN
 10
-116.070375
 20
-202.0
 30
0.0
  9
$EXTMAX
 10
591.04
 20
536.0
 30
0.0
  9
$LIMMIN
 10
0.0
 20
0.0
  9
$LIMMAX
 10
420.0
 20
297.0
  9
$ORTHOMODE
 70
     0
  9
$REGENMODE
 70
     1
  9
$FILLMODE
 70
     1
  9
$QTEXTMODE
 70
     0
  9
$MIRRTEXT
 70
     1
  9
$DRAGMODE
 70
     2
  9
$LTSCALE
 40
1.0
  9
$OSMODE
 70
     0
  9
$ATTMODE
 70
     1
  9
$TEXTSIZE
 40
0.2
  9
$TRACEWID
 40
0.05
  9
$TEXTSTYLE
  7
STANDARD
  9
$CLAYER
  8
LAY-1
  9
$CELTYPE
  6
CONTINUOUS
  9
$CECOLOR
 62
   256
  9
$CELTSCALE
 40
1.0
  9
$DELOBJ
 70
     1
  9
$DISPSILH
 70
     0
  9
$DIMSCALE
 40
1.0
  9
$DIMASZ
 40
0.18
  9
$DIMEXO
 40
0.0625
  9
$DIMDLI
 40
0.38
  9
$DIMRND
 40
0.0
  9
$DIMDLE
 40
0.0
  9
$DIMEXE
 40
0.18
  9
$DIMTP
 40
0.0
  9
$DIMTM
 40
0.0
  9
$DIMTXT
 40
0.18
  9
$DIMCEN
 40
0.09
  9
$DIMTSZ
 40
0.0
  9
$DIMTOL
 70
     0
  9
$DIMLIM
 70
     0
  9
$DIMTIH
 70
     1
  9
$DIMTOH
 70
     1
  9
$DIMSE1
 70
     0
  9
$DIMSE2
 70
     0
  9
$DIMTAD
 70
     0
  9
$DIMZIN
 70
     0
  9
$DIMBLK
  1

  9
$DIMASO
 70
     1
  9
$DIMSHO
 70
     1
  9
$DIMPOST
  1

  9
$DIMAPOST
  1

  9
$DIMALT
 70
     0
  9
$DIMALTD
 70
     2
  9
$DIMALTF
 40
25.4
  9
$DIMLFAC
 40
1.0
  9
$DIMTOFL
 70
     0
  9
$DIMTVP
 40
0.0
  9
$DIMTIX
 70
     0
  9
$DIMSOXD
 70
     0
  9
$DIMSAH
 70
     0
  9
$DIMBLK1
  1

  9
$DIMBLK2
  1

  9
$DIMSTYLE
  2
STANDARD
  9
$DIMCLRD
 70
     0
  9
$DIMCLRE
 70
     0
  9
$DIMCLRT
 70
     0
  9
$DIMTFAC
 40
1.0
  9
$DIMGAP
 40
0.09
  9
$DIMJUST
 70
     0
  9
$DIMSD1
 70
     0
  9
$DIMSD2
 70
     0
  9
$DIMTOLJ
 70
     1
  9
$DIMTZIN
 70
     0
  9
$DIMALTZ
 70
     0
  9
$DIMALTTZ
 70
     0
  9
$DIMFIT
 70
     3
  9
$DIMUPT
 70
     0
  9
$DIMUNIT
 70
     2
  9
$DIMDEC
 70
     4
  9
$DIMTDEC
 70
     4
  9
$DIMALTU
 70
     2
  9
$DIMALTTD
 70
     2
  9
$DIMTXSTY
  7
STANDARD
  9
$DIMAUNIT
 70
     0
  9
$LUNITS
 70
     2
  9
$LUPREC
 70
     4
  9
$SKETCHINC
 40
0.1
  9
$FILLETRAD
 40
0.0
  9
$AUNITS
 70
     0
  9
$AUPREC
 70
     0
  9
$MENU
  1
acad
  9
$ELEVATION
 40
0.0
  9
$PELEVATION
 40
0.0
  9
$THICKNESS
 40
0.0
  9
$LIMCHECK
 70
     0
  9
$BLIPMODE
 70
     1
  9
$CHAMFERA
 40
0.0
  9
$CHAMFERB
 40
0.0
  9
$CHAMFERC
 40
0.0
  9
$CHAMFERD
 40
0.0
  9
$SKPOLY
 70
     0
  9
$TDCREATE
 40
2456723.144865185
  9
$TDUPDATE
 40
2456723.144865185
  9
$TDINDWG
 40
0.0000000000
  9
$TDUSRTIMER
 40
0.0000000000
  9
$USRTIMER
 70
     1
  9
$ANGBASE
 50
0.0
  9
$ANGDIR
 70
     0
  9
$PDMODE
 70
     0
  9
$PDSIZE
 40
0.0
  9
$PLINEWID
 40
0.0
  9
$COORDS
 70
     1
  9
$SPLFRAME
 70
     0
  9
$SPLINETYPE
 70
     6
  9
$SPLINESEGS
 70
     8
  9
$ATTDIA
 70
     0
  9
$ATTREQ
 70
     1
  9
$HANDLING
 70
     1
  9
$HANDSEED
  5
667
  9
$SURFTAB1
 70
     6
  9
$SURFTAB2
 70
     6
  9
$SURFTYPE
 70
     6
  9
$SURFU
 70
     6
  9
$SURFV
 70
     6
  9
$UCSNAME
  2

  9
$UCSORG
 10
0.0
 20
0.0
 30
0.0
  9
$UCSXDIR
 10
1.0
 20
0.0
 30
0.0
  9
$UCSYDIR
 10
0.0
 20
1.0
 30
0.0
  9
$PUCSNAME
  2

  9
$PUCSORG
 10
0.0
 20
0.0
 30
0.0
  9
$PUCSXDIR
 10
1.0
 20
0.0
 30
0.0
  9
$PUCSYDIR
 10
0.0
 20
1.0
 30
0.0
  9
$USERI1
 70
     0
  9
$USERI2
 70
     0
  9
$USERI3
 70
     0
  9
$USERI4
 70
     0
  9
$USERI5
 70
     0
  9
$USERR1
 40
0.0
  9
$USERR2
 40
0.0
  9
$USERR3
 40
0.0
  9
$USERR4
 40
0.0
  9
$USERR5
 40
0.0
  9
$WORLDVIEW
 70
     1
  9
$SHADEDGE
 70
     3
  9
$SHADEDIF
 70
    70
  9
$TILEMODE
 70
     1
  9
$MAXACTVP
 70
    16
  9
$PINSBASE
 10
0.0
 20
0.0
 30
0.0
  9
$PLIMCHECK
 70
     0
  9
$PEXTMIN
 10
1.000000E+20
 20
1.000000E+20
 30
1.000000E+20
  9
$PEXTMAX
 10
-1.000000E+20
 20
-1.000000E+20
 30
-1.000000E+20
  9
$PLIMMIN
 10
0.0
 20
0.0
  9
$PLIMMAX
 10
12.0
 20
9.0
  9
$UNITMODE
 70
     0
  9
$VISRETAIN
 70
     0
  9
$PLINEGEN
 70
     1
  9
$PSLTSCALE
 70
     0
  9
$TREEDEPTH
 70
  3020
  9
$PICKSTYLE
 70
     1
  9
$CMLSTYLE
  2
Standard
  9
$CMLJUST
 70
     0
  9
$CMLSCALE
 40
1.0
  9
$PROXYGRAPHICS
 70
     0
  9
$MEASUREMENT
 70
     0
  0
ENDSEC
  0
SECTION
  2
CLASSES
  0
CLASS
  1
LWPOLYLINE
  2
AcDbPolyline
  3
"AutoCAD"
 90
        0
280
     0
281
     1
  0
CLASS
  1
IMAGE
  2
AcDbRasterImage
  3
ISM
 90
      127
280
     0
281
     1
  0
CLASS
  1
OLE2FRAME
  2
AcDbOle2Frame
  3
""
 90
        0
280
     0
281
     1
  0
CLASS
  1
HATCH
  2
AcDbHatch
  3
"ACAD_SEDONA"
 90
        0
280
     0
281
     1
  0
CLASS
  1
DICTIONARYVAR
  2
AcDbDictionaryVar
  3
"AutoCAD"
 90
        0
280
     0
281
     0
  0
CLASS
  1
RASTERVARIABLES
  2
AcDbRasterVariables
  3
ISM
 90
        0
280
     0
281
     0
  0
CLASS
  1
IMAGEDEF
  2
AcDbRasterImageDef
  3
ISM
 90
        0
280
     0
281
     0
  0
CLASS
  1
IMAGEDEF_REACTOR
  2
AcDbRasterImageDefReactor
  3
ISM
 90
        1
280
     0
281
     0
  0
CLASS
  1
IDBUFFER
  2
AcDbIdBuffer
  3
"Acad"
 90
        0
280
     0
281
     0
  0
CLASS
  1
SPATIAL_FILTER
  2
AcDbSpatialFilter
  3
"Acad"
 90
        0
280
     0
281
     0
  0
CLASS
  1
XRECORD
  2
AcDbXrecord
  3
"<Built In>"
 90
        0
280
     0
281
     0
  0
CLASS
  1
SORTENTSTABLE
  2
AcDbSortentsTable
  3
"AutoCAD"
 90
        0
280
     0
281
     0
  0
CLASS
  1
LAYER_INDEX
  2
AcDbLayerIndex
  3
"Acad"
 90
        0
280
     0
281
     0
  0
CLASS
  1
SPATIAL_INDEX
  2
AcDbSpatialIndex
  3
"Acad"
 90
        0
280
     0
281
     0
  0
CLASS
  1
OBJECT_PTR
  2
CAseDLPNTableRecord
  3
"ASE-LPNTableRecord"
 90
        1
280
     0
281
     0
  0
CLASS
  1
LAYOUT
  2
AcDbLayout
  3
"AutoCAD 2000"
 90
        0
280
     0
281
     0
  0
CLASS
  1
PLOTSETTINGS
  2
AcDbPlotSettings
  3
"AutoCAD 2000"
 90
        0
280
     0
281
     0
  0
CLASS
  1
ACDBDICTIONARYWDFLT
  2
AcDbDictionaryWithDefault
  3
"AutoCAD 2000"
 90
        0
280
     0
281
     0
  0
CLASS
  1
ACDBPLACEHOLDER
  2
AcDbPlaceHolder
  3
"AutoCAD 2000"
 90
        0
280
     0
281
     0
  0
CLASS
  1
VBA_PROJECT
  2
AcDbVbaProject
  3
"acadvba"
 90
        0
280
     0
281
     0
  0
CLASS
  1
WIPEOUT
  2
AcDbWipeout
  3
WipeOut|AutoCAD Express Tool|expresstools@autodesk.com
 90
      127
280
     0
281
     1
  0
CLASS
  1
WIPEOUTVARIABLES
  2
AcDbWipeoutVariables
  3
WipeOut|AutoCAD Express Tool|expresstools@autodesk.com
 90
        0
280
     0
281
     0
  0
CLASS
  1
RTEXT
  2
RText
  3
RText|AutoCAD Express Tool|expresstools@autodesk.com
 90
        0
280
     0
281
     1
  0
CLASS
  1
ARCALIGNEDTEXT
  2
AcDbArcAlignedText
  3
ATEXT|AutoCAD Express Tool|expresstools@autodesk.com
 90
        0
280
     0
281
     1
  0
ENDSEC
  0
SECTION
  2
TABLES
  0
TABLE
  2
VPORT
  5
7
100
AcDbSymbolTable
 70
     1
  0
VPORT
  5
15
100
AcDbSymbolTableRecord
100
AcDbViewportTableRecord
  2
*ACTIVE
 70
     0
 10
0.0
 20
0.0
 11
1.0
 21
1.0
 12
237.484812
 22
167.0
 13
0.0
 23
0.0
 14
1.0
 24
1.0
 15
0.0
 25
0.0
 16
0.0
 26
0.0
 36
1.0
 17
0.0
 27
0.0
 37
0.0
 40
738.0
 41
1.722533
 42
50.0
 43
0.0
 44
0.0
 50
0.0
 51
0.0
 71
     0
 72
  1000
 73
     1
 74
     1
 75
     0
 76
     0
 77
     0
 78
     0
  0
ENDTAB
  0
TABLE
  2
LTYPE
  5
4
100
AcDbSymbolTable
 70
     9
  0
LTYPE
  5
11
100
AcDbSymbolTableRecord
100
AcDbLinetypeTableRecord
  2
BYBLOCK
 70
    64
  3

 72
    65
 73
     0
 40
0.0
  0
LTYPE
  5
12
100
AcDbSymbolTableRecord
100
AcDbLinetypeTableRecord
  2
BYLAYER
 70
    64
  3

 72
    65
 73
     0
 40
0.0
  0
LTYPE
  5
13
100
AcDbSymbolTableRecord
100
AcDbLinetypeTableRecord
  2
CONTINUOUS
 70
    64
  3
実線
 72
    65
 73
     0
 40
0.0
  0
LTYPE
  5
1D
100
AcDbSymbolTableRecord
100
AcDbLinetypeTableRecord
  2
EXLTYPE1
 70
    64
  3
破線
 72
    65
 73
     2
 40
4.0
 49
3.0
 74
     0
 49
-1.0
 74
     0
  0
LTYPE
  5
1E
100
AcDbSymbolTableRecord
100
AcDbLinetypeTableRecord
  2
EXLTYPE2
 70
    64
  3
点線
 72
    65
 73
     2
 40
2.0
 49
1.0
 74
     0
 49
-1.0
 74
     0
  0
LTYPE
  5
1F
100
AcDbSymbolTableRecord
100
AcDbLinetypeTableRecord
  2
EXLTYPE3
 70
    64
  3
一点鎖線
 72
    65
 73
     4
 40
33.0
 49
30.0
 74
     0
 49
-1.0
 74
     0
 49
1.0
 74
     0
 49
-1.0
 74
     0
  0
LTYPE
  5
20
100
AcDbSymbolTableRecord
100
AcDbLinetypeTableRecord
  2
EXLTYPE4
 70
    64
  3
二点鎖線
 72
    65
 73
     6
 40
35.0
 49
30.0
 74
     0
 49
-1.0
 74
     0
 49
1.0
 74
     0
 49
-1.0
 74
     0
 49
1.0
 74
     0
 49
-1.0
 74
     0
  0
LTYPE
  5
21
100
AcDbSymbolTableRecord
100
AcDbLinetypeTableRecord
  2
EXLTYPE5
 70
    64
  3
三点鎖線
 72
    65
 73
     8
 40
37.0
 49
30.0
 74
     0
 49
-1.0
 74
     0
 49
1.0
 74
     0
 49
-1.0
 74
     0
 49
1.0
 74
     0
 49
-1.0
 74
     0
 49
1.0
 74
     0
 49
-1.0
 74
     0
  0
LTYPE
  5
22
100
AcDbSymbolTableRecord
100
AcDbLinetypeTableRecord
  2
EXLTYPE6
 70
    64
  3
四点鎖線
 72
    65
 73
    10
 40
39.0
 49
30.0
 74
     0
 49
-1.0
 74
     0
 49
1.0
 74
     0
 49
-1.0
 74
     0
 49
1.0
 74
     0
 49
-1.0
 74
     0
 49
1.0
 74
     0
 49
-1.0
 74
     0
 49
1.0
 74
     0
 49
-1.0
 74
     0
  0
ENDTAB
  0
TABLE
  2
LAYER
  5
2
100
AcDbSymbolTable
 70
     4
  0
LAYER
  5
14
100
AcDbSymbolTableRecord
100
AcDbLayerTableRecord
  2
0
 70
     0
 62
     7
  6
CONTINUOUS
  0
LAYER
  5
25
100
AcDbSymbolTableRecord
100
AcDbLayerTableRecord
  2
LAY-1
 70
    64
 62
     7
  6
CONTINUOUS
  0
LAYER
  5
26
100
AcDbSymbolTableRecord
100
AcDbLayerTableRecord
  2
LAY-2
 70
    64
 62
     7
  6
CONTINUOUS
  0
LAYER
  5
27
100
AcDbSymbolTableRecord
100
AcDbLayerTableRecord
  2
LAY-3
 70
    64
 62
     1
  6
CONTINUOUS
  0
ENDTAB
  0
TABLE
  2
STYLE
  5
3
100
AcDbSymbolTable
 70
     3
  0
STYLE
  5
17
100
AcDbSymbolTableRecord
100
AcDbTextStyleTableRecord
  2
STANDARD
 70
     0
 40
0.0
 41
1.0
 50
0.0
 71
     0
 42
0.0
  3
monotxt
  4
extfont
  0
STYLE
  5
23
100
AcDbSymbolTableRecord
100
AcDbTextStyleTableRecord
  2
EXCADSTD
 70
    64
 40
0.0
 41
1.0
 50
0.0
 71
     0
 42
0.2
  3
monotxt
  4
extfont
  0
STYLE
  5
24
100
AcDbSymbolTableRecord
100
AcDbTextStyleTableRecord
  2
EXCADVERT
 70
    68
 40
0.0
 41
1.0
 50
0.0
 71
     0
 42
0.286885
  3
monotxt
  4
extfont
  0
ENDTAB
  0
TABLE
  2
VIEW
  5
5
100
AcDbSymbolTable
 70
     0
  0
ENDTAB
  0
TABLE
  2
UCS
  5
6
100
AcDbSymbolTable
 70
     0
  0
ENDTAB
  0
TABLE
  2
APPID
  5
8
100
AcDbSymbolTable
 70
     1
  0
APPID
  5
16
100
AcDbSymbolTableRecord
100
AcDbRegAppTableRecord
  2
ACAD
 70
     0
  0
ENDTAB
  0
TABLE
  2
DIMSTYLE
  5
9
100
AcDbSymbolTable
 70
     1
  0
DIMSTYLE
105
18
100
AcDbSymbolTableRecord
100
AcDbDimStyleTableRecord
  2
STANDARD
 70
     0
  3

  4

  5

  6

  7

 40
1.0
 41
0.18
 42
0.0625
 43
0.38
 44
0.18
 45
0.0
 46
0.0
 47
0.0
 48
0.0
 71
     0
 72
     0
 73
     1
 74
     1
 75
     0
 76
     0
 77
     0
 78
     0
140
0.18
141
0.09
142
0.0
143
25.4
144
1.0
145
0.0
146
1.0
147
0.09
170
     0
171
     2
172
     1
173
     0
174
     0
175
     0
176
     0
177
     0
178
     0
270
     2
271
     4
272
     4
273
     2
274
     2
275
     0
280
     0
281
     0
282
     0
283
     1
284
     0
285
     0
286
     0
287
     3
288
     0
340
17
  0
ENDTAB
  0
TABLE
  2
BLOCK_RECORD
  5
1
100
AcDbSymbolTable
 70
    16
  0
BLOCK_RECORD
  5
A
100
AcDbSymbolTableRecord
100
AcDbBlockTableRecord
  2
*MODEL_SPACE
  0
BLOCK_RECORD
  5
B
100
AcDbSymbolTableRecord
100
AcDbBlockTableRecord
  2
*PAPER_SPACE
  0
BLOCK_RECORD
  5
28
100
AcDbSymbolTableRecord
100
AcDbBlockTableRecord
  2
_EX_NORM
  0
BLOCK_RECORD
  5
29
100
AcDbSymbolTableRecord
100
AcDbBlockTableRecord
  2
_EX_BNORM
  0
BLOCK_RECORD
  5
2A
100
AcDbSymbolTableRecord
100
AcDbBlockTableRecord
  2
_EX_BCIR
  0
BLOCK_RECORD
  5
2B
100
AcDbSymbolTableRecord
100
AcDbBlockTableRecord
  2
_EX_RCIVIL
  0
BLOCK_RECORD
  5
2C
100
AcDbSymbolTableRecord
100
AcDbBlockTableRecord
  2
_EX_SLANT
  0
BLOCK_RECORD
  5
2D
100
AcDbSymbolTableRecord
100
AcDbBlockTableRecord
  2
_EX_NONE
  0
BLOCK_RECORD
  5
2E
100
AcDbSymbolTableRecord
100
AcDbBlockTableRecord
  2
_EX_CIVIL
  0
BLOCK_RECORD
  5
2F
100
AcDbSymbolTableRecord
100
AcDbBlockTableRecord
  2
_EX_WCIR
  0
BLOCK_RECORD
  5
30
100
AcDbSymbolTableRecord
100
AcDbBlockTableRecord
  2
_EX_WCIR2
  0
BLOCK_RECORD
  5
31
100
AcDbSymbolTableRecord
100
AcDbBlockTableRecord
  2
_EX_WNORM
  0
BLOCK_RECORD
  5
32
100
AcDbSymbolTableRecord
100
AcDbBlockTableRecord
  2
_EX_NNORM
  0
BLOCK_RECORD
  5
33
100
AcDbSymbolTableRecord
100
AcDbBlockTableRecord
  2
_EX_BBOX
  0
BLOCK_RECORD
  5
34
100
AcDbSymbolTableRecord
100
AcDbBlockTableRecord
  2
_EX_WBOX
  0
BLOCK_RECORD
  5
35
100
AcDbSymbolTableRecord
100
AcDbBlockTableRecord
  2
_EX_INTEGRAL
  0
BLOCK_RECORD
  5
36
100
AcDbSymbolTableRecord
100
AcDbBlockTableRecord
  2
SYM-1
  0
BLOCK_RECORD
  5
37
100
AcDbSymbolTableRecord
100
AcDbBlockTableRecord
  2
SYM-2
  0
ENDTAB
  0
ENDSEC
  0
SECTION
  2
BLOCKS
  0
BLOCK
  5
D
100
AcDbEntity
  8
0
100
AcDbBlockBegin
  2
*MODEL_SPACE
 70
     0
 10
0.0
 20
0.0
 30
0.0
  3
*MODEL_SPACE
  1

  0
ENDBLK
  5
E
100
AcDbEntity
  8
0
100
AcDbBlockEnd
  0
BLOCK
  5
F
100
AcDbEntity
 67
     1
  8
0
100
AcDbBlockBegin
  2
*PAPER_SPACE
 70
     0
 10
0.0
 20
0.0
 30
0.0
  3
*PAPER_SPACE
  1

  0
ENDBLK
  5
10
100
AcDbEntity
 67
     1
  8
0
100
AcDbBlockEnd
  0
BLOCK
  5
38
100
AcDbEntity
  8
0
100
AcDbBlockBegin
  2
_EX_NORM
 70
     0
 10
0.0
 20
0.0
 30
0.0
  3
_EX_NORM
  1

  0
LINE
  5
39
100
AcDbEntity
  8
0
  6
CONTINUOUS
 62
     0
100
AcDbLine
 10
0.0
 20
0.0
 30
0.0
 11
-1.0
 21
0.0
 31
0.0
  0
LINE
  5
3A
100
AcDbEntity
  8
0
  6
CONTINUOUS
 62
     0
100
AcDbLine
 10
0.0
 20
0.0
 30
0.0
 11
-1.0
 21
0.166667
 31
0.0
  0
LINE
  5
3B
100
AcDbEntity
  8
0
  6
CONTINUOUS
 62
     0
100
AcDbLine
 10
0.0
 20
0.0
 30
0.0
 11
-1.0
 21
-0.166667
 31
0.0
  0
ENDBLK
  5
3C
100
AcDbEntity
  8
0
100
AcDbBlockEnd
  0
BLOCK
  5
3D
100
AcDbEntity
  8
0
100
AcDbBlockBegin
  2
_EX_BNORM
 70
     0
 10
0.0
 20
0.0
 30
0.0
  3
_EX_BNORM
  1

  0
LINE
  5
3E
100
AcDbEntity
  8
0
  6
CONTINUOUS
 62
     0
100
AcDbLine
 10
0.0
 20
0.0
 30
0.0
 11
-1.0
 21
0.0
 31
0.0
  0
LINE
  5
3F
100
AcDbEntity
  8
0
  6
CONTINUOUS
 62
     0
100
AcDbLine
 10
0.0
 20
0.0
 30
0.0
 11
-1.0
 21
0.166667
 31
0.0
  0
LINE
  5
40
100
AcDbEntity
  8
0
  6
CONTINUOUS
 62
     0
100
AcDbLine
 10
0.0
 20
0.0
 30
0.0
 11
-1.0
 21
-0.166667
 31
0.0
  0
LINE
  5
41
100
AcDbEntity
  8
0
  6
CONTINUOUS
 62
     0
100
AcDbLine
 10
0.0
 20
0.0
 30
0.0
 11
-1.0
 21
0.083333
 31
0.0
  0
LINE
  5
42
100
AcDbEntity
  8
0
  6
CONTINUOUS
 62
     0
100
AcDbLine
 10
0.0
 20
0.0
 30
0.0
 11
-1.0
 21
-0.083333
 31
0.0
  0
LINE
  5
43
100
AcDbEntity
  8
0
  6
CONTINUOUS
 62
     0
100
AcDbLine
 10
-1.0
 20
0.166667
 30
0.0
 11
-1.0
 21
-0.166667
 31
0.0
  0
ENDBLK
  5
44
100
AcDbEntity
  8
0
100
AcDbBlockEnd
  0
BLOCK
  5
45
100
AcDbEntity
  8
0
100
AcDbBlockBegin
  2
_EX_BCIR
 70
     0
 10
0.0
 20
0.0
 30
0.0
  3
_EX_BCIR
  1

  0
LINE
  5
46
100
AcDbEntity
  8
0
  6
CONTINUOUS
 62
     0
100
AcDbLine
 10
0.0
 20
0.0
 30
0.0
 11
-1.0
 21
0.0
 31
0.0
  0
CIRCLE
  5
47
100
AcDbEntity
  8
0
  6
CONTINUOUS
 62
     0
100
AcDbCircle
 10
0.0
 20
0.0
 30
0.0
 40
0.5
  0
CIRCLE
  5
48
100
AcDbEntity
  8
0
  6
CONTINUOUS
 62
     0
100
AcDbCircle
 10
0.0
 20
0.0
 30
0.0
 40
0.25
  0
ENDBLK
  5
49
100
AcDbEntity
  8
0
100
AcDbBlockEnd
  0
BLOCK
  5
4A
100
AcDbEntity
  8
0
100
AcDbBlockBegin
  2
_EX_RCIVIL
 70
     0
 10
0.0
 20
0.0
 30
0.0
  3
_EX_RCIVIL
  1

  0
LINE
  5
4B
100
AcDbEntity
  8
0
  6
CONTINUOUS
 62
     0
100
AcDbLine
 10
0.0
 20
0.0
 30
0.0
 11
-1.0
 21
0.0
 31
0.0
  0
LINE
  5
4C
100
AcDbEntity
  8
0
  6
CONTINUOUS
 62
     0
100
AcDbLine
 10
-1.0
 20
-0.25
 30
0.0
 11
0.0
 21
-0.25
 31
0.0
  0
LINE
  5
4D
100
AcDbEntity
  8
0
  6
CONTINUOUS
 62
     0
100
AcDbLine
 10
-1.0
 20
-0.125
 30
0.0
 11
0.0
 21
-0.125
 31
0.0
  0
ENDBLK
  5
4E
100
AcDbEntity
  8
0
100
AcDbBlockEnd
  0
BLOCK
  5
4F
100
AcDbEntity
  8
0
100
AcDbBlockBegin
  2
_EX_SLANT
 70
     0
 10
0.0
 20
0.0
 30
0.0
  3
_EX_SLANT
  1

  0
LINE
  5
50
100
AcDbEntity
  8
0
  6
CONTINUOUS
 62
     0
100
AcDbLine
 10
0.0
 20
0.0
 30
0.0
 11
-1.0
 21
0.0
 31
0.0
  0
LINE
  5
51
100
AcDbEntity
  8
0
  6
CONTINUOUS
 62
     0
100
AcDbLine
 10
0.707107
 20
0.707107
 30
0.0
 11
-0.707107
 21
-0.707107
 31
0.0
  0
ENDBLK
  5
52
100
AcDbEntity
  8
0
100
AcDbBlockEnd
  0
BLOCK
  5
53
100
AcDbEntity
  8
0
100
AcDbBlockBegin
  2
_EX_NONE
 70
     0
 10
0.0
 20
0.0
 30
0.0
  3
_EX_NONE
  1

  0
LINE
  5
54
100
AcDbEntity
  8
0
  6
CONTINUOUS
 62
     0
100
AcDbLine
 10
0.0
 20
0.0
 30
0.0
 11
-1.0
 21
0.0
 31
0.0
  0
ENDBLK
  5
55
100
AcDbEntity
  8
0
100
AcDbBlockEnd
  0
BLOCK
  5
56
100
AcDbEntity
  8
0
100
AcDbBlockBegin
  2
_EX_CIVIL
 70
     0
 10
0.0
 20
0.0
 30
0.0
  3
_EX_CIVIL
  1

  0
LINE
  5
57
100
AcDbEntity
  8
0
  6
CONTINUOUS
 62
     0
100
AcDbLine
 10
0.0
 20
0.0
 30
0.0
 11
-1.0
 21
0.0
 31
0.0
  0
LINE
  5
58
100
AcDbEntity
  8
0
  6
CONTINUOUS
 62
     0
100
AcDbLine
 10
-1.0
 20
0.25
 30
0.0
 11
0.0
 21
0.25
 31
0.0
  0
LINE
  5
59
100
AcDbEntity
  8
0
  6
CONTINUOUS
 62
     0
100
AcDbLine
 10
-1.0
 20
0.125
 30
0.0
 11
0.0
 21
0.125
 31
0.0
  0
ENDBLK
  5
5A
100
AcDbEntity
  8
0
100
AcDbBlockEnd
  0
BLOCK
  5
5B
100
AcDbEntity
  8
0
100
AcDbBlockBegin
  2
_EX_WCIR
 70
     0
 10
0.0
 20
0.0
 30
0.0
  3
_EX_WCIR
  1

  0
LINE
  5
5C
100
AcDbEntity
  8
0
  6
CONTINUOUS
 62
     0
100
AcDbLine
 10
0.0
 20
0.0
 30
0.0
 11
-1.0
 21
0.0
 31
0.0
  0
CIRCLE
  5
5D
100
AcDbEntity
  8
0
  6
CONTINUOUS
 62
     0
100
AcDbCircle
 10
0.0
 20
0.0
 30
0.0
 40
0.5
  0
ENDBLK
  5
5E
100
AcDbEntity
  8
0
100
AcDbBlockEnd
  0
BLOCK
  5
5F
100
AcDbEntity
  8
0
100
AcDbBlockBegin
  2
_EX_WCIR2
 70
     0
 10
0.0
 20
0.0
 30
0.0
  3
_EX_WCIR2
  1

  0
LINE
  5
60
100
AcDbEntity
  8
0
  6
CONTINUOUS
 62
     0
100
AcDbLine
 10
-0.5
 20
0.0
 30
0.0
 11
-1.0
 21
0.0
 31
0.0
  0
CIRCLE
  5
61
100
AcDbEntity
  8
0
  6
CONTINUOUS
 62
     0
100
AcDbCircle
 10
0.0
 20
0.0
 30
0.0
 40
0.5
  0
ENDBLK
  5
62
100
AcDbEntity
  8
0
100
AcDbBlockEnd
  0
BLOCK
  5
63
100
AcDbEntity
  8
0
100
AcDbBlockBegin
  2
_EX_WNORM
 70
     0
 10
0.0
 20
0.0
 30
0.0
  3
_EX_WNORM
  1

  0
LINE
  5
64
100
AcDbEntity
  8
0
  6
CONTINUOUS
 62
     0
100
AcDbLine
 10
-1.0
 20
0.0
 30
0.0
 11
-1.0
 21
0.0
 31
0.0
  0
LINE
  5
65
100
AcDbEntity
  8
0
  6
CONTINUOUS
 62
     0
100
AcDbLine
 10
0.0
 20
0.0
 30
0.0
 11
-1.0
 21
0.166667
 31
0.0
  0
LINE
  5
66
100
AcDbEntity
  8
0
  6
CONTINUOUS
 62
     0
100
AcDbLine
 10
0.0
 20
0.0
 30
0.0
 11
-1.0
 21
-0.166667
 31
0.0
  0
LINE
  5
67
100
AcDbEntity
  8
0
  6
CONTINUOUS
 62
     0
100
AcDbLine
 10
-1.0
 20
0.166667
 30
0.0
 11
-1.0
 21
-0.166667
 31
0.0
  0
ENDBLK
  5
68
100
AcDbEntity
  8
0
100
AcDbBlockEnd
  0
BLOCK
  5
69
100
AcDbEntity
  8
0
100
AcDbBlockBegin
  2
_EX_NNORM
 70
     0
 10
0.0
 20
0.0
 30
0.0
  3
_EX_NNORM
  1

  0
LINE
  5
6A
100
AcDbEntity
  8
0
  6
CONTINUOUS
 62
     0
100
AcDbLine
 10
0.0
 20
0.0
 30
0.0
 11
-1.0
 21
0.0
 31
0.0
  0
LINE
  5
6B
100
AcDbEntity
  8
0
  6
CONTINUOUS
 62
     0
100
AcDbLine
 10
0.0
 20
0.0
 30
0.0
 11
-1.0
 21
0.166667
 31
0.0
  0
LINE
  5
6C
100
AcDbEntity
  8
0
  6
CONTINUOUS
 62
     0
100
AcDbLine
 10
0.0
 20
0.0
 30
0.0
 11
-1.0
 21
-0.166667
 31
0.0
  0
LINE
  5
6D
100
AcDbEntity
  8
0
  6
CONTINUOUS
 62
     0
100
AcDbLine
 10
-1.0
 20
0.166667
 30
0.0
 11
-1.0
 21
-0.166667
 31
0.0
  0
ENDBLK
  5
6E
100
AcDbEntity
  8
0
100
AcDbBlockEnd
  0
BLOCK
  5
6F
100
AcDbEntity
  8
0
100
AcDbBlockBegin
  2
_EX_BBOX
 70
     0
 10
0.0
 20
0.0
 30
0.0
  3
_EX_BBOX
  1

  0
LINE
  5
70
100
AcDbEntity
  8
0
  6
CONTINUOUS
 62
     0
100
AcDbLine
 10
0.0
 20
0.0
 30
0.0
 11
-1.0
 21
0.0
 31
0.0
  0
LINE
  5
71
100
AcDbEntity
  8
0
  6
CONTINUOUS
 62
     0
100
AcDbLine
 10
-0.5
 20
0.5
 30
0.0
 11
0.5
 21
0.5
 31
0.0
  0
LINE
  5
72
100
AcDbEntity
  8
0
  6
CONTINUOUS
 62
     0
100
AcDbLine
 10
0.5
 20
0.5
 30
0.0
 11
0.5
 21
-0.5
 31
0.0
  0
LINE
  5
73
100
AcDbEntity
  8
0
  6
CONTINUOUS
 62
     0
100
AcDbLine
 10
0.5
 20
-0.5
 30
0.0
 11
-0.5
 21
-0.5
 31
0.0
  0
LINE
  5
74
100
AcDbEntity
  8
0
  6
CONTINUOUS
 62
     0
100
AcDbLine
 10
-0.5
 20
-0.5
 30
0.0
 11
-0.5
 21
0.5
 31
0.0
  0
LINE
  5
75
100
AcDbEntity
  8
0
  6
CONTINUOUS
 62
     0
100
AcDbLine
 10
-0.25
 20
0.25
 30
0.0
 11
0.25
 21
0.25
 31
0.0
  0
LINE
  5
76
100
AcDbEntity
  8
0
  6
CONTINUOUS
 62
     0
100
AcDbLine
 10
0.25
 20
0.25
 30
0.0
 11
0.25
 21
-0.25
 31
0.0
  0
LINE
  5
77
100
AcDbEntity
  8
0
  6
CONTINUOUS
 62
     0
100
AcDbLine
 10
0.25
 20
-0.25
 30
0.0
 11
-0.25
 21
-0.25
 31
0.0
  0
LINE
  5
78
100
AcDbEntity
  8
0
  6
CONTINUOUS
 62
     0
100
AcDbLine
 10
-0.25
 20
-0.25
 30
0.0
 11
-0.25
 21
0.25
 31
0.0
  0
ENDBLK
  5
79
100
AcDbEntity
  8
0
100
AcDbBlockEnd
  0
BLOCK
  5
7A
100
AcDbEntity
  8
0
100
AcDbBlockBegin
  2
_EX_WBOX
 70
     0
 10
0.0
 20
0.0
 30
0.0
  3
_EX_WBOX
  1

  0
LINE
  5
7B
100
AcDbEntity
  8
0
  6
CONTINUOUS
 62
     0
100
AcDbLine
 10
-0.5
 20
0.0
 30
0.0
 11
-1.0
 21
0.0
 31
0.0
  0
LINE
  5
7C
100
AcDbEntity
  8
0
  6
CONTINUOUS
 62
     0
100
AcDbLine
 10
-0.5
 20
0.5
 30
0.0
 11
0.5
 21
0.5
 31
0.0
  0
LINE
  5
7D
100
AcDbEntity
  8
0
  6
CONTINUOUS
 62
     0
100
AcDbLine
 10
0.5
 20
0.5
 30
0.0
 11
0.5
 21
-0.5
 31
0.0
  0
LINE
  5
7E
100
AcDbEntity
  8
0
  6
CONTINUOUS
 62
     0
100
AcDbLine
 10
0.5
 20
-0.5
 30
0.0
 11
-0.5
 21
-0.5
 31
0.0
  0
LINE
  5
7F
100
AcDbEntity
  8
0
  6
CONTINUOUS
 62
     0
100
AcDbLine
 10
-0.5
 20
-0.5
 30
0.0
 11
-0.5
 21
0.5
 31
0.0
  0
ENDBLK
  5
80
100
AcDbEntity
  8
0
100
AcDbBlockEnd
  0
BLOCK
  5
81
100
AcDbEntity
  8
0
100
AcDbBlockBegin
  2
_EX_INTEGRAL
 70
     0
 10
0.0
 20
0.0
 30
0.0
  3
_EX_INTEGRAL
  1

  0
LINE
  5
82
100
AcDbEntity
  8
0
  6
CONTINUOUS
 62
     0
100
AcDbLine
 10
0.0
 20
0.0
 30
0.0
 11
-1.0
 21
0.0
 31
0.0
  0
ARC
  5
83
100
AcDbEntity
  8
0
  6
CONTINUOUS
 62
     0
100
AcDbCircle
 10
0.542115
 20
0.164992
 30
0.0
 40
0.56667
100
AcDbArc
 50
73.07249
 51
196.927513
  0
ARC
  5
84
100
AcDbEntity
  8
0
  6
CONTINUOUS
 62
     0
100
AcDbCircle
 10
-0.542115
 20
-0.164992
 30
0.0
 40
0.56667
100
AcDbArc
 50
253.072487
 51
16.927513
  0
ENDBLK
  5
85
100
AcDbEntity
  8
0
100
AcDbBlockEnd
  0
BLOCK
  5
86
100
AcDbEntity
  8
0
100
AcDbBlockBegin
  2
SYM-1
 70
     0
 10
0.0
 20
0.0
 30
0.0
  3
SYM-1
  1

  0
LINE
  5
87
100
AcDbEntity
  8
0
  6
CONTINUOUS
 62
     1
100
AcDbLine
 10
-0.925
 20
-8.775
 30
0.0
 11
3.775
 21
-8.775
 31
0.0
  0
LINE
  5
88
100
AcDbEntity
  8
0
  6
CONTINUOUS
 62
     1
100
AcDbLine
 10
3.775
 20
-8.775
 30
0.0
 11
2.95
 21
-8.05
 31
0.0
  0
LINE
  5
89
100
AcDbEntity
  8
0
  6
CONTINUOUS
 62
     1
100
AcDbLine
 10
2.95
 20
0.0
 30
0.0
 11
5.711955
 21
0.0
 31
0.0
  0
LINE
  5
8A
100
AcDbEntity
  8
0
  6
CONTINUOUS
 62
     1
100
AcDbLine
 10
5.711955
 20
0.0
 30
0.0
 11
6.770448
 21
-0.611122
 31
0.0
  0
LINE
  5
8B
100
AcDbEntity
  8
0
  6
CONTINUOUS
 62
     1
100
AcDbLine
 10
6.770448
 20
-0.611122
 30
0.0
 11
4.7
 21
2.975
 31
0.0
  0
LINE
  5
8C
100
AcDbEntity
  8
0
  6
CONTINUOUS
 62
     1
100
AcDbLine
 10
4.7
 20
2.975
 30
0.0
 11
4.1
 21
2.375
 31
0.0
  0
LINE
  5
8D
100
AcDbEntity
  8
0
  6
CONTINUOUS
 62
     1
100
AcDbLine
 10
4.1
 20
2.375
 30
0.0
 11
-1.2
 21
2.375
 31
0.0
  0
LINE
  5
8E
100
AcDbEntity
  8
0
  6
CONTINUOUS
 62
     1
100
AcDbLine
 10
-1.2
 20
2.375
 30
0.0
 11
-1.2
 21
7.618706
 31
0.0
  0
LINE
  5
8F
100
AcDbEntity
  8
0
  6
CONTINUOUS
 62
     1
100
AcDbLine
 10
-4.1
 20
2.375
 30
0.0
 11
-4.7
 21
2.975
 31
0.0
  0
LINE
  5
90
100
AcDbEntity
  8
0
  6
CONTINUOUS
 62
     1
100
AcDbLine
 10
-4.7
 20
2.975
 30
0.0
 11
-6.770448
 21
-0.611122
 31
0.0
  0
LINE
  5
91
100
AcDbEntity
  8
0
  6
CONTINUOUS
 62
     1
100
AcDbLine
 10
-6.770448
 20
-0.611122
 30
0.0
 11
-5.711955
 21
0.0
 31
0.0
  0
LINE
  5
92
100
AcDbEntity
  8
0
  6
CONTINUOUS
 62
     1
100
AcDbLine
 10
-5.711955
 20
0.0
 30
0.0
 11
-3.8
 21
0.0
 31
0.0
  0
LINE
  5
93
100
AcDbEntity
  8
0
  6
CONTINUOUS
 62
     1
100
AcDbLine
 10
-3.8
 20
0.0
 30
0.0
 11
-3.8
 21
-3.125
 31
0.0
  0
LINE
  5
94
100
AcDbEntity
  8
0
  6
CONTINUOUS
 62
     1
100
AcDbLine
 10
-3.8
 20
-3.125
 30
0.0
 11
-4.85
 21
-3.65
 31
0.0
  0
LINE
  5
95
100
AcDbEntity
  8
0
  6
CONTINUOUS
 62
     1
100
AcDbLine
 10
-4.85
 20
-3.65
 30
0.0
 11
0.0
 21
-3.65
 31
0.0
  0
LINE
  5
96
100
AcDbEntity
  8
0
  6
CONTINUOUS
 62
     1
100
AcDbLine
 10
0.0
 20
-3.65
 30
0.0
 11
-1.2
 21
-3.125
 31
0.0
  0
LINE
  5
97
100
AcDbEntity
  8
0
  6
CONTINUOUS
 62
     1
100
AcDbLine
 10
-1.2
 20
-3.125
 30
0.0
 11
-1.2
 21
0.0
 31
0.0
  0
LINE
  5
98
100
AcDbEntity
  8
0
  6
CONTINUOUS
 62
     1
100
AcDbLine
 10
-1.2
 20
0.0
 30
0.0
 11
0.0
 21
0.0
 31
0.0
  0
ELLIPSE
  5
99
100
AcDbEntity
  8
0
  6
CONTINUOUS
 62
     1
100
AcDbEllipse
 10
0.0
 20
0.0
 30
0.0
 11
-0.2271076736246198
 21
7.7216609032371322
 31
0.0
210
0.0
220
0.0
230
1.0
 40
0.912621
 41
0.5369857443297313
 42
3.1093760194933928
  0
ARC
  5
9A
100
AcDbEntity
  8
0
  6
CONTINUOUS
 62
     1
100
AcDbCircle
 10
0.0
 20
0.0
 30
0.0
 40
7.997695
100
AcDbArc
 50
118.368264
 51
270.0
  0
LINE
  5
9B
100
AcDbEntity
  8
0
  6
CONTINUOUS
 62
     1
100
AcDbLine
 10
-6.156163
 20
5.105368
 30
0.0
 11
-5.105368
 21
6.156163
 31
0.0
  0
LINE
  5
9C
100
AcDbEntity
  8
0
  6
CONTINUOUS
 62
     1
100
AcDbLine
 10
-7.037267
 20
3.8
 30
0.0
 11
-3.8
 21
7.037267
 31
0.0
  0
LINE
  5
9D
100
AcDbEntity
  8
0
  6
CONTINUOUS
 62
     1
100
AcDbLine
 10
-7.414194
 20
2.998809
 30
0.0
 11
-5.348454
 21
5.064549
 31
0.0
  0
LINE
  5
9E
100
AcDbEntity
  8
0
  6
CONTINUOUS
 62
     1
100
AcDbLine
 10
-4.121782
 20
6.291221
 30
0.0
 11
-3.8
 21
6.613003
 31
0.0
  0
LINE
  5
9F
100
AcDbEntity
  8
0
  6
CONTINUOUS
 62
     1
100
AcDbLine
 10
-7.647262
 20
2.341477
 30
0.0
 11
-6.123111
 21
3.865628
 31
0.0
  0
LINE
  5
A0
100
AcDbEntity
  8
0
  6
CONTINUOUS
 62
     1
100
AcDbLine
 10
-7.800808
 20
1.763667
 30
0.0
 11
-6.478615
 21
3.08586
 31
0.0
  0
LINE
  5
A1
100
AcDbEntity
  8
0
  6
CONTINUOUS
 62
     1
100
AcDbLine
 10
-7.901126
 20
1.239084
 30
0.0
 11
-6.702051
 21
2.43816
 31
0.0
  0
LINE
  5
A2
100
AcDbEntity
  8
0
  6
CONTINUOUS
 62
     1
100
AcDbLine
 10
-7.962086
 20
0.75386
 30
0.0
 11
-6.851122
 21
1.864824
 31
0.0
  0
LINE
  5
A3
100
AcDbEntity
  8
0
  6
CONTINUOUS
 62
     1
100
AcDbLine
 10
-7.992081
 20
0.299601
 30
0.0
 11
-6.949917
 21
1.341765
 31
0.0
  0
LINE
  5
A4
100
AcDbEntity
  8
0
  6
CONTINUOUS
 62
     1
100
AcDbLine
 10
-7.996651
 20
-0.129232
 30
0.0
 11
-7.011274
 21
0.856144
 31
0.0
  0
LINE
  5
A5
100
AcDbEntity
  8
0
  6
CONTINUOUS
 62
     1
100
AcDbLine
 10
-7.979678
 20
-0.536524
 30
0.0
 11
-7.043008
 21
0.400146
 31
0.0
  0
LINE
  5
A6
100
AcDbEntity
  8
0
  6
CONTINUOUS
 62
     1
100
AcDbLine
 10
-7.944009
 20
-0.925119
 30
0.0
 11
-7.050297
 21
-0.031406
 31
0.0
  0
LINE
  5
A7
100
AcDbEntity
  8
0
  6
CONTINUOUS
 62
     1
100
AcDbLine
 10
-7.891798
 20
-1.297172
 30
0.0
 11
-7.036778
 21
-0.442151
 31
0.0
  0
LINE
  5
A8
100
AcDbEntity
  8
0
  6
CONTINUOUS
 62
     1
100
AcDbLine
 10
-7.824719
 20
-1.654357
 30
0.0
 11
-7.005119
 21
-0.834757
 31
0.0
  0
LINE
  5
A9
100
AcDbEntity
  8
0
  6
CONTINUOUS
 62
     1
100
AcDbLine
 10
-7.744101
 20
-1.998003
 30
0.0
 11
-6.95734
 21
-1.211242
 31
0.0
  0
LINE
  5
AA
100
AcDbEntity
  8
0
  6
CONTINUOUS
 62
     1
100
AcDbLine
 10
-7.651016
 20
-2.329182
 30
0.0
 11
-6.895012
 21
-1.573178
 31
0.0
  0
LINE
  5
AB
100
AcDbEntity
  8
0
  6
CONTINUOUS
 62
     1
100
AcDbLine
 10
-7.546335
 20
-2.648765
 30
0.0
 11
-6.819374
 21
-1.921804
 31
0.0
  0
LINE
  5
AC
100
AcDbEntity
  8
0
  6
CONTINUOUS
 62
     1
100
AcDbLine
 10
-7.430779
 20
-2.957473
 30
0.0
 11
-6.731425
 21
-2.258119
 31
0.0
  0
LINE
  5
AD
100
AcDbEntity
  8
0
  6
CONTINUOUS
 62
     1
100
AcDbLine
 10
-7.304945
 20
-3.255903
 30
0.0
 11
-6.631973
 21
-2.582931
 31
0.0
  0
LINE
  5
AE
100
AcDbEntity
  8
0
  6
CONTINUOUS
 62
     1
100
AcDbLine
 10
-7.169329
 20
-3.544551
 30
0.0
 11
-6.52168
 21
-2.896903
 31
0.0
  0
LINE
  5
AF
100
AcDbEntity
  8
0
  6
CONTINUOUS
 62
     1
100
AcDbLine
 10
-7.024346
 20
-3.823832
 30
0.0
 11
-6.401091
 21
-3.200577
 31
0.0
  0
LINE
  5
B0
100
AcDbEntity
  8
0
  6
CONTINUOUS
 62
     1
100
AcDbLine
 10
-6.870339
 20
-4.094089
 30
0.0
 11
-6.27065
 21
-3.494401
 31
0.0
  0
LINE
  5
B1
100
AcDbEntity
  8
0
  6
CONTINUOUS
 62
     1
100
AcDbLine
 10
-6.707593
 20
-4.355608
 30
0.0
 11
-6.130724
 21
-3.778738
 31
0.0
  0
LINE
  5
B2
100
AcDbEntity
  8
0
  6
CONTINUOUS
 62
     1
100
AcDbLine
 10
-6.536341
 20
-4.608619
 30
0.0
 11
-5.981607
 21
-4.053885
 31
0.0
  0
LINE
  5
B3
100
AcDbEntity
  8
0
  6
CONTINUOUS
 62
     1
100
AcDbLine
 10
-6.356768
 20
-4.853311
 30
0.0
 11
-5.823534
 21
-4.320076
 31
0.0
  0
LINE
  5
B4
100
AcDbEntity
  8
0
  6
CONTINUOUS
 62
     1
100
AcDbLine
 10
-6.169019
 20
-5.089826
 30
0.0
 11
-5.656687
 21
-4.577493
 31
0.0
  0
LINE
  5
B5
100
AcDbEntity
  8
0
  6
CONTINUOUS
 62
     1
100
AcDbLine
 10
-5.9732
 20
-5.318271
 30
0.0
 11
-5.481198
 21
-4.826269
 31
0.0
  0
LINE
  5
B6
100
AcDbEntity
  8
0
  6
CONTINUOUS
 62
     1
100
AcDbLine
 10
-5.769381
 20
-5.538716
 30
0.0
 11
-5.297154
 21
-5.066489
 31
0.0
  0
LINE
  5
B7
100
AcDbEntity
  8
0
  6
CONTINUOUS
 62
     1
100
AcDbLine
 10
-5.557596
 20
-5.751195
 30
0.0
 11
-5.104599
 21
-5.298198
 31
0.0
  0
LINE
  5
B8
100
AcDbEntity
  8
0
  6
CONTINUOUS
 62
     1
100
AcDbLine
 10
-5.337848
 20
-5.955711
 30
0.0
 11
-4.903535
 21
-5.521398
 31
0.0
  0
LINE
  5
B9
100
AcDbEntity
  8
0
  6
CONTINUOUS
 62
     1
100
AcDbLine
 10
-5.110105
 20
-6.152232
 30
0.0
 11
-4.693922
 21
-5.736049
 31
0.0
  0
LINE
  5
BA
100
AcDbEntity
  8
0
  6
CONTINUOUS
 62
     1
100
AcDbLine
 10
-4.874298
 20
-6.340689
 30
0.0
 11
-4.475677
 21
-5.942068
 31
0.0
  0
LINE
  5
BB
100
AcDbEntity
  8
0
  6
CONTINUOUS
 62
     1
100
AcDbLine
 10
-4.630326
 20
-6.520982
 30
0.0
 11
-4.24867
 21
-6.139326
 31
0.0
  0
LINE
  5
BC
100
AcDbEntity
  8
0
  6
CONTINUOUS
 62
     1
100
AcDbLine
 10
-4.378048
 20
-6.692968
 30
0.0
 11
-4.012726
 21
-6.327646
 31
0.0
  0
LINE
  5
BD
100
AcDbEntity
  8
0
  6
CONTINUOUS
 62
     1
100
AcDbLine
 10
-4.117282
 20
-6.856465
 30
0.0
 11
-3.767614
 21
-6.506798
 31
0.0
  0
LINE
  5
BE
100
AcDbEntity
  8
0
  6
CONTINUOUS
 62
     1
100
AcDbLine
 10
-3.847799
 20
-7.011246
 30
0.0
 11
-3.513045
 21
-6.676492
 31
0.0
  0
LINE
  5
BF
100
AcDbEntity
  8
0
  6
CONTINUOUS
 62
     1
100
AcDbLine
 10
-3.569319
 20
-7.157031
 30
0.0
 11
-3.248659
 21
-6.836371
 31
0.0
  0
LINE
  5
C0
100
AcDbEntity
  8
0
  6
CONTINUOUS
 62
     1
100
AcDbLine
 10
-3.281505
 20
-7.29348
 30
0.0
 11
-2.974019
 21
-6.985995
 31
0.0
  0
LINE
  5
C1
100
AcDbEntity
  8
0
  6
CONTINUOUS
 62
     1
100
AcDbLine
 10
-2.983948
 20
-7.420187
 30
0.0
 11
-2.68859
 21
-7.12483
 31
0.0
  0
LINE
  5
C2
100
AcDbEntity
  8
0
  6
CONTINUOUS
 62
     1
100
AcDbLine
 10
-2.67616
 20
-7.536663
 30
0.0
 11
-2.391722
 21
-7.252226
 31
0.0
  0
LINE
  5
C3
100
AcDbEntity
  8
0
  6
CONTINUOUS
 62
     1
100
AcDbLine
 10
-2.357553
 20
-7.642321
 30
0.0
 11
-2.08262
 21
-7.367388
 31
0.0
  0
LINE
  5
C4
100
AcDbEntity
  8
0
  6
CONTINUOUS
 62
     1
100
AcDbLine
 10
-2.02742
 20
-7.736452
 30
0.0
 11
-1.760305
 21
-7.469336
 31
0.0
  0
LINE
  5
C5
100
AcDbEntity
  8
0
  6
CONTINUOUS
 62
     1
100
AcDbLine
 10
-1.684903
 20
-7.818199
 30
0.0
 11
-1.423559
 21
-7.556855
 31
0.0
  0
LINE
  5
C6
100
AcDbEntity
  8
0
  6
CONTINUOUS
 62
     1
100
AcDbLine
 10
-1.328949
 20
-7.886509
 30
0.0
 11
-1.070847
 21
-7.628407
 31
0.0
  0
LINE
  5
C7
100
AcDbEntity
  8
0
  6
CONTINUOUS
 62
     1
100
AcDbLine
 10
-0.958256
 20
-7.94008
 30
0.0
 11
-0.700194
 21
-7.682018
 31
0.0
  0
LINE
  5
C8
100
AcDbEntity
  8
0
  6
CONTINUOUS
 62
     1
100
AcDbLine
 10
-0.571184
 20
-7.977272
 30
0.0
 11
-0.308999
 21
-7.715087
 31
0.0
  0
LINE
  5
C9
100
AcDbEntity
  8
0
  6
CONTINUOUS
 62
     1
100
AcDbLine
 10
-0.165628
 20
-7.99598
 30
0.0
 11
0.0
 21
-7.830352
 31
0.0
  0
LINE
  5
CA
100
AcDbEntity
  8
0
  6
CONTINUOUS
 62
     1
100
AcDbLine
 10
-4.6
 20
9.575
 30
0.0
 11
-3.8
 21
7.037267
 31
0.0
  0
LINE
  5
CB
100
AcDbEntity
  8
0
  6
CONTINUOUS
 62
     1
100
AcDbLine
 10
0.0
 20
-7.997695
 30
0.0
 11
-0.925
 21
-8.775
 31
0.0
  0
LINE
  5
CC
100
AcDbEntity
  8
0
  6
CONTINUOUS
 62
     1
100
AcDbLine
 10
-3.8
 20
2.375
 30
0.0
 11
-4.1
 21
2.375
 31
0.0
  0
LINE
  5
CD
100
AcDbEntity
  8
0
  6
CONTINUOUS
 62
     1
100
AcDbLine
 10
-4.511824
 20
9.295291
 30
0.0
 11
-4.366479
 21
9.440636
 31
0.0
  0
LINE
  5
CE
100
AcDbEntity
  8
0
  6
CONTINUOUS
 62
     1
100
AcDbLine
 10
-4.410135
 20
8.972716
 30
0.0
 11
-4.09717
 21
9.285681
 31
0.0
  0
LINE
  5
CF
100
AcDbEntity
  8
0
  6
CONTINUOUS
 62
     1
100
AcDbLine
 10
-4.308446
 20
8.650141
 30
0.0
 11
-3.827861
 21
9.130726
 31
0.0
  0
LINE
  5
D0
100
AcDbEntity
  8
0
  6
CONTINUOUS
 62
     1
100
AcDbLine
 10
-4.206757
 20
8.327567
 30
0.0
 11
-3.558552
 21
8.975771
 31
0.0
  0
LINE
  5
D1
100
AcDbEntity
  8
0
  6
CONTINUOUS
 62
     1
100
AcDbLine
 10
-4.105067
 20
8.004992
 30
0.0
 11
-3.289243
 21
8.820816
 31
0.0
  0
LINE
  5
D2
100
AcDbEntity
  8
0
  6
CONTINUOUS
 62
     1
100
AcDbLine
 10
-4.003378
 20
7.682417
 30
0.0
 11
-3.019934
 21
8.665861
 31
0.0
  0
LINE
  5
D3
100
AcDbEntity
  8
0
  6
CONTINUOUS
 62
     1
100
AcDbLine
 10
-3.901689
 20
7.359842
 30
0.0
 11
-2.750625
 21
8.510906
 31
0.0
  0
LINE
  5
D4
100
AcDbEntity
  8
0
  6
CONTINUOUS
 62
     1
100
AcDbLine
 10
-3.8
 20
7.037267
 30
0.0
 11
-2.481316
 21
8.355951
 31
0.0
  0
LINE
  5
D5
100
AcDbEntity
  8
0
  6
CONTINUOUS
 62
     1
100
AcDbLine
 10
-3.8
 20
6.613003
 30
0.0
 11
-2.212007
 21
8.200995
 31
0.0
  0
LINE
  5
D6
100
AcDbEntity
  8
0
  6
CONTINUOUS
 62
     1
100
AcDbLine
 10
-3.8
 20
6.188739
 30
0.0
 11
-1.942698
 21
8.04604
 31
0.0
  0
LINE
  5
D7
100
AcDbEntity
  8
0
  6
CONTINUOUS
 62
     1
100
AcDbLine
 10
-3.8
 20
5.764475
 30
0.0
 11
-1.67339
 21
7.891085
 31
0.0
  0
LINE
  5
D8
100
AcDbEntity
  8
0
  6
CONTINUOUS
 62
     1
100
AcDbLine
 10
-3.8
 20
5.340211
 30
0.0
 11
-1.239084
 21
7.901126
 31
0.0
  0
LINE
  5
D9
100
AcDbEntity
  8
0
  6
CONTINUOUS
 62
     1
100
AcDbLine
 10
-3.8
 20
4.915947
 30
0.0
 11
-1.2
 21
7.515947
 31
0.0
  0
LINE
  5
DA
100
AcDbEntity
  8
0
  6
CONTINUOUS
 62
     1
100
AcDbLine
 10
-3.8
 20
4.491682
 30
0.0
 11
-1.2
 21
7.091682
 31
0.0
  0
LINE
  5
DB
100
AcDbEntity
  8
0
  6
CONTINUOUS
 62
     1
100
AcDbLine
 10
-3.8
 20
4.067418
 30
0.0
 11
-1.2
 21
6.667418
 31
0.0
  0
LINE
  5
DC
100
AcDbEntity
  8
0
  6
CONTINUOUS
 62
     1
100
AcDbLine
 10
-5.016707
 20
2.426447
 30
0.0
 11
-4.584077
 21
2.859077
 31
0.0
  0
LINE
  5
DD
100
AcDbEntity
  8
0
  6
CONTINUOUS
 62
     1
100
AcDbLine
 10
-3.8
 20
3.643154
 30
0.0
 11
-1.2
 21
6.243154
 31
0.0
  0
LINE
  5
DE
100
AcDbEntity
  8
0
  6
CONTINUOUS
 62
     1
100
AcDbLine
 10
-5.596263
 20
1.422628
 30
0.0
 11
-4.371945
 21
2.646945
 31
0.0
  0
LINE
  5
DF
100
AcDbEntity
  8
0
  6
CONTINUOUS
 62
     1
100
AcDbLine
 10
-3.8
 20
3.21889
 30
0.0
 11
-1.2
 21
5.81889
 31
0.0
  0
LINE
  5
E0
100
AcDbEntity
  8
0
  6
CONTINUOUS
 62
     1
100
AcDbLine
 10
-6.175818
 20
0.418808
 30
0.0
 11
-4.159813
 21
2.434813
 31
0.0
  0
LINE
  5
E1
100
AcDbEntity
  8
0
  6
CONTINUOUS
 62
     1
100
AcDbLine
 10
-3.8
 20
2.794626
 30
0.0
 11
-1.2
 21
5.394626
 31
0.0
  0
LINE
  5
E2
100
AcDbEntity
  8
0
  6
CONTINUOUS
 62
     1
100
AcDbLine
 10
-6.755374
 20
-0.585011
 30
0.0
 11
-1.2
 21
4.970362
 31
0.0
  0
LINE
  5
E3
100
AcDbEntity
  8
0
  6
CONTINUOUS
 62
     1
100
AcDbLine
 10
-5.792739
 20
-0.046641
 30
0.0
 11
-1.2
 21
4.546098
 31
0.0
  0
LINE
  5
E4
100
AcDbEntity
  8
0
  6
CONTINUOUS
 62
     1
100
AcDbLine
 10
-5.321834
 20
0.0
 30
0.0
 11
-1.2
 21
4.121834
 31
0.0
  0
LINE
  5
E5
100
AcDbEntity
  8
0
  6
CONTINUOUS
 62
     1
100
AcDbLine
 10
-4.89757
 20
0.0
 30
0.0
 11
-1.2
 21
3.69757
 31
0.0
  0
LINE
  5
E6
100
AcDbEntity
  8
0
  6
CONTINUOUS
 62
     1
100
AcDbLine
 10
-4.473306
 20
0.0
 30
0.0
 11
-1.2
 21
3.273306
 31
0.0
  0
LINE
  5
E7
100
AcDbEntity
  8
0
  6
CONTINUOUS
 62
     1
100
AcDbLine
 10
-4.049042
 20
0.0
 30
0.0
 11
-1.2
 21
2.849042
 31
0.0
  0
LINE
  5
E8
100
AcDbEntity
  8
0
  6
CONTINUOUS
 62
     1
100
AcDbLine
 10
-3.8
 20
-0.175222
 30
0.0
 11
-1.2
 21
2.424778
 31
0.0
  0
LINE
  5
E9
100
AcDbEntity
  8
0
  6
CONTINUOUS
 62
     1
100
AcDbLine
 10
-3.8
 20
-0.599486
 30
0.0
 11
-0.825514
 21
2.375
 31
0.0
  0
LINE
  5
EA
100
AcDbEntity
  8
0
  6
CONTINUOUS
 62
     1
100
AcDbLine
 10
-3.8
 20
-1.02375
 30
0.0
 11
-0.40125
 21
2.375
 31
0.0
  0
LINE
  5
EB
100
AcDbEntity
  8
0
  6
CONTINUOUS
 62
     1
100
AcDbLine
 10
-3.8
 20
-1.448015
 30
0.0
 11
0.023015
 21
2.375
 31
0.0
  0
LINE
  5
EC
100
AcDbEntity
  8
0
  6
CONTINUOUS
 62
     1
100
AcDbLine
 10
-3.8
 20
-1.872279
 30
0.0
 11
0.447279
 21
2.375
 31
0.0
  0
LINE
  5
ED
100
AcDbEntity
  8
0
  6
CONTINUOUS
 62
     1
100
AcDbLine
 10
-3.8
 20
-2.296543
 30
0.0
 11
0.871543
 21
2.375
 31
0.0
  0
LINE
  5
EE
100
AcDbEntity
  8
0
  6
CONTINUOUS
 62
     1
100
AcDbLine
 10
-4.729193
 20
-3.65
 30
0.0
 11
-4.608387
 21
-3.529193
 31
0.0
  0
LINE
  5
EF
100
AcDbEntity
  8
0
  6
CONTINUOUS
 62
     1
100
AcDbLine
 10
-3.8
 20
-2.720807
 30
0.0
 11
-1.2
 21
-0.120807
 31
0.0
  0
LINE
  5
F0
100
AcDbEntity
  8
0
  6
CONTINUOUS
 62
     1
100
AcDbLine
 10
-1.079193
 20
0.0
 30
0.0
 11
1.295807
 21
2.375
 31
0.0
  0
LINE
  5
F1
100
AcDbEntity
  8
0
  6
CONTINUOUS
 62
     1
100
AcDbLine
 10
-4.304929
 20
-3.65
 30
0.0
 11
-1.2
 21
-0.545071
 31
0.0
  0
LINE
  5
F2
100
AcDbEntity
  8
0
  6
CONTINUOUS
 62
     1
100
AcDbLine
 10
-0.654929
 20
0.0
 30
0.0
 11
1.720071
 21
2.375
 31
0.0
  0
LINE
  5
F3
100
AcDbEntity
  8
0
  6
CONTINUOUS
 62
     1
100
AcDbLine
 10
-3.880665
 20
-3.65
 30
0.0
 11
-1.2
 21
-0.969335
 31
0.0
  0
LINE
  5
F4
100
AcDbEntity
  8
0
  6
CONTINUOUS
 62
     1
100
AcDbLine
 10
-0.230665
 20
0.0
 30
0.0
 11
2.144335
 21
2.375
 31
0.0
  0
LINE
  5
F5
100
AcDbEntity
  8
0
  6
CONTINUOUS
 62
     1
100
AcDbLine
 10
-3.456401
 20
-3.65
 30
0.0
 11
-1.2
 21
-1.393599
 31
0.0
  0
LINE
  5
F6
100
AcDbEntity
  8
0
  6
CONTINUOUS
 62
     1
100
AcDbLine
 10
0.0
 20
-0.193599
 30
0.0
 11
2.568599
 21
2.375
 31
0.0
  0
LINE
  5
F7
100
AcDbEntity
  8
0
  6
CONTINUOUS
 62
     1
100
AcDbLine
 10
-3.032137
 20
-3.65
 30
0.0
 11
-1.2
 21
-1.817863
 31
0.0
  0
LINE
  5
F8
100
AcDbEntity
  8
0
  6
CONTINUOUS
 62
     1
100
AcDbLine
 10
0.0
 20
-0.617863
 30
0.0
 11
2.992863
 21
2.375
 31
0.0
  0
LINE
  5
F9
100
AcDbEntity
  8
0
  6
CONTINUOUS
 62
     1
100
AcDbLine
 10
-2.607873
 20
-3.65
 30
0.0
 11
-1.2
 21
-2.242127
 31
0.0
  0
LINE
  5
FA
100
AcDbEntity
  8
0
  6
CONTINUOUS
 62
     1
100
AcDbLine
 10
0.0
 20
-1.042127
 30
0.0
 11
3.417127
 21
2.375
 31
0.0
  0
LINE
  5
FB
100
AcDbEntity
  8
0
  6
CONTINUOUS
 62
     1
100
AcDbLine
 10
-2.183609
 20
-3.65
 30
0.0
 11
-1.2
 21
-2.666391
 31
0.0
  0
LINE
  5
FC
100
AcDbEntity
  8
0
  6
CONTINUOUS
 62
     1
100
AcDbLine
 10
0.0
 20
-1.466391
 30
0.0
 11
3.841391
 21
2.375
 31
0.0
  0
LINE
  5
FD
100
AcDbEntity
  8
0
  6
CONTINUOUS
 62
     1
100
AcDbLine
 10
-1.759345
 20
-3.65
 30
0.0
 11
-1.2
 21
-3.090655
 31
0.0
  0
LINE
  5
FE
100
AcDbEntity
  8
0
  6
CONTINUOUS
 62
     1
100
AcDbLine
 10
0.0
 20
-1.890655
 30
0.0
 11
4.760634
 21
2.869979
 31
0.0
  0
LINE
  5
FF
100
AcDbEntity
  8
0
  6
CONTINUOUS
 62
     1
100
AcDbLine
 10
-1.335081
 20
-3.65
 30
0.0
 11
-0.928752
 21
-3.243671
 31
0.0
  0
LINE
  5
100
100
AcDbEntity
  8
0
  6
CONTINUOUS
 62
     1
100
AcDbLine
 10
0.0
 20
-2.314919
 30
0.0
 11
4.915925
 21
2.601006
 31
0.0
  0
LINE
  5
101
100
AcDbEntity
  8
0
  6
CONTINUOUS
 62
     1
100
AcDbLine
 10
-0.910817
 20
-3.65
 30
0.0
 11
-0.633612
 21
-3.372795
 31
0.0
  0
LINE
  5
102
100
AcDbEntity
  8
0
  6
CONTINUOUS
 62
     1
100
AcDbLine
 10
0.0
 20
-2.739183
 30
0.0
 11
5.071217
 21
2.332034
 31
0.0
  0
LINE
  5
103
100
AcDbEntity
  8
0
  6
CONTINUOUS
 62
     1
100
AcDbLine
 10
-0.486553
 20
-3.65
 30
0.0
 11
-0.338471
 21
-3.501919
 31
0.0
  0
LINE
  5
104
100
AcDbEntity
  8
0
  6
CONTINUOUS
 62
     1
100
AcDbLine
 10
0.0
 20
-3.163447
 30
0.0
 11
2.95
 21
-0.213447
 31
0.0
  0
LINE
  5
105
100
AcDbEntity
  8
0
  6
CONTINUOUS
 62
     1
100
AcDbLine
 10
3.163447
 20
0.0
 30
0.0
 11
5.226508
 21
2.063061
 31
0.0
  0
LINE
  5
106
100
AcDbEntity
  8
0
  6
CONTINUOUS
 62
     1
100
AcDbLine
 10
-0.062289
 20
-3.65
 30
0.0
 11
-0.043331
 21
-3.631043
 31
0.0
  0
LINE
  5
107
100
AcDbEntity
  8
0
  6
CONTINUOUS
 62
     1
100
AcDbLine
 10
0.0
 20
-3.587711
 30
0.0
 11
2.95
 21
-0.637711
 31
0.0
  0
LINE
  5
108
100
AcDbEntity
  8
0
  6
CONTINUOUS
 62
     1
100
AcDbLine
 10
3.587711
 20
0.0
 30
0.0
 11
5.3818
 21
1.794088
 31
0.0
  0
LINE
  5
109
100
AcDbEntity
  8
0
  6
CONTINUOUS
 62
     1
100
AcDbLine
 10
0.0
 20
-4.011976
 30
0.0
 11
2.95
 21
-1.061976
 31
0.0
  0
LINE
  5
10A
100
AcDbEntity
  8
0
  6
CONTINUOUS
 62
     1
100
AcDbLine
 10
4.011976
 20
0.0
 30
0.0
 11
5.537091
 21
1.525116
 31
0.0
  0
LINE
  5
10B
100
AcDbEntity
  8
0
  6
CONTINUOUS
 62
     1
100
AcDbLine
 10
0.0
 20
-4.43624
 30
0.0
 11
2.95
 21
-1.48624
 31
0.0
  0
LINE
  5
10C
100
AcDbEntity
  8
0
  6
CONTINUOUS
 62
     1
100
AcDbLine
 10
4.43624
 20
0.0
 30
0.0
 11
5.692383
 21
1.256143
 31
0.0
  0
LINE
  5
10D
100
AcDbEntity
  8
0
  6
CONTINUOUS
 62
     1
100
AcDbLine
 10
0.0
 20
-4.860504
 30
0.0
 11
2.95
 21
-1.910504
 31
0.0
  0
LINE
  5
10E
100
AcDbEntity
  8
0
  6
CONTINUOUS
 62
     1
100
AcDbLine
 10
4.860504
 20
0.0
 30
0.0
 11
5.847674
 21
0.98717
 31
0.0
  0
LINE
  5
10F
100
AcDbEntity
  8
0
  6
CONTINUOUS
 62
     1
100
AcDbLine
 10
0.0
 20
-5.284768
 30
0.0
 11
2.95
 21
-2.334768
 31
0.0
  0
LINE
  5
110
100
AcDbEntity
  8
0
  6
CONTINUOUS
 62
     1
100
AcDbLine
 10
5.284768
 20
0.0
 30
0.0
 11
6.002965
 21
0.718198
 31
0.0
  0
LINE
  5
111
100
AcDbEntity
  8
0
  6
CONTINUOUS
 62
     1
100
AcDbLine
 10
0.0
 20
-5.709032
 30
0.0
 11
2.95
 21
-2.759032
 31
0.0
  0
LINE
  5
112
100
AcDbEntity
  8
0
  6
CONTINUOUS
 62
     1
100
AcDbLine
 10
5.709032
 20
0.0
 30
0.0
 11
6.158257
 21
0.449225
 31
0.0
  0
LINE
  5
113
100
AcDbEntity
  8
0
  6
CONTINUOUS
 62
     1
100
AcDbLine
 10
0.0
 20
-6.133296
 30
0.0
 11
2.95
 21
-3.183296
 31
0.0
  0
LINE
  5
114
100
AcDbEntity
  8
0
  6
CONTINUOUS
 62
     1
100
AcDbLine
 10
5.979074
 20
-0.154222
 30
0.0
 11
6.313548
 21
0.180252
 31
0.0
  0
LINE
  5
115
100
AcDbEntity
  8
0
  6
CONTINUOUS
 62
     1
100
AcDbLine
 10
0.0
 20
-6.55756
 30
0.0
 11
2.95
 21
-3.60756
 31
0.0
  0
LINE
  5
116
100
AcDbEntity
  8
0
  6
CONTINUOUS
 62
     1
100
AcDbLine
 10
6.248047
 20
-0.309513
 30
0.0
 11
6.46884
 21
-0.08872
 31
0.0
  0
LINE
  5
117
100
AcDbEntity
  8
0
  6
CONTINUOUS
 62
     1
100
AcDbLine
 10
0.0
 20
-6.981824
 30
0.0
 11
2.95
 21
-4.031824
 31
0.0
  0
LINE
  5
118
100
AcDbEntity
  8
0
  6
CONTINUOUS
 62
     1
100
AcDbLine
 10
6.51702
 20
-0.464804
 30
0.0
 11
6.624131
 21
-0.357693
 31
0.0
  0
LINE
  5
119
100
AcDbEntity
  8
0
  6
CONTINUOUS
 62
     1
100
AcDbLine
 10
0.0
 20
-7.406088
 30
0.0
 11
2.95
 21
-4.456088
 31
0.0
  0
LINE
  5
11A
100
AcDbEntity
  8
0
  6
CONTINUOUS
 62
     1
100
AcDbLine
 10
0.0
 20
-7.830352
 30
0.0
 11
2.95
 21
-4.880352
 31
0.0
  0
LINE
  5
11B
100
AcDbEntity
  8
0
  6
CONTINUOUS
 62
     1
100
AcDbLine
 10
-0.520384
 20
-8.775
 30
0.0
 11
2.95
 21
-5.304616
 31
0.0
  0
LINE
  5
11C
100
AcDbEntity
  8
0
  6
CONTINUOUS
 62
     1
100
AcDbLine
 10
-0.09612
 20
-8.775
 30
0.0
 11
2.95
 21
-5.72888
 31
0.0
  0
LINE
  5
11D
100
AcDbEntity
  8
0
  6
CONTINUOUS
 62
     1
100
AcDbLine
 10
0.328144
 20
-8.775
 30
0.0
 11
2.95
 21
-6.153144
 31
0.0
  0
LINE
  5
11E
100
AcDbEntity
  8
0
  6
CONTINUOUS
 62
     1
100
AcDbLine
 10
0.752408
 20
-8.775
 30
0.0
 11
2.95
 21
-6.577408
 31
0.0
  0
LINE
  5
11F
100
AcDbEntity
  8
0
  6
CONTINUOUS
 62
     1
100
AcDbLine
 10
1.176672
 20
-8.775
 30
0.0
 11
2.95
 21
-7.001672
 31
0.0
  0
LINE
  5
120
100
AcDbEntity
  8
0
  6
CONTINUOUS
 62
     1
100
AcDbLine
 10
1.600937
 20
-8.775
 30
0.0
 11
2.95
 21
-7.425937
 31
0.0
  0
LINE
  5
121
100
AcDbEntity
  8
0
  6
CONTINUOUS
 62
     1
100
AcDbLine
 10
2.025201
 20
-8.775
 30
0.0
 11
2.95
 21
-7.850201
 31
0.0
  0
LINE
  5
122
100
AcDbEntity
  8
0
  6
CONTINUOUS
 62
     1
100
AcDbLine
 10
2.449465
 20
-8.775
 30
0.0
 11
3.069473
 21
-8.154992
 31
0.0
  0
LINE
  5
123
100
AcDbEntity
  8
0
  6
CONTINUOUS
 62
     1
100
AcDbLine
 10
2.873729
 20
-8.775
 30
0.0
 11
3.295291
 21
-8.353438
 31
0.0
  0
LINE
  5
124
100
AcDbEntity
  8
0
  6
CONTINUOUS
 62
     1
100
AcDbLine
 10
3.297993
 20
-8.775
 30
0.0
 11
3.521109
 21
-8.551884
 31
0.0
  0
LINE
  5
125
100
AcDbEntity
  8
0
  6
CONTINUOUS
 62
     1
100
AcDbLine
 10
3.722257
 20
-8.775
 30
0.0
 11
3.746927
 21
-8.75033
 31
0.0
  0
LINE
  5
126
100
AcDbEntity
  8
0
  6
CONTINUOUS
 62
     1
100
AcDbLine
 10
-1.244898
 20
7.895312
 30
0.0
 11
-1.239084
 21
7.901126
 31
0.0
  0
LINE
  5
127
100
AcDbEntity
  8
0
  6
CONTINUOUS
 62
     1
100
AcDbLine
 10
-1.067674
 20
7.648273
 30
0.0
 11
-0.75386
 21
7.962086
 31
0.0
  0
LINE
  5
128
100
AcDbEntity
  8
0
  6
CONTINUOUS
 62
     1
100
AcDbLine
 10
-0.591057
 20
7.700625
 30
0.0
 11
-0.299601
 21
7.992081
 31
0.0
  0
LINE
  5
129
100
AcDbEntity
  8
0
  6
CONTINUOUS
 62
     1
100
AcDbLine
 10
-0.143848
 20
7.72357
 30
0.0
 11
0.129232
 21
7.996651
 31
0.0
  0
LINE
  5
12A
100
AcDbEntity
  8
0
  6
CONTINUOUS
 62
     1
100
AcDbLine
 10
0.273738
 20
7.716893
 30
0.0
 11
0.536524
 21
7.979678
 31
0.0
  0
LINE
  5
12B
100
AcDbEntity
  8
0
  6
CONTINUOUS
 62
     1
100
AcDbLine
 10
0.666879
 20
7.685769
 30
0.0
 11
0.925119
 21
7.944009
 31
0.0
  0
LINE
  5
12C
100
AcDbEntity
  8
0
  6
CONTINUOUS
 62
     1
100
AcDbLine
 10
1.039212
 20
7.633838
 30
0.0
 11
1.297172
 21
7.891798
 31
0.0
  0
LINE
  5
12D
100
AcDbEntity
  8
0
  6
CONTINUOUS
 62
     1
100
AcDbLine
 10
1.393405
 20
7.563767
 30
0.0
 11
1.654357
 21
7.824719
 31
0.0
  0
LINE
  5
12E
100
AcDbEntity
  8
0
  6
CONTINUOUS
 62
     1
100
AcDbLine
 10
1.731479
 20
7.477578
 30
0.0
 11
1.998003
 21
7.744101
 31
0.0
  0
LINE
  5
12F
100
AcDbEntity
  8
0
  6
CONTINUOUS
 62
     1
100
AcDbLine
 10
2.055003
 20
7.376837
 30
0.0
 11
2.329182
 21
7.651016
 31
0.0
  0
LINE
  5
130
100
AcDbEntity
  8
0
  6
CONTINUOUS
 62
     1
100
AcDbLine
 10
2.365218
 20
7.262788
 30
0.0
 11
2.648765
 21
7.546335
 31
0.0
  0
LINE
  5
131
100
AcDbEntity
  8
0
  6
CONTINUOUS
 62
     1
100
AcDbLine
 10
2.663121
 20
7.136426
 30
0.0
 11
2.957473
 21
7.430779
 31
0.0
  0
LINE
  5
132
100
AcDbEntity
  8
0
  6
CONTINUOUS
 62
     1
100
AcDbLine
 10
2.949521
 20
6.998563
 30
0.0
 11
3.255903
 21
7.304945
 31
0.0
  0
LINE
  5
133
100
AcDbEntity
  8
0
  6
CONTINUOUS
 62
     1
100
AcDbLine
 10
3.225081
 20
6.849859
 30
0.0
 11
3.544551
 21
7.169329
 31
0.0
  0
LINE
  5
134
100
AcDbEntity
  8
0
  6
CONTINUOUS
 62
     1
100
AcDbLine
 10
3.490344
 20
6.690857
 30
0.0
 11
3.823832
 21
7.024346
 31
0.0
  0
LINE
  5
135
100
AcDbEntity
  8
0
  6
CONTINUOUS
 62
     1
100
AcDbLine
 10
3.745755
 20
6.522005
 30
0.0
 11
4.094089
 21
6.870339
 31
0.0
  0
LINE
  5
136
100
AcDbEntity
  8
0
  6
CONTINUOUS
 62
     1
100
AcDbLine
 10
3.991681
 20
6.343667
 30
0.0
 11
4.355608
 21
6.707593
 31
0.0
  0
LINE
  5
137
100
AcDbEntity
  8
0
  6
CONTINUOUS
 62
     1
100
AcDbLine
 10
4.228416
 20
6.156138
 30
0.0
 11
4.608619
 21
6.536341
 31
0.0
  0
LINE
  5
138
100
AcDbEntity
  8
0
  6
CONTINUOUS
 62
     1
100
AcDbLine
 10
4.456196
 20
5.959653
 30
0.0
 11
4.853311
 21
6.356768
 31
0.0
  0
LINE
  5
139
100
AcDbEntity
  8
0
  6
CONTINUOUS
 62
     1
100
AcDbLine
 10
4.675201
 20
5.754394
 30
0.0
 11
5.089826
 21
6.169019
 31
0.0
  0
LINE
  5
13A
100
AcDbEntity
  8
0
  6
CONTINUOUS
 62
     1
100
AcDbLine
 10
4.885564
 20
5.540493
 30
0.0
 11
5.318271
 21
5.9732
 31
0.0
  0
LINE
  5
13B
100
AcDbEntity
  8
0
  6
CONTINUOUS
 62
     1
100
AcDbLine
 10
5.087373
 20
5.318038
 30
0.0
 11
5.538716
 21
5.769381
 31
0.0
  0
LINE
  5
13C
100
AcDbEntity
  8
0
  6
CONTINUOUS
 62
     1
100
AcDbLine
 10
5.28067
 20
5.087071
 30
0.0
 11
5.751195
 21
5.557596
 31
0.0
  0
LINE
  5
13D
100
AcDbEntity
  8
0
  6
CONTINUOUS
 62
     1
100
AcDbLine
 10
5.465459
 20
4.847596
 30
0.0
 11
5.955711
 21
5.337848
 31
0.0
  0
LINE
  5
13E
100
AcDbEntity
  8
0
  6
CONTINUOUS
 62
     1
100
AcDbLine
 10
5.641698
 20
4.599571
 30
0.0
 11
6.152232
 21
5.110105
 31
0.0
  0
LINE
  5
13F
100
AcDbEntity
  8
0
  6
CONTINUOUS
 62
     1
100
AcDbLine
 10
5.809305
 20
4.342914
 30
0.0
 11
6.340689
 21
4.874298
 31
0.0
  0
LINE
  5
140
100
AcDbEntity
  8
0
  6
CONTINUOUS
 62
     1
100
AcDbLine
 10
5.96815
 20
4.077495
 30
0.0
 11
6.520982
 21
4.630326
 31
0.0
  0
LINE
  5
141
100
AcDbEntity
  8
0
  6
CONTINUOUS
 62
     1
100
AcDbLine
 10
6.118059
 20
3.803139
 30
0.0
 11
6.692968
 21
4.378048
 31
0.0
  0
LINE
  5
142
100
AcDbEntity
  8
0
  6
CONTINUOUS
 62
     1
100
AcDbLine
 10
6.258799
 20
3.519616
 30
0.0
 11
6.856465
 21
4.117282
 31
0.0
  0
LINE
  5
143
100
AcDbEntity
  8
0
  6
CONTINUOUS
 62
     1
100
AcDbLine
 10
6.390082
 20
3.226634
 30
0.0
 11
7.011246
 21
3.847799
 31
0.0
  0
LINE
  5
144
100
AcDbEntity
  8
0
  6
CONTINUOUS
 62
     1
100
AcDbLine
 10
6.511548
 20
2.923837
 30
0.0
 11
7.157031
 21
3.569319
 31
0.0
  0
LINE
  5
145
100
AcDbEntity
  8
0
  6
CONTINUOUS
 62
     1
100
AcDbLine
 10
6.622761
 20
2.610785
 30
0.0
 11
7.29348
 21
3.281505
 31
0.0
  0
LINE
  5
146
100
AcDbEntity
  8
0
  6
CONTINUOUS
 62
     1
100
AcDbLine
 10
6.723184
 20
2.286945
 30
0.0
 11
7.420187
 21
2.983948
 31
0.0
  0
LINE
  5
147
100
AcDbEntity
  8
0
  6
CONTINUOUS
 62
     1
100
AcDbLine
 10
6.812168
 20
1.951665
 30
0.0
 11
7.536663
 21
2.67616
 31
0.0
  0
LINE
  5
148
100
AcDbEntity
  8
0
  6
CONTINUOUS
 62
     1
100
AcDbLine
 10
6.888918
 20
1.604151
 30
0.0
 11
7.642321
 21
2.357553
 31
0.0
  0
LINE
  5
149
100
AcDbEntity
  8
0
  6
CONTINUOUS
 62
     1
100
AcDbLine
 10
6.952455
 20
1.243423
 30
0.0
 11
7.736452
 21
2.02742
 31
0.0
  0
LINE
  5
14A
100
AcDbEntity
  8
0
  6
CONTINUOUS
 62
     1
100
AcDbLine
 10
7.001562
 20
0.868266
 30
0.0
 11
7.818199
 21
1.684903
 31
0.0
  0
LINE
  5
14B
100
AcDbEntity
  8
0
  6
CONTINUOUS
 62
     1
100
AcDbLine
 10
7.034702
 20
0.477142
 30
0.0
 11
7.886509
 21
1.328949
 31
0.0
  0
LINE
  5
14C
100
AcDbEntity
  8
0
  6
CONTINUOUS
 62
     1
100
AcDbLine
 10
7.049901
 20
0.068077
 30
0.0
 11
7.94008
 21
0.958256
 31
0.0
  0
LINE
  5
14D
100
AcDbEntity
  8
0
  6
CONTINUOUS
 62
     1
100
AcDbLine
 10
7.044559
 20
-0.36153
 30
0.0
 11
7.977272
 21
0.571184
 31
0.0
  0
LINE
  5
14E
100
AcDbEntity
  8
0
  6
CONTINUOUS
 62
     1
100
AcDbLine
 10
7.015139
 20
-0.815213
 30
0.0
 11
7.99598
 21
0.165628
 31
0.0
  0
LINE
  5
14F
100
AcDbEntity
  8
0
  6
CONTINUOUS
 62
     1
100
AcDbLine
 10
6.956633
 20
-1.297984
 30
0.0
 11
7.993429
 21
-0.261187
 31
0.0
  0
LINE
  5
150
100
AcDbEntity
  8
0
  6
CONTINUOUS
 62
     1
100
AcDbLine
 10
6.861522
 20
-1.817358
 30
0.0
 11
7.965846
 21
-0.713034
 31
0.0
  0
LINE
  5
151
100
AcDbEntity
  8
0
  6
CONTINUOUS
 62
     1
100
AcDbLine
 10
6.717567
 20
-2.385577
 30
0.0
 11
7.907873
 21
-1.195272
 31
0.0
  0
LINE
  5
152
100
AcDbEntity
  8
0
  6
CONTINUOUS
 62
     1
100
AcDbLine
 10
6.502136
 20
-3.025273
 30
0.0
 11
7.811439
 21
-1.71597
 31
0.0
  0
LINE
  5
153
100
AcDbEntity
  8
0
  6
CONTINUOUS
 62
     1
100
AcDbLine
 10
6.162591
 20
-3.789082
 30
0.0
 11
7.663329
 21
-2.288344
 31
0.0
  0
LINE
  5
154
100
AcDbEntity
  8
0
  6
CONTINUOUS
 62
     1
100
AcDbLine
 10
2.95
 20
-7.425937
 30
0.0
 11
3.966472
 21
-6.409465
 31
0.0
  0
LINE
  5
155
100
AcDbEntity
  8
0
  6
CONTINUOUS
 62
     1
100
AcDbLine
 10
5.470054
 20
-4.905882
 30
0.0
 11
7.438868
 21
-2.937069
 31
0.0
  0
LINE
  5
156
100
AcDbEntity
  8
0
  6
CONTINUOUS
 62
     1
100
AcDbLine
 10
3.720672
 20
-7.079529
 30
0.0
 11
7.079529
 21
-3.720672
 31
0.0
  0
LINE
  5
157
100
AcDbEntity
  8
0
  6
CONTINUOUS
 62
     1
100
AcDbLine
 10
4.916236
 20
-6.308228
 30
0.0
 11
6.308228
 21
-4.916236
 31
0.0
  0
LINE
  5
158
100
AcDbEntity
  8
0
  6
CONTINUOUS
 62
     1
100
AcDbLine
 10
2.95
 20
-8.05
 30
0.0
 11
2.95
 21
-7.425937
 31
0.0
  0
LINE
  5
159
100
AcDbEntity
  8
0
  6
CONTINUOUS
 62
     1
100
AcDbLine
 10
2.95
 20
-7.001672
 30
0.0
 11
2.95
 21
0.0
 31
0.0
  0
LINE
  5
15A
100
AcDbEntity
  8
0
  6
CONTINUOUS
 62
     1
100
AcDbLine
 10
0.0
 20
0.0
 30
0.0
 11
0.0
 21
-7.72433
 31
0.0
  0
ARC
  5
15B
100
AcDbEntity
  8
0
  6
CONTINUOUS
 62
     1
100
AcDbCircle
 10
0.0
 20
0.0
 30
0.0
 40
7.997695
100
AcDbArc
 50
291.645098
 51
101.419721
  0
ELLIPSE
  5
15C
100
AcDbEntity
  8
0
  6
CONTINUOUS
 62
     1
100
AcDbEllipse
 10
0.0
 20
0.0
 30
0.0
 11
-0.2271076736246198
 21
7.7216609032371322
 31
0.0
210
0.0
220
0.0
230
1.0
 40
0.912621
 41
3.5427715523045538
 42
0.1388139713137163
  0
LINE
  5
15D
100
AcDbEntity
  8
0
  6
CONTINUOUS
 62
     1
100
AcDbLine
 10
-1.583501
 20
7.839365
 30
0.0
 11
-4.6
 21
9.575
 31
0.0
  0
LINE
  5
15E
100
AcDbEntity
  8
0
  6
CONTINUOUS
 62
     1
100
AcDbLine
 10
-3.8
 20
2.375
 30
0.0
 11
-3.8
 21
6.528847
 31
0.0
  0
ENDBLK
  5
15F
100
AcDbEntity
  8
0
100
AcDbBlockEnd
  0
BLOCK
  5
160
100
AcDbEntity
  8
0
100
AcDbBlockBegin
  2
SYM-2
 70
     0
 10
0.0
 20
0.0
 30
0.0
  3
SYM-2
  1

  0
HATCH
  5
161
100
AcDbEntity
  8
0
  6
CONTINUOUS
 62
     3
100
AcDbHatch
 10
0.0
 20
0.0
 30
0.0
210
0.0
220
0.0
230
1.0
  2
SOLID
 70
     1
 71
     1
 91
        1
 92
        1
 93
       16
 72
     1
 10
24.351152239011505
 20
-2.0357142857144446
 11
25.613295096154353
 21
-2.0357142857144446
 72
     1
 10
25.613295096154353
 20
-2.0357142857144446
 11
25.613295096154353
 21
-2.8500000000001648
 72
     1
 10
25.613295096154353
 20
-2.8500000000001648
 11
22.23400938186861
 21
-2.8500000000001648
 72
     1
 10
22.23400938186861
 20
-2.8500000000001648
 11
22.23400938186861
 21
-2.0357142857144446
 72
     1
 10
22.23400938186861
 20
-2.0357142857144446
 11
23.536866524725802
 21
-2.0357142857144446
 72
     1
 10
23.536866524725802
 20
-2.0357142857144446
 11
23.536866524725802
 21
0.3257142857141346
 72
     1
 10
23.536866524725802
 20
0.3257142857141346
 11
22.519009381868621
 21
0.3257142857141346
 72
     1
 10
22.519009381868621
 20
0.3257142857141346
 11
22.519009381868621
 21
1.1399999999998514
 72
     1
 10
22.519009381868621
 20
1.1399999999998514
 11
23.536866524725802
 21
1.1399999999998514
 72
     1
 10
23.536866524725802
 20
1.1399999999998514
 11
23.536866524725802
 21
2.8499999999998487
 72
     1
 10
23.536866524725802
 20
2.8499999999998487
 11
24.351152239011505
 21
2.8499999999998487
 72
     1
 10
24.351152239011505
 20
2.8499999999998487
 11
24.351152239011505
 21
1.1399999999998514
 72
     1
 10
24.351152239011505
 20
1.1399999999998514
 11
25.531866524725821
 21
1.1399999999998514
 72
     1
 10
25.531866524725821
 20
1.1399999999998514
 11
25.531866524725821
 21
0.3257142857141346
 72
     1
 10
25.531866524725821
 20
0.3257142857141346
 11
24.351152239011505
 21
0.3257142857141346
 72
     1
 10
24.351152239011505
 20
0.3257142857141346
 11
24.351152239011505
 21
-2.0357142857144446
 97
        0
 75
     0
 76
     1
 98
        1
 10
0.0
 20
0.0
  0
HATCH
  5
162
100
AcDbEntity
  8
0
  6
CONTINUOUS
 62
     3
100
AcDbHatch
 10
0.0
 20
0.0
 30
0.0
210
0.0
220
0.0
230
1.0
  2
SOLID
 70
     1
 71
     1
 91
        1
 92
        1
 93
       17
 72
     2
 10
15.796286246552746
 20
4.4303755974531924
 40
7.328571428571454
 50
44.165469
 51
51.472792
 73
     0
 72
     1
 10
20.361152239011439
 20
-1.3028571428572775
 11
19.948878200429583
 21
-0.5887775613918898
 72
     2
 10
15.796286246552746
 20
4.4303755974531924
 40
6.5142857142857364
 50
309.602625
 51
331.307968
 73
     1
 72
     1
 10
21.510701937024301
 20
1.3028571428570004
 11
20.157580810440017
 21
1.3028571428570004
 72
     1
 10
20.157580810440017
 20
1.3028571428570004
 11
20.157580810440017
 21
2.0357142857141319
 72
     1
 10
20.157580810440017
 20
2.0357142857141319
 11
21.053295096154336
 21
2.0357142857141319
 72
     1
 10
21.053295096154336
 20
2.0357142857141319
 11
21.053295096154336
 21
2.8499999999998487
 72
     1
 10
21.053295096154336
 20
2.8499999999998487
 11
21.786152239011507
 21
2.8499999999998487
 72
     1
 10
21.786152239011507
 20
2.8499999999998487
 11
21.786152239011507
 21
2.0357142857141319
 72
     1
 10
21.786152239011507
 20
2.0357142857141319
 11
22.722580810439986
 21
2.0357142857141319
 72
     2
 10
15.796286246552746
 20
4.4303755974531924
 40
7.328571428571454
 50
19.072051
 51
32.871988
 73
     0
 72
     1
 10
21.951445818831196
 20
0.4526916201288422
 11
22.926152239011437
 21
-0.4885714285715821
 72
     1
 10
22.926152239011437
 20
-0.4885714285715821
 11
22.350277580116831
 21
-1.0644460874662265
 72
     1
 10
22.350277580116831
 20
-1.0644460874662265
 11
21.786152239011507
 21
-0.5196765779765897
 72
     1
 10
21.786152239011507
 20
-0.5196765779765897
 11
21.786152239011507
 21
-2.8500000000001648
 72
     1
 10
21.786152239011507
 20
-2.8500000000001648
 11
21.053295096154336
 21
-2.8500000000001648
 72
     1
 10
21.053295096154336
 20
-2.8500000000001648
 11
21.053295096154336
 21
-0.6756813096801793
 97
        0
 75
     0
 76
     1
 98
        1
 10
0.0
 20
0.0
  0
HATCH
  5
163
100
AcDbEntity
  8
0
  6
CONTINUOUS
 62
     3
100
AcDbHatch
 10
0.0
 20
0.0
 30
0.0
210
0.0
220
0.0
230
1.0
  2
SOLID
 70
     1
 71
     1
 91
        1
 92
        1
 93
       12
 72
     2
 10
26.09465466477446
 20
-6.5604295733743392
 40
11.481428571428609
 50
150.903074
 51
156.790773
 73
     1
 72
     1
 10
15.542396441700383
 20
-2.035714285714505
 11
18.049394029288031
 21
-2.0357142857144055
 72
     2
 10
10.927987441101074
 20
-4.0835590566205937
 40
7.4100000000000241
 50
16.043216
 51
21.362935
 73
     1
 72
     1
 10
17.828858648663306
 20
-1.3842857142858769
 11
18.610437953297115
 21
-1.3842857142858769
 72
     2
 10
10.927987441101074
 20
-4.0835590566205937
 40
8.1428571428571708
 50
340.64078
 51
351.286733
 73
     0
 72
     1
 10
18.976866524725686
 20
-2.8500000000001648
 11
14.457580810439971
 21
-2.8500000000001648
 72
     2
 10
26.09465466477446
 20
-6.5604295733743392
 40
12.214285714285754
 50
197.684652
 51
207.200855
 73
     0
 72
     1
 10
15.231152239011401
 20
-0.9771428571430043
 11
14.091152239011485
 21
-0.9771428571430043
 72
     1
 10
14.091152239011485
 20
-0.9771428571430043
 11
14.091152239011485
 21
-0.162857142857284
 72
     1
 10
14.091152239011485
 20
-0.162857142857284
 11
19.302580810440098
 21
-0.162857142857284
 72
     1
 10
19.302580810440098
 20
-0.162857142857284
 11
19.302580810440098
 21
-0.9771428571430043
 72
     1
 10
19.302580810440098
 20
-0.9771428571430043
 11
16.062201750099412
 21
-0.9771428571430043
 97
        0
 75
     0
 76
     1
 98
        1
 10
0.0
 20
0.0
  0
HATCH
  5
164
100
AcDbEntity
  8
0
  6
CONTINUOUS
 62
     3
100
AcDbHatch
 10
0.0
 20
0.0
 30
0.0
210
0.0
220
0.0
230
1.0
  2
SOLID
 70
     1
 71
     1
 91
        1
 92
        1
 93
       10
 72
     2
 10
26.143491684008573
 20
11.064410217386417
 40
13.028571428571473
 50
129.545698
 51
136.474664
 73
     0
 72
     1
 10
16.696866524725998
 20
2.0919553376225579
 11
16.696866524725998
 21
2.8499999999998487
 72
     1
 10
16.696866524725998
 20
2.8499999999998487
 11
17.104009381868686
 21
2.8499999999998487
 72
     2
 10
26.143491684008573
 20
11.064410217386417
 40
12.214285714285754
 50
222.262231
 51
237.763996
 73
     1
 72
     1
 10
19.628295096154382
 20
0.7328571428570001
 11
19.100346295490944
 21
0.1036722629605507
 72
     2
 10
26.143491684008573
 20
11.064410217386417
 40
13.028571428571473
 50
122.723968
 51
128.230009
 73
     0
 72
     1
 10
18.08115223901148
 20
0.830038905819066
 11
18.08115223901148
 21
0.2035714285712729
 72
     1
 10
18.08115223901148
 20
0.2035714285712729
 11
16.696866524725998
 21
0.2035714285712729
 72
     1
 10
16.696866524725998
 20
0.2035714285712729
 11
16.696866524725998
 21
1.0178571428569896
 72
     1
 10
16.696866524725998
 20
1.0178571428569896
 11
17.848285550942784
 21
1.0178571428569896
 97
        0
 75
     0
 76
     1
 98
        1
 10
0.0
 20
0.0
  0
HATCH
  5
165
100
AcDbEntity
  8
0
  6
CONTINUOUS
 62
     3
100
AcDbHatch
 10
0.0
 20
0.0
 30
0.0
210
0.0
220
0.0
230
1.0
  2
SOLID
 70
     1
 71
     1
 91
        1
 92
        1
 93
       10
 72
     2
 10
7.2502413654429532
 20
11.064410217386417
 40
13.028571428571473
 50
51.769991
 51
57.276032
 73
     0
 72
     1
 10
14.293386753960569
 20
0.1036722629605329
 11
13.76543795329713
 21
0.7328571428569894
 72
     2
 10
7.2502413654429532
 20
11.064410217386417
 40
12.214285714285754
 50
302.236004
 51
317.737769
 73
     1
 72
     1
 10
16.289723667582841
 20
2.8499999999998487
 11
16.696866524725998
 21
2.8499999999998487
 72
     1
 10
16.696866524725998
 20
2.8499999999998487
 11
16.696866524725998
 21
2.0919553376230482
 72
     2
 10
7.2502413654429532
 20
11.064410217386417
 40
13.028571428571473
 50
43.525336
 51
50.454302
 73
     0
 72
     1
 10
15.545447498508743
 20
1.0178571428569896
 11
16.696866524725998
 21
1.0178571428569896
 72
     1
 10
16.696866524725998
 20
1.0178571428569896
 11
16.696866524725998
 21
0.2035714285712729
 72
     1
 10
16.696866524725998
 20
0.2035714285712729
 11
15.312580810440046
 21
0.2035714285712729
 72
     1
 10
15.312580810440046
 20
0.2035714285712729
 11
15.312580810440046
 21
0.8300389058190589
 97
        0
 75
     0
 76
     1
 98
        1
 10
0.0
 20
0.0
  0
HATCH
  5
166
100
AcDbEntity
  8
0
  6
CONTINUOUS
 62
     3
100
AcDbHatch
 10
0.0
 20
0.0
 30
0.0
210
0.0
220
0.0
230
1.0
  2
SOLID
 70
     1
 71
     1
 91
        1
 92
        1
 93
       18
 72
     2
 10
1.2571935216656343
 20
-0.8093264034321166
 40
11.400000000000038
 50
14.02954
 51
18.723021
 73
     1
 72
     1
 10
12.053921279331213
 20
2.8499999999998487
 11
12.910437953297141
 21
2.8499999999998487
 72
     2
 10
1.2571935216656343
 20
-0.8093264034321166
 40
12.214285714285754
 50
342.566782
 51
346.922981
 73
     0
 72
     1
 10
13.15472366758285
 20
1.9542857142855716
 11
13.480437953297177
 21
1.9542857142855716
 72
     1
 10
13.480437953297177
 20
1.9542857142855716
 11
13.480437953297177
 21
1.1399999999998407
 72
     1
 10
13.480437953297177
 20
1.1399999999998407
 11
11.958092734747289
 21
1.1399999999998514
 72
     2
 10
20.401866524725683
 20
2.4835714285712918
 40
8.5500000000000291
 50
189.041096
 51
204.65198
 73
     1
 72
     2
 10
14.334076117775972
 20
-0.301141422634494
 40
1.8737206404808271
 50
204.65198
 51
242.897449
 73
     1
 72
     1
 10
13.480437953297177
 20
-1.9691135215345774
 11
13.480437953297177
 21
-2.8500000000001648
 72
     2
 10
14.334076117775972
 20
-0.301141422634494
 40
2.6880063547665438
 50
108.516212
 51
155.34802
 73
     0
 72
     2
 10
20.401866524725683
 20
2.4835714285712918
 40
9.3642857142857441
 50
155.34802
 51
171.750831
 73
     0
 72
     1
 10
11.134468683092756
 20
1.1399999999998549
 11
8.0247236675828972
 21
1.1399999999998407
 72
     1
 10
8.0247236675828972
 20
1.1399999999998407
 11
8.0247236675828972
 21
1.9542857142855716
 72
     1
 10
8.0247236675828972
 20
1.9542857142855716
 11
11.050355927894167
 21
1.9542857142855716
 72
     1
 10
11.050355927894167
 20
1.9542857142855716
 11
11.019076895792274
 21
2.8499999999998487
 72
     1
 10
11.019076895792274
 20
2.8499999999998487
 11
11.833858953292697
 21
2.8499999999998487
 72
     1
 10
11.833858953292697
 20
2.8499999999998487
 11
11.865137985394604
 21
1.9542857142855716
 72
     1
 10
11.865137985394604
 20
1.9542857142855716
 11
12.317141444816265
 21
1.9542857142855716
 97
        0
 75
     0
 76
     1
 98
        1
 10
0.0
 20
0.0
  0
HATCH
  5
167
100
AcDbEntity
  8
0
  6
CONTINUOUS
 62
     3
100
AcDbHatch
 10
0.0
 20
0.0
 30
0.0
210
0.0
220
0.0
230
1.0
  2
SOLID
 70
     1
 71
     1
 91
        1
 92
        1
 93
       12
 72
     2
 10
5.4617420309248317
 20
38.027820957415145
 40
39.900000000000134
 50
276.500664
 51
278.269357
 73
     1
 72
     1
 10
11.200437953297204
 20
-1.457332823601817
 11
11.20043795329719
 21
-2.2800000000001504
 72
     2
 10
5.4617420309248317
 20
38.027820957415145
 40
40.71428571428585
 50
81.897153
 51
86.39082
 73
     0
 72
     1
 10
8.024723667582883
 20
-2.6057142857144413
 11
8.024723667582883
 21
-1.7897772264302034
 72
     2
 10
5.4617420309248317
 20
38.027820957415145
 40
39.900000000000134
 50
273.682937
 51
275.325087
 73
     1
 72
     1
 10
9.1647236675828836
 20
-1.6999769553635602
 11
9.1647236675828836
 21
-0.4071428571430218
 72
     1
 10
9.1647236675828836
 20
-0.4071428571430218
 11
8.0247236675828972
 21
-0.4071428571430218
 72
     1
 10
8.0247236675828972
 20
-0.4071428571430218
 11
8.0247236675828972
 21
0.4071428571426949
 72
     1
 10
8.0247236675828972
 20
0.4071428571426949
 11
10.95615223901148
 21
0.4071428571426949
 72
     1
 10
10.95615223901148
 20
0.4071428571426949
 11
10.95615223901148
 21
-0.4071428571430218
 72
     1
 10
10.95615223901148
 20
-0.4071428571430218
 11
9.9790093818686287
 21
-0.4071428571430218
 72
     1
 10
9.9790093818686287
 20
-0.4071428571430218
 11
9.9790093818685861
 21
-1.6156437710884397
 97
        0
 75
     0
 76
     1
 98
        1
 10
0.0
 20
0.0
  0
HATCH
  5
168
100
AcDbEntity
  8
0
  6
CONTINUOUS
 62
     3
100
AcDbHatch
 10
0.0
 20
0.0
 30
0.0
210
0.0
220
0.0
230
1.0
  2
SOLID
 70
     1
 71
     1
 91
        1
 92
        1
 93
       30
 72
     2
 10
-1.8979256098940809
 20
4.1519130391923014
 40
8.9164285714286002
 50
37.940537
 51
46.713808
 73
     0
 72
     1
 10
4.21556076329842
 20
-2.3386942385728418
 11
3.6682950961542744
 21
-1.7914285714286962
 72
     2
 10
-1.8979256098940809
 20
4.1519130391923014
 40
8.1428571428571743
 50
313.123325
 51
325.95222
 73
     1
 72
     1
 10
4.8490093818684983
 20
-0.4071428571430076
 11
3.8718665247257533
 21
-0.4071428571430076
 72
     1
 10
3.8718665247257533
 20
-0.4071428571430076
 11
3.8718665247257533
 21
0.4071428571427092
 72
     1
 10
3.8718665247257533
 20
0.4071428571427092
 11
5.1340093818686157
 21
0.4071428571427092
 72
     1
 10
5.1340093818686157
 20
0.4071428571427092
 11
5.1340093818686157
 21
1.2214285714284152
 72
     1
 10
5.1340093818686157
 20
1.2214285714284152
 11
4.7280236542212677
 21
1.2214285714284152
 72
     2
 10
-3.9789687629962955
 20
2.9438069062169916
 40
8.8757142857143183
 50
11.189535
 51
14.746058
 73
     0
 72
     1
 10
4.6044101437030562
 20
0.6846232869284066
 11
3.9125808104399411
 21
0.9364285714284044
 72
     2
 10
-3.9789687629962955
 20
2.9438069062169916
 40
8.1428571428571743
 50
345.728313
 51
357.620387
 73
     1
 72
     1
 10
4.1568665247257641
 20
2.6057142857165694
 11
4.8844833536651819
 21
2.4774158071570227
 72
     2
 10
-3.9789687629962955
 20
2.9438069062169916
 40
8.8757142857143183
 50
3.012102
 51
6.401006
 73
     0
 72
     1
 10
4.8414139890361767
 20
1.9542857142855716
 11
5.1340093818686157
 21
1.9542857142855716
 72
     1
 10
5.1340093818686157
 20
1.9542857142855716
 11
5.1340093818686157
 21
2.8499999999998487
 72
     1
 10
5.1340093818686157
 20
2.8499999999998487
 11
5.948295096154304
 21
2.8499999999998487
 72
     1
 10
5.948295096154304
 20
2.8499999999998487
 11
5.948295096154304
 21
1.9542857142855716
 72
     1
 10
5.948295096154304
 20
1.9542857142855716
 11
7.0475808104400599
 21
1.9542857142855716
 72
     1
 10
7.0475808104400599
 20
1.9542857142855716
 11
7.0475808104400599
 21
1.2214285714284152
 72
     1
 10
7.0475808104400599
 20
1.2214285714284152
 11
5.948295096154304
 21
1.2214285714284152
 72
     1
 10
5.948295096154304
 20
1.2214285714284152
 11
5.948295096154304
 21
0.4071428571427092
 72
     1
 10
5.948295096154304
 20
0.4071428571427092
 11
7.2104379532971521
 21
0.4071428571427092
 72
     1
 10
7.2104379532971521
 20
0.4071428571427092
 11
7.2104379532971521
 21
-0.4071428571430076
 72
     1
 10
7.2104379532971521
 20
-0.4071428571430076
 11
6.2332950961542579
 21
-0.4071428571430076
 72
     2
 10
12.98023008791683
 20
4.1519130391922907
 40
8.1428571428571743
 50
214.04778
 51
226.876675
 73
     1
 72
     1
 10
7.4140093818684889
 20
-1.7914285714286962
 11
6.866743714724322
 21
-2.3386942385728453
 72
     2
 10
12.98023008791683
 20
4.1519130391922907
 40
8.9164285714286002
 50
133.286192
 51
142.059463
 73
     0
 72
     1
 10
5.948295096154304
 20
-1.330293518482641
 11
5.948295096154304
 21
-2.8500000000001648
 72
     1
 10
5.948295096154304
 20
-2.8500000000001648
 11
5.1340093818686157
 21
-2.8500000000001648
 72
     1
 10
5.1340093818686157
 20
-2.8500000000001648
 11
5.1340093818686157
 21
-1.3302935184824136
 97
        0
 75
     0
 76
     1
 98
        1
 10
0.0
 20
0.0
  0
HATCH
  5
169
100
AcDbEntity
  8
0
  6
CONTINUOUS
 62
     3
100
AcDbHatch
 10
0.0
 20
0.0
 30
0.0
210
0.0
220
0.0
230
1.0
  2
SOLID
 70
     1
 71
     1
 91
        1
 92
        1
 93
       19
 72
     2
 10
-5.2499698511775321
 20
3.0651230633969284
 40
8.8757142857143165
 50
27.683433
 51
32.280505
 73
     0
 72
     1
 10
2.2539459810095721
 20
-1.6750827617845943
 11
1.6732950961542841
 21
-1.2214285714287314
 72
     2
 10
-5.2499698511775321
 20
3.0651230633969284
 40
8.1428571428571708
 50
328.236207
 51
344.845745
 73
     1
 72
     1
 10
2.6097236675827773
 20
0.9364285714284151
 11
1.8768665247257346
 21
0.9364285714284151
 72
     1
 10
1.8768665247257346
 20
0.9364285714284151
 11
1.8768665247257346
 21
1.7507142857141353
 72
     1
 10
1.8768665247257346
 20
1.7507142857141353
 11
2.6097236675829052
 21
1.7507142857141353
 72
     1
 10
2.6097236675829052
 20
1.7507142857141353
 11
2.6097236675829052
 21
2.8499999999998487
 72
     1
 10
2.6097236675829052
 20
2.8499999999998487
 11
3.4240093818685935
 21
2.8499999999998487
 72
     1
 10
3.4240093818685935
 20
2.8499999999998487
 11
3.4240093818685935
 21
1.7507142857141353
 72
     1
 10
3.4240093818685935
 20
1.7507142857141353
 11
3.7904379532971788
 21
1.7507142857141353
 72
     1
 10
3.7904379532971788
 20
1.7507142857141353
 11
3.7904379532971788
 21
0.9364285714284151
 72
     1
 10
3.7904379532971788
 20
0.9364285714284151
 11
3.4240093818685367
 21
0.9364285714284151
 72
     1
 10
3.4240093818685367
 20
0.9364285714284151
 11
3.8718665247257533
 21
0.2968222855516665
 72
     1
 10
3.8718665247257533
 20
0.2968222855516665
 11
3.8718665247257533
 21
-0.1989042363292235
 72
     1
 10
3.8718665247257533
 20
-0.1989042363292235
 11
3.6275808104399871
 21
-0.4900326139487277
 72
     1
 10
3.6275808104399871
 20
-0.4900326139487277
 11
3.4240093818685935
 21
-0.1993024840048498
 72
     1
 10
3.4240093818685935
 20
-0.1993024840048498
 11
3.4240093818685935
 21
-2.8500000000001648
 72
     1
 10
3.4240093818685935
 20
-2.8500000000001648
 11
2.6097236675829052
 21
-2.8500000000001648
 72
     1
 10
2.6097236675829052
 20
-2.8500000000001648
 11
2.6097236675829052
 21
-1.0584096299120844
 97
        0
 75
     0
 76
     1
 98
        1
 10
0.0
 20
0.0
  0
HATCH
  5
16A
100
AcDbEntity
  8
0
  6
CONTINUOUS
 62
     3
100
AcDbHatch
 10
0.0
 20
0.0
 30
0.0
210
0.0
220
0.0
230
1.0
  2
SOLID
 70
     1
 71
     1
 91
        1
 92
        1
 93
        8
 72
     2
 10
-1.8298808996504405
 20
-0.4560000000002766
 40
1.596000000000013
 50
270.0
 51
330.0
 73
     1
 72
     2
 10
-2.619696067901863
 20
-0.00000000000027
 40
2.508000000000012
 50
330.0
 51
30.0
 73
     1
 72
     2
 10
-1.8298808996504405
 20
0.4559999999997331
 40
1.5960000000000121
 50
30.0
 51
90.0
 73
     1
 72
     1
 10
-1.82988089965
 20
2.0519999999997438
 11
-1.82988089965
 21
2.9639999999999276
 72
     2
 10
-1.8298808996504974
 20
0.4559999999999214
 40
2.508000000000008
 50
270.0
 51
330.0
 73
     0
 72
     2
 10
-2.6196960679017494
 20
-0.0000000000001243
 40
3.420000000000015
 50
330.0
 51
30.0
 73
     0
 72
     2
 10
-1.8298808996503837
 20
-0.456000000000369
 40
2.5080000000000053
 50
30.0
 51
90.0
 73
     0
 72
     1
 10
-1.82988089965
 20
-2.9640000000003752
 11
-1.82988089965
 21
-2.0520000000002909
 97
        0
 75
     0
 76
     1
 98
        1
 10
0.0
 20
0.0
  0
HATCH
  5
16B
100
AcDbEntity
  8
0
  6
CONTINUOUS
 62
     3
100
AcDbHatch
 10
0.0
 20
0.0
 30
0.0
210
0.0
220
0.0
230
1.0
  2
SOLID
 70
     1
 71
     1
 91
        1
 92
        1
 93
        8
 72
     2
 10
-1.8298808996503837
 20
-0.456000000000369
 40
2.5080000000000053
 50
90.0
 51
150.0
 73
     0
 72
     2
 10
-1.0400657313991175
 20
-0.0000000000003126
 40
3.4200000000000181
 50
150.0
 51
210.0
 73
     0
 72
     2
 10
-1.8298808996504974
 20
0.4559999999999214
 40
2.508000000000008
 50
210.0
 51
270.0
 73
     0
 72
     1
 10
-1.82988089965
 20
2.9639999999999276
 11
-1.82988089965
 21
2.0519999999997438
 72
     2
 10
-1.8298808996504405
 20
0.4559999999997331
 40
1.5960000000000121
 50
90.0
 51
150.0
 73
     1
 72
     2
 10
-1.040065731399018
 20
-0.00000000000027
 40
2.5080000000000129
 50
150.0
 51
210.0
 73
     1
 72
     2
 10
-1.8298808996504405
 20
-0.4560000000002766
 40
1.596000000000013
 50
210.0
 51
270.0
 73
     1
 72
     1
 10
-1.82988089965
 20
-2.0520000000002909
 11
-1.82988089965
 21
-2.9640000000003752
 97
        0
 75
     0
 76
     1
 98
        1
 10
0.0
 20
0.0
  0
HATCH
  5
16C
100
AcDbEntity
  8
0
  6
CONTINUOUS
 62
     3
100
AcDbHatch
 10
0.0
 20
0.0
 30
0.0
210
0.0
220
0.0
230
1.0
  2
SOLID
 70
     1
 71
     1
 91
        1
 92
        1
 93
        4
 72
     1
 10
-5.3638808996504608
 20
-1.0260000000002698
 11
-6.2758808996504385
 21
-1.0260000000002698
 72
     1
 10
-6.2758808996504385
 20
-1.0260000000002698
 11
-6.2758808996504385
 21
-0.1140000000002743
 72
     1
 10
-6.2758808996504385
 20
-0.1140000000002743
 11
-5.3638808996504608
 21
-0.1140000000002743
 72
     1
 10
-5.3638808996504608
 20
-0.1140000000002743
 11
-5.3638808996504608
 21
-1.0260000000003267
 97
        0
 75
     0
 76
     1
 98
        1
 10
0.0
 20
0.0
  0
HATCH
  5
16D
100
AcDbEntity
  8
0
  6
CONTINUOUS
 62
     3
100
AcDbHatch
 10
0.0
 20
0.0
 30
0.0
210
0.0
220
0.0
230
1.0
  2
SOLID
 70
     1
 71
     1
 91
        1
 92
        1
 93
       16
 72
     1
 10
-9.6958808996504686
 20
1.9379999999997324
 11
-10.949880899650459
 21
1.9379999999997324
 72
     1
 10
-10.949880899650459
 20
1.9379999999997324
 11
-11.177880899650468
 21
0.6839999999997275
 72
     1
 10
-11.177880899650468
 20
0.6839999999997275
 11
-11.861880899650437
 21
0.6839999999997275
 72
     1
 10
-11.861880899650437
 20
0.6839999999997275
 11
-11.861880899650437
 21
2.8499999999997421
 72
     1
 10
-11.861880899650437
 20
2.8499999999997421
 11
-6.6178808996504515
 21
2.8499999999997421
 72
     1
 10
-6.6178808996504515
 20
2.8499999999997421
 11
-6.6178808996504515
 21
0.6839999999997275
 72
     1
 10
-6.6178808996504515
 20
0.6839999999997275
 11
-7.3018808996504205
 21
0.6839999999997275
 72
     1
 10
-7.3018808996504205
 20
0.6839999999997275
 11
-7.5298808996504292
 21
1.9379999999997324
 72
     1
 10
-7.5298808996504292
 20
1.9379999999997324
 11
-8.7838808996504767
 21
1.9379999999997324
 72
     1
 10
-8.7838808996504767
 20
1.9379999999997324
 11
-8.7838808996504341
 21
-1.9380000000002759
 72
     1
 10
-8.7838808996504341
 20
-1.9380000000002759
 11
-7.8718808996504421
 21
-2.1660000000002846
 72
     1
 10
-7.8718808996504421
 20
-2.1660000000002846
 11
-7.8718808996504421
 21
-2.8500000000002856
 72
     1
 10
-7.8718808996504421
 20
-2.8500000000002856
 11
-10.607880899650446
 21
-2.8500000000002856
 72
     1
 10
-10.607880899650446
 20
-2.8500000000002856
 11
-10.607880899650446
 21
-2.1660000000002846
 72
     1
 10
-10.607880899650446
 20
-2.1660000000002846
 11
-9.6958808996504686
 21
-1.9380000000002759
 72
     1
 10
-9.6958808996504686
 20
-1.9380000000002759
 11
-9.6958808996504686
 21
1.9379999999997324
 97
        0
 75
     0
 76
     1
 98
        1
 10
0.0
 20
0.0
  0
HATCH
  5
16E
100
AcDbEntity
  8
0
  6
CONTINUOUS
 62
     3
100
AcDbHatch
 10
0.0
 20
0.0
 30
0.0
210
0.0
220
0.0
230
1.0
  2
SOLID
 70
     1
 71
     1
 91
        1
 92
        1
 93
        4
 72
     1
 10
-13.115880899650485
 20
-1.0260000000002698
 11
-13.115880899650428
 21
-0.1140000000002175
 72
     1
 10
-13.115880899650428
 20
-0.1140000000002175
 11
-12.20388089965045
 21
-0.1140000000002743
 72
     1
 10
-12.20388089965045
 20
-0.1140000000002743
 11
-12.20388089965045
 21
-1.0260000000002698
 72
     1
 10
-12.20388089965045
 20
-1.0260000000002698
 11
-13.115880899650428
 21
-1.0260000000002698
 97
        0
 75
     0
 76
     1
 98
        1
 10
0.0
 20
0.0
  0
HATCH
  5
16F
100
AcDbEntity
  8
0
  6
CONTINUOUS
 62
     3
100
AcDbHatch
 10
0.0
 20
0.0
 30
0.0
210
0.0
220
0.0
230
1.0
  2
SOLID
 70
     1
 71
     1
 91
        1
 92
        1
 93
       12
 72
     1
 10
-14.141880899650467
 20
2.8499999999997421
 11
-14.141880899650467
 21
2.1659999999997304
 72
     1
 10
-14.141880899650467
 20
2.1659999999997304
 11
-15.053880899650444
 21
1.9379999999997324
 72
     1
 10
-15.053880899650444
 20
1.9379999999997324
 11
-15.053880899650444
 21
-1.9380000000002759
 72
     1
 10
-15.053880899650444
 20
-1.9380000000002759
 11
-14.141880899650467
 21
-2.1660000000002846
 72
     1
 10
-14.141880899650467
 20
-2.1660000000002846
 11
-14.141880899650467
 21
-2.8500000000002856
 72
     1
 10
-14.141880899650467
 20
-2.8500000000002856
 11
-16.877880899650467
 21
-2.8500000000002856
 72
     1
 10
-16.877880899650467
 20
-2.8500000000002856
 11
-16.877880899650467
 21
-2.1660000000002846
 72
     1
 10
-16.877880899650467
 20
-2.1660000000002846
 11
-15.965880899650482
 21
-1.9380000000002759
 72
     1
 10
-15.965880899650482
 20
-1.9380000000002759
 11
-15.965880899650482
 21
1.9379999999997324
 72
     1
 10
-15.965880899650482
 20
1.9379999999997324
 11
-16.877880899650467
 21
2.165999999999741
 72
     1
 10
-16.877880899650467
 20
2.165999999999741
 11
-16.877880899650467
 21
2.8499999999997421
 72
     1
 10
-16.877880899650467
 20
2.8499999999997421
 11
-14.141880899650467
 21
2.8499999999997421
 97
        0
 75
     0
 76
     1
 98
        1
 10
0.0
 20
0.0
  0
HATCH
  5
170
100
AcDbEntity
  8
0
  6
CONTINUOUS
 62
     3
100
AcDbHatch
 10
0.0
 20
0.0
 30
0.0
210
0.0
220
0.0
230
1.0
  2
SOLID
 70
     1
 71
     1
 91
        1
 92
        1
 93
       15
 72
     2
 10
-23.082241990843084
 20
-0.0000000000001492
 40
2.531053105310535
 50
124.301153
 51
180.0
 73
     0
 72
     1
 10
-25.613295096153617
 20
0.0
 11
-24.658234262528236
 21
0.0
 72
     2
 10
-22.195587997901765
 20
-0.000000000000135
 40
2.46264626462647
 50
180.0
 51
199.464384
 73
     1
 72
     2
 10
-24.557343260027135
 20
0.2731786481661374
 40
1.094509450945121
 50
272.086657
 51
294.619977
 73
     1
 72
     2
 10
-24.243863734539655
 20
-0.4108897586745677
 40
0.342034203420344
 50
294.619977
 51
0.0
 73
     1
 72
     1
 10
-23.901829531119287
 20
-0.4108897586745677
 11
-23.901829531119287
 21
0.0
 72
     1
 10
-23.901829531119287
 20
0.0
 11
-23.080947442910482
 21
0.0
 72
     1
 10
-23.080947442910482
 20
0.0
 11
-23.080947442910482
 21
-0.4116155274721614
 72
     2
 10
-22.73891323949012
 20
-0.4116155274721614
 40
0.34203420342033
 50
180.0
 51
245.380023
 73
     1
 72
     2
 10
-22.425433714002583
 20
0.2724528793686645
 40
1.0945094509452411
 50
245.380023
 51
267.913343
 73
     1
 72
     1
 10
-22.465285876753814
 20
-0.8213308027789985
 11
-22.465285876753814
 21
-1.0265513248311819
 72
     1
 10
-22.465285876753814
 20
-1.0265513248311819
 11
-24.434073870576871
 21
-1.0265513248311962
 72
     2
 10
-22.195587997901708
 20
-0.000000000000135
 40
2.4626462646264669
 50
204.635803
 51
268.19864
 73
     1
 72
     1
 10
-22.272999999999005
 20
-2.4614292609397985
 11
-22.272999999999005
 21
-2.8039503813289706
 72
     2
 10
-22.195587997901765
 20
1.2997299729972909
 40
4.1044104410441236
 50
91.080702
 51
124.301153
 73
     0
 97
        0
 75
     0
 76
     1
 98
        1
 10
0.0
 20
0.0
  0
HATCH
  5
171
100
AcDbEntity
  8
0
  6
CONTINUOUS
 62
     3
100
AcDbHatch
 10
0.0
 20
0.0
 30
0.0
210
0.0
220
0.0
230
1.0
  2
SOLID
 70
     1
 71
     1
 91
        1
 92
        1
 93
       24
 72
     2
 10
-22.67055612196938
 20
0.3420342034202015
 40
0.342034203420347
 50
90.0
 51
157.380135
 73
     1
 72
     2
 10
-21.849674033760575
 20
-0.0000000000001101
 40
1.231323132313237
 50
157.380135
 51
180.0
 73
     1
 72
     1
 10
-23.080997166073811
 20
0.0
 11
-23.901829531119287
 21
0.0
 72
     1
 10
-23.901829531119287
 20
0.0
 11
-23.901829531119287
 21
1.7757720729310194
 72
     2
 10
-22.195587997901765
 20
-0.000000000000135
 40
2.46264626462647
 50
133.856042
 51
180.0
 73
     1
 72
     1
 10
-24.658234262528236
 20
0.0
 11
-25.613295096153617
 21
0.0
 72
     2
 10
-23.082241990843084
 20
-0.0000000000001492
 40
2.531053105310535
 50
180.0
 51
235.698847
 73
     0
 72
     2
 10
-22.195587997901708
 20
-1.2997299729975893
 40
4.1044104410441324
 50
235.698847
 51
245.436008
 73
     0
 72
     1
 10
-23.901829531119287
 20
2.4332212587861193
 11
-23.901829531119287
 21
2.8049575222742433
 72
     2
 10
-24.243863734539655
 20
2.8049575222742433
 40
0.3420342034203421
 50
0.0
 51
65.380023
 73
     1
 72
     2
 10
-24.557343260027135
 20
2.1208891154335525
 40
1.0945094509450961
 50
65.380023
 51
87.913343
 73
     1
 72
     1
 10
-24.517491097275904
 20
3.2146727975810734
 11
-24.517491097275904
 21
3.4198933196332746
 72
     1
 10
-24.517491097275904
 20
3.4198933196332746
 11
-22.465285876753814
 21
3.4198933196332746
 72
     1
 10
-22.465285876753814
 20
3.4198933196332746
 11
-22.465285876753814
 21
3.2146727975810769
 72
     2
 10
-22.425433714002583
 20
2.1208891154335525
 40
1.094509450945101
 50
92.086657
 51
114.619977
 73
     1
 72
     2
 10
-22.738913239490063
 20
2.8049575222742575
 40
0.342034203420347
 50
114.619977
 51
180.0
 73
     1
 72
     1
 10
-23.080947442910432
 20
2.8049575222742433
 11
-23.080947442910432
 21
2.7080529205341897
 72
     2
 10
-22.195587997901765
 20
-1.2997299729975893
 40
4.1044104410441218
 50
257.542857
 51
268.919298
 73
     0
 72
     1
 10
-22.272999999999005
 20
2.8039503813286721
 11
-22.272999999999005
 21
2.4614292609395321
 72
     2
 10
-22.195587997901708
 20
-0.000000000000135
 40
2.46264626462647
 50
91.80136
 51
111.070443
 73
     1
 72
     1
 10
-23.080947442910482
 20
2.2979915747913111
 11
-23.080947442910482
 21
1.0261026102608923
 72
     1
 10
-23.080947442910482
 20
1.0261026102608923
 11
-22.272999999998969
 21
1.0261026102608923
 72
     1
 10
-22.272999999998969
 20
1.0261026102608923
 11
-22.272999999999005
 21
0.6840684068405416
 72
     1
 10
-22.272999999999005
 20
0.6840684068405416
 11
-22.67055612196938
 21
0.6840684068405416
 97
        0
 75
     0
 76
     1
 98
        1
 10
0.0
 20
0.0
  0
HATCH
  5
172
100
AcDbEntity
  8
0
  6
CONTINUOUS
 62
     3
100
AcDbHatch
 10
0.0
 20
0.0
 30
0.0
210
0.0
220
0.0
230
1.0
  2
SOLID
 70
     1
 71
     1
 91
        1
 92
        1
 93
       14
 72
     2
 10
-22.195587997901765
 20
-0.000000000000135
 40
2.4626462646264748
 50
0.0
 51
9.281799
 73
     1
 72
     2
 10
-20.102741104833992
 20
0.3420342034202015
 40
0.34203420342034
 50
9.281799
 51
90.0
 73
     1
 72
     1
 10
-20.102741104833992
 20
0.6840684068405416
 11
-20.827451184220411
 21
0.6840684068405416
 72
     1
 10
-20.827451184220411
 20
0.6840684068405416
 11
-20.827451184220411
 21
0.0
 72
     1
 10
-20.827451184220411
 20
0.0
 11
-21.648333272429209
 21
0.0
 72
     1
 10
-21.648333272429209
 20
0.0
 11
-21.648333272429209
 21
0.6840684068405416
 72
     1
 10
-21.648333272429209
 20
0.6840684068405416
 11
-22.272999999999005
 21
0.6840684068405416
 72
     1
 10
-22.272999999999005
 20
0.6840684068405416
 11
-22.272999999999005
 21
1.0261026102608923
 72
     1
 10
-22.272999999999005
 20
1.0261026102608923
 11
-19.956896402818945
 21
1.0261026102608675
 72
     2
 10
-22.195587997901708
 20
-0.000000000000135
 40
2.46264626462647
 50
24.624318
 51
91.80136
 73
     1
 72
     1
 10
-22.272999999999005
 20
2.4614292609395321
 11
-22.272999999999005
 21
2.8039503813286721
 72
     2
 10
-22.195587997901765
 20
-1.2997299729975893
 40
4.1044104410441218
 50
268.919298
 51
304.301153
 73
     0
 72
     2
 10
-21.308934004960445
 20
-0.0000000000001492
 40
2.5310531053105372
 50
304.301153
 51
0.0
 73
     0
 72
     1
 10
-18.777880899649912
 20
0.0
 11
-19.732941733275293
 21
0.0
 97
        0
 75
     0
 76
     1
 98
        1
 10
0.0
 20
0.0
  0
HATCH
  5
173
100
AcDbEntity
  8
0
  6
CONTINUOUS
 62
     3
100
AcDbHatch
 10
0.0
 20
0.0
 30
0.0
210
0.0
220
0.0
230
1.0
  2
SOLID
 70
     1
 71
     1
 91
        1
 92
        1
 93
       19
 72
     2
 10
-22.195587997901765
 20
-0.000000000000135
 40
2.4626462646264748
 50
303.748989
 51
0.0
 73
     1
 72
     1
 10
-19.732941733275293
 20
0.0
 11
-18.777880899649912
 21
0.0
 72
     2
 10
-21.308934004960445
 20
-0.0000000000001492
 40
2.5310531053105372
 50
0.0
 51
55.698847
 73
     0
 72
     2
 10
-22.195587997901708
 20
1.2997299729973051
 40
4.1044104410441289
 50
55.698847
 51
70.528779
 73
     0
 72
     1
 10
-20.827451184220411
 20
-2.5699453011829512
 11
-20.827451184220411
 21
-2.8054062368445436
 72
     2
 10
-20.485416980800043
 20
-2.8054062368445436
 40
0.342034203420344
 50
180.0
 51
245.380023
 73
     1
 72
     2
 10
-20.171937455312563
 20
-2.1213378300038528
 40
1.094509450945099
 50
245.380023
 51
267.913343
 73
     1
 72
     1
 10
-20.211789618063744
 20
-3.2151215121513772
 11
-20.211789618063744
 21
-3.4203420342035784
 72
     1
 10
-20.211789618063744
 20
-3.4203420342035784
 11
-22.263994838585827
 21
-3.4203420342035784
 72
     1
 10
-22.263994838585827
 20
-3.4203420342035784
 11
-22.263994838585827
 21
-3.2151215121513737
 72
     2
 10
-22.303847001337058
 20
-2.1213378300038528
 40
1.094509450945099
 50
272.086657
 51
294.619977
 73
     1
 72
     2
 10
-21.990367475849578
 20
-2.8054062368445436
 40
0.342034203420344
 50
294.619977
 51
0.0
 73
     1
 72
     1
 10
-21.648333272429209
 20
-2.8054062368445436
 11
-21.648333272429209
 21
-2.7680332125876284
 72
     2
 10
-22.195587997901765
 20
1.2997299729972909
 40
4.1044104410441236
 50
82.337744
 51
91.080702
 73
     0
 72
     1
 10
-22.272999999999005
 20
-2.8039503813289706
 11
-22.272999999999005
 21
-2.4614292609397985
 72
     2
 10
-22.195587997901708
 20
-0.000000000000135
 40
2.4626462646264669
 50
268.19864
 51
282.839588
 73
     1
 72
     1
 10
-21.648333272429209
 20
-2.4010703634269781
 11
-21.648333272429209
 21
0.0
 72
     1
 10
-21.648333272429209
 20
0.0
 11
-20.827451184220411
 21
0.0
 72
     1
 10
-20.827451184220411
 20
0.0
 11
-20.827451184220411
 21
-2.047639686011447
 97
        0
 75
     0
 76
     1
 98
        1
 10
0.0
 20
0.0
  0
ENDBLK
  5
174
100
AcDbEntity
  8
0
100
AcDbBlockEnd
  0
ENDSEC
  0
SECTION
  2
ENTITIES
  0
INSERT
  5
175
100
AcDbEntity
  8
LAY-1
  6
CONTINUOUS
 62
     0
100
AcDbBlockReference
  2
SYM-1
 10
204.0
 20
73.392575
 30
0.0
  0
LINE
  5
176
100
AcDbEntity
  8
LAY-1
  6
CONTINUOUS
 62
     2
100
AcDbLine
 10
159.0
 20
519.0
 30
0.0
 11
159.0
 21
495.354613
 31
0.0
  0
LINE
  5
177
100
AcDbEntity
  8
LAY-1
  6
CONTINUOUS
 62
     2
100
AcDbLine
 10
249.0
 20
519.0
 30
0.0
 11
249.0
 21
495.354613
 31
0.0
  0
LINE
  5
178
100
AcDbEntity
  8
LAY-1
  6
CONTINUOUS
 62
     2
100
AcDbLine
 10
175.296948
 20
519.0
 30
0.0
 11
159.0
 21
519.0
 31
0.0
  0
LINE
  5
179
100
AcDbEntity
  8
LAY-1
  6
CONTINUOUS
 62
     2
100
AcDbLine
 10
232.568232
 20
519.0
 30
0.0
 11
249.0
 21
519.0
 31
0.0
  0
ELLIPSE
  5
17A
100
AcDbEntity
  8
LAY-1
  6
CONTINUOUS
 62
     2
100
AcDbEllipse
 10
171.598076
 20
504.392575
 30
0.0
 11
2.5980762113533462
 21
0.0000000000000017
 31
0.0
210
0.0
220
0.0
230
1.0
 40
0.57735
 41
1.5707963267948966
 42
4.7123889803846897
  0
ELLIPSE
  5
17B
100
AcDbEntity
  8
LAY-1
  6
CONTINUOUS
 62
     2
100
AcDbEllipse
 10
159.0
 20
504.392575
 30
0.0
 11
-0.0000000000000009
 21
1.5000000000000302
 31
0.0
210
0.0
220
0.0
230
1.0
 40
0.57735
 41
3.1415926535897931
 42
0.0
  0
LINE
  5
17C
100
AcDbEntity
  8
LAY-1
  6
CONTINUOUS
 62
     2
100
AcDbLine
 10
171.598076
 20
502.892575
 30
0.0
 11
171.598076
 21
505.892575
 31
0.0
  0
LINE
  5
17D
100
AcDbEntity
  8
LAY-1
  6
CONTINUOUS
 62
     2
100
AcDbLine
 10
159.0
 20
505.892575
 30
0.0
 11
171.598076
 21
505.892575
 31
0.0
  0
LINE
  5
17E
100
AcDbEntity
  8
LAY-1
  6
CONTINUOUS
 62
     2
100
AcDbLine
 10
159.0
 20
502.892575
 30
0.0
 11
171.598076
 21
502.892575
 31
0.0
  0
LINE
  5
17F
100
AcDbEntity
  8
LAY-1
  6
CONTINUOUS
 62
     2
100
AcDbLine
 10
159.866025
 20
520.5
 30
0.0
 11
159.0
 21
519.0
 31
0.0
  0
LINE
  5
180
100
AcDbEntity
  8
LAY-1
  6
CONTINUOUS
 62
     2
100
AcDbLine
 10
169.0
 20
520.5
 30
0.0
 11
159.866025
 21
520.5
 31
0.0
  0
LINE
  5
181
100
AcDbEntity
  8
LAY-1
  6
CONTINUOUS
 62
     2
100
AcDbLine
 10
171.598076
 20
519.0
 30
0.0
 11
169.0
 21
520.5
 31
0.0
  0
ELLIPSE
  5
182
100
AcDbEntity
  8
LAY-1
  6
CONTINUOUS
 62
     2
100
AcDbEllipse
 10
249.0
 20
504.392575
 30
0.0
 11
0.0000000000000011
 21
-1.5000000000000302
 31
0.0
210
0.0
220
0.0
230
1.0
 40
0.57735
 41
3.1415926535897931
 42
0.0
  0
LINE
  5
183
100
AcDbEntity
  8
LAY-1
  6
CONTINUOUS
 62
     2
100
AcDbLine
 10
249.0
 20
505.892575
 30
0.0
 11
236.401924
 21
505.892575
 31
0.0
  0
LINE
  5
184
100
AcDbEntity
  8
LAY-1
  6
CONTINUOUS
 62
     2
100
AcDbLine
 10
249.0
 20
502.892575
 30
0.0
 11
236.401924
 21
502.892575
 31
0.0
  0
ELLIPSE
  5
185
100
AcDbEntity
  8
LAY-1
  6
CONTINUOUS
 62
     2
100
AcDbEllipse
 10
236.401924
 20
504.392575
 30
0.0
 11
-2.5980762113533462
 21
-0.000000000000002
 31
0.0
210
0.0
220
0.0
230
1.0
 40
0.57735
 41
1.5707963267948966
 42
4.7123889803846897
  0
LINE
  5
186
100
AcDbEntity
  8
LAY-1
  6
CONTINUOUS
 62
     2
100
AcDbLine
 10
236.401924
 20
505.892575
 30
0.0
 11
236.401924
 21
502.892575
 31
0.0
  0
LINE
  5
187
100
AcDbEntity
  8
LAY-1
  6
CONTINUOUS
 62
     2
100
AcDbLine
 10
236.401924
 20
519.0
 30
0.0
 11
239.0
 21
520.5
 31
0.0
  0
LINE
  5
188
100
AcDbEntity
  8
LAY-1
  6
CONTINUOUS
 62
     2
100
AcDbLine
 10
239.0
 20
520.5
 30
0.0
 11
248.133975
 21
520.5
 31
0.0
  0
LINE
  5
189
100
AcDbEntity
  8
LAY-1
  6
CONTINUOUS
 62
     2
100
AcDbLine
 10
248.133975
 20
520.5
 30
0.0
 11
249.0
 21
519.0
 31
0.0
  0
LINE
  5
18A
100
AcDbEntity
  8
LAY-1
  6
CONTINUOUS
 62
     2
100
AcDbLine
 10
248.133975
 20
56.5
 30
0.0
 11
249.0
 21
58.0
 31
0.0
  0
LINE
  5
18B
100
AcDbEntity
  8
LAY-1
  6
CONTINUOUS
 62
     2
100
AcDbLine
 10
184.501233
 20
504.0
 30
0.0
 11
185.452371
 21
514.871557
 31
0.0
  0
LINE
  5
18C
100
AcDbEntity
  8
LAY-1
  6
CONTINUOUS
 62
     2
100
AcDbLine
 10
223.498767
 20
504.0
 30
0.0
 11
222.547629
 21
514.871557
 31
0.0
  0
ARC
  5
18D
100
AcDbEntity
  8
LAY-1
  6
CONTINUOUS
 62
     2
100
AcDbCircle
 10
204.0
 20
504.0
 30
0.0
 40
30.0
100
AcDbArc
 50
166.299007
 51
193.995062
  0
ARC
  5
18E
100
AcDbEntity
  8
LAY-1
  6
CONTINUOUS
 62
     2
100
AcDbCircle
 10
204.0
 20
504.0
 30
0.0
 40
30.0
100
AcDbArc
 50
346.004938
 51
13.700993
  0
ARC
  5
18F
100
AcDbEntity
  8
LAY-1
  6
CONTINUOUS
 62
     2
100
AcDbCircle
 10
252.577251
 20
515.842749
 30
0.0
 40
20.0
100
AcDbArc
 50
150.836361
 51
193.700993
  0
ARC
  5
190
100
AcDbEntity
  8
LAY-1
  6
CONTINUOUS
 62
     2
100
AcDbCircle
 10
155.422749
 20
515.842749
 30
0.0
 40
20.0
100
AcDbArc
 50
346.299007
 51
29.163639
  0
ARC
  5
191
100
AcDbEntity
  8
LAY-1
  6
CONTINUOUS
 62
     2
100
AcDbCircle
 10
179.0
 20
529.0
 30
0.0
 40
7.0
100
AcDbArc
 50
60.836361
 51
209.163639
  0
ARC
  5
192
100
AcDbEntity
  8
LAY-1
  6
CONTINUOUS
 62
     2
100
AcDbCircle
 10
192.157251
 20
552.577251
 30
0.0
 40
20.0
100
AcDbArc
 50
240.836361
 51
283.700993
  0
ARC
  5
193
100
AcDbEntity
  8
LAY-1
  6
CONTINUOUS
 62
     2
100
AcDbCircle
 10
204.0
 20
504.0
 30
0.0
 40
30.0
100
AcDbArc
 50
76.004938
 51
103.700993
  0
ARC
  5
194
100
AcDbEntity
  8
LAY-1
  6
CONTINUOUS
 62
     2
100
AcDbCircle
 10
215.842749
 20
552.577251
 30
0.0
 40
20.0
100
AcDbArc
 50
256.299007
 51
299.163639
  0
ARC
  5
195
100
AcDbEntity
  8
LAY-1
  6
CONTINUOUS
 62
     2
100
AcDbCircle
 10
229.0
 20
529.0
 30
0.0
 40
7.0
100
AcDbArc
 50
330.836361
 51
119.163639
  0
LINE
  5
196
100
AcDbEntity
  8
LAY-1
  6
CONTINUOUS
 62
     2
100
AcDbLine
 10
179.75
 20
448.5
 30
0.0
 11
228.25
 21
448.5
 31
0.0
  0
LINE
  5
197
100
AcDbEntity
  8
LAY-1
  6
CONTINUOUS
 62
     2
100
AcDbLine
 10
216.42792
 20
458.554319
 30
0.0
 11
242.217727
 21
458.554319
 31
0.0
  0
LINE
  5
198
100
AcDbEntity
  8
LAY-1
  6
CONTINUOUS
 62
     2
100
AcDbLine
 10
191.57208
 20
458.554319
 30
0.0
 11
165.782273
 21
458.554319
 31
0.0
  0
LINE
  5
199
100
AcDbEntity
  8
LAY-1
  6
CONTINUOUS
 62
     2
100
AcDbLine
 10
195.414318
 20
524.0
 30
0.0
 11
212.585682
 21
524.0
 31
0.0
  0
ARC
  5
19A
100
AcDbEntity
  8
LAY-1
  6
CONTINUOUS
 62
     2
100
AcDbCircle
 10
177.501233
 20
504.0
 30
0.0
 40
7.0
100
AcDbArc
 50
275.0
 51
0.0
  0
ARC
  5
19B
100
AcDbEntity
  8
LAY-1
  6
CONTINUOUS
 62
     2
100
AcDbCircle
 10
195.414318
 20
514.0
 30
0.0
 40
10.0
100
AcDbArc
 50
90.0
 51
175.0
  0
ARC
  5
19C
100
AcDbEntity
  8
LAY-1
  6
CONTINUOUS
 62
     2
100
AcDbCircle
 10
212.585682
 20
514.0
 30
0.0
 40
10.0
100
AcDbArc
 50
5.0
 51
90.0
  0
ARC
  5
19D
100
AcDbEntity
  8
LAY-1
  6
CONTINUOUS
 62
     2
100
AcDbCircle
 10
230.498767
 20
504.0
 30
0.0
 40
7.0
100
AcDbArc
 50
180.0
 51
265.0
  0
ARC
  5
19E
100
AcDbEntity
  8
LAY-1
  6
CONTINUOUS
 62
     2
100
AcDbCircle
 10
144.045009
 20
489.0
 30
0.0
 40
4.0
100
AcDbArc
 50
327.315446
 51
344.193502
  0
ARC
  5
19F
100
AcDbEntity
  8
LAY-1
  6
CONTINUOUS
 62
     2
100
AcDbCircle
 10
248.505614
 20
473.19953
 30
0.0
 40
14.0
100
AcDbArc
 50
275.339237
 51
340.386065
  0
ARC
  5
1A0
100
AcDbEntity
  8
LAY-1
  6
CONTINUOUS
 62
     2
100
AcDbCircle
 10
159.494386
 20
473.19953
 30
0.0
 40
14.0
100
AcDbArc
 50
199.613935
 51
264.660763
  0
ARC
  5
1A1
100
AcDbEntity
  8
LAY-1
  6
CONTINUOUS
 62
     2
100
AcDbCircle
 10
157.515628
 20
485.186549
 30
0.0
 40
10.0
100
AcDbArc
 50
95.0
 51
164.193502
  0
ARC
  5
1A2
100
AcDbEntity
  8
LAY-1
  6
CONTINUOUS
 62
     2
100
AcDbCircle
 10
250.484372
 20
485.186549
 30
0.0
 40
10.0
100
AcDbArc
 50
15.806498
 51
85.0
  0
LINE
  5
1A3
100
AcDbEntity
  8
LAY-1
  6
CONTINUOUS
 62
     2
100
AcDbLine
 10
130.0
 20
479.0
 30
0.0
 11
278.0
 21
479.0
 31
0.0
  0
LINE
  5
1A4
100
AcDbEntity
  8
LAY-1
  6
CONTINUOUS
 62
     2
100
AcDbLine
 10
278.0
 20
472.633975
 30
0.0
 11
278.0
 21
478.5
 31
0.0
  0
LINE
  5
1A5
100
AcDbEntity
  8
LAY-1
  6
CONTINUOUS
 62
     2
100
AcDbLine
 10
176.0
 20
451.223093
 30
0.0
 11
176.0
 21
398.5
 31
0.0
  0
LINE
  5
1A6
100
AcDbEntity
  8
LAY-1
  6
CONTINUOUS
 62
     2
100
AcDbLine
 10
158.201199
 20
459.262831
 30
0.0
 11
169.651367
 21
458.192722
 31
0.0
  0
ARC
  5
1A7
100
AcDbEntity
  8
LAY-1
  6
CONTINUOUS
 62
     2
100
AcDbCircle
 10
169.0
 20
451.223093
 30
0.0
 40
7.0
100
AcDbArc
 50
0.0
 51
84.660763
  0
LINE
  5
1A8
100
AcDbEntity
  8
LAY-1
  6
CONTINUOUS
 62
     2
100
AcDbLine
 10
249.798801
 20
459.262831
 30
0.0
 11
238.348633
 21
458.192722
 31
0.0
  0
LINE
  5
1A9
100
AcDbEntity
  8
LAY-1
  6
CONTINUOUS
 62
     2
100
AcDbLine
 10
277.5
 20
472.5
 30
0.0
 11
130.5
 21
472.5
 31
0.0
  0
LINE
  5
1AA
100
AcDbEntity
  8
LAY-1
  6
CONTINUOUS
 62
     2
100
AcDbLine
 10
176.5
 20
393.5
 30
0.0
 11
231.5
 21
393.5
 31
0.0
  0
LINE
  5
1AB
100
AcDbEntity
  8
LAY-1
  6
CONTINUOUS
 62
     2
100
AcDbLine
 10
176.5
 20
398.5
 30
0.0
 11
176.5
 21
393.5
 31
0.0
  0
LINE
  5
1AC
100
AcDbEntity
  8
LAY-1
  6
CONTINUOUS
 62
     2
100
AcDbLine
 10
231.5
 20
398.5
 30
0.0
 11
231.5
 21
393.5
 31
0.0
  0
ARC
  5
1AD
100
AcDbEntity
  8
LAY-1
  6
CONTINUOUS
 62
     2
100
AcDbCircle
 10
130.5
 20
473.5
 30
0.0
 40
1.0
100
AcDbArc
 50
240.0
 51
270.0
  0
LINE
  5
1AE
100
AcDbEntity
  8
LAY-1
  6
CONTINUOUS
 62
     2
100
AcDbLine
 10
130.0
 20
478.5
 30
0.0
 11
278.0
 21
478.5
 31
0.0
  0
LINE
  5
1AF
100
AcDbEntity
  8
LAY-1
  6
CONTINUOUS
 62
     2
100
AcDbLine
 10
130.0
 20
472.633975
 30
0.0
 11
130.0
 21
478.5
 31
0.0
  0
ARC
  5
1B0
100
AcDbEntity
  8
LAY-1
  6
CONTINUOUS
 62
     2
100
AcDbCircle
 10
277.5
 20
473.5
 30
0.0
 40
1.0
100
AcDbArc
 50
270.0
 51
300.0
  0
LINE
  5
1B1
100
AcDbEntity
  8
LAY-1
  6
CONTINUOUS
 62
     2
100
AcDbLine
 10
176.0
 20
398.5
 30
0.0
 11
204.0
 21
398.5
 31
0.0
  0
LINE
  5
1B2
100
AcDbEntity
  8
LAY-1
  6
CONTINUOUS
 62
     2
100
AcDbLine
 10
232.0
 20
398.5
 30
0.0
 11
204.0
 21
398.5
 31
0.0
  0
LINE
  5
1B3
100
AcDbEntity
  8
LAY-1
  6
CONTINUOUS
 62
     2
100
AcDbLine
 10
232.0
 20
451.223093
 30
0.0
 11
232.0
 21
398.5
 31
0.0
  0
ARC
  5
1B4
100
AcDbEntity
  8
LAY-1
  6
CONTINUOUS
 62
     2
100
AcDbCircle
 10
239.0
 20
451.223093
 30
0.0
 40
7.0
100
AcDbArc
 50
95.339237
 51
180.0
  0
LINE
  5
1B5
100
AcDbEntity
  8
LAY-1
  6
CONTINUOUS
 62
     2
100
AcDbLine
 10
232.568232
 20
88.0
 30
0.0
 11
249.0
 21
88.0
 31
0.0
  0
ARC
  5
1B6
100
AcDbEntity
  8
LAY-1
  6
CONTINUOUS
 62
     2
100
AcDbCircle
 10
225.93259
 20
100.0
 30
0.0
 40
2.0
100
AcDbArc
 50
90.0
 51
180.0
  0
ARC
  5
1B7
100
AcDbEntity
  8
LAY-1
  6
CONTINUOUS
 62
     2
100
AcDbCircle
 10
181.93259
 20
100.0
 30
0.0
 40
2.0
100
AcDbArc
 50
0.0
 51
90.0
  0
LINE
  5
1B8
100
AcDbEntity
  8
LAY-1
  6
CONTINUOUS
 62
     2
100
AcDbLine
 10
223.93259
 20
100.0
 30
0.0
 11
223.93259
 21
95.947332
 31
0.0
  0
LINE
  5
1B9
100
AcDbEntity
  8
LAY-1
  6
CONTINUOUS
 62
     2
100
AcDbLine
 10
183.93259
 20
100.0
 30
0.0
 11
183.93259
 21
95.947332
 31
0.0
  0
ARC
  5
1BA
100
AcDbEntity
  8
LAY-1
  6
CONTINUOUS
 62
     2
100
AcDbCircle
 10
177.93259
 20
95.947332
 30
0.0
 40
6.0
100
AcDbArc
 50
304.417389
 51
0.0
  0
LINE
  5
1BB
100
AcDbEntity
  8
LAY-1
  6
CONTINUOUS
 62
     2
100
AcDbLine
 10
175.296948
 20
88.0
 30
0.0
 11
159.0
 21
88.0
 31
0.0
  0
LINE
  5
1BC
100
AcDbEntity
  8
LAY-1
  6
CONTINUOUS
 62
     2
100
AcDbLine
 10
195.5
 20
49.892575
 30
0.0
 11
194.0
 21
51.392575
 31
0.0
  0
LINE
  5
1BD
100
AcDbEntity
  8
LAY-1
  6
CONTINUOUS
 62
     2
100
AcDbLine
 10
195.5
 20
49.892575
 30
0.0
 11
194.0
 21
48.392575
 31
0.0
  0
LINE
  5
1BE
100
AcDbEntity
  8
LAY-1
  6
CONTINUOUS
 62
     2
100
AcDbLine
 10
194.0
 20
51.392575
 30
0.0
 11
200.5
 21
49.892575
 31
0.0
  0
LINE
  5
1BF
100
AcDbEntity
  8
LAY-1
  6
CONTINUOUS
 62
     2
100
AcDbLine
 10
209.0
 20
51.392575
 30
0.0
 11
209.0
 21
49.892575
 31
0.0
  0
LINE
  5
1C0
100
AcDbEntity
  8
LAY-1
  6
CONTINUOUS
 62
     2
100
AcDbLine
 10
209.0
 20
51.392575
 30
0.0
 11
214.0
 21
48.392575
 31
0.0
  0
LINE
  5
1C1
100
AcDbEntity
  8
LAY-1
  6
CONTINUOUS
 62
     2
100
AcDbLine
 10
214.0
 20
48.392575
 30
0.0
 11
194.0
 21
48.392575
 31
0.0
  0
LINE
  5
1C2
100
AcDbEntity
  8
LAY-1
  6
CONTINUOUS
 62
     2
100
AcDbLine
 10
200.5
 20
49.892575
 30
0.0
 11
209.0
 21
49.892575
 31
0.0
  0
ELLIPSE
  5
1C3
100
AcDbEntity
  8
LAY-1
  6
CONTINUOUS
 62
     2
100
AcDbEllipse
 10
171.598076
 20
73.392575
 30
0.0
 11
2.5980762113533462
 21
0.0000000000000017
 31
0.0
210
0.0
220
0.0
230
1.0
 40
0.57735
 41
1.5707963267948966
 42
4.7123889803846897
  0
ELLIPSE
  5
1C4
100
AcDbEntity
  8
LAY-1
  6
CONTINUOUS
 62
     2
100
AcDbEllipse
 10
159.0
 20
73.392575
 30
0.0
 11
-0.0000000000000009
 21
1.5000000000000302
 31
0.0
210
0.0
220
0.0
230
1.0
 40
0.57735
 41
3.1415926535897931
 42
0.0
  0
LINE
  5
1C5
100
AcDbEntity
  8
LAY-1
  6
CONTINUOUS
 62
     2
100
AcDbLine
 10
171.598076
 20
71.892575
 30
0.0
 11
171.598076
 21
74.892575
 31
0.0
  0
LINE
  5
1C6
100
AcDbEntity
  8
LAY-1
  6
CONTINUOUS
 62
     2
100
AcDbLine
 10
159.0
 20
74.892575
 30
0.0
 11
171.598076
 21
74.892575
 31
0.0
  0
LINE
  5
1C7
100
AcDbEntity
  8
LAY-1
  6
CONTINUOUS
 62
     2
100
AcDbLine
 10
159.0
 20
71.892575
 30
0.0
 11
171.598076
 21
71.892575
 31
0.0
  0
ELLIPSE
  5
1C8
100
AcDbEntity
  8
LAY-1
  6
CONTINUOUS
 62
     2
100
AcDbEllipse
 10
249.0
 20
73.392575
 30
0.0
 11
0.0000000000000011
 21
-1.5000000000000302
 31
0.0
210
0.0
220
0.0
230
1.0
 40
0.57735
 41
3.1415926535897931
 42
0.0
  0
LINE
  5
1C9
100
AcDbEntity
  8
LAY-1
  6
CONTINUOUS
 62
     2
100
AcDbLine
 10
249.0
 20
74.892575
 30
0.0
 11
236.401924
 21
74.892575
 31
0.0
  0
LINE
  5
1CA
100
AcDbEntity
  8
LAY-1
  6
CONTINUOUS
 62
     2
100
AcDbLine
 10
249.0
 20
71.892575
 30
0.0
 11
236.401924
 21
71.892575
 31
0.0
  0
ELLIPSE
  5
1CB
100
AcDbEntity
  8
LAY-1
  6
CONTINUOUS
 62
     2
100
AcDbEllipse
 10
236.401924
 20
73.392575
 30
0.0
 11
-2.5980762113533462
 21
-0.000000000000002
 31
0.0
210
0.0
220
0.0
230
1.0
 40
0.57735
 41
1.5707963267948966
 42
4.7123889803846897
  0
LINE
  5
1CC
100
AcDbEntity
  8
LAY-1
  6
CONTINUOUS
 62
     2
100
AcDbLine
 10
236.401924
 20
74.892575
 30
0.0
 11
236.401924
 21
71.892575
 31
0.0
  0
ARC
  5
1CD
100
AcDbEntity
  8
LAY-1
  6
CONTINUOUS
 62
     2
100
AcDbCircle
 10
229.93259
 20
95.947332
 30
0.0
 40
6.0
100
AcDbArc
 50
180.0
 51
235.582611
  0
ARC
  5
1CE
100
AcDbEntity
  8
LAY-1
  6
CONTINUOUS
 62
     2
100
AcDbCircle
 10
232.568232
 20
94.0
 30
0.0
 40
6.0
100
AcDbArc
 50
231.50005
 51
270.0
  0
ARC
  5
1CF
100
AcDbEntity
  8
LAY-1
  6
CONTINUOUS
 62
     2
100
AcDbCircle
 10
203.93259
 20
58.0
 30
0.0
 40
40.0
100
AcDbArc
 50
51.50005
 51
55.582611
  0
ARC
  5
1D0
100
AcDbEntity
  8
LAY-1
  6
CONTINUOUS
 62
     2
100
AcDbCircle
 10
175.296948
 20
94.0
 30
0.0
 40
6.0
100
AcDbArc
 50
270.0
 51
308.49995
  0
ARC
  5
1D1
100
AcDbEntity
  8
LAY-1
  6
CONTINUOUS
 62
     2
100
AcDbCircle
 10
203.93259
 20
58.0
 30
0.0
 40
40.0
100
AcDbArc
 50
124.417389
 51
128.49995
  0
LINE
  5
1D2
100
AcDbEntity
  8
LAY-1
  6
CONTINUOUS
 62
     2
100
AcDbLine
 10
171.530666
 20
88.0
 30
0.0
 11
175.296948
 21
88.0
 31
0.0
  0
ARC
  5
1D3
100
AcDbEntity
  8
LAY-1
  6
CONTINUOUS
 62
     2
100
AcDbCircle
 10
204.0
 20
143.792575
 30
0.0
 40
55.4
100
AcDbArc
 50
250.123128
 51
290.568189
  0
ARC
  5
1D4
100
AcDbEntity
  8
LAY-1
  6
CONTINUOUS
 62
     2
100
AcDbCircle
 10
204.0
 20
7.992575
 30
0.0
 40
55.4
100
AcDbArc
 50
65.470453
 51
114.529547
  0
LINE
  5
1D5
100
AcDbEntity
  8
LAY-1
  6
CONTINUOUS
 62
     2
100
AcDbLine
 10
208.926853
 20
269.0
 30
0.0
 11
199.073147
 21
269.0
 31
0.0
  0
CIRCLE
  5
1D6
100
AcDbEntity
  8
LAY-1
  6
CONTINUOUS
 62
     2
100
AcDbCircle
 10
204.0
 20
193.0
 30
0.0
 40
74.0
  0
LINE
  5
1D7
100
AcDbEntity
  8
LAY-1
  6
CONTINUOUS
 62
     2
100
AcDbLine
 10
208.858981
 20
266.840303
 30
0.0
 11
208.958279
 21
270.0
 31
0.0
  0
LINE
  5
1D8
100
AcDbEntity
  8
LAY-1
  6
CONTINUOUS
 62
     2
100
AcDbLine
 10
199.041721
 20
270.0
 30
0.0
 11
199.141019
 21
266.840303
 31
0.0
  0
LINE
  5
1D9
100
AcDbEntity
  8
LAY-1
  6
CONTINUOUS
 62
     2
100
AcDbLine
 10
204.0
 20
109.0
 30
0.0
 11
172.0
 21
109.0
 31
0.0
  0
ARC
  5
1DA
100
AcDbEntity
  8
LAY-1
  6
CONTINUOUS
 62
     2
100
AcDbCircle
 10
173.0
 20
103.0
 30
0.0
 40
1.0
100
AcDbArc
 50
180.0
 51
270.0
  0
ARC
  5
1DB
100
AcDbEntity
  8
LAY-1
  6
CONTINUOUS
 62
     2
100
AcDbCircle
 10
175.0
 20
52.0
 30
0.0
 40
6.0
100
AcDbArc
 50
0.0
 51
90.0
  0
LINE
  5
1DC
100
AcDbEntity
  8
LAY-1
  6
CONTINUOUS
 62
     2
100
AcDbLine
 10
172.0
 20
116.0
 30
0.0
 11
172.0
 21
103.0
 31
0.0
  0
LINE
  5
1DD
100
AcDbEntity
  8
LAY-1
  6
CONTINUOUS
 62
     2
100
AcDbLine
 10
173.0
 20
102.0
 30
0.0
 11
204.0
 21
102.0
 31
0.0
  0
LINE
  5
1DE
100
AcDbEntity
  8
LAY-1
  6
CONTINUOUS
 62
     2
100
AcDbLine
 10
159.0
 20
88.0
 30
0.0
 11
159.0
 21
58.0
 31
0.0
  0
LINE
  5
1DF
100
AcDbEntity
  8
LAY-1
  6
CONTINUOUS
 62
     2
100
AcDbLine
 10
159.0
 20
58.0
 30
0.0
 11
175.0
 21
58.0
 31
0.0
  0
LINE
  5
1E0
100
AcDbEntity
  8
LAY-1
  6
CONTINUOUS
 62
     2
100
AcDbLine
 10
171.598076
 20
58.0
 30
0.0
 11
169.0
 21
56.5
 31
0.0
  0
LINE
  5
1E1
100
AcDbEntity
  8
LAY-1
  6
CONTINUOUS
 62
     2
100
AcDbLine
 10
236.401924
 20
88.0
 30
0.0
 11
239.0
 21
89.5
 31
0.0
  0
LINE
  5
1E2
100
AcDbEntity
  8
LAY-1
  6
CONTINUOUS
 62
     2
100
AcDbLine
 10
239.0
 20
89.5
 30
0.0
 11
248.133975
 21
89.5
 31
0.0
  0
LINE
  5
1E3
100
AcDbEntity
  8
LAY-1
  6
CONTINUOUS
 62
     2
100
AcDbLine
 10
248.133975
 20
89.5
 30
0.0
 11
249.0
 21
88.0
 31
0.0
  0
LINE
  5
1E4
100
AcDbEntity
  8
LAY-1
  6
CONTINUOUS
 62
     2
100
AcDbLine
 10
239.0
 20
56.5
 30
0.0
 11
248.133975
 21
56.5
 31
0.0
  0
LINE
  5
1E5
100
AcDbEntity
  8
LAY-1
  6
CONTINUOUS
 62
     2
100
AcDbLine
 10
236.401924
 20
58.0
 30
0.0
 11
239.0
 21
56.5
 31
0.0
  0
LINE
  5
1E6
100
AcDbEntity
  8
LAY-1
  6
CONTINUOUS
 62
     2
100
AcDbLine
 10
169.0
 20
56.5
 30
0.0
 11
159.866025
 21
56.5
 31
0.0
  0
LINE
  5
1E7
100
AcDbEntity
  8
LAY-1
  6
CONTINUOUS
 62
     2
100
AcDbLine
 10
249.0
 20
58.0
 30
0.0
 11
233.0
 21
58.0
 31
0.0
  0
LINE
  5
1E8
100
AcDbEntity
  8
LAY-1
  6
CONTINUOUS
 62
     2
100
AcDbLine
 10
249.0
 20
88.0
 30
0.0
 11
249.0
 21
58.0
 31
0.0
  0
LINE
  5
1E9
100
AcDbEntity
  8
LAY-1
  6
CONTINUOUS
 62
     2
100
AcDbLine
 10
159.866025
 20
56.5
 30
0.0
 11
159.0
 21
58.0
 31
0.0
  0
LINE
  5
1EA
100
AcDbEntity
  8
LAY-1
  6
CONTINUOUS
 62
     2
100
AcDbLine
 10
235.0
 20
102.0
 30
0.0
 11
204.0
 21
102.0
 31
0.0
  0
LINE
  5
1EB
100
AcDbEntity
  8
LAY-1
  6
CONTINUOUS
 62
     2
100
AcDbLine
 10
236.0
 20
116.0
 30
0.0
 11
236.0
 21
103.0
 31
0.0
  0
LINE
  5
1EC
100
AcDbEntity
  8
LAY-1
  6
CONTINUOUS
 62
     2
100
AcDbLine
 10
159.866025
 20
89.5
 30
0.0
 11
159.0
 21
88.0
 31
0.0
  0
ARC
  5
1ED
100
AcDbEntity
  8
LAY-1
  6
CONTINUOUS
 62
     2
100
AcDbCircle
 10
233.0
 20
52.0
 30
0.0
 40
6.0
100
AcDbArc
 50
90.0
 51
180.0
  0
ARC
  5
1EE
100
AcDbEntity
  8
LAY-1
  6
CONTINUOUS
 62
     2
100
AcDbCircle
 10
235.0
 20
103.0
 30
0.0
 40
1.0
100
AcDbArc
 50
270.0
 51
0.0
  0
LINE
  5
1EF
100
AcDbEntity
  8
LAY-1
  6
CONTINUOUS
 62
     2
100
AcDbLine
 10
169.0
 20
89.5
 30
0.0
 11
159.866025
 21
89.5
 31
0.0
  0
LINE
  5
1F0
100
AcDbEntity
  8
LAY-1
  6
CONTINUOUS
 62
     2
100
AcDbLine
 10
171.598076
 20
88.0
 30
0.0
 11
169.0
 21
89.5
 31
0.0
  0
LINE
  5
1F1
100
AcDbEntity
  8
LAY-1
  6
CONTINUOUS
 62
     2
100
AcDbLine
 10
204.0
 20
109.0
 30
0.0
 11
236.0
 21
109.0
 31
0.0
  0
ARC
  5
1F2
100
AcDbEntity
  8
LAY-1
  6
CONTINUOUS
 62
     2
100
AcDbCircle
 10
186.5
 20
119.0
 30
0.0
 40
2.0
100
AcDbArc
 50
270.0
 51
0.0
  0
ARC
  5
1F3
100
AcDbEntity
  8
LAY-1
  6
CONTINUOUS
 62
     2
100
AcDbCircle
 10
221.5
 20
119.0
 30
0.0
 40
2.0
100
AcDbArc
 50
180.0
 51
270.0
  0
LINE
  5
1F4
100
AcDbEntity
  8
LAY-1
  6
CONTINUOUS
 62
     2
100
AcDbLine
 10
204.0
 20
117.0
 30
0.0
 11
173.0
 21
117.0
 31
0.0
  0
LINE
  5
1F5
100
AcDbEntity
  8
LAY-1
  6
CONTINUOUS
 62
     2
100
AcDbLine
 10
204.0
 20
117.0
 30
0.0
 11
235.0
 21
117.0
 31
0.0
  0
LINE
  5
1F6
100
AcDbEntity
  8
LAY-1
  6
CONTINUOUS
 62
     2
100
AcDbLine
 10
188.5
 20
119.0
 30
0.0
 11
188.5
 21
120.641517
 31
0.0
  0
LINE
  5
1F7
100
AcDbEntity
  8
LAY-1
  6
CONTINUOUS
 62
     2
100
AcDbLine
 10
219.5
 20
119.0
 30
0.0
 11
219.5
 21
120.641517
 31
0.0
  0
ARC
  5
1F8
100
AcDbEntity
  8
LAY-1
  6
CONTINUOUS
 62
     2
100
AcDbCircle
 10
235.0
 20
116.0
 30
0.0
 40
1.0
100
AcDbArc
 50
0.0
 51
90.0
  0
ARC
  5
1F9
100
AcDbEntity
  8
LAY-1
  6
CONTINUOUS
 62
     2
100
AcDbCircle
 10
173.0
 20
116.0
 30
0.0
 40
1.0
100
AcDbArc
 50
90.0
 51
180.0
  0
LINE
  5
1FA
100
AcDbEntity
  8
LAY-1
  6
EXLTYPE3
 62
     1
100
AcDbLine
 10
204.0
 20
283.663161
 30
0.0
 11
204.0
 21
25.947391
 31
0.0
  0
LINE
  5
1FB
100
AcDbEntity
  8
LAY-1
  6
EXLTYPE3
 62
     1
100
AcDbLine
 10
259.203715
 20
73.0
 30
0.0
 11
148.11952
 21
73.0
 31
0.0
  0
LINE
  5
1FC
100
AcDbEntity
  8
LAY-1
  6
CONTINUOUS
 62
     1
100
AcDbLine
 10
199.041721
 20
270.0
 30
0.0
 11
199.654147
 21
269.0
 31
0.0
  0
LINE
  5
1FD
100
AcDbEntity
  8
LAY-1
  6
CONTINUOUS
 62
     1
100
AcDbLine
 10
199.654147
 20
269.0
 30
0.0
 11
199.720891
 21
266.876175
 31
0.0
  0
LINE
  5
1FE
100
AcDbEntity
  8
LAY-1
  6
CONTINUOUS
 62
     1
100
AcDbLine
 10
208.279109
 20
266.876175
 30
0.0
 11
208.345853
 21
269.0
 31
0.0
  0
LINE
  5
1FF
100
AcDbEntity
  8
LAY-1
  6
CONTINUOUS
 62
     1
100
AcDbLine
 10
208.345853
 20
269.0
 30
0.0
 11
208.958279
 21
270.0
 31
0.0
  0
LINE
  5
200
100
AcDbEntity
  8
LAY-1
  6
EXLTYPE3
 62
     1
100
AcDbLine
 10
283.479469
 20
193.0
 30
0.0
 11
121.009637
 21
193.0
 31
0.0
  0
LINE
  5
201
100
AcDbEntity
  8
LAY-1
  6
EXLTYPE3
 62
     1
100
AcDbLine
 10
204.0
 20
532.4
 30
0.0
 11
204.0
 21
380.4
 31
0.0
  0
LINE
  5
202
100
AcDbEntity
  8
LAY-1
  6
EXLTYPE3
 62
     1
100
AcDbLine
 10
148.11952
 20
504.0
 30
0.0
 11
259.203715
 21
504.0
 31
0.0
  0
LINE
  5
203
100
AcDbEntity
  8
LAY-1
  6
CONTINUOUS
 62
     1
100
AcDbLine
 10
263.475117
 20
468.946582
 30
0.0
 11
263.475117
 21
472.5
 31
0.0
  0
LINE
  5
204
100
AcDbEntity
  8
LAY-1
  6
CONTINUOUS
 62
     1
100
AcDbLine
 10
269.24862
 20
468.946582
 30
0.0
 11
269.24862
 21
472.5
 31
0.0
  0
ARC
  5
205
100
AcDbEntity
  8
LAY-1
  6
CONTINUOUS
 62
     1
100
AcDbCircle
 10
270.691995
 20
471.055823
 30
0.0
 40
2.555823
100
AcDbArc
 50
235.615753
 51
304.384247
  0
ARC
  5
206
100
AcDbEntity
  8
LAY-1
  6
CONTINUOUS
 62
     1
100
AcDbCircle
 10
266.361868
 20
478.053418
 30
0.0
 40
9.553418
100
AcDbArc
 50
252.412046
 51
287.587954
  0
ARC
  5
207
100
AcDbEntity
  8
LAY-1
  6
CONTINUOUS
 62
     1
100
AcDbCircle
 10
262.031741
 20
471.055823
 30
0.0
 40
2.555823
100
AcDbArc
 50
235.615753
 51
304.384247
  0
LINE
  5
208
100
AcDbEntity
  8
LAY-1
  6
CONTINUOUS
 62
     1
100
AcDbLine
 10
260.588366
 20
468.946582
 30
0.0
 11
260.588366
 21
472.5
 31
0.0
  0
LINE
  5
209
100
AcDbEntity
  8
LAY-1
  6
CONTINUOUS
 62
     1
100
AcDbLine
 10
261.361868
 20
468.5
 30
0.0
 11
260.588366
 21
468.946582
 31
0.0
  0
LINE
  5
20A
100
AcDbEntity
  8
LAY-1
  6
CONTINUOUS
 62
     1
100
AcDbLine
 10
271.361868
 20
468.5
 30
0.0
 11
261.361868
 21
468.5
 31
0.0
  0
LINE
  5
20B
100
AcDbEntity
  8
LAY-1
  6
CONTINUOUS
 62
     1
100
AcDbLine
 10
272.135371
 20
468.946582
 30
0.0
 11
271.361868
 21
468.5
 31
0.0
  0
LINE
  5
20C
100
AcDbEntity
  8
LAY-1
  6
CONTINUOUS
 62
     1
100
AcDbLine
 10
272.135371
 20
472.5
 30
0.0
 11
272.135371
 21
468.946582
 31
0.0
  0
LINE
  5
20D
100
AcDbEntity
  8
LAY-1
  6
CONTINUOUS
 62
     1
100
AcDbLine
 10
226.94438
 20
468.946582
 30
0.0
 11
226.94438
 21
472.5
 31
0.0
  0
LINE
  5
20E
100
AcDbEntity
  8
LAY-1
  6
CONTINUOUS
 62
     1
100
AcDbLine
 10
232.717883
 20
468.946582
 30
0.0
 11
232.717883
 21
472.5
 31
0.0
  0
ARC
  5
20F
100
AcDbEntity
  8
LAY-1
  6
CONTINUOUS
 62
     1
100
AcDbCircle
 10
234.161259
 20
471.055823
 30
0.0
 40
2.555823
100
AcDbArc
 50
235.615753
 51
304.384247
  0
ARC
  5
210
100
AcDbEntity
  8
LAY-1
  6
CONTINUOUS
 62
     1
100
AcDbCircle
 10
229.831132
 20
478.053418
 30
0.0
 40
9.553418
100
AcDbArc
 50
252.412046
 51
287.587954
  0
ARC
  5
211
100
AcDbEntity
  8
LAY-1
  6
CONTINUOUS
 62
     1
100
AcDbCircle
 10
225.501005
 20
471.055823
 30
0.0
 40
2.555823
100
AcDbArc
 50
235.615753
 51
304.384247
  0
LINE
  5
212
100
AcDbEntity
  8
LAY-1
  6
CONTINUOUS
 62
     1
100
AcDbLine
 10
224.057629
 20
468.946582
 30
0.0
 11
224.057629
 21
472.5
 31
0.0
  0
LINE
  5
213
100
AcDbEntity
  8
LAY-1
  6
CONTINUOUS
 62
     1
100
AcDbLine
 10
224.831132
 20
468.5
 30
0.0
 11
224.057629
 21
468.946582
 31
0.0
  0
LINE
  5
214
100
AcDbEntity
  8
LAY-1
  6
CONTINUOUS
 62
     1
100
AcDbLine
 10
234.831132
 20
468.5
 30
0.0
 11
224.831132
 21
468.5
 31
0.0
  0
LINE
  5
215
100
AcDbEntity
  8
LAY-1
  6
CONTINUOUS
 62
     1
100
AcDbLine
 10
235.604634
 20
468.946582
 30
0.0
 11
234.831132
 21
468.5
 31
0.0
  0
LINE
  5
216
100
AcDbEntity
  8
LAY-1
  6
CONTINUOUS
 62
     1
100
AcDbLine
 10
235.604634
 20
472.5
 30
0.0
 11
235.604634
 21
468.946582
 31
0.0
  0
LINE
  5
217
100
AcDbEntity
  8
LAY-1
  6
CONTINUOUS
 62
     1
100
AcDbLine
 10
175.282117
 20
468.946582
 30
0.0
 11
175.282117
 21
472.5
 31
0.0
  0
LINE
  5
218
100
AcDbEntity
  8
LAY-1
  6
CONTINUOUS
 62
     1
100
AcDbLine
 10
181.05562
 20
468.946582
 30
0.0
 11
181.05562
 21
472.5
 31
0.0
  0
ARC
  5
219
100
AcDbEntity
  8
LAY-1
  6
CONTINUOUS
 62
     1
100
AcDbCircle
 10
182.498995
 20
471.055823
 30
0.0
 40
2.555823
100
AcDbArc
 50
235.615753
 51
304.384247
  0
ARC
  5
21A
100
AcDbEntity
  8
LAY-1
  6
CONTINUOUS
 62
     1
100
AcDbCircle
 10
178.168868
 20
478.053418
 30
0.0
 40
9.553418
100
AcDbArc
 50
252.412046
 51
287.587954
  0
ARC
  5
21B
100
AcDbEntity
  8
LAY-1
  6
CONTINUOUS
 62
     1
100
AcDbCircle
 10
173.838741
 20
471.055823
 30
0.0
 40
2.555823
100
AcDbArc
 50
235.615753
 51
304.384247
  0
LINE
  5
21C
100
AcDbEntity
  8
LAY-1
  6
CONTINUOUS
 62
     1
100
AcDbLine
 10
172.395366
 20
468.946582
 30
0.0
 11
172.395366
 21
472.5
 31
0.0
  0
LINE
  5
21D
100
AcDbEntity
  8
LAY-1
  6
CONTINUOUS
 62
     1
100
AcDbLine
 10
173.168868
 20
468.5
 30
0.0
 11
172.395366
 21
468.946582
 31
0.0
  0
LINE
  5
21E
100
AcDbEntity
  8
LAY-1
  6
CONTINUOUS
 62
     1
100
AcDbLine
 10
183.168868
 20
468.5
 30
0.0
 11
173.168868
 21
468.5
 31
0.0
  0
LINE
  5
21F
100
AcDbEntity
  8
LAY-1
  6
CONTINUOUS
 62
     1
100
AcDbLine
 10
183.942371
 20
468.946582
 30
0.0
 11
183.168868
 21
468.5
 31
0.0
  0
LINE
  5
220
100
AcDbEntity
  8
LAY-1
  6
CONTINUOUS
 62
     1
100
AcDbLine
 10
183.942371
 20
472.5
 30
0.0
 11
183.942371
 21
468.946582
 31
0.0
  0
LINE
  5
221
100
AcDbEntity
  8
LAY-1
  6
CONTINUOUS
 62
     1
100
AcDbLine
 10
138.75138
 20
468.946582
 30
0.0
 11
138.75138
 21
472.5
 31
0.0
  0
LINE
  5
222
100
AcDbEntity
  8
LAY-1
  6
CONTINUOUS
 62
     1
100
AcDbLine
 10
144.524883
 20
468.946582
 30
0.0
 11
144.524883
 21
472.5
 31
0.0
  0
ARC
  5
223
100
AcDbEntity
  8
LAY-1
  6
CONTINUOUS
 62
     1
100
AcDbCircle
 10
145.968259
 20
471.055823
 30
0.0
 40
2.555823
100
AcDbArc
 50
235.615753
 51
304.384247
  0
ARC
  5
224
100
AcDbEntity
  8
LAY-1
  6
CONTINUOUS
 62
     1
100
AcDbCircle
 10
141.638132
 20
478.053418
 30
0.0
 40
9.553418
100
AcDbArc
 50
252.412046
 51
287.587954
  0
ARC
  5
225
100
AcDbEntity
  8
LAY-1
  6
CONTINUOUS
 62
     1
100
AcDbCircle
 10
137.308005
 20
471.055823
 30
0.0
 40
2.555823
100
AcDbArc
 50
235.615753
 51
304.384247
  0
LINE
  5
226
100
AcDbEntity
  8
LAY-1
  6
CONTINUOUS
 62
     1
100
AcDbLine
 10
135.864629
 20
468.946582
 30
0.0
 11
135.864629
 21
472.5
 31
0.0
  0
LINE
  5
227
100
AcDbEntity
  8
LAY-1
  6
CONTINUOUS
 62
     1
100
AcDbLine
 10
136.638132
 20
468.5
 30
0.0
 11
135.864629
 21
468.946582
 31
0.0
  0
LINE
  5
228
100
AcDbEntity
  8
LAY-1
  6
CONTINUOUS
 62
     1
100
AcDbLine
 10
146.638132
 20
468.5
 30
0.0
 11
136.638132
 21
468.5
 31
0.0
  0
LINE
  5
229
100
AcDbEntity
  8
LAY-1
  6
CONTINUOUS
 62
     1
100
AcDbLine
 10
147.411634
 20
468.946582
 30
0.0
 11
146.638132
 21
468.5
 31
0.0
  0
LINE
  5
22A
100
AcDbEntity
  8
LAY-1
  6
CONTINUOUS
 62
     1
100
AcDbLine
 10
147.411634
 20
472.5
 30
0.0
 11
147.411634
 21
468.946582
 31
0.0
  0
LINE
  5
22B
100
AcDbEntity
  8
LAY-1
  6
CONTINUOUS
 62
     1
100
AcDbLine
 10
224.107022
 20
254.608275
 30
0.0
 11
226.316446
 21
259.942296
 31
0.0
  0
LINE
  5
22C
100
AcDbEntity
  8
LAY-1
  6
CONTINUOUS
 62
     1
100
AcDbLine
 10
226.316446
 20
259.942296
 30
0.0
 11
232.040556
 21
260.695889
 31
0.0
  0
LINE
  5
22D
100
AcDbEntity
  8
LAY-1
  6
CONTINUOUS
 62
     1
100
AcDbLine
 10
232.040556
 20
260.695889
 30
0.0
 11
235.555241
 21
256.115462
 31
0.0
  0
LINE
  5
22E
100
AcDbEntity
  8
LAY-1
  6
CONTINUOUS
 62
     1
100
AcDbLine
 10
235.555241
 20
256.115462
 30
0.0
 11
233.345817
 21
250.781441
 31
0.0
  0
LINE
  5
22F
100
AcDbEntity
  8
LAY-1
  6
CONTINUOUS
 62
     1
100
AcDbLine
 10
233.345817
 20
250.781441
 30
0.0
 11
227.621708
 21
250.027847
 31
0.0
  0
LINE
  5
230
100
AcDbEntity
  8
LAY-1
  6
CONTINUOUS
 62
     1
100
AcDbLine
 10
227.621708
 20
250.027847
 30
0.0
 11
224.107022
 21
254.608275
 31
0.0
  0
CIRCLE
  5
231
100
AcDbEntity
  8
LAY-1
  6
CONTINUOUS
 62
     1
100
AcDbCircle
 10
229.831132
 20
255.361868
 30
0.0
 40
5.0
  0
LINE
  5
232
100
AcDbEntity
  8
LAY-1
  6
CONTINUOUS
 62
     1
100
AcDbLine
 10
261.781441
 20
222.345817
 30
0.0
 11
267.115462
 21
224.555241
 31
0.0
  0
LINE
  5
233
100
AcDbEntity
  8
LAY-1
  6
CONTINUOUS
 62
     1
100
AcDbLine
 10
267.115462
 20
224.555241
 30
0.0
 11
271.695889
 21
221.040556
 31
0.0
  0
LINE
  5
234
100
AcDbEntity
  8
LAY-1
  6
CONTINUOUS
 62
     1
100
AcDbLine
 10
271.695889
 20
221.040556
 30
0.0
 11
270.942296
 21
215.316446
 31
0.0
  0
LINE
  5
235
100
AcDbEntity
  8
LAY-1
  6
CONTINUOUS
 62
     1
100
AcDbLine
 10
270.942296
 20
215.316446
 30
0.0
 11
265.608275
 21
213.107022
 31
0.0
  0
LINE
  5
236
100
AcDbEntity
  8
LAY-1
  6
CONTINUOUS
 62
     1
100
AcDbLine
 10
265.608275
 20
213.107022
 30
0.0
 11
261.027847
 21
216.621708
 31
0.0
  0
LINE
  5
237
100
AcDbEntity
  8
LAY-1
  6
CONTINUOUS
 62
     1
100
AcDbLine
 10
261.027847
 20
216.621708
 30
0.0
 11
261.781441
 21
222.345817
 31
0.0
  0
CIRCLE
  5
238
100
AcDbEntity
  8
LAY-1
  6
CONTINUOUS
 62
     1
100
AcDbCircle
 10
266.361868
 20
218.831132
 30
0.0
 40
5.0
  0
CIRCLE
  5
239
100
AcDbEntity
  8
LAY-1
  6
CONTINUOUS
 62
     1
100
AcDbCircle
 10
266.361868
 20
167.168868
 30
0.0
 40
5.0
  0
LINE
  5
23A
100
AcDbEntity
  8
LAY-1
  6
CONTINUOUS
 62
     1
100
AcDbLine
 10
261.027847
 20
169.378292
 30
0.0
 11
261.781441
 21
163.654183
 31
0.0
  0
LINE
  5
23B
100
AcDbEntity
  8
LAY-1
  6
CONTINUOUS
 62
     1
100
AcDbLine
 10
265.608275
 20
172.892978
 30
0.0
 11
261.027847
 21
169.378292
 31
0.0
  0
LINE
  5
23C
100
AcDbEntity
  8
LAY-1
  6
CONTINUOUS
 62
     1
100
AcDbLine
 10
270.942296
 20
170.683554
 30
0.0
 11
265.608275
 21
172.892978
 31
0.0
  0
LINE
  5
23D
100
AcDbEntity
  8
LAY-1
  6
CONTINUOUS
 62
     1
100
AcDbLine
 10
271.695889
 20
164.959444
 30
0.0
 11
270.942296
 21
170.683554
 31
0.0
  0
LINE
  5
23E
100
AcDbEntity
  8
LAY-1
  6
CONTINUOUS
 62
     1
100
AcDbLine
 10
267.115462
 20
161.444759
 30
0.0
 11
271.695889
 21
164.959444
 31
0.0
  0
LINE
  5
23F
100
AcDbEntity
  8
LAY-1
  6
CONTINUOUS
 62
     1
100
AcDbLine
 10
261.781441
 20
163.654183
 30
0.0
 11
267.115462
 21
161.444759
 31
0.0
  0
CIRCLE
  5
240
100
AcDbEntity
  8
LAY-1
  6
CONTINUOUS
 62
     1
100
AcDbCircle
 10
229.831132
 20
130.638132
 30
0.0
 40
5.0
  0
LINE
  5
241
100
AcDbEntity
  8
LAY-1
  6
CONTINUOUS
 62
     1
100
AcDbLine
 10
227.621708
 20
135.972153
 30
0.0
 11
224.107022
 21
131.391725
 31
0.0
  0
LINE
  5
242
100
AcDbEntity
  8
LAY-1
  6
CONTINUOUS
 62
     1
100
AcDbLine
 10
233.345817
 20
135.218559
 30
0.0
 11
227.621708
 21
135.972153
 31
0.0
  0
LINE
  5
243
100
AcDbEntity
  8
LAY-1
  6
CONTINUOUS
 62
     1
100
AcDbLine
 10
235.555241
 20
129.884538
 30
0.0
 11
233.345817
 21
135.218559
 31
0.0
  0
LINE
  5
244
100
AcDbEntity
  8
LAY-1
  6
CONTINUOUS
 62
     1
100
AcDbLine
 10
232.040556
 20
125.304111
 30
0.0
 11
235.555241
 21
129.884538
 31
0.0
  0
LINE
  5
245
100
AcDbEntity
  8
LAY-1
  6
CONTINUOUS
 62
     1
100
AcDbLine
 10
226.316446
 20
126.057704
 30
0.0
 11
232.040556
 21
125.304111
 31
0.0
  0
LINE
  5
246
100
AcDbEntity
  8
LAY-1
  6
CONTINUOUS
 62
     1
100
AcDbLine
 10
224.107022
 20
131.391725
 30
0.0
 11
226.316446
 21
126.057704
 31
0.0
  0
LINE
  5
247
100
AcDbEntity
  8
LAY-1
  6
CONTINUOUS
 62
     1
100
AcDbLine
 10
183.892978
 20
131.391725
 30
0.0
 11
181.683554
 21
126.057704
 31
0.0
  0
LINE
  5
248
100
AcDbEntity
  8
LAY-1
  6
CONTINUOUS
 62
     1
100
AcDbLine
 10
181.683554
 20
126.057704
 30
0.0
 11
175.959444
 21
125.304111
 31
0.0
  0
LINE
  5
249
100
AcDbEntity
  8
LAY-1
  6
CONTINUOUS
 62
     1
100
AcDbLine
 10
175.959444
 20
125.304111
 30
0.0
 11
172.444759
 21
129.884538
 31
0.0
  0
LINE
  5
24A
100
AcDbEntity
  8
LAY-1
  6
CONTINUOUS
 62
     1
100
AcDbLine
 10
172.444759
 20
129.884538
 30
0.0
 11
174.654183
 21
135.218559
 31
0.0
  0
LINE
  5
24B
100
AcDbEntity
  8
LAY-1
  6
CONTINUOUS
 62
     1
100
AcDbLine
 10
174.654183
 20
135.218559
 30
0.0
 11
180.378292
 21
135.972153
 31
0.0
  0
LINE
  5
24C
100
AcDbEntity
  8
LAY-1
  6
CONTINUOUS
 62
     1
100
AcDbLine
 10
180.378292
 20
135.972153
 30
0.0
 11
183.892978
 21
131.391725
 31
0.0
  0
CIRCLE
  5
24D
100
AcDbEntity
  8
LAY-1
  6
CONTINUOUS
 62
     1
100
AcDbCircle
 10
178.168868
 20
130.638132
 30
0.0
 40
5.0
  0
LINE
  5
24E
100
AcDbEntity
  8
LAY-1
  6
CONTINUOUS
 62
     1
100
AcDbLine
 10
146.218559
 20
163.654183
 30
0.0
 11
140.884538
 21
161.444759
 31
0.0
  0
LINE
  5
24F
100
AcDbEntity
  8
LAY-1
  6
CONTINUOUS
 62
     1
100
AcDbLine
 10
140.884538
 20
161.444759
 30
0.0
 11
136.304111
 21
164.959444
 31
0.0
  0
LINE
  5
250
100
AcDbEntity
  8
LAY-1
  6
CONTINUOUS
 62
     1
100
AcDbLine
 10
136.304111
 20
164.959444
 30
0.0
 11
137.057704
 21
170.683554
 31
0.0
  0
LINE
  5
251
100
AcDbEntity
  8
LAY-1
  6
CONTINUOUS
 62
     1
100
AcDbLine
 10
137.057704
 20
170.683554
 30
0.0
 11
142.391725
 21
172.892978
 31
0.0
  0
LINE
  5
252
100
AcDbEntity
  8
LAY-1
  6
CONTINUOUS
 62
     1
100
AcDbLine
 10
142.391725
 20
172.892978
 30
0.0
 11
146.972153
 21
169.378292
 31
0.0
  0
LINE
  5
253
100
AcDbEntity
  8
LAY-1
  6
CONTINUOUS
 62
     1
100
AcDbLine
 10
146.972153
 20
169.378292
 30
0.0
 11
146.218559
 21
163.654183
 31
0.0
  0
CIRCLE
  5
254
100
AcDbEntity
  8
LAY-1
  6
CONTINUOUS
 62
     1
100
AcDbCircle
 10
141.638132
 20
167.168868
 30
0.0
 40
5.0
  0
LINE
  5
255
100
AcDbEntity
  8
LAY-1
  6
CONTINUOUS
 62
     1
100
AcDbLine
 10
146.218559
 20
222.345817
 30
0.0
 11
140.884538
 21
224.555241
 31
0.0
  0
LINE
  5
256
100
AcDbEntity
  8
LAY-1
  6
CONTINUOUS
 62
     1
100
AcDbLine
 10
140.884538
 20
224.555241
 30
0.0
 11
136.304111
 21
221.040556
 31
0.0
  0
LINE
  5
257
100
AcDbEntity
  8
LAY-1
  6
CONTINUOUS
 62
     1
100
AcDbLine
 10
136.304111
 20
221.040556
 30
0.0
 11
137.057704
 21
215.316446
 31
0.0
  0
LINE
  5
258
100
AcDbEntity
  8
LAY-1
  6
CONTINUOUS
 62
     1
100
AcDbLine
 10
137.057704
 20
215.316446
 30
0.0
 11
142.391725
 21
213.107022
 31
0.0
  0
LINE
  5
259
100
AcDbEntity
  8
LAY-1
  6
CONTINUOUS
 62
     1
100
AcDbLine
 10
142.391725
 20
213.107022
 30
0.0
 11
146.972153
 21
216.621708
 31
0.0
  0
LINE
  5
25A
100
AcDbEntity
  8
LAY-1
  6
CONTINUOUS
 62
     1
100
AcDbLine
 10
146.972153
 20
216.621708
 30
0.0
 11
146.218559
 21
222.345817
 31
0.0
  0
CIRCLE
  5
25B
100
AcDbEntity
  8
LAY-1
  6
CONTINUOUS
 62
     1
100
AcDbCircle
 10
141.638132
 20
218.831132
 30
0.0
 40
5.0
  0
LINE
  5
25C
100
AcDbEntity
  8
LAY-1
  6
CONTINUOUS
 62
     1
100
AcDbLine
 10
183.892978
 20
254.608275
 30
0.0
 11
181.683554
 21
259.942296
 31
0.0
  0
LINE
  5
25D
100
AcDbEntity
  8
LAY-1
  6
CONTINUOUS
 62
     1
100
AcDbLine
 10
181.683554
 20
259.942296
 30
0.0
 11
175.959444
 21
260.695889
 31
0.0
  0
LINE
  5
25E
100
AcDbEntity
  8
LAY-1
  6
CONTINUOUS
 62
     1
100
AcDbLine
 10
175.959444
 20
260.695889
 30
0.0
 11
172.444759
 21
256.115462
 31
0.0
  0
LINE
  5
25F
100
AcDbEntity
  8
LAY-1
  6
CONTINUOUS
 62
     1
100
AcDbLine
 10
172.444759
 20
256.115462
 30
0.0
 11
174.654183
 21
250.781441
 31
0.0
  0
LINE
  5
260
100
AcDbEntity
  8
LAY-1
  6
CONTINUOUS
 62
     1
100
AcDbLine
 10
174.654183
 20
250.781441
 30
0.0
 11
180.378292
 21
250.027847
 31
0.0
  0
LINE
  5
261
100
AcDbEntity
  8
LAY-1
  6
CONTINUOUS
 62
     1
100
AcDbLine
 10
180.378292
 20
250.027847
 30
0.0
 11
183.892978
 21
254.608275
 31
0.0
  0
CIRCLE
  5
262
100
AcDbEntity
  8
LAY-1
  6
CONTINUOUS
 62
     1
100
AcDbCircle
 10
178.168868
 20
255.361868
 30
0.0
 40
5.0
  0
LINE
  5
263
100
AcDbEntity
  8
LAY-1
  6
CONTINUOUS
 62
     1
100
AcDbLine
 10
231.886751
 20
100.5
 30
0.0
 11
231.886751
 21
96.946582
 31
0.0
  0
LINE
  5
264
100
AcDbEntity
  8
LAY-1
  6
CONTINUOUS
 62
     1
100
AcDbLine
 10
226.113249
 20
96.946582
 30
0.0
 11
226.113249
 21
100.5
 31
0.0
  0
ARC
  5
265
100
AcDbEntity
  8
LAY-1
  6
CONTINUOUS
 62
     1
100
AcDbCircle
 10
229.0
 20
106.053418
 30
0.0
 40
9.553418
100
AcDbArc
 50
252.412046
 51
287.587954
  0
LINE
  5
266
100
AcDbEntity
  8
LAY-1
  6
CONTINUOUS
 62
     1
100
AcDbLine
 10
234.0
 20
96.5
 30
0.0
 11
229.0
 21
96.5
 31
0.0
  0
LINE
  5
267
100
AcDbEntity
  8
LAY-1
  6
CONTINUOUS
 62
     1
100
AcDbLine
 10
234.0
 20
96.5
 30
0.0
 11
234.773503
 21
96.946582
 31
0.0
  0
LINE
  5
268
100
AcDbEntity
  8
LAY-1
  6
CONTINUOUS
 62
     1
100
AcDbLine
 10
234.773503
 20
96.946582
 30
0.0
 11
234.773503
 21
102.0
 31
0.0
  0
ARC
  5
269
100
AcDbEntity
  8
LAY-1
  6
CONTINUOUS
 62
     1
100
AcDbCircle
 10
233.330127
 20
99.055823
 30
0.0
 40
2.555823
100
AcDbArc
 50
235.615753
 51
304.384247
  0
LINE
  5
26A
100
AcDbEntity
  8
LAY-1
  6
CONTINUOUS
 62
     1
100
AcDbLine
 10
230.154701
 20
100.5
 30
0.0
 11
229.288675
 21
102.0
 31
0.0
  0
LINE
  5
26B
100
AcDbEntity
  8
LAY-1
  6
CONTINUOUS
 62
     1
100
AcDbLine
 10
228.133975
 20
102.0
 30
0.0
 11
229.0
 21
100.5
 31
0.0
  0
LINE
  5
26C
100
AcDbEntity
  8
LAY-1
  6
CONTINUOUS
 62
     1
100
AcDbLine
 10
223.996098
 20
100.5
 30
0.0
 11
234.773503
 21
100.5
 31
0.0
  0
LINE
  5
26D
100
AcDbEntity
  8
LAY-1
  6
CONTINUOUS
 62
     1
100
AcDbLine
 10
223.93259
 20
96.5
 30
0.0
 11
229.0
 21
96.5
 31
0.0
  0
ARC
  5
26E
100
AcDbEntity
  8
LAY-1
  6
CONTINUOUS
 62
     1
100
AcDbCircle
 10
224.669873
 20
99.055823
 30
0.0
 40
2.555823
100
AcDbArc
 50
253.233511
 51
304.384247
  0
LINE
  5
26F
100
AcDbEntity
  8
LAY-1
  6
CONTINUOUS
 62
     1
100
AcDbLine
 10
178.133975
 20
102.0
 30
0.0
 11
179.0
 21
100.5
 31
0.0
  0
LINE
  5
270
100
AcDbEntity
  8
LAY-1
  6
CONTINUOUS
 62
     1
100
AcDbLine
 10
180.154701
 20
100.5
 30
0.0
 11
179.288675
 21
102.0
 31
0.0
  0
ARC
  5
271
100
AcDbEntity
  8
LAY-1
  6
CONTINUOUS
 62
     1
100
AcDbCircle
 10
174.669873
 20
99.055823
 30
0.0
 40
2.555823
100
AcDbArc
 50
235.615753
 51
304.384247
  0
LINE
  5
272
100
AcDbEntity
  8
LAY-1
  6
CONTINUOUS
 62
     1
100
AcDbLine
 10
173.226497
 20
96.946582
 30
0.0
 11
173.226497
 21
102.0
 31
0.0
  0
LINE
  5
273
100
AcDbEntity
  8
LAY-1
  6
CONTINUOUS
 62
     1
100
AcDbLine
 10
174.0
 20
96.5
 30
0.0
 11
173.226497
 21
96.946582
 31
0.0
  0
LINE
  5
274
100
AcDbEntity
  8
LAY-1
  6
CONTINUOUS
 62
     1
100
AcDbLine
 10
174.0
 20
96.5
 30
0.0
 11
179.0
 21
96.5
 31
0.0
  0
ARC
  5
275
100
AcDbEntity
  8
LAY-1
  6
CONTINUOUS
 62
     1
100
AcDbCircle
 10
179.0
 20
106.053418
 30
0.0
 40
9.553418
100
AcDbArc
 50
252.412046
 51
287.587954
  0
LINE
  5
276
100
AcDbEntity
  8
LAY-1
  6
CONTINUOUS
 62
     1
100
AcDbLine
 10
181.886751
 20
96.946582
 30
0.0
 11
181.886751
 21
100.5
 31
0.0
  0
LINE
  5
277
100
AcDbEntity
  8
LAY-1
  6
CONTINUOUS
 62
     1
100
AcDbLine
 10
176.113249
 20
100.5
 30
0.0
 11
176.113249
 21
96.946582
 31
0.0
  0
LINE
  5
278
100
AcDbEntity
  8
LAY-1
  6
CONTINUOUS
 62
     1
100
AcDbLine
 10
183.869082
 20
100.5
 30
0.0
 11
173.226497
 21
100.5
 31
0.0
  0
ARC
  5
279
100
AcDbEntity
  8
LAY-1
  6
CONTINUOUS
 62
     1
100
AcDbCircle
 10
183.330127
 20
99.055823
 30
0.0
 40
2.555823
100
AcDbArc
 50
235.615753
 51
283.634173
  0
LINE
  5
27A
100
AcDbEntity
  8
LAY-1
  6
CONTINUOUS
 62
     1
100
AcDbLine
 10
183.93259
 20
96.5
 30
0.0
 11
179.0
 21
96.5
 31
0.0
  0
CIRCLE
  5
27B
100
AcDbEntity
  8
LAY-1
  6
CONTINUOUS
 62
     1
100
AcDbCircle
 10
229.0
 20
529.0
 30
0.0
 40
2.5
  0
CIRCLE
  5
27C
100
AcDbEntity
  8
LAY-1
  6
CONTINUOUS
 62
     1
100
AcDbCircle
 10
179.0
 20
529.0
 30
0.0
 40
2.5
  0
LINE
  5
27D
100
AcDbEntity
  8
LAY-1
  6
CONTINUOUS
 62
     1
100
AcDbLine
 10
196.494447
 20
270.0
 30
0.0
 11
196.494447
 21
274.419443
 31
0.0
  0
LINE
  5
27E
100
AcDbEntity
  8
LAY-1
  6
CONTINUOUS
 62
     1
100
AcDbLine
 10
196.494447
 20
274.419443
 30
0.0
 11
197.5
 21
275.0
 31
0.0
  0
LINE
  5
27F
100
AcDbEntity
  8
LAY-1
  6
CONTINUOUS
 62
     1
100
AcDbLine
 10
197.5
 20
275.0
 30
0.0
 11
210.5
 21
275.0
 31
0.0
  0
LINE
  5
280
100
AcDbEntity
  8
LAY-1
  6
CONTINUOUS
 62
     1
100
AcDbLine
 10
210.5
 20
275.0
 30
0.0
 11
211.505553
 21
274.419443
 31
0.0
  0
LINE
  5
281
100
AcDbEntity
  8
LAY-1
  6
CONTINUOUS
 62
     1
100
AcDbLine
 10
211.505553
 20
274.419443
 30
0.0
 11
211.505553
 21
270.0
 31
0.0
  0
LINE
  5
282
100
AcDbEntity
  8
LAY-1
  6
CONTINUOUS
 62
     1
100
AcDbLine
 10
211.505553
 20
270.0
 30
0.0
 11
196.494447
 21
270.0
 31
0.0
  0
ARC
  5
283
100
AcDbEntity
  8
LAY-1
  6
CONTINUOUS
 62
     1
100
AcDbCircle
 10
209.629165
 20
271.67743
 30
0.0
 40
3.32257
100
AcDbArc
 50
55.615753
 51
124.384247
  0
ARC
  5
284
100
AcDbEntity
  8
LAY-1
  6
CONTINUOUS
 62
     1
100
AcDbCircle
 10
204.0
 20
262.580557
 30
0.0
 40
12.419443
100
AcDbArc
 50
72.412046
 51
107.587954
  0
ARC
  5
285
100
AcDbEntity
  8
LAY-1
  6
CONTINUOUS
 62
     1
100
AcDbCircle
 10
198.370835
 20
271.67743
 30
0.0
 40
3.32257
100
AcDbArc
 50
55.615753
 51
124.384247
  0
LINE
  5
286
100
AcDbEntity
  8
LAY-1
  6
CONTINUOUS
 62
     1
100
AcDbLine
 10
200.247223
 20
274.419443
 30
0.0
 11
200.247223
 21
270.0
 31
0.0
  0
LINE
  5
287
100
AcDbEntity
  8
LAY-1
  6
CONTINUOUS
 62
     1
100
AcDbLine
 10
207.752777
 20
270.0
 30
0.0
 11
207.752777
 21
274.419443
 31
0.0
  0
LINE
  5
288
100
AcDbEntity
  8
LAY-1
  6
CONTINUOUS
 62
     2
100
AcDbLine
 10
214.5433
 20
-190.151379
 30
0.0
 11
230.703689
 21
-183.45681
 31
0.0
  0
ARC
  5
289
100
AcDbEntity
  8
LAY-1
  6
CONTINUOUS
 62
     2
100
AcDbCircle
 10
215.0
 20
-191.041
 30
0.0
 40
1.0
100
AcDbArc
 50
107.829946
 51
180.0
  0
LINE
  5
28A
100
AcDbEntity
  8
LAY-1
  6
CONTINUOUS
 62
     2
100
AcDbLine
 10
193.4567
 20
-190.151379
 30
0.0
 11
177.296311
 21
-183.45681
 31
0.0
  0
ARC
  5
28B
100
AcDbEntity
  8
LAY-1
  6
CONTINUOUS
 62
     2
100
AcDbCircle
 10
193.0
 20
-191.041
 30
0.0
 40
1.0
100
AcDbArc
 50
0.0
 51
72.170054
  0
LINE
  5
28C
100
AcDbEntity
  8
LAY-1
  6
CONTINUOUS
 62
     2
100
AcDbLine
 10
194.0
 20
-191.041
 30
0.0
 11
194.0
 21
-193.0
 31
0.0
  0
LINE
  5
28D
100
AcDbEntity
  8
LAY-1
  6
CONTINUOUS
 62
     2
100
AcDbLine
 10
214.0
 20
-193.0
 30
0.0
 11
214.0
 21
-190.912878
 31
0.0
  0
LINE
  5
28E
100
AcDbEntity
  8
LAY-1
  6
CONTINUOUS
 62
     2
100
AcDbLine
 10
194.0
 20
-193.0
 30
0.0
 11
214.0
 21
-193.0
 31
0.0
  0
LINE
  5
28F
100
AcDbEntity
  8
LAY-1
  6
CONTINUOUS
 62
     2
100
AcDbLine
 10
176.401924
 20
-136.5
 30
0.0
 11
130.5
 21
-136.5
 31
0.0
  0
LINE
  5
290
100
AcDbEntity
  8
LAY-1
  6
CONTINUOUS
 62
     2
100
AcDbLine
 10
226.94438
 20
-136.5
 30
0.0
 11
181.05562
 21
-136.5
 31
0.0
  0
LINE
  5
291
100
AcDbEntity
  8
LAY-1
  6
CONTINUOUS
 62
     2
100
AcDbLine
 10
277.5
 20
-136.5
 30
0.0
 11
231.598076
 21
-136.5
 31
0.0
  0
LINE
  5
292
100
AcDbEntity
  8
LAY-1
  6
CONTINUOUS
 62
     2
100
AcDbLine
 10
130.0
 20
-142.5
 30
0.0
 11
172.01788
 21
-142.5
 31
0.0
  0
LINE
  5
293
100
AcDbEntity
  8
LAY-1
  6
CONTINUOUS
 62
     2
100
AcDbLine
 10
130.0
 20
-143.0
 30
0.0
 11
172.0
 21
-143.0
 31
0.0
  0
LINE
  5
294
100
AcDbEntity
  8
LAY-1
  6
CONTINUOUS
 62
     2
100
AcDbLine
 10
235.98212
 20
-142.5
 30
0.0
 11
278.0
 21
-142.5
 31
0.0
  0
LINE
  5
295
100
AcDbEntity
  8
LAY-1
  6
CONTINUOUS
 62
     2
100
AcDbLine
 10
236.0
 20
-143.0
 30
0.0
 11
278.0
 21
-143.0
 31
0.0
  0
LINE
  5
296
100
AcDbEntity
  8
LAY-1
  6
CONTINUOUS
 62
     2
100
AcDbLine
 10
175.282117
 20
-153.0
 30
0.0
 11
175.282117
 21
-152.993364
 31
0.0
  0
ARC
  5
297
100
AcDbEntity
  8
LAY-1
  6
CONTINUOUS
 62
     2
100
AcDbCircle
 10
155.422749
 20
-156.157251
 30
0.0
 40
20.0
100
AcDbArc
 50
9.082852
 51
29.163639
  0
ARC
  5
298
100
AcDbEntity
  8
LAY-1
  6
CONTINUOUS
 62
     2
100
AcDbCircle
 10
155.422749
 20
-179.842749
 30
0.0
 40
20.0
100
AcDbArc
 50
330.836361
 51
350.917148
  0
ARC
  5
299
100
AcDbEntity
  8
LAY-1
  6
CONTINUOUS
 62
     2
100
AcDbCircle
 10
252.577251
 20
-179.842749
 30
0.0
 40
20.0
100
AcDbArc
 50
189.082852
 51
209.163639
  0
ARC
  5
29A
100
AcDbEntity
  8
LAY-1
  6
CONTINUOUS
 62
     2
100
AcDbCircle
 10
252.577251
 20
-156.157251
 30
0.0
 40
20.0
100
AcDbArc
 50
150.836361
 51
170.917148
  0
LINE
  5
29B
100
AcDbEntity
  8
LAY-1
  6
CONTINUOUS
 62
     2
100
AcDbLine
 10
232.717883
 20
-153.0
 30
0.0
 11
232.717883
 21
-152.993364
 31
0.0
  0
LINE
  5
29C
100
AcDbEntity
  8
LAY-1
  6
CONTINUOUS
 62
     2
100
AcDbLine
 10
251.355929
 20
-159.148496
 30
0.0
 11
249.0
 21
-159.354613
 31
0.0
  0
LINE
  5
29D
100
AcDbEntity
  8
LAY-1
  6
CONTINUOUS
 62
     2
100
AcDbLine
 10
156.644071
 20
-159.148496
 30
0.0
 11
159.0
 21
-159.354613
 31
0.0
  0
LINE
  5
29E
100
AcDbEntity
  8
LAY-1
  6
CONTINUOUS
 62
     2
100
AcDbLine
 10
159.0
 20
-183.0
 30
0.0
 11
159.0
 21
-153.0
 31
0.0
  0
LINE
  5
29F
100
AcDbEntity
  8
LAY-1
  6
CONTINUOUS
 62
     2
100
AcDbLine
 10
249.0
 20
-183.0
 30
0.0
 11
249.0
 21
-153.0
 31
0.0
  0
ARC
  5
2A0
100
AcDbEntity
  8
LAY-1
  6
CONTINUOUS
 62
     2
100
AcDbCircle
 10
179.0
 20
-143.0
 30
0.0
 40
7.0
100
AcDbArc
 50
60.836361
 51
209.163639
  0
ARC
  5
2A1
100
AcDbEntity
  8
LAY-1
  6
CONTINUOUS
 62
     2
100
AcDbCircle
 10
192.157251
 20
-119.422749
 30
0.0
 40
20.0
100
AcDbArc
 50
240.836361
 51
283.700993
  0
ARC
  5
2A2
100
AcDbEntity
  8
LAY-1
  6
CONTINUOUS
 62
     2
100
AcDbCircle
 10
204.0
 20
-168.0
 30
0.0
 40
30.0
100
AcDbArc
 50
76.004938
 51
103.700993
  0
ARC
  5
2A3
100
AcDbEntity
  8
LAY-1
  6
CONTINUOUS
 62
     2
100
AcDbCircle
 10
215.842749
 20
-119.422749
 30
0.0
 40
20.0
100
AcDbArc
 50
256.299007
 51
299.163639
  0
ARC
  5
2A4
100
AcDbEntity
  8
LAY-1
  6
CONTINUOUS
 62
     2
100
AcDbCircle
 10
229.0
 20
-143.0
 30
0.0
 40
7.0
100
AcDbArc
 50
330.836361
 51
119.163639
  0
ARC
  5
2A5
100
AcDbEntity
  8
LAY-1
  6
CONTINUOUS
 62
     2
100
AcDbCircle
 10
204.0
 20
-168.0
 30
0.0
 40
24.5
100
AcDbArc
 50
67.49783
 51
112.50217
  0
LINE
  5
2A6
100
AcDbEntity
  8
LAY-1
  6
CONTINUOUS
 62
     2
100
AcDbLine
 10
194.623399
 20
-145.365307
 30
0.0
 11
177.296311
 21
-152.54319
 31
0.0
  0
ARC
  5
2A7
100
AcDbEntity
  8
LAY-1
  6
CONTINUOUS
 62
     2
100
AcDbCircle
 10
175.0
 20
-147.0
 30
0.0
 40
6.0
100
AcDbArc
 50
270.0
 51
292.50217
  0
LINE
  5
2A8
100
AcDbEntity
  8
LAY-1
  6
CONTINUOUS
 62
     2
100
AcDbLine
 10
175.296948
 20
-153.0
 30
0.0
 11
159.0
 21
-153.0
 31
0.0
  0
LINE
  5
2A9
100
AcDbEntity
  8
LAY-1
  6
CONTINUOUS
 62
     2
100
AcDbLine
 10
159.866025
 20
-151.5
 30
0.0
 11
159.0
 21
-153.0
 31
0.0
  0
LINE
  5
2AA
100
AcDbEntity
  8
LAY-1
  6
CONTINUOUS
 62
     2
100
AcDbLine
 10
169.0
 20
-151.5
 30
0.0
 11
159.866025
 21
-151.5
 31
0.0
  0
LINE
  5
2AB
100
AcDbEntity
  8
LAY-1
  6
CONTINUOUS
 62
     2
100
AcDbLine
 10
171.598076
 20
-153.0
 30
0.0
 11
169.0
 21
-151.5
 31
0.0
  0
ARC
  5
2AC
100
AcDbEntity
  8
LAY-1
  6
CONTINUOUS
 62
     2
100
AcDbCircle
 10
233.0
 20
-147.0
 30
0.0
 40
6.0
100
AcDbArc
 50
247.49783
 51
270.0
  0
LINE
  5
2AD
100
AcDbEntity
  8
LAY-1
  6
CONTINUOUS
 62
     2
100
AcDbLine
 10
232.568232
 20
-153.0
 30
0.0
 11
249.0
 21
-153.0
 31
0.0
  0
LINE
  5
2AE
100
AcDbEntity
  8
LAY-1
  6
CONTINUOUS
 62
     2
100
AcDbLine
 10
236.401924
 20
-153.0
 30
0.0
 11
239.0
 21
-151.5
 31
0.0
  0
LINE
  5
2AF
100
AcDbEntity
  8
LAY-1
  6
CONTINUOUS
 62
     2
100
AcDbLine
 10
239.0
 20
-151.5
 30
0.0
 11
248.133975
 21
-151.5
 31
0.0
  0
LINE
  5
2B0
100
AcDbEntity
  8
LAY-1
  6
CONTINUOUS
 62
     2
100
AcDbLine
 10
248.133975
 20
-151.5
 30
0.0
 11
249.0
 21
-153.0
 31
0.0
  0
LINE
  5
2B1
100
AcDbEntity
  8
LAY-1
  6
CONTINUOUS
 62
     2
100
AcDbLine
 10
213.376601
 20
-145.365307
 30
0.0
 11
230.703689
 21
-152.54319
 31
0.0
  0
ARC
  5
2B2
100
AcDbEntity
  8
LAY-1
  6
CONTINUOUS
 62
     2
100
AcDbCircle
 10
175.0
 20
-189.0
 30
0.0
 40
6.0
100
AcDbArc
 50
67.49783
 51
90.0
  0
ARC
  5
2B3
100
AcDbEntity
  8
LAY-1
  6
CONTINUOUS
 62
     2
100
AcDbCircle
 10
233.0
 20
-189.0
 30
0.0
 40
6.0
100
AcDbArc
 50
90.0
 51
112.50217
  0
ARC
  5
2B4
100
AcDbEntity
  8
LAY-1
  6
CONTINUOUS
 62
     2
100
AcDbCircle
 10
212.585682
 20
-178.0
 30
0.0
 40
10.0
100
AcDbArc
 50
296.21902
 51
325.077658
  0
CIRCLE
  5
2B5
100
AcDbEntity
  8
LAY-1
  6
CONTINUOUS
 62
     2
100
AcDbCircle
 10
204.0
 20
-168.0
 30
0.0
 40
23.0
  0
LINE
  5
2B6
100
AcDbEntity
  8
LAY-1
  6
CONTINUOUS
 62
     2
100
AcDbLine
 10
217.00679
 20
-122.554319
 30
0.0
 11
242.217727
 21
-122.554319
 31
0.0
  0
LINE
  5
2B7
100
AcDbEntity
  8
LAY-1
  6
CONTINUOUS
 62
     2
100
AcDbLine
 10
175.296948
 20
-183.0
 30
0.0
 11
159.0
 21
-183.0
 31
0.0
  0
LINE
  5
2B8
100
AcDbEntity
  8
LAY-1
  6
CONTINUOUS
 62
     2
100
AcDbLine
 10
232.568232
 20
-183.0
 30
0.0
 11
249.0
 21
-183.0
 31
0.0
  0
ELLIPSE
  5
2B9
100
AcDbEntity
  8
LAY-1
  6
CONTINUOUS
 62
     2
100
AcDbEllipse
 10
171.598076
 20
-168.392575
 30
0.0
 11
-2.5980762113533462
 21
-0.000000000000002
 31
0.0
210
0.0
220
0.0
230
1.0
 40
0.57735
 41
4.7123889803846906
 42
1.5707963267948997
  0
ELLIPSE
  5
2BA
100
AcDbEntity
  8
LAY-1
  6
CONTINUOUS
 62
     2
100
AcDbEllipse
 10
159.0
 20
-168.392575
 30
0.0
 11
0.0000000000000011
 21
-1.5000000000000302
 31
0.0
210
0.0
220
0.0
230
1.0
 40
0.57735
 41
0.000000000000001
 42
3.1415926535897962
  0
LINE
  5
2BB
100
AcDbEntity
  8
LAY-1
  6
CONTINUOUS
 62
     2
100
AcDbLine
 10
171.598076
 20
-166.892575
 30
0.0
 11
171.598076
 21
-169.892575
 31
0.0
  0
LINE
  5
2BC
100
AcDbEntity
  8
LAY-1
  6
CONTINUOUS
 62
     2
100
AcDbLine
 10
159.0
 20
-169.892575
 30
0.0
 11
171.598076
 21
-169.892575
 31
0.0
  0
LINE
  5
2BD
100
AcDbEntity
  8
LAY-1
  6
CONTINUOUS
 62
     2
100
AcDbLine
 10
159.0
 20
-166.892575
 30
0.0
 11
171.598076
 21
-166.892575
 31
0.0
  0
LINE
  5
2BE
100
AcDbEntity
  8
LAY-1
  6
CONTINUOUS
 62
     2
100
AcDbLine
 10
159.866025
 20
-184.5
 30
0.0
 11
159.0
 21
-183.0
 31
0.0
  0
LINE
  5
2BF
100
AcDbEntity
  8
LAY-1
  6
CONTINUOUS
 62
     2
100
AcDbLine
 10
169.0
 20
-184.5
 30
0.0
 11
159.866025
 21
-184.5
 31
0.0
  0
LINE
  5
2C0
100
AcDbEntity
  8
LAY-1
  6
CONTINUOUS
 62
     2
100
AcDbLine
 10
171.598076
 20
-183.0
 30
0.0
 11
169.0
 21
-184.5
 31
0.0
  0
ELLIPSE
  5
2C1
100
AcDbEntity
  8
LAY-1
  6
CONTINUOUS
 62
     2
100
AcDbEllipse
 10
249.0
 20
-168.392575
 30
0.0
 11
-0.0000000000000009
 21
1.5000000000000302
 31
0.0
210
0.0
220
0.0
230
1.0
 40
0.57735
 41
0.000000000000001
 42
3.1415926535897962
  0
LINE
  5
2C2
100
AcDbEntity
  8
LAY-1
  6
CONTINUOUS
 62
     2
100
AcDbLine
 10
249.0
 20
-169.892575
 30
0.0
 11
236.401924
 21
-169.892575
 31
0.0
  0
LINE
  5
2C3
100
AcDbEntity
  8
LAY-1
  6
CONTINUOUS
 62
     2
100
AcDbLine
 10
249.0
 20
-166.892575
 30
0.0
 11
236.401924
 21
-166.892575
 31
0.0
  0
ELLIPSE
  5
2C4
100
AcDbEntity
  8
LAY-1
  6
CONTINUOUS
 62
     2
100
AcDbEllipse
 10
236.401924
 20
-168.392575
 30
0.0
 11
2.5980762113533462
 21
0.0000000000000017
 31
0.0
210
0.0
220
0.0
230
1.0
 40
0.57735
 41
4.7123889803846906
 42
1.5707963267948997
  0
LINE
  5
2C5
100
AcDbEntity
  8
LAY-1
  6
CONTINUOUS
 62
     2
100
AcDbLine
 10
236.401924
 20
-169.892575
 30
0.0
 11
236.401924
 21
-166.892575
 31
0.0
  0
LINE
  5
2C6
100
AcDbEntity
  8
LAY-1
  6
CONTINUOUS
 62
     2
100
AcDbLine
 10
236.401924
 20
-183.0
 30
0.0
 11
239.0
 21
-184.5
 31
0.0
  0
LINE
  5
2C7
100
AcDbEntity
  8
LAY-1
  6
CONTINUOUS
 62
     2
100
AcDbLine
 10
239.0
 20
-184.5
 30
0.0
 11
248.133975
 21
-184.5
 31
0.0
  0
LINE
  5
2C8
100
AcDbEntity
  8
LAY-1
  6
CONTINUOUS
 62
     2
100
AcDbLine
 10
248.133975
 20
-184.5
 30
0.0
 11
249.0
 21
-183.0
 31
0.0
  0
ARC
  5
2C9
100
AcDbEntity
  8
LAY-1
  6
CONTINUOUS
 62
     2
100
AcDbCircle
 10
179.0
 20
-193.0
 30
0.0
 40
7.0
100
AcDbArc
 50
150.836361
 51
299.163639
  0
ARC
  5
2CA
100
AcDbEntity
  8
LAY-1
  6
CONTINUOUS
 62
     2
100
AcDbCircle
 10
192.157251
 20
-216.577251
 30
0.0
 40
20.0
100
AcDbArc
 50
76.299007
 51
119.163639
  0
ARC
  5
2CB
100
AcDbEntity
  8
LAY-1
  6
CONTINUOUS
 62
     2
100
AcDbCircle
 10
204.0
 20
-168.0
 30
0.0
 40
30.0
100
AcDbArc
 50
256.299007
 51
283.995062
  0
ARC
  5
2CC
100
AcDbEntity
  8
LAY-1
  6
CONTINUOUS
 62
     2
100
AcDbCircle
 10
215.842749
 20
-216.577251
 30
0.0
 40
20.0
100
AcDbArc
 50
60.836361
 51
103.700993
  0
ARC
  5
2CD
100
AcDbEntity
  8
LAY-1
  6
CONTINUOUS
 62
     2
100
AcDbCircle
 10
229.0
 20
-193.0
 30
0.0
 40
7.0
100
AcDbArc
 50
240.836361
 51
29.163639
  0
LINE
  5
2CE
100
AcDbEntity
  8
LAY-1
  6
CONTINUOUS
 62
     2
100
AcDbLine
 10
179.75
 20
-112.5
 30
0.0
 11
228.25
 21
-112.5
 31
0.0
  0
ARC
  5
2CF
100
AcDbEntity
  8
LAY-1
  6
CONTINUOUS
 62
     2
100
AcDbCircle
 10
144.045009
 20
-153.0
 30
0.0
 40
4.0
100
AcDbArc
 50
15.806498
 51
32.684554
  0
ARC
  5
2D0
100
AcDbEntity
  8
LAY-1
  6
CONTINUOUS
 62
     2
100
AcDbCircle
 10
248.505614
 20
-137.19953
 30
0.0
 40
14.0
100
AcDbArc
 50
19.613935
 51
84.660763
  0
ARC
  5
2D1
100
AcDbEntity
  8
LAY-1
  6
CONTINUOUS
 62
     2
100
AcDbCircle
 10
159.494386
 20
-137.19953
 30
0.0
 40
14.0
100
AcDbArc
 50
95.339237
 51
160.386065
  0
ARC
  5
2D2
100
AcDbEntity
  8
LAY-1
  6
CONTINUOUS
 62
     2
100
AcDbCircle
 10
157.515628
 20
-149.186549
 30
0.0
 40
10.0
100
AcDbArc
 50
195.806498
 51
265.0
  0
ARC
  5
2D3
100
AcDbEntity
  8
LAY-1
  6
CONTINUOUS
 62
     2
100
AcDbCircle
 10
250.484372
 20
-149.186549
 30
0.0
 40
10.0
100
AcDbArc
 50
275.0
 51
344.193502
  0
LINE
  5
2D4
100
AcDbEntity
  8
LAY-1
  6
CONTINUOUS
 62
     2
100
AcDbLine
 10
278.0
 20
-143.0
 30
0.0
 11
278.0
 21
-149.017303
 31
0.0
  0
LINE
  5
2D5
100
AcDbEntity
  8
LAY-1
  6
CONTINUOUS
 62
     2
100
AcDbLine
 10
278.0
 20
-136.633975
 30
0.0
 11
278.0
 21
-142.5
 31
0.0
  0
LINE
  5
2D6
100
AcDbEntity
  8
LAY-1
  6
CONTINUOUS
 62
     2
100
AcDbLine
 10
176.0
 20
-115.223093
 30
0.0
 11
176.0
 21
-62.5
 31
0.0
  0
LINE
  5
2D7
100
AcDbEntity
  8
LAY-1
  6
CONTINUOUS
 62
     2
100
AcDbLine
 10
158.201199
 20
-123.262831
 30
0.0
 11
169.651367
 21
-122.192722
 31
0.0
  0
ARC
  5
2D8
100
AcDbEntity
  8
LAY-1
  6
CONTINUOUS
 62
     2
100
AcDbCircle
 10
169.0
 20
-115.223093
 30
0.0
 40
7.0
100
AcDbArc
 50
275.339237
 51
0.0
  0
LINE
  5
2D9
100
AcDbEntity
  8
LAY-1
  6
CONTINUOUS
 62
     2
100
AcDbLine
 10
249.798801
 20
-123.262831
 30
0.0
 11
238.348633
 21
-122.192722
 31
0.0
  0
LINE
  5
2DA
100
AcDbEntity
  8
LAY-1
  6
CONTINUOUS
 62
     2
100
AcDbLine
 10
176.5
 20
-57.5
 30
0.0
 11
231.5
 21
-57.5
 31
0.0
  0
LINE
  5
2DB
100
AcDbEntity
  8
LAY-1
  6
CONTINUOUS
 62
     2
100
AcDbLine
 10
176.5
 20
-62.5
 30
0.0
 11
176.5
 21
-57.5
 31
0.0
  0
LINE
  5
2DC
100
AcDbEntity
  8
LAY-1
  6
CONTINUOUS
 62
     2
100
AcDbLine
 10
231.5
 20
-62.5
 30
0.0
 11
231.5
 21
-57.5
 31
0.0
  0
ARC
  5
2DD
100
AcDbEntity
  8
LAY-1
  6
CONTINUOUS
 62
     2
100
AcDbCircle
 10
130.5
 20
-137.5
 30
0.0
 40
1.0
100
AcDbArc
 50
90.0
 51
120.0
  0
LINE
  5
2DE
100
AcDbEntity
  8
LAY-1
  6
CONTINUOUS
 62
     2
100
AcDbLine
 10
130.0
 20
-136.633975
 30
0.0
 11
130.0
 21
-142.5
 31
0.0
  0
ARC
  5
2DF
100
AcDbEntity
  8
LAY-1
  6
CONTINUOUS
 62
     2
100
AcDbCircle
 10
277.5
 20
-137.5
 30
0.0
 40
1.0
100
AcDbArc
 50
60.0
 51
90.0
  0
LINE
  5
2E0
100
AcDbEntity
  8
LAY-1
  6
CONTINUOUS
 62
     2
100
AcDbLine
 10
176.0
 20
-62.5
 30
0.0
 11
204.0
 21
-62.5
 31
0.0
  0
LINE
  5
2E1
100
AcDbEntity
  8
LAY-1
  6
CONTINUOUS
 62
     2
100
AcDbLine
 10
232.0
 20
-62.5
 30
0.0
 11
204.0
 21
-62.5
 31
0.0
  0
LINE
  5
2E2
100
AcDbEntity
  8
LAY-1
  6
CONTINUOUS
 62
     2
100
AcDbLine
 10
232.0
 20
-115.223093
 30
0.0
 11
232.0
 21
-62.5
 31
0.0
  0
ARC
  5
2E3
100
AcDbEntity
  8
LAY-1
  6
CONTINUOUS
 62
     2
100
AcDbCircle
 10
239.0
 20
-115.223093
 30
0.0
 40
7.0
100
AcDbArc
 50
180.0
 51
264.660763
  0
LINE
  5
2E4
100
AcDbEntity
  8
LAY-1
  6
EXLTYPE3
 62
     1
100
AcDbLine
 10
148.11952
 20
-168.0
 30
0.0
 11
259.203715
 21
-168.0
 31
0.0
  0
LINE
  5
2E5
100
AcDbEntity
  8
LAY-1
  6
EXLTYPE3
 62
     1
100
AcDbLine
 10
204.0
 20
-202.0
 30
0.0
 11
204.0
 21
-44.4
 31
0.0
  0
LINE
  5
2E6
100
AcDbEntity
  8
LAY-1
  6
CONTINUOUS
 62
     1
100
AcDbLine
 10
263.475117
 20
-132.946582
 30
0.0
 11
263.475117
 21
-136.5
 31
0.0
  0
LINE
  5
2E7
100
AcDbEntity
  8
LAY-1
  6
CONTINUOUS
 62
     1
100
AcDbLine
 10
269.24862
 20
-132.946582
 30
0.0
 11
269.24862
 21
-136.5
 31
0.0
  0
ARC
  5
2E8
100
AcDbEntity
  8
LAY-1
  6
CONTINUOUS
 62
     1
100
AcDbCircle
 10
270.691995
 20
-135.055823
 30
0.0
 40
2.555823
100
AcDbArc
 50
55.615753
 51
124.384247
  0
ARC
  5
2E9
100
AcDbEntity
  8
LAY-1
  6
CONTINUOUS
 62
     1
100
AcDbCircle
 10
266.361868
 20
-142.053418
 30
0.0
 40
9.553418
100
AcDbArc
 50
72.412046
 51
107.587954
  0
ARC
  5
2EA
100
AcDbEntity
  8
LAY-1
  6
CONTINUOUS
 62
     1
100
AcDbCircle
 10
262.031741
 20
-135.055823
 30
0.0
 40
2.555823
100
AcDbArc
 50
55.615753
 51
124.384247
  0
LINE
  5
2EB
100
AcDbEntity
  8
LAY-1
  6
CONTINUOUS
 62
     1
100
AcDbLine
 10
260.588366
 20
-132.946582
 30
0.0
 11
260.588366
 21
-136.5
 31
0.0
  0
LINE
  5
2EC
100
AcDbEntity
  8
LAY-1
  6
CONTINUOUS
 62
     1
100
AcDbLine
 10
261.361868
 20
-132.5
 30
0.0
 11
260.588366
 21
-132.946582
 31
0.0
  0
LINE
  5
2ED
100
AcDbEntity
  8
LAY-1
  6
CONTINUOUS
 62
     1
100
AcDbLine
 10
271.361868
 20
-132.5
 30
0.0
 11
261.361868
 21
-132.5
 31
0.0
  0
LINE
  5
2EE
100
AcDbEntity
  8
LAY-1
  6
CONTINUOUS
 62
     1
100
AcDbLine
 10
272.135371
 20
-132.946582
 30
0.0
 11
271.361868
 21
-132.5
 31
0.0
  0
LINE
  5
2EF
100
AcDbEntity
  8
LAY-1
  6
CONTINUOUS
 62
     1
100
AcDbLine
 10
272.135371
 20
-136.5
 30
0.0
 11
272.135371
 21
-132.946582
 31
0.0
  0
ARC
  5
2F0
100
AcDbEntity
  8
LAY-1
  6
CONTINUOUS
 62
     1
100
AcDbCircle
 10
263.954991
 20
-153.0
 30
0.0
 40
4.0
100
AcDbArc
 50
147.315446
 51
164.193502
  0
LINE
  5
2F1
100
AcDbEntity
  8
LAY-1
  6
CONTINUOUS
 62
     1
100
AcDbLine
 10
226.94438
 20
-132.946582
 30
0.0
 11
226.94438
 21
-136.5
 31
0.0
  0
LINE
  5
2F2
100
AcDbEntity
  8
LAY-1
  6
CONTINUOUS
 62
     1
100
AcDbLine
 10
232.717883
 20
-132.946582
 30
0.0
 11
232.717883
 21
-136.5
 31
0.0
  0
ARC
  5
2F3
100
AcDbEntity
  8
LAY-1
  6
CONTINUOUS
 62
     1
100
AcDbCircle
 10
234.161259
 20
-135.055823
 30
0.0
 40
2.555823
100
AcDbArc
 50
55.615753
 51
124.384247
  0
ARC
  5
2F4
100
AcDbEntity
  8
LAY-1
  6
CONTINUOUS
 62
     1
100
AcDbCircle
 10
229.831132
 20
-142.053418
 30
0.0
 40
9.553418
100
AcDbArc
 50
72.412046
 51
107.587954
  0
ARC
  5
2F5
100
AcDbEntity
  8
LAY-1
  6
CONTINUOUS
 62
     1
100
AcDbCircle
 10
225.501005
 20
-135.055823
 30
0.0
 40
2.555823
100
AcDbArc
 50
55.615753
 51
124.384247
  0
LINE
  5
2F6
100
AcDbEntity
  8
LAY-1
  6
CONTINUOUS
 62
     1
100
AcDbLine
 10
224.057629
 20
-132.946582
 30
0.0
 11
224.057629
 21
-136.5
 31
0.0
  0
LINE
  5
2F7
100
AcDbEntity
  8
LAY-1
  6
CONTINUOUS
 62
     1
100
AcDbLine
 10
224.831132
 20
-132.5
 30
0.0
 11
224.057629
 21
-132.946582
 31
0.0
  0
LINE
  5
2F8
100
AcDbEntity
  8
LAY-1
  6
CONTINUOUS
 62
     1
100
AcDbLine
 10
234.831132
 20
-132.5
 30
0.0
 11
224.831132
 21
-132.5
 31
0.0
  0
LINE
  5
2F9
100
AcDbEntity
  8
LAY-1
  6
CONTINUOUS
 62
     1
100
AcDbLine
 10
235.604634
 20
-132.946582
 30
0.0
 11
234.831132
 21
-132.5
 31
0.0
  0
LINE
  5
2FA
100
AcDbEntity
  8
LAY-1
  6
CONTINUOUS
 62
     1
100
AcDbLine
 10
235.604634
 20
-136.5
 30
0.0
 11
235.604634
 21
-132.946582
 31
0.0
  0
LINE
  5
2FB
100
AcDbEntity
  8
LAY-1
  6
CONTINUOUS
 62
     1
100
AcDbLine
 10
175.282117
 20
-132.946582
 30
0.0
 11
175.282117
 21
-136.5
 31
0.0
  0
LINE
  5
2FC
100
AcDbEntity
  8
LAY-1
  6
CONTINUOUS
 62
     1
100
AcDbLine
 10
181.05562
 20
-132.946582
 30
0.0
 11
181.05562
 21
-136.5
 31
0.0
  0
ARC
  5
2FD
100
AcDbEntity
  8
LAY-1
  6
CONTINUOUS
 62
     1
100
AcDbCircle
 10
182.498995
 20
-135.055823
 30
0.0
 40
2.555823
100
AcDbArc
 50
55.615753
 51
124.384247
  0
ARC
  5
2FE
100
AcDbEntity
  8
LAY-1
  6
CONTINUOUS
 62
     1
100
AcDbCircle
 10
178.168868
 20
-142.053418
 30
0.0
 40
9.553418
100
AcDbArc
 50
72.412046
 51
107.587954
  0
ARC
  5
2FF
100
AcDbEntity
  8
LAY-1
  6
CONTINUOUS
 62
     1
100
AcDbCircle
 10
173.838741
 20
-135.055823
 30
0.0
 40
2.555823
100
AcDbArc
 50
55.615753
 51
124.384247
  0
LINE
  5
300
100
AcDbEntity
  8
LAY-1
  6
CONTINUOUS
 62
     1
100
AcDbLine
 10
172.395366
 20
-132.946582
 30
0.0
 11
172.395366
 21
-136.5
 31
0.0
  0
LINE
  5
301
100
AcDbEntity
  8
LAY-1
  6
CONTINUOUS
 62
     1
100
AcDbLine
 10
173.168868
 20
-132.5
 30
0.0
 11
172.395366
 21
-132.946582
 31
0.0
  0
LINE
  5
302
100
AcDbEntity
  8
LAY-1
  6
CONTINUOUS
 62
     1
100
AcDbLine
 10
183.168868
 20
-132.5
 30
0.0
 11
173.168868
 21
-132.5
 31
0.0
  0
LINE
  5
303
100
AcDbEntity
  8
LAY-1
  6
CONTINUOUS
 62
     1
100
AcDbLine
 10
183.942371
 20
-132.946582
 30
0.0
 11
183.168868
 21
-132.5
 31
0.0
  0
LINE
  5
304
100
AcDbEntity
  8
LAY-1
  6
CONTINUOUS
 62
     1
100
AcDbLine
 10
183.942371
 20
-136.5
 30
0.0
 11
183.942371
 21
-132.946582
 31
0.0
  0
LINE
  5
305
100
AcDbEntity
  8
LAY-1
  6
CONTINUOUS
 62
     1
100
AcDbLine
 10
138.75138
 20
-132.946582
 30
0.0
 11
138.75138
 21
-136.5
 31
0.0
  0
LINE
  5
306
100
AcDbEntity
  8
LAY-1
  6
CONTINUOUS
 62
     1
100
AcDbLine
 10
144.524883
 20
-132.946582
 30
0.0
 11
144.524883
 21
-136.5
 31
0.0
  0
ARC
  5
307
100
AcDbEntity
  8
LAY-1
  6
CONTINUOUS
 62
     1
100
AcDbCircle
 10
145.968259
 20
-135.055823
 30
0.0
 40
2.555823
100
AcDbArc
 50
55.615753
 51
124.384247
  0
ARC
  5
308
100
AcDbEntity
  8
LAY-1
  6
CONTINUOUS
 62
     1
100
AcDbCircle
 10
141.638132
 20
-142.053418
 30
0.0
 40
9.553418
100
AcDbArc
 50
72.412046
 51
107.587954
  0
ARC
  5
309
100
AcDbEntity
  8
LAY-1
  6
CONTINUOUS
 62
     1
100
AcDbCircle
 10
137.308005
 20
-135.055823
 30
0.0
 40
2.555823
100
AcDbArc
 50
55.615753
 51
124.384247
  0
LINE
  5
30A
100
AcDbEntity
  8
LAY-1
  6
CONTINUOUS
 62
     1
100
AcDbLine
 10
135.864629
 20
-132.946582
 30
0.0
 11
135.864629
 21
-136.5
 31
0.0
  0
LINE
  5
30B
100
AcDbEntity
  8
LAY-1
  6
CONTINUOUS
 62
     1
100
AcDbLine
 10
136.638132
 20
-132.5
 30
0.0
 11
135.864629
 21
-132.946582
 31
0.0
  0
LINE
  5
30C
100
AcDbEntity
  8
LAY-1
  6
CONTINUOUS
 62
     1
100
AcDbLine
 10
146.638132
 20
-132.5
 30
0.0
 11
136.638132
 21
-132.5
 31
0.0
  0
LINE
  5
30D
100
AcDbEntity
  8
LAY-1
  6
CONTINUOUS
 62
     1
100
AcDbLine
 10
147.411634
 20
-132.946582
 30
0.0
 11
146.638132
 21
-132.5
 31
0.0
  0
LINE
  5
30E
100
AcDbEntity
  8
LAY-1
  6
CONTINUOUS
 62
     1
100
AcDbLine
 10
147.411634
 20
-136.5
 30
0.0
 11
147.411634
 21
-132.946582
 31
0.0
  0
ARC
  5
30F
100
AcDbEntity
  8
LAY-1
  6
CONTINUOUS
 62
     1
100
AcDbCircle
 10
195.414318
 20
-178.0
 30
0.0
 40
10.0
100
AcDbArc
 50
214.922342
 51
243.78098
  0
POLYLINE
  5
310
100
AcDbEntity
  8
LAY-1
  6
CONTINUOUS
 62
     1
100
AcDb2dPolyline
 66
     1
 10
0.0
 20
0.0
 30
0.0
 70
   128
  0
VERTEX
  5
311
100
AcDbEntity
  8
LAY-1
  6
CONTINUOUS
 62
     1
100
AcDbVertex
100
AcDb2dVertex
 10
184.773503
 20
-193.0
 30
0.0
  0
VERTEX
  5
312
100
AcDbEntity
  8
LAY-1
  6
CONTINUOUS
 62
     1
100
AcDbVertex
100
AcDb2dVertex
 10
181.886751
 20
-188.0
 30
0.0
  0
VERTEX
  5
313
100
AcDbEntity
  8
LAY-1
  6
CONTINUOUS
 62
     1
100
AcDbVertex
100
AcDb2dVertex
 10
176.113249
 20
-188.0
 30
0.0
  0
VERTEX
  5
314
100
AcDbEntity
  8
LAY-1
  6
CONTINUOUS
 62
     1
100
AcDbVertex
100
AcDb2dVertex
 10
173.226497
 20
-193.0
 30
0.0
  0
VERTEX
  5
315
100
AcDbEntity
  8
LAY-1
  6
CONTINUOUS
 62
     1
100
AcDbVertex
100
AcDb2dVertex
 10
176.113249
 20
-198.0
 30
0.0
  0
VERTEX
  5
316
100
AcDbEntity
  8
LAY-1
  6
CONTINUOUS
 62
     1
100
AcDbVertex
100
AcDb2dVertex
 10
181.886751
 20
-198.0
 30
0.0
  0
VERTEX
  5
317
100
AcDbEntity
  8
LAY-1
  6
CONTINUOUS
 62
     1
100
AcDbVertex
100
AcDb2dVertex
 10
184.773503
 20
-193.0
 30
0.0
  0
SEQEND
  5
318
100
AcDbEntity
  8
LAY-1
  6
CONTINUOUS
 62
     1
  0
CIRCLE
  5
319
100
AcDbEntity
  8
LAY-1
  6
CONTINUOUS
 62
     1
100
AcDbCircle
 10
179.0
 20
-193.0
 30
0.0
 40
5.0
  0
CIRCLE
  5
31A
100
AcDbEntity
  8
LAY-1
  6
CONTINUOUS
 62
     1
100
AcDbCircle
 10
229.0
 20
-193.0
 30
0.0
 40
5.0
  0
POLYLINE
  5
31B
100
AcDbEntity
  8
LAY-1
  6
CONTINUOUS
 62
     1
100
AcDb2dPolyline
 66
     1
 10
0.0
 20
0.0
 30
0.0
 70
   128
  0
VERTEX
  5
31C
100
AcDbEntity
  8
LAY-1
  6
CONTINUOUS
 62
     1
100
AcDbVertex
100
AcDb2dVertex
 10
234.773503
 20
-193.0
 30
0.0
  0
VERTEX
  5
31D
100
AcDbEntity
  8
LAY-1
  6
CONTINUOUS
 62
     1
100
AcDbVertex
100
AcDb2dVertex
 10
231.886751
 20
-188.0
 30
0.0
  0
VERTEX
  5
31E
100
AcDbEntity
  8
LAY-1
  6
CONTINUOUS
 62
     1
100
AcDbVertex
100
AcDb2dVertex
 10
226.113249
 20
-188.0
 30
0.0
  0
VERTEX
  5
31F
100
AcDbEntity
  8
LAY-1
  6
CONTINUOUS
 62
     1
100
AcDbVertex
100
AcDb2dVertex
 10
223.226497
 20
-193.0
 30
0.0
  0
VERTEX
  5
320
100
AcDbEntity
  8
LAY-1
  6
CONTINUOUS
 62
     1
100
AcDbVertex
100
AcDb2dVertex
 10
226.113249
 20
-198.0
 30
0.0
  0
VERTEX
  5
321
100
AcDbEntity
  8
LAY-1
  6
CONTINUOUS
 62
     1
100
AcDbVertex
100
AcDb2dVertex
 10
231.886751
 20
-198.0
 30
0.0
  0
VERTEX
  5
322
100
AcDbEntity
  8
LAY-1
  6
CONTINUOUS
 62
     1
100
AcDbVertex
100
AcDb2dVertex
 10
234.773503
 20
-193.0
 30
0.0
  0
SEQEND
  5
323
100
AcDbEntity
  8
LAY-1
  6
CONTINUOUS
 62
     1
  0
POLYLINE
  5
324
100
AcDbEntity
  8
LAY-1
  6
CONTINUOUS
 62
     1
100
AcDb2dPolyline
 66
     1
 10
0.0
 20
0.0
 30
0.0
 70
   128
  0
VERTEX
  5
325
100
AcDbEntity
  8
LAY-1
  6
CONTINUOUS
 62
     1
100
AcDbVertex
100
AcDb2dVertex
 10
234.773503
 20
-143.0
 30
0.0
  0
VERTEX
  5
326
100
AcDbEntity
  8
LAY-1
  6
CONTINUOUS
 62
     1
100
AcDbVertex
100
AcDb2dVertex
 10
231.886751
 20
-138.0
 30
0.0
  0
VERTEX
  5
327
100
AcDbEntity
  8
LAY-1
  6
CONTINUOUS
 62
     1
100
AcDbVertex
100
AcDb2dVertex
 10
226.113249
 20
-138.0
 30
0.0
  0
VERTEX
  5
328
100
AcDbEntity
  8
LAY-1
  6
CONTINUOUS
 62
     1
100
AcDbVertex
100
AcDb2dVertex
 10
223.226497
 20
-143.0
 30
0.0
  0
VERTEX
  5
329
100
AcDbEntity
  8
LAY-1
  6
CONTINUOUS
 62
     1
100
AcDbVertex
100
AcDb2dVertex
 10
226.113249
 20
-148.0
 30
0.0
  0
VERTEX
  5
32A
100
AcDbEntity
  8
LAY-1
  6
CONTINUOUS
 62
     1
100
AcDbVertex
100
AcDb2dVertex
 10
231.886751
 20
-148.0
 30
0.0
  0
VERTEX
  5
32B
100
AcDbEntity
  8
LAY-1
  6
CONTINUOUS
 62
     1
100
AcDbVertex
100
AcDb2dVertex
 10
234.773503
 20
-143.0
 30
0.0
  0
SEQEND
  5
32C
100
AcDbEntity
  8
LAY-1
  6
CONTINUOUS
 62
     1
  0
CIRCLE
  5
32D
100
AcDbEntity
  8
LAY-1
  6
CONTINUOUS
 62
     1
100
AcDbCircle
 10
229.0
 20
-143.0
 30
0.0
 40
5.0
  0
CIRCLE
  5
32E
100
AcDbEntity
  8
LAY-1
  6
CONTINUOUS
 62
     1
100
AcDbCircle
 10
179.0
 20
-143.0
 30
0.0
 40
5.0
  0
POLYLINE
  5
32F
100
AcDbEntity
  8
LAY-1
  6
CONTINUOUS
 62
     1
100
AcDb2dPolyline
 66
     1
 10
0.0
 20
0.0
 30
0.0
 70
   128
  0
VERTEX
  5
330
100
AcDbEntity
  8
LAY-1
  6
CONTINUOUS
 62
     1
100
AcDbVertex
100
AcDb2dVertex
 10
184.773503
 20
-143.0
 30
0.0
  0
VERTEX
  5
331
100
AcDbEntity
  8
LAY-1
  6
CONTINUOUS
 62
     1
100
AcDbVertex
100
AcDb2dVertex
 10
181.886751
 20
-138.0
 30
0.0
  0
VERTEX
  5
332
100
AcDbEntity
  8
LAY-1
  6
CONTINUOUS
 62
     1
100
AcDbVertex
100
AcDb2dVertex
 10
176.113249
 20
-138.0
 30
0.0
  0
VERTEX
  5
333
100
AcDbEntity
  8
LAY-1
  6
CONTINUOUS
 62
     1
100
AcDbVertex
100
AcDb2dVertex
 10
173.226497
 20
-143.0
 30
0.0
  0
VERTEX
  5
334
100
AcDbEntity
  8
LAY-1
  6
CONTINUOUS
 62
     1
100
AcDbVertex
100
AcDb2dVertex
 10
176.113249
 20
-148.0
 30
0.0
  0
VERTEX
  5
335
100
AcDbEntity
  8
LAY-1
  6
CONTINUOUS
 62
     1
100
AcDbVertex
100
AcDb2dVertex
 10
181.886751
 20
-148.0
 30
0.0
  0
VERTEX
  5
336
100
AcDbEntity
  8
LAY-1
  6
CONTINUOUS
 62
     1
100
AcDbVertex
100
AcDb2dVertex
 10
184.773503
 20
-143.0
 30
0.0
  0
SEQEND
  5
337
100
AcDbEntity
  8
LAY-1
  6
CONTINUOUS
 62
     1
  0
ARC
  5
338
100
AcDbEntity
  8
LAY-1
  6
CONTINUOUS
 62
     2
100
AcDbCircle
 10
488.7
 20
58.0
 30
0.0
 40
1.5
100
AcDbArc
 50
205.150663
 51
334.849337
  0
ARC
  5
339
100
AcDbEntity
  8
LAY-1
  6
CONTINUOUS
 62
     2
100
AcDbCircle
 10
485.98442
 20
56.725
 30
0.0
 40
1.5
100
AcDbArc
 50
25.150663
 51
80.527128
  0
ARC
  5
33A
100
AcDbEntity
  8
LAY-1
  6
CONTINUOUS
 62
     2
100
AcDbCircle
 10
491.41558
 20
56.725
 30
0.0
 40
1.5
100
AcDbArc
 50
99.472872
 51
154.849337
  0
ARC
  5
33B
100
AcDbEntity
  8
LAY-1
  6
CONTINUOUS
 62
     2
100
AcDbCircle
 10
488.7
 20
88.0
 30
0.0
 40
1.5
100
AcDbArc
 50
25.150663
 51
154.849337
  0
ARC
  5
33C
100
AcDbEntity
  8
LAY-1
  6
CONTINUOUS
 62
     2
100
AcDbCircle
 10
485.98442
 20
89.275
 30
0.0
 40
1.5
100
AcDbArc
 50
279.472872
 51
334.849337
  0
ARC
  5
33D
100
AcDbEntity
  8
LAY-1
  6
CONTINUOUS
 62
     2
100
AcDbCircle
 10
491.41558
 20
89.275
 30
0.0
 40
1.5
100
AcDbArc
 50
205.150663
 51
260.527128
  0
ARC
  5
33E
100
AcDbEntity
  8
LAY-1
  6
CONTINUOUS
 62
     2
100
AcDbCircle
 10
457.89953
 20
148.494386
 30
0.0
 40
14.0
100
AcDbArc
 50
185.339237
 51
250.386065
  0
ARC
  5
33F
100
AcDbEntity
  8
LAY-1
  6
CONTINUOUS
 62
     2
100
AcDbCircle
 10
457.89953
 20
237.505614
 30
0.0
 40
14.0
100
AcDbArc
 50
109.613935
 51
174.660763
  0
LINE
  5
340
100
AcDbEntity
  8
LAY-1
  6
CONTINUOUS
 62
     2
100
AcDbLine
 10
475.367318
 20
138.151348
 30
0.0
 11
500.757467
 21
138.443189
 31
0.0
  0
ARC
  5
341
100
AcDbEntity
  8
LAY-1
  6
CONTINUOUS
 62
     2
100
AcDbCircle
 10
472.644374
 20
239.050389
 30
0.0
 40
10.0
100
AcDbArc
 50
5.0
 51
33.073751
  0
ARC
  5
342
100
AcDbEntity
  8
LAY-1
  6
CONTINUOUS
 62
     2
100
AcDbCircle
 10
469.886549
 20
239.484372
 30
0.0
 40
10.0
100
AcDbArc
 50
5.0
 51
74.193502
  0
ARC
  5
343
100
AcDbEntity
  8
LAY-1
  6
CONTINUOUS
 62
     2
100
AcDbCircle
 10
469.886549
 20
146.515628
 30
0.0
 40
10.0
100
AcDbArc
 50
285.806498
 51
355.0
  0
LINE
  5
344
100
AcDbEntity
  8
LAY-1
  6
CONTINUOUS
 62
     2
100
AcDbLine
 10
520.7
 20
109.170964
 30
0.0
 11
520.7
 21
103.0
 31
0.0
  0
LINE
  5
345
100
AcDbEntity
  8
LAY-1
  6
CONTINUOUS
 62
     2
100
AcDbLine
 10
456.7
 20
109.0
 30
0.0
 11
456.7
 21
103.0
 31
0.0
  0
CIRCLE
  5
346
100
AcDbEntity
  8
LAY-1
  6
CONTINUOUS
 62
     2
100
AcDbCircle
 10
488.7
 20
73.0
 30
0.0
 40
8.421753
  0
ARC
  5
347
100
AcDbEntity
  8
LAY-1
  6
CONTINUOUS
 62
     2
100
AcDbCircle
 10
473.7
 20
73.0
 30
0.0
 40
1.5
100
AcDbArc
 50
115.150663
 51
244.849337
  0
ARC
  5
348
100
AcDbEntity
  8
LAY-1
  6
CONTINUOUS
 62
     2
100
AcDbCircle
 10
472.425
 20
70.28442
 30
0.0
 40
1.5
100
AcDbArc
 50
9.472872
 51
64.849337
  0
ARC
  5
349
100
AcDbEntity
  8
LAY-1
  6
CONTINUOUS
 62
     2
100
AcDbCircle
 10
472.425
 20
75.71558
 30
0.0
 40
1.5
100
AcDbArc
 50
295.150663
 51
350.527128
  0
CIRCLE
  5
34A
100
AcDbEntity
  8
LAY-1
  6
CONTINUOUS
 62
     2
100
AcDbCircle
 10
488.7
 20
73.0
 30
0.0
 40
16.5
  0
CIRCLE
  5
34B
100
AcDbEntity
  8
LAY-1
  6
CONTINUOUS
 62
     2
100
AcDbCircle
 10
488.7
 20
73.0
 30
0.0
 40
9.0
  0
CIRCLE
  5
34C
100
AcDbEntity
  8
LAY-1
  6
CONTINUOUS
 62
     2
100
AcDbCircle
 10
488.7
 20
73.0
 30
0.0
 40
10.75
  0
ARC
  5
34D
100
AcDbEntity
  8
LAY-1
  6
CONTINUOUS
 62
     2
100
AcDbCircle
 10
488.7
 20
94.0
 30
0.0
 40
39.408121
100
AcDbArc
 50
236.79343
 51
303.20657
  0
ARC
  5
34E
100
AcDbEntity
  8
LAY-1
  6
CONTINUOUS
 62
     2
100
AcDbCircle
 10
488.7
 20
50.357224
 30
0.0
 40
43.642776
100
AcDbArc
 50
65.080522
 51
114.919478
  0
CIRCLE
  5
34F
100
AcDbEntity
  8
LAY-1
  6
CONTINUOUS
 62
     2
100
AcDbCircle
 10
488.7
 20
73.0
 30
0.0
 40
15.0
  0
LINE
  5
350
100
AcDbEntity
  8
LAY-1
  6
CONTINUOUS
 62
     2
100
AcDbLine
 10
519.7
 20
102.0
 30
0.0
 11
457.7
 21
102.0
 31
0.0
  0
ARC
  5
351
100
AcDbEntity
  8
LAY-1
  6
CONTINUOUS
 62
     2
100
AcDbCircle
 10
459.7
 20
63.552778
 30
0.0
 40
6.0
100
AcDbArc
 50
0.0
 51
18.043862
  0
ARC
  5
352
100
AcDbEntity
  8
LAY-1
  6
CONTINUOUS
 62
     2
100
AcDbCircle
 10
488.7
 20
73.0
 30
0.0
 40
24.5
100
AcDbArc
 50
148.480141
 51
198.043862
  0
ARC
  5
353
100
AcDbEntity
  8
LAY-1
  6
CONTINUOUS
 62
     2
100
AcDbCircle
 10
462.7
 20
88.945219
 30
0.0
 40
6.0
100
AcDbArc
 50
328.480141
 51
0.0
  0
LINE
  5
354
100
AcDbEntity
  8
LAY-1
  6
CONTINUOUS
 62
     2
100
AcDbLine
 10
468.7
 20
88.945219
 30
0.0
 11
468.7
 21
100.0
 31
0.0
  0
LINE
  5
355
100
AcDbEntity
  8
LAY-1
  6
CONTINUOUS
 62
     2
100
AcDbLine
 10
513.7
 20
83.0
 30
0.0
 11
511.612878
 21
83.0
 31
0.0
  0
ARC
  5
356
100
AcDbEntity
  8
LAY-1
  6
CONTINUOUS
 62
     2
100
AcDbCircle
 10
514.7
 20
89.881943
 30
0.0
 40
6.0
100
AcDbArc
 50
180.0
 51
212.995885
  0
ARC
  5
357
100
AcDbEntity
  8
LAY-1
  6
CONTINUOUS
 62
     2
100
AcDbCircle
 10
503.7
 20
73.0
 30
0.0
 40
1.5
100
AcDbArc
 50
295.150663
 51
64.849337
  0
ARC
  5
358
100
AcDbEntity
  8
LAY-1
  6
CONTINUOUS
 62
     2
100
AcDbCircle
 10
504.975
 20
70.28442
 30
0.0
 40
1.5
100
AcDbArc
 50
115.150663
 51
170.527128
  0
ARC
  5
359
100
AcDbEntity
  8
LAY-1
  6
CONTINUOUS
 62
     2
100
AcDbCircle
 10
504.975
 20
75.71558
 30
0.0
 40
1.5
100
AcDbArc
 50
189.472872
 51
244.849337
  0
ARC
  5
35A
100
AcDbEntity
  8
LAY-1
  6
CONTINUOUS
 62
     2
100
AcDbCircle
 10
488.7
 20
73.0
 30
0.0
 40
25.0
100
AcDbArc
 50
23.578178
 51
32.995885
  0
ARC
  5
35B
100
AcDbEntity
  8
LAY-1
  6
CONTINUOUS
 62
     2
100
AcDbCircle
 10
512.7
 20
62.0
 30
0.0
 40
1.0
100
AcDbArc
 50
90.0
 51
180.0
  0
LINE
  5
35C
100
AcDbEntity
  8
LAY-1
  6
CONTINUOUS
 62
     2
100
AcDbLine
 10
513.7
 20
63.0
 30
0.0
 11
513.7
 21
83.0
 31
0.0
  0
LINE
  5
35D
100
AcDbEntity
  8
LAY-1
  6
CONTINUOUS
 62
     2
100
AcDbLine
 10
512.7
 20
63.0
 30
0.0
 11
513.7
 21
63.0
 31
0.0
  0
ARC
  5
35E
100
AcDbEntity
  8
LAY-1
  6
CONTINUOUS
 62
     2
100
AcDbCircle
 10
510.7
 20
100.0
 30
0.0
 40
2.0
100
AcDbArc
 50
90.0
 51
180.0
  0
ARC
  5
35F
100
AcDbEntity
  8
LAY-1
  6
CONTINUOUS
 62
     2
100
AcDbCircle
 10
466.7
 20
100.0
 30
0.0
 40
2.0
100
AcDbArc
 50
0.0
 51
90.0
  0
LINE
  5
360
100
AcDbEntity
  8
LAY-1
  6
CONTINUOUS
 62
     2
100
AcDbLine
 10
508.7
 20
100.0
 30
0.0
 11
508.7
 21
89.881943
 31
0.0
  0
ARC
  5
361
100
AcDbEntity
  8
LAY-1
  6
CONTINUOUS
 62
     2
100
AcDbCircle
 10
457.7
 20
103.0
 30
0.0
 40
1.0
100
AcDbArc
 50
180.0
 51
270.0
  0
ARC
  5
362
100
AcDbEntity
  8
LAY-1
  6
CONTINUOUS
 62
     2
100
AcDbCircle
 10
519.7
 20
103.0
 30
0.0
 40
1.0
100
AcDbArc
 50
270.0
 51
0.0
  0
LINE
  5
363
100
AcDbEntity
  8
LAY-1
  6
CONTINUOUS
 62
     2
100
AcDbLine
 10
463.7
 20
267.0
 30
0.0
 11
463.7
 21
119.0
 31
0.0
  0
LINE
  5
364
100
AcDbEntity
  8
LAY-1
  6
CONTINUOUS
 62
     2
100
AcDbLine
 10
457.333975
 20
119.0
 30
0.0
 11
463.2
 21
119.0
 31
0.0
  0
LINE
  5
365
100
AcDbEntity
  8
LAY-1
  6
CONTINUOUS
 62
     2
100
AcDbLine
 10
457.7
 20
117.0
 30
0.0
 11
519.7
 21
117.0
 31
0.0
  0
LINE
  5
366
100
AcDbEntity
  8
LAY-1
  6
CONTINUOUS
 62
     2
100
AcDbLine
 10
456.7
 20
109.0
 30
0.0
 11
520.7
 21
109.0
 31
0.0
  0
LINE
  5
367
100
AcDbEntity
  8
LAY-1
  6
CONTINUOUS
 62
     2
100
AcDbLine
 10
470.836
 20
267.0
 30
0.0
 11
470.741721
 21
270.0
 31
0.0
  0
LINE
  5
368
100
AcDbEntity
  8
LAY-1
  6
CONTINUOUS
 62
     2
100
AcDbLine
 10
480.658279
 20
270.0
 30
0.0
 11
480.564
 21
267.0
 31
0.0
  0
LINE
  5
369
100
AcDbEntity
  8
LAY-1
  6
CONTINUOUS
 62
     2
100
AcDbLine
 10
470.773147
 20
269.0
 30
0.0
 11
480.626853
 21
269.0
 31
0.0
  0
LINE
  5
36A
100
AcDbEntity
  8
LAY-1
  6
CONTINUOUS
 62
     2
100
AcDbLine
 10
520.7
 20
116.0
 30
0.0
 11
520.7
 21
109.0
 31
0.0
  0
LINE
  5
36B
100
AcDbEntity
  8
LAY-1
  6
CONTINUOUS
 62
     2
100
AcDbLine
 10
456.7
 20
116.0
 30
0.0
 11
456.7
 21
109.0
 31
0.0
  0
LINE
  5
36C
100
AcDbEntity
  8
LAY-1
  6
CONTINUOUS
 62
     2
100
AcDbLine
 10
463.7
 20
267.0
 30
0.0
 11
483.7
 21
267.0
 31
0.0
  0
LINE
  5
36D
100
AcDbEntity
  8
LAY-1
  6
CONTINUOUS
 62
     2
100
AcDbLine
 10
508.7
 20
119.0
 30
0.0
 11
508.7
 21
207.628711
 31
0.0
  0
ARC
  5
36E
100
AcDbEntity
  8
LAY-1
  6
CONTINUOUS
 62
     2
100
AcDbCircle
 10
457.7
 20
116.0
 30
0.0
 40
1.0
100
AcDbArc
 50
90.0
 51
180.0
  0
ARC
  5
36F
100
AcDbEntity
  8
LAY-1
  6
CONTINUOUS
 62
     2
100
AcDbCircle
 10
519.7
 20
116.0
 30
0.0
 40
1.0
100
AcDbArc
 50
0.0
 51
90.0
  0
LINE
  5
370
100
AcDbEntity
  8
LAY-1
  6
CONTINUOUS
 62
     2
100
AcDbLine
 10
519.7
 20
117.0
 30
0.0
 11
517.2
 21
117.0
 31
0.0
  0
ARC
  5
371
100
AcDbEntity
  8
LAY-1
  6
CONTINUOUS
 62
     2
100
AcDbCircle
 10
510.7
 20
119.0
 30
0.0
 40
2.0
100
AcDbArc
 50
180.0
 51
270.0
  0
LINE
  5
372
100
AcDbEntity
  8
LAY-1
  6
CONTINUOUS
 62
     2
100
AcDbLine
 10
482.606321
 20
239.921946
 30
0.0
 11
483.75842
 21
226.753393
 31
0.0
  0
LINE
  5
373
100
AcDbEntity
  8
LAY-1
  6
CONTINUOUS
 62
     2
100
AcDbLine
 10
488.92005
 20
220.602003
 30
0.0
 11
501.28819
 21
217.287969
 31
0.0
  0
ARC
  5
374
100
AcDbEntity
  8
LAY-1
  6
CONTINUOUS
 62
     2
100
AcDbCircle
 10
498.7
 20
207.628711
 30
0.0
 40
10.0
100
AcDbArc
 50
0.0
 51
75.0
  0
ARC
  5
375
100
AcDbEntity
  8
LAY-1
  6
CONTINUOUS
 62
     2
100
AcDbCircle
 10
490.731783
 20
227.363483
 30
0.0
 40
7.0
100
AcDbArc
 50
185.0
 51
255.0
  0
LINE
  5
376
100
AcDbEntity
  8
LAY-1
  6
CONTINUOUS
 62
     2
100
AcDbLine
 10
480.7
 20
245.599006
 30
0.0
 11
480.7
 21
251.5
 31
0.0
  0
LINE
  5
377
100
AcDbEntity
  8
LAY-1
  6
CONTINUOUS
 62
     2
100
AcDbLine
 10
482.7
 20
253.0
 30
0.0
 11
482.2
 21
253.0
 31
0.0
  0
ARC
  5
378
100
AcDbEntity
  8
LAY-1
  6
CONTINUOUS
 62
     2
100
AcDbCircle
 10
482.7
 20
254.0
 30
0.0
 40
1.0
100
AcDbArc
 50
270.0
 51
0.0
  0
LINE
  5
379
100
AcDbEntity
  8
LAY-1
  6
CONTINUOUS
 62
     2
100
AcDbLine
 10
483.7
 20
267.0
 30
0.0
 11
483.7
 21
254.0
 31
0.0
  0
ARC
  5
37A
100
AcDbEntity
  8
LAY-1
  6
CONTINUOUS
 62
     2
100
AcDbCircle
 10
482.7
 20
245.599006
 30
0.0
 40
2.0
100
AcDbArc
 50
180.0
 51
213.073751
  0
LINE
  5
37B
100
AcDbEntity
  8
LAY-1
  6
CONTINUOUS
 62
     2
100
AcDbLine
 10
433.2
 20
168.75
 30
0.0
 11
433.2
 21
217.25
 31
0.0
  0
LINE
  5
37C
100
AcDbEntity
  8
LAY-1
  6
CONTINUOUS
 62
     2
100
AcDbLine
 10
435.923093
 20
221.0
 30
0.0
 11
383.2
 21
221.0
 31
0.0
  0
LINE
  5
37D
100
AcDbEntity
  8
LAY-1
  6
CONTINUOUS
 62
     2
100
AcDbLine
 10
443.962831
 20
238.798801
 30
0.0
 11
442.892722
 21
227.348633
 31
0.0
  0
ARC
  5
37E
100
AcDbEntity
  8
LAY-1
  6
CONTINUOUS
 62
     2
100
AcDbCircle
 10
435.923093
 20
228.0
 30
0.0
 40
7.0
100
AcDbArc
 50
270.0
 51
354.660763
  0
LINE
  5
37F
100
AcDbEntity
  8
LAY-1
  6
CONTINUOUS
 62
     2
100
AcDbLine
 10
443.962831
 20
147.201199
 30
0.0
 11
442.892722
 21
158.651367
 31
0.0
  0
LINE
  5
380
100
AcDbEntity
  8
LAY-1
  6
CONTINUOUS
 62
     2
100
AcDbLine
 10
457.2
 20
119.5
 30
0.0
 11
457.2
 21
266.5
 31
0.0
  0
LINE
  5
381
100
AcDbEntity
  8
LAY-1
  6
CONTINUOUS
 62
     2
100
AcDbLine
 10
378.2
 20
220.5
 30
0.0
 11
378.2
 21
165.5
 31
0.0
  0
LINE
  5
382
100
AcDbEntity
  8
LAY-1
  6
CONTINUOUS
 62
     2
100
AcDbLine
 10
383.2
 20
220.5
 30
0.0
 11
378.2
 21
220.5
 31
0.0
  0
LINE
  5
383
100
AcDbEntity
  8
LAY-1
  6
CONTINUOUS
 62
     2
100
AcDbLine
 10
383.2
 20
165.5
 30
0.0
 11
378.2
 21
165.5
 31
0.0
  0
ARC
  5
384
100
AcDbEntity
  8
LAY-1
  6
CONTINUOUS
 62
     2
100
AcDbCircle
 10
458.2
 20
266.5
 30
0.0
 40
1.0
100
AcDbArc
 50
150.0
 51
180.0
  0
LINE
  5
385
100
AcDbEntity
  8
LAY-1
  6
CONTINUOUS
 62
     2
100
AcDbLine
 10
463.2
 20
267.0
 30
0.0
 11
463.2
 21
119.0
 31
0.0
  0
LINE
  5
386
100
AcDbEntity
  8
LAY-1
  6
CONTINUOUS
 62
     2
100
AcDbLine
 10
457.333975
 20
267.0
 30
0.0
 11
463.2
 21
267.0
 31
0.0
  0
ARC
  5
387
100
AcDbEntity
  8
LAY-1
  6
CONTINUOUS
 62
     2
100
AcDbCircle
 10
458.2
 20
119.5
 30
0.0
 40
1.0
100
AcDbArc
 50
180.0
 51
210.0
  0
LINE
  5
388
100
AcDbEntity
  8
LAY-1
  6
CONTINUOUS
 62
     2
100
AcDbLine
 10
383.2
 20
221.0
 30
0.0
 11
383.2
 21
193.0
 31
0.0
  0
LINE
  5
389
100
AcDbEntity
  8
LAY-1
  6
CONTINUOUS
 62
     2
100
AcDbLine
 10
383.2
 20
165.0
 30
0.0
 11
383.2
 21
193.0
 31
0.0
  0
LINE
  5
38A
100
AcDbEntity
  8
LAY-1
  6
CONTINUOUS
 62
     2
100
AcDbLine
 10
435.923093
 20
165.0
 30
0.0
 11
383.2
 21
165.0
 31
0.0
  0
ARC
  5
38B
100
AcDbEntity
  8
LAY-1
  6
CONTINUOUS
 62
     2
100
AcDbCircle
 10
435.923093
 20
158.0
 30
0.0
 40
7.0
100
AcDbArc
 50
5.339237
 51
90.0
  0
LINE
  5
38C
100
AcDbEntity
  8
LAY-1
  6
CONTINUOUS
 62
     1
100
AcDbLine
 10
471.354147
 20
269.0
 30
0.0
 11
470.741721
 21
270.0
 31
0.0
  0
LINE
  5
38D
100
AcDbEntity
  8
LAY-1
  6
CONTINUOUS
 62
     1
100
AcDbLine
 10
480.658279
 20
270.0
 30
0.0
 11
480.045853
 21
269.0
 31
0.0
  0
LINE
  5
38E
100
AcDbEntity
  8
LAY-1
  6
CONTINUOUS
 62
     1
100
AcDbLine
 10
480.045853
 20
269.0
 30
0.0
 11
479.983
 21
267.0
 31
0.0
  0
LINE
  5
38F
100
AcDbEntity
  8
LAY-1
  6
CONTINUOUS
 62
     1
100
AcDbLine
 10
471.417
 20
267.0
 30
0.0
 11
471.354147
 21
269.0
 31
0.0
  0
LINE
  5
390
100
AcDbEntity
  8
LAY-1
  6
EXLTYPE3
 62
     1
100
AcDbLine
 10
517.1
 20
193.0
 30
0.0
 11
365.1
 21
193.0
 31
0.0
  0
LINE
  5
391
100
AcDbEntity
  8
LAY-1
  6
EXLTYPE3
 62
     1
100
AcDbLine
 10
488.7
 20
227.0
 30
0.0
 11
488.7
 21
25.947391
 31
0.0
  0
LINE
  5
392
100
AcDbEntity
  8
LAY-1
  6
EXLTYPE3
 62
     1
100
AcDbLine
 10
453.329625
 20
73.0
 30
0.0
 11
524.070375
 21
73.0
 31
0.0
  0
LINE
  5
393
100
AcDbEntity
  8
LAY-1
  6
CONTINUOUS
 62
     1
100
AcDbLine
 10
514.566025
 20
102.0
 30
0.0
 11
513.7
 21
100.5
 31
0.0
  0
LINE
  5
394
100
AcDbEntity
  8
LAY-1
  6
CONTINUOUS
 62
     1
100
AcDbLine
 10
512.545299
 20
100.5
 30
0.0
 11
513.411325
 21
102.0
 31
0.0
  0
ARC
  5
395
100
AcDbEntity
  8
LAY-1
  6
CONTINUOUS
 62
     1
100
AcDbCircle
 10
518.030127
 20
99.055823
 30
0.0
 40
2.555823
100
AcDbArc
 50
235.615753
 51
304.384247
  0
LINE
  5
396
100
AcDbEntity
  8
LAY-1
  6
CONTINUOUS
 62
     1
100
AcDbLine
 10
519.473503
 20
96.946582
 30
0.0
 11
519.473503
 21
102.0
 31
0.0
  0
LINE
  5
397
100
AcDbEntity
  8
LAY-1
  6
CONTINUOUS
 62
     1
100
AcDbLine
 10
518.7
 20
96.5
 30
0.0
 11
519.473503
 21
96.946582
 31
0.0
  0
LINE
  5
398
100
AcDbEntity
  8
LAY-1
  6
CONTINUOUS
 62
     1
100
AcDbLine
 10
518.7
 20
96.5
 30
0.0
 11
513.7
 21
96.5
 31
0.0
  0
ARC
  5
399
100
AcDbEntity
  8
LAY-1
  6
CONTINUOUS
 62
     1
100
AcDbCircle
 10
513.7
 20
106.053418
 30
0.0
 40
9.553418
100
AcDbArc
 50
252.412046
 51
287.587954
  0
LINE
  5
39A
100
AcDbEntity
  8
LAY-1
  6
CONTINUOUS
 62
     1
100
AcDbLine
 10
510.813249
 20
96.946582
 30
0.0
 11
510.813249
 21
100.5
 31
0.0
  0
LINE
  5
39B
100
AcDbEntity
  8
LAY-1
  6
CONTINUOUS
 62
     1
100
AcDbLine
 10
516.586751
 20
100.5
 30
0.0
 11
516.586751
 21
96.946582
 31
0.0
  0
LINE
  5
39C
100
AcDbEntity
  8
LAY-1
  6
CONTINUOUS
 62
     1
100
AcDbLine
 10
508.830918
 20
100.5
 30
0.0
 11
519.473503
 21
100.5
 31
0.0
  0
ARC
  5
39D
100
AcDbEntity
  8
LAY-1
  6
CONTINUOUS
 62
     1
100
AcDbCircle
 10
509.369873
 20
99.055823
 30
0.0
 40
2.555823
100
AcDbArc
 50
256.365827
 51
304.384247
  0
LINE
  5
39E
100
AcDbEntity
  8
LAY-1
  6
CONTINUOUS
 62
     1
100
AcDbLine
 10
508.76741
 20
96.5
 30
0.0
 11
513.7
 21
96.5
 31
0.0
  0
LINE
  5
39F
100
AcDbEntity
  8
LAY-1
  6
CONTINUOUS
 62
     1
100
AcDbLine
 10
460.813249
 20
100.5
 30
0.0
 11
460.813249
 21
96.946582
 31
0.0
  0
LINE
  5
3A0
100
AcDbEntity
  8
LAY-1
  6
CONTINUOUS
 62
     1
100
AcDbLine
 10
466.586751
 20
96.946582
 30
0.0
 11
466.586751
 21
100.5
 31
0.0
  0
ARC
  5
3A1
100
AcDbEntity
  8
LAY-1
  6
CONTINUOUS
 62
     1
100
AcDbCircle
 10
463.7
 20
106.053418
 30
0.0
 40
9.553418
100
AcDbArc
 50
252.412046
 51
287.587954
  0
LINE
  5
3A2
100
AcDbEntity
  8
LAY-1
  6
CONTINUOUS
 62
     1
100
AcDbLine
 10
458.7
 20
96.5
 30
0.0
 11
463.7
 21
96.5
 31
0.0
  0
LINE
  5
3A3
100
AcDbEntity
  8
LAY-1
  6
CONTINUOUS
 62
     1
100
AcDbLine
 10
458.7
 20
96.5
 30
0.0
 11
457.926497
 21
96.946582
 31
0.0
  0
LINE
  5
3A4
100
AcDbEntity
  8
LAY-1
  6
CONTINUOUS
 62
     1
100
AcDbLine
 10
457.926497
 20
96.946582
 30
0.0
 11
457.926497
 21
102.0
 31
0.0
  0
ARC
  5
3A5
100
AcDbEntity
  8
LAY-1
  6
CONTINUOUS
 62
     1
100
AcDbCircle
 10
459.369873
 20
99.055823
 30
0.0
 40
2.555823
100
AcDbArc
 50
235.615753
 51
304.384247
  0
LINE
  5
3A6
100
AcDbEntity
  8
LAY-1
  6
CONTINUOUS
 62
     1
100
AcDbLine
 10
462.545299
 20
100.5
 30
0.0
 11
463.411325
 21
102.0
 31
0.0
  0
LINE
  5
3A7
100
AcDbEntity
  8
LAY-1
  6
CONTINUOUS
 62
     1
100
AcDbLine
 10
464.566025
 20
102.0
 30
0.0
 11
463.7
 21
100.5
 31
0.0
  0
LINE
  5
3A8
100
AcDbEntity
  8
LAY-1
  6
CONTINUOUS
 62
     1
100
AcDbLine
 10
468.703902
 20
100.5
 30
0.0
 11
457.926497
 21
100.5
 31
0.0
  0
LINE
  5
3A9
100
AcDbEntity
  8
LAY-1
  6
CONTINUOUS
 62
     1
100
AcDbLine
 10
468.76741
 20
96.5
 30
0.0
 11
463.7
 21
96.5
 31
0.0
  0
ARC
  5
3AA
100
AcDbEntity
  8
LAY-1
  6
CONTINUOUS
 62
     1
100
AcDbCircle
 10
468.030127
 20
99.055823
 30
0.0
 40
2.555823
100
AcDbArc
 50
235.615753
 51
286.766489
  0
LINE
  5
3AB
100
AcDbEntity
  8
LAY-1
  6
CONTINUOUS
 62
     1
100
AcDbLine
 10
453.646582
 20
258.24862
 30
0.0
 11
457.2
 21
258.24862
 31
0.0
  0
LINE
  5
3AC
100
AcDbEntity
  8
LAY-1
  6
CONTINUOUS
 62
     1
100
AcDbLine
 10
453.646582
 20
252.475117
 30
0.0
 11
457.2
 21
252.475117
 31
0.0
  0
ARC
  5
3AD
100
AcDbEntity
  8
LAY-1
  6
CONTINUOUS
 62
     1
100
AcDbCircle
 10
455.755823
 20
251.031741
 30
0.0
 40
2.555823
100
AcDbArc
 50
145.615753
 51
214.384247
  0
ARC
  5
3AE
100
AcDbEntity
  8
LAY-1
  6
CONTINUOUS
 62
     1
100
AcDbCircle
 10
462.753418
 20
255.361868
 30
0.0
 40
9.553418
100
AcDbArc
 50
162.412046
 51
197.587954
  0
ARC
  5
3AF
100
AcDbEntity
  8
LAY-1
  6
CONTINUOUS
 62
     1
100
AcDbCircle
 10
455.755823
 20
259.691995
 30
0.0
 40
2.555823
100
AcDbArc
 50
145.615753
 51
214.384247
  0
LINE
  5
3B0
100
AcDbEntity
  8
LAY-1
  6
CONTINUOUS
 62
     1
100
AcDbLine
 10
453.646582
 20
261.135371
 30
0.0
 11
457.2
 21
261.135371
 31
0.0
  0
LINE
  5
3B1
100
AcDbEntity
  8
LAY-1
  6
CONTINUOUS
 62
     1
100
AcDbLine
 10
453.2
 20
260.361868
 30
0.0
 11
453.646582
 21
261.135371
 31
0.0
  0
LINE
  5
3B2
100
AcDbEntity
  8
LAY-1
  6
CONTINUOUS
 62
     1
100
AcDbLine
 10
453.2
 20
250.361868
 30
0.0
 11
453.2
 21
260.361868
 31
0.0
  0
LINE
  5
3B3
100
AcDbEntity
  8
LAY-1
  6
CONTINUOUS
 62
     1
100
AcDbLine
 10
453.646582
 20
249.588366
 30
0.0
 11
453.2
 21
250.361868
 31
0.0
  0
LINE
  5
3B4
100
AcDbEntity
  8
LAY-1
  6
CONTINUOUS
 62
     1
100
AcDbLine
 10
457.2
 20
249.588366
 30
0.0
 11
453.646582
 21
249.588366
 31
0.0
  0
LINE
  5
3B5
100
AcDbEntity
  8
LAY-1
  6
CONTINUOUS
 62
     1
100
AcDbLine
 10
453.646582
 20
221.717883
 30
0.0
 11
457.2
 21
221.717883
 31
0.0
  0
LINE
  5
3B6
100
AcDbEntity
  8
LAY-1
  6
CONTINUOUS
 62
     1
100
AcDbLine
 10
453.646582
 20
215.94438
 30
0.0
 11
457.2
 21
215.94438
 31
0.0
  0
ARC
  5
3B7
100
AcDbEntity
  8
LAY-1
  6
CONTINUOUS
 62
     1
100
AcDbCircle
 10
455.755823
 20
214.501005
 30
0.0
 40
2.555823
100
AcDbArc
 50
145.615753
 51
214.384247
  0
ARC
  5
3B8
100
AcDbEntity
  8
LAY-1
  6
CONTINUOUS
 62
     1
100
AcDbCircle
 10
462.753418
 20
218.831132
 30
0.0
 40
9.553418
100
AcDbArc
 50
162.412046
 51
197.587954
  0
ARC
  5
3B9
100
AcDbEntity
  8
LAY-1
  6
CONTINUOUS
 62
     1
100
AcDbCircle
 10
455.755823
 20
223.161259
 30
0.0
 40
2.555823
100
AcDbArc
 50
145.615753
 51
214.384247
  0
LINE
  5
3BA
100
AcDbEntity
  8
LAY-1
  6
CONTINUOUS
 62
     1
100
AcDbLine
 10
453.646582
 20
224.604634
 30
0.0
 11
457.2
 21
224.604634
 31
0.0
  0
LINE
  5
3BB
100
AcDbEntity
  8
LAY-1
  6
CONTINUOUS
 62
     1
100
AcDbLine
 10
453.2
 20
223.831132
 30
0.0
 11
453.646582
 21
224.604634
 31
0.0
  0
LINE
  5
3BC
100
AcDbEntity
  8
LAY-1
  6
CONTINUOUS
 62
     1
100
AcDbLine
 10
453.2
 20
213.831132
 30
0.0
 11
453.2
 21
223.831132
 31
0.0
  0
LINE
  5
3BD
100
AcDbEntity
  8
LAY-1
  6
CONTINUOUS
 62
     1
100
AcDbLine
 10
453.646582
 20
213.057629
 30
0.0
 11
453.2
 21
213.831132
 31
0.0
  0
LINE
  5
3BE
100
AcDbEntity
  8
LAY-1
  6
CONTINUOUS
 62
     1
100
AcDbLine
 10
457.2
 20
213.057629
 30
0.0
 11
453.646582
 21
213.057629
 31
0.0
  0
LINE
  5
3BF
100
AcDbEntity
  8
LAY-1
  6
CONTINUOUS
 62
     1
100
AcDbLine
 10
453.646582
 20
170.05562
 30
0.0
 11
457.2
 21
170.05562
 31
0.0
  0
LINE
  5
3C0
100
AcDbEntity
  8
LAY-1
  6
CONTINUOUS
 62
     1
100
AcDbLine
 10
453.646582
 20
164.282117
 30
0.0
 11
457.2
 21
164.282117
 31
0.0
  0
ARC
  5
3C1
100
AcDbEntity
  8
LAY-1
  6
CONTINUOUS
 62
     1
100
AcDbCircle
 10
455.755823
 20
162.838741
 30
0.0
 40
2.555823
100
AcDbArc
 50
145.615753
 51
214.384247
  0
ARC
  5
3C2
100
AcDbEntity
  8
LAY-1
  6
CONTINUOUS
 62
     1
100
AcDbCircle
 10
462.753418
 20
167.168868
 30
0.0
 40
9.553418
100
AcDbArc
 50
162.412046
 51
197.587954
  0
ARC
  5
3C3
100
AcDbEntity
  8
LAY-1
  6
CONTINUOUS
 62
     1
100
AcDbCircle
 10
455.755823
 20
171.498995
 30
0.0
 40
2.555823
100
AcDbArc
 50
145.615753
 51
214.384247
  0
LINE
  5
3C4
100
AcDbEntity
  8
LAY-1
  6
CONTINUOUS
 62
     1
100
AcDbLine
 10
453.646582
 20
172.942371
 30
0.0
 11
457.2
 21
172.942371
 31
0.0
  0
LINE
  5
3C5
100
AcDbEntity
  8
LAY-1
  6
CONTINUOUS
 62
     1
100
AcDbLine
 10
453.2
 20
172.168868
 30
0.0
 11
453.646582
 21
172.942371
 31
0.0
  0
LINE
  5
3C6
100
AcDbEntity
  8
LAY-1
  6
CONTINUOUS
 62
     1
100
AcDbLine
 10
453.2
 20
162.168868
 30
0.0
 11
453.2
 21
172.168868
 31
0.0
  0
LINE
  5
3C7
100
AcDbEntity
  8
LAY-1
  6
CONTINUOUS
 62
     1
100
AcDbLine
 10
453.646582
 20
161.395366
 30
0.0
 11
453.2
 21
162.168868
 31
0.0
  0
LINE
  5
3C8
100
AcDbEntity
  8
LAY-1
  6
CONTINUOUS
 62
     1
100
AcDbLine
 10
457.2
 20
161.395366
 30
0.0
 11
453.646582
 21
161.395366
 31
0.0
  0
LINE
  5
3C9
100
AcDbEntity
  8
LAY-1
  6
CONTINUOUS
 62
     1
100
AcDbLine
 10
453.646582
 20
133.524883
 30
0.0
 11
457.2
 21
133.524883
 31
0.0
  0
LINE
  5
3CA
100
AcDbEntity
  8
LAY-1
  6
CONTINUOUS
 62
     1
100
AcDbLine
 10
453.646582
 20
127.75138
 30
0.0
 11
457.2
 21
127.75138
 31
0.0
  0
ARC
  5
3CB
100
AcDbEntity
  8
LAY-1
  6
CONTINUOUS
 62
     1
100
AcDbCircle
 10
455.755823
 20
126.308005
 30
0.0
 40
2.555823
100
AcDbArc
 50
145.615753
 51
214.384247
  0
ARC
  5
3CC
100
AcDbEntity
  8
LAY-1
  6
CONTINUOUS
 62
     1
100
AcDbCircle
 10
462.753418
 20
130.638132
 30
0.0
 40
9.553418
100
AcDbArc
 50
162.412046
 51
197.587954
  0
ARC
  5
3CD
100
AcDbEntity
  8
LAY-1
  6
CONTINUOUS
 62
     1
100
AcDbCircle
 10
455.755823
 20
134.968259
 30
0.0
 40
2.555823
100
AcDbArc
 50
145.615753
 51
214.384247
  0
LINE
  5
3CE
100
AcDbEntity
  8
LAY-1
  6
CONTINUOUS
 62
     1
100
AcDbLine
 10
453.646582
 20
136.411634
 30
0.0
 11
457.2
 21
136.411634
 31
0.0
  0
LINE
  5
3CF
100
AcDbEntity
  8
LAY-1
  6
CONTINUOUS
 62
     1
100
AcDbLine
 10
453.2
 20
135.638132
 30
0.0
 11
453.646582
 21
136.411634
 31
0.0
  0
LINE
  5
3D0
100
AcDbEntity
  8
LAY-1
  6
CONTINUOUS
 62
     1
100
AcDbLine
 10
453.2
 20
125.638132
 30
0.0
 11
453.2
 21
135.638132
 31
0.0
  0
LINE
  5
3D1
100
AcDbEntity
  8
LAY-1
  6
CONTINUOUS
 62
     1
100
AcDbLine
 10
453.646582
 20
124.864629
 30
0.0
 11
453.2
 21
125.638132
 31
0.0
  0
LINE
  5
3D2
100
AcDbEntity
  8
LAY-1
  6
CONTINUOUS
 62
     1
100
AcDbLine
 10
457.2
 20
124.864629
 30
0.0
 11
453.646582
 21
124.864629
 31
0.0
  0
LINE
  5
3D3
100
AcDbEntity
  8
LAY-1
  6
CONTINUOUS
 62
     1
100
AcDbLine
 10
471.947223
 20
270.0
 30
0.0
 11
471.947223
 21
274.419443
 31
0.0
  0
LINE
  5
3D4
100
AcDbEntity
  8
LAY-1
  6
CONTINUOUS
 62
     1
100
AcDbLine
 10
479.452777
 20
274.419443
 30
0.0
 11
479.452777
 21
270.0
 31
0.0
  0
ARC
  5
3D5
100
AcDbEntity
  8
LAY-1
  6
CONTINUOUS
 62
     1
100
AcDbCircle
 10
481.329165
 20
271.67743
 30
0.0
 40
3.32257
100
AcDbArc
 50
55.615753
 51
124.384247
  0
ARC
  5
3D6
100
AcDbEntity
  8
LAY-1
  6
CONTINUOUS
 62
     1
100
AcDbCircle
 10
475.7
 20
262.580557
 30
0.0
 40
12.419443
100
AcDbArc
 50
72.412046
 51
107.587954
  0
ARC
  5
3D7
100
AcDbEntity
  8
LAY-1
  6
CONTINUOUS
 62
     1
100
AcDbCircle
 10
470.070835
 20
271.67743
 30
0.0
 40
3.32257
100
AcDbArc
 50
55.615753
 51
124.384247
  0
LINE
  5
3D8
100
AcDbEntity
  8
LAY-1
  6
CONTINUOUS
 62
     1
100
AcDbLine
 10
468.194447
 20
270.0
 30
0.0
 11
483.205553
 21
270.0
 31
0.0
  0
LINE
  5
3D9
100
AcDbEntity
  8
LAY-1
  6
CONTINUOUS
 62
     1
100
AcDbLine
 10
468.194447
 20
274.419443
 30
0.0
 11
468.194447
 21
270.0
 31
0.0
  0
LINE
  5
3DA
100
AcDbEntity
  8
LAY-1
  6
CONTINUOUS
 62
     1
100
AcDbLine
 10
469.2
 20
275.0
 30
0.0
 11
468.194447
 21
274.419443
 31
0.0
  0
LINE
  5
3DB
100
AcDbEntity
  8
LAY-1
  6
CONTINUOUS
 62
     1
100
AcDbLine
 10
482.2
 20
275.0
 30
0.0
 11
469.2
 21
275.0
 31
0.0
  0
LINE
  5
3DC
100
AcDbEntity
  8
LAY-1
  6
CONTINUOUS
 62
     1
100
AcDbLine
 10
483.205553
 20
274.419443
 30
0.0
 11
482.2
 21
275.0
 31
0.0
  0
LINE
  5
3DD
100
AcDbEntity
  8
LAY-1
  6
CONTINUOUS
 62
     1
100
AcDbLine
 10
483.205553
 20
270.0
 30
0.0
 11
483.205553
 21
274.419443
 31
0.0
  0
ARC
  5
3DE
100
AcDbEntity
  8
LAY-1
  6
CONTINUOUS
 62
     2
100
AcDbCircle
 10
-80.7
 20
58.0
 30
0.0
 40
1.5
100
AcDbArc
 50
205.150663
 51
334.849337
  0
ARC
  5
3DF
100
AcDbEntity
  8
LAY-1
  6
CONTINUOUS
 62
     2
100
AcDbCircle
 10
-83.41558
 20
56.725
 30
0.0
 40
1.5
100
AcDbArc
 50
25.150663
 51
80.527128
  0
ARC
  5
3E0
100
AcDbEntity
  8
LAY-1
  6
CONTINUOUS
 62
     2
100
AcDbCircle
 10
-77.98442
 20
56.725
 30
0.0
 40
1.5
100
AcDbArc
 50
99.472872
 51
154.849337
  0
ARC
  5
3E1
100
AcDbEntity
  8
LAY-1
  6
CONTINUOUS
 62
     2
100
AcDbCircle
 10
-80.7
 20
88.0
 30
0.0
 40
1.5
100
AcDbArc
 50
25.150663
 51
154.849337
  0
ARC
  5
3E2
100
AcDbEntity
  8
LAY-1
  6
CONTINUOUS
 62
     2
100
AcDbCircle
 10
-77.98442
 20
89.275
 30
0.0
 40
1.5
100
AcDbArc
 50
205.150663
 51
260.527128
  0
ARC
  5
3E3
100
AcDbEntity
  8
LAY-1
  6
CONTINUOUS
 62
     2
100
AcDbCircle
 10
-83.41558
 20
89.275
 30
0.0
 40
1.5
100
AcDbArc
 50
279.472872
 51
334.849337
  0
LINE
  5
3E4
100
AcDbEntity
  8
LAY-1
  6
CONTINUOUS
 62
     2
100
AcDbLine
 10
-35.254319
 20
151.936105
 30
0.0
 11
-35.254319
 21
231.217727
 31
0.0
  0
ARC
  5
3E5
100
AcDbEntity
  8
LAY-1
  6
CONTINUOUS
 62
     2
100
AcDbCircle
 10
-49.89953
 20
148.494386
 30
0.0
 40
14.0
100
AcDbArc
 50
289.613935
 51
354.660763
  0
ARC
  5
3E6
100
AcDbEntity
  8
LAY-1
  6
CONTINUOUS
 62
     2
100
AcDbCircle
 10
-49.89953
 20
237.505614
 30
0.0
 40
14.0
100
AcDbArc
 50
5.339237
 51
70.386065
  0
LINE
  5
3E7
100
AcDbEntity
  8
LAY-1
  6
CONTINUOUS
 62
     2
100
AcDbLine
 10
-67.367318
 20
138.151348
 30
0.0
 11
-92.757467
 21
138.443189
 31
0.0
  0
ARC
  5
3E8
100
AcDbEntity
  8
LAY-1
  6
CONTINUOUS
 62
     2
100
AcDbCircle
 10
-64.644374
 20
239.050389
 30
0.0
 40
10.0
100
AcDbArc
 50
146.926249
 51
175.0
  0
ARC
  5
3E9
100
AcDbEntity
  8
LAY-1
  6
CONTINUOUS
 62
     2
100
AcDbCircle
 10
-61.886549
 20
239.484372
 30
0.0
 40
10.0
100
AcDbArc
 50
105.806498
 51
175.0
  0
ARC
  5
3EA
100
AcDbEntity
  8
LAY-1
  6
CONTINUOUS
 62
     2
100
AcDbCircle
 10
-61.886549
 20
146.515628
 30
0.0
 40
10.0
100
AcDbArc
 50
185.0
 51
254.193502
  0
LINE
  5
3EB
100
AcDbEntity
  8
LAY-1
  6
CONTINUOUS
 62
     2
100
AcDbLine
 10
-62.836
 20
267.0
 30
0.0
 11
-62.741721
 21
270.0
 31
0.0
  0
LINE
  5
3EC
100
AcDbEntity
  8
LAY-1
  6
CONTINUOUS
 62
     2
100
AcDbLine
 10
-72.658279
 20
270.0
 30
0.0
 11
-72.564
 21
267.0
 31
0.0
  0
LINE
  5
3ED
100
AcDbEntity
  8
LAY-1
  6
CONTINUOUS
 62
     2
100
AcDbLine
 10
-62.773147
 20
269.0
 30
0.0
 11
-72.626853
 21
269.0
 31
0.0
  0
LINE
  5
3EE
100
AcDbEntity
  8
LAY-1
  6
CONTINUOUS
 62
     2
100
AcDbLine
 10
-55.7
 20
267.0
 30
0.0
 11
-75.7
 21
267.0
 31
0.0
  0
LINE
  5
3EF
100
AcDbEntity
  8
LAY-1
  6
CONTINUOUS
 62
     2
100
AcDbLine
 10
-74.606321
 20
239.921946
 30
0.0
 11
-75.75842
 21
226.753393
 31
0.0
  0
LINE
  5
3F0
100
AcDbEntity
  8
LAY-1
  6
CONTINUOUS
 62
     2
100
AcDbLine
 10
-80.92005
 20
220.602003
 30
0.0
 11
-93.28819
 21
217.287969
 31
0.0
  0
ARC
  5
3F1
100
AcDbEntity
  8
LAY-1
  6
CONTINUOUS
 62
     2
100
AcDbCircle
 10
-90.7
 20
207.628711
 30
0.0
 40
10.0
100
AcDbArc
 50
105.0
 51
180.0
  0
ARC
  5
3F2
100
AcDbEntity
  8
LAY-1
  6
CONTINUOUS
 62
     2
100
AcDbCircle
 10
-82.731783
 20
227.363483
 30
0.0
 40
7.0
100
AcDbArc
 50
285.0
 51
355.0
  0
LINE
  5
3F3
100
AcDbEntity
  8
LAY-1
  6
CONTINUOUS
 62
     2
100
AcDbLine
 10
-72.7
 20
245.599006
 30
0.0
 11
-72.7
 21
251.5
 31
0.0
  0
LINE
  5
3F4
100
AcDbEntity
  8
LAY-1
  6
CONTINUOUS
 62
     2
100
AcDbLine
 10
-74.7
 20
253.0
 30
0.0
 11
-74.2
 21
253.0
 31
0.0
  0
ARC
  5
3F5
100
AcDbEntity
  8
LAY-1
  6
CONTINUOUS
 62
     2
100
AcDbCircle
 10
-74.7
 20
254.0
 30
0.0
 40
1.0
100
AcDbArc
 50
180.0
 51
270.0
  0
LINE
  5
3F6
100
AcDbEntity
  8
LAY-1
  6
CONTINUOUS
 62
     2
100
AcDbLine
 10
-75.7
 20
267.0
 30
0.0
 11
-75.7
 21
254.0
 31
0.0
  0
ARC
  5
3F7
100
AcDbEntity
  8
LAY-1
  6
CONTINUOUS
 62
     2
100
AcDbCircle
 10
-74.7
 20
245.599006
 30
0.0
 40
2.0
100
AcDbArc
 50
326.926249
 51
0.0
  0
LINE
  5
3F8
100
AcDbEntity
  8
LAY-1
  6
CONTINUOUS
 62
     2
100
AcDbLine
 10
-25.2
 20
168.75
 30
0.0
 11
-25.2
 21
217.25
 31
0.0
  0
LINE
  5
3F9
100
AcDbEntity
  8
LAY-1
  6
CONTINUOUS
 62
     2
100
AcDbLine
 10
-27.923093
 20
221.0
 30
0.0
 11
24.8
 21
221.0
 31
0.0
  0
LINE
  5
3FA
100
AcDbEntity
  8
LAY-1
  6
CONTINUOUS
 62
     2
100
AcDbLine
 10
-35.962831
 20
238.798801
 30
0.0
 11
-34.892722
 21
227.348633
 31
0.0
  0
ARC
  5
3FB
100
AcDbEntity
  8
LAY-1
  6
CONTINUOUS
 62
     2
100
AcDbCircle
 10
-27.923093
 20
228.0
 30
0.0
 40
7.0
100
AcDbArc
 50
185.339237
 51
270.0
  0
LINE
  5
3FC
100
AcDbEntity
  8
LAY-1
  6
CONTINUOUS
 62
     2
100
AcDbLine
 10
-35.962831
 20
147.201199
 30
0.0
 11
-34.892722
 21
158.651367
 31
0.0
  0
LINE
  5
3FD
100
AcDbEntity
  8
LAY-1
  6
CONTINUOUS
 62
     2
100
AcDbLine
 10
29.8
 20
220.5
 30
0.0
 11
29.8
 21
165.5
 31
0.0
  0
LINE
  5
3FE
100
AcDbEntity
  8
LAY-1
  6
CONTINUOUS
 62
     2
100
AcDbLine
 10
24.8
 20
220.5
 30
0.0
 11
29.8
 21
220.5
 31
0.0
  0
LINE
  5
3FF
100
AcDbEntity
  8
LAY-1
  6
CONTINUOUS
 62
     2
100
AcDbLine
 10
24.8
 20
165.5
 30
0.0
 11
29.8
 21
165.5
 31
0.0
  0
ARC
  5
400
100
AcDbEntity
  8
LAY-1
  6
CONTINUOUS
 62
     2
100
AcDbCircle
 10
-50.2
 20
266.5
 30
0.0
 40
1.0
100
AcDbArc
 50
0.0
 51
30.0
  0
LINE
  5
401
100
AcDbEntity
  8
LAY-1
  6
CONTINUOUS
 62
     2
100
AcDbLine
 10
-49.333975
 20
267.0
 30
0.0
 11
-55.2
 21
267.0
 31
0.0
  0
LINE
  5
402
100
AcDbEntity
  8
LAY-1
  6
CONTINUOUS
 62
     2
100
AcDbLine
 10
24.8
 20
221.0
 30
0.0
 11
24.8
 21
193.0
 31
0.0
  0
LINE
  5
403
100
AcDbEntity
  8
LAY-1
  6
CONTINUOUS
 62
     2
100
AcDbLine
 10
24.8
 20
165.0
 30
0.0
 11
24.8
 21
193.0
 31
0.0
  0
LINE
  5
404
100
AcDbEntity
  8
LAY-1
  6
CONTINUOUS
 62
     2
100
AcDbLine
 10
-27.923093
 20
165.0
 30
0.0
 11
24.8
 21
165.0
 31
0.0
  0
ARC
  5
405
100
AcDbEntity
  8
LAY-1
  6
CONTINUOUS
 62
     2
100
AcDbCircle
 10
-27.923093
 20
158.0
 30
0.0
 40
7.0
100
AcDbArc
 50
90.0
 51
174.660763
  0
LINE
  5
406
100
AcDbEntity
  8
LAY-1
  6
CONTINUOUS
 62
     2
100
AcDbLine
 10
-48.7
 20
109.0
 30
0.0
 11
-112.7
 21
109.0
 31
0.0
  0
LINE
  5
407
100
AcDbEntity
  8
LAY-1
  6
CONTINUOUS
 62
     2
100
AcDbLine
 10
-112.7
 20
109.170964
 30
0.0
 11
-112.7
 21
103.0
 31
0.0
  0
LINE
  5
408
100
AcDbEntity
  8
LAY-1
  6
CONTINUOUS
 62
     2
100
AcDbLine
 10
-48.7
 20
109.0
 30
0.0
 11
-48.7
 21
103.0
 31
0.0
  0
CIRCLE
  5
409
100
AcDbEntity
  8
LAY-1
  6
CONTINUOUS
 62
     2
100
AcDbCircle
 10
-80.7
 20
73.0
 30
0.0
 40
8.421753
  0
ARC
  5
40A
100
AcDbEntity
  8
LAY-1
  6
CONTINUOUS
 62
     2
100
AcDbCircle
 10
-65.7
 20
73.0
 30
0.0
 40
1.5
100
AcDbArc
 50
295.150663
 51
64.849337
  0
ARC
  5
40B
100
AcDbEntity
  8
LAY-1
  6
CONTINUOUS
 62
     2
100
AcDbCircle
 10
-64.425
 20
70.28442
 30
0.0
 40
1.5
100
AcDbArc
 50
115.150663
 51
170.527128
  0
ARC
  5
40C
100
AcDbEntity
  8
LAY-1
  6
CONTINUOUS
 62
     2
100
AcDbCircle
 10
-64.425
 20
75.71558
 30
0.0
 40
1.5
100
AcDbArc
 50
189.472872
 51
244.849337
  0
CIRCLE
  5
40D
100
AcDbEntity
  8
LAY-1
  6
CONTINUOUS
 62
     2
100
AcDbCircle
 10
-80.7
 20
73.0
 30
0.0
 40
16.5
  0
CIRCLE
  5
40E
100
AcDbEntity
  8
LAY-1
  6
CONTINUOUS
 62
     2
100
AcDbCircle
 10
-80.7
 20
73.0
 30
0.0
 40
9.0
  0
CIRCLE
  5
40F
100
AcDbEntity
  8
LAY-1
  6
CONTINUOUS
 62
     2
100
AcDbCircle
 10
-80.7
 20
73.0
 30
0.0
 40
10.75
  0
ARC
  5
410
100
AcDbEntity
  8
LAY-1
  6
CONTINUOUS
 62
     2
100
AcDbCircle
 10
-80.7
 20
94.0
 30
0.0
 40
39.408121
100
AcDbArc
 50
236.79343
 51
303.20657
  0
ARC
  5
411
100
AcDbEntity
  8
LAY-1
  6
CONTINUOUS
 62
     2
100
AcDbCircle
 10
-80.7
 20
50.357224
 30
0.0
 40
43.642776
100
AcDbArc
 50
65.080522
 51
114.919478
  0
CIRCLE
  5
412
100
AcDbEntity
  8
LAY-1
  6
CONTINUOUS
 62
     2
100
AcDbCircle
 10
-80.7
 20
73.0
 30
0.0
 40
15.0
  0
LINE
  5
413
100
AcDbEntity
  8
LAY-1
  6
CONTINUOUS
 62
     2
100
AcDbLine
 10
-111.7
 20
102.0
 30
0.0
 11
-49.7
 21
102.0
 31
0.0
  0
ARC
  5
414
100
AcDbEntity
  8
LAY-1
  6
CONTINUOUS
 62
     2
100
AcDbCircle
 10
-51.7
 20
63.552778
 30
0.0
 40
6.0
100
AcDbArc
 50
161.956138
 51
180.0
  0
ARC
  5
415
100
AcDbEntity
  8
LAY-1
  6
CONTINUOUS
 62
     2
100
AcDbCircle
 10
-80.7
 20
73.0
 30
0.0
 40
24.5
100
AcDbArc
 50
341.956138
 51
31.519859
  0
ARC
  5
416
100
AcDbEntity
  8
LAY-1
  6
CONTINUOUS
 62
     2
100
AcDbCircle
 10
-54.7
 20
88.945219
 30
0.0
 40
6.0
100
AcDbArc
 50
180.0
 51
211.519859
  0
LINE
  5
417
100
AcDbEntity
  8
LAY-1
  6
CONTINUOUS
 62
     2
100
AcDbLine
 10
-60.7
 20
88.945219
 30
0.0
 11
-60.7
 21
100.0
 31
0.0
  0
LINE
  5
418
100
AcDbEntity
  8
LAY-1
  6
CONTINUOUS
 62
     2
100
AcDbLine
 10
-105.7
 20
83.0
 30
0.0
 11
-103.612878
 21
83.0
 31
0.0
  0
ARC
  5
419
100
AcDbEntity
  8
LAY-1
  6
CONTINUOUS
 62
     2
100
AcDbCircle
 10
-106.7
 20
89.881943
 30
0.0
 40
6.0
100
AcDbArc
 50
327.004115
 51
0.0
  0
ARC
  5
41A
100
AcDbEntity
  8
LAY-1
  6
CONTINUOUS
 62
     2
100
AcDbCircle
 10
-95.7
 20
73.0
 30
0.0
 40
1.5
100
AcDbArc
 50
115.150663
 51
244.849337
  0
ARC
  5
41B
100
AcDbEntity
  8
LAY-1
  6
CONTINUOUS
 62
     2
100
AcDbCircle
 10
-96.975
 20
70.28442
 30
0.0
 40
1.5
100
AcDbArc
 50
9.472872
 51
64.849337
  0
ARC
  5
41C
100
AcDbEntity
  8
LAY-1
  6
CONTINUOUS
 62
     2
100
AcDbCircle
 10
-96.975
 20
75.71558
 30
0.0
 40
1.5
100
AcDbArc
 50
295.150663
 51
350.527128
  0
ARC
  5
41D
100
AcDbEntity
  8
LAY-1
  6
CONTINUOUS
 62
     2
100
AcDbCircle
 10
-80.7
 20
73.0
 30
0.0
 40
25.0
100
AcDbArc
 50
147.004115
 51
156.421822
  0
ARC
  5
41E
100
AcDbEntity
  8
LAY-1
  6
CONTINUOUS
 62
     2
100
AcDbCircle
 10
-104.7
 20
62.0
 30
0.0
 40
1.0
100
AcDbArc
 50
0.0
 51
90.0
  0
LINE
  5
41F
100
AcDbEntity
  8
LAY-1
  6
CONTINUOUS
 62
     2
100
AcDbLine
 10
-105.7
 20
63.0
 30
0.0
 11
-105.7
 21
83.0
 31
0.0
  0
LINE
  5
420
100
AcDbEntity
  8
LAY-1
  6
CONTINUOUS
 62
     2
100
AcDbLine
 10
-104.7
 20
63.0
 30
0.0
 11
-105.7
 21
63.0
 31
0.0
  0
ARC
  5
421
100
AcDbEntity
  8
LAY-1
  6
CONTINUOUS
 62
     2
100
AcDbCircle
 10
-102.7
 20
100.0
 30
0.0
 40
2.0
100
AcDbArc
 50
0.0
 51
90.0
  0
ARC
  5
422
100
AcDbEntity
  8
LAY-1
  6
CONTINUOUS
 62
     2
100
AcDbCircle
 10
-58.7
 20
100.0
 30
0.0
 40
2.0
100
AcDbArc
 50
90.0
 51
180.0
  0
LINE
  5
423
100
AcDbEntity
  8
LAY-1
  6
CONTINUOUS
 62
     2
100
AcDbLine
 10
-100.7
 20
100.0
 30
0.0
 11
-100.7
 21
89.881943
 31
0.0
  0
ARC
  5
424
100
AcDbEntity
  8
LAY-1
  6
CONTINUOUS
 62
     2
100
AcDbCircle
 10
-49.7
 20
103.0
 30
0.0
 40
1.0
100
AcDbArc
 50
270.0
 51
0.0
  0
ARC
  5
425
100
AcDbEntity
  8
LAY-1
  6
CONTINUOUS
 62
     2
100
AcDbCircle
 10
-111.7
 20
103.0
 30
0.0
 40
1.0
100
AcDbArc
 50
180.0
 51
270.0
  0
LINE
  5
426
100
AcDbEntity
  8
LAY-1
  6
CONTINUOUS
 62
     2
100
AcDbLine
 10
-55.7
 20
267.0
 30
0.0
 11
-55.7
 21
119.0
 31
0.0
  0
LINE
  5
427
100
AcDbEntity
  8
LAY-1
  6
CONTINUOUS
 62
     2
100
AcDbLine
 10
-49.333975
 20
119.0
 30
0.0
 11
-55.2
 21
119.0
 31
0.0
  0
LINE
  5
428
100
AcDbEntity
  8
LAY-1
  6
CONTINUOUS
 62
     2
100
AcDbLine
 10
-49.7
 20
117.0
 30
0.0
 11
-111.7
 21
117.0
 31
0.0
  0
LINE
  5
429
100
AcDbEntity
  8
LAY-1
  6
CONTINUOUS
 62
     2
100
AcDbLine
 10
-112.7
 20
116.0
 30
0.0
 11
-112.7
 21
109.0
 31
0.0
  0
LINE
  5
42A
100
AcDbEntity
  8
LAY-1
  6
CONTINUOUS
 62
     2
100
AcDbLine
 10
-48.7
 20
116.0
 30
0.0
 11
-48.7
 21
109.0
 31
0.0
  0
LINE
  5
42B
100
AcDbEntity
  8
LAY-1
  6
CONTINUOUS
 62
     2
100
AcDbLine
 10
-100.7
 20
119.0
 30
0.0
 11
-100.7
 21
207.628711
 31
0.0
  0
ARC
  5
42C
100
AcDbEntity
  8
LAY-1
  6
CONTINUOUS
 62
     2
100
AcDbCircle
 10
-49.7
 20
116.0
 30
0.0
 40
1.0
100
AcDbArc
 50
0.0
 51
90.0
  0
ARC
  5
42D
100
AcDbEntity
  8
LAY-1
  6
CONTINUOUS
 62
     2
100
AcDbCircle
 10
-111.7
 20
116.0
 30
0.0
 40
1.0
100
AcDbArc
 50
90.0
 51
180.0
  0
LINE
  5
42E
100
AcDbEntity
  8
LAY-1
  6
CONTINUOUS
 62
     2
100
AcDbLine
 10
-111.7
 20
117.0
 30
0.0
 11
-109.2
 21
117.0
 31
0.0
  0
ARC
  5
42F
100
AcDbEntity
  8
LAY-1
  6
CONTINUOUS
 62
     2
100
AcDbCircle
 10
-102.7
 20
119.0
 30
0.0
 40
2.0
100
AcDbArc
 50
270.0
 51
0.0
  0
LINE
  5
430
100
AcDbEntity
  8
LAY-1
  6
CONTINUOUS
 62
     2
100
AcDbLine
 10
-49.2
 20
119.5
 30
0.0
 11
-49.2
 21
266.5
 31
0.0
  0
LINE
  5
431
100
AcDbEntity
  8
LAY-1
  6
CONTINUOUS
 62
     2
100
AcDbLine
 10
-55.2
 20
267.0
 30
0.0
 11
-55.2
 21
119.0
 31
0.0
  0
ARC
  5
432
100
AcDbEntity
  8
LAY-1
  6
CONTINUOUS
 62
     2
100
AcDbCircle
 10
-50.2
 20
119.5
 30
0.0
 40
1.0
100
AcDbArc
 50
330.0
 51
0.0
  0
LINE
  5
433
100
AcDbEntity
  8
LAY-1
  6
EXLTYPE3
 62
     1
100
AcDbLine
 10
-80.7
 20
227.0
 30
0.0
 11
-80.7
 21
25.947391
 31
0.0
  0
LINE
  5
434
100
AcDbEntity
  8
LAY-1
  6
EXLTYPE3
 62
     1
100
AcDbLine
 10
-45.329625
 20
73.0
 30
0.0
 11
-116.070375
 21
73.0
 31
0.0
  0
LINE
  5
435
100
AcDbEntity
  8
LAY-1
  6
CONTINUOUS
 62
     1
100
AcDbLine
 10
-63.354147
 20
269.0
 30
0.0
 11
-62.741721
 21
270.0
 31
0.0
  0
LINE
  5
436
100
AcDbEntity
  8
LAY-1
  6
CONTINUOUS
 62
     1
100
AcDbLine
 10
-72.658279
 20
270.0
 30
0.0
 11
-72.045853
 21
269.0
 31
0.0
  0
LINE
  5
437
100
AcDbEntity
  8
LAY-1
  6
CONTINUOUS
 62
     1
100
AcDbLine
 10
-72.045853
 20
269.0
 30
0.0
 11
-71.983
 21
267.0
 31
0.0
  0
LINE
  5
438
100
AcDbEntity
  8
LAY-1
  6
CONTINUOUS
 62
     1
100
AcDbLine
 10
-63.417
 20
267.0
 30
0.0
 11
-63.354147
 21
269.0
 31
0.0
  0
LINE
  5
439
100
AcDbEntity
  8
LAY-1
  6
EXLTYPE3
 62
     1
100
AcDbLine
 10
-109.1
 20
193.0
 30
0.0
 11
42.9
 21
193.0
 31
0.0
  0
LINE
  5
43A
100
AcDbEntity
  8
LAY-1
  6
CONTINUOUS
 62
     1
100
AcDbLine
 10
-45.646582
 20
258.24862
 30
0.0
 11
-49.2
 21
258.24862
 31
0.0
  0
LINE
  5
43B
100
AcDbEntity
  8
LAY-1
  6
CONTINUOUS
 62
     1
100
AcDbLine
 10
-45.646582
 20
252.475117
 30
0.0
 11
-49.2
 21
252.475117
 31
0.0
  0
ARC
  5
43C
100
AcDbEntity
  8
LAY-1
  6
CONTINUOUS
 62
     1
100
AcDbCircle
 10
-47.755823
 20
251.031741
 30
0.0
 40
2.555823
100
AcDbArc
 50
325.615753
 51
34.384247
  0
ARC
  5
43D
100
AcDbEntity
  8
LAY-1
  6
CONTINUOUS
 62
     1
100
AcDbCircle
 10
-54.753418
 20
255.361868
 30
0.0
 40
9.553418
100
AcDbArc
 50
342.412046
 51
17.587954
  0
ARC
  5
43E
100
AcDbEntity
  8
LAY-1
  6
CONTINUOUS
 62
     1
100
AcDbCircle
 10
-47.755823
 20
259.691995
 30
0.0
 40
2.555823
100
AcDbArc
 50
325.615753
 51
34.384247
  0
LINE
  5
43F
100
AcDbEntity
  8
LAY-1
  6
CONTINUOUS
 62
     1
100
AcDbLine
 10
-45.646582
 20
261.135371
 30
0.0
 11
-49.2
 21
261.135371
 31
0.0
  0
LINE
  5
440
100
AcDbEntity
  8
LAY-1
  6
CONTINUOUS
 62
     1
100
AcDbLine
 10
-45.2
 20
260.361868
 30
0.0
 11
-45.646582
 21
261.135371
 31
0.0
  0
LINE
  5
441
100
AcDbEntity
  8
LAY-1
  6
CONTINUOUS
 62
     1
100
AcDbLine
 10
-45.2
 20
250.361868
 30
0.0
 11
-45.2
 21
260.361868
 31
0.0
  0
LINE
  5
442
100
AcDbEntity
  8
LAY-1
  6
CONTINUOUS
 62
     1
100
AcDbLine
 10
-45.646582
 20
249.588366
 30
0.0
 11
-45.2
 21
250.361868
 31
0.0
  0
LINE
  5
443
100
AcDbEntity
  8
LAY-1
  6
CONTINUOUS
 62
     1
100
AcDbLine
 10
-49.2
 20
249.588366
 30
0.0
 11
-45.646582
 21
249.588366
 31
0.0
  0
LINE
  5
444
100
AcDbEntity
  8
LAY-1
  6
CONTINUOUS
 62
     1
100
AcDbLine
 10
-45.646582
 20
221.717883
 30
0.0
 11
-49.2
 21
221.717883
 31
0.0
  0
LINE
  5
445
100
AcDbEntity
  8
LAY-1
  6
CONTINUOUS
 62
     1
100
AcDbLine
 10
-45.646582
 20
215.94438
 30
0.0
 11
-49.2
 21
215.94438
 31
0.0
  0
ARC
  5
446
100
AcDbEntity
  8
LAY-1
  6
CONTINUOUS
 62
     1
100
AcDbCircle
 10
-47.755823
 20
214.501005
 30
0.0
 40
2.555823
100
AcDbArc
 50
325.615753
 51
34.384247
  0
ARC
  5
447
100
AcDbEntity
  8
LAY-1
  6
CONTINUOUS
 62
     1
100
AcDbCircle
 10
-54.753418
 20
218.831132
 30
0.0
 40
9.553418
100
AcDbArc
 50
342.412046
 51
17.587954
  0
ARC
  5
448
100
AcDbEntity
  8
LAY-1
  6
CONTINUOUS
 62
     1
100
AcDbCircle
 10
-47.755823
 20
223.161259
 30
0.0
 40
2.555823
100
AcDbArc
 50
325.615753
 51
34.384247
  0
LINE
  5
449
100
AcDbEntity
  8
LAY-1
  6
CONTINUOUS
 62
     1
100
AcDbLine
 10
-45.646582
 20
224.604634
 30
0.0
 11
-49.2
 21
224.604634
 31
0.0
  0
LINE
  5
44A
100
AcDbEntity
  8
LAY-1
  6
CONTINUOUS
 62
     1
100
AcDbLine
 10
-45.2
 20
223.831132
 30
0.0
 11
-45.646582
 21
224.604634
 31
0.0
  0
LINE
  5
44B
100
AcDbEntity
  8
LAY-1
  6
CONTINUOUS
 62
     1
100
AcDbLine
 10
-45.2
 20
213.831132
 30
0.0
 11
-45.2
 21
223.831132
 31
0.0
  0
LINE
  5
44C
100
AcDbEntity
  8
LAY-1
  6
CONTINUOUS
 62
     1
100
AcDbLine
 10
-45.646582
 20
213.057629
 30
0.0
 11
-45.2
 21
213.831132
 31
0.0
  0
LINE
  5
44D
100
AcDbEntity
  8
LAY-1
  6
CONTINUOUS
 62
     1
100
AcDbLine
 10
-49.2
 20
213.057629
 30
0.0
 11
-45.646582
 21
213.057629
 31
0.0
  0
LINE
  5
44E
100
AcDbEntity
  8
LAY-1
  6
CONTINUOUS
 62
     1
100
AcDbLine
 10
-45.646582
 20
170.05562
 30
0.0
 11
-49.2
 21
170.05562
 31
0.0
  0
LINE
  5
44F
100
AcDbEntity
  8
LAY-1
  6
CONTINUOUS
 62
     1
100
AcDbLine
 10
-45.646582
 20
164.282117
 30
0.0
 11
-49.2
 21
164.282117
 31
0.0
  0
ARC
  5
450
100
AcDbEntity
  8
LAY-1
  6
CONTINUOUS
 62
     1
100
AcDbCircle
 10
-47.755823
 20
162.838741
 30
0.0
 40
2.555823
100
AcDbArc
 50
325.615753
 51
34.384247
  0
ARC
  5
451
100
AcDbEntity
  8
LAY-1
  6
CONTINUOUS
 62
     1
100
AcDbCircle
 10
-54.753418
 20
167.168868
 30
0.0
 40
9.553418
100
AcDbArc
 50
342.412046
 51
17.587954
  0
ARC
  5
452
100
AcDbEntity
  8
LAY-1
  6
CONTINUOUS
 62
     1
100
AcDbCircle
 10
-47.755823
 20
171.498995
 30
0.0
 40
2.555823
100
AcDbArc
 50
325.615753
 51
34.384247
  0
LINE
  5
453
100
AcDbEntity
  8
LAY-1
  6
CONTINUOUS
 62
     1
100
AcDbLine
 10
-45.646582
 20
172.942371
 30
0.0
 11
-49.2
 21
172.942371
 31
0.0
  0
LINE
  5
454
100
AcDbEntity
  8
LAY-1
  6
CONTINUOUS
 62
     1
100
AcDbLine
 10
-45.2
 20
172.168868
 30
0.0
 11
-45.646582
 21
172.942371
 31
0.0
  0
LINE
  5
455
100
AcDbEntity
  8
LAY-1
  6
CONTINUOUS
 62
     1
100
AcDbLine
 10
-45.2
 20
162.168868
 30
0.0
 11
-45.2
 21
172.168868
 31
0.0
  0
LINE
  5
456
100
AcDbEntity
  8
LAY-1
  6
CONTINUOUS
 62
     1
100
AcDbLine
 10
-45.646582
 20
161.395366
 30
0.0
 11
-45.2
 21
162.168868
 31
0.0
  0
LINE
  5
457
100
AcDbEntity
  8
LAY-1
  6
CONTINUOUS
 62
     1
100
AcDbLine
 10
-49.2
 20
161.395366
 30
0.0
 11
-45.646582
 21
161.395366
 31
0.0
  0
LINE
  5
458
100
AcDbEntity
  8
LAY-1
  6
CONTINUOUS
 62
     1
100
AcDbLine
 10
-45.646582
 20
133.524883
 30
0.0
 11
-49.2
 21
133.524883
 31
0.0
  0
LINE
  5
459
100
AcDbEntity
  8
LAY-1
  6
CONTINUOUS
 62
     1
100
AcDbLine
 10
-45.646582
 20
127.75138
 30
0.0
 11
-49.2
 21
127.75138
 31
0.0
  0
ARC
  5
45A
100
AcDbEntity
  8
LAY-1
  6
CONTINUOUS
 62
     1
100
AcDbCircle
 10
-47.755823
 20
126.308005
 30
0.0
 40
2.555823
100
AcDbArc
 50
325.615753
 51
34.384247
  0
ARC
  5
45B
100
AcDbEntity
  8
LAY-1
  6
CONTINUOUS
 62
     1
100
AcDbCircle
 10
-54.753418
 20
130.638132
 30
0.0
 40
9.553418
100
AcDbArc
 50
342.412046
 51
17.587954
  0
ARC
  5
45C
100
AcDbEntity
  8
LAY-1
  6
CONTINUOUS
 62
     1
100
AcDbCircle
 10
-47.755823
 20
134.968259
 30
0.0
 40
2.555823
100
AcDbArc
 50
325.615753
 51
34.384247
  0
LINE
  5
45D
100
AcDbEntity
  8
LAY-1
  6
CONTINUOUS
 62
     1
100
AcDbLine
 10
-45.646582
 20
136.411634
 30
0.0
 11
-49.2
 21
136.411634
 31
0.0
  0
LINE
  5
45E
100
AcDbEntity
  8
LAY-1
  6
CONTINUOUS
 62
     1
100
AcDbLine
 10
-45.2
 20
135.638132
 30
0.0
 11
-45.646582
 21
136.411634
 31
0.0
  0
LINE
  5
45F
100
AcDbEntity
  8
LAY-1
  6
CONTINUOUS
 62
     1
100
AcDbLine
 10
-45.2
 20
125.638132
 30
0.0
 11
-45.2
 21
135.638132
 31
0.0
  0
LINE
  5
460
100
AcDbEntity
  8
LAY-1
  6
CONTINUOUS
 62
     1
100
AcDbLine
 10
-45.646582
 20
124.864629
 30
0.0
 11
-45.2
 21
125.638132
 31
0.0
  0
LINE
  5
461
100
AcDbEntity
  8
LAY-1
  6
CONTINUOUS
 62
     1
100
AcDbLine
 10
-49.2
 20
124.864629
 30
0.0
 11
-45.646582
 21
124.864629
 31
0.0
  0
LINE
  5
462
100
AcDbEntity
  8
LAY-1
  6
CONTINUOUS
 62
     1
100
AcDbLine
 10
-52.813249
 20
100.5
 30
0.0
 11
-52.813249
 21
96.946582
 31
0.0
  0
LINE
  5
463
100
AcDbEntity
  8
LAY-1
  6
CONTINUOUS
 62
     1
100
AcDbLine
 10
-58.586751
 20
96.946582
 30
0.0
 11
-58.586751
 21
100.5
 31
0.0
  0
ARC
  5
464
100
AcDbEntity
  8
LAY-1
  6
CONTINUOUS
 62
     1
100
AcDbCircle
 10
-55.7
 20
106.053418
 30
0.0
 40
9.553418
100
AcDbArc
 50
252.412046
 51
287.587954
  0
LINE
  5
465
100
AcDbEntity
  8
LAY-1
  6
CONTINUOUS
 62
     1
100
AcDbLine
 10
-50.7
 20
96.5
 30
0.0
 11
-55.7
 21
96.5
 31
0.0
  0
LINE
  5
466
100
AcDbEntity
  8
LAY-1
  6
CONTINUOUS
 62
     1
100
AcDbLine
 10
-50.7
 20
96.5
 30
0.0
 11
-49.926497
 21
96.946582
 31
0.0
  0
LINE
  5
467
100
AcDbEntity
  8
LAY-1
  6
CONTINUOUS
 62
     1
100
AcDbLine
 10
-49.926497
 20
96.946582
 30
0.0
 11
-49.926497
 21
102.0
 31
0.0
  0
ARC
  5
468
100
AcDbEntity
  8
LAY-1
  6
CONTINUOUS
 62
     1
100
AcDbCircle
 10
-51.369873
 20
99.055823
 30
0.0
 40
2.555823
100
AcDbArc
 50
235.615753
 51
304.384247
  0
LINE
  5
469
100
AcDbEntity
  8
LAY-1
  6
CONTINUOUS
 62
     1
100
AcDbLine
 10
-54.545299
 20
100.5
 30
0.0
 11
-55.411325
 21
102.0
 31
0.0
  0
LINE
  5
46A
100
AcDbEntity
  8
LAY-1
  6
CONTINUOUS
 62
     1
100
AcDbLine
 10
-56.566025
 20
102.0
 30
0.0
 11
-55.7
 21
100.5
 31
0.0
  0
LINE
  5
46B
100
AcDbEntity
  8
LAY-1
  6
CONTINUOUS
 62
     1
100
AcDbLine
 10
-60.703902
 20
100.5
 30
0.0
 11
-49.926497
 21
100.5
 31
0.0
  0
LINE
  5
46C
100
AcDbEntity
  8
LAY-1
  6
CONTINUOUS
 62
     1
100
AcDbLine
 10
-60.76741
 20
96.5
 30
0.0
 11
-55.7
 21
96.5
 31
0.0
  0
ARC
  5
46D
100
AcDbEntity
  8
LAY-1
  6
CONTINUOUS
 62
     1
100
AcDbCircle
 10
-60.030127
 20
99.055823
 30
0.0
 40
2.555823
100
AcDbArc
 50
253.233511
 51
304.384247
  0
LINE
  5
46E
100
AcDbEntity
  8
LAY-1
  6
CONTINUOUS
 62
     1
100
AcDbLine
 10
-106.566025
 20
102.0
 30
0.0
 11
-105.7
 21
100.5
 31
0.0
  0
LINE
  5
46F
100
AcDbEntity
  8
LAY-1
  6
CONTINUOUS
 62
     1
100
AcDbLine
 10
-104.545299
 20
100.5
 30
0.0
 11
-105.411325
 21
102.0
 31
0.0
  0
ARC
  5
470
100
AcDbEntity
  8
LAY-1
  6
CONTINUOUS
 62
     1
100
AcDbCircle
 10
-110.030127
 20
99.055823
 30
0.0
 40
2.555823
100
AcDbArc
 50
235.615753
 51
304.384247
  0
LINE
  5
471
100
AcDbEntity
  8
LAY-1
  6
CONTINUOUS
 62
     1
100
AcDbLine
 10
-111.473503
 20
96.946582
 30
0.0
 11
-111.473503
 21
102.0
 31
0.0
  0
LINE
  5
472
100
AcDbEntity
  8
LAY-1
  6
CONTINUOUS
 62
     1
100
AcDbLine
 10
-110.7
 20
96.5
 30
0.0
 11
-111.473503
 21
96.946582
 31
0.0
  0
LINE
  5
473
100
AcDbEntity
  8
LAY-1
  6
CONTINUOUS
 62
     1
100
AcDbLine
 10
-110.7
 20
96.5
 30
0.0
 11
-105.7
 21
96.5
 31
0.0
  0
ARC
  5
474
100
AcDbEntity
  8
LAY-1
  6
CONTINUOUS
 62
     1
100
AcDbCircle
 10
-105.7
 20
106.053418
 30
0.0
 40
9.553418
100
AcDbArc
 50
252.412046
 51
287.587954
  0
LINE
  5
475
100
AcDbEntity
  8
LAY-1
  6
CONTINUOUS
 62
     1
100
AcDbLine
 10
-102.813249
 20
96.946582
 30
0.0
 11
-102.813249
 21
100.5
 31
0.0
  0
LINE
  5
476
100
AcDbEntity
  8
LAY-1
  6
CONTINUOUS
 62
     1
100
AcDbLine
 10
-108.586751
 20
100.5
 30
0.0
 11
-108.586751
 21
96.946582
 31
0.0
  0
LINE
  5
477
100
AcDbEntity
  8
LAY-1
  6
CONTINUOUS
 62
     1
100
AcDbLine
 10
-100.830918
 20
100.5
 30
0.0
 11
-111.473503
 21
100.5
 31
0.0
  0
ARC
  5
478
100
AcDbEntity
  8
LAY-1
  6
CONTINUOUS
 62
     1
100
AcDbCircle
 10
-101.369873
 20
99.055823
 30
0.0
 40
2.555823
100
AcDbArc
 50
235.615753
 51
283.634173
  0
LINE
  5
479
100
AcDbEntity
  8
LAY-1
  6
CONTINUOUS
 62
     1
100
AcDbLine
 10
-100.76741
 20
96.5
 30
0.0
 11
-105.7
 21
96.5
 31
0.0
  0
LINE
  5
47A
100
AcDbEntity
  8
LAY-1
  6
CONTINUOUS
 62
     1
100
AcDbLine
 10
-63.947223
 20
270.0
 30
0.0
 11
-63.947223
 21
274.419443
 31
0.0
  0
LINE
  5
47B
100
AcDbEntity
  8
LAY-1
  6
CONTINUOUS
 62
     1
100
AcDbLine
 10
-71.452777
 20
274.419443
 30
0.0
 11
-71.452777
 21
270.0
 31
0.0
  0
ARC
  5
47C
100
AcDbEntity
  8
LAY-1
  6
CONTINUOUS
 62
     1
100
AcDbCircle
 10
-73.329165
 20
271.67743
 30
0.0
 40
3.32257
100
AcDbArc
 50
55.615753
 51
124.384247
  0
ARC
  5
47D
100
AcDbEntity
  8
LAY-1
  6
CONTINUOUS
 62
     1
100
AcDbCircle
 10
-67.7
 20
262.580557
 30
0.0
 40
12.419443
100
AcDbArc
 50
72.412046
 51
107.587954
  0
ARC
  5
47E
100
AcDbEntity
  8
LAY-1
  6
CONTINUOUS
 62
     1
100
AcDbCircle
 10
-62.070835
 20
271.67743
 30
0.0
 40
3.32257
100
AcDbArc
 50
55.615753
 51
124.384247
  0
LINE
  5
47F
100
AcDbEntity
  8
LAY-1
  6
CONTINUOUS
 62
     1
100
AcDbLine
 10
-60.194447
 20
270.0
 30
0.0
 11
-75.205553
 21
270.0
 31
0.0
  0
LINE
  5
480
100
AcDbEntity
  8
LAY-1
  6
CONTINUOUS
 62
     1
100
AcDbLine
 10
-60.194447
 20
274.419443
 30
0.0
 11
-60.194447
 21
270.0
 31
0.0
  0
LINE
  5
481
100
AcDbEntity
  8
LAY-1
  6
CONTINUOUS
 62
     1
100
AcDbLine
 10
-61.2
 20
275.0
 30
0.0
 11
-60.194447
 21
274.419443
 31
0.0
  0
LINE
  5
482
100
AcDbEntity
  8
LAY-1
  6
CONTINUOUS
 62
     1
100
AcDbLine
 10
-74.2
 20
275.0
 30
0.0
 11
-61.2
 21
275.0
 31
0.0
  0
LINE
  5
483
100
AcDbEntity
  8
LAY-1
  6
CONTINUOUS
 62
     1
100
AcDbLine
 10
-75.205553
 20
274.419443
 30
0.0
 11
-74.2
 21
275.0
 31
0.0
  0
LINE
  5
484
100
AcDbEntity
  8
LAY-1
  6
CONTINUOUS
 62
     1
100
AcDbLine
 10
-75.205553
 20
270.0
 30
0.0
 11
-75.205553
 21
274.419443
 31
0.0
  0
LINE
  5
485
100
AcDbEntity
  8
LAY-1
  6
CONTINUOUS
 62
     2
100
AcDbLine
 10
204.0
 20
40.0
 30
0.0
 11
181.5
 21
40.0
 31
0.0
  0
ARC
  5
486
100
AcDbEntity
  8
LAY-1
  6
CONTINUOUS
 62
     2
100
AcDbCircle
 10
181.5
 20
40.5
 30
0.0
 40
0.5
100
AcDbArc
 50
180.0
 51
270.0
  0
ARC
  5
487
100
AcDbEntity
  8
LAY-1
  6
CONTINUOUS
 62
     2
100
AcDbCircle
 10
226.5
 20
40.5
 30
0.0
 40
0.5
100
AcDbArc
 50
270.0
 51
0.0
  0
LINE
  5
488
100
AcDbEntity
  8
LAY-1
  6
CONTINUOUS
 62
     2
100
AcDbLine
 10
204.0
 20
40.0
 30
0.0
 11
226.5
 21
40.0
 31
0.0
  0
LINE
  5
489
100
AcDbEntity
  8
LAY-1
  6
CONTINUOUS
 62
     2
100
AcDbLine
 10
227.0
 20
52.0
 30
0.0
 11
227.0
 21
40.5
 31
0.0
  0
LINE
  5
48A
100
AcDbEntity
  8
LAY-1
  6
CONTINUOUS
 62
     2
100
AcDbLine
 10
181.0
 20
52.0
 30
0.0
 11
181.0
 21
40.5
 31
0.0
  0
TEXT
  5
48B
100
AcDbEntity
  8
LAY-1
  6
CONTINUOUS
 62
     3
100
AcDbText
 10
306.25
 20
41.5
 30
0.0
 40
15.0
  1
３３
 50
90.0
 41
0.84
  7
EXCADSTD
 72
     5
 11
306.25
 21
68.998
 31
0.0
100
AcDbText
  0
LINE
  5
48C
100
AcDbEntity
  8
LAY-1
  6
CONTINUOUS
 62
     1
100
AcDbLine
 10
249.0
 20
73.0
 30
0.0
 11
307.5
 21
73.0
 31
0.0
  0
LINE
  5
48D
100
AcDbEntity
  8
LAY-1
  6
CONTINUOUS
 62
     1
100
AcDbLine
 10
223.8
 20
40.0
 30
0.0
 11
307.5
 21
40.0
 31
0.0
  0
LINE
  5
48E
100
AcDbEntity
  8
LAY-1
  6
CONTINUOUS
 62
     1
100
AcDbLine
 10
307.0
 20
73.0
 30
0.0
 11
307.0
 21
40.0
 31
0.0
  0
LINE
  5
48F
100
AcDbEntity
  8
LAY-1
  6
CONTINUOUS
 62
     1
100
AcDbLine
 10
307.333333
 20
71.0
 30
0.0
 11
307.0
 21
73.0
 31
0.0
  0
LINE
  5
490
100
AcDbEntity
  8
LAY-1
  6
CONTINUOUS
 62
     1
100
AcDbLine
 10
307.0
 20
73.0
 30
0.0
 11
306.666667
 21
71.0
 31
0.0
  0
LINE
  5
491
100
AcDbEntity
  8
LAY-1
  6
CONTINUOUS
 62
     1
100
AcDbLine
 10
306.666667
 20
42.0
 30
0.0
 11
307.0
 21
40.0
 31
0.0
  0
LINE
  5
492
100
AcDbEntity
  8
LAY-1
  6
CONTINUOUS
 62
     1
100
AcDbLine
 10
307.0
 20
40.0
 30
0.0
 11
307.333333
 21
42.0
 31
0.0
  0
LINE
  5
493
100
AcDbEntity
  8
LAY-1
  6
CONTINUOUS
 62
     3
100
AcDbLine
 10
226.257554
 20
155.220142
 30
0.0
 11
224.92509
 21
154.239244
 31
0.0
  0
LINE
  5
494
100
AcDbEntity
  8
LAY-1
  6
CONTINUOUS
 62
     3
100
AcDbLine
 10
226.257554
 20
155.220142
 30
0.0
 11
222.640432
 21
163.111521
 31
0.0
  0
LINE
  5
495
100
AcDbEntity
  8
LAY-1
  6
CONTINUOUS
 62
     3
100
AcDbLine
 10
222.640432
 20
163.111521
 30
0.0
 11
221.363449
 21
162.009583
 31
0.0
  0
LINE
  5
496
100
AcDbEntity
  8
LAY-1
  6
CONTINUOUS
 62
     3
100
AcDbLine
 10
224.92509
 20
154.239244
 30
0.0
 11
221.363449
 21
162.009583
 31
0.0
  0
LINE
  5
497
100
AcDbEntity
  8
LAY-1
  6
CONTINUOUS
 62
     3
100
AcDbLine
 10
215.791926
 20
150.582561
 30
0.0
 11
215.544121
 21
151.888939
 31
0.0
  0
LINE
  5
498
100
AcDbEntity
  8
LAY-1
  6
CONTINUOUS
 62
     3
100
AcDbLine
 10
221.289012
 20
152.887398
 30
0.0
 11
215.791926
 21
150.582561
 31
0.0
  0
LINE
  5
499
100
AcDbEntity
  8
LAY-1
  6
CONTINUOUS
 62
     3
100
AcDbLine
 10
217.771672
 20
160.538603
 30
0.0
 11
216.258424
 21
159.823535
 31
0.0
  0
LINE
  5
49A
100
AcDbEntity
  8
LAY-1
  6
CONTINUOUS
 62
     3
100
AcDbLine
 10
221.289012
 20
152.887398
 30
0.0
 11
220.96198
 21
154.611442
 31
0.0
  0
LINE
  5
49B
100
AcDbEntity
  8
LAY-1
  6
CONTINUOUS
 62
     3
100
AcDbLine
 10
217.765717
 20
160.569997
 30
0.0
 11
219.076215
 21
153.66132
 31
0.0
  0
LINE
  5
49C
100
AcDbEntity
  8
LAY-1
  6
CONTINUOUS
 62
     3
100
AcDbLine
 10
216.258424
 20
159.823535
 30
0.0
 11
217.571168
 21
152.903018
 31
0.0
  0
LINE
  5
49D
100
AcDbEntity
  8
LAY-1
  6
CONTINUOUS
 62
     3
100
AcDbLine
 10
217.571168
 20
152.903018
 30
0.0
 11
215.545372
 21
151.882343
 31
0.0
  0
LINE
  5
49E
100
AcDbEntity
  8
LAY-1
  6
CONTINUOUS
 62
     3
100
AcDbLine
 10
220.96198
 20
154.611442
 30
0.0
 11
219.076215
 21
153.66132
 31
0.0
  0
ELLIPSE
  5
49F
100
AcDbEntity
  8
LAY-1
  6
CONTINUOUS
 62
     3
100
AcDbEllipse
 10
210.894322
 20
154.096994
 30
0.0
 11
0.4219769718135797
 21
-2.7196141108932532
 31
0.0
210
0.0
220
0.0
230
1.0
 40
0.471484
 41
0.0
 42
6.2831853071796004
  0
ELLIPSE
  5
4A0
100
AcDbEntity
  8
LAY-1
  6
CONTINUOUS
 62
     3
100
AcDbEllipse
 10
210.892262
 20
154.097438
 30
0.0
 11
0.4595922085097702
 21
-4.3575717039029485
 31
0.0
210
0.0
220
0.0
230
1.0
 40
0.66547
 41
0.0
 42
6.2831853071796004
  0
LINE
  5
4A1
100
AcDbEntity
  8
LAY-1
  6
CONTINUOUS
 62
     3
100
AcDbLine
 10
197.359577
 20
149.821849
 30
0.0
 11
195.701487
 21
150.025341
 31
0.0
  0
LINE
  5
4A2
100
AcDbEntity
  8
LAY-1
  6
CONTINUOUS
 62
     3
100
AcDbLine
 10
194.667098
 20
150.181355
 30
0.0
 11
192.920901
 21
150.496105
 31
0.0
  0
LINE
  5
4A3
100
AcDbEntity
  8
LAY-1
  6
CONTINUOUS
 62
     3
100
AcDbLine
 10
194.667098
 20
150.181355
 30
0.0
 11
197.192656
 21
153.884781
 31
0.0
  0
LINE
  5
4A4
100
AcDbEntity
  8
LAY-1
  6
CONTINUOUS
 62
     3
100
AcDbLine
 10
195.701487
 20
150.025341
 30
0.0
 11
198.837154
 21
158.141068
 31
0.0
  0
LINE
  5
4A5
100
AcDbEntity
  8
LAY-1
  6
CONTINUOUS
 62
     3
100
AcDbLine
 10
197.359577
 20
149.821849
 30
0.0
 11
200.528198
 21
158.022864
 31
0.0
  0
LINE
  5
4A6
100
AcDbEntity
  8
LAY-1
  6
CONTINUOUS
 62
     3
100
AcDbLine
 10
197.192656
 20
153.884781
 30
0.0
 11
197.585948
 21
158.274146
 31
0.0
  0
LINE
  5
4A7
100
AcDbEntity
  8
LAY-1
  6
CONTINUOUS
 62
     3
100
AcDbLine
 10
197.585948
 20
158.274146
 30
0.0
 11
195.979919
 21
158.502505
 31
0.0
  0
LINE
  5
4A8
100
AcDbEntity
  8
LAY-1
  6
CONTINUOUS
 62
     3
100
AcDbLine
 10
200.528198
 20
158.022864
 30
0.0
 11
198.837154
 21
158.141068
 31
0.0
  0
LINE
  5
4A9
100
AcDbEntity
  8
LAY-1
  6
CONTINUOUS
 62
     3
100
AcDbLine
 10
195.616741
 20
154.449229
 30
0.0
 11
195.982275
 21
158.528797
 31
0.0
  0
LINE
  5
4AA
100
AcDbEntity
  8
LAY-1
  6
CONTINUOUS
 62
     3
100
AcDbLine
 10
192.920901
 20
150.496105
 30
0.0
 11
195.616741
 21
154.449229
 31
0.0
  0
ELLIPSE
  5
4AB
100
AcDbEntity
  8
LAY-1
  6
CONTINUOUS
 62
     3
100
AcDbEllipse
 10
190.450867
 20
155.925622
 30
0.0
 11
-1.5461579432981385
 21
-2.276787449738555
 31
0.0
210
0.0
220
0.0
230
1.0
 40
0.471484
 41
0.0
 42
6.2831853071796004
  0
ELLIPSE
  5
4AC
100
AcDbEntity
  8
LAY-1
  6
CONTINUOUS
 62
     3
100
AcDbEllipse
 10
190.449664
 20
155.927351
 30
0.0
 11
-2.6357322929876532
 21
-3.500367328221567
 31
0.0
210
0.0
220
0.0
230
1.0
 40
0.66547
 41
0.0
 42
6.2831853071796004
  0
LINE
  5
4AD
100
AcDbEntity
  8
LAY-1
  6
CONTINUOUS
 62
     3
100
AcDbLine
 10
182.970389
 20
154.83368
 30
0.0
 11
189.122673
 21
161.176803
 31
0.0
  0
LINE
  5
4AE
100
AcDbEntity
  8
LAY-1
  6
CONTINUOUS
 62
     3
100
AcDbLine
 10
180.609299
 20
156.1834
 30
0.0
 11
179.10071
 21
157.139888
 31
0.0
  0
LINE
  5
4AF
100
AcDbEntity
  8
LAY-1
  6
CONTINUOUS
 62
     3
100
AcDbLine
 10
182.970389
 20
154.83368
 30
0.0
 11
181.505782
 21
155.650471
 31
0.0
  0
LINE
  5
4B0
100
AcDbEntity
  8
LAY-1
  6
CONTINUOUS
 62
     3
100
AcDbLine
 10
180.609299
 20
156.1834
 30
0.0
 11
184.356943
 21
158.590073
 31
0.0
  0
LINE
  5
4B1
100
AcDbEntity
  8
LAY-1
  6
CONTINUOUS
 62
     3
100
AcDbLine
 10
181.505782
 20
155.650471
 30
0.0
 11
187.589693
 21
161.923102
 31
0.0
  0
LINE
  5
4B2
100
AcDbEntity
  8
LAY-1
  6
CONTINUOUS
 62
     3
100
AcDbLine
 10
184.356943
 20
158.590073
 30
0.0
 11
186.45987
 21
162.525184
 31
0.0
  0
LINE
  5
4B3
100
AcDbEntity
  8
LAY-1
  6
CONTINUOUS
 62
     3
100
AcDbLine
 10
185.057342
 20
163.337846
 30
0.0
 11
186.45987
 21
162.525184
 31
0.0
  0
LINE
  5
4B4
100
AcDbEntity
  8
LAY-1
  6
CONTINUOUS
 62
     3
100
AcDbLine
 10
187.589693
 20
161.923102
 30
0.0
 11
189.122673
 21
161.176803
 31
0.0
  0
LINE
  5
4B5
100
AcDbEntity
  8
LAY-1
  6
CONTINUOUS
 62
     3
100
AcDbLine
 10
183.126853
 20
159.72541
 30
0.0
 11
185.057342
 21
163.337846
 31
0.0
  0
LINE
  5
4B6
100
AcDbEntity
  8
LAY-1
  6
CONTINUOUS
 62
     3
100
AcDbLine
 10
179.10071
 20
157.139888
 30
0.0
 11
183.126853
 21
159.72541
 31
0.0
  0
LINE
  5
4B7
100
AcDbEntity
  8
LAY-1
  6
CONTINUOUS
 62
     3
100
AcDbLine
 10
182.910317
 20
164.978856
 30
0.0
 11
181.454844
 21
165.85269
 31
0.0
  0
LINE
  5
4B8
100
AcDbEntity
  8
LAY-1
  6
CONTINUOUS
 62
     3
100
AcDbLine
 10
174.944052
 20
160.067056
 30
0.0
 11
181.454844
 21
165.85269
 31
0.0
  0
LINE
  5
4B9
100
AcDbEntity
  8
LAY-1
  6
CONTINUOUS
 62
     3
100
AcDbLine
 10
176.329887
 20
159.13134
 30
0.0
 11
174.944052
 21
160.067056
 31
0.0
  0
LINE
  5
4BA
100
AcDbEntity
  8
LAY-1
  6
CONTINUOUS
 62
     3
100
AcDbLine
 10
176.329887
 20
159.13134
 30
0.0
 11
182.910317
 21
164.978856
 31
0.0
  0
ARC
  5
4BB
100
AcDbEntity
  8
LAY-1
  6
CONTINUOUS
 62
     2
100
AcDbCircle
 10
204.0
 20
193.0
 30
0.0
 40
58.0
100
AcDbArc
 50
99.854281
 51
165.389537
  0
ARC
  5
4BC
100
AcDbEntity
  8
LAY-1
  6
CONTINUOUS
 62
     2
100
AcDbCircle
 10
204.0
 20
193.0
 30
0.0
 40
58.0
100
AcDbArc
 50
194.610463
 51
255.37421
  0
ARC
  5
4BD
100
AcDbEntity
  8
LAY-1
  6
CONTINUOUS
 62
     2
100
AcDbCircle
 10
204.0
 20
193.0
 30
0.0
 40
58.0
100
AcDbArc
 50
255.37421
 51
80.145719
  0
LINE
  5
4BE
100
AcDbEntity
  8
LAY-1
  6
CONTINUOUS
 62
     2
100
AcDbLine
 10
217.00679
 20
-122.554319
 30
0.0
 11
165.782273
 21
-122.554319
 31
0.0
  0
LINE
  5
4BF
100
AcDbEntity
  8
LAY-1
  6
CONTINUOUS
 62
     2
100
AcDbLine
 10
131.25
 20
-136.5
 30
0.0
 11
131.25
 21
-120.5
 31
0.0
  0
LINE
  5
4C0
100
AcDbEntity
  8
LAY-1
  6
CONTINUOUS
 62
     2
100
AcDbLine
 10
131.25
 20
-120.5
 30
0.0
 11
160.75
 21
-120.5
 31
0.0
  0
ARC
  5
4C1
100
AcDbEntity
  8
LAY-1
  6
CONTINUOUS
 62
     2
100
AcDbCircle
 10
162.75
 20
-120.828994
 30
0.0
 40
2.0
100
AcDbArc
 50
180.0
 51
275.339237
  0
ARC
  5
4C2
100
AcDbEntity
  8
LAY-1
  6
CONTINUOUS
 62
     2
100
AcDbCircle
 10
216.42792
 20
453.554319
 30
0.0
 40
5.0
100
AcDbArc
 50
90.0
 51
124.556363
  0
ARC
  5
4C3
100
AcDbEntity
  8
LAY-1
  6
CONTINUOUS
 62
     2
100
AcDbCircle
 10
191.57208
 20
453.554319
 30
0.0
 40
5.0
100
AcDbArc
 50
55.443637
 51
90.0
  0
CIRCLE
  5
4C4
100
AcDbEntity
  8
LAY-1
  6
CONTINUOUS
 62
     1
100
AcDbCircle
 10
204.0
 20
460.5
 30
0.0
 40
6.5785
  0
LINE
  5
4C5
100
AcDbEntity
  8
LAY-1
  6
EXLTYPE3
 62
     1
100
AcDbLine
 10
194.5
 20
460.5
 30
0.0
 11
212.9
 21
460.5
 31
0.0
  0
LINE
  5
4C6
100
AcDbEntity
  8
LAY-1
  6
CONTINUOUS
 62
     2
100
AcDbLine
 10
488.7
 20
40.0
 30
0.0
 11
511.2
 21
40.0
 31
0.0
  0
ARC
  5
4C7
100
AcDbEntity
  8
LAY-1
  6
CONTINUOUS
 62
     2
100
AcDbCircle
 10
511.2
 20
40.5
 30
0.0
 40
0.5
100
AcDbArc
 50
270.0
 51
0.0
  0
ARC
  5
4C8
100
AcDbEntity
  8
LAY-1
  6
CONTINUOUS
 62
     2
100
AcDbCircle
 10
466.2
 20
40.5
 30
0.0
 40
0.5
100
AcDbArc
 50
180.0
 51
270.0
  0
LINE
  5
4C9
100
AcDbEntity
  8
LAY-1
  6
CONTINUOUS
 62
     2
100
AcDbLine
 10
488.7
 20
40.0
 30
0.0
 11
466.2
 21
40.0
 31
0.0
  0
LINE
  5
4CA
100
AcDbEntity
  8
LAY-1
  6
CONTINUOUS
 62
     2
100
AcDbLine
 10
511.7
 20
62.0
 30
0.0
 11
511.7
 21
40.5
 31
0.0
  0
LINE
  5
4CB
100
AcDbEntity
  8
LAY-1
  6
CONTINUOUS
 62
     2
100
AcDbLine
 10
465.7
 20
63.552778
 30
0.0
 11
465.7
 21
40.5
 31
0.0
  0
LINE
  5
4CC
100
AcDbEntity
  8
LAY-1
  6
CONTINUOUS
 62
     2
100
AcDbLine
 10
-80.7
 20
40.0
 30
0.0
 11
-58.2
 21
40.0
 31
0.0
  0
ARC
  5
4CD
100
AcDbEntity
  8
LAY-1
  6
CONTINUOUS
 62
     2
100
AcDbCircle
 10
-58.2
 20
40.5
 30
0.0
 40
0.5
100
AcDbArc
 50
270.0
 51
0.0
  0
ARC
  5
4CE
100
AcDbEntity
  8
LAY-1
  6
CONTINUOUS
 62
     2
100
AcDbCircle
 10
-103.2
 20
40.5
 30
0.0
 40
0.5
100
AcDbArc
 50
180.0
 51
270.0
  0
LINE
  5
4CF
100
AcDbEntity
  8
LAY-1
  6
CONTINUOUS
 62
     2
100
AcDbLine
 10
-80.7
 20
40.0
 30
0.0
 11
-103.2
 21
40.0
 31
0.0
  0
LINE
  5
4D0
100
AcDbEntity
  8
LAY-1
  6
CONTINUOUS
 62
     2
100
AcDbLine
 10
-57.7
 20
63.552778
 30
0.0
 11
-57.7
 21
40.5
 31
0.0
  0
LINE
  5
4D1
100
AcDbEntity
  8
LAY-1
  6
CONTINUOUS
 62
     2
100
AcDbLine
 10
-103.7
 20
62.0
 30
0.0
 11
-103.7
 21
40.5
 31
0.0
  0
LINE
  5
4D2
100
AcDbEntity
  8
LAY-1
  6
CONTINUOUS
 62
     2
100
AcDbLine
 10
-21.2
 20
265.1
 30
0.0
 11
-21.2
 21
226.1
 31
0.0
  0
ARC
  5
4D3
100
AcDbEntity
  8
LAY-1
  6
CONTINUOUS
 62
     2
100
AcDbCircle
 10
-16.2
 20
226.1
 30
0.0
 40
5.0
100
AcDbArc
 50
180.0
 51
270.0
  0
LINE
  5
4D4
100
AcDbEntity
  8
LAY-1
  6
CONTINUOUS
 62
     2
100
AcDbLine
 10
-49.333975
 20
267.0
 30
0.0
 11
-22.2
 21
267.0
 31
0.0
  0
LINE
  5
4D5
100
AcDbEntity
  8
LAY-1
  6
CONTINUOUS
 62
     2
100
AcDbLine
 10
-21.2
 20
266.0
 30
0.0
 11
-21.2
 21
253.5
 31
0.0
  0
ARC
  5
4D6
100
AcDbEntity
  8
LAY-1
  6
CONTINUOUS
 62
     2
100
AcDbCircle
 10
-22.2
 20
266.0
 30
0.0
 40
1.0
100
AcDbArc
 50
0.0
 51
90.0
  0
LINE
  5
4D7
100
AcDbEntity
  8
LAY-1
  6
CONTINUOUS
 62
     2
100
AcDbLine
 10
443.254319
 20
154.782273
 30
0.0
 11
443.254319
 21
231.217727
 31
0.0
  0
ARC
  5
4D8
100
AcDbEntity
  8
LAY-1
  6
CONTINUOUS
 62
     2
100
AcDbCircle
 10
424.2
 20
226.1
 30
0.0
 40
5.0
100
AcDbArc
 50
270.0
 51
0.0
  0
ARC
  5
4D9
100
AcDbEntity
  8
LAY-1
  6
CONTINUOUS
 62
     2
100
AcDbCircle
 10
430.2
 20
266.0
 30
0.0
 40
1.0
100
AcDbArc
 50
90.0
 51
180.0
  0
LINE
  5
4DA
100
AcDbEntity
  8
LAY-1
  6
CONTINUOUS
 62
     2
100
AcDbLine
 10
457.333975
 20
267.0
 30
0.0
 11
430.2
 21
267.0
 31
0.0
  0
LINE
  5
4DB
100
AcDbEntity
  8
LAY-1
  6
CONTINUOUS
 62
     2
100
AcDbLine
 10
429.2
 20
266.0
 30
0.0
 11
429.2
 21
226.1
 31
0.0
  0
ARC
  5
4DC
100
AcDbEntity
  8
LAY-1
  6
CONTINUOUS
 62
     2
100
AcDbCircle
 10
146.0
 20
180.25
 30
0.0
 40
0.8
100
AcDbArc
 50
1.79781
 51
178.20219
  0
CIRCLE
  5
4DD
100
AcDbEntity
  8
LAY-1
  6
CONTINUOUS
 62
     2
100
AcDbCircle
 10
146.0
 20
193.0
 30
0.0
 40
10.0
  0
CIRCLE
  5
4DE
100
AcDbEntity
  8
LAY-1
  6
CONTINUOUS
 62
     2
100
AcDbCircle
 10
146.0
 20
193.0
 30
0.0
 40
12.75
  0
CIRCLE
  5
4DF
100
AcDbEntity
  8
LAY-1
  6
CONTINUOUS
 62
     2
100
AcDbCircle
 10
146.0
 20
193.0
 30
0.0
 40
14.75
  0
ARC
  5
4E0
100
AcDbEntity
  8
LAY-1
  6
CONTINUOUS
 62
     2
100
AcDbCircle
 10
204.0
 20
193.0
 30
0.0
 40
58.0
100
AcDbArc
 50
189.854281
 51
189.890859
  0
ARC
  5
4E1
100
AcDbEntity
  8
LAY-1
  6
CONTINUOUS
 62
     2
100
AcDbCircle
 10
204.0
 20
193.0
 30
0.0
 40
29.0
100
AcDbArc
 50
48.478194
 51
71.460938
  0
LINE
  5
4E2
100
AcDbEntity
  8
LAY-1
  6
CONTINUOUS
 62
     2
100
AcDbLine
 10
232.421752
 20
198.762295
 30
0.0
 11
223.224246
 21
214.712401
 31
0.0
  0
ARC
  5
4E3
100
AcDbEntity
  8
LAY-1
  6
CONTINUOUS
 62
     2
100
AcDbCircle
 10
204.0
 20
193.0
 30
0.0
 40
29.0
100
AcDbArc
 50
348.478194
 51
11.460938
  0
LINE
  5
4E4
100
AcDbEntity
  8
LAY-1
  6
CONTINUOUS
 62
     2
100
AcDbLine
 10
223.201169
 20
171.267188
 30
0.0
 11
232.415614
 21
187.207515
 31
0.0
  0
ARC
  5
4E5
100
AcDbEntity
  8
LAY-1
  6
CONTINUOUS
 62
     2
100
AcDbCircle
 10
204.0
 20
193.0
 30
0.0
 40
29.0
100
AcDbArc
 50
288.478194
 51
311.460938
  0
LINE
  5
4E6
100
AcDbEntity
  8
LAY-1
  6
CONTINUOUS
 62
     2
100
AcDbLine
 10
194.779418
 20
165.504894
 30
0.0
 11
213.191368
 21
165.495114
 31
0.0
  0
ARC
  5
4E7
100
AcDbEntity
  8
LAY-1
  6
CONTINUOUS
 62
     2
100
AcDbCircle
 10
204.0
 20
193.0
 30
0.0
 40
29.0
100
AcDbArc
 50
228.478194
 51
251.460938
  0
LINE
  5
4E8
100
AcDbEntity
  8
LAY-1
  6
CONTINUOUS
 62
     2
100
AcDbLine
 10
175.578248
 20
187.237705
 30
0.0
 11
184.775754
 21
171.287599
 31
0.0
  0
ARC
  5
4E9
100
AcDbEntity
  8
LAY-1
  6
CONTINUOUS
 62
     2
100
AcDbCircle
 10
204.0
 20
193.0
 30
0.0
 40
29.0
100
AcDbArc
 50
108.478194
 51
131.460938
  0
ARC
  5
4EA
100
AcDbEntity
  8
LAY-1
  6
CONTINUOUS
 62
     2
100
AcDbCircle
 10
204.0
 20
193.0
 30
0.0
 40
29.0
100
AcDbArc
 50
168.478194
 51
191.460938
  0
LINE
  5
4EB
100
AcDbEntity
  8
LAY-1
  6
CONTINUOUS
 62
     2
100
AcDbLine
 10
184.798831
 20
214.732812
 30
0.0
 11
175.584386
 21
198.792485
 31
0.0
  0
LINE
  5
4EC
100
AcDbEntity
  8
LAY-1
  6
CONTINUOUS
 62
     2
100
AcDbLine
 10
213.220582
 20
220.495106
 30
0.0
 11
194.808632
 21
220.504886
 31
0.0
  0
ARC
  5
4ED
100
AcDbEntity
  8
LAY-1
  6
CONTINUOUS
 62
     2
100
AcDbCircle
 10
214.0
 20
221.284271
 30
0.0
 40
3.0
100
AcDbArc
 50
180.0
 51
195.229174
  0
ARC
  5
4EE
100
AcDbEntity
  8
LAY-1
  6
CONTINUOUS
 62
     2
100
AcDbCircle
 10
194.0
 20
221.284271
 30
0.0
 40
3.0
100
AcDbArc
 50
344.920161
 51
0.0
  0
LINE
  5
4EF
100
AcDbEntity
  8
LAY-1
  6
CONTINUOUS
 62
     2
100
AcDbLine
 10
194.0
 20
266.321211
 30
0.0
 11
194.0
 21
250.5
 31
0.0
  0
LINE
  5
4F0
100
AcDbEntity
  8
LAY-1
  6
CONTINUOUS
 62
     2
100
AcDbLine
 10
214.0
 20
266.321211
 30
0.0
 11
214.0
 21
250.5
 31
0.0
  0
LINE
  5
4F1
100
AcDbEntity
  8
LAY-1
  6
CONTINUOUS
 62
     2
100
AcDbLine
 10
211.0
 20
247.5
 30
0.0
 11
197.0
 21
247.5
 31
0.0
  0
LINE
  5
4F2
100
AcDbEntity
  8
LAY-1
  6
CONTINUOUS
 62
     2
100
AcDbLine
 10
197.0
 20
247.5
 30
0.0
 11
194.0
 21
250.5
 31
0.0
  0
LINE
  5
4F3
100
AcDbEntity
  8
LAY-1
  6
CONTINUOUS
 62
     2
100
AcDbLine
 10
211.0
 20
247.5
 30
0.0
 11
214.0
 21
250.5
 31
0.0
  0
LINE
  5
4F4
100
AcDbEntity
  8
LAY-1
  6
CONTINUOUS
 62
     2
100
AcDbLine
 10
214.0
 20
250.5
 30
0.0
 11
194.0
 21
250.5
 31
0.0
  0
LINE
  5
4F5
100
AcDbEntity
  8
LAY-1
  6
CONTINUOUS
 62
     2
100
AcDbLine
 10
211.0
 20
221.284271
 30
0.0
 11
211.0
 21
247.5
 31
0.0
  0
LINE
  5
4F6
100
AcDbEntity
  8
LAY-1
  6
CONTINUOUS
 62
     2
100
AcDbLine
 10
197.0
 20
221.284271
 30
0.0
 11
197.0
 21
247.5
 31
0.0
  0
LINE
  5
4F7
100
AcDbEntity
  8
LAY-1
  6
CONTINUOUS
 62
     2
100
AcDbLine
 10
219.650654
 20
472.5
 30
0.0
 11
186.840654
 21
472.5
 31
0.0
  0
ARC
  5
4F8
100
AcDbEntity
  8
LAY-1
  6
CONTINUOUS
 62
     2
100
AcDbCircle
 10
190.683884
 20
469.5
 30
0.0
 40
3.0
100
AcDbArc
 50
2.0
 51
90.0
  0
ARC
  5
4F9
100
AcDbEntity
  8
LAY-1
  6
CONTINUOUS
 62
     2
100
AcDbCircle
 10
217.316116
 20
469.5
 30
0.0
 40
3.0
100
AcDbArc
 50
90.0
 51
178.0
  0
LINE
  5
4FA
100
AcDbEntity
  8
LAY-1
  6
CONTINUOUS
 62
     2
100
AcDbLine
 10
214.317943
 20
469.604698
 30
0.0
 11
214.0
 21
460.5
 31
0.0
  0
LINE
  5
4FB
100
AcDbEntity
  8
LAY-1
  6
CONTINUOUS
 62
     2
100
AcDbLine
 10
193.682057
 20
469.604698
 30
0.0
 11
194.0
 21
460.5
 31
0.0
  0
ARC
  5
4FC
100
AcDbEntity
  8
LAY-1
  6
CONTINUOUS
 62
     2
100
AcDbCircle
 10
204.0
 20
460.5
 30
0.0
 40
10.0
100
AcDbArc
 50
180.0
 51
0.0
  0
CIRCLE
  5
4FD
100
AcDbEntity
  8
LAY-1
  6
CONTINUOUS
 62
     2
100
AcDbCircle
 10
204.0
 20
460.5
 30
0.0
 40
8.5
  0
CIRCLE
  5
4FE
100
AcDbEntity
  8
LAY-1
  6
CONTINUOUS
 62
     2
100
AcDbCircle
 10
204.0
 20
460.5
 30
0.0
 40
5.694886
  0
LINE
  5
4FF
100
AcDbEntity
  8
LAY-1
  6
CONTINUOUS
 62
     2
100
AcDbLine
 10
-62.7
 20
119.0
 30
0.0
 11
-62.7
 21
267.0
 31
0.0
  0
LINE
  5
500
100
AcDbEntity
  8
LAY-1
  6
CONTINUOUS
 62
     1
100
AcDbLine
 10
-64.2
 20
249.588366
 30
0.0
 11
-64.2
 21
261.135371
 31
0.0
  0
LINE
  5
501
100
AcDbEntity
  8
LAY-1
  6
CONTINUOUS
 62
     1
100
AcDbLine
 10
-62.7
 20
249.588366
 30
0.0
 11
-68.753418
 21
249.588366
 31
0.0
  0
LINE
  5
502
100
AcDbEntity
  8
LAY-1
  6
CONTINUOUS
 62
     1
100
AcDbLine
 10
-68.753418
 20
249.588366
 30
0.0
 11
-69.2
 21
250.361868
 31
0.0
  0
LINE
  5
503
100
AcDbEntity
  8
LAY-1
  6
CONTINUOUS
 62
     1
100
AcDbLine
 10
-69.2
 20
250.361868
 30
0.0
 11
-69.2
 21
260.361868
 31
0.0
  0
LINE
  5
504
100
AcDbEntity
  8
LAY-1
  6
CONTINUOUS
 62
     1
100
AcDbLine
 10
-69.2
 20
260.361868
 30
0.0
 11
-68.753418
 21
261.135371
 31
0.0
  0
LINE
  5
505
100
AcDbEntity
  8
LAY-1
  6
CONTINUOUS
 62
     1
100
AcDbLine
 10
-68.753418
 20
261.135371
 30
0.0
 11
-62.7
 21
261.135371
 31
0.0
  0
ARC
  5
506
100
AcDbEntity
  8
LAY-1
  6
CONTINUOUS
 62
     1
100
AcDbCircle
 10
-66.644177
 20
259.691995
 30
0.0
 40
2.555823
100
AcDbArc
 50
145.615753
 51
214.384247
  0
ARC
  5
507
100
AcDbEntity
  8
LAY-1
  6
CONTINUOUS
 62
     1
100
AcDbCircle
 10
-59.646582
 20
255.361868
 30
0.0
 40
9.553418
100
AcDbArc
 50
162.412046
 51
197.587954
  0
ARC
  5
508
100
AcDbEntity
  8
LAY-1
  6
CONTINUOUS
 62
     1
100
AcDbCircle
 10
-66.644177
 20
251.031741
 30
0.0
 40
2.555823
100
AcDbArc
 50
145.615753
 51
214.384247
  0
LINE
  5
509
100
AcDbEntity
  8
LAY-1
  6
CONTINUOUS
 62
     1
100
AcDbLine
 10
-68.753418
 20
252.475117
 30
0.0
 11
-64.2
 21
252.475117
 31
0.0
  0
LINE
  5
50A
100
AcDbEntity
  8
LAY-1
  6
CONTINUOUS
 62
     1
100
AcDbLine
 10
-68.753418
 20
258.24862
 30
0.0
 11
-64.2
 21
258.24862
 31
0.0
  0
LINE
  5
50B
100
AcDbEntity
  8
LAY-1
  6
CONTINUOUS
 62
     1
100
AcDbLine
 10
-64.2
 20
213.057629
 30
0.0
 11
-64.2
 21
224.604634
 31
0.0
  0
LINE
  5
50C
100
AcDbEntity
  8
LAY-1
  6
CONTINUOUS
 62
     1
100
AcDbLine
 10
-62.7
 20
213.057629
 30
0.0
 11
-68.753418
 21
213.057629
 31
0.0
  0
LINE
  5
50D
100
AcDbEntity
  8
LAY-1
  6
CONTINUOUS
 62
     1
100
AcDbLine
 10
-68.753418
 20
213.057629
 30
0.0
 11
-69.2
 21
213.831132
 31
0.0
  0
LINE
  5
50E
100
AcDbEntity
  8
LAY-1
  6
CONTINUOUS
 62
     1
100
AcDbLine
 10
-69.2
 20
213.831132
 30
0.0
 11
-69.2
 21
223.831132
 31
0.0
  0
LINE
  5
50F
100
AcDbEntity
  8
LAY-1
  6
CONTINUOUS
 62
     1
100
AcDbLine
 10
-69.2
 20
223.831132
 30
0.0
 11
-68.753418
 21
224.604634
 31
0.0
  0
LINE
  5
510
100
AcDbEntity
  8
LAY-1
  6
CONTINUOUS
 62
     1
100
AcDbLine
 10
-68.753418
 20
224.604634
 30
0.0
 11
-62.7
 21
224.604634
 31
0.0
  0
ARC
  5
511
100
AcDbEntity
  8
LAY-1
  6
CONTINUOUS
 62
     1
100
AcDbCircle
 10
-66.644177
 20
223.161259
 30
0.0
 40
2.555823
100
AcDbArc
 50
145.615753
 51
214.384247
  0
ARC
  5
512
100
AcDbEntity
  8
LAY-1
  6
CONTINUOUS
 62
     1
100
AcDbCircle
 10
-59.646582
 20
218.831132
 30
0.0
 40
9.553418
100
AcDbArc
 50
162.412046
 51
197.587954
  0
ARC
  5
513
100
AcDbEntity
  8
LAY-1
  6
CONTINUOUS
 62
     1
100
AcDbCircle
 10
-66.644177
 20
214.501005
 30
0.0
 40
2.555823
100
AcDbArc
 50
145.615753
 51
214.384247
  0
LINE
  5
514
100
AcDbEntity
  8
LAY-1
  6
CONTINUOUS
 62
     1
100
AcDbLine
 10
-68.753418
 20
215.94438
 30
0.0
 11
-64.2
 21
215.94438
 31
0.0
  0
LINE
  5
515
100
AcDbEntity
  8
LAY-1
  6
CONTINUOUS
 62
     1
100
AcDbLine
 10
-68.753418
 20
221.717883
 30
0.0
 11
-64.2
 21
221.717883
 31
0.0
  0
LINE
  5
516
100
AcDbEntity
  8
LAY-1
  6
CONTINUOUS
 62
     1
100
AcDbLine
 10
-64.2
 20
161.395366
 30
0.0
 11
-64.2
 21
172.942371
 31
0.0
  0
LINE
  5
517
100
AcDbEntity
  8
LAY-1
  6
CONTINUOUS
 62
     1
100
AcDbLine
 10
-62.7
 20
161.395366
 30
0.0
 11
-68.753418
 21
161.395366
 31
0.0
  0
LINE
  5
518
100
AcDbEntity
  8
LAY-1
  6
CONTINUOUS
 62
     1
100
AcDbLine
 10
-68.753418
 20
161.395366
 30
0.0
 11
-69.2
 21
162.168868
 31
0.0
  0
LINE
  5
519
100
AcDbEntity
  8
LAY-1
  6
CONTINUOUS
 62
     1
100
AcDbLine
 10
-69.2
 20
162.168868
 30
0.0
 11
-69.2
 21
172.168868
 31
0.0
  0
LINE
  5
51A
100
AcDbEntity
  8
LAY-1
  6
CONTINUOUS
 62
     1
100
AcDbLine
 10
-69.2
 20
172.168868
 30
0.0
 11
-68.753418
 21
172.942371
 31
0.0
  0
LINE
  5
51B
100
AcDbEntity
  8
LAY-1
  6
CONTINUOUS
 62
     1
100
AcDbLine
 10
-68.753418
 20
172.942371
 30
0.0
 11
-62.7
 21
172.942371
 31
0.0
  0
ARC
  5
51C
100
AcDbEntity
  8
LAY-1
  6
CONTINUOUS
 62
     1
100
AcDbCircle
 10
-66.644177
 20
171.498995
 30
0.0
 40
2.555823
100
AcDbArc
 50
145.615753
 51
214.384247
  0
ARC
  5
51D
100
AcDbEntity
  8
LAY-1
  6
CONTINUOUS
 62
     1
100
AcDbCircle
 10
-59.646582
 20
167.168868
 30
0.0
 40
9.553418
100
AcDbArc
 50
162.412046
 51
197.587954
  0
ARC
  5
51E
100
AcDbEntity
  8
LAY-1
  6
CONTINUOUS
 62
     1
100
AcDbCircle
 10
-66.644177
 20
162.838741
 30
0.0
 40
2.555823
100
AcDbArc
 50
145.615753
 51
214.384247
  0
LINE
  5
51F
100
AcDbEntity
  8
LAY-1
  6
CONTINUOUS
 62
     1
100
AcDbLine
 10
-68.753418
 20
164.282117
 30
0.0
 11
-64.2
 21
164.282117
 31
0.0
  0
LINE
  5
520
100
AcDbEntity
  8
LAY-1
  6
CONTINUOUS
 62
     1
100
AcDbLine
 10
-68.753418
 20
170.05562
 30
0.0
 11
-64.2
 21
170.05562
 31
0.0
  0
LINE
  5
521
100
AcDbEntity
  8
LAY-1
  6
CONTINUOUS
 62
     1
100
AcDbLine
 10
-64.2
 20
124.864629
 30
0.0
 11
-64.2
 21
136.411634
 31
0.0
  0
LINE
  5
522
100
AcDbEntity
  8
LAY-1
  6
CONTINUOUS
 62
     1
100
AcDbLine
 10
-62.7
 20
124.864629
 30
0.0
 11
-68.753418
 21
124.864629
 31
0.0
  0
LINE
  5
523
100
AcDbEntity
  8
LAY-1
  6
CONTINUOUS
 62
     1
100
AcDbLine
 10
-68.753418
 20
124.864629
 30
0.0
 11
-69.2
 21
125.638132
 31
0.0
  0
LINE
  5
524
100
AcDbEntity
  8
LAY-1
  6
CONTINUOUS
 62
     1
100
AcDbLine
 10
-69.2
 20
125.638132
 30
0.0
 11
-69.2
 21
135.638132
 31
0.0
  0
LINE
  5
525
100
AcDbEntity
  8
LAY-1
  6
CONTINUOUS
 62
     1
100
AcDbLine
 10
-69.2
 20
135.638132
 30
0.0
 11
-68.753418
 21
136.411634
 31
0.0
  0
LINE
  5
526
100
AcDbEntity
  8
LAY-1
  6
CONTINUOUS
 62
     1
100
AcDbLine
 10
-68.753418
 20
136.411634
 30
0.0
 11
-62.7
 21
136.411634
 31
0.0
  0
ARC
  5
527
100
AcDbEntity
  8
LAY-1
  6
CONTINUOUS
 62
     1
100
AcDbCircle
 10
-66.644177
 20
134.968259
 30
0.0
 40
2.555823
100
AcDbArc
 50
145.615753
 51
214.384247
  0
ARC
  5
528
100
AcDbEntity
  8
LAY-1
  6
CONTINUOUS
 62
     1
100
AcDbCircle
 10
-59.646582
 20
130.638132
 30
0.0
 40
9.553418
100
AcDbArc
 50
162.412046
 51
197.587954
  0
ARC
  5
529
100
AcDbEntity
  8
LAY-1
  6
CONTINUOUS
 62
     1
100
AcDbCircle
 10
-66.644177
 20
126.308005
 30
0.0
 40
2.555823
100
AcDbArc
 50
145.615753
 51
214.384247
  0
LINE
  5
52A
100
AcDbEntity
  8
LAY-1
  6
CONTINUOUS
 62
     1
100
AcDbLine
 10
-68.753418
 20
127.75138
 30
0.0
 11
-64.2
 21
127.75138
 31
0.0
  0
LINE
  5
52B
100
AcDbEntity
  8
LAY-1
  6
CONTINUOUS
 62
     1
100
AcDbLine
 10
-68.753418
 20
133.524883
 30
0.0
 11
-64.2
 21
133.524883
 31
0.0
  0
ARC
  5
52C
100
AcDbEntity
  8
LAY-1
  6
CONTINUOUS
 62
     2
100
AcDbCircle
 10
-65.7
 20
252.954991
 30
0.0
 40
4.0
100
AcDbArc
 50
285.806498
 51
302.684554
  0
ARC
  5
52D
100
AcDbEntity
  8
LAY-1
  6
CONTINUOUS
 62
     2
100
AcDbCircle
 10
-65.7
 20
133.045009
 30
0.0
 40
4.0
100
AcDbArc
 50
57.315446
 51
74.193502
  0
LINE
  5
52E
100
AcDbEntity
  8
LAY-1
  6
CONTINUOUS
 62
     2
100
AcDbLine
 10
-55.7
 20
119.0
 30
0.0
 11
-62.7
 21
119.0
 31
0.0
  0
LINE
  5
52F
100
AcDbEntity
  8
LAY-1
  6
EXLTYPE4
 62
     1
100
AcDbLine
 10
-74.2
 20
128.179634
 30
0.0
 11
-73.6585
 21
127.638134
 31
0.0
  0
LINE
  5
530
100
AcDbEntity
  8
LAY-1
  6
EXLTYPE4
 62
     1
100
AcDbLine
 10
-74.2
 20
130.638134
 30
0.0
 11
-74.2
 21
128.179634
 31
0.0
  0
LINE
  5
531
100
AcDbEntity
  8
LAY-1
  6
EXLTYPE4
 62
     1
100
AcDbLine
 10
-74.2
 20
133.096634
 30
0.0
 11
-73.6585
 21
133.638134
 31
0.0
  0
LINE
  5
532
100
AcDbEntity
  8
LAY-1
  6
EXLTYPE4
 62
     1
100
AcDbLine
 10
-74.2
 20
130.638134
 30
0.0
 11
-74.2
 21
133.096634
 31
0.0
  0
LINE
  5
533
100
AcDbEntity
  8
LAY-1
  6
EXLTYPE4
 62
     1
100
AcDbLine
 10
-73.6585
 20
127.638134
 30
0.0
 11
-69.2
 21
127.638134
 31
0.0
  0
LINE
  5
534
100
AcDbEntity
  8
LAY-1
  6
EXLTYPE4
 62
     1
100
AcDbLine
 10
-74.2
 20
128.179634
 30
0.0
 11
-69.2
 21
128.179634
 31
0.0
  0
LINE
  5
535
100
AcDbEntity
  8
LAY-1
  6
EXLTYPE4
 62
     1
100
AcDbLine
 10
-74.2
 20
133.096634
 30
0.0
 11
-69.2
 21
133.096634
 31
0.0
  0
LINE
  5
536
100
AcDbEntity
  8
LAY-1
  6
EXLTYPE4
 62
     1
100
AcDbLine
 10
-73.6585
 20
133.638134
 30
0.0
 11
-69.2
 21
133.638134
 31
0.0
  0
LINE
  5
537
100
AcDbEntity
  8
LAY-1
  6
EXLTYPE4
 62
     1
100
AcDbLine
 10
-74.2
 20
164.710371
 30
0.0
 11
-73.6585
 21
164.168871
 31
0.0
  0
LINE
  5
538
100
AcDbEntity
  8
LAY-1
  6
EXLTYPE4
 62
     1
100
AcDbLine
 10
-74.2
 20
167.168871
 30
0.0
 11
-74.2
 21
164.710371
 31
0.0
  0
LINE
  5
539
100
AcDbEntity
  8
LAY-1
  6
EXLTYPE4
 62
     1
100
AcDbLine
 10
-74.2
 20
169.627371
 30
0.0
 11
-73.6585
 21
170.168871
 31
0.0
  0
LINE
  5
53A
100
AcDbEntity
  8
LAY-1
  6
EXLTYPE4
 62
     1
100
AcDbLine
 10
-74.2
 20
167.168871
 30
0.0
 11
-74.2
 21
169.627371
 31
0.0
  0
LINE
  5
53B
100
AcDbEntity
  8
LAY-1
  6
EXLTYPE4
 62
     1
100
AcDbLine
 10
-73.6585
 20
164.168871
 30
0.0
 11
-69.2
 21
164.168871
 31
0.0
  0
LINE
  5
53C
100
AcDbEntity
  8
LAY-1
  6
EXLTYPE4
 62
     1
100
AcDbLine
 10
-74.2
 20
164.710371
 30
0.0
 11
-69.2
 21
164.710371
 31
0.0
  0
LINE
  5
53D
100
AcDbEntity
  8
LAY-1
  6
EXLTYPE4
 62
     1
100
AcDbLine
 10
-74.2
 20
169.627371
 30
0.0
 11
-69.2
 21
169.627371
 31
0.0
  0
LINE
  5
53E
100
AcDbEntity
  8
LAY-1
  6
EXLTYPE4
 62
     1
100
AcDbLine
 10
-73.6585
 20
170.168871
 30
0.0
 11
-69.2
 21
170.168871
 31
0.0
  0
LINE
  5
53F
100
AcDbEntity
  8
LAY-1
  6
EXLTYPE4
 62
     1
100
AcDbLine
 10
-74.2
 20
216.372634
 30
0.0
 11
-73.6585
 21
215.831134
 31
0.0
  0
LINE
  5
540
100
AcDbEntity
  8
LAY-1
  6
EXLTYPE4
 62
     1
100
AcDbLine
 10
-74.2
 20
218.831134
 30
0.0
 11
-74.2
 21
216.372634
 31
0.0
  0
LINE
  5
541
100
AcDbEntity
  8
LAY-1
  6
EXLTYPE4
 62
     1
100
AcDbLine
 10
-74.2
 20
221.289634
 30
0.0
 11
-73.6585
 21
221.831134
 31
0.0
  0
LINE
  5
542
100
AcDbEntity
  8
LAY-1
  6
EXLTYPE4
 62
     1
100
AcDbLine
 10
-74.2
 20
218.831134
 30
0.0
 11
-74.2
 21
221.289634
 31
0.0
  0
LINE
  5
543
100
AcDbEntity
  8
LAY-1
  6
EXLTYPE4
 62
     1
100
AcDbLine
 10
-73.6585
 20
215.831134
 30
0.0
 11
-69.2
 21
215.831134
 31
0.0
  0
LINE
  5
544
100
AcDbEntity
  8
LAY-1
  6
EXLTYPE4
 62
     1
100
AcDbLine
 10
-74.2
 20
216.372634
 30
0.0
 11
-69.2
 21
216.372634
 31
0.0
  0
LINE
  5
545
100
AcDbEntity
  8
LAY-1
  6
EXLTYPE4
 62
     1
100
AcDbLine
 10
-74.2
 20
221.289634
 30
0.0
 11
-69.2
 21
221.289634
 31
0.0
  0
LINE
  5
546
100
AcDbEntity
  8
LAY-1
  6
EXLTYPE4
 62
     1
100
AcDbLine
 10
-73.6585
 20
221.831134
 30
0.0
 11
-69.2
 21
221.831134
 31
0.0
  0
LINE
  5
547
100
AcDbEntity
  8
LAY-1
  6
EXLTYPE4
 62
     1
100
AcDbLine
 10
-74.2
 20
252.903371
 30
0.0
 11
-73.6585
 21
252.361871
 31
0.0
  0
LINE
  5
548
100
AcDbEntity
  8
LAY-1
  6
EXLTYPE4
 62
     1
100
AcDbLine
 10
-74.2
 20
255.361871
 30
0.0
 11
-74.2
 21
252.903371
 31
0.0
  0
LINE
  5
549
100
AcDbEntity
  8
LAY-1
  6
EXLTYPE4
 62
     1
100
AcDbLine
 10
-74.2
 20
257.820371
 30
0.0
 11
-73.6585
 21
258.361871
 31
0.0
  0
LINE
  5
54A
100
AcDbEntity
  8
LAY-1
  6
EXLTYPE4
 62
     1
100
AcDbLine
 10
-74.2
 20
255.361871
 30
0.0
 11
-74.2
 21
257.820371
 31
0.0
  0
LINE
  5
54B
100
AcDbEntity
  8
LAY-1
  6
EXLTYPE4
 62
     1
100
AcDbLine
 10
-73.6585
 20
252.361871
 30
0.0
 11
-69.2
 21
252.361871
 31
0.0
  0
LINE
  5
54C
100
AcDbEntity
  8
LAY-1
  6
EXLTYPE4
 62
     1
100
AcDbLine
 10
-74.2
 20
252.903371
 30
0.0
 11
-69.2
 21
252.903371
 31
0.0
  0
LINE
  5
54D
100
AcDbEntity
  8
LAY-1
  6
EXLTYPE4
 62
     1
100
AcDbLine
 10
-74.2
 20
257.820371
 30
0.0
 11
-69.2
 21
257.820371
 31
0.0
  0
LINE
  5
54E
100
AcDbEntity
  8
LAY-1
  6
EXLTYPE4
 62
     1
100
AcDbLine
 10
-73.6585
 20
258.361871
 30
0.0
 11
-69.2
 21
258.361871
 31
0.0
  0
ARC
  5
54F
100
AcDbEntity
  8
LAY-1
  6
CONTINUOUS
 62
     2
100
AcDbCircle
 10
-74.2
 20
251.5
 30
0.0
 40
1.5
100
AcDbArc
 50
0.0
 51
35.070278
  0
LINE
  5
550
100
AcDbEntity
  8
LAY-1
  6
CONTINUOUS
 62
     2
100
AcDbLine
 10
-71.848496
 20
240.355929
 30
0.0
 11
-73.469205
 21
221.831134
 31
0.0
  0
LINE
  5
551
100
AcDbEntity
  8
LAY-1
  6
CONTINUOUS
 62
     2
100
AcDbLine
 10
-73.967135
 20
216.13977
 30
0.0
 11
-75.991603
 21
193.0
 31
0.0
  0
LINE
  5
552
100
AcDbEntity
  8
LAY-1
  6
CONTINUOUS
 62
     2
100
AcDbLine
 10
-73.967136
 20
169.860235
 30
0.0
 11
-75.991603
 21
193.0
 31
0.0
  0
LINE
  5
553
100
AcDbEntity
  8
LAY-1
  6
CONTINUOUS
 62
     2
100
AcDbLine
 10
-71.848496
 20
145.644071
 30
0.0
 11
-73.469206
 21
164.168871
 31
0.0
  0
LINE
  5
554
100
AcDbEntity
  8
LAY-1
  6
CONTINUOUS
 62
     1
100
AcDbLine
 10
272.135371
 20
-151.5
 30
0.0
 11
260.588366
 21
-151.5
 31
0.0
  0
LINE
  5
555
100
AcDbEntity
  8
LAY-1
  6
CONTINUOUS
 62
     1
100
AcDbLine
 10
272.135371
 20
-150.0
 30
0.0
 11
272.135371
 21
-156.053418
 31
0.0
  0
LINE
  5
556
100
AcDbEntity
  8
LAY-1
  6
CONTINUOUS
 62
     1
100
AcDbLine
 10
272.135371
 20
-156.053418
 30
0.0
 11
271.361868
 21
-156.5
 31
0.0
  0
LINE
  5
557
100
AcDbEntity
  8
LAY-1
  6
CONTINUOUS
 62
     1
100
AcDbLine
 10
271.361868
 20
-156.5
 30
0.0
 11
261.361868
 21
-156.5
 31
0.0
  0
LINE
  5
558
100
AcDbEntity
  8
LAY-1
  6
CONTINUOUS
 62
     1
100
AcDbLine
 10
261.361868
 20
-156.5
 30
0.0
 11
260.588366
 21
-156.053418
 31
0.0
  0
LINE
  5
559
100
AcDbEntity
  8
LAY-1
  6
CONTINUOUS
 62
     1
100
AcDbLine
 10
260.588366
 20
-156.053418
 30
0.0
 11
260.588366
 21
-150.0
 31
0.0
  0
ARC
  5
55A
100
AcDbEntity
  8
LAY-1
  6
CONTINUOUS
 62
     1
100
AcDbCircle
 10
262.031741
 20
-153.944177
 30
0.0
 40
2.555823
100
AcDbArc
 50
235.615753
 51
304.384247
  0
ARC
  5
55B
100
AcDbEntity
  8
LAY-1
  6
CONTINUOUS
 62
     1
100
AcDbCircle
 10
266.361868
 20
-146.946582
 30
0.0
 40
9.553418
100
AcDbArc
 50
252.412046
 51
287.587954
  0
ARC
  5
55C
100
AcDbEntity
  8
LAY-1
  6
CONTINUOUS
 62
     1
100
AcDbCircle
 10
270.691995
 20
-153.944177
 30
0.0
 40
2.555823
100
AcDbArc
 50
235.615753
 51
304.384247
  0
LINE
  5
55D
100
AcDbEntity
  8
LAY-1
  6
CONTINUOUS
 62
     1
100
AcDbLine
 10
269.24862
 20
-156.053418
 30
0.0
 11
269.24862
 21
-151.5
 31
0.0
  0
LINE
  5
55E
100
AcDbEntity
  8
LAY-1
  6
CONTINUOUS
 62
     1
100
AcDbLine
 10
263.475117
 20
-156.053418
 30
0.0
 11
263.475117
 21
-151.5
 31
0.0
  0
LINE
  5
55F
100
AcDbEntity
  8
LAY-1
  6
CONTINUOUS
 62
     1
100
AcDbLine
 10
147.411634
 20
-151.5
 30
0.0
 11
135.864629
 21
-151.5
 31
0.0
  0
LINE
  5
560
100
AcDbEntity
  8
LAY-1
  6
CONTINUOUS
 62
     1
100
AcDbLine
 10
147.411634
 20
-150.0
 30
0.0
 11
147.411634
 21
-156.053418
 31
0.0
  0
LINE
  5
561
100
AcDbEntity
  8
LAY-1
  6
CONTINUOUS
 62
     1
100
AcDbLine
 10
147.411634
 20
-156.053418
 30
0.0
 11
146.638132
 21
-156.5
 31
0.0
  0
LINE
  5
562
100
AcDbEntity
  8
LAY-1
  6
CONTINUOUS
 62
     1
100
AcDbLine
 10
146.638132
 20
-156.5
 30
0.0
 11
136.638132
 21
-156.5
 31
0.0
  0
LINE
  5
563
100
AcDbEntity
  8
LAY-1
  6
CONTINUOUS
 62
     1
100
AcDbLine
 10
136.638132
 20
-156.5
 30
0.0
 11
135.864629
 21
-156.053418
 31
0.0
  0
LINE
  5
564
100
AcDbEntity
  8
LAY-1
  6
CONTINUOUS
 62
     1
100
AcDbLine
 10
135.864629
 20
-156.053418
 30
0.0
 11
135.864629
 21
-150.0
 31
0.0
  0
ARC
  5
565
100
AcDbEntity
  8
LAY-1
  6
CONTINUOUS
 62
     1
100
AcDbCircle
 10
137.308005
 20
-153.944177
 30
0.0
 40
2.555823
100
AcDbArc
 50
235.615753
 51
304.384247
  0
ARC
  5
566
100
AcDbEntity
  8
LAY-1
  6
CONTINUOUS
 62
     1
100
AcDbCircle
 10
141.638132
 20
-146.946582
 30
0.0
 40
9.553418
100
AcDbArc
 50
252.412046
 51
287.587954
  0
ARC
  5
567
100
AcDbEntity
  8
LAY-1
  6
CONTINUOUS
 62
     1
100
AcDbCircle
 10
145.968259
 20
-153.944177
 30
0.0
 40
2.555823
100
AcDbArc
 50
235.615753
 51
304.384247
  0
LINE
  5
568
100
AcDbEntity
  8
LAY-1
  6
CONTINUOUS
 62
     1
100
AcDbLine
 10
144.524883
 20
-156.053418
 30
0.0
 11
144.524883
 21
-151.5
 31
0.0
  0
LINE
  5
569
100
AcDbEntity
  8
LAY-1
  6
CONTINUOUS
 62
     1
100
AcDbLine
 10
138.75138
 20
-156.053418
 30
0.0
 11
138.75138
 21
-151.5
 31
0.0
  0
LINE
  5
56A
100
AcDbEntity
  8
LAY-1
  6
CONTINUOUS
 62
     1
100
AcDbLine
 10
235.604634
 20
-150.0
 30
0.0
 11
235.604634
 21
-153.0
 31
0.0
  0
LINE
  5
56B
100
AcDbEntity
  8
LAY-1
  6
CONTINUOUS
 62
     2
100
AcDbLine
 10
278.0
 20
-150.0
 30
0.0
 11
233.548634
 21
-150.0
 31
0.0
  0
LINE
  5
56C
100
AcDbEntity
  8
LAY-1
  6
CONTINUOUS
 62
     1
100
AcDbLine
 10
235.604634
 20
-151.5
 30
0.0
 11
233.127058
 21
-151.5
 31
0.0
  0
LINE
  5
56D
100
AcDbEntity
  8
LAY-1
  6
CONTINUOUS
 62
     2
100
AcDbLine
 10
174.451366
 20
-150.0
 30
0.0
 11
130.0
 21
-150.0
 31
0.0
  0
LINE
  5
56E
100
AcDbEntity
  8
LAY-1
  6
CONTINUOUS
 62
     1
100
AcDbLine
 10
174.872942
 20
-151.5
 30
0.0
 11
172.395366
 21
-151.5
 31
0.0
  0
LINE
  5
56F
100
AcDbEntity
  8
LAY-1
  6
CONTINUOUS
 62
     1
100
AcDbLine
 10
172.395366
 20
-153.0
 30
0.0
 11
172.395366
 21
-150.0
 31
0.0
  0
LINE
  5
570
100
AcDbEntity
  8
LAY-1
  6
CONTINUOUS
 62
     2
100
AcDbLine
 10
130.0
 20
-143.0
 30
0.0
 11
130.0
 21
-150.0
 31
0.0
  0
ARC
  5
571
100
AcDbEntity
  8
LAY-1
  6
CONTINUOUS
 62
     1
100
AcDbCircle
 10
266.361868
 20
-146.946582
 30
0.0
 40
9.553418
100
AcDbArc
 50
252.412046
 51
287.587954
  0
LINE
  5
572
100
AcDbEntity
  8
LAY-1
  6
EXLTYPE4
 62
     1
100
AcDbLine
 10
268.820366
 20
-161.5
 30
0.0
 11
269.361866
 21
-160.9585
 31
0.0
  0
LINE
  5
573
100
AcDbEntity
  8
LAY-1
  6
EXLTYPE4
 62
     1
100
AcDbLine
 10
266.361866
 20
-161.5
 30
0.0
 11
268.820366
 21
-161.5
 31
0.0
  0
LINE
  5
574
100
AcDbEntity
  8
LAY-1
  6
EXLTYPE4
 62
     1
100
AcDbLine
 10
263.903366
 20
-161.5
 30
0.0
 11
263.361866
 21
-160.9585
 31
0.0
  0
LINE
  5
575
100
AcDbEntity
  8
LAY-1
  6
EXLTYPE4
 62
     1
100
AcDbLine
 10
266.361866
 20
-161.5
 30
0.0
 11
263.903366
 21
-161.5
 31
0.0
  0
LINE
  5
576
100
AcDbEntity
  8
LAY-1
  6
EXLTYPE4
 62
     1
100
AcDbLine
 10
269.361866
 20
-160.9585
 30
0.0
 11
269.361866
 21
-156.5
 31
0.0
  0
LINE
  5
577
100
AcDbEntity
  8
LAY-1
  6
EXLTYPE4
 62
     1
100
AcDbLine
 10
268.820366
 20
-161.5
 30
0.0
 11
268.820366
 21
-156.5
 31
0.0
  0
LINE
  5
578
100
AcDbEntity
  8
LAY-1
  6
EXLTYPE4
 62
     1
100
AcDbLine
 10
263.903366
 20
-161.5
 30
0.0
 11
263.903366
 21
-156.5
 31
0.0
  0
LINE
  5
579
100
AcDbEntity
  8
LAY-1
  6
EXLTYPE4
 62
     1
100
AcDbLine
 10
263.361866
 20
-160.9585
 30
0.0
 11
263.361866
 21
-156.5
 31
0.0
  0
ARC
  5
57A
100
AcDbEntity
  8
LAY-1
  6
CONTINUOUS
 62
     1
100
AcDbCircle
 10
141.638132
 20
-146.946582
 30
0.0
 40
9.553418
100
AcDbArc
 50
252.412046
 51
287.587954
  0
LINE
  5
57B
100
AcDbEntity
  8
LAY-1
  6
EXLTYPE4
 62
     1
100
AcDbLine
 10
144.096629
 20
-161.5
 30
0.0
 11
144.638129
 21
-160.9585
 31
0.0
  0
LINE
  5
57C
100
AcDbEntity
  8
LAY-1
  6
EXLTYPE4
 62
     1
100
AcDbLine
 10
141.638129
 20
-161.5
 30
0.0
 11
144.096629
 21
-161.5
 31
0.0
  0
LINE
  5
57D
100
AcDbEntity
  8
LAY-1
  6
EXLTYPE4
 62
     1
100
AcDbLine
 10
139.179629
 20
-161.5
 30
0.0
 11
138.638129
 21
-160.9585
 31
0.0
  0
LINE
  5
57E
100
AcDbEntity
  8
LAY-1
  6
EXLTYPE4
 62
     1
100
AcDbLine
 10
141.638129
 20
-161.5
 30
0.0
 11
139.179629
 21
-161.5
 31
0.0
  0
LINE
  5
57F
100
AcDbEntity
  8
LAY-1
  6
EXLTYPE4
 62
     1
100
AcDbLine
 10
144.638129
 20
-160.9585
 30
0.0
 11
144.638129
 21
-156.5
 31
0.0
  0
LINE
  5
580
100
AcDbEntity
  8
LAY-1
  6
EXLTYPE4
 62
     1
100
AcDbLine
 10
144.096629
 20
-161.5
 30
0.0
 11
144.096629
 21
-156.5
 31
0.0
  0
LINE
  5
581
100
AcDbEntity
  8
LAY-1
  6
EXLTYPE4
 62
     1
100
AcDbLine
 10
139.179629
 20
-161.5
 30
0.0
 11
139.179629
 21
-156.5
 31
0.0
  0
LINE
  5
582
100
AcDbEntity
  8
LAY-1
  6
EXLTYPE4
 62
     1
100
AcDbLine
 10
138.638129
 20
-160.9585
 30
0.0
 11
138.638129
 21
-156.5
 31
0.0
  0
LINE
  5
583
100
AcDbEntity
  8
LAY-1
  6
CONTINUOUS
 62
     2
100
AcDbLine
 10
470.7
 20
119.0
 30
0.0
 11
470.7
 21
267.0
 31
0.0
  0
LINE
  5
584
100
AcDbEntity
  8
LAY-1
  6
CONTINUOUS
 62
     1
100
AcDbLine
 10
472.2
 20
161.395366
 30
0.0
 11
472.2
 21
172.942371
 31
0.0
  0
LINE
  5
585
100
AcDbEntity
  8
LAY-1
  6
CONTINUOUS
 62
     1
100
AcDbLine
 10
470.7
 20
161.395366
 30
0.0
 11
476.753418
 21
161.395366
 31
0.0
  0
LINE
  5
586
100
AcDbEntity
  8
LAY-1
  6
CONTINUOUS
 62
     1
100
AcDbLine
 10
476.753418
 20
161.395366
 30
0.0
 11
477.2
 21
162.168868
 31
0.0
  0
LINE
  5
587
100
AcDbEntity
  8
LAY-1
  6
CONTINUOUS
 62
     1
100
AcDbLine
 10
477.2
 20
162.168868
 30
0.0
 11
477.2
 21
172.168868
 31
0.0
  0
LINE
  5
588
100
AcDbEntity
  8
LAY-1
  6
CONTINUOUS
 62
     1
100
AcDbLine
 10
477.2
 20
172.168868
 30
0.0
 11
476.753418
 21
172.942371
 31
0.0
  0
LINE
  5
589
100
AcDbEntity
  8
LAY-1
  6
CONTINUOUS
 62
     1
100
AcDbLine
 10
476.753418
 20
172.942371
 30
0.0
 11
470.7
 21
172.942371
 31
0.0
  0
ARC
  5
58A
100
AcDbEntity
  8
LAY-1
  6
CONTINUOUS
 62
     1
100
AcDbCircle
 10
474.644177
 20
171.498995
 30
0.0
 40
2.555823
100
AcDbArc
 50
325.615753
 51
34.384247
  0
ARC
  5
58B
100
AcDbEntity
  8
LAY-1
  6
CONTINUOUS
 62
     1
100
AcDbCircle
 10
467.646582
 20
167.168868
 30
0.0
 40
9.553418
100
AcDbArc
 50
342.412046
 51
17.587954
  0
ARC
  5
58C
100
AcDbEntity
  8
LAY-1
  6
CONTINUOUS
 62
     1
100
AcDbCircle
 10
474.644177
 20
162.838741
 30
0.0
 40
2.555823
100
AcDbArc
 50
325.615753
 51
34.384247
  0
LINE
  5
58D
100
AcDbEntity
  8
LAY-1
  6
CONTINUOUS
 62
     1
100
AcDbLine
 10
476.753418
 20
164.282117
 30
0.0
 11
472.2
 21
164.282117
 31
0.0
  0
LINE
  5
58E
100
AcDbEntity
  8
LAY-1
  6
CONTINUOUS
 62
     1
100
AcDbLine
 10
476.753418
 20
170.05562
 30
0.0
 11
472.2
 21
170.05562
 31
0.0
  0
LINE
  5
58F
100
AcDbEntity
  8
LAY-1
  6
EXLTYPE4
 62
     1
100
AcDbLine
 10
482.2
 20
164.710371
 30
0.0
 11
481.6585
 21
164.168871
 31
0.0
  0
LINE
  5
590
100
AcDbEntity
  8
LAY-1
  6
EXLTYPE4
 62
     1
100
AcDbLine
 10
482.2
 20
167.168871
 30
0.0
 11
482.2
 21
164.710371
 31
0.0
  0
LINE
  5
591
100
AcDbEntity
  8
LAY-1
  6
EXLTYPE4
 62
     1
100
AcDbLine
 10
482.2
 20
169.627371
 30
0.0
 11
481.6585
 21
170.168871
 31
0.0
  0
LINE
  5
592
100
AcDbEntity
  8
LAY-1
  6
EXLTYPE4
 62
     1
100
AcDbLine
 10
482.2
 20
167.168871
 30
0.0
 11
482.2
 21
169.627371
 31
0.0
  0
LINE
  5
593
100
AcDbEntity
  8
LAY-1
  6
EXLTYPE4
 62
     1
100
AcDbLine
 10
481.6585
 20
164.168871
 30
0.0
 11
477.2
 21
164.168871
 31
0.0
  0
LINE
  5
594
100
AcDbEntity
  8
LAY-1
  6
EXLTYPE4
 62
     1
100
AcDbLine
 10
482.2
 20
164.710371
 30
0.0
 11
477.2
 21
164.710371
 31
0.0
  0
LINE
  5
595
100
AcDbEntity
  8
LAY-1
  6
EXLTYPE4
 62
     1
100
AcDbLine
 10
482.2
 20
169.627371
 30
0.0
 11
477.2
 21
169.627371
 31
0.0
  0
LINE
  5
596
100
AcDbEntity
  8
LAY-1
  6
EXLTYPE4
 62
     1
100
AcDbLine
 10
481.6585
 20
170.168871
 30
0.0
 11
477.2
 21
170.168871
 31
0.0
  0
LINE
  5
597
100
AcDbEntity
  8
LAY-1
  6
CONTINUOUS
 62
     1
100
AcDbLine
 10
472.2
 20
124.864629
 30
0.0
 11
472.2
 21
136.411634
 31
0.0
  0
LINE
  5
598
100
AcDbEntity
  8
LAY-1
  6
CONTINUOUS
 62
     1
100
AcDbLine
 10
470.7
 20
124.864629
 30
0.0
 11
476.753418
 21
124.864629
 31
0.0
  0
LINE
  5
599
100
AcDbEntity
  8
LAY-1
  6
CONTINUOUS
 62
     1
100
AcDbLine
 10
476.753418
 20
124.864629
 30
0.0
 11
477.2
 21
125.638132
 31
0.0
  0
LINE
  5
59A
100
AcDbEntity
  8
LAY-1
  6
CONTINUOUS
 62
     1
100
AcDbLine
 10
477.2
 20
125.638132
 30
0.0
 11
477.2
 21
135.638132
 31
0.0
  0
LINE
  5
59B
100
AcDbEntity
  8
LAY-1
  6
CONTINUOUS
 62
     1
100
AcDbLine
 10
477.2
 20
135.638132
 30
0.0
 11
476.753418
 21
136.411634
 31
0.0
  0
LINE
  5
59C
100
AcDbEntity
  8
LAY-1
  6
CONTINUOUS
 62
     1
100
AcDbLine
 10
476.753418
 20
136.411634
 30
0.0
 11
470.7
 21
136.411634
 31
0.0
  0
ARC
  5
59D
100
AcDbEntity
  8
LAY-1
  6
CONTINUOUS
 62
     1
100
AcDbCircle
 10
474.644177
 20
134.968259
 30
0.0
 40
2.555823
100
AcDbArc
 50
325.615753
 51
34.384247
  0
ARC
  5
59E
100
AcDbEntity
  8
LAY-1
  6
CONTINUOUS
 62
     1
100
AcDbCircle
 10
467.646582
 20
130.638132
 30
0.0
 40
9.553418
100
AcDbArc
 50
342.412046
 51
17.587954
  0
ARC
  5
59F
100
AcDbEntity
  8
LAY-1
  6
CONTINUOUS
 62
     1
100
AcDbCircle
 10
474.644177
 20
126.308005
 30
0.0
 40
2.555823
100
AcDbArc
 50
325.615753
 51
34.384247
  0
LINE
  5
5A0
100
AcDbEntity
  8
LAY-1
  6
CONTINUOUS
 62
     1
100
AcDbLine
 10
476.753418
 20
127.75138
 30
0.0
 11
472.2
 21
127.75138
 31
0.0
  0
LINE
  5
5A1
100
AcDbEntity
  8
LAY-1
  6
CONTINUOUS
 62
     1
100
AcDbLine
 10
476.753418
 20
133.524883
 30
0.0
 11
472.2
 21
133.524883
 31
0.0
  0
ARC
  5
5A2
100
AcDbEntity
  8
LAY-1
  6
CONTINUOUS
 62
     2
100
AcDbCircle
 10
473.7
 20
133.045009
 30
0.0
 40
4.0
100
AcDbArc
 50
105.806498
 51
122.684554
  0
LINE
  5
5A3
100
AcDbEntity
  8
LAY-1
  6
EXLTYPE4
 62
     1
100
AcDbLine
 10
482.2
 20
128.179634
 30
0.0
 11
481.6585
 21
127.638134
 31
0.0
  0
LINE
  5
5A4
100
AcDbEntity
  8
LAY-1
  6
EXLTYPE4
 62
     1
100
AcDbLine
 10
482.2
 20
130.638134
 30
0.0
 11
482.2
 21
128.179634
 31
0.0
  0
LINE
  5
5A5
100
AcDbEntity
  8
LAY-1
  6
EXLTYPE4
 62
     1
100
AcDbLine
 10
482.2
 20
133.096634
 30
0.0
 11
481.6585
 21
133.638134
 31
0.0
  0
LINE
  5
5A6
100
AcDbEntity
  8
LAY-1
  6
EXLTYPE4
 62
     1
100
AcDbLine
 10
482.2
 20
130.638134
 30
0.0
 11
482.2
 21
133.096634
 31
0.0
  0
LINE
  5
5A7
100
AcDbEntity
  8
LAY-1
  6
EXLTYPE4
 62
     1
100
AcDbLine
 10
481.6585
 20
127.638134
 30
0.0
 11
477.2
 21
127.638134
 31
0.0
  0
LINE
  5
5A8
100
AcDbEntity
  8
LAY-1
  6
EXLTYPE4
 62
     1
100
AcDbLine
 10
482.2
 20
128.179634
 30
0.0
 11
477.2
 21
128.179634
 31
0.0
  0
LINE
  5
5A9
100
AcDbEntity
  8
LAY-1
  6
EXLTYPE4
 62
     1
100
AcDbLine
 10
482.2
 20
133.096634
 30
0.0
 11
477.2
 21
133.096634
 31
0.0
  0
LINE
  5
5AA
100
AcDbEntity
  8
LAY-1
  6
EXLTYPE4
 62
     1
100
AcDbLine
 10
481.6585
 20
133.638134
 30
0.0
 11
477.2
 21
133.638134
 31
0.0
  0
LINE
  5
5AB
100
AcDbEntity
  8
LAY-1
  6
CONTINUOUS
 62
     1
100
AcDbLine
 10
472.2
 20
213.057629
 30
0.0
 11
472.2
 21
224.604634
 31
0.0
  0
LINE
  5
5AC
100
AcDbEntity
  8
LAY-1
  6
CONTINUOUS
 62
     1
100
AcDbLine
 10
470.7
 20
213.057629
 30
0.0
 11
476.753418
 21
213.057629
 31
0.0
  0
LINE
  5
5AD
100
AcDbEntity
  8
LAY-1
  6
CONTINUOUS
 62
     1
100
AcDbLine
 10
476.753418
 20
213.057629
 30
0.0
 11
477.2
 21
213.831132
 31
0.0
  0
LINE
  5
5AE
100
AcDbEntity
  8
LAY-1
  6
CONTINUOUS
 62
     1
100
AcDbLine
 10
477.2
 20
213.831132
 30
0.0
 11
477.2
 21
223.831132
 31
0.0
  0
LINE
  5
5AF
100
AcDbEntity
  8
LAY-1
  6
CONTINUOUS
 62
     1
100
AcDbLine
 10
477.2
 20
223.831132
 30
0.0
 11
476.753418
 21
224.604634
 31
0.0
  0
LINE
  5
5B0
100
AcDbEntity
  8
LAY-1
  6
CONTINUOUS
 62
     1
100
AcDbLine
 10
476.753418
 20
224.604634
 30
0.0
 11
470.7
 21
224.604634
 31
0.0
  0
ARC
  5
5B1
100
AcDbEntity
  8
LAY-1
  6
CONTINUOUS
 62
     1
100
AcDbCircle
 10
474.644177
 20
223.161259
 30
0.0
 40
2.555823
100
AcDbArc
 50
325.615753
 51
34.384247
  0
ARC
  5
5B2
100
AcDbEntity
  8
LAY-1
  6
CONTINUOUS
 62
     1
100
AcDbCircle
 10
467.646582
 20
218.831132
 30
0.0
 40
9.553418
100
AcDbArc
 50
342.412046
 51
17.587954
  0
ARC
  5
5B3
100
AcDbEntity
  8
LAY-1
  6
CONTINUOUS
 62
     1
100
AcDbCircle
 10
474.644177
 20
214.501005
 30
0.0
 40
2.555823
100
AcDbArc
 50
325.615753
 51
34.384247
  0
LINE
  5
5B4
100
AcDbEntity
  8
LAY-1
  6
CONTINUOUS
 62
     1
100
AcDbLine
 10
476.753418
 20
215.94438
 30
0.0
 11
472.2
 21
215.94438
 31
0.0
  0
LINE
  5
5B5
100
AcDbEntity
  8
LAY-1
  6
CONTINUOUS
 62
     1
100
AcDbLine
 10
476.753418
 20
221.717883
 30
0.0
 11
472.2
 21
221.717883
 31
0.0
  0
LINE
  5
5B6
100
AcDbEntity
  8
LAY-1
  6
EXLTYPE4
 62
     1
100
AcDbLine
 10
482.2
 20
216.372634
 30
0.0
 11
481.6585
 21
215.831134
 31
0.0
  0
LINE
  5
5B7
100
AcDbEntity
  8
LAY-1
  6
EXLTYPE4
 62
     1
100
AcDbLine
 10
482.2
 20
218.831134
 30
0.0
 11
482.2
 21
216.372634
 31
0.0
  0
LINE
  5
5B8
100
AcDbEntity
  8
LAY-1
  6
EXLTYPE4
 62
     1
100
AcDbLine
 10
482.2
 20
221.289634
 30
0.0
 11
481.6585
 21
221.831134
 31
0.0
  0
LINE
  5
5B9
100
AcDbEntity
  8
LAY-1
  6
EXLTYPE4
 62
     1
100
AcDbLine
 10
482.2
 20
218.831134
 30
0.0
 11
482.2
 21
221.289634
 31
0.0
  0
LINE
  5
5BA
100
AcDbEntity
  8
LAY-1
  6
EXLTYPE4
 62
     1
100
AcDbLine
 10
481.6585
 20
215.831134
 30
0.0
 11
477.2
 21
215.831134
 31
0.0
  0
LINE
  5
5BB
100
AcDbEntity
  8
LAY-1
  6
EXLTYPE4
 62
     1
100
AcDbLine
 10
482.2
 20
221.289634
 30
0.0
 11
477.2
 21
221.289634
 31
0.0
  0
LINE
  5
5BC
100
AcDbEntity
  8
LAY-1
  6
EXLTYPE4
 62
     1
100
AcDbLine
 10
481.6585
 20
221.831134
 30
0.0
 11
477.2
 21
221.831134
 31
0.0
  0
LINE
  5
5BD
100
AcDbEntity
  8
LAY-1
  6
EXLTYPE4
 62
     1
100
AcDbLine
 10
482.2
 20
216.372634
 30
0.0
 11
477.2
 21
216.372634
 31
0.0
  0
LINE
  5
5BE
100
AcDbEntity
  8
LAY-1
  6
CONTINUOUS
 62
     2
100
AcDbLine
 10
482.7
 20
253.0
 30
0.0
 11
482.2
 21
253.0
 31
0.0
  0
ARC
  5
5BF
100
AcDbEntity
  8
LAY-1
  6
CONTINUOUS
 62
     2
100
AcDbCircle
 10
482.7
 20
254.0
 30
0.0
 40
1.0
100
AcDbArc
 50
270.0
 51
0.0
  0
LINE
  5
5C0
100
AcDbEntity
  8
LAY-1
  6
CONTINUOUS
 62
     1
100
AcDbLine
 10
472.2
 20
249.588366
 30
0.0
 11
472.2
 21
261.135371
 31
0.0
  0
LINE
  5
5C1
100
AcDbEntity
  8
LAY-1
  6
CONTINUOUS
 62
     1
100
AcDbLine
 10
470.7
 20
249.588366
 30
0.0
 11
476.753418
 21
249.588366
 31
0.0
  0
LINE
  5
5C2
100
AcDbEntity
  8
LAY-1
  6
CONTINUOUS
 62
     1
100
AcDbLine
 10
476.753418
 20
249.588366
 30
0.0
 11
477.2
 21
250.361868
 31
0.0
  0
LINE
  5
5C3
100
AcDbEntity
  8
LAY-1
  6
CONTINUOUS
 62
     1
100
AcDbLine
 10
477.2
 20
250.361868
 30
0.0
 11
477.2
 21
260.361868
 31
0.0
  0
LINE
  5
5C4
100
AcDbEntity
  8
LAY-1
  6
CONTINUOUS
 62
     1
100
AcDbLine
 10
477.2
 20
260.361868
 30
0.0
 11
476.753418
 21
261.135371
 31
0.0
  0
LINE
  5
5C5
100
AcDbEntity
  8
LAY-1
  6
CONTINUOUS
 62
     1
100
AcDbLine
 10
476.753418
 20
261.135371
 30
0.0
 11
470.7
 21
261.135371
 31
0.0
  0
ARC
  5
5C6
100
AcDbEntity
  8
LAY-1
  6
CONTINUOUS
 62
     1
100
AcDbCircle
 10
474.644177
 20
259.691995
 30
0.0
 40
2.555823
100
AcDbArc
 50
325.615753
 51
34.384247
  0
ARC
  5
5C7
100
AcDbEntity
  8
LAY-1
  6
CONTINUOUS
 62
     1
100
AcDbCircle
 10
467.646582
 20
255.361868
 30
0.0
 40
9.553418
100
AcDbArc
 50
342.412046
 51
17.587954
  0
ARC
  5
5C8
100
AcDbEntity
  8
LAY-1
  6
CONTINUOUS
 62
     1
100
AcDbCircle
 10
474.644177
 20
251.031741
 30
0.0
 40
2.555823
100
AcDbArc
 50
325.615753
 51
34.384247
  0
LINE
  5
5C9
100
AcDbEntity
  8
LAY-1
  6
CONTINUOUS
 62
     1
100
AcDbLine
 10
476.753418
 20
252.475117
 30
0.0
 11
472.2
 21
252.475117
 31
0.0
  0
LINE
  5
5CA
100
AcDbEntity
  8
LAY-1
  6
CONTINUOUS
 62
     1
100
AcDbLine
 10
476.753418
 20
258.24862
 30
0.0
 11
472.2
 21
258.24862
 31
0.0
  0
ARC
  5
5CB
100
AcDbEntity
  8
LAY-1
  6
CONTINUOUS
 62
     2
100
AcDbCircle
 10
473.7
 20
252.954991
 30
0.0
 40
4.0
100
AcDbArc
 50
237.315446
 51
254.193502
  0
LINE
  5
5CC
100
AcDbEntity
  8
LAY-1
  6
EXLTYPE4
 62
     1
100
AcDbLine
 10
482.2
 20
252.903371
 30
0.0
 11
481.6585
 21
252.361871
 31
0.0
  0
LINE
  5
5CD
100
AcDbEntity
  8
LAY-1
  6
EXLTYPE4
 62
     1
100
AcDbLine
 10
482.2
 20
255.361871
 30
0.0
 11
482.2
 21
252.903371
 31
0.0
  0
LINE
  5
5CE
100
AcDbEntity
  8
LAY-1
  6
EXLTYPE4
 62
     1
100
AcDbLine
 10
482.2
 20
257.820371
 30
0.0
 11
481.6585
 21
258.361871
 31
0.0
  0
LINE
  5
5CF
100
AcDbEntity
  8
LAY-1
  6
EXLTYPE4
 62
     1
100
AcDbLine
 10
482.2
 20
255.361871
 30
0.0
 11
482.2
 21
257.820371
 31
0.0
  0
LINE
  5
5D0
100
AcDbEntity
  8
LAY-1
  6
EXLTYPE4
 62
     1
100
AcDbLine
 10
481.6585
 20
252.361871
 30
0.0
 11
477.2
 21
252.361871
 31
0.0
  0
LINE
  5
5D1
100
AcDbEntity
  8
LAY-1
  6
EXLTYPE4
 62
     1
100
AcDbLine
 10
482.2
 20
252.903371
 30
0.0
 11
477.2
 21
252.903371
 31
0.0
  0
LINE
  5
5D2
100
AcDbEntity
  8
LAY-1
  6
EXLTYPE4
 62
     1
100
AcDbLine
 10
482.2
 20
257.820371
 30
0.0
 11
477.2
 21
257.820371
 31
0.0
  0
LINE
  5
5D3
100
AcDbEntity
  8
LAY-1
  6
EXLTYPE4
 62
     1
100
AcDbLine
 10
481.6585
 20
258.361871
 30
0.0
 11
477.2
 21
258.361871
 31
0.0
  0
ARC
  5
5D4
100
AcDbEntity
  8
LAY-1
  6
CONTINUOUS
 62
     2
100
AcDbCircle
 10
482.2
 20
251.5
 30
0.0
 40
1.5
100
AcDbArc
 50
144.929722
 51
180.0
  0
ARC
  5
5D5
100
AcDbEntity
  8
LAY-1
  6
CONTINUOUS
 62
     2
100
AcDbCircle
 10
482.2
 20
251.5
 30
0.0
 40
1.5
100
AcDbArc
 50
144.929722
 51
180.0
  0
LINE
  5
5D6
100
AcDbEntity
  8
LAY-1
  6
CONTINUOUS
 62
     2
100
AcDbLine
 10
479.848496
 20
240.355929
 30
0.0
 11
481.469205
 21
221.831134
 31
0.0
  0
LINE
  5
5D7
100
AcDbEntity
  8
LAY-1
  6
CONTINUOUS
 62
     2
100
AcDbLine
 10
481.967135
 20
216.13977
 30
0.0
 11
483.991603
 21
193.0
 31
0.0
  0
LINE
  5
5D8
100
AcDbEntity
  8
LAY-1
  6
CONTINUOUS
 62
     2
100
AcDbLine
 10
479.848496
 20
145.644071
 30
0.0
 11
481.469206
 21
164.168871
 31
0.0
  0
LINE
  5
5D9
100
AcDbEntity
  8
LAY-1
  6
CONTINUOUS
 62
     2
100
AcDbLine
 10
481.967136
 20
169.860235
 30
0.0
 11
483.991603
 21
193.0
 31
0.0
  0
LINE
  5
5DA
100
AcDbEntity
  8
LAY-1
  6
CONTINUOUS
 62
     2
100
AcDbLine
 10
463.7
 20
119.0
 30
0.0
 11
470.7
 21
119.0
 31
0.0
  0
LINE
  5
5DB
100
AcDbEntity
  8
LAY-1
  6
CONTINUOUS
 62
     1
100
AcDbLine
 10
272.135371
 20
487.5
 30
0.0
 11
260.588366
 21
487.5
 31
0.0
  0
LINE
  5
5DC
100
AcDbEntity
  8
LAY-1
  6
CONTINUOUS
 62
     1
100
AcDbLine
 10
272.135371
 20
486.0
 30
0.0
 11
272.135371
 21
492.053418
 31
0.0
  0
LINE
  5
5DD
100
AcDbEntity
  8
LAY-1
  6
CONTINUOUS
 62
     1
100
AcDbLine
 10
272.135371
 20
492.053418
 30
0.0
 11
271.361868
 21
492.5
 31
0.0
  0
LINE
  5
5DE
100
AcDbEntity
  8
LAY-1
  6
CONTINUOUS
 62
     1
100
AcDbLine
 10
271.361868
 20
492.5
 30
0.0
 11
261.361868
 21
492.5
 31
0.0
  0
LINE
  5
5DF
100
AcDbEntity
  8
LAY-1
  6
CONTINUOUS
 62
     1
100
AcDbLine
 10
261.361868
 20
492.5
 30
0.0
 11
260.588366
 21
492.053418
 31
0.0
  0
LINE
  5
5E0
100
AcDbEntity
  8
LAY-1
  6
CONTINUOUS
 62
     1
100
AcDbLine
 10
260.588366
 20
492.053418
 30
0.0
 11
260.588366
 21
486.0
 31
0.0
  0
ARC
  5
5E1
100
AcDbEntity
  8
LAY-1
  6
CONTINUOUS
 62
     1
100
AcDbCircle
 10
262.031741
 20
489.944177
 30
0.0
 40
2.555823
100
AcDbArc
 50
55.615753
 51
124.384247
  0
ARC
  5
5E2
100
AcDbEntity
  8
LAY-1
  6
CONTINUOUS
 62
     1
100
AcDbCircle
 10
266.361868
 20
482.946582
 30
0.0
 40
9.553418
100
AcDbArc
 50
72.412046
 51
107.587954
  0
ARC
  5
5E3
100
AcDbEntity
  8
LAY-1
  6
CONTINUOUS
 62
     1
100
AcDbCircle
 10
270.691995
 20
489.944177
 30
0.0
 40
2.555823
100
AcDbArc
 50
55.615753
 51
124.384247
  0
LINE
  5
5E4
100
AcDbEntity
  8
LAY-1
  6
CONTINUOUS
 62
     1
100
AcDbLine
 10
269.24862
 20
492.053418
 30
0.0
 11
269.24862
 21
487.5
 31
0.0
  0
LINE
  5
5E5
100
AcDbEntity
  8
LAY-1
  6
CONTINUOUS
 62
     1
100
AcDbLine
 10
263.475117
 20
492.053418
 30
0.0
 11
263.475117
 21
487.5
 31
0.0
  0
LINE
  5
5E6
100
AcDbEntity
  8
LAY-1
  6
CONTINUOUS
 62
     1
100
AcDbLine
 10
235.604634
 20
487.5
 30
0.0
 11
224.057629
 21
487.5
 31
0.0
  0
LINE
  5
5E7
100
AcDbEntity
  8
LAY-1
  6
CONTINUOUS
 62
     1
100
AcDbLine
 10
235.604634
 20
486.0
 30
0.0
 11
235.604634
 21
492.053418
 31
0.0
  0
LINE
  5
5E8
100
AcDbEntity
  8
LAY-1
  6
CONTINUOUS
 62
     1
100
AcDbLine
 10
235.604634
 20
492.053418
 30
0.0
 11
234.831132
 21
492.5
 31
0.0
  0
LINE
  5
5E9
100
AcDbEntity
  8
LAY-1
  6
CONTINUOUS
 62
     1
100
AcDbLine
 10
234.831132
 20
492.5
 30
0.0
 11
224.831132
 21
492.5
 31
0.0
  0
LINE
  5
5EA
100
AcDbEntity
  8
LAY-1
  6
CONTINUOUS
 62
     1
100
AcDbLine
 10
224.831132
 20
492.5
 30
0.0
 11
224.057629
 21
492.053418
 31
0.0
  0
LINE
  5
5EB
100
AcDbEntity
  8
LAY-1
  6
CONTINUOUS
 62
     1
100
AcDbLine
 10
224.057629
 20
492.053418
 30
0.0
 11
224.057629
 21
486.0
 31
0.0
  0
ARC
  5
5EC
100
AcDbEntity
  8
LAY-1
  6
CONTINUOUS
 62
     1
100
AcDbCircle
 10
225.501005
 20
489.944177
 30
0.0
 40
2.555823
100
AcDbArc
 50
55.615753
 51
124.384247
  0
ARC
  5
5ED
100
AcDbEntity
  8
LAY-1
  6
CONTINUOUS
 62
     1
100
AcDbCircle
 10
229.831132
 20
482.946582
 30
0.0
 40
9.553418
100
AcDbArc
 50
72.412046
 51
107.587954
  0
ARC
  5
5EE
100
AcDbEntity
  8
LAY-1
  6
CONTINUOUS
 62
     1
100
AcDbCircle
 10
234.161259
 20
489.944177
 30
0.0
 40
2.555823
100
AcDbArc
 50
55.615753
 51
124.384247
  0
LINE
  5
5EF
100
AcDbEntity
  8
LAY-1
  6
CONTINUOUS
 62
     1
100
AcDbLine
 10
232.717883
 20
492.053418
 30
0.0
 11
232.717883
 21
487.5
 31
0.0
  0
LINE
  5
5F0
100
AcDbEntity
  8
LAY-1
  6
CONTINUOUS
 62
     1
100
AcDbLine
 10
226.94438
 20
492.053418
 30
0.0
 11
226.94438
 21
487.5
 31
0.0
  0
LINE
  5
5F1
100
AcDbEntity
  8
LAY-1
  6
CONTINUOUS
 62
     2
100
AcDbLine
 10
212.719762
 20
486.850248
 30
0.0
 11
211.909789
 21
493.198016
 31
0.0
  0
ARC
  5
5F2
100
AcDbEntity
  8
LAY-1
  6
CONTINUOUS
 62
     2
100
AcDbCircle
 10
213.708485
 20
487.0
 30
0.0
 40
1.0
100
AcDbArc
 50
188.612557
 51
270.0
  0
LINE
  5
5F3
100
AcDbEntity
  8
LAY-1
  6
CONTINUOUS
 62
     2
100
AcDbLine
 10
195.280238
 20
486.850248
 30
0.0
 11
196.090211
 21
493.198016
 31
0.0
  0
ARC
  5
5F4
100
AcDbEntity
  8
LAY-1
  6
CONTINUOUS
 62
     2
100
AcDbCircle
 10
194.291515
 20
487.0
 30
0.0
 40
1.0
100
AcDbArc
 50
270.0
 51
351.387443
  0
ARC
  5
5F5
100
AcDbEntity
  8
LAY-1
  6
CONTINUOUS
 62
     2
100
AcDbCircle
 10
204.0
 20
492.0
 30
0.0
 40
8.0
100
AcDbArc
 50
8.612557
 51
171.387443
  0
LINE
  5
5F6
100
AcDbEntity
  8
LAY-1
  6
EXLTYPE3
 62
     1
100
AcDbLine
 10
193.95
 20
492.0
 30
0.0
 11
214.05
 21
492.0
 31
0.0
  0
CIRCLE
  5
5F7
100
AcDbEntity
  8
LAY-1
  6
CONTINUOUS
 62
     1
100
AcDbCircle
 10
204.0
 20
492.0
 30
0.0
 40
6.5
  0
POLYLINE
  5
5F8
100
AcDbEntity
  8
LAY-1
  6
CONTINUOUS
 62
     1
100
AcDb2dPolyline
 66
     1
 10
0.0
 20
0.0
 30
0.0
 70
   128
  0
VERTEX
  5
5F9
100
AcDbEntity
  8
LAY-1
  6
CONTINUOUS
 62
     1
100
AcDbVertex
100
AcDb2dVertex
 10
211.505553
 20
492.0
 30
0.0
  0
VERTEX
  5
5FA
100
AcDbEntity
  8
LAY-1
  6
CONTINUOUS
 62
     1
100
AcDbVertex
100
AcDb2dVertex
 10
207.752777
 20
498.5
 30
0.0
  0
VERTEX
  5
5FB
100
AcDbEntity
  8
LAY-1
  6
CONTINUOUS
 62
     1
100
AcDbVertex
100
AcDb2dVertex
 10
200.247223
 20
498.5
 30
0.0
  0
VERTEX
  5
5FC
100
AcDbEntity
  8
LAY-1
  6
CONTINUOUS
 62
     1
100
AcDbVertex
100
AcDb2dVertex
 10
196.494447
 20
492.0
 30
0.0
  0
VERTEX
  5
5FD
100
AcDbEntity
  8
LAY-1
  6
CONTINUOUS
 62
     1
100
AcDbVertex
100
AcDb2dVertex
 10
200.247223
 20
485.5
 30
0.0
  0
VERTEX
  5
5FE
100
AcDbEntity
  8
LAY-1
  6
CONTINUOUS
 62
     1
100
AcDbVertex
100
AcDb2dVertex
 10
207.752777
 20
485.5
 30
0.0
  0
VERTEX
  5
5FF
100
AcDbEntity
  8
LAY-1
  6
CONTINUOUS
 62
     1
100
AcDbVertex
100
AcDb2dVertex
 10
211.505553
 20
492.0
 30
0.0
  0
SEQEND
  5
600
100
AcDbEntity
  8
LAY-1
  6
CONTINUOUS
 62
     1
  0
LINE
  5
601
100
AcDbEntity
  8
LAY-1
  6
CONTINUOUS
 62
     1
100
AcDbLine
 10
183.942371
 20
487.5
 30
0.0
 11
172.395366
 21
487.5
 31
0.0
  0
LINE
  5
602
100
AcDbEntity
  8
LAY-1
  6
CONTINUOUS
 62
     1
100
AcDbLine
 10
183.942371
 20
486.0
 30
0.0
 11
183.942371
 21
492.053418
 31
0.0
  0
LINE
  5
603
100
AcDbEntity
  8
LAY-1
  6
CONTINUOUS
 62
     1
100
AcDbLine
 10
183.942371
 20
492.053418
 30
0.0
 11
183.168868
 21
492.5
 31
0.0
  0
LINE
  5
604
100
AcDbEntity
  8
LAY-1
  6
CONTINUOUS
 62
     1
100
AcDbLine
 10
183.168868
 20
492.5
 30
0.0
 11
173.168868
 21
492.5
 31
0.0
  0
LINE
  5
605
100
AcDbEntity
  8
LAY-1
  6
CONTINUOUS
 62
     1
100
AcDbLine
 10
173.168868
 20
492.5
 30
0.0
 11
172.395366
 21
492.053418
 31
0.0
  0
LINE
  5
606
100
AcDbEntity
  8
LAY-1
  6
CONTINUOUS
 62
     1
100
AcDbLine
 10
172.395366
 20
492.053418
 30
0.0
 11
172.395366
 21
486.0
 31
0.0
  0
ARC
  5
607
100
AcDbEntity
  8
LAY-1
  6
CONTINUOUS
 62
     1
100
AcDbCircle
 10
173.838741
 20
489.944177
 30
0.0
 40
2.555823
100
AcDbArc
 50
55.615753
 51
124.384247
  0
ARC
  5
608
100
AcDbEntity
  8
LAY-1
  6
CONTINUOUS
 62
     1
100
AcDbCircle
 10
178.168868
 20
482.946582
 30
0.0
 40
9.553418
100
AcDbArc
 50
72.412046
 51
107.587954
  0
ARC
  5
609
100
AcDbEntity
  8
LAY-1
  6
CONTINUOUS
 62
     1
100
AcDbCircle
 10
182.498995
 20
489.944177
 30
0.0
 40
2.555823
100
AcDbArc
 50
55.615753
 51
124.384247
  0
LINE
  5
60A
100
AcDbEntity
  8
LAY-1
  6
CONTINUOUS
 62
     1
100
AcDbLine
 10
181.05562
 20
492.053418
 30
0.0
 11
181.05562
 21
487.5
 31
0.0
  0
LINE
  5
60B
100
AcDbEntity
  8
LAY-1
  6
CONTINUOUS
 62
     1
100
AcDbLine
 10
175.282117
 20
492.053418
 30
0.0
 11
175.282117
 21
487.5
 31
0.0
  0
LINE
  5
60C
100
AcDbEntity
  8
LAY-1
  6
CONTINUOUS
 62
     1
100
AcDbLine
 10
147.411634
 20
487.5
 30
0.0
 11
135.864629
 21
487.5
 31
0.0
  0
LINE
  5
60D
100
AcDbEntity
  8
LAY-1
  6
CONTINUOUS
 62
     1
100
AcDbLine
 10
147.411634
 20
486.0
 30
0.0
 11
147.411634
 21
492.053418
 31
0.0
  0
LINE
  5
60E
100
AcDbEntity
  8
LAY-1
  6
CONTINUOUS
 62
     1
100
AcDbLine
 10
147.411634
 20
492.053418
 30
0.0
 11
146.638132
 21
492.5
 31
0.0
  0
LINE
  5
60F
100
AcDbEntity
  8
LAY-1
  6
CONTINUOUS
 62
     1
100
AcDbLine
 10
146.638132
 20
492.5
 30
0.0
 11
136.638132
 21
492.5
 31
0.0
  0
LINE
  5
610
100
AcDbEntity
  8
LAY-1
  6
CONTINUOUS
 62
     1
100
AcDbLine
 10
136.638132
 20
492.5
 30
0.0
 11
135.864629
 21
492.053418
 31
0.0
  0
LINE
  5
611
100
AcDbEntity
  8
LAY-1
  6
CONTINUOUS
 62
     1
100
AcDbLine
 10
135.864629
 20
492.053418
 30
0.0
 11
135.864629
 21
486.0
 31
0.0
  0
ARC
  5
612
100
AcDbEntity
  8
LAY-1
  6
CONTINUOUS
 62
     1
100
AcDbCircle
 10
137.308005
 20
489.944177
 30
0.0
 40
2.555823
100
AcDbArc
 50
55.615753
 51
124.384247
  0
ARC
  5
613
100
AcDbEntity
  8
LAY-1
  6
CONTINUOUS
 62
     1
100
AcDbCircle
 10
141.638132
 20
482.946582
 30
0.0
 40
9.553418
100
AcDbArc
 50
72.412046
 51
107.587954
  0
ARC
  5
614
100
AcDbEntity
  8
LAY-1
  6
CONTINUOUS
 62
     1
100
AcDbCircle
 10
145.968259
 20
489.944177
 30
0.0
 40
2.555823
100
AcDbArc
 50
55.615753
 51
124.384247
  0
LINE
  5
615
100
AcDbEntity
  8
LAY-1
  6
CONTINUOUS
 62
     1
100
AcDbLine
 10
144.524883
 20
492.053418
 30
0.0
 11
144.524883
 21
487.5
 31
0.0
  0
LINE
  5
616
100
AcDbEntity
  8
LAY-1
  6
CONTINUOUS
 62
     1
100
AcDbLine
 10
138.75138
 20
492.053418
 30
0.0
 11
138.75138
 21
487.5
 31
0.0
  0
LINE
  5
617
100
AcDbEntity
  8
LAY-1
  6
CONTINUOUS
 62
     2
100
AcDbLine
 10
199.958548
 20
486.0
 30
0.0
 11
130.0
 21
486.0
 31
0.0
  0
LINE
  5
618
100
AcDbEntity
  8
LAY-1
  6
CONTINUOUS
 62
     2
100
AcDbLine
 10
278.0
 20
486.0
 30
0.0
 11
208.041452
 21
486.0
 31
0.0
  0
ARC
  5
619
100
AcDbEntity
  8
LAY-1
  6
CONTINUOUS
 62
     2
100
AcDbCircle
 10
263.954991
 20
489.0
 30
0.0
 40
4.0
100
AcDbArc
 50
195.806498
 51
212.684554
  0
LINE
  5
61A
100
AcDbEntity
  8
LAY-1
  6
CONTINUOUS
 62
     2
100
AcDbLine
 10
278.0
 20
479.0
 30
0.0
 11
278.0
 21
486.0
 31
0.0
  0
LINE
  5
61B
100
AcDbEntity
  8
LAY-1
  6
CONTINUOUS
 62
     2
100
AcDbLine
 10
130.0
 20
479.0
 30
0.0
 11
130.0
 21
486.0
 31
0.0
  0
LINE
  5
61C
100
AcDbEntity
  8
LAY-1
  6
CONTINUOUS
 62
     2
100
AcDbLine
 10
251.355929
 20
495.148496
 30
0.0
 11
207.972404
 21
498.944062
 31
0.0
  0
LINE
  5
61D
100
AcDbEntity
  8
LAY-1
  6
CONTINUOUS
 62
     2
100
AcDbLine
 10
156.644071
 20
495.148496
 30
0.0
 11
200.027596
 21
498.944062
 31
0.0
  0
TEXT
  5
61E
100
AcDbEntity
  8
LAY-2
  6
CONTINUOUS
 62
     3
100
AcDbText
 10
381.664
 20
-98.424
 30
0.0
 40
12.0
  1
型式
 41
0.984714
  7
EXCADSTD
 72
     5
 11
407.452244
 21
-98.424
 31
0.0
100
AcDbText
  0
TEXT
  5
61F
100
AcDbEntity
  8
LAY-2
  6
CONTINUOUS
 62
     3
100
AcDbText
 10
381.376
 20
-115.32
 30
0.0
 40
12.0
  1
品名
 41
0.984714
  7
EXCADSTD
 72
     5
 11
407.164244
 21
-115.32
 31
0.0
100
AcDbText
  0
LINE
  5
620
100
AcDbEntity
  8
LAY-2
  6
CONTINUOUS
 62
     4
100
AcDbLine
 10
376.0
 20
-132.36
 30
0.0
 11
591.04
 21
-132.36
 31
0.0
  0
LINE
  5
621
100
AcDbEntity
  8
LAY-2
  6
CONTINUOUS
 62
     1
100
AcDbLine
 10
376.0
 20
-117.72
 30
0.0
 11
591.04
 21
-117.72
 31
0.0
  0
TEXT
  5
622
100
AcDbEntity
  8
LAY-2
  6
CONTINUOUS
 62
     3
100
AcDbText
 10
452.416
 20
-130.776
 30
0.0
 40
12.0
  1
外観図
 41
1.47392
  7
EXCADSTD
 72
     5
 11
515.583999
 21
-130.776
 31
0.0
100
AcDbText
  0
LINE
  5
623
100
AcDbEntity
  8
LAY-2
  6
CONTINUOUS
 62
     4
100
AcDbLine
 10
376.0
 20
-67.32
 30
0.0
 11
591.04
 21
-67.32
 31
0.0
  0
LINE
  5
624
100
AcDbEntity
  8
LAY-2
  6
CONTINUOUS
 62
     1
100
AcDbLine
 10
376.0
 20
-100.92
 30
0.0
 11
591.04
 21
-100.92
 31
0.0
  0
LINE
  5
625
100
AcDbEntity
  8
LAY-2
  6
CONTINUOUS
 62
     1
100
AcDbLine
 10
376.0
 20
-84.12
 30
0.0
 11
591.04
 21
-84.12
 31
0.0
  0
LINE
  5
626
100
AcDbEntity
  8
LAY-2
  6
CONTINUOUS
 62
     1
100
AcDbLine
 10
412.0
 20
-67.32
 30
0.0
 11
412.0
 21
-117.72
 31
0.0
  0
LINE
  5
627
100
AcDbEntity
  8
LAY-2
  6
CONTINUOUS
 62
     4
100
AcDbLine
 10
376.0
 20
-147.0
 30
0.0
 11
591.04
 21
-147.0
 31
0.0
  0
LINE
  5
628
100
AcDbEntity
  8
LAY-2
  6
CONTINUOUS
 62
     4
100
AcDbLine
 10
591.04
 20
-147.0
 30
0.0
 11
591.04
 21
-67.32
 31
0.0
  0
LINE
  5
629
100
AcDbEntity
  8
LAY-2
  6
CONTINUOUS
 62
     4
100
AcDbLine
 10
376.0
 20
-147.0
 30
0.0
 11
376.0
 21
-67.32
 31
0.0
  0
TEXT
  5
62A
100
AcDbEntity
  8
LAY-2
  6
CONTINUOUS
 62
     3
100
AcDbText
 10
377.536
 20
-82.008
 30
0.0
 40
12.0
  1
作成日
 41
0.84
  7
EXCADSTD
 72
     5
 11
413.536
 21
-82.008
 31
0.0
100
AcDbText
  0
TEXT
  5
62B
100
AcDbEntity
  8
LAY-2
  6
CONTINUOUS
 62
     3
100
AcDbText
 10
417.9616
 20
-98.568
 30
0.0
 40
12.0
  1
ＡＣ－１５
 41
0.84
  7
EXCADSTD
 72
     5
 11
477.9616
 21
-98.568
 31
0.0
100
AcDbText
  0
TEXT
  5
62C
100
AcDbEntity
  8
LAY-2
  6
CONTINUOUS
 62
     3
100
AcDbText
 10
417.9424
 20
-115.3104
 30
0.0
 40
12.0
  1
二段式二次用調整器
 41
0.84
  7
EXCADSTD
 72
     5
 11
525.9424
 21
-115.3104
 31
0.0
100
AcDbText
  0
INSERT
  5
62D
100
AcDbEntity
  8
LAY-2
  6
CONTINUOUS
 62
     0
100
AcDbBlockReference
  2
SYM-2
 10
483.516966
 20
-139.67
 30
0.0
 41
1.8
 42
1.8
  0
TEXT
  5
62E
100
AcDbEntity
  8
LAY-2
  6
CONTINUOUS
 62
     3
100
AcDbText
 10
424.288
 20
-82.008
 30
0.0
 40
12.0
  1
２０１４年　４月　１日
 41
0.84
  7
EXCADSTD
 72
     5
 11
556.288
 21
-82.008
 31
0.0
100
AcDbText
  0
LINE
  5
62F
100
AcDbEntity
  8
LAY-3
  6
CONTINUOUS
 62
     2
100
AcDbLine
 10
125.46361
 20
68.170254
 30
0.0
 11
125.46361
 21
78.170254
 31
0.0
  0
LINE
  5
630
100
AcDbEntity
  8
LAY-3
  6
CONTINUOUS
 62
     2
100
AcDbLine
 10
130.293356
 20
68.170254
 30
0.0
 11
125.46361
 21
68.170254
 31
0.0
  0
LINE
  5
631
100
AcDbEntity
  8
LAY-3
  6
CONTINUOUS
 62
     2
100
AcDbLine
 10
130.293356
 20
63.017689
 30
0.0
 11
130.293356
 21
68.170254
 31
0.0
  0
LINE
  5
632
100
AcDbEntity
  8
LAY-3
  6
CONTINUOUS
 62
     2
100
AcDbLine
 10
140.275668
 20
73.0
 30
0.0
 11
130.293356
 21
63.017689
 31
0.0
  0
LINE
  5
633
100
AcDbEntity
  8
LAY-3
  6
CONTINUOUS
 62
     2
100
AcDbLine
 10
130.293356
 20
83.170254
 30
0.0
 11
140.275668
 21
73.0
 31
0.0
  0
LINE
  5
634
100
AcDbEntity
  8
LAY-3
  6
CONTINUOUS
 62
     2
100
AcDbLine
 10
130.293356
 20
78.170254
 30
0.0
 11
130.293356
 21
83.170254
 31
0.0
  0
LINE
  5
635
100
AcDbEntity
  8
LAY-3
  6
CONTINUOUS
 62
     2
100
AcDbLine
 10
125.293356
 20
78.170254
 30
0.0
 11
130.293356
 21
78.170254
 31
0.0
  0
LINE
  5
636
100
AcDbEntity
  8
LAY-3
  6
CONTINUOUS
 62
     1
100
AcDbLine
 10
159.0
 20
58.0
 30
0.0
 11
159.0
 21
-2.5
 31
0.0
  0
LINE
  5
637
100
AcDbEntity
  8
LAY-3
  6
CONTINUOUS
 62
     1
100
AcDbLine
 10
249.0
 20
58.0
 30
0.0
 11
249.0
 21
-2.5
 31
0.0
  0
LINE
  5
638
100
AcDbEntity
  8
LAY-3
  6
CONTINUOUS
 62
     1
100
AcDbLine
 10
159.0
 20
-2.0
 30
0.0
 11
249.0
 21
-2.0
 31
0.0
  0
LINE
  5
639
100
AcDbEntity
  8
LAY-3
  6
CONTINUOUS
 62
     1
100
AcDbLine
 10
161.0
 20
-1.666667
 30
0.0
 11
159.0
 21
-2.0
 31
0.0
  0
LINE
  5
63A
100
AcDbEntity
  8
LAY-3
  6
CONTINUOUS
 62
     1
100
AcDbLine
 10
159.0
 20
-2.0
 30
0.0
 11
161.0
 21
-2.333333
 31
0.0
  0
LINE
  5
63B
100
AcDbEntity
  8
LAY-3
  6
CONTINUOUS
 62
     1
100
AcDbLine
 10
247.0
 20
-2.333333
 30
0.0
 11
249.0
 21
-2.0
 31
0.0
  0
LINE
  5
63C
100
AcDbEntity
  8
LAY-3
  6
CONTINUOUS
 62
     1
100
AcDbLine
 10
249.0
 20
-2.0
 30
0.0
 11
247.0
 21
-1.666667
 31
0.0
  0
TEXT
  5
63D
100
AcDbEntity
  8
LAY-3
  6
CONTINUOUS
 62
     3
100
AcDbText
 10
189.0
 20
-1.0
 30
0.0
 40
15.0
  1
９０
 41
0.84
  7
EXCADSTD
 72
     5
 11
216.498
 21
-1.0
 31
0.0
100
AcDbText
  0
LINE
  5
63E
100
AcDbEntity
  8
LAY-3
  6
CONTINUOUS
 62
     1
100
AcDbLine
 10
259.203715
 20
73.0
 30
0.0
 11
307.5
 21
73.0
 31
0.0
  0
LINE
  5
63F
100
AcDbEntity
  8
LAY-3
  6
CONTINUOUS
 62
     1
100
AcDbLine
 10
283.479469
 20
193.0
 30
0.0
 11
307.5
 21
193.0
 31
0.0
  0
LINE
  5
640
100
AcDbEntity
  8
LAY-3
  6
CONTINUOUS
 62
     1
100
AcDbLine
 10
307.0
 20
73.0
 30
0.0
 11
307.0
 21
193.0
 31
0.0
  0
LINE
  5
641
100
AcDbEntity
  8
LAY-3
  6
CONTINUOUS
 62
     1
100
AcDbLine
 10
306.666667
 20
75.0
 30
0.0
 11
307.0
 21
73.0
 31
0.0
  0
LINE
  5
642
100
AcDbEntity
  8
LAY-3
  6
CONTINUOUS
 62
     1
100
AcDbLine
 10
307.0
 20
73.0
 30
0.0
 11
307.333333
 21
75.0
 31
0.0
  0
LINE
  5
643
100
AcDbEntity
  8
LAY-3
  6
CONTINUOUS
 62
     1
100
AcDbLine
 10
307.333333
 20
191.0
 30
0.0
 11
307.0
 21
193.0
 31
0.0
  0
LINE
  5
644
100
AcDbEntity
  8
LAY-3
  6
CONTINUOUS
 62
     1
100
AcDbLine
 10
307.0
 20
193.0
 30
0.0
 11
306.666667
 21
191.0
 31
0.0
  0
TEXT
  5
645
100
AcDbEntity
  8
LAY-3
  6
CONTINUOUS
 62
     3
100
AcDbText
 10
306.0
 20
110.5
 30
0.0
 40
15.0
  1
１２０
 50
90.0
 41
0.84
  7
EXCADSTD
 72
     5
 11
306.0
 21
155.5
 31
0.0
100
AcDbText
  0
LINE
  5
646
100
AcDbEntity
  8
LAY-3
  6
CONTINUOUS
 62
     1
100
AcDbLine
 10
-49.333975
 20
119.0
 30
0.0
 11
67.1
 21
119.0
 31
0.0
  0
LINE
  5
647
100
AcDbEntity
  8
LAY-3
  6
CONTINUOUS
 62
     1
100
AcDbLine
 10
66.6
 20
119.0
 30
0.0
 11
66.6
 21
267.0
 31
0.0
  0
LINE
  5
648
100
AcDbEntity
  8
LAY-3
  6
CONTINUOUS
 62
     1
100
AcDbLine
 10
66.266667
 20
121.0
 30
0.0
 11
66.6
 21
119.0
 31
0.0
  0
LINE
  5
649
100
AcDbEntity
  8
LAY-3
  6
CONTINUOUS
 62
     1
100
AcDbLine
 10
66.6
 20
119.0
 30
0.0
 11
66.933333
 21
121.0
 31
0.0
  0
LINE
  5
64A
100
AcDbEntity
  8
LAY-3
  6
CONTINUOUS
 62
     1
100
AcDbLine
 10
66.933333
 20
265.0
 30
0.0
 11
66.6
 21
267.0
 31
0.0
  0
LINE
  5
64B
100
AcDbEntity
  8
LAY-3
  6
CONTINUOUS
 62
     1
100
AcDbLine
 10
66.6
 20
267.0
 30
0.0
 11
66.266667
 21
265.0
 31
0.0
  0
TEXT
  5
64C
100
AcDbEntity
  8
LAY-3
  6
CONTINUOUS
 62
     3
100
AcDbText
 10
65.6
 20
163.0
 30
0.0
 40
15.0
  1
φ
 50
90.0
 41
0.84
  7
EXCADSTD
 72
     5
 11
65.6
 21
175.0
 31
0.0
100
AcDbText
  0
TEXT
  5
64D
100
AcDbEntity
  8
LAY-3
  6
CONTINUOUS
 62
     3
100
AcDbText
 10
65.6
 20
178.0
 30
0.0
 40
15.0
  1
１４８
 50
90.0
 41
0.84
  7
EXCADSTD
 72
     5
 11
65.6
 21
223.0
 31
0.0
100
AcDbText
  0
LINE
  5
64E
100
AcDbEntity
  8
LAY-3
  6
CONTINUOUS
 62
     1
100
AcDbLine
 10
-22.2
 20
267.0
 30
0.0
 11
67.1
 21
267.0
 31
0.0
  0
TEXT
  5
64F
100
AcDbEntity
  8
LAY-3
  6
CONTINUOUS
 62
     3
100
AcDbText
 10
52.3
 20
22.6
 30
0.0
 40
15.0
  1
Ｒｃ１／２
 41
0.84
  7
EXCADSTD
 72
     5
 11
127.3
 21
22.6
 31
0.0
100
AcDbText
  0
POLYLINE
  5
650
100
AcDbEntity
  8
LAY-3
  6
CONTINUOUS
 62
     1
100
AcDb2dPolyline
 66
     1
 10
0.0
 20
0.0
 30
0.0
 70
   128
  0
VERTEX
  5
651
100
AcDbEntity
  8
LAY-3
  6
CONTINUOUS
 62
     1
100
AcDbVertex
100
AcDb2dVertex
 10
159.0
 20
71.892575
 30
0.0
  0
VERTEX
  5
652
100
AcDbEntity
  8
LAY-3
  6
CONTINUOUS
 62
     1
100
AcDbVertex
100
AcDb2dVertex
 10
135.8
 20
22.3
 30
0.0
  0
VERTEX
  5
653
100
AcDbEntity
  8
LAY-3
  6
CONTINUOUS
 62
     1
100
AcDbVertex
100
AcDb2dVertex
 10
43.8
 20
22.3
 30
0.0
  0
SEQEND
  5
654
100
AcDbEntity
  8
LAY-3
  6
CONTINUOUS
 62
     1
  0
LINE
  5
655
100
AcDbEntity
  8
LAY-3
  6
CONTINUOUS
 62
     1
100
AcDbLine
 10
158.590841
 20
70.427963
 30
0.0
 11
159.0
 21
71.892575
 31
0.0
  0
LINE
  5
656
100
AcDbEntity
  8
LAY-3
  6
CONTINUOUS
 62
     1
100
AcDbLine
 10
159.0
 20
71.892575
 30
0.0
 11
158.137948
 21
70.639832
 31
0.0
  0
TEXT
  5
657
100
AcDbEntity
  8
LAY-3
  6
CONTINUOUS
 62
     3
100
AcDbText
 10
294.244927
 20
4.486962
 30
0.0
 40
15.0
  1
Ｒｃ１／２
 41
0.84
  7
EXCADSTD
 72
     5
 11
369.244927
 21
4.486962
 31
0.0
100
AcDbText
  0
POLYLINE
  5
658
100
AcDbEntity
  8
LAY-3
  6
CONTINUOUS
 62
     1
100
AcDb2dPolyline
 66
     1
 10
0.0
 20
0.0
 30
0.0
 70
   128
  0
VERTEX
  5
659
100
AcDbEntity
  8
LAY-3
  6
CONTINUOUS
 62
     1
100
AcDbVertex
100
AcDb2dVertex
 10
249.0
 20
71.892575
 30
0.0
  0
VERTEX
  5
65A
100
AcDbEntity
  8
LAY-3
  6
CONTINUOUS
 62
     1
100
AcDbVertex
100
AcDb2dVertex
 10
288.089854
 20
4.186962
 30
0.0
  0
VERTEX
  5
65B
100
AcDbEntity
  8
LAY-3
  6
CONTINUOUS
 62
     1
100
AcDbVertex
100
AcDb2dVertex
 10
375.4
 20
4.186962
 30
0.0
  0
SEQEND
  5
65C
100
AcDbEntity
  8
LAY-3
  6
CONTINUOUS
 62
     1
  0
LINE
  5
65D
100
AcDbEntity
  8
LAY-3
  6
CONTINUOUS
 62
     1
100
AcDbLine
 10
249.966506
 20
70.718537
 30
0.0
 11
249.0
 21
71.892575
 31
0.0
  0
LINE
  5
65E
100
AcDbEntity
  8
LAY-3
  6
CONTINUOUS
 62
     1
100
AcDbLine
 10
249.0
 20
71.892575
 30
0.0
 11
249.533494
 21
70.468537
 31
0.0
  0
POLYLINE
  5
65F
100
AcDbEntity
  8
LAY-3
  6
CONTINUOUS
 62
     1
100
AcDb2dPolyline
 66
     1
 10
0.0
 20
0.0
 30
0.0
 70
   128
  0
VERTEX
  5
660
100
AcDbEntity
  8
LAY-3
  6
CONTINUOUS
 62
     1
100
AcDbVertex
100
AcDb2dVertex
 10
199.899826
 20
455.004283
 30
0.0
  0
VERTEX
  5
661
100
AcDbEntity
  8
LAY-3
  6
CONTINUOUS
 62
     1
100
AcDbVertex
100
AcDb2dVertex
 10
168.375069
 20
423.479526
 30
0.0
  0
VERTEX
  5
662
100
AcDbEntity
  8
LAY-3
  6
CONTINUOUS
 62
     1
100
AcDbVertex
100
AcDb2dVertex
 10
75.313683
 20
423.479526
 30
0.0
  0
SEQEND
  5
663
100
AcDbEntity
  8
LAY-3
  6
CONTINUOUS
 62
     1
  0
LINE
  5
664
100
AcDbEntity
  8
LAY-3
  6
CONTINUOUS
 62
     1
100
AcDbLine
 10
199.015943
 20
453.766847
 30
0.0
 11
199.899826
 21
455.004283
 31
0.0
  0
LINE
  5
665
100
AcDbEntity
  8
LAY-3
  6
CONTINUOUS
 62
     1
100
AcDbLine
 10
199.899826
 20
455.004283
 30
0.0
 11
198.662389
 21
454.1204
 31
0.0
  0
TEXT
  5
666
100
AcDbEntity
  8
LAY-3
  6
CONTINUOUS
 62
     3
100
AcDbText
 10
84.344376
 20
423.779526
 30
0.0
 40
15.0
  1
Ｒｃ１／４
 41
0.84
  7
EXCADSTD
 72
     5
 11
159.344376
 21
423.779526
 31
0.0
100
AcDbText
  0
ENDSEC
  0
SECTION
  2
OBJECTS
  0
DICTIONARY
  5
19
100
AcDbDictionary
  3
ACAD_GROUP
350
1A
  3
ACAD_MLINESTYLE
350
1B
  0
DICTIONARY
  5
1A
102
{ACAD_REACTORS
330
19
102
}
100
AcDbDictionary
  0
DICTIONARY
  5
1B
102
{ACAD_REACTORS
330
19
102
}
100
AcDbDictionary
  3
STANDARD
350
1C
  0
MLINESTYLE
  5
1C
102
{ACAD_REACTORS
330
1B
102
}
100
AcDbMlineStyle
  2
Standard
 70
     0
  3

 62
     0
 51
90.0
 52
90.0
 71
     2
 49
0.5
 62
   256
  6
ByLayer
 49
-0.5
 62
   256
  6
ByLayer
  0
ENDSEC
  0
EOF
