  0
SECTION
  2
HEADER
  9
$ACADVER
  1
AC1014
  9
$ACADMAINTVER
 70
     0
  9
$DWGCODEPAGE
  3
ANSI_932
  9
$INSBASE
 10
0.0
 20
0.0
 30
0.0
  9
$EXTMIN
 10
104.775853
 20
42.5
 30
0.0
  9
$EXTMAX
 10
1441.224147
 20
1214.934685
 30
0.0
  9
$LIMMIN
 10
0.0
 20
0.0
  9
$LIMMAX
 10
420.0
 20
297.0
  9
$ORTHOMODE
 70
     0
  9
$REGENMODE
 70
     1
  9
$FILLMODE
 70
     1
  9
$QTEXTMODE
 70
     0
  9
$MIRRTEXT
 70
     1
  9
$DRAGMODE
 70
     2
  9
$LTSCALE
 40
1.0
  9
$OSMODE
 70
     0
  9
$ATTMODE
 70
     1
  9
$TEXTSIZE
 40
0.2
  9
$TRACEWID
 40
0.05
  9
$TEXTSTYLE
  7
STANDARD
  9
$CLAYER
  8
LAY-1
  9
$CELTYPE
  6
CONTINUOUS
  9
$CECOLOR
 62
   256
  9
$CELTSCALE
 40
1.0
  9
$DELOBJ
 70
     1
  9
$DISPSILH
 70
     0
  9
$DIMSCALE
 40
1.0
  9
$DIMASZ
 40
0.18
  9
$DIMEXO
 40
0.0625
  9
$DIMDLI
 40
0.38
  9
$DIMRND
 40
0.0
  9
$DIMDLE
 40
0.0
  9
$DIMEXE
 40
0.18
  9
$DIMTP
 40
0.0
  9
$DIMTM
 40
0.0
  9
$DIMTXT
 40
0.18
  9
$DIMCEN
 40
0.09
  9
$DIMTSZ
 40
0.0
  9
$DIMTOL
 70
     0
  9
$DIMLIM
 70
     0
  9
$DIMTIH
 70
     1
  9
$DIMTOH
 70
     1
  9
$DIMSE1
 70
     0
  9
$DIMSE2
 70
     0
  9
$DIMTAD
 70
     0
  9
$DIMZIN
 70
     0
  9
$DIMBLK
  1

  9
$DIMASO
 70
     1
  9
$DIMSHO
 70
     1
  9
$DIMPOST
  1

  9
$DIMAPOST
  1

  9
$DIMALT
 70
     0
  9
$DIMALTD
 70
     2
  9
$DIMALTF
 40
25.4
  9
$DIMLFAC
 40
1.0
  9
$DIMTOFL
 70
     0
  9
$DIMTVP
 40
0.0
  9
$DIMTIX
 70
     0
  9
$DIMSOXD
 70
     0
  9
$DIMSAH
 70
     0
  9
$DIMBLK1
  1

  9
$DIMBLK2
  1

  9
$DIMSTYLE
  2
STANDARD
  9
$DIMCLRD
 70
     0
  9
$DIMCLRE
 70
     0
  9
$DIMCLRT
 70
     0
  9
$DIMTFAC
 40
1.0
  9
$DIMGAP
 40
0.09
  9
$DIMJUST
 70
     0
  9
$DIMSD1
 70
     0
  9
$DIMSD2
 70
     0
  9
$DIMTOLJ
 70
     1
  9
$DIMTZIN
 70
     0
  9
$DIMALTZ
 70
     0
  9
$DIMALTTZ
 70
     0
  9
$DIMFIT
 70
     3
  9
$DIMUPT
 70
     0
  9
$DIMUNIT
 70
     2
  9
$DIMDEC
 70
     4
  9
$DIMTDEC
 70
     4
  9
$DIMALTU
 70
     2
  9
$DIMALTTD
 70
     2
  9
$DIMTXSTY
  7
STANDARD
  9
$DIMAUNIT
 70
     0
  9
$LUNITS
 70
     2
  9
$LUPREC
 70
     4
  9
$SKETCHINC
 40
0.1
  9
$FILLETRAD
 40
0.0
  9
$AUNITS
 70
     0
  9
$AUPREC
 70
     0
  9
$MENU
  1
acad
  9
$ELEVATION
 40
0.0
  9
$PELEVATION
 40
0.0
  9
$THICKNESS
 40
0.0
  9
$LIMCHECK
 70
     0
  9
$BLIPMODE
 70
     1
  9
$CHAMFERA
 40
0.0
  9
$CHAMFERB
 40
0.0
  9
$CHAMFERC
 40
0.0
  9
$CHAMFERD
 40
0.0
  9
$SKPOLY
 70
     0
  9
$TDCREATE
 40
2456723.144865185
  9
$TDUPDATE
 40
2456723.144865185
  9
$TDINDWG
 40
0.0000000000
  9
$TDUSRTIMER
 40
0.0000000000
  9
$USRTIMER
 70
     1
  9
$ANGBASE
 50
0.0
  9
$ANGDIR
 70
     0
  9
$PDMODE
 70
     0
  9
$PDSIZE
 40
0.0
  9
$PLINEWID
 40
0.0
  9
$COORDS
 70
     1
  9
$SPLFRAME
 70
     0
  9
$SPLINETYPE
 70
     6
  9
$SPLINESEGS
 70
     8
  9
$ATTDIA
 70
     0
  9
$ATTREQ
 70
     1
  9
$HANDLING
 70
     1
  9
$HANDSEED
  5
7CE
  9
$SURFTAB1
 70
     6
  9
$SURFTAB2
 70
     6
  9
$SURFTYPE
 70
     6
  9
$SURFU
 70
     6
  9
$SURFV
 70
     6
  9
$UCSNAME
  2

  9
$UCSORG
 10
0.0
 20
0.0
 30
0.0
  9
$UCSXDIR
 10
1.0
 20
0.0
 30
0.0
  9
$UCSYDIR
 10
0.0
 20
1.0
 30
0.0
  9
$PUCSNAME
  2

  9
$PUCSORG
 10
0.0
 20
0.0
 30
0.0
  9
$PUCSXDIR
 10
1.0
 20
0.0
 30
0.0
  9
$PUCSYDIR
 10
0.0
 20
1.0
 30
0.0
  9
$USERI1
 70
     0
  9
$USERI2
 70
     0
  9
$USERI3
 70
     0
  9
$USERI4
 70
     0
  9
$USERI5
 70
     0
  9
$USERR1
 40
0.0
  9
$USERR2
 40
0.0
  9
$USERR3
 40
0.0
  9
$USERR4
 40
0.0
  9
$USERR5
 40
0.0
  9
$WORLDVIEW
 70
     1
  9
$SHADEDGE
 70
     3
  9
$SHADEDIF
 70
    70
  9
$TILEMODE
 70
     1
  9
$MAXACTVP
 70
    16
  9
$PINSBASE
 10
0.0
 20
0.0
 30
0.0
  9
$PLIMCHECK
 70
     0
  9
$PEXTMIN
 10
1.000000E+20
 20
1.000000E+20
 30
1.000000E+20
  9
$PEXTMAX
 10
-1.000000E+20
 20
-1.000000E+20
 30
-1.000000E+20
  9
$PLIMMIN
 10
0.0
 20
0.0
  9
$PLIMMAX
 10
12.0
 20
9.0
  9
$UNITMODE
 70
     0
  9
$VISRETAIN
 70
     0
  9
$PLINEGEN
 70
     1
  9
$PSLTSCALE
 70
     0
  9
$TREEDEPTH
 70
  3020
  9
$PICKSTYLE
 70
     1
  9
$CMLSTYLE
  2
Standard
  9
$CMLJUST
 70
     0
  9
$CMLSCALE
 40
1.0
  9
$PROXYGRAPHICS
 70
     0
  9
$MEASUREMENT
 70
     0
  0
ENDSEC
  0
SECTION
  2
CLASSES
  0
CLASS
  1
LWPOLYLINE
  2
AcDbPolyline
  3
"AutoCAD"
 90
        0
280
     0
281
     1
  0
CLASS
  1
IMAGE
  2
AcDbRasterImage
  3
ISM
 90
      127
280
     0
281
     1
  0
CLASS
  1
OLE2FRAME
  2
AcDbOle2Frame
  3
""
 90
        0
280
     0
281
     1
  0
CLASS
  1
HATCH
  2
AcDbHatch
  3
"ACAD_SEDONA"
 90
        0
280
     0
281
     1
  0
CLASS
  1
DICTIONARYVAR
  2
AcDbDictionaryVar
  3
"AutoCAD"
 90
        0
280
     0
281
     0
  0
CLASS
  1
RASTERVARIABLES
  2
AcDbRasterVariables
  3
ISM
 90
        0
280
     0
281
     0
  0
CLASS
  1
IMAGEDEF
  2
AcDbRasterImageDef
  3
ISM
 90
        0
280
     0
281
     0
  0
CLASS
  1
IMAGEDEF_REACTOR
  2
AcDbRasterImageDefReactor
  3
ISM
 90
        1
280
     0
281
     0
  0
CLASS
  1
IDBUFFER
  2
AcDbIdBuffer
  3
"Acad"
 90
        0
280
     0
281
     0
  0
CLASS
  1
SPATIAL_FILTER
  2
AcDbSpatialFilter
  3
"Acad"
 90
        0
280
     0
281
     0
  0
CLASS
  1
XRECORD
  2
AcDbXrecord
  3
"<Built In>"
 90
        0
280
     0
281
     0
  0
CLASS
  1
SORTENTSTABLE
  2
AcDbSortentsTable
  3
"AutoCAD"
 90
        0
280
     0
281
     0
  0
CLASS
  1
LAYER_INDEX
  2
AcDbLayerIndex
  3
"Acad"
 90
        0
280
     0
281
     0
  0
CLASS
  1
SPATIAL_INDEX
  2
AcDbSpatialIndex
  3
"Acad"
 90
        0
280
     0
281
     0
  0
CLASS
  1
OBJECT_PTR
  2
CAseDLPNTableRecord
  3
"ASE-LPNTableRecord"
 90
        1
280
     0
281
     0
  0
CLASS
  1
LAYOUT
  2
AcDbLayout
  3
"AutoCAD 2000"
 90
        0
280
     0
281
     0
  0
CLASS
  1
PLOTSETTINGS
  2
AcDbPlotSettings
  3
"AutoCAD 2000"
 90
        0
280
     0
281
     0
  0
CLASS
  1
ACDBDICTIONARYWDFLT
  2
AcDbDictionaryWithDefault
  3
"AutoCAD 2000"
 90
        0
280
     0
281
     0
  0
CLASS
  1
ACDBPLACEHOLDER
  2
AcDbPlaceHolder
  3
"AutoCAD 2000"
 90
        0
280
     0
281
     0
  0
CLASS
  1
VBA_PROJECT
  2
AcDbVbaProject
  3
"acadvba"
 90
        0
280
     0
281
     0
  0
CLASS
  1
WIPEOUT
  2
AcDbWipeout
  3
WipeOut|AutoCAD Express Tool|expresstools@autodesk.com
 90
      127
280
     0
281
     1
  0
CLASS
  1
WIPEOUTVARIABLES
  2
AcDbWipeoutVariables
  3
WipeOut|AutoCAD Express Tool|expresstools@autodesk.com
 90
        0
280
     0
281
     0
  0
CLASS
  1
RTEXT
  2
RText
  3
RText|AutoCAD Express Tool|expresstools@autodesk.com
 90
        0
280
     0
281
     1
  0
CLASS
  1
ARCALIGNEDTEXT
  2
AcDbArcAlignedText
  3
ATEXT|AutoCAD Express Tool|expresstools@autodesk.com
 90
        0
280
     0
281
     1
  0
ENDSEC
  0
SECTION
  2
TABLES
  0
TABLE
  2
VPORT
  5
7
100
AcDbSymbolTable
 70
     1
  0
VPORT
  5
15
100
AcDbSymbolTableRecord
100
AcDbViewportTableRecord
  2
*ACTIVE
 70
     0
 10
0.0
 20
0.0
 11
1.0
 21
1.0
 12
773.0
 22
628.717343
 13
0.0
 23
0.0
 14
1.0
 24
1.0
 15
0.0
 25
0.0
 16
0.0
 26
0.0
 36
1.0
 17
0.0
 27
0.0
 37
0.0
 40
1172.434685
 41
1.722533
 42
50.0
 43
0.0
 44
0.0
 50
0.0
 51
0.0
 71
     0
 72
  1000
 73
     1
 74
     1
 75
     0
 76
     0
 77
     0
 78
     0
  0
ENDTAB
  0
TABLE
  2
LTYPE
  5
4
100
AcDbSymbolTable
 70
     9
  0
LTYPE
  5
11
100
AcDbSymbolTableRecord
100
AcDbLinetypeTableRecord
  2
BYBLOCK
 70
    64
  3

 72
    65
 73
     0
 40
0.0
  0
LTYPE
  5
12
100
AcDbSymbolTableRecord
100
AcDbLinetypeTableRecord
  2
BYLAYER
 70
    64
  3

 72
    65
 73
     0
 40
0.0
  0
LTYPE
  5
13
100
AcDbSymbolTableRecord
100
AcDbLinetypeTableRecord
  2
CONTINUOUS
 70
    64
  3
実線
 72
    65
 73
     0
 40
0.0
  0
LTYPE
  5
1D
100
AcDbSymbolTableRecord
100
AcDbLinetypeTableRecord
  2
EXLTYPE1
 70
    64
  3
破線
 72
    65
 73
     2
 40
4.0
 49
3.0
 74
     0
 49
-1.0
 74
     0
  0
LTYPE
  5
1E
100
AcDbSymbolTableRecord
100
AcDbLinetypeTableRecord
  2
EXLTYPE2
 70
    64
  3
点線
 72
    65
 73
     2
 40
2.0
 49
1.0
 74
     0
 49
-1.0
 74
     0
  0
LTYPE
  5
1F
100
AcDbSymbolTableRecord
100
AcDbLinetypeTableRecord
  2
EXLTYPE3
 70
    64
  3
一点鎖線
 72
    65
 73
     4
 40
33.0
 49
30.0
 74
     0
 49
-1.0
 74
     0
 49
1.0
 74
     0
 49
-1.0
 74
     0
  0
LTYPE
  5
20
100
AcDbSymbolTableRecord
100
AcDbLinetypeTableRecord
  2
EXLTYPE4
 70
    64
  3
二点鎖線
 72
    65
 73
     6
 40
35.0
 49
30.0
 74
     0
 49
-1.0
 74
     0
 49
1.0
 74
     0
 49
-1.0
 74
     0
 49
1.0
 74
     0
 49
-1.0
 74
     0
  0
LTYPE
  5
21
100
AcDbSymbolTableRecord
100
AcDbLinetypeTableRecord
  2
EXLTYPE5
 70
    64
  3
三点鎖線
 72
    65
 73
     8
 40
37.0
 49
30.0
 74
     0
 49
-1.0
 74
     0
 49
1.0
 74
     0
 49
-1.0
 74
     0
 49
1.0
 74
     0
 49
-1.0
 74
     0
 49
1.0
 74
     0
 49
-1.0
 74
     0
  0
LTYPE
  5
22
100
AcDbSymbolTableRecord
100
AcDbLinetypeTableRecord
  2
EXLTYPE6
 70
    64
  3
四点鎖線
 72
    65
 73
    10
 40
39.0
 49
30.0
 74
     0
 49
-1.0
 74
     0
 49
1.0
 74
     0
 49
-1.0
 74
     0
 49
1.0
 74
     0
 49
-1.0
 74
     0
 49
1.0
 74
     0
 49
-1.0
 74
     0
 49
1.0
 74
     0
 49
-1.0
 74
     0
  0
ENDTAB
  0
TABLE
  2
LAYER
  5
2
100
AcDbSymbolTable
 70
     4
  0
LAYER
  5
14
100
AcDbSymbolTableRecord
100
AcDbLayerTableRecord
  2
0
 70
     0
 62
     7
  6
CONTINUOUS
  0
LAYER
  5
25
100
AcDbSymbolTableRecord
100
AcDbLayerTableRecord
  2
LAY-1
 70
    64
 62
     3
  6
CONTINUOUS
  0
LAYER
  5
26
100
AcDbSymbolTableRecord
100
AcDbLayerTableRecord
  2
LAY-2
 70
    64
 62
     7
  6
CONTINUOUS
  0
LAYER
  5
27
100
AcDbSymbolTableRecord
100
AcDbLayerTableRecord
  2
LAY-5
 70
    64
 62
     1
  6
CONTINUOUS
  0
ENDTAB
  0
TABLE
  2
STYLE
  5
3
100
AcDbSymbolTable
 70
     3
  0
STYLE
  5
17
100
AcDbSymbolTableRecord
100
AcDbTextStyleTableRecord
  2
STANDARD
 70
     0
 40
0.0
 41
1.0
 50
0.0
 71
     0
 42
0.0
  3
monotxt
  4
extfont
  0
STYLE
  5
23
100
AcDbSymbolTableRecord
100
AcDbTextStyleTableRecord
  2
EXCADSTD
 70
    64
 40
0.0
 41
1.0
 50
0.0
 71
     0
 42
0.2
  3
monotxt
  4
extfont
  0
STYLE
  5
24
100
AcDbSymbolTableRecord
100
AcDbTextStyleTableRecord
  2
EXCADVERT
 70
    68
 40
0.0
 41
1.0
 50
0.0
 71
     0
 42
0.286885
  3
monotxt
  4
extfont
  0
ENDTAB
  0
TABLE
  2
VIEW
  5
5
100
AcDbSymbolTable
 70
     0
  0
ENDTAB
  0
TABLE
  2
UCS
  5
6
100
AcDbSymbolTable
 70
     0
  0
ENDTAB
  0
TABLE
  2
APPID
  5
8
100
AcDbSymbolTable
 70
     1
  0
APPID
  5
16
100
AcDbSymbolTableRecord
100
AcDbRegAppTableRecord
  2
ACAD
 70
     0
  0
ENDTAB
  0
TABLE
  2
DIMSTYLE
  5
9
100
AcDbSymbolTable
 70
     1
  0
DIMSTYLE
105
18
100
AcDbSymbolTableRecord
100
AcDbDimStyleTableRecord
  2
STANDARD
 70
     0
  3

  4

  5

  6

  7

 40
1.0
 41
0.18
 42
0.0625
 43
0.38
 44
0.18
 45
0.0
 46
0.0
 47
0.0
 48
0.0
 71
     0
 72
     0
 73
     1
 74
     1
 75
     0
 76
     0
 77
     0
 78
     0
140
0.18
141
0.09
142
0.0
143
25.4
144
1.0
145
0.0
146
1.0
147
0.09
170
     0
171
     2
172
     1
173
     0
174
     0
175
     0
176
     0
177
     0
178
     0
270
     2
271
     4
272
     4
273
     2
274
     2
275
     0
280
     0
281
     0
282
     0
283
     1
284
     0
285
     0
286
     0
287
     3
288
     0
340
17
  0
ENDTAB
  0
TABLE
  2
BLOCK_RECORD
  5
1
100
AcDbSymbolTable
 70
    15
  0
BLOCK_RECORD
  5
A
100
AcDbSymbolTableRecord
100
AcDbBlockTableRecord
  2
*MODEL_SPACE
  0
BLOCK_RECORD
  5
B
100
AcDbSymbolTableRecord
100
AcDbBlockTableRecord
  2
*PAPER_SPACE
  0
BLOCK_RECORD
  5
28
100
AcDbSymbolTableRecord
100
AcDbBlockTableRecord
  2
_EX_NORM
  0
BLOCK_RECORD
  5
29
100
AcDbSymbolTableRecord
100
AcDbBlockTableRecord
  2
_EX_BNORM
  0
BLOCK_RECORD
  5
2A
100
AcDbSymbolTableRecord
100
AcDbBlockTableRecord
  2
_EX_BCIR
  0
BLOCK_RECORD
  5
2B
100
AcDbSymbolTableRecord
100
AcDbBlockTableRecord
  2
_EX_RCIVIL
  0
BLOCK_RECORD
  5
2C
100
AcDbSymbolTableRecord
100
AcDbBlockTableRecord
  2
_EX_SLANT
  0
BLOCK_RECORD
  5
2D
100
AcDbSymbolTableRecord
100
AcDbBlockTableRecord
  2
_EX_NONE
  0
BLOCK_RECORD
  5
2E
100
AcDbSymbolTableRecord
100
AcDbBlockTableRecord
  2
_EX_CIVIL
  0
BLOCK_RECORD
  5
2F
100
AcDbSymbolTableRecord
100
AcDbBlockTableRecord
  2
_EX_WCIR
  0
BLOCK_RECORD
  5
30
100
AcDbSymbolTableRecord
100
AcDbBlockTableRecord
  2
_EX_WCIR2
  0
BLOCK_RECORD
  5
31
100
AcDbSymbolTableRecord
100
AcDbBlockTableRecord
  2
_EX_WNORM
  0
BLOCK_RECORD
  5
32
100
AcDbSymbolTableRecord
100
AcDbBlockTableRecord
  2
_EX_NNORM
  0
BLOCK_RECORD
  5
33
100
AcDbSymbolTableRecord
100
AcDbBlockTableRecord
  2
_EX_BBOX
  0
BLOCK_RECORD
  5
34
100
AcDbSymbolTableRecord
100
AcDbBlockTableRecord
  2
_EX_WBOX
  0
BLOCK_RECORD
  5
35
100
AcDbSymbolTableRecord
100
AcDbBlockTableRecord
  2
_EX_INTEGRAL
  0
BLOCK_RECORD
  5
36
100
AcDbSymbolTableRecord
100
AcDbBlockTableRecord
  2
SYM-1
  0
ENDTAB
  0
ENDSEC
  0
SECTION
  2
BLOCKS
  0
BLOCK
  5
D
100
AcDbEntity
  8
0
100
AcDbBlockBegin
  2
*MODEL_SPACE
 70
     0
 10
0.0
 20
0.0
 30
0.0
  3
*MODEL_SPACE
  1

  0
ENDBLK
  5
E
100
AcDbEntity
  8
0
100
AcDbBlockEnd
  0
BLOCK
  5
F
100
AcDbEntity
 67
     1
  8
0
100
AcDbBlockBegin
  2
*PAPER_SPACE
 70
     0
 10
0.0
 20
0.0
 30
0.0
  3
*PAPER_SPACE
  1

  0
ENDBLK
  5
10
100
AcDbEntity
 67
     1
  8
0
100
AcDbBlockEnd
  0
BLOCK
  5
37
100
AcDbEntity
  8
0
100
AcDbBlockBegin
  2
_EX_NORM
 70
     0
 10
0.0
 20
0.0
 30
0.0
  3
_EX_NORM
  1

  0
LINE
  5
38
100
AcDbEntity
  8
0
  6
CONTINUOUS
 62
     0
100
AcDbLine
 10
0.0
 20
0.0
 30
0.0
 11
-1.0
 21
0.0
 31
0.0
  0
LINE
  5
39
100
AcDbEntity
  8
0
  6
CONTINUOUS
 62
     0
100
AcDbLine
 10
0.0
 20
0.0
 30
0.0
 11
-1.0
 21
0.166667
 31
0.0
  0
LINE
  5
3A
100
AcDbEntity
  8
0
  6
CONTINUOUS
 62
     0
100
AcDbLine
 10
0.0
 20
0.0
 30
0.0
 11
-1.0
 21
-0.166667
 31
0.0
  0
ENDBLK
  5
3B
100
AcDbEntity
  8
0
100
AcDbBlockEnd
  0
BLOCK
  5
3C
100
AcDbEntity
  8
0
100
AcDbBlockBegin
  2
_EX_BNORM
 70
     0
 10
0.0
 20
0.0
 30
0.0
  3
_EX_BNORM
  1

  0
LINE
  5
3D
100
AcDbEntity
  8
0
  6
CONTINUOUS
 62
     0
100
AcDbLine
 10
0.0
 20
0.0
 30
0.0
 11
-1.0
 21
0.0
 31
0.0
  0
LINE
  5
3E
100
AcDbEntity
  8
0
  6
CONTINUOUS
 62
     0
100
AcDbLine
 10
0.0
 20
0.0
 30
0.0
 11
-1.0
 21
0.166667
 31
0.0
  0
LINE
  5
3F
100
AcDbEntity
  8
0
  6
CONTINUOUS
 62
     0
100
AcDbLine
 10
0.0
 20
0.0
 30
0.0
 11
-1.0
 21
-0.166667
 31
0.0
  0
LINE
  5
40
100
AcDbEntity
  8
0
  6
CONTINUOUS
 62
     0
100
AcDbLine
 10
0.0
 20
0.0
 30
0.0
 11
-1.0
 21
0.083333
 31
0.0
  0
LINE
  5
41
100
AcDbEntity
  8
0
  6
CONTINUOUS
 62
     0
100
AcDbLine
 10
0.0
 20
0.0
 30
0.0
 11
-1.0
 21
-0.083333
 31
0.0
  0
LINE
  5
42
100
AcDbEntity
  8
0
  6
CONTINUOUS
 62
     0
100
AcDbLine
 10
-1.0
 20
0.166667
 30
0.0
 11
-1.0
 21
-0.166667
 31
0.0
  0
ENDBLK
  5
43
100
AcDbEntity
  8
0
100
AcDbBlockEnd
  0
BLOCK
  5
44
100
AcDbEntity
  8
0
100
AcDbBlockBegin
  2
_EX_BCIR
 70
     0
 10
0.0
 20
0.0
 30
0.0
  3
_EX_BCIR
  1

  0
LINE
  5
45
100
AcDbEntity
  8
0
  6
CONTINUOUS
 62
     0
100
AcDbLine
 10
0.0
 20
0.0
 30
0.0
 11
-1.0
 21
0.0
 31
0.0
  0
CIRCLE
  5
46
100
AcDbEntity
  8
0
  6
CONTINUOUS
 62
     0
100
AcDbCircle
 10
0.0
 20
0.0
 30
0.0
 40
0.5
  0
CIRCLE
  5
47
100
AcDbEntity
  8
0
  6
CONTINUOUS
 62
     0
100
AcDbCircle
 10
0.0
 20
0.0
 30
0.0
 40
0.25
  0
ENDBLK
  5
48
100
AcDbEntity
  8
0
100
AcDbBlockEnd
  0
BLOCK
  5
49
100
AcDbEntity
  8
0
100
AcDbBlockBegin
  2
_EX_RCIVIL
 70
     0
 10
0.0
 20
0.0
 30
0.0
  3
_EX_RCIVIL
  1

  0
LINE
  5
4A
100
AcDbEntity
  8
0
  6
CONTINUOUS
 62
     0
100
AcDbLine
 10
0.0
 20
0.0
 30
0.0
 11
-1.0
 21
0.0
 31
0.0
  0
LINE
  5
4B
100
AcDbEntity
  8
0
  6
CONTINUOUS
 62
     0
100
AcDbLine
 10
-1.0
 20
-0.25
 30
0.0
 11
0.0
 21
-0.25
 31
0.0
  0
LINE
  5
4C
100
AcDbEntity
  8
0
  6
CONTINUOUS
 62
     0
100
AcDbLine
 10
-1.0
 20
-0.125
 30
0.0
 11
0.0
 21
-0.125
 31
0.0
  0
ENDBLK
  5
4D
100
AcDbEntity
  8
0
100
AcDbBlockEnd
  0
BLOCK
  5
4E
100
AcDbEntity
  8
0
100
AcDbBlockBegin
  2
_EX_SLANT
 70
     0
 10
0.0
 20
0.0
 30
0.0
  3
_EX_SLANT
  1

  0
LINE
  5
4F
100
AcDbEntity
  8
0
  6
CONTINUOUS
 62
     0
100
AcDbLine
 10
0.0
 20
0.0
 30
0.0
 11
-1.0
 21
0.0
 31
0.0
  0
LINE
  5
50
100
AcDbEntity
  8
0
  6
CONTINUOUS
 62
     0
100
AcDbLine
 10
0.707107
 20
0.707107
 30
0.0
 11
-0.707107
 21
-0.707107
 31
0.0
  0
ENDBLK
  5
51
100
AcDbEntity
  8
0
100
AcDbBlockEnd
  0
BLOCK
  5
52
100
AcDbEntity
  8
0
100
AcDbBlockBegin
  2
_EX_NONE
 70
     0
 10
0.0
 20
0.0
 30
0.0
  3
_EX_NONE
  1

  0
LINE
  5
53
100
AcDbEntity
  8
0
  6
CONTINUOUS
 62
     0
100
AcDbLine
 10
0.0
 20
0.0
 30
0.0
 11
-1.0
 21
0.0
 31
0.0
  0
ENDBLK
  5
54
100
AcDbEntity
  8
0
100
AcDbBlockEnd
  0
BLOCK
  5
55
100
AcDbEntity
  8
0
100
AcDbBlockBegin
  2
_EX_CIVIL
 70
     0
 10
0.0
 20
0.0
 30
0.0
  3
_EX_CIVIL
  1

  0
LINE
  5
56
100
AcDbEntity
  8
0
  6
CONTINUOUS
 62
     0
100
AcDbLine
 10
0.0
 20
0.0
 30
0.0
 11
-1.0
 21
0.0
 31
0.0
  0
LINE
  5
57
100
AcDbEntity
  8
0
  6
CONTINUOUS
 62
     0
100
AcDbLine
 10
-1.0
 20
0.25
 30
0.0
 11
0.0
 21
0.25
 31
0.0
  0
LINE
  5
58
100
AcDbEntity
  8
0
  6
CONTINUOUS
 62
     0
100
AcDbLine
 10
-1.0
 20
0.125
 30
0.0
 11
0.0
 21
0.125
 31
0.0
  0
ENDBLK
  5
59
100
AcDbEntity
  8
0
100
AcDbBlockEnd
  0
BLOCK
  5
5A
100
AcDbEntity
  8
0
100
AcDbBlockBegin
  2
_EX_WCIR
 70
     0
 10
0.0
 20
0.0
 30
0.0
  3
_EX_WCIR
  1

  0
LINE
  5
5B
100
AcDbEntity
  8
0
  6
CONTINUOUS
 62
     0
100
AcDbLine
 10
0.0
 20
0.0
 30
0.0
 11
-1.0
 21
0.0
 31
0.0
  0
CIRCLE
  5
5C
100
AcDbEntity
  8
0
  6
CONTINUOUS
 62
     0
100
AcDbCircle
 10
0.0
 20
0.0
 30
0.0
 40
0.5
  0
ENDBLK
  5
5D
100
AcDbEntity
  8
0
100
AcDbBlockEnd
  0
BLOCK
  5
5E
100
AcDbEntity
  8
0
100
AcDbBlockBegin
  2
_EX_WCIR2
 70
     0
 10
0.0
 20
0.0
 30
0.0
  3
_EX_WCIR2
  1

  0
LINE
  5
5F
100
AcDbEntity
  8
0
  6
CONTINUOUS
 62
     0
100
AcDbLine
 10
-0.5
 20
0.0
 30
0.0
 11
-1.0
 21
0.0
 31
0.0
  0
CIRCLE
  5
60
100
AcDbEntity
  8
0
  6
CONTINUOUS
 62
     0
100
AcDbCircle
 10
0.0
 20
0.0
 30
0.0
 40
0.5
  0
ENDBLK
  5
61
100
AcDbEntity
  8
0
100
AcDbBlockEnd
  0
BLOCK
  5
62
100
AcDbEntity
  8
0
100
AcDbBlockBegin
  2
_EX_WNORM
 70
     0
 10
0.0
 20
0.0
 30
0.0
  3
_EX_WNORM
  1

  0
LINE
  5
63
100
AcDbEntity
  8
0
  6
CONTINUOUS
 62
     0
100
AcDbLine
 10
-1.0
 20
0.0
 30
0.0
 11
-1.0
 21
0.0
 31
0.0
  0
LINE
  5
64
100
AcDbEntity
  8
0
  6
CONTINUOUS
 62
     0
100
AcDbLine
 10
0.0
 20
0.0
 30
0.0
 11
-1.0
 21
0.166667
 31
0.0
  0
LINE
  5
65
100
AcDbEntity
  8
0
  6
CONTINUOUS
 62
     0
100
AcDbLine
 10
0.0
 20
0.0
 30
0.0
 11
-1.0
 21
-0.166667
 31
0.0
  0
LINE
  5
66
100
AcDbEntity
  8
0
  6
CONTINUOUS
 62
     0
100
AcDbLine
 10
-1.0
 20
0.166667
 30
0.0
 11
-1.0
 21
-0.166667
 31
0.0
  0
ENDBLK
  5
67
100
AcDbEntity
  8
0
100
AcDbBlockEnd
  0
BLOCK
  5
68
100
AcDbEntity
  8
0
100
AcDbBlockBegin
  2
_EX_NNORM
 70
     0
 10
0.0
 20
0.0
 30
0.0
  3
_EX_NNORM
  1

  0
LINE
  5
69
100
AcDbEntity
  8
0
  6
CONTINUOUS
 62
     0
100
AcDbLine
 10
0.0
 20
0.0
 30
0.0
 11
-1.0
 21
0.0
 31
0.0
  0
LINE
  5
6A
100
AcDbEntity
  8
0
  6
CONTINUOUS
 62
     0
100
AcDbLine
 10
0.0
 20
0.0
 30
0.0
 11
-1.0
 21
0.166667
 31
0.0
  0
LINE
  5
6B
100
AcDbEntity
  8
0
  6
CONTINUOUS
 62
     0
100
AcDbLine
 10
0.0
 20
0.0
 30
0.0
 11
-1.0
 21
-0.166667
 31
0.0
  0
LINE
  5
6C
100
AcDbEntity
  8
0
  6
CONTINUOUS
 62
     0
100
AcDbLine
 10
-1.0
 20
0.166667
 30
0.0
 11
-1.0
 21
-0.166667
 31
0.0
  0
ENDBLK
  5
6D
100
AcDbEntity
  8
0
100
AcDbBlockEnd
  0
BLOCK
  5
6E
100
AcDbEntity
  8
0
100
AcDbBlockBegin
  2
_EX_BBOX
 70
     0
 10
0.0
 20
0.0
 30
0.0
  3
_EX_BBOX
  1

  0
LINE
  5
6F
100
AcDbEntity
  8
0
  6
CONTINUOUS
 62
     0
100
AcDbLine
 10
0.0
 20
0.0
 30
0.0
 11
-1.0
 21
0.0
 31
0.0
  0
LINE
  5
70
100
AcDbEntity
  8
0
  6
CONTINUOUS
 62
     0
100
AcDbLine
 10
-0.5
 20
0.5
 30
0.0
 11
0.5
 21
0.5
 31
0.0
  0
LINE
  5
71
100
AcDbEntity
  8
0
  6
CONTINUOUS
 62
     0
100
AcDbLine
 10
0.5
 20
0.5
 30
0.0
 11
0.5
 21
-0.5
 31
0.0
  0
LINE
  5
72
100
AcDbEntity
  8
0
  6
CONTINUOUS
 62
     0
100
AcDbLine
 10
0.5
 20
-0.5
 30
0.0
 11
-0.5
 21
-0.5
 31
0.0
  0
LINE
  5
73
100
AcDbEntity
  8
0
  6
CONTINUOUS
 62
     0
100
AcDbLine
 10
-0.5
 20
-0.5
 30
0.0
 11
-0.5
 21
0.5
 31
0.0
  0
LINE
  5
74
100
AcDbEntity
  8
0
  6
CONTINUOUS
 62
     0
100
AcDbLine
 10
-0.25
 20
0.25
 30
0.0
 11
0.25
 21
0.25
 31
0.0
  0
LINE
  5
75
100
AcDbEntity
  8
0
  6
CONTINUOUS
 62
     0
100
AcDbLine
 10
0.25
 20
0.25
 30
0.0
 11
0.25
 21
-0.25
 31
0.0
  0
LINE
  5
76
100
AcDbEntity
  8
0
  6
CONTINUOUS
 62
     0
100
AcDbLine
 10
0.25
 20
-0.25
 30
0.0
 11
-0.25
 21
-0.25
 31
0.0
  0
LINE
  5
77
100
AcDbEntity
  8
0
  6
CONTINUOUS
 62
     0
100
AcDbLine
 10
-0.25
 20
-0.25
 30
0.0
 11
-0.25
 21
0.25
 31
0.0
  0
ENDBLK
  5
78
100
AcDbEntity
  8
0
100
AcDbBlockEnd
  0
BLOCK
  5
79
100
AcDbEntity
  8
0
100
AcDbBlockBegin
  2
_EX_WBOX
 70
     0
 10
0.0
 20
0.0
 30
0.0
  3
_EX_WBOX
  1

  0
LINE
  5
7A
100
AcDbEntity
  8
0
  6
CONTINUOUS
 62
     0
100
AcDbLine
 10
-0.5
 20
0.0
 30
0.0
 11
-1.0
 21
0.0
 31
0.0
  0
LINE
  5
7B
100
AcDbEntity
  8
0
  6
CONTINUOUS
 62
     0
100
AcDbLine
 10
-0.5
 20
0.5
 30
0.0
 11
0.5
 21
0.5
 31
0.0
  0
LINE
  5
7C
100
AcDbEntity
  8
0
  6
CONTINUOUS
 62
     0
100
AcDbLine
 10
0.5
 20
0.5
 30
0.0
 11
0.5
 21
-0.5
 31
0.0
  0
LINE
  5
7D
100
AcDbEntity
  8
0
  6
CONTINUOUS
 62
     0
100
AcDbLine
 10
0.5
 20
-0.5
 30
0.0
 11
-0.5
 21
-0.5
 31
0.0
  0
LINE
  5
7E
100
AcDbEntity
  8
0
  6
CONTINUOUS
 62
     0
100
AcDbLine
 10
-0.5
 20
-0.5
 30
0.0
 11
-0.5
 21
0.5
 31
0.0
  0
ENDBLK
  5
7F
100
AcDbEntity
  8
0
100
AcDbBlockEnd
  0
BLOCK
  5
80
100
AcDbEntity
  8
0
100
AcDbBlockBegin
  2
_EX_INTEGRAL
 70
     0
 10
0.0
 20
0.0
 30
0.0
  3
_EX_INTEGRAL
  1

  0
LINE
  5
81
100
AcDbEntity
  8
0
  6
CONTINUOUS
 62
     0
100
AcDbLine
 10
0.0
 20
0.0
 30
0.0
 11
-1.0
 21
0.0
 31
0.0
  0
ARC
  5
82
100
AcDbEntity
  8
0
  6
CONTINUOUS
 62
     0
100
AcDbCircle
 10
0.542115
 20
0.164992
 30
0.0
 40
0.56667
100
AcDbArc
 50
73.07249
 51
196.927513
  0
ARC
  5
83
100
AcDbEntity
  8
0
  6
CONTINUOUS
 62
     0
100
AcDbCircle
 10
-0.542115
 20
-0.164992
 30
0.0
 40
0.56667
100
AcDbArc
 50
253.072487
 51
16.927513
  0
ENDBLK
  5
84
100
AcDbEntity
  8
0
100
AcDbBlockEnd
  0
BLOCK
  5
85
100
AcDbEntity
  8
0
100
AcDbBlockBegin
  2
SYM-1
 70
     0
 10
0.0
 20
0.0
 30
0.0
  3
SYM-1
  1

  0
HATCH
  5
86
100
AcDbEntity
  8
0
  6
CONTINUOUS
 62
     3
100
AcDbHatch
 10
0.0
 20
0.0
 30
0.0
210
0.0
220
0.0
230
1.0
  2
SOLID
 70
     1
 71
     1
 91
        1
 92
        1
 93
       16
 72
     1
 10
24.351152239011505
 20
-2.0357142857144446
 11
25.613295096154353
 21
-2.0357142857144446
 72
     1
 10
25.613295096154353
 20
-2.0357142857144446
 11
25.613295096154353
 21
-2.8500000000001648
 72
     1
 10
25.613295096154353
 20
-2.8500000000001648
 11
22.23400938186861
 21
-2.8500000000001648
 72
     1
 10
22.23400938186861
 20
-2.8500000000001648
 11
22.23400938186861
 21
-2.0357142857144446
 72
     1
 10
22.23400938186861
 20
-2.0357142857144446
 11
23.536866524725802
 21
-2.0357142857144446
 72
     1
 10
23.536866524725802
 20
-2.0357142857144446
 11
23.536866524725802
 21
0.3257142857141346
 72
     1
 10
23.536866524725802
 20
0.3257142857141346
 11
22.519009381868621
 21
0.3257142857141346
 72
     1
 10
22.519009381868621
 20
0.3257142857141346
 11
22.519009381868621
 21
1.1399999999998514
 72
     1
 10
22.519009381868621
 20
1.1399999999998514
 11
23.536866524725802
 21
1.1399999999998514
 72
     1
 10
23.536866524725802
 20
1.1399999999998514
 11
23.536866524725802
 21
2.8499999999998487
 72
     1
 10
23.536866524725802
 20
2.8499999999998487
 11
24.351152239011505
 21
2.8499999999998487
 72
     1
 10
24.351152239011505
 20
2.8499999999998487
 11
24.351152239011505
 21
1.1399999999998514
 72
     1
 10
24.351152239011505
 20
1.1399999999998514
 11
25.531866524725821
 21
1.1399999999998514
 72
     1
 10
25.531866524725821
 20
1.1399999999998514
 11
25.531866524725821
 21
0.3257142857141346
 72
     1
 10
25.531866524725821
 20
0.3257142857141346
 11
24.351152239011505
 21
0.3257142857141346
 72
     1
 10
24.351152239011505
 20
0.3257142857141346
 11
24.351152239011505
 21
-2.0357142857144446
 97
        0
 75
     0
 76
     1
 98
        1
 10
0.0
 20
0.0
  0
HATCH
  5
87
100
AcDbEntity
  8
0
  6
CONTINUOUS
 62
     3
100
AcDbHatch
 10
0.0
 20
0.0
 30
0.0
210
0.0
220
0.0
230
1.0
  2
SOLID
 70
     1
 71
     1
 91
        1
 92
        1
 93
       17
 72
     2
 10
15.796286246552746
 20
4.4303755974531924
 40
7.328571428571454
 50
44.165469
 51
51.472792
 73
     0
 72
     1
 10
20.361152239011439
 20
-1.3028571428572775
 11
19.948878200429583
 21
-0.5887775613918898
 72
     2
 10
15.796286246552746
 20
4.4303755974531924
 40
6.5142857142857364
 50
309.602625
 51
331.307968
 73
     1
 72
     1
 10
21.510701937024301
 20
1.3028571428570004
 11
20.157580810440017
 21
1.3028571428570004
 72
     1
 10
20.157580810440017
 20
1.3028571428570004
 11
20.157580810440017
 21
2.0357142857141319
 72
     1
 10
20.157580810440017
 20
2.0357142857141319
 11
21.053295096154336
 21
2.0357142857141319
 72
     1
 10
21.053295096154336
 20
2.0357142857141319
 11
21.053295096154336
 21
2.8499999999998487
 72
     1
 10
21.053295096154336
 20
2.8499999999998487
 11
21.786152239011507
 21
2.8499999999998487
 72
     1
 10
21.786152239011507
 20
2.8499999999998487
 11
21.786152239011507
 21
2.0357142857141319
 72
     1
 10
21.786152239011507
 20
2.0357142857141319
 11
22.722580810439986
 21
2.0357142857141319
 72
     2
 10
15.796286246552746
 20
4.4303755974531924
 40
7.328571428571454
 50
19.072051
 51
32.871988
 73
     0
 72
     1
 10
21.951445818831196
 20
0.4526916201288422
 11
22.926152239011437
 21
-0.4885714285715821
 72
     1
 10
22.926152239011437
 20
-0.4885714285715821
 11
22.350277580116831
 21
-1.0644460874662265
 72
     1
 10
22.350277580116831
 20
-1.0644460874662265
 11
21.786152239011507
 21
-0.5196765779765897
 72
     1
 10
21.786152239011507
 20
-0.5196765779765897
 11
21.786152239011507
 21
-2.8500000000001648
 72
     1
 10
21.786152239011507
 20
-2.8500000000001648
 11
21.053295096154336
 21
-2.8500000000001648
 72
     1
 10
21.053295096154336
 20
-2.8500000000001648
 11
21.053295096154336
 21
-0.6756813096801793
 97
        0
 75
     0
 76
     1
 98
        1
 10
0.0
 20
0.0
  0
HATCH
  5
88
100
AcDbEntity
  8
0
  6
CONTINUOUS
 62
     3
100
AcDbHatch
 10
0.0
 20
0.0
 30
0.0
210
0.0
220
0.0
230
1.0
  2
SOLID
 70
     1
 71
     1
 91
        1
 92
        1
 93
       12
 72
     2
 10
26.09465466477446
 20
-6.5604295733743392
 40
11.481428571428609
 50
150.903074
 51
156.790773
 73
     1
 72
     1
 10
15.542396441700383
 20
-2.035714285714505
 11
18.049394029288031
 21
-2.0357142857144055
 72
     2
 10
10.927987441101074
 20
-4.0835590566205937
 40
7.4100000000000241
 50
16.043216
 51
21.362935
 73
     1
 72
     1
 10
17.828858648663306
 20
-1.3842857142858769
 11
18.610437953297115
 21
-1.3842857142858769
 72
     2
 10
10.927987441101074
 20
-4.0835590566205937
 40
8.1428571428571708
 50
340.64078
 51
351.286733
 73
     0
 72
     1
 10
18.976866524725686
 20
-2.8500000000001648
 11
14.457580810439971
 21
-2.8500000000001648
 72
     2
 10
26.09465466477446
 20
-6.5604295733743392
 40
12.214285714285754
 50
197.684652
 51
207.200855
 73
     0
 72
     1
 10
15.231152239011401
 20
-0.9771428571430043
 11
14.091152239011485
 21
-0.9771428571430043
 72
     1
 10
14.091152239011485
 20
-0.9771428571430043
 11
14.091152239011485
 21
-0.162857142857284
 72
     1
 10
14.091152239011485
 20
-0.162857142857284
 11
19.302580810440098
 21
-0.162857142857284
 72
     1
 10
19.302580810440098
 20
-0.162857142857284
 11
19.302580810440098
 21
-0.9771428571430043
 72
     1
 10
19.302580810440098
 20
-0.9771428571430043
 11
16.062201750099412
 21
-0.9771428571430043
 97
        0
 75
     0
 76
     1
 98
        1
 10
0.0
 20
0.0
  0
HATCH
  5
89
100
AcDbEntity
  8
0
  6
CONTINUOUS
 62
     3
100
AcDbHatch
 10
0.0
 20
0.0
 30
0.0
210
0.0
220
0.0
230
1.0
  2
SOLID
 70
     1
 71
     1
 91
        1
 92
        1
 93
       10
 72
     2
 10
26.143491684008573
 20
11.064410217386417
 40
13.028571428571473
 50
129.545698
 51
136.474664
 73
     0
 72
     1
 10
16.696866524725998
 20
2.0919553376225579
 11
16.696866524725998
 21
2.8499999999998487
 72
     1
 10
16.696866524725998
 20
2.8499999999998487
 11
17.104009381868686
 21
2.8499999999998487
 72
     2
 10
26.143491684008573
 20
11.064410217386417
 40
12.214285714285754
 50
222.262231
 51
237.763996
 73
     1
 72
     1
 10
19.628295096154382
 20
0.7328571428570001
 11
19.100346295490944
 21
0.1036722629605507
 72
     2
 10
26.143491684008573
 20
11.064410217386417
 40
13.028571428571473
 50
122.723968
 51
128.230009
 73
     0
 72
     1
 10
18.08115223901148
 20
0.830038905819066
 11
18.08115223901148
 21
0.2035714285712729
 72
     1
 10
18.08115223901148
 20
0.2035714285712729
 11
16.696866524725998
 21
0.2035714285712729
 72
     1
 10
16.696866524725998
 20
0.2035714285712729
 11
16.696866524725998
 21
1.0178571428569896
 72
     1
 10
16.696866524725998
 20
1.0178571428569896
 11
17.848285550942784
 21
1.0178571428569896
 97
        0
 75
     0
 76
     1
 98
        1
 10
0.0
 20
0.0
  0
HATCH
  5
8A
100
AcDbEntity
  8
0
  6
CONTINUOUS
 62
     3
100
AcDbHatch
 10
0.0
 20
0.0
 30
0.0
210
0.0
220
0.0
230
1.0
  2
SOLID
 70
     1
 71
     1
 91
        1
 92
        1
 93
       10
 72
     2
 10
7.2502413654429532
 20
11.064410217386417
 40
13.028571428571473
 50
51.769991
 51
57.276032
 73
     0
 72
     1
 10
14.293386753960569
 20
0.1036722629605329
 11
13.76543795329713
 21
0.7328571428569894
 72
     2
 10
7.2502413654429532
 20
11.064410217386417
 40
12.214285714285754
 50
302.236004
 51
317.737769
 73
     1
 72
     1
 10
16.289723667582841
 20
2.8499999999998487
 11
16.696866524725998
 21
2.8499999999998487
 72
     1
 10
16.696866524725998
 20
2.8499999999998487
 11
16.696866524725998
 21
2.0919553376230482
 72
     2
 10
7.2502413654429532
 20
11.064410217386417
 40
13.028571428571473
 50
43.525336
 51
50.454302
 73
     0
 72
     1
 10
15.545447498508743
 20
1.0178571428569896
 11
16.696866524725998
 21
1.0178571428569896
 72
     1
 10
16.696866524725998
 20
1.0178571428569896
 11
16.696866524725998
 21
0.2035714285712729
 72
     1
 10
16.696866524725998
 20
0.2035714285712729
 11
15.312580810440046
 21
0.2035714285712729
 72
     1
 10
15.312580810440046
 20
0.2035714285712729
 11
15.312580810440046
 21
0.8300389058190589
 97
        0
 75
     0
 76
     1
 98
        1
 10
0.0
 20
0.0
  0
HATCH
  5
8B
100
AcDbEntity
  8
0
  6
CONTINUOUS
 62
     3
100
AcDbHatch
 10
0.0
 20
0.0
 30
0.0
210
0.0
220
0.0
230
1.0
  2
SOLID
 70
     1
 71
     1
 91
        1
 92
        1
 93
       18
 72
     2
 10
1.2571935216656343
 20
-0.8093264034321166
 40
11.400000000000038
 50
14.02954
 51
18.723021
 73
     1
 72
     1
 10
12.053921279331213
 20
2.8499999999998487
 11
12.910437953297141
 21
2.8499999999998487
 72
     2
 10
1.2571935216656343
 20
-0.8093264034321166
 40
12.214285714285754
 50
342.566782
 51
346.922981
 73
     0
 72
     1
 10
13.15472366758285
 20
1.9542857142855716
 11
13.480437953297177
 21
1.9542857142855716
 72
     1
 10
13.480437953297177
 20
1.9542857142855716
 11
13.480437953297177
 21
1.1399999999998407
 72
     1
 10
13.480437953297177
 20
1.1399999999998407
 11
11.958092734747289
 21
1.1399999999998514
 72
     2
 10
20.401866524725683
 20
2.4835714285712918
 40
8.5500000000000291
 50
189.041096
 51
204.65198
 73
     1
 72
     2
 10
14.334076117775972
 20
-0.301141422634494
 40
1.8737206404808271
 50
204.65198
 51
242.897449
 73
     1
 72
     1
 10
13.480437953297177
 20
-1.9691135215345774
 11
13.480437953297177
 21
-2.8500000000001648
 72
     2
 10
14.334076117775972
 20
-0.301141422634494
 40
2.6880063547665438
 50
108.516212
 51
155.34802
 73
     0
 72
     2
 10
20.401866524725683
 20
2.4835714285712918
 40
9.3642857142857441
 50
155.34802
 51
171.750831
 73
     0
 72
     1
 10
11.134468683092756
 20
1.1399999999998549
 11
8.0247236675828972
 21
1.1399999999998407
 72
     1
 10
8.0247236675828972
 20
1.1399999999998407
 11
8.0247236675828972
 21
1.9542857142855716
 72
     1
 10
8.0247236675828972
 20
1.9542857142855716
 11
11.050355927894167
 21
1.9542857142855716
 72
     1
 10
11.050355927894167
 20
1.9542857142855716
 11
11.019076895792274
 21
2.8499999999998487
 72
     1
 10
11.019076895792274
 20
2.8499999999998487
 11
11.833858953292697
 21
2.8499999999998487
 72
     1
 10
11.833858953292697
 20
2.8499999999998487
 11
11.865137985394604
 21
1.9542857142855716
 72
     1
 10
11.865137985394604
 20
1.9542857142855716
 11
12.317141444816265
 21
1.9542857142855716
 97
        0
 75
     0
 76
     1
 98
        1
 10
0.0
 20
0.0
  0
HATCH
  5
8C
100
AcDbEntity
  8
0
  6
CONTINUOUS
 62
     3
100
AcDbHatch
 10
0.0
 20
0.0
 30
0.0
210
0.0
220
0.0
230
1.0
  2
SOLID
 70
     1
 71
     1
 91
        1
 92
        1
 93
       12
 72
     2
 10
5.4617420309248317
 20
38.027820957415145
 40
39.900000000000134
 50
276.500664
 51
278.269357
 73
     1
 72
     1
 10
11.200437953297204
 20
-1.457332823601817
 11
11.20043795329719
 21
-2.2800000000001504
 72
     2
 10
5.4617420309248317
 20
38.027820957415145
 40
40.71428571428585
 50
81.897153
 51
86.39082
 73
     0
 72
     1
 10
8.024723667582883
 20
-2.6057142857144413
 11
8.024723667582883
 21
-1.7897772264302034
 72
     2
 10
5.4617420309248317
 20
38.027820957415145
 40
39.900000000000134
 50
273.682937
 51
275.325087
 73
     1
 72
     1
 10
9.1647236675828836
 20
-1.6999769553635602
 11
9.1647236675828836
 21
-0.4071428571430218
 72
     1
 10
9.1647236675828836
 20
-0.4071428571430218
 11
8.0247236675828972
 21
-0.4071428571430218
 72
     1
 10
8.0247236675828972
 20
-0.4071428571430218
 11
8.0247236675828972
 21
0.4071428571426949
 72
     1
 10
8.0247236675828972
 20
0.4071428571426949
 11
10.95615223901148
 21
0.4071428571426949
 72
     1
 10
10.95615223901148
 20
0.4071428571426949
 11
10.95615223901148
 21
-0.4071428571430218
 72
     1
 10
10.95615223901148
 20
-0.4071428571430218
 11
9.9790093818686287
 21
-0.4071428571430218
 72
     1
 10
9.9790093818686287
 20
-0.4071428571430218
 11
9.9790093818685861
 21
-1.6156437710884397
 97
        0
 75
     0
 76
     1
 98
        1
 10
0.0
 20
0.0
  0
HATCH
  5
8D
100
AcDbEntity
  8
0
  6
CONTINUOUS
 62
     3
100
AcDbHatch
 10
0.0
 20
0.0
 30
0.0
210
0.0
220
0.0
230
1.0
  2
SOLID
 70
     1
 71
     1
 91
        1
 92
        1
 93
       30
 72
     2
 10
-1.8979256098940809
 20
4.1519130391923014
 40
8.9164285714286002
 50
37.940537
 51
46.713808
 73
     0
 72
     1
 10
4.21556076329842
 20
-2.3386942385728418
 11
3.6682950961542744
 21
-1.7914285714286962
 72
     2
 10
-1.8979256098940809
 20
4.1519130391923014
 40
8.1428571428571743
 50
313.123325
 51
325.95222
 73
     1
 72
     1
 10
4.8490093818684983
 20
-0.4071428571430076
 11
3.8718665247257533
 21
-0.4071428571430076
 72
     1
 10
3.8718665247257533
 20
-0.4071428571430076
 11
3.8718665247257533
 21
0.4071428571427092
 72
     1
 10
3.8718665247257533
 20
0.4071428571427092
 11
5.1340093818686157
 21
0.4071428571427092
 72
     1
 10
5.1340093818686157
 20
0.4071428571427092
 11
5.1340093818686157
 21
1.2214285714284152
 72
     1
 10
5.1340093818686157
 20
1.2214285714284152
 11
4.7280236542212677
 21
1.2214285714284152
 72
     2
 10
-3.9789687629962955
 20
2.9438069062169916
 40
8.8757142857143183
 50
11.189535
 51
14.746058
 73
     0
 72
     1
 10
4.6044101437030562
 20
0.6846232869284066
 11
3.9125808104399411
 21
0.9364285714284044
 72
     2
 10
-3.9789687629962955
 20
2.9438069062169916
 40
8.1428571428571743
 50
345.728313
 51
357.620387
 73
     1
 72
     1
 10
4.1568665247257641
 20
2.6057142857165694
 11
4.8844833536651819
 21
2.4774158071570227
 72
     2
 10
-3.9789687629962955
 20
2.9438069062169916
 40
8.8757142857143183
 50
3.012102
 51
6.401006
 73
     0
 72
     1
 10
4.8414139890361767
 20
1.9542857142855716
 11
5.1340093818686157
 21
1.9542857142855716
 72
     1
 10
5.1340093818686157
 20
1.9542857142855716
 11
5.1340093818686157
 21
2.8499999999998487
 72
     1
 10
5.1340093818686157
 20
2.8499999999998487
 11
5.948295096154304
 21
2.8499999999998487
 72
     1
 10
5.948295096154304
 20
2.8499999999998487
 11
5.948295096154304
 21
1.9542857142855716
 72
     1
 10
5.948295096154304
 20
1.9542857142855716
 11
7.0475808104400599
 21
1.9542857142855716
 72
     1
 10
7.0475808104400599
 20
1.9542857142855716
 11
7.0475808104400599
 21
1.2214285714284152
 72
     1
 10
7.0475808104400599
 20
1.2214285714284152
 11
5.948295096154304
 21
1.2214285714284152
 72
     1
 10
5.948295096154304
 20
1.2214285714284152
 11
5.948295096154304
 21
0.4071428571427092
 72
     1
 10
5.948295096154304
 20
0.4071428571427092
 11
7.2104379532971521
 21
0.4071428571427092
 72
     1
 10
7.2104379532971521
 20
0.4071428571427092
 11
7.2104379532971521
 21
-0.4071428571430076
 72
     1
 10
7.2104379532971521
 20
-0.4071428571430076
 11
6.2332950961542579
 21
-0.4071428571430076
 72
     2
 10
12.98023008791683
 20
4.1519130391922907
 40
8.1428571428571743
 50
214.04778
 51
226.876675
 73
     1
 72
     1
 10
7.4140093818684889
 20
-1.7914285714286962
 11
6.866743714724322
 21
-2.3386942385728453
 72
     2
 10
12.98023008791683
 20
4.1519130391922907
 40
8.9164285714286002
 50
133.286192
 51
142.059463
 73
     0
 72
     1
 10
5.948295096154304
 20
-1.330293518482641
 11
5.948295096154304
 21
-2.8500000000001648
 72
     1
 10
5.948295096154304
 20
-2.8500000000001648
 11
5.1340093818686157
 21
-2.8500000000001648
 72
     1
 10
5.1340093818686157
 20
-2.8500000000001648
 11
5.1340093818686157
 21
-1.3302935184824136
 97
        0
 75
     0
 76
     1
 98
        1
 10
0.0
 20
0.0
  0
HATCH
  5
8E
100
AcDbEntity
  8
0
  6
CONTINUOUS
 62
     3
100
AcDbHatch
 10
0.0
 20
0.0
 30
0.0
210
0.0
220
0.0
230
1.0
  2
SOLID
 70
     1
 71
     1
 91
        1
 92
        1
 93
       19
 72
     2
 10
-5.2499698511775321
 20
3.0651230633969284
 40
8.8757142857143165
 50
27.683433
 51
32.280505
 73
     0
 72
     1
 10
2.2539459810095721
 20
-1.6750827617845943
 11
1.6732950961542841
 21
-1.2214285714287314
 72
     2
 10
-5.2499698511775321
 20
3.0651230633969284
 40
8.1428571428571708
 50
328.236207
 51
344.845745
 73
     1
 72
     1
 10
2.6097236675827773
 20
0.9364285714284151
 11
1.8768665247257346
 21
0.9364285714284151
 72
     1
 10
1.8768665247257346
 20
0.9364285714284151
 11
1.8768665247257346
 21
1.7507142857141353
 72
     1
 10
1.8768665247257346
 20
1.7507142857141353
 11
2.6097236675829052
 21
1.7507142857141353
 72
     1
 10
2.6097236675829052
 20
1.7507142857141353
 11
2.6097236675829052
 21
2.8499999999998487
 72
     1
 10
2.6097236675829052
 20
2.8499999999998487
 11
3.4240093818685935
 21
2.8499999999998487
 72
     1
 10
3.4240093818685935
 20
2.8499999999998487
 11
3.4240093818685935
 21
1.7507142857141353
 72
     1
 10
3.4240093818685935
 20
1.7507142857141353
 11
3.7904379532971788
 21
1.7507142857141353
 72
     1
 10
3.7904379532971788
 20
1.7507142857141353
 11
3.7904379532971788
 21
0.9364285714284151
 72
     1
 10
3.7904379532971788
 20
0.9364285714284151
 11
3.4240093818685367
 21
0.9364285714284151
 72
     1
 10
3.4240093818685367
 20
0.9364285714284151
 11
3.8718665247257533
 21
0.2968222855516665
 72
     1
 10
3.8718665247257533
 20
0.2968222855516665
 11
3.8718665247257533
 21
-0.1989042363292235
 72
     1
 10
3.8718665247257533
 20
-0.1989042363292235
 11
3.6275808104399871
 21
-0.4900326139487277
 72
     1
 10
3.6275808104399871
 20
-0.4900326139487277
 11
3.4240093818685935
 21
-0.1993024840048498
 72
     1
 10
3.4240093818685935
 20
-0.1993024840048498
 11
3.4240093818685935
 21
-2.8500000000001648
 72
     1
 10
3.4240093818685935
 20
-2.8500000000001648
 11
2.6097236675829052
 21
-2.8500000000001648
 72
     1
 10
2.6097236675829052
 20
-2.8500000000001648
 11
2.6097236675829052
 21
-1.0584096299120844
 97
        0
 75
     0
 76
     1
 98
        1
 10
0.0
 20
0.0
  0
HATCH
  5
8F
100
AcDbEntity
  8
0
  6
CONTINUOUS
 62
     3
100
AcDbHatch
 10
0.0
 20
0.0
 30
0.0
210
0.0
220
0.0
230
1.0
  2
SOLID
 70
     1
 71
     1
 91
        1
 92
        1
 93
        8
 72
     2
 10
-1.8298808996504405
 20
-0.4560000000002766
 40
1.596000000000013
 50
270.0
 51
330.0
 73
     1
 72
     2
 10
-2.619696067901863
 20
-0.00000000000027
 40
2.508000000000012
 50
330.0
 51
30.0
 73
     1
 72
     2
 10
-1.8298808996504405
 20
0.4559999999997331
 40
1.5960000000000121
 50
30.0
 51
90.0
 73
     1
 72
     1
 10
-1.82988089965
 20
2.0519999999997438
 11
-1.82988089965
 21
2.9639999999999276
 72
     2
 10
-1.8298808996504974
 20
0.4559999999999214
 40
2.508000000000008
 50
270.0
 51
330.0
 73
     0
 72
     2
 10
-2.6196960679017494
 20
-0.0000000000001243
 40
3.420000000000015
 50
330.0
 51
30.0
 73
     0
 72
     2
 10
-1.8298808996503837
 20
-0.456000000000369
 40
2.5080000000000053
 50
30.0
 51
90.0
 73
     0
 72
     1
 10
-1.82988089965
 20
-2.9640000000003752
 11
-1.82988089965
 21
-2.0520000000002909
 97
        0
 75
     0
 76
     1
 98
        1
 10
0.0
 20
0.0
  0
HATCH
  5
90
100
AcDbEntity
  8
0
  6
CONTINUOUS
 62
     3
100
AcDbHatch
 10
0.0
 20
0.0
 30
0.0
210
0.0
220
0.0
230
1.0
  2
SOLID
 70
     1
 71
     1
 91
        1
 92
        1
 93
        8
 72
     2
 10
-1.8298808996503837
 20
-0.456000000000369
 40
2.5080000000000053
 50
90.0
 51
150.0
 73
     0
 72
     2
 10
-1.0400657313991175
 20
-0.0000000000003126
 40
3.4200000000000181
 50
150.0
 51
210.0
 73
     0
 72
     2
 10
-1.8298808996504974
 20
0.4559999999999214
 40
2.508000000000008
 50
210.0
 51
270.0
 73
     0
 72
     1
 10
-1.82988089965
 20
2.9639999999999276
 11
-1.82988089965
 21
2.0519999999997438
 72
     2
 10
-1.8298808996504405
 20
0.4559999999997331
 40
1.5960000000000121
 50
90.0
 51
150.0
 73
     1
 72
     2
 10
-1.040065731399018
 20
-0.00000000000027
 40
2.5080000000000129
 50
150.0
 51
210.0
 73
     1
 72
     2
 10
-1.8298808996504405
 20
-0.4560000000002766
 40
1.596000000000013
 50
210.0
 51
270.0
 73
     1
 72
     1
 10
-1.82988089965
 20
-2.0520000000002909
 11
-1.82988089965
 21
-2.9640000000003752
 97
        0
 75
     0
 76
     1
 98
        1
 10
0.0
 20
0.0
  0
HATCH
  5
91
100
AcDbEntity
  8
0
  6
CONTINUOUS
 62
     3
100
AcDbHatch
 10
0.0
 20
0.0
 30
0.0
210
0.0
220
0.0
230
1.0
  2
SOLID
 70
     1
 71
     1
 91
        1
 92
        1
 93
        4
 72
     1
 10
-5.3638808996504608
 20
-1.0260000000002698
 11
-6.2758808996504385
 21
-1.0260000000002698
 72
     1
 10
-6.2758808996504385
 20
-1.0260000000002698
 11
-6.2758808996504385
 21
-0.1140000000002743
 72
     1
 10
-6.2758808996504385
 20
-0.1140000000002743
 11
-5.3638808996504608
 21
-0.1140000000002743
 72
     1
 10
-5.3638808996504608
 20
-0.1140000000002743
 11
-5.3638808996504608
 21
-1.0260000000003267
 97
        0
 75
     0
 76
     1
 98
        1
 10
0.0
 20
0.0
  0
HATCH
  5
92
100
AcDbEntity
  8
0
  6
CONTINUOUS
 62
     3
100
AcDbHatch
 10
0.0
 20
0.0
 30
0.0
210
0.0
220
0.0
230
1.0
  2
SOLID
 70
     1
 71
     1
 91
        1
 92
        1
 93
       16
 72
     1
 10
-9.6958808996504686
 20
1.9379999999997324
 11
-10.949880899650459
 21
1.9379999999997324
 72
     1
 10
-10.949880899650459
 20
1.9379999999997324
 11
-11.177880899650468
 21
0.6839999999997275
 72
     1
 10
-11.177880899650468
 20
0.6839999999997275
 11
-11.861880899650437
 21
0.6839999999997275
 72
     1
 10
-11.861880899650437
 20
0.6839999999997275
 11
-11.861880899650437
 21
2.8499999999997421
 72
     1
 10
-11.861880899650437
 20
2.8499999999997421
 11
-6.6178808996504515
 21
2.8499999999997421
 72
     1
 10
-6.6178808996504515
 20
2.8499999999997421
 11
-6.6178808996504515
 21
0.6839999999997275
 72
     1
 10
-6.6178808996504515
 20
0.6839999999997275
 11
-7.3018808996504205
 21
0.6839999999997275
 72
     1
 10
-7.3018808996504205
 20
0.6839999999997275
 11
-7.5298808996504292
 21
1.9379999999997324
 72
     1
 10
-7.5298808996504292
 20
1.9379999999997324
 11
-8.7838808996504767
 21
1.9379999999997324
 72
     1
 10
-8.7838808996504767
 20
1.9379999999997324
 11
-8.7838808996504341
 21
-1.9380000000002759
 72
     1
 10
-8.7838808996504341
 20
-1.9380000000002759
 11
-7.8718808996504421
 21
-2.1660000000002846
 72
     1
 10
-7.8718808996504421
 20
-2.1660000000002846
 11
-7.8718808996504421
 21
-2.8500000000002856
 72
     1
 10
-7.8718808996504421
 20
-2.8500000000002856
 11
-10.607880899650446
 21
-2.8500000000002856
 72
     1
 10
-10.607880899650446
 20
-2.8500000000002856
 11
-10.607880899650446
 21
-2.1660000000002846
 72
     1
 10
-10.607880899650446
 20
-2.1660000000002846
 11
-9.6958808996504686
 21
-1.9380000000002759
 72
     1
 10
-9.6958808996504686
 20
-1.9380000000002759
 11
-9.6958808996504686
 21
1.9379999999997324
 97
        0
 75
     0
 76
     1
 98
        1
 10
0.0
 20
0.0
  0
HATCH
  5
93
100
AcDbEntity
  8
0
  6
CONTINUOUS
 62
     3
100
AcDbHatch
 10
0.0
 20
0.0
 30
0.0
210
0.0
220
0.0
230
1.0
  2
SOLID
 70
     1
 71
     1
 91
        1
 92
        1
 93
        4
 72
     1
 10
-13.115880899650485
 20
-1.0260000000002698
 11
-13.115880899650428
 21
-0.1140000000002175
 72
     1
 10
-13.115880899650428
 20
-0.1140000000002175
 11
-12.20388089965045
 21
-0.1140000000002743
 72
     1
 10
-12.20388089965045
 20
-0.1140000000002743
 11
-12.20388089965045
 21
-1.0260000000002698
 72
     1
 10
-12.20388089965045
 20
-1.0260000000002698
 11
-13.115880899650428
 21
-1.0260000000002698
 97
        0
 75
     0
 76
     1
 98
        1
 10
0.0
 20
0.0
  0
HATCH
  5
94
100
AcDbEntity
  8
0
  6
CONTINUOUS
 62
     3
100
AcDbHatch
 10
0.0
 20
0.0
 30
0.0
210
0.0
220
0.0
230
1.0
  2
SOLID
 70
     1
 71
     1
 91
        1
 92
        1
 93
       12
 72
     1
 10
-14.141880899650467
 20
2.8499999999997421
 11
-14.141880899650467
 21
2.1659999999997304
 72
     1
 10
-14.141880899650467
 20
2.1659999999997304
 11
-15.053880899650444
 21
1.9379999999997324
 72
     1
 10
-15.053880899650444
 20
1.9379999999997324
 11
-15.053880899650444
 21
-1.9380000000002759
 72
     1
 10
-15.053880899650444
 20
-1.9380000000002759
 11
-14.141880899650467
 21
-2.1660000000002846
 72
     1
 10
-14.141880899650467
 20
-2.1660000000002846
 11
-14.141880899650467
 21
-2.8500000000002856
 72
     1
 10
-14.141880899650467
 20
-2.8500000000002856
 11
-16.877880899650467
 21
-2.8500000000002856
 72
     1
 10
-16.877880899650467
 20
-2.8500000000002856
 11
-16.877880899650467
 21
-2.1660000000002846
 72
     1
 10
-16.877880899650467
 20
-2.1660000000002846
 11
-15.965880899650482
 21
-1.9380000000002759
 72
     1
 10
-15.965880899650482
 20
-1.9380000000002759
 11
-15.965880899650482
 21
1.9379999999997324
 72
     1
 10
-15.965880899650482
 20
1.9379999999997324
 11
-16.877880899650467
 21
2.165999999999741
 72
     1
 10
-16.877880899650467
 20
2.165999999999741
 11
-16.877880899650467
 21
2.8499999999997421
 72
     1
 10
-16.877880899650467
 20
2.8499999999997421
 11
-14.141880899650467
 21
2.8499999999997421
 97
        0
 75
     0
 76
     1
 98
        1
 10
0.0
 20
0.0
  0
HATCH
  5
95
100
AcDbEntity
  8
0
  6
CONTINUOUS
 62
     3
100
AcDbHatch
 10
0.0
 20
0.0
 30
0.0
210
0.0
220
0.0
230
1.0
  2
SOLID
 70
     1
 71
     1
 91
        1
 92
        1
 93
       15
 72
     2
 10
-23.082241990843084
 20
-0.0000000000001492
 40
2.531053105310535
 50
124.301153
 51
180.0
 73
     0
 72
     1
 10
-25.613295096153617
 20
0.0
 11
-24.658234262528236
 21
0.0
 72
     2
 10
-22.195587997901765
 20
-0.000000000000135
 40
2.46264626462647
 50
180.0
 51
199.464384
 73
     1
 72
     2
 10
-24.557343260027135
 20
0.2731786481661374
 40
1.094509450945121
 50
272.086657
 51
294.619977
 73
     1
 72
     2
 10
-24.243863734539655
 20
-0.4108897586745677
 40
0.342034203420344
 50
294.619977
 51
0.0
 73
     1
 72
     1
 10
-23.901829531119287
 20
-0.4108897586745677
 11
-23.901829531119287
 21
0.0
 72
     1
 10
-23.901829531119287
 20
0.0
 11
-23.080947442910482
 21
0.0
 72
     1
 10
-23.080947442910482
 20
0.0
 11
-23.080947442910482
 21
-0.4116155274721614
 72
     2
 10
-22.73891323949012
 20
-0.4116155274721614
 40
0.34203420342033
 50
180.0
 51
245.380023
 73
     1
 72
     2
 10
-22.425433714002583
 20
0.2724528793686645
 40
1.0945094509452411
 50
245.380023
 51
267.913343
 73
     1
 72
     1
 10
-22.465285876753814
 20
-0.8213308027789985
 11
-22.465285876753814
 21
-1.0265513248311819
 72
     1
 10
-22.465285876753814
 20
-1.0265513248311819
 11
-24.434073870576871
 21
-1.0265513248311962
 72
     2
 10
-22.195587997901708
 20
-0.000000000000135
 40
2.4626462646264669
 50
204.635803
 51
268.19864
 73
     1
 72
     1
 10
-22.272999999999005
 20
-2.4614292609397985
 11
-22.272999999999005
 21
-2.8039503813289706
 72
     2
 10
-22.195587997901765
 20
1.2997299729972909
 40
4.1044104410441236
 50
91.080702
 51
124.301153
 73
     0
 97
        0
 75
     0
 76
     1
 98
        1
 10
0.0
 20
0.0
  0
HATCH
  5
96
100
AcDbEntity
  8
0
  6
CONTINUOUS
 62
     3
100
AcDbHatch
 10
0.0
 20
0.0
 30
0.0
210
0.0
220
0.0
230
1.0
  2
SOLID
 70
     1
 71
     1
 91
        1
 92
        1
 93
       24
 72
     2
 10
-22.67055612196938
 20
0.3420342034202015
 40
0.342034203420347
 50
90.0
 51
157.380135
 73
     1
 72
     2
 10
-21.849674033760575
 20
-0.0000000000001101
 40
1.231323132313237
 50
157.380135
 51
180.0
 73
     1
 72
     1
 10
-23.080997166073811
 20
0.0
 11
-23.901829531119287
 21
0.0
 72
     1
 10
-23.901829531119287
 20
0.0
 11
-23.901829531119287
 21
1.7757720729310194
 72
     2
 10
-22.195587997901765
 20
-0.000000000000135
 40
2.46264626462647
 50
133.856042
 51
180.0
 73
     1
 72
     1
 10
-24.658234262528236
 20
0.0
 11
-25.613295096153617
 21
0.0
 72
     2
 10
-23.082241990843084
 20
-0.0000000000001492
 40
2.531053105310535
 50
180.0
 51
235.698847
 73
     0
 72
     2
 10
-22.195587997901708
 20
-1.2997299729975893
 40
4.1044104410441324
 50
235.698847
 51
245.436008
 73
     0
 72
     1
 10
-23.901829531119287
 20
2.4332212587861193
 11
-23.901829531119287
 21
2.8049575222742433
 72
     2
 10
-24.243863734539655
 20
2.8049575222742433
 40
0.3420342034203421
 50
0.0
 51
65.380023
 73
     1
 72
     2
 10
-24.557343260027135
 20
2.1208891154335525
 40
1.0945094509450961
 50
65.380023
 51
87.913343
 73
     1
 72
     1
 10
-24.517491097275904
 20
3.2146727975810734
 11
-24.517491097275904
 21
3.4198933196332746
 72
     1
 10
-24.517491097275904
 20
3.4198933196332746
 11
-22.465285876753814
 21
3.4198933196332746
 72
     1
 10
-22.465285876753814
 20
3.4198933196332746
 11
-22.465285876753814
 21
3.2146727975810769
 72
     2
 10
-22.425433714002583
 20
2.1208891154335525
 40
1.094509450945101
 50
92.086657
 51
114.619977
 73
     1
 72
     2
 10
-22.738913239490063
 20
2.8049575222742575
 40
0.342034203420347
 50
114.619977
 51
180.0
 73
     1
 72
     1
 10
-23.080947442910432
 20
2.8049575222742433
 11
-23.080947442910432
 21
2.7080529205341897
 72
     2
 10
-22.195587997901765
 20
-1.2997299729975893
 40
4.1044104410441218
 50
257.542857
 51
268.919298
 73
     0
 72
     1
 10
-22.272999999999005
 20
2.8039503813286721
 11
-22.272999999999005
 21
2.4614292609395321
 72
     2
 10
-22.195587997901708
 20
-0.000000000000135
 40
2.46264626462647
 50
91.80136
 51
111.070443
 73
     1
 72
     1
 10
-23.080947442910482
 20
2.2979915747913111
 11
-23.080947442910482
 21
1.0261026102608923
 72
     1
 10
-23.080947442910482
 20
1.0261026102608923
 11
-22.272999999998969
 21
1.0261026102608923
 72
     1
 10
-22.272999999998969
 20
1.0261026102608923
 11
-22.272999999999005
 21
0.6840684068405416
 72
     1
 10
-22.272999999999005
 20
0.6840684068405416
 11
-22.67055612196938
 21
0.6840684068405416
 97
        0
 75
     0
 76
     1
 98
        1
 10
0.0
 20
0.0
  0
HATCH
  5
97
100
AcDbEntity
  8
0
  6
CONTINUOUS
 62
     3
100
AcDbHatch
 10
0.0
 20
0.0
 30
0.0
210
0.0
220
0.0
230
1.0
  2
SOLID
 70
     1
 71
     1
 91
        1
 92
        1
 93
       14
 72
     2
 10
-22.195587997901765
 20
-0.000000000000135
 40
2.4626462646264748
 50
0.0
 51
9.281799
 73
     1
 72
     2
 10
-20.102741104833992
 20
0.3420342034202015
 40
0.34203420342034
 50
9.281799
 51
90.0
 73
     1
 72
     1
 10
-20.102741104833992
 20
0.6840684068405416
 11
-20.827451184220411
 21
0.6840684068405416
 72
     1
 10
-20.827451184220411
 20
0.6840684068405416
 11
-20.827451184220411
 21
0.0
 72
     1
 10
-20.827451184220411
 20
0.0
 11
-21.648333272429209
 21
0.0
 72
     1
 10
-21.648333272429209
 20
0.0
 11
-21.648333272429209
 21
0.6840684068405416
 72
     1
 10
-21.648333272429209
 20
0.6840684068405416
 11
-22.272999999999005
 21
0.6840684068405416
 72
     1
 10
-22.272999999999005
 20
0.6840684068405416
 11
-22.272999999999005
 21
1.0261026102608923
 72
     1
 10
-22.272999999999005
 20
1.0261026102608923
 11
-19.956896402818945
 21
1.0261026102608675
 72
     2
 10
-22.195587997901708
 20
-0.000000000000135
 40
2.46264626462647
 50
24.624318
 51
91.80136
 73
     1
 72
     1
 10
-22.272999999999005
 20
2.4614292609395321
 11
-22.272999999999005
 21
2.8039503813286721
 72
     2
 10
-22.195587997901765
 20
-1.2997299729975893
 40
4.1044104410441218
 50
268.919298
 51
304.301153
 73
     0
 72
     2
 10
-21.308934004960445
 20
-0.0000000000001492
 40
2.5310531053105372
 50
304.301153
 51
0.0
 73
     0
 72
     1
 10
-18.777880899649912
 20
0.0
 11
-19.732941733275293
 21
0.0
 97
        0
 75
     0
 76
     1
 98
        1
 10
0.0
 20
0.0
  0
HATCH
  5
98
100
AcDbEntity
  8
0
  6
CONTINUOUS
 62
     3
100
AcDbHatch
 10
0.0
 20
0.0
 30
0.0
210
0.0
220
0.0
230
1.0
  2
SOLID
 70
     1
 71
     1
 91
        1
 92
        1
 93
       19
 72
     2
 10
-22.195587997901765
 20
-0.000000000000135
 40
2.4626462646264748
 50
303.748989
 51
0.0
 73
     1
 72
     1
 10
-19.732941733275293
 20
0.0
 11
-18.777880899649912
 21
0.0
 72
     2
 10
-21.308934004960445
 20
-0.0000000000001492
 40
2.5310531053105372
 50
0.0
 51
55.698847
 73
     0
 72
     2
 10
-22.195587997901708
 20
1.2997299729973051
 40
4.1044104410441289
 50
55.698847
 51
70.528779
 73
     0
 72
     1
 10
-20.827451184220411
 20
-2.5699453011829512
 11
-20.827451184220411
 21
-2.8054062368445436
 72
     2
 10
-20.485416980800043
 20
-2.8054062368445436
 40
0.342034203420344
 50
180.0
 51
245.380023
 73
     1
 72
     2
 10
-20.171937455312563
 20
-2.1213378300038528
 40
1.094509450945099
 50
245.380023
 51
267.913343
 73
     1
 72
     1
 10
-20.211789618063744
 20
-3.2151215121513772
 11
-20.211789618063744
 21
-3.4203420342035784
 72
     1
 10
-20.211789618063744
 20
-3.4203420342035784
 11
-22.263994838585827
 21
-3.4203420342035784
 72
     1
 10
-22.263994838585827
 20
-3.4203420342035784
 11
-22.263994838585827
 21
-3.2151215121513737
 72
     2
 10
-22.303847001337058
 20
-2.1213378300038528
 40
1.094509450945099
 50
272.086657
 51
294.619977
 73
     1
 72
     2
 10
-21.990367475849578
 20
-2.8054062368445436
 40
0.342034203420344
 50
294.619977
 51
0.0
 73
     1
 72
     1
 10
-21.648333272429209
 20
-2.8054062368445436
 11
-21.648333272429209
 21
-2.7680332125876284
 72
     2
 10
-22.195587997901765
 20
1.2997299729972909
 40
4.1044104410441236
 50
82.337744
 51
91.080702
 73
     0
 72
     1
 10
-22.272999999999005
 20
-2.8039503813289706
 11
-22.272999999999005
 21
-2.4614292609397985
 72
     2
 10
-22.195587997901708
 20
-0.000000000000135
 40
2.4626462646264669
 50
268.19864
 51
282.839588
 73
     1
 72
     1
 10
-21.648333272429209
 20
-2.4010703634269781
 11
-21.648333272429209
 21
0.0
 72
     1
 10
-21.648333272429209
 20
0.0
 11
-20.827451184220411
 21
0.0
 72
     1
 10
-20.827451184220411
 20
0.0
 11
-20.827451184220411
 21
-2.047639686011447
 97
        0
 75
     0
 76
     1
 98
        1
 10
0.0
 20
0.0
  0
ENDBLK
  5
99
100
AcDbEntity
  8
0
100
AcDbBlockEnd
  0
ENDSEC
  0
SECTION
  2
ENTITIES
  0
LINE
  5
9A
100
AcDbEntity
  8
LAY-1
  6
CONTINUOUS
 62
     1
100
AcDbLine
 10
733.971338
 20
627.0
 30
0.0
 11
715.064597
 21
627.0
 31
0.0
  0
ARC
  5
9B
100
AcDbEntity
  8
LAY-1
  6
EXLTYPE4
 62
     1
100
AcDbCircle
 10
623.0
 20
673.0
 30
0.0
 40
1.0
100
AcDbArc
 50
270.0
 51
0.0
  0
LINE
  5
9C
100
AcDbEntity
  8
LAY-1
  6
EXLTYPE4
 62
     1
100
AcDbLine
 10
623.0
 20
672.0
 30
0.0
 11
610.0
 21
672.0
 31
0.0
  0
ARC
  5
9D
100
AcDbEntity
  8
LAY-1
  6
EXLTYPE4
 62
     1
100
AcDbCircle
 10
610.0
 20
673.0
 30
0.0
 40
1.0
100
AcDbArc
 50
180.0
 51
270.0
  0
LINE
  5
9E
100
AcDbEntity
  8
LAY-1
  6
EXLTYPE4
 62
     1
100
AcDbLine
 10
623.0
 20
657.0
 30
0.0
 11
610.0
 21
657.0
 31
0.0
  0
ARC
  5
9F
100
AcDbEntity
  8
LAY-1
  6
EXLTYPE4
 62
     1
100
AcDbCircle
 10
623.0
 20
656.0
 30
0.0
 40
1.0
100
AcDbArc
 50
0.0
 51
90.0
  0
ARC
  5
A0
100
AcDbEntity
  8
LAY-1
  6
EXLTYPE4
 62
     1
100
AcDbCircle
 10
623.0
 20
581.0
 30
0.0
 40
1.0
100
AcDbArc
 50
0.0
 51
90.0
  0
ARC
  5
A1
100
AcDbEntity
  8
LAY-1
  6
EXLTYPE4
 62
     1
100
AcDbCircle
 10
623.0
 20
598.0
 30
0.0
 40
1.0
100
AcDbArc
 50
270.0
 51
0.0
  0
LINE
  5
A2
100
AcDbEntity
  8
LAY-1
  6
EXLTYPE4
 62
     1
100
AcDbLine
 10
623.0
 20
582.0
 30
0.0
 11
610.0
 21
582.0
 31
0.0
  0
ARC
  5
A3
100
AcDbEntity
  8
LAY-1
  6
EXLTYPE4
 62
     1
100
AcDbCircle
 10
610.0
 20
581.0
 30
0.0
 40
1.0
100
AcDbArc
 50
90.0
 51
180.0
  0
LINE
  5
A4
100
AcDbEntity
  8
LAY-1
  6
EXLTYPE4
 62
     1
100
AcDbLine
 10
623.0
 20
597.0
 30
0.0
 11
610.0
 21
597.0
 31
0.0
  0
ARC
  5
A5
100
AcDbEntity
  8
LAY-1
  6
EXLTYPE4
 62
     1
100
AcDbCircle
 10
610.0
 20
598.0
 30
0.0
 40
1.0
100
AcDbArc
 50
180.0
 51
270.0
  0
ARC
  5
A6
100
AcDbEntity
  8
LAY-1
  6
EXLTYPE4
 62
     1
100
AcDbCircle
 10
610.0
 20
656.0
 30
0.0
 40
1.0
100
AcDbArc
 50
90.0
 51
180.0
  0
LINE
  5
A7
100
AcDbEntity
  8
LAY-1
  6
CONTINUOUS
 62
     1
100
AcDbLine
 10
647.299931
 20
640.383002
 30
0.0
 11
648.5
 21
639.182933
 31
0.0
  0
LINE
  5
A8
100
AcDbEntity
  8
LAY-1
  6
CONTINUOUS
 62
     1
100
AcDbLine
 10
647.299931
 20
613.616998
 30
0.0
 11
648.5
 21
614.817067
 31
0.0
  0
LINE
  5
A9
100
AcDbEntity
  8
LAY-1
  6
CONTINUOUS
 62
     1
100
AcDbLine
 10
648.5
 20
614.817067
 30
0.0
 11
653.0
 21
614.957692
 31
0.0
  0
LINE
  5
AA
100
AcDbEntity
  8
LAY-1
  6
CONTINUOUS
 62
     1
100
AcDbLine
 10
648.5
 20
639.182933
 30
0.0
 11
653.0
 21
639.042308
 31
0.0
  0
ARC
  5
AB
100
AcDbEntity
  8
LAY-1
  6
EXLTYPE4
 62
     1
100
AcDbCircle
 10
923.0
 20
581.0
 30
0.0
 40
1.0
100
AcDbArc
 50
90.0
 51
180.0
  0
LINE
  5
AC
100
AcDbEntity
  8
LAY-1
  6
EXLTYPE4
 62
     1
100
AcDbLine
 10
923.0
 20
582.0
 30
0.0
 11
936.0
 21
582.0
 31
0.0
  0
ARC
  5
AD
100
AcDbEntity
  8
LAY-1
  6
EXLTYPE4
 62
     1
100
AcDbCircle
 10
936.0
 20
581.0
 30
0.0
 40
1.0
100
AcDbArc
 50
0.0
 51
90.0
  0
LINE
  5
AE
100
AcDbEntity
  8
LAY-1
  6
EXLTYPE4
 62
     1
100
AcDbLine
 10
923.0
 20
597.0
 30
0.0
 11
936.0
 21
597.0
 31
0.0
  0
ARC
  5
AF
100
AcDbEntity
  8
LAY-1
  6
EXLTYPE4
 62
     1
100
AcDbCircle
 10
923.0
 20
598.0
 30
0.0
 40
1.0
100
AcDbArc
 50
180.0
 51
270.0
  0
ARC
  5
B0
100
AcDbEntity
  8
LAY-1
  6
EXLTYPE4
 62
     1
100
AcDbCircle
 10
923.0
 20
673.0
 30
0.0
 40
1.0
100
AcDbArc
 50
180.0
 51
270.0
  0
ARC
  5
B1
100
AcDbEntity
  8
LAY-1
  6
EXLTYPE4
 62
     1
100
AcDbCircle
 10
923.0
 20
656.0
 30
0.0
 40
1.0
100
AcDbArc
 50
90.0
 51
180.0
  0
LINE
  5
B2
100
AcDbEntity
  8
LAY-1
  6
EXLTYPE4
 62
     1
100
AcDbLine
 10
923.0
 20
672.0
 30
0.0
 11
936.0
 21
672.0
 31
0.0
  0
ARC
  5
B3
100
AcDbEntity
  8
LAY-1
  6
EXLTYPE4
 62
     1
100
AcDbCircle
 10
936.0
 20
673.0
 30
0.0
 40
1.0
100
AcDbArc
 50
270.0
 51
0.0
  0
LINE
  5
B4
100
AcDbEntity
  8
LAY-1
  6
EXLTYPE4
 62
     1
100
AcDbLine
 10
923.0
 20
657.0
 30
0.0
 11
936.0
 21
657.0
 31
0.0
  0
ARC
  5
B5
100
AcDbEntity
  8
LAY-1
  6
EXLTYPE4
 62
     1
100
AcDbCircle
 10
936.0
 20
656.0
 30
0.0
 40
1.0
100
AcDbArc
 50
0.0
 51
90.0
  0
ARC
  5
B6
100
AcDbEntity
  8
LAY-1
  6
EXLTYPE4
 62
     1
100
AcDbCircle
 10
936.0
 20
598.0
 30
0.0
 40
1.0
100
AcDbArc
 50
270.0
 51
0.0
  0
LINE
  5
B7
100
AcDbEntity
  8
LAY-1
  6
CONTINUOUS
 62
     1
100
AcDbLine
 10
898.700069
 20
613.616998
 30
0.0
 11
897.5
 21
614.817067
 31
0.0
  0
LINE
  5
B8
100
AcDbEntity
  8
LAY-1
  6
CONTINUOUS
 62
     1
100
AcDbLine
 10
898.700069
 20
640.383002
 30
0.0
 11
897.5
 21
639.182933
 31
0.0
  0
LINE
  5
B9
100
AcDbEntity
  8
LAY-1
  6
CONTINUOUS
 62
     1
100
AcDbLine
 10
897.5
 20
639.182933
 30
0.0
 11
893.0
 21
639.042308
 31
0.0
  0
LINE
  5
BA
100
AcDbEntity
  8
LAY-1
  6
CONTINUOUS
 62
     1
100
AcDbLine
 10
897.5
 20
614.817067
 30
0.0
 11
893.0
 21
614.957692
 31
0.0
  0
LINE
  5
BB
100
AcDbEntity
  8
LAY-1
  6
CONTINUOUS
 62
     1
100
AcDbLine
 10
807.0
 20
499.137817
 30
0.0
 11
809.0
 21
498.281817
 31
0.0
  0
LINE
  5
BC
100
AcDbEntity
  8
LAY-1
  6
CONTINUOUS
 62
     1
100
AcDbLine
 10
807.0
 20
510.862183
 30
0.0
 11
809.0
 21
511.718183
 31
0.0
  0
LINE
  5
BD
100
AcDbEntity
  8
LAY-1
  6
CONTINUOUS
 62
     1
100
AcDbLine
 10
807.0
 20
510.862183
 30
0.0
 11
805.0
 21
510.792342
 31
0.0
  0
LINE
  5
BE
100
AcDbEntity
  8
LAY-1
  6
CONTINUOUS
 62
     1
100
AcDbLine
 10
807.0
 20
499.137817
 30
0.0
 11
805.0
 21
499.207658
 31
0.0
  0
LINE
  5
BF
100
AcDbEntity
  8
LAY-1
  6
CONTINUOUS
 62
     1
100
AcDbLine
 10
739.0
 20
499.137817
 30
0.0
 11
737.0
 21
498.281817
 31
0.0
  0
LINE
  5
C0
100
AcDbEntity
  8
LAY-1
  6
CONTINUOUS
 62
     1
100
AcDbLine
 10
739.0
 20
510.862183
 30
0.0
 11
737.0
 21
511.718183
 31
0.0
  0
LINE
  5
C1
100
AcDbEntity
  8
LAY-1
  6
CONTINUOUS
 62
     1
100
AcDbLine
 10
739.0
 20
510.862183
 30
0.0
 11
741.0
 21
510.792342
 31
0.0
  0
LINE
  5
C2
100
AcDbEntity
  8
LAY-1
  6
CONTINUOUS
 62
     1
100
AcDbLine
 10
739.0
 20
499.137817
 30
0.0
 11
741.0
 21
499.207658
 31
0.0
  0
LINE
  5
C3
100
AcDbEntity
  8
LAY-1
  6
CONTINUOUS
 62
     2
100
AcDbLine
 10
764.0
 20
555.15
 30
0.0
 11
773.0
 21
555.15
 31
0.0
  0
LINE
  5
C4
100
AcDbEntity
  8
LAY-1
  6
CONTINUOUS
 62
     2
100
AcDbLine
 10
773.0
 20
555.15
 30
0.0
 11
782.0
 21
555.15
 31
0.0
  0
LINE
  5
C5
100
AcDbEntity
  8
LAY-1
  6
CONTINUOUS
 62
     2
100
AcDbLine
 10
762.0
 20
537.825887
 30
0.0
 11
762.0
 21
554.321573
 31
0.0
  0
LINE
  5
C6
100
AcDbEntity
  8
LAY-1
  6
CONTINUOUS
 62
     2
100
AcDbLine
 10
762.585786
 20
555.735786
 30
0.0
 11
766.114214
 21
559.264214
 31
0.0
  0
ARC
  5
C7
100
AcDbEntity
  8
LAY-1
  6
CONTINUOUS
 62
     2
100
AcDbCircle
 10
764.0
 20
554.321573
 30
0.0
 40
2.0
100
AcDbArc
 50
135.0
 51
180.0
  0
ARC
  5
C8
100
AcDbEntity
  8
LAY-1
  6
CONTINUOUS
 62
     2
100
AcDbCircle
 10
782.0
 20
554.321573
 30
0.0
 40
2.0
100
AcDbArc
 50
0.0
 51
45.0
  0
LINE
  5
C9
100
AcDbEntity
  8
LAY-1
  6
CONTINUOUS
 62
     2
100
AcDbLine
 10
783.414214
 20
555.735786
 30
0.0
 11
779.885786
 21
559.264214
 31
0.0
  0
LINE
  5
CA
100
AcDbEntity
  8
LAY-1
  6
CONTINUOUS
 62
     2
100
AcDbLine
 10
784.0
 20
537.825887
 30
0.0
 11
784.0
 21
554.321573
 31
0.0
  0
CIRCLE
  5
CB
100
AcDbEntity
  8
LAY-1
  6
CONTINUOUS
 62
     2
100
AcDbCircle
 10
773.0
 20
627.0
 30
0.0
 40
39.028662
  0
ARC
  5
CC
100
AcDbEntity
  8
LAY-1
  6
CONTINUOUS
 62
     2
100
AcDbCircle
 10
838.0
 20
644.75
 30
0.0
 40
0.8
100
AcDbArc
 50
181.291327
 51
358.708673
  0
ARC
  5
CD
100
AcDbEntity
  8
LAY-1
  6
CONTINUOUS
 62
     2
100
AcDbCircle
 10
838.0
 20
627.0
 30
0.0
 40
17.75
100
AcDbArc
 50
92.582654
 51
87.417346
  0
CIRCLE
  5
CE
100
AcDbEntity
  8
LAY-1
  6
CONTINUOUS
 62
     2
100
AcDbCircle
 10
838.0
 20
627.0
 30
0.0
 40
20.0
  0
CIRCLE
  5
CF
100
AcDbEntity
  8
LAY-1
  6
CONTINUOUS
 62
     2
100
AcDbCircle
 10
773.0
 20
627.0
 30
0.0
 40
90.0
  0
LINE
  5
D0
100
AcDbEntity
  8
LAY-1
  6
CONTINUOUS
 62
     2
100
AcDbLine
 10
767.685918
 20
559.85
 30
0.0
 11
777.885918
 21
559.85
 31
0.0
  0
ARC
  5
D1
100
AcDbEntity
  8
LAY-1
  6
CONTINUOUS
 62
     2
100
AcDbCircle
 10
764.7
 20
560.678427
 30
0.0
 40
2.0
100
AcDbArc
 50
315.0
 51
0.0
  0
ARC
  5
D2
100
AcDbEntity
  8
LAY-1
  6
CONTINUOUS
 62
     2
100
AcDbCircle
 10
781.3
 20
560.678427
 30
0.0
 40
2.0
100
AcDbArc
 50
180.0
 51
225.0
  0
ARC
  5
D3
100
AcDbEntity
  8
LAY-1
  6
CONTINUOUS
 62
     2
100
AcDbCircle
 10
773.0
 20
627.0
 30
0.0
 40
62.610759
100
AcDbArc
 50
277.071486
 51
342.035681
  0
ARC
  5
D4
100
AcDbEntity
  8
LAY-1
  6
CONTINUOUS
 62
     2
100
AcDbCircle
 10
773.0
 20
627.0
 30
0.0
 40
62.610759
100
AcDbArc
 50
19.260349
 51
262.928514
  0
CIRCLE
  5
D5
100
AcDbEntity
  8
LAY-1
  6
CONTINUOUS
 62
     2
100
AcDbCircle
 10
773.0
 20
627.0
 30
0.0
 40
20.0
  0
LINE
  5
D6
100
AcDbEntity
  8
LAY-1
  6
CONTINUOUS
 62
     2
100
AcDbLine
 10
779.3
 20
560.678427
 30
0.0
 11
779.3
 21
569.833397
 31
0.0
  0
ARC
  5
D7
100
AcDbEntity
  8
LAY-1
  6
CONTINUOUS
 62
     2
100
AcDbCircle
 10
781.3
 20
569.833397
 30
0.0
 40
2.0
100
AcDbArc
 50
133.762185
 51
180.0
  0
LINE
  5
D8
100
AcDbEntity
  8
LAY-1
  6
CONTINUOUS
 62
     2
100
AcDbLine
 10
766.7
 20
560.678427
 30
0.0
 11
766.7
 21
569.833397
 31
0.0
  0
ARC
  5
D9
100
AcDbEntity
  8
LAY-1
  6
CONTINUOUS
 62
     2
100
AcDbCircle
 10
764.7
 20
569.833397
 30
0.0
 40
2.0
100
AcDbArc
 50
0.0
 51
46.237815
  0
ARC
  5
DA
100
AcDbEntity
  8
LAY-1
  6
CONTINUOUS
 62
     2
100
AcDbCircle
 10
773.0
 20
578.5
 30
0.0
 40
10.0
100
AcDbArc
 50
180.0
 51
0.0
  0
LINE
  5
DB
100
AcDbEntity
  8
LAY-1
  6
CONTINUOUS
 62
     2
100
AcDbLine
 10
783.0
 20
578.5
 30
0.0
 11
783.0
 21
583.126822
 31
0.0
  0
LINE
  5
DC
100
AcDbEntity
  8
LAY-1
  6
CONTINUOUS
 62
     2
100
AcDbLine
 10
763.0
 20
578.5
 30
0.0
 11
763.0
 21
583.126822
 31
0.0
  0
ARC
  5
DD
100
AcDbEntity
  8
LAY-1
  6
CONTINUOUS
 62
     2
100
AcDbCircle
 10
785.0
 20
583.126822
 30
0.0
 40
2.0
100
AcDbArc
 50
105.232392
 51
180.0
  0
ARC
  5
DE
100
AcDbEntity
  8
LAY-1
  6
CONTINUOUS
 62
     2
100
AcDbCircle
 10
761.0
 20
583.126822
 30
0.0
 40
2.0
100
AcDbArc
 50
0.0
 51
74.767608
  0
CIRCLE
  5
DF
100
AcDbEntity
  8
LAY-1
  6
CONTINUOUS
 62
     2
100
AcDbCircle
 10
742.560874
 20
700.982833
 30
0.0
 40
6.5
  0
CIRCLE
  5
E0
100
AcDbEntity
  8
LAY-1
  6
CONTINUOUS
 62
     2
100
AcDbCircle
 10
742.560874
 20
700.982833
 30
0.0
 40
5.75
  0
POLYLINE
  5
E1
100
AcDbEntity
  8
LAY-1
  6
CONTINUOUS
 62
     2
100
AcDb2dPolyline
 66
     1
 10
0.0
 20
0.0
 30
0.0
 70
   128
  0
VERTEX
  5
E2
100
AcDbEntity
  8
LAY-1
  6
CONTINUOUS
 62
     2
100
AcDbVertex
100
AcDb2dVertex
 10
746.313651
 20
707.482833
 30
0.0
  0
VERTEX
  5
E3
100
AcDbEntity
  8
LAY-1
  6
CONTINUOUS
 62
     2
100
AcDbVertex
100
AcDb2dVertex
 10
738.808097
 20
707.482833
 30
0.0
  0
SEQEND
  5
E4
100
AcDbEntity
  8
LAY-1
  6
CONTINUOUS
 62
     2
  0
POLYLINE
  5
E5
100
AcDbEntity
  8
LAY-1
  6
CONTINUOUS
 62
     2
100
AcDb2dPolyline
 66
     1
 10
0.0
 20
0.0
 30
0.0
 70
   128
  0
VERTEX
  5
E6
100
AcDbEntity
  8
LAY-1
  6
CONTINUOUS
 62
     2
100
AcDbVertex
100
AcDb2dVertex
 10
746.313651
 20
694.482833
 30
0.0
  0
VERTEX
  5
E7
100
AcDbEntity
  8
LAY-1
  6
CONTINUOUS
 62
     2
100
AcDbVertex
100
AcDb2dVertex
 10
750.066427
 20
700.982833
 30
0.0
  0
SEQEND
  5
E8
100
AcDbEntity
  8
LAY-1
  6
CONTINUOUS
 62
     2
  0
POLYLINE
  5
E9
100
AcDbEntity
  8
LAY-1
  6
CONTINUOUS
 62
     2
100
AcDb2dPolyline
 66
     1
 10
0.0
 20
0.0
 30
0.0
 70
   128
  0
VERTEX
  5
EA
100
AcDbEntity
  8
LAY-1
  6
CONTINUOUS
 62
     2
100
AcDbVertex
100
AcDb2dVertex
 10
738.808097
 20
694.482833
 30
0.0
  0
VERTEX
  5
EB
100
AcDbEntity
  8
LAY-1
  6
CONTINUOUS
 62
     2
100
AcDbVertex
100
AcDb2dVertex
 10
746.313651
 20
694.482833
 30
0.0
  0
SEQEND
  5
EC
100
AcDbEntity
  8
LAY-1
  6
CONTINUOUS
 62
     2
  0
POLYLINE
  5
ED
100
AcDbEntity
  8
LAY-1
  6
CONTINUOUS
 62
     2
100
AcDb2dPolyline
 66
     1
 10
0.0
 20
0.0
 30
0.0
 70
   128
  0
VERTEX
  5
EE
100
AcDbEntity
  8
LAY-1
  6
CONTINUOUS
 62
     2
100
AcDbVertex
100
AcDb2dVertex
 10
738.808097
 20
707.482833
 30
0.0
  0
VERTEX
  5
EF
100
AcDbEntity
  8
LAY-1
  6
CONTINUOUS
 62
     2
100
AcDbVertex
100
AcDb2dVertex
 10
735.055321
 20
700.982833
 30
0.0
  0
SEQEND
  5
F0
100
AcDbEntity
  8
LAY-1
  6
CONTINUOUS
 62
     2
  0
POLYLINE
  5
F1
100
AcDbEntity
  8
LAY-1
  6
CONTINUOUS
 62
     2
100
AcDb2dPolyline
 66
     1
 10
0.0
 20
0.0
 30
0.0
 70
   128
  0
VERTEX
  5
F2
100
AcDbEntity
  8
LAY-1
  6
CONTINUOUS
 62
     2
100
AcDbVertex
100
AcDb2dVertex
 10
735.055321
 20
700.982833
 30
0.0
  0
VERTEX
  5
F3
100
AcDbEntity
  8
LAY-1
  6
CONTINUOUS
 62
     2
100
AcDbVertex
100
AcDb2dVertex
 10
738.808097
 20
694.482833
 30
0.0
  0
SEQEND
  5
F4
100
AcDbEntity
  8
LAY-1
  6
CONTINUOUS
 62
     2
  0
POLYLINE
  5
F5
100
AcDbEntity
  8
LAY-1
  6
CONTINUOUS
 62
     2
100
AcDb2dPolyline
 66
     1
 10
0.0
 20
0.0
 30
0.0
 70
   128
  0
VERTEX
  5
F6
100
AcDbEntity
  8
LAY-1
  6
CONTINUOUS
 62
     2
100
AcDbVertex
100
AcDb2dVertex
 10
750.066427
 20
700.982833
 30
0.0
  0
VERTEX
  5
F7
100
AcDbEntity
  8
LAY-1
  6
CONTINUOUS
 62
     2
100
AcDbVertex
100
AcDb2dVertex
 10
746.313651
 20
707.482833
 30
0.0
  0
SEQEND
  5
F8
100
AcDbEntity
  8
LAY-1
  6
CONTINUOUS
 62
     2
  0
CIRCLE
  5
F9
100
AcDbEntity
  8
LAY-1
  6
CONTINUOUS
 62
     2
100
AcDbCircle
 10
742.560874
 20
700.982833
 30
0.0
 40
7.5
  0
CIRCLE
  5
FA
100
AcDbEntity
  8
LAY-1
  6
CONTINUOUS
 62
     2
100
AcDbCircle
 10
803.439126
 20
700.982833
 30
0.0
 40
6.5
  0
CIRCLE
  5
FB
100
AcDbEntity
  8
LAY-1
  6
CONTINUOUS
 62
     2
100
AcDbCircle
 10
803.439126
 20
700.982833
 30
0.0
 40
5.75
  0
POLYLINE
  5
FC
100
AcDbEntity
  8
LAY-1
  6
CONTINUOUS
 62
     2
100
AcDb2dPolyline
 66
     1
 10
0.0
 20
0.0
 30
0.0
 70
   128
  0
VERTEX
  5
FD
100
AcDbEntity
  8
LAY-1
  6
CONTINUOUS
 62
     2
100
AcDbVertex
100
AcDb2dVertex
 10
807.191903
 20
707.482833
 30
0.0
  0
VERTEX
  5
FE
100
AcDbEntity
  8
LAY-1
  6
CONTINUOUS
 62
     2
100
AcDbVertex
100
AcDb2dVertex
 10
799.686349
 20
707.482833
 30
0.0
  0
SEQEND
  5
FF
100
AcDbEntity
  8
LAY-1
  6
CONTINUOUS
 62
     2
  0
POLYLINE
  5
100
100
AcDbEntity
  8
LAY-1
  6
CONTINUOUS
 62
     2
100
AcDb2dPolyline
 66
     1
 10
0.0
 20
0.0
 30
0.0
 70
   128
  0
VERTEX
  5
101
100
AcDbEntity
  8
LAY-1
  6
CONTINUOUS
 62
     2
100
AcDbVertex
100
AcDb2dVertex
 10
807.191903
 20
694.482833
 30
0.0
  0
VERTEX
  5
102
100
AcDbEntity
  8
LAY-1
  6
CONTINUOUS
 62
     2
100
AcDbVertex
100
AcDb2dVertex
 10
810.944679
 20
700.982833
 30
0.0
  0
SEQEND
  5
103
100
AcDbEntity
  8
LAY-1
  6
CONTINUOUS
 62
     2
  0
POLYLINE
  5
104
100
AcDbEntity
  8
LAY-1
  6
CONTINUOUS
 62
     2
100
AcDb2dPolyline
 66
     1
 10
0.0
 20
0.0
 30
0.0
 70
   128
  0
VERTEX
  5
105
100
AcDbEntity
  8
LAY-1
  6
CONTINUOUS
 62
     2
100
AcDbVertex
100
AcDb2dVertex
 10
799.686349
 20
694.482833
 30
0.0
  0
VERTEX
  5
106
100
AcDbEntity
  8
LAY-1
  6
CONTINUOUS
 62
     2
100
AcDbVertex
100
AcDb2dVertex
 10
807.191903
 20
694.482833
 30
0.0
  0
SEQEND
  5
107
100
AcDbEntity
  8
LAY-1
  6
CONTINUOUS
 62
     2
  0
POLYLINE
  5
108
100
AcDbEntity
  8
LAY-1
  6
CONTINUOUS
 62
     2
100
AcDb2dPolyline
 66
     1
 10
0.0
 20
0.0
 30
0.0
 70
   128
  0
VERTEX
  5
109
100
AcDbEntity
  8
LAY-1
  6
CONTINUOUS
 62
     2
100
AcDbVertex
100
AcDb2dVertex
 10
799.686349
 20
707.482833
 30
0.0
  0
VERTEX
  5
10A
100
AcDbEntity
  8
LAY-1
  6
CONTINUOUS
 62
     2
100
AcDbVertex
100
AcDb2dVertex
 10
795.933573
 20
700.982833
 30
0.0
  0
SEQEND
  5
10B
100
AcDbEntity
  8
LAY-1
  6
CONTINUOUS
 62
     2
  0
POLYLINE
  5
10C
100
AcDbEntity
  8
LAY-1
  6
CONTINUOUS
 62
     2
100
AcDb2dPolyline
 66
     1
 10
0.0
 20
0.0
 30
0.0
 70
   128
  0
VERTEX
  5
10D
100
AcDbEntity
  8
LAY-1
  6
CONTINUOUS
 62
     2
100
AcDbVertex
100
AcDb2dVertex
 10
795.933573
 20
700.982833
 30
0.0
  0
VERTEX
  5
10E
100
AcDbEntity
  8
LAY-1
  6
CONTINUOUS
 62
     2
100
AcDbVertex
100
AcDb2dVertex
 10
799.686349
 20
694.482833
 30
0.0
  0
SEQEND
  5
10F
100
AcDbEntity
  8
LAY-1
  6
CONTINUOUS
 62
     2
  0
POLYLINE
  5
110
100
AcDbEntity
  8
LAY-1
  6
CONTINUOUS
 62
     2
100
AcDb2dPolyline
 66
     1
 10
0.0
 20
0.0
 30
0.0
 70
   128
  0
VERTEX
  5
111
100
AcDbEntity
  8
LAY-1
  6
CONTINUOUS
 62
     2
100
AcDbVertex
100
AcDb2dVertex
 10
810.944679
 20
700.982833
 30
0.0
  0
VERTEX
  5
112
100
AcDbEntity
  8
LAY-1
  6
CONTINUOUS
 62
     2
100
AcDbVertex
100
AcDb2dVertex
 10
807.191903
 20
707.482833
 30
0.0
  0
SEQEND
  5
113
100
AcDbEntity
  8
LAY-1
  6
CONTINUOUS
 62
     2
  0
CIRCLE
  5
114
100
AcDbEntity
  8
LAY-1
  6
CONTINUOUS
 62
     2
100
AcDbCircle
 10
803.439126
 20
700.982833
 30
0.0
 40
7.5
  0
CIRCLE
  5
115
100
AcDbEntity
  8
LAY-1
  6
CONTINUOUS
 62
     2
100
AcDbCircle
 10
699.089637
 20
657.614675
 30
0.0
 40
6.5
  0
CIRCLE
  5
116
100
AcDbEntity
  8
LAY-1
  6
CONTINUOUS
 62
     2
100
AcDbCircle
 10
699.089637
 20
657.614675
 30
0.0
 40
5.75
  0
POLYLINE
  5
117
100
AcDbEntity
  8
LAY-1
  6
CONTINUOUS
 62
     2
100
AcDb2dPolyline
 66
     1
 10
0.0
 20
0.0
 30
0.0
 70
   128
  0
VERTEX
  5
118
100
AcDbEntity
  8
LAY-1
  6
CONTINUOUS
 62
     2
100
AcDbVertex
100
AcDb2dVertex
 10
702.842414
 20
664.114675
 30
0.0
  0
VERTEX
  5
119
100
AcDbEntity
  8
LAY-1
  6
CONTINUOUS
 62
     2
100
AcDbVertex
100
AcDb2dVertex
 10
695.336861
 20
664.114675
 30
0.0
  0
SEQEND
  5
11A
100
AcDbEntity
  8
LAY-1
  6
CONTINUOUS
 62
     2
  0
POLYLINE
  5
11B
100
AcDbEntity
  8
LAY-1
  6
CONTINUOUS
 62
     2
100
AcDb2dPolyline
 66
     1
 10
0.0
 20
0.0
 30
0.0
 70
   128
  0
VERTEX
  5
11C
100
AcDbEntity
  8
LAY-1
  6
CONTINUOUS
 62
     2
100
AcDbVertex
100
AcDb2dVertex
 10
702.842414
 20
651.114675
 30
0.0
  0
VERTEX
  5
11D
100
AcDbEntity
  8
LAY-1
  6
CONTINUOUS
 62
     2
100
AcDbVertex
100
AcDb2dVertex
 10
706.595191
 20
657.614675
 30
0.0
  0
SEQEND
  5
11E
100
AcDbEntity
  8
LAY-1
  6
CONTINUOUS
 62
     2
  0
POLYLINE
  5
11F
100
AcDbEntity
  8
LAY-1
  6
CONTINUOUS
 62
     2
100
AcDb2dPolyline
 66
     1
 10
0.0
 20
0.0
 30
0.0
 70
   128
  0
VERTEX
  5
120
100
AcDbEntity
  8
LAY-1
  6
CONTINUOUS
 62
     2
100
AcDbVertex
100
AcDb2dVertex
 10
695.336861
 20
651.114675
 30
0.0
  0
VERTEX
  5
121
100
AcDbEntity
  8
LAY-1
  6
CONTINUOUS
 62
     2
100
AcDbVertex
100
AcDb2dVertex
 10
702.842414
 20
651.114675
 30
0.0
  0
SEQEND
  5
122
100
AcDbEntity
  8
LAY-1
  6
CONTINUOUS
 62
     2
  0
POLYLINE
  5
123
100
AcDbEntity
  8
LAY-1
  6
CONTINUOUS
 62
     2
100
AcDb2dPolyline
 66
     1
 10
0.0
 20
0.0
 30
0.0
 70
   128
  0
VERTEX
  5
124
100
AcDbEntity
  8
LAY-1
  6
CONTINUOUS
 62
     2
100
AcDbVertex
100
AcDb2dVertex
 10
695.336861
 20
664.114675
 30
0.0
  0
VERTEX
  5
125
100
AcDbEntity
  8
LAY-1
  6
CONTINUOUS
 62
     2
100
AcDbVertex
100
AcDb2dVertex
 10
691.584084
 20
657.614675
 30
0.0
  0
SEQEND
  5
126
100
AcDbEntity
  8
LAY-1
  6
CONTINUOUS
 62
     2
  0
POLYLINE
  5
127
100
AcDbEntity
  8
LAY-1
  6
CONTINUOUS
 62
     2
100
AcDb2dPolyline
 66
     1
 10
0.0
 20
0.0
 30
0.0
 70
   128
  0
VERTEX
  5
128
100
AcDbEntity
  8
LAY-1
  6
CONTINUOUS
 62
     2
100
AcDbVertex
100
AcDb2dVertex
 10
691.584084
 20
657.614675
 30
0.0
  0
VERTEX
  5
129
100
AcDbEntity
  8
LAY-1
  6
CONTINUOUS
 62
     2
100
AcDbVertex
100
AcDb2dVertex
 10
695.336861
 20
651.114675
 30
0.0
  0
SEQEND
  5
12A
100
AcDbEntity
  8
LAY-1
  6
CONTINUOUS
 62
     2
  0
POLYLINE
  5
12B
100
AcDbEntity
  8
LAY-1
  6
CONTINUOUS
 62
     2
100
AcDb2dPolyline
 66
     1
 10
0.0
 20
0.0
 30
0.0
 70
   128
  0
VERTEX
  5
12C
100
AcDbEntity
  8
LAY-1
  6
CONTINUOUS
 62
     2
100
AcDbVertex
100
AcDb2dVertex
 10
706.595191
 20
657.614675
 30
0.0
  0
VERTEX
  5
12D
100
AcDbEntity
  8
LAY-1
  6
CONTINUOUS
 62
     2
100
AcDbVertex
100
AcDb2dVertex
 10
702.842414
 20
664.114675
 30
0.0
  0
SEQEND
  5
12E
100
AcDbEntity
  8
LAY-1
  6
CONTINUOUS
 62
     2
  0
CIRCLE
  5
12F
100
AcDbEntity
  8
LAY-1
  6
CONTINUOUS
 62
     2
100
AcDbCircle
 10
699.089637
 20
657.614675
 30
0.0
 40
7.5
  0
CIRCLE
  5
130
100
AcDbEntity
  8
LAY-1
  6
CONTINUOUS
 62
     2
100
AcDbCircle
 10
699.089637
 20
596.385325
 30
0.0
 40
6.5
  0
CIRCLE
  5
131
100
AcDbEntity
  8
LAY-1
  6
CONTINUOUS
 62
     2
100
AcDbCircle
 10
699.089637
 20
596.385325
 30
0.0
 40
5.75
  0
POLYLINE
  5
132
100
AcDbEntity
  8
LAY-1
  6
CONTINUOUS
 62
     2
100
AcDb2dPolyline
 66
     1
 10
0.0
 20
0.0
 30
0.0
 70
   128
  0
VERTEX
  5
133
100
AcDbEntity
  8
LAY-1
  6
CONTINUOUS
 62
     2
100
AcDbVertex
100
AcDb2dVertex
 10
702.842414
 20
602.885325
 30
0.0
  0
VERTEX
  5
134
100
AcDbEntity
  8
LAY-1
  6
CONTINUOUS
 62
     2
100
AcDbVertex
100
AcDb2dVertex
 10
695.336861
 20
602.885325
 30
0.0
  0
SEQEND
  5
135
100
AcDbEntity
  8
LAY-1
  6
CONTINUOUS
 62
     2
  0
POLYLINE
  5
136
100
AcDbEntity
  8
LAY-1
  6
CONTINUOUS
 62
     2
100
AcDb2dPolyline
 66
     1
 10
0.0
 20
0.0
 30
0.0
 70
   128
  0
VERTEX
  5
137
100
AcDbEntity
  8
LAY-1
  6
CONTINUOUS
 62
     2
100
AcDbVertex
100
AcDb2dVertex
 10
702.842414
 20
589.885325
 30
0.0
  0
VERTEX
  5
138
100
AcDbEntity
  8
LAY-1
  6
CONTINUOUS
 62
     2
100
AcDbVertex
100
AcDb2dVertex
 10
706.595191
 20
596.385325
 30
0.0
  0
SEQEND
  5
139
100
AcDbEntity
  8
LAY-1
  6
CONTINUOUS
 62
     2
  0
POLYLINE
  5
13A
100
AcDbEntity
  8
LAY-1
  6
CONTINUOUS
 62
     2
100
AcDb2dPolyline
 66
     1
 10
0.0
 20
0.0
 30
0.0
 70
   128
  0
VERTEX
  5
13B
100
AcDbEntity
  8
LAY-1
  6
CONTINUOUS
 62
     2
100
AcDbVertex
100
AcDb2dVertex
 10
695.336861
 20
589.885325
 30
0.0
  0
VERTEX
  5
13C
100
AcDbEntity
  8
LAY-1
  6
CONTINUOUS
 62
     2
100
AcDbVertex
100
AcDb2dVertex
 10
702.842414
 20
589.885325
 30
0.0
  0
SEQEND
  5
13D
100
AcDbEntity
  8
LAY-1
  6
CONTINUOUS
 62
     2
  0
POLYLINE
  5
13E
100
AcDbEntity
  8
LAY-1
  6
CONTINUOUS
 62
     2
100
AcDb2dPolyline
 66
     1
 10
0.0
 20
0.0
 30
0.0
 70
   128
  0
VERTEX
  5
13F
100
AcDbEntity
  8
LAY-1
  6
CONTINUOUS
 62
     2
100
AcDbVertex
100
AcDb2dVertex
 10
695.336861
 20
602.885325
 30
0.0
  0
VERTEX
  5
140
100
AcDbEntity
  8
LAY-1
  6
CONTINUOUS
 62
     2
100
AcDbVertex
100
AcDb2dVertex
 10
691.584084
 20
596.385325
 30
0.0
  0
SEQEND
  5
141
100
AcDbEntity
  8
LAY-1
  6
CONTINUOUS
 62
     2
  0
POLYLINE
  5
142
100
AcDbEntity
  8
LAY-1
  6
CONTINUOUS
 62
     2
100
AcDb2dPolyline
 66
     1
 10
0.0
 20
0.0
 30
0.0
 70
   128
  0
VERTEX
  5
143
100
AcDbEntity
  8
LAY-1
  6
CONTINUOUS
 62
     2
100
AcDbVertex
100
AcDb2dVertex
 10
691.584084
 20
596.385325
 30
0.0
  0
VERTEX
  5
144
100
AcDbEntity
  8
LAY-1
  6
CONTINUOUS
 62
     2
100
AcDbVertex
100
AcDb2dVertex
 10
695.336861
 20
589.885325
 30
0.0
  0
SEQEND
  5
145
100
AcDbEntity
  8
LAY-1
  6
CONTINUOUS
 62
     2
  0
POLYLINE
  5
146
100
AcDbEntity
  8
LAY-1
  6
CONTINUOUS
 62
     2
100
AcDb2dPolyline
 66
     1
 10
0.0
 20
0.0
 30
0.0
 70
   128
  0
VERTEX
  5
147
100
AcDbEntity
  8
LAY-1
  6
CONTINUOUS
 62
     2
100
AcDbVertex
100
AcDb2dVertex
 10
706.595191
 20
596.385325
 30
0.0
  0
VERTEX
  5
148
100
AcDbEntity
  8
LAY-1
  6
CONTINUOUS
 62
     2
100
AcDbVertex
100
AcDb2dVertex
 10
702.842414
 20
602.885325
 30
0.0
  0
SEQEND
  5
149
100
AcDbEntity
  8
LAY-1
  6
CONTINUOUS
 62
     2
  0
CIRCLE
  5
14A
100
AcDbEntity
  8
LAY-1
  6
CONTINUOUS
 62
     2
100
AcDbCircle
 10
699.089637
 20
596.385325
 30
0.0
 40
7.5
  0
CIRCLE
  5
14B
100
AcDbEntity
  8
LAY-1
  6
CONTINUOUS
 62
     2
100
AcDbCircle
 10
742.560874
 20
553.017167
 30
0.0
 40
6.5
  0
CIRCLE
  5
14C
100
AcDbEntity
  8
LAY-1
  6
CONTINUOUS
 62
     2
100
AcDbCircle
 10
742.560874
 20
553.017167
 30
0.0
 40
5.75
  0
POLYLINE
  5
14D
100
AcDbEntity
  8
LAY-1
  6
CONTINUOUS
 62
     2
100
AcDb2dPolyline
 66
     1
 10
0.0
 20
0.0
 30
0.0
 70
   128
  0
VERTEX
  5
14E
100
AcDbEntity
  8
LAY-1
  6
CONTINUOUS
 62
     2
100
AcDbVertex
100
AcDb2dVertex
 10
746.313651
 20
559.517167
 30
0.0
  0
VERTEX
  5
14F
100
AcDbEntity
  8
LAY-1
  6
CONTINUOUS
 62
     2
100
AcDbVertex
100
AcDb2dVertex
 10
738.808097
 20
559.517167
 30
0.0
  0
SEQEND
  5
150
100
AcDbEntity
  8
LAY-1
  6
CONTINUOUS
 62
     2
  0
POLYLINE
  5
151
100
AcDbEntity
  8
LAY-1
  6
CONTINUOUS
 62
     2
100
AcDb2dPolyline
 66
     1
 10
0.0
 20
0.0
 30
0.0
 70
   128
  0
VERTEX
  5
152
100
AcDbEntity
  8
LAY-1
  6
CONTINUOUS
 62
     2
100
AcDbVertex
100
AcDb2dVertex
 10
746.313651
 20
546.517167
 30
0.0
  0
VERTEX
  5
153
100
AcDbEntity
  8
LAY-1
  6
CONTINUOUS
 62
     2
100
AcDbVertex
100
AcDb2dVertex
 10
750.066427
 20
553.017167
 30
0.0
  0
SEQEND
  5
154
100
AcDbEntity
  8
LAY-1
  6
CONTINUOUS
 62
     2
  0
POLYLINE
  5
155
100
AcDbEntity
  8
LAY-1
  6
CONTINUOUS
 62
     2
100
AcDb2dPolyline
 66
     1
 10
0.0
 20
0.0
 30
0.0
 70
   128
  0
VERTEX
  5
156
100
AcDbEntity
  8
LAY-1
  6
CONTINUOUS
 62
     2
100
AcDbVertex
100
AcDb2dVertex
 10
738.808097
 20
546.517167
 30
0.0
  0
VERTEX
  5
157
100
AcDbEntity
  8
LAY-1
  6
CONTINUOUS
 62
     2
100
AcDbVertex
100
AcDb2dVertex
 10
746.313651
 20
546.517167
 30
0.0
  0
SEQEND
  5
158
100
AcDbEntity
  8
LAY-1
  6
CONTINUOUS
 62
     2
  0
POLYLINE
  5
159
100
AcDbEntity
  8
LAY-1
  6
CONTINUOUS
 62
     2
100
AcDb2dPolyline
 66
     1
 10
0.0
 20
0.0
 30
0.0
 70
   128
  0
VERTEX
  5
15A
100
AcDbEntity
  8
LAY-1
  6
CONTINUOUS
 62
     2
100
AcDbVertex
100
AcDb2dVertex
 10
738.808097
 20
559.517167
 30
0.0
  0
VERTEX
  5
15B
100
AcDbEntity
  8
LAY-1
  6
CONTINUOUS
 62
     2
100
AcDbVertex
100
AcDb2dVertex
 10
735.055321
 20
553.017167
 30
0.0
  0
SEQEND
  5
15C
100
AcDbEntity
  8
LAY-1
  6
CONTINUOUS
 62
     2
  0
POLYLINE
  5
15D
100
AcDbEntity
  8
LAY-1
  6
CONTINUOUS
 62
     2
100
AcDb2dPolyline
 66
     1
 10
0.0
 20
0.0
 30
0.0
 70
   128
  0
VERTEX
  5
15E
100
AcDbEntity
  8
LAY-1
  6
CONTINUOUS
 62
     2
100
AcDbVertex
100
AcDb2dVertex
 10
735.055321
 20
553.017167
 30
0.0
  0
VERTEX
  5
15F
100
AcDbEntity
  8
LAY-1
  6
CONTINUOUS
 62
     2
100
AcDbVertex
100
AcDb2dVertex
 10
738.808097
 20
546.517167
 30
0.0
  0
SEQEND
  5
160
100
AcDbEntity
  8
LAY-1
  6
CONTINUOUS
 62
     2
  0
POLYLINE
  5
161
100
AcDbEntity
  8
LAY-1
  6
CONTINUOUS
 62
     2
100
AcDb2dPolyline
 66
     1
 10
0.0
 20
0.0
 30
0.0
 70
   128
  0
VERTEX
  5
162
100
AcDbEntity
  8
LAY-1
  6
CONTINUOUS
 62
     2
100
AcDbVertex
100
AcDb2dVertex
 10
750.066427
 20
553.017167
 30
0.0
  0
VERTEX
  5
163
100
AcDbEntity
  8
LAY-1
  6
CONTINUOUS
 62
     2
100
AcDbVertex
100
AcDb2dVertex
 10
746.313651
 20
559.517167
 30
0.0
  0
SEQEND
  5
164
100
AcDbEntity
  8
LAY-1
  6
CONTINUOUS
 62
     2
  0
CIRCLE
  5
165
100
AcDbEntity
  8
LAY-1
  6
CONTINUOUS
 62
     2
100
AcDbCircle
 10
742.560874
 20
553.017167
 30
0.0
 40
7.5
  0
CIRCLE
  5
166
100
AcDbEntity
  8
LAY-1
  6
CONTINUOUS
 62
     2
100
AcDbCircle
 10
803.439126
 20
553.017167
 30
0.0
 40
6.5
  0
CIRCLE
  5
167
100
AcDbEntity
  8
LAY-1
  6
CONTINUOUS
 62
     2
100
AcDbCircle
 10
803.439126
 20
553.017167
 30
0.0
 40
5.75
  0
POLYLINE
  5
168
100
AcDbEntity
  8
LAY-1
  6
CONTINUOUS
 62
     2
100
AcDb2dPolyline
 66
     1
 10
0.0
 20
0.0
 30
0.0
 70
   128
  0
VERTEX
  5
169
100
AcDbEntity
  8
LAY-1
  6
CONTINUOUS
 62
     2
100
AcDbVertex
100
AcDb2dVertex
 10
807.191903
 20
559.517167
 30
0.0
  0
VERTEX
  5
16A
100
AcDbEntity
  8
LAY-1
  6
CONTINUOUS
 62
     2
100
AcDbVertex
100
AcDb2dVertex
 10
799.686349
 20
559.517167
 30
0.0
  0
SEQEND
  5
16B
100
AcDbEntity
  8
LAY-1
  6
CONTINUOUS
 62
     2
  0
POLYLINE
  5
16C
100
AcDbEntity
  8
LAY-1
  6
CONTINUOUS
 62
     2
100
AcDb2dPolyline
 66
     1
 10
0.0
 20
0.0
 30
0.0
 70
   128
  0
VERTEX
  5
16D
100
AcDbEntity
  8
LAY-1
  6
CONTINUOUS
 62
     2
100
AcDbVertex
100
AcDb2dVertex
 10
807.191903
 20
546.517167
 30
0.0
  0
VERTEX
  5
16E
100
AcDbEntity
  8
LAY-1
  6
CONTINUOUS
 62
     2
100
AcDbVertex
100
AcDb2dVertex
 10
810.944679
 20
553.017167
 30
0.0
  0
SEQEND
  5
16F
100
AcDbEntity
  8
LAY-1
  6
CONTINUOUS
 62
     2
  0
POLYLINE
  5
170
100
AcDbEntity
  8
LAY-1
  6
CONTINUOUS
 62
     2
100
AcDb2dPolyline
 66
     1
 10
0.0
 20
0.0
 30
0.0
 70
   128
  0
VERTEX
  5
171
100
AcDbEntity
  8
LAY-1
  6
CONTINUOUS
 62
     2
100
AcDbVertex
100
AcDb2dVertex
 10
799.686349
 20
546.517167
 30
0.0
  0
VERTEX
  5
172
100
AcDbEntity
  8
LAY-1
  6
CONTINUOUS
 62
     2
100
AcDbVertex
100
AcDb2dVertex
 10
807.191903
 20
546.517167
 30
0.0
  0
SEQEND
  5
173
100
AcDbEntity
  8
LAY-1
  6
CONTINUOUS
 62
     2
  0
POLYLINE
  5
174
100
AcDbEntity
  8
LAY-1
  6
CONTINUOUS
 62
     2
100
AcDb2dPolyline
 66
     1
 10
0.0
 20
0.0
 30
0.0
 70
   128
  0
VERTEX
  5
175
100
AcDbEntity
  8
LAY-1
  6
CONTINUOUS
 62
     2
100
AcDbVertex
100
AcDb2dVertex
 10
799.686349
 20
559.517167
 30
0.0
  0
VERTEX
  5
176
100
AcDbEntity
  8
LAY-1
  6
CONTINUOUS
 62
     2
100
AcDbVertex
100
AcDb2dVertex
 10
795.933573
 20
553.017167
 30
0.0
  0
SEQEND
  5
177
100
AcDbEntity
  8
LAY-1
  6
CONTINUOUS
 62
     2
  0
POLYLINE
  5
178
100
AcDbEntity
  8
LAY-1
  6
CONTINUOUS
 62
     2
100
AcDb2dPolyline
 66
     1
 10
0.0
 20
0.0
 30
0.0
 70
   128
  0
VERTEX
  5
179
100
AcDbEntity
  8
LAY-1
  6
CONTINUOUS
 62
     2
100
AcDbVertex
100
AcDb2dVertex
 10
795.933573
 20
553.017167
 30
0.0
  0
VERTEX
  5
17A
100
AcDbEntity
  8
LAY-1
  6
CONTINUOUS
 62
     2
100
AcDbVertex
100
AcDb2dVertex
 10
799.686349
 20
546.517167
 30
0.0
  0
SEQEND
  5
17B
100
AcDbEntity
  8
LAY-1
  6
CONTINUOUS
 62
     2
  0
POLYLINE
  5
17C
100
AcDbEntity
  8
LAY-1
  6
CONTINUOUS
 62
     2
100
AcDb2dPolyline
 66
     1
 10
0.0
 20
0.0
 30
0.0
 70
   128
  0
VERTEX
  5
17D
100
AcDbEntity
  8
LAY-1
  6
CONTINUOUS
 62
     2
100
AcDbVertex
100
AcDb2dVertex
 10
810.944679
 20
553.017167
 30
0.0
  0
VERTEX
  5
17E
100
AcDbEntity
  8
LAY-1
  6
CONTINUOUS
 62
     2
100
AcDbVertex
100
AcDb2dVertex
 10
807.191903
 20
559.517167
 30
0.0
  0
SEQEND
  5
17F
100
AcDbEntity
  8
LAY-1
  6
CONTINUOUS
 62
     2
  0
CIRCLE
  5
180
100
AcDbEntity
  8
LAY-1
  6
CONTINUOUS
 62
     2
100
AcDbCircle
 10
803.439126
 20
553.017167
 30
0.0
 40
7.5
  0
CIRCLE
  5
181
100
AcDbEntity
  8
LAY-1
  6
CONTINUOUS
 62
     2
100
AcDbCircle
 10
846.910363
 20
596.385325
 30
0.0
 40
6.5
  0
CIRCLE
  5
182
100
AcDbEntity
  8
LAY-1
  6
CONTINUOUS
 62
     2
100
AcDbCircle
 10
846.910363
 20
596.385325
 30
0.0
 40
5.75
  0
POLYLINE
  5
183
100
AcDbEntity
  8
LAY-1
  6
CONTINUOUS
 62
     2
100
AcDb2dPolyline
 66
     1
 10
0.0
 20
0.0
 30
0.0
 70
   128
  0
VERTEX
  5
184
100
AcDbEntity
  8
LAY-1
  6
CONTINUOUS
 62
     2
100
AcDbVertex
100
AcDb2dVertex
 10
850.663139
 20
602.885325
 30
0.0
  0
VERTEX
  5
185
100
AcDbEntity
  8
LAY-1
  6
CONTINUOUS
 62
     2
100
AcDbVertex
100
AcDb2dVertex
 10
843.157586
 20
602.885325
 30
0.0
  0
SEQEND
  5
186
100
AcDbEntity
  8
LAY-1
  6
CONTINUOUS
 62
     2
  0
POLYLINE
  5
187
100
AcDbEntity
  8
LAY-1
  6
CONTINUOUS
 62
     2
100
AcDb2dPolyline
 66
     1
 10
0.0
 20
0.0
 30
0.0
 70
   128
  0
VERTEX
  5
188
100
AcDbEntity
  8
LAY-1
  6
CONTINUOUS
 62
     2
100
AcDbVertex
100
AcDb2dVertex
 10
850.663139
 20
589.885325
 30
0.0
  0
VERTEX
  5
189
100
AcDbEntity
  8
LAY-1
  6
CONTINUOUS
 62
     2
100
AcDbVertex
100
AcDb2dVertex
 10
854.415916
 20
596.385325
 30
0.0
  0
SEQEND
  5
18A
100
AcDbEntity
  8
LAY-1
  6
CONTINUOUS
 62
     2
  0
POLYLINE
  5
18B
100
AcDbEntity
  8
LAY-1
  6
CONTINUOUS
 62
     2
100
AcDb2dPolyline
 66
     1
 10
0.0
 20
0.0
 30
0.0
 70
   128
  0
VERTEX
  5
18C
100
AcDbEntity
  8
LAY-1
  6
CONTINUOUS
 62
     2
100
AcDbVertex
100
AcDb2dVertex
 10
843.157586
 20
589.885325
 30
0.0
  0
VERTEX
  5
18D
100
AcDbEntity
  8
LAY-1
  6
CONTINUOUS
 62
     2
100
AcDbVertex
100
AcDb2dVertex
 10
850.663139
 20
589.885325
 30
0.0
  0
SEQEND
  5
18E
100
AcDbEntity
  8
LAY-1
  6
CONTINUOUS
 62
     2
  0
POLYLINE
  5
18F
100
AcDbEntity
  8
LAY-1
  6
CONTINUOUS
 62
     2
100
AcDb2dPolyline
 66
     1
 10
0.0
 20
0.0
 30
0.0
 70
   128
  0
VERTEX
  5
190
100
AcDbEntity
  8
LAY-1
  6
CONTINUOUS
 62
     2
100
AcDbVertex
100
AcDb2dVertex
 10
843.157586
 20
602.885325
 30
0.0
  0
VERTEX
  5
191
100
AcDbEntity
  8
LAY-1
  6
CONTINUOUS
 62
     2
100
AcDbVertex
100
AcDb2dVertex
 10
839.404809
 20
596.385325
 30
0.0
  0
SEQEND
  5
192
100
AcDbEntity
  8
LAY-1
  6
CONTINUOUS
 62
     2
  0
POLYLINE
  5
193
100
AcDbEntity
  8
LAY-1
  6
CONTINUOUS
 62
     2
100
AcDb2dPolyline
 66
     1
 10
0.0
 20
0.0
 30
0.0
 70
   128
  0
VERTEX
  5
194
100
AcDbEntity
  8
LAY-1
  6
CONTINUOUS
 62
     2
100
AcDbVertex
100
AcDb2dVertex
 10
839.404809
 20
596.385325
 30
0.0
  0
VERTEX
  5
195
100
AcDbEntity
  8
LAY-1
  6
CONTINUOUS
 62
     2
100
AcDbVertex
100
AcDb2dVertex
 10
843.157586
 20
589.885325
 30
0.0
  0
SEQEND
  5
196
100
AcDbEntity
  8
LAY-1
  6
CONTINUOUS
 62
     2
  0
POLYLINE
  5
197
100
AcDbEntity
  8
LAY-1
  6
CONTINUOUS
 62
     2
100
AcDb2dPolyline
 66
     1
 10
0.0
 20
0.0
 30
0.0
 70
   128
  0
VERTEX
  5
198
100
AcDbEntity
  8
LAY-1
  6
CONTINUOUS
 62
     2
100
AcDbVertex
100
AcDb2dVertex
 10
854.415916
 20
596.385325
 30
0.0
  0
VERTEX
  5
199
100
AcDbEntity
  8
LAY-1
  6
CONTINUOUS
 62
     2
100
AcDbVertex
100
AcDb2dVertex
 10
850.663139
 20
602.885325
 30
0.0
  0
SEQEND
  5
19A
100
AcDbEntity
  8
LAY-1
  6
CONTINUOUS
 62
     2
  0
CIRCLE
  5
19B
100
AcDbEntity
  8
LAY-1
  6
CONTINUOUS
 62
     2
100
AcDbCircle
 10
846.910363
 20
596.385325
 30
0.0
 40
7.5
  0
CIRCLE
  5
19C
100
AcDbEntity
  8
LAY-1
  6
CONTINUOUS
 62
     2
100
AcDbCircle
 10
846.910363
 20
657.614675
 30
0.0
 40
6.5
  0
CIRCLE
  5
19D
100
AcDbEntity
  8
LAY-1
  6
CONTINUOUS
 62
     2
100
AcDbCircle
 10
846.910363
 20
657.614675
 30
0.0
 40
5.75
  0
POLYLINE
  5
19E
100
AcDbEntity
  8
LAY-1
  6
CONTINUOUS
 62
     2
100
AcDb2dPolyline
 66
     1
 10
0.0
 20
0.0
 30
0.0
 70
   128
  0
VERTEX
  5
19F
100
AcDbEntity
  8
LAY-1
  6
CONTINUOUS
 62
     2
100
AcDbVertex
100
AcDb2dVertex
 10
850.663139
 20
664.114675
 30
0.0
  0
VERTEX
  5
1A0
100
AcDbEntity
  8
LAY-1
  6
CONTINUOUS
 62
     2
100
AcDbVertex
100
AcDb2dVertex
 10
843.157586
 20
664.114675
 30
0.0
  0
SEQEND
  5
1A1
100
AcDbEntity
  8
LAY-1
  6
CONTINUOUS
 62
     2
  0
POLYLINE
  5
1A2
100
AcDbEntity
  8
LAY-1
  6
CONTINUOUS
 62
     2
100
AcDb2dPolyline
 66
     1
 10
0.0
 20
0.0
 30
0.0
 70
   128
  0
VERTEX
  5
1A3
100
AcDbEntity
  8
LAY-1
  6
CONTINUOUS
 62
     2
100
AcDbVertex
100
AcDb2dVertex
 10
850.663139
 20
651.114675
 30
0.0
  0
VERTEX
  5
1A4
100
AcDbEntity
  8
LAY-1
  6
CONTINUOUS
 62
     2
100
AcDbVertex
100
AcDb2dVertex
 10
854.415916
 20
657.614675
 30
0.0
  0
SEQEND
  5
1A5
100
AcDbEntity
  8
LAY-1
  6
CONTINUOUS
 62
     2
  0
POLYLINE
  5
1A6
100
AcDbEntity
  8
LAY-1
  6
CONTINUOUS
 62
     2
100
AcDb2dPolyline
 66
     1
 10
0.0
 20
0.0
 30
0.0
 70
   128
  0
VERTEX
  5
1A7
100
AcDbEntity
  8
LAY-1
  6
CONTINUOUS
 62
     2
100
AcDbVertex
100
AcDb2dVertex
 10
843.157586
 20
651.114675
 30
0.0
  0
VERTEX
  5
1A8
100
AcDbEntity
  8
LAY-1
  6
CONTINUOUS
 62
     2
100
AcDbVertex
100
AcDb2dVertex
 10
850.663139
 20
651.114675
 30
0.0
  0
SEQEND
  5
1A9
100
AcDbEntity
  8
LAY-1
  6
CONTINUOUS
 62
     2
  0
POLYLINE
  5
1AA
100
AcDbEntity
  8
LAY-1
  6
CONTINUOUS
 62
     2
100
AcDb2dPolyline
 66
     1
 10
0.0
 20
0.0
 30
0.0
 70
   128
  0
VERTEX
  5
1AB
100
AcDbEntity
  8
LAY-1
  6
CONTINUOUS
 62
     2
100
AcDbVertex
100
AcDb2dVertex
 10
843.157586
 20
664.114675
 30
0.0
  0
VERTEX
  5
1AC
100
AcDbEntity
  8
LAY-1
  6
CONTINUOUS
 62
     2
100
AcDbVertex
100
AcDb2dVertex
 10
839.404809
 20
657.614675
 30
0.0
  0
SEQEND
  5
1AD
100
AcDbEntity
  8
LAY-1
  6
CONTINUOUS
 62
     2
  0
POLYLINE
  5
1AE
100
AcDbEntity
  8
LAY-1
  6
CONTINUOUS
 62
     2
100
AcDb2dPolyline
 66
     1
 10
0.0
 20
0.0
 30
0.0
 70
   128
  0
VERTEX
  5
1AF
100
AcDbEntity
  8
LAY-1
  6
CONTINUOUS
 62
     2
100
AcDbVertex
100
AcDb2dVertex
 10
839.404809
 20
657.614675
 30
0.0
  0
VERTEX
  5
1B0
100
AcDbEntity
  8
LAY-1
  6
CONTINUOUS
 62
     2
100
AcDbVertex
100
AcDb2dVertex
 10
843.157586
 20
651.114675
 30
0.0
  0
SEQEND
  5
1B1
100
AcDbEntity
  8
LAY-1
  6
CONTINUOUS
 62
     2
  0
POLYLINE
  5
1B2
100
AcDbEntity
  8
LAY-1
  6
CONTINUOUS
 62
     2
100
AcDb2dPolyline
 66
     1
 10
0.0
 20
0.0
 30
0.0
 70
   128
  0
VERTEX
  5
1B3
100
AcDbEntity
  8
LAY-1
  6
CONTINUOUS
 62
     2
100
AcDbVertex
100
AcDb2dVertex
 10
854.415916
 20
657.614675
 30
0.0
  0
VERTEX
  5
1B4
100
AcDbEntity
  8
LAY-1
  6
CONTINUOUS
 62
     2
100
AcDbVertex
100
AcDb2dVertex
 10
850.663139
 20
664.114675
 30
0.0
  0
SEQEND
  5
1B5
100
AcDbEntity
  8
LAY-1
  6
CONTINUOUS
 62
     2
  0
CIRCLE
  5
1B6
100
AcDbEntity
  8
LAY-1
  6
CONTINUOUS
 62
     2
100
AcDbCircle
 10
846.910363
 20
657.614675
 30
0.0
 40
7.5
  0
LINE
  5
1B7
100
AcDbEntity
  8
LAY-1
  6
CONTINUOUS
 62
     2
100
AcDbLine
 10
873.0
 20
651.0
 30
0.0
 11
859.740994
 21
651.0
 31
0.0
  0
LINE
  5
1B8
100
AcDbEntity
  8
LAY-1
  6
CONTINUOUS
 62
     2
100
AcDbLine
 10
873.0
 20
603.0
 30
0.0
 11
859.740994
 21
603.0
 31
0.0
  0
LINE
  5
1B9
100
AcDbEntity
  8
LAY-1
  6
CONTINUOUS
 62
     2
100
AcDbLine
 10
673.0
 20
651.0
 30
0.0
 11
686.259006
 21
651.0
 31
0.0
  0
LINE
  5
1BA
100
AcDbEntity
  8
LAY-1
  6
CONTINUOUS
 62
     2
100
AcDbLine
 10
673.0
 20
603.0
 30
0.0
 11
686.259006
 21
603.0
 31
0.0
  0
LINE
  5
1BB
100
AcDbEntity
  8
LAY-1
  6
CONTINUOUS
 62
     2
100
AcDbLine
 10
741.062808
 20
525.0
 30
0.0
 11
741.062808
 21
542.857171
 31
0.0
  0
LINE
  5
1BC
100
AcDbEntity
  8
LAY-1
  6
CONTINUOUS
 62
     2
100
AcDbLine
 10
804.937192
 20
525.0
 30
0.0
 11
804.937192
 21
542.857171
 31
0.0
  0
LINE
  5
1BD
100
AcDbEntity
  8
LAY-1
  6
CONTINUOUS
 62
     2
100
AcDbLine
 10
653.0
 20
652.0
 30
0.0
 11
653.0
 21
627.0
 31
0.0
  0
LINE
  5
1BE
100
AcDbEntity
  8
LAY-1
  6
CONTINUOUS
 62
     2
100
AcDbLine
 10
654.443376
 20
654.5
 30
0.0
 11
653.0
 21
652.0
 31
0.0
  0
LINE
  5
1BF
100
AcDbEntity
  8
LAY-1
  6
CONTINUOUS
 62
     2
100
AcDbLine
 10
671.556624
 20
654.5
 30
0.0
 11
654.443376
 21
654.5
 31
0.0
  0
LINE
  5
1C0
100
AcDbEntity
  8
LAY-1
  6
CONTINUOUS
 62
     2
100
AcDbLine
 10
673.0
 20
652.0
 30
0.0
 11
671.556624
 21
654.5
 31
0.0
  0
LINE
  5
1C1
100
AcDbEntity
  8
LAY-1
  6
CONTINUOUS
 62
     2
100
AcDbLine
 10
653.0
 20
602.0
 30
0.0
 11
653.0
 21
627.0
 31
0.0
  0
LINE
  5
1C2
100
AcDbEntity
  8
LAY-1
  6
CONTINUOUS
 62
     2
100
AcDbLine
 10
654.443376
 20
599.5
 30
0.0
 11
653.0
 21
602.0
 31
0.0
  0
LINE
  5
1C3
100
AcDbEntity
  8
LAY-1
  6
CONTINUOUS
 62
     2
100
AcDbLine
 10
671.556624
 20
599.5
 30
0.0
 11
654.443376
 21
599.5
 31
0.0
  0
LINE
  5
1C4
100
AcDbEntity
  8
LAY-1
  6
CONTINUOUS
 62
     2
100
AcDbLine
 10
673.0
 20
602.0
 30
0.0
 11
671.556624
 21
599.5
 31
0.0
  0
LINE
  5
1C5
100
AcDbEntity
  8
LAY-1
  6
CONTINUOUS
 62
     2
100
AcDbLine
 10
654.443376
 20
642.922415
 30
0.0
 11
671.556624
 21
642.922415
 31
0.0
  0
LINE
  5
1C6
100
AcDbEntity
  8
LAY-1
  6
CONTINUOUS
 62
     2
100
AcDbLine
 10
654.443376
 20
638.456439
 30
0.0
 11
671.556624
 21
638.456439
 31
0.0
  0
LINE
  5
1C7
100
AcDbEntity
  8
LAY-1
  6
CONTINUOUS
 62
     2
100
AcDbLine
 10
654.443376
 20
615.543561
 30
0.0
 11
671.556624
 21
615.543561
 31
0.0
  0
LINE
  5
1C8
100
AcDbEntity
  8
LAY-1
  6
CONTINUOUS
 62
     2
100
AcDbLine
 10
654.443376
 20
611.077585
 30
0.0
 11
671.556624
 21
611.077585
 31
0.0
  0
ARC
  5
1C9
100
AcDbEntity
  8
LAY-1
  6
CONTINUOUS
 62
     2
100
AcDbCircle
 10
665.329932
 20
648.711208
 30
0.0
 40
12.329932
100
AcDbArc
 50
151.998739
 51
208.001261
  0
ARC
  5
1CA
100
AcDbEntity
  8
LAY-1
  6
CONTINUOUS
 62
     2
100
AcDbCircle
 10
699.188022
 20
627.0
 30
0.0
 40
46.188022
100
AcDbArc
 50
165.638488
 51
194.361512
  0
ARC
  5
1CB
100
AcDbEntity
  8
LAY-1
  6
CONTINUOUS
 62
     2
100
AcDbCircle
 10
665.329932
 20
605.288792
 30
0.0
 40
12.329932
100
AcDbArc
 50
151.998739
 51
208.001261
  0
ARC
  5
1CC
100
AcDbEntity
  8
LAY-1
  6
CONTINUOUS
 62
     2
100
AcDbCircle
 10
660.670068
 20
605.288792
 30
0.0
 40
12.329932
100
AcDbArc
 50
331.998739
 51
28.001261
  0
ARC
  5
1CD
100
AcDbEntity
  8
LAY-1
  6
CONTINUOUS
 62
     2
100
AcDbCircle
 10
626.811978
 20
627.0
 30
0.0
 40
46.188022
100
AcDbArc
 50
345.638488
 51
14.361512
  0
ARC
  5
1CE
100
AcDbEntity
  8
LAY-1
  6
CONTINUOUS
 62
     2
100
AcDbCircle
 10
660.670068
 20
648.711208
 30
0.0
 40
12.329932
100
AcDbArc
 50
331.998739
 51
28.001261
  0
LINE
  5
1CF
100
AcDbEntity
  8
LAY-1
  6
CONTINUOUS
 62
     2
100
AcDbLine
 10
671.556624
 20
638.456439
 30
0.0
 11
671.556624
 21
642.922415
 31
0.0
  0
LINE
  5
1D0
100
AcDbEntity
  8
LAY-1
  6
CONTINUOUS
 62
     2
100
AcDbLine
 10
654.443376
 20
638.456439
 30
0.0
 11
654.443376
 21
642.922415
 31
0.0
  0
LINE
  5
1D1
100
AcDbEntity
  8
LAY-1
  6
CONTINUOUS
 62
     2
100
AcDbLine
 10
654.443376
 20
611.077585
 30
0.0
 11
654.443376
 21
615.543561
 31
0.0
  0
LINE
  5
1D2
100
AcDbEntity
  8
LAY-1
  6
CONTINUOUS
 62
     2
100
AcDbLine
 10
671.556624
 20
611.077585
 30
0.0
 11
671.556624
 21
615.543561
 31
0.0
  0
LINE
  5
1D3
100
AcDbEntity
  8
LAY-1
  6
CONTINUOUS
 62
     2
100
AcDbLine
 10
673.0
 20
602.0
 30
0.0
 11
673.0
 21
652.0
 31
0.0
  0
LINE
  5
1D4
100
AcDbEntity
  8
LAY-1
  6
CONTINUOUS
 62
     2
100
AcDbLine
 10
893.0
 20
652.0
 30
0.0
 11
893.0
 21
627.0
 31
0.0
  0
LINE
  5
1D5
100
AcDbEntity
  8
LAY-1
  6
CONTINUOUS
 62
     2
100
AcDbLine
 10
891.556624
 20
654.5
 30
0.0
 11
893.0
 21
652.0
 31
0.0
  0
LINE
  5
1D6
100
AcDbEntity
  8
LAY-1
  6
CONTINUOUS
 62
     2
100
AcDbLine
 10
874.443376
 20
654.5
 30
0.0
 11
891.556624
 21
654.5
 31
0.0
  0
LINE
  5
1D7
100
AcDbEntity
  8
LAY-1
  6
CONTINUOUS
 62
     2
100
AcDbLine
 10
873.0
 20
652.0
 30
0.0
 11
874.443376
 21
654.5
 31
0.0
  0
LINE
  5
1D8
100
AcDbEntity
  8
LAY-1
  6
CONTINUOUS
 62
     2
100
AcDbLine
 10
893.0
 20
602.0
 30
0.0
 11
893.0
 21
627.0
 31
0.0
  0
LINE
  5
1D9
100
AcDbEntity
  8
LAY-1
  6
CONTINUOUS
 62
     2
100
AcDbLine
 10
891.556624
 20
599.5
 30
0.0
 11
893.0
 21
602.0
 31
0.0
  0
LINE
  5
1DA
100
AcDbEntity
  8
LAY-1
  6
CONTINUOUS
 62
     2
100
AcDbLine
 10
874.443376
 20
599.5
 30
0.0
 11
891.556624
 21
599.5
 31
0.0
  0
LINE
  5
1DB
100
AcDbEntity
  8
LAY-1
  6
CONTINUOUS
 62
     2
100
AcDbLine
 10
873.0
 20
602.0
 30
0.0
 11
874.443376
 21
599.5
 31
0.0
  0
LINE
  5
1DC
100
AcDbEntity
  8
LAY-1
  6
CONTINUOUS
 62
     2
100
AcDbLine
 10
891.556624
 20
642.922415
 30
0.0
 11
874.443376
 21
642.922415
 31
0.0
  0
LINE
  5
1DD
100
AcDbEntity
  8
LAY-1
  6
CONTINUOUS
 62
     2
100
AcDbLine
 10
891.556624
 20
638.456439
 30
0.0
 11
874.443376
 21
638.456439
 31
0.0
  0
LINE
  5
1DE
100
AcDbEntity
  8
LAY-1
  6
CONTINUOUS
 62
     2
100
AcDbLine
 10
891.556624
 20
615.543561
 30
0.0
 11
874.443376
 21
615.543561
 31
0.0
  0
LINE
  5
1DF
100
AcDbEntity
  8
LAY-1
  6
CONTINUOUS
 62
     2
100
AcDbLine
 10
891.556624
 20
611.077585
 30
0.0
 11
874.443376
 21
611.077585
 31
0.0
  0
ARC
  5
1E0
100
AcDbEntity
  8
LAY-1
  6
CONTINUOUS
 62
     2
100
AcDbCircle
 10
880.670068
 20
648.711208
 30
0.0
 40
12.329932
100
AcDbArc
 50
331.998739
 51
28.001261
  0
ARC
  5
1E1
100
AcDbEntity
  8
LAY-1
  6
CONTINUOUS
 62
     2
100
AcDbCircle
 10
846.811978
 20
627.0
 30
0.0
 40
46.188022
100
AcDbArc
 50
345.638488
 51
14.361512
  0
ARC
  5
1E2
100
AcDbEntity
  8
LAY-1
  6
CONTINUOUS
 62
     2
100
AcDbCircle
 10
880.670068
 20
605.288792
 30
0.0
 40
12.329932
100
AcDbArc
 50
331.998739
 51
28.001261
  0
ARC
  5
1E3
100
AcDbEntity
  8
LAY-1
  6
CONTINUOUS
 62
     2
100
AcDbCircle
 10
885.329932
 20
605.288792
 30
0.0
 40
12.329932
100
AcDbArc
 50
151.998739
 51
208.001261
  0
ARC
  5
1E4
100
AcDbEntity
  8
LAY-1
  6
CONTINUOUS
 62
     2
100
AcDbCircle
 10
919.188022
 20
627.0
 30
0.0
 40
46.188022
100
AcDbArc
 50
165.638488
 51
194.361512
  0
ARC
  5
1E5
100
AcDbEntity
  8
LAY-1
  6
CONTINUOUS
 62
     2
100
AcDbCircle
 10
885.329932
 20
648.711208
 30
0.0
 40
12.329932
100
AcDbArc
 50
151.998739
 51
208.001261
  0
LINE
  5
1E6
100
AcDbEntity
  8
LAY-1
  6
CONTINUOUS
 62
     2
100
AcDbLine
 10
874.443376
 20
638.456439
 30
0.0
 11
874.443376
 21
642.922415
 31
0.0
  0
LINE
  5
1E7
100
AcDbEntity
  8
LAY-1
  6
CONTINUOUS
 62
     2
100
AcDbLine
 10
891.556624
 20
638.456439
 30
0.0
 11
891.556624
 21
642.922415
 31
0.0
  0
LINE
  5
1E8
100
AcDbEntity
  8
LAY-1
  6
CONTINUOUS
 62
     2
100
AcDbLine
 10
891.556624
 20
611.077585
 30
0.0
 11
891.556624
 21
615.543561
 31
0.0
  0
LINE
  5
1E9
100
AcDbEntity
  8
LAY-1
  6
CONTINUOUS
 62
     2
100
AcDbLine
 10
874.443376
 20
611.077585
 30
0.0
 11
874.443376
 21
615.543561
 31
0.0
  0
LINE
  5
1EA
100
AcDbEntity
  8
LAY-1
  6
CONTINUOUS
 62
     2
100
AcDbLine
 10
873.0
 20
602.0
 30
0.0
 11
873.0
 21
652.0
 31
0.0
  0
ARC
  5
1EB
100
AcDbEntity
  8
LAY-1
  6
CONTINUOUS
 62
     2
100
AcDbCircle
 10
622.0
 20
579.0
 30
0.0
 40
2.0
100
AcDbArc
 50
270.0
 51
0.0
  0
LINE
  5
1EC
100
AcDbEntity
  8
LAY-1
  6
CONTINUOUS
 62
     2
100
AcDbLine
 10
608.0
 20
627.0
 30
0.0
 11
608.0
 21
599.0
 31
0.0
  0
LINE
  5
1ED
100
AcDbEntity
  8
LAY-1
  6
CONTINUOUS
 62
     2
100
AcDbLine
 10
609.0
 20
577.0
 30
0.0
 11
622.0
 21
577.0
 31
0.0
  0
ARC
  5
1EE
100
AcDbEntity
  8
LAY-1
  6
CONTINUOUS
 62
     2
100
AcDbCircle
 10
622.0
 20
675.0
 30
0.0
 40
2.0
100
AcDbArc
 50
0.0
 51
90.0
  0
LINE
  5
1EF
100
AcDbEntity
  8
LAY-1
  6
CONTINUOUS
 62
     2
100
AcDbLine
 10
608.0
 20
627.0
 30
0.0
 11
608.0
 21
655.0
 31
0.0
  0
LINE
  5
1F0
100
AcDbEntity
  8
LAY-1
  6
CONTINUOUS
 62
     2
100
AcDbLine
 10
609.0
 20
677.0
 30
0.0
 11
622.0
 21
677.0
 31
0.0
  0
ARC
  5
1F1
100
AcDbEntity
  8
LAY-1
  6
CONTINUOUS
 62
     2
100
AcDbCircle
 10
608.0
 20
656.0
 30
0.0
 40
1.0
100
AcDbArc
 50
270.0
 51
0.0
  0
ARC
  5
1F2
100
AcDbEntity
  8
LAY-1
  6
CONTINUOUS
 62
     2
100
AcDbCircle
 10
608.0
 20
598.0
 30
0.0
 40
1.0
100
AcDbArc
 50
0.0
 51
90.0
  0
ARC
  5
1F3
100
AcDbEntity
  8
LAY-1
  6
CONTINUOUS
 62
     2
100
AcDbCircle
 10
634.0
 20
653.164569
 30
0.0
 40
10.0
100
AcDbArc
 50
180.0
 51
257.308125
  0
ARC
  5
1F4
100
AcDbEntity
  8
LAY-1
  6
CONTINUOUS
 62
     2
100
AcDbCircle
 10
634.0
 20
600.835431
 30
0.0
 40
10.0
100
AcDbArc
 50
102.691875
 51
180.0
  0
LINE
  5
1F5
100
AcDbEntity
  8
LAY-1
  6
CONTINUOUS
 62
     2
100
AcDbLine
 10
631.802921
 20
610.591089
 30
0.0
 11
644.906748
 21
613.542211
 31
0.0
  0
LINE
  5
1F6
100
AcDbEntity
  8
LAY-1
  6
CONTINUOUS
 62
     2
100
AcDbLine
 10
631.802921
 20
643.408911
 30
0.0
 11
644.906748
 21
640.457789
 31
0.0
  0
LINE
  5
1F7
100
AcDbEntity
  8
LAY-1
  6
CONTINUOUS
 62
     2
100
AcDbLine
 10
648.5
 20
640.3455
 30
0.0
 11
648.5
 21
627.0
 31
0.0
  0
LINE
  5
1F8
100
AcDbEntity
  8
LAY-1
  6
CONTINUOUS
 62
     2
100
AcDbLine
 10
648.5
 20
613.6545
 30
0.0
 11
648.5
 21
627.0
 31
0.0
  0
LINE
  5
1F9
100
AcDbEntity
  8
LAY-1
  6
CONTINUOUS
 62
     2
100
AcDbLine
 10
609.0
 20
627.0
 30
0.0
 11
609.0
 21
677.0
 31
0.0
  0
LINE
  5
1FA
100
AcDbEntity
  8
LAY-1
  6
CONTINUOUS
 62
     2
100
AcDbLine
 10
609.0
 20
627.0
 30
0.0
 11
609.0
 21
577.0
 31
0.0
  0
LINE
  5
1FB
100
AcDbEntity
  8
LAY-1
  6
CONTINUOUS
 62
     2
100
AcDbLine
 10
624.0
 20
675.0
 30
0.0
 11
624.0
 21
627.0
 31
0.0
  0
LINE
  5
1FC
100
AcDbEntity
  8
LAY-1
  6
CONTINUOUS
 62
     2
100
AcDbLine
 10
624.0
 20
579.0
 30
0.0
 11
624.0
 21
627.0
 31
0.0
  0
LINE
  5
1FD
100
AcDbEntity
  8
LAY-1
  6
CONTINUOUS
 62
     2
100
AcDbLine
 10
653.0
 20
613.795125
 30
0.0
 11
644.906748
 21
613.542211
 31
0.0
  0
LINE
  5
1FE
100
AcDbEntity
  8
LAY-1
  6
CONTINUOUS
 62
     2
100
AcDbLine
 10
653.0
 20
640.204875
 30
0.0
 11
644.906748
 21
640.457789
 31
0.0
  0
ARC
  5
1FF
100
AcDbEntity
  8
LAY-1
  6
CONTINUOUS
 62
     2
100
AcDbCircle
 10
924.0
 20
675.0
 30
0.0
 40
2.0
100
AcDbArc
 50
90.0
 51
180.0
  0
LINE
  5
200
100
AcDbEntity
  8
LAY-1
  6
CONTINUOUS
 62
     2
100
AcDbLine
 10
938.0
 20
627.0
 30
0.0
 11
938.0
 21
655.0
 31
0.0
  0
LINE
  5
201
100
AcDbEntity
  8
LAY-1
  6
CONTINUOUS
 62
     2
100
AcDbLine
 10
937.0
 20
677.0
 30
0.0
 11
924.0
 21
677.0
 31
0.0
  0
ARC
  5
202
100
AcDbEntity
  8
LAY-1
  6
CONTINUOUS
 62
     2
100
AcDbCircle
 10
924.0
 20
579.0
 30
0.0
 40
2.0
100
AcDbArc
 50
180.0
 51
270.0
  0
LINE
  5
203
100
AcDbEntity
  8
LAY-1
  6
CONTINUOUS
 62
     2
100
AcDbLine
 10
938.0
 20
627.0
 30
0.0
 11
938.0
 21
599.0
 31
0.0
  0
LINE
  5
204
100
AcDbEntity
  8
LAY-1
  6
CONTINUOUS
 62
     2
100
AcDbLine
 10
937.0
 20
577.0
 30
0.0
 11
924.0
 21
577.0
 31
0.0
  0
ARC
  5
205
100
AcDbEntity
  8
LAY-1
  6
CONTINUOUS
 62
     2
100
AcDbCircle
 10
938.0
 20
598.0
 30
0.0
 40
1.0
100
AcDbArc
 50
90.0
 51
180.0
  0
ARC
  5
206
100
AcDbEntity
  8
LAY-1
  6
CONTINUOUS
 62
     2
100
AcDbCircle
 10
938.0
 20
656.0
 30
0.0
 40
1.0
100
AcDbArc
 50
180.0
 51
270.0
  0
ARC
  5
207
100
AcDbEntity
  8
LAY-1
  6
CONTINUOUS
 62
     2
100
AcDbCircle
 10
912.0
 20
600.835431
 30
0.0
 40
10.0
100
AcDbArc
 50
0.0
 51
77.308125
  0
ARC
  5
208
100
AcDbEntity
  8
LAY-1
  6
CONTINUOUS
 62
     2
100
AcDbCircle
 10
912.0
 20
653.164569
 30
0.0
 40
10.0
100
AcDbArc
 50
282.691875
 51
0.0
  0
LINE
  5
209
100
AcDbEntity
  8
LAY-1
  6
CONTINUOUS
 62
     2
100
AcDbLine
 10
914.197079
 20
643.408911
 30
0.0
 11
901.093252
 21
640.457789
 31
0.0
  0
LINE
  5
20A
100
AcDbEntity
  8
LAY-1
  6
CONTINUOUS
 62
     2
100
AcDbLine
 10
914.197079
 20
610.591089
 30
0.0
 11
901.093252
 21
613.542211
 31
0.0
  0
LINE
  5
20B
100
AcDbEntity
  8
LAY-1
  6
CONTINUOUS
 62
     2
100
AcDbLine
 10
897.5
 20
613.6545
 30
0.0
 11
897.5
 21
627.0
 31
0.0
  0
LINE
  5
20C
100
AcDbEntity
  8
LAY-1
  6
CONTINUOUS
 62
     2
100
AcDbLine
 10
897.5
 20
640.3455
 30
0.0
 11
897.5
 21
627.0
 31
0.0
  0
LINE
  5
20D
100
AcDbEntity
  8
LAY-1
  6
CONTINUOUS
 62
     2
100
AcDbLine
 10
937.0
 20
627.0
 30
0.0
 11
937.0
 21
577.0
 31
0.0
  0
LINE
  5
20E
100
AcDbEntity
  8
LAY-1
  6
CONTINUOUS
 62
     2
100
AcDbLine
 10
937.0
 20
627.0
 30
0.0
 11
937.0
 21
677.0
 31
0.0
  0
LINE
  5
20F
100
AcDbEntity
  8
LAY-1
  6
CONTINUOUS
 62
     2
100
AcDbLine
 10
922.0
 20
579.0
 30
0.0
 11
922.0
 21
627.0
 31
0.0
  0
LINE
  5
210
100
AcDbEntity
  8
LAY-1
  6
CONTINUOUS
 62
     2
100
AcDbLine
 10
922.0
 20
675.0
 30
0.0
 11
922.0
 21
627.0
 31
0.0
  0
LINE
  5
211
100
AcDbEntity
  8
LAY-1
  6
CONTINUOUS
 62
     2
100
AcDbLine
 10
893.0
 20
640.204875
 30
0.0
 11
901.093252
 21
640.457789
 31
0.0
  0
LINE
  5
212
100
AcDbEntity
  8
LAY-1
  6
CONTINUOUS
 62
     2
100
AcDbLine
 10
893.0
 20
613.795125
 30
0.0
 11
901.093252
 21
613.542211
 31
0.0
  0
ARC
  5
213
100
AcDbEntity
  8
LAY-1
  6
CONTINUOUS
 62
     2
100
AcDbCircle
 10
743.0
 20
495.5
 30
0.0
 40
2.0
100
AcDbArc
 50
180.0
 51
270.0
  0
ARC
  5
214
100
AcDbEntity
  8
LAY-1
  6
CONTINUOUS
 62
     2
100
AcDbCircle
 10
803.0
 20
495.5
 30
0.0
 40
2.0
100
AcDbArc
 50
270.0
 51
0.0
  0
LINE
  5
215
100
AcDbEntity
  8
LAY-1
  6
CONTINUOUS
 62
     2
100
AcDbLine
 10
814.374785
 20
513.082904
 30
0.0
 11
809.0
 21
513.082904
 31
0.0
  0
LINE
  5
216
100
AcDbEntity
  8
LAY-1
  6
CONTINUOUS
 62
     2
100
AcDbLine
 10
814.374785
 20
513.082904
 30
0.0
 11
815.0
 21
512.0
 31
0.0
  0
LINE
  5
217
100
AcDbEntity
  8
LAY-1
  6
CONTINUOUS
 62
     2
100
AcDbLine
 10
815.0
 20
512.0
 30
0.0
 11
815.0
 21
505.0
 31
0.0
  0
LINE
  5
218
100
AcDbEntity
  8
LAY-1
  6
CONTINUOUS
 62
     2
100
AcDbLine
 10
815.0
 20
498.0
 30
0.0
 11
815.0
 21
505.0
 31
0.0
  0
LINE
  5
219
100
AcDbEntity
  8
LAY-1
  6
CONTINUOUS
 62
     2
100
AcDbLine
 10
807.0
 20
498.281817
 30
0.0
 11
809.0
 21
498.281817
 31
0.0
  0
LINE
  5
21A
100
AcDbEntity
  8
LAY-1
  6
CONTINUOUS
 62
     2
100
AcDbLine
 10
814.374785
 20
496.917096
 30
0.0
 11
815.0
 21
498.0
 31
0.0
  0
LINE
  5
21B
100
AcDbEntity
  8
LAY-1
  6
CONTINUOUS
 62
     2
100
AcDbLine
 10
814.374785
 20
496.917096
 30
0.0
 11
809.0
 21
496.917096
 31
0.0
  0
LINE
  5
21C
100
AcDbEntity
  8
LAY-1
  6
CONTINUOUS
 62
     2
100
AcDbLine
 10
807.0
 20
511.718183
 30
0.0
 11
809.0
 21
511.718183
 31
0.0
  0
LINE
  5
21D
100
AcDbEntity
  8
LAY-1
  6
CONTINUOUS
 62
     2
100
AcDbLine
 10
805.0
 20
511.648342
 30
0.0
 11
807.0
 21
511.718183
 31
0.0
  0
LINE
  5
21E
100
AcDbEntity
  8
LAY-1
  6
CONTINUOUS
 62
     2
100
AcDbLine
 10
805.0
 20
498.351658
 30
0.0
 11
807.0
 21
498.281817
 31
0.0
  0
LINE
  5
21F
100
AcDbEntity
  8
LAY-1
  6
CONTINUOUS
 62
     2
100
AcDbLine
 10
805.0
 20
525.0
 30
0.0
 11
805.0
 21
495.5
 31
0.0
  0
LINE
  5
220
100
AcDbEntity
  8
LAY-1
  6
CONTINUOUS
 62
     2
100
AcDbLine
 10
741.0
 20
525.0
 30
0.0
 11
741.0
 21
495.5
 31
0.0
  0
CIRCLE
  5
221
100
AcDbEntity
  8
LAY-1
  6
CONTINUOUS
 62
     2
100
AcDbCircle
 10
773.0
 20
505.0
 30
0.0
 40
27.0
  0
CIRCLE
  5
222
100
AcDbEntity
  8
LAY-1
  6
CONTINUOUS
 62
     2
100
AcDbCircle
 10
773.0
 20
505.0
 30
0.0
 40
25.0
  0
LINE
  5
223
100
AcDbEntity
  8
LAY-1
  6
CONTINUOUS
 62
     2
100
AcDbLine
 10
790.320508
 20
495.0
 30
0.0
 11
792.485572
 21
493.75
 31
0.0
  0
CIRCLE
  5
224
100
AcDbEntity
  8
LAY-1
  6
CONTINUOUS
 62
     2
100
AcDbCircle
 10
773.0
 20
505.0
 30
0.0
 40
2.0
  0
LINE
  5
225
100
AcDbEntity
  8
LAY-1
  6
CONTINUOUS
 62
     2
100
AcDbLine
 10
778.783317
 20
500.883822
 30
0.0
 11
777.116178
 21
500.883822
 31
0.0
  0
LINE
  5
226
100
AcDbEntity
  8
LAY-1
  6
CONTINUOUS
 62
     2
100
AcDbLine
 10
775.316706
 20
504.060386
 30
0.0
 11
778.783317
 21
500.883822
 31
0.0
  0
ARC
  5
227
100
AcDbEntity
  8
LAY-1
  6
CONTINUOUS
 62
     2
100
AcDbCircle
 10
773.0
 20
505.0
 30
0.0
 40
2.5
100
AcDbArc
 50
337.923418
 51
117.076582
  0
LINE
  5
228
100
AcDbEntity
  8
LAY-1
  6
CONTINUOUS
 62
     2
100
AcDbLine
 10
758.857864
 20
519.142136
 30
0.0
 11
771.862047
 21
507.225997
 31
0.0
  0
LINE
  5
229
100
AcDbEntity
  8
LAY-1
  6
CONTINUOUS
 62
     2
100
AcDbLine
 10
770.774003
 20
506.137953
 30
0.0
 11
758.857864
 21
519.142136
 31
0.0
  0
ARC
  5
22A
100
AcDbEntity
  8
LAY-1
  6
CONTINUOUS
 62
     2
100
AcDbCircle
 10
773.0
 20
505.0
 30
0.0
 40
2.5
100
AcDbArc
 50
152.923418
 51
292.076582
  0
LINE
  5
22B
100
AcDbEntity
  8
LAY-1
  6
CONTINUOUS
 62
     2
100
AcDbLine
 10
777.116178
 20
499.216683
 30
0.0
 11
773.939614
 21
502.683294
 31
0.0
  0
LINE
  5
22C
100
AcDbEntity
  8
LAY-1
  6
CONTINUOUS
 62
     2
100
AcDbLine
 10
777.116178
 20
500.883822
 30
0.0
 11
777.116178
 21
499.216683
 31
0.0
  0
LINE
  5
22D
100
AcDbEntity
  8
LAY-1
  6
CONTINUOUS
 62
     2
100
AcDbLine
 10
787.142136
 20
519.142136
 30
0.0
 11
788.909903
 21
520.909903
 31
0.0
  0
LINE
  5
22E
100
AcDbEntity
  8
LAY-1
  6
CONTINUOUS
 62
     2
100
AcDbLine
 10
757.090097
 20
489.090097
 30
0.0
 11
758.857864
 21
490.857864
 31
0.0
  0
LINE
  5
22F
100
AcDbEntity
  8
LAY-1
  6
CONTINUOUS
 62
     2
100
AcDbLine
 10
797.428467
 20
493.5
 30
0.0
 11
803.0
 21
493.5
 31
0.0
  0
LINE
  5
230
100
AcDbEntity
  8
LAY-1
  6
CONTINUOUS
 62
     2
100
AcDbLine
 10
748.571533
 20
493.5
 30
0.0
 11
743.0
 21
493.5
 31
0.0
  0
LINE
  5
231
100
AcDbEntity
  8
LAY-1
  6
CONTINUOUS
 62
     2
100
AcDbLine
 10
809.0
 20
496.917096
 30
0.0
 11
809.0
 21
505.0
 31
0.0
  0
LINE
  5
232
100
AcDbEntity
  8
LAY-1
  6
CONTINUOUS
 62
     2
100
AcDbLine
 10
809.0
 20
513.082904
 30
0.0
 11
809.0
 21
505.0
 31
0.0
  0
LINE
  5
233
100
AcDbEntity
  8
LAY-1
  6
CONTINUOUS
 62
     2
100
AcDbLine
 10
807.0
 20
505.0
 30
0.0
 11
807.0
 21
511.718183
 31
0.0
  0
LINE
  5
234
100
AcDbEntity
  8
LAY-1
  6
CONTINUOUS
 62
     2
100
AcDbLine
 10
807.0
 20
505.0
 30
0.0
 11
807.0
 21
498.281817
 31
0.0
  0
ARC
  5
235
100
AcDbEntity
  8
LAY-1
  6
CONTINUOUS
 62
     2
100
AcDbCircle
 10
801.625215
 20
505.0
 30
0.0
 40
13.374785
100
AcDbArc
 50
342.412046
 51
17.587954
  0
ARC
  5
236
100
AcDbEntity
  8
LAY-1
  6
CONTINUOUS
 62
     2
100
AcDbCircle
 10
811.421848
 20
511.062178
 30
0.0
 40
3.578152
100
AcDbArc
 50
325.615753
 51
25.615753
  0
ARC
  5
237
100
AcDbEntity
  8
LAY-1
  6
CONTINUOUS
 62
     2
100
AcDbCircle
 10
811.421848
 20
498.937822
 30
0.0
 40
3.578152
100
AcDbArc
 50
334.384247
 51
34.384247
  0
LINE
  5
238
100
AcDbEntity
  8
LAY-1
  6
CONTINUOUS
 62
     2
100
AcDbLine
 10
814.374785
 20
500.958548
 30
0.0
 11
809.0
 21
500.958548
 31
0.0
  0
LINE
  5
239
100
AcDbEntity
  8
LAY-1
  6
CONTINUOUS
 62
     2
100
AcDbLine
 10
814.374785
 20
509.041452
 30
0.0
 11
809.0
 21
509.041452
 31
0.0
  0
LINE
  5
23A
100
AcDbEntity
  8
LAY-1
  6
CONTINUOUS
 62
     2
100
AcDbLine
 10
731.625215
 20
513.082904
 30
0.0
 11
737.0
 21
513.082904
 31
0.0
  0
LINE
  5
23B
100
AcDbEntity
  8
LAY-1
  6
CONTINUOUS
 62
     2
100
AcDbLine
 10
731.625215
 20
513.082904
 30
0.0
 11
731.0
 21
512.0
 31
0.0
  0
LINE
  5
23C
100
AcDbEntity
  8
LAY-1
  6
CONTINUOUS
 62
     2
100
AcDbLine
 10
731.0
 20
512.0
 30
0.0
 11
731.0
 21
505.0
 31
0.0
  0
LINE
  5
23D
100
AcDbEntity
  8
LAY-1
  6
CONTINUOUS
 62
     2
100
AcDbLine
 10
731.0
 20
498.0
 30
0.0
 11
731.0
 21
505.0
 31
0.0
  0
LINE
  5
23E
100
AcDbEntity
  8
LAY-1
  6
CONTINUOUS
 62
     2
100
AcDbLine
 10
739.0
 20
498.281817
 30
0.0
 11
737.0
 21
498.281817
 31
0.0
  0
LINE
  5
23F
100
AcDbEntity
  8
LAY-1
  6
CONTINUOUS
 62
     2
100
AcDbLine
 10
731.625215
 20
496.917096
 30
0.0
 11
731.0
 21
498.0
 31
0.0
  0
LINE
  5
240
100
AcDbEntity
  8
LAY-1
  6
CONTINUOUS
 62
     2
100
AcDbLine
 10
731.625215
 20
496.917096
 30
0.0
 11
737.0
 21
496.917096
 31
0.0
  0
LINE
  5
241
100
AcDbEntity
  8
LAY-1
  6
CONTINUOUS
 62
     2
100
AcDbLine
 10
739.0
 20
511.718183
 30
0.0
 11
737.0
 21
511.718183
 31
0.0
  0
LINE
  5
242
100
AcDbEntity
  8
LAY-1
  6
CONTINUOUS
 62
     2
100
AcDbLine
 10
741.0
 20
511.648342
 30
0.0
 11
739.0
 21
511.718183
 31
0.0
  0
LINE
  5
243
100
AcDbEntity
  8
LAY-1
  6
CONTINUOUS
 62
     2
100
AcDbLine
 10
741.0
 20
498.351658
 30
0.0
 11
739.0
 21
498.281817
 31
0.0
  0
LINE
  5
244
100
AcDbEntity
  8
LAY-1
  6
CONTINUOUS
 62
     2
100
AcDbLine
 10
737.0
 20
496.917096
 30
0.0
 11
737.0
 21
505.0
 31
0.0
  0
LINE
  5
245
100
AcDbEntity
  8
LAY-1
  6
CONTINUOUS
 62
     2
100
AcDbLine
 10
737.0
 20
513.082904
 30
0.0
 11
737.0
 21
505.0
 31
0.0
  0
LINE
  5
246
100
AcDbEntity
  8
LAY-1
  6
CONTINUOUS
 62
     2
100
AcDbLine
 10
739.0
 20
505.0
 30
0.0
 11
739.0
 21
511.718183
 31
0.0
  0
LINE
  5
247
100
AcDbEntity
  8
LAY-1
  6
CONTINUOUS
 62
     2
100
AcDbLine
 10
739.0
 20
505.0
 30
0.0
 11
739.0
 21
498.281817
 31
0.0
  0
ARC
  5
248
100
AcDbEntity
  8
LAY-1
  6
CONTINUOUS
 62
     2
100
AcDbCircle
 10
744.374785
 20
505.0
 30
0.0
 40
13.374785
100
AcDbArc
 50
162.412046
 51
197.587954
  0
ARC
  5
249
100
AcDbEntity
  8
LAY-1
  6
CONTINUOUS
 62
     2
100
AcDbCircle
 10
734.578152
 20
511.062178
 30
0.0
 40
3.578152
100
AcDbArc
 50
154.384247
 51
214.384247
  0
ARC
  5
24A
100
AcDbEntity
  8
LAY-1
  6
CONTINUOUS
 62
     2
100
AcDbCircle
 10
734.578152
 20
498.937822
 30
0.0
 40
3.578152
100
AcDbArc
 50
145.615753
 51
205.615753
  0
LINE
  5
24B
100
AcDbEntity
  8
LAY-1
  6
CONTINUOUS
 62
     2
100
AcDbLine
 10
731.625215
 20
500.958548
 30
0.0
 11
737.0
 21
500.958548
 31
0.0
  0
LINE
  5
24C
100
AcDbEntity
  8
LAY-1
  6
CONTINUOUS
 62
     2
100
AcDbLine
 10
731.625215
 20
509.041452
 30
0.0
 11
737.0
 21
509.041452
 31
0.0
  0
ARC
  5
24D
100
AcDbEntity
  8
LAY-1
  6
CONTINUOUS
 62
     2
100
AcDbCircle
 10
743.0
 20
517.0
 30
0.0
 40
2.0
100
AcDbArc
 50
180.0
 51
270.0
  0
LINE
  5
24E
100
AcDbEntity
  8
LAY-1
  6
CONTINUOUS
 62
     2
100
AcDbLine
 10
742.672583
 20
513.0
 30
0.0
 11
742.672583
 21
515.0
 31
0.0
  0
LINE
  5
24F
100
AcDbEntity
  8
LAY-1
  6
CONTINUOUS
 62
     2
100
AcDbLine
 10
742.872583
 20
513.0
 30
0.0
 11
742.872583
 21
508.07735
 31
0.0
  0
LINE
  5
250
100
AcDbEntity
  8
LAY-1
  6
CONTINUOUS
 62
     2
100
AcDbLine
 10
742.872583
 20
508.07735
 30
0.0
 11
743.872583
 21
507.5
 31
0.0
  0
LINE
  5
251
100
AcDbEntity
  8
LAY-1
  6
CONTINUOUS
 62
     2
100
AcDbLine
 10
747.212406
 20
513.0
 30
0.0
 11
742.672583
 21
513.0
 31
0.0
  0
LINE
  5
252
100
AcDbEntity
  8
LAY-1
  6
CONTINUOUS
 62
     2
100
AcDbLine
 10
747.920128
 20
515.0
 30
0.0
 11
743.0
 21
515.0
 31
0.0
  0
ARC
  5
253
100
AcDbEntity
  8
LAY-1
  6
CONTINUOUS
 62
     2
100
AcDbCircle
 10
744.746195
 20
510.828788
 30
0.0
 40
3.328788
100
AcDbArc
 50
235.746813
 51
294.876644
  0
LINE
  5
254
100
AcDbEntity
  8
LAY-1
  6
CONTINUOUS
 62
     2
100
AcDbLine
 10
746.11599
 20
507.5
 30
0.0
 11
743.872583
 21
507.5
 31
0.0
  0
LINE
  5
255
100
AcDbEntity
  8
LAY-1
  6
CONTINUOUS
 62
     2
100
AcDbLine
 10
746.619806
 20
510.751989
 30
0.0
 11
746.619806
 21
513.0
 31
0.0
  0
LINE
  5
256
100
AcDbEntity
  8
LAY-1
  6
CONTINUOUS
 62
     2
100
AcDbLine
 10
803.327417
 20
513.0
 30
0.0
 11
803.327417
 21
515.0
 31
0.0
  0
LINE
  5
257
100
AcDbEntity
  8
LAY-1
  6
CONTINUOUS
 62
     2
100
AcDbLine
 10
803.127417
 20
513.0
 30
0.0
 11
803.127417
 21
508.07735
 31
0.0
  0
LINE
  5
258
100
AcDbEntity
  8
LAY-1
  6
CONTINUOUS
 62
     2
100
AcDbLine
 10
803.127417
 20
508.07735
 30
0.0
 11
802.127417
 21
507.5
 31
0.0
  0
LINE
  5
259
100
AcDbEntity
  8
LAY-1
  6
CONTINUOUS
 62
     2
100
AcDbLine
 10
798.787594
 20
513.0
 30
0.0
 11
803.327417
 21
513.0
 31
0.0
  0
LINE
  5
25A
100
AcDbEntity
  8
LAY-1
  6
CONTINUOUS
 62
     2
100
AcDbLine
 10
798.079872
 20
515.0
 30
0.0
 11
803.0
 21
515.0
 31
0.0
  0
ARC
  5
25B
100
AcDbEntity
  8
LAY-1
  6
CONTINUOUS
 62
     2
100
AcDbCircle
 10
801.253805
 20
510.828788
 30
0.0
 40
3.328788
100
AcDbArc
 50
245.123356
 51
304.253187
  0
LINE
  5
25C
100
AcDbEntity
  8
LAY-1
  6
CONTINUOUS
 62
     2
100
AcDbLine
 10
799.88401
 20
507.5
 30
0.0
 11
802.127417
 21
507.5
 31
0.0
  0
LINE
  5
25D
100
AcDbEntity
  8
LAY-1
  6
CONTINUOUS
 62
     2
100
AcDbLine
 10
799.380194
 20
510.751989
 30
0.0
 11
799.380194
 21
513.0
 31
0.0
  0
ARC
  5
25E
100
AcDbEntity
  8
LAY-1
  6
CONTINUOUS
 62
     2
100
AcDbCircle
 10
803.0
 20
517.0
 30
0.0
 40
2.0
100
AcDbArc
 50
270.0
 51
0.0
  0
LINE
  5
25F
100
AcDbEntity
  8
LAY-1
  6
CONTINUOUS
 62
     2
100
AcDbLine
 10
805.0
 20
525.0
 30
0.0
 11
791.138357
 21
525.0
 31
0.0
  0
LINE
  5
260
100
AcDbEntity
  8
LAY-1
  6
CONTINUOUS
 62
     2
100
AcDbLine
 10
754.861643
 20
525.0
 30
0.0
 11
741.0
 21
525.0
 31
0.0
  0
ARC
  5
261
100
AcDbEntity
  8
LAY-1
  6
CONTINUOUS
 62
     2
100
AcDbCircle
 10
773.0
 20
505.0
 30
0.0
 40
20.0
100
AcDbArc
 50
330.0
 51
225.0
  0
LINE
  5
262
100
AcDbEntity
  8
LAY-1
  6
CONTINUOUS
 62
     2
100
AcDbLine
 10
784.0
 20
620.649147
 30
0.0
 11
784.0
 21
633.350853
 31
0.0
  0
LINE
  5
263
100
AcDbEntity
  8
LAY-1
  6
CONTINUOUS
 62
     2
100
AcDbLine
 10
784.0
 20
633.350853
 30
0.0
 11
773.0
 21
639.701706
 31
0.0
  0
LINE
  5
264
100
AcDbEntity
  8
LAY-1
  6
CONTINUOUS
 62
     2
100
AcDbLine
 10
773.0
 20
639.701706
 30
0.0
 11
762.0
 21
633.350853
 31
0.0
  0
LINE
  5
265
100
AcDbEntity
  8
LAY-1
  6
CONTINUOUS
 62
     2
100
AcDbLine
 10
762.0
 20
633.350853
 30
0.0
 11
762.0
 21
620.649147
 31
0.0
  0
LINE
  5
266
100
AcDbEntity
  8
LAY-1
  6
CONTINUOUS
 62
     2
100
AcDbLine
 10
762.0
 20
620.649147
 30
0.0
 11
773.0
 21
614.298294
 31
0.0
  0
LINE
  5
267
100
AcDbEntity
  8
LAY-1
  6
CONTINUOUS
 62
     2
100
AcDbLine
 10
773.0
 20
614.298294
 30
0.0
 11
784.0
 21
620.649147
 31
0.0
  0
CIRCLE
  5
268
100
AcDbEntity
  8
LAY-1
  6
CONTINUOUS
 62
     2
100
AcDbCircle
 10
773.0
 20
627.0
 30
0.0
 40
11.0
  0
LINE
  5
269
100
AcDbEntity
  8
LAY-1
  6
CONTINUOUS
 62
     3
100
AcDbLine
 10
772.081527
 20
677.5
 30
0.0
 11
773.153324
 21
681.5
 31
0.0
  0
LINE
  5
26A
100
AcDbEntity
  8
LAY-1
  6
CONTINUOUS
 62
     3
100
AcDbLine
 10
777.9631
 20
685.5
 30
0.0
 11
774.846639
 21
681.347165
 31
0.0
  0
LINE
  5
26B
100
AcDbEntity
  8
LAY-1
  6
CONTINUOUS
 62
     3
100
AcDbLine
 10
774.197875
 20
677.5
 30
0.0
 11
775.85153
 21
677.5
 31
0.0
  0
LINE
  5
26C
100
AcDbEntity
  8
LAY-1
  6
CONTINUOUS
 62
     3
100
AcDbLine
 10
775.971519
 20
685.5
 30
0.0
 11
777.9631
 21
685.5
 31
0.0
  0
LINE
  5
26D
100
AcDbEntity
  8
LAY-1
  6
CONTINUOUS
 62
     3
100
AcDbLine
 10
774.225121
 20
685.5
 30
0.0
 11
772.568679
 21
685.5
 31
0.0
  0
LINE
  5
26E
100
AcDbEntity
  8
LAY-1
  6
CONTINUOUS
 62
     3
100
AcDbLine
 10
772.568679
 20
685.5
 30
0.0
 11
770.425086
 21
677.5
 31
0.0
  0
LINE
  5
26F
100
AcDbEntity
  8
LAY-1
  6
CONTINUOUS
 62
     3
100
AcDbLine
 10
773.260504
 20
681.9
 30
0.0
 11
775.971519
 21
685.5
 31
0.0
  0
LINE
  5
270
100
AcDbEntity
  8
LAY-1
  6
CONTINUOUS
 62
     3
100
AcDbLine
 10
773.153324
 20
681.5
 30
0.0
 11
774.197875
 21
677.5
 31
0.0
  0
LINE
  5
271
100
AcDbEntity
  8
LAY-1
  6
CONTINUOUS
 62
     3
100
AcDbLine
 10
775.85153
 20
677.5
 30
0.0
 11
774.846951
 21
681.346931
 31
0.0
  0
LINE
  5
272
100
AcDbEntity
  8
LAY-1
  6
CONTINUOUS
 62
     3
100
AcDbLine
 10
770.425086
 20
677.5
 30
0.0
 11
772.081527
 21
677.5
 31
0.0
  0
LINE
  5
273
100
AcDbEntity
  8
LAY-1
  6
CONTINUOUS
 62
     3
100
AcDbLine
 10
773.260504
 20
681.9
 30
0.0
 11
774.225121
 21
685.5
 31
0.0
  0
LINE
  5
274
100
AcDbEntity
  8
LAY-1
  6
CONTINUOUS
 62
     3
100
AcDbLine
 10
786.772162
 20
683.811515
 30
0.0
 11
782.811526
 21
676.537702
 31
0.0
  0
LINE
  5
275
100
AcDbEntity
  8
LAY-1
  6
CONTINUOUS
 62
     3
100
AcDbLine
 10
784.421736
 20
676.149086
 30
0.0
 11
786.402054
 21
679.785993
 31
0.0
  0
LINE
  5
276
100
AcDbEntity
  8
LAY-1
  6
CONTINUOUS
 62
     3
100
AcDbLine
 10
786.479016
 20
675.652573
 30
0.0
 11
788.086517
 21
675.26461
 31
0.0
  0
LINE
  5
277
100
AcDbEntity
  8
LAY-1
  6
CONTINUOUS
 62
     3
100
AcDbLine
 10
782.811526
 20
676.537702
 30
0.0
 11
784.421736
 21
676.149086
 31
0.0
  0
LINE
  5
278
100
AcDbEntity
  8
LAY-1
  6
CONTINUOUS
 62
     3
100
AcDbLine
 10
786.402054
 20
679.785993
 30
0.0
 11
786.479016
 21
675.652573
 31
0.0
  0
LINE
  5
279
100
AcDbEntity
  8
LAY-1
  6
CONTINUOUS
 62
     3
100
AcDbLine
 10
788.086517
 20
675.26461
 30
0.0
 11
788.0125
 21
679.239856
 31
0.0
  0
LINE
  5
27A
100
AcDbEntity
  8
LAY-1
  6
CONTINUOUS
 62
     3
100
AcDbLine
 10
792.016024
 20
682.545936
 30
0.0
 11
788.012252
 21
679.240157
 31
0.0
  0
LINE
  5
27B
100
AcDbEntity
  8
LAY-1
  6
CONTINUOUS
 62
     3
100
AcDbLine
 10
786.600086
 20
680.149683
 30
0.0
 11
790.080028
 21
683.013179
 31
0.0
  0
LINE
  5
27C
100
AcDbEntity
  8
LAY-1
  6
CONTINUOUS
 62
     3
100
AcDbLine
 10
786.600086
 20
680.149683
 30
0.0
 11
788.382373
 21
683.422899
 31
0.0
  0
LINE
  5
27D
100
AcDbEntity
  8
LAY-1
  6
CONTINUOUS
 62
     3
100
AcDbLine
 10
790.080028
 20
683.013179
 30
0.0
 11
792.016024
 21
682.545936
 31
0.0
  0
LINE
  5
27E
100
AcDbEntity
  8
LAY-1
  6
CONTINUOUS
 62
     3
100
AcDbLine
 10
788.382373
 20
683.422899
 30
0.0
 11
786.772162
 21
683.811515
 31
0.0
  0
LINE
  5
27F
100
AcDbEntity
  8
LAY-1
  6
CONTINUOUS
 62
     3
100
AcDbLine
 10
759.584352
 20
675.682528
 30
0.0
 11
759.439806
 21
682.306718
 31
0.0
  0
LINE
  5
280
100
AcDbEntity
  8
LAY-1
  6
CONTINUOUS
 62
     3
100
AcDbLine
 10
757.84954
 20
681.843197
 30
0.0
 11
757.994085
 21
675.219006
 31
0.0
  0
LINE
  5
281
100
AcDbEntity
  8
LAY-1
  6
CONTINUOUS
 62
     3
100
AcDbLine
 10
757.994085
 20
675.219006
 30
0.0
 11
759.584352
 21
675.682528
 31
0.0
  0
LINE
  5
282
100
AcDbEntity
  8
LAY-1
  6
CONTINUOUS
 62
     3
100
AcDbLine
 10
755.82557
 20
682.919842
 30
0.0
 11
755.861707
 21
681.263794
 31
0.0
  0
LINE
  5
283
100
AcDbEntity
  8
LAY-1
  6
CONTINUOUS
 62
     3
100
AcDbLine
 10
755.861707
 20
681.263794
 30
0.0
 11
757.84954
 21
681.843197
 31
0.0
  0
LINE
  5
284
100
AcDbEntity
  8
LAY-1
  6
CONTINUOUS
 62
     3
100
AcDbLine
 10
759.439806
 20
682.306718
 30
0.0
 11
761.270749
 21
682.840391
 31
0.0
  0
LINE
  5
285
100
AcDbEntity
  8
LAY-1
  6
CONTINUOUS
 62
     3
100
AcDbLine
 10
761.270749
 20
682.840391
 30
0.0
 11
761.234613
 21
684.496439
 31
0.0
  0
LINE
  5
286
100
AcDbEntity
  8
LAY-1
  6
CONTINUOUS
 62
     3
100
AcDbLine
 10
761.234613
 20
684.496439
 30
0.0
 11
755.82557
 21
682.919842
 31
0.0
  0
LINE
  5
287
100
AcDbEntity
  8
LAY-1
  6
CONTINUOUS
 62
     3
100
AcDbLine
 10
755.632281
 20
674.429024
 30
0.0
 11
754.714867
 21
682.660266
 31
0.0
  0
LINE
  5
288
100
AcDbEntity
  8
LAY-1
  6
CONTINUOUS
 62
     3
100
AcDbLine
 10
753.172202
 20
682.056955
 30
0.0
 11
754.089616
 21
673.825713
 31
0.0
  0
LINE
  5
289
100
AcDbEntity
  8
LAY-1
  6
CONTINUOUS
 62
     3
100
AcDbLine
 10
754.089616
 20
673.825713
 30
0.0
 11
755.632281
 21
674.429024
 31
0.0
  0
LINE
  5
28A
100
AcDbEntity
  8
LAY-1
  6
CONTINUOUS
 62
     3
100
AcDbLine
 10
754.714867
 20
682.660266
 30
0.0
 11
753.172202
 21
682.056955
 31
0.0
  0
LINE
  5
28B
100
AcDbEntity
  8
LAY-1
  6
CONTINUOUS
 62
     3
100
AcDbLine
 10
788.999517
 20
674.898491
 30
0.0
 11
790.553154
 21
674.324025
 31
0.0
  0
LINE
  5
28C
100
AcDbEntity
  8
LAY-1
  6
CONTINUOUS
 62
     3
100
AcDbLine
 10
790.553154
 20
674.324025
 30
0.0
 11
795.338167
 21
681.084102
 31
0.0
  0
LINE
  5
28D
100
AcDbEntity
  8
LAY-1
  6
CONTINUOUS
 62
     3
100
AcDbLine
 10
793.78453
 20
681.658568
 30
0.0
 11
788.999517
 21
674.898491
 31
0.0
  0
LINE
  5
28E
100
AcDbEntity
  8
LAY-1
  6
CONTINUOUS
 62
     3
100
AcDbLine
 10
795.338167
 20
681.084102
 30
0.0
 11
793.78453
 21
681.658568
 31
0.0
  0
ELLIPSE
  5
28F
100
AcDbEntity
  8
LAY-1
  6
CONTINUOUS
 62
     3
100
AcDbEllipse
 10
780.575629
 20
680.970907
 30
0.0
 11
0.9932451020944938
 21
2.3594626861142065
 31
0.0
210
0.0
220
0.0
230
1.0
 40
0.3125
 41
0.0
 42
6.2831853071796004
  0
ELLIPSE
  5
290
100
AcDbEntity
  8
LAY-1
  6
CONTINUOUS
 62
     3
100
AcDbEllipse
 10
764.42292
 20
680.800776
 30
0.0
 11
0.4538995964687362
 21
4.1351632563086778
 31
0.0
210
0.0
220
0.0
230
1.0
 40
0.576923
 41
0.0
 42
6.2831853071796004
  0
ELLIPSE
  5
291
100
AcDbEntity
  8
LAY-1
  6
CONTINUOUS
 62
     3
100
AcDbEllipse
 10
780.575629
 20
680.970907
 30
0.0
 11
1.6140232909036838
 21
3.834126864935524
 31
0.0
210
0.0
220
0.0
230
1.0
 40
0.576923
 41
0.0
 42
6.2831853071796004
  0
ELLIPSE
  5
292
100
AcDbEntity
  8
LAY-1
  6
CONTINUOUS
 62
     3
100
AcDbEllipse
 10
764.42292
 20
680.800776
 30
0.0
 11
0.2793228285960567
 21
2.5447158500361251
 31
0.0
210
0.0
220
0.0
230
1.0
 40
0.3125
 41
0.0
 42
6.2831853071796004
  0
LINE
  5
293
100
AcDbEntity
  8
LAY-1
  6
CONTINUOUS
 62
     1
100
AcDbLine
 10
718.0375
 20
622.6125
 30
0.0
 11
720.3875
 21
622.6125
 31
0.0
  0
LINE
  5
294
100
AcDbEntity
  8
LAY-1
  6
CONTINUOUS
 62
     1
100
AcDbLine
 10
720.3875
 20
622.6125
 30
0.0
 11
719.975
 21
622.975
 31
0.0
  0
LINE
  5
295
100
AcDbEntity
  8
LAY-1
  6
CONTINUOUS
 62
     1
100
AcDbLine
 10
719.975
 20
627.0
 30
0.0
 11
721.355977
 21
627.0
 31
0.0
  0
LINE
  5
296
100
AcDbEntity
  8
LAY-1
  6
CONTINUOUS
 62
     1
100
AcDbLine
 10
721.355977
 20
627.0
 30
0.0
 11
721.885224
 21
626.694439
 31
0.0
  0
LINE
  5
297
100
AcDbEntity
  8
LAY-1
  6
CONTINUOUS
 62
     1
100
AcDbLine
 10
721.885224
 20
626.694439
 30
0.0
 11
720.85
 21
628.4875
 31
0.0
  0
LINE
  5
298
100
AcDbEntity
  8
LAY-1
  6
CONTINUOUS
 62
     1
100
AcDbLine
 10
720.85
 20
628.4875
 30
0.0
 11
720.55
 21
628.1875
 31
0.0
  0
LINE
  5
299
100
AcDbEntity
  8
LAY-1
  6
CONTINUOUS
 62
     1
100
AcDbLine
 10
720.55
 20
628.1875
 30
0.0
 11
717.9
 21
628.1875
 31
0.0
  0
LINE
  5
29A
100
AcDbEntity
  8
LAY-1
  6
CONTINUOUS
 62
     1
100
AcDbLine
 10
717.9
 20
628.1875
 30
0.0
 11
717.9
 21
630.809353
 31
0.0
  0
LINE
  5
29B
100
AcDbEntity
  8
LAY-1
  6
CONTINUOUS
 62
     1
100
AcDbLine
 10
716.2
 20
631.7875
 30
0.0
 11
716.6
 21
630.518633
 31
0.0
  0
LINE
  5
29C
100
AcDbEntity
  8
LAY-1
  6
CONTINUOUS
 62
     1
100
AcDbLine
 10
716.6
 20
628.1875
 30
0.0
 11
716.45
 21
628.1875
 31
0.0
  0
LINE
  5
29D
100
AcDbEntity
  8
LAY-1
  6
CONTINUOUS
 62
     1
100
AcDbLine
 10
716.45
 20
628.1875
 30
0.0
 11
716.15
 21
628.4875
 31
0.0
  0
LINE
  5
29E
100
AcDbEntity
  8
LAY-1
  6
CONTINUOUS
 62
     1
100
AcDbLine
 10
716.15
 20
628.4875
 30
0.0
 11
715.114776
 21
626.694439
 31
0.0
  0
LINE
  5
29F
100
AcDbEntity
  8
LAY-1
  6
CONTINUOUS
 62
     1
100
AcDbLine
 10
715.114776
 20
626.694439
 30
0.0
 11
715.644023
 21
627.0
 31
0.0
  0
LINE
  5
2A0
100
AcDbEntity
  8
LAY-1
  6
CONTINUOUS
 62
     1
100
AcDbLine
 10
715.644023
 20
627.0
 30
0.0
 11
716.6
 21
627.0
 31
0.0
  0
LINE
  5
2A1
100
AcDbEntity
  8
LAY-1
  6
CONTINUOUS
 62
     1
100
AcDbLine
 10
716.6
 20
627.0
 30
0.0
 11
716.6
 21
625.4375
 31
0.0
  0
LINE
  5
2A2
100
AcDbEntity
  8
LAY-1
  6
CONTINUOUS
 62
     1
100
AcDbLine
 10
716.6
 20
625.4375
 30
0.0
 11
716.075
 21
625.175
 31
0.0
  0
LINE
  5
2A3
100
AcDbEntity
  8
LAY-1
  6
CONTINUOUS
 62
     1
100
AcDbLine
 10
716.075
 20
625.175
 30
0.0
 11
718.5
 21
625.175
 31
0.0
  0
LINE
  5
2A4
100
AcDbEntity
  8
LAY-1
  6
CONTINUOUS
 62
     1
100
AcDbLine
 10
718.5
 20
625.175
 30
0.0
 11
717.9
 21
625.4375
 31
0.0
  0
LINE
  5
2A5
100
AcDbEntity
  8
LAY-1
  6
CONTINUOUS
 62
     1
100
AcDbLine
 10
717.9
 20
625.4375
 30
0.0
 11
717.9
 21
627.0
 31
0.0
  0
LINE
  5
2A6
100
AcDbEntity
  8
LAY-1
  6
CONTINUOUS
 62
     1
100
AcDbLine
 10
717.9
 20
627.0
 30
0.0
 11
718.5
 21
627.0
 31
0.0
  0
LINE
  5
2A7
100
AcDbEntity
  8
LAY-1
  6
CONTINUOUS
 62
     1
100
AcDbLine
 10
718.5
 20
623.001153
 30
0.0
 11
718.0375
 21
622.6125
 31
0.0
  0
ARC
  5
2A8
100
AcDbEntity
  8
LAY-1
  6
CONTINUOUS
 62
     1
100
AcDbCircle
 10
718.5
 20
627.0
 30
0.0
 40
3.998847
100
AcDbArc
 50
118.368264
 51
270.0
  0
ARC
  5
2A9
100
AcDbEntity
  8
LAY-1
  6
CONTINUOUS
 62
     1
100
AcDbCircle
 10
718.5
 20
627.0
 30
0.0
 40
3.998847
100
AcDbArc
 50
291.645098
 51
101.419721
  0
ELLIPSE
  5
2AA
100
AcDbEntity
  8
LAY-1
  6
CONTINUOUS
 62
     1
100
AcDbEllipse
 10
718.5
 20
627.0
 30
0.0
 11
-0.1135538368123101
 21
3.8608304516185727
 31
0.0
210
0.0
220
0.0
230
1.0
 40
0.912621
 41
0.5369857443297789
 42
3.1093760194933928
  0
ELLIPSE
  5
2AB
100
AcDbEntity
  8
LAY-1
  6
CONTINUOUS
 62
     1
100
AcDbEllipse
 10
718.5
 20
627.0
 30
0.0
 11
-0.1135538368123101
 21
3.8608304516185727
 31
0.0
210
0.0
220
0.0
230
1.0
 40
0.912621
 41
3.5410628022546478
 42
0.1388139713137077
  0
LINE
  5
2AC
100
AcDbEntity
  8
LAY-1
  6
CONTINUOUS
 62
     1
100
AcDbLine
 10
716.6
 20
630.264423
 30
0.0
 11
716.6
 21
628.1875
 31
0.0
  0
LINE
  5
2AD
100
AcDbEntity
  8
LAY-1
  6
CONTINUOUS
 62
     1
100
AcDbLine
 10
717.708249
 20
630.919683
 30
0.0
 11
716.2
 21
631.7875
 31
0.0
  0
LINE
  5
2AE
100
AcDbEntity
  8
LAY-1
  6
CONTINUOUS
 62
     1
100
AcDbLine
 10
718.5
 20
627.0
 30
0.0
 11
718.5
 21
623.137835
 31
0.0
  0
LINE
  5
2AF
100
AcDbEntity
  8
LAY-1
  6
CONTINUOUS
 62
     1
100
AcDbLine
 10
719.975
 20
622.975
 30
0.0
 11
719.975
 21
623.283125
 31
0.0
  0
LINE
  5
2B0
100
AcDbEntity
  8
LAY-1
  6
CONTINUOUS
 62
     1
100
AcDbLine
 10
719.975
 20
623.483449
 30
0.0
 11
719.975
 21
627.0
 31
0.0
  0
LINE
  5
2B1
100
AcDbEntity
  8
LAY-1
  6
EXLTYPE3
 62
     1
100
AcDbLine
 10
943.9
 20
589.5
 30
0.0
 11
915.994216
 21
589.5
 31
0.0
  0
LINE
  5
2B2
100
AcDbEntity
  8
LAY-1
  6
EXLTYPE3
 62
     1
100
AcDbLine
 10
943.9
 20
664.5
 30
0.0
 11
914.794216
 21
664.5
 31
0.0
  0
LINE
  5
2B3
100
AcDbEntity
  8
LAY-1
  6
EXLTYPE3
 62
     1
100
AcDbLine
 10
602.1
 20
589.5
 30
0.0
 11
631.205784
 21
589.5
 31
0.0
  0
LINE
  5
2B4
100
AcDbEntity
  8
LAY-1
  6
EXLTYPE3
 62
     1
100
AcDbLine
 10
602.1
 20
664.5
 30
0.0
 11
630.005784
 21
664.5
 31
0.0
  0
ARC
  5
2B5
100
AcDbEntity
  8
LAY-1
  6
CONTINUOUS
 62
     2
100
AcDbCircle
 10
780.898718
 20
740.5
 30
0.0
 40
3.0
100
AcDbArc
 50
19.983107
 51
90.0
  0
ARC
  5
2B6
100
AcDbEntity
  8
LAY-1
  6
CONTINUOUS
 62
     2
100
AcDbCircle
 10
788.0
 20
720.971475
 30
0.0
 40
3.0
100
AcDbArc
 50
0.0
 51
19.983107
  0
ARC
  5
2B7
100
AcDbEntity
  8
LAY-1
  6
CONTINUOUS
 62
     2
100
AcDbCircle
 10
745.0
 20
726.395826
 30
0.0
 40
10.0
100
AcDbArc
 50
0.0
 51
82.318452
  0
LINE
  5
2B8
100
AcDbEntity
  8
LAY-1
  6
CONTINUOUS
 62
     2
100
AcDbLine
 10
693.0
 20
743.5
 30
0.0
 11
746.33667
 21
736.306089
 31
0.0
  0
LINE
  5
2B9
100
AcDbEntity
  8
LAY-1
  6
CONTINUOUS
 62
     2
100
AcDbLine
 10
695.683657
 20
748.178689
 30
0.0
 11
757.365335
 21
743.635102
 31
0.0
  0
ARC
  5
2BA
100
AcDbEntity
  8
LAY-1
  6
CONTINUOUS
 62
     2
100
AcDbCircle
 10
695.5
 20
745.685444
 30
0.0
 40
2.5
100
AcDbArc
 50
85.787096
 51
262.318452
  0
ARC
  5
2BB
100
AcDbEntity
  8
LAY-1
  6
CONTINUOUS
 62
     2
100
AcDbCircle
 10
663.0
 20
753.5
 30
0.0
 40
10.0
100
AcDbArc
 50
90.0
 51
270.0
  0
LINE
  5
2BC
100
AcDbEntity
  8
LAY-1
  6
CONTINUOUS
 62
     2
100
AcDbLine
 10
667.0
 20
759.5
 30
0.0
 11
667.0
 21
757.0
 31
0.0
  0
LINE
  5
2BD
100
AcDbEntity
  8
LAY-1
  6
CONTINUOUS
 62
     2
100
AcDbLine
 10
667.0
 20
751.5
 30
0.0
 11
667.0
 21
754.0
 31
0.0
  0
LINE
  5
2BE
100
AcDbEntity
  8
LAY-1
  6
CONTINUOUS
 62
     2
100
AcDbLine
 10
663.0
 20
755.5
 30
0.0
 11
667.0
 21
751.5
 31
0.0
  0
LINE
  5
2BF
100
AcDbEntity
  8
LAY-1
  6
CONTINUOUS
 62
     2
100
AcDbLine
 10
663.0
 20
755.5
 30
0.0
 11
667.0
 21
759.5
 31
0.0
  0
ARC
  5
2C0
100
AcDbEntity
  8
LAY-1
  6
CONTINUOUS
 62
     2
100
AcDbCircle
 10
761.038476
 20
793.5
 30
0.0
 40
50.0
100
AcDbArc
 50
240.0
 51
270.0
  0
LINE
  5
2C1
100
AcDbEntity
  8
LAY-1
  6
CONTINUOUS
 62
     2
100
AcDbLine
 10
663.0
 20
743.5
 30
0.0
 11
693.0
 21
743.5
 31
0.0
  0
LINE
  5
2C2
100
AcDbEntity
  8
LAY-1
  6
CONTINUOUS
 62
     2
100
AcDbLine
 10
746.33667
 20
736.306089
 30
0.0
 11
751.586248
 21
735.59804
 31
0.0
  0
LINE
  5
2C3
100
AcDbEntity
  8
LAY-1
  6
CONTINUOUS
 62
     2
100
AcDbLine
 10
673.0
 20
754.0
 30
0.0
 11
673.0
 21
755.5
 31
0.0
  0
LINE
  5
2C4
100
AcDbEntity
  8
LAY-1
  6
CONTINUOUS
 62
     2
100
AcDbLine
 10
667.0
 20
754.0
 30
0.0
 11
673.0
 21
754.0
 31
0.0
  0
LINE
  5
2C5
100
AcDbEntity
  8
LAY-1
  6
CONTINUOUS
 62
     2
100
AcDbLine
 10
673.0
 20
757.0
 30
0.0
 11
673.0
 21
755.5
 31
0.0
  0
LINE
  5
2C6
100
AcDbEntity
  8
LAY-1
  6
CONTINUOUS
 62
     2
100
AcDbLine
 10
667.0
 20
757.0
 30
0.0
 11
673.0
 21
757.0
 31
0.0
  0
LINE
  5
2C7
100
AcDbEntity
  8
LAY-1
  6
CONTINUOUS
 62
     2
100
AcDbLine
 10
696.6
 20
763.5
 30
0.0
 11
663.0
 21
763.5
 31
0.0
  0
ARC
  5
2C8
100
AcDbEntity
  8
LAY-1
  6
CONTINUOUS
 62
     2
100
AcDbCircle
 10
694.243557
 20
693.5
 30
0.0
 40
70.0
100
AcDbArc
 50
60.0
 51
88.041195
  0
LINE
  5
2C9
100
AcDbEntity
  8
LAY-1
  6
CONTINUOUS
 62
     2
100
AcDbLine
 10
729.243557
 20
754.121778
 30
0.0
 11
736.038476
 21
750.19873
 31
0.0
  0
LINE
  5
2CA
100
AcDbEntity
  8
LAY-1
  6
CONTINUOUS
 62
     2
100
AcDbLine
 10
751.586248
 20
735.59804
 30
0.0
 11
759.727273
 21
734.5
 31
0.0
  0
ARC
  5
2CB
100
AcDbEntity
  8
LAY-1
  6
CONTINUOUS
 62
     2
100
AcDbCircle
 10
755.635005
 20
732.024789
 30
0.0
 40
3.0
100
AcDbArc
 50
340.016893
 51
82.318452
  0
ARC
  5
2CC
100
AcDbEntity
  8
LAY-1
  6
CONTINUOUS
 62
     2
100
AcDbCircle
 10
765.101282
 20
740.5
 30
0.0
 40
3.0
100
AcDbArc
 50
90.0
 51
160.016893
  0
ARC
  5
2CD
100
AcDbEntity
  8
LAY-1
  6
CONTINUOUS
 62
     2
100
AcDbCircle
 10
758.0
 20
720.971475
 30
0.0
 40
3.0
100
AcDbArc
 50
160.016893
 51
180.0
  0
LINE
  5
2CE
100
AcDbEntity
  8
LAY-1
  6
CONTINUOUS
 62
     2
100
AcDbLine
 10
762.281902
 20
741.525229
 30
0.0
 11
755.18062
 21
721.996704
 31
0.0
  0
LINE
  5
2CF
100
AcDbEntity
  8
LAY-1
  6
CONTINUOUS
 62
     2
100
AcDbLine
 10
780.898718
 20
743.5
 30
0.0
 11
759.444638
 21
743.5
 31
0.0
  0
LINE
  5
2D0
100
AcDbEntity
  8
LAY-1
  6
CONTINUOUS
 62
     2
100
AcDbLine
 10
783.718098
 20
741.525229
 30
0.0
 11
790.81938
 21
721.996704
 31
0.0
  0
LINE
  5
2D1
100
AcDbEntity
  8
LAY-1
  6
CONTINUOUS
 62
     2
100
AcDbLine
 10
790.953077
 20
721.5
 30
0.0
 11
755.046923
 21
721.5
 31
0.0
  0
TEXT
  5
2D2
100
AcDbEntity
  8
LAY-1
  6
CONTINUOUS
 62
     3
100
AcDbText
 10
673.9
 20
750.7
 30
0.0
 40
9.6
  1
供給
 41
0.86625
  7
EXCADSTD
 72
     5
 11
692.04868
 21
750.7
 31
0.0
100
AcDbText
  0
LINE
  5
2D3
100
AcDbEntity
  8
LAY-1
  6
CONTINUOUS
 62
     2
100
AcDbLine
 10
777.7
 20
744.0
 30
0.0
 11
768.3
 21
744.0
 31
0.0
  0
ARC
  5
2D4
100
AcDbEntity
  8
LAY-1
  6
CONTINUOUS
 62
     2
100
AcDbCircle
 10
773.0
 20
739.4775
 30
0.0
 40
6.5225
100
AcDbArc
 50
43.897398
 51
136.102602
  0
LINE
  5
2D5
100
AcDbEntity
  8
LAY-1
  6
CONTINUOUS
 62
     2
100
AcDbLine
 10
768.3
 20
743.5
 30
0.0
 11
768.3
 21
744.0
 31
0.0
  0
LINE
  5
2D6
100
AcDbEntity
  8
LAY-1
  6
CONTINUOUS
 62
     2
100
AcDbLine
 10
777.7
 20
743.5
 30
0.0
 11
777.7
 21
744.0
 31
0.0
  0
LINE
  5
2D7
100
AcDbEntity
  8
LAY-1
  6
CONTINUOUS
 62
     2
100
AcDbLine
 10
791.0
 20
715.181631
 30
0.0
 11
791.0
 21
720.971475
 31
0.0
  0
LINE
  5
2D8
100
AcDbEntity
  8
LAY-1
  6
CONTINUOUS
 62
     2
100
AcDbLine
 10
755.0
 20
715.181631
 30
0.0
 11
755.0
 21
726.395826
 31
0.0
  0
LINE
  5
2D9
100
AcDbEntity
  8
LAY-1
  6
EXLTYPE3
 62
     1
100
AcDbLine
 10
948.0
 20
627.0
 30
0.0
 11
595.5
 21
627.0
 31
0.0
  0
LINE
  5
2DA
100
AcDbEntity
  8
LAY-1
  6
EXLTYPE3
 62
     1
100
AcDbLine
 10
719.4
 20
505.0
 30
0.0
 11
825.0
 21
505.0
 31
0.0
  0
LINE
  5
2DB
100
AcDbEntity
  8
LAY-1
  6
EXLTYPE3
 62
     1
100
AcDbLine
 10
773.0
 20
754.6
 30
0.0
 11
773.0
 21
430.0
 31
0.0
  0
LINE
  5
2DC
100
AcDbEntity
  8
LAY-1
  6
CONTINUOUS
 62
     1
100
AcDbLine
 10
757.818587
 20
482.672334
 30
0.0
 11
758.308347
 21
467.0
 31
0.0
  0
LINE
  5
2DD
100
AcDbEntity
  8
LAY-1
  6
CONTINUOUS
 62
     2
100
AcDbLine
 10
789.220596
 20
468.589198
 30
0.0
 11
787.691594
 21
466.998116
 31
0.0
  0
LINE
  5
2DE
100
AcDbEntity
  8
LAY-1
  6
CONTINUOUS
 62
     2
100
AcDbLine
 10
789.695778
 20
483.780881
 30
0.0
 11
789.221052
 21
468.589673
 31
0.0
  0
LINE
  5
2DF
100
AcDbEntity
  8
LAY-1
  6
CONTINUOUS
 62
     1
100
AcDbLine
 10
788.181413
 20
482.672334
 30
0.0
 11
787.691594
 21
466.998116
 31
0.0
  0
LINE
  5
2E0
100
AcDbEntity
  8
LAY-1
  6
CONTINUOUS
 62
     2
100
AcDbLine
 10
773.0
 20
467.0
 30
0.0
 11
787.691594
 21
466.998116
 31
0.0
  0
LINE
  5
2E1
100
AcDbEntity
  8
LAY-1
  6
CONTINUOUS
 62
     2
100
AcDbLine
 10
756.779405
 20
468.589191
 30
0.0
 11
758.308347
 21
467.0
 31
0.0
  0
LINE
  5
2E2
100
AcDbEntity
  8
LAY-1
  6
CONTINUOUS
 62
     2
100
AcDbLine
 10
773.0
 20
467.0
 30
0.0
 11
758.308347
 21
467.0
 31
0.0
  0
LINE
  5
2E3
100
AcDbEntity
  8
LAY-1
  6
CONTINUOUS
 62
     2
100
AcDbLine
 10
756.304222
 20
483.780881
 30
0.0
 11
756.778948
 21
468.589665
 31
0.0
  0
LINE
  5
2E4
100
AcDbEntity
  8
LAY-1
  6
CONTINUOUS
 62
     2
100
AcDbLine
 10
1316.524147
 20
537.5
 30
0.0
 11
1316.524147
 21
551.114163
 31
0.0
  0
LINE
  5
2E5
100
AcDbEntity
  8
LAY-1
  6
CONTINUOUS
 62
     2
100
AcDbLine
 10
1321.124147
 20
559.14967
 30
0.0
 11
1321.924147
 21
559.14967
 31
0.0
  0
LINE
  5
2E6
100
AcDbEntity
  8
LAY-1
  6
CONTINUOUS
 62
     2
100
AcDbLine
 10
1324.524147
 20
567.056343
 30
0.0
 11
1324.524147
 21
588.885325
 31
0.0
  0
LINE
  5
2E7
100
AcDbEntity
  8
LAY-1
  6
CONTINUOUS
 62
     2
100
AcDbLine
 10
1324.524147
 20
603.885325
 30
0.0
 11
1324.524147
 21
606.807026
 31
0.0
  0
LINE
  5
2E8
100
AcDbEntity
  8
LAY-1
  6
CONTINUOUS
 62
     2
100
AcDbLine
 10
1324.524147
 20
647.192974
 30
0.0
 11
1324.524147
 21
650.114675
 31
0.0
  0
LINE
  5
2E9
100
AcDbEntity
  8
LAY-1
  6
CONTINUOUS
 62
     2
100
AcDbLine
 10
1324.524147
 20
665.114675
 30
0.0
 11
1324.524147
 21
686.943657
 31
0.0
  0
LINE
  5
2EA
100
AcDbEntity
  8
LAY-1
  6
EXLTYPE3
 62
     1
100
AcDbLine
 10
1327.524147
 20
544.450853
 30
0.0
 11
1327.524147
 21
533.454271
 31
0.0
  0
LINE
  5
2EB
100
AcDbEntity
  8
LAY-1
  6
CONTINUOUS
 62
     2
100
AcDbLine
 10
1330.024147
 20
611.387505
 30
0.0
 11
1330.024147
 21
537.0
 31
0.0
  0
ARC
  5
2EC
100
AcDbEntity
  8
LAY-1
  6
CONTINUOUS
 62
     1
100
AcDbCircle
 10
1321.924147
 20
700.910363
 30
0.0
 40
5.75
100
AcDbArc
 50
90.0
 51
270.0
  0
LINE
  5
2ED
100
AcDbEntity
  8
LAY-1
  6
EXLTYPE3
 62
     1
100
AcDbLine
 10
1330.024147
 20
693.410363
 30
0.0
 11
1328.424147
 21
693.410363
 31
0.0
  0
LINE
  5
2EE
100
AcDbEntity
  8
LAY-1
  6
EXLTYPE3
 62
     1
100
AcDbLine
 10
1328.424147
 20
693.410363
 30
0.0
 11
1328.424147
 21
708.410363
 31
0.0
  0
LINE
  5
2EF
100
AcDbEntity
  8
LAY-1
  6
EXLTYPE3
 62
     1
100
AcDbLine
 10
1328.424147
 20
708.410363
 30
0.0
 11
1330.024147
 21
708.410363
 31
0.0
  0
LINE
  5
2F0
100
AcDbEntity
  8
LAY-1
  6
EXLTYPE3
 62
     1
100
AcDbLine
 10
1328.424147
 20
693.410363
 30
0.0
 11
1322.501497
 21
693.410363
 31
0.0
  0
LINE
  5
2F1
100
AcDbEntity
  8
LAY-1
  6
EXLTYPE3
 62
     1
100
AcDbLine
 10
1321.924147
 20
694.429622
 30
0.0
 11
1321.924147
 21
707.410363
 31
0.0
  0
LINE
  5
2F2
100
AcDbEntity
  8
LAY-1
  6
EXLTYPE3
 62
     1
100
AcDbLine
 10
1322.501497
 20
708.410363
 30
0.0
 11
1328.424147
 21
708.410363
 31
0.0
  0
ARC
  5
2F3
100
AcDbEntity
  8
LAY-1
  6
EXLTYPE3
 62
     1
100
AcDbCircle
 10
1334.409346
 20
700.910363
 30
0.0
 40
12.4852
100
AcDbArc
 50
162.507675
 51
197.492325
  0
LINE
  5
2F4
100
AcDbEntity
  8
LAY-1
  6
EXLTYPE3
 62
     1
100
AcDbLine
 10
1321.924147
 20
694.410363
 30
0.0
 11
1322.501497
 21
693.410363
 31
0.0
  0
LINE
  5
2F5
100
AcDbEntity
  8
LAY-1
  6
EXLTYPE3
 62
     1
100
AcDbLine
 10
1321.924147
 20
707.410363
 30
0.0
 11
1322.501497
 21
708.410363
 31
0.0
  0
ARC
  5
2F6
100
AcDbEntity
  8
LAY-1
  6
EXLTYPE3
 62
     1
100
AcDbCircle
 10
1325.221154
 20
706.526932
 30
0.0
 40
3.297008
100
AcDbArc
 50
145.296434
 51
214.423005
  0
LINE
  5
2F7
100
AcDbEntity
  8
LAY-1
  6
EXLTYPE3
 62
     1
100
AcDbLine
 10
1322.501497
 20
697.157586
 30
0.0
 11
1328.424147
 21
697.157586
 31
0.0
  0
ARC
  5
2F8
100
AcDbEntity
  8
LAY-1
  6
EXLTYPE3
 62
     1
100
AcDbCircle
 10
1325.252935
 20
695.283974
 30
0.0
 40
3.328788
100
AcDbArc
 50
145.746813
 51
214.253187
  0
LINE
  5
2F9
100
AcDbEntity
  8
LAY-1
  6
EXLTYPE3
 62
     1
100
AcDbLine
 10
1328.424147
 20
704.663139
 30
0.0
 11
1322.501497
 21
704.663139
 31
0.0
  0
ARC
  5
2FA
100
AcDbEntity
  8
LAY-1
  6
CONTINUOUS
 62
     1
100
AcDbCircle
 10
1321.924147
 20
657.614675
 30
0.0
 40
5.75
100
AcDbArc
 50
90.0
 51
270.0
  0
LINE
  5
2FB
100
AcDbEntity
  8
LAY-1
  6
EXLTYPE3
 62
     1
100
AcDbLine
 10
1330.024147
 20
650.114675
 30
0.0
 11
1328.424147
 21
650.114675
 31
0.0
  0
LINE
  5
2FC
100
AcDbEntity
  8
LAY-1
  6
EXLTYPE3
 62
     1
100
AcDbLine
 10
1328.424147
 20
650.114675
 30
0.0
 11
1328.424147
 21
665.114675
 31
0.0
  0
LINE
  5
2FD
100
AcDbEntity
  8
LAY-1
  6
EXLTYPE3
 62
     1
100
AcDbLine
 10
1328.424147
 20
665.114675
 30
0.0
 11
1330.024147
 21
665.114675
 31
0.0
  0
LINE
  5
2FE
100
AcDbEntity
  8
LAY-1
  6
EXLTYPE3
 62
     1
100
AcDbLine
 10
1328.424147
 20
650.114675
 30
0.0
 11
1322.501497
 21
650.114675
 31
0.0
  0
LINE
  5
2FF
100
AcDbEntity
  8
LAY-1
  6
EXLTYPE3
 62
     1
100
AcDbLine
 10
1321.924147
 20
651.133934
 30
0.0
 11
1321.924147
 21
664.114675
 31
0.0
  0
LINE
  5
300
100
AcDbEntity
  8
LAY-1
  6
EXLTYPE3
 62
     1
100
AcDbLine
 10
1322.501497
 20
665.114675
 30
0.0
 11
1328.424147
 21
665.114675
 31
0.0
  0
ARC
  5
301
100
AcDbEntity
  8
LAY-1
  6
EXLTYPE3
 62
     1
100
AcDbCircle
 10
1334.409346
 20
657.614675
 30
0.0
 40
12.4852
100
AcDbArc
 50
162.507675
 51
197.492325
  0
LINE
  5
302
100
AcDbEntity
  8
LAY-1
  6
EXLTYPE3
 62
     1
100
AcDbLine
 10
1321.924147
 20
651.114675
 30
0.0
 11
1322.501497
 21
650.114675
 31
0.0
  0
LINE
  5
303
100
AcDbEntity
  8
LAY-1
  6
EXLTYPE3
 62
     1
100
AcDbLine
 10
1321.924147
 20
664.114675
 30
0.0
 11
1322.501497
 21
665.114675
 31
0.0
  0
ARC
  5
304
100
AcDbEntity
  8
LAY-1
  6
EXLTYPE3
 62
     1
100
AcDbCircle
 10
1325.221154
 20
663.231244
 30
0.0
 40
3.297008
100
AcDbArc
 50
145.296434
 51
214.423005
  0
LINE
  5
305
100
AcDbEntity
  8
LAY-1
  6
EXLTYPE3
 62
     1
100
AcDbLine
 10
1322.501497
 20
653.861898
 30
0.0
 11
1328.424147
 21
653.861898
 31
0.0
  0
ARC
  5
306
100
AcDbEntity
  8
LAY-1
  6
EXLTYPE3
 62
     1
100
AcDbCircle
 10
1325.252935
 20
651.988286
 30
0.0
 40
3.328788
100
AcDbArc
 50
145.746813
 51
214.253187
  0
LINE
  5
307
100
AcDbEntity
  8
LAY-1
  6
EXLTYPE3
 62
     1
100
AcDbLine
 10
1328.424147
 20
661.367451
 30
0.0
 11
1322.501497
 21
661.367451
 31
0.0
  0
ARC
  5
308
100
AcDbEntity
  8
LAY-1
  6
CONTINUOUS
 62
     1
100
AcDbCircle
 10
1321.924147
 20
596.385325
 30
0.0
 40
5.75
100
AcDbArc
 50
90.0
 51
270.0
  0
LINE
  5
309
100
AcDbEntity
  8
LAY-1
  6
EXLTYPE3
 62
     1
100
AcDbLine
 10
1330.024147
 20
603.885325
 30
0.0
 11
1328.424147
 21
603.885325
 31
0.0
  0
LINE
  5
30A
100
AcDbEntity
  8
LAY-1
  6
EXLTYPE3
 62
     1
100
AcDbLine
 10
1328.424147
 20
603.885325
 30
0.0
 11
1328.424147
 21
588.885325
 31
0.0
  0
LINE
  5
30B
100
AcDbEntity
  8
LAY-1
  6
EXLTYPE3
 62
     1
100
AcDbLine
 10
1328.424147
 20
588.885325
 30
0.0
 11
1330.024147
 21
588.885325
 31
0.0
  0
LINE
  5
30C
100
AcDbEntity
  8
LAY-1
  6
EXLTYPE3
 62
     1
100
AcDbLine
 10
1328.424147
 20
603.885325
 30
0.0
 11
1322.501497
 21
603.885325
 31
0.0
  0
LINE
  5
30D
100
AcDbEntity
  8
LAY-1
  6
EXLTYPE3
 62
     1
100
AcDbLine
 10
1321.924147
 20
602.866066
 30
0.0
 11
1321.924147
 21
589.885325
 31
0.0
  0
LINE
  5
30E
100
AcDbEntity
  8
LAY-1
  6
EXLTYPE3
 62
     1
100
AcDbLine
 10
1322.501497
 20
588.885325
 30
0.0
 11
1328.424147
 21
588.885325
 31
0.0
  0
ARC
  5
30F
100
AcDbEntity
  8
LAY-1
  6
EXLTYPE3
 62
     1
100
AcDbCircle
 10
1334.409346
 20
596.385325
 30
0.0
 40
12.4852
100
AcDbArc
 50
162.507675
 51
197.492325
  0
LINE
  5
310
100
AcDbEntity
  8
LAY-1
  6
EXLTYPE3
 62
     1
100
AcDbLine
 10
1321.924147
 20
602.885325
 30
0.0
 11
1322.501497
 21
603.885325
 31
0.0
  0
LINE
  5
311
100
AcDbEntity
  8
LAY-1
  6
EXLTYPE3
 62
     1
100
AcDbLine
 10
1321.924147
 20
589.885325
 30
0.0
 11
1322.501497
 21
588.885325
 31
0.0
  0
ARC
  5
312
100
AcDbEntity
  8
LAY-1
  6
EXLTYPE3
 62
     1
100
AcDbCircle
 10
1325.221154
 20
590.768756
 30
0.0
 40
3.297008
100
AcDbArc
 50
145.576995
 51
214.703566
  0
LINE
  5
313
100
AcDbEntity
  8
LAY-1
  6
EXLTYPE3
 62
     1
100
AcDbLine
 10
1322.501497
 20
600.138102
 30
0.0
 11
1328.424147
 21
600.138102
 31
0.0
  0
ARC
  5
314
100
AcDbEntity
  8
LAY-1
  6
EXLTYPE3
 62
     1
100
AcDbCircle
 10
1325.252935
 20
602.011714
 30
0.0
 40
3.328788
100
AcDbArc
 50
145.746813
 51
214.253187
  0
LINE
  5
315
100
AcDbEntity
  8
LAY-1
  6
EXLTYPE3
 62
     1
100
AcDbLine
 10
1328.424147
 20
592.632549
 30
0.0
 11
1322.501497
 21
592.632549
 31
0.0
  0
LINE
  5
316
100
AcDbEntity
  8
LAY-1
  6
EXLTYPE3
 62
     1
100
AcDbLine
 10
1328.424147
 20
549.336861
 30
0.0
 11
1322.501497
 21
549.336861
 31
0.0
  0
ARC
  5
317
100
AcDbEntity
  8
LAY-1
  6
EXLTYPE3
 62
     1
100
AcDbCircle
 10
1325.252935
 20
558.716026
 30
0.0
 40
3.328788
100
AcDbArc
 50
145.746813
 51
214.253187
  0
LINE
  5
318
100
AcDbEntity
  8
LAY-1
  6
EXLTYPE3
 62
     1
100
AcDbLine
 10
1322.501497
 20
556.842414
 30
0.0
 11
1328.424147
 21
556.842414
 31
0.0
  0
ARC
  5
319
100
AcDbEntity
  8
LAY-1
  6
EXLTYPE3
 62
     1
100
AcDbCircle
 10
1325.221154
 20
547.473068
 30
0.0
 40
3.297008
100
AcDbArc
 50
145.576995
 51
214.703566
  0
LINE
  5
31A
100
AcDbEntity
  8
LAY-1
  6
EXLTYPE3
 62
     1
100
AcDbLine
 10
1321.924147
 20
546.589637
 30
0.0
 11
1322.501497
 21
545.589637
 31
0.0
  0
LINE
  5
31B
100
AcDbEntity
  8
LAY-1
  6
EXLTYPE3
 62
     1
100
AcDbLine
 10
1321.924147
 20
559.589637
 30
0.0
 11
1322.501497
 21
560.589637
 31
0.0
  0
ARC
  5
31C
100
AcDbEntity
  8
LAY-1
  6
EXLTYPE3
 62
     1
100
AcDbCircle
 10
1334.409346
 20
553.089637
 30
0.0
 40
12.4852
100
AcDbArc
 50
162.507675
 51
197.492325
  0
LINE
  5
31D
100
AcDbEntity
  8
LAY-1
  6
EXLTYPE3
 62
     1
100
AcDbLine
 10
1322.501497
 20
545.589637
 30
0.0
 11
1328.424147
 21
545.589637
 31
0.0
  0
LINE
  5
31E
100
AcDbEntity
  8
LAY-1
  6
EXLTYPE3
 62
     1
100
AcDbLine
 10
1321.924147
 20
559.570378
 30
0.0
 11
1321.924147
 21
546.589637
 31
0.0
  0
LINE
  5
31F
100
AcDbEntity
  8
LAY-1
  6
EXLTYPE3
 62
     1
100
AcDbLine
 10
1328.424147
 20
560.589637
 30
0.0
 11
1322.501497
 21
560.589637
 31
0.0
  0
LINE
  5
320
100
AcDbEntity
  8
LAY-1
  6
EXLTYPE3
 62
     1
100
AcDbLine
 10
1328.424147
 20
545.589637
 30
0.0
 11
1330.024147
 21
545.589637
 31
0.0
  0
LINE
  5
321
100
AcDbEntity
  8
LAY-1
  6
EXLTYPE3
 62
     1
100
AcDbLine
 10
1328.424147
 20
560.589637
 30
0.0
 11
1328.424147
 21
545.589637
 31
0.0
  0
LINE
  5
322
100
AcDbEntity
  8
LAY-1
  6
EXLTYPE3
 62
     1
100
AcDbLine
 10
1330.024147
 20
560.589637
 30
0.0
 11
1328.424147
 21
560.589637
 31
0.0
  0
ARC
  5
323
100
AcDbEntity
  8
LAY-1
  6
CONTINUOUS
 62
     1
100
AcDbCircle
 10
1321.924147
 20
553.089637
 30
0.0
 40
5.75
100
AcDbArc
 50
90.0
 51
270.0
  0
LINE
  5
324
100
AcDbEntity
  8
LAY-1
  6
CONTINUOUS
 62
     1
100
AcDbLine
 10
1392.270474
 20
466.998108
 30
0.0
 11
1392.899058
 21
487.0
 31
0.0
  0
LINE
  5
325
100
AcDbEntity
  8
LAY-1
  6
CONTINUOUS
 62
     1
100
AcDbLine
 10
1394.463197
 20
489.709168
 30
0.0
 11
1392.899058
 21
487.0
 31
0.0
  0
LINE
  5
326
100
AcDbEntity
  8
LAY-1
  6
CONTINUOUS
 62
     1
100
AcDbLine
 10
1362.77776
 20
467.0
 30
0.0
 11
1362.149235
 21
487.0
 31
0.0
  0
LINE
  5
327
100
AcDbEntity
  8
LAY-1
  6
CONTINUOUS
 62
     1
100
AcDbLine
 10
1360.585096
 20
489.709168
 30
0.0
 11
1362.149235
 21
487.0
 31
0.0
  0
LINE
  5
328
100
AcDbEntity
  8
LAY-1
  6
EXLTYPE3
 62
     1
100
AcDbLine
 10
1377.524147
 20
772.0
 30
0.0
 11
1377.524147
 21
459.634685
 31
0.0
  0
ELLIPSE
  5
329
100
AcDbEntity
  8
LAY-1
  6
CONTINUOUS
 62
     2
100
AcDbEllipse
 10
1318.998099
 20
627.0
 30
0.0
 11
0.0000000000000012
 21
19.999999999999993
 31
0.0
210
0.0
220
0.0
230
1.0
 40
0.255846
 41
0.0
 42
6.2831853071796004
  0
ELLIPSE
  5
32A
100
AcDbEntity
  8
LAY-1
  6
CONTINUOUS
 62
     2
100
AcDbEllipse
 10
1320.561605
 20
627.0
 30
0.0
 11
-0.0000000000000033
 21
-18.0
 31
0.0
210
0.0
220
0.0
230
1.0
 40
0.286976
 41
3.5245875156205817
 42
5.9001902788203102
  0
ELLIPSE
  5
32B
100
AcDbEntity
  8
LAY-1
  6
CONTINUOUS
 62
     2
100
AcDbEllipse
 10
1318.998099
 20
627.0
 30
0.0
 11
-0.0000000000000031
 21
-16.749999999999996
 31
0.0
210
0.0
220
0.0
230
1.0
 40
0.272716
 41
0.0
 42
6.2831853071796004
  0
LINE
  5
32C
100
AcDbEntity
  8
LAY-1
  6
CONTINUOUS
 62
     2
100
AcDbLine
 10
1318.998099
 20
647.0
 30
0.0
 11
1329.229853
 21
647.357301
 31
0.0
  0
LINE
  5
32D
100
AcDbEntity
  8
LAY-1
  6
CONTINUOUS
 62
     2
100
AcDbLine
 10
1318.998099
 20
607.0
 30
0.0
 11
1329.229853
 21
606.642699
 31
0.0
  0
LINE
  5
32E
100
AcDbEntity
  8
LAY-1
  6
CONTINUOUS
 62
     2
100
AcDbLine
 10
1188.824147
 20
607.465689
 30
0.0
 11
1188.824147
 21
646.534311
 31
0.0
  0
LINE
  5
32F
100
AcDbEntity
  8
LAY-1
  6
CONTINUOUS
 62
     2
100
AcDbLine
 10
1342.224147
 20
537.0
 30
0.0
 11
1342.224147
 21
591.589408
 31
0.0
  0
LINE
  5
330
100
AcDbEntity
  8
LAY-1
  6
CONTINUOUS
 62
     2
100
AcDbLine
 10
1342.524147
 20
551.5
 30
0.0
 11
1342.524147
 21
591.292858
 31
0.0
  0
LINE
  5
331
100
AcDbEntity
  8
LAY-1
  6
CONTINUOUS
 62
     2
100
AcDbLine
 10
1330.024147
 20
716.0
 30
0.0
 11
1330.024147
 21
642.612495
 31
0.0
  0
LINE
  5
332
100
AcDbEntity
  8
LAY-1
  6
CONTINUOUS
 62
     2
100
AcDbLine
 10
1342.224147
 20
662.410592
 30
0.0
 11
1342.224147
 21
717.0
 31
0.0
  0
LINE
  5
333
100
AcDbEntity
  8
LAY-1
  6
CONTINUOUS
 62
     2
100
AcDbLine
 10
1342.524147
 20
702.5
 30
0.0
 11
1342.524147
 21
662.707142
 31
0.0
  0
LINE
  5
334
100
AcDbEntity
  8
LAY-1
  6
CONTINUOUS
 62
     2
100
AcDbLine
 10
1200.169594
 20
588.250926
 30
0.0
 11
1316.811872
 21
584.053098
 31
0.0
  0
ARC
  5
335
100
AcDbEntity
  8
LAY-1
  6
CONTINUOUS
 62
     2
100
AcDbCircle
 10
1316.524147
 20
576.058273
 30
0.0
 40
8.0
100
AcDbArc
 50
0.0
 51
87.938877
  0
ARC
  5
336
100
AcDbEntity
  8
LAY-1
  6
CONTINUOUS
 62
     2
100
AcDbCircle
 10
1328.024147
 20
562.056343
 30
0.0
 40
2.0
100
AcDbArc
 50
0.0
 51
90.0
  0
LINE
  5
337
100
AcDbEntity
  8
LAY-1
  6
CONTINUOUS
 62
     2
100
AcDbLine
 10
1327.524147
 20
564.056343
 30
0.0
 11
1328.024147
 21
564.056343
 31
0.0
  0
ARC
  5
338
100
AcDbEntity
  8
LAY-1
  6
CONTINUOUS
 62
     2
100
AcDbCircle
 10
1327.524147
 20
567.056343
 30
0.0
 40
3.0
100
AcDbArc
 50
180.0
 51
270.0
  0
LINE
  5
339
100
AcDbEntity
  8
LAY-1
  6
CONTINUOUS
 62
     2
100
AcDbLine
 10
1189.176238
 20
605.042879
 30
0.0
 11
1190.681172
 21
596.507974
 31
0.0
  0
ARC
  5
33A
100
AcDbEntity
  8
LAY-1
  6
CONTINUOUS
 62
     2
100
AcDbCircle
 10
1200.52925
 20
598.244456
 30
0.0
 40
10.0
100
AcDbArc
 50
190.0
 51
267.938877
  0
ARC
  5
33B
100
AcDbEntity
  8
LAY-1
  6
CONTINUOUS
 62
     2
100
AcDbCircle
 10
1200.52925
 20
655.755544
 30
0.0
 40
10.0
100
AcDbArc
 50
92.061123
 51
170.0
  0
LINE
  5
33C
100
AcDbEntity
  8
LAY-1
  6
CONTINUOUS
 62
     2
100
AcDbLine
 10
1200.169594
 20
665.749074
 30
0.0
 11
1316.811872
 21
669.946902
 31
0.0
  0
LINE
  5
33D
100
AcDbEntity
  8
LAY-1
  6
CONTINUOUS
 62
     2
100
AcDbLine
 10
1189.264948
 20
649.460219
 30
0.0
 11
1190.681172
 21
657.492026
 31
0.0
  0
ARC
  5
33E
100
AcDbEntity
  8
LAY-1
  6
CONTINUOUS
 62
     2
100
AcDbCircle
 10
1316.524147
 20
677.941727
 30
0.0
 40
8.0
100
AcDbArc
 50
272.061123
 51
0.0
  0
LINE
  5
33F
100
AcDbEntity
  8
LAY-1
  6
CONTINUOUS
 62
     2
100
AcDbLine
 10
1179.489247
 20
606.466298
 30
0.0
 11
1187.365131
 21
606.191266
 31
0.0
  0
ARC
  5
340
100
AcDbEntity
  8
LAY-1
  6
CONTINUOUS
 62
     2
100
AcDbCircle
 10
1187.295332
 20
604.192484
 30
0.0
 40
2.0
100
AcDbArc
 50
10.0
 51
88.0
  0
ARC
  5
341
100
AcDbEntity
  8
LAY-1
  6
CONTINUOUS
 62
     2
100
AcDbCircle
 10
1187.295332
 20
649.807516
 30
0.0
 40
2.0
100
AcDbArc
 50
272.0
 51
350.0
  0
LINE
  5
342
100
AcDbEntity
  8
LAY-1
  6
CONTINUOUS
 62
     2
100
AcDbLine
 10
1179.489247
 20
647.533702
 30
0.0
 11
1187.365131
 21
647.808734
 31
0.0
  0
LINE
  5
343
100
AcDbEntity
  8
LAY-1
  6
CONTINUOUS
 62
     2
100
AcDbLine
 10
1178.524147
 20
627.0
 30
0.0
 11
1178.524147
 21
607.465689
 31
0.0
  0
LINE
  5
344
100
AcDbEntity
  8
LAY-1
  6
CONTINUOUS
 62
     2
100
AcDbLine
 10
1178.524147
 20
627.0
 30
0.0
 11
1178.524147
 21
646.534311
 31
0.0
  0
ARC
  5
345
100
AcDbEntity
  8
LAY-1
  6
CONTINUOUS
 62
     2
100
AcDbCircle
 10
1179.524147
 20
607.465689
 30
0.0
 40
1.0
100
AcDbArc
 50
180.0
 51
268.0
  0
ARC
  5
346
100
AcDbEntity
  8
LAY-1
  6
CONTINUOUS
 62
     2
100
AcDbCircle
 10
1179.524147
 20
646.534311
 30
0.0
 40
1.0
100
AcDbArc
 50
92.0
 51
180.0
  0
ARC
  5
347
100
AcDbEntity
  8
LAY-1
  6
CONTINUOUS
 62
     2
100
AcDbCircle
 10
1328.024147
 20
691.943657
 30
0.0
 40
2.0
100
AcDbArc
 50
270.0
 51
0.0
  0
LINE
  5
348
100
AcDbEntity
  8
LAY-1
  6
CONTINUOUS
 62
     2
100
AcDbLine
 10
1327.524147
 20
689.943657
 30
0.0
 11
1328.024147
 21
689.943657
 31
0.0
  0
ARC
  5
349
100
AcDbEntity
  8
LAY-1
  6
CONTINUOUS
 62
     2
100
AcDbCircle
 10
1327.524147
 20
686.943657
 30
0.0
 40
3.0
100
AcDbArc
 50
90.0
 51
180.0
  0
ARC
  5
34A
100
AcDbEntity
  8
LAY-1
  6
CONTINUOUS
 62
     2
100
AcDbCircle
 10
1331.024147
 20
716.0
 30
0.0
 40
1.0
100
AcDbArc
 50
90.0
 51
180.0
  0
LINE
  5
34B
100
AcDbEntity
  8
LAY-1
  6
CONTINUOUS
 62
     2
100
AcDbLine
 10
1342.224147
 20
717.0
 30
0.0
 11
1331.024147
 21
717.0
 31
0.0
  0
LINE
  5
34C
100
AcDbEntity
  8
LAY-1
  6
CONTINUOUS
 62
     2
100
AcDbLine
 10
1342.524147
 20
702.5
 30
0.0
 11
1342.224147
 21
702.5
 31
0.0
  0
LINE
  5
34D
100
AcDbEntity
  8
LAY-1
  6
CONTINUOUS
 62
     2
100
AcDbLine
 10
1342.524147
 20
551.5
 30
0.0
 11
1342.224147
 21
551.5
 31
0.0
  0
CIRCLE
  5
34E
100
AcDbEntity
  8
LAY-1
  6
CONTINUOUS
 62
     2
100
AcDbCircle
 10
1377.524147
 20
627.0
 30
0.0
 40
13.6
  0
CIRCLE
  5
34F
100
AcDbEntity
  8
LAY-1
  6
CONTINUOUS
 62
     2
100
AcDbCircle
 10
1404.040651
 20
600.483496
 30
0.0
 40
7.5
  0
CIRCLE
  5
350
100
AcDbEntity
  8
LAY-1
  6
CONTINUOUS
 62
     2
100
AcDbCircle
 10
1351.007642
 20
600.483496
 30
0.0
 40
7.5
  0
CIRCLE
  5
351
100
AcDbEntity
  8
LAY-1
  6
CONTINUOUS
 62
     2
100
AcDbCircle
 10
1351.007642
 20
653.516504
 30
0.0
 40
7.5
  0
CIRCLE
  5
352
100
AcDbEntity
  8
LAY-1
  6
CONTINUOUS
 62
     2
100
AcDbCircle
 10
1404.040651
 20
653.516504
 30
0.0
 40
7.5
  0
CIRCLE
  5
353
100
AcDbEntity
  8
LAY-1
  6
CONTINUOUS
 62
     2
100
AcDbCircle
 10
1377.524147
 20
627.0
 30
0.0
 40
50.0
  0
CIRCLE
  5
354
100
AcDbEntity
  8
LAY-1
  6
CONTINUOUS
 62
     2
100
AcDbCircle
 10
1377.524147
 20
627.0
 30
0.0
 40
29.0
  0
LINE
  5
355
100
AcDbEntity
  8
LAY-1
  6
EXLTYPE3
 62
     1
100
AcDbLine
 10
1136.324147
 20
627.0
 30
0.0
 11
1441.224147
 21
627.0
 31
0.0
  0
LINE
  5
356
100
AcDbEntity
  8
LAY-1
  6
CONTINUOUS
 62
     2
100
AcDbLine
 10
1324.524147
 20
568.5
 30
0.0
 11
1317.524147
 21
568.5
 31
0.0
  0
LINE
  5
357
100
AcDbEntity
  8
LAY-1
  6
CONTINUOUS
 62
     2
100
AcDbLine
 10
1316.524147
 20
569.5
 30
0.0
 11
1316.524147
 21
584.063453
 31
0.0
  0
ARC
  5
358
100
AcDbEntity
  8
LAY-1
  6
CONTINUOUS
 62
     2
100
AcDbCircle
 10
1354.024147
 20
539.0
 30
0.0
 40
2.0
100
AcDbArc
 50
270.0
 51
0.0
  0
LINE
  5
359
100
AcDbEntity
  8
LAY-1
  6
CONTINUOUS
 62
     2
100
AcDbLine
 10
1356.024147
 20
581.858556
 30
0.0
 11
1356.024147
 21
539.0
 31
0.0
  0
LINE
  5
35A
100
AcDbEntity
  8
LAY-1
  6
CONTINUOUS
 62
     2
100
AcDbLine
 10
1356.024147
 20
672.141444
 30
0.0
 11
1356.024147
 21
715.0
 31
0.0
  0
LINE
  5
35B
100
AcDbEntity
  8
LAY-1
  6
CONTINUOUS
 62
     2
100
AcDbLine
 10
1390.225852
 20
711.0
 30
0.0
 11
1390.225852
 21
712.0
 31
0.0
  0
LINE
  5
35C
100
AcDbEntity
  8
LAY-1
  6
CONTINUOUS
 62
     2
100
AcDbLine
 10
1395.524147
 20
712.0
 30
0.0
 11
1359.524147
 21
712.0
 31
0.0
  0
LINE
  5
35D
100
AcDbEntity
  8
LAY-1
  6
CONTINUOUS
 62
     2
100
AcDbLine
 10
1390.225852
 20
711.0
 30
0.0
 11
1364.822441
 21
711.0
 31
0.0
  0
LINE
  5
35E
100
AcDbEntity
  8
LAY-1
  6
CONTINUOUS
 62
     2
100
AcDbLine
 10
1390.225852
 20
711.0
 30
0.0
 11
1390.225852
 21
712.0
 31
0.0
  0
LINE
  5
35F
100
AcDbEntity
  8
LAY-1
  6
CONTINUOUS
 62
     2
100
AcDbLine
 10
1154.524147
 20
638.0
 30
0.0
 11
1154.524147
 21
616.0
 31
0.0
  0
LINE
  5
360
100
AcDbEntity
  8
LAY-1
  6
CONTINUOUS
 62
     2
100
AcDbLine
 10
1145.524147
 20
616.0
 30
0.0
 11
1145.524147
 21
638.0
 31
0.0
  0
LINE
  5
361
100
AcDbEntity
  8
LAY-1
  6
CONTINUOUS
 62
     2
100
AcDbLine
 10
1146.266991
 20
639.7
 30
0.0
 11
1153.805095
 21
639.7
 31
0.0
  0
LINE
  5
362
100
AcDbEntity
  8
LAY-1
  6
CONTINUOUS
 62
     2
100
AcDbLine
 10
1153.781302
 20
614.3
 30
0.0
 11
1146.243198
 21
614.3
 31
0.0
  0
LINE
  5
363
100
AcDbEntity
  8
LAY-1
  6
CONTINUOUS
 62
     2
100
AcDbLine
 10
1154.524147
 20
620.0
 30
0.0
 11
1167.524147
 21
620.0
 31
0.0
  0
LINE
  5
364
100
AcDbEntity
  8
LAY-1
  6
CONTINUOUS
 62
     2
100
AcDbLine
 10
1157.524147
 20
620.0
 30
0.0
 11
1157.524147
 21
634.0
 31
0.0
  0
LINE
  5
365
100
AcDbEntity
  8
LAY-1
  6
CONTINUOUS
 62
     1
100
AcDbLine
 10
1157.524147
 20
621.0
 30
0.0
 11
1167.524147
 21
621.0
 31
0.0
  0
LINE
  5
366
100
AcDbEntity
  8
LAY-1
  6
CONTINUOUS
 62
     1
100
AcDbLine
 10
1157.524147
 20
633.0
 30
0.0
 11
1167.524147
 21
633.0
 31
0.0
  0
ARC
  5
367
100
AcDbEntity
  8
LAY-1
  6
CONTINUOUS
 62
     2
100
AcDbCircle
 10
1173.524147
 20
627.0
 30
0.0
 40
28.0
100
AcDbArc
 50
166.892093
 51
193.107907
  0
LINE
  5
368
100
AcDbEntity
  8
LAY-1
  6
CONTINUOUS
 62
     1
100
AcDbLine
 10
1157.524147
 20
633.0
 30
0.0
 11
1155.792096
 21
634.0
 31
0.0
  0
ARC
  5
369
100
AcDbEntity
  8
LAY-1
  6
CONTINUOUS
 62
     2
100
AcDbCircle
 10
1152.797727
 20
636.525
 30
0.0
 40
7.273581
100
AcDbArc
 50
153.879595
 51
205.881497
  0
LINE
  5
36A
100
AcDbEntity
  8
LAY-1
  6
CONTINUOUS
 62
     1
100
AcDbLine
 10
1155.792096
 20
620.0
 30
0.0
 11
1157.524147
 21
621.0
 31
0.0
  0
LINE
  5
36B
100
AcDbEntity
  8
LAY-1
  6
CONTINUOUS
 62
     2
100
AcDbLine
 10
1145.524147
 20
638.0
 30
0.0
 11
1146.253696
 21
639.724819
 31
0.0
  0
LINE
  5
36C
100
AcDbEntity
  8
LAY-1
  6
CONTINUOUS
 62
     2
100
AcDbLine
 10
1145.524147
 20
616.0
 30
0.0
 11
1146.253696
 21
614.275181
 31
0.0
  0
ARC
  5
36D
100
AcDbEntity
  8
LAY-1
  6
CONTINUOUS
 62
     2
100
AcDbCircle
 10
1152.797727
 20
617.475
 30
0.0
 40
7.273581
100
AcDbArc
 50
154.118503
 51
206.120405
  0
LINE
  5
36E
100
AcDbEntity
  8
LAY-1
  6
CONTINUOUS
 62
     2
100
AcDbLine
 10
1146.253696
 20
633.35
 30
0.0
 11
1153.794598
 21
633.35
 31
0.0
  0
LINE
  5
36F
100
AcDbEntity
  8
LAY-1
  6
CONTINUOUS
 62
     2
100
AcDbLine
 10
1146.253696
 20
620.65
 30
0.0
 11
1153.794598
 21
620.65
 31
0.0
  0
LINE
  5
370
100
AcDbEntity
  8
LAY-1
  6
CONTINUOUS
 62
     2
100
AcDbLine
 10
1154.524147
 20
616.0
 30
0.0
 11
1154.524147
 21
638.0
 31
0.0
  0
ARC
  5
371
100
AcDbEntity
  8
LAY-1
  6
CONTINUOUS
 62
     2
100
AcDbCircle
 10
1126.524147
 20
627.0
 30
0.0
 40
28.0
100
AcDbArc
 50
346.892093
 51
13.107907
  0
ARC
  5
372
100
AcDbEntity
  8
LAY-1
  6
CONTINUOUS
 62
     2
100
AcDbCircle
 10
1147.250566
 20
636.525
 30
0.0
 40
7.273581
100
AcDbArc
 50
334.118503
 51
26.120405
  0
LINE
  5
373
100
AcDbEntity
  8
LAY-1
  6
CONTINUOUS
 62
     2
100
AcDbLine
 10
1154.524147
 20
638.0
 30
0.0
 11
1153.794598
 21
639.724819
 31
0.0
  0
LINE
  5
374
100
AcDbEntity
  8
LAY-1
  6
CONTINUOUS
 62
     2
100
AcDbLine
 10
1154.524147
 20
616.0
 30
0.0
 11
1153.794598
 21
614.275181
 31
0.0
  0
ARC
  5
375
100
AcDbEntity
  8
LAY-1
  6
CONTINUOUS
 62
     2
100
AcDbCircle
 10
1147.250566
 20
617.475
 30
0.0
 40
7.273581
100
AcDbArc
 50
333.879595
 51
25.881497
  0
LINE
  5
376
100
AcDbEntity
  8
LAY-1
  6
CONTINUOUS
 62
     2
100
AcDbLine
 10
1178.524147
 20
614.316309
 30
0.0
 11
1168.794317
 21
614.316309
 31
0.0
  0
LINE
  5
377
100
AcDbEntity
  8
LAY-1
  6
CONTINUOUS
 62
     2
100
AcDbLine
 10
1167.524147
 20
616.516309
 30
0.0
 11
1167.524147
 21
637.516309
 31
0.0
  0
LINE
  5
378
100
AcDbEntity
  8
LAY-1
  6
CONTINUOUS
 62
     2
100
AcDbLine
 10
1168.794317
 20
639.716309
 30
0.0
 11
1178.524147
 21
639.716309
 31
0.0
  0
LINE
  5
379
100
AcDbEntity
  8
LAY-1
  6
CONTINUOUS
 62
     2
100
AcDbLine
 10
1167.524147
 20
634.0
 30
0.0
 11
1154.524147
 21
634.0
 31
0.0
  0
LINE
  5
37A
100
AcDbEntity
  8
LAY-1
  6
CONTINUOUS
 62
     2
100
AcDbLine
 10
1168.794317
 20
620.665456
 30
0.0
 11
1178.524147
 21
620.665456
 31
0.0
  0
ARC
  5
37B
100
AcDbEntity
  8
LAY-1
  6
CONTINUOUS
 62
     2
100
AcDbCircle
 10
1184.036364
 20
627.016309
 30
0.0
 40
16.512218
100
AcDbArc
 50
157.380135
 51
202.619865
  0
LINE
  5
37C
100
AcDbEntity
  8
LAY-1
  6
CONTINUOUS
 62
     2
100
AcDbLine
 10
1167.524147
 20
637.516309
 30
0.0
 11
1168.794317
 21
639.716309
 31
0.0
  0
LINE
  5
37D
100
AcDbEntity
  8
LAY-1
  6
CONTINUOUS
 62
     2
100
AcDbLine
 10
1168.794317
 20
633.367162
 30
0.0
 11
1178.524147
 21
633.367162
 31
0.0
  0
LINE
  5
37E
100
AcDbEntity
  8
LAY-1
  6
CONTINUOUS
 62
     2
100
AcDbLine
 10
1167.524147
 20
616.516309
 30
0.0
 11
1168.794317
 21
614.316309
 31
0.0
  0
ARC
  5
37F
100
AcDbEntity
  8
LAY-1
  6
CONTINUOUS
 62
     2
100
AcDbCircle
 10
1174.944856
 20
616.516309
 30
0.0
 40
7.419201
100
AcDbArc
 50
145.996439
 51
180.0
  0
ARC
  5
380
100
AcDbEntity
  8
LAY-1
  6
CONTINUOUS
 62
     2
100
AcDbCircle
 10
1174.944856
 20
637.516309
 30
0.0
 40
7.419201
100
AcDbArc
 50
180.0
 51
214.003561
  0
LINE
  5
381
100
AcDbEntity
  8
LAY-1
  6
CONTINUOUS
 62
     2
100
AcDbLine
 10
1407.524147
 20
537.0
 30
0.0
 11
1317.024147
 21
537.0
 31
0.0
  0
LINE
  5
382
100
AcDbEntity
  8
LAY-1
  6
CONTINUOUS
 62
     2
100
AcDbLine
 10
1407.524147
 20
493.5
 30
0.0
 11
1347.524147
 21
493.5
 31
0.0
  0
LINE
  5
383
100
AcDbEntity
  8
LAY-1
  6
CONTINUOUS
 62
     2
100
AcDbLine
 10
1421.524147
 20
498.0
 30
0.0
 11
1421.524147
 21
512.0
 31
0.0
  0
ARC
  5
384
100
AcDbEntity
  8
LAY-1
  6
CONTINUOUS
 62
     2
100
AcDbCircle
 10
1347.524147
 20
495.5
 30
0.0
 40
2.0
100
AcDbArc
 50
180.0
 51
270.0
  0
ARC
  5
385
100
AcDbEntity
  8
LAY-1
  6
CONTINUOUS
 62
     2
100
AcDbCircle
 10
1356.524147
 20
489.5
 30
0.0
 40
4.0
100
AcDbArc
 50
0.0
 51
90.0
  0
ARC
  5
386
100
AcDbEntity
  8
LAY-1
  6
CONTINUOUS
 62
     2
100
AcDbCircle
 10
1398.524147
 20
489.5
 30
0.0
 40
4.0
100
AcDbArc
 50
90.0
 51
180.0
  0
ARC
  5
387
100
AcDbEntity
  8
LAY-1
  6
CONTINUOUS
 62
     2
100
AcDbCircle
 10
1407.524147
 20
495.5
 30
0.0
 40
2.0
100
AcDbArc
 50
270.0
 51
0.0
  0
LINE
  5
388
100
AcDbEntity
  8
LAY-1
  6
CONTINUOUS
 62
     2
100
AcDbLine
 10
1359.524147
 20
720.971475
 30
0.0
 11
1395.524147
 21
720.971475
 31
0.0
  0
LINE
  5
389
100
AcDbEntity
  8
LAY-1
  6
CONTINUOUS
 62
     2
100
AcDbLine
 10
1345.524147
 20
525.0
 30
0.0
 11
1409.524147
 21
525.0
 31
0.0
  0
LINE
  5
38A
100
AcDbEntity
  8
LAY-1
  6
CONTINUOUS
 62
     2
100
AcDbLine
 10
1364.822441
 20
711.0
 30
0.0
 11
1364.822441
 21
712.0
 31
0.0
  0
LINE
  5
38B
100
AcDbEntity
  8
LAY-1
  6
CONTINUOUS
 62
     2
100
AcDbLine
 10
1345.524147
 20
498.387125
 30
0.0
 11
1341.524147
 21
498.262125
 31
0.0
  0
LINE
  5
38C
100
AcDbEntity
  8
LAY-1
  6
CONTINUOUS
 62
     2
100
AcDbLine
 10
1345.524147
 20
511.612875
 30
0.0
 11
1341.524147
 21
511.737875
 31
0.0
  0
LINE
  5
38D
100
AcDbEntity
  8
LAY-1
  6
CONTINUOUS
 62
     2
100
AcDbLine
 10
1409.524147
 20
498.387125
 30
0.0
 11
1413.524147
 21
498.262125
 31
0.0
  0
LINE
  5
38E
100
AcDbEntity
  8
LAY-1
  6
CONTINUOUS
 62
     2
100
AcDbLine
 10
1409.524147
 20
511.612875
 30
0.0
 11
1413.524147
 21
511.737875
 31
0.0
  0
LINE
  5
38F
100
AcDbEntity
  8
LAY-1
  6
CONTINUOUS
 62
     2
100
AcDbLine
 10
1345.524147
 20
495.5
 30
0.0
 11
1345.524147
 21
525.0
 31
0.0
  0
LINE
  5
390
100
AcDbEntity
  8
LAY-1
  6
CONTINUOUS
 62
     2
100
AcDbLine
 10
1409.524147
 20
495.5
 30
0.0
 11
1409.524147
 21
525.0
 31
0.0
  0
LINE
  5
391
100
AcDbEntity
  8
LAY-1
  6
EXLTYPE3
 62
     1
100
AcDbLine
 10
1302.825279
 20
505.0
 30
0.0
 11
1429.067234
 21
505.0
 31
0.0
  0
LINE
  5
392
100
AcDbEntity
  8
LAY-1
  6
CONTINUOUS
 62
     2
100
AcDbLine
 10
1413.524147
 20
498.0
 30
0.0
 11
1413.524147
 21
512.0
 31
0.0
  0
LINE
  5
393
100
AcDbEntity
  8
LAY-1
  6
CONTINUOUS
 62
     2
100
AcDbLine
 10
1421.524147
 20
498.0
 30
0.0
 11
1413.524147
 21
498.0
 31
0.0
  0
LINE
  5
394
100
AcDbEntity
  8
LAY-1
  6
CONTINUOUS
 62
     2
100
AcDbLine
 10
1413.524147
 20
512.0
 30
0.0
 11
1421.524147
 21
512.0
 31
0.0
  0
LINE
  5
395
100
AcDbEntity
  8
LAY-1
  6
CONTINUOUS
 62
     2
100
AcDbLine
 10
1341.524147
 20
498.0
 30
0.0
 11
1341.524147
 21
512.0
 31
0.0
  0
LINE
  5
396
100
AcDbEntity
  8
LAY-1
  6
CONTINUOUS
 62
     2
100
AcDbLine
 10
1394.324583
 20
487.0
 30
0.0
 11
1392.899058
 21
487.0
 31
0.0
  0
LINE
  5
397
100
AcDbEntity
  8
LAY-1
  6
CONTINUOUS
 62
     2
100
AcDbLine
 10
1360.72371
 20
487.0
 30
0.0
 11
1362.149235
 21
487.0
 31
0.0
  0
LINE
  5
398
100
AcDbEntity
  8
LAY-1
  6
CONTINUOUS
 62
     2
100
AcDbLine
 10
1342.524147
 20
702.5
 30
0.0
 11
1342.524147
 21
694.665229
 31
0.0
  0
ARC
  5
399
100
AcDbEntity
  8
LAY-1
  6
CONTINUOUS
 62
     2
100
AcDbCircle
 10
1317.024147
 20
537.5
 30
0.0
 40
0.5
100
AcDbArc
 50
180.0
 51
270.0
  0
ARC
  5
39A
100
AcDbEntity
  8
LAY-1
  6
CONTINUOUS
 62
     2
100
AcDbCircle
 10
1317.524147
 20
569.5
 30
0.0
 40
1.0
100
AcDbArc
 50
180.0
 51
270.0
  0
ARC
  5
39B
100
AcDbEntity
  8
LAY-1
  6
CONTINUOUS
 62
     2
100
AcDbCircle
 10
1318.524147
 20
566.5
 30
0.0
 40
2.0
100
AcDbArc
 50
0.0
 51
90.0
  0
LINE
  5
39C
100
AcDbEntity
  8
LAY-1
  6
CONTINUOUS
 62
     2
100
AcDbLine
 10
1320.524147
 20
559.978427
 30
0.0
 11
1320.524147
 21
566.5
 31
0.0
  0
ARC
  5
39D
100
AcDbEntity
  8
LAY-1
  6
CONTINUOUS
 62
     2
100
AcDbCircle
 10
1318.524147
 20
559.828427
 30
0.0
 40
2.0
100
AcDbArc
 50
315.0
 51
0.0
  0
LINE
  5
39E
100
AcDbEntity
  8
LAY-1
  6
CONTINUOUS
 62
     2
100
AcDbLine
 10
1342.524147
 20
702.5
 30
0.0
 11
1342.524147
 21
694.665229
 31
0.0
  0
LINE
  5
39F
100
AcDbEntity
  8
LAY-1
  6
CONTINUOUS
 62
     2
100
AcDbLine
 10
1394.384514
 20
489.101247
 30
0.0
 11
1393.799475
 21
468.589191
 31
0.0
  0
LINE
  5
3A0
100
AcDbEntity
  8
LAY-1
  6
CONTINUOUS
 62
     2
100
AcDbLine
 10
1361.248818
 20
468.589191
 30
0.0
 11
1362.77776
 21
467.0
 31
0.0
  0
LINE
  5
3A1
100
AcDbEntity
  8
LAY-1
  6
CONTINUOUS
 62
     2
100
AcDbLine
 10
1360.663779
 20
489.101247
 30
0.0
 11
1361.248818
 21
468.589191
 31
0.0
  0
LINE
  5
3A2
100
AcDbEntity
  8
LAY-1
  6
CONTINUOUS
 62
     2
100
AcDbLine
 10
1342.524147
 20
717.0
 30
0.0
 11
1342.524147
 21
694.665229
 31
0.0
  0
LINE
  5
3A3
100
AcDbEntity
  8
LAY-1
  6
CONTINUOUS
 62
     2
100
AcDbLine
 10
1316.524147
 20
479.0
 30
0.0
 11
1333.524147
 21
479.0
 31
0.0
  0
ARC
  5
3A4
100
AcDbEntity
  8
LAY-1
  6
CONTINUOUS
 62
     2
100
AcDbCircle
 10
1377.524147
 20
759.0
 30
0.0
 40
4.0
100
AcDbArc
 50
0.0
 51
90.0
  0
LINE
  5
3A5
100
AcDbEntity
  8
LAY-1
  6
CONTINUOUS
 62
     2
100
AcDbLine
 10
1354.024147
 20
717.0
 30
0.0
 11
1342.524147
 21
717.0
 31
0.0
  0
ARC
  5
3A6
100
AcDbEntity
  8
LAY-1
  6
CONTINUOUS
 62
     2
100
AcDbCircle
 10
1357.024147
 20
710.0
 30
0.0
 40
1.0
100
AcDbArc
 50
180.0
 51
270.0
  0
ARC
  5
3A7
100
AcDbEntity
  8
LAY-1
  6
CONTINUOUS
 62
     2
100
AcDbCircle
 10
1354.024147
 20
715.0
 30
0.0
 40
2.0
100
AcDbArc
 50
0.0
 51
90.0
  0
LINE
  5
3A8
100
AcDbEntity
  8
LAY-1
  6
CONTINUOUS
 62
     2
100
AcDbLine
 10
1345.524147
 20
537.0
 30
0.0
 11
1345.524147
 21
525.0
 31
0.0
  0
ARC
  5
3A9
100
AcDbEntity
  8
LAY-1
  6
CONTINUOUS
 62
     2
100
AcDbCircle
 10
1387.524147
 20
670.857474
 30
0.0
 40
14.0
100
AcDbArc
 50
0.0
 51
66.992962
  0
LINE
  5
3AA
100
AcDbEntity
  8
LAY-1
  6
CONTINUOUS
 62
     2
100
AcDbLine
 10
1390.561779
 20
687.286099
 30
0.0
 11
1389.733671
 21
711.0
 31
0.0
  0
LINE
  5
3AB
100
AcDbEntity
  8
LAY-1
  6
CONTINUOUS
 62
     2
100
AcDbLine
 10
1365.314622
 20
711.0
 30
0.0
 11
1365.278482
 21
709.965101
 31
0.0
  0
LINE
  5
3AC
100
AcDbEntity
  8
LAY-1
  6
CONTINUOUS
 62
     2
100
AcDbLine
 10
1364.279092
 20
709.0
 30
0.0
 11
1357.024147
 21
709.0
 31
0.0
  0
ARC
  5
3AD
100
AcDbEntity
  8
LAY-1
  6
CONTINUOUS
 62
     2
100
AcDbCircle
 10
1364.279092
 20
710.0
 30
0.0
 40
1.0
100
AcDbArc
 50
270.0
 51
358.0
  0
ARC
  5
3AE
100
AcDbEntity
  8
LAY-1
  6
CONTINUOUS
 62
     2
100
AcDbCircle
 10
1394.559342
 20
687.425697
 30
0.0
 40
4.0
100
AcDbArc
 50
182.0
 51
246.992962
  0
ARC
  5
3AF
100
AcDbEntity
  8
LAY-1
  6
CONTINUOUS
 62
     2
100
AcDbCircle
 10
1387.524147
 20
583.142526
 30
0.0
 40
14.0
100
AcDbArc
 50
316.238257
 51
0.0
  0
LINE
  5
3B0
100
AcDbEntity
  8
LAY-1
  6
CONTINUOUS
 62
     2
100
AcDbLine
 10
1409.524147
 20
525.0
 30
0.0
 11
1409.524147
 21
535.0
 31
0.0
  0
LINE
  5
3B1
100
AcDbEntity
  8
LAY-1
  6
CONTINUOUS
 62
     2
100
AcDbLine
 10
1400.068298
 20
538.367544
 30
0.0
 11
1396.524147
 21
549.0
 31
0.0
  0
LINE
  5
3B2
100
AcDbEntity
  8
LAY-1
  6
CONTINUOUS
 62
     2
100
AcDbLine
 10
1396.524147
 20
549.0
 30
0.0
 11
1396.524147
 21
570.692627
 31
0.0
  0
ARC
  5
3B3
100
AcDbEntity
  8
LAY-1
  6
CONTINUOUS
 62
     2
100
AcDbCircle
 10
1400.524147
 20
570.692627
 30
0.0
 40
4.0
100
AcDbArc
 50
136.238257
 51
180.0
  0
ARC
  5
3B4
100
AcDbEntity
  8
LAY-1
  6
CONTINUOUS
 62
     2
100
AcDbCircle
 10
1401.965665
 20
539.0
 30
0.0
 40
2.0
100
AcDbArc
 50
198.434949
 51
270.0
  0
ARC
  5
3B5
100
AcDbEntity
  8
LAY-1
  6
CONTINUOUS
 62
     2
100
AcDbCircle
 10
1407.524147
 20
535.0
 30
0.0
 40
2.0
100
AcDbArc
 50
0.0
 51
90.0
  0
LINE
  5
3B6
100
AcDbEntity
  8
LAY-1
  6
CONTINUOUS
 62
     2
100
AcDbLine
 10
1381.524147
 20
759.0
 30
0.0
 11
1381.524147
 21
745.807481
 31
0.0
  0
LINE
  5
3B7
100
AcDbEntity
  8
LAY-1
  6
CONTINUOUS
 62
     2
100
AcDbLine
 10
1359.524147
 20
712.0
 30
0.0
 11
1359.524147
 21
720.971475
 31
0.0
  0
LINE
  5
3B8
100
AcDbEntity
  8
LAY-1
  6
CONTINUOUS
 62
     2
100
AcDbLine
 10
1359.704766
 20
721.996704
 30
0.0
 11
1366.806048
 21
741.525229
 31
0.0
  0
LINE
  5
3B9
100
AcDbEntity
  8
LAY-1
  6
CONTINUOUS
 62
     2
100
AcDbLine
 10
1369.625428
 20
743.5
 30
0.0
 11
1377.524147
 21
743.5
 31
0.0
  0
ARC
  5
3BA
100
AcDbEntity
  8
LAY-1
  6
CONTINUOUS
 62
     2
100
AcDbCircle
 10
1369.625428
 20
740.5
 30
0.0
 40
3.0
100
AcDbArc
 50
90.0
 51
160.016893
  0
ARC
  5
3BB
100
AcDbEntity
  8
LAY-1
  6
CONTINUOUS
 62
     2
100
AcDbCircle
 10
1362.524147
 20
720.971475
 30
0.0
 40
3.0
100
AcDbArc
 50
160.016893
 51
180.0
  0
ARC
  5
3BC
100
AcDbEntity
  8
LAY-1
  6
CONTINUOUS
 62
     2
100
AcDbCircle
 10
1392.524147
 20
720.971475
 30
0.0
 40
3.0
100
AcDbArc
 50
0.0
 51
19.983107
  0
ARC
  5
3BD
100
AcDbEntity
  8
LAY-1
  6
CONTINUOUS
 62
     2
100
AcDbCircle
 10
1385.422865
 20
740.5
 30
0.0
 40
3.0
100
AcDbArc
 50
19.983107
 51
90.0
  0
LINE
  5
3BE
100
AcDbEntity
  8
LAY-1
  6
CONTINUOUS
 62
     2
100
AcDbLine
 10
1385.422865
 20
743.5
 30
0.0
 11
1377.524147
 21
743.5
 31
0.0
  0
LINE
  5
3BF
100
AcDbEntity
  8
LAY-1
  6
CONTINUOUS
 62
     2
100
AcDbLine
 10
1395.343527
 20
721.996704
 30
0.0
 11
1388.242245
 21
741.525229
 31
0.0
  0
LINE
  5
3C0
100
AcDbEntity
  8
LAY-1
  6
CONTINUOUS
 62
     2
100
AcDbLine
 10
1395.524147
 20
706.0
 30
0.0
 11
1395.524147
 21
720.971475
 31
0.0
  0
LINE
  5
3C1
100
AcDbEntity
  8
LAY-1
  6
CONTINUOUS
 62
     2
100
AcDbLine
 10
1389.908275
 20
706.0
 30
0.0
 11
1395.524147
 21
706.0
 31
0.0
  0
ARC
  5
3C2
100
AcDbEntity
  8
LAY-1
  6
CONTINUOUS
 62
     2
100
AcDbCircle
 10
1377.524147
 20
759.0
 30
0.0
 40
4.0
100
AcDbArc
 50
90.0
 51
180.0
  0
LINE
  5
3C3
100
AcDbEntity
  8
LAY-1
  6
CONTINUOUS
 62
     2
100
AcDbLine
 10
1373.524147
 20
745.807481
 30
0.0
 11
1373.524147
 21
759.0
 31
0.0
  0
ARC
  5
3C4
100
AcDbEntity
  8
LAY-1
  6
CONTINUOUS
 62
     2
100
AcDbCircle
 10
1377.524147
 20
734.601708
 30
0.0
 40
11.898292
100
AcDbArc
 50
48.405599
 51
131.594401
  0
LINE
  5
3C5
100
AcDbEntity
  8
LAY-1
  6
CONTINUOUS
 62
     2
100
AcDbLine
 10
1316.524147
 20
532.0
 30
0.0
 11
1316.524147
 21
478.0
 31
0.0
  0
LINE
  5
3C6
100
AcDbEntity
  8
LAY-1
  6
CONTINUOUS
 62
     2
100
AcDbLine
 10
1377.524147
 20
467.0
 30
0.0
 11
1362.77776
 21
467.0
 31
0.0
  0
LINE
  5
3C7
100
AcDbEntity
  8
LAY-1
  6
CONTINUOUS
 62
     2
100
AcDbLine
 10
1393.799475
 20
468.589191
 30
0.0
 11
1392.270474
 21
466.998108
 31
0.0
  0
LINE
  5
3C8
100
AcDbEntity
  8
LAY-1
  6
CONTINUOUS
 62
     2
100
AcDbLine
 10
1377.524147
 20
467.0
 30
0.0
 11
1392.270474
 21
466.998108
 31
0.0
  0
LINE
  5
3C9
100
AcDbEntity
  8
LAY-1
  6
CONTINUOUS
 62
     2
100
AcDbLine
 10
1341.524147
 20
512.0
 30
0.0
 11
1333.524147
 21
512.0
 31
0.0
  0
LINE
  5
3CA
100
AcDbEntity
  8
LAY-1
  6
CONTINUOUS
 62
     2
100
AcDbLine
 10
1333.524147
 20
479.0
 30
0.0
 11
1333.524147
 21
531.0
 31
0.0
  0
LINE
  5
3CB
100
AcDbEntity
  8
LAY-1
  6
CONTINUOUS
 62
     2
100
AcDbLine
 10
1333.524147
 20
498.0
 30
0.0
 11
1341.524147
 21
498.0
 31
0.0
  0
LINE
  5
3CC
100
AcDbEntity
  8
LAY-1
  6
CONTINUOUS
 62
     2
100
AcDbLine
 10
1316.524147
 20
478.0
 30
0.0
 11
1310.024147
 21
478.0
 31
0.0
  0
LINE
  5
3CD
100
AcDbEntity
  8
LAY-1
  6
CONTINUOUS
 62
     2
100
AcDbLine
 10
1333.524147
 20
531.0
 30
0.0
 11
1316.524147
 21
531.0
 31
0.0
  0
LINE
  5
3CE
100
AcDbEntity
  8
LAY-1
  6
CONTINUOUS
 62
     2
100
AcDbLine
 10
1310.024147
 20
532.0
 30
0.0
 11
1316.524147
 21
532.0
 31
0.0
  0
LINE
  5
3CF
100
AcDbEntity
  8
LAY-1
  6
CONTINUOUS
 62
     2
100
AcDbLine
 10
1310.024147
 20
478.0
 30
0.0
 11
1310.024147
 21
532.0
 31
0.0
  0
LINE
  5
3D0
100
AcDbEntity
  8
LAY-1
  6
CONTINUOUS
 62
     2
100
AcDbLine
 10
235.975853
 20
532.0
 30
0.0
 11
229.475853
 21
532.0
 31
0.0
  0
LINE
  5
3D1
100
AcDbEntity
  8
LAY-1
  6
CONTINUOUS
 62
     2
100
AcDbLine
 10
212.475853
 20
531.0
 30
0.0
 11
229.475853
 21
531.0
 31
0.0
  0
LINE
  5
3D2
100
AcDbEntity
  8
LAY-1
  6
CONTINUOUS
 62
     2
100
AcDbLine
 10
172.475853
 20
745.807481
 30
0.0
 11
172.475853
 21
759.0
 31
0.0
  0
LINE
  5
3D3
100
AcDbEntity
  8
LAY-1
  6
CONTINUOUS
 62
     2
100
AcDbLine
 10
150.475853
 20
706.0
 30
0.0
 11
150.475853
 21
720.971475
 31
0.0
  0
LINE
  5
3D4
100
AcDbEntity
  8
LAY-1
  6
CONTINUOUS
 62
     2
100
AcDbLine
 10
150.656473
 20
721.996704
 30
0.0
 11
157.757755
 21
741.525229
 31
0.0
  0
LINE
  5
3D5
100
AcDbEntity
  8
LAY-1
  6
CONTINUOUS
 62
     2
100
AcDbLine
 10
160.577135
 20
743.5
 30
0.0
 11
168.475853
 21
743.5
 31
0.0
  0
ARC
  5
3D6
100
AcDbEntity
  8
LAY-1
  6
CONTINUOUS
 62
     2
100
AcDbCircle
 10
160.577135
 20
740.5
 30
0.0
 40
3.0
100
AcDbArc
 50
90.0
 51
160.016893
  0
ARC
  5
3D7
100
AcDbEntity
  8
LAY-1
  6
CONTINUOUS
 62
     2
100
AcDbCircle
 10
153.475853
 20
720.971475
 30
0.0
 40
3.0
100
AcDbArc
 50
160.016893
 51
180.0
  0
ARC
  5
3D8
100
AcDbEntity
  8
LAY-1
  6
CONTINUOUS
 62
     2
100
AcDbCircle
 10
183.475853
 20
720.971475
 30
0.0
 40
3.0
100
AcDbArc
 50
0.0
 51
19.983107
  0
ARC
  5
3D9
100
AcDbEntity
  8
LAY-1
  6
CONTINUOUS
 62
     2
100
AcDbCircle
 10
176.374572
 20
740.5
 30
0.0
 40
3.0
100
AcDbArc
 50
19.983107
 51
90.0
  0
LINE
  5
3DA
100
AcDbEntity
  8
LAY-1
  6
CONTINUOUS
 62
     2
100
AcDbLine
 10
176.374572
 20
743.5
 30
0.0
 11
168.475853
 21
743.5
 31
0.0
  0
LINE
  5
3DB
100
AcDbEntity
  8
LAY-1
  6
CONTINUOUS
 62
     2
100
AcDbLine
 10
186.295234
 20
721.996704
 30
0.0
 11
179.193952
 21
741.525229
 31
0.0
  0
ARC
  5
3DC
100
AcDbEntity
  8
LAY-1
  6
CONTINUOUS
 62
     2
100
AcDbCircle
 10
138.475853
 20
535.0
 30
0.0
 40
2.0
100
AcDbArc
 50
90.0
 51
180.0
  0
ARC
  5
3DD
100
AcDbEntity
  8
LAY-1
  6
CONTINUOUS
 62
     2
100
AcDbCircle
 10
144.034335
 20
539.0
 30
0.0
 40
2.0
100
AcDbArc
 50
270.0
 51
341.565051
  0
ARC
  5
3DE
100
AcDbEntity
  8
LAY-1
  6
CONTINUOUS
 62
     2
100
AcDbCircle
 10
145.475853
 20
570.692627
 30
0.0
 40
4.0
100
AcDbArc
 50
0.0
 51
43.761743
  0
LINE
  5
3DF
100
AcDbEntity
  8
LAY-1
  6
CONTINUOUS
 62
     2
100
AcDbLine
 10
149.475853
 20
549.0
 30
0.0
 11
149.475853
 21
570.692627
 31
0.0
  0
LINE
  5
3E0
100
AcDbEntity
  8
LAY-1
  6
CONTINUOUS
 62
     2
100
AcDbLine
 10
145.931702
 20
538.367544
 30
0.0
 11
149.475853
 21
549.0
 31
0.0
  0
LINE
  5
3E1
100
AcDbEntity
  8
LAY-1
  6
CONTINUOUS
 62
     2
100
AcDbLine
 10
136.475853
 20
525.0
 30
0.0
 11
136.475853
 21
535.0
 31
0.0
  0
ARC
  5
3E2
100
AcDbEntity
  8
LAY-1
  6
CONTINUOUS
 62
     2
100
AcDbCircle
 10
158.475853
 20
583.142526
 30
0.0
 40
14.0
100
AcDbArc
 50
180.0
 51
223.761743
  0
ARC
  5
3E3
100
AcDbEntity
  8
LAY-1
  6
CONTINUOUS
 62
     2
100
AcDbCircle
 10
151.440658
 20
687.425697
 30
0.0
 40
4.0
100
AcDbArc
 50
293.007038
 51
358.0
  0
ARC
  5
3E4
100
AcDbEntity
  8
LAY-1
  6
CONTINUOUS
 62
     2
100
AcDbCircle
 10
158.475853
 20
670.857474
 30
0.0
 40
14.0
100
AcDbArc
 50
113.007038
 51
180.0
  0
LINE
  5
3E5
100
AcDbEntity
  8
LAY-1
  6
CONTINUOUS
 62
     2
100
AcDbLine
 10
200.475853
 20
537.0
 30
0.0
 11
200.475853
 21
525.0
 31
0.0
  0
ARC
  5
3E6
100
AcDbEntity
  8
LAY-1
  6
CONTINUOUS
 62
     2
100
AcDbCircle
 10
191.975853
 20
715.0
 30
0.0
 40
2.0
100
AcDbArc
 50
90.0
 51
180.0
  0
ARC
  5
3E7
100
AcDbEntity
  8
LAY-1
  6
CONTINUOUS
 62
     2
100
AcDbCircle
 10
188.975853
 20
710.0
 30
0.0
 40
1.0
100
AcDbArc
 50
270.0
 51
0.0
  0
LINE
  5
3E8
100
AcDbEntity
  8
LAY-1
  6
CONTINUOUS
 62
     2
100
AcDbLine
 10
191.975853
 20
717.0
 30
0.0
 11
203.475853
 21
717.0
 31
0.0
  0
LINE
  5
3E9
100
AcDbEntity
  8
LAY-1
  6
CONTINUOUS
 62
     2
100
AcDbLine
 10
203.475853
 20
717.0
 30
0.0
 11
203.475853
 21
694.665229
 31
0.0
  0
LINE
  5
3EA
100
AcDbEntity
  8
LAY-1
  6
CONTINUOUS
 62
     2
100
AcDbLine
 10
203.475853
 20
702.5
 30
0.0
 11
203.475853
 21
694.665229
 31
0.0
  0
LINE
  5
3EB
100
AcDbEntity
  8
LAY-1
  6
CONTINUOUS
 62
     2
100
AcDbLine
 10
225.475853
 20
559.978427
 30
0.0
 11
225.475853
 21
566.5
 31
0.0
  0
ARC
  5
3EC
100
AcDbEntity
  8
LAY-1
  6
CONTINUOUS
 62
     2
100
AcDbCircle
 10
227.475853
 20
566.5
 30
0.0
 40
2.0
100
AcDbArc
 50
90.0
 51
180.0
  0
ARC
  5
3ED
100
AcDbEntity
  8
LAY-1
  6
CONTINUOUS
 62
     2
100
AcDbCircle
 10
228.475853
 20
569.5
 30
0.0
 40
1.0
100
AcDbArc
 50
270.0
 51
0.0
  0
ARC
  5
3EE
100
AcDbEntity
  8
LAY-1
  6
CONTINUOUS
 62
     2
100
AcDbCircle
 10
228.975853
 20
537.5
 30
0.0
 40
0.5
100
AcDbArc
 50
270.0
 51
0.0
  0
LINE
  5
3EF
100
AcDbEntity
  8
LAY-1
  6
CONTINUOUS
 62
     2
100
AcDbLine
 10
203.475853
 20
702.5
 30
0.0
 11
203.475853
 21
694.665229
 31
0.0
  0
LINE
  5
3F0
100
AcDbEntity
  8
LAY-1
  6
CONTINUOUS
 62
     2
100
AcDbLine
 10
132.475853
 20
512.0
 30
0.0
 11
124.475853
 21
512.0
 31
0.0
  0
LINE
  5
3F1
100
AcDbEntity
  8
LAY-1
  6
EXLTYPE3
 62
     1
100
AcDbLine
 10
243.174721
 20
505.0
 30
0.0
 11
116.932766
 21
505.0
 31
0.0
  0
LINE
  5
3F2
100
AcDbEntity
  8
LAY-1
  6
CONTINUOUS
 62
     2
100
AcDbLine
 10
136.475853
 20
511.612875
 30
0.0
 11
132.475853
 21
511.737875
 31
0.0
  0
LINE
  5
3F3
100
AcDbEntity
  8
LAY-1
  6
CONTINUOUS
 62
     2
100
AcDbLine
 10
200.475853
 20
525.0
 30
0.0
 11
136.475853
 21
525.0
 31
0.0
  0
LINE
  5
3F4
100
AcDbEntity
  8
LAY-1
  6
CONTINUOUS
 62
     2
100
AcDbLine
 10
186.475853
 20
720.971475
 30
0.0
 11
150.475853
 21
720.971475
 31
0.0
  0
LINE
  5
3F5
100
AcDbEntity
  8
LAY-1
  6
CONTINUOUS
 62
     2
100
AcDbLine
 10
138.475853
 20
537.0
 30
0.0
 11
228.975853
 21
537.0
 31
0.0
  0
ARC
  5
3F6
100
AcDbEntity
  8
LAY-1
  6
CONTINUOUS
 62
     2
100
AcDbCircle
 10
371.055144
 20
637.516309
 30
0.0
 40
7.419201
100
AcDbArc
 50
325.996439
 51
0.0
  0
ARC
  5
3F7
100
AcDbEntity
  8
LAY-1
  6
CONTINUOUS
 62
     2
100
AcDbCircle
 10
371.055144
 20
616.516309
 30
0.0
 40
7.419201
100
AcDbArc
 50
0.0
 51
34.003561
  0
LINE
  5
3F8
100
AcDbEntity
  8
LAY-1
  6
CONTINUOUS
 62
     2
100
AcDbLine
 10
378.475853
 20
616.516309
 30
0.0
 11
377.205683
 21
614.316309
 31
0.0
  0
LINE
  5
3F9
100
AcDbEntity
  8
LAY-1
  6
CONTINUOUS
 62
     2
100
AcDbLine
 10
377.205683
 20
633.367162
 30
0.0
 11
367.475853
 21
633.367162
 31
0.0
  0
LINE
  5
3FA
100
AcDbEntity
  8
LAY-1
  6
CONTINUOUS
 62
     2
100
AcDbLine
 10
378.475853
 20
637.516309
 30
0.0
 11
377.205683
 21
639.716309
 31
0.0
  0
ARC
  5
3FB
100
AcDbEntity
  8
LAY-1
  6
CONTINUOUS
 62
     2
100
AcDbCircle
 10
361.963636
 20
627.016309
 30
0.0
 40
16.512218
100
AcDbArc
 50
337.380135
 51
22.619865
  0
LINE
  5
3FC
100
AcDbEntity
  8
LAY-1
  6
CONTINUOUS
 62
     2
100
AcDbLine
 10
377.205683
 20
620.665456
 30
0.0
 11
367.475853
 21
620.665456
 31
0.0
  0
LINE
  5
3FD
100
AcDbEntity
  8
LAY-1
  6
CONTINUOUS
 62
     2
100
AcDbLine
 10
378.475853
 20
634.0
 30
0.0
 11
391.475853
 21
634.0
 31
0.0
  0
LINE
  5
3FE
100
AcDbEntity
  8
LAY-1
  6
CONTINUOUS
 62
     2
100
AcDbLine
 10
377.205683
 20
639.716309
 30
0.0
 11
367.475853
 21
639.716309
 31
0.0
  0
LINE
  5
3FF
100
AcDbEntity
  8
LAY-1
  6
CONTINUOUS
 62
     2
100
AcDbLine
 10
378.475853
 20
616.516309
 30
0.0
 11
378.475853
 21
637.516309
 31
0.0
  0
LINE
  5
400
100
AcDbEntity
  8
LAY-1
  6
CONTINUOUS
 62
     2
100
AcDbLine
 10
367.475853
 20
614.316309
 30
0.0
 11
377.205683
 21
614.316309
 31
0.0
  0
ARC
  5
401
100
AcDbEntity
  8
LAY-1
  6
CONTINUOUS
 62
     2
100
AcDbCircle
 10
398.749434
 20
617.475
 30
0.0
 40
7.273581
100
AcDbArc
 50
154.118503
 51
206.120405
  0
LINE
  5
402
100
AcDbEntity
  8
LAY-1
  6
CONTINUOUS
 62
     2
100
AcDbLine
 10
391.475853
 20
616.0
 30
0.0
 11
392.205402
 21
614.275181
 31
0.0
  0
LINE
  5
403
100
AcDbEntity
  8
LAY-1
  6
CONTINUOUS
 62
     2
100
AcDbLine
 10
391.475853
 20
638.0
 30
0.0
 11
392.205402
 21
639.724819
 31
0.0
  0
ARC
  5
404
100
AcDbEntity
  8
LAY-1
  6
CONTINUOUS
 62
     2
100
AcDbCircle
 10
398.749434
 20
636.525
 30
0.0
 40
7.273581
100
AcDbArc
 50
153.879595
 51
205.881497
  0
ARC
  5
405
100
AcDbEntity
  8
LAY-1
  6
CONTINUOUS
 62
     2
100
AcDbCircle
 10
419.475853
 20
627.0
 30
0.0
 40
28.0
100
AcDbArc
 50
166.892093
 51
193.107907
  0
LINE
  5
406
100
AcDbEntity
  8
LAY-1
  6
CONTINUOUS
 62
     2
100
AcDbLine
 10
391.475853
 20
616.0
 30
0.0
 11
391.475853
 21
638.0
 31
0.0
  0
LINE
  5
407
100
AcDbEntity
  8
LAY-1
  6
CONTINUOUS
 62
     2
100
AcDbLine
 10
399.746304
 20
620.65
 30
0.0
 11
392.205402
 21
620.65
 31
0.0
  0
LINE
  5
408
100
AcDbEntity
  8
LAY-1
  6
CONTINUOUS
 62
     2
100
AcDbLine
 10
399.746304
 20
633.35
 30
0.0
 11
392.205402
 21
633.35
 31
0.0
  0
ARC
  5
409
100
AcDbEntity
  8
LAY-1
  6
CONTINUOUS
 62
     2
100
AcDbCircle
 10
393.202273
 20
617.475
 30
0.0
 40
7.273581
100
AcDbArc
 50
333.879595
 51
25.881497
  0
LINE
  5
40A
100
AcDbEntity
  8
LAY-1
  6
CONTINUOUS
 62
     2
100
AcDbLine
 10
400.475853
 20
616.0
 30
0.0
 11
399.746304
 21
614.275181
 31
0.0
  0
LINE
  5
40B
100
AcDbEntity
  8
LAY-1
  6
CONTINUOUS
 62
     2
100
AcDbLine
 10
400.475853
 20
638.0
 30
0.0
 11
399.746304
 21
639.724819
 31
0.0
  0
LINE
  5
40C
100
AcDbEntity
  8
LAY-1
  6
CONTINUOUS
 62
     1
100
AcDbLine
 10
390.207904
 20
620.0
 30
0.0
 11
388.475853
 21
621.0
 31
0.0
  0
ARC
  5
40D
100
AcDbEntity
  8
LAY-1
  6
CONTINUOUS
 62
     2
100
AcDbCircle
 10
393.202273
 20
636.525
 30
0.0
 40
7.273581
100
AcDbArc
 50
334.118503
 51
26.120405
  0
LINE
  5
40E
100
AcDbEntity
  8
LAY-1
  6
CONTINUOUS
 62
     1
100
AcDbLine
 10
388.475853
 20
633.0
 30
0.0
 11
390.207904
 21
634.0
 31
0.0
  0
ARC
  5
40F
100
AcDbEntity
  8
LAY-1
  6
CONTINUOUS
 62
     2
100
AcDbCircle
 10
372.475853
 20
627.0
 30
0.0
 40
28.0
100
AcDbArc
 50
346.892093
 51
13.107907
  0
LINE
  5
410
100
AcDbEntity
  8
LAY-1
  6
CONTINUOUS
 62
     1
100
AcDbLine
 10
388.475853
 20
633.0
 30
0.0
 11
378.475853
 21
633.0
 31
0.0
  0
LINE
  5
411
100
AcDbEntity
  8
LAY-1
  6
CONTINUOUS
 62
     1
100
AcDbLine
 10
388.475853
 20
621.0
 30
0.0
 11
378.475853
 21
621.0
 31
0.0
  0
LINE
  5
412
100
AcDbEntity
  8
LAY-1
  6
CONTINUOUS
 62
     2
100
AcDbLine
 10
388.475853
 20
620.0
 30
0.0
 11
388.475853
 21
634.0
 31
0.0
  0
LINE
  5
413
100
AcDbEntity
  8
LAY-1
  6
CONTINUOUS
 62
     2
100
AcDbLine
 10
391.475853
 20
620.0
 30
0.0
 11
378.475853
 21
620.0
 31
0.0
  0
LINE
  5
414
100
AcDbEntity
  8
LAY-1
  6
CONTINUOUS
 62
     2
100
AcDbLine
 10
392.218698
 20
614.3
 30
0.0
 11
399.756802
 21
614.3
 31
0.0
  0
LINE
  5
415
100
AcDbEntity
  8
LAY-1
  6
CONTINUOUS
 62
     2
100
AcDbLine
 10
399.733009
 20
639.7
 30
0.0
 11
392.194905
 21
639.7
 31
0.0
  0
LINE
  5
416
100
AcDbEntity
  8
LAY-1
  6
CONTINUOUS
 62
     2
100
AcDbLine
 10
400.475853
 20
616.0
 30
0.0
 11
400.475853
 21
638.0
 31
0.0
  0
LINE
  5
417
100
AcDbEntity
  8
LAY-1
  6
CONTINUOUS
 62
     2
100
AcDbLine
 10
391.475853
 20
638.0
 30
0.0
 11
391.475853
 21
616.0
 31
0.0
  0
LINE
  5
418
100
AcDbEntity
  8
LAY-1
  6
CONTINUOUS
 62
     2
100
AcDbLine
 10
150.475853
 20
712.0
 30
0.0
 11
186.475853
 21
712.0
 31
0.0
  0
LINE
  5
419
100
AcDbEntity
  8
LAY-1
  6
CONTINUOUS
 62
     2
100
AcDbLine
 10
189.975853
 20
672.141444
 30
0.0
 11
189.975853
 21
715.0
 31
0.0
  0
LINE
  5
41A
100
AcDbEntity
  8
LAY-1
  6
CONTINUOUS
 62
     2
100
AcDbLine
 10
189.975853
 20
581.858556
 30
0.0
 11
189.975853
 21
539.0
 31
0.0
  0
ARC
  5
41B
100
AcDbEntity
  8
LAY-1
  6
CONTINUOUS
 62
     2
100
AcDbCircle
 10
191.975853
 20
539.0
 30
0.0
 40
2.0
100
AcDbArc
 50
180.0
 51
270.0
  0
LINE
  5
41C
100
AcDbEntity
  8
LAY-1
  6
CONTINUOUS
 62
     2
100
AcDbLine
 10
229.475853
 20
569.5
 30
0.0
 11
229.475853
 21
584.063453
 31
0.0
  0
LINE
  5
41D
100
AcDbEntity
  8
LAY-1
  6
CONTINUOUS
 62
     2
100
AcDbLine
 10
221.475853
 20
568.5
 30
0.0
 11
228.475853
 21
568.5
 31
0.0
  0
LINE
  5
41E
100
AcDbEntity
  8
LAY-1
  6
EXLTYPE3
 62
     1
100
AcDbLine
 10
409.675853
 20
627.0
 30
0.0
 11
104.775853
 21
627.0
 31
0.0
  0
CIRCLE
  5
41F
100
AcDbEntity
  8
LAY-1
  6
CONTINUOUS
 62
     2
100
AcDbCircle
 10
168.475853
 20
627.0
 30
0.0
 40
29.0
  0
CIRCLE
  5
420
100
AcDbEntity
  8
LAY-1
  6
CONTINUOUS
 62
     2
100
AcDbCircle
 10
168.475853
 20
627.0
 30
0.0
 40
50.0
  0
CIRCLE
  5
421
100
AcDbEntity
  8
LAY-1
  6
CONTINUOUS
 62
     2
100
AcDbCircle
 10
141.959349
 20
653.516504
 30
0.0
 40
7.5
  0
CIRCLE
  5
422
100
AcDbEntity
  8
LAY-1
  6
CONTINUOUS
 62
     2
100
AcDbCircle
 10
194.992358
 20
653.516504
 30
0.0
 40
7.5
  0
CIRCLE
  5
423
100
AcDbEntity
  8
LAY-1
  6
CONTINUOUS
 62
     2
100
AcDbCircle
 10
194.992358
 20
600.483496
 30
0.0
 40
7.5
  0
CIRCLE
  5
424
100
AcDbEntity
  8
LAY-1
  6
CONTINUOUS
 62
     2
100
AcDbCircle
 10
141.959349
 20
600.483496
 30
0.0
 40
7.5
  0
CIRCLE
  5
425
100
AcDbEntity
  8
LAY-1
  6
CONTINUOUS
 62
     2
100
AcDbCircle
 10
168.475853
 20
627.0
 30
0.0
 40
13.6
  0
LINE
  5
426
100
AcDbEntity
  8
LAY-1
  6
CONTINUOUS
 62
     2
100
AcDbLine
 10
203.475853
 20
551.5
 30
0.0
 11
203.775853
 21
551.5
 31
0.0
  0
LINE
  5
427
100
AcDbEntity
  8
LAY-1
  6
CONTINUOUS
 62
     2
100
AcDbLine
 10
203.475853
 20
702.5
 30
0.0
 11
203.775853
 21
702.5
 31
0.0
  0
LINE
  5
428
100
AcDbEntity
  8
LAY-1
  6
CONTINUOUS
 62
     2
100
AcDbLine
 10
203.775853
 20
717.0
 30
0.0
 11
214.975853
 21
717.0
 31
0.0
  0
ARC
  5
429
100
AcDbEntity
  8
LAY-1
  6
CONTINUOUS
 62
     2
100
AcDbCircle
 10
214.975853
 20
716.0
 30
0.0
 40
1.0
100
AcDbArc
 50
0.0
 51
90.0
  0
ARC
  5
42A
100
AcDbEntity
  8
LAY-1
  6
CONTINUOUS
 62
     2
100
AcDbCircle
 10
218.475853
 20
686.943657
 30
0.0
 40
3.0
100
AcDbArc
 50
0.0
 51
90.0
  0
LINE
  5
42B
100
AcDbEntity
  8
LAY-1
  6
CONTINUOUS
 62
     2
100
AcDbLine
 10
218.475853
 20
689.943657
 30
0.0
 11
217.975853
 21
689.943657
 31
0.0
  0
ARC
  5
42C
100
AcDbEntity
  8
LAY-1
  6
CONTINUOUS
 62
     2
100
AcDbCircle
 10
217.975853
 20
691.943657
 30
0.0
 40
2.0
100
AcDbArc
 50
180.0
 51
270.0
  0
ARC
  5
42D
100
AcDbEntity
  8
LAY-1
  6
CONTINUOUS
 62
     2
100
AcDbCircle
 10
366.475853
 20
646.534311
 30
0.0
 40
1.0
100
AcDbArc
 50
0.0
 51
88.0
  0
ARC
  5
42E
100
AcDbEntity
  8
LAY-1
  6
CONTINUOUS
 62
     2
100
AcDbCircle
 10
366.475853
 20
607.465689
 30
0.0
 40
1.0
100
AcDbArc
 50
272.0
 51
0.0
  0
LINE
  5
42F
100
AcDbEntity
  8
LAY-1
  6
CONTINUOUS
 62
     2
100
AcDbLine
 10
367.475853
 20
627.0
 30
0.0
 11
367.475853
 21
646.534311
 31
0.0
  0
LINE
  5
430
100
AcDbEntity
  8
LAY-1
  6
CONTINUOUS
 62
     2
100
AcDbLine
 10
367.475853
 20
627.0
 30
0.0
 11
367.475853
 21
607.465689
 31
0.0
  0
LINE
  5
431
100
AcDbEntity
  8
LAY-1
  6
CONTINUOUS
 62
     2
100
AcDbLine
 10
366.510753
 20
647.533702
 30
0.0
 11
358.634869
 21
647.808734
 31
0.0
  0
ARC
  5
432
100
AcDbEntity
  8
LAY-1
  6
CONTINUOUS
 62
     2
100
AcDbCircle
 10
358.704668
 20
649.807516
 30
0.0
 40
2.0
100
AcDbArc
 50
190.0
 51
268.0
  0
ARC
  5
433
100
AcDbEntity
  8
LAY-1
  6
CONTINUOUS
 62
     2
100
AcDbCircle
 10
358.704668
 20
604.192484
 30
0.0
 40
2.0
100
AcDbArc
 50
92.0
 51
170.0
  0
LINE
  5
434
100
AcDbEntity
  8
LAY-1
  6
CONTINUOUS
 62
     2
100
AcDbLine
 10
366.510753
 20
606.466298
 30
0.0
 11
358.634869
 21
606.191266
 31
0.0
  0
ARC
  5
435
100
AcDbEntity
  8
LAY-1
  6
CONTINUOUS
 62
     2
100
AcDbCircle
 10
229.475853
 20
677.941727
 30
0.0
 40
8.0
100
AcDbArc
 50
180.0
 51
267.938877
  0
LINE
  5
436
100
AcDbEntity
  8
LAY-1
  6
CONTINUOUS
 62
     2
100
AcDbLine
 10
356.735052
 20
649.460219
 30
0.0
 11
355.318828
 21
657.492026
 31
0.0
  0
LINE
  5
437
100
AcDbEntity
  8
LAY-1
  6
CONTINUOUS
 62
     2
100
AcDbLine
 10
345.830406
 20
665.749074
 30
0.0
 11
229.188128
 21
669.946902
 31
0.0
  0
ARC
  5
438
100
AcDbEntity
  8
LAY-1
  6
CONTINUOUS
 62
     2
100
AcDbCircle
 10
345.47075
 20
655.755544
 30
0.0
 40
10.0
100
AcDbArc
 50
10.0
 51
87.938877
  0
ARC
  5
439
100
AcDbEntity
  8
LAY-1
  6
CONTINUOUS
 62
     2
100
AcDbCircle
 10
345.47075
 20
598.244456
 30
0.0
 40
10.0
100
AcDbArc
 50
272.061123
 51
350.0
  0
LINE
  5
43A
100
AcDbEntity
  8
LAY-1
  6
CONTINUOUS
 62
     2
100
AcDbLine
 10
356.823762
 20
605.042879
 30
0.0
 11
355.318828
 21
596.507974
 31
0.0
  0
ARC
  5
43B
100
AcDbEntity
  8
LAY-1
  6
CONTINUOUS
 62
     2
100
AcDbCircle
 10
218.475853
 20
567.056343
 30
0.0
 40
3.0
100
AcDbArc
 50
270.0
 51
0.0
  0
LINE
  5
43C
100
AcDbEntity
  8
LAY-1
  6
CONTINUOUS
 62
     2
100
AcDbLine
 10
218.475853
 20
564.056343
 30
0.0
 11
217.975853
 21
564.056343
 31
0.0
  0
ARC
  5
43D
100
AcDbEntity
  8
LAY-1
  6
CONTINUOUS
 62
     2
100
AcDbCircle
 10
217.975853
 20
562.056343
 30
0.0
 40
2.0
100
AcDbArc
 50
90.0
 51
180.0
  0
ARC
  5
43E
100
AcDbEntity
  8
LAY-1
  6
CONTINUOUS
 62
     2
100
AcDbCircle
 10
229.475853
 20
576.058273
 30
0.0
 40
8.0
100
AcDbArc
 50
92.061123
 51
180.0
  0
LINE
  5
43F
100
AcDbEntity
  8
LAY-1
  6
CONTINUOUS
 62
     2
100
AcDbLine
 10
345.830406
 20
588.250926
 30
0.0
 11
229.188128
 21
584.053098
 31
0.0
  0
LINE
  5
440
100
AcDbEntity
  8
LAY-1
  6
CONTINUOUS
 62
     2
100
AcDbLine
 10
203.475853
 20
702.5
 30
0.0
 11
203.475853
 21
662.707142
 31
0.0
  0
LINE
  5
441
100
AcDbEntity
  8
LAY-1
  6
CONTINUOUS
 62
     2
100
AcDbLine
 10
203.775853
 20
662.410592
 30
0.0
 11
203.775853
 21
717.0
 31
0.0
  0
LINE
  5
442
100
AcDbEntity
  8
LAY-1
  6
CONTINUOUS
 62
     2
100
AcDbLine
 10
215.975853
 20
716.0
 30
0.0
 11
215.975853
 21
642.612495
 31
0.0
  0
LINE
  5
443
100
AcDbEntity
  8
LAY-1
  6
CONTINUOUS
 62
     2
100
AcDbLine
 10
203.475853
 20
551.5
 30
0.0
 11
203.475853
 21
591.292858
 31
0.0
  0
LINE
  5
444
100
AcDbEntity
  8
LAY-1
  6
CONTINUOUS
 62
     2
100
AcDbLine
 10
203.775853
 20
537.0
 30
0.0
 11
203.775853
 21
591.589408
 31
0.0
  0
LINE
  5
445
100
AcDbEntity
  8
LAY-1
  6
CONTINUOUS
 62
     2
100
AcDbLine
 10
357.175853
 20
607.465689
 30
0.0
 11
357.175853
 21
646.534311
 31
0.0
  0
ARC
  5
446
100
AcDbEntity
  8
LAY-1
  6
CONTINUOUS
 62
     2
100
AcDbCircle
 10
168.475853
 20
759.0
 30
0.0
 40
4.0
100
AcDbArc
 50
0.0
 51
180.0
  0
ARC
  5
447
100
AcDbEntity
  8
LAY-1
  6
CONTINUOUS
 62
     2
100
AcDbCircle
 10
168.475853
 20
747.5
 30
0.0
 40
4.0
100
AcDbArc
 50
180.0
 51
0.0
  0
LINE
  5
448
100
AcDbEntity
  8
LAY-1
  6
CONTINUOUS
 62
     2
100
AcDbLine
 10
164.475853
 20
759.0
 30
0.0
 11
164.475853
 21
745.807481
 31
0.0
  0
ARC
  5
449
100
AcDbEntity
  8
LAY-1
  6
CONTINUOUS
 62
     2
100
AcDbCircle
 10
168.475853
 20
734.601708
 30
0.0
 40
11.898292
100
AcDbArc
 50
48.405599
 51
72.013585
  0
ARC
  5
44A
100
AcDbEntity
  8
LAY-1
  6
CONTINUOUS
 62
     2
100
AcDbCircle
 10
168.475853
 20
734.601708
 30
0.0
 40
11.898292
100
AcDbArc
 50
107.986415
 51
131.594401
  0
LINE
  5
44B
100
AcDbEntity
  8
LAY-1
  6
CONTINUOUS
 62
     2
100
AcDbLine
 10
186.475853
 20
706.0
 30
0.0
 11
186.475853
 21
720.971475
 31
0.0
  0
LINE
  5
44C
100
AcDbEntity
  8
LAY-1
  6
CONTINUOUS
 62
     2
100
AcDbLine
 10
186.475853
 20
706.0
 30
0.0
 11
150.475853
 21
706.0
 31
0.0
  0
LINE
  5
44D
100
AcDbEntity
  8
LAY-1
  6
CONTINUOUS
 62
     2
100
AcDbLine
 10
186.475853
 20
709.0
 30
0.0
 11
188.975853
 21
709.0
 31
0.0
  0
LINE
  5
44E
100
AcDbEntity
  8
LAY-1
  6
CONTINUOUS
 62
     2
100
AcDbLine
 10
155.438221
 20
687.286099
 30
0.0
 11
156.091725
 21
706.0
 31
0.0
  0
ARC
  5
44F
100
AcDbEntity
  8
LAY-1
  6
CONTINUOUS
 62
     1
100
AcDbCircle
 10
224.075853
 20
700.910363
 30
0.0
 40
5.75
100
AcDbArc
 50
270.0
 51
90.0
  0
LINE
  5
450
100
AcDbEntity
  8
LAY-1
  6
EXLTYPE3
 62
     1
100
AcDbLine
 10
215.975853
 20
693.410363
 30
0.0
 11
217.575853
 21
693.410363
 31
0.0
  0
LINE
  5
451
100
AcDbEntity
  8
LAY-1
  6
EXLTYPE3
 62
     1
100
AcDbLine
 10
217.575853
 20
693.410363
 30
0.0
 11
217.575853
 21
708.410363
 31
0.0
  0
LINE
  5
452
100
AcDbEntity
  8
LAY-1
  6
EXLTYPE3
 62
     1
100
AcDbLine
 10
217.575853
 20
708.410363
 30
0.0
 11
215.975853
 21
708.410363
 31
0.0
  0
LINE
  5
453
100
AcDbEntity
  8
LAY-1
  6
EXLTYPE3
 62
     1
100
AcDbLine
 10
217.575853
 20
693.410363
 30
0.0
 11
223.498503
 21
693.410363
 31
0.0
  0
LINE
  5
454
100
AcDbEntity
  8
LAY-1
  6
EXLTYPE3
 62
     1
100
AcDbLine
 10
224.075853
 20
694.429622
 30
0.0
 11
224.075853
 21
707.410363
 31
0.0
  0
LINE
  5
455
100
AcDbEntity
  8
LAY-1
  6
EXLTYPE3
 62
     1
100
AcDbLine
 10
223.498503
 20
708.410363
 30
0.0
 11
217.575853
 21
708.410363
 31
0.0
  0
ARC
  5
456
100
AcDbEntity
  8
LAY-1
  6
EXLTYPE3
 62
     1
100
AcDbCircle
 10
211.590654
 20
700.910363
 30
0.0
 40
12.4852
100
AcDbArc
 50
342.507675
 51
17.492325
  0
LINE
  5
457
100
AcDbEntity
  8
LAY-1
  6
EXLTYPE3
 62
     1
100
AcDbLine
 10
224.075853
 20
694.410363
 30
0.0
 11
223.498503
 21
693.410363
 31
0.0
  0
LINE
  5
458
100
AcDbEntity
  8
LAY-1
  6
EXLTYPE3
 62
     1
100
AcDbLine
 10
224.075853
 20
707.410363
 30
0.0
 11
223.498503
 21
708.410363
 31
0.0
  0
ARC
  5
459
100
AcDbEntity
  8
LAY-1
  6
EXLTYPE3
 62
     1
100
AcDbCircle
 10
220.778846
 20
706.526932
 30
0.0
 40
3.297008
100
AcDbArc
 50
325.576995
 51
34.703566
  0
LINE
  5
45A
100
AcDbEntity
  8
LAY-1
  6
EXLTYPE3
 62
     1
100
AcDbLine
 10
223.498503
 20
697.157586
 30
0.0
 11
217.575853
 21
697.157586
 31
0.0
  0
ARC
  5
45B
100
AcDbEntity
  8
LAY-1
  6
EXLTYPE3
 62
     1
100
AcDbCircle
 10
220.747065
 20
695.283974
 30
0.0
 40
3.328788
100
AcDbArc
 50
325.746813
 51
34.253187
  0
LINE
  5
45C
100
AcDbEntity
  8
LAY-1
  6
EXLTYPE3
 62
     1
100
AcDbLine
 10
217.575853
 20
704.663139
 30
0.0
 11
223.498503
 21
704.663139
 31
0.0
  0
LINE
  5
45D
100
AcDbEntity
  8
LAY-1
  6
EXLTYPE3
 62
     1
100
AcDbLine
 10
217.575853
 20
661.367451
 30
0.0
 11
223.498503
 21
661.367451
 31
0.0
  0
ARC
  5
45E
100
AcDbEntity
  8
LAY-1
  6
EXLTYPE3
 62
     1
100
AcDbCircle
 10
220.747065
 20
651.988286
 30
0.0
 40
3.328788
100
AcDbArc
 50
325.746813
 51
34.253187
  0
LINE
  5
45F
100
AcDbEntity
  8
LAY-1
  6
EXLTYPE3
 62
     1
100
AcDbLine
 10
223.498503
 20
653.861898
 30
0.0
 11
217.575853
 21
653.861898
 31
0.0
  0
ARC
  5
460
100
AcDbEntity
  8
LAY-1
  6
EXLTYPE3
 62
     1
100
AcDbCircle
 10
220.778846
 20
663.231244
 30
0.0
 40
3.297008
100
AcDbArc
 50
325.576995
 51
34.703566
  0
LINE
  5
461
100
AcDbEntity
  8
LAY-1
  6
EXLTYPE3
 62
     1
100
AcDbLine
 10
224.075853
 20
664.114675
 30
0.0
 11
223.498503
 21
665.114675
 31
0.0
  0
LINE
  5
462
100
AcDbEntity
  8
LAY-1
  6
EXLTYPE3
 62
     1
100
AcDbLine
 10
224.075853
 20
651.114675
 30
0.0
 11
223.498503
 21
650.114675
 31
0.0
  0
ARC
  5
463
100
AcDbEntity
  8
LAY-1
  6
EXLTYPE3
 62
     1
100
AcDbCircle
 10
211.590654
 20
657.614675
 30
0.0
 40
12.4852
100
AcDbArc
 50
342.507675
 51
17.492325
  0
LINE
  5
464
100
AcDbEntity
  8
LAY-1
  6
EXLTYPE3
 62
     1
100
AcDbLine
 10
223.498503
 20
665.114675
 30
0.0
 11
217.575853
 21
665.114675
 31
0.0
  0
LINE
  5
465
100
AcDbEntity
  8
LAY-1
  6
EXLTYPE3
 62
     1
100
AcDbLine
 10
224.075853
 20
651.133934
 30
0.0
 11
224.075853
 21
664.114675
 31
0.0
  0
LINE
  5
466
100
AcDbEntity
  8
LAY-1
  6
EXLTYPE3
 62
     1
100
AcDbLine
 10
217.575853
 20
650.114675
 30
0.0
 11
223.498503
 21
650.114675
 31
0.0
  0
LINE
  5
467
100
AcDbEntity
  8
LAY-1
  6
EXLTYPE3
 62
     1
100
AcDbLine
 10
217.575853
 20
665.114675
 30
0.0
 11
215.975853
 21
665.114675
 31
0.0
  0
LINE
  5
468
100
AcDbEntity
  8
LAY-1
  6
EXLTYPE3
 62
     1
100
AcDbLine
 10
217.575853
 20
650.114675
 30
0.0
 11
217.575853
 21
665.114675
 31
0.0
  0
LINE
  5
469
100
AcDbEntity
  8
LAY-1
  6
EXLTYPE3
 62
     1
100
AcDbLine
 10
215.975853
 20
650.114675
 30
0.0
 11
217.575853
 21
650.114675
 31
0.0
  0
ARC
  5
46A
100
AcDbEntity
  8
LAY-1
  6
CONTINUOUS
 62
     1
100
AcDbCircle
 10
224.075853
 20
657.614675
 30
0.0
 40
5.75
100
AcDbArc
 50
270.0
 51
90.0
  0
LINE
  5
46B
100
AcDbEntity
  8
LAY-1
  6
EXLTYPE3
 62
     1
100
AcDbLine
 10
217.575853
 20
592.632549
 30
0.0
 11
223.498503
 21
592.632549
 31
0.0
  0
ARC
  5
46C
100
AcDbEntity
  8
LAY-1
  6
EXLTYPE3
 62
     1
100
AcDbCircle
 10
220.747065
 20
602.011714
 30
0.0
 40
3.328788
100
AcDbArc
 50
325.746813
 51
34.253187
  0
LINE
  5
46D
100
AcDbEntity
  8
LAY-1
  6
EXLTYPE3
 62
     1
100
AcDbLine
 10
223.498503
 20
600.138102
 30
0.0
 11
217.575853
 21
600.138102
 31
0.0
  0
ARC
  5
46E
100
AcDbEntity
  8
LAY-1
  6
EXLTYPE3
 62
     1
100
AcDbCircle
 10
220.778846
 20
590.768756
 30
0.0
 40
3.297008
100
AcDbArc
 50
325.296434
 51
34.423005
  0
LINE
  5
46F
100
AcDbEntity
  8
LAY-1
  6
EXLTYPE3
 62
     1
100
AcDbLine
 10
224.075853
 20
589.885325
 30
0.0
 11
223.498503
 21
588.885325
 31
0.0
  0
LINE
  5
470
100
AcDbEntity
  8
LAY-1
  6
EXLTYPE3
 62
     1
100
AcDbLine
 10
224.075853
 20
602.885325
 30
0.0
 11
223.498503
 21
603.885325
 31
0.0
  0
ARC
  5
471
100
AcDbEntity
  8
LAY-1
  6
EXLTYPE3
 62
     1
100
AcDbCircle
 10
211.590654
 20
596.385325
 30
0.0
 40
12.4852
100
AcDbArc
 50
342.507675
 51
17.492325
  0
LINE
  5
472
100
AcDbEntity
  8
LAY-1
  6
EXLTYPE3
 62
     1
100
AcDbLine
 10
223.498503
 20
588.885325
 30
0.0
 11
217.575853
 21
588.885325
 31
0.0
  0
LINE
  5
473
100
AcDbEntity
  8
LAY-1
  6
EXLTYPE3
 62
     1
100
AcDbLine
 10
224.075853
 20
602.866066
 30
0.0
 11
224.075853
 21
589.885325
 31
0.0
  0
LINE
  5
474
100
AcDbEntity
  8
LAY-1
  6
EXLTYPE3
 62
     1
100
AcDbLine
 10
217.575853
 20
603.885325
 30
0.0
 11
223.498503
 21
603.885325
 31
0.0
  0
LINE
  5
475
100
AcDbEntity
  8
LAY-1
  6
EXLTYPE3
 62
     1
100
AcDbLine
 10
217.575853
 20
588.885325
 30
0.0
 11
215.975853
 21
588.885325
 31
0.0
  0
LINE
  5
476
100
AcDbEntity
  8
LAY-1
  6
EXLTYPE3
 62
     1
100
AcDbLine
 10
217.575853
 20
603.885325
 30
0.0
 11
217.575853
 21
588.885325
 31
0.0
  0
LINE
  5
477
100
AcDbEntity
  8
LAY-1
  6
EXLTYPE3
 62
     1
100
AcDbLine
 10
215.975853
 20
603.885325
 30
0.0
 11
217.575853
 21
603.885325
 31
0.0
  0
ARC
  5
478
100
AcDbEntity
  8
LAY-1
  6
CONTINUOUS
 62
     1
100
AcDbCircle
 10
224.075853
 20
596.385325
 30
0.0
 40
5.75
100
AcDbArc
 50
270.0
 51
90.0
  0
LINE
  5
479
100
AcDbEntity
  8
LAY-1
  6
EXLTYPE3
 62
     1
100
AcDbLine
 10
217.575853
 20
549.336861
 30
0.0
 11
223.498503
 21
549.336861
 31
0.0
  0
ARC
  5
47A
100
AcDbEntity
  8
LAY-1
  6
EXLTYPE3
 62
     1
100
AcDbCircle
 10
220.747065
 20
558.716026
 30
0.0
 40
3.328788
100
AcDbArc
 50
325.746813
 51
34.253187
  0
LINE
  5
47B
100
AcDbEntity
  8
LAY-1
  6
EXLTYPE3
 62
     1
100
AcDbLine
 10
223.498503
 20
556.842414
 30
0.0
 11
217.575853
 21
556.842414
 31
0.0
  0
ARC
  5
47C
100
AcDbEntity
  8
LAY-1
  6
EXLTYPE3
 62
     1
100
AcDbCircle
 10
220.778846
 20
547.473068
 30
0.0
 40
3.297008
100
AcDbArc
 50
325.296434
 51
34.423005
  0
LINE
  5
47D
100
AcDbEntity
  8
LAY-1
  6
EXLTYPE3
 62
     1
100
AcDbLine
 10
224.075853
 20
546.589637
 30
0.0
 11
223.498503
 21
545.589637
 31
0.0
  0
LINE
  5
47E
100
AcDbEntity
  8
LAY-1
  6
EXLTYPE3
 62
     1
100
AcDbLine
 10
224.075853
 20
559.589637
 30
0.0
 11
223.498503
 21
560.589637
 31
0.0
  0
ARC
  5
47F
100
AcDbEntity
  8
LAY-1
  6
EXLTYPE3
 62
     1
100
AcDbCircle
 10
211.590654
 20
553.089637
 30
0.0
 40
12.4852
100
AcDbArc
 50
342.507675
 51
17.492325
  0
LINE
  5
480
100
AcDbEntity
  8
LAY-1
  6
EXLTYPE3
 62
     1
100
AcDbLine
 10
223.498503
 20
545.589637
 30
0.0
 11
217.575853
 21
545.589637
 31
0.0
  0
LINE
  5
481
100
AcDbEntity
  8
LAY-1
  6
EXLTYPE3
 62
     1
100
AcDbLine
 10
224.075853
 20
559.570378
 30
0.0
 11
224.075853
 21
546.589637
 31
0.0
  0
LINE
  5
482
100
AcDbEntity
  8
LAY-1
  6
EXLTYPE3
 62
     1
100
AcDbLine
 10
217.575853
 20
560.589637
 30
0.0
 11
223.498503
 21
560.589637
 31
0.0
  0
LINE
  5
483
100
AcDbEntity
  8
LAY-1
  6
EXLTYPE3
 62
     1
100
AcDbLine
 10
217.575853
 20
545.589637
 30
0.0
 11
215.975853
 21
545.589637
 31
0.0
  0
LINE
  5
484
100
AcDbEntity
  8
LAY-1
  6
EXLTYPE3
 62
     1
100
AcDbLine
 10
217.575853
 20
560.589637
 30
0.0
 11
217.575853
 21
545.589637
 31
0.0
  0
LINE
  5
485
100
AcDbEntity
  8
LAY-1
  6
EXLTYPE3
 62
     1
100
AcDbLine
 10
215.975853
 20
560.589637
 30
0.0
 11
217.575853
 21
560.589637
 31
0.0
  0
ARC
  5
486
100
AcDbEntity
  8
LAY-1
  6
CONTINUOUS
 62
     1
100
AcDbCircle
 10
224.075853
 20
553.089637
 30
0.0
 40
5.75
100
AcDbArc
 50
270.0
 51
90.0
  0
LINE
  5
487
100
AcDbEntity
  8
LAY-1
  6
CONTINUOUS
 62
     2
100
AcDbLine
 10
215.975853
 20
611.387505
 30
0.0
 11
215.975853
 21
537.0
 31
0.0
  0
LINE
  5
488
100
AcDbEntity
  8
LAY-1
  6
EXLTYPE3
 62
     1
100
AcDbLine
 10
218.475853
 20
544.750853
 30
0.0
 11
218.475853
 21
533.454271
 31
0.0
  0
LINE
  5
489
100
AcDbEntity
  8
LAY-1
  6
CONTINUOUS
 62
     2
100
AcDbLine
 10
221.475853
 20
665.114675
 30
0.0
 11
221.475853
 21
686.943657
 31
0.0
  0
LINE
  5
48A
100
AcDbEntity
  8
LAY-1
  6
CONTINUOUS
 62
     2
100
AcDbLine
 10
221.475853
 20
603.885325
 30
0.0
 11
221.475853
 21
650.114675
 31
0.0
  0
LINE
  5
48B
100
AcDbEntity
  8
LAY-1
  6
CONTINUOUS
 62
     2
100
AcDbLine
 10
221.475853
 20
567.056343
 30
0.0
 11
221.475853
 21
588.885325
 31
0.0
  0
LINE
  5
48C
100
AcDbEntity
  8
LAY-1
  6
CONTINUOUS
 62
     2
100
AcDbLine
 10
224.875853
 20
559.14967
 30
0.0
 11
224.075853
 21
559.14967
 31
0.0
  0
LINE
  5
48D
100
AcDbEntity
  8
LAY-1
  6
CONTINUOUS
 62
     2
100
AcDbLine
 10
229.475853
 20
537.5
 30
0.0
 11
229.475853
 21
551.114163
 31
0.0
  0
ARC
  5
48E
100
AcDbEntity
  8
LAY-1
  6
CONTINUOUS
 62
     2
100
AcDbCircle
 10
227.475853
 20
559.828427
 30
0.0
 40
2.0
100
AcDbArc
 50
180.0
 51
220.802975
  0
LINE
  5
48F
100
AcDbEntity
  8
LAY-1
  6
EXLTYPE3
 62
     1
100
AcDbLine
 10
168.475853
 20
772.0
 30
0.0
 11
168.475853
 21
459.634685
 31
0.0
  0
LINE
  5
490
100
AcDbEntity
  8
LAY-1
  6
CONTINUOUS
 62
     2
100
AcDbLine
 10
229.475853
 20
478.0
 30
0.0
 11
235.975853
 21
478.0
 31
0.0
  0
LINE
  5
491
100
AcDbEntity
  8
LAY-1
  6
CONTINUOUS
 62
     2
100
AcDbLine
 10
212.475853
 20
498.0
 30
0.0
 11
204.475853
 21
498.0
 31
0.0
  0
LINE
  5
492
100
AcDbEntity
  8
LAY-1
  6
CONTINUOUS
 62
     2
100
AcDbLine
 10
229.475853
 20
479.0
 30
0.0
 11
212.475853
 21
479.0
 31
0.0
  0
LINE
  5
493
100
AcDbEntity
  8
LAY-1
  6
CONTINUOUS
 62
     2
100
AcDbLine
 10
204.475853
 20
498.0
 30
0.0
 11
204.475853
 21
512.0
 31
0.0
  0
LINE
  5
494
100
AcDbEntity
  8
LAY-1
  6
CONTINUOUS
 62
     2
100
AcDbLine
 10
200.475853
 20
498.387125
 30
0.0
 11
204.475853
 21
498.262125
 31
0.0
  0
ARC
  5
495
100
AcDbEntity
  8
LAY-1
  6
CONTINUOUS
 62
     2
100
AcDbCircle
 10
198.475853
 20
495.5
 30
0.0
 40
2.0
100
AcDbArc
 50
270.0
 51
0.0
  0
LINE
  5
496
100
AcDbEntity
  8
LAY-1
  6
CONTINUOUS
 62
     2
100
AcDbLine
 10
204.475853
 20
512.0
 30
0.0
 11
212.475853
 21
512.0
 31
0.0
  0
LINE
  5
497
100
AcDbEntity
  8
LAY-1
  6
CONTINUOUS
 62
     2
100
AcDbLine
 10
212.475853
 20
479.0
 30
0.0
 11
212.475853
 21
531.0
 31
0.0
  0
LINE
  5
498
100
AcDbEntity
  8
LAY-1
  6
CONTINUOUS
 62
     2
100
AcDbLine
 10
229.475853
 20
532.0
 30
0.0
 11
229.475853
 21
478.0
 31
0.0
  0
LINE
  5
499
100
AcDbEntity
  8
LAY-1
  6
CONTINUOUS
 62
     2
100
AcDbLine
 10
235.975853
 20
478.0
 30
0.0
 11
235.975853
 21
532.0
 31
0.0
  0
LINE
  5
49A
100
AcDbEntity
  8
LAY-1
  6
CONTINUOUS
 62
     2
100
AcDbLine
 10
200.475853
 20
511.612875
 30
0.0
 11
204.475853
 21
511.737875
 31
0.0
  0
LINE
  5
49B
100
AcDbEntity
  8
LAY-1
  6
CONTINUOUS
 62
     2
100
AcDbLine
 10
200.475853
 20
495.5
 30
0.0
 11
200.475853
 21
525.0
 31
0.0
  0
LINE
  5
49C
100
AcDbEntity
  8
LAY-1
  6
CONTINUOUS
 62
     2
100
AcDbLine
 10
138.475853
 20
493.5
 30
0.0
 11
198.475853
 21
493.5
 31
0.0
  0
LINE
  5
49D
100
AcDbEntity
  8
LAY-1
  6
CONTINUOUS
 62
     2
100
AcDbLine
 10
136.475853
 20
495.5
 30
0.0
 11
136.475853
 21
525.0
 31
0.0
  0
LINE
  5
49E
100
AcDbEntity
  8
LAY-1
  6
CONTINUOUS
 62
     2
100
AcDbLine
 10
124.475853
 20
498.0
 30
0.0
 11
132.475853
 21
498.0
 31
0.0
  0
LINE
  5
49F
100
AcDbEntity
  8
LAY-1
  6
CONTINUOUS
 62
     2
100
AcDbLine
 10
136.475853
 20
498.387125
 30
0.0
 11
132.475853
 21
498.262125
 31
0.0
  0
ARC
  5
4A0
100
AcDbEntity
  8
LAY-1
  6
CONTINUOUS
 62
     2
100
AcDbCircle
 10
138.475853
 20
495.5
 30
0.0
 40
2.0
100
AcDbArc
 50
180.0
 51
270.0
  0
LINE
  5
4A1
100
AcDbEntity
  8
LAY-1
  6
CONTINUOUS
 62
     2
100
AcDbLine
 10
124.475853
 20
498.0
 30
0.0
 11
124.475853
 21
512.0
 31
0.0
  0
LINE
  5
4A2
100
AcDbEntity
  8
LAY-1
  6
CONTINUOUS
 62
     2
100
AcDbLine
 10
132.475853
 20
498.0
 30
0.0
 11
132.475853
 21
512.0
 31
0.0
  0
LINE
  5
4A3
100
AcDbEntity
  8
LAY-1
  6
CONTINUOUS
 62
     2
100
AcDbLine
 10
168.475853
 20
467.0
 30
0.0
 11
153.729526
 21
466.998108
 31
0.0
  0
LINE
  5
4A4
100
AcDbEntity
  8
LAY-1
  6
CONTINUOUS
 62
     2
100
AcDbLine
 10
152.200525
 20
468.589191
 30
0.0
 11
153.729526
 21
466.998108
 31
0.0
  0
LINE
  5
4A5
100
AcDbEntity
  8
LAY-1
  6
CONTINUOUS
 62
     2
100
AcDbLine
 10
168.475853
 20
467.0
 30
0.0
 11
183.22224
 21
467.0
 31
0.0
  0
LINE
  5
4A6
100
AcDbEntity
  8
LAY-1
  6
CONTINUOUS
 62
     2
100
AcDbLine
 10
185.336221
 20
489.101247
 30
0.0
 11
184.751182
 21
468.589191
 31
0.0
  0
LINE
  5
4A7
100
AcDbEntity
  8
LAY-1
  6
CONTINUOUS
 62
     2
100
AcDbLine
 10
184.751182
 20
468.589191
 30
0.0
 11
183.22224
 21
467.0
 31
0.0
  0
LINE
  5
4A8
100
AcDbEntity
  8
LAY-1
  6
CONTINUOUS
 62
     2
100
AcDbLine
 10
151.615486
 20
489.101247
 30
0.0
 11
152.200525
 21
468.589191
 31
0.0
  0
LINE
  5
4A9
100
AcDbEntity
  8
LAY-1
  6
CONTINUOUS
 62
     2
100
AcDbLine
 10
185.27629
 20
487.0
 30
0.0
 11
183.850765
 21
487.0
 31
0.0
  0
LINE
  5
4AA
100
AcDbEntity
  8
LAY-1
  6
CONTINUOUS
 62
     2
100
AcDbLine
 10
151.675417
 20
487.0
 30
0.0
 11
153.100942
 21
487.0
 31
0.0
  0
ARC
  5
4AB
100
AcDbEntity
  8
LAY-1
  6
CONTINUOUS
 62
     2
100
AcDbCircle
 10
147.475853
 20
489.5
 30
0.0
 40
4.0
100
AcDbArc
 50
0.0
 51
90.0
  0
ARC
  5
4AC
100
AcDbEntity
  8
LAY-1
  6
CONTINUOUS
 62
     2
100
AcDbCircle
 10
189.475853
 20
489.5
 30
0.0
 40
4.0
100
AcDbArc
 50
90.0
 51
180.0
  0
LINE
  5
4AD
100
AcDbEntity
  8
LAY-1
  6
CONTINUOUS
 62
     1
100
AcDbLine
 10
185.414904
 20
489.709168
 30
0.0
 11
183.850765
 21
487.0
 31
0.0
  0
LINE
  5
4AE
100
AcDbEntity
  8
LAY-1
  6
CONTINUOUS
 62
     1
100
AcDbLine
 10
183.22224
 20
467.0
 30
0.0
 11
183.850765
 21
487.0
 31
0.0
  0
LINE
  5
4AF
100
AcDbEntity
  8
LAY-1
  6
CONTINUOUS
 62
     1
100
AcDbLine
 10
151.536803
 20
489.709168
 30
0.0
 11
153.100942
 21
487.0
 31
0.0
  0
LINE
  5
4B0
100
AcDbEntity
  8
LAY-1
  6
CONTINUOUS
 62
     1
100
AcDbLine
 10
153.729526
 20
466.998108
 30
0.0
 11
153.100942
 21
487.0
 31
0.0
  0
ARC
  5
4B1
100
AcDbEntity
  8
LAY-1
  6
CONTINUOUS
 62
     2
100
AcDbCircle
 10
872.0
 20
1183.234685
 30
0.0
 40
1.0
100
AcDbArc
 50
0.0
 51
90.0
  0
LINE
  5
4B2
100
AcDbEntity
  8
LAY-1
  6
CONTINUOUS
 62
     2
100
AcDbLine
 10
891.6058
 20
1148.778246
 30
0.0
 11
874.3942
 21
1148.778246
 31
0.0
  0
LINE
  5
4B3
100
AcDbEntity
  8
LAY-1
  6
CONTINUOUS
 62
     2
100
AcDbLine
 10
891.64425
 20
1144.31227
 30
0.0
 11
874.35575
 21
1144.31227
 31
0.0
  0
LINE
  5
4B4
100
AcDbEntity
  8
LAY-1
  6
CONTINUOUS
 62
     2
100
AcDbLine
 10
874.35575
 20
1144.31227
 30
0.0
 11
874.3942
 21
1148.778246
 31
0.0
  0
LINE
  5
4B5
100
AcDbEntity
  8
LAY-1
  6
CONTINUOUS
 62
     2
100
AcDbLine
 10
874.35575
 20
1176.157101
 30
0.0
 11
874.3942
 21
1171.691125
 31
0.0
  0
LINE
  5
4B6
100
AcDbEntity
  8
LAY-1
  6
CONTINUOUS
 62
     2
100
AcDbLine
 10
891.64425
 20
1176.157101
 30
0.0
 11
874.35575
 21
1176.157101
 31
0.0
  0
LINE
  5
4B7
100
AcDbEntity
  8
LAY-1
  6
CONTINUOUS
 62
     2
100
AcDbLine
 10
891.6058
 20
1171.691125
 30
0.0
 11
874.3942
 21
1171.691125
 31
0.0
  0
ARC
  5
4B8
100
AcDbEntity
  8
LAY-1
  6
CONTINUOUS
 62
     2
100
AcDbCircle
 10
920.76709
 20
1160.234685
 30
0.0
 40
47.76709
100
AcDbArc
 50
166.122927
 51
193.877073
  0
ARC
  5
4B9
100
AcDbEntity
  8
LAY-1
  6
CONTINUOUS
 62
     2
100
AcDbCircle
 10
872.0
 20
1137.234685
 30
0.0
 40
1.0
100
AcDbArc
 50
270.0
 51
0.0
  0
LINE
  5
4BA
100
AcDbEntity
  8
LAY-1
  6
CONTINUOUS
 62
     2
100
AcDbLine
 10
874.443376
 20
1132.734685
 30
0.0
 11
891.556624
 21
1132.734685
 31
0.0
  0
LINE
  5
4BB
100
AcDbEntity
  8
LAY-1
  6
CONTINUOUS
 62
     2
100
AcDbLine
 10
893.0
 20
1135.234685
 30
0.0
 11
893.0
 21
1160.234685
 31
0.0
  0
LINE
  5
4BC
100
AcDbEntity
  8
LAY-1
  6
CONTINUOUS
 62
     2
100
AcDbLine
 10
873.0
 20
1135.234685
 30
0.0
 11
874.442829
 21
1132.735633
 31
0.0
  0
ARC
  5
4BD
100
AcDbEntity
  8
LAY-1
  6
CONTINUOUS
 62
     2
100
AcDbCircle
 10
880.220886
 20
1138.58405
 30
0.0
 40
12.779114
100
AcDbArc
 50
332.705771
 51
26.63137
  0
LINE
  5
4BE
100
AcDbEntity
  8
LAY-1
  6
CONTINUOUS
 62
     2
100
AcDbLine
 10
873.0
 20
1160.234685
 30
0.0
 11
873.0
 21
1135.234685
 31
0.0
  0
LINE
  5
4BF
100
AcDbEntity
  8
LAY-1
  6
CONTINUOUS
 62
     2
100
AcDbLine
 10
893.0
 20
1135.234685
 30
0.0
 11
891.557171
 21
1132.735633
 31
0.0
  0
ARC
  5
4C0
100
AcDbEntity
  8
LAY-1
  6
CONTINUOUS
 62
     2
100
AcDbCircle
 10
885.779114
 20
1138.58405
 30
0.0
 40
12.779114
100
AcDbArc
 50
153.36863
 51
207.294229
  0
ARC
  5
4C1
100
AcDbEntity
  8
LAY-1
  6
CONTINUOUS
 62
     2
100
AcDbCircle
 10
885.779114
 20
1181.885321
 30
0.0
 40
12.779114
100
AcDbArc
 50
152.705771
 51
206.63137
  0
LINE
  5
4C2
100
AcDbEntity
  8
LAY-1
  6
CONTINUOUS
 62
     2
100
AcDbLine
 10
893.0
 20
1185.234685
 30
0.0
 11
891.557171
 21
1187.733738
 31
0.0
  0
LINE
  5
4C3
100
AcDbEntity
  8
LAY-1
  6
CONTINUOUS
 62
     2
100
AcDbLine
 10
873.0
 20
1160.234685
 30
0.0
 11
873.0
 21
1185.234685
 31
0.0
  0
LINE
  5
4C4
100
AcDbEntity
  8
LAY-1
  6
CONTINUOUS
 62
     2
100
AcDbLine
 10
873.0
 20
1185.234685
 30
0.0
 11
874.442829
 21
1187.733738
 31
0.0
  0
LINE
  5
4C5
100
AcDbEntity
  8
LAY-1
  6
CONTINUOUS
 62
     2
100
AcDbLine
 10
893.0
 20
1185.234685
 30
0.0
 11
893.0
 21
1160.234685
 31
0.0
  0
LINE
  5
4C6
100
AcDbEntity
  8
LAY-1
  6
CONTINUOUS
 62
     2
100
AcDbLine
 10
874.443376
 20
1187.734685
 30
0.0
 11
891.556624
 21
1187.734685
 31
0.0
  0
ARC
  5
4C7
100
AcDbEntity
  8
LAY-1
  6
CONTINUOUS
 62
     2
100
AcDbCircle
 10
880.220886
 20
1181.885321
 30
0.0
 40
12.779114
100
AcDbArc
 50
333.36863
 51
27.294229
  0
LINE
  5
4C8
100
AcDbEntity
  8
LAY-1
  6
CONTINUOUS
 62
     2
100
AcDbLine
 10
938.0
 20
1188.234685
 30
0.0
 11
938.0
 21
1132.234685
 31
0.0
  0
ARC
  5
4C9
100
AcDbEntity
  8
LAY-1
  6
CONTINUOUS
 62
     2
100
AcDbCircle
 10
924.0
 20
1208.234685
 30
0.0
 40
2.0
100
AcDbArc
 50
90.0
 51
180.0
  0
LINE
  5
4CA
100
AcDbEntity
  8
LAY-1
  6
CONTINUOUS
 62
     2
100
AcDbLine
 10
938.0
 20
1160.234685
 30
0.0
 11
938.0
 21
1188.234685
 31
0.0
  0
LINE
  5
4CB
100
AcDbEntity
  8
LAY-1
  6
CONTINUOUS
 62
     2
100
AcDbLine
 10
937.0
 20
1210.234685
 30
0.0
 11
924.0
 21
1210.234685
 31
0.0
  0
LINE
  5
4CC
100
AcDbEntity
  8
LAY-1
  6
CONTINUOUS
 62
     2
100
AcDbLine
 10
922.0
 20
1112.234685
 30
0.0
 11
922.0
 21
1134.070117
 31
0.0
  0
ARC
  5
4CD
100
AcDbEntity
  8
LAY-1
  6
CONTINUOUS
 62
     2
100
AcDbCircle
 10
924.0
 20
1112.234685
 30
0.0
 40
2.0
100
AcDbArc
 50
180.0
 51
270.0
  0
LINE
  5
4CE
100
AcDbEntity
  8
LAY-1
  6
CONTINUOUS
 62
     2
100
AcDbLine
 10
938.0
 20
1160.234685
 30
0.0
 11
938.0
 21
1132.234685
 31
0.0
  0
LINE
  5
4CF
100
AcDbEntity
  8
LAY-1
  6
CONTINUOUS
 62
     2
100
AcDbLine
 10
937.0
 20
1110.234685
 30
0.0
 11
924.0
 21
1110.234685
 31
0.0
  0
ARC
  5
4D0
100
AcDbEntity
  8
LAY-1
  6
CONTINUOUS
 62
     2
100
AcDbCircle
 10
938.0
 20
1131.234685
 30
0.0
 40
1.0
100
AcDbArc
 50
90.0
 51
180.0
  0
LINE
  5
4D1
100
AcDbEntity
  8
LAY-1
  6
CONTINUOUS
 62
     2
100
AcDbLine
 10
937.0
 20
1131.234685
 30
0.0
 11
937.0
 21
1110.234685
 31
0.0
  0
ARC
  5
4D2
100
AcDbEntity
  8
LAY-1
  6
CONTINUOUS
 62
     2
100
AcDbCircle
 10
938.0
 20
1189.234685
 30
0.0
 40
1.0
100
AcDbArc
 50
180.0
 51
270.0
  0
ARC
  5
4D3
100
AcDbEntity
  8
LAY-1
  6
CONTINUOUS
 62
     2
100
AcDbCircle
 10
912.0
 20
1134.070117
 30
0.0
 40
10.0
100
AcDbArc
 50
0.0
 51
77.308125
  0
ARC
  5
4D4
100
AcDbEntity
  8
LAY-1
  6
CONTINUOUS
 62
     2
100
AcDbCircle
 10
912.0
 20
1186.399254
 30
0.0
 40
10.0
100
AcDbArc
 50
282.691875
 51
0.0
  0
LINE
  5
4D5
100
AcDbEntity
  8
LAY-1
  6
CONTINUOUS
 62
     2
100
AcDbLine
 10
937.0
 20
1127.834685
 30
0.0
 11
937.0
 21
1210.234685
 31
0.0
  0
LINE
  5
4D6
100
AcDbEntity
  8
LAY-1
  6
CONTINUOUS
 62
     2
100
AcDbLine
 10
922.0
 20
1208.234685
 30
0.0
 11
922.0
 21
1130.234685
 31
0.0
  0
LINE
  5
4D7
100
AcDbEntity
  8
LAY-1
  6
CONTINUOUS
 62
     2
100
AcDbLine
 10
914.197079
 20
1176.643597
 30
0.0
 11
902.5
 21
1174.009289
 31
0.0
  0
LINE
  5
4D8
100
AcDbEntity
  8
LAY-1
  6
CONTINUOUS
 62
     2
100
AcDbLine
 10
914.197079
 20
1143.825774
 30
0.0
 11
902.5
 21
1146.460082
 31
0.0
  0
LINE
  5
4D9
100
AcDbEntity
  8
LAY-1
  6
CONTINUOUS
 62
     2
100
AcDbLine
 10
891.64425
 20
1144.31227
 30
0.0
 11
891.6058
 21
1148.778246
 31
0.0
  0
LINE
  5
4DA
100
AcDbEntity
  8
LAY-1
  6
CONTINUOUS
 62
     2
100
AcDbLine
 10
891.64425
 20
1176.157101
 30
0.0
 11
891.6058
 21
1171.691125
 31
0.0
  0
ARC
  5
4DB
100
AcDbEntity
  8
LAY-1
  6
CONTINUOUS
 62
     2
100
AcDbCircle
 10
845.23291
 20
1160.234685
 30
0.0
 40
47.76709
100
AcDbArc
 50
346.122927
 51
13.877073
  0
LINE
  5
4DC
100
AcDbEntity
  8
LAY-1
  6
CONTINUOUS
 62
     2
100
AcDbLine
 10
897.5
 20
1146.889185
 30
0.0
 11
897.5
 21
1148.051753
 31
0.0
  0
LINE
  5
4DD
100
AcDbEntity
  8
LAY-1
  6
CONTINUOUS
 62
     2
100
AcDbLine
 10
901.549569
 20
1146.762636
 30
0.0
 11
902.5
 21
1146.460082
 31
0.0
  0
LINE
  5
4DE
100
AcDbEntity
  8
LAY-1
  6
CONTINUOUS
 62
     2
100
AcDbLine
 10
901.549569
 20
1173.706734
 30
0.0
 11
902.5
 21
1174.009289
 31
0.0
  0
LINE
  5
4DF
100
AcDbEntity
  8
LAY-1
  6
CONTINUOUS
 62
     2
100
AcDbLine
 10
897.5
 20
1146.889185
 30
0.0
 11
897.5
 21
1173.580185
 31
0.0
  0
LINE
  5
4E0
100
AcDbEntity
  8
LAY-1
  6
CONTINUOUS
 62
     2
100
AcDbLine
 10
901.549569
 20
1173.706734
 30
0.0
 11
893.0
 21
1173.43956
 31
0.0
  0
LINE
  5
4E1
100
AcDbEntity
  8
LAY-1
  6
CONTINUOUS
 62
     2
100
AcDbLine
 10
901.549569
 20
1146.762636
 30
0.0
 11
893.0
 21
1147.02981
 31
0.0
  0
LINE
  5
4E2
100
AcDbEntity
  8
LAY-1
  6
CONTINUOUS
 62
     1
100
AcDbLine
 10
897.5
 20
1172.417618
 30
0.0
 11
901.549569
 21
1173.706734
 31
0.0
  0
LINE
  5
4E3
100
AcDbEntity
  8
LAY-1
  6
CONTINUOUS
 62
     1
100
AcDbLine
 10
897.5
 20
1172.417618
 30
0.0
 11
893.0
 21
1172.276993
 31
0.0
  0
LINE
  5
4E4
100
AcDbEntity
  8
LAY-1
  6
CONTINUOUS
 62
     1
100
AcDbLine
 10
897.5
 20
1148.051753
 30
0.0
 11
901.549569
 21
1146.762636
 31
0.0
  0
LINE
  5
4E5
100
AcDbEntity
  8
LAY-1
  6
CONTINUOUS
 62
     1
100
AcDbLine
 10
897.5
 20
1148.051753
 30
0.0
 11
893.0
 21
1148.192378
 31
0.0
  0
LINE
  5
4E6
100
AcDbEntity
  8
LAY-1
  6
CONTINUOUS
 62
     1
100
AcDbLine
 10
648.5
 20
1148.051753
 30
0.0
 11
644.450431
 21
1146.762636
 31
0.0
  0
LINE
  5
4E7
100
AcDbEntity
  8
LAY-1
  6
CONTINUOUS
 62
     1
100
AcDbLine
 10
648.5
 20
1148.051753
 30
0.0
 11
653.0
 21
1148.192378
 31
0.0
  0
LINE
  5
4E8
100
AcDbEntity
  8
LAY-1
  6
CONTINUOUS
 62
     1
100
AcDbLine
 10
648.5
 20
1172.417618
 30
0.0
 11
644.450431
 21
1173.706734
 31
0.0
  0
LINE
  5
4E9
100
AcDbEntity
  8
LAY-1
  6
CONTINUOUS
 62
     1
100
AcDbLine
 10
648.5
 20
1172.417618
 30
0.0
 11
653.0
 21
1172.276993
 31
0.0
  0
LINE
  5
4EA
100
AcDbEntity
  8
LAY-1
  6
CONTINUOUS
 62
     2
100
AcDbLine
 10
644.450431
 20
1146.762636
 30
0.0
 11
653.0
 21
1147.02981
 31
0.0
  0
LINE
  5
4EB
100
AcDbEntity
  8
LAY-1
  6
CONTINUOUS
 62
     2
100
AcDbLine
 10
644.450431
 20
1173.706734
 30
0.0
 11
653.0
 21
1173.43956
 31
0.0
  0
LINE
  5
4EC
100
AcDbEntity
  8
LAY-1
  6
CONTINUOUS
 62
     2
100
AcDbLine
 10
648.5
 20
1146.889185
 30
0.0
 11
648.5
 21
1173.580185
 31
0.0
  0
LINE
  5
4ED
100
AcDbEntity
  8
LAY-1
  6
CONTINUOUS
 62
     2
100
AcDbLine
 10
624.0
 20
1208.234685
 30
0.0
 11
624.0
 21
1130.234685
 31
0.0
  0
LINE
  5
4EE
100
AcDbEntity
  8
LAY-1
  6
CONTINUOUS
 62
     2
100
AcDbLine
 10
609.0
 20
1127.834685
 30
0.0
 11
609.0
 21
1210.234685
 31
0.0
  0
LINE
  5
4EF
100
AcDbEntity
  8
LAY-1
  6
CONTINUOUS
 62
     2
100
AcDbLine
 10
644.450431
 20
1173.706734
 30
0.0
 11
643.5
 21
1174.009289
 31
0.0
  0
LINE
  5
4F0
100
AcDbEntity
  8
LAY-1
  6
CONTINUOUS
 62
     2
100
AcDbLine
 10
644.450431
 20
1146.762636
 30
0.0
 11
643.5
 21
1146.460082
 31
0.0
  0
LINE
  5
4F1
100
AcDbEntity
  8
LAY-1
  6
CONTINUOUS
 62
     2
100
AcDbLine
 10
648.5
 20
1146.889185
 30
0.0
 11
648.5
 21
1148.051753
 31
0.0
  0
ARC
  5
4F2
100
AcDbEntity
  8
LAY-1
  6
CONTINUOUS
 62
     2
100
AcDbCircle
 10
634.0
 20
1186.399254
 30
0.0
 40
10.0
100
AcDbArc
 50
180.0
 51
257.308125
  0
LINE
  5
4F3
100
AcDbEntity
  8
LAY-1
  6
CONTINUOUS
 62
     2
100
AcDbLine
 10
631.802921
 20
1176.643597
 30
0.0
 11
643.5
 21
1174.009289
 31
0.0
  0
ARC
  5
4F4
100
AcDbEntity
  8
LAY-1
  6
CONTINUOUS
 62
     2
100
AcDbCircle
 10
634.0
 20
1134.070117
 30
0.0
 40
10.0
100
AcDbArc
 50
102.691875
 51
180.0
  0
LINE
  5
4F5
100
AcDbEntity
  8
LAY-1
  6
CONTINUOUS
 62
     2
100
AcDbLine
 10
631.802921
 20
1143.825774
 30
0.0
 11
643.5
 21
1146.460082
 31
0.0
  0
ARC
  5
4F6
100
AcDbEntity
  8
LAY-1
  6
CONTINUOUS
 62
     2
100
AcDbCircle
 10
608.0
 20
1189.234685
 30
0.0
 40
1.0
100
AcDbArc
 50
270.0
 51
0.0
  0
LINE
  5
4F7
100
AcDbEntity
  8
LAY-1
  6
CONTINUOUS
 62
     2
100
AcDbLine
 10
609.0
 20
1131.234685
 30
0.0
 11
609.0
 21
1110.234685
 31
0.0
  0
ARC
  5
4F8
100
AcDbEntity
  8
LAY-1
  6
CONTINUOUS
 62
     2
100
AcDbCircle
 10
608.0
 20
1131.234685
 30
0.0
 40
1.0
100
AcDbArc
 50
0.0
 51
90.0
  0
LINE
  5
4F9
100
AcDbEntity
  8
LAY-1
  6
CONTINUOUS
 62
     2
100
AcDbLine
 10
609.0
 20
1110.234685
 30
0.0
 11
622.0
 21
1110.234685
 31
0.0
  0
LINE
  5
4FA
100
AcDbEntity
  8
LAY-1
  6
CONTINUOUS
 62
     2
100
AcDbLine
 10
608.0
 20
1160.234685
 30
0.0
 11
608.0
 21
1132.234685
 31
0.0
  0
ARC
  5
4FB
100
AcDbEntity
  8
LAY-1
  6
CONTINUOUS
 62
     2
100
AcDbCircle
 10
622.0
 20
1112.234685
 30
0.0
 40
2.0
100
AcDbArc
 50
270.0
 51
0.0
  0
LINE
  5
4FC
100
AcDbEntity
  8
LAY-1
  6
CONTINUOUS
 62
     2
100
AcDbLine
 10
624.0
 20
1112.234685
 30
0.0
 11
624.0
 21
1134.070117
 31
0.0
  0
LINE
  5
4FD
100
AcDbEntity
  8
LAY-1
  6
CONTINUOUS
 62
     2
100
AcDbLine
 10
609.0
 20
1210.234685
 30
0.0
 11
622.0
 21
1210.234685
 31
0.0
  0
LINE
  5
4FE
100
AcDbEntity
  8
LAY-1
  6
CONTINUOUS
 62
     2
100
AcDbLine
 10
608.0
 20
1160.234685
 30
0.0
 11
608.0
 21
1188.234685
 31
0.0
  0
ARC
  5
4FF
100
AcDbEntity
  8
LAY-1
  6
CONTINUOUS
 62
     2
100
AcDbCircle
 10
622.0
 20
1208.234685
 30
0.0
 40
2.0
100
AcDbArc
 50
0.0
 51
90.0
  0
LINE
  5
500
100
AcDbEntity
  8
LAY-1
  6
CONTINUOUS
 62
     2
100
AcDbLine
 10
608.0
 20
1188.234685
 30
0.0
 11
608.0
 21
1132.234685
 31
0.0
  0
ARC
  5
501
100
AcDbEntity
  8
LAY-1
  6
CONTINUOUS
 62
     2
100
AcDbCircle
 10
674.0
 20
1183.234685
 30
0.0
 40
1.0
100
AcDbArc
 50
90.0
 51
180.0
  0
LINE
  5
502
100
AcDbEntity
  8
LAY-1
  6
CONTINUOUS
 62
     2
100
AcDbLine
 10
654.35575
 20
1144.31227
 30
0.0
 11
654.3942
 21
1148.778246
 31
0.0
  0
LINE
  5
503
100
AcDbEntity
  8
LAY-1
  6
CONTINUOUS
 62
     2
100
AcDbLine
 10
654.3942
 20
1148.778246
 30
0.0
 11
671.6058
 21
1148.778246
 31
0.0
  0
LINE
  5
504
100
AcDbEntity
  8
LAY-1
  6
CONTINUOUS
 62
     2
100
AcDbLine
 10
654.35575
 20
1144.31227
 30
0.0
 11
671.64425
 21
1144.31227
 31
0.0
  0
LINE
  5
505
100
AcDbEntity
  8
LAY-1
  6
CONTINUOUS
 62
     2
100
AcDbLine
 10
671.64425
 20
1144.31227
 30
0.0
 11
671.6058
 21
1148.778246
 31
0.0
  0
LINE
  5
506
100
AcDbEntity
  8
LAY-1
  6
CONTINUOUS
 62
     2
100
AcDbLine
 10
671.64425
 20
1176.157101
 30
0.0
 11
671.6058
 21
1171.691125
 31
0.0
  0
LINE
  5
507
100
AcDbEntity
  8
LAY-1
  6
CONTINUOUS
 62
     2
100
AcDbLine
 10
654.35575
 20
1176.157101
 30
0.0
 11
671.64425
 21
1176.157101
 31
0.0
  0
LINE
  5
508
100
AcDbEntity
  8
LAY-1
  6
CONTINUOUS
 62
     2
100
AcDbLine
 10
654.3942
 20
1171.691125
 30
0.0
 11
671.6058
 21
1171.691125
 31
0.0
  0
LINE
  5
509
100
AcDbEntity
  8
LAY-1
  6
CONTINUOUS
 62
     2
100
AcDbLine
 10
654.35575
 20
1176.157101
 30
0.0
 11
654.3942
 21
1171.691125
 31
0.0
  0
ARC
  5
50A
100
AcDbEntity
  8
LAY-1
  6
CONTINUOUS
 62
     2
100
AcDbCircle
 10
700.76709
 20
1160.234685
 30
0.0
 40
47.76709
100
AcDbArc
 50
166.122927
 51
193.877073
  0
ARC
  5
50B
100
AcDbEntity
  8
LAY-1
  6
CONTINUOUS
 62
     2
100
AcDbCircle
 10
674.0
 20
1137.234685
 30
0.0
 40
1.0
100
AcDbArc
 50
180.0
 51
270.0
  0
LINE
  5
50C
100
AcDbEntity
  8
LAY-1
  6
CONTINUOUS
 62
     2
100
AcDbLine
 10
671.556624
 20
1132.734685
 30
0.0
 11
654.443376
 21
1132.734685
 31
0.0
  0
LINE
  5
50D
100
AcDbEntity
  8
LAY-1
  6
CONTINUOUS
 62
     2
100
AcDbLine
 10
653.0
 20
1135.234685
 30
0.0
 11
653.0
 21
1160.234685
 31
0.0
  0
LINE
  5
50E
100
AcDbEntity
  8
LAY-1
  6
CONTINUOUS
 62
     2
100
AcDbLine
 10
673.0
 20
1135.234685
 30
0.0
 11
671.557171
 21
1132.735633
 31
0.0
  0
ARC
  5
50F
100
AcDbEntity
  8
LAY-1
  6
CONTINUOUS
 62
     2
100
AcDbCircle
 10
665.779114
 20
1138.58405
 30
0.0
 40
12.779114
100
AcDbArc
 50
153.36863
 51
207.294229
  0
LINE
  5
510
100
AcDbEntity
  8
LAY-1
  6
CONTINUOUS
 62
     2
100
AcDbLine
 10
653.0
 20
1135.234685
 30
0.0
 11
654.442829
 21
1132.735633
 31
0.0
  0
ARC
  5
511
100
AcDbEntity
  8
LAY-1
  6
CONTINUOUS
 62
     2
100
AcDbCircle
 10
660.220886
 20
1181.885321
 30
0.0
 40
12.779114
100
AcDbArc
 50
333.36863
 51
27.294229
  0
LINE
  5
512
100
AcDbEntity
  8
LAY-1
  6
CONTINUOUS
 62
     2
100
AcDbLine
 10
653.0
 20
1185.234685
 30
0.0
 11
654.442829
 21
1187.733738
 31
0.0
  0
ARC
  5
513
100
AcDbEntity
  8
LAY-1
  6
CONTINUOUS
 62
     2
100
AcDbCircle
 10
665.779114
 20
1181.885321
 30
0.0
 40
12.779114
100
AcDbArc
 50
152.705771
 51
206.63137
  0
LINE
  5
514
100
AcDbEntity
  8
LAY-1
  6
CONTINUOUS
 62
     2
100
AcDbLine
 10
673.0
 20
1185.234685
 30
0.0
 11
671.557171
 21
1187.733738
 31
0.0
  0
LINE
  5
515
100
AcDbEntity
  8
LAY-1
  6
CONTINUOUS
 62
     2
100
AcDbLine
 10
653.0
 20
1185.234685
 30
0.0
 11
653.0
 21
1160.234685
 31
0.0
  0
LINE
  5
516
100
AcDbEntity
  8
LAY-1
  6
CONTINUOUS
 62
     2
100
AcDbLine
 10
671.556624
 20
1187.734685
 30
0.0
 11
654.443376
 21
1187.734685
 31
0.0
  0
LINE
  5
517
100
AcDbEntity
  8
LAY-1
  6
CONTINUOUS
 62
     2
100
AcDbLine
 10
872.0
 20
1184.234685
 30
0.0
 11
674.0
 21
1184.234685
 31
0.0
  0
LINE
  5
518
100
AcDbEntity
  8
LAY-1
  6
CONTINUOUS
 62
     2
100
AcDbLine
 10
683.0
 20
1124.934685
 30
0.0
 11
683.0
 21
1113.734685
 31
0.0
  0
ARC
  5
519
100
AcDbEntity
  8
LAY-1
  6
CONTINUOUS
 62
     2
100
AcDbCircle
 10
684.0
 20
1113.734685
 30
0.0
 40
1.0
100
AcDbArc
 50
180.0
 51
270.0
  0
ARC
  5
51A
100
AcDbEntity
  8
LAY-1
  6
CONTINUOUS
 62
     2
100
AcDbCircle
 10
713.056343
 20
1110.234685
 30
0.0
 40
3.0
100
AcDbArc
 50
180.0
 51
270.0
  0
LINE
  5
51B
100
AcDbEntity
  8
LAY-1
  6
CONTINUOUS
 62
     2
100
AcDbLine
 10
710.056343
 20
1110.234685
 30
0.0
 11
710.056343
 21
1110.734685
 31
0.0
  0
ARC
  5
51C
100
AcDbEntity
  8
LAY-1
  6
CONTINUOUS
 62
     2
100
AcDbCircle
 10
708.056343
 20
1110.734685
 30
0.0
 40
2.0
100
AcDbArc
 50
0.0
 51
90.0
  0
ARC
  5
51D
100
AcDbEntity
  8
LAY-1
  6
CONTINUOUS
 62
     2
100
AcDbCircle
 10
722.058273
 20
1099.234685
 30
0.0
 40
8.0
100
AcDbArc
 50
2.061123
 51
90.0
  0
LINE
  5
51E
100
AcDbEntity
  8
LAY-1
  6
CONTINUOUS
 62
     2
100
AcDbLine
 10
734.250926
 20
982.880132
 30
0.0
 11
730.053098
 21
1099.52241
 31
0.0
  0
ARC
  5
51F
100
AcDbEntity
  8
LAY-1
  6
CONTINUOUS
 62
     2
100
AcDbCircle
 10
762.483691
 20
957.655395
 30
0.0
 40
7.419201
100
AcDbArc
 50
270.0
 51
304.003561
  0
ARC
  5
520
100
AcDbEntity
  8
LAY-1
  6
CONTINUOUS
 62
     2
100
AcDbCircle
 10
783.483691
 20
957.655395
 30
0.0
 40
7.419201
100
AcDbArc
 50
235.996439
 51
270.0
  0
LINE
  5
521
100
AcDbEntity
  8
LAY-1
  6
CONTINUOUS
 62
     2
100
AcDbLine
 10
783.483691
 20
950.234685
 30
0.0
 11
785.683691
 21
951.504856
 31
0.0
  0
LINE
  5
522
100
AcDbEntity
  8
LAY-1
  6
CONTINUOUS
 62
     2
100
AcDbLine
 10
766.632838
 20
951.504856
 30
0.0
 11
766.632838
 21
961.234685
 31
0.0
  0
LINE
  5
523
100
AcDbEntity
  8
LAY-1
  6
CONTINUOUS
 62
     2
100
AcDbLine
 10
762.483691
 20
950.234685
 30
0.0
 11
760.283691
 21
951.504856
 31
0.0
  0
ARC
  5
524
100
AcDbEntity
  8
LAY-1
  6
CONTINUOUS
 62
     2
100
AcDbCircle
 10
772.983691
 20
966.746903
 30
0.0
 40
16.512218
100
AcDbArc
 50
247.380135
 51
292.619865
  0
LINE
  5
525
100
AcDbEntity
  8
LAY-1
  6
CONTINUOUS
 62
     2
100
AcDbLine
 10
779.334544
 20
951.504856
 30
0.0
 11
779.334544
 21
961.234685
 31
0.0
  0
LINE
  5
526
100
AcDbEntity
  8
LAY-1
  6
CONTINUOUS
 62
     2
100
AcDbLine
 10
766.0
 20
950.234685
 30
0.0
 11
766.0
 21
937.234685
 31
0.0
  0
LINE
  5
527
100
AcDbEntity
  8
LAY-1
  6
CONTINUOUS
 62
     2
100
AcDbLine
 10
760.283691
 20
951.504856
 30
0.0
 11
760.283691
 21
961.234685
 31
0.0
  0
LINE
  5
528
100
AcDbEntity
  8
LAY-1
  6
CONTINUOUS
 62
     2
100
AcDbLine
 10
783.483691
 20
950.234685
 30
0.0
 11
762.483691
 21
950.234685
 31
0.0
  0
LINE
  5
529
100
AcDbEntity
  8
LAY-1
  6
CONTINUOUS
 62
     2
100
AcDbLine
 10
785.683691
 20
961.234685
 30
0.0
 11
785.683691
 21
951.504856
 31
0.0
  0
ARC
  5
52A
100
AcDbEntity
  8
LAY-1
  6
CONTINUOUS
 62
     2
100
AcDbCircle
 10
782.525
 20
929.961105
 30
0.0
 40
7.273581
100
AcDbArc
 50
63.879595
 51
115.881497
  0
LINE
  5
52B
100
AcDbEntity
  8
LAY-1
  6
CONTINUOUS
 62
     2
100
AcDbLine
 10
784.0
 20
937.234685
 30
0.0
 11
785.724819
 21
936.505136
 31
0.0
  0
LINE
  5
52C
100
AcDbEntity
  8
LAY-1
  6
CONTINUOUS
 62
     2
100
AcDbLine
 10
762.0
 20
937.234685
 30
0.0
 11
760.275181
 21
936.505136
 31
0.0
  0
ARC
  5
52D
100
AcDbEntity
  8
LAY-1
  6
CONTINUOUS
 62
     2
100
AcDbCircle
 10
763.475
 20
929.961105
 30
0.0
 40
7.273581
100
AcDbArc
 50
64.118503
 51
116.120405
  0
ARC
  5
52E
100
AcDbEntity
  8
LAY-1
  6
CONTINUOUS
 62
     2
100
AcDbCircle
 10
773.0
 20
909.234685
 30
0.0
 40
28.0
100
AcDbArc
 50
76.892093
 51
103.107907
  0
LINE
  5
52F
100
AcDbEntity
  8
LAY-1
  6
CONTINUOUS
 62
     2
100
AcDbLine
 10
784.0
 20
937.234685
 30
0.0
 11
762.0
 21
937.234685
 31
0.0
  0
LINE
  5
530
100
AcDbEntity
  8
LAY-1
  6
CONTINUOUS
 62
     2
100
AcDbLine
 10
779.35
 20
928.964234
 30
0.0
 11
779.35
 21
936.505136
 31
0.0
  0
LINE
  5
531
100
AcDbEntity
  8
LAY-1
  6
CONTINUOUS
 62
     2
100
AcDbLine
 10
766.65
 20
928.964234
 30
0.0
 11
766.65
 21
936.505136
 31
0.0
  0
ARC
  5
532
100
AcDbEntity
  8
LAY-1
  6
CONTINUOUS
 62
     2
100
AcDbCircle
 10
782.525
 20
935.508266
 30
0.0
 40
7.273581
100
AcDbArc
 50
244.118503
 51
296.120405
  0
LINE
  5
533
100
AcDbEntity
  8
LAY-1
  6
CONTINUOUS
 62
     2
100
AcDbLine
 10
784.0
 20
928.234685
 30
0.0
 11
785.724819
 21
928.964234
 31
0.0
  0
LINE
  5
534
100
AcDbEntity
  8
LAY-1
  6
CONTINUOUS
 62
     2
100
AcDbLine
 10
762.0
 20
928.234685
 30
0.0
 11
760.275181
 21
928.964234
 31
0.0
  0
LINE
  5
535
100
AcDbEntity
  8
LAY-1
  6
CONTINUOUS
 62
     1
100
AcDbLine
 10
780.0
 20
938.502635
 30
0.0
 11
779.0
 21
940.234685
 31
0.0
  0
ARC
  5
536
100
AcDbEntity
  8
LAY-1
  6
CONTINUOUS
 62
     2
100
AcDbCircle
 10
763.475
 20
935.508266
 30
0.0
 40
7.273581
100
AcDbArc
 50
243.879595
 51
295.881497
  0
LINE
  5
537
100
AcDbEntity
  8
LAY-1
  6
CONTINUOUS
 62
     1
100
AcDbLine
 10
767.0
 20
940.234685
 30
0.0
 11
766.0
 21
938.502635
 31
0.0
  0
ARC
  5
538
100
AcDbEntity
  8
LAY-1
  6
CONTINUOUS
 62
     2
100
AcDbCircle
 10
773.0
 20
956.234685
 30
0.0
 40
28.0
100
AcDbArc
 50
256.892093
 51
283.107907
  0
LINE
  5
539
100
AcDbEntity
  8
LAY-1
  6
CONTINUOUS
 62
     1
100
AcDbLine
 10
767.0
 20
940.234685
 30
0.0
 11
767.0
 21
950.234685
 31
0.0
  0
LINE
  5
53A
100
AcDbEntity
  8
LAY-1
  6
CONTINUOUS
 62
     1
100
AcDbLine
 10
779.0
 20
940.234685
 30
0.0
 11
779.0
 21
950.234685
 31
0.0
  0
LINE
  5
53B
100
AcDbEntity
  8
LAY-1
  6
CONTINUOUS
 62
     2
100
AcDbLine
 10
780.0
 20
940.234685
 30
0.0
 11
766.0
 21
940.234685
 31
0.0
  0
LINE
  5
53C
100
AcDbEntity
  8
LAY-1
  6
CONTINUOUS
 62
     2
100
AcDbLine
 10
780.0
 20
937.234685
 30
0.0
 11
780.0
 21
950.234685
 31
0.0
  0
LINE
  5
53D
100
AcDbEntity
  8
LAY-1
  6
CONTINUOUS
 62
     2
100
AcDbLine
 10
785.7
 20
936.491841
 30
0.0
 11
785.7
 21
928.953737
 31
0.0
  0
LINE
  5
53E
100
AcDbEntity
  8
LAY-1
  6
CONTINUOUS
 62
     2
100
AcDbLine
 10
760.3
 20
928.97753
 30
0.0
 11
760.3
 21
936.515634
 31
0.0
  0
LINE
  5
53F
100
AcDbEntity
  8
LAY-1
  6
CONTINUOUS
 62
     2
100
AcDbLine
 10
784.0
 20
928.234685
 30
0.0
 11
762.0
 21
928.234685
 31
0.0
  0
LINE
  5
540
100
AcDbEntity
  8
LAY-1
  6
CONTINUOUS
 62
     2
100
AcDbLine
 10
762.0
 20
937.234685
 30
0.0
 11
784.0
 21
937.234685
 31
0.0
  0
ARC
  5
541
100
AcDbEntity
  8
LAY-1
  6
CONTINUOUS
 62
     2
100
AcDbCircle
 10
753.465689
 20
962.234685
 30
0.0
 40
1.0
100
AcDbArc
 50
182.0
 51
270.0
  0
ARC
  5
542
100
AcDbEntity
  8
LAY-1
  6
CONTINUOUS
 62
     2
100
AcDbCircle
 10
792.534311
 20
962.234685
 30
0.0
 40
1.0
100
AcDbArc
 50
270.0
 51
358.0
  0
LINE
  5
543
100
AcDbEntity
  8
LAY-1
  6
CONTINUOUS
 62
     2
100
AcDbLine
 10
773.0
 20
961.234685
 30
0.0
 11
753.465689
 21
961.234685
 31
0.0
  0
LINE
  5
544
100
AcDbEntity
  8
LAY-1
  6
CONTINUOUS
 62
     2
100
AcDbLine
 10
773.0
 20
961.234685
 30
0.0
 11
792.534311
 21
961.234685
 31
0.0
  0
LINE
  5
545
100
AcDbEntity
  8
LAY-1
  6
CONTINUOUS
 62
     2
100
AcDbLine
 10
752.466298
 20
962.199786
 30
0.0
 11
752.191266
 21
970.07567
 31
0.0
  0
ARC
  5
546
100
AcDbEntity
  8
LAY-1
  6
CONTINUOUS
 62
     2
100
AcDbCircle
 10
750.192484
 20
970.005871
 30
0.0
 40
2.0
100
AcDbArc
 50
2.0
 51
80.0
  0
ARC
  5
547
100
AcDbEntity
  8
LAY-1
  6
CONTINUOUS
 62
     2
100
AcDbCircle
 10
795.807516
 20
970.005871
 30
0.0
 40
2.0
100
AcDbArc
 50
100.0
 51
178.0
  0
LINE
  5
548
100
AcDbEntity
  8
LAY-1
  6
CONTINUOUS
 62
     2
100
AcDbLine
 10
793.533702
 20
962.199786
 30
0.0
 11
793.808734
 21
970.07567
 31
0.0
  0
LINE
  5
549
100
AcDbEntity
  8
LAY-1
  6
CONTINUOUS
 62
     2
100
AcDbLine
 10
750.539781
 20
971.975487
 30
0.0
 11
742.507974
 21
973.391711
 31
0.0
  0
ARC
  5
54A
100
AcDbEntity
  8
LAY-1
  6
CONTINUOUS
 62
     2
100
AcDbCircle
 10
744.244456
 20
983.239789
 30
0.0
 40
10.0
100
AcDbArc
 50
182.061123
 51
260.0
  0
ARC
  5
54B
100
AcDbEntity
  8
LAY-1
  6
CONTINUOUS
 62
     2
100
AcDbCircle
 10
801.755544
 20
983.239789
 30
0.0
 40
10.0
100
AcDbArc
 50
280.0
 51
357.938877
  0
LINE
  5
54C
100
AcDbEntity
  8
LAY-1
  6
CONTINUOUS
 62
     2
100
AcDbLine
 10
794.957121
 20
971.886777
 30
0.0
 11
803.492026
 21
973.391711
 31
0.0
  0
LINE
  5
54D
100
AcDbEntity
  8
LAY-1
  6
CONTINUOUS
 62
     2
100
AcDbLine
 10
792.534311
 20
971.534685
 30
0.0
 11
753.465689
 21
971.534685
 31
0.0
  0
LINE
  5
54E
100
AcDbEntity
  8
LAY-1
  6
CONTINUOUS
 62
     2
100
AcDbLine
 10
811.749074
 20
982.880132
 30
0.0
 11
815.946902
 21
1099.52241
 31
0.0
  0
ARC
  5
54F
100
AcDbEntity
  8
LAY-1
  6
CONTINUOUS
 62
     2
100
AcDbCircle
 10
823.941727
 20
1099.234685
 30
0.0
 40
8.0
100
AcDbArc
 50
90.0
 51
177.938877
  0
LINE
  5
550
100
AcDbEntity
  8
LAY-1
  6
CONTINUOUS
 62
     2
100
AcDbLine
 10
684.0
 20
1112.734685
 30
0.0
 11
862.0
 21
1112.734685
 31
0.0
  0
LINE
  5
551
100
AcDbEntity
  8
LAY-1
  6
CONTINUOUS
 62
     2
100
AcDbLine
 10
683.0
 20
1124.934685
 30
0.0
 11
863.0
 21
1124.934685
 31
0.0
  0
LINE
  5
552
100
AcDbEntity
  8
LAY-1
  6
CONTINUOUS
 62
     2
100
AcDbLine
 10
697.5
 20
1125.234685
 30
0.0
 11
697.5
 21
1124.934685
 31
0.0
  0
ARC
  5
553
100
AcDbEntity
  8
LAY-1
  6
CONTINUOUS
 62
     2
100
AcDbCircle
 10
685.0
 20
1136.734685
 30
0.0
 40
2.0
100
AcDbArc
 50
90.0
 51
180.0
  0
LINE
  5
554
100
AcDbEntity
  8
LAY-1
  6
CONTINUOUS
 62
     2
100
AcDbLine
 10
683.0
 20
1136.734685
 30
0.0
 11
683.0
 21
1125.234685
 31
0.0
  0
LINE
  5
555
100
AcDbEntity
  8
LAY-1
  6
CONTINUOUS
 62
     2
100
AcDbLine
 10
861.0
 20
1138.734685
 30
0.0
 11
685.0
 21
1138.734685
 31
0.0
  0
LINE
  5
556
100
AcDbEntity
  8
LAY-1
  6
CONTINUOUS
 62
     2
100
AcDbLine
 10
683.0
 20
1125.234685
 30
0.0
 11
863.0
 21
1125.234685
 31
0.0
  0
ARC
  5
557
100
AcDbEntity
  8
LAY-1
  6
CONTINUOUS
 62
     2
100
AcDbCircle
 10
625.23291
 20
1160.234685
 30
0.0
 40
47.76709
100
AcDbArc
 50
3.398847
 51
13.877073
  0
LINE
  5
558
100
AcDbEntity
  8
LAY-1
  6
CONTINUOUS
 62
     2
100
AcDbLine
 10
673.0
 20
1163.068019
 30
0.0
 11
673.0
 21
1185.234685
 31
0.0
  0
LINE
  5
559
100
AcDbEntity
  8
LAY-1
  6
CONTINUOUS
 62
     2
100
AcDbLine
 10
673.0
 20
1157.401352
 30
0.0
 11
673.0
 21
1135.234685
 31
0.0
  0
ARC
  5
55A
100
AcDbEntity
  8
LAY-1
  6
CONTINUOUS
 62
     2
100
AcDbCircle
 10
625.23291
 20
1160.234685
 30
0.0
 40
47.76709
100
AcDbArc
 50
346.122927
 51
356.601153
  0
LINE
  5
55B
100
AcDbEntity
  8
LAY-1
  6
CONTINUOUS
 62
     2
100
AcDbLine
 10
773.0
 20
1193.734685
 30
0.0
 11
777.911139
 21
1193.734685
 31
0.0
  0
LINE
  5
55C
100
AcDbEntity
  8
LAY-1
  6
CONTINUOUS
 62
     2
100
AcDbLine
 10
768.088861
 20
1193.734685
 30
0.0
 11
773.0
 21
1193.734685
 31
0.0
  0
LINE
  5
55D
100
AcDbEntity
  8
LAY-1
  6
CONTINUOUS
 62
     2
100
AcDbLine
 10
777.856401
 20
1191.992897
 30
0.0
 11
777.944585
 21
1194.798936
 31
0.0
  0
LINE
  5
55E
100
AcDbEntity
  8
LAY-1
  6
CONTINUOUS
 62
     2
100
AcDbLine
 10
768.055415
 20
1194.798936
 30
0.0
 11
768.143599
 21
1191.992897
 31
0.0
  0
LINE
  5
55F
100
AcDbEntity
  8
LAY-1
  6
CONTINUOUS
 62
     2
100
AcDbLine
 10
768.055415
 20
1194.798936
 30
0.0
 11
777.944585
 21
1194.798936
 31
0.0
  0
LINE
  5
560
100
AcDbEntity
  8
LAY-1
  6
CONTINUOUS
 62
     2
100
AcDbLine
 10
776.0
 20
1194.798936
 30
0.0
 11
776.0
 21
1200.798936
 31
0.0
  0
LINE
  5
561
100
AcDbEntity
  8
LAY-1
  6
CONTINUOUS
 62
     2
100
AcDbLine
 10
776.0
 20
1200.798936
 30
0.0
 11
770.0
 21
1200.798936
 31
0.0
  0
LINE
  5
562
100
AcDbEntity
  8
LAY-1
  6
CONTINUOUS
 62
     2
100
AcDbLine
 10
770.0
 20
1200.798936
 30
0.0
 11
770.0
 21
1194.798936
 31
0.0
  0
ARC
  5
563
100
AcDbEntity
  8
LAY-1
  6
CONTINUOUS
 62
     2
100
AcDbCircle
 10
773.0
 20
1160.234685
 30
0.0
 40
32.0
100
AcDbArc
 50
86.409622
 51
93.590378
  0
LINE
  5
564
100
AcDbEntity
  8
LAY-1
  6
CONTINUOUS
 62
     2
100
AcDbLine
 10
770.996067
 20
1192.171878
 30
0.0
 11
749.8716
 21
1190.8464
 31
0.0
  0
LINE
  5
565
100
AcDbEntity
  8
LAY-1
  6
CONTINUOUS
 62
     2
100
AcDbLine
 10
796.1284
 20
1190.8464
 30
0.0
 11
775.003933
 21
1192.171878
 31
0.0
  0
ARC
  5
566
100
AcDbEntity
  8
LAY-1
  6
CONTINUOUS
 62
     2
100
AcDbCircle
 10
750.372583
 20
1182.862102
 30
0.0
 40
8.0
100
AcDbArc
 50
93.590378
 51
170.120718
  0
ARC
  5
567
100
AcDbEntity
  8
LAY-1
  6
CONTINUOUS
 62
     2
100
AcDbCircle
 10
795.627417
 20
1182.862102
 30
0.0
 40
8.0
100
AcDbArc
 50
9.879282
 51
86.409622
  0
LINE
  5
568
100
AcDbEntity
  8
LAY-1
  6
EXLTYPE3
 62
     1
100
AcDbLine
 10
773.0
 20
917.234685
 30
0.0
 11
773.0
 21
1214.934685
 31
0.0
  0
ARC
  5
569
100
AcDbEntity
  8
LAY-1
  6
CONTINUOUS
 62
     2
100
AcDbCircle
 10
832.943657
 20
1110.234685
 30
0.0
 40
3.0
100
AcDbArc
 50
270.0
 51
0.0
  0
LINE
  5
56A
100
AcDbEntity
  8
LAY-1
  6
CONTINUOUS
 62
     2
100
AcDbLine
 10
835.943657
 20
1110.234685
 30
0.0
 11
835.943657
 21
1110.734685
 31
0.0
  0
ARC
  5
56B
100
AcDbEntity
  8
LAY-1
  6
CONTINUOUS
 62
     2
100
AcDbCircle
 10
837.943657
 20
1110.734685
 30
0.0
 40
2.0
100
AcDbArc
 50
90.0
 51
180.0
  0
LINE
  5
56C
100
AcDbEntity
  8
LAY-1
  6
CONTINUOUS
 62
     2
100
AcDbLine
 10
863.0
 20
1124.934685
 30
0.0
 11
863.0
 21
1113.734685
 31
0.0
  0
ARC
  5
56D
100
AcDbEntity
  8
LAY-1
  6
CONTINUOUS
 62
     2
100
AcDbCircle
 10
862.0
 20
1113.734685
 30
0.0
 40
1.0
100
AcDbArc
 50
270.0
 51
0.0
  0
LINE
  5
56E
100
AcDbEntity
  8
LAY-1
  6
CONTINUOUS
 62
     2
100
AcDbLine
 10
848.5
 20
1125.234685
 30
0.0
 11
848.5
 21
1124.934685
 31
0.0
  0
ARC
  5
56F
100
AcDbEntity
  8
LAY-1
  6
CONTINUOUS
 62
     2
100
AcDbCircle
 10
861.0
 20
1136.734685
 30
0.0
 40
2.0
100
AcDbArc
 50
0.0
 51
90.0
  0
LINE
  5
570
100
AcDbEntity
  8
LAY-1
  6
CONTINUOUS
 62
     2
100
AcDbLine
 10
863.0
 20
1136.734685
 30
0.0
 11
863.0
 21
1125.234685
 31
0.0
  0
ARC
  5
571
100
AcDbEntity
  8
LAY-1
  6
CONTINUOUS
 62
     2
100
AcDbCircle
 10
773.0
 20
1160.234685
 30
0.0
 40
18.0
100
AcDbArc
 50
0.0
 51
151.339696
  0
ARC
  5
572
100
AcDbEntity
  8
LAY-1
  6
CONTINUOUS
 62
     2
100
AcDbCircle
 10
773.0
 20
1160.234685
 30
0.0
 40
2.5
100
AcDbArc
 50
0.0
 51
180.0
  0
LINE
  5
573
100
AcDbEntity
  8
LAY-1
  6
CONTINUOUS
 62
     2
100
AcDbLine
 10
713.0
 20
1163.734685
 30
0.0
 11
755.0
 21
1162.734685
 31
0.0
  0
LINE
  5
574
100
AcDbEntity
  8
LAY-1
  6
CONTINUOUS
 62
     2
100
AcDbLine
 10
772.144382
 20
1170.198014
 30
0.0
 11
693.0
 21
1163.401352
 31
0.0
  0
LINE
  5
575
100
AcDbEntity
  8
LAY-1
  6
CONTINUOUS
 62
     2
100
AcDbLine
 10
655.458339
 20
1162.775658
 30
0.0
 11
713.0
 21
1163.734685
 31
0.0
  0
ARC
  5
576
100
AcDbEntity
  8
LAY-1
  6
CONTINUOUS
 62
     2
100
AcDbCircle
 10
655.5
 20
1160.276005
 30
0.0
 40
2.5
100
AcDbArc
 50
90.954841
 51
180.947016
  0
ARC
  5
577
100
AcDbEntity
  8
LAY-1
  6
CONTINUOUS
 62
     2
100
AcDbCircle
 10
773.0
 20
1160.234685
 30
0.0
 40
10.0
100
AcDbArc
 50
0.0
 51
135.0
  0
LINE
  5
578
100
AcDbEntity
  8
LAY-1
  6
CONTINUOUS
 62
     2
100
AcDbLine
 10
713.0
 20
1156.734685
 30
0.0
 11
755.0
 21
1157.734685
 31
0.0
  0
LINE
  5
579
100
AcDbEntity
  8
LAY-1
  6
CONTINUOUS
 62
     2
100
AcDbLine
 10
655.458339
 20
1157.693713
 30
0.0
 11
713.0
 21
1156.734685
 31
0.0
  0
LINE
  5
57A
100
AcDbEntity
  8
LAY-1
  6
CONTINUOUS
 62
     2
100
AcDbLine
 10
772.144382
 20
1150.271357
 30
0.0
 11
693.0
 21
1157.068019
 31
0.0
  0
ARC
  5
57B
100
AcDbEntity
  8
LAY-1
  6
CONTINUOUS
 62
     2
100
AcDbCircle
 10
773.0
 20
1160.234685
 30
0.0
 40
10.0
100
AcDbArc
 50
225.0
 51
0.0
  0
ARC
  5
57C
100
AcDbEntity
  8
LAY-1
  6
CONTINUOUS
 62
     2
100
AcDbCircle
 10
773.0
 20
1160.234685
 30
0.0
 40
2.5
100
AcDbArc
 50
180.0
 51
0.0
  0
ARC
  5
57D
100
AcDbEntity
  8
LAY-1
  6
CONTINUOUS
 62
     2
100
AcDbCircle
 10
773.0
 20
1160.234685
 30
0.0
 40
18.0
100
AcDbArc
 50
208.660304
 51
0.0
  0
ARC
  5
57E
100
AcDbEntity
  8
LAY-1
  6
CONTINUOUS
 62
     2
100
AcDbCircle
 10
655.5
 20
1160.193366
 30
0.0
 40
2.5
100
AcDbArc
 50
179.052984
 51
269.045159
  0
LINE
  5
57F
100
AcDbEntity
  8
LAY-1
  6
CONTINUOUS
 62
     2
100
AcDbLine
 10
872.0
 20
1136.234685
 30
0.0
 11
863.0
 21
1136.234685
 31
0.0
  0
LINE
  5
580
100
AcDbEntity
  8
LAY-1
  6
CONTINUOUS
 62
     2
100
AcDbLine
 10
674.0
 20
1136.234685
 30
0.0
 11
683.0
 21
1136.234685
 31
0.0
  0
LINE
  5
581
100
AcDbEntity
  8
LAY-1
  6
CONTINUOUS
 62
     2
100
AcDbLine
 10
858.61359
 20
1109.51694
 30
0.0
 11
858.692254
 21
1111.769585
 31
0.0
  0
ARC
  5
582
100
AcDbEntity
  8
LAY-1
  6
CONTINUOUS
 62
     2
100
AcDbCircle
 10
857.614199
 20
1109.551839
 30
0.0
 40
1.0
100
AcDbArc
 50
280.0
 51
358.0
  0
ARC
  5
583
100
AcDbEntity
  8
LAY-1
  6
CONTINUOUS
 62
     2
100
AcDbCircle
 10
859.691645
 20
1111.734685
 30
0.0
 40
1.0
100
AcDbArc
 50
90.0
 51
178.0
  0
ARC
  5
584
100
AcDbEntity
  8
LAY-1
  6
CONTINUOUS
 62
     2
100
AcDbCircle
 10
820.152262
 20
1102.946289
 30
0.0
 40
1.0
100
AcDbArc
 50
182.0
 51
280.0
  0
LINE
  5
585
100
AcDbEntity
  8
LAY-1
  6
CONTINUOUS
 62
     2
100
AcDbLine
 10
819.152871
 20
1102.911389
 30
0.0
 11
819.143176
 21
1103.189027
 31
0.0
  0
ARC
  5
586
100
AcDbEntity
  8
LAY-1
  6
CONTINUOUS
 62
     2
100
AcDbCircle
 10
818.143785
 20
1103.154127
 30
0.0
 40
1.0
100
AcDbArc
 50
2.0
 51
145.949717
  0
LINE
  5
587
100
AcDbEntity
  8
LAY-1
  6
EXLTYPE3
 62
     1
100
AcDbLine
 10
578.546491
 20
1160.234685
 30
0.0
 11
969.585435
 21
1160.234685
 31
0.0
  0
LINE
  5
588
100
AcDbEntity
  8
LAY-1
  6
EXLTYPE3
 62
     1
100
AcDbLine
 10
695.336861
 20
1111.134685
 30
0.0
 11
695.336861
 21
1105.212036
 31
0.0
  0
ARC
  5
589
100
AcDbEntity
  8
LAY-1
  6
EXLTYPE3
 62
     1
100
AcDbCircle
 10
704.716026
 20
1107.963474
 30
0.0
 40
3.328788
100
AcDbArc
 50
235.746813
 51
304.253187
  0
LINE
  5
58A
100
AcDbEntity
  8
LAY-1
  6
EXLTYPE3
 62
     1
100
AcDbLine
 10
702.842414
 20
1105.212036
 30
0.0
 11
702.842414
 21
1111.134685
 31
0.0
  0
ARC
  5
58B
100
AcDbEntity
  8
LAY-1
  6
EXLTYPE3
 62
     1
100
AcDbCircle
 10
693.473068
 20
1107.931693
 30
0.0
 40
3.297008
100
AcDbArc
 50
235.296434
 51
304.423005
  0
LINE
  5
58C
100
AcDbEntity
  8
LAY-1
  6
EXLTYPE3
 62
     1
100
AcDbLine
 10
692.589637
 20
1104.634685
 30
0.0
 11
691.589637
 21
1105.212036
 31
0.0
  0
LINE
  5
58D
100
AcDbEntity
  8
LAY-1
  6
EXLTYPE3
 62
     1
100
AcDbLine
 10
705.589637
 20
1104.634685
 30
0.0
 11
706.589637
 21
1105.212036
 31
0.0
  0
ARC
  5
58E
100
AcDbEntity
  8
LAY-1
  6
EXLTYPE3
 62
     1
100
AcDbCircle
 10
699.089637
 20
1117.119885
 30
0.0
 40
12.4852
100
AcDbArc
 50
252.507675
 51
287.492325
  0
LINE
  5
58F
100
AcDbEntity
  8
LAY-1
  6
EXLTYPE3
 62
     1
100
AcDbLine
 10
691.589637
 20
1105.212036
 30
0.0
 11
691.589637
 21
1111.134685
 31
0.0
  0
LINE
  5
590
100
AcDbEntity
  8
LAY-1
  6
EXLTYPE3
 62
     1
100
AcDbLine
 10
705.570378
 20
1104.634685
 30
0.0
 11
692.589637
 21
1104.634685
 31
0.0
  0
LINE
  5
591
100
AcDbEntity
  8
LAY-1
  6
EXLTYPE3
 62
     1
100
AcDbLine
 10
706.589637
 20
1111.134685
 30
0.0
 11
706.589637
 21
1105.212036
 31
0.0
  0
LINE
  5
592
100
AcDbEntity
  8
LAY-1
  6
EXLTYPE3
 62
     1
100
AcDbLine
 10
691.589637
 20
1111.134685
 30
0.0
 11
691.589637
 21
1112.734685
 31
0.0
  0
LINE
  5
593
100
AcDbEntity
  8
LAY-1
  6
EXLTYPE3
 62
     1
100
AcDbLine
 10
706.589637
 20
1111.134685
 30
0.0
 11
691.589637
 21
1111.134685
 31
0.0
  0
LINE
  5
594
100
AcDbEntity
  8
LAY-1
  6
EXLTYPE3
 62
     1
100
AcDbLine
 10
706.589637
 20
1112.734685
 30
0.0
 11
706.589637
 21
1111.134685
 31
0.0
  0
ARC
  5
595
100
AcDbEntity
  8
LAY-1
  6
CONTINUOUS
 62
     1
100
AcDbCircle
 10
699.089637
 20
1104.634685
 30
0.0
 40
5.75
100
AcDbArc
 50
180.0
 51
0.0
  0
ARC
  5
596
100
AcDbEntity
  8
LAY-1
  6
CONTINUOUS
 62
     1
100
AcDbCircle
 10
846.910363
 20
1104.634685
 30
0.0
 40
5.75
100
AcDbArc
 50
180.0
 51
0.0
  0
LINE
  5
597
100
AcDbEntity
  8
LAY-1
  6
EXLTYPE3
 62
     1
100
AcDbLine
 10
839.410363
 20
1112.734685
 30
0.0
 11
839.410363
 21
1111.134685
 31
0.0
  0
LINE
  5
598
100
AcDbEntity
  8
LAY-1
  6
EXLTYPE3
 62
     1
100
AcDbLine
 10
839.410363
 20
1111.134685
 30
0.0
 11
854.410363
 21
1111.134685
 31
0.0
  0
LINE
  5
599
100
AcDbEntity
  8
LAY-1
  6
EXLTYPE3
 62
     1
100
AcDbLine
 10
854.410363
 20
1111.134685
 30
0.0
 11
854.410363
 21
1112.734685
 31
0.0
  0
LINE
  5
59A
100
AcDbEntity
  8
LAY-1
  6
EXLTYPE3
 62
     1
100
AcDbLine
 10
839.410363
 20
1111.134685
 30
0.0
 11
839.410363
 21
1105.212036
 31
0.0
  0
LINE
  5
59B
100
AcDbEntity
  8
LAY-1
  6
EXLTYPE3
 62
     1
100
AcDbLine
 10
840.429622
 20
1104.634685
 30
0.0
 11
853.410363
 21
1104.634685
 31
0.0
  0
LINE
  5
59C
100
AcDbEntity
  8
LAY-1
  6
EXLTYPE3
 62
     1
100
AcDbLine
 10
854.410363
 20
1105.212036
 30
0.0
 11
854.410363
 21
1111.134685
 31
0.0
  0
ARC
  5
59D
100
AcDbEntity
  8
LAY-1
  6
EXLTYPE3
 62
     1
100
AcDbCircle
 10
846.910363
 20
1117.119885
 30
0.0
 40
12.4852
100
AcDbArc
 50
252.507675
 51
287.492325
  0
LINE
  5
59E
100
AcDbEntity
  8
LAY-1
  6
EXLTYPE3
 62
     1
100
AcDbLine
 10
840.410363
 20
1104.634685
 30
0.0
 11
839.410363
 21
1105.212036
 31
0.0
  0
LINE
  5
59F
100
AcDbEntity
  8
LAY-1
  6
EXLTYPE3
 62
     1
100
AcDbLine
 10
853.410363
 20
1104.634685
 30
0.0
 11
854.410363
 21
1105.212036
 31
0.0
  0
ARC
  5
5A0
100
AcDbEntity
  8
LAY-1
  6
EXLTYPE3
 62
     1
100
AcDbCircle
 10
852.526932
 20
1107.931693
 30
0.0
 40
3.297008
100
AcDbArc
 50
235.576995
 51
304.703566
  0
LINE
  5
5A1
100
AcDbEntity
  8
LAY-1
  6
EXLTYPE3
 62
     1
100
AcDbLine
 10
843.157586
 20
1105.212036
 30
0.0
 11
843.157586
 21
1111.134685
 31
0.0
  0
ARC
  5
5A2
100
AcDbEntity
  8
LAY-1
  6
EXLTYPE3
 62
     1
100
AcDbCircle
 10
841.283974
 20
1107.963474
 30
0.0
 40
3.328788
100
AcDbArc
 50
235.746813
 51
304.253187
  0
LINE
  5
5A3
100
AcDbEntity
  8
LAY-1
  6
EXLTYPE3
 62
     1
100
AcDbLine
 10
850.663139
 20
1111.134685
 30
0.0
 11
850.663139
 21
1105.212036
 31
0.0
  0
LINE
  5
5A4
100
AcDbEntity
  8
LAY-1
  6
EXLTYPE3
 62
     1
100
AcDbLine
 10
738.632549
 20
1111.134685
 30
0.0
 11
738.632549
 21
1105.212036
 31
0.0
  0
ARC
  5
5A5
100
AcDbEntity
  8
LAY-1
  6
EXLTYPE3
 62
     1
100
AcDbCircle
 10
748.011714
 20
1107.963474
 30
0.0
 40
3.328788
100
AcDbArc
 50
235.746813
 51
304.253187
  0
LINE
  5
5A6
100
AcDbEntity
  8
LAY-1
  6
EXLTYPE3
 62
     1
100
AcDbLine
 10
746.138102
 20
1105.212036
 30
0.0
 11
746.138102
 21
1111.134685
 31
0.0
  0
ARC
  5
5A7
100
AcDbEntity
  8
LAY-1
  6
EXLTYPE3
 62
     1
100
AcDbCircle
 10
736.768756
 20
1107.931693
 30
0.0
 40
3.297008
100
AcDbArc
 50
235.296434
 51
304.423005
  0
LINE
  5
5A8
100
AcDbEntity
  8
LAY-1
  6
EXLTYPE3
 62
     1
100
AcDbLine
 10
735.885325
 20
1104.634685
 30
0.0
 11
734.885325
 21
1105.212036
 31
0.0
  0
LINE
  5
5A9
100
AcDbEntity
  8
LAY-1
  6
EXLTYPE3
 62
     1
100
AcDbLine
 10
748.885325
 20
1104.634685
 30
0.0
 11
749.885325
 21
1105.212036
 31
0.0
  0
ARC
  5
5AA
100
AcDbEntity
  8
LAY-1
  6
EXLTYPE3
 62
     1
100
AcDbCircle
 10
742.385325
 20
1117.119885
 30
0.0
 40
12.4852
100
AcDbArc
 50
252.507675
 51
287.492325
  0
LINE
  5
5AB
100
AcDbEntity
  8
LAY-1
  6
EXLTYPE3
 62
     1
100
AcDbLine
 10
734.885325
 20
1105.212036
 30
0.0
 11
734.885325
 21
1111.134685
 31
0.0
  0
LINE
  5
5AC
100
AcDbEntity
  8
LAY-1
  6
EXLTYPE3
 62
     1
100
AcDbLine
 10
748.866066
 20
1104.634685
 30
0.0
 11
735.885325
 21
1104.634685
 31
0.0
  0
LINE
  5
5AD
100
AcDbEntity
  8
LAY-1
  6
EXLTYPE3
 62
     1
100
AcDbLine
 10
749.885325
 20
1111.134685
 30
0.0
 11
749.885325
 21
1105.212036
 31
0.0
  0
LINE
  5
5AE
100
AcDbEntity
  8
LAY-1
  6
EXLTYPE3
 62
     1
100
AcDbLine
 10
734.885325
 20
1111.134685
 30
0.0
 11
734.885325
 21
1112.734685
 31
0.0
  0
LINE
  5
5AF
100
AcDbEntity
  8
LAY-1
  6
EXLTYPE3
 62
     1
100
AcDbLine
 10
749.885325
 20
1111.134685
 30
0.0
 11
734.885325
 21
1111.134685
 31
0.0
  0
LINE
  5
5B0
100
AcDbEntity
  8
LAY-1
  6
EXLTYPE3
 62
     1
100
AcDbLine
 10
749.885325
 20
1112.734685
 30
0.0
 11
749.885325
 21
1111.134685
 31
0.0
  0
ARC
  5
5B1
100
AcDbEntity
  8
LAY-1
  6
CONTINUOUS
 62
     1
100
AcDbCircle
 10
742.385325
 20
1104.634685
 30
0.0
 40
5.75
100
AcDbArc
 50
180.0
 51
0.0
  0
LINE
  5
5B2
100
AcDbEntity
  8
LAY-1
  6
EXLTYPE3
 62
     1
100
AcDbLine
 10
807.367451
 20
1111.134685
 30
0.0
 11
807.367451
 21
1105.212036
 31
0.0
  0
ARC
  5
5B3
100
AcDbEntity
  8
LAY-1
  6
EXLTYPE3
 62
     1
100
AcDbCircle
 10
797.988286
 20
1107.963474
 30
0.0
 40
3.328788
100
AcDbArc
 50
235.746813
 51
304.253187
  0
LINE
  5
5B4
100
AcDbEntity
  8
LAY-1
  6
EXLTYPE3
 62
     1
100
AcDbLine
 10
799.861898
 20
1105.212036
 30
0.0
 11
799.861898
 21
1111.134685
 31
0.0
  0
ARC
  5
5B5
100
AcDbEntity
  8
LAY-1
  6
EXLTYPE3
 62
     1
100
AcDbCircle
 10
809.231244
 20
1107.931693
 30
0.0
 40
3.297008
100
AcDbArc
 50
235.576995
 51
304.703566
  0
LINE
  5
5B6
100
AcDbEntity
  8
LAY-1
  6
EXLTYPE3
 62
     1
100
AcDbLine
 10
810.114675
 20
1104.634685
 30
0.0
 11
811.114675
 21
1105.212036
 31
0.0
  0
LINE
  5
5B7
100
AcDbEntity
  8
LAY-1
  6
EXLTYPE3
 62
     1
100
AcDbLine
 10
797.114675
 20
1104.634685
 30
0.0
 11
796.114675
 21
1105.212036
 31
0.0
  0
ARC
  5
5B8
100
AcDbEntity
  8
LAY-1
  6
EXLTYPE3
 62
     1
100
AcDbCircle
 10
803.614675
 20
1117.119885
 30
0.0
 40
12.4852
100
AcDbArc
 50
252.507675
 51
287.492325
  0
LINE
  5
5B9
100
AcDbEntity
  8
LAY-1
  6
EXLTYPE3
 62
     1
100
AcDbLine
 10
811.114675
 20
1105.212036
 30
0.0
 11
811.114675
 21
1111.134685
 31
0.0
  0
LINE
  5
5BA
100
AcDbEntity
  8
LAY-1
  6
EXLTYPE3
 62
     1
100
AcDbLine
 10
797.133934
 20
1104.634685
 30
0.0
 11
810.114675
 21
1104.634685
 31
0.0
  0
LINE
  5
5BB
100
AcDbEntity
  8
LAY-1
  6
EXLTYPE3
 62
     1
100
AcDbLine
 10
796.114675
 20
1111.134685
 30
0.0
 11
796.114675
 21
1105.212036
 31
0.0
  0
LINE
  5
5BC
100
AcDbEntity
  8
LAY-1
  6
EXLTYPE3
 62
     1
100
AcDbLine
 10
811.114675
 20
1111.134685
 30
0.0
 11
811.114675
 21
1112.734685
 31
0.0
  0
LINE
  5
5BD
100
AcDbEntity
  8
LAY-1
  6
EXLTYPE3
 62
     1
100
AcDbLine
 10
796.114675
 20
1111.134685
 30
0.0
 11
811.114675
 21
1111.134685
 31
0.0
  0
LINE
  5
5BE
100
AcDbEntity
  8
LAY-1
  6
EXLTYPE3
 62
     1
100
AcDbLine
 10
796.114675
 20
1112.734685
 30
0.0
 11
796.114675
 21
1111.134685
 31
0.0
  0
ARC
  5
5BF
100
AcDbEntity
  8
LAY-1
  6
CONTINUOUS
 62
     1
100
AcDbCircle
 10
803.614675
 20
1104.634685
 30
0.0
 40
5.75
100
AcDbArc
 50
180.0
 51
0.0
  0
LINE
  5
5C0
100
AcDbEntity
  8
LAY-1
  6
CONTINUOUS
 62
     2
100
AcDbLine
 10
734.885325
 20
1107.234685
 30
0.0
 11
713.056343
 21
1107.234685
 31
0.0
  0
LINE
  5
5C1
100
AcDbEntity
  8
LAY-1
  6
CONTINUOUS
 62
     2
100
AcDbLine
 10
832.943657
 20
1107.234685
 30
0.0
 11
811.114675
 21
1107.234685
 31
0.0
  0
LINE
  5
5C2
100
AcDbEntity
  8
LAY-1
  6
CONTINUOUS
 62
     2
100
AcDbLine
 10
796.114675
 20
1107.234685
 30
0.0
 11
749.885325
 21
1107.234685
 31
0.0
  0
LINE
  5
5C3
100
AcDbEntity
  8
LAY-1
  6
CONTINUOUS
 62
     2
100
AcDbLine
 10
854.410363
 20
1107.97149
 30
0.0
 11
857.787847
 21
1108.567031
 31
0.0
  0
LINE
  5
5C4
100
AcDbEntity
  8
LAY-1
  6
CONTINUOUS
 62
     2
100
AcDbLine
 10
820.32591
 20
1101.961481
 30
0.0
 11
839.410363
 21
1105.326585
 31
0.0
  0
ARC
  5
5C5
100
AcDbEntity
  8
LAY-1
  6
CONTINUOUS
 62
     2
100
AcDbCircle
 10
660.220886
 20
1138.58405
 30
0.0
 40
12.779114
100
AcDbArc
 50
332.705771
 51
0.0
  0
ARC
  5
5C6
100
AcDbEntity
  8
LAY-1
  6
CONTINUOUS
 62
     2
100
AcDbCircle
 10
872.0
 20
70.765315
 30
0.0
 40
1.0
100
AcDbArc
 50
270.0
 51
0.0
  0
LINE
  5
5C7
100
AcDbEntity
  8
LAY-1
  6
CONTINUOUS
 62
     2
100
AcDbLine
 10
891.6058
 20
105.221754
 30
0.0
 11
874.3942
 21
105.221754
 31
0.0
  0
LINE
  5
5C8
100
AcDbEntity
  8
LAY-1
  6
CONTINUOUS
 62
     2
100
AcDbLine
 10
891.64425
 20
109.68773
 30
0.0
 11
874.35575
 21
109.68773
 31
0.0
  0
LINE
  5
5C9
100
AcDbEntity
  8
LAY-1
  6
CONTINUOUS
 62
     2
100
AcDbLine
 10
874.35575
 20
109.68773
 30
0.0
 11
874.3942
 21
105.221754
 31
0.0
  0
LINE
  5
5CA
100
AcDbEntity
  8
LAY-1
  6
CONTINUOUS
 62
     2
100
AcDbLine
 10
874.35575
 20
77.842899
 30
0.0
 11
874.3942
 21
82.308875
 31
0.0
  0
LINE
  5
5CB
100
AcDbEntity
  8
LAY-1
  6
CONTINUOUS
 62
     2
100
AcDbLine
 10
891.64425
 20
77.842899
 30
0.0
 11
874.35575
 21
77.842899
 31
0.0
  0
LINE
  5
5CC
100
AcDbEntity
  8
LAY-1
  6
CONTINUOUS
 62
     2
100
AcDbLine
 10
891.6058
 20
82.308875
 30
0.0
 11
874.3942
 21
82.308875
 31
0.0
  0
ARC
  5
5CD
100
AcDbEntity
  8
LAY-1
  6
CONTINUOUS
 62
     2
100
AcDbCircle
 10
920.76709
 20
93.765315
 30
0.0
 40
47.76709
100
AcDbArc
 50
166.122927
 51
193.877073
  0
ARC
  5
5CE
100
AcDbEntity
  8
LAY-1
  6
CONTINUOUS
 62
     2
100
AcDbCircle
 10
872.0
 20
116.765315
 30
0.0
 40
1.0
100
AcDbArc
 50
0.0
 51
90.0
  0
LINE
  5
5CF
100
AcDbEntity
  8
LAY-1
  6
CONTINUOUS
 62
     2
100
AcDbLine
 10
874.443376
 20
121.265315
 30
0.0
 11
891.556624
 21
121.265315
 31
0.0
  0
LINE
  5
5D0
100
AcDbEntity
  8
LAY-1
  6
CONTINUOUS
 62
     2
100
AcDbLine
 10
893.0
 20
118.765315
 30
0.0
 11
893.0
 21
93.765315
 31
0.0
  0
LINE
  5
5D1
100
AcDbEntity
  8
LAY-1
  6
CONTINUOUS
 62
     2
100
AcDbLine
 10
873.0
 20
118.765315
 30
0.0
 11
874.442829
 21
121.264367
 31
0.0
  0
ARC
  5
5D2
100
AcDbEntity
  8
LAY-1
  6
CONTINUOUS
 62
     2
100
AcDbCircle
 10
880.220886
 20
115.41595
 30
0.0
 40
12.779114
100
AcDbArc
 50
333.36863
 51
27.294229
  0
LINE
  5
5D3
100
AcDbEntity
  8
LAY-1
  6
CONTINUOUS
 62
     2
100
AcDbLine
 10
873.0
 20
93.765315
 30
0.0
 11
873.0
 21
118.765315
 31
0.0
  0
LINE
  5
5D4
100
AcDbEntity
  8
LAY-1
  6
CONTINUOUS
 62
     2
100
AcDbLine
 10
893.0
 20
118.765315
 30
0.0
 11
891.557171
 21
121.264367
 31
0.0
  0
ARC
  5
5D5
100
AcDbEntity
  8
LAY-1
  6
CONTINUOUS
 62
     2
100
AcDbCircle
 10
885.779114
 20
115.41595
 30
0.0
 40
12.779114
100
AcDbArc
 50
152.705771
 51
206.63137
  0
ARC
  5
5D6
100
AcDbEntity
  8
LAY-1
  6
CONTINUOUS
 62
     2
100
AcDbCircle
 10
885.779114
 20
72.114679
 30
0.0
 40
12.779114
100
AcDbArc
 50
153.36863
 51
207.294229
  0
LINE
  5
5D7
100
AcDbEntity
  8
LAY-1
  6
CONTINUOUS
 62
     2
100
AcDbLine
 10
893.0
 20
68.765315
 30
0.0
 11
891.557171
 21
66.266262
 31
0.0
  0
LINE
  5
5D8
100
AcDbEntity
  8
LAY-1
  6
CONTINUOUS
 62
     2
100
AcDbLine
 10
873.0
 20
93.765315
 30
0.0
 11
873.0
 21
68.765315
 31
0.0
  0
LINE
  5
5D9
100
AcDbEntity
  8
LAY-1
  6
CONTINUOUS
 62
     2
100
AcDbLine
 10
873.0
 20
68.765315
 30
0.0
 11
874.442829
 21
66.266262
 31
0.0
  0
LINE
  5
5DA
100
AcDbEntity
  8
LAY-1
  6
CONTINUOUS
 62
     2
100
AcDbLine
 10
893.0
 20
68.765315
 30
0.0
 11
893.0
 21
93.765315
 31
0.0
  0
LINE
  5
5DB
100
AcDbEntity
  8
LAY-1
  6
CONTINUOUS
 62
     2
100
AcDbLine
 10
874.443376
 20
66.265315
 30
0.0
 11
891.556624
 21
66.265315
 31
0.0
  0
ARC
  5
5DC
100
AcDbEntity
  8
LAY-1
  6
CONTINUOUS
 62
     2
100
AcDbCircle
 10
880.220886
 20
72.114679
 30
0.0
 40
12.779114
100
AcDbArc
 50
332.705771
 51
26.63137
  0
LINE
  5
5DD
100
AcDbEntity
  8
LAY-1
  6
CONTINUOUS
 62
     2
100
AcDbLine
 10
938.0
 20
65.765315
 30
0.0
 11
938.0
 21
121.765315
 31
0.0
  0
ARC
  5
5DE
100
AcDbEntity
  8
LAY-1
  6
CONTINUOUS
 62
     2
100
AcDbCircle
 10
924.0
 20
45.765315
 30
0.0
 40
2.0
100
AcDbArc
 50
180.0
 51
270.0
  0
LINE
  5
5DF
100
AcDbEntity
  8
LAY-1
  6
CONTINUOUS
 62
     2
100
AcDbLine
 10
938.0
 20
93.765315
 30
0.0
 11
938.0
 21
65.765315
 31
0.0
  0
LINE
  5
5E0
100
AcDbEntity
  8
LAY-1
  6
CONTINUOUS
 62
     2
100
AcDbLine
 10
937.0
 20
43.765315
 30
0.0
 11
924.0
 21
43.765315
 31
0.0
  0
LINE
  5
5E1
100
AcDbEntity
  8
LAY-1
  6
CONTINUOUS
 62
     2
100
AcDbLine
 10
922.0
 20
141.765315
 30
0.0
 11
922.0
 21
119.929883
 31
0.0
  0
ARC
  5
5E2
100
AcDbEntity
  8
LAY-1
  6
CONTINUOUS
 62
     2
100
AcDbCircle
 10
924.0
 20
141.765315
 30
0.0
 40
2.0
100
AcDbArc
 50
90.0
 51
180.0
  0
LINE
  5
5E3
100
AcDbEntity
  8
LAY-1
  6
CONTINUOUS
 62
     2
100
AcDbLine
 10
938.0
 20
93.765315
 30
0.0
 11
938.0
 21
121.765315
 31
0.0
  0
LINE
  5
5E4
100
AcDbEntity
  8
LAY-1
  6
CONTINUOUS
 62
     2
100
AcDbLine
 10
937.0
 20
143.765315
 30
0.0
 11
924.0
 21
143.765315
 31
0.0
  0
ARC
  5
5E5
100
AcDbEntity
  8
LAY-1
  6
CONTINUOUS
 62
     2
100
AcDbCircle
 10
938.0
 20
122.765315
 30
0.0
 40
1.0
100
AcDbArc
 50
180.0
 51
270.0
  0
LINE
  5
5E6
100
AcDbEntity
  8
LAY-1
  6
CONTINUOUS
 62
     2
100
AcDbLine
 10
937.0
 20
122.765315
 30
0.0
 11
937.0
 21
143.765315
 31
0.0
  0
ARC
  5
5E7
100
AcDbEntity
  8
LAY-1
  6
CONTINUOUS
 62
     2
100
AcDbCircle
 10
938.0
 20
64.765315
 30
0.0
 40
1.0
100
AcDbArc
 50
90.0
 51
180.0
  0
ARC
  5
5E8
100
AcDbEntity
  8
LAY-1
  6
CONTINUOUS
 62
     2
100
AcDbCircle
 10
912.0
 20
119.929883
 30
0.0
 40
10.0
100
AcDbArc
 50
282.691875
 51
0.0
  0
ARC
  5
5E9
100
AcDbEntity
  8
LAY-1
  6
CONTINUOUS
 62
     2
100
AcDbCircle
 10
912.0
 20
67.600746
 30
0.0
 40
10.0
100
AcDbArc
 50
0.0
 51
77.308125
  0
LINE
  5
5EA
100
AcDbEntity
  8
LAY-1
  6
CONTINUOUS
 62
     2
100
AcDbLine
 10
937.0
 20
126.165315
 30
0.0
 11
937.0
 21
43.765315
 31
0.0
  0
LINE
  5
5EB
100
AcDbEntity
  8
LAY-1
  6
CONTINUOUS
 62
     2
100
AcDbLine
 10
922.0
 20
45.765315
 30
0.0
 11
922.0
 21
123.765315
 31
0.0
  0
LINE
  5
5EC
100
AcDbEntity
  8
LAY-1
  6
CONTINUOUS
 62
     2
100
AcDbLine
 10
914.197079
 20
77.356403
 30
0.0
 11
902.5
 21
79.990711
 31
0.0
  0
LINE
  5
5ED
100
AcDbEntity
  8
LAY-1
  6
CONTINUOUS
 62
     2
100
AcDbLine
 10
914.197079
 20
110.174226
 30
0.0
 11
902.5
 21
107.539918
 31
0.0
  0
LINE
  5
5EE
100
AcDbEntity
  8
LAY-1
  6
CONTINUOUS
 62
     2
100
AcDbLine
 10
891.64425
 20
109.68773
 30
0.0
 11
891.6058
 21
105.221754
 31
0.0
  0
LINE
  5
5EF
100
AcDbEntity
  8
LAY-1
  6
CONTINUOUS
 62
     2
100
AcDbLine
 10
891.64425
 20
77.842899
 30
0.0
 11
891.6058
 21
82.308875
 31
0.0
  0
ARC
  5
5F0
100
AcDbEntity
  8
LAY-1
  6
CONTINUOUS
 62
     2
100
AcDbCircle
 10
845.23291
 20
93.765315
 30
0.0
 40
47.76709
100
AcDbArc
 50
346.122927
 51
13.877073
  0
LINE
  5
5F1
100
AcDbEntity
  8
LAY-1
  6
CONTINUOUS
 62
     2
100
AcDbLine
 10
897.5
 20
107.110815
 30
0.0
 11
897.5
 21
105.948247
 31
0.0
  0
LINE
  5
5F2
100
AcDbEntity
  8
LAY-1
  6
CONTINUOUS
 62
     2
100
AcDbLine
 10
901.549569
 20
107.237364
 30
0.0
 11
902.5
 21
107.539918
 31
0.0
  0
LINE
  5
5F3
100
AcDbEntity
  8
LAY-1
  6
CONTINUOUS
 62
     2
100
AcDbLine
 10
901.549569
 20
80.293266
 30
0.0
 11
902.5
 21
79.990711
 31
0.0
  0
LINE
  5
5F4
100
AcDbEntity
  8
LAY-1
  6
CONTINUOUS
 62
     2
100
AcDbLine
 10
897.5
 20
107.110815
 30
0.0
 11
897.5
 21
80.419815
 31
0.0
  0
LINE
  5
5F5
100
AcDbEntity
  8
LAY-1
  6
CONTINUOUS
 62
     2
100
AcDbLine
 10
901.549569
 20
80.293266
 30
0.0
 11
893.0
 21
80.56044
 31
0.0
  0
LINE
  5
5F6
100
AcDbEntity
  8
LAY-1
  6
CONTINUOUS
 62
     2
100
AcDbLine
 10
901.549569
 20
107.237364
 30
0.0
 11
893.0
 21
106.97019
 31
0.0
  0
LINE
  5
5F7
100
AcDbEntity
  8
LAY-1
  6
CONTINUOUS
 62
     1
100
AcDbLine
 10
897.5
 20
81.582382
 30
0.0
 11
901.549569
 21
80.293266
 31
0.0
  0
LINE
  5
5F8
100
AcDbEntity
  8
LAY-1
  6
CONTINUOUS
 62
     1
100
AcDbLine
 10
897.5
 20
81.582382
 30
0.0
 11
893.0
 21
81.723007
 31
0.0
  0
LINE
  5
5F9
100
AcDbEntity
  8
LAY-1
  6
CONTINUOUS
 62
     1
100
AcDbLine
 10
897.5
 20
105.948247
 30
0.0
 11
901.549569
 21
107.237364
 31
0.0
  0
LINE
  5
5FA
100
AcDbEntity
  8
LAY-1
  6
CONTINUOUS
 62
     1
100
AcDbLine
 10
897.5
 20
105.948247
 30
0.0
 11
893.0
 21
105.807622
 31
0.0
  0
LINE
  5
5FB
100
AcDbEntity
  8
LAY-1
  6
CONTINUOUS
 62
     1
100
AcDbLine
 10
648.5
 20
105.948247
 30
0.0
 11
644.450431
 21
107.237364
 31
0.0
  0
LINE
  5
5FC
100
AcDbEntity
  8
LAY-1
  6
CONTINUOUS
 62
     1
100
AcDbLine
 10
648.5
 20
105.948247
 30
0.0
 11
653.0
 21
105.807622
 31
0.0
  0
LINE
  5
5FD
100
AcDbEntity
  8
LAY-1
  6
CONTINUOUS
 62
     1
100
AcDbLine
 10
648.5
 20
81.582382
 30
0.0
 11
644.450431
 21
80.293266
 31
0.0
  0
LINE
  5
5FE
100
AcDbEntity
  8
LAY-1
  6
CONTINUOUS
 62
     1
100
AcDbLine
 10
648.5
 20
81.582382
 30
0.0
 11
653.0
 21
81.723007
 31
0.0
  0
LINE
  5
5FF
100
AcDbEntity
  8
LAY-1
  6
CONTINUOUS
 62
     2
100
AcDbLine
 10
644.450431
 20
107.237364
 30
0.0
 11
653.0
 21
106.97019
 31
0.0
  0
LINE
  5
600
100
AcDbEntity
  8
LAY-1
  6
CONTINUOUS
 62
     2
100
AcDbLine
 10
644.450431
 20
80.293266
 30
0.0
 11
653.0
 21
80.56044
 31
0.0
  0
LINE
  5
601
100
AcDbEntity
  8
LAY-1
  6
CONTINUOUS
 62
     2
100
AcDbLine
 10
648.5
 20
107.110815
 30
0.0
 11
648.5
 21
80.419815
 31
0.0
  0
LINE
  5
602
100
AcDbEntity
  8
LAY-1
  6
CONTINUOUS
 62
     2
100
AcDbLine
 10
624.0
 20
45.765315
 30
0.0
 11
624.0
 21
123.765315
 31
0.0
  0
LINE
  5
603
100
AcDbEntity
  8
LAY-1
  6
CONTINUOUS
 62
     2
100
AcDbLine
 10
609.0
 20
126.165315
 30
0.0
 11
609.0
 21
43.765315
 31
0.0
  0
LINE
  5
604
100
AcDbEntity
  8
LAY-1
  6
CONTINUOUS
 62
     2
100
AcDbLine
 10
644.450431
 20
80.293266
 30
0.0
 11
643.5
 21
79.990711
 31
0.0
  0
LINE
  5
605
100
AcDbEntity
  8
LAY-1
  6
CONTINUOUS
 62
     2
100
AcDbLine
 10
644.450431
 20
107.237364
 30
0.0
 11
643.5
 21
107.539918
 31
0.0
  0
LINE
  5
606
100
AcDbEntity
  8
LAY-1
  6
CONTINUOUS
 62
     2
100
AcDbLine
 10
648.5
 20
107.110815
 30
0.0
 11
648.5
 21
105.948247
 31
0.0
  0
ARC
  5
607
100
AcDbEntity
  8
LAY-1
  6
CONTINUOUS
 62
     2
100
AcDbCircle
 10
634.0
 20
67.600746
 30
0.0
 40
10.0
100
AcDbArc
 50
102.691875
 51
180.0
  0
LINE
  5
608
100
AcDbEntity
  8
LAY-1
  6
CONTINUOUS
 62
     2
100
AcDbLine
 10
631.802921
 20
77.356403
 30
0.0
 11
643.5
 21
79.990711
 31
0.0
  0
ARC
  5
609
100
AcDbEntity
  8
LAY-1
  6
CONTINUOUS
 62
     2
100
AcDbCircle
 10
634.0
 20
119.929883
 30
0.0
 40
10.0
100
AcDbArc
 50
180.0
 51
257.308125
  0
LINE
  5
60A
100
AcDbEntity
  8
LAY-1
  6
CONTINUOUS
 62
     2
100
AcDbLine
 10
631.802921
 20
110.174226
 30
0.0
 11
643.5
 21
107.539918
 31
0.0
  0
ARC
  5
60B
100
AcDbEntity
  8
LAY-1
  6
CONTINUOUS
 62
     2
100
AcDbCircle
 10
608.0
 20
64.765315
 30
0.0
 40
1.0
100
AcDbArc
 50
0.0
 51
90.0
  0
LINE
  5
60C
100
AcDbEntity
  8
LAY-1
  6
CONTINUOUS
 62
     2
100
AcDbLine
 10
609.0
 20
122.765315
 30
0.0
 11
609.0
 21
143.765315
 31
0.0
  0
ARC
  5
60D
100
AcDbEntity
  8
LAY-1
  6
CONTINUOUS
 62
     2
100
AcDbCircle
 10
608.0
 20
122.765315
 30
0.0
 40
1.0
100
AcDbArc
 50
270.0
 51
0.0
  0
LINE
  5
60E
100
AcDbEntity
  8
LAY-1
  6
CONTINUOUS
 62
     2
100
AcDbLine
 10
609.0
 20
143.765315
 30
0.0
 11
622.0
 21
143.765315
 31
0.0
  0
LINE
  5
60F
100
AcDbEntity
  8
LAY-1
  6
CONTINUOUS
 62
     2
100
AcDbLine
 10
608.0
 20
93.765315
 30
0.0
 11
608.0
 21
121.765315
 31
0.0
  0
ARC
  5
610
100
AcDbEntity
  8
LAY-1
  6
CONTINUOUS
 62
     2
100
AcDbCircle
 10
622.0
 20
141.765315
 30
0.0
 40
2.0
100
AcDbArc
 50
0.0
 51
90.0
  0
LINE
  5
611
100
AcDbEntity
  8
LAY-1
  6
CONTINUOUS
 62
     2
100
AcDbLine
 10
624.0
 20
141.765315
 30
0.0
 11
624.0
 21
119.929883
 31
0.0
  0
LINE
  5
612
100
AcDbEntity
  8
LAY-1
  6
CONTINUOUS
 62
     2
100
AcDbLine
 10
609.0
 20
43.765315
 30
0.0
 11
622.0
 21
43.765315
 31
0.0
  0
LINE
  5
613
100
AcDbEntity
  8
LAY-1
  6
CONTINUOUS
 62
     2
100
AcDbLine
 10
608.0
 20
93.765315
 30
0.0
 11
608.0
 21
65.765315
 31
0.0
  0
ARC
  5
614
100
AcDbEntity
  8
LAY-1
  6
CONTINUOUS
 62
     2
100
AcDbCircle
 10
622.0
 20
45.765315
 30
0.0
 40
2.0
100
AcDbArc
 50
270.0
 51
0.0
  0
LINE
  5
615
100
AcDbEntity
  8
LAY-1
  6
CONTINUOUS
 62
     2
100
AcDbLine
 10
608.0
 20
65.765315
 30
0.0
 11
608.0
 21
121.765315
 31
0.0
  0
LINE
  5
616
100
AcDbEntity
  8
LAY-1
  6
CONTINUOUS
 62
     2
100
AcDbLine
 10
683.0
 20
129.065315
 30
0.0
 11
683.0
 21
140.265315
 31
0.0
  0
ARC
  5
617
100
AcDbEntity
  8
LAY-1
  6
CONTINUOUS
 62
     2
100
AcDbCircle
 10
684.0
 20
140.265315
 30
0.0
 40
1.0
100
AcDbArc
 50
90.0
 51
180.0
  0
ARC
  5
618
100
AcDbEntity
  8
LAY-1
  6
CONTINUOUS
 62
     2
100
AcDbCircle
 10
713.056343
 20
143.765315
 30
0.0
 40
3.0
100
AcDbArc
 50
90.0
 51
180.0
  0
LINE
  5
619
100
AcDbEntity
  8
LAY-1
  6
CONTINUOUS
 62
     2
100
AcDbLine
 10
710.056343
 20
143.765315
 30
0.0
 11
710.056343
 21
143.265315
 31
0.0
  0
ARC
  5
61A
100
AcDbEntity
  8
LAY-1
  6
CONTINUOUS
 62
     2
100
AcDbCircle
 10
708.056343
 20
143.265315
 30
0.0
 40
2.0
100
AcDbArc
 50
270.0
 51
0.0
  0
ARC
  5
61B
100
AcDbEntity
  8
LAY-1
  6
CONTINUOUS
 62
     2
100
AcDbCircle
 10
722.058273
 20
154.765315
 30
0.0
 40
8.0
100
AcDbArc
 50
270.0
 51
357.938877
  0
LINE
  5
61C
100
AcDbEntity
  8
LAY-1
  6
CONTINUOUS
 62
     2
100
AcDbLine
 10
734.250926
 20
271.119868
 30
0.0
 11
730.053098
 21
154.47759
 31
0.0
  0
ARC
  5
61D
100
AcDbEntity
  8
LAY-1
  6
CONTINUOUS
 62
     2
100
AcDbCircle
 10
762.483691
 20
296.344605
 30
0.0
 40
7.419201
100
AcDbArc
 50
55.996439
 51
90.0
  0
ARC
  5
61E
100
AcDbEntity
  8
LAY-1
  6
CONTINUOUS
 62
     2
100
AcDbCircle
 10
783.483691
 20
296.344605
 30
0.0
 40
7.419201
100
AcDbArc
 50
90.0
 51
124.003561
  0
LINE
  5
61F
100
AcDbEntity
  8
LAY-1
  6
CONTINUOUS
 62
     2
100
AcDbLine
 10
783.483691
 20
303.765315
 30
0.0
 11
785.683691
 21
302.495144
 31
0.0
  0
LINE
  5
620
100
AcDbEntity
  8
LAY-1
  6
CONTINUOUS
 62
     2
100
AcDbLine
 10
766.632838
 20
302.495144
 30
0.0
 11
766.632838
 21
292.765315
 31
0.0
  0
LINE
  5
621
100
AcDbEntity
  8
LAY-1
  6
CONTINUOUS
 62
     2
100
AcDbLine
 10
762.483691
 20
303.765315
 30
0.0
 11
760.283691
 21
302.495144
 31
0.0
  0
ARC
  5
622
100
AcDbEntity
  8
LAY-1
  6
CONTINUOUS
 62
     2
100
AcDbCircle
 10
772.983691
 20
287.253097
 30
0.0
 40
16.512218
100
AcDbArc
 50
67.380135
 51
112.619865
  0
LINE
  5
623
100
AcDbEntity
  8
LAY-1
  6
CONTINUOUS
 62
     2
100
AcDbLine
 10
779.334544
 20
302.495144
 30
0.0
 11
779.334544
 21
292.765315
 31
0.0
  0
LINE
  5
624
100
AcDbEntity
  8
LAY-1
  6
CONTINUOUS
 62
     2
100
AcDbLine
 10
766.0
 20
303.765315
 30
0.0
 11
766.0
 21
316.765315
 31
0.0
  0
LINE
  5
625
100
AcDbEntity
  8
LAY-1
  6
CONTINUOUS
 62
     2
100
AcDbLine
 10
760.283691
 20
302.495144
 30
0.0
 11
760.283691
 21
292.765315
 31
0.0
  0
LINE
  5
626
100
AcDbEntity
  8
LAY-1
  6
CONTINUOUS
 62
     2
100
AcDbLine
 10
783.483691
 20
303.765315
 30
0.0
 11
762.483691
 21
303.765315
 31
0.0
  0
LINE
  5
627
100
AcDbEntity
  8
LAY-1
  6
CONTINUOUS
 62
     2
100
AcDbLine
 10
785.683691
 20
292.765315
 30
0.0
 11
785.683691
 21
302.495144
 31
0.0
  0
ARC
  5
628
100
AcDbEntity
  8
LAY-1
  6
CONTINUOUS
 62
     2
100
AcDbCircle
 10
782.525
 20
324.038895
 30
0.0
 40
7.273581
100
AcDbArc
 50
244.118503
 51
296.120405
  0
LINE
  5
629
100
AcDbEntity
  8
LAY-1
  6
CONTINUOUS
 62
     2
100
AcDbLine
 10
784.0
 20
316.765315
 30
0.0
 11
785.724819
 21
317.494864
 31
0.0
  0
LINE
  5
62A
100
AcDbEntity
  8
LAY-1
  6
CONTINUOUS
 62
     2
100
AcDbLine
 10
762.0
 20
316.765315
 30
0.0
 11
760.275181
 21
317.494864
 31
0.0
  0
ARC
  5
62B
100
AcDbEntity
  8
LAY-1
  6
CONTINUOUS
 62
     2
100
AcDbCircle
 10
763.475
 20
324.038895
 30
0.0
 40
7.273581
100
AcDbArc
 50
243.879595
 51
295.881497
  0
ARC
  5
62C
100
AcDbEntity
  8
LAY-1
  6
CONTINUOUS
 62
     2
100
AcDbCircle
 10
773.0
 20
344.765315
 30
0.0
 40
28.0
100
AcDbArc
 50
256.892093
 51
283.107907
  0
LINE
  5
62D
100
AcDbEntity
  8
LAY-1
  6
CONTINUOUS
 62
     2
100
AcDbLine
 10
784.0
 20
316.765315
 30
0.0
 11
762.0
 21
316.765315
 31
0.0
  0
LINE
  5
62E
100
AcDbEntity
  8
LAY-1
  6
CONTINUOUS
 62
     2
100
AcDbLine
 10
779.35
 20
325.035766
 30
0.0
 11
779.35
 21
317.494864
 31
0.0
  0
LINE
  5
62F
100
AcDbEntity
  8
LAY-1
  6
CONTINUOUS
 62
     2
100
AcDbLine
 10
766.65
 20
325.035766
 30
0.0
 11
766.65
 21
317.494864
 31
0.0
  0
ARC
  5
630
100
AcDbEntity
  8
LAY-1
  6
CONTINUOUS
 62
     2
100
AcDbCircle
 10
782.525
 20
318.491734
 30
0.0
 40
7.273581
100
AcDbArc
 50
63.879595
 51
115.881497
  0
LINE
  5
631
100
AcDbEntity
  8
LAY-1
  6
CONTINUOUS
 62
     2
100
AcDbLine
 10
784.0
 20
325.765315
 30
0.0
 11
785.724819
 21
325.035766
 31
0.0
  0
LINE
  5
632
100
AcDbEntity
  8
LAY-1
  6
CONTINUOUS
 62
     2
100
AcDbLine
 10
762.0
 20
325.765315
 30
0.0
 11
760.275181
 21
325.035766
 31
0.0
  0
LINE
  5
633
100
AcDbEntity
  8
LAY-1
  6
CONTINUOUS
 62
     1
100
AcDbLine
 10
780.0
 20
315.497365
 30
0.0
 11
779.0
 21
313.765315
 31
0.0
  0
ARC
  5
634
100
AcDbEntity
  8
LAY-1
  6
CONTINUOUS
 62
     2
100
AcDbCircle
 10
763.475
 20
318.491734
 30
0.0
 40
7.273581
100
AcDbArc
 50
64.118503
 51
116.120405
  0
LINE
  5
635
100
AcDbEntity
  8
LAY-1
  6
CONTINUOUS
 62
     1
100
AcDbLine
 10
767.0
 20
313.765315
 30
0.0
 11
766.0
 21
315.497365
 31
0.0
  0
ARC
  5
636
100
AcDbEntity
  8
LAY-1
  6
CONTINUOUS
 62
     2
100
AcDbCircle
 10
773.0
 20
297.765315
 30
0.0
 40
28.0
100
AcDbArc
 50
76.892093
 51
103.107907
  0
LINE
  5
637
100
AcDbEntity
  8
LAY-1
  6
CONTINUOUS
 62
     1
100
AcDbLine
 10
767.0
 20
313.765315
 30
0.0
 11
767.0
 21
303.765315
 31
0.0
  0
LINE
  5
638
100
AcDbEntity
  8
LAY-1
  6
CONTINUOUS
 62
     1
100
AcDbLine
 10
779.0
 20
313.765315
 30
0.0
 11
779.0
 21
303.765315
 31
0.0
  0
LINE
  5
639
100
AcDbEntity
  8
LAY-1
  6
CONTINUOUS
 62
     2
100
AcDbLine
 10
780.0
 20
313.765315
 30
0.0
 11
766.0
 21
313.765315
 31
0.0
  0
LINE
  5
63A
100
AcDbEntity
  8
LAY-1
  6
CONTINUOUS
 62
     2
100
AcDbLine
 10
780.0
 20
316.765315
 30
0.0
 11
780.0
 21
303.765315
 31
0.0
  0
LINE
  5
63B
100
AcDbEntity
  8
LAY-1
  6
CONTINUOUS
 62
     2
100
AcDbLine
 10
785.7
 20
317.508159
 30
0.0
 11
785.7
 21
325.046263
 31
0.0
  0
LINE
  5
63C
100
AcDbEntity
  8
LAY-1
  6
CONTINUOUS
 62
     2
100
AcDbLine
 10
760.3
 20
325.02247
 30
0.0
 11
760.3
 21
317.484366
 31
0.0
  0
LINE
  5
63D
100
AcDbEntity
  8
LAY-1
  6
CONTINUOUS
 62
     2
100
AcDbLine
 10
784.0
 20
325.765315
 30
0.0
 11
762.0
 21
325.765315
 31
0.0
  0
LINE
  5
63E
100
AcDbEntity
  8
LAY-1
  6
CONTINUOUS
 62
     2
100
AcDbLine
 10
762.0
 20
316.765315
 30
0.0
 11
784.0
 21
316.765315
 31
0.0
  0
ARC
  5
63F
100
AcDbEntity
  8
LAY-1
  6
CONTINUOUS
 62
     2
100
AcDbCircle
 10
753.465689
 20
291.765315
 30
0.0
 40
1.0
100
AcDbArc
 50
90.0
 51
178.0
  0
ARC
  5
640
100
AcDbEntity
  8
LAY-1
  6
CONTINUOUS
 62
     2
100
AcDbCircle
 10
792.534311
 20
291.765315
 30
0.0
 40
1.0
100
AcDbArc
 50
2.0
 51
90.0
  0
LINE
  5
641
100
AcDbEntity
  8
LAY-1
  6
CONTINUOUS
 62
     2
100
AcDbLine
 10
773.0
 20
292.765315
 30
0.0
 11
753.465689
 21
292.765315
 31
0.0
  0
LINE
  5
642
100
AcDbEntity
  8
LAY-1
  6
CONTINUOUS
 62
     2
100
AcDbLine
 10
773.0
 20
292.765315
 30
0.0
 11
792.534311
 21
292.765315
 31
0.0
  0
LINE
  5
643
100
AcDbEntity
  8
LAY-1
  6
CONTINUOUS
 62
     2
100
AcDbLine
 10
752.466298
 20
291.800214
 30
0.0
 11
752.191266
 21
283.92433
 31
0.0
  0
ARC
  5
644
100
AcDbEntity
  8
LAY-1
  6
CONTINUOUS
 62
     2
100
AcDbCircle
 10
750.192484
 20
283.994129
 30
0.0
 40
2.0
100
AcDbArc
 50
280.0
 51
358.0
  0
ARC
  5
645
100
AcDbEntity
  8
LAY-1
  6
CONTINUOUS
 62
     2
100
AcDbCircle
 10
795.807516
 20
283.994129
 30
0.0
 40
2.0
100
AcDbArc
 50
182.0
 51
260.0
  0
LINE
  5
646
100
AcDbEntity
  8
LAY-1
  6
CONTINUOUS
 62
     2
100
AcDbLine
 10
793.533702
 20
291.800214
 30
0.0
 11
793.808734
 21
283.92433
 31
0.0
  0
LINE
  5
647
100
AcDbEntity
  8
LAY-1
  6
CONTINUOUS
 62
     2
100
AcDbLine
 10
750.539781
 20
282.024513
 30
0.0
 11
742.507974
 21
280.608289
 31
0.0
  0
ARC
  5
648
100
AcDbEntity
  8
LAY-1
  6
CONTINUOUS
 62
     2
100
AcDbCircle
 10
744.244456
 20
270.760211
 30
0.0
 40
10.0
100
AcDbArc
 50
100.0
 51
177.938877
  0
ARC
  5
649
100
AcDbEntity
  8
LAY-1
  6
CONTINUOUS
 62
     2
100
AcDbCircle
 10
801.755544
 20
270.760211
 30
0.0
 40
10.0
100
AcDbArc
 50
2.061123
 51
80.0
  0
LINE
  5
64A
100
AcDbEntity
  8
LAY-1
  6
CONTINUOUS
 62
     2
100
AcDbLine
 10
794.957121
 20
282.113223
 30
0.0
 11
803.492026
 21
280.608289
 31
0.0
  0
LINE
  5
64B
100
AcDbEntity
  8
LAY-1
  6
CONTINUOUS
 62
     2
100
AcDbLine
 10
792.534311
 20
282.465315
 30
0.0
 11
753.465689
 21
282.465315
 31
0.0
  0
LINE
  5
64C
100
AcDbEntity
  8
LAY-1
  6
CONTINUOUS
 62
     2
100
AcDbLine
 10
811.749074
 20
271.119868
 30
0.0
 11
815.946902
 21
154.47759
 31
0.0
  0
ARC
  5
64D
100
AcDbEntity
  8
LAY-1
  6
CONTINUOUS
 62
     2
100
AcDbCircle
 10
823.941727
 20
154.765315
 30
0.0
 40
8.0
100
AcDbArc
 50
182.061123
 51
270.0
  0
ARC
  5
64E
100
AcDbEntity
  8
LAY-1
  6
CONTINUOUS
 62
     2
100
AcDbCircle
 10
832.943657
 20
143.765315
 30
0.0
 40
3.0
100
AcDbArc
 50
0.0
 51
90.0
  0
LINE
  5
64F
100
AcDbEntity
  8
LAY-1
  6
CONTINUOUS
 62
     2
100
AcDbLine
 10
835.943657
 20
143.765315
 30
0.0
 11
835.943657
 21
143.265315
 31
0.0
  0
ARC
  5
650
100
AcDbEntity
  8
LAY-1
  6
CONTINUOUS
 62
     2
100
AcDbCircle
 10
837.943657
 20
143.265315
 30
0.0
 40
2.0
100
AcDbArc
 50
180.0
 51
270.0
  0
LINE
  5
651
100
AcDbEntity
  8
LAY-1
  6
CONTINUOUS
 62
     2
100
AcDbLine
 10
863.0
 20
129.065315
 30
0.0
 11
863.0
 21
140.265315
 31
0.0
  0
ARC
  5
652
100
AcDbEntity
  8
LAY-1
  6
CONTINUOUS
 62
     2
100
AcDbCircle
 10
862.0
 20
140.265315
 30
0.0
 40
1.0
100
AcDbArc
 50
0.0
 51
90.0
  0
LINE
  5
653
100
AcDbEntity
  8
LAY-1
  6
CONTINUOUS
 62
     2
100
AcDbLine
 10
697.5
 20
128.765315
 30
0.0
 11
697.5
 21
129.065315
 31
0.0
  0
LINE
  5
654
100
AcDbEntity
  8
LAY-1
  6
CONTINUOUS
 62
     2
100
AcDbLine
 10
848.5
 20
128.765315
 30
0.0
 11
848.5
 21
129.065315
 31
0.0
  0
ARC
  5
655
100
AcDbEntity
  8
LAY-1
  6
CONTINUOUS
 62
     2
100
AcDbCircle
 10
685.0
 20
117.265315
 30
0.0
 40
2.0
100
AcDbArc
 50
180.0
 51
270.0
  0
LINE
  5
656
100
AcDbEntity
  8
LAY-1
  6
CONTINUOUS
 62
     2
100
AcDbLine
 10
683.0
 20
117.265315
 30
0.0
 11
683.0
 21
128.765315
 31
0.0
  0
ARC
  5
657
100
AcDbEntity
  8
LAY-1
  6
CONTINUOUS
 62
     2
100
AcDbCircle
 10
861.0
 20
117.265315
 30
0.0
 40
2.0
100
AcDbArc
 50
270.0
 51
0.0
  0
LINE
  5
658
100
AcDbEntity
  8
LAY-1
  6
CONTINUOUS
 62
     2
100
AcDbLine
 10
863.0
 20
117.265315
 30
0.0
 11
863.0
 21
128.765315
 31
0.0
  0
ARC
  5
659
100
AcDbEntity
  8
LAY-1
  6
CONTINUOUS
 62
     2
100
AcDbCircle
 10
674.0
 20
70.765315
 30
0.0
 40
1.0
100
AcDbArc
 50
180.0
 51
270.0
  0
LINE
  5
65A
100
AcDbEntity
  8
LAY-1
  6
CONTINUOUS
 62
     2
100
AcDbLine
 10
654.3942
 20
105.221754
 30
0.0
 11
671.6058
 21
105.221754
 31
0.0
  0
LINE
  5
65B
100
AcDbEntity
  8
LAY-1
  6
CONTINUOUS
 62
     2
100
AcDbLine
 10
654.35575
 20
109.68773
 30
0.0
 11
671.64425
 21
109.68773
 31
0.0
  0
LINE
  5
65C
100
AcDbEntity
  8
LAY-1
  6
CONTINUOUS
 62
     2
100
AcDbLine
 10
671.64425
 20
109.68773
 30
0.0
 11
671.6058
 21
105.221754
 31
0.0
  0
LINE
  5
65D
100
AcDbEntity
  8
LAY-1
  6
CONTINUOUS
 62
     2
100
AcDbLine
 10
671.64425
 20
77.842899
 30
0.0
 11
671.6058
 21
82.308875
 31
0.0
  0
LINE
  5
65E
100
AcDbEntity
  8
LAY-1
  6
CONTINUOUS
 62
     2
100
AcDbLine
 10
654.35575
 20
77.842899
 30
0.0
 11
671.64425
 21
77.842899
 31
0.0
  0
LINE
  5
65F
100
AcDbEntity
  8
LAY-1
  6
CONTINUOUS
 62
     2
100
AcDbLine
 10
654.3942
 20
82.308875
 30
0.0
 11
671.6058
 21
82.308875
 31
0.0
  0
ARC
  5
660
100
AcDbEntity
  8
LAY-1
  6
CONTINUOUS
 62
     2
100
AcDbCircle
 10
625.23291
 20
93.765315
 30
0.0
 40
47.76709
100
AcDbArc
 50
346.122927
 51
13.877073
  0
ARC
  5
661
100
AcDbEntity
  8
LAY-1
  6
CONTINUOUS
 62
     2
100
AcDbCircle
 10
674.0
 20
116.765315
 30
0.0
 40
1.0
100
AcDbArc
 50
90.0
 51
180.0
  0
LINE
  5
662
100
AcDbEntity
  8
LAY-1
  6
CONTINUOUS
 62
     2
100
AcDbLine
 10
671.556624
 20
121.265315
 30
0.0
 11
654.443376
 21
121.265315
 31
0.0
  0
LINE
  5
663
100
AcDbEntity
  8
LAY-1
  6
CONTINUOUS
 62
     2
100
AcDbLine
 10
653.0
 20
118.765315
 30
0.0
 11
653.0
 21
93.765315
 31
0.0
  0
LINE
  5
664
100
AcDbEntity
  8
LAY-1
  6
CONTINUOUS
 62
     2
100
AcDbLine
 10
673.0
 20
118.765315
 30
0.0
 11
671.557171
 21
121.264367
 31
0.0
  0
ARC
  5
665
100
AcDbEntity
  8
LAY-1
  6
CONTINUOUS
 62
     2
100
AcDbCircle
 10
665.779114
 20
115.41595
 30
0.0
 40
12.779114
100
AcDbArc
 50
152.705771
 51
206.63137
  0
LINE
  5
666
100
AcDbEntity
  8
LAY-1
  6
CONTINUOUS
 62
     2
100
AcDbLine
 10
673.0
 20
93.765315
 30
0.0
 11
673.0
 21
118.765315
 31
0.0
  0
LINE
  5
667
100
AcDbEntity
  8
LAY-1
  6
CONTINUOUS
 62
     2
100
AcDbLine
 10
653.0
 20
118.765315
 30
0.0
 11
654.442829
 21
121.264367
 31
0.0
  0
ARC
  5
668
100
AcDbEntity
  8
LAY-1
  6
CONTINUOUS
 62
     2
100
AcDbCircle
 10
660.220886
 20
115.41595
 30
0.0
 40
12.779114
100
AcDbArc
 50
333.36863
 51
27.294229
  0
ARC
  5
669
100
AcDbEntity
  8
LAY-1
  6
CONTINUOUS
 62
     2
100
AcDbCircle
 10
660.220886
 20
72.114679
 30
0.0
 40
12.779114
100
AcDbArc
 50
332.705771
 51
26.63137
  0
LINE
  5
66A
100
AcDbEntity
  8
LAY-1
  6
CONTINUOUS
 62
     2
100
AcDbLine
 10
653.0
 20
68.765315
 30
0.0
 11
654.442829
 21
66.266262
 31
0.0
  0
LINE
  5
66B
100
AcDbEntity
  8
LAY-1
  6
CONTINUOUS
 62
     2
100
AcDbLine
 10
673.0
 20
93.765315
 30
0.0
 11
673.0
 21
68.765315
 31
0.0
  0
LINE
  5
66C
100
AcDbEntity
  8
LAY-1
  6
CONTINUOUS
 62
     2
100
AcDbLine
 10
673.0
 20
68.765315
 30
0.0
 11
671.557171
 21
66.266262
 31
0.0
  0
LINE
  5
66D
100
AcDbEntity
  8
LAY-1
  6
CONTINUOUS
 62
     2
100
AcDbLine
 10
653.0
 20
68.765315
 30
0.0
 11
653.0
 21
93.765315
 31
0.0
  0
LINE
  5
66E
100
AcDbEntity
  8
LAY-1
  6
CONTINUOUS
 62
     2
100
AcDbLine
 10
671.556624
 20
66.265315
 30
0.0
 11
654.443376
 21
66.265315
 31
0.0
  0
ARC
  5
66F
100
AcDbEntity
  8
LAY-1
  6
CONTINUOUS
 62
     2
100
AcDbCircle
 10
665.779114
 20
72.114679
 30
0.0
 40
12.779114
100
AcDbArc
 50
153.36863
 51
207.294229
  0
LINE
  5
670
100
AcDbEntity
  8
LAY-1
  6
CONTINUOUS
 62
     2
100
AcDbLine
 10
654.35575
 20
109.68773
 30
0.0
 11
654.3942
 21
105.221754
 31
0.0
  0
LINE
  5
671
100
AcDbEntity
  8
LAY-1
  6
CONTINUOUS
 62
     2
100
AcDbLine
 10
654.35575
 20
77.842899
 30
0.0
 11
654.3942
 21
82.308875
 31
0.0
  0
ARC
  5
672
100
AcDbEntity
  8
LAY-1
  6
CONTINUOUS
 62
     2
100
AcDbCircle
 10
700.76709
 20
93.765315
 30
0.0
 40
47.76709
100
AcDbArc
 50
166.122927
 51
193.877073
  0
LINE
  5
673
100
AcDbEntity
  8
LAY-1
  6
CONTINUOUS
 62
     2
100
AcDbLine
 10
743.875018
 20
67.479655
 30
0.0
 11
750.446217
 21
63.685772
 31
0.0
  0
POINT
  5
674
100
AcDbEntity
  8
LAY-1
  6
CONTINUOUS
 62
     2
100
AcDbPoint
 10
805.0
 20
87.015315
 30
0.0
  0
LINE
  5
675
100
AcDbEntity
  8
LAY-1
  6
CONTINUOUS
 62
     2
100
AcDbLine
 10
804.641551
 20
87.026516
 30
0.0
 11
806.0
 21
86.984065
 31
0.0
  0
LINE
  5
676
100
AcDbEntity
  8
LAY-1
  6
CONTINUOUS
 62
     2
100
AcDbLine
 10
814.5
 20
93.765315
 30
0.0
 11
814.5
 21
86.765315
 31
0.0
  0
LINE
  5
677
100
AcDbEntity
  8
LAY-1
  6
CONTINUOUS
 62
     2
100
AcDbLine
 10
814.5
 20
86.765315
 30
0.0
 11
813.92265
 21
85.765315
 31
0.0
  0
LINE
  5
678
100
AcDbEntity
  8
LAY-1
  6
CONTINUOUS
 62
     2
100
AcDbLine
 10
813.92265
 20
85.765315
 30
0.0
 11
808.57735
 21
85.765315
 31
0.0
  0
LINE
  5
679
100
AcDbEntity
  8
LAY-1
  6
CONTINUOUS
 62
     2
100
AcDbLine
 10
808.57735
 20
85.765315
 30
0.0
 11
808.0
 21
86.765315
 31
0.0
  0
LINE
  5
67A
100
AcDbEntity
  8
LAY-1
  6
CONTINUOUS
 62
     2
100
AcDbLine
 10
808.0
 20
86.765315
 30
0.0
 11
808.0
 21
93.765315
 31
0.0
  0
LINE
  5
67B
100
AcDbEntity
  8
LAY-1
  6
CONTINUOUS
 62
     2
100
AcDbLine
 10
806.0
 20
93.765315
 30
0.0
 11
806.0
 21
86.984065
 31
0.0
  0
LINE
  5
67C
100
AcDbEntity
  8
LAY-1
  6
CONTINUOUS
 62
     2
100
AcDbLine
 10
806.0
 20
86.984065
 30
0.0
 11
808.0
 21
86.984065
 31
0.0
  0
ARC
  5
67D
100
AcDbEntity
  8
LAY-1
  6
CONTINUOUS
 62
     2
100
AcDbCircle
 10
810.747223
 20
87.765315
 30
0.0
 40
3.752777
100
AcDbArc
 50
327.795772
 51
32.204228
  0
ARC
  5
67E
100
AcDbEntity
  8
LAY-1
  6
CONTINUOUS
 62
     2
100
AcDbCircle
 10
800.354918
 20
93.765315
 30
0.0
 40
14.145082
100
AcDbArc
 50
343.573579
 51
0.0
  0
ARC
  5
67F
100
AcDbEntity
  8
LAY-1
  6
CONTINUOUS
 62
     2
100
AcDbCircle
 10
822.145082
 20
93.765315
 30
0.0
 40
14.145082
100
AcDbArc
 50
180.0
 51
196.426421
  0
ARC
  5
680
100
AcDbEntity
  8
LAY-1
  6
CONTINUOUS
 62
     2
100
AcDbCircle
 10
811.752777
 20
87.765315
 30
0.0
 40
3.752777
100
AcDbArc
 50
147.795772
 51
212.204228
  0
ARC
  5
681
100
AcDbEntity
  8
LAY-1
  6
CONTINUOUS
 62
     2
100
AcDbCircle
 10
811.752777
 20
99.765315
 30
0.0
 40
3.752777
100
AcDbArc
 50
147.795772
 51
212.204228
  0
ARC
  5
682
100
AcDbEntity
  8
LAY-1
  6
CONTINUOUS
 62
     2
100
AcDbCircle
 10
822.145082
 20
93.765315
 30
0.0
 40
14.145082
100
AcDbArc
 50
163.573579
 51
180.0
  0
ARC
  5
683
100
AcDbEntity
  8
LAY-1
  6
CONTINUOUS
 62
     2
100
AcDbCircle
 10
800.354918
 20
93.765315
 30
0.0
 40
14.145082
100
AcDbArc
 50
0.0
 51
16.426421
  0
ARC
  5
684
100
AcDbEntity
  8
LAY-1
  6
CONTINUOUS
 62
     2
100
AcDbCircle
 10
810.747223
 20
99.765315
 30
0.0
 40
3.752777
100
AcDbArc
 50
327.795772
 51
32.204228
  0
LINE
  5
685
100
AcDbEntity
  8
LAY-1
  6
CONTINUOUS
 62
     2
100
AcDbLine
 10
806.0
 20
100.546564
 30
0.0
 11
808.0
 21
100.546564
 31
0.0
  0
LINE
  5
686
100
AcDbEntity
  8
LAY-1
  6
CONTINUOUS
 62
     2
100
AcDbLine
 10
806.0
 20
93.765315
 30
0.0
 11
806.0
 21
100.546564
 31
0.0
  0
LINE
  5
687
100
AcDbEntity
  8
LAY-1
  6
CONTINUOUS
 62
     2
100
AcDbLine
 10
808.0
 20
100.765315
 30
0.0
 11
808.0
 21
93.765315
 31
0.0
  0
LINE
  5
688
100
AcDbEntity
  8
LAY-1
  6
CONTINUOUS
 62
     2
100
AcDbLine
 10
808.57735
 20
101.765315
 30
0.0
 11
808.0
 21
100.765315
 31
0.0
  0
LINE
  5
689
100
AcDbEntity
  8
LAY-1
  6
CONTINUOUS
 62
     2
100
AcDbLine
 10
813.92265
 20
101.765315
 30
0.0
 11
808.57735
 21
101.765315
 31
0.0
  0
LINE
  5
68A
100
AcDbEntity
  8
LAY-1
  6
CONTINUOUS
 62
     2
100
AcDbLine
 10
814.5
 20
100.765315
 30
0.0
 11
813.92265
 21
101.765315
 31
0.0
  0
LINE
  5
68B
100
AcDbEntity
  8
LAY-1
  6
CONTINUOUS
 62
     2
100
AcDbLine
 10
814.5
 20
93.765315
 30
0.0
 11
814.5
 21
100.765315
 31
0.0
  0
LINE
  5
68C
100
AcDbEntity
  8
LAY-1
  6
CONTINUOUS
 62
     2
100
AcDbLine
 10
804.638868
 20
100.504029
 30
0.0
 11
806.0
 21
100.546564
 31
0.0
  0
POINT
  5
68D
100
AcDbEntity
  8
LAY-1
  6
CONTINUOUS
 62
     2
100
AcDbPoint
 10
805.0
 20
100.515315
 30
0.0
  0
LINE
  5
68E
100
AcDbEntity
  8
LAY-1
  6
CONTINUOUS
 62
     2
100
AcDbLine
 10
808.57735
 20
89.765315
 30
0.0
 11
813.92265
 21
89.765315
 31
0.0
  0
POINT
  5
68F
100
AcDbEntity
  8
LAY-1
  6
CONTINUOUS
 62
     2
100
AcDbPoint
 10
805.0
 20
87.015315
 30
0.0
  0
LINE
  5
690
100
AcDbEntity
  8
LAY-1
  6
CONTINUOUS
 62
     2
100
AcDbLine
 10
813.92265
 20
97.765315
 30
0.0
 11
808.57735
 21
97.765315
 31
0.0
  0
LINE
  5
691
100
AcDbEntity
  8
LAY-1
  6
CONTINUOUS
 62
     2
100
AcDbLine
 10
732.07735
 20
97.765315
 30
0.0
 11
737.42265
 21
97.765315
 31
0.0
  0
POINT
  5
692
100
AcDbEntity
  8
LAY-1
  6
CONTINUOUS
 62
     2
100
AcDbPoint
 10
741.0
 20
87.015315
 30
0.0
  0
LINE
  5
693
100
AcDbEntity
  8
LAY-1
  6
CONTINUOUS
 62
     2
100
AcDbLine
 10
737.42265
 20
89.765315
 30
0.0
 11
732.07735
 21
89.765315
 31
0.0
  0
POINT
  5
694
100
AcDbEntity
  8
LAY-1
  6
CONTINUOUS
 62
     2
100
AcDbPoint
 10
741.0
 20
100.515315
 30
0.0
  0
LINE
  5
695
100
AcDbEntity
  8
LAY-1
  6
CONTINUOUS
 62
     2
100
AcDbLine
 10
741.361132
 20
100.504029
 30
0.0
 11
740.0
 21
100.546564
 31
0.0
  0
LINE
  5
696
100
AcDbEntity
  8
LAY-1
  6
CONTINUOUS
 62
     2
100
AcDbLine
 10
731.5
 20
93.765315
 30
0.0
 11
731.5
 21
100.765315
 31
0.0
  0
LINE
  5
697
100
AcDbEntity
  8
LAY-1
  6
CONTINUOUS
 62
     2
100
AcDbLine
 10
731.5
 20
100.765315
 30
0.0
 11
732.07735
 21
101.765315
 31
0.0
  0
LINE
  5
698
100
AcDbEntity
  8
LAY-1
  6
CONTINUOUS
 62
     2
100
AcDbLine
 10
732.07735
 20
101.765315
 30
0.0
 11
737.42265
 21
101.765315
 31
0.0
  0
LINE
  5
699
100
AcDbEntity
  8
LAY-1
  6
CONTINUOUS
 62
     2
100
AcDbLine
 10
737.42265
 20
101.765315
 30
0.0
 11
738.0
 21
100.765315
 31
0.0
  0
LINE
  5
69A
100
AcDbEntity
  8
LAY-1
  6
CONTINUOUS
 62
     2
100
AcDbLine
 10
738.0
 20
100.765315
 30
0.0
 11
738.0
 21
93.765315
 31
0.0
  0
LINE
  5
69B
100
AcDbEntity
  8
LAY-1
  6
CONTINUOUS
 62
     2
100
AcDbLine
 10
740.0
 20
93.765315
 30
0.0
 11
740.0
 21
100.546564
 31
0.0
  0
LINE
  5
69C
100
AcDbEntity
  8
LAY-1
  6
CONTINUOUS
 62
     2
100
AcDbLine
 10
740.0
 20
100.546564
 30
0.0
 11
738.0
 21
100.546564
 31
0.0
  0
ARC
  5
69D
100
AcDbEntity
  8
LAY-1
  6
CONTINUOUS
 62
     2
100
AcDbCircle
 10
735.252777
 20
99.765315
 30
0.0
 40
3.752777
100
AcDbArc
 50
147.795772
 51
212.204228
  0
ARC
  5
69E
100
AcDbEntity
  8
LAY-1
  6
CONTINUOUS
 62
     2
100
AcDbCircle
 10
745.645082
 20
93.765315
 30
0.0
 40
14.145082
100
AcDbArc
 50
163.573579
 51
180.0
  0
ARC
  5
69F
100
AcDbEntity
  8
LAY-1
  6
CONTINUOUS
 62
     2
100
AcDbCircle
 10
723.854918
 20
93.765315
 30
0.0
 40
14.145082
100
AcDbArc
 50
0.0
 51
16.426421
  0
ARC
  5
6A0
100
AcDbEntity
  8
LAY-1
  6
CONTINUOUS
 62
     2
100
AcDbCircle
 10
734.247223
 20
99.765315
 30
0.0
 40
3.752777
100
AcDbArc
 50
327.795772
 51
32.204228
  0
ARC
  5
6A1
100
AcDbEntity
  8
LAY-1
  6
CONTINUOUS
 62
     2
100
AcDbCircle
 10
734.247223
 20
87.765315
 30
0.0
 40
3.752777
100
AcDbArc
 50
327.795772
 51
32.204228
  0
ARC
  5
6A2
100
AcDbEntity
  8
LAY-1
  6
CONTINUOUS
 62
     2
100
AcDbCircle
 10
723.854918
 20
93.765315
 30
0.0
 40
14.145082
100
AcDbArc
 50
343.573579
 51
0.0
  0
ARC
  5
6A3
100
AcDbEntity
  8
LAY-1
  6
CONTINUOUS
 62
     2
100
AcDbCircle
 10
745.645082
 20
93.765315
 30
0.0
 40
14.145082
100
AcDbArc
 50
180.0
 51
196.426421
  0
ARC
  5
6A4
100
AcDbEntity
  8
LAY-1
  6
CONTINUOUS
 62
     2
100
AcDbCircle
 10
735.252777
 20
87.765315
 30
0.0
 40
3.752777
100
AcDbArc
 50
147.795772
 51
212.204228
  0
LINE
  5
6A5
100
AcDbEntity
  8
LAY-1
  6
CONTINUOUS
 62
     2
100
AcDbLine
 10
740.0
 20
86.984065
 30
0.0
 11
738.0
 21
86.984065
 31
0.0
  0
LINE
  5
6A6
100
AcDbEntity
  8
LAY-1
  6
CONTINUOUS
 62
     2
100
AcDbLine
 10
740.0
 20
93.765315
 30
0.0
 11
740.0
 21
86.984065
 31
0.0
  0
LINE
  5
6A7
100
AcDbEntity
  8
LAY-1
  6
CONTINUOUS
 62
     2
100
AcDbLine
 10
738.0
 20
86.765315
 30
0.0
 11
738.0
 21
93.765315
 31
0.0
  0
LINE
  5
6A8
100
AcDbEntity
  8
LAY-1
  6
CONTINUOUS
 62
     2
100
AcDbLine
 10
737.42265
 20
85.765315
 30
0.0
 11
738.0
 21
86.765315
 31
0.0
  0
LINE
  5
6A9
100
AcDbEntity
  8
LAY-1
  6
CONTINUOUS
 62
     2
100
AcDbLine
 10
732.07735
 20
85.765315
 30
0.0
 11
737.42265
 21
85.765315
 31
0.0
  0
LINE
  5
6AA
100
AcDbEntity
  8
LAY-1
  6
CONTINUOUS
 62
     2
100
AcDbLine
 10
731.5
 20
86.765315
 30
0.0
 11
732.07735
 21
85.765315
 31
0.0
  0
LINE
  5
6AB
100
AcDbEntity
  8
LAY-1
  6
CONTINUOUS
 62
     2
100
AcDbLine
 10
731.5
 20
93.765315
 30
0.0
 11
731.5
 21
86.765315
 31
0.0
  0
LINE
  5
6AC
100
AcDbEntity
  8
LAY-1
  6
CONTINUOUS
 62
     2
100
AcDbLine
 10
741.358449
 20
87.026516
 30
0.0
 11
740.0
 21
86.984065
 31
0.0
  0
POINT
  5
6AD
100
AcDbEntity
  8
LAY-1
  6
CONTINUOUS
 62
     2
100
AcDbPoint
 10
741.0
 20
87.015315
 30
0.0
  0
LINE
  5
6AE
100
AcDbEntity
  8
LAY-1
  6
CONTINUOUS
 62
     2
100
AcDbLine
 10
746.0
 20
161.265315
 30
0.0
 11
800.0
 21
161.265315
 31
0.0
  0
LINE
  5
6AF
100
AcDbEntity
  8
LAY-1
  6
CONTINUOUS
 62
     2
100
AcDbLine
 10
800.0
 20
161.265315
 30
0.0
 11
800.0
 21
154.765315
 31
0.0
  0
LINE
  5
6B0
100
AcDbEntity
  8
LAY-1
  6
CONTINUOUS
 62
     2
100
AcDbLine
 10
799.0
 20
137.765315
 30
0.0
 11
799.0
 21
154.765315
 31
0.0
  0
LINE
  5
6B1
100
AcDbEntity
  8
LAY-1
  6
CONTINUOUS
 62
     2
100
AcDbLine
 10
746.0
 20
154.765315
 30
0.0
 11
746.0
 21
161.265315
 31
0.0
  0
LINE
  5
6B2
100
AcDbEntity
  8
LAY-1
  6
CONTINUOUS
 62
     2
100
AcDbLine
 10
747.0
 20
137.765315
 30
0.0
 11
799.0
 21
137.765315
 31
0.0
  0
LINE
  5
6B3
100
AcDbEntity
  8
LAY-1
  6
CONTINUOUS
 62
     2
100
AcDbLine
 10
800.0
 20
154.765315
 30
0.0
 11
746.0
 21
154.765315
 31
0.0
  0
LINE
  5
6B4
100
AcDbEntity
  8
LAY-1
  6
CONTINUOUS
 62
     2
100
AcDbLine
 10
747.0
 20
154.765315
 30
0.0
 11
747.0
 21
137.765315
 31
0.0
  0
LINE
  5
6B5
100
AcDbEntity
  8
LAY-1
  6
CONTINUOUS
 62
     2
100
AcDbLine
 10
766.0
 20
137.765315
 30
0.0
 11
766.0
 21
129.765315
 31
0.0
  0
LINE
  5
6B6
100
AcDbEntity
  8
LAY-1
  6
CONTINUOUS
 62
     2
100
AcDbLine
 10
766.0
 20
129.765315
 30
0.0
 11
780.0
 21
129.765315
 31
0.0
  0
LINE
  5
6B7
100
AcDbEntity
  8
LAY-1
  6
CONTINUOUS
 62
     2
100
AcDbLine
 10
780.0
 20
129.765315
 30
0.0
 11
780.0
 21
137.765315
 31
0.0
  0
LINE
  5
6B8
100
AcDbEntity
  8
LAY-1
  6
CONTINUOUS
 62
     2
100
AcDbLine
 10
768.010295
 20
129.765315
 30
0.0
 11
768.143599
 21
125.523526
 31
0.0
  0
LINE
  5
6B9
100
AcDbEntity
  8
LAY-1
  6
CONTINUOUS
 62
     2
100
AcDbLine
 10
777.856401
 20
125.523526
 30
0.0
 11
777.989705
 21
129.765315
 31
0.0
  0
LINE
  5
6BA
100
AcDbEntity
  8
LAY-1
  6
CONTINUOUS
 62
     2
100
AcDbLine
 10
768.088861
 20
127.265315
 30
0.0
 11
773.0
 21
127.265315
 31
0.0
  0
LINE
  5
6BB
100
AcDbEntity
  8
LAY-1
  6
CONTINUOUS
 62
     2
100
AcDbLine
 10
773.0
 20
127.265315
 30
0.0
 11
777.911139
 21
127.265315
 31
0.0
  0
LINE
  5
6BC
100
AcDbEntity
  8
LAY-1
  6
CONTINUOUS
 62
     2
100
AcDbLine
 10
773.0
 20
60.265315
 30
0.0
 11
777.911139
 21
60.265315
 31
0.0
  0
LINE
  5
6BD
100
AcDbEntity
  8
LAY-1
  6
CONTINUOUS
 62
     2
100
AcDbLine
 10
768.088861
 20
60.265315
 30
0.0
 11
773.0
 21
60.265315
 31
0.0
  0
LINE
  5
6BE
100
AcDbEntity
  8
LAY-1
  6
CONTINUOUS
 62
     2
100
AcDbLine
 10
777.856401
 20
62.007103
 30
0.0
 11
777.944585
 21
59.201064
 31
0.0
  0
LINE
  5
6BF
100
AcDbEntity
  8
LAY-1
  6
CONTINUOUS
 62
     2
100
AcDbLine
 10
768.055415
 20
59.201064
 30
0.0
 11
768.143599
 21
62.007103
 31
0.0
  0
LINE
  5
6C0
100
AcDbEntity
  8
LAY-1
  6
CONTINUOUS
 62
     2
100
AcDbLine
 10
768.055415
 20
59.201064
 30
0.0
 11
777.944585
 21
59.201064
 31
0.0
  0
LINE
  5
6C1
100
AcDbEntity
  8
LAY-1
  6
CONTINUOUS
 62
     2
100
AcDbLine
 10
776.0
 20
59.201064
 30
0.0
 11
776.0
 21
53.201064
 31
0.0
  0
LINE
  5
6C2
100
AcDbEntity
  8
LAY-1
  6
CONTINUOUS
 62
     2
100
AcDbLine
 10
776.0
 20
53.201064
 30
0.0
 11
770.0
 21
53.201064
 31
0.0
  0
LINE
  5
6C3
100
AcDbEntity
  8
LAY-1
  6
CONTINUOUS
 62
     2
100
AcDbLine
 10
770.0
 20
53.201064
 30
0.0
 11
770.0
 21
59.201064
 31
0.0
  0
LINE
  5
6C4
100
AcDbEntity
  8
LAY-1
  6
CONTINUOUS
 62
     2
100
AcDbLine
 10
743.875018
 20
120.143623
 30
0.0
 11
743.875018
 21
112.734489
 31
0.0
  0
CIRCLE
  5
6C5
100
AcDbEntity
  8
LAY-1
  6
CONTINUOUS
 62
     2
100
AcDbCircle
 10
750.372583
 20
116.392732
 30
0.0
 40
6.5
  0
LINE
  5
6C6
100
AcDbEntity
  8
LAY-1
  6
CONTINUOUS
 62
     2
100
AcDbLine
 10
750.3685
 20
78.637802
 30
0.0
 11
743.875018
 21
74.888789
 31
0.0
  0
LINE
  5
6C7
100
AcDbEntity
  8
LAY-1
  6
CONTINUOUS
 62
     2
100
AcDbLine
 10
756.871741
 20
74.883155
 30
0.0
 11
750.3685
 21
78.637802
 31
0.0
  0
LINE
  5
6C8
100
AcDbEntity
  8
LAY-1
  6
CONTINUOUS
 62
     2
100
AcDbLine
 10
756.871741
 20
67.39555
 30
0.0
 11
756.871741
 21
74.883155
 31
0.0
  0
LINE
  5
6C9
100
AcDbEntity
  8
LAY-1
  6
CONTINUOUS
 62
     2
100
AcDbLine
 10
750.446217
 20
63.685772
 30
0.0
 11
756.871741
 21
67.39555
 31
0.0
  0
CIRCLE
  5
6CA
100
AcDbEntity
  8
LAY-1
  6
CONTINUOUS
 62
     2
100
AcDbCircle
 10
750.372583
 20
71.137898
 30
0.0
 40
6.5
  0
LINE
  5
6CB
100
AcDbEntity
  8
LAY-1
  6
CONTINUOUS
 62
     2
100
AcDbLine
 10
743.875018
 20
74.888789
 30
0.0
 11
743.875018
 21
67.479655
 31
0.0
  0
LINE
  5
6CC
100
AcDbEntity
  8
LAY-1
  6
CONTINUOUS
 62
     2
100
AcDbLine
 10
789.129852
 20
67.479655
 30
0.0
 11
795.701051
 21
63.685772
 31
0.0
  0
LINE
  5
6CD
100
AcDbEntity
  8
LAY-1
  6
CONTINUOUS
 62
     2
100
AcDbLine
 10
795.623334
 20
78.637802
 30
0.0
 11
789.129852
 21
74.888789
 31
0.0
  0
LINE
  5
6CE
100
AcDbEntity
  8
LAY-1
  6
CONTINUOUS
 62
     2
100
AcDbLine
 10
802.126575
 20
74.883155
 30
0.0
 11
795.623334
 21
78.637802
 31
0.0
  0
LINE
  5
6CF
100
AcDbEntity
  8
LAY-1
  6
CONTINUOUS
 62
     2
100
AcDbLine
 10
802.126575
 20
67.39555
 30
0.0
 11
802.126575
 21
74.883155
 31
0.0
  0
LINE
  5
6D0
100
AcDbEntity
  8
LAY-1
  6
CONTINUOUS
 62
     2
100
AcDbLine
 10
795.701051
 20
63.685772
 30
0.0
 11
802.126575
 21
67.39555
 31
0.0
  0
CIRCLE
  5
6D1
100
AcDbEntity
  8
LAY-1
  6
CONTINUOUS
 62
     2
100
AcDbCircle
 10
795.627417
 20
71.137898
 30
0.0
 40
6.5
  0
LINE
  5
6D2
100
AcDbEntity
  8
LAY-1
  6
CONTINUOUS
 62
     2
100
AcDbLine
 10
789.129852
 20
74.888789
 30
0.0
 11
789.129852
 21
67.479655
 31
0.0
  0
LINE
  5
6D3
100
AcDbEntity
  8
LAY-1
  6
CONTINUOUS
 62
     2
100
AcDbLine
 10
789.129852
 20
112.734489
 30
0.0
 11
795.701051
 21
108.940606
 31
0.0
  0
LINE
  5
6D4
100
AcDbEntity
  8
LAY-1
  6
CONTINUOUS
 62
     2
100
AcDbLine
 10
795.623334
 20
123.892636
 30
0.0
 11
789.129852
 21
120.143623
 31
0.0
  0
LINE
  5
6D5
100
AcDbEntity
  8
LAY-1
  6
CONTINUOUS
 62
     2
100
AcDbLine
 10
802.126575
 20
120.137989
 30
0.0
 11
795.623334
 21
123.892636
 31
0.0
  0
LINE
  5
6D6
100
AcDbEntity
  8
LAY-1
  6
CONTINUOUS
 62
     2
100
AcDbLine
 10
750.446217
 20
108.940606
 30
0.0
 11
756.871741
 21
112.650384
 31
0.0
  0
LINE
  5
6D7
100
AcDbEntity
  8
LAY-1
  6
CONTINUOUS
 62
     2
100
AcDbLine
 10
756.871741
 20
112.650384
 30
0.0
 11
756.871741
 21
120.137989
 31
0.0
  0
LINE
  5
6D8
100
AcDbEntity
  8
LAY-1
  6
CONTINUOUS
 62
     2
100
AcDbLine
 10
756.871741
 20
120.137989
 30
0.0
 11
750.3685
 21
123.892636
 31
0.0
  0
LINE
  5
6D9
100
AcDbEntity
  8
LAY-1
  6
CONTINUOUS
 62
     2
100
AcDbLine
 10
802.126575
 20
112.650384
 30
0.0
 11
802.126575
 21
120.137989
 31
0.0
  0
LINE
  5
6DA
100
AcDbEntity
  8
LAY-1
  6
CONTINUOUS
 62
     2
100
AcDbLine
 10
750.3685
 20
123.892636
 30
0.0
 11
743.875018
 21
120.143623
 31
0.0
  0
LINE
  5
6DB
100
AcDbEntity
  8
LAY-1
  6
CONTINUOUS
 62
     2
100
AcDbLine
 10
743.875018
 20
112.734489
 30
0.0
 11
750.446217
 21
108.940606
 31
0.0
  0
LINE
  5
6DC
100
AcDbEntity
  8
LAY-1
  6
CONTINUOUS
 62
     2
100
AcDbLine
 10
795.701051
 20
108.940606
 30
0.0
 11
802.126575
 21
112.650384
 31
0.0
  0
CIRCLE
  5
6DD
100
AcDbEntity
  8
LAY-1
  6
CONTINUOUS
 62
     2
100
AcDbCircle
 10
795.627417
 20
116.392732
 30
0.0
 40
6.5
  0
ARC
  5
6DE
100
AcDbEntity
  8
LAY-1
  6
CONTINUOUS
 62
     2
100
AcDbCircle
 10
795.627417
 20
71.137898
 30
0.0
 40
12.0
100
AcDbArc
 50
90.0
 51
180.0
  0
ARC
  5
6DF
100
AcDbEntity
  8
LAY-1
  6
CONTINUOUS
 62
     2
100
AcDbCircle
 10
802.987272
 20
84.637898
 30
0.0
 40
1.5
100
AcDbArc
 50
270.0
 51
356.409622
  0
ARC
  5
6E0
100
AcDbEntity
  8
LAY-1
  6
CONTINUOUS
 62
     2
100
AcDbCircle
 10
782.127417
 20
63.778043
 30
0.0
 40
1.5
100
AcDbArc
 50
273.590378
 51
0.0
  0
LINE
  5
6E1
100
AcDbEntity
  8
LAY-1
  6
CONTINUOUS
 62
     2
100
AcDbLine
 10
783.627417
 20
71.137898
 30
0.0
 11
783.627417
 21
63.778043
 31
0.0
  0
LINE
  5
6E2
100
AcDbEntity
  8
LAY-1
  6
CONTINUOUS
 62
     2
100
AcDbLine
 10
802.987272
 20
83.137898
 30
0.0
 11
795.627417
 21
83.137898
 31
0.0
  0
ARC
  5
6E3
100
AcDbEntity
  8
LAY-1
  6
CONTINUOUS
 62
     2
100
AcDbCircle
 10
795.627417
 20
116.392732
 30
0.0
 40
12.0
100
AcDbArc
 50
180.0
 51
270.0
  0
ARC
  5
6E4
100
AcDbEntity
  8
LAY-1
  6
CONTINUOUS
 62
     2
100
AcDbCircle
 10
802.987272
 20
102.892732
 30
0.0
 40
1.5
100
AcDbArc
 50
3.590378
 51
90.0
  0
ARC
  5
6E5
100
AcDbEntity
  8
LAY-1
  6
CONTINUOUS
 62
     2
100
AcDbCircle
 10
782.127417
 20
123.752586
 30
0.0
 40
1.5
100
AcDbArc
 50
0.0
 51
86.409622
  0
LINE
  5
6E6
100
AcDbEntity
  8
LAY-1
  6
CONTINUOUS
 62
     2
100
AcDbLine
 10
783.627417
 20
116.392732
 30
0.0
 11
783.627417
 21
123.752586
 31
0.0
  0
LINE
  5
6E7
100
AcDbEntity
  8
LAY-1
  6
CONTINUOUS
 62
     2
100
AcDbLine
 10
802.987272
 20
104.392732
 30
0.0
 11
795.627417
 21
104.392732
 31
0.0
  0
ARC
  5
6E8
100
AcDbEntity
  8
LAY-1
  6
CONTINUOUS
 62
     2
100
AcDbCircle
 10
750.372583
 20
116.392732
 30
0.0
 40
12.0
100
AcDbArc
 50
270.0
 51
0.0
  0
ARC
  5
6E9
100
AcDbEntity
  8
LAY-1
  6
CONTINUOUS
 62
     2
100
AcDbCircle
 10
743.012728
 20
102.892732
 30
0.0
 40
1.5
100
AcDbArc
 50
90.0
 51
176.409622
  0
ARC
  5
6EA
100
AcDbEntity
  8
LAY-1
  6
CONTINUOUS
 62
     2
100
AcDbCircle
 10
763.872583
 20
123.752586
 30
0.0
 40
1.5
100
AcDbArc
 50
93.590378
 51
180.0
  0
LINE
  5
6EB
100
AcDbEntity
  8
LAY-1
  6
CONTINUOUS
 62
     2
100
AcDbLine
 10
762.372583
 20
116.392732
 30
0.0
 11
762.372583
 21
123.752586
 31
0.0
  0
LINE
  5
6EC
100
AcDbEntity
  8
LAY-1
  6
CONTINUOUS
 62
     2
100
AcDbLine
 10
743.012728
 20
104.392732
 30
0.0
 11
750.372583
 21
104.392732
 31
0.0
  0
ARC
  5
6ED
100
AcDbEntity
  8
LAY-1
  6
CONTINUOUS
 62
     2
100
AcDbCircle
 10
750.372583
 20
71.137898
 30
0.0
 40
12.0
100
AcDbArc
 50
0.0
 51
90.0
  0
ARC
  5
6EE
100
AcDbEntity
  8
LAY-1
  6
CONTINUOUS
 62
     2
100
AcDbCircle
 10
743.012728
 20
84.637898
 30
0.0
 40
1.5
100
AcDbArc
 50
183.590378
 51
270.0
  0
ARC
  5
6EF
100
AcDbEntity
  8
LAY-1
  6
CONTINUOUS
 62
     2
100
AcDbCircle
 10
763.872583
 20
63.778043
 30
0.0
 40
1.5
100
AcDbArc
 50
180.0
 51
266.409622
  0
LINE
  5
6F0
100
AcDbEntity
  8
LAY-1
  6
CONTINUOUS
 62
     2
100
AcDbLine
 10
762.372583
 20
71.137898
 30
0.0
 11
762.372583
 21
63.778043
 31
0.0
  0
LINE
  5
6F1
100
AcDbEntity
  8
LAY-1
  6
CONTINUOUS
 62
     2
100
AcDbLine
 10
743.012728
 20
83.137898
 30
0.0
 11
750.372583
 21
83.137898
 31
0.0
  0
CIRCLE
  5
6F2
100
AcDbEntity
  8
LAY-1
  6
CONTINUOUS
 62
     2
100
AcDbCircle
 10
773.0
 20
93.765315
 30
0.0
 40
11.0
  0
CIRCLE
  5
6F3
100
AcDbEntity
  8
LAY-1
  6
CONTINUOUS
 62
     2
100
AcDbCircle
 10
773.0
 20
93.765315
 30
0.0
 40
17.0
  0
ARC
  5
6F4
100
AcDbEntity
  8
LAY-1
  6
CONTINUOUS
 62
     2
100
AcDbCircle
 10
773.0
 20
93.765315
 30
0.0
 40
32.0
100
AcDbArc
 50
356.409622
 51
3.590378
  0
ARC
  5
6F5
100
AcDbEntity
  8
LAY-1
  6
CONTINUOUS
 62
     2
100
AcDbCircle
 10
773.0
 20
93.765315
 30
0.0
 40
32.0
100
AcDbArc
 50
266.409622
 51
273.590378
  0
ARC
  5
6F6
100
AcDbEntity
  8
LAY-1
  6
CONTINUOUS
 62
     2
100
AcDbCircle
 10
773.0
 20
93.765315
 30
0.0
 40
32.0
100
AcDbArc
 50
176.409622
 51
183.590378
  0
ARC
  5
6F7
100
AcDbEntity
  8
LAY-1
  6
CONTINUOUS
 62
     2
100
AcDbCircle
 10
773.0
 20
93.765315
 30
0.0
 40
32.0
100
AcDbArc
 50
86.409622
 51
93.590378
  0
ARC
  5
6F8
100
AcDbEntity
  8
LAY-1
  6
CONTINUOUS
 62
     2
100
AcDbCircle
 10
795.627417
 20
116.392732
 30
0.0
 40
8.0
100
AcDbArc
 50
3.590378
 51
86.409622
  0
ARC
  5
6F9
100
AcDbEntity
  8
LAY-1
  6
CONTINUOUS
 62
     2
100
AcDbCircle
 10
795.627417
 20
71.137898
 30
0.0
 40
8.0
100
AcDbArc
 50
273.590378
 51
356.409622
  0
ARC
  5
6FA
100
AcDbEntity
  8
LAY-1
  6
CONTINUOUS
 62
     2
100
AcDbCircle
 10
750.372583
 20
71.137898
 30
0.0
 40
8.0
100
AcDbArc
 50
183.590378
 51
266.409622
  0
ARC
  5
6FB
100
AcDbEntity
  8
LAY-1
  6
CONTINUOUS
 62
     2
100
AcDbCircle
 10
750.372583
 20
116.392732
 30
0.0
 40
8.0
100
AcDbArc
 50
93.590378
 51
176.409622
  0
LINE
  5
6FC
100
AcDbEntity
  8
LAY-1
  6
CONTINUOUS
 62
     2
100
AcDbLine
 10
770.996067
 20
61.828122
 30
0.0
 11
749.8716
 21
63.1536
 31
0.0
  0
LINE
  5
6FD
100
AcDbEntity
  8
LAY-1
  6
CONTINUOUS
 62
     2
100
AcDbLine
 10
796.1284
 20
63.1536
 30
0.0
 11
775.003933
 21
61.828122
 31
0.0
  0
LINE
  5
6FE
100
AcDbEntity
  8
LAY-1
  6
CONTINUOUS
 62
     2
100
AcDbLine
 10
804.937192
 20
91.761381
 30
0.0
 11
803.611715
 21
70.636914
 31
0.0
  0
LINE
  5
6FF
100
AcDbEntity
  8
LAY-1
  6
CONTINUOUS
 62
     2
100
AcDbLine
 10
775.003933
 20
125.702507
 30
0.0
 11
796.1284
 21
124.37703
 31
0.0
  0
LINE
  5
700
100
AcDbEntity
  8
LAY-1
  6
CONTINUOUS
 62
     2
100
AcDbLine
 10
749.8716
 20
124.37703
 30
0.0
 11
770.996067
 21
125.702507
 31
0.0
  0
LINE
  5
701
100
AcDbEntity
  8
LAY-1
  6
CONTINUOUS
 62
     2
100
AcDbLine
 10
741.062808
 20
95.769248
 30
0.0
 11
742.388285
 21
116.893715
 31
0.0
  0
LINE
  5
702
100
AcDbEntity
  8
LAY-1
  6
CONTINUOUS
 62
     2
100
AcDbLine
 10
741.062808
 20
91.761381
 30
0.0
 11
742.388285
 21
70.636914
 31
0.0
  0
LINE
  5
703
100
AcDbEntity
  8
LAY-1
  6
CONTINUOUS
 62
     2
100
AcDbLine
 10
789.129852
 20
120.143623
 30
0.0
 11
789.129852
 21
112.734489
 31
0.0
  0
LINE
  5
704
100
AcDbEntity
  8
LAY-1
  6
CONTINUOUS
 62
     2
100
AcDbLine
 10
799.0
 20
141.265315
 30
0.0
 11
862.0
 21
141.265315
 31
0.0
  0
LINE
  5
705
100
AcDbEntity
  8
LAY-1
  6
CONTINUOUS
 62
     2
100
AcDbLine
 10
684.0
 20
141.265315
 30
0.0
 11
747.0
 21
141.265315
 31
0.0
  0
LINE
  5
706
100
AcDbEntity
  8
LAY-1
  6
CONTINUOUS
 62
     2
100
AcDbLine
 10
777.967707
 20
129.065315
 30
0.0
 11
863.0
 21
129.065315
 31
0.0
  0
LINE
  5
707
100
AcDbEntity
  8
LAY-1
  6
CONTINUOUS
 62
     2
100
AcDbLine
 10
777.958279
 20
128.765315
 30
0.0
 11
863.0
 21
128.765315
 31
0.0
  0
LINE
  5
708
100
AcDbEntity
  8
LAY-1
  6
CONTINUOUS
 62
     2
100
AcDbLine
 10
683.0
 20
128.765315
 30
0.0
 11
768.041721
 21
128.765315
 31
0.0
  0
LINE
  5
709
100
AcDbEntity
  8
LAY-1
  6
CONTINUOUS
 62
     2
100
AcDbLine
 10
683.0
 20
129.065315
 30
0.0
 11
768.032293
 21
129.065315
 31
0.0
  0
LINE
  5
70A
100
AcDbEntity
  8
LAY-1
  6
CONTINUOUS
 62
     2
100
AcDbLine
 10
872.0
 20
69.765315
 30
0.0
 11
803.508788
 21
69.765315
 31
0.0
  0
LINE
  5
70B
100
AcDbEntity
  8
LAY-1
  6
CONTINUOUS
 62
     2
100
AcDbLine
 10
803.611715
 20
116.893715
 30
0.0
 11
804.937192
 21
95.769248
 31
0.0
  0
LINE
  5
70C
100
AcDbEntity
  8
LAY-1
  6
CONTINUOUS
 62
     2
100
AcDbLine
 10
861.0
 20
115.265315
 30
0.0
 11
803.713891
 21
115.265315
 31
0.0
  0
LINE
  5
70D
100
AcDbEntity
  8
LAY-1
  6
CONTINUOUS
 62
     2
100
AcDbLine
 10
742.286109
 20
115.265315
 30
0.0
 11
685.0
 21
115.265315
 31
0.0
  0
LINE
  5
70E
100
AcDbEntity
  8
LAY-1
  6
CONTINUOUS
 62
     2
100
AcDbLine
 10
742.491212
 20
69.765315
 30
0.0
 11
674.0
 21
69.765315
 31
0.0
  0
LINE
  5
70F
100
AcDbEntity
  8
LAY-1
  6
CONTINUOUS
 62
     2
100
AcDbLine
 10
872.0
 20
117.765315
 30
0.0
 11
863.0
 21
117.765315
 31
0.0
  0
LINE
  5
710
100
AcDbEntity
  8
LAY-1
  6
CONTINUOUS
 62
     2
100
AcDbLine
 10
674.0
 20
117.765315
 30
0.0
 11
683.0
 21
117.765315
 31
0.0
  0
LINE
  5
711
100
AcDbEntity
  8
LAY-1
  6
CONTINUOUS
 62
     2
100
AcDbLine
 10
858.61359
 20
144.48306
 30
0.0
 11
858.692254
 21
142.230415
 31
0.0
  0
ARC
  5
712
100
AcDbEntity
  8
LAY-1
  6
CONTINUOUS
 62
     2
100
AcDbCircle
 10
857.614199
 20
144.448161
 30
0.0
 40
1.0
100
AcDbArc
 50
2.0
 51
80.0
  0
ARC
  5
713
100
AcDbEntity
  8
LAY-1
  6
CONTINUOUS
 62
     2
100
AcDbCircle
 10
859.691645
 20
142.265315
 30
0.0
 40
1.0
100
AcDbArc
 50
182.0
 51
270.0
  0
ARC
  5
714
100
AcDbEntity
  8
LAY-1
  6
CONTINUOUS
 62
     2
100
AcDbCircle
 10
820.152262
 20
151.053711
 30
0.0
 40
1.0
100
AcDbArc
 50
80.0
 51
178.0
  0
LINE
  5
715
100
AcDbEntity
  8
LAY-1
  6
CONTINUOUS
 62
     2
100
AcDbLine
 10
819.152871
 20
151.088611
 30
0.0
 11
819.143176
 21
150.810973
 31
0.0
  0
ARC
  5
716
100
AcDbEntity
  8
LAY-1
  6
CONTINUOUS
 62
     2
100
AcDbCircle
 10
818.143785
 20
150.845873
 30
0.0
 40
1.0
100
AcDbArc
 50
214.050283
 51
358.0
  0
LINE
  5
717
100
AcDbEntity
  8
LAY-1
  6
EXLTYPE3
 62
     1
100
AcDbLine
 10
578.546491
 20
93.765315
 30
0.0
 11
969.585435
 21
93.765315
 31
0.0
  0
LINE
  5
718
100
AcDbEntity
  8
LAY-1
  6
EXLTYPE3
 62
     1
100
AcDbLine
 10
773.0
 20
336.765315
 30
0.0
 11
773.0
 21
42.5
 31
0.0
  0
LINE
  5
719
100
AcDbEntity
  8
LAY-1
  6
EXLTYPE3
 62
     1
100
AcDbLine
 10
695.336861
 20
142.865315
 30
0.0
 11
695.336861
 21
148.787964
 31
0.0
  0
ARC
  5
71A
100
AcDbEntity
  8
LAY-1
  6
EXLTYPE3
 62
     1
100
AcDbCircle
 10
704.716026
 20
146.036526
 30
0.0
 40
3.328788
100
AcDbArc
 50
55.746813
 51
124.253187
  0
LINE
  5
71B
100
AcDbEntity
  8
LAY-1
  6
EXLTYPE3
 62
     1
100
AcDbLine
 10
702.842414
 20
148.787964
 30
0.0
 11
702.842414
 21
142.865315
 31
0.0
  0
ARC
  5
71C
100
AcDbEntity
  8
LAY-1
  6
EXLTYPE3
 62
     1
100
AcDbCircle
 10
693.473068
 20
146.068307
 30
0.0
 40
3.297008
100
AcDbArc
 50
55.576995
 51
124.703566
  0
LINE
  5
71D
100
AcDbEntity
  8
LAY-1
  6
EXLTYPE3
 62
     1
100
AcDbLine
 10
692.589637
 20
149.365315
 30
0.0
 11
691.589637
 21
148.787964
 31
0.0
  0
LINE
  5
71E
100
AcDbEntity
  8
LAY-1
  6
EXLTYPE3
 62
     1
100
AcDbLine
 10
705.589637
 20
149.365315
 30
0.0
 11
706.589637
 21
148.787964
 31
0.0
  0
ARC
  5
71F
100
AcDbEntity
  8
LAY-1
  6
EXLTYPE3
 62
     1
100
AcDbCircle
 10
699.089637
 20
136.880115
 30
0.0
 40
12.4852
100
AcDbArc
 50
72.507675
 51
107.492325
  0
LINE
  5
720
100
AcDbEntity
  8
LAY-1
  6
EXLTYPE3
 62
     1
100
AcDbLine
 10
691.589637
 20
148.787964
 30
0.0
 11
691.589637
 21
142.865315
 31
0.0
  0
LINE
  5
721
100
AcDbEntity
  8
LAY-1
  6
EXLTYPE3
 62
     1
100
AcDbLine
 10
705.570378
 20
149.365315
 30
0.0
 11
692.589637
 21
149.365315
 31
0.0
  0
LINE
  5
722
100
AcDbEntity
  8
LAY-1
  6
EXLTYPE3
 62
     1
100
AcDbLine
 10
706.589637
 20
142.865315
 30
0.0
 11
706.589637
 21
148.787964
 31
0.0
  0
LINE
  5
723
100
AcDbEntity
  8
LAY-1
  6
EXLTYPE3
 62
     1
100
AcDbLine
 10
691.589637
 20
142.865315
 30
0.0
 11
691.589637
 21
141.265315
 31
0.0
  0
LINE
  5
724
100
AcDbEntity
  8
LAY-1
  6
EXLTYPE3
 62
     1
100
AcDbLine
 10
706.589637
 20
142.865315
 30
0.0
 11
691.589637
 21
142.865315
 31
0.0
  0
LINE
  5
725
100
AcDbEntity
  8
LAY-1
  6
EXLTYPE3
 62
     1
100
AcDbLine
 10
706.589637
 20
141.265315
 30
0.0
 11
706.589637
 21
142.865315
 31
0.0
  0
ARC
  5
726
100
AcDbEntity
  8
LAY-1
  6
CONTINUOUS
 62
     1
100
AcDbCircle
 10
699.089637
 20
149.365315
 30
0.0
 40
5.75
100
AcDbArc
 50
0.0
 51
180.0
  0
LINE
  5
727
100
AcDbEntity
  8
LAY-1
  6
EXLTYPE3
 62
     1
100
AcDbLine
 10
738.632549
 20
142.865315
 30
0.0
 11
738.632549
 21
148.787964
 31
0.0
  0
LINE
  5
728
100
AcDbEntity
  8
LAY-1
  6
EXLTYPE3
 62
     1
100
AcDbLine
 10
746.138102
 20
148.787964
 30
0.0
 11
746.138102
 21
142.865315
 31
0.0
  0
ARC
  5
729
100
AcDbEntity
  8
LAY-1
  6
EXLTYPE3
 62
     1
100
AcDbCircle
 10
736.768756
 20
146.068307
 30
0.0
 40
3.297008
100
AcDbArc
 50
55.576995
 51
124.703566
  0
LINE
  5
72A
100
AcDbEntity
  8
LAY-1
  6
EXLTYPE3
 62
     1
100
AcDbLine
 10
735.885325
 20
149.365315
 30
0.0
 11
734.885325
 21
148.787964
 31
0.0
  0
ARC
  5
72B
100
AcDbEntity
  8
LAY-1
  6
EXLTYPE3
 62
     1
100
AcDbCircle
 10
742.385325
 20
136.880115
 30
0.0
 40
12.4852
100
AcDbArc
 50
72.507675
 51
107.492325
  0
LINE
  5
72C
100
AcDbEntity
  8
LAY-1
  6
EXLTYPE3
 62
     1
100
AcDbLine
 10
734.885325
 20
148.787964
 30
0.0
 11
734.885325
 21
142.865315
 31
0.0
  0
LINE
  5
72D
100
AcDbEntity
  8
LAY-1
  6
EXLTYPE3
 62
     1
100
AcDbLine
 10
734.885325
 20
142.865315
 30
0.0
 11
734.885325
 21
141.265315
 31
0.0
  0
LINE
  5
72E
100
AcDbEntity
  8
LAY-1
  6
CONTINUOUS
 62
     2
100
AcDbLine
 10
734.885325
 20
146.765315
 30
0.0
 11
713.056343
 21
146.765315
 31
0.0
  0
ARC
  5
72F
100
AcDbEntity
  8
LAY-1
  6
CONTINUOUS
 62
     1
100
AcDbCircle
 10
742.385325
 20
149.365315
 30
0.0
 40
5.75
100
AcDbArc
 50
36.625494
 51
180.0
  0
ARC
  5
730
100
AcDbEntity
  8
LAY-1
  6
EXLTYPE3
 62
     1
100
AcDbCircle
 10
748.011714
 20
146.036526
 30
0.0
 40
3.328788
100
AcDbArc
 50
107.693713
 51
124.253187
  0
LINE
  5
731
100
AcDbEntity
  8
LAY-1
  6
EXLTYPE3
 62
     1
100
AcDbLine
 10
747.0
 20
149.365315
 30
0.0
 11
735.885325
 21
149.365315
 31
0.0
  0
LINE
  5
732
100
AcDbEntity
  8
LAY-1
  6
EXLTYPE3
 62
     1
100
AcDbLine
 10
747.0
 20
142.865315
 30
0.0
 11
734.885325
 21
142.865315
 31
0.0
  0
ARC
  5
733
100
AcDbEntity
  8
LAY-1
  6
CONTINUOUS
 62
     1
100
AcDbCircle
 10
803.614675
 20
149.365315
 30
0.0
 40
5.75
100
AcDbArc
 50
0.0
 51
143.374506
  0
LINE
  5
734
100
AcDbEntity
  8
LAY-1
  6
EXLTYPE3
 62
     1
100
AcDbLine
 10
807.367451
 20
142.865315
 30
0.0
 11
807.367451
 21
148.787964
 31
0.0
  0
LINE
  5
735
100
AcDbEntity
  8
LAY-1
  6
EXLTYPE3
 62
     1
100
AcDbLine
 10
799.861898
 20
148.787964
 30
0.0
 11
799.861898
 21
142.865315
 31
0.0
  0
ARC
  5
736
100
AcDbEntity
  8
LAY-1
  6
EXLTYPE3
 62
     1
100
AcDbCircle
 10
809.231244
 20
146.068307
 30
0.0
 40
3.297008
100
AcDbArc
 50
55.296434
 51
124.423005
  0
LINE
  5
737
100
AcDbEntity
  8
LAY-1
  6
EXLTYPE3
 62
     1
100
AcDbLine
 10
810.114675
 20
149.365315
 30
0.0
 11
811.114675
 21
148.787964
 31
0.0
  0
ARC
  5
738
100
AcDbEntity
  8
LAY-1
  6
EXLTYPE3
 62
     1
100
AcDbCircle
 10
803.614675
 20
136.880115
 30
0.0
 40
12.4852
100
AcDbArc
 50
72.507675
 51
107.492325
  0
LINE
  5
739
100
AcDbEntity
  8
LAY-1
  6
EXLTYPE3
 62
     1
100
AcDbLine
 10
811.114675
 20
148.787964
 30
0.0
 11
811.114675
 21
142.865315
 31
0.0
  0
LINE
  5
73A
100
AcDbEntity
  8
LAY-1
  6
EXLTYPE3
 62
     1
100
AcDbLine
 10
811.114675
 20
142.865315
 30
0.0
 11
811.114675
 21
141.265315
 31
0.0
  0
ARC
  5
73B
100
AcDbEntity
  8
LAY-1
  6
EXLTYPE3
 62
     1
100
AcDbCircle
 10
797.988286
 20
146.036526
 30
0.0
 40
3.328788
100
AcDbArc
 50
55.746813
 51
72.306287
  0
LINE
  5
73C
100
AcDbEntity
  8
LAY-1
  6
EXLTYPE3
 62
     1
100
AcDbLine
 10
799.0
 20
149.365315
 30
0.0
 11
810.114675
 21
149.365315
 31
0.0
  0
LINE
  5
73D
100
AcDbEntity
  8
LAY-1
  6
EXLTYPE3
 62
     1
100
AcDbLine
 10
799.0
 20
142.865315
 30
0.0
 11
811.114675
 21
142.865315
 31
0.0
  0
LINE
  5
73E
100
AcDbEntity
  8
LAY-1
  6
CONTINUOUS
 62
     2
100
AcDbLine
 10
832.943657
 20
146.765315
 30
0.0
 11
811.114675
 21
146.765315
 31
0.0
  0
LINE
  5
73F
100
AcDbEntity
  8
LAY-1
  6
CONTINUOUS
 62
     2
100
AcDbLine
 10
820.32591
 20
152.038519
 30
0.0
 11
839.410363
 21
148.673415
 31
0.0
  0
LINE
  5
740
100
AcDbEntity
  8
LAY-1
  6
CONTINUOUS
 62
     2
100
AcDbLine
 10
854.410363
 20
146.02851
 30
0.0
 11
857.787847
 21
145.432969
 31
0.0
  0
ARC
  5
741
100
AcDbEntity
  8
LAY-1
  6
CONTINUOUS
 62
     1
100
AcDbCircle
 10
846.910363
 20
149.365315
 30
0.0
 40
5.75
100
AcDbArc
 50
0.0
 51
180.0
  0
LINE
  5
742
100
AcDbEntity
  8
LAY-1
  6
EXLTYPE3
 62
     1
100
AcDbLine
 10
839.410363
 20
141.265315
 30
0.0
 11
839.410363
 21
142.865315
 31
0.0
  0
LINE
  5
743
100
AcDbEntity
  8
LAY-1
  6
EXLTYPE3
 62
     1
100
AcDbLine
 10
839.410363
 20
142.865315
 30
0.0
 11
854.410363
 21
142.865315
 31
0.0
  0
LINE
  5
744
100
AcDbEntity
  8
LAY-1
  6
EXLTYPE3
 62
     1
100
AcDbLine
 10
854.410363
 20
142.865315
 30
0.0
 11
854.410363
 21
141.265315
 31
0.0
  0
LINE
  5
745
100
AcDbEntity
  8
LAY-1
  6
EXLTYPE3
 62
     1
100
AcDbLine
 10
839.410363
 20
142.865315
 30
0.0
 11
839.410363
 21
148.787964
 31
0.0
  0
LINE
  5
746
100
AcDbEntity
  8
LAY-1
  6
EXLTYPE3
 62
     1
100
AcDbLine
 10
840.429622
 20
149.365315
 30
0.0
 11
853.410363
 21
149.365315
 31
0.0
  0
LINE
  5
747
100
AcDbEntity
  8
LAY-1
  6
EXLTYPE3
 62
     1
100
AcDbLine
 10
854.410363
 20
148.787964
 30
0.0
 11
854.410363
 21
142.865315
 31
0.0
  0
ARC
  5
748
100
AcDbEntity
  8
LAY-1
  6
EXLTYPE3
 62
     1
100
AcDbCircle
 10
846.910363
 20
136.880115
 30
0.0
 40
12.4852
100
AcDbArc
 50
72.507675
 51
107.492325
  0
LINE
  5
749
100
AcDbEntity
  8
LAY-1
  6
EXLTYPE3
 62
     1
100
AcDbLine
 10
840.410363
 20
149.365315
 30
0.0
 11
839.410363
 21
148.787964
 31
0.0
  0
LINE
  5
74A
100
AcDbEntity
  8
LAY-1
  6
EXLTYPE3
 62
     1
100
AcDbLine
 10
853.410363
 20
149.365315
 30
0.0
 11
854.410363
 21
148.787964
 31
0.0
  0
ARC
  5
74B
100
AcDbEntity
  8
LAY-1
  6
EXLTYPE3
 62
     1
100
AcDbCircle
 10
852.526932
 20
146.068307
 30
0.0
 40
3.297008
100
AcDbArc
 50
55.296434
 51
124.423005
  0
LINE
  5
74C
100
AcDbEntity
  8
LAY-1
  6
EXLTYPE3
 62
     1
100
AcDbLine
 10
843.157586
 20
148.787964
 30
0.0
 11
843.157586
 21
142.865315
 31
0.0
  0
ARC
  5
74D
100
AcDbEntity
  8
LAY-1
  6
EXLTYPE3
 62
     1
100
AcDbCircle
 10
841.283974
 20
146.036526
 30
0.0
 40
3.328788
100
AcDbArc
 50
55.746813
 51
124.253187
  0
LINE
  5
74E
100
AcDbEntity
  8
LAY-1
  6
EXLTYPE3
 62
     1
100
AcDbLine
 10
850.663139
 20
142.865315
 30
0.0
 11
850.663139
 21
148.787964
 31
0.0
  0
CIRCLE
  5
74F
100
AcDbEntity
  8
LAY-1
  6
CONTINUOUS
 62
     2
100
AcDbCircle
 10
1377.524147
 20
505.0
 30
0.0
 40
7.0
  0
POLYLINE
  5
750
100
AcDbEntity
  8
LAY-1
  6
CONTINUOUS
 62
     2
100
AcDb2dPolyline
 66
     1
 10
0.0
 20
0.0
 30
0.0
 70
   128
  0
VERTEX
  5
751
100
AcDbEntity
  8
LAY-1
  6
CONTINUOUS
 62
     2
100
AcDbVertex
100
AcDb2dVertex
 10
1377.524147
 20
496.917096
 30
0.0
  0
VERTEX
  5
752
100
AcDbEntity
  8
LAY-1
  6
CONTINUOUS
 62
     2
100
AcDbVertex
100
AcDb2dVertex
 10
1384.524147
 20
500.958548
 30
0.0
  0
VERTEX
  5
753
100
AcDbEntity
  8
LAY-1
  6
CONTINUOUS
 62
     2
100
AcDbVertex
100
AcDb2dVertex
 10
1384.524147
 20
509.041452
 30
0.0
  0
VERTEX
  5
754
100
AcDbEntity
  8
LAY-1
  6
CONTINUOUS
 62
     2
100
AcDbVertex
100
AcDb2dVertex
 10
1377.524147
 20
513.082904
 30
0.0
  0
VERTEX
  5
755
100
AcDbEntity
  8
LAY-1
  6
CONTINUOUS
 62
     2
100
AcDbVertex
100
AcDb2dVertex
 10
1370.524147
 20
509.041452
 30
0.0
  0
VERTEX
  5
756
100
AcDbEntity
  8
LAY-1
  6
CONTINUOUS
 62
     2
100
AcDbVertex
100
AcDb2dVertex
 10
1370.524147
 20
500.958548
 30
0.0
  0
VERTEX
  5
757
100
AcDbEntity
  8
LAY-1
  6
CONTINUOUS
 62
     2
100
AcDbVertex
100
AcDb2dVertex
 10
1377.524147
 20
496.917096
 30
0.0
  0
SEQEND
  5
758
100
AcDbEntity
  8
LAY-1
  6
CONTINUOUS
 62
     2
  0
CIRCLE
  5
759
100
AcDbEntity
  8
LAY-1
  6
CONTINUOUS
 62
     2
100
AcDbCircle
 10
168.475853
 20
505.0
 30
0.0
 40
7.0
  0
POLYLINE
  5
75A
100
AcDbEntity
  8
LAY-1
  6
CONTINUOUS
 62
     2
100
AcDb2dPolyline
 66
     1
 10
0.0
 20
0.0
 30
0.0
 70
   128
  0
VERTEX
  5
75B
100
AcDbEntity
  8
LAY-1
  6
CONTINUOUS
 62
     2
100
AcDbVertex
100
AcDb2dVertex
 10
168.475853
 20
496.917096
 30
0.0
  0
VERTEX
  5
75C
100
AcDbEntity
  8
LAY-1
  6
CONTINUOUS
 62
     2
100
AcDbVertex
100
AcDb2dVertex
 10
161.475853
 20
500.958548
 30
0.0
  0
VERTEX
  5
75D
100
AcDbEntity
  8
LAY-1
  6
CONTINUOUS
 62
     2
100
AcDbVertex
100
AcDb2dVertex
 10
161.475853
 20
509.041452
 30
0.0
  0
VERTEX
  5
75E
100
AcDbEntity
  8
LAY-1
  6
CONTINUOUS
 62
     2
100
AcDbVertex
100
AcDb2dVertex
 10
168.475853
 20
513.082904
 30
0.0
  0
VERTEX
  5
75F
100
AcDbEntity
  8
LAY-1
  6
CONTINUOUS
 62
     2
100
AcDbVertex
100
AcDb2dVertex
 10
175.475853
 20
509.041452
 30
0.0
  0
VERTEX
  5
760
100
AcDbEntity
  8
LAY-1
  6
CONTINUOUS
 62
     2
100
AcDbVertex
100
AcDb2dVertex
 10
175.475853
 20
500.958548
 30
0.0
  0
VERTEX
  5
761
100
AcDbEntity
  8
LAY-1
  6
CONTINUOUS
 62
     2
100
AcDbVertex
100
AcDb2dVertex
 10
168.475853
 20
496.917096
 30
0.0
  0
SEQEND
  5
762
100
AcDbEntity
  8
LAY-1
  6
CONTINUOUS
 62
     2
  0
TEXT
  5
763
100
AcDbEntity
  8
LAY-2
  6
CONTINUOUS
 62
     3
100
AcDbText
 10
1077.347299
 20
196.328
 30
0.0
 40
16.0
  1
型式
 41
0.984714
  7
EXCADSTD
 72
     5
 11
1111.731624
 21
196.328
 31
0.0
100
AcDbText
  0
TEXT
  5
764
100
AcDbEntity
  8
LAY-2
  6
CONTINUOUS
 62
     3
100
AcDbText
 10
1076.963299
 20
173.8
 30
0.0
 40
16.0
  1
品名
 41
0.984714
  7
EXCADSTD
 72
     5
 11
1111.347624
 21
173.8
 31
0.0
100
AcDbText
  0
LINE
  5
765
100
AcDbEntity
  8
LAY-2
  6
CONTINUOUS
 62
     4
100
AcDbLine
 10
1069.795299
 20
151.08
 30
0.0
 11
1356.515299
 21
151.08
 31
0.0
  0
LINE
  5
766
100
AcDbEntity
  8
LAY-2
  6
CONTINUOUS
 62
     1
100
AcDbLine
 10
1069.795299
 20
170.6
 30
0.0
 11
1356.515299
 21
170.6
 31
0.0
  0
TEXT
  5
767
100
AcDbEntity
  8
LAY-2
  6
CONTINUOUS
 62
     3
100
AcDbText
 10
1171.683299
 20
153.192
 30
0.0
 40
16.0
  1
外観図
 41
1.47392
  7
EXCADSTD
 72
     5
 11
1255.907298
 21
153.192
 31
0.0
100
AcDbText
  0
LINE
  5
768
100
AcDbEntity
  8
LAY-2
  6
CONTINUOUS
 62
     4
100
AcDbLine
 10
1069.795299
 20
237.8
 30
0.0
 11
1356.515299
 21
237.8
 31
0.0
  0
LINE
  5
769
100
AcDbEntity
  8
LAY-2
  6
CONTINUOUS
 62
     1
100
AcDbLine
 10
1069.795299
 20
193.0
 30
0.0
 11
1356.515299
 21
193.0
 31
0.0
  0
LINE
  5
76A
100
AcDbEntity
  8
LAY-2
  6
CONTINUOUS
 62
     1
100
AcDbLine
 10
1069.795299
 20
215.4
 30
0.0
 11
1356.515299
 21
215.4
 31
0.0
  0
LINE
  5
76B
100
AcDbEntity
  8
LAY-2
  6
CONTINUOUS
 62
     1
100
AcDbLine
 10
1117.795299
 20
237.8
 30
0.0
 11
1117.795299
 21
170.6
 31
0.0
  0
LINE
  5
76C
100
AcDbEntity
  8
LAY-2
  6
CONTINUOUS
 62
     4
100
AcDbLine
 10
1069.795299
 20
131.56
 30
0.0
 11
1356.515299
 21
131.56
 31
0.0
  0
LINE
  5
76D
100
AcDbEntity
  8
LAY-2
  6
CONTINUOUS
 62
     4
100
AcDbLine
 10
1356.515299
 20
131.56
 30
0.0
 11
1356.515299
 21
237.8
 31
0.0
  0
LINE
  5
76E
100
AcDbEntity
  8
LAY-2
  6
CONTINUOUS
 62
     4
100
AcDbLine
 10
1069.795299
 20
131.56
 30
0.0
 11
1069.795299
 21
237.8
 31
0.0
  0
TEXT
  5
76F
100
AcDbEntity
  8
LAY-2
  6
CONTINUOUS
 62
     3
100
AcDbText
 10
1071.843299
 20
218.216
 30
0.0
 40
16.0
  1
作成日
 41
0.84
  7
EXCADSTD
 72
     5
 11
1119.843299
 21
218.216
 31
0.0
100
AcDbText
  0
TEXT
  5
770
100
AcDbEntity
  8
LAY-2
  6
CONTINUOUS
 62
     3
100
AcDbText
 10
1125.718499
 20
173.8128
 30
0.0
 40
16.0
  1
自動切替式分離型調整器
 41
0.84
  7
EXCADSTD
 72
     5
 11
1301.718499
 21
173.8128
 31
0.0
100
AcDbText
  0
TEXT
  5
771
100
AcDbEntity
  8
LAY-2
  6
CONTINUOUS
 62
     3
100
AcDbText
 10
1125.744099
 20
196.136
 30
0.0
 40
16.0
  1
ＡＸ－７０－０
 41
0.84
  7
EXCADSTD
 72
     5
 11
1237.744099
 21
196.136
 31
0.0
100
AcDbText
  0
INSERT
  5
772
100
AcDbEntity
  8
LAY-2
  6
CONTINUOUS
 62
     0
100
AcDbBlockReference
  2
SYM-1
 10
1212.362796
 20
141.38694
 30
0.0
 41
2.3868
 42
2.3868
  0
TEXT
  5
773
100
AcDbEntity
  8
LAY-2
  6
CONTINUOUS
 62
     3
100
AcDbText
 10
1125.266979
 20
219.55872
 30
0.0
 40
16.32
  1
２０１４年　４月　１日
 41
0.84
  7
EXCADSTD
 72
     5
 11
1304.786976
 21
219.55872
 31
0.0
100
AcDbText
  0
POLYLINE
  5
774
100
AcDbEntity
  8
LAY-5
  6
CONTINUOUS
 62
     1
100
AcDb2dPolyline
 66
     1
 10
0.0
 20
0.0
 30
0.0
 70
   128
  0
VERTEX
  5
775
100
AcDbEntity
  8
LAY-5
  6
CONTINUOUS
 62
     1
100
AcDbVertex
100
AcDb2dVertex
 10
609.0
 20
577.0
 30
0.0
  0
VERTEX
  5
776
100
AcDbEntity
  8
LAY-5
  6
CONTINUOUS
 62
     1
100
AcDbVertex
100
AcDb2dVertex
 10
593.2
 20
442.5
 30
0.0
  0
VERTEX
  5
777
100
AcDbEntity
  8
LAY-5
  6
CONTINUOUS
 62
     1
100
AcDbVertex
100
AcDb2dVertex
 10
287.2
 20
442.5
 30
0.0
  0
SEQEND
  5
778
100
AcDbEntity
  8
LAY-5
  6
CONTINUOUS
 62
     1
  0
LINE
  5
779
100
AcDbEntity
  8
LAY-5
  6
CONTINUOUS
 62
     1
100
AcDbLine
 10
609.366439
 20
569.405382
 30
0.0
 11
609.0
 21
577.0
 31
0.0
  0
LINE
  5
77A
100
AcDbEntity
  8
LAY-5
  6
CONTINUOUS
 62
     1
100
AcDbLine
 10
609.0
 20
577.0
 30
0.0
 11
606.883513
 21
569.697057
 31
0.0
  0
TEXT
  5
77B
100
AcDbEntity
  8
LAY-5
  6
CONTINUOUS
 62
     3
100
AcDbText
 10
299.2
 20
442.8
 30
0.0
 40
25.0
  1
ＪＩＳ２０Ｋ　２０Ａフランジ
 41
0.684
  7
EXCADSTD
 72
     5
 11
584.2
 21
442.8
 31
0.0
100
AcDbText
  0
TEXT
  5
77C
100
AcDbEntity
  8
LAY-5
  6
CONTINUOUS
 62
     3
100
AcDbText
 10
961.8
 20
442.8
 30
0.0
 40
25.0
  1
ＪＩＳ２０Ｋ　２０Ａフランジ
 41
0.684
  7
EXCADSTD
 72
     5
 11
1246.8
 21
442.8
 31
0.0
100
AcDbText
  0
POLYLINE
  5
77D
100
AcDbEntity
  8
LAY-5
  6
CONTINUOUS
 62
     1
100
AcDb2dPolyline
 66
     1
 10
0.0
 20
0.0
 30
0.0
 70
   128
  0
VERTEX
  5
77E
100
AcDbEntity
  8
LAY-5
  6
CONTINUOUS
 62
     1
100
AcDbVertex
100
AcDb2dVertex
 10
937.0
 20
577.0
 30
0.0
  0
VERTEX
  5
77F
100
AcDbEntity
  8
LAY-5
  6
CONTINUOUS
 62
     1
100
AcDbVertex
100
AcDb2dVertex
 10
952.8
 20
442.5
 30
0.0
  0
VERTEX
  5
780
100
AcDbEntity
  8
LAY-5
  6
CONTINUOUS
 62
     1
100
AcDbVertex
100
AcDb2dVertex
 10
1258.8
 20
442.5
 30
0.0
  0
SEQEND
  5
781
100
AcDbEntity
  8
LAY-5
  6
CONTINUOUS
 62
     1
  0
LINE
  5
782
100
AcDbEntity
  8
LAY-5
  6
CONTINUOUS
 62
     1
100
AcDbLine
 10
939.116487
 20
569.697057
 30
0.0
 11
937.0
 21
577.0
 31
0.0
  0
LINE
  5
783
100
AcDbEntity
  8
LAY-5
  6
CONTINUOUS
 62
     1
100
AcDbLine
 10
937.0
 20
577.0
 30
0.0
 11
936.633561
 21
569.405382
 31
0.0
  0
TEXT
  5
784
100
AcDbEntity
  8
LAY-5
  6
CONTINUOUS
 62
     3
100
AcDbText
 10
695.913269
 20
443.82561
 30
0.0
 40
25.0
  1
Ｒ１
 41
0.84
  7
EXCADSTD
 72
     5
 11
741.743269
 21
443.82561
 31
0.0
100
AcDbText
  0
POLYLINE
  5
785
100
AcDbEntity
  8
LAY-5
  6
CONTINUOUS
 62
     1
100
AcDb2dPolyline
 66
     1
 10
0.0
 20
0.0
 30
0.0
 70
   128
  0
VERTEX
  5
786
100
AcDbEntity
  8
LAY-5
  6
CONTINUOUS
 62
     1
100
AcDbVertex
100
AcDb2dVertex
 10
767.975853
 20
467.0
 30
0.0
  0
VERTEX
  5
787
100
AcDbEntity
  8
LAY-5
  6
CONTINUOUS
 62
     1
100
AcDbVertex
100
AcDb2dVertex
 10
747.6
 20
442.5
 30
0.0
  0
VERTEX
  5
788
100
AcDbEntity
  8
LAY-5
  6
CONTINUOUS
 62
     1
100
AcDbVertex
100
AcDb2dVertex
 10
690.0
 20
442.5
 30
0.0
  0
SEQEND
  5
789
100
AcDbEntity
  8
LAY-5
  6
CONTINUOUS
 62
     1
  0
LINE
  5
78A
100
AcDbEntity
  8
LAY-5
  6
CONTINUOUS
 62
     1
100
AcDbLine
 10
764.908135
 20
461.747467
 30
0.0
 11
767.975853
 21
467.0
 31
0.0
  0
LINE
  5
78B
100
AcDbEntity
  8
LAY-5
  6
CONTINUOUS
 62
     1
100
AcDbLine
 10
767.975853
 20
467.0
 30
0.0
 11
763.370433
 21
463.026323
 31
0.0
  0
TEXT
  5
78C
100
AcDbEntity
  8
LAY-5
  6
CONTINUOUS
 62
     3
100
AcDbText
 10
713.625
 20
771.1
 30
0.0
 40
25.0
  1
３３０
 41
0.84
  7
EXCADSTD
 72
     5
 11
788.625
 21
771.1
 31
0.0
100
AcDbText
  0
TEXT
  5
78D
100
AcDbEntity
  8
LAY-5
  6
CONTINUOUS
 62
     3
100
AcDbText
 10
788.625
 20
783.6
 30
0.0
 40
18.75
  1
＋
 41
0.84
  7
EXCADSTD
 72
     5
 11
803.625
 21
783.6
 31
0.0
100
AcDbText
  0
TEXT
  5
78E
100
AcDbEntity
  8
LAY-5
  6
CONTINUOUS
 62
     3
100
AcDbText
 10
788.625
 20
764.85
 30
0.0
 40
18.75
  1
－
 41
0.84
  7
EXCADSTD
 72
     5
 11
803.625
 21
764.85
 31
0.0
100
AcDbText
  0
TEXT
  5
78F
100
AcDbEntity
  8
LAY-5
  6
CONTINUOUS
 62
     3
100
AcDbText
 10
807.375
 20
771.1
 30
0.0
 40
25.0
  1
２
 41
0.84
  7
EXCADSTD
 72
     5
 11
827.375
 21
771.1
 31
0.0
100
AcDbText
  0
LINE
  5
790
100
AcDbEntity
  8
LAY-5
  6
CONTINUOUS
 62
     1
100
AcDbLine
 10
938.0
 20
655.0
 30
0.0
 11
938.0
 21
769.6
 31
0.0
  0
LINE
  5
791
100
AcDbEntity
  8
LAY-5
  6
CONTINUOUS
 62
     1
100
AcDbLine
 10
608.0
 20
655.0
 30
0.0
 11
608.0
 21
769.6
 31
0.0
  0
LINE
  5
792
100
AcDbEntity
  8
LAY-5
  6
CONTINUOUS
 62
     1
100
AcDbLine
 10
938.0
 20
768.1
 30
0.0
 11
608.0
 21
768.1
 31
0.0
  0
LINE
  5
793
100
AcDbEntity
  8
LAY-5
  6
CONTINUOUS
 62
     1
100
AcDbLine
 10
932.0
 20
767.1
 30
0.0
 11
938.0
 21
768.1
 31
0.0
  0
LINE
  5
794
100
AcDbEntity
  8
LAY-5
  6
CONTINUOUS
 62
     1
100
AcDbLine
 10
938.0
 20
768.1
 30
0.0
 11
932.0
 21
769.1
 31
0.0
  0
LINE
  5
795
100
AcDbEntity
  8
LAY-5
  6
CONTINUOUS
 62
     1
100
AcDbLine
 10
614.0
 20
769.1
 30
0.0
 11
608.0
 21
768.1
 31
0.0
  0
LINE
  5
796
100
AcDbEntity
  8
LAY-5
  6
CONTINUOUS
 62
     1
100
AcDbLine
 10
608.0
 20
768.1
 30
0.0
 11
614.0
 21
767.1
 31
0.0
  0
LINE
  5
797
100
AcDbEntity
  8
LAY-5
  6
CONTINUOUS
 62
     1
100
AcDbLine
 10
118.475853
 20
627.0
 30
0.0
 11
118.475853
 21
814.850853
 31
0.0
  0
LINE
  5
798
100
AcDbEntity
  8
LAY-5
  6
CONTINUOUS
 62
     1
100
AcDbLine
 10
168.475853
 20
772.0
 30
0.0
 11
168.475853
 21
814.850853
 31
0.0
  0
TEXT
  5
799
100
AcDbEntity
  8
LAY-5
  6
CONTINUOUS
 62
     3
100
AcDbText
 10
118.475853
 20
815.350853
 30
0.0
 40
25.0
  1
５０
 41
0.84
  7
EXCADSTD
 72
     5
 11
164.305853
 21
815.350853
 31
0.0
100
AcDbText
  0
LINE
  5
79A
100
AcDbEntity
  8
LAY-5
  6
CONTINUOUS
 62
     1
100
AcDbLine
 10
118.475853
 20
814.350853
 30
0.0
 11
168.475853
 21
814.350853
 31
0.0
  0
LINE
  5
79B
100
AcDbEntity
  8
LAY-5
  6
CONTINUOUS
 62
     1
100
AcDbLine
 10
125.975853
 20
815.600853
 30
0.0
 11
118.475853
 21
814.350853
 31
0.0
  0
LINE
  5
79C
100
AcDbEntity
  8
LAY-5
  6
CONTINUOUS
 62
     1
100
AcDbLine
 10
118.475853
 20
814.350853
 30
0.0
 11
125.975853
 21
813.100853
 31
0.0
  0
LINE
  5
79D
100
AcDbEntity
  8
LAY-5
  6
CONTINUOUS
 62
     1
100
AcDbLine
 10
160.975853
 20
813.100853
 30
0.0
 11
168.475853
 21
814.350853
 31
0.0
  0
LINE
  5
79E
100
AcDbEntity
  8
LAY-5
  6
CONTINUOUS
 62
     1
100
AcDbLine
 10
168.475853
 20
814.350853
 30
0.0
 11
160.975853
 21
815.600853
 31
0.0
  0
LINE
  5
79F
100
AcDbEntity
  8
LAY-5
  6
CONTINUOUS
 62
     1
100
AcDbLine
 10
400.475853
 20
627.0
 30
0.0
 11
400.475853
 21
815.350853
 31
0.0
  0
TEXT
  5
7A0
100
AcDbEntity
  8
LAY-5
  6
CONTINUOUS
 62
     3
100
AcDbText
 10
221.975853
 20
815.850853
 30
0.0
 40
25.0
  1
（
 41
0.84
  7
EXCADSTD
 72
     5
 11
241.975853
 21
815.850853
 31
0.0
100
AcDbText
  0
TEXT
  5
7A1
100
AcDbEntity
  8
LAY-5
  6
CONTINUOUS
 62
     3
100
AcDbText
 10
246.975853
 20
815.850853
 30
0.0
 40
25.0
  1
２３２
 41
0.84
  7
EXCADSTD
 72
     5
 11
321.975853
 21
815.850853
 31
0.0
100
AcDbText
  0
TEXT
  5
7A2
100
AcDbEntity
  8
LAY-5
  6
CONTINUOUS
 62
     3
100
AcDbText
 10
321.975853
 20
815.850853
 30
0.0
 40
25.0
  1
）
 41
0.84
  7
EXCADSTD
 72
     5
 11
341.975853
 21
815.850853
 31
0.0
100
AcDbText
  0
LINE
  5
7A3
100
AcDbEntity
  8
LAY-5
  6
CONTINUOUS
 62
     1
100
AcDbLine
 10
400.475853
 20
814.350853
 30
0.0
 11
168.475853
 21
814.350853
 31
0.0
  0
LINE
  5
7A4
100
AcDbEntity
  8
LAY-5
  6
CONTINUOUS
 62
     1
100
AcDbLine
 10
393.275854
 20
813.150853
 30
0.0
 11
400.475853
 21
814.350853
 31
0.0
  0
LINE
  5
7A5
100
AcDbEntity
  8
LAY-5
  6
CONTINUOUS
 62
     1
100
AcDbLine
 10
400.475853
 20
814.350853
 30
0.0
 11
393.275854
 21
815.550853
 31
0.0
  0
LINE
  5
7A6
100
AcDbEntity
  8
LAY-5
  6
CONTINUOUS
 62
     1
100
AcDbLine
 10
175.675853
 20
815.550853
 30
0.0
 11
168.475853
 21
814.350853
 31
0.0
  0
LINE
  5
7A7
100
AcDbEntity
  8
LAY-5
  6
CONTINUOUS
 62
     1
100
AcDbLine
 10
168.475853
 20
814.350853
 30
0.0
 11
175.675853
 21
813.150853
 31
0.0
  0
LINE
  5
7A8
100
AcDbEntity
  8
LAY-5
  6
CONTINUOUS
 62
     1
100
AcDbLine
 10
214.975853
 20
717.0
 30
0.0
 11
441.5
 21
717.0
 31
0.0
  0
LINE
  5
7A9
100
AcDbEntity
  8
LAY-5
  6
CONTINUOUS
 62
     1
100
AcDbLine
 10
228.975853
 20
537.0
 30
0.0
 11
441.5
 21
537.0
 31
0.0
  0
TEXT
  5
7AA
100
AcDbEntity
  8
LAY-5
  6
CONTINUOUS
 62
     3
100
AcDbText
 10
440.0
 20
577.0
 30
0.0
 40
25.0
  1
φ
 50
90.0
 41
0.84
  7
EXCADSTD
 72
     5
 11
440.0
 21
597.0
 31
0.0
100
AcDbText
  0
TEXT
  5
7AB
100
AcDbEntity
  8
LAY-5
  6
CONTINUOUS
 62
     3
100
AcDbText
 10
440.0
 20
602.0
 30
0.0
 40
25.0
  1
１８０
 50
90.0
 41
0.84
  7
EXCADSTD
 72
     5
 11
440.0
 21
677.0
 31
0.0
100
AcDbText
  0
LINE
  5
7AC
100
AcDbEntity
  8
LAY-5
  6
CONTINUOUS
 62
     1
100
AcDbLine
 10
441.0
 20
717.0
 30
0.0
 11
441.0
 21
537.0
 31
0.0
  0
LINE
  5
7AD
100
AcDbEntity
  8
LAY-5
  6
CONTINUOUS
 62
     1
100
AcDbLine
 10
442.25
 20
709.5
 30
0.0
 11
441.0
 21
717.0
 31
0.0
  0
LINE
  5
7AE
100
AcDbEntity
  8
LAY-5
  6
CONTINUOUS
 62
     1
100
AcDbLine
 10
441.0
 20
717.0
 30
0.0
 11
439.75
 21
709.5
 31
0.0
  0
LINE
  5
7AF
100
AcDbEntity
  8
LAY-5
  6
CONTINUOUS
 62
     1
100
AcDbLine
 10
439.75
 20
544.5
 30
0.0
 11
441.0
 21
537.0
 31
0.0
  0
LINE
  5
7B0
100
AcDbEntity
  8
LAY-5
  6
CONTINUOUS
 62
     1
100
AcDbLine
 10
441.0
 20
537.0
 30
0.0
 11
442.25
 21
544.5
 31
0.0
  0
TEXT
  5
7B1
100
AcDbEntity
  8
LAY-5
  6
CONTINUOUS
 62
     3
100
AcDbText
 10
271.95
 20
481.050853
 30
0.0
 40
25.0
  1
Ｒｃ１／４
 41
0.84
  7
EXCADSTD
 72
     5
 11
396.95
 21
481.050853
 31
0.0
100
AcDbText
  0
POLYLINE
  5
7B2
100
AcDbEntity
  8
LAY-5
  6
CONTINUOUS
 62
     1
100
AcDb2dPolyline
 66
     1
 10
0.0
 20
0.0
 30
0.0
 70
   128
  0
VERTEX
  5
7B3
100
AcDbEntity
  8
LAY-5
  6
CONTINUOUS
 62
     1
100
AcDbVertex
100
AcDb2dVertex
 10
218.475853
 20
537.0
 30
0.0
  0
VERTEX
  5
7B4
100
AcDbEntity
  8
LAY-5
  6
CONTINUOUS
 62
     1
100
AcDbVertex
100
AcDb2dVertex
 10
266.1
 20
480.750853
 30
0.0
  0
VERTEX
  5
7B5
100
AcDbEntity
  8
LAY-5
  6
CONTINUOUS
 62
     1
100
AcDbVertex
100
AcDb2dVertex
 10
402.8
 20
480.750853
 30
0.0
  0
SEQEND
  5
7B6
100
AcDbEntity
  8
LAY-5
  6
CONTINUOUS
 62
     1
  0
LINE
  5
7B7
100
AcDbEntity
  8
LAY-5
  6
CONTINUOUS
 62
     1
100
AcDbLine
 10
224.276116
 20
532.083756
 30
0.0
 11
218.475853
 21
537.0
 31
0.0
  0
LINE
  5
7B8
100
AcDbEntity
  8
LAY-5
  6
CONTINUOUS
 62
     1
100
AcDbLine
 10
218.475853
 20
537.0
 30
0.0
 11
222.36813
 21
530.468332
 31
0.0
  0
LINE
  5
7B9
100
AcDbEntity
  8
LAY-5
  6
CONTINUOUS
 62
     2
100
AcDbLine
 10
1040.052169
 20
619.0
 30
0.0
 11
1040.052169
 21
635.0
 31
0.0
  0
LINE
  5
7BA
100
AcDbEntity
  8
LAY-5
  6
CONTINUOUS
 62
     2
100
AcDbLine
 10
1040.052169
 20
635.0
 30
0.0
 11
1010.052169
 21
635.0
 31
0.0
  0
LINE
  5
7BB
100
AcDbEntity
  8
LAY-5
  6
CONTINUOUS
 62
     2
100
AcDbLine
 10
1010.052169
 20
635.0
 30
0.0
 11
1010.052169
 21
647.0
 31
0.0
  0
LINE
  5
7BC
100
AcDbEntity
  8
LAY-5
  6
CONTINUOUS
 62
     2
100
AcDbLine
 10
1010.052169
 20
647.0
 30
0.0
 11
980.052169
 21
627.0
 31
0.0
  0
LINE
  5
7BD
100
AcDbEntity
  8
LAY-5
  6
CONTINUOUS
 62
     2
100
AcDbLine
 10
980.052169
 20
627.0
 30
0.0
 11
1010.052169
 21
607.0
 31
0.0
  0
LINE
  5
7BE
100
AcDbEntity
  8
LAY-5
  6
CONTINUOUS
 62
     2
100
AcDbLine
 10
1010.052169
 20
607.0
 30
0.0
 11
1010.052169
 21
619.0
 31
0.0
  0
LINE
  5
7BF
100
AcDbEntity
  8
LAY-5
  6
CONTINUOUS
 62
     2
100
AcDbLine
 10
1010.052169
 20
619.0
 30
0.0
 11
1040.052169
 21
619.0
 31
0.0
  0
LINE
  5
7C0
100
AcDbEntity
  8
LAY-5
  6
CONTINUOUS
 62
     2
100
AcDbLine
 10
505.947831
 20
619.0
 30
0.0
 11
505.947831
 21
635.0
 31
0.0
  0
LINE
  5
7C1
100
AcDbEntity
  8
LAY-5
  6
CONTINUOUS
 62
     2
100
AcDbLine
 10
505.947831
 20
635.0
 30
0.0
 11
535.947831
 21
635.0
 31
0.0
  0
LINE
  5
7C2
100
AcDbEntity
  8
LAY-5
  6
CONTINUOUS
 62
     2
100
AcDbLine
 10
535.947831
 20
635.0
 30
0.0
 11
535.947831
 21
647.0
 31
0.0
  0
LINE
  5
7C3
100
AcDbEntity
  8
LAY-5
  6
CONTINUOUS
 62
     2
100
AcDbLine
 10
535.947831
 20
647.0
 30
0.0
 11
565.947831
 21
627.0
 31
0.0
  0
LINE
  5
7C4
100
AcDbEntity
  8
LAY-5
  6
CONTINUOUS
 62
     2
100
AcDbLine
 10
565.947831
 20
627.0
 30
0.0
 11
535.947831
 21
607.0
 31
0.0
  0
LINE
  5
7C5
100
AcDbEntity
  8
LAY-5
  6
CONTINUOUS
 62
     2
100
AcDbLine
 10
535.947831
 20
607.0
 30
0.0
 11
535.947831
 21
619.0
 31
0.0
  0
LINE
  5
7C6
100
AcDbEntity
  8
LAY-5
  6
CONTINUOUS
 62
     2
100
AcDbLine
 10
535.947831
 20
619.0
 30
0.0
 11
505.947831
 21
619.0
 31
0.0
  0
LINE
  5
7C7
100
AcDbEntity
  8
LAY-5
  6
CONTINUOUS
 62
     2
100
AcDbLine
 10
765.0
 20
426.234685
 30
0.0
 11
781.0
 21
426.234685
 31
0.0
  0
LINE
  5
7C8
100
AcDbEntity
  8
LAY-5
  6
CONTINUOUS
 62
     2
100
AcDbLine
 10
781.0
 20
426.234685
 30
0.0
 11
781.0
 21
396.234685
 31
0.0
  0
LINE
  5
7C9
100
AcDbEntity
  8
LAY-5
  6
CONTINUOUS
 62
     2
100
AcDbLine
 10
781.0
 20
396.234685
 30
0.0
 11
793.0
 21
396.234685
 31
0.0
  0
LINE
  5
7CA
100
AcDbEntity
  8
LAY-5
  6
CONTINUOUS
 62
     2
100
AcDbLine
 10
793.0
 20
396.234685
 30
0.0
 11
773.0
 21
366.234685
 31
0.0
  0
LINE
  5
7CB
100
AcDbEntity
  8
LAY-5
  6
CONTINUOUS
 62
     2
100
AcDbLine
 10
773.0
 20
366.234685
 30
0.0
 11
753.0
 21
396.234685
 31
0.0
  0
LINE
  5
7CC
100
AcDbEntity
  8
LAY-5
  6
CONTINUOUS
 62
     2
100
AcDbLine
 10
753.0
 20
396.234685
 30
0.0
 11
765.0
 21
396.234685
 31
0.0
  0
LINE
  5
7CD
100
AcDbEntity
  8
LAY-5
  6
CONTINUOUS
 62
     2
100
AcDbLine
 10
765.0
 20
396.234685
 30
0.0
 11
765.0
 21
426.234685
 31
0.0
  0
ENDSEC
  0
SECTION
  2
OBJECTS
  0
DICTIONARY
  5
19
100
AcDbDictionary
  3
ACAD_GROUP
350
1A
  3
ACAD_MLINESTYLE
350
1B
  0
DICTIONARY
  5
1A
102
{ACAD_REACTORS
330
19
102
}
100
AcDbDictionary
  0
DICTIONARY
  5
1B
102
{ACAD_REACTORS
330
19
102
}
100
AcDbDictionary
  3
STANDARD
350
1C
  0
MLINESTYLE
  5
1C
102
{ACAD_REACTORS
330
1B
102
}
100
AcDbMlineStyle
  2
Standard
 70
     0
  3

 62
     0
 51
90.0
 52
90.0
 71
     2
 49
0.5
 62
   256
  6
ByLayer
 49
-0.5
 62
   256
  6
ByLayer
  0
ENDSEC
  0
EOF
