  0
SECTION
  2
HEADER
  9
$ACADVER
  1
AC1009
  9
$INSBASE
 10
0
 20
0
 30
0
  9
$EXTMIN
 10
0
 20
0
  9
$EXTMAX
 10
1260
 20
891
  9
$LIMMIN
 10
0
 20
0
  9
$LIMMAX
 10
1260
 20
891
  9
$LTSCALE
 40
3
  0
ENDSEC
  0
SECTION
  2
TABLES
  0
TABLE
  2
LTYPE
 70
     9
  0
LTYPE
  2
CONTINUOUS
 70
    64
  3
実線
 72
    65
 73
     0
 40
0.0
  0
LTYPE
  2
DASHED1
 70
    64
  3
--  --  --  --  --  --  --  --  
 72
    65
 73
     2
 40
2.5
 49
1.25
 49
-1.25
  0
LTYPE
  2
DASHED2
 70
    64
  3
----    ----    ----    ----    
 72
    65
 73
     2
 40
5.0
 49
2.5
 49
-2.5
  0
LTYPE
  2
DASHED3
 70
    64
  3
------  ------  ------  ------  
 72
    65
 73
     2
 40
5.0
 49
3.75
 49
-1.25
  0
LTYPE
  2
CENTER1
 70
    64
  3
----- - ----- - ----- - ----- - 
 72
    65
 73
     4
 40
10.0
 49
6.25
 49
-1.25
 49
1.25
 49
-1.25
  0
LTYPE
  2
CENTER2
 70
    64
  3
----------  --  ----------  --  
 72
    65
 73
     4
 40
20.0
 49
12.5
 49
-2.5
 49
2.5
 49
-2.5
  0
LTYPE
  2
PHANTOM1
 70
    64
  3
--- - - --- - - --- - - --- - - 
 72
    65
 73
     6
 40
10.0
 49
3.25
 49
-1.25
 49
1.25
 49
-1.25
 49
1.25
 49
-1.25
  0
LTYPE
  2
PHANTOM2
 70
    64
  3
--------  -  -  --------  -  -  
 72
    65
 73
     6
 40
20.0
 49
10.0
 49
-2.5
 49
1.25
 49
-2.5
 49
1.25
 49
-2.5
  0
LTYPE
  2
DOT
 70
    64
  3
-   -   -   -   -   -   -   -   
 72
    65
 73
     2
 40
2.5
 49
0.625
 49
-1.875
  0
LTYPE
  2
DUMMY
 70
    64
  3
ダミー
 72
    65
 73
     0
 40
0.0
  0
LTYPE
  2
RAND1
 70
    64
  3
ランダム線1
 72
    65
 73
     4
 40
10.0
 49
1.0
 49
-2.0
 49
3.0
 49
-4.0
  0
LTYPE
  2
RAND2
 70
    64
  3
ランダム線2
 72
    65
 73
     4
 40
14.0
 49
2.0
 49
-3.0
 49
4.0
 49
-5.0
  0
LTYPE
  2
RAND3
 70
    64
  3
ランダム線3
 72
    65
 73
     4
 40
18.0
 49
3.0
 49
-4.0
 49
5.0
 49
-6.0
  0
LTYPE
  2
RAND4
 70
    64
  3
ランダム線4
 72
    65
 73
     4
 40
22.0
 49
4.0
 49
-5.0
 49
6.0
 49
-7.0
  0
LTYPE
  2
RAND5
 70
    64
  3
ランダム線5
 72
    65
 73
     4
 40
26.0
 49
5.0
 49
-6.0
 49
7.0
 49
-8.0
  0
LTYPE
  2
LONG1
 70
    64
  3
----------  --  ----------  --  
 72
    65
 73
     4
 40
40.0
 49
32.5
 49
-2.5
 49
2.5
 49
-2.5
  0
LTYPE
  2
LONG2
 70
    64
  3
--------  -  -  --------  -  -  
 72
    65
 73
     6
 40
40.0
 49
30.0
 49
-2.5
 49
1.25
 49
-2.5
 49
1.25
 49
-2.5
  0
LTYPE
  2
LONG3
 70
    64
  3
+++++++++++++++..+++++++++++++++
 72
    65
 73
     2
 40
40.0
 49
37.5
 49
-2.5
  0
LTYPE
  2
LONG4
 70
    64
  3
+++++++++++++++..+++++++++++++++
 72
    65
 73
     2
 40
80.0
 49
75.0
 49
-5.0
  0
LTYPE
  2
LONG5
 70
    64
  3
----------  --  ----------  --  
 72
    65
 73
     4
 40
60.0
 49
37.5
 49
-7.5
 49
7.5
 49
-7.5
  0
LTYPE
  2
dashed
 70
   64
  3
-------   -------------   ------
 72
   65
 73
    2
 40
7.5
 49
6
 49
-1.5
  0
LTYPE
  2
dashed_spaced
 70
   64
  3
----        --------        ----
 72
   65
 73
    2
 40
12
 49
6
 49
-6
  0
LTYPE
  2
long_dashed_dotted
 70
   64
  3
------------- --- --------------
 72
   65
 73
    4
 40
15.25
 49
12
 49
-1.5
 49
0.25
 49
-1.5
  0
LTYPE
  2
long_dashed_double-dotted
 70
   64
  3
----------- --- --- ------------
 72
   65
 73
    6
 40
17
 49
12
 49
-1.5
 49
0.25
 49
-1.5
 49
0.25
 49
-1.5
  0
LTYPE
  2
long_dashed_triplicate-dotted
 70
   64
  3
--------- --- --- --- ----------
 72
   65
 73
    8
 40
18.75
 49
12
 49
-1.5
 49
0.25
 49
-1.5
 49
0.25
 49
-1.5
 49
0.25
 49
-1.5
  0
LTYPE
  2
dotted
 70
   64
  3
   -       -       -       -    
 72
   65
 73
    2
 40
1.75
 49
0.25
 49
-1.5
  0
LTYPE
  2
chain
 70
   64
  3
-------------- -- --------------
 72
   65
 73
    4
 40
18.5
 49
12
 49
-1.5
 49
3.5
 49
-1.5
  0
LTYPE
  2
chain_double_dash
 70
   64
  3
------------ -- -- -------------
 72
   65
 73
    6
 40
23.5
 49
12
 49
-1.5
 49
3.5
 49
-1.5
 49
3.5
 49
-1.5
  0
LTYPE
  2
dashed_dotted
 70
   64
  3
-----------     -     ----------
 72
   65
 73
    4
 40
9.25
 49
6
 49
-1.5
 49
0.25
 49
-1.5
  0
LTYPE
  2
double-dashed_dotted
 70
   64
  3
------   -----------   -   -----
 72
   65
 73
    6
 40
16.75
 49
6
 49
-1.5
 49
6
 49
-1.5
 49
0.25
 49
-1.5
  0
LTYPE
  2
dashed_double-dotted
 70
   64
  3
---------    -    -    ---------
 72
   65
 73
    6
 40
11
 49
6
 49
-1.5
 49
0.25
 49
-1.5
 49
0.25
 49
-1.5
  0
LTYPE
  2
double-dashed_double-dotted
 70
   64
  3
-----   ---------   -   -   ----
 72
   65
 73
    8
 40
18.5
 49
6
 49
-1.5
 49
6
 49
-1.5
 49
0.25
 49
-1.5
 49
0.25
 49
-1.5
  0
LTYPE
  2
dashed_triplicate-dotted
 70
   64
  3
-------    -    -    -    ------
 72
   65
 73
    8
 40
12.75
 49
6
 49
-1.5
 49
0.25
 49
-1.5
 49
0.25
 49
-1.5
 49
0.25
 49
-1.5
  0
LTYPE
  2
double-dashed_triplicate-dotted
 70
   64
  3
-----  ---------  -  -  -  -----
 72
   65
 73
   10
 40
20.25
 49
6
 49
-1.5
 49
6
 49
-1.5
 49
0.25
 49
-1.5
 49
0.25
 49
-1.5
 49
0.25
 49
-1.5
  0
LTYPE
  2
undefined
 70
   64
  3
--------------------------------
 72
   65
 73
    0
 40
0
  0
LTYPE
  2
EXLTYPE1
 70
   64
  3
------    ------------    ------
 72
   65
 73
    2
 40
4
 49
3
 49
-1
  0
LTYPE
  2
EXLTYPE2
 70
   64
  3
----        --------        ----
 72
   65
 73
    2
 40
2
 49
1
 49
-1
  0
LTYPE
  2
EXLTYPE3
 70
   64
  3
-------------  --  -------------
 72
   65
 73
    4
 40
13
 49
10
 49
-1
 49
1
 49
-1
  0
LTYPE
  2
EXLTYPE4
 70
   64
  3
-----------  --  --  -----------
 72
   65
 73
    6
 40
15
 49
10
 49
-1
 49
1
 49
-1
 49
1
 49
-1
  0
LTYPE
  2
EXLTYPE5
 70
   64
  3
------------- - - - ------------
 72
   65
 73
    8
 40
37
 49
30
 49
-1
 49
1
 49
-1
 49
1
 49
-1
 49
1
 49
-1
  0
ENDTAB
  0
TABLE
  2
STYLE
  5
3
100
AcDbSymbolTable
 70
     1
  0
STYLE
  5
10
100
AcDbSymbolTableRecord
100
AcDbTextStyleTableRecord
  2
STANDARD
 70
     0
 40
0.0
 41
1.0
 50
0.0
 71
     0
 42
0.2
  3
txt
  4
bigfont.shx
  0
STYLE
  5
26
100
AcDbSymbolTableRecord
100
AcDbTextStyleTableRecord
  2
TATEGAKI
 70
    68
 40
0.0
 41
1.0
 50
0.0
 71
     0
 42
1.0
  3
txt
  4
bigfont.shx
  0
ENDTAB
  0
TABLE
  2
LAYER
 70
    4
  0
LAYER
  2
_0-1_LAY-1
 70
   64
 62
    7
  6
CONTINUOUS
  0
LAYER
  2
_0-2_LAY-2
 70
   64
 62
    7
  6
CONTINUOUS
  0
LAYER
  2
_0-3_LAY-3
 70
   64
 62
    7
  6
CONTINUOUS
  0
LAYER
  2
ADD_LINE
 70
   64
 62
    7
  6
CONTINUOUS
  0
ENDTAB
  0
ENDSEC
  0
SECTION
  2
BLOCKS
  0
BLOCK
  2
-000-SYM-1
 70
   64
 10
0
 20
0
 30
0
  0
ENDBLK
  0
ENDSEC
  0
SECTION
  2
ENTITIES
  0
LINE
  8
_0-1_LAY-1
  6
EXLTYPE3
 62
    1
 10
780.39189349999992
 20
446
 11
580.32511650000004
 21
446
  0
LINE
  8
_0-1_LAY-1
  6
EXLTYPE3
 62
    1
 10
681.29339649999997
 20
543.22871499999997
 11
681.29339649999997
 21
234.44741199999999
  0
LINE
  8
_0-1_LAY-1
  6
EXLTYPE3
 62
    1
 10
701.59389750000003
 20
282.25095199999998
 11
661.26000750000003
 21
282.25095199999998
  0
LINE
  8
_0-1_LAY-1
  6
CONTINUOUS
 62
    1
 10
124.51872449999996
 20
366.30551300000002
 11
126.08312149999998
 21
363.59589700000004
  0
LINE
  8
_0-1_LAY-1
  6
CONTINUOUS
 62
    1
 10
158.06806850000001
 20
366.30551300000002
 11
156.5036715
 21
363.59589700000004
  0
LINE
  8
_0-1_LAY-1
  6
CONTINUOUS
 62
    1
 10
158.06806850000001
 20
379.69448899999998
 11
156.5036715
 21
382.40410500000002
  0
LINE
  8
_0-1_LAY-1
  6
CONTINUOUS
 62
    1
 10
124.51872449999996
 20
379.69448899999998
 11
126.08312149999998
 21
382.40410500000002
  0
LINE
  8
_0-1_LAY-1
  6
CONTINUOUS
 62
    1
 10
156.36066349999996
 20
359.01964099999998
 11
156.5036715
 21
363.59589700000004
  0
LINE
  8
_0-1_LAY-1
  6
CONTINUOUS
 62
    1
 10
126.22612949999993
 20
359.01964099999998
 11
126.08312149999998
 21
363.59589700000004
  0
LINE
  8
_0-1_LAY-1
  6
CONTINUOUS
 62
    1
 10
126.2267435
 20
387
 11
126.08312149999998
 21
382.40410500000002
  0
LINE
  8
_0-1_LAY-1
  6
CONTINUOUS
 62
    1
 10
156.36004949999997
 20
387
 11
156.5036715
 21
382.40410500000002
  0
LINE
  8
_0-1_LAY-1
  6
EXLTYPE4
 62
    1
 10
129.06453350000001
 20
508.5
 11
127.83543950000004
 21
510.62885300000005
  0
LINE
  8
_0-1_LAY-1
  6
EXLTYPE4
 62
    1
 10
153.52225950000005
 20
508.5
 11
154.75135350000002
 21
510.62885300000005
  0
LINE
  8
_0-1_LAY-1
  6
EXLTYPE4
 62
    1
 10
153.38163450000005
 20
504
 11
153.52225950000005
 21
508.5
  0
LINE
  8
_0-1_LAY-1
  6
EXLTYPE4
 62
    1
 10
129.20515850000001
 20
504
 11
129.06453350000001
 21
508.5
  0
LINE
  8
_0-1_LAY-1
  6
EXLTYPE4
 62
    1
 10
154.52038049999996
 20
504
 11
154.77857650000001
 21
513
  0
LINE
  8
_0-1_LAY-1
  6
EXLTYPE4
 62
    1
 10
128.06641249999993
 20
504
 11
127.80821649999996
 21
513
  0
LINE
  8
_0-1_LAY-1
  6
EXLTYPE4
 62
    1
 10
159.29339649999994
 20
514.15470099999993
 11
157.29339649999997
 21
513
  0
LINE
  8
_0-1_LAY-1
  6
EXLTYPE4
 62
    1
 10
159.29339649999994
 20
514.15470099999993
 11
159.29339649999994
 21
520.84529900000007
  0
LINE
  8
_0-1_LAY-1
  6
EXLTYPE4
 62
    1
 10
159.29339649999994
 20
520.84529900000007
 11
157.29339649999997
 21
522
  0
LINE
  8
_0-1_LAY-1
  6
EXLTYPE4
 62
    1
 10
123.29339649999994
 20
514.15470099999993
 11
125.2933965
 21
513
  0
LINE
  8
_0-1_LAY-1
  6
EXLTYPE4
 62
    1
 10
123.29339649999994
 20
514.15470099999993
 11
123.29339649999994
 21
520.84529900000007
  0
LINE
  8
_0-1_LAY-1
  6
EXLTYPE4
 62
    1
 10
123.29339649999994
 20
520.84529900000007
 11
125.2933965
 21
522
  0
ARC
  8
_0-1_LAY-1
  6
EXLTYPE4
 62
    1
 10
154.91219850000004
 20
513.11101699999995
 40
8.8889829999999996
 50
60.46998
 51
119.53001999999999
  0
ARC
  8
_0-1_LAY-1
  6
EXLTYPE4
 62
    1
 10
141.29339649999994
 20
484.47223300000002
 40
37.527766999999997
 50
75.749966999999998
 51
104.25003299999999
  0
ARC
  8
_0-1_LAY-1
  6
EXLTYPE4
 62
    1
 10
127.67459450000001
 20
513.11101699999995
 40
8.8889829999999996
 50
60.46998
 51
119.53001999999999
  0
ARC
  8
_0-1_LAY-1
  6
EXLTYPE4
 62
    1
 10
154.91219850000004
 20
521.88898300000005
 40
8.8889829999999996
 50
240.46998000000002
 51
299.53002000000004
  0
ARC
  8
_0-1_LAY-1
  6
EXLTYPE4
 62
    1
 10
141.29339649999994
 20
550.52776700000004
 40
37.527766999999997
 50
255.74996700000003
 51
284.25003300000003
  0
ARC
  8
_0-1_LAY-1
  6
EXLTYPE4
 62
    1
 10
127.67459450000001
 20
521.88898300000005
 40
8.8889829999999996
 50
240.46998000000002
 51
299.53002000000004
  0
LINE
  8
_0-1_LAY-1
  6
EXLTYPE4
 62
    1
 10
132.05579250000008
 20
520.84529900000007
 11
132.05579250000008
 21
514.15470099999993
  0
LINE
  8
_0-1_LAY-1
  6
EXLTYPE4
 62
    1
 10
150.53100049999998
 20
520.84529900000007
 11
150.53100049999998
 21
514.15470099999993
  0
LINE
  8
_0-1_LAY-1
  6
EXLTYPE4
 62
    1
 10
157.29339649999997
 20
522
 11
125.2933965
 21
522
  0
LINE
  8
_0-1_LAY-1
  6
EXLTYPE4
 62
    1
 10
157.29339649999997
 20
513
 11
125.2933965
 21
513
  0
LINE
  8
_0-1_LAY-1
  6
EXLTYPE4
 62
    1
 10
154.68482650000001
 20
508.5
 11
127.93731449999999
 21
508.5
  0
LINE
  8
_0-1_LAY-1
  6
EXLTYPE2
 62
    1
 10
356.17134450000003
 20
466.03370200000006
 11
348.38416949999998
 21
466.30563600000005
  0
ARC
  8
_0-1_LAY-1
  6
EXLTYPE2
 62
    1
 10
356.13644449999998
 20
426.965689
 40
1
 50
272
 51
0
  0
LINE
  8
_0-1_LAY-1
  6
EXLTYPE2
 62
    1
 10
357.13644449999998
 20
446
 11
357.13644449999998
 21
426.96568500000001
  0
ARC
  8
_0-1_LAY-1
  6
EXLTYPE2
 62
    1
 10
356.13644449999998
 20
465.034311
 40
1
 50
0
 51
88
  0
LINE
  8
_0-1_LAY-1
  6
EXLTYPE2
 62
    1
 10
357.13644449999998
 20
446
 11
357.13644449999998
 21
465.03431499999999
  0
LINE
  8
_0-1_LAY-1
  6
EXLTYPE2
 62
    1
 10
356.17134450000003
 20
425.96629799999999
 11
348.38416949999998
 21
425.69436400000001
  0
LINE
  8
_0-1_LAY-1
  6
EXLTYPE2
 62
    1
 10
357.13644449999998
 20
433.30000000000001
 11
366.86627350000003
 21
433.30000000000001
  0
LINE
  8
_0-1_LAY-1
  6
EXLTYPE2
 62
    1
 10
368.13644449999998
 20
435.5
 11
368.13644449999998
 21
456.5
  0
LINE
  8
_0-1_LAY-1
  6
EXLTYPE2
 62
    1
 10
366.86627350000003
 20
458.70000000000005
 11
357.13644449999998
 21
458.70000000000005
  0
LINE
  8
_0-1_LAY-1
  6
EXLTYPE2
 62
    1
 10
366.86627350000003
 20
439.64914699999997
 11
357.13644449999998
 21
439.64914699999997
  0
ARC
  8
_0-1_LAY-1
  6
EXLTYPE2
 62
    1
 10
351.62422650000002
 20
446
 40
16.512218000000001
 50
337.380135
 51
22.619864999999987
  0
LINE
  8
_0-1_LAY-1
  6
EXLTYPE2
 62
    1
 10
368.13644449999998
 20
456.5
 11
366.86627350000003
 21
458.70000000000005
  0
LINE
  8
_0-1_LAY-1
  6
EXLTYPE2
 62
    1
 10
366.86627350000003
 20
452.35085299999997
 11
357.13644449999998
 21
452.35085299999997
  0
LINE
  8
_0-1_LAY-1
  6
EXLTYPE2
 62
    1
 10
368.13644449999998
 20
435.5
 11
366.86627350000003
 21
433.30000000000001
  0
ARC
  8
_0-1_LAY-1
  6
EXLTYPE2
 62
    1
 10
360.7157345
 20
435.5
 40
7.4192009999999993
 50
0
 51
34.003560999999998
  0
ARC
  8
_0-1_LAY-1
  6
EXLTYPE2
 62
    1
 10
360.7157345
 20
456.5
 40
7.4192009999999993
 50
325.99643900000001
 51
0.0000000000000063
  0
LINE
  8
_0-1_LAY-1
  6
EXLTYPE2
 62
    1
 10
368.15870949999999
 20
453
 11
393.04339649999997
 21
453
  0
LINE
  8
_0-1_LAY-1
  6
EXLTYPE2
 62
    1
 10
393.04339649999997
 20
439
 11
368.21768050000003
 21
439
  0
LINE
  8
_0-1_LAY-1
  6
EXLTYPE2
 62
    1
 10
393.47842249999997
 20
433.97149899999999
 11
393.48781449999996
 21
433.97149899999999
  0
LINE
  8
_0-1_LAY-1
  6
EXLTYPE2
 62
    1
 10
393.04339649999997
 20
435
 11
393.76244749999995
 21
433.30000000000001
  0
ARC
  8
_0-1_LAY-1
  6
EXLTYPE2
 62
    1
 10
400.31697749999995
 20
436.47500000000002
 40
7.2735810000000001
 50
154.118503
 51
202.92697000000001
  0
LINE
  8
_0-1_LAY-1
  6
EXLTYPE2
 62
    1
 10
393.47842249999997
 20
433.97149899999999
 11
393.48781449999996
 21
433.97149899999999
  0
LINE
  8
_0-1_LAY-1
  6
EXLTYPE2
 62
    1
 10
393.48781449999996
 20
433.97149899999999
 11
393.47842249999997
 21
433.97149899999999
  0
ARC
  8
_0-1_LAY-1
  6
EXLTYPE2
 62
    1
 10
400.31697749999995
 20
455.52499999999998
 40
7.2735810000000001
 50
154.118503
 51
205.881497
  0
LINE
  8
_0-1_LAY-1
  6
EXLTYPE2
 62
    1
 10
393.04339649999997
 20
457
 11
393.76244749999995
 21
458.70000000000005
  0
LINE
  8
_0-1_LAY-1
  6
EXLTYPE2
 62
    1
 10
393.47842249999997
 20
458.02850100000001
 11
393.48781449999996
 21
458.02850100000001
  0
LINE
  8
_0-1_LAY-1
  6
EXLTYPE2
 62
    1
 10
393.48781449999996
 20
458.02850100000001
 11
393.47842249999997
 21
458.02850100000001
  0
LINE
  8
_0-1_LAY-1
  6
EXLTYPE2
 62
    1
 10
401.32434550000005
 20
458.70000000000005
 11
393.76244749999995
 21
458.70000000000005
  0
LINE
  8
_0-1_LAY-1
  6
EXLTYPE2
 62
    1
 10
402.04339649999997
 20
457
 11
401.32434550000005
 21
458.70000000000005
  0
ARC
  8
_0-1_LAY-1
  6
EXLTYPE2
 62
    1
 10
394.76981550000005
 20
455.52499999999998
 40
7.2735810000000001
 50
334.11850299999992
 51
25.881496999999985
  0
LINE
  8
_0-1_LAY-1
  6
EXLTYPE2
 62
    1
 10
393.04339649999997
 20
457
 11
393.04339649999997
 21
435
  0
LINE
  8
_0-1_LAY-1
  6
EXLTYPE2
 62
    1
 10
402.04339649999997
 20
435
 11
402.04339649999997
 21
457
  0
LINE
  8
_0-1_LAY-1
  6
EXLTYPE2
 62
    1
 10
393.78624150000007
 20
433.30000000000001
 11
401.32434550000005
 21
433.30000000000001
  0
ARC
  8
_0-1_LAY-1
  6
EXLTYPE2
 62
    1
 10
374.04339650000003
 20
446
 40
28
 50
346.89209299999999
 51
13.107907000000031
  0
LINE
  8
_0-1_LAY-1
  6
EXLTYPE2
 62
    1
 10
402.04339649999997
 20
435
 11
401.31384749999995
 21
433.27518099999998
  0
ARC
  8
_0-1_LAY-1
  6
EXLTYPE2
 62
    1
 10
394.76981550000005
 20
436.47500000000002
 40
7.2735810000000001
 50
333.87959499999999
 51
25.881497000000028
  0
LINE
  8
_0-1_LAY-1
  6
EXLTYPE2
 62
    1
 10
401.31384749999995
 20
452.35000000000002
 11
393.77294550000005
 21
452.35000000000002
  0
LINE
  8
_0-1_LAY-1
  6
EXLTYPE2
 62
    1
 10
401.31384749999995
 20
439.65000000000003
 11
393.77294550000005
 21
439.65000000000003
  0
LINE
  8
_0-1_LAY-1
  6
EXLTYPE2
 62
    1
 10
393.04339649999997
 20
435
 11
393.04339649999997
 21
457
  0
ARC
  8
_0-1_LAY-1
  6
EXLTYPE2
 62
    1
 10
421.04339650000003
 20
446
 40
28
 50
166.89209299999999
 51
193.10790699999998
  0
LINE
  8
_0-1_LAY-1
  6
EXLTYPE2
 62
    1
 10
346.7343525
 20
424.04287899999997
 11
345.97740249999998
 21
419.75
  0
ARC
  8
_0-1_LAY-1
  6
EXLTYPE2
 62
    1
 10
348.70396849999997
 20
423.69558200000006
 40
2
 50
91.999999999999986
 51
170
  0
LINE
  8
_0-1_LAY-1
  6
EXLTYPE2
 62
    1
 10
356.42134450000003
 20
425.96629799999999
 11
348.63416949999998
 21
425.69436400000001
  0
LINE
  8
_0-1_LAY-1
  6
EXLTYPE2
 62
    1
 10
346.7343525
 20
467.95712099999997
 11
345.97740249999998
 21
472.25
  0
ARC
  8
_0-1_LAY-1
  6
EXLTYPE2
 62
    1
 10
348.70396849999997
 20
468.304418
 40
2
 50
190.00000000000003
 51
268
  0
LINE
  8
_0-1_LAY-1
  6
EXLTYPE2
 62
    1
 10
356.42134450000003
 20
466.03370200000006
 11
348.63416949999998
 21
466.30563600000005
  0
LINE
  8
_0-1_LAY-1
  6
CONTINUOUS
 62
    3
 10
345.97740249999998
 20
419.75
 11
345.97740249999998
 21
472.25
  0
LINE
  8
_0-1_LAY-1
  6
CONTINUOUS
 62
    1
 10
206.88644450000004
 20
364.46069399999999
 11
205.88644450000001
 21
363.27812499999999
  0
LINE
  8
_0-1_LAY-1
  6
CONTINUOUS
 62
    1
 10
206.88644450000004
 20
379.47180100000003
 11
206.88644450000004
 21
364.46069399999999
  0
LINE
  8
_0-1_LAY-1
  6
CONTINUOUS
 62
    1
 10
205.88644450000001
 20
380.70018199999998
 11
206.88644450000004
 21
379.47180100000003
  0
LINE
  8
_0-1_LAY-1
  6
CONTINUOUS
 62
    1
 10
212.6904175
 20
379.47180100000003
 11
213.38644450000001
 21
378.26624800000002
  0
ARC
  8
_0-1_LAY-1
  6
CONTINUOUS
 62
    1
 10
202.92148150000006
 20
371.96624800000001
 40
10.464962999999999
 50
338.98551800000001
 51
21.014481999999997
  0
LINE
  8
_0-1_LAY-1
  6
CONTINUOUS
 62
    1
 10
213.38644450000001
 20
378.26624800000002
 11
213.38644450000001
 21
365.666248
  0
LINE
  8
_0-1_LAY-1
  6
CONTINUOUS
 62
    1
 10
212.6904175
 20
364.46069399999999
 11
213.38644450000001
 21
365.666248
  0
LINE
  8
_0-1_LAY-1
  6
CONTINUOUS
 62
    1
 10
206.88644450000004
 20
379.47180100000003
 11
212.6904175
 21
379.47180100000003
  0
LINE
  8
_0-1_LAY-1
  6
CONTINUOUS
 62
    1
 10
206.88644450000004
 20
375.71902499999999
 11
212.6904175
 21
375.71902499999999
  0
LINE
  8
_0-1_LAY-1
  6
CONTINUOUS
 62
    1
 10
212.6904175
 20
364.46069399999999
 11
206.88644450000004
 21
364.46069399999999
  0
LINE
  8
_0-1_LAY-1
  6
CONTINUOUS
 62
    1
 10
206.88644450000004
 20
368.21347100000003
 11
212.6904175
 21
368.21347100000003
  0
ARC
  8
_0-1_LAY-1
  6
CONTINUOUS
 62
    1
 10
208.3774415
 20
365.666248
 40
5.0090029999999999
 50
0
 51
30.565894999999998
  0
ARC
  8
_0-1_LAY-1
  6
CONTINUOUS
 62
    1
 10
208.3774415
 20
378.26624800000002
 40
5.0090029999999999
 50
329.43410499999999
 51
0
  0
LINE
  8
_0-1_LAY-1
  6
CONTINUOUS
 62
    1
 10
206.88644450000004
 20
527.53930600000001
 11
205.88644450000001
 21
528.72187499999995
  0
LINE
  8
_0-1_LAY-1
  6
CONTINUOUS
 62
    1
 10
206.88644450000004
 20
512.52819900000009
 11
206.88644450000004
 21
527.53930600000001
  0
LINE
  8
_0-1_LAY-1
  6
CONTINUOUS
 62
    1
 10
205.88644450000001
 20
511.29981799999996
 11
206.88644450000004
 21
512.52819900000009
  0
LINE
  8
_0-1_LAY-1
  6
CONTINUOUS
 62
    1
 10
212.6904175
 20
512.52819900000009
 11
213.38644450000001
 21
513.73375199999998
  0
ARC
  8
_0-1_LAY-1
  6
CONTINUOUS
 62
    1
 10
202.92148150000006
 20
520.03375200000005
 40
10.464962999999999
 50
338.98551800000001
 51
21.014481999999997
  0
LINE
  8
_0-1_LAY-1
  6
CONTINUOUS
 62
    1
 10
213.38644450000001
 20
513.73375199999998
 11
213.38644450000001
 21
526.333752
  0
LINE
  8
_0-1_LAY-1
  6
CONTINUOUS
 62
    1
 10
212.6904175
 20
527.53930600000001
 11
213.38644450000001
 21
526.333752
  0
LINE
  8
_0-1_LAY-1
  6
CONTINUOUS
 62
    1
 10
206.88644450000004
 20
512.52819900000009
 11
212.6904175
 21
512.52819900000009
  0
LINE
  8
_0-1_LAY-1
  6
CONTINUOUS
 62
    1
 10
206.88644450000004
 20
516.28097500000001
 11
212.6904175
 21
516.28097500000001
  0
LINE
  8
_0-1_LAY-1
  6
CONTINUOUS
 62
    1
 10
212.6904175
 20
527.53930600000001
 11
206.88644450000004
 21
527.53930600000001
  0
LINE
  8
_0-1_LAY-1
  6
CONTINUOUS
 62
    1
 10
206.88644450000004
 20
523.78652899999997
 11
212.6904175
 21
523.78652899999997
  0
ARC
  8
_0-1_LAY-1
  6
CONTINUOUS
 62
    1
 10
208.3774415
 20
526.333752
 40
5.0090029999999999
 50
329.43410499999999
 51
0
  0
ARC
  8
_0-1_LAY-1
  6
CONTINUOUS
 62
    1
 10
208.3774415
 20
513.73375199999998
 40
5.0090029999999999
 50
0
 51
30.565894999999998
  0
LINE
  8
_0-1_LAY-1
  6
CONTINUOUS
 62
    1
 10
206.88644450000004
 20
407.82866199999995
 11
205.88644450000001
 21
406.64609300000001
  0
LINE
  8
_0-1_LAY-1
  6
CONTINUOUS
 62
    1
 10
206.88644450000004
 20
422.83976899999993
 11
206.88644450000004
 21
407.82866199999995
  0
LINE
  8
_0-1_LAY-1
  6
CONTINUOUS
 62
    1
 10
205.88644450000001
 20
424.06815000000006
 11
206.88644450000004
 21
422.83976899999993
  0
LINE
  8
_0-1_LAY-1
  6
CONTINUOUS
 62
    1
 10
212.6904175
 20
422.83976899999993
 11
213.38644450000001
 21
421.63421599999998
  0
ARC
  8
_0-1_LAY-1
  6
CONTINUOUS
 62
    1
 10
202.92148150000006
 20
415.33421599999997
 40
10.464962999999999
 50
338.98551800000001
 51
21.014481999999997
  0
LINE
  8
_0-1_LAY-1
  6
CONTINUOUS
 62
    1
 10
213.38644450000001
 20
421.63421599999998
 11
213.38644450000001
 21
409.03421600000001
  0
LINE
  8
_0-1_LAY-1
  6
CONTINUOUS
 62
    1
 10
212.6904175
 20
407.82866199999995
 11
213.38644450000001
 21
409.03421600000001
  0
LINE
  8
_0-1_LAY-1
  6
CONTINUOUS
 62
    1
 10
206.88644450000004
 20
422.83976899999993
 11
212.6904175
 21
422.83976899999993
  0
LINE
  8
_0-1_LAY-1
  6
CONTINUOUS
 62
    1
 10
206.88644450000004
 20
419.08699300000001
 11
212.6904175
 21
419.08699300000001
  0
LINE
  8
_0-1_LAY-1
  6
CONTINUOUS
 62
    1
 10
212.6904175
 20
407.82866199999995
 11
206.88644450000004
 21
407.82866199999995
  0
LINE
  8
_0-1_LAY-1
  6
CONTINUOUS
 62
    1
 10
206.88644450000004
 20
411.58143900000005
 11
212.6904175
 21
411.58143900000005
  0
ARC
  8
_0-1_LAY-1
  6
CONTINUOUS
 62
    1
 10
208.3774415
 20
409.03421600000001
 40
5.0090029999999999
 50
0
 51
30.565894999999998
  0
ARC
  8
_0-1_LAY-1
  6
CONTINUOUS
 62
    1
 10
208.3774415
 20
421.63421599999998
 40
5.0090029999999999
 50
329.43410499999999
 51
0
  0
LINE
  8
_0-1_LAY-1
  6
CONTINUOUS
 62
    1
 10
206.88644450000004
 20
469.16023099999995
 11
205.88644450000001
 21
467.97766200000001
  0
LINE
  8
_0-1_LAY-1
  6
CONTINUOUS
 62
    1
 10
206.88644450000004
 20
484.17133799999999
 11
206.88644450000004
 21
469.16023099999995
  0
LINE
  8
_0-1_LAY-1
  6
CONTINUOUS
 62
    1
 10
205.88644450000001
 20
485.39971800000001
 11
206.88644450000004
 21
484.17133799999999
  0
LINE
  8
_0-1_LAY-1
  6
CONTINUOUS
 62
    1
 10
212.6904175
 20
484.17133799999999
 11
213.38644450000001
 21
482.96578399999999
  0
ARC
  8
_0-1_LAY-1
  6
CONTINUOUS
 62
    1
 10
202.92148150000006
 20
476.66578400000003
 40
10.464962999999999
 50
338.98551800000001
 51
21.014481999999997
  0
LINE
  8
_0-1_LAY-1
  6
CONTINUOUS
 62
    1
 10
213.38644450000001
 20
482.96578399999999
 11
213.38644450000001
 21
470.36578399999996
  0
LINE
  8
_0-1_LAY-1
  6
CONTINUOUS
 62
    1
 10
212.6904175
 20
469.16023099999995
 11
213.38644450000001
 21
470.36578399999996
  0
LINE
  8
_0-1_LAY-1
  6
CONTINUOUS
 62
    1
 10
206.88644450000004
 20
484.17133799999999
 11
212.6904175
 21
484.17133799999999
  0
LINE
  8
_0-1_LAY-1
  6
CONTINUOUS
 62
    1
 10
206.88644450000004
 20
480.41856100000001
 11
212.6904175
 21
480.41856100000001
  0
LINE
  8
_0-1_LAY-1
  6
CONTINUOUS
 62
    1
 10
212.6904175
 20
469.16023099999995
 11
206.88644450000004
 21
469.16023099999995
  0
LINE
  8
_0-1_LAY-1
  6
CONTINUOUS
 62
    1
 10
206.88644450000004
 20
472.91300699999999
 11
212.6904175
 21
472.91300699999999
  0
ARC
  8
_0-1_LAY-1
  6
CONTINUOUS
 62
    1
 10
208.3774415
 20
470.36578399999996
 40
5.0090029999999999
 50
0
 51
30.565894999999998
  0
ARC
  8
_0-1_LAY-1
  6
CONTINUOUS
 62
    1
 10
208.3774415
 20
482.96578399999999
 40
5.0090029999999999
 50
329.43410499999999
 51
0
  0
LINE
  8
_0-1_LAY-1
  6
CONTINUOUS
 62
    1
 10
179.79339649999997
 20
368.21347100000003
 11
174.98942350000004
 21
368.21347100000003
  0
LINE
  8
_0-1_LAY-1
  6
CONTINUOUS
 62
    1
 10
179.79339649999997
 20
375.71902499999999
 11
174.98942350000004
 21
375.71902499999999
  0
ARC
  8
_0-1_LAY-1
  6
CONTINUOUS
 62
    1
 10
179.30239949999995
 20
365.666248
 40
5.0090029999999999
 50
149.43410499999999
 51
180
  0
ARC
  8
_0-1_LAY-1
  6
CONTINUOUS
 62
    1
 10
179.30239949999995
 20
378.26624800000002
 40
5.0090029999999999
 50
180
 51
210.56589500000001
  0
LINE
  8
_0-1_LAY-1
  6
CONTINUOUS
 62
    1
 10
174.98942350000004
 20
364.46069399999999
 11
174.29339649999994
 21
365.666248
  0
ARC
  8
_0-1_LAY-1
  6
CONTINUOUS
 62
    1
 10
184.75835949999998
 20
371.96624800000001
 40
10.464962999999999
 50
158.98551800000001
 51
201.01448200000002
  0
LINE
  8
_0-1_LAY-1
  6
CONTINUOUS
 62
    1
 10
174.98942350000004
 20
379.47180100000003
 11
174.29339649999994
 21
378.26624800000002
  0
LINE
  8
_0-1_LAY-1
  6
CONTINUOUS
 62
    1
 10
174.98942350000004
 20
364.46069399999999
 11
179.79339649999997
 21
364.46069399999999
  0
LINE
  8
_0-1_LAY-1
  6
CONTINUOUS
 62
    1
 10
174.29339649999994
 20
378.26624800000002
 11
174.29339649999994
 21
365.666248
  0
LINE
  8
_0-1_LAY-1
  6
CONTINUOUS
 62
    1
 10
179.79339649999997
 20
379.47180100000003
 11
174.98942350000004
 21
379.47180100000003
  0
LINE
  8
_0-1_LAY-1
  6
CONTINUOUS
 62
    1
 10
179.79339649999997
 20
411.58143900000005
 11
174.98942350000004
 21
411.58143900000005
  0
LINE
  8
_0-1_LAY-1
  6
CONTINUOUS
 62
    1
 10
179.79339649999997
 20
419.08699300000001
 11
174.98942350000004
 21
419.08699300000001
  0
ARC
  8
_0-1_LAY-1
  6
CONTINUOUS
 62
    1
 10
179.30239949999995
 20
409.03421600000001
 40
5.0090029999999999
 50
149.43410499999999
 51
180
  0
ARC
  8
_0-1_LAY-1
  6
CONTINUOUS
 62
    1
 10
179.30239949999995
 20
421.63421599999998
 40
5.0090029999999999
 50
180
 51
210.56589500000001
  0
LINE
  8
_0-1_LAY-1
  6
CONTINUOUS
 62
    1
 10
174.98942350000004
 20
407.82866199999995
 11
174.29339649999994
 21
409.03421600000001
  0
ARC
  8
_0-1_LAY-1
  6
CONTINUOUS
 62
    1
 10
184.75835949999998
 20
415.33421599999997
 40
10.464962999999999
 50
158.98551800000001
 51
201.01448200000002
  0
LINE
  8
_0-1_LAY-1
  6
CONTINUOUS
 62
    1
 10
174.98942350000004
 20
422.83976899999993
 11
174.29339649999994
 21
421.63421599999998
  0
LINE
  8
_0-1_LAY-1
  6
CONTINUOUS
 62
    1
 10
174.98942350000004
 20
407.82866199999995
 11
179.79339649999997
 21
407.82866199999995
  0
LINE
  8
_0-1_LAY-1
  6
CONTINUOUS
 62
    1
 10
174.29339649999994
 20
421.63421599999998
 11
174.29339649999994
 21
409.03421600000001
  0
LINE
  8
_0-1_LAY-1
  6
CONTINUOUS
 62
    1
 10
179.79339649999997
 20
422.83976899999993
 11
174.98942350000004
 21
422.83976899999993
  0
LINE
  8
_0-1_LAY-1
  6
CONTINUOUS
 62
    1
 10
179.79339649999997
 20
472.91300699999999
 11
174.98942350000004
 21
472.91300699999999
  0
LINE
  8
_0-1_LAY-1
  6
CONTINUOUS
 62
    1
 10
179.79339649999997
 20
480.41856100000001
 11
174.98942350000004
 21
480.41856100000001
  0
ARC
  8
_0-1_LAY-1
  6
CONTINUOUS
 62
    1
 10
179.30239949999995
 20
470.36578399999996
 40
5.0090029999999999
 50
149.43410499999999
 51
180
  0
ARC
  8
_0-1_LAY-1
  6
CONTINUOUS
 62
    1
 10
179.30239949999995
 20
482.96578399999999
 40
5.0090029999999999
 50
180
 51
210.56589500000001
  0
LINE
  8
_0-1_LAY-1
  6
CONTINUOUS
 62
    1
 10
174.98942350000004
 20
469.16023099999995
 11
174.29339649999994
 21
470.36578399999996
  0
ARC
  8
_0-1_LAY-1
  6
CONTINUOUS
 62
    1
 10
184.75835949999998
 20
476.66578400000003
 40
10.464962999999999
 50
158.98551800000001
 51
201.01448200000002
  0
LINE
  8
_0-1_LAY-1
  6
CONTINUOUS
 62
    1
 10
174.98942350000004
 20
484.17133799999999
 11
174.29339649999994
 21
482.96578399999999
  0
LINE
  8
_0-1_LAY-1
  6
CONTINUOUS
 62
    1
 10
174.98942350000004
 20
469.16023099999995
 11
179.79339649999997
 21
469.16023099999995
  0
LINE
  8
_0-1_LAY-1
  6
CONTINUOUS
 62
    1
 10
174.29339649999994
 20
482.96578399999999
 11
174.29339649999994
 21
470.36578399999996
  0
LINE
  8
_0-1_LAY-1
  6
CONTINUOUS
 62
    1
 10
179.79339649999997
 20
484.17133799999999
 11
174.98942350000004
 21
484.17133799999999
  0
LINE
  8
_0-1_LAY-1
  6
CONTINUOUS
 62
    1
 10
179.79339649999997
 20
523.78652899999997
 11
174.98942350000004
 21
523.78652899999997
  0
LINE
  8
_0-1_LAY-1
  6
CONTINUOUS
 62
    1
 10
179.79339649999997
 20
516.28097500000001
 11
174.98942350000004
 21
516.28097500000001
  0
ARC
  8
_0-1_LAY-1
  6
CONTINUOUS
 62
    1
 10
179.30239949999995
 20
526.333752
 40
5.0090029999999999
 50
180
 51
210.56589500000001
  0
ARC
  8
_0-1_LAY-1
  6
CONTINUOUS
 62
    1
 10
179.30239949999995
 20
513.73375199999998
 40
5.0090029999999999
 50
149.43410499999999
 51
180
  0
LINE
  8
_0-1_LAY-1
  6
CONTINUOUS
 62
    1
 10
174.98942350000004
 20
527.53930600000001
 11
174.29339649999994
 21
526.333752
  0
ARC
  8
_0-1_LAY-1
  6
CONTINUOUS
 62
    1
 10
184.75835949999998
 20
520.03375200000005
 40
10.464962999999999
 50
158.98551800000001
 51
201.01448200000002
  0
LINE
  8
_0-1_LAY-1
  6
CONTINUOUS
 62
    1
 10
174.98942350000004
 20
512.52819900000009
 11
174.29339649999994
 21
513.73375199999998
  0
LINE
  8
_0-1_LAY-1
  6
CONTINUOUS
 62
    1
 10
174.98942350000004
 20
527.53930600000001
 11
179.79339649999997
 21
527.53930600000001
  0
LINE
  8
_0-1_LAY-1
  6
CONTINUOUS
 62
    1
 10
174.29339649999994
 20
513.73375199999998
 11
174.29339649999994
 21
526.333752
  0
LINE
  8
_0-1_LAY-1
  6
CONTINUOUS
 62
    1
 10
179.79339649999997
 20
512.52819900000009
 11
174.98942350000004
 21
512.52819900000009
  0
LINE
  8
_0-1_LAY-1
  6
CONTINUOUS
 62
    1
 10
1182.7933965000002
 20
512.52819900000009
 11
1187.5973695
 21
512.52819900000009
  0
LINE
  8
_0-1_LAY-1
  6
CONTINUOUS
 62
    1
 10
1188.2933964999997
 20
513.73375199999998
 11
1188.2933964999997
 21
526.333752
  0
LINE
  8
_0-1_LAY-1
  6
CONTINUOUS
 62
    1
 10
1187.5973695
 20
527.53930600000001
 11
1182.7933965000002
 21
527.53930600000001
  0
LINE
  8
_0-1_LAY-1
  6
CONTINUOUS
 62
    1
 10
1187.5973695
 20
512.52819900000009
 11
1188.2933964999997
 21
513.73375199999998
  0
ARC
  8
_0-1_LAY-1
  6
CONTINUOUS
 62
    1
 10
1177.8284335000001
 20
520.03375200000005
 40
10.464962999999999
 50
338.98551800000001
 51
21.014481999999997
  0
LINE
  8
_0-1_LAY-1
  6
CONTINUOUS
 62
    1
 10
1187.5973695
 20
527.53930600000001
 11
1188.2933964999997
 21
526.333752
  0
ARC
  8
_0-1_LAY-1
  6
CONTINUOUS
 62
    1
 10
1183.2843934999999
 20
513.73375199999998
 40
5.0090029999999999
 50
0
 51
30.565894999999998
  0
ARC
  8
_0-1_LAY-1
  6
CONTINUOUS
 62
    1
 10
1183.2843934999999
 20
526.333752
 40
5.0090029999999999
 50
329.43410499999999
 51
0
  0
LINE
  8
_0-1_LAY-1
  6
CONTINUOUS
 62
    1
 10
1182.7933965000002
 20
516.28097500000001
 11
1187.5973695
 21
516.28097500000001
  0
LINE
  8
_0-1_LAY-1
  6
CONTINUOUS
 62
    1
 10
1182.7933965000002
 20
523.78652899999997
 11
1187.5973695
 21
523.78652899999997
  0
LINE
  8
_0-1_LAY-1
  6
CONTINUOUS
 62
    1
 10
1182.7933965000002
 20
484.17133799999999
 11
1187.5973695
 21
484.17133799999999
  0
LINE
  8
_0-1_LAY-1
  6
CONTINUOUS
 62
    1
 10
1188.2933964999997
 20
482.96578399999999
 11
1188.2933964999997
 21
470.36578399999996
  0
LINE
  8
_0-1_LAY-1
  6
CONTINUOUS
 62
    1
 10
1187.5973695
 20
469.16023099999995
 11
1182.7933965000002
 21
469.16023099999995
  0
LINE
  8
_0-1_LAY-1
  6
CONTINUOUS
 62
    1
 10
1187.5973695
 20
484.17133799999999
 11
1188.2933964999997
 21
482.96578399999999
  0
ARC
  8
_0-1_LAY-1
  6
CONTINUOUS
 62
    1
 10
1177.8284335000001
 20
476.66578400000003
 40
10.464962999999999
 50
338.98551800000001
 51
21.014481999999997
  0
LINE
  8
_0-1_LAY-1
  6
CONTINUOUS
 62
    1
 10
1187.5973695
 20
469.16023099999995
 11
1188.2933964999997
 21
470.36578399999996
  0
ARC
  8
_0-1_LAY-1
  6
CONTINUOUS
 62
    1
 10
1183.2843934999999
 20
482.96578399999999
 40
5.0090029999999999
 50
329.43410499999999
 51
0
  0
ARC
  8
_0-1_LAY-1
  6
CONTINUOUS
 62
    1
 10
1183.2843934999999
 20
470.36578399999996
 40
5.0090029999999999
 50
0
 51
30.565894999999998
  0
LINE
  8
_0-1_LAY-1
  6
CONTINUOUS
 62
    1
 10
1182.7933965000002
 20
480.41856100000001
 11
1187.5973695
 21
480.41856100000001
  0
LINE
  8
_0-1_LAY-1
  6
CONTINUOUS
 62
    1
 10
1182.7933965000002
 20
472.91300699999999
 11
1187.5973695
 21
472.91300699999999
  0
LINE
  8
_0-1_LAY-1
  6
CONTINUOUS
 62
    1
 10
1182.7933965000002
 20
422.83976899999993
 11
1187.5973695
 21
422.83976899999993
  0
LINE
  8
_0-1_LAY-1
  6
CONTINUOUS
 62
    1
 10
1188.2933964999997
 20
421.63421599999998
 11
1188.2933964999997
 21
409.03421600000001
  0
LINE
  8
_0-1_LAY-1
  6
CONTINUOUS
 62
    1
 10
1187.5973695
 20
407.82866199999995
 11
1182.7933965000002
 21
407.82866199999995
  0
LINE
  8
_0-1_LAY-1
  6
CONTINUOUS
 62
    1
 10
1187.5973695
 20
422.83976899999993
 11
1188.2933964999997
 21
421.63421599999998
  0
ARC
  8
_0-1_LAY-1
  6
CONTINUOUS
 62
    1
 10
1177.8284335000001
 20
415.33421599999997
 40
10.464962999999999
 50
338.98551800000001
 51
21.014481999999997
  0
LINE
  8
_0-1_LAY-1
  6
CONTINUOUS
 62
    1
 10
1187.5973695
 20
407.82866199999995
 11
1188.2933964999997
 21
409.03421600000001
  0
ARC
  8
_0-1_LAY-1
  6
CONTINUOUS
 62
    1
 10
1183.2843934999999
 20
421.63421599999998
 40
5.0090029999999999
 50
329.43410499999999
 51
0
  0
ARC
  8
_0-1_LAY-1
  6
CONTINUOUS
 62
    1
 10
1183.2843934999999
 20
409.03421600000001
 40
5.0090029999999999
 50
0
 51
30.565894999999998
  0
LINE
  8
_0-1_LAY-1
  6
CONTINUOUS
 62
    1
 10
1182.7933965000002
 20
419.08699300000001
 11
1187.5973695
 21
419.08699300000001
  0
LINE
  8
_0-1_LAY-1
  6
CONTINUOUS
 62
    1
 10
1182.7933965000002
 20
411.58143900000005
 11
1187.5973695
 21
411.58143900000005
  0
LINE
  8
_0-1_LAY-1
  6
CONTINUOUS
 62
    1
 10
1182.7933965000002
 20
379.47180100000003
 11
1187.5973695
 21
379.47180100000003
  0
LINE
  8
_0-1_LAY-1
  6
CONTINUOUS
 62
    1
 10
1188.2933964999997
 20
378.26624800000002
 11
1188.2933964999997
 21
365.666248
  0
LINE
  8
_0-1_LAY-1
  6
CONTINUOUS
 62
    1
 10
1187.5973695
 20
364.46069399999999
 11
1182.7933965000002
 21
364.46069399999999
  0
LINE
  8
_0-1_LAY-1
  6
CONTINUOUS
 62
    1
 10
1187.5973695
 20
379.47180100000003
 11
1188.2933964999997
 21
378.26624800000002
  0
ARC
  8
_0-1_LAY-1
  6
CONTINUOUS
 62
    1
 10
1177.8284335000001
 20
371.96624800000001
 40
10.464962999999999
 50
338.98551800000001
 51
21.014481999999997
  0
LINE
  8
_0-1_LAY-1
  6
CONTINUOUS
 62
    1
 10
1187.5973695
 20
364.46069399999999
 11
1188.2933964999997
 21
365.666248
  0
ARC
  8
_0-1_LAY-1
  6
CONTINUOUS
 62
    1
 10
1183.2843934999999
 20
378.26624800000002
 40
5.0090029999999999
 50
329.43410499999999
 51
0
  0
ARC
  8
_0-1_LAY-1
  6
CONTINUOUS
 62
    1
 10
1183.2843934999999
 20
365.666248
 40
5.0090029999999999
 50
0
 51
30.565894999999998
  0
LINE
  8
_0-1_LAY-1
  6
CONTINUOUS
 62
    1
 10
1182.7933965000002
 20
375.71902499999999
 11
1187.5973695
 21
375.71902499999999
  0
LINE
  8
_0-1_LAY-1
  6
CONTINUOUS
 62
    1
 10
1182.7933965000002
 20
368.21347100000003
 11
1187.5973695
 21
368.21347100000003
  0
LINE
  8
_0-1_LAY-1
  6
CONTINUOUS
 62
    3
 10
1016.6093905
 20
419.75
 11
1016.6093905
 21
472.25
  0
LINE
  8
_0-1_LAY-1
  6
EXLTYPE2
 62
    1
 10
1006.1654485
 20
466.03370200000006
 11
1013.9526234999998
 21
466.30563600000005
  0
ARC
  8
_0-1_LAY-1
  6
EXLTYPE2
 62
    1
 10
1013.8828245
 20
468.304418
 40
2
 50
272
 51
350
  0
LINE
  8
_0-1_LAY-1
  6
EXLTYPE2
 62
    1
 10
1015.8524404999998
 20
467.95712099999997
 11
1016.6093905
 21
472.25
  0
LINE
  8
_0-1_LAY-1
  6
EXLTYPE2
 62
    1
 10
1006.1654485
 20
425.96629799999999
 11
1013.9526234999998
 21
425.69436400000001
  0
ARC
  8
_0-1_LAY-1
  6
EXLTYPE2
 62
    1
 10
1013.8828245
 20
423.69558200000006
 40
2
 50
10
 51
88.000000000000014
  0
LINE
  8
_0-1_LAY-1
  6
EXLTYPE2
 62
    1
 10
1015.8524404999998
 20
424.04287899999997
 11
1016.6093905
 21
419.75
  0
ARC
  8
_0-1_LAY-1
  6
EXLTYPE2
 62
    1
 10
941.54339649999997
 20
446
 40
28
 50
346.89209299999999
 51
13.107907000000031
  0
LINE
  8
_0-1_LAY-1
  6
EXLTYPE2
 62
    1
 10
969.54339649999997
 20
435
 11
969.54339649999997
 21
457
  0
LINE
  8
_0-1_LAY-1
  6
EXLTYPE2
 62
    1
 10
961.27294549999988
 20
439.65000000000003
 11
968.81384750000007
 21
439.65000000000003
  0
LINE
  8
_0-1_LAY-1
  6
EXLTYPE2
 62
    1
 10
961.27294549999988
 20
452.35000000000002
 11
968.81384750000007
 21
452.35000000000002
  0
ARC
  8
_0-1_LAY-1
  6
EXLTYPE2
 62
    1
 10
967.81697750000001
 20
436.47500000000002
 40
7.2735810000000001
 50
154.118503
 51
206.12040500000001
  0
LINE
  8
_0-1_LAY-1
  6
EXLTYPE2
 62
    1
 10
960.54339649999997
 20
435
 11
961.27294549999988
 21
433.27518099999998
  0
ARC
  8
_0-1_LAY-1
  6
EXLTYPE2
 62
    1
 10
988.54339649999997
 20
446
 40
28
 50
166.89209299999999
 51
193.10790699999998
  0
LINE
  8
_0-1_LAY-1
  6
EXLTYPE2
 62
    1
 10
968.80055149999998
 20
433.30000000000001
 11
961.26244750000001
 21
433.30000000000001
  0
LINE
  8
_0-1_LAY-1
  6
EXLTYPE2
 62
    1
 10
960.54339649999997
 20
435
 11
960.54339649999997
 21
457
  0
LINE
  8
_0-1_LAY-1
  6
EXLTYPE2
 62
    1
 10
969.54339649999997
 20
457
 11
969.54339649999997
 21
435
  0
ARC
  8
_0-1_LAY-1
  6
EXLTYPE2
 62
    1
 10
967.81697750000001
 20
455.52499999999998
 40
7.2735810000000001
 50
154.118503
 51
205.881497
  0
LINE
  8
_0-1_LAY-1
  6
EXLTYPE2
 62
    1
 10
960.54339649999997
 20
457
 11
961.26244750000001
 21
458.70000000000005
  0
LINE
  8
_0-1_LAY-1
  6
EXLTYPE2
 62
    1
 10
961.26244750000001
 20
458.70000000000005
 11
968.82434550000016
 21
458.70000000000005
  0
LINE
  8
_0-1_LAY-1
  6
EXLTYPE2
 62
    1
 10
969.09897850000016
 20
458.02850100000001
 11
969.10837049999986
 21
458.02850100000001
  0
LINE
  8
_0-1_LAY-1
  6
EXLTYPE2
 62
    1
 10
969.10837049999986
 20
458.02850100000001
 11
969.09897850000016
 21
458.02850100000001
  0
LINE
  8
_0-1_LAY-1
  6
EXLTYPE2
 62
    1
 10
969.54339649999997
 20
457
 11
968.82434550000016
 21
458.70000000000005
  0
ARC
  8
_0-1_LAY-1
  6
EXLTYPE2
 62
    1
 10
962.26981550000005
 20
455.52499999999998
 40
7.2735810000000001
 50
334.11850299999992
 51
25.881496999999985
  0
LINE
  8
_0-1_LAY-1
  6
EXLTYPE2
 62
    1
 10
969.09897850000016
 20
433.97149899999999
 11
969.10837049999986
 21
433.97149899999999
  0
LINE
  8
_0-1_LAY-1
  6
EXLTYPE2
 62
    1
 10
969.10837049999986
 20
433.97149899999999
 11
969.09897850000016
 21
433.97149899999999
  0
ARC
  8
_0-1_LAY-1
  6
EXLTYPE2
 62
    1
 10
962.26981550000005
 20
436.47500000000002
 40
7.2735810000000001
 50
337.07303000000002
 51
25.881497000000028
  0
LINE
  8
_0-1_LAY-1
  6
EXLTYPE2
 62
    1
 10
969.54339649999997
 20
435
 11
968.82434550000016
 21
433.30000000000001
  0
LINE
  8
_0-1_LAY-1
  6
EXLTYPE2
 62
    1
 10
969.10837049999986
 20
433.97149899999999
 11
969.09897850000016
 21
433.97149899999999
  0
LINE
  8
_0-1_LAY-1
  6
EXLTYPE2
 62
    1
 10
969.54339649999997
 20
439
 11
994.36911250000003
 21
439
  0
LINE
  8
_0-1_LAY-1
  6
EXLTYPE2
 62
    1
 10
994.42808349999996
 20
453
 11
969.54339649999997
 21
453
  0
ARC
  8
_0-1_LAY-1
  6
EXLTYPE2
 62
    1
 10
1001.8710585
 20
456.5
 40
7.4192009999999993
 50
180
 51
214.00356099999999
  0
ARC
  8
_0-1_LAY-1
  6
EXLTYPE2
 62
    1
 10
1001.8710585
 20
435.5
 40
7.4192009999999993
 50
145.99643900000001
 51
180
  0
LINE
  8
_0-1_LAY-1
  6
EXLTYPE2
 62
    1
 10
994.45034850000002
 20
435.5
 11
995.72051949999991
 21
433.30000000000001
  0
LINE
  8
_0-1_LAY-1
  6
EXLTYPE2
 62
    1
 10
995.72051949999991
 20
452.35085299999997
 11
1005.4503485
 21
452.35085299999997
  0
LINE
  8
_0-1_LAY-1
  6
EXLTYPE2
 62
    1
 10
994.45034850000002
 20
456.5
 11
995.72051949999991
 21
458.70000000000005
  0
ARC
  8
_0-1_LAY-1
  6
EXLTYPE2
 62
    1
 10
1010.9625665000001
 20
446
 40
16.512218000000001
 50
157.38013499999997
 51
202.619865
  0
LINE
  8
_0-1_LAY-1
  6
EXLTYPE2
 62
    1
 10
995.72051949999991
 20
439.64914699999997
 11
1005.4503485
 21
439.64914699999997
  0
LINE
  8
_0-1_LAY-1
  6
EXLTYPE2
 62
    1
 10
995.72051949999991
 20
458.70000000000005
 11
1005.4503485
 21
458.70000000000005
  0
LINE
  8
_0-1_LAY-1
  6
EXLTYPE2
 62
    1
 10
994.45034850000002
 20
435.5
 11
994.45034850000002
 21
456.5
  0
LINE
  8
_0-1_LAY-1
  6
EXLTYPE2
 62
    1
 10
1005.4503485
 20
433.30000000000001
 11
995.72051949999991
 21
433.30000000000001
  0
LINE
  8
_0-1_LAY-1
  6
EXLTYPE2
 62
    1
 10
1006.4154484999999
 20
425.96629799999999
 11
1014.2026234999998
 21
425.69436400000001
  0
LINE
  8
_0-1_LAY-1
  6
EXLTYPE2
 62
    1
 10
1005.4503485
 20
446
 11
1005.4503485
 21
465.03431499999999
  0
ARC
  8
_0-1_LAY-1
  6
EXLTYPE2
 62
    1
 10
1006.4503485
 20
465.034311
 40
1
 50
91.999999999999986
 51
180
  0
LINE
  8
_0-1_LAY-1
  6
EXLTYPE2
 62
    1
 10
1005.4503485
 20
446
 11
1005.4503485
 21
426.96568500000001
  0
ARC
  8
_0-1_LAY-1
  6
EXLTYPE2
 62
    1
 10
1006.4503485
 20
426.965689
 40
1
 50
180
 51
268
  0
LINE
  8
_0-1_LAY-1
  6
EXLTYPE2
 62
    1
 10
1006.4154484999999
 20
466.03370200000006
 11
1014.2026234999998
 21
466.30563600000005
  0
LINE
  8
_0-1_LAY-1
  6
EXLTYPE3
 62
    1
 10
1221.2933964999997
 20
530.70000000000005
 11
1221.2933964999997
 21
234.80000000000001
  0
LINE
  8
_0-1_LAY-1
  6
EXLTYPE4
 62
    1
 10
1207.9019665000001
 20
508.5
 11
1234.6494785
 21
508.5
  0
LINE
  8
_0-1_LAY-1
  6
EXLTYPE4
 62
    1
 10
1205.2933965000002
 20
513
 11
1237.2933965
 21
513
  0
LINE
  8
_0-1_LAY-1
  6
EXLTYPE4
 62
    1
 10
1205.2933965000002
 20
522
 11
1237.2933965
 21
522
  0
LINE
  8
_0-1_LAY-1
  6
EXLTYPE4
 62
    1
 10
1212.0557924999998
 20
520.84529900000007
 11
1212.0557924999998
 21
514.15470099999993
  0
LINE
  8
_0-1_LAY-1
  6
EXLTYPE4
 62
    1
 10
1230.5310004999999
 20
520.84529900000007
 11
1230.5310004999999
 21
514.15470099999993
  0
ARC
  8
_0-1_LAY-1
  6
EXLTYPE4
 62
    1
 10
1234.9121985000002
 20
521.88898300000005
 40
8.8889829999999996
 50
240.46998000000002
 51
299.53002000000004
  0
ARC
  8
_0-1_LAY-1
  6
EXLTYPE4
 62
    1
 10
1221.2933964999997
 20
550.52776700000004
 40
37.527766999999997
 50
255.74996700000003
 51
284.25003300000003
  0
ARC
  8
_0-1_LAY-1
  6
EXLTYPE4
 62
    1
 10
1207.6745945
 20
521.88898300000005
 40
8.8889829999999996
 50
240.46998000000002
 51
299.53002000000004
  0
ARC
  8
_0-1_LAY-1
  6
EXLTYPE4
 62
    1
 10
1234.9121985000002
 20
513.11101699999995
 40
8.8889829999999996
 50
60.46998
 51
119.53001999999999
  0
ARC
  8
_0-1_LAY-1
  6
EXLTYPE4
 62
    1
 10
1221.2933964999997
 20
484.47223300000002
 40
37.527766999999997
 50
75.749966999999998
 51
104.25003299999999
  0
ARC
  8
_0-1_LAY-1
  6
EXLTYPE4
 62
    1
 10
1207.6745945
 20
513.11101699999995
 40
8.8889829999999996
 50
60.46998
 51
119.53001999999999
  0
LINE
  8
_0-1_LAY-1
  6
EXLTYPE4
 62
    1
 10
1239.2933964999997
 20
520.84529900000007
 11
1237.2933965
 21
522
  0
LINE
  8
_0-1_LAY-1
  6
EXLTYPE4
 62
    1
 10
1239.2933964999997
 20
514.15470099999993
 11
1239.2933964999997
 21
520.84529900000007
  0
LINE
  8
_0-1_LAY-1
  6
EXLTYPE4
 62
    1
 10
1239.2933964999997
 20
514.15470099999993
 11
1237.2933965
 21
513
  0
LINE
  8
_0-1_LAY-1
  6
EXLTYPE4
 62
    1
 10
1203.2933964999997
 20
520.84529900000007
 11
1205.2933965000002
 21
522
  0
LINE
  8
_0-1_LAY-1
  6
EXLTYPE4
 62
    1
 10
1203.2933964999997
 20
514.15470099999993
 11
1203.2933964999997
 21
520.84529900000007
  0
LINE
  8
_0-1_LAY-1
  6
EXLTYPE4
 62
    1
 10
1203.2933964999997
 20
514.15470099999993
 11
1205.2933965000002
 21
513
  0
LINE
  8
_0-1_LAY-1
  6
EXLTYPE4
 62
    1
 10
1234.5203804999999
 20
504
 11
1234.7785765000001
 21
513
  0
LINE
  8
_0-1_LAY-1
  6
EXLTYPE4
 62
    1
 10
1208.0664124999998
 20
504
 11
1207.8082165000001
 21
513
  0
LINE
  8
_0-1_LAY-1
  6
EXLTYPE4
 62
    1
 10
1233.3816345
 20
504
 11
1233.5222595
 21
508.5
  0
LINE
  8
_0-1_LAY-1
  6
EXLTYPE4
 62
    1
 10
1209.2051584999999
 20
504
 11
1209.0645334999999
 21
508.5
  0
LINE
  8
_0-1_LAY-1
  6
EXLTYPE4
 62
    1
 10
1209.0645334999999
 20
508.5
 11
1207.8354395000001
 21
510.62885300000005
  0
LINE
  8
_0-1_LAY-1
  6
EXLTYPE4
 62
    1
 10
1233.5222595
 20
508.5
 11
1234.7513534999998
 21
510.62885300000005
  0
LINE
  8
_0-1_LAY-1
  6
CONTINUOUS
 62
    1
 10
1206.2267434999999
 20
387
 11
1206.0831215000001
 21
382.40410500000002
  0
LINE
  8
_0-1_LAY-1
  6
CONTINUOUS
 62
    1
 10
1236.3600495000001
 20
387
 11
1236.5036715000001
 21
382.40410500000002
  0
LINE
  8
_0-1_LAY-1
  6
CONTINUOUS
 62
    1
 10
1236.3606634999999
 20
359.01964099999998
 11
1236.5036715000001
 21
363.59589700000004
  0
LINE
  8
_0-1_LAY-1
  6
CONTINUOUS
 62
    1
 10
1206.2261294999998
 20
359.01964099999998
 11
1206.0831215000001
 21
363.59589700000004
  0
LINE
  8
_0-1_LAY-1
  6
CONTINUOUS
 62
    1
 10
1238.0680685000002
 20
379.69448899999998
 11
1236.5036715000001
 21
382.40410500000002
  0
LINE
  8
_0-1_LAY-1
  6
CONTINUOUS
 62
    1
 10
1204.5187245
 20
379.69448899999998
 11
1206.0831215000001
 21
382.40410500000002
  0
LINE
  8
_0-1_LAY-1
  6
CONTINUOUS
 62
    1
 10
1204.5187245
 20
366.30551300000002
 11
1206.0831215000001
 21
363.59589700000004
  0
LINE
  8
_0-1_LAY-1
  6
CONTINUOUS
 62
    1
 10
1238.0680685000002
 20
366.30551300000002
 11
1236.5036715000001
 21
363.59589700000004
  0
LINE
  8
_0-1_LAY-1
  6
EXLTYPE3
 62
    1
 10
944.20660350000003
 20
446
 11
1283.0066035
 21
446
  0
LINE
  8
_0-1_LAY-1
  6
CONTINUOUS
 62
    1
 10
1155.7003485
 20
527.53930600000001
 11
1156.7003485
 21
528.72187499999995
  0
LINE
  8
_0-1_LAY-1
  6
CONTINUOUS
 62
    1
 10
1155.7003485
 20
512.52819900000009
 11
1155.7003485
 21
527.53930600000001
  0
LINE
  8
_0-1_LAY-1
  6
CONTINUOUS
 62
    1
 10
1156.7003485
 20
511.29981799999996
 11
1155.7003485
 21
512.52819900000009
  0
LINE
  8
_0-1_LAY-1
  6
CONTINUOUS
 62
    1
 10
1149.8963755
 20
512.52819900000009
 11
1149.2003485
 21
513.73375199999998
  0
ARC
  8
_0-1_LAY-1
  6
CONTINUOUS
 62
    1
 10
1159.6653114999999
 20
520.03375200000005
 40
10.464962999999999
 50
158.98551800000001
 51
201.01448200000002
  0
LINE
  8
_0-1_LAY-1
  6
CONTINUOUS
 62
    1
 10
1149.2003485
 20
513.73375199999998
 11
1149.2003485
 21
526.333752
  0
LINE
  8
_0-1_LAY-1
  6
CONTINUOUS
 62
    1
 10
1149.8963755
 20
527.53930600000001
 11
1149.2003485
 21
526.333752
  0
LINE
  8
_0-1_LAY-1
  6
CONTINUOUS
 62
    1
 10
1155.7003485
 20
512.52819900000009
 11
1149.8963755
 21
512.52819900000009
  0
LINE
  8
_0-1_LAY-1
  6
CONTINUOUS
 62
    1
 10
1155.7003485
 20
516.28097500000001
 11
1149.8963755
 21
516.28097500000001
  0
LINE
  8
_0-1_LAY-1
  6
CONTINUOUS
 62
    1
 10
1149.8963755
 20
527.53930600000001
 11
1155.7003485
 21
527.53930600000001
  0
LINE
  8
_0-1_LAY-1
  6
CONTINUOUS
 62
    1
 10
1155.7003485
 20
523.78652899999997
 11
1149.8963755
 21
523.78652899999997
  0
ARC
  8
_0-1_LAY-1
  6
CONTINUOUS
 62
    1
 10
1154.2093515000001
 20
526.333752
 40
5.0090029999999999
 50
180
 51
210.56589500000001
  0
ARC
  8
_0-1_LAY-1
  6
CONTINUOUS
 62
    1
 10
1154.2093515000001
 20
513.73375199999998
 40
5.0090029999999999
 50
149.43410499999999
 51
180
  0
LINE
  8
_0-1_LAY-1
  6
CONTINUOUS
 62
    1
 10
1155.7003485
 20
364.46069399999999
 11
1156.7003485
 21
363.27812499999999
  0
LINE
  8
_0-1_LAY-1
  6
CONTINUOUS
 62
    1
 10
1155.7003485
 20
379.47180100000003
 11
1155.7003485
 21
364.46069399999999
  0
LINE
  8
_0-1_LAY-1
  6
CONTINUOUS
 62
    1
 10
1156.7003485
 20
380.70018199999998
 11
1155.7003485
 21
379.47180100000003
  0
LINE
  8
_0-1_LAY-1
  6
CONTINUOUS
 62
    1
 10
1149.8963755
 20
379.47180100000003
 11
1149.2003485
 21
378.26624800000002
  0
ARC
  8
_0-1_LAY-1
  6
CONTINUOUS
 62
    1
 10
1159.6653114999999
 20
371.96624800000001
 40
10.464962999999999
 50
158.98551800000001
 51
201.01448200000002
  0
LINE
  8
_0-1_LAY-1
  6
CONTINUOUS
 62
    1
 10
1149.2003485
 20
378.26624800000002
 11
1149.2003485
 21
365.666248
  0
LINE
  8
_0-1_LAY-1
  6
CONTINUOUS
 62
    1
 10
1149.8963755
 20
364.46069399999999
 11
1149.2003485
 21
365.666248
  0
LINE
  8
_0-1_LAY-1
  6
CONTINUOUS
 62
    1
 10
1155.7003485
 20
379.47180100000003
 11
1149.8963755
 21
379.47180100000003
  0
LINE
  8
_0-1_LAY-1
  6
CONTINUOUS
 62
    1
 10
1155.7003485
 20
375.71902499999999
 11
1149.8963755
 21
375.71902499999999
  0
LINE
  8
_0-1_LAY-1
  6
CONTINUOUS
 62
    1
 10
1149.8963755
 20
364.46069399999999
 11
1155.7003485
 21
364.46069399999999
  0
LINE
  8
_0-1_LAY-1
  6
CONTINUOUS
 62
    1
 10
1155.7003485
 20
368.21347100000003
 11
1149.8963755
 21
368.21347100000003
  0
ARC
  8
_0-1_LAY-1
  6
CONTINUOUS
 62
    1
 10
1154.2093515000001
 20
365.666248
 40
5.0090029999999999
 50
149.43410499999999
 51
180
  0
ARC
  8
_0-1_LAY-1
  6
CONTINUOUS
 62
    1
 10
1154.2093515000001
 20
378.26624800000002
 40
5.0090029999999999
 50
180
 51
210.56589500000001
  0
LINE
  8
_0-1_LAY-1
  6
CONTINUOUS
 62
    1
 10
1155.7003485
 20
484.17133799999999
 11
1156.7003485
 21
485.35390700000005
  0
LINE
  8
_0-1_LAY-1
  6
CONTINUOUS
 62
    1
 10
1155.7003485
 20
469.16023099999995
 11
1155.7003485
 21
484.17133799999999
  0
LINE
  8
_0-1_LAY-1
  6
CONTINUOUS
 62
    1
 10
1156.7003485
 20
467.93185
 11
1155.7003485
 21
469.16023099999995
  0
LINE
  8
_0-1_LAY-1
  6
CONTINUOUS
 62
    1
 10
1149.8963755
 20
469.16023099999995
 11
1149.2003485
 21
470.36578399999996
  0
ARC
  8
_0-1_LAY-1
  6
CONTINUOUS
 62
    1
 10
1159.6653114999999
 20
476.66578400000003
 40
10.464962999999999
 50
158.98551800000001
 51
201.01448200000002
  0
LINE
  8
_0-1_LAY-1
  6
CONTINUOUS
 62
    1
 10
1149.2003485
 20
470.36578399999996
 11
1149.2003485
 21
482.96578399999999
  0
LINE
  8
_0-1_LAY-1
  6
CONTINUOUS
 62
    1
 10
1149.8963755
 20
484.17133799999999
 11
1149.2003485
 21
482.96578399999999
  0
LINE
  8
_0-1_LAY-1
  6
CONTINUOUS
 62
    1
 10
1155.7003485
 20
469.16023099999995
 11
1149.8963755
 21
469.16023099999995
  0
LINE
  8
_0-1_LAY-1
  6
CONTINUOUS
 62
    1
 10
1155.7003485
 20
472.91300699999999
 11
1149.8963755
 21
472.91300699999999
  0
LINE
  8
_0-1_LAY-1
  6
CONTINUOUS
 62
    1
 10
1149.8963755
 20
484.17133799999999
 11
1155.7003485
 21
484.17133799999999
  0
LINE
  8
_0-1_LAY-1
  6
CONTINUOUS
 62
    1
 10
1155.7003485
 20
480.41856100000001
 11
1149.8963755
 21
480.41856100000001
  0
ARC
  8
_0-1_LAY-1
  6
CONTINUOUS
 62
    1
 10
1154.2093515000001
 20
482.96578399999999
 40
5.0090029999999999
 50
180
 51
210.56589500000001
  0
ARC
  8
_0-1_LAY-1
  6
CONTINUOUS
 62
    1
 10
1154.2093515000001
 20
470.36578399999996
 40
5.0090029999999999
 50
149.43410499999999
 51
180
  0
LINE
  8
_0-1_LAY-1
  6
CONTINUOUS
 62
    1
 10
1155.7003485
 20
422.83976899999993
 11
1156.7003485
 21
424.02233799999999
  0
LINE
  8
_0-1_LAY-1
  6
CONTINUOUS
 62
    1
 10
1155.7003485
 20
407.82866199999995
 11
1155.7003485
 21
422.83976899999993
  0
LINE
  8
_0-1_LAY-1
  6
CONTINUOUS
 62
    1
 10
1156.7003485
 20
406.60028200000005
 11
1155.7003485
 21
407.82866199999995
  0
LINE
  8
_0-1_LAY-1
  6
CONTINUOUS
 62
    1
 10
1149.8963755
 20
407.82866199999995
 11
1149.2003485
 21
409.03421600000001
  0
ARC
  8
_0-1_LAY-1
  6
CONTINUOUS
 62
    1
 10
1159.6653114999999
 20
415.33421599999997
 40
10.464962999999999
 50
158.98551800000001
 51
201.01448200000002
  0
LINE
  8
_0-1_LAY-1
  6
CONTINUOUS
 62
    1
 10
1149.2003485
 20
409.03421600000001
 11
1149.2003485
 21
421.63421599999998
  0
LINE
  8
_0-1_LAY-1
  6
CONTINUOUS
 62
    1
 10
1149.8963755
 20
422.83976899999993
 11
1149.2003485
 21
421.63421599999998
  0
LINE
  8
_0-1_LAY-1
  6
CONTINUOUS
 62
    1
 10
1155.7003485
 20
407.82866199999995
 11
1149.8963755
 21
407.82866199999995
  0
LINE
  8
_0-1_LAY-1
  6
CONTINUOUS
 62
    1
 10
1155.7003485
 20
411.58143900000005
 11
1149.8963755
 21
411.58143900000005
  0
LINE
  8
_0-1_LAY-1
  6
CONTINUOUS
 62
    1
 10
1149.8963755
 20
422.83976899999993
 11
1155.7003485
 21
422.83976899999993
  0
LINE
  8
_0-1_LAY-1
  6
CONTINUOUS
 62
    1
 10
1155.7003485
 20
419.08699300000001
 11
1149.8963755
 21
419.08699300000001
  0
ARC
  8
_0-1_LAY-1
  6
CONTINUOUS
 62
    1
 10
1154.2093515000001
 20
421.63421599999998
 40
5.0090029999999999
 50
180
 51
210.56589500000001
  0
ARC
  8
_0-1_LAY-1
  6
CONTINUOUS
 62
    1
 10
1154.2093515000001
 20
409.03421600000001
 40
5.0090029999999999
 50
149.43410499999999
 51
180
  0
ARC
  8
_0-1_LAY-1
  6
EXLTYPE2
 62
    1
 10
681.29339649999997
 20
747.09304800000007
 40
28
 50
76.892092999999988
 51
103.107907
  0
LINE
  8
_0-1_LAY-1
  6
EXLTYPE2
 62
    1
 10
670.29339649999997
 20
775.09304799999995
 11
692.29339649999997
 21
775.09304799999995
  0
LINE
  8
_0-1_LAY-1
  6
EXLTYPE2
 62
    1
 10
674.94339650000006
 20
766.82259699999997
 11
674.94339650000006
 21
774.36349900000005
  0
LINE
  8
_0-1_LAY-1
  6
EXLTYPE2
 62
    1
 10
687.64339649999999
 20
766.82259699999997
 11
687.64339649999999
 21
774.36349900000005
  0
ARC
  8
_0-1_LAY-1
  6
EXLTYPE2
 62
    1
 10
671.76839649999999
 20
773.3666290000001
 40
7.2735810000000001
 50
243.87959499999999
 51
295.88149700000002
  0
LINE
  8
_0-1_LAY-1
  6
EXLTYPE2
 62
    1
 10
670.29339649999997
 20
766.09304799999995
 11
668.56857749999995
 21
766.82259699999997
  0
ARC
  8
_0-1_LAY-1
  6
EXLTYPE2
 62
    1
 10
681.29339649999997
 20
794.09304799999995
 40
28
 50
256.89209299999999
 51
283.10790700000001
  0
LINE
  8
_0-1_LAY-1
  6
EXLTYPE2
 62
    1
 10
668.59339649999993
 20
774.35020299999996
 11
668.59339649999993
 21
766.81209899999999
  0
LINE
  8
_0-1_LAY-1
  6
EXLTYPE2
 62
    1
 10
670.29339649999997
 20
766.09304799999995
 11
692.29339649999997
 21
766.09304799999995
  0
LINE
  8
_0-1_LAY-1
  6
EXLTYPE2
 62
    1
 10
692.29339649999997
 20
775.09304799999995
 11
670.29339649999997
 21
775.09304799999995
  0
ARC
  8
_0-1_LAY-1
  6
EXLTYPE2
 62
    1
 10
690.81839649999995
 20
773.3666290000001
 40
7.2735810000000001
 50
244.11850299999998
 51
295.88149700000002
  0
LINE
  8
_0-1_LAY-1
  6
EXLTYPE2
 62
    1
 10
692.29339649999997
 20
766.09304799999995
 11
693.99339650000002
 21
766.81209899999999
  0
LINE
  8
_0-1_LAY-1
  6
EXLTYPE2
 62
    1
 10
693.99339650000002
 20
766.81209899999999
 11
693.99339650000002
 21
774.37399699999992
  0
LINE
  8
_0-1_LAY-1
  6
EXLTYPE2
 62
    1
 10
693.32189749999998
 20
774.64862999999991
 11
693.32189749999998
 21
774.65802199999996
  0
LINE
  8
_0-1_LAY-1
  6
EXLTYPE2
 62
    1
 10
693.32189749999998
 20
774.65802199999996
 11
693.32189749999998
 21
774.64862999999991
  0
LINE
  8
_0-1_LAY-1
  6
EXLTYPE2
 62
    1
 10
692.29339649999997
 20
775.09304799999995
 11
693.99339650000002
 21
774.37399699999992
  0
ARC
  8
_0-1_LAY-1
  6
EXLTYPE2
 62
    1
 10
690.81839649999995
 20
767.81946700000003
 40
7.2735810000000001
 50
64.118503000000004
 51
115.88149700000001
  0
LINE
  8
_0-1_LAY-1
  6
EXLTYPE2
 62
    1
 10
669.26489549999997
 20
774.64862999999991
 11
669.26489549999997
 21
774.65802199999996
  0
LINE
  8
_0-1_LAY-1
  6
EXLTYPE2
 62
    1
 10
669.26489549999997
 20
774.65802199999996
 11
669.26489549999997
 21
774.64862999999991
  0
ARC
  8
_0-1_LAY-1
  6
EXLTYPE2
 62
    1
 10
671.76839649999999
 20
767.81946700000003
 40
7.2735810000000001
 50
64.118503000000004
 51
112.92697
  0
LINE
  8
_0-1_LAY-1
  6
EXLTYPE2
 62
    1
 10
670.29339649999997
 20
775.09304799999995
 11
668.59339649999993
 21
774.37399699999992
  0
LINE
  8
_0-1_LAY-1
  6
EXLTYPE2
 62
    1
 10
669.26489549999997
 20
774.65802199999996
 11
669.26489549999997
 21
774.64862999999991
  0
LINE
  8
_0-1_LAY-1
  6
EXLTYPE2
 62
    1
 10
674.29339649999997
 20
775.09304799999995
 11
674.29339649999997
 21
799.91876400000001
  0
LINE
  8
_0-1_LAY-1
  6
EXLTYPE2
 62
    1
 10
688.29339649999997
 20
799.97773499999994
 11
688.29339649999997
 21
775.09304799999995
  0
ARC
  8
_0-1_LAY-1
  6
EXLTYPE2
 62
    1
 10
691.79339649999997
 20
807.4207100000001
 40
7.4192009999999993
 50
235.99643900000001
 51
270
  0
ARC
  8
_0-1_LAY-1
  6
EXLTYPE2
 62
    1
 10
670.79339649999997
 20
807.4207100000001
 40
7.4192009999999993
 50
270
 51
304.00356099999999
  0
LINE
  8
_0-1_LAY-1
  6
EXLTYPE2
 62
    1
 10
670.79339649999997
 20
800
 11
668.59339649999993
 21
801.270171
  0
LINE
  8
_0-1_LAY-1
  6
EXLTYPE2
 62
    1
 10
687.6442495
 20
801.270171
 11
687.6442495
 21
811
  0
LINE
  8
_0-1_LAY-1
  6
EXLTYPE2
 62
    1
 10
691.79339649999997
 20
800
 11
693.99339650000002
 21
801.270171
  0
ARC
  8
_0-1_LAY-1
  6
EXLTYPE2
 62
    1
 10
681.29339649999997
 20
816.51221799999985
 40
16.512218000000001
 50
247.380135
 51
292.619865
  0
LINE
  8
_0-1_LAY-1
  6
EXLTYPE2
 62
    1
 10
674.94254350000006
 20
801.270171
 11
674.94254350000006
 21
811
  0
LINE
  8
_0-1_LAY-1
  6
EXLTYPE2
 62
    1
 10
693.99339650000002
 20
801.270171
 11
693.99339650000002
 21
811
  0
LINE
  8
_0-1_LAY-1
  6
EXLTYPE2
 62
    1
 10
670.79339649999997
 20
800
 11
691.79339649999997
 21
800
  0
LINE
  8
_0-1_LAY-1
  6
EXLTYPE2
 62
    1
 10
668.59339649999993
 20
811
 11
668.59339649999993
 21
801.270171
  0
LINE
  8
_0-1_LAY-1
  6
EXLTYPE2
 62
    1
 10
659.33627550000006
 20
821.65209200000004
 11
655.04339649999997
 21
822.409042
  0
ARC
  8
_0-1_LAY-1
  6
EXLTYPE2
 62
    1
 10
658.98897850000003
 20
819.68247599999995
 40
2
 50
2
 51
80.000000000000014
  0
LINE
  8
_0-1_LAY-1
  6
EXLTYPE2
 62
    1
 10
661.25969450000002
 20
811.965101
 11
660.98776049999992
 21
819.75227500000005
  0
LINE
  8
_0-1_LAY-1
  6
EXLTYPE2
 62
    1
 10
681.29339649999997
 20
811
 11
700.32771149999996
 21
811
  0
ARC
  8
_0-1_LAY-1
  6
EXLTYPE2
 62
    1
 10
700.32770749999997
 20
812
 40
1
 50
270
 51
358
  0
LINE
  8
_0-1_LAY-1
  6
EXLTYPE2
 62
    1
 10
681.29339649999997
 20
811
 11
662.25908149999998
 21
811
  0
ARC
  8
_0-1_LAY-1
  6
EXLTYPE2
 62
    1
 10
662.25908549999997
 20
812
 40
1
 50
182
 51
270
  0
ARC
  8
_0-1_LAY-1
  6
EXLTYPE2
 62
    1
 10
703.59781449999991
 20
819.68247599999995
 40
2
 50
100
 51
178.00000000000003
  0
LINE
  8
_0-1_LAY-1
  6
EXLTYPE2
 62
    1
 10
701.32709850000003
 20
811.965101
 11
701.59903250000002
 21
819.75227500000005
  0
LINE
  8
_0-1_LAY-1
  6
EXLTYPE2
 62
    1
 10
703.2505175
 20
821.65209200000004
 11
707.54339649999997
 21
822.409042
  0
LINE
  8
_0-1_LAY-1
  6
CONTINUOUS
 62
    3
 10
707.54339649999997
 20
822.409042
 11
655.04339649999997
 21
822.409042
  0
LINE
  8
_0-1_LAY-1
  6
CONTINUOUS
 62
    1
 10
762.83270249999998
 20
961.5
 11
764.01527150000004
 21
962.50000000000011
  0
LINE
  8
_0-1_LAY-1
  6
CONTINUOUS
 62
    1
 10
747.82159550000006
 20
961.5
 11
762.83270249999998
 21
961.5
  0
LINE
  8
_0-1_LAY-1
  6
CONTINUOUS
 62
    1
 10
746.59321450000004
 20
962.50000000000011
 11
747.82159550000006
 21
961.5
  0
LINE
  8
_0-1_LAY-1
  6
CONTINUOUS
 62
    1
 10
747.82159550000006
 20
955.69602699999996
 11
749.02714849999995
 21
955.00000000000011
  0
ARC
  8
_0-1_LAY-1
  6
CONTINUOUS
 62
    1
 10
755.32714850000002
 20
965.4649629999999
 40
10.464962999999999
 50
248.98551800000001
 51
291.01448199999999
  0
LINE
  8
_0-1_LAY-1
  6
CONTINUOUS
 62
    1
 10
749.02714849999995
 20
955.00000000000011
 11
761.62714849999998
 21
955.00000000000011
  0
LINE
  8
_0-1_LAY-1
  6
CONTINUOUS
 62
    1
 10
762.83270249999998
 20
955.69602699999996
 11
761.62714849999998
 21
955.00000000000011
  0
LINE
  8
_0-1_LAY-1
  6
CONTINUOUS
 62
    1
 10
747.82159550000006
 20
961.5
 11
747.82159550000006
 21
955.69602699999996
  0
LINE
  8
_0-1_LAY-1
  6
CONTINUOUS
 62
    1
 10
751.57437149999998
 20
961.5
 11
751.57437149999998
 21
955.69602699999996
  0
LINE
  8
_0-1_LAY-1
  6
CONTINUOUS
 62
    1
 10
762.83270249999998
 20
955.69602699999996
 11
762.83270249999998
 21
961.5
  0
LINE
  8
_0-1_LAY-1
  6
CONTINUOUS
 62
    1
 10
759.07992549999994
 20
961.5
 11
759.07992549999994
 21
955.69602699999996
  0
ARC
  8
_0-1_LAY-1
  6
CONTINUOUS
 62
    1
 10
761.62714849999998
 20
960.00900300000012
 40
5.0090029999999999
 50
239.43410499999999
 51
270
  0
ARC
  8
_0-1_LAY-1
  6
CONTINUOUS
 62
    1
 10
749.02714849999995
 20
960.00900300000012
 40
5.0090029999999999
 50
270
 51
300.56589500000001
  0
LINE
  8
_0-1_LAY-1
  6
CONTINUOUS
 62
    1
 10
599.75409049999996
 20
961.5
 11
598.57152150000002
 21
962.50000000000011
  0
LINE
  8
_0-1_LAY-1
  6
CONTINUOUS
 62
    1
 10
614.7651975
 20
961.5
 11
599.75409049999996
 21
961.5
  0
LINE
  8
_0-1_LAY-1
  6
CONTINUOUS
 62
    1
 10
615.99357850000001
 20
962.50000000000011
 11
614.7651975
 21
961.5
  0
LINE
  8
_0-1_LAY-1
  6
CONTINUOUS
 62
    1
 10
614.7651975
 20
955.69602699999996
 11
613.55964449999999
 21
955.00000000000011
  0
ARC
  8
_0-1_LAY-1
  6
CONTINUOUS
 62
    1
 10
607.25964450000004
 20
965.4649629999999
 40
10.464962999999999
 50
248.98551800000001
 51
291.01448199999999
  0
LINE
  8
_0-1_LAY-1
  6
CONTINUOUS
 62
    1
 10
613.55964449999999
 20
955.00000000000011
 11
600.95964449999997
 21
955.00000000000011
  0
LINE
  8
_0-1_LAY-1
  6
CONTINUOUS
 62
    1
 10
599.75409049999996
 20
955.69602699999996
 11
600.95964449999997
 21
955.00000000000011
  0
LINE
  8
_0-1_LAY-1
  6
CONTINUOUS
 62
    1
 10
614.7651975
 20
961.5
 11
614.7651975
 21
955.69602699999996
  0
LINE
  8
_0-1_LAY-1
  6
CONTINUOUS
 62
    1
 10
611.01242149999996
 20
961.5
 11
611.01242149999996
 21
955.69602699999996
  0
LINE
  8
_0-1_LAY-1
  6
CONTINUOUS
 62
    1
 10
599.75409049999996
 20
955.69602699999996
 11
599.75409049999996
 21
961.5
  0
LINE
  8
_0-1_LAY-1
  6
CONTINUOUS
 62
    1
 10
603.5068675
 20
961.5
 11
603.5068675
 21
955.69602699999996
  0
ARC
  8
_0-1_LAY-1
  6
CONTINUOUS
 62
    1
 10
600.95964449999997
 20
960.00900300000012
 40
5.0090029999999999
 50
270
 51
300.56589500000001
  0
ARC
  8
_0-1_LAY-1
  6
CONTINUOUS
 62
    1
 10
613.55964449999999
 20
960.00900300000012
 40
5.0090029999999999
 50
239.43410499999999
 51
270
  0
LINE
  8
_0-1_LAY-1
  6
CONTINUOUS
 62
    1
 10
719.46473449999996
 20
961.5
 11
720.64730350000002
 21
962.50000000000011
  0
LINE
  8
_0-1_LAY-1
  6
CONTINUOUS
 62
    1
 10
704.45362750000004
 20
961.5
 11
719.46473449999996
 21
961.5
  0
LINE
  8
_0-1_LAY-1
  6
CONTINUOUS
 62
    1
 10
703.22524649999991
 20
962.50000000000011
 11
704.45362750000004
 21
961.5
  0
LINE
  8
_0-1_LAY-1
  6
CONTINUOUS
 62
    1
 10
704.45362750000004
 20
955.69602699999996
 11
705.65918050000005
 21
955.00000000000011
  0
ARC
  8
_0-1_LAY-1
  6
CONTINUOUS
 62
    1
 10
711.9591805
 20
965.4649629999999
 40
10.464962999999999
 50
248.98551800000001
 51
291.01448199999999
  0
LINE
  8
_0-1_LAY-1
  6
CONTINUOUS
 62
    1
 10
705.65918050000005
 20
955.00000000000011
 11
718.25918049999996
 21
955.00000000000011
  0
LINE
  8
_0-1_LAY-1
  6
CONTINUOUS
 62
    1
 10
719.46473449999996
 20
955.69602699999996
 11
718.25918049999996
 21
955.00000000000011
  0
LINE
  8
_0-1_LAY-1
  6
CONTINUOUS
 62
    1
 10
704.45362750000004
 20
961.5
 11
704.45362750000004
 21
955.69602699999996
  0
LINE
  8
_0-1_LAY-1
  6
CONTINUOUS
 62
    1
 10
708.20640350000008
 20
961.5
 11
708.20640350000008
 21
955.69602699999996
  0
LINE
  8
_0-1_LAY-1
  6
CONTINUOUS
 62
    1
 10
719.46473449999996
 20
955.69602699999996
 11
719.46473449999996
 21
961.5
  0
LINE
  8
_0-1_LAY-1
  6
CONTINUOUS
 62
    1
 10
715.71195749999993
 20
961.5
 11
715.71195749999993
 21
955.69602699999996
  0
ARC
  8
_0-1_LAY-1
  6
CONTINUOUS
 62
    1
 10
718.25918049999996
 20
960.00900300000012
 40
5.0090029999999999
 50
239.43410499999999
 51
270
  0
ARC
  8
_0-1_LAY-1
  6
CONTINUOUS
 62
    1
 10
705.65918050000005
 20
960.00900300000012
 40
5.0090029999999999
 50
270
 51
300.56589500000001
  0
LINE
  8
_0-1_LAY-1
  6
CONTINUOUS
 62
    1
 10
658.13316550000002
 20
961.5
 11
659.31573449999996
 21
962.50000000000011
  0
LINE
  8
_0-1_LAY-1
  6
CONTINUOUS
 62
    1
 10
643.12205849999998
 20
961.5
 11
658.13316550000002
 21
961.5
  0
LINE
  8
_0-1_LAY-1
  6
CONTINUOUS
 62
    1
 10
641.89367850000008
 20
962.50000000000011
 11
643.12205849999998
 21
961.5
  0
LINE
  8
_0-1_LAY-1
  6
CONTINUOUS
 62
    1
 10
643.12205849999998
 20
955.69602699999996
 11
644.32761249999999
 21
955.00000000000011
  0
ARC
  8
_0-1_LAY-1
  6
CONTINUOUS
 62
    1
 10
650.62761249999994
 20
965.4649629999999
 40
10.464962999999999
 50
248.98551800000001
 51
291.01448199999999
  0
LINE
  8
_0-1_LAY-1
  6
CONTINUOUS
 62
    1
 10
644.32761249999999
 20
955.00000000000011
 11
656.92761250000001
 21
955.00000000000011
  0
LINE
  8
_0-1_LAY-1
  6
CONTINUOUS
 62
    1
 10
658.13316550000002
 20
955.69602699999996
 11
656.92761250000001
 21
955.00000000000011
  0
LINE
  8
_0-1_LAY-1
  6
CONTINUOUS
 62
    1
 10
643.12205849999998
 20
961.5
 11
643.12205849999998
 21
955.69602699999996
  0
LINE
  8
_0-1_LAY-1
  6
CONTINUOUS
 62
    1
 10
646.87483550000002
 20
961.5
 11
646.87483550000002
 21
955.69602699999996
  0
LINE
  8
_0-1_LAY-1
  6
CONTINUOUS
 62
    1
 10
658.13316550000002
 20
955.69602699999996
 11
658.13316550000002
 21
961.5
  0
LINE
  8
_0-1_LAY-1
  6
CONTINUOUS
 62
    1
 10
654.38038950000009
 20
961.5
 11
654.38038950000009
 21
955.69602699999996
  0
ARC
  8
_0-1_LAY-1
  6
CONTINUOUS
 62
    1
 10
656.92761250000001
 20
960.00900300000012
 40
5.0090029999999999
 50
239.43410499999999
 51
270
  0
ARC
  8
_0-1_LAY-1
  6
CONTINUOUS
 62
    1
 10
644.32761249999999
 20
960.00900300000012
 40
5.0090029999999999
 50
270
 51
300.56589500000001
  0
LINE
  8
_0-1_LAY-1
  6
EXLTYPE3
 62
    1
 10
726.09037850000004
 20
1028
 11
633.49635249999994
 21
1028
  0
ARC
  8
_0-1_LAY-1
  6
EXLTYPE2
 62
    1
 10
681.29339649999997
 20
144.90695199999999
 40
28
 50
256.89209299999999
 51
283.10790700000001
  0
LINE
  8
_0-1_LAY-1
  6
EXLTYPE2
 62
    1
 10
670.29339649999997
 20
116.90695199999998
 11
692.29339649999997
 21
116.90695199999998
  0
LINE
  8
_0-1_LAY-1
  6
EXLTYPE2
 62
    1
 10
674.94339650000006
 20
125.17740300000001
 11
674.94339650000006
 21
117.63650100000002
  0
LINE
  8
_0-1_LAY-1
  6
EXLTYPE2
 62
    1
 10
687.64339649999999
 20
125.17740300000001
 11
687.64339649999999
 21
117.63650100000002
  0
ARC
  8
_0-1_LAY-1
  6
EXLTYPE2
 62
    1
 10
671.76839649999999
 20
118.63337100000003
 40
7.2735810000000001
 50
64.118503000000004
 51
116.12040500000001
  0
LINE
  8
_0-1_LAY-1
  6
EXLTYPE2
 62
    1
 10
670.29339649999997
 20
125.90695199999998
 11
668.56857749999995
 21
125.17740300000001
  0
ARC
  8
_0-1_LAY-1
  6
EXLTYPE2
 62
    1
 10
681.29339649999997
 20
97.90695199999999
 40
28
 50
76.892092999999988
 51
103.107907
  0
LINE
  8
_0-1_LAY-1
  6
EXLTYPE2
 62
    1
 10
668.59339649999993
 20
117.64979700000005
 11
668.59339649999993
 21
125.18790100000002
  0
LINE
  8
_0-1_LAY-1
  6
EXLTYPE2
 62
    1
 10
670.29339649999997
 20
125.90695199999998
 11
692.29339649999997
 21
125.90695199999998
  0
LINE
  8
_0-1_LAY-1
  6
EXLTYPE2
 62
    1
 10
692.29339649999997
 20
116.90695199999998
 11
670.29339649999997
 21
116.90695199999998
  0
ARC
  8
_0-1_LAY-1
  6
EXLTYPE2
 62
    1
 10
690.81839649999995
 20
118.63337100000003
 40
7.2735810000000001
 50
64.118503000000004
 51
115.88149700000001
  0
LINE
  8
_0-1_LAY-1
  6
EXLTYPE2
 62
    1
 10
692.29339649999997
 20
125.90695199999998
 11
693.99339650000002
 21
125.18790100000002
  0
LINE
  8
_0-1_LAY-1
  6
EXLTYPE2
 62
    1
 10
693.99339650000002
 20
125.18790100000002
 11
693.99339650000002
 21
117.62600299999997
  0
LINE
  8
_0-1_LAY-1
  6
EXLTYPE2
 62
    1
 10
693.32189749999998
 20
117.35136999999997
 11
693.32189749999998
 21
117.34197800000003
  0
LINE
  8
_0-1_LAY-1
  6
EXLTYPE2
 62
    1
 10
693.32189749999998
 20
117.34197800000003
 11
693.32189749999998
 21
117.35136999999997
  0
LINE
  8
_0-1_LAY-1
  6
EXLTYPE2
 62
    1
 10
692.29339649999997
 20
116.90695199999998
 11
693.99339650000002
 21
117.62600299999997
  0
ARC
  8
_0-1_LAY-1
  6
EXLTYPE2
 62
    1
 10
690.81839649999995
 20
124.18053299999997
 40
7.2735810000000001
 50
244.11850299999998
 51
295.88149700000002
  0
LINE
  8
_0-1_LAY-1
  6
EXLTYPE2
 62
    1
 10
669.26489549999997
 20
117.35136999999997
 11
669.26489549999997
 21
117.34197800000003
  0
LINE
  8
_0-1_LAY-1
  6
EXLTYPE2
 62
    1
 10
669.26489549999997
 20
117.34197800000003
 11
669.26489549999997
 21
117.35136999999997
  0
ARC
  8
_0-1_LAY-1
  6
EXLTYPE2
 62
    1
 10
671.76839649999999
 20
124.18053299999997
 40
7.2735810000000001
 50
247.07303000000002
 51
295.88149700000008
  0
LINE
  8
_0-1_LAY-1
  6
EXLTYPE2
 62
    1
 10
670.29339649999997
 20
116.90695199999998
 11
668.59339649999993
 21
117.62600299999997
  0
LINE
  8
_0-1_LAY-1
  6
EXLTYPE2
 62
    1
 10
669.26489549999997
 20
117.34197800000003
 11
669.26489549999997
 21
117.35136999999997
  0
LINE
  8
_0-1_LAY-1
  6
EXLTYPE2
 62
    1
 10
674.29339649999997
 20
116.90695199999998
 11
674.29339649999997
 21
92.081235999999976
  0
LINE
  8
_0-1_LAY-1
  6
EXLTYPE2
 62
    1
 10
688.29339649999997
 20
92.02226499999999
 11
688.29339649999997
 21
116.90695199999998
  0
ARC
  8
_0-1_LAY-1
  6
EXLTYPE2
 62
    1
 10
691.79339649999997
 20
84.579290000000029
 40
7.4192009999999993
 50
90
 51
124.003561
  0
ARC
  8
_0-1_LAY-1
  6
EXLTYPE2
 62
    1
 10
670.79339649999997
 20
84.579290000000029
 40
7.4192009999999993
 50
55.996439000000009
 51
90
  0
LINE
  8
_0-1_LAY-1
  6
EXLTYPE2
 62
    1
 10
670.79339649999997
 20
92.000000000000014
 11
668.59339649999993
 21
90.729828999999981
  0
LINE
  8
_0-1_LAY-1
  6
EXLTYPE2
 62
    1
 10
687.6442495
 20
90.729828999999981
 11
687.6442495
 21
81
  0
LINE
  8
_0-1_LAY-1
  6
EXLTYPE2
 62
    1
 10
691.79339649999997
 20
92.000000000000014
 11
693.99339650000002
 21
90.729828999999981
  0
ARC
  8
_0-1_LAY-1
  6
EXLTYPE2
 62
    1
 10
681.29339649999997
 20
75.487782000000038
 40
16.512218000000001
 50
67.380134999999996
 51
112.61986499999999
  0
LINE
  8
_0-1_LAY-1
  6
EXLTYPE2
 62
    1
 10
674.94254350000006
 20
90.729828999999981
 11
674.94254350000006
 21
81
  0
LINE
  8
_0-1_LAY-1
  6
EXLTYPE2
 62
    1
 10
693.99339650000002
 20
90.729828999999981
 11
693.99339650000002
 21
81
  0
LINE
  8
_0-1_LAY-1
  6
EXLTYPE2
 62
    1
 10
670.79339649999997
 20
92.000000000000014
 11
691.79339649999997
 21
92.000000000000014
  0
LINE
  8
_0-1_LAY-1
  6
EXLTYPE2
 62
    1
 10
668.59339649999993
 20
81
 11
668.59339649999993
 21
90.729828999999981
  0
LINE
  8
_0-1_LAY-1
  6
EXLTYPE2
 62
    1
 10
659.33627550000006
 20
70.347907999999961
 11
655.04339649999997
 21
69.590957999999986
  0
ARC
  8
_0-1_LAY-1
  6
EXLTYPE2
 62
    1
 10
658.98897850000003
 20
72.317523999999992
 40
2
 50
280
 51
358
  0
LINE
  8
_0-1_LAY-1
  6
EXLTYPE2
 62
    1
 10
661.25969450000002
 20
80.034898999999982
 11
660.98776049999992
 21
72.247725000000017
  0
LINE
  8
_0-1_LAY-1
  6
EXLTYPE2
 62
    1
 10
681.29339649999997
 20
81
 11
700.32771149999996
 21
81
  0
ARC
  8
_0-1_LAY-1
  6
EXLTYPE2
 62
    1
 10
700.32770749999997
 20
80.000000000000014
 40
1
 50
2
 51
90
  0
LINE
  8
_0-1_LAY-1
  6
EXLTYPE2
 62
    1
 10
681.29339649999997
 20
81
 11
662.25908149999998
 21
81
  0
ARC
  8
_0-1_LAY-1
  6
EXLTYPE2
 62
    1
 10
662.25908549999997
 20
80.000000000000014
 40
1
 50
90
 51
178
  0
ARC
  8
_0-1_LAY-1
  6
EXLTYPE2
 62
    1
 10
703.59781449999991
 20
72.317523999999992
 40
2
 50
182
 51
260
  0
LINE
  8
_0-1_LAY-1
  6
EXLTYPE2
 62
    1
 10
701.32709850000003
 20
80.034898999999982
 11
701.59903250000002
 21
72.247725000000017
  0
LINE
  8
_0-1_LAY-1
  6
EXLTYPE2
 62
    1
 10
703.2505175
 20
70.347907999999961
 11
707.54339649999997
 21
69.590957999999986
  0
LINE
  8
_0-1_LAY-1
  6
CONTINUOUS
 62
    3
 10
707.54339649999997
 20
69.590957999999986
 11
655.04339649999997
 21
69.590957999999986
  0
LINE
  8
_0-1_LAY-1
  6
CONTINUOUS
 62
    1
 10
762.83270249999998
 20
-69.499999999999972
 11
764.01527150000004
 21
-70.5
  0
LINE
  8
_0-1_LAY-1
  6
CONTINUOUS
 62
    1
 10
747.82159550000006
 20
-69.499999999999972
 11
762.83270249999998
 21
-69.499999999999972
  0
LINE
  8
_0-1_LAY-1
  6
CONTINUOUS
 62
    1
 10
746.59321450000004
 20
-70.5
 11
747.82159550000006
 21
-69.499999999999972
  0
LINE
  8
_0-1_LAY-1
  6
CONTINUOUS
 62
    1
 10
747.82159550000006
 20
-63.696027000000015
 11
749.02714849999995
 21
-63
  0
ARC
  8
_0-1_LAY-1
  6
CONTINUOUS
 62
    1
 10
755.32714850000002
 20
-73.46496300000004
 40
10.464962999999999
 50
68.985517999999999
 51
111.014482
  0
LINE
  8
_0-1_LAY-1
  6
CONTINUOUS
 62
    1
 10
749.02714849999995
 20
-63
 11
761.62714849999998
 21
-63
  0
LINE
  8
_0-1_LAY-1
  6
CONTINUOUS
 62
    1
 10
762.83270249999998
 20
-63.696027000000015
 11
761.62714849999998
 21
-63
  0
LINE
  8
_0-1_LAY-1
  6
CONTINUOUS
 62
    1
 10
747.82159550000006
 20
-69.499999999999972
 11
747.82159550000006
 21
-63.696027000000015
  0
LINE
  8
_0-1_LAY-1
  6
CONTINUOUS
 62
    1
 10
751.57437149999998
 20
-69.499999999999972
 11
751.57437149999998
 21
-63.696027000000015
  0
LINE
  8
_0-1_LAY-1
  6
CONTINUOUS
 62
    1
 10
762.83270249999998
 20
-63.696027000000015
 11
762.83270249999998
 21
-69.499999999999972
  0
LINE
  8
_0-1_LAY-1
  6
CONTINUOUS
 62
    1
 10
759.07992549999994
 20
-69.499999999999972
 11
759.07992549999994
 21
-63.696027000000015
  0
ARC
  8
_0-1_LAY-1
  6
CONTINUOUS
 62
    1
 10
761.62714849999998
 20
-68.009003000000007
 40
5.0090029999999999
 50
90
 51
120.56589500000001
  0
ARC
  8
_0-1_LAY-1
  6
CONTINUOUS
 62
    1
 10
749.02714849999995
 20
-68.009003000000007
 40
5.0090029999999999
 50
59.434105000000002
 51
90
  0
LINE
  8
_0-1_LAY-1
  6
CONTINUOUS
 62
    1
 10
599.75409049999996
 20
-69.499999999999972
 11
598.57152150000002
 21
-70.5
  0
LINE
  8
_0-1_LAY-1
  6
CONTINUOUS
 62
    1
 10
614.7651975
 20
-69.499999999999972
 11
599.75409049999996
 21
-69.499999999999972
  0
LINE
  8
_0-1_LAY-1
  6
CONTINUOUS
 62
    1
 10
615.99357850000001
 20
-70.5
 11
614.7651975
 21
-69.499999999999972
  0
LINE
  8
_0-1_LAY-1
  6
CONTINUOUS
 62
    1
 10
614.7651975
 20
-63.696027000000015
 11
613.55964449999999
 21
-63
  0
ARC
  8
_0-1_LAY-1
  6
CONTINUOUS
 62
    1
 10
607.25964450000004
 20
-73.46496300000004
 40
10.464962999999999
 50
68.985517999999999
 51
111.014482
  0
LINE
  8
_0-1_LAY-1
  6
CONTINUOUS
 62
    1
 10
613.55964449999999
 20
-63
 11
600.95964449999997
 21
-63
  0
LINE
  8
_0-1_LAY-1
  6
CONTINUOUS
 62
    1
 10
599.75409049999996
 20
-63.696027000000015
 11
600.95964449999997
 21
-63
  0
LINE
  8
_0-1_LAY-1
  6
CONTINUOUS
 62
    1
 10
614.7651975
 20
-69.499999999999972
 11
614.7651975
 21
-63.696027000000015
  0
LINE
  8
_0-1_LAY-1
  6
CONTINUOUS
 62
    1
 10
611.01242149999996
 20
-69.499999999999972
 11
611.01242149999996
 21
-63.696027000000015
  0
LINE
  8
_0-1_LAY-1
  6
CONTINUOUS
 62
    1
 10
599.75409049999996
 20
-63.696027000000015
 11
599.75409049999996
 21
-69.499999999999972
  0
LINE
  8
_0-1_LAY-1
  6
CONTINUOUS
 62
    1
 10
603.5068675
 20
-69.499999999999972
 11
603.5068675
 21
-63.696027000000015
  0
ARC
  8
_0-1_LAY-1
  6
CONTINUOUS
 62
    1
 10
600.95964449999997
 20
-68.009003000000007
 40
5.0090029999999999
 50
59.434105000000002
 51
90
  0
ARC
  8
_0-1_LAY-1
  6
CONTINUOUS
 62
    1
 10
613.55964449999999
 20
-68.009003000000007
 40
5.0090029999999999
 50
90
 51
120.56589500000001
  0
LINE
  8
_0-1_LAY-1
  6
CONTINUOUS
 62
    1
 10
719.46473449999996
 20
-69.499999999999972
 11
720.64730350000002
 21
-70.5
  0
LINE
  8
_0-1_LAY-1
  6
CONTINUOUS
 62
    1
 10
704.45362750000004
 20
-69.499999999999972
 11
719.46473449999996
 21
-69.499999999999972
  0
LINE
  8
_0-1_LAY-1
  6
CONTINUOUS
 62
    1
 10
703.22524649999991
 20
-70.5
 11
704.45362750000004
 21
-69.499999999999972
  0
LINE
  8
_0-1_LAY-1
  6
CONTINUOUS
 62
    1
 10
704.45362750000004
 20
-63.696027000000015
 11
705.65918050000005
 21
-63
  0
ARC
  8
_0-1_LAY-1
  6
CONTINUOUS
 62
    1
 10
711.9591805
 20
-73.46496300000004
 40
10.464962999999999
 50
68.985517999999999
 51
111.014482
  0
LINE
  8
_0-1_LAY-1
  6
CONTINUOUS
 62
    1
 10
705.65918050000005
 20
-63
 11
718.25918049999996
 21
-63
  0
LINE
  8
_0-1_LAY-1
  6
CONTINUOUS
 62
    1
 10
719.46473449999996
 20
-63.696027000000015
 11
718.25918049999996
 21
-63
  0
LINE
  8
_0-1_LAY-1
  6
CONTINUOUS
 62
    1
 10
704.45362750000004
 20
-69.499999999999972
 11
704.45362750000004
 21
-63.696027000000015
  0
LINE
  8
_0-1_LAY-1
  6
CONTINUOUS
 62
    1
 10
708.20640350000008
 20
-69.499999999999972
 11
708.20640350000008
 21
-63.696027000000015
  0
LINE
  8
_0-1_LAY-1
  6
CONTINUOUS
 62
    1
 10
719.46473449999996
 20
-63.696027000000015
 11
719.46473449999996
 21
-69.499999999999972
  0
LINE
  8
_0-1_LAY-1
  6
CONTINUOUS
 62
    1
 10
715.71195749999993
 20
-69.499999999999972
 11
715.71195749999993
 21
-63.696027000000015
  0
ARC
  8
_0-1_LAY-1
  6
CONTINUOUS
 62
    1
 10
718.25918049999996
 20
-68.009003000000007
 40
5.0090029999999999
 50
90
 51
120.56589500000001
  0
ARC
  8
_0-1_LAY-1
  6
CONTINUOUS
 62
    1
 10
705.65918050000005
 20
-68.009003000000007
 40
5.0090029999999999
 50
59.434105000000002
 51
90
  0
LINE
  8
_0-1_LAY-1
  6
CONTINUOUS
 62
    1
 10
658.13316550000002
 20
-69.499999999999972
 11
659.31573449999996
 21
-70.5
  0
LINE
  8
_0-1_LAY-1
  6
CONTINUOUS
 62
    1
 10
643.12205849999998
 20
-69.499999999999972
 11
658.13316550000002
 21
-69.499999999999972
  0
LINE
  8
_0-1_LAY-1
  6
CONTINUOUS
 62
    1
 10
641.89367850000008
 20
-70.5
 11
643.12205849999998
 21
-69.499999999999972
  0
LINE
  8
_0-1_LAY-1
  6
CONTINUOUS
 62
    1
 10
643.12205849999998
 20
-63.696027000000015
 11
644.32761249999999
 21
-63
  0
ARC
  8
_0-1_LAY-1
  6
CONTINUOUS
 62
    1
 10
650.62761249999994
 20
-73.46496300000004
 40
10.464962999999999
 50
68.985517999999999
 51
111.014482
  0
LINE
  8
_0-1_LAY-1
  6
CONTINUOUS
 62
    1
 10
644.32761249999999
 20
-63
 11
656.92761250000001
 21
-63
  0
LINE
  8
_0-1_LAY-1
  6
CONTINUOUS
 62
    1
 10
658.13316550000002
 20
-63.696027000000015
 11
656.92761250000001
 21
-63
  0
LINE
  8
_0-1_LAY-1
  6
CONTINUOUS
 62
    1
 10
643.12205849999998
 20
-69.499999999999972
 11
643.12205849999998
 21
-63.696027000000015
  0
LINE
  8
_0-1_LAY-1
  6
CONTINUOUS
 62
    1
 10
646.87483550000002
 20
-69.499999999999972
 11
646.87483550000002
 21
-63.696027000000015
  0
LINE
  8
_0-1_LAY-1
  6
CONTINUOUS
 62
    1
 10
658.13316550000002
 20
-63.696027000000015
 11
658.13316550000002
 21
-69.499999999999972
  0
LINE
  8
_0-1_LAY-1
  6
CONTINUOUS
 62
    1
 10
654.38038950000009
 20
-69.499999999999972
 11
654.38038950000009
 21
-63.696027000000015
  0
ARC
  8
_0-1_LAY-1
  6
CONTINUOUS
 62
    1
 10
656.92761250000001
 20
-68.009003000000007
 40
5.0090029999999999
 50
90
 51
120.56589500000001
  0
ARC
  8
_0-1_LAY-1
  6
CONTINUOUS
 62
    1
 10
644.32761249999999
 20
-68.009003000000007
 40
5.0090029999999999
 50
59.434105000000002
 51
90
  0
LINE
  8
_0-1_LAY-1
  6
EXLTYPE3
 62
    1
 10
726.09037850000004
 20
-136.00000000000003
 11
633.49635249999994
 21
-136.00000000000003
  0
LINE
  8
_0-1_LAY-1
  6
EXLTYPE4
 62
    1
 10
699.29339649999997
 20
1028
 11
690.29339649999997
 21
1043.5884569999998
  0
LINE
  8
_0-1_LAY-1
  6
EXLTYPE4
 62
    1
 10
690.29339649999997
 20
1043.5884569999998
 11
672.29339649999997
 21
1043.5884569999998
  0
LINE
  8
_0-1_LAY-1
  6
EXLTYPE4
 62
    1
 10
672.29339649999997
 20
1043.5884569999998
 11
663.29339649999997
 21
1028
  0
LINE
  8
_0-1_LAY-1
  6
EXLTYPE4
 62
    1
 10
663.29339649999997
 20
1028
 11
672.29339649999997
 21
1012.4115429999999
  0
LINE
  8
_0-1_LAY-1
  6
EXLTYPE4
 62
    1
 10
672.29339649999997
 20
1012.4115429999999
 11
690.29339649999997
 21
1012.4115429999999
  0
LINE
  8
_0-1_LAY-1
  6
EXLTYPE4
 62
    1
 10
690.29339649999997
 20
1012.4115429999999
 11
699.29339649999997
 21
1028
  0
CIRCLE
  8
_0-1_LAY-1
  6
EXLTYPE4
 62
    1
 10
681.29339649999997
 20
1028
 40
13.48518
  0
LINE
  8
_0-1_LAY-1
  6
EXLTYPE4
 62
    1
 10
699.29339649999997
 20
1080
 11
699.29339649999997
 21
1070
  0
LINE
  8
_0-1_LAY-1
  6
EXLTYPE4
 62
    1
 10
663.29339649999997
 20
1080
 11
663.29339649999997
 21
1070
  0
LINE
  8
_0-1_LAY-1
  6
EXLTYPE4
 62
    1
 10
89.2933965
 20
464
 11
99.293396499999943
 21
464
  0
LINE
  8
_0-1_LAY-1
  6
EXLTYPE4
 62
    1
 10
89.2933965
 20
428
 11
99.293396499999943
 21
428
  0
LINE
  8
_0-1_LAY-1
  6
EXLTYPE4
 62
    1
 10
1273.2933965
 20
464
 11
1263.2933964999997
 21
464
  0
LINE
  8
_0-1_LAY-1
  6
EXLTYPE4
 62
    1
 10
1273.2933965
 20
428
 11
1263.2933964999997
 21
428
  0
LINE
  8
_0-1_LAY-1
  6
EXLTYPE4
 62
    1
 10
699.29339649999997
 20
-187.99999999999997
 11
699.29339649999997
 21
-178.00000000000003
  0
LINE
  8
_0-1_LAY-1
  6
EXLTYPE4
 62
    1
 10
663.29339649999997
 20
-187.99999999999997
 11
663.29339649999997
 21
-178.00000000000003
  0
LINE
  8
_0-1_LAY-1
  6
EXLTYPE3
 62
    1
 10
681.29339649999997
 20
153.40695199999999
 11
681.29339649999997
 21
-208.00000000000003
  0
LINE
  8
_0-1_LAY-1
  6
EXLTYPE3
 62
    1
 10
681.29339649999997
 20
738.59304799999995
 11
681.29339649999997
 21
1099
  0
LINE
  8
_0-1_LAY-1
  6
CONTINUOUS
 62
    1
 10
614.7651975
 20
989.37543700000015
 11
614.7651975
 21
994.17941000000008
  0
LINE
  8
_0-1_LAY-1
  6
CONTINUOUS
 62
    1
 10
613.55964449999999
 20
994.87543699999992
 11
600.95964449999997
 21
994.87543699999992
  0
LINE
  8
_0-1_LAY-1
  6
CONTINUOUS
 62
    1
 10
599.75409049999996
 20
994.17941000000008
 11
599.75409049999996
 21
989.37543700000015
  0
LINE
  8
_0-1_LAY-1
  6
CONTINUOUS
 62
    1
 10
614.7651975
 20
994.17941000000008
 11
613.55964449999999
 21
994.87543699999992
  0
ARC
  8
_0-1_LAY-1
  6
CONTINUOUS
 62
    1
 10
607.25964450000004
 20
984.41047400000014
 40
10.464962999999999
 50
68.985517999999999
 51
111.014482
  0
LINE
  8
_0-1_LAY-1
  6
CONTINUOUS
 62
    1
 10
599.75409049999996
 20
994.17941000000008
 11
600.95964449999997
 21
994.87543699999992
  0
ARC
  8
_0-1_LAY-1
  6
CONTINUOUS
 62
    1
 10
613.55964449999999
 20
989.86643399999991
 40
5.0090029999999999
 50
90
 51
120.56589500000001
  0
ARC
  8
_0-1_LAY-1
  6
CONTINUOUS
 62
    1
 10
600.95964449999997
 20
989.86643399999991
 40
5.0090029999999999
 50
59.434105000000002
 51
90
  0
LINE
  8
_0-1_LAY-1
  6
CONTINUOUS
 62
    1
 10
611.01242149999996
 20
989.37543700000015
 11
611.01242149999996
 21
994.17941000000008
  0
LINE
  8
_0-1_LAY-1
  6
CONTINUOUS
 62
    1
 10
603.5068675
 20
989.37543700000015
 11
603.5068675
 21
994.17941000000008
  0
LINE
  8
_0-1_LAY-1
  6
CONTINUOUS
 62
    1
 10
643.12205849999998
 20
989.37543700000015
 11
643.12205849999998
 21
994.17941000000008
  0
LINE
  8
_0-1_LAY-1
  6
CONTINUOUS
 62
    1
 10
644.32761249999999
 20
994.87543699999992
 11
656.92761250000001
 21
994.87543699999992
  0
LINE
  8
_0-1_LAY-1
  6
CONTINUOUS
 62
    1
 10
658.13316550000002
 20
994.17941000000008
 11
658.13316550000002
 21
989.37543700000015
  0
LINE
  8
_0-1_LAY-1
  6
CONTINUOUS
 62
    1
 10
643.12205849999998
 20
994.17941000000008
 11
644.32761249999999
 21
994.87543699999992
  0
ARC
  8
_0-1_LAY-1
  6
CONTINUOUS
 62
    1
 10
650.62761249999994
 20
984.41047400000014
 40
10.464962999999999
 50
68.985517999999999
 51
111.014482
  0
LINE
  8
_0-1_LAY-1
  6
CONTINUOUS
 62
    1
 10
658.13316550000002
 20
994.17941000000008
 11
656.92761250000001
 21
994.87543699999992
  0
ARC
  8
_0-1_LAY-1
  6
CONTINUOUS
 62
    1
 10
644.32761249999999
 20
989.86643399999991
 40
5.0090029999999999
 50
59.434105000000002
 51
90
  0
ARC
  8
_0-1_LAY-1
  6
CONTINUOUS
 62
    1
 10
656.92761250000001
 20
989.86643399999991
 40
5.0090029999999999
 50
90
 51
120.56589500000001
  0
LINE
  8
_0-1_LAY-1
  6
CONTINUOUS
 62
    1
 10
646.87483550000002
 20
989.37543700000015
 11
646.87483550000002
 21
994.17941000000008
  0
LINE
  8
_0-1_LAY-1
  6
CONTINUOUS
 62
    1
 10
654.38038950000009
 20
989.37543700000015
 11
654.38038950000009
 21
994.17941000000008
  0
LINE
  8
_0-1_LAY-1
  6
CONTINUOUS
 62
    1
 10
704.45362750000004
 20
989.37543700000015
 11
704.45362750000004
 21
994.17941000000008
  0
LINE
  8
_0-1_LAY-1
  6
CONTINUOUS
 62
    1
 10
705.65918050000005
 20
994.87543699999992
 11
718.25918049999996
 21
994.87543699999992
  0
LINE
  8
_0-1_LAY-1
  6
CONTINUOUS
 62
    1
 10
719.46473449999996
 20
994.17941000000008
 11
719.46473449999996
 21
989.37543700000015
  0
LINE
  8
_0-1_LAY-1
  6
CONTINUOUS
 62
    1
 10
704.45362750000004
 20
994.17941000000008
 11
705.65918050000005
 21
994.87543699999992
  0
ARC
  8
_0-1_LAY-1
  6
CONTINUOUS
 62
    1
 10
711.9591805
 20
984.41047400000014
 40
10.464962999999999
 50
68.985517999999999
 51
111.014482
  0
LINE
  8
_0-1_LAY-1
  6
CONTINUOUS
 62
    1
 10
719.46473449999996
 20
994.17941000000008
 11
718.25918049999996
 21
994.87543699999992
  0
ARC
  8
_0-1_LAY-1
  6
CONTINUOUS
 62
    1
 10
705.65918050000005
 20
989.86643399999991
 40
5.0090029999999999
 50
59.434105000000002
 51
90
  0
ARC
  8
_0-1_LAY-1
  6
CONTINUOUS
 62
    1
 10
718.25918049999996
 20
989.86643399999991
 40
5.0090029999999999
 50
90
 51
120.56589500000001
  0
LINE
  8
_0-1_LAY-1
  6
CONTINUOUS
 62
    1
 10
708.20640350000008
 20
989.37543700000015
 11
708.20640350000008
 21
994.17941000000008
  0
LINE
  8
_0-1_LAY-1
  6
CONTINUOUS
 62
    1
 10
715.71195749999993
 20
989.37543700000015
 11
715.71195749999993
 21
994.17941000000008
  0
LINE
  8
_0-1_LAY-1
  6
CONTINUOUS
 62
    1
 10
747.82159550000006
 20
989.37543700000015
 11
747.82159550000006
 21
994.17941000000008
  0
LINE
  8
_0-1_LAY-1
  6
CONTINUOUS
 62
    1
 10
749.02714849999995
 20
994.87543699999992
 11
761.62714849999998
 21
994.87543699999992
  0
LINE
  8
_0-1_LAY-1
  6
CONTINUOUS
 62
    1
 10
762.83270249999998
 20
994.17941000000008
 11
762.83270249999998
 21
989.37543700000015
  0
LINE
  8
_0-1_LAY-1
  6
CONTINUOUS
 62
    1
 10
747.82159550000006
 20
994.17941000000008
 11
749.02714849999995
 21
994.87543699999992
  0
ARC
  8
_0-1_LAY-1
  6
CONTINUOUS
 62
    1
 10
755.32714850000002
 20
984.41047400000014
 40
10.464962999999999
 50
68.985517999999999
 51
111.014482
  0
LINE
  8
_0-1_LAY-1
  6
CONTINUOUS
 62
    1
 10
762.83270249999998
 20
994.17941000000008
 11
761.62714849999998
 21
994.87543699999992
  0
ARC
  8
_0-1_LAY-1
  6
CONTINUOUS
 62
    1
 10
749.02714849999995
 20
989.86643399999991
 40
5.0090029999999999
 50
59.434105000000002
 51
90
  0
ARC
  8
_0-1_LAY-1
  6
CONTINUOUS
 62
    1
 10
761.62714849999998
 20
989.86643399999991
 40
5.0090029999999999
 50
90
 51
120.56589500000001
  0
LINE
  8
_0-1_LAY-1
  6
CONTINUOUS
 62
    1
 10
751.57437149999998
 20
989.37543700000015
 11
751.57437149999998
 21
994.17941000000008
  0
LINE
  8
_0-1_LAY-1
  6
CONTINUOUS
 62
    1
 10
759.07992549999994
 20
989.37543700000015
 11
759.07992549999994
 21
994.17941000000008
  0
LINE
  8
_0-1_LAY-1
  6
CONTINUOUS
 62
    1
 10
614.7651975
 20
-97.375436999999948
 11
614.7651975
 21
-102.17940999999996
  0
LINE
  8
_0-1_LAY-1
  6
CONTINUOUS
 62
    1
 10
613.55964449999999
 20
-102.87543699999989
 11
600.95964449999997
 21
-102.87543699999989
  0
LINE
  8
_0-1_LAY-1
  6
CONTINUOUS
 62
    1
 10
599.75409049999996
 20
-102.17940999999996
 11
599.75409049999996
 21
-97.375436999999948
  0
LINE
  8
_0-1_LAY-1
  6
CONTINUOUS
 62
    1
 10
614.7651975
 20
-102.17940999999996
 11
613.55964449999999
 21
-102.87543699999989
  0
ARC
  8
_0-1_LAY-1
  6
CONTINUOUS
 62
    1
 10
607.25964450000004
 20
-92.410474000000022
 40
10.464962999999999
 50
248.98551800000001
 51
291.01448199999999
  0
LINE
  8
_0-1_LAY-1
  6
CONTINUOUS
 62
    1
 10
599.75409049999996
 20
-102.17940999999996
 11
600.95964449999997
 21
-102.87543699999989
  0
ARC
  8
_0-1_LAY-1
  6
CONTINUOUS
 62
    1
 10
613.55964449999999
 20
-97.866434000000055
 40
5.0090029999999999
 50
239.43410499999999
 51
270
  0
ARC
  8
_0-1_LAY-1
  6
CONTINUOUS
 62
    1
 10
600.95964449999997
 20
-97.866434000000055
 40
5.0090029999999999
 50
270
 51
300.56589500000001
  0
LINE
  8
_0-1_LAY-1
  6
CONTINUOUS
 62
    1
 10
611.01242149999996
 20
-97.375436999999948
 11
611.01242149999996
 21
-102.17940999999996
  0
LINE
  8
_0-1_LAY-1
  6
CONTINUOUS
 62
    1
 10
603.5068675
 20
-97.375436999999948
 11
603.5068675
 21
-102.17940999999996
  0
LINE
  8
_0-1_LAY-1
  6
CONTINUOUS
 62
    1
 10
643.12205849999998
 20
-97.375436999999948
 11
643.12205849999998
 21
-102.17940999999996
  0
LINE
  8
_0-1_LAY-1
  6
CONTINUOUS
 62
    1
 10
644.32761249999999
 20
-102.87543699999989
 11
656.92761250000001
 21
-102.87543699999989
  0
LINE
  8
_0-1_LAY-1
  6
CONTINUOUS
 62
    1
 10
658.13316550000002
 20
-102.17940999999996
 11
658.13316550000002
 21
-97.375436999999948
  0
LINE
  8
_0-1_LAY-1
  6
CONTINUOUS
 62
    1
 10
643.12205849999998
 20
-102.17940999999996
 11
644.32761249999999
 21
-102.87543699999989
  0
ARC
  8
_0-1_LAY-1
  6
CONTINUOUS
 62
    1
 10
650.62761249999994
 20
-92.410474000000022
 40
10.464962999999999
 50
248.98551800000001
 51
291.01448199999999
  0
LINE
  8
_0-1_LAY-1
  6
CONTINUOUS
 62
    1
 10
658.13316550000002
 20
-102.17940999999996
 11
656.92761250000001
 21
-102.87543699999989
  0
ARC
  8
_0-1_LAY-1
  6
CONTINUOUS
 62
    1
 10
644.32761249999999
 20
-97.866434000000055
 40
5.0090029999999999
 50
270
 51
300.56589500000001
  0
ARC
  8
_0-1_LAY-1
  6
CONTINUOUS
 62
    1
 10
656.92761250000001
 20
-97.866434000000055
 40
5.0090029999999999
 50
239.43410499999999
 51
270
  0
LINE
  8
_0-1_LAY-1
  6
CONTINUOUS
 62
    1
 10
646.87483550000002
 20
-97.375436999999948
 11
646.87483550000002
 21
-102.17940999999996
  0
LINE
  8
_0-1_LAY-1
  6
CONTINUOUS
 62
    1
 10
654.38038950000009
 20
-97.375436999999948
 11
654.38038950000009
 21
-102.17940999999996
  0
LINE
  8
_0-1_LAY-1
  6
CONTINUOUS
 62
    1
 10
704.45362750000004
 20
-97.375436999999948
 11
704.45362750000004
 21
-102.17940999999996
  0
LINE
  8
_0-1_LAY-1
  6
CONTINUOUS
 62
    1
 10
705.65918050000005
 20
-102.87543699999989
 11
718.25918049999996
 21
-102.87543699999989
  0
LINE
  8
_0-1_LAY-1
  6
CONTINUOUS
 62
    1
 10
719.46473449999996
 20
-102.17940999999996
 11
719.46473449999996
 21
-97.375436999999948
  0
LINE
  8
_0-1_LAY-1
  6
CONTINUOUS
 62
    1
 10
704.45362750000004
 20
-102.17940999999996
 11
705.65918050000005
 21
-102.87543699999989
  0
ARC
  8
_0-1_LAY-1
  6
CONTINUOUS
 62
    1
 10
711.9591805
 20
-92.410474000000022
 40
10.464962999999999
 50
248.98551800000001
 51
291.01448199999999
  0
LINE
  8
_0-1_LAY-1
  6
CONTINUOUS
 62
    1
 10
719.46473449999996
 20
-102.17940999999996
 11
718.25918049999996
 21
-102.87543699999989
  0
ARC
  8
_0-1_LAY-1
  6
CONTINUOUS
 62
    1
 10
705.65918050000005
 20
-97.866434000000055
 40
5.0090029999999999
 50
270
 51
300.56589500000001
  0
ARC
  8
_0-1_LAY-1
  6
CONTINUOUS
 62
    1
 10
718.25918049999996
 20
-97.866434000000055
 40
5.0090029999999999
 50
239.43410499999999
 51
270
  0
LINE
  8
_0-1_LAY-1
  6
CONTINUOUS
 62
    1
 10
708.20640350000008
 20
-97.375436999999948
 11
708.20640350000008
 21
-102.17940999999996
  0
LINE
  8
_0-1_LAY-1
  6
CONTINUOUS
 62
    1
 10
715.71195749999993
 20
-97.375436999999948
 11
715.71195749999993
 21
-102.17940999999996
  0
LINE
  8
_0-1_LAY-1
  6
CONTINUOUS
 62
    1
 10
747.82159550000006
 20
-97.375436999999948
 11
747.82159550000006
 21
-102.17940999999996
  0
LINE
  8
_0-1_LAY-1
  6
CONTINUOUS
 62
    1
 10
749.02714849999995
 20
-102.87543699999989
 11
761.62714849999998
 21
-102.87543699999989
  0
LINE
  8
_0-1_LAY-1
  6
CONTINUOUS
 62
    1
 10
762.83270249999998
 20
-102.17940999999996
 11
762.83270249999998
 21
-97.375436999999948
  0
LINE
  8
_0-1_LAY-1
  6
CONTINUOUS
 62
    1
 10
747.82159550000006
 20
-102.17940999999996
 11
749.02714849999995
 21
-102.87543699999989
  0
ARC
  8
_0-1_LAY-1
  6
CONTINUOUS
 62
    1
 10
755.32714850000002
 20
-92.410474000000022
 40
10.464962999999999
 50
248.98551800000001
 51
291.01448199999999
  0
LINE
  8
_0-1_LAY-1
  6
CONTINUOUS
 62
    1
 10
762.83270249999998
 20
-102.17940999999996
 11
761.62714849999998
 21
-102.87543699999989
  0
ARC
  8
_0-1_LAY-1
  6
CONTINUOUS
 62
    1
 10
749.02714849999995
 20
-97.866434000000055
 40
5.0090029999999999
 50
270
 51
300.56589500000001
  0
ARC
  8
_0-1_LAY-1
  6
CONTINUOUS
 62
    1
 10
761.62714849999998
 20
-97.866434000000055
 40
5.0090029999999999
 50
239.43410499999999
 51
270
  0
LINE
  8
_0-1_LAY-1
  6
CONTINUOUS
 62
    1
 10
751.57437149999998
 20
-97.375436999999948
 11
751.57437149999998
 21
-102.17940999999996
  0
LINE
  8
_0-1_LAY-1
  6
CONTINUOUS
 62
    1
 10
759.07992549999994
 20
-97.375436999999948
 11
759.07992549999994
 21
-102.17940999999996
  0
LINE
  8
_0-1_LAY-1
  6
EXLTYPE3
 62
    1
 10
418.38018949999997
 20
446
 11
79.58018949999996
 21
446
  0
LINE
  8
_0-1_LAY-1
  6
EXLTYPE3
 62
    1
 10
141.29339649999994
 20
535
 11
141.29339649999994
 21
229
  0
LINE
  8
_0-1_LAY-1
  6
CONTINUOUS
 62
    3
 10
706.93416550000006
 20
485.48332200000004
 11
713.48074550000001
 21
495.56416999999999
  0
LINE
  8
_0-1_LAY-1
  6
CONTINUOUS
 62
    3
 10
705.23079949999999
 20
486.53865500000001
 11
706.93416550000006
 21
485.48332200000004
  0
LINE
  8
_0-1_LAY-1
  6
CONTINUOUS
 62
    3
 10
711.78210550000006
 20
496.62678199999999
 11
705.23079949999999
 21
486.53865500000001
  0
LINE
  8
_0-1_LAY-1
  6
CONTINUOUS
 62
    3
 10
713.48074550000001
 20
495.56416999999999
 11
711.78210550000006
 21
496.62678199999999
  0
LINE
  8
_0-1_LAY-1
  6
CONTINUOUS
 62
    3
 10
696.81247050000002
 20
490.45792799999998
 11
701.41565849999995
 21
501.571009
  0
LINE
  8
_0-1_LAY-1
  6
CONTINUOUS
 62
    3
 10
698.67963250000003
 20
489.730681
 11
696.81247050000002
 21
490.45792799999998
  0
LINE
  8
_0-1_LAY-1
  6
CONTINUOUS
 62
    3
 10
700.97956649999992
 20
495.28321299999999
 11
698.67963250000003
 21
489.730681
  0
LINE
  8
_0-1_LAY-1
  6
CONTINUOUS
 62
    3
 10
701.41565849999995
 20
501.571009
 11
703.27950050000004
 21
500.83574399999998
  0
LINE
  8
_0-1_LAY-1
  6
CONTINUOUS
 62
    3
 10
703.02174650000006
 20
494.43731399999996
 11
703.32456949999994
 21
487.50154000000003
  0
LINE
  8
_0-1_LAY-1
  6
CONTINUOUS
 62
    3
 10
705.81576749999999
 20
499.71477400000003
 11
707.74415449999992
 21
498.76460299999997
  0
LINE
  8
_0-1_LAY-1
  6
CONTINUOUS
 62
    3
 10
707.74415449999992
 20
498.76460299999997
 11
703.02174650000006
 21
494.43731399999996
  0
LINE
  8
_0-1_LAY-1
  6
CONTINUOUS
 62
    3
 10
703.32456949999994
 20
487.50154000000003
 11
701.27295449999997
 21
488.56352000000004
  0
LINE
  8
_0-1_LAY-1
  6
CONTINUOUS
 62
    3
 10
700.97956649999992
 20
495.28321299999999
 11
705.81576749999999
 21
499.71477400000003
  0
LINE
  8
_0-1_LAY-1
  6
CONTINUOUS
 62
    3
 10
703.27950050000004
 20
500.83574399999998
 11
700.97956649999992
 21
495.28321299999999
  0
LINE
  8
_0-1_LAY-1
  6
CONTINUOUS
 62
    3
 10
701.27295449999997
 20
488.56352000000004
 11
700.97956649999992
 21
495.28321299999999
  0
ARC
  8
_0-1_LAY-1
  6
CONTINUOUS
 62
    3
 10
691.48326049999991
 20
495.92604200000005
 40
4.006678
 50
258
 51
348
  0
ARC
  8
_0-1_LAY-1
  6
CONTINUOUS
 62
    3
 10
692.32353649999993
 20
499.879234
 40
4.006678
 50
348
 51
77.999999999999986
  0
ARC
  8
_0-1_LAY-1
  6
CONTINUOUS
 62
    3
 10
691.51026849999994
 20
496.05310899999995
 40
2.003339
 50
168
 51
258.00000000000006
  0
ARC
  8
_0-1_LAY-1
  6
CONTINUOUS
 62
    3
 10
692.34449849999999
 20
499.97784999999999
 40
2.003339
 50
348
 51
77.999999999999986
  0
ARC
  8
_0-1_LAY-1
  6
CONTINUOUS
 62
    3
 10
692.34449849999999
 20
499.97784999999999
 40
2.003339
 50
78.000000000000014
 51
168
  0
LINE
  8
_0-1_LAY-1
  6
CONTINUOUS
 62
    3
 10
689.55070750000004
 20
496.46962600000006
 11
690.38493749999998
 21
500.39436699999999
  0
ARC
  8
_0-1_LAY-1
  6
CONTINUOUS
 62
    3
 10
692.32353649999993
 20
499.879234
 40
4.006678
 50
78.000000000000014
 51
168
  0
LINE
  8
_0-1_LAY-1
  6
CONTINUOUS
 62
    3
 10
694.30405949999999
 20
499.56133199999999
 11
693.46982950000006
 21
495.63659100000001
  0
ARC
  8
_0-1_LAY-1
  6
CONTINUOUS
 62
    3
 10
691.51026849999994
 20
496.05310899999995
 40
2.003339
 50
258
 51
348
  0
LINE
  8
_0-1_LAY-1
  6
CONTINUOUS
 62
    3
 10
687.56413750000002
 20
496.75907699999993
 11
688.40441450000003
 21
500.71226899999999
  0
LINE
  8
_0-1_LAY-1
  6
CONTINUOUS
 62
    3
 10
696.24265949999995
 20
499.046199
 11
695.40238249999993
 21
495.093007
  0
ARC
  8
_0-1_LAY-1
  6
CONTINUOUS
 62
    3
 10
691.48326049999991
 20
495.92604200000005
 40
4.006678
 50
168
 51
258.00000000000006
  0
LINE
  8
_0-1_LAY-1
  6
CONTINUOUS
 62
    3
 10
679.29005749999999
 20
493.03582099999994
 11
679.29005749999999
 21
505.06453300000004
  0
LINE
  8
_0-1_LAY-1
  6
CONTINUOUS
 62
    3
 10
681.29339649999997
 20
493.078464
 11
679.29005749999999
 21
493.03582099999994
  0
LINE
  8
_0-1_LAY-1
  6
CONTINUOUS
 62
    3
 10
681.29339649999997
 20
499.088481
 11
681.29339649999997
 21
493.078464
  0
LINE
  8
_0-1_LAY-1
  6
CONTINUOUS
 62
    3
 10
679.29005749999999
 20
505.06453300000004
 11
681.29339649999997
 21
505.09849699999995
  0
ARC
  8
_0-1_LAY-1
  6
CONTINUOUS
 62
    3
 10
669.83096249999994
 20
495.64925700000003
 40
4.006678
 50
283
 51
13.000000000000005
  0
ARC
  8
_0-1_LAY-1
  6
CONTINUOUS
 62
    3
 10
668.92182049999997
 20
499.58718200000004
 40
4.006678
 50
13
 51
103
  0
ARC
  8
_0-1_LAY-1
  6
CONTINUOUS
 62
    3
 10
669.80173949999994
 20
495.77583300000003
 40
2.003339
 50
193
 51
283
  0
ARC
  8
_0-1_LAY-1
  6
CONTINUOUS
 62
    3
 10
668.89914150000004
 20
499.68541699999997
 40
2.003339
 50
13
 51
103
  0
ARC
  8
_0-1_LAY-1
  6
CONTINUOUS
 62
    3
 10
668.89914150000004
 20
499.68541699999997
 40
2.003339
 50
102.99999999999999
 51
193
  0
LINE
  8
_0-1_LAY-1
  6
CONTINUOUS
 62
    3
 10
667.84974650000004
 20
495.32518000000005
 11
666.94714750000003
 21
499.23476399999998
  0
ARC
  8
_0-1_LAY-1
  6
CONTINUOUS
 62
    3
 10
668.92182049999997
 20
499.58718200000004
 40
4.006678
 50
102.99999999999999
 51
193
  0
LINE
  8
_0-1_LAY-1
  6
CONTINUOUS
 62
    3
 10
670.85113449999994
 20
500.13606999999996
 11
671.75373349999995
 21
496.22648600000002
  0
ARC
  8
_0-1_LAY-1
  6
CONTINUOUS
 62
    3
 10
669.80173949999994
 20
495.77583300000003
 40
2.003339
 50
283
 51
13.000000000000005
  0
LINE
  8
_0-1_LAY-1
  6
CONTINUOUS
 62
    3
 10
665.92697550000003
 20
494.74795100000006
 11
665.01783349999994
 21
498.68587600000001
  0
LINE
  8
_0-1_LAY-1
  6
CONTINUOUS
 62
    3
 10
672.8258075
 20
500.48848900000002
 11
673.73494949999997
 21
496.55056400000001
  0
ARC
  8
_0-1_LAY-1
  6
CONTINUOUS
 62
    3
 10
669.83096249999994
 20
495.64925700000003
 40
4.006678
 50
193
 51
283
  0
LINE
  8
_0-1_LAY-1
  6
CONTINUOUS
 62
    3
 10
683.50383650000003
 20
499.088481
 11
686.43781349999995
 21
492.79654599999998
  0
LINE
  8
_0-1_LAY-1
  6
CONTINUOUS
 62
    3
 10
684.06557750000002
 20
505.03344300000003
 11
686.21079050000003
 21
504.89356199999997
  0
LINE
  8
_0-1_LAY-1
  6
CONTINUOUS
 62
    3
 10
686.21079050000003
 20
504.89356199999997
 11
683.50383650000003
 21
499.088481
  0
LINE
  8
_0-1_LAY-1
  6
CONTINUOUS
 62
    3
 10
686.43781349999995
 20
492.79654599999998
 11
684.13596649999999
 21
492.992569
  0
LINE
  8
_0-1_LAY-1
  6
CONTINUOUS
 62
    3
 10
681.29339649999997
 20
499.088481
 11
684.06557750000002
 21
505.03344300000003
  0
LINE
  8
_0-1_LAY-1
  6
CONTINUOUS
 62
    3
 10
659.44402549999995
 20
498.74904800000002
 11
661.77860550000003
 21
499.65659400000004
  0
LINE
  8
_0-1_LAY-1
  6
CONTINUOUS
 62
    3
 10
663.27724850000004
 20
489.49482899999998
 11
659.44402549999995
 21
498.74904800000002
  0
LINE
  8
_0-1_LAY-1
  6
CONTINUOUS
 62
    3
 10
661.44272350000006
 20
488.68878700000005
 11
663.27724850000004
 21
489.49482899999998
  0
LINE
  8
_0-1_LAY-1
  6
CONTINUOUS
 62
    3
 10
657.60663550000004
 20
497.94992300000001
 11
661.44272350000006
 21
488.68878700000005
  0
LINE
  8
_0-1_LAY-1
  6
CONTINUOUS
 62
    3
 10
661.01124750000008
 20
501.50916000000007
 11
661.77860550000003
 21
499.65659400000004
  0
LINE
  8
_0-1_LAY-1
  6
CONTINUOUS
 62
    3
 10
654.57886050000002
 20
498.71589799999998
 11
661.01124750000008
 21
501.50916000000007
  0
LINE
  8
_0-1_LAY-1
  6
CONTINUOUS
 62
    3
 10
655.3478235
 20
496.85945700000002
 11
654.57886050000002
 21
498.71589799999998
  0
LINE
  8
_0-1_LAY-1
  6
CONTINUOUS
 62
    3
 10
657.60663550000004
 20
497.94992300000001
 11
655.3478235
 21
496.85945700000002
  0
LINE
  8
_0-1_LAY-1
  6
CONTINUOUS
 62
    3
 10
655.65262749999999
 20
485.48332200000004
 11
649.10604750000005
 21
495.56416999999999
  0
LINE
  8
_0-1_LAY-1
  6
CONTINUOUS
 62
    3
 10
657.35599349999995
 20
486.53865500000001
 11
655.65262749999999
 21
485.48332200000004
  0
LINE
  8
_0-1_LAY-1
  6
CONTINUOUS
 62
    3
 10
650.8046875
 20
496.62678199999999
 11
657.35599349999995
 21
486.53865500000001
  0
LINE
  8
_0-1_LAY-1
  6
CONTINUOUS
 62
    3
 10
649.10604750000005
 20
495.56416999999999
 11
650.8046875
 21
496.62678199999999
  0
LINE
  8
_0-1_LAY-1
  6
CONTINUOUS
 62
    3
 10
681.29339649999997
 20
505.09849699999995
 11
681.29339649999997
 21
499.088481
  0
LINE
  8
_0-1_LAY-1
  6
CONTINUOUS
 62
    3
 10
684.13596649999999
 20
492.992569
 11
681.29339649999997
 21
499.088481
  0
CIRCLE
  8
_0-1_LAY-1
  6
CONTINUOUS
 62
    2
 10
681.29339649999997
 20
446
 40
22.279433999999998
  0
LINE
  8
_0-1_LAY-1
  6
CONTINUOUS
 62
    2
 10
681.29339649999997
 20
432.69877499999996
 11
692.81259550000004
 21
439.34938799999998
  0
CIRCLE
  8
_0-1_LAY-1
  6
CONTINUOUS
 62
    2
 10
607.25964450000004
 20
415.33421599999997
 40
5.7595989999999997
  0
CIRCLE
  8
_0-1_LAY-1
  6
CONTINUOUS
 62
    2
 10
650.62761249999994
 20
371.96624800000001
 40
5.7595989999999997
  0
LINE
  8
_0-1_LAY-1
  6
CONTINUOUS
 62
    2
 10
611.01868650000006
 20
408.82336399999997
 11
603.50060250000001
 21
408.82336399999997
  0
LINE
  8
_0-1_LAY-1
  6
CONTINUOUS
 62
    2
 10
603.50060250000001
 20
408.82336399999997
 11
599.74156049999999
 21
415.33421599999997
  0
LINE
  8
_0-1_LAY-1
  6
CONTINUOUS
 62
    2
 10
599.74156049999999
 20
415.33421599999997
 11
603.50060250000001
 21
421.84506700000003
  0
LINE
  8
_0-1_LAY-1
  6
CONTINUOUS
 62
    2
 10
603.50060250000001
 20
421.84506700000003
 11
611.01868650000006
 21
421.84506700000003
  0
LINE
  8
_0-1_LAY-1
  6
CONTINUOUS
 62
    2
 10
611.01868650000006
 20
421.84506700000003
 11
614.77772749999997
 21
415.33421599999997
  0
LINE
  8
_0-1_LAY-1
  6
CONTINUOUS
 62
    2
 10
614.77772749999997
 20
415.33421599999997
 11
611.01868650000006
 21
408.82336399999997
  0
LINE
  8
_0-1_LAY-1
  6
CONTINUOUS
 62
    2
 10
654.38665449999996
 20
365.45539600000001
 11
646.86857050000003
 21
365.45539600000001
  0
LINE
  8
_0-1_LAY-1
  6
CONTINUOUS
 62
    2
 10
646.86857050000003
 20
365.45539600000001
 11
643.10952850000001
 21
371.96624800000001
  0
LINE
  8
_0-1_LAY-1
  6
CONTINUOUS
 62
    2
 10
643.10952850000001
 20
371.96624800000001
 11
646.86857050000003
 21
378.47709899999995
  0
LINE
  8
_0-1_LAY-1
  6
CONTINUOUS
 62
    2
 10
646.86857050000003
 20
378.47709899999995
 11
654.38665449999996
 21
378.47709899999995
  0
LINE
  8
_0-1_LAY-1
  6
CONTINUOUS
 62
    2
 10
654.38665449999996
 20
378.47709899999995
 11
658.14569549999999
 21
371.96624800000001
  0
LINE
  8
_0-1_LAY-1
  6
CONTINUOUS
 62
    2
 10
658.14569549999999
 20
371.96624800000001
 11
654.38665449999996
 21
365.45539600000001
  0
CIRCLE
  8
_0-1_LAY-1
  6
CONTINUOUS
 62
    2
 10
607.25964450000004
 20
476.66578400000003
 40
5.7595989999999997
  0
CIRCLE
  8
_0-1_LAY-1
  6
CONTINUOUS
 62
    2
 10
650.62761249999994
 20
520.03375200000005
 40
5.7595989999999997
  0
LINE
  8
_0-1_LAY-1
  6
CONTINUOUS
 62
    2
 10
611.01868650000006
 20
483.17663599999997
 11
603.50060250000001
 21
483.17663599999997
  0
LINE
  8
_0-1_LAY-1
  6
CONTINUOUS
 62
    2
 10
603.50060250000001
 20
483.17663599999997
 11
599.74156049999999
 21
476.66578400000003
  0
LINE
  8
_0-1_LAY-1
  6
CONTINUOUS
 62
    2
 10
599.74156049999999
 20
476.66578400000003
 11
603.50060250000001
 21
470.15493300000003
  0
LINE
  8
_0-1_LAY-1
  6
CONTINUOUS
 62
    2
 10
603.50060250000001
 20
470.15493300000003
 11
611.01868650000006
 21
470.15493300000003
  0
LINE
  8
_0-1_LAY-1
  6
CONTINUOUS
 62
    2
 10
611.01868650000006
 20
470.15493300000003
 11
614.77772749999997
 21
476.66578400000003
  0
LINE
  8
_0-1_LAY-1
  6
CONTINUOUS
 62
    2
 10
614.77772749999997
 20
476.66578400000003
 11
611.01868650000006
 21
483.17663599999997
  0
LINE
  8
_0-1_LAY-1
  6
CONTINUOUS
 62
    2
 10
654.38665449999996
 20
526.54460400000005
 11
646.86857050000003
 21
526.54460400000005
  0
LINE
  8
_0-1_LAY-1
  6
CONTINUOUS
 62
    2
 10
646.86857050000003
 20
526.54460400000005
 11
643.10952850000001
 21
520.03375200000005
  0
LINE
  8
_0-1_LAY-1
  6
CONTINUOUS
 62
    2
 10
643.10952850000001
 20
520.03375200000005
 11
646.86857050000003
 21
513.52290099999993
  0
LINE
  8
_0-1_LAY-1
  6
CONTINUOUS
 62
    2
 10
646.86857050000003
 20
513.52290099999993
 11
654.38665449999996
 21
513.52290099999993
  0
LINE
  8
_0-1_LAY-1
  6
CONTINUOUS
 62
    2
 10
654.38665449999996
 20
513.52290099999993
 11
658.14569549999999
 21
520.03375200000005
  0
LINE
  8
_0-1_LAY-1
  6
CONTINUOUS
 62
    2
 10
658.14569549999999
 20
520.03375200000005
 11
654.38665449999996
 21
526.54460400000005
  0
CIRCLE
  8
_0-1_LAY-1
  6
CONTINUOUS
 62
    2
 10
755.32714850000002
 20
476.66578400000003
 40
5.7595989999999997
  0
CIRCLE
  8
_0-1_LAY-1
  6
CONTINUOUS
 62
    2
 10
711.9591805
 20
520.03375200000005
 40
5.7595989999999997
  0
LINE
  8
_0-1_LAY-1
  6
CONTINUOUS
 62
    2
 10
751.5681065
 20
483.17663599999997
 11
759.08619049999993
 21
483.17663599999997
  0
LINE
  8
_0-1_LAY-1
  6
CONTINUOUS
 62
    2
 10
759.08619049999993
 20
483.17663599999997
 11
762.84523250000007
 21
476.66578400000003
  0
LINE
  8
_0-1_LAY-1
  6
CONTINUOUS
 62
    2
 10
762.84523250000007
 20
476.66578400000003
 11
759.08619049999993
 21
470.15493300000003
  0
LINE
  8
_0-1_LAY-1
  6
CONTINUOUS
 62
    2
 10
759.08619049999993
 20
470.15493300000003
 11
751.5681065
 21
470.15493300000003
  0
LINE
  8
_0-1_LAY-1
  6
CONTINUOUS
 62
    2
 10
751.5681065
 20
470.15493300000003
 11
747.80906549999997
 21
476.66578400000003
  0
LINE
  8
_0-1_LAY-1
  6
CONTINUOUS
 62
    2
 10
747.80906549999997
 20
476.66578400000003
 11
751.5681065
 21
483.17663599999997
  0
LINE
  8
_0-1_LAY-1
  6
CONTINUOUS
 62
    2
 10
704.44109750000007
 20
371.96624800000001
 11
708.20013849999998
 21
365.45539600000001
  0
LINE
  8
_0-1_LAY-1
  6
CONTINUOUS
 62
    2
 10
708.20013849999998
 20
378.47709899999995
 11
704.44109750000007
 21
371.96624800000001
  0
LINE
  8
_0-1_LAY-1
  6
CONTINUOUS
 62
    2
 10
715.71822250000002
 20
378.47709899999995
 11
708.20013849999998
 21
378.47709899999995
  0
LINE
  8
_0-1_LAY-1
  6
CONTINUOUS
 62
    2
 10
719.47726449999993
 20
371.96624800000001
 11
715.71822250000002
 21
378.47709899999995
  0
LINE
  8
_0-1_LAY-1
  6
CONTINUOUS
 62
    2
 10
715.71822250000002
 20
365.45539600000001
 11
719.47726449999993
 21
371.96624800000001
  0
LINE
  8
_0-1_LAY-1
  6
CONTINUOUS
 62
    2
 10
708.20013849999998
 20
365.45539600000001
 11
715.71822250000002
 21
365.45539600000001
  0
LINE
  8
_0-1_LAY-1
  6
CONTINUOUS
 62
    2
 10
747.80906549999997
 20
415.33421599999997
 11
751.5681065
 21
408.82336399999997
  0
LINE
  8
_0-1_LAY-1
  6
CONTINUOUS
 62
    2
 10
751.5681065
 20
421.84506700000003
 11
747.80906549999997
 21
415.33421599999997
  0
LINE
  8
_0-1_LAY-1
  6
CONTINUOUS
 62
    2
 10
759.08619049999993
 20
421.84506700000003
 11
751.5681065
 21
421.84506700000003
  0
LINE
  8
_0-1_LAY-1
  6
CONTINUOUS
 62
    2
 10
762.84523250000007
 20
415.33421599999997
 11
759.08619049999993
 21
421.84506700000003
  0
LINE
  8
_0-1_LAY-1
  6
CONTINUOUS
 62
    2
 10
759.08619049999993
 20
408.82336399999997
 11
762.84523250000007
 21
415.33421599999997
  0
LINE
  8
_0-1_LAY-1
  6
CONTINUOUS
 62
    2
 10
751.5681065
 20
408.82336399999997
 11
759.08619049999993
 21
408.82336399999997
  0
ARC
  8
_0-1_LAY-1
  6
CONTINUOUS
 62
    2
 10
681.29339649999997
 20
446
 40
70.116861
 50
20.716794
 51
260.95890400000002
  0
ARC
  8
_0-1_LAY-1
  6
CONTINUOUS
 62
    2
 10
748.90608449999991
 20
463.77963299999999
 40
0.801336
 50
181.25109799999998
 51
358.69559900000002
  0
LINE
  8
_0-1_LAY-1
  6
CONTINUOUS
 62
    2
 10
676.28504950000001
 20
378.03672799999998
 11
686.30174349999993
 21
378.03672799999998
  0
ARC
  8
_0-1_LAY-1
  6
CONTINUOUS
 62
    2
 10
672.27837150000005
 20
373.20024000000001
 40
2.003339
 50
135
 51
180
  0
ARC
  8
_0-1_LAY-1
  6
CONTINUOUS
 62
    2
 10
690.30842150000001
 20
373.20024000000001
 40
2.003339
 50
0
 51
45
  0
ARC
  8
_0-1_LAY-1
  6
CONTINUOUS
 62
    2
 10
748.90608449999991
 20
446
 40
17.779633
 50
92.582521999999983
 51
87.417423000000042
  0
ARC
  8
_0-1_LAY-1
  6
CONTINUOUS
 62
    2
 10
681.29339649999997
 20
379.382116
 40
4.006678
 50
45
 51
135
  0
LINE
  8
_0-1_LAY-1
  6
CONTINUOUS
 62
    2
 10
672.27837150000005
 20
374.03004999999996
 11
690.30842150000001
 21
374.03004999999996
  0
LINE
  8
_0-1_LAY-1
  6
CONTINUOUS
 62
    2
 10
684.12654550000002
 20
382.21526500000004
 11
691.72499649999997
 21
374.61681399999998
  0
CIRCLE
  8
_0-1_LAY-1
  6
CONTINUOUS
 62
    2
 10
748.90608449999991
 20
446
 40
20.033389
  0
LINE
  8
_0-1_LAY-1
  6
CONTINUOUS
 62
    2
 10
670.86179649999997
 20
374.61681399999998
 11
678.46024749999992
 21
382.21526500000004
  0
LINE
  8
_0-1_LAY-1
  6
CONTINUOUS
 62
    2
 10
670.27503250000007
 20
356.67701499999998
 11
670.27503250000007
 21
373.20024000000001
  0
ARC
  8
_0-1_LAY-1
  6
CONTINUOUS
 62
    2
 10
681.29339649999997
 20
446
 40
70.116861
 50
279.04109600000004
 51
339.52108099999998
  0
CIRCLE
  8
_0-1_LAY-1
  6
CONTINUOUS
 62
    2
 10
711.9591805
 20
371.96624800000001
 40
5.7595989999999997
  0
CIRCLE
  8
_0-1_LAY-1
  6
CONTINUOUS
 62
    2
 10
755.32714850000002
 20
415.33421599999997
 40
5.7595989999999997
  0
LINE
  8
_0-1_LAY-1
  6
CONTINUOUS
 62
    2
 10
708.20013849999998
 20
526.54460400000005
 11
715.71822250000002
 21
526.54460400000005
  0
LINE
  8
_0-1_LAY-1
  6
CONTINUOUS
 62
    2
 10
715.71822250000002
 20
526.54460400000005
 11
719.47726449999993
 21
520.03375200000005
  0
LINE
  8
_0-1_LAY-1
  6
CONTINUOUS
 62
    2
 10
719.47726449999993
 20
520.03375200000005
 11
715.71822250000002
 21
513.52290099999993
  0
LINE
  8
_0-1_LAY-1
  6
CONTINUOUS
 62
    2
 10
715.71822250000002
 20
513.52290099999993
 11
708.20013849999998
 21
513.52290099999993
  0
LINE
  8
_0-1_LAY-1
  6
CONTINUOUS
 62
    2
 10
708.20013849999998
 20
513.52290099999993
 11
704.44109750000007
 21
520.03375200000005
  0
LINE
  8
_0-1_LAY-1
  6
CONTINUOUS
 62
    2
 10
704.44109750000007
 20
520.03375200000005
 11
708.20013849999998
 21
526.54460400000005
  0
CIRCLE
  8
_0-1_LAY-1
  6
CONTINUOUS
 62
    2
 10
681.29339649999997
 20
446
 40
11.519199
  0
CIRCLE
  8
_0-1_LAY-1
  6
CONTINUOUS
 62
    2
 10
681.29339649999997
 20
446
 40
90
  0
CIRCLE
  8
_0-1_LAY-1
  6
CONTINUOUS
 62
    2
 10
681.29339649999997
 20
446
 40
38.063439000000002
  0
LINE
  8
_0-1_LAY-1
  6
CONTINUOUS
 62
    2
 10
692.31176049999999
 20
373.20024000000001
 11
692.31176049999999
 21
356.67701499999998
  0
LINE
  8
_0-1_LAY-1
  6
CONTINUOUS
 62
    2
 10
669.77419750000001
 20
439.34938799999998
 11
681.29339649999997
 21
432.69877499999996
  0
LINE
  8
_0-1_LAY-1
  6
CONTINUOUS
 62
    2
 10
669.77419750000001
 20
452.65061199999997
 11
669.77419750000001
 21
439.34938799999998
  0
LINE
  8
_0-1_LAY-1
  6
CONTINUOUS
 62
    2
 10
681.29339649999997
 20
459.30122499999993
 11
669.77419750000001
 21
452.65061199999997
  0
LINE
  8
_0-1_LAY-1
  6
CONTINUOUS
 62
    2
 10
692.81259550000004
 20
452.65061199999997
 11
681.29339649999997
 21
459.30122499999993
  0
LINE
  8
_0-1_LAY-1
  6
CONTINUOUS
 62
    2
 10
692.81259550000004
 20
439.34938799999998
 11
692.81259550000004
 21
452.65061199999997
  0
LINE
  8
_0-1_LAY-1
  6
CONTINUOUS
 62
    2
 10
697.08643949999998
 20
300.14700100000005
 11
665.50035349999996
 21
300.14700100000005
  0
LINE
  8
_0-1_LAY-1
  6
CONTINUOUS
 62
    2
 10
697.08643949999998
 20
264.35490300000004
 11
665.50035349999996
 21
264.35490300000004
  0
LINE
  8
_0-1_LAY-1
  6
CONTINUOUS
 62
    2
 10
681.29339649999997
 20
267.32616300000001
 11
694.21864249999999
 21
274.78855699999997
  0
LINE
  8
_0-1_LAY-1
  6
CONTINUOUS
 62
    2
 10
694.21864249999999
 20
274.78855699999997
 11
694.21864249999999
 21
289.713346
  0
LINE
  8
_0-1_LAY-1
  6
CONTINUOUS
 62
    2
 10
694.21864249999999
 20
289.713346
 11
681.29339649999997
 21
297.17574000000002
  0
LINE
  8
_0-1_LAY-1
  6
CONTINUOUS
 62
    2
 10
681.29339649999997
 20
297.17574000000002
 11
668.36815050000007
 21
289.713346
  0
LINE
  8
_0-1_LAY-1
  6
CONTINUOUS
 62
    2
 10
668.36815050000007
 20
289.713346
 11
668.36815050000007
 21
274.78855699999997
  0
LINE
  8
_0-1_LAY-1
  6
CONTINUOUS
 62
    2
 10
668.36815050000007
 20
274.78855699999997
 11
681.29339649999997
 21
267.32616300000001
  0
CIRCLE
  8
_0-1_LAY-1
  6
CONTINUOUS
 62
    2
 10
681.29339649999997
 20
282.25095199999998
 40
12.925246000000001
  0
CIRCLE
  8
_0-1_LAY-1
  6
CONTINUOUS
 62
    2
 10
681.29339649999997
 20
282.25095199999998
 40
1.602671
  0
LINE
  8
_0-1_LAY-1
  6
CONTINUOUS
 62
    2
 10
653.9514805
 20
239.00153599999999
 11
649.72653349999996
 21
241.44081
  0
LINE
  8
_0-1_LAY-1
  6
CONTINUOUS
 62
    2
 10
708.63531250000005
 20
239.00153599999999
 11
712.86025949999998
 21
241.44081
  0
LINE
  8
_0-1_LAY-1
  6
CONTINUOUS
 62
    2
 10
708.63531250000005
 20
239.00153599999999
 11
653.9514805
 21
239.00153599999999
  0
LINE
  8
_0-1_LAY-1
  6
CONTINUOUS
 62
    2
 10
712.86025949999998
 20
323.06109299999997
 11
712.86025949999998
 21
241.44081
  0
LINE
  8
_0-1_LAY-1
  6
CONTINUOUS
 62
    2
 10
708.63377049999997
 20
325.50125800000001
 11
712.86025949999998
 21
327.94142199999999
  0
LINE
  8
_0-1_LAY-1
  6
CONTINUOUS
 62
    2
 10
708.63377049999997
 20
325.50125800000001
 11
712.86025949999998
 21
323.06109299999997
  0
LINE
  8
_0-1_LAY-1
  6
CONTINUOUS
 62
    2
 10
649.72653349999996
 20
323.06109299999997
 11
649.72653349999996
 21
241.44081
  0
LINE
  8
_0-1_LAY-1
  6
CONTINUOUS
 62
    2
 10
653.95302249999997
 20
325.50125800000001
 11
649.72653349999996
 21
327.94142199999999
  0
LINE
  8
_0-1_LAY-1
  6
CONTINUOUS
 62
    2
 10
653.95302249999997
 20
325.50125800000001
 11
649.72653349999996
 21
323.06109299999997
  0
LINE
  8
_0-1_LAY-1
  6
CONTINUOUS
 62
    2
 10
708.63377049999997
 20
325.50125800000001
 11
653.95302249999997
 21
325.50125800000001
  0
LINE
  8
_0-1_LAY-1
  6
CONTINUOUS
 62
    2
 10
712.86025949999998
 20
323.06109299999997
 11
712.86025949999998
 21
321.50450799999999
  0
LINE
  8
_0-1_LAY-1
  6
CONTINUOUS
 62
    2
 10
712.86025949999998
 20
351.559257
 11
712.86025949999998
 21
327.94142199999999
  0
LINE
  8
_0-1_LAY-1
  6
CONTINUOUS
 62
    2
 10
649.72653349999996
 20
351.559257
 11
649.72653349999996
 21
327.94142199999999
  0
LINE
  8
_0-1_LAY-1
  6
CONTINUOUS
 62
    2
 10
708.63158550000003
 20
354.00068300000004
 11
712.86025949999998
 21
351.559257
  0
LINE
  8
_0-1_LAY-1
  6
CONTINUOUS
 62
    2
 10
653.95520750000003
 20
354.00068300000004
 11
649.72653349999996
 21
351.559257
  0
LINE
  8
_0-1_LAY-1
  6
CONTINUOUS
 62
    2
 10
708.63158550000003
 20
354.00068300000004
 11
653.95520750000003
 21
354.00068300000004
  0
LINE
  8
_0-1_LAY-1
  6
CONTINUOUS
 62
    2
 10
665.50035349999996
 20
357.396502
 11
665.50035349999996
 21
239.00153599999999
  0
LINE
  8
_0-1_LAY-1
  6
CONTINUOUS
 62
    2
 10
118.29339649999997
 20
389
 11
118.29339649999997
 21
400.21790699999997
  0
ARC
  8
_0-1_LAY-1
  6
CONTINUOUS
 62
    2
 10
165.88000250000005
 20
382
 40
5
 50
30.731321000000005
 51
90.000000000000014
  0
ARC
  8
_0-1_LAY-1
  6
CONTINUOUS
 62
    2
 10
237.29339649999994
 20
446
 40
127
 50
193.806071
 51
199.82367099999996
  0
ARC
  8
_0-1_LAY-1
  6
CONTINUOUS
 62
    2
 10
120.29339649999994
 20
389
 40
2
 50
180
 51
270
  0
ARC
  8
_0-1_LAY-1
  6
CONTINUOUS
 62
    2
 10
110.2933965
 20
400.21790699999997
 40
8
 50
0
 51
19.823671000000001
  0
ARC
  8
_0-1_LAY-1
  6
CONTINUOUS
 62
    2
 10
109.10700849999998
 20
414.5
 40
5
 50
13.806070999999999
 51
90
  0
ARC
  8
_0-1_LAY-1
  6
CONTINUOUS
 62
    2
 10
109.10700849999998
 20
477.5
 40
5
 50
270
 51
346.19392900000003
  0
ARC
  8
_0-1_LAY-1
  6
CONTINUOUS
 62
    2
 10
110.2933965
 20
491.78209300000003
 40
8
 50
340.17632900000001
 51
0.0000000000000127
  0
ARC
  8
_0-1_LAY-1
  6
CONTINUOUS
 62
    2
 10
237.29339649999994
 20
446
 40
127
 50
160.17632900000001
 51
166.19392899999997
  0
LINE
  8
_0-1_LAY-1
  6
CONTINUOUS
 62
    2
 10
109.10700849999998
 20
472.5
 11
105.29339649999994
 21
472.5
  0
LINE
  8
_0-1_LAY-1
  6
CONTINUOUS
 62
    2
 10
118.29339649999997
 20
503
 11
118.29339649999997
 21
491.78209300000003
  0
LINE
  8
_0-1_LAY-1
  6
CONTINUOUS
 62
    2
 10
90.893396499999994
 20
425.19999999999993
 11
99.293396499999943
 21
425.19999999999993
  0
LINE
  8
_0-1_LAY-1
  6
CONTINUOUS
 62
    2
 10
90.893396499999994
 20
425.19999999999993
 11
89.2933965
 21
428
  0
LINE
  8
_0-1_LAY-1
  6
CONTINUOUS
 62
    2
 10
89.2933965
 20
464
 11
90.893396499999994
 21
466.79999999999995
  0
LINE
  8
_0-1_LAY-1
  6
CONTINUOUS
 62
    2
 10
89.2933965
 20
464
 11
89.2933965
 21
428
  0
LINE
  8
_0-1_LAY-1
  6
CONTINUOUS
 62
    2
 10
105.29339649999994
 20
472.5
 11
99.293396499999943
 21
472.5
  0
LINE
  8
_0-1_LAY-1
  6
CONTINUOUS
 62
    2
 10
99.293396499999943
 20
466.79999999999995
 11
90.893396499999994
 21
466.79999999999995
  0
ARC
  8
_0-1_LAY-1
  6
CONTINUOUS
 62
    2
 10
120.29339649999994
 20
503
 40
2
 50
150
 51
180
  0
LINE
  8
_0-1_LAY-1
  6
CONTINUOUS
 62
    2
 10
124.50949849999998
 20
359.00000199999999
 11
124.61640750000001
 21
358.89309199999997
  0
LINE
  8
_0-1_LAY-1
  6
CONTINUOUS
 62
    2
 10
165.88000250000005
 20
387
 11
120.29339649999994
 21
387
  0
ARC
  8
_0-1_LAY-1
  6
CONTINUOUS
 62
    2
 10
124.79793949999998
 20
385.61861899999997
 40
18.620094999999999
 50
253.12815699999999
 51
286.87184300000001
  0
LINE
  8
_0-1_LAY-1
  6
CONTINUOUS
 62
    2
 10
119.39379350000002
 20
367.80000099999995
 11
122.00339650000001
 21
367.000001
  0
LINE
  8
_0-1_LAY-1
  6
CONTINUOUS
 62
    2
 10
119.39379350000002
 20
373.000001
 11
119.39379350000002
 21
367.80000099999995
  0
LINE
  8
_0-1_LAY-1
  6
CONTINUOUS
 62
    2
 10
163.19299950000004
 20
367.80000099999995
 11
160.58339650000005
 21
367.000001
  0
LINE
  8
_0-1_LAY-1
  6
CONTINUOUS
 62
    2
 10
163.19299950000004
 20
373.000001
 11
163.19299950000004
 21
367.80000099999995
  0
ARC
  8
_0-1_LAY-1
  6
CONTINUOUS
 62
    2
 10
124.79793949999998
 20
360.38138300000003
 40
18.620094999999999
 50
73.128157000000002
 51
106.87184299999998
  0
LINE
  8
_0-1_LAY-1
  6
CONTINUOUS
 62
    2
 10
119.39379350000002
 20
378.20000099999999
 11
122.00339650000001
 21
379.000001
  0
LINE
  8
_0-1_LAY-1
  6
CONTINUOUS
 62
    2
 10
119.39379350000002
 20
373.000001
 11
119.39379350000002
 21
378.20000099999999
  0
LINE
  8
_0-1_LAY-1
  6
CONTINUOUS
 62
    2
 10
163.19299950000004
 20
378.20000099999999
 11
160.58339650000005
 21
379.000001
  0
LINE
  8
_0-1_LAY-1
  6
CONTINUOUS
 62
    2
 10
163.19299950000004
 20
373.000001
 11
163.19299950000004
 21
378.20000099999999
  0
LINE
  8
_0-1_LAY-1
  6
CONTINUOUS
 62
    2
 10
141.29339649999994
 20
367.000001
 11
141.3725365
 21
367.000001
  0
LINE
  8
_0-1_LAY-1
  6
CONTINUOUS
 62
    2
 10
141.29339649999994
 20
379.000001
 11
141.3725365
 21
379.000001
  0
ARC
  8
_0-1_LAY-1
  6
CONTINUOUS
 62
    2
 10
141.33296649999997
 20
444.83433000000002
 40
77.834339
 50
261.77809600000001
 51
270.02912800000001
  0
ARC
  8
_0-1_LAY-1
  6
CONTINUOUS
 62
    2
 10
141.33296649999997
 20
301.16567199999997
 40
77.834339
 50
89.970872
 51
98.221903999999995
  0
LINE
  8
_0-1_LAY-1
  6
CONTINUOUS
 62
    2
 10
160.58339650000005
 20
367.000001
 11
122.00339650000001
 21
367.000001
  0
LINE
  8
_0-1_LAY-1
  6
CONTINUOUS
 62
    2
 10
160.58339650000005
 20
379.000001
 11
122.00339650000001
 21
379.000001
  0
ARC
  8
_0-1_LAY-1
  6
CONTINUOUS
 62
    2
 10
157.78885349999999
 20
385.61861899999997
 40
18.620094999999999
 50
253.12815699999999
 51
286.87184300000001
  0
ARC
  8
_0-1_LAY-1
  6
CONTINUOUS
 62
    2
 10
157.78885349999999
 20
360.38138300000003
 40
18.620094999999999
 50
73.128157000000002
 51
106.87184299999998
  0
ARC
  8
_0-1_LAY-1
  6
CONTINUOUS
 62
    2
 10
141.25382649999992
 20
301.16567199999997
 40
77.834339
 50
81.778096000000005
 51
90.029128
  0
ARC
  8
_0-1_LAY-1
  6
CONTINUOUS
 62
    2
 10
141.25382649999992
 20
444.83433000000002
 40
77.834339
 50
269.97087199999999
 51
278.22190399999999
  0
LINE
  8
_0-1_LAY-1
  6
CONTINUOUS
 62
    2
 10
157.98339350000003
 20
363.59589700000004
 11
124.60339950000002
 21
363.59589700000004
  0
LINE
  8
_0-1_LAY-1
  6
CONTINUOUS
 62
    2
 10
157.98339350000003
 20
382.40410500000002
 11
124.60339950000002
 21
382.40410500000002
  0
LINE
  8
_0-1_LAY-1
  6
CONTINUOUS
 62
    2
 10
130.20208649999995
 20
378.20000099999999
 11
130.20208649999995
 21
367.80000099999995
  0
LINE
  8
_0-1_LAY-1
  6
CONTINUOUS
 62
    2
 10
152.38470650000002
 20
378.20000099999999
 11
152.38470650000002
 21
367.80000099999995
  0
LINE
  8
_0-1_LAY-1
  6
CONTINUOUS
 62
    2
 10
158.08977149999996
 20
367.000001
 11
157.83977150000001
 21
359
  0
LINE
  8
_0-1_LAY-1
  6
CONTINUOUS
 62
    2
 10
124.49702149999993
 20
367.000001
 11
124.74678949999995
 21
359.00741500000004
  0
LINE
  8
_0-1_LAY-1
  6
CONTINUOUS
 62
    2
 10
124.49702149999993
 20
379.000001
 11
124.74702149999996
 21
387
  0
LINE
  8
_0-1_LAY-1
  6
CONTINUOUS
 62
    2
 10
158.08977149999996
 20
379.000001
 11
157.83977150000001
 21
387
  0
LINE
  8
_0-1_LAY-1
  6
CONTINUOUS
 62
    2
 10
99.293396499999943
 20
472.5
 11
99.293396499999943
 21
419.5
  0
LINE
  8
_0-1_LAY-1
  6
CONTINUOUS
 62
    2
 10
105.29339649999994
 20
419.5
 11
105.29339649999994
 21
472.5
  0
LINE
  8
_0-1_LAY-1
  6
CONTINUOUS
 62
    2
 10
99.293396499999943
 20
419.5
 11
109.10700849999998
 21
419.5
  0
LINE
  8
_0-1_LAY-1
  6
CONTINUOUS
 62
    2
 10
166.29339649999997
 20
504
 11
118.56134550000004
 21
504
  0
ARC
  8
_0-1_LAY-1
  6
CONTINUOUS
 62
    2
 10
189.08847549999993
 20
395.79734799999994
 40
22
 50
210.73132100000004
 51
229.39884900000004
  0
LINE
  8
_0-1_LAY-1
  6
CONTINUOUS
 62
    2
 10
193.29339649999997
 20
356.16630900000001
 11
179.79339649999997
 21
356.16630900000001
  0
LINE
  8
_0-1_LAY-1
  6
CONTINUOUS
 62
    2
 10
179.79339649999997
 20
356.16630900000001
 11
179.79339649999997
 21
535.866309
  0
LINE
  8
_0-1_LAY-1
  6
CONTINUOUS
 62
    2
 10
166.02544750000007
 20
491.78209300000003
 11
118.29339649999997
 21
491.78209300000003
  0
LINE
  8
_0-1_LAY-1
  6
CONTINUOUS
 62
    2
 10
163.88000250000007
 20
400.21790699999997
 11
118.29339649999997
 21
400.21790699999997
  0
LINE
  8
_0-1_LAY-1
  6
CONTINUOUS
 62
    2
 10
167.07461850000001
 20
393.593073
 11
165.44204850000006
 21
409.805114
  0
LINE
  8
_0-1_LAY-1
  6
CONTINUOUS
 62
    2
 10
165.44204850000006
 20
409.805114
 11
165.44204850000006
 21
482.194886
  0
LINE
  8
_0-1_LAY-1
  6
CONTINUOUS
 62
    2
 10
167.07461850000001
 20
498.406927
 11
165.44204850000006
 21
482.194886
  0
ARC
  8
_0-1_LAY-1
  6
CONTINUOUS
 62
    2
 10
188.96391149999997
 20
395.79734799999994
 40
22
 50
185.750361
 51
208.443276
  0
ARC
  8
_0-1_LAY-1
  6
CONTINUOUS
 62
    2
 10
188.96391149999997
 20
496.20265199999994
 40
22
 50
153.876746
 51
174.249639
  0
ARC
  8
_0-1_LAY-1
  6
CONTINUOUS
 62
    2
 10
189.08847549999993
 20
496.20265199999994
 40
22
 50
130.60115099999999
 51
149.26867899999999
  0
ARC
  8
_0-1_LAY-1
  6
CONTINUOUS
 62
    2
 10
165.88000250000005
 20
510
 40
5
 50
274.74255800000003
 51
329.26867900000002
  0
ARC
  8
_0-1_LAY-1
  6
CONTINUOUS
 62
    2
 10
1196.7067904999999
 20
510
 40
5
 50
210.73132100000004
 51
265.25744200000008
  0
ARC
  8
_0-1_LAY-1
  6
CONTINUOUS
 62
    2
 10
1173.4983174999998
 20
496.20265199999994
 40
22
 50
30.731321000000005
 51
49.398848999999998
  0
ARC
  8
_0-1_LAY-1
  6
CONTINUOUS
 62
    2
 10
1173.6228814999999
 20
496.20265199999994
 40
22
 50
5.7503609999999998
 51
26.123253999999999
  0
ARC
  8
_0-1_LAY-1
  6
CONTINUOUS
 62
    2
 10
1173.6228814999999
 20
395.79734799999994
 40
22
 50
331.55672399999997
 51
354.249639
  0
LINE
  8
_0-1_LAY-1
  6
CONTINUOUS
 62
    2
 10
1195.5121745000001
 20
498.406927
 11
1197.1447444999999
 21
482.194886
  0
LINE
  8
_0-1_LAY-1
  6
CONTINUOUS
 62
    2
 10
1197.1447444999999
 20
409.805114
 11
1197.1447444999999
 21
482.194886
  0
LINE
  8
_0-1_LAY-1
  6
CONTINUOUS
 62
    2
 10
1195.5121745000001
 20
393.593073
 11
1197.1447444999999
 21
409.805114
  0
LINE
  8
_0-1_LAY-1
  6
CONTINUOUS
 62
    2
 10
1196.5613454999998
 20
491.78209300000003
 11
1244.2933965000002
 21
491.78209300000003
  0
LINE
  8
_0-1_LAY-1
  6
CONTINUOUS
 62
    2
 10
1196.2933965000002
 20
507
 11
1196.2933965000002
 21
504
  0
LINE
  8
_0-1_LAY-1
  6
CONTINUOUS
 62
    2
 10
1198.7067904999999
 20
400.21790699999997
 11
1244.2933965000002
 21
400.21790699999997
  0
LINE
  8
_0-1_LAY-1
  6
CONTINUOUS
 62
    2
 10
1182.7933965000002
 20
356.16630900000001
 11
1182.7933965000002
 21
535.866309
  0
LINE
  8
_0-1_LAY-1
  6
CONTINUOUS
 62
    2
 10
1169.2933965000002
 20
356.16630900000001
 11
1182.7933965000002
 21
356.16630900000001
  0
LINE
  8
_0-1_LAY-1
  6
CONTINUOUS
 62
    2
 10
1169.2933965000002
 20
535.866309
 11
1195.2933965
 21
535.866309
  0
ARC
  8
_0-1_LAY-1
  6
CONTINUOUS
 62
    2
 10
1173.4983174999998
 20
395.79734799999994
 40
22
 50
310.60115100000002
 51
329.26867900000002
  0
LINE
  8
_0-1_LAY-1
  6
CONTINUOUS
 62
    2
 10
1196.2933965000002
 20
504
 11
1244.0254474999999
 21
504
  0
LINE
  8
_0-1_LAY-1
  6
CONTINUOUS
 62
    2
 10
1263.2933964999997
 20
419.5
 11
1253.4797844999998
 21
419.5
  0
LINE
  8
_0-1_LAY-1
  6
CONTINUOUS
 62
    2
 10
1257.2933964999997
 20
419.5
 11
1257.2933964999997
 21
472.5
  0
LINE
  8
_0-1_LAY-1
  6
CONTINUOUS
 62
    2
 10
1263.2933964999997
 20
472.5
 11
1263.2933964999997
 21
419.5
  0
LINE
  8
_0-1_LAY-1
  6
CONTINUOUS
 62
    2
 10
1204.4970214999998
 20
379.000001
 11
1204.7470214999998
 21
387
  0
LINE
  8
_0-1_LAY-1
  6
CONTINUOUS
 62
    2
 10
1238.0897714999999
 20
379.000001
 11
1237.8397715000001
 21
387
  0
LINE
  8
_0-1_LAY-1
  6
CONTINUOUS
 62
    2
 10
1238.0897714999999
 20
367.000001
 11
1237.8400035
 21
359.00741500000004
  0
LINE
  8
_0-1_LAY-1
  6
CONTINUOUS
 62
    2
 10
1204.4970214999998
 20
367.000001
 11
1204.7470214999998
 21
359
  0
LINE
  8
_0-1_LAY-1
  6
CONTINUOUS
 62
    2
 10
1210.2020865
 20
378.20000099999999
 11
1210.2020865
 21
367.80000099999995
  0
LINE
  8
_0-1_LAY-1
  6
CONTINUOUS
 62
    2
 10
1232.3847065
 20
378.20000099999999
 11
1232.3847065
 21
367.80000099999995
  0
LINE
  8
_0-1_LAY-1
  6
CONTINUOUS
 62
    2
 10
1204.6033995
 20
382.40410500000002
 11
1237.9833935000001
 21
382.40410500000002
  0
LINE
  8
_0-1_LAY-1
  6
CONTINUOUS
 62
    2
 10
1204.6033995
 20
363.59589700000004
 11
1237.9833935000001
 21
363.59589700000004
  0
ARC
  8
_0-1_LAY-1
  6
CONTINUOUS
 62
    2
 10
1221.3329664999999
 20
444.83433000000002
 40
77.834339
 50
261.77809600000001
 51
270.02912800000001
  0
ARC
  8
_0-1_LAY-1
  6
CONTINUOUS
 62
    2
 10
1221.3329664999999
 20
301.16567199999997
 40
77.834339
 50
89.970872
 51
98.221903999999995
  0
ARC
  8
_0-1_LAY-1
  6
CONTINUOUS
 62
    2
 10
1204.7979395
 20
360.38138300000003
 40
18.620094999999999
 50
73.128157000000002
 51
106.87184299999998
  0
ARC
  8
_0-1_LAY-1
  6
CONTINUOUS
 62
    2
 10
1204.7979395
 20
385.61861899999997
 40
18.620094999999999
 50
253.12815699999999
 51
286.87184300000001
  0
LINE
  8
_0-1_LAY-1
  6
CONTINUOUS
 62
    2
 10
1202.0033965
 20
379.000001
 11
1240.5833965000002
 21
379.000001
  0
LINE
  8
_0-1_LAY-1
  6
CONTINUOUS
 62
    2
 10
1202.0033965
 20
367.000001
 11
1240.5833965000002
 21
367.000001
  0
ARC
  8
_0-1_LAY-1
  6
CONTINUOUS
 62
    2
 10
1221.2538264999998
 20
301.16567199999997
 40
77.834339
 50
81.778096000000005
 51
90.029128
  0
ARC
  8
_0-1_LAY-1
  6
CONTINUOUS
 62
    2
 10
1221.2538264999998
 20
444.83433000000002
 40
77.834339
 50
269.97087199999999
 51
278.22190399999999
  0
LINE
  8
_0-1_LAY-1
  6
CONTINUOUS
 62
    2
 10
1221.2933964999997
 20
379.000001
 11
1221.2142564999999
 21
379.000001
  0
LINE
  8
_0-1_LAY-1
  6
CONTINUOUS
 62
    2
 10
1221.2933964999997
 20
367.000001
 11
1221.2142564999999
 21
367.000001
  0
LINE
  8
_0-1_LAY-1
  6
CONTINUOUS
 62
    2
 10
1199.3937934999999
 20
373.000001
 11
1199.3937934999999
 21
378.20000099999999
  0
LINE
  8
_0-1_LAY-1
  6
CONTINUOUS
 62
    2
 10
1199.3937934999999
 20
378.20000099999999
 11
1202.0033965
 21
379.000001
  0
LINE
  8
_0-1_LAY-1
  6
CONTINUOUS
 62
    2
 10
1243.1929995
 20
373.000001
 11
1243.1929995
 21
378.20000099999999
  0
LINE
  8
_0-1_LAY-1
  6
CONTINUOUS
 62
    2
 10
1243.1929995
 20
378.20000099999999
 11
1240.5833965000002
 21
379.000001
  0
ARC
  8
_0-1_LAY-1
  6
CONTINUOUS
 62
    2
 10
1237.7888535000002
 20
360.38138300000003
 40
18.620094999999999
 50
73.128157000000002
 51
106.87184299999998
  0
LINE
  8
_0-1_LAY-1
  6
CONTINUOUS
 62
    2
 10
1199.3937934999999
 20
373.000001
 11
1199.3937934999999
 21
367.80000099999995
  0
LINE
  8
_0-1_LAY-1
  6
CONTINUOUS
 62
    2
 10
1199.3937934999999
 20
367.80000099999995
 11
1202.0033965
 21
367.000001
  0
LINE
  8
_0-1_LAY-1
  6
CONTINUOUS
 62
    2
 10
1243.1929995
 20
373.000001
 11
1243.1929995
 21
367.80000099999995
  0
LINE
  8
_0-1_LAY-1
  6
CONTINUOUS
 62
    2
 10
1243.1929995
 20
367.80000099999995
 11
1240.5833965000002
 21
367.000001
  0
ARC
  8
_0-1_LAY-1
  6
CONTINUOUS
 62
    2
 10
1237.7888535000002
 20
385.61861899999997
 40
18.620094999999999
 50
253.12815699999999
 51
286.87184300000001
  0
LINE
  8
_0-1_LAY-1
  6
CONTINUOUS
 62
    2
 10
1196.7067904999999
 20
387
 11
1242.2933964999997
 21
387
  0
LINE
  8
_0-1_LAY-1
  6
CONTINUOUS
 62
    2
 10
1238.0772944999999
 20
359.00000199999999
 11
1237.9703855000002
 21
358.89309199999997
  0
ARC
  8
_0-1_LAY-1
  6
CONTINUOUS
 62
    2
 10
1242.2933964999997
 20
503
 40
2
 50
0
 51
29.999999999999996
  0
ARC
  8
_0-1_LAY-1
  6
CONTINUOUS
 62
    2
 10
1200.2933964999997
 20
510
 40
5
 50
180
 51
216.86989800000001
  0
LINE
  8
_0-1_LAY-1
  6
CONTINUOUS
 62
    2
 10
1263.2933964999997
 20
466.79999999999995
 11
1271.6933965000001
 21
466.79999999999995
  0
LINE
  8
_0-1_LAY-1
  6
CONTINUOUS
 62
    2
 10
1257.2933964999997
 20
472.5
 11
1263.2933964999997
 21
472.5
  0
LINE
  8
_0-1_LAY-1
  6
CONTINUOUS
 62
    2
 10
1273.2933965
 20
464
 11
1273.2933965
 21
428
  0
LINE
  8
_0-1_LAY-1
  6
CONTINUOUS
 62
    2
 10
1273.2933965
 20
464
 11
1271.6933965000001
 21
466.79999999999995
  0
LINE
  8
_0-1_LAY-1
  6
CONTINUOUS
 62
    2
 10
1271.6933965000001
 20
425.19999999999993
 11
1273.2933965
 21
428
  0
LINE
  8
_0-1_LAY-1
  6
CONTINUOUS
 62
    2
 10
1271.6933965000001
 20
425.19999999999993
 11
1263.2933964999997
 21
425.19999999999993
  0
LINE
  8
_0-1_LAY-1
  6
CONTINUOUS
 62
    2
 10
1195.2933965
 20
535.866309
 11
1195.2933965
 21
510
  0
LINE
  8
_0-1_LAY-1
  6
CONTINUOUS
 62
    2
 10
1244.2933965000002
 20
503
 11
1244.2933965000002
 21
491.78209300000003
  0
LINE
  8
_0-1_LAY-1
  6
CONTINUOUS
 62
    2
 10
1253.4797844999998
 20
472.5
 11
1257.2933964999997
 21
472.5
  0
ARC
  8
_0-1_LAY-1
  6
CONTINUOUS
 62
    2
 10
1125.2933964999997
 20
446
 40
127
 50
13.806070999999999
 51
19.823671000000001
  0
ARC
  8
_0-1_LAY-1
  6
CONTINUOUS
 62
    2
 10
1252.2933965
 20
491.78209300000003
 40
8
 50
180
 51
199.82367099999996
  0
ARC
  8
_0-1_LAY-1
  6
CONTINUOUS
 62
    2
 10
1253.4797844999998
 20
477.5
 40
5
 50
193.806071
 51
270
  0
ARC
  8
_0-1_LAY-1
  6
CONTINUOUS
 62
    2
 10
1253.4797844999998
 20
414.5
 40
5
 50
90
 51
166.19392899999997
  0
ARC
  8
_0-1_LAY-1
  6
CONTINUOUS
 62
    2
 10
1252.2933965
 20
400.21790699999997
 40
8
 50
160.17632900000001
 51
180
  0
ARC
  8
_0-1_LAY-1
  6
CONTINUOUS
 62
    2
 10
1242.2933964999997
 20
389
 40
2
 50
270
 51
0
  0
ARC
  8
_0-1_LAY-1
  6
CONTINUOUS
 62
    2
 10
1125.2933964999997
 20
446
 40
127
 50
340.17632900000001
 51
346.19392900000003
  0
ARC
  8
_0-1_LAY-1
  6
CONTINUOUS
 62
    2
 10
1196.7067904999999
 20
382
 40
5
 50
90
 51
149.26867899999999
  0
LINE
  8
_0-1_LAY-1
  6
CONTINUOUS
 62
    2
 10
1244.2933965000002
 20
389
 11
1244.2933965000002
 21
400.21790699999997
  0
ARC
  8
_0-1_LAY-1
  6
CONTINUOUS
 62
    2
 10
648.91228449999994
 20
1043.7309760000003
 40
5
 50
334.08918600000004
 51
358.00000000000006
  0
ARC
  8
_0-1_LAY-1
  6
CONTINUOUS
 62
    2
 10
644.59753850000004
 20
1008.701624
 40
5
 50
275.750361
 51
358
  0
ARC
  8
_0-1_LAY-1
  6
CONTINUOUS
 62
    2
 10
717.98925450000002
 20
1008.701624
 40
5
 50
182
 51
264.249639
  0
LINE
  8
_0-1_LAY-1
  6
CONTINUOUS
 62
    2
 10
712.99230049999994
 20
1008.527127
 11
712.27451250000001
 21
1029.0818839999999
  0
LINE
  8
_0-1_LAY-1
  6
CONTINUOUS
 62
    2
 10
628.88646949999998
 20
1002.0942149999998
 11
645.09851049999997
 21
1003.7267850000001
  0
LINE
  8
_0-1_LAY-1
  6
CONTINUOUS
 62
    2
 10
733.70032349999997
 20
1002.0942149999998
 11
717.48828249999997
 21
1003.7267850000001
  0
LINE
  8
_0-1_LAY-1
  6
CONTINUOUS
 62
    2
 10
653.9092384999999
 20
1043.5564790000001
 11
654.62314250000009
 21
1064
  0
LINE
  8
_0-1_LAY-1
  6
CONTINUOUS
 62
    2
 10
708.71595049999996
 20
1042.4569549999999
 11
707.96365050000009
 21
1064
  0
LINE
  8
_0-1_LAY-1
  6
CONTINUOUS
 62
    2
 10
649.5944925
 20
1008.527127
 11
650.27450049999993
 21
1028
  0
LINE
  8
_0-1_LAY-1
  6
CONTINUOUS
 62
    2
 10
660.49339650000002
 20
1078.4000000000001
 11
660.49339650000002
 21
1070
  0
LINE
  8
_0-1_LAY-1
  6
CONTINUOUS
 62
    2
 10
660.49339650000002
 20
1078.4000000000001
 11
663.29339649999997
 21
1080
  0
LINE
  8
_0-1_LAY-1
  6
CONTINUOUS
 62
    2
 10
699.29339649999997
 20
1080
 11
702.09339650000004
 21
1078.4000000000001
  0
LINE
  8
_0-1_LAY-1
  6
CONTINUOUS
 62
    2
 10
699.29339649999997
 20
1080
 11
663.29339649999997
 21
1080
  0
LINE
  8
_0-1_LAY-1
  6
CONTINUOUS
 62
    2
 10
707.79339649999997
 20
1064
 11
707.79339649999997
 21
1070
  0
LINE
  8
_0-1_LAY-1
  6
CONTINUOUS
 62
    2
 10
702.09339650000004
 20
1070
 11
702.09339650000004
 21
1078.4000000000001
  0
LINE
  8
_0-1_LAY-1
  6
CONTINUOUS
 62
    2
 10
707.79339649999997
 20
1070
 11
654.79339649999997
 21
1070
  0
LINE
  8
_0-1_LAY-1
  6
CONTINUOUS
 62
    2
 10
654.79339649999997
 20
1064
 11
707.79339649999997
 21
1064
  0
LINE
  8
_0-1_LAY-1
  6
CONTINUOUS
 62
    2
 10
654.79339649999997
 20
1064
 11
654.79339649999997
 21
1070
  0
CIRCLE
  8
_0-1_LAY-1
  6
CONTINUOUS
 62
    2
 10
681.29339649999997
 20
1028
 40
12.5
  0
ARC
  8
_0-1_LAY-1
  6
CONTINUOUS
 62
    2
 10
681.29339649999997
 20
1028
 40
12
 50
90
 51
270
  0
ARC
  8
_0-1_LAY-1
  6
CONTINUOUS
 62
    2
 10
681.29339649999997
 20
1028
 40
12
 50
270
 51
90
  0
ARC
  8
_0-1_LAY-1
  6
CONTINUOUS
 62
    2
 10
648.91228449999994
 20
-151.73097600000006
 40
5
 50
2
 51
25.910813999999998
  0
ARC
  8
_0-1_LAY-1
  6
CONTINUOUS
 62
    2
 10
644.59753850000004
 20
-116.70162400000001
 40
5
 50
2
 51
84.249639000000016
  0
ARC
  8
_0-1_LAY-1
  6
CONTINUOUS
 62
    2
 10
717.98925450000002
 20
-116.70162400000001
 40
5
 50
95.750360999999984
 51
178
  0
LINE
  8
_0-1_LAY-1
  6
CONTINUOUS
 62
    2
 10
628.88646949999998
 20
-110.09421500000008
 11
645.09851049999997
 21
-111.72678500000004
  0
LINE
  8
_0-1_LAY-1
  6
CONTINUOUS
 62
    2
 10
733.70032349999997
 20
-110.09421500000008
 11
717.48828249999997
 21
-111.72678500000004
  0
LINE
  8
_0-1_LAY-1
  6
CONTINUOUS
 62
    2
 10
653.9092384999999
 20
-151.55647900000005
 11
654.62314250000009
 21
-172.00000000000003
  0
LINE
  8
_0-1_LAY-1
  6
CONTINUOUS
 62
    2
 10
708.71595049999996
 20
-150.45695500000002
 11
707.96365050000009
 21
-172.00000000000003
  0
LINE
  8
_0-1_LAY-1
  6
CONTINUOUS
 62
    2
 10
660.49339650000002
 20
-186.39999999999998
 11
660.49339650000002
 21
-178.00000000000003
  0
LINE
  8
_0-1_LAY-1
  6
CONTINUOUS
 62
    2
 10
660.49339650000002
 20
-186.39999999999998
 11
663.29339649999997
 21
-187.99999999999997
  0
LINE
  8
_0-1_LAY-1
  6
CONTINUOUS
 62
    2
 10
699.29339649999997
 20
-187.99999999999997
 11
702.09339650000004
 21
-186.39999999999998
  0
LINE
  8
_0-1_LAY-1
  6
CONTINUOUS
 62
    2
 10
699.29339649999997
 20
-187.99999999999997
 11
663.29339649999997
 21
-187.99999999999997
  0
LINE
  8
_0-1_LAY-1
  6
CONTINUOUS
 62
    2
 10
707.79339649999997
 20
-172.00000000000003
 11
707.79339649999997
 21
-178.00000000000003
  0
LINE
  8
_0-1_LAY-1
  6
CONTINUOUS
 62
    2
 10
702.09339650000004
 20
-178.00000000000003
 11
702.09339650000004
 21
-186.39999999999998
  0
LINE
  8
_0-1_LAY-1
  6
CONTINUOUS
 62
    2
 10
707.79339649999997
 20
-178.00000000000003
 11
654.79339649999997
 21
-178.00000000000003
  0
LINE
  8
_0-1_LAY-1
  6
CONTINUOUS
 62
    2
 10
654.79339649999997
 20
-172.00000000000003
 11
707.79339649999997
 21
-172.00000000000003
  0
LINE
  8
_0-1_LAY-1
  6
CONTINUOUS
 62
    2
 10
654.79339649999997
 20
-172.00000000000003
 11
654.79339649999997
 21
-178.00000000000003
  0
LINE
  8
_0-1_LAY-1
  6
CONTINUOUS
 62
    2
 10
771.29339649999997
 20
-84
 11
771.29339649999997
 21
-97.375436999999948
  0
LINE
  8
_0-1_LAY-1
  6
CONTINUOUS
 62
    2
 10
591.29339649999997
 20
-84
 11
591.29339649999997
 21
-97.375436999999948
  0
LINE
  8
_0-1_LAY-1
  6
CONTINUOUS
 62
    2
 10
771.29339649999997
 20
976.00000000000011
 11
771.29339649999997
 21
989.37543700000015
  0
LINE
  8
_0-1_LAY-1
  6
CONTINUOUS
 62
    2
 10
591.29339649999997
 20
976.00000000000011
 11
591.29339649999997
 21
989.37543700000015
  0
LINE
  8
_0-1_LAY-1
  6
CONTINUOUS
 62
    2
 10
771.29339649999997
 20
-97.375436999999948
 11
693.56339650000007
 21
-97.375436999999948
  0
LINE
  8
_0-1_LAY-1
  6
CONTINUOUS
 62
    2
 10
669.02339649999999
 20
-97.375436999999948
 11
591.29339649999997
 21
-97.375436999999948
  0
LINE
  8
_0-1_LAY-1
  6
CONTINUOUS
 62
    2
 10
697.08643949999998
 20
357.396502
 11
697.08643949999998
 21
239.00153599999999
  0
LINE
  8
_0-1_LAY-1
  6
CONTINUOUS
 62
    2
 10
1156.7003485
 20
535
 11
1156.7003485
 21
356
  0
LINE
  8
_0-1_LAY-1
  6
CONTINUOUS
 62
    2
 10
193.29339649999997
 20
356.16630900000001
 11
193.29339649999997
 21
535.866309
  0
ARC
  8
_0-1_LAY-1
  6
CONTINUOUS
 62
    2
 10
1145.2003485
 20
373.17157299999997
 40
2
 50
135
 51
180
  0
ARC
  8
_0-1_LAY-1
  6
CONTINUOUS
 62
    2
 10
1145.2003485
 20
378.82842700000003
 40
2
 50
315
 51
0
  0
LINE
  8
_0-1_LAY-1
  6
CONTINUOUS
 62
    2
 10
1143.7861345000001
 20
374.58578599999998
 11
1146.6145624999999
 21
377.41421400000002
  0
LINE
  8
_0-1_LAY-1
  6
CONTINUOUS
 62
    2
 10
1147.2003485
 20
378.97842700000001
 11
1147.2003485
 21
385.5
  0
ARC
  8
_0-1_LAY-1
  6
CONTINUOUS
 62
    2
 10
1145.2003485
 20
385.5
 40
2
 50
0
 51
90
  0
LINE
  8
_0-1_LAY-1
  6
CONTINUOUS
 62
    2
 10
1145.2003485
 20
387.5
 11
1144.2003485
 21
387.5
  0
ARC
  8
_0-1_LAY-1
  6
CONTINUOUS
 62
    2
 10
1144.2003485
 20
388.5
 40
1
 50
180
 51
270
  0
ARC
  8
_0-1_LAY-1
  6
CONTINUOUS
 62
    2
 10
1143.7003485
 20
356.5
 40
0.5
 50
180
 51
270
  0
LINE
  8
_0-1_LAY-1
  6
CONTINUOUS
 62
    2
 10
1143.2003485
 20
356.5
 11
1143.2003485
 21
373.17157299999997
  0
LINE
  8
_0-1_LAY-1
  6
CONTINUOUS
 62
    2
 10
1143.2003485
 20
388.5
 11
1143.2003485
 21
403.05309799999998
  0
LINE
  8
_0-1_LAY-1
  6
CONTINUOUS
 62
    2
 10
1151.2003485
 20
386.05634300000003
 11
1151.2003485
 21
407.82866199999995
  0
LINE
  8
_0-1_LAY-1
  6
CONTINUOUS
 62
    2
 10
1151.2003485
 20
422.83976899999993
 11
1151.2003485
 21
426
  0
LINE
  8
_0-1_LAY-1
  6
CONTINUOUS
 62
    2
 10
1151.2003485
 20
469.16023099999995
 11
1151.2003485
 21
466
  0
LINE
  8
_0-1_LAY-1
  6
CONTINUOUS
 62
    2
 10
1151.2003485
 20
505.94365700000003
 11
1151.2003485
 21
484.17133799999999
  0
ARC
  8
_0-1_LAY-1
  6
CONTINUOUS
 62
    2
 10
1154.7003485
 20
381.05634300000003
 40
2
 50
0
 51
90
  0
LINE
  8
_0-1_LAY-1
  6
CONTINUOUS
 62
    2
 10
1154.2003485
 20
383.05634299999997
 11
1154.7003485
 21
383.05634299999997
  0
ARC
  8
_0-1_LAY-1
  6
CONTINUOUS
 62
    2
 10
1154.2003485
 20
386.05634300000003
 40
3
 50
180
 51
270
  0
ARC
  8
_0-1_LAY-1
  6
CONTINUOUS
 62
    2
 10
1143.2003485
 20
395.05827299999999
 40
8
 50
0
 51
87.938877000000005
  0
LINE
  8
_0-1_LAY-1
  6
CONTINUOUS
 62
    2
 10
1145.0933964999999
 20
374.14999999999998
 11
1149.2003485
 21
374.14999999999998
  0
LINE
  8
_0-1_LAY-1
  6
CONTINUOUS
 62
    2
 10
1147.8933965000001
 20
375.91075899999998
 11
1149.2003485
 21
375.91075899999998
  0
LINE
  8
_0-1_LAY-1
  6
CONTINUOUS
 62
    2
 10
1149.1048734999999
 20
426
 11
1156.7003485
 21
426
  0
LINE
  8
_0-1_LAY-1
  6
CONTINUOUS
 62
    2
 10
1149.1048734999999
 20
466
 11
1156.7003485
 21
466
  0
LINE
  8
_0-1_LAY-1
  6
CONTINUOUS
 62
    2
 10
1149.1048734999999
 20
465.99999999835995
 11
1149.1048734999999
 21
465.99999999835995
  0
LINE
  8
_0-1_LAY-1
  6
CONTINUOUS
 62
    2
 10
1149.1048734999999
 20
465.99999999835995
 11
1148.5530682129095
 21
465.69615505862907
  0
LINE
  8
_0-1_LAY-1
  6
CONTINUOUS
 62
    2
 10
1148.5530682129095
 20
465.69615505862907
 11
1148.0180292502403
 21
464.79385241417702
  0
LINE
  8
_0-1_LAY-1
  6
CONTINUOUS
 62
    2
 10
1148.0180292502403
 20
464.79385241417702
 11
1147.5160135001302
 21
463.32050807426845
  0
LINE
  8
_0-1_LAY-1
  6
CONTINUOUS
 62
    2
 10
1147.5160135001302
 20
463.32050807426845
 11
1147.0622744571144
 21
461.32088886112319
  0
LINE
  8
_0-1_LAY-1
  6
CONTINUOUS
 62
    2
 10
1147.0622744571144
 20
461.32088886112319
 11
1146.6705987524115
 21
458.85575219267662
  0
LINE
  8
_0-1_LAY-1
  6
CONTINUOUS
 62
    2
 10
1146.6705987524115
 20
458.85575219267662
 11
1146.3528872541117
 21
455.99999999917998
  0
LINE
  8
_0-1_LAY-1
  6
CONTINUOUS
 62
    2
 10
1146.3528872541117
 20
455.99999999917998
 11
1146.118793465321
 21
452.84040286595246
  0
LINE
  8
_0-1_LAY-1
  6
CONTINUOUS
 62
    2
 10
1146.118793465321
 20
452.84040286595246
 11
1145.9754302073545
 21
449.47296355305383
  0
LINE
  8
_0-1_LAY-1
  6
CONTINUOUS
 62
    2
 10
1145.9754302073545
 20
449.47296355305383
 11
1145.9271535002606
 21
446
  0
LINE
  8
_0-1_LAY-1
  6
CONTINUOUS
 62
    2
 10
1145.9271535002606
 20
446
 11
1145.9754302073545
 21
442.52703644694617
  0
LINE
  8
_0-1_LAY-1
  6
CONTINUOUS
 62
    2
 10
1145.9754302073545
 20
442.52703644694617
 11
1146.118793465321
 21
439.15959713404754
  0
LINE
  8
_0-1_LAY-1
  6
CONTINUOUS
 62
    2
 10
1146.118793465321
 20
439.15959713404754
 11
1146.3528872541117
 21
436.00000000082002
  0
LINE
  8
_0-1_LAY-1
  6
CONTINUOUS
 62
    2
 10
1146.3528872541117
 20
436.00000000082002
 11
1146.6705987524115
 21
433.14424780732338
  0
LINE
  8
_0-1_LAY-1
  6
CONTINUOUS
 62
    2
 10
1146.6705987524115
 20
433.14424780732338
 11
1147.0622744571144
 21
430.67911113887681
  0
LINE
  8
_0-1_LAY-1
  6
CONTINUOUS
 62
    2
 10
1147.0622744571144
 20
430.67911113887681
 11
1147.5160135001302
 21
428.67949192573155
  0
LINE
  8
_0-1_LAY-1
  6
CONTINUOUS
 62
    2
 10
1147.5160135001302
 20
428.67949192573155
 11
1148.0180292502403
 21
427.20614758582298
  0
LINE
  8
_0-1_LAY-1
  6
CONTINUOUS
 62
    2
 10
1148.0180292502403
 20
427.20614758582298
 11
1148.5530682129095
 21
426.30384494137098
  0
LINE
  8
_0-1_LAY-1
  6
CONTINUOUS
 62
    2
 10
1148.5530682129095
 20
426.30384494137098
 11
1149.1048734999999
 21
426.00000000164005
  0
LINE
  8
_0-1_LAY-1
  6
CONTINUOUS
 62
    2
 10
1149.1048734999999
 20
426.00000000164005
 11
1149.6566787870904
 21
426.30384494137093
  0
LINE
  8
_0-1_LAY-1
  6
CONTINUOUS
 62
    2
 10
1149.6566787870904
 20
426.30384494137093
 11
1150.1917177497596
 21
427.20614758582292
  0
LINE
  8
_0-1_LAY-1
  6
CONTINUOUS
 62
    2
 10
1150.1917177497596
 20
427.20614758582292
 11
1150.6937334998697
 21
428.6794919257315
  0
LINE
  8
_0-1_LAY-1
  6
CONTINUOUS
 62
    2
 10
1150.6937334998697
 20
428.6794919257315
 11
1151.1474725428855
 21
430.67911113887675
  0
LINE
  8
_0-1_LAY-1
  6
CONTINUOUS
 62
    2
 10
1151.1474725428855
 20
430.67911113887675
 11
1151.5391482475884
 21
433.14424780732338
  0
LINE
  8
_0-1_LAY-1
  6
CONTINUOUS
 62
    2
 10
1151.5391482475884
 20
433.14424780732338
 11
1151.8568597458882
 21
436.00000000081997
  0
LINE
  8
_0-1_LAY-1
  6
CONTINUOUS
 62
    2
 10
1151.8568597458882
 20
436.00000000081997
 11
1152.0909535346789
 21
439.15959713404749
  0
LINE
  8
_0-1_LAY-1
  6
CONTINUOUS
 62
    2
 10
1152.0909535346789
 20
439.15959713404749
 11
1152.2343167926454
 21
442.52703644694611
  0
LINE
  8
_0-1_LAY-1
  6
CONTINUOUS
 62
    2
 10
1152.2343167926454
 20
442.52703644694611
 11
1152.2825934997393
 21
445.99999999999994
  0
LINE
  8
_0-1_LAY-1
  6
CONTINUOUS
 62
    2
 10
1152.2825934997393
 20
445.99999999999994
 11
1152.2343167926454
 21
449.47296355305377
  0
LINE
  8
_0-1_LAY-1
  6
CONTINUOUS
 62
    2
 10
1152.2343167926454
 20
449.47296355305377
 11
1152.0909535346789
 21
452.8404028659524
  0
LINE
  8
_0-1_LAY-1
  6
CONTINUOUS
 62
    2
 10
1152.0909535346789
 20
452.8404028659524
 11
1151.8568597458882
 21
455.99999999917992
  0
LINE
  8
_0-1_LAY-1
  6
CONTINUOUS
 62
    2
 10
1151.8568597458882
 20
455.99999999917992
 11
1151.5391482475884
 21
458.85575219267656
  0
LINE
  8
_0-1_LAY-1
  6
CONTINUOUS
 62
    2
 10
1151.5391482475884
 20
458.85575219267656
 11
1151.1474725428855
 21
461.32088886112319
  0
LINE
  8
_0-1_LAY-1
  6
CONTINUOUS
 62
    2
 10
1151.1474725428855
 20
461.32088886112319
 11
1150.6937334998697
 21
463.32050807426845
  0
LINE
  8
_0-1_LAY-1
  6
CONTINUOUS
 62
    2
 10
1150.6937334998697
 20
463.32050807426845
 11
1150.1917177497596
 21
464.79385241417702
  0
LINE
  8
_0-1_LAY-1
  6
CONTINUOUS
 62
    2
 10
1150.1917177497596
 20
464.79385241417702
 11
1149.6566787870904
 21
465.69615505862902
  0
LINE
  8
_0-1_LAY-1
  6
CONTINUOUS
 62
    2
 10
1149.6566787870904
 20
465.69615505862902
 11
1149.1048734999999
 21
465.99999999835995
  0
LINE
  8
_0-1_LAY-1
  6
CONTINUOUS
 62
    2
 10
1149.1048734999999
 20
465.99999999835995
 11
1149.1048734999999
 21
465.99999999835995
  0
LINE
  8
_0-1_LAY-1
  6
CONTINUOUS
 62
    2
 10
1155.2003485
 20
495.5
 11
1155.1134265000001
 21
495.5
  0
ARC
  8
_0-1_LAY-1
  6
CONTINUOUS
 62
    2
 10
1143.2003485
 20
496.94172700000001
 40
8
 50
272.06112300000001
 51
0
  0
ARC
  8
_0-1_LAY-1
  6
CONTINUOUS
 62
    2
 10
1154.7003485
 20
510.94365699999997
 40
2
 50
270
 51
0
  0
LINE
  8
_0-1_LAY-1
  6
CONTINUOUS
 62
    2
 10
1154.2003485
 20
508.94365700000003
 11
1154.7003485
 21
508.94365700000003
  0
ARC
  8
_0-1_LAY-1
  6
CONTINUOUS
 62
    2
 10
1154.2003485
 20
505.94365700000003
 40
3
 50
90
 51
180
  0
ARC
  8
_0-1_LAY-1
  6
CONTINUOUS
 62
    2
 10
1157.7003485
 20
535
 40
1
 50
90
 51
180
  0
LINE
  8
_0-1_LAY-1
  6
CONTINUOUS
 62
    2
 10
1193.7933965
 20
269.49999700000001
 11
1194.7933965000002
 21
269.49999700000001
  0
LINE
  8
_0-1_LAY-1
  6
CONTINUOUS
 62
    2
 10
1193.7933965
 20
305.5
 11
1194.7933965000002
 21
305.5
  0
LINE
  8
_0-1_LAY-1
  6
CONTINUOUS
 62
    2
 10
1194.2933964999997
 20
300.49999800000001
 11
1194.7933965000002
 21
300.49999800000001
  0
LINE
  8
_0-1_LAY-1
  6
CONTINUOUS
 62
    2
 10
1191.2933964999997
 20
274.49999800000001
 11
1194.7933965000002
 21
274.49999800000001
  0
LINE
  8
_0-1_LAY-1
  6
CONTINUOUS
 62
    2
 10
1191.2933964999997
 20
276.74999800000001
 11
1191.2933964999997
 21
274.49999800000001
  0
LINE
  8
_0-1_LAY-1
  6
CONTINUOUS
 62
    2
 10
1191.2933964999997
 20
274.49999800000001
 11
1194.7933965000002
 21
274.49999800000001
  0
LINE
  8
_0-1_LAY-1
  6
CONTINUOUS
 62
    2
 10
1191.2933964999997
 20
300.49999800000001
 11
1194.7933965000002
 21
300.49999800000001
  0
LINE
  8
_0-1_LAY-1
  6
CONTINUOUS
 62
    2
 10
1191.7933965000002
 20
300.49999800000001
 11
1194.7933965000002
 21
300.49999800000001
  0
ARC
  8
_0-1_LAY-1
  6
CONTINUOUS
 62
    2
 10
1180.7961004999997
 20
296.24999800000001
 40
3.52
 50
90
 51
180
  0
ARC
  8
_0-1_LAY-1
  6
CONTINUOUS
 62
    2
 10
1180.7961004999997
 20
278.74999800000001
 40
3.52
 50
180
 51
270
  0
LINE
  8
_0-1_LAY-1
  6
CONTINUOUS
 62
    2
 10
1175.9872155
 20
287.49999800000001
 11
1177.2761005
 21
285.50222699999995
  0
LINE
  8
_0-1_LAY-1
  6
CONTINUOUS
 62
    2
 10
1175.9872155
 20
287.49999800000001
 11
1177.2761005
 21
289.49777
  0
LINE
  8
_0-1_LAY-1
  6
CONTINUOUS
 62
    2
 10
1191.2933964999997
 20
275.22999800000002
 11
1180.7961004999997
 21
275.22999800000002
  0
LINE
  8
_0-1_LAY-1
  6
CONTINUOUS
 62
    2
 10
1194.7933965000002
 20
305.5
 11
1194.7933965000002
 21
269.49999700000001
  0
LINE
  8
_0-1_LAY-1
  6
CONTINUOUS
 62
    2
 10
1191.2933964999997
 20
299.76999799999999
 11
1180.7961004999997
 21
299.76999799999999
  0
LINE
  8
_0-1_LAY-1
  6
CONTINUOUS
 62
    2
 10
1191.2933964999997
 20
300.49999800000001
 11
1191.2933964999997
 21
274.49999800000001
  0
LINE
  8
_0-1_LAY-1
  6
CONTINUOUS
 62
    2
 10
1177.2761005
 20
278.74999800000001
 11
1177.2761005
 21
287.49999800000001
  0
LINE
  8
_0-1_LAY-1
  6
CONTINUOUS
 62
    2
 10
1177.2761005
 20
296.24999800000001
 11
1177.2761005
 21
287.49999800000001
  0
LINE
  8
_0-1_LAY-1
  6
CONTINUOUS
 62
    2
 10
1251.7933965000002
 20
342.73205100000001
 11
1251.7045484999999
 21
342.73205100000001
  0
LINE
  8
_0-1_LAY-1
  6
CONTINUOUS
 62
    2
 10
1191.2933964999997
 20
280.10000000000002
 11
1194.7933965000002
 21
280.10000000000002
  0
LINE
  8
_0-1_LAY-1
  6
CONTINUOUS
 62
    2
 10
1191.2933964999997
 20
295.09746500000006
 11
1194.7933965000002
 21
295.09746500000006
  0
LINE
  8
_0-1_LAY-1
  6
CONTINUOUS
 62
    2
 10
1245.4266765
 20
244
 11
1197.1601165000002
 21
244
  0
LINE
  8
_0-1_LAY-1
  6
CONTINUOUS
 62
    2
 10
1193.7933994999999
 20
245.94377700000001
 11
1193.7933994999999
 21
269.49999700000001
  0
LINE
  8
_0-1_LAY-1
  6
CONTINUOUS
 62
    2
 10
1193.7933994999999
 20
305.5
 11
1193.7933994999999
 21
329.05622499999998
  0
LINE
  8
_0-1_LAY-1
  6
CONTINUOUS
 62
    2
 10
1248.7933965000002
 20
245.94377700000001
 11
1248.7933965000002
 21
329.05622299999999
  0
LINE
  8
_0-1_LAY-1
  6
CONTINUOUS
 62
    2
 10
1245.4266765
 20
331
 11
1197.1601165000002
 21
331
  0
LINE
  8
_0-1_LAY-1
  6
CONTINUOUS
 62
    2
 10
1245.4266765
 20
359
 11
1197.1601165000002
 21
359
  0
LINE
  8
_0-1_LAY-1
  6
CONTINUOUS
 62
    2
 10
1193.7933994999999
 20
332.94377499999996
 11
1193.7933994999999
 21
357.05622500000004
  0
LINE
  8
_0-1_LAY-1
  6
CONTINUOUS
 62
    2
 10
1248.7933965000002
 20
332.94377699999995
 11
1248.7933965000002
 21
357.05622300000005
  0
LINE
  8
_0-1_LAY-1
  6
CONTINUOUS
 62
    2
 10
1245.4266765
 20
244
 11
1248.7933965000002
 21
245.94377700000001
  0
LINE
  8
_0-1_LAY-1
  6
CONTINUOUS
 62
    2
 10
1245.4266765
 20
330.41739199999995
 11
1245.4266765
 21
244.58260799999999
  0
LINE
  8
_0-1_LAY-1
  6
CONTINUOUS
 62
    2
 10
1224.6601189844248
 20
245.94377700000001
 11
1224.6601189844248
 21
245.94377700000001
  0
LINE
  8
_0-1_LAY-1
  6
CONTINUOUS
 62
    2
 10
1224.6601189844248
 20
245.94377700000001
 11
1224.8434383370659
 21
245.60267710323183
  0
LINE
  8
_0-1_LAY-1
  6
CONTINUOUS
 62
    2
 10
1224.8434383370659
 20
245.60267710323183
 11
1225.3878263292229
 21
245.27194135422207
  0
LINE
  8
_0-1_LAY-1
  6
CONTINUOUS
 62
    2
 10
1225.3878263292229
 20
245.27194135422207
 11
1226.2767420072282
 21
244.96161899134404
  0
LINE
  8
_0-1_LAY-1
  6
CONTINUOUS
 62
    2
 10
1226.2767420072282
 20
244.96161899134404
 11
1227.4831761180183
 21
244.6811390025631
  0
LINE
  8
_0-1_LAY-1
  6
CONTINUOUS
 62
    2
 10
1227.4831761180183
 20
244.6811390025631
 11
1228.9704717716218
 21
244.4390236304086
  0
LINE
  8
_0-1_LAY-1
  6
CONTINUOUS
 62
    2
 10
1228.9704717716218
 20
244.4390236304086
 11
1230.6934382422123
 21
244.24262942794721
  0
LINE
  8
_0-1_LAY-1
  6
CONTINUOUS
 62
    2
 10
1230.6934382422123
 20
244.24262942794721
 11
1232.5997240654438
 21
244.09792373364041
  0
LINE
  8
_0-1_LAY-1
  6
CONTINUOUS
 62
    2
 10
1232.5997240654438
 20
244.09792373364041
 11
1234.6314077112047
 21
244.00930335678515
  0
LINE
  8
_0-1_LAY-1
  6
CONTINUOUS
 62
    2
 10
1234.6314077112047
 20
244.00930335678515
 11
1236.7267574999998
 21
243.97946098268807
  0
LINE
  8
_0-1_LAY-1
  6
CONTINUOUS
 62
    2
 10
1236.7267574999998
 20
243.97946098268807
 11
1238.822107288795
 21
244.00930335678515
  0
LINE
  8
_0-1_LAY-1
  6
CONTINUOUS
 62
    2
 10
1238.822107288795
 20
244.00930335678515
 11
1240.8537909345559
 21
244.09792373364041
  0
LINE
  8
_0-1_LAY-1
  6
CONTINUOUS
 62
    2
 10
1240.8537909345559
 20
244.09792373364041
 11
1242.7600767577874
 21
244.24262942794721
  0
LINE
  8
_0-1_LAY-1
  6
CONTINUOUS
 62
    2
 10
1242.7600767577874
 20
244.24262942794721
 11
1244.4830432283779
 21
244.4390236304086
  0
LINE
  8
_0-1_LAY-1
  6
CONTINUOUS
 62
    2
 10
1244.4830432283779
 20
244.4390236304086
 11
1245.9703388819814
 21
244.6811390025631
  0
LINE
  8
_0-1_LAY-1
  6
CONTINUOUS
 62
    2
 10
1245.9703388819814
 20
244.6811390025631
 11
1247.0160699929334
 21
244.91764039629382
  0
LINE
  8
_0-1_LAY-1
  6
CONTINUOUS
 62
    2
 10
1224.6601165
 20
329.05622299999999
 11
1224.6601165
 21
245.94377700000001
  0
LINE
  8
_0-1_LAY-1
  6
CONTINUOUS
 62
    2
 10
1224.6601165
 20
245.94377700000001
 11
1217.9266765000002
 21
245.94377700000001
  0
LINE
  8
_0-1_LAY-1
  6
CONTINUOUS
 62
    2
 10
1217.9266765000002
 20
329.05622299999999
 11
1217.9266765000002
 21
245.94377700000001
  0
LINE
  8
_0-1_LAY-1
  6
CONTINUOUS
 62
    2
 10
1195.5707250070827
 20
244.91764039628947
 11
1195.5707250070827
 21
244.91764039628947
  0
LINE
  8
_0-1_LAY-1
  6
CONTINUOUS
 62
    2
 10
1195.5707250070827
 20
244.91764039628947
 11
1196.8216299566018
 21
244.64237129570699
  0
LINE
  8
_0-1_LAY-1
  6
CONTINUOUS
 62
    2
 10
1196.8216299566018
 20
244.64237129570699
 11
1198.3471623456724
 21
244.40664474890642
  0
LINE
  8
_0-1_LAY-1
  6
CONTINUOUS
 62
    2
 10
1198.3471623456724
 20
244.40664474890642
 11
1200.1009696446085
 21
244.21762318772886
  0
LINE
  8
_0-1_LAY-1
  6
CONTINUOUS
 62
    2
 10
1200.1009696446085
 20
244.21762318772886
 11
1202.029763306102
 21
244.08104993666117
  0
LINE
  8
_0-1_LAY-1
  6
CONTINUOUS
 62
    2
 10
1202.029763306102
 20
244.08104993666117
 11
1204.0749379107649
 21
244.00107470482769
  0
LINE
  8
_0-1_LAY-1
  6
CONTINUOUS
 62
    2
 10
1204.0749379107649
 20
244.00107470482769
 11
1206.1743518631426
 21
243.9801274991782
  0
LINE
  8
_0-1_LAY-1
  6
CONTINUOUS
 62
    2
 10
1206.1743518631426
 20
243.9801274991782
 11
1208.2642155326471
 21
244.0188447899566
  0
LINE
  8
_0-1_LAY-1
  6
CONTINUOUS
 62
    2
 10
1208.2642155326471
 20
244.0188447899566
 11
1210.2810294692024
 21
244.11605017187446
  0
LINE
  8
_0-1_LAY-1
  6
CONTINUOUS
 62
    2
 10
1210.2810294692024
 20
244.11605017187446
 11
1212.163513801903
 21
244.26879010859051
  0
LINE
  8
_0-1_LAY-1
  6
CONTINUOUS
 62
    2
 10
1212.163513801903
 20
244.26879010859051
 11
1213.8544701968835
 21
244.4724236744178
  0
LINE
  8
_0-1_LAY-1
  6
CONTINUOUS
 62
    2
 10
1213.8544701968835
 20
244.4724236744178
 11
1215.3025197997474
 21
244.72076356650217
  0
LINE
  8
_0-1_LAY-1
  6
CONTINUOUS
 62
    2
 10
1215.3025197997474
 20
244.72076356650217
 11
1216.4636643560598
 21
245.00626410288874
  0
LINE
  8
_0-1_LAY-1
  6
CONTINUOUS
 62
    2
 10
1216.4636643560598
 20
245.00626410288874
 11
1217.3026230760452
 21
245.32025049424959
  0
LINE
  8
_0-1_LAY-1
  6
CONTINUOUS
 62
    2
 10
1217.3026230760452
 20
245.32025049424959
 11
1217.7939046235299
 21
245.65318242296806
  0
LINE
  8
_0-1_LAY-1
  6
CONTINUOUS
 62
    2
 10
1217.7939046235299
 20
245.65318242296806
 11
1217.9266760155749
 21
245.94377700000001
  0
LINE
  8
_0-1_LAY-1
  6
CONTINUOUS
 62
    2
 10
1193.7933994999999
 20
245.94377700000001
 11
1197.1601195000001
 21
244
  0
LINE
  8
_0-1_LAY-1
  6
CONTINUOUS
 62
    2
 10
1197.1601165000002
 20
330.41739199999995
 11
1197.1601165000002
 21
244.58260799999999
  0
LINE
  8
_0-1_LAY-1
  6
CONTINUOUS
 62
    2
 10
1197.1601165000002
 20
331
 11
1193.7933994999999
 21
332.94377499999996
  0
LINE
  8
_0-1_LAY-1
  6
CONTINUOUS
 62
    2
 10
1195.5707250070827
 20
331.91764039628941
 11
1195.5707250070827
 21
331.91764039628941
  0
LINE
  8
_0-1_LAY-1
  6
CONTINUOUS
 62
    2
 10
1195.5707250070827
 20
331.91764039628941
 11
1196.8216299566018
 21
331.64237129570694
  0
LINE
  8
_0-1_LAY-1
  6
CONTINUOUS
 62
    2
 10
1196.8216299566018
 20
331.64237129570694
 11
1198.3471623456724
 21
331.40664474890639
  0
LINE
  8
_0-1_LAY-1
  6
CONTINUOUS
 62
    2
 10
1198.3471623456724
 20
331.40664474890639
 11
1200.1009696446085
 21
331.2176231877288
  0
LINE
  8
_0-1_LAY-1
  6
CONTINUOUS
 62
    2
 10
1200.1009696446085
 20
331.2176231877288
 11
1202.029763306102
 21
331.08104993666115
  0
LINE
  8
_0-1_LAY-1
  6
CONTINUOUS
 62
    2
 10
1202.029763306102
 20
331.08104993666115
 11
1204.0749379107649
 21
331.0010747048276
  0
LINE
  8
_0-1_LAY-1
  6
CONTINUOUS
 62
    2
 10
1204.0749379107649
 20
331.0010747048276
 11
1206.1743518631426
 21
330.98012749917814
  0
LINE
  8
_0-1_LAY-1
  6
CONTINUOUS
 62
    2
 10
1206.1743518631426
 20
330.98012749917814
 11
1208.2642155326471
 21
331.01884478995652
  0
LINE
  8
_0-1_LAY-1
  6
CONTINUOUS
 62
    2
 10
1208.2642155326471
 20
331.01884478995652
 11
1210.2810294692024
 21
331.11605017187441
  0
LINE
  8
_0-1_LAY-1
  6
CONTINUOUS
 62
    2
 10
1210.2810294692024
 20
331.11605017187441
 11
1212.163513801903
 21
331.26879010859045
  0
LINE
  8
_0-1_LAY-1
  6
CONTINUOUS
 62
    2
 10
1212.163513801903
 20
331.26879010859045
 11
1213.8544701968835
 21
331.47242367441771
  0
LINE
  8
_0-1_LAY-1
  6
CONTINUOUS
 62
    2
 10
1213.8544701968835
 20
331.47242367441771
 11
1215.3025197997474
 21
331.72076356650211
  0
LINE
  8
_0-1_LAY-1
  6
CONTINUOUS
 62
    2
 10
1215.3025197997474
 20
331.72076356650211
 11
1216.4636643560598
 21
332.00626410288868
  0
LINE
  8
_0-1_LAY-1
  6
CONTINUOUS
 62
    2
 10
1216.4636643560598
 20
332.00626410288868
 11
1217.3026230760452
 21
332.32025049424954
  0
LINE
  8
_0-1_LAY-1
  6
CONTINUOUS
 62
    2
 10
1217.3026230760452
 20
332.32025049424954
 11
1217.7939046235299
 21
332.65318242296797
  0
LINE
  8
_0-1_LAY-1
  6
CONTINUOUS
 62
    2
 10
1217.7939046235299
 20
332.65318242296797
 11
1217.9266760155749
 21
332.94377699999995
  0
LINE
  8
_0-1_LAY-1
  6
CONTINUOUS
 62
    2
 10
1217.9266760155749
 20
329.05622299999999
 11
1217.9266760155749
 21
329.05622299999999
  0
LINE
  8
_0-1_LAY-1
  6
CONTINUOUS
 62
    2
 10
1217.9266760155749
 20
329.05622299999999
 11
1217.7433566629338
 21
329.39732289676817
  0
LINE
  8
_0-1_LAY-1
  6
CONTINUOUS
 62
    2
 10
1217.7433566629338
 20
329.39732289676817
 11
1217.1989686707768
 21
329.72805864577793
  0
LINE
  8
_0-1_LAY-1
  6
CONTINUOUS
 62
    2
 10
1217.1989686707768
 20
329.72805864577793
 11
1216.3100529927715
 21
330.03838100865596
  0
LINE
  8
_0-1_LAY-1
  6
CONTINUOUS
 62
    2
 10
1216.3100529927715
 20
330.03838100865596
 11
1215.1036188819814
 21
330.3188609974369
  0
LINE
  8
_0-1_LAY-1
  6
CONTINUOUS
 62
    2
 10
1215.1036188819814
 20
330.3188609974369
 11
1213.616323228378
 21
330.5609763695914
  0
LINE
  8
_0-1_LAY-1
  6
CONTINUOUS
 62
    2
 10
1213.616323228378
 20
330.5609763695914
 11
1211.8933567577874
 21
330.75737057205282
  0
LINE
  8
_0-1_LAY-1
  6
CONTINUOUS
 62
    2
 10
1211.8933567577874
 20
330.75737057205282
 11
1209.987070934556
 21
330.90207626635959
  0
LINE
  8
_0-1_LAY-1
  6
CONTINUOUS
 62
    2
 10
1209.987070934556
 20
330.90207626635959
 11
1207.955387288795
 21
330.99069664321485
  0
LINE
  8
_0-1_LAY-1
  6
CONTINUOUS
 62
    2
 10
1207.955387288795
 20
330.99069664321485
 11
1205.8600374999999
 21
331.02053901731193
  0
LINE
  8
_0-1_LAY-1
  6
CONTINUOUS
 62
    2
 10
1205.8600374999999
 20
331.02053901731193
 11
1203.7646877112047
 21
330.99069664321485
  0
LINE
  8
_0-1_LAY-1
  6
CONTINUOUS
 62
    2
 10
1203.7646877112047
 20
330.99069664321485
 11
1201.7330040654438
 21
330.90207626635959
  0
LINE
  8
_0-1_LAY-1
  6
CONTINUOUS
 62
    2
 10
1201.7330040654438
 20
330.90207626635959
 11
1199.8267182422123
 21
330.75737057205282
  0
LINE
  8
_0-1_LAY-1
  6
CONTINUOUS
 62
    2
 10
1199.8267182422123
 20
330.75737057205282
 11
1198.103751771622
 21
330.5609763695914
  0
LINE
  8
_0-1_LAY-1
  6
CONTINUOUS
 62
    2
 10
1198.103751771622
 20
330.5609763695914
 11
1196.6164561180183
 21
330.3188609974369
  0
LINE
  8
_0-1_LAY-1
  6
CONTINUOUS
 62
    2
 10
1196.6164561180183
 20
330.3188609974369
 11
1195.5707250070825
 21
330.08235960371053
  0
LINE
  8
_0-1_LAY-1
  6
CONTINUOUS
 62
    2
 10
1197.1601165000002
 20
331
 11
1193.7933994999999
 21
329.05622499999998
  0
LINE
  8
_0-1_LAY-1
  6
CONTINUOUS
 62
    2
 10
1224.6601165
 20
329.05622299999999
 11
1217.9266765000002
 21
329.05622299999999
  0
LINE
  8
_0-1_LAY-1
  6
CONTINUOUS
 62
    2
 10
1224.6601165
 20
332.94377699999995
 11
1217.9266765000002
 21
332.94377699999995
  0
LINE
  8
_0-1_LAY-1
  6
CONTINUOUS
 62
    2
 10
1224.6601189844248
 20
332.94377699999995
 11
1224.6601189844248
 21
332.94377699999995
  0
LINE
  8
_0-1_LAY-1
  6
CONTINUOUS
 62
    2
 10
1224.6601189844248
 20
332.94377699999995
 11
1224.8434383370659
 21
332.60267710323177
  0
LINE
  8
_0-1_LAY-1
  6
CONTINUOUS
 62
    2
 10
1224.8434383370659
 20
332.60267710323177
 11
1225.3878263292229
 21
332.27194135422201
  0
LINE
  8
_0-1_LAY-1
  6
CONTINUOUS
 62
    2
 10
1225.3878263292229
 20
332.27194135422201
 11
1226.2767420072282
 21
331.96161899134398
  0
LINE
  8
_0-1_LAY-1
  6
CONTINUOUS
 62
    2
 10
1226.2767420072282
 20
331.96161899134398
 11
1227.4831761180183
 21
331.68113900256304
  0
LINE
  8
_0-1_LAY-1
  6
CONTINUOUS
 62
    2
 10
1227.4831761180183
 20
331.68113900256304
 11
1228.9704717716218
 21
331.43902363040854
  0
LINE
  8
_0-1_LAY-1
  6
CONTINUOUS
 62
    2
 10
1228.9704717716218
 20
331.43902363040854
 11
1230.6934382422123
 21
331.24262942794712
  0
LINE
  8
_0-1_LAY-1
  6
CONTINUOUS
 62
    2
 10
1230.6934382422123
 20
331.24262942794712
 11
1232.5997240654438
 21
331.09792373364036
  0
LINE
  8
_0-1_LAY-1
  6
CONTINUOUS
 62
    2
 10
1232.5997240654438
 20
331.09792373364036
 11
1234.6314077112047
 21
331.0093033567851
  0
LINE
  8
_0-1_LAY-1
  6
CONTINUOUS
 62
    2
 10
1234.6314077112047
 20
331.0093033567851
 11
1236.7267574999998
 21
330.97946098268801
  0
LINE
  8
_0-1_LAY-1
  6
CONTINUOUS
 62
    2
 10
1236.7267574999998
 20
330.97946098268801
 11
1238.822107288795
 21
331.0093033567851
  0
LINE
  8
_0-1_LAY-1
  6
CONTINUOUS
 62
    2
 10
1238.822107288795
 20
331.0093033567851
 11
1240.8537909345559
 21
331.09792373364036
  0
LINE
  8
_0-1_LAY-1
  6
CONTINUOUS
 62
    2
 10
1240.8537909345559
 20
331.09792373364036
 11
1242.7600767577874
 21
331.24262942794712
  0
LINE
  8
_0-1_LAY-1
  6
CONTINUOUS
 62
    2
 10
1242.7600767577874
 20
331.24262942794712
 11
1244.4830432283779
 21
331.43902363040854
  0
LINE
  8
_0-1_LAY-1
  6
CONTINUOUS
 62
    2
 10
1244.4830432283779
 20
331.43902363040854
 11
1245.9703388819814
 21
331.68113900256304
  0
LINE
  8
_0-1_LAY-1
  6
CONTINUOUS
 62
    2
 10
1245.9703388819814
 20
331.68113900256304
 11
1247.0160699929334
 21
331.91764039629379
  0
LINE
  8
_0-1_LAY-1
  6
CONTINUOUS
 62
    2
 10
1247.0160699929334
 20
330.08235960370621
 11
1247.0160699929334
 21
330.08235960370621
  0
LINE
  8
_0-1_LAY-1
  6
CONTINUOUS
 62
    2
 10
1247.0160699929334
 20
330.08235960370621
 11
1247.9543393889937
 21
329.77591186166978
  0
LINE
  8
_0-1_LAY-1
  6
CONTINUOUS
 62
    2
 10
1247.9543393889937
 20
329.77591186166978
 11
1248.5514643907875
 21
329.44759673775161
  0
LINE
  8
_0-1_LAY-1
  6
CONTINUOUS
 62
    2
 10
1248.5514643907875
 20
329.44759673775161
 11
1248.7893016572953
 21
329.10738992085658
  0
LINE
  8
_0-1_LAY-1
  6
CONTINUOUS
 62
    2
 10
1248.7893016572953
 20
329.10738992085658
 11
1248.6606246235253
 21
328.765628422963
  0
LINE
  8
_0-1_LAY-1
  6
CONTINUOUS
 62
    2
 10
1248.6606246235253
 20
328.765628422963
 11
1248.1693430760351
 21
328.43269649424474
  0
LINE
  8
_0-1_LAY-1
  6
CONTINUOUS
 62
    2
 10
1248.1693430760351
 20
328.43269649424474
 11
1247.330384356045
 21
328.11871010288428
  0
LINE
  8
_0-1_LAY-1
  6
CONTINUOUS
 62
    2
 10
1247.330384356045
 20
328.11871010288428
 11
1246.1692397997278
 21
327.83320956649817
  0
LINE
  8
_0-1_LAY-1
  6
CONTINUOUS
 62
    2
 10
1246.1692397997278
 20
327.83320956649817
 11
1244.7211901968603
 21
327.58486967441439
  0
LINE
  8
_0-1_LAY-1
  6
CONTINUOUS
 62
    2
 10
1244.7211901968603
 20
327.58486967441439
 11
1243.0302338018766
 21
327.38123610858787
  0
LINE
  8
_0-1_LAY-1
  6
CONTINUOUS
 62
    2
 10
1243.0302338018766
 20
327.38123610858787
 11
1241.1477494691733
 21
327.22849617187256
  0
LINE
  8
_0-1_LAY-1
  6
CONTINUOUS
 62
    2
 10
1241.1477494691733
 20
327.22849617187256
 11
1239.1309355326166
 21
327.13129078995559
  0
LINE
  8
_0-1_LAY-1
  6
CONTINUOUS
 62
    2
 10
1239.1309355326166
 20
327.13129078995559
 11
1237.0410718631115
 21
327.09257349917806
  0
LINE
  8
_0-1_LAY-1
  6
CONTINUOUS
 62
    2
 10
1237.0410718631115
 20
327.09257349917806
 11
1234.9416579107342
 21
327.11352070482843
  0
LINE
  8
_0-1_LAY-1
  6
CONTINUOUS
 62
    2
 10
1234.9416579107342
 20
327.11352070482843
 11
1232.8964833060727
 21
327.19349593666277
  0
LINE
  8
_0-1_LAY-1
  6
CONTINUOUS
 62
    2
 10
1232.8964833060727
 20
327.19349593666277
 11
1230.9676896445812
 21
327.33006918773123
  0
LINE
  8
_0-1_LAY-1
  6
CONTINUOUS
 62
    2
 10
1230.9676896445812
 20
327.33006918773123
 11
1229.2138823456478
 21
327.51909074890955
  0
LINE
  8
_0-1_LAY-1
  6
CONTINUOUS
 62
    2
 10
1229.2138823456478
 20
327.51909074890955
 11
1227.6883499565813
 21
327.75481729571078
  0
LINE
  8
_0-1_LAY-1
  6
CONTINUOUS
 62
    2
 10
1227.6883499565813
 20
327.75481729571078
 11
1226.4374450070663
 21
328.03008639629377
  0
LINE
  8
_0-1_LAY-1
  6
CONTINUOUS
 62
    2
 10
1226.4374450070663
 20
328.03008639629377
 11
1225.499175611006
 21
328.33653413833019
  0
LINE
  8
_0-1_LAY-1
  6
CONTINUOUS
 62
    2
 10
1225.499175611006
 20
328.33653413833019
 11
1224.9020506092122
 21
328.66484926224837
  0
LINE
  8
_0-1_LAY-1
  6
CONTINUOUS
 62
    2
 10
1224.9020506092122
 20
328.66484926224837
 11
1224.6642133427044
 21
329.0050560791434
  0
LINE
  8
_0-1_LAY-1
  6
CONTINUOUS
 62
    2
 10
1224.6642133427044
 20
329.0050560791434
 11
1224.6601189844248
 21
329.05622299999999
  0
LINE
  8
_0-1_LAY-1
  6
CONTINUOUS
 62
    2
 10
1245.4266765
 20
331
 11
1248.7933965000002
 21
329.05622299999999
  0
LINE
  8
_0-1_LAY-1
  6
CONTINUOUS
 62
    2
 10
1245.4266765
 20
331
 11
1248.7933965000002
 21
332.94377699999995
  0
LINE
  8
_0-1_LAY-1
  6
CONTINUOUS
 62
    2
 10
1245.4266765
 20
358.41739200000001
 11
1245.4266765
 21
331.58260799999999
  0
LINE
  8
_0-1_LAY-1
  6
CONTINUOUS
 62
    2
 10
1224.6601165
 20
357.05622300000005
 11
1224.6601165
 21
332.94377699999995
  0
LINE
  8
_0-1_LAY-1
  6
CONTINUOUS
 62
    2
 10
1217.9266765000002
 20
357.05622300000005
 11
1217.9266765000002
 21
332.94377699999995
  0
LINE
  8
_0-1_LAY-1
  6
CONTINUOUS
 62
    2
 10
1224.6601165
 20
357.05622300000005
 11
1217.9266765000002
 21
357.05622300000005
  0
LINE
  8
_0-1_LAY-1
  6
CONTINUOUS
 62
    2
 10
1247.0160699929334
 20
358.08235960370627
 11
1247.0160699929334
 21
358.08235960370627
  0
LINE
  8
_0-1_LAY-1
  6
CONTINUOUS
 62
    2
 10
1247.0160699929334
 20
358.08235960370627
 11
1247.9543393889937
 21
357.77591186166984
  0
LINE
  8
_0-1_LAY-1
  6
CONTINUOUS
 62
    2
 10
1247.9543393889937
 20
357.77591186166984
 11
1248.5514643907875
 21
357.44759673775167
  0
LINE
  8
_0-1_LAY-1
  6
CONTINUOUS
 62
    2
 10
1248.5514643907875
 20
357.44759673775167
 11
1248.7893016572953
 21
357.10738992085663
  0
LINE
  8
_0-1_LAY-1
  6
CONTINUOUS
 62
    2
 10
1248.7893016572953
 20
357.10738992085663
 11
1248.6606246235253
 21
356.76562842296306
  0
LINE
  8
_0-1_LAY-1
  6
CONTINUOUS
 62
    2
 10
1248.6606246235253
 20
356.76562842296306
 11
1248.1693430760351
 21
356.43269649424479
  0
LINE
  8
_0-1_LAY-1
  6
CONTINUOUS
 62
    2
 10
1248.1693430760351
 20
356.43269649424479
 11
1247.330384356045
 21
356.11871010288434
  0
LINE
  8
_0-1_LAY-1
  6
CONTINUOUS
 62
    2
 10
1247.330384356045
 20
356.11871010288434
 11
1246.1692397997278
 21
355.83320956649823
  0
LINE
  8
_0-1_LAY-1
  6
CONTINUOUS
 62
    2
 10
1246.1692397997278
 20
355.83320956649823
 11
1244.7211901968603
 21
355.58486967441445
  0
LINE
  8
_0-1_LAY-1
  6
CONTINUOUS
 62
    2
 10
1244.7211901968603
 20
355.58486967441445
 11
1243.0302338018766
 21
355.38123610858793
  0
LINE
  8
_0-1_LAY-1
  6
CONTINUOUS
 62
    2
 10
1243.0302338018766
 20
355.38123610858793
 11
1241.1477494691733
 21
355.22849617187262
  0
LINE
  8
_0-1_LAY-1
  6
CONTINUOUS
 62
    2
 10
1241.1477494691733
 20
355.22849617187262
 11
1239.1309355326166
 21
355.13129078995564
  0
LINE
  8
_0-1_LAY-1
  6
CONTINUOUS
 62
    2
 10
1239.1309355326166
 20
355.13129078995564
 11
1237.0410718631115
 21
355.09257349917812
  0
LINE
  8
_0-1_LAY-1
  6
CONTINUOUS
 62
    2
 10
1237.0410718631115
 20
355.09257349917812
 11
1234.9416579107342
 21
355.11352070482849
  0
LINE
  8
_0-1_LAY-1
  6
CONTINUOUS
 62
    2
 10
1234.9416579107342
 20
355.11352070482849
 11
1232.8964833060727
 21
355.19349593666283
  0
LINE
  8
_0-1_LAY-1
  6
CONTINUOUS
 62
    2
 10
1232.8964833060727
 20
355.19349593666283
 11
1230.9676896445812
 21
355.33006918773128
  0
LINE
  8
_0-1_LAY-1
  6
CONTINUOUS
 62
    2
 10
1230.9676896445812
 20
355.33006918773128
 11
1229.2138823456478
 21
355.5190907489096
  0
LINE
  8
_0-1_LAY-1
  6
CONTINUOUS
 62
    2
 10
1229.2138823456478
 20
355.5190907489096
 11
1227.6883499565813
 21
355.75481729571084
  0
LINE
  8
_0-1_LAY-1
  6
CONTINUOUS
 62
    2
 10
1227.6883499565813
 20
355.75481729571084
 11
1226.4374450070663
 21
356.03008639629383
  0
LINE
  8
_0-1_LAY-1
  6
CONTINUOUS
 62
    2
 10
1226.4374450070663
 20
356.03008639629383
 11
1225.499175611006
 21
356.33653413833025
  0
LINE
  8
_0-1_LAY-1
  6
CONTINUOUS
 62
    2
 10
1225.499175611006
 20
356.33653413833025
 11
1224.9020506092122
 21
356.66484926224842
  0
LINE
  8
_0-1_LAY-1
  6
CONTINUOUS
 62
    2
 10
1224.9020506092122
 20
356.66484926224842
 11
1224.6642133427044
 21
357.00505607914346
  0
LINE
  8
_0-1_LAY-1
  6
CONTINUOUS
 62
    2
 10
1224.6642133427044
 20
357.00505607914346
 11
1224.6601189844248
 21
357.05622300000005
  0
LINE
  8
_0-1_LAY-1
  6
CONTINUOUS
 62
    2
 10
1217.9266760155749
 20
357.05622300000005
 11
1217.9266760155749
 21
357.05622300000005
  0
LINE
  8
_0-1_LAY-1
  6
CONTINUOUS
 62
    2
 10
1217.9266760155749
 20
357.05622300000005
 11
1217.7433566629338
 21
357.39732289676823
  0
LINE
  8
_0-1_LAY-1
  6
CONTINUOUS
 62
    2
 10
1217.7433566629338
 20
357.39732289676823
 11
1217.1989686707768
 21
357.72805864577799
  0
LINE
  8
_0-1_LAY-1
  6
CONTINUOUS
 62
    2
 10
1217.1989686707768
 20
357.72805864577799
 11
1216.3100529927715
 21
358.03838100865602
  0
LINE
  8
_0-1_LAY-1
  6
CONTINUOUS
 62
    2
 10
1216.3100529927715
 20
358.03838100865602
 11
1215.1036188819814
 21
358.31886099743696
  0
LINE
  8
_0-1_LAY-1
  6
CONTINUOUS
 62
    2
 10
1215.1036188819814
 20
358.31886099743696
 11
1213.616323228378
 21
358.56097636959146
  0
LINE
  8
_0-1_LAY-1
  6
CONTINUOUS
 62
    2
 10
1213.616323228378
 20
358.56097636959146
 11
1211.8933567577874
 21
358.75737057205288
  0
LINE
  8
_0-1_LAY-1
  6
CONTINUOUS
 62
    2
 10
1211.8933567577874
 20
358.75737057205288
 11
1209.987070934556
 21
358.90207626635964
  0
LINE
  8
_0-1_LAY-1
  6
CONTINUOUS
 62
    2
 10
1209.987070934556
 20
358.90207626635964
 11
1207.955387288795
 21
358.9906966432149
  0
LINE
  8
_0-1_LAY-1
  6
CONTINUOUS
 62
    2
 10
1207.955387288795
 20
358.9906966432149
 11
1205.8600374999999
 21
359.02053901731199
  0
LINE
  8
_0-1_LAY-1
  6
CONTINUOUS
 62
    2
 10
1205.8600374999999
 20
359.02053901731199
 11
1203.7646877112047
 21
358.9906966432149
  0
LINE
  8
_0-1_LAY-1
  6
CONTINUOUS
 62
    2
 10
1203.7646877112047
 20
358.9906966432149
 11
1201.7330040654438
 21
358.90207626635964
  0
LINE
  8
_0-1_LAY-1
  6
CONTINUOUS
 62
    2
 10
1201.7330040654438
 20
358.90207626635964
 11
1199.8267182422123
 21
358.75737057205288
  0
LINE
  8
_0-1_LAY-1
  6
CONTINUOUS
 62
    2
 10
1199.8267182422123
 20
358.75737057205288
 11
1198.103751771622
 21
358.56097636959146
  0
LINE
  8
_0-1_LAY-1
  6
CONTINUOUS
 62
    2
 10
1198.103751771622
 20
358.56097636959146
 11
1196.6164561180183
 21
358.31886099743696
  0
LINE
  8
_0-1_LAY-1
  6
CONTINUOUS
 62
    2
 10
1196.6164561180183
 20
358.31886099743696
 11
1195.5707250070825
 21
358.08235960371059
  0
LINE
  8
_0-1_LAY-1
  6
CONTINUOUS
 62
    2
 10
1197.1601165000002
 20
358.41739200000001
 11
1197.1601165000002
 21
331.58260799999999
  0
LINE
  8
_0-1_LAY-1
  6
CONTINUOUS
 62
    2
 10
1245.4266765
 20
359
 11
1248.7933965000002
 21
357.05622300000005
  0
LINE
  8
_0-1_LAY-1
  6
CONTINUOUS
 62
    2
 10
1197.1601165000002
 20
359
 11
1193.7933965
 21
357.05622300000005
  0
LINE
  8
_0-1_LAY-1
  6
CONTINUOUS
 62
    2
 10
1169.2003485
 20
370.5
 11
1168.9003484999998
 21
370.5
  0
LINE
  8
_0-1_LAY-1
  6
CONTINUOUS
 62
    2
 10
1169.2003485
 20
370.5
 11
1169.2003485
 21
446
  0
LINE
  8
_0-1_LAY-1
  6
CONTINUOUS
 62
    2
 10
1169.2003485
 20
521.5
 11
1169.2003485
 21
446
  0
LINE
  8
_0-1_LAY-1
  6
CONTINUOUS
 62
    2
 10
1169.2003485
 20
521.5
 11
1168.9003484999998
 21
521.5
  0
LINE
  8
_0-1_LAY-1
  6
CONTINUOUS
 62
    2
 10
1168.9003484999998
 20
536
 11
1157.7003485
 21
536
  0
LINE
  8
_0-1_LAY-1
  6
CONTINUOUS
 62
    2
 10
1026.8457955000001
 20
484.74907399999995
 11
1143.4880734999997
 21
488.94690200000002
  0
ARC
  8
_0-1_LAY-1
  6
CONTINUOUS
 62
    2
 10
1027.2054515
 20
474.75554399999999
 40
10
 50
92.061122999999995
 51
170
  0
ARC
  8
_0-1_LAY-1
  6
CONTINUOUS
 62
    2
 10
1027.2054515
 20
417.24445599999996
 40
10
 50
190.00000000000003
 51
267.93887699999999
  0
ARC
  8
_0-1_LAY-1
  6
CONTINUOUS
 62
    2
 10
990.60939050000002
 20
446
 40
44
 50
162.97439299999999
 51
197.02560699999998
  0
ARC
  8
_0-1_LAY-1
  6
CONTINUOUS
 62
    2
 10
950.45008250000001
 20
458.29756099999997
 40
2
 50
90
 51
162.97439299999999
  0
LINE
  8
_0-1_LAY-1
  6
CONTINUOUS
 62
    2
 10
950.45008250000001
 20
460.29756100000003
 11
987.04802549999999
 21
460.29756100000003
  0
ARC
  8
_0-1_LAY-1
  6
CONTINUOUS
 62
    2
 10
987.04802549999999
 20
461.29756099999997
 40
1
 50
270
 51
330
  0
LINE
  8
_0-1_LAY-1
  6
CONTINUOUS
 62
    2
 10
988.49280950000002
 20
461.80000000000001
 11
987.91405150000003
 21
460.79756099999997
  0
ARC
  8
_0-1_LAY-1
  6
CONTINUOUS
 62
    2
 10
990.22486049999998
 20
460.79999999999995
 40
2
 50
90
 51
149.99999999999997
  0
LINE
  8
_0-1_LAY-1
  6
CONTINUOUS
 62
    2
 10
998.07948249999993
 20
462.80000000000007
 11
990.22486049999998
 21
462.80000000000007
  0
LINE
  8
_0-1_LAY-1
  6
CONTINUOUS
 62
    2
 10
1000.5793825
 20
466.129952
 11
998.94550849999996
 21
463.30000000000001
  0
ARC
  8
_0-1_LAY-1
  6
CONTINUOUS
 62
    2
 10
998.07948249999993
 20
463.79999999999995
 40
1
 50
270
 51
330
  0
LINE
  8
_0-1_LAY-1
  6
CONTINUOUS
 62
    2
 10
1012.8695114999998
 20
468.20541800000001
 11
1003.4883225
 21
467.87781999999999
  0
ARC
  8
_0-1_LAY-1
  6
CONTINUOUS
 62
    2
 10
1003.6104705
 20
464.379952
 40
3.5
 50
91.999999999999986
 51
149.99999999999997
  0
LINE
  8
_0-1_LAY-1
  6
CONTINUOUS
 62
    2
 10
1016.4645665
 20
472.25
 11
1016.6093905
 21
472.25
  0
ARC
  8
_0-1_LAY-1
  6
CONTINUOUS
 62
    2
 10
1016.4645665
 20
470.25
 40
2
 50
90
 51
170.13419300000001
  0
LINE
  8
_0-1_LAY-1
  6
CONTINUOUS
 62
    2
 10
1014.4941424999998
 20
470.59268199999997
 11
1014.2949795
 21
469.44749300000001
  0
ARC
  8
_0-1_LAY-1
  6
CONTINUOUS
 62
    2
 10
1012.8171615000001
 20
469.70450500000004
 40
1.5
 50
272
 51
350.13419299999998
  0
ARC
  8
_0-1_LAY-1
  6
CONTINUOUS
 62
    2
 10
1012.8171615000001
 20
422.29549499999996
 40
1.5
 50
9.8658070000000002
 51
88
  0
LINE
  8
_0-1_LAY-1
  6
CONTINUOUS
 62
    2
 10
1014.4941424999998
 20
421.40731800000003
 11
1014.2949795
 21
422.55250699999999
  0
ARC
  8
_0-1_LAY-1
  6
CONTINUOUS
 62
    2
 10
1016.4645665
 20
421.75
 40
2
 50
189.86580699999999
 51
270
  0
LINE
  8
_0-1_LAY-1
  6
CONTINUOUS
 62
    2
 10
1012.8695114999998
 20
423.79458199999999
 11
1003.3775284999999
 21
424.12604899999997
  0
ARC
  8
_0-1_LAY-1
  6
CONTINUOUS
 62
    2
 10
998.07948249999993
 20
428.19999999999993
 40
1
 50
29.999999999999996
 51
90
  0
ARC
  8
_0-1_LAY-1
  6
CONTINUOUS
 62
    2
 10
1003.4926965
 20
427.42403899999999
 40
3.2999999999999998
 50
210.00000000000003
 51
268
  0
LINE
  8
_0-1_LAY-1
  6
CONTINUOUS
 62
    2
 10
1000.6348125
 20
425.77403900000002
 11
998.94550849999996
 21
428.70000000000005
  0
LINE
  8
_0-1_LAY-1
  6
CONTINUOUS
 62
    2
 10
998.07948249999993
 20
429.19999999999999
 11
990.22486049999998
 21
429.19999999999999
  0
ARC
  8
_0-1_LAY-1
  6
CONTINUOUS
 62
    2
 10
987.04802549999999
 20
430.70243899999997
 40
1
 50
29.999999999999996
 51
90
  0
LINE
  8
_0-1_LAY-1
  6
CONTINUOUS
 62
    2
 10
988.49280950000002
 20
430.20000000000005
 11
987.91405150000003
 21
431.20243900000003
  0
ARC
  8
_0-1_LAY-1
  6
CONTINUOUS
 62
    2
 10
990.22486049999998
 20
431.19999999999993
 40
2
 50
210.00000000000003
 51
270
  0
LINE
  8
_0-1_LAY-1
  6
CONTINUOUS
 62
    2
 10
950.45008250000001
 20
431.70243900000003
 11
987.04802549999999
 21
431.70243900000003
  0
ARC
  8
_0-1_LAY-1
  6
CONTINUOUS
 62
    2
 10
950.45008250000001
 20
433.70243899999997
 40
2
 50
197.02560700000001
 51
270
  0
LINE
  8
_0-1_LAY-1
  6
CONTINUOUS
 62
    2
 10
1016.6093905
 20
472.25
 11
1017.3573745
 21
476.49202600000001
  0
LINE
  8
_0-1_LAY-1
  6
CONTINUOUS
 62
    2
 10
1016.6093905
 20
419.75
 11
1017.3573745
 21
415.50797399999999
  0
LINE
  8
_0-1_LAY-1
  6
CONTINUOUS
 62
    2
 10
1026.8457955000001
 20
407.25092600000005
 11
1143.2003485
 21
403.06345300000004
  0
LINE
  8
_0-1_LAY-1
  6
CONTINUOUS
 62
    2
 10
1168.9003484999998
 20
356
 11
1143.8433964999999
 21
356
  0
LINE
  8
_0-1_LAY-1
  6
CONTINUOUS
 62
    2
 10
1168.9003484999998
 20
536
 11
1168.9003484999998
 21
356
  0
LINE
  8
_0-1_LAY-1
  6
CONTINUOUS
 62
    2
 10
168.7933965
 20
269.49999700000001
 11
167.79339649999997
 21
269.49999700000001
  0
LINE
  8
_0-1_LAY-1
  6
CONTINUOUS
 62
    2
 10
168.7933965
 20
305.5
 11
167.79339649999997
 21
305.5
  0
LINE
  8
_0-1_LAY-1
  6
CONTINUOUS
 62
    2
 10
168.29339649999994
 20
300.49999800000001
 11
167.79339649999997
 21
300.49999800000001
  0
LINE
  8
_0-1_LAY-1
  6
CONTINUOUS
 62
    2
 10
171.29339649999994
 20
274.49999800000001
 11
167.79339649999997
 21
274.49999800000001
  0
LINE
  8
_0-1_LAY-1
  6
CONTINUOUS
 62
    2
 10
171.29339649999994
 20
276.74999800000001
 11
171.29339649999994
 21
274.49999800000001
  0
LINE
  8
_0-1_LAY-1
  6
CONTINUOUS
 62
    2
 10
171.29339649999994
 20
274.49999800000001
 11
167.79339649999997
 21
274.49999800000001
  0
LINE
  8
_0-1_LAY-1
  6
CONTINUOUS
 62
    2
 10
171.29339649999994
 20
300.49999800000001
 11
167.79339649999997
 21
300.49999800000001
  0
LINE
  8
_0-1_LAY-1
  6
CONTINUOUS
 62
    2
 10
170.79339649999997
 20
300.49999800000001
 11
167.79339649999997
 21
300.49999800000001
  0
ARC
  8
_0-1_LAY-1
  6
CONTINUOUS
 62
    2
 10
181.79069249999995
 20
296.24999800000001
 40
3.52
 50
0
 51
90
  0
ARC
  8
_0-1_LAY-1
  6
CONTINUOUS
 62
    2
 10
181.79069249999995
 20
278.74999800000001
 40
3.52
 50
270
 51
0
  0
LINE
  8
_0-1_LAY-1
  6
CONTINUOUS
 62
    2
 10
186.59957750000001
 20
287.49999800000001
 11
185.31069249999999
 21
285.50222699999995
  0
LINE
  8
_0-1_LAY-1
  6
CONTINUOUS
 62
    2
 10
186.59957750000001
 20
287.49999800000001
 11
185.31069249999999
 21
289.49777
  0
LINE
  8
_0-1_LAY-1
  6
CONTINUOUS
 62
    2
 10
171.29339649999994
 20
275.22999800000002
 11
181.79069249999995
 21
275.22999800000002
  0
LINE
  8
_0-1_LAY-1
  6
CONTINUOUS
 62
    2
 10
167.79339649999997
 20
305.5
 11
167.79339649999997
 21
269.49999700000001
  0
LINE
  8
_0-1_LAY-1
  6
CONTINUOUS
 62
    2
 10
171.29339649999994
 20
299.76999799999999
 11
181.79069249999995
 21
299.76999799999999
  0
LINE
  8
_0-1_LAY-1
  6
CONTINUOUS
 62
    2
 10
171.29339649999994
 20
300.49999800000001
 11
171.29339649999994
 21
274.49999800000001
  0
LINE
  8
_0-1_LAY-1
  6
CONTINUOUS
 62
    2
 10
185.31069249999999
 20
278.74999800000001
 11
185.31069249999999
 21
287.49999800000001
  0
LINE
  8
_0-1_LAY-1
  6
CONTINUOUS
 62
    2
 10
185.31069249999999
 20
296.24999800000001
 11
185.31069249999999
 21
287.49999800000001
  0
LINE
  8
_0-1_LAY-1
  6
CONTINUOUS
 62
    2
 10
110.79339649999997
 20
342.73205100000001
 11
110.88224449999998
 21
342.73205100000001
  0
LINE
  8
_0-1_LAY-1
  6
CONTINUOUS
 62
    2
 10
171.29339649999994
 20
280.10000000000002
 11
167.79339649999997
 21
280.10000000000002
  0
LINE
  8
_0-1_LAY-1
  6
CONTINUOUS
 62
    2
 10
171.29339649999994
 20
295.09746500000006
 11
167.79339649999997
 21
295.09746500000006
  0
LINE
  8
_0-1_LAY-1
  6
CONTINUOUS
 62
    2
 10
117.16011649999999
 20
244
 11
165.42667649999999
 21
244
  0
LINE
  8
_0-1_LAY-1
  6
CONTINUOUS
 62
    2
 10
168.79339350000001
 20
245.94377700000001
 11
168.79339350000001
 21
269.49999700000001
  0
LINE
  8
_0-1_LAY-1
  6
CONTINUOUS
 62
    2
 10
168.79339350000001
 20
305.5
 11
168.79339350000001
 21
329.05622499999998
  0
LINE
  8
_0-1_LAY-1
  6
CONTINUOUS
 62
    2
 10
113.79339649999997
 20
245.94377700000001
 11
113.79339649999997
 21
329.05622299999999
  0
LINE
  8
_0-1_LAY-1
  6
CONTINUOUS
 62
    2
 10
117.16011649999999
 20
331
 11
165.42667649999999
 21
331
  0
LINE
  8
_0-1_LAY-1
  6
CONTINUOUS
 62
    2
 10
117.16011649999999
 20
359
 11
165.42667649999999
 21
359
  0
LINE
  8
_0-1_LAY-1
  6
CONTINUOUS
 62
    2
 10
168.79339350000001
 20
332.94377499999996
 11
168.79339350000001
 21
357.05622500000004
  0
LINE
  8
_0-1_LAY-1
  6
CONTINUOUS
 62
    2
 10
113.79339649999997
 20
332.94377699999995
 11
113.79339649999997
 21
357.05622300000005
  0
LINE
  8
_0-1_LAY-1
  6
CONTINUOUS
 62
    2
 10
117.16011649999999
 20
244
 11
113.79339649999997
 21
245.94377700000001
  0
LINE
  8
_0-1_LAY-1
  6
CONTINUOUS
 62
    2
 10
117.16011649999999
 20
330.41739199999995
 11
117.16011649999999
 21
244.58260799999999
  0
LINE
  8
_0-1_LAY-1
  6
CONTINUOUS
 62
    2
 10
115.5707230070665
 20
244.91764039629379
 11
115.5707230070665
 21
244.91764039629379
  0
LINE
  8
_0-1_LAY-1
  6
CONTINUOUS
 62
    2
 10
115.5707230070665
 20
244.91764039629379
 11
114.63245361100616
 21
245.22408813833025
  0
LINE
  8
_0-1_LAY-1
  6
CONTINUOUS
 62
    2
 10
114.63245361100616
 20
245.22408813833025
 11
114.0353286092123
 21
245.55240326224836
  0
LINE
  8
_0-1_LAY-1
  6
CONTINUOUS
 62
    2
 10
114.0353286092123
 20
245.55240326224836
 11
113.79749134270463
 21
245.89261007914342
  0
LINE
  8
_0-1_LAY-1
  6
CONTINUOUS
 62
    2
 10
113.79749134270463
 20
245.89261007914342
 11
113.92616837647451
 21
246.234371577037
  0
LINE
  8
_0-1_LAY-1
  6
CONTINUOUS
 62
    2
 10
113.92616837647451
 20
246.234371577037
 11
114.41744992396457
 21
246.56730350575523
  0
LINE
  8
_0-1_LAY-1
  6
CONTINUOUS
 62
    2
 10
114.41744992396457
 20
246.56730350575523
 11
115.25640864395479
 21
246.88128989711575
  0
LINE
  8
_0-1_LAY-1
  6
CONTINUOUS
 62
    2
 10
115.25640864395479
 20
246.88128989711575
 11
116.41755320027184
 21
247.1667904335018
  0
LINE
  8
_0-1_LAY-1
  6
CONTINUOUS
 62
    2
 10
116.41755320027184
 20
247.1667904335018
 11
117.86560280313955
 21
247.41513032558558
  0
LINE
  8
_0-1_LAY-1
  6
CONTINUOUS
 62
    2
 10
117.86560280313955
 20
247.41513032558558
 11
119.55655919812321
 21
247.61876389141216
  0
LINE
  8
_0-1_LAY-1
  6
CONTINUOUS
 62
    2
 10
119.55655919812321
 20
247.61876389141216
 11
121.43904353082648
 21
247.77150382812744
  0
LINE
  8
_0-1_LAY-1
  6
CONTINUOUS
 62
    2
 10
121.43904353082648
 20
247.77150382812744
 11
123.45585746738321
 21
247.86870921004444
  0
LINE
  8
_0-1_LAY-1
  6
CONTINUOUS
 62
    2
 10
123.45585746738321
 20
247.86870921004444
 11
125.54572113688822
 21
247.90742650082197
  0
LINE
  8
_0-1_LAY-1
  6
CONTINUOUS
 62
    2
 10
125.54572113688822
 20
247.90742650082197
 11
127.64513508926564
 21
247.8864792951716
  0
LINE
  8
_0-1_LAY-1
  6
CONTINUOUS
 62
    2
 10
127.64513508926564
 20
247.8864792951716
 11
129.69030969392719
 21
247.80650406333723
  0
LINE
  8
_0-1_LAY-1
  6
CONTINUOUS
 62
    2
 10
129.69030969392719
 20
247.80650406333723
 11
131.61910335541853
 21
247.66993081226875
  0
LINE
  8
_0-1_LAY-1
  6
CONTINUOUS
 62
    2
 10
131.61910335541853
 20
247.66993081226875
 11
133.37291065435193
 21
247.48090925109045
  0
LINE
  8
_0-1_LAY-1
  6
CONTINUOUS
 62
    2
 10
133.37291065435193
 20
247.48090925109045
 11
134.89844304341858
 21
247.24518270428922
  0
LINE
  8
_0-1_LAY-1
  6
CONTINUOUS
 62
    2
 10
134.89844304341858
 20
247.24518270428922
 11
136.14934799293337
 21
246.96991360370623
  0
LINE
  8
_0-1_LAY-1
  6
CONTINUOUS
 62
    2
 10
136.14934799293337
 20
246.96991360370623
 11
137.08761738899375
 21
246.66346586166981
  0
LINE
  8
_0-1_LAY-1
  6
CONTINUOUS
 62
    2
 10
137.08761738899375
 20
246.66346586166981
 11
137.68474239078759
 21
246.33515073775166
  0
LINE
  8
_0-1_LAY-1
  6
CONTINUOUS
 62
    2
 10
137.68474239078759
 20
246.33515073775166
 11
137.92257965729527
 21
245.9949439208566
  0
LINE
  8
_0-1_LAY-1
  6
CONTINUOUS
 62
    2
 10
137.92257965729527
 20
245.9949439208566
 11
137.92667401557495
 21
245.94377700000001
  0
LINE
  8
_0-1_LAY-1
  6
CONTINUOUS
 62
    2
 10
137.92667650000001
 20
329.05622299999999
 11
137.92667650000001
 21
245.94377700000001
  0
LINE
  8
_0-1_LAY-1
  6
CONTINUOUS
 62
    2
 10
137.92667650000001
 20
245.94377700000001
 11
144.66011649999996
 21
245.94377700000001
  0
LINE
  8
_0-1_LAY-1
  6
CONTINUOUS
 62
    2
 10
144.66011649999996
 20
329.05622299999999
 11
144.66011649999996
 21
245.94377700000001
  0
LINE
  8
_0-1_LAY-1
  6
CONTINUOUS
 62
    2
 10
144.66011698442495
 20
245.94377700000001
 11
144.66011698442495
 21
245.94377700000001
  0
LINE
  8
_0-1_LAY-1
  6
CONTINUOUS
 62
    2
 10
144.66011698442495
 20
245.94377700000001
 11
144.84343633706595
 21
245.60267710323183
  0
LINE
  8
_0-1_LAY-1
  6
CONTINUOUS
 62
    2
 10
144.84343633706595
 20
245.60267710323183
 11
145.38782432922309
 21
245.27194135422207
  0
LINE
  8
_0-1_LAY-1
  6
CONTINUOUS
 62
    2
 10
145.38782432922309
 20
245.27194135422207
 11
146.27674000722826
 21
244.96161899134404
  0
LINE
  8
_0-1_LAY-1
  6
CONTINUOUS
 62
    2
 10
146.27674000722826
 20
244.96161899134404
 11
147.48317411801827
 21
244.6811390025631
  0
LINE
  8
_0-1_LAY-1
  6
CONTINUOUS
 62
    2
 10
147.48317411801827
 20
244.6811390025631
 11
148.97046977162196
 21
244.4390236304086
  0
LINE
  8
_0-1_LAY-1
  6
CONTINUOUS
 62
    2
 10
148.97046977162196
 20
244.4390236304086
 11
150.69343624221244
 21
244.24262942794721
  0
LINE
  8
_0-1_LAY-1
  6
CONTINUOUS
 62
    2
 10
150.69343624221244
 20
244.24262942794721
 11
152.59972206544396
 21
244.09792373364041
  0
LINE
  8
_0-1_LAY-1
  6
CONTINUOUS
 62
    2
 10
152.59972206544396
 20
244.09792373364041
 11
154.63140571120474
 21
244.00930335678515
  0
LINE
  8
_0-1_LAY-1
  6
CONTINUOUS
 62
    2
 10
154.63140571120474
 20
244.00930335678515
 11
156.72675549999994
 21
243.97946098268807
  0
LINE
  8
_0-1_LAY-1
  6
CONTINUOUS
 62
    2
 10
156.72675549999994
 20
243.97946098268807
 11
158.82210528879511
 21
244.00930335678515
  0
LINE
  8
_0-1_LAY-1
  6
CONTINUOUS
 62
    2
 10
158.82210528879511
 20
244.00930335678515
 11
160.85378893455592
 21
244.09792373364041
  0
LINE
  8
_0-1_LAY-1
  6
CONTINUOUS
 62
    2
 10
160.85378893455592
 20
244.09792373364041
 11
162.76007475778744
 21
244.24262942794721
  0
LINE
  8
_0-1_LAY-1
  6
CONTINUOUS
 62
    2
 10
162.76007475778744
 20
244.24262942794721
 11
164.48304122837791
 21
244.4390236304086
  0
LINE
  8
_0-1_LAY-1
  6
CONTINUOUS
 62
    2
 10
164.48304122837791
 20
244.4390236304086
 11
165.97033688198158
 21
244.6811390025631
  0
LINE
  8
_0-1_LAY-1
  6
CONTINUOUS
 62
    2
 10
165.97033688198158
 20
244.6811390025631
 11
167.01606799291719
 21
244.9176403962895
  0
LINE
  8
_0-1_LAY-1
  6
CONTINUOUS
 62
    2
 10
168.79339350000001
 20
245.94377700000001
 11
165.42667349999999
 21
244
  0
LINE
  8
_0-1_LAY-1
  6
CONTINUOUS
 62
    2
 10
165.42667649999999
 20
330.41739199999995
 11
165.42667649999999
 21
244.58260799999999
  0
LINE
  8
_0-1_LAY-1
  6
CONTINUOUS
 62
    2
 10
165.42667649999999
 20
331
 11
168.79339350000001
 21
332.94377499999996
  0
LINE
  8
_0-1_LAY-1
  6
CONTINUOUS
 62
    2
 10
144.66011698442495
 20
332.94377699999995
 11
144.66011698442495
 21
332.94377699999995
  0
LINE
  8
_0-1_LAY-1
  6
CONTINUOUS
 62
    2
 10
144.66011698442495
 20
332.94377699999995
 11
144.84343633706595
 21
332.60267710323177
  0
LINE
  8
_0-1_LAY-1
  6
CONTINUOUS
 62
    2
 10
144.84343633706595
 20
332.60267710323177
 11
145.38782432922309
 21
332.27194135422201
  0
LINE
  8
_0-1_LAY-1
  6
CONTINUOUS
 62
    2
 10
145.38782432922309
 20
332.27194135422201
 11
146.27674000722826
 21
331.96161899134398
  0
LINE
  8
_0-1_LAY-1
  6
CONTINUOUS
 62
    2
 10
146.27674000722826
 20
331.96161899134398
 11
147.48317411801827
 21
331.68113900256304
  0
LINE
  8
_0-1_LAY-1
  6
CONTINUOUS
 62
    2
 10
147.48317411801827
 20
331.68113900256304
 11
148.97046977162196
 21
331.43902363040854
  0
LINE
  8
_0-1_LAY-1
  6
CONTINUOUS
 62
    2
 10
148.97046977162196
 20
331.43902363040854
 11
150.69343624221244
 21
331.24262942794712
  0
LINE
  8
_0-1_LAY-1
  6
CONTINUOUS
 62
    2
 10
150.69343624221244
 20
331.24262942794712
 11
152.59972206544396
 21
331.09792373364036
  0
LINE
  8
_0-1_LAY-1
  6
CONTINUOUS
 62
    2
 10
152.59972206544396
 20
331.09792373364036
 11
154.63140571120474
 21
331.0093033567851
  0
LINE
  8
_0-1_LAY-1
  6
CONTINUOUS
 62
    2
 10
154.63140571120474
 20
331.0093033567851
 11
156.72675549999994
 21
330.97946098268801
  0
LINE
  8
_0-1_LAY-1
  6
CONTINUOUS
 62
    2
 10
156.72675549999994
 20
330.97946098268801
 11
158.82210528879511
 21
331.0093033567851
  0
LINE
  8
_0-1_LAY-1
  6
CONTINUOUS
 62
    2
 10
158.82210528879511
 20
331.0093033567851
 11
160.85378893455592
 21
331.09792373364036
  0
LINE
  8
_0-1_LAY-1
  6
CONTINUOUS
 62
    2
 10
160.85378893455592
 20
331.09792373364036
 11
162.76007475778744
 21
331.24262942794712
  0
LINE
  8
_0-1_LAY-1
  6
CONTINUOUS
 62
    2
 10
162.76007475778744
 20
331.24262942794712
 11
164.48304122837791
 21
331.43902363040854
  0
LINE
  8
_0-1_LAY-1
  6
CONTINUOUS
 62
    2
 10
164.48304122837791
 20
331.43902363040854
 11
165.97033688198158
 21
331.68113900256304
  0
LINE
  8
_0-1_LAY-1
  6
CONTINUOUS
 62
    2
 10
165.97033688198158
 20
331.68113900256304
 11
167.01606799291719
 21
331.91764039628941
  0
LINE
  8
_0-1_LAY-1
  6
CONTINUOUS
 62
    2
 10
167.01606799291716
 20
330.08235960371053
 11
167.01606799291716
 21
330.08235960371053
  0
LINE
  8
_0-1_LAY-1
  6
CONTINUOUS
 62
    2
 10
167.01606799291716
 20
330.08235960371053
 11
165.76516304339799
 21
330.35762870429301
  0
LINE
  8
_0-1_LAY-1
  6
CONTINUOUS
 62
    2
 10
165.76516304339799
 20
330.35762870429301
 11
164.23963065432758
 21
330.59335525109356
  0
LINE
  8
_0-1_LAY-1
  6
CONTINUOUS
 62
    2
 10
164.23963065432758
 20
330.59335525109356
 11
162.4858233553912
 21
330.78237681227114
  0
LINE
  8
_0-1_LAY-1
  6
CONTINUOUS
 62
    2
 10
162.4858233553912
 20
330.78237681227114
 11
160.5570296938977
 21
330.9189500633388
  0
LINE
  8
_0-1_LAY-1
  6
CONTINUOUS
 62
    2
 10
160.5570296938977
 20
330.9189500633388
 11
158.5118550892349
 21
330.99892529517234
  0
LINE
  8
_0-1_LAY-1
  6
CONTINUOUS
 62
    2
 10
158.5118550892349
 20
330.99892529517234
 11
156.41244113685715
 21
331.0198725008218
  0
LINE
  8
_0-1_LAY-1
  6
CONTINUOUS
 62
    2
 10
156.41244113685715
 20
331.0198725008218
 11
154.32257746735274
 21
330.98115521004343
  0
LINE
  8
_0-1_LAY-1
  6
CONTINUOUS
 62
    2
 10
154.32257746735274
 20
330.98115521004343
 11
152.30576353079755
 21
330.88394982812554
  0
LINE
  8
_0-1_LAY-1
  6
CONTINUOUS
 62
    2
 10
152.30576353079755
 20
330.88394982812554
 11
150.42327919809671
 21
330.73120989140949
  0
LINE
  8
_0-1_LAY-1
  6
CONTINUOUS
 62
    2
 10
150.42327919809671
 20
330.73120989140949
 11
148.73232280311626
 21
330.52757632558223
  0
LINE
  8
_0-1_LAY-1
  6
CONTINUOUS
 62
    2
 10
148.73232280311626
 20
330.52757632558223
 11
147.28427320025247
 21
330.27923643349783
  0
LINE
  8
_0-1_LAY-1
  6
CONTINUOUS
 62
    2
 10
147.28427320025247
 20
330.27923643349783
 11
146.12312864393994
 21
329.99373589711126
  0
LINE
  8
_0-1_LAY-1
  6
CONTINUOUS
 62
    2
 10
146.12312864393994
 20
329.99373589711126
 11
145.28416992395469
 21
329.67974950575041
  0
LINE
  8
_0-1_LAY-1
  6
CONTINUOUS
 62
    2
 10
145.28416992395469
 20
329.67974950575041
 11
144.7928883764699
 21
329.34681757703197
  0
LINE
  8
_0-1_LAY-1
  6
CONTINUOUS
 62
    2
 10
144.7928883764699
 20
329.34681757703197
 11
144.66011698442495
 21
329.05622299999999
  0
LINE
  8
_0-1_LAY-1
  6
CONTINUOUS
 62
    2
 10
165.42667649999999
 20
331
 11
168.79339350000001
 21
329.05622499999998
  0
LINE
  8
_0-1_LAY-1
  6
CONTINUOUS
 62
    2
 10
137.92667650000001
 20
329.05622299999999
 11
144.66011649999996
 21
329.05622299999999
  0
LINE
  8
_0-1_LAY-1
  6
CONTINUOUS
 62
    2
 10
137.92667650000001
 20
332.94377699999995
 11
144.66011649999996
 21
332.94377699999995
  0
LINE
  8
_0-1_LAY-1
  6
CONTINUOUS
 62
    2
 10
115.5707230070665
 20
331.91764039629373
 11
115.5707230070665
 21
331.91764039629373
  0
LINE
  8
_0-1_LAY-1
  6
CONTINUOUS
 62
    2
 10
115.5707230070665
 20
331.91764039629373
 11
114.63245361100616
 21
332.22408813833016
  0
LINE
  8
_0-1_LAY-1
  6
CONTINUOUS
 62
    2
 10
114.63245361100616
 20
332.22408813833016
 11
114.0353286092123
 21
332.55240326224833
  0
LINE
  8
_0-1_LAY-1
  6
CONTINUOUS
 62
    2
 10
114.0353286092123
 20
332.55240326224833
 11
113.79749134270463
 21
332.89261007914337
  0
LINE
  8
_0-1_LAY-1
  6
CONTINUOUS
 62
    2
 10
113.79749134270463
 20
332.89261007914337
 11
113.92616837647451
 21
333.23437157703694
  0
LINE
  8
_0-1_LAY-1
  6
CONTINUOUS
 62
    2
 10
113.92616837647451
 20
333.23437157703694
 11
114.41744992396457
 21
333.56730350575515
  0
LINE
  8
_0-1_LAY-1
  6
CONTINUOUS
 62
    2
 10
114.41744992396457
 20
333.56730350575515
 11
115.25640864395479
 21
333.88128989711566
  0
LINE
  8
_0-1_LAY-1
  6
CONTINUOUS
 62
    2
 10
115.25640864395479
 20
333.88128989711566
 11
116.41755320027184
 21
334.16679043350177
  0
LINE
  8
_0-1_LAY-1
  6
CONTINUOUS
 62
    2
 10
116.41755320027184
 20
334.16679043350177
 11
117.86560280313955
 21
334.41513032558555
  0
LINE
  8
_0-1_LAY-1
  6
CONTINUOUS
 62
    2
 10
117.86560280313955
 20
334.41513032558555
 11
119.55655919812321
 21
334.61876389141207
  0
LINE
  8
_0-1_LAY-1
  6
CONTINUOUS
 62
    2
 10
119.55655919812321
 20
334.61876389141207
 11
121.43904353082648
 21
334.77150382812738
  0
LINE
  8
_0-1_LAY-1
  6
CONTINUOUS
 62
    2
 10
121.43904353082648
 20
334.77150382812738
 11
123.45585746738321
 21
334.86870921004436
  0
LINE
  8
_0-1_LAY-1
  6
CONTINUOUS
 62
    2
 10
123.45585746738321
 20
334.86870921004436
 11
125.54572113688822
 21
334.90742650082188
  0
LINE
  8
_0-1_LAY-1
  6
CONTINUOUS
 62
    2
 10
125.54572113688822
 20
334.90742650082188
 11
127.64513508926564
 21
334.88647929517151
  0
LINE
  8
_0-1_LAY-1
  6
CONTINUOUS
 62
    2
 10
127.64513508926564
 20
334.88647929517151
 11
129.69030969392719
 21
334.80650406333717
  0
LINE
  8
_0-1_LAY-1
  6
CONTINUOUS
 62
    2
 10
129.69030969392719
 20
334.80650406333717
 11
131.61910335541853
 21
334.66993081226872
  0
LINE
  8
_0-1_LAY-1
  6
CONTINUOUS
 62
    2
 10
131.61910335541853
 20
334.66993081226872
 11
133.37291065435193
 21
334.4809092510904
  0
LINE
  8
_0-1_LAY-1
  6
CONTINUOUS
 62
    2
 10
133.37291065435193
 20
334.4809092510904
 11
134.89844304341858
 21
334.24518270428916
  0
LINE
  8
_0-1_LAY-1
  6
CONTINUOUS
 62
    2
 10
134.89844304341858
 20
334.24518270428916
 11
136.14934799293337
 21
333.96991360370617
  0
LINE
  8
_0-1_LAY-1
  6
CONTINUOUS
 62
    2
 10
136.14934799293337
 20
333.96991360370617
 11
137.08761738899375
 21
333.66346586166975
  0
LINE
  8
_0-1_LAY-1
  6
CONTINUOUS
 62
    2
 10
137.08761738899375
 20
333.66346586166975
 11
137.68474239078759
 21
333.33515073775158
  0
LINE
  8
_0-1_LAY-1
  6
CONTINUOUS
 62
    2
 10
137.68474239078759
 20
333.33515073775158
 11
137.92257965729527
 21
332.99494392085654
  0
LINE
  8
_0-1_LAY-1
  6
CONTINUOUS
 62
    2
 10
137.92257965729527
 20
332.99494392085654
 11
137.92667401557495
 21
332.94377699999995
  0
LINE
  8
_0-1_LAY-1
  6
CONTINUOUS
 62
    2
 10
137.92667401557495
 20
329.05622299999999
 11
137.92667401557495
 21
329.05622299999999
  0
LINE
  8
_0-1_LAY-1
  6
CONTINUOUS
 62
    2
 10
137.92667401557495
 20
329.05622299999999
 11
137.74335466293394
 21
329.39732289676817
  0
LINE
  8
_0-1_LAY-1
  6
CONTINUOUS
 62
    2
 10
137.74335466293394
 20
329.39732289676817
 11
137.1989666707768
 21
329.72805864577793
  0
LINE
  8
_0-1_LAY-1
  6
CONTINUOUS
 62
    2
 10
137.1989666707768
 20
329.72805864577793
 11
136.31005099277164
 21
330.03838100865596
  0
LINE
  8
_0-1_LAY-1
  6
CONTINUOUS
 62
    2
 10
136.31005099277164
 20
330.03838100865596
 11
135.10361688198162
 21
330.3188609974369
  0
LINE
  8
_0-1_LAY-1
  6
CONTINUOUS
 62
    2
 10
135.10361688198162
 20
330.3188609974369
 11
133.61632122837793
 21
330.5609763695914
  0
LINE
  8
_0-1_LAY-1
  6
CONTINUOUS
 62
    2
 10
133.61632122837793
 20
330.5609763695914
 11
131.89335475778745
 21
330.75737057205282
  0
LINE
  8
_0-1_LAY-1
  6
CONTINUOUS
 62
    2
 10
131.89335475778745
 20
330.75737057205282
 11
129.98706893455594
 21
330.90207626635959
  0
LINE
  8
_0-1_LAY-1
  6
CONTINUOUS
 62
    2
 10
129.98706893455594
 20
330.90207626635959
 11
127.95538528879514
 21
330.99069664321485
  0
LINE
  8
_0-1_LAY-1
  6
CONTINUOUS
 62
    2
 10
127.95538528879514
 20
330.99069664321485
 11
125.86003549999995
 21
331.02053901731193
  0
LINE
  8
_0-1_LAY-1
  6
CONTINUOUS
 62
    2
 10
125.86003549999995
 20
331.02053901731193
 11
123.76468571120476
 21
330.99069664321485
  0
LINE
  8
_0-1_LAY-1
  6
CONTINUOUS
 62
    2
 10
123.76468571120476
 20
330.99069664321485
 11
121.73300206544396
 21
330.90207626635959
  0
LINE
  8
_0-1_LAY-1
  6
CONTINUOUS
 62
    2
 10
121.73300206544396
 20
330.90207626635959
 11
119.82671624221246
 21
330.75737057205282
  0
LINE
  8
_0-1_LAY-1
  6
CONTINUOUS
 62
    2
 10
119.82671624221246
 20
330.75737057205282
 11
118.10374977162198
 21
330.5609763695914
  0
LINE
  8
_0-1_LAY-1
  6
CONTINUOUS
 62
    2
 10
118.10374977162198
 20
330.5609763695914
 11
116.6164541180183
 21
330.3188609974369
  0
LINE
  8
_0-1_LAY-1
  6
CONTINUOUS
 62
    2
 10
116.6164541180183
 20
330.3188609974369
 11
115.57072300706642
 21
330.08235960370615
  0
LINE
  8
_0-1_LAY-1
  6
CONTINUOUS
 62
    2
 10
117.16011649999999
 20
331
 11
113.79339649999997
 21
329.05622299999999
  0
LINE
  8
_0-1_LAY-1
  6
CONTINUOUS
 62
    2
 10
117.16011649999999
 20
331
 11
113.79339649999997
 21
332.94377699999995
  0
LINE
  8
_0-1_LAY-1
  6
CONTINUOUS
 62
    2
 10
117.16011649999999
 20
358.41739200000001
 11
117.16011649999999
 21
331.58260799999999
  0
LINE
  8
_0-1_LAY-1
  6
CONTINUOUS
 62
    2
 10
137.92667650000001
 20
357.05622300000005
 11
137.92667650000001
 21
332.94377699999995
  0
LINE
  8
_0-1_LAY-1
  6
CONTINUOUS
 62
    2
 10
144.66011649999996
 20
357.05622300000005
 11
144.66011649999996
 21
332.94377699999995
  0
LINE
  8
_0-1_LAY-1
  6
CONTINUOUS
 62
    2
 10
137.92667650000001
 20
357.05622300000005
 11
144.66011649999996
 21
357.05622300000005
  0
LINE
  8
_0-1_LAY-1
  6
CONTINUOUS
 62
    2
 10
137.92667401557495
 20
357.05622300000005
 11
137.92667401557495
 21
357.05622300000005
  0
LINE
  8
_0-1_LAY-1
  6
CONTINUOUS
 62
    2
 10
137.92667401557495
 20
357.05622300000005
 11
137.74335466293394
 21
357.39732289676823
  0
LINE
  8
_0-1_LAY-1
  6
CONTINUOUS
 62
    2
 10
137.74335466293394
 20
357.39732289676823
 11
137.1989666707768
 21
357.72805864577799
  0
LINE
  8
_0-1_LAY-1
  6
CONTINUOUS
 62
    2
 10
137.1989666707768
 20
357.72805864577799
 11
136.31005099277164
 21
358.03838100865602
  0
LINE
  8
_0-1_LAY-1
  6
CONTINUOUS
 62
    2
 10
136.31005099277164
 20
358.03838100865602
 11
135.10361688198162
 21
358.31886099743696
  0
LINE
  8
_0-1_LAY-1
  6
CONTINUOUS
 62
    2
 10
135.10361688198162
 20
358.31886099743696
 11
133.61632122837793
 21
358.56097636959146
  0
LINE
  8
_0-1_LAY-1
  6
CONTINUOUS
 62
    2
 10
133.61632122837793
 20
358.56097636959146
 11
131.89335475778745
 21
358.75737057205288
  0
LINE
  8
_0-1_LAY-1
  6
CONTINUOUS
 62
    2
 10
131.89335475778745
 20
358.75737057205288
 11
129.98706893455594
 21
358.90207626635964
  0
LINE
  8
_0-1_LAY-1
  6
CONTINUOUS
 62
    2
 10
129.98706893455594
 20
358.90207626635964
 11
127.95538528879514
 21
358.9906966432149
  0
LINE
  8
_0-1_LAY-1
  6
CONTINUOUS
 62
    2
 10
127.95538528879514
 20
358.9906966432149
 11
125.86003549999995
 21
359.02053901731199
  0
LINE
  8
_0-1_LAY-1
  6
CONTINUOUS
 62
    2
 10
125.86003549999995
 20
359.02053901731199
 11
123.76468571120476
 21
358.9906966432149
  0
LINE
  8
_0-1_LAY-1
  6
CONTINUOUS
 62
    2
 10
123.76468571120476
 20
358.9906966432149
 11
121.73300206544396
 21
358.90207626635964
  0
LINE
  8
_0-1_LAY-1
  6
CONTINUOUS
 62
    2
 10
121.73300206544396
 20
358.90207626635964
 11
119.82671624221246
 21
358.75737057205288
  0
LINE
  8
_0-1_LAY-1
  6
CONTINUOUS
 62
    2
 10
119.82671624221246
 20
358.75737057205288
 11
118.10374977162198
 21
358.56097636959146
  0
LINE
  8
_0-1_LAY-1
  6
CONTINUOUS
 62
    2
 10
118.10374977162198
 20
358.56097636959146
 11
116.6164541180183
 21
358.31886099743696
  0
LINE
  8
_0-1_LAY-1
  6
CONTINUOUS
 62
    2
 10
116.6164541180183
 20
358.31886099743696
 11
115.57072300706642
 21
358.08235960370621
  0
LINE
  8
_0-1_LAY-1
  6
CONTINUOUS
 62
    2
 10
167.01606799291716
 20
358.08235960371059
 11
167.01606799291716
 21
358.08235960371059
  0
LINE
  8
_0-1_LAY-1
  6
CONTINUOUS
 62
    2
 10
167.01606799291716
 20
358.08235960371059
 11
165.76516304339799
 21
358.35762870429306
  0
LINE
  8
_0-1_LAY-1
  6
CONTINUOUS
 62
    2
 10
165.76516304339799
 20
358.35762870429306
 11
164.23963065432758
 21
358.59335525109361
  0
LINE
  8
_0-1_LAY-1
  6
CONTINUOUS
 62
    2
 10
164.23963065432758
 20
358.59335525109361
 11
162.4858233553912
 21
358.7823768122712
  0
LINE
  8
_0-1_LAY-1
  6
CONTINUOUS
 62
    2
 10
162.4858233553912
 20
358.7823768122712
 11
160.5570296938977
 21
358.91895006333885
  0
LINE
  8
_0-1_LAY-1
  6
CONTINUOUS
 62
    2
 10
160.5570296938977
 20
358.91895006333885
 11
158.5118550892349
 21
358.9989252951724
  0
LINE
  8
_0-1_LAY-1
  6
CONTINUOUS
 62
    2
 10
158.5118550892349
 20
358.9989252951724
 11
156.41244113685715
 21
359.01987250082186
  0
LINE
  8
_0-1_LAY-1
  6
CONTINUOUS
 62
    2
 10
156.41244113685715
 20
359.01987250082186
 11
154.32257746735274
 21
358.98115521004348
  0
LINE
  8
_0-1_LAY-1
  6
CONTINUOUS
 62
    2
 10
154.32257746735274
 20
358.98115521004348
 11
152.30576353079755
 21
358.88394982812559
  0
LINE
  8
_0-1_LAY-1
  6
CONTINUOUS
 62
    2
 10
152.30576353079755
 20
358.88394982812559
 11
150.42327919809671
 21
358.73120989140955
  0
LINE
  8
_0-1_LAY-1
  6
CONTINUOUS
 62
    2
 10
150.42327919809671
 20
358.73120989140955
 11
148.73232280311626
 21
358.52757632558229
  0
LINE
  8
_0-1_LAY-1
  6
CONTINUOUS
 62
    2
 10
148.73232280311626
 20
358.52757632558229
 11
147.28427320025247
 21
358.27923643349789
  0
LINE
  8
_0-1_LAY-1
  6
CONTINUOUS
 62
    2
 10
147.28427320025247
 20
358.27923643349789
 11
146.12312864393994
 21
357.99373589711132
  0
LINE
  8
_0-1_LAY-1
  6
CONTINUOUS
 62
    2
 10
146.12312864393994
 20
357.99373589711132
 11
145.28416992395469
 21
357.67974950575046
  0
LINE
  8
_0-1_LAY-1
  6
CONTINUOUS
 62
    2
 10
145.28416992395469
 20
357.67974950575046
 11
144.7928883764699
 21
357.34681757703203
  0
LINE
  8
_0-1_LAY-1
  6
CONTINUOUS
 62
    2
 10
144.7928883764699
 20
357.34681757703203
 11
144.66011698442495
 21
357.05622300000005
  0
LINE
  8
_0-1_LAY-1
  6
CONTINUOUS
 62
    2
 10
165.42667649999999
 20
358.41739200000001
 11
165.42667649999999
 21
331.58260799999999
  0
LINE
  8
_0-1_LAY-1
  6
CONTINUOUS
 62
    2
 10
117.16011649999999
 20
359
 11
113.79339649999997
 21
357.05622300000005
  0
LINE
  8
_0-1_LAY-1
  6
CONTINUOUS
 62
    2
 10
165.42667649999999
 20
359
 11
168.7933965
 21
357.05622300000005
  0
LINE
  8
_0-1_LAY-1
  6
CONTINUOUS
 62
    2
 10
193.38644450000004
 20
370.5
 11
193.68644450000002
 21
370.5
  0
LINE
  8
_0-1_LAY-1
  6
CONTINUOUS
 62
    2
 10
193.38644450000004
 20
370.5
 11
193.38644450000004
 21
446
  0
LINE
  8
_0-1_LAY-1
  6
CONTINUOUS
 62
    2
 10
193.38644450000004
 20
521.5
 11
193.38644450000004
 21
446
  0
LINE
  8
_0-1_LAY-1
  6
CONTINUOUS
 62
    2
 10
193.38644450000004
 20
521.5
 11
193.68644450000002
 21
521.5
  0
LINE
  8
_0-1_LAY-1
  6
CONTINUOUS
 62
    2
 10
193.68644450000002
 20
536
 11
204.88644450000007
 21
536
  0
ARC
  8
_0-1_LAY-1
  6
CONTINUOUS
 62
    2
 10
204.88644450000007
 20
535
 40
1
 50
0
 51
90
  0
ARC
  8
_0-1_LAY-1
  6
CONTINUOUS
 62
    2
 10
208.38644450000004
 20
505.94365700000003
 40
3
 50
0
 51
90
  0
LINE
  8
_0-1_LAY-1
  6
CONTINUOUS
 62
    2
 10
208.38644450000004
 20
508.94365700000003
 11
207.88644450000007
 21
508.94365700000003
  0
ARC
  8
_0-1_LAY-1
  6
CONTINUOUS
 62
    2
 10
207.88644450000007
 20
510.94365699999997
 40
2
 50
180
 51
270
  0
ARC
  8
_0-1_LAY-1
  6
CONTINUOUS
 62
    2
 10
219.38644450000001
 20
496.94172700000001
 40
8
 50
180
 51
267.93887699999999
  0
LINE
  8
_0-1_LAY-1
  6
CONTINUOUS
 62
    2
 10
335.74099749999999
 20
484.74907399999995
 11
219.09871949999999
 21
488.94690200000002
  0
ARC
  8
_0-1_LAY-1
  6
CONTINUOUS
 62
    2
 10
335.38134149999996
 20
474.75554399999999
 40
10
 50
10
 51
87.938877000000019
  0
ARC
  8
_0-1_LAY-1
  6
CONTINUOUS
 62
    2
 10
335.38134149999996
 20
417.24445599999996
 40
10
 50
272.06112300000001
 51
350
  0
ARC
  8
_0-1_LAY-1
  6
CONTINUOUS
 62
    2
 10
371.97740249999998
 20
446
 40
44
 50
342.97439300000002
 51
17.025606999999994
  0
ARC
  8
_0-1_LAY-1
  6
CONTINUOUS
 62
    2
 10
412.13671049999994
 20
458.29756099999997
 40
2
 50
17.025607000000001
 51
90
  0
LINE
  8
_0-1_LAY-1
  6
CONTINUOUS
 62
    2
 10
412.13671049999994
 20
460.29756100000003
 11
375.53876750000001
 21
460.29756100000003
  0
ARC
  8
_0-1_LAY-1
  6
CONTINUOUS
 62
    2
 10
375.53876750000001
 20
461.29756099999997
 40
1
 50
210.00000000000003
 51
270
  0
LINE
  8
_0-1_LAY-1
  6
CONTINUOUS
 62
    2
 10
374.09398349999998
 20
461.80000000000001
 11
374.67274149999997
 21
460.79756099999997
  0
ARC
  8
_0-1_LAY-1
  6
CONTINUOUS
 62
    2
 10
372.36193249999997
 20
460.79999999999995
 40
2
 50
29.999999999999996
 51
90
  0
LINE
  8
_0-1_LAY-1
  6
CONTINUOUS
 62
    2
 10
364.50731050000002
 20
462.80000000000007
 11
372.36193249999997
 21
462.80000000000007
  0
LINE
  8
_0-1_LAY-1
  6
CONTINUOUS
 62
    2
 10
362.00741049999999
 20
466.129952
 11
363.64128449999998
 21
463.30000000000001
  0
ARC
  8
_0-1_LAY-1
  6
CONTINUOUS
 62
    2
 10
364.50731050000002
 20
463.79999999999995
 40
1
 50
210.00000000000003
 51
270
  0
LINE
  8
_0-1_LAY-1
  6
CONTINUOUS
 62
    2
 10
349.71728150000001
 20
468.20541800000001
 11
359.09847050000002
 21
467.87781999999999
  0
ARC
  8
_0-1_LAY-1
  6
CONTINUOUS
 62
    2
 10
358.97632249999998
 20
464.379952
 40
3.5
 50
29.999999999999996
 51
88
  0
LINE
  8
_0-1_LAY-1
  6
CONTINUOUS
 62
    2
 10
346.12222650000001
 20
472.25
 11
345.97740249999998
 21
472.25
  0
ARC
  8
_0-1_LAY-1
  6
CONTINUOUS
 62
    2
 10
346.12222650000001
 20
470.25
 40
2
 50
9.8658070000000002
 51
90
  0
LINE
  8
_0-1_LAY-1
  6
CONTINUOUS
 62
    2
 10
348.09265049999999
 20
470.59268199999997
 11
348.29181349999999
 21
469.44749300000001
  0
ARC
  8
_0-1_LAY-1
  6
CONTINUOUS
 62
    2
 10
349.7696315
 20
469.70450500000004
 40
1.5
 50
189.86580699999999
 51
268
  0
ARC
  8
_0-1_LAY-1
  6
CONTINUOUS
 62
    2
 10
349.7696315
 20
422.29549499999996
 40
1.5
 50
91.999999999999986
 51
170.13419300000001
  0
LINE
  8
_0-1_LAY-1
  6
CONTINUOUS
 62
    2
 10
348.09265049999999
 20
421.40731800000003
 11
348.29181349999999
 21
422.55250699999999
  0
ARC
  8
_0-1_LAY-1
  6
CONTINUOUS
 62
    2
 10
346.12222650000001
 20
421.75
 40
2
 50
270
 51
350.13419299999998
  0
LINE
  8
_0-1_LAY-1
  6
CONTINUOUS
 62
    2
 10
349.71728150000001
 20
423.79458199999999
 11
359.20926450000002
 21
424.12604899999997
  0
ARC
  8
_0-1_LAY-1
  6
CONTINUOUS
 62
    2
 10
364.50731050000002
 20
428.19999999999993
 40
1
 50
90
 51
149.99999999999997
  0
ARC
  8
_0-1_LAY-1
  6
CONTINUOUS
 62
    2
 10
359.09409649999998
 20
427.42403899999999
 40
3.2999999999999998
 50
272
 51
330
  0
LINE
  8
_0-1_LAY-1
  6
CONTINUOUS
 62
    2
 10
361.95198049999999
 20
425.77403900000002
 11
363.64128449999998
 21
428.70000000000005
  0
LINE
  8
_0-1_LAY-1
  6
CONTINUOUS
 62
    2
 10
364.50731050000002
 20
429.19999999999999
 11
372.36193249999997
 21
429.19999999999999
  0
ARC
  8
_0-1_LAY-1
  6
CONTINUOUS
 62
    2
 10
375.53876750000001
 20
430.70243899999997
 40
1
 50
90
 51
149.99999999999997
  0
LINE
  8
_0-1_LAY-1
  6
CONTINUOUS
 62
    2
 10
374.09398349999998
 20
430.20000000000005
 11
374.67274149999997
 21
431.20243900000003
  0
ARC
  8
_0-1_LAY-1
  6
CONTINUOUS
 62
    2
 10
372.36193249999997
 20
431.19999999999993
 40
2
 50
270
 51
330
  0
LINE
  8
_0-1_LAY-1
  6
CONTINUOUS
 62
    2
 10
412.13671049999994
 20
431.70243900000003
 11
375.53876750000001
 21
431.70243900000003
  0
ARC
  8
_0-1_LAY-1
  6
CONTINUOUS
 62
    2
 10
412.13671049999994
 20
433.70243899999997
 40
2
 50
270
 51
342.97439300000002
  0
LINE
  8
_0-1_LAY-1
  6
CONTINUOUS
 62
    2
 10
345.97740249999998
 20
472.25
 11
345.22941850000001
 21
476.49202600000001
  0
LINE
  8
_0-1_LAY-1
  6
CONTINUOUS
 62
    2
 10
345.97740249999998
 20
419.75
 11
345.22941850000001
 21
415.50797399999999
  0
LINE
  8
_0-1_LAY-1
  6
CONTINUOUS
 62
    2
 10
335.74099749999999
 20
407.25092600000005
 11
219.38644450000001
 21
403.06345300000004
  0
LINE
  8
_0-1_LAY-1
  6
CONTINUOUS
 62
    2
 10
214.69339650000003
 20
375.91075899999998
 11
213.38644450000001
 21
375.91075899999998
  0
LINE
  8
_0-1_LAY-1
  6
CONTINUOUS
 62
    2
 10
217.49339650000005
 20
374.14999999999998
 11
213.38644450000001
 21
374.14999999999998
  0
LINE
  8
_0-1_LAY-1
  6
CONTINUOUS
 62
    2
 10
205.88644450000001
 20
356
 11
205.88644450000001
 21
535
  0
ARC
  8
_0-1_LAY-1
  6
CONTINUOUS
 62
    2
 10
208.38644450000004
 20
386.05634300000003
 40
3
 50
270
 51
0
  0
LINE
  8
_0-1_LAY-1
  6
CONTINUOUS
 62
    2
 10
208.38644450000004
 20
383.05634299999997
 11
207.88644450000007
 21
383.05634299999997
  0
ARC
  8
_0-1_LAY-1
  6
CONTINUOUS
 62
    2
 10
207.88644450000007
 20
381.05634300000003
 40
2
 50
90
 51
180
  0
ARC
  8
_0-1_LAY-1
  6
CONTINUOUS
 62
    2
 10
219.38644450000001
 20
395.05827299999999
 40
8
 50
92.061122999999995
 51
180
  0
LINE
  8
_0-1_LAY-1
  6
CONTINUOUS
 62
    2
 10
211.38644450000004
 20
386.05634300000003
 11
211.38644450000004
 21
407.82866199999995
  0
LINE
  8
_0-1_LAY-1
  6
CONTINUOUS
 62
    2
 10
211.38644450000004
 20
505.94365700000003
 11
211.38644450000004
 21
484.17133799999999
  0
LINE
  8
_0-1_LAY-1
  6
CONTINUOUS
 62
    2
 10
211.38644450000004
 20
469.16023099999995
 11
211.38644450000004
 21
422.83976899999993
  0
LINE
  8
_0-1_LAY-1
  6
CONTINUOUS
 62
    2
 10
219.38644450000001
 20
388.5
 11
219.38644450000001
 21
403.05309799999998
  0
LINE
  8
_0-1_LAY-1
  6
CONTINUOUS
 62
    2
 10
219.38644450000001
 20
356.5
 11
219.38644450000001
 21
373.17157299999997
  0
ARC
  8
_0-1_LAY-1
  6
CONTINUOUS
 62
    2
 10
218.88644450000004
 20
356.5
 40
0.5
 50
270
 51
0
  0
ARC
  8
_0-1_LAY-1
  6
CONTINUOUS
 62
    2
 10
218.38644450000007
 20
388.5
 40
1
 50
270
 51
0
  0
LINE
  8
_0-1_LAY-1
  6
CONTINUOUS
 62
    2
 10
217.38644450000004
 20
387.5
 11
218.38644450000007
 21
387.5
  0
ARC
  8
_0-1_LAY-1
  6
CONTINUOUS
 62
    2
 10
217.38644450000004
 20
385.5
 40
2
 50
90
 51
180
  0
LINE
  8
_0-1_LAY-1
  6
CONTINUOUS
 62
    2
 10
215.38644450000007
 20
378.97842700000001
 11
215.38644450000007
 21
385.5
  0
LINE
  8
_0-1_LAY-1
  6
CONTINUOUS
 62
    2
 10
218.80065849999997
 20
374.58578599999998
 11
215.97223050000002
 21
377.41421400000002
  0
ARC
  8
_0-1_LAY-1
  6
CONTINUOUS
 62
    2
 10
217.38644450000004
 20
378.82842700000003
 40
2
 50
180
 51
225
  0
ARC
  8
_0-1_LAY-1
  6
CONTINUOUS
 62
    2
 10
217.38644450000004
 20
373.17157299999997
 40
2
 50
0
 51
45
  0
LINE
  8
_0-1_LAY-1
  6
CONTINUOUS
 62
    2
 10
193.68644450000002
 20
356
 11
218.74339650000002
 21
356
  0
LINE
  8
_0-1_LAY-1
  6
CONTINUOUS
 62
    2
 10
193.68644450000002
 20
536
 11
193.68644450000002
 21
356
  0
ARC
  8
_0-1_LAY-1
  6
CONTINUOUS
 62
    2
 10
668.9958355
 20
756.24973399999999
 40
2
 50
180
 51
252.97439299999999
  0
LINE
  8
_0-1_LAY-1
  6
CONTINUOUS
 62
    2
 10
666.9958355
 20
756.24973399999999
 11
666.9958355
 21
792.84767699999998
  0
ARC
  8
_0-1_LAY-1
  6
CONTINUOUS
 62
    2
 10
681.29339649999997
 20
796.409042
 40
44
 50
252.97439299999996
 51
287.02560699999998
  0
ARC
  8
_0-1_LAY-1
  6
CONTINUOUS
 62
    2
 10
693.59095750000006
 20
756.24973399999999
 40
2
 50
287.02560699999998
 51
0
  0
LINE
  8
_0-1_LAY-1
  6
CONTINUOUS
 62
    2
 10
695.59095750000006
 20
756.24973399999999
 11
695.59095750000006
 21
792.84767699999998
  0
ARC
  8
_0-1_LAY-1
  6
CONTINUOUS
 62
    2
 10
699.67334849999997
 20
809.41012300000011
 40
3.5
 50
300
 51
358
  0
LINE
  8
_0-1_LAY-1
  6
CONTINUOUS
 62
    2
 10
703.49881449999998
 20
818.66916300000003
 11
703.17121650000001
 21
809.28797399999996
  0
LINE
  8
_0-1_LAY-1
  6
CONTINUOUS
 62
    2
 10
701.42334849999997
 20
806.37903400000005
 11
698.59339649999993
 21
804.74515999999994
  0
ARC
  8
_0-1_LAY-1
  6
CONTINUOUS
 62
    2
 10
696.59095750000006
 20
792.84767699999998
 40
1
 50
119.99999999999999
 51
180
  0
LINE
  8
_0-1_LAY-1
  6
CONTINUOUS
 62
    2
 10
697.09339649999993
 20
794.292461
 11
696.09095749999994
 21
793.71370300000001
  0
ARC
  8
_0-1_LAY-1
  6
CONTINUOUS
 62
    2
 10
696.09339650000004
 20
796.02451199999996
 40
2
 50
300
 51
0.0000000000000127
  0
LINE
  8
_0-1_LAY-1
  6
CONTINUOUS
 62
    2
 10
698.09339650000004
 20
803.87913400000002
 11
698.09339650000004
 21
796.02451199999996
  0
ARC
  8
_0-1_LAY-1
  6
CONTINUOUS
 62
    2
 10
699.09339650000004
 20
803.87913400000002
 40
1
 50
119.99999999999999
 51
180
  0
ARC
  8
_0-1_LAY-1
  6
CONTINUOUS
 62
    2
 10
704.99790150000001
 20
818.61681300000009
 40
1.5
 50
99.865807000000004
 51
178
  0
LINE
  8
_0-1_LAY-1
  6
CONTINUOUS
 62
    2
 10
705.88607849999994
 20
820.29379399999993
 11
704.74088950000009
 21
820.09463100000016
  0
LINE
  8
_0-1_LAY-1
  6
CONTINUOUS
 62
    2
 10
707.54339649999997
 20
822.26421800000003
 11
707.54339649999997
 21
822.409042
  0
ARC
  8
_0-1_LAY-1
  6
CONTINUOUS
 62
    2
 10
705.54339649999997
 20
822.26421800000003
 40
2
 50
279.86580700000002
 51
0.0000000000000127
  0
ARC
  8
_0-1_LAY-1
  6
CONTINUOUS
 62
    2
 10
665.9958355
 20
792.84767699999998
 40
1
 50
0
 51
59.999999999999993
  0
LINE
  8
_0-1_LAY-1
  6
CONTINUOUS
 62
    2
 10
665.49339650000002
 20
794.292461
 11
666.4958355
 21
793.71370300000001
  0
ARC
  8
_0-1_LAY-1
  6
CONTINUOUS
 62
    2
 10
666.49339650000002
 20
796.02451199999996
 40
2
 50
180
 51
239.99999999999997
  0
LINE
  8
_0-1_LAY-1
  6
CONTINUOUS
 62
    2
 10
664.49339650000002
 20
803.87913400000002
 11
664.49339650000002
 21
796.02451199999996
  0
ARC
  8
_0-1_LAY-1
  6
CONTINUOUS
 62
    2
 10
663.49339650000002
 20
803.87913400000002
 40
1
 50
0
 51
59.999999999999993
  0
LINE
  8
_0-1_LAY-1
  6
CONTINUOUS
 62
    2
 10
661.06743549999999
 20
806.43446500000005
 11
663.99339650000002
 21
804.74515999999994
  0
ARC
  8
_0-1_LAY-1
  6
CONTINUOUS
 62
    2
 10
657.58889149999993
 20
818.61681300000009
 40
1.5
 50
2
 51
80.134192999999996
  0
LINE
  8
_0-1_LAY-1
  6
CONTINUOUS
 62
    2
 10
656.7007145
 20
820.29379399999993
 11
657.84590350000008
 21
820.09463100000016
  0
LINE
  8
_0-1_LAY-1
  6
CONTINUOUS
 62
    2
 10
659.08797849999996
 20
818.66916300000003
 11
659.41944549999994
 21
809.17718000000002
  0
LINE
  8
_0-1_LAY-1
  6
CONTINUOUS
 62
    2
 10
655.04339649999997
 20
822.26421800000003
 11
655.04339649999997
 21
822.409042
  0
ARC
  8
_0-1_LAY-1
  6
CONTINUOUS
 62
    2
 10
657.04339649999997
 20
822.26421800000003
 40
2
 50
180
 51
260.13419299999998
  0
ARC
  8
_0-1_LAY-1
  6
CONTINUOUS
 62
    2
 10
662.71743549999997
 20
809.29234799999995
 40
3.2999999999999998
 50
182
 51
240
  0
ARC
  8
_0-1_LAY-1
  6
CONTINUOUS
 62
    2
 10
767.09586749999994
 20
961.5
 40
1
 50
90
 51
178
  0
ARC
  8
_0-1_LAY-1
  6
CONTINUOUS
 62
    2
 10
765.01842150000004
 20
959.31715399999996
 40
1
 50
280
 51
358
  0
ARC
  8
_0-1_LAY-1
  6
CONTINUOUS
 62
    2
 10
727.5564844999999
 20
952.71160399999985
 40
1
 50
182
 51
280
  0
ARC
  8
_0-1_LAY-1
  6
CONTINUOUS
 62
    2
 10
725.54800849999992
 20
952.919442
 40
1
 50
2
 51
145.94971699999999
  0
LINE
  8
_0-1_LAY-1
  6
CONTINUOUS
 62
    2
 10
726.55709449999995
 20
952.67670399999997
 11
726.54739849999999
 21
952.95434099999989
  0
LINE
  8
_0-1_LAY-1
  6
CONTINUOUS
 62
    2
 10
766.01781249999999
 20
959.28225400000008
 11
766.09647650000011
 21
961.53489899999988
  0
ARC
  8
_0-1_LAY-1
  6
CONTINUOUS
 62
    2
 10
617.19489950000002
 20
960.49999999999989
 40
2
 50
29.994032000000001
 51
90
  0
LINE
  8
_0-1_LAY-1
  6
CONTINUOUS
 62
    2
 10
619.50379750000002
 20
960.500631
 11
618.92705450000005
 21
961.49982000000011
  0
ARC
  8
_0-1_LAY-1
  6
CONTINUOUS
 62
    2
 10
625.56633949999991
 20
964.00000000000011
 40
7
 50
209.99403200000003
 51
270
  0
ARC
  8
_0-1_LAY-1
  6
CONTINUOUS
 62
    2
 10
631.23895949999996
 20
949.00000000000011
 40
8
 50
1.6436170000000001
 51
90
  0
ARC
  8
_0-1_LAY-1
  6
CONTINUOUS
 62
    2
 10
770.29339650000009
 20
963.49999999999989
 40
1
 50
270
 51
0
  0
LINE
  8
_0-1_LAY-1
  6
CONTINUOUS
 62
    2
 10
592.29339649999997
 20
962.50000000000011
 11
770.29339650000009
 21
962.50000000000011
  0
LINE
  8
_0-1_LAY-1
  6
CONTINUOUS
 62
    2
 10
642.59058449999998
 20
832.31061699999998
 11
639.23566849999997
 21
949.2294609999999
  0
ARC
  8
_0-1_LAY-1
  6
CONTINUOUS
 62
    2
 10
710.01999950000004
 20
832.99999999999989
 40
10
 50
280
 51
356.04699099999999
  0
ARC
  8
_0-1_LAY-1
  6
CONTINUOUS
 62
    2
 10
652.56679350000002
 20
832.99999999999989
 40
10
 50
183.95300900000004
 51
260
  0
LINE
  8
_0-1_LAY-1
  6
CONTINUOUS
 62
    2
 10
707.54339649999997
 20
822.409042
 11
711.75648049999995
 21
823.15192200000001
  0
LINE
  8
_0-1_LAY-1
  6
CONTINUOUS
 62
    2
 10
655.04339649999997
 20
822.409042
 11
650.83031249999999
 21
823.15192200000001
  0
LINE
  8
_0-1_LAY-1
  6
CONTINUOUS
 62
    2
 10
762.83270249999998
 20
957.91632599999991
 11
765.1920695
 21
958.33234600000003
  0
LINE
  8
_0-1_LAY-1
  6
CONTINUOUS
 62
    2
 10
727.73013349999997
 20
951.72679599999992
 11
748.38757250000003
 21
955.36925999999994
  0
LINE
  8
_0-1_LAY-1
  6
CONTINUOUS
 62
    2
 10
719.99620849999997
 20
832.31061699999998
 11
723.35112449999997
 21
949.2294609999999
  0
ARC
  8
_0-1_LAY-1
  6
CONTINUOUS
 62
    2
 10
731.34783349999998
 20
949.00000000000011
 40
8
 50
90
 51
178.35638299999999
  0
ARC
  8
_0-1_LAY-1
  6
CONTINUOUS
 62
    2
 10
745.39189350000004
 20
960.49999999999989
 40
2
 50
90
 51
150.005968
  0
LINE
  8
_0-1_LAY-1
  6
CONTINUOUS
 62
    2
 10
743.08299550000004
 20
960.500631
 11
743.6597385
 21
961.49982000000011
  0
ARC
  8
_0-1_LAY-1
  6
CONTINUOUS
 62
    2
 10
737.02045350000003
 20
964.00000000000011
 40
7
 50
270
 51
330.005968
  0
LINE
  8
_0-1_LAY-1
  6
CONTINUOUS
 62
    2
 10
737.02045350000003
 20
957
 11
719.46473449999996
 21
957
  0
LINE
  8
_0-1_LAY-1
  6
CONTINUOUS
 62
    2
 10
625.56633949999991
 20
957
 11
643.12205849999998
 21
957
  0
LINE
  8
_0-1_LAY-1
  6
CONTINUOUS
 62
    2
 10
658.13316550000002
 20
957
 11
704.45362750000004
 21
957
  0
ARC
  8
_0-1_LAY-1
  6
CONTINUOUS
 62
    2
 10
592.29339649999997
 20
963.49999999999989
 40
1
 50
180
 51
270
  0
ARC
  8
_0-1_LAY-1
  6
CONTINUOUS
 62
    2
 10
668.9958355
 20
135.75026600000001
 40
2
 50
107.02560699999999
 51
180
  0
LINE
  8
_0-1_LAY-1
  6
CONTINUOUS
 62
    2
 10
666.9958355
 20
135.75026600000001
 11
666.9958355
 21
99.15232300000001
  0
ARC
  8
_0-1_LAY-1
  6
CONTINUOUS
 62
    2
 10
681.29339649999997
 20
95.590958000000001
 40
44
 50
72.974393000000006
 51
107.02560699999999
  0
ARC
  8
_0-1_LAY-1
  6
CONTINUOUS
 62
    2
 10
693.59095750000006
 20
135.75026600000001
 40
2
 50
0
 51
72.974393000000006
  0
LINE
  8
_0-1_LAY-1
  6
CONTINUOUS
 62
    2
 10
695.59095750000006
 20
135.75026600000001
 11
695.59095750000006
 21
99.15232300000001
  0
ARC
  8
_0-1_LAY-1
  6
CONTINUOUS
 62
    2
 10
699.67334849999997
 20
82.589877000000016
 40
3.5
 50
2
 51
60.000000000000007
  0
LINE
  8
_0-1_LAY-1
  6
CONTINUOUS
 62
    2
 10
703.49881449999998
 20
73.33083699999996
 11
703.17121650000001
 21
82.712026000000023
  0
LINE
  8
_0-1_LAY-1
  6
CONTINUOUS
 62
    2
 10
701.42334849999997
 20
85.62096600000001
 11
698.59339649999993
 21
87.254840000000002
  0
ARC
  8
_0-1_LAY-1
  6
CONTINUOUS
 62
    2
 10
696.59095750000006
 20
99.15232300000001
 40
1
 50
180
 51
239.99999999999997
  0
LINE
  8
_0-1_LAY-1
  6
CONTINUOUS
 62
    2
 10
697.09339649999993
 20
97.707539000000011
 11
696.09095749999994
 21
98.286296999999976
  0
ARC
  8
_0-1_LAY-1
  6
CONTINUOUS
 62
    2
 10
696.09339650000004
 20
95.975488000000027
 40
2
 50
0
 51
59.999999999999993
  0
LINE
  8
_0-1_LAY-1
  6
CONTINUOUS
 62
    2
 10
698.09339650000004
 20
88.120865999999992
 11
698.09339650000004
 21
95.975488000000027
  0
ARC
  8
_0-1_LAY-1
  6
CONTINUOUS
 62
    2
 10
699.09339650000004
 20
88.120865999999992
 40
1
 50
180
 51
239.99999999999997
  0
ARC
  8
_0-1_LAY-1
  6
CONTINUOUS
 62
    2
 10
704.99790150000001
 20
73.383187000000035
 40
1.5
 50
182
 51
260.13419299999998
  0
LINE
  8
_0-1_LAY-1
  6
CONTINUOUS
 62
    2
 10
705.88607849999994
 20
71.706205999999995
 11
704.74088950000009
 21
71.905369000000007
  0
LINE
  8
_0-1_LAY-1
  6
CONTINUOUS
 62
    2
 10
707.54339649999997
 20
69.735781999999958
 11
707.54339649999997
 21
69.590957999999986
  0
ARC
  8
_0-1_LAY-1
  6
CONTINUOUS
 62
    2
 10
705.54339649999997
 20
69.735781999999958
 40
2
 50
0
 51
80.134192999999996
  0
ARC
  8
_0-1_LAY-1
  6
CONTINUOUS
 62
    2
 10
665.9958355
 20
99.15232300000001
 40
1
 50
300
 51
0.0000000000000127
  0
LINE
  8
_0-1_LAY-1
  6
CONTINUOUS
 62
    2
 10
665.49339650000002
 20
97.707539000000011
 11
666.4958355
 21
98.286296999999976
  0
ARC
  8
_0-1_LAY-1
  6
CONTINUOUS
 62
    2
 10
666.49339650000002
 20
95.975488000000027
 40
2
 50
119.99999999999999
 51
180
  0
LINE
  8
_0-1_LAY-1
  6
CONTINUOUS
 62
    2
 10
664.49339650000002
 20
88.120865999999992
 11
664.49339650000002
 21
95.975488000000027
  0
ARC
  8
_0-1_LAY-1
  6
CONTINUOUS
 62
    2
 10
663.49339650000002
 20
88.120865999999992
 40
1
 50
300
 51
0.0000000000000127
  0
LINE
  8
_0-1_LAY-1
  6
CONTINUOUS
 62
    2
 10
661.06743549999999
 20
85.565534999999997
 11
663.99339650000002
 21
87.254840000000002
  0
ARC
  8
_0-1_LAY-1
  6
CONTINUOUS
 62
    2
 10
657.58889149999993
 20
73.383187000000035
 40
1.5
 50
279.86580700000002
 51
358
  0
LINE
  8
_0-1_LAY-1
  6
CONTINUOUS
 62
    2
 10
656.7007145
 20
71.706205999999995
 11
657.84590350000008
 21
71.905369000000007
  0
LINE
  8
_0-1_LAY-1
  6
CONTINUOUS
 62
    2
 10
659.08797849999996
 20
73.33083699999996
 11
659.41944549999994
 21
82.822819999999965
  0
LINE
  8
_0-1_LAY-1
  6
CONTINUOUS
 62
    2
 10
655.04339649999997
 20
69.735781999999958
 11
655.04339649999997
 21
69.590957999999986
  0
ARC
  8
_0-1_LAY-1
  6
CONTINUOUS
 62
    2
 10
657.04339649999997
 20
69.735781999999958
 40
2
 50
99.865807000000004
 51
180
  0
ARC
  8
_0-1_LAY-1
  6
CONTINUOUS
 62
    2
 10
662.71743549999997
 20
82.707651999999982
 40
3.2999999999999998
 50
119.99999999999999
 51
178
  0
ARC
  8
_0-1_LAY-1
  6
CONTINUOUS
 62
    2
 10
767.09586749999994
 20
-69.499999999999972
 40
1
 50
182
 51
270
  0
ARC
  8
_0-1_LAY-1
  6
CONTINUOUS
 62
    2
 10
765.01842150000004
 20
-67.317154000000102
 40
1
 50
2
 51
80.000000000000014
  0
ARC
  8
_0-1_LAY-1
  6
CONTINUOUS
 62
    2
 10
727.5564844999999
 20
-60.711603999999994
 40
1
 50
80
 51
177.99999999999997
  0
ARC
  8
_0-1_LAY-1
  6
CONTINUOUS
 62
    2
 10
725.54800849999992
 20
-60.919441999999975
 40
1
 50
214.05028300000001
 51
358
  0
LINE
  8
_0-1_LAY-1
  6
CONTINUOUS
 62
    2
 10
726.55709449999995
 20
-60.676703999999944
 11
726.54739849999999
 21
-60.954341000000028
  0
LINE
  8
_0-1_LAY-1
  6
CONTINUOUS
 62
    2
 10
766.01781249999999
 20
-67.282253999999966
 11
766.09647650000011
 21
-69.534899000000024
  0
ARC
  8
_0-1_LAY-1
  6
CONTINUOUS
 62
    2
 10
617.19489950000002
 20
-68.500000000000028
 40
2
 50
270
 51
330.005968
  0
LINE
  8
_0-1_LAY-1
  6
CONTINUOUS
 62
    2
 10
619.50379750000002
 20
-68.50063099999997
 11
618.92705450000005
 21
-69.49982
  0
ARC
  8
_0-1_LAY-1
  6
CONTINUOUS
 62
    2
 10
625.56633949999991
 20
-72
 40
7
 50
90
 51
150.005968
  0
ARC
  8
_0-1_LAY-1
  6
CONTINUOUS
 62
    2
 10
631.23895949999996
 20
-57
 40
8
 50
270
 51
358.35638299999999
  0
ARC
  8
_0-1_LAY-1
  6
CONTINUOUS
 62
    2
 10
770.29339650000009
 20
-71.500000000000028
 40
1
 50
0
 51
90
  0
LINE
  8
_0-1_LAY-1
  6
CONTINUOUS
 62
    2
 10
642.59058449999998
 20
59.689383000000049
 11
639.23566849999997
 21
-57.229461000000043
  0
ARC
  8
_0-1_LAY-1
  6
CONTINUOUS
 62
    2
 10
710.01999950000004
 20
58.999999999999972
 40
10
 50
3.9530090000000007
 51
80
  0
ARC
  8
_0-1_LAY-1
  6
CONTINUOUS
 62
    2
 10
652.56679350000002
 20
58.999999999999972
 40
10
 50
100
 51
176.04699099999996
  0
LINE
  8
_0-1_LAY-1
  6
CONTINUOUS
 62
    2
 10
707.54339649999997
 20
69.590957999999986
 11
711.75648049999995
 21
68.848078000000001
  0
LINE
  8
_0-1_LAY-1
  6
CONTINUOUS
 62
    2
 10
655.04339649999997
 20
69.590957999999986
 11
650.83031249999999
 21
68.848078000000001
  0
LINE
  8
_0-1_LAY-1
  6
CONTINUOUS
 62
    2
 10
762.83270249999998
 20
-65.916326000000055
 11
765.1920695
 21
-66.332346000000001
  0
LINE
  8
_0-1_LAY-1
  6
CONTINUOUS
 62
    2
 10
727.73013349999997
 20
-59.726795999999979
 11
748.38757250000003
 21
-63.369259999999997
  0
LINE
  8
_0-1_LAY-1
  6
CONTINUOUS
 62
    2
 10
719.99620849999997
 20
59.689383000000049
 11
723.35112449999997
 21
-57.229461000000043
  0
ARC
  8
_0-1_LAY-1
  6
CONTINUOUS
 62
    2
 10
731.34783349999998
 20
-57
 40
8
 50
181.64361700000003
 51
270
  0
ARC
  8
_0-1_LAY-1
  6
CONTINUOUS
 62
    2
 10
745.39189350000004
 20
-68.500000000000028
 40
2
 50
209.99403200000003
 51
270
  0
LINE
  8
_0-1_LAY-1
  6
CONTINUOUS
 62
    2
 10
743.08299550000004
 20
-68.50063099999997
 11
743.6597385
 21
-69.49982
  0
ARC
  8
_0-1_LAY-1
  6
CONTINUOUS
 62
    2
 10
737.02045350000003
 20
-72
 40
7
 50
29.994032000000001
 51
90
  0
LINE
  8
_0-1_LAY-1
  6
CONTINUOUS
 62
    2
 10
737.02045350000003
 20
-64.999999999999972
 11
719.46473449999996
 21
-64.999999999999972
  0
LINE
  8
_0-1_LAY-1
  6
CONTINUOUS
 62
    2
 10
625.56633949999991
 20
-64.999999999999972
 11
643.12205849999998
 21
-64.999999999999972
  0
ARC
  8
_0-1_LAY-1
  6
CONTINUOUS
 62
    2
 10
592.29339649999997
 20
-71.500000000000028
 40
1
 50
90
 51
180
  0
CIRCLE
  8
_0-1_LAY-1
  6
CONTINUOUS
 62
    2
 10
681.29339649999997
 20
-67.999999999999972
 40
5.5999999999999996
  0
CIRCLE
  8
_0-1_LAY-1
  6
CONTINUOUS
 62
    2
 10
681.29339649999997
 20
-67.999999999999972
 40
8.5
  0
ARC
  8
_0-1_LAY-1
  6
CONTINUOUS
 62
    2
 10
681.29339649999997
 20
-67.999999999999972
 40
11
 50
357.795772
 51
182.20422800000003
  0
ARC
  8
_0-1_LAY-1
  6
CONTINUOUS
 62
    2
 10
694.28377750000004
 20
-68.500000000000028
 40
2
 50
177.79577199999997
 51
270
  0
ARC
  8
_0-1_LAY-1
  6
CONTINUOUS
 62
    2
 10
668.30301550000001
 20
-68.500000000000028
 40
2
 50
270
 51
2.2042280000000165
  0
LINE
  8
_0-1_LAY-1
  6
CONTINUOUS
 62
    2
 10
694.28377750000004
 20
-70.5
 11
770.29339650000009
 21
-70.5
  0
LINE
  8
_0-1_LAY-1
  6
CONTINUOUS
 62
    2
 10
592.29339649999997
 20
-70.5
 11
668.30301550000001
 21
-70.5
  0
LINE
  8
_0-1_LAY-1
  6
CONTINUOUS
 62
    2
 10
691.87640150000004
 20
-64.999999999999972
 11
704.45362750000004
 21
-64.999999999999972
  0
LINE
  8
_0-1_LAY-1
  6
CONTINUOUS
 62
    2
 10
658.13316550000002
 20
-64.999999999999972
 11
670.71039150000001
 21
-64.999999999999972
  0
LINE
  8
_0-1_LAY-1
  6
CONTINUOUS
 62
    2
 10
756.79339649999997
 20
-83.906952000000018
 11
756.79339649999997
 21
-83.60695199999995
  0
LINE
  8
_0-1_LAY-1
  6
CONTINUOUS
 62
    2
 10
756.79339649999997
 20
-83.906952000000018
 11
681.29339649999997
 21
-83.906952000000018
  0
LINE
  8
_0-1_LAY-1
  6
CONTINUOUS
 62
    2
 10
605.79339649999997
 20
-83.906952000000018
 11
681.29339649999997
 21
-83.906952000000018
  0
LINE
  8
_0-1_LAY-1
  6
CONTINUOUS
 62
    2
 10
605.79339649999997
 20
-83.906952000000018
 11
605.79339649999997
 21
-83.60695199999995
  0
LINE
  8
_0-1_LAY-1
  6
CONTINUOUS
 62
    2
 10
756.79339649999997
 20
975.90695200000005
 11
756.79339649999997
 21
975.60695199999998
  0
LINE
  8
_0-1_LAY-1
  6
CONTINUOUS
 62
    2
 10
756.79339649999997
 20
975.90695200000005
 11
681.29339649999997
 21
975.90695200000005
  0
LINE
  8
_0-1_LAY-1
  6
CONTINUOUS
 62
    2
 10
605.79339649999997
 20
975.90695200000005
 11
681.29339649999997
 21
975.90695200000005
  0
LINE
  8
_0-1_LAY-1
  6
CONTINUOUS
 62
    2
 10
605.79339649999997
 20
975.90695200000005
 11
605.79339649999997
 21
975.60695199999998
  0
LINE
  8
_0-1_LAY-1
  6
CONTINUOUS
 62
    2
 10
771.29339649999997
 20
975
 11
771.29339649999997
 21
963.49999999999989
  0
LINE
  8
_0-1_LAY-1
  6
CONTINUOUS
 62
    2
 10
771.29339649999997
 20
-83.60695199999995
 11
771.29339649999997
 21
-71.500000000000028
  0
LINE
  8
_0-1_LAY-1
  6
CONTINUOUS
 62
    2
 10
771.29339649999997
 20
-84
 11
591.29339649999997
 21
-84
  0
LINE
  8
_0-1_LAY-1
  6
CONTINUOUS
 62
    2
 10
591.29339649999997
 20
-83.60695199999995
 11
771.29339649999997
 21
-83.60695199999995
  0
LINE
  8
_0-1_LAY-1
  6
CONTINUOUS
 62
    2
 10
591.29339649999997
 20
-83.60695199999995
 11
591.29339649999997
 21
-71.500000000000028
  0
LINE
  8
_0-1_LAY-1
  6
CONTINUOUS
 62
    2
 10
771.29339649999997
 20
975.60695199999998
 11
771.29339649999997
 21
963.49999999999989
  0
LINE
  8
_0-1_LAY-1
  6
CONTINUOUS
 62
    2
 10
591.29339649999997
 20
975.60695199999998
 11
591.29339649999997
 21
963.49999999999989
  0
LINE
  8
_0-1_LAY-1
  6
CONTINUOUS
 62
    2
 10
591.29339649999997
 20
975.60695199999998
 11
771.29339649999997
 21
975.60695199999998
  0
LINE
  8
_0-1_LAY-1
  6
CONTINUOUS
 62
    2
 10
771.29339649999997
 20
976.00000000000011
 11
591.29339649999997
 21
976.00000000000011
  0
LINE
  8
_0-1_LAY-1
  6
CONTINUOUS
 62
    2
 10
692.04339649999997
 20
-106.00000000000003
 11
694.29339649999997
 21
-106.00000000000003
  0
ARC
  8
_0-1_LAY-1
  6
CONTINUOUS
 62
    2
 10
672.54339649999997
 20
-95.502704000000023
 40
3.52
 50
90
 51
180
  0
ARC
  8
_0-1_LAY-1
  6
CONTINUOUS
 62
    2
 10
690.04339649999997
 20
-95.502704000000023
 40
3.52
 50
0
 51
90
  0
LINE
  8
_0-1_LAY-1
  6
CONTINUOUS
 62
    2
 10
681.29339649999997
 20
-90.693819000000047
 11
683.29116850000003
 21
-91.982703999999984
  0
LINE
  8
_0-1_LAY-1
  6
CONTINUOUS
 62
    2
 10
681.29339649999997
 20
-90.693819000000047
 11
679.29562450000003
 21
-91.982703999999984
  0
LINE
  8
_0-1_LAY-1
  6
CONTINUOUS
 62
    2
 10
693.56339650000007
 20
-106.00000000000003
 11
693.56339650000007
 21
-95.502704000000023
  0
LINE
  8
_0-1_LAY-1
  6
CONTINUOUS
 62
    2
 10
669.02339649999999
 20
-106.00000000000003
 11
669.02339649999999
 21
-95.502704000000023
  0
LINE
  8
_0-1_LAY-1
  6
CONTINUOUS
 62
    2
 10
668.29339649999997
 20
-106.00000000000003
 11
694.29339649999997
 21
-106.00000000000003
  0
LINE
  8
_0-1_LAY-1
  6
CONTINUOUS
 62
    2
 10
690.04339649999997
 20
-91.982703999999984
 11
681.29339649999997
 21
-91.982703999999984
  0
LINE
  8
_0-1_LAY-1
  6
CONTINUOUS
 62
    2
 10
672.54339649999997
 20
-91.982703999999984
 11
681.29339649999997
 21
-91.982703999999984
  0
LINE
  8
_0-1_LAY-1
  6
CONTINUOUS
 62
    2
 10
166.29339649999997
 20
505.01711900000004
 11
166.29339649999997
 21
504
  0
LINE
  8
_0-1_LAY-1
  6
CONTINUOUS
 62
    2
 10
193.29339649999997
 20
535.866309
 11
179.79339649999997
 21
535.866309
  0
LINE
  8
_0-1_LAY-1
  6
CONTINUOUS
 62
    2
 10
771.29339649999997
 20
989.37543700000015
 11
591.29339649999997
 21
989.37543700000015
  0
LINE
  8
_0-1_LAY-1
  6
CONTINUOUS
 62
    2
 10
704.29339649999997
 20
1028
 11
704.29339649999997
 21
1003.8000000000001
  0
LINE
  8
_0-1_LAY-1
  6
CONTINUOUS
 62
    2
 10
658.29339649999997
 20
1028
 11
658.29339649999997
 21
1003.8000000000001
  0
ARC
  8
_0-1_LAY-1
  6
CONTINUOUS
 62
    2
 10
681.29339649999997
 20
1028
 40
23
 50
0
 51
180
  0
ARC
  8
_0-1_LAY-1
  6
CONTINUOUS
 62
    2
 10
681.29339649999997
 20
1028
 40
31
 50
2
 51
27.797846000000003
  0
ARC
  8
_0-1_LAY-1
  6
CONTINUOUS
 62
    2
 10
681.29339649999997
 20
1028
 40
31
 50
154.08918600000001
 51
180
  0
LINE
  8
_0-1_LAY-1
  6
CONTINUOUS
 62
    2
 10
719.14973650000002
 20
1003.5594749999999
 11
643.43705649999993
 21
1003.5594749999999
  0
ARC
  8
_0-1_LAY-1
  6
CONTINUOUS
 62
    2
 10
681.29339649999997
 20
-136.00000000000003
 40
31
 50
332.20215400000001
 51
358
  0
LINE
  8
_0-1_LAY-1
  6
CONTINUOUS
 62
    2
 10
704.29339649999997
 20
-121.77905600000008
 11
704.29339649999997
 21
-111.55947500000005
  0
LINE
  8
_0-1_LAY-1
  6
CONTINUOUS
 62
    2
 10
658.29339649999997
 20
-121.77905600000008
 11
658.29339649999997
 21
-111.55947500000005
  0
ARC
  8
_0-1_LAY-1
  6
CONTINUOUS
 62
    2
 10
731.49604850000003
 20
980.2049209999999
 40
22
 50
40.315460000000002
 51
84.249639000000002
  0
ARC
  8
_0-1_LAY-1
  6
CONTINUOUS
 62
    2
 10
631.09074450000003
 20
980.2049209999999
 40
22
 50
95.750360999999984
 51
139.68454
  0
ARC
  8
_0-1_LAY-1
  6
CONTINUOUS
 62
    2
 10
731.49604850000003
 20
-88.204921000000041
 40
22
 50
275.750361
 51
319.68453999999997
  0
ARC
  8
_0-1_LAY-1
  6
CONTINUOUS
 62
    2
 10
631.09074450000003
 20
-88.204921000000041
 40
22
 50
220.31546000000003
 51
264.249639
  0
LINE
  8
_0-1_LAY-1
  6
CONTINUOUS
 62
    2
 10
649.72653349999996
 20
-136.00000000000003
 11
665.50996550000002
 21
-163.33770500000006
  0
LINE
  8
_0-1_LAY-1
  6
CONTINUOUS
 62
    2
 10
665.50996550000002
 20
-163.33770500000006
 11
697.07682750000004
 21
-163.33770500000006
  0
LINE
  8
_0-1_LAY-1
  6
CONTINUOUS
 62
    2
 10
697.07682750000004
 20
-163.33770500000006
 11
712.86025949999998
 21
-136.00000000000003
  0
LINE
  8
_0-1_LAY-1
  6
CONTINUOUS
 62
    2
 10
712.86025949999998
 20
-136.00000000000003
 11
697.07682750000004
 21
-108.662295
  0
LINE
  8
_0-1_LAY-1
  6
CONTINUOUS
 62
    2
 10
697.07682750000004
 20
-108.662295
 11
665.50996550000002
 21
-108.662295
  0
LINE
  8
_0-1_LAY-1
  6
CONTINUOUS
 62
    2
 10
665.50996550000002
 20
-108.662295
 11
649.72653349999996
 21
-136.00000000000003
  0
CIRCLE
  8
_0-1_LAY-1
  6
CONTINUOUS
 62
    2
 10
681.29339649999997
 20
-136.00000000000003
 40
27.337705
  0
CIRCLE
  8
_0-1_LAY-1
  6
CONTINUOUS
 62
    2
 10
681.29339649999997
 20
-136.00000000000003
 40
10.786611000000001
  0
CIRCLE
  8
_0-1_LAY-1
  6
CONTINUOUS
 62
    2
 10
681.29339649999997
 20
-136.00000000000003
 40
11.868009000000001
  0
LINE
  8
_0-1_LAY-1
  6
CONTINUOUS
 62
    2
 10
712.99230049999994
 20
-116.52712700000009
 11
712.3435455
 21
-135.10502599999992
  0
LINE
  8
_0-1_LAY-1
  6
CONTINUOUS
 62
    2
 10
712.27701549999995
 20
-137.01020900000003
 11
712.27451250000001
 21
-137.08188399999992
  0
LINE
  8
_0-1_LAY-1
  6
CONTINUOUS
 62
    2
 10
649.5944925
 20
-116.52712700000009
 11
650.24324750000005
 21
-135.10502599999992
  0
ARC
  8
_0-1_LAY-1
  6
CONTINUOUS
 62
    2
 10
681.29339649999997
 20
-136.00000000000003
 40
31
 50
181.86773099999996
 51
205.91081399999999
  0
LINE
  8
_0-1_LAY-1
  6
CONTINUOUS
 62
    2
 10
719.14973650000002
 20
-111.55947500000005
 11
698.74951550000003
 21
-111.55947500000005
  0
LINE
  8
_0-1_LAY-1
  6
CONTINUOUS
 62
    2
 10
663.83727750000003
 20
-111.55947500000005
 11
643.43705649999993
 21
-111.55947500000005
  0
LINE
  8
_0-1_LAY-1
  6
CONTINUOUS
 62
    2
 10
694.29339649999997
 20
-106.00000000000003
 11
694.29339649999997
 21
-108.662295
  0
LINE
  8
_0-1_LAY-1
  6
CONTINUOUS
 62
    2
 10
688.69339450000007
 20
-106.00000000000003
 11
688.69339450000007
 21
-108.662295
  0
LINE
  8
_0-1_LAY-1
  6
CONTINUOUS
 62
    2
 10
673.69592950000003
 20
-106.00000000000003
 11
673.69592950000003
 21
-108.662295
  0
LINE
  8
_0-1_LAY-1
  6
CONTINUOUS
 62
    2
 10
668.29339649999997
 20
-106.00000000000003
 11
668.29339649999997
 21
-108.662295
  0
TEXT
  8
_0-2_LAY-2
 62
    7
 10
221.6683965
 20
604.70000000000005
 40
20
 41
0.8399999999999998
 50
0
  1
（
  0
TEXT
  8
_0-2_LAY-2
 62
    7
 10
241.66839649999997
 20
604.70000000000005
 40
20
 41
0.8399999999999998
 50
0
  1
２７６
  0
TEXT
  8
_0-2_LAY-2
 62
    7
 10
301.66839649999997
 20
604.70000000000005
 40
20
 41
0.8399999999999998
 50
0
  1
）
  0
LINE
  8
_0-2_LAY-2
  6
CONTINUOUS
 62
    1
 10
141.29339649999994
 20
535
 11
141.29339649999994
 21
604.20000000000005
  0
LINE
  8
_0-2_LAY-2
  6
CONTINUOUS
 62
    1
 10
402.04339649999997
 20
446
 11
402.04339649999997
 21
604.20000000000005
  0
LINE
  8
_0-2_LAY-2
  6
CONTINUOUS
 62
    1
 10
141.29339649999994
 20
603.69999999999993
 11
402.04339649999997
 21
603.69999999999993
  0
LINE
  8
_0-2_LAY-2
  6
CONTINUOUS
 62
    1
 10
143.2933965
 20
604.03333300000008
 11
141.29339649999994
 21
603.69999999999993
  0
LINE
  8
_0-2_LAY-2
  6
CONTINUOUS
 62
    1
 10
141.29339649999994
 20
603.69999999999993
 11
143.2933965
 21
603.36666700000001
  0
LINE
  8
_0-2_LAY-2
  6
CONTINUOUS
 62
    1
 10
400.04339650000003
 20
603.36666700000001
 11
402.04339649999997
 21
603.69999999999993
  0
LINE
  8
_0-2_LAY-2
  6
CONTINUOUS
 62
    1
 10
402.04339649999997
 20
603.69999999999993
 11
400.04339650000003
 21
604.03333300000008
  0
LINE
  8
_0-2_LAY-2
  6
CONTINUOUS
 62
    1
 10
89.2933965
 20
464
 11
89.2933965
 21
604.20000000000005
  0
LINE
  8
_0-2_LAY-2
  6
CONTINUOUS
 62
    1
 10
141.29339649999994
 20
522
 11
141.29339649999994
 21
604.20000000000005
  0
TEXT
  8
_0-2_LAY-2
 62
    7
 10
95.2933965
 20
604.70000000000005
 40
20
 41
0.8399999999999998
 50
0
  1
５２
  0
LINE
  8
_0-2_LAY-2
  6
CONTINUOUS
 62
    1
 10
89.2933965
 20
603.69999999999993
 11
141.29339649999994
 21
603.69999999999993
  0
LINE
  8
_0-2_LAY-2
  6
CONTINUOUS
 62
    1
 10
91.293396499999972
 20
604.03333300000008
 11
89.2933965
 21
603.69999999999993
  0
LINE
  8
_0-2_LAY-2
  6
CONTINUOUS
 62
    1
 10
89.2933965
 20
603.69999999999993
 11
91.293396499999972
 21
603.36666700000001
  0
LINE
  8
_0-2_LAY-2
  6
CONTINUOUS
 62
    1
 10
139.29339649999997
 20
603.36666700000001
 11
141.29339649999994
 21
603.69999999999993
  0
LINE
  8
_0-2_LAY-2
  6
CONTINUOUS
 62
    1
 10
141.29339649999994
 20
603.69999999999993
 11
139.29339649999997
 21
604.03333300000008
  0
LINE
  8
_0-2_LAY-2
  6
CONTINUOUS
 62
    1
 10
204.88644450000007
 20
536
 11
462.79339649999997
 21
536
  0
LINE
  8
_0-2_LAY-2
  6
CONTINUOUS
 62
    1
 10
218.74339650000002
 20
356
 11
462.79339649999997
 21
356
  0
TEXT
  8
_0-2_LAY-2
 62
    7
 10
461.29339649999997
 20
406
 40
20
 41
0.8399999999999998
 50
90
  1
φ
  0
TEXT
  8
_0-2_LAY-2
 62
    7
 10
461.29339649999997
 20
426
 40
20
 41
0.8399999999999998
 50
90
  1
１８０
  0
LINE
  8
_0-2_LAY-2
  6
CONTINUOUS
 62
    1
 10
462.29339650000003
 20
536
 11
462.29339650000003
 21
356
  0
LINE
  8
_0-2_LAY-2
  6
CONTINUOUS
 62
    1
 10
462.62672950000001
 20
534
 11
462.29339650000003
 21
536
  0
LINE
  8
_0-2_LAY-2
  6
CONTINUOUS
 62
    1
 10
462.29339650000003
 20
536
 11
461.96006349999993
 21
534
  0
LINE
  8
_0-2_LAY-2
  6
CONTINUOUS
 62
    1
 10
461.96006349999993
 20
358
 11
462.29339650000003
 21
356
  0
LINE
  8
_0-2_LAY-2
  6
CONTINUOUS
 62
    1
 10
462.29339650000003
 20
356
 11
462.62672950000001
 21
358
  0
TEXT
  8
_0-2_LAY-2
 62
    7
 10
56.2933965
 20
344
 40
20
 41
0.8399999999999998
 50
90
  1
２６０
  0
LINE
  8
_0-2_LAY-2
  6
CONTINUOUS
 62
    1
 10
118.56134550000004
 20
504
 11
52.293396499999972
 21
504
  0
LINE
  8
_0-2_LAY-2
  6
CONTINUOUS
 62
    1
 10
117.16011649999999
 20
244
 11
52.293396499999972
 21
244
  0
LINE
  8
_0-2_LAY-2
  6
CONTINUOUS
 62
    1
 10
57.293396499999943
 20
504
 11
57.293396499999943
 21
244
  0
LINE
  8
_0-2_LAY-2
  6
CONTINUOUS
 62
    1
 10
58.126729499999982
 20
499
 11
57.293396499999943
 21
504
  0
LINE
  8
_0-2_LAY-2
  6
CONTINUOUS
 62
    1
 10
57.293396499999943
 20
504
 11
56.460063500000075
 21
499
  0
LINE
  8
_0-2_LAY-2
  6
CONTINUOUS
 62
    1
 10
56.460063500000075
 20
249
 11
57.293396499999943
 21
244
  0
LINE
  8
_0-2_LAY-2
  6
CONTINUOUS
 62
    1
 10
57.293396499999943
 20
244
 11
58.126729499999982
 21
249
  0
TEXT
  8
_0-2_LAY-2
 62
    7
 10
-21.606603500000006
 20
604.79999999999995
 40
20
 41
0.8399999999999998
 50
0
  1
Ｒｃ１／２
  0
TEXT
  8
_0-2_LAY-2
 62
    7
 10
-21.306603500000023
 20
564.60000000000002
 40
20
 41
0.8399999999999998
 50
0
  1
Ｒｃ３／４
  0
TEXT
  8
_0-2_LAY-2
 62
    7
 10
184.29339649999997
 20
207.60000000000002
 40
20
 41
0.8399999999999998
 50
0
  1
Ｒｃ１
  0
LINE
  8
_0-2_LAY-2
  6
CONTINUOUS
 62
    1
 10
141.29339649999994
 20
504
 11
74.593396500000068
 21
563.5
  0
LINE
  8
_0-2_LAY-2
  6
CONTINUOUS
 62
    1
 10
74.593396500000068
 20
563.5
 11
-23.006603500000011
 21
563.5
  0
LINE
  8
_0-2_LAY-2
  6
CONTINUOUS
 62
    1
 10
132.72157249999998
 20
509.41309699999999
 11
141.29339649999994
 21
504
  0
LINE
  8
_0-2_LAY-2
  6
CONTINUOUS
 62
    1
 10
141.29339649999994
 20
504
 11
134.94051349999995
 21
511.90054799999996
  0
LINE
  8
_0-2_LAY-2
  6
CONTINUOUS
 62
    1
 10
141.29339649999994
 20
522
 11
73.793396499999943
 21
602.39999999999998
  0
LINE
  8
_0-2_LAY-2
  6
CONTINUOUS
 62
    1
 10
73.793396499999943
 20
602.39999999999998
 11
-22.206603500000057
 21
602.39999999999998
  0
LINE
  8
_0-2_LAY-2
  6
CONTINUOUS
 62
    1
 10
133.5870305
 20
528.587086
 11
141.29339649999994
 21
522
  0
LINE
  8
_0-2_LAY-2
  6
CONTINUOUS
 62
    1
 10
141.29339649999994
 20
522
 11
136.13994249999996
 21
530.73038900000006
  0
LINE
  8
_0-2_LAY-2
  6
CONTINUOUS
 62
    1
 10
141.29339649999994
 20
244
 11
181.29339649999997
 21
205
  0
LINE
  8
_0-2_LAY-2
  6
CONTINUOUS
 62
    1
 10
181.29339649999997
 20
205
 11
242.2933965
 21
205
  0
LINE
  8
_0-2_LAY-2
  6
CONTINUOUS
 62
    1
 10
149.61689850000008
 20
238.212332
 11
141.29339649999994
 21
244
  0
LINE
  8
_0-2_LAY-2
  6
CONTINUOUS
 62
    1
 10
141.29339649999994
 20
244
 11
147.28989750000008
 21
235.82566500000001
  0
TEXT
  8
_0-2_LAY-2
 62
    7
 10
505.29339649999997
 20
-6.3999999999999773
 40
20
 41
0.8399999999999998
 50
0
  1
Ｒｃ１／４
  0
LINE
  8
_0-2_LAY-2
  6
CONTINUOUS
 62
    1
 10
681.29339649999997
 20
-67.999999999999972
 11
608.29339649999997
 21
-9
  0
LINE
  8
_0-2_LAY-2
  6
CONTINUOUS
 62
    1
 10
608.29339649999997
 20
-9
 11
492.29339650000003
 21
-9
  0
LINE
  8
_0-2_LAY-2
  6
CONTINUOUS
 62
    1
 10
672.46834650000005
 20
-63.010383999999959
 11
681.29339649999997
 21
-67.999999999999972
  0
LINE
  8
_0-2_LAY-2
  6
CONTINUOUS
 62
    1
 10
681.29339649999997
 20
-67.999999999999972
 11
674.56362950000005
 21
-60.417915000000022
  0
LINE
  8
_0-2_LAY-2
  6
CONTINUOUS
 62
    1
 10
56.793396499999972
 20
244
 11
9.9266764999999566
 21
244
  0
LINE
  8
_0-2_LAY-2
  6
CONTINUOUS
 62
    1
 10
125.2933965
 20
522
 11
9.9266764999999566
 21
522
  0
TEXT
  8
_0-2_LAY-2
 62
    7
 10
13.926676499999985
 20
333
 40
20
 41
0.8399999999999998
 50
90
  1
（２７９）
  0
LINE
  8
_0-2_LAY-2
  6
CONTINUOUS
 62
    1
 10
14.926676500000013
 20
522
 11
14.926676500000013
 21
244
  0
LINE
  8
_0-2_LAY-2
  6
CONTINUOUS
 62
    1
 10
15.760009500000052
 20
517
 11
14.926676500000013
 21
522
  0
LINE
  8
_0-2_LAY-2
  6
CONTINUOUS
 62
    1
 10
14.926676500000013
 20
522
 11
14.093342499999977
 21
517
  0
LINE
  8
_0-2_LAY-2
  6
CONTINUOUS
 62
    1
 10
14.093342499999977
 20
249
 11
14.926676500000013
 21
244
  0
LINE
  8
_0-2_LAY-2
  6
CONTINUOUS
 62
    1
 10
14.926676500000013
 20
244
 11
15.760009500000052
 21
249
  0
LINE
  8
_0-2_LAY-2
  6
CONTINUOUS
 62
    2
 10
145.96785350000005
 20
575.04674499999999
 11
145.96785350000005
 21
561.02337199999999
  0
LINE
  8
_0-2_LAY-2
  6
CONTINUOUS
 62
    2
 10
145.96785350000005
 20
561.02337199999999
 11
150.64231149999998
 21
561.02337199999999
  0
LINE
  8
_0-2_LAY-2
  6
CONTINUOUS
 62
    2
 10
150.64231149999998
 20
561.02337199999999
 11
141.29339649999994
 21
547
  0
LINE
  8
_0-2_LAY-2
  6
CONTINUOUS
 62
    2
 10
141.29339649999994
 20
547
 11
131.94448150000008
 21
561.02337199999999
  0
LINE
  8
_0-2_LAY-2
  6
CONTINUOUS
 62
    2
 10
131.94448150000008
 20
561.02337199999999
 11
136.61893950000001
 21
561.02337199999999
  0
LINE
  8
_0-2_LAY-2
  6
CONTINUOUS
 62
    2
 10
136.61893950000001
 20
561.02337199999999
 11
136.61893950000001
 21
575.04674499999999
  0
LINE
  8
_0-2_LAY-2
  6
CONTINUOUS
 62
    2
 10
136.61893950000001
 20
575.04674499999999
 11
145.96785350000005
 21
575.04674499999999
  0
TEXT
  8
_0-3_LAY-3
 62
    7
 10
940.84539650000011
 20
47.768000000000058
 40
16
 41
0.9847139999999999
 50
0
  1
型式
  0
TEXT
  8
_0-3_LAY-3
 62
    7
 10
940.46139649999986
 20
25.239999999999981
 40
16
 41
0.9847139999999999
 50
0
  1
品名
  0
LINE
  8
_0-3_LAY-3
  6
CONTINUOUS
 62
    4
 10
933.29339649999997
 20
2.5200000000000102
 11
1220.0133965
 21
2.5200000000000102
  0
LINE
  8
_0-3_LAY-3
  6
CONTINUOUS
 62
    1
 10
933.29339649999997
 20
22.039999999999992
 11
1220.0133965
 21
22.039999999999992
  0
TEXT
  8
_0-3_LAY-3
 62
    7
 10
1035.1813964999999
 20
4.6320000000000334
 40
16
 41
1.4739199999999999
 50
0
  1
外観図
  0
LINE
  8
_0-3_LAY-3
  6
CONTINUOUS
 62
    4
 10
933.29339649999997
 20
89.240000000000009
 11
1220.0133965
 21
89.240000000000009
  0
LINE
  8
_0-3_LAY-3
  6
CONTINUOUS
 62
    1
 10
933.29339649999997
 20
44.439999999999998
 11
1220.0133965
 21
44.439999999999998
  0
LINE
  8
_0-3_LAY-3
  6
CONTINUOUS
 62
    1
 10
933.29339649999997
 20
66.840000000000046
 11
1220.0133965
 21
66.840000000000046
  0
LINE
  8
_0-3_LAY-3
  6
CONTINUOUS
 62
    1
 10
981.29339649999997
 20
89.240000000000009
 11
981.29339649999997
 21
22.039999999999992
  0
LINE
  8
_0-3_LAY-3
  6
CONTINUOUS
 62
    4
 10
933.29339649999997
 20
-16.999999999999972
 11
1220.0133965
 21
-16.999999999999972
  0
LINE
  8
_0-3_LAY-3
  6
CONTINUOUS
 62
    4
 10
1220.0133965
 20
-16.999999999999972
 11
1220.0133965
 21
89.240000000000009
  0
LINE
  8
_0-3_LAY-3
  6
CONTINUOUS
 62
    4
 10
933.29339649999997
 20
-16.999999999999972
 11
933.29339649999997
 21
89.240000000000009
  0
TEXT
  8
_0-3_LAY-3
 62
    7
 10
935.34139649999997
 20
69.655999999999992
 40
16
 41
0.8399999999999999
 50
0
  1
作成日
  0
TEXT
  8
_0-3_LAY-3
 62
    7
 10
984.29739649999999
 20
25.156000000000006
 40
16
 41
0.6410529999999999
 50
0
  1
二段一次用調整器（ガス放出防止器内蔵）
  0
TEXT
  8
_0-3_LAY-3
 62
    7
 10
984.14219649999995
 20
47.575999999999993
 40
16
 41
0.8399999999999999
 50
0
  1
ＢＲＶ－１００Ｍ
  0
INSERT
  2
-000-SYM-1
  8
_0-3_LAY-3
 10
1078.4413005000001
 20
-7.3485000000000014
 41
2.4300000000000002
 42
2.4300000000000002
 50
0
  0
TEXT
  8
_0-3_LAY-3
 62
    7
 10
990.07739650000008
 20
69.655999999999992
 40
16
 41
0.8399999999999999
 50
0
  1
２０１４年　４月　１日
  0
LINE
  8
_0-1_LAY-1
  6
EXLTYPE3
 62
    1
 10
1859.6452136055186
 20
628.17722033551786
 11
1659.5784366055188
 21
628.17722033551786
  0
LINE
  8
_0-1_LAY-1
  6
EXLTYPE3
 62
    1
 10
1760.5467166055187
 20
725.40593533551782
 11
1760.5467166055187
 21
416.62463233551784
  0
LINE
  8
_0-1_LAY-1
  6
EXLTYPE3
 62
    1
 10
1780.8472176055188
 20
464.42817233551784
 11
1740.513327605519
 21
464.42817233551784
  0
LINE
  8
_0-1_LAY-1
  6
CONTINUOUS
 62
    3
 10
1786.187485605519
 20
667.66054233551779
 11
1792.7340656055189
 21
677.74139033551796
  0
LINE
  8
_0-1_LAY-1
  6
CONTINUOUS
 62
    3
 10
1784.4841196055188
 20
668.71587533551792
 11
1786.187485605519
 21
667.66054233551779
  0
LINE
  8
_0-1_LAY-1
  6
CONTINUOUS
 62
    3
 10
1791.0354256055189
 20
678.80400233551791
 11
1784.4841196055188
 21
668.71587533551792
  0
LINE
  8
_0-1_LAY-1
  6
CONTINUOUS
 62
    3
 10
1792.7340656055189
 20
677.74139033551796
 11
1791.0354256055189
 21
678.80400233551791
  0
LINE
  8
_0-1_LAY-1
  6
CONTINUOUS
 62
    3
 10
1776.0657906055189
 20
672.6351483355179
 11
1780.668978605519
 21
683.74822933551786
  0
LINE
  8
_0-1_LAY-1
  6
CONTINUOUS
 62
    3
 10
1777.9329526055189
 20
671.90790133551786
 11
1776.0657906055189
 21
672.6351483355179
  0
LINE
  8
_0-1_LAY-1
  6
CONTINUOUS
 62
    3
 10
1780.2328866055186
 20
677.46043333551779
 11
1777.9329526055189
 21
671.90790133551786
  0
LINE
  8
_0-1_LAY-1
  6
CONTINUOUS
 62
    3
 10
1780.668978605519
 20
683.74822933551786
 11
1782.5328206055187
 21
683.01296433551784
  0
LINE
  8
_0-1_LAY-1
  6
CONTINUOUS
 62
    3
 10
1782.2750666055188
 20
676.61453433551787
 11
1782.577889605519
 21
669.67876033551784
  0
LINE
  8
_0-1_LAY-1
  6
CONTINUOUS
 62
    3
 10
1785.0690876055187
 20
681.89199433551789
 11
1786.9974746055186
 21
680.94182333551782
  0
LINE
  8
_0-1_LAY-1
  6
CONTINUOUS
 62
    3
 10
1786.9974746055186
 20
680.94182333551782
 11
1782.2750666055188
 21
676.61453433551787
  0
LINE
  8
_0-1_LAY-1
  6
CONTINUOUS
 62
    3
 10
1782.577889605519
 20
669.67876033551784
 11
1780.5262746055187
 21
670.7407403355179
  0
LINE
  8
_0-1_LAY-1
  6
CONTINUOUS
 62
    3
 10
1780.2328866055186
 20
677.46043333551779
 11
1785.0690876055187
 21
681.89199433551789
  0
LINE
  8
_0-1_LAY-1
  6
CONTINUOUS
 62
    3
 10
1782.5328206055187
 20
683.01296433551784
 11
1780.2328866055186
 21
677.46043333551779
  0
LINE
  8
_0-1_LAY-1
  6
CONTINUOUS
 62
    3
 10
1780.5262746055187
 20
670.7407403355179
 11
1780.2328866055186
 21
677.46043333551779
  0
ARC
  8
_0-1_LAY-1
  6
CONTINUOUS
 62
    3
 10
1770.7365806055186
 20
678.1032623355178
 40
4.006678
 50
258
 51
348
  0
ARC
  8
_0-1_LAY-1
  6
CONTINUOUS
 62
    3
 10
1771.576856605519
 20
682.05645433551786
 40
4.006678
 50
348
 51
77.999999999999986
  0
ARC
  8
_0-1_LAY-1
  6
CONTINUOUS
 62
    3
 10
1770.7635886055186
 20
678.23032933551792
 40
2.003339
 50
168
 51
258.00000000000006
  0
ARC
  8
_0-1_LAY-1
  6
CONTINUOUS
 62
    3
 10
1771.5978186055188
 20
682.15507033551785
 40
2.003339
 50
348
 51
77.999999999999986
  0
ARC
  8
_0-1_LAY-1
  6
CONTINUOUS
 62
    3
 10
1771.5978186055188
 20
682.15507033551785
 40
2.003339
 50
78.000000000000014
 51
168
  0
LINE
  8
_0-1_LAY-1
  6
CONTINUOUS
 62
    3
 10
1768.804027605519
 20
678.64684633551781
 11
1769.6382576055189
 21
682.57158733551773
  0
ARC
  8
_0-1_LAY-1
  6
CONTINUOUS
 62
    3
 10
1771.576856605519
 20
682.05645433551786
 40
4.006678
 50
78.000000000000014
 51
168
  0
LINE
  8
_0-1_LAY-1
  6
CONTINUOUS
 62
    3
 10
1773.5573796055187
 20
681.73855233551785
 11
1772.723149605519
 21
677.81381133551781
  0
ARC
  8
_0-1_LAY-1
  6
CONTINUOUS
 62
    3
 10
1770.7635886055186
 20
678.23032933551792
 40
2.003339
 50
258
 51
348
  0
LINE
  8
_0-1_LAY-1
  6
CONTINUOUS
 62
    3
 10
1766.8174576055189
 20
678.93629733551791
 11
1767.6577346055187
 21
682.88948933551785
  0
LINE
  8
_0-1_LAY-1
  6
CONTINUOUS
 62
    3
 10
1775.4959796055189
 20
681.22341933551775
 11
1774.6557026055186
 21
677.2702273355178
  0
ARC
  8
_0-1_LAY-1
  6
CONTINUOUS
 62
    3
 10
1770.7365806055186
 20
678.1032623355178
 40
4.006678
 50
168
 51
258.00000000000006
  0
LINE
  8
_0-1_LAY-1
  6
CONTINUOUS
 62
    3
 10
1758.543377605519
 20
675.21304133551791
 11
1758.543377605519
 21
687.24175333551784
  0
LINE
  8
_0-1_LAY-1
  6
CONTINUOUS
 62
    3
 10
1760.5467166055187
 20
675.2556843355178
 11
1758.543377605519
 21
675.21304133551791
  0
LINE
  8
_0-1_LAY-1
  6
CONTINUOUS
 62
    3
 10
1760.5467166055187
 20
681.26570133551786
 11
1760.5467166055187
 21
675.2556843355178
  0
LINE
  8
_0-1_LAY-1
  6
CONTINUOUS
 62
    3
 10
1758.543377605519
 20
687.24175333551784
 11
1760.5467166055187
 21
687.27571733551792
  0
ARC
  8
_0-1_LAY-1
  6
CONTINUOUS
 62
    3
 10
1749.0842826055189
 20
677.82647733551789
 40
4.006678
 50
283
 51
13.000000000000005
  0
ARC
  8
_0-1_LAY-1
  6
CONTINUOUS
 62
    3
 10
1748.1751406055189
 20
681.76440233551784
 40
4.006678
 50
13
 51
103
  0
ARC
  8
_0-1_LAY-1
  6
CONTINUOUS
 62
    3
 10
1749.0550596055186
 20
677.95305333551789
 40
2.003339
 50
193
 51
283
  0
ARC
  8
_0-1_LAY-1
  6
CONTINUOUS
 62
    3
 10
1748.152461605519
 20
681.86263733551777
 40
2.003339
 50
13
 51
103
  0
ARC
  8
_0-1_LAY-1
  6
CONTINUOUS
 62
    3
 10
1748.152461605519
 20
681.86263733551777
 40
2.003339
 50
102.99999999999999
 51
193
  0
LINE
  8
_0-1_LAY-1
  6
CONTINUOUS
 62
    3
 10
1747.103066605519
 20
677.50240033551779
 11
1746.200467605519
 21
681.4119843355179
  0
ARC
  8
_0-1_LAY-1
  6
CONTINUOUS
 62
    3
 10
1748.1751406055189
 20
681.76440233551784
 40
4.006678
 50
102.99999999999999
 51
193
  0
LINE
  8
_0-1_LAY-1
  6
CONTINUOUS
 62
    3
 10
1750.1044546055189
 20
682.31329033551788
 11
1751.0070536055186
 21
678.40370633551788
  0
ARC
  8
_0-1_LAY-1
  6
CONTINUOUS
 62
    3
 10
1749.0550596055186
 20
677.95305333551789
 40
2.003339
 50
283
 51
13.000000000000005
  0
LINE
  8
_0-1_LAY-1
  6
CONTINUOUS
 62
    3
 10
1745.1802956055189
 20
676.9251713355178
 11
1744.271153605519
 21
680.86309633551787
  0
LINE
  8
_0-1_LAY-1
  6
CONTINUOUS
 62
    3
 10
1752.0791276055186
 20
682.66570933551793
 11
1752.9882696055188
 21
678.72778433551798
  0
ARC
  8
_0-1_LAY-1
  6
CONTINUOUS
 62
    3
 10
1749.0842826055189
 20
677.82647733551789
 40
4.006678
 50
193
 51
283
  0
LINE
  8
_0-1_LAY-1
  6
CONTINUOUS
 62
    3
 10
1762.757156605519
 20
681.26570133551786
 11
1765.6911336055189
 21
674.97376633551789
  0
LINE
  8
_0-1_LAY-1
  6
CONTINUOUS
 62
    3
 10
1763.3188976055189
 20
687.21066333551789
 11
1765.4641106055187
 21
687.07078233551783
  0
LINE
  8
_0-1_LAY-1
  6
CONTINUOUS
 62
    3
 10
1765.4641106055187
 20
687.07078233551783
 11
1762.757156605519
 21
681.26570133551786
  0
LINE
  8
_0-1_LAY-1
  6
CONTINUOUS
 62
    3
 10
1765.6911336055189
 20
674.97376633551789
 11
1763.3892866055189
 21
675.16978933551786
  0
LINE
  8
_0-1_LAY-1
  6
CONTINUOUS
 62
    3
 10
1760.5467166055187
 20
681.26570133551786
 11
1763.3188976055189
 21
687.21066333551789
  0
LINE
  8
_0-1_LAY-1
  6
CONTINUOUS
 62
    3
 10
1738.6973456055189
 20
680.92626833551788
 11
1741.0319256055188
 21
681.8338143355179
  0
LINE
  8
_0-1_LAY-1
  6
CONTINUOUS
 62
    3
 10
1742.530568605519
 20
671.67204933551784
 11
1738.6973456055189
 21
680.92626833551788
  0
LINE
  8
_0-1_LAY-1
  6
CONTINUOUS
 62
    3
 10
1740.696043605519
 20
670.86600733551779
 11
1742.530568605519
 21
671.67204933551784
  0
LINE
  8
_0-1_LAY-1
  6
CONTINUOUS
 62
    3
 10
1736.8599556055187
 20
680.12714333551799
 11
1740.696043605519
 21
670.86600733551779
  0
LINE
  8
_0-1_LAY-1
  6
CONTINUOUS
 62
    3
 10
1740.264567605519
 20
683.68638033551781
 11
1741.0319256055188
 21
681.8338143355179
  0
LINE
  8
_0-1_LAY-1
  6
CONTINUOUS
 62
    3
 10
1733.8321806055189
 20
680.89311833551778
 11
1740.264567605519
 21
683.68638033551781
  0
LINE
  8
_0-1_LAY-1
  6
CONTINUOUS
 62
    3
 10
1734.6011436055187
 20
679.03667733551788
 11
1733.8321806055189
 21
680.89311833551778
  0
LINE
  8
_0-1_LAY-1
  6
CONTINUOUS
 62
    3
 10
1736.8599556055187
 20
680.12714333551799
 11
1734.6011436055187
 21
679.03667733551788
  0
LINE
  8
_0-1_LAY-1
  6
CONTINUOUS
 62
    3
 10
1734.905947605519
 20
667.66054233551779
 11
1728.3593676055189
 21
677.74139033551796
  0
LINE
  8
_0-1_LAY-1
  6
CONTINUOUS
 62
    3
 10
1736.6093136055188
 20
668.71587533551792
 11
1734.905947605519
 21
667.66054233551779
  0
LINE
  8
_0-1_LAY-1
  6
CONTINUOUS
 62
    3
 10
1730.0580076055189
 20
678.80400233551791
 11
1736.6093136055188
 21
668.71587533551792
  0
LINE
  8
_0-1_LAY-1
  6
CONTINUOUS
 62
    3
 10
1728.3593676055189
 20
677.74139033551796
 11
1730.0580076055189
 21
678.80400233551791
  0
LINE
  8
_0-1_LAY-1
  6
CONTINUOUS
 62
    3
 10
1760.5467166055187
 20
687.27571733551792
 11
1760.5467166055187
 21
681.26570133551786
  0
LINE
  8
_0-1_LAY-1
  6
CONTINUOUS
 62
    3
 10
1763.3892866055189
 20
675.16978933551786
 11
1760.5467166055187
 21
681.26570133551786
  0
CIRCLE
  8
_0-1_LAY-1
  6
CONTINUOUS
 62
    2
 10
1760.5467166055187
 20
628.17722033551786
 40
22.279433999999998
  0
LINE
  8
_0-1_LAY-1
  6
CONTINUOUS
 62
    2
 10
1760.5467166055187
 20
614.87599533551781
 11
1772.0659156055187
 21
621.52660833551784
  0
CIRCLE
  8
_0-1_LAY-1
  6
CONTINUOUS
 62
    2
 10
1686.5129646055188
 20
597.51143633551783
 40
5.7595989999999997
  0
CIRCLE
  8
_0-1_LAY-1
  6
CONTINUOUS
 62
    2
 10
1729.8809326055189
 20
554.14346833551781
 40
5.7595989999999997
  0
LINE
  8
_0-1_LAY-1
  6
CONTINUOUS
 62
    2
 10
1690.2720066055188
 20
591.00058433551783
 11
1682.7539226055187
 21
591.00058433551783
  0
LINE
  8
_0-1_LAY-1
  6
CONTINUOUS
 62
    2
 10
1682.7539226055187
 20
591.00058433551783
 11
1678.994880605519
 21
597.51143633551783
  0
LINE
  8
_0-1_LAY-1
  6
CONTINUOUS
 62
    2
 10
1678.994880605519
 20
597.51143633551783
 11
1682.7539226055187
 21
604.02228733551783
  0
LINE
  8
_0-1_LAY-1
  6
CONTINUOUS
 62
    2
 10
1682.7539226055187
 20
604.02228733551783
 11
1690.2720066055188
 21
604.02228733551783
  0
LINE
  8
_0-1_LAY-1
  6
CONTINUOUS
 62
    2
 10
1690.2720066055188
 20
604.02228733551783
 11
1694.0310476055188
 21
597.51143633551783
  0
LINE
  8
_0-1_LAY-1
  6
CONTINUOUS
 62
    2
 10
1694.0310476055188
 20
597.51143633551783
 11
1690.2720066055188
 21
591.00058433551783
  0
LINE
  8
_0-1_LAY-1
  6
CONTINUOUS
 62
    2
 10
1733.639974605519
 20
547.63261633551792
 11
1726.1218906055187
 21
547.63261633551792
  0
LINE
  8
_0-1_LAY-1
  6
CONTINUOUS
 62
    2
 10
1726.1218906055187
 20
547.63261633551792
 11
1722.3628486055188
 21
554.14346833551781
  0
LINE
  8
_0-1_LAY-1
  6
CONTINUOUS
 62
    2
 10
1722.3628486055188
 20
554.14346833551781
 11
1726.1218906055187
 21
560.65431933551781
  0
LINE
  8
_0-1_LAY-1
  6
CONTINUOUS
 62
    2
 10
1726.1218906055187
 20
560.65431933551781
 11
1733.639974605519
 21
560.65431933551781
  0
LINE
  8
_0-1_LAY-1
  6
CONTINUOUS
 62
    2
 10
1733.639974605519
 20
560.65431933551781
 11
1737.3990156055186
 21
554.14346833551781
  0
LINE
  8
_0-1_LAY-1
  6
CONTINUOUS
 62
    2
 10
1737.3990156055186
 20
554.14346833551781
 11
1733.639974605519
 21
547.63261633551792
  0
CIRCLE
  8
_0-1_LAY-1
  6
CONTINUOUS
 62
    2
 10
1686.5129646055188
 20
658.84300433551789
 40
5.7595989999999997
  0
CIRCLE
  8
_0-1_LAY-1
  6
CONTINUOUS
 62
    2
 10
1729.8809326055189
 20
702.21097233551791
 40
5.7595989999999997
  0
LINE
  8
_0-1_LAY-1
  6
CONTINUOUS
 62
    2
 10
1690.2720066055188
 20
665.35385633551778
 11
1682.7539226055187
 21
665.35385633551778
  0
LINE
  8
_0-1_LAY-1
  6
CONTINUOUS
 62
    2
 10
1682.7539226055187
 20
665.35385633551778
 11
1678.994880605519
 21
658.84300433551789
  0
LINE
  8
_0-1_LAY-1
  6
CONTINUOUS
 62
    2
 10
1678.994880605519
 20
658.84300433551789
 11
1682.7539226055187
 21
652.33215333551789
  0
LINE
  8
_0-1_LAY-1
  6
CONTINUOUS
 62
    2
 10
1682.7539226055187
 20
652.33215333551789
 11
1690.2720066055188
 21
652.33215333551789
  0
LINE
  8
_0-1_LAY-1
  6
CONTINUOUS
 62
    2
 10
1690.2720066055188
 20
652.33215333551789
 11
1694.0310476055188
 21
658.84300433551789
  0
LINE
  8
_0-1_LAY-1
  6
CONTINUOUS
 62
    2
 10
1694.0310476055188
 20
658.84300433551789
 11
1690.2720066055188
 21
665.35385633551778
  0
LINE
  8
_0-1_LAY-1
  6
CONTINUOUS
 62
    2
 10
1733.639974605519
 20
708.72182433551779
 11
1726.1218906055187
 21
708.72182433551779
  0
LINE
  8
_0-1_LAY-1
  6
CONTINUOUS
 62
    2
 10
1726.1218906055187
 20
708.72182433551779
 11
1722.3628486055188
 21
702.21097233551791
  0
LINE
  8
_0-1_LAY-1
  6
CONTINUOUS
 62
    2
 10
1722.3628486055188
 20
702.21097233551791
 11
1726.1218906055187
 21
695.70012133551791
  0
LINE
  8
_0-1_LAY-1
  6
CONTINUOUS
 62
    2
 10
1726.1218906055187
 20
695.70012133551791
 11
1733.639974605519
 21
695.70012133551791
  0
LINE
  8
_0-1_LAY-1
  6
CONTINUOUS
 62
    2
 10
1733.639974605519
 20
695.70012133551791
 11
1737.3990156055186
 21
702.21097233551791
  0
LINE
  8
_0-1_LAY-1
  6
CONTINUOUS
 62
    2
 10
1737.3990156055186
 20
702.21097233551791
 11
1733.639974605519
 21
708.72182433551779
  0
CIRCLE
  8
_0-1_LAY-1
  6
CONTINUOUS
 62
    2
 10
1834.5804686055189
 20
658.84300433551789
 40
5.7595989999999997
  0
CIRCLE
  8
_0-1_LAY-1
  6
CONTINUOUS
 62
    2
 10
1791.2125006055189
 20
702.21097233551791
 40
5.7595989999999997
  0
LINE
  8
_0-1_LAY-1
  6
CONTINUOUS
 62
    2
 10
1830.8214266055188
 20
665.35385633551778
 11
1838.3395106055186
 21
665.35385633551778
  0
LINE
  8
_0-1_LAY-1
  6
CONTINUOUS
 62
    2
 10
1838.3395106055186
 20
665.35385633551778
 11
1842.098552605519
 21
658.84300433551789
  0
LINE
  8
_0-1_LAY-1
  6
CONTINUOUS
 62
    2
 10
1842.098552605519
 20
658.84300433551789
 11
1838.3395106055186
 21
652.33215333551789
  0
LINE
  8
_0-1_LAY-1
  6
CONTINUOUS
 62
    2
 10
1838.3395106055186
 20
652.33215333551789
 11
1830.8214266055188
 21
652.33215333551789
  0
LINE
  8
_0-1_LAY-1
  6
CONTINUOUS
 62
    2
 10
1830.8214266055188
 20
652.33215333551789
 11
1827.062385605519
 21
658.84300433551789
  0
LINE
  8
_0-1_LAY-1
  6
CONTINUOUS
 62
    2
 10
1827.062385605519
 20
658.84300433551789
 11
1830.8214266055188
 21
665.35385633551778
  0
LINE
  8
_0-1_LAY-1
  6
CONTINUOUS
 62
    2
 10
1783.6944176055188
 20
554.14346833551781
 11
1787.4534586055188
 21
547.63261633551792
  0
LINE
  8
_0-1_LAY-1
  6
CONTINUOUS
 62
    2
 10
1787.4534586055188
 20
560.65431933551781
 11
1783.6944176055188
 21
554.14346833551781
  0
LINE
  8
_0-1_LAY-1
  6
CONTINUOUS
 62
    2
 10
1794.9715426055188
 20
560.65431933551781
 11
1787.4534586055188
 21
560.65431933551781
  0
LINE
  8
_0-1_LAY-1
  6
CONTINUOUS
 62
    2
 10
1798.7305846055187
 20
554.14346833551781
 11
1794.9715426055188
 21
560.65431933551781
  0
LINE
  8
_0-1_LAY-1
  6
CONTINUOUS
 62
    2
 10
1794.9715426055188
 20
547.63261633551792
 11
1798.7305846055187
 21
554.14346833551781
  0
LINE
  8
_0-1_LAY-1
  6
CONTINUOUS
 62
    2
 10
1787.4534586055188
 20
547.63261633551792
 11
1794.9715426055188
 21
547.63261633551792
  0
LINE
  8
_0-1_LAY-1
  6
CONTINUOUS
 62
    2
 10
1827.062385605519
 20
597.51143633551783
 11
1830.8214266055188
 21
591.00058433551783
  0
LINE
  8
_0-1_LAY-1
  6
CONTINUOUS
 62
    2
 10
1830.8214266055188
 20
604.02228733551783
 11
1827.062385605519
 21
597.51143633551783
  0
LINE
  8
_0-1_LAY-1
  6
CONTINUOUS
 62
    2
 10
1838.3395106055186
 20
604.02228733551783
 11
1830.8214266055188
 21
604.02228733551783
  0
LINE
  8
_0-1_LAY-1
  6
CONTINUOUS
 62
    2
 10
1842.098552605519
 20
597.51143633551783
 11
1838.3395106055186
 21
604.02228733551783
  0
LINE
  8
_0-1_LAY-1
  6
CONTINUOUS
 62
    2
 10
1838.3395106055186
 20
591.00058433551783
 11
1842.098552605519
 21
597.51143633551783
  0
LINE
  8
_0-1_LAY-1
  6
CONTINUOUS
 62
    2
 10
1830.8214266055188
 20
591.00058433551783
 11
1838.3395106055186
 21
591.00058433551783
  0
ARC
  8
_0-1_LAY-1
  6
CONTINUOUS
 62
    2
 10
1760.5467166055187
 20
628.17722033551786
 40
70.116861
 50
20.716794
 51
260.95890400000002
  0
ARC
  8
_0-1_LAY-1
  6
CONTINUOUS
 62
    2
 10
1828.1594046055186
 20
645.95685333551785
 40
0.801336
 50
181.25109799999998
 51
358.69559900000002
  0
LINE
  8
_0-1_LAY-1
  6
CONTINUOUS
 62
    2
 10
1755.5383696055187
 20
560.2139483355179
 11
1765.5550636055186
 21
560.2139483355179
  0
ARC
  8
_0-1_LAY-1
  6
CONTINUOUS
 62
    2
 10
1751.5316916055187
 20
555.37746033551787
 40
2.003339
 50
135
 51
180
  0
ARC
  8
_0-1_LAY-1
  6
CONTINUOUS
 62
    2
 10
1769.5617416055186
 20
555.37746033551787
 40
2.003339
 50
0
 51
45
  0
ARC
  8
_0-1_LAY-1
  6
CONTINUOUS
 62
    2
 10
1828.1594046055186
 20
628.17722033551786
 40
17.779633
 50
92.582521999999983
 51
87.417423000000042
  0
ARC
  8
_0-1_LAY-1
  6
CONTINUOUS
 62
    2
 10
1760.5467166055187
 20
561.55933633551786
 40
4.006678
 50
45
 51
135
  0
LINE
  8
_0-1_LAY-1
  6
CONTINUOUS
 62
    2
 10
1751.5316916055187
 20
556.20727033551782
 11
1769.5617416055186
 21
556.20727033551782
  0
LINE
  8
_0-1_LAY-1
  6
CONTINUOUS
 62
    2
 10
1763.3798656055187
 20
564.3924853355179
 11
1770.9783166055188
 21
556.79403433551784
  0
CIRCLE
  8
_0-1_LAY-1
  6
CONTINUOUS
 62
    2
 10
1828.1594046055186
 20
628.17722033551786
 40
20.033389
  0
LINE
  8
_0-1_LAY-1
  6
CONTINUOUS
 62
    2
 10
1750.1151166055188
 20
556.79403433551784
 11
1757.7135676055186
 21
564.3924853355179
  0
LINE
  8
_0-1_LAY-1
  6
CONTINUOUS
 62
    2
 10
1749.5283526055186
 20
538.85423533551784
 11
1749.5283526055186
 21
555.37746033551787
  0
ARC
  8
_0-1_LAY-1
  6
CONTINUOUS
 62
    2
 10
1760.5467166055187
 20
628.17722033551786
 40
70.116861
 50
279.04109600000004
 51
339.52108099999998
  0
CIRCLE
  8
_0-1_LAY-1
  6
CONTINUOUS
 62
    2
 10
1791.2125006055189
 20
554.14346833551781
 40
5.7595989999999997
  0
CIRCLE
  8
_0-1_LAY-1
  6
CONTINUOUS
 62
    2
 10
1834.5804686055189
 20
597.51143633551783
 40
5.7595989999999997
  0
LINE
  8
_0-1_LAY-1
  6
CONTINUOUS
 62
    2
 10
1787.4534586055188
 20
708.72182433551779
 11
1794.9715426055188
 21
708.72182433551779
  0
LINE
  8
_0-1_LAY-1
  6
CONTINUOUS
 62
    2
 10
1794.9715426055188
 20
708.72182433551779
 11
1798.7305846055187
 21
702.21097233551791
  0
LINE
  8
_0-1_LAY-1
  6
CONTINUOUS
 62
    2
 10
1798.7305846055187
 20
702.21097233551791
 11
1794.9715426055188
 21
695.70012133551791
  0
LINE
  8
_0-1_LAY-1
  6
CONTINUOUS
 62
    2
 10
1794.9715426055188
 20
695.70012133551791
 11
1787.4534586055188
 21
695.70012133551791
  0
LINE
  8
_0-1_LAY-1
  6
CONTINUOUS
 62
    2
 10
1787.4534586055188
 20
695.70012133551791
 11
1783.6944176055188
 21
702.21097233551791
  0
LINE
  8
_0-1_LAY-1
  6
CONTINUOUS
 62
    2
 10
1783.6944176055188
 20
702.21097233551791
 11
1787.4534586055188
 21
708.72182433551779
  0
CIRCLE
  8
_0-1_LAY-1
  6
CONTINUOUS
 62
    2
 10
1760.5467166055187
 20
628.17722033551786
 40
11.519199
  0
CIRCLE
  8
_0-1_LAY-1
  6
CONTINUOUS
 62
    2
 10
1760.5467166055187
 20
628.17722033551786
 40
90
  0
CIRCLE
  8
_0-1_LAY-1
  6
CONTINUOUS
 62
    2
 10
1760.5467166055187
 20
628.17722033551786
 40
38.063439000000002
  0
LINE
  8
_0-1_LAY-1
  6
CONTINUOUS
 62
    2
 10
1771.5650806055189
 20
555.37746033551787
 11
1771.5650806055189
 21
538.85423533551784
  0
LINE
  8
_0-1_LAY-1
  6
CONTINUOUS
 62
    2
 10
1749.0275176055186
 20
621.52660833551784
 11
1760.5467166055187
 21
614.87599533551781
  0
LINE
  8
_0-1_LAY-1
  6
CONTINUOUS
 62
    2
 10
1749.0275176055186
 20
634.82783233551777
 11
1749.0275176055186
 21
621.52660833551784
  0
LINE
  8
_0-1_LAY-1
  6
CONTINUOUS
 62
    2
 10
1760.5467166055187
 20
641.4784453355179
 11
1749.0275176055186
 21
634.82783233551777
  0
LINE
  8
_0-1_LAY-1
  6
CONTINUOUS
 62
    2
 10
1772.0659156055187
 20
634.82783233551777
 11
1760.5467166055187
 21
641.4784453355179
  0
LINE
  8
_0-1_LAY-1
  6
CONTINUOUS
 62
    2
 10
1772.0659156055187
 20
621.52660833551784
 11
1772.0659156055187
 21
634.82783233551777
  0
LINE
  8
_0-1_LAY-1
  6
CONTINUOUS
 62
    2
 10
1776.3397596055188
 20
482.3242213355179
 11
1744.753673605519
 21
482.3242213355179
  0
LINE
  8
_0-1_LAY-1
  6
CONTINUOUS
 62
    2
 10
1776.3397596055188
 20
446.53212333551789
 11
1744.753673605519
 21
446.53212333551789
  0
LINE
  8
_0-1_LAY-1
  6
CONTINUOUS
 62
    2
 10
1760.5467166055187
 20
449.50338333551787
 11
1773.4719626055189
 21
456.96577733551783
  0
LINE
  8
_0-1_LAY-1
  6
CONTINUOUS
 62
    2
 10
1773.4719626055189
 20
456.96577733551783
 11
1773.4719626055189
 21
471.89056633551786
  0
LINE
  8
_0-1_LAY-1
  6
CONTINUOUS
 62
    2
 10
1773.4719626055189
 20
471.89056633551786
 11
1760.5467166055187
 21
479.35296033551788
  0
LINE
  8
_0-1_LAY-1
  6
CONTINUOUS
 62
    2
 10
1760.5467166055187
 20
479.35296033551788
 11
1747.6214706055189
 21
471.89056633551786
  0
LINE
  8
_0-1_LAY-1
  6
CONTINUOUS
 62
    2
 10
1747.6214706055189
 20
471.89056633551786
 11
1747.6214706055189
 21
456.96577733551783
  0
LINE
  8
_0-1_LAY-1
  6
CONTINUOUS
 62
    2
 10
1747.6214706055189
 20
456.96577733551783
 11
1760.5467166055187
 21
449.50338333551787
  0
CIRCLE
  8
_0-1_LAY-1
  6
CONTINUOUS
 62
    2
 10
1760.5467166055187
 20
464.42817233551784
 40
12.925246000000001
  0
CIRCLE
  8
_0-1_LAY-1
  6
CONTINUOUS
 62
    2
 10
1760.5467166055187
 20
464.42817233551784
 40
1.602671
  0
LINE
  8
_0-1_LAY-1
  6
CONTINUOUS
 62
    2
 10
1733.204800605519
 20
421.17875633551779
 11
1728.9798536055187
 21
423.61803033551791
  0
LINE
  8
_0-1_LAY-1
  6
CONTINUOUS
 62
    2
 10
1787.888632605519
 20
421.17875633551779
 11
1792.1135796055187
 21
423.61803033551791
  0
LINE
  8
_0-1_LAY-1
  6
CONTINUOUS
 62
    2
 10
1787.888632605519
 20
421.17875633551779
 11
1733.204800605519
 21
421.17875633551779
  0
LINE
  8
_0-1_LAY-1
  6
CONTINUOUS
 62
    2
 10
1792.1135796055187
 20
505.23831333551783
 11
1792.1135796055187
 21
423.61803033551791
  0
LINE
  8
_0-1_LAY-1
  6
CONTINUOUS
 62
    2
 10
1787.8870906055188
 20
507.67847833551787
 11
1792.1135796055187
 21
510.11864233551785
  0
LINE
  8
_0-1_LAY-1
  6
CONTINUOUS
 62
    2
 10
1787.8870906055188
 20
507.67847833551787
 11
1792.1135796055187
 21
505.23831333551783
  0
LINE
  8
_0-1_LAY-1
  6
CONTINUOUS
 62
    2
 10
1728.9798536055187
 20
505.23831333551783
 11
1728.9798536055187
 21
423.61803033551791
  0
LINE
  8
_0-1_LAY-1
  6
CONTINUOUS
 62
    2
 10
1733.2063426055188
 20
507.67847833551787
 11
1728.9798536055187
 21
510.11864233551785
  0
LINE
  8
_0-1_LAY-1
  6
CONTINUOUS
 62
    2
 10
1733.2063426055188
 20
507.67847833551787
 11
1728.9798536055187
 21
505.23831333551783
  0
LINE
  8
_0-1_LAY-1
  6
CONTINUOUS
 62
    2
 10
1787.8870906055188
 20
507.67847833551787
 11
1733.2063426055188
 21
507.67847833551787
  0
LINE
  8
_0-1_LAY-1
  6
CONTINUOUS
 62
    2
 10
1792.1135796055187
 20
505.23831333551783
 11
1792.1135796055187
 21
503.68172833551785
  0
LINE
  8
_0-1_LAY-1
  6
CONTINUOUS
 62
    2
 10
1792.1135796055187
 20
533.73647733551786
 11
1792.1135796055187
 21
510.11864233551785
  0
LINE
  8
_0-1_LAY-1
  6
CONTINUOUS
 62
    2
 10
1728.9798536055187
 20
533.73647733551786
 11
1728.9798536055187
 21
510.11864233551785
  0
LINE
  8
_0-1_LAY-1
  6
CONTINUOUS
 62
    2
 10
1787.8849056055187
 20
536.17790333551784
 11
1792.1135796055187
 21
533.73647733551786
  0
LINE
  8
_0-1_LAY-1
  6
CONTINUOUS
 62
    2
 10
1733.2085276055188
 20
536.17790333551784
 11
1728.9798536055187
 21
533.73647733551786
  0
LINE
  8
_0-1_LAY-1
  6
CONTINUOUS
 62
    2
 10
1787.8849056055187
 20
536.17790333551784
 11
1733.2085276055188
 21
536.17790333551784
  0
LINE
  8
_0-1_LAY-1
  6
CONTINUOUS
 62
    2
 10
1744.753673605519
 20
539.57372233551791
 11
1744.753673605519
 21
421.17875633551779
  0
LINE
  8
_0-1_LAY-1
  6
CONTINUOUS
 62
    2
 10
1776.3397596055188
 20
539.57372233551791
 11
1776.3397596055188
 21
421.17875633551779
  0
ENDSEC
  0
EOF
