  0
SECTION
  2
HEADER
  9
$ACADVER
  1
AC1014
  9
$ACADMAINTVER
 70
     0
  9
$DWGCODEPAGE
  3
ANSI_932
  9
$INSBASE
 10
0.0
 20
0.0
 30
0.0
  9
$EXTMIN
 10
-471.0
 20
-464.0
 30
0.0
  9
$EXTMAX
 10
956.9
 20
763.0
 30
0.0
  9
$LIMMIN
 10
0.0
 20
0.0
  9
$LIMMAX
 10
420.0
 20
297.0
  9
$ORTHOMODE
 70
     0
  9
$REGENMODE
 70
     1
  9
$FILLMODE
 70
     1
  9
$QTEXTMODE
 70
     0
  9
$MIRRTEXT
 70
     1
  9
$DRAGMODE
 70
     2
  9
$LTSCALE
 40
1.0
  9
$OSMODE
 70
     0
  9
$ATTMODE
 70
     1
  9
$TEXTSIZE
 40
0.2
  9
$TRACEWID
 40
0.05
  9
$TEXTSTYLE
  7
STANDARD
  9
$CLAYER
  8
LAY-1
  9
$CELTYPE
  6
CONTINUOUS
  9
$CECOLOR
 62
   256
  9
$CELTSCALE
 40
1.0
  9
$DELOBJ
 70
     1
  9
$DISPSILH
 70
     0
  9
$DIMSCALE
 40
1.0
  9
$DIMASZ
 40
0.18
  9
$DIMEXO
 40
0.0625
  9
$DIMDLI
 40
0.38
  9
$DIMRND
 40
0.0
  9
$DIMDLE
 40
0.0
  9
$DIMEXE
 40
0.18
  9
$DIMTP
 40
0.0
  9
$DIMTM
 40
0.0
  9
$DIMTXT
 40
0.18
  9
$DIMCEN
 40
0.09
  9
$DIMTSZ
 40
0.0
  9
$DIMTOL
 70
     0
  9
$DIMLIM
 70
     0
  9
$DIMTIH
 70
     1
  9
$DIMTOH
 70
     1
  9
$DIMSE1
 70
     0
  9
$DIMSE2
 70
     0
  9
$DIMTAD
 70
     0
  9
$DIMZIN
 70
     0
  9
$DIMBLK
  1

  9
$DIMASO
 70
     1
  9
$DIMSHO
 70
     1
  9
$DIMPOST
  1

  9
$DIMAPOST
  1

  9
$DIMALT
 70
     0
  9
$DIMALTD
 70
     2
  9
$DIMALTF
 40
25.4
  9
$DIMLFAC
 40
1.0
  9
$DIMTOFL
 70
     0
  9
$DIMTVP
 40
0.0
  9
$DIMTIX
 70
     0
  9
$DIMSOXD
 70
     0
  9
$DIMSAH
 70
     0
  9
$DIMBLK1
  1

  9
$DIMBLK2
  1

  9
$DIMSTYLE
  2
STANDARD
  9
$DIMCLRD
 70
     0
  9
$DIMCLRE
 70
     0
  9
$DIMCLRT
 70
     0
  9
$DIMTFAC
 40
1.0
  9
$DIMGAP
 40
0.09
  9
$DIMJUST
 70
     0
  9
$DIMSD1
 70
     0
  9
$DIMSD2
 70
     0
  9
$DIMTOLJ
 70
     1
  9
$DIMTZIN
 70
     0
  9
$DIMALTZ
 70
     0
  9
$DIMALTTZ
 70
     0
  9
$DIMFIT
 70
     3
  9
$DIMUPT
 70
     0
  9
$DIMUNIT
 70
     2
  9
$DIMDEC
 70
     4
  9
$DIMTDEC
 70
     4
  9
$DIMALTU
 70
     2
  9
$DIMALTTD
 70
     2
  9
$DIMTXSTY
  7
STANDARD
  9
$DIMAUNIT
 70
     0
  9
$LUNITS
 70
     2
  9
$LUPREC
 70
     4
  9
$SKETCHINC
 40
0.1
  9
$FILLETRAD
 40
0.0
  9
$AUNITS
 70
     0
  9
$AUPREC
 70
     0
  9
$MENU
  1
acad
  9
$ELEVATION
 40
0.0
  9
$PELEVATION
 40
0.0
  9
$THICKNESS
 40
0.0
  9
$LIMCHECK
 70
     0
  9
$BLIPMODE
 70
     1
  9
$CHAMFERA
 40
0.0
  9
$CHAMFERB
 40
0.0
  9
$CHAMFERC
 40
0.0
  9
$CHAMFERD
 40
0.0
  9
$SKPOLY
 70
     0
  9
$TDCREATE
 40
2456723.144865185
  9
$TDUPDATE
 40
2456723.144865185
  9
$TDINDWG
 40
0.0000000000
  9
$TDUSRTIMER
 40
0.0000000000
  9
$USRTIMER
 70
     1
  9
$ANGBASE
 50
0.0
  9
$ANGDIR
 70
     0
  9
$PDMODE
 70
     0
  9
$PDSIZE
 40
0.0
  9
$PLINEWID
 40
0.0
  9
$COORDS
 70
     1
  9
$SPLFRAME
 70
     0
  9
$SPLINETYPE
 70
     6
  9
$SPLINESEGS
 70
     8
  9
$ATTDIA
 70
     0
  9
$ATTREQ
 70
     1
  9
$HANDLING
 70
     1
  9
$HANDSEED
  5
687
  9
$SURFTAB1
 70
     6
  9
$SURFTAB2
 70
     6
  9
$SURFTYPE
 70
     6
  9
$SURFU
 70
     6
  9
$SURFV
 70
     6
  9
$UCSNAME
  2

  9
$UCSORG
 10
0.0
 20
0.0
 30
0.0
  9
$UCSXDIR
 10
1.0
 20
0.0
 30
0.0
  9
$UCSYDIR
 10
0.0
 20
1.0
 30
0.0
  9
$PUCSNAME
  2

  9
$PUCSORG
 10
0.0
 20
0.0
 30
0.0
  9
$PUCSXDIR
 10
1.0
 20
0.0
 30
0.0
  9
$PUCSYDIR
 10
0.0
 20
1.0
 30
0.0
  9
$USERI1
 70
     0
  9
$USERI2
 70
     0
  9
$USERI3
 70
     0
  9
$USERI4
 70
     0
  9
$USERI5
 70
     0
  9
$USERR1
 40
0.0
  9
$USERR2
 40
0.0
  9
$USERR3
 40
0.0
  9
$USERR4
 40
0.0
  9
$USERR5
 40
0.0
  9
$WORLDVIEW
 70
     1
  9
$SHADEDGE
 70
     3
  9
$SHADEDIF
 70
    70
  9
$TILEMODE
 70
     1
  9
$MAXACTVP
 70
    16
  9
$PINSBASE
 10
0.0
 20
0.0
 30
0.0
  9
$PLIMCHECK
 70
     0
  9
$PEXTMIN
 10
1.000000E+20
 20
1.000000E+20
 30
1.000000E+20
  9
$PEXTMAX
 10
-1.000000E+20
 20
-1.000000E+20
 30
-1.000000E+20
  9
$PLIMMIN
 10
0.0
 20
0.0
  9
$PLIMMAX
 10
12.0
 20
9.0
  9
$UNITMODE
 70
     0
  9
$VISRETAIN
 70
     0
  9
$PLINEGEN
 70
     1
  9
$PSLTSCALE
 70
     0
  9
$TREEDEPTH
 70
  3020
  9
$PICKSTYLE
 70
     1
  9
$CMLSTYLE
  2
Standard
  9
$CMLJUST
 70
     0
  9
$CMLSCALE
 40
1.0
  9
$PROXYGRAPHICS
 70
     0
  9
$MEASUREMENT
 70
     0
  0
ENDSEC
  0
SECTION
  2
CLASSES
  0
CLASS
  1
LWPOLYLINE
  2
AcDbPolyline
  3
"AutoCAD"
 90
        0
280
     0
281
     1
  0
CLASS
  1
IMAGE
  2
AcDbRasterImage
  3
ISM
 90
      127
280
     0
281
     1
  0
CLASS
  1
OLE2FRAME
  2
AcDbOle2Frame
  3
""
 90
        0
280
     0
281
     1
  0
CLASS
  1
HATCH
  2
AcDbHatch
  3
"ACAD_SEDONA"
 90
        0
280
     0
281
     1
  0
CLASS
  1
DICTIONARYVAR
  2
AcDbDictionaryVar
  3
"AutoCAD"
 90
        0
280
     0
281
     0
  0
CLASS
  1
RASTERVARIABLES
  2
AcDbRasterVariables
  3
ISM
 90
        0
280
     0
281
     0
  0
CLASS
  1
IMAGEDEF
  2
AcDbRasterImageDef
  3
ISM
 90
        0
280
     0
281
     0
  0
CLASS
  1
IMAGEDEF_REACTOR
  2
AcDbRasterImageDefReactor
  3
ISM
 90
        1
280
     0
281
     0
  0
CLASS
  1
IDBUFFER
  2
AcDbIdBuffer
  3
"Acad"
 90
        0
280
     0
281
     0
  0
CLASS
  1
SPATIAL_FILTER
  2
AcDbSpatialFilter
  3
"Acad"
 90
        0
280
     0
281
     0
  0
CLASS
  1
XRECORD
  2
AcDbXrecord
  3
"<Built In>"
 90
        0
280
     0
281
     0
  0
CLASS
  1
SORTENTSTABLE
  2
AcDbSortentsTable
  3
"AutoCAD"
 90
        0
280
     0
281
     0
  0
CLASS
  1
LAYER_INDEX
  2
AcDbLayerIndex
  3
"Acad"
 90
        0
280
     0
281
     0
  0
CLASS
  1
SPATIAL_INDEX
  2
AcDbSpatialIndex
  3
"Acad"
 90
        0
280
     0
281
     0
  0
CLASS
  1
OBJECT_PTR
  2
CAseDLPNTableRecord
  3
"ASE-LPNTableRecord"
 90
        1
280
     0
281
     0
  0
CLASS
  1
LAYOUT
  2
AcDbLayout
  3
"AutoCAD 2000"
 90
        0
280
     0
281
     0
  0
CLASS
  1
PLOTSETTINGS
  2
AcDbPlotSettings
  3
"AutoCAD 2000"
 90
        0
280
     0
281
     0
  0
CLASS
  1
ACDBDICTIONARYWDFLT
  2
AcDbDictionaryWithDefault
  3
"AutoCAD 2000"
 90
        0
280
     0
281
     0
  0
CLASS
  1
ACDBPLACEHOLDER
  2
AcDbPlaceHolder
  3
"AutoCAD 2000"
 90
        0
280
     0
281
     0
  0
CLASS
  1
VBA_PROJECT
  2
AcDbVbaProject
  3
"acadvba"
 90
        0
280
     0
281
     0
  0
CLASS
  1
WIPEOUT
  2
AcDbWipeout
  3
WipeOut|AutoCAD Express Tool|expresstools@autodesk.com
 90
      127
280
     0
281
     1
  0
CLASS
  1
WIPEOUTVARIABLES
  2
AcDbWipeoutVariables
  3
WipeOut|AutoCAD Express Tool|expresstools@autodesk.com
 90
        0
280
     0
281
     0
  0
CLASS
  1
RTEXT
  2
RText
  3
RText|AutoCAD Express Tool|expresstools@autodesk.com
 90
        0
280
     0
281
     1
  0
CLASS
  1
ARCALIGNEDTEXT
  2
AcDbArcAlignedText
  3
ATEXT|AutoCAD Express Tool|expresstools@autodesk.com
 90
        0
280
     0
281
     1
  0
ENDSEC
  0
SECTION
  2
TABLES
  0
TABLE
  2
VPORT
  5
7
100
AcDbSymbolTable
 70
     1
  0
VPORT
  5
15
100
AcDbSymbolTableRecord
100
AcDbViewportTableRecord
  2
*ACTIVE
 70
     0
 10
0.0
 20
0.0
 11
1.0
 21
1.0
 12
242.95
 22
149.5
 13
0.0
 23
0.0
 14
1.0
 24
1.0
 15
0.0
 25
0.0
 16
0.0
 26
0.0
 36
1.0
 17
0.0
 27
0.0
 37
0.0
 40
1227.0
 41
1.722533
 42
50.0
 43
0.0
 44
0.0
 50
0.0
 51
0.0
 71
     0
 72
  1000
 73
     1
 74
     1
 75
     0
 76
     0
 77
     0
 78
     0
  0
ENDTAB
  0
TABLE
  2
LTYPE
  5
4
100
AcDbSymbolTable
 70
     9
  0
LTYPE
  5
11
100
AcDbSymbolTableRecord
100
AcDbLinetypeTableRecord
  2
BYBLOCK
 70
    64
  3

 72
    65
 73
     0
 40
0.0
  0
LTYPE
  5
12
100
AcDbSymbolTableRecord
100
AcDbLinetypeTableRecord
  2
BYLAYER
 70
    64
  3

 72
    65
 73
     0
 40
0.0
  0
LTYPE
  5
13
100
AcDbSymbolTableRecord
100
AcDbLinetypeTableRecord
  2
CONTINUOUS
 70
    64
  3
実線
 72
    65
 73
     0
 40
0.0
  0
LTYPE
  5
1D
100
AcDbSymbolTableRecord
100
AcDbLinetypeTableRecord
  2
EXLTYPE1
 70
    64
  3
破線
 72
    65
 73
     2
 40
4.0
 49
3.0
 74
     0
 49
-1.0
 74
     0
  0
LTYPE
  5
1E
100
AcDbSymbolTableRecord
100
AcDbLinetypeTableRecord
  2
EXLTYPE2
 70
    64
  3
点線
 72
    65
 73
     2
 40
2.0
 49
1.0
 74
     0
 49
-1.0
 74
     0
  0
LTYPE
  5
1F
100
AcDbSymbolTableRecord
100
AcDbLinetypeTableRecord
  2
EXLTYPE3
 70
    64
  3
一点鎖線
 72
    65
 73
     4
 40
13.0
 49
10.0
 74
     0
 49
-1.0
 74
     0
 49
1.0
 74
     0
 49
-1.0
 74
     0
  0
LTYPE
  5
20
100
AcDbSymbolTableRecord
100
AcDbLinetypeTableRecord
  2
EXLTYPE4
 70
    64
  3
二点鎖線
 72
    65
 73
     6
 40
15.0
 49
10.0
 74
     0
 49
-1.0
 74
     0
 49
1.0
 74
     0
 49
-1.0
 74
     0
 49
1.0
 74
     0
 49
-1.0
 74
     0
  0
LTYPE
  5
21
100
AcDbSymbolTableRecord
100
AcDbLinetypeTableRecord
  2
EXLTYPE5
 70
    64
  3
三点鎖線
 72
    65
 73
     8
 40
37.0
 49
30.0
 74
     0
 49
-1.0
 74
     0
 49
1.0
 74
     0
 49
-1.0
 74
     0
 49
1.0
 74
     0
 49
-1.0
 74
     0
 49
1.0
 74
     0
 49
-1.0
 74
     0
  0
LTYPE
  5
22
100
AcDbSymbolTableRecord
100
AcDbLinetypeTableRecord
  2
EXLTYPE6
 70
    64
  3
四点鎖線
 72
    65
 73
    10
 40
39.0
 49
30.0
 74
     0
 49
-1.0
 74
     0
 49
1.0
 74
     0
 49
-1.0
 74
     0
 49
1.0
 74
     0
 49
-1.0
 74
     0
 49
1.0
 74
     0
 49
-1.0
 74
     0
 49
1.0
 74
     0
 49
-1.0
 74
     0
  0
ENDTAB
  0
TABLE
  2
LAYER
  5
2
100
AcDbSymbolTable
 70
     4
  0
LAYER
  5
14
100
AcDbSymbolTableRecord
100
AcDbLayerTableRecord
  2
0
 70
     0
 62
     7
  6
CONTINUOUS
  0
LAYER
  5
25
100
AcDbSymbolTableRecord
100
AcDbLayerTableRecord
  2
LAY-1
 70
    64
 62
     3
  6
CONTINUOUS
  0
LAYER
  5
26
100
AcDbSymbolTableRecord
100
AcDbLayerTableRecord
  2
LAY-2
 70
    64
 62
     1
  6
CONTINUOUS
  0
LAYER
  5
27
100
AcDbSymbolTableRecord
100
AcDbLayerTableRecord
  2
LAY-3
 70
    64
 62
     7
  6
CONTINUOUS
  0
ENDTAB
  0
TABLE
  2
STYLE
  5
3
100
AcDbSymbolTable
 70
     3
  0
STYLE
  5
17
100
AcDbSymbolTableRecord
100
AcDbTextStyleTableRecord
  2
STANDARD
 70
     0
 40
0.0
 41
1.0
 50
0.0
 71
     0
 42
0.0
  3
monotxt
  4
extfont
  0
STYLE
  5
23
100
AcDbSymbolTableRecord
100
AcDbTextStyleTableRecord
  2
EXCADSTD
 70
    64
 40
0.0
 41
1.0
 50
0.0
 71
     0
 42
0.2
  3
monotxt
  4
extfont
  0
STYLE
  5
24
100
AcDbSymbolTableRecord
100
AcDbTextStyleTableRecord
  2
EXCADVERT
 70
    68
 40
0.0
 41
1.0
 50
0.0
 71
     0
 42
0.286885
  3
monotxt
  4
extfont
  0
ENDTAB
  0
TABLE
  2
VIEW
  5
5
100
AcDbSymbolTable
 70
     0
  0
ENDTAB
  0
TABLE
  2
UCS
  5
6
100
AcDbSymbolTable
 70
     0
  0
ENDTAB
  0
TABLE
  2
APPID
  5
8
100
AcDbSymbolTable
 70
     1
  0
APPID
  5
16
100
AcDbSymbolTableRecord
100
AcDbRegAppTableRecord
  2
ACAD
 70
     0
  0
ENDTAB
  0
TABLE
  2
DIMSTYLE
  5
9
100
AcDbSymbolTable
 70
     1
  0
DIMSTYLE
105
18
100
AcDbSymbolTableRecord
100
AcDbDimStyleTableRecord
  2
STANDARD
 70
     0
  3

  4

  5

  6

  7

 40
1.0
 41
0.18
 42
0.0625
 43
0.38
 44
0.18
 45
0.0
 46
0.0
 47
0.0
 48
0.0
 71
     0
 72
     0
 73
     1
 74
     1
 75
     0
 76
     0
 77
     0
 78
     0
140
0.18
141
0.09
142
0.0
143
25.4
144
1.0
145
0.0
146
1.0
147
0.09
170
     0
171
     2
172
     1
173
     0
174
     0
175
     0
176
     0
177
     0
178
     0
270
     2
271
     4
272
     4
273
     2
274
     2
275
     0
280
     0
281
     0
282
     0
283
     1
284
     0
285
     0
286
     0
287
     3
288
     0
340
17
  0
ENDTAB
  0
TABLE
  2
BLOCK_RECORD
  5
1
100
AcDbSymbolTable
 70
    15
  0
BLOCK_RECORD
  5
A
100
AcDbSymbolTableRecord
100
AcDbBlockTableRecord
  2
*MODEL_SPACE
  0
BLOCK_RECORD
  5
B
100
AcDbSymbolTableRecord
100
AcDbBlockTableRecord
  2
*PAPER_SPACE
  0
BLOCK_RECORD
  5
28
100
AcDbSymbolTableRecord
100
AcDbBlockTableRecord
  2
_EX_NORM
  0
BLOCK_RECORD
  5
29
100
AcDbSymbolTableRecord
100
AcDbBlockTableRecord
  2
_EX_BNORM
  0
BLOCK_RECORD
  5
2A
100
AcDbSymbolTableRecord
100
AcDbBlockTableRecord
  2
_EX_BCIR
  0
BLOCK_RECORD
  5
2B
100
AcDbSymbolTableRecord
100
AcDbBlockTableRecord
  2
_EX_RCIVIL
  0
BLOCK_RECORD
  5
2C
100
AcDbSymbolTableRecord
100
AcDbBlockTableRecord
  2
_EX_SLANT
  0
BLOCK_RECORD
  5
2D
100
AcDbSymbolTableRecord
100
AcDbBlockTableRecord
  2
_EX_NONE
  0
BLOCK_RECORD
  5
2E
100
AcDbSymbolTableRecord
100
AcDbBlockTableRecord
  2
_EX_CIVIL
  0
BLOCK_RECORD
  5
2F
100
AcDbSymbolTableRecord
100
AcDbBlockTableRecord
  2
_EX_WCIR
  0
BLOCK_RECORD
  5
30
100
AcDbSymbolTableRecord
100
AcDbBlockTableRecord
  2
_EX_WCIR2
  0
BLOCK_RECORD
  5
31
100
AcDbSymbolTableRecord
100
AcDbBlockTableRecord
  2
_EX_WNORM
  0
BLOCK_RECORD
  5
32
100
AcDbSymbolTableRecord
100
AcDbBlockTableRecord
  2
_EX_NNORM
  0
BLOCK_RECORD
  5
33
100
AcDbSymbolTableRecord
100
AcDbBlockTableRecord
  2
_EX_BBOX
  0
BLOCK_RECORD
  5
34
100
AcDbSymbolTableRecord
100
AcDbBlockTableRecord
  2
_EX_WBOX
  0
BLOCK_RECORD
  5
35
100
AcDbSymbolTableRecord
100
AcDbBlockTableRecord
  2
_EX_INTEGRAL
  0
BLOCK_RECORD
  5
36
100
AcDbSymbolTableRecord
100
AcDbBlockTableRecord
  2
SYM-1
  0
ENDTAB
  0
ENDSEC
  0
SECTION
  2
BLOCKS
  0
BLOCK
  5
D
100
AcDbEntity
  8
0
100
AcDbBlockBegin
  2
*MODEL_SPACE
 70
     0
 10
0.0
 20
0.0
 30
0.0
  3
*MODEL_SPACE
  1

  0
ENDBLK
  5
E
100
AcDbEntity
  8
0
100
AcDbBlockEnd
  0
BLOCK
  5
F
100
AcDbEntity
 67
     1
  8
0
100
AcDbBlockBegin
  2
*PAPER_SPACE
 70
     0
 10
0.0
 20
0.0
 30
0.0
  3
*PAPER_SPACE
  1

  0
ENDBLK
  5
10
100
AcDbEntity
 67
     1
  8
0
100
AcDbBlockEnd
  0
BLOCK
  5
37
100
AcDbEntity
  8
0
100
AcDbBlockBegin
  2
_EX_NORM
 70
     0
 10
0.0
 20
0.0
 30
0.0
  3
_EX_NORM
  1

  0
LINE
  5
38
100
AcDbEntity
  8
0
  6
CONTINUOUS
 62
     0
100
AcDbLine
 10
0.0
 20
0.0
 30
0.0
 11
-1.0
 21
0.0
 31
0.0
  0
LINE
  5
39
100
AcDbEntity
  8
0
  6
CONTINUOUS
 62
     0
100
AcDbLine
 10
0.0
 20
0.0
 30
0.0
 11
-1.0
 21
0.166667
 31
0.0
  0
LINE
  5
3A
100
AcDbEntity
  8
0
  6
CONTINUOUS
 62
     0
100
AcDbLine
 10
0.0
 20
0.0
 30
0.0
 11
-1.0
 21
-0.166667
 31
0.0
  0
ENDBLK
  5
3B
100
AcDbEntity
  8
0
100
AcDbBlockEnd
  0
BLOCK
  5
3C
100
AcDbEntity
  8
0
100
AcDbBlockBegin
  2
_EX_BNORM
 70
     0
 10
0.0
 20
0.0
 30
0.0
  3
_EX_BNORM
  1

  0
LINE
  5
3D
100
AcDbEntity
  8
0
  6
CONTINUOUS
 62
     0
100
AcDbLine
 10
0.0
 20
0.0
 30
0.0
 11
-1.0
 21
0.0
 31
0.0
  0
LINE
  5
3E
100
AcDbEntity
  8
0
  6
CONTINUOUS
 62
     0
100
AcDbLine
 10
0.0
 20
0.0
 30
0.0
 11
-1.0
 21
0.166667
 31
0.0
  0
LINE
  5
3F
100
AcDbEntity
  8
0
  6
CONTINUOUS
 62
     0
100
AcDbLine
 10
0.0
 20
0.0
 30
0.0
 11
-1.0
 21
-0.166667
 31
0.0
  0
LINE
  5
40
100
AcDbEntity
  8
0
  6
CONTINUOUS
 62
     0
100
AcDbLine
 10
0.0
 20
0.0
 30
0.0
 11
-1.0
 21
0.083333
 31
0.0
  0
LINE
  5
41
100
AcDbEntity
  8
0
  6
CONTINUOUS
 62
     0
100
AcDbLine
 10
0.0
 20
0.0
 30
0.0
 11
-1.0
 21
-0.083333
 31
0.0
  0
LINE
  5
42
100
AcDbEntity
  8
0
  6
CONTINUOUS
 62
     0
100
AcDbLine
 10
-1.0
 20
0.166667
 30
0.0
 11
-1.0
 21
-0.166667
 31
0.0
  0
ENDBLK
  5
43
100
AcDbEntity
  8
0
100
AcDbBlockEnd
  0
BLOCK
  5
44
100
AcDbEntity
  8
0
100
AcDbBlockBegin
  2
_EX_BCIR
 70
     0
 10
0.0
 20
0.0
 30
0.0
  3
_EX_BCIR
  1

  0
LINE
  5
45
100
AcDbEntity
  8
0
  6
CONTINUOUS
 62
     0
100
AcDbLine
 10
0.0
 20
0.0
 30
0.0
 11
-1.0
 21
0.0
 31
0.0
  0
CIRCLE
  5
46
100
AcDbEntity
  8
0
  6
CONTINUOUS
 62
     0
100
AcDbCircle
 10
0.0
 20
0.0
 30
0.0
 40
0.5
  0
CIRCLE
  5
47
100
AcDbEntity
  8
0
  6
CONTINUOUS
 62
     0
100
AcDbCircle
 10
0.0
 20
0.0
 30
0.0
 40
0.25
  0
ENDBLK
  5
48
100
AcDbEntity
  8
0
100
AcDbBlockEnd
  0
BLOCK
  5
49
100
AcDbEntity
  8
0
100
AcDbBlockBegin
  2
_EX_RCIVIL
 70
     0
 10
0.0
 20
0.0
 30
0.0
  3
_EX_RCIVIL
  1

  0
LINE
  5
4A
100
AcDbEntity
  8
0
  6
CONTINUOUS
 62
     0
100
AcDbLine
 10
0.0
 20
0.0
 30
0.0
 11
-1.0
 21
0.0
 31
0.0
  0
LINE
  5
4B
100
AcDbEntity
  8
0
  6
CONTINUOUS
 62
     0
100
AcDbLine
 10
-1.0
 20
-0.25
 30
0.0
 11
0.0
 21
-0.25
 31
0.0
  0
LINE
  5
4C
100
AcDbEntity
  8
0
  6
CONTINUOUS
 62
     0
100
AcDbLine
 10
-1.0
 20
-0.125
 30
0.0
 11
0.0
 21
-0.125
 31
0.0
  0
ENDBLK
  5
4D
100
AcDbEntity
  8
0
100
AcDbBlockEnd
  0
BLOCK
  5
4E
100
AcDbEntity
  8
0
100
AcDbBlockBegin
  2
_EX_SLANT
 70
     0
 10
0.0
 20
0.0
 30
0.0
  3
_EX_SLANT
  1

  0
LINE
  5
4F
100
AcDbEntity
  8
0
  6
CONTINUOUS
 62
     0
100
AcDbLine
 10
0.0
 20
0.0
 30
0.0
 11
-1.0
 21
0.0
 31
0.0
  0
LINE
  5
50
100
AcDbEntity
  8
0
  6
CONTINUOUS
 62
     0
100
AcDbLine
 10
0.707107
 20
0.707107
 30
0.0
 11
-0.707107
 21
-0.707107
 31
0.0
  0
ENDBLK
  5
51
100
AcDbEntity
  8
0
100
AcDbBlockEnd
  0
BLOCK
  5
52
100
AcDbEntity
  8
0
100
AcDbBlockBegin
  2
_EX_NONE
 70
     0
 10
0.0
 20
0.0
 30
0.0
  3
_EX_NONE
  1

  0
LINE
  5
53
100
AcDbEntity
  8
0
  6
CONTINUOUS
 62
     0
100
AcDbLine
 10
0.0
 20
0.0
 30
0.0
 11
-1.0
 21
0.0
 31
0.0
  0
ENDBLK
  5
54
100
AcDbEntity
  8
0
100
AcDbBlockEnd
  0
BLOCK
  5
55
100
AcDbEntity
  8
0
100
AcDbBlockBegin
  2
_EX_CIVIL
 70
     0
 10
0.0
 20
0.0
 30
0.0
  3
_EX_CIVIL
  1

  0
LINE
  5
56
100
AcDbEntity
  8
0
  6
CONTINUOUS
 62
     0
100
AcDbLine
 10
0.0
 20
0.0
 30
0.0
 11
-1.0
 21
0.0
 31
0.0
  0
LINE
  5
57
100
AcDbEntity
  8
0
  6
CONTINUOUS
 62
     0
100
AcDbLine
 10
-1.0
 20
0.25
 30
0.0
 11
0.0
 21
0.25
 31
0.0
  0
LINE
  5
58
100
AcDbEntity
  8
0
  6
CONTINUOUS
 62
     0
100
AcDbLine
 10
-1.0
 20
0.125
 30
0.0
 11
0.0
 21
0.125
 31
0.0
  0
ENDBLK
  5
59
100
AcDbEntity
  8
0
100
AcDbBlockEnd
  0
BLOCK
  5
5A
100
AcDbEntity
  8
0
100
AcDbBlockBegin
  2
_EX_WCIR
 70
     0
 10
0.0
 20
0.0
 30
0.0
  3
_EX_WCIR
  1

  0
LINE
  5
5B
100
AcDbEntity
  8
0
  6
CONTINUOUS
 62
     0
100
AcDbLine
 10
0.0
 20
0.0
 30
0.0
 11
-1.0
 21
0.0
 31
0.0
  0
CIRCLE
  5
5C
100
AcDbEntity
  8
0
  6
CONTINUOUS
 62
     0
100
AcDbCircle
 10
0.0
 20
0.0
 30
0.0
 40
0.5
  0
ENDBLK
  5
5D
100
AcDbEntity
  8
0
100
AcDbBlockEnd
  0
BLOCK
  5
5E
100
AcDbEntity
  8
0
100
AcDbBlockBegin
  2
_EX_WCIR2
 70
     0
 10
0.0
 20
0.0
 30
0.0
  3
_EX_WCIR2
  1

  0
LINE
  5
5F
100
AcDbEntity
  8
0
  6
CONTINUOUS
 62
     0
100
AcDbLine
 10
-0.5
 20
0.0
 30
0.0
 11
-1.0
 21
0.0
 31
0.0
  0
CIRCLE
  5
60
100
AcDbEntity
  8
0
  6
CONTINUOUS
 62
     0
100
AcDbCircle
 10
0.0
 20
0.0
 30
0.0
 40
0.5
  0
ENDBLK
  5
61
100
AcDbEntity
  8
0
100
AcDbBlockEnd
  0
BLOCK
  5
62
100
AcDbEntity
  8
0
100
AcDbBlockBegin
  2
_EX_WNORM
 70
     0
 10
0.0
 20
0.0
 30
0.0
  3
_EX_WNORM
  1

  0
LINE
  5
63
100
AcDbEntity
  8
0
  6
CONTINUOUS
 62
     0
100
AcDbLine
 10
-1.0
 20
0.0
 30
0.0
 11
-1.0
 21
0.0
 31
0.0
  0
LINE
  5
64
100
AcDbEntity
  8
0
  6
CONTINUOUS
 62
     0
100
AcDbLine
 10
0.0
 20
0.0
 30
0.0
 11
-1.0
 21
0.166667
 31
0.0
  0
LINE
  5
65
100
AcDbEntity
  8
0
  6
CONTINUOUS
 62
     0
100
AcDbLine
 10
0.0
 20
0.0
 30
0.0
 11
-1.0
 21
-0.166667
 31
0.0
  0
LINE
  5
66
100
AcDbEntity
  8
0
  6
CONTINUOUS
 62
     0
100
AcDbLine
 10
-1.0
 20
0.166667
 30
0.0
 11
-1.0
 21
-0.166667
 31
0.0
  0
ENDBLK
  5
67
100
AcDbEntity
  8
0
100
AcDbBlockEnd
  0
BLOCK
  5
68
100
AcDbEntity
  8
0
100
AcDbBlockBegin
  2
_EX_NNORM
 70
     0
 10
0.0
 20
0.0
 30
0.0
  3
_EX_NNORM
  1

  0
LINE
  5
69
100
AcDbEntity
  8
0
  6
CONTINUOUS
 62
     0
100
AcDbLine
 10
0.0
 20
0.0
 30
0.0
 11
-1.0
 21
0.0
 31
0.0
  0
LINE
  5
6A
100
AcDbEntity
  8
0
  6
CONTINUOUS
 62
     0
100
AcDbLine
 10
0.0
 20
0.0
 30
0.0
 11
-1.0
 21
0.166667
 31
0.0
  0
LINE
  5
6B
100
AcDbEntity
  8
0
  6
CONTINUOUS
 62
     0
100
AcDbLine
 10
0.0
 20
0.0
 30
0.0
 11
-1.0
 21
-0.166667
 31
0.0
  0
LINE
  5
6C
100
AcDbEntity
  8
0
  6
CONTINUOUS
 62
     0
100
AcDbLine
 10
-1.0
 20
0.166667
 30
0.0
 11
-1.0
 21
-0.166667
 31
0.0
  0
ENDBLK
  5
6D
100
AcDbEntity
  8
0
100
AcDbBlockEnd
  0
BLOCK
  5
6E
100
AcDbEntity
  8
0
100
AcDbBlockBegin
  2
_EX_BBOX
 70
     0
 10
0.0
 20
0.0
 30
0.0
  3
_EX_BBOX
  1

  0
LINE
  5
6F
100
AcDbEntity
  8
0
  6
CONTINUOUS
 62
     0
100
AcDbLine
 10
0.0
 20
0.0
 30
0.0
 11
-1.0
 21
0.0
 31
0.0
  0
LINE
  5
70
100
AcDbEntity
  8
0
  6
CONTINUOUS
 62
     0
100
AcDbLine
 10
-0.5
 20
0.5
 30
0.0
 11
0.5
 21
0.5
 31
0.0
  0
LINE
  5
71
100
AcDbEntity
  8
0
  6
CONTINUOUS
 62
     0
100
AcDbLine
 10
0.5
 20
0.5
 30
0.0
 11
0.5
 21
-0.5
 31
0.0
  0
LINE
  5
72
100
AcDbEntity
  8
0
  6
CONTINUOUS
 62
     0
100
AcDbLine
 10
0.5
 20
-0.5
 30
0.0
 11
-0.5
 21
-0.5
 31
0.0
  0
LINE
  5
73
100
AcDbEntity
  8
0
  6
CONTINUOUS
 62
     0
100
AcDbLine
 10
-0.5
 20
-0.5
 30
0.0
 11
-0.5
 21
0.5
 31
0.0
  0
LINE
  5
74
100
AcDbEntity
  8
0
  6
CONTINUOUS
 62
     0
100
AcDbLine
 10
-0.25
 20
0.25
 30
0.0
 11
0.25
 21
0.25
 31
0.0
  0
LINE
  5
75
100
AcDbEntity
  8
0
  6
CONTINUOUS
 62
     0
100
AcDbLine
 10
0.25
 20
0.25
 30
0.0
 11
0.25
 21
-0.25
 31
0.0
  0
LINE
  5
76
100
AcDbEntity
  8
0
  6
CONTINUOUS
 62
     0
100
AcDbLine
 10
0.25
 20
-0.25
 30
0.0
 11
-0.25
 21
-0.25
 31
0.0
  0
LINE
  5
77
100
AcDbEntity
  8
0
  6
CONTINUOUS
 62
     0
100
AcDbLine
 10
-0.25
 20
-0.25
 30
0.0
 11
-0.25
 21
0.25
 31
0.0
  0
ENDBLK
  5
78
100
AcDbEntity
  8
0
100
AcDbBlockEnd
  0
BLOCK
  5
79
100
AcDbEntity
  8
0
100
AcDbBlockBegin
  2
_EX_WBOX
 70
     0
 10
0.0
 20
0.0
 30
0.0
  3
_EX_WBOX
  1

  0
LINE
  5
7A
100
AcDbEntity
  8
0
  6
CONTINUOUS
 62
     0
100
AcDbLine
 10
-0.5
 20
0.0
 30
0.0
 11
-1.0
 21
0.0
 31
0.0
  0
LINE
  5
7B
100
AcDbEntity
  8
0
  6
CONTINUOUS
 62
     0
100
AcDbLine
 10
-0.5
 20
0.5
 30
0.0
 11
0.5
 21
0.5
 31
0.0
  0
LINE
  5
7C
100
AcDbEntity
  8
0
  6
CONTINUOUS
 62
     0
100
AcDbLine
 10
0.5
 20
0.5
 30
0.0
 11
0.5
 21
-0.5
 31
0.0
  0
LINE
  5
7D
100
AcDbEntity
  8
0
  6
CONTINUOUS
 62
     0
100
AcDbLine
 10
0.5
 20
-0.5
 30
0.0
 11
-0.5
 21
-0.5
 31
0.0
  0
LINE
  5
7E
100
AcDbEntity
  8
0
  6
CONTINUOUS
 62
     0
100
AcDbLine
 10
-0.5
 20
-0.5
 30
0.0
 11
-0.5
 21
0.5
 31
0.0
  0
ENDBLK
  5
7F
100
AcDbEntity
  8
0
100
AcDbBlockEnd
  0
BLOCK
  5
80
100
AcDbEntity
  8
0
100
AcDbBlockBegin
  2
_EX_INTEGRAL
 70
     0
 10
0.0
 20
0.0
 30
0.0
  3
_EX_INTEGRAL
  1

  0
LINE
  5
81
100
AcDbEntity
  8
0
  6
CONTINUOUS
 62
     0
100
AcDbLine
 10
0.0
 20
0.0
 30
0.0
 11
-1.0
 21
0.0
 31
0.0
  0
ARC
  5
82
100
AcDbEntity
  8
0
  6
CONTINUOUS
 62
     0
100
AcDbCircle
 10
0.542115
 20
0.164992
 30
0.0
 40
0.56667
100
AcDbArc
 50
73.07249
 51
196.927513
  0
ARC
  5
83
100
AcDbEntity
  8
0
  6
CONTINUOUS
 62
     0
100
AcDbCircle
 10
-0.542115
 20
-0.164992
 30
0.0
 40
0.56667
100
AcDbArc
 50
253.072487
 51
16.927513
  0
ENDBLK
  5
84
100
AcDbEntity
  8
0
100
AcDbBlockEnd
  0
BLOCK
  5
85
100
AcDbEntity
  8
0
100
AcDbBlockBegin
  2
SYM-1
 70
     0
 10
0.0
 20
0.0
 30
0.0
  3
SYM-1
  1

  0
HATCH
  5
86
100
AcDbEntity
  8
0
  6
CONTINUOUS
 62
     3
100
AcDbHatch
 10
0.0
 20
0.0
 30
0.0
210
0.0
220
0.0
230
1.0
  2
SOLID
 70
     1
 71
     1
 91
        1
 92
        1
 93
       16
 72
     1
 10
24.351152239011505
 20
-2.0357142857144446
 11
25.613295096154353
 21
-2.0357142857144446
 72
     1
 10
25.613295096154353
 20
-2.0357142857144446
 11
25.613295096154353
 21
-2.8500000000001648
 72
     1
 10
25.613295096154353
 20
-2.8500000000001648
 11
22.23400938186861
 21
-2.8500000000001648
 72
     1
 10
22.23400938186861
 20
-2.8500000000001648
 11
22.23400938186861
 21
-2.0357142857144446
 72
     1
 10
22.23400938186861
 20
-2.0357142857144446
 11
23.536866524725802
 21
-2.0357142857144446
 72
     1
 10
23.536866524725802
 20
-2.0357142857144446
 11
23.536866524725802
 21
0.3257142857141346
 72
     1
 10
23.536866524725802
 20
0.3257142857141346
 11
22.519009381868621
 21
0.3257142857141346
 72
     1
 10
22.519009381868621
 20
0.3257142857141346
 11
22.519009381868621
 21
1.1399999999998514
 72
     1
 10
22.519009381868621
 20
1.1399999999998514
 11
23.536866524725802
 21
1.1399999999998514
 72
     1
 10
23.536866524725802
 20
1.1399999999998514
 11
23.536866524725802
 21
2.8499999999998487
 72
     1
 10
23.536866524725802
 20
2.8499999999998487
 11
24.351152239011505
 21
2.8499999999998487
 72
     1
 10
24.351152239011505
 20
2.8499999999998487
 11
24.351152239011505
 21
1.1399999999998514
 72
     1
 10
24.351152239011505
 20
1.1399999999998514
 11
25.531866524725821
 21
1.1399999999998514
 72
     1
 10
25.531866524725821
 20
1.1399999999998514
 11
25.531866524725821
 21
0.3257142857141346
 72
     1
 10
25.531866524725821
 20
0.3257142857141346
 11
24.351152239011505
 21
0.3257142857141346
 72
     1
 10
24.351152239011505
 20
0.3257142857141346
 11
24.351152239011505
 21
-2.0357142857144446
 97
        0
 75
     0
 76
     1
 98
        1
 10
0.0
 20
0.0
  0
HATCH
  5
87
100
AcDbEntity
  8
0
  6
CONTINUOUS
 62
     3
100
AcDbHatch
 10
0.0
 20
0.0
 30
0.0
210
0.0
220
0.0
230
1.0
  2
SOLID
 70
     1
 71
     1
 91
        1
 92
        1
 93
       17
 72
     2
 10
15.796286246552746
 20
4.4303755974531924
 40
7.328571428571454
 50
44.165469
 51
51.472792
 73
     0
 72
     1
 10
20.361152239011439
 20
-1.3028571428572775
 11
19.948878200429583
 21
-0.5887775613918898
 72
     2
 10
15.796286246552746
 20
4.4303755974531924
 40
6.5142857142857364
 50
309.602625
 51
331.307968
 73
     1
 72
     1
 10
21.510701937024301
 20
1.3028571428570004
 11
20.157580810440017
 21
1.3028571428570004
 72
     1
 10
20.157580810440017
 20
1.3028571428570004
 11
20.157580810440017
 21
2.0357142857141319
 72
     1
 10
20.157580810440017
 20
2.0357142857141319
 11
21.053295096154336
 21
2.0357142857141319
 72
     1
 10
21.053295096154336
 20
2.0357142857141319
 11
21.053295096154336
 21
2.8499999999998487
 72
     1
 10
21.053295096154336
 20
2.8499999999998487
 11
21.786152239011507
 21
2.8499999999998487
 72
     1
 10
21.786152239011507
 20
2.8499999999998487
 11
21.786152239011507
 21
2.0357142857141319
 72
     1
 10
21.786152239011507
 20
2.0357142857141319
 11
22.722580810439986
 21
2.0357142857141319
 72
     2
 10
15.796286246552746
 20
4.4303755974531924
 40
7.328571428571454
 50
19.072051
 51
32.871988
 73
     0
 72
     1
 10
21.951445818831196
 20
0.4526916201288422
 11
22.926152239011437
 21
-0.4885714285715821
 72
     1
 10
22.926152239011437
 20
-0.4885714285715821
 11
22.350277580116831
 21
-1.0644460874662265
 72
     1
 10
22.350277580116831
 20
-1.0644460874662265
 11
21.786152239011507
 21
-0.5196765779765897
 72
     1
 10
21.786152239011507
 20
-0.5196765779765897
 11
21.786152239011507
 21
-2.8500000000001648
 72
     1
 10
21.786152239011507
 20
-2.8500000000001648
 11
21.053295096154336
 21
-2.8500000000001648
 72
     1
 10
21.053295096154336
 20
-2.8500000000001648
 11
21.053295096154336
 21
-0.6756813096801793
 97
        0
 75
     0
 76
     1
 98
        1
 10
0.0
 20
0.0
  0
HATCH
  5
88
100
AcDbEntity
  8
0
  6
CONTINUOUS
 62
     3
100
AcDbHatch
 10
0.0
 20
0.0
 30
0.0
210
0.0
220
0.0
230
1.0
  2
SOLID
 70
     1
 71
     1
 91
        1
 92
        1
 93
       12
 72
     2
 10
26.09465466477446
 20
-6.5604295733743392
 40
11.481428571428609
 50
150.903074
 51
156.790773
 73
     1
 72
     1
 10
15.542396441700383
 20
-2.035714285714505
 11
18.049394029288031
 21
-2.0357142857144055
 72
     2
 10
10.927987441101074
 20
-4.0835590566205937
 40
7.4100000000000241
 50
16.043216
 51
21.362935
 73
     1
 72
     1
 10
17.828858648663306
 20
-1.3842857142858769
 11
18.610437953297115
 21
-1.3842857142858769
 72
     2
 10
10.927987441101074
 20
-4.0835590566205937
 40
8.1428571428571708
 50
340.64078
 51
351.286733
 73
     0
 72
     1
 10
18.976866524725686
 20
-2.8500000000001648
 11
14.457580810439971
 21
-2.8500000000001648
 72
     2
 10
26.09465466477446
 20
-6.5604295733743392
 40
12.214285714285754
 50
197.684652
 51
207.200855
 73
     0
 72
     1
 10
15.231152239011401
 20
-0.9771428571430043
 11
14.091152239011485
 21
-0.9771428571430043
 72
     1
 10
14.091152239011485
 20
-0.9771428571430043
 11
14.091152239011485
 21
-0.162857142857284
 72
     1
 10
14.091152239011485
 20
-0.162857142857284
 11
19.302580810440098
 21
-0.162857142857284
 72
     1
 10
19.302580810440098
 20
-0.162857142857284
 11
19.302580810440098
 21
-0.9771428571430043
 72
     1
 10
19.302580810440098
 20
-0.9771428571430043
 11
16.062201750099412
 21
-0.9771428571430043
 97
        0
 75
     0
 76
     1
 98
        1
 10
0.0
 20
0.0
  0
HATCH
  5
89
100
AcDbEntity
  8
0
  6
CONTINUOUS
 62
     3
100
AcDbHatch
 10
0.0
 20
0.0
 30
0.0
210
0.0
220
0.0
230
1.0
  2
SOLID
 70
     1
 71
     1
 91
        1
 92
        1
 93
       10
 72
     2
 10
26.143491684008573
 20
11.064410217386417
 40
13.028571428571473
 50
129.545698
 51
136.474664
 73
     0
 72
     1
 10
16.696866524725998
 20
2.0919553376225579
 11
16.696866524725998
 21
2.8499999999998487
 72
     1
 10
16.696866524725998
 20
2.8499999999998487
 11
17.104009381868686
 21
2.8499999999998487
 72
     2
 10
26.143491684008573
 20
11.064410217386417
 40
12.214285714285754
 50
222.262231
 51
237.763996
 73
     1
 72
     1
 10
19.628295096154382
 20
0.7328571428570001
 11
19.100346295490944
 21
0.1036722629605507
 72
     2
 10
26.143491684008573
 20
11.064410217386417
 40
13.028571428571473
 50
122.723968
 51
128.230009
 73
     0
 72
     1
 10
18.08115223901148
 20
0.830038905819066
 11
18.08115223901148
 21
0.2035714285712729
 72
     1
 10
18.08115223901148
 20
0.2035714285712729
 11
16.696866524725998
 21
0.2035714285712729
 72
     1
 10
16.696866524725998
 20
0.2035714285712729
 11
16.696866524725998
 21
1.0178571428569896
 72
     1
 10
16.696866524725998
 20
1.0178571428569896
 11
17.848285550942784
 21
1.0178571428569896
 97
        0
 75
     0
 76
     1
 98
        1
 10
0.0
 20
0.0
  0
HATCH
  5
8A
100
AcDbEntity
  8
0
  6
CONTINUOUS
 62
     3
100
AcDbHatch
 10
0.0
 20
0.0
 30
0.0
210
0.0
220
0.0
230
1.0
  2
SOLID
 70
     1
 71
     1
 91
        1
 92
        1
 93
       10
 72
     2
 10
7.2502413654429532
 20
11.064410217386417
 40
13.028571428571473
 50
51.769991
 51
57.276032
 73
     0
 72
     1
 10
14.293386753960569
 20
0.1036722629605329
 11
13.76543795329713
 21
0.7328571428569894
 72
     2
 10
7.2502413654429532
 20
11.064410217386417
 40
12.214285714285754
 50
302.236004
 51
317.737769
 73
     1
 72
     1
 10
16.289723667582841
 20
2.8499999999998487
 11
16.696866524725998
 21
2.8499999999998487
 72
     1
 10
16.696866524725998
 20
2.8499999999998487
 11
16.696866524725998
 21
2.0919553376230482
 72
     2
 10
7.2502413654429532
 20
11.064410217386417
 40
13.028571428571473
 50
43.525336
 51
50.454302
 73
     0
 72
     1
 10
15.545447498508743
 20
1.0178571428569896
 11
16.696866524725998
 21
1.0178571428569896
 72
     1
 10
16.696866524725998
 20
1.0178571428569896
 11
16.696866524725998
 21
0.2035714285712729
 72
     1
 10
16.696866524725998
 20
0.2035714285712729
 11
15.312580810440046
 21
0.2035714285712729
 72
     1
 10
15.312580810440046
 20
0.2035714285712729
 11
15.312580810440046
 21
0.8300389058190589
 97
        0
 75
     0
 76
     1
 98
        1
 10
0.0
 20
0.0
  0
HATCH
  5
8B
100
AcDbEntity
  8
0
  6
CONTINUOUS
 62
     3
100
AcDbHatch
 10
0.0
 20
0.0
 30
0.0
210
0.0
220
0.0
230
1.0
  2
SOLID
 70
     1
 71
     1
 91
        1
 92
        1
 93
       18
 72
     2
 10
1.2571935216656343
 20
-0.8093264034321166
 40
11.400000000000038
 50
14.02954
 51
18.723021
 73
     1
 72
     1
 10
12.053921279331213
 20
2.8499999999998487
 11
12.910437953297141
 21
2.8499999999998487
 72
     2
 10
1.2571935216656343
 20
-0.8093264034321166
 40
12.214285714285754
 50
342.566782
 51
346.922981
 73
     0
 72
     1
 10
13.15472366758285
 20
1.9542857142855716
 11
13.480437953297177
 21
1.9542857142855716
 72
     1
 10
13.480437953297177
 20
1.9542857142855716
 11
13.480437953297177
 21
1.1399999999998407
 72
     1
 10
13.480437953297177
 20
1.1399999999998407
 11
11.958092734747289
 21
1.1399999999998514
 72
     2
 10
20.401866524725683
 20
2.4835714285712918
 40
8.5500000000000291
 50
189.041096
 51
204.65198
 73
     1
 72
     2
 10
14.334076117775972
 20
-0.301141422634494
 40
1.8737206404808271
 50
204.65198
 51
242.897449
 73
     1
 72
     1
 10
13.480437953297177
 20
-1.9691135215345774
 11
13.480437953297177
 21
-2.8500000000001648
 72
     2
 10
14.334076117775972
 20
-0.301141422634494
 40
2.6880063547665438
 50
108.516212
 51
155.34802
 73
     0
 72
     2
 10
20.401866524725683
 20
2.4835714285712918
 40
9.3642857142857441
 50
155.34802
 51
171.750831
 73
     0
 72
     1
 10
11.134468683092756
 20
1.1399999999998549
 11
8.0247236675828972
 21
1.1399999999998407
 72
     1
 10
8.0247236675828972
 20
1.1399999999998407
 11
8.0247236675828972
 21
1.9542857142855716
 72
     1
 10
8.0247236675828972
 20
1.9542857142855716
 11
11.050355927894167
 21
1.9542857142855716
 72
     1
 10
11.050355927894167
 20
1.9542857142855716
 11
11.019076895792274
 21
2.8499999999998487
 72
     1
 10
11.019076895792274
 20
2.8499999999998487
 11
11.833858953292697
 21
2.8499999999998487
 72
     1
 10
11.833858953292697
 20
2.8499999999998487
 11
11.865137985394604
 21
1.9542857142855716
 72
     1
 10
11.865137985394604
 20
1.9542857142855716
 11
12.317141444816265
 21
1.9542857142855716
 97
        0
 75
     0
 76
     1
 98
        1
 10
0.0
 20
0.0
  0
HATCH
  5
8C
100
AcDbEntity
  8
0
  6
CONTINUOUS
 62
     3
100
AcDbHatch
 10
0.0
 20
0.0
 30
0.0
210
0.0
220
0.0
230
1.0
  2
SOLID
 70
     1
 71
     1
 91
        1
 92
        1
 93
       12
 72
     2
 10
5.4617420309248317
 20
38.027820957415145
 40
39.900000000000134
 50
276.500664
 51
278.269357
 73
     1
 72
     1
 10
11.200437953297204
 20
-1.457332823601817
 11
11.20043795329719
 21
-2.2800000000001504
 72
     2
 10
5.4617420309248317
 20
38.027820957415145
 40
40.71428571428585
 50
81.897153
 51
86.39082
 73
     0
 72
     1
 10
8.024723667582883
 20
-2.6057142857144413
 11
8.024723667582883
 21
-1.7897772264302034
 72
     2
 10
5.4617420309248317
 20
38.027820957415145
 40
39.900000000000134
 50
273.682937
 51
275.325087
 73
     1
 72
     1
 10
9.1647236675828836
 20
-1.6999769553635602
 11
9.1647236675828836
 21
-0.4071428571430218
 72
     1
 10
9.1647236675828836
 20
-0.4071428571430218
 11
8.0247236675828972
 21
-0.4071428571430218
 72
     1
 10
8.0247236675828972
 20
-0.4071428571430218
 11
8.0247236675828972
 21
0.4071428571426949
 72
     1
 10
8.0247236675828972
 20
0.4071428571426949
 11
10.95615223901148
 21
0.4071428571426949
 72
     1
 10
10.95615223901148
 20
0.4071428571426949
 11
10.95615223901148
 21
-0.4071428571430218
 72
     1
 10
10.95615223901148
 20
-0.4071428571430218
 11
9.9790093818686287
 21
-0.4071428571430218
 72
     1
 10
9.9790093818686287
 20
-0.4071428571430218
 11
9.9790093818685861
 21
-1.6156437710884397
 97
        0
 75
     0
 76
     1
 98
        1
 10
0.0
 20
0.0
  0
HATCH
  5
8D
100
AcDbEntity
  8
0
  6
CONTINUOUS
 62
     3
100
AcDbHatch
 10
0.0
 20
0.0
 30
0.0
210
0.0
220
0.0
230
1.0
  2
SOLID
 70
     1
 71
     1
 91
        1
 92
        1
 93
       30
 72
     2
 10
-1.8979256098940809
 20
4.1519130391923014
 40
8.9164285714286002
 50
37.940537
 51
46.713808
 73
     0
 72
     1
 10
4.21556076329842
 20
-2.3386942385728418
 11
3.6682950961542744
 21
-1.7914285714286962
 72
     2
 10
-1.8979256098940809
 20
4.1519130391923014
 40
8.1428571428571743
 50
313.123325
 51
325.95222
 73
     1
 72
     1
 10
4.8490093818684983
 20
-0.4071428571430076
 11
3.8718665247257533
 21
-0.4071428571430076
 72
     1
 10
3.8718665247257533
 20
-0.4071428571430076
 11
3.8718665247257533
 21
0.4071428571427092
 72
     1
 10
3.8718665247257533
 20
0.4071428571427092
 11
5.1340093818686157
 21
0.4071428571427092
 72
     1
 10
5.1340093818686157
 20
0.4071428571427092
 11
5.1340093818686157
 21
1.2214285714284152
 72
     1
 10
5.1340093818686157
 20
1.2214285714284152
 11
4.7280236542212677
 21
1.2214285714284152
 72
     2
 10
-3.9789687629962955
 20
2.9438069062169916
 40
8.8757142857143183
 50
11.189535
 51
14.746058
 73
     0
 72
     1
 10
4.6044101437030562
 20
0.6846232869284066
 11
3.9125808104399411
 21
0.9364285714284044
 72
     2
 10
-3.9789687629962955
 20
2.9438069062169916
 40
8.1428571428571743
 50
345.728313
 51
357.620387
 73
     1
 72
     1
 10
4.1568665247257641
 20
2.6057142857165694
 11
4.8844833536651819
 21
2.4774158071570227
 72
     2
 10
-3.9789687629962955
 20
2.9438069062169916
 40
8.8757142857143183
 50
3.012102
 51
6.401006
 73
     0
 72
     1
 10
4.8414139890361767
 20
1.9542857142855716
 11
5.1340093818686157
 21
1.9542857142855716
 72
     1
 10
5.1340093818686157
 20
1.9542857142855716
 11
5.1340093818686157
 21
2.8499999999998487
 72
     1
 10
5.1340093818686157
 20
2.8499999999998487
 11
5.948295096154304
 21
2.8499999999998487
 72
     1
 10
5.948295096154304
 20
2.8499999999998487
 11
5.948295096154304
 21
1.9542857142855716
 72
     1
 10
5.948295096154304
 20
1.9542857142855716
 11
7.0475808104400599
 21
1.9542857142855716
 72
     1
 10
7.0475808104400599
 20
1.9542857142855716
 11
7.0475808104400599
 21
1.2214285714284152
 72
     1
 10
7.0475808104400599
 20
1.2214285714284152
 11
5.948295096154304
 21
1.2214285714284152
 72
     1
 10
5.948295096154304
 20
1.2214285714284152
 11
5.948295096154304
 21
0.4071428571427092
 72
     1
 10
5.948295096154304
 20
0.4071428571427092
 11
7.2104379532971521
 21
0.4071428571427092
 72
     1
 10
7.2104379532971521
 20
0.4071428571427092
 11
7.2104379532971521
 21
-0.4071428571430076
 72
     1
 10
7.2104379532971521
 20
-0.4071428571430076
 11
6.2332950961542579
 21
-0.4071428571430076
 72
     2
 10
12.98023008791683
 20
4.1519130391922907
 40
8.1428571428571743
 50
214.04778
 51
226.876675
 73
     1
 72
     1
 10
7.4140093818684889
 20
-1.7914285714286962
 11
6.866743714724322
 21
-2.3386942385728453
 72
     2
 10
12.98023008791683
 20
4.1519130391922907
 40
8.9164285714286002
 50
133.286192
 51
142.059463
 73
     0
 72
     1
 10
5.948295096154304
 20
-1.330293518482641
 11
5.948295096154304
 21
-2.8500000000001648
 72
     1
 10
5.948295096154304
 20
-2.8500000000001648
 11
5.1340093818686157
 21
-2.8500000000001648
 72
     1
 10
5.1340093818686157
 20
-2.8500000000001648
 11
5.1340093818686157
 21
-1.3302935184824136
 97
        0
 75
     0
 76
     1
 98
        1
 10
0.0
 20
0.0
  0
HATCH
  5
8E
100
AcDbEntity
  8
0
  6
CONTINUOUS
 62
     3
100
AcDbHatch
 10
0.0
 20
0.0
 30
0.0
210
0.0
220
0.0
230
1.0
  2
SOLID
 70
     1
 71
     1
 91
        1
 92
        1
 93
       19
 72
     2
 10
-5.2499698511775321
 20
3.0651230633969284
 40
8.8757142857143165
 50
27.683433
 51
32.280505
 73
     0
 72
     1
 10
2.2539459810095721
 20
-1.6750827617845943
 11
1.6732950961542841
 21
-1.2214285714287314
 72
     2
 10
-5.2499698511775321
 20
3.0651230633969284
 40
8.1428571428571708
 50
328.236207
 51
344.845745
 73
     1
 72
     1
 10
2.6097236675827773
 20
0.9364285714284151
 11
1.8768665247257346
 21
0.9364285714284151
 72
     1
 10
1.8768665247257346
 20
0.9364285714284151
 11
1.8768665247257346
 21
1.7507142857141353
 72
     1
 10
1.8768665247257346
 20
1.7507142857141353
 11
2.6097236675829052
 21
1.7507142857141353
 72
     1
 10
2.6097236675829052
 20
1.7507142857141353
 11
2.6097236675829052
 21
2.8499999999998487
 72
     1
 10
2.6097236675829052
 20
2.8499999999998487
 11
3.4240093818685935
 21
2.8499999999998487
 72
     1
 10
3.4240093818685935
 20
2.8499999999998487
 11
3.4240093818685935
 21
1.7507142857141353
 72
     1
 10
3.4240093818685935
 20
1.7507142857141353
 11
3.7904379532971788
 21
1.7507142857141353
 72
     1
 10
3.7904379532971788
 20
1.7507142857141353
 11
3.7904379532971788
 21
0.9364285714284151
 72
     1
 10
3.7904379532971788
 20
0.9364285714284151
 11
3.4240093818685367
 21
0.9364285714284151
 72
     1
 10
3.4240093818685367
 20
0.9364285714284151
 11
3.8718665247257533
 21
0.2968222855516665
 72
     1
 10
3.8718665247257533
 20
0.2968222855516665
 11
3.8718665247257533
 21
-0.1989042363292235
 72
     1
 10
3.8718665247257533
 20
-0.1989042363292235
 11
3.6275808104399871
 21
-0.4900326139487277
 72
     1
 10
3.6275808104399871
 20
-0.4900326139487277
 11
3.4240093818685935
 21
-0.1993024840048498
 72
     1
 10
3.4240093818685935
 20
-0.1993024840048498
 11
3.4240093818685935
 21
-2.8500000000001648
 72
     1
 10
3.4240093818685935
 20
-2.8500000000001648
 11
2.6097236675829052
 21
-2.8500000000001648
 72
     1
 10
2.6097236675829052
 20
-2.8500000000001648
 11
2.6097236675829052
 21
-1.0584096299120844
 97
        0
 75
     0
 76
     1
 98
        1
 10
0.0
 20
0.0
  0
HATCH
  5
8F
100
AcDbEntity
  8
0
  6
CONTINUOUS
 62
     3
100
AcDbHatch
 10
0.0
 20
0.0
 30
0.0
210
0.0
220
0.0
230
1.0
  2
SOLID
 70
     1
 71
     1
 91
        1
 92
        1
 93
        8
 72
     2
 10
-1.8298808996504405
 20
-0.4560000000002766
 40
1.596000000000013
 50
270.0
 51
330.0
 73
     1
 72
     2
 10
-2.619696067901863
 20
-0.00000000000027
 40
2.508000000000012
 50
330.0
 51
30.0
 73
     1
 72
     2
 10
-1.8298808996504405
 20
0.4559999999997331
 40
1.5960000000000121
 50
30.0
 51
90.0
 73
     1
 72
     1
 10
-1.82988089965
 20
2.0519999999997438
 11
-1.82988089965
 21
2.9639999999999276
 72
     2
 10
-1.8298808996504974
 20
0.4559999999999214
 40
2.508000000000008
 50
270.0
 51
330.0
 73
     0
 72
     2
 10
-2.6196960679017494
 20
-0.0000000000001243
 40
3.420000000000015
 50
330.0
 51
30.0
 73
     0
 72
     2
 10
-1.8298808996503837
 20
-0.456000000000369
 40
2.5080000000000053
 50
30.0
 51
90.0
 73
     0
 72
     1
 10
-1.82988089965
 20
-2.9640000000003752
 11
-1.82988089965
 21
-2.0520000000002909
 97
        0
 75
     0
 76
     1
 98
        1
 10
0.0
 20
0.0
  0
HATCH
  5
90
100
AcDbEntity
  8
0
  6
CONTINUOUS
 62
     3
100
AcDbHatch
 10
0.0
 20
0.0
 30
0.0
210
0.0
220
0.0
230
1.0
  2
SOLID
 70
     1
 71
     1
 91
        1
 92
        1
 93
        8
 72
     2
 10
-1.8298808996503837
 20
-0.456000000000369
 40
2.5080000000000053
 50
90.0
 51
150.0
 73
     0
 72
     2
 10
-1.0400657313991175
 20
-0.0000000000003126
 40
3.4200000000000181
 50
150.0
 51
210.0
 73
     0
 72
     2
 10
-1.8298808996504974
 20
0.4559999999999214
 40
2.508000000000008
 50
210.0
 51
270.0
 73
     0
 72
     1
 10
-1.82988089965
 20
2.9639999999999276
 11
-1.82988089965
 21
2.0519999999997438
 72
     2
 10
-1.8298808996504405
 20
0.4559999999997331
 40
1.5960000000000121
 50
90.0
 51
150.0
 73
     1
 72
     2
 10
-1.040065731399018
 20
-0.00000000000027
 40
2.5080000000000129
 50
150.0
 51
210.0
 73
     1
 72
     2
 10
-1.8298808996504405
 20
-0.4560000000002766
 40
1.596000000000013
 50
210.0
 51
270.0
 73
     1
 72
     1
 10
-1.82988089965
 20
-2.0520000000002909
 11
-1.82988089965
 21
-2.9640000000003752
 97
        0
 75
     0
 76
     1
 98
        1
 10
0.0
 20
0.0
  0
HATCH
  5
91
100
AcDbEntity
  8
0
  6
CONTINUOUS
 62
     3
100
AcDbHatch
 10
0.0
 20
0.0
 30
0.0
210
0.0
220
0.0
230
1.0
  2
SOLID
 70
     1
 71
     1
 91
        1
 92
        1
 93
        4
 72
     1
 10
-5.3638808996504608
 20
-1.0260000000002698
 11
-6.2758808996504385
 21
-1.0260000000002698
 72
     1
 10
-6.2758808996504385
 20
-1.0260000000002698
 11
-6.2758808996504385
 21
-0.1140000000002743
 72
     1
 10
-6.2758808996504385
 20
-0.1140000000002743
 11
-5.3638808996504608
 21
-0.1140000000002743
 72
     1
 10
-5.3638808996504608
 20
-0.1140000000002743
 11
-5.3638808996504608
 21
-1.0260000000003267
 97
        0
 75
     0
 76
     1
 98
        1
 10
0.0
 20
0.0
  0
HATCH
  5
92
100
AcDbEntity
  8
0
  6
CONTINUOUS
 62
     3
100
AcDbHatch
 10
0.0
 20
0.0
 30
0.0
210
0.0
220
0.0
230
1.0
  2
SOLID
 70
     1
 71
     1
 91
        1
 92
        1
 93
       16
 72
     1
 10
-9.6958808996504686
 20
1.9379999999997324
 11
-10.949880899650459
 21
1.9379999999997324
 72
     1
 10
-10.949880899650459
 20
1.9379999999997324
 11
-11.177880899650468
 21
0.6839999999997275
 72
     1
 10
-11.177880899650468
 20
0.6839999999997275
 11
-11.861880899650437
 21
0.6839999999997275
 72
     1
 10
-11.861880899650437
 20
0.6839999999997275
 11
-11.861880899650437
 21
2.8499999999997421
 72
     1
 10
-11.861880899650437
 20
2.8499999999997421
 11
-6.6178808996504515
 21
2.8499999999997421
 72
     1
 10
-6.6178808996504515
 20
2.8499999999997421
 11
-6.6178808996504515
 21
0.6839999999997275
 72
     1
 10
-6.6178808996504515
 20
0.6839999999997275
 11
-7.3018808996504205
 21
0.6839999999997275
 72
     1
 10
-7.3018808996504205
 20
0.6839999999997275
 11
-7.5298808996504292
 21
1.9379999999997324
 72
     1
 10
-7.5298808996504292
 20
1.9379999999997324
 11
-8.7838808996504767
 21
1.9379999999997324
 72
     1
 10
-8.7838808996504767
 20
1.9379999999997324
 11
-8.7838808996504341
 21
-1.9380000000002759
 72
     1
 10
-8.7838808996504341
 20
-1.9380000000002759
 11
-7.8718808996504421
 21
-2.1660000000002846
 72
     1
 10
-7.8718808996504421
 20
-2.1660000000002846
 11
-7.8718808996504421
 21
-2.8500000000002856
 72
     1
 10
-7.8718808996504421
 20
-2.8500000000002856
 11
-10.607880899650446
 21
-2.8500000000002856
 72
     1
 10
-10.607880899650446
 20
-2.8500000000002856
 11
-10.607880899650446
 21
-2.1660000000002846
 72
     1
 10
-10.607880899650446
 20
-2.1660000000002846
 11
-9.6958808996504686
 21
-1.9380000000002759
 72
     1
 10
-9.6958808996504686
 20
-1.9380000000002759
 11
-9.6958808996504686
 21
1.9379999999997324
 97
        0
 75
     0
 76
     1
 98
        1
 10
0.0
 20
0.0
  0
HATCH
  5
93
100
AcDbEntity
  8
0
  6
CONTINUOUS
 62
     3
100
AcDbHatch
 10
0.0
 20
0.0
 30
0.0
210
0.0
220
0.0
230
1.0
  2
SOLID
 70
     1
 71
     1
 91
        1
 92
        1
 93
        4
 72
     1
 10
-13.115880899650485
 20
-1.0260000000002698
 11
-13.115880899650428
 21
-0.1140000000002175
 72
     1
 10
-13.115880899650428
 20
-0.1140000000002175
 11
-12.20388089965045
 21
-0.1140000000002743
 72
     1
 10
-12.20388089965045
 20
-0.1140000000002743
 11
-12.20388089965045
 21
-1.0260000000002698
 72
     1
 10
-12.20388089965045
 20
-1.0260000000002698
 11
-13.115880899650428
 21
-1.0260000000002698
 97
        0
 75
     0
 76
     1
 98
        1
 10
0.0
 20
0.0
  0
HATCH
  5
94
100
AcDbEntity
  8
0
  6
CONTINUOUS
 62
     3
100
AcDbHatch
 10
0.0
 20
0.0
 30
0.0
210
0.0
220
0.0
230
1.0
  2
SOLID
 70
     1
 71
     1
 91
        1
 92
        1
 93
       12
 72
     1
 10
-14.141880899650467
 20
2.8499999999997421
 11
-14.141880899650467
 21
2.1659999999997304
 72
     1
 10
-14.141880899650467
 20
2.1659999999997304
 11
-15.053880899650444
 21
1.9379999999997324
 72
     1
 10
-15.053880899650444
 20
1.9379999999997324
 11
-15.053880899650444
 21
-1.9380000000002759
 72
     1
 10
-15.053880899650444
 20
-1.9380000000002759
 11
-14.141880899650467
 21
-2.1660000000002846
 72
     1
 10
-14.141880899650467
 20
-2.1660000000002846
 11
-14.141880899650467
 21
-2.8500000000002856
 72
     1
 10
-14.141880899650467
 20
-2.8500000000002856
 11
-16.877880899650467
 21
-2.8500000000002856
 72
     1
 10
-16.877880899650467
 20
-2.8500000000002856
 11
-16.877880899650467
 21
-2.1660000000002846
 72
     1
 10
-16.877880899650467
 20
-2.1660000000002846
 11
-15.965880899650482
 21
-1.9380000000002759
 72
     1
 10
-15.965880899650482
 20
-1.9380000000002759
 11
-15.965880899650482
 21
1.9379999999997324
 72
     1
 10
-15.965880899650482
 20
1.9379999999997324
 11
-16.877880899650467
 21
2.165999999999741
 72
     1
 10
-16.877880899650467
 20
2.165999999999741
 11
-16.877880899650467
 21
2.8499999999997421
 72
     1
 10
-16.877880899650467
 20
2.8499999999997421
 11
-14.141880899650467
 21
2.8499999999997421
 97
        0
 75
     0
 76
     1
 98
        1
 10
0.0
 20
0.0
  0
HATCH
  5
95
100
AcDbEntity
  8
0
  6
CONTINUOUS
 62
     3
100
AcDbHatch
 10
0.0
 20
0.0
 30
0.0
210
0.0
220
0.0
230
1.0
  2
SOLID
 70
     1
 71
     1
 91
        1
 92
        1
 93
       15
 72
     2
 10
-23.082241990843084
 20
-0.0000000000001492
 40
2.531053105310535
 50
124.301153
 51
180.0
 73
     0
 72
     1
 10
-25.613295096153617
 20
0.0
 11
-24.658234262528236
 21
0.0
 72
     2
 10
-22.195587997901765
 20
-0.000000000000135
 40
2.46264626462647
 50
180.0
 51
199.464384
 73
     1
 72
     2
 10
-24.557343260027135
 20
0.2731786481661374
 40
1.094509450945121
 50
272.086657
 51
294.619977
 73
     1
 72
     2
 10
-24.243863734539655
 20
-0.4108897586745677
 40
0.342034203420344
 50
294.619977
 51
0.0
 73
     1
 72
     1
 10
-23.901829531119287
 20
-0.4108897586745677
 11
-23.901829531119287
 21
0.0
 72
     1
 10
-23.901829531119287
 20
0.0
 11
-23.080947442910482
 21
0.0
 72
     1
 10
-23.080947442910482
 20
0.0
 11
-23.080947442910482
 21
-0.4116155274721614
 72
     2
 10
-22.73891323949012
 20
-0.4116155274721614
 40
0.34203420342033
 50
180.0
 51
245.380023
 73
     1
 72
     2
 10
-22.425433714002583
 20
0.2724528793686645
 40
1.0945094509452411
 50
245.380023
 51
267.913343
 73
     1
 72
     1
 10
-22.465285876753814
 20
-0.8213308027789985
 11
-22.465285876753814
 21
-1.0265513248311819
 72
     1
 10
-22.465285876753814
 20
-1.0265513248311819
 11
-24.434073870576871
 21
-1.0265513248311962
 72
     2
 10
-22.195587997901708
 20
-0.000000000000135
 40
2.4626462646264669
 50
204.635803
 51
268.19864
 73
     1
 72
     1
 10
-22.272999999999005
 20
-2.4614292609397985
 11
-22.272999999999005
 21
-2.8039503813289706
 72
     2
 10
-22.195587997901765
 20
1.2997299729972909
 40
4.1044104410441236
 50
91.080702
 51
124.301153
 73
     0
 97
        0
 75
     0
 76
     1
 98
        1
 10
0.0
 20
0.0
  0
HATCH
  5
96
100
AcDbEntity
  8
0
  6
CONTINUOUS
 62
     3
100
AcDbHatch
 10
0.0
 20
0.0
 30
0.0
210
0.0
220
0.0
230
1.0
  2
SOLID
 70
     1
 71
     1
 91
        1
 92
        1
 93
       24
 72
     2
 10
-22.67055612196938
 20
0.3420342034202015
 40
0.342034203420347
 50
90.0
 51
157.380135
 73
     1
 72
     2
 10
-21.849674033760575
 20
-0.0000000000001101
 40
1.231323132313237
 50
157.380135
 51
180.0
 73
     1
 72
     1
 10
-23.080997166073811
 20
0.0
 11
-23.901829531119287
 21
0.0
 72
     1
 10
-23.901829531119287
 20
0.0
 11
-23.901829531119287
 21
1.7757720729310194
 72
     2
 10
-22.195587997901765
 20
-0.000000000000135
 40
2.46264626462647
 50
133.856042
 51
180.0
 73
     1
 72
     1
 10
-24.658234262528236
 20
0.0
 11
-25.613295096153617
 21
0.0
 72
     2
 10
-23.082241990843084
 20
-0.0000000000001492
 40
2.531053105310535
 50
180.0
 51
235.698847
 73
     0
 72
     2
 10
-22.195587997901708
 20
-1.2997299729975893
 40
4.1044104410441324
 50
235.698847
 51
245.436008
 73
     0
 72
     1
 10
-23.901829531119287
 20
2.4332212587861193
 11
-23.901829531119287
 21
2.8049575222742433
 72
     2
 10
-24.243863734539655
 20
2.8049575222742433
 40
0.3420342034203421
 50
0.0
 51
65.380023
 73
     1
 72
     2
 10
-24.557343260027135
 20
2.1208891154335525
 40
1.0945094509450961
 50
65.380023
 51
87.913343
 73
     1
 72
     1
 10
-24.517491097275904
 20
3.2146727975810734
 11
-24.517491097275904
 21
3.4198933196332746
 72
     1
 10
-24.517491097275904
 20
3.4198933196332746
 11
-22.465285876753814
 21
3.4198933196332746
 72
     1
 10
-22.465285876753814
 20
3.4198933196332746
 11
-22.465285876753814
 21
3.2146727975810769
 72
     2
 10
-22.425433714002583
 20
2.1208891154335525
 40
1.094509450945101
 50
92.086657
 51
114.619977
 73
     1
 72
     2
 10
-22.738913239490063
 20
2.8049575222742575
 40
0.342034203420347
 50
114.619977
 51
180.0
 73
     1
 72
     1
 10
-23.080947442910432
 20
2.8049575222742433
 11
-23.080947442910432
 21
2.7080529205341897
 72
     2
 10
-22.195587997901765
 20
-1.2997299729975893
 40
4.1044104410441218
 50
257.542857
 51
268.919298
 73
     0
 72
     1
 10
-22.272999999999005
 20
2.8039503813286721
 11
-22.272999999999005
 21
2.4614292609395321
 72
     2
 10
-22.195587997901708
 20
-0.000000000000135
 40
2.46264626462647
 50
91.80136
 51
111.070443
 73
     1
 72
     1
 10
-23.080947442910482
 20
2.2979915747913111
 11
-23.080947442910482
 21
1.0261026102608923
 72
     1
 10
-23.080947442910482
 20
1.0261026102608923
 11
-22.272999999998969
 21
1.0261026102608923
 72
     1
 10
-22.272999999998969
 20
1.0261026102608923
 11
-22.272999999999005
 21
0.6840684068405416
 72
     1
 10
-22.272999999999005
 20
0.6840684068405416
 11
-22.67055612196938
 21
0.6840684068405416
 97
        0
 75
     0
 76
     1
 98
        1
 10
0.0
 20
0.0
  0
HATCH
  5
97
100
AcDbEntity
  8
0
  6
CONTINUOUS
 62
     3
100
AcDbHatch
 10
0.0
 20
0.0
 30
0.0
210
0.0
220
0.0
230
1.0
  2
SOLID
 70
     1
 71
     1
 91
        1
 92
        1
 93
       14
 72
     2
 10
-22.195587997901765
 20
-0.000000000000135
 40
2.4626462646264748
 50
0.0
 51
9.281799
 73
     1
 72
     2
 10
-20.102741104833992
 20
0.3420342034202015
 40
0.34203420342034
 50
9.281799
 51
90.0
 73
     1
 72
     1
 10
-20.102741104833992
 20
0.6840684068405416
 11
-20.827451184220411
 21
0.6840684068405416
 72
     1
 10
-20.827451184220411
 20
0.6840684068405416
 11
-20.827451184220411
 21
0.0
 72
     1
 10
-20.827451184220411
 20
0.0
 11
-21.648333272429209
 21
0.0
 72
     1
 10
-21.648333272429209
 20
0.0
 11
-21.648333272429209
 21
0.6840684068405416
 72
     1
 10
-21.648333272429209
 20
0.6840684068405416
 11
-22.272999999999005
 21
0.6840684068405416
 72
     1
 10
-22.272999999999005
 20
0.6840684068405416
 11
-22.272999999999005
 21
1.0261026102608923
 72
     1
 10
-22.272999999999005
 20
1.0261026102608923
 11
-19.956896402818945
 21
1.0261026102608675
 72
     2
 10
-22.195587997901708
 20
-0.000000000000135
 40
2.46264626462647
 50
24.624318
 51
91.80136
 73
     1
 72
     1
 10
-22.272999999999005
 20
2.4614292609395321
 11
-22.272999999999005
 21
2.8039503813286721
 72
     2
 10
-22.195587997901765
 20
-1.2997299729975893
 40
4.1044104410441218
 50
268.919298
 51
304.301153
 73
     0
 72
     2
 10
-21.308934004960445
 20
-0.0000000000001492
 40
2.5310531053105372
 50
304.301153
 51
0.0
 73
     0
 72
     1
 10
-18.777880899649912
 20
0.0
 11
-19.732941733275293
 21
0.0
 97
        0
 75
     0
 76
     1
 98
        1
 10
0.0
 20
0.0
  0
HATCH
  5
98
100
AcDbEntity
  8
0
  6
CONTINUOUS
 62
     3
100
AcDbHatch
 10
0.0
 20
0.0
 30
0.0
210
0.0
220
0.0
230
1.0
  2
SOLID
 70
     1
 71
     1
 91
        1
 92
        1
 93
       19
 72
     2
 10
-22.195587997901765
 20
-0.000000000000135
 40
2.4626462646264748
 50
303.748989
 51
0.0
 73
     1
 72
     1
 10
-19.732941733275293
 20
0.0
 11
-18.777880899649912
 21
0.0
 72
     2
 10
-21.308934004960445
 20
-0.0000000000001492
 40
2.5310531053105372
 50
0.0
 51
55.698847
 73
     0
 72
     2
 10
-22.195587997901708
 20
1.2997299729973051
 40
4.1044104410441289
 50
55.698847
 51
70.528779
 73
     0
 72
     1
 10
-20.827451184220411
 20
-2.5699453011829512
 11
-20.827451184220411
 21
-2.8054062368445436
 72
     2
 10
-20.485416980800043
 20
-2.8054062368445436
 40
0.342034203420344
 50
180.0
 51
245.380023
 73
     1
 72
     2
 10
-20.171937455312563
 20
-2.1213378300038528
 40
1.094509450945099
 50
245.380023
 51
267.913343
 73
     1
 72
     1
 10
-20.211789618063744
 20
-3.2151215121513772
 11
-20.211789618063744
 21
-3.4203420342035784
 72
     1
 10
-20.211789618063744
 20
-3.4203420342035784
 11
-22.263994838585827
 21
-3.4203420342035784
 72
     1
 10
-22.263994838585827
 20
-3.4203420342035784
 11
-22.263994838585827
 21
-3.2151215121513737
 72
     2
 10
-22.303847001337058
 20
-2.1213378300038528
 40
1.094509450945099
 50
272.086657
 51
294.619977
 73
     1
 72
     2
 10
-21.990367475849578
 20
-2.8054062368445436
 40
0.342034203420344
 50
294.619977
 51
0.0
 73
     1
 72
     1
 10
-21.648333272429209
 20
-2.8054062368445436
 11
-21.648333272429209
 21
-2.7680332125876284
 72
     2
 10
-22.195587997901765
 20
1.2997299729972909
 40
4.1044104410441236
 50
82.337744
 51
91.080702
 73
     0
 72
     1
 10
-22.272999999999005
 20
-2.8039503813289706
 11
-22.272999999999005
 21
-2.4614292609397985
 72
     2
 10
-22.195587997901708
 20
-0.000000000000135
 40
2.4626462646264669
 50
268.19864
 51
282.839588
 73
     1
 72
     1
 10
-21.648333272429209
 20
-2.4010703634269781
 11
-21.648333272429209
 21
0.0
 72
     1
 10
-21.648333272429209
 20
0.0
 11
-20.827451184220411
 21
0.0
 72
     1
 10
-20.827451184220411
 20
0.0
 11
-20.827451184220411
 21
-2.047639686011447
 97
        0
 75
     0
 76
     1
 98
        1
 10
0.0
 20
0.0
  0
ENDBLK
  5
99
100
AcDbEntity
  8
0
100
AcDbBlockEnd
  0
ENDSEC
  0
SECTION
  2
ENTITIES
  0
LINE
  5
9A
100
AcDbEntity
  8
LAY-1
  6
EXLTYPE3
 62
     1
100
AcDbLine
 10
313.098497
 20
150.0
 30
0.0
 11
113.03172
 21
150.0
 31
0.0
  0
LINE
  5
9B
100
AcDbEntity
  8
LAY-1
  6
EXLTYPE3
 62
     1
100
AcDbLine
 10
234.300501
 20
-13.749048
 30
0.0
 11
193.966611
 21
-13.749048
 31
0.0
  0
LINE
  5
9C
100
AcDbEntity
  8
LAY-1
  6
CONTINUOUS
 62
     1
100
AcDbLine
 10
-342.774672
 20
70.305513
 30
0.0
 11
-341.210275
 21
67.595897
 31
0.0
  0
LINE
  5
9D
100
AcDbEntity
  8
LAY-1
  6
CONTINUOUS
 62
     1
100
AcDbLine
 10
-309.225328
 20
70.305513
 30
0.0
 11
-310.789725
 21
67.595897
 31
0.0
  0
LINE
  5
9E
100
AcDbEntity
  8
LAY-1
  6
CONTINUOUS
 62
     1
100
AcDbLine
 10
-309.225328
 20
83.694489
 30
0.0
 11
-310.789725
 21
86.404105
 31
0.0
  0
LINE
  5
9F
100
AcDbEntity
  8
LAY-1
  6
CONTINUOUS
 62
     1
100
AcDbLine
 10
-342.774672
 20
83.694489
 30
0.0
 11
-341.210275
 21
86.404105
 31
0.0
  0
LINE
  5
A0
100
AcDbEntity
  8
LAY-1
  6
CONTINUOUS
 62
     1
100
AcDbLine
 10
-310.932733
 20
63.019641
 30
0.0
 11
-310.789725
 21
67.595897
 31
0.0
  0
LINE
  5
A1
100
AcDbEntity
  8
LAY-1
  6
CONTINUOUS
 62
     1
100
AcDbLine
 10
-341.067267
 20
63.019641
 30
0.0
 11
-341.210275
 21
67.595897
 31
0.0
  0
LINE
  5
A2
100
AcDbEntity
  8
LAY-1
  6
CONTINUOUS
 62
     1
100
AcDbLine
 10
-341.066653
 20
91.0
 30
0.0
 11
-341.210275
 21
86.404105
 31
0.0
  0
LINE
  5
A3
100
AcDbEntity
  8
LAY-1
  6
CONTINUOUS
 62
     1
100
AcDbLine
 10
-310.933347
 20
91.0
 30
0.0
 11
-310.789725
 21
86.404105
 31
0.0
  0
LINE
  5
A4
100
AcDbEntity
  8
LAY-1
  6
EXLTYPE4
 62
     1
100
AcDbLine
 10
-338.228863
 20
212.5
 30
0.0
 11
-339.457957
 21
214.628853
 31
0.0
  0
LINE
  5
A5
100
AcDbEntity
  8
LAY-1
  6
EXLTYPE4
 62
     1
100
AcDbLine
 10
-313.771137
 20
212.5
 30
0.0
 11
-312.542043
 21
214.628853
 31
0.0
  0
LINE
  5
A6
100
AcDbEntity
  8
LAY-1
  6
EXLTYPE4
 62
     1
100
AcDbLine
 10
-313.911762
 20
208.0
 30
0.0
 11
-313.771137
 21
212.5
 31
0.0
  0
LINE
  5
A7
100
AcDbEntity
  8
LAY-1
  6
EXLTYPE4
 62
     1
100
AcDbLine
 10
-338.088238
 20
208.0
 30
0.0
 11
-338.228863
 21
212.5
 31
0.0
  0
LINE
  5
A8
100
AcDbEntity
  8
LAY-1
  6
EXLTYPE4
 62
     1
100
AcDbLine
 10
-312.773016
 20
208.0
 30
0.0
 11
-312.51482
 21
217.0
 31
0.0
  0
LINE
  5
A9
100
AcDbEntity
  8
LAY-1
  6
EXLTYPE4
 62
     1
100
AcDbLine
 10
-339.226984
 20
208.0
 30
0.0
 11
-339.48518
 21
217.0
 31
0.0
  0
LINE
  5
AA
100
AcDbEntity
  8
LAY-1
  6
EXLTYPE4
 62
     1
100
AcDbLine
 10
-308.0
 20
218.154701
 30
0.0
 11
-310.0
 21
217.0
 31
0.0
  0
LINE
  5
AB
100
AcDbEntity
  8
LAY-1
  6
EXLTYPE4
 62
     1
100
AcDbLine
 10
-308.0
 20
218.154701
 30
0.0
 11
-308.0
 21
224.845299
 31
0.0
  0
LINE
  5
AC
100
AcDbEntity
  8
LAY-1
  6
EXLTYPE4
 62
     1
100
AcDbLine
 10
-308.0
 20
224.845299
 30
0.0
 11
-310.0
 21
226.0
 31
0.0
  0
LINE
  5
AD
100
AcDbEntity
  8
LAY-1
  6
EXLTYPE4
 62
     1
100
AcDbLine
 10
-344.0
 20
218.154701
 30
0.0
 11
-342.0
 21
217.0
 31
0.0
  0
LINE
  5
AE
100
AcDbEntity
  8
LAY-1
  6
EXLTYPE4
 62
     1
100
AcDbLine
 10
-344.0
 20
218.154701
 30
0.0
 11
-344.0
 21
224.845299
 31
0.0
  0
LINE
  5
AF
100
AcDbEntity
  8
LAY-1
  6
EXLTYPE4
 62
     1
100
AcDbLine
 10
-344.0
 20
224.845299
 30
0.0
 11
-342.0
 21
226.0
 31
0.0
  0
ARC
  5
B0
100
AcDbEntity
  8
LAY-1
  6
EXLTYPE4
 62
     1
100
AcDbCircle
 10
-312.381198
 20
217.111017
 30
0.0
 40
8.888983
100
AcDbArc
 50
60.46998
 51
119.53002
  0
ARC
  5
B1
100
AcDbEntity
  8
LAY-1
  6
EXLTYPE4
 62
     1
100
AcDbCircle
 10
-326.0
 20
188.472233
 30
0.0
 40
37.527767
100
AcDbArc
 50
75.749967
 51
104.250033
  0
ARC
  5
B2
100
AcDbEntity
  8
LAY-1
  6
EXLTYPE4
 62
     1
100
AcDbCircle
 10
-339.618802
 20
217.111017
 30
0.0
 40
8.888983
100
AcDbArc
 50
60.46998
 51
119.53002
  0
ARC
  5
B3
100
AcDbEntity
  8
LAY-1
  6
EXLTYPE4
 62
     1
100
AcDbCircle
 10
-312.381198
 20
225.888983
 30
0.0
 40
8.888983
100
AcDbArc
 50
240.46998
 51
299.53002
  0
ARC
  5
B4
100
AcDbEntity
  8
LAY-1
  6
EXLTYPE4
 62
     1
100
AcDbCircle
 10
-326.0
 20
254.527767
 30
0.0
 40
37.527767
100
AcDbArc
 50
255.749967
 51
284.250033
  0
ARC
  5
B5
100
AcDbEntity
  8
LAY-1
  6
EXLTYPE4
 62
     1
100
AcDbCircle
 10
-339.618802
 20
225.888983
 30
0.0
 40
8.888983
100
AcDbArc
 50
240.46998
 51
299.53002
  0
LINE
  5
B6
100
AcDbEntity
  8
LAY-1
  6
EXLTYPE4
 62
     1
100
AcDbLine
 10
-335.237604
 20
224.845299
 30
0.0
 11
-335.237604
 21
218.154701
 31
0.0
  0
LINE
  5
B7
100
AcDbEntity
  8
LAY-1
  6
EXLTYPE4
 62
     1
100
AcDbLine
 10
-316.762396
 20
224.845299
 30
0.0
 11
-316.762396
 21
218.154701
 31
0.0
  0
LINE
  5
B8
100
AcDbEntity
  8
LAY-1
  6
EXLTYPE4
 62
     1
100
AcDbLine
 10
-310.0
 20
226.0
 30
0.0
 11
-342.0
 21
226.0
 31
0.0
  0
LINE
  5
B9
100
AcDbEntity
  8
LAY-1
  6
EXLTYPE4
 62
     1
100
AcDbLine
 10
-310.0
 20
217.0
 30
0.0
 11
-342.0
 21
217.0
 31
0.0
  0
LINE
  5
BA
100
AcDbEntity
  8
LAY-1
  6
EXLTYPE4
 62
     1
100
AcDbLine
 10
-312.60857
 20
212.5
 30
0.0
 11
-339.356082
 21
212.5
 31
0.0
  0
LINE
  5
BB
100
AcDbEntity
  8
LAY-1
  6
EXLTYPE2
 62
     1
100
AcDbLine
 10
-111.122052
 20
170.033702
 30
0.0
 11
-118.909227
 21
170.305636
 31
0.0
  0
ARC
  5
BC
100
AcDbEntity
  8
LAY-1
  6
EXLTYPE2
 62
     1
100
AcDbCircle
 10
-111.156952
 20
130.965689
 30
0.0
 40
1.0
100
AcDbArc
 50
272.0
 51
0.0
  0
LINE
  5
BD
100
AcDbEntity
  8
LAY-1
  6
EXLTYPE2
 62
     1
100
AcDbLine
 10
-110.156952
 20
150.0
 30
0.0
 11
-110.156952
 21
130.965685
 31
0.0
  0
ARC
  5
BE
100
AcDbEntity
  8
LAY-1
  6
EXLTYPE2
 62
     1
100
AcDbCircle
 10
-111.156952
 20
169.034311
 30
0.0
 40
1.0
100
AcDbArc
 50
0.0
 51
88.0
  0
LINE
  5
BF
100
AcDbEntity
  8
LAY-1
  6
EXLTYPE2
 62
     1
100
AcDbLine
 10
-110.156952
 20
150.0
 30
0.0
 11
-110.156952
 21
169.034315
 31
0.0
  0
LINE
  5
C0
100
AcDbEntity
  8
LAY-1
  6
EXLTYPE2
 62
     1
100
AcDbLine
 10
-111.122052
 20
129.966298
 30
0.0
 11
-118.909227
 21
129.694364
 31
0.0
  0
LINE
  5
C1
100
AcDbEntity
  8
LAY-1
  6
EXLTYPE2
 62
     1
100
AcDbLine
 10
-110.156952
 20
137.3
 30
0.0
 11
-100.427123
 21
137.3
 31
0.0
  0
LINE
  5
C2
100
AcDbEntity
  8
LAY-1
  6
EXLTYPE2
 62
     1
100
AcDbLine
 10
-99.156952
 20
139.5
 30
0.0
 11
-99.156952
 21
160.5
 31
0.0
  0
LINE
  5
C3
100
AcDbEntity
  8
LAY-1
  6
EXLTYPE2
 62
     1
100
AcDbLine
 10
-100.427123
 20
162.7
 30
0.0
 11
-110.156952
 21
162.7
 31
0.0
  0
LINE
  5
C4
100
AcDbEntity
  8
LAY-1
  6
EXLTYPE2
 62
     1
100
AcDbLine
 10
-100.427123
 20
143.649147
 30
0.0
 11
-110.156952
 21
143.649147
 31
0.0
  0
ARC
  5
C5
100
AcDbEntity
  8
LAY-1
  6
EXLTYPE2
 62
     1
100
AcDbCircle
 10
-115.66917
 20
150.0
 30
0.0
 40
16.512218
100
AcDbArc
 50
337.380135
 51
22.619865
  0
LINE
  5
C6
100
AcDbEntity
  8
LAY-1
  6
EXLTYPE2
 62
     1
100
AcDbLine
 10
-99.156952
 20
160.5
 30
0.0
 11
-100.427123
 21
162.7
 31
0.0
  0
LINE
  5
C7
100
AcDbEntity
  8
LAY-1
  6
EXLTYPE2
 62
     1
100
AcDbLine
 10
-100.427123
 20
156.350853
 30
0.0
 11
-110.156952
 21
156.350853
 31
0.0
  0
LINE
  5
C8
100
AcDbEntity
  8
LAY-1
  6
EXLTYPE2
 62
     1
100
AcDbLine
 10
-99.156952
 20
139.5
 30
0.0
 11
-100.427123
 21
137.3
 31
0.0
  0
ARC
  5
C9
100
AcDbEntity
  8
LAY-1
  6
EXLTYPE2
 62
     1
100
AcDbCircle
 10
-106.577662
 20
139.5
 30
0.0
 40
7.419201
100
AcDbArc
 50
0.0
 51
34.003561
  0
ARC
  5
CA
100
AcDbEntity
  8
LAY-1
  6
EXLTYPE2
 62
     1
100
AcDbCircle
 10
-106.577662
 20
160.5
 30
0.0
 40
7.419201
100
AcDbArc
 50
325.996439
 51
0.0
  0
LINE
  5
CB
100
AcDbEntity
  8
LAY-1
  6
EXLTYPE2
 62
     1
100
AcDbLine
 10
-120.559044
 20
128.042879
 30
0.0
 11
-121.315994
 21
123.75
 31
0.0
  0
ARC
  5
CC
100
AcDbEntity
  8
LAY-1
  6
EXLTYPE2
 62
     1
100
AcDbCircle
 10
-118.589428
 20
127.695582
 30
0.0
 40
2.0
100
AcDbArc
 50
92.0
 51
170.0
  0
LINE
  5
CD
100
AcDbEntity
  8
LAY-1
  6
EXLTYPE2
 62
     1
100
AcDbLine
 10
-110.872052
 20
129.966298
 30
0.0
 11
-118.659227
 21
129.694364
 31
0.0
  0
LINE
  5
CE
100
AcDbEntity
  8
LAY-1
  6
EXLTYPE2
 62
     1
100
AcDbLine
 10
-120.559044
 20
171.957121
 30
0.0
 11
-121.315994
 21
176.25
 31
0.0
  0
ARC
  5
CF
100
AcDbEntity
  8
LAY-1
  6
EXLTYPE2
 62
     1
100
AcDbCircle
 10
-118.589428
 20
172.304418
 30
0.0
 40
2.0
100
AcDbArc
 50
190.0
 51
268.0
  0
LINE
  5
D0
100
AcDbEntity
  8
LAY-1
  6
EXLTYPE2
 62
     1
100
AcDbLine
 10
-110.872052
 20
170.033702
 30
0.0
 11
-118.659227
 21
170.305636
 31
0.0
  0
LINE
  5
D1
100
AcDbEntity
  8
LAY-1
  6
CONTINUOUS
 62
     1
100
AcDbLine
 10
-260.406952
 20
68.460694
 30
0.0
 11
-261.406952
 21
67.278125
 31
0.0
  0
LINE
  5
D2
100
AcDbEntity
  8
LAY-1
  6
CONTINUOUS
 62
     1
100
AcDbLine
 10
-260.406952
 20
83.471801
 30
0.0
 11
-260.406952
 21
68.460694
 31
0.0
  0
LINE
  5
D3
100
AcDbEntity
  8
LAY-1
  6
CONTINUOUS
 62
     1
100
AcDbLine
 10
-261.406952
 20
84.700182
 30
0.0
 11
-260.406952
 21
83.471801
 31
0.0
  0
LINE
  5
D4
100
AcDbEntity
  8
LAY-1
  6
CONTINUOUS
 62
     1
100
AcDbLine
 10
-254.602979
 20
83.471801
 30
0.0
 11
-253.906952
 21
82.266248
 31
0.0
  0
ARC
  5
D5
100
AcDbEntity
  8
LAY-1
  6
CONTINUOUS
 62
     1
100
AcDbCircle
 10
-264.371915
 20
75.966248
 30
0.0
 40
10.464963
100
AcDbArc
 50
338.985518
 51
21.014482
  0
LINE
  5
D6
100
AcDbEntity
  8
LAY-1
  6
CONTINUOUS
 62
     1
100
AcDbLine
 10
-253.906952
 20
82.266248
 30
0.0
 11
-253.906952
 21
69.666248
 31
0.0
  0
LINE
  5
D7
100
AcDbEntity
  8
LAY-1
  6
CONTINUOUS
 62
     1
100
AcDbLine
 10
-254.602979
 20
68.460694
 30
0.0
 11
-253.906952
 21
69.666248
 31
0.0
  0
LINE
  5
D8
100
AcDbEntity
  8
LAY-1
  6
CONTINUOUS
 62
     1
100
AcDbLine
 10
-260.406952
 20
83.471801
 30
0.0
 11
-254.602979
 21
83.471801
 31
0.0
  0
LINE
  5
D9
100
AcDbEntity
  8
LAY-1
  6
CONTINUOUS
 62
     1
100
AcDbLine
 10
-260.406952
 20
79.719025
 30
0.0
 11
-254.602979
 21
79.719025
 31
0.0
  0
LINE
  5
DA
100
AcDbEntity
  8
LAY-1
  6
CONTINUOUS
 62
     1
100
AcDbLine
 10
-254.602979
 20
68.460694
 30
0.0
 11
-260.406952
 21
68.460694
 31
0.0
  0
LINE
  5
DB
100
AcDbEntity
  8
LAY-1
  6
CONTINUOUS
 62
     1
100
AcDbLine
 10
-260.406952
 20
72.213471
 30
0.0
 11
-254.602979
 21
72.213471
 31
0.0
  0
ARC
  5
DC
100
AcDbEntity
  8
LAY-1
  6
CONTINUOUS
 62
     1
100
AcDbCircle
 10
-258.915955
 20
69.666248
 30
0.0
 40
5.009003
100
AcDbArc
 50
0.0
 51
30.565895
  0
ARC
  5
DD
100
AcDbEntity
  8
LAY-1
  6
CONTINUOUS
 62
     1
100
AcDbCircle
 10
-258.915955
 20
82.266248
 30
0.0
 40
5.009003
100
AcDbArc
 50
329.434105
 51
0.0
  0
LINE
  5
DE
100
AcDbEntity
  8
LAY-1
  6
CONTINUOUS
 62
     1
100
AcDbLine
 10
-260.406952
 20
231.539306
 30
0.0
 11
-261.406952
 21
232.721875
 31
0.0
  0
LINE
  5
DF
100
AcDbEntity
  8
LAY-1
  6
CONTINUOUS
 62
     1
100
AcDbLine
 10
-260.406952
 20
216.528199
 30
0.0
 11
-260.406952
 21
231.539306
 31
0.0
  0
LINE
  5
E0
100
AcDbEntity
  8
LAY-1
  6
CONTINUOUS
 62
     1
100
AcDbLine
 10
-261.406952
 20
215.299818
 30
0.0
 11
-260.406952
 21
216.528199
 31
0.0
  0
LINE
  5
E1
100
AcDbEntity
  8
LAY-1
  6
CONTINUOUS
 62
     1
100
AcDbLine
 10
-254.602979
 20
216.528199
 30
0.0
 11
-253.906952
 21
217.733752
 31
0.0
  0
ARC
  5
E2
100
AcDbEntity
  8
LAY-1
  6
CONTINUOUS
 62
     1
100
AcDbCircle
 10
-264.371915
 20
224.033752
 30
0.0
 40
10.464963
100
AcDbArc
 50
338.985518
 51
21.014482
  0
LINE
  5
E3
100
AcDbEntity
  8
LAY-1
  6
CONTINUOUS
 62
     1
100
AcDbLine
 10
-253.906952
 20
217.733752
 30
0.0
 11
-253.906952
 21
230.333752
 31
0.0
  0
LINE
  5
E4
100
AcDbEntity
  8
LAY-1
  6
CONTINUOUS
 62
     1
100
AcDbLine
 10
-254.602979
 20
231.539306
 30
0.0
 11
-253.906952
 21
230.333752
 31
0.0
  0
LINE
  5
E5
100
AcDbEntity
  8
LAY-1
  6
CONTINUOUS
 62
     1
100
AcDbLine
 10
-260.406952
 20
216.528199
 30
0.0
 11
-254.602979
 21
216.528199
 31
0.0
  0
LINE
  5
E6
100
AcDbEntity
  8
LAY-1
  6
CONTINUOUS
 62
     1
100
AcDbLine
 10
-260.406952
 20
220.280975
 30
0.0
 11
-254.602979
 21
220.280975
 31
0.0
  0
LINE
  5
E7
100
AcDbEntity
  8
LAY-1
  6
CONTINUOUS
 62
     1
100
AcDbLine
 10
-254.602979
 20
231.539306
 30
0.0
 11
-260.406952
 21
231.539306
 31
0.0
  0
LINE
  5
E8
100
AcDbEntity
  8
LAY-1
  6
CONTINUOUS
 62
     1
100
AcDbLine
 10
-260.406952
 20
227.786529
 30
0.0
 11
-254.602979
 21
227.786529
 31
0.0
  0
ARC
  5
E9
100
AcDbEntity
  8
LAY-1
  6
CONTINUOUS
 62
     1
100
AcDbCircle
 10
-258.915955
 20
230.333752
 30
0.0
 40
5.009003
100
AcDbArc
 50
329.434105
 51
0.0
  0
ARC
  5
EA
100
AcDbEntity
  8
LAY-1
  6
CONTINUOUS
 62
     1
100
AcDbCircle
 10
-258.915955
 20
217.733752
 30
0.0
 40
5.009003
100
AcDbArc
 50
0.0
 51
30.565895
  0
LINE
  5
EB
100
AcDbEntity
  8
LAY-1
  6
CONTINUOUS
 62
     1
100
AcDbLine
 10
-260.406952
 20
111.828662
 30
0.0
 11
-261.406952
 21
110.646093
 31
0.0
  0
LINE
  5
EC
100
AcDbEntity
  8
LAY-1
  6
CONTINUOUS
 62
     1
100
AcDbLine
 10
-260.406952
 20
126.839769
 30
0.0
 11
-260.406952
 21
111.828662
 31
0.0
  0
LINE
  5
ED
100
AcDbEntity
  8
LAY-1
  6
CONTINUOUS
 62
     1
100
AcDbLine
 10
-261.406952
 20
128.06815
 30
0.0
 11
-260.406952
 21
126.839769
 31
0.0
  0
LINE
  5
EE
100
AcDbEntity
  8
LAY-1
  6
CONTINUOUS
 62
     1
100
AcDbLine
 10
-254.602979
 20
126.839769
 30
0.0
 11
-253.906952
 21
125.634216
 31
0.0
  0
ARC
  5
EF
100
AcDbEntity
  8
LAY-1
  6
CONTINUOUS
 62
     1
100
AcDbCircle
 10
-264.371915
 20
119.334216
 30
0.0
 40
10.464963
100
AcDbArc
 50
338.985518
 51
21.014482
  0
LINE
  5
F0
100
AcDbEntity
  8
LAY-1
  6
CONTINUOUS
 62
     1
100
AcDbLine
 10
-253.906952
 20
125.634216
 30
0.0
 11
-253.906952
 21
113.034216
 31
0.0
  0
LINE
  5
F1
100
AcDbEntity
  8
LAY-1
  6
CONTINUOUS
 62
     1
100
AcDbLine
 10
-254.602979
 20
111.828662
 30
0.0
 11
-253.906952
 21
113.034216
 31
0.0
  0
LINE
  5
F2
100
AcDbEntity
  8
LAY-1
  6
CONTINUOUS
 62
     1
100
AcDbLine
 10
-260.406952
 20
126.839769
 30
0.0
 11
-254.602979
 21
126.839769
 31
0.0
  0
LINE
  5
F3
100
AcDbEntity
  8
LAY-1
  6
CONTINUOUS
 62
     1
100
AcDbLine
 10
-260.406952
 20
123.086993
 30
0.0
 11
-254.602979
 21
123.086993
 31
0.0
  0
LINE
  5
F4
100
AcDbEntity
  8
LAY-1
  6
CONTINUOUS
 62
     1
100
AcDbLine
 10
-254.602979
 20
111.828662
 30
0.0
 11
-260.406952
 21
111.828662
 31
0.0
  0
LINE
  5
F5
100
AcDbEntity
  8
LAY-1
  6
CONTINUOUS
 62
     1
100
AcDbLine
 10
-260.406952
 20
115.581439
 30
0.0
 11
-254.602979
 21
115.581439
 31
0.0
  0
ARC
  5
F6
100
AcDbEntity
  8
LAY-1
  6
CONTINUOUS
 62
     1
100
AcDbCircle
 10
-258.915955
 20
113.034216
 30
0.0
 40
5.009003
100
AcDbArc
 50
0.0
 51
30.565895
  0
ARC
  5
F7
100
AcDbEntity
  8
LAY-1
  6
CONTINUOUS
 62
     1
100
AcDbCircle
 10
-258.915955
 20
125.634216
 30
0.0
 40
5.009003
100
AcDbArc
 50
329.434105
 51
0.0
  0
LINE
  5
F8
100
AcDbEntity
  8
LAY-1
  6
CONTINUOUS
 62
     1
100
AcDbLine
 10
-260.406952
 20
173.160231
 30
0.0
 11
-261.406952
 21
171.977662
 31
0.0
  0
LINE
  5
F9
100
AcDbEntity
  8
LAY-1
  6
CONTINUOUS
 62
     1
100
AcDbLine
 10
-260.406952
 20
188.171338
 30
0.0
 11
-260.406952
 21
173.160231
 31
0.0
  0
LINE
  5
FA
100
AcDbEntity
  8
LAY-1
  6
CONTINUOUS
 62
     1
100
AcDbLine
 10
-261.406952
 20
189.399718
 30
0.0
 11
-260.406952
 21
188.171338
 31
0.0
  0
LINE
  5
FB
100
AcDbEntity
  8
LAY-1
  6
CONTINUOUS
 62
     1
100
AcDbLine
 10
-254.602979
 20
188.171338
 30
0.0
 11
-253.906952
 21
186.965784
 31
0.0
  0
ARC
  5
FC
100
AcDbEntity
  8
LAY-1
  6
CONTINUOUS
 62
     1
100
AcDbCircle
 10
-264.371915
 20
180.665784
 30
0.0
 40
10.464963
100
AcDbArc
 50
338.985518
 51
21.014482
  0
LINE
  5
FD
100
AcDbEntity
  8
LAY-1
  6
CONTINUOUS
 62
     1
100
AcDbLine
 10
-253.906952
 20
186.965784
 30
0.0
 11
-253.906952
 21
174.365784
 31
0.0
  0
LINE
  5
FE
100
AcDbEntity
  8
LAY-1
  6
CONTINUOUS
 62
     1
100
AcDbLine
 10
-254.602979
 20
173.160231
 30
0.0
 11
-253.906952
 21
174.365784
 31
0.0
  0
LINE
  5
FF
100
AcDbEntity
  8
LAY-1
  6
CONTINUOUS
 62
     1
100
AcDbLine
 10
-260.406952
 20
188.171338
 30
0.0
 11
-254.602979
 21
188.171338
 31
0.0
  0
LINE
  5
100
100
AcDbEntity
  8
LAY-1
  6
CONTINUOUS
 62
     1
100
AcDbLine
 10
-260.406952
 20
184.418561
 30
0.0
 11
-254.602979
 21
184.418561
 31
0.0
  0
LINE
  5
101
100
AcDbEntity
  8
LAY-1
  6
CONTINUOUS
 62
     1
100
AcDbLine
 10
-254.602979
 20
173.160231
 30
0.0
 11
-260.406952
 21
173.160231
 31
0.0
  0
LINE
  5
102
100
AcDbEntity
  8
LAY-1
  6
CONTINUOUS
 62
     1
100
AcDbLine
 10
-260.406952
 20
176.913007
 30
0.0
 11
-254.602979
 21
176.913007
 31
0.0
  0
ARC
  5
103
100
AcDbEntity
  8
LAY-1
  6
CONTINUOUS
 62
     1
100
AcDbCircle
 10
-258.915955
 20
174.365784
 30
0.0
 40
5.009003
100
AcDbArc
 50
0.0
 51
30.565895
  0
ARC
  5
104
100
AcDbEntity
  8
LAY-1
  6
CONTINUOUS
 62
     1
100
AcDbCircle
 10
-258.915955
 20
186.965784
 30
0.0
 40
5.009003
100
AcDbArc
 50
329.434105
 51
0.0
  0
LINE
  5
105
100
AcDbEntity
  8
LAY-1
  6
CONTINUOUS
 62
     1
100
AcDbLine
 10
-287.5
 20
72.213471
 30
0.0
 11
-292.303973
 21
72.213471
 31
0.0
  0
LINE
  5
106
100
AcDbEntity
  8
LAY-1
  6
CONTINUOUS
 62
     1
100
AcDbLine
 10
-287.5
 20
79.719025
 30
0.0
 11
-292.303973
 21
79.719025
 31
0.0
  0
ARC
  5
107
100
AcDbEntity
  8
LAY-1
  6
CONTINUOUS
 62
     1
100
AcDbCircle
 10
-287.990997
 20
69.666248
 30
0.0
 40
5.009003
100
AcDbArc
 50
149.434105
 51
180.0
  0
ARC
  5
108
100
AcDbEntity
  8
LAY-1
  6
CONTINUOUS
 62
     1
100
AcDbCircle
 10
-287.990997
 20
82.266248
 30
0.0
 40
5.009003
100
AcDbArc
 50
180.0
 51
210.565895
  0
LINE
  5
109
100
AcDbEntity
  8
LAY-1
  6
CONTINUOUS
 62
     1
100
AcDbLine
 10
-292.303973
 20
68.460694
 30
0.0
 11
-293.0
 21
69.666248
 31
0.0
  0
ARC
  5
10A
100
AcDbEntity
  8
LAY-1
  6
CONTINUOUS
 62
     1
100
AcDbCircle
 10
-282.535037
 20
75.966248
 30
0.0
 40
10.464963
100
AcDbArc
 50
158.985518
 51
201.014482
  0
LINE
  5
10B
100
AcDbEntity
  8
LAY-1
  6
CONTINUOUS
 62
     1
100
AcDbLine
 10
-292.303973
 20
83.471801
 30
0.0
 11
-293.0
 21
82.266248
 31
0.0
  0
LINE
  5
10C
100
AcDbEntity
  8
LAY-1
  6
CONTINUOUS
 62
     1
100
AcDbLine
 10
-292.303973
 20
68.460694
 30
0.0
 11
-287.5
 21
68.460694
 31
0.0
  0
LINE
  5
10D
100
AcDbEntity
  8
LAY-1
  6
CONTINUOUS
 62
     1
100
AcDbLine
 10
-293.0
 20
82.266248
 30
0.0
 11
-293.0
 21
69.666248
 31
0.0
  0
LINE
  5
10E
100
AcDbEntity
  8
LAY-1
  6
CONTINUOUS
 62
     1
100
AcDbLine
 10
-287.5
 20
83.471801
 30
0.0
 11
-292.303973
 21
83.471801
 31
0.0
  0
LINE
  5
10F
100
AcDbEntity
  8
LAY-1
  6
CONTINUOUS
 62
     1
100
AcDbLine
 10
-287.5
 20
115.581439
 30
0.0
 11
-292.303973
 21
115.581439
 31
0.0
  0
LINE
  5
110
100
AcDbEntity
  8
LAY-1
  6
CONTINUOUS
 62
     1
100
AcDbLine
 10
-287.5
 20
123.086993
 30
0.0
 11
-292.303973
 21
123.086993
 31
0.0
  0
ARC
  5
111
100
AcDbEntity
  8
LAY-1
  6
CONTINUOUS
 62
     1
100
AcDbCircle
 10
-287.990997
 20
113.034216
 30
0.0
 40
5.009003
100
AcDbArc
 50
149.434105
 51
180.0
  0
ARC
  5
112
100
AcDbEntity
  8
LAY-1
  6
CONTINUOUS
 62
     1
100
AcDbCircle
 10
-287.990997
 20
125.634216
 30
0.0
 40
5.009003
100
AcDbArc
 50
180.0
 51
210.565895
  0
LINE
  5
113
100
AcDbEntity
  8
LAY-1
  6
CONTINUOUS
 62
     1
100
AcDbLine
 10
-292.303973
 20
111.828662
 30
0.0
 11
-293.0
 21
113.034216
 31
0.0
  0
ARC
  5
114
100
AcDbEntity
  8
LAY-1
  6
CONTINUOUS
 62
     1
100
AcDbCircle
 10
-282.535037
 20
119.334216
 30
0.0
 40
10.464963
100
AcDbArc
 50
158.985518
 51
201.014482
  0
LINE
  5
115
100
AcDbEntity
  8
LAY-1
  6
CONTINUOUS
 62
     1
100
AcDbLine
 10
-292.303973
 20
126.839769
 30
0.0
 11
-293.0
 21
125.634216
 31
0.0
  0
LINE
  5
116
100
AcDbEntity
  8
LAY-1
  6
CONTINUOUS
 62
     1
100
AcDbLine
 10
-292.303973
 20
111.828662
 30
0.0
 11
-287.5
 21
111.828662
 31
0.0
  0
LINE
  5
117
100
AcDbEntity
  8
LAY-1
  6
CONTINUOUS
 62
     1
100
AcDbLine
 10
-293.0
 20
125.634216
 30
0.0
 11
-293.0
 21
113.034216
 31
0.0
  0
LINE
  5
118
100
AcDbEntity
  8
LAY-1
  6
CONTINUOUS
 62
     1
100
AcDbLine
 10
-287.5
 20
126.839769
 30
0.0
 11
-292.303973
 21
126.839769
 31
0.0
  0
LINE
  5
119
100
AcDbEntity
  8
LAY-1
  6
CONTINUOUS
 62
     1
100
AcDbLine
 10
-287.5
 20
176.913007
 30
0.0
 11
-292.303973
 21
176.913007
 31
0.0
  0
LINE
  5
11A
100
AcDbEntity
  8
LAY-1
  6
CONTINUOUS
 62
     1
100
AcDbLine
 10
-287.5
 20
184.418561
 30
0.0
 11
-292.303973
 21
184.418561
 31
0.0
  0
ARC
  5
11B
100
AcDbEntity
  8
LAY-1
  6
CONTINUOUS
 62
     1
100
AcDbCircle
 10
-287.990997
 20
174.365784
 30
0.0
 40
5.009003
100
AcDbArc
 50
149.434105
 51
180.0
  0
ARC
  5
11C
100
AcDbEntity
  8
LAY-1
  6
CONTINUOUS
 62
     1
100
AcDbCircle
 10
-287.990997
 20
186.965784
 30
0.0
 40
5.009003
100
AcDbArc
 50
180.0
 51
210.565895
  0
LINE
  5
11D
100
AcDbEntity
  8
LAY-1
  6
CONTINUOUS
 62
     1
100
AcDbLine
 10
-292.303973
 20
173.160231
 30
0.0
 11
-293.0
 21
174.365784
 31
0.0
  0
ARC
  5
11E
100
AcDbEntity
  8
LAY-1
  6
CONTINUOUS
 62
     1
100
AcDbCircle
 10
-282.535037
 20
180.665784
 30
0.0
 40
10.464963
100
AcDbArc
 50
158.985518
 51
201.014482
  0
LINE
  5
11F
100
AcDbEntity
  8
LAY-1
  6
CONTINUOUS
 62
     1
100
AcDbLine
 10
-292.303973
 20
188.171338
 30
0.0
 11
-293.0
 21
186.965784
 31
0.0
  0
LINE
  5
120
100
AcDbEntity
  8
LAY-1
  6
CONTINUOUS
 62
     1
100
AcDbLine
 10
-292.303973
 20
173.160231
 30
0.0
 11
-287.5
 21
173.160231
 31
0.0
  0
LINE
  5
121
100
AcDbEntity
  8
LAY-1
  6
CONTINUOUS
 62
     1
100
AcDbLine
 10
-293.0
 20
186.965784
 30
0.0
 11
-293.0
 21
174.365784
 31
0.0
  0
LINE
  5
122
100
AcDbEntity
  8
LAY-1
  6
CONTINUOUS
 62
     1
100
AcDbLine
 10
-287.5
 20
188.171338
 30
0.0
 11
-292.303973
 21
188.171338
 31
0.0
  0
LINE
  5
123
100
AcDbEntity
  8
LAY-1
  6
CONTINUOUS
 62
     1
100
AcDbLine
 10
-287.5
 20
227.786529
 30
0.0
 11
-292.303973
 21
227.786529
 31
0.0
  0
LINE
  5
124
100
AcDbEntity
  8
LAY-1
  6
CONTINUOUS
 62
     1
100
AcDbLine
 10
-287.5
 20
220.280975
 30
0.0
 11
-292.303973
 21
220.280975
 31
0.0
  0
ARC
  5
125
100
AcDbEntity
  8
LAY-1
  6
CONTINUOUS
 62
     1
100
AcDbCircle
 10
-287.990997
 20
230.333752
 30
0.0
 40
5.009003
100
AcDbArc
 50
180.0
 51
210.565895
  0
ARC
  5
126
100
AcDbEntity
  8
LAY-1
  6
CONTINUOUS
 62
     1
100
AcDbCircle
 10
-287.990997
 20
217.733752
 30
0.0
 40
5.009003
100
AcDbArc
 50
149.434105
 51
180.0
  0
LINE
  5
127
100
AcDbEntity
  8
LAY-1
  6
CONTINUOUS
 62
     1
100
AcDbLine
 10
-292.303973
 20
231.539306
 30
0.0
 11
-293.0
 21
230.333752
 31
0.0
  0
ARC
  5
128
100
AcDbEntity
  8
LAY-1
  6
CONTINUOUS
 62
     1
100
AcDbCircle
 10
-282.535037
 20
224.033752
 30
0.0
 40
10.464963
100
AcDbArc
 50
158.985518
 51
201.014482
  0
LINE
  5
129
100
AcDbEntity
  8
LAY-1
  6
CONTINUOUS
 62
     1
100
AcDbLine
 10
-292.303973
 20
216.528199
 30
0.0
 11
-293.0
 21
217.733752
 31
0.0
  0
LINE
  5
12A
100
AcDbEntity
  8
LAY-1
  6
CONTINUOUS
 62
     1
100
AcDbLine
 10
-292.303973
 20
231.539306
 30
0.0
 11
-287.5
 21
231.539306
 31
0.0
  0
LINE
  5
12B
100
AcDbEntity
  8
LAY-1
  6
CONTINUOUS
 62
     1
100
AcDbLine
 10
-293.0
 20
217.733752
 30
0.0
 11
-293.0
 21
230.333752
 31
0.0
  0
LINE
  5
12C
100
AcDbEntity
  8
LAY-1
  6
CONTINUOUS
 62
     1
100
AcDbLine
 10
-287.5
 20
216.528199
 30
0.0
 11
-292.303973
 21
216.528199
 31
0.0
  0
LINE
  5
12D
100
AcDbEntity
  8
LAY-1
  6
CONTINUOUS
 62
     1
100
AcDbLine
 10
715.5
 20
216.528199
 30
0.0
 11
720.303973
 21
216.528199
 31
0.0
  0
LINE
  5
12E
100
AcDbEntity
  8
LAY-1
  6
CONTINUOUS
 62
     1
100
AcDbLine
 10
721.0
 20
217.733752
 30
0.0
 11
721.0
 21
230.333752
 31
0.0
  0
LINE
  5
12F
100
AcDbEntity
  8
LAY-1
  6
CONTINUOUS
 62
     1
100
AcDbLine
 10
720.303973
 20
231.539306
 30
0.0
 11
715.5
 21
231.539306
 31
0.0
  0
LINE
  5
130
100
AcDbEntity
  8
LAY-1
  6
CONTINUOUS
 62
     1
100
AcDbLine
 10
720.303973
 20
216.528199
 30
0.0
 11
721.0
 21
217.733752
 31
0.0
  0
ARC
  5
131
100
AcDbEntity
  8
LAY-1
  6
CONTINUOUS
 62
     1
100
AcDbCircle
 10
710.535037
 20
224.033752
 30
0.0
 40
10.464963
100
AcDbArc
 50
338.985518
 51
21.014482
  0
LINE
  5
132
100
AcDbEntity
  8
LAY-1
  6
CONTINUOUS
 62
     1
100
AcDbLine
 10
720.303973
 20
231.539306
 30
0.0
 11
721.0
 21
230.333752
 31
0.0
  0
ARC
  5
133
100
AcDbEntity
  8
LAY-1
  6
CONTINUOUS
 62
     1
100
AcDbCircle
 10
715.990997
 20
217.733752
 30
0.0
 40
5.009003
100
AcDbArc
 50
0.0
 51
30.565895
  0
ARC
  5
134
100
AcDbEntity
  8
LAY-1
  6
CONTINUOUS
 62
     1
100
AcDbCircle
 10
715.990997
 20
230.333752
 30
0.0
 40
5.009003
100
AcDbArc
 50
329.434105
 51
0.0
  0
LINE
  5
135
100
AcDbEntity
  8
LAY-1
  6
CONTINUOUS
 62
     1
100
AcDbLine
 10
715.5
 20
220.280975
 30
0.0
 11
720.303973
 21
220.280975
 31
0.0
  0
LINE
  5
136
100
AcDbEntity
  8
LAY-1
  6
CONTINUOUS
 62
     1
100
AcDbLine
 10
715.5
 20
227.786529
 30
0.0
 11
720.303973
 21
227.786529
 31
0.0
  0
LINE
  5
137
100
AcDbEntity
  8
LAY-1
  6
CONTINUOUS
 62
     1
100
AcDbLine
 10
715.5
 20
188.171338
 30
0.0
 11
720.303973
 21
188.171338
 31
0.0
  0
LINE
  5
138
100
AcDbEntity
  8
LAY-1
  6
CONTINUOUS
 62
     1
100
AcDbLine
 10
721.0
 20
186.965784
 30
0.0
 11
721.0
 21
174.365784
 31
0.0
  0
LINE
  5
139
100
AcDbEntity
  8
LAY-1
  6
CONTINUOUS
 62
     1
100
AcDbLine
 10
720.303973
 20
173.160231
 30
0.0
 11
715.5
 21
173.160231
 31
0.0
  0
LINE
  5
13A
100
AcDbEntity
  8
LAY-1
  6
CONTINUOUS
 62
     1
100
AcDbLine
 10
720.303973
 20
188.171338
 30
0.0
 11
721.0
 21
186.965784
 31
0.0
  0
ARC
  5
13B
100
AcDbEntity
  8
LAY-1
  6
CONTINUOUS
 62
     1
100
AcDbCircle
 10
710.535037
 20
180.665784
 30
0.0
 40
10.464963
100
AcDbArc
 50
338.985518
 51
21.014482
  0
LINE
  5
13C
100
AcDbEntity
  8
LAY-1
  6
CONTINUOUS
 62
     1
100
AcDbLine
 10
720.303973
 20
173.160231
 30
0.0
 11
721.0
 21
174.365784
 31
0.0
  0
ARC
  5
13D
100
AcDbEntity
  8
LAY-1
  6
CONTINUOUS
 62
     1
100
AcDbCircle
 10
715.990997
 20
186.965784
 30
0.0
 40
5.009003
100
AcDbArc
 50
329.434105
 51
0.0
  0
ARC
  5
13E
100
AcDbEntity
  8
LAY-1
  6
CONTINUOUS
 62
     1
100
AcDbCircle
 10
715.990997
 20
174.365784
 30
0.0
 40
5.009003
100
AcDbArc
 50
0.0
 51
30.565895
  0
LINE
  5
13F
100
AcDbEntity
  8
LAY-1
  6
CONTINUOUS
 62
     1
100
AcDbLine
 10
715.5
 20
184.418561
 30
0.0
 11
720.303973
 21
184.418561
 31
0.0
  0
LINE
  5
140
100
AcDbEntity
  8
LAY-1
  6
CONTINUOUS
 62
     1
100
AcDbLine
 10
715.5
 20
176.913007
 30
0.0
 11
720.303973
 21
176.913007
 31
0.0
  0
LINE
  5
141
100
AcDbEntity
  8
LAY-1
  6
CONTINUOUS
 62
     1
100
AcDbLine
 10
715.5
 20
126.839769
 30
0.0
 11
720.303973
 21
126.839769
 31
0.0
  0
LINE
  5
142
100
AcDbEntity
  8
LAY-1
  6
CONTINUOUS
 62
     1
100
AcDbLine
 10
721.0
 20
125.634216
 30
0.0
 11
721.0
 21
113.034216
 31
0.0
  0
LINE
  5
143
100
AcDbEntity
  8
LAY-1
  6
CONTINUOUS
 62
     1
100
AcDbLine
 10
720.303973
 20
111.828662
 30
0.0
 11
715.5
 21
111.828662
 31
0.0
  0
LINE
  5
144
100
AcDbEntity
  8
LAY-1
  6
CONTINUOUS
 62
     1
100
AcDbLine
 10
720.303973
 20
126.839769
 30
0.0
 11
721.0
 21
125.634216
 31
0.0
  0
ARC
  5
145
100
AcDbEntity
  8
LAY-1
  6
CONTINUOUS
 62
     1
100
AcDbCircle
 10
710.535037
 20
119.334216
 30
0.0
 40
10.464963
100
AcDbArc
 50
338.985518
 51
21.014482
  0
LINE
  5
146
100
AcDbEntity
  8
LAY-1
  6
CONTINUOUS
 62
     1
100
AcDbLine
 10
720.303973
 20
111.828662
 30
0.0
 11
721.0
 21
113.034216
 31
0.0
  0
ARC
  5
147
100
AcDbEntity
  8
LAY-1
  6
CONTINUOUS
 62
     1
100
AcDbCircle
 10
715.990997
 20
125.634216
 30
0.0
 40
5.009003
100
AcDbArc
 50
329.434105
 51
0.0
  0
ARC
  5
148
100
AcDbEntity
  8
LAY-1
  6
CONTINUOUS
 62
     1
100
AcDbCircle
 10
715.990997
 20
113.034216
 30
0.0
 40
5.009003
100
AcDbArc
 50
0.0
 51
30.565895
  0
LINE
  5
149
100
AcDbEntity
  8
LAY-1
  6
CONTINUOUS
 62
     1
100
AcDbLine
 10
715.5
 20
123.086993
 30
0.0
 11
720.303973
 21
123.086993
 31
0.0
  0
LINE
  5
14A
100
AcDbEntity
  8
LAY-1
  6
CONTINUOUS
 62
     1
100
AcDbLine
 10
715.5
 20
115.581439
 30
0.0
 11
720.303973
 21
115.581439
 31
0.0
  0
LINE
  5
14B
100
AcDbEntity
  8
LAY-1
  6
CONTINUOUS
 62
     1
100
AcDbLine
 10
715.5
 20
83.471801
 30
0.0
 11
720.303973
 21
83.471801
 31
0.0
  0
LINE
  5
14C
100
AcDbEntity
  8
LAY-1
  6
CONTINUOUS
 62
     1
100
AcDbLine
 10
721.0
 20
82.266248
 30
0.0
 11
721.0
 21
69.666248
 31
0.0
  0
LINE
  5
14D
100
AcDbEntity
  8
LAY-1
  6
CONTINUOUS
 62
     1
100
AcDbLine
 10
720.303973
 20
68.460694
 30
0.0
 11
715.5
 21
68.460694
 31
0.0
  0
LINE
  5
14E
100
AcDbEntity
  8
LAY-1
  6
CONTINUOUS
 62
     1
100
AcDbLine
 10
720.303973
 20
83.471801
 30
0.0
 11
721.0
 21
82.266248
 31
0.0
  0
ARC
  5
14F
100
AcDbEntity
  8
LAY-1
  6
CONTINUOUS
 62
     1
100
AcDbCircle
 10
710.535037
 20
75.966248
 30
0.0
 40
10.464963
100
AcDbArc
 50
338.985518
 51
21.014482
  0
LINE
  5
150
100
AcDbEntity
  8
LAY-1
  6
CONTINUOUS
 62
     1
100
AcDbLine
 10
720.303973
 20
68.460694
 30
0.0
 11
721.0
 21
69.666248
 31
0.0
  0
ARC
  5
151
100
AcDbEntity
  8
LAY-1
  6
CONTINUOUS
 62
     1
100
AcDbCircle
 10
715.990997
 20
82.266248
 30
0.0
 40
5.009003
100
AcDbArc
 50
329.434105
 51
0.0
  0
ARC
  5
152
100
AcDbEntity
  8
LAY-1
  6
CONTINUOUS
 62
     1
100
AcDbCircle
 10
715.990997
 20
69.666248
 30
0.0
 40
5.009003
100
AcDbArc
 50
0.0
 51
30.565895
  0
LINE
  5
153
100
AcDbEntity
  8
LAY-1
  6
CONTINUOUS
 62
     1
100
AcDbLine
 10
715.5
 20
79.719025
 30
0.0
 11
720.303973
 21
79.719025
 31
0.0
  0
LINE
  5
154
100
AcDbEntity
  8
LAY-1
  6
CONTINUOUS
 62
     1
100
AcDbLine
 10
715.5
 20
72.213471
 30
0.0
 11
720.303973
 21
72.213471
 31
0.0
  0
LINE
  5
155
100
AcDbEntity
  8
LAY-1
  6
EXLTYPE2
 62
     1
100
AcDbLine
 10
538.872052
 20
170.033702
 30
0.0
 11
546.659227
 21
170.305636
 31
0.0
  0
ARC
  5
156
100
AcDbEntity
  8
LAY-1
  6
EXLTYPE2
 62
     1
100
AcDbCircle
 10
546.589428
 20
172.304418
 30
0.0
 40
2.0
100
AcDbArc
 50
272.0
 51
350.0
  0
LINE
  5
157
100
AcDbEntity
  8
LAY-1
  6
EXLTYPE2
 62
     1
100
AcDbLine
 10
548.559044
 20
171.957121
 30
0.0
 11
549.315994
 21
176.25
 31
0.0
  0
LINE
  5
158
100
AcDbEntity
  8
LAY-1
  6
EXLTYPE2
 62
     1
100
AcDbLine
 10
538.872052
 20
129.966298
 30
0.0
 11
546.659227
 21
129.694364
 31
0.0
  0
ARC
  5
159
100
AcDbEntity
  8
LAY-1
  6
EXLTYPE2
 62
     1
100
AcDbCircle
 10
546.589428
 20
127.695582
 30
0.0
 40
2.0
100
AcDbArc
 50
10.0
 51
88.0
  0
LINE
  5
15A
100
AcDbEntity
  8
LAY-1
  6
EXLTYPE2
 62
     1
100
AcDbLine
 10
548.559044
 20
128.042879
 30
0.0
 11
549.315994
 21
123.75
 31
0.0
  0
ARC
  5
15B
100
AcDbEntity
  8
LAY-1
  6
EXLTYPE2
 62
     1
100
AcDbCircle
 10
534.577662
 20
160.5
 30
0.0
 40
7.419201
100
AcDbArc
 50
180.0
 51
214.003561
  0
ARC
  5
15C
100
AcDbEntity
  8
LAY-1
  6
EXLTYPE2
 62
     1
100
AcDbCircle
 10
534.577662
 20
139.5
 30
0.0
 40
7.419201
100
AcDbArc
 50
145.996439
 51
180.0
  0
LINE
  5
15D
100
AcDbEntity
  8
LAY-1
  6
EXLTYPE2
 62
     1
100
AcDbLine
 10
527.156952
 20
139.5
 30
0.0
 11
528.427123
 21
137.3
 31
0.0
  0
LINE
  5
15E
100
AcDbEntity
  8
LAY-1
  6
EXLTYPE2
 62
     1
100
AcDbLine
 10
528.427123
 20
156.350853
 30
0.0
 11
538.156952
 21
156.350853
 31
0.0
  0
LINE
  5
15F
100
AcDbEntity
  8
LAY-1
  6
EXLTYPE2
 62
     1
100
AcDbLine
 10
527.156952
 20
160.5
 30
0.0
 11
528.427123
 21
162.7
 31
0.0
  0
ARC
  5
160
100
AcDbEntity
  8
LAY-1
  6
EXLTYPE2
 62
     1
100
AcDbCircle
 10
543.66917
 20
150.0
 30
0.0
 40
16.512218
100
AcDbArc
 50
157.380135
 51
202.619865
  0
LINE
  5
161
100
AcDbEntity
  8
LAY-1
  6
EXLTYPE2
 62
     1
100
AcDbLine
 10
528.427123
 20
143.649147
 30
0.0
 11
538.156952
 21
143.649147
 31
0.0
  0
LINE
  5
162
100
AcDbEntity
  8
LAY-1
  6
EXLTYPE2
 62
     1
100
AcDbLine
 10
528.427123
 20
162.7
 30
0.0
 11
538.156952
 21
162.7
 31
0.0
  0
LINE
  5
163
100
AcDbEntity
  8
LAY-1
  6
EXLTYPE2
 62
     1
100
AcDbLine
 10
527.156952
 20
139.5
 30
0.0
 11
527.156952
 21
160.5
 31
0.0
  0
LINE
  5
164
100
AcDbEntity
  8
LAY-1
  6
EXLTYPE2
 62
     1
100
AcDbLine
 10
538.156952
 20
137.3
 30
0.0
 11
528.427123
 21
137.3
 31
0.0
  0
LINE
  5
165
100
AcDbEntity
  8
LAY-1
  6
EXLTYPE2
 62
     1
100
AcDbLine
 10
539.122052
 20
129.966298
 30
0.0
 11
546.909227
 21
129.694364
 31
0.0
  0
LINE
  5
166
100
AcDbEntity
  8
LAY-1
  6
EXLTYPE2
 62
     1
100
AcDbLine
 10
538.156952
 20
150.0
 30
0.0
 11
538.156952
 21
169.034315
 31
0.0
  0
ARC
  5
167
100
AcDbEntity
  8
LAY-1
  6
EXLTYPE2
 62
     1
100
AcDbCircle
 10
539.156952
 20
169.034311
 30
0.0
 40
1.0
100
AcDbArc
 50
92.0
 51
180.0
  0
LINE
  5
168
100
AcDbEntity
  8
LAY-1
  6
EXLTYPE2
 62
     1
100
AcDbLine
 10
538.156952
 20
150.0
 30
0.0
 11
538.156952
 21
130.965685
 31
0.0
  0
ARC
  5
169
100
AcDbEntity
  8
LAY-1
  6
EXLTYPE2
 62
     1
100
AcDbCircle
 10
539.156952
 20
130.965689
 30
0.0
 40
1.0
100
AcDbArc
 50
180.0
 51
268.0
  0
LINE
  5
16A
100
AcDbEntity
  8
LAY-1
  6
EXLTYPE2
 62
     1
100
AcDbLine
 10
539.122052
 20
170.033702
 30
0.0
 11
546.909227
 21
170.305636
 31
0.0
  0
LINE
  5
16B
100
AcDbEntity
  8
LAY-1
  6
EXLTYPE4
 62
     1
100
AcDbLine
 10
740.60857
 20
212.5
 30
0.0
 11
767.356082
 21
212.5
 31
0.0
  0
LINE
  5
16C
100
AcDbEntity
  8
LAY-1
  6
EXLTYPE4
 62
     1
100
AcDbLine
 10
738.0
 20
217.0
 30
0.0
 11
770.0
 21
217.0
 31
0.0
  0
LINE
  5
16D
100
AcDbEntity
  8
LAY-1
  6
EXLTYPE4
 62
     1
100
AcDbLine
 10
738.0
 20
226.0
 30
0.0
 11
770.0
 21
226.0
 31
0.0
  0
LINE
  5
16E
100
AcDbEntity
  8
LAY-1
  6
EXLTYPE4
 62
     1
100
AcDbLine
 10
744.762396
 20
224.845299
 30
0.0
 11
744.762396
 21
218.154701
 31
0.0
  0
LINE
  5
16F
100
AcDbEntity
  8
LAY-1
  6
EXLTYPE4
 62
     1
100
AcDbLine
 10
763.237604
 20
224.845299
 30
0.0
 11
763.237604
 21
218.154701
 31
0.0
  0
ARC
  5
170
100
AcDbEntity
  8
LAY-1
  6
EXLTYPE4
 62
     1
100
AcDbCircle
 10
767.618802
 20
225.888983
 30
0.0
 40
8.888983
100
AcDbArc
 50
240.46998
 51
299.53002
  0
ARC
  5
171
100
AcDbEntity
  8
LAY-1
  6
EXLTYPE4
 62
     1
100
AcDbCircle
 10
754.0
 20
254.527767
 30
0.0
 40
37.527767
100
AcDbArc
 50
255.749967
 51
284.250033
  0
ARC
  5
172
100
AcDbEntity
  8
LAY-1
  6
EXLTYPE4
 62
     1
100
AcDbCircle
 10
740.381198
 20
225.888983
 30
0.0
 40
8.888983
100
AcDbArc
 50
240.46998
 51
299.53002
  0
ARC
  5
173
100
AcDbEntity
  8
LAY-1
  6
EXLTYPE4
 62
     1
100
AcDbCircle
 10
767.618802
 20
217.111017
 30
0.0
 40
8.888983
100
AcDbArc
 50
60.46998
 51
119.53002
  0
ARC
  5
174
100
AcDbEntity
  8
LAY-1
  6
EXLTYPE4
 62
     1
100
AcDbCircle
 10
754.0
 20
188.472233
 30
0.0
 40
37.527767
100
AcDbArc
 50
75.749967
 51
104.250033
  0
ARC
  5
175
100
AcDbEntity
  8
LAY-1
  6
EXLTYPE4
 62
     1
100
AcDbCircle
 10
740.381198
 20
217.111017
 30
0.0
 40
8.888983
100
AcDbArc
 50
60.46998
 51
119.53002
  0
LINE
  5
176
100
AcDbEntity
  8
LAY-1
  6
EXLTYPE4
 62
     1
100
AcDbLine
 10
772.0
 20
224.845299
 30
0.0
 11
770.0
 21
226.0
 31
0.0
  0
LINE
  5
177
100
AcDbEntity
  8
LAY-1
  6
EXLTYPE4
 62
     1
100
AcDbLine
 10
772.0
 20
218.154701
 30
0.0
 11
772.0
 21
224.845299
 31
0.0
  0
LINE
  5
178
100
AcDbEntity
  8
LAY-1
  6
EXLTYPE4
 62
     1
100
AcDbLine
 10
772.0
 20
218.154701
 30
0.0
 11
770.0
 21
217.0
 31
0.0
  0
LINE
  5
179
100
AcDbEntity
  8
LAY-1
  6
EXLTYPE4
 62
     1
100
AcDbLine
 10
736.0
 20
224.845299
 30
0.0
 11
738.0
 21
226.0
 31
0.0
  0
LINE
  5
17A
100
AcDbEntity
  8
LAY-1
  6
EXLTYPE4
 62
     1
100
AcDbLine
 10
736.0
 20
218.154701
 30
0.0
 11
736.0
 21
224.845299
 31
0.0
  0
LINE
  5
17B
100
AcDbEntity
  8
LAY-1
  6
EXLTYPE4
 62
     1
100
AcDbLine
 10
736.0
 20
218.154701
 30
0.0
 11
738.0
 21
217.0
 31
0.0
  0
LINE
  5
17C
100
AcDbEntity
  8
LAY-1
  6
EXLTYPE4
 62
     1
100
AcDbLine
 10
767.226984
 20
208.0
 30
0.0
 11
767.48518
 21
217.0
 31
0.0
  0
LINE
  5
17D
100
AcDbEntity
  8
LAY-1
  6
EXLTYPE4
 62
     1
100
AcDbLine
 10
740.773016
 20
208.0
 30
0.0
 11
740.51482
 21
217.0
 31
0.0
  0
LINE
  5
17E
100
AcDbEntity
  8
LAY-1
  6
EXLTYPE4
 62
     1
100
AcDbLine
 10
766.088238
 20
208.0
 30
0.0
 11
766.228863
 21
212.5
 31
0.0
  0
LINE
  5
17F
100
AcDbEntity
  8
LAY-1
  6
EXLTYPE4
 62
     1
100
AcDbLine
 10
741.911762
 20
208.0
 30
0.0
 11
741.771137
 21
212.5
 31
0.0
  0
LINE
  5
180
100
AcDbEntity
  8
LAY-1
  6
EXLTYPE4
 62
     1
100
AcDbLine
 10
741.771137
 20
212.5
 30
0.0
 11
740.542043
 21
214.628853
 31
0.0
  0
LINE
  5
181
100
AcDbEntity
  8
LAY-1
  6
EXLTYPE4
 62
     1
100
AcDbLine
 10
766.228863
 20
212.5
 30
0.0
 11
767.457957
 21
214.628853
 31
0.0
  0
LINE
  5
182
100
AcDbEntity
  8
LAY-1
  6
CONTINUOUS
 62
     1
100
AcDbLine
 10
738.933347
 20
91.0
 30
0.0
 11
738.789725
 21
86.404105
 31
0.0
  0
LINE
  5
183
100
AcDbEntity
  8
LAY-1
  6
CONTINUOUS
 62
     1
100
AcDbLine
 10
769.066653
 20
91.0
 30
0.0
 11
769.210275
 21
86.404105
 31
0.0
  0
LINE
  5
184
100
AcDbEntity
  8
LAY-1
  6
CONTINUOUS
 62
     1
100
AcDbLine
 10
769.067267
 20
63.019641
 30
0.0
 11
769.210275
 21
67.595897
 31
0.0
  0
LINE
  5
185
100
AcDbEntity
  8
LAY-1
  6
CONTINUOUS
 62
     1
100
AcDbLine
 10
738.932733
 20
63.019641
 30
0.0
 11
738.789725
 21
67.595897
 31
0.0
  0
LINE
  5
186
100
AcDbEntity
  8
LAY-1
  6
CONTINUOUS
 62
     1
100
AcDbLine
 10
770.774672
 20
83.694489
 30
0.0
 11
769.210275
 21
86.404105
 31
0.0
  0
LINE
  5
187
100
AcDbEntity
  8
LAY-1
  6
CONTINUOUS
 62
     1
100
AcDbLine
 10
737.225328
 20
83.694489
 30
0.0
 11
738.789725
 21
86.404105
 31
0.0
  0
LINE
  5
188
100
AcDbEntity
  8
LAY-1
  6
CONTINUOUS
 62
     1
100
AcDbLine
 10
737.225328
 20
70.305513
 30
0.0
 11
738.789725
 21
67.595897
 31
0.0
  0
LINE
  5
189
100
AcDbEntity
  8
LAY-1
  6
CONTINUOUS
 62
     1
100
AcDbLine
 10
770.774672
 20
70.305513
 30
0.0
 11
769.210275
 21
67.595897
 31
0.0
  0
LINE
  5
18A
100
AcDbEntity
  8
LAY-1
  6
CONTINUOUS
 62
     1
100
AcDbLine
 10
688.406952
 20
231.539306
 30
0.0
 11
689.406952
 21
232.721875
 31
0.0
  0
LINE
  5
18B
100
AcDbEntity
  8
LAY-1
  6
CONTINUOUS
 62
     1
100
AcDbLine
 10
688.406952
 20
216.528199
 30
0.0
 11
688.406952
 21
231.539306
 31
0.0
  0
LINE
  5
18C
100
AcDbEntity
  8
LAY-1
  6
CONTINUOUS
 62
     1
100
AcDbLine
 10
689.406952
 20
215.299818
 30
0.0
 11
688.406952
 21
216.528199
 31
0.0
  0
LINE
  5
18D
100
AcDbEntity
  8
LAY-1
  6
CONTINUOUS
 62
     1
100
AcDbLine
 10
682.602979
 20
216.528199
 30
0.0
 11
681.906952
 21
217.733752
 31
0.0
  0
ARC
  5
18E
100
AcDbEntity
  8
LAY-1
  6
CONTINUOUS
 62
     1
100
AcDbCircle
 10
692.371915
 20
224.033752
 30
0.0
 40
10.464963
100
AcDbArc
 50
158.985518
 51
201.014482
  0
LINE
  5
18F
100
AcDbEntity
  8
LAY-1
  6
CONTINUOUS
 62
     1
100
AcDbLine
 10
681.906952
 20
217.733752
 30
0.0
 11
681.906952
 21
230.333752
 31
0.0
  0
LINE
  5
190
100
AcDbEntity
  8
LAY-1
  6
CONTINUOUS
 62
     1
100
AcDbLine
 10
682.602979
 20
231.539306
 30
0.0
 11
681.906952
 21
230.333752
 31
0.0
  0
LINE
  5
191
100
AcDbEntity
  8
LAY-1
  6
CONTINUOUS
 62
     1
100
AcDbLine
 10
688.406952
 20
216.528199
 30
0.0
 11
682.602979
 21
216.528199
 31
0.0
  0
LINE
  5
192
100
AcDbEntity
  8
LAY-1
  6
CONTINUOUS
 62
     1
100
AcDbLine
 10
688.406952
 20
220.280975
 30
0.0
 11
682.602979
 21
220.280975
 31
0.0
  0
LINE
  5
193
100
AcDbEntity
  8
LAY-1
  6
CONTINUOUS
 62
     1
100
AcDbLine
 10
682.602979
 20
231.539306
 30
0.0
 11
688.406952
 21
231.539306
 31
0.0
  0
LINE
  5
194
100
AcDbEntity
  8
LAY-1
  6
CONTINUOUS
 62
     1
100
AcDbLine
 10
688.406952
 20
227.786529
 30
0.0
 11
682.602979
 21
227.786529
 31
0.0
  0
ARC
  5
195
100
AcDbEntity
  8
LAY-1
  6
CONTINUOUS
 62
     1
100
AcDbCircle
 10
686.915955
 20
230.333752
 30
0.0
 40
5.009003
100
AcDbArc
 50
180.0
 51
210.565895
  0
ARC
  5
196
100
AcDbEntity
  8
LAY-1
  6
CONTINUOUS
 62
     1
100
AcDbCircle
 10
686.915955
 20
217.733752
 30
0.0
 40
5.009003
100
AcDbArc
 50
149.434105
 51
180.0
  0
LINE
  5
197
100
AcDbEntity
  8
LAY-1
  6
CONTINUOUS
 62
     1
100
AcDbLine
 10
688.406952
 20
68.460694
 30
0.0
 11
689.406952
 21
67.278125
 31
0.0
  0
LINE
  5
198
100
AcDbEntity
  8
LAY-1
  6
CONTINUOUS
 62
     1
100
AcDbLine
 10
688.406952
 20
83.471801
 30
0.0
 11
688.406952
 21
68.460694
 31
0.0
  0
LINE
  5
199
100
AcDbEntity
  8
LAY-1
  6
CONTINUOUS
 62
     1
100
AcDbLine
 10
689.406952
 20
84.700182
 30
0.0
 11
688.406952
 21
83.471801
 31
0.0
  0
LINE
  5
19A
100
AcDbEntity
  8
LAY-1
  6
CONTINUOUS
 62
     1
100
AcDbLine
 10
682.602979
 20
83.471801
 30
0.0
 11
681.906952
 21
82.266248
 31
0.0
  0
ARC
  5
19B
100
AcDbEntity
  8
LAY-1
  6
CONTINUOUS
 62
     1
100
AcDbCircle
 10
692.371915
 20
75.966248
 30
0.0
 40
10.464963
100
AcDbArc
 50
158.985518
 51
201.014482
  0
LINE
  5
19C
100
AcDbEntity
  8
LAY-1
  6
CONTINUOUS
 62
     1
100
AcDbLine
 10
681.906952
 20
82.266248
 30
0.0
 11
681.906952
 21
69.666248
 31
0.0
  0
LINE
  5
19D
100
AcDbEntity
  8
LAY-1
  6
CONTINUOUS
 62
     1
100
AcDbLine
 10
682.602979
 20
68.460694
 30
0.0
 11
681.906952
 21
69.666248
 31
0.0
  0
LINE
  5
19E
100
AcDbEntity
  8
LAY-1
  6
CONTINUOUS
 62
     1
100
AcDbLine
 10
688.406952
 20
83.471801
 30
0.0
 11
682.602979
 21
83.471801
 31
0.0
  0
LINE
  5
19F
100
AcDbEntity
  8
LAY-1
  6
CONTINUOUS
 62
     1
100
AcDbLine
 10
688.406952
 20
79.719025
 30
0.0
 11
682.602979
 21
79.719025
 31
0.0
  0
LINE
  5
1A0
100
AcDbEntity
  8
LAY-1
  6
CONTINUOUS
 62
     1
100
AcDbLine
 10
682.602979
 20
68.460694
 30
0.0
 11
688.406952
 21
68.460694
 31
0.0
  0
LINE
  5
1A1
100
AcDbEntity
  8
LAY-1
  6
CONTINUOUS
 62
     1
100
AcDbLine
 10
688.406952
 20
72.213471
 30
0.0
 11
682.602979
 21
72.213471
 31
0.0
  0
ARC
  5
1A2
100
AcDbEntity
  8
LAY-1
  6
CONTINUOUS
 62
     1
100
AcDbCircle
 10
686.915955
 20
69.666248
 30
0.0
 40
5.009003
100
AcDbArc
 50
149.434105
 51
180.0
  0
ARC
  5
1A3
100
AcDbEntity
  8
LAY-1
  6
CONTINUOUS
 62
     1
100
AcDbCircle
 10
686.915955
 20
82.266248
 30
0.0
 40
5.009003
100
AcDbArc
 50
180.0
 51
210.565895
  0
LINE
  5
1A4
100
AcDbEntity
  8
LAY-1
  6
CONTINUOUS
 62
     1
100
AcDbLine
 10
688.406952
 20
188.171338
 30
0.0
 11
689.406952
 21
189.353907
 31
0.0
  0
LINE
  5
1A5
100
AcDbEntity
  8
LAY-1
  6
CONTINUOUS
 62
     1
100
AcDbLine
 10
688.406952
 20
173.160231
 30
0.0
 11
688.406952
 21
188.171338
 31
0.0
  0
LINE
  5
1A6
100
AcDbEntity
  8
LAY-1
  6
CONTINUOUS
 62
     1
100
AcDbLine
 10
689.406952
 20
171.93185
 30
0.0
 11
688.406952
 21
173.160231
 31
0.0
  0
LINE
  5
1A7
100
AcDbEntity
  8
LAY-1
  6
CONTINUOUS
 62
     1
100
AcDbLine
 10
682.602979
 20
173.160231
 30
0.0
 11
681.906952
 21
174.365784
 31
0.0
  0
ARC
  5
1A8
100
AcDbEntity
  8
LAY-1
  6
CONTINUOUS
 62
     1
100
AcDbCircle
 10
692.371915
 20
180.665784
 30
0.0
 40
10.464963
100
AcDbArc
 50
158.985518
 51
201.014482
  0
LINE
  5
1A9
100
AcDbEntity
  8
LAY-1
  6
CONTINUOUS
 62
     1
100
AcDbLine
 10
681.906952
 20
174.365784
 30
0.0
 11
681.906952
 21
186.965784
 31
0.0
  0
LINE
  5
1AA
100
AcDbEntity
  8
LAY-1
  6
CONTINUOUS
 62
     1
100
AcDbLine
 10
682.602979
 20
188.171338
 30
0.0
 11
681.906952
 21
186.965784
 31
0.0
  0
LINE
  5
1AB
100
AcDbEntity
  8
LAY-1
  6
CONTINUOUS
 62
     1
100
AcDbLine
 10
688.406952
 20
173.160231
 30
0.0
 11
682.602979
 21
173.160231
 31
0.0
  0
LINE
  5
1AC
100
AcDbEntity
  8
LAY-1
  6
CONTINUOUS
 62
     1
100
AcDbLine
 10
688.406952
 20
176.913007
 30
0.0
 11
682.602979
 21
176.913007
 31
0.0
  0
LINE
  5
1AD
100
AcDbEntity
  8
LAY-1
  6
CONTINUOUS
 62
     1
100
AcDbLine
 10
682.602979
 20
188.171338
 30
0.0
 11
688.406952
 21
188.171338
 31
0.0
  0
LINE
  5
1AE
100
AcDbEntity
  8
LAY-1
  6
CONTINUOUS
 62
     1
100
AcDbLine
 10
688.406952
 20
184.418561
 30
0.0
 11
682.602979
 21
184.418561
 31
0.0
  0
ARC
  5
1AF
100
AcDbEntity
  8
LAY-1
  6
CONTINUOUS
 62
     1
100
AcDbCircle
 10
686.915955
 20
186.965784
 30
0.0
 40
5.009003
100
AcDbArc
 50
180.0
 51
210.565895
  0
ARC
  5
1B0
100
AcDbEntity
  8
LAY-1
  6
CONTINUOUS
 62
     1
100
AcDbCircle
 10
686.915955
 20
174.365784
 30
0.0
 40
5.009003
100
AcDbArc
 50
149.434105
 51
180.0
  0
LINE
  5
1B1
100
AcDbEntity
  8
LAY-1
  6
CONTINUOUS
 62
     1
100
AcDbLine
 10
688.406952
 20
126.839769
 30
0.0
 11
689.406952
 21
128.022338
 31
0.0
  0
LINE
  5
1B2
100
AcDbEntity
  8
LAY-1
  6
CONTINUOUS
 62
     1
100
AcDbLine
 10
688.406952
 20
111.828662
 30
0.0
 11
688.406952
 21
126.839769
 31
0.0
  0
LINE
  5
1B3
100
AcDbEntity
  8
LAY-1
  6
CONTINUOUS
 62
     1
100
AcDbLine
 10
689.406952
 20
110.600282
 30
0.0
 11
688.406952
 21
111.828662
 31
0.0
  0
LINE
  5
1B4
100
AcDbEntity
  8
LAY-1
  6
CONTINUOUS
 62
     1
100
AcDbLine
 10
682.602979
 20
111.828662
 30
0.0
 11
681.906952
 21
113.034216
 31
0.0
  0
ARC
  5
1B5
100
AcDbEntity
  8
LAY-1
  6
CONTINUOUS
 62
     1
100
AcDbCircle
 10
692.371915
 20
119.334216
 30
0.0
 40
10.464963
100
AcDbArc
 50
158.985518
 51
201.014482
  0
LINE
  5
1B6
100
AcDbEntity
  8
LAY-1
  6
CONTINUOUS
 62
     1
100
AcDbLine
 10
681.906952
 20
113.034216
 30
0.0
 11
681.906952
 21
125.634216
 31
0.0
  0
LINE
  5
1B7
100
AcDbEntity
  8
LAY-1
  6
CONTINUOUS
 62
     1
100
AcDbLine
 10
682.602979
 20
126.839769
 30
0.0
 11
681.906952
 21
125.634216
 31
0.0
  0
LINE
  5
1B8
100
AcDbEntity
  8
LAY-1
  6
CONTINUOUS
 62
     1
100
AcDbLine
 10
688.406952
 20
111.828662
 30
0.0
 11
682.602979
 21
111.828662
 31
0.0
  0
LINE
  5
1B9
100
AcDbEntity
  8
LAY-1
  6
CONTINUOUS
 62
     1
100
AcDbLine
 10
688.406952
 20
115.581439
 30
0.0
 11
682.602979
 21
115.581439
 31
0.0
  0
LINE
  5
1BA
100
AcDbEntity
  8
LAY-1
  6
CONTINUOUS
 62
     1
100
AcDbLine
 10
682.602979
 20
126.839769
 30
0.0
 11
688.406952
 21
126.839769
 31
0.0
  0
LINE
  5
1BB
100
AcDbEntity
  8
LAY-1
  6
CONTINUOUS
 62
     1
100
AcDbLine
 10
688.406952
 20
123.086993
 30
0.0
 11
682.602979
 21
123.086993
 31
0.0
  0
ARC
  5
1BC
100
AcDbEntity
  8
LAY-1
  6
CONTINUOUS
 62
     1
100
AcDbCircle
 10
686.915955
 20
125.634216
 30
0.0
 40
5.009003
100
AcDbArc
 50
180.0
 51
210.565895
  0
ARC
  5
1BD
100
AcDbEntity
  8
LAY-1
  6
CONTINUOUS
 62
     1
100
AcDbCircle
 10
686.915955
 20
113.034216
 30
0.0
 40
5.009003
100
AcDbArc
 50
149.434105
 51
180.0
  0
LINE
  5
1BE
100
AcDbEntity
  8
LAY-1
  6
EXLTYPE4
 62
     1
100
AcDbLine
 10
-378.0
 20
168.0
 30
0.0
 11
-368.0
 21
168.0
 31
0.0
  0
LINE
  5
1BF
100
AcDbEntity
  8
LAY-1
  6
EXLTYPE4
 62
     1
100
AcDbLine
 10
-378.0
 20
132.0
 30
0.0
 11
-368.0
 21
132.0
 31
0.0
  0
LINE
  5
1C0
100
AcDbEntity
  8
LAY-1
  6
EXLTYPE4
 62
     1
100
AcDbLine
 10
806.0
 20
168.0
 30
0.0
 11
796.0
 21
168.0
 31
0.0
  0
LINE
  5
1C1
100
AcDbEntity
  8
LAY-1
  6
EXLTYPE4
 62
     1
100
AcDbLine
 10
806.0
 20
132.0
 30
0.0
 11
796.0
 21
132.0
 31
0.0
  0
LINE
  5
1C2
100
AcDbEntity
  8
LAY-1
  6
EXLTYPE4
 62
     1
100
AcDbLine
 10
-298.500003
 20
61.056225
 30
0.0
 11
-298.500003
 21
125.2
 31
0.0
  0
LINE
  5
1C3
100
AcDbEntity
  8
LAY-1
  6
EXLTYPE4
 62
     1
100
AcDbLine
 10
-353.5
 20
61.056223
 30
0.0
 11
-353.5
 21
117.3
 31
0.0
  0
LINE
  5
1C4
100
AcDbEntity
  8
LAY-1
  6
EXLTYPE3
 62
     1
100
AcDbLine
 10
754.0
 20
234.7
 30
0.0
 11
754.0
 21
-78.0
 31
0.0
  0
LINE
  5
1C5
100
AcDbEntity
  8
LAY-1
  6
EXLTYPE3
 62
     1
100
AcDbLine
 10
214.0
 20
247.228715
 30
0.0
 11
214.0
 21
-78.0
 31
0.0
  0
LINE
  5
1C6
100
AcDbEntity
  8
LAY-1
  6
EXLTYPE3
 62
     1
100
AcDbLine
 10
-326.0
 20
234.7
 30
0.0
 11
-326.0
 21
-78.0
 31
0.0
  0
ARC
  5
1C7
100
AcDbEntity
  8
LAY-1
  6
EXLTYPE2
 62
     1
100
AcDbCircle
 10
214.0
 20
-111.093048
 30
0.0
 40
28.0
100
AcDbArc
 50
256.892093
 51
283.107907
  0
LINE
  5
1C8
100
AcDbEntity
  8
LAY-1
  6
EXLTYPE2
 62
     1
100
AcDbLine
 10
203.0
 20
-139.093048
 30
0.0
 11
225.0
 21
-139.093048
 31
0.0
  0
LINE
  5
1C9
100
AcDbEntity
  8
LAY-1
  6
EXLTYPE2
 62
     1
100
AcDbLine
 10
207.65
 20
-130.822597
 30
0.0
 11
207.65
 21
-138.363499
 31
0.0
  0
LINE
  5
1CA
100
AcDbEntity
  8
LAY-1
  6
EXLTYPE2
 62
     1
100
AcDbLine
 10
220.35
 20
-130.822597
 30
0.0
 11
220.35
 21
-138.363499
 31
0.0
  0
ARC
  5
1CB
100
AcDbEntity
  8
LAY-1
  6
EXLTYPE2
 62
     1
100
AcDbCircle
 10
204.475
 20
-137.366629
 30
0.0
 40
7.273581
100
AcDbArc
 50
64.118503
 51
116.120405
  0
LINE
  5
1CC
100
AcDbEntity
  8
LAY-1
  6
EXLTYPE2
 62
     1
100
AcDbLine
 10
203.0
 20
-130.093048
 30
0.0
 11
201.275181
 21
-130.822597
 31
0.0
  0
ARC
  5
1CD
100
AcDbEntity
  8
LAY-1
  6
EXLTYPE2
 62
     1
100
AcDbCircle
 10
214.0
 20
-158.093048
 30
0.0
 40
28.0
100
AcDbArc
 50
76.892093
 51
103.107907
  0
LINE
  5
1CE
100
AcDbEntity
  8
LAY-1
  6
EXLTYPE2
 62
     1
100
AcDbLine
 10
201.3
 20
-138.350203
 30
0.0
 11
201.3
 21
-130.812099
 31
0.0
  0
LINE
  5
1CF
100
AcDbEntity
  8
LAY-1
  6
EXLTYPE2
 62
     1
100
AcDbLine
 10
203.0
 20
-130.093048
 30
0.0
 11
225.0
 21
-130.093048
 31
0.0
  0
LINE
  5
1D0
100
AcDbEntity
  8
LAY-1
  6
EXLTYPE2
 62
     1
100
AcDbLine
 10
225.0
 20
-139.093048
 30
0.0
 11
203.0
 21
-139.093048
 31
0.0
  0
ARC
  5
1D1
100
AcDbEntity
  8
LAY-1
  6
EXLTYPE2
 62
     1
100
AcDbCircle
 10
223.525
 20
-137.366629
 30
0.0
 40
7.273581
100
AcDbArc
 50
64.118503
 51
115.881497
  0
LINE
  5
1D2
100
AcDbEntity
  8
LAY-1
  6
EXLTYPE2
 62
     1
100
AcDbLine
 10
225.0
 20
-130.093048
 30
0.0
 11
226.7
 21
-130.812099
 31
0.0
  0
LINE
  5
1D3
100
AcDbEntity
  8
LAY-1
  6
EXLTYPE2
 62
     1
100
AcDbLine
 10
226.7
 20
-130.812099
 30
0.0
 11
226.7
 21
-138.373997
 31
0.0
  0
LINE
  5
1D4
100
AcDbEntity
  8
LAY-1
  6
EXLTYPE2
 62
     1
100
AcDbLine
 10
226.028501
 20
-138.64863
 30
0.0
 11
226.028501
 21
-138.658022
 31
0.0
  0
LINE
  5
1D5
100
AcDbEntity
  8
LAY-1
  6
EXLTYPE2
 62
     1
100
AcDbLine
 10
226.028501
 20
-138.658022
 30
0.0
 11
226.028501
 21
-138.64863
 31
0.0
  0
LINE
  5
1D6
100
AcDbEntity
  8
LAY-1
  6
EXLTYPE2
 62
     1
100
AcDbLine
 10
225.0
 20
-139.093048
 30
0.0
 11
226.7
 21
-138.373997
 31
0.0
  0
ARC
  5
1D7
100
AcDbEntity
  8
LAY-1
  6
EXLTYPE2
 62
     1
100
AcDbCircle
 10
223.525
 20
-131.819467
 30
0.0
 40
7.273581
100
AcDbArc
 50
244.118503
 51
295.881497
  0
LINE
  5
1D8
100
AcDbEntity
  8
LAY-1
  6
EXLTYPE2
 62
     1
100
AcDbLine
 10
201.971499
 20
-138.64863
 30
0.0
 11
201.971499
 21
-138.658022
 31
0.0
  0
LINE
  5
1D9
100
AcDbEntity
  8
LAY-1
  6
EXLTYPE2
 62
     1
100
AcDbLine
 10
201.971499
 20
-138.658022
 30
0.0
 11
201.971499
 21
-138.64863
 31
0.0
  0
ARC
  5
1DA
100
AcDbEntity
  8
LAY-1
  6
EXLTYPE2
 62
     1
100
AcDbCircle
 10
204.475
 20
-131.819467
 30
0.0
 40
7.273581
100
AcDbArc
 50
247.07303
 51
295.881497
  0
LINE
  5
1DB
100
AcDbEntity
  8
LAY-1
  6
EXLTYPE2
 62
     1
100
AcDbLine
 10
203.0
 20
-139.093048
 30
0.0
 11
201.3
 21
-138.373997
 31
0.0
  0
LINE
  5
1DC
100
AcDbEntity
  8
LAY-1
  6
EXLTYPE2
 62
     1
100
AcDbLine
 10
201.971499
 20
-138.658022
 30
0.0
 11
201.971499
 21
-138.64863
 31
0.0
  0
LINE
  5
1DD
100
AcDbEntity
  8
LAY-1
  6
EXLTYPE2
 62
     1
100
AcDbLine
 10
207.0
 20
-139.093048
 30
0.0
 11
207.0
 21
-163.918764
 31
0.0
  0
LINE
  5
1DE
100
AcDbEntity
  8
LAY-1
  6
EXLTYPE2
 62
     1
100
AcDbLine
 10
221.0
 20
-163.977735
 30
0.0
 11
221.0
 21
-139.093048
 31
0.0
  0
ARC
  5
1DF
100
AcDbEntity
  8
LAY-1
  6
EXLTYPE2
 62
     1
100
AcDbCircle
 10
224.5
 20
-171.42071
 30
0.0
 40
7.419201
100
AcDbArc
 50
90.0
 51
124.003561
  0
ARC
  5
1E0
100
AcDbEntity
  8
LAY-1
  6
EXLTYPE2
 62
     1
100
AcDbCircle
 10
203.5
 20
-171.42071
 30
0.0
 40
7.419201
100
AcDbArc
 50
55.996439
 51
90.0
  0
LINE
  5
1E1
100
AcDbEntity
  8
LAY-1
  6
EXLTYPE2
 62
     1
100
AcDbLine
 10
203.5
 20
-164.0
 30
0.0
 11
201.3
 21
-165.270171
 31
0.0
  0
LINE
  5
1E2
100
AcDbEntity
  8
LAY-1
  6
EXLTYPE2
 62
     1
100
AcDbLine
 10
220.350853
 20
-165.270171
 30
0.0
 11
220.350853
 21
-175.0
 31
0.0
  0
LINE
  5
1E3
100
AcDbEntity
  8
LAY-1
  6
EXLTYPE2
 62
     1
100
AcDbLine
 10
224.5
 20
-164.0
 30
0.0
 11
226.7
 21
-165.270171
 31
0.0
  0
ARC
  5
1E4
100
AcDbEntity
  8
LAY-1
  6
EXLTYPE2
 62
     1
100
AcDbCircle
 10
214.0
 20
-180.512218
 30
0.0
 40
16.512218
100
AcDbArc
 50
67.380135
 51
112.619865
  0
LINE
  5
1E5
100
AcDbEntity
  8
LAY-1
  6
EXLTYPE2
 62
     1
100
AcDbLine
 10
207.649147
 20
-165.270171
 30
0.0
 11
207.649147
 21
-175.0
 31
0.0
  0
LINE
  5
1E6
100
AcDbEntity
  8
LAY-1
  6
EXLTYPE2
 62
     1
100
AcDbLine
 10
226.7
 20
-165.270171
 30
0.0
 11
226.7
 21
-175.0
 31
0.0
  0
LINE
  5
1E7
100
AcDbEntity
  8
LAY-1
  6
EXLTYPE2
 62
     1
100
AcDbLine
 10
203.5
 20
-164.0
 30
0.0
 11
224.5
 21
-164.0
 31
0.0
  0
LINE
  5
1E8
100
AcDbEntity
  8
LAY-1
  6
EXLTYPE2
 62
     1
100
AcDbLine
 10
201.3
 20
-175.0
 30
0.0
 11
201.3
 21
-165.270171
 31
0.0
  0
LINE
  5
1E9
100
AcDbEntity
  8
LAY-1
  6
EXLTYPE2
 62
     1
100
AcDbLine
 10
192.042879
 20
-185.652092
 30
0.0
 11
187.75
 21
-186.409042
 31
0.0
  0
ARC
  5
1EA
100
AcDbEntity
  8
LAY-1
  6
EXLTYPE2
 62
     1
100
AcDbCircle
 10
191.695582
 20
-183.682476
 30
0.0
 40
2.0
100
AcDbArc
 50
280.0
 51
358.0
  0
LINE
  5
1EB
100
AcDbEntity
  8
LAY-1
  6
EXLTYPE2
 62
     1
100
AcDbLine
 10
193.966298
 20
-175.965101
 30
0.0
 11
193.694364
 21
-183.752275
 31
0.0
  0
LINE
  5
1EC
100
AcDbEntity
  8
LAY-1
  6
EXLTYPE2
 62
     1
100
AcDbLine
 10
214.0
 20
-175.0
 30
0.0
 11
233.034315
 21
-175.0
 31
0.0
  0
ARC
  5
1ED
100
AcDbEntity
  8
LAY-1
  6
EXLTYPE2
 62
     1
100
AcDbCircle
 10
233.034311
 20
-176.0
 30
0.0
 40
1.0
100
AcDbArc
 50
2.0
 51
90.0
  0
LINE
  5
1EE
100
AcDbEntity
  8
LAY-1
  6
EXLTYPE2
 62
     1
100
AcDbLine
 10
214.0
 20
-175.0
 30
0.0
 11
194.965685
 21
-175.0
 31
0.0
  0
ARC
  5
1EF
100
AcDbEntity
  8
LAY-1
  6
EXLTYPE2
 62
     1
100
AcDbCircle
 10
194.965689
 20
-176.0
 30
0.0
 40
1.0
100
AcDbArc
 50
90.0
 51
178.0
  0
ARC
  5
1F0
100
AcDbEntity
  8
LAY-1
  6
EXLTYPE2
 62
     1
100
AcDbCircle
 10
236.304418
 20
-183.682476
 30
0.0
 40
2.0
100
AcDbArc
 50
182.0
 51
260.0
  0
LINE
  5
1F1
100
AcDbEntity
  8
LAY-1
  6
EXLTYPE2
 62
     1
100
AcDbLine
 10
234.033702
 20
-175.965101
 30
0.0
 11
234.305636
 21
-183.752275
 31
0.0
  0
LINE
  5
1F2
100
AcDbEntity
  8
LAY-1
  6
EXLTYPE2
 62
     1
100
AcDbLine
 10
235.957121
 20
-185.652092
 30
0.0
 11
240.25
 21
-186.409042
 31
0.0
  0
LINE
  5
1F3
100
AcDbEntity
  8
LAY-1
  6
CONTINUOUS
 62
     1
100
AcDbLine
 10
295.539306
 20
-325.5
 30
0.0
 11
296.721875
 21
-326.5
 31
0.0
  0
LINE
  5
1F4
100
AcDbEntity
  8
LAY-1
  6
CONTINUOUS
 62
     1
100
AcDbLine
 10
280.528199
 20
-325.5
 30
0.0
 11
295.539306
 21
-325.5
 31
0.0
  0
LINE
  5
1F5
100
AcDbEntity
  8
LAY-1
  6
CONTINUOUS
 62
     1
100
AcDbLine
 10
279.299818
 20
-326.5
 30
0.0
 11
280.528199
 21
-325.5
 31
0.0
  0
LINE
  5
1F6
100
AcDbEntity
  8
LAY-1
  6
CONTINUOUS
 62
     1
100
AcDbLine
 10
280.528199
 20
-319.696027
 30
0.0
 11
281.733752
 21
-319.0
 31
0.0
  0
ARC
  5
1F7
100
AcDbEntity
  8
LAY-1
  6
CONTINUOUS
 62
     1
100
AcDbCircle
 10
288.033752
 20
-329.464963
 30
0.0
 40
10.464963
100
AcDbArc
 50
68.985518
 51
111.014482
  0
LINE
  5
1F8
100
AcDbEntity
  8
LAY-1
  6
CONTINUOUS
 62
     1
100
AcDbLine
 10
281.733752
 20
-319.0
 30
0.0
 11
294.333752
 21
-319.0
 31
0.0
  0
LINE
  5
1F9
100
AcDbEntity
  8
LAY-1
  6
CONTINUOUS
 62
     1
100
AcDbLine
 10
295.539306
 20
-319.696027
 30
0.0
 11
294.333752
 21
-319.0
 31
0.0
  0
LINE
  5
1FA
100
AcDbEntity
  8
LAY-1
  6
CONTINUOUS
 62
     1
100
AcDbLine
 10
280.528199
 20
-325.5
 30
0.0
 11
280.528199
 21
-319.696027
 31
0.0
  0
LINE
  5
1FB
100
AcDbEntity
  8
LAY-1
  6
CONTINUOUS
 62
     1
100
AcDbLine
 10
284.280975
 20
-325.5
 30
0.0
 11
284.280975
 21
-319.696027
 31
0.0
  0
LINE
  5
1FC
100
AcDbEntity
  8
LAY-1
  6
CONTINUOUS
 62
     1
100
AcDbLine
 10
295.539306
 20
-319.696027
 30
0.0
 11
295.539306
 21
-325.5
 31
0.0
  0
LINE
  5
1FD
100
AcDbEntity
  8
LAY-1
  6
CONTINUOUS
 62
     1
100
AcDbLine
 10
291.786529
 20
-325.5
 30
0.0
 11
291.786529
 21
-319.696027
 31
0.0
  0
ARC
  5
1FE
100
AcDbEntity
  8
LAY-1
  6
CONTINUOUS
 62
     1
100
AcDbCircle
 10
294.333752
 20
-324.009003
 30
0.0
 40
5.009003
100
AcDbArc
 50
90.0
 51
120.565895
  0
ARC
  5
1FF
100
AcDbEntity
  8
LAY-1
  6
CONTINUOUS
 62
     1
100
AcDbCircle
 10
281.733752
 20
-324.009003
 30
0.0
 40
5.009003
100
AcDbArc
 50
59.434105
 51
90.0
  0
LINE
  5
200
100
AcDbEntity
  8
LAY-1
  6
CONTINUOUS
 62
     1
100
AcDbLine
 10
132.460694
 20
-325.5
 30
0.0
 11
131.278125
 21
-326.5
 31
0.0
  0
LINE
  5
201
100
AcDbEntity
  8
LAY-1
  6
CONTINUOUS
 62
     1
100
AcDbLine
 10
147.471801
 20
-325.5
 30
0.0
 11
132.460694
 21
-325.5
 31
0.0
  0
LINE
  5
202
100
AcDbEntity
  8
LAY-1
  6
CONTINUOUS
 62
     1
100
AcDbLine
 10
148.700182
 20
-326.5
 30
0.0
 11
147.471801
 21
-325.5
 31
0.0
  0
LINE
  5
203
100
AcDbEntity
  8
LAY-1
  6
CONTINUOUS
 62
     1
100
AcDbLine
 10
147.471801
 20
-319.696027
 30
0.0
 11
146.266248
 21
-319.0
 31
0.0
  0
ARC
  5
204
100
AcDbEntity
  8
LAY-1
  6
CONTINUOUS
 62
     1
100
AcDbCircle
 10
139.966248
 20
-329.464963
 30
0.0
 40
10.464963
100
AcDbArc
 50
68.985518
 51
111.014482
  0
LINE
  5
205
100
AcDbEntity
  8
LAY-1
  6
CONTINUOUS
 62
     1
100
AcDbLine
 10
146.266248
 20
-319.0
 30
0.0
 11
133.666248
 21
-319.0
 31
0.0
  0
LINE
  5
206
100
AcDbEntity
  8
LAY-1
  6
CONTINUOUS
 62
     1
100
AcDbLine
 10
132.460694
 20
-319.696027
 30
0.0
 11
133.666248
 21
-319.0
 31
0.0
  0
LINE
  5
207
100
AcDbEntity
  8
LAY-1
  6
CONTINUOUS
 62
     1
100
AcDbLine
 10
147.471801
 20
-325.5
 30
0.0
 11
147.471801
 21
-319.696027
 31
0.0
  0
LINE
  5
208
100
AcDbEntity
  8
LAY-1
  6
CONTINUOUS
 62
     1
100
AcDbLine
 10
143.719025
 20
-325.5
 30
0.0
 11
143.719025
 21
-319.696027
 31
0.0
  0
LINE
  5
209
100
AcDbEntity
  8
LAY-1
  6
CONTINUOUS
 62
     1
100
AcDbLine
 10
132.460694
 20
-319.696027
 30
0.0
 11
132.460694
 21
-325.5
 31
0.0
  0
LINE
  5
20A
100
AcDbEntity
  8
LAY-1
  6
CONTINUOUS
 62
     1
100
AcDbLine
 10
136.213471
 20
-325.5
 30
0.0
 11
136.213471
 21
-319.696027
 31
0.0
  0
ARC
  5
20B
100
AcDbEntity
  8
LAY-1
  6
CONTINUOUS
 62
     1
100
AcDbCircle
 10
133.666248
 20
-324.009003
 30
0.0
 40
5.009003
100
AcDbArc
 50
59.434105
 51
90.0
  0
ARC
  5
20C
100
AcDbEntity
  8
LAY-1
  6
CONTINUOUS
 62
     1
100
AcDbCircle
 10
146.266248
 20
-324.009003
 30
0.0
 40
5.009003
100
AcDbArc
 50
90.0
 51
120.565895
  0
LINE
  5
20D
100
AcDbEntity
  8
LAY-1
  6
CONTINUOUS
 62
     1
100
AcDbLine
 10
252.171338
 20
-325.5
 30
0.0
 11
253.353907
 21
-326.5
 31
0.0
  0
LINE
  5
20E
100
AcDbEntity
  8
LAY-1
  6
CONTINUOUS
 62
     1
100
AcDbLine
 10
237.160231
 20
-325.5
 30
0.0
 11
252.171338
 21
-325.5
 31
0.0
  0
LINE
  5
20F
100
AcDbEntity
  8
LAY-1
  6
CONTINUOUS
 62
     1
100
AcDbLine
 10
235.93185
 20
-326.5
 30
0.0
 11
237.160231
 21
-325.5
 31
0.0
  0
LINE
  5
210
100
AcDbEntity
  8
LAY-1
  6
CONTINUOUS
 62
     1
100
AcDbLine
 10
237.160231
 20
-319.696027
 30
0.0
 11
238.365784
 21
-319.0
 31
0.0
  0
ARC
  5
211
100
AcDbEntity
  8
LAY-1
  6
CONTINUOUS
 62
     1
100
AcDbCircle
 10
244.665784
 20
-329.464963
 30
0.0
 40
10.464963
100
AcDbArc
 50
68.985518
 51
111.014482
  0
LINE
  5
212
100
AcDbEntity
  8
LAY-1
  6
CONTINUOUS
 62
     1
100
AcDbLine
 10
238.365784
 20
-319.0
 30
0.0
 11
250.965784
 21
-319.0
 31
0.0
  0
LINE
  5
213
100
AcDbEntity
  8
LAY-1
  6
CONTINUOUS
 62
     1
100
AcDbLine
 10
252.171338
 20
-319.696027
 30
0.0
 11
250.965784
 21
-319.0
 31
0.0
  0
LINE
  5
214
100
AcDbEntity
  8
LAY-1
  6
CONTINUOUS
 62
     1
100
AcDbLine
 10
237.160231
 20
-325.5
 30
0.0
 11
237.160231
 21
-319.696027
 31
0.0
  0
LINE
  5
215
100
AcDbEntity
  8
LAY-1
  6
CONTINUOUS
 62
     1
100
AcDbLine
 10
240.913007
 20
-325.5
 30
0.0
 11
240.913007
 21
-319.696027
 31
0.0
  0
LINE
  5
216
100
AcDbEntity
  8
LAY-1
  6
CONTINUOUS
 62
     1
100
AcDbLine
 10
252.171338
 20
-319.696027
 30
0.0
 11
252.171338
 21
-325.5
 31
0.0
  0
LINE
  5
217
100
AcDbEntity
  8
LAY-1
  6
CONTINUOUS
 62
     1
100
AcDbLine
 10
248.418561
 20
-325.5
 30
0.0
 11
248.418561
 21
-319.696027
 31
0.0
  0
ARC
  5
218
100
AcDbEntity
  8
LAY-1
  6
CONTINUOUS
 62
     1
100
AcDbCircle
 10
250.965784
 20
-324.009003
 30
0.0
 40
5.009003
100
AcDbArc
 50
90.0
 51
120.565895
  0
ARC
  5
219
100
AcDbEntity
  8
LAY-1
  6
CONTINUOUS
 62
     1
100
AcDbCircle
 10
238.365784
 20
-324.009003
 30
0.0
 40
5.009003
100
AcDbArc
 50
59.434105
 51
90.0
  0
LINE
  5
21A
100
AcDbEntity
  8
LAY-1
  6
CONTINUOUS
 62
     1
100
AcDbLine
 10
190.839769
 20
-325.5
 30
0.0
 11
192.022338
 21
-326.5
 31
0.0
  0
LINE
  5
21B
100
AcDbEntity
  8
LAY-1
  6
CONTINUOUS
 62
     1
100
AcDbLine
 10
175.828662
 20
-325.5
 30
0.0
 11
190.839769
 21
-325.5
 31
0.0
  0
LINE
  5
21C
100
AcDbEntity
  8
LAY-1
  6
CONTINUOUS
 62
     1
100
AcDbLine
 10
174.600282
 20
-326.5
 30
0.0
 11
175.828662
 21
-325.5
 31
0.0
  0
LINE
  5
21D
100
AcDbEntity
  8
LAY-1
  6
CONTINUOUS
 62
     1
100
AcDbLine
 10
175.828662
 20
-319.696027
 30
0.0
 11
177.034216
 21
-319.0
 31
0.0
  0
ARC
  5
21E
100
AcDbEntity
  8
LAY-1
  6
CONTINUOUS
 62
     1
100
AcDbCircle
 10
183.334216
 20
-329.464963
 30
0.0
 40
10.464963
100
AcDbArc
 50
68.985518
 51
111.014482
  0
LINE
  5
21F
100
AcDbEntity
  8
LAY-1
  6
CONTINUOUS
 62
     1
100
AcDbLine
 10
177.034216
 20
-319.0
 30
0.0
 11
189.634216
 21
-319.0
 31
0.0
  0
LINE
  5
220
100
AcDbEntity
  8
LAY-1
  6
CONTINUOUS
 62
     1
100
AcDbLine
 10
190.839769
 20
-319.696027
 30
0.0
 11
189.634216
 21
-319.0
 31
0.0
  0
LINE
  5
221
100
AcDbEntity
  8
LAY-1
  6
CONTINUOUS
 62
     1
100
AcDbLine
 10
175.828662
 20
-325.5
 30
0.0
 11
175.828662
 21
-319.696027
 31
0.0
  0
LINE
  5
222
100
AcDbEntity
  8
LAY-1
  6
CONTINUOUS
 62
     1
100
AcDbLine
 10
179.581439
 20
-325.5
 30
0.0
 11
179.581439
 21
-319.696027
 31
0.0
  0
LINE
  5
223
100
AcDbEntity
  8
LAY-1
  6
CONTINUOUS
 62
     1
100
AcDbLine
 10
190.839769
 20
-319.696027
 30
0.0
 11
190.839769
 21
-325.5
 31
0.0
  0
LINE
  5
224
100
AcDbEntity
  8
LAY-1
  6
CONTINUOUS
 62
     1
100
AcDbLine
 10
187.086993
 20
-325.5
 30
0.0
 11
187.086993
 21
-319.696027
 31
0.0
  0
ARC
  5
225
100
AcDbEntity
  8
LAY-1
  6
CONTINUOUS
 62
     1
100
AcDbCircle
 10
189.634216
 20
-324.009003
 30
0.0
 40
5.009003
100
AcDbArc
 50
90.0
 51
120.565895
  0
ARC
  5
226
100
AcDbEntity
  8
LAY-1
  6
CONTINUOUS
 62
     1
100
AcDbCircle
 10
177.034216
 20
-324.009003
 30
0.0
 40
5.009003
100
AcDbArc
 50
59.434105
 51
90.0
  0
LINE
  5
227
100
AcDbEntity
  8
LAY-1
  6
EXLTYPE3
 62
     1
100
AcDbLine
 10
258.796982
 20
-392.0
 30
0.0
 11
166.202956
 21
-392.0
 31
0.0
  0
LINE
  5
228
100
AcDbEntity
  8
LAY-1
  6
EXLTYPE4
 62
     1
100
AcDbLine
 10
232.0
 20
-444.0
 30
0.0
 11
232.0
 21
-434.0
 31
0.0
  0
LINE
  5
229
100
AcDbEntity
  8
LAY-1
  6
EXLTYPE4
 62
     1
100
AcDbLine
 10
196.0
 20
-444.0
 30
0.0
 11
196.0
 21
-434.0
 31
0.0
  0
LINE
  5
22A
100
AcDbEntity
  8
LAY-1
  6
EXLTYPE3
 62
     1
100
AcDbLine
 10
214.0
 20
-102.593048
 30
0.0
 11
214.0
 21
-464.0
 31
0.0
  0
LINE
  5
22B
100
AcDbEntity
  8
LAY-1
  6
CONTINUOUS
 62
     1
100
AcDbLine
 10
147.471801
 20
-353.375437
 30
0.0
 11
147.471801
 21
-358.17941
 31
0.0
  0
LINE
  5
22C
100
AcDbEntity
  8
LAY-1
  6
CONTINUOUS
 62
     1
100
AcDbLine
 10
146.266248
 20
-358.875437
 30
0.0
 11
133.666248
 21
-358.875437
 31
0.0
  0
LINE
  5
22D
100
AcDbEntity
  8
LAY-1
  6
CONTINUOUS
 62
     1
100
AcDbLine
 10
132.460694
 20
-358.17941
 30
0.0
 11
132.460694
 21
-353.375437
 31
0.0
  0
LINE
  5
22E
100
AcDbEntity
  8
LAY-1
  6
CONTINUOUS
 62
     1
100
AcDbLine
 10
147.471801
 20
-358.17941
 30
0.0
 11
146.266248
 21
-358.875437
 31
0.0
  0
ARC
  5
22F
100
AcDbEntity
  8
LAY-1
  6
CONTINUOUS
 62
     1
100
AcDbCircle
 10
139.966248
 20
-348.410474
 30
0.0
 40
10.464963
100
AcDbArc
 50
248.985518
 51
291.014482
  0
LINE
  5
230
100
AcDbEntity
  8
LAY-1
  6
CONTINUOUS
 62
     1
100
AcDbLine
 10
132.460694
 20
-358.17941
 30
0.0
 11
133.666248
 21
-358.875437
 31
0.0
  0
ARC
  5
231
100
AcDbEntity
  8
LAY-1
  6
CONTINUOUS
 62
     1
100
AcDbCircle
 10
146.266248
 20
-353.866434
 30
0.0
 40
5.009003
100
AcDbArc
 50
239.434105
 51
270.0
  0
ARC
  5
232
100
AcDbEntity
  8
LAY-1
  6
CONTINUOUS
 62
     1
100
AcDbCircle
 10
133.666248
 20
-353.866434
 30
0.0
 40
5.009003
100
AcDbArc
 50
270.0
 51
300.565895
  0
LINE
  5
233
100
AcDbEntity
  8
LAY-1
  6
CONTINUOUS
 62
     1
100
AcDbLine
 10
143.719025
 20
-353.375437
 30
0.0
 11
143.719025
 21
-358.17941
 31
0.0
  0
LINE
  5
234
100
AcDbEntity
  8
LAY-1
  6
CONTINUOUS
 62
     1
100
AcDbLine
 10
136.213471
 20
-353.375437
 30
0.0
 11
136.213471
 21
-358.17941
 31
0.0
  0
LINE
  5
235
100
AcDbEntity
  8
LAY-1
  6
CONTINUOUS
 62
     1
100
AcDbLine
 10
175.828662
 20
-353.375437
 30
0.0
 11
175.828662
 21
-358.17941
 31
0.0
  0
LINE
  5
236
100
AcDbEntity
  8
LAY-1
  6
CONTINUOUS
 62
     1
100
AcDbLine
 10
177.034216
 20
-358.875437
 30
0.0
 11
189.634216
 21
-358.875437
 31
0.0
  0
LINE
  5
237
100
AcDbEntity
  8
LAY-1
  6
CONTINUOUS
 62
     1
100
AcDbLine
 10
190.839769
 20
-358.17941
 30
0.0
 11
190.839769
 21
-353.375437
 31
0.0
  0
LINE
  5
238
100
AcDbEntity
  8
LAY-1
  6
CONTINUOUS
 62
     1
100
AcDbLine
 10
175.828662
 20
-358.17941
 30
0.0
 11
177.034216
 21
-358.875437
 31
0.0
  0
ARC
  5
239
100
AcDbEntity
  8
LAY-1
  6
CONTINUOUS
 62
     1
100
AcDbCircle
 10
183.334216
 20
-348.410474
 30
0.0
 40
10.464963
100
AcDbArc
 50
248.985518
 51
291.014482
  0
LINE
  5
23A
100
AcDbEntity
  8
LAY-1
  6
CONTINUOUS
 62
     1
100
AcDbLine
 10
190.839769
 20
-358.17941
 30
0.0
 11
189.634216
 21
-358.875437
 31
0.0
  0
ARC
  5
23B
100
AcDbEntity
  8
LAY-1
  6
CONTINUOUS
 62
     1
100
AcDbCircle
 10
177.034216
 20
-353.866434
 30
0.0
 40
5.009003
100
AcDbArc
 50
270.0
 51
300.565895
  0
ARC
  5
23C
100
AcDbEntity
  8
LAY-1
  6
CONTINUOUS
 62
     1
100
AcDbCircle
 10
189.634216
 20
-353.866434
 30
0.0
 40
5.009003
100
AcDbArc
 50
239.434105
 51
270.0
  0
LINE
  5
23D
100
AcDbEntity
  8
LAY-1
  6
CONTINUOUS
 62
     1
100
AcDbLine
 10
179.581439
 20
-353.375437
 30
0.0
 11
179.581439
 21
-358.17941
 31
0.0
  0
LINE
  5
23E
100
AcDbEntity
  8
LAY-1
  6
CONTINUOUS
 62
     1
100
AcDbLine
 10
187.086993
 20
-353.375437
 30
0.0
 11
187.086993
 21
-358.17941
 31
0.0
  0
LINE
  5
23F
100
AcDbEntity
  8
LAY-1
  6
CONTINUOUS
 62
     1
100
AcDbLine
 10
237.160231
 20
-353.375437
 30
0.0
 11
237.160231
 21
-358.17941
 31
0.0
  0
LINE
  5
240
100
AcDbEntity
  8
LAY-1
  6
CONTINUOUS
 62
     1
100
AcDbLine
 10
238.365784
 20
-358.875437
 30
0.0
 11
250.965784
 21
-358.875437
 31
0.0
  0
LINE
  5
241
100
AcDbEntity
  8
LAY-1
  6
CONTINUOUS
 62
     1
100
AcDbLine
 10
252.171338
 20
-358.17941
 30
0.0
 11
252.171338
 21
-353.375437
 31
0.0
  0
LINE
  5
242
100
AcDbEntity
  8
LAY-1
  6
CONTINUOUS
 62
     1
100
AcDbLine
 10
237.160231
 20
-358.17941
 30
0.0
 11
238.365784
 21
-358.875437
 31
0.0
  0
ARC
  5
243
100
AcDbEntity
  8
LAY-1
  6
CONTINUOUS
 62
     1
100
AcDbCircle
 10
244.665784
 20
-348.410474
 30
0.0
 40
10.464963
100
AcDbArc
 50
248.985518
 51
291.014482
  0
LINE
  5
244
100
AcDbEntity
  8
LAY-1
  6
CONTINUOUS
 62
     1
100
AcDbLine
 10
252.171338
 20
-358.17941
 30
0.0
 11
250.965784
 21
-358.875437
 31
0.0
  0
ARC
  5
245
100
AcDbEntity
  8
LAY-1
  6
CONTINUOUS
 62
     1
100
AcDbCircle
 10
238.365784
 20
-353.866434
 30
0.0
 40
5.009003
100
AcDbArc
 50
270.0
 51
300.565895
  0
ARC
  5
246
100
AcDbEntity
  8
LAY-1
  6
CONTINUOUS
 62
     1
100
AcDbCircle
 10
250.965784
 20
-353.866434
 30
0.0
 40
5.009003
100
AcDbArc
 50
239.434105
 51
270.0
  0
LINE
  5
247
100
AcDbEntity
  8
LAY-1
  6
CONTINUOUS
 62
     1
100
AcDbLine
 10
240.913007
 20
-353.375437
 30
0.0
 11
240.913007
 21
-358.17941
 31
0.0
  0
LINE
  5
248
100
AcDbEntity
  8
LAY-1
  6
CONTINUOUS
 62
     1
100
AcDbLine
 10
248.418561
 20
-353.375437
 30
0.0
 11
248.418561
 21
-358.17941
 31
0.0
  0
LINE
  5
249
100
AcDbEntity
  8
LAY-1
  6
CONTINUOUS
 62
     1
100
AcDbLine
 10
280.528199
 20
-353.375437
 30
0.0
 11
280.528199
 21
-358.17941
 31
0.0
  0
LINE
  5
24A
100
AcDbEntity
  8
LAY-1
  6
CONTINUOUS
 62
     1
100
AcDbLine
 10
281.733752
 20
-358.875437
 30
0.0
 11
294.333752
 21
-358.875437
 31
0.0
  0
LINE
  5
24B
100
AcDbEntity
  8
LAY-1
  6
CONTINUOUS
 62
     1
100
AcDbLine
 10
295.539306
 20
-358.17941
 30
0.0
 11
295.539306
 21
-353.375437
 31
0.0
  0
LINE
  5
24C
100
AcDbEntity
  8
LAY-1
  6
CONTINUOUS
 62
     1
100
AcDbLine
 10
280.528199
 20
-358.17941
 30
0.0
 11
281.733752
 21
-358.875437
 31
0.0
  0
ARC
  5
24D
100
AcDbEntity
  8
LAY-1
  6
CONTINUOUS
 62
     1
100
AcDbCircle
 10
288.033752
 20
-348.410474
 30
0.0
 40
10.464963
100
AcDbArc
 50
248.985518
 51
291.014482
  0
LINE
  5
24E
100
AcDbEntity
  8
LAY-1
  6
CONTINUOUS
 62
     1
100
AcDbLine
 10
295.539306
 20
-358.17941
 30
0.0
 11
294.333752
 21
-358.875437
 31
0.0
  0
ARC
  5
24F
100
AcDbEntity
  8
LAY-1
  6
CONTINUOUS
 62
     1
100
AcDbCircle
 10
281.733752
 20
-353.866434
 30
0.0
 40
5.009003
100
AcDbArc
 50
270.0
 51
300.565895
  0
ARC
  5
250
100
AcDbEntity
  8
LAY-1
  6
CONTINUOUS
 62
     1
100
AcDbCircle
 10
294.333752
 20
-353.866434
 30
0.0
 40
5.009003
100
AcDbArc
 50
239.434105
 51
270.0
  0
LINE
  5
251
100
AcDbEntity
  8
LAY-1
  6
CONTINUOUS
 62
     1
100
AcDbLine
 10
284.280975
 20
-353.375437
 30
0.0
 11
284.280975
 21
-358.17941
 31
0.0
  0
LINE
  5
252
100
AcDbEntity
  8
LAY-1
  6
CONTINUOUS
 62
     1
100
AcDbLine
 10
291.786529
 20
-353.375437
 30
0.0
 11
291.786529
 21
-358.17941
 31
0.0
  0
LINE
  5
253
100
AcDbEntity
  8
LAY-1
  6
CONTINUOUS
 62
     1
100
AcDbLine
 10
291.786529
 20
653.375437
 30
0.0
 11
291.786529
 21
658.17941
 31
0.0
  0
LINE
  5
254
100
AcDbEntity
  8
LAY-1
  6
CONTINUOUS
 62
     1
100
AcDbLine
 10
284.280975
 20
653.375437
 30
0.0
 11
284.280975
 21
658.17941
 31
0.0
  0
ARC
  5
255
100
AcDbEntity
  8
LAY-1
  6
CONTINUOUS
 62
     1
100
AcDbCircle
 10
294.333752
 20
653.866434
 30
0.0
 40
5.009003
100
AcDbArc
 50
90.0
 51
120.565895
  0
ARC
  5
256
100
AcDbEntity
  8
LAY-1
  6
CONTINUOUS
 62
     1
100
AcDbCircle
 10
281.733752
 20
653.866434
 30
0.0
 40
5.009003
100
AcDbArc
 50
59.434105
 51
90.0
  0
LINE
  5
257
100
AcDbEntity
  8
LAY-1
  6
CONTINUOUS
 62
     1
100
AcDbLine
 10
295.539306
 20
658.17941
 30
0.0
 11
294.333752
 21
658.875437
 31
0.0
  0
ARC
  5
258
100
AcDbEntity
  8
LAY-1
  6
CONTINUOUS
 62
     1
100
AcDbCircle
 10
288.033752
 20
648.410474
 30
0.0
 40
10.464963
100
AcDbArc
 50
68.985518
 51
111.014482
  0
LINE
  5
259
100
AcDbEntity
  8
LAY-1
  6
CONTINUOUS
 62
     1
100
AcDbLine
 10
280.528199
 20
658.17941
 30
0.0
 11
281.733752
 21
658.875437
 31
0.0
  0
LINE
  5
25A
100
AcDbEntity
  8
LAY-1
  6
CONTINUOUS
 62
     1
100
AcDbLine
 10
295.539306
 20
658.17941
 30
0.0
 11
295.539306
 21
653.375437
 31
0.0
  0
LINE
  5
25B
100
AcDbEntity
  8
LAY-1
  6
CONTINUOUS
 62
     1
100
AcDbLine
 10
281.733752
 20
658.875437
 30
0.0
 11
294.333752
 21
658.875437
 31
0.0
  0
LINE
  5
25C
100
AcDbEntity
  8
LAY-1
  6
CONTINUOUS
 62
     1
100
AcDbLine
 10
280.528199
 20
653.375437
 30
0.0
 11
280.528199
 21
658.17941
 31
0.0
  0
LINE
  5
25D
100
AcDbEntity
  8
LAY-1
  6
CONTINUOUS
 62
     1
100
AcDbLine
 10
248.418561
 20
653.375437
 30
0.0
 11
248.418561
 21
658.17941
 31
0.0
  0
LINE
  5
25E
100
AcDbEntity
  8
LAY-1
  6
CONTINUOUS
 62
     1
100
AcDbLine
 10
240.913007
 20
653.375437
 30
0.0
 11
240.913007
 21
658.17941
 31
0.0
  0
ARC
  5
25F
100
AcDbEntity
  8
LAY-1
  6
CONTINUOUS
 62
     1
100
AcDbCircle
 10
250.965784
 20
653.866434
 30
0.0
 40
5.009003
100
AcDbArc
 50
90.0
 51
120.565895
  0
ARC
  5
260
100
AcDbEntity
  8
LAY-1
  6
CONTINUOUS
 62
     1
100
AcDbCircle
 10
238.365784
 20
653.866434
 30
0.0
 40
5.009003
100
AcDbArc
 50
59.434105
 51
90.0
  0
LINE
  5
261
100
AcDbEntity
  8
LAY-1
  6
CONTINUOUS
 62
     1
100
AcDbLine
 10
252.171338
 20
658.17941
 30
0.0
 11
250.965784
 21
658.875437
 31
0.0
  0
ARC
  5
262
100
AcDbEntity
  8
LAY-1
  6
CONTINUOUS
 62
     1
100
AcDbCircle
 10
244.665784
 20
648.410474
 30
0.0
 40
10.464963
100
AcDbArc
 50
68.985518
 51
111.014482
  0
LINE
  5
263
100
AcDbEntity
  8
LAY-1
  6
CONTINUOUS
 62
     1
100
AcDbLine
 10
237.160231
 20
658.17941
 30
0.0
 11
238.365784
 21
658.875437
 31
0.0
  0
LINE
  5
264
100
AcDbEntity
  8
LAY-1
  6
CONTINUOUS
 62
     1
100
AcDbLine
 10
252.171338
 20
658.17941
 30
0.0
 11
252.171338
 21
653.375437
 31
0.0
  0
LINE
  5
265
100
AcDbEntity
  8
LAY-1
  6
CONTINUOUS
 62
     1
100
AcDbLine
 10
238.365784
 20
658.875437
 30
0.0
 11
250.965784
 21
658.875437
 31
0.0
  0
LINE
  5
266
100
AcDbEntity
  8
LAY-1
  6
CONTINUOUS
 62
     1
100
AcDbLine
 10
237.160231
 20
653.375437
 30
0.0
 11
237.160231
 21
658.17941
 31
0.0
  0
LINE
  5
267
100
AcDbEntity
  8
LAY-1
  6
CONTINUOUS
 62
     1
100
AcDbLine
 10
187.086993
 20
653.375437
 30
0.0
 11
187.086993
 21
658.17941
 31
0.0
  0
LINE
  5
268
100
AcDbEntity
  8
LAY-1
  6
CONTINUOUS
 62
     1
100
AcDbLine
 10
179.581439
 20
653.375437
 30
0.0
 11
179.581439
 21
658.17941
 31
0.0
  0
ARC
  5
269
100
AcDbEntity
  8
LAY-1
  6
CONTINUOUS
 62
     1
100
AcDbCircle
 10
189.634216
 20
653.866434
 30
0.0
 40
5.009003
100
AcDbArc
 50
90.0
 51
120.565895
  0
ARC
  5
26A
100
AcDbEntity
  8
LAY-1
  6
CONTINUOUS
 62
     1
100
AcDbCircle
 10
177.034216
 20
653.866434
 30
0.0
 40
5.009003
100
AcDbArc
 50
59.434105
 51
90.0
  0
LINE
  5
26B
100
AcDbEntity
  8
LAY-1
  6
CONTINUOUS
 62
     1
100
AcDbLine
 10
190.839769
 20
658.17941
 30
0.0
 11
189.634216
 21
658.875437
 31
0.0
  0
ARC
  5
26C
100
AcDbEntity
  8
LAY-1
  6
CONTINUOUS
 62
     1
100
AcDbCircle
 10
183.334216
 20
648.410474
 30
0.0
 40
10.464963
100
AcDbArc
 50
68.985518
 51
111.014482
  0
LINE
  5
26D
100
AcDbEntity
  8
LAY-1
  6
CONTINUOUS
 62
     1
100
AcDbLine
 10
175.828662
 20
658.17941
 30
0.0
 11
177.034216
 21
658.875437
 31
0.0
  0
LINE
  5
26E
100
AcDbEntity
  8
LAY-1
  6
CONTINUOUS
 62
     1
100
AcDbLine
 10
190.839769
 20
658.17941
 30
0.0
 11
190.839769
 21
653.375437
 31
0.0
  0
LINE
  5
26F
100
AcDbEntity
  8
LAY-1
  6
CONTINUOUS
 62
     1
100
AcDbLine
 10
177.034216
 20
658.875437
 30
0.0
 11
189.634216
 21
658.875437
 31
0.0
  0
LINE
  5
270
100
AcDbEntity
  8
LAY-1
  6
CONTINUOUS
 62
     1
100
AcDbLine
 10
175.828662
 20
653.375437
 30
0.0
 11
175.828662
 21
658.17941
 31
0.0
  0
LINE
  5
271
100
AcDbEntity
  8
LAY-1
  6
CONTINUOUS
 62
     1
100
AcDbLine
 10
136.213471
 20
653.375437
 30
0.0
 11
136.213471
 21
658.17941
 31
0.0
  0
LINE
  5
272
100
AcDbEntity
  8
LAY-1
  6
CONTINUOUS
 62
     1
100
AcDbLine
 10
143.719025
 20
653.375437
 30
0.0
 11
143.719025
 21
658.17941
 31
0.0
  0
ARC
  5
273
100
AcDbEntity
  8
LAY-1
  6
CONTINUOUS
 62
     1
100
AcDbCircle
 10
133.666248
 20
653.866434
 30
0.0
 40
5.009003
100
AcDbArc
 50
59.434105
 51
90.0
  0
ARC
  5
274
100
AcDbEntity
  8
LAY-1
  6
CONTINUOUS
 62
     1
100
AcDbCircle
 10
146.266248
 20
653.866434
 30
0.0
 40
5.009003
100
AcDbArc
 50
90.0
 51
120.565895
  0
LINE
  5
275
100
AcDbEntity
  8
LAY-1
  6
CONTINUOUS
 62
     1
100
AcDbLine
 10
132.460694
 20
658.17941
 30
0.0
 11
133.666248
 21
658.875437
 31
0.0
  0
ARC
  5
276
100
AcDbEntity
  8
LAY-1
  6
CONTINUOUS
 62
     1
100
AcDbCircle
 10
139.966248
 20
648.410474
 30
0.0
 40
10.464963
100
AcDbArc
 50
68.985518
 51
111.014482
  0
LINE
  5
277
100
AcDbEntity
  8
LAY-1
  6
CONTINUOUS
 62
     1
100
AcDbLine
 10
147.471801
 20
658.17941
 30
0.0
 11
146.266248
 21
658.875437
 31
0.0
  0
LINE
  5
278
100
AcDbEntity
  8
LAY-1
  6
CONTINUOUS
 62
     1
100
AcDbLine
 10
132.460694
 20
658.17941
 30
0.0
 11
132.460694
 21
653.375437
 31
0.0
  0
LINE
  5
279
100
AcDbEntity
  8
LAY-1
  6
CONTINUOUS
 62
     1
100
AcDbLine
 10
146.266248
 20
658.875437
 30
0.0
 11
133.666248
 21
658.875437
 31
0.0
  0
LINE
  5
27A
100
AcDbEntity
  8
LAY-1
  6
CONTINUOUS
 62
     1
100
AcDbLine
 10
147.471801
 20
653.375437
 30
0.0
 11
147.471801
 21
658.17941
 31
0.0
  0
LINE
  5
27B
100
AcDbEntity
  8
LAY-1
  6
EXLTYPE4
 62
     1
100
AcDbLine
 10
196.0
 20
744.0
 30
0.0
 11
196.0
 21
734.0
 31
0.0
  0
LINE
  5
27C
100
AcDbEntity
  8
LAY-1
  6
EXLTYPE4
 62
     1
100
AcDbLine
 10
232.0
 20
744.0
 30
0.0
 11
232.0
 21
734.0
 31
0.0
  0
CIRCLE
  5
27D
100
AcDbEntity
  8
LAY-1
  6
EXLTYPE4
 62
     1
100
AcDbCircle
 10
214.0
 20
692.0
 30
0.0
 40
13.48518
  0
LINE
  5
27E
100
AcDbEntity
  8
LAY-1
  6
EXLTYPE4
 62
     1
100
AcDbLine
 10
223.0
 20
676.411543
 30
0.0
 11
232.0
 21
692.0
 31
0.0
  0
LINE
  5
27F
100
AcDbEntity
  8
LAY-1
  6
EXLTYPE4
 62
     1
100
AcDbLine
 10
205.0
 20
676.411543
 30
0.0
 11
223.0
 21
676.411543
 31
0.0
  0
LINE
  5
280
100
AcDbEntity
  8
LAY-1
  6
EXLTYPE4
 62
     1
100
AcDbLine
 10
196.0
 20
692.0
 30
0.0
 11
205.0
 21
676.411543
 31
0.0
  0
LINE
  5
281
100
AcDbEntity
  8
LAY-1
  6
EXLTYPE4
 62
     1
100
AcDbLine
 10
205.0
 20
707.588457
 30
0.0
 11
196.0
 21
692.0
 31
0.0
  0
LINE
  5
282
100
AcDbEntity
  8
LAY-1
  6
EXLTYPE4
 62
     1
100
AcDbLine
 10
223.0
 20
707.588457
 30
0.0
 11
205.0
 21
707.588457
 31
0.0
  0
LINE
  5
283
100
AcDbEntity
  8
LAY-1
  6
EXLTYPE4
 62
     1
100
AcDbLine
 10
232.0
 20
692.0
 30
0.0
 11
223.0
 21
707.588457
 31
0.0
  0
LINE
  5
284
100
AcDbEntity
  8
LAY-1
  6
EXLTYPE3
 62
     1
100
AcDbLine
 10
258.796982
 20
692.0
 30
0.0
 11
166.202956
 21
692.0
 31
0.0
  0
ARC
  5
285
100
AcDbEntity
  8
LAY-1
  6
CONTINUOUS
 62
     1
100
AcDbCircle
 10
177.034216
 20
624.009003
 30
0.0
 40
5.009003
100
AcDbArc
 50
270.0
 51
300.565895
  0
ARC
  5
286
100
AcDbEntity
  8
LAY-1
  6
CONTINUOUS
 62
     1
100
AcDbCircle
 10
189.634216
 20
624.009003
 30
0.0
 40
5.009003
100
AcDbArc
 50
239.434105
 51
270.0
  0
LINE
  5
287
100
AcDbEntity
  8
LAY-1
  6
CONTINUOUS
 62
     1
100
AcDbLine
 10
187.086993
 20
625.5
 30
0.0
 11
187.086993
 21
619.696027
 31
0.0
  0
LINE
  5
288
100
AcDbEntity
  8
LAY-1
  6
CONTINUOUS
 62
     1
100
AcDbLine
 10
190.839769
 20
619.696027
 30
0.0
 11
190.839769
 21
625.5
 31
0.0
  0
LINE
  5
289
100
AcDbEntity
  8
LAY-1
  6
CONTINUOUS
 62
     1
100
AcDbLine
 10
179.581439
 20
625.5
 30
0.0
 11
179.581439
 21
619.696027
 31
0.0
  0
LINE
  5
28A
100
AcDbEntity
  8
LAY-1
  6
CONTINUOUS
 62
     1
100
AcDbLine
 10
175.828662
 20
625.5
 30
0.0
 11
175.828662
 21
619.696027
 31
0.0
  0
LINE
  5
28B
100
AcDbEntity
  8
LAY-1
  6
CONTINUOUS
 62
     1
100
AcDbLine
 10
190.839769
 20
619.696027
 30
0.0
 11
189.634216
 21
619.0
 31
0.0
  0
LINE
  5
28C
100
AcDbEntity
  8
LAY-1
  6
CONTINUOUS
 62
     1
100
AcDbLine
 10
177.034216
 20
619.0
 30
0.0
 11
189.634216
 21
619.0
 31
0.0
  0
ARC
  5
28D
100
AcDbEntity
  8
LAY-1
  6
CONTINUOUS
 62
     1
100
AcDbCircle
 10
183.334216
 20
629.464963
 30
0.0
 40
10.464963
100
AcDbArc
 50
248.985518
 51
291.014482
  0
LINE
  5
28E
100
AcDbEntity
  8
LAY-1
  6
CONTINUOUS
 62
     1
100
AcDbLine
 10
175.828662
 20
619.696027
 30
0.0
 11
177.034216
 21
619.0
 31
0.0
  0
LINE
  5
28F
100
AcDbEntity
  8
LAY-1
  6
CONTINUOUS
 62
     1
100
AcDbLine
 10
174.600282
 20
626.5
 30
0.0
 11
175.828662
 21
625.5
 31
0.0
  0
LINE
  5
290
100
AcDbEntity
  8
LAY-1
  6
CONTINUOUS
 62
     1
100
AcDbLine
 10
175.828662
 20
625.5
 30
0.0
 11
190.839769
 21
625.5
 31
0.0
  0
LINE
  5
291
100
AcDbEntity
  8
LAY-1
  6
CONTINUOUS
 62
     1
100
AcDbLine
 10
190.839769
 20
625.5
 30
0.0
 11
192.022338
 21
626.5
 31
0.0
  0
ARC
  5
292
100
AcDbEntity
  8
LAY-1
  6
CONTINUOUS
 62
     1
100
AcDbCircle
 10
238.365784
 20
624.009003
 30
0.0
 40
5.009003
100
AcDbArc
 50
270.0
 51
300.565895
  0
ARC
  5
293
100
AcDbEntity
  8
LAY-1
  6
CONTINUOUS
 62
     1
100
AcDbCircle
 10
250.965784
 20
624.009003
 30
0.0
 40
5.009003
100
AcDbArc
 50
239.434105
 51
270.0
  0
LINE
  5
294
100
AcDbEntity
  8
LAY-1
  6
CONTINUOUS
 62
     1
100
AcDbLine
 10
248.418561
 20
625.5
 30
0.0
 11
248.418561
 21
619.696027
 31
0.0
  0
LINE
  5
295
100
AcDbEntity
  8
LAY-1
  6
CONTINUOUS
 62
     1
100
AcDbLine
 10
252.171338
 20
619.696027
 30
0.0
 11
252.171338
 21
625.5
 31
0.0
  0
LINE
  5
296
100
AcDbEntity
  8
LAY-1
  6
CONTINUOUS
 62
     1
100
AcDbLine
 10
240.913007
 20
625.5
 30
0.0
 11
240.913007
 21
619.696027
 31
0.0
  0
LINE
  5
297
100
AcDbEntity
  8
LAY-1
  6
CONTINUOUS
 62
     1
100
AcDbLine
 10
237.160231
 20
625.5
 30
0.0
 11
237.160231
 21
619.696027
 31
0.0
  0
LINE
  5
298
100
AcDbEntity
  8
LAY-1
  6
CONTINUOUS
 62
     1
100
AcDbLine
 10
252.171338
 20
619.696027
 30
0.0
 11
250.965784
 21
619.0
 31
0.0
  0
LINE
  5
299
100
AcDbEntity
  8
LAY-1
  6
CONTINUOUS
 62
     1
100
AcDbLine
 10
238.365784
 20
619.0
 30
0.0
 11
250.965784
 21
619.0
 31
0.0
  0
ARC
  5
29A
100
AcDbEntity
  8
LAY-1
  6
CONTINUOUS
 62
     1
100
AcDbCircle
 10
244.665784
 20
629.464963
 30
0.0
 40
10.464963
100
AcDbArc
 50
248.985518
 51
291.014482
  0
LINE
  5
29B
100
AcDbEntity
  8
LAY-1
  6
CONTINUOUS
 62
     1
100
AcDbLine
 10
237.160231
 20
619.696027
 30
0.0
 11
238.365784
 21
619.0
 31
0.0
  0
LINE
  5
29C
100
AcDbEntity
  8
LAY-1
  6
CONTINUOUS
 62
     1
100
AcDbLine
 10
235.93185
 20
626.5
 30
0.0
 11
237.160231
 21
625.5
 31
0.0
  0
LINE
  5
29D
100
AcDbEntity
  8
LAY-1
  6
CONTINUOUS
 62
     1
100
AcDbLine
 10
237.160231
 20
625.5
 30
0.0
 11
252.171338
 21
625.5
 31
0.0
  0
LINE
  5
29E
100
AcDbEntity
  8
LAY-1
  6
CONTINUOUS
 62
     1
100
AcDbLine
 10
252.171338
 20
625.5
 30
0.0
 11
253.353907
 21
626.5
 31
0.0
  0
ARC
  5
29F
100
AcDbEntity
  8
LAY-1
  6
CONTINUOUS
 62
     1
100
AcDbCircle
 10
146.266248
 20
624.009003
 30
0.0
 40
5.009003
100
AcDbArc
 50
239.434105
 51
270.0
  0
ARC
  5
2A0
100
AcDbEntity
  8
LAY-1
  6
CONTINUOUS
 62
     1
100
AcDbCircle
 10
133.666248
 20
624.009003
 30
0.0
 40
5.009003
100
AcDbArc
 50
270.0
 51
300.565895
  0
LINE
  5
2A1
100
AcDbEntity
  8
LAY-1
  6
CONTINUOUS
 62
     1
100
AcDbLine
 10
136.213471
 20
625.5
 30
0.0
 11
136.213471
 21
619.696027
 31
0.0
  0
LINE
  5
2A2
100
AcDbEntity
  8
LAY-1
  6
CONTINUOUS
 62
     1
100
AcDbLine
 10
132.460694
 20
619.696027
 30
0.0
 11
132.460694
 21
625.5
 31
0.0
  0
LINE
  5
2A3
100
AcDbEntity
  8
LAY-1
  6
CONTINUOUS
 62
     1
100
AcDbLine
 10
143.719025
 20
625.5
 30
0.0
 11
143.719025
 21
619.696027
 31
0.0
  0
LINE
  5
2A4
100
AcDbEntity
  8
LAY-1
  6
CONTINUOUS
 62
     1
100
AcDbLine
 10
147.471801
 20
625.5
 30
0.0
 11
147.471801
 21
619.696027
 31
0.0
  0
LINE
  5
2A5
100
AcDbEntity
  8
LAY-1
  6
CONTINUOUS
 62
     1
100
AcDbLine
 10
132.460694
 20
619.696027
 30
0.0
 11
133.666248
 21
619.0
 31
0.0
  0
LINE
  5
2A6
100
AcDbEntity
  8
LAY-1
  6
CONTINUOUS
 62
     1
100
AcDbLine
 10
146.266248
 20
619.0
 30
0.0
 11
133.666248
 21
619.0
 31
0.0
  0
ARC
  5
2A7
100
AcDbEntity
  8
LAY-1
  6
CONTINUOUS
 62
     1
100
AcDbCircle
 10
139.966248
 20
629.464963
 30
0.0
 40
10.464963
100
AcDbArc
 50
248.985518
 51
291.014482
  0
LINE
  5
2A8
100
AcDbEntity
  8
LAY-1
  6
CONTINUOUS
 62
     1
100
AcDbLine
 10
147.471801
 20
619.696027
 30
0.0
 11
146.266248
 21
619.0
 31
0.0
  0
LINE
  5
2A9
100
AcDbEntity
  8
LAY-1
  6
CONTINUOUS
 62
     1
100
AcDbLine
 10
148.700182
 20
626.5
 30
0.0
 11
147.471801
 21
625.5
 31
0.0
  0
LINE
  5
2AA
100
AcDbEntity
  8
LAY-1
  6
CONTINUOUS
 62
     1
100
AcDbLine
 10
147.471801
 20
625.5
 30
0.0
 11
132.460694
 21
625.5
 31
0.0
  0
LINE
  5
2AB
100
AcDbEntity
  8
LAY-1
  6
CONTINUOUS
 62
     1
100
AcDbLine
 10
132.460694
 20
625.5
 30
0.0
 11
131.278125
 21
626.5
 31
0.0
  0
ARC
  5
2AC
100
AcDbEntity
  8
LAY-1
  6
CONTINUOUS
 62
     1
100
AcDbCircle
 10
281.733752
 20
624.009003
 30
0.0
 40
5.009003
100
AcDbArc
 50
270.0
 51
300.565895
  0
ARC
  5
2AD
100
AcDbEntity
  8
LAY-1
  6
CONTINUOUS
 62
     1
100
AcDbCircle
 10
294.333752
 20
624.009003
 30
0.0
 40
5.009003
100
AcDbArc
 50
239.434105
 51
270.0
  0
LINE
  5
2AE
100
AcDbEntity
  8
LAY-1
  6
CONTINUOUS
 62
     1
100
AcDbLine
 10
291.786529
 20
625.5
 30
0.0
 11
291.786529
 21
619.696027
 31
0.0
  0
LINE
  5
2AF
100
AcDbEntity
  8
LAY-1
  6
CONTINUOUS
 62
     1
100
AcDbLine
 10
295.539306
 20
619.696027
 30
0.0
 11
295.539306
 21
625.5
 31
0.0
  0
LINE
  5
2B0
100
AcDbEntity
  8
LAY-1
  6
CONTINUOUS
 62
     1
100
AcDbLine
 10
284.280975
 20
625.5
 30
0.0
 11
284.280975
 21
619.696027
 31
0.0
  0
LINE
  5
2B1
100
AcDbEntity
  8
LAY-1
  6
CONTINUOUS
 62
     1
100
AcDbLine
 10
280.528199
 20
625.5
 30
0.0
 11
280.528199
 21
619.696027
 31
0.0
  0
LINE
  5
2B2
100
AcDbEntity
  8
LAY-1
  6
CONTINUOUS
 62
     1
100
AcDbLine
 10
295.539306
 20
619.696027
 30
0.0
 11
294.333752
 21
619.0
 31
0.0
  0
LINE
  5
2B3
100
AcDbEntity
  8
LAY-1
  6
CONTINUOUS
 62
     1
100
AcDbLine
 10
281.733752
 20
619.0
 30
0.0
 11
294.333752
 21
619.0
 31
0.0
  0
ARC
  5
2B4
100
AcDbEntity
  8
LAY-1
  6
CONTINUOUS
 62
     1
100
AcDbCircle
 10
288.033752
 20
629.464963
 30
0.0
 40
10.464963
100
AcDbArc
 50
248.985518
 51
291.014482
  0
LINE
  5
2B5
100
AcDbEntity
  8
LAY-1
  6
CONTINUOUS
 62
     1
100
AcDbLine
 10
280.528199
 20
619.696027
 30
0.0
 11
281.733752
 21
619.0
 31
0.0
  0
LINE
  5
2B6
100
AcDbEntity
  8
LAY-1
  6
CONTINUOUS
 62
     1
100
AcDbLine
 10
279.299818
 20
626.5
 30
0.0
 11
280.528199
 21
625.5
 31
0.0
  0
LINE
  5
2B7
100
AcDbEntity
  8
LAY-1
  6
CONTINUOUS
 62
     1
100
AcDbLine
 10
280.528199
 20
625.5
 30
0.0
 11
295.539306
 21
625.5
 31
0.0
  0
LINE
  5
2B8
100
AcDbEntity
  8
LAY-1
  6
CONTINUOUS
 62
     1
100
AcDbLine
 10
295.539306
 20
625.5
 30
0.0
 11
296.721875
 21
626.5
 31
0.0
  0
LINE
  5
2B9
100
AcDbEntity
  8
LAY-1
  6
EXLTYPE2
 62
     1
100
AcDbLine
 10
235.957121
 20
485.652092
 30
0.0
 11
240.25
 21
486.409042
 31
0.0
  0
LINE
  5
2BA
100
AcDbEntity
  8
LAY-1
  6
EXLTYPE2
 62
     1
100
AcDbLine
 10
234.033702
 20
475.965101
 30
0.0
 11
234.305636
 21
483.752275
 31
0.0
  0
ARC
  5
2BB
100
AcDbEntity
  8
LAY-1
  6
EXLTYPE2
 62
     1
100
AcDbCircle
 10
236.304418
 20
483.682476
 30
0.0
 40
2.0
100
AcDbArc
 50
100.0
 51
178.0
  0
ARC
  5
2BC
100
AcDbEntity
  8
LAY-1
  6
EXLTYPE2
 62
     1
100
AcDbCircle
 10
194.965689
 20
476.0
 30
0.0
 40
1.0
100
AcDbArc
 50
182.0
 51
270.0
  0
LINE
  5
2BD
100
AcDbEntity
  8
LAY-1
  6
EXLTYPE2
 62
     1
100
AcDbLine
 10
214.0
 20
475.0
 30
0.0
 11
194.965685
 21
475.0
 31
0.0
  0
ARC
  5
2BE
100
AcDbEntity
  8
LAY-1
  6
EXLTYPE2
 62
     1
100
AcDbCircle
 10
233.034311
 20
476.0
 30
0.0
 40
1.0
100
AcDbArc
 50
270.0
 51
358.0
  0
LINE
  5
2BF
100
AcDbEntity
  8
LAY-1
  6
EXLTYPE2
 62
     1
100
AcDbLine
 10
214.0
 20
475.0
 30
0.0
 11
233.034315
 21
475.0
 31
0.0
  0
LINE
  5
2C0
100
AcDbEntity
  8
LAY-1
  6
EXLTYPE2
 62
     1
100
AcDbLine
 10
193.966298
 20
475.965101
 30
0.0
 11
193.694364
 21
483.752275
 31
0.0
  0
ARC
  5
2C1
100
AcDbEntity
  8
LAY-1
  6
EXLTYPE2
 62
     1
100
AcDbCircle
 10
191.695582
 20
483.682476
 30
0.0
 40
2.0
100
AcDbArc
 50
2.0
 51
80.0
  0
LINE
  5
2C2
100
AcDbEntity
  8
LAY-1
  6
EXLTYPE2
 62
     1
100
AcDbLine
 10
192.042879
 20
485.652092
 30
0.0
 11
187.75
 21
486.409042
 31
0.0
  0
LINE
  5
2C3
100
AcDbEntity
  8
LAY-1
  6
EXLTYPE2
 62
     1
100
AcDbLine
 10
201.3
 20
475.0
 30
0.0
 11
201.3
 21
465.270171
 31
0.0
  0
LINE
  5
2C4
100
AcDbEntity
  8
LAY-1
  6
EXLTYPE2
 62
     1
100
AcDbLine
 10
203.5
 20
464.0
 30
0.0
 11
224.5
 21
464.0
 31
0.0
  0
LINE
  5
2C5
100
AcDbEntity
  8
LAY-1
  6
EXLTYPE2
 62
     1
100
AcDbLine
 10
226.7
 20
465.270171
 30
0.0
 11
226.7
 21
475.0
 31
0.0
  0
LINE
  5
2C6
100
AcDbEntity
  8
LAY-1
  6
EXLTYPE2
 62
     1
100
AcDbLine
 10
207.649147
 20
465.270171
 30
0.0
 11
207.649147
 21
475.0
 31
0.0
  0
ARC
  5
2C7
100
AcDbEntity
  8
LAY-1
  6
EXLTYPE2
 62
     1
100
AcDbCircle
 10
214.0
 20
480.512218
 30
0.0
 40
16.512218
100
AcDbArc
 50
247.380135
 51
292.619865
  0
LINE
  5
2C8
100
AcDbEntity
  8
LAY-1
  6
EXLTYPE2
 62
     1
100
AcDbLine
 10
224.5
 20
464.0
 30
0.0
 11
226.7
 21
465.270171
 31
0.0
  0
LINE
  5
2C9
100
AcDbEntity
  8
LAY-1
  6
EXLTYPE2
 62
     1
100
AcDbLine
 10
220.350853
 20
465.270171
 30
0.0
 11
220.350853
 21
475.0
 31
0.0
  0
LINE
  5
2CA
100
AcDbEntity
  8
LAY-1
  6
EXLTYPE2
 62
     1
100
AcDbLine
 10
203.5
 20
464.0
 30
0.0
 11
201.3
 21
465.270171
 31
0.0
  0
ARC
  5
2CB
100
AcDbEntity
  8
LAY-1
  6
EXLTYPE2
 62
     1
100
AcDbCircle
 10
203.5
 20
471.42071
 30
0.0
 40
7.419201
100
AcDbArc
 50
270.0
 51
304.003561
  0
ARC
  5
2CC
100
AcDbEntity
  8
LAY-1
  6
EXLTYPE2
 62
     1
100
AcDbCircle
 10
224.5
 20
471.42071
 30
0.0
 40
7.419201
100
AcDbArc
 50
235.996439
 51
270.0
  0
ARC
  5
2CD
100
AcDbEntity
  8
LAY-1
  6
EXLTYPE2
 62
     1
100
AcDbCircle
 10
-31.25
 20
150.0
 30
0.0
 40
28.0
100
AcDbArc
 50
166.892093
 51
193.107907
  0
LINE
  5
2CE
100
AcDbEntity
  8
LAY-1
  6
EXLTYPE2
 62
     1
100
AcDbLine
 10
-59.25
 20
139.0
 30
0.0
 11
-59.25
 21
161.0
 31
0.0
  0
LINE
  5
2CF
100
AcDbEntity
  8
LAY-1
  6
EXLTYPE2
 62
     1
100
AcDbLine
 10
-50.979549
 20
143.65
 30
0.0
 11
-58.520451
 21
143.65
 31
0.0
  0
LINE
  5
2D0
100
AcDbEntity
  8
LAY-1
  6
EXLTYPE2
 62
     1
100
AcDbLine
 10
-50.979549
 20
156.35
 30
0.0
 11
-58.520451
 21
156.35
 31
0.0
  0
ARC
  5
2D1
100
AcDbEntity
  8
LAY-1
  6
EXLTYPE2
 62
     1
100
AcDbCircle
 10
-57.523581
 20
140.475
 30
0.0
 40
7.273581
100
AcDbArc
 50
333.879595
 51
25.881497
  0
LINE
  5
2D2
100
AcDbEntity
  8
LAY-1
  6
EXLTYPE2
 62
     1
100
AcDbLine
 10
-50.25
 20
139.0
 30
0.0
 11
-50.979549
 21
137.275181
 31
0.0
  0
ARC
  5
2D3
100
AcDbEntity
  8
LAY-1
  6
EXLTYPE2
 62
     1
100
AcDbCircle
 10
-78.25
 20
150.0
 30
0.0
 40
28.0
100
AcDbArc
 50
346.892093
 51
13.107907
  0
LINE
  5
2D4
100
AcDbEntity
  8
LAY-1
  6
EXLTYPE2
 62
     1
100
AcDbLine
 10
-58.507155
 20
137.3
 30
0.0
 11
-50.969051
 21
137.3
 31
0.0
  0
LINE
  5
2D5
100
AcDbEntity
  8
LAY-1
  6
EXLTYPE2
 62
     1
100
AcDbLine
 10
-50.25
 20
139.0
 30
0.0
 11
-50.25
 21
161.0
 31
0.0
  0
LINE
  5
2D6
100
AcDbEntity
  8
LAY-1
  6
EXLTYPE2
 62
     1
100
AcDbLine
 10
-59.25
 20
161.0
 30
0.0
 11
-59.25
 21
139.0
 31
0.0
  0
ARC
  5
2D7
100
AcDbEntity
  8
LAY-1
  6
EXLTYPE2
 62
     1
100
AcDbCircle
 10
-57.523581
 20
159.525
 30
0.0
 40
7.273581
100
AcDbArc
 50
334.118503
 51
25.881497
  0
LINE
  5
2D8
100
AcDbEntity
  8
LAY-1
  6
EXLTYPE2
 62
     1
100
AcDbLine
 10
-50.25
 20
161.0
 30
0.0
 11
-50.969051
 21
162.7
 31
0.0
  0
LINE
  5
2D9
100
AcDbEntity
  8
LAY-1
  6
EXLTYPE2
 62
     1
100
AcDbLine
 10
-50.969051
 20
162.7
 30
0.0
 11
-58.530949
 21
162.7
 31
0.0
  0
LINE
  5
2DA
100
AcDbEntity
  8
LAY-1
  6
EXLTYPE2
 62
     1
100
AcDbLine
 10
-58.805582
 20
162.028501
 30
0.0
 11
-58.814974
 21
162.028501
 31
0.0
  0
LINE
  5
2DB
100
AcDbEntity
  8
LAY-1
  6
EXLTYPE2
 62
     1
100
AcDbLine
 10
-58.814974
 20
162.028501
 30
0.0
 11
-58.805582
 21
162.028501
 31
0.0
  0
LINE
  5
2DC
100
AcDbEntity
  8
LAY-1
  6
EXLTYPE2
 62
     1
100
AcDbLine
 10
-59.25
 20
161.0
 30
0.0
 11
-58.530949
 21
162.7
 31
0.0
  0
ARC
  5
2DD
100
AcDbEntity
  8
LAY-1
  6
EXLTYPE2
 62
     1
100
AcDbCircle
 10
-51.976419
 20
159.525
 30
0.0
 40
7.273581
100
AcDbArc
 50
154.118503
 51
205.881497
  0
LINE
  5
2DE
100
AcDbEntity
  8
LAY-1
  6
EXLTYPE2
 62
     1
100
AcDbLine
 10
-58.805582
 20
137.971499
 30
0.0
 11
-58.814974
 21
137.971499
 31
0.0
  0
LINE
  5
2DF
100
AcDbEntity
  8
LAY-1
  6
EXLTYPE2
 62
     1
100
AcDbLine
 10
-58.814974
 20
137.971499
 30
0.0
 11
-58.805582
 21
137.971499
 31
0.0
  0
ARC
  5
2E0
100
AcDbEntity
  8
LAY-1
  6
EXLTYPE2
 62
     1
100
AcDbCircle
 10
-51.976419
 20
140.475
 30
0.0
 40
7.273581
100
AcDbArc
 50
154.118503
 51
202.92697
  0
LINE
  5
2E1
100
AcDbEntity
  8
LAY-1
  6
EXLTYPE2
 62
     1
100
AcDbLine
 10
-59.25
 20
139.0
 30
0.0
 11
-58.530949
 21
137.3
 31
0.0
  0
LINE
  5
2E2
100
AcDbEntity
  8
LAY-1
  6
EXLTYPE2
 62
     1
100
AcDbLine
 10
-58.814974
 20
137.971499
 30
0.0
 11
-58.805582
 21
137.971499
 31
0.0
  0
LINE
  5
2E3
100
AcDbEntity
  8
LAY-1
  6
EXLTYPE2
 62
     1
100
AcDbLine
 10
-59.25
 20
143.0
 30
0.0
 11
-99.075716
 21
143.0
 31
0.0
  0
LINE
  5
2E4
100
AcDbEntity
  8
LAY-1
  6
EXLTYPE2
 62
     1
100
AcDbLine
 10
-99.134687
 20
157.0
 30
0.0
 11
-59.25
 21
157.0
 31
0.0
  0
ARC
  5
2E5
100
AcDbEntity
  8
LAY-1
  6
EXLTYPE2
 62
     1
100
AcDbCircle
 10
459.25
 20
150.0
 30
0.0
 40
28.0
100
AcDbArc
 50
346.892093
 51
13.107907
  0
LINE
  5
2E6
100
AcDbEntity
  8
LAY-1
  6
EXLTYPE2
 62
     1
100
AcDbLine
 10
487.25
 20
139.0
 30
0.0
 11
487.25
 21
161.0
 31
0.0
  0
LINE
  5
2E7
100
AcDbEntity
  8
LAY-1
  6
EXLTYPE2
 62
     1
100
AcDbLine
 10
478.979549
 20
143.65
 30
0.0
 11
486.520451
 21
143.65
 31
0.0
  0
LINE
  5
2E8
100
AcDbEntity
  8
LAY-1
  6
EXLTYPE2
 62
     1
100
AcDbLine
 10
478.979549
 20
156.35
 30
0.0
 11
486.520451
 21
156.35
 31
0.0
  0
ARC
  5
2E9
100
AcDbEntity
  8
LAY-1
  6
EXLTYPE2
 62
     1
100
AcDbCircle
 10
485.523581
 20
140.475
 30
0.0
 40
7.273581
100
AcDbArc
 50
154.118503
 51
206.120405
  0
LINE
  5
2EA
100
AcDbEntity
  8
LAY-1
  6
EXLTYPE2
 62
     1
100
AcDbLine
 10
478.25
 20
139.0
 30
0.0
 11
478.979549
 21
137.275181
 31
0.0
  0
ARC
  5
2EB
100
AcDbEntity
  8
LAY-1
  6
EXLTYPE2
 62
     1
100
AcDbCircle
 10
506.25
 20
150.0
 30
0.0
 40
28.0
100
AcDbArc
 50
166.892093
 51
193.107907
  0
LINE
  5
2EC
100
AcDbEntity
  8
LAY-1
  6
EXLTYPE2
 62
     1
100
AcDbLine
 10
486.507155
 20
137.3
 30
0.0
 11
478.969051
 21
137.3
 31
0.0
  0
LINE
  5
2ED
100
AcDbEntity
  8
LAY-1
  6
EXLTYPE2
 62
     1
100
AcDbLine
 10
478.25
 20
139.0
 30
0.0
 11
478.25
 21
161.0
 31
0.0
  0
LINE
  5
2EE
100
AcDbEntity
  8
LAY-1
  6
EXLTYPE2
 62
     1
100
AcDbLine
 10
487.25
 20
161.0
 30
0.0
 11
487.25
 21
139.0
 31
0.0
  0
ARC
  5
2EF
100
AcDbEntity
  8
LAY-1
  6
EXLTYPE2
 62
     1
100
AcDbCircle
 10
485.523581
 20
159.525
 30
0.0
 40
7.273581
100
AcDbArc
 50
154.118503
 51
205.881497
  0
LINE
  5
2F0
100
AcDbEntity
  8
LAY-1
  6
EXLTYPE2
 62
     1
100
AcDbLine
 10
478.25
 20
161.0
 30
0.0
 11
478.969051
 21
162.7
 31
0.0
  0
LINE
  5
2F1
100
AcDbEntity
  8
LAY-1
  6
EXLTYPE2
 62
     1
100
AcDbLine
 10
478.969051
 20
162.7
 30
0.0
 11
486.530949
 21
162.7
 31
0.0
  0
LINE
  5
2F2
100
AcDbEntity
  8
LAY-1
  6
EXLTYPE2
 62
     1
100
AcDbLine
 10
486.805582
 20
162.028501
 30
0.0
 11
486.814974
 21
162.028501
 31
0.0
  0
LINE
  5
2F3
100
AcDbEntity
  8
LAY-1
  6
EXLTYPE2
 62
     1
100
AcDbLine
 10
486.814974
 20
162.028501
 30
0.0
 11
486.805582
 21
162.028501
 31
0.0
  0
LINE
  5
2F4
100
AcDbEntity
  8
LAY-1
  6
EXLTYPE2
 62
     1
100
AcDbLine
 10
487.25
 20
161.0
 30
0.0
 11
486.530949
 21
162.7
 31
0.0
  0
ARC
  5
2F5
100
AcDbEntity
  8
LAY-1
  6
EXLTYPE2
 62
     1
100
AcDbCircle
 10
479.976419
 20
159.525
 30
0.0
 40
7.273581
100
AcDbArc
 50
334.118503
 51
25.881497
  0
LINE
  5
2F6
100
AcDbEntity
  8
LAY-1
  6
EXLTYPE2
 62
     1
100
AcDbLine
 10
486.805582
 20
137.971499
 30
0.0
 11
486.814974
 21
137.971499
 31
0.0
  0
LINE
  5
2F7
100
AcDbEntity
  8
LAY-1
  6
EXLTYPE2
 62
     1
100
AcDbLine
 10
486.814974
 20
137.971499
 30
0.0
 11
486.805582
 21
137.971499
 31
0.0
  0
ARC
  5
2F8
100
AcDbEntity
  8
LAY-1
  6
EXLTYPE2
 62
     1
100
AcDbCircle
 10
479.976419
 20
140.475
 30
0.0
 40
7.273581
100
AcDbArc
 50
337.07303
 51
25.881497
  0
LINE
  5
2F9
100
AcDbEntity
  8
LAY-1
  6
EXLTYPE2
 62
     1
100
AcDbLine
 10
487.25
 20
139.0
 30
0.0
 11
486.530949
 21
137.3
 31
0.0
  0
LINE
  5
2FA
100
AcDbEntity
  8
LAY-1
  6
EXLTYPE2
 62
     1
100
AcDbLine
 10
486.814974
 20
137.971499
 30
0.0
 11
486.805582
 21
137.971499
 31
0.0
  0
LINE
  5
2FB
100
AcDbEntity
  8
LAY-1
  6
EXLTYPE2
 62
     1
100
AcDbLine
 10
487.25
 20
143.0
 30
0.0
 11
527.075716
 21
143.0
 31
0.0
  0
LINE
  5
2FC
100
AcDbEntity
  8
LAY-1
  6
EXLTYPE2
 62
     1
100
AcDbLine
 10
527.134687
 20
157.0
 30
0.0
 11
487.25
 21
157.0
 31
0.0
  0
LINE
  5
2FD
100
AcDbEntity
  8
LAY-1
  6
EXLTYPE3
 62
     1
100
AcDbLine
 10
448.0
 20
150.0
 30
0.0
 11
815.713207
 21
150.0
 31
0.0
  0
LINE
  5
2FE
100
AcDbEntity
  8
LAY-1
  6
EXLTYPE3
 62
     1
100
AcDbLine
 10
-30.0
 20
150.0
 30
0.0
 11
-387.713207
 21
150.0
 31
0.0
  0
LINE
  5
2FF
100
AcDbEntity
  8
LAY-1
  6
EXLTYPE3
 62
     1
100
AcDbLine
 10
214.0
 20
387.593048
 30
0.0
 11
214.0
 21
763.0
 31
0.0
  0
LINE
  5
300
100
AcDbEntity
  8
LAY-1
  6
EXLTYPE2
 62
     1
100
AcDbLine
 10
221.0
 20
463.977735
 30
0.0
 11
221.0
 21
424.093048
 31
0.0
  0
LINE
  5
301
100
AcDbEntity
  8
LAY-1
  6
EXLTYPE2
 62
     1
100
AcDbLine
 10
207.0
 20
424.093048
 30
0.0
 11
207.0
 21
463.918764
 31
0.0
  0
LINE
  5
302
100
AcDbEntity
  8
LAY-1
  6
EXLTYPE2
 62
     1
100
AcDbLine
 10
201.971499
 20
423.658022
 30
0.0
 11
201.971499
 21
423.64863
 31
0.0
  0
LINE
  5
303
100
AcDbEntity
  8
LAY-1
  6
EXLTYPE2
 62
     1
100
AcDbLine
 10
203.0
 20
424.093048
 30
0.0
 11
201.3
 21
423.373997
 31
0.0
  0
ARC
  5
304
100
AcDbEntity
  8
LAY-1
  6
EXLTYPE2
 62
     1
100
AcDbCircle
 10
204.475
 20
416.819467
 30
0.0
 40
7.273581
100
AcDbArc
 50
64.118503
 51
112.92697
  0
LINE
  5
305
100
AcDbEntity
  8
LAY-1
  6
EXLTYPE2
 62
     1
100
AcDbLine
 10
201.971499
 20
423.658022
 30
0.0
 11
201.971499
 21
423.64863
 31
0.0
  0
LINE
  5
306
100
AcDbEntity
  8
LAY-1
  6
EXLTYPE2
 62
     1
100
AcDbLine
 10
201.971499
 20
423.64863
 30
0.0
 11
201.971499
 21
423.658022
 31
0.0
  0
ARC
  5
307
100
AcDbEntity
  8
LAY-1
  6
EXLTYPE2
 62
     1
100
AcDbCircle
 10
223.525
 20
416.819467
 30
0.0
 40
7.273581
100
AcDbArc
 50
64.118503
 51
115.881497
  0
LINE
  5
308
100
AcDbEntity
  8
LAY-1
  6
EXLTYPE2
 62
     1
100
AcDbLine
 10
225.0
 20
424.093048
 30
0.0
 11
226.7
 21
423.373997
 31
0.0
  0
LINE
  5
309
100
AcDbEntity
  8
LAY-1
  6
EXLTYPE2
 62
     1
100
AcDbLine
 10
226.028501
 20
423.658022
 30
0.0
 11
226.028501
 21
423.64863
 31
0.0
  0
LINE
  5
30A
100
AcDbEntity
  8
LAY-1
  6
EXLTYPE2
 62
     1
100
AcDbLine
 10
226.028501
 20
423.64863
 30
0.0
 11
226.028501
 21
423.658022
 31
0.0
  0
LINE
  5
30B
100
AcDbEntity
  8
LAY-1
  6
EXLTYPE2
 62
     1
100
AcDbLine
 10
226.7
 20
415.812099
 30
0.0
 11
226.7
 21
423.373997
 31
0.0
  0
LINE
  5
30C
100
AcDbEntity
  8
LAY-1
  6
EXLTYPE2
 62
     1
100
AcDbLine
 10
225.0
 20
415.093048
 30
0.0
 11
226.7
 21
415.812099
 31
0.0
  0
ARC
  5
30D
100
AcDbEntity
  8
LAY-1
  6
EXLTYPE2
 62
     1
100
AcDbCircle
 10
223.525
 20
422.366629
 30
0.0
 40
7.273581
100
AcDbArc
 50
244.118503
 51
295.881497
  0
LINE
  5
30E
100
AcDbEntity
  8
LAY-1
  6
EXLTYPE2
 62
     1
100
AcDbLine
 10
225.0
 20
424.093048
 30
0.0
 11
203.0
 21
424.093048
 31
0.0
  0
LINE
  5
30F
100
AcDbEntity
  8
LAY-1
  6
EXLTYPE2
 62
     1
100
AcDbLine
 10
203.0
 20
415.093048
 30
0.0
 11
225.0
 21
415.093048
 31
0.0
  0
LINE
  5
310
100
AcDbEntity
  8
LAY-1
  6
EXLTYPE2
 62
     1
100
AcDbLine
 10
201.3
 20
423.350203
 30
0.0
 11
201.3
 21
415.812099
 31
0.0
  0
ARC
  5
311
100
AcDbEntity
  8
LAY-1
  6
EXLTYPE2
 62
     1
100
AcDbCircle
 10
214.0
 20
443.093048
 30
0.0
 40
28.0
100
AcDbArc
 50
256.892093
 51
283.107907
  0
LINE
  5
312
100
AcDbEntity
  8
LAY-1
  6
EXLTYPE2
 62
     1
100
AcDbLine
 10
203.0
 20
415.093048
 30
0.0
 11
201.275181
 21
415.822597
 31
0.0
  0
ARC
  5
313
100
AcDbEntity
  8
LAY-1
  6
EXLTYPE2
 62
     1
100
AcDbCircle
 10
204.475
 20
422.366629
 30
0.0
 40
7.273581
100
AcDbArc
 50
243.879595
 51
295.881497
  0
LINE
  5
314
100
AcDbEntity
  8
LAY-1
  6
EXLTYPE2
 62
     1
100
AcDbLine
 10
220.35
 20
415.822597
 30
0.0
 11
220.35
 21
423.363499
 31
0.0
  0
LINE
  5
315
100
AcDbEntity
  8
LAY-1
  6
EXLTYPE2
 62
     1
100
AcDbLine
 10
207.65
 20
415.822597
 30
0.0
 11
207.65
 21
423.363499
 31
0.0
  0
LINE
  5
316
100
AcDbEntity
  8
LAY-1
  6
EXLTYPE2
 62
     1
100
AcDbLine
 10
203.0
 20
424.093048
 30
0.0
 11
225.0
 21
424.093048
 31
0.0
  0
ARC
  5
317
100
AcDbEntity
  8
LAY-1
  6
EXLTYPE2
 62
     1
100
AcDbCircle
 10
214.0
 20
396.093048
 30
0.0
 40
28.0
100
AcDbArc
 50
76.892093
 51
103.107907
  0
LINE
  5
318
100
AcDbEntity
  8
LAY-1
  6
CONTINUOUS
 62
     2
100
AcDbLine
 10
-121.315994
 20
123.75
 30
0.0
 11
-121.315994
 21
176.25
 31
0.0
  0
LINE
  5
319
100
AcDbEntity
  8
LAY-1
  6
CONTINUOUS
 62
     2
100
AcDbLine
 10
549.315994
 20
123.75
 30
0.0
 11
549.315994
 21
176.25
 31
0.0
  0
CIRCLE
  5
31A
100
AcDbEntity
  8
LAY-1
  6
CONTINUOUS
 62
     2
100
AcDbCircle
 10
214.0
 20
150.0
 30
0.0
 40
22.279434
  0
LINE
  5
31B
100
AcDbEntity
  8
LAY-1
  6
CONTINUOUS
 62
     2
100
AcDbLine
 10
214.0
 20
136.698775
 30
0.0
 11
225.519199
 21
143.349388
 31
0.0
  0
CIRCLE
  5
31C
100
AcDbEntity
  8
LAY-1
  6
CONTINUOUS
 62
     2
100
AcDbCircle
 10
139.966248
 20
119.334216
 30
0.0
 40
5.759599
  0
CIRCLE
  5
31D
100
AcDbEntity
  8
LAY-1
  6
CONTINUOUS
 62
     2
100
AcDbCircle
 10
183.334216
 20
75.966248
 30
0.0
 40
5.759599
  0
LINE
  5
31E
100
AcDbEntity
  8
LAY-1
  6
CONTINUOUS
 62
     2
100
AcDbLine
 10
143.72529
 20
112.823364
 30
0.0
 11
136.207206
 21
112.823364
 31
0.0
  0
LINE
  5
31F
100
AcDbEntity
  8
LAY-1
  6
CONTINUOUS
 62
     2
100
AcDbLine
 10
136.207206
 20
112.823364
 30
0.0
 11
132.448164
 21
119.334216
 31
0.0
  0
LINE
  5
320
100
AcDbEntity
  8
LAY-1
  6
CONTINUOUS
 62
     2
100
AcDbLine
 10
132.448164
 20
119.334216
 30
0.0
 11
136.207206
 21
125.845067
 31
0.0
  0
LINE
  5
321
100
AcDbEntity
  8
LAY-1
  6
CONTINUOUS
 62
     2
100
AcDbLine
 10
136.207206
 20
125.845067
 30
0.0
 11
143.72529
 21
125.845067
 31
0.0
  0
LINE
  5
322
100
AcDbEntity
  8
LAY-1
  6
CONTINUOUS
 62
     2
100
AcDbLine
 10
143.72529
 20
125.845067
 30
0.0
 11
147.484331
 21
119.334216
 31
0.0
  0
LINE
  5
323
100
AcDbEntity
  8
LAY-1
  6
CONTINUOUS
 62
     2
100
AcDbLine
 10
147.484331
 20
119.334216
 30
0.0
 11
143.72529
 21
112.823364
 31
0.0
  0
LINE
  5
324
100
AcDbEntity
  8
LAY-1
  6
CONTINUOUS
 62
     2
100
AcDbLine
 10
187.093258
 20
69.455396
 30
0.0
 11
179.575174
 21
69.455396
 31
0.0
  0
LINE
  5
325
100
AcDbEntity
  8
LAY-1
  6
CONTINUOUS
 62
     2
100
AcDbLine
 10
179.575174
 20
69.455396
 30
0.0
 11
175.816132
 21
75.966248
 31
0.0
  0
LINE
  5
326
100
AcDbEntity
  8
LAY-1
  6
CONTINUOUS
 62
     2
100
AcDbLine
 10
175.816132
 20
75.966248
 30
0.0
 11
179.575174
 21
82.477099
 31
0.0
  0
LINE
  5
327
100
AcDbEntity
  8
LAY-1
  6
CONTINUOUS
 62
     2
100
AcDbLine
 10
179.575174
 20
82.477099
 30
0.0
 11
187.093258
 21
82.477099
 31
0.0
  0
LINE
  5
328
100
AcDbEntity
  8
LAY-1
  6
CONTINUOUS
 62
     2
100
AcDbLine
 10
187.093258
 20
82.477099
 30
0.0
 11
190.852299
 21
75.966248
 31
0.0
  0
LINE
  5
329
100
AcDbEntity
  8
LAY-1
  6
CONTINUOUS
 62
     2
100
AcDbLine
 10
190.852299
 20
75.966248
 30
0.0
 11
187.093258
 21
69.455396
 31
0.0
  0
CIRCLE
  5
32A
100
AcDbEntity
  8
LAY-1
  6
CONTINUOUS
 62
     2
100
AcDbCircle
 10
139.966248
 20
180.665784
 30
0.0
 40
5.759599
  0
CIRCLE
  5
32B
100
AcDbEntity
  8
LAY-1
  6
CONTINUOUS
 62
     2
100
AcDbCircle
 10
183.334216
 20
224.033752
 30
0.0
 40
5.759599
  0
LINE
  5
32C
100
AcDbEntity
  8
LAY-1
  6
CONTINUOUS
 62
     2
100
AcDbLine
 10
143.72529
 20
187.176636
 30
0.0
 11
136.207206
 21
187.176636
 31
0.0
  0
LINE
  5
32D
100
AcDbEntity
  8
LAY-1
  6
CONTINUOUS
 62
     2
100
AcDbLine
 10
136.207206
 20
187.176636
 30
0.0
 11
132.448164
 21
180.665784
 31
0.0
  0
LINE
  5
32E
100
AcDbEntity
  8
LAY-1
  6
CONTINUOUS
 62
     2
100
AcDbLine
 10
132.448164
 20
180.665784
 30
0.0
 11
136.207206
 21
174.154933
 31
0.0
  0
LINE
  5
32F
100
AcDbEntity
  8
LAY-1
  6
CONTINUOUS
 62
     2
100
AcDbLine
 10
136.207206
 20
174.154933
 30
0.0
 11
143.72529
 21
174.154933
 31
0.0
  0
LINE
  5
330
100
AcDbEntity
  8
LAY-1
  6
CONTINUOUS
 62
     2
100
AcDbLine
 10
143.72529
 20
174.154933
 30
0.0
 11
147.484331
 21
180.665784
 31
0.0
  0
LINE
  5
331
100
AcDbEntity
  8
LAY-1
  6
CONTINUOUS
 62
     2
100
AcDbLine
 10
147.484331
 20
180.665784
 30
0.0
 11
143.72529
 21
187.176636
 31
0.0
  0
LINE
  5
332
100
AcDbEntity
  8
LAY-1
  6
CONTINUOUS
 62
     2
100
AcDbLine
 10
187.093258
 20
230.544604
 30
0.0
 11
179.575174
 21
230.544604
 31
0.0
  0
LINE
  5
333
100
AcDbEntity
  8
LAY-1
  6
CONTINUOUS
 62
     2
100
AcDbLine
 10
179.575174
 20
230.544604
 30
0.0
 11
175.816132
 21
224.033752
 31
0.0
  0
LINE
  5
334
100
AcDbEntity
  8
LAY-1
  6
CONTINUOUS
 62
     2
100
AcDbLine
 10
175.816132
 20
224.033752
 30
0.0
 11
179.575174
 21
217.522901
 31
0.0
  0
LINE
  5
335
100
AcDbEntity
  8
LAY-1
  6
CONTINUOUS
 62
     2
100
AcDbLine
 10
179.575174
 20
217.522901
 30
0.0
 11
187.093258
 21
217.522901
 31
0.0
  0
LINE
  5
336
100
AcDbEntity
  8
LAY-1
  6
CONTINUOUS
 62
     2
100
AcDbLine
 10
187.093258
 20
217.522901
 30
0.0
 11
190.852299
 21
224.033752
 31
0.0
  0
LINE
  5
337
100
AcDbEntity
  8
LAY-1
  6
CONTINUOUS
 62
     2
100
AcDbLine
 10
190.852299
 20
224.033752
 30
0.0
 11
187.093258
 21
230.544604
 31
0.0
  0
CIRCLE
  5
338
100
AcDbEntity
  8
LAY-1
  6
CONTINUOUS
 62
     2
100
AcDbCircle
 10
288.033752
 20
180.665784
 30
0.0
 40
5.759599
  0
CIRCLE
  5
339
100
AcDbEntity
  8
LAY-1
  6
CONTINUOUS
 62
     2
100
AcDbCircle
 10
244.665784
 20
224.033752
 30
0.0
 40
5.759599
  0
LINE
  5
33A
100
AcDbEntity
  8
LAY-1
  6
CONTINUOUS
 62
     2
100
AcDbLine
 10
284.27471
 20
187.176636
 30
0.0
 11
291.792794
 21
187.176636
 31
0.0
  0
LINE
  5
33B
100
AcDbEntity
  8
LAY-1
  6
CONTINUOUS
 62
     2
100
AcDbLine
 10
291.792794
 20
187.176636
 30
0.0
 11
295.551836
 21
180.665784
 31
0.0
  0
LINE
  5
33C
100
AcDbEntity
  8
LAY-1
  6
CONTINUOUS
 62
     2
100
AcDbLine
 10
295.551836
 20
180.665784
 30
0.0
 11
291.792794
 21
174.154933
 31
0.0
  0
LINE
  5
33D
100
AcDbEntity
  8
LAY-1
  6
CONTINUOUS
 62
     2
100
AcDbLine
 10
291.792794
 20
174.154933
 30
0.0
 11
284.27471
 21
174.154933
 31
0.0
  0
LINE
  5
33E
100
AcDbEntity
  8
LAY-1
  6
CONTINUOUS
 62
     2
100
AcDbLine
 10
284.27471
 20
174.154933
 30
0.0
 11
280.515669
 21
180.665784
 31
0.0
  0
LINE
  5
33F
100
AcDbEntity
  8
LAY-1
  6
CONTINUOUS
 62
     2
100
AcDbLine
 10
280.515669
 20
180.665784
 30
0.0
 11
284.27471
 21
187.176636
 31
0.0
  0
LINE
  5
340
100
AcDbEntity
  8
LAY-1
  6
CONTINUOUS
 62
     2
100
AcDbLine
 10
237.147701
 20
75.966248
 30
0.0
 11
240.906742
 21
69.455396
 31
0.0
  0
LINE
  5
341
100
AcDbEntity
  8
LAY-1
  6
CONTINUOUS
 62
     2
100
AcDbLine
 10
240.906742
 20
82.477099
 30
0.0
 11
237.147701
 21
75.966248
 31
0.0
  0
LINE
  5
342
100
AcDbEntity
  8
LAY-1
  6
CONTINUOUS
 62
     2
100
AcDbLine
 10
248.424826
 20
82.477099
 30
0.0
 11
240.906742
 21
82.477099
 31
0.0
  0
LINE
  5
343
100
AcDbEntity
  8
LAY-1
  6
CONTINUOUS
 62
     2
100
AcDbLine
 10
252.183868
 20
75.966248
 30
0.0
 11
248.424826
 21
82.477099
 31
0.0
  0
LINE
  5
344
100
AcDbEntity
  8
LAY-1
  6
CONTINUOUS
 62
     2
100
AcDbLine
 10
248.424826
 20
69.455396
 30
0.0
 11
252.183868
 21
75.966248
 31
0.0
  0
LINE
  5
345
100
AcDbEntity
  8
LAY-1
  6
CONTINUOUS
 62
     2
100
AcDbLine
 10
240.906742
 20
69.455396
 30
0.0
 11
248.424826
 21
69.455396
 31
0.0
  0
LINE
  5
346
100
AcDbEntity
  8
LAY-1
  6
CONTINUOUS
 62
     2
100
AcDbLine
 10
280.515669
 20
119.334216
 30
0.0
 11
284.27471
 21
112.823364
 31
0.0
  0
LINE
  5
347
100
AcDbEntity
  8
LAY-1
  6
CONTINUOUS
 62
     2
100
AcDbLine
 10
284.27471
 20
125.845067
 30
0.0
 11
280.515669
 21
119.334216
 31
0.0
  0
LINE
  5
348
100
AcDbEntity
  8
LAY-1
  6
CONTINUOUS
 62
     2
100
AcDbLine
 10
291.792794
 20
125.845067
 30
0.0
 11
284.27471
 21
125.845067
 31
0.0
  0
LINE
  5
349
100
AcDbEntity
  8
LAY-1
  6
CONTINUOUS
 62
     2
100
AcDbLine
 10
295.551836
 20
119.334216
 30
0.0
 11
291.792794
 21
125.845067
 31
0.0
  0
LINE
  5
34A
100
AcDbEntity
  8
LAY-1
  6
CONTINUOUS
 62
     2
100
AcDbLine
 10
291.792794
 20
112.823364
 30
0.0
 11
295.551836
 21
119.334216
 31
0.0
  0
LINE
  5
34B
100
AcDbEntity
  8
LAY-1
  6
CONTINUOUS
 62
     2
100
AcDbLine
 10
284.27471
 20
112.823364
 30
0.0
 11
291.792794
 21
112.823364
 31
0.0
  0
LINE
  5
34C
100
AcDbEntity
  8
LAY-1
  6
CONTINUOUS
 62
     2
100
AcDbLine
 10
239.640769
 20
189.483322
 30
0.0
 11
246.187349
 21
199.56417
 31
0.0
  0
LINE
  5
34D
100
AcDbEntity
  8
LAY-1
  6
CONTINUOUS
 62
     2
100
AcDbLine
 10
237.937403
 20
190.538655
 30
0.0
 11
239.640769
 21
189.483322
 31
0.0
  0
LINE
  5
34E
100
AcDbEntity
  8
LAY-1
  6
CONTINUOUS
 62
     2
100
AcDbLine
 10
244.488709
 20
200.626782
 30
0.0
 11
237.937403
 21
190.538655
 31
0.0
  0
LINE
  5
34F
100
AcDbEntity
  8
LAY-1
  6
CONTINUOUS
 62
     2
100
AcDbLine
 10
246.187349
 20
199.56417
 30
0.0
 11
244.488709
 21
200.626782
 31
0.0
  0
LINE
  5
350
100
AcDbEntity
  8
LAY-1
  6
CONTINUOUS
 62
     2
100
AcDbLine
 10
229.519074
 20
194.457928
 30
0.0
 11
234.122262
 21
205.571009
 31
0.0
  0
LINE
  5
351
100
AcDbEntity
  8
LAY-1
  6
CONTINUOUS
 62
     2
100
AcDbLine
 10
231.386236
 20
193.730681
 30
0.0
 11
229.519074
 21
194.457928
 31
0.0
  0
LINE
  5
352
100
AcDbEntity
  8
LAY-1
  6
CONTINUOUS
 62
     2
100
AcDbLine
 10
233.68617
 20
199.283213
 30
0.0
 11
231.386236
 21
193.730681
 31
0.0
  0
LINE
  5
353
100
AcDbEntity
  8
LAY-1
  6
CONTINUOUS
 62
     2
100
AcDbLine
 10
234.122262
 20
205.571009
 30
0.0
 11
235.986104
 21
204.835744
 31
0.0
  0
LINE
  5
354
100
AcDbEntity
  8
LAY-1
  6
CONTINUOUS
 62
     2
100
AcDbLine
 10
235.72835
 20
198.437314
 30
0.0
 11
236.031173
 21
191.50154
 31
0.0
  0
LINE
  5
355
100
AcDbEntity
  8
LAY-1
  6
CONTINUOUS
 62
     2
100
AcDbLine
 10
238.522371
 20
203.714774
 30
0.0
 11
240.450758
 21
202.764603
 31
0.0
  0
LINE
  5
356
100
AcDbEntity
  8
LAY-1
  6
CONTINUOUS
 62
     2
100
AcDbLine
 10
240.450758
 20
202.764603
 30
0.0
 11
235.72835
 21
198.437314
 31
0.0
  0
LINE
  5
357
100
AcDbEntity
  8
LAY-1
  6
CONTINUOUS
 62
     2
100
AcDbLine
 10
236.031173
 20
191.50154
 30
0.0
 11
233.979558
 21
192.56352
 31
0.0
  0
LINE
  5
358
100
AcDbEntity
  8
LAY-1
  6
CONTINUOUS
 62
     2
100
AcDbLine
 10
233.68617
 20
199.283213
 30
0.0
 11
238.522371
 21
203.714774
 31
0.0
  0
LINE
  5
359
100
AcDbEntity
  8
LAY-1
  6
CONTINUOUS
 62
     2
100
AcDbLine
 10
235.986104
 20
204.835744
 30
0.0
 11
233.68617
 21
199.283213
 31
0.0
  0
LINE
  5
35A
100
AcDbEntity
  8
LAY-1
  6
CONTINUOUS
 62
     2
100
AcDbLine
 10
233.979558
 20
192.56352
 30
0.0
 11
233.68617
 21
199.283213
 31
0.0
  0
ARC
  5
35B
100
AcDbEntity
  8
LAY-1
  6
CONTINUOUS
 62
     2
100
AcDbCircle
 10
224.189864
 20
199.926042
 30
0.0
 40
4.006678
100
AcDbArc
 50
258.0
 51
348.0
  0
ARC
  5
35C
100
AcDbEntity
  8
LAY-1
  6
CONTINUOUS
 62
     2
100
AcDbCircle
 10
225.03014
 20
203.879234
 30
0.0
 40
4.006678
100
AcDbArc
 50
348.0
 51
78.0
  0
ARC
  5
35D
100
AcDbEntity
  8
LAY-1
  6
CONTINUOUS
 62
     2
100
AcDbCircle
 10
224.216872
 20
200.053109
 30
0.0
 40
2.003339
100
AcDbArc
 50
168.0
 51
258.0
  0
ARC
  5
35E
100
AcDbEntity
  8
LAY-1
  6
CONTINUOUS
 62
     2
100
AcDbCircle
 10
225.051102
 20
203.97785
 30
0.0
 40
2.003339
100
AcDbArc
 50
348.0
 51
78.0
  0
ARC
  5
35F
100
AcDbEntity
  8
LAY-1
  6
CONTINUOUS
 62
     2
100
AcDbCircle
 10
225.051102
 20
203.97785
 30
0.0
 40
2.003339
100
AcDbArc
 50
78.0
 51
168.0
  0
LINE
  5
360
100
AcDbEntity
  8
LAY-1
  6
CONTINUOUS
 62
     2
100
AcDbLine
 10
222.257311
 20
200.469626
 30
0.0
 11
223.091541
 21
204.394367
 31
0.0
  0
ARC
  5
361
100
AcDbEntity
  8
LAY-1
  6
CONTINUOUS
 62
     2
100
AcDbCircle
 10
225.03014
 20
203.879234
 30
0.0
 40
4.006678
100
AcDbArc
 50
78.0
 51
168.0
  0
LINE
  5
362
100
AcDbEntity
  8
LAY-1
  6
CONTINUOUS
 62
     2
100
AcDbLine
 10
227.010663
 20
203.561332
 30
0.0
 11
226.176433
 21
199.636591
 31
0.0
  0
ARC
  5
363
100
AcDbEntity
  8
LAY-1
  6
CONTINUOUS
 62
     2
100
AcDbCircle
 10
224.216872
 20
200.053109
 30
0.0
 40
2.003339
100
AcDbArc
 50
258.0
 51
348.0
  0
LINE
  5
364
100
AcDbEntity
  8
LAY-1
  6
CONTINUOUS
 62
     2
100
AcDbLine
 10
220.270741
 20
200.759077
 30
0.0
 11
221.111018
 21
204.712269
 31
0.0
  0
LINE
  5
365
100
AcDbEntity
  8
LAY-1
  6
CONTINUOUS
 62
     2
100
AcDbLine
 10
228.949263
 20
203.046199
 30
0.0
 11
228.108986
 21
199.093007
 31
0.0
  0
ARC
  5
366
100
AcDbEntity
  8
LAY-1
  6
CONTINUOUS
 62
     2
100
AcDbCircle
 10
224.189864
 20
199.926042
 30
0.0
 40
4.006678
100
AcDbArc
 50
168.0
 51
258.0
  0
LINE
  5
367
100
AcDbEntity
  8
LAY-1
  6
CONTINUOUS
 62
     2
100
AcDbLine
 10
211.996661
 20
197.035821
 30
0.0
 11
211.996661
 21
209.064533
 31
0.0
  0
LINE
  5
368
100
AcDbEntity
  8
LAY-1
  6
CONTINUOUS
 62
     2
100
AcDbLine
 10
214.0
 20
197.078464
 30
0.0
 11
211.996661
 21
197.035821
 31
0.0
  0
LINE
  5
369
100
AcDbEntity
  8
LAY-1
  6
CONTINUOUS
 62
     2
100
AcDbLine
 10
214.0
 20
203.088481
 30
0.0
 11
214.0
 21
197.078464
 31
0.0
  0
LINE
  5
36A
100
AcDbEntity
  8
LAY-1
  6
CONTINUOUS
 62
     2
100
AcDbLine
 10
211.996661
 20
209.064533
 30
0.0
 11
214.0
 21
209.098497
 31
0.0
  0
ARC
  5
36B
100
AcDbEntity
  8
LAY-1
  6
CONTINUOUS
 62
     2
100
AcDbCircle
 10
202.537566
 20
199.649257
 30
0.0
 40
4.006678
100
AcDbArc
 50
283.0
 51
13.0
  0
ARC
  5
36C
100
AcDbEntity
  8
LAY-1
  6
CONTINUOUS
 62
     2
100
AcDbCircle
 10
201.628424
 20
203.587182
 30
0.0
 40
4.006678
100
AcDbArc
 50
13.0
 51
103.0
  0
ARC
  5
36D
100
AcDbEntity
  8
LAY-1
  6
CONTINUOUS
 62
     2
100
AcDbCircle
 10
202.508343
 20
199.775833
 30
0.0
 40
2.003339
100
AcDbArc
 50
193.0
 51
283.0
  0
ARC
  5
36E
100
AcDbEntity
  8
LAY-1
  6
CONTINUOUS
 62
     2
100
AcDbCircle
 10
201.605745
 20
203.685417
 30
0.0
 40
2.003339
100
AcDbArc
 50
13.0
 51
103.0
  0
ARC
  5
36F
100
AcDbEntity
  8
LAY-1
  6
CONTINUOUS
 62
     2
100
AcDbCircle
 10
201.605745
 20
203.685417
 30
0.0
 40
2.003339
100
AcDbArc
 50
103.0
 51
193.0
  0
LINE
  5
370
100
AcDbEntity
  8
LAY-1
  6
CONTINUOUS
 62
     2
100
AcDbLine
 10
200.55635
 20
199.32518
 30
0.0
 11
199.653751
 21
203.234764
 31
0.0
  0
ARC
  5
371
100
AcDbEntity
  8
LAY-1
  6
CONTINUOUS
 62
     2
100
AcDbCircle
 10
201.628424
 20
203.587182
 30
0.0
 40
4.006678
100
AcDbArc
 50
103.0
 51
193.0
  0
LINE
  5
372
100
AcDbEntity
  8
LAY-1
  6
CONTINUOUS
 62
     2
100
AcDbLine
 10
203.557738
 20
204.13607
 30
0.0
 11
204.460337
 21
200.226486
 31
0.0
  0
ARC
  5
373
100
AcDbEntity
  8
LAY-1
  6
CONTINUOUS
 62
     2
100
AcDbCircle
 10
202.508343
 20
199.775833
 30
0.0
 40
2.003339
100
AcDbArc
 50
283.0
 51
13.0
  0
LINE
  5
374
100
AcDbEntity
  8
LAY-1
  6
CONTINUOUS
 62
     2
100
AcDbLine
 10
198.633579
 20
198.747951
 30
0.0
 11
197.724437
 21
202.685876
 31
0.0
  0
LINE
  5
375
100
AcDbEntity
  8
LAY-1
  6
CONTINUOUS
 62
     2
100
AcDbLine
 10
205.532411
 20
204.488489
 30
0.0
 11
206.441553
 21
200.550564
 31
0.0
  0
ARC
  5
376
100
AcDbEntity
  8
LAY-1
  6
CONTINUOUS
 62
     2
100
AcDbCircle
 10
202.537566
 20
199.649257
 30
0.0
 40
4.006678
100
AcDbArc
 50
193.0
 51
283.0
  0
LINE
  5
377
100
AcDbEntity
  8
LAY-1
  6
CONTINUOUS
 62
     2
100
AcDbLine
 10
216.21044
 20
203.088481
 30
0.0
 11
219.144417
 21
196.796546
 31
0.0
  0
LINE
  5
378
100
AcDbEntity
  8
LAY-1
  6
CONTINUOUS
 62
     2
100
AcDbLine
 10
216.772181
 20
209.033443
 30
0.0
 11
218.917394
 21
208.893562
 31
0.0
  0
LINE
  5
379
100
AcDbEntity
  8
LAY-1
  6
CONTINUOUS
 62
     2
100
AcDbLine
 10
218.917394
 20
208.893562
 30
0.0
 11
216.21044
 21
203.088481
 31
0.0
  0
LINE
  5
37A
100
AcDbEntity
  8
LAY-1
  6
CONTINUOUS
 62
     2
100
AcDbLine
 10
219.144417
 20
196.796546
 30
0.0
 11
216.84257
 21
196.992569
 31
0.0
  0
LINE
  5
37B
100
AcDbEntity
  8
LAY-1
  6
CONTINUOUS
 62
     2
100
AcDbLine
 10
214.0
 20
203.088481
 30
0.0
 11
216.772181
 21
209.033443
 31
0.0
  0
LINE
  5
37C
100
AcDbEntity
  8
LAY-1
  6
CONTINUOUS
 62
     2
100
AcDbLine
 10
192.150629
 20
202.749048
 30
0.0
 11
194.485209
 21
203.656594
 31
0.0
  0
LINE
  5
37D
100
AcDbEntity
  8
LAY-1
  6
CONTINUOUS
 62
     2
100
AcDbLine
 10
195.983852
 20
193.494829
 30
0.0
 11
192.150629
 21
202.749048
 31
0.0
  0
LINE
  5
37E
100
AcDbEntity
  8
LAY-1
  6
CONTINUOUS
 62
     2
100
AcDbLine
 10
194.149327
 20
192.688787
 30
0.0
 11
195.983852
 21
193.494829
 31
0.0
  0
LINE
  5
37F
100
AcDbEntity
  8
LAY-1
  6
CONTINUOUS
 62
     2
100
AcDbLine
 10
190.313239
 20
201.949923
 30
0.0
 11
194.149327
 21
192.688787
 31
0.0
  0
LINE
  5
380
100
AcDbEntity
  8
LAY-1
  6
CONTINUOUS
 62
     2
100
AcDbLine
 10
193.717851
 20
205.50916
 30
0.0
 11
194.485209
 21
203.656594
 31
0.0
  0
LINE
  5
381
100
AcDbEntity
  8
LAY-1
  6
CONTINUOUS
 62
     2
100
AcDbLine
 10
187.285464
 20
202.715898
 30
0.0
 11
193.717851
 21
205.50916
 31
0.0
  0
LINE
  5
382
100
AcDbEntity
  8
LAY-1
  6
CONTINUOUS
 62
     2
100
AcDbLine
 10
188.054427
 20
200.859457
 30
0.0
 11
187.285464
 21
202.715898
 31
0.0
  0
LINE
  5
383
100
AcDbEntity
  8
LAY-1
  6
CONTINUOUS
 62
     2
100
AcDbLine
 10
190.313239
 20
201.949923
 30
0.0
 11
188.054427
 21
200.859457
 31
0.0
  0
LINE
  5
384
100
AcDbEntity
  8
LAY-1
  6
CONTINUOUS
 62
     2
100
AcDbLine
 10
188.359231
 20
189.483322
 30
0.0
 11
181.812651
 21
199.56417
 31
0.0
  0
LINE
  5
385
100
AcDbEntity
  8
LAY-1
  6
CONTINUOUS
 62
     2
100
AcDbLine
 10
190.062597
 20
190.538655
 30
0.0
 11
188.359231
 21
189.483322
 31
0.0
  0
LINE
  5
386
100
AcDbEntity
  8
LAY-1
  6
CONTINUOUS
 62
     2
100
AcDbLine
 10
183.511291
 20
200.626782
 30
0.0
 11
190.062597
 21
190.538655
 31
0.0
  0
LINE
  5
387
100
AcDbEntity
  8
LAY-1
  6
CONTINUOUS
 62
     2
100
AcDbLine
 10
181.812651
 20
199.56417
 30
0.0
 11
183.511291
 21
200.626782
 31
0.0
  0
LINE
  5
388
100
AcDbEntity
  8
LAY-1
  6
CONTINUOUS
 62
     2
100
AcDbLine
 10
214.0
 20
209.098497
 30
0.0
 11
214.0
 21
203.088481
 31
0.0
  0
ARC
  5
389
100
AcDbEntity
  8
LAY-1
  6
CONTINUOUS
 62
     2
100
AcDbCircle
 10
214.0
 20
150.0
 30
0.0
 40
70.116861
100
AcDbArc
 50
20.716794
 51
260.958904
  0
ARC
  5
38A
100
AcDbEntity
  8
LAY-1
  6
CONTINUOUS
 62
     2
100
AcDbCircle
 10
281.612688
 20
167.779633
 30
0.0
 40
0.801336
100
AcDbArc
 50
181.251098
 51
358.695599
  0
LINE
  5
38B
100
AcDbEntity
  8
LAY-1
  6
CONTINUOUS
 62
     2
100
AcDbLine
 10
208.991653
 20
82.036728
 30
0.0
 11
219.008347
 21
82.036728
 31
0.0
  0
ARC
  5
38C
100
AcDbEntity
  8
LAY-1
  6
CONTINUOUS
 62
     2
100
AcDbCircle
 10
204.984975
 20
77.20024
 30
0.0
 40
2.003339
100
AcDbArc
 50
135.0
 51
180.0
  0
ARC
  5
38D
100
AcDbEntity
  8
LAY-1
  6
CONTINUOUS
 62
     2
100
AcDbCircle
 10
223.015025
 20
77.20024
 30
0.0
 40
2.003339
100
AcDbArc
 50
0.0
 51
45.0
  0
ARC
  5
38E
100
AcDbEntity
  8
LAY-1
  6
CONTINUOUS
 62
     2
100
AcDbCircle
 10
281.612688
 20
150.0
 30
0.0
 40
17.779633
100
AcDbArc
 50
92.582522
 51
87.417423
  0
ARC
  5
38F
100
AcDbEntity
  8
LAY-1
  6
CONTINUOUS
 62
     2
100
AcDbCircle
 10
214.0
 20
83.382116
 30
0.0
 40
4.006678
100
AcDbArc
 50
45.0
 51
135.0
  0
LINE
  5
390
100
AcDbEntity
  8
LAY-1
  6
CONTINUOUS
 62
     2
100
AcDbLine
 10
204.984975
 20
78.03005
 30
0.0
 11
223.015025
 21
78.03005
 31
0.0
  0
LINE
  5
391
100
AcDbEntity
  8
LAY-1
  6
CONTINUOUS
 62
     2
100
AcDbLine
 10
216.833149
 20
86.215265
 30
0.0
 11
224.4316
 21
78.616814
 31
0.0
  0
LINE
  5
392
100
AcDbEntity
  8
LAY-1
  6
CONTINUOUS
 62
     2
100
AcDbLine
 10
216.84257
 20
196.992569
 30
0.0
 11
214.0
 21
203.088481
 31
0.0
  0
CIRCLE
  5
393
100
AcDbEntity
  8
LAY-1
  6
CONTINUOUS
 62
     2
100
AcDbCircle
 10
281.612688
 20
150.0
 30
0.0
 40
20.033389
  0
LINE
  5
394
100
AcDbEntity
  8
LAY-1
  6
CONTINUOUS
 62
     2
100
AcDbLine
 10
203.5684
 20
78.616814
 30
0.0
 11
211.166851
 21
86.215265
 31
0.0
  0
LINE
  5
395
100
AcDbEntity
  8
LAY-1
  6
CONTINUOUS
 62
     2
100
AcDbLine
 10
202.981636
 20
60.677015
 30
0.0
 11
202.981636
 21
77.20024
 31
0.0
  0
ARC
  5
396
100
AcDbEntity
  8
LAY-1
  6
CONTINUOUS
 62
     2
100
AcDbCircle
 10
214.0
 20
150.0
 30
0.0
 40
70.116861
100
AcDbArc
 50
279.041096
 51
339.521081
  0
CIRCLE
  5
397
100
AcDbEntity
  8
LAY-1
  6
CONTINUOUS
 62
     2
100
AcDbCircle
 10
244.665784
 20
75.966248
 30
0.0
 40
5.759599
  0
CIRCLE
  5
398
100
AcDbEntity
  8
LAY-1
  6
CONTINUOUS
 62
     2
100
AcDbCircle
 10
288.033752
 20
119.334216
 30
0.0
 40
5.759599
  0
LINE
  5
399
100
AcDbEntity
  8
LAY-1
  6
CONTINUOUS
 62
     2
100
AcDbLine
 10
240.906742
 20
230.544604
 30
0.0
 11
248.424826
 21
230.544604
 31
0.0
  0
LINE
  5
39A
100
AcDbEntity
  8
LAY-1
  6
CONTINUOUS
 62
     2
100
AcDbLine
 10
248.424826
 20
230.544604
 30
0.0
 11
252.183868
 21
224.033752
 31
0.0
  0
LINE
  5
39B
100
AcDbEntity
  8
LAY-1
  6
CONTINUOUS
 62
     2
100
AcDbLine
 10
252.183868
 20
224.033752
 30
0.0
 11
248.424826
 21
217.522901
 31
0.0
  0
LINE
  5
39C
100
AcDbEntity
  8
LAY-1
  6
CONTINUOUS
 62
     2
100
AcDbLine
 10
248.424826
 20
217.522901
 30
0.0
 11
240.906742
 21
217.522901
 31
0.0
  0
LINE
  5
39D
100
AcDbEntity
  8
LAY-1
  6
CONTINUOUS
 62
     2
100
AcDbLine
 10
240.906742
 20
217.522901
 30
0.0
 11
237.147701
 21
224.033752
 31
0.0
  0
LINE
  5
39E
100
AcDbEntity
  8
LAY-1
  6
CONTINUOUS
 62
     2
100
AcDbLine
 10
237.147701
 20
224.033752
 30
0.0
 11
240.906742
 21
230.544604
 31
0.0
  0
CIRCLE
  5
39F
100
AcDbEntity
  8
LAY-1
  6
CONTINUOUS
 62
     2
100
AcDbCircle
 10
214.0
 20
150.0
 30
0.0
 40
11.519199
  0
CIRCLE
  5
3A0
100
AcDbEntity
  8
LAY-1
  6
CONTINUOUS
 62
     2
100
AcDbCircle
 10
214.0
 20
150.0
 30
0.0
 40
90.0
  0
CIRCLE
  5
3A1
100
AcDbEntity
  8
LAY-1
  6
CONTINUOUS
 62
     2
100
AcDbCircle
 10
214.0
 20
150.0
 30
0.0
 40
38.063439
  0
LINE
  5
3A2
100
AcDbEntity
  8
LAY-1
  6
CONTINUOUS
 62
     2
100
AcDbLine
 10
225.018364
 20
77.20024
 30
0.0
 11
225.018364
 21
60.677015
 31
0.0
  0
LINE
  5
3A3
100
AcDbEntity
  8
LAY-1
  6
CONTINUOUS
 62
     2
100
AcDbLine
 10
202.480801
 20
143.349388
 30
0.0
 11
214.0
 21
136.698775
 31
0.0
  0
LINE
  5
3A4
100
AcDbEntity
  8
LAY-1
  6
CONTINUOUS
 62
     2
100
AcDbLine
 10
202.480801
 20
156.650612
 30
0.0
 11
202.480801
 21
143.349388
 31
0.0
  0
LINE
  5
3A5
100
AcDbEntity
  8
LAY-1
  6
CONTINUOUS
 62
     2
100
AcDbLine
 10
214.0
 20
163.301225
 30
0.0
 11
202.480801
 21
156.650612
 31
0.0
  0
LINE
  5
3A6
100
AcDbEntity
  8
LAY-1
  6
CONTINUOUS
 62
     2
100
AcDbLine
 10
225.519199
 20
156.650612
 30
0.0
 11
214.0
 21
163.301225
 31
0.0
  0
LINE
  5
3A7
100
AcDbEntity
  8
LAY-1
  6
CONTINUOUS
 62
     2
100
AcDbLine
 10
225.519199
 20
143.349388
 30
0.0
 11
225.519199
 21
156.650612
 31
0.0
  0
LINE
  5
3A8
100
AcDbEntity
  8
LAY-1
  6
CONTINUOUS
 62
     2
100
AcDbLine
 10
229.793043
 20
4.147001
 30
0.0
 11
198.206957
 21
4.147001
 31
0.0
  0
LINE
  5
3A9
100
AcDbEntity
  8
LAY-1
  6
CONTINUOUS
 62
     2
100
AcDbLine
 10
229.793043
 20
-31.645097
 30
0.0
 11
198.206957
 21
-31.645097
 31
0.0
  0
POLYLINE
  5
3AA
100
AcDbEntity
  8
LAY-1
  6
CONTINUOUS
 62
     2
100
AcDb2dPolyline
 66
     1
 10
0.0
 20
0.0
 30
0.0
 70
   128
  0
VERTEX
  5
3AB
100
AcDbEntity
  8
LAY-1
  6
CONTINUOUS
 62
     2
100
AcDbVertex
100
AcDb2dVertex
 10
214.0
 20
-28.673837
 30
0.0
  0
VERTEX
  5
3AC
100
AcDbEntity
  8
LAY-1
  6
CONTINUOUS
 62
     2
100
AcDbVertex
100
AcDb2dVertex
 10
226.925246
 20
-21.211443
 30
0.0
  0
VERTEX
  5
3AD
100
AcDbEntity
  8
LAY-1
  6
CONTINUOUS
 62
     2
100
AcDbVertex
100
AcDb2dVertex
 10
226.925246
 20
-6.286654
 30
0.0
  0
VERTEX
  5
3AE
100
AcDbEntity
  8
LAY-1
  6
CONTINUOUS
 62
     2
100
AcDbVertex
100
AcDb2dVertex
 10
214.0
 20
1.17574
 30
0.0
  0
VERTEX
  5
3AF
100
AcDbEntity
  8
LAY-1
  6
CONTINUOUS
 62
     2
100
AcDbVertex
100
AcDb2dVertex
 10
201.074754
 20
-6.286654
 30
0.0
  0
VERTEX
  5
3B0
100
AcDbEntity
  8
LAY-1
  6
CONTINUOUS
 62
     2
100
AcDbVertex
100
AcDb2dVertex
 10
201.074754
 20
-21.211443
 30
0.0
  0
VERTEX
  5
3B1
100
AcDbEntity
  8
LAY-1
  6
CONTINUOUS
 62
     2
100
AcDbVertex
100
AcDb2dVertex
 10
214.0
 20
-28.673837
 30
0.0
  0
SEQEND
  5
3B2
100
AcDbEntity
  8
LAY-1
  6
CONTINUOUS
 62
     2
  0
CIRCLE
  5
3B3
100
AcDbEntity
  8
LAY-1
  6
CONTINUOUS
 62
     2
100
AcDbCircle
 10
214.0
 20
-13.749048
 30
0.0
 40
12.925246
  0
CIRCLE
  5
3B4
100
AcDbEntity
  8
LAY-1
  6
CONTINUOUS
 62
     2
100
AcDbCircle
 10
214.0
 20
-13.749048
 30
0.0
 40
1.602671
  0
LINE
  5
3B5
100
AcDbEntity
  8
LAY-1
  6
CONTINUOUS
 62
     2
100
AcDbLine
 10
186.658084
 20
-56.998464
 30
0.0
 11
182.433137
 21
-54.55919
 31
0.0
  0
LINE
  5
3B6
100
AcDbEntity
  8
LAY-1
  6
CONTINUOUS
 62
     2
100
AcDbLine
 10
241.341916
 20
-56.998464
 30
0.0
 11
245.566863
 21
-54.55919
 31
0.0
  0
LINE
  5
3B7
100
AcDbEntity
  8
LAY-1
  6
CONTINUOUS
 62
     2
100
AcDbLine
 10
241.341916
 20
-56.998464
 30
0.0
 11
186.658084
 21
-56.998464
 31
0.0
  0
LINE
  5
3B8
100
AcDbEntity
  8
LAY-1
  6
CONTINUOUS
 62
     2
100
AcDbLine
 10
245.566863
 20
27.061093
 30
0.0
 11
245.566863
 21
-54.55919
 31
0.0
  0
LINE
  5
3B9
100
AcDbEntity
  8
LAY-1
  6
CONTINUOUS
 62
     2
100
AcDbLine
 10
241.340374
 20
29.501258
 30
0.0
 11
245.566863
 21
31.941422
 31
0.0
  0
LINE
  5
3BA
100
AcDbEntity
  8
LAY-1
  6
CONTINUOUS
 62
     2
100
AcDbLine
 10
241.340374
 20
29.501258
 30
0.0
 11
245.566863
 21
27.061093
 31
0.0
  0
LINE
  5
3BB
100
AcDbEntity
  8
LAY-1
  6
CONTINUOUS
 62
     2
100
AcDbLine
 10
182.433137
 20
27.061093
 30
0.0
 11
182.433137
 21
-54.55919
 31
0.0
  0
LINE
  5
3BC
100
AcDbEntity
  8
LAY-1
  6
CONTINUOUS
 62
     2
100
AcDbLine
 10
186.659626
 20
29.501258
 30
0.0
 11
182.433137
 21
31.941422
 31
0.0
  0
LINE
  5
3BD
100
AcDbEntity
  8
LAY-1
  6
CONTINUOUS
 62
     2
100
AcDbLine
 10
186.659626
 20
29.501258
 30
0.0
 11
182.433137
 21
27.061093
 31
0.0
  0
LINE
  5
3BE
100
AcDbEntity
  8
LAY-1
  6
CONTINUOUS
 62
     2
100
AcDbLine
 10
241.340374
 20
29.501258
 30
0.0
 11
186.659626
 21
29.501258
 31
0.0
  0
LINE
  5
3BF
100
AcDbEntity
  8
LAY-1
  6
CONTINUOUS
 62
     2
100
AcDbLine
 10
245.566863
 20
27.061093
 30
0.0
 11
245.566863
 21
25.504508
 31
0.0
  0
LINE
  5
3C0
100
AcDbEntity
  8
LAY-1
  6
CONTINUOUS
 62
     2
100
AcDbLine
 10
245.566863
 20
55.559257
 30
0.0
 11
245.566863
 21
31.941422
 31
0.0
  0
LINE
  5
3C1
100
AcDbEntity
  8
LAY-1
  6
CONTINUOUS
 62
     2
100
AcDbLine
 10
182.433137
 20
55.559257
 30
0.0
 11
182.433137
 21
31.941422
 31
0.0
  0
LINE
  5
3C2
100
AcDbEntity
  8
LAY-1
  6
CONTINUOUS
 62
     2
100
AcDbLine
 10
241.338189
 20
58.000683
 30
0.0
 11
245.566863
 21
55.559257
 31
0.0
  0
LINE
  5
3C3
100
AcDbEntity
  8
LAY-1
  6
CONTINUOUS
 62
     2
100
AcDbLine
 10
186.661811
 20
58.000683
 30
0.0
 11
182.433137
 21
55.559257
 31
0.0
  0
LINE
  5
3C4
100
AcDbEntity
  8
LAY-1
  6
CONTINUOUS
 62
     2
100
AcDbLine
 10
241.338189
 20
58.000683
 30
0.0
 11
186.661811
 21
58.000683
 31
0.0
  0
LINE
  5
3C5
100
AcDbEntity
  8
LAY-1
  6
CONTINUOUS
 62
     2
100
AcDbLine
 10
198.206957
 20
61.396502
 30
0.0
 11
198.206957
 21
-56.998464
 31
0.0
  0
LINE
  5
3C6
100
AcDbEntity
  8
LAY-1
  6
CONTINUOUS
 62
     2
100
AcDbLine
 10
-349.0
 20
93.0
 30
0.0
 11
-349.0
 21
104.217907
 31
0.0
  0
ARC
  5
3C7
100
AcDbEntity
  8
LAY-1
  6
CONTINUOUS
 62
     2
100
AcDbCircle
 10
-301.413394
 20
86.0
 30
0.0
 40
5.0
100
AcDbArc
 50
30.731321
 51
90.0
  0
ARC
  5
3C8
100
AcDbEntity
  8
LAY-1
  6
CONTINUOUS
 62
     2
100
AcDbCircle
 10
-230.0
 20
150.0
 30
0.0
 40
127.0
100
AcDbArc
 50
193.806071
 51
199.823671
  0
ARC
  5
3C9
100
AcDbEntity
  8
LAY-1
  6
CONTINUOUS
 62
     2
100
AcDbCircle
 10
-347.0
 20
93.0
 30
0.0
 40
2.0
100
AcDbArc
 50
180.0
 51
270.0
  0
ARC
  5
3CA
100
AcDbEntity
  8
LAY-1
  6
CONTINUOUS
 62
     2
100
AcDbCircle
 10
-357.0
 20
104.217907
 30
0.0
 40
8.0
100
AcDbArc
 50
0.0
 51
19.823671
  0
ARC
  5
3CB
100
AcDbEntity
  8
LAY-1
  6
CONTINUOUS
 62
     2
100
AcDbCircle
 10
-358.186388
 20
118.5
 30
0.0
 40
5.0
100
AcDbArc
 50
13.806071
 51
90.0
  0
ARC
  5
3CC
100
AcDbEntity
  8
LAY-1
  6
CONTINUOUS
 62
     2
100
AcDbCircle
 10
-358.186388
 20
181.5
 30
0.0
 40
5.0
100
AcDbArc
 50
270.0
 51
346.193929
  0
ARC
  5
3CD
100
AcDbEntity
  8
LAY-1
  6
CONTINUOUS
 62
     2
100
AcDbCircle
 10
-357.0
 20
195.782093
 30
0.0
 40
8.0
100
AcDbArc
 50
340.176329
 51
0.0
  0
ARC
  5
3CE
100
AcDbEntity
  8
LAY-1
  6
CONTINUOUS
 62
     2
100
AcDbCircle
 10
-230.0
 20
150.0
 30
0.0
 40
127.0
100
AcDbArc
 50
160.176329
 51
166.193929
  0
LINE
  5
3CF
100
AcDbEntity
  8
LAY-1
  6
CONTINUOUS
 62
     2
100
AcDbLine
 10
-358.186388
 20
176.5
 30
0.0
 11
-362.0
 21
176.5
 31
0.0
  0
LINE
  5
3D0
100
AcDbEntity
  8
LAY-1
  6
CONTINUOUS
 62
     2
100
AcDbLine
 10
-349.0
 20
207.0
 30
0.0
 11
-349.0
 21
195.782093
 31
0.0
  0
LINE
  5
3D1
100
AcDbEntity
  8
LAY-1
  6
CONTINUOUS
 62
     2
100
AcDbLine
 10
-376.4
 20
129.2
 30
0.0
 11
-368.0
 21
129.2
 31
0.0
  0
LINE
  5
3D2
100
AcDbEntity
  8
LAY-1
  6
CONTINUOUS
 62
     2
100
AcDbLine
 10
-376.4
 20
129.2
 30
0.0
 11
-378.0
 21
132.0
 31
0.0
  0
LINE
  5
3D3
100
AcDbEntity
  8
LAY-1
  6
CONTINUOUS
 62
     2
100
AcDbLine
 10
-378.0
 20
168.0
 30
0.0
 11
-376.4
 21
170.8
 31
0.0
  0
LINE
  5
3D4
100
AcDbEntity
  8
LAY-1
  6
CONTINUOUS
 62
     2
100
AcDbLine
 10
-378.0
 20
168.0
 30
0.0
 11
-378.0
 21
132.0
 31
0.0
  0
LINE
  5
3D5
100
AcDbEntity
  8
LAY-1
  6
CONTINUOUS
 62
     2
100
AcDbLine
 10
-362.0
 20
176.5
 30
0.0
 11
-368.0
 21
176.5
 31
0.0
  0
LINE
  5
3D6
100
AcDbEntity
  8
LAY-1
  6
CONTINUOUS
 62
     2
100
AcDbLine
 10
-368.0
 20
170.8
 30
0.0
 11
-376.4
 21
170.8
 31
0.0
  0
ARC
  5
3D7
100
AcDbEntity
  8
LAY-1
  6
CONTINUOUS
 62
     2
100
AcDbCircle
 10
-347.0
 20
207.0
 30
0.0
 40
2.0
100
AcDbArc
 50
150.0
 51
180.0
  0
LINE
  5
3D8
100
AcDbEntity
  8
LAY-1
  6
CONTINUOUS
 62
     2
100
AcDbLine
 10
-342.783898
 20
63.000002
 30
0.0
 11
-342.676989
 21
62.893092
 31
0.0
  0
LINE
  5
3D9
100
AcDbEntity
  8
LAY-1
  6
CONTINUOUS
 62
     2
100
AcDbLine
 10
-301.413394
 20
91.0
 30
0.0
 11
-347.0
 21
91.0
 31
0.0
  0
ARC
  5
3DA
100
AcDbEntity
  8
LAY-1
  6
CONTINUOUS
 62
     2
100
AcDbCircle
 10
-342.495457
 20
89.618619
 30
0.0
 40
18.620095
100
AcDbArc
 50
253.128157
 51
286.871843
  0
LINE
  5
3DB
100
AcDbEntity
  8
LAY-1
  6
CONTINUOUS
 62
     2
100
AcDbLine
 10
-347.899603
 20
71.800001
 30
0.0
 11
-345.29
 21
71.000001
 31
0.0
  0
LINE
  5
3DC
100
AcDbEntity
  8
LAY-1
  6
CONTINUOUS
 62
     2
100
AcDbLine
 10
-347.899603
 20
77.000001
 30
0.0
 11
-347.899603
 21
71.800001
 31
0.0
  0
LINE
  5
3DD
100
AcDbEntity
  8
LAY-1
  6
CONTINUOUS
 62
     2
100
AcDbLine
 10
-304.100397
 20
71.800001
 30
0.0
 11
-306.71
 21
71.000001
 31
0.0
  0
LINE
  5
3DE
100
AcDbEntity
  8
LAY-1
  6
CONTINUOUS
 62
     2
100
AcDbLine
 10
-304.100397
 20
77.000001
 30
0.0
 11
-304.100397
 21
71.800001
 31
0.0
  0
ARC
  5
3DF
100
AcDbEntity
  8
LAY-1
  6
CONTINUOUS
 62
     2
100
AcDbCircle
 10
-342.495457
 20
64.381383
 30
0.0
 40
18.620095
100
AcDbArc
 50
73.128157
 51
106.871843
  0
LINE
  5
3E0
100
AcDbEntity
  8
LAY-1
  6
CONTINUOUS
 62
     2
100
AcDbLine
 10
-347.899603
 20
82.200001
 30
0.0
 11
-345.29
 21
83.000001
 31
0.0
  0
LINE
  5
3E1
100
AcDbEntity
  8
LAY-1
  6
CONTINUOUS
 62
     2
100
AcDbLine
 10
-347.899603
 20
77.000001
 30
0.0
 11
-347.899603
 21
82.200001
 31
0.0
  0
LINE
  5
3E2
100
AcDbEntity
  8
LAY-1
  6
CONTINUOUS
 62
     2
100
AcDbLine
 10
-304.100397
 20
82.200001
 30
0.0
 11
-306.71
 21
83.000001
 31
0.0
  0
LINE
  5
3E3
100
AcDbEntity
  8
LAY-1
  6
CONTINUOUS
 62
     2
100
AcDbLine
 10
-304.100397
 20
77.000001
 30
0.0
 11
-304.100397
 21
82.200001
 31
0.0
  0
LINE
  5
3E4
100
AcDbEntity
  8
LAY-1
  6
CONTINUOUS
 62
     2
100
AcDbLine
 10
-326.0
 20
71.000001
 30
0.0
 11
-325.92086
 21
71.000001
 31
0.0
  0
LINE
  5
3E5
100
AcDbEntity
  8
LAY-1
  6
CONTINUOUS
 62
     2
100
AcDbLine
 10
-326.0
 20
83.000001
 30
0.0
 11
-325.92086
 21
83.000001
 31
0.0
  0
ARC
  5
3E6
100
AcDbEntity
  8
LAY-1
  6
CONTINUOUS
 62
     2
100
AcDbCircle
 10
-325.96043
 20
148.83433
 30
0.0
 40
77.834339
100
AcDbArc
 50
261.778096
 51
270.029128
  0
ARC
  5
3E7
100
AcDbEntity
  8
LAY-1
  6
CONTINUOUS
 62
     2
100
AcDbCircle
 10
-325.96043
 20
5.165672
 30
0.0
 40
77.834339
100
AcDbArc
 50
89.970872
 51
98.221904
  0
LINE
  5
3E8
100
AcDbEntity
  8
LAY-1
  6
CONTINUOUS
 62
     2
100
AcDbLine
 10
-306.71
 20
71.000001
 30
0.0
 11
-345.29
 21
71.000001
 31
0.0
  0
LINE
  5
3E9
100
AcDbEntity
  8
LAY-1
  6
CONTINUOUS
 62
     2
100
AcDbLine
 10
-306.71
 20
83.000001
 30
0.0
 11
-345.29
 21
83.000001
 31
0.0
  0
ARC
  5
3EA
100
AcDbEntity
  8
LAY-1
  6
CONTINUOUS
 62
     2
100
AcDbCircle
 10
-309.504543
 20
89.618619
 30
0.0
 40
18.620095
100
AcDbArc
 50
253.128157
 51
286.871843
  0
ARC
  5
3EB
100
AcDbEntity
  8
LAY-1
  6
CONTINUOUS
 62
     2
100
AcDbCircle
 10
-309.504543
 20
64.381383
 30
0.0
 40
18.620095
100
AcDbArc
 50
73.128157
 51
106.871843
  0
ARC
  5
3EC
100
AcDbEntity
  8
LAY-1
  6
CONTINUOUS
 62
     2
100
AcDbCircle
 10
-326.03957
 20
5.165672
 30
0.0
 40
77.834339
100
AcDbArc
 50
81.778096
 51
90.029128
  0
ARC
  5
3ED
100
AcDbEntity
  8
LAY-1
  6
CONTINUOUS
 62
     2
100
AcDbCircle
 10
-326.03957
 20
148.83433
 30
0.0
 40
77.834339
100
AcDbArc
 50
269.970872
 51
278.221904
  0
LINE
  5
3EE
100
AcDbEntity
  8
LAY-1
  6
CONTINUOUS
 62
     2
100
AcDbLine
 10
-309.310003
 20
67.595897
 30
0.0
 11
-342.689997
 21
67.595897
 31
0.0
  0
LINE
  5
3EF
100
AcDbEntity
  8
LAY-1
  6
CONTINUOUS
 62
     2
100
AcDbLine
 10
-309.310003
 20
86.404105
 30
0.0
 11
-342.689997
 21
86.404105
 31
0.0
  0
LINE
  5
3F0
100
AcDbEntity
  8
LAY-1
  6
CONTINUOUS
 62
     2
100
AcDbLine
 10
-337.09131
 20
82.200001
 30
0.0
 11
-337.09131
 21
71.800001
 31
0.0
  0
LINE
  5
3F1
100
AcDbEntity
  8
LAY-1
  6
CONTINUOUS
 62
     2
100
AcDbLine
 10
-314.90869
 20
82.200001
 30
0.0
 11
-314.90869
 21
71.800001
 31
0.0
  0
LINE
  5
3F2
100
AcDbEntity
  8
LAY-1
  6
CONTINUOUS
 62
     2
100
AcDbLine
 10
-309.203625
 20
71.000001
 30
0.0
 11
-309.453625
 21
63.0
 31
0.0
  0
LINE
  5
3F3
100
AcDbEntity
  8
LAY-1
  6
CONTINUOUS
 62
     2
100
AcDbLine
 10
-342.796375
 20
71.000001
 30
0.0
 11
-342.546607
 21
63.007415
 31
0.0
  0
LINE
  5
3F4
100
AcDbEntity
  8
LAY-1
  6
CONTINUOUS
 62
     2
100
AcDbLine
 10
-342.796375
 20
83.000001
 30
0.0
 11
-342.546375
 21
91.0
 31
0.0
  0
LINE
  5
3F5
100
AcDbEntity
  8
LAY-1
  6
CONTINUOUS
 62
     2
100
AcDbLine
 10
-309.203625
 20
83.000001
 30
0.0
 11
-309.453625
 21
91.0
 31
0.0
  0
LINE
  5
3F6
100
AcDbEntity
  8
LAY-1
  6
CONTINUOUS
 62
     2
100
AcDbLine
 10
-368.0
 20
176.5
 30
0.0
 11
-368.0
 21
123.5
 31
0.0
  0
LINE
  5
3F7
100
AcDbEntity
  8
LAY-1
  6
CONTINUOUS
 62
     2
100
AcDbLine
 10
-362.0
 20
123.5
 30
0.0
 11
-362.0
 21
176.5
 31
0.0
  0
LINE
  5
3F8
100
AcDbEntity
  8
LAY-1
  6
CONTINUOUS
 62
     2
100
AcDbLine
 10
-368.0
 20
123.5
 30
0.0
 11
-358.186388
 21
123.5
 31
0.0
  0
LINE
  5
3F9
100
AcDbEntity
  8
LAY-1
  6
CONTINUOUS
 62
     2
100
AcDbLine
 10
-301.0
 20
208.0
 30
0.0
 11
-348.732051
 21
208.0
 31
0.0
  0
ARC
  5
3FA
100
AcDbEntity
  8
LAY-1
  6
CONTINUOUS
 62
     2
100
AcDbCircle
 10
-278.204921
 20
99.797348
 30
0.0
 40
22.0
100
AcDbArc
 50
210.731321
 51
229.398849
  0
LINE
  5
3FB
100
AcDbEntity
  8
LAY-1
  6
CONTINUOUS
 62
     2
100
AcDbLine
 10
-274.0
 20
60.166309
 30
0.0
 11
-287.5
 21
60.166309
 31
0.0
  0
LINE
  5
3FC
100
AcDbEntity
  8
LAY-1
  6
CONTINUOUS
 62
     2
100
AcDbLine
 10
-287.5
 20
60.166309
 30
0.0
 11
-287.5
 21
239.866309
 31
0.0
  0
LINE
  5
3FD
100
AcDbEntity
  8
LAY-1
  6
CONTINUOUS
 62
     2
100
AcDbLine
 10
-301.267949
 20
195.782093
 30
0.0
 11
-349.0
 21
195.782093
 31
0.0
  0
LINE
  5
3FE
100
AcDbEntity
  8
LAY-1
  6
CONTINUOUS
 62
     2
100
AcDbLine
 10
-303.413394
 20
104.217907
 30
0.0
 11
-349.0
 21
104.217907
 31
0.0
  0
LINE
  5
3FF
100
AcDbEntity
  8
LAY-1
  6
CONTINUOUS
 62
     2
100
AcDbLine
 10
-300.218778
 20
97.593073
 30
0.0
 11
-301.851348
 21
113.805114
 31
0.0
  0
LINE
  5
400
100
AcDbEntity
  8
LAY-1
  6
CONTINUOUS
 62
     2
100
AcDbLine
 10
-301.851348
 20
113.805114
 30
0.0
 11
-301.851348
 21
186.194886
 31
0.0
  0
LINE
  5
401
100
AcDbEntity
  8
LAY-1
  6
CONTINUOUS
 62
     2
100
AcDbLine
 10
-300.218778
 20
202.406927
 30
0.0
 11
-301.851348
 21
186.194886
 31
0.0
  0
ARC
  5
402
100
AcDbEntity
  8
LAY-1
  6
CONTINUOUS
 62
     2
100
AcDbCircle
 10
-278.329485
 20
99.797348
 30
0.0
 40
22.0
100
AcDbArc
 50
185.750361
 51
208.443276
  0
ARC
  5
403
100
AcDbEntity
  8
LAY-1
  6
CONTINUOUS
 62
     2
100
AcDbCircle
 10
-278.329485
 20
200.202652
 30
0.0
 40
22.0
100
AcDbArc
 50
153.876746
 51
174.249639
  0
ARC
  5
404
100
AcDbEntity
  8
LAY-1
  6
CONTINUOUS
 62
     2
100
AcDbCircle
 10
-278.204921
 20
200.202652
 30
0.0
 40
22.0
100
AcDbArc
 50
130.601151
 51
149.268679
  0
ARC
  5
405
100
AcDbEntity
  8
LAY-1
  6
CONTINUOUS
 62
     2
100
AcDbCircle
 10
-301.413394
 20
214.0
 30
0.0
 40
5.0
100
AcDbArc
 50
274.742558
 51
329.268679
  0
ARC
  5
406
100
AcDbEntity
  8
LAY-1
  6
CONTINUOUS
 62
     2
100
AcDbCircle
 10
729.413394
 20
214.0
 30
0.0
 40
5.0
100
AcDbArc
 50
210.731321
 51
265.257442
  0
ARC
  5
407
100
AcDbEntity
  8
LAY-1
  6
CONTINUOUS
 62
     2
100
AcDbCircle
 10
706.204921
 20
200.202652
 30
0.0
 40
22.0
100
AcDbArc
 50
30.731321
 51
49.398849
  0
ARC
  5
408
100
AcDbEntity
  8
LAY-1
  6
CONTINUOUS
 62
     2
100
AcDbCircle
 10
706.329485
 20
200.202652
 30
0.0
 40
22.0
100
AcDbArc
 50
5.750361
 51
26.123254
  0
ARC
  5
409
100
AcDbEntity
  8
LAY-1
  6
CONTINUOUS
 62
     2
100
AcDbCircle
 10
706.329485
 20
99.797348
 30
0.0
 40
22.0
100
AcDbArc
 50
331.556724
 51
354.249639
  0
LINE
  5
40A
100
AcDbEntity
  8
LAY-1
  6
CONTINUOUS
 62
     2
100
AcDbLine
 10
728.218778
 20
202.406927
 30
0.0
 11
729.851348
 21
186.194886
 31
0.0
  0
LINE
  5
40B
100
AcDbEntity
  8
LAY-1
  6
CONTINUOUS
 62
     2
100
AcDbLine
 10
729.851348
 20
113.805114
 30
0.0
 11
729.851348
 21
186.194886
 31
0.0
  0
LINE
  5
40C
100
AcDbEntity
  8
LAY-1
  6
CONTINUOUS
 62
     2
100
AcDbLine
 10
728.218778
 20
97.593073
 30
0.0
 11
729.851348
 21
113.805114
 31
0.0
  0
LINE
  5
40D
100
AcDbEntity
  8
LAY-1
  6
CONTINUOUS
 62
     2
100
AcDbLine
 10
729.267949
 20
195.782093
 30
0.0
 11
777.0
 21
195.782093
 31
0.0
  0
LINE
  5
40E
100
AcDbEntity
  8
LAY-1
  6
CONTINUOUS
 62
     2
100
AcDbLine
 10
729.0
 20
211.0
 30
0.0
 11
729.0
 21
208.0
 31
0.0
  0
LINE
  5
40F
100
AcDbEntity
  8
LAY-1
  6
CONTINUOUS
 62
     2
100
AcDbLine
 10
731.413394
 20
104.217907
 30
0.0
 11
777.0
 21
104.217907
 31
0.0
  0
LINE
  5
410
100
AcDbEntity
  8
LAY-1
  6
CONTINUOUS
 62
     2
100
AcDbLine
 10
715.5
 20
60.166309
 30
0.0
 11
715.5
 21
239.866309
 31
0.0
  0
LINE
  5
411
100
AcDbEntity
  8
LAY-1
  6
CONTINUOUS
 62
     2
100
AcDbLine
 10
702.0
 20
60.166309
 30
0.0
 11
715.5
 21
60.166309
 31
0.0
  0
LINE
  5
412
100
AcDbEntity
  8
LAY-1
  6
CONTINUOUS
 62
     2
100
AcDbLine
 10
702.0
 20
239.866309
 30
0.0
 11
728.0
 21
239.866309
 31
0.0
  0
ARC
  5
413
100
AcDbEntity
  8
LAY-1
  6
CONTINUOUS
 62
     2
100
AcDbCircle
 10
706.204921
 20
99.797348
 30
0.0
 40
22.0
100
AcDbArc
 50
310.601151
 51
329.268679
  0
LINE
  5
414
100
AcDbEntity
  8
LAY-1
  6
CONTINUOUS
 62
     2
100
AcDbLine
 10
729.0
 20
208.0
 30
0.0
 11
776.732051
 21
208.0
 31
0.0
  0
LINE
  5
415
100
AcDbEntity
  8
LAY-1
  6
CONTINUOUS
 62
     2
100
AcDbLine
 10
796.0
 20
123.5
 30
0.0
 11
786.186388
 21
123.5
 31
0.0
  0
LINE
  5
416
100
AcDbEntity
  8
LAY-1
  6
CONTINUOUS
 62
     2
100
AcDbLine
 10
790.0
 20
123.5
 30
0.0
 11
790.0
 21
176.5
 31
0.0
  0
LINE
  5
417
100
AcDbEntity
  8
LAY-1
  6
CONTINUOUS
 62
     2
100
AcDbLine
 10
796.0
 20
176.5
 30
0.0
 11
796.0
 21
123.5
 31
0.0
  0
LINE
  5
418
100
AcDbEntity
  8
LAY-1
  6
CONTINUOUS
 62
     2
100
AcDbLine
 10
737.203625
 20
83.000001
 30
0.0
 11
737.453625
 21
91.0
 31
0.0
  0
LINE
  5
419
100
AcDbEntity
  8
LAY-1
  6
CONTINUOUS
 62
     2
100
AcDbLine
 10
770.796375
 20
83.000001
 30
0.0
 11
770.546375
 21
91.0
 31
0.0
  0
LINE
  5
41A
100
AcDbEntity
  8
LAY-1
  6
CONTINUOUS
 62
     2
100
AcDbLine
 10
770.796375
 20
71.000001
 30
0.0
 11
770.546607
 21
63.007415
 31
0.0
  0
LINE
  5
41B
100
AcDbEntity
  8
LAY-1
  6
CONTINUOUS
 62
     2
100
AcDbLine
 10
737.203625
 20
71.000001
 30
0.0
 11
737.453625
 21
63.0
 31
0.0
  0
LINE
  5
41C
100
AcDbEntity
  8
LAY-1
  6
CONTINUOUS
 62
     2
100
AcDbLine
 10
742.90869
 20
82.200001
 30
0.0
 11
742.90869
 21
71.800001
 31
0.0
  0
LINE
  5
41D
100
AcDbEntity
  8
LAY-1
  6
CONTINUOUS
 62
     2
100
AcDbLine
 10
765.09131
 20
82.200001
 30
0.0
 11
765.09131
 21
71.800001
 31
0.0
  0
LINE
  5
41E
100
AcDbEntity
  8
LAY-1
  6
CONTINUOUS
 62
     2
100
AcDbLine
 10
737.310003
 20
86.404105
 30
0.0
 11
770.689997
 21
86.404105
 31
0.0
  0
LINE
  5
41F
100
AcDbEntity
  8
LAY-1
  6
CONTINUOUS
 62
     2
100
AcDbLine
 10
737.310003
 20
67.595897
 30
0.0
 11
770.689997
 21
67.595897
 31
0.0
  0
ARC
  5
420
100
AcDbEntity
  8
LAY-1
  6
CONTINUOUS
 62
     2
100
AcDbCircle
 10
754.03957
 20
148.83433
 30
0.0
 40
77.834339
100
AcDbArc
 50
261.778096
 51
270.029128
  0
ARC
  5
421
100
AcDbEntity
  8
LAY-1
  6
CONTINUOUS
 62
     2
100
AcDbCircle
 10
754.03957
 20
5.165672
 30
0.0
 40
77.834339
100
AcDbArc
 50
89.970872
 51
98.221904
  0
ARC
  5
422
100
AcDbEntity
  8
LAY-1
  6
CONTINUOUS
 62
     2
100
AcDbCircle
 10
737.504543
 20
64.381383
 30
0.0
 40
18.620095
100
AcDbArc
 50
73.128157
 51
106.871843
  0
ARC
  5
423
100
AcDbEntity
  8
LAY-1
  6
CONTINUOUS
 62
     2
100
AcDbCircle
 10
737.504543
 20
89.618619
 30
0.0
 40
18.620095
100
AcDbArc
 50
253.128157
 51
286.871843
  0
LINE
  5
424
100
AcDbEntity
  8
LAY-1
  6
CONTINUOUS
 62
     2
100
AcDbLine
 10
734.71
 20
83.000001
 30
0.0
 11
773.29
 21
83.000001
 31
0.0
  0
LINE
  5
425
100
AcDbEntity
  8
LAY-1
  6
CONTINUOUS
 62
     2
100
AcDbLine
 10
734.71
 20
71.000001
 30
0.0
 11
773.29
 21
71.000001
 31
0.0
  0
ARC
  5
426
100
AcDbEntity
  8
LAY-1
  6
CONTINUOUS
 62
     2
100
AcDbCircle
 10
753.96043
 20
5.165672
 30
0.0
 40
77.834339
100
AcDbArc
 50
81.778096
 51
90.029128
  0
ARC
  5
427
100
AcDbEntity
  8
LAY-1
  6
CONTINUOUS
 62
     2
100
AcDbCircle
 10
753.96043
 20
148.83433
 30
0.0
 40
77.834339
100
AcDbArc
 50
269.970872
 51
278.221904
  0
LINE
  5
428
100
AcDbEntity
  8
LAY-1
  6
CONTINUOUS
 62
     2
100
AcDbLine
 10
754.0
 20
83.000001
 30
0.0
 11
753.92086
 21
83.000001
 31
0.0
  0
LINE
  5
429
100
AcDbEntity
  8
LAY-1
  6
CONTINUOUS
 62
     2
100
AcDbLine
 10
754.0
 20
71.000001
 30
0.0
 11
753.92086
 21
71.000001
 31
0.0
  0
LINE
  5
42A
100
AcDbEntity
  8
LAY-1
  6
CONTINUOUS
 62
     2
100
AcDbLine
 10
732.100397
 20
77.000001
 30
0.0
 11
732.100397
 21
82.200001
 31
0.0
  0
LINE
  5
42B
100
AcDbEntity
  8
LAY-1
  6
CONTINUOUS
 62
     2
100
AcDbLine
 10
732.100397
 20
82.200001
 30
0.0
 11
734.71
 21
83.000001
 31
0.0
  0
LINE
  5
42C
100
AcDbEntity
  8
LAY-1
  6
CONTINUOUS
 62
     2
100
AcDbLine
 10
775.899603
 20
77.000001
 30
0.0
 11
775.899603
 21
82.200001
 31
0.0
  0
LINE
  5
42D
100
AcDbEntity
  8
LAY-1
  6
CONTINUOUS
 62
     2
100
AcDbLine
 10
775.899603
 20
82.200001
 30
0.0
 11
773.29
 21
83.000001
 31
0.0
  0
ARC
  5
42E
100
AcDbEntity
  8
LAY-1
  6
CONTINUOUS
 62
     2
100
AcDbCircle
 10
770.495457
 20
64.381383
 30
0.0
 40
18.620095
100
AcDbArc
 50
73.128157
 51
106.871843
  0
LINE
  5
42F
100
AcDbEntity
  8
LAY-1
  6
CONTINUOUS
 62
     2
100
AcDbLine
 10
732.100397
 20
77.000001
 30
0.0
 11
732.100397
 21
71.800001
 31
0.0
  0
LINE
  5
430
100
AcDbEntity
  8
LAY-1
  6
CONTINUOUS
 62
     2
100
AcDbLine
 10
732.100397
 20
71.800001
 30
0.0
 11
734.71
 21
71.000001
 31
0.0
  0
LINE
  5
431
100
AcDbEntity
  8
LAY-1
  6
CONTINUOUS
 62
     2
100
AcDbLine
 10
775.899603
 20
77.000001
 30
0.0
 11
775.899603
 21
71.800001
 31
0.0
  0
LINE
  5
432
100
AcDbEntity
  8
LAY-1
  6
CONTINUOUS
 62
     2
100
AcDbLine
 10
775.899603
 20
71.800001
 30
0.0
 11
773.29
 21
71.000001
 31
0.0
  0
ARC
  5
433
100
AcDbEntity
  8
LAY-1
  6
CONTINUOUS
 62
     2
100
AcDbCircle
 10
770.495457
 20
89.618619
 30
0.0
 40
18.620095
100
AcDbArc
 50
253.128157
 51
286.871843
  0
LINE
  5
434
100
AcDbEntity
  8
LAY-1
  6
CONTINUOUS
 62
     2
100
AcDbLine
 10
729.413394
 20
91.0
 30
0.0
 11
775.0
 21
91.0
 31
0.0
  0
LINE
  5
435
100
AcDbEntity
  8
LAY-1
  6
CONTINUOUS
 62
     2
100
AcDbLine
 10
770.783898
 20
63.000002
 30
0.0
 11
770.676989
 21
62.893092
 31
0.0
  0
ARC
  5
436
100
AcDbEntity
  8
LAY-1
  6
CONTINUOUS
 62
     2
100
AcDbCircle
 10
775.0
 20
207.0
 30
0.0
 40
2.0
100
AcDbArc
 50
0.0
 51
30.0
  0
ARC
  5
437
100
AcDbEntity
  8
LAY-1
  6
CONTINUOUS
 62
     2
100
AcDbCircle
 10
733.0
 20
214.0
 30
0.0
 40
5.0
100
AcDbArc
 50
180.0
 51
216.869898
  0
LINE
  5
438
100
AcDbEntity
  8
LAY-1
  6
CONTINUOUS
 62
     2
100
AcDbLine
 10
796.0
 20
170.8
 30
0.0
 11
804.4
 21
170.8
 31
0.0
  0
LINE
  5
439
100
AcDbEntity
  8
LAY-1
  6
CONTINUOUS
 62
     2
100
AcDbLine
 10
790.0
 20
176.5
 30
0.0
 11
796.0
 21
176.5
 31
0.0
  0
LINE
  5
43A
100
AcDbEntity
  8
LAY-1
  6
CONTINUOUS
 62
     2
100
AcDbLine
 10
806.0
 20
168.0
 30
0.0
 11
806.0
 21
132.0
 31
0.0
  0
LINE
  5
43B
100
AcDbEntity
  8
LAY-1
  6
CONTINUOUS
 62
     2
100
AcDbLine
 10
806.0
 20
168.0
 30
0.0
 11
804.4
 21
170.8
 31
0.0
  0
LINE
  5
43C
100
AcDbEntity
  8
LAY-1
  6
CONTINUOUS
 62
     2
100
AcDbLine
 10
804.4
 20
129.2
 30
0.0
 11
806.0
 21
132.0
 31
0.0
  0
LINE
  5
43D
100
AcDbEntity
  8
LAY-1
  6
CONTINUOUS
 62
     2
100
AcDbLine
 10
804.4
 20
129.2
 30
0.0
 11
796.0
 21
129.2
 31
0.0
  0
LINE
  5
43E
100
AcDbEntity
  8
LAY-1
  6
CONTINUOUS
 62
     2
100
AcDbLine
 10
728.0
 20
239.866309
 30
0.0
 11
728.0
 21
214.0
 31
0.0
  0
LINE
  5
43F
100
AcDbEntity
  8
LAY-1
  6
CONTINUOUS
 62
     2
100
AcDbLine
 10
777.0
 20
207.0
 30
0.0
 11
777.0
 21
195.782093
 31
0.0
  0
LINE
  5
440
100
AcDbEntity
  8
LAY-1
  6
CONTINUOUS
 62
     2
100
AcDbLine
 10
786.186388
 20
176.5
 30
0.0
 11
790.0
 21
176.5
 31
0.0
  0
ARC
  5
441
100
AcDbEntity
  8
LAY-1
  6
CONTINUOUS
 62
     2
100
AcDbCircle
 10
658.0
 20
150.0
 30
0.0
 40
127.0
100
AcDbArc
 50
13.806071
 51
19.823671
  0
ARC
  5
442
100
AcDbEntity
  8
LAY-1
  6
CONTINUOUS
 62
     2
100
AcDbCircle
 10
785.0
 20
195.782093
 30
0.0
 40
8.0
100
AcDbArc
 50
180.0
 51
199.823671
  0
ARC
  5
443
100
AcDbEntity
  8
LAY-1
  6
CONTINUOUS
 62
     2
100
AcDbCircle
 10
786.186388
 20
181.5
 30
0.0
 40
5.0
100
AcDbArc
 50
193.806071
 51
270.0
  0
ARC
  5
444
100
AcDbEntity
  8
LAY-1
  6
CONTINUOUS
 62
     2
100
AcDbCircle
 10
786.186388
 20
118.5
 30
0.0
 40
5.0
100
AcDbArc
 50
90.0
 51
166.193929
  0
ARC
  5
445
100
AcDbEntity
  8
LAY-1
  6
CONTINUOUS
 62
     2
100
AcDbCircle
 10
785.0
 20
104.217907
 30
0.0
 40
8.0
100
AcDbArc
 50
160.176329
 51
180.0
  0
ARC
  5
446
100
AcDbEntity
  8
LAY-1
  6
CONTINUOUS
 62
     2
100
AcDbCircle
 10
775.0
 20
93.0
 30
0.0
 40
2.0
100
AcDbArc
 50
270.0
 51
0.0
  0
ARC
  5
447
100
AcDbEntity
  8
LAY-1
  6
CONTINUOUS
 62
     2
100
AcDbCircle
 10
658.0
 20
150.0
 30
0.0
 40
127.0
100
AcDbArc
 50
340.176329
 51
346.193929
  0
ARC
  5
448
100
AcDbEntity
  8
LAY-1
  6
CONTINUOUS
 62
     2
100
AcDbCircle
 10
729.413394
 20
86.0
 30
0.0
 40
5.0
100
AcDbArc
 50
90.0
 51
149.268679
  0
LINE
  5
449
100
AcDbEntity
  8
LAY-1
  6
CONTINUOUS
 62
     2
100
AcDbLine
 10
777.0
 20
93.0
 30
0.0
 11
777.0
 21
104.217907
 31
0.0
  0
LINE
  5
44A
100
AcDbEntity
  8
LAY-1
  6
CONTINUOUS
 62
     2
100
AcDbLine
 10
229.793043
 20
61.396502
 30
0.0
 11
229.793043
 21
-56.998464
 31
0.0
  0
LINE
  5
44B
100
AcDbEntity
  8
LAY-1
  6
CONTINUOUS
 62
     2
100
AcDbLine
 10
689.406952
 20
239.0
 30
0.0
 11
689.406952
 21
60.0
 31
0.0
  0
LINE
  5
44C
100
AcDbEntity
  8
LAY-1
  6
CONTINUOUS
 62
     2
100
AcDbLine
 10
-274.0
 20
60.166309
 30
0.0
 11
-274.0
 21
239.866309
 31
0.0
  0
ARC
  5
44D
100
AcDbEntity
  8
LAY-1
  6
CONTINUOUS
 62
     2
100
AcDbCircle
 10
677.906952
 20
77.171573
 30
0.0
 40
2.0
100
AcDbArc
 50
135.0
 51
180.0
  0
ARC
  5
44E
100
AcDbEntity
  8
LAY-1
  6
CONTINUOUS
 62
     2
100
AcDbCircle
 10
677.906952
 20
82.828427
 30
0.0
 40
2.0
100
AcDbArc
 50
315.0
 51
0.0
  0
LINE
  5
44F
100
AcDbEntity
  8
LAY-1
  6
CONTINUOUS
 62
     2
100
AcDbLine
 10
676.492738
 20
78.585786
 30
0.0
 11
679.321166
 21
81.414214
 31
0.0
  0
LINE
  5
450
100
AcDbEntity
  8
LAY-1
  6
CONTINUOUS
 62
     2
100
AcDbLine
 10
679.906952
 20
82.978427
 30
0.0
 11
679.906952
 21
89.5
 31
0.0
  0
ARC
  5
451
100
AcDbEntity
  8
LAY-1
  6
CONTINUOUS
 62
     2
100
AcDbCircle
 10
677.906952
 20
89.5
 30
0.0
 40
2.0
100
AcDbArc
 50
0.0
 51
90.0
  0
LINE
  5
452
100
AcDbEntity
  8
LAY-1
  6
CONTINUOUS
 62
     2
100
AcDbLine
 10
677.906952
 20
91.5
 30
0.0
 11
676.906952
 21
91.5
 31
0.0
  0
ARC
  5
453
100
AcDbEntity
  8
LAY-1
  6
CONTINUOUS
 62
     2
100
AcDbCircle
 10
676.906952
 20
92.5
 30
0.0
 40
1.0
100
AcDbArc
 50
180.0
 51
270.0
  0
ARC
  5
454
100
AcDbEntity
  8
LAY-1
  6
CONTINUOUS
 62
     2
100
AcDbCircle
 10
676.406952
 20
60.5
 30
0.0
 40
0.5
100
AcDbArc
 50
180.0
 51
270.0
  0
LINE
  5
455
100
AcDbEntity
  8
LAY-1
  6
CONTINUOUS
 62
     2
100
AcDbLine
 10
675.906952
 20
60.5
 30
0.0
 11
675.906952
 21
77.171573
 31
0.0
  0
LINE
  5
456
100
AcDbEntity
  8
LAY-1
  6
CONTINUOUS
 62
     2
100
AcDbLine
 10
675.906952
 20
92.5
 30
0.0
 11
675.906952
 21
107.053098
 31
0.0
  0
LINE
  5
457
100
AcDbEntity
  8
LAY-1
  6
CONTINUOUS
 62
     2
100
AcDbLine
 10
683.906952
 20
90.056343
 30
0.0
 11
683.906952
 21
111.828662
 31
0.0
  0
LINE
  5
458
100
AcDbEntity
  8
LAY-1
  6
CONTINUOUS
 62
     2
100
AcDbLine
 10
683.906952
 20
126.839769
 30
0.0
 11
683.906952
 21
130.0
 31
0.0
  0
LINE
  5
459
100
AcDbEntity
  8
LAY-1
  6
CONTINUOUS
 62
     2
100
AcDbLine
 10
683.906952
 20
173.160231
 30
0.0
 11
683.906952
 21
170.0
 31
0.0
  0
LINE
  5
45A
100
AcDbEntity
  8
LAY-1
  6
CONTINUOUS
 62
     2
100
AcDbLine
 10
683.906952
 20
209.943657
 30
0.0
 11
683.906952
 21
188.171338
 31
0.0
  0
ARC
  5
45B
100
AcDbEntity
  8
LAY-1
  6
CONTINUOUS
 62
     2
100
AcDbCircle
 10
687.406952
 20
85.056343
 30
0.0
 40
2.0
100
AcDbArc
 50
0.0
 51
90.0
  0
LINE
  5
45C
100
AcDbEntity
  8
LAY-1
  6
CONTINUOUS
 62
     2
100
AcDbLine
 10
686.906952
 20
87.056343
 30
0.0
 11
687.406952
 21
87.056343
 31
0.0
  0
ARC
  5
45D
100
AcDbEntity
  8
LAY-1
  6
CONTINUOUS
 62
     2
100
AcDbCircle
 10
686.906952
 20
90.056343
 30
0.0
 40
3.0
100
AcDbArc
 50
180.0
 51
270.0
  0
ARC
  5
45E
100
AcDbEntity
  8
LAY-1
  6
CONTINUOUS
 62
     2
100
AcDbCircle
 10
675.906952
 20
99.058273
 30
0.0
 40
8.0
100
AcDbArc
 50
0.0
 51
87.938877
  0
LINE
  5
45F
100
AcDbEntity
  8
LAY-1
  6
CONTINUOUS
 62
     2
100
AcDbLine
 10
677.8
 20
78.15
 30
0.0
 11
681.906952
 21
78.15
 31
0.0
  0
LINE
  5
460
100
AcDbEntity
  8
LAY-1
  6
CONTINUOUS
 62
     2
100
AcDbLine
 10
680.6
 20
79.910759
 30
0.0
 11
681.906952
 21
79.910759
 31
0.0
  0
LINE
  5
461
100
AcDbEntity
  8
LAY-1
  6
CONTINUOUS
 62
     2
100
AcDbLine
 10
681.811477
 20
130.0
 30
0.0
 11
689.406952
 21
130.0
 31
0.0
  0
LINE
  5
462
100
AcDbEntity
  8
LAY-1
  6
CONTINUOUS
 62
     2
100
AcDbLine
 10
681.811477
 20
170.0
 30
0.0
 11
689.406952
 21
170.0
 31
0.0
  0
ELLIPSE
  5
463
100
AcDbEntity
  8
LAY-1
  6
CONTINUOUS
 62
     2
100
AcDbEllipse
 10
681.811477
 20
150.0
 30
0.0
 11
-0.0000000000000121
 21
19.999999998359968
 31
0.0
210
0.0
220
0.0
230
1.0
 40
0.158886
 41
0.0
 42
6.2831853071796004
  0
LINE
  5
464
100
AcDbEntity
  8
LAY-1
  6
CONTINUOUS
 62
     2
100
AcDbLine
 10
687.906952
 20
199.5
 30
0.0
 11
687.82003
 21
199.5
 31
0.0
  0
ARC
  5
465
100
AcDbEntity
  8
LAY-1
  6
CONTINUOUS
 62
     2
100
AcDbCircle
 10
675.906952
 20
200.941727
 30
0.0
 40
8.0
100
AcDbArc
 50
272.061123
 51
0.0
  0
ARC
  5
466
100
AcDbEntity
  8
LAY-1
  6
CONTINUOUS
 62
     2
100
AcDbCircle
 10
687.406952
 20
214.943657
 30
0.0
 40
2.0
100
AcDbArc
 50
270.0
 51
0.0
  0
LINE
  5
467
100
AcDbEntity
  8
LAY-1
  6
CONTINUOUS
 62
     2
100
AcDbLine
 10
686.906952
 20
212.943657
 30
0.0
 11
687.406952
 21
212.943657
 31
0.0
  0
ARC
  5
468
100
AcDbEntity
  8
LAY-1
  6
CONTINUOUS
 62
     2
100
AcDbCircle
 10
686.906952
 20
209.943657
 30
0.0
 40
3.0
100
AcDbArc
 50
90.0
 51
180.0
  0
ARC
  5
469
100
AcDbEntity
  8
LAY-1
  6
CONTINUOUS
 62
     2
100
AcDbCircle
 10
690.406952
 20
239.0
 30
0.0
 40
1.0
100
AcDbArc
 50
90.0
 51
180.0
  0
LINE
  5
46A
100
AcDbEntity
  8
LAY-1
  6
CONTINUOUS
 62
     2
100
AcDbLine
 10
726.5
 20
-26.500003
 30
0.0
 11
727.5
 21
-26.500003
 31
0.0
  0
LINE
  5
46B
100
AcDbEntity
  8
LAY-1
  6
CONTINUOUS
 62
     2
100
AcDbLine
 10
726.5
 20
9.5
 30
0.0
 11
727.5
 21
9.5
 31
0.0
  0
LINE
  5
46C
100
AcDbEntity
  8
LAY-1
  6
CONTINUOUS
 62
     2
100
AcDbLine
 10
727.0
 20
4.499998
 30
0.0
 11
727.5
 21
4.499998
 31
0.0
  0
LINE
  5
46D
100
AcDbEntity
  8
LAY-1
  6
CONTINUOUS
 62
     2
100
AcDbLine
 10
724.0
 20
-21.500002
 30
0.0
 11
727.5
 21
-21.500002
 31
0.0
  0
LINE
  5
46E
100
AcDbEntity
  8
LAY-1
  6
CONTINUOUS
 62
     2
100
AcDbLine
 10
724.0
 20
-19.250002
 30
0.0
 11
724.0
 21
-21.500002
 31
0.0
  0
LINE
  5
46F
100
AcDbEntity
  8
LAY-1
  6
CONTINUOUS
 62
     2
100
AcDbLine
 10
724.0
 20
-21.500002
 30
0.0
 11
727.5
 21
-21.500002
 31
0.0
  0
LINE
  5
470
100
AcDbEntity
  8
LAY-1
  6
CONTINUOUS
 62
     2
100
AcDbLine
 10
724.0
 20
4.499998
 30
0.0
 11
727.5
 21
4.499998
 31
0.0
  0
LINE
  5
471
100
AcDbEntity
  8
LAY-1
  6
CONTINUOUS
 62
     2
100
AcDbLine
 10
724.5
 20
4.499998
 30
0.0
 11
727.5
 21
4.499998
 31
0.0
  0
ARC
  5
472
100
AcDbEntity
  8
LAY-1
  6
CONTINUOUS
 62
     2
100
AcDbCircle
 10
713.502704
 20
0.249998
 30
0.0
 40
3.52
100
AcDbArc
 50
90.0
 51
180.0
  0
ARC
  5
473
100
AcDbEntity
  8
LAY-1
  6
CONTINUOUS
 62
     2
100
AcDbCircle
 10
713.502704
 20
-17.250002
 30
0.0
 40
3.52
100
AcDbArc
 50
180.0
 51
270.0
  0
LINE
  5
474
100
AcDbEntity
  8
LAY-1
  6
CONTINUOUS
 62
     2
100
AcDbLine
 10
708.693819
 20
-8.500002
 30
0.0
 11
709.982704
 21
-10.497773
 31
0.0
  0
LINE
  5
475
100
AcDbEntity
  8
LAY-1
  6
CONTINUOUS
 62
     2
100
AcDbLine
 10
708.693819
 20
-8.500002
 30
0.0
 11
709.982704
 21
-6.50223
 31
0.0
  0
LINE
  5
476
100
AcDbEntity
  8
LAY-1
  6
CONTINUOUS
 62
     2
100
AcDbLine
 10
724.0
 20
-20.770002
 30
0.0
 11
713.502704
 21
-20.770002
 31
0.0
  0
LINE
  5
477
100
AcDbEntity
  8
LAY-1
  6
CONTINUOUS
 62
     2
100
AcDbLine
 10
727.5
 20
9.5
 30
0.0
 11
727.5
 21
-26.500003
 31
0.0
  0
LINE
  5
478
100
AcDbEntity
  8
LAY-1
  6
CONTINUOUS
 62
     2
100
AcDbLine
 10
724.0
 20
3.769998
 30
0.0
 11
713.502704
 21
3.769998
 31
0.0
  0
LINE
  5
479
100
AcDbEntity
  8
LAY-1
  6
CONTINUOUS
 62
     2
100
AcDbLine
 10
724.0
 20
4.499998
 30
0.0
 11
724.0
 21
-21.500002
 31
0.0
  0
LINE
  5
47A
100
AcDbEntity
  8
LAY-1
  6
CONTINUOUS
 62
     2
100
AcDbLine
 10
709.982704
 20
-17.250002
 30
0.0
 11
709.982704
 21
-8.500002
 31
0.0
  0
LINE
  5
47B
100
AcDbEntity
  8
LAY-1
  6
CONTINUOUS
 62
     2
100
AcDbLine
 10
709.982704
 20
0.249998
 30
0.0
 11
709.982704
 21
-8.500002
 31
0.0
  0
LINE
  5
47C
100
AcDbEntity
  8
LAY-1
  6
CONTINUOUS
 62
     2
100
AcDbLine
 10
784.5
 20
46.732051
 30
0.0
 11
784.411152
 21
46.732051
 31
0.0
  0
LINE
  5
47D
100
AcDbEntity
  8
LAY-1
  6
CONTINUOUS
 62
     2
100
AcDbLine
 10
724.0
 20
-15.9
 30
0.0
 11
727.5
 21
-15.9
 31
0.0
  0
LINE
  5
47E
100
AcDbEntity
  8
LAY-1
  6
CONTINUOUS
 62
     2
100
AcDbLine
 10
724.0
 20
-0.902535
 30
0.0
 11
727.5
 21
-0.902535
 31
0.0
  0
LINE
  5
47F
100
AcDbEntity
  8
LAY-1
  6
CONTINUOUS
 62
     2
100
AcDbLine
 10
778.13328
 20
-52.0
 30
0.0
 11
729.86672
 21
-52.0
 31
0.0
  0
LINE
  5
480
100
AcDbEntity
  8
LAY-1
  6
CONTINUOUS
 62
     2
100
AcDbLine
 10
726.500003
 20
-50.056223
 30
0.0
 11
726.500003
 21
-26.500003
 31
0.0
  0
LINE
  5
481
100
AcDbEntity
  8
LAY-1
  6
CONTINUOUS
 62
     2
100
AcDbLine
 10
726.500003
 20
9.5
 30
0.0
 11
726.500003
 21
33.056225
 31
0.0
  0
LINE
  5
482
100
AcDbEntity
  8
LAY-1
  6
CONTINUOUS
 62
     2
100
AcDbLine
 10
781.5
 20
-50.056223
 30
0.0
 11
781.5
 21
33.056223
 31
0.0
  0
LINE
  5
483
100
AcDbEntity
  8
LAY-1
  6
CONTINUOUS
 62
     2
100
AcDbLine
 10
778.13328
 20
35.0
 30
0.0
 11
729.86672
 21
35.0
 31
0.0
  0
LINE
  5
484
100
AcDbEntity
  8
LAY-1
  6
CONTINUOUS
 62
     2
100
AcDbLine
 10
778.13328
 20
63.0
 30
0.0
 11
729.86672
 21
63.0
 31
0.0
  0
LINE
  5
485
100
AcDbEntity
  8
LAY-1
  6
CONTINUOUS
 62
     2
100
AcDbLine
 10
726.500003
 20
36.943775
 30
0.0
 11
726.500003
 21
61.056225
 31
0.0
  0
LINE
  5
486
100
AcDbEntity
  8
LAY-1
  6
CONTINUOUS
 62
     2
100
AcDbLine
 10
781.5
 20
36.943777
 30
0.0
 11
781.5
 21
61.056223
 31
0.0
  0
LINE
  5
487
100
AcDbEntity
  8
LAY-1
  6
CONTINUOUS
 62
     2
100
AcDbLine
 10
778.13328
 20
-52.0
 30
0.0
 11
781.5
 21
-50.056223
 31
0.0
  0
LINE
  5
488
100
AcDbEntity
  8
LAY-1
  6
CONTINUOUS
 62
     2
100
AcDbLine
 10
778.13328
 20
34.417392
 30
0.0
 11
778.13328
 21
-51.417392
 31
0.0
  0
ELLIPSE
  5
489
100
AcDbEntity
  8
LAY-1
  6
CONTINUOUS
 62
     2
100
AcDbEllipse
 10
769.433361
 20
-50.056223
 30
0.0
 11
-12.066638515574995
 21
0.0000000000000015
 31
0.0
210
0.0
220
0.0
230
1.0
 40
0.162789
 41
0.0
 42
2.5919427190237663
  0
LINE
  5
48A
100
AcDbEntity
  8
LAY-1
  6
CONTINUOUS
 62
     2
100
AcDbLine
 10
757.36672
 20
33.056223
 30
0.0
 11
757.36672
 21
-50.056223
 31
0.0
  0
LINE
  5
48B
100
AcDbEntity
  8
LAY-1
  6
CONTINUOUS
 62
     2
100
AcDbLine
 10
757.36672
 20
-50.056223
 30
0.0
 11
750.63328
 21
-50.056223
 31
0.0
  0
LINE
  5
48C
100
AcDbEntity
  8
LAY-1
  6
CONTINUOUS
 62
     2
100
AcDbLine
 10
750.63328
 20
33.056223
 30
0.0
 11
750.63328
 21
-50.056223
 31
0.0
  0
ELLIPSE
  5
48D
100
AcDbEntity
  8
LAY-1
  6
CONTINUOUS
 62
     2
100
AcDbEllipse
 10
738.566641
 20
-50.056223
 30
0.0
 11
-12.066638515574995
 21
0.0000000000000015
 31
0.0
210
0.0
220
0.0
230
1.0
 40
0.162789
 41
0.5496499345686216
 42
3.1415926535897931
  0
LINE
  5
48E
100
AcDbEntity
  8
LAY-1
  6
CONTINUOUS
 62
     2
100
AcDbLine
 10
726.500003
 20
-50.056223
 30
0.0
 11
729.866723
 21
-52.0
 31
0.0
  0
LINE
  5
48F
100
AcDbEntity
  8
LAY-1
  6
CONTINUOUS
 62
     2
100
AcDbLine
 10
729.86672
 20
34.417392
 30
0.0
 11
729.86672
 21
-51.417392
 31
0.0
  0
LINE
  5
490
100
AcDbEntity
  8
LAY-1
  6
CONTINUOUS
 62
     2
100
AcDbLine
 10
729.86672
 20
35.0
 30
0.0
 11
726.500003
 21
36.943775
 31
0.0
  0
ELLIPSE
  5
491
100
AcDbEntity
  8
LAY-1
  6
CONTINUOUS
 62
     2
100
AcDbEllipse
 10
738.566641
 20
36.943777
 30
0.0
 11
-12.066638515574995
 21
0.0000000000000015
 31
0.0
210
0.0
220
0.0
230
1.0
 40
0.162789
 41
0.5496499345686216
 42
3.1415926535897931
  0
ELLIPSE
  5
492
100
AcDbEntity
  8
LAY-1
  6
CONTINUOUS
 62
     2
100
AcDbEllipse
 10
738.566641
 20
33.056223
 30
0.0
 11
-12.066638515574995
 21
0.0000000000000015
 31
0.0
210
0.0
220
0.0
230
1.0
 40
0.162789
 41
3.1415926535897931
 42
5.7335353726109775
  0
LINE
  5
493
100
AcDbEntity
  8
LAY-1
  6
CONTINUOUS
 62
     2
100
AcDbLine
 10
729.86672
 20
35.0
 30
0.0
 11
726.500003
 21
33.056225
 31
0.0
  0
LINE
  5
494
100
AcDbEntity
  8
LAY-1
  6
CONTINUOUS
 62
     2
100
AcDbLine
 10
757.36672
 20
33.056223
 30
0.0
 11
750.63328
 21
33.056223
 31
0.0
  0
LINE
  5
495
100
AcDbEntity
  8
LAY-1
  6
CONTINUOUS
 62
     2
100
AcDbLine
 10
757.36672
 20
36.943777
 30
0.0
 11
750.63328
 21
36.943777
 31
0.0
  0
ELLIPSE
  5
496
100
AcDbEntity
  8
LAY-1
  6
CONTINUOUS
 62
     2
100
AcDbEllipse
 10
769.433361
 20
36.943777
 30
0.0
 11
-12.066638515574995
 21
0.0000000000000015
 31
0.0
210
0.0
220
0.0
230
1.0
 40
0.162789
 41
0.0
 42
2.5919427190237663
  0
ELLIPSE
  5
497
100
AcDbEntity
  8
LAY-1
  6
CONTINUOUS
 62
     2
100
AcDbEllipse
 10
769.433361
 20
33.056223
 30
0.0
 11
-12.066638515574995
 21
0.0000000000000015
 31
0.0
210
0.0
220
0.0
230
1.0
 40
0.162789
 41
3.6912425881558342
 42
0.0
  0
LINE
  5
498
100
AcDbEntity
  8
LAY-1
  6
CONTINUOUS
 62
     2
100
AcDbLine
 10
778.13328
 20
35.0
 30
0.0
 11
781.5
 21
33.056223
 31
0.0
  0
LINE
  5
499
100
AcDbEntity
  8
LAY-1
  6
CONTINUOUS
 62
     2
100
AcDbLine
 10
778.13328
 20
35.0
 30
0.0
 11
781.5
 21
36.943777
 31
0.0
  0
LINE
  5
49A
100
AcDbEntity
  8
LAY-1
  6
CONTINUOUS
 62
     2
100
AcDbLine
 10
778.13328
 20
62.417392
 30
0.0
 11
778.13328
 21
35.582608
 31
0.0
  0
LINE
  5
49B
100
AcDbEntity
  8
LAY-1
  6
CONTINUOUS
 62
     2
100
AcDbLine
 10
757.36672
 20
61.056223
 30
0.0
 11
757.36672
 21
36.943777
 31
0.0
  0
LINE
  5
49C
100
AcDbEntity
  8
LAY-1
  6
CONTINUOUS
 62
     2
100
AcDbLine
 10
750.63328
 20
61.056223
 30
0.0
 11
750.63328
 21
36.943777
 31
0.0
  0
LINE
  5
49D
100
AcDbEntity
  8
LAY-1
  6
CONTINUOUS
 62
     2
100
AcDbLine
 10
757.36672
 20
61.056223
 30
0.0
 11
750.63328
 21
61.056223
 31
0.0
  0
ELLIPSE
  5
49E
100
AcDbEntity
  8
LAY-1
  6
CONTINUOUS
 62
     2
100
AcDbEllipse
 10
769.433361
 20
61.056223
 30
0.0
 11
-12.066638515574995
 21
0.0000000000000015
 31
0.0
210
0.0
220
0.0
230
1.0
 40
0.162789
 41
3.6912425881558342
 42
0.0
  0
ELLIPSE
  5
49F
100
AcDbEntity
  8
LAY-1
  6
CONTINUOUS
 62
     2
100
AcDbEllipse
 10
738.566641
 20
61.056223
 30
0.0
 11
-12.066638515574995
 21
0.0000000000000015
 31
0.0
210
0.0
220
0.0
230
1.0
 40
0.162789
 41
3.1415926535897931
 42
5.7335353726109775
  0
LINE
  5
4A0
100
AcDbEntity
  8
LAY-1
  6
CONTINUOUS
 62
     2
100
AcDbLine
 10
729.86672
 20
62.417392
 30
0.0
 11
729.86672
 21
35.582608
 31
0.0
  0
LINE
  5
4A1
100
AcDbEntity
  8
LAY-1
  6
CONTINUOUS
 62
     2
100
AcDbLine
 10
778.13328
 20
63.0
 30
0.0
 11
781.5
 21
61.056223
 31
0.0
  0
LINE
  5
4A2
100
AcDbEntity
  8
LAY-1
  6
CONTINUOUS
 62
     2
100
AcDbLine
 10
729.86672
 20
63.0
 30
0.0
 11
726.5
 21
61.056223
 31
0.0
  0
LINE
  5
4A3
100
AcDbEntity
  8
LAY-1
  6
CONTINUOUS
 62
     2
100
AcDbLine
 10
701.906952
 20
74.5
 30
0.0
 11
701.606952
 21
74.5
 31
0.0
  0
LINE
  5
4A4
100
AcDbEntity
  8
LAY-1
  6
CONTINUOUS
 62
     2
100
AcDbLine
 10
701.906952
 20
74.5
 30
0.0
 11
701.906952
 21
150.0
 31
0.0
  0
LINE
  5
4A5
100
AcDbEntity
  8
LAY-1
  6
CONTINUOUS
 62
     2
100
AcDbLine
 10
701.906952
 20
225.5
 30
0.0
 11
701.906952
 21
150.0
 31
0.0
  0
LINE
  5
4A6
100
AcDbEntity
  8
LAY-1
  6
CONTINUOUS
 62
     2
100
AcDbLine
 10
701.906952
 20
225.5
 30
0.0
 11
701.606952
 21
225.5
 31
0.0
  0
LINE
  5
4A7
100
AcDbEntity
  8
LAY-1
  6
CONTINUOUS
 62
     2
100
AcDbLine
 10
701.606952
 20
240.0
 30
0.0
 11
690.406952
 21
240.0
 31
0.0
  0
LINE
  5
4A8
100
AcDbEntity
  8
LAY-1
  6
CONTINUOUS
 62
     2
100
AcDbLine
 10
559.552399
 20
188.749074
 30
0.0
 11
676.194677
 21
192.946902
 31
0.0
  0
ARC
  5
4A9
100
AcDbEntity
  8
LAY-1
  6
CONTINUOUS
 62
     2
100
AcDbCircle
 10
559.912055
 20
178.755544
 30
0.0
 40
10.0
100
AcDbArc
 50
92.061123
 51
170.0
  0
ARC
  5
4AA
100
AcDbEntity
  8
LAY-1
  6
CONTINUOUS
 62
     2
100
AcDbCircle
 10
559.912055
 20
121.244456
 30
0.0
 40
10.0
100
AcDbArc
 50
190.0
 51
267.938877
  0
ARC
  5
4AB
100
AcDbEntity
  8
LAY-1
  6
CONTINUOUS
 62
     2
100
AcDbCircle
 10
519.754629
 20
165.297561
 30
0.0
 40
1.0
100
AcDbArc
 50
270.0
 51
330.0
  0
LINE
  5
4AC
100
AcDbEntity
  8
LAY-1
  6
CONTINUOUS
 62
     2
100
AcDbLine
 10
521.199413
 20
165.8
 30
0.0
 11
520.620655
 21
164.797561
 31
0.0
  0
ARC
  5
4AD
100
AcDbEntity
  8
LAY-1
  6
CONTINUOUS
 62
     2
100
AcDbCircle
 10
522.931464
 20
164.8
 30
0.0
 40
2.0
100
AcDbArc
 50
90.0
 51
150.0
  0
LINE
  5
4AE
100
AcDbEntity
  8
LAY-1
  6
CONTINUOUS
 62
     2
100
AcDbLine
 10
530.786086
 20
166.8
 30
0.0
 11
522.931464
 21
166.8
 31
0.0
  0
LINE
  5
4AF
100
AcDbEntity
  8
LAY-1
  6
CONTINUOUS
 62
     2
100
AcDbLine
 10
533.285986
 20
170.129952
 30
0.0
 11
531.652112
 21
167.3
 31
0.0
  0
ARC
  5
4B0
100
AcDbEntity
  8
LAY-1
  6
CONTINUOUS
 62
     2
100
AcDbCircle
 10
530.786086
 20
167.8
 30
0.0
 40
1.0
100
AcDbArc
 50
270.0
 51
330.0
  0
LINE
  5
4B1
100
AcDbEntity
  8
LAY-1
  6
CONTINUOUS
 62
     2
100
AcDbLine
 10
545.576115
 20
172.205418
 30
0.0
 11
536.194926
 21
171.87782
 31
0.0
  0
ARC
  5
4B2
100
AcDbEntity
  8
LAY-1
  6
CONTINUOUS
 62
     2
100
AcDbCircle
 10
536.317074
 20
168.379952
 30
0.0
 40
3.5
100
AcDbArc
 50
92.0
 51
150.0
  0
LINE
  5
4B3
100
AcDbEntity
  8
LAY-1
  6
CONTINUOUS
 62
     2
100
AcDbLine
 10
549.17117
 20
176.25
 30
0.0
 11
549.315994
 21
176.25
 31
0.0
  0
ARC
  5
4B4
100
AcDbEntity
  8
LAY-1
  6
CONTINUOUS
 62
     2
100
AcDbCircle
 10
549.17117
 20
174.25
 30
0.0
 40
2.0
100
AcDbArc
 50
90.0
 51
170.134193
  0
LINE
  5
4B5
100
AcDbEntity
  8
LAY-1
  6
CONTINUOUS
 62
     2
100
AcDbLine
 10
547.200746
 20
174.592682
 30
0.0
 11
547.001583
 21
173.447493
 31
0.0
  0
ARC
  5
4B6
100
AcDbEntity
  8
LAY-1
  6
CONTINUOUS
 62
     2
100
AcDbCircle
 10
545.523765
 20
173.704505
 30
0.0
 40
1.5
100
AcDbArc
 50
272.0
 51
350.134193
  0
ARC
  5
4B7
100
AcDbEntity
  8
LAY-1
  6
CONTINUOUS
 62
     2
100
AcDbCircle
 10
545.523765
 20
126.295495
 30
0.0
 40
1.5
100
AcDbArc
 50
9.865807
 51
88.0
  0
LINE
  5
4B8
100
AcDbEntity
  8
LAY-1
  6
CONTINUOUS
 62
     2
100
AcDbLine
 10
547.200746
 20
125.407318
 30
0.0
 11
547.001583
 21
126.552507
 31
0.0
  0
ARC
  5
4B9
100
AcDbEntity
  8
LAY-1
  6
CONTINUOUS
 62
     2
100
AcDbCircle
 10
549.17117
 20
125.75
 30
0.0
 40
2.0
100
AcDbArc
 50
189.865807
 51
270.0
  0
LINE
  5
4BA
100
AcDbEntity
  8
LAY-1
  6
CONTINUOUS
 62
     2
100
AcDbLine
 10
545.576115
 20
127.794582
 30
0.0
 11
536.084132
 21
128.126049
 31
0.0
  0
ARC
  5
4BB
100
AcDbEntity
  8
LAY-1
  6
CONTINUOUS
 62
     2
100
AcDbCircle
 10
530.786086
 20
132.2
 30
0.0
 40
1.0
100
AcDbArc
 50
30.0
 51
90.0
  0
ARC
  5
4BC
100
AcDbEntity
  8
LAY-1
  6
CONTINUOUS
 62
     2
100
AcDbCircle
 10
536.1993
 20
131.424039
 30
0.0
 40
3.3
100
AcDbArc
 50
210.0
 51
268.0
  0
LINE
  5
4BD
100
AcDbEntity
  8
LAY-1
  6
CONTINUOUS
 62
     2
100
AcDbLine
 10
533.341416
 20
129.774039
 30
0.0
 11
531.652112
 21
132.7
 31
0.0
  0
LINE
  5
4BE
100
AcDbEntity
  8
LAY-1
  6
CONTINUOUS
 62
     2
100
AcDbLine
 10
530.786086
 20
133.2
 30
0.0
 11
522.931464
 21
133.2
 31
0.0
  0
ARC
  5
4BF
100
AcDbEntity
  8
LAY-1
  6
CONTINUOUS
 62
     2
100
AcDbCircle
 10
519.754629
 20
134.702439
 30
0.0
 40
1.0
100
AcDbArc
 50
30.0
 51
90.0
  0
LINE
  5
4C0
100
AcDbEntity
  8
LAY-1
  6
CONTINUOUS
 62
     2
100
AcDbLine
 10
521.199413
 20
134.2
 30
0.0
 11
520.620655
 21
135.202439
 31
0.0
  0
ARC
  5
4C1
100
AcDbEntity
  8
LAY-1
  6
CONTINUOUS
 62
     2
100
AcDbCircle
 10
522.931464
 20
135.2
 30
0.0
 40
2.0
100
AcDbArc
 50
210.0
 51
270.0
  0
LINE
  5
4C2
100
AcDbEntity
  8
LAY-1
  6
CONTINUOUS
 62
     2
100
AcDbLine
 10
549.315994
 20
176.25
 30
0.0
 11
550.063978
 21
180.492026
 31
0.0
  0
LINE
  5
4C3
100
AcDbEntity
  8
LAY-1
  6
CONTINUOUS
 62
     2
100
AcDbLine
 10
549.315994
 20
123.75
 30
0.0
 11
550.063978
 21
119.507974
 31
0.0
  0
LINE
  5
4C4
100
AcDbEntity
  8
LAY-1
  6
CONTINUOUS
 62
     2
100
AcDbLine
 10
559.552399
 20
111.250926
 30
0.0
 11
675.906952
 21
107.063453
 31
0.0
  0
LINE
  5
4C5
100
AcDbEntity
  8
LAY-1
  6
CONTINUOUS
 62
     2
100
AcDbLine
 10
701.606952
 20
60.0
 30
0.0
 11
676.55
 21
60.0
 31
0.0
  0
LINE
  5
4C6
100
AcDbEntity
  8
LAY-1
  6
CONTINUOUS
 62
     2
100
AcDbLine
 10
701.606952
 20
240.0
 30
0.0
 11
701.606952
 21
60.0
 31
0.0
  0
LINE
  5
4C7
100
AcDbEntity
  8
LAY-1
  6
CONTINUOUS
 62
     2
100
AcDbLine
 10
-298.5
 20
-26.500003
 30
0.0
 11
-299.5
 21
-26.500003
 31
0.0
  0
LINE
  5
4C8
100
AcDbEntity
  8
LAY-1
  6
CONTINUOUS
 62
     2
100
AcDbLine
 10
-298.5
 20
9.5
 30
0.0
 11
-299.5
 21
9.5
 31
0.0
  0
LINE
  5
4C9
100
AcDbEntity
  8
LAY-1
  6
CONTINUOUS
 62
     2
100
AcDbLine
 10
-299.0
 20
4.499998
 30
0.0
 11
-299.5
 21
4.499998
 31
0.0
  0
LINE
  5
4CA
100
AcDbEntity
  8
LAY-1
  6
CONTINUOUS
 62
     2
100
AcDbLine
 10
-296.0
 20
-21.500002
 30
0.0
 11
-299.5
 21
-21.500002
 31
0.0
  0
LINE
  5
4CB
100
AcDbEntity
  8
LAY-1
  6
CONTINUOUS
 62
     2
100
AcDbLine
 10
-296.0
 20
-19.250002
 30
0.0
 11
-296.0
 21
-21.500002
 31
0.0
  0
LINE
  5
4CC
100
AcDbEntity
  8
LAY-1
  6
CONTINUOUS
 62
     2
100
AcDbLine
 10
-296.0
 20
-21.500002
 30
0.0
 11
-299.5
 21
-21.500002
 31
0.0
  0
LINE
  5
4CD
100
AcDbEntity
  8
LAY-1
  6
CONTINUOUS
 62
     2
100
AcDbLine
 10
-296.0
 20
4.499998
 30
0.0
 11
-299.5
 21
4.499998
 31
0.0
  0
LINE
  5
4CE
100
AcDbEntity
  8
LAY-1
  6
CONTINUOUS
 62
     2
100
AcDbLine
 10
-296.5
 20
4.499998
 30
0.0
 11
-299.5
 21
4.499998
 31
0.0
  0
ARC
  5
4CF
100
AcDbEntity
  8
LAY-1
  6
CONTINUOUS
 62
     2
100
AcDbCircle
 10
-285.502704
 20
0.249998
 30
0.0
 40
3.52
100
AcDbArc
 50
0.0
 51
90.0
  0
ARC
  5
4D0
100
AcDbEntity
  8
LAY-1
  6
CONTINUOUS
 62
     2
100
AcDbCircle
 10
-285.502704
 20
-17.250002
 30
0.0
 40
3.52
100
AcDbArc
 50
270.0
 51
0.0
  0
LINE
  5
4D1
100
AcDbEntity
  8
LAY-1
  6
CONTINUOUS
 62
     2
100
AcDbLine
 10
-280.693819
 20
-8.500002
 30
0.0
 11
-281.982704
 21
-10.497773
 31
0.0
  0
LINE
  5
4D2
100
AcDbEntity
  8
LAY-1
  6
CONTINUOUS
 62
     2
100
AcDbLine
 10
-280.693819
 20
-8.500002
 30
0.0
 11
-281.982704
 21
-6.50223
 31
0.0
  0
LINE
  5
4D3
100
AcDbEntity
  8
LAY-1
  6
CONTINUOUS
 62
     2
100
AcDbLine
 10
-296.0
 20
-20.770002
 30
0.0
 11
-285.502704
 21
-20.770002
 31
0.0
  0
LINE
  5
4D4
100
AcDbEntity
  8
LAY-1
  6
CONTINUOUS
 62
     2
100
AcDbLine
 10
-299.5
 20
9.5
 30
0.0
 11
-299.5
 21
-26.500003
 31
0.0
  0
LINE
  5
4D5
100
AcDbEntity
  8
LAY-1
  6
CONTINUOUS
 62
     2
100
AcDbLine
 10
-296.0
 20
3.769998
 30
0.0
 11
-285.502704
 21
3.769998
 31
0.0
  0
LINE
  5
4D6
100
AcDbEntity
  8
LAY-1
  6
CONTINUOUS
 62
     2
100
AcDbLine
 10
-296.0
 20
4.499998
 30
0.0
 11
-296.0
 21
-21.500002
 31
0.0
  0
LINE
  5
4D7
100
AcDbEntity
  8
LAY-1
  6
CONTINUOUS
 62
     2
100
AcDbLine
 10
-281.982704
 20
-17.250002
 30
0.0
 11
-281.982704
 21
-8.500002
 31
0.0
  0
LINE
  5
4D8
100
AcDbEntity
  8
LAY-1
  6
CONTINUOUS
 62
     2
100
AcDbLine
 10
-281.982704
 20
0.249998
 30
0.0
 11
-281.982704
 21
-8.500002
 31
0.0
  0
LINE
  5
4D9
100
AcDbEntity
  8
LAY-1
  6
CONTINUOUS
 62
     2
100
AcDbLine
 10
-356.5
 20
46.732051
 30
0.0
 11
-356.411152
 21
46.732051
 31
0.0
  0
LINE
  5
4DA
100
AcDbEntity
  8
LAY-1
  6
CONTINUOUS
 62
     2
100
AcDbLine
 10
-296.0
 20
-15.9
 30
0.0
 11
-299.5
 21
-15.9
 31
0.0
  0
LINE
  5
4DB
100
AcDbEntity
  8
LAY-1
  6
CONTINUOUS
 62
     2
100
AcDbLine
 10
-296.0
 20
-0.902535
 30
0.0
 11
-299.5
 21
-0.902535
 31
0.0
  0
LINE
  5
4DC
100
AcDbEntity
  8
LAY-1
  6
CONTINUOUS
 62
     2
100
AcDbLine
 10
-350.13328
 20
-52.0
 30
0.0
 11
-301.86672
 21
-52.0
 31
0.0
  0
LINE
  5
4DD
100
AcDbEntity
  8
LAY-1
  6
CONTINUOUS
 62
     2
100
AcDbLine
 10
-298.500003
 20
-50.056223
 30
0.0
 11
-298.500003
 21
-26.500003
 31
0.0
  0
LINE
  5
4DE
100
AcDbEntity
  8
LAY-1
  6
CONTINUOUS
 62
     2
100
AcDbLine
 10
-298.500003
 20
9.5
 30
0.0
 11
-298.500003
 21
33.056225
 31
0.0
  0
LINE
  5
4DF
100
AcDbEntity
  8
LAY-1
  6
CONTINUOUS
 62
     2
100
AcDbLine
 10
-353.5
 20
-50.056223
 30
0.0
 11
-353.5
 21
33.056223
 31
0.0
  0
LINE
  5
4E0
100
AcDbEntity
  8
LAY-1
  6
CONTINUOUS
 62
     2
100
AcDbLine
 10
-350.13328
 20
35.0
 30
0.0
 11
-301.86672
 21
35.0
 31
0.0
  0
LINE
  5
4E1
100
AcDbEntity
  8
LAY-1
  6
CONTINUOUS
 62
     2
100
AcDbLine
 10
-350.13328
 20
63.0
 30
0.0
 11
-301.86672
 21
63.0
 31
0.0
  0
LINE
  5
4E2
100
AcDbEntity
  8
LAY-1
  6
CONTINUOUS
 62
     2
100
AcDbLine
 10
-298.500003
 20
36.943775
 30
0.0
 11
-298.500003
 21
61.056225
 31
0.0
  0
LINE
  5
4E3
100
AcDbEntity
  8
LAY-1
  6
CONTINUOUS
 62
     2
100
AcDbLine
 10
-353.5
 20
36.943777
 30
0.0
 11
-353.5
 21
61.056223
 31
0.0
  0
LINE
  5
4E4
100
AcDbEntity
  8
LAY-1
  6
CONTINUOUS
 62
     2
100
AcDbLine
 10
-350.13328
 20
-52.0
 30
0.0
 11
-353.5
 21
-50.056223
 31
0.0
  0
LINE
  5
4E5
100
AcDbEntity
  8
LAY-1
  6
CONTINUOUS
 62
     2
100
AcDbLine
 10
-350.13328
 20
34.417392
 30
0.0
 11
-350.13328
 21
-51.417392
 31
0.0
  0
ELLIPSE
  5
4E6
100
AcDbEntity
  8
LAY-1
  6
CONTINUOUS
 62
     2
100
AcDbEllipse
 10
-341.433361
 20
-50.056223
 30
0.0
 11
12.066638515574995
 21
0.0
 31
0.0
210
0.0
220
0.0
230
1.0
 40
0.162789
 41
3.6912425881558342
 42
0.0
  0
LINE
  5
4E7
100
AcDbEntity
  8
LAY-1
  6
CONTINUOUS
 62
     2
100
AcDbLine
 10
-329.36672
 20
33.056223
 30
0.0
 11
-329.36672
 21
-50.056223
 31
0.0
  0
LINE
  5
4E8
100
AcDbEntity
  8
LAY-1
  6
CONTINUOUS
 62
     2
100
AcDbLine
 10
-329.36672
 20
-50.056223
 30
0.0
 11
-322.63328
 21
-50.056223
 31
0.0
  0
LINE
  5
4E9
100
AcDbEntity
  8
LAY-1
  6
CONTINUOUS
 62
     2
100
AcDbLine
 10
-322.63328
 20
33.056223
 30
0.0
 11
-322.63328
 21
-50.056223
 31
0.0
  0
ELLIPSE
  5
4EA
100
AcDbEntity
  8
LAY-1
  6
CONTINUOUS
 62
     2
100
AcDbEllipse
 10
-310.566641
 20
-50.056223
 30
0.0
 11
12.066638515574995
 21
0.0
 31
0.0
210
0.0
220
0.0
230
1.0
 40
0.162789
 41
3.1415926535897931
 42
5.7335353726109775
  0
LINE
  5
4EB
100
AcDbEntity
  8
LAY-1
  6
CONTINUOUS
 62
     2
100
AcDbLine
 10
-298.500003
 20
-50.056223
 30
0.0
 11
-301.866723
 21
-52.0
 31
0.0
  0
LINE
  5
4EC
100
AcDbEntity
  8
LAY-1
  6
CONTINUOUS
 62
     2
100
AcDbLine
 10
-301.86672
 20
34.417392
 30
0.0
 11
-301.86672
 21
-51.417392
 31
0.0
  0
LINE
  5
4ED
100
AcDbEntity
  8
LAY-1
  6
CONTINUOUS
 62
     2
100
AcDbLine
 10
-301.86672
 20
35.0
 30
0.0
 11
-298.500003
 21
36.943775
 31
0.0
  0
ELLIPSE
  5
4EE
100
AcDbEntity
  8
LAY-1
  6
CONTINUOUS
 62
     2
100
AcDbEllipse
 10
-310.566641
 20
36.943777
 30
0.0
 11
12.066638515574995
 21
0.0
 31
0.0
210
0.0
220
0.0
230
1.0
 40
0.162789
 41
3.1415926535897931
 42
5.7335353726109775
  0
ELLIPSE
  5
4EF
100
AcDbEntity
  8
LAY-1
  6
CONTINUOUS
 62
     2
100
AcDbEllipse
 10
-310.566641
 20
33.056223
 30
0.0
 11
12.066638515574995
 21
0.0
 31
0.0
210
0.0
220
0.0
230
1.0
 40
0.162789
 41
0.549649934568617
 42
3.1415926535897931
  0
LINE
  5
4F0
100
AcDbEntity
  8
LAY-1
  6
CONTINUOUS
 62
     2
100
AcDbLine
 10
-301.86672
 20
35.0
 30
0.0
 11
-298.500003
 21
33.056225
 31
0.0
  0
LINE
  5
4F1
100
AcDbEntity
  8
LAY-1
  6
CONTINUOUS
 62
     2
100
AcDbLine
 10
-329.36672
 20
33.056223
 30
0.0
 11
-322.63328
 21
33.056223
 31
0.0
  0
LINE
  5
4F2
100
AcDbEntity
  8
LAY-1
  6
CONTINUOUS
 62
     2
100
AcDbLine
 10
-329.36672
 20
36.943777
 30
0.0
 11
-322.63328
 21
36.943777
 31
0.0
  0
ELLIPSE
  5
4F3
100
AcDbEntity
  8
LAY-1
  6
CONTINUOUS
 62
     2
100
AcDbEllipse
 10
-341.433361
 20
36.943777
 30
0.0
 11
12.066638515574995
 21
0.0
 31
0.0
210
0.0
220
0.0
230
1.0
 40
0.162789
 41
3.6912425881558342
 42
0.0
  0
ELLIPSE
  5
4F4
100
AcDbEntity
  8
LAY-1
  6
CONTINUOUS
 62
     2
100
AcDbEllipse
 10
-341.433361
 20
33.056223
 30
0.0
 11
12.066638515574995
 21
0.0
 31
0.0
210
0.0
220
0.0
230
1.0
 40
0.162789
 41
0.0
 42
2.5919427190237663
  0
LINE
  5
4F5
100
AcDbEntity
  8
LAY-1
  6
CONTINUOUS
 62
     2
100
AcDbLine
 10
-350.13328
 20
35.0
 30
0.0
 11
-353.5
 21
33.056223
 31
0.0
  0
LINE
  5
4F6
100
AcDbEntity
  8
LAY-1
  6
CONTINUOUS
 62
     2
100
AcDbLine
 10
-350.13328
 20
35.0
 30
0.0
 11
-353.5
 21
36.943777
 31
0.0
  0
LINE
  5
4F7
100
AcDbEntity
  8
LAY-1
  6
CONTINUOUS
 62
     2
100
AcDbLine
 10
-350.13328
 20
62.417392
 30
0.0
 11
-350.13328
 21
35.582608
 31
0.0
  0
LINE
  5
4F8
100
AcDbEntity
  8
LAY-1
  6
CONTINUOUS
 62
     2
100
AcDbLine
 10
-329.36672
 20
61.056223
 30
0.0
 11
-329.36672
 21
36.943777
 31
0.0
  0
LINE
  5
4F9
100
AcDbEntity
  8
LAY-1
  6
CONTINUOUS
 62
     2
100
AcDbLine
 10
-322.63328
 20
61.056223
 30
0.0
 11
-322.63328
 21
36.943777
 31
0.0
  0
LINE
  5
4FA
100
AcDbEntity
  8
LAY-1
  6
CONTINUOUS
 62
     2
100
AcDbLine
 10
-329.36672
 20
61.056223
 30
0.0
 11
-322.63328
 21
61.056223
 31
0.0
  0
ELLIPSE
  5
4FB
100
AcDbEntity
  8
LAY-1
  6
CONTINUOUS
 62
     2
100
AcDbEllipse
 10
-341.433361
 20
61.056223
 30
0.0
 11
12.066638515574995
 21
0.0
 31
0.0
210
0.0
220
0.0
230
1.0
 40
0.162789
 41
0.0
 42
2.5919427190237663
  0
ELLIPSE
  5
4FC
100
AcDbEntity
  8
LAY-1
  6
CONTINUOUS
 62
     2
100
AcDbEllipse
 10
-310.566641
 20
61.056223
 30
0.0
 11
12.066638515574995
 21
0.0
 31
0.0
210
0.0
220
0.0
230
1.0
 40
0.162789
 41
0.549649934568617
 42
3.1415926535897931
  0
LINE
  5
4FD
100
AcDbEntity
  8
LAY-1
  6
CONTINUOUS
 62
     2
100
AcDbLine
 10
-301.86672
 20
62.417392
 30
0.0
 11
-301.86672
 21
35.582608
 31
0.0
  0
LINE
  5
4FE
100
AcDbEntity
  8
LAY-1
  6
CONTINUOUS
 62
     2
100
AcDbLine
 10
-350.13328
 20
63.0
 30
0.0
 11
-353.5
 21
61.056223
 31
0.0
  0
LINE
  5
4FF
100
AcDbEntity
  8
LAY-1
  6
CONTINUOUS
 62
     2
100
AcDbLine
 10
-301.86672
 20
63.0
 30
0.0
 11
-298.5
 21
61.056223
 31
0.0
  0
LINE
  5
500
100
AcDbEntity
  8
LAY-1
  6
CONTINUOUS
 62
     2
100
AcDbLine
 10
-273.906952
 20
74.5
 30
0.0
 11
-273.606952
 21
74.5
 31
0.0
  0
LINE
  5
501
100
AcDbEntity
  8
LAY-1
  6
CONTINUOUS
 62
     2
100
AcDbLine
 10
-273.906952
 20
74.5
 30
0.0
 11
-273.906952
 21
150.0
 31
0.0
  0
LINE
  5
502
100
AcDbEntity
  8
LAY-1
  6
CONTINUOUS
 62
     2
100
AcDbLine
 10
-273.906952
 20
225.5
 30
0.0
 11
-273.906952
 21
150.0
 31
0.0
  0
LINE
  5
503
100
AcDbEntity
  8
LAY-1
  6
CONTINUOUS
 62
     2
100
AcDbLine
 10
-273.906952
 20
225.5
 30
0.0
 11
-273.606952
 21
225.5
 31
0.0
  0
LINE
  5
504
100
AcDbEntity
  8
LAY-1
  6
CONTINUOUS
 62
     2
100
AcDbLine
 10
-273.606952
 20
240.0
 30
0.0
 11
-262.406952
 21
240.0
 31
0.0
  0
ARC
  5
505
100
AcDbEntity
  8
LAY-1
  6
CONTINUOUS
 62
     2
100
AcDbCircle
 10
-262.406952
 20
239.0
 30
0.0
 40
1.0
100
AcDbArc
 50
0.0
 51
90.0
  0
ARC
  5
506
100
AcDbEntity
  8
LAY-1
  6
CONTINUOUS
 62
     2
100
AcDbCircle
 10
-258.906952
 20
209.943657
 30
0.0
 40
3.0
100
AcDbArc
 50
0.0
 51
90.0
  0
LINE
  5
507
100
AcDbEntity
  8
LAY-1
  6
CONTINUOUS
 62
     2
100
AcDbLine
 10
-258.906952
 20
212.943657
 30
0.0
 11
-259.406952
 21
212.943657
 31
0.0
  0
ARC
  5
508
100
AcDbEntity
  8
LAY-1
  6
CONTINUOUS
 62
     2
100
AcDbCircle
 10
-259.406952
 20
214.943657
 30
0.0
 40
2.0
100
AcDbArc
 50
180.0
 51
270.0
  0
ARC
  5
509
100
AcDbEntity
  8
LAY-1
  6
CONTINUOUS
 62
     2
100
AcDbCircle
 10
-247.906952
 20
200.941727
 30
0.0
 40
8.0
100
AcDbArc
 50
180.0
 51
267.938877
  0
LINE
  5
50A
100
AcDbEntity
  8
LAY-1
  6
CONTINUOUS
 62
     2
100
AcDbLine
 10
-131.552399
 20
188.749074
 30
0.0
 11
-248.194677
 21
192.946902
 31
0.0
  0
ARC
  5
50B
100
AcDbEntity
  8
LAY-1
  6
CONTINUOUS
 62
     2
100
AcDbCircle
 10
-131.912055
 20
178.755544
 30
0.0
 40
10.0
100
AcDbArc
 50
10.0
 51
87.938877
  0
ARC
  5
50C
100
AcDbEntity
  8
LAY-1
  6
CONTINUOUS
 62
     2
100
AcDbCircle
 10
-131.912055
 20
121.244456
 30
0.0
 40
10.0
100
AcDbArc
 50
272.061123
 51
350.0
  0
ARC
  5
50D
100
AcDbEntity
  8
LAY-1
  6
CONTINUOUS
 62
     2
100
AcDbCircle
 10
-91.754629
 20
165.297561
 30
0.0
 40
1.0
100
AcDbArc
 50
210.0
 51
270.0
  0
LINE
  5
50E
100
AcDbEntity
  8
LAY-1
  6
CONTINUOUS
 62
     2
100
AcDbLine
 10
-93.199413
 20
165.8
 30
0.0
 11
-92.620655
 21
164.797561
 31
0.0
  0
ARC
  5
50F
100
AcDbEntity
  8
LAY-1
  6
CONTINUOUS
 62
     2
100
AcDbCircle
 10
-94.931464
 20
164.8
 30
0.0
 40
2.0
100
AcDbArc
 50
30.0
 51
90.0
  0
LINE
  5
510
100
AcDbEntity
  8
LAY-1
  6
CONTINUOUS
 62
     2
100
AcDbLine
 10
-102.786086
 20
166.8
 30
0.0
 11
-94.931464
 21
166.8
 31
0.0
  0
LINE
  5
511
100
AcDbEntity
  8
LAY-1
  6
CONTINUOUS
 62
     2
100
AcDbLine
 10
-105.285986
 20
170.129952
 30
0.0
 11
-103.652112
 21
167.3
 31
0.0
  0
ARC
  5
512
100
AcDbEntity
  8
LAY-1
  6
CONTINUOUS
 62
     2
100
AcDbCircle
 10
-102.786086
 20
167.8
 30
0.0
 40
1.0
100
AcDbArc
 50
210.0
 51
270.0
  0
LINE
  5
513
100
AcDbEntity
  8
LAY-1
  6
CONTINUOUS
 62
     2
100
AcDbLine
 10
-117.576115
 20
172.205418
 30
0.0
 11
-108.194926
 21
171.87782
 31
0.0
  0
ARC
  5
514
100
AcDbEntity
  8
LAY-1
  6
CONTINUOUS
 62
     2
100
AcDbCircle
 10
-108.317074
 20
168.379952
 30
0.0
 40
3.5
100
AcDbArc
 50
30.0
 51
88.0
  0
LINE
  5
515
100
AcDbEntity
  8
LAY-1
  6
CONTINUOUS
 62
     2
100
AcDbLine
 10
-121.17117
 20
176.25
 30
0.0
 11
-121.315994
 21
176.25
 31
0.0
  0
ARC
  5
516
100
AcDbEntity
  8
LAY-1
  6
CONTINUOUS
 62
     2
100
AcDbCircle
 10
-121.17117
 20
174.25
 30
0.0
 40
2.0
100
AcDbArc
 50
9.865807
 51
90.0
  0
LINE
  5
517
100
AcDbEntity
  8
LAY-1
  6
CONTINUOUS
 62
     2
100
AcDbLine
 10
-119.200746
 20
174.592682
 30
0.0
 11
-119.001583
 21
173.447493
 31
0.0
  0
ARC
  5
518
100
AcDbEntity
  8
LAY-1
  6
CONTINUOUS
 62
     2
100
AcDbCircle
 10
-117.523765
 20
173.704505
 30
0.0
 40
1.5
100
AcDbArc
 50
189.865807
 51
268.0
  0
ARC
  5
519
100
AcDbEntity
  8
LAY-1
  6
CONTINUOUS
 62
     2
100
AcDbCircle
 10
-117.523765
 20
126.295495
 30
0.0
 40
1.5
100
AcDbArc
 50
92.0
 51
170.134193
  0
LINE
  5
51A
100
AcDbEntity
  8
LAY-1
  6
CONTINUOUS
 62
     2
100
AcDbLine
 10
-119.200746
 20
125.407318
 30
0.0
 11
-119.001583
 21
126.552507
 31
0.0
  0
ARC
  5
51B
100
AcDbEntity
  8
LAY-1
  6
CONTINUOUS
 62
     2
100
AcDbCircle
 10
-121.17117
 20
125.75
 30
0.0
 40
2.0
100
AcDbArc
 50
270.0
 51
350.134193
  0
LINE
  5
51C
100
AcDbEntity
  8
LAY-1
  6
CONTINUOUS
 62
     2
100
AcDbLine
 10
-117.576115
 20
127.794582
 30
0.0
 11
-108.084132
 21
128.126049
 31
0.0
  0
ARC
  5
51D
100
AcDbEntity
  8
LAY-1
  6
CONTINUOUS
 62
     2
100
AcDbCircle
 10
-102.786086
 20
132.2
 30
0.0
 40
1.0
100
AcDbArc
 50
90.0
 51
150.0
  0
ARC
  5
51E
100
AcDbEntity
  8
LAY-1
  6
CONTINUOUS
 62
     2
100
AcDbCircle
 10
-108.1993
 20
131.424039
 30
0.0
 40
3.3
100
AcDbArc
 50
272.0
 51
330.0
  0
LINE
  5
51F
100
AcDbEntity
  8
LAY-1
  6
CONTINUOUS
 62
     2
100
AcDbLine
 10
-105.341416
 20
129.774039
 30
0.0
 11
-103.652112
 21
132.7
 31
0.0
  0
LINE
  5
520
100
AcDbEntity
  8
LAY-1
  6
CONTINUOUS
 62
     2
100
AcDbLine
 10
-102.786086
 20
133.2
 30
0.0
 11
-94.931464
 21
133.2
 31
0.0
  0
ARC
  5
521
100
AcDbEntity
  8
LAY-1
  6
CONTINUOUS
 62
     2
100
AcDbCircle
 10
-91.754629
 20
134.702439
 30
0.0
 40
1.0
100
AcDbArc
 50
90.0
 51
150.0
  0
LINE
  5
522
100
AcDbEntity
  8
LAY-1
  6
CONTINUOUS
 62
     2
100
AcDbLine
 10
-93.199413
 20
134.2
 30
0.0
 11
-92.620655
 21
135.202439
 31
0.0
  0
ARC
  5
523
100
AcDbEntity
  8
LAY-1
  6
CONTINUOUS
 62
     2
100
AcDbCircle
 10
-94.931464
 20
135.2
 30
0.0
 40
2.0
100
AcDbArc
 50
270.0
 51
330.0
  0
LINE
  5
524
100
AcDbEntity
  8
LAY-1
  6
CONTINUOUS
 62
     2
100
AcDbLine
 10
-121.315994
 20
176.25
 30
0.0
 11
-122.063978
 21
180.492026
 31
0.0
  0
LINE
  5
525
100
AcDbEntity
  8
LAY-1
  6
CONTINUOUS
 62
     2
100
AcDbLine
 10
-121.315994
 20
123.75
 30
0.0
 11
-122.063978
 21
119.507974
 31
0.0
  0
LINE
  5
526
100
AcDbEntity
  8
LAY-1
  6
CONTINUOUS
 62
     2
100
AcDbLine
 10
-131.552399
 20
111.250926
 30
0.0
 11
-247.906952
 21
107.063453
 31
0.0
  0
LINE
  5
527
100
AcDbEntity
  8
LAY-1
  6
CONTINUOUS
 62
     2
100
AcDbLine
 10
-252.6
 20
79.910759
 30
0.0
 11
-253.906952
 21
79.910759
 31
0.0
  0
LINE
  5
528
100
AcDbEntity
  8
LAY-1
  6
CONTINUOUS
 62
     2
100
AcDbLine
 10
-249.8
 20
78.15
 30
0.0
 11
-253.906952
 21
78.15
 31
0.0
  0
LINE
  5
529
100
AcDbEntity
  8
LAY-1
  6
CONTINUOUS
 62
     2
100
AcDbLine
 10
-261.406952
 20
60.0
 30
0.0
 11
-261.406952
 21
239.0
 31
0.0
  0
ARC
  5
52A
100
AcDbEntity
  8
LAY-1
  6
CONTINUOUS
 62
     2
100
AcDbCircle
 10
-258.906952
 20
90.056343
 30
0.0
 40
3.0
100
AcDbArc
 50
270.0
 51
0.0
  0
LINE
  5
52B
100
AcDbEntity
  8
LAY-1
  6
CONTINUOUS
 62
     2
100
AcDbLine
 10
-258.906952
 20
87.056343
 30
0.0
 11
-259.406952
 21
87.056343
 31
0.0
  0
ARC
  5
52C
100
AcDbEntity
  8
LAY-1
  6
CONTINUOUS
 62
     2
100
AcDbCircle
 10
-259.406952
 20
85.056343
 30
0.0
 40
2.0
100
AcDbArc
 50
90.0
 51
180.0
  0
ARC
  5
52D
100
AcDbEntity
  8
LAY-1
  6
CONTINUOUS
 62
     2
100
AcDbCircle
 10
-247.906952
 20
99.058273
 30
0.0
 40
8.0
100
AcDbArc
 50
92.061123
 51
180.0
  0
LINE
  5
52E
100
AcDbEntity
  8
LAY-1
  6
CONTINUOUS
 62
     2
100
AcDbLine
 10
-255.906952
 20
90.056343
 30
0.0
 11
-255.906952
 21
111.828662
 31
0.0
  0
LINE
  5
52F
100
AcDbEntity
  8
LAY-1
  6
CONTINUOUS
 62
     2
100
AcDbLine
 10
-255.906952
 20
209.943657
 30
0.0
 11
-255.906952
 21
188.171338
 31
0.0
  0
LINE
  5
530
100
AcDbEntity
  8
LAY-1
  6
CONTINUOUS
 62
     2
100
AcDbLine
 10
-255.906952
 20
173.160231
 30
0.0
 11
-255.906952
 21
126.839769
 31
0.0
  0
LINE
  5
531
100
AcDbEntity
  8
LAY-1
  6
CONTINUOUS
 62
     2
100
AcDbLine
 10
-247.906952
 20
92.5
 30
0.0
 11
-247.906952
 21
107.053098
 31
0.0
  0
LINE
  5
532
100
AcDbEntity
  8
LAY-1
  6
CONTINUOUS
 62
     2
100
AcDbLine
 10
-247.906952
 20
60.5
 30
0.0
 11
-247.906952
 21
77.171573
 31
0.0
  0
ARC
  5
533
100
AcDbEntity
  8
LAY-1
  6
CONTINUOUS
 62
     2
100
AcDbCircle
 10
-248.406952
 20
60.5
 30
0.0
 40
0.5
100
AcDbArc
 50
270.0
 51
0.0
  0
ARC
  5
534
100
AcDbEntity
  8
LAY-1
  6
CONTINUOUS
 62
     2
100
AcDbCircle
 10
-248.906952
 20
92.5
 30
0.0
 40
1.0
100
AcDbArc
 50
270.0
 51
0.0
  0
LINE
  5
535
100
AcDbEntity
  8
LAY-1
  6
CONTINUOUS
 62
     2
100
AcDbLine
 10
-249.906952
 20
91.5
 30
0.0
 11
-248.906952
 21
91.5
 31
0.0
  0
ARC
  5
536
100
AcDbEntity
  8
LAY-1
  6
CONTINUOUS
 62
     2
100
AcDbCircle
 10
-249.906952
 20
89.5
 30
0.0
 40
2.0
100
AcDbArc
 50
90.0
 51
180.0
  0
LINE
  5
537
100
AcDbEntity
  8
LAY-1
  6
CONTINUOUS
 62
     2
100
AcDbLine
 10
-251.906952
 20
82.978427
 30
0.0
 11
-251.906952
 21
89.5
 31
0.0
  0
LINE
  5
538
100
AcDbEntity
  8
LAY-1
  6
CONTINUOUS
 62
     2
100
AcDbLine
 10
-248.492738
 20
78.585786
 30
0.0
 11
-251.321166
 21
81.414214
 31
0.0
  0
ARC
  5
539
100
AcDbEntity
  8
LAY-1
  6
CONTINUOUS
 62
     2
100
AcDbCircle
 10
-249.906952
 20
82.828427
 30
0.0
 40
2.0
100
AcDbArc
 50
180.0
 51
225.0
  0
ARC
  5
53A
100
AcDbEntity
  8
LAY-1
  6
CONTINUOUS
 62
     2
100
AcDbCircle
 10
-249.906952
 20
77.171573
 30
0.0
 40
2.0
100
AcDbArc
 50
0.0
 51
45.0
  0
LINE
  5
53B
100
AcDbEntity
  8
LAY-1
  6
CONTINUOUS
 62
     2
100
AcDbLine
 10
-273.606952
 20
60.0
 30
0.0
 11
-248.55
 21
60.0
 31
0.0
  0
LINE
  5
53C
100
AcDbEntity
  8
LAY-1
  6
CONTINUOUS
 62
     2
100
AcDbLine
 10
-273.606952
 20
240.0
 30
0.0
 11
-273.606952
 21
60.0
 31
0.0
  0
LINE
  5
53D
100
AcDbEntity
  8
LAY-1
  6
CONTINUOUS
 62
     2
100
AcDbLine
 10
-301.0
 20
209.017119
 30
0.0
 11
-301.0
 21
208.0
 31
0.0
  0
LINE
  5
53E
100
AcDbEntity
  8
LAY-1
  6
CONTINUOUS
 62
     2
100
AcDbLine
 10
-274.0
 20
239.866309
 30
0.0
 11
-287.5
 21
239.866309
 31
0.0
  0
LINE
  5
53F
100
AcDbEntity
  8
LAY-1
  6
CONTINUOUS
 62
     2
100
AcDbLine
 10
240.25
 20
-186.409042
 30
0.0
 11
187.75
 21
-186.409042
 31
0.0
  0
ARC
  5
540
100
AcDbEntity
  8
LAY-1
  6
CONTINUOUS
 62
     2
100
AcDbCircle
 10
181.618888
 20
-407.730976
 30
0.0
 40
5.0
100
AcDbArc
 50
2.0
 51
25.910814
  0
ARC
  5
541
100
AcDbEntity
  8
LAY-1
  6
CONTINUOUS
 62
     2
100
AcDbCircle
 10
177.304142
 20
-372.701624
 30
0.0
 40
5.0
100
AcDbArc
 50
2.0
 51
84.249639
  0
ARC
  5
542
100
AcDbEntity
  8
LAY-1
  6
CONTINUOUS
 62
     2
100
AcDbCircle
 10
250.695858
 20
-372.701624
 30
0.0
 40
5.0
100
AcDbArc
 50
95.750361
 51
178.0
  0
LINE
  5
543
100
AcDbEntity
  8
LAY-1
  6
CONTINUOUS
 62
     2
100
AcDbLine
 10
161.593073
 20
-366.094215
 30
0.0
 11
177.805114
 21
-367.726785
 31
0.0
  0
LINE
  5
544
100
AcDbEntity
  8
LAY-1
  6
CONTINUOUS
 62
     2
100
AcDbLine
 10
266.406927
 20
-366.094215
 30
0.0
 11
250.194886
 21
-367.726785
 31
0.0
  0
LINE
  5
545
100
AcDbEntity
  8
LAY-1
  6
CONTINUOUS
 62
     2
100
AcDbLine
 10
186.615842
 20
-407.556479
 30
0.0
 11
187.329746
 21
-428.0
 31
0.0
  0
LINE
  5
546
100
AcDbEntity
  8
LAY-1
  6
CONTINUOUS
 62
     2
100
AcDbLine
 10
241.422554
 20
-406.456955
 30
0.0
 11
240.670254
 21
-428.0
 31
0.0
  0
LINE
  5
547
100
AcDbEntity
  8
LAY-1
  6
CONTINUOUS
 62
     2
100
AcDbLine
 10
193.2
 20
-442.4
 30
0.0
 11
193.2
 21
-434.0
 31
0.0
  0
LINE
  5
548
100
AcDbEntity
  8
LAY-1
  6
CONTINUOUS
 62
     2
100
AcDbLine
 10
193.2
 20
-442.4
 30
0.0
 11
196.0
 21
-444.0
 31
0.0
  0
LINE
  5
549
100
AcDbEntity
  8
LAY-1
  6
CONTINUOUS
 62
     2
100
AcDbLine
 10
232.0
 20
-444.0
 30
0.0
 11
234.8
 21
-442.4
 31
0.0
  0
LINE
  5
54A
100
AcDbEntity
  8
LAY-1
  6
CONTINUOUS
 62
     2
100
AcDbLine
 10
232.0
 20
-444.0
 30
0.0
 11
196.0
 21
-444.0
 31
0.0
  0
LINE
  5
54B
100
AcDbEntity
  8
LAY-1
  6
CONTINUOUS
 62
     2
100
AcDbLine
 10
240.5
 20
-428.0
 30
0.0
 11
240.5
 21
-434.0
 31
0.0
  0
LINE
  5
54C
100
AcDbEntity
  8
LAY-1
  6
CONTINUOUS
 62
     2
100
AcDbLine
 10
234.8
 20
-434.0
 30
0.0
 11
234.8
 21
-442.4
 31
0.0
  0
LINE
  5
54D
100
AcDbEntity
  8
LAY-1
  6
CONTINUOUS
 62
     2
100
AcDbLine
 10
240.5
 20
-434.0
 30
0.0
 11
187.5
 21
-434.0
 31
0.0
  0
LINE
  5
54E
100
AcDbEntity
  8
LAY-1
  6
CONTINUOUS
 62
     2
100
AcDbLine
 10
187.5
 20
-428.0
 30
0.0
 11
240.5
 21
-428.0
 31
0.0
  0
LINE
  5
54F
100
AcDbEntity
  8
LAY-1
  6
CONTINUOUS
 62
     2
100
AcDbLine
 10
187.5
 20
-428.0
 30
0.0
 11
187.5
 21
-434.0
 31
0.0
  0
LINE
  5
550
100
AcDbEntity
  8
LAY-1
  6
CONTINUOUS
 62
     2
100
AcDbLine
 10
304.0
 20
-340.0
 30
0.0
 11
304.0
 21
-353.375437
 31
0.0
  0
LINE
  5
551
100
AcDbEntity
  8
LAY-1
  6
CONTINUOUS
 62
     2
100
AcDbLine
 10
124.0
 20
-340.0
 30
0.0
 11
124.0
 21
-353.375437
 31
0.0
  0
LINE
  5
552
100
AcDbEntity
  8
LAY-1
  6
CONTINUOUS
 62
     2
100
AcDbLine
 10
304.0
 20
-353.375437
 30
0.0
 11
226.27
 21
-353.375437
 31
0.0
  0
LINE
  5
553
100
AcDbEntity
  8
LAY-1
  6
CONTINUOUS
 62
     2
100
AcDbLine
 10
201.73
 20
-353.375437
 30
0.0
 11
124.0
 21
-353.375437
 31
0.0
  0
ARC
  5
554
100
AcDbEntity
  8
LAY-1
  6
CONTINUOUS
 62
     2
100
AcDbCircle
 10
201.702439
 20
-120.249734
 30
0.0
 40
2.0
100
AcDbArc
 50
107.025607
 51
180.0
  0
LINE
  5
555
100
AcDbEntity
  8
LAY-1
  6
CONTINUOUS
 62
     2
100
AcDbLine
 10
199.702439
 20
-120.249734
 30
0.0
 11
199.702439
 21
-156.847677
 31
0.0
  0
ARC
  5
556
100
AcDbEntity
  8
LAY-1
  6
CONTINUOUS
 62
     2
100
AcDbCircle
 10
214.0
 20
-160.409042
 30
0.0
 40
44.0
100
AcDbArc
 50
72.974393
 51
107.025607
  0
ARC
  5
557
100
AcDbEntity
  8
LAY-1
  6
CONTINUOUS
 62
     2
100
AcDbCircle
 10
226.297561
 20
-120.249734
 30
0.0
 40
2.0
100
AcDbArc
 50
0.0
 51
72.974393
  0
LINE
  5
558
100
AcDbEntity
  8
LAY-1
  6
CONTINUOUS
 62
     2
100
AcDbLine
 10
228.297561
 20
-120.249734
 30
0.0
 11
228.297561
 21
-156.847677
 31
0.0
  0
ARC
  5
559
100
AcDbEntity
  8
LAY-1
  6
CONTINUOUS
 62
     2
100
AcDbCircle
 10
232.379952
 20
-173.410123
 30
0.0
 40
3.5
100
AcDbArc
 50
2.0
 51
60.0
  0
LINE
  5
55A
100
AcDbEntity
  8
LAY-1
  6
CONTINUOUS
 62
     2
100
AcDbLine
 10
236.205418
 20
-182.669163
 30
0.0
 11
235.87782
 21
-173.287974
 31
0.0
  0
LINE
  5
55B
100
AcDbEntity
  8
LAY-1
  6
CONTINUOUS
 62
     2
100
AcDbLine
 10
234.129952
 20
-170.379034
 30
0.0
 11
231.3
 21
-168.74516
 31
0.0
  0
ARC
  5
55C
100
AcDbEntity
  8
LAY-1
  6
CONTINUOUS
 62
     2
100
AcDbCircle
 10
229.297561
 20
-156.847677
 30
0.0
 40
1.0
100
AcDbArc
 50
180.0
 51
240.0
  0
LINE
  5
55D
100
AcDbEntity
  8
LAY-1
  6
CONTINUOUS
 62
     2
100
AcDbLine
 10
229.8
 20
-158.292461
 30
0.0
 11
228.797561
 21
-157.713703
 31
0.0
  0
ARC
  5
55E
100
AcDbEntity
  8
LAY-1
  6
CONTINUOUS
 62
     2
100
AcDbCircle
 10
228.8
 20
-160.024512
 30
0.0
 40
2.0
100
AcDbArc
 50
0.0
 51
60.0
  0
LINE
  5
55F
100
AcDbEntity
  8
LAY-1
  6
CONTINUOUS
 62
     2
100
AcDbLine
 10
230.8
 20
-167.879134
 30
0.0
 11
230.8
 21
-160.024512
 31
0.0
  0
ARC
  5
560
100
AcDbEntity
  8
LAY-1
  6
CONTINUOUS
 62
     2
100
AcDbCircle
 10
231.8
 20
-167.879134
 30
0.0
 40
1.0
100
AcDbArc
 50
180.0
 51
240.0
  0
ARC
  5
561
100
AcDbEntity
  8
LAY-1
  6
CONTINUOUS
 62
     2
100
AcDbCircle
 10
237.704505
 20
-182.616813
 30
0.0
 40
1.5
100
AcDbArc
 50
182.0
 51
260.134193
  0
LINE
  5
562
100
AcDbEntity
  8
LAY-1
  6
CONTINUOUS
 62
     2
100
AcDbLine
 10
238.592682
 20
-184.293794
 30
0.0
 11
237.447493
 21
-184.094631
 31
0.0
  0
LINE
  5
563
100
AcDbEntity
  8
LAY-1
  6
CONTINUOUS
 62
     2
100
AcDbLine
 10
240.25
 20
-186.264218
 30
0.0
 11
240.25
 21
-186.409042
 31
0.0
  0
ARC
  5
564
100
AcDbEntity
  8
LAY-1
  6
CONTINUOUS
 62
     2
100
AcDbCircle
 10
238.25
 20
-186.264218
 30
0.0
 40
2.0
100
AcDbArc
 50
0.0
 51
80.134193
  0
ARC
  5
565
100
AcDbEntity
  8
LAY-1
  6
CONTINUOUS
 62
     2
100
AcDbCircle
 10
198.702439
 20
-156.847677
 30
0.0
 40
1.0
100
AcDbArc
 50
300.0
 51
0.0
  0
LINE
  5
566
100
AcDbEntity
  8
LAY-1
  6
CONTINUOUS
 62
     2
100
AcDbLine
 10
198.2
 20
-158.292461
 30
0.0
 11
199.202439
 21
-157.713703
 31
0.0
  0
ARC
  5
567
100
AcDbEntity
  8
LAY-1
  6
CONTINUOUS
 62
     2
100
AcDbCircle
 10
199.2
 20
-160.024512
 30
0.0
 40
2.0
100
AcDbArc
 50
120.0
 51
180.0
  0
LINE
  5
568
100
AcDbEntity
  8
LAY-1
  6
CONTINUOUS
 62
     2
100
AcDbLine
 10
197.2
 20
-167.879134
 30
0.0
 11
197.2
 21
-160.024512
 31
0.0
  0
ARC
  5
569
100
AcDbEntity
  8
LAY-1
  6
CONTINUOUS
 62
     2
100
AcDbCircle
 10
196.2
 20
-167.879134
 30
0.0
 40
1.0
100
AcDbArc
 50
300.0
 51
0.0
  0
LINE
  5
56A
100
AcDbEntity
  8
LAY-1
  6
CONTINUOUS
 62
     2
100
AcDbLine
 10
193.774039
 20
-170.434465
 30
0.0
 11
196.7
 21
-168.74516
 31
0.0
  0
ARC
  5
56B
100
AcDbEntity
  8
LAY-1
  6
CONTINUOUS
 62
     2
100
AcDbCircle
 10
190.295495
 20
-182.616813
 30
0.0
 40
1.5
100
AcDbArc
 50
279.865807
 51
358.0
  0
LINE
  5
56C
100
AcDbEntity
  8
LAY-1
  6
CONTINUOUS
 62
     2
100
AcDbLine
 10
189.407318
 20
-184.293794
 30
0.0
 11
190.552507
 21
-184.094631
 31
0.0
  0
LINE
  5
56D
100
AcDbEntity
  8
LAY-1
  6
CONTINUOUS
 62
     2
100
AcDbLine
 10
191.794582
 20
-182.669163
 30
0.0
 11
192.126049
 21
-173.17718
 31
0.0
  0
LINE
  5
56E
100
AcDbEntity
  8
LAY-1
  6
CONTINUOUS
 62
     2
100
AcDbLine
 10
187.75
 20
-186.264218
 30
0.0
 11
187.75
 21
-186.409042
 31
0.0
  0
ARC
  5
56F
100
AcDbEntity
  8
LAY-1
  6
CONTINUOUS
 62
     2
100
AcDbCircle
 10
189.75
 20
-186.264218
 30
0.0
 40
2.0
100
AcDbArc
 50
99.865807
 51
180.0
  0
ARC
  5
570
100
AcDbEntity
  8
LAY-1
  6
CONTINUOUS
 62
     2
100
AcDbCircle
 10
195.424039
 20
-173.292348
 30
0.0
 40
3.3
100
AcDbArc
 50
120.0
 51
178.0
  0
ARC
  5
571
100
AcDbEntity
  8
LAY-1
  6
CONTINUOUS
 62
     2
100
AcDbCircle
 10
299.802471
 20
-325.5
 30
0.0
 40
1.0
100
AcDbArc
 50
182.0
 51
270.0
  0
ARC
  5
572
100
AcDbEntity
  8
LAY-1
  6
CONTINUOUS
 62
     2
100
AcDbCircle
 10
297.725025
 20
-323.317154
 30
0.0
 40
1.0
100
AcDbArc
 50
2.0
 51
80.0
  0
ARC
  5
573
100
AcDbEntity
  8
LAY-1
  6
CONTINUOUS
 62
     2
100
AcDbCircle
 10
260.263088
 20
-316.711604
 30
0.0
 40
1.0
100
AcDbArc
 50
80.0
 51
178.0
  0
ARC
  5
574
100
AcDbEntity
  8
LAY-1
  6
CONTINUOUS
 62
     2
100
AcDbCircle
 10
258.254612
 20
-316.919442
 30
0.0
 40
1.0
100
AcDbArc
 50
214.050283
 51
358.0
  0
LINE
  5
575
100
AcDbEntity
  8
LAY-1
  6
CONTINUOUS
 62
     2
100
AcDbLine
 10
259.263698
 20
-316.676704
 30
0.0
 11
259.254002
 21
-316.954341
 31
0.0
  0
LINE
  5
576
100
AcDbEntity
  8
LAY-1
  6
CONTINUOUS
 62
     2
100
AcDbLine
 10
298.724416
 20
-323.282254
 30
0.0
 11
298.80308
 21
-325.534899
 31
0.0
  0
ARC
  5
577
100
AcDbEntity
  8
LAY-1
  6
CONTINUOUS
 62
     2
100
AcDbCircle
 10
149.901503
 20
-324.5
 30
0.0
 40
2.0
100
AcDbArc
 50
270.0
 51
330.005968
  0
LINE
  5
578
100
AcDbEntity
  8
LAY-1
  6
CONTINUOUS
 62
     2
100
AcDbLine
 10
152.210401
 20
-324.500631
 30
0.0
 11
151.633658
 21
-325.49982
 31
0.0
  0
ARC
  5
579
100
AcDbEntity
  8
LAY-1
  6
CONTINUOUS
 62
     2
100
AcDbCircle
 10
158.272943
 20
-328.0
 30
0.0
 40
7.0
100
AcDbArc
 50
90.0
 51
150.005968
  0
ARC
  5
57A
100
AcDbEntity
  8
LAY-1
  6
CONTINUOUS
 62
     2
100
AcDbCircle
 10
163.945563
 20
-313.0
 30
0.0
 40
8.0
100
AcDbArc
 50
270.0
 51
358.356383
  0
ARC
  5
57B
100
AcDbEntity
  8
LAY-1
  6
CONTINUOUS
 62
     2
100
AcDbCircle
 10
303.0
 20
-327.5
 30
0.0
 40
1.0
100
AcDbArc
 50
0.0
 51
90.0
  0
LINE
  5
57C
100
AcDbEntity
  8
LAY-1
  6
CONTINUOUS
 62
     2
100
AcDbLine
 10
175.297188
 20
-196.310617
 30
0.0
 11
171.942272
 21
-313.229461
 31
0.0
  0
ARC
  5
57D
100
AcDbEntity
  8
LAY-1
  6
CONTINUOUS
 62
     2
100
AcDbCircle
 10
242.726603
 20
-197.0
 30
0.0
 40
10.0
100
AcDbArc
 50
3.953009
 51
80.0
  0
ARC
  5
57E
100
AcDbEntity
  8
LAY-1
  6
CONTINUOUS
 62
     2
100
AcDbCircle
 10
185.273397
 20
-197.0
 30
0.0
 40
10.0
100
AcDbArc
 50
100.0
 51
176.046991
  0
LINE
  5
57F
100
AcDbEntity
  8
LAY-1
  6
CONTINUOUS
 62
     2
100
AcDbLine
 10
240.25
 20
-186.409042
 30
0.0
 11
244.463084
 21
-187.151922
 31
0.0
  0
LINE
  5
580
100
AcDbEntity
  8
LAY-1
  6
CONTINUOUS
 62
     2
100
AcDbLine
 10
187.75
 20
-186.409042
 30
0.0
 11
183.536916
 21
-187.151922
 31
0.0
  0
LINE
  5
581
100
AcDbEntity
  8
LAY-1
  6
CONTINUOUS
 62
     2
100
AcDbLine
 10
295.539306
 20
-321.916326
 30
0.0
 11
297.898673
 21
-322.332346
 31
0.0
  0
LINE
  5
582
100
AcDbEntity
  8
LAY-1
  6
CONTINUOUS
 62
     2
100
AcDbLine
 10
260.436737
 20
-315.726796
 30
0.0
 11
281.094176
 21
-319.36926
 31
0.0
  0
LINE
  5
583
100
AcDbEntity
  8
LAY-1
  6
CONTINUOUS
 62
     2
100
AcDbLine
 10
252.702812
 20
-196.310617
 30
0.0
 11
256.057728
 21
-313.229461
 31
0.0
  0
ARC
  5
584
100
AcDbEntity
  8
LAY-1
  6
CONTINUOUS
 62
     2
100
AcDbCircle
 10
264.054437
 20
-313.0
 30
0.0
 40
8.0
100
AcDbArc
 50
181.643617
 51
270.0
  0
ARC
  5
585
100
AcDbEntity
  8
LAY-1
  6
CONTINUOUS
 62
     2
100
AcDbCircle
 10
278.098497
 20
-324.5
 30
0.0
 40
2.0
100
AcDbArc
 50
209.994032
 51
270.0
  0
LINE
  5
586
100
AcDbEntity
  8
LAY-1
  6
CONTINUOUS
 62
     2
100
AcDbLine
 10
275.789599
 20
-324.500631
 30
0.0
 11
276.366342
 21
-325.49982
 31
0.0
  0
ARC
  5
587
100
AcDbEntity
  8
LAY-1
  6
CONTINUOUS
 62
     2
100
AcDbCircle
 10
269.727057
 20
-328.0
 30
0.0
 40
7.0
100
AcDbArc
 50
29.994032
 51
90.0
  0
LINE
  5
588
100
AcDbEntity
  8
LAY-1
  6
CONTINUOUS
 62
     2
100
AcDbLine
 10
269.727057
 20
-321.0
 30
0.0
 11
252.171338
 21
-321.0
 31
0.0
  0
LINE
  5
589
100
AcDbEntity
  8
LAY-1
  6
CONTINUOUS
 62
     2
100
AcDbLine
 10
158.272943
 20
-321.0
 30
0.0
 11
175.828662
 21
-321.0
 31
0.0
  0
ARC
  5
58A
100
AcDbEntity
  8
LAY-1
  6
CONTINUOUS
 62
     2
100
AcDbCircle
 10
125.0
 20
-327.5
 30
0.0
 40
1.0
100
AcDbArc
 50
90.0
 51
180.0
  0
CIRCLE
  5
58B
100
AcDbEntity
  8
LAY-1
  6
CONTINUOUS
 62
     2
100
AcDbCircle
 10
214.0
 20
-324.0
 30
0.0
 40
5.6
  0
CIRCLE
  5
58C
100
AcDbEntity
  8
LAY-1
  6
CONTINUOUS
 62
     2
100
AcDbCircle
 10
214.0
 20
-324.0
 30
0.0
 40
8.5
  0
ARC
  5
58D
100
AcDbEntity
  8
LAY-1
  6
CONTINUOUS
 62
     2
100
AcDbCircle
 10
214.0
 20
-324.0
 30
0.0
 40
11.0
100
AcDbArc
 50
357.795772
 51
182.204228
  0
ARC
  5
58E
100
AcDbEntity
  8
LAY-1
  6
CONTINUOUS
 62
     2
100
AcDbCircle
 10
226.990381
 20
-324.5
 30
0.0
 40
2.0
100
AcDbArc
 50
177.795772
 51
270.0
  0
ARC
  5
58F
100
AcDbEntity
  8
LAY-1
  6
CONTINUOUS
 62
     2
100
AcDbCircle
 10
201.009619
 20
-324.5
 30
0.0
 40
2.0
100
AcDbArc
 50
270.0
 51
2.204228
  0
LINE
  5
590
100
AcDbEntity
  8
LAY-1
  6
CONTINUOUS
 62
     2
100
AcDbLine
 10
226.990381
 20
-326.5
 30
0.0
 11
303.0
 21
-326.5
 31
0.0
  0
LINE
  5
591
100
AcDbEntity
  8
LAY-1
  6
CONTINUOUS
 62
     2
100
AcDbLine
 10
125.0
 20
-326.5
 30
0.0
 11
201.009619
 21
-326.5
 31
0.0
  0
LINE
  5
592
100
AcDbEntity
  8
LAY-1
  6
CONTINUOUS
 62
     2
100
AcDbLine
 10
224.583005
 20
-321.0
 30
0.0
 11
237.160231
 21
-321.0
 31
0.0
  0
LINE
  5
593
100
AcDbEntity
  8
LAY-1
  6
CONTINUOUS
 62
     2
100
AcDbLine
 10
190.839769
 20
-321.0
 30
0.0
 11
203.416995
 21
-321.0
 31
0.0
  0
LINE
  5
594
100
AcDbEntity
  8
LAY-1
  6
CONTINUOUS
 62
     2
100
AcDbLine
 10
289.5
 20
-339.906952
 30
0.0
 11
289.5
 21
-339.606952
 31
0.0
  0
LINE
  5
595
100
AcDbEntity
  8
LAY-1
  6
CONTINUOUS
 62
     2
100
AcDbLine
 10
289.5
 20
-339.906952
 30
0.0
 11
214.0
 21
-339.906952
 31
0.0
  0
LINE
  5
596
100
AcDbEntity
  8
LAY-1
  6
CONTINUOUS
 62
     2
100
AcDbLine
 10
138.5
 20
-339.906952
 30
0.0
 11
214.0
 21
-339.906952
 31
0.0
  0
LINE
  5
597
100
AcDbEntity
  8
LAY-1
  6
CONTINUOUS
 62
     2
100
AcDbLine
 10
138.5
 20
-339.906952
 30
0.0
 11
138.5
 21
-339.606952
 31
0.0
  0
LINE
  5
598
100
AcDbEntity
  8
LAY-1
  6
CONTINUOUS
 62
     2
100
AcDbLine
 10
304.0
 20
-339.606952
 30
0.0
 11
304.0
 21
-327.5
 31
0.0
  0
LINE
  5
599
100
AcDbEntity
  8
LAY-1
  6
CONTINUOUS
 62
     2
100
AcDbLine
 10
304.0
 20
-340.0
 30
0.0
 11
124.0
 21
-340.0
 31
0.0
  0
LINE
  5
59A
100
AcDbEntity
  8
LAY-1
  6
CONTINUOUS
 62
     2
100
AcDbLine
 10
124.0
 20
-339.606952
 30
0.0
 11
304.0
 21
-339.606952
 31
0.0
  0
LINE
  5
59B
100
AcDbEntity
  8
LAY-1
  6
CONTINUOUS
 62
     2
100
AcDbLine
 10
124.0
 20
-339.606952
 30
0.0
 11
124.0
 21
-327.5
 31
0.0
  0
LINE
  5
59C
100
AcDbEntity
  8
LAY-1
  6
CONTINUOUS
 62
     2
100
AcDbLine
 10
224.75
 20
-362.0
 30
0.0
 11
227.0
 21
-362.0
 31
0.0
  0
ARC
  5
59D
100
AcDbEntity
  8
LAY-1
  6
CONTINUOUS
 62
     2
100
AcDbCircle
 10
205.25
 20
-351.502704
 30
0.0
 40
3.52
100
AcDbArc
 50
90.0
 51
180.0
  0
ARC
  5
59E
100
AcDbEntity
  8
LAY-1
  6
CONTINUOUS
 62
     2
100
AcDbCircle
 10
222.75
 20
-351.502704
 30
0.0
 40
3.52
100
AcDbArc
 50
0.0
 51
90.0
  0
LINE
  5
59F
100
AcDbEntity
  8
LAY-1
  6
CONTINUOUS
 62
     2
100
AcDbLine
 10
214.0
 20
-346.693819
 30
0.0
 11
215.997772
 21
-347.982704
 31
0.0
  0
LINE
  5
5A0
100
AcDbEntity
  8
LAY-1
  6
CONTINUOUS
 62
     2
100
AcDbLine
 10
214.0
 20
-346.693819
 30
0.0
 11
212.002228
 21
-347.982704
 31
0.0
  0
LINE
  5
5A1
100
AcDbEntity
  8
LAY-1
  6
CONTINUOUS
 62
     2
100
AcDbLine
 10
226.27
 20
-362.0
 30
0.0
 11
226.27
 21
-351.502704
 31
0.0
  0
LINE
  5
5A2
100
AcDbEntity
  8
LAY-1
  6
CONTINUOUS
 62
     2
100
AcDbLine
 10
201.73
 20
-362.0
 30
0.0
 11
201.73
 21
-351.502704
 31
0.0
  0
LINE
  5
5A3
100
AcDbEntity
  8
LAY-1
  6
CONTINUOUS
 62
     2
100
AcDbLine
 10
201.0
 20
-362.0
 30
0.0
 11
227.0
 21
-362.0
 31
0.0
  0
LINE
  5
5A4
100
AcDbEntity
  8
LAY-1
  6
CONTINUOUS
 62
     2
100
AcDbLine
 10
222.75
 20
-347.982704
 30
0.0
 11
214.0
 21
-347.982704
 31
0.0
  0
LINE
  5
5A5
100
AcDbEntity
  8
LAY-1
  6
CONTINUOUS
 62
     2
100
AcDbLine
 10
205.25
 20
-347.982704
 30
0.0
 11
214.0
 21
-347.982704
 31
0.0
  0
ARC
  5
5A6
100
AcDbEntity
  8
LAY-1
  6
CONTINUOUS
 62
     2
100
AcDbCircle
 10
214.0
 20
-392.0
 30
0.0
 40
31.0
100
AcDbArc
 50
332.202154
 51
358.0
  0
ARC
  5
5A7
100
AcDbEntity
  8
LAY-1
  6
CONTINUOUS
 62
     2
100
AcDbCircle
 10
264.202652
 20
-344.204921
 30
0.0
 40
22.0
100
AcDbArc
 50
275.750361
 51
319.68454
  0
ARC
  5
5A8
100
AcDbEntity
  8
LAY-1
  6
CONTINUOUS
 62
     2
100
AcDbCircle
 10
163.797348
 20
-344.204921
 30
0.0
 40
22.0
100
AcDbArc
 50
220.31546
 51
264.249639
  0
ARC
  5
5A9
100
AcDbEntity
  8
LAY-1
  6
CONTINUOUS
 62
     2
100
AcDbCircle
 10
163.797348
 20
644.204921
 30
0.0
 40
22.0
100
AcDbArc
 50
95.750361
 51
139.68454
  0
ARC
  5
5AA
100
AcDbEntity
  8
LAY-1
  6
CONTINUOUS
 62
     2
100
AcDbCircle
 10
264.202652
 20
644.204921
 30
0.0
 40
22.0
100
AcDbArc
 50
40.31546
 51
84.249639
  0
LINE
  5
5AB
100
AcDbEntity
  8
LAY-1
  6
CONTINUOUS
 62
     2
100
AcDbLine
 10
251.85634
 20
667.559475
 30
0.0
 11
176.14366
 21
667.559475
 31
0.0
  0
ARC
  5
5AC
100
AcDbEntity
  8
LAY-1
  6
CONTINUOUS
 62
     2
100
AcDbCircle
 10
214.0
 20
692.0
 30
0.0
 40
31.0
100
AcDbArc
 50
154.089186
 51
180.0
  0
ARC
  5
5AD
100
AcDbEntity
  8
LAY-1
  6
CONTINUOUS
 62
     2
100
AcDbCircle
 10
214.0
 20
692.0
 30
0.0
 40
31.0
100
AcDbArc
 50
2.0
 51
27.797846
  0
ARC
  5
5AE
100
AcDbEntity
  8
LAY-1
  6
CONTINUOUS
 62
     2
100
AcDbCircle
 10
214.0
 20
692.0
 30
0.0
 40
23.0
100
AcDbArc
 50
0.0
 51
180.0
  0
LINE
  5
5AF
100
AcDbEntity
  8
LAY-1
  6
CONTINUOUS
 62
     2
100
AcDbLine
 10
191.0
 20
692.0
 30
0.0
 11
191.0
 21
667.8
 31
0.0
  0
LINE
  5
5B0
100
AcDbEntity
  8
LAY-1
  6
CONTINUOUS
 62
     2
100
AcDbLine
 10
237.0
 20
692.0
 30
0.0
 11
237.0
 21
667.8
 31
0.0
  0
LINE
  5
5B1
100
AcDbEntity
  8
LAY-1
  6
CONTINUOUS
 62
     2
100
AcDbLine
 10
304.0
 20
653.375437
 30
0.0
 11
124.0
 21
653.375437
 31
0.0
  0
LINE
  5
5B2
100
AcDbEntity
  8
LAY-1
  6
CONTINUOUS
 62
     2
100
AcDbLine
 10
304.0
 20
640.0
 30
0.0
 11
124.0
 21
640.0
 31
0.0
  0
LINE
  5
5B3
100
AcDbEntity
  8
LAY-1
  6
CONTINUOUS
 62
     2
100
AcDbLine
 10
124.0
 20
639.606952
 30
0.0
 11
304.0
 21
639.606952
 31
0.0
  0
LINE
  5
5B4
100
AcDbEntity
  8
LAY-1
  6
CONTINUOUS
 62
     2
100
AcDbLine
 10
124.0
 20
639.606952
 30
0.0
 11
124.0
 21
627.5
 31
0.0
  0
LINE
  5
5B5
100
AcDbEntity
  8
LAY-1
  6
CONTINUOUS
 62
     2
100
AcDbLine
 10
304.0
 20
639.606952
 30
0.0
 11
304.0
 21
627.5
 31
0.0
  0
LINE
  5
5B6
100
AcDbEntity
  8
LAY-1
  6
CONTINUOUS
 62
     2
100
AcDbLine
 10
304.0
 20
639.0
 30
0.0
 11
304.0
 21
627.5
 31
0.0
  0
LINE
  5
5B7
100
AcDbEntity
  8
LAY-1
  6
CONTINUOUS
 62
     2
100
AcDbLine
 10
138.5
 20
639.906952
 30
0.0
 11
138.5
 21
639.606952
 31
0.0
  0
LINE
  5
5B8
100
AcDbEntity
  8
LAY-1
  6
CONTINUOUS
 62
     2
100
AcDbLine
 10
138.5
 20
639.906952
 30
0.0
 11
214.0
 21
639.906952
 31
0.0
  0
LINE
  5
5B9
100
AcDbEntity
  8
LAY-1
  6
CONTINUOUS
 62
     2
100
AcDbLine
 10
289.5
 20
639.906952
 30
0.0
 11
214.0
 21
639.906952
 31
0.0
  0
LINE
  5
5BA
100
AcDbEntity
  8
LAY-1
  6
CONTINUOUS
 62
     2
100
AcDbLine
 10
289.5
 20
639.906952
 30
0.0
 11
289.5
 21
639.606952
 31
0.0
  0
ARC
  5
5BB
100
AcDbEntity
  8
LAY-1
  6
CONTINUOUS
 62
     2
100
AcDbCircle
 10
125.0
 20
627.5
 30
0.0
 40
1.0
100
AcDbArc
 50
180.0
 51
270.0
  0
LINE
  5
5BC
100
AcDbEntity
  8
LAY-1
  6
CONTINUOUS
 62
     2
100
AcDbLine
 10
190.839769
 20
621.0
 30
0.0
 11
237.160231
 21
621.0
 31
0.0
  0
LINE
  5
5BD
100
AcDbEntity
  8
LAY-1
  6
CONTINUOUS
 62
     2
100
AcDbLine
 10
158.272943
 20
621.0
 30
0.0
 11
175.828662
 21
621.0
 31
0.0
  0
LINE
  5
5BE
100
AcDbEntity
  8
LAY-1
  6
CONTINUOUS
 62
     2
100
AcDbLine
 10
269.727057
 20
621.0
 30
0.0
 11
252.171338
 21
621.0
 31
0.0
  0
ARC
  5
5BF
100
AcDbEntity
  8
LAY-1
  6
CONTINUOUS
 62
     2
100
AcDbCircle
 10
269.727057
 20
628.0
 30
0.0
 40
7.0
100
AcDbArc
 50
270.0
 51
330.005968
  0
LINE
  5
5C0
100
AcDbEntity
  8
LAY-1
  6
CONTINUOUS
 62
     2
100
AcDbLine
 10
275.789599
 20
624.500631
 30
0.0
 11
276.366342
 21
625.49982
 31
0.0
  0
ARC
  5
5C1
100
AcDbEntity
  8
LAY-1
  6
CONTINUOUS
 62
     2
100
AcDbCircle
 10
278.098497
 20
624.5
 30
0.0
 40
2.0
100
AcDbArc
 50
90.0
 51
150.005968
  0
ARC
  5
5C2
100
AcDbEntity
  8
LAY-1
  6
CONTINUOUS
 62
     2
100
AcDbCircle
 10
264.054437
 20
613.0
 30
0.0
 40
8.0
100
AcDbArc
 50
90.0
 51
178.356383
  0
LINE
  5
5C3
100
AcDbEntity
  8
LAY-1
  6
CONTINUOUS
 62
     2
100
AcDbLine
 10
252.702812
 20
496.310617
 30
0.0
 11
256.057728
 21
613.229461
 31
0.0
  0
LINE
  5
5C4
100
AcDbEntity
  8
LAY-1
  6
CONTINUOUS
 62
     2
100
AcDbLine
 10
260.436737
 20
615.726796
 30
0.0
 11
281.094176
 21
619.36926
 31
0.0
  0
LINE
  5
5C5
100
AcDbEntity
  8
LAY-1
  6
CONTINUOUS
 62
     2
100
AcDbLine
 10
295.539306
 20
621.916326
 30
0.0
 11
297.898673
 21
622.332346
 31
0.0
  0
LINE
  5
5C6
100
AcDbEntity
  8
LAY-1
  6
CONTINUOUS
 62
     2
100
AcDbLine
 10
187.75
 20
486.409042
 30
0.0
 11
183.536916
 21
487.151922
 31
0.0
  0
LINE
  5
5C7
100
AcDbEntity
  8
LAY-1
  6
CONTINUOUS
 62
     2
100
AcDbLine
 10
240.25
 20
486.409042
 30
0.0
 11
244.463084
 21
487.151922
 31
0.0
  0
ARC
  5
5C8
100
AcDbEntity
  8
LAY-1
  6
CONTINUOUS
 62
     2
100
AcDbCircle
 10
185.273397
 20
497.0
 30
0.0
 40
10.0
100
AcDbArc
 50
183.953009
 51
260.0
  0
ARC
  5
5C9
100
AcDbEntity
  8
LAY-1
  6
CONTINUOUS
 62
     2
100
AcDbCircle
 10
242.726603
 20
497.0
 30
0.0
 40
10.0
100
AcDbArc
 50
280.0
 51
356.046991
  0
LINE
  5
5CA
100
AcDbEntity
  8
LAY-1
  6
CONTINUOUS
 62
     2
100
AcDbLine
 10
175.297188
 20
496.310617
 30
0.0
 11
171.942272
 21
613.229461
 31
0.0
  0
LINE
  5
5CB
100
AcDbEntity
  8
LAY-1
  6
CONTINUOUS
 62
     2
100
AcDbLine
 10
125.0
 20
626.5
 30
0.0
 11
303.0
 21
626.5
 31
0.0
  0
ARC
  5
5CC
100
AcDbEntity
  8
LAY-1
  6
CONTINUOUS
 62
     2
100
AcDbCircle
 10
303.0
 20
627.5
 30
0.0
 40
1.0
100
AcDbArc
 50
270.0
 51
0.0
  0
ARC
  5
5CD
100
AcDbEntity
  8
LAY-1
  6
CONTINUOUS
 62
     2
100
AcDbCircle
 10
163.945563
 20
613.0
 30
0.0
 40
8.0
100
AcDbArc
 50
1.643617
 51
90.0
  0
ARC
  5
5CE
100
AcDbEntity
  8
LAY-1
  6
CONTINUOUS
 62
     2
100
AcDbCircle
 10
158.272943
 20
628.0
 30
0.0
 40
7.0
100
AcDbArc
 50
209.994032
 51
270.0
  0
LINE
  5
5CF
100
AcDbEntity
  8
LAY-1
  6
CONTINUOUS
 62
     2
100
AcDbLine
 10
152.210401
 20
624.500631
 30
0.0
 11
151.633658
 21
625.49982
 31
0.0
  0
ARC
  5
5D0
100
AcDbEntity
  8
LAY-1
  6
CONTINUOUS
 62
     2
100
AcDbCircle
 10
149.901503
 20
624.5
 30
0.0
 40
2.0
100
AcDbArc
 50
29.994032
 51
90.0
  0
LINE
  5
5D1
100
AcDbEntity
  8
LAY-1
  6
CONTINUOUS
 62
     2
100
AcDbLine
 10
298.724416
 20
623.282254
 30
0.0
 11
298.80308
 21
625.534899
 31
0.0
  0
LINE
  5
5D2
100
AcDbEntity
  8
LAY-1
  6
CONTINUOUS
 62
     2
100
AcDbLine
 10
259.263698
 20
616.676704
 30
0.0
 11
259.254002
 21
616.954341
 31
0.0
  0
ARC
  5
5D3
100
AcDbEntity
  8
LAY-1
  6
CONTINUOUS
 62
     2
100
AcDbCircle
 10
258.254612
 20
616.919442
 30
0.0
 40
1.0
100
AcDbArc
 50
2.0
 51
145.949717
  0
ARC
  5
5D4
100
AcDbEntity
  8
LAY-1
  6
CONTINUOUS
 62
     2
100
AcDbCircle
 10
260.263088
 20
616.711604
 30
0.0
 40
1.0
100
AcDbArc
 50
182.0
 51
280.0
  0
ARC
  5
5D5
100
AcDbEntity
  8
LAY-1
  6
CONTINUOUS
 62
     2
100
AcDbCircle
 10
297.725025
 20
623.317154
 30
0.0
 40
1.0
100
AcDbArc
 50
280.0
 51
358.0
  0
ARC
  5
5D6
100
AcDbEntity
  8
LAY-1
  6
CONTINUOUS
 62
     2
100
AcDbCircle
 10
299.802471
 20
625.5
 30
0.0
 40
1.0
100
AcDbArc
 50
90.0
 51
178.0
  0
ARC
  5
5D7
100
AcDbEntity
  8
LAY-1
  6
CONTINUOUS
 62
     2
100
AcDbCircle
 10
195.424039
 20
473.292348
 30
0.0
 40
3.3
100
AcDbArc
 50
182.0
 51
240.0
  0
ARC
  5
5D8
100
AcDbEntity
  8
LAY-1
  6
CONTINUOUS
 62
     2
100
AcDbCircle
 10
189.75
 20
486.264218
 30
0.0
 40
2.0
100
AcDbArc
 50
180.0
 51
260.134193
  0
LINE
  5
5D9
100
AcDbEntity
  8
LAY-1
  6
CONTINUOUS
 62
     2
100
AcDbLine
 10
187.75
 20
486.264218
 30
0.0
 11
187.75
 21
486.409042
 31
0.0
  0
LINE
  5
5DA
100
AcDbEntity
  8
LAY-1
  6
CONTINUOUS
 62
     2
100
AcDbLine
 10
191.794582
 20
482.669163
 30
0.0
 11
192.126049
 21
473.17718
 31
0.0
  0
LINE
  5
5DB
100
AcDbEntity
  8
LAY-1
  6
CONTINUOUS
 62
     2
100
AcDbLine
 10
189.407318
 20
484.293794
 30
0.0
 11
190.552507
 21
484.094631
 31
0.0
  0
ARC
  5
5DC
100
AcDbEntity
  8
LAY-1
  6
CONTINUOUS
 62
     2
100
AcDbCircle
 10
190.295495
 20
482.616813
 30
0.0
 40
1.5
100
AcDbArc
 50
2.0
 51
80.134193
  0
LINE
  5
5DD
100
AcDbEntity
  8
LAY-1
  6
CONTINUOUS
 62
     2
100
AcDbLine
 10
193.774039
 20
470.434465
 30
0.0
 11
196.7
 21
468.74516
 31
0.0
  0
ARC
  5
5DE
100
AcDbEntity
  8
LAY-1
  6
CONTINUOUS
 62
     2
100
AcDbCircle
 10
196.2
 20
467.879134
 30
0.0
 40
1.0
100
AcDbArc
 50
0.0
 51
60.0
  0
LINE
  5
5DF
100
AcDbEntity
  8
LAY-1
  6
CONTINUOUS
 62
     2
100
AcDbLine
 10
197.2
 20
467.879134
 30
0.0
 11
197.2
 21
460.024512
 31
0.0
  0
ARC
  5
5E0
100
AcDbEntity
  8
LAY-1
  6
CONTINUOUS
 62
     2
100
AcDbCircle
 10
199.2
 20
460.024512
 30
0.0
 40
2.0
100
AcDbArc
 50
180.0
 51
240.0
  0
LINE
  5
5E1
100
AcDbEntity
  8
LAY-1
  6
CONTINUOUS
 62
     2
100
AcDbLine
 10
198.2
 20
458.292461
 30
0.0
 11
199.202439
 21
457.713703
 31
0.0
  0
ARC
  5
5E2
100
AcDbEntity
  8
LAY-1
  6
CONTINUOUS
 62
     2
100
AcDbCircle
 10
198.702439
 20
456.847677
 30
0.0
 40
1.0
100
AcDbArc
 50
0.0
 51
60.0
  0
ARC
  5
5E3
100
AcDbEntity
  8
LAY-1
  6
CONTINUOUS
 62
     2
100
AcDbCircle
 10
238.25
 20
486.264218
 30
0.0
 40
2.0
100
AcDbArc
 50
279.865807
 51
0.0
  0
LINE
  5
5E4
100
AcDbEntity
  8
LAY-1
  6
CONTINUOUS
 62
     2
100
AcDbLine
 10
240.25
 20
486.264218
 30
0.0
 11
240.25
 21
486.409042
 31
0.0
  0
LINE
  5
5E5
100
AcDbEntity
  8
LAY-1
  6
CONTINUOUS
 62
     2
100
AcDbLine
 10
238.592682
 20
484.293794
 30
0.0
 11
237.447493
 21
484.094631
 31
0.0
  0
ARC
  5
5E6
100
AcDbEntity
  8
LAY-1
  6
CONTINUOUS
 62
     2
100
AcDbCircle
 10
237.704505
 20
482.616813
 30
0.0
 40
1.5
100
AcDbArc
 50
99.865807
 51
178.0
  0
ARC
  5
5E7
100
AcDbEntity
  8
LAY-1
  6
CONTINUOUS
 62
     2
100
AcDbCircle
 10
231.8
 20
467.879134
 30
0.0
 40
1.0
100
AcDbArc
 50
120.0
 51
180.0
  0
LINE
  5
5E8
100
AcDbEntity
  8
LAY-1
  6
CONTINUOUS
 62
     2
100
AcDbLine
 10
230.8
 20
467.879134
 30
0.0
 11
230.8
 21
460.024512
 31
0.0
  0
ARC
  5
5E9
100
AcDbEntity
  8
LAY-1
  6
CONTINUOUS
 62
     2
100
AcDbCircle
 10
228.8
 20
460.024512
 30
0.0
 40
2.0
100
AcDbArc
 50
300.0
 51
0.0
  0
LINE
  5
5EA
100
AcDbEntity
  8
LAY-1
  6
CONTINUOUS
 62
     2
100
AcDbLine
 10
229.8
 20
458.292461
 30
0.0
 11
228.797561
 21
457.713703
 31
0.0
  0
ARC
  5
5EB
100
AcDbEntity
  8
LAY-1
  6
CONTINUOUS
 62
     2
100
AcDbCircle
 10
229.297561
 20
456.847677
 30
0.0
 40
1.0
100
AcDbArc
 50
120.0
 51
180.0
  0
LINE
  5
5EC
100
AcDbEntity
  8
LAY-1
  6
CONTINUOUS
 62
     2
100
AcDbLine
 10
234.129952
 20
470.379034
 30
0.0
 11
231.3
 21
468.74516
 31
0.0
  0
LINE
  5
5ED
100
AcDbEntity
  8
LAY-1
  6
CONTINUOUS
 62
     2
100
AcDbLine
 10
236.205418
 20
482.669163
 30
0.0
 11
235.87782
 21
473.287974
 31
0.0
  0
ARC
  5
5EE
100
AcDbEntity
  8
LAY-1
  6
CONTINUOUS
 62
     2
100
AcDbCircle
 10
232.379952
 20
473.410123
 30
0.0
 40
3.5
100
AcDbArc
 50
300.0
 51
358.0
  0
LINE
  5
5EF
100
AcDbEntity
  8
LAY-1
  6
CONTINUOUS
 62
     2
100
AcDbLine
 10
124.0
 20
640.0
 30
0.0
 11
124.0
 21
653.375437
 31
0.0
  0
LINE
  5
5F0
100
AcDbEntity
  8
LAY-1
  6
CONTINUOUS
 62
     2
100
AcDbLine
 10
304.0
 20
640.0
 30
0.0
 11
304.0
 21
653.375437
 31
0.0
  0
ARC
  5
5F1
100
AcDbEntity
  8
LAY-1
  6
CONTINUOUS
 62
     2
100
AcDbCircle
 10
214.0
 20
692.0
 30
0.0
 40
12.0
100
AcDbArc
 50
270.0
 51
90.0
  0
ARC
  5
5F2
100
AcDbEntity
  8
LAY-1
  6
CONTINUOUS
 62
     2
100
AcDbCircle
 10
214.0
 20
692.0
 30
0.0
 40
12.0
100
AcDbArc
 50
90.0
 51
270.0
  0
CIRCLE
  5
5F3
100
AcDbEntity
  8
LAY-1
  6
CONTINUOUS
 62
     2
100
AcDbCircle
 10
214.0
 20
692.0
 30
0.0
 40
12.5
  0
LINE
  5
5F4
100
AcDbEntity
  8
LAY-1
  6
CONTINUOUS
 62
     2
100
AcDbLine
 10
187.5
 20
728.0
 30
0.0
 11
187.5
 21
734.0
 31
0.0
  0
LINE
  5
5F5
100
AcDbEntity
  8
LAY-1
  6
CONTINUOUS
 62
     2
100
AcDbLine
 10
187.5
 20
728.0
 30
0.0
 11
240.5
 21
728.0
 31
0.0
  0
LINE
  5
5F6
100
AcDbEntity
  8
LAY-1
  6
CONTINUOUS
 62
     2
100
AcDbLine
 10
240.5
 20
734.0
 30
0.0
 11
187.5
 21
734.0
 31
0.0
  0
LINE
  5
5F7
100
AcDbEntity
  8
LAY-1
  6
CONTINUOUS
 62
     2
100
AcDbLine
 10
234.8
 20
734.0
 30
0.0
 11
234.8
 21
742.4
 31
0.0
  0
LINE
  5
5F8
100
AcDbEntity
  8
LAY-1
  6
CONTINUOUS
 62
     2
100
AcDbLine
 10
240.5
 20
728.0
 30
0.0
 11
240.5
 21
734.0
 31
0.0
  0
LINE
  5
5F9
100
AcDbEntity
  8
LAY-1
  6
CONTINUOUS
 62
     2
100
AcDbLine
 10
232.0
 20
744.0
 30
0.0
 11
196.0
 21
744.0
 31
0.0
  0
LINE
  5
5FA
100
AcDbEntity
  8
LAY-1
  6
CONTINUOUS
 62
     2
100
AcDbLine
 10
232.0
 20
744.0
 30
0.0
 11
234.8
 21
742.4
 31
0.0
  0
LINE
  5
5FB
100
AcDbEntity
  8
LAY-1
  6
CONTINUOUS
 62
     2
100
AcDbLine
 10
193.2
 20
742.4
 30
0.0
 11
196.0
 21
744.0
 31
0.0
  0
LINE
  5
5FC
100
AcDbEntity
  8
LAY-1
  6
CONTINUOUS
 62
     2
100
AcDbLine
 10
193.2
 20
742.4
 30
0.0
 11
193.2
 21
734.0
 31
0.0
  0
LINE
  5
5FD
100
AcDbEntity
  8
LAY-1
  6
CONTINUOUS
 62
     2
100
AcDbLine
 10
182.301096
 20
672.527127
 30
0.0
 11
182.981104
 21
692.0
 31
0.0
  0
LINE
  5
5FE
100
AcDbEntity
  8
LAY-1
  6
CONTINUOUS
 62
     2
100
AcDbLine
 10
241.422554
 20
706.456955
 30
0.0
 11
240.670254
 21
728.0
 31
0.0
  0
LINE
  5
5FF
100
AcDbEntity
  8
LAY-1
  6
CONTINUOUS
 62
     2
100
AcDbLine
 10
186.615842
 20
707.556479
 30
0.0
 11
187.329746
 21
728.0
 31
0.0
  0
LINE
  5
600
100
AcDbEntity
  8
LAY-1
  6
CONTINUOUS
 62
     2
100
AcDbLine
 10
266.406927
 20
666.094215
 30
0.0
 11
250.194886
 21
667.726785
 31
0.0
  0
LINE
  5
601
100
AcDbEntity
  8
LAY-1
  6
CONTINUOUS
 62
     2
100
AcDbLine
 10
161.593073
 20
666.094215
 30
0.0
 11
177.805114
 21
667.726785
 31
0.0
  0
LINE
  5
602
100
AcDbEntity
  8
LAY-1
  6
CONTINUOUS
 62
     2
100
AcDbLine
 10
245.698904
 20
672.527127
 30
0.0
 11
244.981116
 21
693.081884
 31
0.0
  0
ARC
  5
603
100
AcDbEntity
  8
LAY-1
  6
CONTINUOUS
 62
     2
100
AcDbCircle
 10
250.695858
 20
672.701624
 30
0.0
 40
5.0
100
AcDbArc
 50
182.0
 51
264.249639
  0
ARC
  5
604
100
AcDbEntity
  8
LAY-1
  6
CONTINUOUS
 62
     2
100
AcDbCircle
 10
177.304142
 20
672.701624
 30
0.0
 40
5.0
100
AcDbArc
 50
275.750361
 51
358.0
  0
ARC
  5
605
100
AcDbEntity
  8
LAY-1
  6
CONTINUOUS
 62
     2
100
AcDbCircle
 10
181.618888
 20
707.730976
 30
0.0
 40
5.0
100
AcDbArc
 50
334.089186
 51
358.0
  0
LINE
  5
606
100
AcDbEntity
  8
LAY-1
  6
CONTINUOUS
 62
     2
100
AcDbLine
 10
240.25
 20
486.409042
 30
0.0
 11
187.75
 21
486.409042
 31
0.0
  0
ARC
  5
607
100
AcDbEntity
  8
LAY-1
  6
CONTINUOUS
 62
     2
100
AcDbCircle
 10
-80.315994
 20
150.0
 30
0.0
 40
44.0
100
AcDbArc
 50
342.974393
 51
17.025607
  0
ARC
  5
608
100
AcDbEntity
  8
LAY-1
  6
CONTINUOUS
 62
     2
100
AcDbCircle
 10
-40.156686
 20
162.297561
 30
0.0
 40
2.0
100
AcDbArc
 50
17.025607
 51
90.0
  0
ARC
  5
609
100
AcDbEntity
  8
LAY-1
  6
CONTINUOUS
 62
     2
100
AcDbCircle
 10
-40.156686
 20
137.702439
 30
0.0
 40
2.0
100
AcDbArc
 50
270.0
 51
342.974393
  0
LINE
  5
60A
100
AcDbEntity
  8
LAY-1
  6
CONTINUOUS
 62
     2
100
AcDbLine
 10
-40.156686
 20
135.702439
 30
0.0
 11
-91.754629
 21
135.702439
 31
0.0
  0
LINE
  5
60B
100
AcDbEntity
  8
LAY-1
  6
CONTINUOUS
 62
     2
100
AcDbLine
 10
-40.156686
 20
164.297561
 30
0.0
 11
-91.754629
 21
164.297561
 31
0.0
  0
ARC
  5
60C
100
AcDbEntity
  8
LAY-1
  6
CONTINUOUS
 62
     2
100
AcDbCircle
 10
508.315994
 20
150.0
 30
0.0
 40
44.0
100
AcDbArc
 50
162.974393
 51
197.025607
  0
ARC
  5
60D
100
AcDbEntity
  8
LAY-1
  6
CONTINUOUS
 62
     2
100
AcDbCircle
 10
468.156686
 20
162.297561
 30
0.0
 40
2.0
100
AcDbArc
 50
90.0
 51
162.974393
  0
LINE
  5
60E
100
AcDbEntity
  8
LAY-1
  6
CONTINUOUS
 62
     2
100
AcDbLine
 10
468.156686
 20
164.297561
 30
0.0
 11
519.754629
 21
164.297561
 31
0.0
  0
LINE
  5
60F
100
AcDbEntity
  8
LAY-1
  6
CONTINUOUS
 62
     2
100
AcDbLine
 10
468.156686
 20
135.702439
 30
0.0
 11
519.754629
 21
135.702439
 31
0.0
  0
ARC
  5
610
100
AcDbEntity
  8
LAY-1
  6
CONTINUOUS
 62
     2
100
AcDbCircle
 10
468.156686
 20
137.702439
 30
0.0
 40
2.0
100
AcDbArc
 50
197.025607
 51
270.0
  0
LINE
  5
611
100
AcDbEntity
  8
LAY-1
  6
CONTINUOUS
 62
     2
100
AcDbLine
 10
228.297561
 20
405.249734
 30
0.0
 11
228.297561
 21
456.847677
 31
0.0
  0
ARC
  5
612
100
AcDbEntity
  8
LAY-1
  6
CONTINUOUS
 62
     2
100
AcDbCircle
 10
226.297561
 20
405.249734
 30
0.0
 40
2.0
100
AcDbArc
 50
287.025607
 51
0.0
  0
ARC
  5
613
100
AcDbEntity
  8
LAY-1
  6
CONTINUOUS
 62
     2
100
AcDbCircle
 10
214.0
 20
445.409042
 30
0.0
 40
44.0
100
AcDbArc
 50
252.974393
 51
287.025607
  0
LINE
  5
614
100
AcDbEntity
  8
LAY-1
  6
CONTINUOUS
 62
     2
100
AcDbLine
 10
199.702439
 20
405.249734
 30
0.0
 11
199.702439
 21
456.847677
 31
0.0
  0
ARC
  5
615
100
AcDbEntity
  8
LAY-1
  6
CONTINUOUS
 62
     2
100
AcDbCircle
 10
201.702439
 20
405.249734
 30
0.0
 40
2.0
100
AcDbArc
 50
180.0
 51
252.974393
  0
POLYLINE
  5
616
100
AcDbEntity
  8
LAY-1
  6
CONTINUOUS
 62
     2
100
AcDb2dPolyline
 66
     1
 10
0.0
 20
0.0
 30
0.0
 70
   128
  0
VERTEX
  5
617
100
AcDbEntity
  8
LAY-1
  6
CONTINUOUS
 62
     2
100
AcDbVertex
100
AcDb2dVertex
 10
245.566863
 20
-392.0
 30
0.0
  0
VERTEX
  5
618
100
AcDbEntity
  8
LAY-1
  6
CONTINUOUS
 62
     2
100
AcDbVertex
100
AcDb2dVertex
 10
229.783431
 20
-364.662295
 30
0.0
  0
VERTEX
  5
619
100
AcDbEntity
  8
LAY-1
  6
CONTINUOUS
 62
     2
100
AcDbVertex
100
AcDb2dVertex
 10
198.216569
 20
-364.662295
 30
0.0
  0
VERTEX
  5
61A
100
AcDbEntity
  8
LAY-1
  6
CONTINUOUS
 62
     2
100
AcDbVertex
100
AcDb2dVertex
 10
182.433137
 20
-392.0
 30
0.0
  0
VERTEX
  5
61B
100
AcDbEntity
  8
LAY-1
  6
CONTINUOUS
 62
     2
100
AcDbVertex
100
AcDb2dVertex
 10
198.216569
 20
-419.337705
 30
0.0
  0
VERTEX
  5
61C
100
AcDbEntity
  8
LAY-1
  6
CONTINUOUS
 62
     2
100
AcDbVertex
100
AcDb2dVertex
 10
229.783431
 20
-419.337705
 30
0.0
  0
VERTEX
  5
61D
100
AcDbEntity
  8
LAY-1
  6
CONTINUOUS
 62
     2
100
AcDbVertex
100
AcDb2dVertex
 10
245.566863
 20
-392.0
 30
0.0
  0
SEQEND
  5
61E
100
AcDbEntity
  8
LAY-1
  6
CONTINUOUS
 62
     2
  0
CIRCLE
  5
61F
100
AcDbEntity
  8
LAY-1
  6
CONTINUOUS
 62
     2
100
AcDbCircle
 10
214.0
 20
-392.0
 30
0.0
 40
27.337705
  0
LINE
  5
620
100
AcDbEntity
  8
LAY-1
  6
CONTINUOUS
 62
     2
100
AcDbLine
 10
227.0
 20
-362.0
 30
0.0
 11
227.0
 21
-364.662295
 31
0.0
  0
LINE
  5
621
100
AcDbEntity
  8
LAY-1
  6
CONTINUOUS
 62
     2
100
AcDbLine
 10
221.399998
 20
-362.0
 30
0.0
 11
221.399998
 21
-364.662295
 31
0.0
  0
LINE
  5
622
100
AcDbEntity
  8
LAY-1
  6
CONTINUOUS
 62
     2
100
AcDbLine
 10
206.402533
 20
-362.0
 30
0.0
 11
206.402533
 21
-364.662295
 31
0.0
  0
LINE
  5
623
100
AcDbEntity
  8
LAY-1
  6
CONTINUOUS
 62
     2
100
AcDbLine
 10
201.0
 20
-362.0
 30
0.0
 11
201.0
 21
-364.662295
 31
0.0
  0
LINE
  5
624
100
AcDbEntity
  8
LAY-1
  6
CONTINUOUS
 62
     2
100
AcDbLine
 10
196.543881
 20
-367.559475
 30
0.0
 11
176.14366
 21
-367.559475
 31
0.0
  0
LINE
  5
625
100
AcDbEntity
  8
LAY-1
  6
CONTINUOUS
 62
     2
100
AcDbLine
 10
182.301096
 20
-372.527127
 30
0.0
 11
182.949851
 21
-391.105026
 31
0.0
  0
ARC
  5
626
100
AcDbEntity
  8
LAY-1
  6
CONTINUOUS
 62
     2
100
AcDbCircle
 10
214.0
 20
-392.0
 30
0.0
 40
31.0
100
AcDbArc
 50
181.867731
 51
205.910814
  0
LINE
  5
627
100
AcDbEntity
  8
LAY-1
  6
CONTINUOUS
 62
     2
100
AcDbLine
 10
245.698904
 20
-372.527127
 30
0.0
 11
245.050149
 21
-391.105026
 31
0.0
  0
LINE
  5
628
100
AcDbEntity
  8
LAY-1
  6
CONTINUOUS
 62
     2
100
AcDbLine
 10
244.983619
 20
-393.010209
 30
0.0
 11
244.981116
 21
-393.081884
 31
0.0
  0
LINE
  5
629
100
AcDbEntity
  8
LAY-1
  6
CONTINUOUS
 62
     2
100
AcDbLine
 10
251.85634
 20
-367.559475
 30
0.0
 11
231.456119
 21
-367.559475
 31
0.0
  0
LINE
  5
62A
100
AcDbEntity
  8
LAY-1
  6
CONTINUOUS
 62
     2
100
AcDbLine
 10
237.0
 20
-377.161758
 30
0.0
 11
237.0
 21
-367.559475
 31
0.0
  0
LINE
  5
62B
100
AcDbEntity
  8
LAY-1
  6
CONTINUOUS
 62
     2
100
AcDbLine
 10
191.0
 20
-377.161758
 30
0.0
 11
191.0
 21
-367.559475
 31
0.0
  0
CIRCLE
  5
62C
100
AcDbEntity
  8
LAY-1
  6
CONTINUOUS
 62
     2
100
AcDbCircle
 10
214.0
 20
-392.0
 30
0.0
 40
10.786611
  0
CIRCLE
  5
62D
100
AcDbEntity
  8
LAY-1
  6
CONTINUOUS
 62
     2
100
AcDbCircle
 10
214.0
 20
-392.0
 30
0.0
 40
11.868009
  0
LINE
  5
62E
100
AcDbEntity
  8
LAY-2
  6
CONTINUOUS
 62
     1
100
AcDbLine
 10
-348.732051
 20
208.0
 30
0.0
 11
-401.0
 21
208.0
 31
0.0
  0
LINE
  5
62F
100
AcDbEntity
  8
LAY-2
  6
CONTINUOUS
 62
     1
100
AcDbLine
 10
-350.13328
 20
-52.0
 30
0.0
 11
-401.0
 21
-52.0
 31
0.0
  0
TEXT
  5
630
100
AcDbEntity
  8
LAY-2
  6
CONTINUOUS
 62
     3
100
AcDbText
 10
-397.0
 20
40.5
 30
0.0
 40
25.0
  1
２６０
 50
90.0
 41
0.84
  7
EXCADSTD
 72
     5
 11
-397.0
 21
115.5
 31
0.0
100
AcDbText
  0
LINE
  5
631
100
AcDbEntity
  8
LAY-2
  6
CONTINUOUS
 62
     1
100
AcDbLine
 10
-396.0
 20
208.0
 30
0.0
 11
-396.0
 21
-52.0
 31
0.0
  0
LINE
  5
632
100
AcDbEntity
  8
LAY-2
  6
CONTINUOUS
 62
     1
100
AcDbLine
 10
-395.166667
 20
203.0
 30
0.0
 11
-396.0
 21
208.0
 31
0.0
  0
LINE
  5
633
100
AcDbEntity
  8
LAY-2
  6
CONTINUOUS
 62
     1
100
AcDbLine
 10
-396.0
 20
208.0
 30
0.0
 11
-396.833333
 21
203.0
 31
0.0
  0
LINE
  5
634
100
AcDbEntity
  8
LAY-2
  6
CONTINUOUS
 62
     1
100
AcDbLine
 10
-396.833333
 20
-47.0
 30
0.0
 11
-396.0
 21
-52.0
 31
0.0
  0
LINE
  5
635
100
AcDbEntity
  8
LAY-2
  6
CONTINUOUS
 62
     1
100
AcDbLine
 10
-396.0
 20
-52.0
 30
0.0
 11
-395.166667
 21
-47.0
 31
0.0
  0
LINE
  5
636
100
AcDbEntity
  8
LAY-2
  6
CONTINUOUS
 62
     1
100
AcDbLine
 10
-342.0
 20
226.0
 30
0.0
 11
-450.0
 21
226.0
 31
0.0
  0
LINE
  5
637
100
AcDbEntity
  8
LAY-2
  6
CONTINUOUS
 62
     1
100
AcDbLine
 10
-396.0
 20
-52.0
 30
0.0
 11
-450.0
 21
-52.0
 31
0.0
  0
LINE
  5
638
100
AcDbEntity
  8
LAY-2
  6
CONTINUOUS
 62
     1
100
AcDbLine
 10
-445.0
 20
226.0
 30
0.0
 11
-445.0
 21
-52.0
 31
0.0
  0
LINE
  5
639
100
AcDbEntity
  8
LAY-2
  6
CONTINUOUS
 62
     1
100
AcDbLine
 10
-444.166667
 20
221.0
 30
0.0
 11
-445.0
 21
226.0
 31
0.0
  0
LINE
  5
63A
100
AcDbEntity
  8
LAY-2
  6
CONTINUOUS
 62
     1
100
AcDbLine
 10
-445.0
 20
226.0
 30
0.0
 11
-445.833333
 21
221.0
 31
0.0
  0
LINE
  5
63B
100
AcDbEntity
  8
LAY-2
  6
CONTINUOUS
 62
     1
100
AcDbLine
 10
-445.833333
 20
-47.0
 30
0.0
 11
-445.0
 21
-52.0
 31
0.0
  0
LINE
  5
63C
100
AcDbEntity
  8
LAY-2
  6
CONTINUOUS
 62
     1
100
AcDbLine
 10
-445.0
 20
-52.0
 30
0.0
 11
-444.166667
 21
-47.0
 31
0.0
  0
TEXT
  5
63D
100
AcDbEntity
  8
LAY-2
  6
CONTINUOUS
 62
     3
100
AcDbText
 10
-446.0
 20
24.5
 30
0.0
 40
25.0
  1
（２７９）
 50
90.0
 41
0.84
  7
EXCADSTD
 72
     5
 11
-446.0
 21
149.5
 31
0.0
100
AcDbText
  0
LINE
  5
63E
100
AcDbEntity
  8
LAY-2
  6
CONTINUOUS
 62
     1
100
AcDbLine
 10
-378.0
 20
168.0
 30
0.0
 11
-378.0
 21
286.0
 31
0.0
  0
LINE
  5
63F
100
AcDbEntity
  8
LAY-2
  6
CONTINUOUS
 62
     1
100
AcDbLine
 10
-326.0
 20
234.7
 30
0.0
 11
-326.0
 21
286.0
 31
0.0
  0
LINE
  5
640
100
AcDbEntity
  8
LAY-2
  6
CONTINUOUS
 62
     1
100
AcDbLine
 10
-378.0
 20
281.0
 30
0.0
 11
-326.0
 21
281.0
 31
0.0
  0
LINE
  5
641
100
AcDbEntity
  8
LAY-2
  6
CONTINUOUS
 62
     1
100
AcDbLine
 10
-373.0
 20
281.833333
 30
0.0
 11
-378.0
 21
281.0
 31
0.0
  0
LINE
  5
642
100
AcDbEntity
  8
LAY-2
  6
CONTINUOUS
 62
     1
100
AcDbLine
 10
-378.0
 20
281.0
 30
0.0
 11
-373.0
 21
280.166667
 31
0.0
  0
LINE
  5
643
100
AcDbEntity
  8
LAY-2
  6
CONTINUOUS
 62
     1
100
AcDbLine
 10
-331.0
 20
280.166667
 30
0.0
 11
-326.0
 21
281.0
 31
0.0
  0
LINE
  5
644
100
AcDbEntity
  8
LAY-2
  6
CONTINUOUS
 62
     1
100
AcDbLine
 10
-326.0
 20
281.0
 30
0.0
 11
-331.0
 21
281.833333
 31
0.0
  0
TEXT
  5
645
100
AcDbEntity
  8
LAY-2
  6
CONTINUOUS
 62
     3
100
AcDbText
 10
-377.0
 20
282.0
 30
0.0
 40
25.0
  1
５２
 41
0.84
  7
EXCADSTD
 72
     5
 11
-331.17
 21
282.0
 31
0.0
100
AcDbText
  0
TEXT
  5
646
100
AcDbEntity
  8
LAY-2
  6
CONTINUOUS
 62
     3
100
AcDbText
 10
-250.625
 20
282.0
 30
0.0
 40
25.0
  1
（
 41
0.84
  7
EXCADSTD
 72
     5
 11
-230.625
 21
282.0
 31
0.0
100
AcDbText
  0
TEXT
  5
647
100
AcDbEntity
  8
LAY-2
  6
CONTINUOUS
 62
     3
100
AcDbText
 10
-225.625
 20
282.0
 30
0.0
 40
25.0
  1
２７６
 41
0.84
  7
EXCADSTD
 72
     5
 11
-150.625
 21
282.0
 31
0.0
100
AcDbText
  0
TEXT
  5
648
100
AcDbEntity
  8
LAY-2
  6
CONTINUOUS
 62
     3
100
AcDbText
 10
-150.625
 20
282.0
 30
0.0
 40
25.0
  1
）
 41
0.84
  7
EXCADSTD
 72
     5
 11
-130.625
 21
282.0
 31
0.0
100
AcDbText
  0
LINE
  5
649
100
AcDbEntity
  8
LAY-2
  6
CONTINUOUS
 62
     1
100
AcDbLine
 10
-50.25
 20
150.0
 30
0.0
 11
-50.25
 21
286.0
 31
0.0
  0
LINE
  5
64A
100
AcDbEntity
  8
LAY-2
  6
CONTINUOUS
 62
     1
100
AcDbLine
 10
-50.25
 20
281.0
 30
0.0
 11
-326.0
 21
281.0
 31
0.0
  0
LINE
  5
64B
100
AcDbEntity
  8
LAY-2
  6
CONTINUOUS
 62
     1
100
AcDbLine
 10
-55.25
 20
280.166667
 30
0.0
 11
-50.25
 21
281.0
 31
0.0
  0
LINE
  5
64C
100
AcDbEntity
  8
LAY-2
  6
CONTINUOUS
 62
     1
100
AcDbLine
 10
-50.25
 20
281.0
 30
0.0
 11
-55.25
 21
281.833333
 31
0.0
  0
LINE
  5
64D
100
AcDbEntity
  8
LAY-2
  6
CONTINUOUS
 62
     1
100
AcDbLine
 10
-321.0
 20
281.833333
 30
0.0
 11
-326.0
 21
281.0
 31
0.0
  0
LINE
  5
64E
100
AcDbEntity
  8
LAY-2
  6
CONTINUOUS
 62
     1
100
AcDbLine
 10
-326.0
 20
281.0
 30
0.0
 11
-321.0
 21
280.166667
 31
0.0
  0
TEXT
  5
64F
100
AcDbEntity
  8
LAY-2
  6
CONTINUOUS
 62
     3
100
AcDbText
 10
811.5
 20
320.1
 30
0.0
 40
25.0
  1
Ｒｃ１／２
 41
0.78624
  7
EXCADSTD
 72
     5
 11
928.5
 21
320.1
 31
0.0
100
AcDbText
  0
POLYLINE
  5
650
100
AcDbEntity
  8
LAY-2
  6
CONTINUOUS
 62
     1
100
AcDb2dPolyline
 66
     1
 10
0.0
 20
0.0
 30
0.0
 70
   128
  0
VERTEX
  5
651
100
AcDbEntity
  8
LAY-2
  6
CONTINUOUS
 62
     1
100
AcDbVertex
100
AcDb2dVertex
 10
754.0
 20
226.0
 30
0.0
  0
VERTEX
  5
652
100
AcDbEntity
  8
LAY-2
  6
CONTINUOUS
 62
     1
100
AcDbVertex
100
AcDb2dVertex
 10
799.5
 20
320.1
 30
0.0
  0
VERTEX
  5
653
100
AcDbEntity
  8
LAY-2
  6
CONTINUOUS
 62
     1
100
AcDbVertex
100
AcDb2dVertex
 10
931.5
 20
320.1
 30
0.0
  0
SEQEND
  5
654
100
AcDbEntity
  8
LAY-2
  6
CONTINUOUS
 62
     1
  0
LINE
  5
655
100
AcDbEntity
  8
LAY-2
  6
CONTINUOUS
 62
     1
100
AcDbLine
 10
755.426321
 20
230.86416
 30
0.0
 11
754.0
 21
226.0
 31
0.0
  0
LINE
  5
656
100
AcDbEntity
  8
LAY-2
  6
CONTINUOUS
 62
     1
100
AcDbLine
 10
754.0
 20
226.0
 30
0.0
 11
756.926788
 21
230.138642
 31
0.0
  0
POLYLINE
  5
657
100
AcDbEntity
  8
LAY-2
  6
CONTINUOUS
 62
     1
100
AcDb2dPolyline
 66
     1
 10
0.0
 20
0.0
 30
0.0
 70
   128
  0
VERTEX
  5
658
100
AcDbEntity
  8
LAY-2
  6
CONTINUOUS
 62
     1
100
AcDbVertex
100
AcDb2dVertex
 10
754.0
 20
208.0
 30
0.0
  0
VERTEX
  5
659
100
AcDbEntity
  8
LAY-2
  6
CONTINUOUS
 62
     1
100
AcDbVertex
100
AcDb2dVertex
 10
824.9
 20
251.6
 30
0.0
  0
VERTEX
  5
65A
100
AcDbEntity
  8
LAY-2
  6
CONTINUOUS
 62
     1
100
AcDbVertex
100
AcDb2dVertex
 10
956.9
 20
251.6
 30
0.0
  0
SEQEND
  5
65B
100
AcDbEntity
  8
LAY-2
  6
CONTINUOUS
 62
     1
  0
LINE
  5
65C
100
AcDbEntity
  8
LAY-2
  6
CONTINUOUS
 62
     1
100
AcDbLine
 10
757.822592
 20
211.328999
 30
0.0
 11
754.0
 21
208.0
 31
0.0
  0
LINE
  5
65D
100
AcDbEntity
  8
LAY-2
  6
CONTINUOUS
 62
     1
100
AcDbLine
 10
754.0
 20
208.0
 30
0.0
 11
758.695641
 21
209.909294
 31
0.0
  0
TEXT
  5
65E
100
AcDbEntity
  8
LAY-2
  6
CONTINUOUS
 62
     3
100
AcDbText
 10
836.9
 20
251.6
 30
0.0
 40
25.0
  1
Ｒｃ３／４
 41
0.78624
  7
EXCADSTD
 72
     5
 11
953.9
 21
251.6
 31
0.0
100
AcDbText
  0
TEXT
  5
65F
100
AcDbEntity
  8
LAY-2
  6
CONTINUOUS
 62
     3
100
AcDbText
 10
811.0
 20
-107.0
 30
0.0
 40
25.0
  1
Ｒｃ１
 41
0.7952
  7
EXCADSTD
 72
     5
 11
882.0
 21
-107.0
 31
0.0
100
AcDbText
  0
POLYLINE
  5
660
100
AcDbEntity
  8
LAY-2
  6
CONTINUOUS
 62
     1
100
AcDb2dPolyline
 66
     1
 10
0.0
 20
0.0
 30
0.0
 70
   128
  0
VERTEX
  5
661
100
AcDbEntity
  8
LAY-2
  6
CONTINUOUS
 62
     1
100
AcDbVertex
100
AcDb2dVertex
 10
754.0
 20
-52.0
 30
0.0
  0
VERTEX
  5
662
100
AcDbEntity
  8
LAY-2
  6
CONTINUOUS
 62
     1
100
AcDbVertex
100
AcDb2dVertex
 10
799.0
 20
-107.0
 30
0.0
  0
VERTEX
  5
663
100
AcDbEntity
  8
LAY-2
  6
CONTINUOUS
 62
     1
100
AcDbVertex
100
AcDb2dVertex
 10
893.0
 20
-107.0
 30
0.0
  0
SEQEND
  5
664
100
AcDbEntity
  8
LAY-2
  6
CONTINUOUS
 62
     1
  0
LINE
  5
665
100
AcDbEntity
  8
LAY-2
  6
CONTINUOUS
 62
     1
100
AcDbLine
 10
757.811153
 20
-55.342088
 30
0.0
 11
754.0
 21
-52.0
 31
0.0
  0
LINE
  5
666
100
AcDbEntity
  8
LAY-2
  6
CONTINUOUS
 62
     1
100
AcDbLine
 10
754.0
 20
-52.0
 30
0.0
 11
756.521225
 21
-56.397485
 31
0.0
  0
TEXT
  5
667
100
AcDbEntity
  8
LAY-2
  6
CONTINUOUS
 62
     3
100
AcDbText
 10
275.8
 20
-280.7
 30
0.0
 40
25.0
  1
Ｒｃ１／４
 41
0.78624
  7
EXCADSTD
 72
     5
 11
392.8
 21
-280.7
 31
0.0
100
AcDbText
  0
POLYLINE
  5
668
100
AcDbEntity
  8
LAY-2
  6
CONTINUOUS
 62
     1
100
AcDb2dPolyline
 66
     1
 10
0.0
 20
0.0
 30
0.0
 70
   128
  0
VERTEX
  5
669
100
AcDbEntity
  8
LAY-2
  6
CONTINUOUS
 62
     1
100
AcDbVertex
100
AcDb2dVertex
 10
214.0
 20
-324.0
 30
0.0
  0
VERTEX
  5
66A
100
AcDbEntity
  8
LAY-2
  6
CONTINUOUS
 62
     1
100
AcDbVertex
100
AcDb2dVertex
 10
276.1
 20
-280.7
 30
0.0
  0
VERTEX
  5
66B
100
AcDbEntity
  8
LAY-2
  6
CONTINUOUS
 62
     1
100
AcDbVertex
100
AcDb2dVertex
 10
392.3
 20
-280.7
 30
0.0
  0
SEQEND
  5
66C
100
AcDbEntity
  8
LAY-2
  6
CONTINUOUS
 62
     1
  0
LINE
  5
66D
100
AcDbEntity
  8
LAY-2
  6
CONTINUOUS
 62
     1
100
AcDbLine
 10
217.624799
 20
-320.456657
 30
0.0
 11
214.0
 21
-324.0
 31
0.0
  0
LINE
  5
66E
100
AcDbEntity
  8
LAY-2
  6
CONTINUOUS
 62
     1
100
AcDbLine
 10
214.0
 20
-324.0
 30
0.0
 11
218.578056
 21
-321.8238
 31
0.0
  0
LINE
  5
66F
100
AcDbEntity
  8
LAY-2
  6
CONTINUOUS
 62
     2
100
AcDbLine
 10
221.011686
 20
297.295492
 30
0.0
 11
221.011686
 21
276.260434
 31
0.0
  0
LINE
  5
670
100
AcDbEntity
  8
LAY-2
  6
CONTINUOUS
 62
     2
100
AcDbLine
 10
221.011686
 20
276.260434
 30
0.0
 11
228.023372
 21
276.260434
 31
0.0
  0
LINE
  5
671
100
AcDbEntity
  8
LAY-2
  6
CONTINUOUS
 62
     2
100
AcDbLine
 10
228.023372
 20
276.260434
 30
0.0
 11
214.0
 21
255.225376
 31
0.0
  0
LINE
  5
672
100
AcDbEntity
  8
LAY-2
  6
CONTINUOUS
 62
     2
100
AcDbLine
 10
214.0
 20
255.225376
 30
0.0
 11
199.976628
 21
276.260434
 31
0.0
  0
LINE
  5
673
100
AcDbEntity
  8
LAY-2
  6
CONTINUOUS
 62
     2
100
AcDbLine
 10
199.976628
 20
276.260434
 30
0.0
 11
206.988314
 21
276.260434
 31
0.0
  0
LINE
  5
674
100
AcDbEntity
  8
LAY-2
  6
CONTINUOUS
 62
     2
100
AcDbLine
 10
206.988314
 20
276.260434
 30
0.0
 11
206.988314
 21
297.295492
 31
0.0
  0
LINE
  5
675
100
AcDbEntity
  8
LAY-2
  6
CONTINUOUS
 62
     2
100
AcDbLine
 10
206.988314
 20
297.295492
 30
0.0
 11
221.011686
 21
297.295492
 31
0.0
  0
TEXT
  5
676
100
AcDbEntity
  8
LAY-3
  6
CONTINUOUS
 62
     3
100
AcDbText
 10
589.44
 20
-245.04
 30
0.0
 40
20.0
  1
型式
 41
0.984714
  7
EXCADSTD
 72
     5
 11
632.420406
 21
-245.04
 31
0.0
100
AcDbText
  0
TEXT
  5
677
100
AcDbEntity
  8
LAY-3
  6
CONTINUOUS
 62
     3
100
AcDbText
 10
588.96
 20
-273.2
 30
0.0
 40
20.0
  1
品名
 41
0.984714
  7
EXCADSTD
 72
     5
 11
631.940406
 21
-273.2
 31
0.0
100
AcDbText
  0
LINE
  5
678
100
AcDbEntity
  8
LAY-3
  6
CONTINUOUS
 62
     4
100
AcDbLine
 10
580.0
 20
-301.6
 30
0.0
 11
938.4
 21
-301.6
 31
0.0
  0
LINE
  5
679
100
AcDbEntity
  8
LAY-3
  6
CONTINUOUS
 62
     1
100
AcDbLine
 10
580.0
 20
-277.2
 30
0.0
 11
938.4
 21
-277.2
 31
0.0
  0
TEXT
  5
67A
100
AcDbEntity
  8
LAY-3
  6
CONTINUOUS
 62
     3
100
AcDbText
 10
707.36
 20
-298.96
 30
0.0
 40
20.0
  1
外観図
 41
1.47392
  7
EXCADSTD
 72
     5
 11
812.639999
 21
-298.96
 31
0.0
100
AcDbText
  0
LINE
  5
67B
100
AcDbEntity
  8
LAY-3
  6
CONTINUOUS
 62
     4
100
AcDbLine
 10
580.0
 20
-193.2
 30
0.0
 11
938.4
 21
-193.2
 31
0.0
  0
LINE
  5
67C
100
AcDbEntity
  8
LAY-3
  6
CONTINUOUS
 62
     1
100
AcDbLine
 10
580.0
 20
-249.2
 30
0.0
 11
938.4
 21
-249.2
 31
0.0
  0
LINE
  5
67D
100
AcDbEntity
  8
LAY-3
  6
CONTINUOUS
 62
     1
100
AcDbLine
 10
580.0
 20
-221.2
 30
0.0
 11
938.4
 21
-221.2
 31
0.0
  0
LINE
  5
67E
100
AcDbEntity
  8
LAY-3
  6
CONTINUOUS
 62
     1
100
AcDbLine
 10
640.0
 20
-193.2
 30
0.0
 11
640.0
 21
-277.2
 31
0.0
  0
LINE
  5
67F
100
AcDbEntity
  8
LAY-3
  6
CONTINUOUS
 62
     4
100
AcDbLine
 10
580.0
 20
-326.0
 30
0.0
 11
938.4
 21
-326.0
 31
0.0
  0
LINE
  5
680
100
AcDbEntity
  8
LAY-3
  6
CONTINUOUS
 62
     4
100
AcDbLine
 10
938.4
 20
-326.0
 30
0.0
 11
938.4
 21
-193.2
 31
0.0
  0
LINE
  5
681
100
AcDbEntity
  8
LAY-3
  6
CONTINUOUS
 62
     4
100
AcDbLine
 10
580.0
 20
-326.0
 30
0.0
 11
580.0
 21
-193.2
 31
0.0
  0
TEXT
  5
682
100
AcDbEntity
  8
LAY-3
  6
CONTINUOUS
 62
     3
100
AcDbText
 10
582.56
 20
-217.68
 30
0.0
 40
20.0
  1
作成日
 41
0.84
  7
EXCADSTD
 72
     5
 11
642.56
 21
-217.68
 31
0.0
100
AcDbText
  0
TEXT
  5
683
100
AcDbEntity
  8
LAY-3
  6
CONTINUOUS
 62
     3
100
AcDbText
 10
649.936
 20
-245.28
 30
0.0
 40
20.0
  1
ＢＲＶ－７０Ｍ
 41
0.84
  7
EXCADSTD
 72
     5
 11
789.936
 21
-245.28
 31
0.0
100
AcDbText
  0
TEXT
  5
684
100
AcDbEntity
  8
LAY-3
  6
CONTINUOUS
 62
     3
100
AcDbText
 10
649.904
 20
-273.184
 30
0.0
 40
20.0
  1
二段一次用調整器（ガス放出防止器内蔵）
 41
0.638842
  7
EXCADSTD
 72
     5
 11
938.904
 21
-273.184
 31
0.0
100
AcDbText
  0
INSERT
  5
685
100
AcDbEntity
  8
LAY-3
  6
CONTINUOUS
 62
     0
100
AcDbBlockReference
  2
SYM-1
 10
762.778841
 20
-314.027
 30
0.0
 41
3.06
 42
3.06
  0
TEXT
  5
686
100
AcDbEntity
  8
LAY-3
  6
CONTINUOUS
 62
     3
100
AcDbText
 10
660.48
 20
-217.68
 30
0.0
 40
20.0
  1
２０１４年　４月　１日
 41
0.84
  7
EXCADSTD
 72
     5
 11
880.48
 21
-217.68
 31
0.0
100
AcDbText
  0
ENDSEC
  0
SECTION
  2
OBJECTS
  0
DICTIONARY
  5
19
100
AcDbDictionary
  3
ACAD_GROUP
350
1A
  3
ACAD_MLINESTYLE
350
1B
  0
DICTIONARY
  5
1A
102
{ACAD_REACTORS
330
19
102
}
100
AcDbDictionary
  0
DICTIONARY
  5
1B
102
{ACAD_REACTORS
330
19
102
}
100
AcDbDictionary
  3
STANDARD
350
1C
  0
MLINESTYLE
  5
1C
102
{ACAD_REACTORS
330
1B
102
}
100
AcDbMlineStyle
  2
Standard
 70
     0
  3

 62
     0
 51
90.0
 52
90.0
 71
     2
 49
0.5
 62
   256
  6
ByLayer
 49
-0.5
 62
   256
  6
ByLayer
  0
ENDSEC
  0
EOF
