  0
SECTION
  2
HEADER
  9
$ACADVER
  1
AC1014
  9
$ACADMAINTVER
 70
     9
  9
$DWGCODEPAGE
  3
ANSI_932
  9
$INSBASE
 10
0.0
 20
0.0
 30
0.0
  9
$EXTMIN
 10
175.47818483963
 20
63.03785379193999
 30
0.0
  9
$EXTMAX
 10
666.2452007483802
 20
543.2621462081001
 30
0.0
  9
$LIMMIN
 10
0.0
 20
0.0
  9
$LIMMAX
 10
420.0
 20
297.0
  9
$ORTHOMODE
 70
     0
  9
$REGENMODE
 70
     1
  9
$FILLMODE
 70
     1
  9
$QTEXTMODE
 70
     0
  9
$MIRRTEXT
 70
     1
  9
$DRAGMODE
 70
     2
  9
$LTSCALE
 40
1.0
  9
$OSMODE
 70
    37
  9
$ATTMODE
 70
     1
  9
$TEXTSIZE
 40
2.5
  9
$TRACEWID
 40
1.0
  9
$TEXTSTYLE
  7
STANDARD
  9
$CLAYER
  8
LAY-1
  9
$CELTYPE
  6
BYLAYER
  9
$CECOLOR
 62
   256
  9
$CELTSCALE
 40
1.0
  9
$DELOBJ
 70
     1
  9
$DISPSILH
 70
     0
  9
$DIMSCALE
 40
1.0
  9
$DIMASZ
 40
2.5
  9
$DIMEXO
 40
0.625
  9
$DIMDLI
 40
3.75
  9
$DIMRND
 40
0.0
  9
$DIMDLE
 40
0.0
  9
$DIMEXE
 40
1.25
  9
$DIMTP
 40
0.0
  9
$DIMTM
 40
0.0
  9
$DIMTXT
 40
2.5
  9
$DIMCEN
 40
2.5
  9
$DIMTSZ
 40
0.0
  9
$DIMTOL
 70
     0
  9
$DIMLIM
 70
     0
  9
$DIMTIH
 70
     0
  9
$DIMTOH
 70
     0
  9
$DIMSE1
 70
     0
  9
$DIMSE2
 70
     0
  9
$DIMTAD
 70
     1
  9
$DIMZIN
 70
     8
  9
$DIMBLK
  1

  9
$DIMASO
 70
     1
  9
$DIMSHO
 70
     1
  9
$DIMPOST
  1

  9
$DIMAPOST
  1

  9
$DIMALT
 70
     0
  9
$DIMALTD
 70
     3
  9
$DIMALTF
 40
0.03937007874016
  9
$DIMLFAC
 40
1.0
  9
$DIMTOFL
 70
     1
  9
$DIMTVP
 40
0.0
  9
$DIMTIX
 70
     0
  9
$DIMSOXD
 70
     0
  9
$DIMSAH
 70
     0
  9
$DIMBLK1
  1

  9
$DIMBLK2
  1

  9
$DIMSTYLE
  2
ISO-25
  9
$DIMCLRD
 70
     0
  9
$DIMCLRE
 70
     0
  9
$DIMCLRT
 70
     0
  9
$DIMTFAC
 40
1.0
  9
$DIMGAP
 40
0.625
  9
$DIMJUST
 70
     0
  9
$DIMSD1
 70
     0
  9
$DIMSD2
 70
     0
  9
$DIMTOLJ
 70
     0
  9
$DIMTZIN
 70
     8
  9
$DIMALTZ
 70
     0
  9
$DIMALTTZ
 70
     0
  9
$DIMFIT
 70
     3
  9
$DIMUPT
 70
     0
  9
$DIMUNIT
 70
     2
  9
$DIMDEC
 70
     2
  9
$DIMTDEC
 70
     2
  9
$DIMALTU
 70
     2
  9
$DIMALTTD
 70
     3
  9
$DIMTXSTY
  7
STANDARD
  9
$DIMAUNIT
 70
     0
  9
$LUNITS
 70
     2
  9
$LUPREC
 70
     4
  9
$SKETCHINC
 40
1.0
  9
$FILLETRAD
 40
10.0
  9
$AUNITS
 70
     0
  9
$AUPREC
 70
     0
  9
$MENU
  1
.
  9
$ELEVATION
 40
0.0
  9
$PELEVATION
 40
0.0
  9
$THICKNESS
 40
0.0
  9
$LIMCHECK
 70
     0
  9
$CHAMFERA
 40
0.0
  9
$CHAMFERB
 40
0.0
  9
$CHAMFERC
 40
0.0
  9
$CHAMFERD
 40
0.0
  9
$SKPOLY
 70
     0
  9
$TDCREATE
 40
2458928.445751759
  9
$TDUPDATE
 40
2458928.445754468
  9
$TDINDWG
 40
0.0000000116
  9
$TDUSRTIMER
 40
0.0000000116
  9
$USRTIMER
 70
     1
  9
$ANGBASE
 50
0.0
  9
$ANGDIR
 70
     0
  9
$PDMODE
 70
     0
  9
$PDSIZE
 40
0.0
  9
$PLINEWID
 40
0.0
  9
$COORDS
 70
     1
  9
$SPLFRAME
 70
     0
  9
$SPLINETYPE
 70
     6
  9
$SPLINESEGS
 70
     8
  9
$ATTDIA
 70
     0
  9
$ATTREQ
 70
     1
  9
$HANDLING
 70
     1
  9
$HANDSEED
  5
64C
  9
$SURFTAB1
 70
     6
  9
$SURFTAB2
 70
     6
  9
$SURFTYPE
 70
     6
  9
$SURFU
 70
     6
  9
$SURFV
 70
     6
  9
$UCSNAME
  2

  9
$UCSORG
 10
0.0
 20
0.0
 30
0.0
  9
$UCSXDIR
 10
1.0
 20
0.0
 30
0.0
  9
$UCSYDIR
 10
0.0
 20
1.0
 30
0.0
  9
$PUCSNAME
  2

  9
$PUCSORG
 10
0.0
 20
0.0
 30
0.0
  9
$PUCSXDIR
 10
1.0
 20
0.0
 30
0.0
  9
$PUCSYDIR
 10
0.0
 20
1.0
 30
0.0
  9
$USERI1
 70
     0
  9
$USERI2
 70
     0
  9
$USERI3
 70
     0
  9
$USERI4
 70
     0
  9
$USERI5
 70
     0
  9
$USERR1
 40
0.0
  9
$USERR2
 40
0.0
  9
$USERR3
 40
0.0
  9
$USERR4
 40
0.0
  9
$USERR5
 40
0.0
  9
$WORLDVIEW
 70
     1
  9
$SHADEDGE
 70
     3
  9
$SHADEDIF
 70
    70
  9
$TILEMODE
 70
     1
  9
$MAXACTVP
 70
    64
  9
$PINSBASE
 10
0.0
 20
0.0
 30
0.0
  9
$PLIMCHECK
 70
     0
  9
$PEXTMIN
 10
1.000000000000000E+20
 20
1.000000000000000E+20
 30
1.000000000000000E+20
  9
$PEXTMAX
 10
-1.000000000000000E+20
 20
-1.000000000000000E+20
 30
-1.000000000000000E+20
  9
$PLIMMIN
 10
0.0
 20
0.0
  9
$PLIMMAX
 10
420.0
 20
297.0
  9
$UNITMODE
 70
     0
  9
$VISRETAIN
 70
     1
  9
$PLINEGEN
 70
     0
  9
$PSLTSCALE
 70
     1
  9
$TREEDEPTH
 70
  3020
  9
$PICKSTYLE
 70
     1
  9
$CMLSTYLE
  2
STANDARD
  9
$CMLJUST
 70
     0
  9
$CMLSCALE
 40
20.0
  9
$PROXYGRAPHICS
 70
     1
  9
$MEASUREMENT
 70
     1
  0
ENDSEC
  0
SECTION
  2
CLASSES
  0
CLASS
  1
ACDBDICTIONARYWDFLT
  2
AcDbDictionaryWithDefault
  3
ObjectDBX Classes
 90
        0
280
     0
281
     0
  0
CLASS
  1
VISUALSTYLE
  2
AcDbVisualStyle
  3
ObjectDBX Classes
 90
     4095
280
     0
281
     0
  0
CLASS
  1
MATERIAL
  2
AcDbMaterial
  3
ObjectDBX Classes
 90
     1153
280
     0
281
     0
  0
CLASS
  1
SCALE
  2
AcDbScale
  3
ObjectDBX Classes
 90
     1153
280
     0
281
     0
  0
CLASS
  1
TABLESTYLE
  2
AcDbTableStyle
  3
ObjectDBX Classes
 90
     4095
280
     0
281
     0
  0
CLASS
  1
MLEADERSTYLE
  2
AcDbMLeaderStyle
  3
ACDB_MLEADERSTYLE_CLASS
 90
     4095
280
     0
281
     0
  0
CLASS
  1
SUN
  2
AcDbSun
  3
SCENEOE
 90
     1153
280
     0
281
     0
  0
CLASS
  1
DICTIONARYVAR
  2
AcDbDictionaryVar
  3
ObjectDBX Classes
 90
        0
280
     0
281
     0
  0
CLASS
  1
XRECORD
  2
AcDbXrecord
  3
ObjectDBX Classes
 90
        0
280
     0
281
     0
  0
CLASS
  1
LWPOLYLINE
  2
AcDbPolyline
  3
ObjectDBX Classes
 90
        0
280
     0
281
     1
  0
CLASS
  1
HATCH
  2
AcDbHatch
  3
ObjectDBX Classes
 90
        0
280
     0
281
     1
  0
CLASS
  1
ACDBPLACEHOLDER
  2
AcDbPlaceHolder
  3
ObjectDBX Classes
 90
        0
280
     0
281
     0
  0
CLASS
  1
LAYOUT
  2
AcDbLayout
  3
ObjectDBX Classes
 90
        0
280
     0
281
     0
  0
ENDSEC
  0
SECTION
  2
TABLES
  0
TABLE
  2
VPORT
  5
8
102
{ACAD_XDICTIONARY
360
641
102
}
330
0
100
AcDbSymbolTable
 70
     1
  0
VPORT
  5
29
330
8
100
AcDbSymbolTableRecord
100
AcDbViewportTableRecord
  2
*ACTIVE
 70
     0
 10
0.0
 20
0.0
 11
1.0
 21
1.0
 12
420.8168222965164
 22
361.31892689597
 13
0.0
 23
0.0
 14
10.0
 24
10.0
 15
10.0
 25
10.0
 16
0.0
 26
0.0
 36
1.0
 17
0.0
 27
0.0
 37
0.0
 40
596.5621462080601
 41
0.8254120045056251
 42
50.0
 43
0.0
 44
0.0
 50
0.0
 51
0.0
 71
     0
 72
  1000
 73
     1
 74
     3
 75
     0
 76
     0
 77
     0
 78
     0
  0
ENDTAB
  0
TABLE
  2
LTYPE
  5
5
330
0
100
AcDbSymbolTable
 70
     7
  0
LTYPE
  5
14
330
5
100
AcDbSymbolTableRecord
100
AcDbLinetypeTableRecord
  2
BYBLOCK
 70
     0
  3

 72
    65
 73
     0
 40
0.0
  0
LTYPE
  5
15
330
5
100
AcDbSymbolTableRecord
100
AcDbLinetypeTableRecord
  2
BYLAYER
 70
     0
  3

 72
    65
 73
     0
 40
0.0
  0
LTYPE
  5
16
330
5
100
AcDbSymbolTableRecord
100
AcDbLinetypeTableRecord
  2
CONTINUOUS
 70
     0
  3
Solid line
 72
    65
 73
     0
 40
0.0
  0
LTYPE
  5
6E
330
5
100
AcDbSymbolTableRecord
100
AcDbLinetypeTableRecord
  2
EXLTYPE0
 70
     0
  3
破線
 72
    65
 73
     2
 40
4.0
 49
3.0
 74
     0
 49
-1.0
 74
     0
  0
LTYPE
  5
6F
330
5
100
AcDbSymbolTableRecord
100
AcDbLinetypeTableRecord
  2
EXLTYPE1
 70
     0
  3
点線
 72
    65
 73
     2
 40
2.0
 49
1.0
 74
     0
 49
-1.0
 74
     0
  0
LTYPE
  5
70
330
5
100
AcDbSymbolTableRecord
100
AcDbLinetypeTableRecord
  2
EXLTYPE2
 70
     0
  3
一点鎖線
 72
    65
 73
     4
 40
33.0
 49
30.0
 74
     0
 49
-1.0
 74
     0
 49
1.0
 74
     0
 49
-1.0
 74
     0
  0
LTYPE
  5
71
330
5
100
AcDbSymbolTableRecord
100
AcDbLinetypeTableRecord
  2
EXLTYPE3
 70
     0
  3
二点鎖線
 72
    65
 73
     6
 40
35.0
 49
30.0
 74
     0
 49
-1.0
 74
     0
 49
1.0
 74
     0
 49
-1.0
 74
     0
 49
1.0
 74
     0
 49
-1.0
 74
     0
  0
LTYPE
  5
72
330
5
100
AcDbSymbolTableRecord
100
AcDbLinetypeTableRecord
  2
EXLTYPE4
 70
     0
  3
三点鎖線
 72
    65
 73
     8
 40
37.0
 49
30.0
 74
     0
 49
-1.0
 74
     0
 49
1.0
 74
     0
 49
-1.0
 74
     0
 49
1.0
 74
     0
 49
-1.0
 74
     0
 49
1.0
 74
     0
 49
-1.0
 74
     0
  0
LTYPE
  5
73
330
5
100
AcDbSymbolTableRecord
100
AcDbLinetypeTableRecord
  2
EXLTYPE5
 70
     0
  3
四点鎖線
 72
    65
 73
    10
 40
39.0
 49
30.0
 74
     0
 49
-1.0
 74
     0
 49
1.0
 74
     0
 49
-1.0
 74
     0
 49
1.0
 74
     0
 49
-1.0
 74
     0
 49
1.0
 74
     0
 49
-1.0
 74
     0
 49
1.0
 74
     0
 49
-1.0
 74
     0
  0
ENDTAB
  0
TABLE
  2
LAYER
  5
2
330
0
100
AcDbSymbolTable
 70
     4
  0
LAYER
  5
10
330
2
100
AcDbSymbolTableRecord
100
AcDbLayerTableRecord
  2
0
 70
     0
 62
     7
  6
CONTINUOUS
  0
LAYER
  5
76
330
2
100
AcDbSymbolTableRecord
100
AcDbLayerTableRecord
  2
LAY-1
 70
     0
 62
     3
  6
CONTINUOUS
  0
LAYER
  5
77
330
2
100
AcDbSymbolTableRecord
100
AcDbLayerTableRecord
  2
LAY-2
 70
     0
 62
     7
  6
CONTINUOUS
  0
LAYER
  5
78
330
2
100
AcDbSymbolTableRecord
100
AcDbLayerTableRecord
  2
LAY-5
 70
     0
 62
     1
  6
CONTINUOUS
  0
ENDTAB
  0
TABLE
  2
STYLE
  5
3
330
0
100
AcDbSymbolTable
 70
     3
  0
STYLE
  5
11
330
3
100
AcDbSymbolTableRecord
100
AcDbTextStyleTableRecord
  2
STANDARD
 70
     0
 40
0.0
 41
1.0
 50
0.0
 71
     0
 42
2.5
  3
monotxt
  4
extfont
  0
STYLE
  5
74
330
3
100
AcDbSymbolTableRecord
100
AcDbTextStyleTableRecord
  2
EXCADSTD
 70
     0
 40
0.0
 41
1.0
 50
0.0
 71
     0
 42
2.5
  3
monotxt
  4
extfont
  0
STYLE
  5
75
330
3
100
AcDbSymbolTableRecord
100
AcDbTextStyleTableRecord
  2
EXCADVERT
 70
     4
 40
0.0
 41
1.0
 50
0.0
 71
     0
 42
2.5
  3
monotxt
  4
extfont
  0
ENDTAB
  0
TABLE
  2
VIEW
  5
6
330
0
100
AcDbSymbolTable
 70
     0
  0
ENDTAB
  0
TABLE
  2
UCS
  5
7
330
0
100
AcDbSymbolTable
 70
     0
  0
ENDTAB
  0
TABLE
  2
APPID
  5
9
330
0
100
AcDbSymbolTable
 70
     2
  0
APPID
  5
12
330
9
100
AcDbSymbolTableRecord
100
AcDbRegAppTableRecord
  2
ACAD
 70
     0
  0
APPID
  5
64B
330
9
100
AcDbSymbolTableRecord
100
AcDbRegAppTableRecord
  2
ACAD_MLEADERVER
 70
     0
  0
ENDTAB
  0
TABLE
  2
DIMSTYLE
  5
A
330
0
100
AcDbSymbolTable
 70
     1
  0
DIMSTYLE
105
27
330
A
100
AcDbSymbolTableRecord
100
AcDbDimStyleTableRecord
  2
ISO-25
 70
     0
  3

  4

  5

  6

  7

 40
1.0
 41
2.5
 42
0.625
 43
3.75
 44
1.25
 45
0.0
 46
0.0
 47
0.0
 48
0.0
140
2.5
141
2.5
142
0.0
143
0.03937007874016
144
1.0
145
0.0
146
1.0
147
0.625
 71
     0
 72
     0
 73
     0
 74
     0
 75
     0
 76
     0
 77
     1
 78
     8
170
     0
171
     3
172
     1
173
     0
174
     0
175
     0
176
     0
177
     0
178
     0
270
     2
271
     2
272
     2
273
     2
274
     3
340
11
275
     0
280
     0
281
     0
282
     0
283
     0
284
     8
285
     0
286
     0
287
     5
288
     0
  0
ENDTAB
  0
TABLE
  2
BLOCK_RECORD
  5
1
330
0
100
AcDbSymbolTable
 70
    15
  0
BLOCK_RECORD
  5
1F
330
1
100
AcDbSymbolTableRecord
100
AcDbBlockTableRecord
  2
*MODEL_SPACE
  0
BLOCK_RECORD
  5
1B
330
1
100
AcDbSymbolTableRecord
100
AcDbBlockTableRecord
  2
*PAPER_SPACE
  0
BLOCK_RECORD
  5
79
330
1
100
AcDbSymbolTableRecord
100
AcDbBlockTableRecord
  2
EX_NORM
  0
BLOCK_RECORD
  5
7C
330
1
100
AcDbSymbolTableRecord
100
AcDbBlockTableRecord
  2
EX_BNORM
  0
BLOCK_RECORD
  5
7F
330
1
100
AcDbSymbolTableRecord
100
AcDbBlockTableRecord
  2
EX_BCIR
  0
BLOCK_RECORD
  5
82
330
1
100
AcDbSymbolTableRecord
100
AcDbBlockTableRecord
  2
EX_RCIVIL
  0
BLOCK_RECORD
  5
85
330
1
100
AcDbSymbolTableRecord
100
AcDbBlockTableRecord
  2
EX_SLANT
  0
BLOCK_RECORD
  5
88
330
1
100
AcDbSymbolTableRecord
100
AcDbBlockTableRecord
  2
EX_NONE
  0
BLOCK_RECORD
  5
8B
330
1
100
AcDbSymbolTableRecord
100
AcDbBlockTableRecord
  2
EX_CIVIL
  0
BLOCK_RECORD
  5
8E
330
1
100
AcDbSymbolTableRecord
100
AcDbBlockTableRecord
  2
EX_WCIR
  0
BLOCK_RECORD
  5
91
330
1
100
AcDbSymbolTableRecord
100
AcDbBlockTableRecord
  2
EX_WCIR2
  0
BLOCK_RECORD
  5
94
330
1
100
AcDbSymbolTableRecord
100
AcDbBlockTableRecord
  2
EX_WNORM
  0
BLOCK_RECORD
  5
97
330
1
100
AcDbSymbolTableRecord
100
AcDbBlockTableRecord
  2
EX_NNORM
  0
BLOCK_RECORD
  5
9A
330
1
100
AcDbSymbolTableRecord
100
AcDbBlockTableRecord
  2
EX_BBOX
  0
BLOCK_RECORD
  5
9D
330
1
100
AcDbSymbolTableRecord
100
AcDbBlockTableRecord
  2
EX_WBOX
  0
BLOCK_RECORD
  5
A0
330
1
100
AcDbSymbolTableRecord
100
AcDbBlockTableRecord
  2
EX_INTEGRAL
  0
BLOCK_RECORD
  5
A3
330
1
100
AcDbSymbolTableRecord
100
AcDbBlockTableRecord
  2
SYM-1
  0
ENDTAB
  0
ENDSEC
  0
SECTION
  2
BLOCKS
  0
BLOCK
  5
20
330
1F
100
AcDbEntity
  8
0
100
AcDbBlockBegin
  2
*MODEL_SPACE
 70
     0
 10
0.0
 20
0.0
 30
0.0
  3
*MODEL_SPACE
  1

  0
ENDBLK
  5
21
330
1F
100
AcDbEntity
  8
0
100
AcDbBlockEnd
  0
BLOCK
  5
1C
330
1B
100
AcDbEntity
 67
     1
  8
0
100
AcDbBlockBegin
  2
*PAPER_SPACE
 70
     0
 10
0.0
 20
0.0
 30
0.0
  3
*PAPER_SPACE
  1

  0
ENDBLK
  5
1D
330
1B
100
AcDbEntity
 67
     1
  8
0
100
AcDbBlockEnd
  0
BLOCK
  5
7A
330
79
100
AcDbEntity
  8
0
100
AcDbBlockBegin
  2
EX_NORM
 70
     0
 10
0.0
 20
0.0
 30
0.0
  3
EX_NORM
  1

  0
LINE
  5
A6
330
79
100
AcDbEntity
  8
0
  6
CONTINUOUS
 62
     0
100
AcDbLine
 10
0.0
 20
0.0
 30
0.0
 11
-1.0
 21
0.0
 31
0.0
  0
LINE
  5
A7
330
79
100
AcDbEntity
  8
0
  6
CONTINUOUS
 62
     0
100
AcDbLine
 10
0.0
 20
0.0
 30
0.0
 11
-1.0
 21
0.166666667
 31
0.0
  0
LINE
  5
A8
330
79
100
AcDbEntity
  8
0
  6
CONTINUOUS
 62
     0
100
AcDbLine
 10
0.0
 20
0.0
 30
0.0
 11
-1.0
 21
-0.166666667
 31
0.0
  0
ENDBLK
  5
7B
330
79
100
AcDbEntity
  8
0
100
AcDbBlockEnd
  0
BLOCK
  5
7D
330
7C
100
AcDbEntity
  8
0
100
AcDbBlockBegin
  2
EX_BNORM
 70
     0
 10
0.0
 20
0.0
 30
0.0
  3
EX_BNORM
  1

  0
LINE
  5
A9
330
7C
100
AcDbEntity
  8
0
  6
CONTINUOUS
 62
     0
100
AcDbLine
 10
0.0
 20
0.0
 30
0.0
 11
-1.0
 21
0.0
 31
0.0
  0
LINE
  5
AA
330
7C
100
AcDbEntity
  8
0
  6
CONTINUOUS
 62
     0
100
AcDbLine
 10
0.0
 20
0.0
 30
0.0
 11
-1.0
 21
0.166666667
 31
0.0
  0
LINE
  5
AB
330
7C
100
AcDbEntity
  8
0
  6
CONTINUOUS
 62
     0
100
AcDbLine
 10
0.0
 20
0.0
 30
0.0
 11
-1.0
 21
-0.166666667
 31
0.0
  0
LINE
  5
AC
330
7C
100
AcDbEntity
  8
0
  6
CONTINUOUS
 62
     0
100
AcDbLine
 10
0.0
 20
0.0
 30
0.0
 11
-1.0
 21
0.083333333
 31
0.0
  0
LINE
  5
AD
330
7C
100
AcDbEntity
  8
0
  6
CONTINUOUS
 62
     0
100
AcDbLine
 10
0.0
 20
0.0
 30
0.0
 11
-1.0
 21
-0.083333333
 31
0.0
  0
LINE
  5
AE
330
7C
100
AcDbEntity
  8
0
  6
CONTINUOUS
 62
     0
100
AcDbLine
 10
-1.0
 20
0.166666667
 30
0.0
 11
-1.0
 21
-0.166666667
 31
0.0
  0
ENDBLK
  5
7E
330
7C
100
AcDbEntity
  8
0
100
AcDbBlockEnd
  0
BLOCK
  5
80
330
7F
100
AcDbEntity
  8
0
100
AcDbBlockBegin
  2
EX_BCIR
 70
     0
 10
0.0
 20
0.0
 30
0.0
  3
EX_BCIR
  1

  0
LINE
  5
AF
330
7F
100
AcDbEntity
  8
0
  6
CONTINUOUS
 62
     0
100
AcDbLine
 10
0.0
 20
0.0
 30
0.0
 11
-1.0
 21
0.0
 31
0.0
  0
CIRCLE
  5
B0
330
7F
100
AcDbEntity
  8
0
  6
CONTINUOUS
 62
     0
100
AcDbCircle
 10
0.0
 20
0.0
 30
0.0
 40
0.5
  0
CIRCLE
  5
B1
330
7F
100
AcDbEntity
  8
0
  6
CONTINUOUS
 62
     0
100
AcDbCircle
 10
0.0
 20
0.0
 30
0.0
 40
0.25
  0
ENDBLK
  5
81
330
7F
100
AcDbEntity
  8
0
100
AcDbBlockEnd
  0
BLOCK
  5
83
330
82
100
AcDbEntity
  8
0
100
AcDbBlockBegin
  2
EX_RCIVIL
 70
     0
 10
0.0
 20
0.0
 30
0.0
  3
EX_RCIVIL
  1

  0
LINE
  5
B2
330
82
100
AcDbEntity
  8
0
  6
CONTINUOUS
 62
     0
100
AcDbLine
 10
0.0
 20
0.0
 30
0.0
 11
-1.0
 21
0.0
 31
0.0
  0
LINE
  5
B3
330
82
100
AcDbEntity
  8
0
  6
CONTINUOUS
 62
     0
100
AcDbLine
 10
-1.0
 20
-0.25
 30
0.0
 11
0.0
 21
-0.25
 31
0.0
  0
LINE
  5
B4
330
82
100
AcDbEntity
  8
0
  6
CONTINUOUS
 62
     0
100
AcDbLine
 10
-1.0
 20
-0.125
 30
0.0
 11
0.0
 21
-0.125
 31
0.0
  0
ENDBLK
  5
84
330
82
100
AcDbEntity
  8
0
100
AcDbBlockEnd
  0
BLOCK
  5
86
330
85
100
AcDbEntity
  8
0
100
AcDbBlockBegin
  2
EX_SLANT
 70
     0
 10
0.0
 20
0.0
 30
0.0
  3
EX_SLANT
  1

  0
LINE
  5
B5
330
85
100
AcDbEntity
  8
0
  6
CONTINUOUS
 62
     0
100
AcDbLine
 10
0.0
 20
0.0
 30
0.0
 11
-1.0
 21
0.0
 31
0.0
  0
LINE
  5
B6
330
85
100
AcDbEntity
  8
0
  6
CONTINUOUS
 62
     0
100
AcDbLine
 10
0.707106781
 20
0.707106781
 30
0.0
 11
-0.707106781
 21
-0.707106781
 31
0.0
  0
ENDBLK
  5
87
330
85
100
AcDbEntity
  8
0
100
AcDbBlockEnd
  0
BLOCK
  5
89
330
88
100
AcDbEntity
  8
0
100
AcDbBlockBegin
  2
EX_NONE
 70
     0
 10
0.0
 20
0.0
 30
0.0
  3
EX_NONE
  1

  0
LINE
  5
B7
330
88
100
AcDbEntity
  8
0
  6
CONTINUOUS
 62
     0
100
AcDbLine
 10
0.0
 20
0.0
 30
0.0
 11
-1.0
 21
0.0
 31
0.0
  0
ENDBLK
  5
8A
330
88
100
AcDbEntity
  8
0
100
AcDbBlockEnd
  0
BLOCK
  5
8C
330
8B
100
AcDbEntity
  8
0
100
AcDbBlockBegin
  2
EX_CIVIL
 70
     0
 10
0.0
 20
0.0
 30
0.0
  3
EX_CIVIL
  1

  0
LINE
  5
B8
330
8B
100
AcDbEntity
  8
0
  6
CONTINUOUS
 62
     0
100
AcDbLine
 10
0.0
 20
0.0
 30
0.0
 11
-1.0
 21
0.0
 31
0.0
  0
LINE
  5
B9
330
8B
100
AcDbEntity
  8
0
  6
CONTINUOUS
 62
     0
100
AcDbLine
 10
-1.0
 20
0.25
 30
0.0
 11
0.0
 21
0.25
 31
0.0
  0
LINE
  5
BA
330
8B
100
AcDbEntity
  8
0
  6
CONTINUOUS
 62
     0
100
AcDbLine
 10
-1.0
 20
0.125
 30
0.0
 11
0.0
 21
0.125
 31
0.0
  0
ENDBLK
  5
8D
330
8B
100
AcDbEntity
  8
0
100
AcDbBlockEnd
  0
BLOCK
  5
8F
330
8E
100
AcDbEntity
  8
0
100
AcDbBlockBegin
  2
EX_WCIR
 70
     0
 10
0.0
 20
0.0
 30
0.0
  3
EX_WCIR
  1

  0
LINE
  5
BB
330
8E
100
AcDbEntity
  8
0
  6
CONTINUOUS
 62
     0
100
AcDbLine
 10
0.0
 20
0.0
 30
0.0
 11
-1.0
 21
0.0
 31
0.0
  0
CIRCLE
  5
BC
330
8E
100
AcDbEntity
  8
0
  6
CONTINUOUS
 62
     0
100
AcDbCircle
 10
0.0
 20
0.0
 30
0.0
 40
0.5
  0
ENDBLK
  5
90
330
8E
100
AcDbEntity
  8
0
100
AcDbBlockEnd
  0
BLOCK
  5
92
330
91
100
AcDbEntity
  8
0
100
AcDbBlockBegin
  2
EX_WCIR2
 70
     0
 10
0.0
 20
0.0
 30
0.0
  3
EX_WCIR2
  1

  0
LINE
  5
BD
330
91
100
AcDbEntity
  8
0
  6
CONTINUOUS
 62
     0
100
AcDbLine
 10
-0.5
 20
0.0
 30
0.0
 11
-1.0
 21
0.0
 31
0.0
  0
CIRCLE
  5
BE
330
91
100
AcDbEntity
  8
0
  6
CONTINUOUS
 62
     0
100
AcDbCircle
 10
0.0
 20
0.0
 30
0.0
 40
0.5
  0
ENDBLK
  5
93
330
91
100
AcDbEntity
  8
0
100
AcDbBlockEnd
  0
BLOCK
  5
95
330
94
100
AcDbEntity
  8
0
100
AcDbBlockBegin
  2
EX_WNORM
 70
     0
 10
0.0
 20
0.0
 30
0.0
  3
EX_WNORM
  1

  0
LINE
  5
BF
330
94
100
AcDbEntity
  8
0
  6
CONTINUOUS
 62
     0
100
AcDbLine
 10
-1.0
 20
0.0
 30
0.0
 11
-1.0
 21
0.0
 31
0.0
  0
LINE
  5
C0
330
94
100
AcDbEntity
  8
0
  6
CONTINUOUS
 62
     0
100
AcDbLine
 10
0.0
 20
0.0
 30
0.0
 11
-1.0
 21
0.166666667
 31
0.0
  0
LINE
  5
C1
330
94
100
AcDbEntity
  8
0
  6
CONTINUOUS
 62
     0
100
AcDbLine
 10
0.0
 20
0.0
 30
0.0
 11
-1.0
 21
-0.166666667
 31
0.0
  0
LINE
  5
C2
330
94
100
AcDbEntity
  8
0
  6
CONTINUOUS
 62
     0
100
AcDbLine
 10
-1.0
 20
0.166666667
 30
0.0
 11
-1.0
 21
-0.166666667
 31
0.0
  0
ENDBLK
  5
96
330
94
100
AcDbEntity
  8
0
100
AcDbBlockEnd
  0
BLOCK
  5
98
330
97
100
AcDbEntity
  8
0
100
AcDbBlockBegin
  2
EX_NNORM
 70
     0
 10
0.0
 20
0.0
 30
0.0
  3
EX_NNORM
  1

  0
LINE
  5
C3
330
97
100
AcDbEntity
  8
0
  6
CONTINUOUS
 62
     0
100
AcDbLine
 10
0.0
 20
0.0
 30
0.0
 11
-1.0
 21
0.0
 31
0.0
  0
LINE
  5
C4
330
97
100
AcDbEntity
  8
0
  6
CONTINUOUS
 62
     0
100
AcDbLine
 10
0.0
 20
0.0
 30
0.0
 11
-1.0
 21
0.166666667
 31
0.0
  0
LINE
  5
C5
330
97
100
AcDbEntity
  8
0
  6
CONTINUOUS
 62
     0
100
AcDbLine
 10
0.0
 20
0.0
 30
0.0
 11
-1.0
 21
-0.166666667
 31
0.0
  0
LINE
  5
C6
330
97
100
AcDbEntity
  8
0
  6
CONTINUOUS
 62
     0
100
AcDbLine
 10
-1.0
 20
0.166666667
 30
0.0
 11
-1.0
 21
-0.166666667
 31
0.0
  0
ENDBLK
  5
99
330
97
100
AcDbEntity
  8
0
100
AcDbBlockEnd
  0
BLOCK
  5
9B
330
9A
100
AcDbEntity
  8
0
100
AcDbBlockBegin
  2
EX_BBOX
 70
     0
 10
0.0
 20
0.0
 30
0.0
  3
EX_BBOX
  1

  0
LINE
  5
C7
330
9A
100
AcDbEntity
  8
0
  6
CONTINUOUS
 62
     0
100
AcDbLine
 10
0.0
 20
0.0
 30
0.0
 11
-1.0
 21
0.0
 31
0.0
  0
LINE
  5
C8
330
9A
100
AcDbEntity
  8
0
  6
CONTINUOUS
 62
     0
100
AcDbLine
 10
-0.5
 20
0.5
 30
0.0
 11
0.5
 21
0.5
 31
0.0
  0
LINE
  5
C9
330
9A
100
AcDbEntity
  8
0
  6
CONTINUOUS
 62
     0
100
AcDbLine
 10
0.5
 20
0.5
 30
0.0
 11
0.5
 21
-0.5
 31
0.0
  0
LINE
  5
CA
330
9A
100
AcDbEntity
  8
0
  6
CONTINUOUS
 62
     0
100
AcDbLine
 10
0.5
 20
-0.5
 30
0.0
 11
-0.5
 21
-0.5
 31
0.0
  0
LINE
  5
CB
330
9A
100
AcDbEntity
  8
0
  6
CONTINUOUS
 62
     0
100
AcDbLine
 10
-0.5
 20
-0.5
 30
0.0
 11
-0.5
 21
0.5
 31
0.0
  0
LINE
  5
CC
330
9A
100
AcDbEntity
  8
0
  6
CONTINUOUS
 62
     0
100
AcDbLine
 10
-0.25
 20
0.25
 30
0.0
 11
0.25
 21
0.25
 31
0.0
  0
LINE
  5
CD
330
9A
100
AcDbEntity
  8
0
  6
CONTINUOUS
 62
     0
100
AcDbLine
 10
0.25
 20
0.25
 30
0.0
 11
0.25
 21
-0.25
 31
0.0
  0
LINE
  5
CE
330
9A
100
AcDbEntity
  8
0
  6
CONTINUOUS
 62
     0
100
AcDbLine
 10
0.25
 20
-0.25
 30
0.0
 11
-0.25
 21
-0.25
 31
0.0
  0
LINE
  5
CF
330
9A
100
AcDbEntity
  8
0
  6
CONTINUOUS
 62
     0
100
AcDbLine
 10
-0.25
 20
-0.25
 30
0.0
 11
-0.25
 21
0.25
 31
0.0
  0
ENDBLK
  5
9C
330
9A
100
AcDbEntity
  8
0
100
AcDbBlockEnd
  0
BLOCK
  5
9E
330
9D
100
AcDbEntity
  8
0
100
AcDbBlockBegin
  2
EX_WBOX
 70
     0
 10
0.0
 20
0.0
 30
0.0
  3
EX_WBOX
  1

  0
LINE
  5
D0
330
9D
100
AcDbEntity
  8
0
  6
CONTINUOUS
 62
     0
100
AcDbLine
 10
-0.5
 20
0.0
 30
0.0
 11
-1.0
 21
0.0
 31
0.0
  0
LINE
  5
D1
330
9D
100
AcDbEntity
  8
0
  6
CONTINUOUS
 62
     0
100
AcDbLine
 10
-0.5
 20
0.5
 30
0.0
 11
0.5
 21
0.5
 31
0.0
  0
LINE
  5
D2
330
9D
100
AcDbEntity
  8
0
  6
CONTINUOUS
 62
     0
100
AcDbLine
 10
0.5
 20
0.5
 30
0.0
 11
0.5
 21
-0.5
 31
0.0
  0
LINE
  5
D3
330
9D
100
AcDbEntity
  8
0
  6
CONTINUOUS
 62
     0
100
AcDbLine
 10
0.5
 20
-0.5
 30
0.0
 11
-0.5
 21
-0.5
 31
0.0
  0
LINE
  5
D4
330
9D
100
AcDbEntity
  8
0
  6
CONTINUOUS
 62
     0
100
AcDbLine
 10
-0.5
 20
-0.5
 30
0.0
 11
-0.5
 21
0.5
 31
0.0
  0
ENDBLK
  5
9F
330
9D
100
AcDbEntity
  8
0
100
AcDbBlockEnd
  0
BLOCK
  5
A1
330
A0
100
AcDbEntity
  8
0
100
AcDbBlockBegin
  2
EX_INTEGRAL
 70
     0
 10
0.0
 20
0.0
 30
0.0
  3
EX_INTEGRAL
  1

  0
LINE
  5
D5
330
A0
100
AcDbEntity
  8
0
  6
CONTINUOUS
 62
     0
100
AcDbLine
 10
0.0
 20
0.0
 30
0.0
 11
-1.0
 21
0.0
 31
0.0
  0
ARC
  5
D6
330
A0
100
AcDbEntity
  8
0
  6
CONTINUOUS
 62
     0
100
AcDbCircle
 10
0.542115
 20
0.164992
 30
0.0
 40
0.56667
100
AcDbArc
 50
73.07249033629006
 51
196.9275130221199
  0
ARC
  5
D7
330
A0
100
AcDbEntity
  8
0
  6
CONTINUOUS
 62
     0
100
AcDbCircle
 10
-0.542115
 20
-0.164992
 30
0.0
 40
0.56667
100
AcDbArc
 50
253.0724869220464
 51
16.9275130559125
  0
ENDBLK
  5
A2
330
A0
100
AcDbEntity
  8
0
100
AcDbBlockEnd
  0
BLOCK
  5
A4
330
A3
100
AcDbEntity
  8
0
100
AcDbBlockBegin
  2
SYM-1
 70
     0
 10
0.0
 20
0.0
 30
0.0
  3
SYM-1
  1

  0
LINE
  5
D8
330
A3
100
AcDbEntity
  8
0
  6
CONTINUOUS
 62
     1
100
AcDbLine
 10
-0.9250000000000398
 20
-8.775000000000006
 30
0.0
 11
3.774999999999949
 21
-8.775000000000006
 31
0.0
  0
LINE
  5
D9
330
A3
100
AcDbEntity
  8
0
  6
CONTINUOUS
 62
     1
100
AcDbLine
 10
3.774999999999949
 20
-8.775000000000006
 30
0.0
 11
2.94999999999996
 21
-8.050000000000011
 31
0.0
  0
LINE
  5
DA
330
A3
100
AcDbEntity
  8
0
  6
CONTINUOUS
 62
     1
100
AcDbLine
 10
2.94999999999996
 20
0.0
 30
0.0
 11
5.711954618136559
 21
0.0
 31
0.0
  0
LINE
  5
DB
330
A3
100
AcDbEntity
  8
0
  6
CONTINUOUS
 62
     1
100
AcDbLine
 10
5.711954618136559
 20
0.0
 30
0.0
 11
6.770448267190403
 21
-0.6111215932167795
 31
0.0
  0
LINE
  5
DC
330
A3
100
AcDbEntity
  8
0
  6
CONTINUOUS
 62
     1
100
AcDbLine
 10
6.770448267190403
 20
-0.6111215932167795
 30
0.0
 11
4.69999999999996
 21
2.974999999999994
 31
0.0
  0
LINE
  5
DD
330
A3
100
AcDbEntity
  8
0
  6
CONTINUOUS
 62
     1
100
AcDbLine
 10
4.69999999999996
 20
2.974999999999994
 30
0.0
 11
4.099999999999994
 21
2.375
 31
0.0
  0
LINE
  5
DE
330
A3
100
AcDbEntity
  8
0
  6
CONTINUOUS
 62
     1
100
AcDbLine
 10
4.099999999999994
 20
2.375
 30
0.0
 11
-1.200000000000017
 21
2.375
 31
0.0
  0
LINE
  5
DF
330
A3
100
AcDbEntity
  8
0
  6
CONTINUOUS
 62
     1
100
AcDbLine
 10
-1.200000000000017
 20
2.375
 30
0.0
 11
-1.200000000000017
 21
7.618705984097119
 31
0.0
  0
LINE
  5
E0
330
A3
100
AcDbEntity
  8
0
  6
CONTINUOUS
 62
     1
100
AcDbLine
 10
-4.100000000000051
 20
2.375
 30
0.0
 11
-4.700000000000017
 21
2.974999999999994
 31
0.0
  0
LINE
  5
E1
330
A3
100
AcDbEntity
  8
0
  6
CONTINUOUS
 62
     1
100
AcDbLine
 10
-4.700000000000017
 20
2.974999999999994
 30
0.0
 11
-6.77044826719046
 21
-0.6111215932167795
 31
0.0
  0
LINE
  5
E2
330
A3
100
AcDbEntity
  8
0
  6
CONTINUOUS
 62
     1
100
AcDbLine
 10
-6.77044826719046
 20
-0.6111215932167795
 30
0.0
 11
-5.711954618136616
 21
0.0
 31
0.0
  0
LINE
  5
E3
330
A3
100
AcDbEntity
  8
0
  6
CONTINUOUS
 62
     1
100
AcDbLine
 10
-5.711954618136616
 20
0.0
 30
0.0
 11
-3.80000000000004
 21
0.0
 31
0.0
  0
LINE
  5
E4
330
A3
100
AcDbEntity
  8
0
  6
CONTINUOUS
 62
     1
100
AcDbLine
 10
-3.80000000000004
 20
0.0
 30
0.0
 11
-3.80000000000004
 21
-3.125
 31
0.0
  0
LINE
  5
E5
330
A3
100
AcDbEntity
  8
0
  6
CONTINUOUS
 62
     1
100
AcDbLine
 10
-3.80000000000004
 20
-3.125
 30
0.0
 11
-4.849999999999994
 21
-3.650000000000006
 31
0.0
  0
LINE
  5
E6
330
A3
100
AcDbEntity
  8
0
  6
CONTINUOUS
 62
     1
100
AcDbLine
 10
-4.849999999999994
 20
-3.650000000000006
 30
0.0
 11
-0.0000000000000284
 21
-3.650000000000006
 31
0.0
  0
LINE
  5
E7
330
A3
100
AcDbEntity
  8
0
  6
CONTINUOUS
 62
     1
100
AcDbLine
 10
-0.0000000000000284
 20
-3.650000000000006
 30
0.0
 11
-1.200000000000017
 21
-3.125
 31
0.0
  0
LINE
  5
E8
330
A3
100
AcDbEntity
  8
0
  6
CONTINUOUS
 62
     1
100
AcDbLine
 10
-1.200000000000017
 20
-3.125
 30
0.0
 11
-1.200000000000017
 21
0.0
 31
0.0
  0
LINE
  5
E9
330
A3
100
AcDbEntity
  8
0
  6
CONTINUOUS
 62
     1
100
AcDbLine
 10
-1.200000000000017
 20
0.0
 30
0.0
 11
-0.0000000000000284
 21
0.0
 31
0.0
  0
ELLIPSE
  5
EA
330
A3
100
AcDbEntity
  8
0
  6
CONTINUOUS
 62
     1
100
AcDbEllipse
 10
-0.0000000000000284
 20
0.0
 30
0.0
 11
-0.2271076736246198
 21
7.721660903237132
 31
0.0
210
0.0
220
0.0
230
1.0
 40
0.9126213592233006
 41
0.5369857443297313
 42
3.109376019493394
  0
ARC
  5
EB
330
A3
100
AcDbEntity
  8
0
  6
CONTINUOUS
 62
     1
100
AcDbCircle
 10
-0.0000000000000284
 20
0.0
 30
0.0
 40
7.9976949804303
100
AcDbArc
 50
118.3682639454042
 51
270.0
  0
LINE
  5
EC
330
A3
100
AcDbEntity
  8
0
  6
CONTINUOUS
 62
     1
100
AcDbLine
 10
-6.156163155840517
 20
5.10536778289989
 30
0.0
 11
-5.105367782899918
 21
6.156163155840488
 31
0.0
  0
LINE
  5
ED
330
A3
100
AcDbEntity
  8
0
  6
CONTINUOUS
 62
     1
100
AcDbLine
 10
-7.037266870028475
 20
3.799999999999983
 30
0.0
 11
-3.799999999997368
 21
7.03726687003109
 31
0.0
  0
LINE
  5
EE
330
A3
100
AcDbEntity
  8
0
  6
CONTINUOUS
 62
     1
100
AcDbLine
 10
-7.414193785240798
 20
2.998809016075739
 30
0.0
 11
-5.348453969543499
 21
5.064548831773351
 31
0.0
  0
LINE
  5
EF
330
A3
100
AcDbEntity
  8
0
  6
CONTINUOUS
 62
     1
100
AcDbLine
 10
-4.1217820582022
 20
6.29122074311465
 30
0.0
 11
-3.799999999998136
 21
6.613002801318402
 31
0.0
  0
LINE
  5
F0
330
A3
100
AcDbEntity
  8
0
  6
CONTINUOUS
 62
     1
100
AcDbLine
 10
-7.647261586680173
 20
2.341477145924443
 30
0.0
 11
-6.123111117037752
 21
3.865627615567178
 31
0.0
  0
LINE
  5
F1
330
A3
100
AcDbEntity
  8
0
  6
CONTINUOUS
 62
     1
100
AcDbLine
 10
-7.800807954101629
 20
1.763666709791039
 30
0.0
 11
-6.478614814536684
 21
3.085859849356837
 31
0.0
  0
LINE
  5
F2
330
A3
100
AcDbEntity
  8
0
  6
CONTINUOUS
 62
     1
100
AcDbLine
 10
-7.901126172477916
 20
1.239084422702831
 30
0.0
 11
-6.702050998593762
 21
2.438159596586786
 31
0.0
  0
LINE
  5
F3
330
A3
100
AcDbEntity
  8
0
  6
CONTINUOUS
 62
     1
100
AcDbLine
 10
-7.962086404762346
 20
0.7538601217064809
 30
0.0
 11
-6.851122372678475
 21
1.864824153790153
 31
0.0
  0
LINE
  5
F4
330
A3
100
AcDbEntity
  8
0
  6
CONTINUOUS
 62
     1
100
AcDbLine
 10
-7.992081341629074
 20
0.2996011161278318
 30
0.0
 11
-6.949917488945005
 21
1.341764968812214
 31
0.0
  0
LINE
  5
F5
330
A3
100
AcDbEntity
  8
0
  6
CONTINUOUS
 62
     1
100
AcDbLine
 10
-7.996650797958296
 20
-0.1292324089133103
 30
0.0
 11
-7.011274451263688
 21
0.8561439377821216
 31
0.0
  0
LINE
  5
F6
330
A3
100
AcDbEntity
  8
0
  6
CONTINUOUS
 62
     1
100
AcDbLine
 10
-7.979678373257542
 20
-0.5365240529245057
 30
0.0
 11
-7.043008265138582
 21
0.4001460551947957
 31
0.0
  0
LINE
  5
F7
330
A3
100
AcDbEntity
  8
0
  6
CONTINUOUS
 62
     1
100
AcDbLine
 10
-7.94400907381322
 20
-0.9251188221920756
 30
0.0
 11
-7.050296682413574
 21
-0.0314064307926571
 31
0.0
  0
LINE
  5
F8
330
A3
100
AcDbEntity
  8
0
  6
CONTINUOUS
 62
     1
100
AcDbLine
 10
-7.891797706394811
 20
-1.297171523485645
 30
0.0
 11
-7.036777545748834
 21
-0.4421513628393541
 31
0.0
  0
LINE
  5
F9
330
A3
100
AcDbEntity
  8
0
  6
CONTINUOUS
 62
     1
100
AcDbLine
 10
-7.824719045649829
 20
-1.654356931452583
 30
0.0
 11
-7.005118614660091
 21
-0.8347565004619923
 31
0.0
  0
LINE
  5
FA
330
A3
100
AcDbEntity
  8
0
  6
CONTINUOUS
 62
     1
100
AcDbLine
 10
-7.744101456551789
 20
-1.998003411066463
 30
0.0
 11
-6.957340440482341
 21
-1.211242394997242
 31
0.0
  0
LINE
  5
FB
330
A3
100
AcDbEntity
  8
0
  6
CONTINUOUS
 62
     1
100
AcDbLine
 10
-7.651015512555858
 20
-2.329181535782482
 30
0.0
 11
-6.895011793014334
 21
-1.573177816240104
 31
0.0
  0
LINE
  5
FC
330
A3
100
AcDbEntity
  8
0
  6
CONTINUOUS
 62
     1
100
AcDbLine
 10
-7.546334831070965
 20
-2.648764923009509
 30
0.0
 11
-6.819374216063608
 21
-1.921804308001811
 31
0.0
  0
LINE
  5
FD
330
A3
100
AcDbEntity
  8
0
  6
CONTINUOUS
 62
     1
100
AcDbLine
 10
-7.430779046070882
 20
-2.957473206721346
 30
0.0
 11
-6.731424767495184
 21
-2.258118928145336
 31
0.0
  0
LINE
  5
FE
330
A3
100
AcDbEntity
  8
0
  6
CONTINUOUS
 62
     1
100
AcDbLine
 10
-7.304944891486116
 20
-3.255903120848529
 30
0.0
 11
-6.631972863096593
 21
-2.582931092459205
 31
0.0
  0
LINE
  5
FF
330
A3
100
AcDbEntity
  8
0
  6
CONTINUOUS
 62
     1
100
AcDbLine
 10
-7.169329129975267
 20
-3.544551428049601
 30
0.0
 11
-6.521680418917043
 21
-2.896902716991065
 31
0.0
  0
LINE
  5
100
330
A3
100
AcDbEntity
  8
0
  6
CONTINUOUS
 62
     1
100
AcDbLine
 10
-7.024345737421442
 20
-3.823832104207725
 30
0.0
 11
-6.401090840316527
 21
-3.200577207102469
 31
0.0
  0
LINE
  5
101
330
A3
100
AcDbEntity
  8
0
  6
CONTINUOUS
 62
     1
100
AcDbLine
 10
-6.870338941593928
 20
-4.094089377092132
 30
0.0
 11
-6.270650330755188
 21
-3.494400766252511
 31
0.0
  0
LINE
  5
102
330
A3
100
AcDbEntity
  8
0
  6
CONTINUOUS
 62
     1
100
AcDbLine
 10
-6.707593199563405
 20
-4.355607703773529
 30
0.0
 11
-6.130723762313579
 21
-3.778738266523874
 31
0.0
  0
LINE
  5
103
330
A3
100
AcDbEntity
  8
0
  6
CONTINUOUS
 62
     1
100
AcDbLine
 10
-6.536340863785938
 20
-4.608619436707983
 30
0.0
 11
-5.981606592671824
 21
-4.053885165593016
 31
0.0
  0
LINE
  5
104
330
A3
100
AcDbEntity
  8
0
  6
CONTINUOUS
 62
     1
100
AcDbLine
 10
-6.356768062888904
 20
-4.853310704522869
 30
0.0
 11
-5.823533831891467
 21
-4.320076473524068
 31
0.0
  0
LINE
  5
105
330
A3
100
AcDbEntity
  8
0
  6
CONTINUOUS
 62
     1
100
AcDbLine
 10
-6.16901916946415
 20
-5.089825879810064
 30
0.0
 11
-5.656686746803615
 21
-4.577493457149188
 31
0.0
  0
LINE
  5
106
330
A3
100
AcDbEntity
  8
0
  6
CONTINUOUS
 62
     1
100
AcDbLine
 10
-5.973200118701101
 20
-5.318270897758936
 30
0.0
 11
-5.481197777417719
 21
-4.826268556475725
 31
0.0
  0
LINE
  5
107
330
A3
100
AcDbEntity
  8
0
  6
CONTINUOUS
 62
     1
100
AcDbLine
 10
-5.76938076275863
 20
-5.538715610528413
 30
0.0
 11
-5.297153990546576
 21
-5.066488838315991
 31
0.0
  0
LINE
  5
108
330
A3
100
AcDbEntity
  8
0
  6
CONTINUOUS
 62
     1
100
AcDbLine
 10
-5.557596386134094
 20
-5.75119530261577
 30
0.0
 11
-5.104599287156987
 21
-5.29819820363781
 31
0.0
  0
LINE
  5
109
330
A3
100
AcDbEntity
  8
0
  6
CONTINUOUS
 62
     1
100
AcDbLine
 10
-5.337848459985196
 20
-5.955711445178821
 30
0.0
 11
-4.903535496508795
 21
-5.521398481702079
 31
0.0
  0
LINE
  5
10A
330
A3
100
AcDbEntity
  8
0
  6
CONTINUOUS
 62
     1
100
AcDbLine
 10
-5.11010467341913
 20
-6.152231727324676
 30
0.0
 11
-4.693922421473019
 21
-5.736049475378763
 31
0.0
  0
LINE
  5
10B
330
A3
100
AcDbEntity
  8
0
  6
CONTINUOUS
 62
     1
100
AcDbLine
 10
-4.874298243313547
 20
-6.340689365931041
 30
0.0
 11
-4.475676837670648
 21
-5.942067960287773
 31
0.0
  0
LINE
  5
10C
330
A3
100
AcDbEntity
  8
0
  6
CONTINUOUS
 62
     1
100
AcDbLine
 10
-4.630326467929535
 20
-6.52098165925895
 30
0.0
 11
-4.248670387613487
 21
-6.139325578942021
 31
0.0
  0
LINE
  5
10D
330
A3
100
AcDbEntity
  8
0
  6
CONTINUOUS
 62
     1
100
AcDbLine
 10
-4.378048450081167
 20
-6.692967710122502
 30
0.0
 11
-4.012726243246846
 21
-6.32764550328784
 31
0.0
  0
LINE
  5
10E
330
A3
100
AcDbEntity
  8
0
  6
CONTINUOUS
 62
     1
100
AcDbLine
 10
-4.117281869145927
 20
-6.856465197899183
 30
0.0
 11
-3.767614328506909
 21
-6.506797657260364
 31
0.0
  0
LINE
  5
10F
330
A3
100
AcDbEntity
  8
0
  6
CONTINUOUS
 62
     1
100
AcDbLine
 10
-3.847798622878003
 20
-7.011246020343208
 30
0.0
 11
-3.513044787539968
 21
-6.676492185004832
 31
0.0
  0
LINE
  5
110
330
A3
100
AcDbEntity
  8
0
  6
CONTINUOUS
 62
     1
100
AcDbLine
 10
-3.569319083087521
 20
-7.157030549264647
 30
0.0
 11
-3.24865923933902
 21
-6.836370705515833
 31
0.0
  0
LINE
  5
111
330
A3
100
AcDbEntity
  8
0
  6
CONTINUOUS
 62
     1
100
AcDbLine
 10
-3.281504603884542
 20
-7.293480138773589
 30
0.0
 11
-2.974019153042434
 21
-6.985994687931679
 31
0.0
  0
LINE
  5
112
330
A3
100
AcDbEntity
  8
0
  6
CONTINUOUS
 62
     1
100
AcDbLine
 10
-2.983947772237798
 20
-7.420187375838793
 30
0.0
 11
-2.688590373552557
 21
-7.124829977153183
 31
0.0
  0
LINE
  5
113
330
A3
100
AcDbEntity
  8
0
  6
CONTINUOUS
 62
     1
100
AcDbLine
 10
-2.676159674176233
 20
-7.536663346489149
 30
0.0
 11
-2.391722363769304
 21
-7.252226036082391
 31
0.0
  0
LINE
  5
114
330
A3
100
AcDbEntity
  8
0
  6
CONTINUOUS
 62
     1
100
AcDbLine
 10
-2.357553127176232
 20
-7.642320868201097
 30
0.0
 11
-2.08262000278512
 21
-7.367387743809616
 31
0.0
  0
LINE
  5
115
330
A3
100
AcDbEntity
  8
0
  6
CONTINUOUS
 62
     1
100
AcDbLine
 10
-2.027420334868197
 20
-7.736452144604982
 30
0.0
 11
-1.760304601123721
 21
-7.469336410860706
 31
0.0
  0
LINE
  5
116
330
A3
100
AcDbEntity
  8
0
  6
CONTINUOUS
 62
     1
100
AcDbLine
 10
-1.684902641044289
 20
-7.818198519492967
 30
0.0
 11
-1.423558814590592
 21
-7.556854693038957
 31
0.0
  0
LINE
  5
117
330
A3
100
AcDbEntity
  8
0
  6
CONTINUOUS
 62
     1
100
AcDbLine
 10
-1.328948792834723
 20
-7.886508739995378
 30
0.0
 11
-1.070846673359341
 21
-7.628406620519115
 31
0.0
  0
LINE
  5
118
330
A3
100
AcDbEntity
  8
0
  6
CONTINUOUS
 62
     1
100
AcDbLine
 10
-0.958255987638438
 20
-7.940080003511014
 30
0.0
 11
-0.700193582071762
 21
-7.682017597943968
 31
0.0
  0
LINE
  5
119
330
A3
100
AcDbEntity
  8
0
  6
CONTINUOUS
 62
     1
100
AcDbLine
 10
-0.5711842296703082
 20
-7.977272314254805
 30
0.0
 11
-0.3089987888093901
 21
-7.715086873394057
 31
0.0
  0
LINE
  5
11A
330
A3
100
AcDbEntity
  8
0
  6
CONTINUOUS
 62
     1
100
AcDbLine
 10
-0.1656276173367814
 20
-7.995979770633198
 30
0.0
 11
-0.0000000000000568
 21
-7.830352153296474
 31
0.0
  0
LINE
  5
11B
330
A3
100
AcDbEntity
  8
0
  6
CONTINUOUS
 62
     1
100
AcDbLine
 10
-4.599999999999994
 20
9.574999999999989
 30
0.0
 11
-3.80000000000004
 21
7.037266870028446
 31
0.0
  0
LINE
  5
11C
330
A3
100
AcDbEntity
  8
0
  6
CONTINUOUS
 62
     1
100
AcDbLine
 10
-0.0000000000000284
 20
-7.99769498043031
 30
0.0
 11
-0.9250000000000398
 21
-8.775000000000006
 31
0.0
  0
LINE
  5
11D
330
A3
100
AcDbEntity
  8
0
  6
CONTINUOUS
 62
     1
100
AcDbLine
 10
-3.80000000000004
 20
2.375
 30
0.0
 11
-4.100000000000051
 21
2.375
 31
0.0
  0
LINE
  5
11E
330
A3
100
AcDbEntity
  8
0
  6
CONTINUOUS
 62
     1
100
AcDbLine
 10
-4.511824071090189
 20
9.295291279921798
 30
0.0
 11
-4.366478874602478
 21
9.440636476409509
 31
0.0
  0
LINE
  5
11F
330
A3
100
AcDbEntity
  8
0
  6
CONTINUOUS
 62
     1
100
AcDbLine
 10
-4.410134918076551
 20
8.972716364223459
 30
0.0
 11
-4.097169940226053
 21
9.285681342073985
 31
0.0
  0
LINE
  5
120
330
A3
100
AcDbEntity
  8
0
  6
CONTINUOUS
 62
     1
100
AcDbLine
 10
-4.308445765064221
 20
8.650141448523868
 30
0.0
 11
-3.827861005852185
 21
9.130726207735904
 31
0.0
  0
LINE
  5
121
330
A3
100
AcDbEntity
  8
0
  6
CONTINUOUS
 62
     1
100
AcDbLine
 10
-4.20675661205189
 20
8.327566532824278
 30
0.0
 11
-3.558552071477038
 21
8.97577107339913
 31
0.0
  0
LINE
  5
122
330
A3
100
AcDbEntity
  8
0
  6
CONTINUOUS
 62
     1
100
AcDbLine
 10
-4.105067459038253
 20
8.004991617125995
 30
0.0
 11
-3.289243137103199
 21
8.820815939061049
 31
0.0
  0
LINE
  5
123
330
A3
100
AcDbEntity
  8
0
  6
CONTINUOUS
 62
     1
100
AcDbLine
 10
-4.003378306025922
 20
7.682416701426405
 30
0.0
 11
-3.019934202726773
 21
8.665860804725526
 31
0.0
  0
LINE
  5
124
330
A3
100
AcDbEntity
  8
0
  6
CONTINUOUS
 62
     1
100
AcDbLine
 10
-3.901689153013564
 20
7.359841785726815
 30
0.0
 11
-2.750625268352906
 21
8.510905670387473
 31
0.0
  0
LINE
  5
125
330
A3
100
AcDbEntity
  8
0
  6
CONTINUOUS
 62
     1
100
AcDbLine
 10
-3.799999999999926
 20
7.037266870028532
 30
0.0
 11
-2.481316333979066
 21
8.355950536049392
 31
0.0
  0
LINE
  5
126
330
A3
100
AcDbEntity
  8
0
  6
CONTINUOUS
 62
     1
100
AcDbLine
 10
-3.799999999999415
 20
6.613002801317123
 30
0.0
 11
-2.21200739960392
 21
8.20099540171259
 31
0.0
  0
LINE
  5
127
330
A3
100
AcDbEntity
  8
0
  6
CONTINUOUS
 62
     1
100
AcDbLine
 10
-3.799999999998903
 20
6.188738732605714
 30
0.0
 11
-1.942698465228801
 21
8.046040267375815
 31
0.0
  0
LINE
  5
128
330
A3
100
AcDbEntity
  8
0
  6
CONTINUOUS
 62
     1
100
AcDbLine
 10
-3.799999999998391
 20
5.764474663894276
 30
0.0
 11
-1.673389530853655
 21
7.891085133039041
 31
0.0
  0
LINE
  5
129
330
A3
100
AcDbEntity
  8
0
  6
CONTINUOUS
 62
     1
100
AcDbLine
 10
-3.800000000000438
 20
5.340210595180281
 30
0.0
 11
-1.239084422702859
 21
7.901126172477888
 31
0.0
  0
LINE
  5
12A
330
A3
100
AcDbEntity
  8
0
  6
CONTINUOUS
 62
     1
100
AcDbLine
 10
-3.799999999999926
 20
4.915946526468872
 30
0.0
 11
-1.199999999997431
 21
7.515946526471396
 31
0.0
  0
LINE
  5
12B
330
A3
100
AcDbEntity
  8
0
  6
CONTINUOUS
 62
     1
100
AcDbLine
 10
-3.799999999998136
 20
4.49168245775877
 30
0.0
 11
-1.199999999998198
 21
7.091682457758679
 31
0.0
  0
LINE
  5
12C
330
A3
100
AcDbEntity
  8
0
  6
CONTINUOUS
 62
     1
100
AcDbLine
 10
-3.799999999997624
 20
4.067418389047361
 30
0.0
 11
-1.199999999998965
 21
6.667418389045963
 31
0.0
  0
LINE
  5
12D
330
A3
100
AcDbEntity
  8
0
  6
CONTINUOUS
 62
     1
100
AcDbLine
 10
-5.016707088182841
 20
2.426447232150167
 30
0.0
 11
-4.584077160166117
 21
2.859077160166919
 31
0.0
  0
LINE
  5
12E
330
A3
100
AcDbEntity
  8
0
  6
CONTINUOUS
 62
     1
100
AcDbLine
 10
-3.79999999999967
 20
3.643154320333338
 30
0.0
 11
-1.199999999998454
 21
6.243154320334554
 31
0.0
  0
LINE
  5
12F
330
A3
100
AcDbEntity
  8
0
  6
CONTINUOUS
 62
     1
100
AcDbLine
 10
-5.596262583956388
 20
1.422627667664699
 30
0.0
 11
-4.371945125810157
 21
2.64694512581093
 31
0.0
  0
LINE
  5
130
330
A3
100
AcDbEntity
  8
0
  6
CONTINUOUS
 62
     1
100
AcDbLine
 10
-3.799999999999159
 20
3.218890251621929
 30
0.0
 11
-1.199999999999221
 21
5.818890251621866
 31
0.0
  0
LINE
  5
131
330
A3
100
AcDbEntity
  8
0
  6
CONTINUOUS
 62
     1
100
AcDbLine
 10
-6.175818079728657
 20
0.4188081031805098
 30
0.0
 11
-4.159813091454197
 21
2.43481309145497
 31
0.0
  0
LINE
  5
132
330
A3
100
AcDbEntity
  8
0
  6
CONTINUOUS
 62
     1
100
AcDbLine
 10
-3.799999999998647
 20
2.79462618291052
 30
0.0
 11
-1.199999999998738
 21
5.394626182910429
 31
0.0
  0
LINE
  5
133
330
A3
100
AcDbEntity
  8
0
  6
CONTINUOUS
 62
     1
100
AcDbLine
 10
-6.755373575504791
 20
-0.5850114613075448
 30
0.0
 11
-1.199999999998198
 21
4.97036211419902
 31
0.0
  0
LINE
  5
134
330
A3
100
AcDbEntity
  8
0
  6
CONTINUOUS
 62
     1
100
AcDbLine
 10
-5.792738834616273
 20
-0.0466407891309757
 30
0.0
 11
-1.199999999998965
 21
4.546098045486332
 31
0.0
  0
LINE
  5
135
330
A3
100
AcDbEntity
  8
0
  6
CONTINUOUS
 62
     1
100
AcDbLine
 10
-5.32183397677386
 20
-0.0000000000004832
 30
0.0
 11
-1.199999999998454
 21
4.121833976774923
 31
0.0
  0
LINE
  5
136
330
A3
100
AcDbEntity
  8
0
  6
CONTINUOUS
 62
     1
100
AcDbLine
 10
-4.897569908061172
 20
0.0000000000002842
 30
0.0
 11
-1.199999999997942
 21
3.697569908063485
 31
0.0
  0
LINE
  5
137
330
A3
100
AcDbEntity
  8
0
  6
CONTINUOUS
 62
     1
100
AcDbLine
 10
-4.473305839349734
 20
-0.0000000000002274
 30
0.0
 11
-1.199999999999989
 21
3.273305839349518
 31
0.0
  0
LINE
  5
138
330
A3
100
AcDbEntity
  8
0
  6
CONTINUOUS
 62
     1
100
AcDbLine
 10
-4.049041770637047
 20
0.00000000000054
 30
0.0
 11
-1.199999999999477
 21
2.849041770638109
 31
0.0
  0
LINE
  5
139
330
A3
100
AcDbEntity
  8
0
  6
CONTINUOUS
 62
     1
100
AcDbLine
 10
-3.799999999998903
 20
-0.175222298073237
 30
0.0
 11
-1.199999999998965
 21
2.424777701926701
 31
0.0
  0
LINE
  5
13A
330
A3
100
AcDbEntity
  8
0
  6
CONTINUOUS
 62
     1
100
AcDbLine
 10
-3.79999999999967
 20
-0.5994863667859249
 30
0.0
 11
-0.8255136332134896
 21
2.375000000000227
 31
0.0
  0
LINE
  5
13B
330
A3
100
AcDbEntity
  8
0
  6
CONTINUOUS
 62
     1
100
AcDbLine
 10
-3.799999999999159
 20
-1.023750435497334
 30
0.0
 11
-0.4012495645020806
 21
2.374999999999716
 31
0.0
  0
LINE
  5
13C
330
A3
100
AcDbEntity
  8
0
  6
CONTINUOUS
 62
     1
100
AcDbLine
 10
-3.799999999998647
 20
-1.448014504208771
 30
0.0
 11
0.0230145042093284
 21
2.374999999999204
 31
0.0
  0
LINE
  5
13D
330
A3
100
AcDbEntity
  8
0
  6
CONTINUOUS
 62
     1
100
AcDbLine
 10
-3.799999999998136
 20
-1.87227857292018
 30
0.0
 11
0.4472785729220448
 21
2.374999999999972
 31
0.0
  0
LINE
  5
13E
330
A3
100
AcDbEntity
  8
0
  6
CONTINUOUS
 62
     1
100
AcDbLine
 10
-3.799999999998903
 20
-2.296542641632868
 30
0.0
 11
0.8715426416347327
 21
2.375000000000739
 31
0.0
  0
LINE
  5
13F
330
A3
100
AcDbEntity
  8
0
  6
CONTINUOUS
 62
     1
100
AcDbLine
 10
-4.729193289653779
 20
-3.649999999999693
 30
0.0
 11
-4.608386579308586
 21
-3.529193289654529
 31
0.0
  0
LINE
  5
140
330
A3
100
AcDbEntity
  8
0
  6
CONTINUOUS
 62
     1
100
AcDbLine
 10
-3.799999999998391
 20
-2.720806710344306
 30
0.0
 11
-1.199999999999733
 21
-0.1208067103456756
 31
0.0
  0
LINE
  5
141
330
A3
100
AcDbEntity
  8
0
  6
CONTINUOUS
 62
     1
100
AcDbLine
 10
-1.079193289655848
 20
-0.0000000000017621
 30
0.0
 11
1.295806710346142
 21
2.375000000000227
 31
0.0
  0
LINE
  5
142
330
A3
100
AcDbEntity
  8
0
  6
CONTINUOUS
 62
     1
100
AcDbLine
 10
-4.304929220941062
 20
-3.649999999998926
 30
0.0
 11
-1.2000000000005
 21
-0.5450707790583635
 31
0.0
  0
LINE
  5
143
330
A3
100
AcDbEntity
  8
0
  6
CONTINUOUS
 62
     1
100
AcDbLine
 10
-0.6549292209418809
 20
0.0000000000002842
 30
0.0
 11
1.720070779056272
 21
2.374999999998437
 31
0.0
  0
LINE
  5
144
330
A3
100
AcDbEntity
  8
0
  6
CONTINUOUS
 62
     1
100
AcDbLine
 10
-3.880665152228374
 20
-3.649999999998158
 30
0.0
 11
-1.19999999999871
 21
-0.9693348477684935
 31
0.0
  0
LINE
  5
145
330
A3
100
AcDbEntity
  8
0
  6
CONTINUOUS
 62
     1
100
AcDbLine
 10
-0.2306651522304435
 20
-0.0000000000002274
 30
0.0
 11
2.144334847770267
 21
2.375000000000483
 31
0.0
  0
LINE
  5
146
330
A3
100
AcDbEntity
  8
0
  6
CONTINUOUS
 62
     1
100
AcDbLine
 10
-3.456401083516965
 20
-3.64999999999867
 30
0.0
 11
-1.200000000000784
 21
-1.39359891648246
 31
0.0
  0
LINE
  5
147
330
A3
100
AcDbEntity
  8
0
  6
CONTINUOUS
 62
     1
100
AcDbLine
 10
0.0000000000009663
 20
-0.1935989164807381
 30
0.0
 11
2.568598916481676
 21
2.374999999999972
 31
0.0
  0
LINE
  5
148
330
A3
100
AcDbEntity
  8
0
  6
CONTINUOUS
 62
     1
100
AcDbLine
 10
-3.032137014805528
 20
-3.649999999999181
 30
0.0
 11
-1.200000000000244
 21
-1.817862985193869
 31
0.0
  0
LINE
  5
149
330
A3
100
AcDbEntity
  8
0
  6
CONTINUOUS
 62
     1
100
AcDbLine
 10
-0.00000000000108
 20
-0.6178629851947335
 30
0.0
 11
2.992862985193085
 21
2.37499999999946
 31
0.0
  0
LINE
  5
14A
330
A3
100
AcDbEntity
  8
0
  6
CONTINUOUS
 62
     1
100
AcDbLine
 10
-2.607872946094119
 20
-3.649999999999693
 30
0.0
 11
-1.199999999999733
 21
-2.242127053905307
 31
0.0
  0
LINE
  5
14B
330
A3
100
AcDbEntity
  8
0
  6
CONTINUOUS
 62
     1
100
AcDbLine
 10
-0.0000000000005684
 20
-1.042127053906142
 30
0.0
 11
3.41712705390708
 21
2.375000000001535
 31
0.0
  0
LINE
  5
14C
330
A3
100
AcDbEntity
  8
0
  6
CONTINUOUS
 62
     1
100
AcDbLine
 10
-2.183608877381431
 20
-3.649999999998926
 30
0.0
 11
-1.2000000000005
 21
-2.666391122617995
 31
0.0
  0
LINE
  5
14D
330
A3
100
AcDbEntity
  8
0
  6
CONTINUOUS
 62
     1
100
AcDbLine
 10
-0.0000000000000568
 20
-1.466391122617551
 30
0.0
 11
3.84139112261721
 21
2.374999999999716
 31
0.0
  0
LINE
  5
14E
330
A3
100
AcDbEntity
  8
0
  6
CONTINUOUS
 62
     1
100
AcDbLine
 10
-1.759344808669994
 20
-3.649999999999437
 30
0.0
 11
-1.199999999999989
 21
-3.090655191329404
 31
0.0
  0
LINE
  5
14F
330
A3
100
AcDbEntity
  8
0
  6
CONTINUOUS
 62
     1
100
AcDbLine
 10
0.0000000000004547
 20
-1.89065519132896
 30
0.0
 11
4.760634008295341
 21
2.869978816965897
 31
0.0
  0
LINE
  5
150
330
A3
100
AcDbEntity
  8
0
  6
CONTINUOUS
 62
     1
100
AcDbLine
 10
-1.335080739958585
 20
-3.649999999999949
 30
0.0
 11
-0.9287518191017909
 21
-3.243671079143127
 31
0.0
  0
LINE
  5
151
330
A3
100
AcDbEntity
  8
0
  6
CONTINUOUS
 62
     1
100
AcDbLine
 10
-0.0000000000003126
 20
-2.314919260041677
 30
0.0
 11
4.915925435356456
 21
2.601006175315092
 31
0.0
  0
LINE
  5
152
330
A3
100
AcDbEntity
  8
0
  6
CONTINUOUS
 62
     1
100
AcDbLine
 10
-0.9108166712471757
 20
-3.65000000000046
 30
0.0
 11
-0.6336115973879828
 21
-3.372794926141296
 31
0.0
  0
LINE
  5
153
330
A3
100
AcDbEntity
  8
0
  6
CONTINUOUS
 62
     1
100
AcDbLine
 10
0.000000000000199
 20
-2.739183328753086
 30
0.0
 11
5.071216862417543
 21
2.332033533664259
 31
0.0
  0
LINE
  5
154
330
A3
100
AcDbEntity
  8
0
  6
CONTINUOUS
 62
     1
100
AcDbLine
 10
-0.4865526025332088
 20
-3.649999999998414
 30
0.0
 11
-0.338471375676761
 21
-3.501918773141995
 31
0.0
  0
LINE
  5
155
330
A3
100
AcDbEntity
  8
0
  6
CONTINUOUS
 62
     1
100
AcDbLine
 10
0.000000000000739
 20
-3.163447397464495
 30
0.0
 11
2.950000000000841
 21
-0.2134473974643925
 31
0.0
  0
LINE
  5
156
330
A3
100
AcDbEntity
  8
0
  6
CONTINUOUS
 62
     1
100
AcDbLine
 10
3.163447397464722
 20
-0.0000000000004832
 30
0.0
 11
5.226508289478659
 21
2.063060892013425
 31
0.0
  0
LINE
  5
157
330
A3
100
AcDbEntity
  8
0
  6
CONTINUOUS
 62
     1
100
AcDbLine
 10
-0.0622885338217998
 20
-3.649999999998926
 30
0.0
 11
-0.0433311539642887
 21
-3.631042620141415
 31
0.0
  0
LINE
  5
158
330
A3
100
AcDbEntity
  8
0
  6
CONTINUOUS
 62
     1
100
AcDbLine
 10
0.0000000000012506
 20
-3.587711466175904
 30
0.0
 11
2.950000000000045
 21
-0.6377114661770804
 31
0.0
  0
LINE
  5
159
330
A3
100
AcDbEntity
  8
0
  6
CONTINUOUS
 62
     1
100
AcDbLine
 10
3.58771146617741
 20
0.0000000000002842
 30
0.0
 11
5.381799716541025
 21
1.794088250363899
 31
0.0
  0
LINE
  5
15A
330
A3
100
AcDbEntity
  8
0
  6
CONTINUOUS
 62
     1
100
AcDbLine
 10
-0.0000000000008242
 20
-4.011975534889871
 30
0.0
 11
2.950000000000585
 21
-1.061975534888489
 31
0.0
  0
LINE
  5
15B
330
A3
100
AcDbEntity
  8
0
  6
CONTINUOUS
 62
     1
100
AcDbLine
 10
4.011975534888848
 20
-0.0000000000002274
 30
0.0
 11
5.537091143603448
 21
1.525115608714373
 31
0.0
  0
LINE
  5
15C
330
A3
100
AcDbEntity
  8
0
  6
CONTINUOUS
 62
     1
100
AcDbLine
 10
-0.0000000000003126
 20
-4.436239603601308
 30
0.0
 11
2.950000000001097
 21
-1.486239603599898
 31
0.0
  0
LINE
  5
15D
330
A3
100
AcDbEntity
  8
0
  6
CONTINUOUS
 62
     1
100
AcDbLine
 10
4.436239603600256
 20
-0.000000000000739
 30
0.0
 11
5.692382570664535
 21
1.256142967063539
 31
0.0
  0
LINE
  5
15E
330
A3
100
AcDbEntity
  8
0
  6
CONTINUOUS
 62
     1
100
AcDbLine
 10
0.000000000000199
 20
-4.860503672312717
 30
0.0
 11
2.949999999999022
 21
-1.910503672313894
 31
0.0
  0
LINE
  5
15F
330
A3
100
AcDbEntity
  8
0
  6
CONTINUOUS
 62
     1
100
AcDbLine
 10
4.860503672312944
 20
0.0000000000000284
 30
0.0
 11
5.847673997725622
 21
0.9871703254127056
 31
0.0
  0
LINE
  5
160
330
A3
100
AcDbEntity
  8
0
  6
CONTINUOUS
 62
     1
100
AcDbLine
 10
-0.0000000000005684
 20
-5.284767741025405
 30
0.0
 11
2.949999999999562
 21
-2.334767741025303
 31
0.0
  0
LINE
  5
161
330
A3
100
AcDbEntity
  8
0
  6
CONTINUOUS
 62
     1
100
AcDbLine
 10
5.284767741025661
 20
0.0000000000007958
 30
0.0
 11
6.002965424786737
 21
0.718197683761872
 31
0.0
  0
LINE
  5
162
330
A3
100
AcDbEntity
  8
0
  6
CONTINUOUS
 62
     1
100
AcDbLine
 10
-0.0000000000000568
 20
-5.709031809736842
 30
0.0
 11
2.950000000000074
 21
-2.759031809736712
 31
0.0
  0
LINE
  5
163
330
A3
100
AcDbEntity
  8
0
  6
CONTINUOUS
 62
     1
100
AcDbLine
 10
5.709031809735791
 20
-0.0000000000010232
 30
0.0
 11
6.158256851849131
 21
0.4492250421123458
 31
0.0
  0
LINE
  5
164
330
A3
100
AcDbEntity
  8
0
  6
CONTINUOUS
 62
     1
100
AcDbLine
 10
0.0000000000004547
 20
-6.133295878448251
 30
0.0
 11
2.950000000000585
 21
-3.183295878448149
 31
0.0
  0
LINE
  5
165
330
A3
100
AcDbEntity
  8
0
  6
CONTINUOUS
 62
     1
100
AcDbLine
 10
5.979074273512765
 20
-0.1542216049359695
 30
0.0
 11
6.313548278910218
 21
0.1802524004615123
 31
0.0
  0
LINE
  5
166
330
A3
100
AcDbEntity
  8
0
  6
CONTINUOUS
 62
     1
100
AcDbLine
 10
0.0000000000009948
 20
-6.55755994715966
 30
0.0
 11
2.949999999999818
 21
-3.607559947160837
 31
0.0
  0
LINE
  5
167
330
A3
100
AcDbEntity
  8
0
  6
CONTINUOUS
 62
     1
100
AcDbLine
 10
6.24804691516232
 20
-0.3095130319983355
 30
0.0
 11
6.468839705970055
 21
-0.0887202411906003
 31
0.0
  0
LINE
  5
168
330
A3
100
AcDbEntity
  8
0
  6
CONTINUOUS
 62
     1
100
AcDbLine
 10
-0.00000000000108
 20
-6.981824015873656
 30
0.0
 11
2.95000000000033
 21
-4.031824015872246
 31
0.0
  0
LINE
  5
169
330
A3
100
AcDbEntity
  8
0
  6
CONTINUOUS
 62
     1
100
AcDbLine
 10
6.517019556813125
 20
-0.4648044590594509
 30
0.0
 11
6.624131133032449
 21
-0.3576928828401265
 31
0.0
  0
LINE
  5
16A
330
A3
100
AcDbEntity
  8
0
  6
CONTINUOUS
 62
     1
100
AcDbLine
 10
0.000000000000739
 20
-7.406088084583786
 30
0.0
 11
2.949999999999562
 21
-4.456088084584962
 31
0.0
  0
LINE
  5
16B
330
A3
100
AcDbEntity
  8
0
  6
CONTINUOUS
 62
     1
100
AcDbLine
 10
-0.0000000000000568
 20
-7.830352153296474
 30
0.0
 11
2.949999999998795
 21
-4.88035215329765
 31
0.0
  0
LINE
  5
16C
330
A3
100
AcDbEntity
  8
0
  6
CONTINUOUS
 62
     1
100
AcDbLine
 10
-0.5203837779903324
 20
-8.774999999998698
 30
0.0
 11
2.949999999999307
 21
-5.304616222009059
 31
0.0
  0
LINE
  5
16D
330
A3
100
AcDbEntity
  8
0
  6
CONTINUOUS
 62
     1
100
AcDbLine
 10
-0.096119709277616
 20
-8.774999999997931
 30
0.0
 11
2.949999999999818
 21
-5.728880290720497
 31
0.0
  0
LINE
  5
16E
330
A3
100
AcDbEntity
  8
0
  6
CONTINUOUS
 62
     1
100
AcDbLine
 10
0.3281443594337929
 20
-8.774999999998442
 30
0.0
 11
2.95000000000033
 21
-6.153144359431906
 31
0.0
  0
LINE
  5
16F
330
A3
100
AcDbEntity
  8
0
  6
CONTINUOUS
 62
     1
100
AcDbLine
 10
0.7524084281452019
 20
-8.774999999998954
 30
0.0
 11
2.949999999999562
 21
-6.577408428144594
 31
0.0
  0
LINE
  5
170
330
A3
100
AcDbEntity
  8
0
  6
CONTINUOUS
 62
     1
100
AcDbLine
 10
1.176672496855332
 20
-8.775000000000773
 30
0.0
 11
2.950000000000074
 21
-7.001672496856031
 31
0.0
  0
LINE
  5
171
330
A3
100
AcDbEntity
  8
0
  6
CONTINUOUS
 62
     1
100
AcDbLine
 10
1.600936565566741
 20
-8.775000000001285
 30
0.0
 11
2.949999999999307
 21
-7.425936565568719
 31
0.0
  0
LINE
  5
172
330
A3
100
AcDbEntity
  8
0
  6
CONTINUOUS
 62
     1
100
AcDbLine
 10
2.025200634280736
 20
-8.77499999999921
 30
0.0
 11
2.949999999998539
 21
-7.850200634281407
 31
0.0
  0
LINE
  5
173
330
A3
100
AcDbEntity
  8
0
  6
CONTINUOUS
 62
     1
100
AcDbLine
 10
2.449464702992145
 20
-8.774999999999721
 30
0.0
 11
3.069473148366029
 21
-8.154991554625838
 31
0.0
  0
LINE
  5
174
330
A3
100
AcDbEntity
  8
0
  6
CONTINUOUS
 62
     1
100
AcDbLine
 10
2.873728771703554
 20
-8.775000000000261
 30
0.0
 11
3.295291120423002
 21
-8.353437651280814
 31
0.0
  0
LINE
  5
175
330
A3
100
AcDbEntity
  8
0
  6
CONTINUOUS
 62
     1
100
AcDbLine
 10
3.297992840416271
 20
-8.774999999999466
 30
0.0
 11
3.521109092478696
 21
-8.55188374793704
 31
0.0
  0
LINE
  5
176
330
A3
100
AcDbEntity
  8
0
  6
CONTINUOUS
 62
     1
100
AcDbLine
 10
3.72225690912768
 20
-8.774999999999977
 30
0.0
 11
3.746927064535669
 21
-8.750329844591988
 31
0.0
  0
LINE
  5
177
330
A3
100
AcDbEntity
  8
0
  6
CONTINUOUS
 62
     1
100
AcDbLine
 10
-1.244898096722096
 20
7.895312498458622
 30
0.0
 11
-1.239084422702859
 21
7.901126172477916
 31
0.0
  0
LINE
  5
178
330
A3
100
AcDbEntity
  8
0
  6
CONTINUOUS
 62
     1
100
AcDbLine
 10
-1.067673865488331
 20
7.648272660980467
 30
0.0
 11
-0.7538601217065093
 21
7.962086404762317
 31
0.0
  0
LINE
  5
179
330
A3
100
AcDbEntity
  8
0
  6
CONTINUOUS
 62
     1
100
AcDbLine
 10
-0.5910571405969449
 20
7.700625317160274
 30
0.0
 11
-0.2996011161278602
 21
7.992081341629046
 31
0.0
  0
LINE
  5
17A
330
A3
100
AcDbEntity
  8
0
  6
CONTINUOUS
 62
     1
100
AcDbLine
 10
-0.1438478986379721
 20
7.723570490407837
 30
0.0
 11
0.1292324089133103
 21
7.996650797958239
 31
0.0
  0
LINE
  5
17B
330
A3
100
AcDbEntity
  8
0
  6
CONTINUOUS
 62
     1
100
AcDbLine
 10
0.273738194878149
 20
7.716892515211498
 30
0.0
 11
0.5365240529244772
 21
7.979678373257514
 31
0.0
  0
LINE
  5
17C
330
A3
100
AcDbEntity
  8
0
  6
CONTINUOUS
 62
     1
100
AcDbLine
 10
0.6668788917943687
 20
7.685769143415257
 30
0.0
 11
0.9251188221920472
 21
7.944009073813163
 31
0.0
  0
LINE
  5
17D
330
A3
100
AcDbEntity
  8
0
  6
CONTINUOUS
 62
     1
100
AcDbLine
 10
1.039212034769918
 20
7.633838217679397
 30
0.0
 11
1.297171523485616
 21
7.891797706394755
 31
0.0
  0
LINE
  5
17E
330
A3
100
AcDbEntity
  8
0
  6
CONTINUOUS
 62
     1
100
AcDbLine
 10
1.393405383321436
 20
7.563767497519507
 30
0.0
 11
1.654356931452583
 21
7.8247190456498
 31
0.0
  0
LINE
  5
17F
330
A3
100
AcDbEntity
  8
0
  6
CONTINUOUS
 62
     1
100
AcDbLine
 10
1.731479488785425
 20
7.477577534270551
 30
0.0
 11
1.998003411066435
 21
7.744101456551732
 31
0.0
  0
LINE
  5
180
330
A3
100
AcDbEntity
  8
0
  6
CONTINUOUS
 62
     1
100
AcDbLine
 10
2.055003120957196
 20
7.376837097731425
 30
0.0
 11
2.329181535782453
 21
7.65101551255583
 31
0.0
  0
LINE
  5
181
330
A3
100
AcDbEntity
  8
0
  6
CONTINUOUS
 62
     1
100
AcDbLine
 10
2.365217823647697
 20
7.262787731709466
 30
0.0
 11
2.64876492300948
 21
7.546334831070908
 31
0.0
  0
LINE
  5
182
330
A3
100
AcDbEntity
  8
0
  6
CONTINUOUS
 62
     1
100
AcDbLine
 10
2.663120654720046
 20
7.136426494069894
 30
0.0
 11
2.957473206721318
 21
7.430779046070825
 31
0.0
  0
LINE
  5
183
330
A3
100
AcDbEntity
  8
0
  6
CONTINUOUS
 62
     1
100
AcDbLine
 10
2.949521029962682
 20
6.998562800600098
 30
0.0
 11
3.255903120848501
 21
7.304944891486087
 31
0.0
  0
LINE
  5
184
330
A3
100
AcDbEntity
  8
0
  6
CONTINUOUS
 62
     1
100
AcDbLine
 10
3.225080865423422
 20
6.849858567349429
 30
0.0
 11
3.544551428049573
 21
7.16932912997521
 31
0.0
  0
LINE
  5
185
330
A3
100
AcDbEntity
  8
0
  6
CONTINUOUS
 62
     1
100
AcDbLine
 10
3.49034356646365
 20
6.690857199677708
 30
0.0
 11
3.823832104207668
 21
7.024345737421413
 31
0.0
  0
LINE
  5
186
330
A3
100
AcDbEntity
  8
0
  6
CONTINUOUS
 62
     1
100
AcDbLine
 10
3.745755336542572
 20
6.52200490104525
 30
0.0
 11
4.094089377092075
 21
6.8703389415939
 31
0.0
  0
LINE
  5
187
330
A3
100
AcDbEntity
  8
0
  6
CONTINUOUS
 62
     1
100
AcDbLine
 10
3.991681047742674
 20
6.343666543532379
 30
0.0
 11
4.355607703773501
 21
6.707593199563348
 31
0.0
  0
LINE
  5
188
330
A3
100
AcDbEntity
  8
0
  6
CONTINUOUS
 62
     1
100
AcDbLine
 10
4.228416157740725
 20
6.156137584819533
 30
0.0
 11
4.608619436707954
 21
6.536340863785881
 31
0.0
  0
LINE
  5
189
330
A3
100
AcDbEntity
  8
0
  6
CONTINUOUS
 62
     1
100
AcDbLine
 10
4.456195676600657
 20
5.959653034968056
 30
0.0
 11
4.853310704522841
 21
6.356768062888847
 31
0.0
  0
LINE
  5
18A
330
A3
100
AcDbEntity
  8
0
  6
CONTINUOUS
 62
     1
100
AcDbLine
 10
4.675200871154516
 20
5.754394160808943
 30
0.0
 11
5.089825879810036
 21
6.169019169464093
 31
0.0
  0
LINE
  5
18B
330
A3
100
AcDbEntity
  8
0
  6
CONTINUOUS
 62
     1
100
AcDbLine
 10
4.885564181409819
 20
5.540493402351785
 30
0.0
 11
5.318270897758907
 21
5.973200118701072
 31
0.0
  0
LINE
  5
18C
330
A3
100
AcDbEntity
  8
0
  6
CONTINUOUS
 62
     1
100
AcDbLine
 10
5.087372674178965
 20
5.318037826409522
 30
0.0
 11
5.538715610528357
 21
5.769380762758601
 31
0.0
  0
LINE
  5
18D
330
A3
100
AcDbEntity
  8
0
  6
CONTINUOUS
 62
     1
100
AcDbLine
 10
5.280670250429665
 20
5.087071333948813
 30
0.0
 11
5.751195302615741
 21
5.557596386134037
 31
0.0
  0
LINE
  5
18E
330
A3
100
AcDbEntity
  8
0
  6
CONTINUOUS
 62
     1
100
AcDbLine
 10
5.465458739422701
 20
4.847595754229417
 30
0.0
 11
5.955711445178792
 21
5.337848459985139
 31
0.0
  0
LINE
  5
18F
330
A3
100
AcDbEntity
  8
0
  6
CONTINUOUS
 62
     1
100
AcDbLine
 10
5.641697944028152
 20
4.599570890122379
 30
0.0
 11
6.152231727324647
 21
5.110104673419073
 31
0.0
  0
LINE
  5
190
330
A3
100
AcDbEntity
  8
0
  6
CONTINUOUS
 62
     1
100
AcDbLine
 10
5.80930463986607
 20
4.342913517248917
 30
0.0
 11
6.340689365930984
 21
4.87429824331349
 31
0.0
  0
LINE
  5
191
330
A3
100
AcDbEntity
  8
0
  6
CONTINUOUS
 62
     1
100
AcDbLine
 10
5.968150469449171
 20
4.077495278120637
 30
0.0
 11
6.520981659258922
 21
4.630326467929478
 31
0.0
  0
LINE
  5
192
330
A3
100
AcDbEntity
  8
0
  6
CONTINUOUS
 62
     1
100
AcDbLine
 10
6.118058604723785
 20
3.803139344682762
 30
0.0
 11
6.692967710122474
 21
4.37804845008111
 31
0.0
  0
LINE
  5
193
330
A3
100
AcDbEntity
  8
0
  6
CONTINUOUS
 62
     1
100
AcDbLine
 10
6.258798969625076
 20
3.519615640871621
 30
0.0
 11
6.856465197899155
 21
4.11728186914587
 31
0.0
  0
LINE
  5
194
330
A3
100
AcDbEntity
  8
0
  6
CONTINUOUS
 62
     1
100
AcDbLine
 10
6.390081708298396
 20
3.226634310833532
 30
0.0
 11
7.011246020343179
 21
3.847798622877974
 31
0.0
  0
LINE
  5
195
330
A3
100
AcDbEntity
  8
0
  6
CONTINUOUS
 62
     1
100
AcDbLine
 10
6.51154843973822
 20
2.923836973561436
 30
0.0
 11
7.157030549264618
 21
3.569319083087464
 31
0.0
  0
LINE
  5
196
330
A3
100
AcDbEntity
  8
0
  6
CONTINUOUS
 62
     1
100
AcDbLine
 10
6.622760633082862
 20
2.610785098193617
 30
0.0
 11
7.29348013877356
 21
3.281504603884514
 31
0.0
  0
LINE
  5
197
330
A3
100
AcDbEntity
  8
0
  6
CONTINUOUS
 62
     1
100
AcDbLine
 10
6.723184133233246
 20
2.286944529632592
 30
0.0
 11
7.420187375838765
 21
2.983947772237741
 31
0.0
  0
LINE
  5
198
330
A3
100
AcDbEntity
  8
0
  6
CONTINUOUS
 62
     1
100
AcDbLine
 10
6.812168403091221
 20
1.951664730778134
 30
0.0
 11
7.536663346489121
 21
2.676159674176176
 31
0.0
  0
LINE
  5
199
330
A3
100
AcDbEntity
  8
0
  6
CONTINUOUS
 62
     1
100
AcDbLine
 10
6.888918321747326
 20
1.604150580722802
 30
0.0
 11
7.642320868201068
 21
2.357553127176175
 31
0.0
  0
LINE
  5
19A
330
A3
100
AcDbEntity
  8
0
  6
CONTINUOUS
 62
     1
100
AcDbLine
 10
6.952455199727183
 20
1.243423389990198
 30
0.0
 11
7.736452144604954
 21
2.027420334868168
 31
0.0
  0
LINE
  5
19B
330
A3
100
AcDbEntity
  8
0
  6
CONTINUOUS
 62
     1
100
AcDbLine
 10
7.001561692834315
 20
0.8682658143859499
 30
0.0
 11
7.818198519492938
 21
1.684902641044232
 31
0.0
  0
LINE
  5
19C
330
A3
100
AcDbEntity
  8
0
  6
CONTINUOUS
 62
     1
100
AcDbLine
 10
7.034701831243353
 20
0.4771418840835793
 30
0.0
 11
7.88650873999535
 21
1.328948792834694
 31
0.0
  0
LINE
  5
19D
330
A3
100
AcDbEntity
  8
0
  6
CONTINUOUS
 62
     1
100
AcDbLine
 10
7.049901019597002
 20
0.0680770037247669
 30
0.0
 11
7.940080003510957
 21
0.9582559876383812
 31
0.0
  0
LINE
  5
19E
330
A3
100
AcDbEntity
  8
0
  6
CONTINUOUS
 62
     1
100
AcDbLine
 10
7.044558505975857
 20
-0.3615295786088382
 30
0.0
 11
7.977272314254776
 21
0.5711842296702514
 31
0.0
  0
LINE
  5
19F
330
A3
100
AcDbEntity
  8
0
  6
CONTINUOUS
 62
     1
100
AcDbLine
 10
7.015139100198297
 20
-0.815213053097807
 30
0.0
 11
7.99597977063317
 21
0.1656276173367246
 31
0.0
  0
LINE
  5
1A0
330
A3
100
AcDbEntity
  8
0
  6
CONTINUOUS
 62
     1
100
AcDbLine
 10
6.956632619375881
 20
-1.297983602631604
 30
0.0
 11
7.993428939022721
 21
-0.2611872829856452
 31
0.0
  0
LINE
  5
1A1
330
A3
100
AcDbEntity
  8
0
  6
CONTINUOUS
 62
     1
100
AcDbLine
 10
6.861521966390114
 20
-1.817358324329831
 30
0.0
 11
7.965846317431385
 21
-0.7130339732889013
 31
0.0
  0
LINE
  5
1A2
330
A3
100
AcDbEntity
  8
0
  6
CONTINUOUS
 62
     1
100
AcDbLine
 10
6.717567372527043
 20
-2.385576986905335
 30
0.0
 11
7.907872701545784
 21
-1.195271657886451
 31
0.0
  0
LINE
  5
1A3
330
A3
100
AcDbEntity
  8
0
  6
CONTINUOUS
 62
     1
100
AcDbLine
 10
6.502135732102488
 20
-3.025272696041327
 30
0.0
 11
7.811438562868204
 21
-1.715969865275952
 31
0.0
  0
LINE
  5
1A4
330
A3
100
AcDbEntity
  8
0
  6
CONTINUOUS
 62
     1
100
AcDbLine
 10
6.162590538090711
 20
-3.789081958764996
 30
0.0
 11
7.663328784013828
 21
-2.288343712842277
 31
0.0
  0
LINE
  5
1A5
330
A3
100
AcDbEntity
  8
0
  6
CONTINUOUS
 62
     1
100
AcDbLine
 10
2.950000000000102
 20
-7.425936565568207
 30
0.0
 11
3.966471550358307
 21
-6.409465015208298
 31
0.0
  0
LINE
  5
1A6
330
A3
100
AcDbEntity
  8
0
  6
CONTINUOUS
 62
     1
100
AcDbLine
 10
5.470054124292005
 20
-4.905882441274599
 30
0.0
 11
7.438867569030947
 21
-2.937068996537079
 31
0.0
  0
LINE
  5
1A7
330
A3
100
AcDbEntity
  8
0
  6
CONTINUOUS
 62
     1
100
AcDbLine
 10
3.720672121346922
 20
-7.079528512933024
 30
0.0
 11
7.079528512932995
 21
-3.720672121346979
 31
0.0
  0
LINE
  5
1A8
330
A3
100
AcDbEntity
  8
0
  6
CONTINUOUS
 62
     1
100
AcDbLine
 10
4.916236279077225
 20
-6.308228423914642
 30
0.0
 11
6.308228423914613
 21
-4.916236279077253
 31
0.0
  0
LINE
  5
1A9
330
A3
100
AcDbEntity
  8
0
  6
CONTINUOUS
 62
     1
100
AcDbLine
 10
2.94999999999996
 20
-8.050000000000011
 30
0.0
 11
2.94999999999996
 21
-7.425936565568065
 31
0.0
  0
LINE
  5
1AA
330
A3
100
AcDbEntity
  8
0
  6
CONTINUOUS
 62
     1
100
AcDbLine
 10
2.94999999999996
 20
-7.001672496856145
 30
0.0
 11
2.94999999999996
 21
0.0
 31
0.0
  0
LINE
  5
1AB
330
A3
100
AcDbEntity
  8
0
  6
CONTINUOUS
 62
     1
100
AcDbLine
 10
-0.0000000000000284
 20
0.0
 30
0.0
 11
-0.0000000000000284
 21
-7.724330220767939
 31
0.0
  0
ARC
  5
1AC
330
A3
100
AcDbEntity
  8
0
  6
CONTINUOUS
 62
     1
100
AcDbCircle
 10
-0.0000000000000284
 20
0.0
 30
0.0
 40
7.9976949804303
100
AcDbArc
 50
291.6450982457644
 51
101.4197208174515
  0
ELLIPSE
  5
1AD
330
A3
100
AcDbEntity
  8
0
  6
CONTINUOUS
 62
     1
100
AcDbEllipse
 10
-0.0000000000000284
 20
0.0
 30
0.0
 11
-0.2271076736246198
 21
7.721660903237132
 31
0.0
210
0.0
220
0.0
230
1.0
 40
0.9126213592233006
 41
3.542771552304552
 42
6.421999278493303
  0
LINE
  5
1AE
330
A3
100
AcDbEntity
  8
0
  6
CONTINUOUS
 62
     1
100
AcDbLine
 10
-1.583501468930365
 20
7.839365286673114
 30
0.0
 11
-4.599999999999994
 21
9.574999999999989
 31
0.0
  0
LINE
  5
1AF
330
A3
100
AcDbEntity
  8
0
  6
CONTINUOUS
 62
     1
100
AcDbLine
 10
-3.80000000000004
 20
2.375
 30
0.0
 11
-3.80000000000004
 21
6.528846834962735
 31
0.0
  0
ENDBLK
  5
A5
330
A3
100
AcDbEntity
  8
0
100
AcDbBlockEnd
  0
ENDSEC
  0
SECTION
  2
ENTITIES
  0
LINE
  5
1B0
330
1F
100
AcDbEntity
  8
LAY-1
  6
CONTINUOUS
 62
     1
100
AcDbLine
 10
397.5210141953705
 20
381.0738984582205
 30
0.0
 11
398.0486874311832
 21
380.5462252224077
 31
0.0
  0
LINE
  5
1B1
330
1F
100
AcDbEntity
  8
LAY-1
  6
CONTINUOUS
 62
     1
100
AcDbLine
 10
307.3120438396451
 20
350.54622522214
 30
0.0
 11
307.3120438396451
 21
162.53785379194
 31
0.0
  0
LINE
  5
1B2
330
1F
100
AcDbEntity
  8
LAY-1
  6
CONTINUOUS
 62
     1
100
AcDbLine
 10
221.812043839628
 20
350.54622522214
 30
0.0
 11
221.812043839628
 21
162.53785379194
 31
0.0
  0
TEXT
  5
1B3
330
1F
100
AcDbEntity
  8
LAY-1
  6
CONTINUOUS
 62
     3
100
AcDbText
 10
247.0620438396365
 20
165.37643679194
 30
0.0
 40
7.795275999999999
  1
８５.５
 41
1.475042148057067
  7
EXCADSTD
 72
     5
 11
280.4620438396365
 21
165.37643679194
 31
0.0
100
AcDbText
  0
LINE
  5
1B4
330
1F
100
AcDbEntity
  8
LAY-1
  6
CONTINUOUS
 62
     1
100
AcDbLine
 10
307.3120438396451
 20
163.03785379194
 30
0.0
 11
221.812043839628
 21
163.03785379194
 31
0.0
  0
LINE
  5
1B5
330
1F
100
AcDbEntity
  8
LAY-1
  6
CONTINUOUS
 62
     1
100
AcDbLine
 10
305.3120438396451
 20
162.7045204586067
 30
0.0
 11
307.3120438396451
 21
163.03785379194
 31
0.0
  0
LINE
  5
1B6
330
1F
100
AcDbEntity
  8
LAY-1
  6
CONTINUOUS
 62
     1
100
AcDbLine
 10
307.3120438396451
 20
163.03785379194
 30
0.0
 11
305.3120438396451
 21
163.3711871252733
 31
0.0
  0
LINE
  5
1B7
330
1F
100
AcDbEntity
  8
LAY-1
  6
CONTINUOUS
 62
     1
100
AcDbLine
 10
223.812043839628
 20
163.3711871252733
 30
0.0
 11
221.812043839628
 21
163.03785379194
 31
0.0
  0
LINE
  5
1B8
330
1F
100
AcDbEntity
  8
LAY-1
  6
CONTINUOUS
 62
     1
100
AcDbLine
 10
221.812043839628
 20
163.03785379194
 30
0.0
 11
223.812043839628
 21
162.7045204586067
 31
0.0
  0
LINE
  5
1B9
330
1F
100
AcDbEntity
  8
LAY-1
  6
CONTINUOUS
 62
     1
100
AcDbLine
 10
238.8120438396301
 20
388.5462252224
 30
0.0
 11
238.8120438396301
 21
401.0378537919399
 31
0.0
  0
LINE
  5
1BA
330
1F
100
AcDbEntity
  8
LAY-1
  6
CONTINUOUS
 62
     1
100
AcDbLine
 10
221.812043839628
 20
370.7177980974
 30
0.0
 11
221.812043839628
 21
401.0378537919399
 31
0.0
  0
TEXT
  5
1BB
330
1F
100
AcDbEntity
  8
LAY-1
  6
CONTINUOUS
 62
     3
100
AcDbText
 10
220.3120438396291
 20
402.87643679194
 30
0.0
 40
7.795275999999999
  1
１７
 41
1.502075219542055
  7
EXCADSTD
 72
     5
 11
238.7120438396291
 21
402.87643679194
 31
0.0
100
AcDbText
  0
LINE
  5
1BC
330
1F
100
AcDbEntity
  8
LAY-1
  6
CONTINUOUS
 62
     1
100
AcDbLine
 10
238.8120438396301
 20
400.5378537919399
 30
0.0
 11
221.812043839628
 21
400.5378537919399
 31
0.0
  0
LINE
  5
1BD
330
1F
100
AcDbEntity
  8
LAY-1
  6
CONTINUOUS
 62
     1
100
AcDbLine
 10
236.8120438396301
 20
400.2045204586066
 30
0.0
 11
238.8120438396301
 21
400.5378537919399
 31
0.0
  0
LINE
  5
1BE
330
1F
100
AcDbEntity
  8
LAY-1
  6
CONTINUOUS
 62
     1
100
AcDbLine
 10
238.8120438396301
 20
400.5378537919399
 30
0.0
 11
236.8120438396301
 21
400.8711871252733
 31
0.0
  0
LINE
  5
1BF
330
1F
100
AcDbEntity
  8
LAY-1
  6
CONTINUOUS
 62
     1
100
AcDbLine
 10
223.812043839628
 20
400.8711871252733
 30
0.0
 11
221.812043839628
 21
400.5378537919399
 31
0.0
  0
LINE
  5
1C0
330
1F
100
AcDbEntity
  8
LAY-1
  6
CONTINUOUS
 62
     1
100
AcDbLine
 10
221.812043839628
 20
400.5378537919399
 30
0.0
 11
223.812043839628
 21
400.2045204586066
 31
0.0
  0
LINE
  5
1C1
330
1F
100
AcDbEntity
  8
LAY-1
  6
CONTINUOUS
 62
     1
100
AcDbLine
 10
238.812043839628
 20
388.5462252224
 30
0.0
 11
200.8120438396301
 21
388.5462252224
 31
0.0
  0
LINE
  5
1C2
330
1F
100
AcDbEntity
  8
LAY-1
  6
CONTINUOUS
 62
     1
100
AcDbLine
 10
246.312043839628
 20
215.5462252220199
 30
0.0
 11
200.8120438396301
 21
215.5462252220199
 31
0.0
  0
TEXT
  5
1C3
330
1F
100
AcDbEntity
  8
LAY-1
  6
CONTINUOUS
 62
     3
100
AcDbText
 10
198.9734608396301
 20
287.04622522221
 30
0.0
 40
7.795275999999999
  1
１７３
 50
90.0
 41
1.500154407240849
  7
EXCADSTD
 72
     5
 11
198.9734608396301
 21
315.4462252222099
 31
0.0
100
AcDbText
  0
LINE
  5
1C4
330
1F
100
AcDbEntity
  8
LAY-1
  6
CONTINUOUS
 62
     1
100
AcDbLine
 10
201.3120438396301
 20
388.5462252224
 30
0.0
 11
201.3120438396301
 21
215.5462252220199
 31
0.0
  0
LINE
  5
1C5
330
1F
100
AcDbEntity
  8
LAY-1
  6
CONTINUOUS
 62
     1
100
AcDbLine
 10
201.6453771729634
 20
386.5462252224
 30
0.0
 11
201.3120438396301
 21
388.5462252224
 31
0.0
  0
LINE
  5
1C6
330
1F
100
AcDbEntity
  8
LAY-1
  6
CONTINUOUS
 62
     1
100
AcDbLine
 10
201.3120438396301
 20
388.5462252224
 30
0.0
 11
200.9787105062967
 21
386.5462252224
 31
0.0
  0
LINE
  5
1C7
330
1F
100
AcDbEntity
  8
LAY-1
  6
CONTINUOUS
 62
     1
100
AcDbLine
 10
200.9787105062967
 20
217.5462252220199
 30
0.0
 11
201.3120438396301
 21
215.5462252220199
 31
0.0
  0
LINE
  5
1C8
330
1F
100
AcDbEntity
  8
LAY-1
  6
CONTINUOUS
 62
     1
100
AcDbLine
 10
201.3120438396301
 20
215.5462252220199
 30
0.0
 11
201.6453771729634
 21
217.5462252220199
 31
0.0
  0
TEXT
  5
1C9
330
1F
100
AcDbEntity
  8
LAY-1
  6
CONTINUOUS
 62
     3
100
AcDbText
 10
314.8120438396301
 20
207.4764368038609
 30
0.0
 40
7.795275999999999
  1
Ｍ４２×２
 41
1.498697239288211
  7
EXCADSTD
 72
     5
 11
363.21204383963
 21
207.4764368038609
 31
0.0
100
AcDbText
  0
POLYLINE
  5
1CA
330
1F
100
AcDbEntity
  8
LAY-1
  6
CONTINUOUS
 62
     1
100
AcDb2dPolyline
 66
     1
 10
0.0
 20
0.0
 30
0.0
 70
   128
  0
VERTEX
  5
1CB
330
1CA
100
AcDbEntity
  8
LAY-1
  6
CONTINUOUS
 62
     1
100
AcDbVertex
100
AcDb2dVertex
 10
265.8120438396301
 20
222.13785379194
 30
0.0
  0
VERTEX
  5
1CC
330
1CA
100
AcDbEntity
  8
LAY-1
  6
CONTINUOUS
 62
     1
100
AcDbVertex
100
AcDb2dVertex
 10
314.8120438396301
 20
205.8378537919399
 30
0.0
  0
VERTEX
  5
1CD
330
1CA
100
AcDbEntity
  8
LAY-1
  6
CONTINUOUS
 62
     1
100
AcDbVertex
100
AcDb2dVertex
 10
365.3120438396301
 20
205.8378537919399
 30
0.0
  0
SEQEND
  5
1CE
330
1CA
100
AcDbEntity
  8
LAY-1
  6
CONTINUOUS
 62
     1
  0
LINE
  5
1CF
330
1F
100
AcDbEntity
  8
LAY-1
  6
CONTINUOUS
 62
     1
100
AcDbLine
 10
267.8150129638729
 20
221.8228525245759
 30
0.0
 11
265.8120438396301
 21
222.13785379194
 31
0.0
  0
LINE
  5
1D0
330
1F
100
AcDbEntity
  8
LAY-1
  6
CONTINUOUS
 62
     1
100
AcDbLine
 10
265.8120438396301
 20
222.13785379194
 30
0.0
 11
267.6045817893634
 21
221.1902680122466
 31
0.0
  0
LINE
  5
1D1
330
1F
100
AcDbEntity
  8
LAY-1
  6
CONTINUOUS
 62
     1
100
AcDbLine
 10
246.312043839628
 20
215.5462252220199
 30
0.0
 11
246.312043839628
 21
176.7378537919399
 31
0.0
  0
LINE
  5
1D2
330
1F
100
AcDbEntity
  8
LAY-1
  6
CONTINUOUS
 62
     1
100
AcDbLine
 10
221.812043839628
 20
335.04622522214
 30
0.0
 11
221.812043839628
 21
176.7378537919399
 31
0.0
  0
TEXT
  5
1D3
330
1F
100
AcDbEntity
  8
LAY-1
  6
CONTINUOUS
 62
     3
100
AcDbText
 10
186.0120438396301
 20
179.5764367919399
 30
0.0
 40
7.795275999999999
  1
２４.５
 41
1.475042148057068
  7
EXCADSTD
 72
     5
 11
219.4120438396301
 21
179.5764367919399
 31
0.0
100
AcDbText
  0
LINE
  5
1D4
330
1F
100
AcDbEntity
  8
LAY-1
  6
CONTINUOUS
 62
     1
100
AcDbLine
 10
248.312043839628
 20
177.2378537919399
 30
0.0
 11
185.0120446025675
 21
177.2378537919399
 31
0.0
  0
LINE
  5
1D5
330
1F
100
AcDbEntity
  8
LAY-1
  6
CONTINUOUS
 62
     1
100
AcDbLine
 10
248.312043839628
 20
177.5711871252733
 30
0.0
 11
246.312043839628
 21
177.2378537919399
 31
0.0
  0
LINE
  5
1D6
330
1F
100
AcDbEntity
  8
LAY-1
  6
CONTINUOUS
 62
     1
100
AcDbLine
 10
246.312043839628
 20
177.2378537919399
 30
0.0
 11
248.312043839628
 21
176.9045204586066
 31
0.0
  0
LINE
  5
1D7
330
1F
100
AcDbEntity
  8
LAY-1
  6
CONTINUOUS
 62
     1
100
AcDbLine
 10
219.812043839628
 20
176.9045204586066
 30
0.0
 11
221.812043839628
 21
177.2378537919399
 31
0.0
  0
LINE
  5
1D8
330
1F
100
AcDbEntity
  8
LAY-1
  6
CONTINUOUS
 62
     1
100
AcDbLine
 10
221.812043839628
 20
177.2378537919399
 30
0.0
 11
219.812043839628
 21
177.5711871252733
 31
0.0
  0
POLYLINE
  5
1D9
330
1F
100
AcDbEntity
  8
LAY-1
  6
CONTINUOUS
 62
     1
100
AcDb2dPolyline
 66
     1
 10
0.0
 20
0.0
 30
0.0
 70
   128
  0
VERTEX
  5
1DA
330
1D9
100
AcDbEntity
  8
LAY-1
  6
CONTINUOUS
 62
     1
100
AcDbVertex
100
AcDb2dVertex
 10
246.3120438396311
 20
215.5462252220199
 30
0.0
  0
VERTEX
  5
1DB
330
1D9
100
AcDbEntity
  8
LAY-1
  6
CONTINUOUS
 62
     1
100
AcDbVertex
100
AcDb2dVertex
 10
314.9120438396301
 20
170.53785379194
 30
0.0
  0
VERTEX
  5
1DC
330
1D9
100
AcDbEntity
  8
LAY-1
  6
CONTINUOUS
 62
     1
100
AcDbVertex
100
AcDb2dVertex
 10
369.1120438396301
 20
170.53785379194
 30
0.0
  0
SEQEND
  5
1DD
330
1D9
100
AcDbEntity
  8
LAY-1
  6
CONTINUOUS
 62
     1
  0
LINE
  5
1DE
330
1F
100
AcDbEntity
  8
LAY-1
  6
CONTINUOUS
 62
     1
100
AcDbLine
 10
248.1671117066578
 20
214.7277911563579
 30
0.0
 11
246.3120438396311
 21
215.5462252220199
 31
0.0
  0
LINE
  5
1DF
330
1F
100
AcDbEntity
  8
LAY-1
  6
CONTINUOUS
 62
     1
100
AcDbLine
 10
246.3120438396311
 20
215.5462252220199
 30
0.0
 11
247.8013996925498
 21
214.1703872030337
 31
0.0
  0
TEXT
  5
1E0
330
1F
100
AcDbEntity
  8
LAY-1
  6
CONTINUOUS
 62
     3
100
AcDbText
 10
317.0120438396301
 20
172.0264367979005
 30
0.0
 40
7.795275999999999
  1
Ｒｃ３／４
 41
1.498697239288211
  7
EXCADSTD
 72
     5
 11
365.4120438396301
 21
172.0264367979005
 31
0.0
100
AcDbText
  0
POLYLINE
  5
1E1
330
1F
100
AcDbEntity
  8
LAY-1
  6
CONTINUOUS
 62
     1
100
AcDb2dPolyline
 66
     1
 10
0.0
 20
0.0
 30
0.0
 70
   128
  0
VERTEX
  5
1E2
330
1E1
100
AcDbEntity
  8
LAY-1
  6
CONTINUOUS
 62
     1
100
AcDbVertex
100
AcDb2dVertex
 10
249.5120438396301
 20
194.34622522245
 30
0.0
  0
VERTEX
  5
1E3
330
1E1
100
AcDbEntity
  8
LAY-1
  6
CONTINUOUS
 62
     1
100
AcDbVertex
100
AcDb2dVertex
 10
314.9120438396301
 20
170.53785379194
 30
0.0
  0
VERTEX
  5
1E4
330
1E1
100
AcDbEntity
  8
LAY-1
  6
CONTINUOUS
 62
     1
100
AcDbVertex
100
AcDb2dVertex
 10
369.1120438396301
 20
170.53785379194
 30
0.0
  0
SEQEND
  5
1E5
330
1E1
100
AcDbEntity
  8
LAY-1
  6
CONTINUOUS
 62
     1
  0
LINE
  5
1E6
330
1F
100
AcDbEntity
  8
LAY-1
  6
CONTINUOUS
 62
     1
100
AcDbLine
 10
251.5054121703654
 20
193.9752888274537
 30
0.0
 11
249.5120438396301
 21
194.34622522245
 31
0.0
  0
LINE
  5
1E7
330
1F
100
AcDbEntity
  8
LAY-1
  6
CONTINUOUS
 62
     1
100
AcDbLine
 10
249.5120438396301
 20
194.34622522245
 30
0.0
 11
251.2773588351917
 21
193.3488416064042
 31
0.0
  0
LINE
  5
1E8
330
1F
100
AcDbEntity
  8
LAY-1
  6
CONTINUOUS
 62
     1
100
AcDbLine
 10
238.8120438396301
 20
388.5462252224
 30
0.0
 11
185.11204383963
 21
388.5462252224
 31
0.0
  0
LINE
  5
1E9
330
1F
100
AcDbEntity
  8
LAY-1
  6
CONTINUOUS
 62
     1
100
AcDbLine
 10
246.312043839628
 20
194.34622522245
 30
0.0
 11
185.11204383963
 21
194.34622522245
 31
0.0
  0
TEXT
  5
1EA
330
1F
100
AcDbEntity
  8
LAY-1
  6
CONTINUOUS
 62
     3
100
AcDbText
 10
183.27346083963
 20
266.446225222425
 30
0.0
 40
7.795275999999999
  1
（
 50
90.0
 41
1.508605981366147
  7
EXCADSTD
 72
     5
 11
183.27346083963
 21
274.8462252224249
 31
0.0
100
AcDbText
  0
TEXT
  5
1EB
330
1F
100
AcDbEntity
  8
LAY-1
  6
CONTINUOUS
 62
     3
100
AcDbText
 10
183.27346083963
 20
276.446225222425
 30
0.0
 40
7.795275999999999
  1
１９４
 50
90.0
 41
1.500154407240849
  7
EXCADSTD
 72
     5
 11
183.27346083963
 21
304.8462252224249
 31
0.0
100
AcDbText
  0
TEXT
  5
1EC
330
1F
100
AcDbEntity
  8
LAY-1
  6
CONTINUOUS
 62
     3
100
AcDbText
 10
183.27346083963
 20
306.446225222425
 30
0.0
 40
7.795275999999999
  1
）
 50
90.0
 41
1.508605981366147
  7
EXCADSTD
 72
     5
 11
183.27346083963
 21
314.8462252224249
 31
0.0
100
AcDbText
  0
LINE
  5
1ED
330
1F
100
AcDbEntity
  8
LAY-1
  6
CONTINUOUS
 62
     1
100
AcDbLine
 10
185.61204383963
 20
388.5462252224
 30
0.0
 11
185.61204383963
 21
194.34622522245
 31
0.0
  0
LINE
  5
1EE
330
1F
100
AcDbEntity
  8
LAY-1
  6
CONTINUOUS
 62
     1
100
AcDbLine
 10
185.9453771729634
 20
386.5462252224
 30
0.0
 11
185.61204383963
 21
388.5462252224
 31
0.0
  0
LINE
  5
1EF
330
1F
100
AcDbEntity
  8
LAY-1
  6
CONTINUOUS
 62
     1
100
AcDbLine
 10
185.61204383963
 20
388.5462252224
 30
0.0
 11
185.2787105062967
 21
386.5462252224
 31
0.0
  0
LINE
  5
1F0
330
1F
100
AcDbEntity
  8
LAY-1
  6
CONTINUOUS
 62
     1
100
AcDbLine
 10
185.2787105062967
 20
196.34622522245
 30
0.0
 11
185.61204383963
 21
194.34622522245
 31
0.0
  0
LINE
  5
1F1
330
1F
100
AcDbEntity
  8
LAY-1
  6
CONTINUOUS
 62
     1
100
AcDbLine
 10
185.61204383963
 20
194.34622522245
 30
0.0
 11
185.9453771729634
 21
196.34622522245
 31
0.0
  0
TEXT
  5
1F2
330
1F
100
AcDbEntity
  8
LAY-1
  6
CONTINUOUS
 62
     3
100
AcDbText
 10
254.5807652667843
 20
405.7264367979004
 30
0.0
 40
7.795275999999999
  1
Ｒｃ１／４
 50
0.0000000000001346
 41
1.498697239288211
  7
EXCADSTD
 72
     5
 11
302.9807652667843
 21
405.7264367979003
 31
0.0
100
AcDbText
  0
POLYLINE
  5
1F3
330
1F
100
AcDbEntity
  8
LAY-1
  6
CONTINUOUS
 62
     1
100
AcDb2dPolyline
 66
     1
 10
0.0
 20
0.0
 30
0.0
 70
   128
  0
VERTEX
  5
1F4
330
1F3
100
AcDbEntity
  8
LAY-1
  6
CONTINUOUS
 62
     1
100
AcDbVertex
100
AcDb2dVertex
 10
238.8120438396281
 20
388.5462252224
 30
0.0
  0
VERTEX
  5
1F5
330
1F3
100
AcDbEntity
  8
LAY-1
  6
CONTINUOUS
 62
     1
100
AcDbVertex
100
AcDb2dVertex
 10
254.5036724091689
 20
404.23785379194
 30
0.0
  0
VERTEX
  5
1F6
330
1F3
100
AcDbEntity
  8
LAY-1
  6
CONTINUOUS
 62
     1
100
AcDbVertex
100
AcDb2dVertex
 10
304.6578581243998
 20
404.2378537919398
 30
0.0
  0
SEQEND
  5
1F7
330
1F3
100
AcDbEntity
  8
LAY-1
  6
CONTINUOUS
 62
     1
  0
LINE
  5
1F8
330
1F
100
AcDbEntity
  8
LAY-1
  6
CONTINUOUS
 62
     1
100
AcDbLine
 10
239.9905551416057
 20
390.1961410451686
 30
0.0
 11
238.8120438396281
 21
388.5462252224
 31
0.0
  0
LINE
  5
1F9
330
1F
100
AcDbEntity
  8
LAY-1
  6
CONTINUOUS
 62
     1
100
AcDbLine
 10
238.8120438396281
 20
388.5462252224
 30
0.0
 11
240.4619596623968
 21
389.7247365243775
 31
0.0
  0
LINE
  5
1FA
330
1F
100
AcDbEntity
  8
LAY-1
  6
CONTINUOUS
 62
     2
100
AcDbLine
 10
444.4647273369751
 20
256.2263020003575
 30
0.0
 11
447.673911902079
 21
279.4900320200416
 31
0.0
  0
ARC
  5
1FB
330
1F
100
AcDbEntity
  8
LAY-1
  6
CONTINUOUS
 62
     2
100
AcDbCircle
 10
438.5210141953421
 20
257.04622522236
 30
0.0
 40
6.000000000000004
100
AcDbArc
 50
127.7459576913093
 51
142.2540423086265
  0
ARC
  5
1FC
330
1F
100
AcDbEntity
  8
LAY-1
  6
CONTINUOUS
 62
     2
100
AcDbCircle
 10
383.521014195342
 20
257.04622522236
 30
0.0
 40
6.000000000000004
100
AcDbArc
 50
37.74595769137407
 51
52.25404230869134
  0
ARC
  5
1FD
330
1F
100
AcDbEntity
  8
LAY-1
  6
CONTINUOUS
 62
     2
100
AcDbCircle
 10
438.5210141953421
 20
257.04622522236
 30
0.0
 40
6.000000000000004
100
AcDbArc
 50
277.8542660836431
 51
352.145733916276
  0
ARC
  5
1FE
330
1F
100
AcDbEntity
  8
LAY-1
  6
CONTINUOUS
 62
     2
100
AcDbCircle
 10
383.521014195342
 20
257.04622522236
 30
0.0
 40
6.000000000000004
100
AcDbArc
 50
187.8542660837243
 51
262.1457339163691
  0
ARC
  5
1FF
330
1F
100
AcDbEntity
  8
LAY-1
  6
CONTINUOUS
 62
     2
100
AcDbCircle
 10
411.021014195361
 20
284.5462252224
 30
0.0
 40
37.0
100
AcDbArc
 50
262.1457339163691
 51
277.8542660836438
  0
LINE
  5
200
330
1F
100
AcDbEntity
  8
LAY-1
  6
CONTINUOUS
 62
     2
100
AcDbLine
 10
426.021014195361
 20
249.265055577589
 30
0.0
 11
426.021014195361
 21
276.8225529932147
 31
0.0
  0
LINE
  5
201
330
1F
100
AcDbEntity
  8
LAY-1
  6
CONTINUOUS
 62
     2
100
AcDbLine
 10
396.021014195361
 20
249.265055577589
 30
0.0
 11
396.021014195361
 21
276.8225529931411
 31
0.0
  0
ARC
  5
202
330
1F
100
AcDbEntity
  8
LAY-1
  6
CONTINUOUS
 62
     2
100
AcDbCircle
 10
411.021014195342
 20
284.54622522239
 30
0.0
 40
37.0
100
AcDbArc
 50
352.145733916276
 51
0.0000000000001146
  0
ARC
  5
203
330
1F
100
AcDbEntity
  8
LAY-1
  6
CONTINUOUS
 62
     2
100
AcDbCircle
 10
411.02101419538
 20
284.54622522239
 30
0.0
 40
37.0
100
AcDbArc
 50
352.145733916276
 51
10.00000000000029
  0
LINE
  5
204
330
1F
100
AcDbEntity
  8
LAY-1
  6
CONTINUOUS
 62
     2
100
AcDbLine
 10
447.4589010568152
 20
290.9712077960637
 30
0.0
 11
441.1729366652187
 21
326.6206833688876
 31
0.0
  0
ARC
  5
205
330
1F
100
AcDbEntity
  8
LAY-1
  6
CONTINUOUS
 62
     2
100
AcDbCircle
 10
451.0210141953409
 20
328.357165145557
 30
0.0
 40
10.0
100
AcDbArc
 50
180.0000000000002
 51
190.0000000000004
  0
CIRCLE
  5
206
330
1F
100
AcDbEntity
  8
LAY-1
  6
CONTINUOUS
 62
     2
100
AcDbCircle
 10
411.021014195342
 20
284.54622522239
 30
0.0
 40
16.87172524386
  0
LINE
  5
207
330
1F
100
AcDbEntity
  8
LAY-1
  6
CONTINUOUS
 62
     2
100
AcDbLine
 10
416.077207397658
 20
247.8933275156559
 30
0.0
 11
439.3409374173361
 21
251.1025120807258
 31
0.0
  0
LINE
  5
208
330
1F
100
AcDbEntity
  8
LAY-1
  6
CONTINUOUS
 62
     2
100
AcDbLine
 10
382.7010909733492
 20
251.1025120807256
 30
0.0
 11
405.9648209930722
 21
247.8933275156548
 31
0.0
  0
LINE
  5
209
330
1F
100
AcDbEntity
  8
LAY-1
  6
CONTINUOUS
 62
     2
100
AcDbLine
 10
441.0210141953409
 20
374.5462252224
 30
0.0
 11
441.0210141953409
 21
328.357165145557
 31
0.0
  0
ARC
  5
20A
330
1F
100
AcDbEntity
  8
LAY-1
  6
CONTINUOUS
 62
     2
100
AcDbCircle
 10
435.021014195361
 20
374.5462252224
 30
0.0
 40
6.000000000000004
100
AcDbArc
 50
0.0
 51
90.00000000000001
  0
LINE
  5
20B
330
1F
100
AcDbEntity
  8
LAY-1
  6
CONTINUOUS
 62
     2
100
AcDbLine
 10
435.021014195361
 20
380.5462252224
 30
0.0
 11
387.021014195361
 21
380.5462252224401
 31
0.0
  0
ARC
  5
20C
330
1F
100
AcDbEntity
  8
LAY-1
  6
CONTINUOUS
 62
     2
100
AcDbCircle
 10
387.021014195361
 20
374.5462252224
 30
0.0
 40
6.000000000000004
100
AcDbArc
 50
90.00000000000001
 51
180.0000000000002
  0
LINE
  5
20D
330
1F
100
AcDbEntity
  8
LAY-1
  6
CONTINUOUS
 62
     2
100
AcDbLine
 10
381.0210141953812
 20
374.5462252224
 30
0.0
 11
381.0210141953812
 21
328.357165145557
 31
0.0
  0
ARC
  5
20E
330
1F
100
AcDbEntity
  8
LAY-1
  6
CONTINUOUS
 62
     2
100
AcDbCircle
 10
371.0210141953812
 20
328.357165145557
 30
0.0
 40
10.0
100
AcDbArc
 50
349.9999999999996
 51
0.0
  0
ARC
  5
20F
330
1F
100
AcDbEntity
  8
LAY-1
  6
CONTINUOUS
 62
     2
100
AcDbCircle
 10
411.021014195342
 20
284.54622522239
 30
0.0
 40
32.94760832903393
100
AcDbArc
 50
297.0821952607306
 51
73.59436093709947
  0
ARC
  5
210
330
1F
100
AcDbEntity
  8
LAY-1
  6
CONTINUOUS
 62
     2
100
AcDbCircle
 10
411.021014195342
 20
284.54622522239
 30
0.0
 40
32.94760832903393
100
AcDbArc
 50
106.4056390628283
 51
242.9178047393437
  0
ARC
  5
211
330
1F
100
AcDbEntity
  8
LAY-1
  6
CONTINUOUS
 62
     2
100
AcDbCircle
 10
393.3135127943494
 20
297.384323184189
 30
0.0
 40
5.0
100
AcDbArc
 50
324.0575499629317
 51
349.8989600791772
  0
LINE
  5
212
330
1F
100
AcDbEntity
  8
LAY-1
  6
CONTINUOUS
 62
     2
100
AcDbLine
 10
402.8032565448511
 20
322.1450651237151
 30
0.0
 11
398.2360127788434
 21
296.5074002100015
 31
0.0
  0
LINE
  5
213
330
1F
100
AcDbEntity
  8
LAY-1
  6
CONTINUOUS
 62
     2
100
AcDbLine
 10
419.2387718458708
 20
322.1450651237151
 30
0.0
 11
423.8060156118787
 21
296.5074002100015
 31
0.0
  0
LINE
  5
214
330
1F
100
AcDbEntity
  8
LAY-1
  6
CONTINUOUS
 62
     2
100
AcDbLine
 10
374.5831273339069
 20
290.9712077960637
 30
0.0
 11
380.8690917255033
 21
326.6206833688876
 31
0.0
  0
LINE
  5
215
330
1F
100
AcDbEntity
  8
LAY-1
  6
CONTINUOUS
 62
     2
100
AcDbLine
 10
377.577301053709
 20
256.2263020003575
 30
0.0
 11
374.368116488605
 21
279.4900320200416
 31
0.0
  0
ARC
  5
216
330
1F
100
AcDbEntity
  8
LAY-1
  6
CONTINUOUS
 62
     2
100
AcDbCircle
 10
411.021014195342
 20
284.54622522239
 30
0.0
 40
37.0
100
AcDbArc
 50
170.0
 51
187.8542660837243
  0
LINE
  5
217
330
1F
100
AcDbEntity
  8
LAY-1
  6
EXLTYPE2
 62
     1
100
AcDbLine
 10
454.6069125801804
 20
284.5462252224303
 30
0.0
 11
366.4069125801882
 21
284.5462252223884
 31
0.0
  0
LINE
  5
218
330
1F
100
AcDbEntity
  8
LAY-1
  6
CONTINUOUS
 62
     2
100
AcDbLine
 10
437.4710141953808
 20
373.9745585557328
 30
0.0
 11
436.4093475287145
 21
373.9745585557328
 31
0.0
  0
LINE
  5
219
330
1F
100
AcDbEntity
  8
LAY-1
  6
CONTINUOUS
 62
     2
100
AcDbLine
 10
435.5926808620477
 20
372.0962252223995
 30
0.0
 11
435.5926808620477
 21
373.157891889066
 31
0.0
  0
ARC
  5
21A
330
1F
100
AcDbEntity
  8
LAY-1
  6
CONTINUOUS
 62
     2
100
AcDbCircle
 10
436.4093475287145
 20
373.157891889066
 30
0.0
 40
0.816666666666712
100
AcDbArc
 50
90.00000000000001
 51
180.0000000000002
  0
LINE
  5
21B
330
1F
100
AcDbEntity
  8
LAY-1
  6
CONTINUOUS
 62
     2
100
AcDbLine
 10
435.0210141953808
 20
372.0962252223995
 30
0.0
 11
435.5926808620477
 21
372.0962252223995
 31
0.0
  0
LINE
  5
21C
330
1F
100
AcDbEntity
  8
LAY-1
  6
CONTINUOUS
 62
     2
100
AcDbLine
 10
437.4710141953808
 20
374.5462252223997
 30
0.0
 11
437.4710141953808
 21
373.9745585557328
 31
0.0
  0
LINE
  5
21D
330
1F
100
AcDbEntity
  8
LAY-1
  6
CONTINUOUS
 62
     2
100
AcDbLine
 10
437.4710141953808
 20
375.1178918890663
 30
0.0
 11
436.4093475287145
 21
375.1178918890663
 31
0.0
  0
LINE
  5
21E
330
1F
100
AcDbEntity
  8
LAY-1
  6
CONTINUOUS
 62
     2
100
AcDbLine
 10
435.5926808620477
 20
376.9962252224
 30
0.0
 11
435.5926808620477
 21
375.9345585557331
 31
0.0
  0
ARC
  5
21F
330
1F
100
AcDbEntity
  8
LAY-1
  6
CONTINUOUS
 62
     2
100
AcDbCircle
 10
436.4093475287145
 20
375.9345585557331
 30
0.0
 40
0.816666666666712
100
AcDbArc
 50
180.0000000000002
 51
270.0
  0
LINE
  5
220
330
1F
100
AcDbEntity
  8
LAY-1
  6
CONTINUOUS
 62
     2
100
AcDbLine
 10
435.0210141953808
 20
376.9962252224
 30
0.0
 11
435.5926808620477
 21
376.9962252224
 31
0.0
  0
LINE
  5
221
330
1F
100
AcDbEntity
  8
LAY-1
  6
CONTINUOUS
 62
     2
100
AcDbLine
 10
437.4710141953808
 20
374.5462252223997
 30
0.0
 11
437.4710141953808
 21
375.1178918890663
 31
0.0
  0
LINE
  5
222
330
1F
100
AcDbEntity
  8
LAY-1
  6
CONTINUOUS
 62
     2
100
AcDbLine
 10
432.5710141953806
 20
373.9745585557328
 30
0.0
 11
433.6326808620474
 21
373.9745585557328
 31
0.0
  0
LINE
  5
223
330
1F
100
AcDbEntity
  8
LAY-1
  6
CONTINUOUS
 62
     2
100
AcDbLine
 10
434.4493475287139
 20
372.0962252223995
 30
0.0
 11
434.4493475287139
 21
373.157891889066
 31
0.0
  0
ARC
  5
224
330
1F
100
AcDbEntity
  8
LAY-1
  6
CONTINUOUS
 62
     2
100
AcDbCircle
 10
433.6326808620474
 20
373.157891889066
 30
0.0
 40
0.816666666666712
100
AcDbArc
 50
0.0
 51
90.00000000000001
  0
LINE
  5
225
330
1F
100
AcDbEntity
  8
LAY-1
  6
CONTINUOUS
 62
     2
100
AcDbLine
 10
435.0210141953808
 20
372.0962252223995
 30
0.0
 11
434.4493475287139
 21
372.0962252223995
 31
0.0
  0
LINE
  5
226
330
1F
100
AcDbEntity
  8
LAY-1
  6
CONTINUOUS
 62
     2
100
AcDbLine
 10
432.5710141953806
 20
374.5462252223997
 30
0.0
 11
432.5710141953806
 21
373.9745585557328
 31
0.0
  0
LINE
  5
227
330
1F
100
AcDbEntity
  8
LAY-1
  6
CONTINUOUS
 62
     2
100
AcDbLine
 10
432.5710141953806
 20
375.1178918890663
 30
0.0
 11
433.6326808620474
 21
375.1178918890663
 31
0.0
  0
LINE
  5
228
330
1F
100
AcDbEntity
  8
LAY-1
  6
CONTINUOUS
 62
     2
100
AcDbLine
 10
434.4493475287139
 20
376.9962252224
 30
0.0
 11
434.4493475287139
 21
375.9345585557331
 31
0.0
  0
ARC
  5
229
330
1F
100
AcDbEntity
  8
LAY-1
  6
CONTINUOUS
 62
     2
100
AcDbCircle
 10
433.6326808620474
 20
375.9345585557331
 30
0.0
 40
0.816666666666712
100
AcDbArc
 50
270.0
 51
0.0
  0
LINE
  5
22A
330
1F
100
AcDbEntity
  8
LAY-1
  6
CONTINUOUS
 62
     2
100
AcDbLine
 10
435.0210141953808
 20
376.9962252224
 30
0.0
 11
434.4493475287139
 21
376.9962252224
 31
0.0
  0
LINE
  5
22B
330
1F
100
AcDbEntity
  8
LAY-1
  6
CONTINUOUS
 62
     2
100
AcDbLine
 10
432.5710141953806
 20
374.5462252223997
 30
0.0
 11
432.5710141953806
 21
375.1178918890663
 31
0.0
  0
LINE
  5
22C
330
1F
100
AcDbEntity
  8
LAY-1
  6
CONTINUOUS
 62
     2
100
AcDbLine
 10
389.4710141953808
 20
373.9745585557328
 30
0.0
 11
388.4093475287145
 21
373.9745585557328
 31
0.0
  0
LINE
  5
22D
330
1F
100
AcDbEntity
  8
LAY-1
  6
CONTINUOUS
 62
     2
100
AcDbLine
 10
387.5926808620477
 20
372.0962252223995
 30
0.0
 11
387.5926808620477
 21
373.157891889066
 31
0.0
  0
ARC
  5
22E
330
1F
100
AcDbEntity
  8
LAY-1
  6
CONTINUOUS
 62
     2
100
AcDbCircle
 10
388.4093475287145
 20
373.157891889066
 30
0.0
 40
0.816666666666712
100
AcDbArc
 50
90.00000000000001
 51
180.0000000000002
  0
LINE
  5
22F
330
1F
100
AcDbEntity
  8
LAY-1
  6
CONTINUOUS
 62
     2
100
AcDbLine
 10
387.0210141953808
 20
372.0962252223995
 30
0.0
 11
387.5926808620477
 21
372.0962252223995
 31
0.0
  0
LINE
  5
230
330
1F
100
AcDbEntity
  8
LAY-1
  6
CONTINUOUS
 62
     2
100
AcDbLine
 10
389.4710141953808
 20
374.5462252223997
 30
0.0
 11
389.4710141953808
 21
373.9745585557328
 31
0.0
  0
LINE
  5
231
330
1F
100
AcDbEntity
  8
LAY-1
  6
CONTINUOUS
 62
     2
100
AcDbLine
 10
389.4710141953808
 20
375.1178918890663
 30
0.0
 11
388.4093475287145
 21
375.1178918890663
 31
0.0
  0
LINE
  5
232
330
1F
100
AcDbEntity
  8
LAY-1
  6
CONTINUOUS
 62
     2
100
AcDbLine
 10
387.5926808620477
 20
376.9962252224
 30
0.0
 11
387.5926808620477
 21
375.9345585557331
 31
0.0
  0
ARC
  5
233
330
1F
100
AcDbEntity
  8
LAY-1
  6
CONTINUOUS
 62
     2
100
AcDbCircle
 10
388.4093475287145
 20
375.9345585557331
 30
0.0
 40
0.816666666666712
100
AcDbArc
 50
180.0000000000002
 51
270.0
  0
LINE
  5
234
330
1F
100
AcDbEntity
  8
LAY-1
  6
CONTINUOUS
 62
     2
100
AcDbLine
 10
387.0210141953808
 20
376.9962252224
 30
0.0
 11
387.5926808620477
 21
376.9962252224
 31
0.0
  0
LINE
  5
235
330
1F
100
AcDbEntity
  8
LAY-1
  6
CONTINUOUS
 62
     2
100
AcDbLine
 10
389.4710141953808
 20
374.5462252223997
 30
0.0
 11
389.4710141953808
 21
375.1178918890663
 31
0.0
  0
LINE
  5
236
330
1F
100
AcDbEntity
  8
LAY-1
  6
CONTINUOUS
 62
     2
100
AcDbLine
 10
384.5710141953806
 20
373.9745585557328
 30
0.0
 11
385.6326808620474
 21
373.9745585557328
 31
0.0
  0
LINE
  5
237
330
1F
100
AcDbEntity
  8
LAY-1
  6
CONTINUOUS
 62
     2
100
AcDbLine
 10
386.4493475287139
 20
372.0962252223995
 30
0.0
 11
386.4493475287139
 21
373.157891889066
 31
0.0
  0
ARC
  5
238
330
1F
100
AcDbEntity
  8
LAY-1
  6
CONTINUOUS
 62
     2
100
AcDbCircle
 10
385.6326808620474
 20
373.157891889066
 30
0.0
 40
0.816666666666712
100
AcDbArc
 50
0.0
 51
90.00000000000001
  0
LINE
  5
239
330
1F
100
AcDbEntity
  8
LAY-1
  6
CONTINUOUS
 62
     2
100
AcDbLine
 10
387.0210141953808
 20
372.0962252223995
 30
0.0
 11
386.4493475287139
 21
372.0962252223995
 31
0.0
  0
LINE
  5
23A
330
1F
100
AcDbEntity
  8
LAY-1
  6
CONTINUOUS
 62
     2
100
AcDbLine
 10
384.5710141953806
 20
374.5462252223997
 30
0.0
 11
384.5710141953806
 21
373.9745585557328
 31
0.0
  0
LINE
  5
23B
330
1F
100
AcDbEntity
  8
LAY-1
  6
CONTINUOUS
 62
     2
100
AcDbLine
 10
384.5710141953806
 20
375.1178918890663
 30
0.0
 11
385.6326808620474
 21
375.1178918890663
 31
0.0
  0
LINE
  5
23C
330
1F
100
AcDbEntity
  8
LAY-1
  6
CONTINUOUS
 62
     2
100
AcDbLine
 10
386.4493475287139
 20
376.9962252224
 30
0.0
 11
386.4493475287139
 21
375.9345585557331
 31
0.0
  0
ARC
  5
23D
330
1F
100
AcDbEntity
  8
LAY-1
  6
CONTINUOUS
 62
     2
100
AcDbCircle
 10
385.6326808620474
 20
375.9345585557331
 30
0.0
 40
0.816666666666712
100
AcDbArc
 50
270.0
 51
0.0
  0
LINE
  5
23E
330
1F
100
AcDbEntity
  8
LAY-1
  6
CONTINUOUS
 62
     2
100
AcDbLine
 10
387.0210141953808
 20
376.9962252224
 30
0.0
 11
386.4493475287139
 21
376.9962252224
 31
0.0
  0
LINE
  5
23F
330
1F
100
AcDbEntity
  8
LAY-1
  6
CONTINUOUS
 62
     2
100
AcDbLine
 10
384.5710141953806
 20
374.5462252223997
 30
0.0
 11
384.5710141953806
 21
375.1178918890663
 31
0.0
  0
LINE
  5
240
330
1F
100
AcDbEntity
  8
LAY-1
  6
CONTINUOUS
 62
     2
100
AcDbLine
 10
437.4710141954008
 20
322.9745585557328
 30
0.0
 11
436.4093475287344
 21
322.9745585557328
 31
0.0
  0
LINE
  5
241
330
1F
100
AcDbEntity
  8
LAY-1
  6
CONTINUOUS
 62
     2
100
AcDbLine
 10
435.5926808620677
 20
321.0962252223995
 30
0.0
 11
435.5926808620677
 21
322.157891889066
 31
0.0
  0
ARC
  5
242
330
1F
100
AcDbEntity
  8
LAY-1
  6
CONTINUOUS
 62
     2
100
AcDbCircle
 10
436.4093475287344
 20
322.157891889066
 30
0.0
 40
0.816666666666712
100
AcDbArc
 50
90.00000000000001
 51
180.0000000000002
  0
LINE
  5
243
330
1F
100
AcDbEntity
  8
LAY-1
  6
CONTINUOUS
 62
     2
100
AcDbLine
 10
435.0210141954008
 20
321.0962252223995
 30
0.0
 11
435.5926808620677
 21
321.0962252223995
 31
0.0
  0
LINE
  5
244
330
1F
100
AcDbEntity
  8
LAY-1
  6
CONTINUOUS
 62
     2
100
AcDbLine
 10
437.4710141954008
 20
323.5462252223996
 30
0.0
 11
437.4710141954008
 21
322.9745585557328
 31
0.0
  0
LINE
  5
245
330
1F
100
AcDbEntity
  8
LAY-1
  6
CONTINUOUS
 62
     2
100
AcDbLine
 10
437.4710141954008
 20
324.1178918890662
 30
0.0
 11
436.4093475287344
 21
324.1178918890662
 31
0.0
  0
LINE
  5
246
330
1F
100
AcDbEntity
  8
LAY-1
  6
CONTINUOUS
 62
     2
100
AcDbLine
 10
435.5926808620677
 20
325.9962252223999
 30
0.0
 11
435.5926808620677
 21
324.9345585557331
 31
0.0
  0
ARC
  5
247
330
1F
100
AcDbEntity
  8
LAY-1
  6
CONTINUOUS
 62
     2
100
AcDbCircle
 10
436.4093475287344
 20
324.9345585557331
 30
0.0
 40
0.816666666666712
100
AcDbArc
 50
180.0000000000002
 51
270.0
  0
LINE
  5
248
330
1F
100
AcDbEntity
  8
LAY-1
  6
CONTINUOUS
 62
     2
100
AcDbLine
 10
435.0210141954008
 20
325.9962252223999
 30
0.0
 11
435.5926808620677
 21
325.9962252223999
 31
0.0
  0
LINE
  5
249
330
1F
100
AcDbEntity
  8
LAY-1
  6
CONTINUOUS
 62
     2
100
AcDbLine
 10
437.4710141954008
 20
323.5462252223996
 30
0.0
 11
437.4710141954008
 21
324.1178918890662
 31
0.0
  0
LINE
  5
24A
330
1F
100
AcDbEntity
  8
LAY-1
  6
CONTINUOUS
 62
     2
100
AcDbLine
 10
432.5710141954006
 20
322.9745585557328
 30
0.0
 11
433.6326808620673
 21
322.9745585557328
 31
0.0
  0
LINE
  5
24B
330
1F
100
AcDbEntity
  8
LAY-1
  6
CONTINUOUS
 62
     2
100
AcDbLine
 10
434.4493475287339
 20
321.0962252223995
 30
0.0
 11
434.4493475287339
 21
322.157891889066
 31
0.0
  0
ARC
  5
24C
330
1F
100
AcDbEntity
  8
LAY-1
  6
CONTINUOUS
 62
     2
100
AcDbCircle
 10
433.6326808620673
 20
322.157891889066
 30
0.0
 40
0.816666666666712
100
AcDbArc
 50
0.0
 51
90.00000000000001
  0
LINE
  5
24D
330
1F
100
AcDbEntity
  8
LAY-1
  6
CONTINUOUS
 62
     2
100
AcDbLine
 10
435.0210141954008
 20
321.0962252223995
 30
0.0
 11
434.4493475287339
 21
321.0962252223995
 31
0.0
  0
LINE
  5
24E
330
1F
100
AcDbEntity
  8
LAY-1
  6
CONTINUOUS
 62
     2
100
AcDbLine
 10
432.5710141954006
 20
323.5462252223996
 30
0.0
 11
432.5710141954006
 21
322.9745585557328
 31
0.0
  0
LINE
  5
24F
330
1F
100
AcDbEntity
  8
LAY-1
  6
CONTINUOUS
 62
     2
100
AcDbLine
 10
432.5710141954006
 20
324.1178918890662
 30
0.0
 11
433.6326808620673
 21
324.1178918890662
 31
0.0
  0
LINE
  5
250
330
1F
100
AcDbEntity
  8
LAY-1
  6
CONTINUOUS
 62
     2
100
AcDbLine
 10
434.4493475287339
 20
325.9962252223999
 30
0.0
 11
434.4493475287339
 21
324.9345585557331
 31
0.0
  0
ARC
  5
251
330
1F
100
AcDbEntity
  8
LAY-1
  6
CONTINUOUS
 62
     2
100
AcDbCircle
 10
433.6326808620673
 20
324.9345585557331
 30
0.0
 40
0.816666666666712
100
AcDbArc
 50
270.0
 51
0.0
  0
LINE
  5
252
330
1F
100
AcDbEntity
  8
LAY-1
  6
CONTINUOUS
 62
     2
100
AcDbLine
 10
435.0210141954008
 20
325.9962252223999
 30
0.0
 11
434.4493475287339
 21
325.9962252223999
 31
0.0
  0
LINE
  5
253
330
1F
100
AcDbEntity
  8
LAY-1
  6
CONTINUOUS
 62
     2
100
AcDbLine
 10
432.5710141954006
 20
323.5462252223996
 30
0.0
 11
432.5710141954006
 21
324.1178918890662
 31
0.0
  0
CIRCLE
  5
254
330
1F
100
AcDbEntity
  8
LAY-1
  6
CONTINUOUS
 62
     2
100
AcDbCircle
 10
435.021014195401
 20
323.5462252223996
 30
0.0
 40
4.75
  0
LINE
  5
255
330
1F
100
AcDbEntity
  8
LAY-1
  6
CONTINUOUS
 62
     2
100
AcDbLine
 10
389.4710141953608
 20
322.9745585557328
 30
0.0
 11
388.4093475286945
 21
322.9745585557328
 31
0.0
  0
LINE
  5
256
330
1F
100
AcDbEntity
  8
LAY-1
  6
CONTINUOUS
 62
     2
100
AcDbLine
 10
387.5926808620277
 20
321.0962252223995
 30
0.0
 11
387.5926808620277
 21
322.157891889066
 31
0.0
  0
ARC
  5
257
330
1F
100
AcDbEntity
  8
LAY-1
  6
CONTINUOUS
 62
     2
100
AcDbCircle
 10
388.4093475286945
 20
322.157891889066
 30
0.0
 40
0.816666666666712
100
AcDbArc
 50
90.00000000000001
 51
180.0000000000002
  0
LINE
  5
258
330
1F
100
AcDbEntity
  8
LAY-1
  6
CONTINUOUS
 62
     2
100
AcDbLine
 10
387.0210141953607
 20
321.0962252223995
 30
0.0
 11
387.5926808620277
 21
321.0962252223995
 31
0.0
  0
LINE
  5
259
330
1F
100
AcDbEntity
  8
LAY-1
  6
CONTINUOUS
 62
     2
100
AcDbLine
 10
389.4710141953608
 20
323.5462252223996
 30
0.0
 11
389.4710141953608
 21
322.9745585557328
 31
0.0
  0
LINE
  5
25A
330
1F
100
AcDbEntity
  8
LAY-1
  6
CONTINUOUS
 62
     2
100
AcDbLine
 10
389.4710141953608
 20
324.1178918890662
 30
0.0
 11
388.4093475286945
 21
324.1178918890662
 31
0.0
  0
LINE
  5
25B
330
1F
100
AcDbEntity
  8
LAY-1
  6
CONTINUOUS
 62
     2
100
AcDbLine
 10
387.5926808620277
 20
325.9962252223999
 30
0.0
 11
387.5926808620277
 21
324.9345585557331
 31
0.0
  0
ARC
  5
25C
330
1F
100
AcDbEntity
  8
LAY-1
  6
CONTINUOUS
 62
     2
100
AcDbCircle
 10
388.4093475286945
 20
324.9345585557331
 30
0.0
 40
0.816666666666712
100
AcDbArc
 50
180.0000000000002
 51
270.0
  0
LINE
  5
25D
330
1F
100
AcDbEntity
  8
LAY-1
  6
CONTINUOUS
 62
     2
100
AcDbLine
 10
387.0210141953607
 20
325.9962252223999
 30
0.0
 11
387.5926808620277
 21
325.9962252223999
 31
0.0
  0
LINE
  5
25E
330
1F
100
AcDbEntity
  8
LAY-1
  6
CONTINUOUS
 62
     2
100
AcDbLine
 10
389.4710141953608
 20
323.5462252223996
 30
0.0
 11
389.4710141953608
 21
324.1178918890662
 31
0.0
  0
LINE
  5
25F
330
1F
100
AcDbEntity
  8
LAY-1
  6
CONTINUOUS
 62
     2
100
AcDbLine
 10
384.5710141953606
 20
322.9745585557328
 30
0.0
 11
385.6326808620274
 21
322.9745585557328
 31
0.0
  0
LINE
  5
260
330
1F
100
AcDbEntity
  8
LAY-1
  6
CONTINUOUS
 62
     2
100
AcDbLine
 10
386.4493475286939
 20
321.0962252223995
 30
0.0
 11
386.4493475286939
 21
322.157891889066
 31
0.0
  0
ARC
  5
261
330
1F
100
AcDbEntity
  8
LAY-1
  6
CONTINUOUS
 62
     2
100
AcDbCircle
 10
385.6326808620274
 20
322.157891889066
 30
0.0
 40
0.816666666666712
100
AcDbArc
 50
0.0
 51
90.00000000000001
  0
LINE
  5
262
330
1F
100
AcDbEntity
  8
LAY-1
  6
CONTINUOUS
 62
     2
100
AcDbLine
 10
387.0210141953607
 20
321.0962252223995
 30
0.0
 11
386.4493475286939
 21
321.0962252223995
 31
0.0
  0
LINE
  5
263
330
1F
100
AcDbEntity
  8
LAY-1
  6
CONTINUOUS
 62
     2
100
AcDbLine
 10
384.5710141953606
 20
323.5462252223996
 30
0.0
 11
384.5710141953606
 21
322.9745585557328
 31
0.0
  0
LINE
  5
264
330
1F
100
AcDbEntity
  8
LAY-1
  6
CONTINUOUS
 62
     2
100
AcDbLine
 10
384.5710141953606
 20
324.1178918890662
 30
0.0
 11
385.6326808620274
 21
324.1178918890662
 31
0.0
  0
LINE
  5
265
330
1F
100
AcDbEntity
  8
LAY-1
  6
CONTINUOUS
 62
     2
100
AcDbLine
 10
386.4493475286939
 20
325.9962252223999
 30
0.0
 11
386.4493475286939
 21
324.9345585557331
 31
0.0
  0
ARC
  5
266
330
1F
100
AcDbEntity
  8
LAY-1
  6
CONTINUOUS
 62
     2
100
AcDbCircle
 10
385.6326808620274
 20
324.9345585557331
 30
0.0
 40
0.816666666666712
100
AcDbArc
 50
270.0
 51
0.0
  0
LINE
  5
267
330
1F
100
AcDbEntity
  8
LAY-1
  6
CONTINUOUS
 62
     2
100
AcDbLine
 10
387.0210141953607
 20
325.9962252223999
 30
0.0
 11
386.4493475286939
 21
325.9962252223999
 31
0.0
  0
LINE
  5
268
330
1F
100
AcDbEntity
  8
LAY-1
  6
CONTINUOUS
 62
     2
100
AcDbLine
 10
384.5710141953606
 20
323.5462252223996
 30
0.0
 11
384.5710141953606
 21
324.1178918890662
 31
0.0
  0
CIRCLE
  5
269
330
1F
100
AcDbEntity
  8
LAY-1
  6
CONTINUOUS
 62
     2
100
AcDbCircle
 10
387.021014195361
 20
323.5462252223996
 30
0.0
 40
4.75
  0
LINE
  5
26A
330
1F
100
AcDbEntity
  8
LAY-1
  6
CONTINUOUS
 62
     2
100
AcDbLine
 10
440.9710141953408
 20
256.4745585556928
 30
0.0
 11
439.9093475286745
 21
256.4745585556928
 31
0.0
  0
LINE
  5
26B
330
1F
100
AcDbEntity
  8
LAY-1
  6
CONTINUOUS
 62
     2
100
AcDbLine
 10
439.0926808620077
 20
254.5962252223595
 30
0.0
 11
439.0926808620077
 21
255.6578918890261
 31
0.0
  0
ARC
  5
26C
330
1F
100
AcDbEntity
  8
LAY-1
  6
CONTINUOUS
 62
     2
100
AcDbCircle
 10
439.9093475286745
 20
255.6578918890261
 30
0.0
 40
0.816666666666712
100
AcDbArc
 50
90.00000000000001
 51
180.0000000000002
  0
LINE
  5
26D
330
1F
100
AcDbEntity
  8
LAY-1
  6
CONTINUOUS
 62
     2
100
AcDbLine
 10
438.5210141953407
 20
254.5962252223595
 30
0.0
 11
439.0926808620077
 21
254.5962252223595
 31
0.0
  0
LINE
  5
26E
330
1F
100
AcDbEntity
  8
LAY-1
  6
CONTINUOUS
 62
     2
100
AcDbLine
 10
440.9710141953408
 20
257.0462252223597
 30
0.0
 11
440.9710141953408
 21
256.4745585556928
 31
0.0
  0
LINE
  5
26F
330
1F
100
AcDbEntity
  8
LAY-1
  6
CONTINUOUS
 62
     2
100
AcDbLine
 10
440.9710141953408
 20
257.6178918890263
 30
0.0
 11
439.9093475286745
 21
257.6178918890263
 31
0.0
  0
LINE
  5
270
330
1F
100
AcDbEntity
  8
LAY-1
  6
CONTINUOUS
 62
     2
100
AcDbLine
 10
439.0926808620077
 20
259.49622522236
 30
0.0
 11
439.0926808620077
 21
258.4345585556931
 31
0.0
  0
ARC
  5
271
330
1F
100
AcDbEntity
  8
LAY-1
  6
CONTINUOUS
 62
     2
100
AcDbCircle
 10
439.9093475286745
 20
258.4345585556931
 30
0.0
 40
0.816666666666712
100
AcDbArc
 50
180.0000000000002
 51
270.0
  0
LINE
  5
272
330
1F
100
AcDbEntity
  8
LAY-1
  6
CONTINUOUS
 62
     2
100
AcDbLine
 10
438.5210141953407
 20
259.49622522236
 30
0.0
 11
439.0926808620077
 21
259.49622522236
 31
0.0
  0
LINE
  5
273
330
1F
100
AcDbEntity
  8
LAY-1
  6
CONTINUOUS
 62
     2
100
AcDbLine
 10
440.9710141953408
 20
257.0462252223597
 30
0.0
 11
440.9710141953408
 21
257.6178918890263
 31
0.0
  0
LINE
  5
274
330
1F
100
AcDbEntity
  8
LAY-1
  6
CONTINUOUS
 62
     2
100
AcDbLine
 10
436.0710141953406
 20
256.4745585556928
 30
0.0
 11
437.1326808620074
 21
256.4745585556928
 31
0.0
  0
LINE
  5
275
330
1F
100
AcDbEntity
  8
LAY-1
  6
CONTINUOUS
 62
     2
100
AcDbLine
 10
437.9493475286739
 20
254.5962252223595
 30
0.0
 11
437.9493475286739
 21
255.6578918890261
 31
0.0
  0
ARC
  5
276
330
1F
100
AcDbEntity
  8
LAY-1
  6
CONTINUOUS
 62
     2
100
AcDbCircle
 10
437.1326808620074
 20
255.6578918890261
 30
0.0
 40
0.816666666666712
100
AcDbArc
 50
0.0
 51
90.00000000000001
  0
LINE
  5
277
330
1F
100
AcDbEntity
  8
LAY-1
  6
CONTINUOUS
 62
     2
100
AcDbLine
 10
438.5210141953407
 20
254.5962252223595
 30
0.0
 11
437.9493475286739
 21
254.5962252223595
 31
0.0
  0
LINE
  5
278
330
1F
100
AcDbEntity
  8
LAY-1
  6
CONTINUOUS
 62
     2
100
AcDbLine
 10
436.0710141953406
 20
257.0462252223597
 30
0.0
 11
436.0710141953406
 21
256.4745585556928
 31
0.0
  0
LINE
  5
279
330
1F
100
AcDbEntity
  8
LAY-1
  6
CONTINUOUS
 62
     2
100
AcDbLine
 10
436.0710141953406
 20
257.6178918890263
 30
0.0
 11
437.1326808620074
 21
257.6178918890263
 31
0.0
  0
LINE
  5
27A
330
1F
100
AcDbEntity
  8
LAY-1
  6
CONTINUOUS
 62
     2
100
AcDbLine
 10
437.9493475286739
 20
259.49622522236
 30
0.0
 11
437.9493475286739
 21
258.4345585556931
 31
0.0
  0
ARC
  5
27B
330
1F
100
AcDbEntity
  8
LAY-1
  6
CONTINUOUS
 62
     2
100
AcDbCircle
 10
437.1326808620074
 20
258.4345585556931
 30
0.0
 40
0.816666666666712
100
AcDbArc
 50
270.0
 51
0.0
  0
LINE
  5
27C
330
1F
100
AcDbEntity
  8
LAY-1
  6
CONTINUOUS
 62
     2
100
AcDbLine
 10
438.5210141953407
 20
259.49622522236
 30
0.0
 11
437.9493475286739
 21
259.49622522236
 31
0.0
  0
LINE
  5
27D
330
1F
100
AcDbEntity
  8
LAY-1
  6
CONTINUOUS
 62
     2
100
AcDbLine
 10
436.0710141953406
 20
257.0462252223597
 30
0.0
 11
436.0710141953406
 21
257.6178918890263
 31
0.0
  0
CIRCLE
  5
27E
330
1F
100
AcDbEntity
  8
LAY-1
  6
CONTINUOUS
 62
     2
100
AcDbCircle
 10
438.521014195341
 20
257.0462252223597
 30
0.0
 40
4.75
  0
LINE
  5
27F
330
1F
100
AcDbEntity
  8
LAY-1
  6
CONTINUOUS
 62
     2
100
AcDbLine
 10
385.9710141953808
 20
256.4745585556928
 30
0.0
 11
384.9093475287145
 21
256.4745585556928
 31
0.0
  0
LINE
  5
280
330
1F
100
AcDbEntity
  8
LAY-1
  6
CONTINUOUS
 62
     2
100
AcDbLine
 10
384.0926808620477
 20
254.5962252223595
 30
0.0
 11
384.0926808620477
 21
255.6578918890261
 31
0.0
  0
ARC
  5
281
330
1F
100
AcDbEntity
  8
LAY-1
  6
CONTINUOUS
 62
     2
100
AcDbCircle
 10
384.9093475287145
 20
255.6578918890261
 30
0.0
 40
0.816666666666712
100
AcDbArc
 50
90.00000000000001
 51
180.0000000000002
  0
LINE
  5
282
330
1F
100
AcDbEntity
  8
LAY-1
  6
CONTINUOUS
 62
     2
100
AcDbLine
 10
383.5210141953808
 20
254.5962252223595
 30
0.0
 11
384.0926808620477
 21
254.5962252223595
 31
0.0
  0
LINE
  5
283
330
1F
100
AcDbEntity
  8
LAY-1
  6
CONTINUOUS
 62
     2
100
AcDbLine
 10
385.9710141953808
 20
257.0462252223597
 30
0.0
 11
385.9710141953808
 21
256.4745585556928
 31
0.0
  0
LINE
  5
284
330
1F
100
AcDbEntity
  8
LAY-1
  6
CONTINUOUS
 62
     2
100
AcDbLine
 10
385.9710141953808
 20
257.6178918890263
 30
0.0
 11
384.9093475287145
 21
257.6178918890263
 31
0.0
  0
LINE
  5
285
330
1F
100
AcDbEntity
  8
LAY-1
  6
CONTINUOUS
 62
     2
100
AcDbLine
 10
384.0926808620477
 20
259.49622522236
 30
0.0
 11
384.0926808620477
 21
258.4345585556931
 31
0.0
  0
ARC
  5
286
330
1F
100
AcDbEntity
  8
LAY-1
  6
CONTINUOUS
 62
     2
100
AcDbCircle
 10
384.9093475287145
 20
258.4345585556931
 30
0.0
 40
0.816666666666712
100
AcDbArc
 50
180.0000000000002
 51
270.0
  0
LINE
  5
287
330
1F
100
AcDbEntity
  8
LAY-1
  6
CONTINUOUS
 62
     2
100
AcDbLine
 10
383.5210141953808
 20
259.49622522236
 30
0.0
 11
384.0926808620477
 21
259.49622522236
 31
0.0
  0
LINE
  5
288
330
1F
100
AcDbEntity
  8
LAY-1
  6
CONTINUOUS
 62
     2
100
AcDbLine
 10
385.9710141953808
 20
257.0462252223597
 30
0.0
 11
385.9710141953808
 21
257.6178918890263
 31
0.0
  0
LINE
  5
289
330
1F
100
AcDbEntity
  8
LAY-1
  6
CONTINUOUS
 62
     2
100
AcDbLine
 10
381.0710141953806
 20
256.4745585556928
 30
0.0
 11
382.1326808620474
 21
256.4745585556928
 31
0.0
  0
LINE
  5
28A
330
1F
100
AcDbEntity
  8
LAY-1
  6
CONTINUOUS
 62
     2
100
AcDbLine
 10
382.9493475287139
 20
254.5962252223595
 30
0.0
 11
382.9493475287139
 21
255.6578918890261
 31
0.0
  0
ARC
  5
28B
330
1F
100
AcDbEntity
  8
LAY-1
  6
CONTINUOUS
 62
     2
100
AcDbCircle
 10
382.1326808620474
 20
255.6578918890261
 30
0.0
 40
0.816666666666712
100
AcDbArc
 50
0.0
 51
90.00000000000001
  0
LINE
  5
28C
330
1F
100
AcDbEntity
  8
LAY-1
  6
CONTINUOUS
 62
     2
100
AcDbLine
 10
383.5210141953808
 20
254.5962252223595
 30
0.0
 11
382.9493475287139
 21
254.5962252223595
 31
0.0
  0
LINE
  5
28D
330
1F
100
AcDbEntity
  8
LAY-1
  6
CONTINUOUS
 62
     2
100
AcDbLine
 10
381.0710141953806
 20
257.0462252223597
 30
0.0
 11
381.0710141953806
 21
256.4745585556928
 31
0.0
  0
LINE
  5
28E
330
1F
100
AcDbEntity
  8
LAY-1
  6
CONTINUOUS
 62
     2
100
AcDbLine
 10
381.0710141953806
 20
257.6178918890263
 30
0.0
 11
382.1326808620474
 21
257.6178918890263
 31
0.0
  0
LINE
  5
28F
330
1F
100
AcDbEntity
  8
LAY-1
  6
CONTINUOUS
 62
     2
100
AcDbLine
 10
382.9493475287139
 20
259.49622522236
 30
0.0
 11
382.9493475287139
 21
258.4345585556931
 31
0.0
  0
ARC
  5
290
330
1F
100
AcDbEntity
  8
LAY-1
  6
CONTINUOUS
 62
     2
100
AcDbCircle
 10
382.1326808620474
 20
258.4345585556931
 30
0.0
 40
0.816666666666712
100
AcDbArc
 50
270.0
 51
0.0
  0
LINE
  5
291
330
1F
100
AcDbEntity
  8
LAY-1
  6
CONTINUOUS
 62
     2
100
AcDbLine
 10
383.5210141953808
 20
259.49622522236
 30
0.0
 11
382.9493475287139
 21
259.49622522236
 31
0.0
  0
LINE
  5
292
330
1F
100
AcDbEntity
  8
LAY-1
  6
CONTINUOUS
 62
     2
100
AcDbLine
 10
381.0710141953806
 20
257.0462252223597
 30
0.0
 11
381.0710141953806
 21
257.6178918890263
 31
0.0
  0
CIRCLE
  5
293
330
1F
100
AcDbEntity
  8
LAY-1
  6
CONTINUOUS
 62
     2
100
AcDbCircle
 10
383.521014195381
 20
257.0462252223597
 30
0.0
 40
4.75
  0
LINE
  5
294
330
1F
100
AcDbEntity
  8
LAY-1
  6
CONTINUOUS
 62
     2
100
AcDbLine
 10
395.0210141947034
 20
328.1799559765246
 30
0.0
 11
395.0210141947034
 21
327.4973640788349
 31
0.0
  0
ARC
  5
295
330
1F
100
AcDbEntity
  8
LAY-1
  6
CONTINUOUS
 62
     2
100
AcDbCircle
 10
396.0210141947034
 20
327.497364078835
 30
0.0
 40
1.0
100
AcDbArc
 50
180.0000000000082
 51
236.9442688507276
  0
LINE
  5
296
330
1F
100
AcDbEntity
  8
LAY-1
  6
CONTINUOUS
 62
     2
100
AcDbLine
 10
427.0210141947039
 20
328.1799559765295
 30
0.0
 11
427.0210141947039
 21
327.4973640788397
 31
0.0
  0
ARC
  5
297
330
1F
100
AcDbEntity
  8
LAY-1
  6
CONTINUOUS
 62
     2
100
AcDbCircle
 10
426.0210141947039
 20
327.4973640788396
 30
0.0
 40
1.0
100
AcDbArc
 50
303.0557311492896
 51
0.000000000008136
  0
ARC
  5
298
330
1F
100
AcDbEntity
  8
LAY-1
  6
CONTINUOUS
 62
     2
100
AcDbCircle
 10
411.021014194067
 20
350.5462252224814
 30
0.0
 40
28.50000000000002
100
AcDbArc
 50
236.9442688507282
 51
303.0557311514227
  0
ARC
  5
299
330
1F
100
AcDbEntity
  8
LAY-1
  6
CONTINUOUS
 62
     2
100
AcDbCircle
 10
411.0210141953601
 20
350.5462252224
 30
0.0
 40
27.50000000000002
100
AcDbArc
 50
305.5785257307777
 51
234.4214742658592
  0
CIRCLE
  5
29A
330
1F
100
AcDbEntity
  8
LAY-1
  6
CONTINUOUS
 62
     2
100
AcDbCircle
 10
411.0210141953601
 20
350.5462252224
 30
0.0
 40
29.499999999997
  0
ARC
  5
29B
330
1F
100
AcDbEntity
  8
LAY-1
  6
CONTINUOUS
 62
     2
100
AcDbCircle
 10
411.0210141953601
 20
350.5462252224
 30
0.0
 40
27.99999999999401
100
AcDbArc
 50
304.8499045790579
 51
235.1500954209467
  0
ARC
  5
29C
330
1F
100
AcDbEntity
  8
LAY-1
  6
CONTINUOUS
 62
     2
100
AcDbCircle
 10
435.021014195381
 20
374.5462252223997
 30
0.0
 40
4.75
100
AcDbArc
 50
244.3039415848444
 51
205.6960584151047
  0
ARC
  5
29D
330
1F
100
AcDbEntity
  8
LAY-1
  6
CONTINUOUS
 62
     2
100
AcDbCircle
 10
387.021014195381
 20
374.5462252223997
 30
0.0
 40
4.75
100
AcDbArc
 50
334.3039415857821
 51
295.6960584141687
  0
ARC
  5
29E
330
1F
100
AcDbEntity
  8
LAY-1
  6
CONTINUOUS
 62
     2
100
AcDbCircle
 10
424.1612718303647
 20
323.0219880979026
 30
0.0
 40
5.0
100
AcDbArc
 50
189.3381788002543
 51
190.101039920823
  0
ARC
  5
29F
330
1F
100
AcDbEntity
  8
LAY-1
  6
CONTINUOUS
 62
     2
100
AcDbCircle
 10
397.8807565603573
 20
323.0219880979026
 30
0.0
 40
5.0
100
AcDbArc
 50
349.8989600791772
 51
350.6618211997394
  0
CIRCLE
  5
2A0
330
1F
100
AcDbEntity
  8
LAY-1
  6
CONTINUOUS
 62
     2
100
AcDbCircle
 10
411.02101419543
 20
284.54622522241
 30
0.0
 40
8.5
  0
CIRCLE
  5
2A1
330
1F
100
AcDbEntity
  8
LAY-1
  6
CONTINUOUS
 62
     2
100
AcDbCircle
 10
411.02101419543
 20
284.54622522238
 30
0.0
 40
12.49999999996999
  0
INSERT
  5
2A2
330
1F
100
AcDbEntity
  8
LAY-1
  6
CONTINUOUS
 62
     0
100
AcDbBlockReference
  2
SYM-1
 10
411.0210141955172
 20
284.5462252223792
 30
0.0
 41
0.62517973917501
 42
0.62517973917501
  0
CIRCLE
  5
2A3
330
1F
100
AcDbEntity
  8
LAY-1
  6
CONTINUOUS
 62
     2
100
AcDbCircle
 10
411.0210141953601
 20
284.54622522238
 30
0.0
 40
11.25
  0
ARC
  5
2A4
330
1F
100
AcDbEntity
  8
LAY-1
  6
CONTINUOUS
 62
     2
100
AcDbCircle
 10
428.7285155963726
 20
297.384323184189
 30
0.0
 40
5.0
100
AcDbArc
 50
190.1010399208227
 51
215.9424500370685
  0
ARC
  5
2A5
330
1F
100
AcDbEntity
  8
LAY-1
  6
CONTINUOUS
 62
     2
100
AcDbCircle
 10
409.7710141950388
 20
240.1462252219885
 30
0.0
 40
0.4
100
AcDbArc
 50
90.00000000000014
 51
180.0000000000002
  0
ARC
  5
2A6
330
1F
100
AcDbEntity
  8
LAY-1
  6
CONTINUOUS
 62
     2
100
AcDbCircle
 10
409.771014195039
 20
240.1462252219885
 30
0.0
 40
0.4
100
AcDbArc
 50
0.0
 51
90.00000000000014
  0
LINE
  5
2A7
330
1F
100
AcDbEntity
  8
LAY-1
  6
CONTINUOUS
 62
     2
100
AcDbLine
 10
409.3710141950388
 20
240.1462252219885
 30
0.0
 11
409.3710141950388
 21
234.9462252219885
 31
0.0
  0
ARC
  5
2A8
330
1F
100
AcDbEntity
  8
LAY-1
  6
CONTINUOUS
 62
     2
100
AcDbCircle
 10
409.7710141950388
 20
234.9462252219885
 30
0.0
 40
0.4
100
AcDbArc
 50
180.0000000000002
 51
270.0000000000002
  0
LINE
  5
2A9
330
1F
100
AcDbEntity
  8
LAY-1
  6
CONTINUOUS
 62
     2
100
AcDbLine
 10
410.171014195039
 20
240.1462252219885
 30
0.0
 11
410.171014195039
 21
234.9462252219885
 31
0.0
  0
ARC
  5
2AA
330
1F
100
AcDbEntity
  8
LAY-1
  6
CONTINUOUS
 62
     2
100
AcDbCircle
 10
409.771014195039
 20
234.9462252219885
 30
0.0
 40
0.4
100
AcDbArc
 50
270.0000000000002
 51
0.0
  0
ARC
  5
2AB
330
1F
100
AcDbEntity
  8
LAY-1
  6
CONTINUOUS
 62
     2
100
AcDbCircle
 10
412.2710141950391
 20
240.1462252219885
 30
0.0
 40
0.4
100
AcDbArc
 50
0.0
 51
90.00000000000014
  0
ARC
  5
2AC
330
1F
100
AcDbEntity
  8
LAY-1
  6
CONTINUOUS
 62
     2
100
AcDbCircle
 10
412.271014195039
 20
240.1462252219885
 30
0.0
 40
0.4
100
AcDbArc
 50
90.00000000000014
 51
180.0000000000002
  0
LINE
  5
2AD
330
1F
100
AcDbEntity
  8
LAY-1
  6
CONTINUOUS
 62
     2
100
AcDbLine
 10
412.6710141950391
 20
240.1462252219885
 30
0.0
 11
412.6710141950391
 21
234.9462252219885
 31
0.0
  0
ARC
  5
2AE
330
1F
100
AcDbEntity
  8
LAY-1
  6
CONTINUOUS
 62
     2
100
AcDbCircle
 10
412.2710141950391
 20
234.9462252219885
 30
0.0
 40
0.4
100
AcDbArc
 50
270.0000000000002
 51
0.0
  0
LINE
  5
2AF
330
1F
100
AcDbEntity
  8
LAY-1
  6
CONTINUOUS
 62
     2
100
AcDbLine
 10
411.871014195039
 20
240.1462252219885
 30
0.0
 11
411.871014195039
 21
234.9462252219885
 31
0.0
  0
ARC
  5
2B0
330
1F
100
AcDbEntity
  8
LAY-1
  6
CONTINUOUS
 62
     2
100
AcDbCircle
 10
412.271014195039
 20
234.9462252219885
 30
0.0
 40
0.4
100
AcDbArc
 50
180.0000000000002
 51
270.0000000000002
  0
LINE
  5
2B1
330
1F
100
AcDbEntity
  8
LAY-1
  6
CONTINUOUS
 62
     2
100
AcDbLine
 10
442.8183097907959
 20
322.526225222404
 30
0.0
 11
453.5183097907957
 21
322.526225222404
 31
0.0
  0
LINE
  5
2B2
330
1F
100
AcDbEntity
  8
LAY-1
  6
CONTINUOUS
 62
     2
100
AcDbLine
 10
442.8183097907959
 20
352.5662252223932
 30
0.0
 11
453.5183097907957
 21
352.5662252223932
 31
0.0
  0
LINE
  5
2B3
330
1F
100
AcDbEntity
  8
LAY-1
  6
CONTINUOUS
 62
     2
100
AcDbLine
 10
457.0383097907957
 20
326.0462252224039
 30
0.0
 11
457.0383097907957
 21
335.5484534770501
 31
0.0
  0
LINE
  5
2B4
330
1F
100
AcDbEntity
  8
LAY-1
  6
CONTINUOUS
 62
     2
100
AcDbLine
 10
458.3271947877884
 20
337.546225222393
 30
0.0
 11
457.0383097907957
 21
335.5484534770543
 31
0.0
  0
LINE
  5
2B5
330
1F
100
AcDbEntity
  8
LAY-1
  6
CONTINUOUS
 62
     2
100
AcDbLine
 10
458.3271947877884
 20
337.5462252223941
 30
0.0
 11
457.0383097907957
 21
339.5439969677328
 31
0.0
  0
LINE
  5
2B6
330
1F
100
AcDbEntity
  8
LAY-1
  6
CONTINUOUS
 62
     2
100
AcDbLine
 10
457.0383097907957
 20
349.0462252223932
 30
0.0
 11
457.0383097907957
 21
339.543996967737
 31
0.0
  0
ARC
  5
2B7
330
1F
100
AcDbEntity
  8
LAY-1
  6
CONTINUOUS
 62
     2
100
AcDbCircle
 10
453.5183097907957
 20
349.0462252223932
 30
0.0
 40
3.520000000000003
100
AcDbArc
 50
0.0
 51
89.99999999999991
  0
ARC
  5
2B8
330
1F
100
AcDbEntity
  8
LAY-1
  6
CONTINUOUS
 62
     2
100
AcDbCircle
 10
453.5183097907957
 20
326.046225222404
 30
0.0
 40
3.520000000000003
100
AcDbArc
 50
270.0000000000002
 51
0.0
  0
LINE
  5
2B9
330
1F
100
AcDbEntity
  8
LAY-1
  6
CONTINUOUS
 62
     2
100
AcDbLine
 10
442.8183097907959
 20
352.5662252223932
 30
0.0
 11
442.8183097907959
 21
322.526225222404
 31
0.0
  0
LINE
  5
2BA
330
1F
100
AcDbEntity
  8
LAY-1
  6
CONTINUOUS
 62
     2
100
AcDbLine
 10
441.64650256201
 20
323.9349577079436
 30
0.0
 11
442.8183097907959
 21
323.9554116792052
 31
0.0
  0
LINE
  5
2BB
330
1F
100
AcDbEntity
  8
LAY-1
  6
CONTINUOUS
 62
     2
100
AcDbLine
 10
441.0210141953301
 20
351.1684106769015
 30
0.0
 11
442.8183097907959
 21
351.1370387655872
 31
0.0
  0
LINE
  5
2BC
330
1F
100
AcDbEntity
  8
LAY-1
  6
CONTINUOUS
 62
     2
100
AcDbLine
 10
380.3955258287103
 20
323.9349577079436
 30
0.0
 11
375.00356178893
 21
324.0290747903478
 31
0.0
  0
LINE
  5
2BD
330
1F
100
AcDbEntity
  8
LAY-1
  6
CONTINUOUS
 62
     2
100
AcDbLine
 10
381.0210141953901
 20
351.1684106769015
 30
0.0
 11
375.0035617889268
 21
351.0633756544436
 31
0.0
  0
LINE
  5
2BE
330
1F
100
AcDbEntity
  8
LAY-1
  6
CONTINUOUS
 62
     2
100
AcDbLine
 10
374.0210141951202
 20
325.0289224856455
 30
0.0
 11
374.0210141951661
 21
337.5462252225394
 31
0.0
  0
ARC
  5
2BF
330
1F
100
AcDbEntity
  8
LAY-1
  6
CONTINUOUS
 62
     2
100
AcDbCircle
 10
375.0210141953672
 20
325.0289224855042
 30
0.0
 40
1.0
100
AcDbArc
 50
180.0000000000065
 51
269.0000000000049
  0
LINE
  5
2C0
330
1F
100
AcDbEntity
  8
LAY-1
  6
CONTINUOUS
 62
     2
100
AcDbLine
 10
374.0210141951202
 20
350.0635279591625
 30
0.0
 11
374.0210141951661
 21
337.5462252222685
 31
0.0
  0
ARC
  5
2C1
330
1F
100
AcDbEntity
  8
LAY-1
  6
CONTINUOUS
 62
     2
100
AcDbCircle
 10
375.0210141953643
 20
350.0635279592872
 30
0.0
 40
1.0
100
AcDbArc
 50
91.00000000000837
 51
180.0000000000065
  0
LINE
  5
2C2
330
1F
100
AcDbEntity
  8
LAY-1
  6
EXLTYPE2
 62
     1
100
AcDbLine
 10
442.8183097907959
 20
350.546225222403
 30
0.0
 11
379.2071680604801
 21
350.546225222403
 31
0.0
  0
LINE
  5
2C3
330
1F
100
AcDbEntity
  8
LAY-1
  6
EXLTYPE2
 62
     1
100
AcDbLine
 10
411.021014195361
 20
392.26513263908
 30
0.0
 11
411.021014195361
 21
183.42563386027
 31
0.0
  0
LINE
  5
2C4
330
1F
100
AcDbEntity
  8
LAY-1
  6
CONTINUOUS
 62
     2
100
AcDbLine
 10
419.5123922239832
 20
248.0836763178661
 30
0.0
 11
419.5123922239898
 21
231.1462252220856
 31
0.0
  0
LINE
  5
2C5
330
1F
100
AcDbEntity
  8
LAY-1
  6
CONTINUOUS
 62
     2
100
AcDbLine
 10
424.521014195366
 20
380.5462252224087
 30
0.0
 11
397.5210141953708
 21
380.5462252224087
 31
0.0
  0
ARC
  5
2C6
330
1F
100
AcDbEntity
  8
LAY-1
  6
CONTINUOUS
 62
     2
100
AcDbCircle
 10
411.021014195361
 20
284.5462252224
 30
0.0
 40
37.0
100
AcDbArc
 50
262.1457339163691
 51
277.8542660836438
  0
LINE
  5
2C7
330
1F
100
AcDbEntity
  8
LAY-1
  6
CONTINUOUS
 62
     2
100
AcDbLine
 10
431.5210141953694
 20
250.0237694679442
 30
0.0
 11
431.5210141953694
 21
229.546225222093
 31
0.0
  0
LINE
  5
2C8
330
1F
100
AcDbEntity
  8
LAY-1
  6
CONTINUOUS
 62
     2
100
AcDbLine
 10
390.5210141953694
 20
250.0237694680174
 30
0.0
 11
390.5210141953694
 21
229.546225222093
 31
0.0
  0
LINE
  5
2C9
330
1F
100
AcDbEntity
  8
LAY-1
  6
CONTINUOUS
 62
     2
100
AcDbLine
 10
416.077207397658
 20
247.8933275156559
 30
0.0
 11
431.5210141953694
 21
250.0237694679659
 31
0.0
  0
LINE
  5
2CA
330
1F
100
AcDbEntity
  8
LAY-1
  6
CONTINUOUS
 62
     2
100
AcDbLine
 10
390.5210141953694
 20
250.0237694679602
 30
0.0
 11
405.9648209930722
 21
247.8933275156548
 31
0.0
  0
LINE
  5
2CB
330
1F
100
AcDbEntity
  8
LAY-1
  6
CONTINUOUS
 62
     2
100
AcDbLine
 10
411.021014195361
 20
388.5462252224017
 30
0.0
 11
398.5037114584818
 21
388.5462252224017
 31
0.0
  0
LINE
  5
2CC
330
1F
100
AcDbEntity
  8
LAY-1
  6
CONTINUOUS
 62
     2
100
AcDbLine
 10
411.021014195361
 20
388.5462252224017
 30
0.0
 11
423.5383169322401
 21
388.5462252224017
 31
0.0
  0
ARC
  5
2CD
330
1F
100
AcDbEntity
  8
LAY-1
  6
CONTINUOUS
 62
     2
100
AcDbCircle
 10
420.566955741381
 20
380.2289360936565
 30
0.0
 40
8.317289128745292
100
AcDbArc
 50
61.61445246195615
 51
118.3855475380436
  0
ARC
  5
2CE
330
1F
100
AcDbEntity
  8
LAY-1
  6
CONTINUOUS
 62
     2
100
AcDbCircle
 10
411.021014195361
 20
372.4116469648798
 30
0.0
 40
16.13457825752196
100
AcDbArc
 50
69.72187308389796
 51
110.2781269161026
  0
ARC
  5
2CF
330
1F
100
AcDbEntity
  8
LAY-1
  6
CONTINUOUS
 62
     2
100
AcDbCircle
 10
401.475072649341
 20
380.2289360936563
 30
0.0
 40
8.317289128745548
100
AcDbArc
 50
61.61445246195798
 51
118.3855475380432
  0
LINE
  5
2D0
330
1F
100
AcDbEntity
  8
LAY-1
  6
CONTINUOUS
 62
     2
100
AcDbLine
 10
411.0210141953507
 20
388.5462252224023
 30
0.0
 11
398.5037114584529
 21
388.5462252224023
 31
0.0
  0
LINE
  5
2D1
330
1F
100
AcDbEntity
  8
LAY-1
  6
CONTINUOUS
 62
     2
100
AcDbLine
 10
411.0210141953507
 20
388.5462252224023
 30
0.0
 11
423.521014195351
 21
388.5462252224023
 31
0.0
  0
ARC
  5
2D2
330
1F
100
AcDbEntity
  8
LAY-1
  6
CONTINUOUS
 62
     2
100
AcDbCircle
 10
423.521014195351
 20
387.5462252224023
 30
0.0
 40
1.0
100
AcDbArc
 50
0.0
 51
90.00000000000001
  0
ARC
  5
2D3
330
1F
100
AcDbEntity
  8
LAY-1
  6
CONTINUOUS
 62
     2
100
AcDbCircle
 10
398.5210141953507
 20
387.5462252224023
 30
0.0
 40
1.0
100
AcDbArc
 50
90.00000000000001
 51
180.0000000000002
  0
ARC
  5
2D4
330
1F
100
AcDbEntity
  8
LAY-1
  6
CONTINUOUS
 62
     2
100
AcDbCircle
 10
423.521014195351
 20
387.5462252224022
 30
0.0
 40
1.0
100
AcDbArc
 50
0.0
 51
90.00000000000001
  0
ARC
  5
2D5
330
1F
100
AcDbEntity
  8
LAY-1
  6
CONTINUOUS
 62
     2
100
AcDbCircle
 10
398.5210141953507
 20
387.5462252224022
 30
0.0
 40
1.0
100
AcDbArc
 50
90.00000000000001
 51
180.0000000000002
  0
LINE
  5
2D6
330
1F
100
AcDbEntity
  8
LAY-1
  6
CONTINUOUS
 62
     2
100
AcDbLine
 10
423.5210141953501
 20
388.5462252224022
 30
0.0
 11
398.5037114584529
 21
388.5462252224022
 31
0.0
  0
LINE
  5
2D7
330
1F
100
AcDbEntity
  8
LAY-1
  6
CONTINUOUS
 62
     2
100
AcDbLine
 10
397.5210141953708
 20
387.5462252224071
 30
0.0
 11
397.5210141953708
 21
380.5462252224087
 31
0.0
  0
LINE
  5
2D8
330
1F
100
AcDbEntity
  8
LAY-1
  6
CONTINUOUS
 62
     2
100
AcDbLine
 10
397.5210141953708
 20
387.5462252224072
 30
0.0
 11
397.5210141953708
 21
380.6003188782
 31
0.0
  0
ARC
  5
2D9
330
1F
100
AcDbEntity
  8
LAY-1
  6
CONTINUOUS
 62
     2
100
AcDbCircle
 10
396.5253251810343
 20
240.61239722607
 30
0.0
 40
12.06617200397701
100
AcDbArc
 50
270.0000000000002
 51
299.84235006528
  0
ARC
  5
2DA
330
1F
100
AcDbEntity
  8
LAY-1
  6
CONTINUOUS
 62
     2
100
AcDbCircle
 10
411.0210141953582
 20
251.8785692300472
 30
0.0
 40
23.33234400795401
100
AcDbArc
 50
248.6581517152804
 51
291.3418482847205
  0
ARC
  5
2DB
330
1F
100
AcDbEntity
  8
LAY-1
  6
CONTINUOUS
 62
     2
100
AcDbCircle
 10
425.5167032096822
 20
240.61239722607
 30
0.0
 40
12.06617200397701
100
AcDbArc
 50
240.1576499347205
 51
270.0000000000002
  0
LINE
  5
2DC
330
1F
100
AcDbEntity
  8
LAY-1
  6
CONTINUOUS
 62
     2
100
AcDbLine
 10
431.0210141953301
 20
225.5462252220659
 30
0.0
 11
411.0210141953704
 21
225.5462252220659
 31
0.0
  0
LINE
  5
2DD
330
1F
100
AcDbEntity
  8
LAY-1
  6
CONTINUOUS
 62
     2
100
AcDbLine
 10
431.0210141953298
 20
225.5462252220659
 30
0.0
 11
432.0210141953598
 21
224.546225222036
 31
0.0
  0
LINE
  5
2DE
330
1F
100
AcDbEntity
  8
LAY-1
  6
CONTINUOUS
 62
     2
100
AcDbLine
 10
432.0210141953601
 20
224.546225222036
 30
0.0
 11
411.0210141953602
 21
224.546225222036
 31
0.0
  0
LINE
  5
2DF
330
1F
100
AcDbEntity
  8
LAY-1
  6
CONTINUOUS
 62
     2
100
AcDbLine
 10
391.0210141953594
 20
225.5462252220659
 30
0.0
 11
390.0210141953294
 21
224.546225222036
 31
0.0
  0
LINE
  5
2E0
330
1F
100
AcDbEntity
  8
LAY-1
  6
CONTINUOUS
 62
     2
100
AcDbLine
 10
391.0210141953587
 20
225.5462252220664
 30
0.0
 11
411.0210141953704
 21
225.5462252220659
 31
0.0
  0
LINE
  5
2E1
330
1F
100
AcDbEntity
  8
LAY-1
  6
CONTINUOUS
 62
     2
100
AcDbLine
 10
390.0210141953294
 20
224.5462252220364
 30
0.0
 11
411.0210141953602
 21
224.5462252220364
 31
0.0
  0
LINE
  5
2E2
330
1F
100
AcDbEntity
  8
LAY-1
  6
CONTINUOUS
 62
     2
100
AcDbLine
 10
390.5210141953631
 20
228.546225222093
 30
0.0
 11
431.521014195363
 21
228.546225222093
 31
0.0
  0
LINE
  5
2E3
330
1F
100
AcDbEntity
  8
LAY-1
  6
CONTINUOUS
 62
     2
100
AcDbLine
 10
431.021014195363
 20
228.546225222093
 30
0.0
 11
431.021014195353
 21
225.5462252220628
 31
0.0
  0
LINE
  5
2E4
330
1F
100
AcDbEntity
  8
LAY-1
  6
CONTINUOUS
 62
     2
100
AcDbLine
 10
391.0210141953631
 20
228.546225222093
 30
0.0
 11
391.0210141953531
 21
225.5462252220628
 31
0.0
  0
ARC
  5
2E5
330
1F
100
AcDbEntity
  8
LAY-1
  6
EXLTYPE3
 62
     1
100
AcDbCircle
 10
412.2710141959714
 20
196.7462252225215
 30
0.0
 40
0.4
100
AcDbArc
 50
270.0000000000002
 51
0.0000000000001719
  0
ARC
  5
2E6
330
1F
100
AcDbEntity
  8
LAY-1
  6
EXLTYPE3
 62
     1
100
AcDbCircle
 10
412.2710141959711
 20
196.7462252225215
 30
0.0
 40
0.4
100
AcDbArc
 50
180.0000000000002
 51
270.0000000000002
  0
LINE
  5
2E7
330
1F
100
AcDbEntity
  8
LAY-1
  6
EXLTYPE3
 62
     1
100
AcDbLine
 10
412.6710141959713
 20
196.7462252225215
 30
0.0
 11
412.6710141959713
 21
201.9462252225215
 31
0.0
  0
ARC
  5
2E8
330
1F
100
AcDbEntity
  8
LAY-1
  6
EXLTYPE3
 62
     1
100
AcDbCircle
 10
412.2710141959714
 20
201.9462252225215
 30
0.0
 40
0.4
100
AcDbArc
 50
0.0000000000001719
 51
90.00000000000014
  0
LINE
  5
2E9
330
1F
100
AcDbEntity
  8
LAY-1
  6
EXLTYPE3
 62
     1
100
AcDbLine
 10
411.8710141959712
 20
196.7462252225215
 30
0.0
 11
411.8710141959712
 21
201.9462252225215
 31
0.0
  0
ARC
  5
2EA
330
1F
100
AcDbEntity
  8
LAY-1
  6
EXLTYPE3
 62
     1
100
AcDbCircle
 10
412.2710141959711
 20
201.9462252225215
 30
0.0
 40
0.4
100
AcDbArc
 50
90.00000000000014
 51
180.0000000000002
  0
ARC
  5
2EB
330
1F
100
AcDbEntity
  8
LAY-1
  6
EXLTYPE3
 62
     1
100
AcDbCircle
 10
409.771014195971
 20
196.7462252225215
 30
0.0
 40
0.4
100
AcDbArc
 50
180.0000000000002
 51
270.0000000000002
  0
ARC
  5
2EC
330
1F
100
AcDbEntity
  8
LAY-1
  6
EXLTYPE3
 62
     1
100
AcDbCircle
 10
409.7710141959711
 20
196.7462252225215
 30
0.0
 40
0.4
100
AcDbArc
 50
270.0000000000002
 51
0.0000000000001719
  0
LINE
  5
2ED
330
1F
100
AcDbEntity
  8
LAY-1
  6
EXLTYPE3
 62
     1
100
AcDbLine
 10
409.3710141959709
 20
196.7462252225215
 30
0.0
 11
409.3710141959709
 21
201.9462252225215
 31
0.0
  0
ARC
  5
2EE
330
1F
100
AcDbEntity
  8
LAY-1
  6
EXLTYPE3
 62
     1
100
AcDbCircle
 10
409.771014195971
 20
201.9462252225215
 30
0.0
 40
0.4
100
AcDbArc
 50
90.00000000000014
 51
180.0000000000002
  0
LINE
  5
2EF
330
1F
100
AcDbEntity
  8
LAY-1
  6
EXLTYPE3
 62
     1
100
AcDbLine
 10
410.1710141959711
 20
196.7462252225215
 30
0.0
 11
410.1710141959711
 21
201.9462252225215
 31
0.0
  0
ARC
  5
2F0
330
1F
100
AcDbEntity
  8
LAY-1
  6
EXLTYPE3
 62
     1
100
AcDbCircle
 10
409.7710141959711
 20
201.9462252225215
 30
0.0
 40
0.4
100
AcDbArc
 50
0.0000000000001719
 51
90.00000000000014
  0
ARC
  5
2F1
330
1F
100
AcDbEntity
  8
LAY-1
  6
EXLTYPE3
 62
     1
100
AcDbCircle
 10
387.5210141953901
 20
206.4462252224499
 30
0.0
 40
1.0
100
AcDbArc
 50
180.0000000000002
 51
270.0000000000002
  0
LINE
  5
2F2
330
1F
100
AcDbEntity
  8
LAY-1
  6
EXLTYPE3
 62
     1
100
AcDbLine
 10
386.5210141953901
 20
206.4462252224499
 30
0.0
 11
386.5210141953901
 21
223.9462252224499
 31
0.0
  0
ARC
  5
2F3
330
1F
100
AcDbEntity
  8
LAY-1
  6
EXLTYPE3
 62
     1
100
AcDbCircle
 10
434.5210141953901
 20
206.4462252224499
 30
0.0
 40
1.0
100
AcDbArc
 50
270.0000000000002
 51
0.0
  0
LINE
  5
2F4
330
1F
100
AcDbEntity
  8
LAY-1
  6
EXLTYPE3
 62
     1
100
AcDbLine
 10
435.5210141953901
 20
206.4462252224499
 30
0.0
 11
435.5210141953901
 21
223.9462252224499
 31
0.0
  0
LINE
  5
2F5
330
1F
100
AcDbEntity
  8
LAY-1
  6
EXLTYPE3
 62
     1
100
AcDbLine
 10
435.5210141953901
 20
223.9462252224499
 30
0.0
 11
386.5210141953901
 21
223.9462252224499
 31
0.0
  0
LINE
  5
2F6
330
1F
100
AcDbEntity
  8
LAY-1
  6
EXLTYPE3
 62
     1
100
AcDbLine
 10
387.5210141953901
 20
205.4462252224499
 30
0.0
 11
434.5210141953901
 21
205.4462252224499
 31
0.0
  0
LINE
  5
2F7
330
1F
100
AcDbEntity
  8
LAY-1
  6
EXLTYPE3
 62
     1
100
AcDbLine
 10
400.8727819172519
 20
206.4462252224499
 30
0.0
 11
400.8727819172519
 21
223.9462252224499
 31
0.0
  0
LINE
  5
2F8
330
1F
100
AcDbEntity
  8
LAY-1
  6
EXLTYPE3
 62
     1
100
AcDbLine
 10
421.1692464735301
 20
206.4462252224499
 30
0.0
 11
421.1692464735301
 21
223.9462252224499
 31
0.0
  0
LINE
  5
2F9
330
1F
100
AcDbEntity
  8
LAY-1
  6
EXLTYPE3
 62
     1
100
AcDbLine
 10
417.8555379745501
 20
195.3462252224499
 30
0.0
 11
417.8555379745501
 21
205.4462252224499
 31
0.0
  0
LINE
  5
2FA
330
1F
100
AcDbEntity
  8
LAY-1
  6
EXLTYPE3
 62
     1
100
AcDbLine
 10
404.1864904162301
 20
195.3462252224499
 30
0.0
 11
404.1864904162301
 21
205.4462252224499
 31
0.0
  0
LINE
  5
2FB
330
1F
100
AcDbEntity
  8
LAY-1
  6
CONTINUOUS
 62
     2
100
AcDbLine
 10
430.5210141953899
 20
215.5462252220659
 30
0.0
 11
411.0210141954
 21
215.5462252220659
 31
0.0
  0
LINE
  5
2FC
330
1F
100
AcDbEntity
  8
LAY-1
  6
CONTINUOUS
 62
     2
100
AcDbLine
 10
432.0210141953899
 20
217.0462252220659
 30
0.0
 11
430.5210141953899
 21
215.5462252220659
 31
0.0
  0
LINE
  5
2FD
330
1F
100
AcDbEntity
  8
LAY-1
  6
CONTINUOUS
 62
     2
100
AcDbLine
 10
390.0210141953901
 20
217.0462252220649
 30
0.0
 11
391.5210141953902
 21
215.5462252220649
 31
0.0
  0
LINE
  5
2FE
330
1F
100
AcDbEntity
  8
LAY-1
  6
CONTINUOUS
 62
     2
100
AcDbLine
 10
391.5210141953892
 20
215.5462252220659
 30
0.0
 11
411.021014195401
 21
215.5462252220659
 31
0.0
  0
LINE
  5
2FF
330
1F
100
AcDbEntity
  8
LAY-1
  6
CONTINUOUS
 62
     2
100
AcDbLine
 10
390.0210141953572
 20
217.046225222093
 30
0.0
 11
432.0210141953911
 21
217.046225222093
 31
0.0
  0
LINE
  5
300
330
1F
100
AcDbEntity
  8
LAY-1
  6
CONTINUOUS
 62
     2
100
AcDbLine
 10
432.0210141953598
 20
224.5462252220399
 30
0.0
 11
432.0210141953598
 21
217.046225222093
 31
0.0
  0
LINE
  5
301
330
1F
100
AcDbEntity
  8
LAY-1
  6
CONTINUOUS
 62
     1
100
AcDbLine
 10
431.0210141953301
 20
225.546225222066
 30
0.0
 11
431.0210141953301
 21
216.0462252220061
 31
0.0
  0
LINE
  5
302
330
1F
100
AcDbEntity
  8
LAY-1
  6
CONTINUOUS
 62
     1
100
AcDbLine
 10
391.0210141953602
 20
225.546225222066
 30
0.0
 11
391.0210141953602
 21
216.0462252220949
 31
0.0
  0
LINE
  5
303
330
1F
100
AcDbEntity
  8
LAY-1
  6
CONTINUOUS
 62
     2
100
AcDbLine
 10
390.0210141953294
 20
224.546225222036
 30
0.0
 11
390.0210141953294
 21
217.046225222093
 31
0.0
  0
LINE
  5
304
330
1F
100
AcDbEntity
  8
LAY-1
  6
EXLTYPE3
 62
     1
100
AcDbLine
 10
427.5210141953901
 20
194.8462252224499
 30
0.0
 11
427.5210141953901
 21
205.4462252224499
 31
0.0
  0
ARC
  5
305
330
1F
100
AcDbEntity
  8
LAY-1
  6
EXLTYPE3
 62
     1
100
AcDbCircle
 10
427.0210141953901
 20
194.8462252224499
 30
0.0
 40
0.5
100
AcDbArc
 50
270.0
 51
0.0
  0
ARC
  5
306
330
1F
100
AcDbEntity
  8
LAY-1
  6
EXLTYPE3
 62
     1
100
AcDbCircle
 10
395.021014195392
 20
194.8462252224499
 30
0.0
 40
0.5
100
AcDbArc
 50
180.0000000000002
 51
270.0
  0
LINE
  5
307
330
1F
100
AcDbEntity
  8
LAY-1
  6
EXLTYPE3
 62
     1
100
AcDbLine
 10
395.021014195392
 20
194.3462252224499
 30
0.0
 11
427.0210141953901
 21
194.3462252224499
 31
0.0
  0
LINE
  5
308
330
1F
100
AcDbEntity
  8
LAY-1
  6
EXLTYPE3
 62
     1
100
AcDbLine
 10
394.5210141953901
 20
194.8462252224499
 30
0.0
 11
394.5210141953901
 21
205.4462252224499
 31
0.0
  0
LINE
  5
309
330
1F
100
AcDbEntity
  8
LAY-1
  6
CONTINUOUS
 62
     2
100
AcDbLine
 10
390.5210141953631
 20
228.546225222093
 30
0.0
 11
431.521014195363
 21
228.546225222093
 31
0.0
  0
LINE
  5
30A
330
1F
100
AcDbEntity
  8
LAY-1
  6
CONTINUOUS
 62
     2
100
AcDbLine
 10
431.5210141953694
 20
250.0237694679443
 30
0.0
 11
431.5210141953694
 21
228.546225222093
 31
0.0
  0
LINE
  5
30B
330
1F
100
AcDbEntity
  8
LAY-1
  6
CONTINUOUS
 62
     2
100
AcDbLine
 10
402.5296361666771
 20
247.893327515655
 30
0.0
 11
402.5296361666677
 21
230.1462252220899
 31
0.0
  0
LINE
  5
30C
330
1F
100
AcDbEntity
  8
LAY-1
  6
CONTINUOUS
 62
     2
100
AcDbLine
 10
390.5210141953694
 20
250.0237694680174
 30
0.0
 11
390.5210141953694
 21
228.5462252220899
 31
0.0
  0
LINE
  5
30D
330
1F
100
AcDbEntity
  8
LAY-1
  6
CONTINUOUS
 62
     2
100
AcDbLine
 10
424.5210141953719
 20
387.5462252224023
 30
0.0
 11
424.521014195366
 21
380.5462252224127
 31
0.0
  0
LINE
  5
30E
330
1F
100
AcDbEntity
  8
LAY-1
  6
CONTINUOUS
 62
     2
100
AcDbLine
 10
424.5210141953719
 20
387.5462252224023
 30
0.0
 11
424.521014195366
 21
380.5462252224127
 31
0.0
  0
LINE
  5
30F
330
1F
100
AcDbEntity
  8
LAY-1
  6
CONTINUOUS
 62
     2
100
AcDbLine
 10
405.429131103341
 20
387.5462252224092
 30
0.0
 11
405.429131103341
 21
380.5462252224138
 31
0.0
  0
LINE
  5
310
330
1F
100
AcDbEntity
  8
LAY-1
  6
CONTINUOUS
 62
     2
100
AcDbLine
 10
416.612897287421
 20
387.5462252224125
 30
0.0
 11
416.612897287421
 21
380.5462252224038
 31
0.0
  0
ARC
  5
311
330
1F
100
AcDbEntity
  8
LAY-1
  6
CONTINUOUS
 62
     2
100
AcDbCircle
 10
415.5210141953573
 20
318.1421031053873
 30
0.0
 40
1.5
100
AcDbArc
 50
0.0
 51
90.00000000000001
  0
LINE
  5
312
330
1F
100
AcDbEntity
  8
LAY-1
  6
CONTINUOUS
 62
     2
100
AcDbLine
 10
406.5210141953573
 20
319.6421031053873
 30
0.0
 11
415.5210141953573
 21
319.6421031053873
 31
0.0
  0
ARC
  5
313
330
1F
100
AcDbEntity
  8
LAY-1
  6
CONTINUOUS
 62
     2
100
AcDbCircle
 10
406.5210141953573
 20
318.1421031053873
 30
0.0
 40
1.5
100
AcDbArc
 50
90.00000000000001
 51
180.0
  0
LINE
  5
314
330
1F
100
AcDbEntity
  8
LAY-1
  6
CONTINUOUS
 62
     2
100
AcDbLine
 10
405.0210141953573
 20
318.1421031053873
 30
0.0
 11
405.0210141953573
 21
304.1421031053872
 31
0.0
  0
ARC
  5
315
330
1F
100
AcDbEntity
  8
LAY-1
  6
CONTINUOUS
 62
     2
100
AcDbCircle
 10
406.5210141953573
 20
304.1421031053872
 30
0.0
 40
1.5
100
AcDbArc
 50
180.0
 51
270.0
  0
LINE
  5
316
330
1F
100
AcDbEntity
  8
LAY-1
  6
CONTINUOUS
 62
     2
100
AcDbLine
 10
406.5210141953573
 20
302.6421031053872
 30
0.0
 11
415.5210141953573
 21
302.6421031053872
 31
0.0
  0
LINE
  5
317
330
1F
100
AcDbEntity
  8
LAY-1
  6
CONTINUOUS
 62
     2
100
AcDbLine
 10
417.0210141953573
 20
318.1421031053873
 30
0.0
 11
417.0210141953573
 21
304.1421031053872
 31
0.0
  0
ARC
  5
318
330
1F
100
AcDbEntity
  8
LAY-1
  6
CONTINUOUS
 62
     2
100
AcDbCircle
 10
415.5210141953573
 20
304.1421031053872
 30
0.0
 40
1.5
100
AcDbArc
 50
270.0
 51
0.0
  0
ARC
  5
319
330
1F
100
AcDbEntity
  8
LAY-1
  6
CONTINUOUS
 62
     2
100
AcDbCircle
 10
415.449483008192
 20
310.6644298023091
 30
0.0
 40
1.2866429186062
100
AcDbArc
 50
141.9696572079363
 51
210.6319814638367
  0
ARC
  5
31A
330
1F
100
AcDbEntity
  8
LAY-1
  6
CONTINUOUS
 62
     2
100
AcDbCircle
 10
413.6433408922809
 20
312.4705719182203
 30
0.0
 40
1.2866429186062
100
AcDbArc
 50
239.3680185361634
 51
308.0303427920628
  0
ARC
  5
31B
330
1F
100
AcDbEntity
  8
LAY-1
  6
CONTINUOUS
 62
     2
100
AcDbCircle
 10
415.449483008192
 20
305.4197764084652
 30
0.0
 40
1.2866429186062
100
AcDbArc
 50
149.3680185361634
 51
218.0303427920628
  0
ARC
  5
31C
330
1F
100
AcDbEntity
  8
LAY-1
  6
CONTINUOUS
 62
     2
100
AcDbCircle
 10
413.6433408922808
 20
303.613634292554
 30
0.0
 40
1.2866429186062
100
AcDbArc
 50
51.96965720793625
 51
120.6319814638367
  0
ARC
  5
31D
330
1F
100
AcDbEntity
  8
LAY-1
  6
CONTINUOUS
 62
     2
100
AcDbCircle
 10
408.3986874984339
 20
312.4705719182203
 30
0.0
 40
1.2866429186062
100
AcDbArc
 50
231.9696572079372
 51
300.6319814638367
  0
ARC
  5
31E
330
1F
100
AcDbEntity
  8
LAY-1
  6
CONTINUOUS
 62
     2
100
AcDbCircle
 10
406.5925453825226
 20
310.6644298023091
 30
0.0
 40
1.2866429186062
100
AcDbArc
 50
329.3680185361633
 51
38.03034279206388
  0
ARC
  5
31F
330
1F
100
AcDbEntity
  8
LAY-1
  6
CONTINUOUS
 62
     2
100
AcDbCircle
 10
408.3986874984339
 20
303.613634292554
 30
0.0
 40
1.2866429186062
100
AcDbArc
 50
59.36801853616332
 51
128.0303427920629
  0
ARC
  5
320
330
1F
100
AcDbEntity
  8
LAY-1
  6
CONTINUOUS
 62
     2
100
AcDbCircle
 10
406.5925453825226
 20
305.4197764084652
 30
0.0
 40
1.2866429186062
100
AcDbArc
 50
321.9696572079372
 51
30.63198146383666
  0
ARC
  5
321
330
1F
100
AcDbEntity
  8
LAY-1
  6
CONTINUOUS
 62
     2
100
AcDbCircle
 10
411.0210141953573
 20
308.0421031053873
 30
0.0
 40
3.859999999999985
100
AcDbArc
 50
59.36801853613656
 51
120.6319814638621
  0
ARC
  5
322
330
1F
100
AcDbEntity
  8
LAY-1
  6
CONTINUOUS
 62
     2
100
AcDbCircle
 10
411.0210141953573
 20
308.0421031053873
 30
0.0
 40
3.859999999999985
100
AcDbArc
 50
149.3680185361371
 51
210.6319814638402
  0
ARC
  5
323
330
1F
100
AcDbEntity
  8
LAY-1
  6
CONTINUOUS
 62
     2
100
AcDbCircle
 10
411.0210141953573
 20
308.0421031053873
 30
0.0
 40
3.859999999999985
100
AcDbArc
 50
239.3680185361376
 51
300.6319814638626
  0
ARC
  5
324
330
1F
100
AcDbEntity
  8
LAY-1
  6
CONTINUOUS
 62
     2
100
AcDbCircle
 10
411.0210141953573
 20
308.0421031053873
 30
0.0
 40
3.859999999999985
100
AcDbArc
 50
329.3680185361375
 51
30.631981463837
  0
LINE
  5
325
330
1F
100
AcDbEntity
  8
LAY-1
  6
CONTINUOUS
 62
     2
100
AcDbLine
 10
411.6210141953572
 20
309.0421031053872
 30
0.0
 11
410.4810141953573
 21
309.0421031053872
 31
0.0
  0
ARC
  5
326
330
1F
100
AcDbEntity
  8
LAY-1
  6
CONTINUOUS
 62
     2
100
AcDbCircle
 10
413.4377112821007
 20
309.2683474492787
 30
0.0
 40
0.5
100
AcDbArc
 50
257.0745345737909
 51
26.90346803614047
  0
ARC
  5
327
330
1F
100
AcDbEntity
  8
LAY-1
  6
CONTINUOUS
 62
     2
100
AcDbCircle
 10
408.6043171086139
 20
309.2683474492787
 30
0.0
 40
0.5
100
AcDbArc
 50
153.0965319638582
 51
282.925465426213
  0
ARC
  5
328
330
1F
100
AcDbEntity
  8
LAY-1
  6
CONTINUOUS
 62
     2
100
AcDbCircle
 10
413.4377112821007
 20
306.8158587614957
 30
0.0
 40
0.5
100
AcDbArc
 50
333.0965319638596
 51
102.925465426209
  0
ARC
  5
329
330
1F
100
AcDbEntity
  8
LAY-1
  6
CONTINUOUS
 62
     2
100
AcDbCircle
 10
408.6043171086139
 20
306.8158587614957
 30
0.0
 40
0.5
100
AcDbArc
 50
77.07453457378703
 51
206.903468036142
  0
ARC
  5
32A
330
1F
100
AcDbEntity
  8
LAY-1
  6
CONTINUOUS
 62
     2
100
AcDbCircle
 10
411.0210141953573
 20
317.3462031053861
 30
0.0
 40
10.30409999999907
100
AcDbArc
 50
257.0745345737907
 51
282.9254654262103
  0
ARC
  5
32B
330
1F
100
AcDbEntity
  8
LAY-1
  6
CONTINUOUS
 62
     2
100
AcDbCircle
 10
411.0210141953573
 20
298.7380031053882
 30
0.0
 40
10.30409999999907
100
AcDbArc
 50
77.07453457379006
 51
102.9254654262093
  0
ARC
  5
32C
330
1F
100
AcDbEntity
  8
LAY-1
  6
CONTINUOUS
 62
     2
100
AcDbCircle
 10
411.0210141953573
 20
308.0421031053873
 30
0.0
 40
3.209999999999982
100
AcDbArc
 50
206.9034680361409
 51
333.0965319638559
  0
ARC
  5
32D
330
1F
100
AcDbEntity
  8
LAY-1
  6
CONTINUOUS
 62
     2
100
AcDbCircle
 10
411.0210141953573
 20
308.0421031053873
 30
0.0
 40
3.209999999999982
100
AcDbArc
 50
26.90346803614018
 51
153.0965319638587
  0
CIRCLE
  5
32E
330
1F
100
AcDbEntity
  8
LAY-1
  6
CONTINUOUS
 62
     2
100
AcDbCircle
 10
407.9454409509412
 20
315.6498074409233
 30
0.0
 40
1.975854245636575
  0
CIRCLE
  5
32F
330
1F
100
AcDbEntity
  8
LAY-1
  6
CONTINUOUS
 62
     2
100
AcDbCircle
 10
413.7008939301613
 20
315.6498074409233
 30
0.0
 40
1.975854245636575
  0
CIRCLE
  5
330
330
1F
100
AcDbEntity
  8
LAY-1
  6
CONTINUOUS
 62
     2
100
AcDbCircle
 10
411.1410174884172
 20
257.0501525182812
 30
0.0
 40
7.500000000000004
  0
LINE
  5
331
330
1F
100
AcDbEntity
  8
LAY-1
  6
CONTINUOUS
 62
     2
100
AcDbLine
 10
405.87647727593
 20
417.707176063279
 30
0.0
 11
405.87647727593
 21
412.707176063279
 31
0.0
  0
LINE
  5
332
330
1F
100
AcDbEntity
  8
LAY-1
  6
CONTINUOUS
 62
     2
100
AcDbLine
 10
405.87647727593
 20
412.707176063279
 30
0.0
 11
400.87647727593
 21
412.707176063279
 31
0.0
  0
LINE
  5
333
330
1F
100
AcDbEntity
  8
LAY-1
  6
CONTINUOUS
 62
     2
100
AcDbLine
 10
400.87647727593
 20
412.707176063279
 30
0.0
 11
411.0467308136654
 21
402.7248647425238
 31
0.0
  0
LINE
  5
334
330
1F
100
AcDbEntity
  8
LAY-1
  6
CONTINUOUS
 62
     2
100
AcDbLine
 10
411.0467308136654
 20
402.7248647425238
 30
0.0
 11
421.0290421344203
 21
412.707176063279
 31
0.0
  0
LINE
  5
335
330
1F
100
AcDbEntity
  8
LAY-1
  6
CONTINUOUS
 62
     2
100
AcDbLine
 10
421.0290421344203
 20
412.707176063279
 30
0.0
 11
415.87647727593
 21
412.707176063279
 31
0.0
  0
LINE
  5
336
330
1F
100
AcDbEntity
  8
LAY-1
  6
CONTINUOUS
 62
     2
100
AcDbLine
 10
415.87647727593
 20
412.707176063279
 30
0.0
 11
415.87647727593
 21
417.5369225255436
 31
0.0
  0
LINE
  5
337
330
1F
100
AcDbEntity
  8
LAY-1
  6
CONTINUOUS
 62
     2
100
AcDbLine
 10
415.87647727593
 20
417.5369225255436
 30
0.0
 11
405.87647727593
 21
417.5369225255436
 31
0.0
  0
LINE
  5
338
330
1F
100
AcDbEntity
  8
LAY-1
  6
EXLTYPE2
 62
     1
100
AcDbLine
 10
411.021014195358
 20
164.1378537919399
 30
0.0
 11
411.021014195358
 21
63.03785379193999
 31
0.0
  0
LINE
  5
339
330
1F
100
AcDbEntity
  8
LAY-1
  6
CONTINUOUS
 62
     2
100
AcDbLine
 10
374.0210141953389
 20
124.2000000000757
 30
0.0
 11
374.0210141953389
 21
121.7000000000757
 31
0.0
  0
LINE
  5
33A
330
1F
100
AcDbEntity
  8
LAY-1
  6
CONTINUOUS
 62
     2
100
AcDbLine
 10
448.021014195338
 20
124.2000000000757
 30
0.0
 11
448.021014195338
 21
121.7000000000757
 31
0.0
  0
ARC
  5
33B
330
1F
100
AcDbEntity
  8
LAY-1
  6
CONTINUOUS
 62
     2
100
AcDbCircle
 10
447.521014195338
 20
126.2000000000757
 30
0.0
 40
0.5
100
AcDbArc
 50
0.0
 51
90.00000000000001
  0
ARC
  5
33C
330
1F
100
AcDbEntity
  8
LAY-1
  6
CONTINUOUS
 62
     2
100
AcDbCircle
 10
374.5210141953389
 20
126.2000000000757
 30
0.0
 40
0.5
100
AcDbArc
 50
90.00000000000001
 51
180.0
  0
LINE
  5
33D
330
1F
100
AcDbEntity
  8
LAY-1
  6
CONTINUOUS
 62
     2
100
AcDbLine
 10
374.0210141953389
 20
126.2000000000757
 30
0.0
 11
374.0210141953389
 21
123.7000000000757
 31
0.0
  0
LINE
  5
33E
330
1F
100
AcDbEntity
  8
LAY-1
  6
CONTINUOUS
 62
     2
100
AcDbLine
 10
448.021014195338
 20
126.2000000000757
 30
0.0
 11
448.021014195338
 21
123.7000000000757
 31
0.0
  0
ARC
  5
33F
330
1F
100
AcDbEntity
  8
LAY-1
  6
CONTINUOUS
 62
     2
100
AcDbCircle
 10
445.521014195358
 20
128.2000000000757
 30
0.0
 40
1.5
100
AcDbArc
 50
195.8266201318723
 51
270.0000000000002
  0
ARC
  5
340
330
1F
100
AcDbEntity
  8
LAY-1
  6
CONTINUOUS
 62
     2
100
AcDbCircle
 10
440.229511573229
 20
126.7000000000757
 30
0.0
 40
4.0
100
AcDbArc
 50
15.82662013187283
 51
90.00000000000001
  0
ARC
  5
341
330
1F
100
AcDbEntity
  8
LAY-1
  6
CONTINUOUS
 62
     2
100
AcDbCircle
 10
376.521014195358
 20
128.2000000000757
 30
0.0
 40
1.5
100
AcDbArc
 50
270.0000000000002
 51
344.1733798681304
  0
ARC
  5
342
330
1F
100
AcDbEntity
  8
LAY-1
  6
CONTINUOUS
 62
     2
100
AcDbCircle
 10
381.812516817487
 20
126.7000000000757
 30
0.0
 40
4.0
100
AcDbArc
 50
90.00000000000001
 51
164.1733798681272
  0
ARC
  5
343
330
1F
100
AcDbEntity
  8
LAY-1
  6
CONTINUOUS
 62
     2
100
AcDbCircle
 10
427.2320176584876
 20
127.7000000000757
 30
0.0
 40
1.0
100
AcDbArc
 50
182.9999999999991
 51
270.0000000000002
  0
LINE
  5
344
330
1F
100
AcDbEntity
  8
LAY-1
  6
CONTINUOUS
 62
     2
100
AcDbLine
 10
374.5210141953389
 20
126.7000000000757
 30
0.0
 11
394.8100107322284
 21
126.7000000000757
 31
0.0
  0
ARC
  5
345
330
1F
100
AcDbEntity
  8
LAY-1
  6
CONTINUOUS
 62
     2
100
AcDbCircle
 10
394.8100107322284
 20
127.7000000000757
 30
0.0
 40
1.0
100
AcDbArc
 50
270.0000000000002
 51
357.0000000000011
  0
ARC
  5
346
330
1F
100
AcDbEntity
  8
LAY-1
  6
CONTINUOUS
 62
     2
100
AcDbCircle
 10
430.736202853745
 20
132.7000000000757
 30
0.0
 40
2.0
100
AcDbArc
 50
184.9999999999997
 51
270.0000000000002
  0
LINE
  5
347
330
1F
100
AcDbEntity
  8
LAY-1
  6
CONTINUOUS
 62
     2
100
AcDbLine
 10
427.741045441152
 20
143.9873793896799
 30
0.0
 11
428.7438134575618
 21
132.5256885145804
 31
0.0
  0
LINE
  5
348
330
1F
100
AcDbEntity
  8
LAY-1
  6
CONTINUOUS
 62
     2
100
AcDbLine
 10
394.3009829495641
 20
143.9873793896799
 30
0.0
 11
393.2982149331542
 21
132.5256885145804
 31
0.0
  0
ARC
  5
349
330
1F
100
AcDbEntity
  8
LAY-1
  6
CONTINUOUS
 62
     2
100
AcDbCircle
 10
391.305825536971
 20
132.7000000000757
 30
0.0
 40
2.0
100
AcDbArc
 50
270.0000000000002
 51
355.0000000000007
  0
ARC
  5
34A
330
1F
100
AcDbEntity
  8
LAY-1
  6
CONTINUOUS
 62
     2
100
AcDbCircle
 10
423.1068006329842
 20
148.2000000000762
 30
0.0
 40
1.0
100
AcDbArc
 50
44.99999999999964
 51
90.00000000000001
  0
LINE
  5
34B
330
1F
100
AcDbEntity
  8
LAY-1
  6
CONTINUOUS
 62
     2
100
AcDbLine
 10
423.8139074141709
 20
148.9071067812624
 30
0.0
 11
426.8737816904363
 21
145.847232504997
 31
0.0
  0
ARC
  5
34C
330
1F
100
AcDbEntity
  8
LAY-1
  6
CONTINUOUS
 62
     2
100
AcDbCircle
 10
424.7524613468768
 20
143.725912161437
 30
0.0
 40
3.000000000000002
100
AcDbArc
 50
4.999999999999571
 51
45.00000000000027
  0
ARC
  5
34D
330
1F
100
AcDbEntity
  8
LAY-1
  6
CONTINUOUS
 62
     2
100
AcDbCircle
 10
398.9352277577318
 20
148.2000000000762
 30
0.0
 40
1.0
100
AcDbArc
 50
90.00000000000001
 51
135.0000000000005
  0
LINE
  5
34E
330
1F
100
AcDbEntity
  8
LAY-1
  6
CONTINUOUS
 62
     2
100
AcDbLine
 10
398.2281209765456
 20
148.9071067812624
 30
0.0
 11
395.1682467002797
 21
145.847232504997
 31
0.0
  0
ARC
  5
34F
330
1F
100
AcDbEntity
  8
LAY-1
  6
CONTINUOUS
 62
     2
100
AcDbCircle
 10
397.2895670438393
 20
143.725912161437
 30
0.0
 40
3.000000000000002
100
AcDbArc
 50
135.0000000000004
 51
175.0000000000003
  0
LINE
  5
350
330
1F
100
AcDbEntity
  8
LAY-1
  6
CONTINUOUS
 62
     2
100
AcDbLine
 10
398.9352277577318
 20
149.2000000000762
 30
0.0
 11
423.1068006329842
 21
149.2000000000762
 31
0.0
  0
LINE
  5
351
330
1F
100
AcDbEntity
  8
LAY-1
  6
CONTINUOUS
 62
     2
100
AcDbLine
 10
426.2333881237332
 20
127.6476640438331
 30
0.0
 11
426.0941402417957
 21
130.3046719125618
 31
0.0
  0
LINE
  5
352
330
1F
100
AcDbEntity
  8
LAY-1
  6
CONTINUOUS
 62
     2
100
AcDbLine
 10
440.229511573229
 20
130.7000000000757
 30
0.0
 11
426.0941402418002
 21
130.7000000000757
 31
0.0
  0
LINE
  5
353
330
1F
100
AcDbEntity
  8
LAY-1
  6
CONTINUOUS
 62
     2
100
AcDbLine
 10
395.8086402669828
 20
127.6476640438331
 30
0.0
 11
395.9478881489204
 21
130.3046719125618
 31
0.0
  0
ARC
  5
354
330
1F
100
AcDbEntity
  8
LAY-1
  6
CONTINUOUS
 62
     2
100
AcDbCircle
 10
424.0968811722864
 20
130.2000000000757
 30
0.0
 40
2.0
100
AcDbArc
 50
2.999999999998689
 51
90.00000000000001
  0
LINE
  5
355
330
1F
100
AcDbEntity
  8
LAY-1
  6
CONTINUOUS
 62
     2
100
AcDbLine
 10
397.9451472184296
 20
132.2000000000757
 30
0.0
 11
424.0968811722864
 21
132.2000000000757
 31
0.0
  0
ARC
  5
356
330
1F
100
AcDbEntity
  8
LAY-1
  6
CONTINUOUS
 62
     2
100
AcDbCircle
 10
397.9451472184296
 20
130.2000000000757
 30
0.0
 40
2.0
100
AcDbArc
 50
90.00000000000001
 51
176.9999999999997
  0
LINE
  5
357
330
1F
100
AcDbEntity
  8
LAY-1
  6
CONTINUOUS
 62
     2
100
AcDbLine
 10
427.2320176584876
 20
126.7000000000757
 30
0.0
 11
447.521014195338
 21
126.7000000000757
 31
0.0
  0
ARC
  5
358
330
1F
100
AcDbEntity
  8
LAY-1
  6
CONTINUOUS
 62
     2
100
AcDbCircle
 10
437.0489742629238
 20
155.2000000000384
 30
0.0
 40
1.0
100
AcDbArc
 50
2.000000000000425
 51
90.00000000000001
  0
LINE
  5
359
330
1F
100
AcDbEntity
  8
LAY-1
  6
CONTINUOUS
 62
     2
100
AcDbLine
 10
384.9930541278022
 20
156.2000000000384
 30
0.0
 11
437.0489742629238
 21
156.2000000000384
 31
0.0
  0
LINE
  5
35A
330
1F
100
AcDbEntity
  8
LAY-1
  6
CONTINUOUS
 62
     2
100
AcDbLine
 10
381.521014195363
 20
141.7000000000384
 30
0.0
 11
381.521014195363
 21
137.7000000000384
 31
0.0
  0
ARC
  5
35B
330
1F
100
AcDbEntity
  8
LAY-1
  6
CONTINUOUS
 62
     2
100
AcDbCircle
 10
384.9930541278022
 20
155.2000000000384
 30
0.0
 40
1.0
100
AcDbArc
 50
90.00000000000001
 51
177.9999999999997
  0
LINE
  5
35C
330
1F
100
AcDbEntity
  8
LAY-1
  6
CONTINUOUS
 62
     2
100
AcDbLine
 10
383.0210141953658
 20
143.2000000000384
 30
0.0
 11
383.5733953496024
 21
143.2000000000384
 31
0.0
  0
LINE
  5
35D
330
1F
100
AcDbEntity
  8
LAY-1
  6
CONTINUOUS
 62
     2
100
AcDbLine
 10
383.5733953496024
 20
143.2000000000393
 30
0.0
 11
383.9936633007833
 21
155.2348994967405
 31
0.0
  0
LINE
  5
35E
330
1F
100
AcDbEntity
  8
LAY-1
  6
CONTINUOUS
 62
     2
100
AcDbLine
 10
440.521014195363
 20
141.7000000000384
 30
0.0
 11
440.521014195363
 21
137.7000000000384
 31
0.0
  0
LINE
  5
35F
330
1F
100
AcDbEntity
  8
LAY-1
  6
CONTINUOUS
 62
     2
100
AcDbLine
 10
438.4686330411237
 20
143.2000000000398
 30
0.0
 11
438.0483650899428
 21
155.2348994967405
 31
0.0
  0
LINE
  5
360
330
1F
100
AcDbEntity
  8
LAY-1
  6
CONTINUOUS
 62
     2
100
AcDbLine
 10
383.0210141953639
 20
143.2000000000371
 30
0.0
 11
381.5210141953658
 21
141.7000000000384
 31
0.0
  0
LINE
  5
361
330
1F
100
AcDbEntity
  8
LAY-1
  6
CONTINUOUS
 62
     2
100
AcDbLine
 10
440.521014195363
 20
141.7000000000361
 30
0.0
 11
439.0210141953598
 21
143.2000000000393
 31
0.0
  0
ARC
  5
362
330
1F
100
AcDbEntity
  8
LAY-1
  6
CONTINUOUS
 62
     2
100
AcDbCircle
 10
425.6013554171636
 20
155.2000000000384
 30
0.0
 40
1.0
100
AcDbArc
 50
2.000000000000425
 51
90.00000000000001
  0
ARC
  5
363
330
1F
100
AcDbEntity
  8
LAY-1
  6
CONTINUOUS
 62
     2
100
AcDbCircle
 10
396.4406729735624
 20
155.2000000000384
 30
0.0
 40
1.0
100
AcDbArc
 50
90.00000000000001
 51
177.9999999999997
  0
LINE
  5
364
330
1F
100
AcDbEntity
  8
LAY-1
  6
CONTINUOUS
 62
     2
100
AcDbLine
 10
437.0138894844463
 20
130.7000000000757
 30
0.0
 11
436.7694440980054
 21
137.7000000000384
 31
0.0
  0
LINE
  5
365
330
1F
100
AcDbEntity
  8
LAY-1
  6
CONTINUOUS
 62
     2
100
AcDbLine
 10
426.9306099318474
 20
145.7888393879397
 30
0.0
 11
426.600746244183
 21
155.2348994967405
 31
0.0
  0
LINE
  5
366
330
1F
100
AcDbEntity
  8
LAY-1
  6
CONTINUOUS
 62
     2
100
AcDbLine
 10
395.1114184588787
 20
145.7888393879397
 30
0.0
 11
395.4412821465435
 21
155.2348994967405
 31
0.0
  0
LINE
  5
367
330
1F
100
AcDbEntity
  8
LAY-1
  6
CONTINUOUS
 62
     2
100
AcDbLine
 10
394.2320961790765
 20
143.2000000000384
 30
0.0
 11
383.0210141953658
 21
143.2000000000384
 31
0.0
  0
LINE
  5
368
330
1F
100
AcDbEntity
  8
LAY-1
  6
CONTINUOUS
 62
     2
100
AcDbLine
 10
439.0210141953603
 20
143.2000000000384
 30
0.0
 11
427.8099322116395
 21
143.2000000000384
 31
0.0
  0
LINE
  5
369
330
1F
100
AcDbEntity
  8
LAY-1
  6
CONTINUOUS
 62
     2
100
AcDbLine
 10
385.0281389062798
 20
130.7000000000757
 30
0.0
 11
385.2725842927207
 21
137.7000000000384
 31
0.0
  0
LINE
  5
36A
330
1F
100
AcDbEntity
  8
LAY-1
  6
CONTINUOUS
 62
     2
100
AcDbLine
 10
381.521014195363
 20
137.7000000000384
 30
0.0
 11
393.7509085296838
 21
137.7000000000384
 31
0.0
  0
LINE
  5
36B
330
1F
100
AcDbEntity
  8
LAY-1
  6
CONTINUOUS
 62
     2
100
AcDbLine
 10
440.5210141953598
 20
141.7000000000393
 30
0.0
 11
427.9411652069284
 21
141.7000000000393
 31
0.0
  0
LINE
  5
36C
330
1F
100
AcDbEntity
  8
LAY-1
  6
CONTINUOUS
 62
     2
100
AcDbLine
 10
440.521014195363
 20
137.7000000000384
 30
0.0
 11
428.2911198610323
 21
137.7000000000384
 31
0.0
  0
LINE
  5
36D
330
1F
100
AcDbEntity
  8
LAY-1
  6
CONTINUOUS
 62
     2
100
AcDbLine
 10
394.1008631837876
 20
141.7000000000393
 30
0.0
 11
381.5210141953598
 21
141.7000000000393
 31
0.0
  0
LINE
  5
36E
330
1F
100
AcDbEntity
  8
LAY-1
  6
CONTINUOUS
 62
     2
100
AcDbLine
 10
396.1998650561595
 20
145.0751350426098
 30
0.0
 11
426.6898650561598
 21
145.0751350426094
 31
0.0
  0
LINE
  5
36F
330
1F
100
AcDbEntity
  8
LAY-1
  6
CONTINUOUS
 62
     2
100
AcDbLine
 10
448.0210141953803
 20
121.6999999999998
 30
0.0
 11
374.0210141953398
 21
121.6999999999998
 31
0.0
  0
LINE
  5
370
330
1F
100
AcDbEntity
  8
LAY-1
  6
CONTINUOUS
 62
     2
100
AcDbLine
 10
443.2710141953398
 20
128.0291651246384
 30
0.0
 11
443.2710141953398
 21
126.7000000000398
 31
0.0
  0
ARC
  5
371
330
1F
100
AcDbEntity
  8
LAY-1
  6
CONTINUOUS
 62
     2
100
AcDbCircle
 10
438.5210141953398
 20
122.4000000000396
 30
0.0
 40
8.0
100
AcDbArc
 50
60.00000000000025
 51
90.00000000000001
  0
ARC
  5
372
330
1F
100
AcDbEntity
  8
LAY-1
  6
CONTINUOUS
 62
     2
100
AcDbCircle
 10
441.7710141953398
 20
128.0291651246384
 30
0.0
 40
1.5
100
AcDbArc
 50
0.0
 51
60.00000000000001
  0
LINE
  5
373
330
1F
100
AcDbEntity
  8
LAY-1
  6
CONTINUOUS
 62
     2
100
AcDbLine
 10
433.7710141953398
 20
128.0291651246388
 30
0.0
 11
433.7710141953398
 21
126.7000000000398
 31
0.0
  0
ARC
  5
374
330
1F
100
AcDbEntity
  8
LAY-1
  6
CONTINUOUS
 62
     2
100
AcDbCircle
 10
438.5210141953398
 20
122.4000000000396
 30
0.0
 40
8.0
100
AcDbArc
 50
90.00000000000001
 51
120.0
  0
ARC
  5
375
330
1F
100
AcDbEntity
  8
LAY-1
  6
CONTINUOUS
 62
     2
100
AcDbCircle
 10
435.2710141953398
 20
128.0291651246388
 30
0.0
 40
1.5
100
AcDbArc
 50
120.0
 51
180.0
  0
LINE
  5
376
330
1F
100
AcDbEntity
  8
LAY-1
  6
CONTINUOUS
 62
     2
100
AcDbLine
 10
388.2710141953698
 20
128.0291651246384
 30
0.0
 11
388.2710141953698
 21
126.7000000000398
 31
0.0
  0
ARC
  5
377
330
1F
100
AcDbEntity
  8
LAY-1
  6
CONTINUOUS
 62
     2
100
AcDbCircle
 10
383.5210141953698
 20
122.4000000000396
 30
0.0
 40
8.0
100
AcDbArc
 50
60.00000000000025
 51
90.00000000000001
  0
ARC
  5
378
330
1F
100
AcDbEntity
  8
LAY-1
  6
CONTINUOUS
 62
     2
100
AcDbCircle
 10
386.7710141953698
 20
128.0291651246384
 30
0.0
 40
1.5
100
AcDbArc
 50
0.0
 51
60.00000000000001
  0
LINE
  5
379
330
1F
100
AcDbEntity
  8
LAY-1
  6
CONTINUOUS
 62
     2
100
AcDbLine
 10
378.7710141953698
 20
128.0291651246388
 30
0.0
 11
378.7710141953698
 21
126.7000000000398
 31
0.0
  0
ARC
  5
37A
330
1F
100
AcDbEntity
  8
LAY-1
  6
CONTINUOUS
 62
     2
100
AcDbCircle
 10
383.5210141953698
 20
122.4000000000396
 30
0.0
 40
8.0
100
AcDbArc
 50
90.00000000000001
 51
120.0
  0
ARC
  5
37B
330
1F
100
AcDbEntity
  8
LAY-1
  6
CONTINUOUS
 62
     2
100
AcDbCircle
 10
380.2710141953698
 20
128.0291651246388
 30
0.0
 40
1.5
100
AcDbArc
 50
120.0
 51
180.0
  0
LINE
  5
37C
330
1F
100
AcDbEntity
  8
LAY-1
  6
CONTINUOUS
 62
     2
100
AcDbLine
 10
381.812516817487
 20
130.7000000000757
 30
0.0
 11
395.9478881489208
 21
130.7000000000757
 31
0.0
  0
LINE
  5
37D
330
1F
100
AcDbEntity
  8
LAY-1
  6
CONTINUOUS
 62
     2
100
AcDbLine
 10
411.0210141953601
 20
121.6999999999997
 30
0.0
 11
448.0210141953801
 21
121.6999999999997
 31
0.0
  0
LINE
  5
37E
330
1F
100
AcDbEntity
  8
LAY-1
  6
CONTINUOUS
 62
     2
100
AcDbLine
 10
411.0210141953601
 20
121.6999999999997
 30
0.0
 11
374.0210141953401
 21
121.6999999999997
 31
0.0
  0
ARC
  5
37F
330
1F
100
AcDbEntity
  8
LAY-1
  6
CONTINUOUS
 62
     2
100
AcDbCircle
 10
415.0210141953601
 20
71.69999999999976
 30
0.0
 40
1.0
100
AcDbArc
 50
270.0000000000002
 51
0.0
  0
LINE
  5
380
330
1F
100
AcDbEntity
  8
LAY-1
  6
CONTINUOUS
 62
     2
100
AcDbLine
 10
411.0210141953601
 20
70.69999999999976
 30
0.0
 11
419.0210141953601
 21
70.69999999999976
 31
0.0
  0
ARC
  5
381
330
1F
100
AcDbEntity
  8
LAY-1
  6
CONTINUOUS
 62
     2
100
AcDbCircle
 10
419.0210141953601
 20
71.69999999999976
 30
0.0
 40
1.0
100
AcDbArc
 50
270.0000000000002
 51
0.0
  0
ARC
  5
382
330
1F
100
AcDbEntity
  8
LAY-1
  6
CONTINUOUS
 62
     2
100
AcDbCircle
 10
407.0210141953601
 20
71.69999999999976
 30
0.0
 40
1.0
100
AcDbArc
 50
180.0
 51
270.0000000000002
  0
LINE
  5
383
330
1F
100
AcDbEntity
  8
LAY-1
  6
CONTINUOUS
 62
     2
100
AcDbLine
 10
411.0210141953601
 20
70.69999999999976
 30
0.0
 11
403.02101419536
 21
70.69999999999976
 31
0.0
  0
ARC
  5
384
330
1F
100
AcDbEntity
  8
LAY-1
  6
CONTINUOUS
 62
     2
100
AcDbCircle
 10
403.02101419536
 20
71.69999999999976
 30
0.0
 40
1.0
100
AcDbArc
 50
180.0
 51
270.0000000000002
  0
LINE
  5
385
330
1F
100
AcDbEntity
  8
LAY-1
  6
CONTINUOUS
 62
     2
100
AcDbLine
 10
434.3384863988639
 20
109.8921033043101
 30
0.0
 11
440.0022850585968
 21
110.0898875117543
 31
0.0
  0
ARC
  5
386
330
1F
100
AcDbEntity
  8
LAY-1
  6
CONTINUOUS
 62
     2
100
AcDbCircle
 10
434.4082853922689
 20
107.893321650272
 30
0.0
 40
2.0
100
AcDbArc
 50
92.0000000000004
 51
177.9999999999997
  0
LINE
  5
387
330
1F
100
AcDbEntity
  8
LAY-1
  6
CONTINUOUS
 62
     2
100
AcDbLine
 10
387.7035419918561
 20
109.8921033043101
 30
0.0
 11
382.0397433321232
 21
110.0898875117543
 31
0.0
  0
ARC
  5
388
330
1F
100
AcDbEntity
  8
LAY-1
  6
CONTINUOUS
 62
     2
100
AcDbCircle
 10
387.6337429984511
 20
107.893321650272
 30
0.0
 40
2.0
100
AcDbArc
 50
2.000000000000367
 51
87.9999999999996
  0
LINE
  5
389
330
1F
100
AcDbEntity
  8
LAY-1
  6
CONTINUOUS
 62
     2
100
AcDbLine
 10
432.5980898547938
 20
113.3635204432133
 30
0.0
 11
432.1829898386366
 21
101.4766112427994
 31
0.0
  0
LINE
  5
38A
330
1F
100
AcDbEntity
  8
LAY-1
  6
CONTINUOUS
 62
     2
100
AcDbLine
 10
389.4439385359262
 20
113.3635204432133
 30
0.0
 11
389.8590385520835
 21
101.4766112427994
 31
0.0
  0
ARC
  5
38B
330
1F
100
AcDbEntity
  8
LAY-1
  6
CONTINUOUS
 62
     2
100
AcDbCircle
 10
439.8103378267332
 20
115.5865370603594
 30
0.0
 40
5.5
100
AcDbArc
 50
272.0000000000002
 51
328.9363261201871
  0
ARC
  5
38C
330
1F
100
AcDbEntity
  8
LAY-1
  6
CONTINUOUS
 62
     2
100
AcDbCircle
 10
382.2316905639868
 20
115.5865370603594
 30
0.0
 40
5.5
100
AcDbArc
 50
211.0636738798212
 51
268.0000000000001
  0
LINE
  5
38D
330
1F
100
AcDbEntity
  8
LAY-1
  6
CONTINUOUS
 62
     2
100
AcDbLine
 10
402.02101419536
 20
71.69999999999976
 30
0.0
 11
402.02101419536
 21
76.22633403898931
 31
0.0
  0
LINE
  5
38E
330
1F
100
AcDbEntity
  8
LAY-1
  6
CONTINUOUS
 62
     2
100
AcDbLine
 10
420.0210141953601
 20
71.69999999999976
 30
0.0
 11
420.0210141953601
 21
76.22633403898931
 31
0.0
  0
ARC
  5
38F
330
1F
100
AcDbEntity
  8
LAY-1
  6
CONTINUOUS
 62
     2
100
AcDbCircle
 10
395.3556881006884
 20
101.6685584746633
 30
0.0
 40
5.5
100
AcDbArc
 50
182.000000000001
 51
206.0745840136926
  0
ARC
  5
390
330
1F
100
AcDbEntity
  8
LAY-1
  6
CONTINUOUS
 62
     2
100
AcDbCircle
 10
426.6863402900316
 20
101.6685584746633
 30
0.0
 40
5.5
100
AcDbArc
 50
333.9254159863075
 51
357.999999999999
  0
ARC
  5
391
330
1F
100
AcDbEntity
  8
LAY-1
  6
CONTINUOUS
 62
     2
100
AcDbCircle
 10
447.0210141953801
 20
115.1999999999997
 30
0.0
 40
1.0
100
AcDbArc
 50
270.0000000000002
 51
0.0
  0
ARC
  5
392
330
1F
100
AcDbEntity
  8
LAY-1
  6
CONTINUOUS
 62
     2
100
AcDbCircle
 10
375.0210141953399
 20
115.1999999999997
 30
0.0
 40
1.0
100
AcDbArc
 50
180.0
 51
270.0000000000002
  0
ARC
  5
393
330
1F
100
AcDbEntity
  8
LAY-1
  6
CONTINUOUS
 62
     2
100
AcDbCircle
 10
374.9506381641123
 20
111.2006191461389
 30
0.0
 40
3.000000000000001
100
AcDbArc
 50
31.06367387981311
 51
88.99188559322766
  0
ARC
  5
394
330
1F
100
AcDbEntity
  8
LAY-1
  6
CONTINUOUS
 62
     2
100
AcDbCircle
 10
447.0913902266077
 20
111.2006191461389
 30
0.0
 40
3.000000000000001
100
AcDbArc
 50
91.00811440677181
 51
148.9363261201869
  0
LINE
  5
395
330
1F
100
AcDbEntity
  8
LAY-1
  6
CONTINUOUS
 62
     2
100
AcDbLine
 10
431.0210141953601
 20
114.1999999999997
 30
0.0
 11
431.0210141953601
 21
101.6031242374323
 31
0.0
  0
LINE
  5
396
330
1F
100
AcDbEntity
  8
LAY-1
  6
CONTINUOUS
 62
     2
100
AcDbLine
 10
431.0210141953601
 20
114.1999999999997
 30
0.0
 11
447.0210141953801
 21
114.1999999999997
 31
0.0
  0
LINE
  5
397
330
1F
100
AcDbEntity
  8
LAY-1
  6
CONTINUOUS
 62
     2
100
AcDbLine
 10
391.02101419536
 20
114.1999999999997
 30
0.0
 11
391.02101419536
 21
101.6031242374323
 31
0.0
  0
LINE
  5
398
330
1F
100
AcDbEntity
  8
LAY-1
  6
CONTINUOUS
 62
     2
100
AcDbLine
 10
375.0210141953399
 20
114.1999999999997
 30
0.0
 11
391.02101419536
 21
114.1999999999997
 31
0.0
  0
CIRCLE
  5
399
330
1F
100
AcDbEntity
  8
LAY-1
  6
CONTINUOUS
 62
     2
100
AcDbCircle
 10
411.0210141953601
 20
95.19999999999953
 30
0.0
 40
8.65
  0
CIRCLE
  5
39A
330
1F
100
AcDbEntity
  8
LAY-1
  6
CONTINUOUS
 62
     2
100
AcDbCircle
 10
411.0210141953601
 20
95.19999999999953
 30
0.0
 40
12.05
  0
CIRCLE
  5
39B
330
1F
100
AcDbEntity
  8
LAY-1
  6
CONTINUOUS
 62
     2
100
AcDbCircle
 10
411.0210141953601
 20
95.19999999999953
 30
0.0
 40
15.4
  0
ARC
  5
39C
330
1F
100
AcDbEntity
  8
LAY-1
  6
CONTINUOUS
 62
     2
100
AcDbCircle
 10
427.0210141953639
 20
81.69999999999942
 30
0.0
 40
2.0
100
AcDbArc
 50
270.0000000000002
 51
0.0
  0
LINE
  5
39D
330
1F
100
AcDbEntity
  8
LAY-1
  6
CONTINUOUS
 62
     2
100
AcDbLine
 10
425.1896415106646
 20
79.69999999999942
 30
0.0
 11
427.0210141953639
 21
79.69999999999942
 31
0.0
  0
LINE
  5
39E
330
1F
100
AcDbEntity
  8
LAY-1
  6
CONTINUOUS
 62
     2
100
AcDbLine
 10
429.0210141953639
 20
84.3833461736146
 30
0.0
 11
429.0210141953639
 21
81.66999999999933
 31
0.0
  0
ARC
  5
39F
330
1F
100
AcDbEntity
  8
LAY-1
  6
CONTINUOUS
 62
     2
100
AcDbCircle
 10
395.021014195356
 20
81.69999999999942
 30
0.0
 40
2.0
100
AcDbArc
 50
180.0
 51
270.0
  0
LINE
  5
3A0
330
1F
100
AcDbEntity
  8
LAY-1
  6
CONTINUOUS
 62
     2
100
AcDbLine
 10
396.8523868800554
 20
79.69999999999942
 30
0.0
 11
395.021014195356
 21
79.69999999999942
 31
0.0
  0
LINE
  5
3A1
330
1F
100
AcDbEntity
  8
LAY-1
  6
CONTINUOUS
 62
     2
100
AcDbLine
 10
393.021014195356
 20
84.3833461736146
 30
0.0
 11
393.021014195356
 21
81.66999999999933
 31
0.0
  0
LINE
  5
3A2
330
1F
100
AcDbEntity
  8
LAY-1
  6
CONTINUOUS
 62
     2
100
AcDbLine
 10
393.021014195356
 20
84.36835376635673
 30
0.0
 11
375.0035617889228
 21
84.68284956795168
 31
0.0
  0
ARC
  5
3A3
330
1F
100
AcDbEntity
  8
LAY-1
  6
CONTINUOUS
 62
     2
100
AcDbCircle
 10
375.0210141953601
 20
85.68269726310808
 30
0.0
 40
1.0
100
AcDbArc
 50
180.0
 51
268.9999999999983
  0
LINE
  5
3A4
330
1F
100
AcDbEntity
  8
LAY-1
  6
CONTINUOUS
 62
     2
100
AcDbLine
 10
374.0210141953601
 20
85.68269726310956
 30
0.0
 11
374.0210141953601
 21
110.7173027368911
 31
0.0
  0
ARC
  5
3A5
330
1F
100
AcDbEntity
  8
LAY-1
  6
CONTINUOUS
 62
     2
100
AcDbCircle
 10
375.0210141953601
 20
110.7173027368916
 30
0.0
 40
1.0
100
AcDbArc
 50
91.00000000000017
 51
180.0
  0
LINE
  5
3A6
330
1F
100
AcDbEntity
  8
LAY-1
  6
CONTINUOUS
 62
     2
100
AcDbLine
 10
378.267414432634
 20
111.7741211918599
 30
0.0
 11
375.0035617889228
 21
111.717150432048
 31
0.0
  0
LINE
  5
3A7
330
1F
100
AcDbEntity
  8
LAY-1
  6
CONTINUOUS
 62
     2
100
AcDbLine
 10
448.0210141953801
 20
121.6999999999997
 30
0.0
 11
448.0210141953801
 21
115.1999999999997
 31
0.0
  0
ARC
  5
3A8
330
1F
100
AcDbEntity
  8
LAY-1
  6
CONTINUOUS
 62
     2
100
AcDbCircle
 10
377.0129533127571
 20
110.1999999999999
 30
0.0
 40
2.0
100
AcDbArc
 50
45.90647525120201
 51
51.89524279936166
  0
LINE
  5
3A9
330
1F
100
AcDbEntity
  8
LAY-1
  6
CONTINUOUS
 62
     2
100
AcDbLine
 10
374.0210141953399
 20
121.6999999999998
 30
0.0
 11
374.0210141953399
 21
115.1999999999997
 31
0.0
  0
LINE
  5
3AA
330
1F
100
AcDbEntity
  8
LAY-1
  6
CONTINUOUS
 62
     2
100
AcDbLine
 10
403.2267855613004
 20
114.6999999999996
 30
0.0
 11
418.8152428294196
 21
114.6999999999996
 31
0.0
  0
LINE
  5
3AB
330
1F
100
AcDbEntity
  8
LAY-1
  6
CONTINUOUS
 62
     2
100
AcDbLine
 10
403.2267855613004
 20
75.69999999999976
 30
0.0
 11
418.8152428294196
 21
75.69999999999976
 31
0.0
  0
ARC
  5
3AC
330
1F
100
AcDbEntity
  8
LAY-1
  6
CONTINUOUS
 62
     2
100
AcDbCircle
 10
411.0210141953601
 20
95.19999999999953
 30
0.0
 40
21.0
100
AcDbArc
 50
291.7867892982631
 51
68.21321070173906
  0
ARC
  5
3AD
330
1F
100
AcDbEntity
  8
LAY-1
  6
CONTINUOUS
 62
     2
100
AcDbCircle
 10
411.0210141953601
 20
95.19999999999953
 30
0.0
 40
21.0
100
AcDbArc
 50
111.7867892982609
 51
248.2132107017369
  0
LINE
  5
3AE
330
1F
100
AcDbEntity
  8
LAY-1
  6
CONTINUOUS
 62
     2
100
AcDbLine
 10
416.0210141953601
 20
71.69999999999976
 30
0.0
 11
416.0210141953601
 21
75.69999999999976
 31
0.0
  0
LINE
  5
3AF
330
1F
100
AcDbEntity
  8
LAY-1
  6
CONTINUOUS
 62
     2
100
AcDbLine
 10
406.0210141953601
 20
71.69999999999976
 30
0.0
 11
406.0210141953601
 21
75.69999999999976
 31
0.0
  0
LINE
  5
3B0
330
1F
100
AcDbEntity
  8
LAY-1
  6
EXLTYPE2
 62
     1
100
AcDbLine
 10
386.92101419537
 20
95.1999999999997
 30
0.0
 11
435.0210141953701
 21
95.1999999999997
 31
0.0
  0
CIRCLE
  5
3B1
330
1F
100
AcDbEntity
  8
LAY-1
  6
CONTINUOUS
 62
     1
100
AcDbCircle
 10
411.0210141953601
 20
95.19999999999953
 30
0.0
 40
13.25
  0
ARC
  5
3B2
330
1F
100
AcDbEntity
  8
LAY-1
  6
CONTINUOUS
 62
     1
100
AcDbCircle
 10
411.0210141953601
 20
95.19999999999953
 30
0.0
 40
20.00000000033999
100
AcDbArc
 50
282.83856814526
 51
77.16143185474338
  0
ARC
  5
3B3
330
1F
100
AcDbEntity
  8
LAY-1
  6
CONTINUOUS
 62
     1
100
AcDbCircle
 10
411.0210141953601
 20
95.19999999999953
 30
0.0
 40
20.00000000033999
100
AcDbArc
 50
102.8385681452566
 51
257.16143185474
  0
LINE
  5
3B4
330
1F
100
AcDbEntity
  8
LAY-1
  6
CONTINUOUS
 62
     2
100
AcDbLine
 10
458.3271947877333
 20
98.19999999999362
 30
0.0
 11
457.0383097907406
 21
100.1977717453325
 31
0.0
  0
LINE
  5
3B5
330
1F
100
AcDbEntity
  8
LAY-1
  6
CONTINUOUS
 62
     2
100
AcDbLine
 10
458.3271947877333
 20
98.19999999999226
 30
0.0
 11
457.0383097907406
 21
96.20222825465379
 31
0.0
  0
LINE
  5
3B6
330
1F
100
AcDbEntity
  8
LAY-1
  6
CONTINUOUS
 62
     2
100
AcDbLine
 10
442.8183097907408
 20
83.18000000000364
 30
0.0
 11
453.5183097907402
 21
83.18000000000364
 31
0.0
  0
ARC
  5
3B7
330
1F
100
AcDbEntity
  8
LAY-1
  6
CONTINUOUS
 62
     2
100
AcDbCircle
 10
453.5183097907402
 20
86.70000000000363
 30
0.0
 40
3.520000000000003
100
AcDbArc
 50
270.0000000000002
 51
0.0
  0
LINE
  5
3B8
330
1F
100
AcDbEntity
  8
LAY-1
  6
CONTINUOUS
 62
     2
100
AcDbLine
 10
442.8183097907408
 20
83.18000000000364
 30
0.0
 11
442.8183097907408
 21
98.19999999999817
 31
0.0
  0
LINE
  5
3B9
330
1F
100
AcDbEntity
  8
LAY-1
  6
CONTINUOUS
 62
     2
100
AcDbLine
 10
457.0383097907406
 20
86.70000000000317
 30
0.0
 11
457.0383097907406
 21
98.19999999999817
 31
0.0
  0
LINE
  5
3BA
330
1F
100
AcDbEntity
  8
LAY-1
  6
CONTINUOUS
 62
     2
100
AcDbLine
 10
444.8728093813179
 20
113.2199999999927
 30
0.0
 11
453.5183097907402
 21
113.2199999999927
 31
0.0
  0
LINE
  5
3BB
330
1F
100
AcDbEntity
  8
LAY-1
  6
CONTINUOUS
 62
     2
100
AcDbLine
 10
442.8183097907408
 20
98.19999999999817
 30
0.0
 11
442.8183097907408
 21
110.9819627408651
 31
0.0
  0
LINE
  5
3BC
330
1F
100
AcDbEntity
  8
LAY-1
  6
CONTINUOUS
 62
     2
100
AcDbLine
 10
457.0383097907406
 20
109.6999999999927
 30
0.0
 11
457.0383097907406
 21
98.19999999999817
 31
0.0
  0
ARC
  5
3BD
330
1F
100
AcDbEntity
  8
LAY-1
  6
CONTINUOUS
 62
     2
100
AcDbCircle
 10
453.5183097907402
 20
109.6999999999927
 30
0.0
 40
3.520000000000003
100
AcDbArc
 50
0.0
 51
90.00000000000001
  0
LINE
  5
3BE
330
1F
100
AcDbEntity
  8
LAY-1
  6
CONTINUOUS
 62
     2
100
AcDbLine
 10
429.0210141953639
 20
84.36835376635673
 30
0.0
 11
442.8183097907408
 21
84.60918645680749
 31
0.0
  0
LINE
  5
3BF
330
1F
100
AcDbEntity
  8
LAY-1
  6
EXLTYPE2
 62
     1
100
AcDbLine
 10
432.8920438396301
 20
98.19999999999976
 30
0.0
 11
461.51204383963
 21
98.19999999999976
 31
0.0
  0
LINE
  5
3C0
330
1F
100
AcDbEntity
  8
LAY-1
  6
EXLTYPE2
 62
     1
100
AcDbLine
 10
371.6896415106601
 20
98.19999999999976
 30
0.0
 11
388.4120438396301
 21
98.19999999999976
 31
0.0
  0
LINE
  5
3C1
330
1F
100
AcDbEntity
  8
LAY-1
  6
CONTINUOUS
 62
     2
100
AcDbLine
 10
272.8120438396281
 20
380.54622522213
 30
0.0
 11
272.8120438396281
 21
247.54622522217
 31
0.0
  0
ARC
  5
3C2
330
1F
100
AcDbEntity
  8
LAY-1
  6
CONTINUOUS
 62
     2
100
AcDbCircle
 10
254.3120438396281
 20
300.1228459498845
 30
0.0
 40
5.5
100
AcDbArc
 50
93.0000000000009
 51
180.0
  0
LINE
  5
3C3
330
1F
100
AcDbEntity
  8
LAY-1
  6
CONTINUOUS
 62
     2
100
AcDbLine
 10
248.812043839628
 20
256.8914871176385
 30
0.0
 11
248.812043839628
 21
300.1228459498845
 31
0.0
  0
ARC
  5
3C4
330
1F
100
AcDbEntity
  8
LAY-1
  6
CONTINUOUS
 62
     2
100
AcDbCircle
 10
253.3120438396281
 20
372.4592515225305
 30
0.0
 40
3.000000000000002
100
AcDbArc
 50
92.0000000000004
 51
180.0
  0
ARC
  5
3C5
330
1F
100
AcDbEntity
  8
LAY-1
  6
CONTINUOUS
 62
     2
100
AcDbCircle
 10
223.3120438396281
 20
375.8746523468918
 30
0.0
 40
2.0
100
AcDbArc
 50
315.0000000000573
 51
0.0
  0
LINE
  5
3C6
330
1F
100
AcDbEntity
  8
LAY-1
  6
CONTINUOUS
 62
     2
100
AcDbLine
 10
222.3978302772538
 20
372.1320116597668
 30
0.0
 11
224.7262574020026
 21
374.4604387845201
 31
0.0
  0
ARC
  5
3C7
330
1F
100
AcDbEntity
  8
LAY-1
  6
CONTINUOUS
 62
     2
100
AcDbCircle
 10
223.8120438396282
 20
370.717798097395
 30
0.0
 40
2.0
100
AcDbArc
 50
135.0000000000551
 51
180.0
  0
ARC
  5
3C8
330
1F
100
AcDbEntity
  8
LAY-1
  6
CONTINUOUS
 62
     2
100
AcDbCircle
 10
225.0366839077392
 20
370.5016020127987
 30
0.0
 40
4.269263277481288
100
AcDbArc
 50
0.0
 51
83.08400672083323
  0
CIRCLE
  5
3C9
330
1F
100
AcDbEntity
  8
LAY-1
  6
CONTINUOUS
 62
     2
100
AcDbCircle
 10
249.312043839628
 20
337.54622522214
 30
0.0
 40
1.5
  0
ARC
  5
3CA
330
1F
100
AcDbEntity
  8
LAY-1
  6
CONTINUOUS
 62
     2
100
AcDbCircle
 10
249.3120438396281
 20
364.29622522215
 30
0.0
 40
1.0
100
AcDbArc
 50
270.0000000000002
 51
0.0
  0
ARC
  5
3CB
330
1F
100
AcDbEntity
  8
LAY-1
  6
CONTINUOUS
 62
     2
100
AcDbCircle
 10
243.8120438396281
 20
358.29622522215
 30
0.0
 40
5.0
100
AcDbArc
 50
90.00000000000001
 51
180.0
  0
LINE
  5
3CC
330
1F
100
AcDbEntity
  8
LAY-1
  6
CONTINUOUS
 62
     2
100
AcDbLine
 10
243.8120438396281
 20
363.29622522215
 30
0.0
 11
249.3120438396281
 21
363.29622522215
 31
0.0
  0
ARC
  5
3CD
330
1F
100
AcDbEntity
  8
LAY-1
  6
CONTINUOUS
 62
     2
100
AcDbCircle
 10
243.8120438396281
 20
358.2962252221498
 30
0.0
 40
5.0
100
AcDbArc
 50
180.0
 51
270.0000000000002
  0
LINE
  5
3CE
330
1F
100
AcDbEntity
  8
LAY-1
  6
CONTINUOUS
 62
     2
100
AcDbLine
 10
243.8120438396281
 20
353.2962252221498
 30
0.0
 11
249.3120438396281
 21
353.2962252221498
 31
0.0
  0
ARC
  5
3CF
330
1F
100
AcDbEntity
  8
LAY-1
  6
CONTINUOUS
 62
     2
100
AcDbCircle
 10
225.0366839077392
 20
354.5908484314596
 30
0.0
 40
4.269263277481288
100
AcDbArc
 50
276.9159932791669
 51
0.0
  0
ARC
  5
3D0
330
1F
100
AcDbEntity
  8
LAY-1
  6
CONTINUOUS
 62
     2
100
AcDbCircle
 10
223.8120438396282
 20
354.3746523468633
 30
0.0
 40
2.0
100
AcDbArc
 50
180.0
 51
224.999999999945
  0
ARC
  5
3D1
330
1F
100
AcDbEntity
  8
LAY-1
  6
CONTINUOUS
 62
     2
100
AcDbCircle
 10
227.1404709643801
 20
351.0462252221312
 30
0.0
 40
2.0
100
AcDbArc
 50
224.999999999945
 51
270.0000000000002
  0
LINE
  5
3D2
330
1F
100
AcDbEntity
  8
LAY-1
  6
CONTINUOUS
 62
     2
100
AcDbLine
 10
222.3978302772538
 20
352.9604387845179
 30
0.0
 11
225.7262574020057
 21
349.6320116597595
 31
0.0
  0
LINE
  5
3D3
330
1F
100
AcDbEntity
  8
LAY-1
  6
CONTINUOUS
 62
     2
100
AcDbLine
 10
229.3059471852205
 20
370.5016020127987
 30
0.0
 11
229.3059471852205
 21
354.59084843146
 31
0.0
  0
ARC
  5
3D4
330
1F
100
AcDbEntity
  8
LAY-1
  6
CONTINUOUS
 62
     2
100
AcDbCircle
 10
263.3120438396281
 20
316.0881663545026
 30
0.0
 40
2.0
100
AcDbArc
 50
93.00000000000279
 51
180.0
  0
LINE
  5
3D5
330
1F
100
AcDbEntity
  8
LAY-1
  6
CONTINUOUS
 62
     2
100
AcDbLine
 10
259.416715752114
 20
305.897918371775
 30
0.0
 11
254.0241960802919
 21
305.6153083910347
 31
0.0
  0
ARC
  5
3D6
330
1F
100
AcDbEntity
  8
LAY-1
  6
CONTINUOUS
 62
     2
100
AcDbCircle
 10
259.3120438396281
 20
307.8951774412841
 30
0.0
 40
2.0
100
AcDbArc
 50
273.0000000000004
 51
0.0
  0
CIRCLE
  5
3D7
330
1F
100
AcDbEntity
  8
LAY-1
  6
CONTINUOUS
 62
     2
100
AcDbCircle
 10
249.312043839628
 20
337.54622522214
 30
0.0
 40
4.5
  0
LINE
  5
3D8
330
1F
100
AcDbEntity
  8
LAY-1
  6
CONTINUOUS
 62
     2
100
AcDbLine
 10
262.4167423297357
 20
375.779023232692
 30
0.0
 11
253.2073453495206
 21
375.4574240035878
 31
0.0
  0
LINE
  5
3D9
330
1F
100
AcDbEntity
  8
LAY-1
  6
CONTINUOUS
 62
     2
100
AcDbLine
 10
263.4167157521141
 20
318.0963966689851
 30
0.0
 11
263.2073719271422
 21
318.0854254240117
 31
0.0
  0
LINE
  5
3DA
330
1F
100
AcDbEntity
  8
LAY-1
  6
CONTINUOUS
 62
     2
100
AcDbLine
 10
261.3120438396281
 20
316.0881663545026
 30
0.0
 11
261.312043839628
 21
252.9150138930983
 31
0.0
  0
LINE
  5
3DB
330
1F
100
AcDbEntity
  8
LAY-1
  6
CONTINUOUS
 62
     2
100
AcDbLine
 10
227.1404709643801
 20
349.0462252221312
 30
0.0
 11
236.8917336228354
 21
349.0462252221312
 31
0.0
  0
LINE
  5
3DC
330
1F
100
AcDbEntity
  8
LAY-1
  6
CONTINUOUS
 62
     2
100
AcDbLine
 10
250.3120438396281
 20
372.4592515225305
 30
0.0
 11
250.3120438396281
 21
353.9245645762992
 31
0.0
  0
ARC
  5
3DD
330
1F
100
AcDbEntity
  8
LAY-1
  6
CONTINUOUS
 62
     2
100
AcDbCircle
 10
249.3120438396281
 20
352.2962252221498
 30
0.0
 40
1.0
100
AcDbArc
 50
35.69328993529944
 51
90.00000000000001
  0
ARC
  5
3DE
330
1F
100
AcDbEntity
  8
LAY-1
  6
CONTINUOUS
 62
     2
100
AcDbCircle
 10
266.3120438396281
 20
379.54622522213
 30
0.0
 40
1.0
100
AcDbArc
 50
90.00000000000001
 51
180.0
  0
ARC
  5
3DF
330
1F
100
AcDbEntity
  8
LAY-1
  6
CONTINUOUS
 62
     2
100
AcDbCircle
 10
262.3120438396281
 20
378.7771957137493
 30
0.0
 40
3.000000000000001
100
AcDbArc
 50
272.0000000000007
 51
0.0
  0
ARC
  5
3E0
330
1F
100
AcDbEntity
  8
LAY-1
  6
CONTINUOUS
 62
     2
100
AcDbCircle
 10
263.3120438396281
 20
248.9095245091066
 30
0.0
 40
2.0
100
AcDbArc
 50
0.0
 51
86.99999999999969
  0
ARC
  5
3E1
330
1F
100
AcDbEntity
  8
LAY-1
  6
CONTINUOUS
 62
     2
100
AcDbCircle
 10
266.3120438396281
 20
248.5462252221699
 30
0.0
 40
1.0
100
AcDbArc
 50
180.0
 51
270.0000000000002
  0
ARC
  5
3E2
330
1F
100
AcDbEntity
  8
LAY-1
  6
CONTINUOUS
 62
     2
100
AcDbCircle
 10
263.3120438396281
 20
252.9150138930983
 30
0.0
 40
2.0
100
AcDbArc
 50
180.0
 51
266.9999999999997
  0
LINE
  5
3E3
330
1F
100
AcDbEntity
  8
LAY-1
  6
CONTINUOUS
 62
     2
100
AcDbLine
 10
261.312043839628
 20
257.4215132421099
 30
0.0
 11
248.812043839628
 21
257.42151324211
 31
0.0
  0
CIRCLE
  5
3E4
330
1F
100
AcDbEntity
  8
LAY-1
  6
CONTINUOUS
 62
     2
100
AcDbCircle
 10
249.312043839628
 20
337.54622522214
 30
0.0
 40
13.50000000000001
  0
ARC
  5
3E5
330
1F
100
AcDbEntity
  8
LAY-1
  6
CONTINUOUS
 62
     2
100
AcDbCircle
 10
247.3120438396281
 20
353.9245645762992
 30
0.0
 40
3.000000000000002
100
AcDbArc
 50
276.9620626910843
 51
0.0
  0
ARC
  5
3E6
330
1F
100
AcDbEntity
  8
LAY-1
  6
CONTINUOUS
 62
     2
100
AcDbCircle
 10
240.0786289975559
 20
351.2208020109917
 30
0.0
 40
3.000000000000002
100
AcDbArc
 50
304.0282017782248
 51
62.18120067107762
  0
ARC
  5
3E7
330
1F
100
AcDbEntity
  8
LAY-1
  6
CONTINUOUS
 62
     2
100
AcDbCircle
 10
237.0645951257054
 20
347.0462252221312
 30
0.0
 40
2.0
100
AcDbArc
 50
322.2002775646135
 51
90.00000000000001
  0
LINE
  5
3E8
330
1F
100
AcDbEntity
  8
LAY-1
  6
CONTINUOUS
 62
     2
100
AcDbLine
 10
265.312043839628
 20
266.0462252221401
 30
0.0
 11
265.312043839628
 21
248.54622522217
 31
0.0
  0
ARC
  5
3E9
330
1F
100
AcDbEntity
  8
LAY-1
  6
CONTINUOUS
 62
     2
100
AcDbCircle
 10
231.8163550972289
 20
237.88005349011
 30
0.0
 40
12.06617200397701
100
AcDbArc
 50
60.15764993472018
 51
90.00000000000014
  0
ARC
  5
3EA
330
1F
100
AcDbEntity
  8
LAY-1
  6
CONTINUOUS
 62
     2
100
AcDbCircle
 10
246.3120441115531
 20
226.6138814861329
 30
0.0
 40
23.33234400795401
100
AcDbArc
 50
83.88423909253947
 51
111.3418482847204
  0
LINE
  5
3EB
330
1F
100
AcDbEntity
  8
LAY-1
  6
CONTINUOUS
 62
     2
100
AcDbLine
 10
231.8163550972289
 20
249.94622549409
 30
0.0
 11
225.8120441115481
 21
249.94622549409
 31
0.0
  0
LINE
  5
3EC
330
1F
100
AcDbEntity
  8
LAY-1
  6
CONTINUOUS
 62
     2
100
AcDbLine
 10
272.8120438396281
 20
247.54622522217
 30
0.0
 11
248.812043839628
 21
247.54622522217
 31
0.0
  0
LINE
  5
3ED
330
1F
100
AcDbEntity
  8
LAY-1
  6
CONTINUOUS
 62
     2
100
AcDbLine
 10
248.812043839628
 20
257.42151324211
 30
0.0
 11
248.812043839628
 21
247.54622522217
 31
0.0
  0
LINE
  5
3EE
330
1F
100
AcDbEntity
  8
LAY-1
  6
CONTINUOUS
 62
     2
100
AcDbLine
 10
234.9219352963291
 20
257.24367631758
 30
0.0
 11
248.3219352963291
 21
257.24367631758
 31
0.0
  0
ARC
  5
3EF
330
1F
100
AcDbEntity
  8
LAY-1
  6
CONTINUOUS
 62
     2
100
AcDbCircle
 10
260.8077328539501
 20
240.61239722603
 30
0.0
 40
12.06617200397701
100
AcDbArc
 50
240.1576499347203
 51
270.0000000000002
  0
ARC
  5
3F0
330
1F
100
AcDbEntity
  8
LAY-1
  6
CONTINUOUS
 62
     2
100
AcDbCircle
 10
246.3120438396261
 20
251.8785692300071
 30
0.0
 40
23.33234400795401
100
AcDbArc
 50
248.6581517152804
 51
291.3418482847205
  0
ARC
  5
3F1
330
1F
100
AcDbEntity
  8
LAY-1
  6
CONTINUOUS
 62
     2
100
AcDbCircle
 10
231.8163548253021
 20
240.61239722603
 30
0.0
 40
12.06617200397701
100
AcDbArc
 50
270.0000000000002
 51
299.84235006528
  0
LINE
  5
3F2
330
1F
100
AcDbEntity
  8
LAY-1
  6
CONTINUOUS
 62
     2
100
AcDbLine
 10
225.812043839631
 20
228.5462252220529
 30
0.0
 11
266.812043839631
 21
228.5462252220529
 31
0.0
  0
LINE
  5
3F3
330
1F
100
AcDbEntity
  8
LAY-1
  6
CONTINUOUS
 62
     2
100
AcDbLine
 10
225.812043839628
 20
249.94622549409
 30
0.0
 11
225.812043839628
 21
228.5462252220529
 31
0.0
  0
LINE
  5
3F4
330
1F
100
AcDbEntity
  8
LAY-1
  6
CONTINUOUS
 62
     2
100
AcDbLine
 10
237.8206658109751
 20
248.346225387838
 30
0.0
 11
237.8206658109751
 21
230.1462252220504
 31
0.0
  0
LINE
  5
3F5
330
1F
100
AcDbEntity
  8
LAY-1
  6
CONTINUOUS
 62
     2
100
AcDbLine
 10
254.8034218682811
 20
247.54622522217
 30
0.0
 11
254.8034218682811
 21
230.1462252220482
 31
0.0
  0
LINE
  5
3F6
330
1F
100
AcDbEntity
  8
LAY-1
  6
CONTINUOUS
 62
     2
100
AcDbLine
 10
266.812043839628
 20
247.54622522217
 30
0.0
 11
266.812043839628
 21
228.5462252220529
 31
0.0
  0
ARC
  5
3F7
330
1F
100
AcDbEntity
  8
LAY-1
  6
CONTINUOUS
 62
     2
100
AcDbCircle
 10
248.3579853856507
 20
380.2289360936543
 30
0.0
 40
8.317289128745548
100
AcDbArc
 50
61.61445246195793
 51
118.3855475380443
  0
ARC
  5
3F8
330
1F
100
AcDbEntity
  8
LAY-1
  6
CONTINUOUS
 62
     2
100
AcDbCircle
 10
238.8120438396305
 20
372.4116469648778
 30
0.0
 40
16.13457825752196
100
AcDbArc
 50
69.72187308389812
 51
110.2781269161026
  0
ARC
  5
3F9
330
1F
100
AcDbEntity
  8
LAY-1
  6
CONTINUOUS
 62
     2
100
AcDbCircle
 10
229.2661022936106
 20
380.2289360936546
 30
0.0
 40
8.317289128745292
100
AcDbArc
 50
61.61445246195775
 51
118.3855475380469
  0
LINE
  5
3FA
330
1F
100
AcDbEntity
  8
LAY-1
  6
CONTINUOUS
 62
     2
100
AcDbLine
 10
233.2201607475906
 20
387.5462252223999
 30
0.0
 11
233.2201607475906
 21
362.54622522213
 31
0.0
  0
ARC
  5
3FB
330
1F
100
AcDbEntity
  8
LAY-1
  6
CONTINUOUS
 62
     2
100
AcDbCircle
 10
223.812043839628
 20
335.0462252221428
 30
0.0
 40
2.0
100
AcDbArc
 50
180.0
 51
270.0
  0
LINE
  5
3FC
330
1F
100
AcDbEntity
  8
LAY-1
  6
CONTINUOUS
 62
     2
100
AcDbLine
 10
221.8120438396282
 20
370.717798097395
 30
0.0
 11
221.8120438396282
 21
335.04622522214
 31
0.0
  0
LINE
  5
3FD
330
1F
100
AcDbEntity
  8
LAY-1
  6
CONTINUOUS
 62
     2
100
AcDbLine
 10
224.312043839628
 20
333.04622522214
 30
0.0
 11
223.812043839628
 21
333.04622522214
 31
0.0
  0
ARC
  5
3FE
330
1F
100
AcDbEntity
  8
LAY-1
  6
CONTINUOUS
 62
     2
100
AcDbCircle
 10
235.2407965601565
 20
331.0462252221428
 30
0.0
 40
2.0
100
AcDbArc
 50
24.79386246304511
 51
90.00000000000001
  0
ARC
  5
3FF
330
1F
100
AcDbEntity
  8
LAY-1
  6
CONTINUOUS
 62
     2
100
AcDbCircle
 10
235.2407965601592
 20
344.0462252221432
 30
0.0
 40
2.0
100
AcDbArc
 50
269.9999999999997
 51
335.2061375369299
  0
LINE
  5
400
330
1F
100
AcDbEntity
  8
LAY-1
  6
CONTINUOUS
 62
     2
100
AcDbLine
 10
235.2407965601591
 20
342.04622522214
 30
0.0
 11
223.812043839628
 21
342.04622522214
 31
0.0
  0
LINE
  5
401
330
1F
100
AcDbEntity
  8
LAY-1
  6
CONTINUOUS
 62
     2
100
AcDbLine
 10
235.2407965601561
 20
333.04622522214
 30
0.0
 11
224.312043839628
 21
333.04622522214
 31
0.0
  0
ARC
  5
402
330
1F
100
AcDbEntity
  8
LAY-1
  6
CONTINUOUS
 62
     2
100
AcDbCircle
 10
223.812043839628
 20
340.0462252221434
 30
0.0
 40
2.0
100
AcDbArc
 50
90.00000000000001
 51
180.0
  0
LINE
  5
403
330
1F
100
AcDbEntity
  8
LAY-1
  6
CONTINUOUS
 62
     2
100
AcDbLine
 10
233.312043839628
 20
309.0462252221434
 30
0.0
 11
233.312043839628
 21
305.04622522214
 31
0.0
  0
LINE
  5
404
330
1F
100
AcDbEntity
  8
LAY-1
  6
CONTINUOUS
 62
     2
100
AcDbLine
 10
234.8120438396273
 20
309.0462252221434
 30
0.0
 11
233.312043839628
 21
309.0462252221434
 31
0.0
  0
LINE
  5
405
330
1F
100
AcDbEntity
  8
LAY-1
  6
CONTINUOUS
 62
     2
100
AcDbLine
 10
236.312043839628
 20
309.0462252221434
 30
0.0
 11
236.312043839628
 21
305.04622522214
 31
0.0
  0
LINE
  5
406
330
1F
100
AcDbEntity
  8
LAY-1
  6
CONTINUOUS
 62
     2
100
AcDbLine
 10
234.8120438396286
 20
309.0462252221434
 30
0.0
 11
236.312043839628
 21
309.0462252221434
 31
0.0
  0
LINE
  5
407
330
1F
100
AcDbEntity
  8
LAY-1
  6
CONTINUOUS
 62
     2
100
AcDbLine
 10
233.312043839628
 20
305.0462252221435
 30
0.0
 11
232.6728933679271
 21
305.0462252221435
 31
0.0
  0
LINE
  5
408
330
1F
100
AcDbEntity
  8
LAY-1
  6
CONTINUOUS
 62
     2
100
AcDbLine
 10
236.312043839628
 20
305.0462252221435
 30
0.0
 11
236.9511943113288
 21
305.0462252221435
 31
0.0
  0
ARC
  5
409
330
1F
100
AcDbEntity
  8
LAY-1
  6
CONTINUOUS
 62
     2
100
AcDbCircle
 10
232.6728933679271
 20
304.8462252221435
 30
0.0
 40
0.2
100
AcDbArc
 50
90.00000000000001
 51
212.0053832080818
  0
LINE
  5
40A
330
1F
100
AcDbEntity
  8
LAY-1
  6
CONTINUOUS
 62
     2
100
AcDbLine
 10
234.642444178827
 20
301.3175846794215
 30
0.0
 11
232.5032937071261
 21
304.7402254341428
 31
0.0
  0
LINE
  5
40B
330
1F
100
AcDbEntity
  8
LAY-1
  6
CONTINUOUS
 62
     2
100
AcDbLine
 10
234.981643500429
 20
301.3175846794215
 30
0.0
 11
237.1207939721298
 21
304.7402254341428
 31
0.0
  0
ARC
  5
40C
330
1F
100
AcDbEntity
  8
LAY-1
  6
CONTINUOUS
 62
     2
100
AcDbCircle
 10
236.9511943113288
 20
304.8462252221435
 30
0.0
 40
0.2
100
AcDbArc
 50
327.9946167919182
 51
90.00000000000001
  0
ARC
  5
40D
330
1F
100
AcDbEntity
  8
LAY-1
  6
CONTINUOUS
 62
     2
100
AcDbCircle
 10
234.812043839628
 20
301.4235844674221
 30
0.0
 40
0.2
100
AcDbArc
 50
212.0053832080818
 51
327.99461679192
  0
ARC
  5
40E
330
1F
100
AcDbEntity
  8
LAY-1
  6
CONTINUOUS
 62
     2
100
AcDbCircle
 10
245.0620438390467
 20
240.1462252217384
 30
0.0
 40
0.4
100
AcDbArc
 50
90.00000000000001
 51
180.0
  0
ARC
  5
40F
330
1F
100
AcDbEntity
  8
LAY-1
  6
CONTINUOUS
 62
     2
100
AcDbCircle
 10
245.062043839047
 20
240.1462252217384
 30
0.0
 40
0.4
100
AcDbArc
 50
0.0
 51
90.00000000000001
  0
LINE
  5
410
330
1F
100
AcDbEntity
  8
LAY-1
  6
CONTINUOUS
 62
     2
100
AcDbLine
 10
244.6620438390468
 20
240.1462252217384
 30
0.0
 11
244.6620438390468
 21
234.9462252217384
 31
0.0
  0
ARC
  5
411
330
1F
100
AcDbEntity
  8
LAY-1
  6
CONTINUOUS
 62
     2
100
AcDbCircle
 10
245.0620438390467
 20
234.9462252217384
 30
0.0
 40
0.4
100
AcDbArc
 50
180.0
 51
270.0000000000002
  0
LINE
  5
412
330
1F
100
AcDbEntity
  8
LAY-1
  6
CONTINUOUS
 62
     2
100
AcDbLine
 10
245.4620438390469
 20
240.1462252217384
 30
0.0
 11
245.4620438390469
 21
234.9462252217384
 31
0.0
  0
ARC
  5
413
330
1F
100
AcDbEntity
  8
LAY-1
  6
CONTINUOUS
 62
     2
100
AcDbCircle
 10
245.062043839047
 20
234.9462252217384
 30
0.0
 40
0.4
100
AcDbArc
 50
270.0000000000002
 51
0.0
  0
ARC
  5
414
330
1F
100
AcDbEntity
  8
LAY-1
  6
CONTINUOUS
 62
     2
100
AcDbCircle
 10
247.5620438390471
 20
240.1462252217384
 30
0.0
 40
0.4
100
AcDbArc
 50
0.0
 51
90.00000000000001
  0
ARC
  5
415
330
1F
100
AcDbEntity
  8
LAY-1
  6
CONTINUOUS
 62
     2
100
AcDbCircle
 10
247.562043839047
 20
240.1462252217384
 30
0.0
 40
0.4
100
AcDbArc
 50
90.00000000000001
 51
180.0
  0
LINE
  5
416
330
1F
100
AcDbEntity
  8
LAY-1
  6
CONTINUOUS
 62
     2
100
AcDbLine
 10
247.9620438390472
 20
240.1462252217384
 30
0.0
 11
247.9620438390472
 21
234.9462252217384
 31
0.0
  0
ARC
  5
417
330
1F
100
AcDbEntity
  8
LAY-1
  6
CONTINUOUS
 62
     2
100
AcDbCircle
 10
247.5620438390471
 20
234.9462252217384
 30
0.0
 40
0.4
100
AcDbArc
 50
270.0000000000002
 51
0.0
  0
LINE
  5
418
330
1F
100
AcDbEntity
  8
LAY-1
  6
CONTINUOUS
 62
     2
100
AcDbLine
 10
247.162043839047
 20
240.1462252217384
 30
0.0
 11
247.162043839047
 21
234.9462252217384
 31
0.0
  0
ARC
  5
419
330
1F
100
AcDbEntity
  8
LAY-1
  6
CONTINUOUS
 62
     2
100
AcDbCircle
 10
247.562043839047
 20
234.9462252217384
 30
0.0
 40
0.4
100
AcDbArc
 50
180.0
 51
270.0000000000002
  0
LINE
  5
41A
330
1F
100
AcDbEntity
  8
LAY-1
  6
CONTINUOUS
 62
     2
100
AcDbLine
 10
265.3120438396281
 20
379.54622522213
 30
0.0
 11
265.3120438396281
 21
321.27122522214
 31
0.0
  0
ARC
  5
41B
330
1F
100
AcDbEntity
  8
LAY-1
  6
CONTINUOUS
 62
     2
100
AcDbCircle
 10
262.3120438396281
 20
322.3152547306906
 30
0.0
 40
3.000000000000001
100
AcDbArc
 50
0.0
 51
87.99999999999908
  0
LINE
  5
41C
330
1F
100
AcDbEntity
  8
LAY-1
  6
CONTINUOUS
 62
     2
100
AcDbLine
 10
262.4167423297357
 20
325.3134272117479
 30
0.0
 11
255.5127686913839
 21
325.5545192837499
 31
0.0
  0
ARC
  5
41D
330
1F
100
AcDbEntity
  8
LAY-1
  6
CONTINUOUS
 62
     2
100
AcDbCircle
 10
263.3120438396281
 20
320.0936557384942
 30
0.0
 40
2.0
100
AcDbArc
 50
273.0000000000032
 51
0.0
  0
LINE
  5
41E
330
1F
100
AcDbEntity
  8
LAY-1
  6
CONTINUOUS
 62
     2
100
AcDbLine
 10
265.3120438396281
 20
321.27122522214
 30
0.0
 11
265.3120438396281
 21
266.04622522214
 31
0.0
  0
ARC
  5
41F
330
1F
100
AcDbEntity
  8
LAY-1
  6
CONTINUOUS
 62
     2
100
AcDbCircle
 10
232.3120438396292
 20
274.3462252221399
 30
0.0
 40
1.0
100
AcDbArc
 50
90.00000000000001
 51
180.0
  0
LINE
  5
420
330
1F
100
AcDbEntity
  8
LAY-1
  6
CONTINUOUS
 62
     2
100
AcDbLine
 10
231.3120438396292
 20
274.3462252221399
 30
0.0
 11
231.3120438396292
 21
268.3462252221399
 31
0.0
  0
ARC
  5
421
330
1F
100
AcDbEntity
  8
LAY-1
  6
CONTINUOUS
 62
     2
100
AcDbCircle
 10
232.3120438396292
 20
268.3462252221399
 30
0.0
 40
1.0
100
AcDbArc
 50
180.0
 51
270.0
  0
ARC
  5
422
330
1F
100
AcDbEntity
  8
LAY-1
  6
CONTINUOUS
 62
     2
100
AcDbCircle
 10
236.3120438396285
 20
282.2888659092827
 30
0.0
 40
3.0
100
AcDbArc
 50
315.0
 51
0.0
  0
LINE
  5
423
330
1F
100
AcDbEntity
  8
LAY-1
  6
CONTINUOUS
 62
     2
100
AcDbLine
 10
239.3120438396287
 20
328.0821236069999
 30
0.0
 11
239.3120438396285
 21
282.28886590928
 31
0.0
  0
LINE
  5
424
330
1F
100
AcDbEntity
  8
LAY-1
  6
CONTINUOUS
 62
     2
100
AcDbLine
 10
240.4519352963281
 20
281.44367631758
 30
0.0
 11
247.501935296328
 21
281.44367631758
 31
0.0
  0
LINE
  5
425
330
1F
100
AcDbEntity
  8
LAY-1
  6
CONTINUOUS
 62
     2
100
AcDbLine
 10
238.4333641831881
 20
280.1675455657231
 30
0.0
 11
235.6907234960624
 21
277.4249048785974
 31
0.0
  0
ARC
  5
426
330
1F
100
AcDbEntity
  8
LAY-1
  6
CONTINUOUS
 62
     2
100
AcDbCircle
 10
236.3120438396285
 20
282.2888659092827
 30
0.0
 40
3.0
100
AcDbArc
 50
315.0000000000003
 51
0.0
  0
LINE
  5
427
330
1F
100
AcDbEntity
  8
LAY-1
  6
CONTINUOUS
 62
     2
100
AcDbLine
 10
238.4333641831881
 20
280.1675455657231
 30
0.0
 11
235.6907234960624
 21
277.4249048785974
 31
0.0
  0
LINE
  5
428
330
1F
100
AcDbEntity
  8
LAY-1
  6
CONTINUOUS
 62
     2
100
AcDbLine
 10
225.8120441115481
 20
249.94622549409
 30
0.0
 11
234.8120438396321
 21
258.946225222174
 31
0.0
  0
ARC
  5
429
330
1F
100
AcDbEntity
  8
LAY-1
  6
CONTINUOUS
 62
     2
100
AcDbCircle
 10
225.312043839628
 20
327.0462252221428
 30
0.0
 40
6.0
100
AcDbArc
 50
0.0
 51
90.00000000000001
  0
LINE
  5
42A
330
1F
100
AcDbEntity
  8
LAY-1
  6
CONTINUOUS
 62
     2
100
AcDbLine
 10
231.312043839628
 20
327.0462252221428
 30
0.0
 11
231.312043839628
 21
255.44622522217
 31
0.0
  0
LINE
  5
42B
330
1F
100
AcDbEntity
  8
LAY-1
  6
CONTINUOUS
 62
     2
100
AcDbLine
 10
244.4039269316705
 20
387.5462252223999
 30
0.0
 11
244.4039269316705
 21
364.68367631758
 31
0.0
  0
LINE
  5
42C
330
1F
100
AcDbEntity
  8
LAY-1
  6
CONTINUOUS
 62
     2
100
AcDbLine
 10
266.3120438396281
 20
380.54622522213
 30
0.0
 11
272.8120438396281
 21
380.54622522213
 31
0.0
  0
ARC
  5
42D
330
1F
100
AcDbEntity
  8
LAY-1
  6
CONTINUOUS
 62
     2
100
AcDbCircle
 10
237.8120438396221
 20
275.3035845350377
 30
0.0
 40
3.0
100
AcDbArc
 50
135.0000000000004
 51
179.9999999999561
  0
LINE
  5
42E
330
1F
100
AcDbEntity
  8
LAY-1
  6
CONTINUOUS
 62
     2
100
AcDbLine
 10
234.8120438396321
 20
267.3462252221399
 30
0.0
 11
234.8120438396321
 21
258.946225222174
 31
0.0
  0
ARC
  5
42F
330
1F
100
AcDbEntity
  8
LAY-1
  6
CONTINUOUS
 62
     2
100
AcDbCircle
 10
246.812043839628
 20
277.3462252221399
 30
0.0
 40
2.0
100
AcDbArc
 50
270.0
 51
0.0
  0
ARC
  5
430
330
1F
100
AcDbEntity
  8
LAY-1
  6
CONTINUOUS
 62
     2
100
AcDbCircle
 10
246.812043839628
 20
265.3462252221399
 30
0.0
 40
2.0
100
AcDbArc
 50
0.0
 51
90.00000000000001
  0
LINE
  5
431
330
1F
100
AcDbEntity
  8
LAY-1
  6
CONTINUOUS
 62
     2
100
AcDbLine
 10
232.312043839629
 20
275.3462252221399
 30
0.0
 11
246.812043839628
 21
275.3462252221399
 31
0.0
  0
ARC
  5
432
330
1F
100
AcDbEntity
  8
LAY-1
  6
CONTINUOUS
 62
     2
100
AcDbCircle
 10
262.2735252364438
 20
346.04622522214
 30
0.0
 40
2.0
100
AcDbArc
 50
213.2564312859701
 51
270.0
  0
ARC
  5
433
330
1F
100
AcDbEntity
  8
LAY-1
  6
CONTINUOUS
 62
     2
100
AcDbCircle
 10
263.3120438396281
 20
346.04622522214
 30
0.0
 40
2.0
100
AcDbArc
 50
270.0
 51
0.0
  0
LINE
  5
434
330
1F
100
AcDbEntity
  8
LAY-1
  6
CONTINUOUS
 62
     2
100
AcDbLine
 10
262.2735252364438
 20
344.04622522214
 30
0.0
 11
263.3120438396281
 21
344.04622522214
 31
0.0
  0
ARC
  5
435
330
1F
100
AcDbEntity
  8
LAY-1
  6
CONTINUOUS
 62
     2
100
AcDbCircle
 10
262.2735252364438
 20
329.04622522214
 30
0.0
 40
2.0
100
AcDbArc
 50
90.00000000000001
 51
146.7435687140297
  0
LINE
  5
436
330
1F
100
AcDbEntity
  8
LAY-1
  6
CONTINUOUS
 62
     2
100
AcDbLine
 10
262.2735252364438
 20
331.04622522214
 30
0.0
 11
263.3120438396281
 21
331.04622522214
 31
0.0
  0
ARC
  5
437
330
1F
100
AcDbEntity
  8
LAY-1
  6
CONTINUOUS
 62
     2
100
AcDbCircle
 10
263.3120438396281
 20
329.04622522214
 30
0.0
 40
2.0
100
AcDbArc
 50
0.0
 51
90.00000000000001
  0
LINE
  5
438
330
1F
100
AcDbEntity
  8
LAY-1
  6
CONTINUOUS
 62
     2
100
AcDbLine
 10
262.2735252364438
 20
331.04622522214
 30
0.0
 11
263.3120438396281
 21
331.04622522214
 31
0.0
  0
LINE
  5
439
330
1F
100
AcDbEntity
  8
LAY-1
  6
CONTINUOUS
 62
     2
100
AcDbLine
 10
265.8120438396303
 20
228.5462252220544
 30
0.0
 11
265.8120438396303
 21
215.54622522202
 31
0.0
  0
LINE
  5
43A
330
1F
100
AcDbEntity
  8
LAY-1
  6
CONTINUOUS
 62
     2
100
AcDbLine
 10
226.8120438396304
 20
228.5462252220529
 30
0.0
 11
226.8120438396304
 21
215.54622522202
 31
0.0
  0
LINE
  5
43B
330
1F
100
AcDbEntity
  8
LAY-1
  6
CONTINUOUS
 62
     2
100
AcDbLine
 10
226.8120438396304
 20
225.54622522202
 30
0.0
 11
265.8120438396303
 21
225.54622522202
 31
0.0
  0
LINE
  5
43C
330
1F
100
AcDbEntity
  8
LAY-1
  6
CONTINUOUS
 62
     2
100
AcDbLine
 10
265.8120438396303
 20
215.54622522202
 30
0.0
 11
226.8120438396304
 21
215.54622522202
 31
0.0
  0
LINE
  5
43D
330
1F
100
AcDbEntity
  8
LAY-1
  6
CONTINUOUS
 62
     1
100
AcDbLine
 10
226.8120438396304
 20
216.54622522208
 30
0.0
 11
265.8120438396303
 21
216.54622522208
 31
0.0
  0
LINE
  5
43E
330
1F
100
AcDbEntity
  8
LAY-1
  6
CONTINUOUS
 62
     1
100
AcDbLine
 10
226.8120438396304
 20
224.54622522199
 30
0.0
 11
265.8120438396303
 21
224.54622522199
 31
0.0
  0
LINE
  5
43F
330
1F
100
AcDbEntity
  8
LAY-1
  6
CONTINUOUS
 62
     2
100
AcDbLine
 10
238.8120438396278
 20
388.5462252224023
 30
0.0
 11
226.29474110273
 21
388.5462252224023
 31
0.0
  0
LINE
  5
440
330
1F
100
AcDbEntity
  8
LAY-1
  6
CONTINUOUS
 62
     2
100
AcDbLine
 10
238.8120438396278
 20
388.5462252224023
 30
0.0
 11
251.312043839628
 21
388.5462252224023
 31
0.0
  0
ARC
  5
441
330
1F
100
AcDbEntity
  8
LAY-1
  6
CONTINUOUS
 62
     2
100
AcDbCircle
 10
251.312043839628
 20
387.5462252224023
 30
0.0
 40
1.0
100
AcDbArc
 50
0.0
 51
90.00000000000001
  0
ARC
  5
442
330
1F
100
AcDbEntity
  8
LAY-1
  6
CONTINUOUS
 62
     2
100
AcDbCircle
 10
226.3120438396278
 20
387.5462252224023
 30
0.0
 40
1.0
100
AcDbArc
 50
90.00000000000001
 51
180.0
  0
LINE
  5
443
330
1F
100
AcDbEntity
  8
LAY-1
  6
CONTINUOUS
 62
     2
100
AcDbLine
 10
225.3120438396278
 20
387.5462252223999
 30
0.0
 11
225.3120438396278
 21
375.87465234689
 31
0.0
  0
LINE
  5
444
330
1F
100
AcDbEntity
  8
LAY-1
  6
EXLTYPE2
 62
     1
100
AcDbLine
 10
246.312043839628
 20
290.01367631758
 30
0.0
 11
246.312043839631
 21
210.88367631755
 31
0.0
  0
LINE
  5
445
330
1F
100
AcDbEntity
  8
LAY-1
  6
CONTINUOUS
 62
     2
100
AcDbLine
 10
252.312043839628
 20
387.5462252223999
 30
0.0
 11
252.312043839628
 21
375.45742400359
 31
0.0
  0
LINE
  5
446
330
1F
100
AcDbEntity
  8
LAY-1
  6
CONTINUOUS
 62
     2
100
AcDbLine
 10
246.812043839628
 20
267.3462252221399
 30
0.0
 11
232.3120438396292
 21
267.3462252221399
 31
0.0
  0
ARC
  5
447
330
1F
100
AcDbEntity
  8
LAY-1
  6
CONTINUOUS
 62
     2
100
AcDbCircle
 10
299.3120438396271
 20
296.6320116597786
 30
0.0
 40
1.0
100
AcDbArc
 50
0.0
 51
45.00000000012437
  0
LINE
  5
448
330
1F
100
AcDbEntity
  8
LAY-1
  6
CONTINUOUS
 62
     2
100
AcDbLine
 10
300.3120438396271
 20
296.6320116597786
 30
0.0
 11
300.3120438396271
 21
272.460438784473
 31
0.0
  0
ARC
  5
449
330
1F
100
AcDbEntity
  8
LAY-1
  6
CONTINUOUS
 62
     2
100
AcDbCircle
 10
299.3120438396271
 20
272.460438784473
 30
0.0
 40
1.0
100
AcDbArc
 50
314.9999999999954
 51
0.0
  0
LINE
  5
44A
330
1F
100
AcDbEntity
  8
LAY-1
  6
CONTINUOUS
 62
     2
100
AcDbLine
 10
300.0191506208124
 20
297.3391184409666
 30
0.0
 11
296.9592763445547
 21
300.3989927172102
 31
0.0
  0
ARC
  5
44B
330
1F
100
AcDbEntity
  8
LAY-1
  6
CONTINUOUS
 62
     2
100
AcDbCircle
 10
294.8379560010002
 20
298.2776723736457
 30
0.0
 40
3.000000000000002
100
AcDbArc
 50
45.00000000013205
 51
85.00000000013286
  0
ARC
  5
44C
330
1F
100
AcDbEntity
  8
LAY-1
  6
CONTINUOUS
 62
     2
100
AcDbCircle
 10
294.837956001032
 20
270.8147780706236
 30
0.0
 40
3.000000000000002
100
AcDbArc
 50
274.9999999999999
 51
315.0000000000016
  0
ARC
  5
44D
330
1F
100
AcDbEntity
  8
LAY-1
  6
CONTINUOUS
 62
     2
100
AcDbCircle
 10
291.8120438396571
 20
302.5576847347539
 30
0.0
 40
1.0
100
AcDbArc
 50
180.0
 51
265.0000000001315
  0
ARC
  5
44E
330
1F
100
AcDbEntity
  8
LAY-1
  6
CONTINUOUS
 62
     2
100
AcDbCircle
 10
282.3120438396253
 20
248.5462252221492
 30
0.0
 40
1.0
100
AcDbArc
 50
270.0000000000002
 51
0.0
  0
ARC
  5
44F
330
1F
100
AcDbEntity
  8
LAY-1
  6
CONTINUOUS
 62
     2
100
AcDbCircle
 10
285.3120438396253
 20
264.9622695590402
 30
0.0
 40
2.0
100
AcDbArc
 50
94.99999999999949
 51
180.0
  0
LINE
  5
450
330
1F
100
AcDbEntity
  8
LAY-1
  6
CONTINUOUS
 62
     2
100
AcDbLine
 10
277.8120438397053
 20
284.5462252221446
 30
0.0
 11
277.8120438395975
 21
380.0462252221292
 31
0.0
  0
ARC
  5
451
330
1F
100
AcDbEntity
  8
LAY-1
  6
CONTINUOUS
 62
     2
100
AcDbCircle
 10
273.5120438396151
 20
257.0462252220401
 30
0.0
 40
8.0
100
AcDbArc
 50
0.0
 51
29.99999999999972
  0
ARC
  5
452
330
1F
100
AcDbEntity
  8
LAY-1
  6
CONTINUOUS
 62
     2
100
AcDbCircle
 10
279.1412089642139
 20
260.2962252220401
 30
0.0
 40
1.5
100
AcDbArc
 50
29.99999999999944
 51
90.00000000000001
  0
ARC
  5
453
330
1F
100
AcDbEntity
  8
LAY-1
  6
CONTINUOUS
 62
     2
100
AcDbCircle
 10
273.5120438396151
 20
257.0462252220401
 30
0.0
 40
8.0
100
AcDbArc
 50
329.9999999999999
 51
0.0
  0
ARC
  5
454
330
1F
100
AcDbEntity
  8
LAY-1
  6
CONTINUOUS
 62
     2
100
AcDbCircle
 10
279.1412089642139
 20
253.7962252220401
 30
0.0
 40
1.5
100
AcDbArc
 50
269.9999999999957
 51
329.9999999999985
  0
LINE
  5
455
330
1F
100
AcDbEntity
  8
LAY-1
  6
CONTINUOUS
 62
     2
100
AcDbLine
 10
279.1412089642139
 20
261.7962252220401
 30
0.0
 11
277.8120438396153
 21
261.7962252220401
 31
0.0
  0
LINE
  5
456
330
1F
100
AcDbEntity
  8
LAY-1
  6
CONTINUOUS
 62
     2
100
AcDbLine
 10
279.1412089642139
 20
252.2962252220401
 30
0.0
 11
277.8120438396153
 21
252.2962252220401
 31
0.0
  0
ARC
  5
457
330
1F
100
AcDbEntity
  8
LAY-1
  6
CONTINUOUS
 62
     2
100
AcDbCircle
 10
277.3120438396303
 20
248.0462252221492
 30
0.0
 40
0.5
100
AcDbArc
 50
270.0000000000002
 51
0.0
  0
ARC
  5
458
330
1F
100
AcDbEntity
  8
LAY-1
  6
CONTINUOUS
 62
     2
100
AcDbCircle
 10
279.3120438396303
 20
249.9131472549125
 30
0.0
 40
1.5
100
AcDbArc
 50
105.8266201318718
 51
180.0
  0
ARC
  5
459
330
1F
100
AcDbEntity
  8
LAY-1
  6
CONTINUOUS
 62
     2
100
AcDbCircle
 10
277.8120438396303
 20
255.2046498770415
 30
0.0
 40
4.0
100
AcDbArc
 50
285.8266201318719
 51
0.0
  0
LINE
  5
45A
330
1F
100
AcDbEntity
  8
LAY-1
  6
CONTINUOUS
 62
     2
100
AcDbLine
 10
277.8120438396303
 20
248.0462252221492
 30
0.0
 11
277.812043839588
 21
284.5462252221446
 31
0.0
  0
LINE
  5
45B
330
1F
100
AcDbEntity
  8
LAY-1
  6
CONTINUOUS
 62
     2
100
AcDbLine
 10
281.8120438395625
 20
313.8878005671973
 30
0.0
 11
281.8120438395962
 21
284.5462252220942
 31
0.0
  0
LINE
  5
45C
330
1F
100
AcDbEntity
  8
LAY-1
  6
CONTINUOUS
 62
     2
100
AcDbLine
 10
296.1871788821949
 20
269.7250760831399
 30
0.0
 11
296.1871788821949
 21
300.2150760831401
 31
0.0
  0
LINE
  5
45D
330
1F
100
AcDbEntity
  8
LAY-1
  6
CONTINUOUS
 62
     2
100
AcDbLine
 10
300.0191506208138
 20
271.7533320032863
 30
0.0
 11
296.9592763445916
 21
268.6934577270641
 31
0.0
  0
LINE
  5
45E
330
1F
100
AcDbEntity
  8
LAY-1
  6
CONTINUOUS
 62
     2
100
AcDbLine
 10
290.8120438396571
 20
295.3005319270347
 30
0.0
 11
281.812043839583
 21
296.0879298987534
 31
0.0
  0
LINE
  5
45F
330
1F
100
AcDbEntity
  8
LAY-1
  6
CONTINUOUS
 62
     2
100
AcDbLine
 10
295.0994232292359
 20
301.2662564679213
 30
0.0
 11
291.7248880969167
 21
301.5614900366614
 31
0.0
  0
LINE
  5
460
330
1F
100
AcDbEntity
  8
LAY-1
  6
CONTINUOUS
 62
     2
100
AcDbLine
 10
281.8120438396303
 20
255.2046498770415
 30
0.0
 11
281.8120438395962
 21
284.5462252221446
 31
0.0
  0
LINE
  5
461
330
1F
100
AcDbEntity
  8
LAY-1
  6
CONTINUOUS
 62
     2
100
AcDbLine
 10
283.3120438396253
 20
276.8225529929683
 30
0.0
 11
281.8120438396066
 21
276.6913199976776
 31
0.0
  0
LINE
  5
462
330
1F
100
AcDbEntity
  8
LAY-1
  6
CONTINUOUS
 62
     2
100
AcDbLine
 10
283.3120438396253
 20
276.8225529929401
 30
0.0
 11
283.3120438396253
 21
248.5462252221492
 31
0.0
  0
LINE
  5
463
330
1F
100
AcDbEntity
  8
LAY-1
  6
CONTINUOUS
 62
     2
100
AcDbLine
 10
295.099423229275
 20
267.826193976348
 30
0.0
 11
285.1377323541263
 21
266.9546589552229
 31
0.0
  0
LINE
  5
464
330
1F
100
AcDbEntity
  8
LAY-1
  6
CONTINUOUS
 62
     2
100
AcDbLine
 10
290.8120438396571
 20
295.3005319270401
 30
0.0
 11
290.8120438396571
 21
321.0462252221369
 31
0.0
  0
ARC
  5
465
330
1F
100
AcDbEntity
  8
LAY-1
  6
CONTINUOUS
 62
     2
100
AcDbCircle
 10
277.3120438395972
 20
380.0462252221292
 30
0.0
 40
0.5
100
AcDbArc
 50
0.0
 51
90.00000000000001
  0
ARC
  5
466
330
1F
100
AcDbEntity
  8
LAY-1
  6
CONTINUOUS
 62
     2
100
AcDbCircle
 10
273.5120438396052
 20
374.5462252220401
 30
0.0
 40
8.0
100
AcDbArc
 50
0.0
 51
29.99999999999995
  0
ARC
  5
467
330
1F
100
AcDbEntity
  8
LAY-1
  6
CONTINUOUS
 62
     2
100
AcDbCircle
 10
279.141208964204
 20
377.7962252220401
 30
0.0
 40
1.5
100
AcDbArc
 50
29.99999999999944
 51
90.00000000000001
  0
ARC
  5
468
330
1F
100
AcDbEntity
  8
LAY-1
  6
CONTINUOUS
 62
     2
100
AcDbCircle
 10
273.5120438396052
 20
374.5462252220401
 30
0.0
 40
8.0
100
AcDbArc
 50
330.0000000000003
 51
0.0
  0
ARC
  5
469
330
1F
100
AcDbEntity
  8
LAY-1
  6
CONTINUOUS
 62
     2
100
AcDbCircle
 10
279.141208964204
 20
371.2962252220401
 30
0.0
 40
1.5
100
AcDbArc
 50
270.0000000000002
 51
329.9999999999995
  0
LINE
  5
46A
330
1F
100
AcDbEntity
  8
LAY-1
  6
CONTINUOUS
 62
     2
100
AcDbLine
 10
279.141208964204
 20
379.2962252220401
 30
0.0
 11
277.8120438396054
 21
379.2962252220401
 31
0.0
  0
LINE
  5
46B
330
1F
100
AcDbEntity
  8
LAY-1
  6
CONTINUOUS
 62
     2
100
AcDbLine
 10
279.141208964204
 20
369.7962252220401
 30
0.0
 11
277.8120438396054
 21
369.7962252220401
 31
0.0
  0
ARC
  5
46C
330
1F
100
AcDbEntity
  8
LAY-1
  6
CONTINUOUS
 62
     2
100
AcDbCircle
 10
273.5120438396651
 20
323.5462252220402
 30
0.0
 40
8.0
100
AcDbArc
 50
0.0
 51
29.99999999999995
  0
ARC
  5
46D
330
1F
100
AcDbEntity
  8
LAY-1
  6
CONTINUOUS
 62
     2
100
AcDbCircle
 10
279.1412089642639
 20
326.7962252220402
 30
0.0
 40
1.5
100
AcDbArc
 50
29.99999999999944
 51
90.00000000000001
  0
ARC
  5
46E
330
1F
100
AcDbEntity
  8
LAY-1
  6
CONTINUOUS
 62
     2
100
AcDbCircle
 10
273.5120438396651
 20
323.5462252220402
 30
0.0
 40
8.0
100
AcDbArc
 50
330.0000000000003
 51
0.0
  0
ARC
  5
46F
330
1F
100
AcDbEntity
  8
LAY-1
  6
CONTINUOUS
 62
     2
100
AcDbCircle
 10
279.1412089642639
 20
320.2962252220402
 30
0.0
 40
1.5
100
AcDbArc
 50
270.0000000000002
 51
329.9999999999995
  0
LINE
  5
470
330
1F
100
AcDbEntity
  8
LAY-1
  6
CONTINUOUS
 62
     2
100
AcDbLine
 10
279.1412089642639
 20
328.2962252220402
 30
0.0
 11
277.8120438396649
 21
328.2962252220402
 31
0.0
  0
LINE
  5
471
330
1F
100
AcDbEntity
  8
LAY-1
  6
CONTINUOUS
 62
     2
100
AcDbLine
 10
279.1412089642639
 20
318.7962252220402
 30
0.0
 11
277.8120438396649
 21
318.7962252220402
 31
0.0
  0
ARC
  5
472
330
1F
100
AcDbEntity
  8
LAY-1
  6
CONTINUOUS
 62
     2
100
AcDbCircle
 10
277.8120438395621
 20
313.8878005671879
 30
0.0
 40
4.0
100
AcDbArc
 50
0.000000000136765
 51
74.17337986826087
  0
ARC
  5
473
330
1F
100
AcDbEntity
  8
LAY-1
  6
CONTINUOUS
 62
     2
100
AcDbCircle
 10
279.3120438395503
 20
319.1793031893205
 30
0.0
 40
1.5
100
AcDbArc
 50
180.0
 51
254.17337986826
  0
ARC
  5
474
330
1F
100
AcDbEntity
  8
LAY-1
  6
CONTINUOUS
 62
     2
100
AcDbCircle
 10
306.3120438396448
 20
324.5182651545761
 30
0.0
 40
1.0
100
AcDbArc
 50
272.0000000000007
 51
0.0
  0
LINE
  5
475
330
1F
100
AcDbEntity
  8
LAY-1
  6
CONTINUOUS
 62
     2
100
AcDbLine
 10
307.312043839645
 20
376.5741852896977
 30
0.0
 11
307.3120438396448
 21
324.5182651545761
 31
0.0
  0
ARC
  5
476
330
1F
100
AcDbEntity
  8
LAY-1
  6
CONTINUOUS
 62
     2
100
AcDbCircle
 10
306.312043839645
 20
376.5741852896977
 30
0.0
 40
1.0
100
AcDbArc
 50
0.0
 51
87.9999999999996
  0
LINE
  5
477
330
1F
100
AcDbEntity
  8
LAY-1
  6
CONTINUOUS
 62
     2
100
AcDbLine
 10
292.812043839644
 20
380.0462252221369
 30
0.0
 11
288.812043839644
 21
380.0462252221369
 31
0.0
  0
LINE
  5
478
330
1F
100
AcDbEntity
  8
LAY-1
  6
CONTINUOUS
 62
     2
100
AcDbLine
 10
294.3120438396422
 20
378.546225222136
 30
0.0
 11
292.812043839644
 21
380.0462252221342
 31
0.0
  0
LINE
  5
479
330
1F
100
AcDbEntity
  8
LAY-1
  6
CONTINUOUS
 62
     2
100
AcDbLine
 10
294.312043839644
 20
377.9938440678976
 30
0.0
 11
306.3469433363475
 21
377.5735761167167
 31
0.0
  0
LINE
  5
47A
330
1F
100
AcDbEntity
  8
LAY-1
  6
CONTINUOUS
 62
     2
100
AcDbLine
 10
292.8120438396439
 20
321.0462252221369
 30
0.0
 11
288.8120438396439
 21
321.046225222137
 31
0.0
  0
LINE
  5
47B
330
1F
100
AcDbEntity
  8
LAY-1
  6
CONTINUOUS
 62
     2
100
AcDbLine
 10
294.3120438396421
 20
322.5462252221378
 30
0.0
 11
292.8120438396439
 21
321.0462252221392
 31
0.0
  0
LINE
  5
47C
330
1F
100
AcDbEntity
  8
LAY-1
  6
CONTINUOUS
 62
     2
100
AcDbLine
 10
294.3120438396439
 20
323.0986063763763
 30
0.0
 11
306.3469433363474
 21
323.5188743275572
 31
0.0
  0
LINE
  5
47D
330
1F
100
AcDbEntity
  8
LAY-1
  6
CONTINUOUS
 62
     2
100
AcDbLine
 10
288.8120438396439
 20
321.046225222137
 30
0.0
 11
288.812043839644
 21
350.5462252221401
 31
0.0
  0
LINE
  5
47E
330
1F
100
AcDbEntity
  8
LAY-1
  6
CONTINUOUS
 62
     2
100
AcDbLine
 10
288.812043839644
 20
380.0462252221369
 30
0.0
 11
288.812043839644
 21
350.5462252221401
 31
0.0
  0
LINE
  5
47F
330
1F
100
AcDbEntity
  8
LAY-1
  6
CONTINUOUS
 62
     2
100
AcDbLine
 10
294.312043839644
 20
378.5462252221342
 30
0.0
 11
294.312043839644
 21
350.5462252221369
 31
0.0
  0
LINE
  5
480
330
1F
100
AcDbEntity
  8
LAY-1
  6
CONTINUOUS
 62
     2
100
AcDbLine
 10
294.3120438396439
 20
322.5462252221396
 30
0.0
 11
294.312043839644
 21
350.5462252221401
 31
0.0
  0
LINE
  5
481
330
1F
100
AcDbEntity
  8
LAY-1
  6
CONTINUOUS
 62
     2
100
AcDbLine
 10
292.812043839655
 20
380.0462252221401
 30
0.0
 11
292.8120438396548
 21
321.0462252221369
 31
0.0
  0
LINE
  5
482
330
1F
100
AcDbEntity
  8
LAY-1
  6
CONTINUOUS
 62
     2
100
AcDbLine
 10
288.8120438396439
 20
324.7977953194947
 30
0.0
 11
281.4499910835292
 21
324.5407067722105
 31
0.0
  0
LINE
  5
483
330
1F
100
AcDbEntity
  8
LAY-1
  6
CONTINUOUS
 62
     2
100
AcDbLine
 10
281.2548153929837
 20
376.5585593573648
 30
0.0
 11
288.812043839644
 21
376.2946551247824
 31
0.0
  0
LINE
  5
484
330
1F
100
AcDbEntity
  8
LAY-1
  6
CONTINUOUS
 62
     2
100
AcDbLine
 10
277.3120438395972
 20
380.5462252221392
 30
0.0
 11
272.8120438396272
 21
380.5462252221392
 31
0.0
  0
LINE
  5
485
330
1F
100
AcDbEntity
  8
LAY-1
  6
CONTINUOUS
 62
     2
100
AcDbLine
 10
272.8120438396271
 20
247.5462252221492
 30
0.0
 11
282.3120438396253
 21
247.5462252221492
 31
0.0
  0
ARC
  5
486
330
1F
100
AcDbEntity
  8
LAY-1
  6
EXLTYPE3
 62
     1
100
AcDbCircle
 10
247.5620438402415
 20
196.7462252225215
 30
0.0
 40
0.4
100
AcDbArc
 50
270.0000000000002
 51
0.0000000000001719
  0
ARC
  5
487
330
1F
100
AcDbEntity
  8
LAY-1
  6
EXLTYPE3
 62
     1
100
AcDbCircle
 10
247.5620438402412
 20
196.7462252225215
 30
0.0
 40
0.4
100
AcDbArc
 50
180.0000000000002
 51
270.0000000000002
  0
LINE
  5
488
330
1F
100
AcDbEntity
  8
LAY-1
  6
EXLTYPE3
 62
     1
100
AcDbLine
 10
247.9620438402413
 20
196.7462252225215
 30
0.0
 11
247.9620438402413
 21
201.9462252225215
 31
0.0
  0
ARC
  5
489
330
1F
100
AcDbEntity
  8
LAY-1
  6
EXLTYPE3
 62
     1
100
AcDbCircle
 10
247.5620438402415
 20
201.9462252225215
 30
0.0
 40
0.4
100
AcDbArc
 50
0.0000000000001719
 51
90.00000000000014
  0
LINE
  5
48A
330
1F
100
AcDbEntity
  8
LAY-1
  6
EXLTYPE3
 62
     1
100
AcDbLine
 10
247.1620438402412
 20
196.7462252225215
 30
0.0
 11
247.1620438402412
 21
201.9462252225215
 31
0.0
  0
ARC
  5
48B
330
1F
100
AcDbEntity
  8
LAY-1
  6
EXLTYPE3
 62
     1
100
AcDbCircle
 10
247.5620438402412
 20
201.9462252225215
 30
0.0
 40
0.4
100
AcDbArc
 50
90.00000000000014
 51
180.0000000000002
  0
ARC
  5
48C
330
1F
100
AcDbEntity
  8
LAY-1
  6
EXLTYPE3
 62
     1
100
AcDbCircle
 10
245.062043840241
 20
196.7462252225215
 30
0.0
 40
0.4
100
AcDbArc
 50
180.0000000000002
 51
270.0000000000002
  0
ARC
  5
48D
330
1F
100
AcDbEntity
  8
LAY-1
  6
EXLTYPE3
 62
     1
100
AcDbCircle
 10
245.0620438402412
 20
196.7462252225215
 30
0.0
 40
0.4
100
AcDbArc
 50
270.0000000000002
 51
0.0000000000001719
  0
LINE
  5
48E
330
1F
100
AcDbEntity
  8
LAY-1
  6
EXLTYPE3
 62
     1
100
AcDbLine
 10
244.6620438402409
 20
196.7462252225215
 30
0.0
 11
244.6620438402409
 21
201.9462252225215
 31
0.0
  0
ARC
  5
48F
330
1F
100
AcDbEntity
  8
LAY-1
  6
EXLTYPE3
 62
     1
100
AcDbCircle
 10
245.062043840241
 20
201.9462252225215
 30
0.0
 40
0.4
100
AcDbArc
 50
90.00000000000014
 51
180.0000000000002
  0
LINE
  5
490
330
1F
100
AcDbEntity
  8
LAY-1
  6
EXLTYPE3
 62
     1
100
AcDbLine
 10
245.4620438402411
 20
196.7462252225215
 30
0.0
 11
245.4620438402411
 21
201.9462252225215
 31
0.0
  0
ARC
  5
491
330
1F
100
AcDbEntity
  8
LAY-1
  6
EXLTYPE3
 62
     1
100
AcDbCircle
 10
245.0620438402412
 20
201.9462252225215
 30
0.0
 40
0.4
100
AcDbArc
 50
0.0000000000001719
 51
90.00000000000014
  0
ARC
  5
492
330
1F
100
AcDbEntity
  8
LAY-1
  6
EXLTYPE3
 62
     1
100
AcDbCircle
 10
222.8120438396601
 20
206.4462252224499
 30
0.0
 40
1.0
100
AcDbArc
 50
180.0000000000002
 51
270.0000000000002
  0
ARC
  5
493
330
1F
100
AcDbEntity
  8
LAY-1
  6
EXLTYPE3
 62
     1
100
AcDbCircle
 10
269.8120438396601
 20
206.4462252224499
 30
0.0
 40
1.0
100
AcDbArc
 50
270.0000000000002
 51
0.0
  0
LINE
  5
494
330
1F
100
AcDbEntity
  8
LAY-1
  6
EXLTYPE3
 62
     1
100
AcDbLine
 10
222.8120438396601
 20
205.4462252224499
 30
0.0
 11
269.8120438396601
 21
205.4462252224499
 31
0.0
  0
LINE
  5
495
330
1F
100
AcDbEntity
  8
LAY-1
  6
EXLTYPE3
 62
     1
100
AcDbLine
 10
253.1465676188201
 20
195.3462252224499
 30
0.0
 11
253.1465676188201
 21
205.4462252224499
 31
0.0
  0
LINE
  5
496
330
1F
100
AcDbEntity
  8
LAY-1
  6
EXLTYPE3
 62
     1
100
AcDbLine
 10
239.4775200605001
 20
195.3462252224499
 30
0.0
 11
239.4775200605001
 21
205.4462252224499
 31
0.0
  0
LINE
  5
497
330
1F
100
AcDbEntity
  8
LAY-1
  6
EXLTYPE3
 62
     1
100
AcDbLine
 10
262.8120438396601
 20
194.8462252224499
 30
0.0
 11
262.8120438396601
 21
205.4462252224499
 31
0.0
  0
ARC
  5
498
330
1F
100
AcDbEntity
  8
LAY-1
  6
EXLTYPE3
 62
     1
100
AcDbCircle
 10
262.3120438396601
 20
194.8462252224499
 30
0.0
 40
0.5
100
AcDbArc
 50
270.0
 51
0.0
  0
ARC
  5
499
330
1F
100
AcDbEntity
  8
LAY-1
  6
EXLTYPE3
 62
     1
100
AcDbCircle
 10
230.312043839662
 20
194.8462252224499
 30
0.0
 40
0.5
100
AcDbArc
 50
180.0000000000002
 51
270.0
  0
LINE
  5
49A
330
1F
100
AcDbEntity
  8
LAY-1
  6
EXLTYPE3
 62
     1
100
AcDbLine
 10
230.312043839662
 20
194.3462252224499
 30
0.0
 11
262.3120438396601
 21
194.3462252224499
 31
0.0
  0
LINE
  5
49B
330
1F
100
AcDbEntity
  8
LAY-1
  6
EXLTYPE3
 62
     1
100
AcDbLine
 10
229.8120438396601
 20
194.8462252224499
 30
0.0
 11
229.8120438396601
 21
205.4462252224499
 31
0.0
  0
LINE
  5
49C
330
1F
100
AcDbEntity
  8
LAY-1
  6
EXLTYPE3
 62
     1
100
AcDbLine
 10
221.8120438396601
 20
206.4462252224499
 30
0.0
 11
221.8120438396601
 21
223.9462252224499
 31
0.0
  0
LINE
  5
49D
330
1F
100
AcDbEntity
  8
LAY-1
  6
EXLTYPE3
 62
     1
100
AcDbLine
 10
270.8120438396601
 20
223.9462252224499
 30
0.0
 11
221.8120438396601
 21
223.9462252224499
 31
0.0
  0
LINE
  5
49E
330
1F
100
AcDbEntity
  8
LAY-1
  6
EXLTYPE3
 62
     1
100
AcDbLine
 10
236.163811561522
 20
206.4462252224499
 30
0.0
 11
236.163811561522
 21
223.9462252224499
 31
0.0
  0
LINE
  5
49F
330
1F
100
AcDbEntity
  8
LAY-1
  6
EXLTYPE3
 62
     1
100
AcDbLine
 10
256.4602761178002
 20
206.4462252224499
 30
0.0
 11
256.4602761178002
 21
223.9462252224499
 31
0.0
  0
LINE
  5
4A0
330
1F
100
AcDbEntity
  8
LAY-1
  6
EXLTYPE3
 62
     1
100
AcDbLine
 10
270.8120438396601
 20
206.4462252224499
 30
0.0
 11
270.8120438396601
 21
223.9462252224499
 31
0.0
  0
LINE
  5
4A1
330
1F
100
AcDbEntity
  8
LAY-1
  6
CONTINUOUS
 62
     2
100
AcDbLine
 10
576.629984551092
 20
380.5462252221299
 30
0.0
 11
576.629984551092
 21
247.5462252221699
 31
0.0
  0
ARC
  5
4A2
330
1F
100
AcDbEntity
  8
LAY-1
  6
CONTINUOUS
 62
     2
100
AcDbCircle
 10
595.129984551092
 20
300.1228459498844
 30
0.0
 40
5.5
100
AcDbArc
 50
0.0
 51
86.99999999999915
  0
LINE
  5
4A3
330
1F
100
AcDbEntity
  8
LAY-1
  6
CONTINUOUS
 62
     2
100
AcDbLine
 10
600.629984551092
 20
256.8914871176385
 30
0.0
 11
600.629984551092
 21
300.1228459498844
 31
0.0
  0
ARC
  5
4A4
330
1F
100
AcDbEntity
  8
LAY-1
  6
CONTINUOUS
 62
     2
100
AcDbCircle
 10
596.129984551092
 20
372.4592515225305
 30
0.0
 40
3.000000000000002
100
AcDbArc
 50
0.0
 51
88.00000000000068
  0
ARC
  5
4A5
330
1F
100
AcDbEntity
  8
LAY-1
  6
CONTINUOUS
 62
     2
100
AcDbCircle
 10
626.129984551092
 20
375.8746523468918
 30
0.0
 40
2.0
100
AcDbArc
 50
180.0
 51
224.9999999999424
  0
LINE
  5
4A6
330
1F
100
AcDbEntity
  8
LAY-1
  6
CONTINUOUS
 62
     2
100
AcDbLine
 10
627.0441981134662
 20
372.1320116597667
 30
0.0
 11
624.7157709887175
 21
374.4604387845201
 31
0.0
  0
ARC
  5
4A7
330
1F
100
AcDbEntity
  8
LAY-1
  6
CONTINUOUS
 62
     2
100
AcDbCircle
 10
625.6299845510918
 20
370.717798097395
 30
0.0
 40
2.0
100
AcDbArc
 50
0.0
 51
44.9999999999459
  0
ARC
  5
4A8
330
1F
100
AcDbEntity
  8
LAY-1
  6
CONTINUOUS
 62
     2
100
AcDbCircle
 10
624.4053444829809
 20
370.5016020127987
 30
0.0
 40
4.269263277481288
100
AcDbArc
 50
96.91599327916681
 51
180.0
  0
ARC
  5
4A9
330
1F
100
AcDbEntity
  8
LAY-1
  6
CONTINUOUS
 62
     2
100
AcDbCircle
 10
600.129984551092
 20
364.29622522215
 30
0.0
 40
1.0
100
AcDbArc
 50
180.0
 51
270.0
  0
ARC
  5
4AA
330
1F
100
AcDbEntity
  8
LAY-1
  6
CONTINUOUS
 62
     2
100
AcDbCircle
 10
605.629984551092
 20
358.29622522215
 30
0.0
 40
5.0
100
AcDbArc
 50
0.0
 51
90.00000000000001
  0
LINE
  5
4AB
330
1F
100
AcDbEntity
  8
LAY-1
  6
CONTINUOUS
 62
     2
100
AcDbLine
 10
605.629984551092
 20
363.29622522215
 30
0.0
 11
600.129984551092
 21
363.29622522215
 31
0.0
  0
ARC
  5
4AC
330
1F
100
AcDbEntity
  8
LAY-1
  6
CONTINUOUS
 62
     2
100
AcDbCircle
 10
605.629984551092
 20
358.2962252221498
 30
0.0
 40
5.0
100
AcDbArc
 50
270.0
 51
0.0
  0
LINE
  5
4AD
330
1F
100
AcDbEntity
  8
LAY-1
  6
CONTINUOUS
 62
     2
100
AcDbLine
 10
605.629984551092
 20
353.2962252221498
 30
0.0
 11
600.129984551092
 21
353.2962252221498
 31
0.0
  0
ARC
  5
4AE
330
1F
100
AcDbEntity
  8
LAY-1
  6
CONTINUOUS
 62
     2
100
AcDbCircle
 10
624.4053444829809
 20
354.5908484314596
 30
0.0
 40
4.269263277481288
100
AcDbArc
 50
180.0
 51
263.0840067208332
  0
ARC
  5
4AF
330
1F
100
AcDbEntity
  8
LAY-1
  6
CONTINUOUS
 62
     2
100
AcDbCircle
 10
625.6299845510918
 20
354.3746523468633
 30
0.0
 40
2.0
100
AcDbArc
 50
315.0000000000541
 51
0.0
  0
ARC
  5
4B0
330
1F
100
AcDbEntity
  8
LAY-1
  6
CONTINUOUS
 62
     2
100
AcDbCircle
 10
622.3015574263399
 20
351.0462252221312
 30
0.0
 40
2.0
100
AcDbArc
 50
269.9999999999985
 51
315.0000000000541
  0
LINE
  5
4B1
330
1F
100
AcDbEntity
  8
LAY-1
  6
CONTINUOUS
 62
     2
100
AcDbLine
 10
627.0441981134662
 20
352.9604387845178
 30
0.0
 11
623.7157709887143
 21
349.6320116597594
 31
0.0
  0
LINE
  5
4B2
330
1F
100
AcDbEntity
  8
LAY-1
  6
CONTINUOUS
 62
     2
100
AcDbLine
 10
620.1360812054996
 20
370.5016020127987
 30
0.0
 11
620.1360812054996
 21
354.5908484314599
 31
0.0
  0
ARC
  5
4B3
330
1F
100
AcDbEntity
  8
LAY-1
  6
CONTINUOUS
 62
     2
100
AcDbCircle
 10
586.129984551092
 20
316.0881663545024
 30
0.0
 40
2.0
100
AcDbArc
 50
0.0
 51
86.99999999999606
  0
LINE
  5
4B4
330
1F
100
AcDbEntity
  8
LAY-1
  6
CONTINUOUS
 62
     2
100
AcDbLine
 10
590.025312638606
 20
305.897918371775
 30
0.0
 11
595.4178323104283
 21
305.6153083910346
 31
0.0
  0
ARC
  5
4B5
330
1F
100
AcDbEntity
  8
LAY-1
  6
CONTINUOUS
 62
     2
100
AcDbCircle
 10
590.129984551092
 20
307.8951774412841
 30
0.0
 40
2.0
100
AcDbArc
 50
180.0
 51
266.9999999999993
  0
LINE
  5
4B6
330
1F
100
AcDbEntity
  8
LAY-1
  6
CONTINUOUS
 62
     2
100
AcDbLine
 10
587.0252860609844
 20
375.7790232326919
 30
0.0
 11
596.2346830411994
 21
375.4574240035877
 31
0.0
  0
LINE
  5
4B7
330
1F
100
AcDbEntity
  8
LAY-1
  6
CONTINUOUS
 62
     2
100
AcDbLine
 10
586.0253126386059
 20
318.0963966689851
 30
0.0
 11
586.234656463578
 21
318.0854254240116
 31
0.0
  0
LINE
  5
4B8
330
1F
100
AcDbEntity
  8
LAY-1
  6
CONTINUOUS
 62
     2
100
AcDbLine
 10
588.129984551092
 20
316.0881663545024
 30
0.0
 11
588.129984551092
 21
252.9150138930983
 31
0.0
  0
LINE
  5
4B9
330
1F
100
AcDbEntity
  8
LAY-1
  6
CONTINUOUS
 62
     2
100
AcDbLine
 10
622.3015574263399
 20
349.0462252221312
 30
0.0
 11
612.5502947678847
 21
349.0462252221312
 31
0.0
  0
LINE
  5
4BA
330
1F
100
AcDbEntity
  8
LAY-1
  6
CONTINUOUS
 62
     2
100
AcDbLine
 10
599.129984551092
 20
372.4592515225305
 30
0.0
 11
599.129984551092
 21
353.9245645762991
 31
0.0
  0
ARC
  5
4BB
330
1F
100
AcDbEntity
  8
LAY-1
  6
CONTINUOUS
 62
     2
100
AcDbCircle
 10
600.129984551092
 20
352.2962252221498
 30
0.0
 40
1.0
100
AcDbArc
 50
90.00000000000001
 51
144.3067100647006
  0
ARC
  5
4BC
330
1F
100
AcDbEntity
  8
LAY-1
  6
CONTINUOUS
 62
     2
100
AcDbCircle
 10
583.129984551092
 20
379.5462252221299
 30
0.0
 40
1.0
100
AcDbArc
 50
0.0
 51
90.00000000000001
  0
ARC
  5
4BD
330
1F
100
AcDbEntity
  8
LAY-1
  6
CONTINUOUS
 62
     2
100
AcDbCircle
 10
587.129984551092
 20
378.7771957137492
 30
0.0
 40
3.000000000000001
100
AcDbArc
 50
180.0
 51
267.9999999999985
  0
ARC
  5
4BE
330
1F
100
AcDbEntity
  8
LAY-1
  6
CONTINUOUS
 62
     2
100
AcDbCircle
 10
586.129984551092
 20
248.9095245091066
 30
0.0
 40
2.0
100
AcDbArc
 50
93.00000000000071
 51
180.0
  0
ARC
  5
4BF
330
1F
100
AcDbEntity
  8
LAY-1
  6
CONTINUOUS
 62
     2
100
AcDbCircle
 10
583.129984551092
 20
248.5462252221699
 30
0.0
 40
1.0
100
AcDbArc
 50
270.0
 51
0.0
  0
ARC
  5
4C0
330
1F
100
AcDbEntity
  8
LAY-1
  6
CONTINUOUS
 62
     2
100
AcDbCircle
 10
586.129984551092
 20
252.9150138930983
 30
0.0
 40
2.0
100
AcDbArc
 50
273.0000000000007
 51
0.0
  0
LINE
  5
4C1
330
1F
100
AcDbEntity
  8
LAY-1
  6
CONTINUOUS
 62
     2
100
AcDbLine
 10
588.129984551092
 20
257.4215132421099
 30
0.0
 11
600.629984551092
 21
257.4215132421099
 31
0.0
  0
LINE
  5
4C2
330
1F
100
AcDbEntity
  8
LAY-1
  6
CONTINUOUS
 62
     2
100
AcDbLine
 10
584.129984551092
 20
266.0462252221401
 30
0.0
 11
584.129984551092
 21
248.5462252221699
 31
0.0
  0
ARC
  5
4C3
330
1F
100
AcDbEntity
  8
LAY-1
  6
CONTINUOUS
 62
     2
100
AcDbCircle
 10
617.6256732934911
 20
237.8800534901099
 30
0.0
 40
12.06617200397701
100
AcDbArc
 50
90.00000000000001
 51
119.8423500652797
  0
ARC
  5
4C4
330
1F
100
AcDbEntity
  8
LAY-1
  6
CONTINUOUS
 62
     2
100
AcDbCircle
 10
603.129984279167
 20
226.6138814861328
 30
0.0
 40
23.33234400795401
100
AcDbArc
 50
68.65815171527959
 51
96.11576090746053
  0
LINE
  5
4C5
330
1F
100
AcDbEntity
  8
LAY-1
  6
CONTINUOUS
 62
     2
100
AcDbLine
 10
617.6256732934911
 20
249.9462254940899
 30
0.0
 11
623.629984279172
 21
249.9462254940899
 31
0.0
  0
LINE
  5
4C6
330
1F
100
AcDbEntity
  8
LAY-1
  6
CONTINUOUS
 62
     2
100
AcDbLine
 10
576.629984551092
 20
247.5462252221699
 30
0.0
 11
600.629984551092
 21
247.5462252221699
 31
0.0
  0
LINE
  5
4C7
330
1F
100
AcDbEntity
  8
LAY-1
  6
CONTINUOUS
 62
     2
100
AcDbLine
 10
600.629984551092
 20
257.4215132421099
 30
0.0
 11
600.629984551092
 21
247.5462252221699
 31
0.0
  0
LINE
  5
4C8
330
1F
100
AcDbEntity
  8
LAY-1
  6
CONTINUOUS
 62
     2
100
AcDbLine
 10
614.520093094391
 20
257.24367631758
 30
0.0
 11
601.120093094391
 21
257.24367631758
 31
0.0
  0
ARC
  5
4C9
330
1F
100
AcDbEntity
  8
LAY-1
  6
CONTINUOUS
 62
     2
100
AcDbCircle
 10
588.6342955367699
 20
240.6123972260299
 30
0.0
 40
12.06617200397701
100
AcDbArc
 50
270.0
 51
299.8423500652797
  0
ARC
  5
4CA
330
1F
100
AcDbEntity
  8
LAY-1
  6
CONTINUOUS
 62
     2
100
AcDbCircle
 10
603.1299845510939
 20
251.878569230007
 30
0.0
 40
23.33234400795401
100
AcDbArc
 50
248.6581517152796
 51
291.3418482847197
  0
ARC
  5
4CB
330
1F
100
AcDbEntity
  8
LAY-1
  6
CONTINUOUS
 62
     2
100
AcDbCircle
 10
617.6256735654179
 20
240.6123972260299
 30
0.0
 40
12.06617200397701
100
AcDbArc
 50
240.1576499347201
 51
270.0
  0
LINE
  5
4CC
330
1F
100
AcDbEntity
  8
LAY-1
  6
CONTINUOUS
 62
     2
100
AcDbLine
 10
623.629984551089
 20
228.5462252220529
 30
0.0
 11
582.629984551089
 21
228.5462252220529
 31
0.0
  0
LINE
  5
4CD
330
1F
100
AcDbEntity
  8
LAY-1
  6
CONTINUOUS
 62
     2
100
AcDbLine
 10
623.629984551092
 20
249.9462254940899
 30
0.0
 11
623.6299845510921
 21
228.5462252220529
 31
0.0
  0
LINE
  5
4CE
330
1F
100
AcDbEntity
  8
LAY-1
  6
CONTINUOUS
 62
     2
100
AcDbLine
 10
611.621362579745
 20
248.3462253878379
 30
0.0
 11
611.621362579745
 21
230.1462252220503
 31
0.0
  0
LINE
  5
4CF
330
1F
100
AcDbEntity
  8
LAY-1
  6
CONTINUOUS
 62
     2
100
AcDbLine
 10
594.638606522439
 20
247.5462252221699
 30
0.0
 11
594.638606522439
 21
230.1462252220482
 31
0.0
  0
LINE
  5
4D0
330
1F
100
AcDbEntity
  8
LAY-1
  6
CONTINUOUS
 62
     2
100
AcDbLine
 10
582.629984551092
 20
247.5462252221699
 30
0.0
 11
582.629984551092
 21
228.5462252220529
 31
0.0
  0
ARC
  5
4D1
330
1F
100
AcDbEntity
  8
LAY-1
  6
CONTINUOUS
 62
     2
100
AcDbCircle
 10
601.0840430050694
 20
380.2289360936543
 30
0.0
 40
8.317289128745548
100
AcDbArc
 50
61.61445246195529
 51
118.3855475380418
  0
ARC
  5
4D2
330
1F
100
AcDbEntity
  8
LAY-1
  6
CONTINUOUS
 62
     2
100
AcDbCircle
 10
610.6299845510895
 20
372.4116469648777
 30
0.0
 40
16.13457825752196
100
AcDbArc
 50
69.72187308389726
 51
110.2781269161019
  0
ARC
  5
4D3
330
1F
100
AcDbEntity
  8
LAY-1
  6
CONTINUOUS
 62
     2
100
AcDbCircle
 10
620.1759260971095
 20
380.2289360936545
 30
0.0
 40
8.317289128745292
100
AcDbArc
 50
61.61445246195294
 51
118.3855475380425
  0
LINE
  5
4D4
330
1F
100
AcDbEntity
  8
LAY-1
  6
CONTINUOUS
 62
     2
100
AcDbLine
 10
616.2218676431295
 20
387.5462252223999
 30
0.0
 11
616.2218676431295
 21
362.5462252221299
 31
0.0
  0
ARC
  5
4D5
330
1F
100
AcDbEntity
  8
LAY-1
  6
CONTINUOUS
 62
     2
100
AcDbCircle
 10
625.6299845510921
 20
335.0462252221427
 30
0.0
 40
2.0
100
AcDbArc
 50
270.0
 51
0.0
  0
LINE
  5
4D6
330
1F
100
AcDbEntity
  8
LAY-1
  6
CONTINUOUS
 62
     2
100
AcDbLine
 10
627.6299845510919
 20
370.717798097395
 30
0.0
 11
627.6299845510919
 21
335.0462252221399
 31
0.0
  0
LINE
  5
4D7
330
1F
100
AcDbEntity
  8
LAY-1
  6
CONTINUOUS
 62
     2
100
AcDbLine
 10
625.129984551092
 20
333.0462252221399
 30
0.0
 11
625.629984551092
 21
333.0462252221399
 31
0.0
  0
ARC
  5
4D8
330
1F
100
AcDbEntity
  8
LAY-1
  6
CONTINUOUS
 62
     2
100
AcDbCircle
 10
625.629984551092
 20
340.0462252221433
 30
0.0
 40
2.0
100
AcDbArc
 50
0.0
 51
90.00000000000001
  0
ARC
  5
4D9
330
1F
100
AcDbEntity
  8
LAY-1
  6
CONTINUOUS
 62
     2
100
AcDbCircle
 10
604.3799845516734
 20
240.1462252217383
 30
0.0
 40
0.4
100
AcDbArc
 50
0.0
 51
90.00000000000001
  0
ARC
  5
4DA
330
1F
100
AcDbEntity
  8
LAY-1
  6
CONTINUOUS
 62
     2
100
AcDbCircle
 10
604.3799845516731
 20
240.1462252217383
 30
0.0
 40
0.4
100
AcDbArc
 50
90.00000000000001
 51
180.0
  0
LINE
  5
4DB
330
1F
100
AcDbEntity
  8
LAY-1
  6
CONTINUOUS
 62
     2
100
AcDbLine
 10
604.7799845516732
 20
240.1462252217383
 30
0.0
 11
604.7799845516732
 21
234.9462252217383
 31
0.0
  0
ARC
  5
4DC
330
1F
100
AcDbEntity
  8
LAY-1
  6
CONTINUOUS
 62
     2
100
AcDbCircle
 10
604.3799845516734
 20
234.9462252217383
 30
0.0
 40
0.4
100
AcDbArc
 50
270.0
 51
0.0
  0
LINE
  5
4DD
330
1F
100
AcDbEntity
  8
LAY-1
  6
CONTINUOUS
 62
     2
100
AcDbLine
 10
603.979984551673
 20
240.1462252217383
 30
0.0
 11
603.979984551673
 21
234.9462252217383
 31
0.0
  0
ARC
  5
4DE
330
1F
100
AcDbEntity
  8
LAY-1
  6
CONTINUOUS
 62
     2
100
AcDbCircle
 10
604.3799845516731
 20
234.9462252217383
 30
0.0
 40
0.4
100
AcDbArc
 50
180.0
 51
270.0
  0
ARC
  5
4DF
330
1F
100
AcDbEntity
  8
LAY-1
  6
CONTINUOUS
 62
     2
100
AcDbCircle
 10
601.8799845516729
 20
240.1462252217383
 30
0.0
 40
0.4
100
AcDbArc
 50
90.00000000000001
 51
180.0
  0
ARC
  5
4E0
330
1F
100
AcDbEntity
  8
LAY-1
  6
CONTINUOUS
 62
     2
100
AcDbCircle
 10
601.8799845516731
 20
240.1462252217383
 30
0.0
 40
0.4
100
AcDbArc
 50
0.0
 51
90.00000000000001
  0
LINE
  5
4E1
330
1F
100
AcDbEntity
  8
LAY-1
  6
CONTINUOUS
 62
     2
100
AcDbLine
 10
601.4799845516728
 20
240.1462252217383
 30
0.0
 11
601.4799845516728
 21
234.9462252217383
 31
0.0
  0
ARC
  5
4E2
330
1F
100
AcDbEntity
  8
LAY-1
  6
CONTINUOUS
 62
     2
100
AcDbCircle
 10
601.8799845516729
 20
234.9462252217383
 30
0.0
 40
0.4
100
AcDbArc
 50
180.0
 51
270.0
  0
LINE
  5
4E3
330
1F
100
AcDbEntity
  8
LAY-1
  6
CONTINUOUS
 62
     2
100
AcDbLine
 10
602.279984551673
 20
240.1462252217383
 30
0.0
 11
602.279984551673
 21
234.9462252217383
 31
0.0
  0
ARC
  5
4E4
330
1F
100
AcDbEntity
  8
LAY-1
  6
CONTINUOUS
 62
     2
100
AcDbCircle
 10
601.8799845516731
 20
234.9462252217383
 30
0.0
 40
0.4
100
AcDbArc
 50
270.0
 51
0.0
  0
LINE
  5
4E5
330
1F
100
AcDbEntity
  8
LAY-1
  6
CONTINUOUS
 62
     2
100
AcDbLine
 10
584.129984551092
 20
379.5462252221299
 30
0.0
 11
584.129984551092
 21
321.2712252221399
 31
0.0
  0
ARC
  5
4E6
330
1F
100
AcDbEntity
  8
LAY-1
  6
CONTINUOUS
 62
     2
100
AcDbCircle
 10
587.129984551092
 20
322.3152547306906
 30
0.0
 40
3.000000000000001
100
AcDbArc
 50
92.0000000000004
 51
180.0
  0
ARC
  5
4E7
330
1F
100
AcDbEntity
  8
LAY-1
  6
CONTINUOUS
 62
     2
100
AcDbCircle
 10
586.129984551092
 20
320.0936557384942
 30
0.0
 40
2.0
100
AcDbArc
 50
180.0
 51
266.999999999996
  0
LINE
  5
4E8
330
1F
100
AcDbEntity
  8
LAY-1
  6
CONTINUOUS
 62
     2
100
AcDbLine
 10
584.129984551092
 20
321.2712252221399
 30
0.0
 11
584.129984551092
 21
266.0462252221399
 31
0.0
  0
ARC
  5
4E9
330
1F
100
AcDbEntity
  8
LAY-1
  6
CONTINUOUS
 62
     2
100
AcDbCircle
 10
617.129984551091
 20
274.3462252221399
 30
0.0
 40
1.0
100
AcDbArc
 50
0.0
 51
90.00000000000001
  0
LINE
  5
4EA
330
1F
100
AcDbEntity
  8
LAY-1
  6
CONTINUOUS
 62
     2
100
AcDbLine
 10
618.129984551091
 20
274.3462252221399
 30
0.0
 11
618.129984551091
 21
268.3462252221399
 31
0.0
  0
ARC
  5
4EB
330
1F
100
AcDbEntity
  8
LAY-1
  6
CONTINUOUS
 62
     2
100
AcDbCircle
 10
617.129984551091
 20
268.3462252221399
 30
0.0
 40
1.0
100
AcDbArc
 50
270.0
 51
0.0
  0
ARC
  5
4EC
330
1F
100
AcDbEntity
  8
LAY-1
  6
CONTINUOUS
 62
     2
100
AcDbCircle
 10
613.1299845510915
 20
282.2888659092826
 30
0.0
 40
3.0
100
AcDbArc
 50
180.0
 51
225.0
  0
LINE
  5
4ED
330
1F
100
AcDbEntity
  8
LAY-1
  6
CONTINUOUS
 62
     2
100
AcDbLine
 10
608.9900930943919
 20
281.4436763175799
 30
0.0
 11
601.940093094392
 21
281.4436763175799
 31
0.0
  0
LINE
  5
4EE
330
1F
100
AcDbEntity
  8
LAY-1
  6
CONTINUOUS
 62
     2
100
AcDbLine
 10
611.008664207532
 20
280.1675455657229
 30
0.0
 11
613.7513048946577
 21
277.4249048785973
 31
0.0
  0
ARC
  5
4EF
330
1F
100
AcDbEntity
  8
LAY-1
  6
CONTINUOUS
 62
     2
100
AcDbCircle
 10
613.1299845510915
 20
282.2888659092826
 30
0.0
 40
3.0
100
AcDbArc
 50
180.0
 51
224.9999999999992
  0
LINE
  5
4F0
330
1F
100
AcDbEntity
  8
LAY-1
  6
CONTINUOUS
 62
     2
100
AcDbLine
 10
611.0086642075319
 20
280.1675455657229
 30
0.0
 11
613.7513048946577
 21
277.4249048785974
 31
0.0
  0
LINE
  5
4F1
330
1F
100
AcDbEntity
  8
LAY-1
  6
CONTINUOUS
 62
     2
100
AcDbLine
 10
623.6299842791719
 20
249.9462254940899
 30
0.0
 11
614.629984551088
 21
258.946225222174
 31
0.0
  0
ARC
  5
4F2
330
1F
100
AcDbEntity
  8
LAY-1
  6
CONTINUOUS
 62
     2
100
AcDbCircle
 10
624.129984551092
 20
327.0462252221427
 30
0.0
 40
6.0
100
AcDbArc
 50
90.00000000000001
 51
180.0
  0
LINE
  5
4F3
330
1F
100
AcDbEntity
  8
LAY-1
  6
CONTINUOUS
 62
     2
100
AcDbLine
 10
618.129984551092
 20
327.0462252221427
 30
0.0
 11
618.129984551092
 21
255.4462252221699
 31
0.0
  0
LINE
  5
4F4
330
1F
100
AcDbEntity
  8
LAY-1
  6
CONTINUOUS
 62
     2
100
AcDbLine
 10
605.0381014590495
 20
387.5462252223999
 30
0.0
 11
605.0381014590495
 21
364.6836763175799
 31
0.0
  0
LINE
  5
4F5
330
1F
100
AcDbEntity
  8
LAY-1
  6
CONTINUOUS
 62
     2
100
AcDbLine
 10
583.129984551092
 20
380.5462252221299
 30
0.0
 11
576.629984551092
 21
380.5462252221299
 31
0.0
  0
ARC
  5
4F6
330
1F
100
AcDbEntity
  8
LAY-1
  6
CONTINUOUS
 62
     2
100
AcDbCircle
 10
611.6299845510979
 20
275.3035845350376
 30
0.0
 40
3.0
100
AcDbArc
 50
0.0000000000445188
 51
44.99999999999998
  0
LINE
  5
4F7
330
1F
100
AcDbEntity
  8
LAY-1
  6
CONTINUOUS
 62
     2
100
AcDbLine
 10
614.629984551088
 20
267.3462252221399
 30
0.0
 11
614.629984551088
 21
258.946225222174
 31
0.0
  0
ARC
  5
4F8
330
1F
100
AcDbEntity
  8
LAY-1
  6
CONTINUOUS
 62
     2
100
AcDbCircle
 10
602.629984551092
 20
277.3462252221399
 30
0.0
 40
2.0
100
AcDbArc
 50
180.0
 51
270.0
  0
ARC
  5
4F9
330
1F
100
AcDbEntity
  8
LAY-1
  6
CONTINUOUS
 62
     2
100
AcDbCircle
 10
602.629984551092
 20
265.3462252221399
 30
0.0
 40
2.0
100
AcDbArc
 50
90.00000000000001
 51
180.0
  0
LINE
  5
4FA
330
1F
100
AcDbEntity
  8
LAY-1
  6
CONTINUOUS
 62
     2
100
AcDbLine
 10
617.129984551091
 20
275.3462252221399
 30
0.0
 11
602.629984551092
 21
275.3462252221399
 31
0.0
  0
ARC
  5
4FB
330
1F
100
AcDbEntity
  8
LAY-1
  6
CONTINUOUS
 62
     2
100
AcDbCircle
 10
586.129984551092
 20
346.0462252221399
 30
0.0
 40
2.0
100
AcDbArc
 50
180.0
 51
269.9999999999985
  0
ARC
  5
4FC
330
1F
100
AcDbEntity
  8
LAY-1
  6
CONTINUOUS
 62
     2
100
AcDbCircle
 10
586.129984551092
 20
329.0462252221399
 30
0.0
 40
2.0
100
AcDbArc
 50
90.00000000000001
 51
180.0
  0
LINE
  5
4FD
330
1F
100
AcDbEntity
  8
LAY-1
  6
CONTINUOUS
 62
     2
100
AcDbLine
 10
583.6299845510897
 20
228.5462252220543
 30
0.0
 11
583.6299845510897
 21
215.5462252220199
 31
0.0
  0
LINE
  5
4FE
330
1F
100
AcDbEntity
  8
LAY-1
  6
CONTINUOUS
 62
     2
100
AcDbLine
 10
622.6299845510897
 20
228.5462252220529
 30
0.0
 11
622.6299845510897
 21
215.5462252220199
 31
0.0
  0
LINE
  5
4FF
330
1F
100
AcDbEntity
  8
LAY-1
  6
CONTINUOUS
 62
     2
100
AcDbLine
 10
622.6299845510897
 20
225.5462252220199
 30
0.0
 11
583.6299845510897
 21
225.5462252220199
 31
0.0
  0
LINE
  5
500
330
1F
100
AcDbEntity
  8
LAY-1
  6
CONTINUOUS
 62
     2
100
AcDbLine
 10
583.6299845510897
 20
215.5462252220199
 30
0.0
 11
622.6299845510897
 21
215.5462252220199
 31
0.0
  0
LINE
  5
501
330
1F
100
AcDbEntity
  8
LAY-1
  6
CONTINUOUS
 62
     1
100
AcDbLine
 10
622.6299845510897
 20
216.54622522208
 30
0.0
 11
583.6299845510897
 21
216.54622522208
 31
0.0
  0
LINE
  5
502
330
1F
100
AcDbEntity
  8
LAY-1
  6
CONTINUOUS
 62
     1
100
AcDbLine
 10
622.6299845510897
 20
224.5462252219899
 30
0.0
 11
583.6299845510897
 21
224.54622522199
 31
0.0
  0
LINE
  5
503
330
1F
100
AcDbEntity
  8
LAY-1
  6
CONTINUOUS
 62
     2
100
AcDbLine
 10
610.6299845510923
 20
388.5462252224022
 30
0.0
 11
623.14728728799
 21
388.5462252224022
 31
0.0
  0
LINE
  5
504
330
1F
100
AcDbEntity
  8
LAY-1
  6
CONTINUOUS
 62
     2
100
AcDbLine
 10
610.6299845510923
 20
388.5462252224022
 30
0.0
 11
598.129984551092
 21
388.5462252224023
 31
0.0
  0
ARC
  5
505
330
1F
100
AcDbEntity
  8
LAY-1
  6
CONTINUOUS
 62
     2
100
AcDbCircle
 10
598.129984551092
 20
387.5462252224023
 30
0.0
 40
1.0
100
AcDbArc
 50
90.00000000000001
 51
180.0
  0
ARC
  5
506
330
1F
100
AcDbEntity
  8
LAY-1
  6
CONTINUOUS
 62
     2
100
AcDbCircle
 10
623.1299845510922
 20
387.5462252224022
 30
0.0
 40
1.0
100
AcDbArc
 50
0.0
 51
90.00000000000001
  0
LINE
  5
507
330
1F
100
AcDbEntity
  8
LAY-1
  6
CONTINUOUS
 62
     2
100
AcDbLine
 10
624.1299845510922
 20
387.5462252223999
 30
0.0
 11
624.1299845510922
 21
375.8746523468899
 31
0.0
  0
LINE
  5
508
330
1F
100
AcDbEntity
  8
LAY-1
  6
EXLTYPE2
 62
     1
100
AcDbLine
 10
603.129984551092
 20
290.0136763175798
 30
0.0
 11
603.129984551089
 21
210.8836763175499
 31
0.0
  0
LINE
  5
509
330
1F
100
AcDbEntity
  8
LAY-1
  6
CONTINUOUS
 62
     2
100
AcDbLine
 10
597.129984551092
 20
387.5462252223999
 30
0.0
 11
597.129984551092
 21
375.4574240035899
 31
0.0
  0
LINE
  5
50A
330
1F
100
AcDbEntity
  8
LAY-1
  6
CONTINUOUS
 62
     2
100
AcDbLine
 10
602.629984551092
 20
267.3462252221399
 30
0.0
 11
617.129984551091
 21
267.3462252221399
 31
0.0
  0
LINE
  5
50B
330
1F
100
AcDbEntity
  8
LAY-1
  6
EXLTYPE2
 62
     1
100
AcDbLine
 10
312.8120438396301
 20
350.54622522214
 30
0.0
 11
211.71204383963
 21
350.54622522214
 31
0.0
  0
LINE
  5
50C
330
1F
100
AcDbEntity
  8
LAY-1
  6
EXLTYPE2
 62
     1
100
AcDbLine
 10
238.812043839628
 20
390.63367631758
 30
0.0
 11
238.812043839628
 21
344.7378537919399
 31
0.0
  0
LINE
  5
50D
330
1F
100
AcDbEntity
  8
LAY-1
  6
EXLTYPE2
 62
     1
100
AcDbLine
 10
229.501935296328
 20
284.5462252221401
 30
0.0
 11
305.3120438396301
 21
284.5462252221401
 31
0.0
  0
ARC
  5
50E
330
1F
100
AcDbEntity
  8
LAY-1
  6
CONTINUOUS
 62
     2
100
AcDbCircle
 10
550.129984551088
 20
296.6320116597786
 30
0.0
 40
1.0
100
AcDbArc
 50
134.9999999998665
 51
180.0
  0
LINE
  5
50F
330
1F
100
AcDbEntity
  8
LAY-1
  6
CONTINUOUS
 62
     2
100
AcDbLine
 10
549.129984551088
 20
296.6320116597786
 30
0.0
 11
549.129984551088
 21
272.460438784473
 31
0.0
  0
ARC
  5
510
330
1F
100
AcDbEntity
  8
LAY-1
  6
CONTINUOUS
 62
     2
100
AcDbCircle
 10
550.129984551088
 20
272.460438784473
 30
0.0
 40
1.0
100
AcDbArc
 50
180.0
 51
225.0000000000001
  0
LINE
  5
511
330
1F
100
AcDbEntity
  8
LAY-1
  6
CONTINUOUS
 62
     2
100
AcDbLine
 10
549.4228777699032
 20
297.3391184409666
 30
0.0
 11
552.4827520461604
 21
300.3989927172102
 31
0.0
  0
ARC
  5
512
330
1F
100
AcDbEntity
  8
LAY-1
  6
CONTINUOUS
 62
     2
100
AcDbCircle
 10
554.6040723897154
 20
298.2776723736457
 30
0.0
 40
3.000000000000002
100
AcDbArc
 50
94.99999999986633
 51
134.999999999867
  0
ARC
  5
513
330
1F
100
AcDbEntity
  8
LAY-1
  6
CONTINUOUS
 62
     2
100
AcDbCircle
 10
554.6040723896831
 20
270.8147780706236
 30
0.0
 40
3.000000000000002
100
AcDbArc
 50
225.0000000000003
 51
265.0000000000004
  0
ARC
  5
514
330
1F
100
AcDbEntity
  8
LAY-1
  6
CONTINUOUS
 62
     2
100
AcDbCircle
 10
557.629984551058
 20
302.5576847347539
 30
0.0
 40
1.0
100
AcDbArc
 50
274.9999999998674
 51
0.0
  0
ARC
  5
515
330
1F
100
AcDbEntity
  8
LAY-1
  6
CONTINUOUS
 62
     2
100
AcDbCircle
 10
567.1299845510898
 20
248.5462252221492
 30
0.0
 40
1.0
100
AcDbArc
 50
180.0
 51
270.0000000000002
  0
ARC
  5
516
330
1F
100
AcDbEntity
  8
LAY-1
  6
CONTINUOUS
 62
     2
100
AcDbCircle
 10
564.1299845510898
 20
264.9622695590402
 30
0.0
 40
2.0
100
AcDbArc
 50
0.0
 51
85.00000000000021
  0
LINE
  5
517
330
1F
100
AcDbEntity
  8
LAY-1
  6
CONTINUOUS
 62
     2
100
AcDbLine
 10
571.6299845510098
 20
284.5462252221446
 30
0.0
 11
571.629984551118
 21
380.0462252221292
 31
0.0
  0
ARC
  5
518
330
1F
100
AcDbEntity
  8
LAY-1
  6
CONTINUOUS
 62
     2
100
AcDbCircle
 10
575.9299845511
 20
257.0462252220401
 30
0.0
 40
8.0
100
AcDbArc
 50
150.0000000000001
 51
180.0
  0
ARC
  5
519
330
1F
100
AcDbEntity
  8
LAY-1
  6
CONTINUOUS
 62
     2
100
AcDbCircle
 10
570.3008194265012
 20
260.2962252220401
 30
0.0
 40
1.5
100
AcDbArc
 50
90.00000000000001
 51
150.0000000000001
  0
ARC
  5
51A
330
1F
100
AcDbEntity
  8
LAY-1
  6
CONTINUOUS
 62
     2
100
AcDbCircle
 10
575.9299845511
 20
257.0462252220401
 30
0.0
 40
8.0
100
AcDbArc
 50
180.0
 51
210.0000000000001
  0
ARC
  5
51B
330
1F
100
AcDbEntity
  8
LAY-1
  6
CONTINUOUS
 62
     2
100
AcDbCircle
 10
570.3008194265012
 20
253.7962252220401
 30
0.0
 40
1.5
100
AcDbArc
 50
210.0000000000001
 51
270.0000000000002
  0
LINE
  5
51C
330
1F
100
AcDbEntity
  8
LAY-1
  6
CONTINUOUS
 62
     2
100
AcDbLine
 10
570.3008194265012
 20
261.7962252220401
 30
0.0
 11
571.6299845510998
 21
261.7962252220401
 31
0.0
  0
LINE
  5
51D
330
1F
100
AcDbEntity
  8
LAY-1
  6
CONTINUOUS
 62
     2
100
AcDbLine
 10
570.3008194265012
 20
252.2962252220401
 30
0.0
 11
571.6299845510998
 21
252.2962252220401
 31
0.0
  0
ARC
  5
51E
330
1F
100
AcDbEntity
  8
LAY-1
  6
CONTINUOUS
 62
     2
100
AcDbCircle
 10
572.1299845510848
 20
248.0462252221492
 30
0.0
 40
0.5
100
AcDbArc
 50
180.0
 51
270.0000000000002
  0
ARC
  5
51F
330
1F
100
AcDbEntity
  8
LAY-1
  6
CONTINUOUS
 62
     2
100
AcDbCircle
 10
570.1299845510848
 20
249.9131472549125
 30
0.0
 40
1.5
100
AcDbArc
 50
0.0
 51
74.17337986812777
  0
ARC
  5
520
330
1F
100
AcDbEntity
  8
LAY-1
  6
CONTINUOUS
 62
     2
100
AcDbCircle
 10
571.6299845510848
 20
255.2046498770415
 30
0.0
 40
4.0
100
AcDbArc
 50
180.0
 51
254.1733798681283
  0
LINE
  5
521
330
1F
100
AcDbEntity
  8
LAY-1
  6
CONTINUOUS
 62
     2
100
AcDbLine
 10
571.6299845510848
 20
248.0462252221492
 30
0.0
 11
571.6299845511271
 21
284.5462252221446
 31
0.0
  0
LINE
  5
522
330
1F
100
AcDbEntity
  8
LAY-1
  6
CONTINUOUS
 62
     2
100
AcDbLine
 10
567.629984551153
 20
313.8878005671973
 30
0.0
 11
567.6299845511189
 21
284.5462252220942
 31
0.0
  0
LINE
  5
523
330
1F
100
AcDbEntity
  8
LAY-1
  6
CONTINUOUS
 62
     2
100
AcDbLine
 10
553.2548495085202
 20
269.7250760831399
 30
0.0
 11
553.2548495085202
 21
300.2150760831401
 31
0.0
  0
LINE
  5
524
330
1F
100
AcDbEntity
  8
LAY-1
  6
CONTINUOUS
 62
     2
100
AcDbLine
 10
549.4228777699013
 20
271.7533320032863
 30
0.0
 11
552.4827520461236
 21
268.6934577270641
 31
0.0
  0
LINE
  5
525
330
1F
100
AcDbEntity
  8
LAY-1
  6
CONTINUOUS
 62
     2
100
AcDbLine
 10
558.629984551058
 20
295.3005319270347
 30
0.0
 11
567.6299845511321
 21
296.0879298987534
 31
0.0
  0
LINE
  5
526
330
1F
100
AcDbEntity
  8
LAY-1
  6
CONTINUOUS
 62
     2
100
AcDbLine
 10
554.3426051614792
 20
301.2662564679213
 30
0.0
 11
557.7171402937984
 21
301.5614900366614
 31
0.0
  0
LINE
  5
527
330
1F
100
AcDbEntity
  8
LAY-1
  6
CONTINUOUS
 62
     2
100
AcDbLine
 10
567.6299845510848
 20
255.2046498770415
 30
0.0
 11
567.6299845511189
 21
284.5462252221446
 31
0.0
  0
LINE
  5
528
330
1F
100
AcDbEntity
  8
LAY-1
  6
CONTINUOUS
 62
     2
100
AcDbLine
 10
566.1299845510898
 20
276.8225529929683
 30
0.0
 11
567.6299845511085
 21
276.6913199976776
 31
0.0
  0
LINE
  5
529
330
1F
100
AcDbEntity
  8
LAY-1
  6
CONTINUOUS
 62
     2
100
AcDbLine
 10
566.1299845510898
 20
276.8225529929401
 30
0.0
 11
566.1299845510898
 21
248.5462252221492
 31
0.0
  0
LINE
  5
52A
330
1F
100
AcDbEntity
  8
LAY-1
  6
CONTINUOUS
 62
     2
100
AcDbLine
 10
554.3426051614401
 20
267.826193976348
 30
0.0
 11
564.3042960365888
 21
266.9546589552229
 31
0.0
  0
LINE
  5
52B
330
1F
100
AcDbEntity
  8
LAY-1
  6
CONTINUOUS
 62
     2
100
AcDbLine
 10
558.629984551058
 20
295.3005319270401
 30
0.0
 11
558.629984551058
 21
321.0462252221369
 31
0.0
  0
ARC
  5
52C
330
1F
100
AcDbEntity
  8
LAY-1
  6
CONTINUOUS
 62
     2
100
AcDbCircle
 10
572.1299845511176
 20
380.0462252221292
 30
0.0
 40
0.5
100
AcDbArc
 50
90.00000000000001
 51
180.0
  0
ARC
  5
52D
330
1F
100
AcDbEntity
  8
LAY-1
  6
CONTINUOUS
 62
     2
100
AcDbCircle
 10
575.9299845511096
 20
374.5462252220401
 30
0.0
 40
8.0
100
AcDbArc
 50
150.0000000000001
 51
180.0
  0
ARC
  5
52E
330
1F
100
AcDbEntity
  8
LAY-1
  6
CONTINUOUS
 62
     2
100
AcDbCircle
 10
570.3008194265108
 20
377.7962252220401
 30
0.0
 40
1.5
100
AcDbArc
 50
90.00000000000001
 51
149.9999999999995
  0
ARC
  5
52F
330
1F
100
AcDbEntity
  8
LAY-1
  6
CONTINUOUS
 62
     2
100
AcDbCircle
 10
575.9299845511096
 20
374.5462252220401
 30
0.0
 40
8.0
100
AcDbArc
 50
180.0
 51
210.0000000000002
  0
ARC
  5
530
330
1F
100
AcDbEntity
  8
LAY-1
  6
CONTINUOUS
 62
     2
100
AcDbCircle
 10
570.3008194265108
 20
371.2962252220401
 30
0.0
 40
1.5
100
AcDbArc
 50
210.0000000000026
 51
270.0000000000002
  0
LINE
  5
531
330
1F
100
AcDbEntity
  8
LAY-1
  6
CONTINUOUS
 62
     2
100
AcDbLine
 10
570.3008194265108
 20
379.2962252220401
 30
0.0
 11
571.6299845511098
 21
379.2962252220401
 31
0.0
  0
LINE
  5
532
330
1F
100
AcDbEntity
  8
LAY-1
  6
CONTINUOUS
 62
     2
100
AcDbLine
 10
570.3008194265108
 20
369.7962252220401
 30
0.0
 11
571.6299845511098
 21
369.7962252220401
 31
0.0
  0
ARC
  5
533
330
1F
100
AcDbEntity
  8
LAY-1
  6
CONTINUOUS
 62
     2
100
AcDbCircle
 10
575.92998455105
 20
323.5462252220401
 30
0.0
 40
8.0
100
AcDbArc
 50
149.9999999999997
 51
180.0
  0
ARC
  5
534
330
1F
100
AcDbEntity
  8
LAY-1
  6
CONTINUOUS
 62
     2
100
AcDbCircle
 10
570.3008194264512
 20
326.7962252220401
 30
0.0
 40
1.5
100
AcDbArc
 50
90.00000000000001
 51
150.0000000000006
  0
ARC
  5
535
330
1F
100
AcDbEntity
  8
LAY-1
  6
CONTINUOUS
 62
     2
100
AcDbCircle
 10
575.92998455105
 20
323.5462252220401
 30
0.0
 40
8.0
100
AcDbArc
 50
180.0
 51
210.0000000000002
  0
ARC
  5
536
330
1F
100
AcDbEntity
  8
LAY-1
  6
CONTINUOUS
 62
     2
100
AcDbCircle
 10
570.3008194264512
 20
320.2962252220401
 30
0.0
 40
1.5
100
AcDbArc
 50
209.9999999999976
 51
270.0000000000002
  0
LINE
  5
537
330
1F
100
AcDbEntity
  8
LAY-1
  6
CONTINUOUS
 62
     2
100
AcDbLine
 10
570.3008194264512
 20
328.2962252220401
 30
0.0
 11
571.6299845510498
 21
328.2962252220401
 31
0.0
  0
LINE
  5
538
330
1F
100
AcDbEntity
  8
LAY-1
  6
CONTINUOUS
 62
     2
100
AcDbLine
 10
570.3008194264512
 20
318.7962252220401
 30
0.0
 11
571.6299845510498
 21
318.7962252220401
 31
0.0
  0
ARC
  5
539
330
1F
100
AcDbEntity
  8
LAY-1
  6
CONTINUOUS
 62
     2
100
AcDbCircle
 10
570.1299845511649
 20
319.1793031893204
 30
0.0
 40
1.5
100
AcDbArc
 50
285.8266201317406
 51
0.0
  0
ARC
  5
53A
330
1F
100
AcDbEntity
  8
LAY-1
  6
CONTINUOUS
 62
     2
100
AcDbCircle
 10
543.1299845510698
 20
324.5182651545761
 30
0.0
 40
1.0
100
AcDbArc
 50
180.0
 51
267.9999999999964
  0
LINE
  5
53B
330
1F
100
AcDbEntity
  8
LAY-1
  6
CONTINUOUS
 62
     2
100
AcDbLine
 10
542.1299845510698
 20
376.5741852896977
 30
0.0
 11
542.1299845510698
 21
324.5182651545761
 31
0.0
  0
ARC
  5
53C
330
1F
100
AcDbEntity
  8
LAY-1
  6
CONTINUOUS
 62
     2
100
AcDbCircle
 10
543.1299845510698
 20
376.5741852896977
 30
0.0
 40
1.0
100
AcDbArc
 50
92.00000000000365
 51
180.0
  0
LINE
  5
53D
330
1F
100
AcDbEntity
  8
LAY-1
  6
CONTINUOUS
 62
     2
100
AcDbLine
 10
556.6299845510707
 20
380.0462252221369
 30
0.0
 11
560.6299845510707
 21
380.0462252221369
 31
0.0
  0
LINE
  5
53E
330
1F
100
AcDbEntity
  8
LAY-1
  6
CONTINUOUS
 62
     2
100
AcDbLine
 10
555.1299845510725
 20
378.546225222136
 30
0.0
 11
556.6299845510707
 21
380.0462252221342
 31
0.0
  0
LINE
  5
53F
330
1F
100
AcDbEntity
  8
LAY-1
  6
CONTINUOUS
 62
     2
100
AcDbLine
 10
555.1299845510712
 20
377.9938440678976
 30
0.0
 11
543.0950850543672
 21
377.5735761167167
 31
0.0
  0
LINE
  5
540
330
1F
100
AcDbEntity
  8
LAY-1
  6
CONTINUOUS
 62
     2
100
AcDbLine
 10
556.6299845510707
 20
321.0462252221369
 30
0.0
 11
560.6299845510707
 21
321.0462252221369
 31
0.0
  0
LINE
  5
541
330
1F
100
AcDbEntity
  8
LAY-1
  6
CONTINUOUS
 62
     2
100
AcDbLine
 10
555.1299845510725
 20
322.5462252221378
 30
0.0
 11
556.6299845510707
 21
321.0462252221392
 31
0.0
  0
LINE
  5
542
330
1F
100
AcDbEntity
  8
LAY-1
  6
CONTINUOUS
 62
     2
100
AcDbLine
 10
555.1299845510707
 20
323.0986063763763
 30
0.0
 11
543.0950850543672
 21
323.5188743275572
 31
0.0
  0
LINE
  5
543
330
1F
100
AcDbEntity
  8
LAY-1
  6
CONTINUOUS
 62
     2
100
AcDbLine
 10
560.6299845510707
 20
321.0462252221369
 30
0.0
 11
560.6299845510707
 21
350.5462252221401
 31
0.0
  0
LINE
  5
544
330
1F
100
AcDbEntity
  8
LAY-1
  6
CONTINUOUS
 62
     2
100
AcDbLine
 10
560.6299845510707
 20
380.0462252221369
 30
0.0
 11
560.6299845510707
 21
350.5462252221401
 31
0.0
  0
LINE
  5
545
330
1F
100
AcDbEntity
  8
LAY-1
  6
CONTINUOUS
 62
     2
100
AcDbLine
 10
555.1299845510707
 20
378.5462252221342
 30
0.0
 11
555.1299845510707
 21
350.5462252221369
 31
0.0
  0
LINE
  5
546
330
1F
100
AcDbEntity
  8
LAY-1
  6
CONTINUOUS
 62
     2
100
AcDbLine
 10
555.1299845510707
 20
322.5462252221396
 30
0.0
 11
555.1299845510707
 21
350.5462252221401
 31
0.0
  0
LINE
  5
547
330
1F
100
AcDbEntity
  8
LAY-1
  6
CONTINUOUS
 62
     2
100
AcDbLine
 10
556.6299845510598
 20
380.0462252221401
 30
0.0
 11
556.6299845510598
 21
321.0462252221369
 31
0.0
  0
LINE
  5
548
330
1F
100
AcDbEntity
  8
LAY-1
  6
CONTINUOUS
 62
     2
100
AcDbLine
 10
560.6299845510707
 20
324.7977953194946
 30
0.0
 11
567.9920373071859
 21
324.5407067722104
 31
0.0
  0
ARC
  5
549
330
1F
100
AcDbEntity
  8
LAY-1
  6
CONTINUOUS
 62
     2
100
AcDbCircle
 10
571.6299845511526
 20
313.8878005671878
 30
0.0
 40
4.0
100
AcDbArc
 50
105.826620131739
 51
179.9999999998632
  0
LINE
  5
54A
330
1F
100
AcDbEntity
  8
LAY-1
  6
CONTINUOUS
 62
     2
100
AcDbLine
 10
568.1872129977311
 20
376.5585593573648
 30
0.0
 11
560.6299845510707
 21
376.2946551247824
 31
0.0
  0
LINE
  5
54B
330
1F
100
AcDbEntity
  8
LAY-1
  6
CONTINUOUS
 62
     2
100
AcDbLine
 10
576.629984551088
 20
247.5462252221492
 30
0.0
 11
567.1299845510898
 21
247.5462252221492
 31
0.0
  0
LINE
  5
54C
330
1F
100
AcDbEntity
  8
LAY-1
  6
CONTINUOUS
 62
     2
100
AcDbLine
 10
576.629984551088
 20
380.546225222126
 30
0.0
 11
576.629984551088
 21
247.5462252221492
 31
0.0
  0
LINE
  5
54D
330
1F
100
AcDbEntity
  8
LAY-1
  6
CONTINUOUS
 62
     2
100
AcDbLine
 10
572.1299845511176
 20
380.5462252221392
 30
0.0
 11
576.6299845510875
 21
380.5462252221392
 31
0.0
  0
ARC
  5
54E
330
1F
100
AcDbEntity
  8
LAY-1
  6
EXLTYPE3
 62
     1
100
AcDbCircle
 10
604.3799845517004
 20
196.7462252225215
 30
0.0
 40
0.4
100
AcDbArc
 50
270.0000000000002
 51
0.0000000000001719
  0
ARC
  5
54F
330
1F
100
AcDbEntity
  8
LAY-1
  6
EXLTYPE3
 62
     1
100
AcDbCircle
 10
604.3799845517002
 20
196.7462252225215
 30
0.0
 40
0.4
100
AcDbArc
 50
180.0000000000002
 51
270.0000000000002
  0
LINE
  5
550
330
1F
100
AcDbEntity
  8
LAY-1
  6
EXLTYPE3
 62
     1
100
AcDbLine
 10
604.7799845517003
 20
196.7462252225215
 30
0.0
 11
604.7799845517003
 21
201.9462252225215
 31
0.0
  0
ARC
  5
551
330
1F
100
AcDbEntity
  8
LAY-1
  6
EXLTYPE3
 62
     1
100
AcDbCircle
 10
604.3799845517004
 20
201.9462252225215
 30
0.0
 40
0.4
100
AcDbArc
 50
0.0000000000001719
 51
90.00000000000014
  0
LINE
  5
552
330
1F
100
AcDbEntity
  8
LAY-1
  6
EXLTYPE3
 62
     1
100
AcDbLine
 10
603.9799845517001
 20
196.7462252225215
 30
0.0
 11
603.9799845517001
 21
201.9462252225215
 31
0.0
  0
ARC
  5
553
330
1F
100
AcDbEntity
  8
LAY-1
  6
EXLTYPE3
 62
     1
100
AcDbCircle
 10
604.3799845517002
 20
201.9462252225215
 30
0.0
 40
0.4
100
AcDbArc
 50
90.00000000000014
 51
180.0000000000002
  0
ARC
  5
554
330
1F
100
AcDbEntity
  8
LAY-1
  6
EXLTYPE3
 62
     1
100
AcDbCircle
 10
601.8799845517
 20
196.7462252225215
 30
0.0
 40
0.4
100
AcDbArc
 50
180.0000000000002
 51
270.0000000000002
  0
ARC
  5
555
330
1F
100
AcDbEntity
  8
LAY-1
  6
EXLTYPE3
 62
     1
100
AcDbCircle
 10
601.8799845517002
 20
196.7462252225215
 30
0.0
 40
0.4
100
AcDbArc
 50
270.0000000000002
 51
0.0000000000001719
  0
LINE
  5
556
330
1F
100
AcDbEntity
  8
LAY-1
  6
EXLTYPE3
 62
     1
100
AcDbLine
 10
601.4799845516999
 20
196.7462252225215
 30
0.0
 11
601.4799845516999
 21
201.9462252225215
 31
0.0
  0
ARC
  5
557
330
1F
100
AcDbEntity
  8
LAY-1
  6
EXLTYPE3
 62
     1
100
AcDbCircle
 10
601.8799845517
 20
201.9462252225215
 30
0.0
 40
0.4
100
AcDbArc
 50
90.00000000000014
 51
180.0000000000002
  0
LINE
  5
558
330
1F
100
AcDbEntity
  8
LAY-1
  6
EXLTYPE3
 62
     1
100
AcDbLine
 10
602.2799845517001
 20
196.7462252225215
 30
0.0
 11
602.2799845517001
 21
201.9462252225215
 31
0.0
  0
ARC
  5
559
330
1F
100
AcDbEntity
  8
LAY-1
  6
EXLTYPE3
 62
     1
100
AcDbCircle
 10
601.8799845517002
 20
201.9462252225215
 30
0.0
 40
0.4
100
AcDbArc
 50
0.0000000000001719
 51
90.00000000000014
  0
ARC
  5
55A
330
1F
100
AcDbEntity
  8
LAY-1
  6
EXLTYPE3
 62
     1
100
AcDbCircle
 10
579.629984551119
 20
206.4462252224499
 30
0.0
 40
1.0
100
AcDbArc
 50
180.0000000000002
 51
270.0000000000002
  0
ARC
  5
55B
330
1F
100
AcDbEntity
  8
LAY-1
  6
EXLTYPE3
 62
     1
100
AcDbCircle
 10
626.629984551119
 20
206.4462252224499
 30
0.0
 40
1.0
100
AcDbArc
 50
270.0000000000002
 51
0.0
  0
LINE
  5
55C
330
1F
100
AcDbEntity
  8
LAY-1
  6
EXLTYPE3
 62
     1
100
AcDbLine
 10
579.629984551119
 20
205.4462252224499
 30
0.0
 11
626.629984551119
 21
205.4462252224499
 31
0.0
  0
LINE
  5
55D
330
1F
100
AcDbEntity
  8
LAY-1
  6
EXLTYPE3
 62
     1
100
AcDbLine
 10
609.964508330279
 20
195.3462252224499
 30
0.0
 11
609.964508330279
 21
205.4462252224499
 31
0.0
  0
LINE
  5
55E
330
1F
100
AcDbEntity
  8
LAY-1
  6
EXLTYPE3
 62
     1
100
AcDbLine
 10
596.295460771959
 20
195.3462252224499
 30
0.0
 11
596.295460771959
 21
205.4462252224499
 31
0.0
  0
LINE
  5
55F
330
1F
100
AcDbEntity
  8
LAY-1
  6
EXLTYPE3
 62
     1
100
AcDbLine
 10
619.629984551119
 20
194.8462252224499
 30
0.0
 11
619.629984551119
 21
205.4462252224499
 31
0.0
  0
ARC
  5
560
330
1F
100
AcDbEntity
  8
LAY-1
  6
EXLTYPE3
 62
     1
100
AcDbCircle
 10
619.129984551119
 20
194.8462252224499
 30
0.0
 40
0.5
100
AcDbArc
 50
270.0
 51
0.0
  0
ARC
  5
561
330
1F
100
AcDbEntity
  8
LAY-1
  6
EXLTYPE3
 62
     1
100
AcDbCircle
 10
587.129984551121
 20
194.8462252224499
 30
0.0
 40
0.5
100
AcDbArc
 50
180.0000000000002
 51
270.0
  0
LINE
  5
562
330
1F
100
AcDbEntity
  8
LAY-1
  6
EXLTYPE3
 62
     1
100
AcDbLine
 10
587.129984551121
 20
194.3462252224499
 30
0.0
 11
619.129984551119
 21
194.3462252224499
 31
0.0
  0
LINE
  5
563
330
1F
100
AcDbEntity
  8
LAY-1
  6
EXLTYPE3
 62
     1
100
AcDbLine
 10
586.629984551119
 20
194.8462252224499
 30
0.0
 11
586.629984551119
 21
205.4462252224499
 31
0.0
  0
LINE
  5
564
330
1F
100
AcDbEntity
  8
LAY-1
  6
EXLTYPE3
 62
     1
100
AcDbLine
 10
627.629984551119
 20
206.4462252224499
 30
0.0
 11
627.629984551119
 21
223.9462252224499
 31
0.0
  0
LINE
  5
565
330
1F
100
AcDbEntity
  8
LAY-1
  6
EXLTYPE3
 62
     1
100
AcDbLine
 10
627.629984551119
 20
223.9462252224499
 30
0.0
 11
578.629984551119
 21
223.9462252224499
 31
0.0
  0
LINE
  5
566
330
1F
100
AcDbEntity
  8
LAY-1
  6
EXLTYPE3
 62
     1
100
AcDbLine
 10
613.2782168292591
 20
206.4462252224499
 30
0.0
 11
613.2782168292591
 21
223.9462252224499
 31
0.0
  0
LINE
  5
567
330
1F
100
AcDbEntity
  8
LAY-1
  6
EXLTYPE3
 62
     1
100
AcDbLine
 10
592.981752272981
 20
206.4462252224499
 30
0.0
 11
592.981752272981
 21
223.9462252224499
 31
0.0
  0
LINE
  5
568
330
1F
100
AcDbEntity
  8
LAY-1
  6
EXLTYPE3
 62
     1
100
AcDbLine
 10
578.629984551119
 20
206.4462252224499
 30
0.0
 11
578.629984551119
 21
223.9462252224499
 31
0.0
  0
CIRCLE
  5
569
330
1F
100
AcDbEntity
  8
LAY-1
  6
CONTINUOUS
 62
     2
100
AcDbCircle
 10
600.1299845510852
 20
337.5462252221399
 30
0.0
 40
15.01999999999999
  0
CIRCLE
  5
56A
330
1F
100
AcDbEntity
  8
LAY-1
  6
CONTINUOUS
 62
     2
100
AcDbCircle
 10
600.1299845510852
 20
337.5462252221399
 30
0.0
 40
1.997771745299815
  0
ARC
  5
56B
330
1F
100
AcDbEntity
  8
LAY-1
  6
CONTINUOUS
 62
     2
100
AcDbCircle
 10
609.3633993931642
 20
351.2208020109916
 30
0.0
 40
3.000000000000002
100
AcDbArc
 50
117.8187993289226
 51
180.1741393150557
  0
ARC
  5
56C
330
1F
100
AcDbEntity
  8
LAY-1
  6
CONTINUOUS
 62
     2
100
AcDbCircle
 10
602.129984551092
 20
353.9245645762991
 30
0.0
 40
3.000000000000002
100
AcDbArc
 50
180.0
 51
207.2402784021301
  0
LINE
  5
56D
330
1F
100
AcDbEntity
  8
LAY-1
  6
CONTINUOUS
 62
     2
100
AcDbLine
 10
586.5892903295912
 20
331.0462252221399
 30
0.0
 11
586.129984551092
 21
331.0462252221399
 31
0.0
  0
LINE
  5
56E
330
1F
100
AcDbEntity
  8
LAY-1
  6
CONTINUOUS
 62
     2
100
AcDbLine
 10
587.0252860609844
 20
325.3134272117479
 30
0.0
 11
591.2128469718665
 21
325.4596600610494
 31
0.0
  0
LINE
  5
56F
330
1F
100
AcDbEntity
  8
LAY-1
  6
CONTINUOUS
 62
     2
100
AcDbLine
 10
610.1299845510914
 20
326.3390667954968
 30
0.0
 11
610.1299845510915
 21
282.2888659092799
 31
0.0
  0
ARC
  5
570
330
1F
100
AcDbEntity
  8
LAY-1
  6
CONTINUOUS
 62
     2
100
AcDbCircle
 10
612.3774332650147
 20
347.0462252221312
 30
0.0
 40
2.0
100
AcDbArc
 50
90.00000000000001
 51
145.3053817402972
  0
LINE
  5
571
330
1F
100
AcDbEntity
  8
LAY-1
  6
CONTINUOUS
 62
     2
100
AcDbLine
 10
586.5892903295913
 20
344.0462252221399
 30
0.0
 11
586.129984551092
 21
344.0462252221399
 31
0.0
  0
LINE
  5
572
330
1F
100
AcDbEntity
  8
LAY-1
  6
CONTINUOUS
 62
     2
100
AcDbLine
 10
614.4600368887426
 20
333.0462252221399
 30
0.0
 11
625.129984551092
 21
333.0462252221399
 31
0.0
  0
LINE
  5
573
330
1F
100
AcDbEntity
  8
LAY-1
  6
CONTINUOUS
 62
     2
100
AcDbLine
 10
614.4600368887426
 20
342.0462252221399
 30
0.0
 11
625.629984551092
 21
342.0462252221399
 31
0.0
  0
LINE
  5
574
330
1F
100
AcDbEntity
  8
LAY-1
  6
CONTINUOUS
 62
     2
100
AcDbLine
 10
586.5892903295912
 20
331.0462252221399
 30
0.0
 11
586.129984551092
 21
331.0462252221399
 31
0.0
  0
LINE
  5
575
330
1F
100
AcDbEntity
  8
LAY-1
  6
EXLTYPE2
 62
     1
100
AcDbLine
 10
619.940093094392
 20
284.54622522214
 30
0.0
 11
545.61204383963
 21
284.54622522214
 31
0.0
  0
LINE
  5
576
330
1F
100
AcDbEntity
  8
LAY-1
  6
EXLTYPE2
 62
     1
100
AcDbLine
 10
610.6299845510921
 20
390.6336763175799
 30
0.0
 11
610.6299845510921
 21
348.2863555751596
 31
0.0
  0
LINE
  5
577
330
1F
100
AcDbEntity
  8
LAY-1
  6
EXLTYPE2
 62
     1
100
AcDbLine
 10
538.0120438396301
 20
350.54622522214
 30
0.0
 11
630.61204383963
 21
350.5462252221399
 31
0.0
  0
TEXT
  5
578
330
1F
100
AcDbEntity
  8
LAY-1
  6
CONTINUOUS
 62
     3
100
AcDbText
 10
526.376
 20
125.0548663999999
 30
0.0
 40
6.2362208
  1
型式
 41
1.760849960901652
  7
EXCADSTD
 72
     5
 11
543.6319343814849
 21
125.0548663999999
 31
0.0
100
AcDbText
  0
TEXT
  5
579
330
1F
100
AcDbEntity
  8
LAY-1
  6
CONTINUOUS
 62
     3
100
AcDbText
 10
526.184
 20
113.7908664
 30
0.0
 40
6.2362208
  1
品名
 41
1.760849960901652
  7
EXCADSTD
 72
     5
 11
543.4399343814849
 21
113.7908664
 31
0.0
100
AcDbText
  0
LINE
  5
57A
330
1F
100
AcDbEntity
  8
LAY-1
  6
CONTINUOUS
 62
     4
100
AcDbLine
 10
522.6000000000001
 20
101.36
 30
0.0
 11
665.96
 21
101.36
 31
0.0
  0
LINE
  5
57B
330
1F
100
AcDbEntity
  8
LAY-1
  6
CONTINUOUS
 62
     1
100
AcDbLine
 10
522.6000000000001
 20
111.1199999999999
 30
0.0
 11
665.96
 21
111.1199999999999
 31
0.0
  0
TEXT
  5
57C
330
1F
100
AcDbEntity
  8
LAY-1
  6
CONTINUOUS
 62
     3
100
AcDbText
 10
573.5440000000001
 20
103.4868664
 30
0.0
 40
6.2362208
  1
外観図
 41
2.632270902717889
  7
EXCADSTD
 72
     5
 11
613.4100262044271
 21
103.4868664
 31
0.0
100
AcDbText
  0
LINE
  5
57D
330
1F
100
AcDbEntity
  8
LAY-1
  6
CONTINUOUS
 62
     4
100
AcDbLine
 10
522.6000000000001
 20
144.72
 30
0.0
 11
665.96
 21
144.72
 31
0.0
  0
LINE
  5
57E
330
1F
100
AcDbEntity
  8
LAY-1
  6
CONTINUOUS
 62
     1
100
AcDbLine
 10
522.6000000000001
 20
122.32
 30
0.0
 11
665.96
 21
122.32
 31
0.0
  0
LINE
  5
57F
330
1F
100
AcDbEntity
  8
LAY-1
  6
CONTINUOUS
 62
     1
100
AcDbLine
 10
522.6000000000001
 20
133.52
 30
0.0
 11
665.96
 21
133.52
 31
0.0
  0
LINE
  5
580
330
1F
100
AcDbEntity
  8
LAY-1
  6
CONTINUOUS
 62
     1
100
AcDbLine
 10
546.6000000000001
 20
144.72
 30
0.0
 11
546.6000000000001
 21
111.1199999999999
 31
0.0
  0
LINE
  5
581
330
1F
100
AcDbEntity
  8
LAY-1
  6
CONTINUOUS
 62
     4
100
AcDbLine
 10
522.6000000000001
 20
91.59999999999997
 30
0.0
 11
665.96
 21
91.59999999999997
 31
0.0
  0
LINE
  5
582
330
1F
100
AcDbEntity
  8
LAY-1
  6
CONTINUOUS
 62
     4
100
AcDbLine
 10
665.96
 20
91.59999999999997
 30
0.0
 11
665.96
 21
144.72
 31
0.0
  0
LINE
  5
583
330
1F
100
AcDbEntity
  8
LAY-1
  6
CONTINUOUS
 62
     4
100
AcDbLine
 10
522.6000000000001
 20
91.59999999999997
 30
0.0
 11
522.6000000000001
 21
144.72
 31
0.0
  0
TEXT
  5
584
330
1F
100
AcDbEntity
  8
LAY-1
  6
CONTINUOUS
 62
     3
100
AcDbText
 10
523.624
 20
135.9988663999999
 30
0.0
 40
6.2362208
  1
作成日
 41
1.500154407240852
  7
EXCADSTD
 72
     5
 11
546.344
 21
135.9988663999999
 31
0.0
100
AcDbText
  0
HATCH
  5
585
330
1F
100
AcDbEntity
  8
LAY-1
  6
CONTINUOUS
 62
     3
100
AcDbHatch
 10
0.0
 20
0.0
 30
0.0
210
0.0
220
0.0
230
1.0
  2
SOLID
 70
     1
 71
     1
 91
        1
 92
        3
 72
     0
 73
     1
 93
       16
 10
623.5039597444977
 20
94.0383428571426
 10
625.0185311730692
 20
94.0383428571426
 10
625.0185311730692
 20
93.06119999999976
 10
620.9633883159262
 20
93.06119999999976
 10
620.9633883159262
 20
94.0383428571426
 10
622.5268168873548
 20
94.0383428571426
 10
622.5268168873548
 20
96.87205714285693
 10
621.3053883159263
 20
96.87205714285693
 10
621.3053883159263
 20
97.84919999999977
 10
622.5268168873548
 20
97.84919999999977
 10
622.5268168873548
 20
99.90119999999979
 10
623.5039597444977
 20
99.90119999999979
 10
623.5039597444977
 20
97.84919999999977
 10
624.9208168873548
 20
97.84919999999977
 10
624.9208168873548
 20
96.87205714285693
 10
623.5039597444977
 20
96.87205714285693
 97
        0
 75
     0
 76
     1
 98
        1
 10
0.0
 20
0.0
  0
HATCH
  5
586
330
1F
100
AcDbEntity
  8
LAY-1
  6
CONTINUOUS
 62
     3
100
AcDbHatch
 10
0.0
 20
0.0
 30
0.0
210
0.0
220
0.0
230
1.0
  2
SOLID
 70
     1
 71
     1
 91
        1
 92
        3
 72
     1
 73
     1
 93
       17
 10
619.5465311730691
 20
95.67038242838373
 42
-0.0318950211674973
 10
618.7159597444976
 20
94.91777142857126
 42
0.0
 10
618.2212308981995
 20
95.77466692632969
 42
0.0949916016553095
 10
620.095419382113
 20
98.04462857142835
 42
0.0
 10
618.471674030212
 20
98.04462857142835
 42
0.0
 10
618.471674030212
 20
98.9240571428569
 42
0.0
 10
619.5465311730692
 20
98.9240571428569
 42
0.0
 10
619.5465311730692
 20
99.90119999999979
 42
0.0
 10
620.4259597444977
 20
99.90119999999979
 42
0.0
 10
620.4259597444977
 20
98.9240571428569
 42
0.0
 10
621.5496740302119
 20
98.92405714285691
 42
-0.0602864643380152
 10
620.6243120402813
 20
97.02442994415458
 42
0.0
 10
621.7939597444976
 20
95.89491428571404
 42
0.0
 10
621.1029101538242
 20
95.20386469504047
 42
0.0
 10
620.4259597444977
 20
95.85758810642807
 42
0.0
 10
620.4259597444977
 20
93.06119999999976
 42
0.0
 10
619.5465311730692
 20
93.06119999999976
 42
0.0
 97
        0
 75
     0
 76
     1
 98
        1
 10
0.0
 20
0.0
  0
HATCH
  5
587
330
1F
100
AcDbEntity
  8
LAY-1
  6
CONTINUOUS
 62
     3
100
AcDbHatch
 10
0.0
 20
0.0
 30
0.0
210
0.0
220
0.0
230
1.0
  2
SOLID
 70
     1
 71
     1
 91
        1
 92
        3
 72
     1
 73
     1
 93
       12
 10
613.5572191578032
 20
95.30862857142833
 42
0.0256955875094629
 10
612.9334527877244
 20
94.03834285714254
 42
0.0
 10
615.9418498928296
 20
94.03834285714267
 42
0.0232158240455905
 10
615.6772074360798
 20
94.82005714285691
 42
0.0
 10
616.6151026016405
 20
94.82005714285691
 42
-0.046485170158253
 10
617.0548168873547
 20
93.06119999999976
 42
0.0
 10
611.6316740302118
 20
93.06119999999974
 42
-0.041546145622575
 10
612.5599597444976
 20
95.30862857142836
 42
0.0
 10
611.1919597444977
 20
95.30862857142836
 42
0.0
 10
611.1919597444977
 20
96.2857714285712
 42
0.0
 10
617.445674030212
 20
96.2857714285712
 42
0.0
 10
617.445674030212
 20
95.30862857142836
 42
0.0
 97
        0
 75
     0
 76
     1
 98
        1
 10
0.0
 20
0.0
  0
HATCH
  5
588
330
1F
100
AcDbEntity
  8
LAY-1
  6
CONTINUOUS
 62
     3
100
AcDbHatch
 10
0.0
 20
0.0
 30
0.0
210
0.0
220
0.0
230
1.0
  2
SOLID
 70
     1
 71
     1
 91
        1
 92
        3
 72
     1
 73
     1
 93
       10
 10
615.7005197188154
 20
97.70262857142833
 42
-0.0302425323326154
 10
614.3188168873552
 20
98.99154640514706
 42
0.0
 10
614.3188168873552
 20
99.90119999999979
 42
0.0
 10
614.8073883159265
 20
99.90119999999978
 42
0.0677425484492925
 10
617.8365311730691
 20
97.36062857142838
 42
0.0
 10
617.2029926122731
 20
96.60560671555263
 42
-0.0240292596661282
 10
615.9799597444977
 20
97.47724668698282
 42
0.0
 10
615.9799597444977
 20
96.72548571428547
 42
0.0
 10
614.3188168873552
 20
96.72548571428547
 42
0.0
 10
614.3188168873552
 20
97.70262857142836
 42
0.0
 97
        0
 75
     0
 76
     1
 98
        1
 10
0.0
 20
0.0
  0
HATCH
  5
589
330
1F
100
AcDbEntity
  8
LAY-1
  6
CONTINUOUS
 62
     3
100
AcDbHatch
 10
0.0
 20
0.0
 30
0.0
210
0.0
220
0.0
230
1.0
  2
SOLID
 70
     1
 71
     1
 91
        1
 92
        3
 72
     1
 73
     1
 93
       10
 10
612.6576740302119
 20
97.47724668698281
 42
-0.0240292596661285
 10
611.4346411624366
 20
96.6056067155526
 42
0.0
 10
610.8011026016404
 20
97.36062857142835
 42
0.0677425484492926
 10
613.8302454587833
 20
99.90119999999979
 42
0.0
 10
614.3188168873552
 20
99.90119999999979
 42
0.0
 10
614.3188168873548
 20
98.99154640514732
 42
-0.0302425323326223
 10
612.9371140558944
 20
97.70262857142836
 42
0.0
 10
614.3188168873552
 20
97.70262857142836
 42
0.0
 10
614.3188168873552
 20
96.72548571428547
 42
0.0
 10
612.657674030212
 20
96.72548571428547
 42
0.0
 97
        0
 75
     0
 76
     1
 98
        1
 10
0.0
 20
0.0
  0
HATCH
  5
58A
330
1F
100
AcDbEntity
  8
LAY-1
  6
CONTINUOUS
 62
     3
100
AcDbHatch
 10
0.0
 20
0.0
 30
0.0
210
0.0
220
0.0
230
1.0
  2
SOLID
 70
     1
 71
     1
 91
        1
 92
        3
 72
     1
 73
     1
 93
       18
 10
609.0631467914634
 20
98.82634285714263
 42
0.0204820379415322
 10
608.7472825928813
 20
99.90119999999979
 42
0.0
 10
609.7751026016405
 20
99.90119999999976
 42
-0.0190097908790505
 10
610.0682454587833
 20
98.82634285714266
 42
0.0
 10
610.4591026016404
 20
98.82634285714266
 42
0.0
 10
610.4591026016404
 20
97.84919999999977
 42
0.0
 10
608.6322883393806
 20
97.84919999999978
 42
0.0682208717797832
 10
609.439933037709
 20
95.18198326766695
 42
0.1684438597742044
 10
610.4591026016404
 20
94.11826377415849
 42
0.0
 10
610.4591026016406
 20
93.06119999999976
 42
-0.2072347897570727
 10
608.5518488615521
 20
94.77441160608424
 42
-0.0716932219901562
 10
607.6439394773953
 20
97.84919999999977
 42
0.0
 10
603.9122454587833
 20
97.84919999999977
 42
0.0
 10
603.9122454587833
 20
98.82634285714266
 42
0.0
 10
607.5430041711569
 20
98.82634285714266
 42
0.0
 10
607.5054693326346
 20
99.90119999999979
 42
0.0
 10
608.4832078016351
 20
99.90119999999979
 42
0.0
 10
608.5207426401574
 20
98.82634285714266
 42
0.0
 97
        0
 75
     0
 76
     1
 98
        1
 10
0.0
 20
0.0
  0
HATCH
  5
58B
330
1F
100
AcDbEntity
  8
LAY-1
  6
CONTINUOUS
 62
     3
100
AcDbHatch
 10
0.0
 20
0.0
 30
0.0
210
0.0
220
0.0
230
1.0
  2
SOLID
 70
     1
 71
     1
 91
        1
 92
        3
 72
     1
 73
     1
 93
       12
 10
606.2573883159262
 20
94.54242747469382
 42
0.0077175353602689
 10
607.7231026016406
 20
94.73240061167775
 42
0.0
 10
607.7231026016404
 20
93.74519999999976
 42
-0.0196098337601156
 10
603.9122454587833
 20
93.35434285714263
 42
0.0
 10
603.9122454587833
 20
94.33346732828372
 42
0.0071653516467131
 10
605.2802454587834
 20
94.44122765356366
 42
0.0
 10
605.2802454587834
 20
95.99262857142833
 42
0.0
 10
603.9122454587833
 20
95.99262857142833
 42
0.0
 10
603.9122454587833
 20
96.96977142857116
 42
0.0
 10
607.4299597444978
 20
96.96977142857116
 42
0.0
 10
607.4299597444978
 20
95.99262857142833
 42
0.0
 10
606.2573883159263
 20
95.99262857142833
 42
0.0
 97
        0
 75
     0
 76
     1
 98
        1
 10
0.0
 20
0.0
  0
HATCH
  5
58C
330
1F
100
AcDbEntity
  8
LAY-1
  6
CONTINUOUS
 62
     3
100
AcDbHatch
 10
0.0
 20
0.0
 30
0.0
210
0.0
220
0.0
230
1.0
  2
SOLID
 70
     1
 71
     1
 91
        1
 92
        3
 72
     1
 73
     1
 93
       30
 10
600.4433883159262
 20
94.88484777782097
 42
-0.0382993261020998
 10
599.341249973642
 20
93.67476691371252
 42
0.0
 10
598.6845311730691
 20
94.33148571428552
 42
0.0560351536284794
 10
600.1013883159261
 20
95.99262857142838
 42
0.0
 10
598.9288168873549
 20
95.99262857142838
 42
0.0
 10
598.9288168873549
 20
96.96977142857122
 42
0.0
 10
600.4433883159262
 20
96.96977142857122
 42
0.0
 10
600.4433883159262
 20
97.94691428571406
 42
0.0
 10
599.9562054427494
 20
97.94691428571403
 42
-0.0155195045322601
 10
599.8078692301275
 20
97.30274794431404
 42
0.0
 10
598.9776740302118
 20
97.60491428571402
 42
0.051935582642784
 10
599.2708168873548
 20
99.60805714285982
 42
0.0
 10
600.1439570820821
 20
99.45409896858834
 42
-0.0147879602104266
 10
600.0922738445273
 20
98.82634285714266
 42
0.0
 10
600.4433883159262
 20
98.82634285714266
 42
0.0
 10
600.4433883159262
 20
99.90119999999979
 42
0.0
 10
601.4205311730691
 20
99.90119999999979
 42
0.0
 10
601.4205311730691
 20
98.82634285714266
 42
0.0
 10
602.739674030212
 20
98.82634285714266
 42
0.0
 10
602.739674030212
 20
97.94691428571406
 42
0.0
 10
601.4205311730691
 20
97.94691428571406
 42
0.0
 10
601.4205311730691
 20
96.96977142857122
 42
0.0
 10
602.9351026016406
 20
96.96977142857122
 42
0.0
 10
602.9351026016406
 20
95.99262857142838
 42
0.0
 10
601.762531173069
 20
95.99262857142833
 42
0.0560351536284794
 10
603.1793883159261
 20
94.33148571428552
 42
0.0
 10
602.5226695153531
 20
93.67476691371253
 42
-0.0382993261020937
 10
601.4205311730691
 20
94.88484777782077
 42
0.0
 10
601.4205311730691
 20
93.06119999999976
 42
0.0
 10
600.4433883159262
 20
93.06119999999976
 42
0.0
 97
        0
 75
     0
 76
     1
 98
        1
 10
0.0
 20
0.0
  0
HATCH
  5
58D
330
1F
100
AcDbEntity
  8
LAY-1
  6
CONTINUOUS
 62
     3
100
AcDbHatch
 10
0.0
 20
0.0
 30
0.0
210
0.0
220
0.0
230
1.0
  2
SOLID
 70
     1
 71
     1
 91
        1
 92
        3
 72
     1
 73
     1
 93
       19
 10
597.4142454587833
 20
95.21110844410539
 42
-0.0200612023046241
 10
596.9873122348954
 20
94.47110068585846
 42
0.0
 10
596.290531173069
 20
95.01548571428549
 42
0.0725999339496624
 10
597.4142454587833
 20
97.60491428571407
 42
0.0
 10
596.5348168873549
 20
97.60491428571407
 42
0.0
 10
596.5348168873549
 20
98.58205714285691
 42
0.0
 10
597.4142454587834
 20
98.58205714285691
 42
0.0
 10
597.4142454587834
 20
99.90119999999979
 42
0.0
 10
598.3913883159263
 20
99.90119999999979
 42
0.0
 10
598.3913883159263
 20
98.58205714285691
 42
0.0
 10
598.8311026016405
 20
98.58205714285691
 42
0.0
 10
598.8311026016405
 20
97.60491428571407
 42
0.0
 10
598.3913883159262
 20
97.60491428571407
 42
0.0
 10
598.9288168873549
 20
96.83738674266198
 42
0.0
 10
598.9288168873549
 20
96.2425149164049
 42
0.0
 10
598.6356740302118
 20
95.89316086326147
 42
0.0
 10
598.3913883159263
 20
96.24203701919413
 42
0.0
 10
598.3913883159263
 20
93.06119999999976
 42
0.0
 10
597.4142454587834
 20
93.06119999999976
 42
0.0
 97
        0
 75
     0
 76
     1
 98
        1
 10
0.0
 20
0.0
  0
HATCH
  5
58E
330
1F
100
AcDbEntity
  8
LAY-1
  6
CONTINUOUS
 62
     3
100
AcDbHatch
 10
0.0
 20
0.0
 30
0.0
210
0.0
220
0.0
230
1.0
  2
SOLID
 70
     1
 71
     1
 91
        1
 92
        3
 72
     1
 73
     1
 93
        8
 10
592.0867199781039
 20
94.01879999999962
 42
0.2679491924310503
 10
593.7453318314314
 20
94.97639999999966
 42
0.267949192431121
 10
593.7453318314314
 20
97.98599999999963
 42
0.2679491924310509
 10
592.0867199781039
 20
98.94359999999966
 42
0.0
 10
592.0867199781039
 20
100.0379999999999
 42
-0.2679491924310369
 10
594.693110033333
 20
98.53320000000004
 42
-0.2679491924311528
 10
594.6931100333328
 20
94.42919999999886
 42
-0.2679491924310151
 10
592.0867199781039
 20
92.92439999999948
 42
0.0
 97
        0
 75
     0
 76
     1
 98
        1
 10
0.0
 20
0.0
  0
HATCH
  5
58F
330
1F
100
AcDbEntity
  8
LAY-1
  6
CONTINUOUS
 62
     3
100
AcDbHatch
 10
0.0
 20
0.0
 30
0.0
210
0.0
220
0.0
230
1.0
  2
SOLID
 70
     1
 71
     1
 91
        1
 92
        3
 72
     1
 73
     1
 93
        8
 10
592.0867199781039
 20
92.92439999999951
 42
-0.2679491924311271
 10
589.4803299228738
 20
94.4291999999994
 42
-0.2679491924311523
 10
589.480329922874
 20
98.5332000000005
 42
-0.2679491924311101
 10
592.0867199781039
 20
100.0379999999998
 42
0.0
 10
592.0867199781039
 20
98.94359999999965
 42
0.2679491924311969
 10
590.4281081247753
 20
97.98599999999965
 42
0.2679491924311206
 10
590.4281081247753
 20
94.97639999999963
 42
0.267949192431196
 10
592.0867199781039
 20
94.0187999999996
 42
0.0
 97
        0
 75
     0
 76
     1
 98
        1
 10
0.0
 20
0.0
  0
HATCH
  5
590
330
1F
100
AcDbEntity
  8
LAY-1
  6
CONTINUOUS
 62
     3
100
AcDbHatch
 10
0.0
 20
0.0
 30
0.0
210
0.0
220
0.0
230
1.0
  2
SOLID
 70
     1
 71
     1
 91
        1
 92
        3
 72
     0
 73
     1
 93
        4
 10
587.8459199781033
 20
95.2499999999996
 10
586.7515199781034
 20
95.2499999999996
 10
586.7515199781034
 20
96.34439999999961
 10
587.8459199781033
 20
96.34439999999961
 97
        0
 75
     0
 76
     1
 98
        1
 10
0.0
 20
0.0
  0
HATCH
  5
591
330
1F
100
AcDbEntity
  8
LAY-1
  6
CONTINUOUS
 62
     3
100
AcDbHatch
 10
0.0
 20
0.0
 30
0.0
210
0.0
220
0.0
230
1.0
  2
SOLID
 70
     1
 71
     1
 91
        1
 92
        3
 72
     0
 73
     1
 93
       16
 10
582.6475199781033
 20
98.80679999999967
 10
581.1427199781034
 20
98.80679999999967
 10
580.8691199781034
 20
97.30199999999962
 10
580.0483199781035
 20
97.30199999999962
 10
580.0483199781035
 20
99.90119999999962
 10
586.3411199781034
 20
99.90119999999962
 10
586.3411199781034
 20
97.30199999999962
 10
585.5203199781034
 20
97.30199999999962
 10
585.2467199781034
 20
98.80679999999967
 10
583.7419199781033
 20
98.80679999999967
 10
583.7419199781034
 20
94.15559999999965
 10
584.8363199781035
 20
93.8819999999996
 10
584.8363199781035
 20
93.06119999999959
 10
581.5531199781034
 20
93.06119999999959
 10
581.5531199781034
 20
93.8819999999996
 10
582.6475199781033
 20
94.15559999999965
 97
        0
 75
     0
 76
     1
 98
        1
 10
0.0
 20
0.0
  0
HATCH
  5
592
330
1F
100
AcDbEntity
  8
LAY-1
  6
CONTINUOUS
 62
     3
100
AcDbHatch
 10
0.0
 20
0.0
 30
0.0
210
0.0
220
0.0
230
1.0
  2
SOLID
 70
     1
 71
     1
 91
        1
 92
        3
 72
     0
 73
     1
 93
        4
 10
578.5435199781033
 20
95.2499999999996
 10
578.5435199781034
 20
96.34439999999967
 10
579.6379199781034
 20
96.34439999999961
 10
579.6379199781034
 20
95.2499999999996
 97
        0
 75
     0
 76
     1
 98
        1
 10
0.0
 20
0.0
  0
HATCH
  5
593
330
1F
100
AcDbEntity
  8
LAY-1
  6
CONTINUOUS
 62
     3
100
AcDbHatch
 10
0.0
 20
0.0
 30
0.0
210
0.0
220
0.0
230
1.0
  2
SOLID
 70
     1
 71
     1
 91
        1
 92
        3
 72
     0
 73
     1
 93
       12
 10
577.3123199781033
 20
99.90119999999962
 10
577.3123199781033
 20
99.08039999999966
 10
576.2179199781034
 20
98.80679999999967
 10
576.2179199781034
 20
94.15559999999965
 10
577.3123199781033
 20
93.8819999999996
 10
577.3123199781033
 20
93.06119999999959
 10
574.0291199781033
 20
93.06119999999959
 10
574.0291199781033
 20
93.8819999999996
 10
575.1235199781033
 20
94.15559999999965
 10
575.1235199781033
 20
98.80679999999967
 10
574.0291199781033
 20
99.08039999999966
 10
574.0291199781033
 20
99.90119999999962
 97
        0
 75
     0
 76
     1
 98
        1
 10
0.0
 20
0.0
  0
HATCH
  5
594
330
1F
100
AcDbEntity
  8
LAY-1
  6
CONTINUOUS
 62
     3
100
AcDbHatch
 10
0.0
 20
0.0
 30
0.0
210
0.0
220
0.0
230
1.0
  2
SOLID
 70
     1
 71
     1
 91
        1
 92
        3
 72
     1
 73
     1
 93
       15
 10
564.8722589605594
 20
93.97215605212648
 42
-0.2479327466132013
 10
563.5466229422996
 20
96.48119999999994
 42
0.0
 10
564.6926959426501
 20
96.48119999999993
 42
0.0851341857469254
 10
564.8615877409528
 20
95.49647395922226
 42
0.0986382041447898
 10
565.3609294083205
 20
95.6150040676774
 42
0.2932733248970212
 10
565.6003816203407
 20
95.98813228959051
 42
0.0
 10
565.6003816203407
 20
96.48119999999994
 42
0.0
 10
566.5854401261913
 20
96.48119999999994
 42
0.0
 10
566.5854401261914
 20
95.98726136703334
 42
0.2932733248970227
 10
566.8248923382116
 20
95.61413314512026
 42
0.0986382041447956
 10
567.3242340055793
 20
95.49560303666516
 42
0.0
 10
567.3242340055793
 20
95.24933841020254
 42
0.0
 10
564.9616884129916
 20
95.2493384102025
 42
0.2846821906946901
 10
567.554977057685
 20
93.52748488687217
 42
0.0
 10
567.5549770576852
 20
93.11645954240521
 42
-0.1459753572646559
 97
        0
 75
     0
 76
     1
 98
        1
 10
0.0
 20
0.0
  0
HATCH
  5
595
330
1F
100
AcDbEntity
  8
LAY-1
  6
CONTINUOUS
 62
     3
100
AcDbHatch
 10
0.0
 20
0.0
 30
0.0
210
0.0
220
0.0
230
1.0
  2
SOLID
 70
     1
 71
     1
 91
        1
 92
        3
 72
     1
 73
     1
 93
       24
 10
567.0779097113207
 20
97.30208208820865
 42
0.3027756377320026
 10
566.6990410552243
 20
97.04950298414435
 42
0.0990195135927522
 10
566.5853804583953
 20
96.48119999999994
 42
0.0
 10
565.6003816203407
 20
96.48119999999994
 42
0.0
 10
565.6003816203408
 20
98.61212648751716
 42
0.2041065183978106
 10
564.69269594265
 20
96.48119999999994
 42
0.0
 10
563.5466229422996
 20
96.48119999999996
 42
-0.2479327466131622
 10
564.8722589605595
 20
98.99024394787307
 42
-0.0425119632079822
 10
565.6003816203407
 20
99.40106551054333
 42
0.0
 10
565.6003816203408
 20
99.84714902672903
 42
0.2932733248970212
 10
565.3609294083204
 20
100.2202772486422
 42
0.0986382041447921
 10
564.8615877409528
 20
100.3388073570973
 42
0.0
 10
564.8615877409528
 20
100.5850719835599
 42
0.0
 10
567.3242340055793
 20
100.5850719835599
 42
0.0
 10
567.3242340055792
 20
100.3388073570973
 42
0.0986382041447851
 10
566.8248923382116
 20
100.2202772486422
 42
0.2932733248969983
 10
566.5854401261914
 20
99.84714902672903
 42
0.0
 10
566.5854401261914
 20
99.73086350464096
 42
-0.0496798992579211
 10
567.554977057685
 20
99.8459404575944
 42
0.0
 10
567.554977057685
 20
99.43491511312737
 42
0.0842759109890063
 10
566.5854401261913
 20
99.23878988974951
 42
0.0
 10
566.5854401261913
 20
97.71252313231304
 42
0.0
 10
567.5549770576852
 20
97.71252313231304
 42
0.0
 10
567.554977057685
 20
97.30208208820858
 42
0.0
 97
        0
 75
     0
 76
     1
 98
        1
 10
0.0
 20
0.0
  0
HATCH
  5
596
330
1F
100
AcDbEntity
  8
LAY-1
  6
CONTINUOUS
 62
     3
100
AcDbHatch
 10
0.0
 20
0.0
 30
0.0
210
0.0
220
0.0
230
1.0
  2
SOLID
 70
     1
 71
     1
 91
        1
 92
        3
 72
     1
 73
     1
 93
       14
 10
570.6030469777536
 20
96.48119999999993
 42
0.0405216457160254
 10
570.564354872477
 20
96.95784121250817
 42
0.3675231814697204
 10
570.1592877318832
 20
97.30208208820858
 42
0.0
 10
569.2896356366194
 20
97.30208208820858
 42
0.0
 10
569.2896356366194
 20
96.48119999999994
 42
0.0
 10
568.3045771307688
 20
96.48119999999994
 42
0.0
 10
568.3045771307688
 20
97.30208208820858
 42
0.0
 10
567.554977057685
 20
97.30208208820858
 42
0.0
 10
567.554977057685
 20
97.71252313231304
 42
0.0
 10
570.3343013743012
 20
97.712523132313
 42
0.3018084962625866
 10
567.554977057685
 20
99.43491511312737
 42
0.0
 10
567.5549770576852
 20
99.84594045759434
 42
-0.1556207860285077
 10
570.4234839598441
 20
98.99024394787307
 42
-0.2479327466131704
 10
571.749119978104
 20
96.48119999999994
 42
0.0
 97
        0
 75
     0
 76
     1
 98
        1
 10
0.0
 20
0.0
  0
HATCH
  5
597
330
1F
100
AcDbEntity
  8
LAY-1
  6
CONTINUOUS
 62
     3
100
AcDbHatch
 10
0.0
 20
0.0
 30
0.0
210
0.0
220
0.0
230
1.0
  2
SOLID
 70
     1
 71
     1
 91
        1
 92
        3
 72
     1
 73
     1
 93
       19
 10
569.2896356366194
 20
94.02403237678618
 42
0.2504916501726884
 10
570.6030469777535
 20
96.48119999999994
 42
0.0
 10
571.749119978104
 20
96.48119999999996
 42
-0.2479327466132034
 10
570.423483959844
 20
93.97215605212641
 42
-0.0647982499650098
 10
569.2896356366194
 20
93.39726563858045
 42
0.0
 10
569.2896356366193
 20
93.1147125157865
 42
0.2932733248970212
 10
569.5290878486398
 20
92.7415842938734
 42
0.0986382041447949
 10
570.0284295160073
 20
92.62305418541831
 42
0.0
 10
570.0284295160073
 20
92.37678955895564
 42
0.0
 10
567.5657832513809
 20
92.37678955895564
 42
0.0
 10
567.5657832513809
 20
92.62305418541833
 42
0.0986382041447934
 10
568.0651249187486
 20
92.74158429387339
 42
0.2932733248970212
 10
568.3045771307688
 20
93.1147125157865
 42
0.0
 10
568.3045771307688
 20
93.15956014489481
 42
-0.0381668652852349
 10
567.554977057685
 20
93.11645954240521
 42
0.0
 10
567.554977057685
 20
93.52748488687217
 42
0.0639702334410101
 10
568.3045771307688
 20
93.59991556388758
 42
0.0
 10
568.3045771307688
 20
96.48119999999994
 42
0.0
 10
569.2896356366194
 20
96.48119999999994
 42
0.0
 97
        0
 75
     0
 76
     1
 98
        1
 10
0.0
 20
0.0
  0
TEXT
  5
598
330
1F
100
AcDbEntity
  8
LAY-1
  6
CONTINUOUS
 62
     3
100
AcDbText
 10
554.792
 20
135.9988663999999
 30
0.0
 40
6.2362208
  1
２０２０年　３月１７日
 41
1.497553922894604
  7
EXCADSTD
 72
     5
 11
641.5120000000001
 21
135.9988663999999
 31
0.0
100
AcDbText
  0
TEXT
  5
599
330
1F
100
AcDbEntity
  8
LAY-1
  6
CONTINUOUS
 62
     3
100
AcDbText
 10
550.5744
 20
124.9588664
 30
0.0
 40
6.2362208
  1
ＢＲＶＳ－１０Ａ－０１（Ｒｃ１／４、リセット右）
 41
0.894800211184187
  7
EXCADSTD
 72
     5
 11
664.5693359289805
 21
124.9588664
 31
0.0
100
AcDbText
  0
TEXT
  5
59A
330
1F
100
AcDbEntity
  8
LAY-1
  6
CONTINUOUS
 62
     3
100
AcDbText
 10
550.5616
 20
113.7972664
 30
0.0
 40
6.2362208
  1
高性能型二段式一体型調整器（ガス放出防止器内蔵）
 41
0.9080553406748456
  7
EXCADSTD
 72
     5
 11
666.2452007483801
 21
113.7972664
 31
0.0
100
AcDbText
  0
LINE
  5
59B
330
1F
100
AcDbEntity
  8
LAY-1
  6
CONTINUOUS
 62
     2
100
AcDbLine
 10
404.0699496765518
 20
259.5501525182812
 30
0.0
 11
418.2120853002828
 21
259.5501525182812
 31
0.0
  0
LINE
  5
59C
330
1F
100
AcDbEntity
  8
LAY-1
  6
CONTINUOUS
 62
     2
100
AcDbLine
 10
404.0699496765518
 20
254.5501525182812
 30
0.0
 11
418.2120853002828
 21
254.5501525182812
 31
0.0
  0
LINE
  5
59D
330
1F
100
AcDbEntity
  8
LAY-1
  6
EXLTYPE2
 62
     1
100
AcDbLine
 10
411.0210141953626
 20
442.1621462081002
 30
0.0
 11
411.0210141953626
 21
543.2621462081001
 31
0.0
  0
LINE
  5
59E
330
1F
100
AcDbEntity
  8
LAY-1
  6
CONTINUOUS
 62
     2
100
AcDbLine
 10
385.0086800601364
 20
476.1572284465554
 30
0.0
 11
385.2725842927148
 21
468.6000000000017
 31
0.0
  0
LINE
  5
59F
330
1F
100
AcDbEntity
  8
LAY-1
  6
CONTINUOUS
 62
     2
100
AcDbLine
 10
437.0333483305783
 20
476.1572284465538
 30
0.0
 11
436.7694440979999
 21
468.6000000000017
 31
0.0
  0
ARC
  5
5A0
330
1F
100
AcDbEntity
  8
LAY-1
  6
CONTINUOUS
 62
     2
100
AcDbCircle
 10
431.7710141953603
 20
478.2708348753612
 30
0.0
 40
1.5
100
AcDbArc
 50
180.0000000000002
 51
240.0000000000001
  0
LINE
  5
5A1
330
1F
100
AcDbEntity
  8
LAY-1
  6
CONTINUOUS
 62
     2
100
AcDbLine
 10
430.2710141953603
 20
478.2708348753612
 30
0.0
 11
430.2710141953603
 21
479.5999999999603
 31
0.0
  0
ARC
  5
5A2
330
1F
100
AcDbEntity
  8
LAY-1
  6
CONTINUOUS
 62
     2
100
AcDbCircle
 10
435.0210141953603
 20
483.89999999996
 30
0.0
 40
8.0
100
AcDbArc
 50
240.0000000000001
 51
270.0000000000002
  0
ARC
  5
5A3
330
1F
100
AcDbEntity
  8
LAY-1
  6
CONTINUOUS
 62
     2
100
AcDbCircle
 10
438.2710141953603
 20
478.2708348753612
 30
0.0
 40
1.5
100
AcDbArc
 50
300.0000000000002
 51
0.0000000000001719
  0
LINE
  5
5A4
330
1F
100
AcDbEntity
  8
LAY-1
  6
CONTINUOUS
 62
     2
100
AcDbLine
 10
439.7710141953603
 20
478.2708348753612
 30
0.0
 11
439.7710141953603
 21
479.5999999999603
 31
0.0
  0
ARC
  5
5A5
330
1F
100
AcDbEntity
  8
LAY-1
  6
CONTINUOUS
 62
     2
100
AcDbCircle
 10
435.0210141953603
 20
483.89999999996
 30
0.0
 40
8.0
100
AcDbArc
 50
270.0000000000002
 51
300.0000000000002
  0
ARC
  5
5A6
330
1F
100
AcDbEntity
  8
LAY-1
  6
CONTINUOUS
 62
     2
100
AcDbCircle
 10
390.2710141953603
 20
478.2708348753612
 30
0.0
 40
1.5
100
AcDbArc
 50
300.0000000000002
 51
0.0000000000001719
  0
ARC
  5
5A7
330
1F
100
AcDbEntity
  8
LAY-1
  6
CONTINUOUS
 62
     2
100
AcDbCircle
 10
387.0210141953603
 20
483.89999999996
 30
0.0
 40
8.0
100
AcDbArc
 50
270.0000000000002
 51
300.0000000000002
  0
LINE
  5
5A8
330
1F
100
AcDbEntity
  8
LAY-1
  6
CONTINUOUS
 62
     2
100
AcDbLine
 10
391.7710141953603
 20
478.2708348753612
 30
0.0
 11
391.7710141953603
 21
479.5999999999603
 31
0.0
  0
ARC
  5
5A9
330
1F
100
AcDbEntity
  8
LAY-1
  6
CONTINUOUS
 62
     2
100
AcDbCircle
 10
383.7710141953603
 20
478.2708348753612
 30
0.0
 40
1.5
100
AcDbArc
 50
180.0000000000002
 51
240.0000000000001
  0
ARC
  5
5AA
330
1F
100
AcDbEntity
  8
LAY-1
  6
CONTINUOUS
 62
     2
100
AcDbCircle
 10
387.0210141953603
 20
483.89999999996
 30
0.0
 40
8.0
100
AcDbArc
 50
240.0000000000001
 51
270.0000000000002
  0
LINE
  5
5AB
330
1F
100
AcDbEntity
  8
LAY-1
  6
CONTINUOUS
 62
     2
100
AcDbLine
 10
382.2710141953603
 20
478.2708348753612
 30
0.0
 11
382.2710141953603
 21
479.5999999999603
 31
0.0
  0
LINE
  5
5AC
330
1F
100
AcDbEntity
  8
LAY-1
  6
CONTINUOUS
 62
     2
100
AcDbLine
 10
441.0210141953557
 20
491.1000000000003
 30
0.0
 11
441.0210141953557
 21
480.1000000000003
 31
0.0
  0
ARC
  5
5AD
330
1F
100
AcDbEntity
  8
LAY-1
  6
CONTINUOUS
 62
     2
100
AcDbCircle
 10
440.5210141953535
 20
480.0999999999644
 30
0.0
 40
0.5
100
AcDbArc
 50
270.0000000000002
 51
0.0000000000000573
  0
LINE
  5
5AE
330
1F
100
AcDbEntity
  8
LAY-1
  6
CONTINUOUS
 62
     2
100
AcDbLine
 10
381.0210141953703
 20
491.1000000000003
 30
0.0
 11
381.0210141953703
 21
480.1000000000003
 31
0.0
  0
ARC
  5
5AF
330
1F
100
AcDbEntity
  8
LAY-1
  6
CONTINUOUS
 62
     2
100
AcDbCircle
 10
381.5210141953726
 20
480.0999999999644
 30
0.0
 40
0.5
100
AcDbArc
 50
180.0
 51
270.0000000000002
  0
LINE
  5
5B0
330
1F
100
AcDbEntity
  8
LAY-1
  6
CONTINUOUS
 62
     2
100
AcDbLine
 10
411.0210141953626
 20
463.1000000000017
 30
0.0
 11
439.0210141953548
 21
463.1000000000017
 31
0.0
  0
LINE
  5
5B1
330
1F
100
AcDbEntity
  8
LAY-1
  6
CONTINUOUS
 62
     2
100
AcDbLine
 10
411.0210141953626
 20
464.6000000000008
 30
0.0
 11
440.5210141953603
 21
464.6000000000008
 31
0.0
  0
LINE
  5
5B2
330
1F
100
AcDbEntity
  8
LAY-1
  6
CONTINUOUS
 62
     2
100
AcDbLine
 10
440.5210141953571
 20
468.6000000000017
 30
0.0
 11
411.0210141953626
 21
468.6000000000017
 31
0.0
  0
LINE
  5
5B3
330
1F
100
AcDbEntity
  8
LAY-1
  6
CONTINUOUS
 62
     2
100
AcDbLine
 10
383.0210141953598
 20
463.1000000000017
 30
0.0
 11
411.0210141953603
 21
463.1000000000017
 31
0.0
  0
LINE
  5
5B4
330
1F
100
AcDbEntity
  8
LAY-1
  6
CONTINUOUS
 62
     2
100
AcDbLine
 10
381.5210141953603
 20
464.6000000000008
 30
0.0
 11
411.0210141953626
 21
464.6000000000008
 31
0.0
  0
LINE
  5
5B5
330
1F
100
AcDbEntity
  8
LAY-1
  6
CONTINUOUS
 62
     2
100
AcDbLine
 10
381.5210141953571
 20
468.6000000000017
 30
0.0
 11
411.0210141953626
 21
468.6000000000017
 31
0.0
  0
LINE
  5
5B6
330
1F
100
AcDbEntity
  8
LAY-1
  6
CONTINUOUS
 62
     2
100
AcDbLine
 10
381.8125168174915
 20
475.5999999999644
 30
0.0
 11
385.0281389062739
 21
475.5999999999644
 31
0.0
  0
LINE
  5
5B7
330
1F
100
AcDbEntity
  8
LAY-1
  6
CONTINUOUS
 62
     2
100
AcDbLine
 10
440.2295115732331
 20
475.5999999999644
 30
0.0
 11
437.0138894844408
 21
475.5999999999644
 31
0.0
  0
LINE
  5
5B8
330
1F
100
AcDbEntity
  8
LAY-1
  6
CONTINUOUS
 62
     2
100
AcDbLine
 10
447.5210141953812
 20
479.5999999999644
 30
0.0
 11
411.0210141953626
 21
479.5999999999644
 31
0.0
  0
LINE
  5
5B9
330
1F
100
AcDbEntity
  8
LAY-1
  6
CONTINUOUS
 62
     2
100
AcDbLine
 10
411.0210141953603
 20
479.5999999999644
 30
0.0
 11
374.5210141953826
 21
479.5999999999644
 31
0.0
  0
LINE
  5
5BA
330
1F
100
AcDbEntity
  8
LAY-1
  6
CONTINUOUS
 62
     2
100
AcDbLine
 10
374.0210141953403
 20
484.6000000000403
 30
0.0
 11
448.0210141953803
 21
484.6000000000403
 31
0.0
  0
LINE
  5
5BB
330
1F
100
AcDbEntity
  8
LAY-1
  6
CONTINUOUS
 62
     2
100
AcDbLine
 10
381.5210141953571
 20
464.6000000000039
 30
0.0
 11
383.0210141953607
 21
463.1000000000008
 31
0.0
  0
LINE
  5
5BC
330
1F
100
AcDbEntity
  8
LAY-1
  6
CONTINUOUS
 62
     2
100
AcDbLine
 10
439.0210141953567
 20
463.100000000003
 30
0.0
 11
440.5210141953548
 21
464.6000000000017
 31
0.0
  0
LINE
  5
5BD
330
1F
100
AcDbEntity
  8
LAY-1
  6
CONTINUOUS
 62
     2
100
AcDbLine
 10
383.5733953495969
 20
463.1000000000003
 30
0.0
 11
383.9936633007774
 21
451.0651005032996
 31
0.0
  0
LINE
  5
5BE
330
1F
100
AcDbEntity
  8
LAY-1
  6
CONTINUOUS
 62
     2
100
AcDbLine
 10
381.5210141953571
 20
464.6000000000017
 30
0.0
 11
381.5210141953571
 21
468.6000000000017
 31
0.0
  0
LINE
  5
5BF
330
1F
100
AcDbEntity
  8
LAY-1
  6
CONTINUOUS
 62
     2
100
AcDbLine
 10
438.4686330411178
 20
463.1000000000008
 30
0.0
 11
438.0483650899369
 21
451.0651005032996
 31
0.0
  0
LINE
  5
5C0
330
1F
100
AcDbEntity
  8
LAY-1
  6
CONTINUOUS
 62
     2
100
AcDbLine
 10
439.0210141953548
 20
463.1000000000017
 30
0.0
 11
438.4686330411178
 21
463.1000000000017
 31
0.0
  0
ARC
  5
5C1
330
1F
100
AcDbEntity
  8
LAY-1
  6
CONTINUOUS
 62
     2
100
AcDbCircle
 10
437.0489742629179
 20
451.1000000000017
 30
0.0
 40
1.0
100
AcDbArc
 50
270.0000000000002
 51
357.9999999999998
  0
LINE
  5
5C2
330
1F
100
AcDbEntity
  8
LAY-1
  6
CONTINUOUS
 62
     2
100
AcDbLine
 10
440.5210141953571
 20
464.6000000000017
 30
0.0
 11
440.5210141953571
 21
468.6000000000017
 31
0.0
  0
LINE
  5
5C3
330
1F
100
AcDbEntity
  8
LAY-1
  6
CONTINUOUS
 62
     2
100
AcDbLine
 10
437.0489742629179
 20
450.1000000000017
 30
0.0
 11
384.9930541277968
 21
450.1000000000017
 31
0.0
  0
ARC
  5
5C4
330
1F
100
AcDbEntity
  8
LAY-1
  6
CONTINUOUS
 62
     2
100
AcDbCircle
 10
384.9930541277968
 20
451.1000000000017
 30
0.0
 40
1.0
100
AcDbArc
 50
182.0000000000005
 51
270.0000000000002
  0
ARC
  5
5C5
330
1F
100
AcDbEntity
  8
LAY-1
  6
CONTINUOUS
 62
     2
100
AcDbCircle
 10
440.2295115732331
 20
479.5999999999644
 30
0.0
 40
4.0
100
AcDbArc
 50
270.0000000000002
 51
344.1733798681273
  0
ARC
  5
5C6
330
1F
100
AcDbEntity
  8
LAY-1
  6
CONTINUOUS
 62
     2
100
AcDbCircle
 10
445.5210141953626
 20
478.0999999999644
 30
0.0
 40
1.5
100
AcDbArc
 50
90.0000000000002
 51
164.1733798681302
  0
ARC
  5
5C7
330
1F
100
AcDbEntity
  8
LAY-1
  6
CONTINUOUS
 62
     2
100
AcDbCircle
 10
381.8125168174915
 20
479.5999999999644
 30
0.0
 40
4.0
100
AcDbArc
 50
195.8266201318729
 51
270.0000000000002
  0
ARC
  5
5C8
330
1F
100
AcDbEntity
  8
LAY-1
  6
CONTINUOUS
 62
     2
100
AcDbCircle
 10
376.5210141953626
 20
478.0999999999644
 30
0.0
 40
1.5
100
AcDbArc
 50
15.82662013187226
 51
90.0000000000002
  0
LINE
  5
5C9
330
1F
100
AcDbEntity
  8
LAY-1
  6
CONTINUOUS
 62
     2
100
AcDbLine
 10
374.0210141953826
 20
480.0999999999644
 30
0.0
 11
374.0210141953826
 21
482.5999999999644
 31
0.0
  0
LINE
  5
5CA
330
1F
100
AcDbEntity
  8
LAY-1
  6
CONTINUOUS
 62
     2
100
AcDbLine
 10
448.0210141953812
 20
480.0999999999644
 30
0.0
 11
448.0210141953812
 21
482.5999999999644
 31
0.0
  0
ARC
  5
5CB
330
1F
100
AcDbEntity
  8
LAY-1
  6
CONTINUOUS
 62
     2
100
AcDbCircle
 10
447.5210141953812
 20
480.0999999999644
 30
0.0
 40
0.5
100
AcDbArc
 50
270.0000000000002
 51
0.0000000000000573
  0
ARC
  5
5CC
330
1F
100
AcDbEntity
  8
LAY-1
  6
CONTINUOUS
 62
     2
100
AcDbCircle
 10
374.5210141953826
 20
480.0999999999644
 30
0.0
 40
0.5
100
AcDbArc
 50
180.0
 51
270.0000000000002
  0
LINE
  5
5CD
330
1F
100
AcDbEntity
  8
LAY-1
  6
CONTINUOUS
 62
     2
100
AcDbLine
 10
374.0210141953826
 20
482.0999999999644
 30
0.0
 11
374.0210141953826
 21
484.5999999999644
 31
0.0
  0
LINE
  5
5CE
330
1F
100
AcDbEntity
  8
LAY-1
  6
CONTINUOUS
 62
     2
100
AcDbLine
 10
448.0210141953812
 20
482.0999999999644
 30
0.0
 11
448.0210141953812
 21
484.5999999999644
 31
0.0
  0
ARC
  5
5CF
330
1F
100
AcDbEntity
  8
LAY-1
  6
CONTINUOUS
 62
     2
100
AcDbCircle
 10
440.0210141953499
 20
491.1000000000399
 30
0.0
 40
1.0
100
AcDbArc
 50
0.0000000000000573
 51
90.00000000000001
  0
ARC
  5
5D0
330
1F
100
AcDbEntity
  8
LAY-1
  6
CONTINUOUS
 62
     2
100
AcDbCircle
 10
382.02101419537
 20
491.1000000000399
 30
0.0
 40
1.0
100
AcDbArc
 50
90.00000000000001
 51
180.0
  0
LINE
  5
5D1
330
1F
100
AcDbEntity
  8
LAY-1
  6
CONTINUOUS
 62
     2
100
AcDbLine
 10
441.0210141953499
 20
484.6000000000399
 30
0.0
 11
381.02101419539
 21
484.6000000000399
 31
0.0
  0
LINE
  5
5D2
330
1F
100
AcDbEntity
  8
LAY-1
  6
CONTINUOUS
 62
     2
100
AcDbLine
 10
440.0210141953499
 20
492.1000000000399
 30
0.0
 11
382.02101419537
 21
492.1000000000399
 31
0.0
  0
ARC
  5
5D3
330
1F
100
AcDbEntity
  8
LAY-1
  6
CONTINUOUS
 62
     2
100
AcDbCircle
 10
432.9340404957505
 20
504.1000000000399
 30
0.0
 40
3.000000000000002
100
AcDbArc
 50
2.000000000000367
 51
90.00000000000001
  0
LINE
  5
5D4
330
1F
100
AcDbEntity
  8
LAY-1
  6
CONTINUOUS
 62
     2
100
AcDbLine
 10
436.2538122059119
 20
494.9953015099323
 30
0.0
 11
435.9322129768078
 21
504.2046984901474
 31
0.0
  0
ARC
  5
5D5
330
1F
100
AcDbEntity
  8
LAY-1
  6
CONTINUOUS
 62
     2
100
AcDbCircle
 10
439.2519846869692
 20
495.1000000000399
 30
0.0
 40
3.000000000000001
100
AcDbArc
 50
182.0000000000007
 51
270.0
  0
LINE
  5
5D6
330
1F
100
AcDbEntity
  8
LAY-1
  6
CONTINUOUS
 62
     2
100
AcDbLine
 10
432.9340404957505
 20
507.1000000000399
 30
0.0
 11
419.12101419536
 21
507.1000000000399
 31
0.0
  0
LINE
  5
5D7
330
1F
100
AcDbEntity
  8
LAY-1
  6
CONTINUOUS
 62
     2
100
AcDbLine
 10
385.788216184808
 20
494.9953015099324
 30
0.0
 11
386.1098154139121
 21
504.2046984901474
 31
0.0
  0
ARC
  5
5D8
330
1F
100
AcDbEntity
  8
LAY-1
  6
CONTINUOUS
 62
     2
100
AcDbCircle
 10
382.7900437037507
 20
495.1000000000399
 30
0.0
 40
3.000000000000001
100
AcDbArc
 50
270.0
 51
357.9999999999997
  0
LINE
  5
5D9
330
1F
100
AcDbEntity
  8
LAY-1
  6
CONTINUOUS
 62
     2
100
AcDbLine
 10
381.02101419537
 20
492.60000000004
 30
0.0
 11
381.02101419537
 21
484.6000000000399
 31
0.0
  0
LINE
  5
5DA
330
1F
100
AcDbEntity
  8
LAY-1
  6
CONTINUOUS
 62
     2
100
AcDbLine
 10
389.1079878949694
 20
507.1000000000399
 30
0.0
 11
402.9210141953599
 21
507.1000000000399
 31
0.0
  0
ARC
  5
5DB
330
1F
100
AcDbEntity
  8
LAY-1
  6
CONTINUOUS
 62
     2
100
AcDbCircle
 10
389.1079878949694
 20
504.1000000000399
 30
0.0
 40
3.000000000000002
100
AcDbArc
 50
103.5579006321907
 51
177.9999999999997
  0
ARC
  5
5DC
330
1F
100
AcDbEntity
  8
LAY-1
  6
CONTINUOUS
 62
     2
100
AcDbCircle
 10
387.7014206185812
 20
509.9328010850243
 30
0.0
 40
3.0
100
AcDbArc
 50
283.5579006321904
 51
357.9999999999997
  0
LINE
  5
5DD
330
1F
100
AcDbEntity
  8
LAY-1
  6
CONTINUOUS
 62
     2
100
AcDbLine
 10
390.6995930996385
 20
509.8281025949166
 30
0.0
 11
390.904808350292
 21
515.7046984901474
 31
0.0
  0
LINE
  5
5DE
330
1F
100
AcDbEntity
  8
LAY-1
  6
CONTINUOUS
 62
     2
100
AcDbLine
 10
397.52101419536
 20
518.6000000000399
 30
0.0
 11
393.9029808313493
 21
518.6000000000399
 31
0.0
  0
ARC
  5
5DF
330
1F
100
AcDbEntity
  8
LAY-1
  6
CONTINUOUS
 62
     2
100
AcDbCircle
 10
393.9029808313493
 20
515.6000000000399
 30
0.0
 40
3.0
100
AcDbArc
 50
90.00000000000001
 51
177.9999999999997
  0
LINE
  5
5E0
330
1F
100
AcDbEntity
  8
LAY-1
  6
CONTINUOUS
 62
     2
100
AcDbLine
 10
441.0210141953499
 20
492.6000000000399
 30
0.0
 11
441.0210141953499
 21
484.6000000000399
 31
0.0
  0
LINE
  5
5E1
330
1F
100
AcDbEntity
  8
LAY-1
  6
CONTINUOUS
 62
     2
100
AcDbLine
 10
424.52101419536
 20
518.6000000000399
 30
0.0
 11
428.1390475593706
 21
518.6000000000399
 31
0.0
  0
LINE
  5
5E2
330
1F
100
AcDbEntity
  8
LAY-1
  6
CONTINUOUS
 62
     2
100
AcDbLine
 10
431.3424352910814
 20
509.8281025949166
 30
0.0
 11
431.1372200404279
 21
515.7046984901474
 31
0.0
  0
ARC
  5
5E3
330
1F
100
AcDbEntity
  8
LAY-1
  6
CONTINUOUS
 62
     2
100
AcDbCircle
 10
428.1390475593706
 20
515.6000000000399
 30
0.0
 40
3.0
100
AcDbArc
 50
2.000000000000367
 51
90.00000000000001
  0
ARC
  5
5E4
330
1F
100
AcDbEntity
  8
LAY-1
  6
CONTINUOUS
 62
     2
100
AcDbCircle
 10
434.3406077721387
 20
509.932801085024
 30
0.0
 40
3.0
100
AcDbArc
 50
182.0000000000003
 51
256.4420993678096
  0
LINE
  5
5E5
330
1F
100
AcDbEntity
  8
LAY-1
  6
EXLTYPE2
 62
     1
100
AcDbLine
 10
434.9210141953599
 20
518.6000000000399
 30
0.0
 11
387.72101419536
 21
518.6000000000399
 31
0.0
  0
CIRCLE
  5
5E6
330
1F
100
AcDbEntity
  8
LAY-1
  6
CONTINUOUS
 62
     1
100
AcDbCircle
 10
411.0210141953601
 20
518.6000000000399
 30
0.0
 40
6.56490322581007
  0
CIRCLE
  5
5E7
330
1F
100
AcDbEntity
  8
LAY-1
  6
CONTINUOUS
 62
     2
100
AcDbCircle
 10
411.0210141953601
 20
518.6000000000399
 30
0.0
 40
5.681290322580026
  0
ARC
  5
5E8
330
1F
100
AcDbEntity
  8
LAY-1
  6
CONTINUOUS
 62
     2
100
AcDbCircle
 10
379.02101419537
 20
492.60000000004
 30
0.0
 40
2.0
100
AcDbArc
 50
0.0
 51
90.00000000000001
  0
ARC
  5
5E9
330
1F
100
AcDbEntity
  8
LAY-1
  6
CONTINUOUS
 62
     2
100
AcDbCircle
 10
375.02101419537
 20
520.6000000000399
 30
0.0
 40
1.0
100
AcDbArc
 50
90.00000000000001
 51
180.0
  0
LINE
  5
5EA
330
1F
100
AcDbEntity
  8
LAY-1
  6
CONTINUOUS
 62
     2
100
AcDbLine
 10
374.02101419537
 20
495.60000000004
 30
0.0
 11
374.02101419537
 21
520.6000000000399
 31
0.0
  0
LINE
  5
5EB
330
1F
100
AcDbEntity
  8
LAY-1
  6
CONTINUOUS
 62
     2
100
AcDbLine
 10
375.02101419537
 20
494.60000000004
 30
0.0
 11
379.02101419537
 21
494.60000000004
 31
0.0
  0
ARC
  5
5EC
330
1F
100
AcDbEntity
  8
LAY-1
  6
CONTINUOUS
 62
     2
100
AcDbCircle
 10
375.02101419537
 20
495.60000000004
 30
0.0
 40
1.0
100
AcDbArc
 50
180.0
 51
270.0
  0
LINE
  5
5ED
330
1F
100
AcDbEntity
  8
LAY-1
  6
CONTINUOUS
 62
     2
100
AcDbLine
 10
375.02101419537
 20
521.6000000000399
 30
0.0
 11
397.52101419536
 21
521.6000000000399
 31
0.0
  0
ARC
  5
5EE
330
1F
100
AcDbEntity
  8
LAY-1
  6
CONTINUOUS
 62
     2
100
AcDbCircle
 10
398.52101419536
 20
513.4223304703762
 30
0.0
 40
1.0
100
AcDbArc
 50
180.0
 51
225.0
  0
ARC
  5
5EF
330
1F
100
AcDbEntity
  8
LAY-1
  6
CONTINUOUS
 62
     2
100
AcDbCircle
 10
398.52101419536
 20
523.7776695297036
 30
0.0
 40
1.0
100
AcDbArc
 50
134.9999999999999
 51
180.0
  0
LINE
  5
5F0
330
1F
100
AcDbEntity
  8
LAY-1
  6
CONTINUOUS
 62
     2
100
AcDbLine
 10
405.1362378845096
 20
531.8071067812264
 30
0.0
 11
397.8139074141734
 21
524.4847763108903
 31
0.0
  0
ARC
  5
5F1
330
1F
100
AcDbEntity
  8
LAY-1
  6
CONTINUOUS
 62
     2
100
AcDbCircle
 10
405.8433446656961
 20
531.1000000000399
 30
0.0
 40
1.0
100
AcDbArc
 50
90.00000000000001
 51
134.9999999999999
  0
LINE
  5
5F2
330
1F
100
AcDbEntity
  8
LAY-1
  6
CONTINUOUS
 62
     2
100
AcDbLine
 10
405.8433446656961
 20
532.1000000000399
 30
0.0
 11
416.1986837250238
 21
532.1000000000399
 31
0.0
  0
ARC
  5
5F3
330
1F
100
AcDbEntity
  8
LAY-1
  6
CONTINUOUS
 62
     2
100
AcDbCircle
 10
416.1986837250238
 20
531.1000000000399
 30
0.0
 40
1.0
100
AcDbArc
 50
45.00000000000004
 51
90.00000000000001
  0
LINE
  5
5F4
330
1F
100
AcDbEntity
  8
LAY-1
  6
CONTINUOUS
 62
     2
100
AcDbLine
 10
416.9057905062103
 20
531.8071067812264
 30
0.0
 11
424.2281209765465
 21
524.4847763108903
 31
0.0
  0
ARC
  5
5F5
330
1F
100
AcDbEntity
  8
LAY-1
  6
CONTINUOUS
 62
     2
100
AcDbCircle
 10
423.52101419536
 20
523.7776695297036
 30
0.0
 40
1.0
100
AcDbArc
 50
0.0
 51
45.00000000000004
  0
ARC
  5
5F6
330
1F
100
AcDbEntity
  8
LAY-1
  6
CONTINUOUS
 62
     2
100
AcDbCircle
 10
423.52101419536
 20
513.4223304703762
 30
0.0
 40
1.0
100
AcDbArc
 50
315.0
 51
0.0
  0
LINE
  5
5F7
330
1F
100
AcDbEntity
  8
LAY-1
  6
CONTINUOUS
 62
     2
100
AcDbLine
 10
416.9057905062103
 20
505.3928932188533
 30
0.0
 11
424.2281209765465
 21
512.7152236891895
 31
0.0
  0
ARC
  5
5F8
330
1F
100
AcDbEntity
  8
LAY-1
  6
CONTINUOUS
 62
     2
100
AcDbCircle
 10
416.1986837250238
 20
506.1000000000399
 30
0.0
 40
1.0
100
AcDbArc
 50
270.0
 51
315.0
  0
LINE
  5
5F9
330
1F
100
AcDbEntity
  8
LAY-1
  6
CONTINUOUS
 62
     2
100
AcDbLine
 10
405.8433446656961
 20
505.1000000000399
 30
0.0
 11
416.1986837250238
 21
505.1000000000399
 31
0.0
  0
LINE
  5
5FA
330
1F
100
AcDbEntity
  8
LAY-1
  6
CONTINUOUS
 62
     2
100
AcDbLine
 10
405.1362378845096
 20
505.3928932188535
 30
0.0
 11
397.8139074141734
 21
512.7152236891895
 31
0.0
  0
ARC
  5
5FB
330
1F
100
AcDbEntity
  8
LAY-1
  6
CONTINUOUS
 62
     2
100
AcDbCircle
 10
405.8433446656961
 20
506.1000000000399
 30
0.0
 40
1.0
100
AcDbArc
 50
225.0
 51
270.0
  0
ARC
  5
5FC
330
1F
100
AcDbEntity
  8
LAY-1
  6
CONTINUOUS
 62
     2
100
AcDbCircle
 10
403.1529211259519
 20
533.6000000000399
 30
0.0
 40
2.0
100
AcDbArc
 50
90.00000000000001
 51
149.0156833817654
  0
LINE
  5
5FD
330
1F
100
AcDbEntity
  8
LAY-1
  6
CONTINUOUS
 62
     2
100
AcDbLine
 10
397.8063976988902
 20
528.5813491859792
 30
0.0
 11
401.4383046294822
 21
534.6296068522092
 31
0.0
  0
LINE
  5
5FE
330
1F
100
AcDbEntity
  8
LAY-1
  6
CONTINUOUS
 62
     2
100
AcDbLine
 10
397.52101419536
 20
508.50000000004
 30
0.0
 11
397.52101419536
 21
527.5517423338099
 31
0.0
  0
ARC
  5
5FF
330
1F
100
AcDbEntity
  8
LAY-1
  6
CONTINUOUS
 62
     2
100
AcDbCircle
 10
399.52101419536
 20
527.5517423338099
 30
0.0
 40
2.0
100
AcDbArc
 50
149.0156833817654
 51
180.0
  0
LINE
  5
600
330
1F
100
AcDbEntity
  8
LAY-1
  6
CONTINUOUS
 62
     2
100
AcDbLine
 10
403.1529211259519
 20
535.6000000000399
 30
0.0
 11
411.02101419536
 21
535.6000000000399
 31
0.0
  0
ARC
  5
601
330
1F
100
AcDbEntity
  8
LAY-1
  6
CONTINUOUS
 62
     2
100
AcDbCircle
 10
418.889107264768
 20
533.6000000000399
 30
0.0
 40
2.0
100
AcDbArc
 50
30.98431661823468
 51
90.00000000000001
  0
LINE
  5
602
330
1F
100
AcDbEntity
  8
LAY-1
  6
CONTINUOUS
 62
     2
100
AcDbLine
 10
418.889107264768
 20
535.6000000000399
 30
0.0
 11
411.02101419536
 21
535.6000000000399
 31
0.0
  0
LINE
  5
603
330
1F
100
AcDbEntity
  8
LAY-1
  6
CONTINUOUS
 62
     2
100
AcDbLine
 10
424.2356306918297
 20
528.5813491859792
 30
0.0
 11
420.6037237612377
 21
534.6296068522092
 31
0.0
  0
LINE
  5
604
330
1F
100
AcDbEntity
  8
LAY-1
  6
CONTINUOUS
 62
     2
100
AcDbLine
 10
424.52101419536
 20
508.50000000004
 30
0.0
 11
424.52101419536
 21
527.5517423338099
 31
0.0
  0
ARC
  5
605
330
1F
100
AcDbEntity
  8
LAY-1
  6
CONTINUOUS
 62
     2
100
AcDbCircle
 10
422.52101419536
 20
527.5517423338099
 30
0.0
 40
2.0
100
AcDbArc
 50
0.0
 51
30.98431661823468
  0
LINE
  5
606
330
1F
100
AcDbEntity
  8
LAY-1
  6
CONTINUOUS
 62
     2
100
AcDbLine
 10
398.14101419536
 20
528.1060966544499
 30
0.0
 11
400.52101419536
 21
528.1060966544499
 31
0.0
  0
LINE
  5
607
330
1F
100
AcDbEntity
  8
LAY-1
  6
CONTINUOUS
 62
     2
100
AcDbLine
 10
423.9010141953599
 20
528.1060966544499
 30
0.0
 11
421.52101419536
 21
528.1060966544499
 31
0.0
  0
LINE
  5
608
330
1F
100
AcDbEntity
  8
LAY-1
  6
EXLTYPE2
 62
     1
100
AcDbLine
 10
368.7210141953601
 20
508.1000000000399
 30
0.0
 11
454.82101419536
 21
508.1000000000399
 31
0.0
  0
LINE
  5
609
330
1F
100
AcDbEntity
  8
LAY-1
  6
CONTINUOUS
 62
     2
100
AcDbLine
 10
442.8183097907374
 20
493.0800000000466
 30
0.0
 11
453.5183097907368
 21
493.0800000000466
 31
0.0
  0
LINE
  5
60A
330
1F
100
AcDbEntity
  8
LAY-1
  6
CONTINUOUS
 62
     2
100
AcDbLine
 10
442.8183097907374
 20
508.1000000000411
 30
0.0
 11
442.8183097907374
 21
493.0800000000511
 31
0.0
  0
LINE
  5
60B
330
1F
100
AcDbEntity
  8
LAY-1
  6
CONTINUOUS
 62
     2
100
AcDbLine
 10
457.0383097907372
 20
496.6000000000466
 30
0.0
 11
457.0383097907372
 21
508.1000000000411
 31
0.0
  0
LINE
  5
60C
330
1F
100
AcDbEntity
  8
LAY-1
  6
CONTINUOUS
 62
     2
100
AcDbLine
 10
457.0383097907372
 20
519.6000000000361
 30
0.0
 11
457.0383097907372
 21
508.1000000000411
 31
0.0
  0
ARC
  5
60D
330
1F
100
AcDbEntity
  8
LAY-1
  6
CONTINUOUS
 62
     2
100
AcDbCircle
 10
453.5183097907368
 20
519.6000000000356
 30
0.0
 40
3.520000000000003
100
AcDbArc
 50
0.0
 51
90.00000000000001
  0
LINE
  5
60E
330
1F
100
AcDbEntity
  8
LAY-1
  6
CONTINUOUS
 62
     2
100
AcDbLine
 10
458.3271947877299
 20
508.100000000047
 30
0.0
 11
457.0383097907372
 21
510.0977717453854
 31
0.0
  0
LINE
  5
60F
330
1F
100
AcDbEntity
  8
LAY-1
  6
CONTINUOUS
 62
     2
100
AcDbLine
 10
458.3271947877299
 20
508.1000000000456
 30
0.0
 11
457.0383097907372
 21
506.1022282547067
 31
0.0
  0
ARC
  5
610
330
1F
100
AcDbEntity
  8
LAY-1
  6
CONTINUOUS
 62
     2
100
AcDbCircle
 10
453.5183097907368
 20
496.6000000000466
 30
0.0
 40
3.520000000000003
100
AcDbArc
 50
270.0000000000002
 51
0.0
  0
LINE
  5
611
330
1F
100
AcDbEntity
  8
LAY-1
  6
CONTINUOUS
 62
     2
100
AcDbLine
 10
442.8183097907374
 20
523.1200000000356
 30
0.0
 11
453.5183097907368
 21
523.1200000000356
 31
0.0
  0
LINE
  5
612
330
1F
100
AcDbEntity
  8
LAY-1
  6
CONTINUOUS
 62
     2
100
AcDbLine
 10
442.8183097907374
 20
523.1200000000356
 30
0.0
 11
442.8183097907374
 21
508.1000000000411
 31
0.0
  0
LINE
  5
613
330
1F
100
AcDbEntity
  8
LAY-1
  6
CONTINUOUS
 62
     2
100
AcDbLine
 10
442.8183097907374
 20
521.6000000000399
 30
0.0
 11
424.52101419536
 21
521.6000000000399
 31
0.0
  0
ARC
  5
614
330
1F
100
AcDbEntity
  8
LAY-1
  6
CONTINUOUS
 62
     2
100
AcDbCircle
 10
443.0210141953499
 20
492.6000000000399
 30
0.0
 40
2.0
100
AcDbArc
 50
95.81704161204101
 51
180.0
  0
ENDSEC
  0
SECTION
  2
OBJECTS
  0
DICTIONARY
  5
C
330
0
100
AcDbDictionary
  3
ACAD_GROUP
350
D
  3
ACAD_LAYOUT
350
1A
  3
ACAD_MATERIAL
350
43
  3
ACAD_MLEADERSTYLE
350
6B
  3
ACAD_MLINESTYLE
350
17
  3
ACAD_PLOTSETTINGS
350
19
  3
ACAD_SCALELIST
350
47
  3
ACAD_VISUALSTYLE
350
2A
  3
ACDBHEADERROUNDTRIPXREC
350
615
  3
ACDBVARIABLEDICTIONARY
350
636
  0
DICTIONARY
  5
641
330
8
100
AcDbDictionary
280
     1
  3
ACAD_XREC_ROUNDTRIP
360
642
  0
DICTIONARY
  5
D
102
{ACAD_REACTORS
330
C
102
}
330
C
100
AcDbDictionary
  0
DICTIONARY
  5
1A
102
{ACAD_REACTORS
330
C
102
}
330
C
100
AcDbDictionary
  0
DICTIONARY
  5
43
102
{ACAD_REACTORS
330
C
102
}
330
C
100
AcDbDictionary
  3
BYBLOCK
350
45
  3
BYLAYER
350
44
  3
GLOBAL
350
46
  0
DICTIONARY
  5
6B
102
{ACAD_REACTORS
330
C
102
}
330
C
100
AcDbDictionary
  3
STANDARD
350
6C
  0
DICTIONARY
  5
17
102
{ACAD_REACTORS
330
C
102
}
330
C
100
AcDbDictionary
  3
STANDARD
350
18
  0
DICTIONARY
  5
19
102
{ACAD_REACTORS
330
C
102
}
330
C
100
AcDbDictionary
  0
DICTIONARY
  5
47
102
{ACAD_REACTORS
330
C
102
}
330
C
100
AcDbDictionary
  3
A0
350
48
  3
A1
350
49
  3
A2
350
4A
  3
A3
350
4B
  3
A4
350
4C
  3
A5
350
4D
  3
A6
350
4E
  3
A7
350
4F
  3
A8
350
50
  3
A9
350
51
  3
B0
350
52
  3
B1
350
53
  3
B2
350
54
  3
B3
350
55
  3
B4
350
56
  3
B5
350
57
  3
B6
350
58
  3
B7
350
59
  3
B8
350
5A
  3
B9
350
5B
  3
C0
350
5C
  3
C1
350
5D
  3
C2
350
5E
  3
C3
350
5F
  3
C4
350
60
  3
C5
350
61
  3
C6
350
62
  3
C7
350
63
  3
C8
350
64
  3
C9
350
65
  3
D0
350
66
  3
D1
350
67
  3
D2
350
68
  0
DICTIONARY
  5
2A
102
{ACAD_REACTORS
330
C
102
}
330
C
100
AcDbDictionary
  3
2DWIREFRAME
350
2F
  3
BASIC
350
32
  3
BRIGHTEN
350
36
  3
COLORCHANGE
350
3A
  3
CONCEPTUAL
350
34
  3
DIM
350
35
  3
EDGECOLOROFF
350
3D
  3
FACEPATTERN
350
39
  3
FLAT
350
2B
  3
FLATWITHEDGES
350
2C
  3
GOURAUD
350
2D
  3
GOURAUDWITHEDGES
350
2E
  3
HIDDEN
350
31
  3
JITTEROFF
350
3B
  3
LINEPATTERN
350
38
  3
OVERHANGOFF
350
3C
  3
REALISTIC
350
33
  3
SHADED
350
42
  3
SHADED_WITH_EDGES
350
41
  3
SHADES_OF_GRAY
350
3E
  3
SKETCHY
350
3F
  3
THICKEN
350
37
  3
WIREFRAME
350
30
  3
X-RAY
350
40
  0
DICTIONARY
  5
615
102
{ACAD_REACTORS
330
C
102
}
330
C
100
AcDbDictionary
  3
CEPSNID
350
61F
  3
CEPSNTYPE
350
61E
  3
DIMSTYLEDATA
350
635
  3
FINGERPRINTGUID
350
620
  3
HYPERLINKBASE
350
618
  3
INSUNITS
350
61D
  3
LAYOUTDICT
350
61A
  3
LWETCUNION
350
61C
  3
PLOTSETDICT
350
61B
  3
PSVPSCALE
350
622
  3
PUCSBASE
350
625
  3
PUCSORGBACK
350
62B
  3
PUCSORGBOTTOM
350
627
  3
PUCSORGFRONT
350
62A
  3
PUCSORGLEFT
350
628
  3
PUCSORGRIGHT
350
629
  3
PUCSORGTOP
350
626
  3
PUCSORTHOREF
350
623
  3
PUCSORTHOVIEW
350
624
  3
STYLESHEET
350
619
  3
TSTACKALIGN
350
616
  3
TSTACKSIZE
350
617
  3
UCSBASE
350
62E
  3
UCSORGBACK
350
634
  3
UCSORGBOTTOM
350
630
  3
UCSORGFRONT
350
633
  3
UCSORGLEFT
350
631
  3
UCSORGRIGHT
350
632
  3
UCSORGTOP
350
62F
  3
UCSORTHOREF
350
62C
  3
UCSORTHOVIEW
350
62D
  3
VERSIONGUID
350
621
  0
DICTIONARY
  5
636
102
{ACAD_REACTORS
330
C
102
}
330
C
100
AcDbDictionary
  3
CANNOSCALE
350
643
  3
CENTEREXE
350
63D
  3
CENTERLTYPEFILE
350
63E
  3
CMLEADERSTYLE
350
638
  3
CTABLESTYLE
350
637
  3
DIMASSOC
350
63F
  3
HIDETEXT
350
640
  3
MSLTSCALE
350
644
  3
PSOLHEIGHT
350
63A
  3
PSOLWIDTH
350
639
  0
XRECORD
  5
642
102
{ACAD_REACTORS
330
641
102
}
330
641
100
AcDbXrecord
102
VTR_0.000_0.000_1.000_1.000_VISUALSTYLE
340
2F
102
VTR_0.000_0.000_1.000_1.000_GRIDDISPLAY
 70
     3
102
VTR_0.000_0.000_1.000_1.000_GRIDMAJOR
 70
     5
102
VTR_0.000_0.000_1.000_1.000_DEFAULTLIGHTING
280
     1
102
VTR_0.000_0.000_1.000_1.000_DEFAULTLIGHTINGTYPE
 70
     1
102
VTR_0.000_0.000_1.000_1.000_BRIGHTNESS
141
0.0
102
VTR_0.000_0.000_1.000_1.000_CONTRAST
142
0.0
  0
MATERIAL
  5
45
102
{ACAD_REACTORS
330
43
102
}
102
{ACAD_XDICTIONARY
360
647
102
}
330
43
100
AcDbMaterial
  1
BYBLOCK
  0
MATERIAL
  5
44
102
{ACAD_REACTORS
330
43
102
}
102
{ACAD_XDICTIONARY
360
645
102
}
330
43
100
AcDbMaterial
  1
BYLAYER
  0
MATERIAL
  5
46
102
{ACAD_REACTORS
330
43
102
}
102
{ACAD_XDICTIONARY
360
649
102
}
330
43
100
AcDbMaterial
  1
GLOBAL
  0
ACAD_PROXY_OBJECT
  5
6C
102
{ACAD_REACTORS
330
6B
102
}
330
6B
100
AcDbProxyObject
 90
      499
 91
      505
 93
      610
310
40901902A4063FBFFFFFE0000000000000020400000000000020404214DD185B99185C990000000000000104090141901A00000000000004100000000000000041025764000000000000039000
340
14
340
0
340
11
340
0
 94
        0
1001
ACAD_MLEADERVER
1070
     2
  0
MLINESTYLE
  5
18
102
{ACAD_REACTORS
330
17
102
}
330
17
100
AcDbMlineStyle
  2
Standard
 70
     0
  3

 62
   256
 51
90.0
 52
90.0
 71
     2
 49
0.5
 62
   256
  6
BYLAYER
 49
-0.5
 62
   256
  6
BYLAYER
  0
ACAD_PROXY_OBJECT
  5
48
102
{ACAD_REACTORS
330
47
102
}
330
47
100
AcDbProxyObject
 90
      499
 91
      503
 93
       41
310
903313A31580
  0
ACAD_PROXY_OBJECT
  5
49
102
{ACAD_REACTORS
330
47
102
}
330
47
100
AcDbProxyObject
 90
      499
 91
      503
 93
      105
310
903313A324000000000000004000
  0
ACAD_PROXY_OBJECT
  5
4A
102
{ACAD_REACTORS
330
47
102
}
330
47
100
AcDbProxyObject
 90
      499
 91
      503
 93
      105
310
903313A344000000000000104000
  0
ACAD_PROXY_OBJECT
  5
4B
102
{ACAD_REACTORS
330
47
102
}
330
47
100
AcDbProxyObject
 90
      499
 91
      503
 93
      105
310
903313A354000000000000144000
  0
ACAD_PROXY_OBJECT
  5
4C
102
{ACAD_REACTORS
330
47
102
}
330
47
100
AcDbProxyObject
 90
      499
 91
      503
 93
      105
310
903313A384000000000000204000
  0
ACAD_PROXY_OBJECT
  5
4D
102
{ACAD_REACTORS
330
47
102
}
330
47
100
AcDbProxyObject
 90
      499
 91
      503
 93
      113
310
904313A31304000000000000244000
  0
ACAD_PROXY_OBJECT
  5
4E
102
{ACAD_REACTORS
330
47
102
}
330
47
100
AcDbProxyObject
 90
      499
 91
      503
 93
      113
310
904313A31364000000000000304000
  0
ACAD_PROXY_OBJECT
  5
4F
102
{ACAD_REACTORS
330
47
102
}
330
47
100
AcDbProxyObject
 90
      499
 91
      503
 93
      113
310
904313A32304000000000000344000
  0
ACAD_PROXY_OBJECT
  5
50
102
{ACAD_REACTORS
330
47
102
}
330
47
100
AcDbProxyObject
 90
      499
 91
      503
 93
      113
310
904313A333040000000000003E4000
  0
ACAD_PROXY_OBJECT
  5
51
102
{ACAD_REACTORS
330
47
102
}
330
47
100
AcDbProxyObject
 90
      499
 91
      503
 93
      113
310
904313A34304000000000000444000
  0
ACAD_PROXY_OBJECT
  5
52
102
{ACAD_REACTORS
330
47
102
}
330
47
100
AcDbProxyObject
 90
      499
 91
      503
 93
      113
310
904313A35304000000000000494000
  0
ACAD_PROXY_OBJECT
  5
53
102
{ACAD_REACTORS
330
47
102
}
330
47
100
AcDbProxyObject
 90
      499
 91
      503
 93
      121
310
905313A3130304000000000000594000
  0
ACAD_PROXY_OBJECT
  5
54
102
{ACAD_REACTORS
330
47
102
}
330
47
100
AcDbProxyObject
 90
      499
 91
      503
 93
      105
310
903323A310000000000000010100
  0
ACAD_PROXY_OBJECT
  5
55
102
{ACAD_REACTORS
330
47
102
}
330
47
100
AcDbProxyObject
 90
      499
 91
      503
 93
      105
310
903343A310000000000000410100
  0
ACAD_PROXY_OBJECT
  5
56
102
{ACAD_REACTORS
330
47
102
}
330
47
100
AcDbProxyObject
 90
      499
 91
      503
 93
      105
310
903383A310000000000000810100
  0
ACAD_PROXY_OBJECT
  5
57
102
{ACAD_REACTORS
330
47
102
}
330
47
100
AcDbProxyObject
 90
      499
 91
      503
 93
      113
310
90431303A310000000000000910100
  0
ACAD_PROXY_OBJECT
  5
58
102
{ACAD_REACTORS
330
47
102
}
330
47
100
AcDbProxyObject
 90
      499
 91
      503
 93
      121
310
9053130303A310000000000001650100
  0
ACAD_PROXY_OBJECT
  5
59
102
{ACAD_REACTORS
330
47
102
}
330
47
100
AcDbProxyObject
 90
      499
 91
      503
 93
      257
310
90E312F31323822203D2031272D3022000000000000200FC000000000000284000
  0
ACAD_PROXY_OBJECT
  5
5A
102
{ACAD_REACTORS
330
47
102
}
330
47
100
AcDbProxyObject
 90
      499
 91
      503
 93
      249
310
90D312F363422203D2031272D3022000000000000240FC000000000000284000
  0
ACAD_PROXY_OBJECT
  5
5B
102
{ACAD_REACTORS
330
47
102
}
330
47
100
AcDbProxyObject
 90
      499
 91
      503
 93
      249
310
90D312F333222203D2031272D3022000000000000280FC000000000000284000
  0
ACAD_PROXY_OBJECT
  5
5C
102
{ACAD_REACTORS
330
47
102
}
330
47
100
AcDbProxyObject
 90
      499
 91
      503
 93
      249
310
90D312F313622203D2031272D30220000000000002C0FC000000000000284000
  0
ACAD_PROXY_OBJECT
  5
5D
102
{ACAD_REACTORS
330
47
102
}
330
47
100
AcDbProxyObject
 90
      499
 91
      503
 93
      249
310
90D332F333222203D2031272D30220000000000002E0FC000000000000284000
  0
ACAD_PROXY_OBJECT
  5
5E
102
{ACAD_REACTORS
330
47
102
}
330
47
100
AcDbProxyObject
 90
      499
 91
      503
 93
      241
310
90C312F3822203D2031272D3022000000000000300FC000000000000284000
  0
ACAD_PROXY_OBJECT
  5
5F
102
{ACAD_REACTORS
330
47
102
}
330
47
100
AcDbProxyObject
 90
      499
 91
      503
 93
      249
310
90D332F313622203D2031272D3022000000000000320FC000000000000284000
  0
ACAD_PROXY_OBJECT
  5
60
102
{ACAD_REACTORS
330
47
102
}
330
47
100
AcDbProxyObject
 90
      499
 91
      503
 93
      241
310
90C312F3422203D2031272D3022000000000000340FC000000000000284000
  0
ACAD_PROXY_OBJECT
  5
61
102
{ACAD_REACTORS
330
47
102
}
330
47
100
AcDbProxyObject
 90
      499
 91
      503
 93
      241
310
90C332F3822203D2031272D3022000000000000360FC000000000000284000
  0
ACAD_PROXY_OBJECT
  5
62
102
{ACAD_REACTORS
330
47
102
}
330
47
100
AcDbProxyObject
 90
      499
 91
      503
 93
      241
310
90C312F3222203D2031272D3022000000000000380FC000000000000284000
  0
ACAD_PROXY_OBJECT
  5
63
102
{ACAD_REACTORS
330
47
102
}
330
47
100
AcDbProxyObject
 90
      499
 91
      503
 93
      241
310
90C332F3422203D2031272D30220000000000003A0FC000000000000284000
  0
ACAD_PROXY_OBJECT
  5
64
102
{ACAD_REACTORS
330
47
102
}
330
47
100
AcDbProxyObject
 90
      499
 91
      503
 93
      161
310
90A3122203D2031272D30224000000000000284000
  0
ACAD_PROXY_OBJECT
  5
65
102
{ACAD_REACTORS
330
47
102
}
330
47
100
AcDbProxyObject
 90
      499
 91
      503
 93
      257
310
90E312D312F3222203D2031272D30220000000000003E0FC000000000000284000
  0
ACAD_PROXY_OBJECT
  5
66
102
{ACAD_REACTORS
330
47
102
}
330
47
100
AcDbProxyObject
 90
      499
 91
      503
 93
      225
310
90A3322203D2031272D302200000000000002100000000000000284000
  0
ACAD_PROXY_OBJECT
  5
67
102
{ACAD_REACTORS
330
47
102
}
330
47
100
AcDbProxyObject
 90
      499
 91
      503
 93
      225
310
90A3622203D2031272D302200000000000006100000000000000284000
  0
ACAD_PROXY_OBJECT
  5
68
102
{ACAD_REACTORS
330
47
102
}
330
47
100
AcDbProxyObject
 90
      499
 91
      503
 93
      249
310
90D31272D3022203D2031272D30220000000000000A100000000000000284000
  0
ACAD_PROXY_OBJECT
  5
2F
102
{ACAD_REACTORS
330
2A
102
}
330
2A
100
AcDbProxyObject
 90
      499
 91
      501
 93
      436
310
42CC9915DA5C99599C985B595049028333333333333E33F0000000000000F90107901411070040501600405405064090741402480A0340
1001
ACAD
1000
AcDbSavedByObjectVersion
1070
     0
  0
ACAD_PROXY_OBJECT
  5
32
102
{ACAD_REACTORS
330
2A
102
}
330
2A
100
AcDbProxyObject
 90
      499
 91
      501
 93
      388
310
4150985CDA58D07406404333333333333E33F0000000000000F90107A41107004050150841D405064090741402480A0350
1001
ACAD
1000
AcDbSavedByObjectVersion
1070
     0
  0
ACAD_PROXY_OBJECT
  5
36
102
{ACAD_REACTORS
330
2A
102
}
330
2A
100
AcDbProxyObject
 90
      499
 91
      501
 93
      428
310
42109C9A59DA1D195B90C409028333333333333E33F0000000000000F9010790141107004050150841D405064090741402480A029950
1001
ACAD
1000
AcDbSavedByObjectVersion
1070
     0
  0
ACAD_PROXY_OBJECT
  5
3A
102
{ACAD_REACTORS
330
2A
102
}
330
2A
100
AcDbProxyObject
 90
      499
 91
      501
 93
      452
310
42D0DBDB1BDC90DA185B99D95104090240C333333333333E33F0000000000000F90108901411070040501508421405064090741402480A0350
1001
ACAD
1000
AcDbSavedByObjectVersion
1070
     0
  0
ACAD_PROXY_OBJECT
  5
34
102
{ACAD_REACTORS
330
2A
102
}
330
2A
100
AcDbProxyObject
 90
      499
 91
      501
 93
      500
310
4290DBDB98D95C1D1D585B10940D028333333333333E33F0000000000000F90107902409070040501000000000018199010841D405064090740C02480A0340
1001
ACAD
1000
AcDbSavedByObjectVersion
1070
     0
  0
ACAD_PROXY_OBJECT
  5
35
102
{ACAD_REACTORS
330
2A
102
}
330
2A
100
AcDbProxyObject
 90
      499
 91
      501
 93
      412
310
40D11A5B50B409028333333333333E33F0000000000000F9010790141107004050150841D405064090741402480A02677FFFFFD0
1001
ACAD
1000
AcDbSavedByObjectVersion
1070
     0
  0
ACAD_PROXY_OBJECT
  5
3D
102
{ACAD_REACTORS
330
2A
102
}
330
2A
100
AcDbProxyObject
 90
      499
 91
      501
 93
      452
310
43115919D950DBDB1BDC93D999916409028333333333333E33F0000000000000F9010790141107004050150841D405064090741402480A0350
1001
ACAD
1000
AcDbSavedByObjectVersion
1070
     0
  0
ACAD_PROXY_OBJECT
  5
39
102
{ACAD_REACTORS
330
2A
102
}
330
2A
100
AcDbProxyObject
 90
      499
 91
      501
 93
      444
310
42D19858D95C185D1D195C9B90F409028333333333333E33F0000000000000F9010790141107004050150841D405064090741402480A0350
1001
ACAD
1000
AcDbSavedByObjectVersion
1070
     0
  0
ACAD_PROXY_OBJECT
  5
2B
102
{ACAD_REACTORS
330
2A
102
}
330
2A
100
AcDbProxyObject
 90
      499
 91
      501
 93
      380
310
41119B185D240901404333333333333E33F0000000000000F9010740A907004050150841D405064090741402480A1B50
1001
ACAD
1000
AcDbSavedByObjectVersion
1070
     0
  0
ACAD_PROXY_OBJECT
  5
2C
102
{ACAD_REACTORS
330
2A
102
}
330
2A
100
AcDbProxyObject
 90
      499
 91
      501
 93
      468
310
43519B185D15DA5D1A115919D95CD0140901404333333333333E33F0000000000000F90107409019070040501600405405064090741402480A1B50
1001
ACAD
1000
AcDbSavedByObjectVersion
1070
     0
  0
ACAD_PROXY_OBJECT
  5
2D
102
{ACAD_REACTORS
330
2A
102
}
330
2A
100
AcDbProxyObject
 90
      499
 91
      501
 93
      404
310
41D1DBDD5C985D5910240902404333333333333E33F0000000000000F9010740A9070040501641D405064090741402480A1B50
1001
ACAD
1000
AcDbSavedByObjectVersion
1070
     0
  0
ACAD_PROXY_OBJECT
  5
2E
102
{ACAD_REACTORS
330
2A
102
}
330
2A
100
AcDbProxyObject
 90
      499
 91
      501
 93
      492
310
4411DBDD5C985D5915DA5D1A115919D95CD0340902404333333333333E33F0000000000000F90107409019070040501600405405064090741402480A1B50
1001
ACAD
1000
AcDbSavedByObjectVersion
1070
     0
  0
ACAD_PROXY_OBJECT
  5
31
102
{ACAD_REACTORS
330
2A
102
}
330
2A
100
AcDbProxyObject
 90
      499
 91
      501
 93
      476
310
41921A5919195B90640502408333333333333E33F0000000000000F901079024090700405020000000000001110200405405064090740C02480A0340
1001
ACAD
1000
AcDbSavedByObjectVersion
1070
     0
  0
ACAD_PROXY_OBJECT
  5
3B
102
{ACAD_REACTORS
330
2A
102
}
330
2A
100
AcDbProxyObject
 90
      499
 91
      501
 93
      428
310
42529A5D1D195C93D999914409028333333333333E33F0000000000000F9010790141107004050150A41D405064090741402480A0350
1001
ACAD
1000
AcDbSavedByObjectVersion
1070
     0
  0
ACAD_PROXY_OBJECT
  5
38
102
{ACAD_REACTORS
330
2A
102
}
330
2A
100
AcDbProxyObject
 90
      499
 91
      501
 93
      444
310
42D31A5B995C185D1D195C9B90E409028333333333333E33F0000000000000F9010790141107004050750841D405064090741402483A0350
1001
ACAD
1000
AcDbSavedByObjectVersion
1070
     0
  0
ACAD_PROXY_OBJECT
  5
3C
102
{ACAD_REACTORS
330
2A
102
}
330
2A
100
AcDbProxyObject
 90
      499
 91
      501
 93
      444
310
42D3DD995C9A185B99D3D999915409028333333333333E33F0000000000000F9010790141107004050150941D405064090741402480A0350
1001
ACAD
1000
AcDbSavedByObjectVersion
1070
     0
  0
ACAD_PROXY_OBJECT
  5
33
102
{ACAD_REACTORS
330
2A
102
}
330
2A
100
AcDbProxyObject
 90
      499
 91
      501
 93
      428
310
425499585B1A5CDD1A58D08409038333333333333E33F0000000000000F9010740A907004050150800405405064090740C02480A1B40
1001
ACAD
1000
AcDbSavedByObjectVersion
1070
     0
  0
ACAD_PROXY_OBJECT
  5
42
102
{ACAD_REACTORS
330
2A
102
}
330
2A
100
AcDbProxyObject
 90
      499
 91
      501
 93
      420
310
4194DA1859195911B40902404333333333333E33F0000000000000F9010740A41107004050150800405405064090840C02480A0B40
1001
ACAD
1000
AcDbSavedByObjectVersion
1070
     0
  0
ACAD_PROXY_OBJECT
  5
41
102
{ACAD_REACTORS
330
2A
102
}
330
2A
100
AcDbProxyObject
 90
      499
 91
      501
 93
      516
310
4454DA18591959081DDA5D1A08195919D95CD1A40902404333333333333E33F0000000000000F901074090142907004050250800405405064090740C02480A0B40
1001
ACAD
1000
AcDbSavedByObjectVersion
1070
     0
  0
ACAD_PROXY_OBJECT
  5
3E
102
{ACAD_REACTORS
330
2A
102
}
330
2A
100
AcDbProxyObject
 90
      499
 91
      501
 93
      532
310
4394DA1859195CC81BD98811DC985E5174090240C333333333333E33F0000000000000F901079024090741D01000000000000111010841D405064090740C02480A0340
1001
ACAD
1000
AcDbSavedByObjectVersion
1070
     0
  0
ACAD_PROXY_OBJECT
  5
3F
102
{ACAD_REACTORS
330
2A
102
}
330
2A
100
AcDbProxyObject
 90
      499
 91
      501
 93
      476
310
41D4DAD95D18DA1E51840502408333333333333E33F0000000000000F901079024090741D01000000000000111010B41D405064090741802480A0340
1001
ACAD
1000
AcDbSavedByObjectVersion
1070
     0
  0
ACAD_PROXY_OBJECT
  5
37
102
{ACAD_REACTORS
330
2A
102
}
330
2A
100
AcDbProxyObject
 90
      499
 91
      501
 93
      412
310
41D51A1A58DAD95B90D409028333333333333E33F0000000000000F9010790141107004050150C41D405064090741402480A0350
1001
ACAD
1000
AcDbSavedByObjectVersion
1070
     0
  0
ACAD_PROXY_OBJECT
  5
30
102
{ACAD_REACTORS
330
2A
102
}
330
2A
100
AcDbProxyObject
 90
      499
 91
      501
 93
      420
310
4255DA5C99599C985B595059028333333333333E33F0000000000000F90107901411070040501600405405064090740C02480A0340
1001
ACAD
1000
AcDbSavedByObjectVersion
1070
     0
  0
ACAD_PROXY_OBJECT
  5
40
102
{ACAD_REACTORS
330
2A
102
}
330
2A
100
AcDbProxyObject
 90
      499
 91
      501
 93
      404
310
41560B54985E51940902404000000000000E03F0000000000000F9010740501907004050150841D405064090740C02480A1B40
1001
ACAD
1000
AcDbSavedByObjectVersion
1070
     0
  0
XRECORD
  5
61F
102
{ACAD_REACTORS
330
615
102
}
330
615
100
AcDbXrecord
340
0
  0
XRECORD
  5
61E
102
{ACAD_REACTORS
330
615
102
}
330
615
100
AcDbXrecord
 90
        0
  0
XRECORD
  5
635
102
{ACAD_REACTORS
330
615
102
}
330
615
100
AcDbXrecord
1000
DSTYLE
1002
{
1070
   340
340
11
1002
}
  0
XRECORD
  5
620
102
{ACAD_REACTORS
330
615
102
}
330
615
100
AcDbXrecord
  1
{76a42493-f271-4b85-bd29-d7730157a98d}
  0
XRECORD
  5
618
102
{ACAD_REACTORS
330
615
102
}
330
615
100
AcDbXrecord
  1

  0
XRECORD
  5
61D
102
{ACAD_REACTORS
330
615
102
}
330
615
100
AcDbXrecord
 90
        4
  0
XRECORD
  5
61A
102
{ACAD_REACTORS
330
615
102
}
330
615
100
AcDbXrecord
340
1A
  0
XRECORD
  5
61C
102
{ACAD_REACTORS
330
615
102
}
330
615
100
AcDbXrecord
 90
    10781
  0
XRECORD
  5
61B
102
{ACAD_REACTORS
330
615
102
}
330
615
100
AcDbXrecord
340
19
  0
XRECORD
  5
622
102
{ACAD_REACTORS
330
615
102
}
330
615
100
AcDbXrecord
 40
0.0
  0
XRECORD
  5
625
102
{ACAD_REACTORS
330
615
102
}
330
615
100
AcDbXrecord
340
0
  0
XRECORD
  5
62B
102
{ACAD_REACTORS
330
615
102
}
330
615
100
AcDbXrecord
 10
0.0
 20
0.0
 30
0.0
  0
XRECORD
  5
627
102
{ACAD_REACTORS
330
615
102
}
330
615
100
AcDbXrecord
 10
0.0
 20
0.0
 30
0.0
  0
XRECORD
  5
62A
102
{ACAD_REACTORS
330
615
102
}
330
615
100
AcDbXrecord
 10
0.0
 20
0.0
 30
0.0
  0
XRECORD
  5
628
102
{ACAD_REACTORS
330
615
102
}
330
615
100
AcDbXrecord
 10
0.0
 20
0.0
 30
0.0
  0
XRECORD
  5
629
102
{ACAD_REACTORS
330
615
102
}
330
615
100
AcDbXrecord
 10
0.0
 20
0.0
 30
0.0
  0
XRECORD
  5
626
102
{ACAD_REACTORS
330
615
102
}
330
615
100
AcDbXrecord
 10
0.0
 20
0.0
 30
0.0
  0
XRECORD
  5
623
102
{ACAD_REACTORS
330
615
102
}
330
615
100
AcDbXrecord
340
0
  0
XRECORD
  5
624
102
{ACAD_REACTORS
330
615
102
}
330
615
100
AcDbXrecord
 70
     0
  0
XRECORD
  5
619
102
{ACAD_REACTORS
330
615
102
}
330
615
100
AcDbXrecord
  1

  0
XRECORD
  5
616
102
{ACAD_REACTORS
330
615
102
}
330
615
100
AcDbXrecord
 90
        1
  0
XRECORD
  5
617
102
{ACAD_REACTORS
330
615
102
}
330
615
100
AcDbXrecord
 90
       70
  0
XRECORD
  5
62E
102
{ACAD_REACTORS
330
615
102
}
330
615
100
AcDbXrecord
340
0
  0
XRECORD
  5
634
102
{ACAD_REACTORS
330
615
102
}
330
615
100
AcDbXrecord
 10
0.0
 20
0.0
 30
0.0
  0
XRECORD
  5
630
102
{ACAD_REACTORS
330
615
102
}
330
615
100
AcDbXrecord
 10
0.0
 20
0.0
 30
0.0
  0
XRECORD
  5
633
102
{ACAD_REACTORS
330
615
102
}
330
615
100
AcDbXrecord
 10
0.0
 20
0.0
 30
0.0
  0
XRECORD
  5
631
102
{ACAD_REACTORS
330
615
102
}
330
615
100
AcDbXrecord
 10
0.0
 20
0.0
 30
0.0
  0
XRECORD
  5
632
102
{ACAD_REACTORS
330
615
102
}
330
615
100
AcDbXrecord
 10
0.0
 20
0.0
 30
0.0
  0
XRECORD
  5
62F
102
{ACAD_REACTORS
330
615
102
}
330
615
100
AcDbXrecord
 10
0.0
 20
0.0
 30
0.0
  0
XRECORD
  5
62C
102
{ACAD_REACTORS
330
615
102
}
330
615
100
AcDbXrecord
340
0
  0
XRECORD
  5
62D
102
{ACAD_REACTORS
330
615
102
}
330
615
100
AcDbXrecord
 70
     0
  0
XRECORD
  5
621
102
{ACAD_REACTORS
330
615
102
}
330
615
100
AcDbXrecord
  1
{FAEB1C32-E019-11D5-929B-00C0DF256EC4}
  0
DICTIONARYVAR
  5
643
102
{ACAD_REACTORS
330
636
102
}
330
636
100
DictionaryVariables
280
     0
  1
1:1
  0
DICTIONARYVAR
  5
63D
102
{ACAD_REACTORS
330
636
102
}
330
636
100
DictionaryVariables
280
     0
  1
3.500000
  0
DICTIONARYVAR
  5
63E
102
{ACAD_REACTORS
330
636
102
}
330
636
100
DictionaryVariables
280
     0
  1
acadiso.lin
  0
DICTIONARYVAR
  5
638
102
{ACAD_REACTORS
330
636
102
}
330
636
100
DictionaryVariables
280
     0
  1
Standard
  0
DICTIONARYVAR
  5
637
102
{ACAD_REACTORS
330
636
102
}
330
636
100
DictionaryVariables
280
     0
  1
Standard
  0
DICTIONARYVAR
  5
63F
102
{ACAD_REACTORS
330
636
102
}
330
636
100
DictionaryVariables
280
     0
  1
2
  0
DICTIONARYVAR
  5
640
102
{ACAD_REACTORS
330
636
102
}
330
636
100
DictionaryVariables
280
     0
  1
1
  0
DICTIONARYVAR
  5
644
102
{ACAD_REACTORS
330
636
102
}
330
636
100
DictionaryVariables
280
     0
  1
1
  0
DICTIONARYVAR
  5
63A
102
{ACAD_REACTORS
330
636
102
}
330
636
100
DictionaryVariables
280
     0
  1
80.000000
  0
DICTIONARYVAR
  5
639
102
{ACAD_REACTORS
330
636
102
}
330
636
100
DictionaryVariables
280
     0
  1
5.000000
  0
DICTIONARY
  5
647
330
45
100
AcDbDictionary
280
     1
  3
ACAD_XREC_ROUNDTRIP
360
648
  0
DICTIONARY
  5
645
330
44
100
AcDbDictionary
280
     1
  3
ACAD_XREC_ROUNDTRIP
360
646
  0
DICTIONARY
  5
649
330
46
100
AcDbDictionary
280
     1
  3
ACAD_XREC_ROUNDTRIP
360
64A
  0
XRECORD
  5
648
102
{ACAD_REACTORS
330
647
102
}
330
647
100
AcDbXrecord
102
MATERIAL
148
0.0
149
0.0
149
0.0
 93
        0
 94
      127
282
     0
 72
     1
 77
     1
171
     1
175
     1
179
     1
273
     0
  0
XRECORD
  5
646
102
{ACAD_REACTORS
330
645
102
}
330
645
100
AcDbXrecord
102
MATERIAL
148
0.0
149
0.0
149
0.0
 93
        0
 94
      127
282
     0
 72
     1
 77
     1
171
     1
175
     1
179
     1
273
     0
  0
XRECORD
  5
64A
102
{ACAD_REACTORS
330
649
102
}
330
649
100
AcDbXrecord
102
MATERIAL
148
0.0
149
0.0
149
0.0
 93
        0
 94
      127
282
     0
 72
     1
 77
     1
171
     1
175
     1
179
     1
273
     0
  0
ENDSEC
  0
EOF
