  0
SECTION
  2
HEADER
  9
$ACADVER
  1
AC1014
  9
$ACADMAINTVER
 70
     0
  9
$DWGCODEPAGE
  3
ANSI_932
  9
$INSBASE
 10
0.0
 20
0.0
 30
0.0
  9
$EXTMIN
 10
292.2
 20
-56.5
 30
0.0
  9
$EXTMAX
 10
1955.6
 20
1364.278883
 30
0.0
  9
$LIMMIN
 10
0.0
 20
0.0
  9
$LIMMAX
 10
420.0
 20
297.0
  9
$ORTHOMODE
 70
     0
  9
$REGENMODE
 70
     1
  9
$FILLMODE
 70
     1
  9
$QTEXTMODE
 70
     0
  9
$MIRRTEXT
 70
     1
  9
$DRAGMODE
 70
     2
  9
$LTSCALE
 40
1.0
  9
$OSMODE
 70
     0
  9
$ATTMODE
 70
     1
  9
$TEXTSIZE
 40
0.2
  9
$TRACEWID
 40
0.05
  9
$TEXTSTYLE
  7
STANDARD
  9
$CLAYER
  8
LAY-1
  9
$CELTYPE
  6
CONTINUOUS
  9
$CECOLOR
 62
   256
  9
$CELTSCALE
 40
1.0
  9
$DELOBJ
 70
     1
  9
$DISPSILH
 70
     0
  9
$DIMSCALE
 40
1.0
  9
$DIMASZ
 40
0.18
  9
$DIMEXO
 40
0.0625
  9
$DIMDLI
 40
0.38
  9
$DIMRND
 40
0.0
  9
$DIMDLE
 40
0.0
  9
$DIMEXE
 40
0.18
  9
$DIMTP
 40
0.0
  9
$DIMTM
 40
0.0
  9
$DIMTXT
 40
0.18
  9
$DIMCEN
 40
0.09
  9
$DIMTSZ
 40
0.0
  9
$DIMTOL
 70
     0
  9
$DIMLIM
 70
     0
  9
$DIMTIH
 70
     1
  9
$DIMTOH
 70
     1
  9
$DIMSE1
 70
     0
  9
$DIMSE2
 70
     0
  9
$DIMTAD
 70
     0
  9
$DIMZIN
 70
     0
  9
$DIMBLK
  1

  9
$DIMASO
 70
     1
  9
$DIMSHO
 70
     1
  9
$DIMPOST
  1

  9
$DIMAPOST
  1

  9
$DIMALT
 70
     0
  9
$DIMALTD
 70
     2
  9
$DIMALTF
 40
25.4
  9
$DIMLFAC
 40
1.0
  9
$DIMTOFL
 70
     0
  9
$DIMTVP
 40
0.0
  9
$DIMTIX
 70
     0
  9
$DIMSOXD
 70
     0
  9
$DIMSAH
 70
     0
  9
$DIMBLK1
  1

  9
$DIMBLK2
  1

  9
$DIMSTYLE
  2
STANDARD
  9
$DIMCLRD
 70
     0
  9
$DIMCLRE
 70
     0
  9
$DIMCLRT
 70
     0
  9
$DIMTFAC
 40
1.0
  9
$DIMGAP
 40
0.09
  9
$DIMJUST
 70
     0
  9
$DIMSD1
 70
     0
  9
$DIMSD2
 70
     0
  9
$DIMTOLJ
 70
     1
  9
$DIMTZIN
 70
     0
  9
$DIMALTZ
 70
     0
  9
$DIMALTTZ
 70
     0
  9
$DIMFIT
 70
     3
  9
$DIMUPT
 70
     0
  9
$DIMUNIT
 70
     2
  9
$DIMDEC
 70
     4
  9
$DIMTDEC
 70
     4
  9
$DIMALTU
 70
     2
  9
$DIMALTTD
 70
     2
  9
$DIMTXSTY
  7
STANDARD
  9
$DIMAUNIT
 70
     0
  9
$LUNITS
 70
     2
  9
$LUPREC
 70
     4
  9
$SKETCHINC
 40
0.1
  9
$FILLETRAD
 40
0.0
  9
$AUNITS
 70
     0
  9
$AUPREC
 70
     0
  9
$MENU
  1
acad
  9
$ELEVATION
 40
0.0
  9
$PELEVATION
 40
0.0
  9
$THICKNESS
 40
0.0
  9
$LIMCHECK
 70
     0
  9
$BLIPMODE
 70
     1
  9
$CHAMFERA
 40
0.0
  9
$CHAMFERB
 40
0.0
  9
$CHAMFERC
 40
0.0
  9
$CHAMFERD
 40
0.0
  9
$SKPOLY
 70
     0
  9
$TDCREATE
 40
2456816.144865185
  9
$TDUPDATE
 40
2456816.144865185
  9
$TDINDWG
 40
0.0000000000
  9
$TDUSRTIMER
 40
0.0000000000
  9
$USRTIMER
 70
     1
  9
$ANGBASE
 50
0.0
  9
$ANGDIR
 70
     0
  9
$PDMODE
 70
     0
  9
$PDSIZE
 40
0.0
  9
$PLINEWID
 40
0.0
  9
$COORDS
 70
     1
  9
$SPLFRAME
 70
     0
  9
$SPLINETYPE
 70
     6
  9
$SPLINESEGS
 70
     8
  9
$ATTDIA
 70
     0
  9
$ATTREQ
 70
     1
  9
$HANDLING
 70
     1
  9
$HANDSEED
  5
15B
  9
$SURFTAB1
 70
     6
  9
$SURFTAB2
 70
     6
  9
$SURFTYPE
 70
     6
  9
$SURFU
 70
     6
  9
$SURFV
 70
     6
  9
$UCSNAME
  2

  9
$UCSORG
 10
0.0
 20
0.0
 30
0.0
  9
$UCSXDIR
 10
1.0
 20
0.0
 30
0.0
  9
$UCSYDIR
 10
0.0
 20
1.0
 30
0.0
  9
$PUCSNAME
  2

  9
$PUCSORG
 10
0.0
 20
0.0
 30
0.0
  9
$PUCSXDIR
 10
1.0
 20
0.0
 30
0.0
  9
$PUCSYDIR
 10
0.0
 20
1.0
 30
0.0
  9
$USERI1
 70
     0
  9
$USERI2
 70
     0
  9
$USERI3
 70
     0
  9
$USERI4
 70
     0
  9
$USERI5
 70
     0
  9
$USERR1
 40
0.0
  9
$USERR2
 40
0.0
  9
$USERR3
 40
0.0
  9
$USERR4
 40
0.0
  9
$USERR5
 40
0.0
  9
$WORLDVIEW
 70
     1
  9
$SHADEDGE
 70
     3
  9
$SHADEDIF
 70
    70
  9
$TILEMODE
 70
     1
  9
$MAXACTVP
 70
    16
  9
$PINSBASE
 10
0.0
 20
0.0
 30
0.0
  9
$PLIMCHECK
 70
     0
  9
$PEXTMIN
 10
1.000000E+20
 20
1.000000E+20
 30
1.000000E+20
  9
$PEXTMAX
 10
-1.000000E+20
 20
-1.000000E+20
 30
-1.000000E+20
  9
$PLIMMIN
 10
0.0
 20
0.0
  9
$PLIMMAX
 10
12.0
 20
9.0
  9
$UNITMODE
 70
     0
  9
$VISRETAIN
 70
     0
  9
$PLINEGEN
 70
     1
  9
$PSLTSCALE
 70
     0
  9
$TREEDEPTH
 70
  3020
  9
$PICKSTYLE
 70
     1
  9
$CMLSTYLE
  2
Standard
  9
$CMLJUST
 70
     0
  9
$CMLSCALE
 40
1.0
  9
$PROXYGRAPHICS
 70
     0
  9
$MEASUREMENT
 70
     0
  0
ENDSEC
  0
SECTION
  2
CLASSES
  0
CLASS
  1
LWPOLYLINE
  2
AcDbPolyline
  3
"AutoCAD"
 90
        0
280
     0
281
     1
  0
CLASS
  1
IMAGE
  2
AcDbRasterImage
  3
ISM
 90
      127
280
     0
281
     1
  0
CLASS
  1
OLE2FRAME
  2
AcDbOle2Frame
  3
""
 90
        0
280
     0
281
     1
  0
CLASS
  1
HATCH
  2
AcDbHatch
  3
"ACAD_SEDONA"
 90
        0
280
     0
281
     1
  0
CLASS
  1
DICTIONARYVAR
  2
AcDbDictionaryVar
  3
"AutoCAD"
 90
        0
280
     0
281
     0
  0
CLASS
  1
RASTERVARIABLES
  2
AcDbRasterVariables
  3
ISM
 90
        0
280
     0
281
     0
  0
CLASS
  1
IMAGEDEF
  2
AcDbRasterImageDef
  3
ISM
 90
        0
280
     0
281
     0
  0
CLASS
  1
IMAGEDEF_REACTOR
  2
AcDbRasterImageDefReactor
  3
ISM
 90
        1
280
     0
281
     0
  0
CLASS
  1
IDBUFFER
  2
AcDbIdBuffer
  3
"Acad"
 90
        0
280
     0
281
     0
  0
CLASS
  1
SPATIAL_FILTER
  2
AcDbSpatialFilter
  3
"Acad"
 90
        0
280
     0
281
     0
  0
CLASS
  1
XRECORD
  2
AcDbXrecord
  3
"<Built In>"
 90
        0
280
     0
281
     0
  0
CLASS
  1
SORTENTSTABLE
  2
AcDbSortentsTable
  3
"AutoCAD"
 90
        0
280
     0
281
     0
  0
CLASS
  1
LAYER_INDEX
  2
AcDbLayerIndex
  3
"Acad"
 90
        0
280
     0
281
     0
  0
CLASS
  1
SPATIAL_INDEX
  2
AcDbSpatialIndex
  3
"Acad"
 90
        0
280
     0
281
     0
  0
CLASS
  1
OBJECT_PTR
  2
CAseDLPNTableRecord
  3
"ASE-LPNTableRecord"
 90
        1
280
     0
281
     0
  0
CLASS
  1
LAYOUT
  2
AcDbLayout
  3
"AutoCAD 2000"
 90
        0
280
     0
281
     0
  0
CLASS
  1
PLOTSETTINGS
  2
AcDbPlotSettings
  3
"AutoCAD 2000"
 90
        0
280
     0
281
     0
  0
CLASS
  1
ACDBDICTIONARYWDFLT
  2
AcDbDictionaryWithDefault
  3
"AutoCAD 2000"
 90
        0
280
     0
281
     0
  0
CLASS
  1
ACDBPLACEHOLDER
  2
AcDbPlaceHolder
  3
"AutoCAD 2000"
 90
        0
280
     0
281
     0
  0
CLASS
  1
VBA_PROJECT
  2
AcDbVbaProject
  3
"acadvba"
 90
        0
280
     0
281
     0
  0
CLASS
  1
WIPEOUT
  2
AcDbWipeout
  3
WipeOut|AutoCAD Express Tool|expresstools@autodesk.com
 90
      127
280
     0
281
     1
  0
CLASS
  1
WIPEOUTVARIABLES
  2
AcDbWipeoutVariables
  3
WipeOut|AutoCAD Express Tool|expresstools@autodesk.com
 90
        0
280
     0
281
     0
  0
CLASS
  1
RTEXT
  2
RText
  3
RText|AutoCAD Express Tool|expresstools@autodesk.com
 90
        0
280
     0
281
     1
  0
CLASS
  1
ARCALIGNEDTEXT
  2
AcDbArcAlignedText
  3
ATEXT|AutoCAD Express Tool|expresstools@autodesk.com
 90
        0
280
     0
281
     1
  0
ENDSEC
  0
SECTION
  2
TABLES
  0
TABLE
  2
VPORT
  5
7
100
AcDbSymbolTable
 70
     1
  0
VPORT
  5
15
100
AcDbSymbolTableRecord
100
AcDbViewportTableRecord
  2
*ACTIVE
 70
     0
 10
0.0
 20
0.0
 11
1.0
 21
1.0
 12
1123.9
 22
653.889441
 13
0.0
 23
0.0
 14
1.0
 24
1.0
 15
0.0
 25
0.0
 16
0.0
 26
0.0
 36
1.0
 17
0.0
 27
0.0
 37
0.0
 40
1420.778883
 41
1.722533
 42
50.0
 43
0.0
 44
0.0
 50
0.0
 51
0.0
 71
     0
 72
  1000
 73
     1
 74
     1
 75
     0
 76
     0
 77
     0
 78
     0
  0
ENDTAB
  0
TABLE
  2
LTYPE
  5
4
100
AcDbSymbolTable
 70
     9
  0
LTYPE
  5
11
100
AcDbSymbolTableRecord
100
AcDbLinetypeTableRecord
  2
BYBLOCK
 70
    64
  3

 72
    65
 73
     0
 40
0.0
  0
LTYPE
  5
12
100
AcDbSymbolTableRecord
100
AcDbLinetypeTableRecord
  2
BYLAYER
 70
    64
  3

 72
    65
 73
     0
 40
0.0
  0
LTYPE
  5
13
100
AcDbSymbolTableRecord
100
AcDbLinetypeTableRecord
  2
CONTINUOUS
 70
    64
  3
実線
 72
    65
 73
     0
 40
0.0
  0
LTYPE
  5
1D
100
AcDbSymbolTableRecord
100
AcDbLinetypeTableRecord
  2
EXLTYPE1
 70
    64
  3
破線
 72
    65
 73
     2
 40
4.0
 49
2.0
 74
     0
 49
-2.0
 74
     0
  0
LTYPE
  5
1E
100
AcDbSymbolTableRecord
100
AcDbLinetypeTableRecord
  2
EXLTYPE2
 70
    64
  3
点線
 72
    65
 73
     2
 40
2.0
 49
1.0
 74
     0
 49
-1.0
 74
     0
  0
LTYPE
  5
1F
100
AcDbSymbolTableRecord
100
AcDbLinetypeTableRecord
  2
EXLTYPE3
 70
    64
  3
一点鎖線
 72
    65
 73
     4
 40
33.0
 49
30.0
 74
     0
 49
-1.0
 74
     0
 49
1.0
 74
     0
 49
-1.0
 74
     0
  0
LTYPE
  5
20
100
AcDbSymbolTableRecord
100
AcDbLinetypeTableRecord
  2
EXLTYPE4
 70
    64
  3
二点鎖線
 72
    65
 73
     6
 40
35.0
 49
30.0
 74
     0
 49
-1.0
 74
     0
 49
1.0
 74
     0
 49
-1.0
 74
     0
 49
1.0
 74
     0
 49
-1.0
 74
     0
  0
LTYPE
  5
21
100
AcDbSymbolTableRecord
100
AcDbLinetypeTableRecord
  2
EXLTYPE5
 70
    64
  3
三点鎖線
 72
    65
 73
     8
 40
37.0
 49
30.0
 74
     0
 49
-1.0
 74
     0
 49
1.0
 74
     0
 49
-1.0
 74
     0
 49
1.0
 74
     0
 49
-1.0
 74
     0
 49
1.0
 74
     0
 49
-1.0
 74
     0
  0
LTYPE
  5
22
100
AcDbSymbolTableRecord
100
AcDbLinetypeTableRecord
  2
EXLTYPE6
 70
    64
  3
四点鎖線
 72
    65
 73
    10
 40
39.0
 49
30.0
 74
     0
 49
-1.0
 74
     0
 49
1.0
 74
     0
 49
-1.0
 74
     0
 49
1.0
 74
     0
 49
-1.0
 74
     0
 49
1.0
 74
     0
 49
-1.0
 74
     0
 49
1.0
 74
     0
 49
-1.0
 74
     0
  0
ENDTAB
  0
TABLE
  2
LAYER
  5
2
100
AcDbSymbolTable
 70
     8
  0
LAYER
  5
14
100
AcDbSymbolTableRecord
100
AcDbLayerTableRecord
  2
0
 70
     0
 62
     7
  6
CONTINUOUS
  0
LAYER
  5
25
100
AcDbSymbolTableRecord
100
AcDbLayerTableRecord
  2
LAY-1
 70
    64
 62
     7
  6
CONTINUOUS
  0
LAYER
  5
26
100
AcDbSymbolTableRecord
100
AcDbLayerTableRecord
  2
LAY-2
 70
    64
 62
     1
  6
EXLTYPE3
  0
LAYER
  5
27
100
AcDbSymbolTableRecord
100
AcDbLayerTableRecord
  2
LAY-3
 70
    64
 62
     1
  6
CONTINUOUS
  0
LAYER
  5
28
100
AcDbSymbolTableRecord
100
AcDbLayerTableRecord
  2
LAY-4
 70
    64
 62
     3
  6
CONTINUOUS
  0
LAYER
  5
29
100
AcDbSymbolTableRecord
100
AcDbLayerTableRecord
  2
LAY-5
 70
    64
 62
     7
  6
CONTINUOUS
  0
LAYER
  5
2A
100
AcDbSymbolTableRecord
100
AcDbLayerTableRecord
  2
LAY-6
 70
    64
 62
     4
  6
CONTINUOUS
  0
LAYER
  5
2B
100
AcDbSymbolTableRecord
100
AcDbLayerTableRecord
  2
LAY-7
 70
    64
 62
     4
  6
CONTINUOUS
  0
ENDTAB
  0
TABLE
  2
STYLE
  5
3
100
AcDbSymbolTable
 70
     3
  0
STYLE
  5
17
100
AcDbSymbolTableRecord
100
AcDbTextStyleTableRecord
  2
STANDARD
 70
     0
 40
0.0
 41
1.0
 50
0.0
 71
     0
 42
0.0
  3
monotxt
  4
extfont
  0
STYLE
  5
23
100
AcDbSymbolTableRecord
100
AcDbTextStyleTableRecord
  2
EXCADSTD
 70
    64
 40
0.0
 41
1.0
 50
0.0
 71
     0
 42
0.2
  3
monotxt
  4
extfont
  0
STYLE
  5
24
100
AcDbSymbolTableRecord
100
AcDbTextStyleTableRecord
  2
EXCADVERT
 70
    68
 40
0.0
 41
1.0
 50
0.0
 71
     0
 42
0.286885
  3
monotxt
  4
extfont
  0
ENDTAB
  0
TABLE
  2
VIEW
  5
5
100
AcDbSymbolTable
 70
     0
  0
ENDTAB
  0
TABLE
  2
UCS
  5
6
100
AcDbSymbolTable
 70
     0
  0
ENDTAB
  0
TABLE
  2
APPID
  5
8
100
AcDbSymbolTable
 70
     1
  0
APPID
  5
16
100
AcDbSymbolTableRecord
100
AcDbRegAppTableRecord
  2
ACAD
 70
     0
  0
ENDTAB
  0
TABLE
  2
DIMSTYLE
  5
9
100
AcDbSymbolTable
 70
     1
  0
DIMSTYLE
105
18
100
AcDbSymbolTableRecord
100
AcDbDimStyleTableRecord
  2
STANDARD
 70
     0
  3

  4

  5

  6

  7

 40
1.0
 41
0.18
 42
0.0625
 43
0.38
 44
0.18
 45
0.0
 46
0.0
 47
0.0
 48
0.0
 71
     0
 72
     0
 73
     1
 74
     1
 75
     0
 76
     0
 77
     0
 78
     0
140
0.18
141
0.09
142
0.0
143
25.4
144
1.0
145
0.0
146
1.0
147
0.09
170
     0
171
     2
172
     1
173
     0
174
     0
175
     0
176
     0
177
     0
178
     0
270
     2
271
     4
272
     4
273
     2
274
     2
275
     0
280
     0
281
     0
282
     0
283
     1
284
     0
285
     0
286
     0
287
     3
288
     0
340
17
  0
ENDTAB
  0
TABLE
  2
BLOCK_RECORD
  5
1
100
AcDbSymbolTable
 70
    14
  0
BLOCK_RECORD
  5
A
100
AcDbSymbolTableRecord
100
AcDbBlockTableRecord
  2
*MODEL_SPACE
  0
BLOCK_RECORD
  5
B
100
AcDbSymbolTableRecord
100
AcDbBlockTableRecord
  2
*PAPER_SPACE
  0
BLOCK_RECORD
  5
2C
100
AcDbSymbolTableRecord
100
AcDbBlockTableRecord
  2
_EX_NORM
  0
BLOCK_RECORD
  5
2D
100
AcDbSymbolTableRecord
100
AcDbBlockTableRecord
  2
_EX_BNORM
  0
BLOCK_RECORD
  5
2E
100
AcDbSymbolTableRecord
100
AcDbBlockTableRecord
  2
_EX_BCIR
  0
BLOCK_RECORD
  5
2F
100
AcDbSymbolTableRecord
100
AcDbBlockTableRecord
  2
_EX_RCIVIL
  0
BLOCK_RECORD
  5
30
100
AcDbSymbolTableRecord
100
AcDbBlockTableRecord
  2
_EX_SLANT
  0
BLOCK_RECORD
  5
31
100
AcDbSymbolTableRecord
100
AcDbBlockTableRecord
  2
_EX_NONE
  0
BLOCK_RECORD
  5
32
100
AcDbSymbolTableRecord
100
AcDbBlockTableRecord
  2
_EX_CIVIL
  0
BLOCK_RECORD
  5
33
100
AcDbSymbolTableRecord
100
AcDbBlockTableRecord
  2
_EX_WCIR
  0
BLOCK_RECORD
  5
34
100
AcDbSymbolTableRecord
100
AcDbBlockTableRecord
  2
_EX_WCIR2
  0
BLOCK_RECORD
  5
35
100
AcDbSymbolTableRecord
100
AcDbBlockTableRecord
  2
_EX_WNORM
  0
BLOCK_RECORD
  5
36
100
AcDbSymbolTableRecord
100
AcDbBlockTableRecord
  2
_EX_NNORM
  0
BLOCK_RECORD
  5
37
100
AcDbSymbolTableRecord
100
AcDbBlockTableRecord
  2
_EX_BBOX
  0
BLOCK_RECORD
  5
38
100
AcDbSymbolTableRecord
100
AcDbBlockTableRecord
  2
_EX_WBOX
  0
BLOCK_RECORD
  5
39
100
AcDbSymbolTableRecord
100
AcDbBlockTableRecord
  2
_EX_INTEGRAL
  0
ENDTAB
  0
ENDSEC
  0
SECTION
  2
BLOCKS
  0
BLOCK
  5
D
100
AcDbEntity
  8
0
100
AcDbBlockBegin
  2
*MODEL_SPACE
 70
     0
 10
0.0
 20
0.0
 30
0.0
  3
*MODEL_SPACE
  1

  0
ENDBLK
  5
E
100
AcDbEntity
  8
0
100
AcDbBlockEnd
  0
BLOCK
  5
F
100
AcDbEntity
 67
     1
  8
0
100
AcDbBlockBegin
  2
*PAPER_SPACE
 70
     0
 10
0.0
 20
0.0
 30
0.0
  3
*PAPER_SPACE
  1

  0
ENDBLK
  5
10
100
AcDbEntity
 67
     1
  8
0
100
AcDbBlockEnd
  0
BLOCK
  5
3A
100
AcDbEntity
  8
0
100
AcDbBlockBegin
  2
_EX_NORM
 70
     0
 10
0.0
 20
0.0
 30
0.0
  3
_EX_NORM
  1

  0
LINE
  5
3B
100
AcDbEntity
  8
0
  6
CONTINUOUS
 62
     0
100
AcDbLine
 10
0.0
 20
0.0
 30
0.0
 11
-1.0
 21
0.0
 31
0.0
  0
LINE
  5
3C
100
AcDbEntity
  8
0
  6
CONTINUOUS
 62
     0
100
AcDbLine
 10
0.0
 20
0.0
 30
0.0
 11
-1.0
 21
0.166667
 31
0.0
  0
LINE
  5
3D
100
AcDbEntity
  8
0
  6
CONTINUOUS
 62
     0
100
AcDbLine
 10
0.0
 20
0.0
 30
0.0
 11
-1.0
 21
-0.166667
 31
0.0
  0
ENDBLK
  5
3E
100
AcDbEntity
  8
0
100
AcDbBlockEnd
  0
BLOCK
  5
3F
100
AcDbEntity
  8
0
100
AcDbBlockBegin
  2
_EX_BNORM
 70
     0
 10
0.0
 20
0.0
 30
0.0
  3
_EX_BNORM
  1

  0
LINE
  5
40
100
AcDbEntity
  8
0
  6
CONTINUOUS
 62
     0
100
AcDbLine
 10
0.0
 20
0.0
 30
0.0
 11
-1.0
 21
0.0
 31
0.0
  0
LINE
  5
41
100
AcDbEntity
  8
0
  6
CONTINUOUS
 62
     0
100
AcDbLine
 10
0.0
 20
0.0
 30
0.0
 11
-1.0
 21
0.166667
 31
0.0
  0
LINE
  5
42
100
AcDbEntity
  8
0
  6
CONTINUOUS
 62
     0
100
AcDbLine
 10
0.0
 20
0.0
 30
0.0
 11
-1.0
 21
-0.166667
 31
0.0
  0
LINE
  5
43
100
AcDbEntity
  8
0
  6
CONTINUOUS
 62
     0
100
AcDbLine
 10
0.0
 20
0.0
 30
0.0
 11
-1.0
 21
0.083333
 31
0.0
  0
LINE
  5
44
100
AcDbEntity
  8
0
  6
CONTINUOUS
 62
     0
100
AcDbLine
 10
0.0
 20
0.0
 30
0.0
 11
-1.0
 21
-0.083333
 31
0.0
  0
LINE
  5
45
100
AcDbEntity
  8
0
  6
CONTINUOUS
 62
     0
100
AcDbLine
 10
-1.0
 20
0.166667
 30
0.0
 11
-1.0
 21
-0.166667
 31
0.0
  0
ENDBLK
  5
46
100
AcDbEntity
  8
0
100
AcDbBlockEnd
  0
BLOCK
  5
47
100
AcDbEntity
  8
0
100
AcDbBlockBegin
  2
_EX_BCIR
 70
     0
 10
0.0
 20
0.0
 30
0.0
  3
_EX_BCIR
  1

  0
LINE
  5
48
100
AcDbEntity
  8
0
  6
CONTINUOUS
 62
     0
100
AcDbLine
 10
0.0
 20
0.0
 30
0.0
 11
-1.0
 21
0.0
 31
0.0
  0
CIRCLE
  5
49
100
AcDbEntity
  8
0
  6
CONTINUOUS
 62
     0
100
AcDbCircle
 10
0.0
 20
0.0
 30
0.0
 40
0.5
  0
CIRCLE
  5
4A
100
AcDbEntity
  8
0
  6
CONTINUOUS
 62
     0
100
AcDbCircle
 10
0.0
 20
0.0
 30
0.0
 40
0.25
  0
ENDBLK
  5
4B
100
AcDbEntity
  8
0
100
AcDbBlockEnd
  0
BLOCK
  5
4C
100
AcDbEntity
  8
0
100
AcDbBlockBegin
  2
_EX_RCIVIL
 70
     0
 10
0.0
 20
0.0
 30
0.0
  3
_EX_RCIVIL
  1

  0
LINE
  5
4D
100
AcDbEntity
  8
0
  6
CONTINUOUS
 62
     0
100
AcDbLine
 10
0.0
 20
0.0
 30
0.0
 11
-1.0
 21
0.0
 31
0.0
  0
LINE
  5
4E
100
AcDbEntity
  8
0
  6
CONTINUOUS
 62
     0
100
AcDbLine
 10
-1.0
 20
-0.25
 30
0.0
 11
0.0
 21
-0.25
 31
0.0
  0
LINE
  5
4F
100
AcDbEntity
  8
0
  6
CONTINUOUS
 62
     0
100
AcDbLine
 10
-1.0
 20
-0.125
 30
0.0
 11
0.0
 21
-0.125
 31
0.0
  0
ENDBLK
  5
50
100
AcDbEntity
  8
0
100
AcDbBlockEnd
  0
BLOCK
  5
51
100
AcDbEntity
  8
0
100
AcDbBlockBegin
  2
_EX_SLANT
 70
     0
 10
0.0
 20
0.0
 30
0.0
  3
_EX_SLANT
  1

  0
LINE
  5
52
100
AcDbEntity
  8
0
  6
CONTINUOUS
 62
     0
100
AcDbLine
 10
0.0
 20
0.0
 30
0.0
 11
-1.0
 21
0.0
 31
0.0
  0
LINE
  5
53
100
AcDbEntity
  8
0
  6
CONTINUOUS
 62
     0
100
AcDbLine
 10
0.707107
 20
0.707107
 30
0.0
 11
-0.707107
 21
-0.707107
 31
0.0
  0
ENDBLK
  5
54
100
AcDbEntity
  8
0
100
AcDbBlockEnd
  0
BLOCK
  5
55
100
AcDbEntity
  8
0
100
AcDbBlockBegin
  2
_EX_NONE
 70
     0
 10
0.0
 20
0.0
 30
0.0
  3
_EX_NONE
  1

  0
LINE
  5
56
100
AcDbEntity
  8
0
  6
CONTINUOUS
 62
     0
100
AcDbLine
 10
0.0
 20
0.0
 30
0.0
 11
-1.0
 21
0.0
 31
0.0
  0
ENDBLK
  5
57
100
AcDbEntity
  8
0
100
AcDbBlockEnd
  0
BLOCK
  5
58
100
AcDbEntity
  8
0
100
AcDbBlockBegin
  2
_EX_CIVIL
 70
     0
 10
0.0
 20
0.0
 30
0.0
  3
_EX_CIVIL
  1

  0
LINE
  5
59
100
AcDbEntity
  8
0
  6
CONTINUOUS
 62
     0
100
AcDbLine
 10
0.0
 20
0.0
 30
0.0
 11
-1.0
 21
0.0
 31
0.0
  0
LINE
  5
5A
100
AcDbEntity
  8
0
  6
CONTINUOUS
 62
     0
100
AcDbLine
 10
-1.0
 20
0.25
 30
0.0
 11
0.0
 21
0.25
 31
0.0
  0
LINE
  5
5B
100
AcDbEntity
  8
0
  6
CONTINUOUS
 62
     0
100
AcDbLine
 10
-1.0
 20
0.125
 30
0.0
 11
0.0
 21
0.125
 31
0.0
  0
ENDBLK
  5
5C
100
AcDbEntity
  8
0
100
AcDbBlockEnd
  0
BLOCK
  5
5D
100
AcDbEntity
  8
0
100
AcDbBlockBegin
  2
_EX_WCIR
 70
     0
 10
0.0
 20
0.0
 30
0.0
  3
_EX_WCIR
  1

  0
LINE
  5
5E
100
AcDbEntity
  8
0
  6
CONTINUOUS
 62
     0
100
AcDbLine
 10
0.0
 20
0.0
 30
0.0
 11
-1.0
 21
0.0
 31
0.0
  0
CIRCLE
  5
5F
100
AcDbEntity
  8
0
  6
CONTINUOUS
 62
     0
100
AcDbCircle
 10
0.0
 20
0.0
 30
0.0
 40
0.5
  0
ENDBLK
  5
60
100
AcDbEntity
  8
0
100
AcDbBlockEnd
  0
BLOCK
  5
61
100
AcDbEntity
  8
0
100
AcDbBlockBegin
  2
_EX_WCIR2
 70
     0
 10
0.0
 20
0.0
 30
0.0
  3
_EX_WCIR2
  1

  0
LINE
  5
62
100
AcDbEntity
  8
0
  6
CONTINUOUS
 62
     0
100
AcDbLine
 10
-0.5
 20
0.0
 30
0.0
 11
-1.0
 21
0.0
 31
0.0
  0
CIRCLE
  5
63
100
AcDbEntity
  8
0
  6
CONTINUOUS
 62
     0
100
AcDbCircle
 10
0.0
 20
0.0
 30
0.0
 40
0.5
  0
ENDBLK
  5
64
100
AcDbEntity
  8
0
100
AcDbBlockEnd
  0
BLOCK
  5
65
100
AcDbEntity
  8
0
100
AcDbBlockBegin
  2
_EX_WNORM
 70
     0
 10
0.0
 20
0.0
 30
0.0
  3
_EX_WNORM
  1

  0
LINE
  5
66
100
AcDbEntity
  8
0
  6
CONTINUOUS
 62
     0
100
AcDbLine
 10
-1.0
 20
0.0
 30
0.0
 11
-1.0
 21
0.0
 31
0.0
  0
LINE
  5
67
100
AcDbEntity
  8
0
  6
CONTINUOUS
 62
     0
100
AcDbLine
 10
0.0
 20
0.0
 30
0.0
 11
-1.0
 21
0.166667
 31
0.0
  0
LINE
  5
68
100
AcDbEntity
  8
0
  6
CONTINUOUS
 62
     0
100
AcDbLine
 10
0.0
 20
0.0
 30
0.0
 11
-1.0
 21
-0.166667
 31
0.0
  0
LINE
  5
69
100
AcDbEntity
  8
0
  6
CONTINUOUS
 62
     0
100
AcDbLine
 10
-1.0
 20
0.166667
 30
0.0
 11
-1.0
 21
-0.166667
 31
0.0
  0
ENDBLK
  5
6A
100
AcDbEntity
  8
0
100
AcDbBlockEnd
  0
BLOCK
  5
6B
100
AcDbEntity
  8
0
100
AcDbBlockBegin
  2
_EX_NNORM
 70
     0
 10
0.0
 20
0.0
 30
0.0
  3
_EX_NNORM
  1

  0
LINE
  5
6C
100
AcDbEntity
  8
0
  6
CONTINUOUS
 62
     0
100
AcDbLine
 10
0.0
 20
0.0
 30
0.0
 11
-1.0
 21
0.0
 31
0.0
  0
LINE
  5
6D
100
AcDbEntity
  8
0
  6
CONTINUOUS
 62
     0
100
AcDbLine
 10
0.0
 20
0.0
 30
0.0
 11
-1.0
 21
0.166667
 31
0.0
  0
LINE
  5
6E
100
AcDbEntity
  8
0
  6
CONTINUOUS
 62
     0
100
AcDbLine
 10
0.0
 20
0.0
 30
0.0
 11
-1.0
 21
-0.166667
 31
0.0
  0
LINE
  5
6F
100
AcDbEntity
  8
0
  6
CONTINUOUS
 62
     0
100
AcDbLine
 10
-1.0
 20
0.166667
 30
0.0
 11
-1.0
 21
-0.166667
 31
0.0
  0
ENDBLK
  5
70
100
AcDbEntity
  8
0
100
AcDbBlockEnd
  0
BLOCK
  5
71
100
AcDbEntity
  8
0
100
AcDbBlockBegin
  2
_EX_BBOX
 70
     0
 10
0.0
 20
0.0
 30
0.0
  3
_EX_BBOX
  1

  0
LINE
  5
72
100
AcDbEntity
  8
0
  6
CONTINUOUS
 62
     0
100
AcDbLine
 10
0.0
 20
0.0
 30
0.0
 11
-1.0
 21
0.0
 31
0.0
  0
LINE
  5
73
100
AcDbEntity
  8
0
  6
CONTINUOUS
 62
     0
100
AcDbLine
 10
-0.5
 20
0.5
 30
0.0
 11
0.5
 21
0.5
 31
0.0
  0
LINE
  5
74
100
AcDbEntity
  8
0
  6
CONTINUOUS
 62
     0
100
AcDbLine
 10
0.5
 20
0.5
 30
0.0
 11
0.5
 21
-0.5
 31
0.0
  0
LINE
  5
75
100
AcDbEntity
  8
0
  6
CONTINUOUS
 62
     0
100
AcDbLine
 10
0.5
 20
-0.5
 30
0.0
 11
-0.5
 21
-0.5
 31
0.0
  0
LINE
  5
76
100
AcDbEntity
  8
0
  6
CONTINUOUS
 62
     0
100
AcDbLine
 10
-0.5
 20
-0.5
 30
0.0
 11
-0.5
 21
0.5
 31
0.0
  0
LINE
  5
77
100
AcDbEntity
  8
0
  6
CONTINUOUS
 62
     0
100
AcDbLine
 10
-0.25
 20
0.25
 30
0.0
 11
0.25
 21
0.25
 31
0.0
  0
LINE
  5
78
100
AcDbEntity
  8
0
  6
CONTINUOUS
 62
     0
100
AcDbLine
 10
0.25
 20
0.25
 30
0.0
 11
0.25
 21
-0.25
 31
0.0
  0
LINE
  5
79
100
AcDbEntity
  8
0
  6
CONTINUOUS
 62
     0
100
AcDbLine
 10
0.25
 20
-0.25
 30
0.0
 11
-0.25
 21
-0.25
 31
0.0
  0
LINE
  5
7A
100
AcDbEntity
  8
0
  6
CONTINUOUS
 62
     0
100
AcDbLine
 10
-0.25
 20
-0.25
 30
0.0
 11
-0.25
 21
0.25
 31
0.0
  0
ENDBLK
  5
7B
100
AcDbEntity
  8
0
100
AcDbBlockEnd
  0
BLOCK
  5
7C
100
AcDbEntity
  8
0
100
AcDbBlockBegin
  2
_EX_WBOX
 70
     0
 10
0.0
 20
0.0
 30
0.0
  3
_EX_WBOX
  1

  0
LINE
  5
7D
100
AcDbEntity
  8
0
  6
CONTINUOUS
 62
     0
100
AcDbLine
 10
-0.5
 20
0.0
 30
0.0
 11
-1.0
 21
0.0
 31
0.0
  0
LINE
  5
7E
100
AcDbEntity
  8
0
  6
CONTINUOUS
 62
     0
100
AcDbLine
 10
-0.5
 20
0.5
 30
0.0
 11
0.5
 21
0.5
 31
0.0
  0
LINE
  5
7F
100
AcDbEntity
  8
0
  6
CONTINUOUS
 62
     0
100
AcDbLine
 10
0.5
 20
0.5
 30
0.0
 11
0.5
 21
-0.5
 31
0.0
  0
LINE
  5
80
100
AcDbEntity
  8
0
  6
CONTINUOUS
 62
     0
100
AcDbLine
 10
0.5
 20
-0.5
 30
0.0
 11
-0.5
 21
-0.5
 31
0.0
  0
LINE
  5
81
100
AcDbEntity
  8
0
  6
CONTINUOUS
 62
     0
100
AcDbLine
 10
-0.5
 20
-0.5
 30
0.0
 11
-0.5
 21
0.5
 31
0.0
  0
ENDBLK
  5
82
100
AcDbEntity
  8
0
100
AcDbBlockEnd
  0
BLOCK
  5
83
100
AcDbEntity
  8
0
100
AcDbBlockBegin
  2
_EX_INTEGRAL
 70
     0
 10
0.0
 20
0.0
 30
0.0
  3
_EX_INTEGRAL
  1

  0
LINE
  5
84
100
AcDbEntity
  8
0
  6
CONTINUOUS
 62
     0
100
AcDbLine
 10
0.0
 20
0.0
 30
0.0
 11
-1.0
 21
0.0
 31
0.0
  0
ARC
  5
85
100
AcDbEntity
  8
0
  6
CONTINUOUS
 62
     0
100
AcDbCircle
 10
0.542115
 20
0.164992
 30
0.0
 40
0.56667
100
AcDbArc
 50
73.07249
 51
196.927513
  0
ARC
  5
86
100
AcDbEntity
  8
0
  6
CONTINUOUS
 62
     0
100
AcDbCircle
 10
-0.542115
 20
-0.164992
 30
0.0
 40
0.56667
100
AcDbArc
 50
253.072487
 51
16.927513
  0
ENDBLK
  5
87
100
AcDbEntity
  8
0
100
AcDbBlockEnd
  0
ENDSEC
  0
SECTION
  2
ENTITIES
  0
LINE
  5
88
100
AcDbEntity
  8
LAY-1
  6
EXLTYPE3
 62
     1
100
AcDbLine
 10
958.3
 20
772.557766
 30
0.0
 11
1388.3
 21
772.557766
 31
0.0
  0
LINE
  5
89
100
AcDbEntity
  8
LAY-1
  6
EXLTYPE3
 62
     1
100
AcDbLine
 10
958.3
 20
642.557766
 30
0.0
 11
1388.3
 21
642.557766
 31
0.0
  0
LINE
  5
8A
100
AcDbEntity
  8
LAY-1
  6
EXLTYPE3
 62
     1
100
AcDbLine
 10
1357.2
 20
809.557766
 30
0.0
 11
1357.2
 21
605.557766
 31
0.0
  0
LINE
  5
8B
100
AcDbEntity
  8
LAY-1
  6
EXLTYPE3
 62
     1
100
AcDbLine
 10
979.4
 20
667.557766
 30
0.0
 11
1387.5
 21
667.557766
 31
0.0
  0
LINE
  5
8C
100
AcDbEntity
  8
LAY-1
  6
EXLTYPE3
 62
     1
100
AcDbLine
 10
992.2
 20
809.557766
 30
0.0
 11
992.2
 21
610.557766
 31
0.0
  0
LINE
  5
8D
100
AcDbEntity
  8
LAY-1
  6
EXLTYPE3
 62
     1
100
AcDbLine
 10
1002.2
 20
184.257766
 30
0.0
 11
1002.2
 21
224.457766
 31
0.0
  0
LINE
  5
8E
100
AcDbEntity
  8
LAY-1
  6
EXLTYPE3
 62
     1
100
AcDbLine
 10
987.0
 20
200.257766
 30
0.0
 11
1020.6
 21
200.257766
 31
0.0
  0
CIRCLE
  5
8F
100
AcDbEntity
  8
LAY-1
  6
CONTINUOUS
 62
     2
100
AcDbCircle
 10
1357.2
 20
772.557766
 30
0.0
 40
6.5
  0
LINE
  5
90
100
AcDbEntity
  8
LAY-1
  6
CONTINUOUS
 62
     2
100
AcDbLine
 10
998.7
 20
667.557766
 30
0.0
 11
998.7
 21
642.557766
 31
0.0
  0
LINE
  5
91
100
AcDbEntity
  8
LAY-1
  6
CONTINUOUS
 62
     2
100
AcDbLine
 10
985.7
 20
667.557766
 30
0.0
 11
985.7
 21
642.557766
 31
0.0
  0
CIRCLE
  5
92
100
AcDbEntity
  8
LAY-1
  6
CONTINUOUS
 62
     2
100
AcDbCircle
 10
992.2
 20
772.557766
 30
0.0
 40
6.5
  0
ARC
  5
93
100
AcDbEntity
  8
LAY-1
  6
CONTINUOUS
 62
     2
100
AcDbCircle
 10
992.2
 20
667.557766
 30
0.0
 40
6.5
100
AcDbArc
 50
0.0
 51
180.0
  0
ARC
  5
94
100
AcDbEntity
  8
LAY-1
  6
CONTINUOUS
 62
     2
100
AcDbCircle
 10
992.2
 20
642.557766
 30
0.0
 40
6.5
100
AcDbArc
 50
180.0
 51
0.0
  0
LINE
  5
95
100
AcDbEntity
  8
LAY-1
  6
CONTINUOUS
 62
     2
100
AcDbLine
 10
1363.7
 20
667.557766
 30
0.0
 11
1363.7
 21
642.557766
 31
0.0
  0
LINE
  5
96
100
AcDbEntity
  8
LAY-1
  6
CONTINUOUS
 62
     2
100
AcDbLine
 10
1350.7
 20
667.557766
 30
0.0
 11
1350.7
 21
642.557766
 31
0.0
  0
ARC
  5
97
100
AcDbEntity
  8
LAY-1
  6
CONTINUOUS
 62
     2
100
AcDbCircle
 10
1357.2
 20
667.557766
 30
0.0
 40
6.5
100
AcDbArc
 50
0.0
 51
180.0
  0
ARC
  5
98
100
AcDbEntity
  8
LAY-1
  6
CONTINUOUS
 62
     2
100
AcDbCircle
 10
1357.2
 20
642.557766
 30
0.0
 40
6.5
100
AcDbArc
 50
180.0
 51
0.0
  0
ARC
  5
99
100
AcDbEntity
  8
LAY-1
  6
CONTINUOUS
 62
     2
100
AcDbCircle
 10
982.2
 20
787.557766
 30
0.0
 40
10.0
100
AcDbArc
 50
90.0
 51
180.0
  0
LINE
  5
9A
100
AcDbEntity
  8
LAY-1
  6
CONTINUOUS
 62
     2
100
AcDbLine
 10
972.2
 20
787.557766
 30
0.0
 11
972.2
 21
766.557766
 31
0.0
  0
LINE
  5
9B
100
AcDbEntity
  8
LAY-1
  6
CONTINUOUS
 62
     2
100
AcDbLine
 10
982.2
 20
756.557766
 30
0.0
 11
1012.2
 21
756.557766
 31
0.0
  0
ARC
  5
9C
100
AcDbEntity
  8
LAY-1
  6
CONTINUOUS
 62
     2
100
AcDbCircle
 10
982.2
 20
766.557766
 30
0.0
 40
10.0
100
AcDbArc
 50
180.0
 51
270.0
  0
LINE
  5
9D
100
AcDbEntity
  8
LAY-1
  6
CONTINUOUS
 62
     2
100
AcDbLine
 10
982.2
 20
678.557766
 30
0.0
 11
1012.2
 21
678.557766
 31
0.0
  0
ARC
  5
9E
100
AcDbEntity
  8
LAY-1
  6
CONTINUOUS
 62
     2
100
AcDbCircle
 10
982.2
 20
668.557766
 30
0.0
 40
10.0
100
AcDbArc
 50
90.0
 51
180.0
  0
LINE
  5
9F
100
AcDbEntity
  8
LAY-1
  6
CONTINUOUS
 62
     2
100
AcDbLine
 10
1367.2
 20
797.557766
 30
0.0
 11
982.2
 21
797.557766
 31
0.0
  0
ARC
  5
A0
100
AcDbEntity
  8
LAY-1
  6
CONTINUOUS
 62
     2
100
AcDbCircle
 10
1367.2
 20
787.557766
 30
0.0
 40
10.0
100
AcDbArc
 50
0.0
 51
90.0
  0
ARC
  5
A1
100
AcDbEntity
  8
LAY-1
  6
CONTINUOUS
 62
     2
100
AcDbCircle
 10
1367.2
 20
612.557766
 30
0.0
 40
10.0
100
AcDbArc
 50
270.0
 51
0.0
  0
LINE
  5
A2
100
AcDbEntity
  8
LAY-1
  6
CONTINUOUS
 62
     2
100
AcDbLine
 10
1337.2
 20
602.557766
 30
0.0
 11
1367.2
 21
602.557766
 31
0.0
  0
ARC
  5
A3
100
AcDbEntity
  8
LAY-1
  6
CONTINUOUS
 62
     2
100
AcDbCircle
 10
1022.2
 20
562.557766
 30
0.0
 40
10.0
100
AcDbArc
 50
180.0
 51
270.0
  0
ARC
  5
A4
100
AcDbEntity
  8
LAY-1
  6
CONTINUOUS
 62
     2
100
AcDbCircle
 10
1327.2
 20
562.557766
 30
0.0
 40
10.0
100
AcDbArc
 50
270.0
 51
0.0
  0
LINE
  5
A5
100
AcDbEntity
  8
LAY-1
  6
CONTINUOUS
 62
     2
100
AcDbLine
 10
1327.2
 20
552.557766
 30
0.0
 11
1022.2
 21
552.557766
 31
0.0
  0
ARC
  5
A6
100
AcDbEntity
  8
LAY-1
  6
CONTINUOUS
 62
     2
100
AcDbCircle
 10
982.2
 20
612.557766
 30
0.0
 40
10.0
100
AcDbArc
 50
180.0
 51
270.0
  0
LINE
  5
A7
100
AcDbEntity
  8
LAY-1
  6
CONTINUOUS
 62
     2
100
AcDbLine
 10
1012.2
 20
602.557766
 30
0.0
 11
982.2
 21
602.557766
 31
0.0
  0
LINE
  5
A8
100
AcDbEntity
  8
LAY-1
  6
CONTINUOUS
 62
     2
100
AcDbLine
 10
1337.2
 20
797.557766
 30
0.0
 11
1337.2
 21
562.557766
 31
0.0
  0
LINE
  5
A9
100
AcDbEntity
  8
LAY-1
  6
CONTINUOUS
 62
     2
100
AcDbLine
 10
1377.2
 20
787.557766
 30
0.0
 11
1377.2
 21
612.557766
 31
0.0
  0
LINE
  5
AA
100
AcDbEntity
  8
LAY-1
  6
CONTINUOUS
 62
     2
100
AcDbLine
 10
1012.2
 20
797.557766
 30
0.0
 11
1012.2
 21
562.557766
 31
0.0
  0
LINE
  5
AB
100
AcDbEntity
  8
LAY-1
  6
CONTINUOUS
 62
     2
100
AcDbLine
 10
972.2
 20
668.557766
 30
0.0
 11
972.2
 21
612.557766
 31
0.0
  0
LINE
  5
AC
100
AcDbEntity
  8
LAY-1
  6
CONTINUOUS
 62
     2
100
AcDbLine
 10
1333.0
 20
50.257766
 30
0.0
 11
1373.0
 21
50.257766
 31
0.0
  0
LINE
  5
AD
100
AcDbEntity
  8
LAY-1
  6
CONTINUOUS
 62
     2
100
AcDbLine
 10
1013.0
 20
450.257766
 30
0.0
 11
1337.2
 21
450.257766
 31
0.0
  0
LINE
  5
AE
100
AcDbEntity
  8
LAY-1
  6
CONTINUOUS
 62
     2
100
AcDbLine
 10
1337.2
 20
70.257766
 30
0.0
 11
1012.2
 21
70.257766
 31
0.0
  0
LINE
  5
AF
100
AcDbEntity
  8
LAY-1
  6
CONTINUOUS
 62
     2
100
AcDbLine
 10
1337.2
 20
410.257766
 30
0.0
 11
1012.2
 21
410.257766
 31
0.0
  0
LINE
  5
B0
100
AcDbEntity
  8
LAY-1
  6
CONTINUOUS
 62
     2
100
AcDbLine
 10
1337.2
 20
428.702225
 30
0.0
 11
1012.2
 21
428.702225
 31
0.0
  0
LINE
  5
B1
100
AcDbEntity
  8
LAY-1
  6
CONTINUOUS
 62
     2
100
AcDbLine
 10
1377.2
 20
51.857766
 30
0.0
 11
1337.2
 21
51.857766
 31
0.0
  0
LINE
  5
B2
100
AcDbEntity
  8
LAY-1
  6
CONTINUOUS
 62
     2
100
AcDbLine
 10
1377.2
 20
50.257766
 30
0.0
 11
1377.2
 21
51.857766
 31
0.0
  0
LINE
  5
B3
100
AcDbEntity
  8
LAY-1
  6
CONTINUOUS
 62
     2
100
AcDbLine
 10
972.2
 20
51.857766
 30
0.0
 11
1012.2
 21
51.857766
 31
0.0
  0
LINE
  5
B4
100
AcDbEntity
  8
LAY-1
  6
CONTINUOUS
 62
     2
100
AcDbLine
 10
972.2
 20
50.257766
 30
0.0
 11
972.2
 21
51.857766
 31
0.0
  0
CIRCLE
  5
B5
100
AcDbEntity
  8
LAY-1
  6
CONTINUOUS
 62
     2
100
AcDbCircle
 10
1002.2
 20
200.257766
 30
0.0
 40
6.0
  0
LINE
  5
B6
100
AcDbEntity
  8
LAY-1
  6
CONTINUOUS
 62
     2
100
AcDbLine
 10
1044.214413
 20
249.777766
 30
0.0
 11
1047.209008
 21
199.957766
 31
0.0
  0
LINE
  5
B7
100
AcDbEntity
  8
LAY-1
  6
CONTINUOUS
 62
     2
100
AcDbLine
 10
1057.190992
 20
199.957766
 30
0.0
 11
1060.185587
 21
249.777766
 31
0.0
  0
ARC
  5
B8
100
AcDbEntity
  8
LAY-1
  6
CONTINUOUS
 62
     2
100
AcDbCircle
 10
1052.2
 20
200.257766
 30
0.0
 40
5.0
100
AcDbArc
 50
180.0
 51
358.280094
  0
ARC
  5
B9
100
AcDbEntity
  8
LAY-1
  6
CONTINUOUS
 62
     2
100
AcDbCircle
 10
1052.2
 20
250.257766
 30
0.0
 40
8.0
100
AcDbArc
 50
356.560187
 51
183.439813
  0
ARC
  5
BA
100
AcDbEntity
  8
LAY-1
  6
CONTINUOUS
 62
     2
100
AcDbCircle
 10
1052.2
 20
250.257766
 30
0.0
 40
15.0
100
AcDbArc
 50
300.0
 51
240.0
  0
LINE
  5
BB
100
AcDbEntity
  8
LAY-1
  6
CONTINUOUS
 62
     2
100
AcDbLine
 10
1037.2
 20
258.91802
 30
0.0
 11
1037.2
 21
241.597512
 31
0.0
  0
LINE
  5
BC
100
AcDbEntity
  8
LAY-1
  6
CONTINUOUS
 62
     2
100
AcDbLine
 10
1052.2
 20
267.578274
 30
0.0
 11
1037.2
 21
258.91802
 31
0.0
  0
LINE
  5
BD
100
AcDbEntity
  8
LAY-1
  6
CONTINUOUS
 62
     2
100
AcDbLine
 10
1067.2
 20
258.91802
 30
0.0
 11
1052.2
 21
267.578274
 31
0.0
  0
LINE
  5
BE
100
AcDbEntity
  8
LAY-1
  6
CONTINUOUS
 62
     2
100
AcDbLine
 10
1067.2
 20
241.597512
 30
0.0
 11
1067.2
 21
258.91802
 31
0.0
  0
LINE
  5
BF
100
AcDbEntity
  8
LAY-1
  6
CONTINUOUS
 62
     2
100
AcDbLine
 10
1377.2
 20
50.257766
 30
0.0
 11
972.2
 21
50.257766
 31
0.0
  0
LINE
  5
C0
100
AcDbEntity
  8
LAY-1
  6
CONTINUOUS
 62
     2
100
AcDbLine
 10
1012.2
 20
50.257766
 30
0.0
 11
1012.2
 21
450.257766
 31
0.0
  0
LINE
  5
C1
100
AcDbEntity
  8
LAY-1
  6
CONTINUOUS
 62
     2
100
AcDbLine
 10
1059.424032
 20
237.108055
 30
0.0
 11
1067.2
 21
241.597512
 31
0.0
  0
LINE
  5
C2
100
AcDbEntity
  8
LAY-1
  6
CONTINUOUS
 62
     2
100
AcDbLine
 10
1037.2
 20
241.597512
 30
0.0
 11
1044.975968
 21
237.108055
 31
0.0
  0
LINE
  5
C3
100
AcDbEntity
  8
LAY-1
  6
CONTINUOUS
 62
     2
100
AcDbLine
 10
1337.2
 20
50.257766
 30
0.0
 11
1337.2
 21
450.257766
 31
0.0
  0
LINE
  5
C4
100
AcDbEntity
  8
LAY-1
  6
CONTINUOUS
 62
     2
100
AcDbLine
 10
1012.2
 20
212.257766
 30
0.0
 11
997.2
 21
212.257766
 31
0.0
  0
ARC
  5
C5
100
AcDbEntity
  8
LAY-1
  6
CONTINUOUS
 62
     2
100
AcDbCircle
 10
997.2
 20
207.257766
 30
0.0
 40
5.0
100
AcDbArc
 50
90.0
 51
180.0
  0
LINE
  5
C6
100
AcDbEntity
  8
LAY-1
  6
CONTINUOUS
 62
     2
100
AcDbLine
 10
997.2
 20
188.257766
 30
0.0
 11
1012.2
 21
188.257766
 31
0.0
  0
LINE
  5
C7
100
AcDbEntity
  8
LAY-1
  6
CONTINUOUS
 62
     2
100
AcDbLine
 10
992.2
 20
193.257766
 30
0.0
 11
992.2
 21
207.257766
 31
0.0
  0
ARC
  5
C8
100
AcDbEntity
  8
LAY-1
  6
CONTINUOUS
 62
     2
100
AcDbCircle
 10
997.2
 20
193.257766
 30
0.0
 40
5.0
100
AcDbArc
 50
180.0
 51
270.0
  0
ARC
  5
C9
100
AcDbEntity
  8
LAY-1
  6
CONTINUOUS
 62
     2
100
AcDbCircle
 10
1237.2
 20
258.757766
 30
0.0
 40
20.0
100
AcDbArc
 50
0.0
 51
90.0
  0
ARC
  5
CA
100
AcDbEntity
  8
LAY-1
  6
CONTINUOUS
 62
     2
100
AcDbCircle
 10
1237.2
 20
173.757766
 30
0.0
 40
20.0
100
AcDbArc
 50
270.0
 51
0.0
  0
LINE
  5
CB
100
AcDbEntity
  8
LAY-1
  6
CONTINUOUS
 62
     2
100
AcDbLine
 10
1237.2
 20
153.757766
 30
0.0
 11
1139.8
 21
153.757766
 31
0.0
  0
ARC
  5
CC
100
AcDbEntity
  8
LAY-1
  6
CONTINUOUS
 62
     2
100
AcDbCircle
 10
1139.8
 20
173.757766
 30
0.0
 40
20.0
100
AcDbArc
 50
180.0
 51
270.0
  0
LINE
  5
CD
100
AcDbEntity
  8
LAY-1
  6
CONTINUOUS
 62
     2
100
AcDbLine
 10
1257.2
 20
173.757766
 30
0.0
 11
1257.2
 21
258.757766
 31
0.0
  0
LINE
  5
CE
100
AcDbEntity
  8
LAY-1
  6
CONTINUOUS
 62
     2
100
AcDbLine
 10
1237.2
 20
278.757766
 30
0.0
 11
1168.084271
 21
278.757766
 31
0.0
  0
ARC
  5
CF
100
AcDbEntity
  8
LAY-1
  6
CONTINUOUS
 62
     2
100
AcDbCircle
 10
1168.084271
 20
258.757766
 30
0.0
 40
20.0
100
AcDbArc
 50
90.0
 51
135.0
  0
LINE
  5
D0
100
AcDbEntity
  8
LAY-1
  6
CONTINUOUS
 62
     2
100
AcDbLine
 10
1153.942136
 20
272.899901
 30
0.0
 11
1125.657864
 21
244.61563
 31
0.0
  0
LINE
  5
D1
100
AcDbEntity
  8
LAY-1
  6
CONTINUOUS
 62
     2
100
AcDbLine
 10
1119.8
 20
173.757766
 30
0.0
 11
1119.8
 21
230.473494
 31
0.0
  0
ARC
  5
D2
100
AcDbEntity
  8
LAY-1
  6
CONTINUOUS
 62
     2
100
AcDbCircle
 10
1139.8
 20
230.473494
 30
0.0
 40
20.0
100
AcDbArc
 50
135.0
 51
180.0
  0
LINE
  5
D3
100
AcDbEntity
  8
LAY-1
  6
CONTINUOUS
 62
     2
100
AcDbLine
 10
1595.6
 20
582.557766
 30
0.0
 11
1595.6
 21
602.557766
 31
0.0
  0
LINE
  5
D4
100
AcDbEntity
  8
LAY-1
  6
CONTINUOUS
 62
     2
100
AcDbLine
 10
1935.6
 20
602.557766
 30
0.0
 11
1935.6
 21
582.557766
 31
0.0
  0
LINE
  5
D5
100
AcDbEntity
  8
LAY-1
  6
CONTINUOUS
 62
     2
100
AcDbLine
 10
1595.6
 20
582.557766
 30
0.0
 11
1935.6
 21
582.557766
 31
0.0
  0
LINE
  5
D6
100
AcDbEntity
  8
LAY-1
  6
CONTINUOUS
 62
     2
100
AcDbLine
 10
1954.0
 20
797.557766
 30
0.0
 11
1954.0
 21
602.557766
 31
0.0
  0
LINE
  5
D7
100
AcDbEntity
  8
LAY-1
  6
CONTINUOUS
 62
     2
100
AcDbLine
 10
1955.6
 20
797.557766
 30
0.0
 11
1955.6
 21
602.557766
 31
0.0
  0
ARC
  5
D8
100
AcDbEntity
  8
LAY-1
  6
CONTINUOUS
 62
     2
100
AcDbCircle
 10
1766.7
 20
566.557766
 30
0.0
 40
6.1
100
AcDbArc
 50
100.388858
 51
259.611142
  0
ARC
  5
D9
100
AcDbEntity
  8
LAY-1
  6
CONTINUOUS
 62
     2
100
AcDbCircle
 10
1743.950628
 20
566.116204
 30
0.0
 40
6.649372
100
AcDbArc
 50
303.286754
 51
75.63789
  0
LINE
  5
DA
100
AcDbEntity
  8
LAY-1
  6
CONTINUOUS
 62
     2
100
AcDbLine
 10
1745.6
 20
572.557766
 30
0.0
 11
1740.6
 21
577.557766
 31
0.0
  0
LINE
  5
DB
100
AcDbEntity
  8
LAY-1
  6
CONTINUOUS
 62
     2
100
AcDbLine
 10
1770.6
 20
577.557766
 30
0.0
 11
1765.6
 21
572.557766
 31
0.0
  0
LINE
  5
DC
100
AcDbEntity
  8
LAY-1
  6
CONTINUOUS
 62
     2
100
AcDbLine
 10
1745.6
 20
572.557766
 30
0.0
 11
1765.6
 21
572.557766
 31
0.0
  0
LINE
  5
DD
100
AcDbEntity
  8
LAY-1
  6
CONTINUOUS
 62
     2
100
AcDbLine
 10
1770.6
 20
577.557766
 30
0.0
 11
1770.6
 21
582.557766
 31
0.0
  0
LINE
  5
DE
100
AcDbEntity
  8
LAY-1
  6
CONTINUOUS
 62
     2
100
AcDbLine
 10
1740.6
 20
577.557766
 30
0.0
 11
1770.6
 21
577.557766
 31
0.0
  0
LINE
  5
DF
100
AcDbEntity
  8
LAY-1
  6
CONTINUOUS
 62
     2
100
AcDbLine
 10
1740.6
 20
582.557766
 30
0.0
 11
1740.6
 21
577.557766
 31
0.0
  0
ARC
  5
E0
100
AcDbEntity
  8
LAY-1
  6
CONTINUOUS
 62
     2
100
AcDbCircle
 10
1749.6
 20
554.557766
 30
0.0
 40
2.0
100
AcDbArc
 50
180.0
 51
270.0
  0
ARC
  5
E1
100
AcDbEntity
  8
LAY-1
  6
CONTINUOUS
 62
     2
100
AcDbCircle
 10
1808.6
 20
554.557766
 30
0.0
 40
2.0
100
AcDbArc
 50
270.0
 51
0.0
  0
LINE
  5
E2
100
AcDbEntity
  8
LAY-1
  6
CONTINUOUS
 62
     2
100
AcDbLine
 10
1749.6
 20
552.557766
 30
0.0
 11
1808.6
 21
552.557766
 31
0.0
  0
LINE
  5
E3
100
AcDbEntity
  8
LAY-1
  6
CONTINUOUS
 62
     2
100
AcDbLine
 10
1747.6
 20
560.557766
 30
0.0
 11
1747.6
 21
554.557766
 31
0.0
  0
LINE
  5
E4
100
AcDbEntity
  8
LAY-1
  6
CONTINUOUS
 62
     2
100
AcDbLine
 10
1808.6
 20
560.557766
 30
0.0
 11
1747.6
 21
560.557766
 31
0.0
  0
LINE
  5
E5
100
AcDbEntity
  8
LAY-1
  6
CONTINUOUS
 62
     2
100
AcDbLine
 10
1810.6
 20
554.557766
 30
0.0
 11
1810.6
 21
558.557766
 31
0.0
  0
ARC
  5
E6
100
AcDbEntity
  8
LAY-1
  6
CONTINUOUS
 62
     2
100
AcDbCircle
 10
1808.6
 20
558.557766
 30
0.0
 40
2.0
100
AcDbArc
 50
0.0
 51
90.0
  0
LINE
  5
E7
100
AcDbEntity
  8
LAY-1
  6
CONTINUOUS
 62
     2
100
AcDbLine
 10
1574.266401
 20
602.557766
 30
0.0
 11
1955.6
 21
602.557766
 31
0.0
  0
LINE
  5
E8
100
AcDbEntity
  8
LAY-1
  6
CONTINUOUS
 62
     2
100
AcDbLine
 10
1577.034723
 20
552.557766
 30
0.0
 11
1555.6
 21
797.557766
 31
0.0
  0
LINE
  5
E9
100
AcDbEntity
  8
LAY-1
  6
CONTINUOUS
 62
     2
100
AcDbLine
 10
1578.640834
 20
552.557766
 30
0.0
 11
1574.266401
 21
602.557766
 31
0.0
  0
LINE
  5
EA
100
AcDbEntity
  8
LAY-1
  6
CONTINUOUS
 62
     2
100
AcDbLine
 10
1577.034723
 20
552.557766
 30
0.0
 11
1578.640834
 21
552.557766
 31
0.0
  0
LINE
  5
EB
100
AcDbEntity
  8
LAY-1
  6
CONTINUOUS
 62
     2
100
AcDbLine
 10
1955.6
 20
797.557766
 30
0.0
 11
1555.6
 21
797.557766
 31
0.0
  0
LINE
  5
EC
100
AcDbEntity
  8
LAY-1
  6
CONTINUOUS
 62
     2
100
AcDbLine
 10
1955.6
 20
940.657766
 30
0.0
 11
1954.0
 21
940.657766
 31
0.0
  0
LINE
  5
ED
100
AcDbEntity
  8
LAY-1
  6
EXLTYPE4
 62
     1
100
AcDbLine
 10
303.6
 20
662.557766
 30
0.0
 11
303.6
 21
772.557766
 31
0.0
  0
LINE
  5
EE
100
AcDbEntity
  8
LAY-1
  6
EXLTYPE4
 62
     1
100
AcDbLine
 10
303.6
 20
662.557766
 30
0.0
 11
303.6
 21
772.557766
 31
0.0
  0
LINE
  5
EF
100
AcDbEntity
  8
LAY-1
  6
EXLTYPE4
 62
     1
100
AcDbLine
 10
303.6
 20
662.557766
 30
0.0
 11
303.6
 21
772.557766
 31
0.0
  0
LINE
  5
F0
100
AcDbEntity
  8
LAY-1
  6
EXLTYPE4
 62
     1
100
AcDbLine
 10
303.6
 20
662.557766
 30
0.0
 11
303.6
 21
772.557766
 31
0.0
  0
LINE
  5
F1
100
AcDbEntity
  8
LAY-1
  6
EXLTYPE3
 62
     1
100
AcDbLine
 10
292.2
 20
746.557766
 30
0.0
 11
339.0
 21
746.557766
 31
0.0
  0
LINE
  5
F2
100
AcDbEntity
  8
LAY-1
  6
EXLTYPE3
 62
     1
100
AcDbLine
 10
295.9
 20
688.557766
 30
0.0
 11
339.0
 21
688.557766
 31
0.0
  0
LINE
  5
F3
100
AcDbEntity
  8
LAY-1
  6
EXLTYPE3
 62
     1
100
AcDbLine
 10
326.6
 20
763.857766
 30
0.0
 11
326.6
 21
671.557766
 31
0.0
  0
LINE
  5
F4
100
AcDbEntity
  8
LAY-1
  6
CONTINUOUS
 62
     2
100
AcDbLine
 10
303.6
 20
797.557766
 30
0.0
 11
703.6
 21
797.557766
 31
0.0
  0
LINE
  5
F5
100
AcDbEntity
  8
LAY-1
  6
CONTINUOUS
 62
     2
100
AcDbLine
 10
326.6
 20
736.557766
 30
0.0
 11
303.6
 21
736.557766
 31
0.0
  0
LINE
  5
F6
100
AcDbEntity
  8
LAY-1
  6
CONTINUOUS
 62
     2
100
AcDbLine
 10
326.6
 20
756.557766
 30
0.0
 11
303.6
 21
756.557766
 31
0.0
  0
LINE
  5
F7
100
AcDbEntity
  8
LAY-1
  6
CONTINUOUS
 62
     2
100
AcDbLine
 10
305.2
 20
756.557766
 30
0.0
 11
305.2
 21
797.557766
 31
0.0
  0
ARC
  5
F8
100
AcDbEntity
  8
LAY-1
  6
CONTINUOUS
 62
     2
100
AcDbCircle
 10
326.6
 20
746.557766
 30
0.0
 40
10.0
100
AcDbArc
 50
270.0
 51
90.0
  0
ARC
  5
F9
100
AcDbEntity
  8
LAY-1
  6
CONTINUOUS
 62
     2
100
AcDbCircle
 10
326.6
 20
688.557766
 30
0.0
 40
10.0
100
AcDbArc
 50
270.0
 51
90.0
  0
LINE
  5
FA
100
AcDbEntity
  8
LAY-1
  6
CONTINUOUS
 62
     2
100
AcDbLine
 10
326.6
 20
678.557766
 30
0.0
 11
303.6
 21
678.557766
 31
0.0
  0
LINE
  5
FB
100
AcDbEntity
  8
LAY-1
  6
CONTINUOUS
 62
     2
100
AcDbLine
 10
326.6
 20
698.557766
 30
0.0
 11
303.6
 21
698.557766
 31
0.0
  0
LINE
  5
FC
100
AcDbEntity
  8
LAY-1
  6
CONTINUOUS
 62
     2
100
AcDbLine
 10
663.6
 20
582.557766
 30
0.0
 11
663.6
 21
602.557766
 31
0.0
  0
LINE
  5
FD
100
AcDbEntity
  8
LAY-1
  6
CONTINUOUS
 62
     2
100
AcDbLine
 10
323.6
 20
602.557766
 30
0.0
 11
323.6
 21
582.557766
 31
0.0
  0
LINE
  5
FE
100
AcDbEntity
  8
LAY-1
  6
CONTINUOUS
 62
     2
100
AcDbLine
 10
663.6
 20
582.557766
 30
0.0
 11
323.6
 21
582.557766
 31
0.0
  0
LINE
  5
FF
100
AcDbEntity
  8
LAY-1
  6
CONTINUOUS
 62
     2
100
AcDbLine
 10
465.6
 20
600.957766
 30
0.0
 11
441.6
 21
600.957766
 31
0.0
  0
ARC
  5
100
100
AcDbEntity
  8
LAY-1
  6
CONTINUOUS
 62
     2
100
AcDbCircle
 10
492.5
 20
566.557766
 30
0.0
 40
6.1
100
AcDbArc
 50
280.388858
 51
79.611142
  0
ARC
  5
101
100
AcDbEntity
  8
LAY-1
  6
CONTINUOUS
 62
     2
100
AcDbCircle
 10
515.249372
 20
566.116204
 30
0.0
 40
6.649372
100
AcDbArc
 50
104.36211
 51
236.713246
  0
LINE
  5
102
100
AcDbEntity
  8
LAY-1
  6
CONTINUOUS
 62
     2
100
AcDbLine
 10
513.6
 20
572.557766
 30
0.0
 11
518.6
 21
577.557766
 31
0.0
  0
LINE
  5
103
100
AcDbEntity
  8
LAY-1
  6
CONTINUOUS
 62
     2
100
AcDbLine
 10
488.6
 20
577.557766
 30
0.0
 11
493.6
 21
572.557766
 31
0.0
  0
LINE
  5
104
100
AcDbEntity
  8
LAY-1
  6
CONTINUOUS
 62
     2
100
AcDbLine
 10
513.6
 20
572.557766
 30
0.0
 11
493.6
 21
572.557766
 31
0.0
  0
LINE
  5
105
100
AcDbEntity
  8
LAY-1
  6
CONTINUOUS
 62
     2
100
AcDbLine
 10
488.6
 20
577.557766
 30
0.0
 11
488.6
 21
582.557766
 31
0.0
  0
LINE
  5
106
100
AcDbEntity
  8
LAY-1
  6
CONTINUOUS
 62
     2
100
AcDbLine
 10
518.6
 20
577.557766
 30
0.0
 11
488.6
 21
577.557766
 31
0.0
  0
LINE
  5
107
100
AcDbEntity
  8
LAY-1
  6
CONTINUOUS
 62
     2
100
AcDbLine
 10
518.6
 20
582.557766
 30
0.0
 11
518.6
 21
577.557766
 31
0.0
  0
ARC
  5
108
100
AcDbEntity
  8
LAY-1
  6
CONTINUOUS
 62
     2
100
AcDbCircle
 10
509.6
 20
554.557766
 30
0.0
 40
2.0
100
AcDbArc
 50
270.0
 51
0.0
  0
ARC
  5
109
100
AcDbEntity
  8
LAY-1
  6
CONTINUOUS
 62
     2
100
AcDbCircle
 10
450.6
 20
554.557766
 30
0.0
 40
2.0
100
AcDbArc
 50
180.0
 51
270.0
  0
LINE
  5
10A
100
AcDbEntity
  8
LAY-1
  6
CONTINUOUS
 62
     2
100
AcDbLine
 10
509.6
 20
552.557766
 30
0.0
 11
450.6
 21
552.557766
 31
0.0
  0
LINE
  5
10B
100
AcDbEntity
  8
LAY-1
  6
CONTINUOUS
 62
     2
100
AcDbLine
 10
511.6
 20
560.557766
 30
0.0
 11
511.6
 21
554.557766
 31
0.0
  0
LINE
  5
10C
100
AcDbEntity
  8
LAY-1
  6
CONTINUOUS
 62
     2
100
AcDbLine
 10
450.6
 20
560.557766
 30
0.0
 11
511.6
 21
560.557766
 31
0.0
  0
LINE
  5
10D
100
AcDbEntity
  8
LAY-1
  6
CONTINUOUS
 62
     2
100
AcDbLine
 10
448.6
 20
554.557766
 30
0.0
 11
448.6
 21
558.557766
 31
0.0
  0
ARC
  5
10E
100
AcDbEntity
  8
LAY-1
  6
CONTINUOUS
 62
     2
100
AcDbCircle
 10
450.6
 20
558.557766
 30
0.0
 40
2.0
100
AcDbArc
 50
90.0
 51
180.0
  0
LINE
  5
10F
100
AcDbEntity
  8
LAY-1
  6
CONTINUOUS
 62
     2
100
AcDbLine
 10
303.6
 20
602.557766
 30
0.0
 11
303.6
 21
797.557766
 31
0.0
  0
LINE
  5
110
100
AcDbEntity
  8
LAY-1
  6
CONTINUOUS
 62
     2
100
AcDbLine
 10
305.2
 20
602.557766
 30
0.0
 11
305.2
 21
678.557766
 31
0.0
  0
LINE
  5
111
100
AcDbEntity
  8
LAY-1
  6
CONTINUOUS
 62
     2
100
AcDbLine
 10
441.6
 20
604.157766
 30
0.0
 11
465.6
 21
604.157766
 31
0.0
  0
LINE
  5
112
100
AcDbEntity
  8
LAY-1
  6
CONTINUOUS
 62
     2
100
AcDbLine
 10
441.6
 20
604.157766
 30
0.0
 11
441.6
 21
600.957766
 31
0.0
  0
LINE
  5
113
100
AcDbEntity
  8
LAY-1
  6
CONTINUOUS
 62
     2
100
AcDbLine
 10
465.6
 20
604.157766
 30
0.0
 11
465.6
 21
600.957766
 31
0.0
  0
LINE
  5
114
100
AcDbEntity
  8
LAY-1
  6
CONTINUOUS
 62
     2
100
AcDbLine
 10
680.559166
 20
552.557766
 30
0.0
 11
684.933599
 21
602.557766
 31
0.0
  0
LINE
  5
115
100
AcDbEntity
  8
LAY-1
  6
CONTINUOUS
 62
     2
100
AcDbLine
 10
682.165277
 20
552.557766
 30
0.0
 11
680.559166
 21
552.557766
 31
0.0
  0
LINE
  5
116
100
AcDbEntity
  8
LAY-1
  6
CONTINUOUS
 62
     2
100
AcDbLine
 10
684.933599
 20
602.557766
 30
0.0
 11
303.6
 21
602.557766
 31
0.0
  0
LINE
  5
117
100
AcDbEntity
  8
LAY-1
  6
CONTINUOUS
 62
     2
100
AcDbLine
 10
682.153077
 20
552.418316
 30
0.0
 11
703.6
 21
797.557766
 31
0.0
  0
LINE
  5
118
100
AcDbEntity
  8
LAY-1
  6
EXLTYPE3
 62
     1
100
AcDbLine
 10
1002.2
 20
1230.278883
 30
0.0
 11
1002.2
 21
1190.078883
 31
0.0
  0
LINE
  5
119
100
AcDbEntity
  8
LAY-1
  6
EXLTYPE3
 62
     1
100
AcDbLine
 10
987.0
 20
1214.278883
 30
0.0
 11
1020.6
 21
1214.278883
 31
0.0
  0
LINE
  5
11A
100
AcDbEntity
  8
LAY-1
  6
CONTINUOUS
 62
     2
100
AcDbLine
 10
1333.0
 20
1364.278883
 30
0.0
 11
1373.0
 21
1364.278883
 31
0.0
  0
LINE
  5
11B
100
AcDbEntity
  8
LAY-1
  6
CONTINUOUS
 62
     2
100
AcDbLine
 10
1013.0
 20
964.278883
 30
0.0
 11
1337.2
 21
964.278883
 31
0.0
  0
LINE
  5
11C
100
AcDbEntity
  8
LAY-1
  6
CONTINUOUS
 62
     2
100
AcDbLine
 10
1377.2
 20
1362.678883
 30
0.0
 11
1337.2
 21
1362.678883
 31
0.0
  0
LINE
  5
11D
100
AcDbEntity
  8
LAY-1
  6
CONTINUOUS
 62
     2
100
AcDbLine
 10
972.2
 20
1362.678883
 30
0.0
 11
1012.2
 21
1362.678883
 31
0.0
  0
LINE
  5
11E
100
AcDbEntity
  8
LAY-1
  6
CONTINUOUS
 62
     2
100
AcDbLine
 10
972.2
 20
1364.278883
 30
0.0
 11
972.2
 21
1362.678883
 31
0.0
  0
CIRCLE
  5
11F
100
AcDbEntity
  8
LAY-1
  6
CONTINUOUS
 62
     2
100
AcDbCircle
 10
1002.2
 20
1214.278883
 30
0.0
 40
6.0
  0
LINE
  5
120
100
AcDbEntity
  8
LAY-1
  6
CONTINUOUS
 62
     2
100
AcDbLine
 10
1377.2
 20
1364.278883
 30
0.0
 11
972.2
 21
1364.278883
 31
0.0
  0
LINE
  5
121
100
AcDbEntity
  8
LAY-1
  6
CONTINUOUS
 62
     2
100
AcDbLine
 10
1012.2
 20
1364.278883
 30
0.0
 11
1012.2
 21
964.278883
 31
0.0
  0
LINE
  5
122
100
AcDbEntity
  8
LAY-1
  6
CONTINUOUS
 62
     2
100
AcDbLine
 10
1337.2
 20
1364.278883
 30
0.0
 11
1337.2
 21
964.278883
 31
0.0
  0
LINE
  5
123
100
AcDbEntity
  8
LAY-1
  6
CONTINUOUS
 62
     2
100
AcDbLine
 10
1012.2
 20
1202.278883
 30
0.0
 11
997.2
 21
1202.278883
 31
0.0
  0
ARC
  5
124
100
AcDbEntity
  8
LAY-1
  6
CONTINUOUS
 62
     2
100
AcDbCircle
 10
997.2
 20
1207.278883
 30
0.0
 40
5.0
100
AcDbArc
 50
180.0
 51
270.0
  0
LINE
  5
125
100
AcDbEntity
  8
LAY-1
  6
CONTINUOUS
 62
     2
100
AcDbLine
 10
997.2
 20
1226.278883
 30
0.0
 11
1012.2
 21
1226.278883
 31
0.0
  0
LINE
  5
126
100
AcDbEntity
  8
LAY-1
  6
CONTINUOUS
 62
     2
100
AcDbLine
 10
992.2
 20
1221.278883
 30
0.0
 11
992.2
 21
1207.278883
 31
0.0
  0
ARC
  5
127
100
AcDbEntity
  8
LAY-1
  6
CONTINUOUS
 62
     2
100
AcDbCircle
 10
997.2
 20
1221.278883
 30
0.0
 40
5.0
100
AcDbArc
 50
90.0
 51
180.0
  0
TEXT
  5
128
100
AcDbEntity
  8
LAY-1
  6
CONTINUOUS
 62
     3
100
AcDbText
 10
1137.2
 20
-55.0
 30
0.0
 40
25.0
  1
３６５
 41
0.84
  7
EXCADSTD
 72
     5
 11
1212.2
 21
-55.0
 31
0.0
100
AcDbText
  0
LINE
  5
129
100
AcDbEntity
  8
LAY-1
  6
CONTINUOUS
 62
     1
100
AcDbLine
 10
1357.2
 20
80.000026
 30
0.0
 11
1357.2
 21
-56.5
 31
0.0
  0
LINE
  5
12A
100
AcDbEntity
  8
LAY-1
  6
CONTINUOUS
 62
     1
100
AcDbLine
 10
992.2
 20
80.000026
 30
0.0
 11
992.2
 21
-56.5
 31
0.0
  0
LINE
  5
12B
100
AcDbEntity
  8
LAY-1
  6
CONTINUOUS
 62
     1
100
AcDbLine
 10
1357.2
 20
-56.0
 30
0.0
 11
992.2
 21
-56.0
 31
0.0
  0
LINE
  5
12C
100
AcDbEntity
  8
LAY-1
  6
CONTINUOUS
 62
     1
100
AcDbLine
 10
1355.2
 20
-56.333333
 30
0.0
 11
1357.2
 21
-56.0
 31
0.0
  0
LINE
  5
12D
100
AcDbEntity
  8
LAY-1
  6
CONTINUOUS
 62
     1
100
AcDbLine
 10
1357.2
 20
-56.0
 30
0.0
 11
1355.2
 21
-55.666667
 31
0.0
  0
LINE
  5
12E
100
AcDbEntity
  8
LAY-1
  6
CONTINUOUS
 62
     1
100
AcDbLine
 10
994.2
 20
-55.666667
 30
0.0
 11
992.2
 21
-56.0
 31
0.0
  0
LINE
  5
12F
100
AcDbEntity
  8
LAY-1
  6
CONTINUOUS
 62
     1
100
AcDbLine
 10
992.2
 20
-56.0
 30
0.0
 11
994.2
 21
-56.333333
 31
0.0
  0
TEXT
  5
130
100
AcDbEntity
  8
LAY-1
  6
CONTINUOUS
 62
     3
100
AcDbText
 10
950.0
 20
212.757766
 30
0.0
 40
25.0
  1
４００
 50
90.0
 41
0.84
  7
EXCADSTD
 72
     5
 11
950.0
 21
287.757766
 31
0.0
100
AcDbText
  0
LINE
  5
131
100
AcDbEntity
  8
LAY-1
  6
CONTINUOUS
 62
     1
100
AcDbLine
 10
1012.2
 20
450.257766
 30
0.0
 11
950.5
 21
450.257766
 31
0.0
  0
LINE
  5
132
100
AcDbEntity
  8
LAY-1
  6
CONTINUOUS
 62
     1
100
AcDbLine
 10
972.2
 20
50.257766
 30
0.0
 11
950.5
 21
50.257766
 31
0.0
  0
LINE
  5
133
100
AcDbEntity
  8
LAY-1
  6
CONTINUOUS
 62
     1
100
AcDbLine
 10
951.0
 20
450.257766
 30
0.0
 11
951.0
 21
50.257766
 31
0.0
  0
LINE
  5
134
100
AcDbEntity
  8
LAY-1
  6
CONTINUOUS
 62
     1
100
AcDbLine
 10
951.333333
 20
448.257766
 30
0.0
 11
951.0
 21
450.257766
 31
0.0
  0
LINE
  5
135
100
AcDbEntity
  8
LAY-1
  6
CONTINUOUS
 62
     1
100
AcDbLine
 10
951.0
 20
450.257766
 30
0.0
 11
950.666667
 21
448.257766
 31
0.0
  0
LINE
  5
136
100
AcDbEntity
  8
LAY-1
  6
CONTINUOUS
 62
     1
100
AcDbLine
 10
950.666667
 20
52.257766
 30
0.0
 11
951.0
 21
50.257766
 31
0.0
  0
LINE
  5
137
100
AcDbEntity
  8
LAY-1
  6
CONTINUOUS
 62
     1
100
AcDbLine
 10
951.0
 20
50.257766
 30
0.0
 11
951.333333
 21
52.257766
 31
0.0
  0
TEXT
  5
138
100
AcDbEntity
  8
LAY-1
  6
CONTINUOUS
 62
     3
100
AcDbText
 10
1547.44
 20
305.96
 30
0.0
 40
20.0
  1
型式
 41
0.984714
  7
EXCADSTD
 72
     5
 11
1590.420406
 21
305.96
 31
0.0
100
AcDbText
  0
TEXT
  5
139
100
AcDbEntity
  8
LAY-1
  6
CONTINUOUS
 62
     3
100
AcDbText
 10
1546.96
 20
277.8
 30
0.0
 40
20.0
  1
品名
 41
0.984714
  7
EXCADSTD
 72
     5
 11
1589.940406
 21
277.8
 31
0.0
100
AcDbText
  0
LINE
  5
13A
100
AcDbEntity
  8
LAY-1
  6
CONTINUOUS
 62
     4
100
AcDbLine
 10
1538.0
 20
249.4
 30
0.0
 11
1896.4
 21
249.4
 31
0.0
  0
LINE
  5
13B
100
AcDbEntity
  8
LAY-1
  6
CONTINUOUS
 62
     1
100
AcDbLine
 10
1538.0
 20
273.8
 30
0.0
 11
1896.4
 21
273.8
 31
0.0
  0
TEXT
  5
13C
100
AcDbEntity
  8
LAY-1
  6
CONTINUOUS
 62
     3
100
AcDbText
 10
1665.36
 20
252.04
 30
0.0
 40
20.0
  1
外観図
 41
1.47392
  7
EXCADSTD
 72
     5
 11
1770.639999
 21
252.04
 31
0.0
100
AcDbText
  0
LINE
  5
13D
100
AcDbEntity
  8
LAY-1
  6
CONTINUOUS
 62
     4
100
AcDbLine
 10
1538.0
 20
357.8
 30
0.0
 11
1896.4
 21
357.8
 31
0.0
  0
LINE
  5
13E
100
AcDbEntity
  8
LAY-1
  6
CONTINUOUS
 62
     1
100
AcDbLine
 10
1538.0
 20
301.8
 30
0.0
 11
1896.4
 21
301.8
 31
0.0
  0
LINE
  5
13F
100
AcDbEntity
  8
LAY-1
  6
CONTINUOUS
 62
     1
100
AcDbLine
 10
1538.0
 20
329.8
 30
0.0
 11
1896.4
 21
329.8
 31
0.0
  0
LINE
  5
140
100
AcDbEntity
  8
LAY-1
  6
CONTINUOUS
 62
     1
100
AcDbLine
 10
1598.0
 20
357.8
 30
0.0
 11
1598.0
 21
273.8
 31
0.0
  0
LINE
  5
141
100
AcDbEntity
  8
LAY-1
  6
CONTINUOUS
 62
     4
100
AcDbLine
 10
1538.0
 20
225.0
 30
0.0
 11
1896.4
 21
225.0
 31
0.0
  0
LINE
  5
142
100
AcDbEntity
  8
LAY-1
  6
CONTINUOUS
 62
     4
100
AcDbLine
 10
1896.4
 20
225.0
 30
0.0
 11
1896.4
 21
357.8
 31
0.0
  0
LINE
  5
143
100
AcDbEntity
  8
LAY-1
  6
CONTINUOUS
 62
     4
100
AcDbLine
 10
1538.0
 20
225.0
 30
0.0
 11
1538.0
 21
357.8
 31
0.0
  0
TEXT
  5
144
100
AcDbEntity
  8
LAY-1
  6
CONTINUOUS
 62
     3
100
AcDbText
 10
1540.56
 20
333.32
 30
0.0
 40
20.0
  1
作成日
 41
0.84
  7
EXCADSTD
 72
     5
 11
1600.56
 21
333.32
 31
0.0
100
AcDbText
  0
HATCH
  5
145
100
AcDbEntity
  8
LAY-1
  6
CONTINUOUS
 62
     3
100
AcDbHatch
 10
0.0
 20
0.0
 30
0.0
210
0.0
220
0.0
230
1.0
  2
SOLID
 70
     1
 71
     1
 91
        1
 92
        1
 93
       16
 72
     1
 10
1790.2598993612442
 20
231.09585714285663
 11
1794.0463279326727
 21
231.09585714285663
 72
     1
 10
1794.0463279326727
 20
231.09585714285663
 11
1794.0463279326727
 21
228.65299999999948
 72
     1
 10
1794.0463279326727
 20
228.65299999999948
 11
1783.9084707898155
 21
228.65299999999948
 72
     1
 10
1783.9084707898155
 20
228.65299999999948
 11
1783.9084707898155
 21
231.09585714285663
 72
     1
 10
1783.9084707898155
 20
231.09585714285663
 11
1787.8170422183871
 21
231.09585714285663
 72
     1
 10
1787.8170422183871
 20
231.09585714285663
 11
1787.8170422183871
 21
238.18014285714239
 72
     1
 10
1787.8170422183871
 20
238.18014285714239
 11
1784.7634707898155
 21
238.18014285714239
 72
     1
 10
1784.7634707898155
 20
238.18014285714239
 11
1784.7634707898155
 21
240.62299999999954
 72
     1
 10
1784.7634707898155
 20
240.62299999999954
 11
1787.8170422183871
 21
240.62299999999954
 72
     1
 10
1787.8170422183871
 20
240.62299999999954
 11
1787.8170422183871
 21
245.75299999999953
 72
     1
 10
1787.8170422183871
 20
245.75299999999953
 11
1790.2598993612442
 21
245.75299999999953
 72
     1
 10
1790.2598993612442
 20
245.75299999999953
 11
1790.2598993612442
 21
240.62299999999954
 72
     1
 10
1790.2598993612442
 20
240.62299999999954
 11
1793.8020422183872
 21
240.62299999999954
 72
     1
 10
1793.8020422183872
 20
240.62299999999954
 11
1793.8020422183872
 21
238.18014285714239
 72
     1
 10
1793.8020422183872
 20
238.18014285714239
 11
1790.2598993612442
 21
238.18014285714239
 72
     1
 10
1790.2598993612442
 20
238.18014285714239
 11
1790.2598993612442
 21
231.09585714285663
 97
        0
 75
     0
 76
     1
 98
        1
 10
0.0
 20
0.0
  0
HATCH
  5
146
100
AcDbEntity
  8
LAY-1
  6
CONTINUOUS
 62
     3
100
AcDbHatch
 10
0.0
 20
0.0
 30
0.0
210
0.0
220
0.0
230
1.0
  2
SOLID
 70
     1
 71
     1
 91
        1
 92
        1
 93
       17
 72
     2
 10
1764.595301383868
 20
250.49412679235957
 40
21.985714285714362
 50
44.165469
 51
51.472792
 73
     0
 72
     1
 10
1778.2898993612441
 20
233.29442857142817
 11
1777.0530772454983
 21
235.43666731582431
 72
     2
 10
1764.595301383868
 20
250.49412679235957
 40
19.542857142857208
 50
309.602625
 51
331.307968
 73
     1
 72
     1
 10
1781.7385484552826
 20
241.11157142857098
 11
1777.6791850755299
 21
241.11157142857098
 72
     1
 10
1777.6791850755299
 20
241.11157142857098
 11
1777.6791850755299
 21
243.31014285714235
 72
     1
 10
1777.6791850755299
 20
243.31014285714235
 11
1780.3663279326727
 21
243.31014285714235
 72
     1
 10
1780.3663279326727
 20
243.31014285714235
 11
1780.3663279326727
 21
245.75299999999953
 72
     1
 10
1780.3663279326727
 20
245.75299999999953
 11
1782.5648993612442
 21
245.75299999999953
 72
     1
 10
1782.5648993612442
 20
245.75299999999953
 11
1782.5648993612442
 21
243.31014285714235
 72
     1
 10
1782.5648993612442
 20
243.31014285714235
 11
1785.3741850755298
 21
243.31014285714235
 72
     2
 10
1764.595301383868
 20
250.49412679235957
 40
21.985714285714362
 50
19.072051
 51
32.871988
 73
     0
 72
     1
 10
1783.0607801007031
 20
238.5610748603865
 11
1785.9848993612441
 21
235.73728571428524
 72
     1
 10
1785.9848993612441
 20
235.73728571428524
 11
1784.2572753845602
 21
234.00966173760128
 72
     1
 10
1784.2572753845602
 20
234.00966173760128
 11
1782.5648993612442
 21
235.64397026607023
 72
     1
 10
1782.5648993612442
 20
235.64397026607023
 11
1782.5648993612442
 21
228.65299999999948
 72
     1
 10
1782.5648993612442
 20
228.65299999999948
 11
1780.3663279326727
 21
228.65299999999948
 72
     1
 10
1780.3663279326727
 20
228.65299999999948
 11
1780.3663279326727
 21
235.17595607095944
 97
        0
 75
     0
 76
     1
 98
        1
 10
0.0
 20
0.0
  0
HATCH
  5
147
100
AcDbEntity
  8
LAY-1
  6
CONTINUOUS
 62
     3
100
AcDbHatch
 10
0.0
 20
0.0
 30
0.0
210
0.0
220
0.0
230
1.0
  2
SOLID
 70
     1
 71
     1
 91
        1
 92
        1
 93
       12
 72
     2
 10
1795.4904066385329
 20
217.52171127987697
 40
34.444285714285826
 50
150.903074
 51
156.790773
 73
     1
 72
     1
 10
1763.8336319693108
 20
231.09585714285646
 11
1771.3546247320739
 21
231.09585714285674
 72
     2
 10
1749.9904049675129
 20
224.9523228301382
 40
22.230000000000075
 50
16.043216
 51
21.362935
 73
     1
 72
     1
 10
1770.6930185901997
 20
233.05014285714236
 11
1773.037756504101
 21
233.05014285714236
 72
     2
 10
1749.9904049675129
 20
224.9523228301382
 40
24.428571428571512
 50
340.64078
 51
351.286733
 73
     0
 72
     1
 10
1774.1370422183868
 20
228.65299999999948
 11
1760.5791850755295
 21
228.65299999999948
 72
     2
 10
1795.4904066385329
 20
217.52171127987697
 40
36.64285714285726
 50
197.684652
 51
207.200855
 73
     0
 72
     1
 10
1762.8998993612438
 20
234.27157142857098
 11
1759.4798993612442
 21
234.27157142857098
 72
     1
 10
1759.4798993612442
 20
234.27157142857098
 11
1759.4798993612442
 21
236.71442857142813
 72
     1
 10
1759.4798993612442
 20
236.71442857142813
 11
1775.11418507553
 21
236.71442857142813
 72
     1
 10
1775.11418507553
 20
236.71442857142813
 11
1775.11418507553
 21
234.27157142857098
 72
     1
 10
1775.11418507553
 20
234.27157142857098
 11
1765.3930478945081
 21
234.27157142857098
 97
        0
 75
     0
 76
     1
 98
        1
 10
0.0
 20
0.0
  0
HATCH
  5
148
100
AcDbEntity
  8
LAY-1
  6
CONTINUOUS
 62
     3
100
AcDbHatch
 10
0.0
 20
0.0
 30
0.0
210
0.0
220
0.0
230
1.0
  2
SOLID
 70
     1
 71
     1
 91
        1
 92
        1
 93
       10
 72
     2
 10
1795.6369176962355
 20
270.39623065215926
 40
39.085714285714417
 50
129.545698
 51
136.474664
 73
     0
 72
     1
 10
1767.2970422183878
 20
243.47886601286768
 11
1767.2970422183878
 21
245.75299999999953
 72
     1
 10
1767.2970422183878
 20
245.75299999999953
 11
1768.5184707898159
 21
245.75299999999953
 72
     2
 10
1795.6369176962355
 20
270.39623065215926
 40
36.64285714285726
 50
222.262231
 51
237.763996
 73
     1
 72
     1
 10
1776.0913279326728
 20
239.401571428571
 11
1774.5074815306825
 21
237.51401678888163
 72
     2
 10
1795.6369176962355
 20
270.39623065215926
 40
39.085714285714417
 50
122.723968
 51
128.230009
 73
     0
 72
     1
 10
1771.4498993612442
 20
239.69311671745717
 11
1771.4498993612442
 21
237.81371428571379
 72
     1
 10
1771.4498993612442
 20
237.81371428571379
 11
1767.2970422183878
 21
237.81371428571379
 72
     1
 10
1767.2970422183878
 20
237.81371428571379
 11
1767.2970422183878
 21
240.25657142857096
 72
     1
 10
1767.2970422183878
 20
240.25657142857096
 11
1770.751299297038
 21
240.25657142857096
 97
        0
 75
     0
 76
     1
 98
        1
 10
0.0
 20
0.0
  0
HATCH
  5
149
100
AcDbEntity
  8
LAY-1
  6
CONTINUOUS
 62
     3
100
AcDbHatch
 10
0.0
 20
0.0
 30
0.0
210
0.0
220
0.0
230
1.0
  2
SOLID
 70
     1
 71
     1
 91
        1
 92
        1
 93
       10
 72
     2
 10
1738.9571667405387
 20
270.39623065215926
 40
39.085714285714417
 50
51.769991
 51
57.276032
 73
     0
 72
     1
 10
1760.0866029060915
 20
237.51401678888158
 11
1758.5027565041012
 21
239.40157142857095
 72
     2
 10
1738.9571667405387
 20
270.39623065215926
 40
36.64285714285726
 50
302.236004
 51
317.737769
 73
     1
 72
     1
 10
1766.0756136469583
 20
245.75299999999953
 11
1767.2970422183878
 21
245.75299999999953
 72
     1
 10
1767.2970422183878
 20
245.75299999999953
 11
1767.2970422183878
 21
243.47886601286913
 72
     2
 10
1738.9571667405387
 20
270.39623065215926
 40
39.085714285714417
 50
43.525336
 51
50.454302
 73
     0
 72
     1
 10
1763.842785139736
 20
240.25657142857096
 11
1767.2970422183878
 21
240.25657142857096
 72
     1
 10
1767.2970422183878
 20
240.25657142857096
 11
1767.2970422183878
 21
237.81371428571379
 72
     1
 10
1767.2970422183878
 20
237.81371428571379
 11
1763.14418507553
 21
237.81371428571379
 72
     1
 10
1763.14418507553
 20
237.81371428571379
 11
1763.14418507553
 21
239.69311671745714
 97
        0
 75
     0
 76
     1
 98
        1
 10
0.0
 20
0.0
  0
HATCH
  5
14A
100
AcDbEntity
  8
LAY-1
  6
CONTINUOUS
 62
     3
100
AcDbHatch
 10
0.0
 20
0.0
 30
0.0
210
0.0
220
0.0
230
1.0
  2
SOLID
 70
     1
 71
     1
 91
        1
 92
        1
 93
       18
 72
     2
 10
1720.9780232092066
 20
234.77502078970363
 40
34.200000000000109
 50
14.02954
 51
18.723021
 73
     1
 72
     1
 10
1753.3682064822035
 20
245.75299999999953
 11
1755.9377565041011
 21
245.75299999999953
 72
     2
 10
1720.9780232092066
 20
234.77502078970363
 40
36.64285714285726
 50
342.566782
 51
346.922981
 73
     0
 72
     1
 10
1756.6706136469584
 20
243.06585714285671
 11
1757.6477565041012
 21
243.06585714285671
 72
     1
 10
1757.6477565041012
 20
243.06585714285671
 11
1757.6477565041012
 21
240.62299999999951
 72
     1
 10
1757.6477565041012
 20
240.62299999999951
 11
1753.0807208484516
 21
240.62299999999954
 72
     2
 10
1778.4120422183869
 20
244.65371428571385
 40
25.650000000000087
 50
189.041096
 51
204.65198
 73
     1
 72
     2
 10
1760.2086709975376
 20
236.29957573209651
 40
5.6211619214424813
 50
204.65198
 51
242.897449
 73
     1
 72
     1
 10
1757.6477565041012
 20
231.29565943539626
 11
1757.6477565041012
 21
228.65299999999948
 72
     2
 10
1760.2086709975376
 20
236.29957573209651
 40
8.0640190642996306
 50
108.516212
 51
155.34802
 73
     0
 72
     2
 10
1778.4120422183869
 20
244.65371428571385
 40
28.09285714285723
 50
155.34802
 51
171.750831
 73
     0
 72
     1
 10
1750.6098486934879
 20
240.62299999999954
 11
1741.2806136469585
 21
240.62299999999951
 72
     1
 10
1741.2806136469585
 20
240.62299999999951
 11
1741.2806136469585
 21
243.06585714285671
 72
     1
 10
1741.2806136469585
 20
243.06585714285671
 11
1750.3575104278921
 21
243.06585714285671
 72
     1
 10
1750.3575104278921
 20
243.06585714285671
 11
1750.2636733315865
 21
245.75299999999953
 72
     1
 10
1750.2636733315865
 20
245.75299999999953
 11
1752.7080195040878
 21
245.75299999999953
 72
     1
 10
1752.7080195040878
 20
245.75299999999953
 11
1752.8018566003934
 21
243.06585714285671
 72
     1
 10
1752.8018566003934
 20
243.06585714285671
 11
1754.1578669786586
 21
243.06585714285671
 97
        0
 75
     0
 76
     1
 98
        1
 10
0.0
 20
0.0
  0
HATCH
  5
14B
100
AcDbEntity
  8
LAY-1
  6
CONTINUOUS
 62
     3
100
AcDbHatch
 10
0.0
 20
0.0
 30
0.0
210
0.0
220
0.0
230
1.0
  2
SOLID
 70
     1
 71
     1
 91
        1
 92
        1
 93
       12
 72
     2
 10
1733.591668736984
 20
351.28646287224547
 40
119.70000000000039
 50
276.500664
 51
278.269357
 73
     1
 72
     1
 10
1750.8077565041012
 20
232.83100152919451
 11
1750.8077565041012
 21
230.36299999999954
 72
     2
 10
1733.591668736984
 20
351.28646287224547
 40
122.14285714285755
 50
81.897153
 51
86.39082
 73
     0
 72
     1
 10
1741.2806136469585
 20
229.38585714285665
 11
1741.2806136469585
 21
231.83366832070936
 72
     2
 10
1733.591668736984
 20
351.28646287224547
 40
119.70000000000039
 50
273.682937
 51
275.325087
 73
     1
 72
     1
 10
1744.7006136469583
 20
232.10306913390929
 11
1744.7006136469583
 21
235.9815714285709
 72
     1
 10
1744.7006136469583
 20
235.9815714285709
 11
1741.2806136469585
 21
235.9815714285709
 72
     1
 10
1741.2806136469585
 20
235.9815714285709
 11
1741.2806136469585
 21
238.42442857142805
 72
     1
 10
1741.2806136469585
 20
238.42442857142805
 11
1750.0748993612442
 21
238.42442857142805
 72
     1
 10
1750.0748993612442
 20
238.42442857142805
 11
1750.0748993612442
 21
235.9815714285709
 72
     1
 10
1750.0748993612442
 20
235.9815714285709
 11
1747.1434707898156
 21
235.9815714285709
 72
     1
 10
1747.1434707898156
 20
235.9815714285709
 11
1747.1434707898154
 21
232.35606868673469
 97
        0
 75
     0
 76
     1
 98
        1
 10
0.0
 20
0.0
  0
HATCH
  5
14C
100
AcDbEntity
  8
LAY-1
  6
CONTINUOUS
 62
     3
100
AcDbHatch
 10
0.0
 20
0.0
 30
0.0
210
0.0
220
0.0
230
1.0
  2
SOLID
 70
     1
 71
     1
 91
        1
 92
        1
 93
       30
 72
     2
 10
1711.5126658145275
 20
249.65873911757689
 40
26.749285714285801
 50
37.940537
 51
46.713808
 73
     0
 72
     1
 10
1729.8531249341049
 20
230.18691728428144
 11
1728.2113279326725
 21
231.82871428571389
 72
     2
 10
1711.5126658145275
 20
249.65873911757689
 40
24.428571428571523
 50
313.123325
 51
325.95222
 73
     1
 72
     1
 10
1731.7534707898153
 20
235.98157142857099
 11
1728.822042218387
 21
235.98157142857099
 72
     1
 10
1728.822042218387
 20
235.98157142857099
 11
1728.822042218387
 21
238.42442857142811
 72
     1
 10
1728.822042218387
 20
238.42442857142811
 11
1732.6084707898156
 21
238.42442857142811
 72
     1
 10
1732.6084707898156
 20
238.42442857142811
 11
1732.6084707898156
 21
240.86728571428523
 72
     1
 10
1732.6084707898156
 20
240.86728571428523
 11
1731.3905136068736
 21
240.86728571428523
 72
     2
 10
1705.2695363552207
 20
246.03442071865095
 40
26.627142857142957
 50
11.189535
 51
14.746058
 73
     0
 72
     1
 10
1731.0196730753189
 20
239.2568698607852
 11
1728.9441850755295
 21
240.01228571428521
 72
     2
 10
1705.2695363552207
 20
246.03442071865095
 40
24.428571428571523
 50
345.728313
 51
357.620387
 73
     1
 72
     1
 10
1729.677042218387
 20
245.02014285714966
 11
1731.8598927052053
 21
244.63524742147104
 72
     2
 10
1705.2695363552207
 20
246.03442071865095
 40
26.627142857142957
 50
3.012102
 51
6.401006
 73
     0
 72
     1
 10
1731.7306846113183
 20
243.06585714285671
 11
1732.6084707898156
 21
243.06585714285671
 72
     1
 10
1732.6084707898156
 20
243.06585714285671
 11
1732.6084707898156
 21
245.75299999999953
 72
     1
 10
1732.6084707898156
 20
245.75299999999953
 11
1735.0513279326726
 21
245.75299999999953
 72
     1
 10
1735.0513279326726
 20
245.75299999999953
 11
1735.0513279326726
 21
243.06585714285671
 72
     1
 10
1735.0513279326726
 20
243.06585714285671
 11
1738.3491850755299
 21
243.06585714285671
 72
     1
 10
1738.3491850755299
 20
243.06585714285671
 11
1738.3491850755299
 21
240.86728571428523
 72
     1
 10
1738.3491850755299
 20
240.86728571428523
 11
1735.0513279326726
 21
240.86728571428523
 72
     1
 10
1735.0513279326726
 20
240.86728571428523
 11
1735.0513279326726
 21
238.42442857142811
 72
     1
 10
1735.0513279326726
 20
238.42442857142811
 11
1738.8377565041012
 21
238.42442857142811
 72
     1
 10
1738.8377565041012
 20
238.42442857142811
 11
1738.8377565041012
 21
235.98157142857099
 72
     1
 10
1738.8377565041012
 20
235.98157142857099
 11
1735.9063279326724
 21
235.98157142857099
 72
     2
 10
1756.1471329079602
 20
249.65873911757686
 40
24.428571428571523
 50
214.04778
 51
226.876675
 73
     1
 72
     1
 10
1739.448470789815
 20
231.82871428571389
 11
1737.8066737883826
 21
230.18691728428144
 72
     2
 10
1756.1471329079602
 20
249.65873911757686
 40
26.749285714285801
 50
133.286192
 51
142.059463
 73
     0
 72
     1
 10
1735.0513279326726
 20
233.21211944455206
 11
1735.0513279326726
 21
228.65299999999948
 72
     1
 10
1735.0513279326726
 20
228.65299999999948
 11
1732.6084707898156
 21
228.65299999999948
 72
     1
 10
1732.6084707898156
 20
228.65299999999948
 11
1732.6084707898156
 21
233.21211944455274
 97
        0
 75
     0
 76
     1
 98
        1
 10
0.0
 20
0.0
  0
HATCH
  5
14D
100
AcDbEntity
  8
LAY-1
  6
CONTINUOUS
 62
     3
100
AcDbHatch
 10
0.0
 20
0.0
 30
0.0
210
0.0
220
0.0
230
1.0
  2
SOLID
 70
     1
 71
     1
 91
        1
 92
        1
 93
       19
 72
     2
 10
1701.4565330906771
 20
246.39836919019078
 40
26.627142857142946
 50
27.683433
 51
32.280505
 73
     0
 72
     1
 10
1723.9682805872385
 20
232.17775171464621
 11
1722.2263279326726
 21
233.53871428571378
 72
     2
 10
1701.4565330906771
 20
246.39836919019078
 40
24.428571428571512
 50
328.236207
 51
344.845745
 73
     1
 72
     1
 10
1725.0356136469579
 20
240.01228571428524
 11
1722.8370422183868
 21
240.01228571428524
 72
     1
 10
1722.8370422183868
 20
240.01228571428524
 11
1722.8370422183868
 21
242.45514285714239
 72
     1
 10
1722.8370422183868
 20
242.45514285714239
 11
1725.0356136469584
 21
242.45514285714239
 72
     1
 10
1725.0356136469584
 20
242.45514285714239
 11
1725.0356136469584
 21
245.75299999999953
 72
     1
 10
1725.0356136469584
 20
245.75299999999953
 11
1727.4784707898154
 21
245.75299999999953
 72
     1
 10
1727.4784707898154
 20
245.75299999999953
 11
1727.4784707898154
 21
242.45514285714239
 72
     1
 10
1727.4784707898154
 20
242.45514285714239
 11
1728.5777565041012
 21
242.45514285714239
 72
     1
 10
1728.5777565041012
 20
242.45514285714239
 11
1728.5777565041012
 21
240.01228571428524
 72
     1
 10
1728.5777565041012
 20
240.01228571428524
 11
1727.4784707898154
 21
240.01228571428524
 72
     1
 10
1727.4784707898154
 20
240.01228571428524
 11
1728.822042218387
 21
238.093466856655
 72
     1
 10
1728.822042218387
 20
238.093466856655
 11
1728.822042218387
 21
236.60628729101231
 72
     1
 10
1728.822042218387
 20
236.60628729101231
 11
1728.0891850755297
 21
235.73290215815379
 72
     1
 10
1728.0891850755297
 20
235.73290215815379
 11
1727.4784707898154
 21
236.60509254798544
 72
     1
 10
1727.4784707898154
 20
236.60509254798544
 11
1727.4784707898154
 21
228.65299999999948
 72
     1
 10
1727.4784707898154
 20
228.65299999999948
 11
1725.0356136469584
 21
228.65299999999948
 72
     1
 10
1725.0356136469584
 20
228.65299999999948
 11
1725.0356136469584
 21
234.02777111026376
 97
        0
 75
     0
 76
     1
 98
        1
 10
0.0
 20
0.0
  0
HATCH
  5
14E
100
AcDbEntity
  8
LAY-1
  6
CONTINUOUS
 62
     3
100
AcDbHatch
 10
0.0
 20
0.0
 30
0.0
210
0.0
220
0.0
230
1.0
  2
SOLID
 70
     1
 71
     1
 91
        1
 92
        1
 93
        8
 72
     2
 10
1711.7167999452583
 20
235.83499999999916
 40
4.7880000000000384
 50
270.0
 51
330.0
 73
     1
 72
     2
 10
1709.347354440504
 20
237.20299999999918
 40
7.5240000000000364
 50
330.0
 51
30.0
 73
     1
 72
     2
 10
1711.7167999452583
 20
238.57099999999917
 40
4.7880000000000367
 50
30.0
 51
90.0
 73
     1
 72
     1
 10
1711.7167999452597
 20
243.35899999999921
 11
1711.7167999452597
 21
246.09499999999974
 72
     2
 10
1711.7167999452581
 20
238.57099999999974
 40
7.5240000000000231
 50
270.0
 51
330.0
 73
     0
 72
     2
 10
1709.3473544405044
 20
237.20299999999963
 40
10.260000000000046
 50
330.0
 51
30.0
 73
     0
 72
     2
 10
1711.7167999452586
 20
235.83499999999887
 40
7.5240000000000151
 50
30.0
 51
90.0
 73
     0
 72
     1
 10
1711.7167999452597
 20
228.31099999999884
 11
1711.7167999452597
 21
231.04699999999912
 97
        0
 75
     0
 76
     1
 98
        1
 10
0.0
 20
0.0
  0
HATCH
  5
14F
100
AcDbEntity
  8
LAY-1
  6
CONTINUOUS
 62
     3
100
AcDbHatch
 10
0.0
 20
0.0
 30
0.0
210
0.0
220
0.0
230
1.0
  2
SOLID
 70
     1
 71
     1
 91
        1
 92
        1
 93
        8
 72
     2
 10
1711.7167999452586
 20
235.83499999999887
 40
7.5240000000000151
 50
90.0
 51
150.0
 73
     0
 72
     2
 10
1714.0862454500123
 20
237.20299999999907
 40
10.260000000000057
 50
150.0
 51
210.0
 73
     0
 72
     2
 10
1711.7167999452581
 20
238.57099999999974
 40
7.5240000000000231
 50
210.0
 51
270.0
 73
     0
 72
     1
 10
1711.7167999452597
 20
246.09499999999974
 11
1711.7167999452597
 21
243.35899999999921
 72
     2
 10
1711.7167999452583
 20
238.57099999999917
 40
4.7880000000000367
 50
90.0
 51
150.0
 73
     1
 72
     2
 10
1714.0862454500127
 20
237.20299999999918
 40
7.5240000000000391
 50
150.0
 51
210.0
 73
     1
 72
     2
 10
1711.7167999452583
 20
235.83499999999916
 40
4.7880000000000384
 50
210.0
 51
270.0
 73
     1
 72
     1
 10
1711.7167999452597
 20
231.04699999999912
 11
1711.7167999452597
 21
228.31099999999884
 97
        0
 75
     0
 76
     1
 98
        1
 10
0.0
 20
0.0
  0
HATCH
  5
150
100
AcDbEntity
  8
LAY-1
  6
CONTINUOUS
 62
     3
100
AcDbHatch
 10
0.0
 20
0.0
 30
0.0
210
0.0
220
0.0
230
1.0
  2
SOLID
 70
     1
 71
     1
 91
        1
 92
        1
 93
        4
 72
     1
 10
1701.1147999452585
 20
234.12499999999915
 11
1698.3787999452584
 21
234.12499999999915
 72
     1
 10
1698.3787999452584
 20
234.12499999999915
 11
1698.3787999452584
 21
236.86099999999914
 72
     1
 10
1698.3787999452584
 20
236.86099999999914
 11
1701.1147999452585
 21
236.86099999999914
 72
     1
 10
1701.1147999452585
 20
236.86099999999914
 11
1701.1147999452585
 21
234.12499999999898
 97
        0
 75
     0
 76
     1
 98
        1
 10
0.0
 20
0.0
  0
HATCH
  5
151
100
AcDbEntity
  8
LAY-1
  6
CONTINUOUS
 62
     3
100
AcDbHatch
 10
0.0
 20
0.0
 30
0.0
210
0.0
220
0.0
230
1.0
  2
SOLID
 70
     1
 71
     1
 91
        1
 92
        1
 93
       16
 72
     1
 10
1688.1187999452582
 20
243.0169999999992
 11
1684.3567999452582
 21
243.0169999999992
 72
     1
 10
1684.3567999452582
 20
243.0169999999992
 11
1683.6727999452582
 21
239.25499999999917
 72
     1
 10
1683.6727999452582
 20
239.25499999999917
 11
1681.6207999452583
 21
239.25499999999917
 72
     1
 10
1681.6207999452583
 20
239.25499999999917
 11
1681.6207999452583
 21
245.75299999999919
 72
     1
 10
1681.6207999452583
 20
245.75299999999919
 11
1697.3527999452585
 21
245.75299999999919
 72
     1
 10
1697.3527999452585
 20
245.75299999999919
 11
1697.3527999452585
 21
239.25499999999917
 72
     1
 10
1697.3527999452585
 20
239.25499999999917
 11
1695.3007999452584
 21
239.25499999999917
 72
     1
 10
1695.3007999452584
 20
239.25499999999917
 11
1694.6167999452584
 21
243.0169999999992
 72
     1
 10
1694.6167999452584
 20
243.0169999999992
 11
1690.8547999452583
 21
243.0169999999992
 72
     1
 10
1690.8547999452583
 20
243.0169999999992
 11
1690.8547999452585
 21
231.38899999999916
 72
     1
 10
1690.8547999452585
 20
231.38899999999916
 11
1693.5907999452584
 21
230.70499999999913
 72
     1
 10
1693.5907999452584
 20
230.70499999999913
 11
1693.5907999452584
 21
228.65299999999911
 72
     1
 10
1693.5907999452584
 20
228.65299999999911
 11
1685.3827999452583
 21
228.65299999999911
 72
     1
 10
1685.3827999452583
 20
228.65299999999911
 11
1685.3827999452583
 21
230.70499999999913
 72
     1
 10
1685.3827999452583
 20
230.70499999999913
 11
1688.1187999452582
 21
231.38899999999916
 72
     1
 10
1688.1187999452582
 20
231.38899999999916
 11
1688.1187999452582
 21
243.0169999999992
 97
        0
 75
     0
 76
     1
 98
        1
 10
0.0
 20
0.0
  0
HATCH
  5
152
100
AcDbEntity
  8
LAY-1
  6
CONTINUOUS
 62
     3
100
AcDbHatch
 10
0.0
 20
0.0
 30
0.0
210
0.0
220
0.0
230
1.0
  2
SOLID
 70
     1
 71
     1
 91
        1
 92
        1
 93
        4
 72
     1
 10
1677.8587999452584
 20
234.12499999999915
 11
1677.8587999452584
 21
236.86099999999931
 72
     1
 10
1677.8587999452584
 20
236.86099999999931
 11
1680.5947999452583
 21
236.86099999999914
 72
     1
 10
1680.5947999452583
 20
236.86099999999914
 11
1680.5947999452583
 21
234.12499999999915
 72
     1
 10
1680.5947999452583
 20
234.12499999999915
 11
1677.8587999452584
 21
234.12499999999915
 97
        0
 75
     0
 76
     1
 98
        1
 10
0.0
 20
0.0
  0
HATCH
  5
153
100
AcDbEntity
  8
LAY-1
  6
CONTINUOUS
 62
     3
100
AcDbHatch
 10
0.0
 20
0.0
 30
0.0
210
0.0
220
0.0
230
1.0
  2
SOLID
 70
     1
 71
     1
 91
        1
 92
        1
 93
       12
 72
     1
 10
1674.7807999452584
 20
245.75299999999919
 11
1674.7807999452584
 21
243.7009999999992
 72
     1
 10
1674.7807999452584
 20
243.7009999999992
 11
1672.0447999452585
 21
243.0169999999992
 72
     1
 10
1672.0447999452585
 20
243.0169999999992
 11
1672.0447999452585
 21
231.38899999999916
 72
     1
 10
1672.0447999452585
 20
231.38899999999916
 11
1674.7807999452584
 21
230.70499999999913
 72
     1
 10
1674.7807999452584
 20
230.70499999999913
 11
1674.7807999452584
 21
228.65299999999911
 72
     1
 10
1674.7807999452584
 20
228.65299999999911
 11
1666.5727999452583
 21
228.65299999999911
 72
     1
 10
1666.5727999452583
 20
228.65299999999911
 11
1666.5727999452583
 21
230.70499999999913
 72
     1
 10
1666.5727999452583
 20
230.70499999999913
 11
1669.3087999452582
 21
231.38899999999916
 72
     1
 10
1669.3087999452582
 20
231.38899999999916
 11
1669.3087999452582
 21
243.0169999999992
 72
     1
 10
1669.3087999452582
 20
243.0169999999992
 11
1666.5727999452583
 21
243.7009999999992
 72
     1
 10
1666.5727999452583
 20
243.7009999999992
 11
1666.5727999452583
 21
245.75299999999919
 72
     1
 10
1666.5727999452583
 20
245.75299999999919
 11
1674.7807999452584
 21
245.75299999999919
 97
        0
 75
     0
 76
     1
 98
        1
 10
0.0
 20
0.0
  0
HATCH
  5
154
100
AcDbEntity
  8
LAY-1
  6
CONTINUOUS
 62
     3
100
AcDbHatch
 10
0.0
 20
0.0
 30
0.0
210
0.0
220
0.0
230
1.0
  2
SOLID
 70
     1
 71
     1
 91
        1
 92
        1
 93
       15
 72
     2
 10
1647.9597166716806
 20
237.20299999999952
 40
7.5931593159316035
 50
124.301153
 51
180.0
 73
     0
 72
     1
 10
1640.3665573557489
 20
237.20299999999997
 11
1643.2317398566249
 21
237.20299999999997
 72
     2
 10
1650.6196786505043
 20
237.20299999999958
 40
7.3879387938794103
 50
180.0
 51
199.464384
 73
     1
 72
     2
 10
1643.5344128641284
 20
238.0225359444984
 40
3.2835283528353623
 50
272.086657
 51
294.619977
 73
     1
 72
     2
 10
1644.4748514405908
 20
235.9703307239763
 40
1.026102610261032
 50
294.619977
 51
0.0
 73
     1
 72
     1
 10
1645.500954050852
 20
235.9703307239763
 11
1645.500954050852
 21
237.20299999999997
 72
     1
 10
1645.500954050852
 20
237.20299999999997
 11
1647.9636003154783
 21
237.20299999999997
 72
     1
 10
1647.9636003154783
 20
237.20299999999997
 11
1647.9636003154783
 21
235.96815341758349
 72
     2
 10
1648.9897029257395
 20
235.96815341758349
 40
1.02610261026099
 50
180.0
 51
245.380023
 73
     1
 72
     2
 10
1649.9301415022019
 20
238.02035863810599
 40
3.2835283528357233
 50
245.380023
 51
267.913343
 73
     1
 72
     1
 10
1649.8105850139482
 20
234.73900759166298
 11
1649.8105850139482
 21
234.12334602550644
 72
     1
 10
1649.8105850139482
 20
234.12334602550644
 11
1643.9042210324792
 21
234.12334602550641
 72
     2
 10
1650.6196786505047
 20
237.20299999999958
 40
7.3879387938794006
 50
204.635803
 51
268.19864
 73
     1
 72
     1
 10
1650.3874426442128
 20
229.81871221718058
 11
1650.3874426442128
 21
228.79114885601308
 72
     2
 10
1650.6196786505043
 20
241.10218991899185
 40
12.313231323132369
 50
91.080702
 51
124.301153
 73
     0
 97
        0
 75
     0
 76
     1
 98
        1
 10
0.0
 20
0.0
  0
HATCH
  5
155
100
AcDbEntity
  8
LAY-1
  6
CONTINUOUS
 62
     3
100
AcDbHatch
 10
0.0
 20
0.0
 30
0.0
210
0.0
220
0.0
230
1.0
  2
SOLID
 70
     1
 71
     1
 91
        1
 92
        1
 93
       24
 72
     2
 10
1649.1947742783016
 20
238.22910261026061
 40
1.0261026102610411
 50
90.0
 51
157.380135
 73
     1
 72
     2
 10
1651.6574205429279
 20
237.20299999999966
 40
3.6939693969397109
 50
157.380135
 51
180.0
 73
     1
 72
     1
 10
1647.9634511459883
 20
237.20299999999997
 11
1645.500954050852
 21
237.20299999999997
 72
     1
 10
1645.500954050852
 20
237.20299999999997
 11
1645.500954050852
 21
242.53031621879305
 72
     2
 10
1650.6196786505043
 20
237.20299999999958
 40
7.3879387938794103
 50
133.856042
 51
180.0
 73
     1
 72
     1
 10
1643.2317398566249
 20
237.20299999999997
 11
1640.3665573557489
 21
237.20299999999997
 72
     2
 10
1647.9597166716806
 20
237.20299999999952
 40
7.5931593159316035
 50
180.0
 51
235.698847
 73
     0
 72
     2
 10
1650.6196786505047
 20
233.30381008100721
 40
12.313231323132396
 50
235.698847
 51
245.436008
 73
     0
 72
     1
 10
1645.500954050852
 20
244.50266377635836
 11
1645.500954050852
 21
245.61787256682271
 72
     2
 10
1644.4748514405908
 20
245.61787256682271
 40
1.0261026102610264
 50
0.0
 51
65.380023
 73
     1
 72
     2
 10
1643.5344128641284
 20
243.56566734630064
 40
3.2835283528352881
 50
65.380023
 51
87.913343
 73
     1
 72
     1
 10
1643.6539693523819
 20
246.84701839274322
 11
1643.6539693523819
 21
247.4626799588998
 72
     1
 10
1643.6539693523819
 20
247.4626799588998
 11
1649.8105850139482
 21
247.4626799588998
 72
     1
 10
1649.8105850139482
 20
247.4626799588998
 11
1649.8105850139482
 21
246.84701839274322
 72
     2
 10
1649.9301415022019
 20
243.56566734630064
 40
3.2835283528353032
 50
92.086657
 51
114.619977
 73
     1
 72
     2
 10
1648.9897029257395
 20
245.61787256682277
 40
1.0261026102610411
 50
114.619977
 51
180.0
 73
     1
 72
     1
 10
1647.9636003154783
 20
245.61787256682271
 11
1647.9636003154783
 21
245.32715876160256
 72
     2
 10
1650.6196786505043
 20
233.30381008100721
 40
12.313231323132365
 50
257.542857
 51
268.919298
 73
     0
 72
     1
 10
1650.3874426442128
 20
245.61485114398602
 11
1650.3874426442128
 21
244.58728778281858
 72
     2
 10
1650.6196786505047
 20
237.20299999999958
 40
7.3879387938794103
 50
91.80136
 51
111.070443
 73
     1
 72
     1
 10
1647.9636003154783
 20
244.09697472437389
 11
1647.9636003154783
 21
240.28130783078265
 72
     1
 10
1647.9636003154783
 20
240.28130783078265
 11
1650.3874426442128
 21
240.28130783078265
 72
     1
 10
1650.3874426442128
 20
240.28130783078265
 11
1650.3874426442128
 21
239.25520522052159
 72
     1
 10
1650.3874426442128
 20
239.25520522052159
 11
1649.1947742783016
 21
239.25520522052159
 97
        0
 75
     0
 76
     1
 98
        1
 10
0.0
 20
0.0
  0
HATCH
  5
156
100
AcDbEntity
  8
LAY-1
  6
CONTINUOUS
 62
     3
100
AcDbHatch
 10
0.0
 20
0.0
 30
0.0
210
0.0
220
0.0
230
1.0
  2
SOLID
 70
     1
 71
     1
 91
        1
 92
        1
 93
       14
 72
     2
 10
1650.6196786505043
 20
237.20299999999958
 40
7.3879387938794245
 50
0.0
 51
9.281799
 73
     1
 72
     2
 10
1656.8982193297077
 20
238.22910261026061
 40
1.02610261026102
 50
9.281799
 51
90.0
 73
     1
 72
     1
 10
1656.8982193297077
 20
239.25520522052159
 11
1654.7240890915486
 21
239.25520522052159
 72
     1
 10
1654.7240890915486
 20
239.25520522052159
 11
1654.7240890915486
 21
237.20299999999997
 72
     1
 10
1654.7240890915486
 20
237.20299999999997
 11
1652.2614428269221
 21
237.20299999999997
 72
     1
 10
1652.2614428269221
 20
237.20299999999997
 11
1652.2614428269221
 21
239.25520522052159
 72
     1
 10
1652.2614428269221
 20
239.25520522052159
 11
1650.3874426442128
 21
239.25520522052159
 72
     1
 10
1650.3874426442128
 20
239.25520522052159
 11
1650.3874426442128
 21
240.28130783078265
 72
     1
 10
1650.3874426442128
 20
240.28130783078265
 11
1657.3357534357528
 21
240.28130783078257
 72
     2
 10
1650.6196786505047
 20
237.20299999999958
 40
7.3879387938794103
 50
24.624318
 51
91.80136
 73
     1
 72
     1
 10
1650.3874426442128
 20
244.58728778281858
 11
1650.3874426442128
 21
245.61485114398602
 72
     2
 10
1650.6196786505043
 20
233.30381008100721
 40
12.313231323132365
 50
268.919298
 51
304.301153
 73
     0
 72
     2
 10
1653.2796406293285
 20
237.20299999999952
 40
7.5931593159316115
 50
304.301153
 51
0.0
 73
     0
 72
     1
 10
1660.8727999452601
 20
237.20299999999997
 11
1658.0076174443839
 21
237.20299999999997
 97
        0
 75
     0
 76
     1
 98
        1
 10
0.0
 20
0.0
  0
HATCH
  5
157
100
AcDbEntity
  8
LAY-1
  6
CONTINUOUS
 62
     3
100
AcDbHatch
 10
0.0
 20
0.0
 30
0.0
210
0.0
220
0.0
230
1.0
  2
SOLID
 70
     1
 71
     1
 91
        1
 92
        1
 93
       19
 72
     2
 10
1650.6196786505043
 20
237.20299999999958
 40
7.3879387938794245
 50
303.748989
 51
0.0
 73
     1
 72
     1
 10
1658.0076174443839
 20
237.20299999999997
 11
1660.8727999452601
 21
237.20299999999997
 72
     2
 10
1653.2796406293285
 20
237.20299999999952
 40
7.5931593159316115
 50
0.0
 51
55.698847
 73
     0
 72
     2
 10
1650.6196786505047
 20
241.10218991899188
 40
12.313231323132388
 50
55.698847
 51
70.528779
 73
     0
 72
     1
 10
1654.7240890915486
 20
229.49316409645115
 11
1654.7240890915486
 21
228.78678128946635
 72
     2
 10
1655.7501917018096
 20
228.78678128946635
 40
1.026102610261032
 50
180.0
 51
245.380023
 73
     1
 72
     2
 10
1656.690630278272
 20
230.83898650998844
 40
3.283528352835297
 50
245.380023
 51
267.913343
 73
     1
 72
     1
 10
1656.5710737900185
 20
227.55763546354586
 11
1656.5710737900185
 21
226.94197389738923
 72
     1
 10
1656.5710737900185
 20
226.94197389738923
 11
1650.4144581284522
 21
226.94197389738923
 72
     1
 10
1650.4144581284522
 20
226.94197389738923
 11
1650.4144581284522
 21
227.55763546354586
 72
     2
 10
1650.2949016401985
 20
230.83898650998844
 40
3.283528352835297
 50
272.086657
 51
294.619977
 73
     1
 72
     2
 10
1651.2353402166609
 20
228.78678128946635
 40
1.026102610261032
 50
294.619977
 51
0.0
 73
     1
 72
     1
 10
1652.2614428269221
 20
228.78678128946635
 11
1652.2614428269221
 21
228.89890036223707
 72
     2
 10
1650.6196786505043
 20
241.10218991899185
 40
12.313231323132369
 50
82.337744
 51
91.080702
 73
     0
 72
     1
 10
1650.3874426442128
 20
228.79114885601308
 11
1650.3874426442128
 21
229.81871221718058
 72
     2
 10
1650.6196786505047
 20
237.20299999999958
 40
7.3879387938794006
 50
268.19864
 51
282.839588
 73
     1
 72
     1
 10
1652.2614428269221
 20
229.99978890971906
 11
1652.2614428269221
 21
237.20299999999997
 72
     1
 10
1652.2614428269221
 20
237.20299999999997
 11
1654.7240890915486
 21
237.20299999999997
 72
     1
 10
1654.7240890915486
 20
237.20299999999997
 11
1654.7240890915486
 21
231.06008094196565
 97
        0
 75
     0
 76
     1
 98
        1
 10
0.0
 20
0.0
  0
TEXT
  5
158
100
AcDbEntity
  8
LAY-1
  6
CONTINUOUS
 62
     3
100
AcDbText
 10
1607.936
 20
305.72
 30
0.0
 40
20.0
  1
Ｃ２－ＢＯＸ
 41
0.84
  7
EXCADSTD
 72
     5
 11
1727.936
 21
305.72
 31
0.0
100
AcDbText
  0
TEXT
  5
159
100
AcDbEntity
  8
LAY-1
  6
CONTINUOUS
 62
     3
100
AcDbText
 10
1607.904
 20
277.816
 30
0.0
 40
20.0
  1
感震センサボックス
 41
0.84
  7
EXCADSTD
 72
     5
 11
1787.904
 21
277.816
 31
0.0
100
AcDbText
  0
TEXT
  5
15A
100
AcDbEntity
  8
LAY-1
  6
CONTINUOUS
 62
     3
100
AcDbText
 10
1618.48
 20
333.32
 30
0.0
 40
20.0
  1
２０１４年　６月２５日
 41
0.84
  7
EXCADSTD
 72
     5
 11
1838.48
 21
333.32
 31
0.0
100
AcDbText
  0
ENDSEC
  0
SECTION
  2
OBJECTS
  0
DICTIONARY
  5
19
100
AcDbDictionary
  3
ACAD_GROUP
350
1A
  3
ACAD_MLINESTYLE
350
1B
  0
DICTIONARY
  5
1A
102
{ACAD_REACTORS
330
19
102
}
100
AcDbDictionary
  0
DICTIONARY
  5
1B
102
{ACAD_REACTORS
330
19
102
}
100
AcDbDictionary
  3
STANDARD
350
1C
  0
MLINESTYLE
  5
1C
102
{ACAD_REACTORS
330
1B
102
}
100
AcDbMlineStyle
  2
Standard
 70
     0
  3

 62
     0
 51
90.0
 52
90.0
 71
     2
 49
0.5
 62
   256
  6
ByLayer
 49
-0.5
 62
   256
  6
ByLayer
  0
ENDSEC
  0
EOF
