  0
SECTION
  2
HEADER
  9
$ACADVER
  1
AC1014
  9
$ACADMAINTVER
 70
     0
  9
$DWGCODEPAGE
  3
ANSI_932
  9
$INSBASE
 10
0.0
 20
0.0
 30
0.0
  9
$EXTMIN
 10
528.96721
 20
125.5
 30
0.0
  9
$EXTMAX
 10
1790.4
 20
1331.314292
 30
0.0
  9
$LIMMIN
 10
0.0
 20
0.0
  9
$LIMMAX
 10
420.0
 20
297.0
  9
$ORTHOMODE
 70
     0
  9
$REGENMODE
 70
     1
  9
$FILLMODE
 70
     1
  9
$QTEXTMODE
 70
     0
  9
$MIRRTEXT
 70
     1
  9
$DRAGMODE
 70
     2
  9
$LTSCALE
 40
1.0
  9
$OSMODE
 70
     0
  9
$ATTMODE
 70
     1
  9
$TEXTSIZE
 40
0.2
  9
$TRACEWID
 40
0.05
  9
$TEXTSTYLE
  7
STANDARD
  9
$CLAYER
  8
LAY-1
  9
$CELTYPE
  6
CONTINUOUS
  9
$CECOLOR
 62
   256
  9
$CELTSCALE
 40
1.0
  9
$DELOBJ
 70
     1
  9
$DISPSILH
 70
     0
  9
$DIMSCALE
 40
1.0
  9
$DIMASZ
 40
0.18
  9
$DIMEXO
 40
0.0625
  9
$DIMDLI
 40
0.38
  9
$DIMRND
 40
0.0
  9
$DIMDLE
 40
0.0
  9
$DIMEXE
 40
0.18
  9
$DIMTP
 40
0.0
  9
$DIMTM
 40
0.0
  9
$DIMTXT
 40
0.18
  9
$DIMCEN
 40
0.09
  9
$DIMTSZ
 40
0.0
  9
$DIMTOL
 70
     0
  9
$DIMLIM
 70
     0
  9
$DIMTIH
 70
     1
  9
$DIMTOH
 70
     1
  9
$DIMSE1
 70
     0
  9
$DIMSE2
 70
     0
  9
$DIMTAD
 70
     0
  9
$DIMZIN
 70
     0
  9
$DIMBLK
  1

  9
$DIMASO
 70
     1
  9
$DIMSHO
 70
     1
  9
$DIMPOST
  1

  9
$DIMAPOST
  1

  9
$DIMALT
 70
     0
  9
$DIMALTD
 70
     2
  9
$DIMALTF
 40
25.4
  9
$DIMLFAC
 40
1.0
  9
$DIMTOFL
 70
     0
  9
$DIMTVP
 40
0.0
  9
$DIMTIX
 70
     0
  9
$DIMSOXD
 70
     0
  9
$DIMSAH
 70
     0
  9
$DIMBLK1
  1

  9
$DIMBLK2
  1

  9
$DIMSTYLE
  2
STANDARD
  9
$DIMCLRD
 70
     0
  9
$DIMCLRE
 70
     0
  9
$DIMCLRT
 70
     0
  9
$DIMTFAC
 40
1.0
  9
$DIMGAP
 40
0.09
  9
$DIMJUST
 70
     0
  9
$DIMSD1
 70
     0
  9
$DIMSD2
 70
     0
  9
$DIMTOLJ
 70
     1
  9
$DIMTZIN
 70
     0
  9
$DIMALTZ
 70
     0
  9
$DIMALTTZ
 70
     0
  9
$DIMFIT
 70
     3
  9
$DIMUPT
 70
     0
  9
$DIMUNIT
 70
     2
  9
$DIMDEC
 70
     4
  9
$DIMTDEC
 70
     4
  9
$DIMALTU
 70
     2
  9
$DIMALTTD
 70
     2
  9
$DIMTXSTY
  7
STANDARD
  9
$DIMAUNIT
 70
     0
  9
$LUNITS
 70
     2
  9
$LUPREC
 70
     4
  9
$SKETCHINC
 40
0.1
  9
$FILLETRAD
 40
0.0
  9
$AUNITS
 70
     0
  9
$AUPREC
 70
     0
  9
$MENU
  1
acad
  9
$ELEVATION
 40
0.0
  9
$PELEVATION
 40
0.0
  9
$THICKNESS
 40
0.0
  9
$LIMCHECK
 70
     0
  9
$BLIPMODE
 70
     1
  9
$CHAMFERA
 40
0.0
  9
$CHAMFERB
 40
0.0
  9
$CHAMFERC
 40
0.0
  9
$CHAMFERD
 40
0.0
  9
$SKPOLY
 70
     0
  9
$TDCREATE
 40
2456816.144865185
  9
$TDUPDATE
 40
2456816.144865185
  9
$TDINDWG
 40
0.0000000000
  9
$TDUSRTIMER
 40
0.0000000000
  9
$USRTIMER
 70
     1
  9
$ANGBASE
 50
0.0
  9
$ANGDIR
 70
     0
  9
$PDMODE
 70
     0
  9
$PDSIZE
 40
0.0
  9
$PLINEWID
 40
0.0
  9
$COORDS
 70
     1
  9
$SPLFRAME
 70
     0
  9
$SPLINETYPE
 70
     6
  9
$SPLINESEGS
 70
     8
  9
$ATTDIA
 70
     0
  9
$ATTREQ
 70
     1
  9
$HANDLING
 70
     1
  9
$HANDSEED
  5
3CC
  9
$SURFTAB1
 70
     6
  9
$SURFTAB2
 70
     6
  9
$SURFTYPE
 70
     6
  9
$SURFU
 70
     6
  9
$SURFV
 70
     6
  9
$UCSNAME
  2

  9
$UCSORG
 10
0.0
 20
0.0
 30
0.0
  9
$UCSXDIR
 10
1.0
 20
0.0
 30
0.0
  9
$UCSYDIR
 10
0.0
 20
1.0
 30
0.0
  9
$PUCSNAME
  2

  9
$PUCSORG
 10
0.0
 20
0.0
 30
0.0
  9
$PUCSXDIR
 10
1.0
 20
0.0
 30
0.0
  9
$PUCSYDIR
 10
0.0
 20
1.0
 30
0.0
  9
$USERI1
 70
     0
  9
$USERI2
 70
     0
  9
$USERI3
 70
     0
  9
$USERI4
 70
     0
  9
$USERI5
 70
     0
  9
$USERR1
 40
0.0
  9
$USERR2
 40
0.0
  9
$USERR3
 40
0.0
  9
$USERR4
 40
0.0
  9
$USERR5
 40
0.0
  9
$WORLDVIEW
 70
     1
  9
$SHADEDGE
 70
     3
  9
$SHADEDIF
 70
    70
  9
$TILEMODE
 70
     1
  9
$MAXACTVP
 70
    16
  9
$PINSBASE
 10
0.0
 20
0.0
 30
0.0
  9
$PLIMCHECK
 70
     0
  9
$PEXTMIN
 10
1.000000E+20
 20
1.000000E+20
 30
1.000000E+20
  9
$PEXTMAX
 10
-1.000000E+20
 20
-1.000000E+20
 30
-1.000000E+20
  9
$PLIMMIN
 10
0.0
 20
0.0
  9
$PLIMMAX
 10
12.0
 20
9.0
  9
$UNITMODE
 70
     0
  9
$VISRETAIN
 70
     0
  9
$PLINEGEN
 70
     1
  9
$PSLTSCALE
 70
     0
  9
$TREEDEPTH
 70
  3020
  9
$PICKSTYLE
 70
     1
  9
$CMLSTYLE
  2
Standard
  9
$CMLJUST
 70
     0
  9
$CMLSCALE
 40
1.0
  9
$PROXYGRAPHICS
 70
     0
  9
$MEASUREMENT
 70
     0
  0
ENDSEC
  0
SECTION
  2
CLASSES
  0
CLASS
  1
LWPOLYLINE
  2
AcDbPolyline
  3
"AutoCAD"
 90
        0
280
     0
281
     1
  0
CLASS
  1
IMAGE
  2
AcDbRasterImage
  3
ISM
 90
      127
280
     0
281
     1
  0
CLASS
  1
OLE2FRAME
  2
AcDbOle2Frame
  3
""
 90
        0
280
     0
281
     1
  0
CLASS
  1
HATCH
  2
AcDbHatch
  3
"ACAD_SEDONA"
 90
        0
280
     0
281
     1
  0
CLASS
  1
DICTIONARYVAR
  2
AcDbDictionaryVar
  3
"AutoCAD"
 90
        0
280
     0
281
     0
  0
CLASS
  1
RASTERVARIABLES
  2
AcDbRasterVariables
  3
ISM
 90
        0
280
     0
281
     0
  0
CLASS
  1
IMAGEDEF
  2
AcDbRasterImageDef
  3
ISM
 90
        0
280
     0
281
     0
  0
CLASS
  1
IMAGEDEF_REACTOR
  2
AcDbRasterImageDefReactor
  3
ISM
 90
        1
280
     0
281
     0
  0
CLASS
  1
IDBUFFER
  2
AcDbIdBuffer
  3
"Acad"
 90
        0
280
     0
281
     0
  0
CLASS
  1
SPATIAL_FILTER
  2
AcDbSpatialFilter
  3
"Acad"
 90
        0
280
     0
281
     0
  0
CLASS
  1
XRECORD
  2
AcDbXrecord
  3
"<Built In>"
 90
        0
280
     0
281
     0
  0
CLASS
  1
SORTENTSTABLE
  2
AcDbSortentsTable
  3
"AutoCAD"
 90
        0
280
     0
281
     0
  0
CLASS
  1
LAYER_INDEX
  2
AcDbLayerIndex
  3
"Acad"
 90
        0
280
     0
281
     0
  0
CLASS
  1
SPATIAL_INDEX
  2
AcDbSpatialIndex
  3
"Acad"
 90
        0
280
     0
281
     0
  0
CLASS
  1
OBJECT_PTR
  2
CAseDLPNTableRecord
  3
"ASE-LPNTableRecord"
 90
        1
280
     0
281
     0
  0
CLASS
  1
LAYOUT
  2
AcDbLayout
  3
"AutoCAD 2000"
 90
        0
280
     0
281
     0
  0
CLASS
  1
PLOTSETTINGS
  2
AcDbPlotSettings
  3
"AutoCAD 2000"
 90
        0
280
     0
281
     0
  0
CLASS
  1
ACDBDICTIONARYWDFLT
  2
AcDbDictionaryWithDefault
  3
"AutoCAD 2000"
 90
        0
280
     0
281
     0
  0
CLASS
  1
ACDBPLACEHOLDER
  2
AcDbPlaceHolder
  3
"AutoCAD 2000"
 90
        0
280
     0
281
     0
  0
CLASS
  1
VBA_PROJECT
  2
AcDbVbaProject
  3
"acadvba"
 90
        0
280
     0
281
     0
  0
CLASS
  1
WIPEOUT
  2
AcDbWipeout
  3
WipeOut|AutoCAD Express Tool|expresstools@autodesk.com
 90
      127
280
     0
281
     1
  0
CLASS
  1
WIPEOUTVARIABLES
  2
AcDbWipeoutVariables
  3
WipeOut|AutoCAD Express Tool|expresstools@autodesk.com
 90
        0
280
     0
281
     0
  0
CLASS
  1
RTEXT
  2
RText
  3
RText|AutoCAD Express Tool|expresstools@autodesk.com
 90
        0
280
     0
281
     1
  0
CLASS
  1
ARCALIGNEDTEXT
  2
AcDbArcAlignedText
  3
ATEXT|AutoCAD Express Tool|expresstools@autodesk.com
 90
        0
280
     0
281
     1
  0
ENDSEC
  0
SECTION
  2
TABLES
  0
TABLE
  2
VPORT
  5
7
100
AcDbSymbolTable
 70
     1
  0
VPORT
  5
15
100
AcDbSymbolTableRecord
100
AcDbViewportTableRecord
  2
*ACTIVE
 70
     0
 10
0.0
 20
0.0
 11
1.0
 21
1.0
 12
1159.683605
 22
728.407146
 13
0.0
 23
0.0
 14
1.0
 24
1.0
 15
0.0
 25
0.0
 16
0.0
 26
0.0
 36
1.0
 17
0.0
 27
0.0
 37
0.0
 40
1205.814292
 41
1.722533
 42
50.0
 43
0.0
 44
0.0
 50
0.0
 51
0.0
 71
     0
 72
  1000
 73
     1
 74
     1
 75
     0
 76
     0
 77
     0
 78
     0
  0
ENDTAB
  0
TABLE
  2
LTYPE
  5
4
100
AcDbSymbolTable
 70
     9
  0
LTYPE
  5
11
100
AcDbSymbolTableRecord
100
AcDbLinetypeTableRecord
  2
BYBLOCK
 70
    64
  3

 72
    65
 73
     0
 40
0.0
  0
LTYPE
  5
12
100
AcDbSymbolTableRecord
100
AcDbLinetypeTableRecord
  2
BYLAYER
 70
    64
  3

 72
    65
 73
     0
 40
0.0
  0
LTYPE
  5
13
100
AcDbSymbolTableRecord
100
AcDbLinetypeTableRecord
  2
CONTINUOUS
 70
    64
  3
実線
 72
    65
 73
     0
 40
0.0
  0
LTYPE
  5
1D
100
AcDbSymbolTableRecord
100
AcDbLinetypeTableRecord
  2
EXLTYPE1
 70
    64
  3
破線
 72
    65
 73
     2
 40
4.0
 49
2.0
 74
     0
 49
-2.0
 74
     0
  0
LTYPE
  5
1E
100
AcDbSymbolTableRecord
100
AcDbLinetypeTableRecord
  2
EXLTYPE2
 70
    64
  3
点線
 72
    65
 73
     2
 40
2.0
 49
1.0
 74
     0
 49
-1.0
 74
     0
  0
LTYPE
  5
1F
100
AcDbSymbolTableRecord
100
AcDbLinetypeTableRecord
  2
EXLTYPE3
 70
    64
  3
一点鎖線
 72
    65
 73
     4
 40
33.0
 49
30.0
 74
     0
 49
-1.0
 74
     0
 49
1.0
 74
     0
 49
-1.0
 74
     0
  0
LTYPE
  5
20
100
AcDbSymbolTableRecord
100
AcDbLinetypeTableRecord
  2
EXLTYPE4
 70
    64
  3
二点鎖線
 72
    65
 73
     6
 40
35.0
 49
30.0
 74
     0
 49
-1.0
 74
     0
 49
1.0
 74
     0
 49
-1.0
 74
     0
 49
1.0
 74
     0
 49
-1.0
 74
     0
  0
LTYPE
  5
21
100
AcDbSymbolTableRecord
100
AcDbLinetypeTableRecord
  2
EXLTYPE5
 70
    64
  3
三点鎖線
 72
    65
 73
     8
 40
37.0
 49
30.0
 74
     0
 49
-1.0
 74
     0
 49
1.0
 74
     0
 49
-1.0
 74
     0
 49
1.0
 74
     0
 49
-1.0
 74
     0
 49
1.0
 74
     0
 49
-1.0
 74
     0
  0
LTYPE
  5
22
100
AcDbSymbolTableRecord
100
AcDbLinetypeTableRecord
  2
EXLTYPE6
 70
    64
  3
四点鎖線
 72
    65
 73
    10
 40
39.0
 49
30.0
 74
     0
 49
-1.0
 74
     0
 49
1.0
 74
     0
 49
-1.0
 74
     0
 49
1.0
 74
     0
 49
-1.0
 74
     0
 49
1.0
 74
     0
 49
-1.0
 74
     0
 49
1.0
 74
     0
 49
-1.0
 74
     0
  0
ENDTAB
  0
TABLE
  2
LAYER
  5
2
100
AcDbSymbolTable
 70
     8
  0
LAYER
  5
14
100
AcDbSymbolTableRecord
100
AcDbLayerTableRecord
  2
0
 70
     0
 62
     7
  6
CONTINUOUS
  0
LAYER
  5
25
100
AcDbSymbolTableRecord
100
AcDbLayerTableRecord
  2
LAY-1
 70
    64
 62
     7
  6
CONTINUOUS
  0
LAYER
  5
26
100
AcDbSymbolTableRecord
100
AcDbLayerTableRecord
  2
LAY-2
 70
    64
 62
     1
  6
EXLTYPE3
  0
LAYER
  5
27
100
AcDbSymbolTableRecord
100
AcDbLayerTableRecord
  2
LAY-3
 70
    64
 62
     1
  6
CONTINUOUS
  0
LAYER
  5
28
100
AcDbSymbolTableRecord
100
AcDbLayerTableRecord
  2
LAY-4
 70
    64
 62
     3
  6
CONTINUOUS
  0
LAYER
  5
29
100
AcDbSymbolTableRecord
100
AcDbLayerTableRecord
  2
LAY-5
 70
    64
 62
     7
  6
CONTINUOUS
  0
LAYER
  5
2A
100
AcDbSymbolTableRecord
100
AcDbLayerTableRecord
  2
LAY-6
 70
    64
 62
     4
  6
CONTINUOUS
  0
LAYER
  5
2B
100
AcDbSymbolTableRecord
100
AcDbLayerTableRecord
  2
LAY-7
 70
    64
 62
     4
  6
CONTINUOUS
  0
ENDTAB
  0
TABLE
  2
STYLE
  5
3
100
AcDbSymbolTable
 70
     3
  0
STYLE
  5
17
100
AcDbSymbolTableRecord
100
AcDbTextStyleTableRecord
  2
STANDARD
 70
     0
 40
0.0
 41
1.0
 50
0.0
 71
     0
 42
0.0
  3
monotxt
  4
extfont
  0
STYLE
  5
23
100
AcDbSymbolTableRecord
100
AcDbTextStyleTableRecord
  2
EXCADSTD
 70
    64
 40
0.0
 41
1.0
 50
0.0
 71
     0
 42
0.2
  3
monotxt
  4
extfont
  0
STYLE
  5
24
100
AcDbSymbolTableRecord
100
AcDbTextStyleTableRecord
  2
EXCADVERT
 70
    68
 40
0.0
 41
1.0
 50
0.0
 71
     0
 42
0.286885
  3
monotxt
  4
extfont
  0
ENDTAB
  0
TABLE
  2
VIEW
  5
5
100
AcDbSymbolTable
 70
     0
  0
ENDTAB
  0
TABLE
  2
UCS
  5
6
100
AcDbSymbolTable
 70
     0
  0
ENDTAB
  0
TABLE
  2
APPID
  5
8
100
AcDbSymbolTable
 70
     1
  0
APPID
  5
16
100
AcDbSymbolTableRecord
100
AcDbRegAppTableRecord
  2
ACAD
 70
     0
  0
ENDTAB
  0
TABLE
  2
DIMSTYLE
  5
9
100
AcDbSymbolTable
 70
     1
  0
DIMSTYLE
105
18
100
AcDbSymbolTableRecord
100
AcDbDimStyleTableRecord
  2
STANDARD
 70
     0
  3

  4

  5

  6

  7

 40
1.0
 41
0.18
 42
0.0625
 43
0.38
 44
0.18
 45
0.0
 46
0.0
 47
0.0
 48
0.0
 71
     0
 72
     0
 73
     1
 74
     1
 75
     0
 76
     0
 77
     0
 78
     0
140
0.18
141
0.09
142
0.0
143
25.4
144
1.0
145
0.0
146
1.0
147
0.09
170
     0
171
     2
172
     1
173
     0
174
     0
175
     0
176
     0
177
     0
178
     0
270
     2
271
     4
272
     4
273
     2
274
     2
275
     0
280
     0
281
     0
282
     0
283
     1
284
     0
285
     0
286
     0
287
     3
288
     0
340
17
  0
ENDTAB
  0
TABLE
  2
BLOCK_RECORD
  5
1
100
AcDbSymbolTable
 70
    14
  0
BLOCK_RECORD
  5
A
100
AcDbSymbolTableRecord
100
AcDbBlockTableRecord
  2
*MODEL_SPACE
  0
BLOCK_RECORD
  5
B
100
AcDbSymbolTableRecord
100
AcDbBlockTableRecord
  2
*PAPER_SPACE
  0
BLOCK_RECORD
  5
2C
100
AcDbSymbolTableRecord
100
AcDbBlockTableRecord
  2
_EX_NORM
  0
BLOCK_RECORD
  5
2D
100
AcDbSymbolTableRecord
100
AcDbBlockTableRecord
  2
_EX_BNORM
  0
BLOCK_RECORD
  5
2E
100
AcDbSymbolTableRecord
100
AcDbBlockTableRecord
  2
_EX_BCIR
  0
BLOCK_RECORD
  5
2F
100
AcDbSymbolTableRecord
100
AcDbBlockTableRecord
  2
_EX_RCIVIL
  0
BLOCK_RECORD
  5
30
100
AcDbSymbolTableRecord
100
AcDbBlockTableRecord
  2
_EX_SLANT
  0
BLOCK_RECORD
  5
31
100
AcDbSymbolTableRecord
100
AcDbBlockTableRecord
  2
_EX_NONE
  0
BLOCK_RECORD
  5
32
100
AcDbSymbolTableRecord
100
AcDbBlockTableRecord
  2
_EX_CIVIL
  0
BLOCK_RECORD
  5
33
100
AcDbSymbolTableRecord
100
AcDbBlockTableRecord
  2
_EX_WCIR
  0
BLOCK_RECORD
  5
34
100
AcDbSymbolTableRecord
100
AcDbBlockTableRecord
  2
_EX_WCIR2
  0
BLOCK_RECORD
  5
35
100
AcDbSymbolTableRecord
100
AcDbBlockTableRecord
  2
_EX_WNORM
  0
BLOCK_RECORD
  5
36
100
AcDbSymbolTableRecord
100
AcDbBlockTableRecord
  2
_EX_NNORM
  0
BLOCK_RECORD
  5
37
100
AcDbSymbolTableRecord
100
AcDbBlockTableRecord
  2
_EX_BBOX
  0
BLOCK_RECORD
  5
38
100
AcDbSymbolTableRecord
100
AcDbBlockTableRecord
  2
_EX_WBOX
  0
BLOCK_RECORD
  5
39
100
AcDbSymbolTableRecord
100
AcDbBlockTableRecord
  2
_EX_INTEGRAL
  0
ENDTAB
  0
ENDSEC
  0
SECTION
  2
BLOCKS
  0
BLOCK
  5
D
100
AcDbEntity
  8
0
100
AcDbBlockBegin
  2
*MODEL_SPACE
 70
     0
 10
0.0
 20
0.0
 30
0.0
  3
*MODEL_SPACE
  1

  0
ENDBLK
  5
E
100
AcDbEntity
  8
0
100
AcDbBlockEnd
  0
BLOCK
  5
F
100
AcDbEntity
 67
     1
  8
0
100
AcDbBlockBegin
  2
*PAPER_SPACE
 70
     0
 10
0.0
 20
0.0
 30
0.0
  3
*PAPER_SPACE
  1

  0
ENDBLK
  5
10
100
AcDbEntity
 67
     1
  8
0
100
AcDbBlockEnd
  0
BLOCK
  5
3A
100
AcDbEntity
  8
0
100
AcDbBlockBegin
  2
_EX_NORM
 70
     0
 10
0.0
 20
0.0
 30
0.0
  3
_EX_NORM
  1

  0
LINE
  5
3B
100
AcDbEntity
  8
0
  6
CONTINUOUS
 62
     0
100
AcDbLine
 10
0.0
 20
0.0
 30
0.0
 11
-1.0
 21
0.0
 31
0.0
  0
LINE
  5
3C
100
AcDbEntity
  8
0
  6
CONTINUOUS
 62
     0
100
AcDbLine
 10
0.0
 20
0.0
 30
0.0
 11
-1.0
 21
0.166667
 31
0.0
  0
LINE
  5
3D
100
AcDbEntity
  8
0
  6
CONTINUOUS
 62
     0
100
AcDbLine
 10
0.0
 20
0.0
 30
0.0
 11
-1.0
 21
-0.166667
 31
0.0
  0
ENDBLK
  5
3E
100
AcDbEntity
  8
0
100
AcDbBlockEnd
  0
BLOCK
  5
3F
100
AcDbEntity
  8
0
100
AcDbBlockBegin
  2
_EX_BNORM
 70
     0
 10
0.0
 20
0.0
 30
0.0
  3
_EX_BNORM
  1

  0
LINE
  5
40
100
AcDbEntity
  8
0
  6
CONTINUOUS
 62
     0
100
AcDbLine
 10
0.0
 20
0.0
 30
0.0
 11
-1.0
 21
0.0
 31
0.0
  0
LINE
  5
41
100
AcDbEntity
  8
0
  6
CONTINUOUS
 62
     0
100
AcDbLine
 10
0.0
 20
0.0
 30
0.0
 11
-1.0
 21
0.166667
 31
0.0
  0
LINE
  5
42
100
AcDbEntity
  8
0
  6
CONTINUOUS
 62
     0
100
AcDbLine
 10
0.0
 20
0.0
 30
0.0
 11
-1.0
 21
-0.166667
 31
0.0
  0
LINE
  5
43
100
AcDbEntity
  8
0
  6
CONTINUOUS
 62
     0
100
AcDbLine
 10
0.0
 20
0.0
 30
0.0
 11
-1.0
 21
0.083333
 31
0.0
  0
LINE
  5
44
100
AcDbEntity
  8
0
  6
CONTINUOUS
 62
     0
100
AcDbLine
 10
0.0
 20
0.0
 30
0.0
 11
-1.0
 21
-0.083333
 31
0.0
  0
LINE
  5
45
100
AcDbEntity
  8
0
  6
CONTINUOUS
 62
     0
100
AcDbLine
 10
-1.0
 20
0.166667
 30
0.0
 11
-1.0
 21
-0.166667
 31
0.0
  0
ENDBLK
  5
46
100
AcDbEntity
  8
0
100
AcDbBlockEnd
  0
BLOCK
  5
47
100
AcDbEntity
  8
0
100
AcDbBlockBegin
  2
_EX_BCIR
 70
     0
 10
0.0
 20
0.0
 30
0.0
  3
_EX_BCIR
  1

  0
LINE
  5
48
100
AcDbEntity
  8
0
  6
CONTINUOUS
 62
     0
100
AcDbLine
 10
0.0
 20
0.0
 30
0.0
 11
-1.0
 21
0.0
 31
0.0
  0
CIRCLE
  5
49
100
AcDbEntity
  8
0
  6
CONTINUOUS
 62
     0
100
AcDbCircle
 10
0.0
 20
0.0
 30
0.0
 40
0.5
  0
CIRCLE
  5
4A
100
AcDbEntity
  8
0
  6
CONTINUOUS
 62
     0
100
AcDbCircle
 10
0.0
 20
0.0
 30
0.0
 40
0.25
  0
ENDBLK
  5
4B
100
AcDbEntity
  8
0
100
AcDbBlockEnd
  0
BLOCK
  5
4C
100
AcDbEntity
  8
0
100
AcDbBlockBegin
  2
_EX_RCIVIL
 70
     0
 10
0.0
 20
0.0
 30
0.0
  3
_EX_RCIVIL
  1

  0
LINE
  5
4D
100
AcDbEntity
  8
0
  6
CONTINUOUS
 62
     0
100
AcDbLine
 10
0.0
 20
0.0
 30
0.0
 11
-1.0
 21
0.0
 31
0.0
  0
LINE
  5
4E
100
AcDbEntity
  8
0
  6
CONTINUOUS
 62
     0
100
AcDbLine
 10
-1.0
 20
-0.25
 30
0.0
 11
0.0
 21
-0.25
 31
0.0
  0
LINE
  5
4F
100
AcDbEntity
  8
0
  6
CONTINUOUS
 62
     0
100
AcDbLine
 10
-1.0
 20
-0.125
 30
0.0
 11
0.0
 21
-0.125
 31
0.0
  0
ENDBLK
  5
50
100
AcDbEntity
  8
0
100
AcDbBlockEnd
  0
BLOCK
  5
51
100
AcDbEntity
  8
0
100
AcDbBlockBegin
  2
_EX_SLANT
 70
     0
 10
0.0
 20
0.0
 30
0.0
  3
_EX_SLANT
  1

  0
LINE
  5
52
100
AcDbEntity
  8
0
  6
CONTINUOUS
 62
     0
100
AcDbLine
 10
0.0
 20
0.0
 30
0.0
 11
-1.0
 21
0.0
 31
0.0
  0
LINE
  5
53
100
AcDbEntity
  8
0
  6
CONTINUOUS
 62
     0
100
AcDbLine
 10
0.707107
 20
0.707107
 30
0.0
 11
-0.707107
 21
-0.707107
 31
0.0
  0
ENDBLK
  5
54
100
AcDbEntity
  8
0
100
AcDbBlockEnd
  0
BLOCK
  5
55
100
AcDbEntity
  8
0
100
AcDbBlockBegin
  2
_EX_NONE
 70
     0
 10
0.0
 20
0.0
 30
0.0
  3
_EX_NONE
  1

  0
LINE
  5
56
100
AcDbEntity
  8
0
  6
CONTINUOUS
 62
     0
100
AcDbLine
 10
0.0
 20
0.0
 30
0.0
 11
-1.0
 21
0.0
 31
0.0
  0
ENDBLK
  5
57
100
AcDbEntity
  8
0
100
AcDbBlockEnd
  0
BLOCK
  5
58
100
AcDbEntity
  8
0
100
AcDbBlockBegin
  2
_EX_CIVIL
 70
     0
 10
0.0
 20
0.0
 30
0.0
  3
_EX_CIVIL
  1

  0
LINE
  5
59
100
AcDbEntity
  8
0
  6
CONTINUOUS
 62
     0
100
AcDbLine
 10
0.0
 20
0.0
 30
0.0
 11
-1.0
 21
0.0
 31
0.0
  0
LINE
  5
5A
100
AcDbEntity
  8
0
  6
CONTINUOUS
 62
     0
100
AcDbLine
 10
-1.0
 20
0.25
 30
0.0
 11
0.0
 21
0.25
 31
0.0
  0
LINE
  5
5B
100
AcDbEntity
  8
0
  6
CONTINUOUS
 62
     0
100
AcDbLine
 10
-1.0
 20
0.125
 30
0.0
 11
0.0
 21
0.125
 31
0.0
  0
ENDBLK
  5
5C
100
AcDbEntity
  8
0
100
AcDbBlockEnd
  0
BLOCK
  5
5D
100
AcDbEntity
  8
0
100
AcDbBlockBegin
  2
_EX_WCIR
 70
     0
 10
0.0
 20
0.0
 30
0.0
  3
_EX_WCIR
  1

  0
LINE
  5
5E
100
AcDbEntity
  8
0
  6
CONTINUOUS
 62
     0
100
AcDbLine
 10
0.0
 20
0.0
 30
0.0
 11
-1.0
 21
0.0
 31
0.0
  0
CIRCLE
  5
5F
100
AcDbEntity
  8
0
  6
CONTINUOUS
 62
     0
100
AcDbCircle
 10
0.0
 20
0.0
 30
0.0
 40
0.5
  0
ENDBLK
  5
60
100
AcDbEntity
  8
0
100
AcDbBlockEnd
  0
BLOCK
  5
61
100
AcDbEntity
  8
0
100
AcDbBlockBegin
  2
_EX_WCIR2
 70
     0
 10
0.0
 20
0.0
 30
0.0
  3
_EX_WCIR2
  1

  0
LINE
  5
62
100
AcDbEntity
  8
0
  6
CONTINUOUS
 62
     0
100
AcDbLine
 10
-0.5
 20
0.0
 30
0.0
 11
-1.0
 21
0.0
 31
0.0
  0
CIRCLE
  5
63
100
AcDbEntity
  8
0
  6
CONTINUOUS
 62
     0
100
AcDbCircle
 10
0.0
 20
0.0
 30
0.0
 40
0.5
  0
ENDBLK
  5
64
100
AcDbEntity
  8
0
100
AcDbBlockEnd
  0
BLOCK
  5
65
100
AcDbEntity
  8
0
100
AcDbBlockBegin
  2
_EX_WNORM
 70
     0
 10
0.0
 20
0.0
 30
0.0
  3
_EX_WNORM
  1

  0
LINE
  5
66
100
AcDbEntity
  8
0
  6
CONTINUOUS
 62
     0
100
AcDbLine
 10
-1.0
 20
0.0
 30
0.0
 11
-1.0
 21
0.0
 31
0.0
  0
LINE
  5
67
100
AcDbEntity
  8
0
  6
CONTINUOUS
 62
     0
100
AcDbLine
 10
0.0
 20
0.0
 30
0.0
 11
-1.0
 21
0.166667
 31
0.0
  0
LINE
  5
68
100
AcDbEntity
  8
0
  6
CONTINUOUS
 62
     0
100
AcDbLine
 10
0.0
 20
0.0
 30
0.0
 11
-1.0
 21
-0.166667
 31
0.0
  0
LINE
  5
69
100
AcDbEntity
  8
0
  6
CONTINUOUS
 62
     0
100
AcDbLine
 10
-1.0
 20
0.166667
 30
0.0
 11
-1.0
 21
-0.166667
 31
0.0
  0
ENDBLK
  5
6A
100
AcDbEntity
  8
0
100
AcDbBlockEnd
  0
BLOCK
  5
6B
100
AcDbEntity
  8
0
100
AcDbBlockBegin
  2
_EX_NNORM
 70
     0
 10
0.0
 20
0.0
 30
0.0
  3
_EX_NNORM
  1

  0
LINE
  5
6C
100
AcDbEntity
  8
0
  6
CONTINUOUS
 62
     0
100
AcDbLine
 10
0.0
 20
0.0
 30
0.0
 11
-1.0
 21
0.0
 31
0.0
  0
LINE
  5
6D
100
AcDbEntity
  8
0
  6
CONTINUOUS
 62
     0
100
AcDbLine
 10
0.0
 20
0.0
 30
0.0
 11
-1.0
 21
0.166667
 31
0.0
  0
LINE
  5
6E
100
AcDbEntity
  8
0
  6
CONTINUOUS
 62
     0
100
AcDbLine
 10
0.0
 20
0.0
 30
0.0
 11
-1.0
 21
-0.166667
 31
0.0
  0
LINE
  5
6F
100
AcDbEntity
  8
0
  6
CONTINUOUS
 62
     0
100
AcDbLine
 10
-1.0
 20
0.166667
 30
0.0
 11
-1.0
 21
-0.166667
 31
0.0
  0
ENDBLK
  5
70
100
AcDbEntity
  8
0
100
AcDbBlockEnd
  0
BLOCK
  5
71
100
AcDbEntity
  8
0
100
AcDbBlockBegin
  2
_EX_BBOX
 70
     0
 10
0.0
 20
0.0
 30
0.0
  3
_EX_BBOX
  1

  0
LINE
  5
72
100
AcDbEntity
  8
0
  6
CONTINUOUS
 62
     0
100
AcDbLine
 10
0.0
 20
0.0
 30
0.0
 11
-1.0
 21
0.0
 31
0.0
  0
LINE
  5
73
100
AcDbEntity
  8
0
  6
CONTINUOUS
 62
     0
100
AcDbLine
 10
-0.5
 20
0.5
 30
0.0
 11
0.5
 21
0.5
 31
0.0
  0
LINE
  5
74
100
AcDbEntity
  8
0
  6
CONTINUOUS
 62
     0
100
AcDbLine
 10
0.5
 20
0.5
 30
0.0
 11
0.5
 21
-0.5
 31
0.0
  0
LINE
  5
75
100
AcDbEntity
  8
0
  6
CONTINUOUS
 62
     0
100
AcDbLine
 10
0.5
 20
-0.5
 30
0.0
 11
-0.5
 21
-0.5
 31
0.0
  0
LINE
  5
76
100
AcDbEntity
  8
0
  6
CONTINUOUS
 62
     0
100
AcDbLine
 10
-0.5
 20
-0.5
 30
0.0
 11
-0.5
 21
0.5
 31
0.0
  0
LINE
  5
77
100
AcDbEntity
  8
0
  6
CONTINUOUS
 62
     0
100
AcDbLine
 10
-0.25
 20
0.25
 30
0.0
 11
0.25
 21
0.25
 31
0.0
  0
LINE
  5
78
100
AcDbEntity
  8
0
  6
CONTINUOUS
 62
     0
100
AcDbLine
 10
0.25
 20
0.25
 30
0.0
 11
0.25
 21
-0.25
 31
0.0
  0
LINE
  5
79
100
AcDbEntity
  8
0
  6
CONTINUOUS
 62
     0
100
AcDbLine
 10
0.25
 20
-0.25
 30
0.0
 11
-0.25
 21
-0.25
 31
0.0
  0
LINE
  5
7A
100
AcDbEntity
  8
0
  6
CONTINUOUS
 62
     0
100
AcDbLine
 10
-0.25
 20
-0.25
 30
0.0
 11
-0.25
 21
0.25
 31
0.0
  0
ENDBLK
  5
7B
100
AcDbEntity
  8
0
100
AcDbBlockEnd
  0
BLOCK
  5
7C
100
AcDbEntity
  8
0
100
AcDbBlockBegin
  2
_EX_WBOX
 70
     0
 10
0.0
 20
0.0
 30
0.0
  3
_EX_WBOX
  1

  0
LINE
  5
7D
100
AcDbEntity
  8
0
  6
CONTINUOUS
 62
     0
100
AcDbLine
 10
-0.5
 20
0.0
 30
0.0
 11
-1.0
 21
0.0
 31
0.0
  0
LINE
  5
7E
100
AcDbEntity
  8
0
  6
CONTINUOUS
 62
     0
100
AcDbLine
 10
-0.5
 20
0.5
 30
0.0
 11
0.5
 21
0.5
 31
0.0
  0
LINE
  5
7F
100
AcDbEntity
  8
0
  6
CONTINUOUS
 62
     0
100
AcDbLine
 10
0.5
 20
0.5
 30
0.0
 11
0.5
 21
-0.5
 31
0.0
  0
LINE
  5
80
100
AcDbEntity
  8
0
  6
CONTINUOUS
 62
     0
100
AcDbLine
 10
0.5
 20
-0.5
 30
0.0
 11
-0.5
 21
-0.5
 31
0.0
  0
LINE
  5
81
100
AcDbEntity
  8
0
  6
CONTINUOUS
 62
     0
100
AcDbLine
 10
-0.5
 20
-0.5
 30
0.0
 11
-0.5
 21
0.5
 31
0.0
  0
ENDBLK
  5
82
100
AcDbEntity
  8
0
100
AcDbBlockEnd
  0
BLOCK
  5
83
100
AcDbEntity
  8
0
100
AcDbBlockBegin
  2
_EX_INTEGRAL
 70
     0
 10
0.0
 20
0.0
 30
0.0
  3
_EX_INTEGRAL
  1

  0
LINE
  5
84
100
AcDbEntity
  8
0
  6
CONTINUOUS
 62
     0
100
AcDbLine
 10
0.0
 20
0.0
 30
0.0
 11
-1.0
 21
0.0
 31
0.0
  0
ARC
  5
85
100
AcDbEntity
  8
0
  6
CONTINUOUS
 62
     0
100
AcDbCircle
 10
0.542115
 20
0.164992
 30
0.0
 40
0.56667
100
AcDbArc
 50
73.07249
 51
196.927513
  0
ARC
  5
86
100
AcDbEntity
  8
0
  6
CONTINUOUS
 62
     0
100
AcDbCircle
 10
-0.542115
 20
-0.164992
 30
0.0
 40
0.56667
100
AcDbArc
 50
253.072487
 51
16.927513
  0
ENDBLK
  5
87
100
AcDbEntity
  8
0
100
AcDbBlockEnd
  0
ENDSEC
  0
SECTION
  2
ENTITIES
  0
TEXT
  5
88
100
AcDbEntity
  8
LAY-1
  6
CONTINUOUS
 62
     3
100
AcDbText
 10
1112.056782
 20
127.0
 30
0.0
 40
25.0
  1
２６９
 41
0.84
  7
EXCADSTD
 72
     5
 11
1187.056782
 21
127.0
 31
0.0
100
AcDbText
  0
LINE
  5
89
100
AcDbEntity
  8
LAY-1
  6
CONTINUOUS
 62
     1
100
AcDbLine
 10
1015.056782
 20
137.500001
 30
0.0
 11
1015.056782
 21
125.5
 31
0.0
  0
LINE
  5
8A
100
AcDbEntity
  8
LAY-1
  6
CONTINUOUS
 62
     1
100
AcDbLine
 10
1284.056782
 20
143.500001
 30
0.0
 11
1284.056782
 21
125.5
 31
0.0
  0
LINE
  5
8B
100
AcDbEntity
  8
LAY-1
  6
CONTINUOUS
 62
     1
100
AcDbLine
 10
1015.056782
 20
126.0
 30
0.0
 11
1284.056782
 21
126.0
 31
0.0
  0
LINE
  5
8C
100
AcDbEntity
  8
LAY-1
  6
CONTINUOUS
 62
     1
100
AcDbLine
 10
1017.056782
 20
126.333333
 30
0.0
 11
1015.056782
 21
126.0
 31
0.0
  0
LINE
  5
8D
100
AcDbEntity
  8
LAY-1
  6
CONTINUOUS
 62
     1
100
AcDbLine
 10
1015.056782
 20
126.0
 30
0.0
 11
1017.056782
 21
125.666667
 31
0.0
  0
LINE
  5
8E
100
AcDbEntity
  8
LAY-1
  6
CONTINUOUS
 62
     1
100
AcDbLine
 10
1282.056782
 20
125.666667
 30
0.0
 11
1284.056782
 21
126.0
 31
0.0
  0
LINE
  5
8F
100
AcDbEntity
  8
LAY-1
  6
CONTINUOUS
 62
     1
100
AcDbLine
 10
1284.056782
 20
126.0
 30
0.0
 11
1282.056782
 21
126.333333
 31
0.0
  0
LINE
  5
90
100
AcDbEntity
  8
LAY-1
  6
EXLTYPE3
 62
     1
100
AcDbLine
 10
1284.056782
 20
173.348666
 30
0.0
 11
1284.056782
 21
148.806921
 31
0.0
  0
LINE
  5
91
100
AcDbEntity
  8
LAY-1
  6
EXLTYPE3
 62
     1
100
AcDbLine
 10
1015.056782
 20
148.806921
 30
0.0
 11
1015.056782
 21
172.750087
 31
0.0
  0
LINE
  5
92
100
AcDbEntity
  8
LAY-1
  6
EXLTYPE3
 62
     1
100
AcDbLine
 10
1284.056782
 20
820.619206
 30
0.0
 11
1284.056782
 21
673.119206
 31
0.0
  0
LINE
  5
93
100
AcDbEntity
  8
LAY-1
  6
EXLTYPE3
 62
     1
100
AcDbLine
 10
1015.056782
 20
752.719206
 30
0.0
 11
1015.056782
 21
728.819206
 31
0.0
  0
LINE
  5
94
100
AcDbEntity
  8
LAY-1
  6
EXLTYPE3
 62
     1
100
AcDbLine
 10
1284.056782
 20
683.558226
 30
0.0
 11
1284.056782
 21
743.619206
 31
0.0
  0
LINE
  5
95
100
AcDbEntity
  8
LAY-1
  6
EXLTYPE3
 62
     1
100
AcDbLine
 10
1284.056782
 20
743.619206
 30
0.0
 11
1284.056782
 21
793.969676
 31
0.0
  0
LINE
  5
96
100
AcDbEntity
  8
LAY-1
  6
EXLTYPE3
 62
     1
100
AcDbLine
 10
1015.056782
 20
729.47988
 30
0.0
 11
1015.056782
 21
757.692673
 31
0.0
  0
LINE
  5
97
100
AcDbEntity
  8
LAY-1
  6
EXLTYPE3
 62
     1
100
AcDbLine
 10
1030.056782
 20
752.358226
 30
0.0
 11
1030.056782
 21
733.758226
 31
0.0
  0
LINE
  5
98
100
AcDbEntity
  8
LAY-1
  6
EXLTYPE3
 62
     1
100
AcDbLine
 10
994.256782
 20
743.619206
 30
0.0
 11
1067.056782
 21
743.619206
 31
0.0
  0
LINE
  5
99
100
AcDbEntity
  8
LAY-1
  6
EXLTYPE2
 62
     1
100
AcDbLine
 10
1257.056782
 20
668.619206
 30
0.0
 11
1042.056782
 21
668.619206
 31
0.0
  0
LINE
  5
9A
100
AcDbEntity
  8
LAY-1
  6
EXLTYPE3
 62
     1
100
AcDbLine
 10
1080.856782
 20
183.121213
 30
0.0
 11
1038.256782
 21
183.121213
 31
0.0
  0
LINE
  5
9B
100
AcDbEntity
  8
LAY-1
  6
EXLTYPE3
 62
     1
100
AcDbLine
 10
990.256782
 20
183.121213
 30
0.0
 11
1083.256782
 21
183.121213
 31
0.0
  0
LINE
  5
9C
100
AcDbEntity
  8
LAY-1
  6
CONTINUOUS
 62
     2
100
AcDbLine
 10
1072.871195
 20
391.141213
 30
0.0
 11
1075.865791
 21
341.321213
 31
0.0
  0
LINE
  5
9D
100
AcDbEntity
  8
LAY-1
  6
CONTINUOUS
 62
     2
100
AcDbLine
 10
1085.847774
 20
341.321213
 30
0.0
 11
1088.842369
 21
391.141213
 31
0.0
  0
ARC
  5
9E
100
AcDbEntity
  8
LAY-1
  6
CONTINUOUS
 62
     2
100
AcDbCircle
 10
1080.856782
 20
341.621213
 30
0.0
 40
5.0
100
AcDbArc
 50
180.0
 51
358.280094
  0
ARC
  5
9F
100
AcDbEntity
  8
LAY-1
  6
CONTINUOUS
 62
     2
100
AcDbCircle
 10
1080.856782
 20
391.621213
 30
0.0
 40
8.0
100
AcDbArc
 50
356.560187
 51
183.439813
  0
ARC
  5
A0
100
AcDbEntity
  8
LAY-1
  6
CONTINUOUS
 62
     2
100
AcDbCircle
 10
1080.856782
 20
391.621213
 30
0.0
 40
15.0
100
AcDbArc
 50
300.0
 51
240.0
  0
LINE
  5
A1
100
AcDbEntity
  8
LAY-1
  6
CONTINUOUS
 62
     2
100
AcDbLine
 10
1040.856782
 20
220.121213
 30
0.0
 11
1240.556782
 21
220.121213
 31
0.0
  0
LINE
  5
A2
100
AcDbEntity
  8
LAY-1
  6
CONTINUOUS
 62
     2
100
AcDbLine
 10
1076.856782
 20
220.121213
 30
0.0
 11
1258.256782
 21
220.121213
 31
0.0
  0
LINE
  5
A3
100
AcDbEntity
  8
LAY-1
  6
CONTINUOUS
 62
     2
100
AcDbLine
 10
1258.256782
 20
512.121213
 30
0.0
 11
1260.256782
 21
512.121213
 31
0.0
  0
LINE
  5
A4
100
AcDbEntity
  8
LAY-1
  6
CONTINUOUS
 62
     2
100
AcDbLine
 10
1038.856782
 20
512.121213
 30
0.0
 11
1260.256782
 21
512.121213
 31
0.0
  0
LINE
  5
A5
100
AcDbEntity
  8
LAY-1
  6
CONTINUOUS
 62
     2
100
AcDbLine
 10
1257.056782
 20
200.121213
 30
0.0
 11
1257.056782
 21
220.121213
 31
0.0
  0
LINE
  5
A6
100
AcDbEntity
  8
LAY-1
  6
CONTINUOUS
 62
     2
100
AcDbLine
 10
1042.056782
 20
200.121213
 30
0.0
 11
1042.056782
 21
220.121213
 31
0.0
  0
LINE
  5
A7
100
AcDbEntity
  8
LAY-1
  6
CONTINUOUS
 62
     2
100
AcDbLine
 10
1258.256782
 20
200.121213
 30
0.0
 11
1257.056782
 21
200.121213
 31
0.0
  0
LINE
  5
A8
100
AcDbEntity
  8
LAY-1
  6
CONTINUOUS
 62
     2
100
AcDbLine
 10
1042.056782
 20
200.121213
 30
0.0
 11
1040.856782
 21
200.121213
 31
0.0
  0
LINE
  5
A9
100
AcDbEntity
  8
LAY-1
  6
CONTINUOUS
 62
     2
100
AcDbLine
 10
1258.256782
 20
222.121213
 30
0.0
 11
1040.856782
 21
222.121213
 31
0.0
  0
LINE
  5
AA
100
AcDbEntity
  8
LAY-1
  6
CONTINUOUS
 62
     2
100
AcDbLine
 10
1260.256782
 20
481.830776
 30
0.0
 11
1038.856782
 21
481.830776
 31
0.0
  0
LINE
  5
AB
100
AcDbEntity
  8
LAY-1
  6
CONTINUOUS
 62
     2
100
AcDbLine
 10
1260.256782
 20
481.830776
 30
0.0
 11
1260.256782
 21
512.121213
 31
0.0
  0
LINE
  5
AC
100
AcDbEntity
  8
LAY-1
  6
CONTINUOUS
 62
     2
100
AcDbLine
 10
1038.856782
 20
481.830776
 30
0.0
 11
1038.856782
 21
512.121213
 31
0.0
  0
LINE
  5
AD
100
AcDbEntity
  8
LAY-1
  6
CONTINUOUS
 62
     2
100
AcDbLine
 10
1258.256782
 20
477.121213
 30
0.0
 11
1040.856782
 21
477.121213
 31
0.0
  0
LINE
  5
AE
100
AcDbEntity
  8
LAY-1
  6
CONTINUOUS
 62
     2
100
AcDbLine
 10
1258.256782
 20
200.121213
 30
0.0
 11
1258.256782
 21
481.830776
 31
0.0
  0
LINE
  5
AF
100
AcDbEntity
  8
LAY-1
  6
CONTINUOUS
 62
     2
100
AcDbLine
 10
1040.856782
 20
200.121213
 30
0.0
 11
1040.856782
 21
481.830776
 31
0.0
  0
ARC
  5
B0
100
AcDbEntity
  8
LAY-1
  6
CONTINUOUS
 62
     2
100
AcDbCircle
 10
1208.256782
 20
362.121213
 30
0.0
 40
20.0
100
AcDbArc
 50
0.0
 51
90.0
  0
ARC
  5
B1
100
AcDbEntity
  8
LAY-1
  6
CONTINUOUS
 62
     2
100
AcDbCircle
 10
1208.256782
 20
277.121213
 30
0.0
 40
20.0
100
AcDbArc
 50
270.0
 51
0.0
  0
LINE
  5
B2
100
AcDbEntity
  8
LAY-1
  6
CONTINUOUS
 62
     2
100
AcDbLine
 10
1208.256782
 20
257.121213
 30
0.0
 11
1110.856782
 21
257.121213
 31
0.0
  0
ARC
  5
B3
100
AcDbEntity
  8
LAY-1
  6
CONTINUOUS
 62
     2
100
AcDbCircle
 10
1110.856782
 20
277.121213
 30
0.0
 40
20.0
100
AcDbArc
 50
180.0
 51
270.0
  0
LINE
  5
B4
100
AcDbEntity
  8
LAY-1
  6
CONTINUOUS
 62
     2
100
AcDbLine
 10
1228.256782
 20
277.121213
 30
0.0
 11
1228.256782
 21
362.121213
 31
0.0
  0
LINE
  5
B5
100
AcDbEntity
  8
LAY-1
  6
CONTINUOUS
 62
     2
100
AcDbLine
 10
1208.256782
 20
382.121213
 30
0.0
 11
1139.141054
 21
382.121213
 31
0.0
  0
ARC
  5
B6
100
AcDbEntity
  8
LAY-1
  6
CONTINUOUS
 62
     2
100
AcDbCircle
 10
1139.141054
 20
362.121213
 30
0.0
 40
20.0
100
AcDbArc
 50
90.0
 51
135.0
  0
LINE
  5
B7
100
AcDbEntity
  8
LAY-1
  6
CONTINUOUS
 62
     2
100
AcDbLine
 10
1124.998918
 20
376.263348
 30
0.0
 11
1096.714647
 21
347.979077
 31
0.0
  0
LINE
  5
B8
100
AcDbEntity
  8
LAY-1
  6
CONTINUOUS
 62
     2
100
AcDbLine
 10
1090.856782
 20
277.121213
 30
0.0
 11
1090.856782
 21
333.836941
 31
0.0
  0
ARC
  5
B9
100
AcDbEntity
  8
LAY-1
  6
CONTINUOUS
 62
     2
100
AcDbCircle
 10
1110.856782
 20
333.836941
 30
0.0
 40
20.0
100
AcDbArc
 50
135.0
 51
180.0
  0
LINE
  5
BA
100
AcDbEntity
  8
LAY-1
  6
CONTINUOUS
 62
     2
100
AcDbLine
 10
1299.056782
 20
160.121213
 30
0.0
 11
1257.056782
 21
160.121213
 31
0.0
  0
LINE
  5
BB
100
AcDbEntity
  8
LAY-1
  6
CONTINUOUS
 62
     2
100
AcDbLine
 10
1299.056782
 20
164.121213
 30
0.0
 11
1299.056782
 21
160.121213
 31
0.0
  0
LINE
  5
BC
100
AcDbEntity
  8
LAY-1
  6
CONTINUOUS
 62
     2
100
AcDbLine
 10
1257.056782
 20
164.121213
 30
0.0
 11
1299.056782
 21
164.121213
 31
0.0
  0
LINE
  5
BD
100
AcDbEntity
  8
LAY-1
  6
CONTINUOUS
 62
     2
100
AcDbLine
 10
1257.056782
 20
216.121213
 30
0.0
 11
1257.056782
 21
164.121213
 31
0.0
  0
LINE
  5
BE
100
AcDbEntity
  8
LAY-1
  6
CONTINUOUS
 62
     2
100
AcDbLine
 10
1253.056782
 20
164.121213
 30
0.0
 11
1253.056782
 21
216.121213
 31
0.0
  0
ARC
  5
BF
100
AcDbEntity
  8
LAY-1
  6
CONTINUOUS
 62
     2
100
AcDbCircle
 10
1257.056782
 20
164.121213
 30
0.0
 40
4.0
100
AcDbArc
 50
180.0
 51
270.0
  0
ARC
  5
C0
100
AcDbEntity
  8
LAY-1
  6
CONTINUOUS
 62
     2
100
AcDbCircle
 10
1253.056782
 20
216.121213
 30
0.0
 40
4.0
100
AcDbArc
 50
0.0
 51
90.0
  0
LINE
  5
C1
100
AcDbEntity
  8
LAY-1
  6
CONTINUOUS
 62
     2
100
AcDbLine
 10
1046.056782
 20
216.121213
 30
0.0
 11
1046.056782
 21
164.121213
 31
0.0
  0
LINE
  5
C2
100
AcDbEntity
  8
LAY-1
  6
CONTINUOUS
 62
     2
100
AcDbLine
 10
1042.056782
 20
164.121213
 30
0.0
 11
1042.056782
 21
216.121213
 31
0.0
  0
LINE
  5
C3
100
AcDbEntity
  8
LAY-1
  6
CONTINUOUS
 62
     2
100
AcDbLine
 10
1000.056782
 20
164.121213
 30
0.0
 11
1042.056782
 21
164.121213
 31
0.0
  0
LINE
  5
C4
100
AcDbEntity
  8
LAY-1
  6
CONTINUOUS
 62
     2
100
AcDbLine
 10
1000.056782
 20
160.121213
 30
0.0
 11
1000.056782
 21
164.121213
 31
0.0
  0
LINE
  5
C5
100
AcDbEntity
  8
LAY-1
  6
CONTINUOUS
 62
     2
100
AcDbLine
 10
1042.056782
 20
160.121213
 30
0.0
 11
1000.056782
 21
160.121213
 31
0.0
  0
ARC
  5
C6
100
AcDbEntity
  8
LAY-1
  6
CONTINUOUS
 62
     2
100
AcDbCircle
 10
1042.056782
 20
164.121213
 30
0.0
 40
4.0
100
AcDbArc
 50
270.0
 51
0.0
  0
ARC
  5
C7
100
AcDbEntity
  8
LAY-1
  6
CONTINUOUS
 62
     2
100
AcDbCircle
 10
1046.056782
 20
216.121213
 30
0.0
 40
4.0
100
AcDbArc
 50
90.0
 51
180.0
  0
LINE
  5
C8
100
AcDbEntity
  8
LAY-1
  6
CONTINUOUS
 62
     2
100
AcDbLine
 10
1253.056782
 20
216.121213
 30
0.0
 11
1046.056782
 21
216.121213
 31
0.0
  0
LINE
  5
C9
100
AcDbEntity
  8
LAY-1
  6
CONTINUOUS
 62
     2
100
AcDbLine
 10
1046.056782
 20
220.121213
 30
0.0
 11
1253.056782
 21
220.121213
 31
0.0
  0
LINE
  5
CA
100
AcDbEntity
  8
LAY-1
  6
CONTINUOUS
 62
     2
100
AcDbLine
 10
1299.056782
 20
688.619206
 30
0.0
 11
1299.056782
 21
798.619206
 31
0.0
  0
LINE
  5
CB
100
AcDbEntity
  8
LAY-1
  6
CONTINUOUS
 62
     2
100
AcDbLine
 10
1026.456782
 20
767.619206
 30
0.0
 11
1026.987011
 21
768.149434
 31
0.0
  0
LINE
  5
CC
100
AcDbEntity
  8
LAY-1
  6
CONTINUOUS
 62
     2
100
AcDbLine
 10
1026.456782
 20
777.619206
 30
0.0
 11
1026.987011
 21
777.088978
 31
0.0
  0
LINE
  5
CD
100
AcDbEntity
  8
LAY-1
  6
CONTINUOUS
 62
     2
100
AcDbLine
 10
1016.928492
 20
767.119206
 30
0.0
 11
1017.756782
 21
767.119206
 31
0.0
  0
LINE
  5
CE
100
AcDbEntity
  8
LAY-1
  6
CONTINUOUS
 62
     2
100
AcDbLine
 10
1017.756782
 20
778.119206
 30
0.0
 11
1016.928492
 21
778.119206
 31
0.0
  0
LINE
  5
CF
100
AcDbEntity
  8
LAY-1
  6
CONTINUOUS
 62
     2
100
AcDbLine
 10
1026.987011
 20
777.088978
 30
0.0
 11
1029.456782
 21
776.951768
 31
0.0
  0
LINE
  5
D0
100
AcDbEntity
  8
LAY-1
  6
CONTINUOUS
 62
     2
100
AcDbLine
 10
1026.987011
 20
768.149434
 30
0.0
 11
1029.456782
 21
768.286643
 31
0.0
  0
ARC
  5
D1
100
AcDbEntity
  8
LAY-1
  6
CONTINUOUS
 62
     2
100
AcDbCircle
 10
1061.956782
 20
764.619206
 30
0.0
 40
32.5
100
AcDbArc
 50
165.749967
 51
180.0
  0
ARC
  5
D2
100
AcDbEntity
  8
LAY-1
  6
CONTINUOUS
 62
     2
100
AcDbCircle
 10
1037.176782
 20
764.619206
 30
0.0
 40
7.72
100
AcDbArc
 50
180.0
 51
209.487126
  0
LINE
  5
D3
100
AcDbEntity
  8
LAY-1
  6
CONTINUOUS
 62
     2
100
AcDbLine
 10
1030.456782
 20
760.819206
 30
0.0
 11
1042.056782
 21
760.819206
 31
0.0
  0
ARC
  5
D4
100
AcDbEntity
  8
LAY-1
  6
CONTINUOUS
 62
     2
100
AcDbCircle
 10
1061.956782
 20
780.619206
 30
0.0
 40
32.5
100
AcDbArc
 50
180.0
 51
194.250033
  0
ARC
  5
D5
100
AcDbEntity
  8
LAY-1
  6
CONTINUOUS
 62
     2
100
AcDbCircle
 10
1037.176782
 20
780.619206
 30
0.0
 40
7.72
100
AcDbArc
 50
150.512874
 51
180.0
  0
LINE
  5
D6
100
AcDbEntity
  8
LAY-1
  6
CONTINUOUS
 62
     2
100
AcDbLine
 10
1030.456782
 20
784.419206
 30
0.0
 11
1042.056782
 21
784.419206
 31
0.0
  0
LINE
  5
D7
100
AcDbEntity
  8
LAY-1
  6
CONTINUOUS
 62
     2
100
AcDbLine
 10
1029.456782
 20
764.619206
 30
0.0
 11
1029.456782
 21
780.619206
 31
0.0
  0
LINE
  5
D8
100
AcDbEntity
  8
LAY-1
  6
CONTINUOUS
 62
     2
100
AcDbLine
 10
1030.456782
 20
772.619206
 30
0.0
 11
1042.056782
 21
772.619206
 31
0.0
  0
LINE
  5
D9
100
AcDbEntity
  8
LAY-1
  6
CONTINUOUS
 62
     2
100
AcDbLine
 10
1030.456782
 20
760.819206
 30
0.0
 11
1029.456782
 21
760.819206
 31
0.0
  0
LINE
  5
DA
100
AcDbEntity
  8
LAY-1
  6
CONTINUOUS
 62
     2
100
AcDbLine
 10
1030.456782
 20
784.419206
 30
0.0
 11
1029.456782
 21
784.419206
 31
0.0
  0
LINE
  5
DB
100
AcDbEntity
  8
LAY-1
  6
CONTINUOUS
 62
     2
100
AcDbLine
 10
1029.456782
 20
784.419206
 30
0.0
 11
1029.456782
 21
760.819206
 31
0.0
  0
LINE
  5
DC
100
AcDbEntity
  8
LAY-1
  6
CONTINUOUS
 62
     2
100
AcDbLine
 10
1020.456782
 20
764.619206
 30
0.0
 11
1026.456782
 21
764.619206
 31
0.0
  0
LINE
  5
DD
100
AcDbEntity
  8
LAY-1
  6
CONTINUOUS
 62
     2
100
AcDbLine
 10
1020.456782
 20
780.619206
 30
0.0
 11
1026.456782
 21
780.619206
 31
0.0
  0
ARC
  5
DE
100
AcDbEntity
  8
LAY-1
  6
CONTINUOUS
 62
     2
100
AcDbCircle
 10
1042.490677
 20
767.195478
 30
0.0
 40
22.033895
100
AcDbArc
 50
165.749967
 51
180.0
  0
ARC
  5
DF
100
AcDbEntity
  8
LAY-1
  6
CONTINUOUS
 62
     2
100
AcDbCircle
 10
1025.69068
 20
767.195478
 30
0.0
 40
5.233898
100
AcDbArc
 50
180.0
 51
209.487126
  0
ARC
  5
E0
100
AcDbEntity
  8
LAY-1
  6
CONTINUOUS
 62
     2
100
AcDbCircle
 10
1042.490677
 20
778.042934
 30
0.0
 40
22.033895
100
AcDbArc
 50
180.0
 51
194.250033
  0
ARC
  5
E1
100
AcDbEntity
  8
LAY-1
  6
CONTINUOUS
 62
     2
100
AcDbCircle
 10
1025.69068
 20
778.042934
 30
0.0
 40
5.233898
100
AcDbArc
 50
150.512874
 51
180.0
  0
LINE
  5
E2
100
AcDbEntity
  8
LAY-1
  6
CONTINUOUS
 62
     2
100
AcDbLine
 10
1020.456782
 20
767.195478
 30
0.0
 11
1020.456782
 21
778.042934
 31
0.0
  0
LINE
  5
E3
100
AcDbEntity
  8
LAY-1
  6
CONTINUOUS
 62
     2
100
AcDbLine
 10
1021.134748
 20
764.619207
 30
0.0
 11
1020.456782
 21
764.619207
 31
0.0
  0
LINE
  5
E4
100
AcDbEntity
  8
LAY-1
  6
CONTINUOUS
 62
     2
100
AcDbLine
 10
1021.134748
 20
780.619205
 30
0.0
 11
1020.456782
 21
780.619205
 31
0.0
  0
LINE
  5
E5
100
AcDbEntity
  8
LAY-1
  6
CONTINUOUS
 62
     2
100
AcDbLine
 10
1020.456782
 20
780.619205
 30
0.0
 11
1020.456782
 21
764.619207
 31
0.0
  0
LINE
  5
E6
100
AcDbEntity
  8
LAY-1
  6
CONTINUOUS
 62
     2
100
AcDbLine
 10
1020.456782
 20
780.619206
 30
0.0
 11
1020.456782
 21
764.619206
 31
0.0
  0
LINE
  5
E7
100
AcDbEntity
  8
LAY-1
  6
CONTINUOUS
 62
     2
100
AcDbLine
 10
1026.456782
 20
780.619206
 30
0.0
 11
1026.456782
 21
764.619206
 31
0.0
  0
LINE
  5
E8
100
AcDbEntity
  8
LAY-1
  6
CONTINUOUS
 62
     2
100
AcDbLine
 10
1021.134748
 20
772.619206
 30
0.0
 11
1026.456782
 21
772.619206
 31
0.0
  0
LINE
  5
E9
100
AcDbEntity
  8
LAY-1
  6
CONTINUOUS
 62
     2
100
AcDbLine
 10
1017.956782
 20
777.919206
 30
0.0
 11
1017.956782
 21
767.319206
 31
0.0
  0
LINE
  5
EA
100
AcDbEntity
  8
LAY-1
  6
CONTINUOUS
 62
     2
100
AcDbLine
 10
1020.456782
 20
767.319206
 30
0.0
 11
1017.956782
 21
767.319206
 31
0.0
  0
LINE
  5
EB
100
AcDbEntity
  8
LAY-1
  6
CONTINUOUS
 62
     2
100
AcDbLine
 10
1020.456782
 20
777.919206
 30
0.0
 11
1017.956782
 21
777.919206
 31
0.0
  0
LINE
  5
EC
100
AcDbEntity
  8
LAY-1
  6
CONTINUOUS
 62
     2
100
AcDbLine
 10
1026.987011
 20
768.149434
 30
0.0
 11
1026.987011
 21
767.648663
 31
0.0
  0
LINE
  5
ED
100
AcDbEntity
  8
LAY-1
  6
CONTINUOUS
 62
     2
100
AcDbLine
 10
1026.987011
 20
767.648663
 30
0.0
 11
1026.987011
 21
777.589749
 31
0.0
  0
ARC
  5
EE
100
AcDbEntity
  8
LAY-1
  6
CONTINUOUS
 62
     2
100
AcDbCircle
 10
1024.962942
 20
767.195478
 30
0.0
 40
22.033895
100
AcDbArc
 50
165.749967
 51
180.0
  0
ARC
  5
EF
100
AcDbEntity
  8
LAY-1
  6
CONTINUOUS
 62
     2
100
AcDbCircle
 10
1008.162945
 20
767.195478
 30
0.0
 40
5.233898
100
AcDbArc
 50
180.0
 51
209.487126
  0
ARC
  5
F0
100
AcDbEntity
  8
LAY-1
  6
CONTINUOUS
 62
     2
100
AcDbCircle
 10
1024.962942
 20
778.042934
 30
0.0
 40
22.033895
100
AcDbArc
 50
180.0
 51
194.250033
  0
ARC
  5
F1
100
AcDbEntity
  8
LAY-1
  6
CONTINUOUS
 62
     2
100
AcDbCircle
 10
1008.162945
 20
778.042934
 30
0.0
 40
5.233898
100
AcDbArc
 50
150.512874
 51
180.0
  0
LINE
  5
F2
100
AcDbEntity
  8
LAY-1
  6
CONTINUOUS
 62
     2
100
AcDbLine
 10
1002.929047
 20
767.195478
 30
0.0
 11
1002.929047
 21
778.042934
 31
0.0
  0
LINE
  5
F3
100
AcDbEntity
  8
LAY-1
  6
CONTINUOUS
 62
     2
100
AcDbLine
 10
1003.607013
 20
764.619207
 30
0.0
 11
1002.929047
 21
764.619207
 31
0.0
  0
LINE
  5
F4
100
AcDbEntity
  8
LAY-1
  6
CONTINUOUS
 62
     2
100
AcDbLine
 10
1003.607013
 20
780.619205
 30
0.0
 11
1002.929047
 21
780.619205
 31
0.0
  0
LINE
  5
F5
100
AcDbEntity
  8
LAY-1
  6
CONTINUOUS
 62
     2
100
AcDbLine
 10
1002.929047
 20
780.619205
 30
0.0
 11
1002.929047
 21
764.619207
 31
0.0
  0
LINE
  5
F6
100
AcDbEntity
  8
LAY-1
  6
CONTINUOUS
 62
     2
100
AcDbLine
 10
1002.929047
 20
780.619206
 30
0.0
 11
1002.929047
 21
764.619206
 31
0.0
  0
ARC
  5
F7
100
AcDbEntity
  8
LAY-1
  6
CONTINUOUS
 62
     2
100
AcDbCircle
 10
994.895152
 20
778.042934
 30
0.0
 40
22.033895
100
AcDbArc
 50
345.749967
 51
0.0
  0
ARC
  5
F8
100
AcDbEntity
  8
LAY-1
  6
CONTINUOUS
 62
     2
100
AcDbCircle
 10
1011.69515
 20
778.042934
 30
0.0
 40
5.233898
100
AcDbArc
 50
0.0
 51
29.487126
  0
ARC
  5
F9
100
AcDbEntity
  8
LAY-1
  6
CONTINUOUS
 62
     2
100
AcDbCircle
 10
994.895152
 20
767.195478
 30
0.0
 40
22.033895
100
AcDbArc
 50
0.0
 51
14.250033
  0
ARC
  5
FA
100
AcDbEntity
  8
LAY-1
  6
CONTINUOUS
 62
     2
100
AcDbCircle
 10
1011.69515
 20
767.195478
 30
0.0
 40
5.233898
100
AcDbArc
 50
330.512874
 51
0.0
  0
LINE
  5
FB
100
AcDbEntity
  8
LAY-1
  6
CONTINUOUS
 62
     2
100
AcDbLine
 10
1016.929047
 20
778.042934
 30
0.0
 11
1016.929047
 21
767.195478
 31
0.0
  0
LINE
  5
FC
100
AcDbEntity
  8
LAY-1
  6
CONTINUOUS
 62
     2
100
AcDbLine
 10
1016.251081
 20
780.619205
 30
0.0
 11
1016.929047
 21
780.619205
 31
0.0
  0
LINE
  5
FD
100
AcDbEntity
  8
LAY-1
  6
CONTINUOUS
 62
     2
100
AcDbLine
 10
1016.251081
 20
764.619207
 30
0.0
 11
1016.929047
 21
764.619207
 31
0.0
  0
LINE
  5
FE
100
AcDbEntity
  8
LAY-1
  6
CONTINUOUS
 62
     2
100
AcDbLine
 10
1016.929047
 20
764.619207
 30
0.0
 11
1016.929047
 21
780.619205
 31
0.0
  0
LINE
  5
FF
100
AcDbEntity
  8
LAY-1
  6
CONTINUOUS
 62
     2
100
AcDbLine
 10
1016.929047
 20
764.619206
 30
0.0
 11
1016.929047
 21
780.619206
 31
0.0
  0
LINE
  5
100
100
AcDbEntity
  8
LAY-1
  6
CONTINUOUS
 62
     2
100
AcDbLine
 10
1003.607013
 20
764.619207
 30
0.0
 11
1016.251081
 21
764.619207
 31
0.0
  0
LINE
  5
101
100
AcDbEntity
  8
LAY-1
  6
CONTINUOUS
 62
     2
100
AcDbLine
 10
1016.251081
 20
780.619205
 30
0.0
 11
1003.607013
 21
780.619205
 31
0.0
  0
LINE
  5
102
100
AcDbEntity
  8
LAY-1
  6
CONTINUOUS
 62
     2
100
AcDbLine
 10
1017.956782
 20
767.319206
 30
0.0
 11
1016.929047
 21
766.291471
 31
0.0
  0
LINE
  5
103
100
AcDbEntity
  8
LAY-1
  6
CONTINUOUS
 62
     2
100
AcDbLine
 10
1017.956782
 20
777.919206
 30
0.0
 11
1016.929047
 21
778.946941
 31
0.0
  0
LINE
  5
104
100
AcDbEntity
  8
LAY-1
  6
CONTINUOUS
 62
     2
100
AcDbLine
 10
1003.607013
 20
772.619206
 30
0.0
 11
1016.251081
 21
772.619206
 31
0.0
  0
LINE
  5
105
100
AcDbEntity
  8
LAY-1
  6
CONTINUOUS
 62
     2
100
AcDbLine
 10
1026.456782
 20
767.619206
 30
0.0
 11
1029.456782
 21
767.785872
 31
0.0
  0
LINE
  5
106
100
AcDbEntity
  8
LAY-1
  6
CONTINUOUS
 62
     2
100
AcDbLine
 10
1026.456782
 20
777.619206
 30
0.0
 11
1029.456782
 21
777.452539
 31
0.0
  0
LINE
  5
107
100
AcDbEntity
  8
LAY-1
  6
CONTINUOUS
 62
     2
100
AcDbLine
 10
1026.456782
 20
709.619206
 30
0.0
 11
1026.987011
 21
710.149434
 31
0.0
  0
LINE
  5
108
100
AcDbEntity
  8
LAY-1
  6
CONTINUOUS
 62
     2
100
AcDbLine
 10
1026.456782
 20
719.619206
 30
0.0
 11
1026.987011
 21
719.088978
 31
0.0
  0
LINE
  5
109
100
AcDbEntity
  8
LAY-1
  6
CONTINUOUS
 62
     2
100
AcDbLine
 10
1016.928492
 20
709.119206
 30
0.0
 11
1017.756782
 21
709.119206
 31
0.0
  0
LINE
  5
10A
100
AcDbEntity
  8
LAY-1
  6
CONTINUOUS
 62
     2
100
AcDbLine
 10
1017.756782
 20
720.119206
 30
0.0
 11
1016.928492
 21
720.119206
 31
0.0
  0
LINE
  5
10B
100
AcDbEntity
  8
LAY-1
  6
CONTINUOUS
 62
     2
100
AcDbLine
 10
1026.987011
 20
719.088978
 30
0.0
 11
1029.456782
 21
718.951768
 31
0.0
  0
LINE
  5
10C
100
AcDbEntity
  8
LAY-1
  6
CONTINUOUS
 62
     2
100
AcDbLine
 10
1026.987011
 20
710.149434
 30
0.0
 11
1029.456782
 21
710.286643
 31
0.0
  0
ARC
  5
10D
100
AcDbEntity
  8
LAY-1
  6
CONTINUOUS
 62
     2
100
AcDbCircle
 10
1061.956782
 20
706.619206
 30
0.0
 40
32.5
100
AcDbArc
 50
165.749967
 51
180.0
  0
ARC
  5
10E
100
AcDbEntity
  8
LAY-1
  6
CONTINUOUS
 62
     2
100
AcDbCircle
 10
1037.176782
 20
706.619206
 30
0.0
 40
7.72
100
AcDbArc
 50
180.0
 51
209.487126
  0
LINE
  5
10F
100
AcDbEntity
  8
LAY-1
  6
CONTINUOUS
 62
     2
100
AcDbLine
 10
1030.456782
 20
702.819206
 30
0.0
 11
1042.056782
 21
702.819206
 31
0.0
  0
ARC
  5
110
100
AcDbEntity
  8
LAY-1
  6
CONTINUOUS
 62
     2
100
AcDbCircle
 10
1061.956782
 20
722.619206
 30
0.0
 40
32.5
100
AcDbArc
 50
180.0
 51
194.250033
  0
ARC
  5
111
100
AcDbEntity
  8
LAY-1
  6
CONTINUOUS
 62
     2
100
AcDbCircle
 10
1037.176782
 20
722.619206
 30
0.0
 40
7.72
100
AcDbArc
 50
150.512874
 51
180.0
  0
LINE
  5
112
100
AcDbEntity
  8
LAY-1
  6
CONTINUOUS
 62
     2
100
AcDbLine
 10
1030.456782
 20
726.419206
 30
0.0
 11
1042.056782
 21
726.419206
 31
0.0
  0
LINE
  5
113
100
AcDbEntity
  8
LAY-1
  6
CONTINUOUS
 62
     2
100
AcDbLine
 10
1029.456782
 20
706.619206
 30
0.0
 11
1029.456782
 21
722.619206
 31
0.0
  0
LINE
  5
114
100
AcDbEntity
  8
LAY-1
  6
CONTINUOUS
 62
     2
100
AcDbLine
 10
1030.456782
 20
714.619206
 30
0.0
 11
1042.056782
 21
714.619206
 31
0.0
  0
LINE
  5
115
100
AcDbEntity
  8
LAY-1
  6
CONTINUOUS
 62
     2
100
AcDbLine
 10
1030.456782
 20
702.819206
 30
0.0
 11
1029.456782
 21
702.819206
 31
0.0
  0
LINE
  5
116
100
AcDbEntity
  8
LAY-1
  6
CONTINUOUS
 62
     2
100
AcDbLine
 10
1030.456782
 20
726.419206
 30
0.0
 11
1029.456782
 21
726.419206
 31
0.0
  0
LINE
  5
117
100
AcDbEntity
  8
LAY-1
  6
CONTINUOUS
 62
     2
100
AcDbLine
 10
1029.456782
 20
726.419206
 30
0.0
 11
1029.456782
 21
702.819206
 31
0.0
  0
LINE
  5
118
100
AcDbEntity
  8
LAY-1
  6
CONTINUOUS
 62
     2
100
AcDbLine
 10
1020.456782
 20
706.619206
 30
0.0
 11
1026.456782
 21
706.619206
 31
0.0
  0
LINE
  5
119
100
AcDbEntity
  8
LAY-1
  6
CONTINUOUS
 62
     2
100
AcDbLine
 10
1020.456782
 20
722.619206
 30
0.0
 11
1026.456782
 21
722.619206
 31
0.0
  0
ARC
  5
11A
100
AcDbEntity
  8
LAY-1
  6
CONTINUOUS
 62
     2
100
AcDbCircle
 10
1042.490677
 20
709.195478
 30
0.0
 40
22.033895
100
AcDbArc
 50
165.749967
 51
180.0
  0
ARC
  5
11B
100
AcDbEntity
  8
LAY-1
  6
CONTINUOUS
 62
     2
100
AcDbCircle
 10
1025.69068
 20
709.195478
 30
0.0
 40
5.233898
100
AcDbArc
 50
180.0
 51
209.487126
  0
ARC
  5
11C
100
AcDbEntity
  8
LAY-1
  6
CONTINUOUS
 62
     2
100
AcDbCircle
 10
1042.490677
 20
720.042934
 30
0.0
 40
22.033895
100
AcDbArc
 50
180.0
 51
194.250033
  0
ARC
  5
11D
100
AcDbEntity
  8
LAY-1
  6
CONTINUOUS
 62
     2
100
AcDbCircle
 10
1025.69068
 20
720.042934
 30
0.0
 40
5.233898
100
AcDbArc
 50
150.512874
 51
180.0
  0
LINE
  5
11E
100
AcDbEntity
  8
LAY-1
  6
CONTINUOUS
 62
     2
100
AcDbLine
 10
1020.456782
 20
709.195478
 30
0.0
 11
1020.456782
 21
720.042934
 31
0.0
  0
LINE
  5
11F
100
AcDbEntity
  8
LAY-1
  6
CONTINUOUS
 62
     2
100
AcDbLine
 10
1021.134748
 20
706.619207
 30
0.0
 11
1020.456782
 21
706.619207
 31
0.0
  0
LINE
  5
120
100
AcDbEntity
  8
LAY-1
  6
CONTINUOUS
 62
     2
100
AcDbLine
 10
1021.134748
 20
722.619205
 30
0.0
 11
1020.456782
 21
722.619205
 31
0.0
  0
LINE
  5
121
100
AcDbEntity
  8
LAY-1
  6
CONTINUOUS
 62
     2
100
AcDbLine
 10
1020.456782
 20
722.619205
 30
0.0
 11
1020.456782
 21
706.619207
 31
0.0
  0
LINE
  5
122
100
AcDbEntity
  8
LAY-1
  6
CONTINUOUS
 62
     2
100
AcDbLine
 10
1020.456782
 20
722.619206
 30
0.0
 11
1020.456782
 21
706.619206
 31
0.0
  0
LINE
  5
123
100
AcDbEntity
  8
LAY-1
  6
CONTINUOUS
 62
     2
100
AcDbLine
 10
1026.456782
 20
722.619206
 30
0.0
 11
1026.456782
 21
706.619206
 31
0.0
  0
LINE
  5
124
100
AcDbEntity
  8
LAY-1
  6
CONTINUOUS
 62
     2
100
AcDbLine
 10
1021.134748
 20
714.619206
 30
0.0
 11
1026.456782
 21
714.619206
 31
0.0
  0
LINE
  5
125
100
AcDbEntity
  8
LAY-1
  6
CONTINUOUS
 62
     2
100
AcDbLine
 10
1017.956782
 20
719.919206
 30
0.0
 11
1017.956782
 21
709.319206
 31
0.0
  0
LINE
  5
126
100
AcDbEntity
  8
LAY-1
  6
CONTINUOUS
 62
     2
100
AcDbLine
 10
1020.456782
 20
709.319206
 30
0.0
 11
1017.956782
 21
709.319206
 31
0.0
  0
LINE
  5
127
100
AcDbEntity
  8
LAY-1
  6
CONTINUOUS
 62
     2
100
AcDbLine
 10
1020.456782
 20
719.919206
 30
0.0
 11
1017.956782
 21
719.919206
 31
0.0
  0
LINE
  5
128
100
AcDbEntity
  8
LAY-1
  6
CONTINUOUS
 62
     2
100
AcDbLine
 10
1026.987011
 20
710.149434
 30
0.0
 11
1026.987011
 21
709.648663
 31
0.0
  0
LINE
  5
129
100
AcDbEntity
  8
LAY-1
  6
CONTINUOUS
 62
     2
100
AcDbLine
 10
1026.987011
 20
709.648663
 30
0.0
 11
1026.987011
 21
719.589749
 31
0.0
  0
ARC
  5
12A
100
AcDbEntity
  8
LAY-1
  6
CONTINUOUS
 62
     2
100
AcDbCircle
 10
1024.962942
 20
709.195478
 30
0.0
 40
22.033895
100
AcDbArc
 50
165.749967
 51
180.0
  0
ARC
  5
12B
100
AcDbEntity
  8
LAY-1
  6
CONTINUOUS
 62
     2
100
AcDbCircle
 10
1008.162945
 20
709.195478
 30
0.0
 40
5.233898
100
AcDbArc
 50
180.0
 51
209.487126
  0
ARC
  5
12C
100
AcDbEntity
  8
LAY-1
  6
CONTINUOUS
 62
     2
100
AcDbCircle
 10
1024.962942
 20
720.042934
 30
0.0
 40
22.033895
100
AcDbArc
 50
180.0
 51
194.250033
  0
ARC
  5
12D
100
AcDbEntity
  8
LAY-1
  6
CONTINUOUS
 62
     2
100
AcDbCircle
 10
1008.162945
 20
720.042934
 30
0.0
 40
5.233898
100
AcDbArc
 50
150.512874
 51
180.0
  0
LINE
  5
12E
100
AcDbEntity
  8
LAY-1
  6
CONTINUOUS
 62
     2
100
AcDbLine
 10
1002.929047
 20
709.195478
 30
0.0
 11
1002.929047
 21
720.042934
 31
0.0
  0
LINE
  5
12F
100
AcDbEntity
  8
LAY-1
  6
CONTINUOUS
 62
     2
100
AcDbLine
 10
1003.607013
 20
706.619207
 30
0.0
 11
1002.929047
 21
706.619207
 31
0.0
  0
LINE
  5
130
100
AcDbEntity
  8
LAY-1
  6
CONTINUOUS
 62
     2
100
AcDbLine
 10
1003.607013
 20
722.619205
 30
0.0
 11
1002.929047
 21
722.619205
 31
0.0
  0
LINE
  5
131
100
AcDbEntity
  8
LAY-1
  6
CONTINUOUS
 62
     2
100
AcDbLine
 10
1002.929047
 20
722.619205
 30
0.0
 11
1002.929047
 21
706.619207
 31
0.0
  0
LINE
  5
132
100
AcDbEntity
  8
LAY-1
  6
CONTINUOUS
 62
     2
100
AcDbLine
 10
1002.929047
 20
722.619206
 30
0.0
 11
1002.929047
 21
706.619206
 31
0.0
  0
ARC
  5
133
100
AcDbEntity
  8
LAY-1
  6
CONTINUOUS
 62
     2
100
AcDbCircle
 10
994.895152
 20
720.042934
 30
0.0
 40
22.033895
100
AcDbArc
 50
345.749967
 51
0.0
  0
ARC
  5
134
100
AcDbEntity
  8
LAY-1
  6
CONTINUOUS
 62
     2
100
AcDbCircle
 10
1011.69515
 20
720.042934
 30
0.0
 40
5.233898
100
AcDbArc
 50
0.0
 51
29.487126
  0
ARC
  5
135
100
AcDbEntity
  8
LAY-1
  6
CONTINUOUS
 62
     2
100
AcDbCircle
 10
994.895152
 20
709.195478
 30
0.0
 40
22.033895
100
AcDbArc
 50
0.0
 51
14.250033
  0
ARC
  5
136
100
AcDbEntity
  8
LAY-1
  6
CONTINUOUS
 62
     2
100
AcDbCircle
 10
1011.69515
 20
709.195478
 30
0.0
 40
5.233898
100
AcDbArc
 50
330.512874
 51
0.0
  0
LINE
  5
137
100
AcDbEntity
  8
LAY-1
  6
CONTINUOUS
 62
     2
100
AcDbLine
 10
1016.929047
 20
720.042934
 30
0.0
 11
1016.929047
 21
709.195478
 31
0.0
  0
LINE
  5
138
100
AcDbEntity
  8
LAY-1
  6
CONTINUOUS
 62
     2
100
AcDbLine
 10
1016.251081
 20
722.619205
 30
0.0
 11
1016.929047
 21
722.619205
 31
0.0
  0
LINE
  5
139
100
AcDbEntity
  8
LAY-1
  6
CONTINUOUS
 62
     2
100
AcDbLine
 10
1016.251081
 20
706.619207
 30
0.0
 11
1016.929047
 21
706.619207
 31
0.0
  0
LINE
  5
13A
100
AcDbEntity
  8
LAY-1
  6
CONTINUOUS
 62
     2
100
AcDbLine
 10
1016.929047
 20
706.619207
 30
0.0
 11
1016.929047
 21
722.619205
 31
0.0
  0
LINE
  5
13B
100
AcDbEntity
  8
LAY-1
  6
CONTINUOUS
 62
     2
100
AcDbLine
 10
1016.929047
 20
706.619206
 30
0.0
 11
1016.929047
 21
722.619206
 31
0.0
  0
LINE
  5
13C
100
AcDbEntity
  8
LAY-1
  6
CONTINUOUS
 62
     2
100
AcDbLine
 10
1003.607013
 20
706.619207
 30
0.0
 11
1016.251081
 21
706.619207
 31
0.0
  0
LINE
  5
13D
100
AcDbEntity
  8
LAY-1
  6
CONTINUOUS
 62
     2
100
AcDbLine
 10
1016.251081
 20
722.619205
 30
0.0
 11
1003.607013
 21
722.619205
 31
0.0
  0
LINE
  5
13E
100
AcDbEntity
  8
LAY-1
  6
CONTINUOUS
 62
     2
100
AcDbLine
 10
1017.956782
 20
709.319206
 30
0.0
 11
1016.929047
 21
708.291471
 31
0.0
  0
LINE
  5
13F
100
AcDbEntity
  8
LAY-1
  6
CONTINUOUS
 62
     2
100
AcDbLine
 10
1017.956782
 20
719.919206
 30
0.0
 11
1016.929047
 21
720.946941
 31
0.0
  0
LINE
  5
140
100
AcDbEntity
  8
LAY-1
  6
CONTINUOUS
 62
     2
100
AcDbLine
 10
1003.607013
 20
714.619206
 30
0.0
 11
1016.251081
 21
714.619206
 31
0.0
  0
LINE
  5
141
100
AcDbEntity
  8
LAY-1
  6
CONTINUOUS
 62
     2
100
AcDbLine
 10
1026.456782
 20
709.619206
 30
0.0
 11
1029.456782
 21
709.785872
 31
0.0
  0
LINE
  5
142
100
AcDbEntity
  8
LAY-1
  6
CONTINUOUS
 62
     2
100
AcDbLine
 10
1026.456782
 20
719.619206
 30
0.0
 11
1029.456782
 21
719.452539
 31
0.0
  0
LINE
  5
143
100
AcDbEntity
  8
LAY-1
  6
CONTINUOUS
 62
     2
100
AcDbLine
 10
1000.056782
 20
688.619206
 30
0.0
 11
1000.056782
 21
798.619206
 31
0.0
  0
ARC
  5
144
100
AcDbEntity
  8
LAY-1
  6
CONTINUOUS
 62
     2
100
AcDbCircle
 10
1284.056782
 20
783.619206
 30
0.0
 40
6.5
100
AcDbArc
 50
180.0
 51
0.0
  0
ARC
  5
145
100
AcDbEntity
  8
LAY-1
  6
CONTINUOUS
 62
     2
100
AcDbCircle
 10
1284.056782
 20
703.619206
 30
0.0
 40
6.5
100
AcDbArc
 50
0.0
 51
180.0
  0
LINE
  5
146
100
AcDbEntity
  8
LAY-1
  6
CONTINUOUS
 62
     2
100
AcDbLine
 10
1290.556782
 20
796.619206
 30
0.0
 11
1290.556782
 21
783.619206
 31
0.0
  0
LINE
  5
147
100
AcDbEntity
  8
LAY-1
  6
CONTINUOUS
 62
     2
100
AcDbLine
 10
1277.556782
 20
796.619206
 30
0.0
 11
1277.556782
 21
783.619206
 31
0.0
  0
LINE
  5
148
100
AcDbEntity
  8
LAY-1
  6
CONTINUOUS
 62
     2
100
AcDbLine
 10
1290.556782
 20
690.619206
 30
0.0
 11
1290.556782
 21
703.619206
 31
0.0
  0
LINE
  5
149
100
AcDbEntity
  8
LAY-1
  6
CONTINUOUS
 62
     2
100
AcDbLine
 10
1277.556782
 20
690.619206
 30
0.0
 11
1277.556782
 21
703.619206
 31
0.0
  0
LINE
  5
14A
100
AcDbEntity
  8
LAY-1
  6
CONTINUOUS
 62
     2
100
AcDbLine
 10
1275.556782
 20
798.619206
 30
0.0
 11
1277.556782
 21
796.619206
 31
0.0
  0
LINE
  5
14B
100
AcDbEntity
  8
LAY-1
  6
CONTINUOUS
 62
     2
100
AcDbLine
 10
1290.556782
 20
796.619206
 30
0.0
 11
1292.556782
 21
798.619206
 31
0.0
  0
LINE
  5
14C
100
AcDbEntity
  8
LAY-1
  6
CONTINUOUS
 62
     2
100
AcDbLine
 10
1290.556782
 20
690.619206
 30
0.0
 11
1292.556782
 21
688.619206
 31
0.0
  0
LINE
  5
14D
100
AcDbEntity
  8
LAY-1
  6
CONTINUOUS
 62
     2
100
AcDbLine
 10
1277.556782
 20
690.619206
 30
0.0
 11
1275.556782
 21
688.619206
 31
0.0
  0
LINE
  5
14E
100
AcDbEntity
  8
LAY-1
  6
CONTINUOUS
 62
     2
100
AcDbLine
 10
1299.056782
 20
798.619206
 30
0.0
 11
1292.556782
 21
798.619206
 31
0.0
  0
LINE
  5
14F
100
AcDbEntity
  8
LAY-1
  6
CONTINUOUS
 62
     2
100
AcDbLine
 10
1275.556782
 20
798.619206
 30
0.0
 11
1000.056782
 21
798.619206
 31
0.0
  0
LINE
  5
150
100
AcDbEntity
  8
LAY-1
  6
CONTINUOUS
 62
     2
100
AcDbLine
 10
1299.056782
 20
688.619206
 30
0.0
 11
1292.556782
 21
688.619206
 31
0.0
  0
LINE
  5
151
100
AcDbEntity
  8
LAY-1
  6
CONTINUOUS
 62
     2
100
AcDbLine
 10
1030.056782
 20
737.119206
 30
0.0
 11
1015.056782
 21
737.119206
 31
0.0
  0
LINE
  5
152
100
AcDbEntity
  8
LAY-1
  6
CONTINUOUS
 62
     2
100
AcDbLine
 10
1030.056782
 20
750.119206
 30
0.0
 11
1015.056782
 21
750.119206
 31
0.0
  0
ARC
  5
153
100
AcDbEntity
  8
LAY-1
  6
CONTINUOUS
 62
     2
100
AcDbCircle
 10
1030.056782
 20
743.619206
 30
0.0
 40
6.5
100
AcDbArc
 50
270.0
 51
90.0
  0
ARC
  5
154
100
AcDbEntity
  8
LAY-1
  6
CONTINUOUS
 62
     2
100
AcDbCircle
 10
1015.056782
 20
743.619206
 30
0.0
 40
6.5
100
AcDbArc
 50
90.0
 51
270.0
  0
LINE
  5
155
100
AcDbEntity
  8
LAY-1
  6
CONTINUOUS
 62
     2
100
AcDbLine
 10
1257.056782
 20
652.258816
 30
0.0
 11
1257.056782
 21
798.619206
 31
0.0
  0
LINE
  5
156
100
AcDbEntity
  8
LAY-1
  6
CONTINUOUS
 62
     2
100
AcDbLine
 10
1042.056782
 20
652.258816
 30
0.0
 11
1042.056782
 21
798.619206
 31
0.0
  0
LINE
  5
157
100
AcDbEntity
  8
LAY-1
  6
CONTINUOUS
 62
     2
100
AcDbLine
 10
1042.056782
 20
652.258816
 30
0.0
 11
1257.056782
 21
652.258816
 31
0.0
  0
LINE
  5
158
100
AcDbEntity
  8
LAY-1
  6
CONTINUOUS
 62
     2
100
AcDbLine
 10
1275.556782
 20
688.619206
 30
0.0
 11
1257.056782
 21
688.619206
 31
0.0
  0
LINE
  5
159
100
AcDbEntity
  8
LAY-1
  6
CONTINUOUS
 62
     2
100
AcDbLine
 10
1042.056782
 20
688.619206
 30
0.0
 11
1000.056782
 21
688.619206
 31
0.0
  0
LINE
  5
15A
100
AcDbEntity
  8
LAY-1
  6
CONTINUOUS
 62
     2
100
AcDbLine
 10
1055.056782
 20
188.121213
 30
0.0
 11
1054.526554
 21
187.590984
 31
0.0
  0
LINE
  5
15B
100
AcDbEntity
  8
LAY-1
  6
CONTINUOUS
 62
     2
100
AcDbLine
 10
1055.056782
 20
178.121213
 30
0.0
 11
1054.526554
 21
178.651441
 31
0.0
  0
LINE
  5
15C
100
AcDbEntity
  8
LAY-1
  6
CONTINUOUS
 62
     2
100
AcDbLine
 10
1054.526554
 20
178.651441
 30
0.0
 11
1051.056782
 21
178.844206
 31
0.0
  0
LINE
  5
15D
100
AcDbEntity
  8
LAY-1
  6
CONTINUOUS
 62
     2
100
AcDbLine
 10
1054.526554
 20
187.590984
 30
0.0
 11
1051.056782
 21
187.398219
 31
0.0
  0
LINE
  5
15E
100
AcDbEntity
  8
LAY-1
  6
CONTINUOUS
 62
     2
100
AcDbLine
 10
1055.066782
 20
188.121213
 30
0.0
 11
1054.536554
 21
187.590984
 31
0.0
  0
LINE
  5
15F
100
AcDbEntity
  8
LAY-1
  6
CONTINUOUS
 62
     2
100
AcDbLine
 10
1055.066782
 20
178.121213
 30
0.0
 11
1054.536554
 21
178.651441
 31
0.0
  0
ARC
  5
160
100
AcDbEntity
  8
LAY-1
  6
CONTINUOUS
 62
     2
100
AcDbCircle
 10
1042.052095
 20
173.586838
 30
0.0
 40
9.004687
100
AcDbArc
 50
0.0
 51
25.057615
  0
ARC
  5
161
100
AcDbEntity
  8
LAY-1
  6
CONTINUOUS
 62
     2
100
AcDbCircle
 10
1048.487798
 20
173.586838
 30
0.0
 40
2.568984
100
AcDbArc
 50
312.075022
 51
0.0
  0
ARC
  5
162
100
AcDbEntity
  8
LAY-1
  6
CONTINUOUS
 62
     2
100
AcDbCircle
 10
1031.325923
 20
183.121213
 30
0.0
 40
19.730859
100
AcDbArc
 50
343.146062
 51
0.0
  0
ARC
  5
163
100
AcDbEntity
  8
LAY-1
  6
CONTINUOUS
 62
     2
100
AcDbCircle
 10
1031.325923
 20
183.121213
 30
0.0
 40
19.730859
100
AcDbArc
 50
0.0
 51
16.853938
  0
ARC
  5
164
100
AcDbEntity
  8
LAY-1
  6
CONTINUOUS
 62
     2
100
AcDbCircle
 10
1042.052095
 20
192.655588
 30
0.0
 40
9.004687
100
AcDbArc
 50
334.942385
 51
0.0
  0
ARC
  5
165
100
AcDbEntity
  8
LAY-1
  6
CONTINUOUS
 62
     2
100
AcDbCircle
 10
1048.487798
 20
192.655588
 30
0.0
 40
2.568984
100
AcDbArc
 50
0.0
 51
47.924978
  0
LINE
  5
166
100
AcDbEntity
  8
LAY-1
  6
CONTINUOUS
 62
     2
100
AcDbLine
 10
1051.056782
 20
173.586838
 30
0.0
 11
1051.056782
 21
192.655588
 31
0.0
  0
LINE
  5
167
100
AcDbEntity
  8
LAY-1
  6
CONTINUOUS
 62
     2
100
AcDbLine
 10
1054.526554
 20
187.590984
 30
0.0
 11
1054.526554
 21
188.091755
 31
0.0
  0
LINE
  5
168
100
AcDbEntity
  8
LAY-1
  6
CONTINUOUS
 62
     2
100
AcDbLine
 10
1055.056782
 20
190.121213
 30
0.0
 11
1055.056782
 21
176.121213
 31
0.0
  0
LINE
  5
169
100
AcDbEntity
  8
LAY-1
  6
CONTINUOUS
 62
     2
100
AcDbLine
 10
1055.056782
 20
176.121213
 30
0.0
 11
1068.056782
 21
176.121213
 31
0.0
  0
ARC
  5
16A
100
AcDbEntity
  8
LAY-1
  6
CONTINUOUS
 62
     2
100
AcDbCircle
 10
1068.056782
 20
183.121213
 30
0.0
 40
7.0
100
AcDbArc
 50
270.0
 51
0.0
  0
LINE
  5
16B
100
AcDbEntity
  8
LAY-1
  6
CONTINUOUS
 62
     2
100
AcDbLine
 10
1060.556782
 20
190.121213
 30
0.0
 11
1055.056782
 21
190.121213
 31
0.0
  0
ARC
  5
16C
100
AcDbEntity
  8
LAY-1
  6
CONTINUOUS
 62
     2
100
AcDbCircle
 10
1060.556782
 20
190.621213
 30
0.0
 40
0.5
100
AcDbArc
 50
270.0
 51
0.0
  0
LINE
  5
16D
100
AcDbEntity
  8
LAY-1
  6
CONTINUOUS
 62
     2
100
AcDbLine
 10
1069.556782
 20
188.621213
 30
0.0
 11
1065.299423
 21
188.621213
 31
0.0
  0
LINE
  5
16E
100
AcDbEntity
  8
LAY-1
  6
CONTINUOUS
 62
     2
100
AcDbLine
 10
1069.556782
 20
181.621213
 30
0.0
 11
1069.556782
 21
188.621213
 31
0.0
  0
LINE
  5
16F
100
AcDbEntity
  8
LAY-1
  6
CONTINUOUS
 62
     2
100
AcDbLine
 10
1062.556782
 20
185.878572
 30
0.0
 11
1062.556782
 21
181.621213
 31
0.0
  0
LINE
  5
170
100
AcDbEntity
  8
LAY-1
  6
CONTINUOUS
 62
     2
100
AcDbLine
 10
1069.556782
 20
181.621213
 30
0.0
 11
1062.556782
 21
181.621213
 31
0.0
  0
ARC
  5
171
100
AcDbEntity
  8
LAY-1
  6
CONTINUOUS
 62
     2
100
AcDbCircle
 10
1061.056782
 20
190.121213
 30
0.0
 40
4.5
100
AcDbArc
 50
289.471221
 51
340.528779
  0
LINE
  5
172
100
AcDbEntity
  8
LAY-1
  6
CONTINUOUS
 62
     2
100
AcDbLine
 10
1061.346782
 20
190.001213
 30
0.0
 11
1062.826782
 21
188.521213
 31
0.0
  0
LINE
  5
173
100
AcDbEntity
  8
LAY-1
  6
CONTINUOUS
 62
     2
100
AcDbLine
 10
1061.056782
 20
180.761213
 30
0.0
 11
1061.056782
 21
186.581213
 31
0.0
  0
LINE
  5
174
100
AcDbEntity
  8
LAY-1
  6
CONTINUOUS
 62
     2
100
AcDbLine
 10
1070.556782
 20
180.121213
 30
0.0
 11
1061.556782
 21
180.121213
 31
0.0
  0
LINE
  5
175
100
AcDbEntity
  8
LAY-1
  6
CONTINUOUS
 62
     2
100
AcDbLine
 10
1071.056782
 20
180.621213
 30
0.0
 11
1071.056782
 21
189.621213
 31
0.0
  0
LINE
  5
176
100
AcDbEntity
  8
LAY-1
  6
CONTINUOUS
 62
     2
100
AcDbLine
 10
1070.556782
 20
190.121213
 30
0.0
 11
1064.520884
 21
190.121213
 31
0.0
  0
ARC
  5
177
100
AcDbEntity
  8
LAY-1
  6
CONTINUOUS
 62
     2
100
AcDbCircle
 10
1061.056782
 20
190.121213
 30
0.0
 40
3.0
100
AcDbArc
 50
278.213211
 51
351.786789
  0
ARC
  5
178
100
AcDbEntity
  8
LAY-1
  6
CONTINUOUS
 62
     2
100
AcDbCircle
 10
1069.556782
 20
188.621213
 30
0.0
 40
1.0
100
AcDbArc
 50
0.0
 51
90.0
  0
LINE
  5
179
100
AcDbEntity
  8
LAY-1
  6
CONTINUOUS
 62
     2
100
AcDbLine
 10
1070.556782
 20
181.621213
 30
0.0
 11
1070.556782
 21
188.621213
 31
0.0
  0
ARC
  5
17A
100
AcDbEntity
  8
LAY-1
  6
CONTINUOUS
 62
     2
100
AcDbCircle
 10
1069.556782
 20
181.621213
 30
0.0
 40
1.0
100
AcDbArc
 50
270.0
 51
0.0
  0
LINE
  5
17B
100
AcDbEntity
  8
LAY-1
  6
CONTINUOUS
 62
     2
100
AcDbLine
 10
1069.556782
 20
180.621213
 30
0.0
 11
1062.556782
 21
180.621213
 31
0.0
  0
ARC
  5
17C
100
AcDbEntity
  8
LAY-1
  6
CONTINUOUS
 62
     2
100
AcDbCircle
 10
1062.556782
 20
181.621213
 30
0.0
 40
1.0
100
AcDbArc
 50
180.0
 51
270.0
  0
LINE
  5
17D
100
AcDbEntity
  8
LAY-1
  6
CONTINUOUS
 62
     2
100
AcDbLine
 10
1061.556782
 20
181.621213
 30
0.0
 11
1061.556782
 21
185.878572
 31
0.0
  0
ARC
  5
17E
100
AcDbEntity
  8
LAY-1
  6
CONTINUOUS
 62
     2
100
AcDbCircle
 10
1062.556782
 20
185.878572
 30
0.0
 40
1.0
100
AcDbArc
 50
109.471221
 51
180.0
  0
LINE
  5
17F
100
AcDbEntity
  8
LAY-1
  6
CONTINUOUS
 62
     2
100
AcDbLine
 10
1069.556782
 20
189.621213
 30
0.0
 11
1065.299423
 21
189.621213
 31
0.0
  0
ARC
  5
180
100
AcDbEntity
  8
LAY-1
  6
CONTINUOUS
 62
     2
100
AcDbCircle
 10
1061.056782
 20
190.121213
 30
0.0
 40
3.5
100
AcDbArc
 50
289.471221
 51
340.528779
  0
ARC
  5
181
100
AcDbEntity
  8
LAY-1
  6
CONTINUOUS
 62
     2
100
AcDbCircle
 10
1065.299423
 20
188.621213
 30
0.0
 40
1.0
100
AcDbArc
 50
90.0
 51
160.528779
  0
LINE
  5
182
100
AcDbEntity
  8
LAY-1
  6
CONTINUOUS
 62
     2
100
AcDbLine
 10
1055.056782
 20
178.121213
 30
0.0
 11
1051.056782
 21
178.343435
 31
0.0
  0
LINE
  5
183
100
AcDbEntity
  8
LAY-1
  6
CONTINUOUS
 62
     2
100
AcDbLine
 10
1055.056782
 20
188.121213
 30
0.0
 11
1051.056782
 21
187.89899
 31
0.0
  0
LINE
  5
184
100
AcDbEntity
  8
LAY-1
  6
CONTINUOUS
 62
     2
100
AcDbLine
 10
1074.066782
 20
177.121213
 30
0.0
 11
1071.662334
 21
177.121213
 31
0.0
  0
LINE
  5
185
100
AcDbEntity
  8
LAY-1
  6
CONTINUOUS
 62
     2
100
AcDbLine
 10
1080.066782
 20
188.721213
 30
0.0
 11
1080.066782
 21
183.121213
 31
0.0
  0
LINE
  5
186
100
AcDbEntity
  8
LAY-1
  6
CONTINUOUS
 62
     2
100
AcDbLine
 10
1067.466782
 20
176.121213
 30
0.0
 11
1058.066782
 21
176.121213
 31
0.0
  0
LINE
  5
187
100
AcDbEntity
  8
LAY-1
  6
CONTINUOUS
 62
     2
100
AcDbLine
 10
1081.066782
 20
203.121213
 30
0.0
 11
1081.066782
 21
201.121213
 31
0.0
  0
LINE
  5
188
100
AcDbEntity
  8
LAY-1
  6
CONTINUOUS
 62
     2
100
AcDbLine
 10
1081.066782
 20
199.121213
 30
0.0
 11
1081.066782
 21
189.721213
 31
0.0
  0
LINE
  5
189
100
AcDbEntity
  8
LAY-1
  6
CONTINUOUS
 62
     2
100
AcDbLine
 10
1080.316782
 20
199.621213
 30
0.0
 11
1080.316782
 21
199.121213
 31
0.0
  0
LINE
  5
18A
100
AcDbEntity
  8
LAY-1
  6
CONTINUOUS
 62
     2
100
AcDbLine
 10
1078.866782
 20
201.121213
 30
0.0
 11
1078.866782
 21
199.621213
 31
0.0
  0
LINE
  5
18B
100
AcDbEntity
  8
LAY-1
  6
CONTINUOUS
 62
     2
100
AcDbLine
 10
1081.066782
 20
189.721213
 30
0.0
 11
1080.066782
 21
188.721213
 31
0.0
  0
ARC
  5
18C
100
AcDbEntity
  8
LAY-1
  6
CONTINUOUS
 62
     2
100
AcDbCircle
 10
1074.066782
 20
183.121213
 30
0.0
 40
6.0
100
AcDbArc
 50
270.0
 51
0.0
  0
ARC
  5
18D
100
AcDbEntity
  8
LAY-1
  6
CONTINUOUS
 62
     2
100
AcDbCircle
 10
1087.188245
 20
183.121213
 30
0.0
 40
32.125
100
AcDbArc
 50
179.149672
 51
180.0
  0
ARC
  5
18E
100
AcDbEntity
  8
LAY-1
  6
CONTINUOUS
 62
     2
100
AcDbCircle
 10
1087.188245
 20
183.121213
 30
0.0
 40
32.125
100
AcDbArc
 50
180.0
 51
180.850328
  0
LINE
  5
18F
100
AcDbEntity
  8
LAY-1
  6
CONTINUOUS
 62
     2
100
AcDbLine
 10
1054.536554
 20
187.590984
 30
0.0
 11
1054.536554
 21
188.091755
 31
0.0
  0
LINE
  5
190
100
AcDbEntity
  8
LAY-1
  6
CONTINUOUS
 62
     2
100
AcDbLine
 10
1054.536554
 20
188.091755
 30
0.0
 11
1054.536554
 21
178.15067
 31
0.0
  0
LINE
  5
191
100
AcDbEntity
  8
LAY-1
  6
CONTINUOUS
 62
     2
100
AcDbLine
 10
1080.066782
 20
188.721213
 30
0.0
 11
1075.056782
 21
188.721213
 31
0.0
  0
LINE
  5
192
100
AcDbEntity
  8
LAY-1
  6
CONTINUOUS
 62
     2
100
AcDbLine
 10
1075.056782
 20
189.721213
 30
0.0
 11
1081.066782
 21
189.721213
 31
0.0
  0
LINE
  5
193
100
AcDbEntity
  8
LAY-1
  6
CONTINUOUS
 62
     2
100
AcDbLine
 10
1077.209323
 20
203.121213
 30
0.0
 11
1081.066782
 21
203.121213
 31
0.0
  0
LINE
  5
194
100
AcDbEntity
  8
LAY-1
  6
CONTINUOUS
 62
     2
100
AcDbLine
 10
1077.209323
 20
201.121213
 30
0.0
 11
1081.066782
 21
201.121213
 31
0.0
  0
LINE
  5
195
100
AcDbEntity
  8
LAY-1
  6
CONTINUOUS
 62
     2
100
AcDbLine
 10
1026.456782
 20
188.121213
 30
0.0
 11
1026.987011
 21
187.590984
 31
0.0
  0
LINE
  5
196
100
AcDbEntity
  8
LAY-1
  6
CONTINUOUS
 62
     2
100
AcDbLine
 10
1026.456782
 20
178.121213
 30
0.0
 11
1026.987011
 21
178.651441
 31
0.0
  0
LINE
  5
197
100
AcDbEntity
  8
LAY-1
  6
CONTINUOUS
 62
     2
100
AcDbLine
 10
1016.928492
 20
188.621213
 30
0.0
 11
1017.756782
 21
188.621213
 31
0.0
  0
LINE
  5
198
100
AcDbEntity
  8
LAY-1
  6
CONTINUOUS
 62
     2
100
AcDbLine
 10
1017.756782
 20
177.621213
 30
0.0
 11
1016.928492
 21
177.621213
 31
0.0
  0
LINE
  5
199
100
AcDbEntity
  8
LAY-1
  6
CONTINUOUS
 62
     2
100
AcDbLine
 10
1026.987011
 20
187.590984
 30
0.0
 11
1029.456782
 21
187.453775
 31
0.0
  0
LINE
  5
19A
100
AcDbEntity
  8
LAY-1
  6
CONTINUOUS
 62
     2
100
AcDbLine
 10
1026.987011
 20
178.651441
 30
0.0
 11
1029.456782
 21
178.78865
 31
0.0
  0
LINE
  5
19B
100
AcDbEntity
  8
LAY-1
  6
CONTINUOUS
 62
     2
100
AcDbLine
 10
1030.456782
 20
196.621213
 30
0.0
 11
1042.056782
 21
196.621213
 31
0.0
  0
ARC
  5
19C
100
AcDbEntity
  8
LAY-1
  6
CONTINUOUS
 62
     2
100
AcDbCircle
 10
1040.081782
 20
194.371213
 30
0.0
 40
10.625
100
AcDbArc
 50
180.0
 51
205.057615
  0
ARC
  5
19D
100
AcDbEntity
  8
LAY-1
  6
CONTINUOUS
 62
     2
100
AcDbCircle
 10
1032.488032
 20
194.371213
 30
0.0
 40
3.03125
100
AcDbArc
 50
132.075022
 51
180.0
  0
LINE
  5
19E
100
AcDbEntity
  8
LAY-1
  6
CONTINUOUS
 62
     2
100
AcDbLine
 10
1030.456782
 20
189.871213
 30
0.0
 11
1042.056782
 21
189.871213
 31
0.0
  0
ARC
  5
19F
100
AcDbEntity
  8
LAY-1
  6
CONTINUOUS
 62
     2
100
AcDbCircle
 10
1052.738032
 20
183.121213
 30
0.0
 40
23.28125
100
AcDbArc
 50
163.146062
 51
180.0
  0
ARC
  5
1A0
100
AcDbEntity
  8
LAY-1
  6
CONTINUOUS
 62
     2
100
AcDbCircle
 10
1052.738032
 20
183.121213
 30
0.0
 40
23.28125
100
AcDbArc
 50
180.0
 51
196.853938
  0
LINE
  5
1A1
100
AcDbEntity
  8
LAY-1
  6
CONTINUOUS
 62
     2
100
AcDbLine
 10
1030.456782
 20
176.371213
 30
0.0
 11
1042.056782
 21
176.371213
 31
0.0
  0
ARC
  5
1A2
100
AcDbEntity
  8
LAY-1
  6
CONTINUOUS
 62
     2
100
AcDbCircle
 10
1040.081782
 20
171.871213
 30
0.0
 40
10.625
100
AcDbArc
 50
154.942385
 51
180.0
  0
LINE
  5
1A3
100
AcDbEntity
  8
LAY-1
  6
CONTINUOUS
 62
     2
100
AcDbLine
 10
1030.456782
 20
169.621213
 30
0.0
 11
1042.056782
 21
169.621213
 31
0.0
  0
ARC
  5
1A4
100
AcDbEntity
  8
LAY-1
  6
CONTINUOUS
 62
     2
100
AcDbCircle
 10
1032.488032
 20
171.871213
 30
0.0
 40
3.03125
100
AcDbArc
 50
180.0
 51
227.924978
  0
LINE
  5
1A5
100
AcDbEntity
  8
LAY-1
  6
CONTINUOUS
 62
     2
100
AcDbLine
 10
1029.456782
 20
194.371213
 30
0.0
 11
1029.456782
 21
171.871213
 31
0.0
  0
LINE
  5
1A6
100
AcDbEntity
  8
LAY-1
  6
CONTINUOUS
 62
     2
100
AcDbLine
 10
1017.956782
 20
177.821213
 30
0.0
 11
1017.956782
 21
188.421213
 31
0.0
  0
LINE
  5
1A7
100
AcDbEntity
  8
LAY-1
  6
CONTINUOUS
 62
     2
100
AcDbLine
 10
1020.456782
 20
188.421213
 30
0.0
 11
1017.956782
 21
188.421213
 31
0.0
  0
LINE
  5
1A8
100
AcDbEntity
  8
LAY-1
  6
CONTINUOUS
 62
     2
100
AcDbLine
 10
1020.456782
 20
177.821213
 30
0.0
 11
1017.956782
 21
177.821213
 31
0.0
  0
LINE
  5
1A9
100
AcDbEntity
  8
LAY-1
  6
CONTINUOUS
 62
     2
100
AcDbLine
 10
1026.987011
 20
187.590984
 30
0.0
 11
1026.987011
 21
188.091755
 31
0.0
  0
LINE
  5
1AA
100
AcDbEntity
  8
LAY-1
  6
CONTINUOUS
 62
     2
100
AcDbLine
 10
1026.987011
 20
188.091755
 30
0.0
 11
1026.987011
 21
178.15067
 31
0.0
  0
LINE
  5
1AB
100
AcDbEntity
  8
LAY-1
  6
CONTINUOUS
 62
     2
100
AcDbLine
 10
1017.956782
 20
188.421213
 30
0.0
 11
1016.929047
 21
189.448948
 31
0.0
  0
LINE
  5
1AC
100
AcDbEntity
  8
LAY-1
  6
CONTINUOUS
 62
     2
100
AcDbLine
 10
1017.956782
 20
177.821213
 30
0.0
 11
1016.929047
 21
176.793478
 31
0.0
  0
LINE
  5
1AD
100
AcDbEntity
  8
LAY-1
  6
CONTINUOUS
 62
     2
100
AcDbLine
 10
1021.134748
 20
192.273754
 30
0.0
 11
1026.456782
 21
192.273754
 31
0.0
  0
LINE
  5
1AE
100
AcDbEntity
  8
LAY-1
  6
CONTINUOUS
 62
     2
100
AcDbLine
 10
1026.456782
 20
192.273754
 30
0.0
 11
1026.456782
 21
173.968672
 31
0.0
  0
LINE
  5
1AF
100
AcDbEntity
  8
LAY-1
  6
CONTINUOUS
 62
     2
100
AcDbLine
 10
1026.456782
 20
173.968672
 30
0.0
 11
1021.134748
 21
173.968672
 31
0.0
  0
LINE
  5
1B0
100
AcDbEntity
  8
LAY-1
  6
CONTINUOUS
 62
     2
100
AcDbLine
 10
1021.134748
 20
178.544942
 30
0.0
 11
1026.456782
 21
178.544942
 31
0.0
  0
LINE
  5
1B1
100
AcDbEntity
  8
LAY-1
  6
CONTINUOUS
 62
     2
100
AcDbLine
 10
1021.134748
 20
187.697483
 30
0.0
 11
1026.456782
 21
187.697483
 31
0.0
  0
ARC
  5
1B2
100
AcDbEntity
  8
LAY-1
  6
CONTINUOUS
 62
     2
100
AcDbCircle
 10
1010.810402
 20
190.74833
 30
0.0
 40
7.203389
100
AcDbArc
 50
180.0
 51
205.057615
  0
ARC
  5
1B3
100
AcDbEntity
  8
LAY-1
  6
CONTINUOUS
 62
     2
100
AcDbCircle
 10
1005.662098
 20
190.74833
 30
0.0
 40
2.055084
100
AcDbArc
 50
132.075022
 51
180.0
  0
ARC
  5
1B4
100
AcDbEntity
  8
LAY-1
  6
CONTINUOUS
 62
     2
100
AcDbCircle
 10
1019.390909
 20
183.121213
 30
0.0
 40
15.783896
100
AcDbArc
 50
163.146062
 51
180.0
  0
ARC
  5
1B5
100
AcDbEntity
  8
LAY-1
  6
CONTINUOUS
 62
     2
100
AcDbCircle
 10
1019.390909
 20
183.121213
 30
0.0
 40
15.783896
100
AcDbArc
 50
180.0
 51
196.853938
  0
ARC
  5
1B6
100
AcDbEntity
  8
LAY-1
  6
CONTINUOUS
 62
     2
100
AcDbCircle
 10
1010.810402
 20
175.494095
 30
0.0
 40
7.203389
100
AcDbArc
 50
154.942385
 51
180.0
  0
ARC
  5
1B7
100
AcDbEntity
  8
LAY-1
  6
CONTINUOUS
 62
     2
100
AcDbCircle
 10
1005.662098
 20
175.494095
 30
0.0
 40
2.055084
100
AcDbArc
 50
180.0
 51
227.924978
  0
LINE
  5
1B8
100
AcDbEntity
  8
LAY-1
  6
CONTINUOUS
 62
     2
100
AcDbLine
 10
1003.607013
 20
190.74833
 30
0.0
 11
1003.607013
 21
175.494095
 31
0.0
  0
ARC
  5
1B9
100
AcDbEntity
  8
LAY-1
  6
CONTINUOUS
 62
     2
100
AcDbCircle
 10
1009.725659
 20
175.494095
 30
0.0
 40
7.203389
100
AcDbArc
 50
0.0
 51
25.057615
  0
ARC
  5
1BA
100
AcDbEntity
  8
LAY-1
  6
CONTINUOUS
 62
     2
100
AcDbCircle
 10
1014.873963
 20
175.494095
 30
0.0
 40
2.055084
100
AcDbArc
 50
312.075022
 51
0.0
  0
ARC
  5
1BB
100
AcDbEntity
  8
LAY-1
  6
CONTINUOUS
 62
     2
100
AcDbCircle
 10
1001.145151
 20
183.121213
 30
0.0
 40
15.783896
100
AcDbArc
 50
343.146062
 51
0.0
  0
ARC
  5
1BC
100
AcDbEntity
  8
LAY-1
  6
CONTINUOUS
 62
     2
100
AcDbCircle
 10
1001.145151
 20
183.121213
 30
0.0
 40
15.783896
100
AcDbArc
 50
0.0
 51
16.853938
  0
ARC
  5
1BD
100
AcDbEntity
  8
LAY-1
  6
CONTINUOUS
 62
     2
100
AcDbCircle
 10
1009.725659
 20
190.74833
 30
0.0
 40
7.203389
100
AcDbArc
 50
334.942385
 51
0.0
  0
ARC
  5
1BE
100
AcDbEntity
  8
LAY-1
  6
CONTINUOUS
 62
     2
100
AcDbCircle
 10
1014.873963
 20
190.74833
 30
0.0
 40
2.055084
100
AcDbArc
 50
0.0
 51
47.924978
  0
LINE
  5
1BF
100
AcDbEntity
  8
LAY-1
  6
CONTINUOUS
 62
     2
100
AcDbLine
 10
1016.929047
 20
175.494095
 30
0.0
 11
1016.929047
 21
190.74833
 31
0.0
  0
LINE
  5
1C0
100
AcDbEntity
  8
LAY-1
  6
CONTINUOUS
 62
     2
100
AcDbLine
 10
1004.284979
 20
192.273754
 30
0.0
 11
1016.251081
 21
192.273754
 31
0.0
  0
LINE
  5
1C1
100
AcDbEntity
  8
LAY-1
  6
CONTINUOUS
 62
     2
100
AcDbLine
 10
1004.284979
 20
187.697483
 30
0.0
 11
1016.251081
 21
187.697483
 31
0.0
  0
LINE
  5
1C2
100
AcDbEntity
  8
LAY-1
  6
CONTINUOUS
 62
     2
100
AcDbLine
 10
1016.251081
 20
178.544942
 30
0.0
 11
1004.284979
 21
178.544942
 31
0.0
  0
LINE
  5
1C3
100
AcDbEntity
  8
LAY-1
  6
CONTINUOUS
 62
     2
100
AcDbLine
 10
1004.284979
 20
173.968672
 30
0.0
 11
1016.251081
 21
173.968672
 31
0.0
  0
ARC
  5
1C4
100
AcDbEntity
  8
LAY-1
  6
CONTINUOUS
 62
     2
100
AcDbCircle
 10
1027.660171
 20
190.74833
 30
0.0
 40
7.203389
100
AcDbArc
 50
180.0
 51
205.057615
  0
ARC
  5
1C5
100
AcDbEntity
  8
LAY-1
  6
CONTINUOUS
 62
     2
100
AcDbCircle
 10
1022.511867
 20
190.74833
 30
0.0
 40
2.055084
100
AcDbArc
 50
132.075022
 51
180.0
  0
ARC
  5
1C6
100
AcDbEntity
  8
LAY-1
  6
CONTINUOUS
 62
     2
100
AcDbCircle
 10
1036.240678
 20
183.121213
 30
0.0
 40
15.783896
100
AcDbArc
 50
163.146062
 51
180.0
  0
ARC
  5
1C7
100
AcDbEntity
  8
LAY-1
  6
CONTINUOUS
 62
     2
100
AcDbCircle
 10
1036.240678
 20
183.121213
 30
0.0
 40
15.783896
100
AcDbArc
 50
180.0
 51
196.853938
  0
ARC
  5
1C8
100
AcDbEntity
  8
LAY-1
  6
CONTINUOUS
 62
     2
100
AcDbCircle
 10
1027.660171
 20
175.494095
 30
0.0
 40
7.203389
100
AcDbArc
 50
154.942385
 51
180.0
  0
ARC
  5
1C9
100
AcDbEntity
  8
LAY-1
  6
CONTINUOUS
 62
     2
100
AcDbCircle
 10
1022.511867
 20
175.494095
 30
0.0
 40
2.055084
100
AcDbArc
 50
180.0
 51
227.924978
  0
LINE
  5
1CA
100
AcDbEntity
  8
LAY-1
  6
CONTINUOUS
 62
     2
100
AcDbLine
 10
1020.456782
 20
190.74833
 30
0.0
 11
1020.456782
 21
175.494095
 31
0.0
  0
LINE
  5
1CB
100
AcDbEntity
  8
LAY-1
  6
CONTINUOUS
 62
     2
100
AcDbLine
 10
1026.456782
 20
188.121213
 30
0.0
 11
1029.456782
 21
187.954546
 31
0.0
  0
LINE
  5
1CC
100
AcDbEntity
  8
LAY-1
  6
CONTINUOUS
 62
     2
100
AcDbLine
 10
1026.456782
 20
178.121213
 30
0.0
 11
1029.456782
 21
178.287879
 31
0.0
  0
LINE
  5
1CD
100
AcDbEntity
  8
LAY-1
  6
CONTINUOUS
 62
     2
100
AcDbLine
 10
1050.209282
 20
194.562463
 30
0.0
 11
1046.056782
 21
194.562463
 31
0.0
  0
LINE
  5
1CE
100
AcDbEntity
  8
LAY-1
  6
CONTINUOUS
 62
     2
100
AcDbLine
 10
1050.209282
 20
188.841838
 30
0.0
 11
1046.056782
 21
188.841838
 31
0.0
  0
LINE
  5
1CF
100
AcDbEntity
  8
LAY-1
  6
CONTINUOUS
 62
     2
100
AcDbLine
 10
1050.209282
 20
177.400588
 30
0.0
 11
1046.056782
 21
177.400588
 31
0.0
  0
LINE
  5
1D0
100
AcDbEntity
  8
LAY-1
  6
CONTINUOUS
 62
     2
100
AcDbLine
 10
1050.209282
 20
171.679963
 30
0.0
 11
1046.056782
 21
171.679963
 31
0.0
  0
LINE
  5
1D1
100
AcDbEntity
  8
LAY-1
  6
CONTINUOUS
 62
     2
100
AcDbLine
 10
1062.556782
 20
200.799734
 30
0.0
 11
1062.556782
 21
199.971444
 31
0.0
  0
LINE
  5
1D2
100
AcDbEntity
  8
LAY-1
  6
CONTINUOUS
 62
     2
100
AcDbLine
 10
1073.556782
 20
199.971444
 30
0.0
 11
1073.556782
 21
200.799734
 31
0.0
  0
LINE
  5
1D3
100
AcDbEntity
  8
LAY-1
  6
CONTINUOUS
 62
     2
100
AcDbLine
 10
1075.056782
 20
197.271444
 30
0.0
 11
1061.056782
 21
197.271444
 31
0.0
  0
LINE
  5
1D4
100
AcDbEntity
  8
LAY-1
  6
CONTINUOUS
 62
     2
100
AcDbLine
 10
1073.356782
 20
199.771444
 30
0.0
 11
1062.756782
 21
199.771444
 31
0.0
  0
LINE
  5
1D5
100
AcDbEntity
  8
LAY-1
  6
CONTINUOUS
 62
     2
100
AcDbLine
 10
1062.756782
 20
199.771444
 30
0.0
 11
1061.729047
 21
200.799179
 31
0.0
  0
LINE
  5
1D6
100
AcDbEntity
  8
LAY-1
  6
CONTINUOUS
 62
     2
100
AcDbLine
 10
1073.356782
 20
199.771444
 30
0.0
 11
1074.384517
 21
200.799179
 31
0.0
  0
ARC
  5
1D7
100
AcDbEntity
  8
LAY-1
  6
CONTINUOUS
 62
     2
100
AcDbCircle
 10
1060.429665
 20
206.917824
 30
0.0
 40
7.203389
100
AcDbArc
 50
64.942385
 51
90.0
  0
ARC
  5
1D8
100
AcDbEntity
  8
LAY-1
  6
CONTINUOUS
 62
     2
100
AcDbCircle
 10
1060.429665
 20
212.066128
 30
0.0
 40
2.055084
100
AcDbArc
 50
90.0
 51
137.924978
  0
ARC
  5
1D9
100
AcDbEntity
  8
LAY-1
  6
CONTINUOUS
 62
     2
100
AcDbCircle
 10
1068.056782
 20
198.337317
 30
0.0
 40
15.783896
100
AcDbArc
 50
90.0
 51
106.853938
  0
ARC
  5
1DA
100
AcDbEntity
  8
LAY-1
  6
CONTINUOUS
 62
     2
100
AcDbCircle
 10
1068.056782
 20
198.337317
 30
0.0
 40
15.783896
100
AcDbArc
 50
73.146062
 51
90.0
  0
ARC
  5
1DB
100
AcDbEntity
  8
LAY-1
  6
CONTINUOUS
 62
     2
100
AcDbCircle
 10
1075.6839
 20
206.917824
 30
0.0
 40
7.203389
100
AcDbArc
 50
90.0
 51
115.057615
  0
ARC
  5
1DC
100
AcDbEntity
  8
LAY-1
  6
CONTINUOUS
 62
     2
100
AcDbCircle
 10
1075.6839
 20
212.066128
 30
0.0
 40
2.055084
100
AcDbArc
 50
42.075022
 51
90.0
  0
LINE
  5
1DD
100
AcDbEntity
  8
LAY-1
  6
CONTINUOUS
 62
     2
100
AcDbLine
 10
1060.429665
 20
214.121213
 30
0.0
 11
1075.6839
 21
214.121213
 31
0.0
  0
ARC
  5
1DE
100
AcDbEntity
  8
LAY-1
  6
CONTINUOUS
 62
     2
100
AcDbCircle
 10
1075.6839
 20
208.002567
 30
0.0
 40
7.203389
100
AcDbArc
 50
244.942385
 51
270.0
  0
ARC
  5
1DF
100
AcDbEntity
  8
LAY-1
  6
CONTINUOUS
 62
     2
100
AcDbCircle
 10
1075.6839
 20
202.854263
 30
0.0
 40
2.055084
100
AcDbArc
 50
270.0
 51
317.924978
  0
ARC
  5
1E0
100
AcDbEntity
  8
LAY-1
  6
CONTINUOUS
 62
     2
100
AcDbCircle
 10
1068.056782
 20
216.583074
 30
0.0
 40
15.783896
100
AcDbArc
 50
270.0
 51
286.853938
  0
ARC
  5
1E1
100
AcDbEntity
  8
LAY-1
  6
CONTINUOUS
 62
     2
100
AcDbCircle
 10
1068.056782
 20
216.583074
 30
0.0
 40
15.783896
100
AcDbArc
 50
253.146062
 51
270.0
  0
ARC
  5
1E2
100
AcDbEntity
  8
LAY-1
  6
CONTINUOUS
 62
     2
100
AcDbCircle
 10
1060.429665
 20
208.002567
 30
0.0
 40
7.203389
100
AcDbArc
 50
270.0
 51
295.057615
  0
ARC
  5
1E3
100
AcDbEntity
  8
LAY-1
  6
CONTINUOUS
 62
     2
100
AcDbCircle
 10
1060.429665
 20
202.854263
 30
0.0
 40
2.055084
100
AcDbArc
 50
222.075022
 51
270.0
  0
LINE
  5
1E4
100
AcDbEntity
  8
LAY-1
  6
CONTINUOUS
 62
     2
100
AcDbLine
 10
1075.6839
 20
200.799179
 30
0.0
 11
1060.429665
 21
200.799179
 31
0.0
  0
LINE
  5
1E5
100
AcDbEntity
  8
LAY-1
  6
CONTINUOUS
 62
     2
100
AcDbLine
 10
1058.904241
 20
213.443247
 30
0.0
 11
1058.904241
 21
201.477145
 31
0.0
  0
LINE
  5
1E6
100
AcDbEntity
  8
LAY-1
  6
CONTINUOUS
 62
     2
100
AcDbLine
 10
1063.480512
 20
213.443247
 30
0.0
 11
1063.480512
 21
201.477145
 31
0.0
  0
LINE
  5
1E7
100
AcDbEntity
  8
LAY-1
  6
CONTINUOUS
 62
     2
100
AcDbLine
 10
1072.633053
 20
201.477145
 30
0.0
 11
1072.633053
 21
213.443247
 31
0.0
  0
LINE
  5
1E8
100
AcDbEntity
  8
LAY-1
  6
CONTINUOUS
 62
     2
100
AcDbLine
 10
1077.209323
 20
213.443247
 30
0.0
 11
1077.209323
 21
201.477145
 31
0.0
  0
LINE
  5
1E9
100
AcDbEntity
  8
LAY-1
  6
CONTINUOUS
 62
     2
100
AcDbLine
 10
1062.756782
 20
199.771444
 30
0.0
 11
1062.756782
 21
197.271444
 31
0.0
  0
LINE
  5
1EA
100
AcDbEntity
  8
LAY-1
  6
CONTINUOUS
 62
     2
100
AcDbLine
 10
1073.356782
 20
199.771444
 30
0.0
 11
1073.356782
 21
197.271444
 31
0.0
  0
LINE
  5
1EB
100
AcDbEntity
  8
LAY-1
  6
CONTINUOUS
 62
     2
100
AcDbLine
 10
1075.056782
 20
183.121213
 30
0.0
 11
1075.056782
 21
197.271444
 31
0.0
  0
LINE
  5
1EC
100
AcDbEntity
  8
LAY-1
  6
CONTINUOUS
 62
     2
100
AcDbLine
 10
1061.056782
 20
190.621213
 30
0.0
 11
1061.056782
 21
197.271444
 31
0.0
  0
LINE
  5
1ED
100
AcDbEntity
  8
LAY-1
  6
CONTINUOUS
 62
     2
100
AcDbLine
 10
1073.356782
 20
199.121213
 30
0.0
 11
1081.066782
 21
199.121213
 31
0.0
  0
LINE
  5
1EE
100
AcDbEntity
  8
LAY-1
  6
CONTINUOUS
 62
     2
100
AcDbLine
 10
1073.356782
 20
199.621213
 30
0.0
 11
1080.316782
 21
199.621213
 31
0.0
  0
LINE
  5
1EF
100
AcDbEntity
  8
LAY-1
  6
CONTINUOUS
 62
     2
100
AcDbLine
 10
1064.056782
 20
214.121213
 30
0.0
 11
1064.056782
 21
216.121213
 31
0.0
  0
LINE
  5
1F0
100
AcDbEntity
  8
LAY-1
  6
CONTINUOUS
 62
     2
100
AcDbLine
 10
1072.056782
 20
214.121213
 30
0.0
 11
1072.056782
 21
216.121213
 31
0.0
  0
LINE
  5
1F1
100
AcDbEntity
  8
LAY-1
  6
CONTINUOUS
 62
     2
100
AcDbLine
 10
1247.268933
 20
487.171313
 30
0.0
 11
1247.268933
 21
508.171313
 31
0.0
  0
LINE
  5
1F2
100
AcDbEntity
  8
LAY-1
  6
CONTINUOUS
 62
     2
100
AcDbLine
 10
1247.268933
 20
508.171313
 30
0.0
 11
1050.668933
 21
508.171313
 31
0.0
  0
LINE
  5
1F3
100
AcDbEntity
  8
LAY-1
  6
CONTINUOUS
 62
     2
100
AcDbLine
 10
1247.268933
 20
487.171313
 30
0.0
 11
1050.668933
 21
487.171313
 31
0.0
  0
LINE
  5
1F4
100
AcDbEntity
  8
LAY-1
  6
CONTINUOUS
 62
     2
100
AcDbLine
 10
1050.668933
 20
487.171313
 30
0.0
 11
1050.668933
 21
508.171313
 31
0.0
  0
LINE
  5
1F5
100
AcDbEntity
  8
LAY-1
  6
EXLTYPE3
 62
     1
100
AcDbLine
 10
542.654875
 20
772.619206
 30
0.0
 11
571.63448
 21
772.619206
 31
0.0
  0
LINE
  5
1F6
100
AcDbEntity
  8
LAY-1
  6
EXLTYPE3
 62
     1
100
AcDbLine
 10
528.96721
 20
783.619206
 30
0.0
 11
542.794674
 21
783.619206
 31
0.0
  0
LINE
  5
1F7
100
AcDbEntity
  8
LAY-1
  6
EXLTYPE3
 62
     1
100
AcDbLine
 10
572.3413
 20
714.619206
 30
0.0
 11
542.890481
 21
714.619206
 31
0.0
  0
LINE
  5
1F8
100
AcDbEntity
  8
LAY-1
  6
EXLTYPE3
 62
     1
100
AcDbLine
 10
542.794674
 20
703.619206
 30
0.0
 11
529.399318
 21
703.619206
 31
0.0
  0
LINE
  5
1F9
100
AcDbEntity
  8
LAY-1
  6
EXLTYPE3
 62
     1
100
AcDbLine
 10
557.0
 20
697.396249
 30
0.0
 11
557.0
 21
787.89572
 31
0.0
  0
LINE
  5
1FA
100
AcDbEntity
  8
LAY-1
  6
EXLTYPE3
 62
     1
100
AcDbLine
 10
579.0
 20
805.258226
 30
0.0
 11
579.0
 21
674.758226
 31
0.0
  0
LINE
  5
1FB
100
AcDbEntity
  8
LAY-1
  6
EXLTYPE3
 62
     1
100
AcDbLine
 10
569.2501
 20
778.619206
 30
0.0
 11
585.7
 21
778.619206
 31
0.0
  0
LINE
  5
1FC
100
AcDbEntity
  8
LAY-1
  6
CONTINUOUS
 62
     2
100
AcDbLine
 10
574.0
 20
798.619206
 30
0.0
 11
886.0
 21
798.619206
 31
0.0
  0
LINE
  5
1FD
100
AcDbEntity
  8
LAY-1
  6
CONTINUOUS
 62
     2
100
AcDbLine
 10
574.0
 20
706.369206
 30
0.0
 11
574.0
 21
688.619206
 31
0.0
  0
LINE
  5
1FE
100
AcDbEntity
  8
LAY-1
  6
CONTINUOUS
 62
     2
100
AcDbLine
 10
574.0
 20
775.869206
 30
0.0
 11
574.0
 21
710.869206
 31
0.0
  0
LINE
  5
1FF
100
AcDbEntity
  8
LAY-1
  6
CONTINUOUS
 62
     2
100
AcDbLine
 10
574.0
 20
798.619206
 30
0.0
 11
574.0
 21
781.369206
 31
0.0
  0
ARC
  5
200
100
AcDbEntity
  8
LAY-1
  6
CONTINUOUS
 62
     2
100
AcDbCircle
 10
754.4
 20
649.619206
 30
0.0
 40
6.1
100
AcDbArc
 50
280.388858
 51
79.611142
  0
ARC
  5
201
100
AcDbEntity
  8
LAY-1
  6
CONTINUOUS
 62
     2
100
AcDbCircle
 10
777.149372
 20
649.177644
 30
0.0
 40
6.649372
100
AcDbArc
 50
104.36211
 51
236.713246
  0
LINE
  5
202
100
AcDbEntity
  8
LAY-1
  6
CONTINUOUS
 62
     2
100
AcDbLine
 10
775.5
 20
655.619206
 30
0.0
 11
780.5
 21
660.619206
 31
0.0
  0
LINE
  5
203
100
AcDbEntity
  8
LAY-1
  6
CONTINUOUS
 62
     2
100
AcDbLine
 10
750.5
 20
660.619206
 30
0.0
 11
755.5
 21
655.619206
 31
0.0
  0
LINE
  5
204
100
AcDbEntity
  8
LAY-1
  6
CONTINUOUS
 62
     2
100
AcDbLine
 10
775.5
 20
655.619206
 30
0.0
 11
755.5
 21
655.619206
 31
0.0
  0
LINE
  5
205
100
AcDbEntity
  8
LAY-1
  6
CONTINUOUS
 62
     2
100
AcDbLine
 10
750.5
 20
660.619206
 30
0.0
 11
750.5
 21
665.619206
 31
0.0
  0
LINE
  5
206
100
AcDbEntity
  8
LAY-1
  6
CONTINUOUS
 62
     2
100
AcDbLine
 10
780.5
 20
660.619206
 30
0.0
 11
750.5
 21
660.619206
 31
0.0
  0
LINE
  5
207
100
AcDbEntity
  8
LAY-1
  6
CONTINUOUS
 62
     2
100
AcDbLine
 10
780.5
 20
665.619206
 30
0.0
 11
780.5
 21
660.619206
 31
0.0
  0
ARC
  5
208
100
AcDbEntity
  8
LAY-1
  6
CONTINUOUS
 62
     2
100
AcDbCircle
 10
771.5
 20
637.619206
 30
0.0
 40
2.0
100
AcDbArc
 50
270.0
 51
0.0
  0
ARC
  5
209
100
AcDbEntity
  8
LAY-1
  6
CONTINUOUS
 62
     2
100
AcDbCircle
 10
712.5
 20
637.619206
 30
0.0
 40
2.0
100
AcDbArc
 50
180.0
 51
270.0
  0
LINE
  5
20A
100
AcDbEntity
  8
LAY-1
  6
CONTINUOUS
 62
     2
100
AcDbLine
 10
771.5
 20
635.619206
 30
0.0
 11
712.5
 21
635.619206
 31
0.0
  0
LINE
  5
20B
100
AcDbEntity
  8
LAY-1
  6
CONTINUOUS
 62
     2
100
AcDbLine
 10
773.5
 20
643.619206
 30
0.0
 11
773.5
 21
637.619206
 31
0.0
  0
LINE
  5
20C
100
AcDbEntity
  8
LAY-1
  6
CONTINUOUS
 62
     2
100
AcDbLine
 10
712.5
 20
643.619206
 30
0.0
 11
773.5
 21
643.619206
 31
0.0
  0
LINE
  5
20D
100
AcDbEntity
  8
LAY-1
  6
CONTINUOUS
 62
     2
100
AcDbLine
 10
710.5
 20
637.619206
 30
0.0
 11
710.5
 21
641.619206
 31
0.0
  0
ARC
  5
20E
100
AcDbEntity
  8
LAY-1
  6
CONTINUOUS
 62
     2
100
AcDbCircle
 10
712.5
 20
641.619206
 30
0.0
 40
2.0
100
AcDbArc
 50
90.0
 51
180.0
  0
LINE
  5
20F
100
AcDbEntity
  8
LAY-1
  6
CONTINUOUS
 62
     2
100
AcDbLine
 10
851.0
 20
665.619206
 30
0.0
 11
801.0
 21
665.619206
 31
0.0
  0
LINE
  5
210
100
AcDbEntity
  8
LAY-1
  6
CONTINUOUS
 62
     2
100
AcDbLine
 10
596.0
 20
688.619206
 30
0.0
 11
596.0
 21
665.619206
 31
0.0
  0
LINE
  5
211
100
AcDbEntity
  8
LAY-1
  6
CONTINUOUS
 62
     2
100
AcDbLine
 10
801.0
 20
665.619206
 30
0.0
 11
596.0
 21
665.619206
 31
0.0
  0
LINE
  5
212
100
AcDbEntity
  8
LAY-1
  6
CONTINUOUS
 62
     2
100
AcDbLine
 10
856.931888
 20
648.619206
 30
0.0
 11
855.709564
 21
648.619206
 31
0.0
  0
LINE
  5
213
100
AcDbEntity
  8
LAY-1
  6
CONTINUOUS
 62
     2
100
AcDbLine
 10
886.0
 20
798.619206
 30
0.0
 11
856.931888
 21
648.619206
 31
0.0
  0
LINE
  5
214
100
AcDbEntity
  8
LAY-1
  6
CONTINUOUS
 62
     2
100
AcDbLine
 10
859.558012
 20
668.478329
 30
0.0
 11
855.709564
 21
648.619206
 31
0.0
  0
LINE
  5
215
100
AcDbEntity
  8
LAY-1
  6
CONTINUOUS
 62
     2
100
AcDbLine
 10
855.1
 20
668.478329
 30
0.0
 11
855.1
 21
798.619206
 31
0.0
  0
LINE
  5
216
100
AcDbEntity
  8
LAY-1
  6
CONTINUOUS
 62
     2
100
AcDbLine
 10
855.1
 20
668.478329
 30
0.0
 11
860.780336
 21
668.478329
 31
0.0
  0
LINE
  5
217
100
AcDbEntity
  8
LAY-1
  6
CONTINUOUS
 62
     2
100
AcDbLine
 10
851.0
 20
665.619206
 30
0.0
 11
851.0
 21
688.619206
 31
0.0
  0
LINE
  5
218
100
AcDbEntity
  8
LAY-1
  6
CONTINUOUS
 62
     2
100
AcDbLine
 10
574.0
 20
688.619206
 30
0.0
 11
855.1
 21
688.619206
 31
0.0
  0
LINE
  5
219
100
AcDbEntity
  8
LAY-1
  6
CONTINUOUS
 62
     2
100
AcDbLine
 10
594.0
 20
798.619206
 30
0.0
 11
534.0
 21
798.619206
 31
0.0
  0
LINE
  5
21A
100
AcDbEntity
  8
LAY-1
  6
CONTINUOUS
 62
     2
100
AcDbLine
 10
534.0
 20
688.619206
 30
0.0
 11
594.0
 21
688.619206
 31
0.0
  0
LINE
  5
21B
100
AcDbEntity
  8
LAY-1
  6
CONTINUOUS
 62
     2
100
AcDbLine
 10
538.0
 20
798.619206
 30
0.0
 11
538.0
 21
688.619206
 31
0.0
  0
LINE
  5
21C
100
AcDbEntity
  8
LAY-1
  6
CONTINUOUS
 62
     2
100
AcDbLine
 10
534.0
 20
798.619206
 30
0.0
 11
534.0
 21
688.619206
 31
0.0
  0
LINE
  5
21D
100
AcDbEntity
  8
LAY-1
  6
CONTINUOUS
 62
     2
100
AcDbLine
 10
574.0
 20
711.369206
 30
0.0
 11
575.127017
 21
711.369206
 31
0.0
  0
LINE
  5
21E
100
AcDbEntity
  8
LAY-1
  6
CONTINUOUS
 62
     2
100
AcDbLine
 10
574.0
 20
705.869206
 30
0.0
 11
575.127017
 21
705.869206
 31
0.0
  0
CIRCLE
  5
21F
100
AcDbEntity
  8
LAY-1
  6
CONTINUOUS
 62
     2
100
AcDbCircle
 10
579.0
 20
708.619206
 30
0.0
 40
4.75
  0
LINE
  5
220
100
AcDbEntity
  8
LAY-1
  6
CONTINUOUS
 62
     2
100
AcDbLine
 10
581.136641
 20
707.291024
 30
0.0
 11
580.385929
 21
708.041735
 31
0.0
  0
LINE
  5
221
100
AcDbEntity
  8
LAY-1
  6
CONTINUOUS
 62
     2
100
AcDbLine
 10
581.136641
 20
709.947388
 30
0.0
 11
580.385929
 21
709.196676
 31
0.0
  0
ARC
  5
222
100
AcDbEntity
  8
LAY-1
  6
CONTINUOUS
 62
     2
100
AcDbCircle
 10
580.9634
 20
708.619206
 30
0.0
 40
0.816667
100
AcDbArc
 50
135.0
 51
225.0
  0
LINE
  5
223
100
AcDbEntity
  8
LAY-1
  6
CONTINUOUS
 62
     2
100
AcDbLine
 10
580.732412
 20
710.351617
 30
0.0
 11
581.136641
 21
709.947388
 31
0.0
  0
LINE
  5
224
100
AcDbEntity
  8
LAY-1
  6
CONTINUOUS
 62
     2
100
AcDbLine
 10
580.732412
 20
706.886794
 30
0.0
 11
581.136641
 21
707.291024
 31
0.0
  0
LINE
  5
225
100
AcDbEntity
  8
LAY-1
  6
CONTINUOUS
 62
     2
100
AcDbLine
 10
580.328182
 20
706.482565
 30
0.0
 11
579.577471
 21
707.233277
 31
0.0
  0
LINE
  5
226
100
AcDbEntity
  8
LAY-1
  6
CONTINUOUS
 62
     2
100
AcDbLine
 10
577.671818
 20
706.482565
 30
0.0
 11
578.422529
 21
707.233277
 31
0.0
  0
ARC
  5
227
100
AcDbEntity
  8
LAY-1
  6
CONTINUOUS
 62
     2
100
AcDbCircle
 10
579.0
 20
706.655806
 30
0.0
 40
0.816667
100
AcDbArc
 50
45.0
 51
135.0
  0
LINE
  5
228
100
AcDbEntity
  8
LAY-1
  6
CONTINUOUS
 62
     2
100
AcDbLine
 10
577.267588
 20
706.886794
 30
0.0
 11
577.671818
 21
706.482565
 31
0.0
  0
LINE
  5
229
100
AcDbEntity
  8
LAY-1
  6
CONTINUOUS
 62
     2
100
AcDbLine
 10
580.732412
 20
706.886794
 30
0.0
 11
580.328182
 21
706.482565
 31
0.0
  0
LINE
  5
22A
100
AcDbEntity
  8
LAY-1
  6
CONTINUOUS
 62
     2
100
AcDbLine
 10
577.671818
 20
710.755847
 30
0.0
 11
578.422529
 21
710.005135
 31
0.0
  0
LINE
  5
22B
100
AcDbEntity
  8
LAY-1
  6
CONTINUOUS
 62
     2
100
AcDbLine
 10
580.328182
 20
710.755847
 30
0.0
 11
579.577471
 21
710.005135
 31
0.0
  0
ARC
  5
22C
100
AcDbEntity
  8
LAY-1
  6
CONTINUOUS
 62
     2
100
AcDbCircle
 10
579.0
 20
710.582606
 30
0.0
 40
0.816667
100
AcDbArc
 50
225.0
 51
315.0
  0
LINE
  5
22D
100
AcDbEntity
  8
LAY-1
  6
CONTINUOUS
 62
     2
100
AcDbLine
 10
580.732412
 20
710.351617
 30
0.0
 11
580.328182
 21
710.755847
 31
0.0
  0
LINE
  5
22E
100
AcDbEntity
  8
LAY-1
  6
CONTINUOUS
 62
     2
100
AcDbLine
 10
577.267588
 20
710.351617
 30
0.0
 11
577.671818
 21
710.755847
 31
0.0
  0
LINE
  5
22F
100
AcDbEntity
  8
LAY-1
  6
CONTINUOUS
 62
     2
100
AcDbLine
 10
576.863359
 20
709.947388
 30
0.0
 11
577.614071
 21
709.196676
 31
0.0
  0
LINE
  5
230
100
AcDbEntity
  8
LAY-1
  6
CONTINUOUS
 62
     2
100
AcDbLine
 10
576.863359
 20
707.291024
 30
0.0
 11
577.614071
 21
708.041735
 31
0.0
  0
ARC
  5
231
100
AcDbEntity
  8
LAY-1
  6
CONTINUOUS
 62
     2
100
AcDbCircle
 10
577.0366
 20
708.619206
 30
0.0
 40
0.816667
100
AcDbArc
 50
315.0
 51
45.0
  0
LINE
  5
232
100
AcDbEntity
  8
LAY-1
  6
CONTINUOUS
 62
     2
100
AcDbLine
 10
577.267588
 20
706.886794
 30
0.0
 11
576.863359
 21
707.291024
 31
0.0
  0
LINE
  5
233
100
AcDbEntity
  8
LAY-1
  6
CONTINUOUS
 62
     2
100
AcDbLine
 10
577.267588
 20
710.351617
 30
0.0
 11
576.863359
 21
709.947388
 31
0.0
  0
LINE
  5
234
100
AcDbEntity
  8
LAY-1
  6
CONTINUOUS
 62
     2
100
AcDbLine
 10
574.0
 20
781.369206
 30
0.0
 11
575.127017
 21
781.369206
 31
0.0
  0
LINE
  5
235
100
AcDbEntity
  8
LAY-1
  6
CONTINUOUS
 62
     2
100
AcDbLine
 10
574.0
 20
775.869206
 30
0.0
 11
575.127017
 21
775.869206
 31
0.0
  0
CIRCLE
  5
236
100
AcDbEntity
  8
LAY-1
  6
CONTINUOUS
 62
     2
100
AcDbCircle
 10
579.0
 20
778.619206
 30
0.0
 40
4.75
  0
LINE
  5
237
100
AcDbEntity
  8
LAY-1
  6
CONTINUOUS
 62
     2
100
AcDbLine
 10
581.136641
 20
777.291024
 30
0.0
 11
580.385929
 21
778.041735
 31
0.0
  0
LINE
  5
238
100
AcDbEntity
  8
LAY-1
  6
CONTINUOUS
 62
     2
100
AcDbLine
 10
581.136641
 20
779.947388
 30
0.0
 11
580.385929
 21
779.196676
 31
0.0
  0
ARC
  5
239
100
AcDbEntity
  8
LAY-1
  6
CONTINUOUS
 62
     2
100
AcDbCircle
 10
580.9634
 20
778.619206
 30
0.0
 40
0.816667
100
AcDbArc
 50
135.0
 51
225.0
  0
LINE
  5
23A
100
AcDbEntity
  8
LAY-1
  6
CONTINUOUS
 62
     2
100
AcDbLine
 10
580.732412
 20
780.351617
 30
0.0
 11
581.136641
 21
779.947388
 31
0.0
  0
LINE
  5
23B
100
AcDbEntity
  8
LAY-1
  6
CONTINUOUS
 62
     2
100
AcDbLine
 10
580.732412
 20
776.886794
 30
0.0
 11
581.136641
 21
777.291024
 31
0.0
  0
LINE
  5
23C
100
AcDbEntity
  8
LAY-1
  6
CONTINUOUS
 62
     2
100
AcDbLine
 10
580.328182
 20
776.482565
 30
0.0
 11
579.577471
 21
777.233277
 31
0.0
  0
LINE
  5
23D
100
AcDbEntity
  8
LAY-1
  6
CONTINUOUS
 62
     2
100
AcDbLine
 10
577.671818
 20
776.482565
 30
0.0
 11
578.422529
 21
777.233277
 31
0.0
  0
ARC
  5
23E
100
AcDbEntity
  8
LAY-1
  6
CONTINUOUS
 62
     2
100
AcDbCircle
 10
579.0
 20
776.655806
 30
0.0
 40
0.816667
100
AcDbArc
 50
45.0
 51
135.0
  0
LINE
  5
23F
100
AcDbEntity
  8
LAY-1
  6
CONTINUOUS
 62
     2
100
AcDbLine
 10
577.267588
 20
776.886794
 30
0.0
 11
577.671818
 21
776.482565
 31
0.0
  0
LINE
  5
240
100
AcDbEntity
  8
LAY-1
  6
CONTINUOUS
 62
     2
100
AcDbLine
 10
580.732412
 20
776.886794
 30
0.0
 11
580.328182
 21
776.482565
 31
0.0
  0
LINE
  5
241
100
AcDbEntity
  8
LAY-1
  6
CONTINUOUS
 62
     2
100
AcDbLine
 10
577.671818
 20
780.755847
 30
0.0
 11
578.422529
 21
780.005135
 31
0.0
  0
LINE
  5
242
100
AcDbEntity
  8
LAY-1
  6
CONTINUOUS
 62
     2
100
AcDbLine
 10
580.328182
 20
780.755847
 30
0.0
 11
579.577471
 21
780.005135
 31
0.0
  0
ARC
  5
243
100
AcDbEntity
  8
LAY-1
  6
CONTINUOUS
 62
     2
100
AcDbCircle
 10
579.0
 20
780.582606
 30
0.0
 40
0.816667
100
AcDbArc
 50
225.0
 51
315.0
  0
LINE
  5
244
100
AcDbEntity
  8
LAY-1
  6
CONTINUOUS
 62
     2
100
AcDbLine
 10
580.732412
 20
780.351617
 30
0.0
 11
580.328182
 21
780.755847
 31
0.0
  0
LINE
  5
245
100
AcDbEntity
  8
LAY-1
  6
CONTINUOUS
 62
     2
100
AcDbLine
 10
577.267588
 20
780.351617
 30
0.0
 11
577.671818
 21
780.755847
 31
0.0
  0
LINE
  5
246
100
AcDbEntity
  8
LAY-1
  6
CONTINUOUS
 62
     2
100
AcDbLine
 10
576.863359
 20
779.947388
 30
0.0
 11
577.614071
 21
779.196676
 31
0.0
  0
LINE
  5
247
100
AcDbEntity
  8
LAY-1
  6
CONTINUOUS
 62
     2
100
AcDbLine
 10
576.863359
 20
777.291024
 30
0.0
 11
577.614071
 21
778.041735
 31
0.0
  0
ARC
  5
248
100
AcDbEntity
  8
LAY-1
  6
CONTINUOUS
 62
     2
100
AcDbCircle
 10
577.0366
 20
778.619206
 30
0.0
 40
0.816667
100
AcDbArc
 50
315.0
 51
45.0
  0
LINE
  5
249
100
AcDbEntity
  8
LAY-1
  6
CONTINUOUS
 62
     2
100
AcDbLine
 10
577.267588
 20
776.886794
 30
0.0
 11
576.863359
 21
777.291024
 31
0.0
  0
LINE
  5
24A
100
AcDbEntity
  8
LAY-1
  6
CONTINUOUS
 62
     2
100
AcDbLine
 10
577.267588
 20
780.351617
 30
0.0
 11
576.863359
 21
779.947388
 31
0.0
  0
POLYLINE
  5
24B
100
AcDbEntity
  8
LAY-1
  6
CONTINUOUS
 62
     2
100
AcDb2dPolyline
 66
     1
 10
0.0
 20
0.0
 30
0.0
 70
   128
  0
VERTEX
  5
24C
100
AcDbEntity
  8
LAY-1
  6
CONTINUOUS
 62
     2
100
AcDbVertex
100
AcDb2dVertex
 10
569.701706
 20
714.619206
 30
0.0
  0
VERTEX
  5
24D
100
AcDbEntity
  8
LAY-1
  6
CONTINUOUS
 62
     2
100
AcDbVertex
100
AcDb2dVertex
 10
563.350853
 20
725.619206
 30
0.0
  0
VERTEX
  5
24E
100
AcDbEntity
  8
LAY-1
  6
CONTINUOUS
 62
     2
100
AcDbVertex
100
AcDb2dVertex
 10
550.649147
 20
725.619206
 30
0.0
  0
VERTEX
  5
24F
100
AcDbEntity
  8
LAY-1
  6
CONTINUOUS
 62
     2
100
AcDbVertex
100
AcDb2dVertex
 10
544.298294
 20
714.619206
 30
0.0
  0
VERTEX
  5
250
100
AcDbEntity
  8
LAY-1
  6
CONTINUOUS
 62
     2
100
AcDbVertex
100
AcDb2dVertex
 10
550.649147
 20
703.619206
 30
0.0
  0
VERTEX
  5
251
100
AcDbEntity
  8
LAY-1
  6
CONTINUOUS
 62
     2
100
AcDbVertex
100
AcDb2dVertex
 10
563.350853
 20
703.619206
 30
0.0
  0
VERTEX
  5
252
100
AcDbEntity
  8
LAY-1
  6
CONTINUOUS
 62
     2
100
AcDbVertex
100
AcDb2dVertex
 10
569.701706
 20
714.619206
 30
0.0
  0
SEQEND
  5
253
100
AcDbEntity
  8
LAY-1
  6
CONTINUOUS
 62
     2
  0
CIRCLE
  5
254
100
AcDbEntity
  8
LAY-1
  6
CONTINUOUS
 62
     2
100
AcDbCircle
 10
557.0
 20
714.619206
 30
0.0
 40
11.0
  0
CIRCLE
  5
255
100
AcDbEntity
  8
LAY-1
  6
CONTINUOUS
 62
     2
100
AcDbCircle
 10
557.0
 20
714.619206
 30
0.0
 40
6.077158
  0
POLYLINE
  5
256
100
AcDbEntity
  8
LAY-1
  6
CONTINUOUS
 62
     2
100
AcDb2dPolyline
 66
     1
 10
0.0
 20
0.0
 30
0.0
 70
   128
  0
VERTEX
  5
257
100
AcDbEntity
  8
LAY-1
  6
CONTINUOUS
 62
     2
100
AcDbVertex
100
AcDb2dVertex
 10
569.701706
 20
772.619206
 30
0.0
  0
VERTEX
  5
258
100
AcDbEntity
  8
LAY-1
  6
CONTINUOUS
 62
     2
100
AcDbVertex
100
AcDb2dVertex
 10
563.350853
 20
783.619206
 30
0.0
  0
VERTEX
  5
259
100
AcDbEntity
  8
LAY-1
  6
CONTINUOUS
 62
     2
100
AcDbVertex
100
AcDb2dVertex
 10
550.649147
 20
783.619206
 30
0.0
  0
VERTEX
  5
25A
100
AcDbEntity
  8
LAY-1
  6
CONTINUOUS
 62
     2
100
AcDbVertex
100
AcDb2dVertex
 10
544.298294
 20
772.619206
 30
0.0
  0
VERTEX
  5
25B
100
AcDbEntity
  8
LAY-1
  6
CONTINUOUS
 62
     2
100
AcDbVertex
100
AcDb2dVertex
 10
550.649147
 20
761.619206
 30
0.0
  0
VERTEX
  5
25C
100
AcDbEntity
  8
LAY-1
  6
CONTINUOUS
 62
     2
100
AcDbVertex
100
AcDb2dVertex
 10
563.350853
 20
761.619206
 30
0.0
  0
VERTEX
  5
25D
100
AcDbEntity
  8
LAY-1
  6
CONTINUOUS
 62
     2
100
AcDbVertex
100
AcDb2dVertex
 10
569.701706
 20
772.619206
 30
0.0
  0
SEQEND
  5
25E
100
AcDbEntity
  8
LAY-1
  6
CONTINUOUS
 62
     2
  0
CIRCLE
  5
25F
100
AcDbEntity
  8
LAY-1
  6
CONTINUOUS
 62
     2
100
AcDbCircle
 10
557.0
 20
772.619206
 30
0.0
 40
11.0
  0
CIRCLE
  5
260
100
AcDbEntity
  8
LAY-1
  6
CONTINUOUS
 62
     2
100
AcDbCircle
 10
557.0
 20
772.619206
 30
0.0
 40
6.077158
  0
LINE
  5
261
100
AcDbEntity
  8
LAY-1
  6
EXLTYPE3
 62
     1
100
AcDbLine
 10
1744.28026
 20
778.619206
 30
0.0
 11
1714.9
 21
778.619206
 31
0.0
  0
LINE
  5
262
100
AcDbEntity
  8
LAY-1
  6
EXLTYPE3
 62
     1
100
AcDbLine
 10
1755.18026
 20
708.619206
 30
0.0
 11
1717.18026
 21
708.619206
 31
0.0
  0
LINE
  5
263
100
AcDbEntity
  8
LAY-1
  6
EXLTYPE3
 62
     1
100
AcDbLine
 10
1778.03279
 20
783.619206
 30
0.0
 11
1764.205326
 21
783.619206
 31
0.0
  0
LINE
  5
264
100
AcDbEntity
  8
LAY-1
  6
EXLTYPE3
 62
     1
100
AcDbLine
 10
1764.205326
 20
703.619206
 30
0.0
 11
1777.600682
 21
703.619206
 31
0.0
  0
LINE
  5
265
100
AcDbEntity
  8
LAY-1
  6
EXLTYPE3
 62
     1
100
AcDbLine
 10
1728.0
 20
805.258226
 30
0.0
 11
1728.0
 21
674.758226
 31
0.0
  0
LINE
  5
266
100
AcDbEntity
  8
LAY-1
  6
CONTINUOUS
 62
     2
100
AcDbLine
 10
1733.0
 20
798.619206
 30
0.0
 11
1421.0
 21
798.619206
 31
0.0
  0
LINE
  5
267
100
AcDbEntity
  8
LAY-1
  6
CONTINUOUS
 62
     2
100
AcDbLine
 10
1733.0
 20
798.619206
 30
0.0
 11
1733.0
 21
781.369206
 31
0.0
  0
LINE
  5
268
100
AcDbEntity
  8
LAY-1
  6
CONTINUOUS
 62
     2
100
AcDbLine
 10
1733.0
 20
775.869206
 30
0.0
 11
1733.0
 21
711.369206
 31
0.0
  0
LINE
  5
269
100
AcDbEntity
  8
LAY-1
  6
CONTINUOUS
 62
     2
100
AcDbLine
 10
1733.0
 20
705.869206
 30
0.0
 11
1733.0
 21
688.619206
 31
0.0
  0
ARC
  5
26A
100
AcDbEntity
  8
LAY-1
  6
CONTINUOUS
 62
     2
100
AcDbCircle
 10
1552.6
 20
649.619206
 30
0.0
 40
6.1
100
AcDbArc
 50
100.388858
 51
259.611142
  0
ARC
  5
26B
100
AcDbEntity
  8
LAY-1
  6
CONTINUOUS
 62
     2
100
AcDbCircle
 10
1529.850628
 20
649.177644
 30
0.0
 40
6.649372
100
AcDbArc
 50
303.286754
 51
75.63789
  0
LINE
  5
26C
100
AcDbEntity
  8
LAY-1
  6
CONTINUOUS
 62
     2
100
AcDbLine
 10
1531.5
 20
655.619206
 30
0.0
 11
1526.5
 21
660.619206
 31
0.0
  0
LINE
  5
26D
100
AcDbEntity
  8
LAY-1
  6
CONTINUOUS
 62
     2
100
AcDbLine
 10
1556.5
 20
660.619206
 30
0.0
 11
1551.5
 21
655.619206
 31
0.0
  0
LINE
  5
26E
100
AcDbEntity
  8
LAY-1
  6
CONTINUOUS
 62
     2
100
AcDbLine
 10
1531.5
 20
655.619206
 30
0.0
 11
1551.5
 21
655.619206
 31
0.0
  0
LINE
  5
26F
100
AcDbEntity
  8
LAY-1
  6
CONTINUOUS
 62
     2
100
AcDbLine
 10
1556.5
 20
660.619206
 30
0.0
 11
1556.5
 21
665.619206
 31
0.0
  0
LINE
  5
270
100
AcDbEntity
  8
LAY-1
  6
CONTINUOUS
 62
     2
100
AcDbLine
 10
1526.5
 20
660.619206
 30
0.0
 11
1556.5
 21
660.619206
 31
0.0
  0
LINE
  5
271
100
AcDbEntity
  8
LAY-1
  6
CONTINUOUS
 62
     2
100
AcDbLine
 10
1526.5
 20
665.619206
 30
0.0
 11
1526.5
 21
660.619206
 31
0.0
  0
ARC
  5
272
100
AcDbEntity
  8
LAY-1
  6
CONTINUOUS
 62
     2
100
AcDbCircle
 10
1535.5
 20
637.619206
 30
0.0
 40
2.0
100
AcDbArc
 50
180.0
 51
270.0
  0
ARC
  5
273
100
AcDbEntity
  8
LAY-1
  6
CONTINUOUS
 62
     2
100
AcDbCircle
 10
1594.5
 20
637.619206
 30
0.0
 40
2.0
100
AcDbArc
 50
270.0
 51
0.0
  0
LINE
  5
274
100
AcDbEntity
  8
LAY-1
  6
CONTINUOUS
 62
     2
100
AcDbLine
 10
1535.5
 20
635.619206
 30
0.0
 11
1594.5
 21
635.619206
 31
0.0
  0
LINE
  5
275
100
AcDbEntity
  8
LAY-1
  6
CONTINUOUS
 62
     2
100
AcDbLine
 10
1533.5
 20
643.619206
 30
0.0
 11
1533.5
 21
637.619206
 31
0.0
  0
LINE
  5
276
100
AcDbEntity
  8
LAY-1
  6
CONTINUOUS
 62
     2
100
AcDbLine
 10
1594.5
 20
643.619206
 30
0.0
 11
1533.5
 21
643.619206
 31
0.0
  0
LINE
  5
277
100
AcDbEntity
  8
LAY-1
  6
CONTINUOUS
 62
     2
100
AcDbLine
 10
1596.5
 20
637.619206
 30
0.0
 11
1596.5
 21
641.619206
 31
0.0
  0
ARC
  5
278
100
AcDbEntity
  8
LAY-1
  6
CONTINUOUS
 62
     2
100
AcDbCircle
 10
1594.5
 20
641.619206
 30
0.0
 40
2.0
100
AcDbArc
 50
0.0
 51
90.0
  0
LINE
  5
279
100
AcDbEntity
  8
LAY-1
  6
CONTINUOUS
 62
     2
100
AcDbLine
 10
1456.0
 20
665.619206
 30
0.0
 11
1506.0
 21
665.619206
 31
0.0
  0
LINE
  5
27A
100
AcDbEntity
  8
LAY-1
  6
CONTINUOUS
 62
     2
100
AcDbLine
 10
1711.0
 20
688.619206
 30
0.0
 11
1711.0
 21
665.619206
 31
0.0
  0
LINE
  5
27B
100
AcDbEntity
  8
LAY-1
  6
CONTINUOUS
 62
     2
100
AcDbLine
 10
1506.0
 20
665.619206
 30
0.0
 11
1711.0
 21
665.619206
 31
0.0
  0
LINE
  5
27C
100
AcDbEntity
  8
LAY-1
  6
CONTINUOUS
 62
     2
100
AcDbLine
 10
1450.068112
 20
648.619206
 30
0.0
 11
1451.290436
 21
648.619206
 31
0.0
  0
LINE
  5
27D
100
AcDbEntity
  8
LAY-1
  6
CONTINUOUS
 62
     2
100
AcDbLine
 10
1421.0
 20
798.619206
 30
0.0
 11
1450.068112
 21
648.619206
 31
0.0
  0
LINE
  5
27E
100
AcDbEntity
  8
LAY-1
  6
CONTINUOUS
 62
     2
100
AcDbLine
 10
1447.441988
 20
668.478329
 30
0.0
 11
1451.290436
 21
648.619206
 31
0.0
  0
LINE
  5
27F
100
AcDbEntity
  8
LAY-1
  6
CONTINUOUS
 62
     2
100
AcDbLine
 10
1451.9
 20
668.478329
 30
0.0
 11
1451.9
 21
798.619206
 31
0.0
  0
LINE
  5
280
100
AcDbEntity
  8
LAY-1
  6
CONTINUOUS
 62
     2
100
AcDbLine
 10
1733.0
 20
688.619206
 30
0.0
 11
1451.9
 21
688.619206
 31
0.0
  0
LINE
  5
281
100
AcDbEntity
  8
LAY-1
  6
CONTINUOUS
 62
     2
100
AcDbLine
 10
1451.9
 20
668.478329
 30
0.0
 11
1446.219664
 21
668.478329
 31
0.0
  0
LINE
  5
282
100
AcDbEntity
  8
LAY-1
  6
CONTINUOUS
 62
     2
100
AcDbLine
 10
1456.0
 20
665.619206
 30
0.0
 11
1456.0
 21
688.619206
 31
0.0
  0
LINE
  5
283
100
AcDbEntity
  8
LAY-1
  6
CONTINUOUS
 62
     2
100
AcDbLine
 10
1513.0
 20
696.619206
 30
0.0
 11
1513.0
 21
688.619206
 31
0.0
  0
LINE
  5
284
100
AcDbEntity
  8
LAY-1
  6
CONTINUOUS
 62
     2
100
AcDbLine
 10
1488.0
 20
696.619206
 30
0.0
 11
1488.0
 21
676.619206
 31
0.0
  0
LINE
  5
285
100
AcDbEntity
  8
LAY-1
  6
CONTINUOUS
 62
     2
100
AcDbLine
 10
1538.0
 20
696.619206
 30
0.0
 11
1538.0
 21
676.619206
 31
0.0
  0
LINE
  5
286
100
AcDbEntity
  8
LAY-1
  6
CONTINUOUS
 62
     2
100
AcDbLine
 10
1631.0
 20
696.619206
 30
0.0
 11
1631.0
 21
676.619206
 31
0.0
  0
LINE
  5
287
100
AcDbEntity
  8
LAY-1
  6
CONTINUOUS
 62
     2
100
AcDbLine
 10
1681.0
 20
696.619206
 30
0.0
 11
1681.0
 21
676.619206
 31
0.0
  0
LINE
  5
288
100
AcDbEntity
  8
LAY-1
  6
CONTINUOUS
 62
     2
100
AcDbLine
 10
1681.0
 20
676.619206
 30
0.0
 11
1631.0
 21
676.619206
 31
0.0
  0
LINE
  5
289
100
AcDbEntity
  8
LAY-1
  6
CONTINUOUS
 62
     2
100
AcDbLine
 10
1538.0
 20
676.619206
 30
0.0
 11
1488.0
 21
676.619206
 31
0.0
  0
LINE
  5
28A
100
AcDbEntity
  8
LAY-1
  6
CONTINUOUS
 62
     2
100
AcDbLine
 10
1681.0
 20
696.619206
 30
0.0
 11
1631.0
 21
696.619206
 31
0.0
  0
LINE
  5
28B
100
AcDbEntity
  8
LAY-1
  6
CONTINUOUS
 62
     2
100
AcDbLine
 10
1538.0
 20
696.619206
 30
0.0
 11
1488.0
 21
696.619206
 31
0.0
  0
LINE
  5
28C
100
AcDbEntity
  8
LAY-1
  6
CONTINUOUS
 62
     2
100
AcDbLine
 10
1656.0
 20
696.619206
 30
0.0
 11
1656.0
 21
688.619206
 31
0.0
  0
LINE
  5
28D
100
AcDbEntity
  8
LAY-1
  6
CONTINUOUS
 62
     2
100
AcDbLine
 10
1713.0
 20
798.619206
 30
0.0
 11
1773.0
 21
798.619206
 31
0.0
  0
LINE
  5
28E
100
AcDbEntity
  8
LAY-1
  6
CONTINUOUS
 62
     2
100
AcDbLine
 10
1773.0
 20
688.619206
 30
0.0
 11
1713.0
 21
688.619206
 31
0.0
  0
LINE
  5
28F
100
AcDbEntity
  8
LAY-1
  6
CONTINUOUS
 62
     2
100
AcDbLine
 10
1769.0
 20
798.619206
 30
0.0
 11
1769.0
 21
688.619206
 31
0.0
  0
LINE
  5
290
100
AcDbEntity
  8
LAY-1
  6
CONTINUOUS
 62
     2
100
AcDbLine
 10
1773.0
 20
798.619206
 30
0.0
 11
1773.0
 21
688.619206
 31
0.0
  0
LINE
  5
291
100
AcDbEntity
  8
LAY-1
  6
CONTINUOUS
 62
     2
100
AcDbLine
 10
1733.0
 20
775.869206
 30
0.0
 11
1731.872983
 21
775.869206
 31
0.0
  0
LINE
  5
292
100
AcDbEntity
  8
LAY-1
  6
CONTINUOUS
 62
     2
100
AcDbLine
 10
1733.0
 20
781.369206
 30
0.0
 11
1731.872983
 21
781.369206
 31
0.0
  0
CIRCLE
  5
293
100
AcDbEntity
  8
LAY-1
  6
CONTINUOUS
 62
     2
100
AcDbCircle
 10
1728.0
 20
778.619206
 30
0.0
 40
4.75
  0
LINE
  5
294
100
AcDbEntity
  8
LAY-1
  6
CONTINUOUS
 62
     2
100
AcDbLine
 10
1725.863359
 20
779.947388
 30
0.0
 11
1726.614071
 21
779.196676
 31
0.0
  0
LINE
  5
295
100
AcDbEntity
  8
LAY-1
  6
CONTINUOUS
 62
     2
100
AcDbLine
 10
1725.863359
 20
777.291024
 30
0.0
 11
1726.614071
 21
778.041735
 31
0.0
  0
ARC
  5
296
100
AcDbEntity
  8
LAY-1
  6
CONTINUOUS
 62
     2
100
AcDbCircle
 10
1726.0366
 20
778.619206
 30
0.0
 40
0.816667
100
AcDbArc
 50
315.0
 51
45.0
  0
LINE
  5
297
100
AcDbEntity
  8
LAY-1
  6
CONTINUOUS
 62
     2
100
AcDbLine
 10
1726.267588
 20
776.886794
 30
0.0
 11
1725.863359
 21
777.291024
 31
0.0
  0
LINE
  5
298
100
AcDbEntity
  8
LAY-1
  6
CONTINUOUS
 62
     2
100
AcDbLine
 10
1726.267588
 20
780.351617
 30
0.0
 11
1725.863359
 21
779.947388
 31
0.0
  0
LINE
  5
299
100
AcDbEntity
  8
LAY-1
  6
CONTINUOUS
 62
     2
100
AcDbLine
 10
1726.671818
 20
780.755847
 30
0.0
 11
1727.422529
 21
780.005135
 31
0.0
  0
LINE
  5
29A
100
AcDbEntity
  8
LAY-1
  6
CONTINUOUS
 62
     2
100
AcDbLine
 10
1729.328182
 20
780.755847
 30
0.0
 11
1728.577471
 21
780.005135
 31
0.0
  0
ARC
  5
29B
100
AcDbEntity
  8
LAY-1
  6
CONTINUOUS
 62
     2
100
AcDbCircle
 10
1728.0
 20
780.582606
 30
0.0
 40
0.816667
100
AcDbArc
 50
225.0
 51
315.0
  0
LINE
  5
29C
100
AcDbEntity
  8
LAY-1
  6
CONTINUOUS
 62
     2
100
AcDbLine
 10
1729.732412
 20
780.351617
 30
0.0
 11
1729.328182
 21
780.755847
 31
0.0
  0
LINE
  5
29D
100
AcDbEntity
  8
LAY-1
  6
CONTINUOUS
 62
     2
100
AcDbLine
 10
1726.267588
 20
780.351617
 30
0.0
 11
1726.671818
 21
780.755847
 31
0.0
  0
LINE
  5
29E
100
AcDbEntity
  8
LAY-1
  6
CONTINUOUS
 62
     2
100
AcDbLine
 10
1729.328182
 20
776.482565
 30
0.0
 11
1728.577471
 21
777.233277
 31
0.0
  0
LINE
  5
29F
100
AcDbEntity
  8
LAY-1
  6
CONTINUOUS
 62
     2
100
AcDbLine
 10
1726.671818
 20
776.482565
 30
0.0
 11
1727.422529
 21
777.233277
 31
0.0
  0
ARC
  5
2A0
100
AcDbEntity
  8
LAY-1
  6
CONTINUOUS
 62
     2
100
AcDbCircle
 10
1728.0
 20
776.655806
 30
0.0
 40
0.816667
100
AcDbArc
 50
45.0
 51
135.0
  0
LINE
  5
2A1
100
AcDbEntity
  8
LAY-1
  6
CONTINUOUS
 62
     2
100
AcDbLine
 10
1726.267588
 20
776.886794
 30
0.0
 11
1726.671818
 21
776.482565
 31
0.0
  0
LINE
  5
2A2
100
AcDbEntity
  8
LAY-1
  6
CONTINUOUS
 62
     2
100
AcDbLine
 10
1729.732412
 20
776.886794
 30
0.0
 11
1729.328182
 21
776.482565
 31
0.0
  0
LINE
  5
2A3
100
AcDbEntity
  8
LAY-1
  6
CONTINUOUS
 62
     2
100
AcDbLine
 10
1730.136641
 20
777.291024
 30
0.0
 11
1729.385929
 21
778.041735
 31
0.0
  0
LINE
  5
2A4
100
AcDbEntity
  8
LAY-1
  6
CONTINUOUS
 62
     2
100
AcDbLine
 10
1730.136641
 20
779.947388
 30
0.0
 11
1729.385929
 21
779.196676
 31
0.0
  0
ARC
  5
2A5
100
AcDbEntity
  8
LAY-1
  6
CONTINUOUS
 62
     2
100
AcDbCircle
 10
1729.9634
 20
778.619206
 30
0.0
 40
0.816667
100
AcDbArc
 50
135.0
 51
225.0
  0
LINE
  5
2A6
100
AcDbEntity
  8
LAY-1
  6
CONTINUOUS
 62
     2
100
AcDbLine
 10
1729.732412
 20
780.351617
 30
0.0
 11
1730.136641
 21
779.947388
 31
0.0
  0
LINE
  5
2A7
100
AcDbEntity
  8
LAY-1
  6
CONTINUOUS
 62
     2
100
AcDbLine
 10
1729.732412
 20
776.886794
 30
0.0
 11
1730.136641
 21
777.291024
 31
0.0
  0
LINE
  5
2A8
100
AcDbEntity
  8
LAY-1
  6
CONTINUOUS
 62
     2
100
AcDbLine
 10
1733.0
 20
705.869206
 30
0.0
 11
1731.872983
 21
705.869206
 31
0.0
  0
LINE
  5
2A9
100
AcDbEntity
  8
LAY-1
  6
CONTINUOUS
 62
     2
100
AcDbLine
 10
1733.0
 20
711.369206
 30
0.0
 11
1731.872983
 21
711.369206
 31
0.0
  0
CIRCLE
  5
2AA
100
AcDbEntity
  8
LAY-1
  6
CONTINUOUS
 62
     2
100
AcDbCircle
 10
1728.0
 20
708.619206
 30
0.0
 40
4.75
  0
LINE
  5
2AB
100
AcDbEntity
  8
LAY-1
  6
CONTINUOUS
 62
     2
100
AcDbLine
 10
1725.863359
 20
709.947388
 30
0.0
 11
1726.614071
 21
709.196676
 31
0.0
  0
LINE
  5
2AC
100
AcDbEntity
  8
LAY-1
  6
CONTINUOUS
 62
     2
100
AcDbLine
 10
1725.863359
 20
707.291024
 30
0.0
 11
1726.614071
 21
708.041735
 31
0.0
  0
ARC
  5
2AD
100
AcDbEntity
  8
LAY-1
  6
CONTINUOUS
 62
     2
100
AcDbCircle
 10
1726.0366
 20
708.619206
 30
0.0
 40
0.816667
100
AcDbArc
 50
315.0
 51
45.0
  0
LINE
  5
2AE
100
AcDbEntity
  8
LAY-1
  6
CONTINUOUS
 62
     2
100
AcDbLine
 10
1726.267588
 20
706.886794
 30
0.0
 11
1725.863359
 21
707.291024
 31
0.0
  0
LINE
  5
2AF
100
AcDbEntity
  8
LAY-1
  6
CONTINUOUS
 62
     2
100
AcDbLine
 10
1726.267588
 20
710.351617
 30
0.0
 11
1725.863359
 21
709.947388
 31
0.0
  0
LINE
  5
2B0
100
AcDbEntity
  8
LAY-1
  6
CONTINUOUS
 62
     2
100
AcDbLine
 10
1726.671818
 20
710.755847
 30
0.0
 11
1727.422529
 21
710.005135
 31
0.0
  0
LINE
  5
2B1
100
AcDbEntity
  8
LAY-1
  6
CONTINUOUS
 62
     2
100
AcDbLine
 10
1729.328182
 20
710.755847
 30
0.0
 11
1728.577471
 21
710.005135
 31
0.0
  0
ARC
  5
2B2
100
AcDbEntity
  8
LAY-1
  6
CONTINUOUS
 62
     2
100
AcDbCircle
 10
1728.0
 20
710.582606
 30
0.0
 40
0.816667
100
AcDbArc
 50
225.0
 51
315.0
  0
LINE
  5
2B3
100
AcDbEntity
  8
LAY-1
  6
CONTINUOUS
 62
     2
100
AcDbLine
 10
1729.732412
 20
710.351617
 30
0.0
 11
1729.328182
 21
710.755847
 31
0.0
  0
LINE
  5
2B4
100
AcDbEntity
  8
LAY-1
  6
CONTINUOUS
 62
     2
100
AcDbLine
 10
1726.267588
 20
710.351617
 30
0.0
 11
1726.671818
 21
710.755847
 31
0.0
  0
LINE
  5
2B5
100
AcDbEntity
  8
LAY-1
  6
CONTINUOUS
 62
     2
100
AcDbLine
 10
1729.328182
 20
706.482565
 30
0.0
 11
1728.577471
 21
707.233277
 31
0.0
  0
LINE
  5
2B6
100
AcDbEntity
  8
LAY-1
  6
CONTINUOUS
 62
     2
100
AcDbLine
 10
1726.671818
 20
706.482565
 30
0.0
 11
1727.422529
 21
707.233277
 31
0.0
  0
ARC
  5
2B7
100
AcDbEntity
  8
LAY-1
  6
CONTINUOUS
 62
     2
100
AcDbCircle
 10
1728.0
 20
706.655806
 30
0.0
 40
0.816667
100
AcDbArc
 50
45.0
 51
135.0
  0
LINE
  5
2B8
100
AcDbEntity
  8
LAY-1
  6
CONTINUOUS
 62
     2
100
AcDbLine
 10
1726.267588
 20
706.886794
 30
0.0
 11
1726.671818
 21
706.482565
 31
0.0
  0
LINE
  5
2B9
100
AcDbEntity
  8
LAY-1
  6
CONTINUOUS
 62
     2
100
AcDbLine
 10
1729.732412
 20
706.886794
 30
0.0
 11
1729.328182
 21
706.482565
 31
0.0
  0
LINE
  5
2BA
100
AcDbEntity
  8
LAY-1
  6
CONTINUOUS
 62
     2
100
AcDbLine
 10
1730.136641
 20
707.291024
 30
0.0
 11
1729.385929
 21
708.041735
 31
0.0
  0
LINE
  5
2BB
100
AcDbEntity
  8
LAY-1
  6
CONTINUOUS
 62
     2
100
AcDbLine
 10
1730.136641
 20
709.947388
 30
0.0
 11
1729.385929
 21
709.196676
 31
0.0
  0
ARC
  5
2BC
100
AcDbEntity
  8
LAY-1
  6
CONTINUOUS
 62
     2
100
AcDbCircle
 10
1729.9634
 20
708.619206
 30
0.0
 40
0.816667
100
AcDbArc
 50
135.0
 51
225.0
  0
LINE
  5
2BD
100
AcDbEntity
  8
LAY-1
  6
CONTINUOUS
 62
     2
100
AcDbLine
 10
1729.732412
 20
710.351617
 30
0.0
 11
1730.136641
 21
709.947388
 31
0.0
  0
LINE
  5
2BE
100
AcDbEntity
  8
LAY-1
  6
CONTINUOUS
 62
     2
100
AcDbLine
 10
1729.732412
 20
706.886794
 30
0.0
 11
1730.136641
 21
707.291024
 31
0.0
  0
LINE
  5
2BF
100
AcDbEntity
  8
LAY-1
  6
EXLTYPE3
 62
     1
100
AcDbLine
 10
1282.856782
 20
1306.772546
 30
0.0
 11
1282.856782
 21
1331.314292
 31
0.0
  0
LINE
  5
2C0
100
AcDbEntity
  8
LAY-1
  6
EXLTYPE3
 62
     1
100
AcDbLine
 10
1013.856782
 20
1331.314292
 30
0.0
 11
1013.856782
 21
1307.371126
 31
0.0
  0
LINE
  5
2C1
100
AcDbEntity
  8
LAY-1
  6
EXLTYPE3
 62
     1
100
AcDbLine
 10
1079.656782
 20
1297.0
 30
0.0
 11
1037.056782
 21
1297.0
 31
0.0
  0
LINE
  5
2C2
100
AcDbEntity
  8
LAY-1
  6
EXLTYPE3
 62
     1
100
AcDbLine
 10
989.056782
 20
1297.0
 30
0.0
 11
1082.056782
 21
1297.0
 31
0.0
  0
LINE
  5
2C3
100
AcDbEntity
  8
LAY-1
  6
CONTINUOUS
 62
     2
100
AcDbLine
 10
1039.656782
 20
1260.0
 30
0.0
 11
1239.356782
 21
1260.0
 31
0.0
  0
LINE
  5
2C4
100
AcDbEntity
  8
LAY-1
  6
CONTINUOUS
 62
     2
100
AcDbLine
 10
1075.656782
 20
1260.0
 30
0.0
 11
1257.056782
 21
1260.0
 31
0.0
  0
LINE
  5
2C5
100
AcDbEntity
  8
LAY-1
  6
CONTINUOUS
 62
     2
100
AcDbLine
 10
1257.056782
 20
968.0
 30
0.0
 11
1259.056782
 21
968.0
 31
0.0
  0
LINE
  5
2C6
100
AcDbEntity
  8
LAY-1
  6
CONTINUOUS
 62
     2
100
AcDbLine
 10
1037.656782
 20
968.0
 30
0.0
 11
1259.056782
 21
968.0
 31
0.0
  0
LINE
  5
2C7
100
AcDbEntity
  8
LAY-1
  6
CONTINUOUS
 62
     2
100
AcDbLine
 10
1255.856782
 20
1280.0
 30
0.0
 11
1255.856782
 21
1260.0
 31
0.0
  0
LINE
  5
2C8
100
AcDbEntity
  8
LAY-1
  6
CONTINUOUS
 62
     2
100
AcDbLine
 10
1040.856782
 20
1280.0
 30
0.0
 11
1040.856782
 21
1260.0
 31
0.0
  0
LINE
  5
2C9
100
AcDbEntity
  8
LAY-1
  6
CONTINUOUS
 62
     2
100
AcDbLine
 10
1257.056782
 20
1280.0
 30
0.0
 11
1255.856782
 21
1280.0
 31
0.0
  0
LINE
  5
2CA
100
AcDbEntity
  8
LAY-1
  6
CONTINUOUS
 62
     2
100
AcDbLine
 10
1040.856782
 20
1280.0
 30
0.0
 11
1039.656782
 21
1280.0
 31
0.0
  0
LINE
  5
2CB
100
AcDbEntity
  8
LAY-1
  6
CONTINUOUS
 62
     2
100
AcDbLine
 10
1257.056782
 20
1258.0
 30
0.0
 11
1039.656782
 21
1258.0
 31
0.0
  0
LINE
  5
2CC
100
AcDbEntity
  8
LAY-1
  6
CONTINUOUS
 62
     2
100
AcDbLine
 10
1259.056782
 20
998.290436
 30
0.0
 11
1259.056782
 21
968.0
 31
0.0
  0
LINE
  5
2CD
100
AcDbEntity
  8
LAY-1
  6
CONTINUOUS
 62
     2
100
AcDbLine
 10
1037.656782
 20
998.290436
 30
0.0
 11
1037.656782
 21
968.0
 31
0.0
  0
LINE
  5
2CE
100
AcDbEntity
  8
LAY-1
  6
CONTINUOUS
 62
     2
100
AcDbLine
 10
1297.856782
 20
1320.0
 30
0.0
 11
1255.856782
 21
1320.0
 31
0.0
  0
LINE
  5
2CF
100
AcDbEntity
  8
LAY-1
  6
CONTINUOUS
 62
     2
100
AcDbLine
 10
1297.856782
 20
1316.0
 30
0.0
 11
1297.856782
 21
1320.0
 31
0.0
  0
LINE
  5
2D0
100
AcDbEntity
  8
LAY-1
  6
CONTINUOUS
 62
     2
100
AcDbLine
 10
1255.856782
 20
1316.0
 30
0.0
 11
1297.856782
 21
1316.0
 31
0.0
  0
LINE
  5
2D1
100
AcDbEntity
  8
LAY-1
  6
CONTINUOUS
 62
     2
100
AcDbLine
 10
1255.856782
 20
1264.0
 30
0.0
 11
1255.856782
 21
1316.0
 31
0.0
  0
LINE
  5
2D2
100
AcDbEntity
  8
LAY-1
  6
CONTINUOUS
 62
     2
100
AcDbLine
 10
1251.856782
 20
1316.0
 30
0.0
 11
1251.856782
 21
1264.0
 31
0.0
  0
ARC
  5
2D3
100
AcDbEntity
  8
LAY-1
  6
CONTINUOUS
 62
     2
100
AcDbCircle
 10
1255.856782
 20
1316.0
 30
0.0
 40
4.0
100
AcDbArc
 50
90.0
 51
180.0
  0
ARC
  5
2D4
100
AcDbEntity
  8
LAY-1
  6
CONTINUOUS
 62
     2
100
AcDbCircle
 10
1251.856782
 20
1264.0
 30
0.0
 40
4.0
100
AcDbArc
 50
270.0
 51
0.0
  0
LINE
  5
2D5
100
AcDbEntity
  8
LAY-1
  6
CONTINUOUS
 62
     2
100
AcDbLine
 10
1044.856782
 20
1264.0
 30
0.0
 11
1044.856782
 21
1316.0
 31
0.0
  0
LINE
  5
2D6
100
AcDbEntity
  8
LAY-1
  6
CONTINUOUS
 62
     2
100
AcDbLine
 10
1040.856782
 20
1316.0
 30
0.0
 11
1040.856782
 21
1264.0
 31
0.0
  0
LINE
  5
2D7
100
AcDbEntity
  8
LAY-1
  6
CONTINUOUS
 62
     2
100
AcDbLine
 10
998.856782
 20
1316.0
 30
0.0
 11
1040.856782
 21
1316.0
 31
0.0
  0
LINE
  5
2D8
100
AcDbEntity
  8
LAY-1
  6
CONTINUOUS
 62
     2
100
AcDbLine
 10
998.856782
 20
1320.0
 30
0.0
 11
998.856782
 21
1316.0
 31
0.0
  0
LINE
  5
2D9
100
AcDbEntity
  8
LAY-1
  6
CONTINUOUS
 62
     2
100
AcDbLine
 10
1040.856782
 20
1320.0
 30
0.0
 11
998.856782
 21
1320.0
 31
0.0
  0
ARC
  5
2DA
100
AcDbEntity
  8
LAY-1
  6
CONTINUOUS
 62
     2
100
AcDbCircle
 10
1040.856782
 20
1316.0
 30
0.0
 40
4.0
100
AcDbArc
 50
0.0
 51
90.0
  0
ARC
  5
2DB
100
AcDbEntity
  8
LAY-1
  6
CONTINUOUS
 62
     2
100
AcDbCircle
 10
1044.856782
 20
1264.0
 30
0.0
 40
4.0
100
AcDbArc
 50
180.0
 51
270.0
  0
LINE
  5
2DC
100
AcDbEntity
  8
LAY-1
  6
CONTINUOUS
 62
     2
100
AcDbLine
 10
1251.856782
 20
1264.0
 30
0.0
 11
1044.856782
 21
1264.0
 31
0.0
  0
LINE
  5
2DD
100
AcDbEntity
  8
LAY-1
  6
CONTINUOUS
 62
     2
100
AcDbLine
 10
1044.856782
 20
1260.0
 30
0.0
 11
1251.856782
 21
1260.0
 31
0.0
  0
LINE
  5
2DE
100
AcDbEntity
  8
LAY-1
  6
CONTINUOUS
 62
     2
100
AcDbLine
 10
1053.856782
 20
1292.0
 30
0.0
 11
1053.326554
 21
1292.530228
 31
0.0
  0
LINE
  5
2DF
100
AcDbEntity
  8
LAY-1
  6
CONTINUOUS
 62
     2
100
AcDbLine
 10
1053.856782
 20
1302.0
 30
0.0
 11
1053.326554
 21
1301.469772
 31
0.0
  0
LINE
  5
2E0
100
AcDbEntity
  8
LAY-1
  6
CONTINUOUS
 62
     2
100
AcDbLine
 10
1053.326554
 20
1301.469772
 30
0.0
 11
1049.856782
 21
1301.277007
 31
0.0
  0
LINE
  5
2E1
100
AcDbEntity
  8
LAY-1
  6
CONTINUOUS
 62
     2
100
AcDbLine
 10
1053.326554
 20
1292.530228
 30
0.0
 11
1049.856782
 21
1292.722993
 31
0.0
  0
LINE
  5
2E2
100
AcDbEntity
  8
LAY-1
  6
CONTINUOUS
 62
     2
100
AcDbLine
 10
1053.866782
 20
1292.0
 30
0.0
 11
1053.336554
 21
1292.530228
 31
0.0
  0
LINE
  5
2E3
100
AcDbEntity
  8
LAY-1
  6
CONTINUOUS
 62
     2
100
AcDbLine
 10
1053.866782
 20
1302.0
 30
0.0
 11
1053.336554
 21
1301.469772
 31
0.0
  0
ARC
  5
2E4
100
AcDbEntity
  8
LAY-1
  6
CONTINUOUS
 62
     2
100
AcDbCircle
 10
1040.852095
 20
1306.534375
 30
0.0
 40
9.004687
100
AcDbArc
 50
334.942385
 51
0.0
  0
ARC
  5
2E5
100
AcDbEntity
  8
LAY-1
  6
CONTINUOUS
 62
     2
100
AcDbCircle
 10
1047.287798
 20
1306.534375
 30
0.0
 40
2.568984
100
AcDbArc
 50
0.0
 51
47.924978
  0
ARC
  5
2E6
100
AcDbEntity
  8
LAY-1
  6
CONTINUOUS
 62
     2
100
AcDbCircle
 10
1030.125923
 20
1297.0
 30
0.0
 40
19.730859
100
AcDbArc
 50
0.0
 51
16.853938
  0
ARC
  5
2E7
100
AcDbEntity
  8
LAY-1
  6
CONTINUOUS
 62
     2
100
AcDbCircle
 10
1030.125923
 20
1297.0
 30
0.0
 40
19.730859
100
AcDbArc
 50
343.146062
 51
0.0
  0
ARC
  5
2E8
100
AcDbEntity
  8
LAY-1
  6
CONTINUOUS
 62
     2
100
AcDbCircle
 10
1040.852095
 20
1287.465625
 30
0.0
 40
9.004687
100
AcDbArc
 50
0.0
 51
25.057615
  0
ARC
  5
2E9
100
AcDbEntity
  8
LAY-1
  6
CONTINUOUS
 62
     2
100
AcDbCircle
 10
1047.287798
 20
1287.465625
 30
0.0
 40
2.568984
100
AcDbArc
 50
312.075022
 51
0.0
  0
LINE
  5
2EA
100
AcDbEntity
  8
LAY-1
  6
CONTINUOUS
 62
     2
100
AcDbLine
 10
1049.856782
 20
1306.534375
 30
0.0
 11
1049.856782
 21
1287.465625
 31
0.0
  0
LINE
  5
2EB
100
AcDbEntity
  8
LAY-1
  6
CONTINUOUS
 62
     2
100
AcDbLine
 10
1053.326554
 20
1292.530228
 30
0.0
 11
1053.326554
 21
1292.029457
 31
0.0
  0
LINE
  5
2EC
100
AcDbEntity
  8
LAY-1
  6
CONTINUOUS
 62
     2
100
AcDbLine
 10
1053.856782
 20
1290.0
 30
0.0
 11
1053.856782
 21
1304.0
 31
0.0
  0
LINE
  5
2ED
100
AcDbEntity
  8
LAY-1
  6
CONTINUOUS
 62
     2
100
AcDbLine
 10
1053.856782
 20
1304.0
 30
0.0
 11
1066.856782
 21
1304.0
 31
0.0
  0
ARC
  5
2EE
100
AcDbEntity
  8
LAY-1
  6
CONTINUOUS
 62
     2
100
AcDbCircle
 10
1066.856782
 20
1297.0
 30
0.0
 40
7.0
100
AcDbArc
 50
0.0
 51
90.0
  0
LINE
  5
2EF
100
AcDbEntity
  8
LAY-1
  6
CONTINUOUS
 62
     2
100
AcDbLine
 10
1059.356782
 20
1290.0
 30
0.0
 11
1053.856782
 21
1290.0
 31
0.0
  0
ARC
  5
2F0
100
AcDbEntity
  8
LAY-1
  6
CONTINUOUS
 62
     2
100
AcDbCircle
 10
1059.356782
 20
1289.5
 30
0.0
 40
0.5
100
AcDbArc
 50
0.0
 51
90.0
  0
LINE
  5
2F1
100
AcDbEntity
  8
LAY-1
  6
CONTINUOUS
 62
     2
100
AcDbLine
 10
1068.356782
 20
1291.5
 30
0.0
 11
1064.099423
 21
1291.5
 31
0.0
  0
LINE
  5
2F2
100
AcDbEntity
  8
LAY-1
  6
CONTINUOUS
 62
     2
100
AcDbLine
 10
1068.356782
 20
1298.5
 30
0.0
 11
1068.356782
 21
1291.5
 31
0.0
  0
LINE
  5
2F3
100
AcDbEntity
  8
LAY-1
  6
CONTINUOUS
 62
     2
100
AcDbLine
 10
1061.356782
 20
1294.242641
 30
0.0
 11
1061.356782
 21
1298.5
 31
0.0
  0
LINE
  5
2F4
100
AcDbEntity
  8
LAY-1
  6
CONTINUOUS
 62
     2
100
AcDbLine
 10
1068.356782
 20
1298.5
 30
0.0
 11
1061.356782
 21
1298.5
 31
0.0
  0
ARC
  5
2F5
100
AcDbEntity
  8
LAY-1
  6
CONTINUOUS
 62
     2
100
AcDbCircle
 10
1059.856782
 20
1290.0
 30
0.0
 40
4.5
100
AcDbArc
 50
19.471221
 51
70.528779
  0
LINE
  5
2F6
100
AcDbEntity
  8
LAY-1
  6
CONTINUOUS
 62
     2
100
AcDbLine
 10
1060.146782
 20
1290.12
 30
0.0
 11
1061.626782
 21
1291.6
 31
0.0
  0
LINE
  5
2F7
100
AcDbEntity
  8
LAY-1
  6
CONTINUOUS
 62
     2
100
AcDbLine
 10
1059.856782
 20
1299.36
 30
0.0
 11
1059.856782
 21
1293.54
 31
0.0
  0
LINE
  5
2F8
100
AcDbEntity
  8
LAY-1
  6
CONTINUOUS
 62
     2
100
AcDbLine
 10
1069.356782
 20
1300.0
 30
0.0
 11
1060.356782
 21
1300.0
 31
0.0
  0
LINE
  5
2F9
100
AcDbEntity
  8
LAY-1
  6
CONTINUOUS
 62
     2
100
AcDbLine
 10
1069.856782
 20
1299.5
 30
0.0
 11
1069.856782
 21
1290.5
 31
0.0
  0
LINE
  5
2FA
100
AcDbEntity
  8
LAY-1
  6
CONTINUOUS
 62
     2
100
AcDbLine
 10
1069.356782
 20
1290.0
 30
0.0
 11
1063.320884
 21
1290.0
 31
0.0
  0
ARC
  5
2FB
100
AcDbEntity
  8
LAY-1
  6
CONTINUOUS
 62
     2
100
AcDbCircle
 10
1059.856782
 20
1290.0
 30
0.0
 40
3.0
100
AcDbArc
 50
8.213211
 51
81.786789
  0
ARC
  5
2FC
100
AcDbEntity
  8
LAY-1
  6
CONTINUOUS
 62
     2
100
AcDbCircle
 10
1068.356782
 20
1291.5
 30
0.0
 40
1.0
100
AcDbArc
 50
270.0
 51
0.0
  0
LINE
  5
2FD
100
AcDbEntity
  8
LAY-1
  6
CONTINUOUS
 62
     2
100
AcDbLine
 10
1069.356782
 20
1298.5
 30
0.0
 11
1069.356782
 21
1291.5
 31
0.0
  0
ARC
  5
2FE
100
AcDbEntity
  8
LAY-1
  6
CONTINUOUS
 62
     2
100
AcDbCircle
 10
1068.356782
 20
1298.5
 30
0.0
 40
1.0
100
AcDbArc
 50
0.0
 51
90.0
  0
LINE
  5
2FF
100
AcDbEntity
  8
LAY-1
  6
CONTINUOUS
 62
     2
100
AcDbLine
 10
1068.356782
 20
1299.5
 30
0.0
 11
1061.356782
 21
1299.5
 31
0.0
  0
ARC
  5
300
100
AcDbEntity
  8
LAY-1
  6
CONTINUOUS
 62
     2
100
AcDbCircle
 10
1061.356782
 20
1298.5
 30
0.0
 40
1.0
100
AcDbArc
 50
90.0
 51
180.0
  0
LINE
  5
301
100
AcDbEntity
  8
LAY-1
  6
CONTINUOUS
 62
     2
100
AcDbLine
 10
1060.356782
 20
1298.5
 30
0.0
 11
1060.356782
 21
1294.242641
 31
0.0
  0
ARC
  5
302
100
AcDbEntity
  8
LAY-1
  6
CONTINUOUS
 62
     2
100
AcDbCircle
 10
1061.356782
 20
1294.242641
 30
0.0
 40
1.0
100
AcDbArc
 50
180.0
 51
250.528779
  0
LINE
  5
303
100
AcDbEntity
  8
LAY-1
  6
CONTINUOUS
 62
     2
100
AcDbLine
 10
1068.356782
 20
1290.5
 30
0.0
 11
1064.099423
 21
1290.5
 31
0.0
  0
ARC
  5
304
100
AcDbEntity
  8
LAY-1
  6
CONTINUOUS
 62
     2
100
AcDbCircle
 10
1059.856782
 20
1290.0
 30
0.0
 40
3.5
100
AcDbArc
 50
19.471221
 51
70.528779
  0
ARC
  5
305
100
AcDbEntity
  8
LAY-1
  6
CONTINUOUS
 62
     2
100
AcDbCircle
 10
1064.099423
 20
1291.5
 30
0.0
 40
1.0
100
AcDbArc
 50
199.471221
 51
270.0
  0
LINE
  5
306
100
AcDbEntity
  8
LAY-1
  6
CONTINUOUS
 62
     2
100
AcDbLine
 10
1053.856782
 20
1302.0
 30
0.0
 11
1049.856782
 21
1301.777778
 31
0.0
  0
LINE
  5
307
100
AcDbEntity
  8
LAY-1
  6
CONTINUOUS
 62
     2
100
AcDbLine
 10
1053.856782
 20
1292.0
 30
0.0
 11
1049.856782
 21
1292.222222
 31
0.0
  0
LINE
  5
308
100
AcDbEntity
  8
LAY-1
  6
CONTINUOUS
 62
     2
100
AcDbLine
 10
1072.866782
 20
1303.0
 30
0.0
 11
1070.462334
 21
1303.0
 31
0.0
  0
LINE
  5
309
100
AcDbEntity
  8
LAY-1
  6
CONTINUOUS
 62
     2
100
AcDbLine
 10
1078.866782
 20
1291.4
 30
0.0
 11
1078.866782
 21
1297.0
 31
0.0
  0
LINE
  5
30A
100
AcDbEntity
  8
LAY-1
  6
CONTINUOUS
 62
     2
100
AcDbLine
 10
1066.266782
 20
1304.0
 30
0.0
 11
1056.866782
 21
1304.0
 31
0.0
  0
LINE
  5
30B
100
AcDbEntity
  8
LAY-1
  6
CONTINUOUS
 62
     2
100
AcDbLine
 10
1079.866782
 20
1277.0
 30
0.0
 11
1079.866782
 21
1279.0
 31
0.0
  0
LINE
  5
30C
100
AcDbEntity
  8
LAY-1
  6
CONTINUOUS
 62
     2
100
AcDbLine
 10
1079.866782
 20
1281.0
 30
0.0
 11
1079.866782
 21
1290.4
 31
0.0
  0
LINE
  5
30D
100
AcDbEntity
  8
LAY-1
  6
CONTINUOUS
 62
     2
100
AcDbLine
 10
1079.116782
 20
1280.5
 30
0.0
 11
1079.116782
 21
1281.0
 31
0.0
  0
LINE
  5
30E
100
AcDbEntity
  8
LAY-1
  6
CONTINUOUS
 62
     2
100
AcDbLine
 10
1077.666782
 20
1279.0
 30
0.0
 11
1077.666782
 21
1280.5
 31
0.0
  0
LINE
  5
30F
100
AcDbEntity
  8
LAY-1
  6
CONTINUOUS
 62
     2
100
AcDbLine
 10
1079.866782
 20
1290.4
 30
0.0
 11
1078.866782
 21
1291.4
 31
0.0
  0
ARC
  5
310
100
AcDbEntity
  8
LAY-1
  6
CONTINUOUS
 62
     2
100
AcDbCircle
 10
1072.866782
 20
1297.0
 30
0.0
 40
6.0
100
AcDbArc
 50
0.0
 51
90.0
  0
ARC
  5
311
100
AcDbEntity
  8
LAY-1
  6
CONTINUOUS
 62
     2
100
AcDbCircle
 10
1085.988245
 20
1297.0
 30
0.0
 40
32.125
100
AcDbArc
 50
180.0
 51
180.850328
  0
ARC
  5
312
100
AcDbEntity
  8
LAY-1
  6
CONTINUOUS
 62
     2
100
AcDbCircle
 10
1085.988245
 20
1297.0
 30
0.0
 40
32.125
100
AcDbArc
 50
179.149672
 51
180.0
  0
LINE
  5
313
100
AcDbEntity
  8
LAY-1
  6
CONTINUOUS
 62
     2
100
AcDbLine
 10
1053.336554
 20
1292.530228
 30
0.0
 11
1053.336554
 21
1292.029457
 31
0.0
  0
LINE
  5
314
100
AcDbEntity
  8
LAY-1
  6
CONTINUOUS
 62
     2
100
AcDbLine
 10
1053.336554
 20
1292.029457
 30
0.0
 11
1053.336554
 21
1301.970543
 31
0.0
  0
LINE
  5
315
100
AcDbEntity
  8
LAY-1
  6
CONTINUOUS
 62
     2
100
AcDbLine
 10
1078.866782
 20
1291.4
 30
0.0
 11
1073.856782
 21
1291.4
 31
0.0
  0
LINE
  5
316
100
AcDbEntity
  8
LAY-1
  6
CONTINUOUS
 62
     2
100
AcDbLine
 10
1073.856782
 20
1290.4
 30
0.0
 11
1079.866782
 21
1290.4
 31
0.0
  0
LINE
  5
317
100
AcDbEntity
  8
LAY-1
  6
CONTINUOUS
 62
     2
100
AcDbLine
 10
1076.009323
 20
1277.0
 30
0.0
 11
1079.866782
 21
1277.0
 31
0.0
  0
LINE
  5
318
100
AcDbEntity
  8
LAY-1
  6
CONTINUOUS
 62
     2
100
AcDbLine
 10
1076.009323
 20
1279.0
 30
0.0
 11
1079.866782
 21
1279.0
 31
0.0
  0
LINE
  5
319
100
AcDbEntity
  8
LAY-1
  6
CONTINUOUS
 62
     2
100
AcDbLine
 10
1025.256782
 20
1292.0
 30
0.0
 11
1025.787011
 21
1292.530228
 31
0.0
  0
LINE
  5
31A
100
AcDbEntity
  8
LAY-1
  6
CONTINUOUS
 62
     2
100
AcDbLine
 10
1025.256782
 20
1302.0
 30
0.0
 11
1025.787011
 21
1301.469772
 31
0.0
  0
LINE
  5
31B
100
AcDbEntity
  8
LAY-1
  6
CONTINUOUS
 62
     2
100
AcDbLine
 10
1015.728492
 20
1291.5
 30
0.0
 11
1016.556782
 21
1291.5
 31
0.0
  0
LINE
  5
31C
100
AcDbEntity
  8
LAY-1
  6
CONTINUOUS
 62
     2
100
AcDbLine
 10
1016.556782
 20
1302.5
 30
0.0
 11
1015.728492
 21
1302.5
 31
0.0
  0
LINE
  5
31D
100
AcDbEntity
  8
LAY-1
  6
CONTINUOUS
 62
     2
100
AcDbLine
 10
1025.787011
 20
1292.530228
 30
0.0
 11
1028.256782
 21
1292.667438
 31
0.0
  0
LINE
  5
31E
100
AcDbEntity
  8
LAY-1
  6
CONTINUOUS
 62
     2
100
AcDbLine
 10
1025.787011
 20
1301.469772
 30
0.0
 11
1028.256782
 21
1301.332562
 31
0.0
  0
LINE
  5
31F
100
AcDbEntity
  8
LAY-1
  6
CONTINUOUS
 62
     2
100
AcDbLine
 10
1029.256782
 20
1283.5
 30
0.0
 11
1040.856782
 21
1283.5
 31
0.0
  0
ARC
  5
320
100
AcDbEntity
  8
LAY-1
  6
CONTINUOUS
 62
     2
100
AcDbCircle
 10
1038.881782
 20
1285.75
 30
0.0
 40
10.625
100
AcDbArc
 50
154.942385
 51
180.0
  0
ARC
  5
321
100
AcDbEntity
  8
LAY-1
  6
CONTINUOUS
 62
     2
100
AcDbCircle
 10
1031.288032
 20
1285.75
 30
0.0
 40
3.03125
100
AcDbArc
 50
180.0
 51
227.924978
  0
LINE
  5
322
100
AcDbEntity
  8
LAY-1
  6
CONTINUOUS
 62
     2
100
AcDbLine
 10
1029.256782
 20
1290.25
 30
0.0
 11
1040.856782
 21
1290.25
 31
0.0
  0
ARC
  5
323
100
AcDbEntity
  8
LAY-1
  6
CONTINUOUS
 62
     2
100
AcDbCircle
 10
1051.538032
 20
1297.0
 30
0.0
 40
23.28125
100
AcDbArc
 50
180.0
 51
196.853938
  0
ARC
  5
324
100
AcDbEntity
  8
LAY-1
  6
CONTINUOUS
 62
     2
100
AcDbCircle
 10
1051.538032
 20
1297.0
 30
0.0
 40
23.28125
100
AcDbArc
 50
163.146062
 51
180.0
  0
LINE
  5
325
100
AcDbEntity
  8
LAY-1
  6
CONTINUOUS
 62
     2
100
AcDbLine
 10
1029.256782
 20
1303.75
 30
0.0
 11
1040.856782
 21
1303.75
 31
0.0
  0
ARC
  5
326
100
AcDbEntity
  8
LAY-1
  6
CONTINUOUS
 62
     2
100
AcDbCircle
 10
1038.881782
 20
1308.25
 30
0.0
 40
10.625
100
AcDbArc
 50
180.0
 51
205.057615
  0
LINE
  5
327
100
AcDbEntity
  8
LAY-1
  6
CONTINUOUS
 62
     2
100
AcDbLine
 10
1029.256782
 20
1310.5
 30
0.0
 11
1040.856782
 21
1310.5
 31
0.0
  0
ARC
  5
328
100
AcDbEntity
  8
LAY-1
  6
CONTINUOUS
 62
     2
100
AcDbCircle
 10
1031.288032
 20
1308.25
 30
0.0
 40
3.03125
100
AcDbArc
 50
132.075022
 51
180.0
  0
LINE
  5
329
100
AcDbEntity
  8
LAY-1
  6
CONTINUOUS
 62
     2
100
AcDbLine
 10
1028.256782
 20
1285.75
 30
0.0
 11
1028.256782
 21
1308.25
 31
0.0
  0
LINE
  5
32A
100
AcDbEntity
  8
LAY-1
  6
CONTINUOUS
 62
     2
100
AcDbLine
 10
1016.756782
 20
1302.3
 30
0.0
 11
1016.756782
 21
1291.7
 31
0.0
  0
LINE
  5
32B
100
AcDbEntity
  8
LAY-1
  6
CONTINUOUS
 62
     2
100
AcDbLine
 10
1019.256782
 20
1291.7
 30
0.0
 11
1016.756782
 21
1291.7
 31
0.0
  0
LINE
  5
32C
100
AcDbEntity
  8
LAY-1
  6
CONTINUOUS
 62
     2
100
AcDbLine
 10
1019.256782
 20
1302.3
 30
0.0
 11
1016.756782
 21
1302.3
 31
0.0
  0
LINE
  5
32D
100
AcDbEntity
  8
LAY-1
  6
CONTINUOUS
 62
     2
100
AcDbLine
 10
1025.787011
 20
1292.530228
 30
0.0
 11
1025.787011
 21
1292.029457
 31
0.0
  0
LINE
  5
32E
100
AcDbEntity
  8
LAY-1
  6
CONTINUOUS
 62
     2
100
AcDbLine
 10
1025.787011
 20
1292.029457
 30
0.0
 11
1025.787011
 21
1301.970543
 31
0.0
  0
LINE
  5
32F
100
AcDbEntity
  8
LAY-1
  6
CONTINUOUS
 62
     2
100
AcDbLine
 10
1016.756782
 20
1291.7
 30
0.0
 11
1015.729047
 21
1290.672265
 31
0.0
  0
LINE
  5
330
100
AcDbEntity
  8
LAY-1
  6
CONTINUOUS
 62
     2
100
AcDbLine
 10
1016.756782
 20
1302.3
 30
0.0
 11
1015.729047
 21
1303.327735
 31
0.0
  0
LINE
  5
331
100
AcDbEntity
  8
LAY-1
  6
CONTINUOUS
 62
     2
100
AcDbLine
 10
1019.934748
 20
1287.847459
 30
0.0
 11
1025.256782
 21
1287.847459
 31
0.0
  0
LINE
  5
332
100
AcDbEntity
  8
LAY-1
  6
CONTINUOUS
 62
     2
100
AcDbLine
 10
1025.256782
 20
1287.847459
 30
0.0
 11
1025.256782
 21
1306.152541
 31
0.0
  0
LINE
  5
333
100
AcDbEntity
  8
LAY-1
  6
CONTINUOUS
 62
     2
100
AcDbLine
 10
1025.256782
 20
1306.152541
 30
0.0
 11
1019.934748
 21
1306.152541
 31
0.0
  0
LINE
  5
334
100
AcDbEntity
  8
LAY-1
  6
CONTINUOUS
 62
     2
100
AcDbLine
 10
1019.934748
 20
1301.576271
 30
0.0
 11
1025.256782
 21
1301.576271
 31
0.0
  0
LINE
  5
335
100
AcDbEntity
  8
LAY-1
  6
CONTINUOUS
 62
     2
100
AcDbLine
 10
1019.934748
 20
1292.42373
 30
0.0
 11
1025.256782
 21
1292.42373
 31
0.0
  0
ARC
  5
336
100
AcDbEntity
  8
LAY-1
  6
CONTINUOUS
 62
     2
100
AcDbCircle
 10
1009.610402
 20
1289.372883
 30
0.0
 40
7.203389
100
AcDbArc
 50
154.942385
 51
180.0
  0
ARC
  5
337
100
AcDbEntity
  8
LAY-1
  6
CONTINUOUS
 62
     2
100
AcDbCircle
 10
1004.462098
 20
1289.372883
 30
0.0
 40
2.055084
100
AcDbArc
 50
180.0
 51
227.924978
  0
ARC
  5
338
100
AcDbEntity
  8
LAY-1
  6
CONTINUOUS
 62
     2
100
AcDbCircle
 10
1018.190909
 20
1297.0
 30
0.0
 40
15.783896
100
AcDbArc
 50
180.0
 51
196.853938
  0
ARC
  5
339
100
AcDbEntity
  8
LAY-1
  6
CONTINUOUS
 62
     2
100
AcDbCircle
 10
1018.190909
 20
1297.0
 30
0.0
 40
15.783896
100
AcDbArc
 50
163.146062
 51
180.0
  0
ARC
  5
33A
100
AcDbEntity
  8
LAY-1
  6
CONTINUOUS
 62
     2
100
AcDbCircle
 10
1009.610402
 20
1304.627118
 30
0.0
 40
7.203389
100
AcDbArc
 50
180.0
 51
205.057615
  0
ARC
  5
33B
100
AcDbEntity
  8
LAY-1
  6
CONTINUOUS
 62
     2
100
AcDbCircle
 10
1004.462098
 20
1304.627118
 30
0.0
 40
2.055084
100
AcDbArc
 50
132.075022
 51
180.0
  0
LINE
  5
33C
100
AcDbEntity
  8
LAY-1
  6
CONTINUOUS
 62
     2
100
AcDbLine
 10
1002.407013
 20
1289.372883
 30
0.0
 11
1002.407013
 21
1304.627118
 31
0.0
  0
ARC
  5
33D
100
AcDbEntity
  8
LAY-1
  6
CONTINUOUS
 62
     2
100
AcDbCircle
 10
1008.525659
 20
1304.627118
 30
0.0
 40
7.203389
100
AcDbArc
 50
334.942385
 51
0.0
  0
ARC
  5
33E
100
AcDbEntity
  8
LAY-1
  6
CONTINUOUS
 62
     2
100
AcDbCircle
 10
1013.673963
 20
1304.627118
 30
0.0
 40
2.055084
100
AcDbArc
 50
0.0
 51
47.924978
  0
ARC
  5
33F
100
AcDbEntity
  8
LAY-1
  6
CONTINUOUS
 62
     2
100
AcDbCircle
 10
999.945151
 20
1297.0
 30
0.0
 40
15.783896
100
AcDbArc
 50
0.0
 51
16.853938
  0
ARC
  5
340
100
AcDbEntity
  8
LAY-1
  6
CONTINUOUS
 62
     2
100
AcDbCircle
 10
999.945151
 20
1297.0
 30
0.0
 40
15.783896
100
AcDbArc
 50
343.146062
 51
0.0
  0
ARC
  5
341
100
AcDbEntity
  8
LAY-1
  6
CONTINUOUS
 62
     2
100
AcDbCircle
 10
1008.525659
 20
1289.372883
 30
0.0
 40
7.203389
100
AcDbArc
 50
0.0
 51
25.057615
  0
ARC
  5
342
100
AcDbEntity
  8
LAY-1
  6
CONTINUOUS
 62
     2
100
AcDbCircle
 10
1013.673963
 20
1289.372883
 30
0.0
 40
2.055084
100
AcDbArc
 50
312.075022
 51
0.0
  0
LINE
  5
343
100
AcDbEntity
  8
LAY-1
  6
CONTINUOUS
 62
     2
100
AcDbLine
 10
1015.729047
 20
1304.627118
 30
0.0
 11
1015.729047
 21
1289.372883
 31
0.0
  0
LINE
  5
344
100
AcDbEntity
  8
LAY-1
  6
CONTINUOUS
 62
     2
100
AcDbLine
 10
1003.084979
 20
1287.847459
 30
0.0
 11
1015.051081
 21
1287.847459
 31
0.0
  0
LINE
  5
345
100
AcDbEntity
  8
LAY-1
  6
CONTINUOUS
 62
     2
100
AcDbLine
 10
1003.084979
 20
1292.42373
 30
0.0
 11
1015.051081
 21
1292.42373
 31
0.0
  0
LINE
  5
346
100
AcDbEntity
  8
LAY-1
  6
CONTINUOUS
 62
     2
100
AcDbLine
 10
1015.051081
 20
1301.576271
 30
0.0
 11
1003.084979
 21
1301.576271
 31
0.0
  0
LINE
  5
347
100
AcDbEntity
  8
LAY-1
  6
CONTINUOUS
 62
     2
100
AcDbLine
 10
1003.084979
 20
1306.152541
 30
0.0
 11
1015.051081
 21
1306.152541
 31
0.0
  0
ARC
  5
348
100
AcDbEntity
  8
LAY-1
  6
CONTINUOUS
 62
     2
100
AcDbCircle
 10
1026.460171
 20
1289.372883
 30
0.0
 40
7.203389
100
AcDbArc
 50
154.942385
 51
180.0
  0
ARC
  5
349
100
AcDbEntity
  8
LAY-1
  6
CONTINUOUS
 62
     2
100
AcDbCircle
 10
1021.311867
 20
1289.372883
 30
0.0
 40
2.055084
100
AcDbArc
 50
180.0
 51
227.924978
  0
ARC
  5
34A
100
AcDbEntity
  8
LAY-1
  6
CONTINUOUS
 62
     2
100
AcDbCircle
 10
1035.040678
 20
1297.0
 30
0.0
 40
15.783896
100
AcDbArc
 50
180.0
 51
196.853938
  0
ARC
  5
34B
100
AcDbEntity
  8
LAY-1
  6
CONTINUOUS
 62
     2
100
AcDbCircle
 10
1035.040678
 20
1297.0
 30
0.0
 40
15.783896
100
AcDbArc
 50
163.146062
 51
180.0
  0
ARC
  5
34C
100
AcDbEntity
  8
LAY-1
  6
CONTINUOUS
 62
     2
100
AcDbCircle
 10
1026.460171
 20
1304.627118
 30
0.0
 40
7.203389
100
AcDbArc
 50
180.0
 51
205.057615
  0
ARC
  5
34D
100
AcDbEntity
  8
LAY-1
  6
CONTINUOUS
 62
     2
100
AcDbCircle
 10
1021.311867
 20
1304.627118
 30
0.0
 40
2.055084
100
AcDbArc
 50
132.075022
 51
180.0
  0
LINE
  5
34E
100
AcDbEntity
  8
LAY-1
  6
CONTINUOUS
 62
     2
100
AcDbLine
 10
1019.256782
 20
1289.372883
 30
0.0
 11
1019.256782
 21
1304.627118
 31
0.0
  0
LINE
  5
34F
100
AcDbEntity
  8
LAY-1
  6
CONTINUOUS
 62
     2
100
AcDbLine
 10
1025.256782
 20
1292.0
 30
0.0
 11
1028.256782
 21
1292.166667
 31
0.0
  0
LINE
  5
350
100
AcDbEntity
  8
LAY-1
  6
CONTINUOUS
 62
     2
100
AcDbLine
 10
1025.256782
 20
1302.0
 30
0.0
 11
1028.256782
 21
1301.833333
 31
0.0
  0
LINE
  5
351
100
AcDbEntity
  8
LAY-1
  6
CONTINUOUS
 62
     2
100
AcDbLine
 10
1049.009282
 20
1285.55875
 30
0.0
 11
1044.856782
 21
1285.55875
 31
0.0
  0
LINE
  5
352
100
AcDbEntity
  8
LAY-1
  6
CONTINUOUS
 62
     2
100
AcDbLine
 10
1049.009282
 20
1291.279375
 30
0.0
 11
1044.856782
 21
1291.279375
 31
0.0
  0
LINE
  5
353
100
AcDbEntity
  8
LAY-1
  6
CONTINUOUS
 62
     2
100
AcDbLine
 10
1049.009282
 20
1302.720625
 30
0.0
 11
1044.856782
 21
1302.720625
 31
0.0
  0
LINE
  5
354
100
AcDbEntity
  8
LAY-1
  6
CONTINUOUS
 62
     2
100
AcDbLine
 10
1049.009282
 20
1308.44125
 30
0.0
 11
1044.856782
 21
1308.44125
 31
0.0
  0
LINE
  5
355
100
AcDbEntity
  8
LAY-1
  6
CONTINUOUS
 62
     2
100
AcDbLine
 10
1061.356782
 20
1279.321478
 30
0.0
 11
1061.356782
 21
1280.149769
 31
0.0
  0
LINE
  5
356
100
AcDbEntity
  8
LAY-1
  6
CONTINUOUS
 62
     2
100
AcDbLine
 10
1072.356782
 20
1280.149769
 30
0.0
 11
1072.356782
 21
1279.321478
 31
0.0
  0
LINE
  5
357
100
AcDbEntity
  8
LAY-1
  6
CONTINUOUS
 62
     2
100
AcDbLine
 10
1073.856782
 20
1282.849769
 30
0.0
 11
1059.856782
 21
1282.849769
 31
0.0
  0
LINE
  5
358
100
AcDbEntity
  8
LAY-1
  6
CONTINUOUS
 62
     2
100
AcDbLine
 10
1072.156782
 20
1280.349769
 30
0.0
 11
1061.556782
 21
1280.349769
 31
0.0
  0
LINE
  5
359
100
AcDbEntity
  8
LAY-1
  6
CONTINUOUS
 62
     2
100
AcDbLine
 10
1061.556782
 20
1280.349769
 30
0.0
 11
1060.529047
 21
1279.322034
 31
0.0
  0
LINE
  5
35A
100
AcDbEntity
  8
LAY-1
  6
CONTINUOUS
 62
     2
100
AcDbLine
 10
1072.156782
 20
1280.349769
 30
0.0
 11
1073.184517
 21
1279.322034
 31
0.0
  0
ARC
  5
35B
100
AcDbEntity
  8
LAY-1
  6
CONTINUOUS
 62
     2
100
AcDbCircle
 10
1059.229665
 20
1273.203389
 30
0.0
 40
7.203389
100
AcDbArc
 50
270.0
 51
295.057615
  0
ARC
  5
35C
100
AcDbEntity
  8
LAY-1
  6
CONTINUOUS
 62
     2
100
AcDbCircle
 10
1059.229665
 20
1268.055084
 30
0.0
 40
2.055084
100
AcDbArc
 50
222.075022
 51
270.0
  0
ARC
  5
35D
100
AcDbEntity
  8
LAY-1
  6
CONTINUOUS
 62
     2
100
AcDbCircle
 10
1066.856782
 20
1281.783896
 30
0.0
 40
15.783896
100
AcDbArc
 50
253.146062
 51
270.0
  0
ARC
  5
35E
100
AcDbEntity
  8
LAY-1
  6
CONTINUOUS
 62
     2
100
AcDbCircle
 10
1066.856782
 20
1281.783896
 30
0.0
 40
15.783896
100
AcDbArc
 50
270.0
 51
286.853938
  0
ARC
  5
35F
100
AcDbEntity
  8
LAY-1
  6
CONTINUOUS
 62
     2
100
AcDbCircle
 10
1074.4839
 20
1273.203389
 30
0.0
 40
7.203389
100
AcDbArc
 50
244.942385
 51
270.0
  0
ARC
  5
360
100
AcDbEntity
  8
LAY-1
  6
CONTINUOUS
 62
     2
100
AcDbCircle
 10
1074.4839
 20
1268.055084
 30
0.0
 40
2.055084
100
AcDbArc
 50
270.0
 51
317.924978
  0
LINE
  5
361
100
AcDbEntity
  8
LAY-1
  6
CONTINUOUS
 62
     2
100
AcDbLine
 10
1059.229665
 20
1266.0
 30
0.0
 11
1074.4839
 21
1266.0
 31
0.0
  0
ARC
  5
362
100
AcDbEntity
  8
LAY-1
  6
CONTINUOUS
 62
     2
100
AcDbCircle
 10
1074.4839
 20
1272.118645
 30
0.0
 40
7.203389
100
AcDbArc
 50
90.0
 51
115.057615
  0
ARC
  5
363
100
AcDbEntity
  8
LAY-1
  6
CONTINUOUS
 62
     2
100
AcDbCircle
 10
1074.4839
 20
1277.26695
 30
0.0
 40
2.055084
100
AcDbArc
 50
42.075022
 51
90.0
  0
ARC
  5
364
100
AcDbEntity
  8
LAY-1
  6
CONTINUOUS
 62
     2
100
AcDbCircle
 10
1066.856782
 20
1263.538138
 30
0.0
 40
15.783896
100
AcDbArc
 50
73.146062
 51
90.0
  0
ARC
  5
365
100
AcDbEntity
  8
LAY-1
  6
CONTINUOUS
 62
     2
100
AcDbCircle
 10
1066.856782
 20
1263.538138
 30
0.0
 40
15.783896
100
AcDbArc
 50
90.0
 51
106.853938
  0
ARC
  5
366
100
AcDbEntity
  8
LAY-1
  6
CONTINUOUS
 62
     2
100
AcDbCircle
 10
1059.229665
 20
1272.118645
 30
0.0
 40
7.203389
100
AcDbArc
 50
64.942385
 51
90.0
  0
ARC
  5
367
100
AcDbEntity
  8
LAY-1
  6
CONTINUOUS
 62
     2
100
AcDbCircle
 10
1059.229665
 20
1277.26695
 30
0.0
 40
2.055084
100
AcDbArc
 50
90.0
 51
137.924978
  0
LINE
  5
368
100
AcDbEntity
  8
LAY-1
  6
CONTINUOUS
 62
     2
100
AcDbLine
 10
1074.4839
 20
1279.322034
 30
0.0
 11
1059.229665
 21
1279.322034
 31
0.0
  0
LINE
  5
369
100
AcDbEntity
  8
LAY-1
  6
CONTINUOUS
 62
     2
100
AcDbLine
 10
1057.704241
 20
1266.677966
 30
0.0
 11
1057.704241
 21
1278.644068
 31
0.0
  0
LINE
  5
36A
100
AcDbEntity
  8
LAY-1
  6
CONTINUOUS
 62
     2
100
AcDbLine
 10
1062.280512
 20
1266.677966
 30
0.0
 11
1062.280512
 21
1278.644068
 31
0.0
  0
LINE
  5
36B
100
AcDbEntity
  8
LAY-1
  6
CONTINUOUS
 62
     2
100
AcDbLine
 10
1071.433053
 20
1278.644068
 30
0.0
 11
1071.433053
 21
1266.677966
 31
0.0
  0
LINE
  5
36C
100
AcDbEntity
  8
LAY-1
  6
CONTINUOUS
 62
     2
100
AcDbLine
 10
1076.009323
 20
1266.677966
 30
0.0
 11
1076.009323
 21
1278.644068
 31
0.0
  0
LINE
  5
36D
100
AcDbEntity
  8
LAY-1
  6
CONTINUOUS
 62
     2
100
AcDbLine
 10
1061.556782
 20
1280.349769
 30
0.0
 11
1061.556782
 21
1282.849769
 31
0.0
  0
LINE
  5
36E
100
AcDbEntity
  8
LAY-1
  6
CONTINUOUS
 62
     2
100
AcDbLine
 10
1072.156782
 20
1280.349769
 30
0.0
 11
1072.156782
 21
1282.849769
 31
0.0
  0
LINE
  5
36F
100
AcDbEntity
  8
LAY-1
  6
CONTINUOUS
 62
     2
100
AcDbLine
 10
1073.856782
 20
1297.0
 30
0.0
 11
1073.856782
 21
1282.849769
 31
0.0
  0
LINE
  5
370
100
AcDbEntity
  8
LAY-1
  6
CONTINUOUS
 62
     2
100
AcDbLine
 10
1059.856782
 20
1289.5
 30
0.0
 11
1059.856782
 21
1282.849769
 31
0.0
  0
LINE
  5
371
100
AcDbEntity
  8
LAY-1
  6
CONTINUOUS
 62
     2
100
AcDbLine
 10
1072.156782
 20
1281.0
 30
0.0
 11
1079.866782
 21
1281.0
 31
0.0
  0
LINE
  5
372
100
AcDbEntity
  8
LAY-1
  6
CONTINUOUS
 62
     2
100
AcDbLine
 10
1072.156782
 20
1280.5
 30
0.0
 11
1079.116782
 21
1280.5
 31
0.0
  0
LINE
  5
373
100
AcDbEntity
  8
LAY-1
  6
CONTINUOUS
 62
     2
100
AcDbLine
 10
1062.856782
 20
1266.0
 30
0.0
 11
1062.856782
 21
1264.0
 31
0.0
  0
LINE
  5
374
100
AcDbEntity
  8
LAY-1
  6
CONTINUOUS
 62
     2
100
AcDbLine
 10
1070.856782
 20
1266.0
 30
0.0
 11
1070.856782
 21
1264.0
 31
0.0
  0
LINE
  5
375
100
AcDbEntity
  8
LAY-1
  6
CONTINUOUS
 62
     2
100
AcDbLine
 10
1039.656782
 20
1280.0
 30
0.0
 11
1039.656782
 21
968.0
 31
0.0
  0
LINE
  5
376
100
AcDbEntity
  8
LAY-1
  6
CONTINUOUS
 62
     2
100
AcDbLine
 10
1257.056782
 20
1280.0
 30
0.0
 11
1257.056782
 21
968.0
 31
0.0
  0
LINE
  5
377
100
AcDbEntity
  8
LAY-1
  6
CONTINUOUS
 62
     2
100
AcDbLine
 10
1259.056782
 20
998.290436
 30
0.0
 11
1257.056782
 21
998.290436
 31
0.0
  0
LINE
  5
378
100
AcDbEntity
  8
LAY-1
  6
CONTINUOUS
 62
     2
100
AcDbLine
 10
1039.656782
 20
998.290436
 30
0.0
 11
1037.656782
 21
998.290436
 31
0.0
  0
LINE
  5
379
100
AcDbEntity
  8
LAY-1
  6
CONTINUOUS
 62
     1
100
AcDbLine
 10
886.0
 20
512.121213
 30
0.0
 11
886.0
 21
160.121213
 31
0.0
  0
LINE
  5
37A
100
AcDbEntity
  8
LAY-1
  6
CONTINUOUS
 62
     1
100
AcDbLine
 10
886.333333
 20
510.121213
 30
0.0
 11
886.0
 21
512.121213
 31
0.0
  0
LINE
  5
37B
100
AcDbEntity
  8
LAY-1
  6
CONTINUOUS
 62
     1
100
AcDbLine
 10
886.0
 20
512.121213
 30
0.0
 11
885.666667
 21
510.121213
 31
0.0
  0
LINE
  5
37C
100
AcDbEntity
  8
LAY-1
  6
CONTINUOUS
 62
     1
100
AcDbLine
 10
885.666667
 20
162.121213
 30
0.0
 11
886.0
 21
160.121213
 31
0.0
  0
LINE
  5
37D
100
AcDbEntity
  8
LAY-1
  6
CONTINUOUS
 62
     1
100
AcDbLine
 10
886.0
 20
160.121213
 30
0.0
 11
886.333333
 21
162.121213
 31
0.0
  0
TEXT
  5
37E
100
AcDbEntity
  8
LAY-1
  6
CONTINUOUS
 62
     3
100
AcDbText
 10
885.0
 20
298.621213
 30
0.0
 40
25.0
  1
３５２
 50
90.0
 41
0.84
  7
EXCADSTD
 72
     5
 11
885.0
 21
373.621213
 31
0.0
100
AcDbText
  0
LINE
  5
37F
100
AcDbEntity
  8
LAY-1
  6
CONTINUOUS
 62
     1
100
AcDbLine
 10
1038.856782
 20
512.121213
 30
0.0
 11
885.5
 21
512.121213
 31
0.0
  0
LINE
  5
380
100
AcDbEntity
  8
LAY-1
  6
CONTINUOUS
 62
     1
100
AcDbLine
 10
1000.056782
 20
160.121213
 30
0.0
 11
885.5
 21
160.121213
 31
0.0
  0
TEXT
  5
381
100
AcDbEntity
  8
LAY-1
  6
CONTINUOUS
 62
     3
100
AcDbText
 10
1441.44
 20
475.96
 30
0.0
 40
20.0
  1
型式
 41
0.984714
  7
EXCADSTD
 72
     5
 11
1484.420406
 21
475.96
 31
0.0
100
AcDbText
  0
TEXT
  5
382
100
AcDbEntity
  8
LAY-1
  6
CONTINUOUS
 62
     3
100
AcDbText
 10
1440.96
 20
447.8
 30
0.0
 40
20.0
  1
品名
 41
0.984714
  7
EXCADSTD
 72
     5
 11
1483.940406
 21
447.8
 31
0.0
100
AcDbText
  0
LINE
  5
383
100
AcDbEntity
  8
LAY-1
  6
CONTINUOUS
 62
     4
100
AcDbLine
 10
1432.0
 20
419.4
 30
0.0
 11
1790.4
 21
419.4
 31
0.0
  0
LINE
  5
384
100
AcDbEntity
  8
LAY-1
  6
CONTINUOUS
 62
     1
100
AcDbLine
 10
1432.0
 20
443.8
 30
0.0
 11
1790.4
 21
443.8
 31
0.0
  0
TEXT
  5
385
100
AcDbEntity
  8
LAY-1
  6
CONTINUOUS
 62
     3
100
AcDbText
 10
1559.36
 20
422.04
 30
0.0
 40
20.0
  1
外観図
 41
1.47392
  7
EXCADSTD
 72
     5
 11
1664.639999
 21
422.04
 31
0.0
100
AcDbText
  0
LINE
  5
386
100
AcDbEntity
  8
LAY-1
  6
CONTINUOUS
 62
     4
100
AcDbLine
 10
1432.0
 20
527.8
 30
0.0
 11
1790.4
 21
527.8
 31
0.0
  0
LINE
  5
387
100
AcDbEntity
  8
LAY-1
  6
CONTINUOUS
 62
     1
100
AcDbLine
 10
1432.0
 20
471.8
 30
0.0
 11
1790.4
 21
471.8
 31
0.0
  0
LINE
  5
388
100
AcDbEntity
  8
LAY-1
  6
CONTINUOUS
 62
     1
100
AcDbLine
 10
1432.0
 20
499.8
 30
0.0
 11
1790.4
 21
499.8
 31
0.0
  0
LINE
  5
389
100
AcDbEntity
  8
LAY-1
  6
CONTINUOUS
 62
     1
100
AcDbLine
 10
1492.0
 20
527.8
 30
0.0
 11
1492.0
 21
443.8
 31
0.0
  0
LINE
  5
38A
100
AcDbEntity
  8
LAY-1
  6
CONTINUOUS
 62
     4
100
AcDbLine
 10
1432.0
 20
395.0
 30
0.0
 11
1790.4
 21
395.0
 31
0.0
  0
LINE
  5
38B
100
AcDbEntity
  8
LAY-1
  6
CONTINUOUS
 62
     4
100
AcDbLine
 10
1790.4
 20
395.0
 30
0.0
 11
1790.4
 21
527.8
 31
0.0
  0
LINE
  5
38C
100
AcDbEntity
  8
LAY-1
  6
CONTINUOUS
 62
     4
100
AcDbLine
 10
1432.0
 20
395.0
 30
0.0
 11
1432.0
 21
527.8
 31
0.0
  0
TEXT
  5
38D
100
AcDbEntity
  8
LAY-1
  6
CONTINUOUS
 62
     3
100
AcDbText
 10
1434.56
 20
503.32
 30
0.0
 40
20.0
  1
作成日
 41
0.84
  7
EXCADSTD
 72
     5
 11
1494.56
 21
503.32
 31
0.0
100
AcDbText
  0
HATCH
  5
38E
100
AcDbEntity
  8
LAY-1
  6
CONTINUOUS
 62
     3
100
AcDbHatch
 10
0.0
 20
0.0
 30
0.0
210
0.0
220
0.0
230
1.0
  2
SOLID
 70
     1
 71
     1
 91
        1
 92
        1
 93
       16
 72
     1
 10
1684.2598993612442
 20
401.09585714285663
 11
1688.0463279326727
 21
401.09585714285663
 72
     1
 10
1688.0463279326727
 20
401.09585714285663
 11
1688.0463279326727
 21
398.65299999999945
 72
     1
 10
1688.0463279326727
 20
398.65299999999945
 11
1677.9084707898155
 21
398.65299999999945
 72
     1
 10
1677.9084707898155
 20
398.65299999999945
 11
1677.9084707898155
 21
401.09585714285663
 72
     1
 10
1677.9084707898155
 20
401.09585714285663
 11
1681.8170422183871
 21
401.09585714285663
 72
     1
 10
1681.8170422183871
 20
401.09585714285663
 11
1681.8170422183871
 21
408.18014285714236
 72
     1
 10
1681.8170422183871
 20
408.18014285714236
 11
1678.7634707898155
 21
408.18014285714236
 72
     1
 10
1678.7634707898155
 20
408.18014285714236
 11
1678.7634707898155
 21
410.62299999999954
 72
     1
 10
1678.7634707898155
 20
410.62299999999954
 11
1681.8170422183871
 21
410.62299999999954
 72
     1
 10
1681.8170422183871
 20
410.62299999999954
 11
1681.8170422183871
 21
415.75299999999953
 72
     1
 10
1681.8170422183871
 20
415.75299999999953
 11
1684.2598993612442
 21
415.75299999999953
 72
     1
 10
1684.2598993612442
 20
415.75299999999953
 11
1684.2598993612442
 21
410.62299999999954
 72
     1
 10
1684.2598993612442
 20
410.62299999999954
 11
1687.8020422183872
 21
410.62299999999954
 72
     1
 10
1687.8020422183872
 20
410.62299999999954
 11
1687.8020422183872
 21
408.18014285714236
 72
     1
 10
1687.8020422183872
 20
408.18014285714236
 11
1684.2598993612442
 21
408.18014285714236
 72
     1
 10
1684.2598993612442
 20
408.18014285714236
 11
1684.2598993612442
 21
401.09585714285663
 97
        0
 75
     0
 76
     1
 98
        1
 10
0.0
 20
0.0
  0
HATCH
  5
38F
100
AcDbEntity
  8
LAY-1
  6
CONTINUOUS
 62
     3
100
AcDbHatch
 10
0.0
 20
0.0
 30
0.0
210
0.0
220
0.0
230
1.0
  2
SOLID
 70
     1
 71
     1
 91
        1
 92
        1
 93
       17
 72
     2
 10
1658.595301383868
 20
420.49412679235957
 40
21.985714285714362
 50
44.165469
 51
51.472792
 73
     0
 72
     1
 10
1672.2898993612441
 20
403.29442857142817
 11
1671.0530772454983
 21
405.43666731582431
 72
     2
 10
1658.595301383868
 20
420.49412679235957
 40
19.542857142857208
 50
309.602625
 51
331.307968
 73
     1
 72
     1
 10
1675.7385484552826
 20
411.11157142857098
 11
1671.6791850755299
 21
411.11157142857098
 72
     1
 10
1671.6791850755299
 20
411.11157142857098
 11
1671.6791850755299
 21
413.31014285714235
 72
     1
 10
1671.6791850755299
 20
413.31014285714235
 11
1674.3663279326727
 21
413.31014285714235
 72
     1
 10
1674.3663279326727
 20
413.31014285714235
 11
1674.3663279326727
 21
415.75299999999953
 72
     1
 10
1674.3663279326727
 20
415.75299999999953
 11
1676.5648993612442
 21
415.75299999999953
 72
     1
 10
1676.5648993612442
 20
415.75299999999953
 11
1676.5648993612442
 21
413.31014285714235
 72
     1
 10
1676.5648993612442
 20
413.31014285714235
 11
1679.3741850755298
 21
413.31014285714235
 72
     2
 10
1658.595301383868
 20
420.49412679235957
 40
21.985714285714362
 50
19.072051
 51
32.871988
 73
     0
 72
     1
 10
1677.0607801007031
 20
408.5610748603865
 11
1679.9848993612441
 21
405.73728571428524
 72
     1
 10
1679.9848993612441
 20
405.73728571428524
 11
1678.2572753845602
 21
404.00966173760128
 72
     1
 10
1678.2572753845602
 20
404.00966173760128
 11
1676.5648993612442
 21
405.6439702660702
 72
     1
 10
1676.5648993612442
 20
405.6439702660702
 11
1676.5648993612442
 21
398.65299999999945
 72
     1
 10
1676.5648993612442
 20
398.65299999999945
 11
1674.3663279326727
 21
398.65299999999945
 72
     1
 10
1674.3663279326727
 20
398.65299999999945
 11
1674.3663279326727
 21
405.17595607095944
 97
        0
 75
     0
 76
     1
 98
        1
 10
0.0
 20
0.0
  0
HATCH
  5
390
100
AcDbEntity
  8
LAY-1
  6
CONTINUOUS
 62
     3
100
AcDbHatch
 10
0.0
 20
0.0
 30
0.0
210
0.0
220
0.0
230
1.0
  2
SOLID
 70
     1
 71
     1
 91
        1
 92
        1
 93
       12
 72
     2
 10
1689.4904066385329
 20
387.52171127987697
 40
34.444285714285826
 50
150.903074
 51
156.790773
 73
     1
 72
     1
 10
1657.8336319693108
 20
401.09585714285646
 11
1665.3546247320739
 21
401.09585714285674
 72
     2
 10
1643.9904049675129
 20
394.9523228301382
 40
22.230000000000075
 50
16.043216
 51
21.362935
 73
     1
 72
     1
 10
1664.6930185901997
 20
403.05014285714236
 11
1667.037756504101
 21
403.05014285714236
 72
     2
 10
1643.9904049675129
 20
394.9523228301382
 40
24.428571428571512
 50
340.64078
 51
351.286733
 73
     0
 72
     1
 10
1668.1370422183868
 20
398.65299999999945
 11
1654.5791850755295
 21
398.65299999999945
 72
     2
 10
1689.4904066385329
 20
387.52171127987697
 40
36.64285714285726
 50
197.684652
 51
207.200855
 73
     0
 72
     1
 10
1656.8998993612438
 20
404.27157142857095
 11
1653.4798993612442
 21
404.27157142857095
 72
     1
 10
1653.4798993612442
 20
404.27157142857095
 11
1653.4798993612442
 21
406.71442857142813
 72
     1
 10
1653.4798993612442
 20
406.71442857142813
 11
1669.11418507553
 21
406.71442857142813
 72
     1
 10
1669.11418507553
 20
406.71442857142813
 11
1669.11418507553
 21
404.27157142857095
 72
     1
 10
1669.11418507553
 20
404.27157142857095
 11
1659.3930478945081
 21
404.27157142857095
 97
        0
 75
     0
 76
     1
 98
        1
 10
0.0
 20
0.0
  0
HATCH
  5
391
100
AcDbEntity
  8
LAY-1
  6
CONTINUOUS
 62
     3
100
AcDbHatch
 10
0.0
 20
0.0
 30
0.0
210
0.0
220
0.0
230
1.0
  2
SOLID
 70
     1
 71
     1
 91
        1
 92
        1
 93
       10
 72
     2
 10
1689.6369176962355
 20
440.39623065215926
 40
39.085714285714417
 50
129.545698
 51
136.474664
 73
     0
 72
     1
 10
1661.2970422183878
 20
413.47886601286768
 11
1661.2970422183878
 21
415.75299999999953
 72
     1
 10
1661.2970422183878
 20
415.75299999999953
 11
1662.5184707898159
 21
415.75299999999953
 72
     2
 10
1689.6369176962355
 20
440.39623065215926
 40
36.64285714285726
 50
222.262231
 51
237.763996
 73
     1
 72
     1
 10
1670.0913279326728
 20
409.401571428571
 11
1668.5074815306825
 21
407.51401678888163
 72
     2
 10
1689.6369176962355
 20
440.39623065215926
 40
39.085714285714417
 50
122.723968
 51
128.230009
 73
     0
 72
     1
 10
1665.4498993612442
 20
409.6931167174572
 11
1665.4498993612442
 21
407.81371428571379
 72
     1
 10
1665.4498993612442
 20
407.81371428571379
 11
1661.2970422183878
 21
407.81371428571379
 72
     1
 10
1661.2970422183878
 20
407.81371428571379
 11
1661.2970422183878
 21
410.25657142857096
 72
     1
 10
1661.2970422183878
 20
410.25657142857096
 11
1664.751299297038
 21
410.25657142857096
 97
        0
 75
     0
 76
     1
 98
        1
 10
0.0
 20
0.0
  0
HATCH
  5
392
100
AcDbEntity
  8
LAY-1
  6
CONTINUOUS
 62
     3
100
AcDbHatch
 10
0.0
 20
0.0
 30
0.0
210
0.0
220
0.0
230
1.0
  2
SOLID
 70
     1
 71
     1
 91
        1
 92
        1
 93
       10
 72
     2
 10
1632.9571667405387
 20
440.39623065215926
 40
39.085714285714417
 50
51.769991
 51
57.276032
 73
     0
 72
     1
 10
1654.0866029060915
 20
407.51401678888158
 11
1652.5027565041012
 21
409.40157142857095
 72
     2
 10
1632.9571667405387
 20
440.39623065215926
 40
36.64285714285726
 50
302.236004
 51
317.737769
 73
     1
 72
     1
 10
1660.0756136469583
 20
415.75299999999953
 11
1661.2970422183878
 21
415.75299999999953
 72
     1
 10
1661.2970422183878
 20
415.75299999999953
 11
1661.2970422183878
 21
413.4788660128691
 72
     2
 10
1632.9571667405387
 20
440.39623065215926
 40
39.085714285714417
 50
43.525336
 51
50.454302
 73
     0
 72
     1
 10
1657.842785139736
 20
410.25657142857096
 11
1661.2970422183878
 21
410.25657142857096
 72
     1
 10
1661.2970422183878
 20
410.25657142857096
 11
1661.2970422183878
 21
407.81371428571379
 72
     1
 10
1661.2970422183878
 20
407.81371428571379
 11
1657.14418507553
 21
407.81371428571379
 72
     1
 10
1657.14418507553
 20
407.81371428571379
 11
1657.14418507553
 21
409.69311671745714
 97
        0
 75
     0
 76
     1
 98
        1
 10
0.0
 20
0.0
  0
HATCH
  5
393
100
AcDbEntity
  8
LAY-1
  6
CONTINUOUS
 62
     3
100
AcDbHatch
 10
0.0
 20
0.0
 30
0.0
210
0.0
220
0.0
230
1.0
  2
SOLID
 70
     1
 71
     1
 91
        1
 92
        1
 93
       18
 72
     2
 10
1614.9780232092066
 20
404.77502078970366
 40
34.200000000000109
 50
14.02954
 51
18.723021
 73
     1
 72
     1
 10
1647.3682064822035
 20
415.75299999999953
 11
1649.9377565041011
 21
415.75299999999953
 72
     2
 10
1614.9780232092066
 20
404.77502078970366
 40
36.64285714285726
 50
342.566782
 51
346.922981
 73
     0
 72
     1
 10
1650.6706136469584
 20
413.06585714285671
 11
1651.6477565041012
 21
413.06585714285671
 72
     1
 10
1651.6477565041012
 20
413.06585714285671
 11
1651.6477565041012
 21
410.62299999999948
 72
     1
 10
1651.6477565041012
 20
410.62299999999948
 11
1647.0807208484516
 21
410.62299999999954
 72
     2
 10
1672.4120422183869
 20
414.65371428571382
 40
25.650000000000087
 50
189.041096
 51
204.65198
 73
     1
 72
     2
 10
1654.2086709975376
 20
406.29957573209651
 40
5.6211619214424813
 50
204.65198
 51
242.897449
 73
     1
 72
     1
 10
1651.6477565041012
 20
401.29565943539626
 11
1651.6477565041012
 21
398.65299999999945
 72
     2
 10
1654.2086709975376
 20
406.29957573209651
 40
8.0640190642996306
 50
108.516212
 51
155.34802
 73
     0
 72
     2
 10
1672.4120422183869
 20
414.65371428571382
 40
28.09285714285723
 50
155.34802
 51
171.750831
 73
     0
 72
     1
 10
1644.6098486934879
 20
410.62299999999954
 11
1635.2806136469585
 21
410.62299999999948
 72
     1
 10
1635.2806136469585
 20
410.62299999999948
 11
1635.2806136469585
 21
413.06585714285671
 72
     1
 10
1635.2806136469585
 20
413.06585714285671
 11
1644.3575104278921
 21
413.06585714285671
 72
     1
 10
1644.3575104278921
 20
413.06585714285671
 11
1644.2636733315865
 21
415.75299999999953
 72
     1
 10
1644.2636733315865
 20
415.75299999999953
 11
1646.7080195040878
 21
415.75299999999953
 72
     1
 10
1646.7080195040878
 20
415.75299999999953
 11
1646.8018566003934
 21
413.06585714285671
 72
     1
 10
1646.8018566003934
 20
413.06585714285671
 11
1648.1578669786586
 21
413.06585714285671
 97
        0
 75
     0
 76
     1
 98
        1
 10
0.0
 20
0.0
  0
HATCH
  5
394
100
AcDbEntity
  8
LAY-1
  6
CONTINUOUS
 62
     3
100
AcDbHatch
 10
0.0
 20
0.0
 30
0.0
210
0.0
220
0.0
230
1.0
  2
SOLID
 70
     1
 71
     1
 91
        1
 92
        1
 93
       12
 72
     2
 10
1627.591668736984
 20
521.28646287224547
 40
119.70000000000039
 50
276.500664
 51
278.269357
 73
     1
 72
     1
 10
1644.8077565041012
 20
402.83100152919451
 11
1644.8077565041012
 21
400.36299999999954
 72
     2
 10
1627.591668736984
 20
521.28646287224547
 40
122.14285714285755
 50
81.897153
 51
86.39082
 73
     0
 72
     1
 10
1635.2806136469585
 20
399.38585714285665
 11
1635.2806136469585
 21
401.83366832070936
 72
     2
 10
1627.591668736984
 20
521.28646287224547
 40
119.70000000000039
 50
273.682937
 51
275.325087
 73
     1
 72
     1
 10
1638.7006136469583
 20
402.10306913390929
 11
1638.7006136469583
 21
405.98157142857087
 72
     1
 10
1638.7006136469583
 20
405.98157142857087
 11
1635.2806136469585
 21
405.98157142857087
 72
     1
 10
1635.2806136469585
 20
405.98157142857087
 11
1635.2806136469585
 21
408.42442857142805
 72
     1
 10
1635.2806136469585
 20
408.42442857142805
 11
1644.0748993612442
 21
408.42442857142805
 72
     1
 10
1644.0748993612442
 20
408.42442857142805
 11
1644.0748993612442
 21
405.98157142857087
 72
     1
 10
1644.0748993612442
 20
405.98157142857087
 11
1641.1434707898156
 21
405.98157142857087
 72
     1
 10
1641.1434707898156
 20
405.98157142857087
 11
1641.1434707898154
 21
402.35606868673466
 97
        0
 75
     0
 76
     1
 98
        1
 10
0.0
 20
0.0
  0
HATCH
  5
395
100
AcDbEntity
  8
LAY-1
  6
CONTINUOUS
 62
     3
100
AcDbHatch
 10
0.0
 20
0.0
 30
0.0
210
0.0
220
0.0
230
1.0
  2
SOLID
 70
     1
 71
     1
 91
        1
 92
        1
 93
       30
 72
     2
 10
1605.5126658145275
 20
419.65873911757689
 40
26.749285714285801
 50
37.940537
 51
46.713808
 73
     0
 72
     1
 10
1623.8531249341049
 20
400.18691728428144
 11
1622.2113279326725
 21
401.82871428571389
 72
     2
 10
1605.5126658145275
 20
419.65873911757689
 40
24.428571428571523
 50
313.123325
 51
325.95222
 73
     1
 72
     1
 10
1625.7534707898153
 20
405.98157142857099
 11
1622.822042218387
 21
405.98157142857099
 72
     1
 10
1622.822042218387
 20
405.98157142857099
 11
1622.822042218387
 21
408.42442857142811
 72
     1
 10
1622.822042218387
 20
408.42442857142811
 11
1626.6084707898156
 21
408.42442857142811
 72
     1
 10
1626.6084707898156
 20
408.42442857142811
 11
1626.6084707898156
 21
410.86728571428523
 72
     1
 10
1626.6084707898156
 20
410.86728571428523
 11
1625.3905136068736
 21
410.86728571428523
 72
     2
 10
1599.2695363552207
 20
416.03442071865095
 40
26.627142857142957
 50
11.189535
 51
14.746058
 73
     0
 72
     1
 10
1625.0196730753189
 20
409.25686986078523
 11
1622.9441850755295
 21
410.01228571428521
 72
     2
 10
1599.2695363552207
 20
416.03442071865095
 40
24.428571428571523
 50
345.728313
 51
357.620387
 73
     1
 72
     1
 10
1623.677042218387
 20
415.02014285714966
 11
1625.8598927052053
 21
414.63524742147104
 72
     2
 10
1599.2695363552207
 20
416.03442071865095
 40
26.627142857142957
 50
3.012102
 51
6.401006
 73
     0
 72
     1
 10
1625.7306846113183
 20
413.06585714285671
 11
1626.6084707898156
 21
413.06585714285671
 72
     1
 10
1626.6084707898156
 20
413.06585714285671
 11
1626.6084707898156
 21
415.75299999999953
 72
     1
 10
1626.6084707898156
 20
415.75299999999953
 11
1629.0513279326726
 21
415.75299999999953
 72
     1
 10
1629.0513279326726
 20
415.75299999999953
 11
1629.0513279326726
 21
413.06585714285671
 72
     1
 10
1629.0513279326726
 20
413.06585714285671
 11
1632.3491850755299
 21
413.06585714285671
 72
     1
 10
1632.3491850755299
 20
413.06585714285671
 11
1632.3491850755299
 21
410.86728571428523
 72
     1
 10
1632.3491850755299
 20
410.86728571428523
 11
1629.0513279326726
 21
410.86728571428523
 72
     1
 10
1629.0513279326726
 20
410.86728571428523
 11
1629.0513279326726
 21
408.42442857142811
 72
     1
 10
1629.0513279326726
 20
408.42442857142811
 11
1632.8377565041012
 21
408.42442857142811
 72
     1
 10
1632.8377565041012
 20
408.42442857142811
 11
1632.8377565041012
 21
405.98157142857099
 72
     1
 10
1632.8377565041012
 20
405.98157142857099
 11
1629.9063279326724
 21
405.98157142857099
 72
     2
 10
1650.1471329079602
 20
419.65873911757689
 40
24.428571428571523
 50
214.04778
 51
226.876675
 73
     1
 72
     1
 10
1633.448470789815
 20
401.82871428571389
 11
1631.8066737883826
 21
400.18691728428144
 72
     2
 10
1650.1471329079602
 20
419.65873911757689
 40
26.749285714285801
 50
133.286192
 51
142.059463
 73
     0
 72
     1
 10
1629.0513279326726
 20
403.21211944455206
 11
1629.0513279326726
 21
398.65299999999945
 72
     1
 10
1629.0513279326726
 20
398.65299999999945
 11
1626.6084707898156
 21
398.65299999999945
 72
     1
 10
1626.6084707898156
 20
398.65299999999945
 11
1626.6084707898156
 21
403.21211944455274
 97
        0
 75
     0
 76
     1
 98
        1
 10
0.0
 20
0.0
  0
HATCH
  5
396
100
AcDbEntity
  8
LAY-1
  6
CONTINUOUS
 62
     3
100
AcDbHatch
 10
0.0
 20
0.0
 30
0.0
210
0.0
220
0.0
230
1.0
  2
SOLID
 70
     1
 71
     1
 91
        1
 92
        1
 93
       19
 72
     2
 10
1595.4565330906771
 20
416.39836919019081
 40
26.627142857142946
 50
27.683433
 51
32.280505
 73
     0
 72
     1
 10
1617.9682805872385
 20
402.17775171464621
 11
1616.2263279326726
 21
403.53871428571375
 72
     2
 10
1595.4565330906771
 20
416.39836919019081
 40
24.428571428571512
 50
328.236207
 51
344.845745
 73
     1
 72
     1
 10
1619.0356136469579
 20
410.01228571428521
 11
1616.8370422183868
 21
410.01228571428521
 72
     1
 10
1616.8370422183868
 20
410.01228571428521
 11
1616.8370422183868
 21
412.45514285714239
 72
     1
 10
1616.8370422183868
 20
412.45514285714239
 11
1619.0356136469584
 21
412.45514285714239
 72
     1
 10
1619.0356136469584
 20
412.45514285714239
 11
1619.0356136469584
 21
415.75299999999953
 72
     1
 10
1619.0356136469584
 20
415.75299999999953
 11
1621.4784707898154
 21
415.75299999999953
 72
     1
 10
1621.4784707898154
 20
415.75299999999953
 11
1621.4784707898154
 21
412.45514285714239
 72
     1
 10
1621.4784707898154
 20
412.45514285714239
 11
1622.5777565041012
 21
412.45514285714239
 72
     1
 10
1622.5777565041012
 20
412.45514285714239
 11
1622.5777565041012
 21
410.01228571428521
 72
     1
 10
1622.5777565041012
 20
410.01228571428521
 11
1621.4784707898154
 21
410.01228571428521
 72
     1
 10
1621.4784707898154
 20
410.01228571428521
 11
1622.822042218387
 21
408.09346685665497
 72
     1
 10
1622.822042218387
 20
408.09346685665497
 11
1622.822042218387
 21
406.60628729101228
 72
     1
 10
1622.822042218387
 20
406.60628729101228
 11
1622.0891850755297
 21
405.73290215815382
 72
     1
 10
1622.0891850755297
 20
405.73290215815382
 11
1621.4784707898154
 21
406.60509254798546
 72
     1
 10
1621.4784707898154
 20
406.60509254798546
 11
1621.4784707898154
 21
398.65299999999945
 72
     1
 10
1621.4784707898154
 20
398.65299999999945
 11
1619.0356136469584
 21
398.65299999999945
 72
     1
 10
1619.0356136469584
 20
398.65299999999945
 11
1619.0356136469584
 21
404.02777111026376
 97
        0
 75
     0
 76
     1
 98
        1
 10
0.0
 20
0.0
  0
HATCH
  5
397
100
AcDbEntity
  8
LAY-1
  6
CONTINUOUS
 62
     3
100
AcDbHatch
 10
0.0
 20
0.0
 30
0.0
210
0.0
220
0.0
230
1.0
  2
SOLID
 70
     1
 71
     1
 91
        1
 92
        1
 93
        8
 72
     2
 10
1605.7167999452583
 20
405.83499999999913
 40
4.7880000000000384
 50
270.0
 51
330.0
 73
     1
 72
     2
 10
1603.347354440504
 20
407.20299999999918
 40
7.5240000000000364
 50
330.0
 51
30.0
 73
     1
 72
     2
 10
1605.7167999452583
 20
408.57099999999917
 40
4.7880000000000367
 50
30.0
 51
90.0
 73
     1
 72
     1
 10
1605.7167999452597
 20
413.35899999999918
 11
1605.7167999452597
 21
416.09499999999974
 72
     2
 10
1605.7167999452581
 20
408.57099999999974
 40
7.5240000000000231
 50
270.0
 51
330.0
 73
     0
 72
     2
 10
1603.3473544405044
 20
407.20299999999963
 40
10.260000000000046
 50
330.0
 51
30.0
 73
     0
 72
     2
 10
1605.7167999452586
 20
405.8349999999989
 40
7.5240000000000151
 50
30.0
 51
90.0
 73
     0
 72
     1
 10
1605.7167999452597
 20
398.31099999999884
 11
1605.7167999452597
 21
401.04699999999912
 97
        0
 75
     0
 76
     1
 98
        1
 10
0.0
 20
0.0
  0
HATCH
  5
398
100
AcDbEntity
  8
LAY-1
  6
CONTINUOUS
 62
     3
100
AcDbHatch
 10
0.0
 20
0.0
 30
0.0
210
0.0
220
0.0
230
1.0
  2
SOLID
 70
     1
 71
     1
 91
        1
 92
        1
 93
        8
 72
     2
 10
1605.7167999452586
 20
405.8349999999989
 40
7.5240000000000151
 50
90.0
 51
150.0
 73
     0
 72
     2
 10
1608.0862454500123
 20
407.20299999999907
 40
10.260000000000057
 50
150.0
 51
210.0
 73
     0
 72
     2
 10
1605.7167999452581
 20
408.57099999999974
 40
7.5240000000000231
 50
210.0
 51
270.0
 73
     0
 72
     1
 10
1605.7167999452597
 20
416.09499999999974
 11
1605.7167999452597
 21
413.35899999999918
 72
     2
 10
1605.7167999452583
 20
408.57099999999917
 40
4.7880000000000367
 50
90.0
 51
150.0
 73
     1
 72
     2
 10
1608.0862454500127
 20
407.20299999999918
 40
7.5240000000000391
 50
150.0
 51
210.0
 73
     1
 72
     2
 10
1605.7167999452583
 20
405.83499999999913
 40
4.7880000000000384
 50
210.0
 51
270.0
 73
     1
 72
     1
 10
1605.7167999452597
 20
401.04699999999912
 11
1605.7167999452597
 21
398.31099999999884
 97
        0
 75
     0
 76
     1
 98
        1
 10
0.0
 20
0.0
  0
HATCH
  5
399
100
AcDbEntity
  8
LAY-1
  6
CONTINUOUS
 62
     3
100
AcDbHatch
 10
0.0
 20
0.0
 30
0.0
210
0.0
220
0.0
230
1.0
  2
SOLID
 70
     1
 71
     1
 91
        1
 92
        1
 93
        4
 72
     1
 10
1595.1147999452585
 20
404.12499999999915
 11
1592.3787999452584
 21
404.12499999999915
 72
     1
 10
1592.3787999452584
 20
404.12499999999915
 11
1592.3787999452584
 21
406.86099999999914
 72
     1
 10
1592.3787999452584
 20
406.86099999999914
 11
1595.1147999452585
 21
406.86099999999914
 72
     1
 10
1595.1147999452585
 20
406.86099999999914
 11
1595.1147999452585
 21
404.12499999999898
 97
        0
 75
     0
 76
     1
 98
        1
 10
0.0
 20
0.0
  0
HATCH
  5
39A
100
AcDbEntity
  8
LAY-1
  6
CONTINUOUS
 62
     3
100
AcDbHatch
 10
0.0
 20
0.0
 30
0.0
210
0.0
220
0.0
230
1.0
  2
SOLID
 70
     1
 71
     1
 91
        1
 92
        1
 93
       16
 72
     1
 10
1582.1187999452582
 20
413.0169999999992
 11
1578.3567999452582
 21
413.0169999999992
 72
     1
 10
1578.3567999452582
 20
413.0169999999992
 11
1577.6727999452582
 21
409.2549999999992
 72
     1
 10
1577.6727999452582
 20
409.2549999999992
 11
1575.6207999452583
 21
409.2549999999992
 72
     1
 10
1575.6207999452583
 20
409.2549999999992
 11
1575.6207999452583
 21
415.75299999999919
 72
     1
 10
1575.6207999452583
 20
415.75299999999919
 11
1591.3527999452585
 21
415.75299999999919
 72
     1
 10
1591.3527999452585
 20
415.75299999999919
 11
1591.3527999452585
 21
409.2549999999992
 72
     1
 10
1591.3527999452585
 20
409.2549999999992
 11
1589.3007999452584
 21
409.2549999999992
 72
     1
 10
1589.3007999452584
 20
409.2549999999992
 11
1588.6167999452584
 21
413.0169999999992
 72
     1
 10
1588.6167999452584
 20
413.0169999999992
 11
1584.8547999452583
 21
413.0169999999992
 72
     1
 10
1584.8547999452583
 20
413.0169999999992
 11
1584.8547999452585
 21
401.38899999999916
 72
     1
 10
1584.8547999452585
 20
401.38899999999916
 11
1587.5907999452584
 21
400.70499999999913
 72
     1
 10
1587.5907999452584
 20
400.70499999999913
 11
1587.5907999452584
 21
398.65299999999911
 72
     1
 10
1587.5907999452584
 20
398.65299999999911
 11
1579.3827999452583
 21
398.65299999999911
 72
     1
 10
1579.3827999452583
 20
398.65299999999911
 11
1579.3827999452583
 21
400.70499999999913
 72
     1
 10
1579.3827999452583
 20
400.70499999999913
 11
1582.1187999452582
 21
401.38899999999916
 72
     1
 10
1582.1187999452582
 20
401.38899999999916
 11
1582.1187999452582
 21
413.0169999999992
 97
        0
 75
     0
 76
     1
 98
        1
 10
0.0
 20
0.0
  0
HATCH
  5
39B
100
AcDbEntity
  8
LAY-1
  6
CONTINUOUS
 62
     3
100
AcDbHatch
 10
0.0
 20
0.0
 30
0.0
210
0.0
220
0.0
230
1.0
  2
SOLID
 70
     1
 71
     1
 91
        1
 92
        1
 93
        4
 72
     1
 10
1571.8587999452584
 20
404.12499999999915
 11
1571.8587999452584
 21
406.86099999999931
 72
     1
 10
1571.8587999452584
 20
406.86099999999931
 11
1574.5947999452583
 21
406.86099999999914
 72
     1
 10
1574.5947999452583
 20
406.86099999999914
 11
1574.5947999452583
 21
404.12499999999915
 72
     1
 10
1574.5947999452583
 20
404.12499999999915
 11
1571.8587999452584
 21
404.12499999999915
 97
        0
 75
     0
 76
     1
 98
        1
 10
0.0
 20
0.0
  0
HATCH
  5
39C
100
AcDbEntity
  8
LAY-1
  6
CONTINUOUS
 62
     3
100
AcDbHatch
 10
0.0
 20
0.0
 30
0.0
210
0.0
220
0.0
230
1.0
  2
SOLID
 70
     1
 71
     1
 91
        1
 92
        1
 93
       12
 72
     1
 10
1568.7807999452584
 20
415.75299999999919
 11
1568.7807999452584
 21
413.70099999999917
 72
     1
 10
1568.7807999452584
 20
413.70099999999917
 11
1566.0447999452585
 21
413.0169999999992
 72
     1
 10
1566.0447999452585
 20
413.0169999999992
 11
1566.0447999452585
 21
401.38899999999916
 72
     1
 10
1566.0447999452585
 20
401.38899999999916
 11
1568.7807999452584
 21
400.70499999999913
 72
     1
 10
1568.7807999452584
 20
400.70499999999913
 11
1568.7807999452584
 21
398.65299999999911
 72
     1
 10
1568.7807999452584
 20
398.65299999999911
 11
1560.5727999452583
 21
398.65299999999911
 72
     1
 10
1560.5727999452583
 20
398.65299999999911
 11
1560.5727999452583
 21
400.70499999999913
 72
     1
 10
1560.5727999452583
 20
400.70499999999913
 11
1563.3087999452582
 21
401.38899999999916
 72
     1
 10
1563.3087999452582
 20
401.38899999999916
 11
1563.3087999452582
 21
413.0169999999992
 72
     1
 10
1563.3087999452582
 20
413.0169999999992
 11
1560.5727999452583
 21
413.70099999999917
 72
     1
 10
1560.5727999452583
 20
413.70099999999917
 11
1560.5727999452583
 21
415.75299999999919
 72
     1
 10
1560.5727999452583
 20
415.75299999999919
 11
1568.7807999452584
 21
415.75299999999919
 97
        0
 75
     0
 76
     1
 98
        1
 10
0.0
 20
0.0
  0
HATCH
  5
39D
100
AcDbEntity
  8
LAY-1
  6
CONTINUOUS
 62
     3
100
AcDbHatch
 10
0.0
 20
0.0
 30
0.0
210
0.0
220
0.0
230
1.0
  2
SOLID
 70
     1
 71
     1
 91
        1
 92
        1
 93
       15
 72
     2
 10
1541.9597166716806
 20
407.20299999999952
 40
7.5931593159316035
 50
124.301153
 51
180.0
 73
     0
 72
     1
 10
1534.3665573557489
 20
407.20299999999997
 11
1537.2317398566249
 21
407.20299999999997
 72
     2
 10
1544.6196786505043
 20
407.20299999999958
 40
7.3879387938794103
 50
180.0
 51
199.464384
 73
     1
 72
     2
 10
1537.5344128641284
 20
408.02253594449843
 40
3.2835283528353623
 50
272.086657
 51
294.619977
 73
     1
 72
     2
 10
1538.4748514405908
 20
405.9703307239763
 40
1.026102610261032
 50
294.619977
 51
0.0
 73
     1
 72
     1
 10
1539.500954050852
 20
405.9703307239763
 11
1539.500954050852
 21
407.20299999999997
 72
     1
 10
1539.500954050852
 20
407.20299999999997
 11
1541.9636003154783
 21
407.20299999999997
 72
     1
 10
1541.9636003154783
 20
407.20299999999997
 11
1541.9636003154783
 21
405.96815341758349
 72
     2
 10
1542.9897029257395
 20
405.96815341758349
 40
1.02610261026099
 50
180.0
 51
245.380023
 73
     1
 72
     2
 10
1543.9301415022019
 20
408.02035863810596
 40
3.2835283528357233
 50
245.380023
 51
267.913343
 73
     1
 72
     1
 10
1543.8105850139482
 20
404.73900759166298
 11
1543.8105850139482
 21
404.12334602550641
 72
     1
 10
1543.8105850139482
 20
404.12334602550641
 11
1537.9042210324792
 21
404.12334602550641
 72
     2
 10
1544.6196786505047
 20
407.20299999999958
 40
7.3879387938794006
 50
204.635803
 51
268.19864
 73
     1
 72
     1
 10
1544.3874426442128
 20
399.81871221718058
 11
1544.3874426442128
 21
398.79114885601308
 72
     2
 10
1544.6196786505043
 20
411.10218991899183
 40
12.313231323132369
 50
91.080702
 51
124.301153
 73
     0
 97
        0
 75
     0
 76
     1
 98
        1
 10
0.0
 20
0.0
  0
HATCH
  5
39E
100
AcDbEntity
  8
LAY-1
  6
CONTINUOUS
 62
     3
100
AcDbHatch
 10
0.0
 20
0.0
 30
0.0
210
0.0
220
0.0
230
1.0
  2
SOLID
 70
     1
 71
     1
 91
        1
 92
        1
 93
       24
 72
     2
 10
1543.1947742783016
 20
408.22910261026061
 40
1.0261026102610411
 50
90.0
 51
157.380135
 73
     1
 72
     2
 10
1545.6574205429279
 20
407.20299999999963
 40
3.6939693969397109
 50
157.380135
 51
180.0
 73
     1
 72
     1
 10
1541.9634511459883
 20
407.20299999999997
 11
1539.500954050852
 21
407.20299999999997
 72
     1
 10
1539.500954050852
 20
407.20299999999997
 11
1539.500954050852
 21
412.53031621879308
 72
     2
 10
1544.6196786505043
 20
407.20299999999958
 40
7.3879387938794103
 50
133.856042
 51
180.0
 73
     1
 72
     1
 10
1537.2317398566249
 20
407.20299999999997
 11
1534.3665573557489
 21
407.20299999999997
 72
     2
 10
1541.9597166716806
 20
407.20299999999952
 40
7.5931593159316035
 50
180.0
 51
235.698847
 73
     0
 72
     2
 10
1544.6196786505047
 20
403.30381008100721
 40
12.313231323132396
 50
235.698847
 51
245.436008
 73
     0
 72
     1
 10
1539.500954050852
 20
414.50266377635836
 11
1539.500954050852
 21
415.61787256682271
 72
     2
 10
1538.4748514405908
 20
415.61787256682271
 40
1.0261026102610264
 50
0.0
 51
65.380023
 73
     1
 72
     2
 10
1537.5344128641284
 20
413.56566734630064
 40
3.2835283528352881
 50
65.380023
 51
87.913343
 73
     1
 72
     1
 10
1537.6539693523819
 20
416.84701839274322
 11
1537.6539693523819
 21
417.4626799588998
 72
     1
 10
1537.6539693523819
 20
417.4626799588998
 11
1543.8105850139482
 21
417.4626799588998
 72
     1
 10
1543.8105850139482
 20
417.4626799588998
 11
1543.8105850139482
 21
416.84701839274322
 72
     2
 10
1543.9301415022019
 20
413.56566734630064
 40
3.2835283528353032
 50
92.086657
 51
114.619977
 73
     1
 72
     2
 10
1542.9897029257395
 20
415.61787256682277
 40
1.0261026102610411
 50
114.619977
 51
180.0
 73
     1
 72
     1
 10
1541.9636003154783
 20
415.61787256682271
 11
1541.9636003154783
 21
415.32715876160256
 72
     2
 10
1544.6196786505043
 20
403.30381008100721
 40
12.313231323132365
 50
257.542857
 51
268.919298
 73
     0
 72
     1
 10
1544.3874426442128
 20
415.61485114398602
 11
1544.3874426442128
 21
414.58728778281858
 72
     2
 10
1544.6196786505047
 20
407.20299999999958
 40
7.3879387938794103
 50
91.80136
 51
111.070443
 73
     1
 72
     1
 10
1541.9636003154783
 20
414.09697472437392
 11
1541.9636003154783
 21
410.28130783078262
 72
     1
 10
1541.9636003154783
 20
410.28130783078262
 11
1544.3874426442128
 21
410.28130783078262
 72
     1
 10
1544.3874426442128
 20
410.28130783078262
 11
1544.3874426442128
 21
409.25520522052159
 72
     1
 10
1544.3874426442128
 20
409.25520522052159
 11
1543.1947742783016
 21
409.25520522052159
 97
        0
 75
     0
 76
     1
 98
        1
 10
0.0
 20
0.0
  0
HATCH
  5
39F
100
AcDbEntity
  8
LAY-1
  6
CONTINUOUS
 62
     3
100
AcDbHatch
 10
0.0
 20
0.0
 30
0.0
210
0.0
220
0.0
230
1.0
  2
SOLID
 70
     1
 71
     1
 91
        1
 92
        1
 93
       14
 72
     2
 10
1544.6196786505043
 20
407.20299999999958
 40
7.3879387938794245
 50
0.0
 51
9.281799
 73
     1
 72
     2
 10
1550.8982193297077
 20
408.22910261026061
 40
1.02610261026102
 50
9.281799
 51
90.0
 73
     1
 72
     1
 10
1550.8982193297077
 20
409.25520522052159
 11
1548.7240890915486
 21
409.25520522052159
 72
     1
 10
1548.7240890915486
 20
409.25520522052159
 11
1548.7240890915486
 21
407.20299999999997
 72
     1
 10
1548.7240890915486
 20
407.20299999999997
 11
1546.2614428269221
 21
407.20299999999997
 72
     1
 10
1546.2614428269221
 20
407.20299999999997
 11
1546.2614428269221
 21
409.25520522052159
 72
     1
 10
1546.2614428269221
 20
409.25520522052159
 11
1544.3874426442128
 21
409.25520522052159
 72
     1
 10
1544.3874426442128
 20
409.25520522052159
 11
1544.3874426442128
 21
410.28130783078262
 72
     1
 10
1544.3874426442128
 20
410.28130783078262
 11
1551.3357534357528
 21
410.28130783078257
 72
     2
 10
1544.6196786505047
 20
407.20299999999958
 40
7.3879387938794103
 50
24.624318
 51
91.80136
 73
     1
 72
     1
 10
1544.3874426442128
 20
414.58728778281858
 11
1544.3874426442128
 21
415.61485114398602
 72
     2
 10
1544.6196786505043
 20
403.30381008100721
 40
12.313231323132365
 50
268.919298
 51
304.301153
 73
     0
 72
     2
 10
1547.2796406293285
 20
407.20299999999952
 40
7.5931593159316115
 50
304.301153
 51
0.0
 73
     0
 72
     1
 10
1554.8727999452601
 20
407.20299999999997
 11
1552.0076174443839
 21
407.20299999999997
 97
        0
 75
     0
 76
     1
 98
        1
 10
0.0
 20
0.0
  0
HATCH
  5
3A0
100
AcDbEntity
  8
LAY-1
  6
CONTINUOUS
 62
     3
100
AcDbHatch
 10
0.0
 20
0.0
 30
0.0
210
0.0
220
0.0
230
1.0
  2
SOLID
 70
     1
 71
     1
 91
        1
 92
        1
 93
       19
 72
     2
 10
1544.6196786505043
 20
407.20299999999958
 40
7.3879387938794245
 50
303.748989
 51
0.0
 73
     1
 72
     1
 10
1552.0076174443839
 20
407.20299999999997
 11
1554.8727999452601
 21
407.20299999999997
 72
     2
 10
1547.2796406293285
 20
407.20299999999952
 40
7.5931593159316115
 50
0.0
 51
55.698847
 73
     0
 72
     2
 10
1544.6196786505047
 20
411.10218991899188
 40
12.313231323132388
 50
55.698847
 51
70.528779
 73
     0
 72
     1
 10
1548.7240890915486
 20
399.49316409645115
 11
1548.7240890915486
 21
398.78678128946638
 72
     2
 10
1549.7501917018096
 20
398.78678128946638
 40
1.026102610261032
 50
180.0
 51
245.380023
 73
     1
 72
     2
 10
1550.690630278272
 20
400.83898650998844
 40
3.283528352835297
 50
245.380023
 51
267.913343
 73
     1
 72
     1
 10
1550.5710737900185
 20
397.55763546354586
 11
1550.5710737900185
 21
396.94197389738923
 72
     1
 10
1550.5710737900185
 20
396.94197389738923
 11
1544.4144581284522
 21
396.94197389738923
 72
     1
 10
1544.4144581284522
 20
396.94197389738923
 11
1544.4144581284522
 21
397.55763546354586
 72
     2
 10
1544.2949016401985
 20
400.83898650998844
 40
3.283528352835297
 50
272.086657
 51
294.619977
 73
     1
 72
     2
 10
1545.2353402166609
 20
398.78678128946638
 40
1.026102610261032
 50
294.619977
 51
0.0
 73
     1
 72
     1
 10
1546.2614428269221
 20
398.78678128946638
 11
1546.2614428269221
 21
398.8989003622371
 72
     2
 10
1544.6196786505043
 20
411.10218991899183
 40
12.313231323132369
 50
82.337744
 51
91.080702
 73
     0
 72
     1
 10
1544.3874426442128
 20
398.79114885601308
 11
1544.3874426442128
 21
399.81871221718058
 72
     2
 10
1544.6196786505047
 20
407.20299999999958
 40
7.3879387938794006
 50
268.19864
 51
282.839588
 73
     1
 72
     1
 10
1546.2614428269221
 20
399.99978890971909
 11
1546.2614428269221
 21
407.20299999999997
 72
     1
 10
1546.2614428269221
 20
407.20299999999997
 11
1548.7240890915486
 21
407.20299999999997
 72
     1
 10
1548.7240890915486
 20
407.20299999999997
 11
1548.7240890915486
 21
401.06008094196562
 97
        0
 75
     0
 76
     1
 98
        1
 10
0.0
 20
0.0
  0
TEXT
  5
3A1
100
AcDbEntity
  8
LAY-1
  6
CONTINUOUS
 62
     3
100
AcDbText
 10
1501.936
 20
475.72
 30
0.0
 40
20.0
  1
Ｃ２－２５０Ｂ／Ｃ２－４００Ｂ
 41
0.756
  7
EXCADSTD
 72
     5
 11
1771.936001
 21
475.72
 31
0.0
100
AcDbText
  0
TEXT
  5
3A2
100
AcDbEntity
  8
LAY-1
  6
CONTINUOUS
 62
     3
100
AcDbText
 10
1512.48
 20
503.32
 30
0.0
 40
20.0
  1
２０１４年　６月２５日
 41
0.84
  7
EXCADSTD
 72
     5
 11
1732.48
 21
503.32
 31
0.0
100
AcDbText
  0
TEXT
  5
3A3
100
AcDbEntity
  8
LAY-1
  6
CONTINUOUS
 62
     3
100
AcDbText
 10
1501.904
 20
447.816
 30
0.0
 40
20.0
  1
感震センサ
 41
0.84
  7
EXCADSTD
 72
     5
 11
1601.904
 21
447.816
 31
0.0
100
AcDbText
  0
LINE
  5
3A4
100
AcDbEntity
  8
LAY-1
  6
EXLTYPE3
 62
     1
100
AcDbLine
 10
1073.767889
 20
772.619206
 30
0.0
 11
987.9
 21
772.619206
 31
0.0
  0
LINE
  5
3A5
100
AcDbEntity
  8
LAY-1
  6
EXLTYPE3
 62
     1
100
AcDbLine
 10
987.0
 20
714.619206
 30
0.0
 11
1089.568933
 21
714.619206
 31
0.0
  0
LINE
  5
3A6
100
AcDbEntity
  8
LAY-1
  6
CONTINUOUS
 62
     2
100
AcDbLine
 10
961.167889
 20
718.919206
 30
0.0
 11
961.167889
 21
726.319206
 31
0.0
  0
LINE
  5
3A7
100
AcDbEntity
  8
LAY-1
  6
CONTINUOUS
 62
     2
100
AcDbLine
 10
961.167889
 20
726.319206
 30
0.0
 11
972.867889
 21
714.619206
 31
0.0
  0
LINE
  5
3A8
100
AcDbEntity
  8
LAY-1
  6
CONTINUOUS
 62
     2
100
AcDbLine
 10
961.167889
 20
710.319206
 30
0.0
 11
961.167889
 21
702.919206
 31
0.0
  0
LINE
  5
3A9
100
AcDbEntity
  8
LAY-1
  6
CONTINUOUS
 62
     2
100
AcDbLine
 10
961.167889
 20
702.919206
 30
0.0
 11
972.867889
 21
714.619206
 31
0.0
  0
LINE
  5
3AA
100
AcDbEntity
  8
LAY-1
  6
CONTINUOUS
 62
     2
100
AcDbLine
 10
946.8
 20
718.919206
 30
0.0
 11
961.167889
 21
718.919206
 31
0.0
  0
LINE
  5
3AB
100
AcDbEntity
  8
LAY-1
  6
CONTINUOUS
 62
     2
100
AcDbLine
 10
946.8
 20
710.319206
 30
0.0
 11
961.167889
 21
710.319206
 31
0.0
  0
LINE
  5
3AC
100
AcDbEntity
  8
LAY-1
  6
CONTINUOUS
 62
     2
100
AcDbLine
 10
946.8
 20
718.919206
 30
0.0
 11
946.8
 21
710.319206
 31
0.0
  0
LINE
  5
3AD
100
AcDbEntity
  8
LAY-1
  6
CONTINUOUS
 62
     2
100
AcDbLine
 10
957.3
 20
768.319206
 30
0.0
 11
957.3
 21
760.919206
 31
0.0
  0
LINE
  5
3AE
100
AcDbEntity
  8
LAY-1
  6
CONTINUOUS
 62
     2
100
AcDbLine
 10
957.3
 20
760.919206
 30
0.0
 11
945.6
 21
772.619206
 31
0.0
  0
LINE
  5
3AF
100
AcDbEntity
  8
LAY-1
  6
CONTINUOUS
 62
     2
100
AcDbLine
 10
957.3
 20
776.919206
 30
0.0
 11
957.3
 21
784.319206
 31
0.0
  0
LINE
  5
3B0
100
AcDbEntity
  8
LAY-1
  6
CONTINUOUS
 62
     2
100
AcDbLine
 10
957.3
 20
784.319206
 30
0.0
 11
945.6
 21
772.619206
 31
0.0
  0
LINE
  5
3B1
100
AcDbEntity
  8
LAY-1
  6
CONTINUOUS
 62
     2
100
AcDbLine
 10
972.4
 20
768.319206
 30
0.0
 11
957.3
 21
768.319206
 31
0.0
  0
LINE
  5
3B2
100
AcDbEntity
  8
LAY-1
  6
CONTINUOUS
 62
     2
100
AcDbLine
 10
972.4
 20
776.919206
 30
0.0
 11
957.3
 21
776.919206
 31
0.0
  0
LINE
  5
3B3
100
AcDbEntity
  8
LAY-1
  6
CONTINUOUS
 62
     2
100
AcDbLine
 10
972.4
 20
768.319206
 30
0.0
 11
972.4
 21
776.919206
 31
0.0
  0
TEXT
  5
3B4
100
AcDbEntity
  8
LAY-1
  6
CONTINUOUS
 62
     3
100
AcDbText
 10
588.76
 20
722.439206
 30
0.0
 40
7.0
  1
入口側
 50
270.0
 41
0.656
  7
EXCADSTD
 72
     5
 11
588.76
 21
706.039206
 31
0.0
100
AcDbText
  0
LINE
  5
3B5
100
AcDbEntity
  8
LAY-1
  6
CONTINUOUS
 62
     2
100
AcDbLine
 10
597.2
 20
719.619206
 30
0.0
 11
597.2
 21
709.619206
 31
0.0
  0
ARC
  5
3B6
100
AcDbEntity
  8
LAY-1
  6
CONTINUOUS
 62
     2
100
AcDbCircle
 10
592.2
 20
709.619206
 30
0.0
 40
5.0
100
AcDbArc
 50
180.0
 51
0.0
  0
ARC
  5
3B7
100
AcDbEntity
  8
LAY-1
  6
CONTINUOUS
 62
     2
100
AcDbCircle
 10
592.2
 20
719.619206
 30
0.0
 40
5.0
100
AcDbArc
 50
0.0
 51
180.0
  0
LINE
  5
3B8
100
AcDbEntity
  8
LAY-1
  6
CONTINUOUS
 62
     2
100
AcDbLine
 10
587.2
 20
719.619206
 30
0.0
 11
587.2
 21
709.619206
 31
0.0
  0
LINE
  5
3B9
100
AcDbEntity
  8
LAY-1
  6
CONTINUOUS
 62
     2
100
AcDbLine
 10
596.2
 20
719.619206
 30
0.0
 11
596.2
 21
709.619206
 31
0.0
  0
LINE
  5
3BA
100
AcDbEntity
  8
LAY-1
  6
CONTINUOUS
 62
     2
100
AcDbLine
 10
588.2
 20
709.619206
 30
0.0
 11
588.2
 21
719.619206
 31
0.0
  0
ARC
  5
3BB
100
AcDbEntity
  8
LAY-1
  6
CONTINUOUS
 62
     2
100
AcDbCircle
 10
592.2
 20
719.619206
 30
0.0
 40
4.0
100
AcDbArc
 50
0.0
 51
180.0
  0
ARC
  5
3BC
100
AcDbEntity
  8
LAY-1
  6
CONTINUOUS
 62
     2
100
AcDbCircle
 10
592.2
 20
709.619206
 30
0.0
 40
4.0
100
AcDbArc
 50
180.0
 51
0.0
  0
LINE
  5
3BD
100
AcDbEntity
  8
LAY-1
  6
EXLTYPE3
 62
     1
100
AcDbLine
 10
569.7501
 20
708.619206
 30
0.0
 11
586.1
 21
708.619206
 31
0.0
  0
POLYLINE
  5
3BE
100
AcDbEntity
  8
LAY-1
  6
CONTINUOUS
 62
     1
100
AcDb2dPolyline
 66
     1
 10
0.0
 20
0.0
 30
0.0
 70
   128
  0
VERTEX
  5
3BF
100
AcDbEntity
  8
LAY-1
  6
CONTINUOUS
 62
     1
100
AcDbVertex
100
AcDb2dVertex
 10
1002.929047
 20
714.619206
 30
0.0
  0
VERTEX
  5
3C0
100
AcDbEntity
  8
LAY-1
  6
CONTINUOUS
 62
     1
100
AcDbVertex
100
AcDb2dVertex
 10
936.0
 20
567.0
 30
0.0
  0
VERTEX
  5
3C1
100
AcDbEntity
  8
LAY-1
  6
CONTINUOUS
 62
     1
100
AcDbVertex
100
AcDb2dVertex
 10
751.0
 20
567.0
 30
0.0
  0
SEQEND
  5
3C2
100
AcDbEntity
  8
LAY-1
  6
CONTINUOUS
 62
     1
  0
LINE
  5
3C3
100
AcDbEntity
  8
LAY-1
  6
CONTINUOUS
 62
     1
100
AcDbLine
 10
1002.406774
 20
712.660037
 30
0.0
 11
1002.929047
 21
714.619206
 31
0.0
  0
LINE
  5
3C4
100
AcDbEntity
  8
LAY-1
  6
CONTINUOUS
 62
     1
100
AcDbLine
 10
1002.929047
 20
714.619206
 30
0.0
 11
1001.799599
 21
712.935324
 31
0.0
  0
TEXT
  5
3C5
100
AcDbEntity
  8
LAY-1
  6
CONTINUOUS
 62
     3
100
AcDbText
 10
754.0
 20
567.3
 30
0.0
 40
25.0
  1
使用銅管径φ８
 41
0.84
  7
EXCADSTD
 72
     5
 11
929.0
 21
567.3
 31
0.0
100
AcDbText
  0
POLYLINE
  5
3C6
100
AcDbEntity
  8
LAY-1
  6
CONTINUOUS
 62
     1
100
AcDb2dPolyline
 66
     1
 10
0.0
 20
0.0
 30
0.0
 70
   128
  0
VERTEX
  5
3C7
100
AcDbEntity
  8
LAY-1
  6
CONTINUOUS
 62
     1
100
AcDbVertex
100
AcDb2dVertex
 10
1002.929047
 20
772.619206
 30
0.0
  0
VERTEX
  5
3C8
100
AcDbEntity
  8
LAY-1
  6
CONTINUOUS
 62
     1
100
AcDbVertex
100
AcDb2dVertex
 10
936.0
 20
567.0
 30
0.0
  0
SEQEND
  5
3C9
100
AcDbEntity
  8
LAY-1
  6
CONTINUOUS
 62
     1
  0
LINE
  5
3CA
100
AcDbEntity
  8
LAY-1
  6
CONTINUOUS
 62
     1
100
AcDbLine
 10
1002.62698
 20
770.614245
 30
0.0
 11
1002.929047
 21
772.619206
 31
0.0
  0
LINE
  5
3CB
100
AcDbEntity
  8
LAY-1
  6
CONTINUOUS
 62
     1
100
AcDbLine
 10
1002.929047
 20
772.619206
 30
0.0
 11
1001.993051
 21
770.820589
 31
0.0
  0
ENDSEC
  0
SECTION
  2
OBJECTS
  0
DICTIONARY
  5
19
100
AcDbDictionary
  3
ACAD_GROUP
350
1A
  3
ACAD_MLINESTYLE
350
1B
  0
DICTIONARY
  5
1A
102
{ACAD_REACTORS
330
19
102
}
100
AcDbDictionary
  0
DICTIONARY
  5
1B
102
{ACAD_REACTORS
330
19
102
}
100
AcDbDictionary
  3
STANDARD
350
1C
  0
MLINESTYLE
  5
1C
102
{ACAD_REACTORS
330
1B
102
}
100
AcDbMlineStyle
  2
Standard
 70
     0
  3

 62
     0
 51
90.0
 52
90.0
 71
     2
 49
0.5
 62
   256
  6
ByLayer
 49
-0.5
 62
   256
  6
ByLayer
  0
ENDSEC
  0
EOF
