  0
SECTION
  2
HEADER
  9
$ACADVER
  1
AC1014
  9
$ACADMAINTVER
 70
     0
  9
$DWGCODEPAGE
  3
ANSI_932
  9
$INSBASE
 10
0.0
 20
0.0
 30
0.0
  9
$EXTMIN
 10
67.3
 20
35.0
 30
0.0
  9
$EXTMAX
 10
770.515299
 20
600.5
 30
0.0
  9
$LIMMIN
 10
0.0
 20
0.0
  9
$LIMMAX
 10
420.0
 20
297.0
  9
$ORTHOMODE
 70
     0
  9
$REGENMODE
 70
     1
  9
$FILLMODE
 70
     1
  9
$QTEXTMODE
 70
     0
  9
$MIRRTEXT
 70
     1
  9
$DRAGMODE
 70
     2
  9
$LTSCALE
 40
1.0
  9
$OSMODE
 70
     0
  9
$ATTMODE
 70
     1
  9
$TEXTSIZE
 40
0.2
  9
$TRACEWID
 40
0.05
  9
$TEXTSTYLE
  7
STANDARD
  9
$CLAYER
  8
LAY-1
  9
$CELTYPE
  6
CONTINUOUS
  9
$CECOLOR
 62
   256
  9
$CELTSCALE
 40
1.0
  9
$DELOBJ
 70
     1
  9
$DISPSILH
 70
     0
  9
$DIMSCALE
 40
1.0
  9
$DIMASZ
 40
0.18
  9
$DIMEXO
 40
0.0625
  9
$DIMDLI
 40
0.38
  9
$DIMRND
 40
0.0
  9
$DIMDLE
 40
0.0
  9
$DIMEXE
 40
0.18
  9
$DIMTP
 40
0.0
  9
$DIMTM
 40
0.0
  9
$DIMTXT
 40
0.18
  9
$DIMCEN
 40
0.09
  9
$DIMTSZ
 40
0.0
  9
$DIMTOL
 70
     0
  9
$DIMLIM
 70
     0
  9
$DIMTIH
 70
     1
  9
$DIMTOH
 70
     1
  9
$DIMSE1
 70
     0
  9
$DIMSE2
 70
     0
  9
$DIMTAD
 70
     0
  9
$DIMZIN
 70
     0
  9
$DIMBLK
  1

  9
$DIMASO
 70
     1
  9
$DIMSHO
 70
     1
  9
$DIMPOST
  1

  9
$DIMAPOST
  1

  9
$DIMALT
 70
     0
  9
$DIMALTD
 70
     2
  9
$DIMALTF
 40
25.4
  9
$DIMLFAC
 40
1.0
  9
$DIMTOFL
 70
     0
  9
$DIMTVP
 40
0.0
  9
$DIMTIX
 70
     0
  9
$DIMSOXD
 70
     0
  9
$DIMSAH
 70
     0
  9
$DIMBLK1
  1

  9
$DIMBLK2
  1

  9
$DIMSTYLE
  2
STANDARD
  9
$DIMCLRD
 70
     0
  9
$DIMCLRE
 70
     0
  9
$DIMCLRT
 70
     0
  9
$DIMTFAC
 40
1.0
  9
$DIMGAP
 40
0.09
  9
$DIMJUST
 70
     0
  9
$DIMSD1
 70
     0
  9
$DIMSD2
 70
     0
  9
$DIMTOLJ
 70
     1
  9
$DIMTZIN
 70
     0
  9
$DIMALTZ
 70
     0
  9
$DIMALTTZ
 70
     0
  9
$DIMFIT
 70
     3
  9
$DIMUPT
 70
     0
  9
$DIMUNIT
 70
     2
  9
$DIMDEC
 70
     4
  9
$DIMTDEC
 70
     4
  9
$DIMALTU
 70
     2
  9
$DIMALTTD
 70
     2
  9
$DIMTXSTY
  7
STANDARD
  9
$DIMAUNIT
 70
     0
  9
$LUNITS
 70
     2
  9
$LUPREC
 70
     4
  9
$SKETCHINC
 40
0.1
  9
$FILLETRAD
 40
0.0
  9
$AUNITS
 70
     0
  9
$AUPREC
 70
     0
  9
$MENU
  1
acad
  9
$ELEVATION
 40
0.0
  9
$PELEVATION
 40
0.0
  9
$THICKNESS
 40
0.0
  9
$LIMCHECK
 70
     0
  9
$BLIPMODE
 70
     1
  9
$CHAMFERA
 40
0.0
  9
$CHAMFERB
 40
0.0
  9
$CHAMFERC
 40
0.0
  9
$CHAMFERD
 40
0.0
  9
$SKPOLY
 70
     0
  9
$TDCREATE
 40
2456723.144865185
  9
$TDUPDATE
 40
2456723.144865185
  9
$TDINDWG
 40
0.0000000000
  9
$TDUSRTIMER
 40
0.0000000000
  9
$USRTIMER
 70
     1
  9
$ANGBASE
 50
0.0
  9
$ANGDIR
 70
     0
  9
$PDMODE
 70
     0
  9
$PDSIZE
 40
0.0
  9
$PLINEWID
 40
0.0
  9
$COORDS
 70
     1
  9
$SPLFRAME
 70
     0
  9
$SPLINETYPE
 70
     6
  9
$SPLINESEGS
 70
     8
  9
$ATTDIA
 70
     0
  9
$ATTREQ
 70
     1
  9
$HANDLING
 70
     1
  9
$HANDSEED
  5
3B3
  9
$SURFTAB1
 70
     6
  9
$SURFTAB2
 70
     6
  9
$SURFTYPE
 70
     6
  9
$SURFU
 70
     6
  9
$SURFV
 70
     6
  9
$UCSNAME
  2

  9
$UCSORG
 10
0.0
 20
0.0
 30
0.0
  9
$UCSXDIR
 10
1.0
 20
0.0
 30
0.0
  9
$UCSYDIR
 10
0.0
 20
1.0
 30
0.0
  9
$PUCSNAME
  2

  9
$PUCSORG
 10
0.0
 20
0.0
 30
0.0
  9
$PUCSXDIR
 10
1.0
 20
0.0
 30
0.0
  9
$PUCSYDIR
 10
0.0
 20
1.0
 30
0.0
  9
$USERI1
 70
     0
  9
$USERI2
 70
     0
  9
$USERI3
 70
     0
  9
$USERI4
 70
     0
  9
$USERI5
 70
     0
  9
$USERR1
 40
0.0
  9
$USERR2
 40
0.0
  9
$USERR3
 40
0.0
  9
$USERR4
 40
0.0
  9
$USERR5
 40
0.0
  9
$WORLDVIEW
 70
     1
  9
$SHADEDGE
 70
     3
  9
$SHADEDIF
 70
    70
  9
$TILEMODE
 70
     1
  9
$MAXACTVP
 70
    16
  9
$PINSBASE
 10
0.0
 20
0.0
 30
0.0
  9
$PLIMCHECK
 70
     0
  9
$PEXTMIN
 10
1.000000E+20
 20
1.000000E+20
 30
1.000000E+20
  9
$PEXTMAX
 10
-1.000000E+20
 20
-1.000000E+20
 30
-1.000000E+20
  9
$PLIMMIN
 10
0.0
 20
0.0
  9
$PLIMMAX
 10
12.0
 20
9.0
  9
$UNITMODE
 70
     0
  9
$VISRETAIN
 70
     0
  9
$PLINEGEN
 70
     1
  9
$PSLTSCALE
 70
     0
  9
$TREEDEPTH
 70
  3020
  9
$PICKSTYLE
 70
     1
  9
$CMLSTYLE
  2
Standard
  9
$CMLJUST
 70
     0
  9
$CMLSCALE
 40
1.0
  9
$PROXYGRAPHICS
 70
     0
  9
$MEASUREMENT
 70
     0
  0
ENDSEC
  0
SECTION
  2
CLASSES
  0
CLASS
  1
LWPOLYLINE
  2
AcDbPolyline
  3
"AutoCAD"
 90
        0
280
     0
281
     1
  0
CLASS
  1
IMAGE
  2
AcDbRasterImage
  3
ISM
 90
      127
280
     0
281
     1
  0
CLASS
  1
OLE2FRAME
  2
AcDbOle2Frame
  3
""
 90
        0
280
     0
281
     1
  0
CLASS
  1
HATCH
  2
AcDbHatch
  3
"ACAD_SEDONA"
 90
        0
280
     0
281
     1
  0
CLASS
  1
DICTIONARYVAR
  2
AcDbDictionaryVar
  3
"AutoCAD"
 90
        0
280
     0
281
     0
  0
CLASS
  1
RASTERVARIABLES
  2
AcDbRasterVariables
  3
ISM
 90
        0
280
     0
281
     0
  0
CLASS
  1
IMAGEDEF
  2
AcDbRasterImageDef
  3
ISM
 90
        0
280
     0
281
     0
  0
CLASS
  1
IMAGEDEF_REACTOR
  2
AcDbRasterImageDefReactor
  3
ISM
 90
        1
280
     0
281
     0
  0
CLASS
  1
IDBUFFER
  2
AcDbIdBuffer
  3
"Acad"
 90
        0
280
     0
281
     0
  0
CLASS
  1
SPATIAL_FILTER
  2
AcDbSpatialFilter
  3
"Acad"
 90
        0
280
     0
281
     0
  0
CLASS
  1
XRECORD
  2
AcDbXrecord
  3
"<Built In>"
 90
        0
280
     0
281
     0
  0
CLASS
  1
SORTENTSTABLE
  2
AcDbSortentsTable
  3
"AutoCAD"
 90
        0
280
     0
281
     0
  0
CLASS
  1
LAYER_INDEX
  2
AcDbLayerIndex
  3
"Acad"
 90
        0
280
     0
281
     0
  0
CLASS
  1
SPATIAL_INDEX
  2
AcDbSpatialIndex
  3
"Acad"
 90
        0
280
     0
281
     0
  0
CLASS
  1
OBJECT_PTR
  2
CAseDLPNTableRecord
  3
"ASE-LPNTableRecord"
 90
        1
280
     0
281
     0
  0
CLASS
  1
LAYOUT
  2
AcDbLayout
  3
"AutoCAD 2000"
 90
        0
280
     0
281
     0
  0
CLASS
  1
PLOTSETTINGS
  2
AcDbPlotSettings
  3
"AutoCAD 2000"
 90
        0
280
     0
281
     0
  0
CLASS
  1
ACDBDICTIONARYWDFLT
  2
AcDbDictionaryWithDefault
  3
"AutoCAD 2000"
 90
        0
280
     0
281
     0
  0
CLASS
  1
ACDBPLACEHOLDER
  2
AcDbPlaceHolder
  3
"AutoCAD 2000"
 90
        0
280
     0
281
     0
  0
CLASS
  1
VBA_PROJECT
  2
AcDbVbaProject
  3
"acadvba"
 90
        0
280
     0
281
     0
  0
CLASS
  1
WIPEOUT
  2
AcDbWipeout
  3
WipeOut|AutoCAD Express Tool|expresstools@autodesk.com
 90
      127
280
     0
281
     1
  0
CLASS
  1
WIPEOUTVARIABLES
  2
AcDbWipeoutVariables
  3
WipeOut|AutoCAD Express Tool|expresstools@autodesk.com
 90
        0
280
     0
281
     0
  0
CLASS
  1
RTEXT
  2
RText
  3
RText|AutoCAD Express Tool|expresstools@autodesk.com
 90
        0
280
     0
281
     1
  0
CLASS
  1
ARCALIGNEDTEXT
  2
AcDbArcAlignedText
  3
ATEXT|AutoCAD Express Tool|expresstools@autodesk.com
 90
        0
280
     0
281
     1
  0
ENDSEC
  0
SECTION
  2
TABLES
  0
TABLE
  2
VPORT
  5
7
100
AcDbSymbolTable
 70
     1
  0
VPORT
  5
15
100
AcDbSymbolTableRecord
100
AcDbViewportTableRecord
  2
*ACTIVE
 70
     0
 10
0.0
 20
0.0
 11
1.0
 21
1.0
 12
418.90765
 22
317.75
 13
0.0
 23
0.0
 14
1.0
 24
1.0
 15
0.0
 25
0.0
 16
0.0
 26
0.0
 36
1.0
 17
0.0
 27
0.0
 37
0.0
 40
565.5
 41
1.722533
 42
50.0
 43
0.0
 44
0.0
 50
0.0
 51
0.0
 71
     0
 72
  1000
 73
     1
 74
     1
 75
     0
 76
     0
 77
     0
 78
     0
  0
ENDTAB
  0
TABLE
  2
LTYPE
  5
4
100
AcDbSymbolTable
 70
     9
  0
LTYPE
  5
11
100
AcDbSymbolTableRecord
100
AcDbLinetypeTableRecord
  2
BYBLOCK
 70
    64
  3

 72
    65
 73
     0
 40
0.0
  0
LTYPE
  5
12
100
AcDbSymbolTableRecord
100
AcDbLinetypeTableRecord
  2
BYLAYER
 70
    64
  3

 72
    65
 73
     0
 40
0.0
  0
LTYPE
  5
13
100
AcDbSymbolTableRecord
100
AcDbLinetypeTableRecord
  2
CONTINUOUS
 70
    64
  3
実線
 72
    65
 73
     0
 40
0.0
  0
LTYPE
  5
1D
100
AcDbSymbolTableRecord
100
AcDbLinetypeTableRecord
  2
EXLTYPE1
 70
    64
  3
破線
 72
    65
 73
     2
 40
4.0
 49
3.0
 74
     0
 49
-1.0
 74
     0
  0
LTYPE
  5
1E
100
AcDbSymbolTableRecord
100
AcDbLinetypeTableRecord
  2
EXLTYPE2
 70
    64
  3
点線
 72
    65
 73
     2
 40
2.0
 49
1.0
 74
     0
 49
-1.0
 74
     0
  0
LTYPE
  5
1F
100
AcDbSymbolTableRecord
100
AcDbLinetypeTableRecord
  2
EXLTYPE3
 70
    64
  3
一点鎖線
 72
    65
 73
     4
 40
33.0
 49
30.0
 74
     0
 49
-1.0
 74
     0
 49
1.0
 74
     0
 49
-1.0
 74
     0
  0
LTYPE
  5
20
100
AcDbSymbolTableRecord
100
AcDbLinetypeTableRecord
  2
EXLTYPE4
 70
    64
  3
二点鎖線
 72
    65
 73
     6
 40
35.0
 49
30.0
 74
     0
 49
-1.0
 74
     0
 49
1.0
 74
     0
 49
-1.0
 74
     0
 49
1.0
 74
     0
 49
-1.0
 74
     0
  0
LTYPE
  5
21
100
AcDbSymbolTableRecord
100
AcDbLinetypeTableRecord
  2
EXLTYPE5
 70
    64
  3
三点鎖線
 72
    65
 73
     8
 40
37.0
 49
30.0
 74
     0
 49
-1.0
 74
     0
 49
1.0
 74
     0
 49
-1.0
 74
     0
 49
1.0
 74
     0
 49
-1.0
 74
     0
 49
1.0
 74
     0
 49
-1.0
 74
     0
  0
LTYPE
  5
22
100
AcDbSymbolTableRecord
100
AcDbLinetypeTableRecord
  2
EXLTYPE6
 70
    64
  3
四点鎖線
 72
    65
 73
    10
 40
39.0
 49
30.0
 74
     0
 49
-1.0
 74
     0
 49
1.0
 74
     0
 49
-1.0
 74
     0
 49
1.0
 74
     0
 49
-1.0
 74
     0
 49
1.0
 74
     0
 49
-1.0
 74
     0
 49
1.0
 74
     0
 49
-1.0
 74
     0
  0
ENDTAB
  0
TABLE
  2
LAYER
  5
2
100
AcDbSymbolTable
 70
     4
  0
LAYER
  5
14
100
AcDbSymbolTableRecord
100
AcDbLayerTableRecord
  2
0
 70
     0
 62
     7
  6
CONTINUOUS
  0
LAYER
  5
25
100
AcDbSymbolTableRecord
100
AcDbLayerTableRecord
  2
LAY-1
 70
    64
 62
     3
  6
CONTINUOUS
  0
LAYER
  5
26
100
AcDbSymbolTableRecord
100
AcDbLayerTableRecord
  2
LAY-2
 70
    64
 62
     7
  6
CONTINUOUS
  0
LAYER
  5
27
100
AcDbSymbolTableRecord
100
AcDbLayerTableRecord
  2
LAY-5
 70
    64
 62
     1
  6
CONTINUOUS
  0
ENDTAB
  0
TABLE
  2
STYLE
  5
3
100
AcDbSymbolTable
 70
     3
  0
STYLE
  5
17
100
AcDbSymbolTableRecord
100
AcDbTextStyleTableRecord
  2
STANDARD
 70
     0
 40
0.0
 41
1.0
 50
0.0
 71
     0
 42
0.0
  3
monotxt
  4
extfont
  0
STYLE
  5
23
100
AcDbSymbolTableRecord
100
AcDbTextStyleTableRecord
  2
EXCADSTD
 70
    64
 40
0.0
 41
1.0
 50
0.0
 71
     0
 42
0.2
  3
monotxt
  4
extfont
  0
STYLE
  5
24
100
AcDbSymbolTableRecord
100
AcDbTextStyleTableRecord
  2
EXCADVERT
 70
    68
 40
0.0
 41
1.0
 50
0.0
 71
     0
 42
0.286885
  3
monotxt
  4
extfont
  0
ENDTAB
  0
TABLE
  2
VIEW
  5
5
100
AcDbSymbolTable
 70
     0
  0
ENDTAB
  0
TABLE
  2
UCS
  5
6
100
AcDbSymbolTable
 70
     0
  0
ENDTAB
  0
TABLE
  2
APPID
  5
8
100
AcDbSymbolTable
 70
     1
  0
APPID
  5
16
100
AcDbSymbolTableRecord
100
AcDbRegAppTableRecord
  2
ACAD
 70
     0
  0
ENDTAB
  0
TABLE
  2
DIMSTYLE
  5
9
100
AcDbSymbolTable
 70
     1
  0
DIMSTYLE
105
18
100
AcDbSymbolTableRecord
100
AcDbDimStyleTableRecord
  2
STANDARD
 70
     0
  3

  4

  5

  6

  7

 40
1.0
 41
0.18
 42
0.0625
 43
0.38
 44
0.18
 45
0.0
 46
0.0
 47
0.0
 48
0.0
 71
     0
 72
     0
 73
     1
 74
     1
 75
     0
 76
     0
 77
     0
 78
     0
140
0.18
141
0.09
142
0.0
143
25.4
144
1.0
145
0.0
146
1.0
147
0.09
170
     0
171
     2
172
     1
173
     0
174
     0
175
     0
176
     0
177
     0
178
     0
270
     2
271
     4
272
     4
273
     2
274
     2
275
     0
280
     0
281
     0
282
     0
283
     1
284
     0
285
     0
286
     0
287
     3
288
     0
340
17
  0
ENDTAB
  0
TABLE
  2
BLOCK_RECORD
  5
1
100
AcDbSymbolTable
 70
    15
  0
BLOCK_RECORD
  5
A
100
AcDbSymbolTableRecord
100
AcDbBlockTableRecord
  2
*MODEL_SPACE
  0
BLOCK_RECORD
  5
B
100
AcDbSymbolTableRecord
100
AcDbBlockTableRecord
  2
*PAPER_SPACE
  0
BLOCK_RECORD
  5
28
100
AcDbSymbolTableRecord
100
AcDbBlockTableRecord
  2
_EX_NORM
  0
BLOCK_RECORD
  5
29
100
AcDbSymbolTableRecord
100
AcDbBlockTableRecord
  2
_EX_BNORM
  0
BLOCK_RECORD
  5
2A
100
AcDbSymbolTableRecord
100
AcDbBlockTableRecord
  2
_EX_BCIR
  0
BLOCK_RECORD
  5
2B
100
AcDbSymbolTableRecord
100
AcDbBlockTableRecord
  2
_EX_RCIVIL
  0
BLOCK_RECORD
  5
2C
100
AcDbSymbolTableRecord
100
AcDbBlockTableRecord
  2
_EX_SLANT
  0
BLOCK_RECORD
  5
2D
100
AcDbSymbolTableRecord
100
AcDbBlockTableRecord
  2
_EX_NONE
  0
BLOCK_RECORD
  5
2E
100
AcDbSymbolTableRecord
100
AcDbBlockTableRecord
  2
_EX_CIVIL
  0
BLOCK_RECORD
  5
2F
100
AcDbSymbolTableRecord
100
AcDbBlockTableRecord
  2
_EX_WCIR
  0
BLOCK_RECORD
  5
30
100
AcDbSymbolTableRecord
100
AcDbBlockTableRecord
  2
_EX_WCIR2
  0
BLOCK_RECORD
  5
31
100
AcDbSymbolTableRecord
100
AcDbBlockTableRecord
  2
_EX_WNORM
  0
BLOCK_RECORD
  5
32
100
AcDbSymbolTableRecord
100
AcDbBlockTableRecord
  2
_EX_NNORM
  0
BLOCK_RECORD
  5
33
100
AcDbSymbolTableRecord
100
AcDbBlockTableRecord
  2
_EX_BBOX
  0
BLOCK_RECORD
  5
34
100
AcDbSymbolTableRecord
100
AcDbBlockTableRecord
  2
_EX_WBOX
  0
BLOCK_RECORD
  5
35
100
AcDbSymbolTableRecord
100
AcDbBlockTableRecord
  2
_EX_INTEGRAL
  0
BLOCK_RECORD
  5
36
100
AcDbSymbolTableRecord
100
AcDbBlockTableRecord
  2
SYM-1
  0
ENDTAB
  0
ENDSEC
  0
SECTION
  2
BLOCKS
  0
BLOCK
  5
D
100
AcDbEntity
  8
0
100
AcDbBlockBegin
  2
*MODEL_SPACE
 70
     0
 10
0.0
 20
0.0
 30
0.0
  3
*MODEL_SPACE
  1

  0
ENDBLK
  5
E
100
AcDbEntity
  8
0
100
AcDbBlockEnd
  0
BLOCK
  5
F
100
AcDbEntity
 67
     1
  8
0
100
AcDbBlockBegin
  2
*PAPER_SPACE
 70
     0
 10
0.0
 20
0.0
 30
0.0
  3
*PAPER_SPACE
  1

  0
ENDBLK
  5
10
100
AcDbEntity
 67
     1
  8
0
100
AcDbBlockEnd
  0
BLOCK
  5
37
100
AcDbEntity
  8
0
100
AcDbBlockBegin
  2
_EX_NORM
 70
     0
 10
0.0
 20
0.0
 30
0.0
  3
_EX_NORM
  1

  0
LINE
  5
38
100
AcDbEntity
  8
0
  6
CONTINUOUS
 62
     0
100
AcDbLine
 10
0.0
 20
0.0
 30
0.0
 11
-1.0
 21
0.0
 31
0.0
  0
LINE
  5
39
100
AcDbEntity
  8
0
  6
CONTINUOUS
 62
     0
100
AcDbLine
 10
0.0
 20
0.0
 30
0.0
 11
-1.0
 21
0.166667
 31
0.0
  0
LINE
  5
3A
100
AcDbEntity
  8
0
  6
CONTINUOUS
 62
     0
100
AcDbLine
 10
0.0
 20
0.0
 30
0.0
 11
-1.0
 21
-0.166667
 31
0.0
  0
ENDBLK
  5
3B
100
AcDbEntity
  8
0
100
AcDbBlockEnd
  0
BLOCK
  5
3C
100
AcDbEntity
  8
0
100
AcDbBlockBegin
  2
_EX_BNORM
 70
     0
 10
0.0
 20
0.0
 30
0.0
  3
_EX_BNORM
  1

  0
LINE
  5
3D
100
AcDbEntity
  8
0
  6
CONTINUOUS
 62
     0
100
AcDbLine
 10
0.0
 20
0.0
 30
0.0
 11
-1.0
 21
0.0
 31
0.0
  0
LINE
  5
3E
100
AcDbEntity
  8
0
  6
CONTINUOUS
 62
     0
100
AcDbLine
 10
0.0
 20
0.0
 30
0.0
 11
-1.0
 21
0.166667
 31
0.0
  0
LINE
  5
3F
100
AcDbEntity
  8
0
  6
CONTINUOUS
 62
     0
100
AcDbLine
 10
0.0
 20
0.0
 30
0.0
 11
-1.0
 21
-0.166667
 31
0.0
  0
LINE
  5
40
100
AcDbEntity
  8
0
  6
CONTINUOUS
 62
     0
100
AcDbLine
 10
0.0
 20
0.0
 30
0.0
 11
-1.0
 21
0.083333
 31
0.0
  0
LINE
  5
41
100
AcDbEntity
  8
0
  6
CONTINUOUS
 62
     0
100
AcDbLine
 10
0.0
 20
0.0
 30
0.0
 11
-1.0
 21
-0.083333
 31
0.0
  0
LINE
  5
42
100
AcDbEntity
  8
0
  6
CONTINUOUS
 62
     0
100
AcDbLine
 10
-1.0
 20
0.166667
 30
0.0
 11
-1.0
 21
-0.166667
 31
0.0
  0
ENDBLK
  5
43
100
AcDbEntity
  8
0
100
AcDbBlockEnd
  0
BLOCK
  5
44
100
AcDbEntity
  8
0
100
AcDbBlockBegin
  2
_EX_BCIR
 70
     0
 10
0.0
 20
0.0
 30
0.0
  3
_EX_BCIR
  1

  0
LINE
  5
45
100
AcDbEntity
  8
0
  6
CONTINUOUS
 62
     0
100
AcDbLine
 10
0.0
 20
0.0
 30
0.0
 11
-1.0
 21
0.0
 31
0.0
  0
CIRCLE
  5
46
100
AcDbEntity
  8
0
  6
CONTINUOUS
 62
     0
100
AcDbCircle
 10
0.0
 20
0.0
 30
0.0
 40
0.5
  0
CIRCLE
  5
47
100
AcDbEntity
  8
0
  6
CONTINUOUS
 62
     0
100
AcDbCircle
 10
0.0
 20
0.0
 30
0.0
 40
0.25
  0
ENDBLK
  5
48
100
AcDbEntity
  8
0
100
AcDbBlockEnd
  0
BLOCK
  5
49
100
AcDbEntity
  8
0
100
AcDbBlockBegin
  2
_EX_RCIVIL
 70
     0
 10
0.0
 20
0.0
 30
0.0
  3
_EX_RCIVIL
  1

  0
LINE
  5
4A
100
AcDbEntity
  8
0
  6
CONTINUOUS
 62
     0
100
AcDbLine
 10
0.0
 20
0.0
 30
0.0
 11
-1.0
 21
0.0
 31
0.0
  0
LINE
  5
4B
100
AcDbEntity
  8
0
  6
CONTINUOUS
 62
     0
100
AcDbLine
 10
-1.0
 20
-0.25
 30
0.0
 11
0.0
 21
-0.25
 31
0.0
  0
LINE
  5
4C
100
AcDbEntity
  8
0
  6
CONTINUOUS
 62
     0
100
AcDbLine
 10
-1.0
 20
-0.125
 30
0.0
 11
0.0
 21
-0.125
 31
0.0
  0
ENDBLK
  5
4D
100
AcDbEntity
  8
0
100
AcDbBlockEnd
  0
BLOCK
  5
4E
100
AcDbEntity
  8
0
100
AcDbBlockBegin
  2
_EX_SLANT
 70
     0
 10
0.0
 20
0.0
 30
0.0
  3
_EX_SLANT
  1

  0
LINE
  5
4F
100
AcDbEntity
  8
0
  6
CONTINUOUS
 62
     0
100
AcDbLine
 10
0.0
 20
0.0
 30
0.0
 11
-1.0
 21
0.0
 31
0.0
  0
LINE
  5
50
100
AcDbEntity
  8
0
  6
CONTINUOUS
 62
     0
100
AcDbLine
 10
0.707107
 20
0.707107
 30
0.0
 11
-0.707107
 21
-0.707107
 31
0.0
  0
ENDBLK
  5
51
100
AcDbEntity
  8
0
100
AcDbBlockEnd
  0
BLOCK
  5
52
100
AcDbEntity
  8
0
100
AcDbBlockBegin
  2
_EX_NONE
 70
     0
 10
0.0
 20
0.0
 30
0.0
  3
_EX_NONE
  1

  0
LINE
  5
53
100
AcDbEntity
  8
0
  6
CONTINUOUS
 62
     0
100
AcDbLine
 10
0.0
 20
0.0
 30
0.0
 11
-1.0
 21
0.0
 31
0.0
  0
ENDBLK
  5
54
100
AcDbEntity
  8
0
100
AcDbBlockEnd
  0
BLOCK
  5
55
100
AcDbEntity
  8
0
100
AcDbBlockBegin
  2
_EX_CIVIL
 70
     0
 10
0.0
 20
0.0
 30
0.0
  3
_EX_CIVIL
  1

  0
LINE
  5
56
100
AcDbEntity
  8
0
  6
CONTINUOUS
 62
     0
100
AcDbLine
 10
0.0
 20
0.0
 30
0.0
 11
-1.0
 21
0.0
 31
0.0
  0
LINE
  5
57
100
AcDbEntity
  8
0
  6
CONTINUOUS
 62
     0
100
AcDbLine
 10
-1.0
 20
0.25
 30
0.0
 11
0.0
 21
0.25
 31
0.0
  0
LINE
  5
58
100
AcDbEntity
  8
0
  6
CONTINUOUS
 62
     0
100
AcDbLine
 10
-1.0
 20
0.125
 30
0.0
 11
0.0
 21
0.125
 31
0.0
  0
ENDBLK
  5
59
100
AcDbEntity
  8
0
100
AcDbBlockEnd
  0
BLOCK
  5
5A
100
AcDbEntity
  8
0
100
AcDbBlockBegin
  2
_EX_WCIR
 70
     0
 10
0.0
 20
0.0
 30
0.0
  3
_EX_WCIR
  1

  0
LINE
  5
5B
100
AcDbEntity
  8
0
  6
CONTINUOUS
 62
     0
100
AcDbLine
 10
0.0
 20
0.0
 30
0.0
 11
-1.0
 21
0.0
 31
0.0
  0
CIRCLE
  5
5C
100
AcDbEntity
  8
0
  6
CONTINUOUS
 62
     0
100
AcDbCircle
 10
0.0
 20
0.0
 30
0.0
 40
0.5
  0
ENDBLK
  5
5D
100
AcDbEntity
  8
0
100
AcDbBlockEnd
  0
BLOCK
  5
5E
100
AcDbEntity
  8
0
100
AcDbBlockBegin
  2
_EX_WCIR2
 70
     0
 10
0.0
 20
0.0
 30
0.0
  3
_EX_WCIR2
  1

  0
LINE
  5
5F
100
AcDbEntity
  8
0
  6
CONTINUOUS
 62
     0
100
AcDbLine
 10
-0.5
 20
0.0
 30
0.0
 11
-1.0
 21
0.0
 31
0.0
  0
CIRCLE
  5
60
100
AcDbEntity
  8
0
  6
CONTINUOUS
 62
     0
100
AcDbCircle
 10
0.0
 20
0.0
 30
0.0
 40
0.5
  0
ENDBLK
  5
61
100
AcDbEntity
  8
0
100
AcDbBlockEnd
  0
BLOCK
  5
62
100
AcDbEntity
  8
0
100
AcDbBlockBegin
  2
_EX_WNORM
 70
     0
 10
0.0
 20
0.0
 30
0.0
  3
_EX_WNORM
  1

  0
LINE
  5
63
100
AcDbEntity
  8
0
  6
CONTINUOUS
 62
     0
100
AcDbLine
 10
-1.0
 20
0.0
 30
0.0
 11
-1.0
 21
0.0
 31
0.0
  0
LINE
  5
64
100
AcDbEntity
  8
0
  6
CONTINUOUS
 62
     0
100
AcDbLine
 10
0.0
 20
0.0
 30
0.0
 11
-1.0
 21
0.166667
 31
0.0
  0
LINE
  5
65
100
AcDbEntity
  8
0
  6
CONTINUOUS
 62
     0
100
AcDbLine
 10
0.0
 20
0.0
 30
0.0
 11
-1.0
 21
-0.166667
 31
0.0
  0
LINE
  5
66
100
AcDbEntity
  8
0
  6
CONTINUOUS
 62
     0
100
AcDbLine
 10
-1.0
 20
0.166667
 30
0.0
 11
-1.0
 21
-0.166667
 31
0.0
  0
ENDBLK
  5
67
100
AcDbEntity
  8
0
100
AcDbBlockEnd
  0
BLOCK
  5
68
100
AcDbEntity
  8
0
100
AcDbBlockBegin
  2
_EX_NNORM
 70
     0
 10
0.0
 20
0.0
 30
0.0
  3
_EX_NNORM
  1

  0
LINE
  5
69
100
AcDbEntity
  8
0
  6
CONTINUOUS
 62
     0
100
AcDbLine
 10
0.0
 20
0.0
 30
0.0
 11
-1.0
 21
0.0
 31
0.0
  0
LINE
  5
6A
100
AcDbEntity
  8
0
  6
CONTINUOUS
 62
     0
100
AcDbLine
 10
0.0
 20
0.0
 30
0.0
 11
-1.0
 21
0.166667
 31
0.0
  0
LINE
  5
6B
100
AcDbEntity
  8
0
  6
CONTINUOUS
 62
     0
100
AcDbLine
 10
0.0
 20
0.0
 30
0.0
 11
-1.0
 21
-0.166667
 31
0.0
  0
LINE
  5
6C
100
AcDbEntity
  8
0
  6
CONTINUOUS
 62
     0
100
AcDbLine
 10
-1.0
 20
0.166667
 30
0.0
 11
-1.0
 21
-0.166667
 31
0.0
  0
ENDBLK
  5
6D
100
AcDbEntity
  8
0
100
AcDbBlockEnd
  0
BLOCK
  5
6E
100
AcDbEntity
  8
0
100
AcDbBlockBegin
  2
_EX_BBOX
 70
     0
 10
0.0
 20
0.0
 30
0.0
  3
_EX_BBOX
  1

  0
LINE
  5
6F
100
AcDbEntity
  8
0
  6
CONTINUOUS
 62
     0
100
AcDbLine
 10
0.0
 20
0.0
 30
0.0
 11
-1.0
 21
0.0
 31
0.0
  0
LINE
  5
70
100
AcDbEntity
  8
0
  6
CONTINUOUS
 62
     0
100
AcDbLine
 10
-0.5
 20
0.5
 30
0.0
 11
0.5
 21
0.5
 31
0.0
  0
LINE
  5
71
100
AcDbEntity
  8
0
  6
CONTINUOUS
 62
     0
100
AcDbLine
 10
0.5
 20
0.5
 30
0.0
 11
0.5
 21
-0.5
 31
0.0
  0
LINE
  5
72
100
AcDbEntity
  8
0
  6
CONTINUOUS
 62
     0
100
AcDbLine
 10
0.5
 20
-0.5
 30
0.0
 11
-0.5
 21
-0.5
 31
0.0
  0
LINE
  5
73
100
AcDbEntity
  8
0
  6
CONTINUOUS
 62
     0
100
AcDbLine
 10
-0.5
 20
-0.5
 30
0.0
 11
-0.5
 21
0.5
 31
0.0
  0
LINE
  5
74
100
AcDbEntity
  8
0
  6
CONTINUOUS
 62
     0
100
AcDbLine
 10
-0.25
 20
0.25
 30
0.0
 11
0.25
 21
0.25
 31
0.0
  0
LINE
  5
75
100
AcDbEntity
  8
0
  6
CONTINUOUS
 62
     0
100
AcDbLine
 10
0.25
 20
0.25
 30
0.0
 11
0.25
 21
-0.25
 31
0.0
  0
LINE
  5
76
100
AcDbEntity
  8
0
  6
CONTINUOUS
 62
     0
100
AcDbLine
 10
0.25
 20
-0.25
 30
0.0
 11
-0.25
 21
-0.25
 31
0.0
  0
LINE
  5
77
100
AcDbEntity
  8
0
  6
CONTINUOUS
 62
     0
100
AcDbLine
 10
-0.25
 20
-0.25
 30
0.0
 11
-0.25
 21
0.25
 31
0.0
  0
ENDBLK
  5
78
100
AcDbEntity
  8
0
100
AcDbBlockEnd
  0
BLOCK
  5
79
100
AcDbEntity
  8
0
100
AcDbBlockBegin
  2
_EX_WBOX
 70
     0
 10
0.0
 20
0.0
 30
0.0
  3
_EX_WBOX
  1

  0
LINE
  5
7A
100
AcDbEntity
  8
0
  6
CONTINUOUS
 62
     0
100
AcDbLine
 10
-0.5
 20
0.0
 30
0.0
 11
-1.0
 21
0.0
 31
0.0
  0
LINE
  5
7B
100
AcDbEntity
  8
0
  6
CONTINUOUS
 62
     0
100
AcDbLine
 10
-0.5
 20
0.5
 30
0.0
 11
0.5
 21
0.5
 31
0.0
  0
LINE
  5
7C
100
AcDbEntity
  8
0
  6
CONTINUOUS
 62
     0
100
AcDbLine
 10
0.5
 20
0.5
 30
0.0
 11
0.5
 21
-0.5
 31
0.0
  0
LINE
  5
7D
100
AcDbEntity
  8
0
  6
CONTINUOUS
 62
     0
100
AcDbLine
 10
0.5
 20
-0.5
 30
0.0
 11
-0.5
 21
-0.5
 31
0.0
  0
LINE
  5
7E
100
AcDbEntity
  8
0
  6
CONTINUOUS
 62
     0
100
AcDbLine
 10
-0.5
 20
-0.5
 30
0.0
 11
-0.5
 21
0.5
 31
0.0
  0
ENDBLK
  5
7F
100
AcDbEntity
  8
0
100
AcDbBlockEnd
  0
BLOCK
  5
80
100
AcDbEntity
  8
0
100
AcDbBlockBegin
  2
_EX_INTEGRAL
 70
     0
 10
0.0
 20
0.0
 30
0.0
  3
_EX_INTEGRAL
  1

  0
LINE
  5
81
100
AcDbEntity
  8
0
  6
CONTINUOUS
 62
     0
100
AcDbLine
 10
0.0
 20
0.0
 30
0.0
 11
-1.0
 21
0.0
 31
0.0
  0
ARC
  5
82
100
AcDbEntity
  8
0
  6
CONTINUOUS
 62
     0
100
AcDbCircle
 10
0.542115
 20
0.164992
 30
0.0
 40
0.56667
100
AcDbArc
 50
73.07249
 51
196.927513
  0
ARC
  5
83
100
AcDbEntity
  8
0
  6
CONTINUOUS
 62
     0
100
AcDbCircle
 10
-0.542115
 20
-0.164992
 30
0.0
 40
0.56667
100
AcDbArc
 50
253.072487
 51
16.927513
  0
ENDBLK
  5
84
100
AcDbEntity
  8
0
100
AcDbBlockEnd
  0
BLOCK
  5
85
100
AcDbEntity
  8
0
100
AcDbBlockBegin
  2
SYM-1
 70
     0
 10
0.0
 20
0.0
 30
0.0
  3
SYM-1
  1

  0
HATCH
  5
86
100
AcDbEntity
  8
0
  6
CONTINUOUS
 62
     3
100
AcDbHatch
 10
0.0
 20
0.0
 30
0.0
210
0.0
220
0.0
230
1.0
  2
SOLID
 70
     1
 71
     1
 91
        1
 92
        1
 93
       16
 72
     1
 10
24.351152239011505
 20
-2.0357142857144446
 11
25.613295096154353
 21
-2.0357142857144446
 72
     1
 10
25.613295096154353
 20
-2.0357142857144446
 11
25.613295096154353
 21
-2.8500000000001648
 72
     1
 10
25.613295096154353
 20
-2.8500000000001648
 11
22.23400938186861
 21
-2.8500000000001648
 72
     1
 10
22.23400938186861
 20
-2.8500000000001648
 11
22.23400938186861
 21
-2.0357142857144446
 72
     1
 10
22.23400938186861
 20
-2.0357142857144446
 11
23.536866524725802
 21
-2.0357142857144446
 72
     1
 10
23.536866524725802
 20
-2.0357142857144446
 11
23.536866524725802
 21
0.3257142857141346
 72
     1
 10
23.536866524725802
 20
0.3257142857141346
 11
22.519009381868621
 21
0.3257142857141346
 72
     1
 10
22.519009381868621
 20
0.3257142857141346
 11
22.519009381868621
 21
1.1399999999998514
 72
     1
 10
22.519009381868621
 20
1.1399999999998514
 11
23.536866524725802
 21
1.1399999999998514
 72
     1
 10
23.536866524725802
 20
1.1399999999998514
 11
23.536866524725802
 21
2.8499999999998487
 72
     1
 10
23.536866524725802
 20
2.8499999999998487
 11
24.351152239011505
 21
2.8499999999998487
 72
     1
 10
24.351152239011505
 20
2.8499999999998487
 11
24.351152239011505
 21
1.1399999999998514
 72
     1
 10
24.351152239011505
 20
1.1399999999998514
 11
25.531866524725821
 21
1.1399999999998514
 72
     1
 10
25.531866524725821
 20
1.1399999999998514
 11
25.531866524725821
 21
0.3257142857141346
 72
     1
 10
25.531866524725821
 20
0.3257142857141346
 11
24.351152239011505
 21
0.3257142857141346
 72
     1
 10
24.351152239011505
 20
0.3257142857141346
 11
24.351152239011505
 21
-2.0357142857144446
 97
        0
 75
     0
 76
     1
 98
        1
 10
0.0
 20
0.0
  0
HATCH
  5
87
100
AcDbEntity
  8
0
  6
CONTINUOUS
 62
     3
100
AcDbHatch
 10
0.0
 20
0.0
 30
0.0
210
0.0
220
0.0
230
1.0
  2
SOLID
 70
     1
 71
     1
 91
        1
 92
        1
 93
       17
 72
     2
 10
15.796286246552746
 20
4.4303755974531924
 40
7.328571428571454
 50
44.165469
 51
51.472792
 73
     0
 72
     1
 10
20.361152239011439
 20
-1.3028571428572775
 11
19.948878200429583
 21
-0.5887775613918898
 72
     2
 10
15.796286246552746
 20
4.4303755974531924
 40
6.5142857142857364
 50
309.602625
 51
331.307968
 73
     1
 72
     1
 10
21.510701937024301
 20
1.3028571428570004
 11
20.157580810440017
 21
1.3028571428570004
 72
     1
 10
20.157580810440017
 20
1.3028571428570004
 11
20.157580810440017
 21
2.0357142857141319
 72
     1
 10
20.157580810440017
 20
2.0357142857141319
 11
21.053295096154336
 21
2.0357142857141319
 72
     1
 10
21.053295096154336
 20
2.0357142857141319
 11
21.053295096154336
 21
2.8499999999998487
 72
     1
 10
21.053295096154336
 20
2.8499999999998487
 11
21.786152239011507
 21
2.8499999999998487
 72
     1
 10
21.786152239011507
 20
2.8499999999998487
 11
21.786152239011507
 21
2.0357142857141319
 72
     1
 10
21.786152239011507
 20
2.0357142857141319
 11
22.722580810439986
 21
2.0357142857141319
 72
     2
 10
15.796286246552746
 20
4.4303755974531924
 40
7.328571428571454
 50
19.072051
 51
32.871988
 73
     0
 72
     1
 10
21.951445818831196
 20
0.4526916201288422
 11
22.926152239011437
 21
-0.4885714285715821
 72
     1
 10
22.926152239011437
 20
-0.4885714285715821
 11
22.350277580116831
 21
-1.0644460874662265
 72
     1
 10
22.350277580116831
 20
-1.0644460874662265
 11
21.786152239011507
 21
-0.5196765779765897
 72
     1
 10
21.786152239011507
 20
-0.5196765779765897
 11
21.786152239011507
 21
-2.8500000000001648
 72
     1
 10
21.786152239011507
 20
-2.8500000000001648
 11
21.053295096154336
 21
-2.8500000000001648
 72
     1
 10
21.053295096154336
 20
-2.8500000000001648
 11
21.053295096154336
 21
-0.6756813096801793
 97
        0
 75
     0
 76
     1
 98
        1
 10
0.0
 20
0.0
  0
HATCH
  5
88
100
AcDbEntity
  8
0
  6
CONTINUOUS
 62
     3
100
AcDbHatch
 10
0.0
 20
0.0
 30
0.0
210
0.0
220
0.0
230
1.0
  2
SOLID
 70
     1
 71
     1
 91
        1
 92
        1
 93
       12
 72
     2
 10
26.09465466477446
 20
-6.5604295733743392
 40
11.481428571428609
 50
150.903074
 51
156.790773
 73
     1
 72
     1
 10
15.542396441700383
 20
-2.035714285714505
 11
18.049394029288031
 21
-2.0357142857144055
 72
     2
 10
10.927987441101074
 20
-4.0835590566205937
 40
7.4100000000000241
 50
16.043216
 51
21.362935
 73
     1
 72
     1
 10
17.828858648663306
 20
-1.3842857142858769
 11
18.610437953297115
 21
-1.3842857142858769
 72
     2
 10
10.927987441101074
 20
-4.0835590566205937
 40
8.1428571428571708
 50
340.64078
 51
351.286733
 73
     0
 72
     1
 10
18.976866524725686
 20
-2.8500000000001648
 11
14.457580810439971
 21
-2.8500000000001648
 72
     2
 10
26.09465466477446
 20
-6.5604295733743392
 40
12.214285714285754
 50
197.684652
 51
207.200855
 73
     0
 72
     1
 10
15.231152239011401
 20
-0.9771428571430043
 11
14.091152239011485
 21
-0.9771428571430043
 72
     1
 10
14.091152239011485
 20
-0.9771428571430043
 11
14.091152239011485
 21
-0.162857142857284
 72
     1
 10
14.091152239011485
 20
-0.162857142857284
 11
19.302580810440098
 21
-0.162857142857284
 72
     1
 10
19.302580810440098
 20
-0.162857142857284
 11
19.302580810440098
 21
-0.9771428571430043
 72
     1
 10
19.302580810440098
 20
-0.9771428571430043
 11
16.062201750099412
 21
-0.9771428571430043
 97
        0
 75
     0
 76
     1
 98
        1
 10
0.0
 20
0.0
  0
HATCH
  5
89
100
AcDbEntity
  8
0
  6
CONTINUOUS
 62
     3
100
AcDbHatch
 10
0.0
 20
0.0
 30
0.0
210
0.0
220
0.0
230
1.0
  2
SOLID
 70
     1
 71
     1
 91
        1
 92
        1
 93
       10
 72
     2
 10
26.143491684008573
 20
11.064410217386417
 40
13.028571428571473
 50
129.545698
 51
136.474664
 73
     0
 72
     1
 10
16.696866524725998
 20
2.0919553376225579
 11
16.696866524725998
 21
2.8499999999998487
 72
     1
 10
16.696866524725998
 20
2.8499999999998487
 11
17.104009381868686
 21
2.8499999999998487
 72
     2
 10
26.143491684008573
 20
11.064410217386417
 40
12.214285714285754
 50
222.262231
 51
237.763996
 73
     1
 72
     1
 10
19.628295096154382
 20
0.7328571428570001
 11
19.100346295490944
 21
0.1036722629605507
 72
     2
 10
26.143491684008573
 20
11.064410217386417
 40
13.028571428571473
 50
122.723968
 51
128.230009
 73
     0
 72
     1
 10
18.08115223901148
 20
0.830038905819066
 11
18.08115223901148
 21
0.2035714285712729
 72
     1
 10
18.08115223901148
 20
0.2035714285712729
 11
16.696866524725998
 21
0.2035714285712729
 72
     1
 10
16.696866524725998
 20
0.2035714285712729
 11
16.696866524725998
 21
1.0178571428569896
 72
     1
 10
16.696866524725998
 20
1.0178571428569896
 11
17.848285550942784
 21
1.0178571428569896
 97
        0
 75
     0
 76
     1
 98
        1
 10
0.0
 20
0.0
  0
HATCH
  5
8A
100
AcDbEntity
  8
0
  6
CONTINUOUS
 62
     3
100
AcDbHatch
 10
0.0
 20
0.0
 30
0.0
210
0.0
220
0.0
230
1.0
  2
SOLID
 70
     1
 71
     1
 91
        1
 92
        1
 93
       10
 72
     2
 10
7.2502413654429532
 20
11.064410217386417
 40
13.028571428571473
 50
51.769991
 51
57.276032
 73
     0
 72
     1
 10
14.293386753960569
 20
0.1036722629605329
 11
13.76543795329713
 21
0.7328571428569894
 72
     2
 10
7.2502413654429532
 20
11.064410217386417
 40
12.214285714285754
 50
302.236004
 51
317.737769
 73
     1
 72
     1
 10
16.289723667582841
 20
2.8499999999998487
 11
16.696866524725998
 21
2.8499999999998487
 72
     1
 10
16.696866524725998
 20
2.8499999999998487
 11
16.696866524725998
 21
2.0919553376230482
 72
     2
 10
7.2502413654429532
 20
11.064410217386417
 40
13.028571428571473
 50
43.525336
 51
50.454302
 73
     0
 72
     1
 10
15.545447498508743
 20
1.0178571428569896
 11
16.696866524725998
 21
1.0178571428569896
 72
     1
 10
16.696866524725998
 20
1.0178571428569896
 11
16.696866524725998
 21
0.2035714285712729
 72
     1
 10
16.696866524725998
 20
0.2035714285712729
 11
15.312580810440046
 21
0.2035714285712729
 72
     1
 10
15.312580810440046
 20
0.2035714285712729
 11
15.312580810440046
 21
0.8300389058190589
 97
        0
 75
     0
 76
     1
 98
        1
 10
0.0
 20
0.0
  0
HATCH
  5
8B
100
AcDbEntity
  8
0
  6
CONTINUOUS
 62
     3
100
AcDbHatch
 10
0.0
 20
0.0
 30
0.0
210
0.0
220
0.0
230
1.0
  2
SOLID
 70
     1
 71
     1
 91
        1
 92
        1
 93
       18
 72
     2
 10
1.2571935216656343
 20
-0.8093264034321166
 40
11.400000000000038
 50
14.02954
 51
18.723021
 73
     1
 72
     1
 10
12.053921279331213
 20
2.8499999999998487
 11
12.910437953297141
 21
2.8499999999998487
 72
     2
 10
1.2571935216656343
 20
-0.8093264034321166
 40
12.214285714285754
 50
342.566782
 51
346.922981
 73
     0
 72
     1
 10
13.15472366758285
 20
1.9542857142855716
 11
13.480437953297177
 21
1.9542857142855716
 72
     1
 10
13.480437953297177
 20
1.9542857142855716
 11
13.480437953297177
 21
1.1399999999998407
 72
     1
 10
13.480437953297177
 20
1.1399999999998407
 11
11.958092734747289
 21
1.1399999999998514
 72
     2
 10
20.401866524725683
 20
2.4835714285712918
 40
8.5500000000000291
 50
189.041096
 51
204.65198
 73
     1
 72
     2
 10
14.334076117775972
 20
-0.301141422634494
 40
1.8737206404808271
 50
204.65198
 51
242.897449
 73
     1
 72
     1
 10
13.480437953297177
 20
-1.9691135215345774
 11
13.480437953297177
 21
-2.8500000000001648
 72
     2
 10
14.334076117775972
 20
-0.301141422634494
 40
2.6880063547665438
 50
108.516212
 51
155.34802
 73
     0
 72
     2
 10
20.401866524725683
 20
2.4835714285712918
 40
9.3642857142857441
 50
155.34802
 51
171.750831
 73
     0
 72
     1
 10
11.134468683092756
 20
1.1399999999998549
 11
8.0247236675828972
 21
1.1399999999998407
 72
     1
 10
8.0247236675828972
 20
1.1399999999998407
 11
8.0247236675828972
 21
1.9542857142855716
 72
     1
 10
8.0247236675828972
 20
1.9542857142855716
 11
11.050355927894167
 21
1.9542857142855716
 72
     1
 10
11.050355927894167
 20
1.9542857142855716
 11
11.019076895792274
 21
2.8499999999998487
 72
     1
 10
11.019076895792274
 20
2.8499999999998487
 11
11.833858953292697
 21
2.8499999999998487
 72
     1
 10
11.833858953292697
 20
2.8499999999998487
 11
11.865137985394604
 21
1.9542857142855716
 72
     1
 10
11.865137985394604
 20
1.9542857142855716
 11
12.317141444816265
 21
1.9542857142855716
 97
        0
 75
     0
 76
     1
 98
        1
 10
0.0
 20
0.0
  0
HATCH
  5
8C
100
AcDbEntity
  8
0
  6
CONTINUOUS
 62
     3
100
AcDbHatch
 10
0.0
 20
0.0
 30
0.0
210
0.0
220
0.0
230
1.0
  2
SOLID
 70
     1
 71
     1
 91
        1
 92
        1
 93
       12
 72
     2
 10
5.4617420309248317
 20
38.027820957415145
 40
39.900000000000134
 50
276.500664
 51
278.269357
 73
     1
 72
     1
 10
11.200437953297204
 20
-1.457332823601817
 11
11.20043795329719
 21
-2.2800000000001504
 72
     2
 10
5.4617420309248317
 20
38.027820957415145
 40
40.71428571428585
 50
81.897153
 51
86.39082
 73
     0
 72
     1
 10
8.024723667582883
 20
-2.6057142857144413
 11
8.024723667582883
 21
-1.7897772264302034
 72
     2
 10
5.4617420309248317
 20
38.027820957415145
 40
39.900000000000134
 50
273.682937
 51
275.325087
 73
     1
 72
     1
 10
9.1647236675828836
 20
-1.6999769553635602
 11
9.1647236675828836
 21
-0.4071428571430218
 72
     1
 10
9.1647236675828836
 20
-0.4071428571430218
 11
8.0247236675828972
 21
-0.4071428571430218
 72
     1
 10
8.0247236675828972
 20
-0.4071428571430218
 11
8.0247236675828972
 21
0.4071428571426949
 72
     1
 10
8.0247236675828972
 20
0.4071428571426949
 11
10.95615223901148
 21
0.4071428571426949
 72
     1
 10
10.95615223901148
 20
0.4071428571426949
 11
10.95615223901148
 21
-0.4071428571430218
 72
     1
 10
10.95615223901148
 20
-0.4071428571430218
 11
9.9790093818686287
 21
-0.4071428571430218
 72
     1
 10
9.9790093818686287
 20
-0.4071428571430218
 11
9.9790093818685861
 21
-1.6156437710884397
 97
        0
 75
     0
 76
     1
 98
        1
 10
0.0
 20
0.0
  0
HATCH
  5
8D
100
AcDbEntity
  8
0
  6
CONTINUOUS
 62
     3
100
AcDbHatch
 10
0.0
 20
0.0
 30
0.0
210
0.0
220
0.0
230
1.0
  2
SOLID
 70
     1
 71
     1
 91
        1
 92
        1
 93
       30
 72
     2
 10
-1.8979256098940809
 20
4.1519130391923014
 40
8.9164285714286002
 50
37.940537
 51
46.713808
 73
     0
 72
     1
 10
4.21556076329842
 20
-2.3386942385728418
 11
3.6682950961542744
 21
-1.7914285714286962
 72
     2
 10
-1.8979256098940809
 20
4.1519130391923014
 40
8.1428571428571743
 50
313.123325
 51
325.95222
 73
     1
 72
     1
 10
4.8490093818684983
 20
-0.4071428571430076
 11
3.8718665247257533
 21
-0.4071428571430076
 72
     1
 10
3.8718665247257533
 20
-0.4071428571430076
 11
3.8718665247257533
 21
0.4071428571427092
 72
     1
 10
3.8718665247257533
 20
0.4071428571427092
 11
5.1340093818686157
 21
0.4071428571427092
 72
     1
 10
5.1340093818686157
 20
0.4071428571427092
 11
5.1340093818686157
 21
1.2214285714284152
 72
     1
 10
5.1340093818686157
 20
1.2214285714284152
 11
4.7280236542212677
 21
1.2214285714284152
 72
     2
 10
-3.9789687629962955
 20
2.9438069062169916
 40
8.8757142857143183
 50
11.189535
 51
14.746058
 73
     0
 72
     1
 10
4.6044101437030562
 20
0.6846232869284066
 11
3.9125808104399411
 21
0.9364285714284044
 72
     2
 10
-3.9789687629962955
 20
2.9438069062169916
 40
8.1428571428571743
 50
345.728313
 51
357.620387
 73
     1
 72
     1
 10
4.1568665247257641
 20
2.6057142857165694
 11
4.8844833536651819
 21
2.4774158071570227
 72
     2
 10
-3.9789687629962955
 20
2.9438069062169916
 40
8.8757142857143183
 50
3.012102
 51
6.401006
 73
     0
 72
     1
 10
4.8414139890361767
 20
1.9542857142855716
 11
5.1340093818686157
 21
1.9542857142855716
 72
     1
 10
5.1340093818686157
 20
1.9542857142855716
 11
5.1340093818686157
 21
2.8499999999998487
 72
     1
 10
5.1340093818686157
 20
2.8499999999998487
 11
5.948295096154304
 21
2.8499999999998487
 72
     1
 10
5.948295096154304
 20
2.8499999999998487
 11
5.948295096154304
 21
1.9542857142855716
 72
     1
 10
5.948295096154304
 20
1.9542857142855716
 11
7.0475808104400599
 21
1.9542857142855716
 72
     1
 10
7.0475808104400599
 20
1.9542857142855716
 11
7.0475808104400599
 21
1.2214285714284152
 72
     1
 10
7.0475808104400599
 20
1.2214285714284152
 11
5.948295096154304
 21
1.2214285714284152
 72
     1
 10
5.948295096154304
 20
1.2214285714284152
 11
5.948295096154304
 21
0.4071428571427092
 72
     1
 10
5.948295096154304
 20
0.4071428571427092
 11
7.2104379532971521
 21
0.4071428571427092
 72
     1
 10
7.2104379532971521
 20
0.4071428571427092
 11
7.2104379532971521
 21
-0.4071428571430076
 72
     1
 10
7.2104379532971521
 20
-0.4071428571430076
 11
6.2332950961542579
 21
-0.4071428571430076
 72
     2
 10
12.98023008791683
 20
4.1519130391922907
 40
8.1428571428571743
 50
214.04778
 51
226.876675
 73
     1
 72
     1
 10
7.4140093818684889
 20
-1.7914285714286962
 11
6.866743714724322
 21
-2.3386942385728453
 72
     2
 10
12.98023008791683
 20
4.1519130391922907
 40
8.9164285714286002
 50
133.286192
 51
142.059463
 73
     0
 72
     1
 10
5.948295096154304
 20
-1.330293518482641
 11
5.948295096154304
 21
-2.8500000000001648
 72
     1
 10
5.948295096154304
 20
-2.8500000000001648
 11
5.1340093818686157
 21
-2.8500000000001648
 72
     1
 10
5.1340093818686157
 20
-2.8500000000001648
 11
5.1340093818686157
 21
-1.3302935184824136
 97
        0
 75
     0
 76
     1
 98
        1
 10
0.0
 20
0.0
  0
HATCH
  5
8E
100
AcDbEntity
  8
0
  6
CONTINUOUS
 62
     3
100
AcDbHatch
 10
0.0
 20
0.0
 30
0.0
210
0.0
220
0.0
230
1.0
  2
SOLID
 70
     1
 71
     1
 91
        1
 92
        1
 93
       19
 72
     2
 10
-5.2499698511775321
 20
3.0651230633969284
 40
8.8757142857143165
 50
27.683433
 51
32.280505
 73
     0
 72
     1
 10
2.2539459810095721
 20
-1.6750827617845943
 11
1.6732950961542841
 21
-1.2214285714287314
 72
     2
 10
-5.2499698511775321
 20
3.0651230633969284
 40
8.1428571428571708
 50
328.236207
 51
344.845745
 73
     1
 72
     1
 10
2.6097236675827773
 20
0.9364285714284151
 11
1.8768665247257346
 21
0.9364285714284151
 72
     1
 10
1.8768665247257346
 20
0.9364285714284151
 11
1.8768665247257346
 21
1.7507142857141353
 72
     1
 10
1.8768665247257346
 20
1.7507142857141353
 11
2.6097236675829052
 21
1.7507142857141353
 72
     1
 10
2.6097236675829052
 20
1.7507142857141353
 11
2.6097236675829052
 21
2.8499999999998487
 72
     1
 10
2.6097236675829052
 20
2.8499999999998487
 11
3.4240093818685935
 21
2.8499999999998487
 72
     1
 10
3.4240093818685935
 20
2.8499999999998487
 11
3.4240093818685935
 21
1.7507142857141353
 72
     1
 10
3.4240093818685935
 20
1.7507142857141353
 11
3.7904379532971788
 21
1.7507142857141353
 72
     1
 10
3.7904379532971788
 20
1.7507142857141353
 11
3.7904379532971788
 21
0.9364285714284151
 72
     1
 10
3.7904379532971788
 20
0.9364285714284151
 11
3.4240093818685367
 21
0.9364285714284151
 72
     1
 10
3.4240093818685367
 20
0.9364285714284151
 11
3.8718665247257533
 21
0.2968222855516665
 72
     1
 10
3.8718665247257533
 20
0.2968222855516665
 11
3.8718665247257533
 21
-0.1989042363292235
 72
     1
 10
3.8718665247257533
 20
-0.1989042363292235
 11
3.6275808104399871
 21
-0.4900326139487277
 72
     1
 10
3.6275808104399871
 20
-0.4900326139487277
 11
3.4240093818685935
 21
-0.1993024840048498
 72
     1
 10
3.4240093818685935
 20
-0.1993024840048498
 11
3.4240093818685935
 21
-2.8500000000001648
 72
     1
 10
3.4240093818685935
 20
-2.8500000000001648
 11
2.6097236675829052
 21
-2.8500000000001648
 72
     1
 10
2.6097236675829052
 20
-2.8500000000001648
 11
2.6097236675829052
 21
-1.0584096299120844
 97
        0
 75
     0
 76
     1
 98
        1
 10
0.0
 20
0.0
  0
HATCH
  5
8F
100
AcDbEntity
  8
0
  6
CONTINUOUS
 62
     3
100
AcDbHatch
 10
0.0
 20
0.0
 30
0.0
210
0.0
220
0.0
230
1.0
  2
SOLID
 70
     1
 71
     1
 91
        1
 92
        1
 93
        8
 72
     2
 10
-1.8298808996504405
 20
-0.4560000000002766
 40
1.596000000000013
 50
270.0
 51
330.0
 73
     1
 72
     2
 10
-2.619696067901863
 20
-0.00000000000027
 40
2.508000000000012
 50
330.0
 51
30.0
 73
     1
 72
     2
 10
-1.8298808996504405
 20
0.4559999999997331
 40
1.5960000000000121
 50
30.0
 51
90.0
 73
     1
 72
     1
 10
-1.82988089965
 20
2.0519999999997438
 11
-1.82988089965
 21
2.9639999999999276
 72
     2
 10
-1.8298808996504974
 20
0.4559999999999214
 40
2.508000000000008
 50
270.0
 51
330.0
 73
     0
 72
     2
 10
-2.6196960679017494
 20
-0.0000000000001243
 40
3.420000000000015
 50
330.0
 51
30.0
 73
     0
 72
     2
 10
-1.8298808996503837
 20
-0.456000000000369
 40
2.5080000000000053
 50
30.0
 51
90.0
 73
     0
 72
     1
 10
-1.82988089965
 20
-2.9640000000003752
 11
-1.82988089965
 21
-2.0520000000002909
 97
        0
 75
     0
 76
     1
 98
        1
 10
0.0
 20
0.0
  0
HATCH
  5
90
100
AcDbEntity
  8
0
  6
CONTINUOUS
 62
     3
100
AcDbHatch
 10
0.0
 20
0.0
 30
0.0
210
0.0
220
0.0
230
1.0
  2
SOLID
 70
     1
 71
     1
 91
        1
 92
        1
 93
        8
 72
     2
 10
-1.8298808996503837
 20
-0.456000000000369
 40
2.5080000000000053
 50
90.0
 51
150.0
 73
     0
 72
     2
 10
-1.0400657313991175
 20
-0.0000000000003126
 40
3.4200000000000181
 50
150.0
 51
210.0
 73
     0
 72
     2
 10
-1.8298808996504974
 20
0.4559999999999214
 40
2.508000000000008
 50
210.0
 51
270.0
 73
     0
 72
     1
 10
-1.82988089965
 20
2.9639999999999276
 11
-1.82988089965
 21
2.0519999999997438
 72
     2
 10
-1.8298808996504405
 20
0.4559999999997331
 40
1.5960000000000121
 50
90.0
 51
150.0
 73
     1
 72
     2
 10
-1.040065731399018
 20
-0.00000000000027
 40
2.5080000000000129
 50
150.0
 51
210.0
 73
     1
 72
     2
 10
-1.8298808996504405
 20
-0.4560000000002766
 40
1.596000000000013
 50
210.0
 51
270.0
 73
     1
 72
     1
 10
-1.82988089965
 20
-2.0520000000002909
 11
-1.82988089965
 21
-2.9640000000003752
 97
        0
 75
     0
 76
     1
 98
        1
 10
0.0
 20
0.0
  0
HATCH
  5
91
100
AcDbEntity
  8
0
  6
CONTINUOUS
 62
     3
100
AcDbHatch
 10
0.0
 20
0.0
 30
0.0
210
0.0
220
0.0
230
1.0
  2
SOLID
 70
     1
 71
     1
 91
        1
 92
        1
 93
        4
 72
     1
 10
-5.3638808996504608
 20
-1.0260000000002698
 11
-6.2758808996504385
 21
-1.0260000000002698
 72
     1
 10
-6.2758808996504385
 20
-1.0260000000002698
 11
-6.2758808996504385
 21
-0.1140000000002743
 72
     1
 10
-6.2758808996504385
 20
-0.1140000000002743
 11
-5.3638808996504608
 21
-0.1140000000002743
 72
     1
 10
-5.3638808996504608
 20
-0.1140000000002743
 11
-5.3638808996504608
 21
-1.0260000000003267
 97
        0
 75
     0
 76
     1
 98
        1
 10
0.0
 20
0.0
  0
HATCH
  5
92
100
AcDbEntity
  8
0
  6
CONTINUOUS
 62
     3
100
AcDbHatch
 10
0.0
 20
0.0
 30
0.0
210
0.0
220
0.0
230
1.0
  2
SOLID
 70
     1
 71
     1
 91
        1
 92
        1
 93
       16
 72
     1
 10
-9.6958808996504686
 20
1.9379999999997324
 11
-10.949880899650459
 21
1.9379999999997324
 72
     1
 10
-10.949880899650459
 20
1.9379999999997324
 11
-11.177880899650468
 21
0.6839999999997275
 72
     1
 10
-11.177880899650468
 20
0.6839999999997275
 11
-11.861880899650437
 21
0.6839999999997275
 72
     1
 10
-11.861880899650437
 20
0.6839999999997275
 11
-11.861880899650437
 21
2.8499999999997421
 72
     1
 10
-11.861880899650437
 20
2.8499999999997421
 11
-6.6178808996504515
 21
2.8499999999997421
 72
     1
 10
-6.6178808996504515
 20
2.8499999999997421
 11
-6.6178808996504515
 21
0.6839999999997275
 72
     1
 10
-6.6178808996504515
 20
0.6839999999997275
 11
-7.3018808996504205
 21
0.6839999999997275
 72
     1
 10
-7.3018808996504205
 20
0.6839999999997275
 11
-7.5298808996504292
 21
1.9379999999997324
 72
     1
 10
-7.5298808996504292
 20
1.9379999999997324
 11
-8.7838808996504767
 21
1.9379999999997324
 72
     1
 10
-8.7838808996504767
 20
1.9379999999997324
 11
-8.7838808996504341
 21
-1.9380000000002759
 72
     1
 10
-8.7838808996504341
 20
-1.9380000000002759
 11
-7.8718808996504421
 21
-2.1660000000002846
 72
     1
 10
-7.8718808996504421
 20
-2.1660000000002846
 11
-7.8718808996504421
 21
-2.8500000000002856
 72
     1
 10
-7.8718808996504421
 20
-2.8500000000002856
 11
-10.607880899650446
 21
-2.8500000000002856
 72
     1
 10
-10.607880899650446
 20
-2.8500000000002856
 11
-10.607880899650446
 21
-2.1660000000002846
 72
     1
 10
-10.607880899650446
 20
-2.1660000000002846
 11
-9.6958808996504686
 21
-1.9380000000002759
 72
     1
 10
-9.6958808996504686
 20
-1.9380000000002759
 11
-9.6958808996504686
 21
1.9379999999997324
 97
        0
 75
     0
 76
     1
 98
        1
 10
0.0
 20
0.0
  0
HATCH
  5
93
100
AcDbEntity
  8
0
  6
CONTINUOUS
 62
     3
100
AcDbHatch
 10
0.0
 20
0.0
 30
0.0
210
0.0
220
0.0
230
1.0
  2
SOLID
 70
     1
 71
     1
 91
        1
 92
        1
 93
        4
 72
     1
 10
-13.115880899650485
 20
-1.0260000000002698
 11
-13.115880899650428
 21
-0.1140000000002175
 72
     1
 10
-13.115880899650428
 20
-0.1140000000002175
 11
-12.20388089965045
 21
-0.1140000000002743
 72
     1
 10
-12.20388089965045
 20
-0.1140000000002743
 11
-12.20388089965045
 21
-1.0260000000002698
 72
     1
 10
-12.20388089965045
 20
-1.0260000000002698
 11
-13.115880899650428
 21
-1.0260000000002698
 97
        0
 75
     0
 76
     1
 98
        1
 10
0.0
 20
0.0
  0
HATCH
  5
94
100
AcDbEntity
  8
0
  6
CONTINUOUS
 62
     3
100
AcDbHatch
 10
0.0
 20
0.0
 30
0.0
210
0.0
220
0.0
230
1.0
  2
SOLID
 70
     1
 71
     1
 91
        1
 92
        1
 93
       12
 72
     1
 10
-14.141880899650467
 20
2.8499999999997421
 11
-14.141880899650467
 21
2.1659999999997304
 72
     1
 10
-14.141880899650467
 20
2.1659999999997304
 11
-15.053880899650444
 21
1.9379999999997324
 72
     1
 10
-15.053880899650444
 20
1.9379999999997324
 11
-15.053880899650444
 21
-1.9380000000002759
 72
     1
 10
-15.053880899650444
 20
-1.9380000000002759
 11
-14.141880899650467
 21
-2.1660000000002846
 72
     1
 10
-14.141880899650467
 20
-2.1660000000002846
 11
-14.141880899650467
 21
-2.8500000000002856
 72
     1
 10
-14.141880899650467
 20
-2.8500000000002856
 11
-16.877880899650467
 21
-2.8500000000002856
 72
     1
 10
-16.877880899650467
 20
-2.8500000000002856
 11
-16.877880899650467
 21
-2.1660000000002846
 72
     1
 10
-16.877880899650467
 20
-2.1660000000002846
 11
-15.965880899650482
 21
-1.9380000000002759
 72
     1
 10
-15.965880899650482
 20
-1.9380000000002759
 11
-15.965880899650482
 21
1.9379999999997324
 72
     1
 10
-15.965880899650482
 20
1.9379999999997324
 11
-16.877880899650467
 21
2.165999999999741
 72
     1
 10
-16.877880899650467
 20
2.165999999999741
 11
-16.877880899650467
 21
2.8499999999997421
 72
     1
 10
-16.877880899650467
 20
2.8499999999997421
 11
-14.141880899650467
 21
2.8499999999997421
 97
        0
 75
     0
 76
     1
 98
        1
 10
0.0
 20
0.0
  0
HATCH
  5
95
100
AcDbEntity
  8
0
  6
CONTINUOUS
 62
     3
100
AcDbHatch
 10
0.0
 20
0.0
 30
0.0
210
0.0
220
0.0
230
1.0
  2
SOLID
 70
     1
 71
     1
 91
        1
 92
        1
 93
       15
 72
     2
 10
-23.082241990843084
 20
-0.0000000000001492
 40
2.531053105310535
 50
124.301153
 51
180.0
 73
     0
 72
     1
 10
-25.613295096153617
 20
0.0
 11
-24.658234262528236
 21
0.0
 72
     2
 10
-22.195587997901765
 20
-0.000000000000135
 40
2.46264626462647
 50
180.0
 51
199.464384
 73
     1
 72
     2
 10
-24.557343260027135
 20
0.2731786481661374
 40
1.094509450945121
 50
272.086657
 51
294.619977
 73
     1
 72
     2
 10
-24.243863734539655
 20
-0.4108897586745677
 40
0.342034203420344
 50
294.619977
 51
0.0
 73
     1
 72
     1
 10
-23.901829531119287
 20
-0.4108897586745677
 11
-23.901829531119287
 21
0.0
 72
     1
 10
-23.901829531119287
 20
0.0
 11
-23.080947442910482
 21
0.0
 72
     1
 10
-23.080947442910482
 20
0.0
 11
-23.080947442910482
 21
-0.4116155274721614
 72
     2
 10
-22.73891323949012
 20
-0.4116155274721614
 40
0.34203420342033
 50
180.0
 51
245.380023
 73
     1
 72
     2
 10
-22.425433714002583
 20
0.2724528793686645
 40
1.0945094509452411
 50
245.380023
 51
267.913343
 73
     1
 72
     1
 10
-22.465285876753814
 20
-0.8213308027789985
 11
-22.465285876753814
 21
-1.0265513248311819
 72
     1
 10
-22.465285876753814
 20
-1.0265513248311819
 11
-24.434073870576871
 21
-1.0265513248311962
 72
     2
 10
-22.195587997901708
 20
-0.000000000000135
 40
2.4626462646264669
 50
204.635803
 51
268.19864
 73
     1
 72
     1
 10
-22.272999999999005
 20
-2.4614292609397985
 11
-22.272999999999005
 21
-2.8039503813289706
 72
     2
 10
-22.195587997901765
 20
1.2997299729972909
 40
4.1044104410441236
 50
91.080702
 51
124.301153
 73
     0
 97
        0
 75
     0
 76
     1
 98
        1
 10
0.0
 20
0.0
  0
HATCH
  5
96
100
AcDbEntity
  8
0
  6
CONTINUOUS
 62
     3
100
AcDbHatch
 10
0.0
 20
0.0
 30
0.0
210
0.0
220
0.0
230
1.0
  2
SOLID
 70
     1
 71
     1
 91
        1
 92
        1
 93
       24
 72
     2
 10
-22.67055612196938
 20
0.3420342034202015
 40
0.342034203420347
 50
90.0
 51
157.380135
 73
     1
 72
     2
 10
-21.849674033760575
 20
-0.0000000000001101
 40
1.231323132313237
 50
157.380135
 51
180.0
 73
     1
 72
     1
 10
-23.080997166073811
 20
0.0
 11
-23.901829531119287
 21
0.0
 72
     1
 10
-23.901829531119287
 20
0.0
 11
-23.901829531119287
 21
1.7757720729310194
 72
     2
 10
-22.195587997901765
 20
-0.000000000000135
 40
2.46264626462647
 50
133.856042
 51
180.0
 73
     1
 72
     1
 10
-24.658234262528236
 20
0.0
 11
-25.613295096153617
 21
0.0
 72
     2
 10
-23.082241990843084
 20
-0.0000000000001492
 40
2.531053105310535
 50
180.0
 51
235.698847
 73
     0
 72
     2
 10
-22.195587997901708
 20
-1.2997299729975893
 40
4.1044104410441324
 50
235.698847
 51
245.436008
 73
     0
 72
     1
 10
-23.901829531119287
 20
2.4332212587861193
 11
-23.901829531119287
 21
2.8049575222742433
 72
     2
 10
-24.243863734539655
 20
2.8049575222742433
 40
0.3420342034203421
 50
0.0
 51
65.380023
 73
     1
 72
     2
 10
-24.557343260027135
 20
2.1208891154335525
 40
1.0945094509450961
 50
65.380023
 51
87.913343
 73
     1
 72
     1
 10
-24.517491097275904
 20
3.2146727975810734
 11
-24.517491097275904
 21
3.4198933196332746
 72
     1
 10
-24.517491097275904
 20
3.4198933196332746
 11
-22.465285876753814
 21
3.4198933196332746
 72
     1
 10
-22.465285876753814
 20
3.4198933196332746
 11
-22.465285876753814
 21
3.2146727975810769
 72
     2
 10
-22.425433714002583
 20
2.1208891154335525
 40
1.094509450945101
 50
92.086657
 51
114.619977
 73
     1
 72
     2
 10
-22.738913239490063
 20
2.8049575222742575
 40
0.342034203420347
 50
114.619977
 51
180.0
 73
     1
 72
     1
 10
-23.080947442910432
 20
2.8049575222742433
 11
-23.080947442910432
 21
2.7080529205341897
 72
     2
 10
-22.195587997901765
 20
-1.2997299729975893
 40
4.1044104410441218
 50
257.542857
 51
268.919298
 73
     0
 72
     1
 10
-22.272999999999005
 20
2.8039503813286721
 11
-22.272999999999005
 21
2.4614292609395321
 72
     2
 10
-22.195587997901708
 20
-0.000000000000135
 40
2.46264626462647
 50
91.80136
 51
111.070443
 73
     1
 72
     1
 10
-23.080947442910482
 20
2.2979915747913111
 11
-23.080947442910482
 21
1.0261026102608923
 72
     1
 10
-23.080947442910482
 20
1.0261026102608923
 11
-22.272999999998969
 21
1.0261026102608923
 72
     1
 10
-22.272999999998969
 20
1.0261026102608923
 11
-22.272999999999005
 21
0.6840684068405416
 72
     1
 10
-22.272999999999005
 20
0.6840684068405416
 11
-22.67055612196938
 21
0.6840684068405416
 97
        0
 75
     0
 76
     1
 98
        1
 10
0.0
 20
0.0
  0
HATCH
  5
97
100
AcDbEntity
  8
0
  6
CONTINUOUS
 62
     3
100
AcDbHatch
 10
0.0
 20
0.0
 30
0.0
210
0.0
220
0.0
230
1.0
  2
SOLID
 70
     1
 71
     1
 91
        1
 92
        1
 93
       14
 72
     2
 10
-22.195587997901765
 20
-0.000000000000135
 40
2.4626462646264748
 50
0.0
 51
9.281799
 73
     1
 72
     2
 10
-20.102741104833992
 20
0.3420342034202015
 40
0.34203420342034
 50
9.281799
 51
90.0
 73
     1
 72
     1
 10
-20.102741104833992
 20
0.6840684068405416
 11
-20.827451184220411
 21
0.6840684068405416
 72
     1
 10
-20.827451184220411
 20
0.6840684068405416
 11
-20.827451184220411
 21
0.0
 72
     1
 10
-20.827451184220411
 20
0.0
 11
-21.648333272429209
 21
0.0
 72
     1
 10
-21.648333272429209
 20
0.0
 11
-21.648333272429209
 21
0.6840684068405416
 72
     1
 10
-21.648333272429209
 20
0.6840684068405416
 11
-22.272999999999005
 21
0.6840684068405416
 72
     1
 10
-22.272999999999005
 20
0.6840684068405416
 11
-22.272999999999005
 21
1.0261026102608923
 72
     1
 10
-22.272999999999005
 20
1.0261026102608923
 11
-19.956896402818945
 21
1.0261026102608675
 72
     2
 10
-22.195587997901708
 20
-0.000000000000135
 40
2.46264626462647
 50
24.624318
 51
91.80136
 73
     1
 72
     1
 10
-22.272999999999005
 20
2.4614292609395321
 11
-22.272999999999005
 21
2.8039503813286721
 72
     2
 10
-22.195587997901765
 20
-1.2997299729975893
 40
4.1044104410441218
 50
268.919298
 51
304.301153
 73
     0
 72
     2
 10
-21.308934004960445
 20
-0.0000000000001492
 40
2.5310531053105372
 50
304.301153
 51
0.0
 73
     0
 72
     1
 10
-18.777880899649912
 20
0.0
 11
-19.732941733275293
 21
0.0
 97
        0
 75
     0
 76
     1
 98
        1
 10
0.0
 20
0.0
  0
HATCH
  5
98
100
AcDbEntity
  8
0
  6
CONTINUOUS
 62
     3
100
AcDbHatch
 10
0.0
 20
0.0
 30
0.0
210
0.0
220
0.0
230
1.0
  2
SOLID
 70
     1
 71
     1
 91
        1
 92
        1
 93
       19
 72
     2
 10
-22.195587997901765
 20
-0.000000000000135
 40
2.4626462646264748
 50
303.748989
 51
0.0
 73
     1
 72
     1
 10
-19.732941733275293
 20
0.0
 11
-18.777880899649912
 21
0.0
 72
     2
 10
-21.308934004960445
 20
-0.0000000000001492
 40
2.5310531053105372
 50
0.0
 51
55.698847
 73
     0
 72
     2
 10
-22.195587997901708
 20
1.2997299729973051
 40
4.1044104410441289
 50
55.698847
 51
70.528779
 73
     0
 72
     1
 10
-20.827451184220411
 20
-2.5699453011829512
 11
-20.827451184220411
 21
-2.8054062368445436
 72
     2
 10
-20.485416980800043
 20
-2.8054062368445436
 40
0.342034203420344
 50
180.0
 51
245.380023
 73
     1
 72
     2
 10
-20.171937455312563
 20
-2.1213378300038528
 40
1.094509450945099
 50
245.380023
 51
267.913343
 73
     1
 72
     1
 10
-20.211789618063744
 20
-3.2151215121513772
 11
-20.211789618063744
 21
-3.4203420342035784
 72
     1
 10
-20.211789618063744
 20
-3.4203420342035784
 11
-22.263994838585827
 21
-3.4203420342035784
 72
     1
 10
-22.263994838585827
 20
-3.4203420342035784
 11
-22.263994838585827
 21
-3.2151215121513737
 72
     2
 10
-22.303847001337058
 20
-2.1213378300038528
 40
1.094509450945099
 50
272.086657
 51
294.619977
 73
     1
 72
     2
 10
-21.990367475849578
 20
-2.8054062368445436
 40
0.342034203420344
 50
294.619977
 51
0.0
 73
     1
 72
     1
 10
-21.648333272429209
 20
-2.8054062368445436
 11
-21.648333272429209
 21
-2.7680332125876284
 72
     2
 10
-22.195587997901765
 20
1.2997299729972909
 40
4.1044104410441236
 50
82.337744
 51
91.080702
 73
     0
 72
     1
 10
-22.272999999999005
 20
-2.8039503813289706
 11
-22.272999999999005
 21
-2.4614292609397985
 72
     2
 10
-22.195587997901708
 20
-0.000000000000135
 40
2.4626462646264669
 50
268.19864
 51
282.839588
 73
     1
 72
     1
 10
-21.648333272429209
 20
-2.4010703634269781
 11
-21.648333272429209
 21
0.0
 72
     1
 10
-21.648333272429209
 20
0.0
 11
-20.827451184220411
 21
0.0
 72
     1
 10
-20.827451184220411
 20
0.0
 11
-20.827451184220411
 21
-2.047639686011447
 97
        0
 75
     0
 76
     1
 98
        1
 10
0.0
 20
0.0
  0
ENDBLK
  5
99
100
AcDbEntity
  8
0
100
AcDbBlockEnd
  0
ENDSEC
  0
SECTION
  2
ENTITIES
  0
LINE
  5
9A
100
AcDbEntity
  8
LAY-1
  6
EXLTYPE3
 62
     1
100
AcDbLine
 10
366.0
 20
305.3
 30
0.0
 11
366.0
 21
409.9
 31
0.0
  0
TEXT
  5
9B
100
AcDbEntity
  8
LAY-1
  6
CONTINUOUS
 62
     3
100
AcDbText
 10
347.30514
 20
378.79486
 30
0.0
 40
3.6
  1
ＯＰＥＮ
 50
35.0
 41
0.659167
  7
EXCADSTD
 72
     5
 11
356.561558
 21
385.276274
 31
0.0
100
AcDbText
  0
TEXT
  5
9C
100
AcDbEntity
  8
LAY-1
  6
CONTINUOUS
 62
     3
100
AcDbText
 10
375.438442
 20
385.276274
 30
0.0
 40
3.6
  1
ＳＨＵＴ
 50
325.0
 41
0.659167
  7
EXCADSTD
 72
     5
 11
384.69486
 21
378.79486
 31
0.0
100
AcDbText
  0
CIRCLE
  5
9D
100
AcDbEntity
  8
LAY-1
  6
CONTINUOUS
 62
     2
100
AcDbCircle
 10
366.0
 20
357.5
 30
0.0
 40
10.0
  0
CIRCLE
  5
9E
100
AcDbEntity
  8
LAY-1
  6
CONTINUOUS
 62
     2
100
AcDbCircle
 10
366.0
 20
357.5
 30
0.0
 40
27.0
  0
ARC
  5
9F
100
AcDbEntity
  8
LAY-1
  6
CONTINUOUS
 62
     2
100
AcDbCircle
 10
451.108742
 20
322.246805
 30
0.0
 40
56.0
100
AcDbArc
 50
145.663575
 51
169.336425
  0
ARC
  5
A0
100
AcDbEntity
  8
LAY-1
  6
CONTINUOUS
 62
     2
100
AcDbCircle
 10
399.5
 20
357.5
 30
0.0
 40
6.5
100
AcDbArc
 50
325.663575
 51
0.0
  0
ARC
  5
A1
100
AcDbEntity
  8
LAY-1
  6
CONTINUOUS
 62
     2
100
AcDbCircle
 10
389.688077
 20
333.811923
 30
0.0
 40
6.5
100
AcDbArc
 50
315.0
 51
349.336425
  0
ARC
  5
A2
100
AcDbEntity
  8
LAY-1
  6
CONTINUOUS
 62
     2
100
AcDbCircle
 10
389.688077
 20
333.811923
 30
0.0
 40
6.5
100
AcDbArc
 50
280.663575
 51
315.0
  0
ARC
  5
A3
100
AcDbEntity
  8
LAY-1
  6
CONTINUOUS
 62
     2
100
AcDbCircle
 10
401.253195
 20
272.391258
 30
0.0
 40
56.0
100
AcDbArc
 50
100.663575
 51
124.336425
  0
ARC
  5
A4
100
AcDbEntity
  8
LAY-1
  6
CONTINUOUS
 62
     2
100
AcDbCircle
 10
366.0
 20
324.0
 30
0.0
 40
6.5
100
AcDbArc
 50
270.0
 51
304.336425
  0
ARC
  5
A5
100
AcDbEntity
  8
LAY-1
  6
CONTINUOUS
 62
     2
100
AcDbCircle
 10
399.5
 20
357.5
 30
0.0
 40
6.5
100
AcDbArc
 50
0.0
 51
34.336425
  0
ARC
  5
A6
100
AcDbEntity
  8
LAY-1
  6
CONTINUOUS
 62
     2
100
AcDbCircle
 10
451.108742
 20
392.753195
 30
0.0
 40
56.0
100
AcDbArc
 50
190.663575
 51
214.336425
  0
ARC
  5
A7
100
AcDbEntity
  8
LAY-1
  6
CONTINUOUS
 62
     2
100
AcDbCircle
 10
389.688077
 20
381.188077
 30
0.0
 40
6.5
100
AcDbArc
 50
10.663575
 51
45.0
  0
ARC
  5
A8
100
AcDbEntity
  8
LAY-1
  6
CONTINUOUS
 62
     2
100
AcDbCircle
 10
389.688077
 20
381.188077
 30
0.0
 40
6.5
100
AcDbArc
 50
45.0
 51
79.336425
  0
ARC
  5
A9
100
AcDbEntity
  8
LAY-1
  6
CONTINUOUS
 62
     2
100
AcDbCircle
 10
401.253195
 20
442.608742
 30
0.0
 40
56.0
100
AcDbArc
 50
235.663575
 51
259.336425
  0
ARC
  5
AA
100
AcDbEntity
  8
LAY-1
  6
CONTINUOUS
 62
     2
100
AcDbCircle
 10
366.0
 20
391.0
 30
0.0
 40
6.5
100
AcDbArc
 50
55.663575
 51
90.0
  0
ARC
  5
AB
100
AcDbEntity
  8
LAY-1
  6
CONTINUOUS
 62
     2
100
AcDbCircle
 10
342.311923
 20
381.188077
 30
0.0
 40
6.5
100
AcDbArc
 50
135.0
 51
169.336425
  0
ARC
  5
AC
100
AcDbEntity
  8
LAY-1
  6
CONTINUOUS
 62
     2
100
AcDbCircle
 10
342.311923
 20
381.188077
 30
0.0
 40
6.5
100
AcDbArc
 50
100.663575
 51
135.0
  0
ARC
  5
AD
100
AcDbEntity
  8
LAY-1
  6
CONTINUOUS
 62
     2
100
AcDbCircle
 10
330.746805
 20
442.608742
 30
0.0
 40
56.0
100
AcDbArc
 50
280.663575
 51
304.336425
  0
ARC
  5
AE
100
AcDbEntity
  8
LAY-1
  6
CONTINUOUS
 62
     2
100
AcDbCircle
 10
366.0
 20
391.0
 30
0.0
 40
6.5
100
AcDbArc
 50
90.0
 51
124.336425
  0
ARC
  5
AF
100
AcDbEntity
  8
LAY-1
  6
CONTINUOUS
 62
     2
100
AcDbCircle
 10
280.891258
 20
392.753195
 30
0.0
 40
56.0
100
AcDbArc
 50
325.663575
 51
349.336425
  0
ARC
  5
B0
100
AcDbEntity
  8
LAY-1
  6
CONTINUOUS
 62
     2
100
AcDbCircle
 10
332.5
 20
357.5
 30
0.0
 40
6.5
100
AcDbArc
 50
180.0
 51
214.336425
  0
ARC
  5
B1
100
AcDbEntity
  8
LAY-1
  6
CONTINUOUS
 62
     2
100
AcDbCircle
 10
332.5
 20
357.5
 30
0.0
 40
6.5
100
AcDbArc
 50
145.663575
 51
180.0
  0
ARC
  5
B2
100
AcDbEntity
  8
LAY-1
  6
CONTINUOUS
 62
     2
100
AcDbCircle
 10
280.891258
 20
322.246805
 30
0.0
 40
56.0
100
AcDbArc
 50
10.663575
 51
34.336425
  0
ARC
  5
B3
100
AcDbEntity
  8
LAY-1
  6
CONTINUOUS
 62
     2
100
AcDbCircle
 10
342.311923
 20
333.811923
 30
0.0
 40
6.5
100
AcDbArc
 50
190.663575
 51
225.0
  0
ARC
  5
B4
100
AcDbEntity
  8
LAY-1
  6
CONTINUOUS
 62
     2
100
AcDbCircle
 10
342.311923
 20
333.811923
 30
0.0
 40
6.5
100
AcDbArc
 50
225.0
 51
259.336425
  0
ARC
  5
B5
100
AcDbEntity
  8
LAY-1
  6
CONTINUOUS
 62
     2
100
AcDbCircle
 10
330.746805
 20
272.391258
 30
0.0
 40
56.0
100
AcDbArc
 50
55.663575
 51
79.336425
  0
ARC
  5
B6
100
AcDbEntity
  8
LAY-1
  6
CONTINUOUS
 62
     2
100
AcDbCircle
 10
366.0
 20
324.0
 30
0.0
 40
6.5
100
AcDbArc
 50
235.663575
 51
270.0
  0
ARC
  5
B7
100
AcDbEntity
  8
LAY-1
  6
CONTINUOUS
 62
     2
100
AcDbCircle
 10
373.949537
 20
366.489153
 30
0.0
 40
2.0
100
AcDbArc
 50
183.08856
 51
228.512135
  0
ARC
  5
B8
100
AcDbEntity
  8
LAY-1
  6
CONTINUOUS
 62
     2
100
AcDbCircle
 10
373.141841
 20
381.458174
 30
0.0
 40
2.0
100
AcDbArc
 50
73.40088
 51
183.08856
  0
ARC
  5
B9
100
AcDbEntity
  8
LAY-1
  6
CONTINUOUS
 62
     2
100
AcDbCircle
 10
358.050463
 20
366.489153
 30
0.0
 40
2.0
100
AcDbArc
 50
311.487865
 51
356.91144
  0
LINE
  5
BA
100
AcDbEntity
  8
LAY-1
  6
CONTINUOUS
 62
     2
100
AcDbLine
 10
360.855254
 20
381.350415
 30
0.0
 11
360.047558
 21
366.381394
 31
0.0
  0
ARC
  5
BB
100
AcDbEntity
  8
LAY-1
  6
CONTINUOUS
 62
     2
100
AcDbCircle
 10
358.858159
 20
381.458174
 30
0.0
 40
2.0
100
AcDbArc
 50
356.91144
 51
106.59912
  0
ARC
  5
BC
100
AcDbEntity
  8
LAY-1
  6
CONTINUOUS
 62
     2
100
AcDbCircle
 10
357.010847
 20
365.449537
 30
0.0
 40
2.0
100
AcDbArc
 50
273.08856
 51
318.512135
  0
LINE
  5
BD
100
AcDbEntity
  8
LAY-1
  6
CONTINUOUS
 62
     2
100
AcDbLine
 10
342.149585
 20
362.644746
 30
0.0
 11
357.118606
 21
363.452442
 31
0.0
  0
ARC
  5
BE
100
AcDbEntity
  8
LAY-1
  6
CONTINUOUS
 62
     2
100
AcDbCircle
 10
342.041826
 20
364.641841
 30
0.0
 40
2.0
100
AcDbArc
 50
163.40088
 51
273.08856
  0
ARC
  5
BF
100
AcDbEntity
  8
LAY-1
  6
CONTINUOUS
 62
     2
100
AcDbCircle
 10
357.010847
 20
349.550463
 30
0.0
 40
2.0
100
AcDbArc
 50
41.487865
 51
86.91144
  0
LINE
  5
C0
100
AcDbEntity
  8
LAY-1
  6
CONTINUOUS
 62
     2
100
AcDbLine
 10
342.149585
 20
352.355254
 30
0.0
 11
357.118606
 21
351.547558
 31
0.0
  0
ARC
  5
C1
100
AcDbEntity
  8
LAY-1
  6
CONTINUOUS
 62
     2
100
AcDbCircle
 10
342.041826
 20
350.358159
 30
0.0
 40
2.0
100
AcDbArc
 50
86.91144
 51
196.59912
  0
ARC
  5
C2
100
AcDbEntity
  8
LAY-1
  6
CONTINUOUS
 62
     2
100
AcDbCircle
 10
358.050463
 20
348.510847
 30
0.0
 40
2.0
100
AcDbArc
 50
3.08856
 51
48.512135
  0
LINE
  5
C3
100
AcDbEntity
  8
LAY-1
  6
CONTINUOUS
 62
     2
100
AcDbLine
 10
360.855254
 20
333.649585
 30
0.0
 11
360.047558
 21
348.618606
 31
0.0
  0
ARC
  5
C4
100
AcDbEntity
  8
LAY-1
  6
CONTINUOUS
 62
     2
100
AcDbCircle
 10
358.858159
 20
333.541826
 30
0.0
 40
2.0
100
AcDbArc
 50
253.40088
 51
3.08856
  0
ARC
  5
C5
100
AcDbEntity
  8
LAY-1
  6
CONTINUOUS
 62
     2
100
AcDbCircle
 10
373.949537
 20
348.510847
 30
0.0
 40
2.0
100
AcDbArc
 50
131.487865
 51
176.91144
  0
ARC
  5
C6
100
AcDbEntity
  8
LAY-1
  6
CONTINUOUS
 62
     2
100
AcDbCircle
 10
373.141841
 20
333.541826
 30
0.0
 40
2.0
100
AcDbArc
 50
176.91144
 51
286.59912
  0
ARC
  5
C7
100
AcDbEntity
  8
LAY-1
  6
CONTINUOUS
 62
     2
100
AcDbCircle
 10
374.989153
 20
349.550463
 30
0.0
 40
2.0
100
AcDbArc
 50
93.08856
 51
138.512135
  0
ARC
  5
C8
100
AcDbEntity
  8
LAY-1
  6
CONTINUOUS
 62
     2
100
AcDbCircle
 10
389.958174
 20
350.358159
 30
0.0
 40
2.0
100
AcDbArc
 50
343.40088
 51
93.08856
  0
ARC
  5
C9
100
AcDbEntity
  8
LAY-1
  6
CONTINUOUS
 62
     2
100
AcDbCircle
 10
374.989153
 20
365.449537
 30
0.0
 40
2.0
100
AcDbArc
 50
221.487865
 51
266.91144
  0
ARC
  5
CA
100
AcDbEntity
  8
LAY-1
  6
CONTINUOUS
 62
     2
100
AcDbCircle
 10
389.958174
 20
364.641841
 30
0.0
 40
2.0
100
AcDbArc
 50
266.91144
 51
16.59912
  0
LINE
  5
CB
100
AcDbEntity
  8
LAY-1
  6
CONTINUOUS
 62
     2
100
AcDbLine
 10
375.834383
 20
386.899155
 30
0.0
 11
374.066681
 21
388.116854
 31
0.0
  0
LINE
  5
CC
100
AcDbEntity
  8
LAY-1
  6
CONTINUOUS
 62
     2
100
AcDbLine
 10
356.165617
 20
386.899155
 30
0.0
 11
357.933319
 21
388.116854
 31
0.0
  0
ARC
  5
CD
100
AcDbEntity
  8
LAY-1
  6
CONTINUOUS
 62
     2
100
AcDbCircle
 10
366.0
 20
363.156854
 30
0.0
 40
25.698481
100
AcDbArc
 50
67.5
 51
112.5
  0
LINE
  5
CE
100
AcDbEntity
  8
LAY-1
  6
CONTINUOUS
 62
     2
100
AcDbLine
 10
371.144746
 20
381.350415
 30
0.0
 11
371.952442
 21
366.381394
 31
0.0
  0
LINE
  5
CF
100
AcDbEntity
  8
LAY-1
  6
CONTINUOUS
 62
     2
100
AcDbLine
 10
390.340027
 20
352.381672
 30
0.0
 11
374.54114
 21
351.529199
 31
0.0
  0
LINE
  5
D0
100
AcDbEntity
  8
LAY-1
  6
CONTINUOUS
 62
     2
100
AcDbLine
 10
390.302114
 20
362.620374
 30
0.0
 11
374.54114
 21
363.470801
 31
0.0
  0
LINE
  5
D1
100
AcDbEntity
  8
LAY-1
  6
CONTINUOUS
 62
     2
100
AcDbLine
 10
420.0
 20
357.5
 30
0.0
 11
420.0
 21
310.0
 31
0.0
  0
ARC
  5
D2
100
AcDbEntity
  8
LAY-1
  6
CONTINUOUS
 62
     2
100
AcDbCircle
 10
421.0
 20
331.0
 30
0.0
 40
1.0
100
AcDbArc
 50
90.0
 51
180.0
  0
LINE
  5
D3
100
AcDbEntity
  8
LAY-1
  6
CONTINUOUS
 62
     2
100
AcDbLine
 10
421.0
 20
332.0
 30
0.0
 11
421.0
 21
357.5
 31
0.0
  0
LINE
  5
D4
100
AcDbEntity
  8
LAY-1
  6
CONTINUOUS
 62
     2
100
AcDbLine
 10
407.0
 20
311.5
 30
0.0
 11
407.0
 21
357.5
 31
0.0
  0
LINE
  5
D5
100
AcDbEntity
  8
LAY-1
  6
CONTINUOUS
 62
     2
100
AcDbLine
 10
420.0
 20
310.0
 30
0.0
 11
408.5
 21
310.0
 31
0.0
  0
ARC
  5
D6
100
AcDbEntity
  8
LAY-1
  6
CONTINUOUS
 62
     2
100
AcDbCircle
 10
408.5
 20
311.5
 30
0.0
 40
1.5
100
AcDbArc
 50
180.0
 51
270.0
  0
LINE
  5
D7
100
AcDbEntity
  8
LAY-1
  6
CONTINUOUS
 62
     2
100
AcDbLine
 10
404.496004
 20
336.719071
 30
0.0
 11
406.087156
 21
336.579864
 31
0.0
  0
ARC
  5
D8
100
AcDbEntity
  8
LAY-1
  6
CONTINUOUS
 62
     2
100
AcDbCircle
 10
406.0
 20
335.583669
 30
0.0
 40
1.0
100
AcDbArc
 50
0.0
 51
85.0
  0
ARC
  5
D9
100
AcDbEntity
  8
LAY-1
  6
CONTINUOUS
 62
     2
100
AcDbCircle
 10
398.319253
 20
336.357613
 30
0.0
 40
6.187319
100
AcDbArc
 50
3.349082
 51
80.760762
  0
ARC
  5
DA
100
AcDbEntity
  8
LAY-1
  6
CONTINUOUS
 62
     2
100
AcDbCircle
 10
333.680748
 20
336.357613
 30
0.0
 40
6.187318
100
AcDbArc
 50
99.239243
 51
176.650922
  0
ARC
  5
DB
100
AcDbEntity
  8
LAY-1
  6
CONTINUOUS
 62
     2
100
AcDbCircle
 10
326.0
 20
335.583669
 30
0.0
 40
1.0
100
AcDbArc
 50
95.0
 51
180.0
  0
LINE
  5
DC
100
AcDbEntity
  8
LAY-1
  6
CONTINUOUS
 62
     2
100
AcDbLine
 10
325.912845
 20
336.579864
 30
0.0
 11
327.50129
 21
336.718834
 31
0.0
  0
LINE
  5
DD
100
AcDbEntity
  8
LAY-1
  6
CONTINUOUS
 62
     2
100
AcDbLine
 10
325.0
 20
357.5
 30
0.0
 11
325.0
 21
311.5
 31
0.0
  0
LINE
  5
DE
100
AcDbEntity
  8
LAY-1
  6
CONTINUOUS
 62
     2
100
AcDbLine
 10
311.0
 20
332.0
 30
0.0
 11
311.0
 21
357.5
 31
0.0
  0
LINE
  5
DF
100
AcDbEntity
  8
LAY-1
  6
CONTINUOUS
 62
     2
100
AcDbLine
 10
312.0
 20
357.5
 30
0.0
 11
312.0
 21
310.0
 31
0.0
  0
ARC
  5
E0
100
AcDbEntity
  8
LAY-1
  6
CONTINUOUS
 62
     2
100
AcDbCircle
 10
311.0
 20
331.0
 30
0.0
 40
1.0
100
AcDbArc
 50
0.0
 51
90.0
  0
ARC
  5
E1
100
AcDbEntity
  8
LAY-1
  6
CONTINUOUS
 62
     2
100
AcDbCircle
 10
323.5
 20
311.5
 30
0.0
 40
1.5
100
AcDbArc
 50
270.0
 51
0.0
  0
LINE
  5
E2
100
AcDbEntity
  8
LAY-1
  6
CONTINUOUS
 62
     2
100
AcDbLine
 10
312.0
 20
310.0
 30
0.0
 11
323.5
 21
310.0
 31
0.0
  0
LINE
  5
E3
100
AcDbEntity
  8
LAY-1
  6
CONTINUOUS
 62
     2
100
AcDbLine
 10
404.496004
 20
353.283117
 30
0.0
 11
404.496004
 21
336.719071
 31
0.0
  0
LINE
  5
E4
100
AcDbEntity
  8
LAY-1
  6
CONTINUOUS
 62
     2
100
AcDbLine
 10
327.503996
 20
353.283117
 30
0.0
 11
327.503996
 21
336.719071
 31
0.0
  0
LINE
  5
E5
100
AcDbEntity
  8
LAY-1
  6
CONTINUOUS
 62
     2
100
AcDbLine
 10
332.687329
 20
342.464661
 30
0.0
 11
333.083483
 21
342.543891
 31
0.0
  0
LINE
  5
E6
100
AcDbEntity
  8
LAY-1
  6
CONTINUOUS
 62
     2
100
AcDbLine
 10
399.312671
 20
342.464661
 30
0.0
 11
398.916517
 21
342.543891
 31
0.0
  0
ARC
  5
E7
100
AcDbEntity
  8
LAY-1
  6
CONTINUOUS
 62
     2
100
AcDbCircle
 10
421.0
 20
384.0
 30
0.0
 40
1.0
100
AcDbArc
 50
180.0
 51
270.0
  0
LINE
  5
E8
100
AcDbEntity
  8
LAY-1
  6
CONTINUOUS
 62
     2
100
AcDbLine
 10
421.0
 20
383.0
 30
0.0
 11
421.0
 21
357.5
 31
0.0
  0
LINE
  5
E9
100
AcDbEntity
  8
LAY-1
  6
CONTINUOUS
 62
     2
100
AcDbLine
 10
420.0
 20
357.5
 30
0.0
 11
420.0
 21
405.0
 31
0.0
  0
LINE
  5
EA
100
AcDbEntity
  8
LAY-1
  6
CONTINUOUS
 62
     2
100
AcDbLine
 10
420.0
 20
405.0
 30
0.0
 11
408.5
 21
405.0
 31
0.0
  0
ARC
  5
EB
100
AcDbEntity
  8
LAY-1
  6
CONTINUOUS
 62
     2
100
AcDbCircle
 10
408.5
 20
403.5
 30
0.0
 40
1.5
100
AcDbArc
 50
90.0
 51
180.0
  0
LINE
  5
EC
100
AcDbEntity
  8
LAY-1
  6
CONTINUOUS
 62
     2
100
AcDbLine
 10
407.0
 20
403.5
 30
0.0
 11
407.0
 21
357.5
 31
0.0
  0
LINE
  5
ED
100
AcDbEntity
  8
LAY-1
  6
CONTINUOUS
 62
     2
100
AcDbLine
 10
325.0
 20
357.5
 30
0.0
 11
325.0
 21
403.5
 31
0.0
  0
ARC
  5
EE
100
AcDbEntity
  8
LAY-1
  6
CONTINUOUS
 62
     2
100
AcDbCircle
 10
323.5
 20
403.5
 30
0.0
 40
1.5
100
AcDbArc
 50
0.0
 51
90.0
  0
LINE
  5
EF
100
AcDbEntity
  8
LAY-1
  6
CONTINUOUS
 62
     2
100
AcDbLine
 10
312.0
 20
405.0
 30
0.0
 11
323.5
 21
405.0
 31
0.0
  0
LINE
  5
F0
100
AcDbEntity
  8
LAY-1
  6
CONTINUOUS
 62
     2
100
AcDbLine
 10
312.0
 20
357.5
 30
0.0
 11
312.0
 21
405.0
 31
0.0
  0
LINE
  5
F1
100
AcDbEntity
  8
LAY-1
  6
CONTINUOUS
 62
     2
100
AcDbLine
 10
311.0
 20
383.0
 30
0.0
 11
311.0
 21
357.5
 31
0.0
  0
ARC
  5
F2
100
AcDbEntity
  8
LAY-1
  6
CONTINUOUS
 62
     2
100
AcDbCircle
 10
311.0
 20
384.0
 30
0.0
 40
1.0
100
AcDbArc
 50
270.0
 51
0.0
  0
ARC
  5
F3
100
AcDbEntity
  8
LAY-1
  6
CONTINUOUS
 62
     2
100
AcDbCircle
 10
326.0
 20
379.416331
 30
0.0
 40
1.0
100
AcDbArc
 50
180.0
 51
265.0
  0
LINE
  5
F4
100
AcDbEntity
  8
LAY-1
  6
CONTINUOUS
 62
     2
100
AcDbLine
 10
325.912845
 20
378.420136
 30
0.0
 11
327.50129
 21
378.281166
 31
0.0
  0
ARC
  5
F5
100
AcDbEntity
  8
LAY-1
  6
CONTINUOUS
 62
     2
100
AcDbCircle
 10
333.680748
 20
378.642387
 30
0.0
 40
6.187318
100
AcDbArc
 50
183.349078
 51
260.760757
  0
LINE
  5
F6
100
AcDbEntity
  8
LAY-1
  6
CONTINUOUS
 62
     2
100
AcDbLine
 10
327.503996
 20
361.716883
 30
0.0
 11
327.503996
 21
378.280929
 31
0.0
  0
LINE
  5
F7
100
AcDbEntity
  8
LAY-1
  6
CONTINUOUS
 62
     2
100
AcDbLine
 10
404.496004
 20
378.280929
 30
0.0
 11
406.087156
 21
378.420136
 31
0.0
  0
ARC
  5
F8
100
AcDbEntity
  8
LAY-1
  6
CONTINUOUS
 62
     2
100
AcDbCircle
 10
406.0
 20
379.416331
 30
0.0
 40
1.0
100
AcDbArc
 50
275.0
 51
0.0
  0
ARC
  5
F9
100
AcDbEntity
  8
LAY-1
  6
CONTINUOUS
 62
     2
100
AcDbCircle
 10
398.319253
 20
378.642387
 30
0.0
 40
6.187319
100
AcDbArc
 50
279.239238
 51
356.650918
  0
LINE
  5
FA
100
AcDbEntity
  8
LAY-1
  6
CONTINUOUS
 62
     2
100
AcDbLine
 10
399.312671
 20
372.535339
 30
0.0
 11
398.916517
 21
372.456109
 31
0.0
  0
LINE
  5
FB
100
AcDbEntity
  8
LAY-1
  6
CONTINUOUS
 62
     2
100
AcDbLine
 10
404.496004
 20
361.716883
 30
0.0
 11
404.496004
 21
378.280929
 31
0.0
  0
POLYLINE
  5
FC
100
AcDbEntity
  8
LAY-1
  6
CONTINUOUS
 62
     2
100
AcDb2dPolyline
 66
     1
 10
0.0
 20
0.0
 30
0.0
 70
   128
  0
VERTEX
  5
FD
100
AcDbEntity
  8
LAY-1
  6
CONTINUOUS
 62
     2
100
AcDbVertex
100
AcDb2dVertex
 10
371.773503
 20
357.5
 30
0.0
  0
VERTEX
  5
FE
100
AcDbEntity
  8
LAY-1
  6
CONTINUOUS
 62
     2
100
AcDbVertex
100
AcDb2dVertex
 10
368.886751
 20
362.5
 30
0.0
  0
VERTEX
  5
FF
100
AcDbEntity
  8
LAY-1
  6
CONTINUOUS
 62
     2
100
AcDbVertex
100
AcDb2dVertex
 10
363.113249
 20
362.5
 30
0.0
  0
VERTEX
  5
100
100
AcDbEntity
  8
LAY-1
  6
CONTINUOUS
 62
     2
100
AcDbVertex
100
AcDb2dVertex
 10
360.226497
 20
357.5
 30
0.0
  0
VERTEX
  5
101
100
AcDbEntity
  8
LAY-1
  6
CONTINUOUS
 62
     2
100
AcDbVertex
100
AcDb2dVertex
 10
363.113249
 20
352.5
 30
0.0
  0
VERTEX
  5
102
100
AcDbEntity
  8
LAY-1
  6
CONTINUOUS
 62
     2
100
AcDbVertex
100
AcDb2dVertex
 10
368.886751
 20
352.5
 30
0.0
  0
VERTEX
  5
103
100
AcDbEntity
  8
LAY-1
  6
CONTINUOUS
 62
     2
100
AcDbVertex
100
AcDb2dVertex
 10
371.773503
 20
357.5
 30
0.0
  0
SEQEND
  5
104
100
AcDbEntity
  8
LAY-1
  6
CONTINUOUS
 62
     2
  0
CIRCLE
  5
105
100
AcDbEntity
  8
LAY-1
  6
CONTINUOUS
 62
     2
100
AcDbCircle
 10
366.0
 20
357.5
 30
0.0
 40
5.0
  0
CIRCLE
  5
106
100
AcDbEntity
  8
LAY-1
  6
CONTINUOUS
 62
     2
100
AcDbCircle
 10
366.0
 20
357.5
 30
0.0
 40
6.1
  0
ARC
  5
107
100
AcDbEntity
  8
LAY-1
  6
CONTINUOUS
 62
     2
100
AcDbCircle
 10
366.0
 20
357.5
 30
0.0
 40
16.0
100
AcDbArc
 50
20.576857
 51
69.423143
  0
POLYLINE
  5
108
100
AcDbEntity
  8
LAY-1
  6
CONTINUOUS
 62
     2
100
AcDb2dPolyline
 66
     1
 10
0.0
 20
0.0
 30
0.0
 70
   128
  0
VERTEX
  5
109
100
AcDbEntity
  8
LAY-1
  6
CONTINUOUS
 62
     2
100
AcDbVertex
100
AcDb2dVertex
 10
381.236544
 20
363.109532
 30
0.0
  0
VERTEX
  5
10A
100
AcDbEntity
  8
LAY-1
  6
CONTINUOUS
 62
     2
100
AcDbVertex
100
AcDb2dVertex
 10
375.237604
 20
373.5
 30
0.0
  0
VERTEX
  5
10B
100
AcDbEntity
  8
LAY-1
  6
CONTINUOUS
 62
     2
100
AcDbVertex
100
AcDb2dVertex
 10
371.568338
 20
373.5
 30
0.0
  0
SEQEND
  5
10C
100
AcDbEntity
  8
LAY-1
  6
CONTINUOUS
 62
     2
  0
ARC
  5
10D
100
AcDbEntity
  8
LAY-1
  6
CONTINUOUS
 62
     2
100
AcDbCircle
 10
366.0
 20
357.5
 30
0.0
 40
16.0
100
AcDbArc
 50
110.576857
 51
159.423143
  0
POLYLINE
  5
10E
100
AcDbEntity
  8
LAY-1
  6
CONTINUOUS
 62
     2
100
AcDb2dPolyline
 66
     1
 10
0.0
 20
0.0
 30
0.0
 70
   128
  0
VERTEX
  5
10F
100
AcDbEntity
  8
LAY-1
  6
CONTINUOUS
 62
     2
100
AcDbVertex
100
AcDb2dVertex
 10
360.431662
 20
373.5
 30
0.0
  0
VERTEX
  5
110
100
AcDbEntity
  8
LAY-1
  6
CONTINUOUS
 62
     2
100
AcDbVertex
100
AcDb2dVertex
 10
356.762396
 20
373.5
 30
0.0
  0
VERTEX
  5
111
100
AcDbEntity
  8
LAY-1
  6
CONTINUOUS
 62
     2
100
AcDbVertex
100
AcDb2dVertex
 10
350.763456
 20
363.109532
 30
0.0
  0
SEQEND
  5
112
100
AcDbEntity
  8
LAY-1
  6
CONTINUOUS
 62
     2
  0
ARC
  5
113
100
AcDbEntity
  8
LAY-1
  6
CONTINUOUS
 62
     2
100
AcDbCircle
 10
366.0
 20
357.5
 30
0.0
 40
16.0
100
AcDbArc
 50
200.576857
 51
249.423143
  0
POLYLINE
  5
114
100
AcDbEntity
  8
LAY-1
  6
CONTINUOUS
 62
     2
100
AcDb2dPolyline
 66
     1
 10
0.0
 20
0.0
 30
0.0
 70
   128
  0
VERTEX
  5
115
100
AcDbEntity
  8
LAY-1
  6
CONTINUOUS
 62
     2
100
AcDbVertex
100
AcDb2dVertex
 10
350.763456
 20
351.890468
 30
0.0
  0
VERTEX
  5
116
100
AcDbEntity
  8
LAY-1
  6
CONTINUOUS
 62
     2
100
AcDbVertex
100
AcDb2dVertex
 10
356.762396
 20
341.5
 30
0.0
  0
VERTEX
  5
117
100
AcDbEntity
  8
LAY-1
  6
CONTINUOUS
 62
     2
100
AcDbVertex
100
AcDb2dVertex
 10
360.431662
 20
341.5
 30
0.0
  0
SEQEND
  5
118
100
AcDbEntity
  8
LAY-1
  6
CONTINUOUS
 62
     2
  0
POLYLINE
  5
119
100
AcDbEntity
  8
LAY-1
  6
CONTINUOUS
 62
     2
100
AcDb2dPolyline
 66
     1
 10
0.0
 20
0.0
 30
0.0
 70
   128
  0
VERTEX
  5
11A
100
AcDbEntity
  8
LAY-1
  6
CONTINUOUS
 62
     2
100
AcDbVertex
100
AcDb2dVertex
 10
371.568338
 20
341.5
 30
0.0
  0
VERTEX
  5
11B
100
AcDbEntity
  8
LAY-1
  6
CONTINUOUS
 62
     2
100
AcDbVertex
100
AcDb2dVertex
 10
375.237604
 20
341.5
 30
0.0
  0
VERTEX
  5
11C
100
AcDbEntity
  8
LAY-1
  6
CONTINUOUS
 62
     2
100
AcDbVertex
100
AcDb2dVertex
 10
381.236544
 20
351.890468
 30
0.0
  0
SEQEND
  5
11D
100
AcDbEntity
  8
LAY-1
  6
CONTINUOUS
 62
     2
  0
ARC
  5
11E
100
AcDbEntity
  8
LAY-1
  6
CONTINUOUS
 62
     2
100
AcDbCircle
 10
366.0
 20
357.5
 30
0.0
 40
16.0
100
AcDbArc
 50
290.576857
 51
339.423143
  0
ARC
  5
11F
100
AcDbEntity
  8
LAY-1
  6
CONTINUOUS
 62
     2
100
AcDbCircle
 10
366.0
 20
377.5
 30
0.0
 40
45.5
100
AcDbArc
 50
253.083685
 51
263.001398
  0
ARC
  5
120
100
AcDbEntity
  8
LAY-1
  6
CONTINUOUS
 62
     2
100
AcDbCircle
 10
366.0
 20
377.5
 30
0.0
 40
45.5
100
AcDbArc
 50
276.998602
 51
286.916315
  0
LINE
  5
121
100
AcDbEntity
  8
LAY-1
  6
CONTINUOUS
 62
     2
100
AcDbLine
 10
371.144746
 20
333.649585
 30
0.0
 11
371.952442
 21
348.618606
 31
0.0
  0
ARC
  5
122
100
AcDbEntity
  8
LAY-1
  6
CONTINUOUS
 62
     2
100
AcDbCircle
 10
366.0
 20
337.5
 30
0.0
 40
45.5
100
AcDbArc
 50
73.083685
 51
83.001398
  0
ARC
  5
123
100
AcDbEntity
  8
LAY-1
  6
CONTINUOUS
 62
     2
100
AcDbCircle
 10
366.0
 20
337.5
 30
0.0
 40
45.5
100
AcDbArc
 50
96.998602
 51
106.916315
  0
ARC
  5
124
100
AcDbEntity
  8
LAY-1
  6
CONTINUOUS
 62
     2
100
AcDbCircle
 10
366.0
 20
357.5
 30
0.0
 40
19.0
100
AcDbArc
 50
106.667536
 51
163.332464
  0
POLYLINE
  5
125
100
AcDbEntity
  8
LAY-1
  6
CONTINUOUS
 62
     2
100
AcDb2dPolyline
 66
     1
 10
0.0
 20
0.0
 30
0.0
 70
   128
  0
VERTEX
  5
126
100
AcDbEntity
  8
LAY-1
  6
CONTINUOUS
 62
     2
100
AcDbVertex
100
AcDb2dVertex
 10
360.593536
 20
376.5
 30
0.0
  0
VERTEX
  5
127
100
AcDbEntity
  8
LAY-1
  6
CONTINUOUS
 62
     2
100
AcDbVertex
100
AcDb2dVertex
 10
355.030345
 20
376.5
 30
0.0
  0
VERTEX
  5
128
100
AcDbEntity
  8
LAY-1
  6
CONTINUOUS
 62
     2
100
AcDbVertex
100
AcDb2dVertex
 10
347.187969
 20
362.916606
 30
0.0
  0
SEQEND
  5
129
100
AcDbEntity
  8
LAY-1
  6
CONTINUOUS
 62
     2
  0
ARC
  5
12A
100
AcDbEntity
  8
LAY-1
  6
CONTINUOUS
 62
     2
100
AcDbCircle
 10
366.0
 20
357.5
 30
0.0
 40
19.0
100
AcDbArc
 50
196.667536
 51
253.332464
  0
POLYLINE
  5
12B
100
AcDbEntity
  8
LAY-1
  6
CONTINUOUS
 62
     2
100
AcDb2dPolyline
 66
     1
 10
0.0
 20
0.0
 30
0.0
 70
   128
  0
VERTEX
  5
12C
100
AcDbEntity
  8
LAY-1
  6
CONTINUOUS
 62
     2
100
AcDbVertex
100
AcDb2dVertex
 10
347.187969
 20
352.083394
 30
0.0
  0
VERTEX
  5
12D
100
AcDbEntity
  8
LAY-1
  6
CONTINUOUS
 62
     2
100
AcDbVertex
100
AcDb2dVertex
 10
355.030345
 20
338.5
 30
0.0
  0
VERTEX
  5
12E
100
AcDbEntity
  8
LAY-1
  6
CONTINUOUS
 62
     2
100
AcDbVertex
100
AcDb2dVertex
 10
360.593536
 20
338.5
 30
0.0
  0
SEQEND
  5
12F
100
AcDbEntity
  8
LAY-1
  6
CONTINUOUS
 62
     2
  0
ARC
  5
130
100
AcDbEntity
  8
LAY-1
  6
CONTINUOUS
 62
     2
100
AcDbCircle
 10
366.0
 20
357.5
 30
0.0
 40
19.0
100
AcDbArc
 50
286.667536
 51
343.332464
  0
POLYLINE
  5
131
100
AcDbEntity
  8
LAY-1
  6
CONTINUOUS
 62
     2
100
AcDb2dPolyline
 66
     1
 10
0.0
 20
0.0
 30
0.0
 70
   128
  0
VERTEX
  5
132
100
AcDbEntity
  8
LAY-1
  6
CONTINUOUS
 62
     2
100
AcDbVertex
100
AcDb2dVertex
 10
371.406464
 20
338.5
 30
0.0
  0
VERTEX
  5
133
100
AcDbEntity
  8
LAY-1
  6
CONTINUOUS
 62
     2
100
AcDbVertex
100
AcDb2dVertex
 10
376.969655
 20
338.5
 30
0.0
  0
VERTEX
  5
134
100
AcDbEntity
  8
LAY-1
  6
CONTINUOUS
 62
     2
100
AcDbVertex
100
AcDb2dVertex
 10
384.812031
 20
352.083394
 30
0.0
  0
SEQEND
  5
135
100
AcDbEntity
  8
LAY-1
  6
CONTINUOUS
 62
     2
  0
POLYLINE
  5
136
100
AcDbEntity
  8
LAY-1
  6
CONTINUOUS
 62
     2
100
AcDb2dPolyline
 66
     1
 10
0.0
 20
0.0
 30
0.0
 70
   128
  0
VERTEX
  5
137
100
AcDbEntity
  8
LAY-1
  6
CONTINUOUS
 62
     2
100
AcDbVertex
100
AcDb2dVertex
 10
384.812031
 20
362.916606
 30
0.0
  0
VERTEX
  5
138
100
AcDbEntity
  8
LAY-1
  6
CONTINUOUS
 62
     2
100
AcDbVertex
100
AcDb2dVertex
 10
376.969655
 20
376.5
 30
0.0
  0
VERTEX
  5
139
100
AcDbEntity
  8
LAY-1
  6
CONTINUOUS
 62
     2
100
AcDbVertex
100
AcDb2dVertex
 10
371.406464
 20
376.5
 30
0.0
  0
SEQEND
  5
13A
100
AcDbEntity
  8
LAY-1
  6
CONTINUOUS
 62
     2
  0
ARC
  5
13B
100
AcDbEntity
  8
LAY-1
  6
CONTINUOUS
 62
     2
100
AcDbCircle
 10
366.0
 20
357.5
 30
0.0
 40
19.0
100
AcDbArc
 50
16.667536
 51
73.332464
  0
ARC
  5
13C
100
AcDbEntity
  8
LAY-1
  6
CONTINUOUS
 62
     2
100
AcDbCircle
 10
366.0
 20
357.5
 30
0.0
 40
22.5
100
AcDbArc
 50
103.496379
 51
166.503621
  0
LINE
  5
13D
100
AcDbEntity
  8
LAY-1
  6
EXLTYPE3
 62
     1
100
AcDbLine
 10
428.1
 20
357.5
 30
0.0
 11
301.7
 21
357.5
 31
0.0
  0
ARC
  5
13E
100
AcDbEntity
  8
LAY-1
  6
CONTINUOUS
 62
     2
100
AcDbCircle
 10
366.0
 20
357.5
 30
0.0
 40
22.5
100
AcDbArc
 50
193.496379
 51
256.503621
  0
ARC
  5
13F
100
AcDbEntity
  8
LAY-1
  6
CONTINUOUS
 62
     2
100
AcDbCircle
 10
366.0
 20
357.5
 30
0.0
 40
22.5
100
AcDbArc
 50
283.496379
 51
346.503621
  0
ARC
  5
140
100
AcDbEntity
  8
LAY-1
  6
CONTINUOUS
 62
     2
100
AcDbCircle
 10
366.0
 20
357.5
 30
0.0
 40
22.5
100
AcDbArc
 50
13.496379
 51
76.503621
  0
LINE
  5
141
100
AcDbEntity
  8
LAY-1
  6
EXLTYPE4
 62
     1
100
AcDbLine
 10
420.0
 20
510.5
 30
0.0
 11
407.0
 21
510.5
 31
0.0
  0
LINE
  5
142
100
AcDbEntity
  8
LAY-1
  6
EXLTYPE3
 62
     1
100
AcDbLine
 10
305.655421
 20
588.0
 30
0.0
 11
331.62273
 21
588.0
 31
0.0
  0
LINE
  5
143
100
AcDbEntity
  8
LAY-1
  6
EXLTYPE3
 62
     1
100
AcDbLine
 10
331.62273
 20
518.0
 30
0.0
 11
306.151612
 21
518.0
 31
0.0
  0
LINE
  5
144
100
AcDbEntity
  8
LAY-1
  6
EXLTYPE4
 62
     1
100
AcDbLine
 10
407.0
 20
525.5
 30
0.0
 11
420.0
 21
525.5
 31
0.0
  0
LINE
  5
145
100
AcDbEntity
  8
LAY-1
  6
EXLTYPE3
 62
     1
100
AcDbLine
 10
400.924018
 20
518.0
 30
0.0
 11
426.22974
 21
518.0
 31
0.0
  0
LINE
  5
146
100
AcDbEntity
  8
LAY-1
  6
EXLTYPE4
 62
     1
100
AcDbLine
 10
407.0
 20
580.5
 30
0.0
 11
420.0
 21
580.5
 31
0.0
  0
LINE
  5
147
100
AcDbEntity
  8
LAY-1
  6
EXLTYPE3
 62
     1
100
AcDbLine
 10
426.22974
 20
588.0
 30
0.0
 11
399.76624
 21
588.0
 31
0.0
  0
LINE
  5
148
100
AcDbEntity
  8
LAY-1
  6
EXLTYPE4
 62
     1
100
AcDbLine
 10
420.0
 20
595.5
 30
0.0
 11
407.0
 21
595.5
 31
0.0
  0
LINE
  5
149
100
AcDbEntity
  8
LAY-1
  6
EXLTYPE4
 62
     1
100
AcDbLine
 10
312.0
 20
595.5
 30
0.0
 11
325.0
 21
595.5
 31
0.0
  0
LINE
  5
14A
100
AcDbEntity
  8
LAY-1
  6
EXLTYPE4
 62
     1
100
AcDbLine
 10
325.0
 20
580.5
 30
0.0
 11
312.0
 21
580.5
 31
0.0
  0
LINE
  5
14B
100
AcDbEntity
  8
LAY-1
  6
EXLTYPE4
 62
     1
100
AcDbLine
 10
325.0
 20
525.5
 30
0.0
 11
312.0
 21
525.5
 31
0.0
  0
LINE
  5
14C
100
AcDbEntity
  8
LAY-1
  6
EXLTYPE4
 62
     1
100
AcDbLine
 10
312.0
 20
510.5
 30
0.0
 11
325.0
 21
510.5
 31
0.0
  0
LINE
  5
14D
100
AcDbEntity
  8
LAY-1
  6
CONTINUOUS
 62
     2
100
AcDbLine
 10
404.496004
 20
532.219071
 30
0.0
 11
404.496004
 21
573.780929
 31
0.0
  0
LINE
  5
14E
100
AcDbEntity
  8
LAY-1
  6
CONTINUOUS
 62
     2
100
AcDbLine
 10
327.503996
 20
532.219071
 30
0.0
 11
327.503996
 21
573.780929
 31
0.0
  0
LINE
  5
14F
100
AcDbEntity
  8
LAY-1
  6
CONTINUOUS
 62
     2
100
AcDbLine
 10
399.312671
 20
568.035339
 30
0.0
 11
398.626776
 21
567.89816
 31
0.0
  0
LINE
  5
150
100
AcDbEntity
  8
LAY-1
  6
CONTINUOUS
 62
     2
100
AcDbLine
 10
420.0
 20
505.5
 30
0.0
 11
408.5
 21
505.5
 31
0.0
  0
ARC
  5
151
100
AcDbEntity
  8
LAY-1
  6
CONTINUOUS
 62
     2
100
AcDbCircle
 10
406.0
 20
574.916331
 30
0.0
 40
1.0
100
AcDbArc
 50
275.0
 51
0.0
  0
LINE
  5
152
100
AcDbEntity
  8
LAY-1
  6
CONTINUOUS
 62
     2
100
AcDbLine
 10
332.687329
 20
568.035339
 30
0.0
 11
333.373224
 21
567.89816
 31
0.0
  0
ARC
  5
153
100
AcDbEntity
  8
LAY-1
  6
CONTINUOUS
 62
     2
100
AcDbCircle
 10
333.680748
 20
574.142387
 30
0.0
 40
6.187318
100
AcDbArc
 50
183.349078
 51
260.760757
  0
ARC
  5
154
100
AcDbEntity
  8
LAY-1
  6
CONTINUOUS
 62
     2
100
AcDbCircle
 10
334.549921
 20
573.781644
 30
0.0
 40
6.0
100
AcDbArc
 50
258.690068
 51
307.638771
  0
ARC
  5
155
100
AcDbEntity
  8
LAY-1
  6
CONTINUOUS
 62
     2
100
AcDbCircle
 10
397.450079
 20
573.781644
 30
0.0
 40
6.0
100
AcDbArc
 50
232.361229
 51
281.309932
  0
ARC
  5
156
100
AcDbEntity
  8
LAY-1
  6
CONTINUOUS
 62
     2
100
AcDbCircle
 10
398.319253
 20
574.142387
 30
0.0
 40
6.187319
100
AcDbArc
 50
279.239238
 51
356.650918
  0
ARC
  5
157
100
AcDbEntity
  8
LAY-1
  6
CONTINUOUS
 62
     2
100
AcDbCircle
 10
398.319253
 20
531.857613
 30
0.0
 40
6.187319
100
AcDbArc
 50
3.349082
 51
80.760762
  0
LINE
  5
158
100
AcDbEntity
  8
LAY-1
  6
CONTINUOUS
 62
     2
100
AcDbLine
 10
332.687329
 20
537.964661
 30
0.0
 11
333.373224
 21
538.10184
 31
0.0
  0
ARC
  5
159
100
AcDbEntity
  8
LAY-1
  6
CONTINUOUS
 62
     2
100
AcDbCircle
 10
326.0
 20
574.916331
 30
0.0
 40
1.0
100
AcDbArc
 50
180.0
 51
265.0
  0
LINE
  5
15A
100
AcDbEntity
  8
LAY-1
  6
CONTINUOUS
 62
     2
100
AcDbLine
 10
404.496004
 20
532.219071
 30
0.0
 11
406.087156
 21
532.079864
 31
0.0
  0
ARC
  5
15B
100
AcDbEntity
  8
LAY-1
  6
CONTINUOUS
 62
     2
100
AcDbCircle
 10
323.5
 20
599.0
 30
0.0
 40
1.5
100
AcDbArc
 50
0.0
 51
90.0
  0
LINE
  5
15C
100
AcDbEntity
  8
LAY-1
  6
CONTINUOUS
 62
     2
100
AcDbLine
 10
312.0
 20
505.5
 30
0.0
 11
323.5
 21
505.5
 31
0.0
  0
ARC
  5
15D
100
AcDbEntity
  8
LAY-1
  6
CONTINUOUS
 62
     2
100
AcDbCircle
 10
397.450079
 20
532.218356
 30
0.0
 40
6.0
100
AcDbArc
 50
78.690068
 51
127.638771
  0
ARC
  5
15E
100
AcDbEntity
  8
LAY-1
  6
CONTINUOUS
 62
     2
100
AcDbCircle
 10
333.680748
 20
531.857613
 30
0.0
 40
6.187318
100
AcDbArc
 50
99.239243
 51
176.650922
  0
ARC
  5
15F
100
AcDbEntity
  8
LAY-1
  6
CONTINUOUS
 62
     2
100
AcDbCircle
 10
334.549921
 20
532.218356
 30
0.0
 40
6.0
100
AcDbArc
 50
52.361229
 51
101.309932
  0
LINE
  5
160
100
AcDbEntity
  8
LAY-1
  6
CONTINUOUS
 62
     2
100
AcDbLine
 10
312.0
 20
600.5
 30
0.0
 11
323.5
 21
600.5
 31
0.0
  0
ARC
  5
161
100
AcDbEntity
  8
LAY-1
  6
CONTINUOUS
 62
     2
100
AcDbCircle
 10
406.0
 20
531.083669
 30
0.0
 40
1.0
100
AcDbArc
 50
0.0
 51
85.0
  0
LINE
  5
162
100
AcDbEntity
  8
LAY-1
  6
CONTINUOUS
 62
     2
100
AcDbLine
 10
399.312671
 20
537.964661
 30
0.0
 11
398.626776
 21
538.10184
 31
0.0
  0
LINE
  5
163
100
AcDbEntity
  8
LAY-1
  6
CONTINUOUS
 62
     2
100
AcDbLine
 10
420.0
 20
600.5
 30
0.0
 11
408.5
 21
600.5
 31
0.0
  0
ARC
  5
164
100
AcDbEntity
  8
LAY-1
  6
CONTINUOUS
 62
     2
100
AcDbCircle
 10
326.0
 20
531.083669
 30
0.0
 40
1.0
100
AcDbArc
 50
95.0
 51
180.0
  0
ARC
  5
165
100
AcDbEntity
  8
LAY-1
  6
CONTINUOUS
 62
     2
100
AcDbCircle
 10
323.5
 20
507.0
 30
0.0
 40
1.5
100
AcDbArc
 50
270.0
 51
0.0
  0
ARC
  5
166
100
AcDbEntity
  8
LAY-1
  6
CONTINUOUS
 62
     2
100
AcDbCircle
 10
366.0
 20
533.0
 30
0.0
 40
45.5
100
AcDbArc
 50
52.361229
 51
127.638771
  0
ARC
  5
167
100
AcDbEntity
  8
LAY-1
  6
CONTINUOUS
 62
     2
100
AcDbCircle
 10
408.5
 20
507.0
 30
0.0
 40
1.5
100
AcDbArc
 50
180.0
 51
270.0
  0
ARC
  5
168
100
AcDbEntity
  8
LAY-1
  6
CONTINUOUS
 62
     2
100
AcDbCircle
 10
408.5
 20
599.0
 30
0.0
 40
1.5
100
AcDbArc
 50
90.0
 51
180.0
  0
LINE
  5
169
100
AcDbEntity
  8
LAY-1
  6
CONTINUOUS
 62
     2
100
AcDbLine
 10
325.912845
 20
573.920136
 30
0.0
 11
327.50129
 21
573.781166
 31
0.0
  0
LINE
  5
16A
100
AcDbEntity
  8
LAY-1
  6
CONTINUOUS
 62
     2
100
AcDbLine
 10
404.496004
 20
573.780929
 30
0.0
 11
406.087156
 21
573.920136
 31
0.0
  0
LINE
  5
16B
100
AcDbEntity
  8
LAY-1
  6
CONTINUOUS
 62
     2
100
AcDbLine
 10
325.912845
 20
532.079864
 30
0.0
 11
327.503997
 21
532.219071
 31
0.0
  0
ARC
  5
16C
100
AcDbEntity
  8
LAY-1
  6
CONTINUOUS
 62
     2
100
AcDbCircle
 10
311.0
 20
526.5
 30
0.0
 40
1.0
100
AcDbArc
 50
0.0
 51
90.0
  0
LINE
  5
16D
100
AcDbEntity
  8
LAY-1
  6
CONTINUOUS
 62
     2
100
AcDbLine
 10
311.0
 20
527.5
 30
0.0
 11
311.0
 21
553.0
 31
0.0
  0
LINE
  5
16E
100
AcDbEntity
  8
LAY-1
  6
CONTINUOUS
 62
     2
100
AcDbLine
 10
311.0
 20
578.5
 30
0.0
 11
311.0
 21
553.0
 31
0.0
  0
ARC
  5
16F
100
AcDbEntity
  8
LAY-1
  6
CONTINUOUS
 62
     2
100
AcDbCircle
 10
311.0
 20
579.5
 30
0.0
 40
1.0
100
AcDbArc
 50
270.0
 51
0.0
  0
ARC
  5
170
100
AcDbEntity
  8
LAY-1
  6
CONTINUOUS
 62
     2
100
AcDbCircle
 10
421.0
 20
526.5
 30
0.0
 40
1.0
100
AcDbArc
 50
90.0
 51
180.0
  0
LINE
  5
171
100
AcDbEntity
  8
LAY-1
  6
CONTINUOUS
 62
     2
100
AcDbLine
 10
421.0
 20
527.5
 30
0.0
 11
421.0
 21
553.0
 31
0.0
  0
LINE
  5
172
100
AcDbEntity
  8
LAY-1
  6
CONTINUOUS
 62
     2
100
AcDbLine
 10
421.0
 20
578.5
 30
0.0
 11
421.0
 21
553.0
 31
0.0
  0
ARC
  5
173
100
AcDbEntity
  8
LAY-1
  6
CONTINUOUS
 62
     2
100
AcDbCircle
 10
421.0
 20
579.5
 30
0.0
 40
1.0
100
AcDbArc
 50
180.0
 51
270.0
  0
ARC
  5
174
100
AcDbEntity
  8
LAY-1
  6
CONTINUOUS
 62
     2
100
AcDbCircle
 10
387.0
 20
518.5
 30
0.0
 40
1.5
100
AcDbArc
 50
0.0
 51
48.189685
  0
ARC
  5
175
100
AcDbEntity
  8
LAY-1
  6
CONTINUOUS
 62
     2
100
AcDbCircle
 10
389.0
 20
520.736068
 30
0.0
 40
1.5
100
AcDbArc
 50
180.0
 51
228.189685
  0
LINE
  5
176
100
AcDbEntity
  8
LAY-1
  6
CONTINUOUS
 62
     2
100
AcDbLine
 10
366.0
 20
508.0
 30
0.0
 11
387.0
 21
508.0
 31
0.0
  0
LINE
  5
177
100
AcDbEntity
  8
LAY-1
  6
CONTINUOUS
 62
     2
100
AcDbLine
 10
388.5
 20
509.5
 30
0.0
 11
388.5
 21
518.5
 31
0.0
  0
ARC
  5
178
100
AcDbEntity
  8
LAY-1
  6
CONTINUOUS
 62
     2
100
AcDbCircle
 10
387.0
 20
509.5
 30
0.0
 40
1.5
100
AcDbArc
 50
270.0
 51
0.0
  0
LINE
  5
179
100
AcDbEntity
  8
LAY-1
  6
CONTINUOUS
 62
     2
100
AcDbLine
 10
387.5
 20
520.736068
 30
0.0
 11
387.5
 21
529.456918
 31
0.0
  0
ARC
  5
17A
100
AcDbEntity
  8
LAY-1
  6
CONTINUOUS
 62
     2
100
AcDbCircle
 10
366.0
 20
573.0
 30
0.0
 40
45.5
100
AcDbArc
 50
302.274803
 51
307.638771
  0
ARC
  5
17B
100
AcDbEntity
  8
LAY-1
  6
CONTINUOUS
 62
     2
100
AcDbCircle
 10
393.5
 20
529.456918
 30
0.0
 40
6.0
100
AcDbArc
 50
122.274803
 51
180.0
  0
ARC
  5
17C
100
AcDbEntity
  8
LAY-1
  6
CONTINUOUS
 62
     2
100
AcDbCircle
 10
345.0
 20
518.5
 30
0.0
 40
1.5
100
AcDbArc
 50
131.810315
 51
180.0
  0
ARC
  5
17D
100
AcDbEntity
  8
LAY-1
  6
CONTINUOUS
 62
     2
100
AcDbCircle
 10
343.0
 20
520.736068
 30
0.0
 40
1.5
100
AcDbArc
 50
311.810315
 51
0.0
  0
LINE
  5
17E
100
AcDbEntity
  8
LAY-1
  6
CONTINUOUS
 62
     2
100
AcDbLine
 10
343.5
 20
509.5
 30
0.0
 11
343.5
 21
518.5
 31
0.0
  0
ARC
  5
17F
100
AcDbEntity
  8
LAY-1
  6
CONTINUOUS
 62
     2
100
AcDbCircle
 10
345.0
 20
509.5
 30
0.0
 40
1.5
100
AcDbArc
 50
180.0
 51
270.0
  0
LINE
  5
180
100
AcDbEntity
  8
LAY-1
  6
CONTINUOUS
 62
     2
100
AcDbLine
 10
344.5
 20
520.736068
 30
0.0
 11
344.5
 21
529.456918
 31
0.0
  0
ARC
  5
181
100
AcDbEntity
  8
LAY-1
  6
CONTINUOUS
 62
     2
100
AcDbCircle
 10
338.5
 20
529.456918
 30
0.0
 40
6.0
100
AcDbArc
 50
0.0
 51
57.725197
  0
ARC
  5
182
100
AcDbEntity
  8
LAY-1
  6
CONTINUOUS
 62
     2
100
AcDbCircle
 10
366.0
 20
573.0
 30
0.0
 40
45.5
100
AcDbArc
 50
232.361229
 51
237.725197
  0
LINE
  5
183
100
AcDbEntity
  8
LAY-1
  6
CONTINUOUS
 62
     2
100
AcDbLine
 10
366.0
 20
508.0
 30
0.0
 11
345.0
 21
508.0
 31
0.0
  0
LINE
  5
184
100
AcDbEntity
  8
LAY-1
  6
CONTINUOUS
 62
     2
100
AcDbLine
 10
420.0
 20
505.5
 30
0.0
 11
420.0
 21
553.0
 31
0.0
  0
LINE
  5
185
100
AcDbEntity
  8
LAY-1
  6
CONTINUOUS
 62
     2
100
AcDbLine
 10
420.0
 20
553.0
 30
0.0
 11
420.0
 21
600.5
 31
0.0
  0
LINE
  5
186
100
AcDbEntity
  8
LAY-1
  6
CONTINUOUS
 62
     2
100
AcDbLine
 10
312.0
 20
553.0
 30
0.0
 11
312.0
 21
600.5
 31
0.0
  0
LINE
  5
187
100
AcDbEntity
  8
LAY-1
  6
CONTINUOUS
 62
     2
100
AcDbLine
 10
312.0
 20
505.5
 30
0.0
 11
312.0
 21
553.0
 31
0.0
  0
LINE
  5
188
100
AcDbEntity
  8
LAY-1
  6
CONTINUOUS
 62
     2
100
AcDbLine
 10
325.0
 20
507.0
 30
0.0
 11
325.0
 21
553.0
 31
0.0
  0
LINE
  5
189
100
AcDbEntity
  8
LAY-1
  6
CONTINUOUS
 62
     2
100
AcDbLine
 10
325.0
 20
553.0
 30
0.0
 11
325.0
 21
599.0
 31
0.0
  0
LINE
  5
18A
100
AcDbEntity
  8
LAY-1
  6
CONTINUOUS
 62
     2
100
AcDbLine
 10
407.0
 20
599.0
 30
0.0
 11
407.0
 21
553.0
 31
0.0
  0
LINE
  5
18B
100
AcDbEntity
  8
LAY-1
  6
CONTINUOUS
 62
     2
100
AcDbLine
 10
407.0
 20
553.0
 30
0.0
 11
407.0
 21
507.0
 31
0.0
  0
LINE
  5
18C
100
AcDbEntity
  8
LAY-1
  6
CONTINUOUS
 62
     2
100
AcDbLine
 10
344.0
 20
519.618034
 30
0.0
 11
388.0
 21
519.618034
 31
0.0
  0
LINE
  5
18D
100
AcDbEntity
  8
LAY-1
  6
CONTINUOUS
 62
     2
100
AcDbLine
 10
344.06069
 20
505.06069
 30
0.0
 11
344.06069
 21
506.302988
 31
0.0
  0
LINE
  5
18E
100
AcDbEntity
  8
LAY-1
  6
CONTINUOUS
 62
     2
100
AcDbLine
 10
344.06069
 20
505.06069
 30
0.0
 11
344.06069
 21
489.43931
 31
0.0
  0
LINE
  5
18F
100
AcDbEntity
  8
LAY-1
  6
CONTINUOUS
 62
     2
100
AcDbLine
 10
387.93931
 20
506.302988
 30
0.0
 11
385.0
 21
508.0
 31
0.0
  0
LINE
  5
190
100
AcDbEntity
  8
LAY-1
  6
CONTINUOUS
 62
     2
100
AcDbLine
 10
387.93931
 20
505.06069
 30
0.0
 11
387.93931
 21
506.302988
 31
0.0
  0
LINE
  5
191
100
AcDbEntity
  8
LAY-1
  6
CONTINUOUS
 62
     2
100
AcDbLine
 10
387.93931
 20
489.43931
 30
0.0
 11
387.93931
 21
505.06069
 31
0.0
  0
LINE
  5
192
100
AcDbEntity
  8
LAY-1
  6
CONTINUOUS
 62
     2
100
AcDbLine
 10
387.93931
 20
505.06069
 30
0.0
 11
387.93931
 21
489.43931
 31
0.0
  0
LINE
  5
193
100
AcDbEntity
  8
LAY-1
  6
CONTINUOUS
 62
     2
100
AcDbLine
 10
344.06069
 20
506.302988
 30
0.0
 11
347.0
 21
508.0
 31
0.0
  0
ARC
  5
194
100
AcDbEntity
  8
LAY-1
  6
CONTINUOUS
 62
     2
100
AcDbCircle
 10
346.5
 20
484.42265
 30
0.0
 40
1.0
100
AcDbArc
 50
0.0
 51
60.0
  0
LINE
  5
195
100
AcDbEntity
  8
LAY-1
  6
CONTINUOUS
 62
     2
100
AcDbLine
 10
344.06069
 20
486.985687
 30
0.0
 11
344.06069
 21
505.06069
 31
0.0
  0
ARC
  5
196
100
AcDbEntity
  8
LAY-1
  6
CONTINUOUS
 62
     2
100
AcDbCircle
 10
348.5
 20
471.0
 30
0.0
 40
1.0
100
AcDbArc
 50
180.0
 51
270.0
  0
LINE
  5
197
100
AcDbEntity
  8
LAY-1
  6
CONTINUOUS
 62
     2
100
AcDbLine
 10
348.5
 20
470.0
 30
0.0
 11
366.0
 21
470.0
 31
0.0
  0
ARC
  5
198
100
AcDbEntity
  8
LAY-1
  6
CONTINUOUS
 62
     2
100
AcDbCircle
 10
385.5
 20
484.42265
 30
0.0
 40
1.0
100
AcDbArc
 50
120.0
 51
180.0
  0
ARC
  5
199
100
AcDbEntity
  8
LAY-1
  6
CONTINUOUS
 62
     2
100
AcDbCircle
 10
383.5
 20
471.0
 30
0.0
 40
1.0
100
AcDbArc
 50
270.0
 51
0.0
  0
LINE
  5
19A
100
AcDbEntity
  8
LAY-1
  6
CONTINUOUS
 62
     2
100
AcDbLine
 10
384.5
 20
484.42265
 30
0.0
 11
384.5
 21
471.0
 31
0.0
  0
LINE
  5
19B
100
AcDbEntity
  8
LAY-1
  6
CONTINUOUS
 62
     2
100
AcDbLine
 10
385.0
 20
485.288675
 30
0.0
 11
387.93931
 21
486.985687
 31
0.0
  0
LINE
  5
19C
100
AcDbEntity
  8
LAY-1
  6
CONTINUOUS
 62
     2
100
AcDbLine
 10
387.93931
 20
486.985687
 30
0.0
 11
387.93931
 21
489.43931
 31
0.0
  0
LINE
  5
19D
100
AcDbEntity
  8
LAY-1
  6
CONTINUOUS
 62
     2
100
AcDbLine
 10
366.0
 20
508.0
 30
0.0
 11
385.0
 21
508.0
 31
0.0
  0
LINE
  5
19E
100
AcDbEntity
  8
LAY-1
  6
CONTINUOUS
 62
     2
100
AcDbLine
 10
366.0
 20
508.0
 30
0.0
 11
347.0
 21
508.0
 31
0.0
  0
LINE
  5
19F
100
AcDbEntity
  8
LAY-1
  6
CONTINUOUS
 62
     2
100
AcDbLine
 10
347.0
 20
485.288675
 30
0.0
 11
344.06069
 21
486.985687
 31
0.0
  0
LINE
  5
1A0
100
AcDbEntity
  8
LAY-1
  6
CONTINUOUS
 62
     2
100
AcDbLine
 10
347.5
 20
484.42265
 30
0.0
 11
347.5
 21
471.0
 31
0.0
  0
ARC
  5
1A1
100
AcDbEntity
  8
LAY-1
  6
CONTINUOUS
 62
     2
100
AcDbCircle
 10
366.0
 20
471.697012
 30
0.0
 40
36.302988
100
AcDbArc
 50
72.412046
 51
107.587954
  0
ARC
  5
1A2
100
AcDbEntity
  8
LAY-1
  6
CONTINUOUS
 62
     2
100
AcDbCircle
 10
382.454483
 20
498.287874
 30
0.0
 40
9.712126
100
AcDbArc
 50
55.615753
 51
124.384247
  0
ARC
  5
1A3
100
AcDbEntity
  8
LAY-1
  6
CONTINUOUS
 62
     2
100
AcDbCircle
 10
349.545517
 20
498.287874
 30
0.0
 40
9.712126
100
AcDbArc
 50
55.615753
 51
124.384247
  0
ARC
  5
1A4
100
AcDbEntity
  8
LAY-1
  6
CONTINUOUS
 62
     2
100
AcDbCircle
 10
349.545517
 20
495.000802
 30
0.0
 40
9.712126
100
AcDbArc
 50
235.615753
 51
304.384247
  0
ARC
  5
1A5
100
AcDbEntity
  8
LAY-1
  6
CONTINUOUS
 62
     2
100
AcDbCircle
 10
366.0
 20
521.591664
 30
0.0
 40
36.302988
100
AcDbArc
 50
252.412046
 51
287.587954
  0
ARC
  5
1A6
100
AcDbEntity
  8
LAY-1
  6
CONTINUOUS
 62
     2
100
AcDbCircle
 10
382.454483
 20
495.000802
 30
0.0
 40
9.712126
100
AcDbArc
 50
235.615753
 51
304.384247
  0
LINE
  5
1A7
100
AcDbEntity
  8
LAY-1
  6
CONTINUOUS
 62
     2
100
AcDbLine
 10
376.969655
 20
506.302988
 30
0.0
 11
376.969655
 21
486.985687
 31
0.0
  0
LINE
  5
1A8
100
AcDbEntity
  8
LAY-1
  6
CONTINUOUS
 62
     2
100
AcDbLine
 10
355.030345
 20
506.302988
 30
0.0
 11
355.030345
 21
486.985687
 31
0.0
  0
LINE
  5
1A9
100
AcDbEntity
  8
LAY-1
  6
CONTINUOUS
 62
     2
100
AcDbLine
 10
385.0
 20
485.288675
 30
0.0
 11
366.0
 21
485.288675
 31
0.0
  0
LINE
  5
1AA
100
AcDbEntity
  8
LAY-1
  6
CONTINUOUS
 62
     2
100
AcDbLine
 10
347.0
 20
485.288675
 30
0.0
 11
366.0
 21
485.288675
 31
0.0
  0
LINE
  5
1AB
100
AcDbEntity
  8
LAY-1
  6
CONTINUOUS
 62
     2
100
AcDbLine
 10
366.0
 20
461.0
 30
0.0
 11
382.0
 21
461.0
 31
0.0
  0
LINE
  5
1AC
100
AcDbEntity
  8
LAY-1
  6
CONTINUOUS
 62
     2
100
AcDbLine
 10
382.0
 20
461.0
 30
0.0
 11
384.475209
 21
462.429062
 31
0.0
  0
LINE
  5
1AD
100
AcDbEntity
  8
LAY-1
  6
CONTINUOUS
 62
     2
100
AcDbLine
 10
384.475209
 20
468.0
 30
0.0
 11
384.475209
 21
462.429062
 31
0.0
  0
LINE
  5
1AE
100
AcDbEntity
  8
LAY-1
  6
CONTINUOUS
 62
     2
100
AcDbLine
 10
350.0
 20
461.0
 30
0.0
 11
347.524791
 21
462.429062
 31
0.0
  0
LINE
  5
1AF
100
AcDbEntity
  8
LAY-1
  6
CONTINUOUS
 62
     2
100
AcDbLine
 10
366.0
 20
461.0
 30
0.0
 11
350.0
 21
461.0
 31
0.0
  0
LINE
  5
1B0
100
AcDbEntity
  8
LAY-1
  6
CONTINUOUS
 62
     2
100
AcDbLine
 10
347.524791
 20
468.0
 30
0.0
 11
347.524791
 21
462.429062
 31
0.0
  0
ARC
  5
1B1
100
AcDbEntity
  8
LAY-1
  6
CONTINUOUS
 62
     2
100
AcDbCircle
 10
366.018805
 20
491.449416
 30
0.0
 40
30.449422
100
AcDbArc
 50
252.376672
 51
287.623328
  0
ARC
  5
1B2
100
AcDbEntity
  8
LAY-1
  6
CONTINUOUS
 62
     2
100
AcDbCircle
 10
379.856409
 20
469.178624
 30
0.0
 40
8.178624
100
AcDbArc
 50
235.615733
 51
304.384267
  0
LINE
  5
1B3
100
AcDbEntity
  8
LAY-1
  6
CONTINUOUS
 62
     2
100
AcDbLine
 10
384.475209
 20
468.0
 30
0.0
 11
366.0
 21
468.0
 31
0.0
  0
LINE
  5
1B4
100
AcDbEntity
  8
LAY-1
  6
CONTINUOUS
 62
     2
100
AcDbLine
 10
347.524791
 20
468.0
 30
0.0
 11
366.0
 21
468.0
 31
0.0
  0
ARC
  5
1B5
100
AcDbEntity
  8
LAY-1
  6
CONTINUOUS
 62
     2
100
AcDbCircle
 10
352.143591
 20
469.178624
 30
0.0
 40
8.178624
100
AcDbArc
 50
235.615733
 51
304.384267
  0
LINE
  5
1B6
100
AcDbEntity
  8
LAY-1
  6
CONTINUOUS
 62
     2
100
AcDbLine
 10
375.23761
 20
462.429062
 30
0.0
 11
375.23761
 21
468.0
 31
0.0
  0
LINE
  5
1B7
100
AcDbEntity
  8
LAY-1
  6
CONTINUOUS
 62
     2
100
AcDbLine
 10
356.8
 20
462.429062
 30
0.0
 11
356.8
 21
468.0
 31
0.0
  0
LINE
  5
1B8
100
AcDbEntity
  8
LAY-1
  6
CONTINUOUS
 62
     2
100
AcDbLine
 10
383.5
 20
470.0
 30
0.0
 11
366.0
 21
470.0
 31
0.0
  0
LINE
  5
1B9
100
AcDbEntity
  8
LAY-1
  6
CONTINUOUS
 62
     2
100
AcDbLine
 10
381.0
 20
468.0
 30
0.0
 11
381.0
 21
470.0
 31
0.0
  0
LINE
  5
1BA
100
AcDbEntity
  8
LAY-1
  6
CONTINUOUS
 62
     2
100
AcDbLine
 10
351.0
 20
468.0
 30
0.0
 11
351.0
 21
470.0
 31
0.0
  0
LINE
  5
1BB
100
AcDbEntity
  8
LAY-1
  6
CONTINUOUS
 62
     2
100
AcDbLine
 10
361.0
 20
456.366025
 30
0.0
 11
366.0
 21
456.366025
 31
0.0
  0
LINE
  5
1BC
100
AcDbEntity
  8
LAY-1
  6
CONTINUOUS
 62
     2
100
AcDbLine
 10
361.0
 20
456.366025
 30
0.0
 11
361.5
 21
455.5
 31
0.0
  0
LINE
  5
1BD
100
AcDbEntity
  8
LAY-1
  6
CONTINUOUS
 62
     2
100
AcDbLine
 10
371.0
 20
456.366025
 30
0.0
 11
370.5
 21
455.5
 31
0.0
  0
LINE
  5
1BE
100
AcDbEntity
  8
LAY-1
  6
CONTINUOUS
 62
     2
100
AcDbLine
 10
371.0
 20
456.366025
 30
0.0
 11
366.0
 21
456.366025
 31
0.0
  0
LINE
  5
1BF
100
AcDbEntity
  8
LAY-1
  6
CONTINUOUS
 62
     2
100
AcDbLine
 10
371.0
 20
461.0
 30
0.0
 11
371.0
 21
456.366025
 31
0.0
  0
LINE
  5
1C0
100
AcDbEntity
  8
LAY-1
  6
CONTINUOUS
 62
     2
100
AcDbLine
 10
361.0
 20
461.0
 30
0.0
 11
361.0
 21
456.366025
 31
0.0
  0
LINE
  5
1C1
100
AcDbEntity
  8
LAY-1
  6
CONTINUOUS
 62
     2
100
AcDbLine
 10
366.0
 20
455.5
 30
0.0
 11
375.127732
 21
455.5
 31
0.0
  0
LINE
  5
1C2
100
AcDbEntity
  8
LAY-1
  6
CONTINUOUS
 62
     2
100
AcDbLine
 10
332.5
 20
448.5
 30
0.0
 11
333.257074
 21
448.5
 31
0.0
  0
ARC
  5
1C3
100
AcDbEntity
  8
LAY-1
  6
CONTINUOUS
 62
     2
100
AcDbCircle
 10
378.0
 20
455.366069
 30
0.0
 40
2.0
100
AcDbArc
 50
196.779519
 51
262.337744
  0
ARC
  5
1C4
100
AcDbEntity
  8
LAY-1
  6
CONTINUOUS
 62
     2
100
AcDbCircle
 10
375.127732
 20
454.5
 30
0.0
 40
1.0
100
AcDbArc
 50
16.779519
 51
90.0
  0
ARC
  5
1C5
100
AcDbEntity
  8
LAY-1
  6
CONTINUOUS
 62
     2
100
AcDbCircle
 10
332.5
 20
442.0
 30
0.0
 40
6.5
100
AcDbArc
 50
90.0
 51
270.0
  0
LINE
  5
1C6
100
AcDbEntity
  8
LAY-1
  6
CONTINUOUS
 62
     2
100
AcDbLine
 10
399.5
 20
435.5
 30
0.0
 11
395.0
 21
435.5
 31
0.0
  0
LINE
  5
1C7
100
AcDbEntity
  8
LAY-1
  6
CONTINUOUS
 62
     2
100
AcDbLine
 10
366.0
 20
455.5
 30
0.0
 11
356.872268
 21
455.5
 31
0.0
  0
ARC
  5
1C8
100
AcDbEntity
  8
LAY-1
  6
CONTINUOUS
 62
     2
100
AcDbCircle
 10
354.0
 20
455.366069
 30
0.0
 40
2.0
100
AcDbArc
 50
277.662256
 51
343.220481
  0
ARC
  5
1C9
100
AcDbEntity
  8
LAY-1
  6
CONTINUOUS
 62
     2
100
AcDbCircle
 10
356.872268
 20
454.5
 30
0.0
 40
1.0
100
AcDbArc
 50
90.0
 51
163.220481
  0
ARC
  5
1CA
100
AcDbEntity
  8
LAY-1
  6
CONTINUOUS
 62
     2
100
AcDbCircle
 10
399.5
 20
442.0
 30
0.0
 40
6.5
100
AcDbArc
 50
270.0
 51
90.0
  0
LINE
  5
1CB
100
AcDbEntity
  8
LAY-1
  6
CONTINUOUS
 62
     2
100
AcDbLine
 10
396.0
 20
435.5
 30
0.0
 11
366.0
 21
435.5
 31
0.0
  0
ARC
  5
1CC
100
AcDbEntity
  8
LAY-1
  6
CONTINUOUS
 62
     2
100
AcDbCircle
 10
376.0
 20
440.5
 30
0.0
 40
13.0
100
AcDbArc
 50
37.979872
 51
82.337744
  0
LINE
  5
1CD
100
AcDbEntity
  8
LAY-1
  6
CONTINUOUS
 62
     2
100
AcDbLine
 10
399.5
 20
448.5
 30
0.0
 11
366.0
 21
448.5
 31
0.0
  0
ARC
  5
1CE
100
AcDbEntity
  8
LAY-1
  6
CONTINUOUS
 62
     2
100
AcDbCircle
 10
356.0
 20
440.5
 30
0.0
 40
13.0
100
AcDbArc
 50
97.662256
 51
142.020128
  0
LINE
  5
1CF
100
AcDbEntity
  8
LAY-1
  6
CONTINUOUS
 62
     2
100
AcDbLine
 10
332.5
 20
448.5
 30
0.0
 11
366.0
 21
448.5
 31
0.0
  0
LINE
  5
1D0
100
AcDbEntity
  8
LAY-1
  6
CONTINUOUS
 62
     2
100
AcDbLine
 10
332.5
 20
435.5
 30
0.0
 11
366.0
 21
435.5
 31
0.0
  0
LINE
  5
1D1
100
AcDbEntity
  8
LAY-1
  6
CONTINUOUS
 62
     2
100
AcDbLine
 10
374.431387
 20
453.742653
 30
0.0
 11
375.09
 21
453.742653
 31
0.0
  0
LINE
  5
1D2
100
AcDbEntity
  8
LAY-1
  6
CONTINUOUS
 62
     2
100
AcDbLine
 10
372.57127
 20
452.477477
 30
0.0
 11
371.0
 21
448.5
 31
0.0
  0
ARC
  5
1D3
100
AcDbEntity
  8
LAY-1
  6
CONTINUOUS
 62
     2
100
AcDbCircle
 10
374.431387
 20
451.742653
 30
0.0
 40
2.0
100
AcDbArc
 50
90.0
 51
158.443902
  0
LINE
  5
1D4
100
AcDbEntity
  8
LAY-1
  6
CONTINUOUS
 62
     2
100
AcDbLine
 10
356.88
 20
453.742653
 30
0.0
 11
357.568613
 21
453.742653
 31
0.0
  0
LINE
  5
1D5
100
AcDbEntity
  8
LAY-1
  6
CONTINUOUS
 62
     2
100
AcDbLine
 10
359.42873
 20
452.477477
 30
0.0
 11
361.0
 21
448.5
 31
0.0
  0
ARC
  5
1D6
100
AcDbEntity
  8
LAY-1
  6
CONTINUOUS
 62
     2
100
AcDbCircle
 10
357.568613
 20
451.742653
 30
0.0
 40
2.0
100
AcDbArc
 50
21.556098
 51
90.0
  0
LINE
  5
1D7
100
AcDbEntity
  8
LAY-1
  6
EXLTYPE3
 62
     1
100
AcDbLine
 10
366.0
 20
584.271637
 30
0.0
 11
366.0
 21
429.2
 31
0.0
  0
LINE
  5
1D8
100
AcDbEntity
  8
LAY-1
  6
EXLTYPE3
 62
     1
100
AcDbLine
 10
427.4
 20
553.0
 30
0.0
 11
305.994862
 21
553.0
 31
0.0
  0
ARC
  5
1D9
100
AcDbEntity
  8
LAY-1
  6
CONTINUOUS
 62
     2
100
AcDbCircle
 10
366.0
 20
439.0
 30
0.0
 40
4.5
100
AcDbArc
 50
231.057559
 51
308.942441
  0
TEXT
  5
1DA
100
AcDbEntity
  8
LAY-1
  6
CONTINUOUS
 62
     4
100
AcDbText
 10
386.0
 20
563.5
 30
0.0
 40
7.0
  1
9
 50
180.0
 41
0.6
  7
EXCADSTD
 72
     5
 11
383.27
 21
563.5
 31
0.0
100
AcDbText
  0
TEXT
  5
1DB
100
AcDbEntity
  8
LAY-1
  6
CONTINUOUS
 62
     4
100
AcDbText
 10
368.0
 20
563.5
 30
0.0
 40
7.0
  1
7
 50
180.0
 41
0.6
  7
EXCADSTD
 72
     5
 11
365.27
 21
563.5
 31
0.0
100
AcDbText
  0
TEXT
  5
1DC
100
AcDbEntity
  8
LAY-1
  6
CONTINUOUS
 62
     4
100
AcDbText
 10
380.0
 20
563.5
 30
0.0
 40
7.0
  1
D
 50
180.0
 41
0.6
  7
EXCADSTD
 72
     5
 11
377.27
 21
563.5
 31
0.0
100
AcDbText
  0
LINE
  5
1DD
100
AcDbEntity
  8
LAY-1
  6
CONTINUOUS
 62
     2
100
AcDbLine
 10
387.0
 20
549.0
 30
0.0
 11
363.0
 21
549.0
 31
0.0
  0
LINE
  5
1DE
100
AcDbEntity
  8
LAY-1
  6
CONTINUOUS
 62
     2
100
AcDbLine
 10
381.0
 20
542.5
 30
0.0
 11
381.0
 21
555.5
 31
0.0
  0
LINE
  5
1DF
100
AcDbEntity
  8
LAY-1
  6
CONTINUOUS
 62
     2
100
AcDbLine
 10
375.0
 20
555.5
 30
0.0
 11
375.0
 21
542.5
 31
0.0
  0
LINE
  5
1E0
100
AcDbEntity
  8
LAY-1
  6
CONTINUOUS
 62
     2
100
AcDbLine
 10
363.0
 20
542.5
 30
0.0
 11
387.0
 21
542.5
 31
0.0
  0
LINE
  5
1E1
100
AcDbEntity
  8
LAY-1
  6
CONTINUOUS
 62
     2
100
AcDbLine
 10
363.0
 20
555.5
 30
0.0
 11
363.0
 21
542.5
 31
0.0
  0
LINE
  5
1E2
100
AcDbEntity
  8
LAY-1
  6
CONTINUOUS
 62
     2
100
AcDbLine
 10
387.0
 20
555.5
 30
0.0
 11
363.0
 21
555.5
 31
0.0
  0
LINE
  5
1E3
100
AcDbEntity
  8
LAY-1
  6
CONTINUOUS
 62
     2
100
AcDbLine
 10
387.0
 20
542.5
 30
0.0
 11
387.0
 21
555.5
 31
0.0
  0
LINE
  5
1E4
100
AcDbEntity
  8
LAY-1
  6
CONTINUOUS
 62
     2
100
AcDbLine
 10
369.0
 20
542.5
 30
0.0
 11
369.0
 21
555.5
 31
0.0
  0
LINE
  5
1E5
100
AcDbEntity
  8
LAY-1
  6
CONTINUOUS
 62
     2
100
AcDbLine
 10
344.0
 20
564.5
 30
0.0
 11
388.0
 21
564.5
 31
0.0
  0
LINE
  5
1E6
100
AcDbEntity
  8
LAY-1
  6
CONTINUOUS
 62
     2
100
AcDbLine
 10
344.0
 20
541.5
 30
0.0
 11
344.0
 21
564.5
 31
0.0
  0
LINE
  5
1E7
100
AcDbEntity
  8
LAY-1
  6
CONTINUOUS
 62
     2
100
AcDbLine
 10
388.0
 20
541.5
 30
0.0
 11
344.0
 21
541.5
 31
0.0
  0
LINE
  5
1E8
100
AcDbEntity
  8
LAY-1
  6
CONTINUOUS
 62
     2
100
AcDbLine
 10
388.0
 20
564.5
 30
0.0
 11
388.0
 21
541.5
 31
0.0
  0
LINE
  5
1E9
100
AcDbEntity
  8
LAY-1
  6
CONTINUOUS
 62
     2
100
AcDbLine
 10
356.477192
 20
552.905654
 30
0.0
 11
358.143876
 21
552.905654
 31
0.0
  0
LINE
  5
1EA
100
AcDbEntity
  8
LAY-1
  6
CONTINUOUS
 62
     2
100
AcDbLine
 10
356.477192
 20
555.405679
 30
0.0
 11
356.477192
 21
552.905654
 31
0.0
  0
LINE
  5
1EB
100
AcDbEntity
  8
LAY-1
  6
CONTINUOUS
 62
     2
100
AcDbLine
 10
357.477202
 20
555.905684
 30
0.0
 11
356.477192
 21
555.405679
 31
0.0
  0
LINE
  5
1EC
100
AcDbEntity
  8
LAY-1
  6
CONTINUOUS
 62
     2
100
AcDbLine
 10
353.477162
 20
555.905684
 30
0.0
 11
357.477202
 21
555.905684
 31
0.0
  0
LINE
  5
1ED
100
AcDbEntity
  8
LAY-1
  6
CONTINUOUS
 62
     2
100
AcDbLine
 10
354.477172
 20
555.405679
 30
0.0
 11
353.477162
 21
555.905684
 31
0.0
  0
LINE
  5
1EE
100
AcDbEntity
  8
LAY-1
  6
CONTINUOUS
 62
     2
100
AcDbLine
 10
354.477172
 20
552.905654
 30
0.0
 11
354.477172
 21
555.405679
 31
0.0
  0
LINE
  5
1EF
100
AcDbEntity
  8
LAY-1
  6
CONTINUOUS
 62
     2
100
AcDbLine
 10
353.477162
 20
552.905654
 30
0.0
 11
354.477172
 21
552.905654
 31
0.0
  0
LINE
  5
1F0
100
AcDbEntity
  8
LAY-1
  6
CONTINUOUS
 62
     2
100
AcDbLine
 10
351.477142
 20
552.905654
 30
0.0
 11
348.810449
 21
552.905654
 31
0.0
  0
LINE
  5
1F1
100
AcDbEntity
  8
LAY-1
  6
CONTINUOUS
 62
     2
100
AcDbLine
 10
357.477202
 20
550.905634
 30
0.0
 11
356.477192
 21
550.905634
 31
0.0
  0
LINE
  5
1F2
100
AcDbEntity
  8
LAY-1
  6
CONTINUOUS
 62
     2
100
AcDbLine
 10
354.477172
 20
550.905634
 30
0.0
 11
349.477122
 21
550.905634
 31
0.0
  0
LINE
  5
1F3
100
AcDbEntity
  8
LAY-1
  6
CONTINUOUS
 62
     2
100
AcDbLine
 10
349.477122
 20
550.905634
 30
0.0
 11
349.477122
 21
550.238961
 31
0.0
  0
LINE
  5
1F4
100
AcDbEntity
  8
LAY-1
  6
CONTINUOUS
 62
     2
100
AcDbLine
 10
349.477122
 20
550.238961
 30
0.0
 11
347.643771
 21
553.905664
 31
0.0
  0
LINE
  5
1F5
100
AcDbEntity
  8
LAY-1
  6
CONTINUOUS
 62
     2
100
AcDbLine
 10
347.643771
 20
553.905664
 30
0.0
 11
348.810449
 21
552.905654
 31
0.0
  0
LINE
  5
1F6
100
AcDbEntity
  8
LAY-1
  6
CONTINUOUS
 62
     2
100
AcDbLine
 10
357.477202
 20
550.905634
 30
0.0
 11
357.477202
 21
550.238961
 31
0.0
  0
LINE
  5
1F7
100
AcDbEntity
  8
LAY-1
  6
CONTINUOUS
 62
     2
100
AcDbLine
 10
357.477202
 20
550.238961
 30
0.0
 11
359.310554
 21
553.905664
 31
0.0
  0
LINE
  5
1F8
100
AcDbEntity
  8
LAY-1
  6
CONTINUOUS
 62
     2
100
AcDbLine
 10
359.310554
 20
553.905664
 30
0.0
 11
358.143876
 21
552.905654
 31
0.0
  0
LINE
  5
1F9
100
AcDbEntity
  8
LAY-1
  6
CONTINUOUS
 62
     2
100
AcDbLine
 10
353.477162
 20
552.905654
 30
0.0
 11
353.477162
 21
560.433593
 31
0.0
  0
LINE
  5
1FA
100
AcDbEntity
  8
LAY-1
  6
CONTINUOUS
 62
     2
100
AcDbLine
 10
353.477162
 20
561.405739
 30
0.0
 11
354.477172
 21
561.905744
 31
0.0
  0
LINE
  5
1FB
100
AcDbEntity
  8
LAY-1
  6
CONTINUOUS
 62
     2
100
AcDbLine
 10
354.477172
 20
561.905744
 30
0.0
 11
350.477132
 21
561.905744
 31
0.0
  0
LINE
  5
1FC
100
AcDbEntity
  8
LAY-1
  6
CONTINUOUS
 62
     2
100
AcDbLine
 10
350.477132
 20
561.905744
 30
0.0
 11
351.477142
 21
561.405739
 31
0.0
  0
LINE
  5
1FD
100
AcDbEntity
  8
LAY-1
  6
CONTINUOUS
 62
     2
100
AcDbLine
 10
351.477142
 20
561.405739
 30
0.0
 11
351.477142
 21
560.651698
 31
0.0
  0
LINE
  5
1FE
100
AcDbEntity
  8
LAY-1
  6
CONTINUOUS
 62
     2
100
AcDbLine
 10
357.477202
 20
543.905564
 30
0.0
 11
354.477172
 21
544.968321
 31
0.0
  0
LINE
  5
1FF
100
AcDbEntity
  8
LAY-1
  6
CONTINUOUS
 62
     2
100
AcDbLine
 10
357.477202
 20
543.905564
 30
0.0
 11
356.477192
 21
545.489381
 31
0.0
  0
LINE
  5
200
100
AcDbEntity
  8
LAY-1
  6
CONTINUOUS
 62
     2
100
AcDbLine
 10
356.477192
 20
550.905634
 30
0.0
 11
356.477192
 21
546.660594
 31
0.0
  0
ARC
  5
201
100
AcDbEntity
  8
LAY-1
  6
CONTINUOUS
 62
     2
100
AcDbCircle
 10
353.477162
 20
552.905654
 30
0.0
 40
8.00008
100
AcDbArc
 50
104.477512
 51
277.180756
  0
ARC
  5
202
100
AcDbEntity
  8
LAY-1
  6
CONTINUOUS
 62
     2
100
AcDbCircle
 10
353.477162
 20
552.905654
 30
0.0
 40
8.00008
100
AcDbArc
 50
292.024313
 51
90.0
  0
LINE
  5
203
100
AcDbEntity
  8
LAY-1
  6
CONTINUOUS
 62
     2
100
AcDbLine
 10
353.477162
 20
560.905734
 30
0.0
 11
353.477162
 21
561.405739
 31
0.0
  0
ARC
  5
204
100
AcDbEntity
  8
LAY-1
  6
CONTINUOUS
 62
     2
100
AcDbCircle
 10
351.477142
 20
552.905654
 30
0.0
 40
8.00008
100
AcDbArc
 50
308.682187
 51
63.434949
  0
ARC
  5
205
100
AcDbEntity
  8
LAY-1
  6
CONTINUOUS
 62
     2
100
AcDbCircle
 10
353.477162
 20
556.905694
 30
0.0
 40
3.527899
100
AcDbArc
 50
63.434949
 51
90.0
  0
ARC
  5
206
100
AcDbEntity
  8
LAY-1
  6
CONTINUOUS
 62
     2
100
AcDbCircle
 10
355.477182
 20
552.905654
 30
0.0
 40
8.00008
100
AcDbArc
 50
120.0
 51
243.434949
  0
ARC
  5
207
100
AcDbEntity
  8
LAY-1
  6
CONTINUOUS
 62
     2
100
AcDbCircle
 10
353.477162
 20
548.905614
 30
0.0
 40
3.527899
100
AcDbArc
 50
243.434949
 51
286.466676
  0
LINE
  5
208
100
AcDbEntity
  8
LAY-1
  6
CONTINUOUS
 62
     2
100
AcDbLine
 10
354.477172
 20
545.522412
 30
0.0
 11
354.477172
 21
550.905634
 31
0.0
  0
LINE
  5
209
100
AcDbEntity
  8
LAY-1
  6
CONTINUOUS
 62
     2
100
AcDbLine
 10
351.477142
 20
559.833927
 30
0.0
 11
351.477142
 21
552.905654
 31
0.0
  0
LINE
  5
20A
100
AcDbEntity
  8
LAY-1
  6
CONTINUOUS
 62
     2
100
AcDbLine
 10
372.0
 20
563.5
 30
0.0
 11
372.0
 21
556.5
 31
0.0
  0
LINE
  5
20B
100
AcDbEntity
  8
LAY-1
  6
EXLTYPE3
 62
     1
100
AcDbLine
 10
604.1
 20
413.127586
 30
0.0
 11
604.1
 21
350.888175
 31
0.0
  0
LINE
  5
20C
100
AcDbEntity
  8
LAY-1
  6
EXLTYPE3
 62
     1
100
AcDbLine
 10
604.1
 20
301.872414
 30
0.0
 11
604.1
 21
364.111825
 31
0.0
  0
LINE
  5
20D
100
AcDbEntity
  8
LAY-1
  6
EXLTYPE3
 62
     1
100
AcDbLine
 10
621.916328
 20
375.316328
 30
0.0
 11
640.851116
 21
394.251116
 31
0.0
  0
LINE
  5
20E
100
AcDbEntity
  8
LAY-1
  6
EXLTYPE3
 62
     1
100
AcDbLine
 10
586.717101
 20
374.882899
 30
0.0
 11
567.153565
 21
394.446435
 31
0.0
  0
LINE
  5
20F
100
AcDbEntity
  8
LAY-1
  6
EXLTYPE3
 62
     1
100
AcDbLine
 10
640.489356
 20
321.110644
 30
0.0
 11
621.796081
 21
339.803919
 31
0.0
  0
LINE
  5
210
100
AcDbEntity
  8
LAY-1
  6
EXLTYPE3
 62
     1
100
AcDbLine
 10
567.720461
 20
321.120461
 30
0.0
 11
586.235134
 21
339.635134
 31
0.0
  0
CIRCLE
  5
211
100
AcDbEntity
  8
LAY-1
  6
EXLTYPE3
 62
     1
100
AcDbCircle
 10
604.1
 20
357.5
 30
0.0
 40
35.0
  0
CIRCLE
  5
212
100
AcDbEntity
  8
LAY-1
  6
CONTINUOUS
 62
     2
100
AcDbCircle
 10
628.848737
 20
382.248737
 30
0.0
 40
7.5
  0
LINE
  5
213
100
AcDbEntity
  8
LAY-1
  6
CONTINUOUS
 62
     2
100
AcDbLine
 10
573.546136
 20
337.5
 30
0.0
 11
585.156389
 21
337.5
 31
0.0
  0
LINE
  5
214
100
AcDbEntity
  8
LAY-1
  6
CONTINUOUS
 62
     2
100
AcDbLine
 10
607.1
 20
357.5
 30
0.0
 11
607.1
 21
364.373864
 31
0.0
  0
LINE
  5
215
100
AcDbEntity
  8
LAY-1
  6
CONTINUOUS
 62
     2
100
AcDbLine
 10
607.1
 20
357.5
 30
0.0
 11
607.1
 21
350.626136
 31
0.0
  0
LINE
  5
216
100
AcDbEntity
  8
LAY-1
  6
CONTINUOUS
 62
     2
100
AcDbLine
 10
573.546136
 20
377.5
 30
0.0
 11
585.156389
 21
377.5
 31
0.0
  0
CIRCLE
  5
217
100
AcDbEntity
  8
LAY-1
  6
CONTINUOUS
 62
     2
100
AcDbCircle
 10
604.1
 20
357.5
 30
0.0
 40
47.5
  0
CIRCLE
  5
218
100
AcDbEntity
  8
LAY-1
  6
CONTINUOUS
 62
     2
100
AcDbCircle
 10
604.1
 20
357.5
 30
0.0
 40
7.5
  0
CIRCLE
  5
219
100
AcDbEntity
  8
LAY-1
  6
CONTINUOUS
 62
     2
100
AcDbCircle
 10
579.351263
 20
332.751263
 30
0.0
 40
7.5
  0
CIRCLE
  5
21A
100
AcDbEntity
  8
LAY-1
  6
CONTINUOUS
 62
     2
100
AcDbCircle
 10
579.351263
 20
382.248737
 30
0.0
 40
7.5
  0
CIRCLE
  5
21B
100
AcDbEntity
  8
LAY-1
  6
CONTINUOUS
 62
     2
100
AcDbCircle
 10
628.848737
 20
332.751263
 30
0.0
 40
7.5
  0
CIRCLE
  5
21C
100
AcDbEntity
  8
LAY-1
  6
CONTINUOUS
 62
     2
100
AcDbCircle
 10
604.1
 20
357.5
 30
0.0
 40
25.5
  0
ARC
  5
21D
100
AcDbEntity
  8
LAY-1
  6
CONTINUOUS
 62
     2
100
AcDbCircle
 10
560.6
 20
378.5
 30
0.0
 40
1.5
100
AcDbArc
 50
90.0
 51
180.0
  0
LINE
  5
21E
100
AcDbEntity
  8
LAY-1
  6
CONTINUOUS
 62
     2
100
AcDbLine
 10
559.1
 20
372.706906
 30
0.0
 11
559.1
 21
378.5
 31
0.0
  0
LINE
  5
21F
100
AcDbEntity
  8
LAY-1
  6
CONTINUOUS
 62
     2
100
AcDbLine
 10
560.6
 20
380.0
 30
0.0
 11
562.266999
 21
380.0
 31
0.0
  0
LINE
  5
220
100
AcDbEntity
  8
LAY-1
  6
CONTINUOUS
 62
     2
100
AcDbLine
 10
559.1
 20
342.293094
 30
0.0
 11
559.1
 21
336.5
 31
0.0
  0
ARC
  5
221
100
AcDbEntity
  8
LAY-1
  6
CONTINUOUS
 62
     2
100
AcDbCircle
 10
560.6
 20
336.5
 30
0.0
 40
1.5
100
AcDbArc
 50
180.0
 51
270.0
  0
LINE
  5
222
100
AcDbEntity
  8
LAY-1
  6
CONTINUOUS
 62
     2
100
AcDbLine
 10
560.6
 20
335.0
 30
0.0
 11
562.266999
 21
335.0
 31
0.0
  0
ARC
  5
223
100
AcDbEntity
  8
LAY-1
  6
CONTINUOUS
 62
     2
100
AcDbCircle
 10
535.52265
 20
338.0
 30
0.0
 40
1.0
100
AcDbArc
 50
30.0
 51
90.0
  0
ARC
  5
224
100
AcDbEntity
  8
LAY-1
  6
CONTINUOUS
 62
     2
100
AcDbCircle
 10
522.1
 20
340.0
 30
0.0
 40
1.0
100
AcDbArc
 50
180.0
 51
270.0
  0
LINE
  5
225
100
AcDbEntity
  8
LAY-1
  6
CONTINUOUS
 62
     2
100
AcDbLine
 10
521.1
 20
340.0
 30
0.0
 11
521.1
 21
357.5
 31
0.0
  0
ARC
  5
226
100
AcDbEntity
  8
LAY-1
  6
CONTINUOUS
 62
     2
100
AcDbCircle
 10
535.52265
 20
377.0
 30
0.0
 40
1.0
100
AcDbArc
 50
270.0
 51
330.0
  0
ARC
  5
227
100
AcDbEntity
  8
LAY-1
  6
CONTINUOUS
 62
     2
100
AcDbCircle
 10
522.1
 20
375.0
 30
0.0
 40
1.0
100
AcDbArc
 50
90.0
 51
180.0
  0
LINE
  5
228
100
AcDbEntity
  8
LAY-1
  6
CONTINUOUS
 62
     2
100
AcDbLine
 10
535.52265
 20
376.0
 30
0.0
 11
522.1
 21
376.0
 31
0.0
  0
LINE
  5
229
100
AcDbEntity
  8
LAY-1
  6
CONTINUOUS
 62
     2
100
AcDbLine
 10
536.388675
 20
376.5
 30
0.0
 11
538.085687
 21
379.43931
 31
0.0
  0
LINE
  5
22A
100
AcDbEntity
  8
LAY-1
  6
CONTINUOUS
 62
     2
100
AcDbLine
 10
538.085687
 20
379.43931
 30
0.0
 11
540.53931
 21
379.43931
 31
0.0
  0
LINE
  5
22B
100
AcDbEntity
  8
LAY-1
  6
CONTINUOUS
 62
     2
100
AcDbLine
 10
536.388675
 20
338.5
 30
0.0
 11
538.085687
 21
335.56069
 31
0.0
  0
LINE
  5
22C
100
AcDbEntity
  8
LAY-1
  6
CONTINUOUS
 62
     2
100
AcDbLine
 10
535.52265
 20
339.0
 30
0.0
 11
522.1
 21
339.0
 31
0.0
  0
ARC
  5
22D
100
AcDbEntity
  8
LAY-1
  6
CONTINUOUS
 62
     2
100
AcDbCircle
 10
546.100802
 20
341.045517
 30
0.0
 40
9.712126
100
AcDbArc
 50
145.615753
 51
214.384247
  0
ARC
  5
22E
100
AcDbEntity
  8
LAY-1
  6
CONTINUOUS
 62
     2
100
AcDbCircle
 10
572.691664
 20
357.5
 30
0.0
 40
36.302988
100
AcDbArc
 50
162.412046
 51
197.587954
  0
ARC
  5
22F
100
AcDbEntity
  8
LAY-1
  6
CONTINUOUS
 62
     2
100
AcDbCircle
 10
546.100802
 20
373.954483
 30
0.0
 40
9.712126
100
AcDbArc
 50
145.615753
 51
214.384247
  0
LINE
  5
230
100
AcDbEntity
  8
LAY-1
  6
CONTINUOUS
 62
     2
100
AcDbLine
 10
536.388675
 20
376.5
 30
0.0
 11
536.388675
 21
357.5
 31
0.0
  0
LINE
  5
231
100
AcDbEntity
  8
LAY-1
  6
CONTINUOUS
 62
     2
100
AcDbLine
 10
536.388675
 20
338.5
 30
0.0
 11
536.388675
 21
357.5
 31
0.0
  0
LINE
  5
232
100
AcDbEntity
  8
LAY-1
  6
CONTINUOUS
 62
     2
100
AcDbLine
 10
512.1
 20
357.5
 30
0.0
 11
512.1
 21
373.5
 31
0.0
  0
LINE
  5
233
100
AcDbEntity
  8
LAY-1
  6
CONTINUOUS
 62
     2
100
AcDbLine
 10
512.1
 20
373.5
 30
0.0
 11
513.529062
 21
375.975209
 31
0.0
  0
LINE
  5
234
100
AcDbEntity
  8
LAY-1
  6
CONTINUOUS
 62
     2
100
AcDbLine
 10
519.1
 20
375.975209
 30
0.0
 11
513.529062
 21
375.975209
 31
0.0
  0
LINE
  5
235
100
AcDbEntity
  8
LAY-1
  6
CONTINUOUS
 62
     2
100
AcDbLine
 10
512.1
 20
341.5
 30
0.0
 11
513.529062
 21
339.024791
 31
0.0
  0
LINE
  5
236
100
AcDbEntity
  8
LAY-1
  6
CONTINUOUS
 62
     2
100
AcDbLine
 10
512.1
 20
357.5
 30
0.0
 11
512.1
 21
341.5
 31
0.0
  0
LINE
  5
237
100
AcDbEntity
  8
LAY-1
  6
CONTINUOUS
 62
     2
100
AcDbLine
 10
519.1
 20
339.024791
 30
0.0
 11
513.529062
 21
339.024791
 31
0.0
  0
ARC
  5
238
100
AcDbEntity
  8
LAY-1
  6
CONTINUOUS
 62
     2
100
AcDbCircle
 10
542.549416
 20
357.518805
 30
0.0
 40
30.449422
100
AcDbArc
 50
162.376672
 51
197.623328
  0
ARC
  5
239
100
AcDbEntity
  8
LAY-1
  6
CONTINUOUS
 62
     2
100
AcDbCircle
 10
520.278624
 20
371.356409
 30
0.0
 40
8.178624
100
AcDbArc
 50
145.615733
 51
214.384267
  0
LINE
  5
23A
100
AcDbEntity
  8
LAY-1
  6
CONTINUOUS
 62
     2
100
AcDbLine
 10
519.1
 20
375.975209
 30
0.0
 11
519.1
 21
357.5
 31
0.0
  0
LINE
  5
23B
100
AcDbEntity
  8
LAY-1
  6
CONTINUOUS
 62
     2
100
AcDbLine
 10
519.1
 20
339.024791
 30
0.0
 11
519.1
 21
357.5
 31
0.0
  0
ARC
  5
23C
100
AcDbEntity
  8
LAY-1
  6
CONTINUOUS
 62
     2
100
AcDbCircle
 10
520.278624
 20
343.643591
 30
0.0
 40
8.178624
100
AcDbArc
 50
145.615733
 51
214.384267
  0
LINE
  5
23D
100
AcDbEntity
  8
LAY-1
  6
CONTINUOUS
 62
     2
100
AcDbLine
 10
513.529062
 20
366.73761
 30
0.0
 11
519.1
 21
366.73761
 31
0.0
  0
LINE
  5
23E
100
AcDbEntity
  8
LAY-1
  6
CONTINUOUS
 62
     2
100
AcDbLine
 10
513.529062
 20
348.3
 30
0.0
 11
519.1
 21
348.3
 31
0.0
  0
LINE
  5
23F
100
AcDbEntity
  8
LAY-1
  6
CONTINUOUS
 62
     2
100
AcDbLine
 10
521.1
 20
375.0
 30
0.0
 11
521.1
 21
357.5
 31
0.0
  0
LINE
  5
240
100
AcDbEntity
  8
LAY-1
  6
CONTINUOUS
 62
     2
100
AcDbLine
 10
519.1
 20
372.5
 30
0.0
 11
521.1
 21
372.5
 31
0.0
  0
LINE
  5
241
100
AcDbEntity
  8
LAY-1
  6
CONTINUOUS
 62
     2
100
AcDbLine
 10
519.1
 20
342.5
 30
0.0
 11
521.1
 21
342.5
 31
0.0
  0
LINE
  5
242
100
AcDbEntity
  8
LAY-1
  6
CONTINUOUS
 62
     2
100
AcDbLine
 10
507.466025
 20
352.5
 30
0.0
 11
507.466025
 21
357.5
 31
0.0
  0
LINE
  5
243
100
AcDbEntity
  8
LAY-1
  6
CONTINUOUS
 62
     2
100
AcDbLine
 10
507.466025
 20
352.5
 30
0.0
 11
506.6
 21
353.0
 31
0.0
  0
LINE
  5
244
100
AcDbEntity
  8
LAY-1
  6
CONTINUOUS
 62
     2
100
AcDbLine
 10
507.466025
 20
362.5
 30
0.0
 11
506.6
 21
362.0
 31
0.0
  0
LINE
  5
245
100
AcDbEntity
  8
LAY-1
  6
CONTINUOUS
 62
     2
100
AcDbLine
 10
507.466025
 20
362.5
 30
0.0
 11
507.466025
 21
357.5
 31
0.0
  0
LINE
  5
246
100
AcDbEntity
  8
LAY-1
  6
CONTINUOUS
 62
     2
100
AcDbLine
 10
512.1
 20
362.5
 30
0.0
 11
507.466025
 21
362.5
 31
0.0
  0
LINE
  5
247
100
AcDbEntity
  8
LAY-1
  6
CONTINUOUS
 62
     2
100
AcDbLine
 10
512.1
 20
352.5
 30
0.0
 11
507.466025
 21
352.5
 31
0.0
  0
LINE
  5
248
100
AcDbEntity
  8
LAY-1
  6
CONTINUOUS
 62
     2
100
AcDbLine
 10
506.6
 20
357.5
 30
0.0
 11
506.6
 21
366.627732
 31
0.0
  0
LINE
  5
249
100
AcDbEntity
  8
LAY-1
  6
CONTINUOUS
 62
     2
100
AcDbLine
 10
499.6
 20
324.0
 30
0.0
 11
499.6
 21
324.757074
 31
0.0
  0
ARC
  5
24A
100
AcDbEntity
  8
LAY-1
  6
CONTINUOUS
 62
     2
100
AcDbCircle
 10
506.466069
 20
369.5
 30
0.0
 40
2.0
100
AcDbArc
 50
187.662256
 51
253.220481
  0
ARC
  5
24B
100
AcDbEntity
  8
LAY-1
  6
CONTINUOUS
 62
     2
100
AcDbCircle
 10
505.6
 20
366.627732
 30
0.0
 40
1.0
100
AcDbArc
 50
0.0
 51
73.220481
  0
ARC
  5
24C
100
AcDbEntity
  8
LAY-1
  6
CONTINUOUS
 62
     2
100
AcDbCircle
 10
493.1
 20
324.0
 30
0.0
 40
6.5
100
AcDbArc
 50
180.0
 51
0.0
  0
LINE
  5
24D
100
AcDbEntity
  8
LAY-1
  6
CONTINUOUS
 62
     2
100
AcDbLine
 10
486.6
 20
391.0
 30
0.0
 11
486.6
 21
386.5
 31
0.0
  0
LINE
  5
24E
100
AcDbEntity
  8
LAY-1
  6
CONTINUOUS
 62
     2
100
AcDbLine
 10
506.6
 20
357.5
 30
0.0
 11
506.6
 21
348.372268
 31
0.0
  0
ARC
  5
24F
100
AcDbEntity
  8
LAY-1
  6
CONTINUOUS
 62
     2
100
AcDbCircle
 10
506.466069
 20
345.5
 30
0.0
 40
2.0
100
AcDbArc
 50
106.779519
 51
172.337744
  0
ARC
  5
250
100
AcDbEntity
  8
LAY-1
  6
CONTINUOUS
 62
     2
100
AcDbCircle
 10
505.6
 20
348.372268
 30
0.0
 40
1.0
100
AcDbArc
 50
286.779519
 51
0.0
  0
ARC
  5
251
100
AcDbEntity
  8
LAY-1
  6
CONTINUOUS
 62
     2
100
AcDbCircle
 10
493.1
 20
391.0
 30
0.0
 40
6.5
100
AcDbArc
 50
0.0
 51
180.0
  0
LINE
  5
252
100
AcDbEntity
  8
LAY-1
  6
CONTINUOUS
 62
     2
100
AcDbLine
 10
486.6
 20
387.5
 30
0.0
 11
486.6
 21
357.5
 31
0.0
  0
ARC
  5
253
100
AcDbEntity
  8
LAY-1
  6
CONTINUOUS
 62
     2
100
AcDbCircle
 10
491.6
 20
367.5
 30
0.0
 40
13.0
100
AcDbArc
 50
7.662256
 51
52.020128
  0
LINE
  5
254
100
AcDbEntity
  8
LAY-1
  6
CONTINUOUS
 62
     2
100
AcDbLine
 10
499.6
 20
391.0
 30
0.0
 11
499.6
 21
357.5
 31
0.0
  0
ARC
  5
255
100
AcDbEntity
  8
LAY-1
  6
CONTINUOUS
 62
     2
100
AcDbCircle
 10
491.6
 20
347.5
 30
0.0
 40
13.0
100
AcDbArc
 50
307.979872
 51
352.337744
  0
LINE
  5
256
100
AcDbEntity
  8
LAY-1
  6
CONTINUOUS
 62
     2
100
AcDbLine
 10
499.6
 20
324.0
 30
0.0
 11
499.6
 21
357.5
 31
0.0
  0
LINE
  5
257
100
AcDbEntity
  8
LAY-1
  6
CONTINUOUS
 62
     2
100
AcDbLine
 10
486.6
 20
324.0
 30
0.0
 11
486.6
 21
357.5
 31
0.0
  0
LINE
  5
258
100
AcDbEntity
  8
LAY-1
  6
CONTINUOUS
 62
     2
100
AcDbLine
 10
504.842653
 20
365.931387
 30
0.0
 11
504.842653
 21
366.59
 31
0.0
  0
LINE
  5
259
100
AcDbEntity
  8
LAY-1
  6
CONTINUOUS
 62
     2
100
AcDbLine
 10
503.577477
 20
364.07127
 30
0.0
 11
499.6
 21
362.5
 31
0.0
  0
ARC
  5
25A
100
AcDbEntity
  8
LAY-1
  6
CONTINUOUS
 62
     2
100
AcDbCircle
 10
502.842653
 20
365.931387
 30
0.0
 40
2.0
100
AcDbArc
 50
291.556098
 51
0.0
  0
LINE
  5
25B
100
AcDbEntity
  8
LAY-1
  6
CONTINUOUS
 62
     2
100
AcDbLine
 10
504.842653
 20
348.38
 30
0.0
 11
504.842653
 21
349.068613
 31
0.0
  0
LINE
  5
25C
100
AcDbEntity
  8
LAY-1
  6
CONTINUOUS
 62
     2
100
AcDbLine
 10
503.577477
 20
350.92873
 30
0.0
 11
499.6
 21
352.5
 31
0.0
  0
ARC
  5
25D
100
AcDbEntity
  8
LAY-1
  6
CONTINUOUS
 62
     2
100
AcDbCircle
 10
502.842653
 20
349.068613
 30
0.0
 40
2.0
100
AcDbArc
 50
0.0
 51
68.443902
  0
ARC
  5
25E
100
AcDbEntity
  8
LAY-1
  6
CONTINUOUS
 62
     2
100
AcDbCircle
 10
490.1
 20
357.5
 30
0.0
 40
4.5
100
AcDbArc
 50
141.057559
 51
218.942441
  0
LINE
  5
25F
100
AcDbEntity
  8
LAY-1
  6
CONTINUOUS
 62
     2
100
AcDbLine
 10
557.402988
 20
368.469655
 30
0.0
 11
538.085687
 21
368.469655
 31
0.0
  0
LINE
  5
260
100
AcDbEntity
  8
LAY-1
  6
CONTINUOUS
 62
     2
100
AcDbLine
 10
557.402988
 20
346.530345
 30
0.0
 11
538.085687
 21
346.530345
 31
0.0
  0
ARC
  5
261
100
AcDbEntity
  8
LAY-1
  6
CONTINUOUS
 62
     2
100
AcDbCircle
 10
549.387874
 20
341.045517
 30
0.0
 40
9.712126
100
AcDbArc
 50
325.615753
 51
34.384247
  0
ARC
  5
262
100
AcDbEntity
  8
LAY-1
  6
CONTINUOUS
 62
     2
100
AcDbCircle
 10
549.387874
 20
373.954483
 30
0.0
 40
9.712126
100
AcDbArc
 50
325.615753
 51
34.384247
  0
ARC
  5
263
100
AcDbEntity
  8
LAY-1
  6
CONTINUOUS
 62
     2
100
AcDbCircle
 10
522.797012
 20
357.5
 30
0.0
 40
36.302988
100
AcDbArc
 50
16.090411
 51
17.587954
  0
ARC
  5
264
100
AcDbEntity
  8
LAY-1
  6
CONTINUOUS
 62
     2
100
AcDbCircle
 10
522.797012
 20
357.5
 30
0.0
 40
36.302988
100
AcDbArc
 50
342.412046
 51
343.909589
  0
LINE
  5
265
100
AcDbEntity
  8
LAY-1
  6
CONTINUOUS
 62
     2
100
AcDbLine
 10
557.402988
 20
335.56069
 30
0.0
 11
538.085687
 21
335.56069
 31
0.0
  0
LINE
  5
266
100
AcDbEntity
  8
LAY-1
  6
CONTINUOUS
 62
     2
100
AcDbLine
 10
540.53931
 20
379.43931
 30
0.0
 11
557.402988
 21
379.43931
 31
0.0
  0
LINE
  5
267
100
AcDbEntity
  8
LAY-1
  6
CONTINUOUS
 62
     2
100
AcDbLine
 10
557.402988
 20
379.43931
 30
0.0
 11
559.1
 21
376.5
 31
0.0
  0
LINE
  5
268
100
AcDbEntity
  8
LAY-1
  6
CONTINUOUS
 62
     2
100
AcDbLine
 10
557.402988
 20
335.56069
 30
0.0
 11
559.1
 21
338.5
 31
0.0
  0
LINE
  5
269
100
AcDbEntity
  8
LAY-1
  6
EXLTYPE3
 62
     1
100
AcDbLine
 10
481.6
 20
357.5
 30
0.0
 11
661.776158
 21
357.5
 31
0.0
  0
LINE
  5
26A
100
AcDbEntity
  8
LAY-1
  6
EXLTYPE3
 62
     1
100
AcDbLine
 10
127.9
 20
413.127586
 30
0.0
 11
127.9
 21
350.888175
 31
0.0
  0
LINE
  5
26B
100
AcDbEntity
  8
LAY-1
  6
EXLTYPE3
 62
     1
100
AcDbLine
 10
127.9
 20
301.872414
 30
0.0
 11
127.9
 21
364.111825
 31
0.0
  0
LINE
  5
26C
100
AcDbEntity
  8
LAY-1
  6
EXLTYPE3
 62
     1
100
AcDbLine
 10
110.083672
 20
375.316328
 30
0.0
 11
91.148884
 21
394.251116
 31
0.0
  0
LINE
  5
26D
100
AcDbEntity
  8
LAY-1
  6
EXLTYPE3
 62
     1
100
AcDbLine
 10
145.282899
 20
374.882899
 30
0.0
 11
164.846435
 21
394.446435
 31
0.0
  0
LINE
  5
26E
100
AcDbEntity
  8
LAY-1
  6
EXLTYPE3
 62
     1
100
AcDbLine
 10
91.510644
 20
321.110644
 30
0.0
 11
110.203919
 21
339.803919
 31
0.0
  0
LINE
  5
26F
100
AcDbEntity
  8
LAY-1
  6
EXLTYPE3
 62
     1
100
AcDbLine
 10
164.279539
 20
321.120461
 30
0.0
 11
145.764866
 21
339.635134
 31
0.0
  0
CIRCLE
  5
270
100
AcDbEntity
  8
LAY-1
  6
EXLTYPE3
 62
     1
100
AcDbCircle
 10
127.9
 20
357.5
 30
0.0
 40
35.0
  0
CIRCLE
  5
271
100
AcDbEntity
  8
LAY-1
  6
CONTINUOUS
 62
     2
100
AcDbCircle
 10
103.151263
 20
382.248737
 30
0.0
 40
7.5
  0
LINE
  5
272
100
AcDbEntity
  8
LAY-1
  6
CONTINUOUS
 62
     2
100
AcDbLine
 10
158.453864
 20
337.5
 30
0.0
 11
146.843611
 21
337.5
 31
0.0
  0
LINE
  5
273
100
AcDbEntity
  8
LAY-1
  6
CONTINUOUS
 62
     2
100
AcDbLine
 10
158.453864
 20
377.5
 30
0.0
 11
146.843611
 21
377.5
 31
0.0
  0
CIRCLE
  5
274
100
AcDbEntity
  8
LAY-1
  6
CONTINUOUS
 62
     2
100
AcDbCircle
 10
127.9
 20
357.5
 30
0.0
 40
47.5
  0
CIRCLE
  5
275
100
AcDbEntity
  8
LAY-1
  6
CONTINUOUS
 62
     2
100
AcDbCircle
 10
127.9
 20
357.5
 30
0.0
 40
7.5
  0
CIRCLE
  5
276
100
AcDbEntity
  8
LAY-1
  6
CONTINUOUS
 62
     2
100
AcDbCircle
 10
152.648737
 20
332.751263
 30
0.0
 40
7.5
  0
CIRCLE
  5
277
100
AcDbEntity
  8
LAY-1
  6
CONTINUOUS
 62
     2
100
AcDbCircle
 10
152.648737
 20
382.248737
 30
0.0
 40
7.5
  0
CIRCLE
  5
278
100
AcDbEntity
  8
LAY-1
  6
CONTINUOUS
 62
     2
100
AcDbCircle
 10
103.151263
 20
332.751263
 30
0.0
 40
7.5
  0
CIRCLE
  5
279
100
AcDbEntity
  8
LAY-1
  6
CONTINUOUS
 62
     2
100
AcDbCircle
 10
127.9
 20
357.5
 30
0.0
 40
25.5
  0
ARC
  5
27A
100
AcDbEntity
  8
LAY-1
  6
CONTINUOUS
 62
     2
100
AcDbCircle
 10
171.4
 20
378.5
 30
0.0
 40
1.5
100
AcDbArc
 50
0.0
 51
90.0
  0
LINE
  5
27B
100
AcDbEntity
  8
LAY-1
  6
CONTINUOUS
 62
     2
100
AcDbLine
 10
172.9
 20
372.706906
 30
0.0
 11
172.9
 21
378.5
 31
0.0
  0
LINE
  5
27C
100
AcDbEntity
  8
LAY-1
  6
CONTINUOUS
 62
     2
100
AcDbLine
 10
171.4
 20
380.0
 30
0.0
 11
169.733001
 21
380.0
 31
0.0
  0
LINE
  5
27D
100
AcDbEntity
  8
LAY-1
  6
CONTINUOUS
 62
     2
100
AcDbLine
 10
172.9
 20
342.293094
 30
0.0
 11
172.9
 21
336.5
 31
0.0
  0
ARC
  5
27E
100
AcDbEntity
  8
LAY-1
  6
CONTINUOUS
 62
     2
100
AcDbCircle
 10
171.4
 20
336.5
 30
0.0
 40
1.5
100
AcDbArc
 50
270.0
 51
0.0
  0
LINE
  5
27F
100
AcDbEntity
  8
LAY-1
  6
CONTINUOUS
 62
     2
100
AcDbLine
 10
171.4
 20
335.0
 30
0.0
 11
169.733001
 21
335.0
 31
0.0
  0
ARC
  5
280
100
AcDbEntity
  8
LAY-1
  6
CONTINUOUS
 62
     2
100
AcDbCircle
 10
196.47735
 20
338.0
 30
0.0
 40
1.0
100
AcDbArc
 50
90.0
 51
150.0
  0
ARC
  5
281
100
AcDbEntity
  8
LAY-1
  6
CONTINUOUS
 62
     2
100
AcDbCircle
 10
209.9
 20
340.0
 30
0.0
 40
1.0
100
AcDbArc
 50
270.0
 51
0.0
  0
LINE
  5
282
100
AcDbEntity
  8
LAY-1
  6
CONTINUOUS
 62
     2
100
AcDbLine
 10
210.9
 20
340.0
 30
0.0
 11
210.9
 21
357.5
 31
0.0
  0
ARC
  5
283
100
AcDbEntity
  8
LAY-1
  6
CONTINUOUS
 62
     2
100
AcDbCircle
 10
196.47735
 20
377.0
 30
0.0
 40
1.0
100
AcDbArc
 50
210.0
 51
270.0
  0
ARC
  5
284
100
AcDbEntity
  8
LAY-1
  6
CONTINUOUS
 62
     2
100
AcDbCircle
 10
209.9
 20
375.0
 30
0.0
 40
1.0
100
AcDbArc
 50
0.0
 51
90.0
  0
LINE
  5
285
100
AcDbEntity
  8
LAY-1
  6
CONTINUOUS
 62
     2
100
AcDbLine
 10
196.47735
 20
376.0
 30
0.0
 11
209.9
 21
376.0
 31
0.0
  0
LINE
  5
286
100
AcDbEntity
  8
LAY-1
  6
CONTINUOUS
 62
     2
100
AcDbLine
 10
195.611325
 20
376.5
 30
0.0
 11
193.914313
 21
379.43931
 31
0.0
  0
LINE
  5
287
100
AcDbEntity
  8
LAY-1
  6
CONTINUOUS
 62
     2
100
AcDbLine
 10
193.914313
 20
379.43931
 30
0.0
 11
191.46069
 21
379.43931
 31
0.0
  0
LINE
  5
288
100
AcDbEntity
  8
LAY-1
  6
CONTINUOUS
 62
     2
100
AcDbLine
 10
195.611325
 20
338.5
 30
0.0
 11
193.914313
 21
335.56069
 31
0.0
  0
LINE
  5
289
100
AcDbEntity
  8
LAY-1
  6
CONTINUOUS
 62
     2
100
AcDbLine
 10
196.47735
 20
339.0
 30
0.0
 11
209.9
 21
339.0
 31
0.0
  0
ARC
  5
28A
100
AcDbEntity
  8
LAY-1
  6
CONTINUOUS
 62
     2
100
AcDbCircle
 10
185.899198
 20
341.045517
 30
0.0
 40
9.712126
100
AcDbArc
 50
325.615753
 51
34.384247
  0
ARC
  5
28B
100
AcDbEntity
  8
LAY-1
  6
CONTINUOUS
 62
     2
100
AcDbCircle
 10
159.308336
 20
357.5
 30
0.0
 40
36.302988
100
AcDbArc
 50
342.412046
 51
17.587954
  0
ARC
  5
28C
100
AcDbEntity
  8
LAY-1
  6
CONTINUOUS
 62
     2
100
AcDbCircle
 10
185.899198
 20
373.954483
 30
0.0
 40
9.712126
100
AcDbArc
 50
325.615753
 51
34.384247
  0
LINE
  5
28D
100
AcDbEntity
  8
LAY-1
  6
CONTINUOUS
 62
     2
100
AcDbLine
 10
195.611325
 20
376.5
 30
0.0
 11
195.611325
 21
357.5
 31
0.0
  0
LINE
  5
28E
100
AcDbEntity
  8
LAY-1
  6
CONTINUOUS
 62
     2
100
AcDbLine
 10
195.611325
 20
338.5
 30
0.0
 11
195.611325
 21
357.5
 31
0.0
  0
LINE
  5
28F
100
AcDbEntity
  8
LAY-1
  6
CONTINUOUS
 62
     2
100
AcDbLine
 10
219.9
 20
357.5
 30
0.0
 11
219.9
 21
373.5
 31
0.0
  0
LINE
  5
290
100
AcDbEntity
  8
LAY-1
  6
CONTINUOUS
 62
     2
100
AcDbLine
 10
219.9
 20
373.5
 30
0.0
 11
218.470938
 21
375.975209
 31
0.0
  0
LINE
  5
291
100
AcDbEntity
  8
LAY-1
  6
CONTINUOUS
 62
     2
100
AcDbLine
 10
212.9
 20
375.975209
 30
0.0
 11
218.470938
 21
375.975209
 31
0.0
  0
LINE
  5
292
100
AcDbEntity
  8
LAY-1
  6
CONTINUOUS
 62
     2
100
AcDbLine
 10
219.9
 20
341.5
 30
0.0
 11
218.470938
 21
339.024791
 31
0.0
  0
LINE
  5
293
100
AcDbEntity
  8
LAY-1
  6
CONTINUOUS
 62
     2
100
AcDbLine
 10
219.9
 20
357.5
 30
0.0
 11
219.9
 21
341.5
 31
0.0
  0
LINE
  5
294
100
AcDbEntity
  8
LAY-1
  6
CONTINUOUS
 62
     2
100
AcDbLine
 10
212.9
 20
339.024791
 30
0.0
 11
218.470938
 21
339.024791
 31
0.0
  0
ARC
  5
295
100
AcDbEntity
  8
LAY-1
  6
CONTINUOUS
 62
     2
100
AcDbCircle
 10
189.450584
 20
357.518805
 30
0.0
 40
30.449422
100
AcDbArc
 50
342.376672
 51
17.623328
  0
ARC
  5
296
100
AcDbEntity
  8
LAY-1
  6
CONTINUOUS
 62
     2
100
AcDbCircle
 10
211.721376
 20
371.356409
 30
0.0
 40
8.178624
100
AcDbArc
 50
325.615733
 51
34.384267
  0
LINE
  5
297
100
AcDbEntity
  8
LAY-1
  6
CONTINUOUS
 62
     2
100
AcDbLine
 10
212.9
 20
375.975209
 30
0.0
 11
212.9
 21
357.5
 31
0.0
  0
LINE
  5
298
100
AcDbEntity
  8
LAY-1
  6
CONTINUOUS
 62
     2
100
AcDbLine
 10
212.9
 20
339.024791
 30
0.0
 11
212.9
 21
357.5
 31
0.0
  0
ARC
  5
299
100
AcDbEntity
  8
LAY-1
  6
CONTINUOUS
 62
     2
100
AcDbCircle
 10
211.721376
 20
343.643591
 30
0.0
 40
8.178624
100
AcDbArc
 50
325.615733
 51
34.384267
  0
LINE
  5
29A
100
AcDbEntity
  8
LAY-1
  6
CONTINUOUS
 62
     2
100
AcDbLine
 10
218.470938
 20
366.73761
 30
0.0
 11
212.9
 21
366.73761
 31
0.0
  0
LINE
  5
29B
100
AcDbEntity
  8
LAY-1
  6
CONTINUOUS
 62
     2
100
AcDbLine
 10
218.470938
 20
348.3
 30
0.0
 11
212.9
 21
348.3
 31
0.0
  0
LINE
  5
29C
100
AcDbEntity
  8
LAY-1
  6
CONTINUOUS
 62
     2
100
AcDbLine
 10
210.9
 20
375.0
 30
0.0
 11
210.9
 21
357.5
 31
0.0
  0
LINE
  5
29D
100
AcDbEntity
  8
LAY-1
  6
CONTINUOUS
 62
     2
100
AcDbLine
 10
212.9
 20
372.5
 30
0.0
 11
210.9
 21
372.5
 31
0.0
  0
LINE
  5
29E
100
AcDbEntity
  8
LAY-1
  6
CONTINUOUS
 62
     2
100
AcDbLine
 10
212.9
 20
342.5
 30
0.0
 11
210.9
 21
342.5
 31
0.0
  0
LINE
  5
29F
100
AcDbEntity
  8
LAY-1
  6
CONTINUOUS
 62
     2
100
AcDbLine
 10
224.533975
 20
352.5
 30
0.0
 11
224.533975
 21
357.5
 31
0.0
  0
LINE
  5
2A0
100
AcDbEntity
  8
LAY-1
  6
CONTINUOUS
 62
     2
100
AcDbLine
 10
224.533975
 20
352.5
 30
0.0
 11
225.4
 21
353.0
 31
0.0
  0
LINE
  5
2A1
100
AcDbEntity
  8
LAY-1
  6
CONTINUOUS
 62
     2
100
AcDbLine
 10
224.533975
 20
362.5
 30
0.0
 11
225.4
 21
362.0
 31
0.0
  0
LINE
  5
2A2
100
AcDbEntity
  8
LAY-1
  6
CONTINUOUS
 62
     2
100
AcDbLine
 10
224.533975
 20
362.5
 30
0.0
 11
224.533975
 21
357.5
 31
0.0
  0
LINE
  5
2A3
100
AcDbEntity
  8
LAY-1
  6
CONTINUOUS
 62
     2
100
AcDbLine
 10
219.9
 20
362.5
 30
0.0
 11
224.533975
 21
362.5
 31
0.0
  0
LINE
  5
2A4
100
AcDbEntity
  8
LAY-1
  6
CONTINUOUS
 62
     2
100
AcDbLine
 10
219.9
 20
352.5
 30
0.0
 11
224.533975
 21
352.5
 31
0.0
  0
LINE
  5
2A5
100
AcDbEntity
  8
LAY-1
  6
CONTINUOUS
 62
     2
100
AcDbLine
 10
225.4
 20
357.5
 30
0.0
 11
225.4
 21
366.627732
 31
0.0
  0
LINE
  5
2A6
100
AcDbEntity
  8
LAY-1
  6
CONTINUOUS
 62
     2
100
AcDbLine
 10
232.4
 20
324.0
 30
0.0
 11
232.4
 21
324.757074
 31
0.0
  0
ARC
  5
2A7
100
AcDbEntity
  8
LAY-1
  6
CONTINUOUS
 62
     2
100
AcDbCircle
 10
225.533931
 20
369.5
 30
0.0
 40
2.0
100
AcDbArc
 50
286.779519
 51
352.337744
  0
ARC
  5
2A8
100
AcDbEntity
  8
LAY-1
  6
CONTINUOUS
 62
     2
100
AcDbCircle
 10
226.4
 20
366.627732
 30
0.0
 40
1.0
100
AcDbArc
 50
106.779519
 51
180.0
  0
ARC
  5
2A9
100
AcDbEntity
  8
LAY-1
  6
CONTINUOUS
 62
     2
100
AcDbCircle
 10
238.9
 20
324.0
 30
0.0
 40
6.5
100
AcDbArc
 50
180.0
 51
0.0
  0
LINE
  5
2AA
100
AcDbEntity
  8
LAY-1
  6
CONTINUOUS
 62
     2
100
AcDbLine
 10
245.4
 20
391.0
 30
0.0
 11
245.4
 21
386.5
 31
0.0
  0
LINE
  5
2AB
100
AcDbEntity
  8
LAY-1
  6
CONTINUOUS
 62
     2
100
AcDbLine
 10
225.4
 20
357.5
 30
0.0
 11
225.4
 21
348.372268
 31
0.0
  0
ARC
  5
2AC
100
AcDbEntity
  8
LAY-1
  6
CONTINUOUS
 62
     2
100
AcDbCircle
 10
225.533931
 20
345.5
 30
0.0
 40
2.0
100
AcDbArc
 50
7.662256
 51
73.220481
  0
ARC
  5
2AD
100
AcDbEntity
  8
LAY-1
  6
CONTINUOUS
 62
     2
100
AcDbCircle
 10
226.4
 20
348.372268
 30
0.0
 40
1.0
100
AcDbArc
 50
180.0
 51
253.220481
  0
ARC
  5
2AE
100
AcDbEntity
  8
LAY-1
  6
CONTINUOUS
 62
     2
100
AcDbCircle
 10
238.9
 20
391.0
 30
0.0
 40
6.5
100
AcDbArc
 50
0.0
 51
180.0
  0
LINE
  5
2AF
100
AcDbEntity
  8
LAY-1
  6
CONTINUOUS
 62
     2
100
AcDbLine
 10
245.4
 20
387.5
 30
0.0
 11
245.4
 21
357.5
 31
0.0
  0
ARC
  5
2B0
100
AcDbEntity
  8
LAY-1
  6
CONTINUOUS
 62
     2
100
AcDbCircle
 10
240.4
 20
367.5
 30
0.0
 40
13.0
100
AcDbArc
 50
127.979872
 51
172.337744
  0
LINE
  5
2B1
100
AcDbEntity
  8
LAY-1
  6
CONTINUOUS
 62
     2
100
AcDbLine
 10
232.4
 20
391.0
 30
0.0
 11
232.4
 21
357.5
 31
0.0
  0
ARC
  5
2B2
100
AcDbEntity
  8
LAY-1
  6
CONTINUOUS
 62
     2
100
AcDbCircle
 10
240.4
 20
347.5
 30
0.0
 40
13.0
100
AcDbArc
 50
187.662256
 51
232.020128
  0
LINE
  5
2B3
100
AcDbEntity
  8
LAY-1
  6
CONTINUOUS
 62
     2
100
AcDbLine
 10
232.4
 20
324.0
 30
0.0
 11
232.4
 21
357.5
 31
0.0
  0
LINE
  5
2B4
100
AcDbEntity
  8
LAY-1
  6
CONTINUOUS
 62
     2
100
AcDbLine
 10
245.4
 20
324.0
 30
0.0
 11
245.4
 21
357.5
 31
0.0
  0
LINE
  5
2B5
100
AcDbEntity
  8
LAY-1
  6
CONTINUOUS
 62
     2
100
AcDbLine
 10
227.157347
 20
365.931387
 30
0.0
 11
227.157347
 21
366.59
 31
0.0
  0
LINE
  5
2B6
100
AcDbEntity
  8
LAY-1
  6
CONTINUOUS
 62
     2
100
AcDbLine
 10
228.422523
 20
364.07127
 30
0.0
 11
232.4
 21
362.5
 31
0.0
  0
ARC
  5
2B7
100
AcDbEntity
  8
LAY-1
  6
CONTINUOUS
 62
     2
100
AcDbCircle
 10
229.157347
 20
365.931387
 30
0.0
 40
2.0
100
AcDbArc
 50
180.0
 51
248.443902
  0
LINE
  5
2B8
100
AcDbEntity
  8
LAY-1
  6
CONTINUOUS
 62
     2
100
AcDbLine
 10
227.157347
 20
348.38
 30
0.0
 11
227.157347
 21
349.068613
 31
0.0
  0
LINE
  5
2B9
100
AcDbEntity
  8
LAY-1
  6
CONTINUOUS
 62
     2
100
AcDbLine
 10
228.422523
 20
350.92873
 30
0.0
 11
232.4
 21
352.5
 31
0.0
  0
ARC
  5
2BA
100
AcDbEntity
  8
LAY-1
  6
CONTINUOUS
 62
     2
100
AcDbCircle
 10
229.157347
 20
349.068613
 30
0.0
 40
2.0
100
AcDbArc
 50
111.556098
 51
180.0
  0
ARC
  5
2BB
100
AcDbEntity
  8
LAY-1
  6
CONTINUOUS
 62
     2
100
AcDbCircle
 10
241.9
 20
357.5
 30
0.0
 40
4.5
100
AcDbArc
 50
321.057559
 51
38.942441
  0
LINE
  5
2BC
100
AcDbEntity
  8
LAY-1
  6
CONTINUOUS
 62
     2
100
AcDbLine
 10
174.597012
 20
368.469655
 30
0.0
 11
193.914313
 21
368.469655
 31
0.0
  0
LINE
  5
2BD
100
AcDbEntity
  8
LAY-1
  6
CONTINUOUS
 62
     2
100
AcDbLine
 10
174.597012
 20
346.530345
 30
0.0
 11
193.914313
 21
346.530345
 31
0.0
  0
ARC
  5
2BE
100
AcDbEntity
  8
LAY-1
  6
CONTINUOUS
 62
     2
100
AcDbCircle
 10
182.612126
 20
341.045517
 30
0.0
 40
9.712126
100
AcDbArc
 50
145.615753
 51
214.384247
  0
ARC
  5
2BF
100
AcDbEntity
  8
LAY-1
  6
CONTINUOUS
 62
     2
100
AcDbCircle
 10
182.612126
 20
373.954483
 30
0.0
 40
9.712126
100
AcDbArc
 50
145.615753
 51
214.384247
  0
ARC
  5
2C0
100
AcDbEntity
  8
LAY-1
  6
CONTINUOUS
 62
     2
100
AcDbCircle
 10
209.202988
 20
357.5
 30
0.0
 40
36.302988
100
AcDbArc
 50
162.412046
 51
163.909589
  0
ARC
  5
2C1
100
AcDbEntity
  8
LAY-1
  6
CONTINUOUS
 62
     2
100
AcDbCircle
 10
209.202988
 20
357.5
 30
0.0
 40
36.302988
100
AcDbArc
 50
196.090411
 51
197.587954
  0
LINE
  5
2C2
100
AcDbEntity
  8
LAY-1
  6
CONTINUOUS
 62
     2
100
AcDbLine
 10
174.597012
 20
335.56069
 30
0.0
 11
193.914313
 21
335.56069
 31
0.0
  0
LINE
  5
2C3
100
AcDbEntity
  8
LAY-1
  6
CONTINUOUS
 62
     2
100
AcDbLine
 10
191.46069
 20
379.43931
 30
0.0
 11
174.597012
 21
379.43931
 31
0.0
  0
LINE
  5
2C4
100
AcDbEntity
  8
LAY-1
  6
CONTINUOUS
 62
     2
100
AcDbLine
 10
174.597012
 20
379.43931
 30
0.0
 11
172.9
 21
376.5
 31
0.0
  0
LINE
  5
2C5
100
AcDbEntity
  8
LAY-1
  6
CONTINUOUS
 62
     2
100
AcDbLine
 10
174.597012
 20
335.56069
 30
0.0
 11
172.9
 21
338.5
 31
0.0
  0
LINE
  5
2C6
100
AcDbEntity
  8
LAY-1
  6
EXLTYPE3
 62
     1
100
AcDbLine
 10
250.4
 20
357.5
 30
0.0
 11
70.223842
 21
357.5
 31
0.0
  0
LINE
  5
2C7
100
AcDbEntity
  8
LAY-1
  6
CONTINUOUS
 62
     2
100
AcDbLine
 10
130.9
 20
364.373864
 30
0.0
 11
130.9
 21
350.626136
 31
0.0
  0
LINE
  5
2C8
100
AcDbEntity
  8
LAY-1
  6
EXLTYPE4
 62
     1
100
AcDbLine
 10
420.0
 20
173.5
 30
0.0
 11
407.0
 21
173.5
 31
0.0
  0
LINE
  5
2C9
100
AcDbEntity
  8
LAY-1
  6
EXLTYPE3
 62
     1
100
AcDbLine
 10
305.655421
 20
96.0
 30
0.0
 11
331.62273
 21
96.0
 31
0.0
  0
LINE
  5
2CA
100
AcDbEntity
  8
LAY-1
  6
EXLTYPE3
 62
     1
100
AcDbLine
 10
331.62273
 20
166.0
 30
0.0
 11
306.151612
 21
166.0
 31
0.0
  0
LINE
  5
2CB
100
AcDbEntity
  8
LAY-1
  6
EXLTYPE4
 62
     1
100
AcDbLine
 10
407.0
 20
158.5
 30
0.0
 11
420.0
 21
158.5
 31
0.0
  0
LINE
  5
2CC
100
AcDbEntity
  8
LAY-1
  6
EXLTYPE3
 62
     1
100
AcDbLine
 10
400.924018
 20
166.0
 30
0.0
 11
426.22974
 21
166.0
 31
0.0
  0
LINE
  5
2CD
100
AcDbEntity
  8
LAY-1
  6
EXLTYPE4
 62
     1
100
AcDbLine
 10
407.0
 20
103.5
 30
0.0
 11
420.0
 21
103.5
 31
0.0
  0
LINE
  5
2CE
100
AcDbEntity
  8
LAY-1
  6
EXLTYPE3
 62
     1
100
AcDbLine
 10
426.22974
 20
96.0
 30
0.0
 11
399.76624
 21
96.0
 31
0.0
  0
LINE
  5
2CF
100
AcDbEntity
  8
LAY-1
  6
EXLTYPE4
 62
     1
100
AcDbLine
 10
420.0
 20
88.5
 30
0.0
 11
407.0
 21
88.5
 31
0.0
  0
LINE
  5
2D0
100
AcDbEntity
  8
LAY-1
  6
EXLTYPE4
 62
     1
100
AcDbLine
 10
312.0
 20
88.5
 30
0.0
 11
325.0
 21
88.5
 31
0.0
  0
LINE
  5
2D1
100
AcDbEntity
  8
LAY-1
  6
EXLTYPE4
 62
     1
100
AcDbLine
 10
325.0
 20
103.5
 30
0.0
 11
312.0
 21
103.5
 31
0.0
  0
LINE
  5
2D2
100
AcDbEntity
  8
LAY-1
  6
EXLTYPE4
 62
     1
100
AcDbLine
 10
325.0
 20
158.5
 30
0.0
 11
312.0
 21
158.5
 31
0.0
  0
LINE
  5
2D3
100
AcDbEntity
  8
LAY-1
  6
EXLTYPE4
 62
     1
100
AcDbLine
 10
312.0
 20
173.5
 30
0.0
 11
325.0
 21
173.5
 31
0.0
  0
LINE
  5
2D4
100
AcDbEntity
  8
LAY-1
  6
CONTINUOUS
 62
     2
100
AcDbLine
 10
404.496004
 20
151.780929
 30
0.0
 11
404.496004
 21
110.219071
 31
0.0
  0
LINE
  5
2D5
100
AcDbEntity
  8
LAY-1
  6
CONTINUOUS
 62
     2
100
AcDbLine
 10
327.503996
 20
151.780929
 30
0.0
 11
327.503996
 21
110.219071
 31
0.0
  0
LINE
  5
2D6
100
AcDbEntity
  8
LAY-1
  6
CONTINUOUS
 62
     2
100
AcDbLine
 10
399.312671
 20
115.964661
 30
0.0
 11
398.626776
 21
116.10184
 31
0.0
  0
LINE
  5
2D7
100
AcDbEntity
  8
LAY-1
  6
CONTINUOUS
 62
     2
100
AcDbLine
 10
420.0
 20
178.5
 30
0.0
 11
408.5
 21
178.5
 31
0.0
  0
ARC
  5
2D8
100
AcDbEntity
  8
LAY-1
  6
CONTINUOUS
 62
     2
100
AcDbCircle
 10
406.0
 20
109.083669
 30
0.0
 40
1.0
100
AcDbArc
 50
0.0
 51
85.0
  0
LINE
  5
2D9
100
AcDbEntity
  8
LAY-1
  6
CONTINUOUS
 62
     2
100
AcDbLine
 10
332.687329
 20
115.964661
 30
0.0
 11
333.373224
 21
116.10184
 31
0.0
  0
ARC
  5
2DA
100
AcDbEntity
  8
LAY-1
  6
CONTINUOUS
 62
     2
100
AcDbCircle
 10
333.680748
 20
109.857613
 30
0.0
 40
6.187318
100
AcDbArc
 50
99.239243
 51
176.650922
  0
ARC
  5
2DB
100
AcDbEntity
  8
LAY-1
  6
CONTINUOUS
 62
     2
100
AcDbCircle
 10
334.549921
 20
110.218356
 30
0.0
 40
6.0
100
AcDbArc
 50
52.361229
 51
101.309932
  0
ARC
  5
2DC
100
AcDbEntity
  8
LAY-1
  6
CONTINUOUS
 62
     2
100
AcDbCircle
 10
397.450079
 20
110.218356
 30
0.0
 40
6.0
100
AcDbArc
 50
78.690068
 51
127.638771
  0
ARC
  5
2DD
100
AcDbEntity
  8
LAY-1
  6
CONTINUOUS
 62
     2
100
AcDbCircle
 10
398.319253
 20
109.857613
 30
0.0
 40
6.187319
100
AcDbArc
 50
3.349082
 51
80.760762
  0
ARC
  5
2DE
100
AcDbEntity
  8
LAY-1
  6
CONTINUOUS
 62
     2
100
AcDbCircle
 10
398.319253
 20
152.142387
 30
0.0
 40
6.187319
100
AcDbArc
 50
279.239238
 51
356.650918
  0
LINE
  5
2DF
100
AcDbEntity
  8
LAY-1
  6
CONTINUOUS
 62
     2
100
AcDbLine
 10
332.687329
 20
146.035339
 30
0.0
 11
333.373224
 21
145.89816
 31
0.0
  0
ARC
  5
2E0
100
AcDbEntity
  8
LAY-1
  6
CONTINUOUS
 62
     2
100
AcDbCircle
 10
326.0
 20
109.083669
 30
0.0
 40
1.0
100
AcDbArc
 50
95.0
 51
180.0
  0
LINE
  5
2E1
100
AcDbEntity
  8
LAY-1
  6
CONTINUOUS
 62
     2
100
AcDbLine
 10
404.496004
 20
151.780929
 30
0.0
 11
406.087156
 21
151.920136
 31
0.0
  0
ARC
  5
2E2
100
AcDbEntity
  8
LAY-1
  6
CONTINUOUS
 62
     2
100
AcDbCircle
 10
323.5
 20
85.0
 30
0.0
 40
1.5
100
AcDbArc
 50
270.0
 51
0.0
  0
LINE
  5
2E3
100
AcDbEntity
  8
LAY-1
  6
CONTINUOUS
 62
     2
100
AcDbLine
 10
312.0
 20
178.5
 30
0.0
 11
323.5
 21
178.5
 31
0.0
  0
ARC
  5
2E4
100
AcDbEntity
  8
LAY-1
  6
CONTINUOUS
 62
     2
100
AcDbCircle
 10
397.450079
 20
151.781644
 30
0.0
 40
6.0
100
AcDbArc
 50
232.361229
 51
281.309932
  0
ARC
  5
2E5
100
AcDbEntity
  8
LAY-1
  6
CONTINUOUS
 62
     2
100
AcDbCircle
 10
333.680748
 20
152.142387
 30
0.0
 40
6.187318
100
AcDbArc
 50
183.349078
 51
260.760757
  0
ARC
  5
2E6
100
AcDbEntity
  8
LAY-1
  6
CONTINUOUS
 62
     2
100
AcDbCircle
 10
334.549921
 20
151.781644
 30
0.0
 40
6.0
100
AcDbArc
 50
258.690068
 51
307.638771
  0
LINE
  5
2E7
100
AcDbEntity
  8
LAY-1
  6
CONTINUOUS
 62
     2
100
AcDbLine
 10
312.0
 20
83.5
 30
0.0
 11
323.5
 21
83.5
 31
0.0
  0
ARC
  5
2E8
100
AcDbEntity
  8
LAY-1
  6
CONTINUOUS
 62
     2
100
AcDbCircle
 10
406.0
 20
152.916331
 30
0.0
 40
1.0
100
AcDbArc
 50
275.0
 51
0.0
  0
LINE
  5
2E9
100
AcDbEntity
  8
LAY-1
  6
CONTINUOUS
 62
     2
100
AcDbLine
 10
399.312671
 20
146.035339
 30
0.0
 11
398.626776
 21
145.89816
 31
0.0
  0
LINE
  5
2EA
100
AcDbEntity
  8
LAY-1
  6
CONTINUOUS
 62
     2
100
AcDbLine
 10
420.0
 20
83.5
 30
0.0
 11
408.5
 21
83.5
 31
0.0
  0
ARC
  5
2EB
100
AcDbEntity
  8
LAY-1
  6
CONTINUOUS
 62
     2
100
AcDbCircle
 10
326.0
 20
152.916331
 30
0.0
 40
1.0
100
AcDbArc
 50
180.0
 51
265.0
  0
ARC
  5
2EC
100
AcDbEntity
  8
LAY-1
  6
CONTINUOUS
 62
     2
100
AcDbCircle
 10
323.5
 20
177.0
 30
0.0
 40
1.5
100
AcDbArc
 50
0.0
 51
90.0
  0
ARC
  5
2ED
100
AcDbEntity
  8
LAY-1
  6
CONTINUOUS
 62
     2
100
AcDbCircle
 10
366.0
 20
151.0
 30
0.0
 40
45.5
100
AcDbArc
 50
232.361229
 51
307.638771
  0
ARC
  5
2EE
100
AcDbEntity
  8
LAY-1
  6
CONTINUOUS
 62
     2
100
AcDbCircle
 10
408.5
 20
177.0
 30
0.0
 40
1.5
100
AcDbArc
 50
90.0
 51
180.0
  0
ARC
  5
2EF
100
AcDbEntity
  8
LAY-1
  6
CONTINUOUS
 62
     2
100
AcDbCircle
 10
408.5
 20
85.0
 30
0.0
 40
1.5
100
AcDbArc
 50
180.0
 51
270.0
  0
LINE
  5
2F0
100
AcDbEntity
  8
LAY-1
  6
CONTINUOUS
 62
     2
100
AcDbLine
 10
325.912845
 20
110.079864
 30
0.0
 11
327.50129
 21
110.218834
 31
0.0
  0
LINE
  5
2F1
100
AcDbEntity
  8
LAY-1
  6
CONTINUOUS
 62
     2
100
AcDbLine
 10
404.496004
 20
110.219071
 30
0.0
 11
406.087156
 21
110.079864
 31
0.0
  0
LINE
  5
2F2
100
AcDbEntity
  8
LAY-1
  6
CONTINUOUS
 62
     2
100
AcDbLine
 10
325.912845
 20
151.920136
 30
0.0
 11
327.503997
 21
151.780929
 31
0.0
  0
ARC
  5
2F3
100
AcDbEntity
  8
LAY-1
  6
CONTINUOUS
 62
     2
100
AcDbCircle
 10
311.0
 20
157.5
 30
0.0
 40
1.0
100
AcDbArc
 50
270.0
 51
0.0
  0
LINE
  5
2F4
100
AcDbEntity
  8
LAY-1
  6
CONTINUOUS
 62
     2
100
AcDbLine
 10
311.0
 20
156.5
 30
0.0
 11
311.0
 21
131.0
 31
0.0
  0
LINE
  5
2F5
100
AcDbEntity
  8
LAY-1
  6
CONTINUOUS
 62
     2
100
AcDbLine
 10
311.0
 20
105.5
 30
0.0
 11
311.0
 21
131.0
 31
0.0
  0
ARC
  5
2F6
100
AcDbEntity
  8
LAY-1
  6
CONTINUOUS
 62
     2
100
AcDbCircle
 10
311.0
 20
104.5
 30
0.0
 40
1.0
100
AcDbArc
 50
0.0
 51
90.0
  0
ARC
  5
2F7
100
AcDbEntity
  8
LAY-1
  6
CONTINUOUS
 62
     2
100
AcDbCircle
 10
421.0
 20
157.5
 30
0.0
 40
1.0
100
AcDbArc
 50
180.0
 51
270.0
  0
LINE
  5
2F8
100
AcDbEntity
  8
LAY-1
  6
CONTINUOUS
 62
     2
100
AcDbLine
 10
421.0
 20
156.5
 30
0.0
 11
421.0
 21
131.0
 31
0.0
  0
LINE
  5
2F9
100
AcDbEntity
  8
LAY-1
  6
CONTINUOUS
 62
     2
100
AcDbLine
 10
421.0
 20
105.5
 30
0.0
 11
421.0
 21
131.0
 31
0.0
  0
ARC
  5
2FA
100
AcDbEntity
  8
LAY-1
  6
CONTINUOUS
 62
     2
100
AcDbCircle
 10
421.0
 20
104.5
 30
0.0
 40
1.0
100
AcDbArc
 50
90.0
 51
180.0
  0
ARC
  5
2FB
100
AcDbEntity
  8
LAY-1
  6
CONTINUOUS
 62
     2
100
AcDbCircle
 10
387.0
 20
165.5
 30
0.0
 40
1.5
100
AcDbArc
 50
311.810315
 51
0.0
  0
ARC
  5
2FC
100
AcDbEntity
  8
LAY-1
  6
CONTINUOUS
 62
     2
100
AcDbCircle
 10
389.0
 20
163.263932
 30
0.0
 40
1.5
100
AcDbArc
 50
131.810315
 51
180.0
  0
LINE
  5
2FD
100
AcDbEntity
  8
LAY-1
  6
CONTINUOUS
 62
     2
100
AcDbLine
 10
366.0
 20
176.0
 30
0.0
 11
387.0
 21
176.0
 31
0.0
  0
LINE
  5
2FE
100
AcDbEntity
  8
LAY-1
  6
CONTINUOUS
 62
     2
100
AcDbLine
 10
388.5
 20
174.5
 30
0.0
 11
388.5
 21
165.5
 31
0.0
  0
ARC
  5
2FF
100
AcDbEntity
  8
LAY-1
  6
CONTINUOUS
 62
     2
100
AcDbCircle
 10
387.0
 20
174.5
 30
0.0
 40
1.5
100
AcDbArc
 50
0.0
 51
90.0
  0
LINE
  5
300
100
AcDbEntity
  8
LAY-1
  6
CONTINUOUS
 62
     2
100
AcDbLine
 10
387.5
 20
163.263932
 30
0.0
 11
387.5
 21
154.543082
 31
0.0
  0
ARC
  5
301
100
AcDbEntity
  8
LAY-1
  6
CONTINUOUS
 62
     2
100
AcDbCircle
 10
366.0
 20
111.0
 30
0.0
 40
45.5
100
AcDbArc
 50
52.361229
 51
57.725197
  0
ARC
  5
302
100
AcDbEntity
  8
LAY-1
  6
CONTINUOUS
 62
     2
100
AcDbCircle
 10
393.5
 20
154.543082
 30
0.0
 40
6.0
100
AcDbArc
 50
180.0
 51
237.725197
  0
ARC
  5
303
100
AcDbEntity
  8
LAY-1
  6
CONTINUOUS
 62
     2
100
AcDbCircle
 10
345.0
 20
165.5
 30
0.0
 40
1.5
100
AcDbArc
 50
180.0
 51
228.189685
  0
ARC
  5
304
100
AcDbEntity
  8
LAY-1
  6
CONTINUOUS
 62
     2
100
AcDbCircle
 10
343.0
 20
163.263932
 30
0.0
 40
1.5
100
AcDbArc
 50
0.0
 51
48.189685
  0
LINE
  5
305
100
AcDbEntity
  8
LAY-1
  6
CONTINUOUS
 62
     2
100
AcDbLine
 10
343.5
 20
174.5
 30
0.0
 11
343.5
 21
165.5
 31
0.0
  0
ARC
  5
306
100
AcDbEntity
  8
LAY-1
  6
CONTINUOUS
 62
     2
100
AcDbCircle
 10
345.0
 20
174.5
 30
0.0
 40
1.5
100
AcDbArc
 50
90.0
 51
180.0
  0
LINE
  5
307
100
AcDbEntity
  8
LAY-1
  6
CONTINUOUS
 62
     2
100
AcDbLine
 10
344.5
 20
163.263932
 30
0.0
 11
344.5
 21
154.543082
 31
0.0
  0
ARC
  5
308
100
AcDbEntity
  8
LAY-1
  6
CONTINUOUS
 62
     2
100
AcDbCircle
 10
338.5
 20
154.543082
 30
0.0
 40
6.0
100
AcDbArc
 50
302.274803
 51
0.0
  0
ARC
  5
309
100
AcDbEntity
  8
LAY-1
  6
CONTINUOUS
 62
     2
100
AcDbCircle
 10
366.0
 20
111.0
 30
0.0
 40
45.5
100
AcDbArc
 50
122.274803
 51
127.638771
  0
LINE
  5
30A
100
AcDbEntity
  8
LAY-1
  6
CONTINUOUS
 62
     2
100
AcDbLine
 10
366.0
 20
176.0
 30
0.0
 11
345.0
 21
176.0
 31
0.0
  0
LINE
  5
30B
100
AcDbEntity
  8
LAY-1
  6
CONTINUOUS
 62
     2
100
AcDbLine
 10
420.0
 20
178.5
 30
0.0
 11
420.0
 21
131.0
 31
0.0
  0
LINE
  5
30C
100
AcDbEntity
  8
LAY-1
  6
CONTINUOUS
 62
     2
100
AcDbLine
 10
420.0
 20
131.0
 30
0.0
 11
420.0
 21
83.5
 31
0.0
  0
LINE
  5
30D
100
AcDbEntity
  8
LAY-1
  6
CONTINUOUS
 62
     2
100
AcDbLine
 10
312.0
 20
131.0
 30
0.0
 11
312.0
 21
83.5
 31
0.0
  0
LINE
  5
30E
100
AcDbEntity
  8
LAY-1
  6
CONTINUOUS
 62
     2
100
AcDbLine
 10
312.0
 20
178.5
 30
0.0
 11
312.0
 21
131.0
 31
0.0
  0
LINE
  5
30F
100
AcDbEntity
  8
LAY-1
  6
CONTINUOUS
 62
     2
100
AcDbLine
 10
325.0
 20
177.0
 30
0.0
 11
325.0
 21
131.0
 31
0.0
  0
LINE
  5
310
100
AcDbEntity
  8
LAY-1
  6
CONTINUOUS
 62
     2
100
AcDbLine
 10
325.0
 20
131.0
 30
0.0
 11
325.0
 21
85.0
 31
0.0
  0
LINE
  5
311
100
AcDbEntity
  8
LAY-1
  6
CONTINUOUS
 62
     2
100
AcDbLine
 10
407.0
 20
85.0
 30
0.0
 11
407.0
 21
131.0
 31
0.0
  0
LINE
  5
312
100
AcDbEntity
  8
LAY-1
  6
CONTINUOUS
 62
     2
100
AcDbLine
 10
407.0
 20
131.0
 30
0.0
 11
407.0
 21
177.0
 31
0.0
  0
TEXT
  5
313
100
AcDbEntity
  8
LAY-1
  6
CONTINUOUS
 62
     4
100
AcDbText
 10
377.0
 20
134.5
 30
0.0
 40
8.0
  1
S
 41
0.6
  7
EXCADSTD
 72
     5
 11
380.12
 21
134.5
 31
0.0
100
AcDbText
  0
TEXT
  5
314
100
AcDbEntity
  8
LAY-1
  6
CONTINUOUS
 62
     4
100
AcDbText
 10
364.0
 20
134.5
 30
0.0
 40
8.0
  1
D
 41
0.6
  7
EXCADSTD
 72
     5
 11
367.12
 21
134.5
 31
0.0
100
AcDbText
  0
TEXT
  5
315
100
AcDbEntity
  8
LAY-1
  6
CONTINUOUS
 62
     4
100
AcDbText
 10
357.0
 20
134.5
 30
0.0
 40
8.0
  1
C
 41
0.6
  7
EXCADSTD
 72
     5
 11
360.12
 21
134.5
 31
0.0
100
AcDbText
  0
TEXT
  5
316
100
AcDbEntity
  8
LAY-1
  6
CONTINUOUS
 62
     4
100
AcDbText
 10
350.0
 20
134.5
 30
0.0
 40
8.0
  1
F
 41
0.6
  7
EXCADSTD
 72
     5
 11
353.12
 21
134.5
 31
0.0
100
AcDbText
  0
TEXT
  5
317
100
AcDbEntity
  8
LAY-1
  6
CONTINUOUS
 62
     4
100
AcDbText
 10
370.0
 20
124.5
 30
0.0
 40
8.0
  1
1
 41
0.6
  7
EXCADSTD
 72
     5
 11
373.12
 21
124.5
 31
0.0
100
AcDbText
  0
TEXT
  5
318
100
AcDbEntity
  8
LAY-1
  6
CONTINUOUS
 62
     4
100
AcDbText
 10
377.0
 20
124.5
 30
0.0
 40
8.0
  1
5
 41
0.6
  7
EXCADSTD
 72
     5
 11
380.12
 21
124.5
 31
0.0
100
AcDbText
  0
TEXT
  5
319
100
AcDbEntity
  8
LAY-1
  6
CONTINUOUS
 62
     4
100
AcDbText
 10
357.0
 20
124.5
 30
0.0
 40
8.0
  1
0
 41
0.6
  7
EXCADSTD
 72
     5
 11
360.12
 21
124.5
 31
0.0
100
AcDbText
  0
TEXT
  5
31A
100
AcDbEntity
  8
LAY-1
  6
CONTINUOUS
 62
     4
100
AcDbText
 10
350.0
 20
124.5
 30
0.0
 40
8.0
  1
2
 41
0.6
  7
EXCADSTD
 72
     5
 11
353.12
 21
124.5
 31
0.0
100
AcDbText
  0
LINE
  5
31B
100
AcDbEntity
  8
LAY-1
  6
CONTINUOUS
 62
     4
100
AcDbLine
 10
371.0
 20
138.5
 30
0.0
 11
375.0
 21
138.5
 31
0.0
  0
TEXT
  5
31C
100
AcDbEntity
  8
LAY-1
  6
CONTINUOUS
 62
     4
100
AcDbText
 10
364.75
 20
128.5
 30
0.0
 40
4.0
  1
K
 41
0.6
  7
EXCADSTD
 72
     5
 11
366.31
 21
128.5
 31
0.0
100
AcDbText
  0
LINE
  5
31D
100
AcDbEntity
  8
LAY-1
  6
CONTINUOUS
 62
     4
100
AcDbLine
 10
364.75
 20
125.5
 30
0.0
 11
367.25
 21
125.5
 31
0.0
  0
LINE
  5
31E
100
AcDbEntity
  8
LAY-1
  6
CONTINUOUS
 62
     2
100
AcDbLine
 10
384.0
 20
143.5
 30
0.0
 11
348.0
 21
143.5
 31
0.0
  0
LINE
  5
31F
100
AcDbEntity
  8
LAY-1
  6
CONTINUOUS
 62
     2
100
AcDbLine
 10
384.0
 20
118.5
 30
0.0
 11
384.0
 21
143.5
 31
0.0
  0
LINE
  5
320
100
AcDbEntity
  8
LAY-1
  6
CONTINUOUS
 62
     2
100
AcDbLine
 10
348.0
 20
118.5
 30
0.0
 11
384.0
 21
118.5
 31
0.0
  0
LINE
  5
321
100
AcDbEntity
  8
LAY-1
  6
CONTINUOUS
 62
     2
100
AcDbLine
 10
348.0
 20
143.5
 30
0.0
 11
348.0
 21
118.5
 31
0.0
  0
LINE
  5
322
100
AcDbEntity
  8
LAY-1
  6
CONTINUOUS
 62
     2
100
AcDbLine
 10
382.0
 20
122.5
 30
0.0
 11
353.0
 21
122.5
 31
0.0
  0
LINE
  5
323
100
AcDbEntity
  8
LAY-1
  6
CONTINUOUS
 62
     2
100
AcDbLine
 10
353.0
 20
122.5
 30
0.0
 11
350.0
 21
119.5
 31
0.0
  0
LINE
  5
324
100
AcDbEntity
  8
LAY-1
  6
CONTINUOUS
 62
     2
100
AcDbLine
 10
350.0
 20
119.5
 30
0.0
 11
359.5
 21
119.5
 31
0.0
  0
LINE
  5
325
100
AcDbEntity
  8
LAY-1
  6
CONTINUOUS
 62
     2
100
AcDbLine
 10
359.5
 20
119.5
 30
0.0
 11
361.5
 21
121.5
 31
0.0
  0
LINE
  5
326
100
AcDbEntity
  8
LAY-1
  6
CONTINUOUS
 62
     2
100
AcDbLine
 10
361.5
 20
121.5
 30
0.0
 11
377.0
 21
121.5
 31
0.0
  0
LINE
  5
327
100
AcDbEntity
  8
LAY-1
  6
CONTINUOUS
 62
     2
100
AcDbLine
 10
377.0
 20
121.5
 30
0.0
 11
377.0
 21
119.5
 31
0.0
  0
LINE
  5
328
100
AcDbEntity
  8
LAY-1
  6
CONTINUOUS
 62
     2
100
AcDbLine
 10
377.0
 20
119.5
 30
0.0
 11
382.0
 21
122.5
 31
0.0
  0
LINE
  5
329
100
AcDbEntity
  8
LAY-1
  6
CONTINUOUS
 62
     2
100
AcDbLine
 10
344.0
 20
164.381966
 30
0.0
 11
388.0
 21
164.381966
 31
0.0
  0
LINE
  5
32A
100
AcDbEntity
  8
LAY-1
  6
CONTINUOUS
 62
     2
100
AcDbLine
 10
344.06069
 20
178.93931
 30
0.0
 11
344.06069
 21
177.697012
 31
0.0
  0
LINE
  5
32B
100
AcDbEntity
  8
LAY-1
  6
CONTINUOUS
 62
     2
100
AcDbLine
 10
344.06069
 20
178.93931
 30
0.0
 11
344.06069
 21
194.56069
 31
0.0
  0
LINE
  5
32C
100
AcDbEntity
  8
LAY-1
  6
CONTINUOUS
 62
     2
100
AcDbLine
 10
387.93931
 20
177.697012
 30
0.0
 11
385.0
 21
176.0
 31
0.0
  0
LINE
  5
32D
100
AcDbEntity
  8
LAY-1
  6
CONTINUOUS
 62
     2
100
AcDbLine
 10
387.93931
 20
178.93931
 30
0.0
 11
387.93931
 21
177.697012
 31
0.0
  0
LINE
  5
32E
100
AcDbEntity
  8
LAY-1
  6
CONTINUOUS
 62
     2
100
AcDbLine
 10
387.93931
 20
194.56069
 30
0.0
 11
387.93931
 21
178.93931
 31
0.0
  0
LINE
  5
32F
100
AcDbEntity
  8
LAY-1
  6
CONTINUOUS
 62
     2
100
AcDbLine
 10
387.93931
 20
178.93931
 30
0.0
 11
387.93931
 21
194.56069
 31
0.0
  0
LINE
  5
330
100
AcDbEntity
  8
LAY-1
  6
CONTINUOUS
 62
     2
100
AcDbLine
 10
344.06069
 20
177.697012
 30
0.0
 11
347.0
 21
176.0
 31
0.0
  0
ARC
  5
331
100
AcDbEntity
  8
LAY-1
  6
CONTINUOUS
 62
     2
100
AcDbCircle
 10
346.5
 20
199.57735
 30
0.0
 40
1.0
100
AcDbArc
 50
300.0
 51
0.0
  0
LINE
  5
332
100
AcDbEntity
  8
LAY-1
  6
CONTINUOUS
 62
     2
100
AcDbLine
 10
344.06069
 20
197.014313
 30
0.0
 11
344.06069
 21
178.93931
 31
0.0
  0
ARC
  5
333
100
AcDbEntity
  8
LAY-1
  6
CONTINUOUS
 62
     2
100
AcDbCircle
 10
348.5
 20
213.0
 30
0.0
 40
1.0
100
AcDbArc
 50
90.0
 51
180.0
  0
LINE
  5
334
100
AcDbEntity
  8
LAY-1
  6
CONTINUOUS
 62
     2
100
AcDbLine
 10
348.5
 20
214.0
 30
0.0
 11
366.0
 21
214.0
 31
0.0
  0
ARC
  5
335
100
AcDbEntity
  8
LAY-1
  6
CONTINUOUS
 62
     2
100
AcDbCircle
 10
385.5
 20
199.57735
 30
0.0
 40
1.0
100
AcDbArc
 50
180.0
 51
240.0
  0
ARC
  5
336
100
AcDbEntity
  8
LAY-1
  6
CONTINUOUS
 62
     2
100
AcDbCircle
 10
383.5
 20
213.0
 30
0.0
 40
1.0
100
AcDbArc
 50
0.0
 51
90.0
  0
LINE
  5
337
100
AcDbEntity
  8
LAY-1
  6
CONTINUOUS
 62
     2
100
AcDbLine
 10
384.5
 20
199.57735
 30
0.0
 11
384.5
 21
213.0
 31
0.0
  0
LINE
  5
338
100
AcDbEntity
  8
LAY-1
  6
CONTINUOUS
 62
     2
100
AcDbLine
 10
385.0
 20
198.711325
 30
0.0
 11
387.93931
 21
197.014313
 31
0.0
  0
LINE
  5
339
100
AcDbEntity
  8
LAY-1
  6
CONTINUOUS
 62
     2
100
AcDbLine
 10
387.93931
 20
197.014313
 30
0.0
 11
387.93931
 21
194.56069
 31
0.0
  0
LINE
  5
33A
100
AcDbEntity
  8
LAY-1
  6
CONTINUOUS
 62
     2
100
AcDbLine
 10
366.0
 20
176.0
 30
0.0
 11
385.0
 21
176.0
 31
0.0
  0
LINE
  5
33B
100
AcDbEntity
  8
LAY-1
  6
CONTINUOUS
 62
     2
100
AcDbLine
 10
366.0
 20
176.0
 30
0.0
 11
347.0
 21
176.0
 31
0.0
  0
LINE
  5
33C
100
AcDbEntity
  8
LAY-1
  6
CONTINUOUS
 62
     2
100
AcDbLine
 10
347.0
 20
198.711325
 30
0.0
 11
344.06069
 21
197.014313
 31
0.0
  0
LINE
  5
33D
100
AcDbEntity
  8
LAY-1
  6
CONTINUOUS
 62
     2
100
AcDbLine
 10
347.5
 20
199.57735
 30
0.0
 11
347.5
 21
213.0
 31
0.0
  0
ARC
  5
33E
100
AcDbEntity
  8
LAY-1
  6
CONTINUOUS
 62
     2
100
AcDbCircle
 10
366.0
 20
212.302988
 30
0.0
 40
36.302988
100
AcDbArc
 50
252.412046
 51
287.587954
  0
ARC
  5
33F
100
AcDbEntity
  8
LAY-1
  6
CONTINUOUS
 62
     2
100
AcDbCircle
 10
382.454483
 20
185.712126
 30
0.0
 40
9.712126
100
AcDbArc
 50
235.615753
 51
304.384247
  0
ARC
  5
340
100
AcDbEntity
  8
LAY-1
  6
CONTINUOUS
 62
     2
100
AcDbCircle
 10
349.545517
 20
185.712126
 30
0.0
 40
9.712126
100
AcDbArc
 50
235.615753
 51
304.384247
  0
ARC
  5
341
100
AcDbEntity
  8
LAY-1
  6
CONTINUOUS
 62
     2
100
AcDbCircle
 10
349.545517
 20
188.999198
 30
0.0
 40
9.712126
100
AcDbArc
 50
55.615753
 51
124.384247
  0
ARC
  5
342
100
AcDbEntity
  8
LAY-1
  6
CONTINUOUS
 62
     2
100
AcDbCircle
 10
366.0
 20
162.408336
 30
0.0
 40
36.302988
100
AcDbArc
 50
72.412046
 51
107.587954
  0
ARC
  5
343
100
AcDbEntity
  8
LAY-1
  6
CONTINUOUS
 62
     2
100
AcDbCircle
 10
382.454483
 20
188.999198
 30
0.0
 40
9.712126
100
AcDbArc
 50
55.615753
 51
124.384247
  0
LINE
  5
344
100
AcDbEntity
  8
LAY-1
  6
CONTINUOUS
 62
     2
100
AcDbLine
 10
376.969655
 20
177.697012
 30
0.0
 11
376.969655
 21
197.014313
 31
0.0
  0
LINE
  5
345
100
AcDbEntity
  8
LAY-1
  6
CONTINUOUS
 62
     2
100
AcDbLine
 10
355.030345
 20
177.697012
 30
0.0
 11
355.030345
 21
197.014313
 31
0.0
  0
LINE
  5
346
100
AcDbEntity
  8
LAY-1
  6
CONTINUOUS
 62
     2
100
AcDbLine
 10
385.0
 20
198.711325
 30
0.0
 11
366.0
 21
198.711325
 31
0.0
  0
LINE
  5
347
100
AcDbEntity
  8
LAY-1
  6
CONTINUOUS
 62
     2
100
AcDbLine
 10
347.0
 20
198.711325
 30
0.0
 11
366.0
 21
198.711325
 31
0.0
  0
LINE
  5
348
100
AcDbEntity
  8
LAY-1
  6
CONTINUOUS
 62
     2
100
AcDbLine
 10
366.0
 20
223.0
 30
0.0
 11
382.0
 21
223.0
 31
0.0
  0
LINE
  5
349
100
AcDbEntity
  8
LAY-1
  6
CONTINUOUS
 62
     2
100
AcDbLine
 10
382.0
 20
223.0
 30
0.0
 11
384.475209
 21
221.570938
 31
0.0
  0
LINE
  5
34A
100
AcDbEntity
  8
LAY-1
  6
CONTINUOUS
 62
     2
100
AcDbLine
 10
384.475209
 20
216.0
 30
0.0
 11
384.475209
 21
221.570938
 31
0.0
  0
LINE
  5
34B
100
AcDbEntity
  8
LAY-1
  6
CONTINUOUS
 62
     2
100
AcDbLine
 10
350.0
 20
223.0
 30
0.0
 11
347.524791
 21
221.570938
 31
0.0
  0
LINE
  5
34C
100
AcDbEntity
  8
LAY-1
  6
CONTINUOUS
 62
     2
100
AcDbLine
 10
366.0
 20
223.0
 30
0.0
 11
350.0
 21
223.0
 31
0.0
  0
LINE
  5
34D
100
AcDbEntity
  8
LAY-1
  6
CONTINUOUS
 62
     2
100
AcDbLine
 10
347.524791
 20
216.0
 30
0.0
 11
347.524791
 21
221.570938
 31
0.0
  0
ARC
  5
34E
100
AcDbEntity
  8
LAY-1
  6
CONTINUOUS
 62
     2
100
AcDbCircle
 10
366.018805
 20
192.550584
 30
0.0
 40
30.449422
100
AcDbArc
 50
72.376672
 51
107.623328
  0
ARC
  5
34F
100
AcDbEntity
  8
LAY-1
  6
CONTINUOUS
 62
     2
100
AcDbCircle
 10
379.856409
 20
214.821376
 30
0.0
 40
8.178624
100
AcDbArc
 50
55.615733
 51
124.384267
  0
LINE
  5
350
100
AcDbEntity
  8
LAY-1
  6
CONTINUOUS
 62
     2
100
AcDbLine
 10
384.475209
 20
216.0
 30
0.0
 11
366.0
 21
216.0
 31
0.0
  0
LINE
  5
351
100
AcDbEntity
  8
LAY-1
  6
CONTINUOUS
 62
     2
100
AcDbLine
 10
347.524791
 20
216.0
 30
0.0
 11
366.0
 21
216.0
 31
0.0
  0
ARC
  5
352
100
AcDbEntity
  8
LAY-1
  6
CONTINUOUS
 62
     2
100
AcDbCircle
 10
352.143591
 20
214.821376
 30
0.0
 40
8.178624
100
AcDbArc
 50
55.615733
 51
124.384267
  0
LINE
  5
353
100
AcDbEntity
  8
LAY-1
  6
CONTINUOUS
 62
     2
100
AcDbLine
 10
375.23761
 20
221.570938
 30
0.0
 11
375.23761
 21
216.0
 31
0.0
  0
LINE
  5
354
100
AcDbEntity
  8
LAY-1
  6
CONTINUOUS
 62
     2
100
AcDbLine
 10
356.8
 20
221.570938
 30
0.0
 11
356.8
 21
216.0
 31
0.0
  0
LINE
  5
355
100
AcDbEntity
  8
LAY-1
  6
CONTINUOUS
 62
     2
100
AcDbLine
 10
383.5
 20
214.0
 30
0.0
 11
366.0
 21
214.0
 31
0.0
  0
LINE
  5
356
100
AcDbEntity
  8
LAY-1
  6
CONTINUOUS
 62
     2
100
AcDbLine
 10
381.0
 20
216.0
 30
0.0
 11
381.0
 21
214.0
 31
0.0
  0
LINE
  5
357
100
AcDbEntity
  8
LAY-1
  6
CONTINUOUS
 62
     2
100
AcDbLine
 10
351.0
 20
216.0
 30
0.0
 11
351.0
 21
214.0
 31
0.0
  0
LINE
  5
358
100
AcDbEntity
  8
LAY-1
  6
CONTINUOUS
 62
     2
100
AcDbLine
 10
361.0
 20
227.633975
 30
0.0
 11
366.0
 21
227.633975
 31
0.0
  0
LINE
  5
359
100
AcDbEntity
  8
LAY-1
  6
CONTINUOUS
 62
     2
100
AcDbLine
 10
361.0
 20
227.633975
 30
0.0
 11
361.5
 21
228.5
 31
0.0
  0
LINE
  5
35A
100
AcDbEntity
  8
LAY-1
  6
CONTINUOUS
 62
     2
100
AcDbLine
 10
371.0
 20
227.633975
 30
0.0
 11
370.5
 21
228.5
 31
0.0
  0
LINE
  5
35B
100
AcDbEntity
  8
LAY-1
  6
CONTINUOUS
 62
     2
100
AcDbLine
 10
371.0
 20
227.633975
 30
0.0
 11
366.0
 21
227.633975
 31
0.0
  0
LINE
  5
35C
100
AcDbEntity
  8
LAY-1
  6
CONTINUOUS
 62
     2
100
AcDbLine
 10
371.0
 20
223.0
 30
0.0
 11
371.0
 21
227.633975
 31
0.0
  0
LINE
  5
35D
100
AcDbEntity
  8
LAY-1
  6
CONTINUOUS
 62
     2
100
AcDbLine
 10
361.0
 20
223.0
 30
0.0
 11
361.0
 21
227.633975
 31
0.0
  0
LINE
  5
35E
100
AcDbEntity
  8
LAY-1
  6
CONTINUOUS
 62
     2
100
AcDbLine
 10
366.0
 20
228.5
 30
0.0
 11
375.127732
 21
228.5
 31
0.0
  0
LINE
  5
35F
100
AcDbEntity
  8
LAY-1
  6
CONTINUOUS
 62
     2
100
AcDbLine
 10
332.5
 20
235.5
 30
0.0
 11
333.257074
 21
235.5
 31
0.0
  0
ARC
  5
360
100
AcDbEntity
  8
LAY-1
  6
CONTINUOUS
 62
     2
100
AcDbCircle
 10
378.0
 20
228.633931
 30
0.0
 40
2.0
100
AcDbArc
 50
97.662256
 51
163.220481
  0
ARC
  5
361
100
AcDbEntity
  8
LAY-1
  6
CONTINUOUS
 62
     2
100
AcDbCircle
 10
375.127732
 20
229.5
 30
0.0
 40
1.0
100
AcDbArc
 50
270.0
 51
343.220481
  0
ARC
  5
362
100
AcDbEntity
  8
LAY-1
  6
CONTINUOUS
 62
     2
100
AcDbCircle
 10
332.5
 20
242.0
 30
0.0
 40
6.5
100
AcDbArc
 50
90.0
 51
270.0
  0
LINE
  5
363
100
AcDbEntity
  8
LAY-1
  6
CONTINUOUS
 62
     2
100
AcDbLine
 10
399.5
 20
248.5
 30
0.0
 11
395.0
 21
248.5
 31
0.0
  0
LINE
  5
364
100
AcDbEntity
  8
LAY-1
  6
CONTINUOUS
 62
     2
100
AcDbLine
 10
366.0
 20
228.5
 30
0.0
 11
356.872268
 21
228.5
 31
0.0
  0
ARC
  5
365
100
AcDbEntity
  8
LAY-1
  6
CONTINUOUS
 62
     2
100
AcDbCircle
 10
354.0
 20
228.633931
 30
0.0
 40
2.0
100
AcDbArc
 50
16.779519
 51
82.337744
  0
ARC
  5
366
100
AcDbEntity
  8
LAY-1
  6
CONTINUOUS
 62
     2
100
AcDbCircle
 10
356.872268
 20
229.5
 30
0.0
 40
1.0
100
AcDbArc
 50
196.779519
 51
270.0
  0
ARC
  5
367
100
AcDbEntity
  8
LAY-1
  6
CONTINUOUS
 62
     2
100
AcDbCircle
 10
399.5
 20
242.0
 30
0.0
 40
6.5
100
AcDbArc
 50
270.0
 51
90.0
  0
LINE
  5
368
100
AcDbEntity
  8
LAY-1
  6
CONTINUOUS
 62
     2
100
AcDbLine
 10
396.0
 20
248.5
 30
0.0
 11
366.0
 21
248.5
 31
0.0
  0
ARC
  5
369
100
AcDbEntity
  8
LAY-1
  6
CONTINUOUS
 62
     2
100
AcDbCircle
 10
376.0
 20
243.5
 30
0.0
 40
13.0
100
AcDbArc
 50
277.662256
 51
322.020128
  0
LINE
  5
36A
100
AcDbEntity
  8
LAY-1
  6
CONTINUOUS
 62
     2
100
AcDbLine
 10
399.5
 20
235.5
 30
0.0
 11
366.0
 21
235.5
 31
0.0
  0
ARC
  5
36B
100
AcDbEntity
  8
LAY-1
  6
CONTINUOUS
 62
     2
100
AcDbCircle
 10
356.0
 20
243.5
 30
0.0
 40
13.0
100
AcDbArc
 50
217.979872
 51
262.337744
  0
LINE
  5
36C
100
AcDbEntity
  8
LAY-1
  6
CONTINUOUS
 62
     2
100
AcDbLine
 10
332.5
 20
235.5
 30
0.0
 11
366.0
 21
235.5
 31
0.0
  0
LINE
  5
36D
100
AcDbEntity
  8
LAY-1
  6
CONTINUOUS
 62
     2
100
AcDbLine
 10
332.5
 20
248.5
 30
0.0
 11
366.0
 21
248.5
 31
0.0
  0
LINE
  5
36E
100
AcDbEntity
  8
LAY-1
  6
CONTINUOUS
 62
     2
100
AcDbLine
 10
374.431387
 20
230.257347
 30
0.0
 11
375.09
 21
230.257347
 31
0.0
  0
LINE
  5
36F
100
AcDbEntity
  8
LAY-1
  6
CONTINUOUS
 62
     2
100
AcDbLine
 10
372.57127
 20
231.522523
 30
0.0
 11
371.0
 21
235.5
 31
0.0
  0
ARC
  5
370
100
AcDbEntity
  8
LAY-1
  6
CONTINUOUS
 62
     2
100
AcDbCircle
 10
374.431387
 20
232.257347
 30
0.0
 40
2.0
100
AcDbArc
 50
201.556098
 51
270.0
  0
LINE
  5
371
100
AcDbEntity
  8
LAY-1
  6
CONTINUOUS
 62
     2
100
AcDbLine
 10
356.88
 20
230.257347
 30
0.0
 11
357.568613
 21
230.257347
 31
0.0
  0
LINE
  5
372
100
AcDbEntity
  8
LAY-1
  6
CONTINUOUS
 62
     2
100
AcDbLine
 10
359.42873
 20
231.522523
 30
0.0
 11
361.0
 21
235.5
 31
0.0
  0
ARC
  5
373
100
AcDbEntity
  8
LAY-1
  6
CONTINUOUS
 62
     2
100
AcDbCircle
 10
357.568613
 20
232.257347
 30
0.0
 40
2.0
100
AcDbArc
 50
270.0
 51
338.443902
  0
LINE
  5
374
100
AcDbEntity
  8
LAY-1
  6
EXLTYPE3
 62
     1
100
AcDbLine
 10
366.0
 20
99.728363
 30
0.0
 11
366.0
 21
254.8
 31
0.0
  0
LINE
  5
375
100
AcDbEntity
  8
LAY-1
  6
EXLTYPE3
 62
     1
100
AcDbLine
 10
427.4
 20
131.0
 30
0.0
 11
305.994862
 21
131.0
 31
0.0
  0
ARC
  5
376
100
AcDbEntity
  8
LAY-1
  6
CONTINUOUS
 62
     2
100
AcDbCircle
 10
366.0
 20
245.0
 30
0.0
 40
4.5
100
AcDbArc
 50
51.057559
 51
128.942441
  0
TEXT
  5
377
100
AcDbEntity
  8
LAY-2
  6
CONTINUOUS
 62
     3
100
AcDbText
 10
491.347299
 20
103.328
 30
0.0
 40
16.0
  1
型式
 41
0.984714
  7
EXCADSTD
 72
     5
 11
525.731624
 21
103.328
 31
0.0
100
AcDbText
  0
TEXT
  5
378
100
AcDbEntity
  8
LAY-2
  6
CONTINUOUS
 62
     3
100
AcDbText
 10
490.963299
 20
80.8
 30
0.0
 40
16.0
  1
品名
 41
0.984714
  7
EXCADSTD
 72
     5
 11
525.347624
 21
80.8
 31
0.0
100
AcDbText
  0
LINE
  5
379
100
AcDbEntity
  8
LAY-2
  6
CONTINUOUS
 62
     4
100
AcDbLine
 10
483.795299
 20
58.08
 30
0.0
 11
770.515299
 21
58.08
 31
0.0
  0
LINE
  5
37A
100
AcDbEntity
  8
LAY-2
  6
CONTINUOUS
 62
     1
100
AcDbLine
 10
483.795299
 20
77.6
 30
0.0
 11
770.515299
 21
77.6
 31
0.0
  0
TEXT
  5
37B
100
AcDbEntity
  8
LAY-2
  6
CONTINUOUS
 62
     3
100
AcDbText
 10
585.683299
 20
60.192
 30
0.0
 40
16.0
  1
外観図
 41
1.47392
  7
EXCADSTD
 72
     5
 11
669.907298
 21
60.192
 31
0.0
100
AcDbText
  0
LINE
  5
37C
100
AcDbEntity
  8
LAY-2
  6
CONTINUOUS
 62
     4
100
AcDbLine
 10
483.795299
 20
144.8
 30
0.0
 11
770.515299
 21
144.8
 31
0.0
  0
LINE
  5
37D
100
AcDbEntity
  8
LAY-2
  6
CONTINUOUS
 62
     1
100
AcDbLine
 10
483.795299
 20
100.0
 30
0.0
 11
770.515299
 21
100.0
 31
0.0
  0
LINE
  5
37E
100
AcDbEntity
  8
LAY-2
  6
CONTINUOUS
 62
     1
100
AcDbLine
 10
483.795299
 20
122.4
 30
0.0
 11
770.515299
 21
122.4
 31
0.0
  0
LINE
  5
37F
100
AcDbEntity
  8
LAY-2
  6
CONTINUOUS
 62
     1
100
AcDbLine
 10
531.795299
 20
144.8
 30
0.0
 11
531.795299
 21
77.6
 31
0.0
  0
LINE
  5
380
100
AcDbEntity
  8
LAY-2
  6
CONTINUOUS
 62
     4
100
AcDbLine
 10
483.795299
 20
38.56
 30
0.0
 11
770.515299
 21
38.56
 31
0.0
  0
LINE
  5
381
100
AcDbEntity
  8
LAY-2
  6
CONTINUOUS
 62
     4
100
AcDbLine
 10
770.515299
 20
38.56
 30
0.0
 11
770.515299
 21
144.8
 31
0.0
  0
LINE
  5
382
100
AcDbEntity
  8
LAY-2
  6
CONTINUOUS
 62
     4
100
AcDbLine
 10
483.795299
 20
38.56
 30
0.0
 11
483.795299
 21
144.8
 31
0.0
  0
TEXT
  5
383
100
AcDbEntity
  8
LAY-2
  6
CONTINUOUS
 62
     3
100
AcDbText
 10
485.843299
 20
125.216
 30
0.0
 40
16.0
  1
作成日
 41
0.84
  7
EXCADSTD
 72
     5
 11
533.843299
 21
125.216
 31
0.0
100
AcDbText
  0
TEXT
  5
384
100
AcDbEntity
  8
LAY-2
  6
CONTINUOUS
 62
     3
100
AcDbText
 10
539.744099
 20
103.136
 30
0.0
 40
16.0
  1
Ｄ１－１５Ｆ
 41
0.84
  7
EXCADSTD
 72
     5
 11
635.744099
 21
103.136
 31
0.0
100
AcDbText
  0
TEXT
  5
385
100
AcDbEntity
  8
LAY-2
  6
CONTINUOUS
 62
     3
100
AcDbText
 10
539.718499
 20
80.8128
 30
0.0
 40
16.0
  1
１５Ａフランジ式グローブバルブ
 41
0.78648
  7
EXCADSTD
 72
     5
 11
764.426961
 21
80.8128
 31
0.0
100
AcDbText
  0
INSERT
  5
386
100
AcDbEntity
  8
LAY-2
  6
CONTINUOUS
 62
     0
100
AcDbBlockReference
  2
SYM-1
 10
620.073053
 20
48.814575
 30
0.0
 41
2.2815
 42
2.2815
  0
TEXT
  5
387
100
AcDbEntity
  8
LAY-2
  6
CONTINUOUS
 62
     3
100
AcDbText
 10
536.819699
 20
123.5376
 30
0.0
 40
15.6
  1
２０１４年　４月　１日
 41
0.84
  7
EXCADSTD
 72
     5
 11
708.419704
 21
123.5376
 31
0.0
100
AcDbText
  0
TEXT
  5
388
100
AcDbEntity
  8
LAY-5
  6
CONTINUOUS
 62
     3
100
AcDbText
 10
438.025
 20
201.95
 30
0.0
 40
16.0
  1
ＪＩＳ　２０Ｋ１５Ａフランジ
 41
0.84
  7
EXCADSTD
 72
     5
 11
662.025
 21
201.95
 31
0.0
100
AcDbText
  0
TEXT
  5
389
100
AcDbEntity
  8
LAY-5
  6
CONTINUOUS
 62
     3
100
AcDbText
 10
438.025
 20
185.95
 30
0.0
 40
16.0
  1
　　　　　４－φ１５
 41
0.84
  7
EXCADSTD
 72
     5
 11
598.025
 21
185.95
 31
0.0
100
AcDbText
  0
POLYLINE
  5
38A
100
AcDbEntity
  8
LAY-5
  6
CONTINUOUS
 62
     1
100
AcDb2dPolyline
 66
     1
 10
0.0
 20
0.0
 30
0.0
 70
   128
  0
VERTEX
  5
38B
100
AcDbEntity
  8
LAY-5
  6
CONTINUOUS
 62
     1
100
AcDbVertex
100
AcDb2dVertex
 10
415.5
 20
178.5
 30
0.0
  0
VERTEX
  5
38C
100
AcDbEntity
  8
LAY-5
  6
CONTINUOUS
 62
     1
100
AcDbVertex
100
AcDb2dVertex
 10
438.65
 20
201.65
 30
0.0
  0
VERTEX
  5
38D
100
AcDbEntity
  8
LAY-5
  6
CONTINUOUS
 62
     1
100
AcDbVertex
100
AcDb2dVertex
 10
664.7
 20
201.65
 30
0.0
  0
SEQEND
  5
38E
100
AcDbEntity
  8
LAY-5
  6
CONTINUOUS
 62
     1
  0
LINE
  5
38F
100
AcDbEntity
  8
LAY-5
  6
CONTINUOUS
 62
     1
100
AcDbLine
 10
419.742641
 20
184.439697
 30
0.0
 11
415.5
 21
178.5
 31
0.0
  0
LINE
  5
390
100
AcDbEntity
  8
LAY-5
  6
CONTINUOUS
 62
     1
100
AcDbLine
 10
415.5
 20
178.5
 30
0.0
 11
421.439697
 21
182.742641
 31
0.0
  0
LINE
  5
391
100
AcDbEntity
  8
LAY-5
  6
CONTINUOUS
 62
     1
100
AcDbLine
 10
406.0
 20
242.000001
 30
0.0
 11
406.0
 21
263.8
 31
0.0
  0
LINE
  5
392
100
AcDbEntity
  8
LAY-5
  6
CONTINUOUS
 62
     1
100
AcDbLine
 10
326.0
 20
242.000001
 30
0.0
 11
326.0
 21
263.8
 31
0.0
  0
TEXT
  5
393
100
AcDbEntity
  8
LAY-5
  6
CONTINUOUS
 62
     3
100
AcDbText
 10
336.0
 20
264.3
 30
0.0
 40
20.0
  1
φ
 41
0.84
  7
EXCADSTD
 72
     5
 11
352.0
 21
264.3
 31
0.0
100
AcDbText
  0
TEXT
  5
394
100
AcDbEntity
  8
LAY-5
  6
CONTINUOUS
 62
     3
100
AcDbText
 10
356.0
 20
264.3
 30
0.0
 40
20.0
  1
８０
 41
0.84
  7
EXCADSTD
 72
     5
 11
392.664
 21
264.3
 31
0.0
100
AcDbText
  0
LINE
  5
395
100
AcDbEntity
  8
LAY-5
  6
CONTINUOUS
 62
     1
100
AcDbLine
 10
406.0
 20
263.3
 30
0.0
 11
326.0
 21
263.3
 31
0.0
  0
LINE
  5
396
100
AcDbEntity
  8
LAY-5
  6
CONTINUOUS
 62
     1
100
AcDbLine
 10
398.8
 20
262.1
 30
0.0
 11
406.0
 21
263.3
 31
0.0
  0
LINE
  5
397
100
AcDbEntity
  8
LAY-5
  6
CONTINUOUS
 62
     1
100
AcDbLine
 10
406.0
 20
263.3
 30
0.0
 11
398.8
 21
264.5
 31
0.0
  0
LINE
  5
398
100
AcDbEntity
  8
LAY-5
  6
CONTINUOUS
 62
     1
100
AcDbLine
 10
333.2
 20
264.5
 30
0.0
 11
326.0
 21
263.3
 31
0.0
  0
LINE
  5
399
100
AcDbEntity
  8
LAY-5
  6
CONTINUOUS
 62
     1
100
AcDbLine
 10
326.0
 20
263.3
 30
0.0
 11
333.2
 21
262.1
 31
0.0
  0
LINE
  5
39A
100
AcDbEntity
  8
LAY-5
  6
CONTINUOUS
 62
     1
100
AcDbLine
 10
305.994862
 20
131.0
 30
0.0
 11
231.9
 21
131.0
 31
0.0
  0
LINE
  5
39B
100
AcDbEntity
  8
LAY-5
  6
CONTINUOUS
 62
     1
100
AcDbLine
 10
332.5
 20
248.5
 30
0.0
 11
231.9
 21
248.5
 31
0.0
  0
TEXT
  5
39C
100
AcDbEntity
  8
LAY-5
  6
CONTINUOUS
 62
     3
100
AcDbText
 10
231.65
 20
159.75
 30
0.0
 40
20.0
  1
１１８
 50
90.0
 41
0.84
  7
EXCADSTD
 72
     5
 11
231.65
 21
219.75
 31
0.0
100
AcDbText
  0
LINE
  5
39D
100
AcDbEntity
  8
LAY-5
  6
CONTINUOUS
 62
     1
100
AcDbLine
 10
232.4
 20
131.0
 30
0.0
 11
232.4
 21
248.5
 31
0.0
  0
LINE
  5
39E
100
AcDbEntity
  8
LAY-5
  6
CONTINUOUS
 62
     1
100
AcDbLine
 10
230.733333
 20
141.0
 30
0.0
 11
232.4
 21
131.0
 31
0.0
  0
LINE
  5
39F
100
AcDbEntity
  8
LAY-5
  6
CONTINUOUS
 62
     1
100
AcDbLine
 10
232.4
 20
131.0
 30
0.0
 11
234.066667
 21
141.0
 31
0.0
  0
LINE
  5
3A0
100
AcDbEntity
  8
LAY-5
  6
CONTINUOUS
 62
     1
100
AcDbLine
 10
234.066667
 20
238.5
 30
0.0
 11
232.4
 21
248.5
 31
0.0
  0
LINE
  5
3A1
100
AcDbEntity
  8
LAY-5
  6
CONTINUOUS
 62
     1
100
AcDbLine
 10
232.4
 20
248.5
 30
0.0
 11
230.733333
 21
238.5
 31
0.0
  0
POLYLINE
  5
3A2
100
AcDbEntity
  8
LAY-5
  6
CONTINUOUS
 62
     1
100
AcDb2dPolyline
 66
     1
 10
0.0
 20
0.0
 30
0.0
 70
   128
  0
VERTEX
  5
3A3
100
AcDbEntity
  8
LAY-5
  6
CONTINUOUS
 62
     1
100
AcDbVertex
100
AcDb2dVertex
 10
316.5
 20
83.5
 30
0.0
  0
VERTEX
  5
3A4
100
AcDbEntity
  8
LAY-5
  6
CONTINUOUS
 62
     1
100
AcDbVertex
100
AcDb2dVertex
 10
293.35
 20
60.35
 30
0.0
  0
VERTEX
  5
3A5
100
AcDbEntity
  8
LAY-5
  6
CONTINUOUS
 62
     1
100
AcDbVertex
100
AcDb2dVertex
 10
67.3
 20
60.35
 30
0.0
  0
SEQEND
  5
3A6
100
AcDbEntity
  8
LAY-5
  6
CONTINUOUS
 62
     1
  0
LINE
  5
3A7
100
AcDbEntity
  8
LAY-5
  6
CONTINUOUS
 62
     1
100
AcDbLine
 10
312.257359
 20
77.560303
 30
0.0
 11
316.5
 21
83.5
 31
0.0
  0
LINE
  5
3A8
100
AcDbEntity
  8
LAY-5
  6
CONTINUOUS
 62
     1
100
AcDbLine
 10
316.5
 20
83.5
 30
0.0
 11
310.560303
 21
79.257359
 31
0.0
  0
TEXT
  5
3A9
100
AcDbEntity
  8
LAY-5
  6
CONTINUOUS
 62
     3
100
AcDbText
 10
72.225
 20
59.75
 30
0.0
 40
16.0
  1
ＪＩＳ　２０Ｋ１５Ａフランジ
 50
360.0
 41
0.84
  7
EXCADSTD
 72
     5
 11
296.225
 21
59.75
 31
0.0
100
AcDbText
  0
TEXT
  5
3AA
100
AcDbEntity
  8
LAY-5
  6
CONTINUOUS
 62
     3
100
AcDbText
 10
72.225
 20
43.75
 30
0.0
 40
16.0
  1
　　　　　４－φ１５
 50
360.0
 41
0.84
  7
EXCADSTD
 72
     5
 11
232.225
 21
43.75
 31
0.0
100
AcDbText
  0
LINE
  5
3AB
100
AcDbEntity
  8
LAY-5
  6
CONTINUOUS
 62
     1
100
AcDbLine
 10
421.0
 20
105.5
 30
0.0
 11
421.0
 21
35.0
 31
0.0
  0
LINE
  5
3AC
100
AcDbEntity
  8
LAY-5
  6
CONTINUOUS
 62
     1
100
AcDbLine
 10
311.0
 20
105.5
 30
0.0
 11
311.0
 21
35.0
 31
0.0
  0
TEXT
  5
3AD
100
AcDbEntity
  8
LAY-5
  6
CONTINUOUS
 62
     3
100
AcDbText
 10
336.0
 20
36.5
 30
0.0
 40
20.0
  1
１１０
 41
0.84
  7
EXCADSTD
 72
     5
 11
396.0
 21
36.5
 31
0.0
100
AcDbText
  0
LINE
  5
3AE
100
AcDbEntity
  8
LAY-5
  6
CONTINUOUS
 62
     1
100
AcDbLine
 10
421.0
 20
35.5
 30
0.0
 11
311.0
 21
35.5
 31
0.0
  0
LINE
  5
3AF
100
AcDbEntity
  8
LAY-5
  6
CONTINUOUS
 62
     1
100
AcDbLine
 10
413.8
 20
34.3
 30
0.0
 11
421.0
 21
35.5
 31
0.0
  0
LINE
  5
3B0
100
AcDbEntity
  8
LAY-5
  6
CONTINUOUS
 62
     1
100
AcDbLine
 10
421.0
 20
35.5
 30
0.0
 11
413.8
 21
36.7
 31
0.0
  0
LINE
  5
3B1
100
AcDbEntity
  8
LAY-5
  6
CONTINUOUS
 62
     1
100
AcDbLine
 10
318.2
 20
36.7
 30
0.0
 11
311.0
 21
35.5
 31
0.0
  0
LINE
  5
3B2
100
AcDbEntity
  8
LAY-5
  6
CONTINUOUS
 62
     1
100
AcDbLine
 10
311.0
 20
35.5
 30
0.0
 11
318.2
 21
34.3
 31
0.0
  0
ENDSEC
  0
SECTION
  2
OBJECTS
  0
DICTIONARY
  5
19
100
AcDbDictionary
  3
ACAD_GROUP
350
1A
  3
ACAD_MLINESTYLE
350
1B
  0
DICTIONARY
  5
1A
102
{ACAD_REACTORS
330
19
102
}
100
AcDbDictionary
  0
DICTIONARY
  5
1B
102
{ACAD_REACTORS
330
19
102
}
100
AcDbDictionary
  3
STANDARD
350
1C
  0
MLINESTYLE
  5
1C
102
{ACAD_REACTORS
330
1B
102
}
100
AcDbMlineStyle
  2
Standard
 70
     0
  3

 62
     0
 51
90.0
 52
90.0
 71
     2
 49
0.5
 62
   256
  6
ByLayer
 49
-0.5
 62
   256
  6
ByLayer
  0
ENDSEC
  0
EOF
