  0
SECTION
  2
HEADER
  9
$ACADVER
  1
AC1014
  9
$ACADMAINTVER
 70
     0
  9
$DWGCODEPAGE
  3
ANSI_932
  9
$INSBASE
 10
0.0
 20
0.0
 30
0.0
  9
$EXTMIN
 10
175.686311
 20
-1.907869
 30
0.0
  9
$EXTMAX
 10
1054.923054
 20
858.054683
 30
0.0
  9
$LIMMIN
 10
0.0
 20
0.0
  9
$LIMMAX
 10
420.0
 20
297.0
  9
$ORTHOMODE
 70
     0
  9
$REGENMODE
 70
     1
  9
$FILLMODE
 70
     1
  9
$QTEXTMODE
 70
     0
  9
$MIRRTEXT
 70
     1
  9
$DRAGMODE
 70
     2
  9
$LTSCALE
 40
1.0
  9
$OSMODE
 70
     0
  9
$ATTMODE
 70
     1
  9
$TEXTSIZE
 40
0.2
  9
$TRACEWID
 40
0.05
  9
$TEXTSTYLE
  7
STANDARD
  9
$CLAYER
  8
LAY-1
  9
$CELTYPE
  6
CONTINUOUS
  9
$CECOLOR
 62
   256
  9
$CELTSCALE
 40
1.0
  9
$DELOBJ
 70
     1
  9
$DISPSILH
 70
     0
  9
$DIMSCALE
 40
1.0
  9
$DIMASZ
 40
0.18
  9
$DIMEXO
 40
0.0625
  9
$DIMDLI
 40
0.38
  9
$DIMRND
 40
0.0
  9
$DIMDLE
 40
0.0
  9
$DIMEXE
 40
0.18
  9
$DIMTP
 40
0.0
  9
$DIMTM
 40
0.0
  9
$DIMTXT
 40
0.18
  9
$DIMCEN
 40
0.09
  9
$DIMTSZ
 40
0.0
  9
$DIMTOL
 70
     0
  9
$DIMLIM
 70
     0
  9
$DIMTIH
 70
     1
  9
$DIMTOH
 70
     1
  9
$DIMSE1
 70
     0
  9
$DIMSE2
 70
     0
  9
$DIMTAD
 70
     0
  9
$DIMZIN
 70
     0
  9
$DIMBLK
  1

  9
$DIMASO
 70
     1
  9
$DIMSHO
 70
     1
  9
$DIMPOST
  1

  9
$DIMAPOST
  1

  9
$DIMALT
 70
     0
  9
$DIMALTD
 70
     2
  9
$DIMALTF
 40
25.4
  9
$DIMLFAC
 40
1.0
  9
$DIMTOFL
 70
     0
  9
$DIMTVP
 40
0.0
  9
$DIMTIX
 70
     0
  9
$DIMSOXD
 70
     0
  9
$DIMSAH
 70
     0
  9
$DIMBLK1
  1

  9
$DIMBLK2
  1

  9
$DIMSTYLE
  2
STANDARD
  9
$DIMCLRD
 70
     0
  9
$DIMCLRE
 70
     0
  9
$DIMCLRT
 70
     0
  9
$DIMTFAC
 40
1.0
  9
$DIMGAP
 40
0.09
  9
$DIMJUST
 70
     0
  9
$DIMSD1
 70
     0
  9
$DIMSD2
 70
     0
  9
$DIMTOLJ
 70
     1
  9
$DIMTZIN
 70
     0
  9
$DIMALTZ
 70
     0
  9
$DIMALTTZ
 70
     0
  9
$DIMFIT
 70
     3
  9
$DIMUPT
 70
     0
  9
$DIMUNIT
 70
     2
  9
$DIMDEC
 70
     4
  9
$DIMTDEC
 70
     4
  9
$DIMALTU
 70
     2
  9
$DIMALTTD
 70
     2
  9
$DIMTXSTY
  7
STANDARD
  9
$DIMAUNIT
 70
     0
  9
$LUNITS
 70
     2
  9
$LUPREC
 70
     4
  9
$SKETCHINC
 40
0.1
  9
$FILLETRAD
 40
0.0
  9
$AUNITS
 70
     0
  9
$AUPREC
 70
     0
  9
$MENU
  1
acad
  9
$ELEVATION
 40
0.0
  9
$PELEVATION
 40
0.0
  9
$THICKNESS
 40
0.0
  9
$LIMCHECK
 70
     0
  9
$BLIPMODE
 70
     1
  9
$CHAMFERA
 40
0.0
  9
$CHAMFERB
 40
0.0
  9
$CHAMFERC
 40
0.0
  9
$CHAMFERD
 40
0.0
  9
$SKPOLY
 70
     0
  9
$TDCREATE
 40
2457200.144865185
  9
$TDUPDATE
 40
2457200.144865185
  9
$TDINDWG
 40
0.0000000000
  9
$TDUSRTIMER
 40
0.0000000000
  9
$USRTIMER
 70
     1
  9
$ANGBASE
 50
0.0
  9
$ANGDIR
 70
     0
  9
$PDMODE
 70
     0
  9
$PDSIZE
 40
0.0
  9
$PLINEWID
 40
0.0
  9
$COORDS
 70
     1
  9
$SPLFRAME
 70
     0
  9
$SPLINETYPE
 70
     6
  9
$SPLINESEGS
 70
     8
  9
$ATTDIA
 70
     0
  9
$ATTREQ
 70
     1
  9
$HANDLING
 70
     1
  9
$HANDSEED
  5
387
  9
$SURFTAB1
 70
     6
  9
$SURFTAB2
 70
     6
  9
$SURFTYPE
 70
     6
  9
$SURFU
 70
     6
  9
$SURFV
 70
     6
  9
$UCSNAME
  2

  9
$UCSORG
 10
0.0
 20
0.0
 30
0.0
  9
$UCSXDIR
 10
1.0
 20
0.0
 30
0.0
  9
$UCSYDIR
 10
0.0
 20
1.0
 30
0.0
  9
$PUCSNAME
  2

  9
$PUCSORG
 10
0.0
 20
0.0
 30
0.0
  9
$PUCSXDIR
 10
1.0
 20
0.0
 30
0.0
  9
$PUCSYDIR
 10
0.0
 20
1.0
 30
0.0
  9
$USERI1
 70
     0
  9
$USERI2
 70
     0
  9
$USERI3
 70
     0
  9
$USERI4
 70
     0
  9
$USERI5
 70
     0
  9
$USERR1
 40
0.0
  9
$USERR2
 40
0.0
  9
$USERR3
 40
0.0
  9
$USERR4
 40
0.0
  9
$USERR5
 40
0.0
  9
$WORLDVIEW
 70
     1
  9
$SHADEDGE
 70
     3
  9
$SHADEDIF
 70
    70
  9
$TILEMODE
 70
     1
  9
$MAXACTVP
 70
    16
  9
$PINSBASE
 10
0.0
 20
0.0
 30
0.0
  9
$PLIMCHECK
 70
     0
  9
$PEXTMIN
 10
1.000000E+20
 20
1.000000E+20
 30
1.000000E+20
  9
$PEXTMAX
 10
-1.000000E+20
 20
-1.000000E+20
 30
-1.000000E+20
  9
$PLIMMIN
 10
0.0
 20
0.0
  9
$PLIMMAX
 10
12.0
 20
9.0
  9
$UNITMODE
 70
     0
  9
$VISRETAIN
 70
     0
  9
$PLINEGEN
 70
     1
  9
$PSLTSCALE
 70
     0
  9
$TREEDEPTH
 70
  3020
  9
$PICKSTYLE
 70
     1
  9
$CMLSTYLE
  2
Standard
  9
$CMLJUST
 70
     0
  9
$CMLSCALE
 40
1.0
  9
$PROXYGRAPHICS
 70
     0
  9
$MEASUREMENT
 70
     0
  0
ENDSEC
  0
SECTION
  2
CLASSES
  0
CLASS
  1
LWPOLYLINE
  2
AcDbPolyline
  3
"AutoCAD"
 90
        0
280
     0
281
     1
  0
CLASS
  1
IMAGE
  2
AcDbRasterImage
  3
ISM
 90
      127
280
     0
281
     1
  0
CLASS
  1
OLE2FRAME
  2
AcDbOle2Frame
  3
""
 90
        0
280
     0
281
     1
  0
CLASS
  1
HATCH
  2
AcDbHatch
  3
"ACAD_SEDONA"
 90
        0
280
     0
281
     1
  0
CLASS
  1
DICTIONARYVAR
  2
AcDbDictionaryVar
  3
"AutoCAD"
 90
        0
280
     0
281
     0
  0
CLASS
  1
RASTERVARIABLES
  2
AcDbRasterVariables
  3
ISM
 90
        0
280
     0
281
     0
  0
CLASS
  1
IMAGEDEF
  2
AcDbRasterImageDef
  3
ISM
 90
        0
280
     0
281
     0
  0
CLASS
  1
IMAGEDEF_REACTOR
  2
AcDbRasterImageDefReactor
  3
ISM
 90
        1
280
     0
281
     0
  0
CLASS
  1
IDBUFFER
  2
AcDbIdBuffer
  3
"Acad"
 90
        0
280
     0
281
     0
  0
CLASS
  1
SPATIAL_FILTER
  2
AcDbSpatialFilter
  3
"Acad"
 90
        0
280
     0
281
     0
  0
CLASS
  1
XRECORD
  2
AcDbXrecord
  3
"<Built In>"
 90
        0
280
     0
281
     0
  0
CLASS
  1
SORTENTSTABLE
  2
AcDbSortentsTable
  3
"AutoCAD"
 90
        0
280
     0
281
     0
  0
CLASS
  1
LAYER_INDEX
  2
AcDbLayerIndex
  3
"Acad"
 90
        0
280
     0
281
     0
  0
CLASS
  1
SPATIAL_INDEX
  2
AcDbSpatialIndex
  3
"Acad"
 90
        0
280
     0
281
     0
  0
CLASS
  1
OBJECT_PTR
  2
CAseDLPNTableRecord
  3
"ASE-LPNTableRecord"
 90
        1
280
     0
281
     0
  0
CLASS
  1
LAYOUT
  2
AcDbLayout
  3
"AutoCAD 2000"
 90
        0
280
     0
281
     0
  0
CLASS
  1
PLOTSETTINGS
  2
AcDbPlotSettings
  3
"AutoCAD 2000"
 90
        0
280
     0
281
     0
  0
CLASS
  1
ACDBDICTIONARYWDFLT
  2
AcDbDictionaryWithDefault
  3
"AutoCAD 2000"
 90
        0
280
     0
281
     0
  0
CLASS
  1
ACDBPLACEHOLDER
  2
AcDbPlaceHolder
  3
"AutoCAD 2000"
 90
        0
280
     0
281
     0
  0
CLASS
  1
VBA_PROJECT
  2
AcDbVbaProject
  3
"acadvba"
 90
        0
280
     0
281
     0
  0
CLASS
  1
WIPEOUT
  2
AcDbWipeout
  3
WipeOut|AutoCAD Express Tool|expresstools@autodesk.com
 90
      127
280
     0
281
     1
  0
CLASS
  1
WIPEOUTVARIABLES
  2
AcDbWipeoutVariables
  3
WipeOut|AutoCAD Express Tool|expresstools@autodesk.com
 90
        0
280
     0
281
     0
  0
CLASS
  1
RTEXT
  2
RText
  3
RText|AutoCAD Express Tool|expresstools@autodesk.com
 90
        0
280
     0
281
     1
  0
CLASS
  1
ARCALIGNEDTEXT
  2
AcDbArcAlignedText
  3
ATEXT|AutoCAD Express Tool|expresstools@autodesk.com
 90
        0
280
     0
281
     1
  0
ENDSEC
  0
SECTION
  2
TABLES
  0
TABLE
  2
VPORT
  5
7
100
AcDbSymbolTable
 70
     1
  0
VPORT
  5
15
100
AcDbSymbolTableRecord
100
AcDbViewportTableRecord
  2
*ACTIVE
 70
     0
 10
0.0
 20
0.0
 11
1.0
 21
1.0
 12
615.304683
 22
428.073407
 13
0.0
 23
0.0
 14
1.0
 24
1.0
 15
0.0
 25
0.0
 16
0.0
 26
0.0
 36
1.0
 17
0.0
 27
0.0
 37
0.0
 40
859.962552
 41
1.722533
 42
50.0
 43
0.0
 44
0.0
 50
0.0
 51
0.0
 71
     0
 72
  1000
 73
     1
 74
     1
 75
     0
 76
     0
 77
     0
 78
     0
  0
ENDTAB
  0
TABLE
  2
LTYPE
  5
4
100
AcDbSymbolTable
 70
     9
  0
LTYPE
  5
11
100
AcDbSymbolTableRecord
100
AcDbLinetypeTableRecord
  2
BYBLOCK
 70
    64
  3

 72
    65
 73
     0
 40
0.0
  0
LTYPE
  5
12
100
AcDbSymbolTableRecord
100
AcDbLinetypeTableRecord
  2
BYLAYER
 70
    64
  3

 72
    65
 73
     0
 40
0.0
  0
LTYPE
  5
13
100
AcDbSymbolTableRecord
100
AcDbLinetypeTableRecord
  2
CONTINUOUS
 70
    64
  3
実線
 72
    65
 73
     0
 40
0.0
  0
LTYPE
  5
1D
100
AcDbSymbolTableRecord
100
AcDbLinetypeTableRecord
  2
EXLTYPE1
 70
    64
  3
破線
 72
    65
 73
     2
 40
4.0
 49
2.0
 74
     0
 49
-2.0
 74
     0
  0
LTYPE
  5
1E
100
AcDbSymbolTableRecord
100
AcDbLinetypeTableRecord
  2
EXLTYPE2
 70
    64
  3
点線
 72
    65
 73
     2
 40
2.0
 49
1.0
 74
     0
 49
-1.0
 74
     0
  0
LTYPE
  5
1F
100
AcDbSymbolTableRecord
100
AcDbLinetypeTableRecord
  2
EXLTYPE3
 70
    64
  3
一点鎖線
 72
    65
 73
     4
 40
33.0
 49
30.0
 74
     0
 49
-1.0
 74
     0
 49
1.0
 74
     0
 49
-1.0
 74
     0
  0
LTYPE
  5
20
100
AcDbSymbolTableRecord
100
AcDbLinetypeTableRecord
  2
EXLTYPE4
 70
    64
  3
二点鎖線
 72
    65
 73
     6
 40
35.0
 49
30.0
 74
     0
 49
-1.0
 74
     0
 49
1.0
 74
     0
 49
-1.0
 74
     0
 49
1.0
 74
     0
 49
-1.0
 74
     0
  0
LTYPE
  5
21
100
AcDbSymbolTableRecord
100
AcDbLinetypeTableRecord
  2
EXLTYPE5
 70
    64
  3
三点鎖線
 72
    65
 73
     8
 40
37.0
 49
30.0
 74
     0
 49
-1.0
 74
     0
 49
1.0
 74
     0
 49
-1.0
 74
     0
 49
1.0
 74
     0
 49
-1.0
 74
     0
 49
1.0
 74
     0
 49
-1.0
 74
     0
  0
LTYPE
  5
22
100
AcDbSymbolTableRecord
100
AcDbLinetypeTableRecord
  2
EXLTYPE6
 70
    64
  3
四点鎖線
 72
    65
 73
    10
 40
39.0
 49
30.0
 74
     0
 49
-1.0
 74
     0
 49
1.0
 74
     0
 49
-1.0
 74
     0
 49
1.0
 74
     0
 49
-1.0
 74
     0
 49
1.0
 74
     0
 49
-1.0
 74
     0
 49
1.0
 74
     0
 49
-1.0
 74
     0
  0
ENDTAB
  0
TABLE
  2
LAYER
  5
2
100
AcDbSymbolTable
 70
     3
  0
LAYER
  5
14
100
AcDbSymbolTableRecord
100
AcDbLayerTableRecord
  2
0
 70
     0
 62
     7
  6
CONTINUOUS
  0
LAYER
  5
25
100
AcDbSymbolTableRecord
100
AcDbLayerTableRecord
  2
LAY-1
 70
    64
 62
     7
  6
CONTINUOUS
  0
LAYER
  5
26
100
AcDbSymbolTableRecord
100
AcDbLayerTableRecord
  2
LAY-3
 70
    64
 62
     1
  6
CONTINUOUS
  0
ENDTAB
  0
TABLE
  2
STYLE
  5
3
100
AcDbSymbolTable
 70
     3
  0
STYLE
  5
17
100
AcDbSymbolTableRecord
100
AcDbTextStyleTableRecord
  2
STANDARD
 70
     0
 40
0.0
 41
1.0
 50
0.0
 71
     0
 42
0.0
  3
monotxt
  4
extfont
  0
STYLE
  5
23
100
AcDbSymbolTableRecord
100
AcDbTextStyleTableRecord
  2
EXCADSTD
 70
    64
 40
0.0
 41
1.0
 50
0.0
 71
     0
 42
0.2
  3
monotxt
  4
extfont
  0
STYLE
  5
24
100
AcDbSymbolTableRecord
100
AcDbTextStyleTableRecord
  2
EXCADVERT
 70
    68
 40
0.0
 41
1.0
 50
0.0
 71
     0
 42
0.286885
  3
monotxt
  4
extfont
  0
ENDTAB
  0
TABLE
  2
VIEW
  5
5
100
AcDbSymbolTable
 70
     0
  0
ENDTAB
  0
TABLE
  2
UCS
  5
6
100
AcDbSymbolTable
 70
     0
  0
ENDTAB
  0
TABLE
  2
APPID
  5
8
100
AcDbSymbolTable
 70
     1
  0
APPID
  5
16
100
AcDbSymbolTableRecord
100
AcDbRegAppTableRecord
  2
ACAD
 70
     0
  0
ENDTAB
  0
TABLE
  2
DIMSTYLE
  5
9
100
AcDbSymbolTable
 70
     1
  0
DIMSTYLE
105
18
100
AcDbSymbolTableRecord
100
AcDbDimStyleTableRecord
  2
STANDARD
 70
     0
  3

  4

  5

  6

  7

 40
1.0
 41
0.18
 42
0.0625
 43
0.38
 44
0.18
 45
0.0
 46
0.0
 47
0.0
 48
0.0
 71
     0
 72
     0
 73
     1
 74
     1
 75
     0
 76
     0
 77
     0
 78
     0
140
0.18
141
0.09
142
0.0
143
25.4
144
1.0
145
0.0
146
1.0
147
0.09
170
     0
171
     2
172
     1
173
     0
174
     0
175
     0
176
     0
177
     0
178
     0
270
     2
271
     4
272
     4
273
     2
274
     2
275
     0
280
     0
281
     0
282
     0
283
     1
284
     0
285
     0
286
     0
287
     3
288
     0
340
17
  0
ENDTAB
  0
TABLE
  2
BLOCK_RECORD
  5
1
100
AcDbSymbolTable
 70
    14
  0
BLOCK_RECORD
  5
A
100
AcDbSymbolTableRecord
100
AcDbBlockTableRecord
  2
*MODEL_SPACE
  0
BLOCK_RECORD
  5
B
100
AcDbSymbolTableRecord
100
AcDbBlockTableRecord
  2
*PAPER_SPACE
  0
BLOCK_RECORD
  5
27
100
AcDbSymbolTableRecord
100
AcDbBlockTableRecord
  2
_EX_NORM
  0
BLOCK_RECORD
  5
28
100
AcDbSymbolTableRecord
100
AcDbBlockTableRecord
  2
_EX_BNORM
  0
BLOCK_RECORD
  5
29
100
AcDbSymbolTableRecord
100
AcDbBlockTableRecord
  2
_EX_BCIR
  0
BLOCK_RECORD
  5
2A
100
AcDbSymbolTableRecord
100
AcDbBlockTableRecord
  2
_EX_RCIVIL
  0
BLOCK_RECORD
  5
2B
100
AcDbSymbolTableRecord
100
AcDbBlockTableRecord
  2
_EX_SLANT
  0
BLOCK_RECORD
  5
2C
100
AcDbSymbolTableRecord
100
AcDbBlockTableRecord
  2
_EX_NONE
  0
BLOCK_RECORD
  5
2D
100
AcDbSymbolTableRecord
100
AcDbBlockTableRecord
  2
_EX_CIVIL
  0
BLOCK_RECORD
  5
2E
100
AcDbSymbolTableRecord
100
AcDbBlockTableRecord
  2
_EX_WCIR
  0
BLOCK_RECORD
  5
2F
100
AcDbSymbolTableRecord
100
AcDbBlockTableRecord
  2
_EX_WCIR2
  0
BLOCK_RECORD
  5
30
100
AcDbSymbolTableRecord
100
AcDbBlockTableRecord
  2
_EX_WNORM
  0
BLOCK_RECORD
  5
31
100
AcDbSymbolTableRecord
100
AcDbBlockTableRecord
  2
_EX_NNORM
  0
BLOCK_RECORD
  5
32
100
AcDbSymbolTableRecord
100
AcDbBlockTableRecord
  2
_EX_BBOX
  0
BLOCK_RECORD
  5
33
100
AcDbSymbolTableRecord
100
AcDbBlockTableRecord
  2
_EX_WBOX
  0
BLOCK_RECORD
  5
34
100
AcDbSymbolTableRecord
100
AcDbBlockTableRecord
  2
_EX_INTEGRAL
  0
ENDTAB
  0
ENDSEC
  0
SECTION
  2
BLOCKS
  0
BLOCK
  5
D
100
AcDbEntity
  8
0
100
AcDbBlockBegin
  2
*MODEL_SPACE
 70
     0
 10
0.0
 20
0.0
 30
0.0
  3
*MODEL_SPACE
  1

  0
ENDBLK
  5
E
100
AcDbEntity
  8
0
100
AcDbBlockEnd
  0
BLOCK
  5
F
100
AcDbEntity
 67
     1
  8
0
100
AcDbBlockBegin
  2
*PAPER_SPACE
 70
     0
 10
0.0
 20
0.0
 30
0.0
  3
*PAPER_SPACE
  1

  0
ENDBLK
  5
10
100
AcDbEntity
 67
     1
  8
0
100
AcDbBlockEnd
  0
BLOCK
  5
35
100
AcDbEntity
  8
0
100
AcDbBlockBegin
  2
_EX_NORM
 70
     0
 10
0.0
 20
0.0
 30
0.0
  3
_EX_NORM
  1

  0
LINE
  5
36
100
AcDbEntity
  8
0
  6
CONTINUOUS
 62
     0
100
AcDbLine
 10
0.0
 20
0.0
 30
0.0
 11
-1.0
 21
0.0
 31
0.0
  0
LINE
  5
37
100
AcDbEntity
  8
0
  6
CONTINUOUS
 62
     0
100
AcDbLine
 10
0.0
 20
0.0
 30
0.0
 11
-1.0
 21
0.166667
 31
0.0
  0
LINE
  5
38
100
AcDbEntity
  8
0
  6
CONTINUOUS
 62
     0
100
AcDbLine
 10
0.0
 20
0.0
 30
0.0
 11
-1.0
 21
-0.166667
 31
0.0
  0
ENDBLK
  5
39
100
AcDbEntity
  8
0
100
AcDbBlockEnd
  0
BLOCK
  5
3A
100
AcDbEntity
  8
0
100
AcDbBlockBegin
  2
_EX_BNORM
 70
     0
 10
0.0
 20
0.0
 30
0.0
  3
_EX_BNORM
  1

  0
LINE
  5
3B
100
AcDbEntity
  8
0
  6
CONTINUOUS
 62
     0
100
AcDbLine
 10
0.0
 20
0.0
 30
0.0
 11
-1.0
 21
0.0
 31
0.0
  0
LINE
  5
3C
100
AcDbEntity
  8
0
  6
CONTINUOUS
 62
     0
100
AcDbLine
 10
0.0
 20
0.0
 30
0.0
 11
-1.0
 21
0.166667
 31
0.0
  0
LINE
  5
3D
100
AcDbEntity
  8
0
  6
CONTINUOUS
 62
     0
100
AcDbLine
 10
0.0
 20
0.0
 30
0.0
 11
-1.0
 21
-0.166667
 31
0.0
  0
LINE
  5
3E
100
AcDbEntity
  8
0
  6
CONTINUOUS
 62
     0
100
AcDbLine
 10
0.0
 20
0.0
 30
0.0
 11
-1.0
 21
0.083333
 31
0.0
  0
LINE
  5
3F
100
AcDbEntity
  8
0
  6
CONTINUOUS
 62
     0
100
AcDbLine
 10
0.0
 20
0.0
 30
0.0
 11
-1.0
 21
-0.083333
 31
0.0
  0
LINE
  5
40
100
AcDbEntity
  8
0
  6
CONTINUOUS
 62
     0
100
AcDbLine
 10
-1.0
 20
0.166667
 30
0.0
 11
-1.0
 21
-0.166667
 31
0.0
  0
ENDBLK
  5
41
100
AcDbEntity
  8
0
100
AcDbBlockEnd
  0
BLOCK
  5
42
100
AcDbEntity
  8
0
100
AcDbBlockBegin
  2
_EX_BCIR
 70
     0
 10
0.0
 20
0.0
 30
0.0
  3
_EX_BCIR
  1

  0
LINE
  5
43
100
AcDbEntity
  8
0
  6
CONTINUOUS
 62
     0
100
AcDbLine
 10
0.0
 20
0.0
 30
0.0
 11
-1.0
 21
0.0
 31
0.0
  0
CIRCLE
  5
44
100
AcDbEntity
  8
0
  6
CONTINUOUS
 62
     0
100
AcDbCircle
 10
0.0
 20
0.0
 30
0.0
 40
0.5
  0
CIRCLE
  5
45
100
AcDbEntity
  8
0
  6
CONTINUOUS
 62
     0
100
AcDbCircle
 10
0.0
 20
0.0
 30
0.0
 40
0.25
  0
ENDBLK
  5
46
100
AcDbEntity
  8
0
100
AcDbBlockEnd
  0
BLOCK
  5
47
100
AcDbEntity
  8
0
100
AcDbBlockBegin
  2
_EX_RCIVIL
 70
     0
 10
0.0
 20
0.0
 30
0.0
  3
_EX_RCIVIL
  1

  0
LINE
  5
48
100
AcDbEntity
  8
0
  6
CONTINUOUS
 62
     0
100
AcDbLine
 10
0.0
 20
0.0
 30
0.0
 11
-1.0
 21
0.0
 31
0.0
  0
LINE
  5
49
100
AcDbEntity
  8
0
  6
CONTINUOUS
 62
     0
100
AcDbLine
 10
-1.0
 20
-0.25
 30
0.0
 11
0.0
 21
-0.25
 31
0.0
  0
LINE
  5
4A
100
AcDbEntity
  8
0
  6
CONTINUOUS
 62
     0
100
AcDbLine
 10
-1.0
 20
-0.125
 30
0.0
 11
0.0
 21
-0.125
 31
0.0
  0
ENDBLK
  5
4B
100
AcDbEntity
  8
0
100
AcDbBlockEnd
  0
BLOCK
  5
4C
100
AcDbEntity
  8
0
100
AcDbBlockBegin
  2
_EX_SLANT
 70
     0
 10
0.0
 20
0.0
 30
0.0
  3
_EX_SLANT
  1

  0
LINE
  5
4D
100
AcDbEntity
  8
0
  6
CONTINUOUS
 62
     0
100
AcDbLine
 10
0.0
 20
0.0
 30
0.0
 11
-1.0
 21
0.0
 31
0.0
  0
LINE
  5
4E
100
AcDbEntity
  8
0
  6
CONTINUOUS
 62
     0
100
AcDbLine
 10
0.707107
 20
0.707107
 30
0.0
 11
-0.707107
 21
-0.707107
 31
0.0
  0
ENDBLK
  5
4F
100
AcDbEntity
  8
0
100
AcDbBlockEnd
  0
BLOCK
  5
50
100
AcDbEntity
  8
0
100
AcDbBlockBegin
  2
_EX_NONE
 70
     0
 10
0.0
 20
0.0
 30
0.0
  3
_EX_NONE
  1

  0
LINE
  5
51
100
AcDbEntity
  8
0
  6
CONTINUOUS
 62
     0
100
AcDbLine
 10
0.0
 20
0.0
 30
0.0
 11
-1.0
 21
0.0
 31
0.0
  0
ENDBLK
  5
52
100
AcDbEntity
  8
0
100
AcDbBlockEnd
  0
BLOCK
  5
53
100
AcDbEntity
  8
0
100
AcDbBlockBegin
  2
_EX_CIVIL
 70
     0
 10
0.0
 20
0.0
 30
0.0
  3
_EX_CIVIL
  1

  0
LINE
  5
54
100
AcDbEntity
  8
0
  6
CONTINUOUS
 62
     0
100
AcDbLine
 10
0.0
 20
0.0
 30
0.0
 11
-1.0
 21
0.0
 31
0.0
  0
LINE
  5
55
100
AcDbEntity
  8
0
  6
CONTINUOUS
 62
     0
100
AcDbLine
 10
-1.0
 20
0.25
 30
0.0
 11
0.0
 21
0.25
 31
0.0
  0
LINE
  5
56
100
AcDbEntity
  8
0
  6
CONTINUOUS
 62
     0
100
AcDbLine
 10
-1.0
 20
0.125
 30
0.0
 11
0.0
 21
0.125
 31
0.0
  0
ENDBLK
  5
57
100
AcDbEntity
  8
0
100
AcDbBlockEnd
  0
BLOCK
  5
58
100
AcDbEntity
  8
0
100
AcDbBlockBegin
  2
_EX_WCIR
 70
     0
 10
0.0
 20
0.0
 30
0.0
  3
_EX_WCIR
  1

  0
LINE
  5
59
100
AcDbEntity
  8
0
  6
CONTINUOUS
 62
     0
100
AcDbLine
 10
0.0
 20
0.0
 30
0.0
 11
-1.0
 21
0.0
 31
0.0
  0
CIRCLE
  5
5A
100
AcDbEntity
  8
0
  6
CONTINUOUS
 62
     0
100
AcDbCircle
 10
0.0
 20
0.0
 30
0.0
 40
0.5
  0
ENDBLK
  5
5B
100
AcDbEntity
  8
0
100
AcDbBlockEnd
  0
BLOCK
  5
5C
100
AcDbEntity
  8
0
100
AcDbBlockBegin
  2
_EX_WCIR2
 70
     0
 10
0.0
 20
0.0
 30
0.0
  3
_EX_WCIR2
  1

  0
LINE
  5
5D
100
AcDbEntity
  8
0
  6
CONTINUOUS
 62
     0
100
AcDbLine
 10
-0.5
 20
0.0
 30
0.0
 11
-1.0
 21
0.0
 31
0.0
  0
CIRCLE
  5
5E
100
AcDbEntity
  8
0
  6
CONTINUOUS
 62
     0
100
AcDbCircle
 10
0.0
 20
0.0
 30
0.0
 40
0.5
  0
ENDBLK
  5
5F
100
AcDbEntity
  8
0
100
AcDbBlockEnd
  0
BLOCK
  5
60
100
AcDbEntity
  8
0
100
AcDbBlockBegin
  2
_EX_WNORM
 70
     0
 10
0.0
 20
0.0
 30
0.0
  3
_EX_WNORM
  1

  0
LINE
  5
61
100
AcDbEntity
  8
0
  6
CONTINUOUS
 62
     0
100
AcDbLine
 10
-1.0
 20
0.0
 30
0.0
 11
-1.0
 21
0.0
 31
0.0
  0
LINE
  5
62
100
AcDbEntity
  8
0
  6
CONTINUOUS
 62
     0
100
AcDbLine
 10
0.0
 20
0.0
 30
0.0
 11
-1.0
 21
0.166667
 31
0.0
  0
LINE
  5
63
100
AcDbEntity
  8
0
  6
CONTINUOUS
 62
     0
100
AcDbLine
 10
0.0
 20
0.0
 30
0.0
 11
-1.0
 21
-0.166667
 31
0.0
  0
LINE
  5
64
100
AcDbEntity
  8
0
  6
CONTINUOUS
 62
     0
100
AcDbLine
 10
-1.0
 20
0.166667
 30
0.0
 11
-1.0
 21
-0.166667
 31
0.0
  0
ENDBLK
  5
65
100
AcDbEntity
  8
0
100
AcDbBlockEnd
  0
BLOCK
  5
66
100
AcDbEntity
  8
0
100
AcDbBlockBegin
  2
_EX_NNORM
 70
     0
 10
0.0
 20
0.0
 30
0.0
  3
_EX_NNORM
  1

  0
LINE
  5
67
100
AcDbEntity
  8
0
  6
CONTINUOUS
 62
     0
100
AcDbLine
 10
0.0
 20
0.0
 30
0.0
 11
-1.0
 21
0.0
 31
0.0
  0
LINE
  5
68
100
AcDbEntity
  8
0
  6
CONTINUOUS
 62
     0
100
AcDbLine
 10
0.0
 20
0.0
 30
0.0
 11
-1.0
 21
0.166667
 31
0.0
  0
LINE
  5
69
100
AcDbEntity
  8
0
  6
CONTINUOUS
 62
     0
100
AcDbLine
 10
0.0
 20
0.0
 30
0.0
 11
-1.0
 21
-0.166667
 31
0.0
  0
LINE
  5
6A
100
AcDbEntity
  8
0
  6
CONTINUOUS
 62
     0
100
AcDbLine
 10
-1.0
 20
0.166667
 30
0.0
 11
-1.0
 21
-0.166667
 31
0.0
  0
ENDBLK
  5
6B
100
AcDbEntity
  8
0
100
AcDbBlockEnd
  0
BLOCK
  5
6C
100
AcDbEntity
  8
0
100
AcDbBlockBegin
  2
_EX_BBOX
 70
     0
 10
0.0
 20
0.0
 30
0.0
  3
_EX_BBOX
  1

  0
LINE
  5
6D
100
AcDbEntity
  8
0
  6
CONTINUOUS
 62
     0
100
AcDbLine
 10
0.0
 20
0.0
 30
0.0
 11
-1.0
 21
0.0
 31
0.0
  0
LINE
  5
6E
100
AcDbEntity
  8
0
  6
CONTINUOUS
 62
     0
100
AcDbLine
 10
-0.5
 20
0.5
 30
0.0
 11
0.5
 21
0.5
 31
0.0
  0
LINE
  5
6F
100
AcDbEntity
  8
0
  6
CONTINUOUS
 62
     0
100
AcDbLine
 10
0.5
 20
0.5
 30
0.0
 11
0.5
 21
-0.5
 31
0.0
  0
LINE
  5
70
100
AcDbEntity
  8
0
  6
CONTINUOUS
 62
     0
100
AcDbLine
 10
0.5
 20
-0.5
 30
0.0
 11
-0.5
 21
-0.5
 31
0.0
  0
LINE
  5
71
100
AcDbEntity
  8
0
  6
CONTINUOUS
 62
     0
100
AcDbLine
 10
-0.5
 20
-0.5
 30
0.0
 11
-0.5
 21
0.5
 31
0.0
  0
LINE
  5
72
100
AcDbEntity
  8
0
  6
CONTINUOUS
 62
     0
100
AcDbLine
 10
-0.25
 20
0.25
 30
0.0
 11
0.25
 21
0.25
 31
0.0
  0
LINE
  5
73
100
AcDbEntity
  8
0
  6
CONTINUOUS
 62
     0
100
AcDbLine
 10
0.25
 20
0.25
 30
0.0
 11
0.25
 21
-0.25
 31
0.0
  0
LINE
  5
74
100
AcDbEntity
  8
0
  6
CONTINUOUS
 62
     0
100
AcDbLine
 10
0.25
 20
-0.25
 30
0.0
 11
-0.25
 21
-0.25
 31
0.0
  0
LINE
  5
75
100
AcDbEntity
  8
0
  6
CONTINUOUS
 62
     0
100
AcDbLine
 10
-0.25
 20
-0.25
 30
0.0
 11
-0.25
 21
0.25
 31
0.0
  0
ENDBLK
  5
76
100
AcDbEntity
  8
0
100
AcDbBlockEnd
  0
BLOCK
  5
77
100
AcDbEntity
  8
0
100
AcDbBlockBegin
  2
_EX_WBOX
 70
     0
 10
0.0
 20
0.0
 30
0.0
  3
_EX_WBOX
  1

  0
LINE
  5
78
100
AcDbEntity
  8
0
  6
CONTINUOUS
 62
     0
100
AcDbLine
 10
-0.5
 20
0.0
 30
0.0
 11
-1.0
 21
0.0
 31
0.0
  0
LINE
  5
79
100
AcDbEntity
  8
0
  6
CONTINUOUS
 62
     0
100
AcDbLine
 10
-0.5
 20
0.5
 30
0.0
 11
0.5
 21
0.5
 31
0.0
  0
LINE
  5
7A
100
AcDbEntity
  8
0
  6
CONTINUOUS
 62
     0
100
AcDbLine
 10
0.5
 20
0.5
 30
0.0
 11
0.5
 21
-0.5
 31
0.0
  0
LINE
  5
7B
100
AcDbEntity
  8
0
  6
CONTINUOUS
 62
     0
100
AcDbLine
 10
0.5
 20
-0.5
 30
0.0
 11
-0.5
 21
-0.5
 31
0.0
  0
LINE
  5
7C
100
AcDbEntity
  8
0
  6
CONTINUOUS
 62
     0
100
AcDbLine
 10
-0.5
 20
-0.5
 30
0.0
 11
-0.5
 21
0.5
 31
0.0
  0
ENDBLK
  5
7D
100
AcDbEntity
  8
0
100
AcDbBlockEnd
  0
BLOCK
  5
7E
100
AcDbEntity
  8
0
100
AcDbBlockBegin
  2
_EX_INTEGRAL
 70
     0
 10
0.0
 20
0.0
 30
0.0
  3
_EX_INTEGRAL
  1

  0
LINE
  5
7F
100
AcDbEntity
  8
0
  6
CONTINUOUS
 62
     0
100
AcDbLine
 10
0.0
 20
0.0
 30
0.0
 11
-1.0
 21
0.0
 31
0.0
  0
ARC
  5
80
100
AcDbEntity
  8
0
  6
CONTINUOUS
 62
     0
100
AcDbCircle
 10
0.542115
 20
0.164992
 30
0.0
 40
0.56667
100
AcDbArc
 50
73.07249
 51
196.927513
  0
ARC
  5
81
100
AcDbEntity
  8
0
  6
CONTINUOUS
 62
     0
100
AcDbCircle
 10
-0.542115
 20
-0.164992
 30
0.0
 40
0.56667
100
AcDbArc
 50
253.072487
 51
16.927513
  0
ENDBLK
  5
82
100
AcDbEntity
  8
0
100
AcDbBlockEnd
  0
ENDSEC
  0
SECTION
  2
ENTITIES
  0
LINE
  5
83
100
AcDbEntity
  8
LAY-1
  6
CONTINUOUS
 62
     1
100
AcDbLine
 10
510.052867
 20
116.945317
 30
0.0
 11
461.888784
 21
116.945317
 31
0.0
  0
LINE
  5
84
100
AcDbEntity
  8
LAY-1
  6
CONTINUOUS
 62
     1
100
AcDbLine
 10
572.388784
 20
299.445317
 30
0.0
 11
461.888784
 21
299.445317
 31
0.0
  0
TEXT
  5
85
100
AcDbEntity
  8
LAY-1
  6
CONTINUOUS
 62
     3
100
AcDbText
 10
461.388784
 20
185.695317
 30
0.0
 40
15.0
  1
１８３
 50
90.0
 41
0.84
  7
EXCADSTD
 72
     5
 11
461.388784
 21
230.695317
 31
0.0
100
AcDbText
  0
LINE
  5
86
100
AcDbEntity
  8
LAY-1
  6
CONTINUOUS
 62
     1
100
AcDbLine
 10
462.388784
 20
116.945317
 30
0.0
 11
462.388784
 21
299.445317
 31
0.0
  0
LINE
  5
87
100
AcDbEntity
  8
LAY-1
  6
CONTINUOUS
 62
     1
100
AcDbLine
 10
462.055451
 20
118.945317
 30
0.0
 11
462.388784
 21
116.945317
 31
0.0
  0
LINE
  5
88
100
AcDbEntity
  8
LAY-1
  6
CONTINUOUS
 62
     1
100
AcDbLine
 10
462.388784
 20
116.945317
 30
0.0
 11
462.722117
 21
118.945317
 31
0.0
  0
LINE
  5
89
100
AcDbEntity
  8
LAY-1
  6
CONTINUOUS
 62
     1
100
AcDbLine
 10
462.722117
 20
297.445317
 30
0.0
 11
462.388784
 21
299.445317
 31
0.0
  0
LINE
  5
8A
100
AcDbEntity
  8
LAY-1
  6
CONTINUOUS
 62
     1
100
AcDbLine
 10
462.388784
 20
299.445317
 30
0.0
 11
462.055451
 21
297.445317
 31
0.0
  0
POLYLINE
  5
8B
100
AcDbEntity
  8
LAY-1
  6
CONTINUOUS
 62
     1
100
AcDb2dPolyline
 66
     1
 10
0.0
 20
0.0
 30
0.0
 70
   128
  0
VERTEX
  5
8C
100
AcDbEntity
  8
LAY-1
  6
CONTINUOUS
 62
     1
100
AcDbVertex
100
AcDb2dVertex
 10
527.304683
 20
52.8
 30
0.0
  0
VERTEX
  5
8D
100
AcDbEntity
  8
LAY-1
  6
CONTINUOUS
 62
     1
100
AcDbVertex
100
AcDb2dVertex
 10
494.0
 20
16.953428
 30
0.0
  0
VERTEX
  5
8E
100
AcDbEntity
  8
LAY-1
  6
CONTINUOUS
 62
     1
100
AcDbVertex
100
AcDb2dVertex
 10
278.8
 20
16.769326
 30
0.0
  0
SEQEND
  5
8F
100
AcDbEntity
  8
LAY-1
  6
CONTINUOUS
 62
     1
  0
LINE
  5
90
100
AcDbEntity
  8
LAY-1
  6
CONTINUOUS
 62
     1
100
AcDbLine
 10
526.187574
 20
51.107907
 30
0.0
 11
527.304683
 21
52.8
 31
0.0
  0
LINE
  5
91
100
AcDbEntity
  8
LAY-1
  6
CONTINUOUS
 62
     1
100
AcDbLine
 10
527.304683
 20
52.8
 30
0.0
 11
525.699172
 21
51.561677
 31
0.0
  0
TEXT
  5
92
100
AcDbEntity
  8
LAY-1
  6
CONTINUOUS
 62
     3
100
AcDbText
 10
297.454683
 20
19.069326
 30
0.0
 40
15.0
  1
ＪＩＳ２０Ｋ４０Ａフランジ
 41
0.84
  7
EXCADSTD
 72
     5
 11
492.454683
 21
19.069326
 31
0.0
100
AcDbText
  0
POLYLINE
  5
93
100
AcDbEntity
  8
LAY-1
  6
CONTINUOUS
 62
     1
100
AcDb2dPolyline
 66
     1
 10
0.0
 20
0.0
 30
0.0
 70
   128
  0
VERTEX
  5
94
100
AcDbEntity
  8
LAY-1
  6
CONTINUOUS
 62
     1
100
AcDbVertex
100
AcDb2dVertex
 10
703.304683
 20
55.0
 30
0.0
  0
VERTEX
  5
95
100
AcDbEntity
  8
LAY-1
  6
CONTINUOUS
 62
     1
100
AcDbVertex
100
AcDb2dVertex
 10
727.105815
 20
16.941971
 30
0.0
  0
VERTEX
  5
96
100
AcDbEntity
  8
LAY-1
  6
CONTINUOUS
 62
     1
100
AcDbVertex
100
AcDb2dVertex
 10
940.999449
 20
17.053898
 30
0.0
  0
SEQEND
  5
97
100
AcDbEntity
  8
LAY-1
  6
CONTINUOUS
 62
     1
  0
LINE
  5
98
100
AcDbEntity
  8
LAY-1
  6
CONTINUOUS
 62
     1
100
AcDbLine
 10
704.647773
 20
53.481047
 30
0.0
 11
703.304683
 21
55.0
 31
0.0
  0
LINE
  5
99
100
AcDbEntity
  8
LAY-1
  6
CONTINUOUS
 62
     1
100
AcDbLine
 10
703.304683
 20
55.0
 30
0.0
 11
704.08254
 21
53.127555
 31
0.0
  0
TEXT
  5
9A
100
AcDbEntity
  8
LAY-1
  6
CONTINUOUS
 62
     3
100
AcDbText
 10
735.155671
 20
19.24095
 30
0.0
 40
15.0
  1
ＪＩＳ２０Ｋ４０Ａフランジ
 50
0.029982
 41
0.84
  7
EXCADSTD
 72
     5
 11
930.155644
 21
19.342991
 31
0.0
100
AcDbText
  0
TEXT
  5
9B
100
AcDbEntity
  8
LAY-1
  6
CONTINUOUS
 62
     3
100
AcDbText
 10
799.664
 20
222.576
 30
0.0
 40
12.0
  1
型式
 41
0.984714
  7
EXCADSTD
 72
     5
 11
825.452244
 21
222.576
 31
0.0
100
AcDbText
  0
TEXT
  5
9C
100
AcDbEntity
  8
LAY-1
  6
CONTINUOUS
 62
     3
100
AcDbText
 10
799.376
 20
205.68
 30
0.0
 40
12.0
  1
品名
 41
0.984714
  7
EXCADSTD
 72
     5
 11
825.164244
 21
205.68
 31
0.0
100
AcDbText
  0
LINE
  5
9D
100
AcDbEntity
  8
LAY-1
  6
CONTINUOUS
 62
     4
100
AcDbLine
 10
794.0
 20
188.64
 30
0.0
 11
1009.04
 21
188.64
 31
0.0
  0
LINE
  5
9E
100
AcDbEntity
  8
LAY-1
  6
CONTINUOUS
 62
     1
100
AcDbLine
 10
794.0
 20
203.28
 30
0.0
 11
1009.04
 21
203.28
 31
0.0
  0
TEXT
  5
9F
100
AcDbEntity
  8
LAY-1
  6
CONTINUOUS
 62
     3
100
AcDbText
 10
870.416
 20
190.224
 30
0.0
 40
12.0
  1
外観図
 41
1.47392
  7
EXCADSTD
 72
     5
 11
933.583999
 21
190.224
 31
0.0
100
AcDbText
  0
LINE
  5
A0
100
AcDbEntity
  8
LAY-1
  6
CONTINUOUS
 62
     4
100
AcDbLine
 10
794.0
 20
253.68
 30
0.0
 11
1009.04
 21
253.68
 31
0.0
  0
LINE
  5
A1
100
AcDbEntity
  8
LAY-1
  6
CONTINUOUS
 62
     1
100
AcDbLine
 10
794.0
 20
220.08
 30
0.0
 11
1009.04
 21
220.08
 31
0.0
  0
LINE
  5
A2
100
AcDbEntity
  8
LAY-1
  6
CONTINUOUS
 62
     1
100
AcDbLine
 10
794.0
 20
236.88
 30
0.0
 11
1009.04
 21
236.88
 31
0.0
  0
LINE
  5
A3
100
AcDbEntity
  8
LAY-1
  6
CONTINUOUS
 62
     1
100
AcDbLine
 10
830.0
 20
253.68
 30
0.0
 11
830.0
 21
203.28
 31
0.0
  0
LINE
  5
A4
100
AcDbEntity
  8
LAY-1
  6
CONTINUOUS
 62
     4
100
AcDbLine
 10
794.0
 20
174.0
 30
0.0
 11
1009.04
 21
174.0
 31
0.0
  0
LINE
  5
A5
100
AcDbEntity
  8
LAY-1
  6
CONTINUOUS
 62
     4
100
AcDbLine
 10
1009.04
 20
174.0
 30
0.0
 11
1009.04
 21
253.68
 31
0.0
  0
LINE
  5
A6
100
AcDbEntity
  8
LAY-1
  6
CONTINUOUS
 62
     4
100
AcDbLine
 10
794.0
 20
174.0
 30
0.0
 11
794.0
 21
253.68
 31
0.0
  0
TEXT
  5
A7
100
AcDbEntity
  8
LAY-1
  6
CONTINUOUS
 62
     3
100
AcDbText
 10
795.536
 20
238.992
 30
0.0
 40
12.0
  1
作成日
 41
0.84
  7
EXCADSTD
 72
     5
 11
831.536
 21
238.992
 31
0.0
100
AcDbText
  0
HATCH
  5
A8
100
AcDbEntity
  8
LAY-1
  6
CONTINUOUS
 62
     3
100
AcDbHatch
 10
0.0
 20
0.0
 30
0.0
210
0.0
220
0.0
230
1.0
  2
SOLID
 70
     1
 71
     1
 91
        1
 92
        1
 93
       16
 72
     1
 10
945.35593961674658
 20
177.657514285714
 11
947.6277967596036
 21
177.657514285714
 72
     1
 10
947.6277967596036
 20
177.657514285714
 11
947.6277967596036
 21
176.19179999999969
 72
     1
 10
947.6277967596036
 20
176.19179999999969
 11
941.54508247388935
 21
176.19179999999969
 72
     1
 10
941.54508247388935
 20
176.19179999999969
 11
941.54508247388935
 21
177.657514285714
 72
     1
 10
941.54508247388935
 20
177.657514285714
 11
943.8902253310323
 21
177.657514285714
 72
     1
 10
943.8902253310323
 20
177.657514285714
 11
943.8902253310323
 21
181.90808571428542
 72
     1
 10
943.8902253310323
 20
181.90808571428542
 11
942.05808247388939
 21
181.90808571428542
 72
     1
 10
942.05808247388939
 20
181.90808571428542
 11
942.05808247388939
 21
183.37379999999973
 72
     1
 10
942.05808247388939
 20
183.37379999999973
 11
943.8902253310323
 21
183.37379999999973
 72
     1
 10
943.8902253310323
 20
183.37379999999973
 11
943.8902253310323
 21
186.45179999999971
 72
     1
 10
943.8902253310323
 20
186.45179999999971
 11
945.35593961674658
 21
186.45179999999971
 72
     1
 10
945.35593961674658
 20
186.45179999999971
 11
945.35593961674658
 21
183.37379999999973
 72
     1
 10
945.35593961674658
 20
183.37379999999973
 11
947.48122533103231
 21
183.37379999999973
 72
     1
 10
947.48122533103231
 20
183.37379999999973
 11
947.48122533103231
 21
181.90808571428542
 72
     1
 10
947.48122533103231
 20
181.90808571428542
 11
945.35593961674658
 21
181.90808571428542
 72
     1
 10
945.35593961674658
 20
181.90808571428542
 11
945.35593961674658
 21
177.657514285714
 97
        0
 75
     0
 76
     1
 98
        1
 10
0.0
 20
0.0
  0
HATCH
  5
A9
100
AcDbEntity
  8
LAY-1
  6
CONTINUOUS
 62
     3
100
AcDbHatch
 10
0.0
 20
0.0
 30
0.0
210
0.0
220
0.0
230
1.0
  2
SOLID
 70
     1
 71
     1
 91
        1
 92
        1
 93
       17
 72
     2
 10
929.95718083032079
 20
189.29647607541574
 40
13.191428571428618
 50
44.165469
 51
51.472792
 73
     0
 72
     1
 10
938.17393961674645
 20
178.97665714285688
 11
937.43184634729903
 21
180.26200038949457
 72
     2
 10
929.95718083032079
 20
189.29647607541574
 40
11.725714285714325
 50
309.602625
 51
331.307968
 73
     1
 72
     1
 10
940.24312907316948
 20
183.6669428571426
 11
937.80751104531782
 21
183.6669428571426
 72
     1
 10
937.80751104531782
 20
183.6669428571426
 11
937.80751104531782
 21
184.98608571428542
 72
     1
 10
937.80751104531782
 20
184.98608571428542
 11
939.41979675960363
 21
184.98608571428542
 72
     1
 10
939.41979675960363
 20
184.98608571428542
 11
939.41979675960363
 21
186.45179999999971
 72
     1
 10
939.41979675960363
 20
186.45179999999971
 11
940.73893961674662
 21
186.45179999999971
 72
     1
 10
940.73893961674662
 20
186.45179999999971
 11
940.73893961674662
 21
184.98608571428542
 72
     1
 10
940.73893961674662
 20
184.98608571428542
 11
942.42451104531779
 21
184.98608571428542
 72
     2
 10
929.95718083032079
 20
189.29647607541574
 40
13.191428571428618
 50
19.072051
 51
32.871988
 73
     0
 72
     1
 10
941.03646806042195
 20
182.13664491623189
 11
942.79093961674641
 21
180.44237142857116
 72
     1
 10
942.79093961674641
 20
180.44237142857116
 11
941.75436523073608
 21
179.40579704256078
 72
     1
 10
941.75436523073608
 20
179.40579704256078
 11
940.73893961674662
 21
180.38638215964212
 72
     1
 10
940.73893961674662
 20
180.38638215964212
 11
940.73893961674662
 21
176.19179999999969
 72
     1
 10
940.73893961674662
 20
176.19179999999969
 11
939.41979675960363
 21
176.19179999999969
 72
     1
 10
939.41979675960363
 20
176.19179999999969
 11
939.41979675960363
 21
180.10557364257568
 97
        0
 75
     0
 76
     1
 98
        1
 10
0.0
 20
0.0
  0
HATCH
  5
AA
100
AcDbEntity
  8
LAY-1
  6
CONTINUOUS
 62
     3
100
AcDbHatch
 10
0.0
 20
0.0
 30
0.0
210
0.0
220
0.0
230
1.0
  2
SOLID
 70
     1
 71
     1
 91
        1
 92
        1
 93
       12
 72
     2
 10
948.49424398311987
 20
169.51302676792619
 40
20.666571428571498
 50
150.903074
 51
156.790773
 73
     1
 72
     1
 10
929.50017918158653
 20
177.65751428571389
 11
934.01277483924434
 21
177.65751428571406
 72
     2
 10
921.19424298050774
 20
173.97139369808292
 40
13.338000000000045
 50
16.043216
 51
21.362935
 73
     1
 72
     1
 10
933.6158111541198
 20
178.83008571428542
 11
935.02265390246066
 21
178.83008571428542
 72
     2
 10
921.19424298050774
 20
173.97139369808292
 40
14.657142857142906
 50
340.64078
 51
351.286733
 73
     0
 72
     1
 10
935.68222533103199
 20
176.19179999999969
 11
927.54751104531772
 21
176.19179999999969
 72
     2
 10
948.49424398311987
 20
169.51302676792619
 40
21.985714285714355
 50
197.684652
 51
207.200855
 73
     0
 72
     1
 10
928.9399396167463
 20
179.56294285714259
 11
926.88793961674651
 21
179.56294285714259
 72
     1
 10
926.88793961674651
 20
179.56294285714259
 11
926.88793961674651
 21
181.0286571428569
 72
     1
 10
926.88793961674651
 20
181.0286571428569
 11
936.26851104531806
 21
181.0286571428569
 72
     1
 10
936.26851104531806
 20
181.0286571428569
 11
936.26851104531806
 21
179.56294285714259
 72
     1
 10
936.26851104531806
 20
179.56294285714259
 11
930.43582873670482
 21
179.56294285714259
 97
        0
 75
     0
 76
     1
 98
        1
 10
0.0
 20
0.0
  0
HATCH
  5
AB
100
AcDbEntity
  8
LAY-1
  6
CONTINUOUS
 62
     3
100
AcDbHatch
 10
0.0
 20
0.0
 30
0.0
210
0.0
220
0.0
230
1.0
  2
SOLID
 70
     1
 71
     1
 91
        1
 92
        1
 93
       10
 72
     2
 10
948.58215061774126
 20
201.23773839129555
 40
23.45142857142865
 50
129.545698
 51
136.474664
 73
     0
 72
     1
 10
931.57822533103263
 20
185.08731960772059
 11
931.57822533103263
 21
186.45179999999971
 72
     1
 10
931.57822533103263
 20
186.45179999999971
 11
932.31108247388943
 21
186.45179999999971
 72
     2
 10
948.58215061774126
 20
201.23773839129555
 40
21.985714285714355
 50
222.262231
 51
237.763996
 73
     1
 72
     1
 10
936.85479675960369
 20
182.64094285714259
 11
935.90448891840947
 21
181.508410073329
 72
     2
 10
948.58215061774126
 20
201.23773839129555
 40
23.45142857142865
 50
122.723968
 51
128.230009
 73
     0
 72
     1
 10
934.06993961674652
 20
182.81587003047431
 11
934.06993961674652
 21
181.68822857142828
 72
     1
 10
934.06993961674652
 20
181.68822857142828
 11
931.57822533103263
 21
181.68822857142828
 72
     1
 10
931.57822533103263
 20
181.68822857142828
 11
931.57822533103263
 21
183.15394285714257
 72
     1
 10
931.57822533103263
 20
183.15394285714257
 11
933.65077957822291
 21
183.15394285714257
 97
        0
 75
     0
 76
     1
 98
        1
 10
0.0
 20
0.0
  0
HATCH
  5
AC
100
AcDbEntity
  8
LAY-1
  6
CONTINUOUS
 62
     3
100
AcDbHatch
 10
0.0
 20
0.0
 30
0.0
210
0.0
220
0.0
230
1.0
  2
SOLID
 70
     1
 71
     1
 91
        1
 92
        1
 93
       10
 72
     2
 10
914.57430004432319
 20
201.23773839129555
 40
23.45142857142865
 50
51.769991
 51
57.276032
 73
     0
 72
     1
 10
927.25196174365487
 20
181.50841007332895
 11
926.30165390246066
 21
182.64094285714259
 72
     2
 10
914.57430004432319
 20
201.23773839129555
 40
21.985714285714355
 50
302.236004
 51
317.737769
 73
     1
 72
     1
 10
930.84536818817492
 20
186.45179999999971
 11
931.57822533103263
 21
186.45179999999971
 72
     1
 10
931.57822533103263
 20
186.45179999999971
 11
931.57822533103263
 21
185.08731960772147
 72
     2
 10
914.57430004432319
 20
201.23773839129555
 40
23.45142857142865
 50
43.525336
 51
50.454302
 73
     0
 72
     1
 10
929.50567108384166
 20
183.15394285714257
 11
931.57822533103263
 21
183.15394285714257
 72
     1
 10
931.57822533103263
 20
183.15394285714257
 11
931.57822533103263
 21
181.68822857142828
 72
     1
 10
931.57822533103263
 20
181.68822857142828
 11
929.08651104531793
 21
181.68822857142828
 72
     1
 10
929.08651104531793
 20
181.68822857142828
 11
929.08651104531793
 21
182.81587003047429
 97
        0
 75
     0
 76
     1
 98
        1
 10
0.0
 20
0.0
  0
HATCH
  5
AD
100
AcDbEntity
  8
LAY-1
  6
CONTINUOUS
 62
     3
100
AcDbHatch
 10
0.0
 20
0.0
 30
0.0
210
0.0
220
0.0
230
1.0
  2
SOLID
 70
     1
 71
     1
 91
        1
 92
        1
 93
       18
 72
     2
 10
903.78681392552403
 20
179.86501247382219
 40
20.520000000000067
 50
14.02954
 51
18.723021
 73
     1
 72
     1
 10
923.22092388932208
 20
186.45179999999971
 11
924.76265390246067
 21
186.45179999999971
 72
     2
 10
903.78681392552403
 20
179.86501247382219
 40
21.985714285714355
 50
342.566782
 51
346.922981
 73
     0
 72
     1
 10
925.202368188175
 20
184.83951428571402
 11
925.78865390246074
 21
184.83951428571402
 72
     1
 10
925.78865390246074
 20
184.83951428571402
 11
925.78865390246074
 21
183.3737999999997
 72
     1
 10
925.78865390246074
 20
183.3737999999997
 11
923.04843250907095
 21
183.37379999999973
 72
     2
 10
938.24722533103204
 20
185.7922285714283
 40
15.390000000000052
 50
189.041096
 51
204.65198
 73
     1
 72
     2
 10
927.32520259852254
 20
180.77974543925791
 40
3.3726971528654888
 50
204.65198
 51
242.897449
 73
     1
 72
     1
 10
925.78865390246074
 20
177.77739566123773
 11
925.78865390246074
 21
176.19179999999969
 72
     2
 10
927.32520259852254
 20
180.77974543925791
 40
4.8384114385797794
 50
108.516212
 51
155.34802
 73
     0
 72
     2
 10
938.24722533103204
 20
185.7922285714283
 40
16.855714285714338
 50
155.34802
 51
171.750831
 73
     0
 72
     1
 10
921.56590921609279
 20
183.37379999999973
 11
915.96836818817508
 21
183.3737999999997
 72
     1
 10
915.96836818817508
 20
183.3737999999997
 11
915.96836818817508
 21
184.83951428571402
 72
     1
 10
915.96836818817508
 20
184.83951428571402
 11
921.41450625673531
 21
184.83951428571402
 72
     1
 10
921.41450625673531
 20
184.83951428571402
 11
921.35820399895192
 21
186.45179999999971
 72
     1
 10
921.35820399895192
 20
186.45179999999971
 11
922.82481170245273
 21
186.45179999999971
 72
     1
 10
922.82481170245273
 20
186.45179999999971
 11
922.88111396023612
 21
184.83951428571402
 72
     1
 10
922.88111396023612
 20
184.83951428571402
 11
923.69472018719512
 21
184.83951428571402
 97
        0
 75
     0
 76
     1
 98
        1
 10
0.0
 20
0.0
  0
HATCH
  5
AE
100
AcDbEntity
  8
LAY-1
  6
CONTINUOUS
 62
     3
100
AcDbHatch
 10
0.0
 20
0.0
 30
0.0
210
0.0
220
0.0
230
1.0
  2
SOLID
 70
     1
 71
     1
 91
        1
 92
        1
 93
       12
 72
     2
 10
911.3550012421905
 20
249.77187772334727
 40
71.820000000000235
 50
276.500664
 51
278.269357
 73
     1
 72
     1
 10
921.68465390246081
 20
178.69860091751673
 11
921.68465390246081
 21
177.21779999999973
 72
     2
 10
911.3550012421905
 20
249.77187772334727
 40
73.285714285714533
 50
81.897153
 51
86.39082
 73
     0
 72
     1
 10
915.96836818817508
 20
176.63151428571399
 11
915.96836818817508
 21
178.10020099242564
 72
     2
 10
911.3550012421905
 20
249.77187772334727
 40
71.820000000000235
 50
273.682937
 51
275.325087
 73
     1
 72
     1
 10
918.0203681881751
 20
178.26184148034559
 11
918.0203681881751
 21
180.58894285714254
 72
     1
 10
918.0203681881751
 20
180.58894285714254
 11
915.96836818817508
 21
180.58894285714254
 72
     1
 10
915.96836818817508
 20
180.58894285714254
 11
915.96836818817508
 21
182.05465714285685
 72
     1
 10
915.96836818817508
 20
182.05465714285685
 11
921.24493961674648
 21
182.05465714285685
 72
     1
 10
921.24493961674648
 20
182.05465714285685
 11
921.24493961674648
 21
180.58894285714254
 72
     1
 10
921.24493961674648
 20
180.58894285714254
 11
919.48608247388938
 21
180.58894285714254
 72
     1
 10
919.48608247388938
 20
180.58894285714254
 11
919.48608247388927
 21
178.4136412120408
 97
        0
 75
     0
 76
     1
 98
        1
 10
0.0
 20
0.0
  0
HATCH
  5
AF
100
AcDbEntity
  8
LAY-1
  6
CONTINUOUS
 62
     3
100
AcDbHatch
 10
0.0
 20
0.0
 30
0.0
210
0.0
220
0.0
230
1.0
  2
SOLID
 70
     1
 71
     1
 91
        1
 92
        1
 93
       30
 72
     2
 10
898.10759948871646
 20
188.79524347054615
 40
16.049571428571479
 50
37.940537
 51
46.713808
 73
     0
 72
     1
 10
909.11187496046296
 20
177.11215037056888
 11
908.12679675960351
 21
178.09722857142833
 72
     2
 10
898.10759948871646
 20
188.79524347054615
 40
14.657142857142915
 50
313.123325
 51
325.95222
 73
     1
 72
     1
 10
910.25208247388912
 20
180.58894285714257
 11
908.49322533103214
 21
180.58894285714257
 72
     1
 10
908.49322533103214
 20
180.58894285714257
 11
908.49322533103214
 21
182.05465714285685
 72
     1
 10
908.49322533103214
 20
182.05465714285685
 11
910.76508247388938
 21
182.05465714285685
 72
     1
 10
910.76508247388938
 20
182.05465714285685
 11
910.76508247388938
 21
183.52037142857114
 72
     1
 10
910.76508247388938
 20
183.52037142857114
 11
910.03430816412413
 21
183.52037142857114
 72
     2
 10
894.36172181313248
 20
186.62065243119059
 40
15.976285714285774
 50
11.189535
 51
14.746058
 73
     0
 72
     1
 10
909.81180384519132
 20
182.55412191647113
 11
908.56651104531772
 21
183.0073714285711
 72
     2
 10
894.36172181313248
 20
186.62065243119059
 40
14.657142857142915
 50
345.728313
 51
357.620387
 73
     1
 72
     1
 10
909.00622533103228
 20
186.01208571428981
 11
910.3159356231231
 21
185.78114845288263
 72
     2
 10
894.36172181313248
 20
186.62065243119059
 40
15.976285714285774
 50
3.012102
 51
6.401006
 73
     0
 72
     1
 10
910.23841076679093
 20
184.83951428571402
 11
910.76508247388938
 21
184.83951428571402
 72
     1
 10
910.76508247388938
 20
184.83951428571402
 11
910.76508247388938
 21
186.45179999999971
 72
     1
 10
910.76508247388938
 20
186.45179999999971
 11
912.23079675960366
 21
186.45179999999971
 72
     1
 10
912.23079675960366
 20
186.45179999999971
 11
912.23079675960366
 21
184.83951428571402
 72
     1
 10
912.23079675960366
 20
184.83951428571402
 11
914.20951104531787
 21
184.83951428571402
 72
     1
 10
914.20951104531787
 20
184.83951428571402
 11
914.20951104531787
 21
183.52037142857114
 72
     1
 10
914.20951104531787
 20
183.52037142857114
 11
912.23079675960366
 21
183.52037142857114
 72
     1
 10
912.23079675960366
 20
183.52037142857114
 11
912.23079675960366
 21
182.05465714285685
 72
     1
 10
912.23079675960366
 20
182.05465714285685
 11
914.50265390246068
 21
182.05465714285685
 72
     1
 10
914.50265390246068
 20
182.05465714285685
 11
914.50265390246068
 21
180.58894285714257
 72
     1
 10
914.50265390246068
 20
180.58894285714257
 11
912.74379675960347
 21
180.58894285714257
 72
     2
 10
924.88827974477613
 20
188.79524347054613
 40
14.657142857142915
 50
214.04778
 51
226.876675
 73
     1
 72
     1
 10
914.86908247388908
 20
178.09722857142833
 11
913.88400427302963
 21
177.11215037056888
 72
     2
 10
924.88827974477613
 20
188.79524347054613
 40
16.049571428571479
 50
133.286192
 51
142.059463
 73
     0
 72
     1
 10
912.23079675960366
 20
178.92727166673126
 11
912.23079675960366
 21
176.19179999999969
 72
     1
 10
912.23079675960366
 20
176.19179999999969
 11
910.76508247388938
 21
176.19179999999969
 72
     1
 10
910.76508247388938
 20
176.19179999999969
 11
910.76508247388938
 21
178.92727166673166
 97
        0
 75
     0
 76
     1
 98
        1
 10
0.0
 20
0.0
  0
HATCH
  5
B0
100
AcDbEntity
  8
LAY-1
  6
CONTINUOUS
 62
     3
100
AcDbHatch
 10
0.0
 20
0.0
 30
0.0
210
0.0
220
0.0
230
1.0
  2
SOLID
 70
     1
 71
     1
 91
        1
 92
        1
 93
       19
 72
     2
 10
892.07391985440631
 20
186.83902151411448
 40
15.976285714285769
 50
27.683433
 51
32.280505
 73
     0
 72
     1
 10
905.58096835234301
 20
178.30665102878771
 11
904.5357967596035
 21
179.12322857142826
 72
     2
 10
892.07391985440631
 20
186.83902151411448
 40
14.657142857142906
 50
328.236207
 51
344.845745
 73
     1
 72
     1
 10
906.22136818817478
 20
183.00737142857113
 11
904.90222533103213
 21
183.00737142857113
 72
     1
 10
904.90222533103213
 20
183.00737142857113
 11
904.90222533103213
 21
184.47308571428545
 72
     1
 10
904.90222533103213
 20
184.47308571428545
 11
906.22136818817512
 21
184.47308571428545
 72
     1
 10
906.22136818817512
 20
184.47308571428545
 11
906.22136818817512
 21
186.45179999999971
 72
     1
 10
906.22136818817512
 20
186.45179999999971
 11
907.68708247388929
 21
186.45179999999971
 72
     1
 10
907.68708247388929
 20
186.45179999999971
 11
907.68708247388929
 21
184.47308571428545
 72
     1
 10
907.68708247388929
 20
184.47308571428545
 11
908.34665390246073
 21
184.47308571428545
 72
     1
 10
908.34665390246073
 20
184.47308571428545
 11
908.34665390246073
 21
183.00737142857113
 72
     1
 10
908.34665390246073
 20
183.00737142857113
 11
907.68708247388918
 21
183.00737142857113
 72
     1
 10
907.68708247388918
 20
183.00737142857113
 11
908.49322533103214
 21
181.85608011399299
 72
     1
 10
908.49322533103214
 20
181.85608011399299
 11
908.49322533103214
 21
180.96377237460737
 72
     1
 10
908.49322533103214
 20
180.96377237460737
 11
908.0535110453178
 21
180.43974129489229
 72
     1
 10
908.0535110453178
 20
180.43974129489229
 11
907.68708247388929
 21
180.96305552879127
 72
     1
 10
907.68708247388929
 20
180.96305552879127
 11
907.68708247388929
 21
176.19179999999969
 72
     1
 10
907.68708247388929
 20
176.19179999999969
 11
906.22136818817512
 21
176.19179999999969
 72
     1
 10
906.22136818817512
 20
176.19179999999969
 11
906.22136818817512
 21
179.41666266615823
 97
        0
 75
     0
 76
     1
 98
        1
 10
0.0
 20
0.0
  0
HATCH
  5
B1
100
AcDbEntity
  8
LAY-1
  6
CONTINUOUS
 62
     3
100
AcDbHatch
 10
0.0
 20
0.0
 30
0.0
210
0.0
220
0.0
230
1.0
  2
SOLID
 70
     1
 71
     1
 91
        1
 92
        1
 93
        8
 72
     2
 10
898.23007996715501
 20
180.50099999999949
 40
2.8728000000000233
 50
270.0
 51
330.0
 73
     1
 72
     2
 10
896.80841266430241
 20
181.32179999999948
 40
4.5144000000000224
 50
330.0
 51
30.0
 73
     1
 72
     2
 10
898.23007996715501
 20
182.1425999999995
 40
2.872800000000022
 50
30.0
 51
90.0
 73
     1
 72
     1
 10
898.23007996715592
 20
185.01539999999952
 11
898.23007996715592
 21
186.65699999999987
 72
     2
 10
898.23007996715489
 20
182.14259999999985
 40
4.5144000000000144
 50
270.0
 51
330.0
 73
     0
 72
     2
 10
896.80841266430275
 20
181.32179999999977
 40
6.156000000000029
 50
330.0
 51
30.0
 73
     0
 72
     2
 10
898.23007996715523
 20
180.50099999999932
 40
4.5144000000000091
 50
30.0
 51
90.0
 73
     0
 72
     1
 10
898.23007996715592
 20
175.98659999999933
 11
898.23007996715592
 21
177.62819999999948
 97
        0
 75
     0
 76
     1
 98
        1
 10
0.0
 20
0.0
  0
HATCH
  5
B2
100
AcDbEntity
  8
LAY-1
  6
CONTINUOUS
 62
     3
100
AcDbHatch
 10
0.0
 20
0.0
 30
0.0
210
0.0
220
0.0
230
1.0
  2
SOLID
 70
     1
 71
     1
 91
        1
 92
        1
 93
        8
 72
     2
 10
898.23007996715523
 20
180.50099999999932
 40
4.5144000000000091
 50
90.0
 51
150.0
 73
     0
 72
     2
 10
899.65174727000738
 20
181.32179999999943
 40
6.1560000000000334
 50
150.0
 51
210.0
 73
     0
 72
     2
 10
898.23007996715489
 20
182.14259999999985
 40
4.5144000000000144
 50
210.0
 51
270.0
 73
     0
 72
     1
 10
898.23007996715592
 20
186.65699999999987
 11
898.23007996715592
 21
185.01539999999952
 72
     2
 10
898.23007996715501
 20
182.1425999999995
 40
2.872800000000022
 50
90.0
 51
150.0
 73
     1
 72
     2
 10
899.6517472700076
 20
181.32179999999948
 40
4.5144000000000233
 50
150.0
 51
210.0
 73
     1
 72
     2
 10
898.23007996715501
 20
180.50099999999949
 40
2.8728000000000233
 50
210.0
 51
270.0
 73
     1
 72
     1
 10
898.23007996715592
 20
177.62819999999948
 11
898.23007996715592
 21
175.98659999999933
 97
        0
 75
     0
 76
     1
 98
        1
 10
0.0
 20
0.0
  0
HATCH
  5
B3
100
AcDbEntity
  8
LAY-1
  6
CONTINUOUS
 62
     3
100
AcDbHatch
 10
0.0
 20
0.0
 30
0.0
210
0.0
220
0.0
230
1.0
  2
SOLID
 70
     1
 71
     1
 91
        1
 92
        1
 93
        4
 72
     1
 10
891.86887996715507
 20
179.47499999999951
 11
890.22727996715503
 21
179.47499999999951
 72
     1
 10
890.22727996715503
 20
179.47499999999951
 11
890.22727996715503
 21
181.11659999999949
 72
     1
 10
890.22727996715503
 20
181.11659999999949
 11
891.86887996715507
 21
181.11659999999949
 72
     1
 10
891.86887996715507
 20
181.11659999999949
 11
891.86887996715507
 21
179.4749999999994
 97
        0
 75
     0
 76
     1
 98
        1
 10
0.0
 20
0.0
  0
HATCH
  5
B4
100
AcDbEntity
  8
LAY-1
  6
CONTINUOUS
 62
     3
100
AcDbHatch
 10
0.0
 20
0.0
 30
0.0
210
0.0
220
0.0
230
1.0
  2
SOLID
 70
     1
 71
     1
 91
        1
 92
        1
 93
       16
 72
     1
 10
884.07127996715496
 20
184.8101999999995
 11
881.81407996715495
 21
184.8101999999995
 72
     1
 10
881.81407996715495
 20
184.8101999999995
 11
881.40367996715497
 21
182.55299999999951
 72
     1
 10
881.40367996715497
 20
182.55299999999951
 11
880.17247996715503
 21
182.55299999999951
 72
     1
 10
880.17247996715503
 20
182.55299999999951
 11
880.17247996715503
 21
186.45179999999954
 72
     1
 10
880.17247996715503
 20
186.45179999999954
 11
889.61167996715506
 21
186.45179999999954
 72
     1
 10
889.61167996715506
 20
186.45179999999954
 11
889.61167996715506
 21
182.55299999999951
 72
     1
 10
889.61167996715506
 20
182.55299999999951
 11
888.38047996715511
 21
182.55299999999951
 72
     1
 10
888.38047996715511
 20
182.55299999999951
 11
887.97007996715502
 21
184.8101999999995
 72
     1
 10
887.97007996715502
 20
184.8101999999995
 11
885.712879967155
 21
184.8101999999995
 72
     1
 10
885.712879967155
 20
184.8101999999995
 11
885.712879967155
 21
177.83339999999947
 72
     1
 10
885.712879967155
 20
177.83339999999947
 11
887.35447996715504
 21
177.42299999999949
 72
     1
 10
887.35447996715504
 20
177.42299999999949
 11
887.35447996715504
 21
176.19179999999949
 72
     1
 10
887.35447996715504
 20
176.19179999999949
 11
882.42967996715504
 21
176.19179999999949
 72
     1
 10
882.42967996715504
 20
176.19179999999949
 11
882.42967996715504
 21
177.42299999999949
 72
     1
 10
882.42967996715504
 20
177.42299999999949
 11
884.07127996715496
 21
177.83339999999947
 72
     1
 10
884.07127996715496
 20
177.83339999999947
 11
884.07127996715496
 21
184.8101999999995
 97
        0
 75
     0
 76
     1
 98
        1
 10
0.0
 20
0.0
  0
HATCH
  5
B5
100
AcDbEntity
  8
LAY-1
  6
CONTINUOUS
 62
     3
100
AcDbHatch
 10
0.0
 20
0.0
 30
0.0
210
0.0
220
0.0
230
1.0
  2
SOLID
 70
     1
 71
     1
 91
        1
 92
        1
 93
        4
 72
     1
 10
877.91527996715502
 20
179.47499999999951
 11
877.91527996715513
 21
181.11659999999961
 72
     1
 10
877.91527996715513
 20
181.11659999999961
 11
879.55687996715506
 21
181.11659999999949
 72
     1
 10
879.55687996715506
 20
181.11659999999949
 11
879.55687996715506
 21
179.47499999999951
 72
     1
 10
879.55687996715506
 20
179.47499999999951
 11
877.91527996715513
 21
179.47499999999951
 97
        0
 75
     0
 76
     1
 98
        1
 10
0.0
 20
0.0
  0
HATCH
  5
B6
100
AcDbEntity
  8
LAY-1
  6
CONTINUOUS
 62
     3
100
AcDbHatch
 10
0.0
 20
0.0
 30
0.0
210
0.0
220
0.0
230
1.0
  2
SOLID
 70
     1
 71
     1
 91
        1
 92
        1
 93
       12
 72
     1
 10
876.06847996715499
 20
186.45179999999954
 11
876.06847996715499
 21
185.22059999999951
 72
     1
 10
876.06847996715499
 20
185.22059999999951
 11
874.42687996715506
 21
184.8101999999995
 72
     1
 10
874.42687996715506
 20
184.8101999999995
 11
874.42687996715506
 21
177.83339999999947
 72
     1
 10
874.42687996715506
 20
177.83339999999947
 11
876.06847996715499
 21
177.42299999999949
 72
     1
 10
876.06847996715499
 20
177.42299999999949
 11
876.06847996715499
 21
176.19179999999949
 72
     1
 10
876.06847996715499
 20
176.19179999999949
 11
871.14367996715498
 21
176.19179999999949
 72
     1
 10
871.14367996715498
 20
176.19179999999949
 11
871.14367996715498
 21
177.42299999999949
 72
     1
 10
871.14367996715498
 20
177.42299999999949
 11
872.78527996715502
 21
177.83339999999947
 72
     1
 10
872.78527996715502
 20
177.83339999999947
 11
872.78527996715502
 21
184.8101999999995
 72
     1
 10
872.78527996715502
 20
184.8101999999995
 11
871.14367996715498
 21
185.22059999999951
 72
     1
 10
871.14367996715498
 20
185.22059999999951
 11
871.14367996715498
 21
186.45179999999954
 72
     1
 10
871.14367996715498
 20
186.45179999999954
 11
876.06847996715499
 21
186.45179999999954
 97
        0
 75
     0
 76
     1
 98
        1
 10
0.0
 20
0.0
  0
HATCH
  5
B7
100
AcDbEntity
  8
LAY-1
  6
CONTINUOUS
 62
     3
100
AcDbHatch
 10
0.0
 20
0.0
 30
0.0
210
0.0
220
0.0
230
1.0
  2
SOLID
 70
     1
 71
     1
 91
        1
 92
        1
 93
       15
 72
     2
 10
859.97583000300824
 20
181.32179999999971
 40
4.555895589558963
 50
124.301153
 51
180.0
 73
     0
 72
     1
 10
855.41993441344925
 20
181.3218
 11
857.139043913975
 21
181.3218
 72
     2
 10
861.57180719030259
 20
181.32179999999977
 40
4.4327632763276466
 50
180.0
 51
199.464384
 73
     1
 72
     2
 10
857.32064771847695
 20
181.81352156669905
 40
1.9701170117012174
 50
272.086657
 51
294.619977
 73
     1
 72
     2
 10
857.88491086435442
 20
180.58219843438576
 40
0.6156615661566193
 50
294.619977
 51
0.0
 73
     1
 72
     1
 10
858.50057243051117
 20
180.58219843438576
 11
858.50057243051117
 21
181.3218
 72
     1
 10
858.50057243051117
 20
181.3218
 11
859.97816018928688
 21
181.3218
 72
     1
 10
859.97816018928688
 20
181.3218
 11
859.97816018928688
 21
180.58089205055012
 72
     2
 10
860.59382175544363
 20
180.58089205055012
 40
0.6156615661565941
 50
180.0
 51
245.380023
 73
     1
 72
     2
 10
861.15808490132122
 20
181.81221518286358
 40
1.9701170117014342
 50
245.380023
 51
267.913343
 73
     1
 72
     1
 10
861.08635100836898
 20
179.84340455499779
 11
861.08635100836898
 21
179.47400761530386
 72
     1
 10
861.08635100836898
 20
179.47400761530386
 11
857.54253261948747
 21
179.47400761530383
 72
     2
 10
861.57180719030282
 20
181.32179999999977
 40
4.4327632763276403
 50
204.635803
 51
268.19864
 73
     1
 72
     1
 10
861.43246558652766
 20
176.89122733030837
 11
861.43246558652766
 21
176.27468931360784
 72
     2
 10
861.57180719030259
 20
183.6613139513951
 40
7.3879387938794219
 50
91.080702
 51
124.301153
 73
     0
 97
        0
 75
     0
 76
     1
 98
        1
 10
0.0
 20
0.0
  0
HATCH
  5
B8
100
AcDbEntity
  8
LAY-1
  6
CONTINUOUS
 62
     3
100
AcDbHatch
 10
0.0
 20
0.0
 30
0.0
210
0.0
220
0.0
230
1.0
  2
SOLID
 70
     1
 71
     1
 91
        1
 92
        1
 93
       24
 72
     2
 10
860.71686456698103
 20
181.93746156615634
 40
0.6156615661566246
 50
90.0
 51
157.380135
 73
     1
 72
     2
 10
862.19445232575674
 20
181.3217999999998
 40
2.2163816381638264
 50
157.380135
 51
180.0
 73
     1
 72
     1
 10
859.97807068759289
 20
181.3218
 11
858.50057243051117
 21
181.3218
 72
     1
 10
858.50057243051117
 20
181.3218
 11
858.50057243051117
 21
184.51818973127584
 72
     2
 10
861.57180719030259
 20
181.32179999999977
 40
4.4327632763276466
 50
133.856042
 51
180.0
 73
     1
 72
     1
 10
857.139043913975
 20
181.3218
 11
855.41993441344925
 21
181.3218
 72
     2
 10
859.97583000300824
 20
181.32179999999971
 40
4.555895589558963
 50
180.0
 51
235.698847
 73
     0
 72
     2
 10
861.57180719030282
 20
178.98228604860435
 40
7.3879387938794379
 50
235.698847
 51
245.436008
 73
     0
 72
     1
 10
858.50057243051117
 20
185.70159826581499
 11
858.50057243051117
 21
186.37072354009365
 72
     2
 10
857.88491086435442
 20
186.37072354009365
 40
0.6156615661566158
 50
0.0
 51
65.380023
 73
     1
 72
     2
 10
857.32064771847695
 20
185.13940040778039
 40
1.9701170117011728
 50
65.380023
 51
87.913343
 73
     1
 72
     1
 10
857.39238161142919
 20
187.10821103564592
 11
857.39238161142919
 21
187.47760797533988
 72
     1
 10
857.39238161142919
 20
187.47760797533988
 11
861.08635100836898
 21
187.47760797533988
 72
     1
 10
861.08635100836898
 20
187.47760797533988
 11
861.08635100836898
 21
187.10821103564592
 72
     2
 10
861.15808490132122
 20
185.13940040778039
 40
1.9701170117011819
 50
92.086657
 51
114.619977
 73
     1
 72
     2
 10
860.59382175544374
 20
186.37072354009365
 40
0.6156615661566246
 50
114.619977
 51
180.0
 73
     1
 72
     1
 10
859.978160189287
 20
186.37072354009365
 11
859.978160189287
 21
186.19629525696155
 72
     2
 10
861.57180719030259
 20
178.98228604860435
 40
7.3879387938794201
 50
257.542857
 51
268.919298
 73
     0
 72
     1
 10
861.43246558652766
 20
186.36891068639159
 11
861.43246558652766
 21
185.75237266969117
 72
     2
 10
861.57180719030282
 20
181.32179999999977
 40
4.4327632763276466
 50
91.80136
 51
111.070443
 73
     1
 72
     1
 10
859.97816018928688
 20
185.45818483462435
 11
859.97816018928688
 21
183.16878469846958
 72
     1
 10
859.97816018928688
 20
183.16878469846958
 11
861.43246558652777
 21
183.16878469846958
 72
     1
 10
861.43246558652777
 20
183.16878469846958
 11
861.43246558652766
 21
182.55312313231298
 72
     1
 10
861.43246558652766
 20
182.55312313231298
 11
860.71686456698103
 21
182.55312313231298
 97
        0
 75
     0
 76
     1
 98
        1
 10
0.0
 20
0.0
  0
HATCH
  5
B9
100
AcDbEntity
  8
LAY-1
  6
CONTINUOUS
 62
     3
100
AcDbHatch
 10
0.0
 20
0.0
 30
0.0
210
0.0
220
0.0
230
1.0
  2
SOLID
 70
     1
 71
     1
 91
        1
 92
        1
 93
       14
 72
     2
 10
861.57180719030259
 20
181.32179999999977
 40
4.4327632763276554
 50
0.0
 51
9.281799
 73
     1
 72
     2
 10
865.33893159782463
 20
181.93746156615634
 40
0.6156615661566121
 50
9.281799
 51
90.0
 73
     1
 72
     1
 10
865.33893159782463
 20
182.55312313231298
 11
864.03445345492912
 21
182.55312313231298
 72
     1
 10
864.03445345492912
 20
182.55312313231298
 11
864.03445345492912
 21
181.3218
 72
     1
 10
864.03445345492912
 20
181.3218
 11
862.55686569615318
 21
181.3218
 72
     1
 10
862.55686569615318
 20
181.3218
 11
862.55686569615318
 21
182.55312313231298
 72
     1
 10
862.55686569615318
 20
182.55312313231298
 11
861.43246558652766
 21
182.55312313231298
 72
     1
 10
861.43246558652766
 20
182.55312313231298
 11
861.43246558652766
 21
183.16878469846958
 72
     1
 10
861.43246558652766
 20
183.16878469846958
 11
865.60145206145171
 21
183.16878469846955
 72
     2
 10
861.57180719030282
 20
181.32179999999977
 40
4.4327632763276466
 50
24.624318
 51
91.80136
 73
     1
 72
     1
 10
861.43246558652766
 20
185.75237266969117
 11
861.43246558652766
 21
186.36891068639159
 72
     2
 10
861.57180719030259
 20
178.98228604860435
 40
7.3879387938794201
 50
268.919298
 51
304.301153
 73
     0
 72
     2
 10
863.16778437759706
 20
181.32179999999971
 40
4.5558955895589675
 50
304.301153
 51
0.0
 73
     0
 72
     1
 10
867.72367996715604
 20
181.3218
 11
866.0045704666303
 21
181.3218
 97
        0
 75
     0
 76
     1
 98
        1
 10
0.0
 20
0.0
  0
HATCH
  5
BA
100
AcDbEntity
  8
LAY-1
  6
CONTINUOUS
 62
     3
100
AcDbHatch
 10
0.0
 20
0.0
 30
0.0
210
0.0
220
0.0
230
1.0
  2
SOLID
 70
     1
 71
     1
 91
        1
 92
        1
 93
       19
 72
     2
 10
861.57180719030259
 20
181.32179999999977
 40
4.4327632763276554
 50
303.748989
 51
0.0
 73
     1
 72
     1
 10
866.0045704666303
 20
181.3218
 11
867.72367996715604
 21
181.3218
 72
     2
 10
863.16778437759706
 20
181.32179999999971
 40
4.5558955895589675
 50
0.0
 51
55.698847
 73
     0
 72
     2
 10
861.57180719030282
 20
183.66131395139513
 40
7.3879387938794325
 50
55.698847
 51
70.528779
 73
     0
 72
     1
 10
864.03445345492912
 20
176.69589845787067
 11
864.03445345492912
 21
176.27206877367982
 72
     2
 10
864.65011502108575
 20
176.27206877367982
 40
0.6156615661566193
 50
180.0
 51
245.380023
 73
     1
 72
     2
 10
865.21437816696323
 20
177.50339190599306
 40
1.9701170117011781
 50
245.380023
 51
267.913343
 73
     1
 72
     1
 10
865.1426442740111
 20
175.53458127812752
 11
865.1426442740111
 21
175.16518433843356
 72
     1
 10
865.1426442740111
 20
175.16518433843356
 11
861.44867487707143
 21
175.16518433843356
 72
     1
 10
861.44867487707143
 20
175.16518433843356
 11
861.44867487707143
 21
175.53458127812752
 72
     2
 10
861.37694098411907
 20
177.50339190599306
 40
1.9701170117011781
 50
272.086657
 51
294.619977
 73
     1
 72
     2
 10
861.94120412999655
 20
176.27206877367982
 40
0.6156615661566193
 50
294.619977
 51
0.0
 73
     1
 72
     1
 10
862.55686569615318
 20
176.27206877367982
 11
862.55686569615318
 21
176.33934021734225
 72
     2
 10
861.57180719030259
 20
183.6613139513951
 40
7.3879387938794219
 50
82.337744
 51
91.080702
 73
     0
 72
     1
 10
861.43246558652766
 20
176.27468931360784
 11
861.43246558652766
 21
176.89122733030837
 72
     2
 10
861.57180719030282
 20
181.32179999999977
 40
4.4327632763276403
 50
268.19864
 51
282.839588
 73
     1
 72
     1
 10
862.55686569615318
 20
176.99987334583145
 11
862.55686569615318
 21
181.3218
 72
     1
 10
862.55686569615318
 20
181.3218
 11
864.03445345492912
 21
181.3218
 72
     1
 10
864.03445345492912
 20
181.3218
 11
864.03445345492912
 21
177.63604856517938
 97
        0
 75
     0
 76
     1
 98
        1
 10
0.0
 20
0.0
  0
TEXT
  5
BB
100
AcDbEntity
  8
LAY-1
  6
CONTINUOUS
 62
     3
100
AcDbText
 10
835.9616
 20
222.432
 30
0.0
 40
12.0
  1
Ｄ１－４０Ｆ
 41
0.84
  7
EXCADSTD
 72
     5
 11
907.9616
 21
222.432
 31
0.0
100
AcDbText
  0
TEXT
  5
BC
100
AcDbEntity
  8
LAY-1
  6
CONTINUOUS
 62
     3
100
AcDbText
 10
835.9424
 20
205.6896
 30
0.0
 40
12.0
  1
４０Ａフランジ式グローブバルブ
 41
0.728987
  7
EXCADSTD
 72
     5
 11
992.153955
 21
205.6896
 31
0.0
100
AcDbText
  0
LINE
  5
BD
100
AcDbEntity
  8
LAY-1
  6
CONTINUOUS
 62
     1
100
AcDbLine
 10
675.304683
 20
290.445317
 30
0.0
 11
675.304683
 21
325.195317
 31
0.0
  0
LINE
  5
BE
100
AcDbEntity
  8
LAY-1
  6
CONTINUOUS
 62
     1
100
AcDbLine
 10
555.304683
 20
290.445317
 30
0.0
 11
555.304683
 21
325.195317
 31
0.0
  0
TEXT
  5
BF
100
AcDbEntity
  8
LAY-1
  6
CONTINUOUS
 62
     3
100
AcDbText
 10
592.804683
 20
325.695317
 30
0.0
 40
15.0
  1
１２０
 41
0.84
  7
EXCADSTD
 72
     5
 11
637.804683
 21
325.695317
 31
0.0
100
AcDbText
  0
LINE
  5
C0
100
AcDbEntity
  8
LAY-1
  6
CONTINUOUS
 62
     1
100
AcDbLine
 10
675.304683
 20
324.695317
 30
0.0
 11
555.304683
 21
324.695317
 31
0.0
  0
LINE
  5
C1
100
AcDbEntity
  8
LAY-1
  6
CONTINUOUS
 62
     1
100
AcDbLine
 10
673.304683
 20
324.361984
 30
0.0
 11
675.304683
 21
324.695317
 31
0.0
  0
LINE
  5
C2
100
AcDbEntity
  8
LAY-1
  6
CONTINUOUS
 62
     1
100
AcDbLine
 10
675.304683
 20
324.695317
 30
0.0
 11
673.304683
 21
325.028651
 31
0.0
  0
LINE
  5
C3
100
AcDbEntity
  8
LAY-1
  6
CONTINUOUS
 62
     1
100
AcDbLine
 10
557.304683
 20
325.028651
 30
0.0
 11
555.304683
 21
324.695317
 31
0.0
  0
LINE
  5
C4
100
AcDbEntity
  8
LAY-1
  6
CONTINUOUS
 62
     1
100
AcDbLine
 10
555.304683
 20
324.695317
 30
0.0
 11
557.304683
 21
324.361984
 31
0.0
  0
TEXT
  5
C5
100
AcDbEntity
  8
LAY-1
  6
CONTINUOUS
 62
     4
100
AcDbText
 10
612.108463
 20
135.819694
 30
0.0
 40
9.899495
  1
D
 41
0.857143
  7
EXCADSTD
 72
     5
 11
617.623896
 21
135.819694
 31
0.0
100
AcDbText
  0
TEXT
  5
C6
100
AcDbEntity
  8
LAY-1
  6
CONTINUOUS
 62
     4
100
AcDbText
 10
604.737591
 20
135.719694
 30
0.0
 40
9.899495
  1
C
 41
0.857143
  7
EXCADSTD
 72
     5
 11
610.253023
 21
135.719694
 31
0.0
100
AcDbText
  0
TEXT
  5
C7
100
AcDbEntity
  8
LAY-1
  6
CONTINUOUS
 62
     4
100
AcDbText
 10
618.545666
 20
135.519442
 30
0.0
 40
11.200002
  1
-
 41
0.757614
  7
EXCADSTD
 72
     5
 11
624.061098
 21
135.519442
 31
0.0
100
AcDbText
  0
TEXT
  5
C8
100
AcDbEntity
  8
LAY-1
  6
CONTINUOUS
 62
     4
100
AcDbText
 10
598.004683
 20
135.645317
 30
0.0
 40
10.182338
  1
F
 41
0.833333
  7
EXCADSTD
 72
     5
 11
603.520115
 21
135.645317
 31
0.0
100
AcDbText
  0
TEXT
  5
C9
100
AcDbEntity
  8
LAY-1
  6
CONTINUOUS
 62
     4
100
AcDbText
 10
624.749703
 20
135.719694
 30
0.0
 40
9.899495
  1
S
 41
0.857143
  7
EXCADSTD
 72
     5
 11
630.265136
 21
135.719694
 31
0.0
100
AcDbText
  0
TEXT
  5
CA
100
AcDbEntity
  8
LAY-1
  6
CONTINUOUS
 62
     4
100
AcDbText
 10
584.694332
 20
114.440495
 30
0.0
 40
19.091883
  1
2
 41
1.111111
  7
EXCADSTD
 72
     5
 11
598.482914
 21
114.440495
 31
0.0
100
AcDbText
  0
TEXT
  5
CB
100
AcDbEntity
  8
LAY-1
  6
CONTINUOUS
 62
     4
100
AcDbText
 10
597.100641
 20
114.673912
 30
0.0
 40
18.80904
  1
0
 41
1.12782
  7
EXCADSTD
 72
     5
 11
610.889223
 21
114.673912
 31
0.0
100
AcDbText
  0
TEXT
  5
CC
100
AcDbEntity
  8
LAY-1
  6
CONTINUOUS
 62
     4
100
AcDbText
 10
616.548189
 20
114.373912
 30
0.0
 40
19.091883
  1
4
 41
1.111111
  7
EXCADSTD
 72
     5
 11
630.336771
 21
114.373912
 31
0.0
100
AcDbText
  0
LINE
  5
CD
100
AcDbEntity
  8
LAY-1
  6
CONTINUOUS
 62
     4
100
AcDbLine
 10
611.872809
 20
120.117805
 30
0.0
 11
619.572809
 21
120.117805
 31
0.0
  0
TEXT
  5
CE
100
AcDbEntity
  8
LAY-1
  6
CONTINUOUS
 62
     4
100
AcDbText
 10
610.942385
 20
120.044027
 30
0.0
 40
12.727922
  1
K
 41
0.833333
  7
EXCADSTD
 72
     5
 11
617.836676
 21
120.044027
 31
0.0
100
AcDbText
  0
TEXT
  5
CF
100
AcDbEntity
  8
LAY-1
  6
CONTINUOUS
 62
     4
100
AcDbText
 10
627.585615
 20
114.473912
 30
0.0
 40
19.091883
  1
0
 41
1.111111
  7
EXCADSTD
 72
     5
 11
641.374197
 21
114.473912
 31
0.0
100
AcDbText
  0
TEXT
  5
D0
100
AcDbEntity
  8
LAY-1
  6
CONTINUOUS
 62
     3
100
AcDbText
 10
582.404683
 20
482.2
 30
0.0
 40
5.0
  1
ＯＰＥＮ
 50
42.0
 41
0.672
  7
EXCADSTD
 72
     5
 11
594.295
 21
492.90609
 31
0.0
100
AcDbText
  0
TEXT
  5
D1
100
AcDbEntity
  8
LAY-1
  6
CONTINUOUS
 62
     3
100
AcDbText
 10
636.314366
 20
492.90609
 30
0.0
 40
5.0
  1
ＳＨＵＴ
 50
318.0
 41
0.672
  7
EXCADSTD
 72
     5
 11
648.204683
 21
482.2
 31
0.0
100
AcDbText
  0
ARC
  5
D2
100
AcDbEntity
  8
LAY-1
  6
CONTINUOUS
 62
     7
100
AcDbCircle
 10
541.304683
 20
184.945317
 30
0.0
 40
2.0
100
AcDbArc
 50
0.0
 51
90.0
  0
LINE
  5
D3
100
AcDbEntity
  8
LAY-1
  6
CONTINUOUS
 62
     7
100
AcDbLine
 10
541.304683
 20
186.945317
 30
0.0
 11
527.304683
 21
186.945317
 31
0.0
  0
LINE
  5
D4
100
AcDbEntity
  8
LAY-1
  6
CONTINUOUS
 62
     7
100
AcDbLine
 10
553.7111
 20
145.156926
 30
0.0
 11
550.716492
 21
145.959329
 31
0.0
  0
ARC
  5
D5
100
AcDbEntity
  8
LAY-1
  6
CONTINUOUS
 62
     7
100
AcDbCircle
 10
615.304683
 20
75.945317
 30
0.0
 40
88.5
100
AcDbArc
 50
116.3878
 51
126.801139
  0
ARC
  5
D6
100
AcDbEntity
  8
LAY-1
  6
CONTINUOUS
 62
     7
100
AcDbCircle
 10
615.304683
 20
157.945317
 30
0.0
 40
88.5
100
AcDbArc
 50
233.198861
 51
270.0
  0
LINE
  5
D7
100
AcDbEntity
  8
LAY-1
  6
CONTINUOUS
 62
     7
100
AcDbLine
 10
553.7111
 20
88.733708
 30
0.0
 11
550.716492
 21
87.931306
 31
0.0
  0
LINE
  5
D8
100
AcDbEntity
  8
LAY-1
  6
CONTINUOUS
 62
     7
100
AcDbLine
 10
541.304683
 20
46.945317
 30
0.0
 11
527.304683
 21
46.945317
 31
0.0
  0
ARC
  5
D9
100
AcDbEntity
  8
LAY-1
  6
CONTINUOUS
 62
     7
100
AcDbCircle
 10
541.304683
 20
48.945317
 30
0.0
 40
2.0
100
AcDbArc
 50
270.0
 51
0.0
  0
ARC
  5
DA
100
AcDbEntity
  8
LAY-1
  6
CONTINUOUS
 62
     7
100
AcDbCircle
 10
553.304683
 20
78.272047
 30
0.0
 40
10.0
100
AcDbArc
 50
105.0
 51
180.0
  0
ARC
  5
DB
100
AcDbEntity
  8
LAY-1
  6
CONTINUOUS
 62
     7
100
AcDbCircle
 10
556.299291
 20
79.07445
 30
0.0
 40
10.0
100
AcDbArc
 50
53.198861
 51
105.0
  0
ARC
  5
DC
100
AcDbEntity
  8
LAY-1
  6
CONTINUOUS
 62
     7
100
AcDbCircle
 10
553.304683
 20
155.618587
 30
0.0
 40
10.0
100
AcDbArc
 50
180.0
 51
255.0
  0
ARC
  5
DD
100
AcDbEntity
  8
LAY-1
  6
CONTINUOUS
 62
     7
100
AcDbCircle
 10
556.299291
 20
154.816184
 30
0.0
 40
10.0
100
AcDbArc
 50
255.0
 51
306.801139
  0
LINE
  5
DE
100
AcDbEntity
  8
LAY-1
  6
CONTINUOUS
 62
     7
100
AcDbLine
 10
568.304683
 20
181.945317
 30
0.0
 11
568.304683
 21
168.945317
 31
0.0
  0
LINE
  5
DF
100
AcDbEntity
  8
LAY-1
  6
CONTINUOUS
 62
     7
100
AcDbLine
 10
579.304683
 20
162.945317
 30
0.0
 11
579.304683
 21
160.599024
 31
0.0
  0
ARC
  5
E0
100
AcDbEntity
  8
LAY-1
  6
CONTINUOUS
 62
     7
100
AcDbCircle
 10
573.304683
 20
160.599024
 30
0.0
 40
6.0
100
AcDbArc
 50
296.3878
 51
0.0
  0
ARC
  5
E1
100
AcDbEntity
  8
LAY-1
  6
CONTINUOUS
 62
     7
100
AcDbCircle
 10
575.304683
 20
162.945317
 30
0.0
 40
4.0
100
AcDbArc
 50
0.0
 51
90.0
  0
ARC
  5
E2
100
AcDbEntity
  8
LAY-1
  6
CONTINUOUS
 62
     7
100
AcDbCircle
 10
570.304683
 20
168.945317
 30
0.0
 40
2.0
100
AcDbArc
 50
180.0
 51
270.0
  0
ARC
  5
E3
100
AcDbEntity
  8
LAY-1
  6
CONTINUOUS
 62
     7
100
AcDbCircle
 10
689.304683
 20
184.945317
 30
0.0
 40
2.0
100
AcDbArc
 50
90.0
 51
180.0
  0
LINE
  5
E4
100
AcDbEntity
  8
LAY-1
  6
CONTINUOUS
 62
     7
100
AcDbLine
 10
689.304683
 20
186.945317
 30
0.0
 11
703.304683
 21
186.945317
 31
0.0
  0
LINE
  5
E5
100
AcDbEntity
  8
LAY-1
  6
CONTINUOUS
 62
     7
100
AcDbLine
 10
676.898266
 20
145.156926
 30
0.0
 11
679.892873
 21
145.959329
 31
0.0
  0
ARC
  5
E6
100
AcDbEntity
  8
LAY-1
  6
CONTINUOUS
 62
     7
100
AcDbCircle
 10
615.304683
 20
75.945317
 30
0.0
 40
88.5
100
AcDbArc
 50
53.198861
 51
63.6122
  0
ARC
  5
E7
100
AcDbEntity
  8
LAY-1
  6
CONTINUOUS
 62
     7
100
AcDbCircle
 10
615.304683
 20
157.945317
 30
0.0
 40
88.5
100
AcDbArc
 50
270.0
 51
306.801139
  0
LINE
  5
E8
100
AcDbEntity
  8
LAY-1
  6
CONTINUOUS
 62
     7
100
AcDbLine
 10
676.898266
 20
88.733708
 30
0.0
 11
679.892873
 21
87.931306
 31
0.0
  0
LINE
  5
E9
100
AcDbEntity
  8
LAY-1
  6
CONTINUOUS
 62
     7
100
AcDbLine
 10
689.304683
 20
46.945317
 30
0.0
 11
703.304683
 21
46.945317
 31
0.0
  0
ARC
  5
EA
100
AcDbEntity
  8
LAY-1
  6
CONTINUOUS
 62
     7
100
AcDbCircle
 10
689.304683
 20
48.945317
 30
0.0
 40
2.0
100
AcDbArc
 50
180.0
 51
270.0
  0
ARC
  5
EB
100
AcDbEntity
  8
LAY-1
  6
CONTINUOUS
 62
     7
100
AcDbCircle
 10
677.304683
 20
78.272047
 30
0.0
 40
10.0
100
AcDbArc
 50
0.0
 51
75.0
  0
ARC
  5
EC
100
AcDbEntity
  8
LAY-1
  6
CONTINUOUS
 62
     7
100
AcDbCircle
 10
674.310075
 20
79.07445
 30
0.0
 40
10.0
100
AcDbArc
 50
75.0
 51
126.801139
  0
ARC
  5
ED
100
AcDbEntity
  8
LAY-1
  6
CONTINUOUS
 62
     7
100
AcDbCircle
 10
677.304683
 20
155.618587
 30
0.0
 40
10.0
100
AcDbArc
 50
285.0
 51
0.0
  0
ARC
  5
EE
100
AcDbEntity
  8
LAY-1
  6
CONTINUOUS
 62
     7
100
AcDbCircle
 10
674.310075
 20
154.816184
 30
0.0
 40
10.0
100
AcDbArc
 50
233.198861
 51
285.0
  0
LINE
  5
EF
100
AcDbEntity
  8
LAY-1
  6
CONTINUOUS
 62
     7
100
AcDbLine
 10
662.304683
 20
181.945317
 30
0.0
 11
662.304683
 21
168.945317
 31
0.0
  0
LINE
  5
F0
100
AcDbEntity
  8
LAY-1
  6
CONTINUOUS
 62
     7
100
AcDbLine
 10
651.304683
 20
162.945317
 30
0.0
 11
651.304683
 21
160.599024
 31
0.0
  0
ARC
  5
F1
100
AcDbEntity
  8
LAY-1
  6
CONTINUOUS
 62
     7
100
AcDbCircle
 10
657.304683
 20
160.599024
 30
0.0
 40
6.0
100
AcDbArc
 50
180.0
 51
243.6122
  0
ARC
  5
F2
100
AcDbEntity
  8
LAY-1
  6
CONTINUOUS
 62
     7
100
AcDbCircle
 10
655.304683
 20
162.945317
 30
0.0
 40
4.0
100
AcDbArc
 50
90.0
 51
180.0
  0
ARC
  5
F3
100
AcDbEntity
  8
LAY-1
  6
CONTINUOUS
 62
     7
100
AcDbCircle
 10
660.304683
 20
168.945317
 30
0.0
 40
2.0
100
AcDbArc
 50
270.0
 51
0.0
  0
ARC
  5
F4
100
AcDbEntity
  8
LAY-1
  6
CONTINUOUS
 62
     7
100
AcDbCircle
 10
570.304683
 20
195.945317
 30
0.0
 40
2.0
100
AcDbArc
 50
90.0
 51
180.0
  0
LINE
  5
F5
100
AcDbEntity
  8
LAY-1
  6
CONTINUOUS
 62
     7
100
AcDbLine
 10
579.804683
 20
182.945317
 30
0.0
 11
579.804683
 21
181.945317
 31
0.0
  0
LINE
  5
F6
100
AcDbEntity
  8
LAY-1
  6
CONTINUOUS
 62
     7
100
AcDbLine
 10
568.304683
 20
182.945317
 30
0.0
 11
568.304683
 21
195.945317
 31
0.0
  0
LINE
  5
F7
100
AcDbEntity
  8
LAY-1
  6
CONTINUOUS
 62
     7
100
AcDbLine
 10
615.304683
 20
270.713266
 30
0.0
 11
607.804683
 21
270.713266
 31
0.0
  0
LINE
  5
F8
100
AcDbEntity
  8
LAY-1
  6
CONTINUOUS
 62
     7
100
AcDbLine
 10
608.804683
 20
272.445317
 30
0.0
 11
607.804683
 21
270.713266
 31
0.0
  0
LINE
  5
F9
100
AcDbEntity
  8
LAY-1
  6
CONTINUOUS
 62
     7
100
AcDbLine
 10
615.304683
 20
272.445317
 30
0.0
 11
602.304683
 21
272.445317
 31
0.0
  0
LINE
  5
FA
100
AcDbEntity
  8
LAY-1
  6
CONTINUOUS
 62
     7
100
AcDbLine
 10
615.304683
 20
261.945317
 30
0.0
 11
607.804683
 21
261.945317
 31
0.0
  0
LINE
  5
FB
100
AcDbEntity
  8
LAY-1
  6
CONTINUOUS
 62
     7
100
AcDbLine
 10
596.304683
 20
259.945317
 30
0.0
 11
594.804683
 21
259.079292
 31
0.0
  0
LINE
  5
FC
100
AcDbEntity
  8
LAY-1
  6
CONTINUOUS
 62
     7
100
AcDbLine
 10
594.804683
 20
259.079292
 30
0.0
 11
594.804683
 21
251.945317
 31
0.0
  0
ARC
  5
FD
100
AcDbEntity
  8
LAY-1
  6
CONTINUOUS
 62
     7
100
AcDbCircle
 10
598.384685
 20
272.649317
 30
0.0
 40
3.0
100
AcDbArc
 50
11.478486
 51
82.007266
  0
ARC
  5
FE
100
AcDbEntity
  8
LAY-1
  6
CONTINUOUS
 62
     7
100
AcDbCircle
 10
564.304683
 20
290.445317
 30
0.0
 40
9.0
100
AcDbArc
 50
90.0
 51
270.0
  0
ARC
  5
FF
100
AcDbEntity
  8
LAY-1
  6
CONTINUOUS
 62
     7
100
AcDbCircle
 10
602.304683
 20
273.445317
 30
0.0
 40
1.0
100
AcDbArc
 50
191.478486
 51
270.0
  0
ARC
  5
100
100
AcDbEntity
  8
LAY-1
  6
CONTINUOUS
 62
     7
100
AcDbCircle
 10
660.304683
 20
195.945317
 30
0.0
 40
2.0
100
AcDbArc
 50
0.0
 51
90.0
  0
LINE
  5
101
100
AcDbEntity
  8
LAY-1
  6
CONTINUOUS
 62
     7
100
AcDbLine
 10
650.804683
 20
182.945317
 30
0.0
 11
650.804683
 21
181.945317
 31
0.0
  0
LINE
  5
102
100
AcDbEntity
  8
LAY-1
  6
CONTINUOUS
 62
     7
100
AcDbLine
 10
662.304683
 20
182.945317
 30
0.0
 11
662.304683
 21
195.945317
 31
0.0
  0
LINE
  5
103
100
AcDbEntity
  8
LAY-1
  6
CONTINUOUS
 62
     7
100
AcDbLine
 10
615.304683
 20
270.713266
 30
0.0
 11
622.804683
 21
270.713266
 31
0.0
  0
LINE
  5
104
100
AcDbEntity
  8
LAY-1
  6
CONTINUOUS
 62
     7
100
AcDbLine
 10
621.804683
 20
272.445317
 30
0.0
 11
622.804683
 21
270.713266
 31
0.0
  0
LINE
  5
105
100
AcDbEntity
  8
LAY-1
  6
CONTINUOUS
 62
     7
100
AcDbLine
 10
615.304683
 20
272.445317
 30
0.0
 11
628.304683
 21
272.445317
 31
0.0
  0
LINE
  5
106
100
AcDbEntity
  8
LAY-1
  6
CONTINUOUS
 62
     7
100
AcDbLine
 10
615.304683
 20
261.945317
 30
0.0
 11
622.804683
 21
261.945317
 31
0.0
  0
LINE
  5
107
100
AcDbEntity
  8
LAY-1
  6
CONTINUOUS
 62
     7
100
AcDbLine
 10
634.304683
 20
259.945317
 30
0.0
 11
635.804683
 21
259.079292
 31
0.0
  0
LINE
  5
108
100
AcDbEntity
  8
LAY-1
  6
CONTINUOUS
 62
     7
100
AcDbLine
 10
635.804683
 20
259.079292
 30
0.0
 11
635.804683
 21
251.945317
 31
0.0
  0
ARC
  5
109
100
AcDbEntity
  8
LAY-1
  6
CONTINUOUS
 62
     7
100
AcDbCircle
 10
632.224681
 20
272.649317
 30
0.0
 40
3.0
100
AcDbArc
 50
97.992734
 51
168.521514
  0
ARC
  5
10A
100
AcDbEntity
  8
LAY-1
  6
CONTINUOUS
 62
     7
100
AcDbCircle
 10
666.304683
 20
290.445317
 30
0.0
 40
9.0
100
AcDbArc
 50
270.0
 51
90.0
  0
ARC
  5
10B
100
AcDbEntity
  8
LAY-1
  6
CONTINUOUS
 62
     7
100
AcDbCircle
 10
628.304683
 20
273.445317
 30
0.0
 40
1.0
100
AcDbArc
 50
270.0
 51
348.521514
  0
ARC
  5
10C
100
AcDbEntity
  8
LAY-1
  6
CONTINUOUS
 62
     7
100
AcDbCircle
 10
705.304683
 20
159.445317
 30
0.0
 40
2.0
100
AcDbArc
 50
180.0
 51
270.0
  0
LINE
  5
10D
100
AcDbEntity
  8
LAY-1
  6
CONTINUOUS
 62
     7
100
AcDbLine
 10
705.304683
 20
157.445317
 30
0.0
 11
705.304683
 21
116.945317
 31
0.0
  0
ARC
  5
10E
100
AcDbEntity
  8
LAY-1
  6
CONTINUOUS
 62
     7
100
AcDbCircle
 10
705.304683
 20
74.445317
 30
0.0
 40
2.0
100
AcDbArc
 50
90.0
 51
180.0
  0
LINE
  5
10F
100
AcDbEntity
  8
LAY-1
  6
CONTINUOUS
 62
     7
100
AcDbLine
 10
705.304683
 20
76.445317
 30
0.0
 11
705.304683
 21
116.945317
 31
0.0
  0
ARC
  5
110
100
AcDbEntity
  8
LAY-1
  6
CONTINUOUS
 62
     7
100
AcDbCircle
 10
525.304683
 20
159.445317
 30
0.0
 40
2.0
100
AcDbArc
 50
270.0
 51
0.0
  0
ARC
  5
111
100
AcDbEntity
  8
LAY-1
  6
CONTINUOUS
 62
     7
100
AcDbCircle
 10
525.304683
 20
74.445317
 30
0.0
 40
2.0
100
AcDbArc
 50
0.0
 51
90.0
  0
LINE
  5
112
100
AcDbEntity
  8
LAY-1
  6
CONTINUOUS
 62
     7
100
AcDbLine
 10
525.304683
 20
157.445317
 30
0.0
 11
525.304683
 21
116.945317
 31
0.0
  0
LINE
  5
113
100
AcDbEntity
  8
LAY-1
  6
CONTINUOUS
 62
     7
100
AcDbLine
 10
525.304683
 20
76.445317
 30
0.0
 11
525.304683
 21
116.945317
 31
0.0
  0
LINE
  5
114
100
AcDbEntity
  8
LAY-1
  6
CONTINUOUS
 62
     7
100
AcDbLine
 10
615.304683
 20
249.945317
 30
0.0
 11
635.804683
 21
249.945317
 31
0.0
  0
LINE
  5
115
100
AcDbEntity
  8
LAY-1
  6
CONTINUOUS
 62
     7
100
AcDbLine
 10
615.304683
 20
249.945317
 30
0.0
 11
594.804683
 21
249.945317
 31
0.0
  0
LINE
  5
116
100
AcDbEntity
  8
LAY-1
  6
CONTINUOUS
 62
     7
100
AcDbLine
 10
597.804683
 20
249.945317
 30
0.0
 11
597.804683
 21
251.945317
 31
0.0
  0
LINE
  5
117
100
AcDbEntity
  8
LAY-1
  6
CONTINUOUS
 62
     7
100
AcDbLine
 10
632.804683
 20
249.945317
 30
0.0
 11
632.804683
 21
251.945317
 31
0.0
  0
LINE
  5
118
100
AcDbEntity
  8
LAY-1
  6
CONTINUOUS
 62
     7
100
AcDbLine
 10
622.804683
 20
270.713266
 30
0.0
 11
622.804683
 21
259.945317
 31
0.0
  0
LINE
  5
119
100
AcDbEntity
  8
LAY-1
  6
CONTINUOUS
 62
     7
100
AcDbLine
 10
615.304683
 20
259.945317
 30
0.0
 11
634.304683
 21
259.945317
 31
0.0
  0
LINE
  5
11A
100
AcDbEntity
  8
LAY-1
  6
CONTINUOUS
 62
     7
100
AcDbLine
 10
615.304683
 20
259.945317
 30
0.0
 11
596.304683
 21
259.945317
 31
0.0
  0
LINE
  5
11B
100
AcDbEntity
  8
LAY-1
  6
CONTINUOUS
 62
     7
100
AcDbLine
 10
607.804683
 20
270.713266
 30
0.0
 11
607.804683
 21
259.945317
 31
0.0
  0
LINE
  5
11C
100
AcDbEntity
  8
LAY-1
  6
CONTINUOUS
 62
     7
100
AcDbLine
 10
635.804683
 20
251.945317
 30
0.0
 11
615.304683
 21
251.945317
 31
0.0
  0
LINE
  5
11D
100
AcDbEntity
  8
LAY-1
  6
CONTINUOUS
 62
     7
100
AcDbLine
 10
594.804683
 20
251.945317
 30
0.0
 11
615.304683
 21
251.945317
 31
0.0
  0
LINE
  5
11E
100
AcDbEntity
  8
LAY-1
  6
CONTINUOUS
 62
     7
100
AcDbLine
 10
687.304683
 20
116.945317
 30
0.0
 11
687.304683
 21
184.945317
 31
0.0
  0
LINE
  5
11F
100
AcDbEntity
  8
LAY-1
  6
CONTINUOUS
 62
     7
100
AcDbLine
 10
703.304683
 20
186.945317
 30
0.0
 11
703.304683
 21
116.945317
 31
0.0
  0
LINE
  5
120
100
AcDbEntity
  8
LAY-1
  6
CONTINUOUS
 62
     7
100
AcDbLine
 10
703.304683
 20
46.945317
 30
0.0
 11
703.304683
 21
116.945317
 31
0.0
  0
LINE
  5
121
100
AcDbEntity
  8
LAY-1
  6
CONTINUOUS
 62
     7
100
AcDbLine
 10
687.304683
 20
116.945317
 30
0.0
 11
687.304683
 21
48.945317
 31
0.0
  0
LINE
  5
122
100
AcDbEntity
  8
LAY-1
  6
CONTINUOUS
 62
     7
100
AcDbLine
 10
543.304683
 20
116.945317
 30
0.0
 11
543.304683
 21
48.945317
 31
0.0
  0
LINE
  5
123
100
AcDbEntity
  8
LAY-1
  6
CONTINUOUS
 62
     7
100
AcDbLine
 10
543.304683
 20
116.945317
 30
0.0
 11
543.304683
 21
184.945317
 31
0.0
  0
LINE
  5
124
100
AcDbEntity
  8
LAY-1
  6
CONTINUOUS
 62
     7
100
AcDbLine
 10
527.304683
 20
46.945317
 30
0.0
 11
527.304683
 21
116.945317
 31
0.0
  0
LINE
  5
125
100
AcDbEntity
  8
LAY-1
  6
CONTINUOUS
 62
     7
100
AcDbLine
 10
527.304683
 20
186.945317
 30
0.0
 11
527.304683
 21
116.945317
 31
0.0
  0
LINE
  5
126
100
AcDbEntity
  8
LAY-1
  6
CONTINUOUS
 62
     7
100
AcDbLine
 10
615.304683
 20
166.945317
 30
0.0
 11
570.304683
 21
166.945317
 31
0.0
  0
LINE
  5
127
100
AcDbEntity
  8
LAY-1
  6
CONTINUOUS
 62
     7
100
AcDbLine
 10
660.304683
 20
166.945317
 30
0.0
 11
615.304683
 21
166.945317
 31
0.0
  0
LINE
  5
128
100
AcDbEntity
  8
LAY-1
  6
CONTINUOUS
 62
     7
100
AcDbLine
 10
615.304683
 20
181.945317
 30
0.0
 11
568.304683
 21
181.945317
 31
0.0
  0
LINE
  5
129
100
AcDbEntity
  8
LAY-1
  6
CONTINUOUS
 62
     7
100
AcDbLine
 10
615.304683
 20
181.945317
 30
0.0
 11
662.304683
 21
181.945317
 31
0.0
  0
LINE
  5
12A
100
AcDbEntity
  8
LAY-1
  6
CONTINUOUS
 62
     7
100
AcDbLine
 10
615.304683
 20
182.945317
 30
0.0
 11
568.304683
 21
182.945317
 31
0.0
  0
LINE
  5
12B
100
AcDbEntity
  8
LAY-1
  6
CONTINUOUS
 62
     7
100
AcDbLine
 10
615.304683
 20
182.945317
 30
0.0
 11
662.304683
 21
182.945317
 31
0.0
  0
LINE
  5
12C
100
AcDbEntity
  8
LAY-1
  6
CONTINUOUS
 62
     7
100
AcDbLine
 10
615.304683
 20
197.945317
 30
0.0
 11
570.304683
 21
197.945317
 31
0.0
  0
LINE
  5
12D
100
AcDbEntity
  8
LAY-1
  6
CONTINUOUS
 62
     7
100
AcDbLine
 10
615.304683
 20
197.945317
 30
0.0
 11
660.304683
 21
197.945317
 31
0.0
  0
LINE
  5
12E
100
AcDbEntity
  8
LAY-1
  6
CONTINUOUS
 62
     7
100
AcDbLine
 10
595.304683
 20
109.445317
 30
0.0
 11
595.304683
 21
106.945317
 31
0.0
  0
LINE
  5
12F
100
AcDbEntity
  8
LAY-1
  6
CONTINUOUS
 62
     7
100
AcDbLine
 10
597.325409
 20
109.445317
 30
0.0
 11
595.304683
 21
109.445317
 31
0.0
  0
LINE
  5
130
100
AcDbEntity
  8
LAY-1
  6
CONTINUOUS
 62
     7
100
AcDbLine
 10
595.304683
 20
112.945317
 30
0.0
 11
597.325409
 21
109.445317
 31
0.0
  0
LINE
  5
131
100
AcDbEntity
  8
LAY-1
  6
CONTINUOUS
 62
     7
100
AcDbLine
 10
605.172522
 20
112.945317
 30
0.0
 11
595.304683
 21
112.945317
 31
0.0
  0
LINE
  5
132
100
AcDbEntity
  8
LAY-1
  6
CONTINUOUS
 62
     7
100
AcDbLine
 10
608.672522
 20
109.445317
 30
0.0
 11
605.172522
 21
112.945317
 31
0.0
  0
LINE
  5
133
100
AcDbEntity
  8
LAY-1
  6
CONTINUOUS
 62
     7
100
AcDbLine
 10
622.437641
 20
109.445317
 30
0.0
 11
608.672522
 21
109.445317
 31
0.0
  0
LINE
  5
134
100
AcDbEntity
  8
LAY-1
  6
CONTINUOUS
 62
     7
100
AcDbLine
 10
635.304683
 20
106.945317
 30
0.0
 11
622.437641
 21
112.945317
 31
0.0
  0
LINE
  5
135
100
AcDbEntity
  8
LAY-1
  6
CONTINUOUS
 62
     7
100
AcDbLine
 10
595.304683
 20
106.945317
 30
0.0
 11
635.304683
 21
106.945317
 31
0.0
  0
LINE
  5
136
100
AcDbEntity
  8
LAY-1
  6
CONTINUOUS
 62
     7
100
AcDbLine
 10
622.437641
 20
112.945317
 30
0.0
 11
622.437641
 21
109.445317
 31
0.0
  0
LINE
  5
137
100
AcDbEntity
  8
LAY-1
  6
CONTINUOUS
 62
     7
100
AcDbLine
 10
626.204683
 20
251.945317
 30
0.0
 11
626.204683
 21
259.079292
 31
0.0
  0
LINE
  5
138
100
AcDbEntity
  8
LAY-1
  6
CONTINUOUS
 62
     7
100
AcDbLine
 10
604.404683
 20
251.945317
 30
0.0
 11
604.404683
 21
259.079292
 31
0.0
  0
ARC
  5
139
100
AcDbEntity
  8
LAY-1
  6
CONTINUOUS
 62
     7
100
AcDbCircle
 10
631.004683
 20
246.210154
 30
0.0
 40
13.735163
100
AcDbArc
 50
69.545221
 51
110.454779
  0
ARC
  5
13A
100
AcDbEntity
  8
LAY-1
  6
CONTINUOUS
 62
     7
100
AcDbCircle
 10
615.304683
 20
190.917319
 30
0.0
 40
69.027998
100
AcDbArc
 50
80.914572
 51
99.085428
  0
ARC
  5
13B
100
AcDbEntity
  8
LAY-1
  6
CONTINUOUS
 62
     7
100
AcDbCircle
 10
599.604683
 20
246.210154
 30
0.0
 40
13.735163
100
AcDbArc
 50
69.545221
 51
110.454779
  0
LINE
  5
13C
100
AcDbEntity
  8
LAY-1
  6
CONTINUOUS
 62
     7
100
AcDbLine
 10
640.585274
 20
207.945317
 30
0.0
 11
640.585274
 21
209.945317
 31
0.0
  0
LINE
  5
13D
100
AcDbEntity
  8
LAY-1
  6
CONTINUOUS
 62
     7
100
AcDbLine
 10
650.835274
 20
209.945317
 30
0.0
 11
650.835274
 21
207.945317
 31
0.0
  0
LINE
  5
13E
100
AcDbEntity
  8
LAY-1
  6
CONTINUOUS
 62
     7
100
AcDbLine
 10
639.710274
 20
209.070317
 30
0.0
 11
651.710274
 21
209.070317
 31
0.0
  0
LINE
  5
13F
100
AcDbEntity
  8
LAY-1
  6
CONTINUOUS
 62
     7
100
AcDbLine
 10
651.710274
 20
209.070317
 30
0.0
 11
651.710274
 21
207.945317
 31
0.0
  0
LINE
  5
140
100
AcDbEntity
  8
LAY-1
  6
CONTINUOUS
 62
     7
100
AcDbLine
 10
650.835274
 20
209.945317
 30
0.0
 11
651.710274
 21
209.070317
 31
0.0
  0
LINE
  5
141
100
AcDbEntity
  8
LAY-1
  6
CONTINUOUS
 62
     7
100
AcDbLine
 10
651.772452
 20
197.945317
 30
0.0
 11
651.772452
 21
207.007495
 31
0.0
  0
LINE
  5
142
100
AcDbEntity
  8
LAY-1
  6
CONTINUOUS
 62
     7
100
AcDbLine
 10
639.648097
 20
207.007495
 30
0.0
 11
639.648097
 21
197.945317
 31
0.0
  0
ARC
  5
143
100
AcDbEntity
  8
LAY-1
  6
CONTINUOUS
 62
     7
100
AcDbCircle
 10
636.617008
 20
202.578089
 30
0.0
 40
5.367228
100
AcDbArc
 50
55.615753
 51
124.384247
  0
LINE
  5
144
100
AcDbEntity
  8
LAY-1
  6
CONTINUOUS
 62
     7
100
AcDbLine
 10
657.83463
 20
207.007495
 30
0.0
 11
657.83463
 21
197.945317
 31
0.0
  0
LINE
  5
145
100
AcDbEntity
  8
LAY-1
  6
CONTINUOUS
 62
     7
100
AcDbLine
 10
656.210274
 20
207.945317
 30
0.0
 11
657.83463
 21
207.007495
 31
0.0
  0
LINE
  5
146
100
AcDbEntity
  8
LAY-1
  6
CONTINUOUS
 62
     7
100
AcDbLine
 10
635.210274
 20
207.945317
 30
0.0
 11
656.210274
 21
207.945317
 31
0.0
  0
LINE
  5
147
100
AcDbEntity
  8
LAY-1
  6
CONTINUOUS
 62
     7
100
AcDbLine
 10
633.585919
 20
207.007495
 30
0.0
 11
635.210274
 21
207.945317
 31
0.0
  0
LINE
  5
148
100
AcDbEntity
  8
LAY-1
  6
CONTINUOUS
 62
     7
100
AcDbLine
 10
640.585274
 20
209.945317
 30
0.0
 11
650.835274
 21
209.945317
 31
0.0
  0
LINE
  5
149
100
AcDbEntity
  8
LAY-1
  6
CONTINUOUS
 62
     7
100
AcDbLine
 10
639.710274
 20
207.945317
 30
0.0
 11
639.710274
 21
209.070317
 31
0.0
  0
LINE
  5
14A
100
AcDbEntity
  8
LAY-1
  6
CONTINUOUS
 62
     7
100
AcDbLine
 10
639.710274
 20
209.070317
 30
0.0
 11
640.585274
 21
209.945317
 31
0.0
  0
ARC
  5
14B
100
AcDbEntity
  8
LAY-1
  6
CONTINUOUS
 62
     7
100
AcDbCircle
 10
654.803541
 20
202.578089
 30
0.0
 40
5.367228
100
AcDbArc
 50
55.615753
 51
124.384247
  0
ARC
  5
14C
100
AcDbEntity
  8
LAY-1
  6
CONTINUOUS
 62
     7
100
AcDbCircle
 10
645.710274
 20
187.883139
 30
0.0
 40
20.062178
100
AcDbArc
 50
72.412046
 51
107.587954
  0
LINE
  5
14D
100
AcDbEntity
  8
LAY-1
  6
CONTINUOUS
 62
     7
100
AcDbLine
 10
633.585919
 20
197.945317
 30
0.0
 11
633.585919
 21
207.007495
 31
0.0
  0
LINE
  5
14E
100
AcDbEntity
  8
LAY-1
  6
CONTINUOUS
 62
     7
100
AcDbLine
 10
590.024091
 20
207.945317
 30
0.0
 11
590.024091
 21
209.945317
 31
0.0
  0
LINE
  5
14F
100
AcDbEntity
  8
LAY-1
  6
CONTINUOUS
 62
     7
100
AcDbLine
 10
579.774091
 20
209.945317
 30
0.0
 11
579.774091
 21
207.945317
 31
0.0
  0
LINE
  5
150
100
AcDbEntity
  8
LAY-1
  6
CONTINUOUS
 62
     7
100
AcDbLine
 10
590.899091
 20
209.070317
 30
0.0
 11
578.899091
 21
209.070317
 31
0.0
  0
LINE
  5
151
100
AcDbEntity
  8
LAY-1
  6
CONTINUOUS
 62
     7
100
AcDbLine
 10
578.899091
 20
209.070317
 30
0.0
 11
578.899091
 21
207.945317
 31
0.0
  0
LINE
  5
152
100
AcDbEntity
  8
LAY-1
  6
CONTINUOUS
 62
     7
100
AcDbLine
 10
579.774091
 20
209.945317
 30
0.0
 11
578.899091
 21
209.070317
 31
0.0
  0
LINE
  5
153
100
AcDbEntity
  8
LAY-1
  6
CONTINUOUS
 62
     7
100
AcDbLine
 10
578.836913
 20
197.945317
 30
0.0
 11
578.836913
 21
207.007495
 31
0.0
  0
LINE
  5
154
100
AcDbEntity
  8
LAY-1
  6
CONTINUOUS
 62
     7
100
AcDbLine
 10
590.961269
 20
207.007495
 30
0.0
 11
590.961269
 21
197.945317
 31
0.0
  0
ARC
  5
155
100
AcDbEntity
  8
LAY-1
  6
CONTINUOUS
 62
     7
100
AcDbCircle
 10
593.992358
 20
202.578089
 30
0.0
 40
5.367228
100
AcDbArc
 50
55.615753
 51
124.384247
  0
LINE
  5
156
100
AcDbEntity
  8
LAY-1
  6
CONTINUOUS
 62
     7
100
AcDbLine
 10
572.774736
 20
207.007495
 30
0.0
 11
572.774736
 21
197.945317
 31
0.0
  0
LINE
  5
157
100
AcDbEntity
  8
LAY-1
  6
CONTINUOUS
 62
     7
100
AcDbLine
 10
574.399091
 20
207.945317
 30
0.0
 11
572.774736
 21
207.007495
 31
0.0
  0
LINE
  5
158
100
AcDbEntity
  8
LAY-1
  6
CONTINUOUS
 62
     7
100
AcDbLine
 10
595.399091
 20
207.945317
 30
0.0
 11
574.399091
 21
207.945317
 31
0.0
  0
LINE
  5
159
100
AcDbEntity
  8
LAY-1
  6
CONTINUOUS
 62
     7
100
AcDbLine
 10
597.023447
 20
207.007495
 30
0.0
 11
595.399091
 21
207.945317
 31
0.0
  0
LINE
  5
15A
100
AcDbEntity
  8
LAY-1
  6
CONTINUOUS
 62
     7
100
AcDbLine
 10
590.024091
 20
209.945317
 30
0.0
 11
579.774091
 21
209.945317
 31
0.0
  0
LINE
  5
15B
100
AcDbEntity
  8
LAY-1
  6
CONTINUOUS
 62
     7
100
AcDbLine
 10
590.899091
 20
207.945317
 30
0.0
 11
590.899091
 21
209.070317
 31
0.0
  0
LINE
  5
15C
100
AcDbEntity
  8
LAY-1
  6
CONTINUOUS
 62
     7
100
AcDbLine
 10
590.899091
 20
209.070317
 30
0.0
 11
590.024091
 21
209.945317
 31
0.0
  0
ARC
  5
15D
100
AcDbEntity
  8
LAY-1
  6
CONTINUOUS
 62
     7
100
AcDbCircle
 10
575.805825
 20
202.578089
 30
0.0
 40
5.367228
100
AcDbArc
 50
55.615753
 51
124.384247
  0
ARC
  5
15E
100
AcDbEntity
  8
LAY-1
  6
CONTINUOUS
 62
     7
100
AcDbCircle
 10
584.899091
 20
187.883139
 30
0.0
 40
20.062178
100
AcDbArc
 50
72.412046
 51
107.587954
  0
LINE
  5
15F
100
AcDbEntity
  8
LAY-1
  6
CONTINUOUS
 62
     7
100
AcDbLine
 10
597.023447
 20
197.945317
 30
0.0
 11
597.023447
 21
207.007495
 31
0.0
  0
LINE
  5
160
100
AcDbEntity
  8
LAY-1
  6
CONTINUOUS
 62
     7
100
AcDbLine
 10
666.304683
 20
281.445317
 30
0.0
 11
615.304683
 21
281.445317
 31
0.0
  0
LINE
  5
161
100
AcDbEntity
  8
LAY-1
  6
CONTINUOUS
 62
     7
100
AcDbLine
 10
564.304683
 20
281.445317
 30
0.0
 11
615.304683
 21
281.445317
 31
0.0
  0
ARC
  5
162
100
AcDbEntity
  8
LAY-1
  6
CONTINUOUS
 62
     7
100
AcDbCircle
 10
629.304683
 20
293.445317
 30
0.0
 40
18.0
100
AcDbArc
 50
277.992734
 51
318.189685
  0
ARC
  5
163
100
AcDbEntity
  8
LAY-1
  6
CONTINUOUS
 62
     7
100
AcDbCircle
 10
601.304683
 20
293.445317
 30
0.0
 40
18.0
100
AcDbArc
 50
221.810315
 51
262.007266
  0
LINE
  5
164
100
AcDbEntity
  8
LAY-1
  6
CONTINUOUS
 62
     7
100
AcDbLine
 10
615.304683
 20
299.445317
 30
0.0
 11
666.304683
 21
299.445317
 31
0.0
  0
LINE
  5
165
100
AcDbEntity
  8
LAY-1
  6
CONTINUOUS
 62
     7
100
AcDbLine
 10
615.304683
 20
299.445317
 30
0.0
 11
564.304683
 21
299.445317
 31
0.0
  0
ARC
  5
166
100
AcDbEntity
  8
LAY-1
  6
CONTINUOUS
 62
     7
100
AcDbCircle
 10
615.304683
 20
297.345317
 30
0.0
 40
7.0
100
AcDbArc
 50
17.457603
 51
90.0
  0
ARC
  5
167
100
AcDbEntity
  8
LAY-1
  6
CONTINUOUS
 62
     7
100
AcDbCircle
 10
615.304683
 20
297.345317
 30
0.0
 40
7.0
100
AcDbArc
 50
90.0
 51
162.542397
  0
ARC
  5
168
100
AcDbEntity
  8
LAY-1
  6
CONTINUOUS
 62
     7
100
AcDbCircle
 10
689.304683
 20
520.5
 30
0.0
 40
2.0
100
AcDbArc
 50
90.0
 51
180.0
  0
LINE
  5
169
100
AcDbEntity
  8
LAY-1
  6
CONTINUOUS
 62
     7
100
AcDbLine
 10
689.304683
 20
522.5
 30
0.0
 11
703.304683
 21
522.5
 31
0.0
  0
LINE
  5
16A
100
AcDbEntity
  8
LAY-1
  6
CONTINUOUS
 62
     7
100
AcDbLine
 10
689.304683
 20
382.5
 30
0.0
 11
703.304683
 21
382.5
 31
0.0
  0
ARC
  5
16B
100
AcDbEntity
  8
LAY-1
  6
CONTINUOUS
 62
     7
100
AcDbCircle
 10
689.304683
 20
384.5
 30
0.0
 40
2.0
100
AcDbArc
 50
180.0
 51
270.0
  0
LINE
  5
16C
100
AcDbEntity
  8
LAY-1
  6
CONTINUOUS
 62
     7
100
AcDbLine
 10
687.304683
 20
452.5
 30
0.0
 11
687.304683
 21
520.5
 31
0.0
  0
LINE
  5
16D
100
AcDbEntity
  8
LAY-1
  6
CONTINUOUS
 62
     7
100
AcDbLine
 10
687.304683
 20
452.5
 30
0.0
 11
687.304683
 21
384.5
 31
0.0
  0
ARC
  5
16E
100
AcDbEntity
  8
LAY-1
  6
CONTINUOUS
 62
     7
100
AcDbCircle
 10
677.304683
 20
413.82673
 30
0.0
 40
10.0
100
AcDbArc
 50
0.0
 51
75.0
  0
LINE
  5
16F
100
AcDbEntity
  8
LAY-1
  6
CONTINUOUS
 62
     7
100
AcDbLine
 10
676.898266
 20
424.288391
 30
0.0
 11
679.892873
 21
423.485988
 31
0.0
  0
ARC
  5
170
100
AcDbEntity
  8
LAY-1
  6
CONTINUOUS
 62
     7
100
AcDbCircle
 10
677.304683
 20
491.17327
 30
0.0
 40
10.0
100
AcDbArc
 50
285.0
 51
0.0
  0
LINE
  5
171
100
AcDbEntity
  8
LAY-1
  6
CONTINUOUS
 62
     7
100
AcDbLine
 10
676.898266
 20
480.711609
 30
0.0
 11
679.892873
 21
481.514012
 31
0.0
  0
ARC
  5
172
100
AcDbEntity
  8
LAY-1
  6
CONTINUOUS
 62
     7
100
AcDbCircle
 10
674.310075
 20
490.370867
 30
0.0
 40
10.0
100
AcDbArc
 50
233.198861
 51
285.0
  0
ARC
  5
173
100
AcDbEntity
  8
LAY-1
  6
CONTINUOUS
 62
     7
100
AcDbCircle
 10
674.310075
 20
414.629133
 30
0.0
 40
10.0
100
AcDbArc
 50
75.0
 51
126.801139
  0
LINE
  5
174
100
AcDbEntity
  8
LAY-1
  6
CONTINUOUS
 62
     7
100
AcDbLine
 10
703.304683
 20
382.5
 30
0.0
 11
703.304683
 21
452.5
 31
0.0
  0
ARC
  5
175
100
AcDbEntity
  8
LAY-1
  6
CONTINUOUS
 62
     7
100
AcDbCircle
 10
541.304683
 20
520.5
 30
0.0
 40
2.0
100
AcDbArc
 50
0.0
 51
90.0
  0
LINE
  5
176
100
AcDbEntity
  8
LAY-1
  6
CONTINUOUS
 62
     7
100
AcDbLine
 10
541.304683
 20
522.5
 30
0.0
 11
527.304683
 21
522.5
 31
0.0
  0
LINE
  5
177
100
AcDbEntity
  8
LAY-1
  6
CONTINUOUS
 62
     7
100
AcDbLine
 10
541.304683
 20
382.5
 30
0.0
 11
527.304683
 21
382.5
 31
0.0
  0
ARC
  5
178
100
AcDbEntity
  8
LAY-1
  6
CONTINUOUS
 62
     7
100
AcDbCircle
 10
541.304683
 20
384.5
 30
0.0
 40
2.0
100
AcDbArc
 50
270.0
 51
0.0
  0
LINE
  5
179
100
AcDbEntity
  8
LAY-1
  6
CONTINUOUS
 62
     7
100
AcDbLine
 10
543.304683
 20
452.5
 30
0.0
 11
543.304683
 21
520.5
 31
0.0
  0
LINE
  5
17A
100
AcDbEntity
  8
LAY-1
  6
CONTINUOUS
 62
     7
100
AcDbLine
 10
543.304683
 20
452.5
 30
0.0
 11
543.304683
 21
384.5
 31
0.0
  0
ARC
  5
17B
100
AcDbEntity
  8
LAY-1
  6
CONTINUOUS
 62
     7
100
AcDbCircle
 10
553.304683
 20
413.82673
 30
0.0
 40
10.0
100
AcDbArc
 50
105.0
 51
180.0
  0
LINE
  5
17C
100
AcDbEntity
  8
LAY-1
  6
CONTINUOUS
 62
     7
100
AcDbLine
 10
553.7111
 20
424.288391
 30
0.0
 11
550.716492
 21
423.485988
 31
0.0
  0
ARC
  5
17D
100
AcDbEntity
  8
LAY-1
  6
CONTINUOUS
 62
     7
100
AcDbCircle
 10
553.304683
 20
491.17327
 30
0.0
 40
10.0
100
AcDbArc
 50
180.0
 51
255.0
  0
LINE
  5
17E
100
AcDbEntity
  8
LAY-1
  6
CONTINUOUS
 62
     7
100
AcDbLine
 10
553.7111
 20
480.711609
 30
0.0
 11
550.716492
 21
481.514012
 31
0.0
  0
ARC
  5
17F
100
AcDbEntity
  8
LAY-1
  6
CONTINUOUS
 62
     7
100
AcDbCircle
 10
556.299291
 20
490.370867
 30
0.0
 40
10.0
100
AcDbArc
 50
255.0
 51
306.801139
  0
ARC
  5
180
100
AcDbEntity
  8
LAY-1
  6
CONTINUOUS
 62
     7
100
AcDbCircle
 10
556.299291
 20
414.629133
 30
0.0
 40
10.0
100
AcDbArc
 50
53.198861
 51
105.0
  0
LINE
  5
181
100
AcDbEntity
  8
LAY-1
  6
CONTINUOUS
 62
     7
100
AcDbLine
 10
527.304683
 20
382.5
 30
0.0
 11
527.304683
 21
452.5
 31
0.0
  0
LINE
  5
182
100
AcDbEntity
  8
LAY-1
  6
CONTINUOUS
 62
     7
100
AcDbLine
 10
705.304683
 20
493.0
 30
0.0
 11
705.304683
 21
452.5
 31
0.0
  0
LINE
  5
183
100
AcDbEntity
  8
LAY-1
  6
CONTINUOUS
 62
     7
100
AcDbLine
 10
703.304683
 20
522.5
 30
0.0
 11
703.304683
 21
452.5
 31
0.0
  0
LINE
  5
184
100
AcDbEntity
  8
LAY-1
  6
CONTINUOUS
 62
     7
100
AcDbLine
 10
705.304683
 20
412.0
 30
0.0
 11
705.304683
 21
452.5
 31
0.0
  0
LINE
  5
185
100
AcDbEntity
  8
LAY-1
  6
CONTINUOUS
 62
     7
100
AcDbLine
 10
525.304683
 20
493.0
 30
0.0
 11
525.304683
 21
452.5
 31
0.0
  0
LINE
  5
186
100
AcDbEntity
  8
LAY-1
  6
CONTINUOUS
 62
     7
100
AcDbLine
 10
525.304683
 20
412.0
 30
0.0
 11
525.304683
 21
452.5
 31
0.0
  0
LINE
  5
187
100
AcDbEntity
  8
LAY-1
  6
CONTINUOUS
 62
     7
100
AcDbLine
 10
527.304683
 20
522.5
 30
0.0
 11
527.304683
 21
452.5
 31
0.0
  0
LINE
  5
188
100
AcDbEntity
  8
LAY-1
  6
CONTINUOUS
 62
     7
100
AcDbLine
 10
705.304683
 20
412.0
 30
0.0
 11
703.304683
 21
412.0
 31
0.0
  0
LINE
  5
189
100
AcDbEntity
  8
LAY-1
  6
CONTINUOUS
 62
     7
100
AcDbLine
 10
705.304683
 20
493.0
 30
0.0
 11
703.304683
 21
493.0
 31
0.0
  0
LINE
  5
18A
100
AcDbEntity
  8
LAY-1
  6
CONTINUOUS
 62
     7
100
AcDbLine
 10
525.304683
 20
493.0
 30
0.0
 11
527.304683
 21
493.0
 31
0.0
  0
LINE
  5
18B
100
AcDbEntity
  8
LAY-1
  6
CONTINUOUS
 62
     7
100
AcDbLine
 10
525.304683
 20
412.0
 30
0.0
 11
527.304683
 21
412.0
 31
0.0
  0
ARC
  5
18C
100
AcDbEntity
  8
LAY-1
  6
CONTINUOUS
 62
     7
100
AcDbCircle
 10
699.663799
 20
487.44269
 30
0.0
 40
39.309649
100
AcDbArc
 50
178.671838
 51
226.328162
  0
ARC
  5
18D
100
AcDbEntity
  8
LAY-1
  6
CONTINUOUS
 62
     7
100
AcDbCircle
 10
650.247373
 20
536.859116
 30
0.0
 40
39.309649
100
AcDbArc
 50
223.671838
 51
271.328162
  0
ARC
  5
18E
100
AcDbEntity
  8
LAY-1
  6
CONTINUOUS
 62
     7
100
AcDbCircle
 10
651.367129
 20
488.562446
 30
0.0
 40
9.0
100
AcDbArc
 50
358.671838
 51
91.328162
  0
ARC
  5
18F
100
AcDbEntity
  8
LAY-1
  6
CONTINUOUS
 62
     7
100
AcDbCircle
 10
699.663799
 20
417.55731
 30
0.0
 40
39.309649
100
AcDbArc
 50
133.671838
 51
181.328162
  0
ARC
  5
190
100
AcDbEntity
  8
LAY-1
  6
CONTINUOUS
 62
     7
100
AcDbCircle
 10
666.304683
 20
452.5
 30
0.0
 40
9.0
100
AcDbArc
 50
313.671838
 51
46.328162
  0
ARC
  5
191
100
AcDbEntity
  8
LAY-1
  6
CONTINUOUS
 62
     7
100
AcDbCircle
 10
580.361993
 20
536.859116
 30
0.0
 40
39.309649
100
AcDbArc
 50
268.671838
 51
316.328162
  0
ARC
  5
192
100
AcDbEntity
  8
LAY-1
  6
CONTINUOUS
 62
     7
100
AcDbCircle
 10
615.304683
 20
503.5
 30
0.0
 40
9.0
100
AcDbArc
 50
43.671838
 51
136.328162
  0
ARC
  5
193
100
AcDbEntity
  8
LAY-1
  6
CONTINUOUS
 62
     7
100
AcDbCircle
 10
530.945567
 20
487.44269
 30
0.0
 40
39.309649
100
AcDbArc
 50
313.671838
 51
1.328162
  0
ARC
  5
194
100
AcDbEntity
  8
LAY-1
  6
CONTINUOUS
 62
     7
100
AcDbCircle
 10
579.242237
 20
488.562446
 30
0.0
 40
9.0
100
AcDbArc
 50
88.671838
 51
181.328162
  0
ARC
  5
195
100
AcDbEntity
  8
LAY-1
  6
CONTINUOUS
 62
     7
100
AcDbCircle
 10
564.304683
 20
452.5
 30
0.0
 40
9.0
100
AcDbArc
 50
133.671838
 51
226.328162
  0
ARC
  5
196
100
AcDbEntity
  8
LAY-1
  6
CONTINUOUS
 62
     7
100
AcDbCircle
 10
651.367129
 20
416.437554
 30
0.0
 40
9.0
100
AcDbArc
 50
268.671838
 51
1.328162
  0
ARC
  5
197
100
AcDbEntity
  8
LAY-1
  6
CONTINUOUS
 62
     7
100
AcDbCircle
 10
650.247373
 20
368.140884
 30
0.0
 40
39.309649
100
AcDbArc
 50
88.671838
 51
136.328162
  0
ARC
  5
198
100
AcDbEntity
  8
LAY-1
  6
CONTINUOUS
 62
     7
100
AcDbCircle
 10
615.304683
 20
401.5
 30
0.0
 40
9.0
100
AcDbArc
 50
223.671838
 51
316.328162
  0
ARC
  5
199
100
AcDbEntity
  8
LAY-1
  6
CONTINUOUS
 62
     7
100
AcDbCircle
 10
580.361993
 20
368.140884
 30
0.0
 40
39.309649
100
AcDbArc
 50
43.671838
 51
91.328162
  0
ARC
  5
19A
100
AcDbEntity
  8
LAY-1
  6
CONTINUOUS
 62
     7
100
AcDbCircle
 10
579.242237
 20
416.437554
 30
0.0
 40
9.0
100
AcDbArc
 50
178.671838
 51
271.328162
  0
ARC
  5
19B
100
AcDbEntity
  8
LAY-1
  6
CONTINUOUS
 62
     7
100
AcDbCircle
 10
530.945567
 20
417.55731
 30
0.0
 40
39.309649
100
AcDbArc
 50
358.671838
 51
46.328162
  0
CIRCLE
  5
19C
100
AcDbEntity
  8
LAY-1
  6
CONTINUOUS
 62
     7
100
AcDbCircle
 10
615.304683
 20
452.5
 30
0.0
 40
40.0
  0
CIRCLE
  5
19D
100
AcDbEntity
  8
LAY-1
  6
CONTINUOUS
 62
     7
100
AcDbCircle
 10
615.304683
 20
452.5
 30
0.0
 40
14.0
  0
ARC
  5
19E
100
AcDbEntity
  8
LAY-1
  6
CONTINUOUS
 62
     7
100
AcDbCircle
 10
650.74221
 20
463.138687
 30
0.0
 40
3.0
100
AcDbArc
 50
267.966657
 51
16.710263
  0
LINE
  5
19F
100
AcDbEntity
  8
LAY-1
  6
CONTINUOUS
 62
     7
100
AcDbLine
 10
650.635767
 20
460.140576
 30
0.0
 11
627.763294
 21
460.952627
 31
0.0
  0
ARC
  5
1A0
100
AcDbEntity
  8
LAY-1
  6
CONTINUOUS
 62
     7
100
AcDbCircle
 10
627.869737
 20
463.950738
 30
0.0
 40
3.0
100
AcDbArc
 50
222.343421
 51
267.966657
  0
ARC
  5
1A1
100
AcDbEntity
  8
LAY-1
  6
CONTINUOUS
 62
     7
100
AcDbCircle
 10
650.74221
 20
441.861313
 30
0.0
 40
3.0
100
AcDbArc
 50
343.289737
 51
92.033343
  0
LINE
  5
1A2
100
AcDbEntity
  8
LAY-1
  6
CONTINUOUS
 62
     7
100
AcDbLine
 10
650.635767
 20
444.859424
 30
0.0
 11
627.763294
 21
444.047373
 31
0.0
  0
ARC
  5
1A3
100
AcDbEntity
  8
LAY-1
  6
CONTINUOUS
 62
     7
100
AcDbCircle
 10
627.869737
 20
441.049262
 30
0.0
 40
3.0
100
AcDbArc
 50
92.033343
 51
137.656579
  0
ARC
  5
1A4
100
AcDbEntity
  8
LAY-1
  6
CONTINUOUS
 62
     7
100
AcDbCircle
 10
604.665996
 20
487.937527
 30
0.0
 40
3.0
100
AcDbArc
 50
357.966657
 51
106.710263
  0
LINE
  5
1A5
100
AcDbEntity
  8
LAY-1
  6
CONTINUOUS
 62
     7
100
AcDbLine
 10
607.664107
 20
487.831084
 30
0.0
 11
606.852056
 21
464.958611
 31
0.0
  0
ARC
  5
1A6
100
AcDbEntity
  8
LAY-1
  6
CONTINUOUS
 62
     7
100
AcDbCircle
 10
603.853945
 20
465.065054
 30
0.0
 40
3.0
100
AcDbArc
 50
312.343421
 51
357.966657
  0
ARC
  5
1A7
100
AcDbEntity
  8
LAY-1
  6
CONTINUOUS
 62
     7
100
AcDbCircle
 10
625.94337
 20
487.937527
 30
0.0
 40
3.0
100
AcDbArc
 50
73.289737
 51
182.033343
  0
LINE
  5
1A8
100
AcDbEntity
  8
LAY-1
  6
CONTINUOUS
 62
     7
100
AcDbLine
 10
622.945259
 20
487.831084
 30
0.0
 11
623.75731
 21
464.958611
 31
0.0
  0
ARC
  5
1A9
100
AcDbEntity
  8
LAY-1
  6
CONTINUOUS
 62
     7
100
AcDbCircle
 10
626.755421
 20
465.065054
 30
0.0
 40
3.0
100
AcDbArc
 50
182.033343
 51
227.656579
  0
ARC
  5
1AA
100
AcDbEntity
  8
LAY-1
  6
CONTINUOUS
 62
     7
100
AcDbCircle
 10
579.867156
 20
441.861313
 30
0.0
 40
3.0
100
AcDbArc
 50
87.966657
 51
196.710263
  0
LINE
  5
1AB
100
AcDbEntity
  8
LAY-1
  6
CONTINUOUS
 62
     7
100
AcDbLine
 10
579.973599
 20
444.859424
 30
0.0
 11
602.846072
 21
444.047373
 31
0.0
  0
ARC
  5
1AC
100
AcDbEntity
  8
LAY-1
  6
CONTINUOUS
 62
     7
100
AcDbCircle
 10
602.739628
 20
441.049262
 30
0.0
 40
3.0
100
AcDbArc
 50
42.343421
 51
87.966657
  0
ARC
  5
1AD
100
AcDbEntity
  8
LAY-1
  6
CONTINUOUS
 62
     7
100
AcDbCircle
 10
579.867156
 20
463.138687
 30
0.0
 40
3.0
100
AcDbArc
 50
163.289737
 51
272.033343
  0
LINE
  5
1AE
100
AcDbEntity
  8
LAY-1
  6
CONTINUOUS
 62
     7
100
AcDbLine
 10
579.973599
 20
460.140576
 30
0.0
 11
602.846072
 21
460.952627
 31
0.0
  0
ARC
  5
1AF
100
AcDbEntity
  8
LAY-1
  6
CONTINUOUS
 62
     7
100
AcDbCircle
 10
602.739628
 20
463.950738
 30
0.0
 40
3.0
100
AcDbArc
 50
272.033343
 51
317.656579
  0
ARC
  5
1B0
100
AcDbEntity
  8
LAY-1
  6
CONTINUOUS
 62
     7
100
AcDbCircle
 10
625.94337
 20
417.062473
 30
0.0
 40
3.0
100
AcDbArc
 50
177.966657
 51
286.710263
  0
LINE
  5
1B1
100
AcDbEntity
  8
LAY-1
  6
CONTINUOUS
 62
     7
100
AcDbLine
 10
622.945259
 20
417.168916
 30
0.0
 11
623.75731
 21
440.041389
 31
0.0
  0
ARC
  5
1B2
100
AcDbEntity
  8
LAY-1
  6
CONTINUOUS
 62
     7
100
AcDbCircle
 10
626.755421
 20
439.934946
 30
0.0
 40
3.0
100
AcDbArc
 50
132.343421
 51
177.966657
  0
ARC
  5
1B3
100
AcDbEntity
  8
LAY-1
  6
CONTINUOUS
 62
     7
100
AcDbCircle
 10
604.665996
 20
417.062473
 30
0.0
 40
3.0
100
AcDbArc
 50
253.289737
 51
2.033343
  0
LINE
  5
1B4
100
AcDbEntity
  8
LAY-1
  6
CONTINUOUS
 62
     7
100
AcDbLine
 10
607.664107
 20
417.168916
 30
0.0
 11
606.852056
 21
440.041389
 31
0.0
  0
ARC
  5
1B5
100
AcDbEntity
  8
LAY-1
  6
CONTINUOUS
 62
     7
100
AcDbCircle
 10
603.853945
 20
439.934946
 30
0.0
 40
3.0
100
AcDbArc
 50
2.033343
 51
47.656579
  0
ARC
  5
1B6
100
AcDbEntity
  8
LAY-1
  6
CONTINUOUS
 62
     7
100
AcDbCircle
 10
615.304683
 20
452.5
 30
0.0
 40
48.01354
100
AcDbArc
 50
66.596951
 51
90.0
  0
LINE
  5
1B7
100
AcDbEntity
  8
LAY-1
  6
CONTINUOUS
 62
     7
100
AcDbLine
 10
634.375504
 20
496.563633
 30
0.0
 11
632.704683
 21
498.3
 31
0.0
  0
LINE
  5
1B8
100
AcDbEntity
  8
LAY-1
  6
CONTINUOUS
 62
     7
100
AcDbLine
 10
632.704683
 20
498.3
 30
0.0
 11
633.150571
 21
497.073807
 31
0.0
  0
ARC
  5
1B9
100
AcDbEntity
  8
LAY-1
  6
CONTINUOUS
 62
     7
100
AcDbCircle
 10
615.304683
 20
452.5
 30
0.0
 40
48.01354
100
AcDbArc
 50
90.0
 51
113.403049
  0
LINE
  5
1BA
100
AcDbEntity
  8
LAY-1
  6
CONTINUOUS
 62
     7
100
AcDbLine
 10
596.233862
 20
496.563633
 30
0.0
 11
597.904683
 21
498.3
 31
0.0
  0
LINE
  5
1BB
100
AcDbEntity
  8
LAY-1
  6
CONTINUOUS
 62
     7
100
AcDbLine
 10
597.904683
 20
498.3
 30
0.0
 11
597.458794
 21
497.073807
 31
0.0
  0
POLYLINE
  5
1BC
100
AcDbEntity
  8
LAY-1
  6
CONTINUOUS
 62
     7
100
AcDb2dPolyline
 66
     1
 10
0.0
 20
0.0
 30
0.0
 70
   128
  0
VERTEX
  5
1BD
100
AcDbEntity
  8
LAY-1
  6
CONTINUOUS
 62
     7
100
AcDbVertex
100
AcDb2dVertex
 10
625.119637
 20
452.5
 30
0.0
  0
VERTEX
  5
1BE
100
AcDbEntity
  8
LAY-1
  6
CONTINUOUS
 62
     7
100
AcDbVertex
100
AcDb2dVertex
 10
620.21216
 20
461.0
 30
0.0
  0
VERTEX
  5
1BF
100
AcDbEntity
  8
LAY-1
  6
CONTINUOUS
 62
     7
100
AcDbVertex
100
AcDb2dVertex
 10
610.397206
 20
461.0
 30
0.0
  0
VERTEX
  5
1C0
100
AcDbEntity
  8
LAY-1
  6
CONTINUOUS
 62
     7
100
AcDbVertex
100
AcDb2dVertex
 10
605.489728
 20
452.5
 30
0.0
  0
VERTEX
  5
1C1
100
AcDbEntity
  8
LAY-1
  6
CONTINUOUS
 62
     7
100
AcDbVertex
100
AcDb2dVertex
 10
610.397206
 20
444.0
 30
0.0
  0
VERTEX
  5
1C2
100
AcDbEntity
  8
LAY-1
  6
CONTINUOUS
 62
     7
100
AcDbVertex
100
AcDb2dVertex
 10
620.21216
 20
444.0
 30
0.0
  0
VERTEX
  5
1C3
100
AcDbEntity
  8
LAY-1
  6
CONTINUOUS
 62
     7
100
AcDbVertex
100
AcDb2dVertex
 10
625.119637
 20
452.5
 30
0.0
  0
SEQEND
  5
1C4
100
AcDbEntity
  8
LAY-1
  6
CONTINUOUS
 62
     7
  0
CIRCLE
  5
1C5
100
AcDbEntity
  8
LAY-1
  6
CONTINUOUS
 62
     7
100
AcDbCircle
 10
615.304683
 20
452.5
 30
0.0
 40
8.5
  0
CIRCLE
  5
1C6
100
AcDbEntity
  8
LAY-1
  6
CONTINUOUS
 62
     7
100
AcDbCircle
 10
615.304683
 20
452.5
 30
0.0
 40
7.0
  0
ARC
  5
1C7
100
AcDbEntity
  8
LAY-1
  6
CONTINUOUS
 62
     7
100
AcDbCircle
 10
615.304683
 20
493.5
 30
0.0
 40
88.5
100
AcDbArc
 50
233.198861
 51
239.400006
  0
ARC
  5
1C8
100
AcDbEntity
  8
LAY-1
  6
CONTINUOUS
 62
     7
100
AcDbCircle
 10
615.304683
 20
411.5
 30
0.0
 40
88.5
100
AcDbArc
 50
120.599994
 51
126.801139
  0
ARC
  5
1C9
100
AcDbEntity
  8
LAY-1
  6
CONTINUOUS
 62
     7
100
AcDbCircle
 10
615.304683
 20
411.5
 30
0.0
 40
88.5
100
AcDbArc
 50
53.198861
 51
59.400006
  0
ARC
  5
1CA
100
AcDbEntity
  8
LAY-1
  6
CONTINUOUS
 62
     7
100
AcDbCircle
 10
615.304683
 20
493.5
 30
0.0
 40
88.5
100
AcDbArc
 50
300.599994
 51
306.801139
  0
ARC
  5
1CB
100
AcDbEntity
  8
LAY-1
  6
CONTINUOUS
 62
     7
100
AcDbCircle
 10
541.304683
 20
720.054683
 30
0.0
 40
2.0
100
AcDbArc
 50
270.0
 51
0.0
  0
LINE
  5
1CC
100
AcDbEntity
  8
LAY-1
  6
CONTINUOUS
 62
     7
100
AcDbLine
 10
541.304683
 20
718.054683
 30
0.0
 11
527.304683
 21
718.054683
 31
0.0
  0
LINE
  5
1CD
100
AcDbEntity
  8
LAY-1
  6
CONTINUOUS
 62
     7
100
AcDbLine
 10
553.7111
 20
759.843074
 30
0.0
 11
550.716492
 21
759.040671
 31
0.0
  0
ARC
  5
1CE
100
AcDbEntity
  8
LAY-1
  6
CONTINUOUS
 62
     7
100
AcDbCircle
 10
615.304683
 20
829.054683
 30
0.0
 40
88.5
100
AcDbArc
 50
233.198861
 51
243.6122
  0
ARC
  5
1CF
100
AcDbEntity
  8
LAY-1
  6
CONTINUOUS
 62
     7
100
AcDbCircle
 10
615.304683
 20
747.054683
 30
0.0
 40
88.5
100
AcDbArc
 50
90.0
 51
126.801139
  0
LINE
  5
1D0
100
AcDbEntity
  8
LAY-1
  6
CONTINUOUS
 62
     7
100
AcDbLine
 10
553.7111
 20
816.266292
 30
0.0
 11
550.716492
 21
817.068694
 31
0.0
  0
LINE
  5
1D1
100
AcDbEntity
  8
LAY-1
  6
CONTINUOUS
 62
     7
100
AcDbLine
 10
541.304683
 20
858.054683
 30
0.0
 11
527.304683
 21
858.054683
 31
0.0
  0
ARC
  5
1D2
100
AcDbEntity
  8
LAY-1
  6
CONTINUOUS
 62
     7
100
AcDbCircle
 10
541.304683
 20
856.054683
 30
0.0
 40
2.0
100
AcDbArc
 50
0.0
 51
90.0
  0
ARC
  5
1D3
100
AcDbEntity
  8
LAY-1
  6
CONTINUOUS
 62
     7
100
AcDbCircle
 10
553.304683
 20
826.727953
 30
0.0
 40
10.0
100
AcDbArc
 50
180.0
 51
255.0
  0
ARC
  5
1D4
100
AcDbEntity
  8
LAY-1
  6
CONTINUOUS
 62
     7
100
AcDbCircle
 10
556.299291
 20
825.92555
 30
0.0
 40
10.0
100
AcDbArc
 50
255.0
 51
306.801139
  0
ARC
  5
1D5
100
AcDbEntity
  8
LAY-1
  6
CONTINUOUS
 62
     7
100
AcDbCircle
 10
553.304683
 20
749.381413
 30
0.0
 40
10.0
100
AcDbArc
 50
105.0
 51
180.0
  0
ARC
  5
1D6
100
AcDbEntity
  8
LAY-1
  6
CONTINUOUS
 62
     7
100
AcDbCircle
 10
556.299291
 20
750.183816
 30
0.0
 40
10.0
100
AcDbArc
 50
53.198861
 51
105.0
  0
LINE
  5
1D7
100
AcDbEntity
  8
LAY-1
  6
CONTINUOUS
 62
     7
100
AcDbLine
 10
568.304683
 20
723.054683
 30
0.0
 11
568.304683
 21
736.054683
 31
0.0
  0
LINE
  5
1D8
100
AcDbEntity
  8
LAY-1
  6
CONTINUOUS
 62
     7
100
AcDbLine
 10
579.304683
 20
742.054683
 30
0.0
 11
579.304683
 21
744.400976
 31
0.0
  0
ARC
  5
1D9
100
AcDbEntity
  8
LAY-1
  6
CONTINUOUS
 62
     7
100
AcDbCircle
 10
573.304683
 20
744.400976
 30
0.0
 40
6.0
100
AcDbArc
 50
0.0
 51
63.6122
  0
ARC
  5
1DA
100
AcDbEntity
  8
LAY-1
  6
CONTINUOUS
 62
     7
100
AcDbCircle
 10
575.304683
 20
742.054683
 30
0.0
 40
4.0
100
AcDbArc
 50
270.0
 51
0.0
  0
ARC
  5
1DB
100
AcDbEntity
  8
LAY-1
  6
CONTINUOUS
 62
     7
100
AcDbCircle
 10
570.304683
 20
736.054683
 30
0.0
 40
2.0
100
AcDbArc
 50
90.0
 51
180.0
  0
ARC
  5
1DC
100
AcDbEntity
  8
LAY-1
  6
CONTINUOUS
 62
     7
100
AcDbCircle
 10
689.304683
 20
720.054683
 30
0.0
 40
2.0
100
AcDbArc
 50
180.0
 51
270.0
  0
LINE
  5
1DD
100
AcDbEntity
  8
LAY-1
  6
CONTINUOUS
 62
     7
100
AcDbLine
 10
689.304683
 20
718.054683
 30
0.0
 11
703.304683
 21
718.054683
 31
0.0
  0
LINE
  5
1DE
100
AcDbEntity
  8
LAY-1
  6
CONTINUOUS
 62
     7
100
AcDbLine
 10
676.898266
 20
759.843074
 30
0.0
 11
679.892873
 21
759.040671
 31
0.0
  0
ARC
  5
1DF
100
AcDbEntity
  8
LAY-1
  6
CONTINUOUS
 62
     7
100
AcDbCircle
 10
615.304683
 20
829.054683
 30
0.0
 40
88.5
100
AcDbArc
 50
296.3878
 51
306.801139
  0
ARC
  5
1E0
100
AcDbEntity
  8
LAY-1
  6
CONTINUOUS
 62
     7
100
AcDbCircle
 10
615.304683
 20
747.054683
 30
0.0
 40
88.5
100
AcDbArc
 50
53.198861
 51
90.0
  0
LINE
  5
1E1
100
AcDbEntity
  8
LAY-1
  6
CONTINUOUS
 62
     7
100
AcDbLine
 10
676.898266
 20
816.266292
 30
0.0
 11
679.892873
 21
817.068694
 31
0.0
  0
LINE
  5
1E2
100
AcDbEntity
  8
LAY-1
  6
CONTINUOUS
 62
     7
100
AcDbLine
 10
689.304683
 20
858.054683
 30
0.0
 11
703.304683
 21
858.054683
 31
0.0
  0
ARC
  5
1E3
100
AcDbEntity
  8
LAY-1
  6
CONTINUOUS
 62
     7
100
AcDbCircle
 10
689.304683
 20
856.054683
 30
0.0
 40
2.0
100
AcDbArc
 50
90.0
 51
180.0
  0
ARC
  5
1E4
100
AcDbEntity
  8
LAY-1
  6
CONTINUOUS
 62
     7
100
AcDbCircle
 10
677.304683
 20
826.727953
 30
0.0
 40
10.0
100
AcDbArc
 50
285.0
 51
0.0
  0
ARC
  5
1E5
100
AcDbEntity
  8
LAY-1
  6
CONTINUOUS
 62
     7
100
AcDbCircle
 10
674.310075
 20
825.92555
 30
0.0
 40
10.0
100
AcDbArc
 50
233.198861
 51
285.0
  0
ARC
  5
1E6
100
AcDbEntity
  8
LAY-1
  6
CONTINUOUS
 62
     7
100
AcDbCircle
 10
677.304683
 20
749.381413
 30
0.0
 40
10.0
100
AcDbArc
 50
0.0
 51
75.0
  0
ARC
  5
1E7
100
AcDbEntity
  8
LAY-1
  6
CONTINUOUS
 62
     7
100
AcDbCircle
 10
674.310075
 20
750.183816
 30
0.0
 40
10.0
100
AcDbArc
 50
75.0
 51
126.801139
  0
LINE
  5
1E8
100
AcDbEntity
  8
LAY-1
  6
CONTINUOUS
 62
     7
100
AcDbLine
 10
662.304683
 20
723.054683
 30
0.0
 11
662.304683
 21
736.054683
 31
0.0
  0
LINE
  5
1E9
100
AcDbEntity
  8
LAY-1
  6
CONTINUOUS
 62
     7
100
AcDbLine
 10
651.304683
 20
742.054683
 30
0.0
 11
651.304683
 21
744.400976
 31
0.0
  0
ARC
  5
1EA
100
AcDbEntity
  8
LAY-1
  6
CONTINUOUS
 62
     7
100
AcDbCircle
 10
657.304683
 20
744.400976
 30
0.0
 40
6.0
100
AcDbArc
 50
116.3878
 51
180.0
  0
ARC
  5
1EB
100
AcDbEntity
  8
LAY-1
  6
CONTINUOUS
 62
     7
100
AcDbCircle
 10
655.304683
 20
742.054683
 30
0.0
 40
4.0
100
AcDbArc
 50
180.0
 51
270.0
  0
ARC
  5
1EC
100
AcDbEntity
  8
LAY-1
  6
CONTINUOUS
 62
     7
100
AcDbCircle
 10
660.304683
 20
736.054683
 30
0.0
 40
2.0
100
AcDbArc
 50
0.0
 51
90.0
  0
ARC
  5
1ED
100
AcDbEntity
  8
LAY-1
  6
CONTINUOUS
 62
     7
100
AcDbCircle
 10
570.304683
 20
709.054683
 30
0.0
 40
2.0
100
AcDbArc
 50
180.0
 51
270.0
  0
LINE
  5
1EE
100
AcDbEntity
  8
LAY-1
  6
CONTINUOUS
 62
     7
100
AcDbLine
 10
579.804683
 20
722.054683
 30
0.0
 11
579.804683
 21
723.054683
 31
0.0
  0
LINE
  5
1EF
100
AcDbEntity
  8
LAY-1
  6
CONTINUOUS
 62
     7
100
AcDbLine
 10
568.304683
 20
722.054683
 30
0.0
 11
568.304683
 21
709.054683
 31
0.0
  0
LINE
  5
1F0
100
AcDbEntity
  8
LAY-1
  6
CONTINUOUS
 62
     7
100
AcDbLine
 10
615.304683
 20
634.286734
 30
0.0
 11
607.804683
 21
634.286734
 31
0.0
  0
LINE
  5
1F1
100
AcDbEntity
  8
LAY-1
  6
CONTINUOUS
 62
     7
100
AcDbLine
 10
608.804683
 20
632.554683
 30
0.0
 11
607.804683
 21
634.286734
 31
0.0
  0
LINE
  5
1F2
100
AcDbEntity
  8
LAY-1
  6
CONTINUOUS
 62
     7
100
AcDbLine
 10
615.304683
 20
632.554683
 30
0.0
 11
602.304683
 21
632.554683
 31
0.0
  0
LINE
  5
1F3
100
AcDbEntity
  8
LAY-1
  6
CONTINUOUS
 62
     7
100
AcDbLine
 10
615.304683
 20
643.054683
 30
0.0
 11
607.804683
 21
643.054683
 31
0.0
  0
LINE
  5
1F4
100
AcDbEntity
  8
LAY-1
  6
CONTINUOUS
 62
     7
100
AcDbLine
 10
596.304683
 20
645.054683
 30
0.0
 11
594.804683
 21
645.920708
 31
0.0
  0
LINE
  5
1F5
100
AcDbEntity
  8
LAY-1
  6
CONTINUOUS
 62
     7
100
AcDbLine
 10
594.804683
 20
645.920708
 30
0.0
 11
594.804683
 21
653.054683
 31
0.0
  0
ARC
  5
1F6
100
AcDbEntity
  8
LAY-1
  6
CONTINUOUS
 62
     7
100
AcDbCircle
 10
598.384685
 20
632.350683
 30
0.0
 40
3.0
100
AcDbArc
 50
277.992734
 51
348.521514
  0
ARC
  5
1F7
100
AcDbEntity
  8
LAY-1
  6
CONTINUOUS
 62
     7
100
AcDbCircle
 10
564.304683
 20
614.554683
 30
0.0
 40
9.0
100
AcDbArc
 50
90.0
 51
270.0
  0
ARC
  5
1F8
100
AcDbEntity
  8
LAY-1
  6
CONTINUOUS
 62
     7
100
AcDbCircle
 10
602.304683
 20
631.554683
 30
0.0
 40
1.0
100
AcDbArc
 50
90.0
 51
168.521514
  0
ARC
  5
1F9
100
AcDbEntity
  8
LAY-1
  6
CONTINUOUS
 62
     7
100
AcDbCircle
 10
660.304683
 20
709.054683
 30
0.0
 40
2.0
100
AcDbArc
 50
270.0
 51
0.0
  0
LINE
  5
1FA
100
AcDbEntity
  8
LAY-1
  6
CONTINUOUS
 62
     7
100
AcDbLine
 10
650.804683
 20
722.054683
 30
0.0
 11
650.804683
 21
723.054683
 31
0.0
  0
LINE
  5
1FB
100
AcDbEntity
  8
LAY-1
  6
CONTINUOUS
 62
     7
100
AcDbLine
 10
662.304683
 20
722.054683
 30
0.0
 11
662.304683
 21
709.054683
 31
0.0
  0
LINE
  5
1FC
100
AcDbEntity
  8
LAY-1
  6
CONTINUOUS
 62
     7
100
AcDbLine
 10
615.304683
 20
634.286734
 30
0.0
 11
622.804683
 21
634.286734
 31
0.0
  0
LINE
  5
1FD
100
AcDbEntity
  8
LAY-1
  6
CONTINUOUS
 62
     7
100
AcDbLine
 10
621.804683
 20
632.554683
 30
0.0
 11
622.804683
 21
634.286734
 31
0.0
  0
LINE
  5
1FE
100
AcDbEntity
  8
LAY-1
  6
CONTINUOUS
 62
     7
100
AcDbLine
 10
615.304683
 20
632.554683
 30
0.0
 11
628.304683
 21
632.554683
 31
0.0
  0
LINE
  5
1FF
100
AcDbEntity
  8
LAY-1
  6
CONTINUOUS
 62
     7
100
AcDbLine
 10
615.304683
 20
643.054683
 30
0.0
 11
622.804683
 21
643.054683
 31
0.0
  0
LINE
  5
200
100
AcDbEntity
  8
LAY-1
  6
CONTINUOUS
 62
     7
100
AcDbLine
 10
634.304683
 20
645.054683
 30
0.0
 11
635.804683
 21
645.920708
 31
0.0
  0
LINE
  5
201
100
AcDbEntity
  8
LAY-1
  6
CONTINUOUS
 62
     7
100
AcDbLine
 10
635.804683
 20
645.920708
 30
0.0
 11
635.804683
 21
653.054683
 31
0.0
  0
ARC
  5
202
100
AcDbEntity
  8
LAY-1
  6
CONTINUOUS
 62
     7
100
AcDbCircle
 10
632.224681
 20
632.350683
 30
0.0
 40
3.0
100
AcDbArc
 50
191.478486
 51
262.007266
  0
ARC
  5
203
100
AcDbEntity
  8
LAY-1
  6
CONTINUOUS
 62
     7
100
AcDbCircle
 10
666.304683
 20
614.554683
 30
0.0
 40
9.0
100
AcDbArc
 50
270.0
 51
90.0
  0
ARC
  5
204
100
AcDbEntity
  8
LAY-1
  6
CONTINUOUS
 62
     7
100
AcDbCircle
 10
628.304683
 20
631.554683
 30
0.0
 40
1.0
100
AcDbArc
 50
11.478486
 51
90.0
  0
ARC
  5
205
100
AcDbEntity
  8
LAY-1
  6
CONTINUOUS
 62
     7
100
AcDbCircle
 10
705.304683
 20
745.554683
 30
0.0
 40
2.0
100
AcDbArc
 50
90.0
 51
180.0
  0
LINE
  5
206
100
AcDbEntity
  8
LAY-1
  6
CONTINUOUS
 62
     7
100
AcDbLine
 10
705.304683
 20
747.554683
 30
0.0
 11
705.304683
 21
788.054683
 31
0.0
  0
ARC
  5
207
100
AcDbEntity
  8
LAY-1
  6
CONTINUOUS
 62
     7
100
AcDbCircle
 10
705.304683
 20
830.554683
 30
0.0
 40
2.0
100
AcDbArc
 50
180.0
 51
270.0
  0
LINE
  5
208
100
AcDbEntity
  8
LAY-1
  6
CONTINUOUS
 62
     7
100
AcDbLine
 10
705.304683
 20
828.554683
 30
0.0
 11
705.304683
 21
788.054683
 31
0.0
  0
ARC
  5
209
100
AcDbEntity
  8
LAY-1
  6
CONTINUOUS
 62
     7
100
AcDbCircle
 10
525.304683
 20
745.554683
 30
0.0
 40
2.0
100
AcDbArc
 50
0.0
 51
90.0
  0
ARC
  5
20A
100
AcDbEntity
  8
LAY-1
  6
CONTINUOUS
 62
     7
100
AcDbCircle
 10
525.304683
 20
830.554683
 30
0.0
 40
2.0
100
AcDbArc
 50
270.0
 51
0.0
  0
LINE
  5
20B
100
AcDbEntity
  8
LAY-1
  6
CONTINUOUS
 62
     7
100
AcDbLine
 10
525.304683
 20
747.554683
 30
0.0
 11
525.304683
 21
788.054683
 31
0.0
  0
LINE
  5
20C
100
AcDbEntity
  8
LAY-1
  6
CONTINUOUS
 62
     7
100
AcDbLine
 10
525.304683
 20
828.554683
 30
0.0
 11
525.304683
 21
788.054683
 31
0.0
  0
LINE
  5
20D
100
AcDbEntity
  8
LAY-1
  6
CONTINUOUS
 62
     7
100
AcDbLine
 10
615.304683
 20
655.054683
 30
0.0
 11
635.804683
 21
655.054683
 31
0.0
  0
LINE
  5
20E
100
AcDbEntity
  8
LAY-1
  6
CONTINUOUS
 62
     7
100
AcDbLine
 10
615.304683
 20
655.054683
 30
0.0
 11
594.804683
 21
655.054683
 31
0.0
  0
LINE
  5
20F
100
AcDbEntity
  8
LAY-1
  6
CONTINUOUS
 62
     7
100
AcDbLine
 10
597.804683
 20
655.054683
 30
0.0
 11
597.804683
 21
653.054683
 31
0.0
  0
LINE
  5
210
100
AcDbEntity
  8
LAY-1
  6
CONTINUOUS
 62
     7
100
AcDbLine
 10
632.804683
 20
655.054683
 30
0.0
 11
632.804683
 21
653.054683
 31
0.0
  0
LINE
  5
211
100
AcDbEntity
  8
LAY-1
  6
CONTINUOUS
 62
     7
100
AcDbLine
 10
622.804683
 20
634.286734
 30
0.0
 11
622.804683
 21
645.054683
 31
0.0
  0
LINE
  5
212
100
AcDbEntity
  8
LAY-1
  6
CONTINUOUS
 62
     7
100
AcDbLine
 10
615.304683
 20
645.054683
 30
0.0
 11
634.304683
 21
645.054683
 31
0.0
  0
LINE
  5
213
100
AcDbEntity
  8
LAY-1
  6
CONTINUOUS
 62
     7
100
AcDbLine
 10
615.304683
 20
645.054683
 30
0.0
 11
596.304683
 21
645.054683
 31
0.0
  0
LINE
  5
214
100
AcDbEntity
  8
LAY-1
  6
CONTINUOUS
 62
     7
100
AcDbLine
 10
607.804683
 20
634.286734
 30
0.0
 11
607.804683
 21
645.054683
 31
0.0
  0
LINE
  5
215
100
AcDbEntity
  8
LAY-1
  6
CONTINUOUS
 62
     7
100
AcDbLine
 10
635.804683
 20
653.054683
 30
0.0
 11
615.304683
 21
653.054683
 31
0.0
  0
LINE
  5
216
100
AcDbEntity
  8
LAY-1
  6
CONTINUOUS
 62
     7
100
AcDbLine
 10
594.804683
 20
653.054683
 30
0.0
 11
615.304683
 21
653.054683
 31
0.0
  0
LINE
  5
217
100
AcDbEntity
  8
LAY-1
  6
CONTINUOUS
 62
     7
100
AcDbLine
 10
687.304683
 20
788.054683
 30
0.0
 11
687.304683
 21
720.054683
 31
0.0
  0
LINE
  5
218
100
AcDbEntity
  8
LAY-1
  6
CONTINUOUS
 62
     7
100
AcDbLine
 10
703.304683
 20
718.054683
 30
0.0
 11
703.304683
 21
788.054683
 31
0.0
  0
LINE
  5
219
100
AcDbEntity
  8
LAY-1
  6
CONTINUOUS
 62
     7
100
AcDbLine
 10
703.304683
 20
858.054683
 30
0.0
 11
703.304683
 21
788.054683
 31
0.0
  0
LINE
  5
21A
100
AcDbEntity
  8
LAY-1
  6
CONTINUOUS
 62
     7
100
AcDbLine
 10
687.304683
 20
788.054683
 30
0.0
 11
687.304683
 21
856.054683
 31
0.0
  0
LINE
  5
21B
100
AcDbEntity
  8
LAY-1
  6
CONTINUOUS
 62
     7
100
AcDbLine
 10
543.304683
 20
788.054683
 30
0.0
 11
543.304683
 21
856.054683
 31
0.0
  0
LINE
  5
21C
100
AcDbEntity
  8
LAY-1
  6
CONTINUOUS
 62
     7
100
AcDbLine
 10
543.304683
 20
788.054683
 30
0.0
 11
543.304683
 21
720.054683
 31
0.0
  0
LINE
  5
21D
100
AcDbEntity
  8
LAY-1
  6
CONTINUOUS
 62
     7
100
AcDbLine
 10
527.304683
 20
858.054683
 30
0.0
 11
527.304683
 21
788.054683
 31
0.0
  0
LINE
  5
21E
100
AcDbEntity
  8
LAY-1
  6
CONTINUOUS
 62
     7
100
AcDbLine
 10
527.304683
 20
718.054683
 30
0.0
 11
527.304683
 21
788.054683
 31
0.0
  0
LINE
  5
21F
100
AcDbEntity
  8
LAY-1
  6
CONTINUOUS
 62
     7
100
AcDbLine
 10
615.304683
 20
738.054683
 30
0.0
 11
570.304683
 21
738.054683
 31
0.0
  0
LINE
  5
220
100
AcDbEntity
  8
LAY-1
  6
CONTINUOUS
 62
     7
100
AcDbLine
 10
660.304683
 20
738.054683
 30
0.0
 11
615.304683
 21
738.054683
 31
0.0
  0
LINE
  5
221
100
AcDbEntity
  8
LAY-1
  6
CONTINUOUS
 62
     7
100
AcDbLine
 10
615.304683
 20
723.054683
 30
0.0
 11
568.304683
 21
723.054683
 31
0.0
  0
LINE
  5
222
100
AcDbEntity
  8
LAY-1
  6
CONTINUOUS
 62
     7
100
AcDbLine
 10
615.304683
 20
723.054683
 30
0.0
 11
662.304683
 21
723.054683
 31
0.0
  0
LINE
  5
223
100
AcDbEntity
  8
LAY-1
  6
CONTINUOUS
 62
     7
100
AcDbLine
 10
615.304683
 20
722.054683
 30
0.0
 11
568.304683
 21
722.054683
 31
0.0
  0
LINE
  5
224
100
AcDbEntity
  8
LAY-1
  6
CONTINUOUS
 62
     7
100
AcDbLine
 10
615.304683
 20
722.054683
 30
0.0
 11
662.304683
 21
722.054683
 31
0.0
  0
LINE
  5
225
100
AcDbEntity
  8
LAY-1
  6
CONTINUOUS
 62
     7
100
AcDbLine
 10
615.304683
 20
707.054683
 30
0.0
 11
570.304683
 21
707.054683
 31
0.0
  0
LINE
  5
226
100
AcDbEntity
  8
LAY-1
  6
CONTINUOUS
 62
     7
100
AcDbLine
 10
615.304683
 20
707.054683
 30
0.0
 11
660.304683
 21
707.054683
 31
0.0
  0
LINE
  5
227
100
AcDbEntity
  8
LAY-1
  6
CONTINUOUS
 62
     7
100
AcDbLine
 10
626.204683
 20
653.054683
 30
0.0
 11
626.204683
 21
645.920708
 31
0.0
  0
LINE
  5
228
100
AcDbEntity
  8
LAY-1
  6
CONTINUOUS
 62
     7
100
AcDbLine
 10
604.404683
 20
653.054683
 30
0.0
 11
604.404683
 21
645.920708
 31
0.0
  0
ARC
  5
229
100
AcDbEntity
  8
LAY-1
  6
CONTINUOUS
 62
     7
100
AcDbCircle
 10
631.004683
 20
658.789846
 30
0.0
 40
13.735163
100
AcDbArc
 50
249.545221
 51
290.454779
  0
ARC
  5
22A
100
AcDbEntity
  8
LAY-1
  6
CONTINUOUS
 62
     7
100
AcDbCircle
 10
615.304683
 20
714.082681
 30
0.0
 40
69.027998
100
AcDbArc
 50
260.914572
 51
279.085428
  0
ARC
  5
22B
100
AcDbEntity
  8
LAY-1
  6
CONTINUOUS
 62
     7
100
AcDbCircle
 10
599.604683
 20
658.789846
 30
0.0
 40
13.735163
100
AcDbArc
 50
249.545221
 51
290.454779
  0
LINE
  5
22C
100
AcDbEntity
  8
LAY-1
  6
CONTINUOUS
 62
     7
100
AcDbLine
 10
640.585274
 20
697.054683
 30
0.0
 11
640.585274
 21
695.054683
 31
0.0
  0
LINE
  5
22D
100
AcDbEntity
  8
LAY-1
  6
CONTINUOUS
 62
     7
100
AcDbLine
 10
650.835274
 20
695.054683
 30
0.0
 11
650.835274
 21
697.054683
 31
0.0
  0
LINE
  5
22E
100
AcDbEntity
  8
LAY-1
  6
CONTINUOUS
 62
     7
100
AcDbLine
 10
639.710274
 20
695.929683
 30
0.0
 11
651.710274
 21
695.929683
 31
0.0
  0
LINE
  5
22F
100
AcDbEntity
  8
LAY-1
  6
CONTINUOUS
 62
     7
100
AcDbLine
 10
651.710274
 20
695.929683
 30
0.0
 11
651.710274
 21
697.054683
 31
0.0
  0
LINE
  5
230
100
AcDbEntity
  8
LAY-1
  6
CONTINUOUS
 62
     7
100
AcDbLine
 10
650.835274
 20
695.054683
 30
0.0
 11
651.710274
 21
695.929683
 31
0.0
  0
LINE
  5
231
100
AcDbEntity
  8
LAY-1
  6
CONTINUOUS
 62
     7
100
AcDbLine
 10
651.772452
 20
707.054683
 30
0.0
 11
651.772452
 21
697.992505
 31
0.0
  0
LINE
  5
232
100
AcDbEntity
  8
LAY-1
  6
CONTINUOUS
 62
     7
100
AcDbLine
 10
639.648097
 20
697.992505
 30
0.0
 11
639.648097
 21
707.054683
 31
0.0
  0
ARC
  5
233
100
AcDbEntity
  8
LAY-1
  6
CONTINUOUS
 62
     7
100
AcDbCircle
 10
636.617008
 20
702.421911
 30
0.0
 40
5.367228
100
AcDbArc
 50
235.615753
 51
304.384247
  0
LINE
  5
234
100
AcDbEntity
  8
LAY-1
  6
CONTINUOUS
 62
     7
100
AcDbLine
 10
657.83463
 20
697.992505
 30
0.0
 11
657.83463
 21
707.054683
 31
0.0
  0
LINE
  5
235
100
AcDbEntity
  8
LAY-1
  6
CONTINUOUS
 62
     7
100
AcDbLine
 10
656.210274
 20
697.054683
 30
0.0
 11
657.83463
 21
697.992505
 31
0.0
  0
LINE
  5
236
100
AcDbEntity
  8
LAY-1
  6
CONTINUOUS
 62
     7
100
AcDbLine
 10
635.210274
 20
697.054683
 30
0.0
 11
656.210274
 21
697.054683
 31
0.0
  0
LINE
  5
237
100
AcDbEntity
  8
LAY-1
  6
CONTINUOUS
 62
     7
100
AcDbLine
 10
633.585919
 20
697.992505
 30
0.0
 11
635.210274
 21
697.054683
 31
0.0
  0
LINE
  5
238
100
AcDbEntity
  8
LAY-1
  6
CONTINUOUS
 62
     7
100
AcDbLine
 10
640.585274
 20
695.054683
 30
0.0
 11
650.835274
 21
695.054683
 31
0.0
  0
LINE
  5
239
100
AcDbEntity
  8
LAY-1
  6
CONTINUOUS
 62
     7
100
AcDbLine
 10
639.710274
 20
697.054683
 30
0.0
 11
639.710274
 21
695.929683
 31
0.0
  0
LINE
  5
23A
100
AcDbEntity
  8
LAY-1
  6
CONTINUOUS
 62
     7
100
AcDbLine
 10
639.710274
 20
695.929683
 30
0.0
 11
640.585274
 21
695.054683
 31
0.0
  0
ARC
  5
23B
100
AcDbEntity
  8
LAY-1
  6
CONTINUOUS
 62
     7
100
AcDbCircle
 10
654.803541
 20
702.421911
 30
0.0
 40
5.367228
100
AcDbArc
 50
235.615753
 51
304.384247
  0
ARC
  5
23C
100
AcDbEntity
  8
LAY-1
  6
CONTINUOUS
 62
     7
100
AcDbCircle
 10
645.710274
 20
717.116861
 30
0.0
 40
20.062178
100
AcDbArc
 50
252.412046
 51
287.587954
  0
LINE
  5
23D
100
AcDbEntity
  8
LAY-1
  6
CONTINUOUS
 62
     7
100
AcDbLine
 10
633.585919
 20
707.054683
 30
0.0
 11
633.585919
 21
697.992505
 31
0.0
  0
LINE
  5
23E
100
AcDbEntity
  8
LAY-1
  6
CONTINUOUS
 62
     7
100
AcDbLine
 10
590.024091
 20
697.054683
 30
0.0
 11
590.024091
 21
695.054683
 31
0.0
  0
LINE
  5
23F
100
AcDbEntity
  8
LAY-1
  6
CONTINUOUS
 62
     7
100
AcDbLine
 10
579.774091
 20
695.054683
 30
0.0
 11
579.774091
 21
697.054683
 31
0.0
  0
LINE
  5
240
100
AcDbEntity
  8
LAY-1
  6
CONTINUOUS
 62
     7
100
AcDbLine
 10
590.899091
 20
695.929683
 30
0.0
 11
578.899091
 21
695.929683
 31
0.0
  0
LINE
  5
241
100
AcDbEntity
  8
LAY-1
  6
CONTINUOUS
 62
     7
100
AcDbLine
 10
578.899091
 20
695.929683
 30
0.0
 11
578.899091
 21
697.054683
 31
0.0
  0
LINE
  5
242
100
AcDbEntity
  8
LAY-1
  6
CONTINUOUS
 62
     7
100
AcDbLine
 10
579.774091
 20
695.054683
 30
0.0
 11
578.899091
 21
695.929683
 31
0.0
  0
LINE
  5
243
100
AcDbEntity
  8
LAY-1
  6
CONTINUOUS
 62
     7
100
AcDbLine
 10
578.836913
 20
707.054683
 30
0.0
 11
578.836913
 21
697.992505
 31
0.0
  0
LINE
  5
244
100
AcDbEntity
  8
LAY-1
  6
CONTINUOUS
 62
     7
100
AcDbLine
 10
590.961269
 20
697.992505
 30
0.0
 11
590.961269
 21
707.054683
 31
0.0
  0
ARC
  5
245
100
AcDbEntity
  8
LAY-1
  6
CONTINUOUS
 62
     7
100
AcDbCircle
 10
593.992358
 20
702.421911
 30
0.0
 40
5.367228
100
AcDbArc
 50
235.615753
 51
304.384247
  0
LINE
  5
246
100
AcDbEntity
  8
LAY-1
  6
CONTINUOUS
 62
     7
100
AcDbLine
 10
572.774736
 20
697.992505
 30
0.0
 11
572.774736
 21
707.054683
 31
0.0
  0
LINE
  5
247
100
AcDbEntity
  8
LAY-1
  6
CONTINUOUS
 62
     7
100
AcDbLine
 10
574.399091
 20
697.054683
 30
0.0
 11
572.774736
 21
697.992505
 31
0.0
  0
LINE
  5
248
100
AcDbEntity
  8
LAY-1
  6
CONTINUOUS
 62
     7
100
AcDbLine
 10
595.399091
 20
697.054683
 30
0.0
 11
574.399091
 21
697.054683
 31
0.0
  0
LINE
  5
249
100
AcDbEntity
  8
LAY-1
  6
CONTINUOUS
 62
     7
100
AcDbLine
 10
597.023447
 20
697.992505
 30
0.0
 11
595.399091
 21
697.054683
 31
0.0
  0
LINE
  5
24A
100
AcDbEntity
  8
LAY-1
  6
CONTINUOUS
 62
     7
100
AcDbLine
 10
590.024091
 20
695.054683
 30
0.0
 11
579.774091
 21
695.054683
 31
0.0
  0
LINE
  5
24B
100
AcDbEntity
  8
LAY-1
  6
CONTINUOUS
 62
     7
100
AcDbLine
 10
590.899091
 20
697.054683
 30
0.0
 11
590.899091
 21
695.929683
 31
0.0
  0
LINE
  5
24C
100
AcDbEntity
  8
LAY-1
  6
CONTINUOUS
 62
     7
100
AcDbLine
 10
590.899091
 20
695.929683
 30
0.0
 11
590.024091
 21
695.054683
 31
0.0
  0
ARC
  5
24D
100
AcDbEntity
  8
LAY-1
  6
CONTINUOUS
 62
     7
100
AcDbCircle
 10
575.805825
 20
702.421911
 30
0.0
 40
5.367228
100
AcDbArc
 50
235.615753
 51
304.384247
  0
ARC
  5
24E
100
AcDbEntity
  8
LAY-1
  6
CONTINUOUS
 62
     7
100
AcDbCircle
 10
584.899091
 20
717.116861
 30
0.0
 40
20.062178
100
AcDbArc
 50
252.412046
 51
287.587954
  0
LINE
  5
24F
100
AcDbEntity
  8
LAY-1
  6
CONTINUOUS
 62
     7
100
AcDbLine
 10
597.023447
 20
707.054683
 30
0.0
 11
597.023447
 21
697.992505
 31
0.0
  0
LINE
  5
250
100
AcDbEntity
  8
LAY-1
  6
CONTINUOUS
 62
     7
100
AcDbLine
 10
666.304683
 20
623.554683
 30
0.0
 11
615.304683
 21
623.554683
 31
0.0
  0
LINE
  5
251
100
AcDbEntity
  8
LAY-1
  6
CONTINUOUS
 62
     7
100
AcDbLine
 10
564.304683
 20
623.554683
 30
0.0
 11
615.304683
 21
623.554683
 31
0.0
  0
ARC
  5
252
100
AcDbEntity
  8
LAY-1
  6
CONTINUOUS
 62
     7
100
AcDbCircle
 10
629.304683
 20
611.554683
 30
0.0
 40
18.0
100
AcDbArc
 50
41.810315
 51
82.007266
  0
ARC
  5
253
100
AcDbEntity
  8
LAY-1
  6
CONTINUOUS
 62
     7
100
AcDbCircle
 10
601.304683
 20
611.554683
 30
0.0
 40
18.0
100
AcDbArc
 50
97.992734
 51
138.189685
  0
LINE
  5
254
100
AcDbEntity
  8
LAY-1
  6
CONTINUOUS
 62
     7
100
AcDbLine
 10
615.304683
 20
605.554683
 30
0.0
 11
666.304683
 21
605.554683
 31
0.0
  0
LINE
  5
255
100
AcDbEntity
  8
LAY-1
  6
CONTINUOUS
 62
     7
100
AcDbLine
 10
615.304683
 20
605.554683
 30
0.0
 11
564.304683
 21
605.554683
 31
0.0
  0
ARC
  5
256
100
AcDbEntity
  8
LAY-1
  6
CONTINUOUS
 62
     7
100
AcDbCircle
 10
615.304683
 20
607.654683
 30
0.0
 40
7.0
100
AcDbArc
 50
270.0
 51
342.542397
  0
ARC
  5
257
100
AcDbEntity
  8
LAY-1
  6
CONTINUOUS
 62
     7
100
AcDbCircle
 10
615.304683
 20
607.654683
 30
0.0
 40
7.0
100
AcDbArc
 50
197.457603
 51
270.0
  0
ARC
  5
258
100
AcDbEntity
  8
LAY-1
  6
CONTINUOUS
 62
     7
100
AcDbCircle
 10
615.33101
 20
788.113413
 30
0.0
 40
13.0
100
AcDbArc
 50
291.8992
 51
90.116033
  0
ARC
  5
259
100
AcDbEntity
  8
LAY-1
  6
CONTINUOUS
 62
     7
100
AcDbCircle
 10
612.054683
 20
788.054683
 30
0.0
 40
13.0
100
AcDbArc
 50
308.682187
 51
63.410036
  0
ARC
  5
25A
100
AcDbEntity
  8
LAY-1
  6
CONTINUOUS
 62
     7
100
AcDbCircle
 10
618.554683
 20
788.054683
 30
0.0
 40
13.0
100
AcDbArc
 50
120.0
 51
243.667843
  0
ARC
  5
25B
100
AcDbEntity
  8
LAY-1
  6
CONTINUOUS
 62
     7
100
AcDbCircle
 10
615.304683
 20
781.554683
 30
0.0
 40
5.7325
100
AcDbArc
 50
243.963089
 51
286.467501
  0
ARC
  5
25C
100
AcDbEntity
  8
LAY-1
  6
CONTINUOUS
 62
     7
100
AcDbCircle
 10
615.304683
 20
794.554683
 30
0.0
 40
5.7325
100
AcDbArc
 50
63.378454
 51
90.0
  0
LINE
  5
25D
100
AcDbEntity
  8
LAY-1
  6
CONTINUOUS
 62
     7
100
AcDbLine
 10
621.804683
 20
773.429683
 30
0.0
 11
616.929683
 21
775.212085
 31
0.0
  0
LINE
  5
25E
100
AcDbEntity
  8
LAY-1
  6
CONTINUOUS
 62
     7
100
AcDbLine
 10
621.804683
 20
773.429683
 30
0.0
 11
620.179683
 21
776.051474
 31
0.0
  0
LINE
  5
25F
100
AcDbEntity
  8
LAY-1
  6
CONTINUOUS
 62
     7
100
AcDbLine
 10
620.179683
 20
777.906561
 30
0.0
 11
620.179683
 21
784.804683
 31
0.0
  0
LINE
  5
260
100
AcDbEntity
  8
LAY-1
  6
CONTINUOUS
 62
     7
100
AcDbLine
 10
620.179683
 20
784.804683
 30
0.0
 11
621.804683
 21
784.804683
 31
0.0
  0
LINE
  5
261
100
AcDbEntity
  8
LAY-1
  6
CONTINUOUS
 62
     7
100
AcDbLine
 10
621.804683
 20
784.804683
 30
0.0
 11
621.804683
 21
783.721349
 31
0.0
  0
LINE
  5
262
100
AcDbEntity
  8
LAY-1
  6
CONTINUOUS
 62
     7
100
AcDbLine
 10
616.929683
 20
776.057326
 30
0.0
 11
616.929683
 21
784.804683
 31
0.0
  0
LINE
  5
263
100
AcDbEntity
  8
LAY-1
  6
CONTINUOUS
 62
     7
100
AcDbLine
 10
616.929683
 20
784.804683
 30
0.0
 11
608.804683
 21
784.804683
 31
0.0
  0
LINE
  5
264
100
AcDbEntity
  8
LAY-1
  6
CONTINUOUS
 62
     7
100
AcDbLine
 10
608.804683
 20
784.804683
 30
0.0
 11
608.804683
 21
783.721349
 31
0.0
  0
LINE
  5
265
100
AcDbEntity
  8
LAY-1
  6
CONTINUOUS
 62
     7
100
AcDbLine
 10
607.721349
 20
788.054683
 30
0.0
 11
612.054683
 21
788.054683
 31
0.0
  0
LINE
  5
266
100
AcDbEntity
  8
LAY-1
  6
CONTINUOUS
 62
     7
100
AcDbLine
 10
612.054683
 20
788.054683
 30
0.0
 11
612.054683
 21
799.313013
 31
0.0
  0
LINE
  5
267
100
AcDbEntity
  8
LAY-1
  6
CONTINUOUS
 62
     7
100
AcDbLine
 10
624.742323
 20
789.679683
 30
0.0
 11
622.888016
 21
788.054683
 31
0.0
  0
LINE
  5
268
100
AcDbEntity
  8
LAY-1
  6
CONTINUOUS
 62
     7
100
AcDbLine
 10
620.179683
 20
788.054683
 30
0.0
 11
622.888016
 21
788.054683
 31
0.0
  0
ARC
  5
269
100
AcDbEntity
  8
LAY-1
  6
CONTINUOUS
 62
     7
100
AcDbCircle
 10
615.33101
 20
788.113413
 30
0.0
 40
13.0
100
AcDbArc
 50
104.597383
 51
277.06382
  0
LINE
  5
26A
100
AcDbEntity
  8
LAY-1
  6
CONTINUOUS
 62
     7
100
AcDbLine
 10
621.804683
 20
783.721349
 30
0.0
 11
624.742323
 21
789.679683
 31
0.0
  0
LINE
  5
26B
100
AcDbEntity
  8
LAY-1
  6
CONTINUOUS
 62
     7
100
AcDbLine
 10
608.804683
 20
783.721349
 30
0.0
 11
605.887259
 21
789.679683
 31
0.0
  0
LINE
  5
26C
100
AcDbEntity
  8
LAY-1
  6
CONTINUOUS
 62
     7
100
AcDbLine
 10
605.887259
 20
789.679683
 30
0.0
 11
607.721349
 21
788.054683
 31
0.0
  0
LINE
  5
26D
100
AcDbEntity
  8
LAY-1
  6
CONTINUOUS
 62
     7
100
AcDbLine
 10
612.054683
 20
800.693781
 30
0.0
 11
612.054683
 21
801.867183
 31
0.0
  0
LINE
  5
26E
100
AcDbEntity
  8
LAY-1
  6
CONTINUOUS
 62
     7
100
AcDbLine
 10
620.179683
 20
792.117183
 30
0.0
 11
620.179683
 21
788.054683
 31
0.0
  0
LINE
  5
26F
100
AcDbEntity
  8
LAY-1
  6
CONTINUOUS
 62
     7
100
AcDbLine
 10
612.054683
 20
801.867183
 30
0.0
 11
610.429683
 21
802.679683
 31
0.0
  0
LINE
  5
270
100
AcDbEntity
  8
LAY-1
  6
CONTINUOUS
 62
     7
100
AcDbLine
 10
621.804683
 20
792.929683
 30
0.0
 11
620.179683
 21
792.117183
 31
0.0
  0
LINE
  5
271
100
AcDbEntity
  8
LAY-1
  6
CONTINUOUS
 62
     7
100
AcDbLine
 10
616.929683
 20
802.679683
 30
0.0
 11
615.304683
 21
801.867183
 31
0.0
  0
LINE
  5
272
100
AcDbEntity
  8
LAY-1
  6
CONTINUOUS
 62
     7
100
AcDbLine
 10
616.929683
 20
792.117183
 30
0.0
 11
615.304683
 21
792.929683
 31
0.0
  0
LINE
  5
273
100
AcDbEntity
  8
LAY-1
  6
CONTINUOUS
 62
     7
100
AcDbLine
 10
615.304683
 20
800.287183
 30
0.0
 11
615.304683
 21
788.054683
 31
0.0
  0
LINE
  5
274
100
AcDbEntity
  8
LAY-1
  6
CONTINUOUS
 62
     7
100
AcDbLine
 10
616.929683
 20
788.054683
 30
0.0
 11
616.929683
 21
792.117183
 31
0.0
  0
LINE
  5
275
100
AcDbEntity
  8
LAY-1
  6
CONTINUOUS
 62
     7
100
AcDbLine
 10
615.304683
 20
792.929683
 30
0.0
 11
621.804683
 21
792.929683
 31
0.0
  0
LINE
  5
276
100
AcDbEntity
  8
LAY-1
  6
CONTINUOUS
 62
     7
100
AcDbLine
 10
615.304683
 20
801.867183
 30
0.0
 11
615.304683
 21
801.113386
 31
0.0
  0
LINE
  5
277
100
AcDbEntity
  8
LAY-1
  6
CONTINUOUS
 62
     7
100
AcDbLine
 10
615.304683
 20
788.054683
 30
0.0
 11
616.929683
 21
788.054683
 31
0.0
  0
LINE
  5
278
100
AcDbEntity
  8
LAY-1
  6
CONTINUOUS
 62
     7
100
AcDbLine
 10
610.429683
 20
802.679683
 30
0.0
 11
616.929683
 21
802.679683
 31
0.0
  0
CIRCLE
  5
279
100
AcDbEntity
  8
LAY-1
  6
CONTINUOUS
 62
     7
100
AcDbCircle
 10
226.265678
 20
489.623106
 30
0.0
 40
9.5
  0
CIRCLE
  5
27A
100
AcDbEntity
  8
LAY-1
  6
CONTINUOUS
 62
     7
100
AcDbCircle
 10
300.51189
 20
489.623106
 30
0.0
 40
9.5
  0
CIRCLE
  5
27B
100
AcDbEntity
  8
LAY-1
  6
CONTINUOUS
 62
     7
100
AcDbCircle
 10
263.388784
 20
452.5
 30
0.0
 40
40.5
  0
CIRCLE
  5
27C
100
AcDbEntity
  8
LAY-1
  6
CONTINUOUS
 62
     7
100
AcDbCircle
 10
263.388784
 20
452.5
 30
0.0
 40
70.0
  0
CIRCLE
  5
27D
100
AcDbEntity
  8
LAY-1
  6
CONTINUOUS
 62
     7
100
AcDbCircle
 10
300.51189
 20
415.376894
 30
0.0
 40
9.5
  0
CIRCLE
  5
27E
100
AcDbEntity
  8
LAY-1
  6
CONTINUOUS
 62
     7
100
AcDbCircle
 10
226.265678
 20
415.376894
 30
0.0
 40
9.5
  0
CIRCLE
  5
27F
100
AcDbEntity
  8
LAY-1
  6
CONTINUOUS
 62
     7
100
AcDbCircle
 10
263.388784
 20
452.5
 30
0.0
 40
20.0
  0
LINE
  5
280
100
AcDbEntity
  8
LAY-1
  6
CONTINUOUS
 62
     7
100
AcDbLine
 10
328.388784
 20
405.5
 30
0.0
 11
315.388784
 21
405.5
 31
0.0
  0
LINE
  5
281
100
AcDbEntity
  8
LAY-1
  6
CONTINUOUS
 62
     7
100
AcDbLine
 10
328.388784
 20
499.5
 30
0.0
 11
315.388784
 21
499.5
 31
0.0
  0
ARC
  5
282
100
AcDbEntity
  8
LAY-1
  6
CONTINUOUS
 62
     7
100
AcDbCircle
 10
342.388784
 20
407.5
 30
0.0
 40
2.0
100
AcDbArc
 50
270.0
 51
0.0
  0
LINE
  5
283
100
AcDbEntity
  8
LAY-1
  6
CONTINUOUS
 62
     7
100
AcDbLine
 10
329.388784
 20
417.0
 30
0.0
 11
328.388784
 21
417.0
 31
0.0
  0
LINE
  5
284
100
AcDbEntity
  8
LAY-1
  6
CONTINUOUS
 62
     7
100
AcDbLine
 10
329.388784
 20
405.5
 30
0.0
 11
342.388784
 21
405.5
 31
0.0
  0
LINE
  5
285
100
AcDbEntity
  8
LAY-1
  6
CONTINUOUS
 62
     7
100
AcDbLine
 10
417.156733
 20
452.5
 30
0.0
 11
417.156733
 21
445.0
 31
0.0
  0
LINE
  5
286
100
AcDbEntity
  8
LAY-1
  6
CONTINUOUS
 62
     7
100
AcDbLine
 10
418.888784
 20
446.0
 30
0.0
 11
417.156733
 21
445.0
 31
0.0
  0
LINE
  5
287
100
AcDbEntity
  8
LAY-1
  6
CONTINUOUS
 62
     7
100
AcDbLine
 10
418.888784
 20
452.5
 30
0.0
 11
418.888784
 21
439.5
 31
0.0
  0
LINE
  5
288
100
AcDbEntity
  8
LAY-1
  6
CONTINUOUS
 62
     7
100
AcDbLine
 10
408.388784
 20
452.5
 30
0.0
 11
408.388784
 21
445.0
 31
0.0
  0
LINE
  5
289
100
AcDbEntity
  8
LAY-1
  6
CONTINUOUS
 62
     7
100
AcDbLine
 10
406.388784
 20
433.5
 30
0.0
 11
405.522759
 21
432.0
 31
0.0
  0
LINE
  5
28A
100
AcDbEntity
  8
LAY-1
  6
CONTINUOUS
 62
     7
100
AcDbLine
 10
405.522759
 20
432.0
 30
0.0
 11
398.388784
 21
432.0
 31
0.0
  0
ARC
  5
28B
100
AcDbEntity
  8
LAY-1
  6
CONTINUOUS
 62
     7
100
AcDbCircle
 10
419.092784
 20
435.580002
 30
0.0
 40
3.0
100
AcDbArc
 50
7.992734
 51
78.521514
  0
ARC
  5
28C
100
AcDbEntity
  8
LAY-1
  6
CONTINUOUS
 62
     7
100
AcDbCircle
 10
436.888784
 20
401.5
 30
0.0
 40
9.0
100
AcDbArc
 50
180.0
 51
0.0
  0
ARC
  5
28D
100
AcDbEntity
  8
LAY-1
  6
CONTINUOUS
 62
     7
100
AcDbCircle
 10
419.888784
 20
439.5
 30
0.0
 40
1.0
100
AcDbArc
 50
180.0
 51
258.521514
  0
ARC
  5
28E
100
AcDbEntity
  8
LAY-1
  6
CONTINUOUS
 62
     7
100
AcDbCircle
 10
342.388784
 20
497.5
 30
0.0
 40
2.0
100
AcDbArc
 50
0.0
 51
90.0
  0
LINE
  5
28F
100
AcDbEntity
  8
LAY-1
  6
CONTINUOUS
 62
     7
100
AcDbLine
 10
329.388784
 20
488.0
 30
0.0
 11
328.388784
 21
488.0
 31
0.0
  0
LINE
  5
290
100
AcDbEntity
  8
LAY-1
  6
CONTINUOUS
 62
     7
100
AcDbLine
 10
329.388784
 20
499.5
 30
0.0
 11
342.388784
 21
499.5
 31
0.0
  0
LINE
  5
291
100
AcDbEntity
  8
LAY-1
  6
CONTINUOUS
 62
     7
100
AcDbLine
 10
417.156733
 20
452.5
 30
0.0
 11
417.156733
 21
460.0
 31
0.0
  0
LINE
  5
292
100
AcDbEntity
  8
LAY-1
  6
CONTINUOUS
 62
     7
100
AcDbLine
 10
418.888784
 20
459.0
 30
0.0
 11
417.156733
 21
460.0
 31
0.0
  0
LINE
  5
293
100
AcDbEntity
  8
LAY-1
  6
CONTINUOUS
 62
     7
100
AcDbLine
 10
418.888784
 20
452.5
 30
0.0
 11
418.888784
 21
465.5
 31
0.0
  0
LINE
  5
294
100
AcDbEntity
  8
LAY-1
  6
CONTINUOUS
 62
     7
100
AcDbLine
 10
408.388784
 20
452.5
 30
0.0
 11
408.388784
 21
460.0
 31
0.0
  0
LINE
  5
295
100
AcDbEntity
  8
LAY-1
  6
CONTINUOUS
 62
     7
100
AcDbLine
 10
406.388784
 20
471.5
 30
0.0
 11
405.522759
 21
473.0
 31
0.0
  0
LINE
  5
296
100
AcDbEntity
  8
LAY-1
  6
CONTINUOUS
 62
     7
100
AcDbLine
 10
405.522759
 20
473.0
 30
0.0
 11
398.388784
 21
473.0
 31
0.0
  0
ARC
  5
297
100
AcDbEntity
  8
LAY-1
  6
CONTINUOUS
 62
     7
100
AcDbCircle
 10
419.092784
 20
469.419998
 30
0.0
 40
3.0
100
AcDbArc
 50
281.478486
 51
352.007266
  0
ARC
  5
298
100
AcDbEntity
  8
LAY-1
  6
CONTINUOUS
 62
     7
100
AcDbCircle
 10
436.888784
 20
503.5
 30
0.0
 40
9.0
100
AcDbArc
 50
0.0
 51
180.0
  0
ARC
  5
299
100
AcDbEntity
  8
LAY-1
  6
CONTINUOUS
 62
     7
100
AcDbCircle
 10
419.888784
 20
465.5
 30
0.0
 40
1.0
100
AcDbArc
 50
101.478486
 51
180.0
  0
LINE
  5
29A
100
AcDbEntity
  8
LAY-1
  6
CONTINUOUS
 62
     7
100
AcDbLine
 10
396.388784
 20
452.5
 30
0.0
 11
396.388784
 21
473.0
 31
0.0
  0
LINE
  5
29B
100
AcDbEntity
  8
LAY-1
  6
CONTINUOUS
 62
     7
100
AcDbLine
 10
396.388784
 20
452.5
 30
0.0
 11
396.388784
 21
432.0
 31
0.0
  0
LINE
  5
29C
100
AcDbEntity
  8
LAY-1
  6
CONTINUOUS
 62
     7
100
AcDbLine
 10
396.388784
 20
435.0
 30
0.0
 11
398.388784
 21
435.0
 31
0.0
  0
LINE
  5
29D
100
AcDbEntity
  8
LAY-1
  6
CONTINUOUS
 62
     7
100
AcDbLine
 10
396.388784
 20
470.0
 30
0.0
 11
398.388784
 21
470.0
 31
0.0
  0
LINE
  5
29E
100
AcDbEntity
  8
LAY-1
  6
CONTINUOUS
 62
     7
100
AcDbLine
 10
417.156733
 20
460.0
 30
0.0
 11
406.388784
 21
460.0
 31
0.0
  0
LINE
  5
29F
100
AcDbEntity
  8
LAY-1
  6
CONTINUOUS
 62
     7
100
AcDbLine
 10
406.388784
 20
452.5
 30
0.0
 11
406.388784
 21
471.5
 31
0.0
  0
LINE
  5
2A0
100
AcDbEntity
  8
LAY-1
  6
CONTINUOUS
 62
     7
100
AcDbLine
 10
406.388784
 20
452.5
 30
0.0
 11
406.388784
 21
433.5
 31
0.0
  0
LINE
  5
2A1
100
AcDbEntity
  8
LAY-1
  6
CONTINUOUS
 62
     7
100
AcDbLine
 10
417.156733
 20
445.0
 30
0.0
 11
406.388784
 21
445.0
 31
0.0
  0
LINE
  5
2A2
100
AcDbEntity
  8
LAY-1
  6
CONTINUOUS
 62
     7
100
AcDbLine
 10
398.388784
 20
473.0
 30
0.0
 11
398.388784
 21
452.5
 31
0.0
  0
LINE
  5
2A3
100
AcDbEntity
  8
LAY-1
  6
CONTINUOUS
 62
     7
100
AcDbLine
 10
398.388784
 20
432.0
 30
0.0
 11
398.388784
 21
452.5
 31
0.0
  0
LINE
  5
2A4
100
AcDbEntity
  8
LAY-1
  6
CONTINUOUS
 62
     7
100
AcDbLine
 10
344.388784
 20
452.5
 30
0.0
 11
344.388784
 21
407.5
 31
0.0
  0
LINE
  5
2A5
100
AcDbEntity
  8
LAY-1
  6
CONTINUOUS
 62
     7
100
AcDbLine
 10
344.388784
 20
452.5
 30
0.0
 11
344.388784
 21
497.5
 31
0.0
  0
LINE
  5
2A6
100
AcDbEntity
  8
LAY-1
  6
CONTINUOUS
 62
     7
100
AcDbLine
 10
398.388784
 20
463.4
 30
0.0
 11
405.522759
 21
463.4
 31
0.0
  0
LINE
  5
2A7
100
AcDbEntity
  8
LAY-1
  6
CONTINUOUS
 62
     7
100
AcDbLine
 10
398.388784
 20
441.6
 30
0.0
 11
405.522759
 21
441.6
 31
0.0
  0
ARC
  5
2A8
100
AcDbEntity
  8
LAY-1
  6
CONTINUOUS
 62
     7
100
AcDbCircle
 10
392.653621
 20
468.2
 30
0.0
 40
13.735163
100
AcDbArc
 50
339.545221
 51
20.454779
  0
ARC
  5
2A9
100
AcDbEntity
  8
LAY-1
  6
CONTINUOUS
 62
     7
100
AcDbCircle
 10
337.360786
 20
452.5
 30
0.0
 40
69.027998
100
AcDbArc
 50
350.914572
 51
9.085428
  0
ARC
  5
2AA
100
AcDbEntity
  8
LAY-1
  6
CONTINUOUS
 62
     7
100
AcDbCircle
 10
392.653621
 20
436.8
 30
0.0
 40
13.735163
100
AcDbArc
 50
339.545221
 51
20.454779
  0
LINE
  5
2AB
100
AcDbEntity
  8
LAY-1
  6
CONTINUOUS
 62
     7
100
AcDbLine
 10
354.388784
 20
477.780592
 30
0.0
 11
356.388784
 21
477.780592
 31
0.0
  0
LINE
  5
2AC
100
AcDbEntity
  8
LAY-1
  6
CONTINUOUS
 62
     7
100
AcDbLine
 10
356.388784
 20
488.030592
 30
0.0
 11
354.388784
 21
488.030592
 31
0.0
  0
LINE
  5
2AD
100
AcDbEntity
  8
LAY-1
  6
CONTINUOUS
 62
     7
100
AcDbLine
 10
355.513784
 20
476.905592
 30
0.0
 11
355.513784
 21
488.905592
 31
0.0
  0
LINE
  5
2AE
100
AcDbEntity
  8
LAY-1
  6
CONTINUOUS
 62
     7
100
AcDbLine
 10
355.513784
 20
488.905592
 30
0.0
 11
354.388784
 21
488.905592
 31
0.0
  0
LINE
  5
2AF
100
AcDbEntity
  8
LAY-1
  6
CONTINUOUS
 62
     7
100
AcDbLine
 10
356.388784
 20
488.030592
 30
0.0
 11
355.513784
 21
488.905592
 31
0.0
  0
LINE
  5
2B0
100
AcDbEntity
  8
LAY-1
  6
CONTINUOUS
 62
     7
100
AcDbLine
 10
344.388784
 20
488.967769
 30
0.0
 11
353.450962
 21
488.967769
 31
0.0
  0
LINE
  5
2B1
100
AcDbEntity
  8
LAY-1
  6
CONTINUOUS
 62
     7
100
AcDbLine
 10
353.450962
 20
476.843414
 30
0.0
 11
344.388784
 21
476.843414
 31
0.0
  0
ARC
  5
2B2
100
AcDbEntity
  8
LAY-1
  6
CONTINUOUS
 62
     7
100
AcDbCircle
 10
349.021556
 20
473.812325
 30
0.0
 40
5.367228
100
AcDbArc
 50
325.615753
 51
34.384247
  0
LINE
  5
2B3
100
AcDbEntity
  8
LAY-1
  6
CONTINUOUS
 62
     7
100
AcDbLine
 10
353.450962
 20
495.029947
 30
0.0
 11
344.388784
 21
495.029947
 31
0.0
  0
LINE
  5
2B4
100
AcDbEntity
  8
LAY-1
  6
CONTINUOUS
 62
     7
100
AcDbLine
 10
354.388784
 20
493.405592
 30
0.0
 11
353.450962
 21
495.029947
 31
0.0
  0
LINE
  5
2B5
100
AcDbEntity
  8
LAY-1
  6
CONTINUOUS
 62
     7
100
AcDbLine
 10
354.388784
 20
472.405592
 30
0.0
 11
354.388784
 21
493.405592
 31
0.0
  0
LINE
  5
2B6
100
AcDbEntity
  8
LAY-1
  6
CONTINUOUS
 62
     7
100
AcDbLine
 10
353.450962
 20
470.781236
 30
0.0
 11
354.388784
 21
472.405592
 31
0.0
  0
LINE
  5
2B7
100
AcDbEntity
  8
LAY-1
  6
CONTINUOUS
 62
     7
100
AcDbLine
 10
356.388784
 20
477.780592
 30
0.0
 11
356.388784
 21
488.030592
 31
0.0
  0
LINE
  5
2B8
100
AcDbEntity
  8
LAY-1
  6
CONTINUOUS
 62
     7
100
AcDbLine
 10
354.388784
 20
476.905592
 30
0.0
 11
355.513784
 21
476.905592
 31
0.0
  0
LINE
  5
2B9
100
AcDbEntity
  8
LAY-1
  6
CONTINUOUS
 62
     7
100
AcDbLine
 10
355.513784
 20
476.905592
 30
0.0
 11
356.388784
 21
477.780592
 31
0.0
  0
ARC
  5
2BA
100
AcDbEntity
  8
LAY-1
  6
CONTINUOUS
 62
     7
100
AcDbCircle
 10
349.021556
 20
491.998858
 30
0.0
 40
5.367228
100
AcDbArc
 50
325.615753
 51
34.384247
  0
ARC
  5
2BB
100
AcDbEntity
  8
LAY-1
  6
CONTINUOUS
 62
     7
100
AcDbCircle
 10
334.326606
 20
482.905592
 30
0.0
 40
20.062178
100
AcDbArc
 50
342.412046
 51
17.587954
  0
LINE
  5
2BC
100
AcDbEntity
  8
LAY-1
  6
CONTINUOUS
 62
     7
100
AcDbLine
 10
344.388784
 20
470.781236
 30
0.0
 11
353.450962
 21
470.781236
 31
0.0
  0
LINE
  5
2BD
100
AcDbEntity
  8
LAY-1
  6
CONTINUOUS
 62
     7
100
AcDbLine
 10
354.388784
 20
427.219408
 30
0.0
 11
356.388784
 21
427.219408
 31
0.0
  0
LINE
  5
2BE
100
AcDbEntity
  8
LAY-1
  6
CONTINUOUS
 62
     7
100
AcDbLine
 10
356.388784
 20
416.969408
 30
0.0
 11
354.388784
 21
416.969408
 31
0.0
  0
LINE
  5
2BF
100
AcDbEntity
  8
LAY-1
  6
CONTINUOUS
 62
     7
100
AcDbLine
 10
355.513784
 20
428.094408
 30
0.0
 11
355.513784
 21
416.094408
 31
0.0
  0
LINE
  5
2C0
100
AcDbEntity
  8
LAY-1
  6
CONTINUOUS
 62
     7
100
AcDbLine
 10
355.513784
 20
416.094408
 30
0.0
 11
354.388784
 21
416.094408
 31
0.0
  0
LINE
  5
2C1
100
AcDbEntity
  8
LAY-1
  6
CONTINUOUS
 62
     7
100
AcDbLine
 10
356.388784
 20
416.969408
 30
0.0
 11
355.513784
 21
416.094408
 31
0.0
  0
LINE
  5
2C2
100
AcDbEntity
  8
LAY-1
  6
CONTINUOUS
 62
     7
100
AcDbLine
 10
344.388784
 20
416.032231
 30
0.0
 11
353.450962
 21
416.032231
 31
0.0
  0
LINE
  5
2C3
100
AcDbEntity
  8
LAY-1
  6
CONTINUOUS
 62
     7
100
AcDbLine
 10
353.450962
 20
428.156586
 30
0.0
 11
344.388784
 21
428.156586
 31
0.0
  0
ARC
  5
2C4
100
AcDbEntity
  8
LAY-1
  6
CONTINUOUS
 62
     7
100
AcDbCircle
 10
349.021556
 20
431.187675
 30
0.0
 40
5.367228
100
AcDbArc
 50
325.615753
 51
34.384247
  0
LINE
  5
2C5
100
AcDbEntity
  8
LAY-1
  6
CONTINUOUS
 62
     7
100
AcDbLine
 10
353.450962
 20
409.970053
 30
0.0
 11
344.388784
 21
409.970053
 31
0.0
  0
LINE
  5
2C6
100
AcDbEntity
  8
LAY-1
  6
CONTINUOUS
 62
     7
100
AcDbLine
 10
354.388784
 20
411.594408
 30
0.0
 11
353.450962
 21
409.970053
 31
0.0
  0
LINE
  5
2C7
100
AcDbEntity
  8
LAY-1
  6
CONTINUOUS
 62
     7
100
AcDbLine
 10
354.388784
 20
432.594408
 30
0.0
 11
354.388784
 21
411.594408
 31
0.0
  0
LINE
  5
2C8
100
AcDbEntity
  8
LAY-1
  6
CONTINUOUS
 62
     7
100
AcDbLine
 10
353.450962
 20
434.218764
 30
0.0
 11
354.388784
 21
432.594408
 31
0.0
  0
LINE
  5
2C9
100
AcDbEntity
  8
LAY-1
  6
CONTINUOUS
 62
     7
100
AcDbLine
 10
356.388784
 20
427.219408
 30
0.0
 11
356.388784
 21
416.969408
 31
0.0
  0
LINE
  5
2CA
100
AcDbEntity
  8
LAY-1
  6
CONTINUOUS
 62
     7
100
AcDbLine
 10
354.388784
 20
428.094408
 30
0.0
 11
355.513784
 21
428.094408
 31
0.0
  0
LINE
  5
2CB
100
AcDbEntity
  8
LAY-1
  6
CONTINUOUS
 62
     7
100
AcDbLine
 10
355.513784
 20
428.094408
 30
0.0
 11
356.388784
 21
427.219408
 31
0.0
  0
ARC
  5
2CC
100
AcDbEntity
  8
LAY-1
  6
CONTINUOUS
 62
     7
100
AcDbCircle
 10
349.021556
 20
413.001142
 30
0.0
 40
5.367228
100
AcDbArc
 50
325.615753
 51
34.384247
  0
ARC
  5
2CD
100
AcDbEntity
  8
LAY-1
  6
CONTINUOUS
 62
     7
100
AcDbCircle
 10
334.326606
 20
422.094408
 30
0.0
 40
20.062178
100
AcDbArc
 50
342.412046
 51
17.587954
  0
LINE
  5
2CE
100
AcDbEntity
  8
LAY-1
  6
CONTINUOUS
 62
     7
100
AcDbLine
 10
344.388784
 20
434.218764
 30
0.0
 11
353.450962
 21
434.218764
 31
0.0
  0
LINE
  5
2CF
100
AcDbEntity
  8
LAY-1
  6
CONTINUOUS
 62
     7
100
AcDbLine
 10
427.888784
 20
503.5
 30
0.0
 11
427.888784
 21
452.5
 31
0.0
  0
LINE
  5
2D0
100
AcDbEntity
  8
LAY-1
  6
CONTINUOUS
 62
     7
100
AcDbLine
 10
427.888784
 20
401.5
 30
0.0
 11
427.888784
 21
452.5
 31
0.0
  0
ARC
  5
2D1
100
AcDbEntity
  8
LAY-1
  6
CONTINUOUS
 62
     7
100
AcDbCircle
 10
439.888784
 20
466.5
 30
0.0
 40
18.0
100
AcDbArc
 50
131.810315
 51
172.007266
  0
ARC
  5
2D2
100
AcDbEntity
  8
LAY-1
  6
CONTINUOUS
 62
     7
100
AcDbCircle
 10
439.888784
 20
438.5
 30
0.0
 40
18.0
100
AcDbArc
 50
187.992734
 51
228.189685
  0
LINE
  5
2D3
100
AcDbEntity
  8
LAY-1
  6
CONTINUOUS
 62
     7
100
AcDbLine
 10
445.888784
 20
452.5
 30
0.0
 11
445.888784
 21
503.5
 31
0.0
  0
LINE
  5
2D4
100
AcDbEntity
  8
LAY-1
  6
CONTINUOUS
 62
     7
100
AcDbLine
 10
445.888784
 20
452.5
 30
0.0
 11
445.888784
 21
401.5
 31
0.0
  0
ARC
  5
2D5
100
AcDbEntity
  8
LAY-1
  6
CONTINUOUS
 62
     7
100
AcDbCircle
 10
443.788784
 20
452.5
 30
0.0
 40
7.0
100
AcDbArc
 50
0.0
 51
72.542397
  0
ARC
  5
2D6
100
AcDbEntity
  8
LAY-1
  6
CONTINUOUS
 62
     7
100
AcDbCircle
 10
443.788784
 20
452.5
 30
0.0
 40
7.0
100
AcDbArc
 50
287.457603
 51
0.0
  0
LINE
  5
2D7
100
AcDbEntity
  8
LAY-1
  6
CONTINUOUS
 62
     7
100
AcDbLine
 10
329.388784
 20
475.823808
 30
0.0
 11
329.388784
 21
499.5
 31
0.0
  0
LINE
  5
2D8
100
AcDbEntity
  8
LAY-1
  6
CONTINUOUS
 62
     7
100
AcDbLine
 10
328.388784
 20
478.480762
 30
0.0
 11
328.388784
 21
499.5
 31
0.0
  0
ARC
  5
2D9
100
AcDbEntity
  8
LAY-1
  6
CONTINUOUS
 62
     7
100
AcDbCircle
 10
315.388784
 20
497.5
 30
0.0
 40
2.0
100
AcDbArc
 50
90.0
 51
93.491132
  0
ARC
  5
2DA
100
AcDbEntity
  8
LAY-1
  6
CONTINUOUS
 62
     7
100
AcDbCircle
 10
315.388784
 20
407.5
 30
0.0
 40
2.0
100
AcDbArc
 50
266.508868
 51
270.0
  0
LINE
  5
2DB
100
AcDbEntity
  8
LAY-1
  6
CONTINUOUS
 62
     7
100
AcDbLine
 10
329.388784
 20
429.176192
 30
0.0
 11
329.388784
 21
405.5
 31
0.0
  0
LINE
  5
2DC
100
AcDbEntity
  8
LAY-1
  6
CONTINUOUS
 62
     7
100
AcDbLine
 10
328.388784
 20
426.519238
 30
0.0
 11
328.388784
 21
405.5
 31
0.0
  0
CIRCLE
  5
2DD
100
AcDbEntity
  8
LAY-1
  6
CONTINUOUS
 62
     7
100
AcDbCircle
 10
1004.343688
 20
489.623106
 30
0.0
 40
9.5
  0
CIRCLE
  5
2DE
100
AcDbEntity
  8
LAY-1
  6
CONTINUOUS
 62
     7
100
AcDbCircle
 10
930.097476
 20
489.623106
 30
0.0
 40
9.5
  0
CIRCLE
  5
2DF
100
AcDbEntity
  8
LAY-1
  6
CONTINUOUS
 62
     7
100
AcDbCircle
 10
967.220582
 20
452.5
 30
0.0
 40
40.5
  0
CIRCLE
  5
2E0
100
AcDbEntity
  8
LAY-1
  6
CONTINUOUS
 62
     7
100
AcDbCircle
 10
967.220582
 20
452.5
 30
0.0
 40
70.0
  0
CIRCLE
  5
2E1
100
AcDbEntity
  8
LAY-1
  6
CONTINUOUS
 62
     7
100
AcDbCircle
 10
930.097476
 20
415.376894
 30
0.0
 40
9.5
  0
CIRCLE
  5
2E2
100
AcDbEntity
  8
LAY-1
  6
CONTINUOUS
 62
     7
100
AcDbCircle
 10
1004.343688
 20
415.376894
 30
0.0
 40
9.5
  0
CIRCLE
  5
2E3
100
AcDbEntity
  8
LAY-1
  6
CONTINUOUS
 62
     7
100
AcDbCircle
 10
967.220582
 20
452.5
 30
0.0
 40
20.0
  0
LINE
  5
2E4
100
AcDbEntity
  8
LAY-1
  6
CONTINUOUS
 62
     7
100
AcDbLine
 10
902.220582
 20
405.5
 30
0.0
 11
915.220582
 21
405.5
 31
0.0
  0
LINE
  5
2E5
100
AcDbEntity
  8
LAY-1
  6
CONTINUOUS
 62
     7
100
AcDbLine
 10
902.220582
 20
499.5
 30
0.0
 11
915.220582
 21
499.5
 31
0.0
  0
ARC
  5
2E6
100
AcDbEntity
  8
LAY-1
  6
CONTINUOUS
 62
     7
100
AcDbCircle
 10
888.220582
 20
407.5
 30
0.0
 40
2.0
100
AcDbArc
 50
180.0
 51
270.0
  0
LINE
  5
2E7
100
AcDbEntity
  8
LAY-1
  6
CONTINUOUS
 62
     7
100
AcDbLine
 10
901.220582
 20
417.0
 30
0.0
 11
902.220582
 21
417.0
 31
0.0
  0
LINE
  5
2E8
100
AcDbEntity
  8
LAY-1
  6
CONTINUOUS
 62
     7
100
AcDbLine
 10
901.220582
 20
405.5
 30
0.0
 11
888.220582
 21
405.5
 31
0.0
  0
LINE
  5
2E9
100
AcDbEntity
  8
LAY-1
  6
CONTINUOUS
 62
     7
100
AcDbLine
 10
813.452632
 20
452.5
 30
0.0
 11
813.452632
 21
445.0
 31
0.0
  0
LINE
  5
2EA
100
AcDbEntity
  8
LAY-1
  6
CONTINUOUS
 62
     7
100
AcDbLine
 10
811.720582
 20
446.0
 30
0.0
 11
813.452632
 21
445.0
 31
0.0
  0
LINE
  5
2EB
100
AcDbEntity
  8
LAY-1
  6
CONTINUOUS
 62
     7
100
AcDbLine
 10
811.720582
 20
452.5
 30
0.0
 11
811.720582
 21
439.5
 31
0.0
  0
LINE
  5
2EC
100
AcDbEntity
  8
LAY-1
  6
CONTINUOUS
 62
     7
100
AcDbLine
 10
822.220582
 20
452.5
 30
0.0
 11
822.220582
 21
445.0
 31
0.0
  0
LINE
  5
2ED
100
AcDbEntity
  8
LAY-1
  6
CONTINUOUS
 62
     7
100
AcDbLine
 10
824.220582
 20
433.5
 30
0.0
 11
825.086607
 21
432.0
 31
0.0
  0
LINE
  5
2EE
100
AcDbEntity
  8
LAY-1
  6
CONTINUOUS
 62
     7
100
AcDbLine
 10
825.086607
 20
432.0
 30
0.0
 11
832.220582
 21
432.0
 31
0.0
  0
ARC
  5
2EF
100
AcDbEntity
  8
LAY-1
  6
CONTINUOUS
 62
     7
100
AcDbCircle
 10
811.516581
 20
435.580002
 30
0.0
 40
3.0
100
AcDbArc
 50
101.478486
 51
172.007266
  0
ARC
  5
2F0
100
AcDbEntity
  8
LAY-1
  6
CONTINUOUS
 62
     7
100
AcDbCircle
 10
793.720582
 20
401.5
 30
0.0
 40
9.0
100
AcDbArc
 50
180.0
 51
0.0
  0
ARC
  5
2F1
100
AcDbEntity
  8
LAY-1
  6
CONTINUOUS
 62
     7
100
AcDbCircle
 10
810.720582
 20
439.5
 30
0.0
 40
1.0
100
AcDbArc
 50
281.478486
 51
0.0
  0
ARC
  5
2F2
100
AcDbEntity
  8
LAY-1
  6
CONTINUOUS
 62
     7
100
AcDbCircle
 10
888.220582
 20
497.5
 30
0.0
 40
2.0
100
AcDbArc
 50
90.0
 51
180.0
  0
LINE
  5
2F3
100
AcDbEntity
  8
LAY-1
  6
CONTINUOUS
 62
     7
100
AcDbLine
 10
901.220582
 20
488.0
 30
0.0
 11
902.220582
 21
488.0
 31
0.0
  0
LINE
  5
2F4
100
AcDbEntity
  8
LAY-1
  6
CONTINUOUS
 62
     7
100
AcDbLine
 10
901.220582
 20
499.5
 30
0.0
 11
888.220582
 21
499.5
 31
0.0
  0
LINE
  5
2F5
100
AcDbEntity
  8
LAY-1
  6
CONTINUOUS
 62
     7
100
AcDbLine
 10
813.452632
 20
452.5
 30
0.0
 11
813.452632
 21
460.0
 31
0.0
  0
LINE
  5
2F6
100
AcDbEntity
  8
LAY-1
  6
CONTINUOUS
 62
     7
100
AcDbLine
 10
811.720582
 20
459.0
 30
0.0
 11
813.452632
 21
460.0
 31
0.0
  0
LINE
  5
2F7
100
AcDbEntity
  8
LAY-1
  6
CONTINUOUS
 62
     7
100
AcDbLine
 10
811.720582
 20
452.5
 30
0.0
 11
811.720582
 21
465.5
 31
0.0
  0
LINE
  5
2F8
100
AcDbEntity
  8
LAY-1
  6
CONTINUOUS
 62
     7
100
AcDbLine
 10
822.220582
 20
452.5
 30
0.0
 11
822.220582
 21
460.0
 31
0.0
  0
LINE
  5
2F9
100
AcDbEntity
  8
LAY-1
  6
CONTINUOUS
 62
     7
100
AcDbLine
 10
824.220582
 20
471.5
 30
0.0
 11
825.086607
 21
473.0
 31
0.0
  0
LINE
  5
2FA
100
AcDbEntity
  8
LAY-1
  6
CONTINUOUS
 62
     7
100
AcDbLine
 10
825.086607
 20
473.0
 30
0.0
 11
832.220582
 21
473.0
 31
0.0
  0
ARC
  5
2FB
100
AcDbEntity
  8
LAY-1
  6
CONTINUOUS
 62
     7
100
AcDbCircle
 10
811.516581
 20
469.419998
 30
0.0
 40
3.0
100
AcDbArc
 50
187.992734
 51
258.521514
  0
ARC
  5
2FC
100
AcDbEntity
  8
LAY-1
  6
CONTINUOUS
 62
     7
100
AcDbCircle
 10
793.720582
 20
503.5
 30
0.0
 40
9.0
100
AcDbArc
 50
0.0
 51
180.0
  0
ARC
  5
2FD
100
AcDbEntity
  8
LAY-1
  6
CONTINUOUS
 62
     7
100
AcDbCircle
 10
810.720582
 20
465.5
 30
0.0
 40
1.0
100
AcDbArc
 50
0.0
 51
78.521514
  0
LINE
  5
2FE
100
AcDbEntity
  8
LAY-1
  6
CONTINUOUS
 62
     7
100
AcDbLine
 10
834.220582
 20
452.5
 30
0.0
 11
834.220582
 21
473.0
 31
0.0
  0
LINE
  5
2FF
100
AcDbEntity
  8
LAY-1
  6
CONTINUOUS
 62
     7
100
AcDbLine
 10
834.220582
 20
452.5
 30
0.0
 11
834.220582
 21
432.0
 31
0.0
  0
LINE
  5
300
100
AcDbEntity
  8
LAY-1
  6
CONTINUOUS
 62
     7
100
AcDbLine
 10
834.220582
 20
435.0
 30
0.0
 11
832.220582
 21
435.0
 31
0.0
  0
LINE
  5
301
100
AcDbEntity
  8
LAY-1
  6
CONTINUOUS
 62
     7
100
AcDbLine
 10
834.220582
 20
470.0
 30
0.0
 11
832.220582
 21
470.0
 31
0.0
  0
LINE
  5
302
100
AcDbEntity
  8
LAY-1
  6
CONTINUOUS
 62
     7
100
AcDbLine
 10
813.452632
 20
460.0
 30
0.0
 11
824.220582
 21
460.0
 31
0.0
  0
LINE
  5
303
100
AcDbEntity
  8
LAY-1
  6
CONTINUOUS
 62
     7
100
AcDbLine
 10
824.220582
 20
452.5
 30
0.0
 11
824.220582
 21
471.5
 31
0.0
  0
LINE
  5
304
100
AcDbEntity
  8
LAY-1
  6
CONTINUOUS
 62
     7
100
AcDbLine
 10
824.220582
 20
452.5
 30
0.0
 11
824.220582
 21
433.5
 31
0.0
  0
LINE
  5
305
100
AcDbEntity
  8
LAY-1
  6
CONTINUOUS
 62
     7
100
AcDbLine
 10
813.452632
 20
445.0
 30
0.0
 11
824.220582
 21
445.0
 31
0.0
  0
LINE
  5
306
100
AcDbEntity
  8
LAY-1
  6
CONTINUOUS
 62
     7
100
AcDbLine
 10
832.220582
 20
473.0
 30
0.0
 11
832.220582
 21
452.5
 31
0.0
  0
LINE
  5
307
100
AcDbEntity
  8
LAY-1
  6
CONTINUOUS
 62
     7
100
AcDbLine
 10
832.220582
 20
432.0
 30
0.0
 11
832.220582
 21
452.5
 31
0.0
  0
LINE
  5
308
100
AcDbEntity
  8
LAY-1
  6
CONTINUOUS
 62
     7
100
AcDbLine
 10
886.220582
 20
452.5
 30
0.0
 11
886.220582
 21
407.5
 31
0.0
  0
LINE
  5
309
100
AcDbEntity
  8
LAY-1
  6
CONTINUOUS
 62
     7
100
AcDbLine
 10
886.220582
 20
452.5
 30
0.0
 11
886.220582
 21
497.5
 31
0.0
  0
LINE
  5
30A
100
AcDbEntity
  8
LAY-1
  6
CONTINUOUS
 62
     7
100
AcDbLine
 10
832.220582
 20
463.4
 30
0.0
 11
825.086607
 21
463.4
 31
0.0
  0
LINE
  5
30B
100
AcDbEntity
  8
LAY-1
  6
CONTINUOUS
 62
     7
100
AcDbLine
 10
832.220582
 20
441.6
 30
0.0
 11
825.086607
 21
441.6
 31
0.0
  0
ARC
  5
30C
100
AcDbEntity
  8
LAY-1
  6
CONTINUOUS
 62
     7
100
AcDbCircle
 10
837.955745
 20
468.2
 30
0.0
 40
13.735163
100
AcDbArc
 50
159.545221
 51
200.454779
  0
ARC
  5
30D
100
AcDbEntity
  8
LAY-1
  6
CONTINUOUS
 62
     7
100
AcDbCircle
 10
893.24858
 20
452.5
 30
0.0
 40
69.027998
100
AcDbArc
 50
170.914572
 51
189.085428
  0
ARC
  5
30E
100
AcDbEntity
  8
LAY-1
  6
CONTINUOUS
 62
     7
100
AcDbCircle
 10
837.955745
 20
436.8
 30
0.0
 40
13.735163
100
AcDbArc
 50
159.545221
 51
200.454779
  0
LINE
  5
30F
100
AcDbEntity
  8
LAY-1
  6
CONTINUOUS
 62
     7
100
AcDbLine
 10
876.220582
 20
477.780592
 30
0.0
 11
874.220582
 21
477.780592
 31
0.0
  0
LINE
  5
310
100
AcDbEntity
  8
LAY-1
  6
CONTINUOUS
 62
     7
100
AcDbLine
 10
874.220582
 20
488.030592
 30
0.0
 11
876.220582
 21
488.030592
 31
0.0
  0
LINE
  5
311
100
AcDbEntity
  8
LAY-1
  6
CONTINUOUS
 62
     7
100
AcDbLine
 10
875.095582
 20
476.905592
 30
0.0
 11
875.095582
 21
488.905592
 31
0.0
  0
LINE
  5
312
100
AcDbEntity
  8
LAY-1
  6
CONTINUOUS
 62
     7
100
AcDbLine
 10
875.095582
 20
488.905592
 30
0.0
 11
876.220582
 21
488.905592
 31
0.0
  0
LINE
  5
313
100
AcDbEntity
  8
LAY-1
  6
CONTINUOUS
 62
     7
100
AcDbLine
 10
874.220582
 20
488.030592
 30
0.0
 11
875.095582
 21
488.905592
 31
0.0
  0
LINE
  5
314
100
AcDbEntity
  8
LAY-1
  6
CONTINUOUS
 62
     7
100
AcDbLine
 10
886.220582
 20
488.967769
 30
0.0
 11
877.158404
 21
488.967769
 31
0.0
  0
LINE
  5
315
100
AcDbEntity
  8
LAY-1
  6
CONTINUOUS
 62
     7
100
AcDbLine
 10
877.158404
 20
476.843414
 30
0.0
 11
886.220582
 21
476.843414
 31
0.0
  0
ARC
  5
316
100
AcDbEntity
  8
LAY-1
  6
CONTINUOUS
 62
     7
100
AcDbCircle
 10
881.587809
 20
473.812325
 30
0.0
 40
5.367228
100
AcDbArc
 50
145.615753
 51
214.384247
  0
LINE
  5
317
100
AcDbEntity
  8
LAY-1
  6
CONTINUOUS
 62
     7
100
AcDbLine
 10
877.158404
 20
495.029947
 30
0.0
 11
886.220582
 21
495.029947
 31
0.0
  0
LINE
  5
318
100
AcDbEntity
  8
LAY-1
  6
CONTINUOUS
 62
     7
100
AcDbLine
 10
876.220582
 20
493.405592
 30
0.0
 11
877.158404
 21
495.029947
 31
0.0
  0
LINE
  5
319
100
AcDbEntity
  8
LAY-1
  6
CONTINUOUS
 62
     7
100
AcDbLine
 10
876.220582
 20
472.405592
 30
0.0
 11
876.220582
 21
493.405592
 31
0.0
  0
LINE
  5
31A
100
AcDbEntity
  8
LAY-1
  6
CONTINUOUS
 62
     7
100
AcDbLine
 10
877.158404
 20
470.781236
 30
0.0
 11
876.220582
 21
472.405592
 31
0.0
  0
LINE
  5
31B
100
AcDbEntity
  8
LAY-1
  6
CONTINUOUS
 62
     7
100
AcDbLine
 10
874.220582
 20
477.780592
 30
0.0
 11
874.220582
 21
488.030592
 31
0.0
  0
LINE
  5
31C
100
AcDbEntity
  8
LAY-1
  6
CONTINUOUS
 62
     7
100
AcDbLine
 10
876.220582
 20
476.905592
 30
0.0
 11
875.095582
 21
476.905592
 31
0.0
  0
LINE
  5
31D
100
AcDbEntity
  8
LAY-1
  6
CONTINUOUS
 62
     7
100
AcDbLine
 10
875.095582
 20
476.905592
 30
0.0
 11
874.220582
 21
477.780592
 31
0.0
  0
ARC
  5
31E
100
AcDbEntity
  8
LAY-1
  6
CONTINUOUS
 62
     7
100
AcDbCircle
 10
881.587809
 20
491.998858
 30
0.0
 40
5.367228
100
AcDbArc
 50
145.615753
 51
214.384247
  0
ARC
  5
31F
100
AcDbEntity
  8
LAY-1
  6
CONTINUOUS
 62
     7
100
AcDbCircle
 10
896.282759
 20
482.905592
 30
0.0
 40
20.062178
100
AcDbArc
 50
162.412046
 51
197.587954
  0
LINE
  5
320
100
AcDbEntity
  8
LAY-1
  6
CONTINUOUS
 62
     7
100
AcDbLine
 10
886.220582
 20
470.781236
 30
0.0
 11
877.158404
 21
470.781236
 31
0.0
  0
LINE
  5
321
100
AcDbEntity
  8
LAY-1
  6
CONTINUOUS
 62
     7
100
AcDbLine
 10
876.220582
 20
427.219408
 30
0.0
 11
874.220582
 21
427.219408
 31
0.0
  0
LINE
  5
322
100
AcDbEntity
  8
LAY-1
  6
CONTINUOUS
 62
     7
100
AcDbLine
 10
874.220582
 20
416.969408
 30
0.0
 11
876.220582
 21
416.969408
 31
0.0
  0
LINE
  5
323
100
AcDbEntity
  8
LAY-1
  6
CONTINUOUS
 62
     7
100
AcDbLine
 10
875.095582
 20
428.094408
 30
0.0
 11
875.095582
 21
416.094408
 31
0.0
  0
LINE
  5
324
100
AcDbEntity
  8
LAY-1
  6
CONTINUOUS
 62
     7
100
AcDbLine
 10
875.095582
 20
416.094408
 30
0.0
 11
876.220582
 21
416.094408
 31
0.0
  0
LINE
  5
325
100
AcDbEntity
  8
LAY-1
  6
CONTINUOUS
 62
     7
100
AcDbLine
 10
874.220582
 20
416.969408
 30
0.0
 11
875.095582
 21
416.094408
 31
0.0
  0
LINE
  5
326
100
AcDbEntity
  8
LAY-1
  6
CONTINUOUS
 62
     7
100
AcDbLine
 10
886.220582
 20
416.032231
 30
0.0
 11
877.158404
 21
416.032231
 31
0.0
  0
LINE
  5
327
100
AcDbEntity
  8
LAY-1
  6
CONTINUOUS
 62
     7
100
AcDbLine
 10
877.158404
 20
428.156586
 30
0.0
 11
886.220582
 21
428.156586
 31
0.0
  0
ARC
  5
328
100
AcDbEntity
  8
LAY-1
  6
CONTINUOUS
 62
     7
100
AcDbCircle
 10
881.587809
 20
431.187675
 30
0.0
 40
5.367228
100
AcDbArc
 50
145.615753
 51
214.384247
  0
LINE
  5
329
100
AcDbEntity
  8
LAY-1
  6
CONTINUOUS
 62
     7
100
AcDbLine
 10
877.158404
 20
409.970053
 30
0.0
 11
886.220582
 21
409.970053
 31
0.0
  0
LINE
  5
32A
100
AcDbEntity
  8
LAY-1
  6
CONTINUOUS
 62
     7
100
AcDbLine
 10
876.220582
 20
411.594408
 30
0.0
 11
877.158404
 21
409.970053
 31
0.0
  0
LINE
  5
32B
100
AcDbEntity
  8
LAY-1
  6
CONTINUOUS
 62
     7
100
AcDbLine
 10
876.220582
 20
432.594408
 30
0.0
 11
876.220582
 21
411.594408
 31
0.0
  0
LINE
  5
32C
100
AcDbEntity
  8
LAY-1
  6
CONTINUOUS
 62
     7
100
AcDbLine
 10
877.158404
 20
434.218764
 30
0.0
 11
876.220582
 21
432.594408
 31
0.0
  0
LINE
  5
32D
100
AcDbEntity
  8
LAY-1
  6
CONTINUOUS
 62
     7
100
AcDbLine
 10
874.220582
 20
427.219408
 30
0.0
 11
874.220582
 21
416.969408
 31
0.0
  0
LINE
  5
32E
100
AcDbEntity
  8
LAY-1
  6
CONTINUOUS
 62
     7
100
AcDbLine
 10
876.220582
 20
428.094408
 30
0.0
 11
875.095582
 21
428.094408
 31
0.0
  0
LINE
  5
32F
100
AcDbEntity
  8
LAY-1
  6
CONTINUOUS
 62
     7
100
AcDbLine
 10
875.095582
 20
428.094408
 30
0.0
 11
874.220582
 21
427.219408
 31
0.0
  0
ARC
  5
330
100
AcDbEntity
  8
LAY-1
  6
CONTINUOUS
 62
     7
100
AcDbCircle
 10
881.587809
 20
413.001142
 30
0.0
 40
5.367228
100
AcDbArc
 50
145.615753
 51
214.384247
  0
ARC
  5
331
100
AcDbEntity
  8
LAY-1
  6
CONTINUOUS
 62
     7
100
AcDbCircle
 10
896.282759
 20
422.094408
 30
0.0
 40
20.062178
100
AcDbArc
 50
162.412046
 51
197.587954
  0
LINE
  5
332
100
AcDbEntity
  8
LAY-1
  6
CONTINUOUS
 62
     7
100
AcDbLine
 10
886.220582
 20
434.218764
 30
0.0
 11
877.158404
 21
434.218764
 31
0.0
  0
LINE
  5
333
100
AcDbEntity
  8
LAY-1
  6
CONTINUOUS
 62
     7
100
AcDbLine
 10
802.720582
 20
503.5
 30
0.0
 11
802.720582
 21
452.5
 31
0.0
  0
LINE
  5
334
100
AcDbEntity
  8
LAY-1
  6
CONTINUOUS
 62
     7
100
AcDbLine
 10
802.720582
 20
401.5
 30
0.0
 11
802.720582
 21
452.5
 31
0.0
  0
ARC
  5
335
100
AcDbEntity
  8
LAY-1
  6
CONTINUOUS
 62
     7
100
AcDbCircle
 10
790.720582
 20
466.5
 30
0.0
 40
18.0
100
AcDbArc
 50
7.992734
 51
48.189685
  0
ARC
  5
336
100
AcDbEntity
  8
LAY-1
  6
CONTINUOUS
 62
     7
100
AcDbCircle
 10
790.720582
 20
438.5
 30
0.0
 40
18.0
100
AcDbArc
 50
311.810315
 51
352.007266
  0
LINE
  5
337
100
AcDbEntity
  8
LAY-1
  6
CONTINUOUS
 62
     7
100
AcDbLine
 10
784.720582
 20
452.5
 30
0.0
 11
784.720582
 21
503.5
 31
0.0
  0
LINE
  5
338
100
AcDbEntity
  8
LAY-1
  6
CONTINUOUS
 62
     7
100
AcDbLine
 10
784.720582
 20
452.5
 30
0.0
 11
784.720582
 21
401.5
 31
0.0
  0
ARC
  5
339
100
AcDbEntity
  8
LAY-1
  6
CONTINUOUS
 62
     7
100
AcDbCircle
 10
786.820582
 20
452.5
 30
0.0
 40
7.0
100
AcDbArc
 50
107.457603
 51
180.0
  0
ARC
  5
33A
100
AcDbEntity
  8
LAY-1
  6
CONTINUOUS
 62
     7
100
AcDbCircle
 10
786.820582
 20
452.5
 30
0.0
 40
7.0
100
AcDbArc
 50
180.0
 51
252.542397
  0
LINE
  5
33B
100
AcDbEntity
  8
LAY-1
  6
CONTINUOUS
 62
     7
100
AcDbLine
 10
901.220582
 20
475.823808
 30
0.0
 11
901.220582
 21
499.5
 31
0.0
  0
LINE
  5
33C
100
AcDbEntity
  8
LAY-1
  6
CONTINUOUS
 62
     7
100
AcDbLine
 10
902.220582
 20
478.480762
 30
0.0
 11
902.220582
 21
499.5
 31
0.0
  0
ARC
  5
33D
100
AcDbEntity
  8
LAY-1
  6
CONTINUOUS
 62
     7
100
AcDbCircle
 10
915.220582
 20
497.5
 30
0.0
 40
2.0
100
AcDbArc
 50
86.508868
 51
90.0
  0
ARC
  5
33E
100
AcDbEntity
  8
LAY-1
  6
CONTINUOUS
 62
     7
100
AcDbCircle
 10
915.220582
 20
407.5
 30
0.0
 40
2.0
100
AcDbArc
 50
270.0
 51
273.491132
  0
LINE
  5
33F
100
AcDbEntity
  8
LAY-1
  6
CONTINUOUS
 62
     7
100
AcDbLine
 10
901.220582
 20
429.176192
 30
0.0
 11
901.220582
 21
405.5
 31
0.0
  0
LINE
  5
340
100
AcDbEntity
  8
LAY-1
  6
CONTINUOUS
 62
     7
100
AcDbLine
 10
902.220582
 20
426.519238
 30
0.0
 11
902.220582
 21
405.5
 31
0.0
  0
LINE
  5
341
100
AcDbEntity
  8
LAY-1
  6
EXLTYPE3
 62
     1
100
AcDbLine
 10
510.052867
 20
116.945317
 30
0.0
 11
716.103261
 21
116.945317
 31
0.0
  0
LINE
  5
342
100
AcDbEntity
  8
LAY-1
  6
EXLTYPE3
 62
     1
100
AcDbLine
 10
549.703268
 20
64.445317
 30
0.0
 11
519.26849
 21
64.445317
 31
0.0
  0
LINE
  5
343
100
AcDbEntity
  8
LAY-1
  6
EXLTYPE3
 62
     1
100
AcDbLine
 10
549.703268
 20
169.445317
 30
0.0
 11
519.26849
 21
169.445317
 31
0.0
  0
LINE
  5
344
100
AcDbEntity
  8
LAY-1
  6
EXLTYPE3
 62
     1
100
AcDbLine
 10
680.906098
 20
64.445317
 30
0.0
 11
711.340875
 21
64.445317
 31
0.0
  0
LINE
  5
345
100
AcDbEntity
  8
LAY-1
  6
EXLTYPE3
 62
     1
100
AcDbLine
 10
680.906098
 20
169.445317
 30
0.0
 11
711.340875
 21
169.445317
 31
0.0
  0
LINE
  5
346
100
AcDbEntity
  8
LAY-1
  6
CONTINUOUS
 62
     1
100
AcDbLine
 10
598.266008
 20
249.945317
 30
0.0
 11
597.804683
 21
250.744355
 31
0.0
  0
LINE
  5
347
100
AcDbEntity
  8
LAY-1
  6
CONTINUOUS
 62
     1
100
AcDbLine
 10
632.343358
 20
249.945317
 30
0.0
 11
632.804683
 21
250.744355
 31
0.0
  0
LINE
  5
348
100
AcDbEntity
  8
LAY-1
  6
EXLTYPE3
 62
     1
100
AcDbLine
 10
585.063164
 20
116.945317
 30
0.0
 11
590.304683
 21
116.945317
 31
0.0
  0
LINE
  5
349
100
AcDbEntity
  8
LAY-1
  6
EXLTYPE3
 62
     1
100
AcDbLine
 10
615.304683
 20
309.4
 30
0.0
 11
615.304683
 21
54.829491
 31
0.0
  0
LINE
  5
34A
100
AcDbEntity
  8
LAY-1
  6
EXLTYPE3
 62
     1
100
AcDbLine
 10
615.304683
 20
505.5
 30
0.0
 11
615.304683
 21
396.5
 31
0.0
  0
LINE
  5
34B
100
AcDbEntity
  8
LAY-1
  6
EXLTYPE3
 62
     1
100
AcDbLine
 10
680.906098
 20
400.0
 30
0.0
 11
711.340875
 21
400.0
 31
0.0
  0
LINE
  5
34C
100
AcDbEntity
  8
LAY-1
  6
EXLTYPE3
 62
     1
100
AcDbLine
 10
680.906098
 20
505.0
 30
0.0
 11
711.340875
 21
505.0
 31
0.0
  0
LINE
  5
34D
100
AcDbEntity
  8
LAY-1
  6
EXLTYPE3
 62
     1
100
AcDbLine
 10
549.703268
 20
400.0
 30
0.0
 11
519.26849
 21
400.0
 31
0.0
  0
LINE
  5
34E
100
AcDbEntity
  8
LAY-1
  6
EXLTYPE3
 62
     1
100
AcDbLine
 10
549.703268
 20
505.0
 30
0.0
 11
519.26849
 21
505.0
 31
0.0
  0
LINE
  5
34F
100
AcDbEntity
  8
LAY-1
  6
EXLTYPE3
 62
     1
100
AcDbLine
 10
514.654008
 20
452.5
 30
0.0
 11
714.805064
 21
452.5
 31
0.0
  0
LINE
  5
350
100
AcDbEntity
  8
LAY-1
  6
EXLTYPE3
 62
     1
100
AcDbLine
 10
615.304683
 20
517.4
 30
0.0
 11
615.304683
 21
390.3
 31
0.0
  0
LINE
  5
351
100
AcDbEntity
  8
LAY-1
  6
EXLTYPE3
 62
     1
100
AcDbLine
 10
510.052867
 20
788.054683
 30
0.0
 11
716.103261
 21
788.054683
 31
0.0
  0
LINE
  5
352
100
AcDbEntity
  8
LAY-1
  6
EXLTYPE3
 62
     1
100
AcDbLine
 10
549.703268
 20
840.554683
 30
0.0
 11
519.26849
 21
840.554683
 31
0.0
  0
LINE
  5
353
100
AcDbEntity
  8
LAY-1
  6
EXLTYPE3
 62
     1
100
AcDbLine
 10
549.703268
 20
735.554683
 30
0.0
 11
519.26849
 21
735.554683
 31
0.0
  0
LINE
  5
354
100
AcDbEntity
  8
LAY-1
  6
EXLTYPE3
 62
     1
100
AcDbLine
 10
680.906098
 20
840.554683
 30
0.0
 11
711.340875
 21
840.554683
 31
0.0
  0
LINE
  5
355
100
AcDbEntity
  8
LAY-1
  6
EXLTYPE3
 62
     1
100
AcDbLine
 10
680.906098
 20
735.554683
 30
0.0
 11
711.340875
 21
735.554683
 31
0.0
  0
LINE
  5
356
100
AcDbEntity
  8
LAY-1
  6
CONTINUOUS
 62
     1
100
AcDbLine
 10
598.266008
 20
655.054683
 30
0.0
 11
597.804683
 21
654.255645
 31
0.0
  0
LINE
  5
357
100
AcDbEntity
  8
LAY-1
  6
CONTINUOUS
 62
     1
100
AcDbLine
 10
632.343358
 20
655.054683
 30
0.0
 11
632.804683
 21
654.255645
 31
0.0
  0
LINE
  5
358
100
AcDbEntity
  8
LAY-1
  6
EXLTYPE3
 62
     1
100
AcDbLine
 10
615.304683
 20
595.6
 30
0.0
 11
615.304683
 21
850.170509
 31
0.0
  0
LINE
  5
359
100
AcDbEntity
  8
LAY-1
  6
EXLTYPE3
 62
     1
100
AcDbLine
 10
607.721349
 20
788.054683
 30
0.0
 11
594.163991
 21
788.054683
 31
0.0
  0
LINE
  5
35A
100
AcDbEntity
  8
LAY-1
  6
EXLTYPE3
 62
     1
100
AcDbLine
 10
620.179683
 20
788.054683
 30
0.0
 11
616.929683
 21
788.054683
 31
0.0
  0
LINE
  5
35B
100
AcDbEntity
  8
LAY-1
  6
EXLTYPE3
 62
     1
100
AcDbLine
 10
615.304683
 20
788.054683
 30
0.0
 11
612.054683
 21
788.054683
 31
0.0
  0
LINE
  5
35C
100
AcDbEntity
  8
LAY-1
  6
EXLTYPE3
 62
     1
100
AcDbLine
 10
615.304683
 20
801.113386
 30
0.0
 11
615.304683
 21
800.287183
 31
0.0
  0
LINE
  5
35D
100
AcDbEntity
  8
LAY-1
  6
CONTINUOUS
 62
     1
100
AcDbLine
 10
396.388784
 20
435.461325
 30
0.0
 11
397.187822
 21
435.0
 31
0.0
  0
LINE
  5
35E
100
AcDbEntity
  8
LAY-1
  6
CONTINUOUS
 62
     1
100
AcDbLine
 10
396.388784
 20
469.538675
 30
0.0
 11
397.187822
 21
470.0
 31
0.0
  0
LINE
  5
35F
100
AcDbEntity
  8
LAY-1
  6
EXLTYPE3
 62
     1
100
AcDbLine
 10
459.343467
 20
452.5
 30
0.0
 11
175.686311
 21
452.5
 31
0.0
  0
LINE
  5
360
100
AcDbEntity
  8
LAY-1
  6
EXLTYPE3
 62
     1
100
AcDbLine
 10
263.388784
 20
363.68312
 30
0.0
 11
263.388784
 21
541.31688
 31
0.0
  0
LINE
  5
361
100
AcDbEntity
  8
LAY-1
  6
CONTINUOUS
 62
     1
100
AcDbLine
 10
834.220582
 20
435.461325
 30
0.0
 11
833.421543
 21
435.0
 31
0.0
  0
LINE
  5
362
100
AcDbEntity
  8
LAY-1
  6
CONTINUOUS
 62
     1
100
AcDbLine
 10
834.220582
 20
469.538675
 30
0.0
 11
833.421543
 21
470.0
 31
0.0
  0
LINE
  5
363
100
AcDbEntity
  8
LAY-1
  6
EXLTYPE3
 62
     1
100
AcDbLine
 10
771.265899
 20
452.5
 30
0.0
 11
1054.923054
 21
452.5
 31
0.0
  0
LINE
  5
364
100
AcDbEntity
  8
LAY-1
  6
EXLTYPE3
 62
     1
100
AcDbLine
 10
967.220582
 20
363.68312
 30
0.0
 11
967.220582
 21
541.31688
 31
0.0
  0
TEXT
  5
365
100
AcDbEntity
  8
LAY-1
  6
CONTINUOUS
 62
     3
100
AcDbText
 10
744.148868
 20
-1.907869
 30
0.0
 40
15.0
  1
４－φ１９
 50
360.0
 41
0.84
  7
EXCADSTD
 72
     5
 11
819.148868
 21
-1.907869
 31
0.0
100
AcDbText
  0
TEXT
  5
366
100
AcDbEntity
  8
LAY-1
  6
CONTINUOUS
 62
     3
100
AcDbText
 10
384.054683
 20
-0.830674
 30
0.0
 40
15.0
  1
４－φ１９
 41
0.84
  7
EXCADSTD
 72
     5
 11
459.054683
 21
-0.830674
 31
0.0
100
AcDbText
  0
LINE
  5
367
100
AcDbEntity
  8
LAY-1
  6
CONTINUOUS
 62
     7
100
AcDbLine
 10
500.301092
 20
104.945317
 30
0.0
 11
500.301092
 21
110.945317
 31
0.0
  0
LINE
  5
368
100
AcDbEntity
  8
LAY-1
  6
CONTINUOUS
 62
     7
100
AcDbLine
 10
500.301092
 20
122.945317
 30
0.0
 11
500.301092
 21
128.945317
 31
0.0
  0
LINE
  5
369
100
AcDbEntity
  8
LAY-1
  6
CONTINUOUS
 62
     7
100
AcDbLine
 10
485.104683
 20
110.945317
 30
0.0
 11
485.104683
 21
122.945317
 31
0.0
  0
LINE
  5
36A
100
AcDbEntity
  8
LAY-1
  6
CONTINUOUS
 62
     7
100
AcDbLine
 10
485.104683
 20
122.945317
 30
0.0
 11
500.301092
 21
122.945317
 31
0.0
  0
LINE
  5
36B
100
AcDbEntity
  8
LAY-1
  6
CONTINUOUS
 62
     7
100
AcDbLine
 10
500.301092
 20
110.945317
 30
0.0
 11
485.104683
 21
110.945317
 31
0.0
  0
LINE
  5
36C
100
AcDbEntity
  8
LAY-1
  6
CONTINUOUS
 62
     7
100
AcDbLine
 10
500.301092
 20
128.945317
 30
0.0
 11
513.704683
 21
116.945317
 31
0.0
  0
LINE
  5
36D
100
AcDbEntity
  8
LAY-1
  6
CONTINUOUS
 62
     7
100
AcDbLine
 10
513.704683
 20
116.945317
 30
0.0
 11
500.301092
 21
104.945317
 31
0.0
  0
LINE
  5
36E
100
AcDbEntity
  8
LAY-1
  6
CONTINUOUS
 62
     7
100
AcDbLine
 10
736.601092
 20
104.945317
 30
0.0
 11
736.601092
 21
110.945317
 31
0.0
  0
LINE
  5
36F
100
AcDbEntity
  8
LAY-1
  6
CONTINUOUS
 62
     7
100
AcDbLine
 10
736.601092
 20
122.945317
 30
0.0
 11
736.601092
 21
128.945317
 31
0.0
  0
LINE
  5
370
100
AcDbEntity
  8
LAY-1
  6
CONTINUOUS
 62
     7
100
AcDbLine
 10
736.601092
 20
128.945317
 30
0.0
 11
750.004683
 21
116.945317
 31
0.0
  0
LINE
  5
371
100
AcDbEntity
  8
LAY-1
  6
CONTINUOUS
 62
     7
100
AcDbLine
 10
750.004683
 20
116.945317
 30
0.0
 11
736.601092
 21
104.945317
 31
0.0
  0
LINE
  5
372
100
AcDbEntity
  8
LAY-1
  6
CONTINUOUS
 62
     7
100
AcDbLine
 10
721.404683
 20
110.945317
 30
0.0
 11
721.404683
 21
122.945317
 31
0.0
  0
LINE
  5
373
100
AcDbEntity
  8
LAY-1
  6
CONTINUOUS
 62
     7
100
AcDbLine
 10
721.404683
 20
122.945317
 30
0.0
 11
736.601092
 21
122.945317
 31
0.0
  0
LINE
  5
374
100
AcDbEntity
  8
LAY-1
  6
CONTINUOUS
 62
     7
100
AcDbLine
 10
736.601092
 20
110.945317
 30
0.0
 11
721.404683
 21
110.945317
 31
0.0
  0
LINE
  5
375
100
AcDbEntity
  8
LAY-1
  6
CONTINUOUS
 62
     7
100
AcDbLine
 10
594.804683
 20
249.945317
 30
0.0
 11
594.804683
 21
207.945317
 31
0.0
  0
LINE
  5
376
100
AcDbEntity
  8
LAY-1
  6
CONTINUOUS
 62
     7
100
AcDbLine
 10
635.804683
 20
249.945317
 30
0.0
 11
635.804683
 21
207.945317
 31
0.0
  0
ARC
  5
377
100
AcDbEntity
  8
LAY-1
  6
CONTINUOUS
 62
     7
100
AcDbCircle
 10
645.804683
 20
207.945317
 30
0.0
 40
10.0
100
AcDbArc
 50
180.0
 51
270.0
  0
LINE
  5
378
100
AcDbEntity
  8
LAY-1
  6
CONTINUOUS
 62
     7
100
AcDbLine
 10
594.804683
 20
655.054683
 30
0.0
 11
594.804683
 21
697.054683
 31
0.0
  0
LINE
  5
379
100
AcDbEntity
  8
LAY-1
  6
CONTINUOUS
 62
     7
100
AcDbLine
 10
635.804683
 20
655.054683
 30
0.0
 11
635.804683
 21
697.054683
 31
0.0
  0
LINE
  5
37A
100
AcDbEntity
  8
LAY-1
  6
CONTINUOUS
 62
     7
100
AcDbLine
 10
834.220582
 20
473.0
 30
0.0
 11
876.220582
 21
473.0
 31
0.0
  0
LINE
  5
37B
100
AcDbEntity
  8
LAY-1
  6
CONTINUOUS
 62
     7
100
AcDbLine
 10
834.220582
 20
432.0
 30
0.0
 11
876.220582
 21
432.0
 31
0.0
  0
LINE
  5
37C
100
AcDbEntity
  8
LAY-1
  6
CONTINUOUS
 62
     7
100
AcDbLine
 10
396.388784
 20
473.0
 30
0.0
 11
354.388784
 21
473.0
 31
0.0
  0
LINE
  5
37D
100
AcDbEntity
  8
LAY-1
  6
CONTINUOUS
 62
     7
100
AcDbLine
 10
396.388784
 20
432.0
 30
0.0
 11
354.388784
 21
432.0
 31
0.0
  0
TEXT
  5
37E
100
AcDbEntity
  8
LAY-1
  6
CONTINUOUS
 62
     3
100
AcDbText
 10
842.288
 20
238.992
 30
0.0
 40
12.0
  1
２０１５年　７月２１日
 41
0.84
  7
EXCADSTD
 72
     5
 11
974.288
 21
238.992
 31
0.0
100
AcDbText
  0
LINE
  5
37F
100
AcDbEntity
  8
LAY-3
  6
CONTINUOUS
 62
     1
100
AcDbLine
 10
705.304683
 20
76.445317
 30
0.0
 11
705.304683
 21
26.609366
 31
0.0
  0
LINE
  5
380
100
AcDbEntity
  8
LAY-3
  6
CONTINUOUS
 62
     1
100
AcDbLine
 10
525.304683
 20
76.445317
 30
0.0
 11
525.304683
 21
26.609366
 31
0.0
  0
TEXT
  5
381
100
AcDbEntity
  8
LAY-3
  6
CONTINUOUS
 62
     3
100
AcDbText
 10
592.804683
 20
28.109366
 30
0.0
 40
15.0
  1
１８０
 41
0.84
  7
EXCADSTD
 72
     5
 11
637.804683
 21
28.109366
 31
0.0
100
AcDbText
  0
LINE
  5
382
100
AcDbEntity
  8
LAY-3
  6
CONTINUOUS
 62
     1
100
AcDbLine
 10
705.304683
 20
27.109366
 30
0.0
 11
525.304683
 21
27.109366
 31
0.0
  0
LINE
  5
383
100
AcDbEntity
  8
LAY-3
  6
CONTINUOUS
 62
     1
100
AcDbLine
 10
703.304683
 20
26.776032
 30
0.0
 11
705.304683
 21
27.109366
 31
0.0
  0
LINE
  5
384
100
AcDbEntity
  8
LAY-3
  6
CONTINUOUS
 62
     1
100
AcDbLine
 10
705.304683
 20
27.109366
 30
0.0
 11
703.304683
 21
27.442699
 31
0.0
  0
LINE
  5
385
100
AcDbEntity
  8
LAY-3
  6
CONTINUOUS
 62
     1
100
AcDbLine
 10
527.304683
 20
27.442699
 30
0.0
 11
525.304683
 21
27.109366
 31
0.0
  0
LINE
  5
386
100
AcDbEntity
  8
LAY-3
  6
CONTINUOUS
 62
     1
100
AcDbLine
 10
525.304683
 20
27.109366
 30
0.0
 11
527.304683
 21
26.776032
 31
0.0
  0
ENDSEC
  0
SECTION
  2
OBJECTS
  0
DICTIONARY
  5
19
100
AcDbDictionary
  3
ACAD_GROUP
350
1A
  3
ACAD_MLINESTYLE
350
1B
  0
DICTIONARY
  5
1A
102
{ACAD_REACTORS
330
19
102
}
100
AcDbDictionary
  0
DICTIONARY
  5
1B
102
{ACAD_REACTORS
330
19
102
}
100
AcDbDictionary
  3
STANDARD
350
1C
  0
MLINESTYLE
  5
1C
102
{ACAD_REACTORS
330
1B
102
}
100
AcDbMlineStyle
  2
Standard
 70
     0
  3

 62
     0
 51
90.0
 52
90.0
 71
     2
 49
0.5
 62
   256
  6
ByLayer
 49
-0.5
 62
   256
  6
ByLayer
  0
ENDSEC
  0
EOF
