  0
SECTION
  2
HEADER
  9
$ACADVER
  1
AC1014
  9
$ACADMAINTVER
 70
     0
  9
$DWGCODEPAGE
  3
ANSI_932
  9
$INSBASE
 10
0.0
 20
0.0
 30
0.0
  9
$EXTMIN
 10
350.21616
 20
95.0
 30
0.0
  9
$EXTMAX
 10
1307.78384
 20
1148.6
 30
0.0
  9
$LIMMIN
 10
0.0
 20
0.0
  9
$LIMMAX
 10
420.0
 20
297.0
  9
$ORTHOMODE
 70
     0
  9
$REGENMODE
 70
     1
  9
$FILLMODE
 70
     1
  9
$QTEXTMODE
 70
     0
  9
$MIRRTEXT
 70
     1
  9
$DRAGMODE
 70
     2
  9
$LTSCALE
 40
1.0
  9
$OSMODE
 70
     0
  9
$ATTMODE
 70
     1
  9
$TEXTSIZE
 40
0.2
  9
$TRACEWID
 40
0.05
  9
$TEXTSTYLE
  7
STANDARD
  9
$CLAYER
  8
LAY-1
  9
$CELTYPE
  6
CONTINUOUS
  9
$CECOLOR
 62
   256
  9
$CELTSCALE
 40
1.0
  9
$DELOBJ
 70
     1
  9
$DISPSILH
 70
     0
  9
$DIMSCALE
 40
1.0
  9
$DIMASZ
 40
0.18
  9
$DIMEXO
 40
0.0625
  9
$DIMDLI
 40
0.38
  9
$DIMRND
 40
0.0
  9
$DIMDLE
 40
0.0
  9
$DIMEXE
 40
0.18
  9
$DIMTP
 40
0.0
  9
$DIMTM
 40
0.0
  9
$DIMTXT
 40
0.18
  9
$DIMCEN
 40
0.09
  9
$DIMTSZ
 40
0.0
  9
$DIMTOL
 70
     0
  9
$DIMLIM
 70
     0
  9
$DIMTIH
 70
     1
  9
$DIMTOH
 70
     1
  9
$DIMSE1
 70
     0
  9
$DIMSE2
 70
     0
  9
$DIMTAD
 70
     0
  9
$DIMZIN
 70
     0
  9
$DIMBLK
  1

  9
$DIMASO
 70
     1
  9
$DIMSHO
 70
     1
  9
$DIMPOST
  1

  9
$DIMAPOST
  1

  9
$DIMALT
 70
     0
  9
$DIMALTD
 70
     2
  9
$DIMALTF
 40
25.4
  9
$DIMLFAC
 40
1.0
  9
$DIMTOFL
 70
     0
  9
$DIMTVP
 40
0.0
  9
$DIMTIX
 70
     0
  9
$DIMSOXD
 70
     0
  9
$DIMSAH
 70
     0
  9
$DIMBLK1
  1

  9
$DIMBLK2
  1

  9
$DIMSTYLE
  2
STANDARD
  9
$DIMCLRD
 70
     0
  9
$DIMCLRE
 70
     0
  9
$DIMCLRT
 70
     0
  9
$DIMTFAC
 40
1.0
  9
$DIMGAP
 40
0.09
  9
$DIMJUST
 70
     0
  9
$DIMSD1
 70
     0
  9
$DIMSD2
 70
     0
  9
$DIMTOLJ
 70
     1
  9
$DIMTZIN
 70
     0
  9
$DIMALTZ
 70
     0
  9
$DIMALTTZ
 70
     0
  9
$DIMFIT
 70
     3
  9
$DIMUPT
 70
     0
  9
$DIMUNIT
 70
     2
  9
$DIMDEC
 70
     4
  9
$DIMTDEC
 70
     4
  9
$DIMALTU
 70
     2
  9
$DIMALTTD
 70
     2
  9
$DIMTXSTY
  7
STANDARD
  9
$DIMAUNIT
 70
     0
  9
$LUNITS
 70
     2
  9
$LUPREC
 70
     4
  9
$SKETCHINC
 40
0.1
  9
$FILLETRAD
 40
0.0
  9
$AUNITS
 70
     0
  9
$AUPREC
 70
     0
  9
$MENU
  1
acad
  9
$ELEVATION
 40
0.0
  9
$PELEVATION
 40
0.0
  9
$THICKNESS
 40
0.0
  9
$LIMCHECK
 70
     0
  9
$BLIPMODE
 70
     1
  9
$CHAMFERA
 40
0.0
  9
$CHAMFERB
 40
0.0
  9
$CHAMFERC
 40
0.0
  9
$CHAMFERD
 40
0.0
  9
$SKPOLY
 70
     0
  9
$TDCREATE
 40
2456816.144865185
  9
$TDUPDATE
 40
2456816.144865185
  9
$TDINDWG
 40
0.0000000000
  9
$TDUSRTIMER
 40
0.0000000000
  9
$USRTIMER
 70
     1
  9
$ANGBASE
 50
0.0
  9
$ANGDIR
 70
     0
  9
$PDMODE
 70
     0
  9
$PDSIZE
 40
0.0
  9
$PLINEWID
 40
0.0
  9
$COORDS
 70
     1
  9
$SPLFRAME
 70
     0
  9
$SPLINETYPE
 70
     6
  9
$SPLINESEGS
 70
     8
  9
$ATTDIA
 70
     0
  9
$ATTREQ
 70
     1
  9
$HANDLING
 70
     1
  9
$HANDSEED
  5
49E
  9
$SURFTAB1
 70
     6
  9
$SURFTAB2
 70
     6
  9
$SURFTYPE
 70
     6
  9
$SURFU
 70
     6
  9
$SURFV
 70
     6
  9
$UCSNAME
  2

  9
$UCSORG
 10
0.0
 20
0.0
 30
0.0
  9
$UCSXDIR
 10
1.0
 20
0.0
 30
0.0
  9
$UCSYDIR
 10
0.0
 20
1.0
 30
0.0
  9
$PUCSNAME
  2

  9
$PUCSORG
 10
0.0
 20
0.0
 30
0.0
  9
$PUCSXDIR
 10
1.0
 20
0.0
 30
0.0
  9
$PUCSYDIR
 10
0.0
 20
1.0
 30
0.0
  9
$USERI1
 70
     0
  9
$USERI2
 70
     0
  9
$USERI3
 70
     0
  9
$USERI4
 70
     0
  9
$USERI5
 70
     0
  9
$USERR1
 40
0.0
  9
$USERR2
 40
0.0
  9
$USERR3
 40
0.0
  9
$USERR4
 40
0.0
  9
$USERR5
 40
0.0
  9
$WORLDVIEW
 70
     1
  9
$SHADEDGE
 70
     3
  9
$SHADEDIF
 70
    70
  9
$TILEMODE
 70
     1
  9
$MAXACTVP
 70
    16
  9
$PINSBASE
 10
0.0
 20
0.0
 30
0.0
  9
$PLIMCHECK
 70
     0
  9
$PEXTMIN
 10
1.000000E+20
 20
1.000000E+20
 30
1.000000E+20
  9
$PEXTMAX
 10
-1.000000E+20
 20
-1.000000E+20
 30
-1.000000E+20
  9
$PLIMMIN
 10
0.0
 20
0.0
  9
$PLIMMAX
 10
12.0
 20
9.0
  9
$UNITMODE
 70
     0
  9
$VISRETAIN
 70
     0
  9
$PLINEGEN
 70
     1
  9
$PSLTSCALE
 70
     0
  9
$TREEDEPTH
 70
  3020
  9
$PICKSTYLE
 70
     1
  9
$CMLSTYLE
  2
Standard
  9
$CMLJUST
 70
     0
  9
$CMLSCALE
 40
1.0
  9
$PROXYGRAPHICS
 70
     0
  9
$MEASUREMENT
 70
     0
  0
ENDSEC
  0
SECTION
  2
CLASSES
  0
CLASS
  1
LWPOLYLINE
  2
AcDbPolyline
  3
"AutoCAD"
 90
        0
280
     0
281
     1
  0
CLASS
  1
IMAGE
  2
AcDbRasterImage
  3
ISM
 90
      127
280
     0
281
     1
  0
CLASS
  1
OLE2FRAME
  2
AcDbOle2Frame
  3
""
 90
        0
280
     0
281
     1
  0
CLASS
  1
HATCH
  2
AcDbHatch
  3
"ACAD_SEDONA"
 90
        0
280
     0
281
     1
  0
CLASS
  1
DICTIONARYVAR
  2
AcDbDictionaryVar
  3
"AutoCAD"
 90
        0
280
     0
281
     0
  0
CLASS
  1
RASTERVARIABLES
  2
AcDbRasterVariables
  3
ISM
 90
        0
280
     0
281
     0
  0
CLASS
  1
IMAGEDEF
  2
AcDbRasterImageDef
  3
ISM
 90
        0
280
     0
281
     0
  0
CLASS
  1
IMAGEDEF_REACTOR
  2
AcDbRasterImageDefReactor
  3
ISM
 90
        1
280
     0
281
     0
  0
CLASS
  1
IDBUFFER
  2
AcDbIdBuffer
  3
"Acad"
 90
        0
280
     0
281
     0
  0
CLASS
  1
SPATIAL_FILTER
  2
AcDbSpatialFilter
  3
"Acad"
 90
        0
280
     0
281
     0
  0
CLASS
  1
XRECORD
  2
AcDbXrecord
  3
"<Built In>"
 90
        0
280
     0
281
     0
  0
CLASS
  1
SORTENTSTABLE
  2
AcDbSortentsTable
  3
"AutoCAD"
 90
        0
280
     0
281
     0
  0
CLASS
  1
LAYER_INDEX
  2
AcDbLayerIndex
  3
"Acad"
 90
        0
280
     0
281
     0
  0
CLASS
  1
SPATIAL_INDEX
  2
AcDbSpatialIndex
  3
"Acad"
 90
        0
280
     0
281
     0
  0
CLASS
  1
OBJECT_PTR
  2
CAseDLPNTableRecord
  3
"ASE-LPNTableRecord"
 90
        1
280
     0
281
     0
  0
CLASS
  1
LAYOUT
  2
AcDbLayout
  3
"AutoCAD 2000"
 90
        0
280
     0
281
     0
  0
CLASS
  1
PLOTSETTINGS
  2
AcDbPlotSettings
  3
"AutoCAD 2000"
 90
        0
280
     0
281
     0
  0
CLASS
  1
ACDBDICTIONARYWDFLT
  2
AcDbDictionaryWithDefault
  3
"AutoCAD 2000"
 90
        0
280
     0
281
     0
  0
CLASS
  1
ACDBPLACEHOLDER
  2
AcDbPlaceHolder
  3
"AutoCAD 2000"
 90
        0
280
     0
281
     0
  0
CLASS
  1
VBA_PROJECT
  2
AcDbVbaProject
  3
"acadvba"
 90
        0
280
     0
281
     0
  0
CLASS
  1
WIPEOUT
  2
AcDbWipeout
  3
WipeOut|AutoCAD Express Tool|expresstools@autodesk.com
 90
      127
280
     0
281
     1
  0
CLASS
  1
WIPEOUTVARIABLES
  2
AcDbWipeoutVariables
  3
WipeOut|AutoCAD Express Tool|expresstools@autodesk.com
 90
        0
280
     0
281
     0
  0
CLASS
  1
RTEXT
  2
RText
  3
RText|AutoCAD Express Tool|expresstools@autodesk.com
 90
        0
280
     0
281
     1
  0
CLASS
  1
ARCALIGNEDTEXT
  2
AcDbArcAlignedText
  3
ATEXT|AutoCAD Express Tool|expresstools@autodesk.com
 90
        0
280
     0
281
     1
  0
ENDSEC
  0
SECTION
  2
TABLES
  0
TABLE
  2
VPORT
  5
7
100
AcDbSymbolTable
 70
     1
  0
VPORT
  5
15
100
AcDbSymbolTableRecord
100
AcDbViewportTableRecord
  2
*ACTIVE
 70
     0
 10
0.0
 20
0.0
 11
1.0
 21
1.0
 12
829.0
 22
621.8
 13
0.0
 23
0.0
 14
1.0
 24
1.0
 15
0.0
 25
0.0
 16
0.0
 26
0.0
 36
1.0
 17
0.0
 27
0.0
 37
0.0
 40
1053.6
 41
1.722533
 42
50.0
 43
0.0
 44
0.0
 50
0.0
 51
0.0
 71
     0
 72
  1000
 73
     1
 74
     1
 75
     0
 76
     0
 77
     0
 78
     0
  0
ENDTAB
  0
TABLE
  2
LTYPE
  5
4
100
AcDbSymbolTable
 70
     9
  0
LTYPE
  5
11
100
AcDbSymbolTableRecord
100
AcDbLinetypeTableRecord
  2
BYBLOCK
 70
    64
  3

 72
    65
 73
     0
 40
0.0
  0
LTYPE
  5
12
100
AcDbSymbolTableRecord
100
AcDbLinetypeTableRecord
  2
BYLAYER
 70
    64
  3

 72
    65
 73
     0
 40
0.0
  0
LTYPE
  5
13
100
AcDbSymbolTableRecord
100
AcDbLinetypeTableRecord
  2
CONTINUOUS
 70
    64
  3
実線
 72
    65
 73
     0
 40
0.0
  0
LTYPE
  5
1D
100
AcDbSymbolTableRecord
100
AcDbLinetypeTableRecord
  2
EXLTYPE1
 70
    64
  3
破線
 72
    65
 73
     2
 40
4.0
 49
2.0
 74
     0
 49
-2.0
 74
     0
  0
LTYPE
  5
1E
100
AcDbSymbolTableRecord
100
AcDbLinetypeTableRecord
  2
EXLTYPE2
 70
    64
  3
点線
 72
    65
 73
     2
 40
2.0
 49
1.0
 74
     0
 49
-1.0
 74
     0
  0
LTYPE
  5
1F
100
AcDbSymbolTableRecord
100
AcDbLinetypeTableRecord
  2
EXLTYPE3
 70
    64
  3
一点鎖線
 72
    65
 73
     4
 40
33.0
 49
30.0
 74
     0
 49
-1.0
 74
     0
 49
1.0
 74
     0
 49
-1.0
 74
     0
  0
LTYPE
  5
20
100
AcDbSymbolTableRecord
100
AcDbLinetypeTableRecord
  2
EXLTYPE4
 70
    64
  3
二点鎖線
 72
    65
 73
     6
 40
35.0
 49
30.0
 74
     0
 49
-1.0
 74
     0
 49
1.0
 74
     0
 49
-1.0
 74
     0
 49
1.0
 74
     0
 49
-1.0
 74
     0
  0
LTYPE
  5
21
100
AcDbSymbolTableRecord
100
AcDbLinetypeTableRecord
  2
EXLTYPE5
 70
    64
  3
三点鎖線
 72
    65
 73
     8
 40
37.0
 49
30.0
 74
     0
 49
-1.0
 74
     0
 49
1.0
 74
     0
 49
-1.0
 74
     0
 49
1.0
 74
     0
 49
-1.0
 74
     0
 49
1.0
 74
     0
 49
-1.0
 74
     0
  0
LTYPE
  5
22
100
AcDbSymbolTableRecord
100
AcDbLinetypeTableRecord
  2
EXLTYPE6
 70
    64
  3
四点鎖線
 72
    65
 73
    10
 40
39.0
 49
30.0
 74
     0
 49
-1.0
 74
     0
 49
1.0
 74
     0
 49
-1.0
 74
     0
 49
1.0
 74
     0
 49
-1.0
 74
     0
 49
1.0
 74
     0
 49
-1.0
 74
     0
 49
1.0
 74
     0
 49
-1.0
 74
     0
  0
ENDTAB
  0
TABLE
  2
LAYER
  5
2
100
AcDbSymbolTable
 70
     3
  0
LAYER
  5
14
100
AcDbSymbolTableRecord
100
AcDbLayerTableRecord
  2
0
 70
     0
 62
     7
  6
CONTINUOUS
  0
LAYER
  5
25
100
AcDbSymbolTableRecord
100
AcDbLayerTableRecord
  2
LAY-1
 70
    64
 62
     7
  6
CONTINUOUS
  0
LAYER
  5
26
100
AcDbSymbolTableRecord
100
AcDbLayerTableRecord
  2
LAY-3
 70
    64
 62
     1
  6
CONTINUOUS
  0
ENDTAB
  0
TABLE
  2
STYLE
  5
3
100
AcDbSymbolTable
 70
     3
  0
STYLE
  5
17
100
AcDbSymbolTableRecord
100
AcDbTextStyleTableRecord
  2
STANDARD
 70
     0
 40
0.0
 41
1.0
 50
0.0
 71
     0
 42
0.0
  3
monotxt
  4
extfont
  0
STYLE
  5
23
100
AcDbSymbolTableRecord
100
AcDbTextStyleTableRecord
  2
EXCADSTD
 70
    64
 40
0.0
 41
1.0
 50
0.0
 71
     0
 42
0.2
  3
monotxt
  4
extfont
  0
STYLE
  5
24
100
AcDbSymbolTableRecord
100
AcDbTextStyleTableRecord
  2
EXCADVERT
 70
    68
 40
0.0
 41
1.0
 50
0.0
 71
     0
 42
0.286885
  3
monotxt
  4
extfont
  0
ENDTAB
  0
TABLE
  2
VIEW
  5
5
100
AcDbSymbolTable
 70
     0
  0
ENDTAB
  0
TABLE
  2
UCS
  5
6
100
AcDbSymbolTable
 70
     0
  0
ENDTAB
  0
TABLE
  2
APPID
  5
8
100
AcDbSymbolTable
 70
     1
  0
APPID
  5
16
100
AcDbSymbolTableRecord
100
AcDbRegAppTableRecord
  2
ACAD
 70
     0
  0
ENDTAB
  0
TABLE
  2
DIMSTYLE
  5
9
100
AcDbSymbolTable
 70
     1
  0
DIMSTYLE
105
18
100
AcDbSymbolTableRecord
100
AcDbDimStyleTableRecord
  2
STANDARD
 70
     0
  3

  4

  5

  6

  7

 40
1.0
 41
0.18
 42
0.0625
 43
0.38
 44
0.18
 45
0.0
 46
0.0
 47
0.0
 48
0.0
 71
     0
 72
     0
 73
     1
 74
     1
 75
     0
 76
     0
 77
     0
 78
     0
140
0.18
141
0.09
142
0.0
143
25.4
144
1.0
145
0.0
146
1.0
147
0.09
170
     0
171
     2
172
     1
173
     0
174
     0
175
     0
176
     0
177
     0
178
     0
270
     2
271
     4
272
     4
273
     2
274
     2
275
     0
280
     0
281
     0
282
     0
283
     1
284
     0
285
     0
286
     0
287
     3
288
     0
340
17
  0
ENDTAB
  0
TABLE
  2
BLOCK_RECORD
  5
1
100
AcDbSymbolTable
 70
    15
  0
BLOCK_RECORD
  5
A
100
AcDbSymbolTableRecord
100
AcDbBlockTableRecord
  2
*MODEL_SPACE
  0
BLOCK_RECORD
  5
B
100
AcDbSymbolTableRecord
100
AcDbBlockTableRecord
  2
*PAPER_SPACE
  0
BLOCK_RECORD
  5
27
100
AcDbSymbolTableRecord
100
AcDbBlockTableRecord
  2
_EX_NORM
  0
BLOCK_RECORD
  5
28
100
AcDbSymbolTableRecord
100
AcDbBlockTableRecord
  2
_EX_BNORM
  0
BLOCK_RECORD
  5
29
100
AcDbSymbolTableRecord
100
AcDbBlockTableRecord
  2
_EX_BCIR
  0
BLOCK_RECORD
  5
2A
100
AcDbSymbolTableRecord
100
AcDbBlockTableRecord
  2
_EX_RCIVIL
  0
BLOCK_RECORD
  5
2B
100
AcDbSymbolTableRecord
100
AcDbBlockTableRecord
  2
_EX_SLANT
  0
BLOCK_RECORD
  5
2C
100
AcDbSymbolTableRecord
100
AcDbBlockTableRecord
  2
_EX_NONE
  0
BLOCK_RECORD
  5
2D
100
AcDbSymbolTableRecord
100
AcDbBlockTableRecord
  2
_EX_CIVIL
  0
BLOCK_RECORD
  5
2E
100
AcDbSymbolTableRecord
100
AcDbBlockTableRecord
  2
_EX_WCIR
  0
BLOCK_RECORD
  5
2F
100
AcDbSymbolTableRecord
100
AcDbBlockTableRecord
  2
_EX_WCIR2
  0
BLOCK_RECORD
  5
30
100
AcDbSymbolTableRecord
100
AcDbBlockTableRecord
  2
_EX_WNORM
  0
BLOCK_RECORD
  5
31
100
AcDbSymbolTableRecord
100
AcDbBlockTableRecord
  2
_EX_NNORM
  0
BLOCK_RECORD
  5
32
100
AcDbSymbolTableRecord
100
AcDbBlockTableRecord
  2
_EX_BBOX
  0
BLOCK_RECORD
  5
33
100
AcDbSymbolTableRecord
100
AcDbBlockTableRecord
  2
_EX_WBOX
  0
BLOCK_RECORD
  5
34
100
AcDbSymbolTableRecord
100
AcDbBlockTableRecord
  2
_EX_INTEGRAL
  0
BLOCK_RECORD
  5
35
100
AcDbSymbolTableRecord
100
AcDbBlockTableRecord
  2
SYM-1
  0
ENDTAB
  0
ENDSEC
  0
SECTION
  2
BLOCKS
  0
BLOCK
  5
D
100
AcDbEntity
  8
0
100
AcDbBlockBegin
  2
*MODEL_SPACE
 70
     0
 10
0.0
 20
0.0
 30
0.0
  3
*MODEL_SPACE
  1

  0
ENDBLK
  5
E
100
AcDbEntity
  8
0
100
AcDbBlockEnd
  0
BLOCK
  5
F
100
AcDbEntity
 67
     1
  8
0
100
AcDbBlockBegin
  2
*PAPER_SPACE
 70
     0
 10
0.0
 20
0.0
 30
0.0
  3
*PAPER_SPACE
  1

  0
ENDBLK
  5
10
100
AcDbEntity
 67
     1
  8
0
100
AcDbBlockEnd
  0
BLOCK
  5
36
100
AcDbEntity
  8
0
100
AcDbBlockBegin
  2
_EX_NORM
 70
     0
 10
0.0
 20
0.0
 30
0.0
  3
_EX_NORM
  1

  0
LINE
  5
37
100
AcDbEntity
  8
0
  6
CONTINUOUS
 62
     0
100
AcDbLine
 10
0.0
 20
0.0
 30
0.0
 11
-1.0
 21
0.0
 31
0.0
  0
LINE
  5
38
100
AcDbEntity
  8
0
  6
CONTINUOUS
 62
     0
100
AcDbLine
 10
0.0
 20
0.0
 30
0.0
 11
-1.0
 21
0.166667
 31
0.0
  0
LINE
  5
39
100
AcDbEntity
  8
0
  6
CONTINUOUS
 62
     0
100
AcDbLine
 10
0.0
 20
0.0
 30
0.0
 11
-1.0
 21
-0.166667
 31
0.0
  0
ENDBLK
  5
3A
100
AcDbEntity
  8
0
100
AcDbBlockEnd
  0
BLOCK
  5
3B
100
AcDbEntity
  8
0
100
AcDbBlockBegin
  2
_EX_BNORM
 70
     0
 10
0.0
 20
0.0
 30
0.0
  3
_EX_BNORM
  1

  0
LINE
  5
3C
100
AcDbEntity
  8
0
  6
CONTINUOUS
 62
     0
100
AcDbLine
 10
0.0
 20
0.0
 30
0.0
 11
-1.0
 21
0.0
 31
0.0
  0
LINE
  5
3D
100
AcDbEntity
  8
0
  6
CONTINUOUS
 62
     0
100
AcDbLine
 10
0.0
 20
0.0
 30
0.0
 11
-1.0
 21
0.166667
 31
0.0
  0
LINE
  5
3E
100
AcDbEntity
  8
0
  6
CONTINUOUS
 62
     0
100
AcDbLine
 10
0.0
 20
0.0
 30
0.0
 11
-1.0
 21
-0.166667
 31
0.0
  0
LINE
  5
3F
100
AcDbEntity
  8
0
  6
CONTINUOUS
 62
     0
100
AcDbLine
 10
0.0
 20
0.0
 30
0.0
 11
-1.0
 21
0.083333
 31
0.0
  0
LINE
  5
40
100
AcDbEntity
  8
0
  6
CONTINUOUS
 62
     0
100
AcDbLine
 10
0.0
 20
0.0
 30
0.0
 11
-1.0
 21
-0.083333
 31
0.0
  0
LINE
  5
41
100
AcDbEntity
  8
0
  6
CONTINUOUS
 62
     0
100
AcDbLine
 10
-1.0
 20
0.166667
 30
0.0
 11
-1.0
 21
-0.166667
 31
0.0
  0
ENDBLK
  5
42
100
AcDbEntity
  8
0
100
AcDbBlockEnd
  0
BLOCK
  5
43
100
AcDbEntity
  8
0
100
AcDbBlockBegin
  2
_EX_BCIR
 70
     0
 10
0.0
 20
0.0
 30
0.0
  3
_EX_BCIR
  1

  0
LINE
  5
44
100
AcDbEntity
  8
0
  6
CONTINUOUS
 62
     0
100
AcDbLine
 10
0.0
 20
0.0
 30
0.0
 11
-1.0
 21
0.0
 31
0.0
  0
CIRCLE
  5
45
100
AcDbEntity
  8
0
  6
CONTINUOUS
 62
     0
100
AcDbCircle
 10
0.0
 20
0.0
 30
0.0
 40
0.5
  0
CIRCLE
  5
46
100
AcDbEntity
  8
0
  6
CONTINUOUS
 62
     0
100
AcDbCircle
 10
0.0
 20
0.0
 30
0.0
 40
0.25
  0
ENDBLK
  5
47
100
AcDbEntity
  8
0
100
AcDbBlockEnd
  0
BLOCK
  5
48
100
AcDbEntity
  8
0
100
AcDbBlockBegin
  2
_EX_RCIVIL
 70
     0
 10
0.0
 20
0.0
 30
0.0
  3
_EX_RCIVIL
  1

  0
LINE
  5
49
100
AcDbEntity
  8
0
  6
CONTINUOUS
 62
     0
100
AcDbLine
 10
0.0
 20
0.0
 30
0.0
 11
-1.0
 21
0.0
 31
0.0
  0
LINE
  5
4A
100
AcDbEntity
  8
0
  6
CONTINUOUS
 62
     0
100
AcDbLine
 10
-1.0
 20
-0.25
 30
0.0
 11
0.0
 21
-0.25
 31
0.0
  0
LINE
  5
4B
100
AcDbEntity
  8
0
  6
CONTINUOUS
 62
     0
100
AcDbLine
 10
-1.0
 20
-0.125
 30
0.0
 11
0.0
 21
-0.125
 31
0.0
  0
ENDBLK
  5
4C
100
AcDbEntity
  8
0
100
AcDbBlockEnd
  0
BLOCK
  5
4D
100
AcDbEntity
  8
0
100
AcDbBlockBegin
  2
_EX_SLANT
 70
     0
 10
0.0
 20
0.0
 30
0.0
  3
_EX_SLANT
  1

  0
LINE
  5
4E
100
AcDbEntity
  8
0
  6
CONTINUOUS
 62
     0
100
AcDbLine
 10
0.0
 20
0.0
 30
0.0
 11
-1.0
 21
0.0
 31
0.0
  0
LINE
  5
4F
100
AcDbEntity
  8
0
  6
CONTINUOUS
 62
     0
100
AcDbLine
 10
0.707107
 20
0.707107
 30
0.0
 11
-0.707107
 21
-0.707107
 31
0.0
  0
ENDBLK
  5
50
100
AcDbEntity
  8
0
100
AcDbBlockEnd
  0
BLOCK
  5
51
100
AcDbEntity
  8
0
100
AcDbBlockBegin
  2
_EX_NONE
 70
     0
 10
0.0
 20
0.0
 30
0.0
  3
_EX_NONE
  1

  0
LINE
  5
52
100
AcDbEntity
  8
0
  6
CONTINUOUS
 62
     0
100
AcDbLine
 10
0.0
 20
0.0
 30
0.0
 11
-1.0
 21
0.0
 31
0.0
  0
ENDBLK
  5
53
100
AcDbEntity
  8
0
100
AcDbBlockEnd
  0
BLOCK
  5
54
100
AcDbEntity
  8
0
100
AcDbBlockBegin
  2
_EX_CIVIL
 70
     0
 10
0.0
 20
0.0
 30
0.0
  3
_EX_CIVIL
  1

  0
LINE
  5
55
100
AcDbEntity
  8
0
  6
CONTINUOUS
 62
     0
100
AcDbLine
 10
0.0
 20
0.0
 30
0.0
 11
-1.0
 21
0.0
 31
0.0
  0
LINE
  5
56
100
AcDbEntity
  8
0
  6
CONTINUOUS
 62
     0
100
AcDbLine
 10
-1.0
 20
0.25
 30
0.0
 11
0.0
 21
0.25
 31
0.0
  0
LINE
  5
57
100
AcDbEntity
  8
0
  6
CONTINUOUS
 62
     0
100
AcDbLine
 10
-1.0
 20
0.125
 30
0.0
 11
0.0
 21
0.125
 31
0.0
  0
ENDBLK
  5
58
100
AcDbEntity
  8
0
100
AcDbBlockEnd
  0
BLOCK
  5
59
100
AcDbEntity
  8
0
100
AcDbBlockBegin
  2
_EX_WCIR
 70
     0
 10
0.0
 20
0.0
 30
0.0
  3
_EX_WCIR
  1

  0
LINE
  5
5A
100
AcDbEntity
  8
0
  6
CONTINUOUS
 62
     0
100
AcDbLine
 10
0.0
 20
0.0
 30
0.0
 11
-1.0
 21
0.0
 31
0.0
  0
CIRCLE
  5
5B
100
AcDbEntity
  8
0
  6
CONTINUOUS
 62
     0
100
AcDbCircle
 10
0.0
 20
0.0
 30
0.0
 40
0.5
  0
ENDBLK
  5
5C
100
AcDbEntity
  8
0
100
AcDbBlockEnd
  0
BLOCK
  5
5D
100
AcDbEntity
  8
0
100
AcDbBlockBegin
  2
_EX_WCIR2
 70
     0
 10
0.0
 20
0.0
 30
0.0
  3
_EX_WCIR2
  1

  0
LINE
  5
5E
100
AcDbEntity
  8
0
  6
CONTINUOUS
 62
     0
100
AcDbLine
 10
-0.5
 20
0.0
 30
0.0
 11
-1.0
 21
0.0
 31
0.0
  0
CIRCLE
  5
5F
100
AcDbEntity
  8
0
  6
CONTINUOUS
 62
     0
100
AcDbCircle
 10
0.0
 20
0.0
 30
0.0
 40
0.5
  0
ENDBLK
  5
60
100
AcDbEntity
  8
0
100
AcDbBlockEnd
  0
BLOCK
  5
61
100
AcDbEntity
  8
0
100
AcDbBlockBegin
  2
_EX_WNORM
 70
     0
 10
0.0
 20
0.0
 30
0.0
  3
_EX_WNORM
  1

  0
LINE
  5
62
100
AcDbEntity
  8
0
  6
CONTINUOUS
 62
     0
100
AcDbLine
 10
-1.0
 20
0.0
 30
0.0
 11
-1.0
 21
0.0
 31
0.0
  0
LINE
  5
63
100
AcDbEntity
  8
0
  6
CONTINUOUS
 62
     0
100
AcDbLine
 10
0.0
 20
0.0
 30
0.0
 11
-1.0
 21
0.166667
 31
0.0
  0
LINE
  5
64
100
AcDbEntity
  8
0
  6
CONTINUOUS
 62
     0
100
AcDbLine
 10
0.0
 20
0.0
 30
0.0
 11
-1.0
 21
-0.166667
 31
0.0
  0
LINE
  5
65
100
AcDbEntity
  8
0
  6
CONTINUOUS
 62
     0
100
AcDbLine
 10
-1.0
 20
0.166667
 30
0.0
 11
-1.0
 21
-0.166667
 31
0.0
  0
ENDBLK
  5
66
100
AcDbEntity
  8
0
100
AcDbBlockEnd
  0
BLOCK
  5
67
100
AcDbEntity
  8
0
100
AcDbBlockBegin
  2
_EX_NNORM
 70
     0
 10
0.0
 20
0.0
 30
0.0
  3
_EX_NNORM
  1

  0
LINE
  5
68
100
AcDbEntity
  8
0
  6
CONTINUOUS
 62
     0
100
AcDbLine
 10
0.0
 20
0.0
 30
0.0
 11
-1.0
 21
0.0
 31
0.0
  0
LINE
  5
69
100
AcDbEntity
  8
0
  6
CONTINUOUS
 62
     0
100
AcDbLine
 10
0.0
 20
0.0
 30
0.0
 11
-1.0
 21
0.166667
 31
0.0
  0
LINE
  5
6A
100
AcDbEntity
  8
0
  6
CONTINUOUS
 62
     0
100
AcDbLine
 10
0.0
 20
0.0
 30
0.0
 11
-1.0
 21
-0.166667
 31
0.0
  0
LINE
  5
6B
100
AcDbEntity
  8
0
  6
CONTINUOUS
 62
     0
100
AcDbLine
 10
-1.0
 20
0.166667
 30
0.0
 11
-1.0
 21
-0.166667
 31
0.0
  0
ENDBLK
  5
6C
100
AcDbEntity
  8
0
100
AcDbBlockEnd
  0
BLOCK
  5
6D
100
AcDbEntity
  8
0
100
AcDbBlockBegin
  2
_EX_BBOX
 70
     0
 10
0.0
 20
0.0
 30
0.0
  3
_EX_BBOX
  1

  0
LINE
  5
6E
100
AcDbEntity
  8
0
  6
CONTINUOUS
 62
     0
100
AcDbLine
 10
0.0
 20
0.0
 30
0.0
 11
-1.0
 21
0.0
 31
0.0
  0
LINE
  5
6F
100
AcDbEntity
  8
0
  6
CONTINUOUS
 62
     0
100
AcDbLine
 10
-0.5
 20
0.5
 30
0.0
 11
0.5
 21
0.5
 31
0.0
  0
LINE
  5
70
100
AcDbEntity
  8
0
  6
CONTINUOUS
 62
     0
100
AcDbLine
 10
0.5
 20
0.5
 30
0.0
 11
0.5
 21
-0.5
 31
0.0
  0
LINE
  5
71
100
AcDbEntity
  8
0
  6
CONTINUOUS
 62
     0
100
AcDbLine
 10
0.5
 20
-0.5
 30
0.0
 11
-0.5
 21
-0.5
 31
0.0
  0
LINE
  5
72
100
AcDbEntity
  8
0
  6
CONTINUOUS
 62
     0
100
AcDbLine
 10
-0.5
 20
-0.5
 30
0.0
 11
-0.5
 21
0.5
 31
0.0
  0
LINE
  5
73
100
AcDbEntity
  8
0
  6
CONTINUOUS
 62
     0
100
AcDbLine
 10
-0.25
 20
0.25
 30
0.0
 11
0.25
 21
0.25
 31
0.0
  0
LINE
  5
74
100
AcDbEntity
  8
0
  6
CONTINUOUS
 62
     0
100
AcDbLine
 10
0.25
 20
0.25
 30
0.0
 11
0.25
 21
-0.25
 31
0.0
  0
LINE
  5
75
100
AcDbEntity
  8
0
  6
CONTINUOUS
 62
     0
100
AcDbLine
 10
0.25
 20
-0.25
 30
0.0
 11
-0.25
 21
-0.25
 31
0.0
  0
LINE
  5
76
100
AcDbEntity
  8
0
  6
CONTINUOUS
 62
     0
100
AcDbLine
 10
-0.25
 20
-0.25
 30
0.0
 11
-0.25
 21
0.25
 31
0.0
  0
ENDBLK
  5
77
100
AcDbEntity
  8
0
100
AcDbBlockEnd
  0
BLOCK
  5
78
100
AcDbEntity
  8
0
100
AcDbBlockBegin
  2
_EX_WBOX
 70
     0
 10
0.0
 20
0.0
 30
0.0
  3
_EX_WBOX
  1

  0
LINE
  5
79
100
AcDbEntity
  8
0
  6
CONTINUOUS
 62
     0
100
AcDbLine
 10
-0.5
 20
0.0
 30
0.0
 11
-1.0
 21
0.0
 31
0.0
  0
LINE
  5
7A
100
AcDbEntity
  8
0
  6
CONTINUOUS
 62
     0
100
AcDbLine
 10
-0.5
 20
0.5
 30
0.0
 11
0.5
 21
0.5
 31
0.0
  0
LINE
  5
7B
100
AcDbEntity
  8
0
  6
CONTINUOUS
 62
     0
100
AcDbLine
 10
0.5
 20
0.5
 30
0.0
 11
0.5
 21
-0.5
 31
0.0
  0
LINE
  5
7C
100
AcDbEntity
  8
0
  6
CONTINUOUS
 62
     0
100
AcDbLine
 10
0.5
 20
-0.5
 30
0.0
 11
-0.5
 21
-0.5
 31
0.0
  0
LINE
  5
7D
100
AcDbEntity
  8
0
  6
CONTINUOUS
 62
     0
100
AcDbLine
 10
-0.5
 20
-0.5
 30
0.0
 11
-0.5
 21
0.5
 31
0.0
  0
ENDBLK
  5
7E
100
AcDbEntity
  8
0
100
AcDbBlockEnd
  0
BLOCK
  5
7F
100
AcDbEntity
  8
0
100
AcDbBlockBegin
  2
_EX_INTEGRAL
 70
     0
 10
0.0
 20
0.0
 30
0.0
  3
_EX_INTEGRAL
  1

  0
LINE
  5
80
100
AcDbEntity
  8
0
  6
CONTINUOUS
 62
     0
100
AcDbLine
 10
0.0
 20
0.0
 30
0.0
 11
-1.0
 21
0.0
 31
0.0
  0
ARC
  5
81
100
AcDbEntity
  8
0
  6
CONTINUOUS
 62
     0
100
AcDbCircle
 10
0.542115
 20
0.164992
 30
0.0
 40
0.56667
100
AcDbArc
 50
73.07249
 51
196.927513
  0
ARC
  5
82
100
AcDbEntity
  8
0
  6
CONTINUOUS
 62
     0
100
AcDbCircle
 10
-0.542115
 20
-0.164992
 30
0.0
 40
0.56667
100
AcDbArc
 50
253.072487
 51
16.927513
  0
ENDBLK
  5
83
100
AcDbEntity
  8
0
100
AcDbBlockEnd
  0
BLOCK
  5
84
100
AcDbEntity
  8
0
100
AcDbBlockBegin
  2
SYM-1
 70
     0
 10
0.0
 20
0.0
 30
0.0
  3
SYM-1
  1

  0
LINE
  5
85
100
AcDbEntity
  8
0
  6
CONTINUOUS
 62
     1
100
AcDbLine
 10
-0.925
 20
-8.775
 30
0.0
 11
3.775
 21
-8.775
 31
0.0
  0
LINE
  5
86
100
AcDbEntity
  8
0
  6
CONTINUOUS
 62
     1
100
AcDbLine
 10
3.775
 20
-8.775
 30
0.0
 11
2.95
 21
-8.05
 31
0.0
  0
LINE
  5
87
100
AcDbEntity
  8
0
  6
CONTINUOUS
 62
     1
100
AcDbLine
 10
2.95
 20
0.0
 30
0.0
 11
5.711955
 21
0.0
 31
0.0
  0
LINE
  5
88
100
AcDbEntity
  8
0
  6
CONTINUOUS
 62
     1
100
AcDbLine
 10
5.711955
 20
0.0
 30
0.0
 11
6.770448
 21
-0.611122
 31
0.0
  0
LINE
  5
89
100
AcDbEntity
  8
0
  6
CONTINUOUS
 62
     1
100
AcDbLine
 10
6.770448
 20
-0.611122
 30
0.0
 11
4.7
 21
2.975
 31
0.0
  0
LINE
  5
8A
100
AcDbEntity
  8
0
  6
CONTINUOUS
 62
     1
100
AcDbLine
 10
4.7
 20
2.975
 30
0.0
 11
4.1
 21
2.375
 31
0.0
  0
LINE
  5
8B
100
AcDbEntity
  8
0
  6
CONTINUOUS
 62
     1
100
AcDbLine
 10
4.1
 20
2.375
 30
0.0
 11
-1.2
 21
2.375
 31
0.0
  0
LINE
  5
8C
100
AcDbEntity
  8
0
  6
CONTINUOUS
 62
     1
100
AcDbLine
 10
-1.2
 20
2.375
 30
0.0
 11
-1.2
 21
7.618706
 31
0.0
  0
LINE
  5
8D
100
AcDbEntity
  8
0
  6
CONTINUOUS
 62
     1
100
AcDbLine
 10
-4.1
 20
2.375
 30
0.0
 11
-4.7
 21
2.975
 31
0.0
  0
LINE
  5
8E
100
AcDbEntity
  8
0
  6
CONTINUOUS
 62
     1
100
AcDbLine
 10
-4.7
 20
2.975
 30
0.0
 11
-6.770448
 21
-0.611122
 31
0.0
  0
LINE
  5
8F
100
AcDbEntity
  8
0
  6
CONTINUOUS
 62
     1
100
AcDbLine
 10
-6.770448
 20
-0.611122
 30
0.0
 11
-5.711955
 21
0.0
 31
0.0
  0
LINE
  5
90
100
AcDbEntity
  8
0
  6
CONTINUOUS
 62
     1
100
AcDbLine
 10
-5.711955
 20
0.0
 30
0.0
 11
-3.8
 21
0.0
 31
0.0
  0
LINE
  5
91
100
AcDbEntity
  8
0
  6
CONTINUOUS
 62
     1
100
AcDbLine
 10
-3.8
 20
0.0
 30
0.0
 11
-3.8
 21
-3.125
 31
0.0
  0
LINE
  5
92
100
AcDbEntity
  8
0
  6
CONTINUOUS
 62
     1
100
AcDbLine
 10
-3.8
 20
-3.125
 30
0.0
 11
-4.85
 21
-3.65
 31
0.0
  0
LINE
  5
93
100
AcDbEntity
  8
0
  6
CONTINUOUS
 62
     1
100
AcDbLine
 10
-4.85
 20
-3.65
 30
0.0
 11
0.0
 21
-3.65
 31
0.0
  0
LINE
  5
94
100
AcDbEntity
  8
0
  6
CONTINUOUS
 62
     1
100
AcDbLine
 10
0.0
 20
-3.65
 30
0.0
 11
-1.2
 21
-3.125
 31
0.0
  0
LINE
  5
95
100
AcDbEntity
  8
0
  6
CONTINUOUS
 62
     1
100
AcDbLine
 10
-1.2
 20
-3.125
 30
0.0
 11
-1.2
 21
0.0
 31
0.0
  0
LINE
  5
96
100
AcDbEntity
  8
0
  6
CONTINUOUS
 62
     1
100
AcDbLine
 10
-1.2
 20
0.0
 30
0.0
 11
0.0
 21
0.0
 31
0.0
  0
ELLIPSE
  5
97
100
AcDbEntity
  8
0
  6
CONTINUOUS
 62
     1
100
AcDbEllipse
 10
0.0
 20
0.0
 30
0.0
 11
-0.2271076736246198
 21
7.7216609032371322
 31
0.0
210
0.0
220
0.0
230
1.0
 40
0.912621
 41
0.5369857443297313
 42
3.1093760194933928
  0
ARC
  5
98
100
AcDbEntity
  8
0
  6
CONTINUOUS
 62
     1
100
AcDbCircle
 10
0.0
 20
0.0
 30
0.0
 40
7.997695
100
AcDbArc
 50
118.368264
 51
270.0
  0
LINE
  5
99
100
AcDbEntity
  8
0
  6
CONTINUOUS
 62
     1
100
AcDbLine
 10
-6.156163
 20
5.105368
 30
0.0
 11
-5.105368
 21
6.156163
 31
0.0
  0
LINE
  5
9A
100
AcDbEntity
  8
0
  6
CONTINUOUS
 62
     1
100
AcDbLine
 10
-7.037267
 20
3.8
 30
0.0
 11
-3.8
 21
7.037267
 31
0.0
  0
LINE
  5
9B
100
AcDbEntity
  8
0
  6
CONTINUOUS
 62
     1
100
AcDbLine
 10
-7.414194
 20
2.998809
 30
0.0
 11
-5.348454
 21
5.064549
 31
0.0
  0
LINE
  5
9C
100
AcDbEntity
  8
0
  6
CONTINUOUS
 62
     1
100
AcDbLine
 10
-4.121782
 20
6.291221
 30
0.0
 11
-3.8
 21
6.613003
 31
0.0
  0
LINE
  5
9D
100
AcDbEntity
  8
0
  6
CONTINUOUS
 62
     1
100
AcDbLine
 10
-7.647262
 20
2.341477
 30
0.0
 11
-6.123111
 21
3.865628
 31
0.0
  0
LINE
  5
9E
100
AcDbEntity
  8
0
  6
CONTINUOUS
 62
     1
100
AcDbLine
 10
-7.800808
 20
1.763667
 30
0.0
 11
-6.478615
 21
3.08586
 31
0.0
  0
LINE
  5
9F
100
AcDbEntity
  8
0
  6
CONTINUOUS
 62
     1
100
AcDbLine
 10
-7.901126
 20
1.239084
 30
0.0
 11
-6.702051
 21
2.43816
 31
0.0
  0
LINE
  5
A0
100
AcDbEntity
  8
0
  6
CONTINUOUS
 62
     1
100
AcDbLine
 10
-7.962086
 20
0.75386
 30
0.0
 11
-6.851122
 21
1.864824
 31
0.0
  0
LINE
  5
A1
100
AcDbEntity
  8
0
  6
CONTINUOUS
 62
     1
100
AcDbLine
 10
-7.992081
 20
0.299601
 30
0.0
 11
-6.949917
 21
1.341765
 31
0.0
  0
LINE
  5
A2
100
AcDbEntity
  8
0
  6
CONTINUOUS
 62
     1
100
AcDbLine
 10
-7.996651
 20
-0.129232
 30
0.0
 11
-7.011274
 21
0.856144
 31
0.0
  0
LINE
  5
A3
100
AcDbEntity
  8
0
  6
CONTINUOUS
 62
     1
100
AcDbLine
 10
-7.979678
 20
-0.536524
 30
0.0
 11
-7.043008
 21
0.400146
 31
0.0
  0
LINE
  5
A4
100
AcDbEntity
  8
0
  6
CONTINUOUS
 62
     1
100
AcDbLine
 10
-7.944009
 20
-0.925119
 30
0.0
 11
-7.050297
 21
-0.031406
 31
0.0
  0
LINE
  5
A5
100
AcDbEntity
  8
0
  6
CONTINUOUS
 62
     1
100
AcDbLine
 10
-7.891798
 20
-1.297172
 30
0.0
 11
-7.036778
 21
-0.442151
 31
0.0
  0
LINE
  5
A6
100
AcDbEntity
  8
0
  6
CONTINUOUS
 62
     1
100
AcDbLine
 10
-7.824719
 20
-1.654357
 30
0.0
 11
-7.005119
 21
-0.834757
 31
0.0
  0
LINE
  5
A7
100
AcDbEntity
  8
0
  6
CONTINUOUS
 62
     1
100
AcDbLine
 10
-7.744101
 20
-1.998003
 30
0.0
 11
-6.95734
 21
-1.211242
 31
0.0
  0
LINE
  5
A8
100
AcDbEntity
  8
0
  6
CONTINUOUS
 62
     1
100
AcDbLine
 10
-7.651016
 20
-2.329182
 30
0.0
 11
-6.895012
 21
-1.573178
 31
0.0
  0
LINE
  5
A9
100
AcDbEntity
  8
0
  6
CONTINUOUS
 62
     1
100
AcDbLine
 10
-7.546335
 20
-2.648765
 30
0.0
 11
-6.819374
 21
-1.921804
 31
0.0
  0
LINE
  5
AA
100
AcDbEntity
  8
0
  6
CONTINUOUS
 62
     1
100
AcDbLine
 10
-7.430779
 20
-2.957473
 30
0.0
 11
-6.731425
 21
-2.258119
 31
0.0
  0
LINE
  5
AB
100
AcDbEntity
  8
0
  6
CONTINUOUS
 62
     1
100
AcDbLine
 10
-7.304945
 20
-3.255903
 30
0.0
 11
-6.631973
 21
-2.582931
 31
0.0
  0
LINE
  5
AC
100
AcDbEntity
  8
0
  6
CONTINUOUS
 62
     1
100
AcDbLine
 10
-7.169329
 20
-3.544551
 30
0.0
 11
-6.52168
 21
-2.896903
 31
0.0
  0
LINE
  5
AD
100
AcDbEntity
  8
0
  6
CONTINUOUS
 62
     1
100
AcDbLine
 10
-7.024346
 20
-3.823832
 30
0.0
 11
-6.401091
 21
-3.200577
 31
0.0
  0
LINE
  5
AE
100
AcDbEntity
  8
0
  6
CONTINUOUS
 62
     1
100
AcDbLine
 10
-6.870339
 20
-4.094089
 30
0.0
 11
-6.27065
 21
-3.494401
 31
0.0
  0
LINE
  5
AF
100
AcDbEntity
  8
0
  6
CONTINUOUS
 62
     1
100
AcDbLine
 10
-6.707593
 20
-4.355608
 30
0.0
 11
-6.130724
 21
-3.778738
 31
0.0
  0
LINE
  5
B0
100
AcDbEntity
  8
0
  6
CONTINUOUS
 62
     1
100
AcDbLine
 10
-6.536341
 20
-4.608619
 30
0.0
 11
-5.981607
 21
-4.053885
 31
0.0
  0
LINE
  5
B1
100
AcDbEntity
  8
0
  6
CONTINUOUS
 62
     1
100
AcDbLine
 10
-6.356768
 20
-4.853311
 30
0.0
 11
-5.823534
 21
-4.320076
 31
0.0
  0
LINE
  5
B2
100
AcDbEntity
  8
0
  6
CONTINUOUS
 62
     1
100
AcDbLine
 10
-6.169019
 20
-5.089826
 30
0.0
 11
-5.656687
 21
-4.577493
 31
0.0
  0
LINE
  5
B3
100
AcDbEntity
  8
0
  6
CONTINUOUS
 62
     1
100
AcDbLine
 10
-5.9732
 20
-5.318271
 30
0.0
 11
-5.481198
 21
-4.826269
 31
0.0
  0
LINE
  5
B4
100
AcDbEntity
  8
0
  6
CONTINUOUS
 62
     1
100
AcDbLine
 10
-5.769381
 20
-5.538716
 30
0.0
 11
-5.297154
 21
-5.066489
 31
0.0
  0
LINE
  5
B5
100
AcDbEntity
  8
0
  6
CONTINUOUS
 62
     1
100
AcDbLine
 10
-5.557596
 20
-5.751195
 30
0.0
 11
-5.104599
 21
-5.298198
 31
0.0
  0
LINE
  5
B6
100
AcDbEntity
  8
0
  6
CONTINUOUS
 62
     1
100
AcDbLine
 10
-5.337848
 20
-5.955711
 30
0.0
 11
-4.903535
 21
-5.521398
 31
0.0
  0
LINE
  5
B7
100
AcDbEntity
  8
0
  6
CONTINUOUS
 62
     1
100
AcDbLine
 10
-5.110105
 20
-6.152232
 30
0.0
 11
-4.693922
 21
-5.736049
 31
0.0
  0
LINE
  5
B8
100
AcDbEntity
  8
0
  6
CONTINUOUS
 62
     1
100
AcDbLine
 10
-4.874298
 20
-6.340689
 30
0.0
 11
-4.475677
 21
-5.942068
 31
0.0
  0
LINE
  5
B9
100
AcDbEntity
  8
0
  6
CONTINUOUS
 62
     1
100
AcDbLine
 10
-4.630326
 20
-6.520982
 30
0.0
 11
-4.24867
 21
-6.139326
 31
0.0
  0
LINE
  5
BA
100
AcDbEntity
  8
0
  6
CONTINUOUS
 62
     1
100
AcDbLine
 10
-4.378048
 20
-6.692968
 30
0.0
 11
-4.012726
 21
-6.327646
 31
0.0
  0
LINE
  5
BB
100
AcDbEntity
  8
0
  6
CONTINUOUS
 62
     1
100
AcDbLine
 10
-4.117282
 20
-6.856465
 30
0.0
 11
-3.767614
 21
-6.506798
 31
0.0
  0
LINE
  5
BC
100
AcDbEntity
  8
0
  6
CONTINUOUS
 62
     1
100
AcDbLine
 10
-3.847799
 20
-7.011246
 30
0.0
 11
-3.513045
 21
-6.676492
 31
0.0
  0
LINE
  5
BD
100
AcDbEntity
  8
0
  6
CONTINUOUS
 62
     1
100
AcDbLine
 10
-3.569319
 20
-7.157031
 30
0.0
 11
-3.248659
 21
-6.836371
 31
0.0
  0
LINE
  5
BE
100
AcDbEntity
  8
0
  6
CONTINUOUS
 62
     1
100
AcDbLine
 10
-3.281505
 20
-7.29348
 30
0.0
 11
-2.974019
 21
-6.985995
 31
0.0
  0
LINE
  5
BF
100
AcDbEntity
  8
0
  6
CONTINUOUS
 62
     1
100
AcDbLine
 10
-2.983948
 20
-7.420187
 30
0.0
 11
-2.68859
 21
-7.12483
 31
0.0
  0
LINE
  5
C0
100
AcDbEntity
  8
0
  6
CONTINUOUS
 62
     1
100
AcDbLine
 10
-2.67616
 20
-7.536663
 30
0.0
 11
-2.391722
 21
-7.252226
 31
0.0
  0
LINE
  5
C1
100
AcDbEntity
  8
0
  6
CONTINUOUS
 62
     1
100
AcDbLine
 10
-2.357553
 20
-7.642321
 30
0.0
 11
-2.08262
 21
-7.367388
 31
0.0
  0
LINE
  5
C2
100
AcDbEntity
  8
0
  6
CONTINUOUS
 62
     1
100
AcDbLine
 10
-2.02742
 20
-7.736452
 30
0.0
 11
-1.760305
 21
-7.469336
 31
0.0
  0
LINE
  5
C3
100
AcDbEntity
  8
0
  6
CONTINUOUS
 62
     1
100
AcDbLine
 10
-1.684903
 20
-7.818199
 30
0.0
 11
-1.423559
 21
-7.556855
 31
0.0
  0
LINE
  5
C4
100
AcDbEntity
  8
0
  6
CONTINUOUS
 62
     1
100
AcDbLine
 10
-1.328949
 20
-7.886509
 30
0.0
 11
-1.070847
 21
-7.628407
 31
0.0
  0
LINE
  5
C5
100
AcDbEntity
  8
0
  6
CONTINUOUS
 62
     1
100
AcDbLine
 10
-0.958256
 20
-7.94008
 30
0.0
 11
-0.700194
 21
-7.682018
 31
0.0
  0
LINE
  5
C6
100
AcDbEntity
  8
0
  6
CONTINUOUS
 62
     1
100
AcDbLine
 10
-0.571184
 20
-7.977272
 30
0.0
 11
-0.308999
 21
-7.715087
 31
0.0
  0
LINE
  5
C7
100
AcDbEntity
  8
0
  6
CONTINUOUS
 62
     1
100
AcDbLine
 10
-0.165628
 20
-7.99598
 30
0.0
 11
0.0
 21
-7.830352
 31
0.0
  0
LINE
  5
C8
100
AcDbEntity
  8
0
  6
CONTINUOUS
 62
     1
100
AcDbLine
 10
-4.6
 20
9.575
 30
0.0
 11
-3.8
 21
7.037267
 31
0.0
  0
LINE
  5
C9
100
AcDbEntity
  8
0
  6
CONTINUOUS
 62
     1
100
AcDbLine
 10
0.0
 20
-7.997695
 30
0.0
 11
-0.925
 21
-8.775
 31
0.0
  0
LINE
  5
CA
100
AcDbEntity
  8
0
  6
CONTINUOUS
 62
     1
100
AcDbLine
 10
-3.8
 20
2.375
 30
0.0
 11
-4.1
 21
2.375
 31
0.0
  0
LINE
  5
CB
100
AcDbEntity
  8
0
  6
CONTINUOUS
 62
     1
100
AcDbLine
 10
-4.511824
 20
9.295291
 30
0.0
 11
-4.366479
 21
9.440636
 31
0.0
  0
LINE
  5
CC
100
AcDbEntity
  8
0
  6
CONTINUOUS
 62
     1
100
AcDbLine
 10
-4.410135
 20
8.972716
 30
0.0
 11
-4.09717
 21
9.285681
 31
0.0
  0
LINE
  5
CD
100
AcDbEntity
  8
0
  6
CONTINUOUS
 62
     1
100
AcDbLine
 10
-4.308446
 20
8.650141
 30
0.0
 11
-3.827861
 21
9.130726
 31
0.0
  0
LINE
  5
CE
100
AcDbEntity
  8
0
  6
CONTINUOUS
 62
     1
100
AcDbLine
 10
-4.206757
 20
8.327567
 30
0.0
 11
-3.558552
 21
8.975771
 31
0.0
  0
LINE
  5
CF
100
AcDbEntity
  8
0
  6
CONTINUOUS
 62
     1
100
AcDbLine
 10
-4.105067
 20
8.004992
 30
0.0
 11
-3.289243
 21
8.820816
 31
0.0
  0
LINE
  5
D0
100
AcDbEntity
  8
0
  6
CONTINUOUS
 62
     1
100
AcDbLine
 10
-4.003378
 20
7.682417
 30
0.0
 11
-3.019934
 21
8.665861
 31
0.0
  0
LINE
  5
D1
100
AcDbEntity
  8
0
  6
CONTINUOUS
 62
     1
100
AcDbLine
 10
-3.901689
 20
7.359842
 30
0.0
 11
-2.750625
 21
8.510906
 31
0.0
  0
LINE
  5
D2
100
AcDbEntity
  8
0
  6
CONTINUOUS
 62
     1
100
AcDbLine
 10
-3.8
 20
7.037267
 30
0.0
 11
-2.481316
 21
8.355951
 31
0.0
  0
LINE
  5
D3
100
AcDbEntity
  8
0
  6
CONTINUOUS
 62
     1
100
AcDbLine
 10
-3.8
 20
6.613003
 30
0.0
 11
-2.212007
 21
8.200995
 31
0.0
  0
LINE
  5
D4
100
AcDbEntity
  8
0
  6
CONTINUOUS
 62
     1
100
AcDbLine
 10
-3.8
 20
6.188739
 30
0.0
 11
-1.942698
 21
8.04604
 31
0.0
  0
LINE
  5
D5
100
AcDbEntity
  8
0
  6
CONTINUOUS
 62
     1
100
AcDbLine
 10
-3.8
 20
5.764475
 30
0.0
 11
-1.67339
 21
7.891085
 31
0.0
  0
LINE
  5
D6
100
AcDbEntity
  8
0
  6
CONTINUOUS
 62
     1
100
AcDbLine
 10
-3.8
 20
5.340211
 30
0.0
 11
-1.239084
 21
7.901126
 31
0.0
  0
LINE
  5
D7
100
AcDbEntity
  8
0
  6
CONTINUOUS
 62
     1
100
AcDbLine
 10
-3.8
 20
4.915947
 30
0.0
 11
-1.2
 21
7.515947
 31
0.0
  0
LINE
  5
D8
100
AcDbEntity
  8
0
  6
CONTINUOUS
 62
     1
100
AcDbLine
 10
-3.8
 20
4.491682
 30
0.0
 11
-1.2
 21
7.091682
 31
0.0
  0
LINE
  5
D9
100
AcDbEntity
  8
0
  6
CONTINUOUS
 62
     1
100
AcDbLine
 10
-3.8
 20
4.067418
 30
0.0
 11
-1.2
 21
6.667418
 31
0.0
  0
LINE
  5
DA
100
AcDbEntity
  8
0
  6
CONTINUOUS
 62
     1
100
AcDbLine
 10
-5.016707
 20
2.426447
 30
0.0
 11
-4.584077
 21
2.859077
 31
0.0
  0
LINE
  5
DB
100
AcDbEntity
  8
0
  6
CONTINUOUS
 62
     1
100
AcDbLine
 10
-3.8
 20
3.643154
 30
0.0
 11
-1.2
 21
6.243154
 31
0.0
  0
LINE
  5
DC
100
AcDbEntity
  8
0
  6
CONTINUOUS
 62
     1
100
AcDbLine
 10
-5.596263
 20
1.422628
 30
0.0
 11
-4.371945
 21
2.646945
 31
0.0
  0
LINE
  5
DD
100
AcDbEntity
  8
0
  6
CONTINUOUS
 62
     1
100
AcDbLine
 10
-3.8
 20
3.21889
 30
0.0
 11
-1.2
 21
5.81889
 31
0.0
  0
LINE
  5
DE
100
AcDbEntity
  8
0
  6
CONTINUOUS
 62
     1
100
AcDbLine
 10
-6.175818
 20
0.418808
 30
0.0
 11
-4.159813
 21
2.434813
 31
0.0
  0
LINE
  5
DF
100
AcDbEntity
  8
0
  6
CONTINUOUS
 62
     1
100
AcDbLine
 10
-3.8
 20
2.794626
 30
0.0
 11
-1.2
 21
5.394626
 31
0.0
  0
LINE
  5
E0
100
AcDbEntity
  8
0
  6
CONTINUOUS
 62
     1
100
AcDbLine
 10
-6.755374
 20
-0.585011
 30
0.0
 11
-1.2
 21
4.970362
 31
0.0
  0
LINE
  5
E1
100
AcDbEntity
  8
0
  6
CONTINUOUS
 62
     1
100
AcDbLine
 10
-5.792739
 20
-0.046641
 30
0.0
 11
-1.2
 21
4.546098
 31
0.0
  0
LINE
  5
E2
100
AcDbEntity
  8
0
  6
CONTINUOUS
 62
     1
100
AcDbLine
 10
-5.321834
 20
0.0
 30
0.0
 11
-1.2
 21
4.121834
 31
0.0
  0
LINE
  5
E3
100
AcDbEntity
  8
0
  6
CONTINUOUS
 62
     1
100
AcDbLine
 10
-4.89757
 20
0.0
 30
0.0
 11
-1.2
 21
3.69757
 31
0.0
  0
LINE
  5
E4
100
AcDbEntity
  8
0
  6
CONTINUOUS
 62
     1
100
AcDbLine
 10
-4.473306
 20
0.0
 30
0.0
 11
-1.2
 21
3.273306
 31
0.0
  0
LINE
  5
E5
100
AcDbEntity
  8
0
  6
CONTINUOUS
 62
     1
100
AcDbLine
 10
-4.049042
 20
0.0
 30
0.0
 11
-1.2
 21
2.849042
 31
0.0
  0
LINE
  5
E6
100
AcDbEntity
  8
0
  6
CONTINUOUS
 62
     1
100
AcDbLine
 10
-3.8
 20
-0.175222
 30
0.0
 11
-1.2
 21
2.424778
 31
0.0
  0
LINE
  5
E7
100
AcDbEntity
  8
0
  6
CONTINUOUS
 62
     1
100
AcDbLine
 10
-3.8
 20
-0.599486
 30
0.0
 11
-0.825514
 21
2.375
 31
0.0
  0
LINE
  5
E8
100
AcDbEntity
  8
0
  6
CONTINUOUS
 62
     1
100
AcDbLine
 10
-3.8
 20
-1.02375
 30
0.0
 11
-0.40125
 21
2.375
 31
0.0
  0
LINE
  5
E9
100
AcDbEntity
  8
0
  6
CONTINUOUS
 62
     1
100
AcDbLine
 10
-3.8
 20
-1.448015
 30
0.0
 11
0.023015
 21
2.375
 31
0.0
  0
LINE
  5
EA
100
AcDbEntity
  8
0
  6
CONTINUOUS
 62
     1
100
AcDbLine
 10
-3.8
 20
-1.872279
 30
0.0
 11
0.447279
 21
2.375
 31
0.0
  0
LINE
  5
EB
100
AcDbEntity
  8
0
  6
CONTINUOUS
 62
     1
100
AcDbLine
 10
-3.8
 20
-2.296543
 30
0.0
 11
0.871543
 21
2.375
 31
0.0
  0
LINE
  5
EC
100
AcDbEntity
  8
0
  6
CONTINUOUS
 62
     1
100
AcDbLine
 10
-4.729193
 20
-3.65
 30
0.0
 11
-4.608387
 21
-3.529193
 31
0.0
  0
LINE
  5
ED
100
AcDbEntity
  8
0
  6
CONTINUOUS
 62
     1
100
AcDbLine
 10
-3.8
 20
-2.720807
 30
0.0
 11
-1.2
 21
-0.120807
 31
0.0
  0
LINE
  5
EE
100
AcDbEntity
  8
0
  6
CONTINUOUS
 62
     1
100
AcDbLine
 10
-1.079193
 20
0.0
 30
0.0
 11
1.295807
 21
2.375
 31
0.0
  0
LINE
  5
EF
100
AcDbEntity
  8
0
  6
CONTINUOUS
 62
     1
100
AcDbLine
 10
-4.304929
 20
-3.65
 30
0.0
 11
-1.2
 21
-0.545071
 31
0.0
  0
LINE
  5
F0
100
AcDbEntity
  8
0
  6
CONTINUOUS
 62
     1
100
AcDbLine
 10
-0.654929
 20
0.0
 30
0.0
 11
1.720071
 21
2.375
 31
0.0
  0
LINE
  5
F1
100
AcDbEntity
  8
0
  6
CONTINUOUS
 62
     1
100
AcDbLine
 10
-3.880665
 20
-3.65
 30
0.0
 11
-1.2
 21
-0.969335
 31
0.0
  0
LINE
  5
F2
100
AcDbEntity
  8
0
  6
CONTINUOUS
 62
     1
100
AcDbLine
 10
-0.230665
 20
0.0
 30
0.0
 11
2.144335
 21
2.375
 31
0.0
  0
LINE
  5
F3
100
AcDbEntity
  8
0
  6
CONTINUOUS
 62
     1
100
AcDbLine
 10
-3.456401
 20
-3.65
 30
0.0
 11
-1.2
 21
-1.393599
 31
0.0
  0
LINE
  5
F4
100
AcDbEntity
  8
0
  6
CONTINUOUS
 62
     1
100
AcDbLine
 10
0.0
 20
-0.193599
 30
0.0
 11
2.568599
 21
2.375
 31
0.0
  0
LINE
  5
F5
100
AcDbEntity
  8
0
  6
CONTINUOUS
 62
     1
100
AcDbLine
 10
-3.032137
 20
-3.65
 30
0.0
 11
-1.2
 21
-1.817863
 31
0.0
  0
LINE
  5
F6
100
AcDbEntity
  8
0
  6
CONTINUOUS
 62
     1
100
AcDbLine
 10
0.0
 20
-0.617863
 30
0.0
 11
2.992863
 21
2.375
 31
0.0
  0
LINE
  5
F7
100
AcDbEntity
  8
0
  6
CONTINUOUS
 62
     1
100
AcDbLine
 10
-2.607873
 20
-3.65
 30
0.0
 11
-1.2
 21
-2.242127
 31
0.0
  0
LINE
  5
F8
100
AcDbEntity
  8
0
  6
CONTINUOUS
 62
     1
100
AcDbLine
 10
0.0
 20
-1.042127
 30
0.0
 11
3.417127
 21
2.375
 31
0.0
  0
LINE
  5
F9
100
AcDbEntity
  8
0
  6
CONTINUOUS
 62
     1
100
AcDbLine
 10
-2.183609
 20
-3.65
 30
0.0
 11
-1.2
 21
-2.666391
 31
0.0
  0
LINE
  5
FA
100
AcDbEntity
  8
0
  6
CONTINUOUS
 62
     1
100
AcDbLine
 10
0.0
 20
-1.466391
 30
0.0
 11
3.841391
 21
2.375
 31
0.0
  0
LINE
  5
FB
100
AcDbEntity
  8
0
  6
CONTINUOUS
 62
     1
100
AcDbLine
 10
-1.759345
 20
-3.65
 30
0.0
 11
-1.2
 21
-3.090655
 31
0.0
  0
LINE
  5
FC
100
AcDbEntity
  8
0
  6
CONTINUOUS
 62
     1
100
AcDbLine
 10
0.0
 20
-1.890655
 30
0.0
 11
4.760634
 21
2.869979
 31
0.0
  0
LINE
  5
FD
100
AcDbEntity
  8
0
  6
CONTINUOUS
 62
     1
100
AcDbLine
 10
-1.335081
 20
-3.65
 30
0.0
 11
-0.928752
 21
-3.243671
 31
0.0
  0
LINE
  5
FE
100
AcDbEntity
  8
0
  6
CONTINUOUS
 62
     1
100
AcDbLine
 10
0.0
 20
-2.314919
 30
0.0
 11
4.915925
 21
2.601006
 31
0.0
  0
LINE
  5
FF
100
AcDbEntity
  8
0
  6
CONTINUOUS
 62
     1
100
AcDbLine
 10
-0.910817
 20
-3.65
 30
0.0
 11
-0.633612
 21
-3.372795
 31
0.0
  0
LINE
  5
100
100
AcDbEntity
  8
0
  6
CONTINUOUS
 62
     1
100
AcDbLine
 10
0.0
 20
-2.739183
 30
0.0
 11
5.071217
 21
2.332034
 31
0.0
  0
LINE
  5
101
100
AcDbEntity
  8
0
  6
CONTINUOUS
 62
     1
100
AcDbLine
 10
-0.486553
 20
-3.65
 30
0.0
 11
-0.338471
 21
-3.501919
 31
0.0
  0
LINE
  5
102
100
AcDbEntity
  8
0
  6
CONTINUOUS
 62
     1
100
AcDbLine
 10
0.0
 20
-3.163447
 30
0.0
 11
2.95
 21
-0.213447
 31
0.0
  0
LINE
  5
103
100
AcDbEntity
  8
0
  6
CONTINUOUS
 62
     1
100
AcDbLine
 10
3.163447
 20
0.0
 30
0.0
 11
5.226508
 21
2.063061
 31
0.0
  0
LINE
  5
104
100
AcDbEntity
  8
0
  6
CONTINUOUS
 62
     1
100
AcDbLine
 10
-0.062289
 20
-3.65
 30
0.0
 11
-0.043331
 21
-3.631043
 31
0.0
  0
LINE
  5
105
100
AcDbEntity
  8
0
  6
CONTINUOUS
 62
     1
100
AcDbLine
 10
0.0
 20
-3.587711
 30
0.0
 11
2.95
 21
-0.637711
 31
0.0
  0
LINE
  5
106
100
AcDbEntity
  8
0
  6
CONTINUOUS
 62
     1
100
AcDbLine
 10
3.587711
 20
0.0
 30
0.0
 11
5.3818
 21
1.794088
 31
0.0
  0
LINE
  5
107
100
AcDbEntity
  8
0
  6
CONTINUOUS
 62
     1
100
AcDbLine
 10
0.0
 20
-4.011976
 30
0.0
 11
2.95
 21
-1.061976
 31
0.0
  0
LINE
  5
108
100
AcDbEntity
  8
0
  6
CONTINUOUS
 62
     1
100
AcDbLine
 10
4.011976
 20
0.0
 30
0.0
 11
5.537091
 21
1.525116
 31
0.0
  0
LINE
  5
109
100
AcDbEntity
  8
0
  6
CONTINUOUS
 62
     1
100
AcDbLine
 10
0.0
 20
-4.43624
 30
0.0
 11
2.95
 21
-1.48624
 31
0.0
  0
LINE
  5
10A
100
AcDbEntity
  8
0
  6
CONTINUOUS
 62
     1
100
AcDbLine
 10
4.43624
 20
0.0
 30
0.0
 11
5.692383
 21
1.256143
 31
0.0
  0
LINE
  5
10B
100
AcDbEntity
  8
0
  6
CONTINUOUS
 62
     1
100
AcDbLine
 10
0.0
 20
-4.860504
 30
0.0
 11
2.95
 21
-1.910504
 31
0.0
  0
LINE
  5
10C
100
AcDbEntity
  8
0
  6
CONTINUOUS
 62
     1
100
AcDbLine
 10
4.860504
 20
0.0
 30
0.0
 11
5.847674
 21
0.98717
 31
0.0
  0
LINE
  5
10D
100
AcDbEntity
  8
0
  6
CONTINUOUS
 62
     1
100
AcDbLine
 10
0.0
 20
-5.284768
 30
0.0
 11
2.95
 21
-2.334768
 31
0.0
  0
LINE
  5
10E
100
AcDbEntity
  8
0
  6
CONTINUOUS
 62
     1
100
AcDbLine
 10
5.284768
 20
0.0
 30
0.0
 11
6.002965
 21
0.718198
 31
0.0
  0
LINE
  5
10F
100
AcDbEntity
  8
0
  6
CONTINUOUS
 62
     1
100
AcDbLine
 10
0.0
 20
-5.709032
 30
0.0
 11
2.95
 21
-2.759032
 31
0.0
  0
LINE
  5
110
100
AcDbEntity
  8
0
  6
CONTINUOUS
 62
     1
100
AcDbLine
 10
5.709032
 20
0.0
 30
0.0
 11
6.158257
 21
0.449225
 31
0.0
  0
LINE
  5
111
100
AcDbEntity
  8
0
  6
CONTINUOUS
 62
     1
100
AcDbLine
 10
0.0
 20
-6.133296
 30
0.0
 11
2.95
 21
-3.183296
 31
0.0
  0
LINE
  5
112
100
AcDbEntity
  8
0
  6
CONTINUOUS
 62
     1
100
AcDbLine
 10
5.979074
 20
-0.154222
 30
0.0
 11
6.313548
 21
0.180252
 31
0.0
  0
LINE
  5
113
100
AcDbEntity
  8
0
  6
CONTINUOUS
 62
     1
100
AcDbLine
 10
0.0
 20
-6.55756
 30
0.0
 11
2.95
 21
-3.60756
 31
0.0
  0
LINE
  5
114
100
AcDbEntity
  8
0
  6
CONTINUOUS
 62
     1
100
AcDbLine
 10
6.248047
 20
-0.309513
 30
0.0
 11
6.46884
 21
-0.08872
 31
0.0
  0
LINE
  5
115
100
AcDbEntity
  8
0
  6
CONTINUOUS
 62
     1
100
AcDbLine
 10
0.0
 20
-6.981824
 30
0.0
 11
2.95
 21
-4.031824
 31
0.0
  0
LINE
  5
116
100
AcDbEntity
  8
0
  6
CONTINUOUS
 62
     1
100
AcDbLine
 10
6.51702
 20
-0.464804
 30
0.0
 11
6.624131
 21
-0.357693
 31
0.0
  0
LINE
  5
117
100
AcDbEntity
  8
0
  6
CONTINUOUS
 62
     1
100
AcDbLine
 10
0.0
 20
-7.406088
 30
0.0
 11
2.95
 21
-4.456088
 31
0.0
  0
LINE
  5
118
100
AcDbEntity
  8
0
  6
CONTINUOUS
 62
     1
100
AcDbLine
 10
0.0
 20
-7.830352
 30
0.0
 11
2.95
 21
-4.880352
 31
0.0
  0
LINE
  5
119
100
AcDbEntity
  8
0
  6
CONTINUOUS
 62
     1
100
AcDbLine
 10
-0.520384
 20
-8.775
 30
0.0
 11
2.95
 21
-5.304616
 31
0.0
  0
LINE
  5
11A
100
AcDbEntity
  8
0
  6
CONTINUOUS
 62
     1
100
AcDbLine
 10
-0.09612
 20
-8.775
 30
0.0
 11
2.95
 21
-5.72888
 31
0.0
  0
LINE
  5
11B
100
AcDbEntity
  8
0
  6
CONTINUOUS
 62
     1
100
AcDbLine
 10
0.328144
 20
-8.775
 30
0.0
 11
2.95
 21
-6.153144
 31
0.0
  0
LINE
  5
11C
100
AcDbEntity
  8
0
  6
CONTINUOUS
 62
     1
100
AcDbLine
 10
0.752408
 20
-8.775
 30
0.0
 11
2.95
 21
-6.577408
 31
0.0
  0
LINE
  5
11D
100
AcDbEntity
  8
0
  6
CONTINUOUS
 62
     1
100
AcDbLine
 10
1.176672
 20
-8.775
 30
0.0
 11
2.95
 21
-7.001672
 31
0.0
  0
LINE
  5
11E
100
AcDbEntity
  8
0
  6
CONTINUOUS
 62
     1
100
AcDbLine
 10
1.600937
 20
-8.775
 30
0.0
 11
2.95
 21
-7.425937
 31
0.0
  0
LINE
  5
11F
100
AcDbEntity
  8
0
  6
CONTINUOUS
 62
     1
100
AcDbLine
 10
2.025201
 20
-8.775
 30
0.0
 11
2.95
 21
-7.850201
 31
0.0
  0
LINE
  5
120
100
AcDbEntity
  8
0
  6
CONTINUOUS
 62
     1
100
AcDbLine
 10
2.449465
 20
-8.775
 30
0.0
 11
3.069473
 21
-8.154992
 31
0.0
  0
LINE
  5
121
100
AcDbEntity
  8
0
  6
CONTINUOUS
 62
     1
100
AcDbLine
 10
2.873729
 20
-8.775
 30
0.0
 11
3.295291
 21
-8.353438
 31
0.0
  0
LINE
  5
122
100
AcDbEntity
  8
0
  6
CONTINUOUS
 62
     1
100
AcDbLine
 10
3.297993
 20
-8.775
 30
0.0
 11
3.521109
 21
-8.551884
 31
0.0
  0
LINE
  5
123
100
AcDbEntity
  8
0
  6
CONTINUOUS
 62
     1
100
AcDbLine
 10
3.722257
 20
-8.775
 30
0.0
 11
3.746927
 21
-8.75033
 31
0.0
  0
LINE
  5
124
100
AcDbEntity
  8
0
  6
CONTINUOUS
 62
     1
100
AcDbLine
 10
-1.244898
 20
7.895312
 30
0.0
 11
-1.239084
 21
7.901126
 31
0.0
  0
LINE
  5
125
100
AcDbEntity
  8
0
  6
CONTINUOUS
 62
     1
100
AcDbLine
 10
-1.067674
 20
7.648273
 30
0.0
 11
-0.75386
 21
7.962086
 31
0.0
  0
LINE
  5
126
100
AcDbEntity
  8
0
  6
CONTINUOUS
 62
     1
100
AcDbLine
 10
-0.591057
 20
7.700625
 30
0.0
 11
-0.299601
 21
7.992081
 31
0.0
  0
LINE
  5
127
100
AcDbEntity
  8
0
  6
CONTINUOUS
 62
     1
100
AcDbLine
 10
-0.143848
 20
7.72357
 30
0.0
 11
0.129232
 21
7.996651
 31
0.0
  0
LINE
  5
128
100
AcDbEntity
  8
0
  6
CONTINUOUS
 62
     1
100
AcDbLine
 10
0.273738
 20
7.716893
 30
0.0
 11
0.536524
 21
7.979678
 31
0.0
  0
LINE
  5
129
100
AcDbEntity
  8
0
  6
CONTINUOUS
 62
     1
100
AcDbLine
 10
0.666879
 20
7.685769
 30
0.0
 11
0.925119
 21
7.944009
 31
0.0
  0
LINE
  5
12A
100
AcDbEntity
  8
0
  6
CONTINUOUS
 62
     1
100
AcDbLine
 10
1.039212
 20
7.633838
 30
0.0
 11
1.297172
 21
7.891798
 31
0.0
  0
LINE
  5
12B
100
AcDbEntity
  8
0
  6
CONTINUOUS
 62
     1
100
AcDbLine
 10
1.393405
 20
7.563767
 30
0.0
 11
1.654357
 21
7.824719
 31
0.0
  0
LINE
  5
12C
100
AcDbEntity
  8
0
  6
CONTINUOUS
 62
     1
100
AcDbLine
 10
1.731479
 20
7.477578
 30
0.0
 11
1.998003
 21
7.744101
 31
0.0
  0
LINE
  5
12D
100
AcDbEntity
  8
0
  6
CONTINUOUS
 62
     1
100
AcDbLine
 10
2.055003
 20
7.376837
 30
0.0
 11
2.329182
 21
7.651016
 31
0.0
  0
LINE
  5
12E
100
AcDbEntity
  8
0
  6
CONTINUOUS
 62
     1
100
AcDbLine
 10
2.365218
 20
7.262788
 30
0.0
 11
2.648765
 21
7.546335
 31
0.0
  0
LINE
  5
12F
100
AcDbEntity
  8
0
  6
CONTINUOUS
 62
     1
100
AcDbLine
 10
2.663121
 20
7.136426
 30
0.0
 11
2.957473
 21
7.430779
 31
0.0
  0
LINE
  5
130
100
AcDbEntity
  8
0
  6
CONTINUOUS
 62
     1
100
AcDbLine
 10
2.949521
 20
6.998563
 30
0.0
 11
3.255903
 21
7.304945
 31
0.0
  0
LINE
  5
131
100
AcDbEntity
  8
0
  6
CONTINUOUS
 62
     1
100
AcDbLine
 10
3.225081
 20
6.849859
 30
0.0
 11
3.544551
 21
7.169329
 31
0.0
  0
LINE
  5
132
100
AcDbEntity
  8
0
  6
CONTINUOUS
 62
     1
100
AcDbLine
 10
3.490344
 20
6.690857
 30
0.0
 11
3.823832
 21
7.024346
 31
0.0
  0
LINE
  5
133
100
AcDbEntity
  8
0
  6
CONTINUOUS
 62
     1
100
AcDbLine
 10
3.745755
 20
6.522005
 30
0.0
 11
4.094089
 21
6.870339
 31
0.0
  0
LINE
  5
134
100
AcDbEntity
  8
0
  6
CONTINUOUS
 62
     1
100
AcDbLine
 10
3.991681
 20
6.343667
 30
0.0
 11
4.355608
 21
6.707593
 31
0.0
  0
LINE
  5
135
100
AcDbEntity
  8
0
  6
CONTINUOUS
 62
     1
100
AcDbLine
 10
4.228416
 20
6.156138
 30
0.0
 11
4.608619
 21
6.536341
 31
0.0
  0
LINE
  5
136
100
AcDbEntity
  8
0
  6
CONTINUOUS
 62
     1
100
AcDbLine
 10
4.456196
 20
5.959653
 30
0.0
 11
4.853311
 21
6.356768
 31
0.0
  0
LINE
  5
137
100
AcDbEntity
  8
0
  6
CONTINUOUS
 62
     1
100
AcDbLine
 10
4.675201
 20
5.754394
 30
0.0
 11
5.089826
 21
6.169019
 31
0.0
  0
LINE
  5
138
100
AcDbEntity
  8
0
  6
CONTINUOUS
 62
     1
100
AcDbLine
 10
4.885564
 20
5.540493
 30
0.0
 11
5.318271
 21
5.9732
 31
0.0
  0
LINE
  5
139
100
AcDbEntity
  8
0
  6
CONTINUOUS
 62
     1
100
AcDbLine
 10
5.087373
 20
5.318038
 30
0.0
 11
5.538716
 21
5.769381
 31
0.0
  0
LINE
  5
13A
100
AcDbEntity
  8
0
  6
CONTINUOUS
 62
     1
100
AcDbLine
 10
5.28067
 20
5.087071
 30
0.0
 11
5.751195
 21
5.557596
 31
0.0
  0
LINE
  5
13B
100
AcDbEntity
  8
0
  6
CONTINUOUS
 62
     1
100
AcDbLine
 10
5.465459
 20
4.847596
 30
0.0
 11
5.955711
 21
5.337848
 31
0.0
  0
LINE
  5
13C
100
AcDbEntity
  8
0
  6
CONTINUOUS
 62
     1
100
AcDbLine
 10
5.641698
 20
4.599571
 30
0.0
 11
6.152232
 21
5.110105
 31
0.0
  0
LINE
  5
13D
100
AcDbEntity
  8
0
  6
CONTINUOUS
 62
     1
100
AcDbLine
 10
5.809305
 20
4.342914
 30
0.0
 11
6.340689
 21
4.874298
 31
0.0
  0
LINE
  5
13E
100
AcDbEntity
  8
0
  6
CONTINUOUS
 62
     1
100
AcDbLine
 10
5.96815
 20
4.077495
 30
0.0
 11
6.520982
 21
4.630326
 31
0.0
  0
LINE
  5
13F
100
AcDbEntity
  8
0
  6
CONTINUOUS
 62
     1
100
AcDbLine
 10
6.118059
 20
3.803139
 30
0.0
 11
6.692968
 21
4.378048
 31
0.0
  0
LINE
  5
140
100
AcDbEntity
  8
0
  6
CONTINUOUS
 62
     1
100
AcDbLine
 10
6.258799
 20
3.519616
 30
0.0
 11
6.856465
 21
4.117282
 31
0.0
  0
LINE
  5
141
100
AcDbEntity
  8
0
  6
CONTINUOUS
 62
     1
100
AcDbLine
 10
6.390082
 20
3.226634
 30
0.0
 11
7.011246
 21
3.847799
 31
0.0
  0
LINE
  5
142
100
AcDbEntity
  8
0
  6
CONTINUOUS
 62
     1
100
AcDbLine
 10
6.511548
 20
2.923837
 30
0.0
 11
7.157031
 21
3.569319
 31
0.0
  0
LINE
  5
143
100
AcDbEntity
  8
0
  6
CONTINUOUS
 62
     1
100
AcDbLine
 10
6.622761
 20
2.610785
 30
0.0
 11
7.29348
 21
3.281505
 31
0.0
  0
LINE
  5
144
100
AcDbEntity
  8
0
  6
CONTINUOUS
 62
     1
100
AcDbLine
 10
6.723184
 20
2.286945
 30
0.0
 11
7.420187
 21
2.983948
 31
0.0
  0
LINE
  5
145
100
AcDbEntity
  8
0
  6
CONTINUOUS
 62
     1
100
AcDbLine
 10
6.812168
 20
1.951665
 30
0.0
 11
7.536663
 21
2.67616
 31
0.0
  0
LINE
  5
146
100
AcDbEntity
  8
0
  6
CONTINUOUS
 62
     1
100
AcDbLine
 10
6.888918
 20
1.604151
 30
0.0
 11
7.642321
 21
2.357553
 31
0.0
  0
LINE
  5
147
100
AcDbEntity
  8
0
  6
CONTINUOUS
 62
     1
100
AcDbLine
 10
6.952455
 20
1.243423
 30
0.0
 11
7.736452
 21
2.02742
 31
0.0
  0
LINE
  5
148
100
AcDbEntity
  8
0
  6
CONTINUOUS
 62
     1
100
AcDbLine
 10
7.001562
 20
0.868266
 30
0.0
 11
7.818199
 21
1.684903
 31
0.0
  0
LINE
  5
149
100
AcDbEntity
  8
0
  6
CONTINUOUS
 62
     1
100
AcDbLine
 10
7.034702
 20
0.477142
 30
0.0
 11
7.886509
 21
1.328949
 31
0.0
  0
LINE
  5
14A
100
AcDbEntity
  8
0
  6
CONTINUOUS
 62
     1
100
AcDbLine
 10
7.049901
 20
0.068077
 30
0.0
 11
7.94008
 21
0.958256
 31
0.0
  0
LINE
  5
14B
100
AcDbEntity
  8
0
  6
CONTINUOUS
 62
     1
100
AcDbLine
 10
7.044559
 20
-0.36153
 30
0.0
 11
7.977272
 21
0.571184
 31
0.0
  0
LINE
  5
14C
100
AcDbEntity
  8
0
  6
CONTINUOUS
 62
     1
100
AcDbLine
 10
7.015139
 20
-0.815213
 30
0.0
 11
7.99598
 21
0.165628
 31
0.0
  0
LINE
  5
14D
100
AcDbEntity
  8
0
  6
CONTINUOUS
 62
     1
100
AcDbLine
 10
6.956633
 20
-1.297984
 30
0.0
 11
7.993429
 21
-0.261187
 31
0.0
  0
LINE
  5
14E
100
AcDbEntity
  8
0
  6
CONTINUOUS
 62
     1
100
AcDbLine
 10
6.861522
 20
-1.817358
 30
0.0
 11
7.965846
 21
-0.713034
 31
0.0
  0
LINE
  5
14F
100
AcDbEntity
  8
0
  6
CONTINUOUS
 62
     1
100
AcDbLine
 10
6.717567
 20
-2.385577
 30
0.0
 11
7.907873
 21
-1.195272
 31
0.0
  0
LINE
  5
150
100
AcDbEntity
  8
0
  6
CONTINUOUS
 62
     1
100
AcDbLine
 10
6.502136
 20
-3.025273
 30
0.0
 11
7.811439
 21
-1.71597
 31
0.0
  0
LINE
  5
151
100
AcDbEntity
  8
0
  6
CONTINUOUS
 62
     1
100
AcDbLine
 10
6.162591
 20
-3.789082
 30
0.0
 11
7.663329
 21
-2.288344
 31
0.0
  0
LINE
  5
152
100
AcDbEntity
  8
0
  6
CONTINUOUS
 62
     1
100
AcDbLine
 10
2.95
 20
-7.425937
 30
0.0
 11
3.966472
 21
-6.409465
 31
0.0
  0
LINE
  5
153
100
AcDbEntity
  8
0
  6
CONTINUOUS
 62
     1
100
AcDbLine
 10
5.470054
 20
-4.905882
 30
0.0
 11
7.438868
 21
-2.937069
 31
0.0
  0
LINE
  5
154
100
AcDbEntity
  8
0
  6
CONTINUOUS
 62
     1
100
AcDbLine
 10
3.720672
 20
-7.079529
 30
0.0
 11
7.079529
 21
-3.720672
 31
0.0
  0
LINE
  5
155
100
AcDbEntity
  8
0
  6
CONTINUOUS
 62
     1
100
AcDbLine
 10
4.916236
 20
-6.308228
 30
0.0
 11
6.308228
 21
-4.916236
 31
0.0
  0
LINE
  5
156
100
AcDbEntity
  8
0
  6
CONTINUOUS
 62
     1
100
AcDbLine
 10
2.95
 20
-8.05
 30
0.0
 11
2.95
 21
-7.425937
 31
0.0
  0
LINE
  5
157
100
AcDbEntity
  8
0
  6
CONTINUOUS
 62
     1
100
AcDbLine
 10
2.95
 20
-7.001672
 30
0.0
 11
2.95
 21
0.0
 31
0.0
  0
LINE
  5
158
100
AcDbEntity
  8
0
  6
CONTINUOUS
 62
     1
100
AcDbLine
 10
0.0
 20
0.0
 30
0.0
 11
0.0
 21
-7.72433
 31
0.0
  0
ARC
  5
159
100
AcDbEntity
  8
0
  6
CONTINUOUS
 62
     1
100
AcDbCircle
 10
0.0
 20
0.0
 30
0.0
 40
7.997695
100
AcDbArc
 50
291.645098
 51
101.419721
  0
ELLIPSE
  5
15A
100
AcDbEntity
  8
0
  6
CONTINUOUS
 62
     1
100
AcDbEllipse
 10
0.0
 20
0.0
 30
0.0
 11
-0.2271076736246198
 21
7.7216609032371322
 31
0.0
210
0.0
220
0.0
230
1.0
 40
0.912621
 41
3.5427715523045538
 42
0.1388139713137163
  0
LINE
  5
15B
100
AcDbEntity
  8
0
  6
CONTINUOUS
 62
     1
100
AcDbLine
 10
-1.583501
 20
7.839365
 30
0.0
 11
-4.6
 21
9.575
 31
0.0
  0
LINE
  5
15C
100
AcDbEntity
  8
0
  6
CONTINUOUS
 62
     1
100
AcDbLine
 10
-3.8
 20
2.375
 30
0.0
 11
-3.8
 21
6.528847
 31
0.0
  0
ENDBLK
  5
15D
100
AcDbEntity
  8
0
100
AcDbBlockEnd
  0
ENDSEC
  0
SECTION
  2
ENTITIES
  0
LINE
  5
15E
100
AcDbEntity
  8
LAY-1
  6
CONTINUOUS
 62
     1
100
AcDbLine
 10
708.242192
 20
221.9
 30
0.0
 11
665.6
 21
221.9
 31
0.0
  0
LINE
  5
15F
100
AcDbEntity
  8
LAY-1
  6
CONTINUOUS
 62
     1
100
AcDbLine
 10
808.4
 20
424.4
 30
0.0
 11
665.6
 21
424.4
 31
0.0
  0
TEXT
  5
160
100
AcDbEntity
  8
LAY-1
  6
CONTINUOUS
 62
     3
100
AcDbText
 10
665.1
 20
293.15
 30
0.0
 40
20.0
  1
２０５
 50
90.0
 41
0.84
  7
EXCADSTD
 72
     5
 11
665.1
 21
353.15
 31
0.0
100
AcDbText
  0
LINE
  5
161
100
AcDbEntity
  8
LAY-1
  6
CONTINUOUS
 62
     1
100
AcDbLine
 10
666.1
 20
221.9
 30
0.0
 11
666.1
 21
424.4
 31
0.0
  0
LINE
  5
162
100
AcDbEntity
  8
LAY-1
  6
CONTINUOUS
 62
     1
100
AcDbLine
 10
665.766667
 20
223.9
 30
0.0
 11
666.1
 21
221.9
 31
0.0
  0
LINE
  5
163
100
AcDbEntity
  8
LAY-1
  6
CONTINUOUS
 62
     1
100
AcDbLine
 10
666.1
 20
221.9
 30
0.0
 11
666.433333
 21
223.9
 31
0.0
  0
LINE
  5
164
100
AcDbEntity
  8
LAY-1
  6
CONTINUOUS
 62
     1
100
AcDbLine
 10
666.433333
 20
422.4
 30
0.0
 11
666.1
 21
424.4
 31
0.0
  0
LINE
  5
165
100
AcDbEntity
  8
LAY-1
  6
CONTINUOUS
 62
     1
100
AcDbLine
 10
666.1
 20
424.4
 30
0.0
 11
665.766667
 21
422.4
 31
0.0
  0
TEXT
  5
166
100
AcDbEntity
  8
LAY-1
  6
CONTINUOUS
 62
     3
100
AcDbText
 10
399.2
 20
118.3
 30
0.0
 40
20.0
  1
ＪＩＳ２０Ｋ　５０Ａフランジ
 41
0.84
  7
EXCADSTD
 72
     5
 11
679.2
 21
118.3
 31
0.0
100
AcDbText
  0
POLYLINE
  5
167
100
AcDbEntity
  8
LAY-1
  6
CONTINUOUS
 62
     1
100
AcDb2dPolyline
 66
     1
 10
0.0
 20
0.0
 30
0.0
 70
   128
  0
VERTEX
  5
168
100
AcDbEntity
  8
LAY-1
  6
CONTINUOUS
 62
     1
100
AcDbVertex
100
AcDb2dVertex
 10
721.0
 20
154.3
 30
0.0
  0
VERTEX
  5
169
100
AcDbEntity
  8
LAY-1
  6
CONTINUOUS
 62
     1
100
AcDbVertex
100
AcDb2dVertex
 10
672.2
 20
118.0
 30
0.0
  0
VERTEX
  5
16A
100
AcDbEntity
  8
LAY-1
  6
CONTINUOUS
 62
     1
100
AcDbVertex
100
AcDb2dVertex
 10
382.0
 20
118.0
 30
0.0
  0
SEQEND
  5
16B
100
AcDbEntity
  8
LAY-1
  6
CONTINUOUS
 62
     1
  0
LINE
  5
16C
100
AcDbEntity
  8
LAY-1
  6
CONTINUOUS
 62
     1
100
AcDbLine
 10
719.594223
 20
152.838869
 30
0.0
 11
721.0
 21
154.3
 31
0.0
  0
LINE
  5
16D
100
AcDbEntity
  8
LAY-1
  6
CONTINUOUS
 62
     1
100
AcDbLine
 10
721.0
 20
154.3
 30
0.0
 11
719.196331
 21
153.373777
 31
0.0
  0
TEXT
  5
16E
100
AcDbEntity
  8
LAY-1
  6
CONTINUOUS
 62
     3
100
AcDbText
 10
1018.552
 20
390.768
 30
0.0
 40
16.0
  1
型式
 41
0.984714
  7
EXCADSTD
 72
     5
 11
1052.936325
 21
390.768
 31
0.0
100
AcDbText
  0
TEXT
  5
16F
100
AcDbEntity
  8
LAY-1
  6
CONTINUOUS
 62
     3
100
AcDbText
 10
1018.168
 20
368.24
 30
0.0
 40
16.0
  1
品名
 41
0.984714
  7
EXCADSTD
 72
     5
 11
1052.552325
 21
368.24
 31
0.0
100
AcDbText
  0
LINE
  5
170
100
AcDbEntity
  8
LAY-1
  6
CONTINUOUS
 62
     4
100
AcDbLine
 10
1011.0
 20
345.52
 30
0.0
 11
1297.72
 21
345.52
 31
0.0
  0
LINE
  5
171
100
AcDbEntity
  8
LAY-1
  6
CONTINUOUS
 62
     1
100
AcDbLine
 10
1011.0
 20
365.04
 30
0.0
 11
1297.72
 21
365.04
 31
0.0
  0
TEXT
  5
172
100
AcDbEntity
  8
LAY-1
  6
CONTINUOUS
 62
     3
100
AcDbText
 10
1112.888
 20
347.632
 30
0.0
 40
16.0
  1
外観図
 41
1.47392
  7
EXCADSTD
 72
     5
 11
1197.111999
 21
347.632
 31
0.0
100
AcDbText
  0
LINE
  5
173
100
AcDbEntity
  8
LAY-1
  6
CONTINUOUS
 62
     4
100
AcDbLine
 10
1011.0
 20
432.24
 30
0.0
 11
1297.72
 21
432.24
 31
0.0
  0
LINE
  5
174
100
AcDbEntity
  8
LAY-1
  6
CONTINUOUS
 62
     1
100
AcDbLine
 10
1011.0
 20
387.44
 30
0.0
 11
1297.72
 21
387.44
 31
0.0
  0
LINE
  5
175
100
AcDbEntity
  8
LAY-1
  6
CONTINUOUS
 62
     1
100
AcDbLine
 10
1011.0
 20
409.84
 30
0.0
 11
1297.72
 21
409.84
 31
0.0
  0
LINE
  5
176
100
AcDbEntity
  8
LAY-1
  6
CONTINUOUS
 62
     1
100
AcDbLine
 10
1059.0
 20
432.24
 30
0.0
 11
1059.0
 21
365.04
 31
0.0
  0
LINE
  5
177
100
AcDbEntity
  8
LAY-1
  6
CONTINUOUS
 62
     4
100
AcDbLine
 10
1011.0
 20
326.0
 30
0.0
 11
1297.72
 21
326.0
 31
0.0
  0
LINE
  5
178
100
AcDbEntity
  8
LAY-1
  6
CONTINUOUS
 62
     4
100
AcDbLine
 10
1297.72
 20
326.0
 30
0.0
 11
1297.72
 21
432.24
 31
0.0
  0
LINE
  5
179
100
AcDbEntity
  8
LAY-1
  6
CONTINUOUS
 62
     4
100
AcDbLine
 10
1011.0
 20
326.0
 30
0.0
 11
1011.0
 21
432.24
 31
0.0
  0
TEXT
  5
17A
100
AcDbEntity
  8
LAY-1
  6
CONTINUOUS
 62
     3
100
AcDbText
 10
1013.048
 20
412.656
 30
0.0
 40
16.0
  1
作成日
 41
0.84
  7
EXCADSTD
 72
     5
 11
1061.048
 21
412.656
 31
0.0
100
AcDbText
  0
HATCH
  5
17B
100
AcDbEntity
  8
LAY-1
  6
CONTINUOUS
 62
     3
100
AcDbHatch
 10
0.0
 20
0.0
 30
0.0
210
0.0
220
0.0
230
1.0
  2
SOLID
 70
     1
 71
     1
 91
        1
 92
        1
 93
       16
 72
     1
 10
1212.8079194889954
 20
330.87668571428532
 11
1215.8370623461383
 21
330.87668571428532
 72
     1
 10
1215.8370623461383
 20
330.87668571428532
 11
1215.8370623461383
 21
328.92239999999958
 72
     1
 10
1215.8370623461383
 20
328.92239999999958
 11
1207.7267766318523
 21
328.92239999999958
 72
     1
 10
1207.7267766318523
 20
328.92239999999958
 11
1207.7267766318523
 21
330.87668571428532
 72
     1
 10
1207.7267766318523
 20
330.87668571428532
 11
1210.8536337747096
 21
330.87668571428532
 72
     1
 10
1210.8536337747096
 20
330.87668571428532
 11
1210.8536337747096
 21
336.54411428571393
 72
     1
 10
1210.8536337747096
 20
336.54411428571393
 11
1208.4107766318525
 21
336.54411428571393
 72
     1
 10
1208.4107766318525
 20
336.54411428571393
 11
1208.4107766318525
 21
338.49839999999961
 72
     1
 10
1208.4107766318525
 20
338.49839999999961
 11
1210.8536337747096
 21
338.49839999999961
 72
     1
 10
1210.8536337747096
 20
338.49839999999961
 11
1210.8536337747096
 21
342.60239999999965
 72
     1
 10
1210.8536337747096
 20
342.60239999999965
 11
1212.8079194889954
 21
342.60239999999965
 72
     1
 10
1212.8079194889954
 20
342.60239999999965
 11
1212.8079194889954
 21
338.49839999999961
 72
     1
 10
1212.8079194889954
 20
338.49839999999961
 11
1215.6416337747096
 21
338.49839999999961
 72
     1
 10
1215.6416337747096
 20
338.49839999999961
 11
1215.6416337747096
 21
336.54411428571393
 72
     1
 10
1215.6416337747096
 20
336.54411428571393
 11
1212.8079194889954
 21
336.54411428571393
 72
     1
 10
1212.8079194889954
 20
336.54411428571393
 11
1212.8079194889954
 21
330.87668571428532
 97
        0
 75
     0
 76
     1
 98
        1
 10
0.0
 20
0.0
  0
HATCH
  5
17C
100
AcDbEntity
  8
LAY-1
  6
CONTINUOUS
 62
     3
100
AcDbHatch
 10
0.0
 20
0.0
 30
0.0
210
0.0
220
0.0
230
1.0
  2
SOLID
 70
     1
 71
     1
 91
        1
 92
        1
 93
       17
 72
     2
 10
1192.2762411070944
 20
346.39530143388765
 40
17.588571428571491
 50
44.165469
 51
51.472792
 73
     0
 72
     1
 10
1203.2319194889951
 20
332.63554285714253
 11
1202.2424617963989
 21
334.34933385265947
 72
     2
 10
1192.2762411070944
 20
346.39530143388765
 40
15.634285714285767
 50
309.602625
 51
331.307968
 73
     1
 72
     1
 10
1205.9908387642261
 20
338.88925714285676
 11
1202.7433480604238
 21
338.88925714285676
 72
     1
 10
1202.7433480604238
 20
338.88925714285676
 11
1202.7433480604238
 21
340.64811428571386
 72
     1
 10
1202.7433480604238
 20
340.64811428571386
 11
1204.8930623461383
 21
340.64811428571386
 72
     1
 10
1204.8930623461383
 20
340.64811428571386
 11
1204.8930623461383
 21
342.60239999999965
 72
     1
 10
1204.8930623461383
 20
342.60239999999965
 11
1206.6519194889954
 21
342.60239999999965
 72
     1
 10
1206.6519194889954
 20
342.60239999999965
 11
1206.6519194889954
 21
340.64811428571386
 72
     1
 10
1206.6519194889954
 20
340.64811428571386
 11
1208.8993480604238
 21
340.64811428571386
 72
     2
 10
1192.2762411070944
 20
346.39530143388765
 40
17.588571428571491
 50
19.072051
 51
32.871988
 73
     0
 72
     1
 10
1207.0486240805626
 20
336.84885988830922
 11
1209.3879194889951
 21
334.5898285714282
 72
     1
 10
1209.3879194889951
 20
334.5898285714282
 11
1208.0058203076483
 21
333.207729390081
 72
     1
 10
1208.0058203076483
 20
333.207729390081
 11
1206.6519194889954
 21
334.5151762128562
 72
     1
 10
1206.6519194889954
 20
334.5151762128562
 11
1206.6519194889954
 21
328.92239999999958
 72
     1
 10
1206.6519194889954
 20
328.92239999999958
 11
1204.8930623461383
 21
328.92239999999958
 72
     1
 10
1204.8930623461383
 20
328.92239999999958
 11
1204.8930623461383
 21
334.14076485676753
 97
        0
 75
     0
 76
     1
 98
        1
 10
0.0
 20
0.0
  0
HATCH
  5
17D
100
AcDbEntity
  8
LAY-1
  6
CONTINUOUS
 62
     3
100
AcDbHatch
 10
0.0
 20
0.0
 30
0.0
210
0.0
220
0.0
230
1.0
  2
SOLID
 70
     1
 71
     1
 91
        1
 92
        1
 93
       12
 72
     2
 10
1216.9923253108263
 20
320.01736902390155
 40
27.555428571428664
 50
150.903074
 51
156.790773
 73
     1
 72
     1
 10
1191.6669055754487
 20
330.87668571428514
 11
1197.683699785659
 21
330.87668571428537
 72
     2
 10
1180.5923239740105
 20
325.96185826411056
 40
17.784000000000059
 50
16.043216
 51
21.362935
 73
     1
 72
     1
 10
1197.1544148721596
 20
332.44011428571389
 11
1199.0302052032807
 21
332.44011428571389
 72
     2
 10
1180.5923239740105
 20
325.96185826411056
 40
19.542857142857208
 50
340.64078
 51
351.286733
 73
     0
 72
     1
 10
1199.9096337747094
 20
328.92239999999958
 11
1189.0633480604238
 21
328.92239999999958
 72
     2
 10
1216.9923253108263
 20
320.01736902390155
 40
29.314285714285809
 50
197.684652
 51
207.200855
 73
     0
 72
     1
 10
1190.9199194889952
 20
333.41725714285678
 11
1188.1839194889953
 21
333.41725714285678
 72
     1
 10
1188.1839194889953
 20
333.41725714285678
 11
1188.1839194889953
 21
335.37154285714252
 72
     1
 10
1188.1839194889953
 20
335.37154285714252
 11
1200.6913480604239
 21
335.37154285714252
 72
     1
 10
1200.6913480604239
 20
335.37154285714252
 11
1200.6913480604239
 21
333.41725714285678
 72
     1
 10
1200.6913480604239
 20
333.41725714285678
 11
1192.9144383156063
 21
333.41725714285678
 97
        0
 75
     0
 76
     1
 98
        1
 10
0.0
 20
0.0
  0
HATCH
  5
17E
100
AcDbEntity
  8
LAY-1
  6
CONTINUOUS
 62
     3
100
AcDbHatch
 10
0.0
 20
0.0
 30
0.0
210
0.0
220
0.0
230
1.0
  2
SOLID
 70
     1
 71
     1
 91
        1
 92
        1
 93
       10
 72
     2
 10
1217.1095341569885
 20
362.31698452172736
 40
31.268571428571533
 50
129.545698
 51
136.474664
 73
     0
 72
     1
 10
1194.4376337747103
 20
340.78309281029414
 11
1194.4376337747103
 21
342.60239999999965
 72
     1
 10
1194.4376337747103
 20
342.60239999999965
 11
1195.4147766318526
 21
342.60239999999965
 72
     2
 10
1217.1095341569885
 20
362.31698452172736
 40
29.314285714285809
 50
222.262231
 51
237.763996
 73
     1
 72
     1
 10
1201.4730623461382
 20
337.52125714285683
 11
1200.2059852245461
 21
336.01121343110532
 72
     2
 10
1217.1095341569885
 20
362.31698452172736
 40
31.268571428571533
 50
122.723968
 51
128.230009
 73
     0
 72
     1
 10
1197.7599194889954
 20
337.75449337396572
 11
1197.7599194889954
 21
336.25097142857101
 72
     1
 10
1197.7599194889954
 20
336.25097142857101
 11
1194.4376337747103
 21
336.25097142857101
 72
     1
 10
1194.4376337747103
 20
336.25097142857101
 11
1194.4376337747103
 21
338.20525714285679
 72
     1
 10
1194.4376337747103
 20
338.20525714285679
 11
1197.2010394376305
 21
338.20525714285679
 97
        0
 75
     0
 76
     1
 98
        1
 10
0.0
 20
0.0
  0
HATCH
  5
17F
100
AcDbEntity
  8
LAY-1
  6
CONTINUOUS
 62
     3
100
AcDbHatch
 10
0.0
 20
0.0
 30
0.0
210
0.0
220
0.0
230
1.0
  2
SOLID
 70
     1
 71
     1
 91
        1
 92
        1
 93
       10
 72
     2
 10
1171.7657333924308
 20
362.31698452172736
 40
31.268571428571533
 50
51.769991
 51
57.276032
 73
     0
 72
     1
 10
1188.6692823248732
 20
336.01121343110526
 11
1187.402205203281
 21
337.52125714285677
 72
     2
 10
1171.7657333924308
 20
362.31698452172736
 40
29.314285714285809
 50
302.236004
 51
317.737769
 73
     1
 72
     1
 10
1193.4604909175666
 20
342.60239999999965
 11
1194.4376337747103
 21
342.60239999999965
 72
     1
 10
1194.4376337747103
 20
342.60239999999965
 11
1194.4376337747103
 21
340.78309281029533
 72
     2
 10
1171.7657333924308
 20
362.31698452172736
 40
31.268571428571533
 50
43.525336
 51
50.454302
 73
     0
 72
     1
 10
1191.6742281117888
 20
338.20525714285679
 11
1194.4376337747103
 21
338.20525714285679
 72
     1
 10
1194.4376337747103
 20
338.20525714285679
 11
1194.4376337747103
 21
336.25097142857101
 72
     1
 10
1194.4376337747103
 20
336.25097142857101
 11
1191.1153480604239
 21
336.25097142857101
 72
     1
 10
1191.1153480604239
 20
336.25097142857101
 11
1191.1153480604239
 21
337.75449337396572
 97
        0
 75
     0
 76
     1
 98
        1
 10
0.0
 20
0.0
  0
HATCH
  5
180
100
AcDbEntity
  8
LAY-1
  6
CONTINUOUS
 62
     3
100
AcDbHatch
 10
0.0
 20
0.0
 30
0.0
210
0.0
220
0.0
230
1.0
  2
SOLID
 70
     1
 71
     1
 91
        1
 92
        1
 93
       18
 72
     2
 10
1157.3824185673652
 20
333.82001663176288
 40
27.360000000000088
 50
14.02954
 51
18.723021
 73
     1
 72
     1
 10
1183.2945651857626
 20
342.60239999999965
 11
1185.3502052032809
 21
342.60239999999965
 72
     2
 10
1157.3824185673652
 20
333.82001663176288
 40
29.314285714285809
 50
342.566782
 51
346.922981
 73
     0
 72
     1
 10
1185.9364909175665
 20
340.45268571428539
 11
1186.7182052032808
 21
340.45268571428539
 72
     1
 10
1186.7182052032808
 20
340.45268571428539
 11
1186.7182052032808
 21
338.49839999999961
 72
     1
 10
1186.7182052032808
 20
338.49839999999961
 11
1183.0645766787611
 21
338.49839999999961
 72
     2
 10
1203.3296337747095
 20
341.7229714285711
 40
20.520000000000071
 50
189.041096
 51
204.65198
 73
     1
 72
     2
 10
1188.7669367980302
 20
335.03966058567721
 40
4.496929537153985
 50
204.65198
 51
242.897449
 73
     1
 72
     1
 10
1186.7182052032808
 20
331.036527548317
 11
1186.7182052032808
 21
328.92239999999958
 72
     2
 10
1188.7669367980302
 20
335.03966058567721
 40
6.451215251439705
 50
108.516212
 51
155.34802
 73
     0
 72
     2
 10
1203.3296337747095
 20
341.7229714285711
 40
22.474285714285784
 50
155.34802
 51
171.750831
 73
     0
 72
     1
 10
1181.0878789547905
 20
338.49839999999961
 11
1173.6244909175666
 21
338.49839999999961
 72
     1
 10
1173.6244909175666
 20
338.49839999999961
 11
1173.6244909175666
 21
340.45268571428539
 72
     1
 10
1173.6244909175666
 20
340.45268571428539
 11
1180.8860083423137
 21
340.45268571428539
 72
     1
 10
1180.8860083423137
 20
340.45268571428539
 11
1180.8109386652691
 21
342.60239999999965
 72
     1
 10
1180.8109386652691
 20
342.60239999999965
 11
1182.7664156032702
 21
342.60239999999965
 72
     1
 10
1182.7664156032702
 20
342.60239999999965
 11
1182.8414852803148
 21
340.45268571428539
 72
     1
 10
1182.8414852803148
 20
340.45268571428539
 11
1183.926293582927
 21
340.45268571428539
 97
        0
 75
     0
 76
     1
 98
        1
 10
0.0
 20
0.0
  0
HATCH
  5
181
100
AcDbEntity
  8
LAY-1
  6
CONTINUOUS
 62
     3
100
AcDbHatch
 10
0.0
 20
0.0
 30
0.0
210
0.0
220
0.0
230
1.0
  2
SOLID
 70
     1
 71
     1
 91
        1
 92
        1
 93
       12
 72
     2
 10
1167.4733349895873
 20
427.02917029779633
 40
95.760000000000318
 50
276.500664
 51
278.269357
 73
     1
 72
     1
 10
1181.2462052032811
 20
332.26480122335562
 11
1181.2462052032811
 21
330.29039999999964
 72
     2
 10
1167.4733349895873
 20
427.02917029779633
 40
97.714285714286035
 50
81.897153
 51
86.39082
 73
     0
 72
     1
 10
1173.6244909175666
 20
329.50868571428532
 11
1173.6244909175666
 21
331.4669346565675
 72
     2
 10
1167.4733349895873
 20
427.02917029779633
 40
95.760000000000318
 50
273.682937
 51
275.325087
 73
     1
 72
     1
 10
1176.3604909175667
 20
331.68245530712744
 11
1176.3604909175667
 21
334.78525714285672
 72
     1
 10
1176.3604909175667
 20
334.78525714285672
 11
1173.6244909175666
 21
334.78525714285672
 72
     1
 10
1173.6244909175666
 20
334.78525714285672
 11
1173.6244909175666
 21
336.73954285714245
 72
     1
 10
1173.6244909175666
 20
336.73954285714245
 11
1180.6599194889955
 21
336.73954285714245
 72
     1
 10
1180.6599194889955
 20
336.73954285714245
 11
1180.6599194889955
 21
334.78525714285672
 72
     1
 10
1180.6599194889955
 20
334.78525714285672
 11
1178.3147766318525
 21
334.78525714285672
 72
     1
 10
1178.3147766318525
 20
334.78525714285672
 11
1178.3147766318525
 21
331.88485494938777
 97
        0
 75
     0
 76
     1
 98
        1
 10
0.0
 20
0.0
  0
HATCH
  5
182
100
AcDbEntity
  8
LAY-1
  6
CONTINUOUS
 62
     3
100
AcDbHatch
 10
0.0
 20
0.0
 30
0.0
210
0.0
220
0.0
230
1.0
  2
SOLID
 70
     1
 71
     1
 91
        1
 92
        1
 93
       30
 72
     2
 10
1149.8101326516221
 20
345.72699129406152
 40
21.39942857142864
 50
37.940537
 51
46.713808
 73
     0
 72
     1
 10
1164.4824999472839
 20
330.14953382742516
 11
1163.1690623461382
 21
331.46297142857111
 72
     2
 10
1149.8101326516221
 20
345.72699129406152
 40
19.542857142857219
 50
313.123325
 51
325.95222
 73
     1
 72
     1
 10
1166.0027766318522
 20
334.78525714285678
 11
1163.6576337747097
 21
334.78525714285678
 72
     1
 10
1163.6576337747097
 20
334.78525714285678
 11
1163.6576337747097
 21
336.73954285714251
 72
     1
 10
1163.6576337747097
 20
336.73954285714251
 11
1166.6867766318524
 21
336.73954285714251
 72
     1
 10
1166.6867766318524
 20
336.73954285714251
 11
1166.6867766318524
 21
338.69382857142818
 72
     1
 10
1166.6867766318524
 20
338.69382857142818
 11
1165.7124108854987
 21
338.69382857142818
 72
     2
 10
1144.8156290841766
 20
342.82753657492077
 40
21.301714285714365
 50
11.189535
 51
14.746058
 73
     0
 72
     1
 10
1165.4157384602549
 20
337.40549588862814
 11
1163.7553480604238
 21
338.00982857142816
 72
     2
 10
1144.8156290841766
 20
342.82753657492077
 40
19.542857142857219
 50
345.728313
 51
357.620387
 73
     1
 72
     1
 10
1164.3416337747096
 20
342.01611428571971
 11
1166.0879141641642
 21
341.70819793717681
 72
     2
 10
1144.8156290841766
 20
342.82753657492077
 40
21.301714285714365
 50
3.012102
 51
6.401006
 73
     0
 72
     1
 10
1165.9845476890546
 20
340.45268571428539
 11
1166.6867766318524
 21
340.45268571428539
 72
     1
 10
1166.6867766318524
 20
340.45268571428539
 11
1166.6867766318524
 21
342.60239999999965
 72
     1
 10
1166.6867766318524
 20
342.60239999999965
 11
1168.6410623461381
 21
342.60239999999965
 72
     1
 10
1168.6410623461381
 20
342.60239999999965
 11
1168.6410623461381
 21
340.45268571428539
 72
     1
 10
1168.6410623461381
 20
340.45268571428539
 11
1171.2793480604239
 21
340.45268571428539
 72
     1
 10
1171.2793480604239
 20
340.45268571428539
 11
1171.2793480604239
 21
338.69382857142818
 72
     1
 10
1171.2793480604239
 20
338.69382857142818
 11
1168.6410623461381
 21
338.69382857142818
 72
     1
 10
1168.6410623461381
 20
338.69382857142818
 11
1168.6410623461381
 21
336.73954285714251
 72
     1
 10
1168.6410623461381
 20
336.73954285714251
 11
1171.6702052032811
 21
336.73954285714251
 72
     1
 10
1171.6702052032811
 20
336.73954285714251
 11
1171.6702052032811
 21
334.78525714285678
 72
     1
 10
1171.6702052032811
 20
334.78525714285678
 11
1169.3250623461381
 21
334.78525714285678
 72
     2
 10
1185.5177063263682
 20
345.72699129406146
 40
19.542857142857219
 50
214.04778
 51
226.876675
 73
     1
 72
     1
 10
1172.1587766318521
 20
331.46297142857111
 11
1170.8453390307061
 21
330.14953382742516
 72
     2
 10
1185.5177063263682
 20
345.72699129406146
 40
21.39942857142864
 50
133.286192
 51
142.059463
 73
     0
 72
     1
 10
1168.6410623461381
 20
332.56969555564166
 11
1168.6410623461381
 21
328.92239999999958
 72
     1
 10
1168.6410623461381
 20
328.92239999999958
 11
1166.6867766318524
 21
328.92239999999958
 72
     1
 10
1166.6867766318524
 20
328.92239999999958
 11
1166.6867766318524
 21
332.56969555564217
 97
        0
 75
     0
 76
     1
 98
        1
 10
0.0
 20
0.0
  0
HATCH
  5
183
100
AcDbEntity
  8
LAY-1
  6
CONTINUOUS
 62
     3
100
AcDbHatch
 10
0.0
 20
0.0
 30
0.0
210
0.0
220
0.0
230
1.0
  2
SOLID
 70
     1
 71
     1
 91
        1
 92
        1
 93
       19
 72
     2
 10
1141.7652264725416
 20
343.1186953521526
 40
21.301714285714358
 50
27.683433
 51
32.280505
 73
     0
 72
     1
 10
1159.7746244697908
 20
331.74220137171699
 11
1158.3810623461382
 21
332.83097142857105
 72
     2
 10
1141.7652264725416
 20
343.1186953521526
 40
19.542857142857208
 50
328.236207
 51
344.845745
 73
     1
 72
     1
 10
1160.6284909175665
 20
338.00982857142822
 11
1158.8696337747097
 21
338.00982857142822
 72
     1
 10
1158.8696337747097
 20
338.00982857142822
 11
1158.8696337747097
 21
339.96411428571389
 72
     1
 10
1158.8696337747097
 20
339.96411428571389
 11
1160.6284909175668
 21
339.96411428571389
 72
     1
 10
1160.6284909175668
 20
339.96411428571389
 11
1160.6284909175668
 21
342.60239999999965
 72
     1
 10
1160.6284909175668
 20
342.60239999999965
 11
1162.5827766318525
 21
342.60239999999965
 72
     1
 10
1162.5827766318525
 20
342.60239999999965
 11
1162.5827766318525
 21
339.96411428571389
 72
     1
 10
1162.5827766318525
 20
339.96411428571389
 11
1163.462205203281
 21
339.96411428571389
 72
     1
 10
1163.462205203281
 20
339.96411428571389
 11
1163.462205203281
 21
338.00982857142822
 72
     1
 10
1163.462205203281
 20
338.00982857142822
 11
1162.5827766318523
 21
338.00982857142822
 72
     1
 10
1162.5827766318523
 20
338.00982857142822
 11
1163.6576337747097
 21
336.47477348532402
 72
     1
 10
1163.6576337747097
 20
336.47477348532402
 11
1163.6576337747097
 21
335.28502983280987
 72
     1
 10
1163.6576337747097
 20
335.28502983280987
 11
1163.0713480604236
 21
334.58632172652301
 72
     1
 10
1163.0713480604236
 20
334.58632172652301
 11
1162.5827766318525
 21
335.28407403838833
 72
     1
 10
1162.5827766318525
 20
335.28407403838833
 11
1162.5827766318525
 21
328.92239999999958
 72
     1
 10
1162.5827766318525
 20
328.92239999999958
 11
1160.6284909175668
 21
328.92239999999958
 72
     1
 10
1160.6284909175668
 20
328.92239999999958
 11
1160.6284909175668
 21
333.22221688821099
 97
        0
 75
     0
 76
     1
 98
        1
 10
0.0
 20
0.0
  0
HATCH
  5
184
100
AcDbEntity
  8
LAY-1
  6
CONTINUOUS
 62
     3
100
AcDbHatch
 10
0.0
 20
0.0
 30
0.0
210
0.0
220
0.0
230
1.0
  2
SOLID
 70
     1
 71
     1
 91
        1
 92
        1
 93
        8
 72
     2
 10
1149.9734399562067
 20
334.66799999999932
 40
3.8304000000000311
 50
270.0
 51
330.0
 73
     1
 72
     2
 10
1148.0778835524034
 20
335.76239999999933
 40
6.019200000000029
 50
330.0
 51
30.0
 73
     1
 72
     2
 10
1149.9734399562067
 20
336.85679999999934
 40
3.8304000000000289
 50
30.0
 51
90.0
 73
     1
 72
     1
 10
1149.9734399562078
 20
340.68719999999939
 11
1149.9734399562078
 21
342.87599999999981
 72
     2
 10
1149.9734399562067
 20
336.85679999999979
 40
6.0192000000000192
 50
270.0
 51
330.0
 73
     0
 72
     2
 10
1148.0778835524036
 20
335.76239999999973
 40
8.2080000000000375
 50
330.0
 51
30.0
 73
     0
 72
     2
 10
1149.9734399562069
 20
334.6679999999991
 40
6.0192000000000121
 50
30.0
 51
90.0
 73
     0
 72
     1
 10
1149.9734399562078
 20
328.64879999999908
 11
1149.9734399562078
 21
330.83759999999927
 97
        0
 75
     0
 76
     1
 98
        1
 10
0.0
 20
0.0
  0
HATCH
  5
185
100
AcDbEntity
  8
LAY-1
  6
CONTINUOUS
 62
     3
100
AcDbHatch
 10
0.0
 20
0.0
 30
0.0
210
0.0
220
0.0
230
1.0
  2
SOLID
 70
     1
 71
     1
 91
        1
 92
        1
 93
        8
 72
     2
 10
1149.9734399562069
 20
334.6679999999991
 40
6.0192000000000121
 50
90.0
 51
150.0
 73
     0
 72
     2
 10
1151.86899636001
 20
335.76239999999927
 40
8.2080000000000446
 50
150.0
 51
210.0
 73
     0
 72
     2
 10
1149.9734399562067
 20
336.85679999999979
 40
6.0192000000000192
 50
210.0
 51
270.0
 73
     0
 72
     1
 10
1149.9734399562078
 20
342.87599999999981
 11
1149.9734399562078
 21
340.68719999999939
 72
     2
 10
1149.9734399562067
 20
336.85679999999934
 40
3.8304000000000289
 50
90.0
 51
150.0
 73
     1
 72
     2
 10
1151.86899636001
 20
335.76239999999933
 40
6.0192000000000316
 50
150.0
 51
210.0
 73
     1
 72
     2
 10
1149.9734399562067
 20
334.66799999999932
 40
3.8304000000000311
 50
210.0
 51
270.0
 73
     1
 72
     1
 10
1149.9734399562078
 20
330.83759999999927
 11
1149.9734399562078
 21
328.64879999999908
 97
        0
 75
     0
 76
     1
 98
        1
 10
0.0
 20
0.0
  0
HATCH
  5
186
100
AcDbEntity
  8
LAY-1
  6
CONTINUOUS
 62
     3
100
AcDbHatch
 10
0.0
 20
0.0
 30
0.0
210
0.0
220
0.0
230
1.0
  2
SOLID
 70
     1
 71
     1
 91
        1
 92
        1
 93
        4
 72
     1
 10
1141.4918399562066
 20
333.29999999999933
 11
1139.3030399562067
 21
333.29999999999933
 72
     1
 10
1139.3030399562067
 20
333.29999999999933
 11
1139.3030399562067
 21
335.48879999999929
 72
     1
 10
1139.3030399562067
 20
335.48879999999929
 11
1141.4918399562066
 21
335.48879999999929
 72
     1
 10
1141.4918399562066
 20
335.48879999999929
 11
1141.4918399562066
 21
333.29999999999916
 97
        0
 75
     0
 76
     1
 98
        1
 10
0.0
 20
0.0
  0
HATCH
  5
187
100
AcDbEntity
  8
LAY-1
  6
CONTINUOUS
 62
     3
100
AcDbHatch
 10
0.0
 20
0.0
 30
0.0
210
0.0
220
0.0
230
1.0
  2
SOLID
 70
     1
 71
     1
 91
        1
 92
        1
 93
       16
 72
     1
 10
1131.0950399562066
 20
340.41359999999935
 11
1128.0854399562068
 21
340.41359999999935
 72
     1
 10
1128.0854399562068
 20
340.41359999999935
 11
1127.5382399562068
 21
337.40399999999931
 72
     1
 10
1127.5382399562068
 20
337.40399999999931
 11
1125.8966399562069
 21
337.40399999999931
 72
     1
 10
1125.8966399562069
 20
337.40399999999931
 11
1125.8966399562069
 21
342.60239999999936
 72
     1
 10
1125.8966399562069
 20
342.60239999999936
 11
1138.4822399562067
 21
342.60239999999936
 72
     1
 10
1138.4822399562067
 20
342.60239999999936
 11
1138.4822399562067
 21
337.40399999999931
 72
     1
 10
1138.4822399562067
 20
337.40399999999931
 11
1136.8406399562068
 21
337.40399999999931
 72
     1
 10
1136.8406399562068
 20
337.40399999999931
 11
1136.2934399562068
 21
340.41359999999935
 72
     1
 10
1136.2934399562068
 20
340.41359999999935
 11
1133.2838399562065
 21
340.41359999999935
 72
     1
 10
1133.2838399562065
 20
340.41359999999935
 11
1133.2838399562067
 21
331.11119999999931
 72
     1
 10
1133.2838399562067
 20
331.11119999999931
 11
1135.4726399562069
 21
330.56399999999928
 72
     1
 10
1135.4726399562069
 20
330.56399999999928
 11
1135.4726399562069
 21
328.9223999999993
 72
     1
 10
1135.4726399562069
 20
328.9223999999993
 11
1128.9062399562067
 21
328.9223999999993
 72
     1
 10
1128.9062399562067
 20
328.9223999999993
 11
1128.9062399562067
 21
330.56399999999928
 72
     1
 10
1128.9062399562067
 20
330.56399999999928
 11
1131.0950399562066
 21
331.11119999999931
 72
     1
 10
1131.0950399562066
 20
331.11119999999931
 11
1131.0950399562066
 21
340.41359999999935
 97
        0
 75
     0
 76
     1
 98
        1
 10
0.0
 20
0.0
  0
HATCH
  5
188
100
AcDbEntity
  8
LAY-1
  6
CONTINUOUS
 62
     3
100
AcDbHatch
 10
0.0
 20
0.0
 30
0.0
210
0.0
220
0.0
230
1.0
  2
SOLID
 70
     1
 71
     1
 91
        1
 92
        1
 93
        4
 72
     1
 10
1122.8870399562065
 20
333.29999999999933
 11
1122.8870399562068
 21
335.48879999999946
 72
     1
 10
1122.8870399562068
 20
335.48879999999946
 11
1125.0758399562067
 21
335.48879999999929
 72
     1
 10
1125.0758399562067
 20
335.48879999999929
 11
1125.0758399562067
 21
333.29999999999933
 72
     1
 10
1125.0758399562067
 20
333.29999999999933
 11
1122.8870399562068
 21
333.29999999999933
 97
        0
 75
     0
 76
     1
 98
        1
 10
0.0
 20
0.0
  0
HATCH
  5
189
100
AcDbEntity
  8
LAY-1
  6
CONTINUOUS
 62
     3
100
AcDbHatch
 10
0.0
 20
0.0
 30
0.0
210
0.0
220
0.0
230
1.0
  2
SOLID
 70
     1
 71
     1
 91
        1
 92
        1
 93
       12
 72
     1
 10
1120.4246399562066
 20
342.60239999999936
 11
1120.4246399562066
 21
340.96079999999938
 72
     1
 10
1120.4246399562066
 20
340.96079999999938
 11
1118.2358399562067
 21
340.41359999999935
 72
     1
 10
1118.2358399562067
 20
340.41359999999935
 11
1118.2358399562067
 21
331.11119999999931
 72
     1
 10
1118.2358399562067
 20
331.11119999999931
 11
1120.4246399562066
 21
330.56399999999928
 72
     1
 10
1120.4246399562066
 20
330.56399999999928
 11
1120.4246399562066
 21
328.9223999999993
 72
     1
 10
1120.4246399562066
 20
328.9223999999993
 11
1113.8582399562065
 21
328.9223999999993
 72
     1
 10
1113.8582399562065
 20
328.9223999999993
 11
1113.8582399562065
 21
330.56399999999928
 72
     1
 10
1113.8582399562065
 20
330.56399999999928
 11
1116.0470399562066
 21
331.11119999999931
 72
     1
 10
1116.0470399562066
 20
331.11119999999931
 11
1116.0470399562066
 21
340.41359999999935
 72
     1
 10
1116.0470399562066
 20
340.41359999999935
 11
1113.8582399562065
 21
340.96079999999938
 72
     1
 10
1113.8582399562065
 20
340.96079999999938
 11
1113.8582399562065
 21
342.60239999999936
 72
     1
 10
1113.8582399562065
 20
342.60239999999936
 11
1120.4246399562066
 21
342.60239999999936
 97
        0
 75
     0
 76
     1
 98
        1
 10
0.0
 20
0.0
  0
HATCH
  5
18A
100
AcDbEntity
  8
LAY-1
  6
CONTINUOUS
 62
     3
100
AcDbHatch
 10
0.0
 20
0.0
 30
0.0
210
0.0
220
0.0
230
1.0
  2
SOLID
 70
     1
 71
     1
 91
        1
 92
        1
 93
       15
 72
     2
 10
1098.9677733373444
 20
335.76239999999962
 40
6.0745274527452837
 50
124.301153
 51
180.0
 73
     0
 72
     1
 10
1092.8932458845991
 20
335.76239999999996
 11
1095.1853918852999
 21
335.76239999999996
 72
     2
 10
1101.0957429204036
 20
335.76239999999967
 40
5.9103510351035284
 50
180.0
 51
199.464384
 73
     1
 72
     2
 10
1095.4275302913027
 20
336.4180287555987
 40
2.6268226822682901
 50
272.086657
 51
294.619977
 73
     1
 72
     2
 10
1096.1798811524727
 20
334.77626457918103
 40
0.8208820882088257
 50
294.619977
 51
0.0
 73
     1
 72
     1
 10
1097.0007632406814
 20
334.77626457918103
 11
1097.0007632406814
 21
335.76239999999996
 72
     1
 10
1097.0007632406814
 20
335.76239999999996
 11
1098.9708802523826
 21
335.76239999999996
 72
     1
 10
1098.9708802523826
 20
335.76239999999996
 11
1098.9708802523826
 21
334.77452273406681
 72
     2
 10
1099.7917623405915
 20
334.77452273406681
 40
0.8208820882087921
 50
180.0
 51
245.380023
 73
     1
 72
     2
 10
1100.5441132017615
 20
336.41628691048481
 40
2.6268226822685787
 50
245.380023
 51
267.913343
 73
     1
 72
     1
 10
1100.4484680111586
 20
333.79120607333039
 11
1100.4484680111586
 21
333.29867682040515
 72
     1
 10
1100.4484680111586
 20
333.29867682040515
 11
1095.7233768259835
 21
333.29867682040515
 72
     2
 10
1101.0957429204036
 20
335.76239999999967
 40
5.9103510351035204
 50
204.635803
 51
268.19864
 73
     1
 72
     1
 10
1100.9099541153701
 20
329.85496977374447
 11
1100.9099541153701
 21
329.03291908481049
 72
     2
 10
1101.0957429204036
 20
338.88175193519351
 40
9.8505850585058958
 50
91.080702
 51
124.301153
 73
     0
 97
        0
 75
     0
 76
     1
 98
        1
 10
0.0
 20
0.0
  0
HATCH
  5
18B
100
AcDbEntity
  8
LAY-1
  6
CONTINUOUS
 62
     3
100
AcDbHatch
 10
0.0
 20
0.0
 30
0.0
210
0.0
220
0.0
230
1.0
  2
SOLID
 70
     1
 71
     1
 91
        1
 92
        1
 93
       24
 72
     2
 10
1099.9558194226413
 20
336.58328208820848
 40
0.8208820882088329
 50
90.0
 51
157.380135
 73
     1
 72
     2
 10
1101.9259364343425
 20
335.76239999999973
 40
2.9551755175517687
 50
157.380135
 51
180.0
 73
     1
 72
     1
 10
1098.9707609167906
 20
335.76239999999996
 11
1097.0007632406814
 21
335.76239999999996
 72
     1
 10
1097.0007632406814
 20
335.76239999999996
 11
1097.0007632406814
 21
340.02425297503441
 72
     2
 10
1101.0957429204036
 20
335.76239999999967
 40
5.9103510351035284
 50
133.856042
 51
180.0
 73
     1
 72
     1
 10
1095.1853918852999
 20
335.76239999999996
 11
1092.8932458845991
 21
335.76239999999996
 72
     2
 10
1098.9677733373444
 20
335.76239999999962
 40
6.0745274527452837
 50
180.0
 51
235.698847
 73
     0
 72
     2
 10
1101.0957429204036
 20
332.64304806480578
 40
9.8505850585059171
 50
235.698847
 51
245.436008
 73
     0
 72
     1
 10
1097.0007632406814
 20
341.60213102108668
 11
1097.0007632406814
 21
342.49429805345818
 72
     2
 10
1096.1798811524727
 20
342.49429805345818
 40
0.820882088208821
 50
0.0
 51
65.380023
 73
     1
 72
     2
 10
1095.4275302913027
 20
340.85253387704051
 40
2.6268226822682306
 50
65.380023
 51
87.913343
 73
     1
 72
     1
 10
1095.5231754819056
 20
343.4776147141946
 11
1095.5231754819056
 21
343.97014396711984
 72
     1
 10
1095.5231754819056
 20
343.97014396711984
 11
1100.4484680111586
 21
343.97014396711984
 72
     1
 10
1100.4484680111586
 20
343.97014396711984
 11
1100.4484680111586
 21
343.4776147141946
 72
     2
 10
1100.5441132017615
 20
340.85253387704051
 40
2.6268226822682426
 50
92.086657
 51
114.619977
 73
     1
 72
     2
 10
1099.7917623405915
 20
342.49429805345824
 40
0.8208820882088329
 50
114.619977
 51
180.0
 73
     1
 72
     1
 10
1098.9708802523828
 20
342.49429805345818
 11
1098.9708802523828
 21
342.26172700928203
 72
     2
 10
1101.0957429204036
 20
332.64304806480578
 40
9.8505850585058923
 50
257.542857
 51
268.919298
 73
     0
 72
     1
 10
1100.9099541153701
 20
342.4918809151888
 11
1100.9099541153701
 21
341.66983022625487
 72
     2
 10
1101.0957429204036
 20
335.76239999999967
 40
5.9103510351035284
 50
91.80136
 51
111.070443
 73
     1
 72
     1
 10
1098.9708802523826
 20
341.27757977949909
 11
1098.9708802523826
 21
338.22504626462614
 72
     1
 10
1098.9708802523826
 20
338.22504626462614
 11
1100.9099541153703
 21
338.22504626462614
 72
     1
 10
1100.9099541153703
 20
338.22504626462614
 11
1100.9099541153701
 21
337.40416417641728
 72
     1
 10
1100.9099541153701
 20
337.40416417641728
 11
1099.9558194226413
 21
337.40416417641728
 97
        0
 75
     0
 76
     1
 98
        1
 10
0.0
 20
0.0
  0
HATCH
  5
18C
100
AcDbEntity
  8
LAY-1
  6
CONTINUOUS
 62
     3
100
AcDbHatch
 10
0.0
 20
0.0
 30
0.0
210
0.0
220
0.0
230
1.0
  2
SOLID
 70
     1
 71
     1
 91
        1
 92
        1
 93
       14
 72
     2
 10
1101.0957429204036
 20
335.76239999999967
 40
5.91035103510354
 50
0.0
 51
9.281799
 73
     1
 72
     2
 10
1106.1185754637663
 20
336.58328208820848
 40
0.820882088208816
 50
9.281799
 51
90.0
 73
     1
 72
     1
 10
1106.1185754637663
 20
337.40416417641728
 11
1104.3792712732388
 21
337.40416417641728
 72
     1
 10
1104.3792712732388
 20
337.40416417641728
 11
1104.3792712732388
 21
335.76239999999996
 72
     1
 10
1104.3792712732388
 20
335.76239999999996
 11
1102.4091542615377
 21
335.76239999999996
 72
     1
 10
1102.4091542615377
 20
335.76239999999996
 11
1102.4091542615377
 21
337.40416417641728
 72
     1
 10
1102.4091542615377
 20
337.40416417641728
 11
1100.9099541153701
 21
337.40416417641728
 72
     1
 10
1100.9099541153701
 20
337.40416417641728
 11
1100.9099541153701
 21
338.22504626462614
 72
     1
 10
1100.9099541153701
 20
338.22504626462614
 11
1106.4686027486023
 21
338.22504626462603
 72
     2
 10
1101.0957429204036
 20
335.76239999999967
 40
5.9103510351035284
 50
24.624318
 51
91.80136
 73
     1
 72
     1
 10
1100.9099541153701
 20
341.66983022625487
 11
1100.9099541153701
 21
342.4918809151888
 72
     2
 10
1101.0957429204036
 20
332.64304806480578
 40
9.8505850585058923
 50
268.919298
 51
304.301153
 73
     0
 72
     2
 10
1103.2237125034626
 20
335.76239999999962
 40
6.074527452745289
 50
304.301153
 51
0.0
 73
     0
 72
     1
 10
1109.2982399562079
 20
335.76239999999996
 11
1107.0060939555069
 21
335.76239999999996
 97
        0
 75
     0
 76
     1
 98
        1
 10
0.0
 20
0.0
  0
HATCH
  5
18D
100
AcDbEntity
  8
LAY-1
  6
CONTINUOUS
 62
     3
100
AcDbHatch
 10
0.0
 20
0.0
 30
0.0
210
0.0
220
0.0
230
1.0
  2
SOLID
 70
     1
 71
     1
 91
        1
 92
        1
 93
       19
 72
     2
 10
1101.0957429204036
 20
335.76239999999967
 40
5.91035103510354
 50
303.748989
 51
0.0
 73
     1
 72
     1
 10
1107.0060939555069
 20
335.76239999999996
 11
1109.2982399562079
 21
335.76239999999996
 72
     2
 10
1103.2237125034626
 20
335.76239999999962
 40
6.074527452745289
 50
0.0
 51
55.698847
 73
     0
 72
     2
 10
1101.0957429204036
 20
338.88175193519351
 40
9.85058505850591
 50
55.698847
 51
70.528779
 73
     0
 72
     1
 10
1104.3792712732388
 20
329.59453127716091
 11
1104.3792712732388
 21
329.02942503157306
 72
     2
 10
1105.2001533614475
 20
329.02942503157306
 40
0.8208820882088257
 50
180.0
 51
245.380023
 73
     1
 72
     2
 10
1105.9525042226178
 20
330.67118920799078
 40
2.6268226822682377
 50
245.380023
 51
267.913343
 73
     1
 72
     1
 10
1105.8568590320147
 20
328.04610837083669
 11
1105.8568590320147
 21
327.5535791179114
 72
     1
 10
1105.8568590320147
 20
327.5535791179114
 11
1100.9315665027618
 21
327.5535791179114
 72
     1
 10
1100.9315665027618
 20
327.5535791179114
 11
1100.9315665027618
 21
328.04610837083669
 72
     2
 10
1100.8359213121589
 20
330.67118920799078
 40
2.6268226822682377
 50
272.086657
 51
294.619977
 73
     1
 72
     2
 10
1101.5882721733287
 20
329.02942503157306
 40
0.8208820882088257
 50
294.619977
 51
0.0
 73
     1
 72
     1
 10
1102.4091542615377
 20
329.02942503157306
 11
1102.4091542615377
 21
329.11912028978963
 72
     2
 10
1101.0957429204036
 20
338.88175193519351
 40
9.8505850585058958
 50
82.337744
 51
91.080702
 73
     0
 72
     1
 10
1100.9099541153701
 20
329.03291908481049
 11
1100.9099541153701
 21
329.85496977374447
 72
     2
 10
1101.0957429204036
 20
335.76239999999967
 40
5.9103510351035204
 50
268.19864
 51
282.839588
 73
     1
 72
     1
 10
1102.4091542615377
 20
329.99983112777522
 11
1102.4091542615377
 21
335.76239999999996
 72
     1
 10
1102.4091542615377
 20
335.76239999999996
 11
1104.3792712732388
 21
335.76239999999996
 72
     1
 10
1104.3792712732388
 20
335.76239999999996
 11
1104.3792712732388
 21
330.84806475357254
 97
        0
 75
     0
 76
     1
 98
        1
 10
0.0
 20
0.0
  0
TEXT
  5
18E
100
AcDbEntity
  8
LAY-1
  6
CONTINUOUS
 62
     3
100
AcDbText
 10
1066.9488
 20
390.576
 30
0.0
 40
16.0
  1
Ｄ１－５０Ｆ
 41
0.84
  7
EXCADSTD
 72
     5
 11
1162.9488
 21
390.576
 31
0.0
100
AcDbText
  0
TEXT
  5
18F
100
AcDbEntity
  8
LAY-1
  6
CONTINUOUS
 62
     3
100
AcDbText
 10
1075.384
 20
412.656
 30
0.0
 40
16.0
  1
２０１４年　６月２６日
 41
0.84
  7
EXCADSTD
 72
     5
 11
1251.384
 21
412.656
 31
0.0
100
AcDbText
  0
TEXT
  5
190
100
AcDbEntity
  8
LAY-1
  6
CONTINUOUS
 62
     3
100
AcDbText
 10
1066.9232
 20
368.2528
 30
0.0
 40
16.0
  1
５０Ａフランジ式グローブバルブ
 41
0.738508
  7
EXCADSTD
 72
     5
 11
1277.92557
 21
368.2528
 31
0.0
100
AcDbText
  0
TEXT
  5
191
100
AcDbEntity
  8
LAY-1
  6
CONTINUOUS
 62
     3
100
AcDbText
 10
983.2
 20
117.1
 30
0.0
 40
20.0
  1
ＪＩＳ２０Ｋ　５０Ａフランジ
 41
0.84
  7
EXCADSTD
 72
     5
 11
1263.2
 21
117.1
 31
0.0
100
AcDbText
  0
POLYLINE
  5
192
100
AcDbEntity
  8
LAY-1
  6
CONTINUOUS
 62
     1
100
AcDb2dPolyline
 66
     1
 10
0.0
 20
0.0
 30
0.0
 70
   128
  0
VERTEX
  5
193
100
AcDbEntity
  8
LAY-1
  6
CONTINUOUS
 62
     1
100
AcDbVertex
100
AcDb2dVertex
 10
937.0
 20
148.7
 30
0.0
  0
VERTEX
  5
194
100
AcDbEntity
  8
LAY-1
  6
CONTINUOUS
 62
     1
100
AcDbVertex
100
AcDb2dVertex
 10
978.2
 20
116.8
 30
0.0
  0
VERTEX
  5
195
100
AcDbEntity
  8
LAY-1
  6
CONTINUOUS
 62
     1
100
AcDbVertex
100
AcDb2dVertex
 10
1267.0
 20
116.8
 30
0.0
  0
SEQEND
  5
196
100
AcDbEntity
  8
LAY-1
  6
CONTINUOUS
 62
     1
  0
LINE
  5
197
100
AcDbEntity
  8
LAY-1
  6
CONTINUOUS
 62
     1
100
AcDbLine
 10
938.785458
 20
147.739141
 30
0.0
 11
937.0
 21
148.7
 31
0.0
  0
LINE
  5
198
100
AcDbEntity
  8
LAY-1
  6
CONTINUOUS
 62
     1
100
AcDbLine
 10
937.0
 20
148.7
 30
0.0
 11
938.377317
 21
147.212012
 31
0.0
  0
LINE
  5
199
100
AcDbEntity
  8
LAY-1
  6
CONTINUOUS
 62
     1
100
AcDbLine
 10
889.0
 20
415.4
 30
0.0
 11
889.0
 21
467.0
 31
0.0
  0
LINE
  5
19A
100
AcDbEntity
  8
LAY-1
  6
CONTINUOUS
 62
     1
100
AcDbLine
 10
769.0
 20
415.4
 30
0.0
 11
769.0
 21
467.0
 31
0.0
  0
TEXT
  5
19B
100
AcDbEntity
  8
LAY-1
  6
CONTINUOUS
 62
     3
100
AcDbText
 10
799.0
 20
467.5
 30
0.0
 40
20.0
  1
１２０
 41
0.84
  7
EXCADSTD
 72
     5
 11
859.0
 21
467.5
 31
0.0
100
AcDbText
  0
LINE
  5
19C
100
AcDbEntity
  8
LAY-1
  6
CONTINUOUS
 62
     1
100
AcDbLine
 10
889.0
 20
466.5
 30
0.0
 11
769.0
 21
466.5
 31
0.0
  0
LINE
  5
19D
100
AcDbEntity
  8
LAY-1
  6
CONTINUOUS
 62
     1
100
AcDbLine
 10
887.0
 20
466.166667
 30
0.0
 11
889.0
 21
466.5
 31
0.0
  0
LINE
  5
19E
100
AcDbEntity
  8
LAY-1
  6
CONTINUOUS
 62
     1
100
AcDbLine
 10
889.0
 20
466.5
 30
0.0
 11
887.0
 21
466.833333
 31
0.0
  0
LINE
  5
19F
100
AcDbEntity
  8
LAY-1
  6
CONTINUOUS
 62
     1
100
AcDbLine
 10
771.0
 20
466.833333
 30
0.0
 11
769.0
 21
466.5
 31
0.0
  0
LINE
  5
1A0
100
AcDbEntity
  8
LAY-1
  6
CONTINUOUS
 62
     1
100
AcDbLine
 10
769.0
 20
466.5
 30
0.0
 11
771.0
 21
466.166667
 31
0.0
  0
TEXT
  5
1A1
100
AcDbEntity
  8
LAY-1
  6
CONTINUOUS
 62
     4
100
AcDbText
 10
811.2
 20
241.3
 30
0.0
 40
9.0
  1
ＦＣＤ－Ｓ
 41
0.672
  7
EXCADSTD
 72
     5
 11
847.199999
 21
241.3
 31
0.0
100
AcDbText
  0
TEXT
  5
1A2
100
AcDbEntity
  8
LAY-1
  6
CONTINUOUS
 62
     3
100
AcDbText
 10
850.296001
 20
694.576257
 30
0.0
 40
7.071068
  1
ＳＨＵＴ
 50
318.0
 41
0.609
  7
EXCADSTD
 72
     5
 11
865.535
 21
680.855
 31
0.0
100
AcDbText
  0
TEXT
  5
1A3
100
AcDbEntity
  8
LAY-1
  6
CONTINUOUS
 62
     3
100
AcDbText
 10
793.265
 20
681.555
 30
0.0
 40
7.071068
  1
ＯＰＥＮ
 50
42.0
 41
0.609
  7
EXCADSTD
 72
     5
 11
808.503999
 21
695.276257
 31
0.0
100
AcDbText
  0
LINE
  5
1A4
100
AcDbEntity
  8
LAY-1
  6
CONTINUOUS
 62
     7
100
AcDbLine
 10
851.0
 20
374.4
 30
0.0
 11
852.516657
 21
328.900278
 31
0.0
  0
LINE
  5
1A5
100
AcDbEntity
  8
LAY-1
  6
CONTINUOUS
 62
     7
100
AcDbLine
 10
884.0
 20
312.4
 30
0.0
 11
884.0
 21
298.4
 31
0.0
  0
LINE
  5
1A6
100
AcDbEntity
  8
LAY-1
  6
CONTINUOUS
 62
     7
100
AcDbLine
 10
829.0
 20
397.4
 30
0.0
 11
842.0
 21
397.4
 31
0.0
  0
LINE
  5
1A7
100
AcDbEntity
  8
LAY-1
  6
CONTINUOUS
 62
     7
100
AcDbLine
 10
836.0
 20
397.4
 30
0.0
 11
837.5
 21
394.801924
 31
0.0
  0
LINE
  5
1A8
100
AcDbEntity
  8
LAY-1
  6
CONTINUOUS
 62
     7
100
AcDbLine
 10
837.5
 20
394.801924
 30
0.0
 11
829.0
 21
394.801924
 31
0.0
  0
LINE
  5
1A9
100
AcDbEntity
  8
LAY-1
  6
CONTINUOUS
 62
     7
100
AcDbLine
 10
837.5
 20
387.4
 30
0.0
 11
829.0
 21
387.4
 31
0.0
  0
LINE
  5
1AA
100
AcDbEntity
  8
LAY-1
  6
CONTINUOUS
 62
     7
100
AcDbLine
 10
871.0
 20
298.4
 30
0.0
 11
871.0
 21
297.4
 31
0.0
  0
ARC
  5
1AB
100
AcDbEntity
  8
LAY-1
  6
CONTINUOUS
 62
     7
100
AcDbCircle
 10
882.0
 20
312.4
 30
0.0
 40
2.0
100
AcDbArc
 50
0.0
 51
90.0
  0
LINE
  5
1AC
100
AcDbEntity
  8
LAY-1
  6
CONTINUOUS
 62
     7
100
AcDbLine
 10
851.0
 20
376.4
 30
0.0
 11
851.0
 21
384.533975
 31
0.0
  0
LINE
  5
1AD
100
AcDbEntity
  8
LAY-1
  6
CONTINUOUS
 62
     7
100
AcDbLine
 10
851.0
 20
384.533975
 30
0.0
 11
849.5
 21
385.4
 31
0.0
  0
ARC
  5
1AE
100
AcDbEntity
  8
LAY-1
  6
CONTINUOUS
 62
     7
100
AcDbCircle
 10
880.0
 20
415.4
 30
0.0
 40
9.0
100
AcDbArc
 50
270.0
 51
90.0
  0
ARC
  5
1AF
100
AcDbEntity
  8
LAY-1
  6
CONTINUOUS
 62
     7
100
AcDbCircle
 10
845.919998
 20
397.604
 30
0.0
 40
3.0
100
AcDbArc
 50
97.992734
 51
168.521514
  0
ARC
  5
1B0
100
AcDbEntity
  8
LAY-1
  6
CONTINUOUS
 62
     7
100
AcDbCircle
 10
842.0
 20
398.4
 30
0.0
 40
1.0
100
AcDbArc
 50
270.0
 51
348.521514
  0
ARC
  5
1B1
100
AcDbEntity
  8
LAY-1
  6
CONTINUOUS
 62
     7
100
AcDbCircle
 10
816.0
 20
398.4
 30
0.0
 40
1.0
100
AcDbArc
 50
191.478486
 51
270.0
  0
ARC
  5
1B2
100
AcDbEntity
  8
LAY-1
  6
CONTINUOUS
 62
     7
100
AcDbCircle
 10
812.080002
 20
397.604
 30
0.0
 40
3.0
100
AcDbArc
 50
11.478486
 51
82.007266
  0
ARC
  5
1B3
100
AcDbEntity
  8
LAY-1
  6
CONTINUOUS
 62
     7
100
AcDbCircle
 10
778.0
 20
415.4
 30
0.0
 40
9.0
100
AcDbArc
 50
90.0
 51
270.0
  0
LINE
  5
1B4
100
AcDbEntity
  8
LAY-1
  6
CONTINUOUS
 62
     7
100
AcDbLine
 10
807.0
 20
384.533975
 30
0.0
 11
808.5
 21
385.4
 31
0.0
  0
LINE
  5
1B5
100
AcDbEntity
  8
LAY-1
  6
CONTINUOUS
 62
     7
100
AcDbLine
 10
807.0
 20
376.4
 30
0.0
 11
807.0
 21
384.533975
 31
0.0
  0
ARC
  5
1B6
100
AcDbEntity
  8
LAY-1
  6
CONTINUOUS
 62
     7
100
AcDbCircle
 10
776.0
 20
312.4
 30
0.0
 40
2.0
100
AcDbArc
 50
90.0
 51
180.0
  0
LINE
  5
1B7
100
AcDbEntity
  8
LAY-1
  6
CONTINUOUS
 62
     7
100
AcDbLine
 10
787.0
 20
298.4
 30
0.0
 11
787.0
 21
297.4
 31
0.0
  0
LINE
  5
1B8
100
AcDbEntity
  8
LAY-1
  6
CONTINUOUS
 62
     7
100
AcDbLine
 10
820.5
 20
387.4
 30
0.0
 11
829.0
 21
387.4
 31
0.0
  0
LINE
  5
1B9
100
AcDbEntity
  8
LAY-1
  6
CONTINUOUS
 62
     7
100
AcDbLine
 10
820.5
 20
394.801924
 30
0.0
 11
829.0
 21
394.801924
 31
0.0
  0
LINE
  5
1BA
100
AcDbEntity
  8
LAY-1
  6
CONTINUOUS
 62
     7
100
AcDbLine
 10
822.0
 20
397.4
 30
0.0
 11
820.5
 21
394.801924
 31
0.0
  0
LINE
  5
1BB
100
AcDbEntity
  8
LAY-1
  6
CONTINUOUS
 62
     7
100
AcDbLine
 10
829.0
 20
397.4
 30
0.0
 11
816.0
 21
397.4
 31
0.0
  0
LINE
  5
1BC
100
AcDbEntity
  8
LAY-1
  6
CONTINUOUS
 62
     7
100
AcDbLine
 10
774.0
 20
312.4
 30
0.0
 11
774.0
 21
298.4
 31
0.0
  0
LINE
  5
1BD
100
AcDbEntity
  8
LAY-1
  6
CONTINUOUS
 62
     7
100
AcDbLine
 10
807.0
 20
374.4
 30
0.0
 11
805.483343
 21
328.900278
 31
0.0
  0
ARC
  5
1BE
100
AcDbEntity
  8
LAY-1
  6
CONTINUOUS
 62
     7
100
AcDbCircle
 10
909.460177
 20
178.639324
 30
0.0
 40
10.0
100
AcDbArc
 50
75.0
 51
129.312129
  0
ARC
  5
1BF
100
AcDbEntity
  8
LAY-1
  6
CONTINUOUS
 62
     7
100
AcDbCircle
 10
911.0
 20
178.22673
 30
0.0
 40
10.0
100
AcDbArc
 50
0.0
 51
75.0
  0
ARC
  5
1C0
100
AcDbEntity
  8
LAY-1
  6
CONTINUOUS
 62
     7
100
AcDbCircle
 10
923.0
 20
146.4
 30
0.0
 40
2.0
100
AcDbArc
 50
180.0
 51
270.0
  0
ARC
  5
1C1
100
AcDbEntity
  8
LAY-1
  6
CONTINUOUS
 62
     7
100
AcDbCircle
 10
829.000003
 20
276.9
 30
0.0
 40
117.0
100
AcDbArc
 50
270.0
 51
309.312129
  0
LINE
  5
1C2
100
AcDbEntity
  8
LAY-1
  6
CONTINUOUS
 62
     7
100
AcDbLine
 10
912.048367
 20
188.298583
 30
0.0
 11
913.58819
 21
187.885988
 31
0.0
  0
LINE
  5
1C3
100
AcDbEntity
  8
LAY-1
  6
CONTINUOUS
 62
     7
100
AcDbLine
 10
923.0
 20
144.4
 30
0.0
 11
937.0
 21
144.4
 31
0.0
  0
LINE
  5
1C4
100
AcDbEntity
  8
LAY-1
  6
CONTINUOUS
 62
     7
100
AcDbLine
 10
923.0
 20
299.4
 30
0.0
 11
937.0
 21
299.4
 31
0.0
  0
LINE
  5
1C5
100
AcDbEntity
  8
LAY-1
  6
CONTINUOUS
 62
     7
100
AcDbLine
 10
912.048367
 20
255.501417
 30
0.0
 11
913.58819
 21
255.914012
 31
0.0
  0
ARC
  5
1C6
100
AcDbEntity
  8
LAY-1
  6
CONTINUOUS
 62
     7
100
AcDbCircle
 10
829.000003
 20
166.9
 30
0.0
 40
117.0
100
AcDbArc
 50
50.687871
 51
67.427826
  0
ARC
  5
1C7
100
AcDbEntity
  8
LAY-1
  6
CONTINUOUS
 62
     7
100
AcDbCircle
 10
923.0
 20
297.4
 30
0.0
 40
2.0
100
AcDbArc
 50
90.0
 51
180.0
  0
ARC
  5
1C8
100
AcDbEntity
  8
LAY-1
  6
CONTINUOUS
 62
     7
100
AcDbCircle
 10
911.0
 20
265.57327
 30
0.0
 40
10.0
100
AcDbArc
 50
285.0
 51
0.0
  0
ARC
  5
1C9
100
AcDbEntity
  8
LAY-1
  6
CONTINUOUS
 62
     7
100
AcDbCircle
 10
909.460177
 20
265.160676
 30
0.0
 40
10.0
100
AcDbArc
 50
230.687871
 51
285.0
  0
LINE
  5
1CA
100
AcDbEntity
  8
LAY-1
  6
CONTINUOUS
 62
     7
100
AcDbLine
 10
884.0
 20
297.4
 30
0.0
 11
884.0
 21
282.4
 31
0.0
  0
ARC
  5
1CB
100
AcDbEntity
  8
LAY-1
  6
CONTINUOUS
 62
     7
100
AcDbCircle
 10
875.100026
 20
277.799974
 30
0.0
 40
3.100026
100
AcDbArc
 50
90.0
 51
247.427826
  0
ARC
  5
1CC
100
AcDbEntity
  8
LAY-1
  6
CONTINUOUS
 62
     7
100
AcDbCircle
 10
882.5
 20
282.4
 30
0.0
 40
1.5
100
AcDbArc
 50
270.0
 51
0.0
  0
ARC
  5
1CD
100
AcDbEntity
  8
LAY-1
  6
CONTINUOUS
 62
     7
100
AcDbCircle
 10
775.5
 20
282.4
 30
0.0
 40
1.5
100
AcDbArc
 50
180.0
 51
270.0
  0
ARC
  5
1CE
100
AcDbEntity
  8
LAY-1
  6
CONTINUOUS
 62
     7
100
AcDbCircle
 10
782.899974
 20
277.799974
 30
0.0
 40
3.100026
100
AcDbArc
 50
292.572174
 51
90.0
  0
LINE
  5
1CF
100
AcDbEntity
  8
LAY-1
  6
CONTINUOUS
 62
     7
100
AcDbLine
 10
774.0
 20
297.4
 30
0.0
 11
774.0
 21
282.4
 31
0.0
  0
ARC
  5
1D0
100
AcDbEntity
  8
LAY-1
  6
CONTINUOUS
 62
     7
100
AcDbCircle
 10
748.539823
 20
265.160676
 30
0.0
 40
10.0
100
AcDbArc
 50
255.0
 51
309.312129
  0
ARC
  5
1D1
100
AcDbEntity
  8
LAY-1
  6
CONTINUOUS
 62
     7
100
AcDbCircle
 10
747.0
 20
265.57327
 30
0.0
 40
10.0
100
AcDbArc
 50
180.0
 51
255.0
  0
ARC
  5
1D2
100
AcDbEntity
  8
LAY-1
  6
CONTINUOUS
 62
     7
100
AcDbCircle
 10
735.0
 20
297.4
 30
0.0
 40
2.0
100
AcDbArc
 50
0.0
 51
90.0
  0
ARC
  5
1D3
100
AcDbEntity
  8
LAY-1
  6
CONTINUOUS
 62
     7
100
AcDbCircle
 10
828.999997
 20
166.9
 30
0.0
 40
117.0
100
AcDbArc
 50
112.572174
 51
129.312129
  0
LINE
  5
1D4
100
AcDbEntity
  8
LAY-1
  6
CONTINUOUS
 62
     7
100
AcDbLine
 10
745.951633
 20
255.501417
 30
0.0
 11
744.41181
 21
255.914012
 31
0.0
  0
LINE
  5
1D5
100
AcDbEntity
  8
LAY-1
  6
CONTINUOUS
 62
     7
100
AcDbLine
 10
735.0
 20
299.4
 30
0.0
 11
721.0
 21
299.4
 31
0.0
  0
LINE
  5
1D6
100
AcDbEntity
  8
LAY-1
  6
CONTINUOUS
 62
     7
100
AcDbLine
 10
735.0
 20
144.4
 30
0.0
 11
721.0
 21
144.4
 31
0.0
  0
LINE
  5
1D7
100
AcDbEntity
  8
LAY-1
  6
CONTINUOUS
 62
     7
100
AcDbLine
 10
745.951633
 20
188.298583
 30
0.0
 11
744.41181
 21
187.885988
 31
0.0
  0
ARC
  5
1D8
100
AcDbEntity
  8
LAY-1
  6
CONTINUOUS
 62
     7
100
AcDbCircle
 10
828.999997
 20
276.9
 30
0.0
 40
117.0
100
AcDbArc
 50
230.687871
 51
270.0
  0
ARC
  5
1D9
100
AcDbEntity
  8
LAY-1
  6
CONTINUOUS
 62
     7
100
AcDbCircle
 10
735.0
 20
146.4
 30
0.0
 40
2.0
100
AcDbArc
 50
270.0
 51
0.0
  0
ARC
  5
1DA
100
AcDbEntity
  8
LAY-1
  6
CONTINUOUS
 62
     7
100
AcDbCircle
 10
747.0
 20
178.22673
 30
0.0
 40
10.0
100
AcDbArc
 50
105.0
 51
180.0
  0
ARC
  5
1DB
100
AcDbEntity
  8
LAY-1
  6
CONTINUOUS
 62
     7
100
AcDbCircle
 10
748.539823
 20
178.639324
 30
0.0
 40
10.0
100
AcDbArc
 50
50.687871
 51
105.0
  0
ARC
  5
1DC
100
AcDbEntity
  8
LAY-1
  6
CONTINUOUS
 62
     7
100
AcDbCircle
 10
939.0
 20
271.9
 30
0.0
 40
2.0
100
AcDbArc
 50
180.0
 51
270.0
  0
LINE
  5
1DD
100
AcDbEntity
  8
LAY-1
  6
CONTINUOUS
 62
     7
100
AcDbLine
 10
939.0
 20
269.9
 30
0.0
 11
939.0
 21
221.9
 31
0.0
  0
ARC
  5
1DE
100
AcDbEntity
  8
LAY-1
  6
CONTINUOUS
 62
     7
100
AcDbCircle
 10
939.0
 20
171.9
 30
0.0
 40
2.0
100
AcDbArc
 50
90.0
 51
180.0
  0
LINE
  5
1DF
100
AcDbEntity
  8
LAY-1
  6
CONTINUOUS
 62
     7
100
AcDbLine
 10
939.0
 20
173.9
 30
0.0
 11
939.0
 21
221.9
 31
0.0
  0
ARC
  5
1E0
100
AcDbEntity
  8
LAY-1
  6
CONTINUOUS
 62
     7
100
AcDbCircle
 10
719.0
 20
271.9
 30
0.0
 40
2.0
100
AcDbArc
 50
270.0
 51
0.0
  0
LINE
  5
1E1
100
AcDbEntity
  8
LAY-1
  6
CONTINUOUS
 62
     7
100
AcDbLine
 10
719.0
 20
269.9
 30
0.0
 11
719.0
 21
221.9
 31
0.0
  0
ARC
  5
1E2
100
AcDbEntity
  8
LAY-1
  6
CONTINUOUS
 62
     7
100
AcDbCircle
 10
719.0
 20
171.9
 30
0.0
 40
2.0
100
AcDbArc
 50
0.0
 51
90.0
  0
LINE
  5
1E3
100
AcDbEntity
  8
LAY-1
  6
CONTINUOUS
 62
     7
100
AcDbLine
 10
719.0
 20
173.9
 30
0.0
 11
719.0
 21
221.9
 31
0.0
  0
LINE
  5
1E4
100
AcDbEntity
  8
LAY-1
  6
CONTINUOUS
 62
     7
100
AcDbLine
 10
829.0
 20
424.4
 30
0.0
 11
880.0
 21
424.4
 31
0.0
  0
LINE
  5
1E5
100
AcDbEntity
  8
LAY-1
  6
CONTINUOUS
 62
     7
100
AcDbLine
 10
829.0
 20
424.4
 30
0.0
 11
778.0
 21
424.4
 31
0.0
  0
LINE
  5
1E6
100
AcDbEntity
  8
LAY-1
  6
CONTINUOUS
 62
     7
100
AcDbLine
 10
880.0
 20
406.4
 30
0.0
 11
829.0
 21
406.4
 31
0.0
  0
LINE
  5
1E7
100
AcDbEntity
  8
LAY-1
  6
CONTINUOUS
 62
     7
100
AcDbLine
 10
778.0
 20
406.4
 30
0.0
 11
829.0
 21
406.4
 31
0.0
  0
ARC
  5
1E8
100
AcDbEntity
  8
LAY-1
  6
CONTINUOUS
 62
     7
100
AcDbCircle
 10
815.0
 20
418.4
 30
0.0
 40
18.0
100
AcDbArc
 50
221.810315
 51
262.007266
  0
ARC
  5
1E9
100
AcDbEntity
  8
LAY-1
  6
CONTINUOUS
 62
     7
100
AcDbCircle
 10
843.0
 20
418.4
 30
0.0
 40
18.0
100
AcDbArc
 50
277.992734
 51
318.189685
  0
ARC
  5
1EA
100
AcDbEntity
  8
LAY-1
  6
CONTINUOUS
 62
     7
100
AcDbCircle
 10
829.0
 20
422.3
 30
0.0
 40
7.0
100
AcDbArc
 50
17.457603
 51
90.0
  0
ARC
  5
1EB
100
AcDbEntity
  8
LAY-1
  6
CONTINUOUS
 62
     7
100
AcDbCircle
 10
829.0
 20
422.3
 30
0.0
 40
7.0
100
AcDbArc
 50
90.0
 51
162.542397
  0
LINE
  5
1EC
100
AcDbEntity
  8
LAY-1
  6
CONTINUOUS
 62
     7
100
AcDbLine
 10
837.5
 20
394.801924
 30
0.0
 11
837.5
 21
385.4
 31
0.0
  0
LINE
  5
1ED
100
AcDbEntity
  8
LAY-1
  6
CONTINUOUS
 62
     7
100
AcDbLine
 10
820.5
 20
394.801924
 30
0.0
 11
820.5
 21
385.4
 31
0.0
  0
LINE
  5
1EE
100
AcDbEntity
  8
LAY-1
  6
CONTINUOUS
 62
     7
100
AcDbLine
 10
808.5
 20
385.4
 30
0.0
 11
829.0
 21
385.4
 31
0.0
  0
LINE
  5
1EF
100
AcDbEntity
  8
LAY-1
  6
CONTINUOUS
 62
     7
100
AcDbLine
 10
849.5
 20
385.4
 30
0.0
 11
829.0
 21
385.4
 31
0.0
  0
LINE
  5
1F0
100
AcDbEntity
  8
LAY-1
  6
CONTINUOUS
 62
     7
100
AcDbLine
 10
829.0
 20
374.4
 30
0.0
 11
851.0
 21
374.4
 31
0.0
  0
LINE
  5
1F1
100
AcDbEntity
  8
LAY-1
  6
CONTINUOUS
 62
     7
100
AcDbLine
 10
829.0
 20
374.4
 30
0.0
 11
807.0
 21
374.4
 31
0.0
  0
LINE
  5
1F2
100
AcDbEntity
  8
LAY-1
  6
CONTINUOUS
 62
     7
100
AcDbLine
 10
848.0
 20
374.4
 30
0.0
 11
848.0
 21
376.4
 31
0.0
  0
LINE
  5
1F3
100
AcDbEntity
  8
LAY-1
  6
CONTINUOUS
 62
     7
100
AcDbLine
 10
810.0
 20
374.4
 30
0.0
 11
810.0
 21
376.4
 31
0.0
  0
LINE
  5
1F4
100
AcDbEntity
  8
LAY-1
  6
CONTINUOUS
 62
     7
100
AcDbLine
 10
937.0
 20
299.4
 30
0.0
 11
937.0
 21
221.9
 31
0.0
  0
LINE
  5
1F5
100
AcDbEntity
  8
LAY-1
  6
CONTINUOUS
 62
     7
100
AcDbLine
 10
937.0
 20
144.4
 30
0.0
 11
937.0
 21
221.9
 31
0.0
  0
LINE
  5
1F6
100
AcDbEntity
  8
LAY-1
  6
CONTINUOUS
 62
     7
100
AcDbLine
 10
921.0
 20
221.9
 30
0.0
 11
921.0
 21
146.4
 31
0.0
  0
LINE
  5
1F7
100
AcDbEntity
  8
LAY-1
  6
CONTINUOUS
 62
     7
100
AcDbLine
 10
921.0
 20
221.9
 30
0.0
 11
921.0
 21
297.4
 31
0.0
  0
LINE
  5
1F8
100
AcDbEntity
  8
LAY-1
  6
CONTINUOUS
 62
     7
100
AcDbLine
 10
737.0
 20
221.9
 30
0.0
 11
737.0
 21
146.4
 31
0.0
  0
LINE
  5
1F9
100
AcDbEntity
  8
LAY-1
  6
CONTINUOUS
 62
     7
100
AcDbLine
 10
737.0
 20
221.9
 30
0.0
 11
737.0
 21
297.4
 31
0.0
  0
LINE
  5
1FA
100
AcDbEntity
  8
LAY-1
  6
CONTINUOUS
 62
     7
100
AcDbLine
 10
721.0
 20
144.4
 30
0.0
 11
721.0
 21
221.9
 31
0.0
  0
LINE
  5
1FB
100
AcDbEntity
  8
LAY-1
  6
CONTINUOUS
 62
     7
100
AcDbLine
 10
721.0
 20
299.4
 30
0.0
 11
721.0
 21
221.9
 31
0.0
  0
LINE
  5
1FC
100
AcDbEntity
  8
LAY-1
  6
CONTINUOUS
 62
     7
100
AcDbLine
 10
884.0
 20
298.4
 30
0.0
 11
829.0
 21
298.4
 31
0.0
  0
LINE
  5
1FD
100
AcDbEntity
  8
LAY-1
  6
CONTINUOUS
 62
     7
100
AcDbLine
 10
829.0
 20
297.4
 30
0.0
 11
884.0
 21
297.4
 31
0.0
  0
LINE
  5
1FE
100
AcDbEntity
  8
LAY-1
  6
CONTINUOUS
 62
     7
100
AcDbLine
 10
829.0
 20
297.4
 30
0.0
 11
774.0
 21
297.4
 31
0.0
  0
LINE
  5
1FF
100
AcDbEntity
  8
LAY-1
  6
CONTINUOUS
 62
     7
100
AcDbLine
 10
774.0
 20
298.4
 30
0.0
 11
829.0
 21
298.4
 31
0.0
  0
LINE
  5
200
100
AcDbEntity
  8
LAY-1
  6
CONTINUOUS
 62
     7
100
AcDbLine
 10
829.0
 20
314.4
 30
0.0
 11
882.0
 21
314.4
 31
0.0
  0
LINE
  5
201
100
AcDbEntity
  8
LAY-1
  6
CONTINUOUS
 62
     7
100
AcDbLine
 10
829.0
 20
314.4
 30
0.0
 11
776.0
 21
314.4
 31
0.0
  0
LINE
  5
202
100
AcDbEntity
  8
LAY-1
  6
CONTINUOUS
 62
     7
100
AcDbLine
 10
882.5
 20
280.9
 30
0.0
 11
829.0
 21
280.9
 31
0.0
  0
LINE
  5
203
100
AcDbEntity
  8
LAY-1
  6
CONTINUOUS
 62
     7
100
AcDbLine
 10
775.5
 20
280.9
 30
0.0
 11
829.0
 21
280.9
 31
0.0
  0
LINE
  5
204
100
AcDbEntity
  8
LAY-1
  6
CONTINUOUS
 62
     7
100
AcDbLine
 10
829.0
 20
376.4
 30
0.0
 11
851.0
 21
376.4
 31
0.0
  0
LINE
  5
205
100
AcDbEntity
  8
LAY-1
  6
CONTINUOUS
 62
     7
100
AcDbLine
 10
829.0
 20
376.4
 30
0.0
 11
807.0
 21
376.4
 31
0.0
  0
LINE
  5
206
100
AcDbEntity
  8
LAY-1
  6
CONTINUOUS
 62
     7
100
AcDbLine
 10
840.835681
 20
384.533975
 30
0.0
 11
840.835681
 21
376.4
 31
0.0
  0
LINE
  5
207
100
AcDbEntity
  8
LAY-1
  6
CONTINUOUS
 62
     7
100
AcDbLine
 10
817.164319
 20
384.533975
 30
0.0
 11
817.164319
 21
376.4
 31
0.0
  0
ARC
  5
208
100
AcDbEntity
  8
LAY-1
  6
CONTINUOUS
 62
     7
100
AcDbCircle
 10
845.91784
 20
370.054984
 30
0.0
 40
15.345016
100
AcDbArc
 50
70.658807
 51
109.341193
  0
ARC
  5
209
100
AcDbEntity
  8
LAY-1
  6
CONTINUOUS
 62
     7
100
AcDbCircle
 10
829.0
 20
304.089837
 30
0.0
 40
81.310163
100
AcDbArc
 50
81.630168
 51
98.369832
  0
ARC
  5
20A
100
AcDbEntity
  8
LAY-1
  6
CONTINUOUS
 62
     7
100
AcDbCircle
 10
812.08216
 20
370.054984
 30
0.0
 40
15.345016
100
AcDbArc
 50
70.658807
 51
109.341193
  0
LINE
  5
20B
100
AcDbEntity
  8
LAY-1
  6
CONTINUOUS
 62
     7
100
AcDbLine
 10
818.660213
 20
235.613561
 30
0.0
 11
819.807236
 21
236.955361
 31
0.0
  0
LINE
  5
20C
100
AcDbEntity
  8
LAY-1
  6
CONTINUOUS
 62
     7
100
AcDbLine
 10
818.616929
 20
227.173206
 30
0.0
 11
818.660213
 21
235.613561
 31
0.0
  0
LINE
  5
20D
100
AcDbEntity
  8
LAY-1
  6
CONTINUOUS
 62
     7
100
AcDbLine
 10
811.468035
 20
236.327745
 30
0.0
 11
811.852745
 21
235.980118
 31
0.0
  0
LINE
  5
20E
100
AcDbEntity
  8
LAY-1
  6
CONTINUOUS
 62
     7
100
AcDbLine
 10
812.312071
 20
237.539693
 30
0.0
 11
811.468035
 21
236.327745
 31
0.0
  0
LINE
  5
20F
100
AcDbEntity
  8
LAY-1
  6
CONTINUOUS
 62
     7
100
AcDbLine
 10
816.056126
 20
237.496409
 30
0.0
 11
812.312071
 21
237.539693
 31
0.0
  0
LINE
  5
210
100
AcDbEntity
  8
LAY-1
  6
CONTINUOUS
 62
     7
100
AcDbLine
 10
840.0
 20
215.255723
 30
0.0
 11
822.176856
 21
215.255723
 31
0.0
  0
LINE
  5
211
100
AcDbEntity
  8
LAY-1
  6
CONTINUOUS
 62
     7
100
AcDbLine
 10
840.0
 20
217.0085
 30
0.0
 11
840.0
 21
215.255723
 31
0.0
  0
LINE
  5
212
100
AcDbEntity
  8
LAY-1
  6
CONTINUOUS
 62
     7
100
AcDbLine
 10
846.5
 20
213.255723
 30
0.0
 11
840.0
 21
217.0085
 31
0.0
  0
LINE
  5
213
100
AcDbEntity
  8
LAY-1
  6
CONTINUOUS
 62
     7
100
AcDbLine
 10
817.549419
 20
235.721771
 30
0.0
 11
816.056126
 21
237.496409
 31
0.0
  0
LINE
  5
214
100
AcDbEntity
  8
LAY-1
  6
CONTINUOUS
 62
     7
100
AcDbLine
 10
817.549419
 20
232.540406
 30
0.0
 11
817.549419
 21
235.721771
 31
0.0
  0
LINE
  5
215
100
AcDbEntity
  8
LAY-1
  6
CONTINUOUS
 62
     7
100
AcDbLine
 10
816.164335
 20
230.982186
 30
0.0
 11
817.549419
 21
232.540406
 31
0.0
  0
LINE
  5
216
100
AcDbEntity
  8
LAY-1
  6
CONTINUOUS
 62
     7
100
AcDbLine
 10
815.947916
 20
230.960545
 30
0.0
 11
816.164335
 21
230.982186
 31
0.0
  0
LINE
  5
217
100
AcDbEntity
  8
LAY-1
  6
CONTINUOUS
 62
     7
100
AcDbLine
 10
813.891932
 20
230.873977
 30
0.0
 11
815.947916
 21
230.960545
 31
0.0
  0
LINE
  5
218
100
AcDbEntity
  8
LAY-1
  6
CONTINUOUS
 62
     7
100
AcDbLine
 10
811.987441
 20
228.688141
 30
0.0
 11
813.891932
 21
230.873977
 31
0.0
  0
LINE
  5
219
100
AcDbEntity
  8
LAY-1
  6
CONTINUOUS
 62
     7
100
AcDbLine
 10
812.009083
 20
226.697083
 30
0.0
 11
811.987441
 21
228.688141
 31
0.0
  0
LINE
  5
21A
100
AcDbEntity
  8
LAY-1
  6
CONTINUOUS
 62
     7
100
AcDbLine
 10
811.5
 20
213.255723
 30
0.0
 11
846.5
 21
213.255723
 31
0.0
  0
LINE
  5
21B
100
AcDbEntity
  8
LAY-1
  6
CONTINUOUS
 62
     7
100
AcDbLine
 10
816.878519
 20
226.697083
 30
0.0
 11
812.009083
 21
226.697083
 31
0.0
  0
LINE
  5
21C
100
AcDbEntity
  8
LAY-1
  6
CONTINUOUS
 62
     7
100
AcDbLine
 10
816.878519
 20
225.917973
 30
0.0
 11
816.878519
 21
226.697083
 31
0.0
  0
LINE
  5
21D
100
AcDbEntity
  8
LAY-1
  6
CONTINUOUS
 62
     7
100
AcDbLine
 10
811.5
 20
225.932578
 30
0.0
 11
816.878519
 21
225.917973
 31
0.0
  0
LINE
  5
21E
100
AcDbEntity
  8
LAY-1
  6
CONTINUOUS
 62
     7
100
AcDbLine
 10
811.5
 20
228.796351
 30
0.0
 11
811.5
 21
225.932578
 31
0.0
  0
LINE
  5
21F
100
AcDbEntity
  8
LAY-1
  6
CONTINUOUS
 62
     7
100
AcDbLine
 10
813.697154
 20
231.523235
 30
0.0
 11
811.5
 21
228.796351
 31
0.0
  0
LINE
  5
220
100
AcDbEntity
  8
LAY-1
  6
CONTINUOUS
 62
     7
100
AcDbLine
 10
815.969558
 20
231.501593
 30
0.0
 11
813.697154
 21
231.523235
 31
0.0
  0
LINE
  5
221
100
AcDbEntity
  8
LAY-1
  6
CONTINUOUS
 62
     7
100
AcDbLine
 10
840.0
 20
209.9
 30
0.0
 11
840.0
 21
189.9
 31
0.0
  0
LINE
  5
222
100
AcDbEntity
  8
LAY-1
  6
CONTINUOUS
 62
     7
100
AcDbLine
 10
818.0
 20
189.9
 30
0.0
 11
818.0
 21
209.9
 31
0.0
  0
LINE
  5
223
100
AcDbEntity
  8
LAY-1
  6
CONTINUOUS
 62
     7
100
AcDbLine
 10
807.0
 20
199.9
 30
0.0
 11
851.0
 21
199.9
 31
0.0
  0
LINE
  5
224
100
AcDbEntity
  8
LAY-1
  6
CONTINUOUS
 62
     7
100
AcDbLine
 10
807.0
 20
209.9
 30
0.0
 11
807.0
 21
189.9
 31
0.0
  0
LINE
  5
225
100
AcDbEntity
  8
LAY-1
  6
CONTINUOUS
 62
     7
100
AcDbLine
 10
851.0
 20
209.9
 30
0.0
 11
807.0
 21
209.9
 31
0.0
  0
LINE
  5
226
100
AcDbEntity
  8
LAY-1
  6
CONTINUOUS
 62
     7
100
AcDbLine
 10
851.0
 20
189.9
 30
0.0
 11
851.0
 21
209.9
 31
0.0
  0
LINE
  5
227
100
AcDbEntity
  8
LAY-1
  6
CONTINUOUS
 62
     7
100
AcDbLine
 10
822.176856
 20
215.255723
 30
0.0
 11
818.989688
 21
218.44289
 31
0.0
  0
LINE
  5
228
100
AcDbEntity
  8
LAY-1
  6
CONTINUOUS
 62
     7
100
AcDbLine
 10
807.0
 20
189.9
 30
0.0
 11
851.0
 21
189.9
 31
0.0
  0
LINE
  5
229
100
AcDbEntity
  8
LAY-1
  6
CONTINUOUS
 62
     7
100
AcDbLine
 10
817.030013
 20
232.670258
 30
0.0
 11
815.969558
 21
231.501593
 31
0.0
  0
LINE
  5
22A
100
AcDbEntity
  8
LAY-1
  6
CONTINUOUS
 62
     7
100
AcDbLine
 10
816.986729
 20
235.505351
 30
0.0
 11
817.030013
 21
232.670258
 31
0.0
  0
LINE
  5
22B
100
AcDbEntity
  8
LAY-1
  6
CONTINUOUS
 62
     7
100
AcDbLine
 10
839.871495
 20
235.562256
 30
0.0
 11
841.018517
 21
236.904057
 31
0.0
  0
LINE
  5
22C
100
AcDbEntity
  8
LAY-1
  6
CONTINUOUS
 62
     7
100
AcDbLine
 10
811.5
 20
215.255723
 30
0.0
 11
814.687167
 21
215.255723
 31
0.0
  0
LINE
  5
22D
100
AcDbEntity
  8
LAY-1
  6
CONTINUOUS
 62
     7
100
AcDbLine
 10
811.5
 20
213.255723
 30
0.0
 11
811.5
 21
215.255723
 31
0.0
  0
LINE
  5
22E
100
AcDbEntity
  8
LAY-1
  6
CONTINUOUS
 62
     7
100
AcDbLine
 10
814.687167
 20
215.255723
 30
0.0
 11
811.5
 21
218.44289
 31
0.0
  0
LINE
  5
22F
100
AcDbEntity
  8
LAY-1
  6
CONTINUOUS
 62
     7
100
AcDbLine
 10
818.989688
 20
218.44289
 30
0.0
 11
811.5
 21
218.44289
 31
0.0
  0
LINE
  5
230
100
AcDbEntity
  8
LAY-1
  6
CONTINUOUS
 62
     7
100
AcDbLine
 10
815.861348
 20
236.912077
 30
0.0
 11
816.986729
 21
235.505351
 31
0.0
  0
LINE
  5
231
100
AcDbEntity
  8
LAY-1
  6
CONTINUOUS
 62
     7
100
AcDbLine
 10
812.593416
 20
236.977003
 30
0.0
 11
815.861348
 21
236.912077
 31
0.0
  0
LINE
  5
232
100
AcDbEntity
  8
LAY-1
  6
CONTINUOUS
 62
     7
100
AcDbLine
 10
811.852745
 20
235.980118
 30
0.0
 11
812.593416
 21
236.977003
 31
0.0
  0
LINE
  5
233
100
AcDbEntity
  8
LAY-1
  6
CONTINUOUS
 62
     7
100
AcDbLine
 10
819.807236
 20
236.955361
 30
0.0
 11
824.070697
 21
236.933719
 31
0.0
  0
LINE
  5
234
100
AcDbEntity
  8
LAY-1
  6
CONTINUOUS
 62
     7
100
AcDbLine
 10
824.070697
 20
236.933719
 30
0.0
 11
825.174436
 21
235.656845
 31
0.0
  0
LINE
  5
235
100
AcDbEntity
  8
LAY-1
  6
CONTINUOUS
 62
     7
100
AcDbLine
 10
825.174436
 20
235.656845
 30
0.0
 11
825.239362
 21
227.194847
 31
0.0
  0
LINE
  5
236
100
AcDbEntity
  8
LAY-1
  6
CONTINUOUS
 62
     7
100
AcDbLine
 10
825.239362
 20
227.194847
 30
0.0
 11
824.200549
 21
226.026183
 31
0.0
  0
LINE
  5
237
100
AcDbEntity
  8
LAY-1
  6
CONTINUOUS
 62
     7
100
AcDbLine
 10
824.200549
 20
226.026183
 30
0.0
 11
819.569174
 21
225.982899
 31
0.0
  0
LINE
  5
238
100
AcDbEntity
  8
LAY-1
  6
CONTINUOUS
 62
     7
100
AcDbLine
 10
819.569174
 20
225.982899
 30
0.0
 11
818.616929
 21
227.173206
 31
0.0
  0
LINE
  5
239
100
AcDbEntity
  8
LAY-1
  6
CONTINUOUS
 62
     7
100
AcDbLine
 10
819.658322
 20
235.24218
 30
0.0
 11
820.265975
 21
235.95302
 31
0.0
  0
LINE
  5
23A
100
AcDbEntity
  8
LAY-1
  6
CONTINUOUS
 62
     7
100
AcDbLine
 10
820.265975
 20
235.95302
 30
0.0
 11
823.611283
 21
235.936038
 31
0.0
  0
LINE
  5
23B
100
AcDbEntity
  8
LAY-1
  6
CONTINUOUS
 62
     7
100
AcDbLine
 10
823.611283
 20
235.936038
 30
0.0
 11
824.177288
 21
235.281247
 31
0.0
  0
LINE
  5
23C
100
AcDbEntity
  8
LAY-1
  6
CONTINUOUS
 62
     7
100
AcDbLine
 10
824.177288
 20
235.281247
 30
0.0
 11
824.236441
 21
227.57176
 31
0.0
  0
LINE
  5
23D
100
AcDbEntity
  8
LAY-1
  6
CONTINUOUS
 62
     7
100
AcDbLine
 10
824.236441
 20
227.57176
 30
0.0
 11
823.74776
 21
227.021995
 31
0.0
  0
LINE
  5
23E
100
AcDbEntity
  8
LAY-1
  6
CONTINUOUS
 62
     7
100
AcDbLine
 10
823.74776
 20
227.021995
 30
0.0
 11
820.046198
 21
226.987401
 31
0.0
  0
LINE
  5
23F
100
AcDbEntity
  8
LAY-1
  6
CONTINUOUS
 62
     7
100
AcDbLine
 10
820.046198
 20
226.987401
 30
0.0
 11
819.61873
 21
227.521736
 31
0.0
  0
LINE
  5
240
100
AcDbEntity
  8
LAY-1
  6
CONTINUOUS
 62
     7
100
AcDbLine
 10
819.61873
 20
227.521736
 30
0.0
 11
819.658322
 21
235.24218
 31
0.0
  0
LINE
  5
241
100
AcDbEntity
  8
LAY-1
  6
CONTINUOUS
 62
     7
100
AcDbLine
 10
839.828211
 20
227.121901
 30
0.0
 11
839.871495
 21
235.562256
 31
0.0
  0
LINE
  5
242
100
AcDbEntity
  8
LAY-1
  6
CONTINUOUS
 62
     7
100
AcDbLine
 10
833.13135
 20
226.624136
 30
0.0
 11
833.51606
 21
226.971763
 31
0.0
  0
LINE
  5
243
100
AcDbEntity
  8
LAY-1
  6
CONTINUOUS
 62
     7
100
AcDbLine
 10
833.975386
 20
225.412188
 30
0.0
 11
833.13135
 21
226.624136
 31
0.0
  0
LINE
  5
244
100
AcDbEntity
  8
LAY-1
  6
CONTINUOUS
 62
     7
100
AcDbLine
 10
837.719441
 20
225.455472
 30
0.0
 11
833.975386
 21
225.412188
 31
0.0
  0
LINE
  5
245
100
AcDbEntity
  8
LAY-1
  6
CONTINUOUS
 62
     7
100
AcDbLine
 10
839.212735
 20
227.230111
 30
0.0
 11
837.719441
 21
225.455472
 31
0.0
  0
LINE
  5
246
100
AcDbEntity
  8
LAY-1
  6
CONTINUOUS
 62
     7
100
AcDbLine
 10
839.212735
 20
230.411475
 30
0.0
 11
839.212735
 21
227.230111
 31
0.0
  0
LINE
  5
247
100
AcDbEntity
  8
LAY-1
  6
CONTINUOUS
 62
     7
100
AcDbLine
 10
837.827651
 20
231.969695
 30
0.0
 11
839.212735
 21
230.411475
 31
0.0
  0
LINE
  5
248
100
AcDbEntity
  8
LAY-1
  6
CONTINUOUS
 62
     7
100
AcDbLine
 10
837.611231
 20
231.991337
 30
0.0
 11
837.827651
 21
231.969695
 31
0.0
  0
LINE
  5
249
100
AcDbEntity
  8
LAY-1
  6
CONTINUOUS
 62
     7
100
AcDbLine
 10
833.630728
 20
232.158937
 30
0.0
 11
837.611231
 21
231.991337
 31
0.0
  0
LINE
  5
24A
100
AcDbEntity
  8
LAY-1
  6
CONTINUOUS
 62
     7
100
AcDbLine
 10
833.672399
 20
236.254798
 30
0.0
 11
833.627879
 21
232.158968
 31
0.0
  0
LINE
  5
24B
100
AcDbEntity
  8
LAY-1
  6
CONTINUOUS
 62
     7
100
AcDbLine
 10
838.541835
 20
236.254798
 30
0.0
 11
833.672399
 21
236.254798
 31
0.0
  0
LINE
  5
24C
100
AcDbEntity
  8
LAY-1
  6
CONTINUOUS
 62
     7
100
AcDbLine
 10
838.541835
 20
237.033908
 30
0.0
 11
838.541835
 21
236.254798
 31
0.0
  0
LINE
  5
24D
100
AcDbEntity
  8
LAY-1
  6
CONTINUOUS
 62
     7
100
AcDbLine
 10
833.163315
 20
237.019303
 30
0.0
 11
838.541835
 21
237.033908
 31
0.0
  0
LINE
  5
24E
100
AcDbEntity
  8
LAY-1
  6
CONTINUOUS
 62
     7
100
AcDbLine
 10
833.163315
 20
231.407729
 30
0.0
 11
833.163315
 21
237.019303
 31
0.0
  0
LINE
  5
24F
100
AcDbEntity
  8
LAY-1
  6
CONTINUOUS
 62
     7
100
AcDbLine
 10
837.632873
 20
231.450288
 30
0.0
 11
833.164137
 21
231.407729
 31
0.0
  0
LINE
  5
250
100
AcDbEntity
  8
LAY-1
  6
CONTINUOUS
 62
     7
100
AcDbLine
 10
838.693328
 20
230.281624
 30
0.0
 11
837.632873
 21
231.450288
 31
0.0
  0
LINE
  5
251
100
AcDbEntity
  8
LAY-1
  6
CONTINUOUS
 62
     7
100
AcDbLine
 10
838.650044
 20
227.44653
 30
0.0
 11
838.693328
 21
230.281624
 31
0.0
  0
LINE
  5
252
100
AcDbEntity
  8
LAY-1
  6
CONTINUOUS
 62
     7
100
AcDbLine
 10
837.524664
 20
226.039804
 30
0.0
 11
838.650044
 21
227.44653
 31
0.0
  0
LINE
  5
253
100
AcDbEntity
  8
LAY-1
  6
CONTINUOUS
 62
     7
100
AcDbLine
 10
834.256731
 20
225.974878
 30
0.0
 11
837.524664
 21
226.039804
 31
0.0
  0
LINE
  5
254
100
AcDbEntity
  8
LAY-1
  6
CONTINUOUS
 62
     7
100
AcDbLine
 10
833.51606
 20
226.971763
 30
0.0
 11
834.256731
 21
225.974878
 31
0.0
  0
LINE
  5
255
100
AcDbEntity
  8
LAY-1
  6
CONTINUOUS
 62
     7
100
AcDbLine
 10
841.018517
 20
236.904057
 30
0.0
 11
845.281979
 21
236.882415
 31
0.0
  0
LINE
  5
256
100
AcDbEntity
  8
LAY-1
  6
CONTINUOUS
 62
     7
100
AcDbLine
 10
845.281979
 20
236.882415
 30
0.0
 11
846.385718
 21
235.60554
 31
0.0
  0
LINE
  5
257
100
AcDbEntity
  8
LAY-1
  6
CONTINUOUS
 62
     7
100
AcDbLine
 10
846.385718
 20
235.60554
 30
0.0
 11
846.450643
 21
227.143543
 31
0.0
  0
LINE
  5
258
100
AcDbEntity
  8
LAY-1
  6
CONTINUOUS
 62
     7
100
AcDbLine
 10
846.450643
 20
227.143543
 30
0.0
 11
845.41183
 21
225.974878
 31
0.0
  0
LINE
  5
259
100
AcDbEntity
  8
LAY-1
  6
CONTINUOUS
 62
     7
100
AcDbLine
 10
845.41183
 20
225.974878
 30
0.0
 11
840.780456
 21
225.931595
 31
0.0
  0
LINE
  5
25A
100
AcDbEntity
  8
LAY-1
  6
CONTINUOUS
 62
     7
100
AcDbLine
 10
840.780456
 20
225.931595
 30
0.0
 11
839.828211
 21
227.121901
 31
0.0
  0
LINE
  5
25B
100
AcDbEntity
  8
LAY-1
  6
CONTINUOUS
 62
     7
100
AcDbLine
 10
840.869603
 20
235.190875
 30
0.0
 11
841.477256
 21
235.901715
 31
0.0
  0
LINE
  5
25C
100
AcDbEntity
  8
LAY-1
  6
CONTINUOUS
 62
     7
100
AcDbLine
 10
841.477256
 20
235.901715
 30
0.0
 11
844.822564
 21
235.884734
 31
0.0
  0
LINE
  5
25D
100
AcDbEntity
  8
LAY-1
  6
CONTINUOUS
 62
     7
100
AcDbLine
 10
844.822564
 20
235.884734
 30
0.0
 11
845.38857
 21
235.229943
 31
0.0
  0
LINE
  5
25E
100
AcDbEntity
  8
LAY-1
  6
CONTINUOUS
 62
     7
100
AcDbLine
 10
845.38857
 20
235.229943
 30
0.0
 11
845.447722
 21
227.520456
 31
0.0
  0
LINE
  5
25F
100
AcDbEntity
  8
LAY-1
  6
CONTINUOUS
 62
     7
100
AcDbLine
 10
845.447722
 20
227.520456
 30
0.0
 11
844.959042
 21
226.97069
 31
0.0
  0
LINE
  5
260
100
AcDbEntity
  8
LAY-1
  6
CONTINUOUS
 62
     7
100
AcDbLine
 10
844.959042
 20
226.97069
 30
0.0
 11
841.257479
 21
226.936096
 31
0.0
  0
LINE
  5
261
100
AcDbEntity
  8
LAY-1
  6
CONTINUOUS
 62
     7
100
AcDbLine
 10
841.257479
 20
226.936096
 30
0.0
 11
840.830011
 21
227.470431
 31
0.0
  0
LINE
  5
262
100
AcDbEntity
  8
LAY-1
  6
CONTINUOUS
 62
     7
100
AcDbLine
 10
840.830011
 20
227.470431
 30
0.0
 11
840.869603
 21
235.190875
 31
0.0
  0
LINE
  5
263
100
AcDbEntity
  8
LAY-1
  6
CONTINUOUS
 62
     7
100
AcDbLine
 10
826.435329
 20
230.755723
 30
0.0
 11
826.435329
 21
231.459011
 31
0.0
  0
LINE
  5
264
100
AcDbEntity
  8
LAY-1
  6
CONTINUOUS
 62
     7
100
AcDbLine
 10
826.435329
 20
231.459011
 30
0.0
 11
832.158579
 21
231.459011
 31
0.0
  0
LINE
  5
265
100
AcDbEntity
  8
LAY-1
  6
CONTINUOUS
 62
     7
100
AcDbLine
 10
832.158579
 20
231.459011
 30
0.0
 11
832.158579
 21
230.755723
 31
0.0
  0
LINE
  5
266
100
AcDbEntity
  8
LAY-1
  6
CONTINUOUS
 62
     7
100
AcDbLine
 10
832.158579
 20
230.755723
 30
0.0
 11
826.435329
 21
230.755723
 31
0.0
  0
LINE
  5
267
100
AcDbEntity
  8
LAY-1
  6
CONTINUOUS
 62
     7
100
AcDbLine
 10
826.350285
 20
235.167933
 30
0.0
 11
826.551118
 21
235.167933
 31
0.0
  0
LINE
  5
268
100
AcDbEntity
  8
LAY-1
  6
CONTINUOUS
 62
     7
100
AcDbLine
 10
826.551118
 20
235.167933
 30
0.0
 11
826.551118
 21
237.080615
 31
0.0
  0
LINE
  5
269
100
AcDbEntity
  8
LAY-1
  6
CONTINUOUS
 62
     7
100
AcDbLine
 10
826.551118
 20
237.080615
 30
0.0
 11
827.206277
 21
237.080615
 31
0.0
  0
LINE
  5
26A
100
AcDbEntity
  8
LAY-1
  6
CONTINUOUS
 62
     7
100
AcDbLine
 10
827.212145
 20
237.265999
 30
0.0
 11
826.551118
 21
237.265999
 31
0.0
  0
LINE
  5
26B
100
AcDbEntity
  8
LAY-1
  6
CONTINUOUS
 62
     7
100
AcDbLine
 10
826.551118
 20
237.265999
 30
0.0
 11
826.551118
 21
239.158467
 31
0.0
  0
LINE
  5
26C
100
AcDbEntity
  8
LAY-1
  6
CONTINUOUS
 62
     7
100
AcDbLine
 10
826.551118
 20
239.158467
 30
0.0
 11
826.350285
 21
239.158467
 31
0.0
  0
LINE
  5
26D
100
AcDbEntity
  8
LAY-1
  6
CONTINUOUS
 62
     7
100
AcDbLine
 10
826.350285
 20
239.158467
 30
0.0
 11
826.350285
 21
235.167933
 31
0.0
  0
LINE
  5
26E
100
AcDbEntity
  8
LAY-1
  6
CONTINUOUS
 62
     7
100
AcDbLine
 10
828.899323
 20
239.150743
 30
0.0
 11
828.806631
 21
239.235711
 31
0.0
  0
LINE
  5
26F
100
AcDbEntity
  8
LAY-1
  6
CONTINUOUS
 62
     7
100
AcDbLine
 10
828.806631
 20
239.235711
 30
0.0
 11
827.208294
 21
237.269129
 31
0.0
  0
LINE
  5
270
100
AcDbEntity
  8
LAY-1
  6
CONTINUOUS
 62
     7
100
AcDbLine
 10
828.899323
 20
239.150743
 30
0.0
 11
827.329746
 21
237.173076
 31
0.0
  0
LINE
  5
271
100
AcDbEntity
  8
LAY-1
  6
CONTINUOUS
 62
     7
100
AcDbLine
 10
828.899323
 20
235.195871
 30
0.0
 11
828.806631
 21
235.110903
 31
0.0
  0
LINE
  5
272
100
AcDbEntity
  8
LAY-1
  6
CONTINUOUS
 62
     7
100
AcDbLine
 10
828.806631
 20
235.110903
 30
0.0
 11
827.205959
 21
237.080357
 31
0.0
  0
LINE
  5
273
100
AcDbEntity
  8
LAY-1
  6
CONTINUOUS
 62
     7
100
AcDbLine
 10
828.899323
 20
235.195871
 30
0.0
 11
827.330737
 21
237.17229
 31
0.0
  0
LINE
  5
274
100
AcDbEntity
  8
LAY-1
  6
CONTINUOUS
 62
     7
100
AcDbLine
 10
851.076283
 20
314.506872
 30
0.0
 11
851.076283
 21
324.372861
 31
0.0
  0
LINE
  5
275
100
AcDbEntity
  8
LAY-1
  6
CONTINUOUS
 62
     7
100
AcDbLine
 10
852.855339
 20
325.4
 30
0.0
 11
875.855339
 21
325.4
 31
0.0
  0
LINE
  5
276
100
AcDbEntity
  8
LAY-1
  6
CONTINUOUS
 62
     7
100
AcDbLine
 10
875.855339
 20
325.4
 30
0.0
 11
877.634395
 21
324.372861
 31
0.0
  0
LINE
  5
277
100
AcDbEntity
  8
LAY-1
  6
CONTINUOUS
 62
     7
100
AcDbLine
 10
877.634395
 20
324.372861
 30
0.0
 11
877.634395
 21
314.4
 31
0.0
  0
ARC
  5
278
100
AcDbEntity
  8
LAY-1
  6
CONTINUOUS
 62
     7
100
AcDbCircle
 10
874.314631
 20
319.521608
 30
0.0
 40
5.878392
100
AcDbArc
 50
55.615753
 51
124.384247
  0
ARC
  5
279
100
AcDbEntity
  8
LAY-1
  6
CONTINUOUS
 62
     7
100
AcDbCircle
 10
864.355339
 20
303.427139
 30
0.0
 40
21.972861
100
AcDbArc
 50
72.412046
 51
107.587954
  0
ARC
  5
27A
100
AcDbEntity
  8
LAY-1
  6
CONTINUOUS
 62
     7
100
AcDbCircle
 10
854.396047
 20
319.521608
 30
0.0
 40
5.878392
100
AcDbArc
 50
55.615753
 51
124.384247
  0
LINE
  5
27B
100
AcDbEntity
  8
LAY-1
  6
CONTINUOUS
 62
     7
100
AcDbLine
 10
857.715811
 20
324.372861
 30
0.0
 11
857.715811
 21
314.4
 31
0.0
  0
LINE
  5
27C
100
AcDbEntity
  8
LAY-1
  6
CONTINUOUS
 62
     7
100
AcDbLine
 10
870.994867
 20
314.4
 30
0.0
 11
870.994867
 21
324.372861
 31
0.0
  0
LINE
  5
27D
100
AcDbEntity
  8
LAY-1
  6
CONTINUOUS
 62
     7
100
AcDbLine
 10
857.355339
 20
325.4
 30
0.0
 11
857.355339
 21
326.9
 31
0.0
  0
LINE
  5
27E
100
AcDbEntity
  8
LAY-1
  6
CONTINUOUS
 62
     7
100
AcDbLine
 10
857.355339
 20
326.9
 30
0.0
 11
858.355339
 21
327.9
 31
0.0
  0
LINE
  5
27F
100
AcDbEntity
  8
LAY-1
  6
CONTINUOUS
 62
     7
100
AcDbLine
 10
858.355339
 20
327.9
 30
0.0
 11
870.355339
 21
327.9
 31
0.0
  0
LINE
  5
280
100
AcDbEntity
  8
LAY-1
  6
CONTINUOUS
 62
     7
100
AcDbLine
 10
870.355339
 20
327.9
 30
0.0
 11
871.355339
 21
326.9
 31
0.0
  0
LINE
  5
281
100
AcDbEntity
  8
LAY-1
  6
CONTINUOUS
 62
     7
100
AcDbLine
 10
871.355339
 20
326.9
 30
0.0
 11
871.355339
 21
325.4
 31
0.0
  0
LINE
  5
282
100
AcDbEntity
  8
LAY-1
  6
CONTINUOUS
 62
     7
100
AcDbLine
 10
870.355339
 20
325.4
 30
0.0
 11
870.355339
 21
327.9
 31
0.0
  0
LINE
  5
283
100
AcDbEntity
  8
LAY-1
  6
CONTINUOUS
 62
     7
100
AcDbLine
 10
858.355339
 20
327.9
 30
0.0
 11
858.355339
 21
325.4
 31
0.0
  0
LINE
  5
284
100
AcDbEntity
  8
LAY-1
  6
CONTINUOUS
 62
     7
100
AcDbLine
 10
857.355339
 20
326.9
 30
0.0
 11
871.355339
 21
326.9
 31
0.0
  0
LINE
  5
285
100
AcDbEntity
  8
LAY-1
  6
CONTINUOUS
 62
     7
100
AcDbLine
 10
806.923717
 20
314.506872
 30
0.0
 11
806.923717
 21
324.372861
 31
0.0
  0
LINE
  5
286
100
AcDbEntity
  8
LAY-1
  6
CONTINUOUS
 62
     7
100
AcDbLine
 10
805.144661
 20
325.4
 30
0.0
 11
782.144661
 21
325.4
 31
0.0
  0
LINE
  5
287
100
AcDbEntity
  8
LAY-1
  6
CONTINUOUS
 62
     7
100
AcDbLine
 10
782.144661
 20
325.4
 30
0.0
 11
780.365605
 21
324.372861
 31
0.0
  0
LINE
  5
288
100
AcDbEntity
  8
LAY-1
  6
CONTINUOUS
 62
     7
100
AcDbLine
 10
780.365605
 20
324.372861
 30
0.0
 11
780.365605
 21
314.4
 31
0.0
  0
ARC
  5
289
100
AcDbEntity
  8
LAY-1
  6
CONTINUOUS
 62
     7
100
AcDbCircle
 10
783.685369
 20
319.521608
 30
0.0
 40
5.878392
100
AcDbArc
 50
55.615753
 51
124.384247
  0
ARC
  5
28A
100
AcDbEntity
  8
LAY-1
  6
CONTINUOUS
 62
     7
100
AcDbCircle
 10
793.644661
 20
303.427139
 30
0.0
 40
21.972861
100
AcDbArc
 50
72.412046
 51
107.587954
  0
ARC
  5
28B
100
AcDbEntity
  8
LAY-1
  6
CONTINUOUS
 62
     7
100
AcDbCircle
 10
803.603953
 20
319.521608
 30
0.0
 40
5.878392
100
AcDbArc
 50
55.615753
 51
124.384247
  0
LINE
  5
28C
100
AcDbEntity
  8
LAY-1
  6
CONTINUOUS
 62
     7
100
AcDbLine
 10
800.284189
 20
324.372861
 30
0.0
 11
800.284189
 21
314.4
 31
0.0
  0
LINE
  5
28D
100
AcDbEntity
  8
LAY-1
  6
CONTINUOUS
 62
     7
100
AcDbLine
 10
787.005133
 20
314.4
 30
0.0
 11
787.005133
 21
324.372861
 31
0.0
  0
LINE
  5
28E
100
AcDbEntity
  8
LAY-1
  6
CONTINUOUS
 62
     7
100
AcDbLine
 10
800.644661
 20
325.4
 30
0.0
 11
800.644661
 21
326.9
 31
0.0
  0
LINE
  5
28F
100
AcDbEntity
  8
LAY-1
  6
CONTINUOUS
 62
     7
100
AcDbLine
 10
800.644661
 20
326.9
 30
0.0
 11
799.644661
 21
327.9
 31
0.0
  0
LINE
  5
290
100
AcDbEntity
  8
LAY-1
  6
CONTINUOUS
 62
     7
100
AcDbLine
 10
799.644661
 20
327.9
 30
0.0
 11
787.644661
 21
327.9
 31
0.0
  0
LINE
  5
291
100
AcDbEntity
  8
LAY-1
  6
CONTINUOUS
 62
     7
100
AcDbLine
 10
787.644661
 20
327.9
 30
0.0
 11
786.644661
 21
326.9
 31
0.0
  0
LINE
  5
292
100
AcDbEntity
  8
LAY-1
  6
CONTINUOUS
 62
     7
100
AcDbLine
 10
786.644661
 20
326.9
 30
0.0
 11
786.644661
 21
325.4
 31
0.0
  0
LINE
  5
293
100
AcDbEntity
  8
LAY-1
  6
CONTINUOUS
 62
     7
100
AcDbLine
 10
787.644661
 20
325.4
 30
0.0
 11
787.644661
 21
327.9
 31
0.0
  0
LINE
  5
294
100
AcDbEntity
  8
LAY-1
  6
CONTINUOUS
 62
     7
100
AcDbLine
 10
799.644661
 20
327.9
 30
0.0
 11
799.644661
 21
325.4
 31
0.0
  0
LINE
  5
295
100
AcDbEntity
  8
LAY-1
  6
CONTINUOUS
 62
     7
100
AcDbLine
 10
800.644661
 20
326.9
 30
0.0
 11
786.644661
 21
326.9
 31
0.0
  0
ARC
  5
296
100
AcDbEntity
  8
LAY-1
  6
CONTINUOUS
 62
     7
100
AcDbCircle
 10
867.508331
 20
329.4
 30
0.0
 40
15.0
100
AcDbArc
 50
181.909152
 51
196.046622
  0
ARC
  5
297
100
AcDbEntity
  8
LAY-1
  6
CONTINUOUS
 62
     7
100
AcDbCircle
 10
790.491669
 20
329.4
 30
0.0
 40
15.0
100
AcDbArc
 50
344.53399
 51
358.090848
  0
LINE
  5
298
100
AcDbEntity
  8
LAY-1
  6
CONTINUOUS
 62
     7
100
AcDbLine
 10
911.501935
 20
612.453668
 30
0.0
 11
911.762957
 21
612.383728
 31
0.0
  0
ARC
  5
299
100
AcDbEntity
  8
LAY-1
  6
CONTINUOUS
 62
     7
100
AcDbCircle
 10
909.174766
 20
602.724469
 30
0.0
 40
10.0
100
AcDbArc
 50
22.182196
 51
75.0
  0
LINE
  5
29A
100
AcDbEntity
  8
LAY-1
  6
CONTINUOUS
 62
     7
100
AcDbLine
 10
937.0
 20
646.5
 30
0.0
 11
937.0
 21
724.0
 31
0.0
  0
LINE
  5
29B
100
AcDbEntity
  8
LAY-1
  6
CONTINUOUS
 62
     7
100
AcDbLine
 10
918.434646
 20
686.5
 30
0.0
 11
918.434646
 21
646.5
 31
0.0
  0
ARC
  5
29C
100
AcDbEntity
  8
LAY-1
  6
CONTINUOUS
 62
     7
100
AcDbCircle
 10
923.0
 20
722.0
 30
0.0
 40
2.0
100
AcDbArc
 50
90.0
 51
180.0
  0
LINE
  5
29D
100
AcDbEntity
  8
LAY-1
  6
CONTINUOUS
 62
     7
100
AcDbLine
 10
918.434646
 20
606.5
 30
0.0
 11
921.0
 21
606.5
 31
0.0
  0
LINE
  5
29E
100
AcDbEntity
  8
LAY-1
  6
CONTINUOUS
 62
     7
100
AcDbLine
 10
937.0
 20
724.0
 30
0.0
 11
923.0
 21
724.0
 31
0.0
  0
LINE
  5
29F
100
AcDbEntity
  8
LAY-1
  6
CONTINUOUS
 62
     7
100
AcDbLine
 10
737.0
 20
646.5
 30
0.0
 11
737.0
 21
722.0
 31
0.0
  0
LINE
  5
2A0
100
AcDbEntity
  8
LAY-1
  6
CONTINUOUS
 62
     7
100
AcDbLine
 10
921.0
 20
646.5
 30
0.0
 11
921.0
 21
571.0
 31
0.0
  0
ARC
  5
2A1
100
AcDbEntity
  8
LAY-1
  6
CONTINUOUS
 62
     7
100
AcDbCircle
 10
908.913744
 20
602.79441
 30
0.0
 40
10.0
100
AcDbArc
 50
75.0
 51
128.994227
  0
LINE
  5
2A2
100
AcDbEntity
  8
LAY-1
  6
CONTINUOUS
 62
     7
100
AcDbLine
 10
937.0
 20
569.0
 30
0.0
 11
923.0
 21
569.0
 31
0.0
  0
ARC
  5
2A3
100
AcDbEntity
  8
LAY-1
  6
CONTINUOUS
 62
     7
100
AcDbCircle
 10
923.0
 20
571.0
 30
0.0
 40
2.0
100
AcDbArc
 50
180.0
 51
270.0
  0
LINE
  5
2A4
100
AcDbEntity
  8
LAY-1
  6
CONTINUOUS
 62
     7
100
AcDbLine
 10
918.434646
 20
606.5
 30
0.0
 11
918.434646
 21
646.5
 31
0.0
  0
LINE
  5
2A5
100
AcDbEntity
  8
LAY-1
  6
CONTINUOUS
 62
     7
100
AcDbLine
 10
739.565354
 20
686.5
 30
0.0
 11
737.0
 21
686.5
 31
0.0
  0
LINE
  5
2A6
100
AcDbEntity
  8
LAY-1
  6
CONTINUOUS
 62
     7
100
AcDbLine
 10
746.498065
 20
680.546332
 30
0.0
 11
746.237043
 21
680.616272
 31
0.0
  0
LINE
  5
2A7
100
AcDbEntity
  8
LAY-1
  6
CONTINUOUS
 62
     7
100
AcDbLine
 10
937.0
 20
646.5
 30
0.0
 11
937.0
 21
569.0
 31
0.0
  0
ARC
  5
2A8
100
AcDbEntity
  8
LAY-1
  6
CONTINUOUS
 62
     7
100
AcDbCircle
 10
748.825234
 20
690.275531
 30
0.0
 40
10.0
100
AcDbArc
 50
202.182196
 51
255.0
  0
ARC
  5
2A9
100
AcDbEntity
  8
LAY-1
  6
CONTINUOUS
 62
     7
100
AcDbCircle
 10
908.913744
 20
690.20559
 30
0.0
 40
10.0
100
AcDbArc
 50
231.005773
 51
285.0
  0
ARC
  5
2AA
100
AcDbEntity
  8
LAY-1
  6
CONTINUOUS
 62
     7
100
AcDbCircle
 10
909.174766
 20
690.275531
 30
0.0
 40
10.0
100
AcDbArc
 50
285.0
 51
337.817804
  0
ARC
  5
2AB
100
AcDbEntity
  8
LAY-1
  6
CONTINUOUS
 62
     7
100
AcDbCircle
 10
749.086256
 20
690.20559
 30
0.0
 40
10.0
100
AcDbArc
 50
255.0
 51
308.994227
  0
LINE
  5
2AC
100
AcDbEntity
  8
LAY-1
  6
CONTINUOUS
 62
     7
100
AcDbLine
 10
721.0
 20
646.5
 30
0.0
 11
721.0
 21
569.0
 31
0.0
  0
LINE
  5
2AD
100
AcDbEntity
  8
LAY-1
  6
CONTINUOUS
 62
     7
100
AcDbLine
 10
911.501935
 20
680.546332
 30
0.0
 11
911.762957
 21
680.616272
 31
0.0
  0
LINE
  5
2AE
100
AcDbEntity
  8
LAY-1
  6
CONTINUOUS
 62
     7
100
AcDbLine
 10
739.565354
 20
606.5
 30
0.0
 11
739.565354
 21
646.5
 31
0.0
  0
LINE
  5
2AF
100
AcDbEntity
  8
LAY-1
  6
CONTINUOUS
 62
     7
100
AcDbLine
 10
918.434646
 20
686.5
 30
0.0
 11
921.0
 21
686.5
 31
0.0
  0
LINE
  5
2B0
100
AcDbEntity
  8
LAY-1
  6
CONTINUOUS
 62
     7
100
AcDbLine
 10
921.0
 20
646.5
 30
0.0
 11
921.0
 21
722.0
 31
0.0
  0
ARC
  5
2B1
100
AcDbEntity
  8
LAY-1
  6
CONTINUOUS
 62
     7
100
AcDbCircle
 10
735.0
 20
571.0
 30
0.0
 40
2.0
100
AcDbArc
 50
270.0
 51
0.0
  0
LINE
  5
2B2
100
AcDbEntity
  8
LAY-1
  6
CONTINUOUS
 62
     7
100
AcDbLine
 10
721.0
 20
569.0
 30
0.0
 11
735.0
 21
569.0
 31
0.0
  0
ARC
  5
2B3
100
AcDbEntity
  8
LAY-1
  6
CONTINUOUS
 62
     7
100
AcDbCircle
 10
749.086256
 20
602.79441
 30
0.0
 40
10.0
100
AcDbArc
 50
51.005773
 51
105.0
  0
LINE
  5
2B4
100
AcDbEntity
  8
LAY-1
  6
CONTINUOUS
 62
     7
100
AcDbLine
 10
737.0
 20
646.5
 30
0.0
 11
737.0
 21
571.0
 31
0.0
  0
LINE
  5
2B5
100
AcDbEntity
  8
LAY-1
  6
CONTINUOUS
 62
     7
100
AcDbLine
 10
721.0
 20
724.0
 30
0.0
 11
735.0
 21
724.0
 31
0.0
  0
LINE
  5
2B6
100
AcDbEntity
  8
LAY-1
  6
CONTINUOUS
 62
     7
100
AcDbLine
 10
739.565354
 20
606.5
 30
0.0
 11
737.0
 21
606.5
 31
0.0
  0
ARC
  5
2B7
100
AcDbEntity
  8
LAY-1
  6
CONTINUOUS
 62
     7
100
AcDbCircle
 10
735.0
 20
722.0
 30
0.0
 40
2.0
100
AcDbArc
 50
0.0
 51
90.0
  0
LINE
  5
2B8
100
AcDbEntity
  8
LAY-1
  6
CONTINUOUS
 62
     7
100
AcDbLine
 10
739.565354
 20
686.5
 30
0.0
 11
739.565354
 21
646.5
 31
0.0
  0
LINE
  5
2B9
100
AcDbEntity
  8
LAY-1
  6
CONTINUOUS
 62
     7
100
AcDbLine
 10
721.0
 20
646.5
 30
0.0
 11
721.0
 21
724.0
 31
0.0
  0
ARC
  5
2BA
100
AcDbEntity
  8
LAY-1
  6
CONTINUOUS
 62
     7
100
AcDbCircle
 10
748.825234
 20
602.724469
 30
0.0
 40
10.0
100
AcDbArc
 50
105.0
 51
157.817804
  0
LINE
  5
2BB
100
AcDbEntity
  8
LAY-1
  6
CONTINUOUS
 62
     7
100
AcDbLine
 10
746.498065
 20
612.453668
 30
0.0
 11
746.237043
 21
612.383728
 31
0.0
  0
LINE
  5
2BC
100
AcDbEntity
  8
LAY-1
  6
CONTINUOUS
 62
     7
100
AcDbLine
 10
937.0
 20
694.5
 30
0.0
 11
939.0
 21
694.5
 31
0.0
  0
LINE
  5
2BD
100
AcDbEntity
  8
LAY-1
  6
CONTINUOUS
 62
     7
100
AcDbLine
 10
939.0
 20
598.5
 30
0.0
 11
937.0
 21
598.5
 31
0.0
  0
LINE
  5
2BE
100
AcDbEntity
  8
LAY-1
  6
CONTINUOUS
 62
     7
100
AcDbLine
 10
939.0
 20
646.5
 30
0.0
 11
939.0
 21
598.5
 31
0.0
  0
LINE
  5
2BF
100
AcDbEntity
  8
LAY-1
  6
CONTINUOUS
 62
     7
100
AcDbLine
 10
939.0
 20
646.5
 30
0.0
 11
939.0
 21
694.5
 31
0.0
  0
LINE
  5
2C0
100
AcDbEntity
  8
LAY-1
  6
CONTINUOUS
 62
     7
100
AcDbLine
 10
721.0
 20
694.5
 30
0.0
 11
719.0
 21
694.5
 31
0.0
  0
LINE
  5
2C1
100
AcDbEntity
  8
LAY-1
  6
CONTINUOUS
 62
     7
100
AcDbLine
 10
719.0
 20
598.5
 30
0.0
 11
721.0
 21
598.5
 31
0.0
  0
LINE
  5
2C2
100
AcDbEntity
  8
LAY-1
  6
CONTINUOUS
 62
     7
100
AcDbLine
 10
719.0
 20
646.5
 30
0.0
 11
719.0
 21
598.5
 31
0.0
  0
LINE
  5
2C3
100
AcDbEntity
  8
LAY-1
  6
CONTINUOUS
 62
     7
100
AcDbLine
 10
719.0
 20
646.5
 30
0.0
 11
719.0
 21
694.5
 31
0.0
  0
ARC
  5
2C4
100
AcDbEntity
  8
LAY-1
  6
CONTINUOUS
 62
     7
100
AcDbCircle
 10
951.013922
 20
697.039821
 30
0.0
 40
70.0
100
AcDbArc
 50
185.820813
 51
219.179187
  0
ARC
  5
2C5
100
AcDbEntity
  8
LAY-1
  6
CONTINUOUS
 62
     7
100
AcDbCircle
 10
879.539821
 20
768.513922
 30
0.0
 40
70.0
100
AcDbArc
 50
230.820813
 51
264.179187
  0
ARC
  5
2C6
100
AcDbEntity
  8
LAY-1
  6
CONTINUOUS
 62
     7
100
AcDbCircle
 10
951.013922
 20
595.960179
 30
0.0
 40
70.0
100
AcDbArc
 50
140.820813
 51
174.179187
  0
ARC
  5
2C7
100
AcDbEntity
  8
LAY-1
  6
CONTINUOUS
 62
     7
100
AcDbCircle
 10
879.539821
 20
524.486078
 30
0.0
 40
70.0
100
AcDbArc
 50
95.820813
 51
129.179187
  0
ARC
  5
2C8
100
AcDbEntity
  8
LAY-1
  6
CONTINUOUS
 62
     7
100
AcDbCircle
 10
778.460179
 20
524.486078
 30
0.0
 40
70.0
100
AcDbArc
 50
50.820813
 51
84.179187
  0
ARC
  5
2C9
100
AcDbEntity
  8
LAY-1
  6
CONTINUOUS
 62
     7
100
AcDbCircle
 10
706.986078
 20
595.960179
 30
0.0
 40
70.0
100
AcDbArc
 50
5.820813
 51
39.179187
  0
ARC
  5
2CA
100
AcDbEntity
  8
LAY-1
  6
CONTINUOUS
 62
     7
100
AcDbCircle
 10
706.986078
 20
697.039821
 30
0.0
 40
70.0
100
AcDbArc
 50
320.820813
 51
354.179187
  0
ARC
  5
2CB
100
AcDbEntity
  8
LAY-1
  6
CONTINUOUS
 62
     7
100
AcDbCircle
 10
778.460179
 20
768.513922
 30
0.0
 40
70.0
100
AcDbArc
 50
275.820813
 51
309.179187
  0
ARC
  5
2CC
100
AcDbEntity
  8
LAY-1
  6
CONTINUOUS
 62
     7
100
AcDbCircle
 10
871.426407
 20
688.926407
 30
0.0
 40
10.0
100
AcDbArc
 50
5.820813
 51
84.179187
  0
ARC
  5
2CD
100
AcDbEntity
  8
LAY-1
  6
CONTINUOUS
 62
     7
100
AcDbCircle
 10
889.0
 20
646.5
 30
0.0
 40
10.0
100
AcDbArc
 50
320.820813
 51
39.179187
  0
ARC
  5
2CE
100
AcDbEntity
  8
LAY-1
  6
CONTINUOUS
 62
     7
100
AcDbCircle
 10
871.426407
 20
604.073593
 30
0.0
 40
10.0
100
AcDbArc
 50
275.820813
 51
354.179187
  0
ARC
  5
2CF
100
AcDbEntity
  8
LAY-1
  6
CONTINUOUS
 62
     7
100
AcDbCircle
 10
829.0
 20
586.5
 30
0.0
 40
10.0
100
AcDbArc
 50
230.820813
 51
309.179187
  0
ARC
  5
2D0
100
AcDbEntity
  8
LAY-1
  6
CONTINUOUS
 62
     7
100
AcDbCircle
 10
786.573593
 20
604.073593
 30
0.0
 40
10.0
100
AcDbArc
 50
185.820813
 51
264.179187
  0
ARC
  5
2D1
100
AcDbEntity
  8
LAY-1
  6
CONTINUOUS
 62
     7
100
AcDbCircle
 10
769.0
 20
646.5
 30
0.0
 40
10.0
100
AcDbArc
 50
140.820813
 51
219.179187
  0
ARC
  5
2D2
100
AcDbEntity
  8
LAY-1
  6
CONTINUOUS
 62
     7
100
AcDbCircle
 10
786.573593
 20
688.926407
 30
0.0
 40
10.0
100
AcDbArc
 50
95.820813
 51
174.179187
  0
ARC
  5
2D3
100
AcDbEntity
  8
LAY-1
  6
CONTINUOUS
 62
     7
100
AcDbCircle
 10
829.0
 20
706.5
 30
0.0
 40
10.0
100
AcDbArc
 50
50.820813
 51
129.179187
  0
CIRCLE
  5
2D4
100
AcDbEntity
  8
LAY-1
  6
CONTINUOUS
 62
     7
100
AcDbCircle
 10
829.0
 20
646.5
 30
0.0
 40
48.0
  0
CIRCLE
  5
2D5
100
AcDbEntity
  8
LAY-1
  6
CONTINUOUS
 62
     7
100
AcDbCircle
 10
829.0
 20
646.5
 30
0.0
 40
15.0
  0
ARC
  5
2D6
100
AcDbEntity
  8
LAY-1
  6
CONTINUOUS
 62
     7
100
AcDbCircle
 10
840.106521
 20
690.107857
 30
0.0
 40
3.0
100
AcDbArc
 50
75.711083
 51
181.621361
  0
ARC
  5
2D7
100
AcDbEntity
  8
LAY-1
  6
CONTINUOUS
 62
     7
100
AcDbCircle
 10
817.893479
 20
690.107857
 30
0.0
 40
3.0
100
AcDbArc
 50
358.378639
 51
104.288917
  0
ARC
  5
2D8
100
AcDbEntity
  8
LAY-1
  6
CONTINUOUS
 62
     7
100
AcDbCircle
 10
840.960102
 20
659.951987
 30
0.0
 40
3.0
100
AcDbArc
 50
181.621361
 51
228.359846
  0
ARC
  5
2D9
100
AcDbEntity
  8
LAY-1
  6
CONTINUOUS
 62
     7
100
AcDbCircle
 10
817.039898
 20
659.951987
 30
0.0
 40
3.0
100
AcDbArc
 50
311.640154
 51
358.378639
  0
LINE
  5
2DA
100
AcDbEntity
  8
LAY-1
  6
CONTINUOUS
 62
     7
100
AcDbLine
 10
820.892278
 20
690.022974
 30
0.0
 11
820.038697
 21
659.867104
 31
0.0
  0
LINE
  5
2DB
100
AcDbEntity
  8
LAY-1
  6
CONTINUOUS
 62
     7
100
AcDbLine
 10
837.107722
 20
690.022974
 30
0.0
 11
837.961303
 21
659.867104
 31
0.0
  0
ARC
  5
2DC
100
AcDbEntity
  8
LAY-1
  6
CONTINUOUS
 62
     7
100
AcDbCircle
 10
815.548013
 20
658.460102
 30
0.0
 40
3.0
100
AcDbArc
 50
271.621361
 51
318.359846
  0
LINE
  5
2DD
100
AcDbEntity
  8
LAY-1
  6
CONTINUOUS
 62
     7
100
AcDbLine
 10
785.477026
 20
654.607722
 30
0.0
 11
815.632896
 21
655.461303
 31
0.0
  0
ARC
  5
2DE
100
AcDbEntity
  8
LAY-1
  6
CONTINUOUS
 62
     7
100
AcDbCircle
 10
785.392143
 20
657.606521
 30
0.0
 40
3.0
100
AcDbArc
 50
165.711083
 51
271.621361
  0
ARC
  5
2DF
100
AcDbEntity
  8
LAY-1
  6
CONTINUOUS
 62
     7
100
AcDbCircle
 10
785.392143
 20
635.393479
 30
0.0
 40
3.0
100
AcDbArc
 50
88.378639
 51
194.288917
  0
LINE
  5
2E0
100
AcDbEntity
  8
LAY-1
  6
CONTINUOUS
 62
     7
100
AcDbLine
 10
785.477026
 20
638.392278
 30
0.0
 11
815.632896
 21
637.538697
 31
0.0
  0
ARC
  5
2E1
100
AcDbEntity
  8
LAY-1
  6
CONTINUOUS
 62
     7
100
AcDbCircle
 10
815.548013
 20
634.539898
 30
0.0
 40
3.0
100
AcDbArc
 50
41.640154
 51
88.378639
  0
ARC
  5
2E2
100
AcDbEntity
  8
LAY-1
  6
CONTINUOUS
 62
     7
100
AcDbCircle
 10
817.039898
 20
633.048013
 30
0.0
 40
3.0
100
AcDbArc
 50
1.621361
 51
48.359846
  0
LINE
  5
2E3
100
AcDbEntity
  8
LAY-1
  6
CONTINUOUS
 62
     7
100
AcDbLine
 10
820.892278
 20
602.977026
 30
0.0
 11
820.038697
 21
633.132896
 31
0.0
  0
ARC
  5
2E4
100
AcDbEntity
  8
LAY-1
  6
CONTINUOUS
 62
     7
100
AcDbCircle
 10
817.893479
 20
602.892143
 30
0.0
 40
3.0
100
AcDbArc
 50
255.711083
 51
1.621361
  0
ARC
  5
2E5
100
AcDbEntity
  8
LAY-1
  6
CONTINUOUS
 62
     7
100
AcDbCircle
 10
840.106521
 20
602.892143
 30
0.0
 40
3.0
100
AcDbArc
 50
178.378639
 51
284.288917
  0
LINE
  5
2E6
100
AcDbEntity
  8
LAY-1
  6
CONTINUOUS
 62
     7
100
AcDbLine
 10
837.107722
 20
602.977026
 30
0.0
 11
837.961303
 21
633.132896
 31
0.0
  0
ARC
  5
2E7
100
AcDbEntity
  8
LAY-1
  6
CONTINUOUS
 62
     7
100
AcDbCircle
 10
840.960102
 20
633.048013
 30
0.0
 40
3.0
100
AcDbArc
 50
131.640154
 51
178.378639
  0
ARC
  5
2E8
100
AcDbEntity
  8
LAY-1
  6
CONTINUOUS
 62
     7
100
AcDbCircle
 10
842.451987
 20
634.539898
 30
0.0
 40
3.0
100
AcDbArc
 50
91.621361
 51
138.359846
  0
LINE
  5
2E9
100
AcDbEntity
  8
LAY-1
  6
CONTINUOUS
 62
     7
100
AcDbLine
 10
872.522974
 20
638.392278
 30
0.0
 11
842.367104
 21
637.538697
 31
0.0
  0
ARC
  5
2EA
100
AcDbEntity
  8
LAY-1
  6
CONTINUOUS
 62
     7
100
AcDbCircle
 10
872.607857
 20
635.393479
 30
0.0
 40
3.0
100
AcDbArc
 50
345.711083
 51
91.621361
  0
ARC
  5
2EB
100
AcDbEntity
  8
LAY-1
  6
CONTINUOUS
 62
     7
100
AcDbCircle
 10
872.607857
 20
657.606521
 30
0.0
 40
3.0
100
AcDbArc
 50
268.378639
 51
14.288917
  0
LINE
  5
2EC
100
AcDbEntity
  8
LAY-1
  6
CONTINUOUS
 62
     7
100
AcDbLine
 10
872.522974
 20
654.607722
 30
0.0
 11
842.367104
 21
655.461303
 31
0.0
  0
ARC
  5
2ED
100
AcDbEntity
  8
LAY-1
  6
CONTINUOUS
 62
     7
100
AcDbCircle
 10
842.451987
 20
658.460102
 30
0.0
 40
3.0
100
AcDbArc
 50
221.640154
 51
268.378639
  0
ARC
  5
2EE
100
AcDbEntity
  8
LAY-1
  6
CONTINUOUS
 62
     7
100
AcDbCircle
 10
829.0
 20
646.5
 30
0.0
 40
55.215571
100
AcDbArc
 50
66.596951
 51
90.0
  0
LINE
  5
2EF
100
AcDbEntity
  8
LAY-1
  6
CONTINUOUS
 62
     7
100
AcDbLine
 10
850.931444
 20
697.173178
 30
0.0
 11
849.01
 21
699.17
 31
0.0
  0
LINE
  5
2F0
100
AcDbEntity
  8
LAY-1
  6
CONTINUOUS
 62
     7
100
AcDbLine
 10
849.01
 20
699.17
 30
0.0
 11
849.522772
 21
697.759878
 31
0.0
  0
ARC
  5
2F1
100
AcDbEntity
  8
LAY-1
  6
CONTINUOUS
 62
     7
100
AcDbCircle
 10
829.0
 20
646.5
 30
0.0
 40
55.215571
100
AcDbArc
 50
90.0
 51
113.403049
  0
LINE
  5
2F2
100
AcDbEntity
  8
LAY-1
  6
CONTINUOUS
 62
     7
100
AcDbLine
 10
807.068556
 20
697.173178
 30
0.0
 11
808.99
 21
699.17
 31
0.0
  0
LINE
  5
2F3
100
AcDbEntity
  8
LAY-1
  6
CONTINUOUS
 62
     7
100
AcDbLine
 10
808.99
 20
699.17
 30
0.0
 11
808.477228
 21
697.759878
 31
0.0
  0
POLYLINE
  5
2F4
100
AcDbEntity
  8
LAY-1
  6
CONTINUOUS
 62
     7
100
AcDb2dPolyline
 66
     1
 10
0.0
 20
0.0
 30
0.0
 70
   128
  0
VERTEX
  5
2F5
100
AcDbEntity
  8
LAY-1
  6
CONTINUOUS
 62
     7
100
AcDbVertex
100
AcDb2dVertex
 10
838.814955
 20
646.5
 30
0.0
  0
VERTEX
  5
2F6
100
AcDbEntity
  8
LAY-1
  6
CONTINUOUS
 62
     7
100
AcDbVertex
100
AcDb2dVertex
 10
833.907477
 20
655.0
 30
0.0
  0
VERTEX
  5
2F7
100
AcDbEntity
  8
LAY-1
  6
CONTINUOUS
 62
     7
100
AcDbVertex
100
AcDb2dVertex
 10
824.092523
 20
655.0
 30
0.0
  0
VERTEX
  5
2F8
100
AcDbEntity
  8
LAY-1
  6
CONTINUOUS
 62
     7
100
AcDbVertex
100
AcDb2dVertex
 10
819.185045
 20
646.5
 30
0.0
  0
VERTEX
  5
2F9
100
AcDbEntity
  8
LAY-1
  6
CONTINUOUS
 62
     7
100
AcDbVertex
100
AcDb2dVertex
 10
824.092523
 20
638.0
 30
0.0
  0
VERTEX
  5
2FA
100
AcDbEntity
  8
LAY-1
  6
CONTINUOUS
 62
     7
100
AcDbVertex
100
AcDb2dVertex
 10
833.907477
 20
638.0
 30
0.0
  0
VERTEX
  5
2FB
100
AcDbEntity
  8
LAY-1
  6
CONTINUOUS
 62
     7
100
AcDbVertex
100
AcDb2dVertex
 10
838.814955
 20
646.5
 30
0.0
  0
SEQEND
  5
2FC
100
AcDbEntity
  8
LAY-1
  6
CONTINUOUS
 62
     7
  0
CIRCLE
  5
2FD
100
AcDbEntity
  8
LAY-1
  6
CONTINUOUS
 62
     7
100
AcDbCircle
 10
829.0
 20
646.5
 30
0.0
 40
8.5
  0
CIRCLE
  5
2FE
100
AcDbEntity
  8
LAY-1
  6
CONTINUOUS
 62
     7
100
AcDbCircle
 10
829.0
 20
646.5
 30
0.0
 40
7.0
  0
ARC
  5
2FF
100
AcDbEntity
  8
LAY-1
  6
CONTINUOUS
 62
     7
100
AcDbCircle
 10
829.0
 20
701.5
 30
0.0
 40
117.0
100
AcDbArc
 50
278.127703
 51
308.994227
  0
ARC
  5
300
100
AcDbEntity
  8
LAY-1
  6
CONTINUOUS
 62
     7
100
AcDbCircle
 10
829.0
 20
701.5
 30
0.0
 40
117.0
100
AcDbArc
 50
231.005773
 51
261.872297
  0
ARC
  5
301
100
AcDbEntity
  8
LAY-1
  6
CONTINUOUS
 62
     7
100
AcDbCircle
 10
829.0
 20
591.5
 30
0.0
 40
117.0
100
AcDbArc
 50
51.005773
 51
81.872297
  0
ARC
  5
302
100
AcDbEntity
  8
LAY-1
  6
CONTINUOUS
 62
     7
100
AcDbCircle
 10
829.0
 20
591.5
 30
0.0
 40
117.0
100
AcDbArc
 50
98.127703
 51
128.994227
  0
INSERT
  5
303
100
AcDbEntity
  8
LAY-1
  6
CONTINUOUS
 62
     0
100
AcDbBlockReference
  2
SYM-1
 10
829.0
 20
1070.761202
 30
0.0
 41
1.75
 42
1.75
 50
180.0
  0
LINE
  5
304
100
AcDbEntity
  8
LAY-1
  6
CONTINUOUS
 62
     7
100
AcDbLine
 10
851.0
 20
918.6
 30
0.0
 11
852.516657
 21
964.099722
 31
0.0
  0
LINE
  5
305
100
AcDbEntity
  8
LAY-1
  6
CONTINUOUS
 62
     7
100
AcDbLine
 10
884.0
 20
980.6
 30
0.0
 11
884.0
 21
994.6
 31
0.0
  0
LINE
  5
306
100
AcDbEntity
  8
LAY-1
  6
CONTINUOUS
 62
     7
100
AcDbLine
 10
829.0
 20
895.6
 30
0.0
 11
842.0
 21
895.6
 31
0.0
  0
LINE
  5
307
100
AcDbEntity
  8
LAY-1
  6
CONTINUOUS
 62
     7
100
AcDbLine
 10
836.0
 20
895.6
 30
0.0
 11
837.5
 21
898.198076
 31
0.0
  0
LINE
  5
308
100
AcDbEntity
  8
LAY-1
  6
CONTINUOUS
 62
     7
100
AcDbLine
 10
837.5
 20
898.198076
 30
0.0
 11
829.0
 21
898.198076
 31
0.0
  0
LINE
  5
309
100
AcDbEntity
  8
LAY-1
  6
CONTINUOUS
 62
     7
100
AcDbLine
 10
837.5
 20
905.6
 30
0.0
 11
829.0
 21
905.6
 31
0.0
  0
LINE
  5
30A
100
AcDbEntity
  8
LAY-1
  6
CONTINUOUS
 62
     7
100
AcDbLine
 10
871.0
 20
994.6
 30
0.0
 11
871.0
 21
995.6
 31
0.0
  0
ARC
  5
30B
100
AcDbEntity
  8
LAY-1
  6
CONTINUOUS
 62
     7
100
AcDbCircle
 10
882.0
 20
980.6
 30
0.0
 40
2.0
100
AcDbArc
 50
270.0
 51
0.0
  0
LINE
  5
30C
100
AcDbEntity
  8
LAY-1
  6
CONTINUOUS
 62
     7
100
AcDbLine
 10
851.0
 20
916.6
 30
0.0
 11
851.0
 21
908.466025
 31
0.0
  0
LINE
  5
30D
100
AcDbEntity
  8
LAY-1
  6
CONTINUOUS
 62
     7
100
AcDbLine
 10
851.0
 20
908.466025
 30
0.0
 11
849.5
 21
907.6
 31
0.0
  0
ARC
  5
30E
100
AcDbEntity
  8
LAY-1
  6
CONTINUOUS
 62
     7
100
AcDbCircle
 10
880.0
 20
877.6
 30
0.0
 40
9.0
100
AcDbArc
 50
270.0
 51
90.0
  0
ARC
  5
30F
100
AcDbEntity
  8
LAY-1
  6
CONTINUOUS
 62
     7
100
AcDbCircle
 10
845.919998
 20
895.396
 30
0.0
 40
3.0
100
AcDbArc
 50
191.478486
 51
262.007266
  0
ARC
  5
310
100
AcDbEntity
  8
LAY-1
  6
CONTINUOUS
 62
     7
100
AcDbCircle
 10
842.0
 20
894.6
 30
0.0
 40
1.0
100
AcDbArc
 50
11.478486
 51
90.0
  0
ARC
  5
311
100
AcDbEntity
  8
LAY-1
  6
CONTINUOUS
 62
     7
100
AcDbCircle
 10
816.0
 20
894.6
 30
0.0
 40
1.0
100
AcDbArc
 50
90.0
 51
168.521514
  0
ARC
  5
312
100
AcDbEntity
  8
LAY-1
  6
CONTINUOUS
 62
     7
100
AcDbCircle
 10
812.080002
 20
895.396
 30
0.0
 40
3.0
100
AcDbArc
 50
277.992734
 51
348.521514
  0
ARC
  5
313
100
AcDbEntity
  8
LAY-1
  6
CONTINUOUS
 62
     7
100
AcDbCircle
 10
778.0
 20
877.6
 30
0.0
 40
9.0
100
AcDbArc
 50
90.0
 51
270.0
  0
LINE
  5
314
100
AcDbEntity
  8
LAY-1
  6
CONTINUOUS
 62
     7
100
AcDbLine
 10
807.0
 20
908.466025
 30
0.0
 11
808.5
 21
907.6
 31
0.0
  0
LINE
  5
315
100
AcDbEntity
  8
LAY-1
  6
CONTINUOUS
 62
     7
100
AcDbLine
 10
807.0
 20
916.6
 30
0.0
 11
807.0
 21
908.466025
 31
0.0
  0
ARC
  5
316
100
AcDbEntity
  8
LAY-1
  6
CONTINUOUS
 62
     7
100
AcDbCircle
 10
776.0
 20
980.6
 30
0.0
 40
2.0
100
AcDbArc
 50
180.0
 51
270.0
  0
LINE
  5
317
100
AcDbEntity
  8
LAY-1
  6
CONTINUOUS
 62
     7
100
AcDbLine
 10
787.0
 20
994.6
 30
0.0
 11
787.0
 21
995.6
 31
0.0
  0
LINE
  5
318
100
AcDbEntity
  8
LAY-1
  6
CONTINUOUS
 62
     7
100
AcDbLine
 10
820.5
 20
905.6
 30
0.0
 11
829.0
 21
905.6
 31
0.0
  0
LINE
  5
319
100
AcDbEntity
  8
LAY-1
  6
CONTINUOUS
 62
     7
100
AcDbLine
 10
820.5
 20
898.198076
 30
0.0
 11
829.0
 21
898.198076
 31
0.0
  0
LINE
  5
31A
100
AcDbEntity
  8
LAY-1
  6
CONTINUOUS
 62
     7
100
AcDbLine
 10
822.0
 20
895.6
 30
0.0
 11
820.5
 21
898.198076
 31
0.0
  0
LINE
  5
31B
100
AcDbEntity
  8
LAY-1
  6
CONTINUOUS
 62
     7
100
AcDbLine
 10
829.0
 20
895.6
 30
0.0
 11
816.0
 21
895.6
 31
0.0
  0
LINE
  5
31C
100
AcDbEntity
  8
LAY-1
  6
CONTINUOUS
 62
     7
100
AcDbLine
 10
774.0
 20
980.6
 30
0.0
 11
774.0
 21
994.6
 31
0.0
  0
LINE
  5
31D
100
AcDbEntity
  8
LAY-1
  6
CONTINUOUS
 62
     7
100
AcDbLine
 10
807.0
 20
918.6
 30
0.0
 11
805.483343
 21
964.099722
 31
0.0
  0
ARC
  5
31E
100
AcDbEntity
  8
LAY-1
  6
CONTINUOUS
 62
     7
100
AcDbCircle
 10
909.460177
 20
1114.360676
 30
0.0
 40
10.0
100
AcDbArc
 50
230.687871
 51
285.0
  0
ARC
  5
31F
100
AcDbEntity
  8
LAY-1
  6
CONTINUOUS
 62
     7
100
AcDbCircle
 10
911.0
 20
1114.77327
 30
0.0
 40
10.0
100
AcDbArc
 50
285.0
 51
0.0
  0
ARC
  5
320
100
AcDbEntity
  8
LAY-1
  6
CONTINUOUS
 62
     7
100
AcDbCircle
 10
923.0
 20
1146.6
 30
0.0
 40
2.0
100
AcDbArc
 50
90.0
 51
180.0
  0
ARC
  5
321
100
AcDbEntity
  8
LAY-1
  6
CONTINUOUS
 62
     7
100
AcDbCircle
 10
829.000003
 20
1016.1
 30
0.0
 40
117.0
100
AcDbArc
 50
50.687871
 51
90.0
  0
LINE
  5
322
100
AcDbEntity
  8
LAY-1
  6
CONTINUOUS
 62
     7
100
AcDbLine
 10
912.048367
 20
1104.701417
 30
0.0
 11
913.58819
 21
1105.114012
 31
0.0
  0
LINE
  5
323
100
AcDbEntity
  8
LAY-1
  6
CONTINUOUS
 62
     7
100
AcDbLine
 10
923.0
 20
1148.6
 30
0.0
 11
937.0
 21
1148.6
 31
0.0
  0
LINE
  5
324
100
AcDbEntity
  8
LAY-1
  6
CONTINUOUS
 62
     7
100
AcDbLine
 10
923.0
 20
993.6
 30
0.0
 11
937.0
 21
993.6
 31
0.0
  0
LINE
  5
325
100
AcDbEntity
  8
LAY-1
  6
CONTINUOUS
 62
     7
100
AcDbLine
 10
912.048367
 20
1037.498583
 30
0.0
 11
913.58819
 21
1037.085988
 31
0.0
  0
ARC
  5
326
100
AcDbEntity
  8
LAY-1
  6
CONTINUOUS
 62
     7
100
AcDbCircle
 10
829.000003
 20
1126.1
 30
0.0
 40
117.0
100
AcDbArc
 50
292.572174
 51
309.312129
  0
ARC
  5
327
100
AcDbEntity
  8
LAY-1
  6
CONTINUOUS
 62
     7
100
AcDbCircle
 10
923.0
 20
995.6
 30
0.0
 40
2.0
100
AcDbArc
 50
180.0
 51
270.0
  0
ARC
  5
328
100
AcDbEntity
  8
LAY-1
  6
CONTINUOUS
 62
     7
100
AcDbCircle
 10
911.0
 20
1027.42673
 30
0.0
 40
10.0
100
AcDbArc
 50
0.0
 51
75.0
  0
ARC
  5
329
100
AcDbEntity
  8
LAY-1
  6
CONTINUOUS
 62
     7
100
AcDbCircle
 10
909.460177
 20
1027.839324
 30
0.0
 40
10.0
100
AcDbArc
 50
75.0
 51
129.312129
  0
LINE
  5
32A
100
AcDbEntity
  8
LAY-1
  6
CONTINUOUS
 62
     7
100
AcDbLine
 10
884.0
 20
995.6
 30
0.0
 11
884.0
 21
1010.6
 31
0.0
  0
ARC
  5
32B
100
AcDbEntity
  8
LAY-1
  6
CONTINUOUS
 62
     7
100
AcDbCircle
 10
875.100026
 20
1015.200026
 30
0.0
 40
3.100026
100
AcDbArc
 50
112.572174
 51
270.0
  0
ARC
  5
32C
100
AcDbEntity
  8
LAY-1
  6
CONTINUOUS
 62
     7
100
AcDbCircle
 10
882.5
 20
1010.6
 30
0.0
 40
1.5
100
AcDbArc
 50
0.0
 51
90.0
  0
ARC
  5
32D
100
AcDbEntity
  8
LAY-1
  6
CONTINUOUS
 62
     7
100
AcDbCircle
 10
775.5
 20
1010.6
 30
0.0
 40
1.5
100
AcDbArc
 50
90.0
 51
180.0
  0
ARC
  5
32E
100
AcDbEntity
  8
LAY-1
  6
CONTINUOUS
 62
     7
100
AcDbCircle
 10
782.899974
 20
1015.200026
 30
0.0
 40
3.100026
100
AcDbArc
 50
270.0
 51
67.427826
  0
LINE
  5
32F
100
AcDbEntity
  8
LAY-1
  6
CONTINUOUS
 62
     7
100
AcDbLine
 10
774.0
 20
995.6
 30
0.0
 11
774.0
 21
1010.6
 31
0.0
  0
ARC
  5
330
100
AcDbEntity
  8
LAY-1
  6
CONTINUOUS
 62
     7
100
AcDbCircle
 10
748.539823
 20
1027.839324
 30
0.0
 40
10.0
100
AcDbArc
 50
50.687871
 51
105.0
  0
ARC
  5
331
100
AcDbEntity
  8
LAY-1
  6
CONTINUOUS
 62
     7
100
AcDbCircle
 10
747.0
 20
1027.42673
 30
0.0
 40
10.0
100
AcDbArc
 50
105.0
 51
180.0
  0
ARC
  5
332
100
AcDbEntity
  8
LAY-1
  6
CONTINUOUS
 62
     7
100
AcDbCircle
 10
735.0
 20
995.6
 30
0.0
 40
2.0
100
AcDbArc
 50
270.0
 51
0.0
  0
ARC
  5
333
100
AcDbEntity
  8
LAY-1
  6
CONTINUOUS
 62
     7
100
AcDbCircle
 10
828.999997
 20
1126.1
 30
0.0
 40
117.0
100
AcDbArc
 50
230.687871
 51
247.427826
  0
LINE
  5
334
100
AcDbEntity
  8
LAY-1
  6
CONTINUOUS
 62
     7
100
AcDbLine
 10
745.951633
 20
1037.498583
 30
0.0
 11
744.41181
 21
1037.085988
 31
0.0
  0
LINE
  5
335
100
AcDbEntity
  8
LAY-1
  6
CONTINUOUS
 62
     7
100
AcDbLine
 10
735.0
 20
993.6
 30
0.0
 11
721.0
 21
993.6
 31
0.0
  0
LINE
  5
336
100
AcDbEntity
  8
LAY-1
  6
CONTINUOUS
 62
     7
100
AcDbLine
 10
735.0
 20
1148.6
 30
0.0
 11
721.0
 21
1148.6
 31
0.0
  0
LINE
  5
337
100
AcDbEntity
  8
LAY-1
  6
CONTINUOUS
 62
     7
100
AcDbLine
 10
745.951633
 20
1104.701417
 30
0.0
 11
744.41181
 21
1105.114012
 31
0.0
  0
ARC
  5
338
100
AcDbEntity
  8
LAY-1
  6
CONTINUOUS
 62
     7
100
AcDbCircle
 10
828.999997
 20
1016.1
 30
0.0
 40
117.0
100
AcDbArc
 50
90.0
 51
129.312129
  0
ARC
  5
339
100
AcDbEntity
  8
LAY-1
  6
CONTINUOUS
 62
     7
100
AcDbCircle
 10
735.0
 20
1146.6
 30
0.0
 40
2.0
100
AcDbArc
 50
0.0
 51
90.0
  0
ARC
  5
33A
100
AcDbEntity
  8
LAY-1
  6
CONTINUOUS
 62
     7
100
AcDbCircle
 10
747.0
 20
1114.77327
 30
0.0
 40
10.0
100
AcDbArc
 50
180.0
 51
255.0
  0
ARC
  5
33B
100
AcDbEntity
  8
LAY-1
  6
CONTINUOUS
 62
     7
100
AcDbCircle
 10
748.539823
 20
1114.360676
 30
0.0
 40
10.0
100
AcDbArc
 50
255.0
 51
309.312129
  0
ARC
  5
33C
100
AcDbEntity
  8
LAY-1
  6
CONTINUOUS
 62
     7
100
AcDbCircle
 10
939.0
 20
1021.1
 30
0.0
 40
2.0
100
AcDbArc
 50
90.0
 51
180.0
  0
LINE
  5
33D
100
AcDbEntity
  8
LAY-1
  6
CONTINUOUS
 62
     7
100
AcDbLine
 10
939.0
 20
1023.1
 30
0.0
 11
939.0
 21
1071.1
 31
0.0
  0
ARC
  5
33E
100
AcDbEntity
  8
LAY-1
  6
CONTINUOUS
 62
     7
100
AcDbCircle
 10
939.0
 20
1121.1
 30
0.0
 40
2.0
100
AcDbArc
 50
180.0
 51
270.0
  0
LINE
  5
33F
100
AcDbEntity
  8
LAY-1
  6
CONTINUOUS
 62
     7
100
AcDbLine
 10
939.0
 20
1119.1
 30
0.0
 11
939.0
 21
1071.1
 31
0.0
  0
ARC
  5
340
100
AcDbEntity
  8
LAY-1
  6
CONTINUOUS
 62
     7
100
AcDbCircle
 10
719.0
 20
1021.1
 30
0.0
 40
2.0
100
AcDbArc
 50
0.0
 51
90.0
  0
LINE
  5
341
100
AcDbEntity
  8
LAY-1
  6
CONTINUOUS
 62
     7
100
AcDbLine
 10
719.0
 20
1023.1
 30
0.0
 11
719.0
 21
1071.1
 31
0.0
  0
ARC
  5
342
100
AcDbEntity
  8
LAY-1
  6
CONTINUOUS
 62
     7
100
AcDbCircle
 10
719.0
 20
1121.1
 30
0.0
 40
2.0
100
AcDbArc
 50
270.0
 51
0.0
  0
LINE
  5
343
100
AcDbEntity
  8
LAY-1
  6
CONTINUOUS
 62
     7
100
AcDbLine
 10
719.0
 20
1119.1
 30
0.0
 11
719.0
 21
1071.1
 31
0.0
  0
LINE
  5
344
100
AcDbEntity
  8
LAY-1
  6
CONTINUOUS
 62
     7
100
AcDbLine
 10
829.0
 20
868.6
 30
0.0
 11
880.0
 21
868.6
 31
0.0
  0
LINE
  5
345
100
AcDbEntity
  8
LAY-1
  6
CONTINUOUS
 62
     7
100
AcDbLine
 10
829.0
 20
868.6
 30
0.0
 11
778.0
 21
868.6
 31
0.0
  0
LINE
  5
346
100
AcDbEntity
  8
LAY-1
  6
CONTINUOUS
 62
     7
100
AcDbLine
 10
880.0
 20
886.6
 30
0.0
 11
829.0
 21
886.6
 31
0.0
  0
LINE
  5
347
100
AcDbEntity
  8
LAY-1
  6
CONTINUOUS
 62
     7
100
AcDbLine
 10
778.0
 20
886.6
 30
0.0
 11
829.0
 21
886.6
 31
0.0
  0
ARC
  5
348
100
AcDbEntity
  8
LAY-1
  6
CONTINUOUS
 62
     7
100
AcDbCircle
 10
815.0
 20
874.6
 30
0.0
 40
18.0
100
AcDbArc
 50
97.992734
 51
138.189685
  0
ARC
  5
349
100
AcDbEntity
  8
LAY-1
  6
CONTINUOUS
 62
     7
100
AcDbCircle
 10
843.0
 20
874.6
 30
0.0
 40
18.0
100
AcDbArc
 50
41.810315
 51
82.007266
  0
ARC
  5
34A
100
AcDbEntity
  8
LAY-1
  6
CONTINUOUS
 62
     7
100
AcDbCircle
 10
829.0
 20
870.7
 30
0.0
 40
7.0
100
AcDbArc
 50
270.0
 51
342.542397
  0
ARC
  5
34B
100
AcDbEntity
  8
LAY-1
  6
CONTINUOUS
 62
     7
100
AcDbCircle
 10
829.0
 20
870.7
 30
0.0
 40
7.0
100
AcDbArc
 50
197.457603
 51
270.0
  0
LINE
  5
34C
100
AcDbEntity
  8
LAY-1
  6
CONTINUOUS
 62
     7
100
AcDbLine
 10
837.5
 20
898.198076
 30
0.0
 11
837.5
 21
907.6
 31
0.0
  0
LINE
  5
34D
100
AcDbEntity
  8
LAY-1
  6
CONTINUOUS
 62
     7
100
AcDbLine
 10
820.5
 20
898.198076
 30
0.0
 11
820.5
 21
907.6
 31
0.0
  0
LINE
  5
34E
100
AcDbEntity
  8
LAY-1
  6
CONTINUOUS
 62
     7
100
AcDbLine
 10
808.5
 20
907.6
 30
0.0
 11
829.0
 21
907.6
 31
0.0
  0
LINE
  5
34F
100
AcDbEntity
  8
LAY-1
  6
CONTINUOUS
 62
     7
100
AcDbLine
 10
849.5
 20
907.6
 30
0.0
 11
829.0
 21
907.6
 31
0.0
  0
LINE
  5
350
100
AcDbEntity
  8
LAY-1
  6
CONTINUOUS
 62
     7
100
AcDbLine
 10
829.0
 20
918.6
 30
0.0
 11
851.0
 21
918.6
 31
0.0
  0
LINE
  5
351
100
AcDbEntity
  8
LAY-1
  6
CONTINUOUS
 62
     7
100
AcDbLine
 10
829.0
 20
918.6
 30
0.0
 11
807.0
 21
918.6
 31
0.0
  0
LINE
  5
352
100
AcDbEntity
  8
LAY-1
  6
CONTINUOUS
 62
     7
100
AcDbLine
 10
848.0
 20
918.6
 30
0.0
 11
848.0
 21
916.6
 31
0.0
  0
LINE
  5
353
100
AcDbEntity
  8
LAY-1
  6
CONTINUOUS
 62
     7
100
AcDbLine
 10
810.0
 20
918.6
 30
0.0
 11
810.0
 21
916.6
 31
0.0
  0
LINE
  5
354
100
AcDbEntity
  8
LAY-1
  6
CONTINUOUS
 62
     7
100
AcDbLine
 10
937.0
 20
993.6
 30
0.0
 11
937.0
 21
1071.1
 31
0.0
  0
LINE
  5
355
100
AcDbEntity
  8
LAY-1
  6
CONTINUOUS
 62
     7
100
AcDbLine
 10
937.0
 20
1148.6
 30
0.0
 11
937.0
 21
1071.1
 31
0.0
  0
LINE
  5
356
100
AcDbEntity
  8
LAY-1
  6
CONTINUOUS
 62
     7
100
AcDbLine
 10
921.0
 20
1071.1
 30
0.0
 11
921.0
 21
1146.6
 31
0.0
  0
LINE
  5
357
100
AcDbEntity
  8
LAY-1
  6
CONTINUOUS
 62
     7
100
AcDbLine
 10
921.0
 20
1071.1
 30
0.0
 11
921.0
 21
995.6
 31
0.0
  0
LINE
  5
358
100
AcDbEntity
  8
LAY-1
  6
CONTINUOUS
 62
     7
100
AcDbLine
 10
737.0
 20
1071.1
 30
0.0
 11
737.0
 21
1146.6
 31
0.0
  0
LINE
  5
359
100
AcDbEntity
  8
LAY-1
  6
CONTINUOUS
 62
     7
100
AcDbLine
 10
737.0
 20
1071.1
 30
0.0
 11
737.0
 21
995.6
 31
0.0
  0
LINE
  5
35A
100
AcDbEntity
  8
LAY-1
  6
CONTINUOUS
 62
     7
100
AcDbLine
 10
721.0
 20
1148.6
 30
0.0
 11
721.0
 21
1071.1
 31
0.0
  0
LINE
  5
35B
100
AcDbEntity
  8
LAY-1
  6
CONTINUOUS
 62
     7
100
AcDbLine
 10
721.0
 20
993.6
 30
0.0
 11
721.0
 21
1071.1
 31
0.0
  0
LINE
  5
35C
100
AcDbEntity
  8
LAY-1
  6
CONTINUOUS
 62
     7
100
AcDbLine
 10
884.0
 20
994.6
 30
0.0
 11
829.0
 21
994.6
 31
0.0
  0
LINE
  5
35D
100
AcDbEntity
  8
LAY-1
  6
CONTINUOUS
 62
     7
100
AcDbLine
 10
829.0
 20
995.6
 30
0.0
 11
884.0
 21
995.6
 31
0.0
  0
LINE
  5
35E
100
AcDbEntity
  8
LAY-1
  6
CONTINUOUS
 62
     7
100
AcDbLine
 10
829.0
 20
995.6
 30
0.0
 11
774.0
 21
995.6
 31
0.0
  0
LINE
  5
35F
100
AcDbEntity
  8
LAY-1
  6
CONTINUOUS
 62
     7
100
AcDbLine
 10
774.0
 20
994.6
 30
0.0
 11
829.0
 21
994.6
 31
0.0
  0
LINE
  5
360
100
AcDbEntity
  8
LAY-1
  6
CONTINUOUS
 62
     7
100
AcDbLine
 10
829.0
 20
978.6
 30
0.0
 11
882.0
 21
978.6
 31
0.0
  0
LINE
  5
361
100
AcDbEntity
  8
LAY-1
  6
CONTINUOUS
 62
     7
100
AcDbLine
 10
829.0
 20
978.6
 30
0.0
 11
776.0
 21
978.6
 31
0.0
  0
LINE
  5
362
100
AcDbEntity
  8
LAY-1
  6
CONTINUOUS
 62
     7
100
AcDbLine
 10
882.5
 20
1012.1
 30
0.0
 11
829.0
 21
1012.1
 31
0.0
  0
LINE
  5
363
100
AcDbEntity
  8
LAY-1
  6
CONTINUOUS
 62
     7
100
AcDbLine
 10
775.5
 20
1012.1
 30
0.0
 11
829.0
 21
1012.1
 31
0.0
  0
LINE
  5
364
100
AcDbEntity
  8
LAY-1
  6
CONTINUOUS
 62
     7
100
AcDbLine
 10
829.0
 20
916.6
 30
0.0
 11
851.0
 21
916.6
 31
0.0
  0
LINE
  5
365
100
AcDbEntity
  8
LAY-1
  6
CONTINUOUS
 62
     7
100
AcDbLine
 10
829.0
 20
916.6
 30
0.0
 11
807.0
 21
916.6
 31
0.0
  0
LINE
  5
366
100
AcDbEntity
  8
LAY-1
  6
CONTINUOUS
 62
     7
100
AcDbLine
 10
840.835681
 20
908.466025
 30
0.0
 11
840.835681
 21
916.6
 31
0.0
  0
LINE
  5
367
100
AcDbEntity
  8
LAY-1
  6
CONTINUOUS
 62
     7
100
AcDbLine
 10
817.164319
 20
908.466025
 30
0.0
 11
817.164319
 21
916.6
 31
0.0
  0
ARC
  5
368
100
AcDbEntity
  8
LAY-1
  6
CONTINUOUS
 62
     7
100
AcDbCircle
 10
845.91784
 20
922.945016
 30
0.0
 40
15.345016
100
AcDbArc
 50
250.658807
 51
289.341193
  0
ARC
  5
369
100
AcDbEntity
  8
LAY-1
  6
CONTINUOUS
 62
     7
100
AcDbCircle
 10
829.0
 20
988.910163
 30
0.0
 40
81.310163
100
AcDbArc
 50
261.630168
 51
278.369832
  0
ARC
  5
36A
100
AcDbEntity
  8
LAY-1
  6
CONTINUOUS
 62
     7
100
AcDbCircle
 10
812.08216
 20
922.945016
 30
0.0
 40
15.345016
100
AcDbArc
 50
250.658807
 51
289.341193
  0
LINE
  5
36B
100
AcDbEntity
  8
LAY-1
  6
CONTINUOUS
 62
     7
100
AcDbLine
 10
851.076283
 20
978.493128
 30
0.0
 11
851.076283
 21
968.627139
 31
0.0
  0
LINE
  5
36C
100
AcDbEntity
  8
LAY-1
  6
CONTINUOUS
 62
     7
100
AcDbLine
 10
852.855339
 20
967.6
 30
0.0
 11
875.855339
 21
967.6
 31
0.0
  0
LINE
  5
36D
100
AcDbEntity
  8
LAY-1
  6
CONTINUOUS
 62
     7
100
AcDbLine
 10
875.855339
 20
967.6
 30
0.0
 11
877.634395
 21
968.627139
 31
0.0
  0
LINE
  5
36E
100
AcDbEntity
  8
LAY-1
  6
CONTINUOUS
 62
     7
100
AcDbLine
 10
877.634395
 20
968.627139
 30
0.0
 11
877.634395
 21
978.6
 31
0.0
  0
ARC
  5
36F
100
AcDbEntity
  8
LAY-1
  6
CONTINUOUS
 62
     7
100
AcDbCircle
 10
874.314631
 20
973.478392
 30
0.0
 40
5.878392
100
AcDbArc
 50
235.615753
 51
304.384247
  0
ARC
  5
370
100
AcDbEntity
  8
LAY-1
  6
CONTINUOUS
 62
     7
100
AcDbCircle
 10
864.355339
 20
989.572861
 30
0.0
 40
21.972861
100
AcDbArc
 50
252.412046
 51
287.587954
  0
ARC
  5
371
100
AcDbEntity
  8
LAY-1
  6
CONTINUOUS
 62
     7
100
AcDbCircle
 10
854.396047
 20
973.478392
 30
0.0
 40
5.878392
100
AcDbArc
 50
235.615753
 51
304.384247
  0
LINE
  5
372
100
AcDbEntity
  8
LAY-1
  6
CONTINUOUS
 62
     7
100
AcDbLine
 10
857.715811
 20
968.627139
 30
0.0
 11
857.715811
 21
978.6
 31
0.0
  0
LINE
  5
373
100
AcDbEntity
  8
LAY-1
  6
CONTINUOUS
 62
     7
100
AcDbLine
 10
870.994867
 20
978.6
 30
0.0
 11
870.994867
 21
968.627139
 31
0.0
  0
LINE
  5
374
100
AcDbEntity
  8
LAY-1
  6
CONTINUOUS
 62
     7
100
AcDbLine
 10
857.355339
 20
967.6
 30
0.0
 11
857.355339
 21
966.1
 31
0.0
  0
LINE
  5
375
100
AcDbEntity
  8
LAY-1
  6
CONTINUOUS
 62
     7
100
AcDbLine
 10
857.355339
 20
966.1
 30
0.0
 11
858.355339
 21
965.1
 31
0.0
  0
LINE
  5
376
100
AcDbEntity
  8
LAY-1
  6
CONTINUOUS
 62
     7
100
AcDbLine
 10
858.355339
 20
965.1
 30
0.0
 11
870.355339
 21
965.1
 31
0.0
  0
LINE
  5
377
100
AcDbEntity
  8
LAY-1
  6
CONTINUOUS
 62
     7
100
AcDbLine
 10
870.355339
 20
965.1
 30
0.0
 11
871.355339
 21
966.1
 31
0.0
  0
LINE
  5
378
100
AcDbEntity
  8
LAY-1
  6
CONTINUOUS
 62
     7
100
AcDbLine
 10
871.355339
 20
966.1
 30
0.0
 11
871.355339
 21
967.6
 31
0.0
  0
LINE
  5
379
100
AcDbEntity
  8
LAY-1
  6
CONTINUOUS
 62
     7
100
AcDbLine
 10
870.355339
 20
967.6
 30
0.0
 11
870.355339
 21
965.1
 31
0.0
  0
LINE
  5
37A
100
AcDbEntity
  8
LAY-1
  6
CONTINUOUS
 62
     7
100
AcDbLine
 10
858.355339
 20
965.1
 30
0.0
 11
858.355339
 21
967.6
 31
0.0
  0
LINE
  5
37B
100
AcDbEntity
  8
LAY-1
  6
CONTINUOUS
 62
     7
100
AcDbLine
 10
857.355339
 20
966.1
 30
0.0
 11
871.355339
 21
966.1
 31
0.0
  0
LINE
  5
37C
100
AcDbEntity
  8
LAY-1
  6
CONTINUOUS
 62
     7
100
AcDbLine
 10
806.923717
 20
978.493128
 30
0.0
 11
806.923717
 21
968.627139
 31
0.0
  0
LINE
  5
37D
100
AcDbEntity
  8
LAY-1
  6
CONTINUOUS
 62
     7
100
AcDbLine
 10
805.144661
 20
967.6
 30
0.0
 11
782.144661
 21
967.6
 31
0.0
  0
LINE
  5
37E
100
AcDbEntity
  8
LAY-1
  6
CONTINUOUS
 62
     7
100
AcDbLine
 10
782.144661
 20
967.6
 30
0.0
 11
780.365605
 21
968.627139
 31
0.0
  0
LINE
  5
37F
100
AcDbEntity
  8
LAY-1
  6
CONTINUOUS
 62
     7
100
AcDbLine
 10
780.365605
 20
968.627139
 30
0.0
 11
780.365605
 21
978.6
 31
0.0
  0
ARC
  5
380
100
AcDbEntity
  8
LAY-1
  6
CONTINUOUS
 62
     7
100
AcDbCircle
 10
783.685369
 20
973.478392
 30
0.0
 40
5.878392
100
AcDbArc
 50
235.615753
 51
304.384247
  0
ARC
  5
381
100
AcDbEntity
  8
LAY-1
  6
CONTINUOUS
 62
     7
100
AcDbCircle
 10
793.644661
 20
989.572861
 30
0.0
 40
21.972861
100
AcDbArc
 50
252.412046
 51
287.587954
  0
ARC
  5
382
100
AcDbEntity
  8
LAY-1
  6
CONTINUOUS
 62
     7
100
AcDbCircle
 10
803.603953
 20
973.478392
 30
0.0
 40
5.878392
100
AcDbArc
 50
235.615753
 51
304.384247
  0
LINE
  5
383
100
AcDbEntity
  8
LAY-1
  6
CONTINUOUS
 62
     7
100
AcDbLine
 10
800.284189
 20
968.627139
 30
0.0
 11
800.284189
 21
978.6
 31
0.0
  0
LINE
  5
384
100
AcDbEntity
  8
LAY-1
  6
CONTINUOUS
 62
     7
100
AcDbLine
 10
787.005133
 20
978.6
 30
0.0
 11
787.005133
 21
968.627139
 31
0.0
  0
LINE
  5
385
100
AcDbEntity
  8
LAY-1
  6
CONTINUOUS
 62
     7
100
AcDbLine
 10
800.644661
 20
967.6
 30
0.0
 11
800.644661
 21
966.1
 31
0.0
  0
LINE
  5
386
100
AcDbEntity
  8
LAY-1
  6
CONTINUOUS
 62
     7
100
AcDbLine
 10
800.644661
 20
966.1
 30
0.0
 11
799.644661
 21
965.1
 31
0.0
  0
LINE
  5
387
100
AcDbEntity
  8
LAY-1
  6
CONTINUOUS
 62
     7
100
AcDbLine
 10
799.644661
 20
965.1
 30
0.0
 11
787.644661
 21
965.1
 31
0.0
  0
LINE
  5
388
100
AcDbEntity
  8
LAY-1
  6
CONTINUOUS
 62
     7
100
AcDbLine
 10
787.644661
 20
965.1
 30
0.0
 11
786.644661
 21
966.1
 31
0.0
  0
LINE
  5
389
100
AcDbEntity
  8
LAY-1
  6
CONTINUOUS
 62
     7
100
AcDbLine
 10
786.644661
 20
966.1
 30
0.0
 11
786.644661
 21
967.6
 31
0.0
  0
LINE
  5
38A
100
AcDbEntity
  8
LAY-1
  6
CONTINUOUS
 62
     7
100
AcDbLine
 10
787.644661
 20
967.6
 30
0.0
 11
787.644661
 21
965.1
 31
0.0
  0
LINE
  5
38B
100
AcDbEntity
  8
LAY-1
  6
CONTINUOUS
 62
     7
100
AcDbLine
 10
799.644661
 20
965.1
 30
0.0
 11
799.644661
 21
967.6
 31
0.0
  0
LINE
  5
38C
100
AcDbEntity
  8
LAY-1
  6
CONTINUOUS
 62
     7
100
AcDbLine
 10
800.644661
 20
966.1
 30
0.0
 11
786.644661
 21
966.1
 31
0.0
  0
ARC
  5
38D
100
AcDbEntity
  8
LAY-1
  6
CONTINUOUS
 62
     7
100
AcDbCircle
 10
867.508331
 20
963.6
 30
0.0
 40
15.0
100
AcDbArc
 50
163.953378
 51
178.090848
  0
ARC
  5
38E
100
AcDbEntity
  8
LAY-1
  6
CONTINUOUS
 62
     7
100
AcDbCircle
 10
790.491669
 20
963.6
 30
0.0
 40
15.0
100
AcDbArc
 50
1.909152
 51
15.46601
  0
CIRCLE
  5
38F
100
AcDbEntity
  8
LAY-1
  6
CONTINUOUS
 62
     7
100
AcDbCircle
 10
458.461006
 20
591.067228
 30
0.0
 40
9.5
  0
CIRCLE
  5
390
100
AcDbEntity
  8
LAY-1
  6
CONTINUOUS
 62
     7
100
AcDbCircle
 10
490.932772
 20
623.538994
 30
0.0
 40
9.5
  0
CIRCLE
  5
391
100
AcDbEntity
  8
LAY-1
  6
CONTINUOUS
 62
     7
100
AcDbCircle
 10
490.932772
 20
669.461006
 30
0.0
 40
9.5
  0
CIRCLE
  5
392
100
AcDbEntity
  8
LAY-1
  6
CONTINUOUS
 62
     7
100
AcDbCircle
 10
458.461006
 20
701.932772
 30
0.0
 40
9.5
  0
CIRCLE
  5
393
100
AcDbEntity
  8
LAY-1
  6
CONTINUOUS
 62
     7
100
AcDbCircle
 10
412.538994
 20
701.932772
 30
0.0
 40
9.5
  0
CIRCLE
  5
394
100
AcDbEntity
  8
LAY-1
  6
CONTINUOUS
 62
     7
100
AcDbCircle
 10
380.067228
 20
669.461006
 30
0.0
 40
9.5
  0
CIRCLE
  5
395
100
AcDbEntity
  8
LAY-1
  6
CONTINUOUS
 62
     7
100
AcDbCircle
 10
380.067228
 20
623.538994
 30
0.0
 40
9.5
  0
CIRCLE
  5
396
100
AcDbEntity
  8
LAY-1
  6
CONTINUOUS
 62
     7
100
AcDbCircle
 10
412.538994
 20
591.067228
 30
0.0
 40
9.5
  0
CIRCLE
  5
397
100
AcDbEntity
  8
LAY-1
  6
CONTINUOUS
 62
     7
100
AcDbCircle
 10
435.5
 20
646.5
 30
0.0
 40
25.0
  0
CIRCLE
  5
398
100
AcDbEntity
  8
LAY-1
  6
CONTINUOUS
 62
     7
100
AcDbCircle
 10
435.5
 20
646.5
 30
0.0
 40
77.5
  0
CIRCLE
  5
399
100
AcDbEntity
  8
LAY-1
  6
CONTINUOUS
 62
     7
100
AcDbCircle
 10
435.5
 20
646.5
 30
0.0
 40
48.0
  0
LINE
  5
39A
100
AcDbEntity
  8
LAY-1
  6
CONTINUOUS
 62
     7
100
AcDbLine
 10
588.0
 20
668.5
 30
0.0
 11
542.500278
 21
670.016657
 31
0.0
  0
LINE
  5
39B
100
AcDbEntity
  8
LAY-1
  6
CONTINUOUS
 62
     7
100
AcDbLine
 10
526.0
 20
701.5
 30
0.0
 11
512.0
 21
701.5
 31
0.0
  0
LINE
  5
39C
100
AcDbEntity
  8
LAY-1
  6
CONTINUOUS
 62
     7
100
AcDbLine
 10
611.0
 20
646.5
 30
0.0
 11
611.0
 21
659.5
 31
0.0
  0
LINE
  5
39D
100
AcDbEntity
  8
LAY-1
  6
CONTINUOUS
 62
     7
100
AcDbLine
 10
611.0
 20
653.5
 30
0.0
 11
608.401924
 21
655.0
 31
0.0
  0
LINE
  5
39E
100
AcDbEntity
  8
LAY-1
  6
CONTINUOUS
 62
     7
100
AcDbLine
 10
608.401924
 20
655.0
 30
0.0
 11
608.401924
 21
646.5
 31
0.0
  0
LINE
  5
39F
100
AcDbEntity
  8
LAY-1
  6
CONTINUOUS
 62
     7
100
AcDbLine
 10
601.0
 20
655.0
 30
0.0
 11
601.0
 21
646.5
 31
0.0
  0
LINE
  5
3A0
100
AcDbEntity
  8
LAY-1
  6
CONTINUOUS
 62
     7
100
AcDbLine
 10
512.0
 20
688.5
 30
0.0
 11
511.0
 21
688.5
 31
0.0
  0
ARC
  5
3A1
100
AcDbEntity
  8
LAY-1
  6
CONTINUOUS
 62
     7
100
AcDbCircle
 10
526.0
 20
699.5
 30
0.0
 40
2.0
100
AcDbArc
 50
0.0
 51
90.0
  0
LINE
  5
3A2
100
AcDbEntity
  8
LAY-1
  6
CONTINUOUS
 62
     7
100
AcDbLine
 10
590.0
 20
668.5
 30
0.0
 11
598.133975
 21
668.5
 31
0.0
  0
LINE
  5
3A3
100
AcDbEntity
  8
LAY-1
  6
CONTINUOUS
 62
     7
100
AcDbLine
 10
598.133975
 20
668.5
 30
0.0
 11
599.0
 21
667.0
 31
0.0
  0
ARC
  5
3A4
100
AcDbEntity
  8
LAY-1
  6
CONTINUOUS
 62
     7
100
AcDbCircle
 10
629.0
 20
697.5
 30
0.0
 40
9.0
100
AcDbArc
 50
0.0
 51
180.0
  0
ARC
  5
3A5
100
AcDbEntity
  8
LAY-1
  6
CONTINUOUS
 62
     7
100
AcDbCircle
 10
611.204
 20
663.419998
 30
0.0
 40
3.0
100
AcDbArc
 50
281.478486
 51
352.007266
  0
ARC
  5
3A6
100
AcDbEntity
  8
LAY-1
  6
CONTINUOUS
 62
     7
100
AcDbCircle
 10
612.0
 20
659.5
 30
0.0
 40
1.0
100
AcDbArc
 50
101.478486
 51
180.0
  0
ARC
  5
3A7
100
AcDbEntity
  8
LAY-1
  6
CONTINUOUS
 62
     7
100
AcDbCircle
 10
612.0
 20
633.5
 30
0.0
 40
1.0
100
AcDbArc
 50
180.0
 51
258.521514
  0
ARC
  5
3A8
100
AcDbEntity
  8
LAY-1
  6
CONTINUOUS
 62
     7
100
AcDbCircle
 10
611.204
 20
629.580002
 30
0.0
 40
3.0
100
AcDbArc
 50
7.992734
 51
78.521514
  0
ARC
  5
3A9
100
AcDbEntity
  8
LAY-1
  6
CONTINUOUS
 62
     7
100
AcDbCircle
 10
629.0
 20
595.5
 30
0.0
 40
9.0
100
AcDbArc
 50
180.0
 51
0.0
  0
LINE
  5
3AA
100
AcDbEntity
  8
LAY-1
  6
CONTINUOUS
 62
     7
100
AcDbLine
 10
598.133975
 20
624.5
 30
0.0
 11
599.0
 21
626.0
 31
0.0
  0
LINE
  5
3AB
100
AcDbEntity
  8
LAY-1
  6
CONTINUOUS
 62
     7
100
AcDbLine
 10
590.0
 20
624.5
 30
0.0
 11
598.133975
 21
624.5
 31
0.0
  0
ARC
  5
3AC
100
AcDbEntity
  8
LAY-1
  6
CONTINUOUS
 62
     7
100
AcDbCircle
 10
526.0
 20
593.5
 30
0.0
 40
2.0
100
AcDbArc
 50
270.0
 51
0.0
  0
LINE
  5
3AD
100
AcDbEntity
  8
LAY-1
  6
CONTINUOUS
 62
     7
100
AcDbLine
 10
512.0
 20
604.5
 30
0.0
 11
511.0
 21
604.5
 31
0.0
  0
LINE
  5
3AE
100
AcDbEntity
  8
LAY-1
  6
CONTINUOUS
 62
     7
100
AcDbLine
 10
601.0
 20
638.0
 30
0.0
 11
601.0
 21
646.5
 31
0.0
  0
LINE
  5
3AF
100
AcDbEntity
  8
LAY-1
  6
CONTINUOUS
 62
     7
100
AcDbLine
 10
608.401924
 20
638.0
 30
0.0
 11
608.401924
 21
646.5
 31
0.0
  0
LINE
  5
3B0
100
AcDbEntity
  8
LAY-1
  6
CONTINUOUS
 62
     7
100
AcDbLine
 10
611.0
 20
639.5
 30
0.0
 11
608.401924
 21
638.0
 31
0.0
  0
LINE
  5
3B1
100
AcDbEntity
  8
LAY-1
  6
CONTINUOUS
 62
     7
100
AcDbLine
 10
611.0
 20
646.5
 30
0.0
 11
611.0
 21
633.5
 31
0.0
  0
LINE
  5
3B2
100
AcDbEntity
  8
LAY-1
  6
CONTINUOUS
 62
     7
100
AcDbLine
 10
526.0
 20
591.5
 30
0.0
 11
512.0
 21
591.5
 31
0.0
  0
LINE
  5
3B3
100
AcDbEntity
  8
LAY-1
  6
CONTINUOUS
 62
     7
100
AcDbLine
 10
588.0
 20
624.5
 30
0.0
 11
542.500278
 21
622.983343
 31
0.0
  0
LINE
  5
3B4
100
AcDbEntity
  8
LAY-1
  6
CONTINUOUS
 62
     7
100
AcDbLine
 10
511.0
 20
701.5
 30
0.0
 11
496.0
 21
701.5
 31
0.0
  0
ARC
  5
3B5
100
AcDbEntity
  8
LAY-1
  6
CONTINUOUS
 62
     7
100
AcDbCircle
 10
496.0
 20
700.0
 30
0.0
 40
1.5
100
AcDbArc
 50
90.0
 51
180.0
  0
ARC
  5
3B6
100
AcDbEntity
  8
LAY-1
  6
CONTINUOUS
 62
     7
100
AcDbCircle
 10
496.0
 20
593.0
 30
0.0
 40
1.5
100
AcDbArc
 50
180.0
 51
270.0
  0
LINE
  5
3B7
100
AcDbEntity
  8
LAY-1
  6
CONTINUOUS
 62
     7
100
AcDbLine
 10
511.0
 20
591.5
 30
0.0
 11
496.0
 21
591.5
 31
0.0
  0
LINE
  5
3B8
100
AcDbEntity
  8
LAY-1
  6
CONTINUOUS
 62
     7
100
AcDbLine
 10
638.0
 20
646.5
 30
0.0
 11
638.0
 21
697.5
 31
0.0
  0
LINE
  5
3B9
100
AcDbEntity
  8
LAY-1
  6
CONTINUOUS
 62
     7
100
AcDbLine
 10
638.0
 20
646.5
 30
0.0
 11
638.0
 21
595.5
 31
0.0
  0
LINE
  5
3BA
100
AcDbEntity
  8
LAY-1
  6
CONTINUOUS
 62
     7
100
AcDbLine
 10
620.0
 20
697.5
 30
0.0
 11
620.0
 21
646.5
 31
0.0
  0
LINE
  5
3BB
100
AcDbEntity
  8
LAY-1
  6
CONTINUOUS
 62
     7
100
AcDbLine
 10
620.0
 20
595.5
 30
0.0
 11
620.0
 21
646.5
 31
0.0
  0
ARC
  5
3BC
100
AcDbEntity
  8
LAY-1
  6
CONTINUOUS
 62
     7
100
AcDbCircle
 10
632.0
 20
632.5
 30
0.0
 40
18.0
100
AcDbArc
 50
187.992734
 51
228.189685
  0
ARC
  5
3BD
100
AcDbEntity
  8
LAY-1
  6
CONTINUOUS
 62
     7
100
AcDbCircle
 10
632.0
 20
660.5
 30
0.0
 40
18.0
100
AcDbArc
 50
131.810315
 51
172.007266
  0
ARC
  5
3BE
100
AcDbEntity
  8
LAY-1
  6
CONTINUOUS
 62
     7
100
AcDbCircle
 10
635.9
 20
646.5
 30
0.0
 40
7.0
100
AcDbArc
 50
0.0
 51
72.542397
  0
ARC
  5
3BF
100
AcDbEntity
  8
LAY-1
  6
CONTINUOUS
 62
     7
100
AcDbCircle
 10
635.9
 20
646.5
 30
0.0
 40
7.0
100
AcDbArc
 50
287.457603
 51
0.0
  0
LINE
  5
3C0
100
AcDbEntity
  8
LAY-1
  6
CONTINUOUS
 62
     7
100
AcDbLine
 10
608.401924
 20
655.0
 30
0.0
 11
599.0
 21
655.0
 31
0.0
  0
LINE
  5
3C1
100
AcDbEntity
  8
LAY-1
  6
CONTINUOUS
 62
     7
100
AcDbLine
 10
608.401924
 20
638.0
 30
0.0
 11
599.0
 21
638.0
 31
0.0
  0
LINE
  5
3C2
100
AcDbEntity
  8
LAY-1
  6
CONTINUOUS
 62
     7
100
AcDbLine
 10
599.0
 20
626.0
 30
0.0
 11
599.0
 21
646.5
 31
0.0
  0
LINE
  5
3C3
100
AcDbEntity
  8
LAY-1
  6
CONTINUOUS
 62
     7
100
AcDbLine
 10
599.0
 20
667.0
 30
0.0
 11
599.0
 21
646.5
 31
0.0
  0
LINE
  5
3C4
100
AcDbEntity
  8
LAY-1
  6
CONTINUOUS
 62
     7
100
AcDbLine
 10
588.0
 20
646.5
 30
0.0
 11
588.0
 21
668.5
 31
0.0
  0
LINE
  5
3C5
100
AcDbEntity
  8
LAY-1
  6
CONTINUOUS
 62
     7
100
AcDbLine
 10
588.0
 20
646.5
 30
0.0
 11
588.0
 21
624.5
 31
0.0
  0
LINE
  5
3C6
100
AcDbEntity
  8
LAY-1
  6
CONTINUOUS
 62
     7
100
AcDbLine
 10
588.0
 20
665.5
 30
0.0
 11
590.0
 21
665.5
 31
0.0
  0
LINE
  5
3C7
100
AcDbEntity
  8
LAY-1
  6
CONTINUOUS
 62
     7
100
AcDbLine
 10
588.0
 20
627.5
 30
0.0
 11
590.0
 21
627.5
 31
0.0
  0
LINE
  5
3C8
100
AcDbEntity
  8
LAY-1
  6
CONTINUOUS
 62
     7
100
AcDbLine
 10
528.0
 20
646.5
 30
0.0
 11
528.0
 21
699.5
 31
0.0
  0
LINE
  5
3C9
100
AcDbEntity
  8
LAY-1
  6
CONTINUOUS
 62
     7
100
AcDbLine
 10
528.0
 20
646.5
 30
0.0
 11
528.0
 21
593.5
 31
0.0
  0
LINE
  5
3CA
100
AcDbEntity
  8
LAY-1
  6
CONTINUOUS
 62
     7
100
AcDbLine
 10
590.0
 20
646.5
 30
0.0
 11
590.0
 21
668.5
 31
0.0
  0
LINE
  5
3CB
100
AcDbEntity
  8
LAY-1
  6
CONTINUOUS
 62
     7
100
AcDbLine
 10
590.0
 20
646.5
 30
0.0
 11
590.0
 21
624.5
 31
0.0
  0
LINE
  5
3CC
100
AcDbEntity
  8
LAY-1
  6
CONTINUOUS
 62
     7
100
AcDbLine
 10
598.133975
 20
658.335681
 30
0.0
 11
590.0
 21
658.335681
 31
0.0
  0
LINE
  5
3CD
100
AcDbEntity
  8
LAY-1
  6
CONTINUOUS
 62
     7
100
AcDbLine
 10
598.133975
 20
634.664319
 30
0.0
 11
590.0
 21
634.664319
 31
0.0
  0
ARC
  5
3CE
100
AcDbEntity
  8
LAY-1
  6
CONTINUOUS
 62
     7
100
AcDbCircle
 10
583.654984
 20
663.41784
 30
0.0
 40
15.345016
100
AcDbArc
 50
340.658807
 51
19.341193
  0
ARC
  5
3CF
100
AcDbEntity
  8
LAY-1
  6
CONTINUOUS
 62
     7
100
AcDbCircle
 10
517.689837
 20
646.5
 30
0.0
 40
81.310163
100
AcDbArc
 50
351.630168
 51
8.369832
  0
ARC
  5
3D0
100
AcDbEntity
  8
LAY-1
  6
CONTINUOUS
 62
     7
100
AcDbCircle
 10
583.654984
 20
629.58216
 30
0.0
 40
15.345016
100
AcDbArc
 50
340.658807
 51
19.341193
  0
LINE
  5
3D1
100
AcDbEntity
  8
LAY-1
  6
CONTINUOUS
 62
     7
100
AcDbLine
 10
528.106872
 20
668.576283
 30
0.0
 11
537.972861
 21
668.576283
 31
0.0
  0
LINE
  5
3D2
100
AcDbEntity
  8
LAY-1
  6
CONTINUOUS
 62
     7
100
AcDbLine
 10
539.0
 20
670.355339
 30
0.0
 11
539.0
 21
693.355339
 31
0.0
  0
LINE
  5
3D3
100
AcDbEntity
  8
LAY-1
  6
CONTINUOUS
 62
     7
100
AcDbLine
 10
539.0
 20
693.355339
 30
0.0
 11
537.972861
 21
695.134395
 31
0.0
  0
LINE
  5
3D4
100
AcDbEntity
  8
LAY-1
  6
CONTINUOUS
 62
     7
100
AcDbLine
 10
537.972861
 20
695.134395
 30
0.0
 11
528.0
 21
695.134395
 31
0.0
  0
ARC
  5
3D5
100
AcDbEntity
  8
LAY-1
  6
CONTINUOUS
 62
     7
100
AcDbCircle
 10
533.121608
 20
691.814631
 30
0.0
 40
5.878392
100
AcDbArc
 50
325.615753
 51
34.384247
  0
ARC
  5
3D6
100
AcDbEntity
  8
LAY-1
  6
CONTINUOUS
 62
     7
100
AcDbCircle
 10
517.027139
 20
681.855339
 30
0.0
 40
21.972861
100
AcDbArc
 50
342.412046
 51
17.587954
  0
ARC
  5
3D7
100
AcDbEntity
  8
LAY-1
  6
CONTINUOUS
 62
     7
100
AcDbCircle
 10
533.121608
 20
671.896047
 30
0.0
 40
5.878392
100
AcDbArc
 50
325.615753
 51
34.384247
  0
LINE
  5
3D8
100
AcDbEntity
  8
LAY-1
  6
CONTINUOUS
 62
     7
100
AcDbLine
 10
537.972861
 20
675.215811
 30
0.0
 11
528.0
 21
675.215811
 31
0.0
  0
LINE
  5
3D9
100
AcDbEntity
  8
LAY-1
  6
CONTINUOUS
 62
     7
100
AcDbLine
 10
528.0
 20
688.494867
 30
0.0
 11
537.972861
 21
688.494867
 31
0.0
  0
LINE
  5
3DA
100
AcDbEntity
  8
LAY-1
  6
CONTINUOUS
 62
     7
100
AcDbLine
 10
539.0
 20
674.855339
 30
0.0
 11
540.5
 21
674.855339
 31
0.0
  0
LINE
  5
3DB
100
AcDbEntity
  8
LAY-1
  6
CONTINUOUS
 62
     7
100
AcDbLine
 10
540.5
 20
674.855339
 30
0.0
 11
541.5
 21
675.855339
 31
0.0
  0
LINE
  5
3DC
100
AcDbEntity
  8
LAY-1
  6
CONTINUOUS
 62
     7
100
AcDbLine
 10
541.5
 20
675.855339
 30
0.0
 11
541.5
 21
687.855339
 31
0.0
  0
LINE
  5
3DD
100
AcDbEntity
  8
LAY-1
  6
CONTINUOUS
 62
     7
100
AcDbLine
 10
541.5
 20
687.855339
 30
0.0
 11
540.5
 21
688.855339
 31
0.0
  0
LINE
  5
3DE
100
AcDbEntity
  8
LAY-1
  6
CONTINUOUS
 62
     7
100
AcDbLine
 10
540.5
 20
688.855339
 30
0.0
 11
539.0
 21
688.855339
 31
0.0
  0
LINE
  5
3DF
100
AcDbEntity
  8
LAY-1
  6
CONTINUOUS
 62
     7
100
AcDbLine
 10
539.0
 20
687.855339
 30
0.0
 11
541.5
 21
687.855339
 31
0.0
  0
LINE
  5
3E0
100
AcDbEntity
  8
LAY-1
  6
CONTINUOUS
 62
     7
100
AcDbLine
 10
541.5
 20
675.855339
 30
0.0
 11
539.0
 21
675.855339
 31
0.0
  0
LINE
  5
3E1
100
AcDbEntity
  8
LAY-1
  6
CONTINUOUS
 62
     7
100
AcDbLine
 10
540.5
 20
674.855339
 30
0.0
 11
540.5
 21
688.855339
 31
0.0
  0
LINE
  5
3E2
100
AcDbEntity
  8
LAY-1
  6
CONTINUOUS
 62
     7
100
AcDbLine
 10
528.106872
 20
624.423717
 30
0.0
 11
537.972861
 21
624.423717
 31
0.0
  0
LINE
  5
3E3
100
AcDbEntity
  8
LAY-1
  6
CONTINUOUS
 62
     7
100
AcDbLine
 10
539.0
 20
622.644661
 30
0.0
 11
539.0
 21
599.644661
 31
0.0
  0
LINE
  5
3E4
100
AcDbEntity
  8
LAY-1
  6
CONTINUOUS
 62
     7
100
AcDbLine
 10
539.0
 20
599.644661
 30
0.0
 11
537.972861
 21
597.865605
 31
0.0
  0
LINE
  5
3E5
100
AcDbEntity
  8
LAY-1
  6
CONTINUOUS
 62
     7
100
AcDbLine
 10
537.972861
 20
597.865605
 30
0.0
 11
528.0
 21
597.865605
 31
0.0
  0
ARC
  5
3E6
100
AcDbEntity
  8
LAY-1
  6
CONTINUOUS
 62
     7
100
AcDbCircle
 10
533.121608
 20
601.185369
 30
0.0
 40
5.878392
100
AcDbArc
 50
325.615753
 51
34.384247
  0
ARC
  5
3E7
100
AcDbEntity
  8
LAY-1
  6
CONTINUOUS
 62
     7
100
AcDbCircle
 10
517.027139
 20
611.144661
 30
0.0
 40
21.972861
100
AcDbArc
 50
342.412046
 51
17.587954
  0
ARC
  5
3E8
100
AcDbEntity
  8
LAY-1
  6
CONTINUOUS
 62
     7
100
AcDbCircle
 10
533.121608
 20
621.103953
 30
0.0
 40
5.878392
100
AcDbArc
 50
325.615753
 51
34.384247
  0
LINE
  5
3E9
100
AcDbEntity
  8
LAY-1
  6
CONTINUOUS
 62
     7
100
AcDbLine
 10
537.972861
 20
617.784189
 30
0.0
 11
528.0
 21
617.784189
 31
0.0
  0
LINE
  5
3EA
100
AcDbEntity
  8
LAY-1
  6
CONTINUOUS
 62
     7
100
AcDbLine
 10
528.0
 20
604.505133
 30
0.0
 11
537.972861
 21
604.505133
 31
0.0
  0
LINE
  5
3EB
100
AcDbEntity
  8
LAY-1
  6
CONTINUOUS
 62
     7
100
AcDbLine
 10
539.0
 20
618.144661
 30
0.0
 11
540.5
 21
618.144661
 31
0.0
  0
LINE
  5
3EC
100
AcDbEntity
  8
LAY-1
  6
CONTINUOUS
 62
     7
100
AcDbLine
 10
540.5
 20
618.144661
 30
0.0
 11
541.5
 21
617.144661
 31
0.0
  0
LINE
  5
3ED
100
AcDbEntity
  8
LAY-1
  6
CONTINUOUS
 62
     7
100
AcDbLine
 10
541.5
 20
617.144661
 30
0.0
 11
541.5
 21
605.144661
 31
0.0
  0
LINE
  5
3EE
100
AcDbEntity
  8
LAY-1
  6
CONTINUOUS
 62
     7
100
AcDbLine
 10
541.5
 20
605.144661
 30
0.0
 11
540.5
 21
604.144661
 31
0.0
  0
LINE
  5
3EF
100
AcDbEntity
  8
LAY-1
  6
CONTINUOUS
 62
     7
100
AcDbLine
 10
540.5
 20
604.144661
 30
0.0
 11
539.0
 21
604.144661
 31
0.0
  0
LINE
  5
3F0
100
AcDbEntity
  8
LAY-1
  6
CONTINUOUS
 62
     7
100
AcDbLine
 10
539.0
 20
605.144661
 30
0.0
 11
541.5
 21
605.144661
 31
0.0
  0
LINE
  5
3F1
100
AcDbEntity
  8
LAY-1
  6
CONTINUOUS
 62
     7
100
AcDbLine
 10
541.5
 20
617.144661
 30
0.0
 11
539.0
 21
617.144661
 31
0.0
  0
LINE
  5
3F2
100
AcDbEntity
  8
LAY-1
  6
CONTINUOUS
 62
     7
100
AcDbLine
 10
540.5
 20
618.144661
 30
0.0
 11
540.5
 21
604.144661
 31
0.0
  0
ARC
  5
3F3
100
AcDbEntity
  8
LAY-1
  6
CONTINUOUS
 62
     7
100
AcDbCircle
 10
543.0
 20
685.008331
 30
0.0
 40
15.0
100
AcDbArc
 50
253.953378
 51
268.090848
  0
ARC
  5
3F4
100
AcDbEntity
  8
LAY-1
  6
CONTINUOUS
 62
     7
100
AcDbCircle
 10
543.0
 20
607.991669
 30
0.0
 40
15.0
100
AcDbArc
 50
91.909152
 51
105.46601
  0
LINE
  5
3F5
100
AcDbEntity
  8
LAY-1
  6
CONTINUOUS
 62
     7
100
AcDbLine
 10
511.0
 20
663.992856
 30
0.0
 11
511.0
 21
701.5
 31
0.0
  0
LINE
  5
3F6
100
AcDbEntity
  8
LAY-1
  6
CONTINUOUS
 62
     7
100
AcDbLine
 10
512.0
 20
701.5
 30
0.0
 11
512.0
 21
658.909674
 31
0.0
  0
LINE
  5
3F7
100
AcDbEntity
  8
LAY-1
  6
CONTINUOUS
 62
     7
100
AcDbLine
 10
511.0
 20
629.007144
 30
0.0
 11
511.0
 21
591.5
 31
0.0
  0
LINE
  5
3F8
100
AcDbEntity
  8
LAY-1
  6
CONTINUOUS
 62
     7
100
AcDbLine
 10
512.0
 20
591.5
 30
0.0
 11
512.0
 21
634.090326
 31
0.0
  0
LINE
  5
3F9
100
AcDbEntity
  8
LAY-1
  6
CONTINUOUS
 62
     7
100
AcDbLine
 10
494.5
 20
700.0
 30
0.0
 11
494.5
 21
696.751866
 31
0.0
  0
LINE
  5
3FA
100
AcDbEntity
  8
LAY-1
  6
CONTINUOUS
 62
     7
100
AcDbLine
 10
494.5
 20
593.0
 30
0.0
 11
494.5
 21
596.248134
 31
0.0
  0
CIRCLE
  5
3FB
100
AcDbEntity
  8
LAY-1
  6
CONTINUOUS
 62
     7
100
AcDbCircle
 10
1199.538994
 20
591.067228
 30
0.0
 40
9.5
  0
CIRCLE
  5
3FC
100
AcDbEntity
  8
LAY-1
  6
CONTINUOUS
 62
     7
100
AcDbCircle
 10
1167.067228
 20
623.538994
 30
0.0
 40
9.5
  0
CIRCLE
  5
3FD
100
AcDbEntity
  8
LAY-1
  6
CONTINUOUS
 62
     7
100
AcDbCircle
 10
1167.067228
 20
669.461006
 30
0.0
 40
9.5
  0
CIRCLE
  5
3FE
100
AcDbEntity
  8
LAY-1
  6
CONTINUOUS
 62
     7
100
AcDbCircle
 10
1199.538994
 20
701.932772
 30
0.0
 40
9.5
  0
CIRCLE
  5
3FF
100
AcDbEntity
  8
LAY-1
  6
CONTINUOUS
 62
     7
100
AcDbCircle
 10
1245.461006
 20
701.932772
 30
0.0
 40
9.5
  0
CIRCLE
  5
400
100
AcDbEntity
  8
LAY-1
  6
CONTINUOUS
 62
     7
100
AcDbCircle
 10
1277.932772
 20
669.461006
 30
0.0
 40
9.5
  0
CIRCLE
  5
401
100
AcDbEntity
  8
LAY-1
  6
CONTINUOUS
 62
     7
100
AcDbCircle
 10
1277.932772
 20
623.538994
 30
0.0
 40
9.5
  0
CIRCLE
  5
402
100
AcDbEntity
  8
LAY-1
  6
CONTINUOUS
 62
     7
100
AcDbCircle
 10
1245.461006
 20
591.067228
 30
0.0
 40
9.5
  0
CIRCLE
  5
403
100
AcDbEntity
  8
LAY-1
  6
CONTINUOUS
 62
     7
100
AcDbCircle
 10
1222.5
 20
646.5
 30
0.0
 40
25.0
  0
CIRCLE
  5
404
100
AcDbEntity
  8
LAY-1
  6
CONTINUOUS
 62
     7
100
AcDbCircle
 10
1222.5
 20
646.5
 30
0.0
 40
77.5
  0
CIRCLE
  5
405
100
AcDbEntity
  8
LAY-1
  6
CONTINUOUS
 62
     7
100
AcDbCircle
 10
1222.5
 20
646.5
 30
0.0
 40
48.0
  0
LINE
  5
406
100
AcDbEntity
  8
LAY-1
  6
CONTINUOUS
 62
     7
100
AcDbLine
 10
1070.0
 20
668.5
 30
0.0
 11
1115.499722
 21
670.016657
 31
0.0
  0
LINE
  5
407
100
AcDbEntity
  8
LAY-1
  6
CONTINUOUS
 62
     7
100
AcDbLine
 10
1132.0
 20
701.5
 30
0.0
 11
1146.0
 21
701.5
 31
0.0
  0
LINE
  5
408
100
AcDbEntity
  8
LAY-1
  6
CONTINUOUS
 62
     7
100
AcDbLine
 10
1047.0
 20
646.5
 30
0.0
 11
1047.0
 21
659.5
 31
0.0
  0
LINE
  5
409
100
AcDbEntity
  8
LAY-1
  6
CONTINUOUS
 62
     7
100
AcDbLine
 10
1047.0
 20
653.5
 30
0.0
 11
1049.598076
 21
655.0
 31
0.0
  0
LINE
  5
40A
100
AcDbEntity
  8
LAY-1
  6
CONTINUOUS
 62
     7
100
AcDbLine
 10
1049.598076
 20
655.0
 30
0.0
 11
1049.598076
 21
646.5
 31
0.0
  0
LINE
  5
40B
100
AcDbEntity
  8
LAY-1
  6
CONTINUOUS
 62
     7
100
AcDbLine
 10
1057.0
 20
655.0
 30
0.0
 11
1057.0
 21
646.5
 31
0.0
  0
LINE
  5
40C
100
AcDbEntity
  8
LAY-1
  6
CONTINUOUS
 62
     7
100
AcDbLine
 10
1146.0
 20
688.5
 30
0.0
 11
1147.0
 21
688.5
 31
0.0
  0
ARC
  5
40D
100
AcDbEntity
  8
LAY-1
  6
CONTINUOUS
 62
     7
100
AcDbCircle
 10
1132.0
 20
699.5
 30
0.0
 40
2.0
100
AcDbArc
 50
90.0
 51
180.0
  0
LINE
  5
40E
100
AcDbEntity
  8
LAY-1
  6
CONTINUOUS
 62
     7
100
AcDbLine
 10
1068.0
 20
668.5
 30
0.0
 11
1059.866025
 21
668.5
 31
0.0
  0
LINE
  5
40F
100
AcDbEntity
  8
LAY-1
  6
CONTINUOUS
 62
     7
100
AcDbLine
 10
1059.866025
 20
668.5
 30
0.0
 11
1059.0
 21
667.0
 31
0.0
  0
ARC
  5
410
100
AcDbEntity
  8
LAY-1
  6
CONTINUOUS
 62
     7
100
AcDbCircle
 10
1029.0
 20
697.5
 30
0.0
 40
9.0
100
AcDbArc
 50
0.0
 51
180.0
  0
ARC
  5
411
100
AcDbEntity
  8
LAY-1
  6
CONTINUOUS
 62
     7
100
AcDbCircle
 10
1046.796
 20
663.419998
 30
0.0
 40
3.0
100
AcDbArc
 50
187.992734
 51
258.521514
  0
ARC
  5
412
100
AcDbEntity
  8
LAY-1
  6
CONTINUOUS
 62
     7
100
AcDbCircle
 10
1046.0
 20
659.5
 30
0.0
 40
1.0
100
AcDbArc
 50
0.0
 51
78.521514
  0
ARC
  5
413
100
AcDbEntity
  8
LAY-1
  6
CONTINUOUS
 62
     7
100
AcDbCircle
 10
1046.0
 20
633.5
 30
0.0
 40
1.0
100
AcDbArc
 50
281.478486
 51
0.0
  0
ARC
  5
414
100
AcDbEntity
  8
LAY-1
  6
CONTINUOUS
 62
     7
100
AcDbCircle
 10
1046.796
 20
629.580002
 30
0.0
 40
3.0
100
AcDbArc
 50
101.478486
 51
172.007266
  0
ARC
  5
415
100
AcDbEntity
  8
LAY-1
  6
CONTINUOUS
 62
     7
100
AcDbCircle
 10
1029.0
 20
595.5
 30
0.0
 40
9.0
100
AcDbArc
 50
180.0
 51
0.0
  0
LINE
  5
416
100
AcDbEntity
  8
LAY-1
  6
CONTINUOUS
 62
     7
100
AcDbLine
 10
1059.866025
 20
624.5
 30
0.0
 11
1059.0
 21
626.0
 31
0.0
  0
LINE
  5
417
100
AcDbEntity
  8
LAY-1
  6
CONTINUOUS
 62
     7
100
AcDbLine
 10
1068.0
 20
624.5
 30
0.0
 11
1059.866025
 21
624.5
 31
0.0
  0
ARC
  5
418
100
AcDbEntity
  8
LAY-1
  6
CONTINUOUS
 62
     7
100
AcDbCircle
 10
1132.0
 20
593.5
 30
0.0
 40
2.0
100
AcDbArc
 50
180.0
 51
270.0
  0
LINE
  5
419
100
AcDbEntity
  8
LAY-1
  6
CONTINUOUS
 62
     7
100
AcDbLine
 10
1146.0
 20
604.5
 30
0.0
 11
1147.0
 21
604.5
 31
0.0
  0
LINE
  5
41A
100
AcDbEntity
  8
LAY-1
  6
CONTINUOUS
 62
     7
100
AcDbLine
 10
1057.0
 20
638.0
 30
0.0
 11
1057.0
 21
646.5
 31
0.0
  0
LINE
  5
41B
100
AcDbEntity
  8
LAY-1
  6
CONTINUOUS
 62
     7
100
AcDbLine
 10
1049.598076
 20
638.0
 30
0.0
 11
1049.598076
 21
646.5
 31
0.0
  0
LINE
  5
41C
100
AcDbEntity
  8
LAY-1
  6
CONTINUOUS
 62
     7
100
AcDbLine
 10
1047.0
 20
639.5
 30
0.0
 11
1049.598076
 21
638.0
 31
0.0
  0
LINE
  5
41D
100
AcDbEntity
  8
LAY-1
  6
CONTINUOUS
 62
     7
100
AcDbLine
 10
1047.0
 20
646.5
 30
0.0
 11
1047.0
 21
633.5
 31
0.0
  0
LINE
  5
41E
100
AcDbEntity
  8
LAY-1
  6
CONTINUOUS
 62
     7
100
AcDbLine
 10
1132.0
 20
591.5
 30
0.0
 11
1146.0
 21
591.5
 31
0.0
  0
LINE
  5
41F
100
AcDbEntity
  8
LAY-1
  6
CONTINUOUS
 62
     7
100
AcDbLine
 10
1070.0
 20
624.5
 30
0.0
 11
1115.499722
 21
622.983343
 31
0.0
  0
LINE
  5
420
100
AcDbEntity
  8
LAY-1
  6
CONTINUOUS
 62
     7
100
AcDbLine
 10
1147.0
 20
701.5
 30
0.0
 11
1162.0
 21
701.5
 31
0.0
  0
ARC
  5
421
100
AcDbEntity
  8
LAY-1
  6
CONTINUOUS
 62
     7
100
AcDbCircle
 10
1162.0
 20
700.0
 30
0.0
 40
1.5
100
AcDbArc
 50
0.0
 51
90.0
  0
ARC
  5
422
100
AcDbEntity
  8
LAY-1
  6
CONTINUOUS
 62
     7
100
AcDbCircle
 10
1162.0
 20
593.0
 30
0.0
 40
1.5
100
AcDbArc
 50
270.0
 51
0.0
  0
LINE
  5
423
100
AcDbEntity
  8
LAY-1
  6
CONTINUOUS
 62
     7
100
AcDbLine
 10
1147.0
 20
591.5
 30
0.0
 11
1162.0
 21
591.5
 31
0.0
  0
LINE
  5
424
100
AcDbEntity
  8
LAY-1
  6
CONTINUOUS
 62
     7
100
AcDbLine
 10
1020.0
 20
646.5
 30
0.0
 11
1020.0
 21
697.5
 31
0.0
  0
LINE
  5
425
100
AcDbEntity
  8
LAY-1
  6
CONTINUOUS
 62
     7
100
AcDbLine
 10
1020.0
 20
646.5
 30
0.0
 11
1020.0
 21
595.5
 31
0.0
  0
LINE
  5
426
100
AcDbEntity
  8
LAY-1
  6
CONTINUOUS
 62
     7
100
AcDbLine
 10
1038.0
 20
697.5
 30
0.0
 11
1038.0
 21
646.5
 31
0.0
  0
LINE
  5
427
100
AcDbEntity
  8
LAY-1
  6
CONTINUOUS
 62
     7
100
AcDbLine
 10
1038.0
 20
595.5
 30
0.0
 11
1038.0
 21
646.5
 31
0.0
  0
ARC
  5
428
100
AcDbEntity
  8
LAY-1
  6
CONTINUOUS
 62
     7
100
AcDbCircle
 10
1026.0
 20
632.5
 30
0.0
 40
18.0
100
AcDbArc
 50
311.810315
 51
352.007266
  0
ARC
  5
429
100
AcDbEntity
  8
LAY-1
  6
CONTINUOUS
 62
     7
100
AcDbCircle
 10
1026.0
 20
660.5
 30
0.0
 40
18.0
100
AcDbArc
 50
7.992734
 51
48.189685
  0
ARC
  5
42A
100
AcDbEntity
  8
LAY-1
  6
CONTINUOUS
 62
     7
100
AcDbCircle
 10
1022.1
 20
646.5
 30
0.0
 40
7.0
100
AcDbArc
 50
107.457603
 51
180.0
  0
ARC
  5
42B
100
AcDbEntity
  8
LAY-1
  6
CONTINUOUS
 62
     7
100
AcDbCircle
 10
1022.1
 20
646.5
 30
0.0
 40
7.0
100
AcDbArc
 50
180.0
 51
252.542397
  0
LINE
  5
42C
100
AcDbEntity
  8
LAY-1
  6
CONTINUOUS
 62
     7
100
AcDbLine
 10
1049.598076
 20
655.0
 30
0.0
 11
1059.0
 21
655.0
 31
0.0
  0
LINE
  5
42D
100
AcDbEntity
  8
LAY-1
  6
CONTINUOUS
 62
     7
100
AcDbLine
 10
1049.598076
 20
638.0
 30
0.0
 11
1059.0
 21
638.0
 31
0.0
  0
LINE
  5
42E
100
AcDbEntity
  8
LAY-1
  6
CONTINUOUS
 62
     7
100
AcDbLine
 10
1059.0
 20
626.0
 30
0.0
 11
1059.0
 21
646.5
 31
0.0
  0
LINE
  5
42F
100
AcDbEntity
  8
LAY-1
  6
CONTINUOUS
 62
     7
100
AcDbLine
 10
1059.0
 20
667.0
 30
0.0
 11
1059.0
 21
646.5
 31
0.0
  0
LINE
  5
430
100
AcDbEntity
  8
LAY-1
  6
CONTINUOUS
 62
     7
100
AcDbLine
 10
1070.0
 20
646.5
 30
0.0
 11
1070.0
 21
668.5
 31
0.0
  0
LINE
  5
431
100
AcDbEntity
  8
LAY-1
  6
CONTINUOUS
 62
     7
100
AcDbLine
 10
1070.0
 20
646.5
 30
0.0
 11
1070.0
 21
624.5
 31
0.0
  0
LINE
  5
432
100
AcDbEntity
  8
LAY-1
  6
CONTINUOUS
 62
     7
100
AcDbLine
 10
1070.0
 20
665.5
 30
0.0
 11
1068.0
 21
665.5
 31
0.0
  0
LINE
  5
433
100
AcDbEntity
  8
LAY-1
  6
CONTINUOUS
 62
     7
100
AcDbLine
 10
1070.0
 20
627.5
 30
0.0
 11
1068.0
 21
627.5
 31
0.0
  0
LINE
  5
434
100
AcDbEntity
  8
LAY-1
  6
CONTINUOUS
 62
     7
100
AcDbLine
 10
1130.0
 20
646.5
 30
0.0
 11
1130.0
 21
699.5
 31
0.0
  0
LINE
  5
435
100
AcDbEntity
  8
LAY-1
  6
CONTINUOUS
 62
     7
100
AcDbLine
 10
1130.0
 20
646.5
 30
0.0
 11
1130.0
 21
593.5
 31
0.0
  0
LINE
  5
436
100
AcDbEntity
  8
LAY-1
  6
CONTINUOUS
 62
     7
100
AcDbLine
 10
1068.0
 20
646.5
 30
0.0
 11
1068.0
 21
668.5
 31
0.0
  0
LINE
  5
437
100
AcDbEntity
  8
LAY-1
  6
CONTINUOUS
 62
     7
100
AcDbLine
 10
1068.0
 20
646.5
 30
0.0
 11
1068.0
 21
624.5
 31
0.0
  0
LINE
  5
438
100
AcDbEntity
  8
LAY-1
  6
CONTINUOUS
 62
     7
100
AcDbLine
 10
1059.866025
 20
658.335681
 30
0.0
 11
1068.0
 21
658.335681
 31
0.0
  0
LINE
  5
439
100
AcDbEntity
  8
LAY-1
  6
CONTINUOUS
 62
     7
100
AcDbLine
 10
1059.866025
 20
634.664319
 30
0.0
 11
1068.0
 21
634.664319
 31
0.0
  0
ARC
  5
43A
100
AcDbEntity
  8
LAY-1
  6
CONTINUOUS
 62
     7
100
AcDbCircle
 10
1074.345016
 20
663.41784
 30
0.0
 40
15.345016
100
AcDbArc
 50
160.658807
 51
199.341193
  0
ARC
  5
43B
100
AcDbEntity
  8
LAY-1
  6
CONTINUOUS
 62
     7
100
AcDbCircle
 10
1140.310163
 20
646.5
 30
0.0
 40
81.310163
100
AcDbArc
 50
171.630168
 51
188.369832
  0
ARC
  5
43C
100
AcDbEntity
  8
LAY-1
  6
CONTINUOUS
 62
     7
100
AcDbCircle
 10
1074.345016
 20
629.58216
 30
0.0
 40
15.345016
100
AcDbArc
 50
160.658807
 51
199.341193
  0
LINE
  5
43D
100
AcDbEntity
  8
LAY-1
  6
CONTINUOUS
 62
     7
100
AcDbLine
 10
1129.893128
 20
668.576283
 30
0.0
 11
1120.027139
 21
668.576283
 31
0.0
  0
LINE
  5
43E
100
AcDbEntity
  8
LAY-1
  6
CONTINUOUS
 62
     7
100
AcDbLine
 10
1119.0
 20
670.355339
 30
0.0
 11
1119.0
 21
693.355339
 31
0.0
  0
LINE
  5
43F
100
AcDbEntity
  8
LAY-1
  6
CONTINUOUS
 62
     7
100
AcDbLine
 10
1119.0
 20
693.355339
 30
0.0
 11
1120.027139
 21
695.134395
 31
0.0
  0
LINE
  5
440
100
AcDbEntity
  8
LAY-1
  6
CONTINUOUS
 62
     7
100
AcDbLine
 10
1120.027139
 20
695.134395
 30
0.0
 11
1130.0
 21
695.134395
 31
0.0
  0
ARC
  5
441
100
AcDbEntity
  8
LAY-1
  6
CONTINUOUS
 62
     7
100
AcDbCircle
 10
1124.878392
 20
691.814631
 30
0.0
 40
5.878392
100
AcDbArc
 50
145.615753
 51
214.384247
  0
ARC
  5
442
100
AcDbEntity
  8
LAY-1
  6
CONTINUOUS
 62
     7
100
AcDbCircle
 10
1140.972861
 20
681.855339
 30
0.0
 40
21.972861
100
AcDbArc
 50
162.412046
 51
197.587954
  0
ARC
  5
443
100
AcDbEntity
  8
LAY-1
  6
CONTINUOUS
 62
     7
100
AcDbCircle
 10
1124.878392
 20
671.896047
 30
0.0
 40
5.878392
100
AcDbArc
 50
145.615753
 51
214.384247
  0
LINE
  5
444
100
AcDbEntity
  8
LAY-1
  6
CONTINUOUS
 62
     7
100
AcDbLine
 10
1120.027139
 20
675.215811
 30
0.0
 11
1130.0
 21
675.215811
 31
0.0
  0
LINE
  5
445
100
AcDbEntity
  8
LAY-1
  6
CONTINUOUS
 62
     7
100
AcDbLine
 10
1130.0
 20
688.494867
 30
0.0
 11
1120.027139
 21
688.494867
 31
0.0
  0
LINE
  5
446
100
AcDbEntity
  8
LAY-1
  6
CONTINUOUS
 62
     7
100
AcDbLine
 10
1119.0
 20
674.855339
 30
0.0
 11
1117.5
 21
674.855339
 31
0.0
  0
LINE
  5
447
100
AcDbEntity
  8
LAY-1
  6
CONTINUOUS
 62
     7
100
AcDbLine
 10
1117.5
 20
674.855339
 30
0.0
 11
1116.5
 21
675.855339
 31
0.0
  0
LINE
  5
448
100
AcDbEntity
  8
LAY-1
  6
CONTINUOUS
 62
     7
100
AcDbLine
 10
1116.5
 20
675.855339
 30
0.0
 11
1116.5
 21
687.855339
 31
0.0
  0
LINE
  5
449
100
AcDbEntity
  8
LAY-1
  6
CONTINUOUS
 62
     7
100
AcDbLine
 10
1116.5
 20
687.855339
 30
0.0
 11
1117.5
 21
688.855339
 31
0.0
  0
LINE
  5
44A
100
AcDbEntity
  8
LAY-1
  6
CONTINUOUS
 62
     7
100
AcDbLine
 10
1117.5
 20
688.855339
 30
0.0
 11
1119.0
 21
688.855339
 31
0.0
  0
LINE
  5
44B
100
AcDbEntity
  8
LAY-1
  6
CONTINUOUS
 62
     7
100
AcDbLine
 10
1119.0
 20
687.855339
 30
0.0
 11
1116.5
 21
687.855339
 31
0.0
  0
LINE
  5
44C
100
AcDbEntity
  8
LAY-1
  6
CONTINUOUS
 62
     7
100
AcDbLine
 10
1116.5
 20
675.855339
 30
0.0
 11
1119.0
 21
675.855339
 31
0.0
  0
LINE
  5
44D
100
AcDbEntity
  8
LAY-1
  6
CONTINUOUS
 62
     7
100
AcDbLine
 10
1117.5
 20
674.855339
 30
0.0
 11
1117.5
 21
688.855339
 31
0.0
  0
LINE
  5
44E
100
AcDbEntity
  8
LAY-1
  6
CONTINUOUS
 62
     7
100
AcDbLine
 10
1129.893128
 20
624.423717
 30
0.0
 11
1120.027139
 21
624.423717
 31
0.0
  0
LINE
  5
44F
100
AcDbEntity
  8
LAY-1
  6
CONTINUOUS
 62
     7
100
AcDbLine
 10
1119.0
 20
622.644661
 30
0.0
 11
1119.0
 21
599.644661
 31
0.0
  0
LINE
  5
450
100
AcDbEntity
  8
LAY-1
  6
CONTINUOUS
 62
     7
100
AcDbLine
 10
1119.0
 20
599.644661
 30
0.0
 11
1120.027139
 21
597.865605
 31
0.0
  0
LINE
  5
451
100
AcDbEntity
  8
LAY-1
  6
CONTINUOUS
 62
     7
100
AcDbLine
 10
1120.027139
 20
597.865605
 30
0.0
 11
1130.0
 21
597.865605
 31
0.0
  0
ARC
  5
452
100
AcDbEntity
  8
LAY-1
  6
CONTINUOUS
 62
     7
100
AcDbCircle
 10
1124.878392
 20
601.185369
 30
0.0
 40
5.878392
100
AcDbArc
 50
145.615753
 51
214.384247
  0
ARC
  5
453
100
AcDbEntity
  8
LAY-1
  6
CONTINUOUS
 62
     7
100
AcDbCircle
 10
1140.972861
 20
611.144661
 30
0.0
 40
21.972861
100
AcDbArc
 50
162.412046
 51
197.587954
  0
ARC
  5
454
100
AcDbEntity
  8
LAY-1
  6
CONTINUOUS
 62
     7
100
AcDbCircle
 10
1124.878392
 20
621.103953
 30
0.0
 40
5.878392
100
AcDbArc
 50
145.615753
 51
214.384247
  0
LINE
  5
455
100
AcDbEntity
  8
LAY-1
  6
CONTINUOUS
 62
     7
100
AcDbLine
 10
1120.027139
 20
617.784189
 30
0.0
 11
1130.0
 21
617.784189
 31
0.0
  0
LINE
  5
456
100
AcDbEntity
  8
LAY-1
  6
CONTINUOUS
 62
     7
100
AcDbLine
 10
1130.0
 20
604.505133
 30
0.0
 11
1120.027139
 21
604.505133
 31
0.0
  0
LINE
  5
457
100
AcDbEntity
  8
LAY-1
  6
CONTINUOUS
 62
     7
100
AcDbLine
 10
1119.0
 20
618.144661
 30
0.0
 11
1117.5
 21
618.144661
 31
0.0
  0
LINE
  5
458
100
AcDbEntity
  8
LAY-1
  6
CONTINUOUS
 62
     7
100
AcDbLine
 10
1117.5
 20
618.144661
 30
0.0
 11
1116.5
 21
617.144661
 31
0.0
  0
LINE
  5
459
100
AcDbEntity
  8
LAY-1
  6
CONTINUOUS
 62
     7
100
AcDbLine
 10
1116.5
 20
617.144661
 30
0.0
 11
1116.5
 21
605.144661
 31
0.0
  0
LINE
  5
45A
100
AcDbEntity
  8
LAY-1
  6
CONTINUOUS
 62
     7
100
AcDbLine
 10
1116.5
 20
605.144661
 30
0.0
 11
1117.5
 21
604.144661
 31
0.0
  0
LINE
  5
45B
100
AcDbEntity
  8
LAY-1
  6
CONTINUOUS
 62
     7
100
AcDbLine
 10
1117.5
 20
604.144661
 30
0.0
 11
1119.0
 21
604.144661
 31
0.0
  0
LINE
  5
45C
100
AcDbEntity
  8
LAY-1
  6
CONTINUOUS
 62
     7
100
AcDbLine
 10
1119.0
 20
605.144661
 30
0.0
 11
1116.5
 21
605.144661
 31
0.0
  0
LINE
  5
45D
100
AcDbEntity
  8
LAY-1
  6
CONTINUOUS
 62
     7
100
AcDbLine
 10
1116.5
 20
617.144661
 30
0.0
 11
1119.0
 21
617.144661
 31
0.0
  0
LINE
  5
45E
100
AcDbEntity
  8
LAY-1
  6
CONTINUOUS
 62
     7
100
AcDbLine
 10
1117.5
 20
618.144661
 30
0.0
 11
1117.5
 21
604.144661
 31
0.0
  0
ARC
  5
45F
100
AcDbEntity
  8
LAY-1
  6
CONTINUOUS
 62
     7
100
AcDbCircle
 10
1115.0
 20
685.008331
 30
0.0
 40
15.0
100
AcDbArc
 50
271.909152
 51
286.046622
  0
ARC
  5
460
100
AcDbEntity
  8
LAY-1
  6
CONTINUOUS
 62
     7
100
AcDbCircle
 10
1115.0
 20
607.991669
 30
0.0
 40
15.0
100
AcDbArc
 50
74.53399
 51
88.090848
  0
LINE
  5
461
100
AcDbEntity
  8
LAY-1
  6
CONTINUOUS
 62
     7
100
AcDbLine
 10
1147.0
 20
663.992856
 30
0.0
 11
1147.0
 21
701.5
 31
0.0
  0
LINE
  5
462
100
AcDbEntity
  8
LAY-1
  6
CONTINUOUS
 62
     7
100
AcDbLine
 10
1146.0
 20
701.5
 30
0.0
 11
1146.0
 21
658.909674
 31
0.0
  0
LINE
  5
463
100
AcDbEntity
  8
LAY-1
  6
CONTINUOUS
 62
     7
100
AcDbLine
 10
1147.0
 20
629.007144
 30
0.0
 11
1147.0
 21
591.5
 31
0.0
  0
LINE
  5
464
100
AcDbEntity
  8
LAY-1
  6
CONTINUOUS
 62
     7
100
AcDbLine
 10
1146.0
 20
591.5
 30
0.0
 11
1146.0
 21
634.090326
 31
0.0
  0
LINE
  5
465
100
AcDbEntity
  8
LAY-1
  6
CONTINUOUS
 62
     7
100
AcDbLine
 10
1163.5
 20
700.0
 30
0.0
 11
1163.5
 21
696.751866
 31
0.0
  0
LINE
  5
466
100
AcDbEntity
  8
LAY-1
  6
CONTINUOUS
 62
     7
100
AcDbLine
 10
1163.5
 20
593.0
 30
0.0
 11
1163.5
 21
596.248134
 31
0.0
  0
LINE
  5
467
100
AcDbEntity
  8
LAY-1
  6
EXLTYPE3
 62
     1
100
AcDbLine
 10
914.767031
 20
161.9
 30
0.0
 11
940.948669
 21
161.9
 31
0.0
  0
LINE
  5
468
100
AcDbEntity
  8
LAY-1
  6
EXLTYPE3
 62
     1
100
AcDbLine
 10
914.767031
 20
281.9
 30
0.0
 11
940.948669
 21
281.9
 31
0.0
  0
LINE
  5
469
100
AcDbEntity
  8
LAY-1
  6
EXLTYPE3
 62
     1
100
AcDbLine
 10
743.232969
 20
281.9
 30
0.0
 11
717.051331
 21
281.9
 31
0.0
  0
LINE
  5
46A
100
AcDbEntity
  8
LAY-1
  6
EXLTYPE3
 62
     1
100
AcDbLine
 10
829.0
 20
437.286847
 30
0.0
 11
829.0
 21
147.884311
 31
0.0
  0
LINE
  5
46B
100
AcDbEntity
  8
LAY-1
  6
EXLTYPE3
 62
     1
100
AcDbLine
 10
743.232969
 20
161.9
 30
0.0
 11
717.051331
 21
161.9
 31
0.0
  0
LINE
  5
46C
100
AcDbEntity
  8
LAY-1
  6
CONTINUOUS
 62
     1
100
AcDbLine
 10
847.538675
 20
374.4
 30
0.0
 11
848.0
 21
375.199038
 31
0.0
  0
LINE
  5
46D
100
AcDbEntity
  8
LAY-1
  6
CONTINUOUS
 62
     1
100
AcDbLine
 10
810.461325
 20
374.4
 30
0.0
 11
810.0
 21
375.199038
 31
0.0
  0
LINE
  5
46E
100
AcDbEntity
  8
LAY-1
  6
EXLTYPE3
 62
     1
100
AcDbLine
 10
829.0
 20
185.395024
 30
0.0
 11
829.0
 21
259.195024
 31
0.0
  0
LINE
  5
46F
100
AcDbEntity
  8
LAY-1
  6
CONTINUOUS
 62
     1
100
AcDbLine
 10
841.0
 20
637.5
 30
0.0
 11
842.367104
 21
637.538697
 31
0.0
  0
LINE
  5
470
100
AcDbEntity
  8
LAY-1
  6
CONTINUOUS
 62
     1
100
AcDbLine
 10
841.0
 20
655.5
 30
0.0
 11
842.367104
 21
655.461303
 31
0.0
  0
LINE
  5
471
100
AcDbEntity
  8
LAY-1
  6
EXLTYPE3
 62
     1
100
AcDbLine
 10
701.0
 20
646.5
 30
0.0
 11
959.0
 21
646.5
 31
0.0
  0
LINE
  5
472
100
AcDbEntity
  8
LAY-1
  6
EXLTYPE3
 62
     1
100
AcDbLine
 10
914.767031
 20
1131.1
 30
0.0
 11
940.948669
 21
1131.1
 31
0.0
  0
LINE
  5
473
100
AcDbEntity
  8
LAY-1
  6
EXLTYPE3
 62
     1
100
AcDbLine
 10
914.767031
 20
1011.1
 30
0.0
 11
940.948669
 21
1011.1
 31
0.0
  0
LINE
  5
474
100
AcDbEntity
  8
LAY-1
  6
EXLTYPE3
 62
     1
100
AcDbLine
 10
743.232969
 20
1011.1
 30
0.0
 11
717.051331
 21
1011.1
 31
0.0
  0
LINE
  5
475
100
AcDbEntity
  8
LAY-1
  6
EXLTYPE3
 62
     1
100
AcDbLine
 10
829.0
 20
855.713153
 30
0.0
 11
829.0
 21
1145.115689
 31
0.0
  0
LINE
  5
476
100
AcDbEntity
  8
LAY-1
  6
EXLTYPE3
 62
     1
100
AcDbLine
 10
743.232969
 20
1131.1
 30
0.0
 11
717.051331
 21
1131.1
 31
0.0
  0
LINE
  5
477
100
AcDbEntity
  8
LAY-1
  6
EXLTYPE3
 62
     1
100
AcDbLine
 10
708.242192
 20
1071.1
 30
0.0
 11
949.574084
 21
1071.1
 31
0.0
  0
LINE
  5
478
100
AcDbEntity
  8
LAY-1
  6
CONTINUOUS
 62
     1
100
AcDbLine
 10
847.538675
 20
918.6
 30
0.0
 11
848.0
 21
917.800962
 31
0.0
  0
LINE
  5
479
100
AcDbEntity
  8
LAY-1
  6
CONTINUOUS
 62
     1
100
AcDbLine
 10
810.461325
 20
918.6
 30
0.0
 11
810.0
 21
917.800962
 31
0.0
  0
LINE
  5
47A
100
AcDbEntity
  8
LAY-1
  6
EXLTYPE3
 62
     1
100
AcDbLine
 10
829.0
 20
1107.604976
 30
0.0
 11
829.0
 21
1033.804976
 31
0.0
  0
CIRCLE
  5
47B
100
AcDbEntity
  8
LAY-1
  6
CONTINUOUS
 62
     1
100
AcDbCircle
 10
829.0
 20
1071.1
 30
0.0
 40
14.0
  0
LINE
  5
47C
100
AcDbEntity
  8
LAY-1
  6
EXLTYPE3
 62
     1
100
AcDbLine
 10
829.0
 20
734.5
 30
0.0
 11
829.0
 21
558.5
 31
0.0
  0
LINE
  5
47D
100
AcDbEntity
  8
LAY-1
  6
CONTINUOUS
 62
     1
100
AcDbLine
 10
588.0
 20
665.038675
 30
0.0
 11
588.799038
 21
665.5
 31
0.0
  0
LINE
  5
47E
100
AcDbEntity
  8
LAY-1
  6
CONTINUOUS
 62
     1
100
AcDbLine
 10
588.0
 20
627.961325
 30
0.0
 11
588.799038
 21
627.5
 31
0.0
  0
LINE
  5
47F
100
AcDbEntity
  8
LAY-1
  6
EXLTYPE3
 62
     1
100
AcDbLine
 10
435.5
 20
554.541995
 30
0.0
 11
435.5
 21
738.458005
 31
0.0
  0
LINE
  5
480
100
AcDbEntity
  8
LAY-1
  6
EXLTYPE3
 62
     1
100
AcDbLine
 10
350.21616
 20
646.5
 30
0.0
 11
656.5
 21
646.5
 31
0.0
  0
LINE
  5
481
100
AcDbEntity
  8
LAY-1
  6
EXLTYPE3
 62
     1
100
AcDbLine
 10
1222.5
 20
555.964679
 30
0.0
 11
1222.5
 21
739.880688
 31
0.0
  0
LINE
  5
482
100
AcDbEntity
  8
LAY-1
  6
CONTINUOUS
 62
     1
100
AcDbLine
 10
1070.0
 20
665.038675
 30
0.0
 11
1069.200962
 21
665.5
 31
0.0
  0
LINE
  5
483
100
AcDbEntity
  8
LAY-1
  6
CONTINUOUS
 62
     1
100
AcDbLine
 10
1070.0
 20
627.961325
 30
0.0
 11
1069.200962
 21
627.5
 31
0.0
  0
LINE
  5
484
100
AcDbEntity
  8
LAY-1
  6
EXLTYPE3
 62
     1
100
AcDbLine
 10
1307.78384
 20
646.5
 30
0.0
 11
986.0
 21
646.5
 31
0.0
  0
TEXT
  5
485
100
AcDbEntity
  8
LAY-1
  6
CONTINUOUS
 62
     3
100
AcDbText
 10
463.1
 20
96.5
 30
0.0
 40
20.0
  1
８－φ１９
 41
0.84
  7
EXCADSTD
 72
     5
 11
563.1
 21
96.5
 31
0.0
100
AcDbText
  0
TEXT
  5
486
100
AcDbEntity
  8
LAY-1
  6
CONTINUOUS
 62
     3
100
AcDbText
 10
1075.1
 20
95.0
 30
0.0
 40
20.0
  1
８－φ１９
 41
0.84
  7
EXCADSTD
 72
     5
 11
1175.1
 21
95.0
 31
0.0
100
AcDbText
  0
LINE
  5
487
100
AcDbEntity
  8
LAY-1
  6
EXLTYPE3
 62
     1
100
AcDbLine
 10
708.242192
 20
221.9
 30
0.0
 11
949.574084
 21
221.9
 31
0.0
  0
LINE
  5
488
100
AcDbEntity
  8
LAY-3
  6
CONTINUOUS
 62
     1
100
AcDbLine
 10
719.0
 20
173.9
 30
0.0
 11
719.0
 21
110.6
 31
0.0
  0
LINE
  5
489
100
AcDbEntity
  8
LAY-3
  6
CONTINUOUS
 62
     1
100
AcDbLine
 10
939.0
 20
173.9
 30
0.0
 11
939.0
 21
110.6
 31
0.0
  0
TEXT
  5
48A
100
AcDbEntity
  8
LAY-3
  6
CONTINUOUS
 62
     3
100
AcDbText
 10
799.0
 20
112.1
 30
0.0
 40
20.0
  1
２２０
 41
0.84
  7
EXCADSTD
 72
     5
 11
859.0
 21
112.1
 31
0.0
100
AcDbText
  0
LINE
  5
48B
100
AcDbEntity
  8
LAY-3
  6
CONTINUOUS
 62
     1
100
AcDbLine
 10
719.0
 20
111.1
 30
0.0
 11
939.0
 21
111.1
 31
0.0
  0
LINE
  5
48C
100
AcDbEntity
  8
LAY-3
  6
CONTINUOUS
 62
     1
100
AcDbLine
 10
721.0
 20
111.433333
 30
0.0
 11
719.0
 21
111.1
 31
0.0
  0
LINE
  5
48D
100
AcDbEntity
  8
LAY-3
  6
CONTINUOUS
 62
     1
100
AcDbLine
 10
719.0
 20
111.1
 30
0.0
 11
721.0
 21
110.766667
 31
0.0
  0
LINE
  5
48E
100
AcDbEntity
  8
LAY-3
  6
CONTINUOUS
 62
     1
100
AcDbLine
 10
937.0
 20
110.766667
 30
0.0
 11
939.0
 21
111.1
 31
0.0
  0
LINE
  5
48F
100
AcDbEntity
  8
LAY-3
  6
CONTINUOUS
 62
     1
100
AcDbLine
 10
939.0
 20
111.1
 30
0.0
 11
937.0
 21
111.433333
 31
0.0
  0
LINE
  5
490
100
AcDbEntity
  8
LAY-3
  6
CONTINUOUS
 62
     7
100
AcDbLine
 10
695.396409
 20
209.9
 30
0.0
 11
695.396409
 21
215.9
 31
0.0
  0
LINE
  5
491
100
AcDbEntity
  8
LAY-3
  6
CONTINUOUS
 62
     7
100
AcDbLine
 10
695.396409
 20
227.9
 30
0.0
 11
695.396409
 21
233.9
 31
0.0
  0
LINE
  5
492
100
AcDbEntity
  8
LAY-3
  6
CONTINUOUS
 62
     7
100
AcDbLine
 10
695.396409
 20
233.9
 30
0.0
 11
708.8
 21
221.9
 31
0.0
  0
LINE
  5
493
100
AcDbEntity
  8
LAY-3
  6
CONTINUOUS
 62
     7
100
AcDbLine
 10
708.8
 20
221.9
 30
0.0
 11
695.396409
 21
209.9
 31
0.0
  0
LINE
  5
494
100
AcDbEntity
  8
LAY-3
  6
CONTINUOUS
 62
     7
100
AcDbLine
 10
680.2
 20
215.9
 30
0.0
 11
680.2
 21
227.9
 31
0.0
  0
LINE
  5
495
100
AcDbEntity
  8
LAY-3
  6
CONTINUOUS
 62
     7
100
AcDbLine
 10
680.2
 20
227.9
 30
0.0
 11
695.396409
 21
227.9
 31
0.0
  0
LINE
  5
496
100
AcDbEntity
  8
LAY-3
  6
CONTINUOUS
 62
     7
100
AcDbLine
 10
695.396409
 20
215.9
 30
0.0
 11
680.2
 21
215.9
 31
0.0
  0
LINE
  5
497
100
AcDbEntity
  8
LAY-3
  6
CONTINUOUS
 62
     7
100
AcDbLine
 10
968.896409
 20
209.9
 30
0.0
 11
968.896409
 21
215.9
 31
0.0
  0
LINE
  5
498
100
AcDbEntity
  8
LAY-3
  6
CONTINUOUS
 62
     7
100
AcDbLine
 10
968.896409
 20
227.9
 30
0.0
 11
968.896409
 21
233.9
 31
0.0
  0
LINE
  5
499
100
AcDbEntity
  8
LAY-3
  6
CONTINUOUS
 62
     7
100
AcDbLine
 10
968.896409
 20
233.9
 30
0.0
 11
982.3
 21
221.9
 31
0.0
  0
LINE
  5
49A
100
AcDbEntity
  8
LAY-3
  6
CONTINUOUS
 62
     7
100
AcDbLine
 10
982.3
 20
221.9
 30
0.0
 11
968.896409
 21
209.9
 31
0.0
  0
LINE
  5
49B
100
AcDbEntity
  8
LAY-3
  6
CONTINUOUS
 62
     7
100
AcDbLine
 10
953.7
 20
215.9
 30
0.0
 11
953.7
 21
227.9
 31
0.0
  0
LINE
  5
49C
100
AcDbEntity
  8
LAY-3
  6
CONTINUOUS
 62
     7
100
AcDbLine
 10
953.7
 20
227.9
 30
0.0
 11
968.896409
 21
227.9
 31
0.0
  0
LINE
  5
49D
100
AcDbEntity
  8
LAY-3
  6
CONTINUOUS
 62
     7
100
AcDbLine
 10
968.896409
 20
215.9
 30
0.0
 11
953.7
 21
215.9
 31
0.0
  0
ENDSEC
  0
SECTION
  2
OBJECTS
  0
DICTIONARY
  5
19
100
AcDbDictionary
  3
ACAD_GROUP
350
1A
  3
ACAD_MLINESTYLE
350
1B
  0
DICTIONARY
  5
1A
102
{ACAD_REACTORS
330
19
102
}
100
AcDbDictionary
  0
DICTIONARY
  5
1B
102
{ACAD_REACTORS
330
19
102
}
100
AcDbDictionary
  3
STANDARD
350
1C
  0
MLINESTYLE
  5
1C
102
{ACAD_REACTORS
330
1B
102
}
100
AcDbMlineStyle
  2
Standard
 70
     0
  3

 62
     0
 51
90.0
 52
90.0
 71
     2
 49
0.5
 62
   256
  6
ByLayer
 49
-0.5
 62
   256
  6
ByLayer
  0
ENDSEC
  0
EOF
