  0
SECTION
  2
HEADER
  9
$ACADVER
  1
AC1014
  9
$ACADMAINTVER
 70
     9
  9
$DWGCODEPAGE
  3
ANSI_932
  9
$INSBASE
 10
0.0
 20
0.0
 30
0.0
  9
$EXTMIN
 10
119.51341762294
 20
-29.50000000000001
 30
0.0
  9
$EXTMAX
 10
696.7481851145601
 20
609.6999999997962
 30
0.0
  9
$LIMMIN
 10
0.0
 20
0.0
  9
$LIMMAX
 10
420.0
 20
297.0
  9
$ORTHOMODE
 70
     0
  9
$REGENMODE
 70
     1
  9
$FILLMODE
 70
     1
  9
$QTEXTMODE
 70
     0
  9
$MIRRTEXT
 70
     1
  9
$DRAGMODE
 70
     2
  9
$LTSCALE
 40
1.0
  9
$OSMODE
 70
    37
  9
$ATTMODE
 70
     1
  9
$TEXTSIZE
 40
2.5
  9
$TRACEWID
 40
1.0
  9
$TEXTSTYLE
  7
STANDARD
  9
$CLAYER
  8
LAY-1
  9
$CELTYPE
  6
BYLAYER
  9
$CECOLOR
 62
   256
  9
$CELTSCALE
 40
1.0
  9
$DELOBJ
 70
     1
  9
$DISPSILH
 70
     0
  9
$DIMSCALE
 40
1.0
  9
$DIMASZ
 40
2.5
  9
$DIMEXO
 40
0.625
  9
$DIMDLI
 40
3.75
  9
$DIMRND
 40
0.0
  9
$DIMDLE
 40
0.0
  9
$DIMEXE
 40
1.25
  9
$DIMTP
 40
0.0
  9
$DIMTM
 40
0.0
  9
$DIMTXT
 40
2.5
  9
$DIMCEN
 40
2.5
  9
$DIMTSZ
 40
0.0
  9
$DIMTOL
 70
     0
  9
$DIMLIM
 70
     0
  9
$DIMTIH
 70
     0
  9
$DIMTOH
 70
     0
  9
$DIMSE1
 70
     0
  9
$DIMSE2
 70
     0
  9
$DIMTAD
 70
     1
  9
$DIMZIN
 70
     8
  9
$DIMBLK
  1

  9
$DIMASO
 70
     1
  9
$DIMSHO
 70
     1
  9
$DIMPOST
  1

  9
$DIMAPOST
  1

  9
$DIMALT
 70
     0
  9
$DIMALTD
 70
     3
  9
$DIMALTF
 40
0.03937007874016
  9
$DIMLFAC
 40
1.0
  9
$DIMTOFL
 70
     1
  9
$DIMTVP
 40
0.0
  9
$DIMTIX
 70
     0
  9
$DIMSOXD
 70
     0
  9
$DIMSAH
 70
     0
  9
$DIMBLK1
  1

  9
$DIMBLK2
  1

  9
$DIMSTYLE
  2
ISO-25
  9
$DIMCLRD
 70
     0
  9
$DIMCLRE
 70
     0
  9
$DIMCLRT
 70
     0
  9
$DIMTFAC
 40
1.0
  9
$DIMGAP
 40
0.625
  9
$DIMJUST
 70
     0
  9
$DIMSD1
 70
     0
  9
$DIMSD2
 70
     0
  9
$DIMTOLJ
 70
     0
  9
$DIMTZIN
 70
     8
  9
$DIMALTZ
 70
     0
  9
$DIMALTTZ
 70
     0
  9
$DIMFIT
 70
     3
  9
$DIMUPT
 70
     0
  9
$DIMUNIT
 70
     2
  9
$DIMDEC
 70
     2
  9
$DIMTDEC
 70
     2
  9
$DIMALTU
 70
     2
  9
$DIMALTTD
 70
     3
  9
$DIMTXSTY
  7
STANDARD
  9
$DIMAUNIT
 70
     0
  9
$LUNITS
 70
     2
  9
$LUPREC
 70
     4
  9
$SKETCHINC
 40
1.0
  9
$FILLETRAD
 40
10.0
  9
$AUNITS
 70
     0
  9
$AUPREC
 70
     0
  9
$MENU
  1
.
  9
$ELEVATION
 40
0.0
  9
$PELEVATION
 40
0.0
  9
$THICKNESS
 40
0.0
  9
$LIMCHECK
 70
     0
  9
$CHAMFERA
 40
0.0
  9
$CHAMFERB
 40
0.0
  9
$CHAMFERC
 40
0.0
  9
$CHAMFERD
 40
0.0
  9
$SKPOLY
 70
     0
  9
$TDCREATE
 40
2459412.767156621
  9
$TDUPDATE
 40
2459412.767156805
  9
$TDINDWG
 40
0.0000000116
  9
$TDUSRTIMER
 40
0.0000000116
  9
$USRTIMER
 70
     1
  9
$ANGBASE
 50
0.0
  9
$ANGDIR
 70
     0
  9
$PDMODE
 70
     0
  9
$PDSIZE
 40
0.0
  9
$PLINEWID
 40
0.0
  9
$COORDS
 70
     1
  9
$SPLFRAME
 70
     0
  9
$SPLINETYPE
 70
     6
  9
$SPLINESEGS
 70
     8
  9
$ATTDIA
 70
     0
  9
$ATTREQ
 70
     1
  9
$HANDLING
 70
     1
  9
$HANDSEED
  5
4D9
  9
$SURFTAB1
 70
     6
  9
$SURFTAB2
 70
     6
  9
$SURFTYPE
 70
     6
  9
$SURFU
 70
     6
  9
$SURFV
 70
     6
  9
$UCSNAME
  2

  9
$UCSORG
 10
0.0
 20
0.0
 30
0.0
  9
$UCSXDIR
 10
1.0
 20
0.0
 30
0.0
  9
$UCSYDIR
 10
0.0
 20
1.0
 30
0.0
  9
$PUCSNAME
  2

  9
$PUCSORG
 10
0.0
 20
0.0
 30
0.0
  9
$PUCSXDIR
 10
1.0
 20
0.0
 30
0.0
  9
$PUCSYDIR
 10
0.0
 20
1.0
 30
0.0
  9
$USERI1
 70
     0
  9
$USERI2
 70
     0
  9
$USERI3
 70
     0
  9
$USERI4
 70
     0
  9
$USERI5
 70
     0
  9
$USERR1
 40
0.0
  9
$USERR2
 40
0.0
  9
$USERR3
 40
0.0
  9
$USERR4
 40
0.0
  9
$USERR5
 40
0.0
  9
$WORLDVIEW
 70
     1
  9
$SHADEDGE
 70
     3
  9
$SHADEDIF
 70
    70
  9
$TILEMODE
 70
     1
  9
$MAXACTVP
 70
    64
  9
$PINSBASE
 10
0.0
 20
0.0
 30
0.0
  9
$PLIMCHECK
 70
     0
  9
$PEXTMIN
 10
1.000000000000000E+20
 20
1.000000000000000E+20
 30
1.000000000000000E+20
  9
$PEXTMAX
 10
-1.000000000000000E+20
 20
-1.000000000000000E+20
 30
-1.000000000000000E+20
  9
$PLIMMIN
 10
0.0
 20
0.0
  9
$PLIMMAX
 10
420.0
 20
297.0
  9
$UNITMODE
 70
     0
  9
$VISRETAIN
 70
     1
  9
$PLINEGEN
 70
     0
  9
$PSLTSCALE
 70
     1
  9
$TREEDEPTH
 70
  3020
  9
$PICKSTYLE
 70
     1
  9
$CMLSTYLE
  2
STANDARD
  9
$CMLJUST
 70
     0
  9
$CMLSCALE
 40
20.0
  9
$PROXYGRAPHICS
 70
     1
  9
$MEASUREMENT
 70
     1
  0
ENDSEC
  0
SECTION
  2
CLASSES
  0
CLASS
  1
ACDBDICTIONARYWDFLT
  2
AcDbDictionaryWithDefault
  3
ObjectDBX Classes
 90
        0
280
     0
281
     0
  0
CLASS
  1
VISUALSTYLE
  2
AcDbVisualStyle
  3
ObjectDBX Classes
 90
     4095
280
     0
281
     0
  0
CLASS
  1
MATERIAL
  2
AcDbMaterial
  3
ObjectDBX Classes
 90
     1153
280
     0
281
     0
  0
CLASS
  1
SCALE
  2
AcDbScale
  3
ObjectDBX Classes
 90
     1153
280
     0
281
     0
  0
CLASS
  1
TABLESTYLE
  2
AcDbTableStyle
  3
ObjectDBX Classes
 90
     4095
280
     0
281
     0
  0
CLASS
  1
MLEADERSTYLE
  2
AcDbMLeaderStyle
  3
ACDB_MLEADERSTYLE_CLASS
 90
     4095
280
     0
281
     0
  0
CLASS
  1
SUN
  2
AcDbSun
  3
SCENEOE
 90
     1153
280
     0
281
     0
  0
CLASS
  1
DICTIONARYVAR
  2
AcDbDictionaryVar
  3
ObjectDBX Classes
 90
        0
280
     0
281
     0
  0
CLASS
  1
XRECORD
  2
AcDbXrecord
  3
ObjectDBX Classes
 90
        0
280
     0
281
     0
  0
CLASS
  1
LWPOLYLINE
  2
AcDbPolyline
  3
ObjectDBX Classes
 90
        0
280
     0
281
     1
  0
CLASS
  1
HATCH
  2
AcDbHatch
  3
ObjectDBX Classes
 90
        0
280
     0
281
     1
  0
CLASS
  1
ACDBPLACEHOLDER
  2
AcDbPlaceHolder
  3
ObjectDBX Classes
 90
        0
280
     0
281
     0
  0
CLASS
  1
LAYOUT
  2
AcDbLayout
  3
ObjectDBX Classes
 90
        0
280
     0
281
     0
  0
ENDSEC
  0
SECTION
  2
TABLES
  0
TABLE
  2
VPORT
  5
8
102
{ACAD_XDICTIONARY
360
4CE
102
}
330
0
100
AcDbSymbolTable
 70
     1
  0
VPORT
  5
29
330
8
100
AcDbSymbolTableRecord
100
AcDbViewportTableRecord
  2
*ACTIVE
 70
     0
 10
0.0
 20
0.0
 11
1.0
 21
1.0
 12
408.13080136875
 22
290.0999999998981
 13
0.0
 23
0.0
 14
10.0
 24
10.0
 15
10.0
 25
10.0
 16
0.0
 26
0.0
 36
1.0
 17
0.0
 27
0.0
 37
0.0
 40
639.1999999997962
 41
0.903058146889556
 42
50.0
 43
0.0
 44
0.0
 50
0.0
 51
0.0
 71
     0
 72
  1000
 73
     1
 74
     3
 75
     0
 76
     0
 77
     0
 78
     0
  0
ENDTAB
  0
TABLE
  2
LTYPE
  5
5
330
0
100
AcDbSymbolTable
 70
     8
  0
LTYPE
  5
14
330
5
100
AcDbSymbolTableRecord
100
AcDbLinetypeTableRecord
  2
BYBLOCK
 70
     0
  3

 72
    65
 73
     0
 40
0.0
  0
LTYPE
  5
15
330
5
100
AcDbSymbolTableRecord
100
AcDbLinetypeTableRecord
  2
BYLAYER
 70
     0
  3

 72
    65
 73
     0
 40
0.0
  0
LTYPE
  5
16
330
5
100
AcDbSymbolTableRecord
100
AcDbLinetypeTableRecord
  2
CONTINUOUS
 70
     0
  3
Solid line
 72
    65
 73
     0
 40
0.0
  0
LTYPE
  5
6E
330
5
100
AcDbSymbolTableRecord
100
AcDbLinetypeTableRecord
  2
EXLTYPE0
 70
     0
  3
破線
 72
    65
 73
     2
 40
4.0
 49
2.0
 74
     0
 49
-2.0
 74
     0
  0
LTYPE
  5
6F
330
5
100
AcDbSymbolTableRecord
100
AcDbLinetypeTableRecord
  2
EXLTYPE1
 70
     0
  3
点線
 72
    65
 73
     2
 40
2.0
 49
1.0
 74
     0
 49
-1.0
 74
     0
  0
LTYPE
  5
70
330
5
100
AcDbSymbolTableRecord
100
AcDbLinetypeTableRecord
  2
EXLTYPE2
 70
     0
  3
一点鎖線
 72
    65
 73
     4
 40
33.0
 49
30.0
 74
     0
 49
-1.0
 74
     0
 49
1.0
 74
     0
 49
-1.0
 74
     0
  0
LTYPE
  5
71
330
5
100
AcDbSymbolTableRecord
100
AcDbLinetypeTableRecord
  2
EXLTYPE3
 70
     0
  3
二点鎖線
 72
    65
 73
     6
 40
35.0
 49
30.0
 74
     0
 49
-1.0
 74
     0
 49
1.0
 74
     0
 49
-1.0
 74
     0
 49
1.0
 74
     0
 49
-1.0
 74
     0
  0
LTYPE
  5
72
330
5
100
AcDbSymbolTableRecord
100
AcDbLinetypeTableRecord
  2
EXLTYPE4
 70
     0
  3
三点鎖線
 72
    65
 73
     8
 40
37.0
 49
30.0
 74
     0
 49
-1.0
 74
     0
 49
1.0
 74
     0
 49
-1.0
 74
     0
 49
1.0
 74
     0
 49
-1.0
 74
     0
 49
1.0
 74
     0
 49
-1.0
 74
     0
  0
LTYPE
  5
73
330
5
100
AcDbSymbolTableRecord
100
AcDbLinetypeTableRecord
  2
EXLTYPE5
 70
     0
  3
四点鎖線
 72
    65
 73
    10
 40
39.0
 49
30.0
 74
     0
 49
-1.0
 74
     0
 49
1.0
 74
     0
 49
-1.0
 74
     0
 49
1.0
 74
     0
 49
-1.0
 74
     0
 49
1.0
 74
     0
 49
-1.0
 74
     0
 49
1.0
 74
     0
 49
-1.0
 74
     0
  0
LTYPE
  5
74
330
5
100
AcDbSymbolTableRecord
100
AcDbLinetypeTableRecord
  2
EXLTYPE6
 70
     0
  3
破線2
 72
    65
 73
     2
 40
2.0
 49
1.0
 74
     0
 49
-1.0
 74
     0
  0
ENDTAB
  0
TABLE
  2
LAYER
  5
2
330
0
100
AcDbSymbolTable
 70
     3
  0
LAYER
  5
10
330
2
100
AcDbSymbolTableRecord
100
AcDbLayerTableRecord
  2
0
 70
     0
 62
     7
  6
CONTINUOUS
  0
LAYER
  5
77
330
2
100
AcDbSymbolTableRecord
100
AcDbLayerTableRecord
  2
LAY-1
 70
     0
 62
     7
  6
CONTINUOUS
  0
LAYER
  5
78
330
2
100
AcDbSymbolTableRecord
100
AcDbLayerTableRecord
  2
LAY-3
 70
     0
 62
     1
  6
CONTINUOUS
  0
ENDTAB
  0
TABLE
  2
STYLE
  5
3
330
0
100
AcDbSymbolTable
 70
     3
  0
STYLE
  5
11
330
3
100
AcDbSymbolTableRecord
100
AcDbTextStyleTableRecord
  2
STANDARD
 70
     0
 40
0.0
 41
1.0
 50
0.0
 71
     0
 42
2.5
  3
monotxt
  4
extfont
  0
STYLE
  5
75
330
3
100
AcDbSymbolTableRecord
100
AcDbTextStyleTableRecord
  2
EXCADSTD
 70
     0
 40
0.0
 41
1.0
 50
0.0
 71
     0
 42
2.5
  3
monotxt
  4
extfont
  0
STYLE
  5
76
330
3
100
AcDbSymbolTableRecord
100
AcDbTextStyleTableRecord
  2
EXCADVERT
 70
     4
 40
0.0
 41
1.0
 50
0.0
 71
     0
 42
2.5
  3
monotxt
  4
extfont
  0
ENDTAB
  0
TABLE
  2
VIEW
  5
6
330
0
100
AcDbSymbolTable
 70
     0
  0
ENDTAB
  0
TABLE
  2
UCS
  5
7
330
0
100
AcDbSymbolTable
 70
     0
  0
ENDTAB
  0
TABLE
  2
APPID
  5
9
330
0
100
AcDbSymbolTable
 70
     2
  0
APPID
  5
12
330
9
100
AcDbSymbolTableRecord
100
AcDbRegAppTableRecord
  2
ACAD
 70
     0
  0
APPID
  5
4D8
330
9
100
AcDbSymbolTableRecord
100
AcDbRegAppTableRecord
  2
ACAD_MLEADERVER
 70
     0
  0
ENDTAB
  0
TABLE
  2
DIMSTYLE
  5
A
330
0
100
AcDbSymbolTable
 70
     1
  0
DIMSTYLE
105
27
330
A
100
AcDbSymbolTableRecord
100
AcDbDimStyleTableRecord
  2
ISO-25
 70
     0
  3

  4

  5

  6

  7

 40
1.0
 41
2.5
 42
0.625
 43
3.75
 44
1.25
 45
0.0
 46
0.0
 47
0.0
 48
0.0
140
2.5
141
2.5
142
0.0
143
0.03937007874016
144
1.0
145
0.0
146
1.0
147
0.625
 71
     0
 72
     0
 73
     0
 74
     0
 75
     0
 76
     0
 77
     1
 78
     8
170
     0
171
     3
172
     1
173
     0
174
     0
175
     0
176
     0
177
     0
178
     0
270
     2
271
     2
272
     2
273
     2
274
     3
340
11
275
     0
280
     0
281
     0
282
     0
283
     0
284
     8
285
     0
286
     0
287
     5
288
     0
  0
ENDTAB
  0
TABLE
  2
BLOCK_RECORD
  5
1
330
0
100
AcDbSymbolTable
 70
    14
  0
BLOCK_RECORD
  5
1F
330
1
100
AcDbSymbolTableRecord
100
AcDbBlockTableRecord
  2
*MODEL_SPACE
  0
BLOCK_RECORD
  5
1B
330
1
100
AcDbSymbolTableRecord
100
AcDbBlockTableRecord
  2
*PAPER_SPACE
  0
BLOCK_RECORD
  5
79
330
1
100
AcDbSymbolTableRecord
100
AcDbBlockTableRecord
  2
EX_NORM
  0
BLOCK_RECORD
  5
7C
330
1
100
AcDbSymbolTableRecord
100
AcDbBlockTableRecord
  2
EX_BNORM
  0
BLOCK_RECORD
  5
7F
330
1
100
AcDbSymbolTableRecord
100
AcDbBlockTableRecord
  2
EX_BCIR
  0
BLOCK_RECORD
  5
82
330
1
100
AcDbSymbolTableRecord
100
AcDbBlockTableRecord
  2
EX_RCIVIL
  0
BLOCK_RECORD
  5
85
330
1
100
AcDbSymbolTableRecord
100
AcDbBlockTableRecord
  2
EX_SLANT
  0
BLOCK_RECORD
  5
88
330
1
100
AcDbSymbolTableRecord
100
AcDbBlockTableRecord
  2
EX_NONE
  0
BLOCK_RECORD
  5
8B
330
1
100
AcDbSymbolTableRecord
100
AcDbBlockTableRecord
  2
EX_CIVIL
  0
BLOCK_RECORD
  5
8E
330
1
100
AcDbSymbolTableRecord
100
AcDbBlockTableRecord
  2
EX_WCIR
  0
BLOCK_RECORD
  5
91
330
1
100
AcDbSymbolTableRecord
100
AcDbBlockTableRecord
  2
EX_WCIR2
  0
BLOCK_RECORD
  5
94
330
1
100
AcDbSymbolTableRecord
100
AcDbBlockTableRecord
  2
EX_WNORM
  0
BLOCK_RECORD
  5
97
330
1
100
AcDbSymbolTableRecord
100
AcDbBlockTableRecord
  2
EX_NNORM
  0
BLOCK_RECORD
  5
9A
330
1
100
AcDbSymbolTableRecord
100
AcDbBlockTableRecord
  2
EX_BBOX
  0
BLOCK_RECORD
  5
9D
330
1
100
AcDbSymbolTableRecord
100
AcDbBlockTableRecord
  2
EX_WBOX
  0
BLOCK_RECORD
  5
A0
330
1
100
AcDbSymbolTableRecord
100
AcDbBlockTableRecord
  2
EX_INTEGRAL
  0
ENDTAB
  0
ENDSEC
  0
SECTION
  2
BLOCKS
  0
BLOCK
  5
20
330
1F
100
AcDbEntity
  8
0
100
AcDbBlockBegin
  2
*MODEL_SPACE
 70
     0
 10
0.0
 20
0.0
 30
0.0
  3
*MODEL_SPACE
  1

  0
ENDBLK
  5
21
330
1F
100
AcDbEntity
  8
0
100
AcDbBlockEnd
  0
BLOCK
  5
1C
330
1B
100
AcDbEntity
 67
     1
  8
0
100
AcDbBlockBegin
  2
*PAPER_SPACE
 70
     0
 10
0.0
 20
0.0
 30
0.0
  3
*PAPER_SPACE
  1

  0
ENDBLK
  5
1D
330
1B
100
AcDbEntity
 67
     1
  8
0
100
AcDbBlockEnd
  0
BLOCK
  5
7A
330
79
100
AcDbEntity
  8
0
100
AcDbBlockBegin
  2
EX_NORM
 70
     0
 10
0.0
 20
0.0
 30
0.0
  3
EX_NORM
  1

  0
LINE
  5
A3
330
79
100
AcDbEntity
  8
0
  6
CONTINUOUS
 62
     0
100
AcDbLine
 10
0.0
 20
0.0
 30
0.0
 11
-1.0
 21
0.0
 31
0.0
  0
LINE
  5
A4
330
79
100
AcDbEntity
  8
0
  6
CONTINUOUS
 62
     0
100
AcDbLine
 10
0.0
 20
0.0
 30
0.0
 11
-1.0
 21
0.166666667
 31
0.0
  0
LINE
  5
A5
330
79
100
AcDbEntity
  8
0
  6
CONTINUOUS
 62
     0
100
AcDbLine
 10
0.0
 20
0.0
 30
0.0
 11
-1.0
 21
-0.166666667
 31
0.0
  0
ENDBLK
  5
7B
330
79
100
AcDbEntity
  8
0
100
AcDbBlockEnd
  0
BLOCK
  5
7D
330
7C
100
AcDbEntity
  8
0
100
AcDbBlockBegin
  2
EX_BNORM
 70
     0
 10
0.0
 20
0.0
 30
0.0
  3
EX_BNORM
  1

  0
LINE
  5
A6
330
7C
100
AcDbEntity
  8
0
  6
CONTINUOUS
 62
     0
100
AcDbLine
 10
0.0
 20
0.0
 30
0.0
 11
-1.0
 21
0.0
 31
0.0
  0
LINE
  5
A7
330
7C
100
AcDbEntity
  8
0
  6
CONTINUOUS
 62
     0
100
AcDbLine
 10
0.0
 20
0.0
 30
0.0
 11
-1.0
 21
0.166666667
 31
0.0
  0
LINE
  5
A8
330
7C
100
AcDbEntity
  8
0
  6
CONTINUOUS
 62
     0
100
AcDbLine
 10
0.0
 20
0.0
 30
0.0
 11
-1.0
 21
-0.166666667
 31
0.0
  0
LINE
  5
A9
330
7C
100
AcDbEntity
  8
0
  6
CONTINUOUS
 62
     0
100
AcDbLine
 10
0.0
 20
0.0
 30
0.0
 11
-1.0
 21
0.083333333
 31
0.0
  0
LINE
  5
AA
330
7C
100
AcDbEntity
  8
0
  6
CONTINUOUS
 62
     0
100
AcDbLine
 10
0.0
 20
0.0
 30
0.0
 11
-1.0
 21
-0.083333333
 31
0.0
  0
LINE
  5
AB
330
7C
100
AcDbEntity
  8
0
  6
CONTINUOUS
 62
     0
100
AcDbLine
 10
-1.0
 20
0.166666667
 30
0.0
 11
-1.0
 21
-0.166666667
 31
0.0
  0
ENDBLK
  5
7E
330
7C
100
AcDbEntity
  8
0
100
AcDbBlockEnd
  0
BLOCK
  5
80
330
7F
100
AcDbEntity
  8
0
100
AcDbBlockBegin
  2
EX_BCIR
 70
     0
 10
0.0
 20
0.0
 30
0.0
  3
EX_BCIR
  1

  0
LINE
  5
AC
330
7F
100
AcDbEntity
  8
0
  6
CONTINUOUS
 62
     0
100
AcDbLine
 10
0.0
 20
0.0
 30
0.0
 11
-1.0
 21
0.0
 31
0.0
  0
CIRCLE
  5
AD
330
7F
100
AcDbEntity
  8
0
  6
CONTINUOUS
 62
     0
100
AcDbCircle
 10
0.0
 20
0.0
 30
0.0
 40
0.5
  0
CIRCLE
  5
AE
330
7F
100
AcDbEntity
  8
0
  6
CONTINUOUS
 62
     0
100
AcDbCircle
 10
0.0
 20
0.0
 30
0.0
 40
0.25
  0
ENDBLK
  5
81
330
7F
100
AcDbEntity
  8
0
100
AcDbBlockEnd
  0
BLOCK
  5
83
330
82
100
AcDbEntity
  8
0
100
AcDbBlockBegin
  2
EX_RCIVIL
 70
     0
 10
0.0
 20
0.0
 30
0.0
  3
EX_RCIVIL
  1

  0
LINE
  5
AF
330
82
100
AcDbEntity
  8
0
  6
CONTINUOUS
 62
     0
100
AcDbLine
 10
0.0
 20
0.0
 30
0.0
 11
-1.0
 21
0.0
 31
0.0
  0
LINE
  5
B0
330
82
100
AcDbEntity
  8
0
  6
CONTINUOUS
 62
     0
100
AcDbLine
 10
-1.0
 20
-0.25
 30
0.0
 11
0.0
 21
-0.25
 31
0.0
  0
LINE
  5
B1
330
82
100
AcDbEntity
  8
0
  6
CONTINUOUS
 62
     0
100
AcDbLine
 10
-1.0
 20
-0.125
 30
0.0
 11
0.0
 21
-0.125
 31
0.0
  0
ENDBLK
  5
84
330
82
100
AcDbEntity
  8
0
100
AcDbBlockEnd
  0
BLOCK
  5
86
330
85
100
AcDbEntity
  8
0
100
AcDbBlockBegin
  2
EX_SLANT
 70
     0
 10
0.0
 20
0.0
 30
0.0
  3
EX_SLANT
  1

  0
LINE
  5
B2
330
85
100
AcDbEntity
  8
0
  6
CONTINUOUS
 62
     0
100
AcDbLine
 10
0.0
 20
0.0
 30
0.0
 11
-1.0
 21
0.0
 31
0.0
  0
LINE
  5
B3
330
85
100
AcDbEntity
  8
0
  6
CONTINUOUS
 62
     0
100
AcDbLine
 10
0.707106781
 20
0.707106781
 30
0.0
 11
-0.707106781
 21
-0.707106781
 31
0.0
  0
ENDBLK
  5
87
330
85
100
AcDbEntity
  8
0
100
AcDbBlockEnd
  0
BLOCK
  5
89
330
88
100
AcDbEntity
  8
0
100
AcDbBlockBegin
  2
EX_NONE
 70
     0
 10
0.0
 20
0.0
 30
0.0
  3
EX_NONE
  1

  0
LINE
  5
B4
330
88
100
AcDbEntity
  8
0
  6
CONTINUOUS
 62
     0
100
AcDbLine
 10
0.0
 20
0.0
 30
0.0
 11
-1.0
 21
0.0
 31
0.0
  0
ENDBLK
  5
8A
330
88
100
AcDbEntity
  8
0
100
AcDbBlockEnd
  0
BLOCK
  5
8C
330
8B
100
AcDbEntity
  8
0
100
AcDbBlockBegin
  2
EX_CIVIL
 70
     0
 10
0.0
 20
0.0
 30
0.0
  3
EX_CIVIL
  1

  0
LINE
  5
B5
330
8B
100
AcDbEntity
  8
0
  6
CONTINUOUS
 62
     0
100
AcDbLine
 10
0.0
 20
0.0
 30
0.0
 11
-1.0
 21
0.0
 31
0.0
  0
LINE
  5
B6
330
8B
100
AcDbEntity
  8
0
  6
CONTINUOUS
 62
     0
100
AcDbLine
 10
-1.0
 20
0.25
 30
0.0
 11
0.0
 21
0.25
 31
0.0
  0
LINE
  5
B7
330
8B
100
AcDbEntity
  8
0
  6
CONTINUOUS
 62
     0
100
AcDbLine
 10
-1.0
 20
0.125
 30
0.0
 11
0.0
 21
0.125
 31
0.0
  0
ENDBLK
  5
8D
330
8B
100
AcDbEntity
  8
0
100
AcDbBlockEnd
  0
BLOCK
  5
8F
330
8E
100
AcDbEntity
  8
0
100
AcDbBlockBegin
  2
EX_WCIR
 70
     0
 10
0.0
 20
0.0
 30
0.0
  3
EX_WCIR
  1

  0
LINE
  5
B8
330
8E
100
AcDbEntity
  8
0
  6
CONTINUOUS
 62
     0
100
AcDbLine
 10
0.0
 20
0.0
 30
0.0
 11
-1.0
 21
0.0
 31
0.0
  0
CIRCLE
  5
B9
330
8E
100
AcDbEntity
  8
0
  6
CONTINUOUS
 62
     0
100
AcDbCircle
 10
0.0
 20
0.0
 30
0.0
 40
0.5
  0
ENDBLK
  5
90
330
8E
100
AcDbEntity
  8
0
100
AcDbBlockEnd
  0
BLOCK
  5
92
330
91
100
AcDbEntity
  8
0
100
AcDbBlockBegin
  2
EX_WCIR2
 70
     0
 10
0.0
 20
0.0
 30
0.0
  3
EX_WCIR2
  1

  0
LINE
  5
BA
330
91
100
AcDbEntity
  8
0
  6
CONTINUOUS
 62
     0
100
AcDbLine
 10
-0.5
 20
0.0
 30
0.0
 11
-1.0
 21
0.0
 31
0.0
  0
CIRCLE
  5
BB
330
91
100
AcDbEntity
  8
0
  6
CONTINUOUS
 62
     0
100
AcDbCircle
 10
0.0
 20
0.0
 30
0.0
 40
0.5
  0
ENDBLK
  5
93
330
91
100
AcDbEntity
  8
0
100
AcDbBlockEnd
  0
BLOCK
  5
95
330
94
100
AcDbEntity
  8
0
100
AcDbBlockBegin
  2
EX_WNORM
 70
     0
 10
0.0
 20
0.0
 30
0.0
  3
EX_WNORM
  1

  0
LINE
  5
BC
330
94
100
AcDbEntity
  8
0
  6
CONTINUOUS
 62
     0
100
AcDbLine
 10
-1.0
 20
0.0
 30
0.0
 11
-1.0
 21
0.0
 31
0.0
  0
LINE
  5
BD
330
94
100
AcDbEntity
  8
0
  6
CONTINUOUS
 62
     0
100
AcDbLine
 10
0.0
 20
0.0
 30
0.0
 11
-1.0
 21
0.166666667
 31
0.0
  0
LINE
  5
BE
330
94
100
AcDbEntity
  8
0
  6
CONTINUOUS
 62
     0
100
AcDbLine
 10
0.0
 20
0.0
 30
0.0
 11
-1.0
 21
-0.166666667
 31
0.0
  0
LINE
  5
BF
330
94
100
AcDbEntity
  8
0
  6
CONTINUOUS
 62
     0
100
AcDbLine
 10
-1.0
 20
0.166666667
 30
0.0
 11
-1.0
 21
-0.166666667
 31
0.0
  0
ENDBLK
  5
96
330
94
100
AcDbEntity
  8
0
100
AcDbBlockEnd
  0
BLOCK
  5
98
330
97
100
AcDbEntity
  8
0
100
AcDbBlockBegin
  2
EX_NNORM
 70
     0
 10
0.0
 20
0.0
 30
0.0
  3
EX_NNORM
  1

  0
LINE
  5
C0
330
97
100
AcDbEntity
  8
0
  6
CONTINUOUS
 62
     0
100
AcDbLine
 10
0.0
 20
0.0
 30
0.0
 11
-1.0
 21
0.0
 31
0.0
  0
LINE
  5
C1
330
97
100
AcDbEntity
  8
0
  6
CONTINUOUS
 62
     0
100
AcDbLine
 10
0.0
 20
0.0
 30
0.0
 11
-1.0
 21
0.166666667
 31
0.0
  0
LINE
  5
C2
330
97
100
AcDbEntity
  8
0
  6
CONTINUOUS
 62
     0
100
AcDbLine
 10
0.0
 20
0.0
 30
0.0
 11
-1.0
 21
-0.166666667
 31
0.0
  0
LINE
  5
C3
330
97
100
AcDbEntity
  8
0
  6
CONTINUOUS
 62
     0
100
AcDbLine
 10
-1.0
 20
0.166666667
 30
0.0
 11
-1.0
 21
-0.166666667
 31
0.0
  0
ENDBLK
  5
99
330
97
100
AcDbEntity
  8
0
100
AcDbBlockEnd
  0
BLOCK
  5
9B
330
9A
100
AcDbEntity
  8
0
100
AcDbBlockBegin
  2
EX_BBOX
 70
     0
 10
0.0
 20
0.0
 30
0.0
  3
EX_BBOX
  1

  0
LINE
  5
C4
330
9A
100
AcDbEntity
  8
0
  6
CONTINUOUS
 62
     0
100
AcDbLine
 10
0.0
 20
0.0
 30
0.0
 11
-1.0
 21
0.0
 31
0.0
  0
LINE
  5
C5
330
9A
100
AcDbEntity
  8
0
  6
CONTINUOUS
 62
     0
100
AcDbLine
 10
-0.5
 20
0.5
 30
0.0
 11
0.5
 21
0.5
 31
0.0
  0
LINE
  5
C6
330
9A
100
AcDbEntity
  8
0
  6
CONTINUOUS
 62
     0
100
AcDbLine
 10
0.5
 20
0.5
 30
0.0
 11
0.5
 21
-0.5
 31
0.0
  0
LINE
  5
C7
330
9A
100
AcDbEntity
  8
0
  6
CONTINUOUS
 62
     0
100
AcDbLine
 10
0.5
 20
-0.5
 30
0.0
 11
-0.5
 21
-0.5
 31
0.0
  0
LINE
  5
C8
330
9A
100
AcDbEntity
  8
0
  6
CONTINUOUS
 62
     0
100
AcDbLine
 10
-0.5
 20
-0.5
 30
0.0
 11
-0.5
 21
0.5
 31
0.0
  0
LINE
  5
C9
330
9A
100
AcDbEntity
  8
0
  6
CONTINUOUS
 62
     0
100
AcDbLine
 10
-0.25
 20
0.25
 30
0.0
 11
0.25
 21
0.25
 31
0.0
  0
LINE
  5
CA
330
9A
100
AcDbEntity
  8
0
  6
CONTINUOUS
 62
     0
100
AcDbLine
 10
0.25
 20
0.25
 30
0.0
 11
0.25
 21
-0.25
 31
0.0
  0
LINE
  5
CB
330
9A
100
AcDbEntity
  8
0
  6
CONTINUOUS
 62
     0
100
AcDbLine
 10
0.25
 20
-0.25
 30
0.0
 11
-0.25
 21
-0.25
 31
0.0
  0
LINE
  5
CC
330
9A
100
AcDbEntity
  8
0
  6
CONTINUOUS
 62
     0
100
AcDbLine
 10
-0.25
 20
-0.25
 30
0.0
 11
-0.25
 21
0.25
 31
0.0
  0
ENDBLK
  5
9C
330
9A
100
AcDbEntity
  8
0
100
AcDbBlockEnd
  0
BLOCK
  5
9E
330
9D
100
AcDbEntity
  8
0
100
AcDbBlockBegin
  2
EX_WBOX
 70
     0
 10
0.0
 20
0.0
 30
0.0
  3
EX_WBOX
  1

  0
LINE
  5
CD
330
9D
100
AcDbEntity
  8
0
  6
CONTINUOUS
 62
     0
100
AcDbLine
 10
-0.5
 20
0.0
 30
0.0
 11
-1.0
 21
0.0
 31
0.0
  0
LINE
  5
CE
330
9D
100
AcDbEntity
  8
0
  6
CONTINUOUS
 62
     0
100
AcDbLine
 10
-0.5
 20
0.5
 30
0.0
 11
0.5
 21
0.5
 31
0.0
  0
LINE
  5
CF
330
9D
100
AcDbEntity
  8
0
  6
CONTINUOUS
 62
     0
100
AcDbLine
 10
0.5
 20
0.5
 30
0.0
 11
0.5
 21
-0.5
 31
0.0
  0
LINE
  5
D0
330
9D
100
AcDbEntity
  8
0
  6
CONTINUOUS
 62
     0
100
AcDbLine
 10
0.5
 20
-0.5
 30
0.0
 11
-0.5
 21
-0.5
 31
0.0
  0
LINE
  5
D1
330
9D
100
AcDbEntity
  8
0
  6
CONTINUOUS
 62
     0
100
AcDbLine
 10
-0.5
 20
-0.5
 30
0.0
 11
-0.5
 21
0.5
 31
0.0
  0
ENDBLK
  5
9F
330
9D
100
AcDbEntity
  8
0
100
AcDbBlockEnd
  0
BLOCK
  5
A1
330
A0
100
AcDbEntity
  8
0
100
AcDbBlockBegin
  2
EX_INTEGRAL
 70
     0
 10
0.0
 20
0.0
 30
0.0
  3
EX_INTEGRAL
  1

  0
LINE
  5
D2
330
A0
100
AcDbEntity
  8
0
  6
CONTINUOUS
 62
     0
100
AcDbLine
 10
0.0
 20
0.0
 30
0.0
 11
-1.0
 21
0.0
 31
0.0
  0
ARC
  5
D3
330
A0
100
AcDbEntity
  8
0
  6
CONTINUOUS
 62
     0
100
AcDbCircle
 10
0.542115
 20
0.164992
 30
0.0
 40
0.56667
100
AcDbArc
 50
73.07249033629006
 51
196.9275130221199
  0
ARC
  5
D4
330
A0
100
AcDbEntity
  8
0
  6
CONTINUOUS
 62
     0
100
AcDbCircle
 10
-0.542115
 20
-0.164992
 30
0.0
 40
0.56667
100
AcDbArc
 50
253.0724869220464
 51
16.9275130559125
  0
ENDBLK
  5
A2
330
A0
100
AcDbEntity
  8
0
100
AcDbBlockEnd
  0
ENDSEC
  0
SECTION
  2
ENTITIES
  0
TEXT
  5
D5
330
1F
100
AcDbEntity
  8
LAY-1
  6
CONTINUOUS
 62
     3
100
AcDbText
 10
554.776
 20
123.4548664
 30
0.0
 40
6.2362208
  1
型式
 41
1.760849960901652
  7
EXCADSTD
 72
     5
 11
572.0319343814849
 21
123.4548664
 31
0.0
100
AcDbText
  0
TEXT
  5
D6
330
1F
100
AcDbEntity
  8
LAY-1
  6
CONTINUOUS
 62
     3
100
AcDbText
 10
554.584
 20
112.1908664
 30
0.0
 40
6.2362208
  1
品名
 41
1.760849960901652
  7
EXCADSTD
 72
     5
 11
571.8399343814849
 21
112.1908664
 31
0.0
100
AcDbText
  0
LINE
  5
D7
330
1F
100
AcDbEntity
  8
LAY-1
  6
CONTINUOUS
 62
     4
100
AcDbLine
 10
551.0000000000001
 20
99.75999999999998
 30
0.0
 11
694.36
 21
99.75999999999998
 31
0.0
  0
LINE
  5
D8
330
1F
100
AcDbEntity
  8
LAY-1
  6
CONTINUOUS
 62
     1
100
AcDbLine
 10
551.0000000000001
 20
109.52
 30
0.0
 11
694.36
 21
109.52
 31
0.0
  0
TEXT
  5
D9
330
1F
100
AcDbEntity
  8
LAY-1
  6
CONTINUOUS
 62
     3
100
AcDbText
 10
601.9440000000001
 20
101.8868664
 30
0.0
 40
6.2362208
  1
外観図
 41
2.632270902717889
  7
EXCADSTD
 72
     5
 11
641.8100262044271
 21
101.8868664
 31
0.0
100
AcDbText
  0
LINE
  5
DA
330
1F
100
AcDbEntity
  8
LAY-1
  6
CONTINUOUS
 62
     4
100
AcDbLine
 10
551.0000000000001
 20
143.12
 30
0.0
 11
694.36
 21
143.12
 31
0.0
  0
LINE
  5
DB
330
1F
100
AcDbEntity
  8
LAY-1
  6
CONTINUOUS
 62
     1
100
AcDbLine
 10
551.0000000000001
 20
120.72
 30
0.0
 11
694.36
 21
120.72
 31
0.0
  0
LINE
  5
DC
330
1F
100
AcDbEntity
  8
LAY-1
  6
CONTINUOUS
 62
     1
100
AcDbLine
 10
551.0000000000001
 20
131.92
 30
0.0
 11
694.36
 21
131.92
 31
0.0
  0
LINE
  5
DD
330
1F
100
AcDbEntity
  8
LAY-1
  6
CONTINUOUS
 62
     1
100
AcDbLine
 10
575.0000000000001
 20
143.12
 30
0.0
 11
575.0000000000001
 21
109.52
 31
0.0
  0
LINE
  5
DE
330
1F
100
AcDbEntity
  8
LAY-1
  6
CONTINUOUS
 62
     4
100
AcDbLine
 10
551.0000000000001
 20
89.99999999999999
 30
0.0
 11
694.36
 21
89.99999999999999
 31
0.0
  0
LINE
  5
DF
330
1F
100
AcDbEntity
  8
LAY-1
  6
CONTINUOUS
 62
     4
100
AcDbLine
 10
694.36
 20
90.0
 30
0.0
 11
694.36
 21
143.12
 31
0.0
  0
LINE
  5
E0
330
1F
100
AcDbEntity
  8
LAY-1
  6
CONTINUOUS
 62
     4
100
AcDbLine
 10
551.0000000000001
 20
89.99999999999999
 30
0.0
 11
551.0000000000001
 21
143.12
 31
0.0
  0
TEXT
  5
E1
330
1F
100
AcDbEntity
  8
LAY-1
  6
CONTINUOUS
 62
     3
100
AcDbText
 10
552.024
 20
134.3988664
 30
0.0
 40
6.2362208
  1
作成日
 41
1.500154407240852
  7
EXCADSTD
 72
     5
 11
574.744
 21
134.3988664
 31
0.0
100
AcDbText
  0
HATCH
  5
E2
330
1F
100
AcDbEntity
  8
LAY-1
  6
CONTINUOUS
 62
     3
100
AcDbHatch
 10
0.0
 20
0.0
 30
0.0
210
0.0
220
0.0
230
1.0
  2
SOLID
 70
     1
 71
     1
 91
        1
 92
        3
 72
     0
 73
     1
 93
       16
 10
651.9039597444977
 20
92.43834285714266
 10
653.4185311730691
 20
92.43834285714266
 10
653.4185311730691
 20
91.46119999999979
 10
649.3633883159262
 20
91.46119999999979
 10
649.3633883159262
 20
92.43834285714266
 10
650.9268168873548
 20
92.43834285714266
 10
650.9268168873548
 20
95.27205714285695
 10
649.7053883159263
 20
95.27205714285695
 10
649.7053883159263
 20
96.24919999999982
 10
650.9268168873548
 20
96.24919999999982
 10
650.9268168873548
 20
98.30119999999981
 10
651.9039597444977
 20
98.30119999999981
 10
651.9039597444977
 20
96.24919999999982
 10
653.3208168873548
 20
96.24919999999982
 10
653.3208168873548
 20
95.27205714285695
 10
651.9039597444977
 20
95.27205714285695
 97
        0
 75
     0
 76
     1
 98
        1
 10
0.0
 20
0.0
  0
HATCH
  5
E3
330
1F
100
AcDbEntity
  8
LAY-1
  6
CONTINUOUS
 62
     3
100
AcDbHatch
 10
0.0
 20
0.0
 30
0.0
210
0.0
220
0.0
230
1.0
  2
SOLID
 70
     1
 71
     1
 91
        1
 92
        3
 72
     1
 73
     1
 93
       17
 10
647.946531173069
 20
94.07038242838377
 42
-0.0318950211674973
 10
647.1159597444976
 20
93.31777142857126
 42
0.0
 10
646.6212308981994
 20
94.17466692632972
 42
0.0949916016553095
 10
648.495419382113
 20
96.4446285714284
 42
0.0
 10
646.8716740302119
 20
96.4446285714284
 42
0.0
 10
646.8716740302119
 20
97.32405714285694
 42
0.0
 10
647.9465311730692
 20
97.32405714285694
 42
0.0
 10
647.9465311730692
 20
98.30119999999981
 42
0.0
 10
648.8259597444977
 20
98.30119999999981
 42
0.0
 10
648.8259597444977
 20
97.32405714285694
 42
0.0
 10
649.9496740302119
 20
97.32405714285694
 42
-0.0602864643380152
 10
649.0243120402813
 20
95.4244299441546
 42
0.0
 10
650.1939597444975
 20
94.2949142857141
 42
0.0
 10
649.5029101538241
 20
93.60386469504051
 42
0.0
 10
648.8259597444977
 20
94.25758810642809
 42
0.0
 10
648.8259597444977
 20
91.46119999999979
 42
0.0
 10
647.9465311730692
 20
91.46119999999979
 42
0.0
 97
        0
 75
     0
 76
     1
 98
        1
 10
0.0
 20
0.0
  0
HATCH
  5
E4
330
1F
100
AcDbEntity
  8
LAY-1
  6
CONTINUOUS
 62
     3
100
AcDbHatch
 10
0.0
 20
0.0
 30
0.0
210
0.0
220
0.0
230
1.0
  2
SOLID
 70
     1
 71
     1
 91
        1
 92
        3
 72
     1
 73
     1
 93
       12
 10
641.9572191578031
 20
93.70862857142838
 42
0.0256955875094629
 10
641.3334527877244
 20
92.43834285714259
 42
0.0
 10
644.3418498928296
 20
92.4383428571427
 42
0.0232158240455905
 10
644.0772074360798
 20
93.22005714285694
 42
0.0
 10
645.0151026016405
 20
93.22005714285694
 42
-0.046485170158253
 10
645.4548168873547
 20
91.46119999999979
 42
0.0
 10
640.0316740302118
 20
91.46119999999979
 42
-0.041546145622575
 10
640.9599597444976
 20
93.70862857142839
 42
0.0
 10
639.5919597444977
 20
93.70862857142839
 42
0.0
 10
639.5919597444977
 20
94.68577142857126
 42
0.0
 10
645.845674030212
 20
94.68577142857126
 42
0.0
 10
645.845674030212
 20
93.70862857142839
 42
0.0
 97
        0
 75
     0
 76
     1
 98
        1
 10
0.0
 20
0.0
  0
HATCH
  5
E5
330
1F
100
AcDbEntity
  8
LAY-1
  6
CONTINUOUS
 62
     3
100
AcDbHatch
 10
0.0
 20
0.0
 30
0.0
210
0.0
220
0.0
230
1.0
  2
SOLID
 70
     1
 71
     1
 91
        1
 92
        3
 72
     1
 73
     1
 93
       10
 10
644.1005197188153
 20
96.10262857142838
 42
-0.0302425323326154
 10
642.7188168873552
 20
97.39154640514707
 42
0.0
 10
642.7188168873552
 20
98.30119999999981
 42
0.0
 10
643.2073883159264
 20
98.30119999999982
 42
0.0677425484492925
 10
646.2365311730691
 20
95.7606285714284
 42
0.0
 10
645.602992612273
 20
95.00560671555267
 42
-0.0240292596661282
 10
644.3799597444977
 20
95.87724668698287
 42
0.0
 10
644.3799597444977
 20
95.12548571428552
 42
0.0
 10
642.7188168873552
 20
95.12548571428552
 42
0.0
 10
642.7188168873552
 20
96.10262857142838
 42
0.0
 97
        0
 75
     0
 76
     1
 98
        1
 10
0.0
 20
0.0
  0
HATCH
  5
E6
330
1F
100
AcDbEntity
  8
LAY-1
  6
CONTINUOUS
 62
     3
100
AcDbHatch
 10
0.0
 20
0.0
 30
0.0
210
0.0
220
0.0
230
1.0
  2
SOLID
 70
     1
 71
     1
 91
        1
 92
        3
 72
     1
 73
     1
 93
       10
 10
641.0576740302118
 20
95.87724668698286
 42
-0.0240292596661285
 10
639.8346411624366
 20
95.00560671555263
 42
0.0
 10
639.2011026016404
 20
95.76062857142838
 42
0.0677425484492926
 10
642.2302454587833
 20
98.30119999999981
 42
0.0
 10
642.7188168873552
 20
98.30119999999981
 42
0.0
 10
642.7188168873548
 20
97.39154640514738
 42
-0.0302425323326223
 10
641.3371140558944
 20
96.10262857142838
 42
0.0
 10
642.7188168873552
 20
96.10262857142838
 42
0.0
 10
642.7188168873552
 20
95.12548571428552
 42
0.0
 10
641.057674030212
 20
95.12548571428552
 42
0.0
 97
        0
 75
     0
 76
     1
 98
        1
 10
0.0
 20
0.0
  0
HATCH
  5
E7
330
1F
100
AcDbEntity
  8
LAY-1
  6
CONTINUOUS
 62
     3
100
AcDbHatch
 10
0.0
 20
0.0
 30
0.0
210
0.0
220
0.0
230
1.0
  2
SOLID
 70
     1
 71
     1
 91
        1
 92
        3
 72
     1
 73
     1
 93
       18
 10
637.4631467914634
 20
97.22634285714268
 42
0.0204820379415322
 10
637.1472825928813
 20
98.30119999999981
 42
0.0
 10
638.1751026016404
 20
98.30119999999981
 42
-0.0190097908790505
 10
638.4682454587833
 20
97.22634285714268
 42
0.0
 10
638.8591026016404
 20
97.22634285714268
 42
0.0
 10
638.8591026016404
 20
96.2491999999998
 42
0.0
 10
637.0322883393806
 20
96.2491999999998
 42
0.0682208717797832
 10
637.839933037709
 20
93.58198326766698
 42
0.1684438597742044
 10
638.8591026016404
 20
92.5182637741585
 42
0.0
 10
638.8591026016405
 20
91.46119999999979
 42
-0.2072347897570727
 10
636.9518488615521
 20
93.17441160608426
 42
-0.0716932219901562
 10
636.0439394773953
 20
96.24919999999982
 42
0.0
 10
632.3122454587833
 20
96.2491999999998
 42
0.0
 10
632.3122454587833
 20
97.22634285714268
 42
0.0
 10
635.9430041711569
 20
97.22634285714268
 42
0.0
 10
635.9054693326345
 20
98.30119999999981
 42
0.0
 10
636.8832078016351
 20
98.30119999999981
 42
0.0
 10
636.9207426401574
 20
97.22634285714268
 42
0.0
 97
        0
 75
     0
 76
     1
 98
        1
 10
0.0
 20
0.0
  0
HATCH
  5
E8
330
1F
100
AcDbEntity
  8
LAY-1
  6
CONTINUOUS
 62
     3
100
AcDbHatch
 10
0.0
 20
0.0
 30
0.0
210
0.0
220
0.0
230
1.0
  2
SOLID
 70
     1
 71
     1
 91
        1
 92
        3
 72
     1
 73
     1
 93
       12
 10
634.6573883159261
 20
92.94242747469386
 42
0.0077175353602689
 10
636.1231026016405
 20
93.13240061167781
 42
0.0
 10
636.1231026016403
 20
92.14519999999979
 42
-0.0196098337601156
 10
632.3122454587833
 20
91.75434285714266
 42
0.0
 10
632.3122454587833
 20
92.73346732828375
 42
0.0071653516467131
 10
633.6802454587834
 20
92.84122765356372
 42
0.0
 10
633.6802454587834
 20
94.39262857142836
 42
0.0
 10
632.3122454587833
 20
94.39262857142836
 42
0.0
 10
632.3122454587833
 20
95.36977142857123
 42
0.0
 10
635.8299597444977
 20
95.36977142857123
 42
0.0
 10
635.8299597444977
 20
94.39262857142836
 42
0.0
 10
634.6573883159263
 20
94.39262857142836
 42
0.0
 97
        0
 75
     0
 76
     1
 98
        1
 10
0.0
 20
0.0
  0
HATCH
  5
E9
330
1F
100
AcDbEntity
  8
LAY-1
  6
CONTINUOUS
 62
     3
100
AcDbHatch
 10
0.0
 20
0.0
 30
0.0
210
0.0
220
0.0
230
1.0
  2
SOLID
 70
     1
 71
     1
 91
        1
 92
        3
 72
     1
 73
     1
 93
       30
 10
628.8433883159262
 20
93.28484777782103
 42
-0.0382993261020998
 10
627.741249973642
 20
92.07476691371258
 42
0.0
 10
627.0845311730691
 20
92.73148571428558
 42
0.0560351536284794
 10
628.5013883159261
 20
94.39262857142839
 42
0.0
 10
627.3288168873548
 20
94.39262857142839
 42
0.0
 10
627.3288168873548
 20
95.36977142857124
 42
0.0
 10
628.8433883159262
 20
95.36977142857124
 42
0.0
 10
628.8433883159262
 20
96.34691428571409
 42
0.0
 10
628.3562054427493
 20
96.34691428571409
 42
-0.0155195045322601
 10
628.2078692301275
 20
95.70274794431408
 42
0.0
 10
627.3776740302118
 20
96.00491428571408
 42
0.051935582642784
 10
627.6708168873548
 20
98.00805714285987
 42
0.0
 10
628.5439570820821
 20
97.8540989685884
 42
-0.0147879602104266
 10
628.4922738445273
 20
97.22634285714268
 42
0.0
 10
628.8433883159262
 20
97.22634285714268
 42
0.0
 10
628.8433883159262
 20
98.30119999999981
 42
0.0
 10
629.8205311730691
 20
98.30119999999981
 42
0.0
 10
629.8205311730691
 20
97.22634285714268
 42
0.0
 10
631.139674030212
 20
97.22634285714268
 42
0.0
 10
631.139674030212
 20
96.34691428571409
 42
0.0
 10
629.8205311730691
 20
96.34691428571409
 42
0.0
 10
629.8205311730691
 20
95.36977142857124
 42
0.0
 10
631.3351026016405
 20
95.36977142857124
 42
0.0
 10
631.3351026016405
 20
94.39262857142839
 42
0.0
 10
630.1625311730689
 20
94.39262857142838
 42
0.0560351536284794
 10
631.579388315926
 20
92.73148571428555
 42
0.0
 10
630.922669515353
 20
92.07476691371258
 42
-0.0382993261020937
 10
629.8205311730691
 20
93.28484777782083
 42
0.0
 10
629.8205311730691
 20
91.46119999999979
 42
0.0
 10
628.8433883159262
 20
91.46119999999979
 42
0.0
 97
        0
 75
     0
 76
     1
 98
        1
 10
0.0
 20
0.0
  0
HATCH
  5
EA
330
1F
100
AcDbEntity
  8
LAY-1
  6
CONTINUOUS
 62
     3
100
AcDbHatch
 10
0.0
 20
0.0
 30
0.0
210
0.0
220
0.0
230
1.0
  2
SOLID
 70
     1
 71
     1
 91
        1
 92
        3
 72
     1
 73
     1
 93
       19
 10
625.8142454587833
 20
93.61110844410544
 42
-0.0200612023046241
 10
625.3873122348954
 20
92.87110068585848
 42
0.0
 10
624.690531173069
 20
93.41548571428554
 42
0.0725999339496624
 10
625.8142454587833
 20
96.0049142857141
 42
0.0
 10
624.9348168873548
 20
96.0049142857141
 42
0.0
 10
624.9348168873548
 20
96.98205714285696
 42
0.0
 10
625.8142454587834
 20
96.98205714285696
 42
0.0
 10
625.8142454587834
 20
98.30119999999981
 42
0.0
 10
626.7913883159263
 20
98.30119999999981
 42
0.0
 10
626.7913883159263
 20
96.98205714285696
 42
0.0
 10
627.2311026016405
 20
96.98205714285696
 42
0.0
 10
627.2311026016405
 20
96.0049142857141
 42
0.0
 10
626.7913883159262
 20
96.0049142857141
 42
0.0
 10
627.3288168873548
 20
95.237386742662
 42
0.0
 10
627.3288168873548
 20
94.64251491640492
 42
0.0
 10
627.0356740302118
 20
94.29316086326152
 42
0.0
 10
626.7913883159263
 20
94.64203701919418
 42
0.0
 10
626.7913883159263
 20
91.46119999999979
 42
0.0
 10
625.8142454587834
 20
91.46119999999979
 42
0.0
 97
        0
 75
     0
 76
     1
 98
        1
 10
0.0
 20
0.0
  0
HATCH
  5
EB
330
1F
100
AcDbEntity
  8
LAY-1
  6
CONTINUOUS
 62
     3
100
AcDbHatch
 10
0.0
 20
0.0
 30
0.0
210
0.0
220
0.0
230
1.0
  2
SOLID
 70
     1
 71
     1
 91
        1
 92
        3
 72
     1
 73
     1
 93
        8
 10
620.4867199781039
 20
92.41879999999965
 42
0.2679491924310503
 10
622.1453318314313
 20
93.37639999999966
 42
0.267949192431121
 10
622.1453318314313
 20
96.38599999999967
 42
0.2679491924310509
 10
620.4867199781039
 20
97.34359999999968
 42
0.0
 10
620.4867199781039
 20
98.4379999999999
 42
-0.2679491924310369
 10
623.093110033333
 20
96.93320000000006
 42
-0.2679491924311528
 10
623.0931100333328
 20
92.82919999999889
 42
-0.2679491924310151
 10
620.4867199781039
 20
91.32439999999954
 42
0.0
 97
        0
 75
     0
 76
     1
 98
        1
 10
0.0
 20
0.0
  0
HATCH
  5
EC
330
1F
100
AcDbEntity
  8
LAY-1
  6
CONTINUOUS
 62
     3
100
AcDbHatch
 10
0.0
 20
0.0
 30
0.0
210
0.0
220
0.0
230
1.0
  2
SOLID
 70
     1
 71
     1
 91
        1
 92
        3
 72
     1
 73
     1
 93
        8
 10
620.4867199781039
 20
91.32439999999954
 42
-0.2679491924311271
 10
617.8803299228738
 20
92.82919999999942
 42
-0.2679491924311523
 10
617.880329922874
 20
96.93320000000054
 42
-0.2679491924311101
 10
620.4867199781039
 20
98.4379999999999
 42
0.0
 10
620.4867199781039
 20
97.34359999999968
 42
0.2679491924311969
 10
618.8281081247753
 20
96.38599999999965
 42
0.2679491924311206
 10
618.8281081247753
 20
93.37639999999966
 42
0.267949192431196
 10
620.4867199781039
 20
92.41879999999965
 42
0.0
 97
        0
 75
     0
 76
     1
 98
        1
 10
0.0
 20
0.0
  0
HATCH
  5
ED
330
1F
100
AcDbEntity
  8
LAY-1
  6
CONTINUOUS
 62
     3
100
AcDbHatch
 10
0.0
 20
0.0
 30
0.0
210
0.0
220
0.0
230
1.0
  2
SOLID
 70
     1
 71
     1
 91
        1
 92
        3
 72
     0
 73
     1
 93
        4
 10
616.2459199781033
 20
93.64999999999966
 10
615.1515199781034
 20
93.64999999999966
 10
615.1515199781034
 20
94.74439999999966
 10
616.2459199781033
 20
94.74439999999966
 97
        0
 75
     0
 76
     1
 98
        1
 10
0.0
 20
0.0
  0
HATCH
  5
EE
330
1F
100
AcDbEntity
  8
LAY-1
  6
CONTINUOUS
 62
     3
100
AcDbHatch
 10
0.0
 20
0.0
 30
0.0
210
0.0
220
0.0
230
1.0
  2
SOLID
 70
     1
 71
     1
 91
        1
 92
        3
 72
     0
 73
     1
 93
       16
 10
611.0475199781033
 20
97.20679999999967
 10
609.5427199781034
 20
97.20679999999967
 10
609.2691199781034
 20
95.70199999999967
 10
608.4483199781034
 20
95.70199999999967
 10
608.4483199781034
 20
98.30119999999968
 10
614.7411199781034
 20
98.30119999999968
 10
614.7411199781034
 20
95.70199999999967
 10
613.9203199781034
 20
95.70199999999967
 10
613.6467199781034
 20
97.20679999999967
 10
612.1419199781033
 20
97.20679999999967
 10
612.1419199781034
 20
92.55559999999966
 10
613.2363199781034
 20
92.28199999999966
 10
613.2363199781034
 20
91.46119999999965
 10
609.9531199781034
 20
91.46119999999965
 10
609.9531199781034
 20
92.28199999999966
 10
611.0475199781033
 20
92.55559999999966
 97
        0
 75
     0
 76
     1
 98
        1
 10
0.0
 20
0.0
  0
HATCH
  5
EF
330
1F
100
AcDbEntity
  8
LAY-1
  6
CONTINUOUS
 62
     3
100
AcDbHatch
 10
0.0
 20
0.0
 30
0.0
210
0.0
220
0.0
230
1.0
  2
SOLID
 70
     1
 71
     1
 91
        1
 92
        3
 72
     0
 73
     1
 93
        4
 10
606.9435199781033
 20
93.64999999999966
 10
606.9435199781034
 20
94.74439999999973
 10
608.0379199781033
 20
94.74439999999966
 10
608.0379199781033
 20
93.64999999999966
 97
        0
 75
     0
 76
     1
 98
        1
 10
0.0
 20
0.0
  0
HATCH
  5
F0
330
1F
100
AcDbEntity
  8
LAY-1
  6
CONTINUOUS
 62
     3
100
AcDbHatch
 10
0.0
 20
0.0
 30
0.0
210
0.0
220
0.0
230
1.0
  2
SOLID
 70
     1
 71
     1
 91
        1
 92
        3
 72
     0
 73
     1
 93
       12
 10
605.7123199781033
 20
98.30119999999968
 10
605.7123199781033
 20
97.48039999999968
 10
604.6179199781034
 20
97.20679999999967
 10
604.6179199781034
 20
92.55559999999966
 10
605.7123199781033
 20
92.28199999999966
 10
605.7123199781033
 20
91.46119999999965
 10
602.4291199781032
 20
91.46119999999965
 10
602.4291199781032
 20
92.28199999999966
 10
603.5235199781033
 20
92.55559999999966
 10
603.5235199781033
 20
97.20679999999967
 10
602.4291199781032
 20
97.48039999999968
 10
602.4291199781032
 20
98.30119999999968
 97
        0
 75
     0
 76
     1
 98
        1
 10
0.0
 20
0.0
  0
HATCH
  5
F1
330
1F
100
AcDbEntity
  8
LAY-1
  6
CONTINUOUS
 62
     3
100
AcDbHatch
 10
0.0
 20
0.0
 30
0.0
210
0.0
220
0.0
230
1.0
  2
SOLID
 70
     1
 71
     1
 91
        1
 92
        3
 72
     1
 73
     1
 93
       15
 10
593.2722589605594
 20
92.37215605212651
 42
-0.2479327466132013
 10
591.9466229422995
 20
94.88119999999999
 42
0.0
 10
593.09269594265
 20
94.88119999999999
 42
0.0851341857469254
 10
593.2615877409528
 20
93.8964739592223
 42
0.0986382041447898
 10
593.7609294083205
 20
94.01500406767741
 42
0.2932733248970212
 10
594.0003816203407
 20
94.38813228959052
 42
0.0
 10
594.0003816203407
 20
94.88119999999999
 42
0.0
 10
594.9854401261913
 20
94.88119999999999
 42
0.0
 10
594.9854401261914
 20
94.3872613670334
 42
0.2932733248970227
 10
595.2248923382116
 20
94.01413314512027
 42
0.0986382041447956
 10
595.7242340055793
 20
93.8956030366652
 42
0.0
 10
595.7242340055793
 20
93.64933841020257
 42
0.0
 10
593.3616884129916
 20
93.64933841020256
 42
0.2846821906946901
 10
595.954977057685
 20
91.92748488687224
 42
0.0
 10
595.9549770576851
 20
91.51645954240523
 42
-0.1459753572646559
 97
        0
 75
     0
 76
     1
 98
        1
 10
0.0
 20
0.0
  0
HATCH
  5
F2
330
1F
100
AcDbEntity
  8
LAY-1
  6
CONTINUOUS
 62
     3
100
AcDbHatch
 10
0.0
 20
0.0
 30
0.0
210
0.0
220
0.0
230
1.0
  2
SOLID
 70
     1
 71
     1
 91
        1
 92
        3
 72
     1
 73
     1
 93
       24
 10
595.4779097113206
 20
95.70208208820866
 42
0.3027756377320026
 10
595.0990410552242
 20
95.44950298414439
 42
0.0990195135927522
 10
594.9853804583953
 20
94.88119999999999
 42
0.0
 10
594.0003816203407
 20
94.88119999999999
 42
0.0
 10
594.0003816203408
 20
97.01212648751722
 42
0.2041065183978106
 10
593.0926959426499
 20
94.88119999999999
 42
0.0
 10
591.9466229422995
 20
94.88119999999999
 42
-0.2479327466131622
 10
593.2722589605595
 20
97.39024394787313
 42
-0.0425119632079822
 10
594.0003816203407
 20
97.80106551054334
 42
0.0
 10
594.0003816203408
 20
98.24714902672909
 42
0.2932733248970212
 10
593.7609294083204
 20
98.62027724864221
 42
0.0986382041447921
 10
593.2615877409528
 20
98.73880735709729
 42
0.0
 10
593.2615877409528
 20
98.98507198355992
 42
0.0
 10
595.7242340055793
 20
98.98507198355992
 42
0.0
 10
595.7242340055792
 20
98.73880735709729
 42
0.0986382041447851
 10
595.2248923382116
 20
98.6202772486422
 42
0.2932733248969983
 10
594.9854401261914
 20
98.24714902672909
 42
0.0
 10
594.9854401261914
 20
98.13086350464103
 42
-0.0496798992579211
 10
595.954977057685
 20
98.2459404575944
 42
0.0
 10
595.954977057685
 20
97.83491511312744
 42
0.0842759109890063
 10
594.9854401261913
 20
97.63878988974956
 42
0.0
 10
594.9854401261913
 20
96.11252313231306
 42
0.0
 10
595.9549770576851
 20
96.11252313231306
 42
0.0
 10
595.954977057685
 20
95.70208208820864
 42
0.0
 97
        0
 75
     0
 76
     1
 98
        1
 10
0.0
 20
0.0
  0
HATCH
  5
F3
330
1F
100
AcDbEntity
  8
LAY-1
  6
CONTINUOUS
 62
     3
100
AcDbHatch
 10
0.0
 20
0.0
 30
0.0
210
0.0
220
0.0
230
1.0
  2
SOLID
 70
     1
 71
     1
 91
        1
 92
        3
 72
     1
 73
     1
 93
       14
 10
599.0030469777536
 20
94.88119999999999
 42
0.0405216457160254
 10
598.964354872477
 20
95.35784121250818
 42
0.3675231814697204
 10
598.5592877318832
 20
95.70208208820864
 42
0.0
 10
597.6896356366194
 20
95.70208208820864
 42
0.0
 10
597.6896356366194
 20
94.88119999999999
 42
0.0
 10
596.7045771307688
 20
94.88119999999999
 42
0.0
 10
596.7045771307688
 20
95.70208208820864
 42
0.0
 10
595.954977057685
 20
95.70208208820864
 42
0.0
 10
595.954977057685
 20
96.11252313231306
 42
0.0
 10
598.7343013743011
 20
96.11252313231306
 42
0.3018084962625866
 10
595.954977057685
 20
97.83491511312744
 42
0.0
 10
595.9549770576851
 20
98.2459404575944
 42
-0.1556207860285077
 10
598.8234839598441
 20
97.3902439478731
 42
-0.2479327466131704
 10
600.149119978104
 20
94.88119999999999
 42
0.0
 97
        0
 75
     0
 76
     1
 98
        1
 10
0.0
 20
0.0
  0
HATCH
  5
F4
330
1F
100
AcDbEntity
  8
LAY-1
  6
CONTINUOUS
 62
     3
100
AcDbHatch
 10
0.0
 20
0.0
 30
0.0
210
0.0
220
0.0
230
1.0
  2
SOLID
 70
     1
 71
     1
 91
        1
 92
        3
 72
     1
 73
     1
 93
       19
 10
597.6896356366194
 20
92.42403237678624
 42
0.2504916501726884
 10
599.0030469777535
 20
94.88119999999999
 42
0.0
 10
600.149119978104
 20
94.88119999999999
 42
-0.2479327466132034
 10
598.823483959844
 20
92.37215605212644
 42
-0.0647982499650098
 10
597.6896356366194
 20
91.79726563858046
 42
0.0
 10
597.6896356366193
 20
91.51471251578654
 42
0.2932733248970212
 10
597.9290878486398
 20
91.14158429387342
 42
0.0986382041447949
 10
598.4284295160073
 20
91.02305418541835
 42
0.0
 10
598.4284295160073
 20
90.7767895589557
 42
0.0
 10
595.9657832513809
 20
90.7767895589557
 42
0.0
 10
595.9657832513809
 20
91.02305418541835
 42
0.0986382041447934
 10
596.4651249187485
 20
91.14158429387344
 42
0.2932733248970212
 10
596.7045771307688
 20
91.51471251578654
 42
0.0
 10
596.7045771307688
 20
91.55956014489483
 42
-0.0381668652852349
 10
595.954977057685
 20
91.51645954240523
 42
0.0
 10
595.954977057685
 20
91.92748488687224
 42
0.0639702334410101
 10
596.7045771307688
 20
91.99991556388763
 42
0.0
 10
596.7045771307688
 20
94.88119999999999
 42
0.0
 10
597.6896356366194
 20
94.88119999999999
 42
0.0
 97
        0
 75
     0
 76
     1
 98
        1
 10
0.0
 20
0.0
  0
TEXT
  5
F5
330
1F
100
AcDbEntity
  8
LAY-1
  6
CONTINUOUS
 62
     3
100
AcDbText
 10
578.9744
 20
123.3588664
 30
0.0
 40
6.2362208
  1
Ｄ７－１５Ｆ
 41
1.498343355642572
  7
EXCADSTD
 72
     5
 11
625.6944
 21
123.3588664
 31
0.0
100
AcDbText
  0
TEXT
  5
F6
330
1F
100
AcDbEntity
  8
LAY-1
  6
CONTINUOUS
 62
     3
100
AcDbText
 10
578.9616
 20
112.1972664
 30
0.0
 40
6.2362208
  1
１５Ａフランジ式ストレーナバルブ
 41
1.166286222206899
  7
EXCADSTD
 72
     5
 11
677.6695639685154
 21
112.1972664
 31
0.0
100
AcDbText
  0
TEXT
  5
F7
330
1F
100
AcDbEntity
  8
LAY-1
  6
CONTINUOUS
 62
     3
100
AcDbText
 10
583.192
 20
134.3988664
 30
0.0
 40
6.2362208
  1
２０１４年　６月２６日
 41
1.497553922894604
  7
EXCADSTD
 72
     5
 11
669.912
 21
134.3988664
 31
0.0
100
AcDbText
  0
LINE
  5
F8
330
1F
100
AcDbEntity
  8
LAY-1
  6
CONTINUOUS
 62
     1
100
AcDbLine
 10
344.26830044415
 20
81.50000000001003
 30
0.0
 11
307.45307735076
 21
81.50000000001003
 31
0.0
  0
LINE
  5
F9
330
1F
100
AcDbEntity
  8
LAY-1
  6
CONTINUOUS
 62
     1
100
AcDbLine
 10
375.65307735078
 20
199.00000000002
 30
0.0
 11
307.45307735076
 21
199.00000000002
 31
0.0
  0
TEXT
  5
FA
330
1F
100
AcDbEntity
  8
LAY-1
  6
CONTINUOUS
 62
     3
100
AcDbText
 10
305.61449435076
 20
125.250000000015
 30
0.0
 40
7.795275999999999
  1
１１８
 50
90.0
 41
1.50015440724085
  7
EXCADSTD
 72
     5
 11
305.61449435076
 21
153.650000000015
 31
0.0
100
AcDbText
  0
LINE
  5
FB
330
1F
100
AcDbEntity
  8
LAY-1
  6
CONTINUOUS
 62
     1
100
AcDbLine
 10
307.95307735076
 20
81.50000000001003
 30
0.0
 11
307.95307735076
 21
199.00000000002
 31
0.0
  0
LINE
  5
FC
330
1F
100
AcDbEntity
  8
LAY-1
  6
CONTINUOUS
 62
     1
100
AcDbLine
 10
307.6197440174267
 20
83.50000000001003
 30
0.0
 11
307.95307735076
 21
81.50000000001003
 31
0.0
  0
LINE
  5
FD
330
1F
100
AcDbEntity
  8
LAY-1
  6
CONTINUOUS
 62
     1
100
AcDbLine
 10
307.95307735076
 20
81.50000000001003
 30
0.0
 11
308.2864106840933
 21
83.50000000001003
 31
0.0
  0
LINE
  5
FE
330
1F
100
AcDbEntity
  8
LAY-1
  6
CONTINUOUS
 62
     1
100
AcDbLine
 10
308.2864106840933
 20
197.00000000002
 30
0.0
 11
307.95307735076
 21
199.00000000002
 31
0.0
  0
LINE
  5
FF
330
1F
100
AcDbEntity
  8
LAY-1
  6
CONTINUOUS
 62
     1
100
AcDbLine
 10
307.95307735076
 20
199.00000000002
 30
0.0
 11
307.6197440174267
 21
197.00000000002
 31
0.0
  0
TEXT
  5
100
330
1F
100
AcDbEntity
  8
LAY-1
  6
CONTINUOUS
 62
     3
100
AcDbText
 10
488.94692264924
 20
17.74840528940293
 30
0.0
 40
7.795275999999999
  1
ＪＩＳ２０Ｋ　１５Ａフランジ
 41
1.49735418689813
  7
EXCADSTD
 72
     5
 11
627.34692264924
 21
17.74840528940293
 31
0.0
100
AcDbText
  0
POLYLINE
  5
101
330
1F
100
AcDbEntity
  8
LAY-1
  6
CONTINUOUS
 62
     1
100
AcDb2dPolyline
 66
     1
 10
0.0
 20
0.0
 30
0.0
 70
   128
  0
VERTEX
  5
102
330
101
100
AcDbEntity
  8
LAY-1
  6
CONTINUOUS
 62
     1
100
AcDbVertex
100
AcDb2dVertex
 10
463.15307735076
 20
37.9
 30
0.0
  0
VERTEX
  5
103
330
101
100
AcDbEntity
  8
LAY-1
  6
CONTINUOUS
 62
     1
100
AcDbVertex
100
AcDb2dVertex
 10
487.9530773507599
 20
16.10982227748199
 30
0.0
  0
VERTEX
  5
104
330
101
100
AcDbEntity
  8
LAY-1
  6
CONTINUOUS
 62
     1
100
AcDbVertex
100
AcDb2dVertex
 10
633.9530773507599
 20
16.10982227748201
 30
0.0
  0
SEQEND
  5
105
330
101
100
AcDbEntity
  8
LAY-1
  6
CONTINUOUS
 62
     1
  0
LINE
  5
106
330
1F
100
AcDbEntity
  8
LAY-1
  6
CONTINUOUS
 62
     1
100
AcDbLine
 10
464.8755369135897
 20
36.83030650860741
 30
0.0
 11
463.15307735076
 21
37.9
 31
0.0
  0
LINE
  5
107
330
1F
100
AcDbEntity
  8
LAY-1
  6
CONTINUOUS
 62
     1
100
AcDbLine
 10
463.15307735076
 20
37.9
 30
0.0
 11
464.4355033724445
 21
36.32949224452171
 31
0.0
  0
TEXT
  5
108
330
1F
100
AcDbEntity
  8
LAY-1
  6
CONTINUOUS
 62
     3
100
AcDbText
 10
180.6391531325101
 20
17.74840528940304
 30
0.0
 40
7.795275999999999
  1
ＪＩＳ２０Ｋ　１５Ａフランジ
 41
1.49735418689813
  7
EXCADSTD
 72
     5
 11
319.0391531325101
 21
17.74840528940304
 31
0.0
100
AcDbText
  0
POLYLINE
  5
109
330
1F
100
AcDbEntity
  8
LAY-1
  6
CONTINUOUS
 62
     1
100
AcDb2dPolyline
 66
     1
 10
0.0
 20
0.0
 30
0.0
 70
   128
  0
VERTEX
  5
10A
330
109
100
AcDbEntity
  8
LAY-1
  6
CONTINUOUS
 62
     1
100
AcDbVertex
100
AcDb2dVertex
 10
355.15307735076
 20
38.3
 30
0.0
  0
VERTEX
  5
10B
330
109
100
AcDbEntity
  8
LAY-1
  6
CONTINUOUS
 62
     1
100
AcDbVertex
100
AcDb2dVertex
 10
324.7891531325101
 20
16.10982227748206
 30
0.0
  0
VERTEX
  5
10C
330
109
100
AcDbEntity
  8
LAY-1
  6
CONTINUOUS
 62
     1
100
AcDbVertex
100
AcDb2dVertex
 10
176.0
 20
16.10982227748219
 30
0.0
  0
SEQEND
  5
10D
330
109
100
AcDbEntity
  8
LAY-1
  6
CONTINUOUS
 62
     1
  0
LINE
  5
10E
330
1F
100
AcDbEntity
  8
LAY-1
  6
CONTINUOUS
 62
     1
100
AcDbLine
 10
353.7350032734585
 20
36.85080124813864
 30
0.0
 11
355.15307735076
 21
38.3
 31
0.0
  0
LINE
  5
10F
330
1F
100
AcDbEntity
  8
LAY-1
  6
CONTINUOUS
 62
     1
100
AcDbLine
 10
355.15307735076
 20
38.3
 30
0.0
 11
353.3416455202765
 21
37.38905223276949
 31
0.0
  0
TEXT
  5
110
330
1F
100
AcDbEntity
  8
LAY-1
  6
CONTINUOUS
 62
     3
100
AcDbText
 10
394.153077350783
 20
231.18550564924
 30
0.0
 40
7.795275999999999
  1
φ
 41
1.508605981366147
  7
EXCADSTD
 72
     5
 11
402.553077350783
 21
231.18550564924
 31
0.0
100
AcDbText
  0
TEXT
  5
111
330
1F
100
AcDbEntity
  8
LAY-1
  6
CONTINUOUS
 62
     3
100
AcDbText
 10
404.153077350783
 20
231.18550564924
 30
0.0
 40
7.795275999999999
  1
８０
 41
1.502075219542053
  7
EXCADSTD
 72
     5
 11
422.553077350783
 21
231.18550564924
 31
0.0
100
AcDbText
  0
LINE
  5
112
330
1F
100
AcDbEntity
  8
LAY-1
  6
CONTINUOUS
 62
     1
100
AcDbLine
 10
369.153077350783
 20
192.500000000015
 30
0.0
 11
369.153077350783
 21
229.34692264924
 31
0.0
  0
LINE
  5
113
330
1F
100
AcDbEntity
  8
LAY-1
  6
CONTINUOUS
 62
     1
100
AcDbLine
 10
449.153077350783
 20
192.499999999995
 30
0.0
 11
449.153077350783
 21
229.34692264924
 31
0.0
  0
LINE
  5
114
330
1F
100
AcDbEntity
  8
LAY-1
  6
CONTINUOUS
 62
     1
100
AcDbLine
 10
369.153077350783
 20
228.84692264924
 30
0.0
 11
449.153077350783
 21
228.84692264924
 31
0.0
  0
LINE
  5
115
330
1F
100
AcDbEntity
  8
LAY-1
  6
CONTINUOUS
 62
     1
100
AcDbLine
 10
371.153077350783
 20
229.1802559825734
 30
0.0
 11
369.153077350783
 21
228.84692264924
 31
0.0
  0
LINE
  5
116
330
1F
100
AcDbEntity
  8
LAY-1
  6
CONTINUOUS
 62
     1
100
AcDbLine
 10
369.153077350783
 20
228.84692264924
 30
0.0
 11
371.153077350783
 21
228.5135893159067
 31
0.0
  0
LINE
  5
117
330
1F
100
AcDbEntity
  8
LAY-1
  6
CONTINUOUS
 62
     1
100
AcDbLine
 10
447.153077350783
 20
228.5135893159067
 30
0.0
 11
449.153077350783
 21
228.84692264924
 31
0.0
  0
LINE
  5
118
330
1F
100
AcDbEntity
  8
LAY-1
  6
CONTINUOUS
 62
     1
100
AcDbLine
 10
449.153077350783
 20
228.84692264924
 30
0.0
 11
447.153077350783
 21
229.1802559825734
 31
0.0
  0
TEXT
  5
119
330
1F
100
AcDbEntity
  8
LAY-1
  6
CONTINUOUS
 62
     4
100
AcDbText
 10
420.4718431665787
 20
86.07086640021103
 30
0.0
 40
6.2362208
  1
S
 41
0.5390287417695546
  7
EXCADSTD
 72
     5
 11
423.1930592747101
 21
86.07086640021103
 31
0.0
100
AcDbText
  0
TEXT
  5
11A
330
1F
100
AcDbEntity
  8
LAY-1
  6
CONTINUOUS
 62
     4
100
AcDbText
 10
407.4718431665788
 20
86.07086640021103
 30
0.0
 40
6.2362208
  1
D
 41
0.5090827005601348
  7
EXCADSTD
 72
     5
 11
410.1930592747102
 21
86.07086640021103
 31
0.0
100
AcDbText
  0
TEXT
  5
11B
330
1F
100
AcDbEntity
  8
LAY-1
  6
CONTINUOUS
 62
     4
100
AcDbText
 10
400.4718431665788
 20
86.07086640021103
 30
0.0
 40
6.2362208
  1
C
 41
0.5090827005601348
  7
EXCADSTD
 72
     5
 11
403.1930592747102
 21
86.07086640021103
 31
0.0
100
AcDbText
  0
TEXT
  5
11C
330
1F
100
AcDbEntity
  8
LAY-1
  6
CONTINUOUS
 62
     4
100
AcDbText
 10
393.4718431665788
 20
86.07086640021103
 30
0.0
 40
6.2362208
  1
F
 41
0.5390287417695546
  7
EXCADSTD
 72
     5
 11
396.1930592747102
 21
86.07086640021103
 31
0.0
100
AcDbText
  0
TEXT
  5
11D
330
1F
100
AcDbEntity
  8
LAY-1
  6
CONTINUOUS
 62
     4
100
AcDbText
 10
413.4718431665787
 20
76.07086640021103
 30
0.0
 40
6.2362208
  1
1
 41
0.8330444190984024
  7
EXCADSTD
 72
     5
 11
416.1930592747101
 21
76.07086640021103
 31
0.0
100
AcDbText
  0
TEXT
  5
11E
330
1F
100
AcDbEntity
  8
LAY-1
  6
CONTINUOUS
 62
     4
100
AcDbText
 10
420.4718431665787
 20
76.07086640021103
 30
0.0
 40
6.2362208
  1
5
 41
0.5390287417695546
  7
EXCADSTD
 72
     5
 11
423.1930592747101
 21
76.07086640021103
 31
0.0
100
AcDbText
  0
TEXT
  5
11F
330
1F
100
AcDbEntity
  8
LAY-1
  6
CONTINUOUS
 62
     4
100
AcDbText
 10
400.4718431665788
 20
76.07086640021103
 30
0.0
 40
6.2362208
  1
0
 41
0.5390287417695546
  7
EXCADSTD
 72
     5
 11
403.1930592747102
 21
76.07086640021103
 31
0.0
100
AcDbText
  0
TEXT
  5
120
330
1F
100
AcDbEntity
  8
LAY-1
  6
CONTINUOUS
 62
     4
100
AcDbText
 10
393.4718431665788
 20
76.07086640021103
 30
0.0
 40
6.2362208
  1
2
 41
0.5390287417695546
  7
EXCADSTD
 72
     5
 11
396.1930592747102
 21
76.07086640021103
 31
0.0
100
AcDbText
  0
LINE
  5
121
330
1F
100
AcDbEntity
  8
LAY-1
  6
CONTINUOUS
 62
     4
100
AcDbLine
 10
413.791491139544
 20
89.00000000021103
 30
0.0
 11
417.791491139544
 21
89.00000000021103
 31
0.0
  0
TEXT
  5
122
330
1F
100
AcDbEntity
  8
LAY-1
  6
CONTINUOUS
 62
     4
100
AcDbText
 10
407.8816671530614
 20
79.53543320021103
 30
0.0
 40
3.1181104
  1
K
 41
0.5090827005601455
  7
EXCADSTD
 72
     5
 11
409.2422752071271
 21
79.53543320021103
 31
0.0
100
AcDbText
  0
LINE
  5
123
330
1F
100
AcDbEntity
  8
LAY-1
  6
CONTINUOUS
 62
     4
100
AcDbLine
 10
407.541491139544
 20
76.00000000021103
 30
0.0
 11
410.041491139544
 21
76.00000000021103
 31
0.0
  0
TEXT
  5
124
330
1F
100
AcDbEntity
  8
LAY-1
  6
CONTINUOUS
 62
     3
100
AcDbText
 10
390.1818162165692
 20
326.2896015312991
 30
0.0
 40
2.806299285658455
  1
ＯＰＥＮ
 50
34.99999999999991
 41
1.176483666582412
  7
EXCADSTD
 72
     5
 11
399.0679777430074
 21
332.5117588178603
 31
0.0
100
AcDbText
  0
TEXT
  5
125
330
1F
100
AcDbEntity
  8
LAY-1
  6
CONTINUOUS
 62
     3
100
AcDbText
 10
418.8679202282444
 20
332.7710153714669
 30
0.0
 40
2.806299285658455
  1
ＳＨＵＴ
 50
325.0000000000001
 41
1.176483666582412
  7
EXCADSTD
 72
     5
 11
427.7540817546827
 21
326.5488580849058
 31
0.0
100
AcDbText
  0
TEXT
  5
126
330
1F
100
AcDbEntity
  8
LAY-1
  6
CONTINUOUS
 62
     4
100
AcDbText
 10
427.1210890667997
 20
537.2629918997831
 30
0.0
 40
5.4566932
  1
9
 50
180.0
 41
0.5727179893635014
  7
EXCADSTD
 72
     5
 11
424.7400251749311
 21
537.2629918997831
 31
0.0
100
AcDbText
  0
TEXT
  5
127
330
1F
100
AcDbEntity
  8
LAY-1
  6
CONTINUOUS
 62
     4
100
AcDbText
 10
409.1210890667997
 20
537.2629918997811
 30
0.0
 40
5.4566932
  1
7
 50
180.0
 41
0.5390286958715307
  7
EXCADSTD
 72
     5
 11
406.7400251749311
 21
537.2629918997811
 31
0.0
100
AcDbText
  0
TEXT
  5
128
330
1F
100
AcDbEntity
  8
LAY-1
  6
CONTINUOUS
 62
     4
100
AcDbText
 10
421.1210890667997
 20
537.2629918997831
 30
0.0
 40
5.4566932
  1
D
 50
180.0
 41
0.5090826572120012
  7
EXCADSTD
 72
     5
 11
418.7400251749311
 21
537.2629918997831
 31
0.0
100
AcDbText
  0
LINE
  5
129
330
1F
100
AcDbEntity
  8
LAY-1
  6
CONTINUOUS
 62
     4
100
AcDbLine
 10
413.716397039765
 20
538.199999999783
 30
0.0
 11
413.716397039765
 21
531.199999999783
 31
0.0
  0
ARC
  5
12A
330
1F
100
AcDbEntity
  8
LAY-1
  6
CONTINUOUS
 62
     7
100
AcDbCircle
 10
400.025345607572
 20
180.000000000007
 30
0.0
 40
1.0
100
AcDbArc
 50
196.7795194924804
 51
270.0000000000002
  0
ARC
  5
12B
330
1F
100
AcDbEntity
  8
LAY-1
  6
CONTINUOUS
 62
     7
100
AcDbCircle
 10
397.153077353226
 20
179.13393125269
 30
0.0
 40
2.0
100
AcDbArc
 50
16.77951949247754
 51
82.33774433925193
  0
LINE
  5
12C
330
1F
100
AcDbEntity
  8
LAY-1
  6
CONTINUOUS
 62
     7
100
AcDbLine
 10
409.153077350779
 20
179.000000000005
 30
0.0
 11
400.025345608098
 21
179.000000000007
 31
0.0
  0
ARC
  5
12D
330
1F
100
AcDbEntity
  8
LAY-1
  6
CONTINUOUS
 62
     7
100
AcDbCircle
 10
375.653077350783
 20
192.500000000015
 30
0.0
 40
6.500000000000004
100
AcDbArc
 50
90.00000000000009
 51
270.0000000000002
  0
ARC
  5
12E
330
1F
100
AcDbEntity
  8
LAY-1
  6
CONTINUOUS
 62
     7
100
AcDbCircle
 10
418.280809093987
 20
180.000000000002
 30
0.0
 40
1.0
100
AcDbArc
 50
270.0000000000002
 51
343.2204805075206
  0
ARC
  5
12F
330
1F
100
AcDbEntity
  8
LAY-1
  6
CONTINUOUS
 62
     7
100
AcDbCircle
 10
421.153077348332
 20
179.1339312526831
 30
0.0
 40
2.0
100
AcDbArc
 50
97.6622556607196
 51
163.2204805075203
  0
LINE
  5
130
330
1F
100
AcDbEntity
  8
LAY-1
  6
CONTINUOUS
 62
     7
100
AcDbLine
 10
409.153077350779
 20
179.000000000005
 30
0.0
 11
418.280809093461
 21
179.000000000002
 31
0.0
  0
LINE
  5
131
330
1F
100
AcDbEntity
  8
LAY-1
  6
CONTINUOUS
 62
     7
100
AcDbLine
 10
423.653077350778
 20
174.0
 30
0.0
 11
425.896235157277
 21
172.704912236583
 31
0.0
  0
LINE
  5
132
330
1F
100
AcDbEntity
  8
LAY-1
  6
CONTINUOUS
 62
     7
100
AcDbLine
 10
425.896235157277
 20
172.704912236583
 30
0.0
 11
425.896235157275
 21
167.0
 31
0.0
  0
LINE
  5
133
330
1F
100
AcDbEntity
  8
LAY-1
  6
CONTINUOUS
 62
     7
100
AcDbLine
 10
392.409919544278
 20
172.704912236593
 30
0.0
 11
392.409919544277
 21
167.00000000001
 31
0.0
  0
LINE
  5
134
330
1F
100
AcDbEntity
  8
LAY-1
  6
CONTINUOUS
 62
     7
100
AcDbLine
 10
394.653077350778
 20
174.000000000009
 30
0.0
 11
392.409919544278
 21
172.704912236593
 31
0.0
  0
LINE
  5
135
330
1F
100
AcDbEntity
  8
LAY-1
  6
CONTINUOUS
 62
     7
100
AcDbLine
 10
414.153077350779
 20
178.133974596219
 30
0.0
 11
409.153077350779
 21
178.13397459622
 31
0.0
  0
LINE
  5
136
330
1F
100
AcDbEntity
  8
LAY-1
  6
CONTINUOUS
 62
     7
100
AcDbLine
 10
414.153077350779
 20
178.133974596219
 30
0.0
 11
413.653077350779
 21
179.0000000000031
 31
0.0
  0
LINE
  5
137
330
1F
100
AcDbEntity
  8
LAY-1
  6
CONTINUOUS
 62
     7
100
AcDbLine
 10
404.153077350779
 20
178.1339745962221
 30
0.0
 11
409.153077350779
 21
178.13397459622
 31
0.0
  0
LINE
  5
138
330
1F
100
AcDbEntity
  8
LAY-1
  6
CONTINUOUS
 62
     7
100
AcDbLine
 10
404.153077350779
 20
178.1339745962221
 30
0.0
 11
404.653077350779
 21
179.000000000006
 31
0.0
  0
LINE
  5
139
330
1F
100
AcDbEntity
  8
LAY-1
  6
CONTINUOUS
 62
     7
100
AcDbLine
 10
387.2137671215589
 20
128.697011552075
 30
0.0
 11
390.153077350764
 21
127.00000000001
 31
0.0
  0
LINE
  5
13A
330
1F
100
AcDbEntity
  8
LAY-1
  6
CONTINUOUS
 62
     7
100
AcDbLine
 10
387.2137671215639
 20
145.560689770805
 30
0.0
 11
387.2137671215589
 21
129.939310229217
 31
0.0
  0
LINE
  5
13B
330
1F
100
AcDbEntity
  8
LAY-1
  6
CONTINUOUS
 62
     7
100
AcDbLine
 10
387.2137671215639
 20
147.436963044163
 30
0.0
 11
387.2137671215639
 21
145.560689770805
 31
0.0
  0
LINE
  5
13C
330
1F
100
AcDbEntity
  8
LAY-1
  6
CONTINUOUS
 62
     7
100
AcDbLine
 10
391.653077350771
 20
150.577350269199
 30
0.0
 11
391.653077350775
 21
164.00000000001
 31
0.0
  0
LINE
  5
13D
330
1F
100
AcDbEntity
  8
LAY-1
  6
CONTINUOUS
 62
     7
100
AcDbLine
 10
391.153077350771
 20
149.711324865415
 30
0.0
 11
387.2137671215639
 21
147.436963044163
 31
0.0
  0
LINE
  5
13E
330
1F
100
AcDbEntity
  8
LAY-1
  6
CONTINUOUS
 62
     7
100
AcDbLine
 10
387.2137671215589
 20
129.939310229217
 30
0.0
 11
387.2137671215639
 21
145.560689770805
 31
0.0
  0
ARC
  5
13F
330
1F
100
AcDbEntity
  8
LAY-1
  6
CONTINUOUS
 62
     7
100
AcDbCircle
 10
392.653077350775
 20
164.00000000001
 30
0.0
 40
1.0
100
AcDbArc
 50
90.00000000000009
 51
180.0
  0
LINE
  5
140
330
1F
100
AcDbEntity
  8
LAY-1
  6
CONTINUOUS
 62
     7
100
AcDbLine
 10
395.965577350764
 20
127.000000000009
 30
0.0
 11
390.153077350764
 21
127.00000000001
 31
0.0
  0
ARC
  5
141
330
1F
100
AcDbEntity
  8
LAY-1
  6
CONTINUOUS
 62
     7
100
AcDbCircle
 10
390.653077350771
 20
150.5773502692
 30
0.0
 40
1.0
100
AcDbArc
 50
299.9999999998781
 51
0.0000000000001719
  0
ARC
  5
142
330
1F
100
AcDbEntity
  8
LAY-1
  6
CONTINUOUS
 62
     7
100
AcDbCircle
 10
427.6530773507711
 20
150.577350269189
 30
0.0
 40
1.0
100
AcDbArc
 50
180.0
 51
240.0000000001207
  0
LINE
  5
143
330
1F
100
AcDbEntity
  8
LAY-1
  6
CONTINUOUS
 62
     7
100
AcDbLine
 10
422.340577350764
 20
127.000000000001
 30
0.0
 11
428.153077350764
 21
126.999999999999
 31
0.0
  0
ARC
  5
144
330
1F
100
AcDbEntity
  8
LAY-1
  6
CONTINUOUS
 62
     7
100
AcDbCircle
 10
425.653077350775
 20
164.0
 30
0.0
 40
1.0
100
AcDbArc
 50
0.0000000000001719
 51
90.00000000000009
  0
LINE
  5
145
330
1F
100
AcDbEntity
  8
LAY-1
  6
CONTINUOUS
 62
     7
100
AcDbLine
 10
431.092387579971
 20
129.939310229204
 30
0.0
 11
431.092387579975
 21
145.560689770792
 31
0.0
  0
LINE
  5
146
330
1F
100
AcDbEntity
  8
LAY-1
  6
CONTINUOUS
 62
     7
100
AcDbLine
 10
427.1530773507711
 20
149.711324865405
 30
0.0
 11
431.092387579976
 21
147.43696304415
 31
0.0
  0
LINE
  5
147
330
1F
100
AcDbEntity
  8
LAY-1
  6
CONTINUOUS
 62
     7
100
AcDbLine
 10
426.6530773507711
 20
150.577350269189
 30
0.0
 11
426.653077350775
 21
163.999999999999
 31
0.0
  0
LINE
  5
148
330
1F
100
AcDbEntity
  8
LAY-1
  6
CONTINUOUS
 62
     7
100
AcDbLine
 10
431.09238757997
 20
128.697011552062
 30
0.0
 11
428.153077350764
 21
126.999999999999
 31
0.0
  0
LINE
  5
149
330
1F
100
AcDbEntity
  8
LAY-1
  6
CONTINUOUS
 62
     7
100
AcDbLine
 10
431.092387579971
 20
129.939310229204
 30
0.0
 11
431.09238757997
 21
128.697011552062
 31
0.0
  0
LINE
  5
14A
330
1F
100
AcDbEntity
  8
LAY-1
  6
CONTINUOUS
 62
     7
100
AcDbLine
 10
431.092387579975
 20
145.560689770792
 30
0.0
 11
431.092387579971
 21
129.939310229204
 31
0.0
  0
LINE
  5
14B
330
1F
100
AcDbEntity
  8
LAY-1
  6
CONTINUOUS
 62
     7
100
AcDbLine
 10
431.092387579976
 20
147.43696304415
 30
0.0
 11
431.092387579975
 21
145.560689770792
 31
0.0
  0
ARC
  5
14C
330
1F
100
AcDbEntity
  8
LAY-1
  6
CONTINUOUS
 62
     7
100
AcDbCircle
 10
442.653077350783
 20
192.499999999995
 30
0.0
 40
6.500000000000004
100
AcDbArc
 50
270.0000000000002
 51
90.00000000000009
  0
LINE
  5
14D
330
1F
100
AcDbEntity
  8
LAY-1
  6
CONTINUOUS
 62
     7
100
AcDbLine
 10
409.153077350764
 20
174.0000000000031
 30
0.0
 11
423.653077350778
 21
174.0
 31
0.0
  0
LINE
  5
14E
330
1F
100
AcDbEntity
  8
LAY-1
  6
CONTINUOUS
 62
     7
100
AcDbLine
 10
409.153077350764
 20
174.000000000006
 30
0.0
 11
394.653077350778
 21
174.000000000009
 31
0.0
  0
LINE
  5
14F
330
1F
100
AcDbEntity
  8
LAY-1
  6
CONTINUOUS
 62
     7
100
AcDbLine
 10
392.409919544277
 20
167.00000000001
 30
0.0
 11
409.153077350764
 21
167.00000000001
 31
0.0
  0
LINE
  5
150
330
1F
100
AcDbEntity
  8
LAY-1
  6
CONTINUOUS
 62
     7
100
AcDbLine
 10
404.1530773507745
 20
174.000000000007
 30
0.0
 11
404.153077350779
 21
178.1339745962221
 31
0.0
  0
LINE
  5
151
330
1F
100
AcDbEntity
  8
LAY-1
  6
CONTINUOUS
 62
     7
100
AcDbLine
 10
414.1530773507745
 20
174.0000000000031
 30
0.0
 11
414.153077350779
 21
178.133974596219
 31
0.0
  0
LINE
  5
152
330
1F
100
AcDbEntity
  8
LAY-1
  6
CONTINUOUS
 62
     7
100
AcDbLine
 10
425.896235157275
 20
167.0
 30
0.0
 11
409.153077350764
 21
167.0
 31
0.0
  0
LINE
  5
153
330
1F
100
AcDbEntity
  8
LAY-1
  6
CONTINUOUS
 62
     7
100
AcDbLine
 10
425.653077350775
 20
165.0
 30
0.0
 11
409.153077350764
 21
165.0
 31
0.0
  0
LINE
  5
154
330
1F
100
AcDbEntity
  8
LAY-1
  6
CONTINUOUS
 62
     7
100
AcDbLine
 10
392.653077350775
 20
165.00000000001
 30
0.0
 11
409.153077350764
 21
165.00000000001
 31
0.0
  0
LINE
  5
155
330
1F
100
AcDbEntity
  8
LAY-1
  6
CONTINUOUS
 62
     7
100
AcDbLine
 10
395.153077350776
 20
167.000000000009
 30
0.0
 11
395.153077350776
 21
165.00000000001
 31
0.0
  0
LINE
  5
156
330
1F
100
AcDbEntity
  8
LAY-1
  6
CONTINUOUS
 62
     7
100
AcDbLine
 10
423.153077350776
 20
167.000000000001
 30
0.0
 11
423.153077350776
 21
165.0
 31
0.0
  0
LINE
  5
157
330
1F
100
AcDbEntity
  8
LAY-1
  6
CONTINUOUS
 62
     7
100
AcDbLine
 10
429.00307735075
 20
114.600000000002
 30
0.0
 11
409.153077350764
 21
114.600000000002
 31
0.0
  0
LINE
  5
158
330
1F
100
AcDbEntity
  8
LAY-1
  6
CONTINUOUS
 62
     7
100
AcDbLine
 10
389.3030773507779
 20
114.600000000002
 30
0.0
 11
409.153077350764
 21
114.600000000002
 31
0.0
  0
LINE
  5
159
330
1F
100
AcDbEntity
  8
LAY-1
  6
CONTINUOUS
 62
     7
100
AcDbLine
 10
426.791491139544
 20
94.00000000021103
 30
0.0
 11
390.7914911395441
 21
94.00000000021103
 31
0.0
  0
LINE
  5
15A
330
1F
100
AcDbEntity
  8
LAY-1
  6
CONTINUOUS
 62
     7
100
AcDbLine
 10
426.791491139544
 20
69.00000000021103
 30
0.0
 11
426.791491139544
 21
94.00000000021103
 31
0.0
  0
LINE
  5
15B
330
1F
100
AcDbEntity
  8
LAY-1
  6
CONTINUOUS
 62
     7
100
AcDbLine
 10
390.7914911395441
 20
69.00000000021103
 30
0.0
 11
426.791491139544
 21
69.00000000021103
 31
0.0
  0
LINE
  5
15C
330
1F
100
AcDbEntity
  8
LAY-1
  6
CONTINUOUS
 62
     7
100
AcDbLine
 10
390.7914911395441
 20
94.00000000021103
 30
0.0
 11
390.7914911395441
 21
69.00000000021103
 31
0.0
  0
LINE
  5
15D
330
1F
100
AcDbEntity
  8
LAY-1
  6
CONTINUOUS
 62
     7
100
AcDbLine
 10
424.791491139544
 20
73.00000000021103
 30
0.0
 11
395.7914911395441
 21
73.00000000021103
 31
0.0
  0
LINE
  5
15E
330
1F
100
AcDbEntity
  8
LAY-1
  6
CONTINUOUS
 62
     7
100
AcDbLine
 10
395.7914911395441
 20
73.00000000021103
 30
0.0
 11
392.7914911395441
 21
70.00000000021103
 31
0.0
  0
LINE
  5
15F
330
1F
100
AcDbEntity
  8
LAY-1
  6
CONTINUOUS
 62
     7
100
AcDbLine
 10
392.7914911395441
 20
70.00000000021103
 30
0.0
 11
402.2914911395441
 21
70.00000000021103
 31
0.0
  0
LINE
  5
160
330
1F
100
AcDbEntity
  8
LAY-1
  6
CONTINUOUS
 62
     7
100
AcDbLine
 10
402.2914911395441
 20
70.00000000021103
 30
0.0
 11
404.2914911395441
 21
72.00000000021103
 31
0.0
  0
LINE
  5
161
330
1F
100
AcDbEntity
  8
LAY-1
  6
CONTINUOUS
 62
     7
100
AcDbLine
 10
404.2914911395441
 20
72.00000000021103
 30
0.0
 11
419.791491139544
 21
72.00000000021103
 31
0.0
  0
LINE
  5
162
330
1F
100
AcDbEntity
  8
LAY-1
  6
CONTINUOUS
 62
     7
100
AcDbLine
 10
419.791491139544
 20
72.00000000021103
 30
0.0
 11
419.791491139544
 21
70.00000000021103
 31
0.0
  0
LINE
  5
163
330
1F
100
AcDbEntity
  8
LAY-1
  6
CONTINUOUS
 62
     7
100
AcDbLine
 10
419.791491139544
 20
70.00000000021103
 30
0.0
 11
424.791491139544
 21
73.00000000021103
 31
0.0
  0
LINE
  5
164
330
1F
100
AcDbEntity
  8
LAY-1
  6
CONTINUOUS
 62
     7
100
AcDbLine
 10
375.653077350783
 20
199.0000000000151
 30
0.0
 11
409.153077350764
 21
199.0000000000151
 31
0.0
  0
LINE
  5
165
330
1F
100
AcDbEntity
  8
LAY-1
  6
CONTINUOUS
 62
     7
100
AcDbLine
 10
442.6530773507849
 20
198.999999999995
 30
0.0
 11
409.153077350764
 21
198.999999999995
 31
0.0
  0
ARC
  5
166
330
1F
100
AcDbEntity
  8
LAY-1
  6
CONTINUOUS
 62
     7
100
AcDbCircle
 10
409.153077350784
 20
195.500000000006
 30
0.0
 40
4.5
100
AcDbArc
 50
51.05755873079529
 51
128.9424412689986
  0
ARC
  5
167
330
1F
100
AcDbEntity
  8
LAY-1
  6
CONTINUOUS
 62
     7
100
AcDbCircle
 10
399.153077353231
 20
194.0000000000081
 30
0.0
 40
13.00000000000001
100
AcDbArc
 50
217.9798724448526
 51
262.3377443201831
  0
LINE
  5
168
330
1F
100
AcDbEntity
  8
LAY-1
  6
CONTINUOUS
 62
     7
100
AcDbLine
 10
375.653077350781
 20
186.000000000015
 30
0.0
 11
409.153077350764
 21
186.000000000015
 31
0.0
  0
LINE
  5
169
330
1F
100
AcDbEntity
  8
LAY-1
  6
CONTINUOUS
 62
     7
100
AcDbLine
 10
442.6530773507811
 20
185.999999999995
 30
0.0
 11
409.153077350764
 21
185.999999999995
 31
0.0
  0
ARC
  5
16A
330
1F
100
AcDbEntity
  8
LAY-1
  6
CONTINUOUS
 62
     7
100
AcDbCircle
 10
419.153077348337
 20
194.000000000002
 30
0.0
 40
13.00000000000001
100
AcDbArc
 50
277.6622556798001
 51
322.0201275551096
  0
LINE
  5
16B
330
1F
100
AcDbEntity
  8
LAY-1
  6
CONTINUOUS
 62
     7
100
AcDbLine
 10
420.1227324653701
 20
147.436963044152
 30
0.0
 11
420.1227324653701
 21
128.697011552072
 31
0.0
  0
LINE
  5
16C
330
1F
100
AcDbEntity
  8
LAY-1
  6
CONTINUOUS
 62
     7
100
AcDbLine
 10
398.183422236158
 20
147.436963044152
 30
0.0
 11
398.183422236158
 21
128.697011552072
 31
0.0
  0
ARC
  5
16D
330
1F
100
AcDbEntity
  8
LAY-1
  6
CONTINUOUS
 62
     7
100
AcDbCircle
 10
425.6075600226699
 20
139.7868017879976
 30
0.0
 40
9.413198212004533
100
AcDbArc
 50
54.36114907574967
 51
125.6388509242489
  0
ARC
  5
16E
330
1F
100
AcDbEntity
  8
LAY-1
  6
CONTINUOUS
 62
     7
100
AcDbCircle
 10
409.153077350765
 20
114.1917625858277
 30
0.0
 40
35.00823741417941
100
AcDbArc
 50
71.73906995775344
 51
108.2609300422467
  0
ARC
  5
16F
330
1F
100
AcDbEntity
  8
LAY-1
  6
CONTINUOUS
 62
     7
100
AcDbCircle
 10
392.69859467886
 20
139.7868017880505
 30
0.0
 40
9.413198211961452
100
AcDbArc
 50
54.36114907556294
 51
125.6388509244373
  0
ARC
  5
170
330
1F
100
AcDbEntity
  8
LAY-1
  6
CONTINUOUS
 62
     7
100
AcDbCircle
 10
392.6985946788599
 20
136.7121264440092
 30
0.0
 40
9.712126444001248
100
AcDbArc
 50
235.615752531942
 51
304.3842474680593
  0
ARC
  5
171
330
1F
100
AcDbEntity
  8
LAY-1
  6
CONTINUOUS
 62
     7
100
AcDbCircle
 10
409.153077350765
 20
163.302988447803
 30
0.0
 40
36.30298844780198
100
AcDbArc
 50
252.4120462259359
 51
287.5879537740645
  0
ARC
  5
172
330
1F
100
AcDbEntity
  8
LAY-1
  6
CONTINUOUS
 62
     7
100
AcDbCircle
 10
425.6075600226774
 20
136.71212644403
 30
0.0
 40
9.712126444022692
100
AcDbArc
 50
235.6157525319752
 51
304.3842474679201
  0
LINE
  5
173
330
1F
100
AcDbEntity
  8
LAY-1
  6
CONTINUOUS
 62
     7
100
AcDbLine
 10
417.53176152821
 20
172.704912236582
 30
0.0
 11
417.53176152821
 21
167.0
 31
0.0
  0
LINE
  5
174
330
1F
100
AcDbEntity
  8
LAY-1
  6
CONTINUOUS
 62
     7
100
AcDbLine
 10
400.7743931733181
 20
172.704912236582
 30
0.0
 11
400.7743931733181
 21
167.0
 31
0.0
  0
ARC
  5
175
330
1F
100
AcDbEntity
  8
LAY-1
  6
CONTINUOUS
 62
     7
100
AcDbCircle
 10
421.713998342745
 20
166.5995914604226
 30
0.0
 40
7.400408539577812
100
AcDbArc
 50
55.58826844776799
 51
124.4117315522317
  0
ARC
  5
176
330
1F
100
AcDbEntity
  8
LAY-1
  6
CONTINUOUS
 62
     7
100
AcDbCircle
 10
409.1530773507649
 20
146.2491390582338
 30
0.0
 40
27.75086094177222
100
AcDbArc
 50
72.42672828122473
 51
107.573271718775
  0
ARC
  5
177
330
1F
100
AcDbEntity
  8
LAY-1
  6
CONTINUOUS
 62
     7
100
AcDbCircle
 10
396.5921563587931
 20
166.5995914604957
 30
0.0
 40
7.400408539512974
100
AcDbArc
 50
55.58826844749997
 51
124.4117315523675
  0
ARC
  5
178
330
1F
100
AcDbEntity
  8
LAY-1
  6
CONTINUOUS
 62
     7
100
AcDbCircle
 10
435.1530773507611
 20
57.04496653920705
 30
0.0
 40
6.000000000000004
100
AcDbArc
 50
120.3216855263997
 51
180.0
  0
ARC
  5
179
330
1F
100
AcDbEntity
  8
LAY-1
  6
CONTINUOUS
 62
     7
100
AcDbCircle
 10
423.2511535621152
 20
15.49999999999704
 30
0.0
 40
1.5
100
AcDbArc
 50
270.0000000000002
 51
299.9999999998802
  0
ARC
  5
17A
330
1F
100
AcDbEntity
  8
LAY-1
  6
CONTINUOUS
 62
     7
100
AcDbCircle
 10
427.3960773507612
 20
28.45001955665106
 30
0.0
 40
1.5
100
AcDbArc
 50
105.0000000001204
 51
180.0
  0
ARC
  5
17B
330
1F
100
AcDbEntity
  8
LAY-1
  6
CONTINUOUS
 62
     7
100
AcDbCircle
 10
424.8960773507612
 20
15.87234692297903
 30
0.0
 40
1.0
100
AcDbArc
 50
299.9999999998797
 51
0.0000000000001719
  0
LINE
  5
17C
330
1F
100
AcDbEntity
  8
LAY-1
  6
CONTINUOUS
 62
     7
100
AcDbLine
 10
430.1530773507611
 20
31.07553192966702
 30
0.0
 11
430.1530773507611
 21
35.49999999999704
 31
0.0
  0
ARC
  5
17D
330
1F
100
AcDbEntity
  8
LAY-1
  6
CONTINUOUS
 62
     7
100
AcDbCircle
 10
395.0550011394081
 20
15.49999999999704
 30
0.0
 40
1.5
100
AcDbArc
 50
240.0000000001205
 51
270.0000000000002
  0
LINE
  5
17E
330
1F
100
AcDbEntity
  8
LAY-1
  6
CONTINUOUS
 62
     7
100
AcDbLine
 10
389.3766202154532
 20
30.41382242830002
 30
0.0
 11
391.2983059184152
 21
29.8989082960851
 31
0.0
  0
LINE
  5
17F
330
1F
100
AcDbEntity
  8
LAY-1
  6
CONTINUOUS
 62
     7
100
AcDbLine
 10
404.7113848362161
 20
9.49999999999801
 30
0.0
 11
404.7113848362161
 21
4.125214782334012
 31
0.0
  0
LINE
  5
180
330
1F
100
AcDbEntity
  8
LAY-1
  6
CONTINUOUS
 62
     7
100
AcDbLine
 10
413.1945292350891
 20
9.499999999996078
 30
0.0
 11
413.1945292350891
 21
4.125214782334012
 31
0.0
  0
LINE
  5
181
330
1F
100
AcDbEntity
  8
LAY-1
  6
CONTINUOUS
 62
     7
100
AcDbLine
 10
417.2359811194151
 20
9.499999999995055
 30
0.0
 11
417.2359811194132
 21
4.125214782334012
 31
0.0
  0
LINE
  5
182
330
1F
100
AcDbEntity
  8
LAY-1
  6
CONTINUOUS
 62
     7
100
AcDbLine
 10
417.2359811194132
 20
4.125214782334012
 30
0.0
 11
416.1301925432781
 21
3.499999999995055
 31
0.0
  0
LINE
  5
183
330
1F
100
AcDbEntity
  8
LAY-1
  6
CONTINUOUS
 62
     7
100
AcDbLine
 10
416.1301925432781
 20
3.499999999995055
 30
0.0
 11
402.1530773507582
 21
3.499999999999034
 31
0.0
  0
LINE
  5
184
330
1F
100
AcDbEntity
  8
LAY-1
  6
CONTINUOUS
 62
     7
100
AcDbLine
 10
402.1530773507582
 20
3.499999999999034
 30
0.0
 11
401.0701735821032
 21
4.125214782339015
 31
0.0
  0
LINE
  5
185
330
1F
100
AcDbEntity
  8
LAY-1
  6
CONTINUOUS
 62
     7
100
AcDbLine
 10
401.0701735821032
 20
4.125214782339015
 30
0.0
 11
401.0701735821051
 21
9.500000000000057
 31
0.0
  0
LINE
  5
186
330
1F
100
AcDbEntity
  8
LAY-1
  6
CONTINUOUS
 62
     7
100
AcDbLine
 10
417.2359811194151
 20
9.499999999995055
 30
0.0
 11
409.1530773507611
 21
9.499999999997101
 31
0.0
  0
LINE
  5
187
330
1F
100
AcDbEntity
  8
LAY-1
  6
CONTINUOUS
 62
     7
100
AcDbLine
 10
415.8944955479551
 20
9.499999999995055
 30
0.0
 11
415.8316430158691
 21
11.49999999999505
 31
0.0
  0
LINE
  5
188
330
1F
100
AcDbEntity
  8
LAY-1
  6
CONTINUOUS
 62
     7
100
AcDbLine
 10
402.4745116856521
 20
11.49999999999903
 30
0.0
 11
402.4273722865861
 21
9.499999999999034
 31
0.0
  0
LINE
  5
189
330
1F
100
AcDbEntity
  8
LAY-1
  6
CONTINUOUS
 62
     7
100
AcDbLine
 10
429.6530773507611
 20
35.99999999999704
 30
0.0
 11
430.1530773507611
 21
35.49999999999704
 31
0.0
  0
ARC
  5
18A
330
1F
100
AcDbEntity
  8
LAY-1
  6
CONTINUOUS
 62
     7
100
AcDbCircle
 10
390.1530773507611
 20
33.31159990716708
 30
0.0
 40
3.000000000000002
100
AcDbArc
 50
228.1896851043611
 51
254.9999999998797
  0
LINE
  5
18B
330
1F
100
AcDbEntity
  8
LAY-1
  6
CONTINUOUS
 62
     7
100
AcDbLine
 10
422.3530773507612
 20
35.99999999999704
 30
0.0
 11
429.6530773507611
 21
35.99999999999704
 31
0.0
  0
LINE
  5
18C
330
1F
100
AcDbEntity
  8
LAY-1
  6
CONTINUOUS
 62
     7
100
AcDbLine
 10
388.6530773507611
 20
35.99999999999704
 30
0.0
 11
387.6530773507611
 21
36.99999999999704
 31
0.0
  0
LINE
  5
18D
330
1F
100
AcDbEntity
  8
LAY-1
  6
CONTINUOUS
 62
     7
100
AcDbLine
 10
430.6530773507611
 20
36.99999999999704
 30
0.0
 11
429.6530773507611
 21
35.99999999999704
 31
0.0
  0
ARC
  5
18E
330
1F
100
AcDbEntity
  8
LAY-1
  6
CONTINUOUS
 62
     7
100
AcDbCircle
 10
430.6530773507611
 20
49.99999999999704
 30
0.0
 40
1.5
100
AcDbArc
 50
180.0
 51
240.0000000001205
  0
ARC
  5
18F
330
1F
100
AcDbEntity
  8
LAY-1
  6
CONTINUOUS
 62
     7
100
AcDbCircle
 10
387.6530773507611
 20
49.99999999999707
 30
0.0
 40
1.5
100
AcDbArc
 50
299.9999999998802
 51
0.0000000000001719
  0
LINE
  5
190
330
1F
100
AcDbEntity
  8
LAY-1
  6
CONTINUOUS
 62
     7
100
AcDbLine
 10
430.6530773507611
 20
47.40192378864401
 30
0.0
 11
430.6530773507611
 21
36.99999999999704
 31
0.0
  0
LINE
  5
191
330
1F
100
AcDbEntity
  8
LAY-1
  6
CONTINUOUS
 62
     7
100
AcDbLine
 10
389.1530773507611
 20
49.99999999999707
 30
0.0
 11
389.1530773507611
 21
57.04496653920708
 31
0.0
  0
ARC
  5
192
330
1F
100
AcDbEntity
  8
LAY-1
  6
CONTINUOUS
 62
     7
100
AcDbCircle
 10
389.1530773507611
 20
47.40192378864401
 30
0.0
 40
1.5
100
AcDbArc
 50
119.9999999998799
 51
180.0
  0
LINE
  5
193
330
1F
100
AcDbEntity
  8
LAY-1
  6
CONTINUOUS
 62
     7
100
AcDbLine
 10
387.6530773507611
 20
36.99999999999704
 30
0.0
 11
387.6530773507611
 21
47.40192378864401
 31
0.0
  0
ARC
  5
194
330
1F
100
AcDbEntity
  8
LAY-1
  6
CONTINUOUS
 62
     7
100
AcDbCircle
 10
429.1530773507611
 20
47.40192378864401
 30
0.0
 40
1.5
100
AcDbArc
 50
0.0000000000001719
 51
60.00000000012011
  0
LINE
  5
195
330
1F
100
AcDbEntity
  8
LAY-1
  6
CONTINUOUS
 62
     7
100
AcDbLine
 10
429.1530773507611
 20
57.04496653920705
 30
0.0
 11
429.1530773507611
 21
49.99999999999704
 31
0.0
  0
LINE
  5
196
330
1F
100
AcDbEntity
  8
LAY-1
  6
CONTINUOUS
 62
     7
100
AcDbLine
 10
392.4100773507612
 20
28.45001955665111
 30
0.0
 11
392.4100773507612
 21
15.87234692297909
 31
0.0
  0
LINE
  5
197
330
1F
100
AcDbEntity
  8
LAY-1
  6
CONTINUOUS
 62
     7
100
AcDbLine
 10
388.6530773507611
 20
35.99999999999704
 30
0.0
 11
395.9530773507611
 21
35.99999999999704
 31
0.0
  0
LINE
  5
198
330
1F
100
AcDbEntity
  8
LAY-1
  6
CONTINUOUS
 62
     7
100
AcDbLine
 10
409.1530773507611
 20
9.499999999997101
 30
0.0
 11
401.0701735821051
 21
9.500000000000057
 31
0.0
  0
LINE
  5
199
330
1F
100
AcDbEntity
  8
LAY-1
  6
CONTINUOUS
 62
     7
100
AcDbLine
 10
409.1530773507611
 20
11.49999999999505
 30
0.0
 11
402.4745116856521
 21
11.49999999999903
 31
0.0
  0
LINE
  5
19A
330
1F
100
AcDbEntity
  8
LAY-1
  6
CONTINUOUS
 62
     7
100
AcDbLine
 10
409.1530773507611
 20
11.49999999999505
 30
0.0
 11
415.8316430158691
 21
11.49999999999505
 31
0.0
  0
LINE
  5
19B
330
1F
100
AcDbEntity
  8
LAY-1
  6
CONTINUOUS
 62
     7
100
AcDbLine
 10
388.1530773507611
 20
31.07553192966702
 30
0.0
 11
388.1530773507621
 21
35.49999999999704
 31
0.0
  0
ARC
  5
19C
330
1F
100
AcDbEntity
  8
LAY-1
  6
CONTINUOUS
 62
     7
100
AcDbCircle
 10
390.9100773507612
 20
28.45001955665111
 30
0.0
 40
1.5
100
AcDbArc
 50
0.0000000000001719
 51
74.99999999987979
  0
LINE
  5
19D
330
1F
100
AcDbEntity
  8
LAY-1
  6
CONTINUOUS
 62
     7
100
AcDbLine
 10
425.3960773507612
 20
15.00632151919501
 30
0.0
 11
424.0011535621152
 21
14.20096189432002
 31
0.0
  0
ARC
  5
19E
330
1F
100
AcDbEntity
  8
LAY-1
  6
CONTINUOUS
 62
     7
100
AcDbCircle
 10
393.4100773507612
 20
15.87234692297909
 30
0.0
 40
1.0
100
AcDbArc
 50
180.0
 51
240.0000000001207
  0
LINE
  5
19F
330
1F
100
AcDbEntity
  8
LAY-1
  6
CONTINUOUS
 62
     7
100
AcDbLine
 10
388.6530773507611
 20
35.99999999999704
 30
0.0
 11
388.1530773507621
 21
35.49999999999704
 31
0.0
  0
LINE
  5
1A0
330
1F
100
AcDbEntity
  8
LAY-1
  6
CONTINUOUS
 62
     7
100
AcDbLine
 10
392.9100773507612
 20
15.00632151919501
 30
0.0
 11
394.3050011394081
 21
14.20096189432002
 31
0.0
  0
LINE
  5
1A1
330
1F
100
AcDbEntity
  8
LAY-1
  6
CONTINUOUS
 62
     7
100
AcDbLine
 10
425.8960773507612
 20
28.45001955665106
 30
0.0
 11
425.8960773507612
 21
15.87234692297903
 31
0.0
  0
ARC
  5
1A2
330
1F
100
AcDbEntity
  8
LAY-1
  6
CONTINUOUS
 62
     7
100
AcDbCircle
 10
428.1530773507611
 20
33.31159990716702
 30
0.0
 40
3.000000000000002
100
AcDbArc
 50
285.0000000001208
 51
311.8103148956394
  0
ARC
  5
1A3
330
1F
100
AcDbEntity
  8
LAY-1
  6
CONTINUOUS
 62
     7
100
AcDbCircle
 10
415.2152551772512
 20
7.078151847785023
 30
0.0
 40
3.578151847806
100
AcDbArc
 50
235.6157525320801
 51
304.3842474679207
  0
ARC
  5
1A4
330
1F
100
AcDbEntity
  8
LAY-1
  6
CONTINUOUS
 62
     7
100
AcDbCircle
 10
408.9529570356522
 20
18.2004107759401
 30
0.0
 40
14.700410775943
100
AcDbArc
 50
253.2297751376401
 51
286.7702248623601
  0
LINE
  5
1A5
330
1F
100
AcDbEntity
  8
LAY-1
  6
CONTINUOUS
 62
     7
100
AcDbLine
 10
428.9295344860691
 20
30.41382242830002
 30
0.0
 11
427.0078487831081
 21
29.89890829608504
 31
0.0
  0
ARC
  5
1A6
330
1F
100
AcDbEntity
  8
LAY-1
  6
CONTINUOUS
 62
     7
100
AcDbCircle
 10
402.8907792091621
 20
6.463380327851098
 30
0.0
 40
2.963380327852
100
AcDbArc
 50
232.0939978610387
 51
307.9060021386
  0
LINE
  5
1A7
330
1F
100
AcDbEntity
  8
LAY-1
  6
CONTINUOUS
 62
     7
100
AcDbLine
 10
409.1530773507611
 20
35.99999999999704
 30
0.0
 11
429.6530773507611
 21
35.99999999999704
 31
0.0
  0
LINE
  5
1A8
330
1F
100
AcDbEntity
  8
LAY-1
  6
CONTINUOUS
 62
     7
100
AcDbLine
 10
409.1530773507601
 20
35.99999999999704
 30
0.0
 11
389.1530773507611
 21
35.99999999999704
 31
0.0
  0
LINE
  5
1A9
330
1F
100
AcDbEntity
  8
LAY-1
  6
CONTINUOUS
 62
     7
100
AcDbLine
 10
395.0550011394081
 20
13.99999999999704
 30
0.0
 11
409.1530773507601
 21
13.99999999999704
 31
0.0
  0
LINE
  5
1AA
330
1F
100
AcDbEntity
  8
LAY-1
  6
CONTINUOUS
 62
     7
100
AcDbLine
 10
423.2511535621152
 20
13.99999999999704
 30
0.0
 11
409.1530773507601
 21
13.99999999999704
 31
0.0
  0
LINE
  5
1AB
330
1F
100
AcDbEntity
  8
LAY-1
  6
CONTINUOUS
 62
     7
100
AcDbLine
 10
415.8316430158691
 20
11.49999999999505
 30
0.0
 11
415.7530773507614
 21
13.99999999999704
 31
0.0
  0
LINE
  5
1AC
330
1F
100
AcDbEntity
  8
LAY-1
  6
CONTINUOUS
 62
     7
100
AcDbLine
 10
402.5530773507612
 20
13.99999999999704
 30
0.0
 11
402.4745116856521
 21
11.49999999999903
 31
0.0
  0
LINE
  5
1AD
330
1F
100
AcDbEntity
  8
LAY-1
  6
CONTINUOUS
 62
     7
100
AcDbLine
 10
400.76481524041
 20
28.59649492816709
 30
0.0
 11
400.76481524041
 21
15.87234692297909
 31
0.0
  0
LINE
  5
1AE
330
1F
100
AcDbEntity
  8
LAY-1
  6
CONTINUOUS
 62
     7
100
AcDbLine
 10
417.5413394611123
 20
28.59649492816709
 30
0.0
 11
417.5413394611123
 21
15.87234692297909
 31
0.0
  0
ARC
  5
1AF
330
1F
100
AcDbEntity
  8
LAY-1
  6
CONTINUOUS
 62
     7
100
AcDbCircle
 10
396.587446295585
 20
19.59621030802396
 30
0.0
 40
5.596210308026882
100
AcDbArc
 50
221.7150090075199
 51
318.2849909924806
  0
ARC
  5
1B0
330
1F
100
AcDbEntity
  8
LAY-1
  6
CONTINUOUS
 62
     7
100
AcDbCircle
 10
409.15307735076
 20
33.72621188018843
 30
0.0
 40
19.72621188019133
100
AcDbArc
 50
244.834504588699
 51
295.1654954113014
  0
ARC
  5
1B1
330
1F
100
AcDbEntity
  8
LAY-1
  6
CONTINUOUS
 62
     7
100
AcDbCircle
 10
421.7187084059353
 20
19.59621030802271
 30
0.0
 40
5.596210308025622
100
AcDbArc
 50
221.7150090075005
 51
318.2849909924879
  0
LINE
  5
1B2
330
1F
100
AcDbEntity
  8
LAY-1
  6
CONTINUOUS
 62
     7
100
AcDbLine
 10
391.9729400472199
 20
30.99649492816707
 30
0.0
 11
409.1530773507601
 21
30.99649492816707
 31
0.0
  0
LINE
  5
1B3
330
1F
100
AcDbEntity
  8
LAY-1
  6
CONTINUOUS
 62
     7
100
AcDbLine
 10
426.3332146543023
 20
30.99649492816707
 30
0.0
 11
409.1530773507623
 21
30.99649492816707
 31
0.0
  0
LINE
  5
1B4
330
1F
100
AcDbEntity
  8
LAY-1
  6
CONTINUOUS
 62
     7
100
AcDbLine
 10
427.85307735076
 20
49.400000000212
 30
0.0
 11
409.153077350764
 21
49.40000000021203
 31
0.0
  0
LINE
  5
1B5
330
1F
100
AcDbEntity
  8
LAY-1
  6
CONTINUOUS
 62
     7
100
AcDbLine
 10
428.75307735076
 20
48.00000000021203
 30
0.0
 11
409.153077350764
 21
48.00000000021203
 31
0.0
  0
LINE
  5
1B6
330
1F
100
AcDbEntity
  8
LAY-1
  6
CONTINUOUS
 62
     7
100
AcDbLine
 10
390.453077350768
 20
49.40000000021203
 30
0.0
 11
409.153077350764
 21
49.40000000021203
 31
0.0
  0
LINE
  5
1B7
330
1F
100
AcDbEntity
  8
LAY-1
  6
CONTINUOUS
 62
     7
100
AcDbLine
 10
389.5530773507679
 20
48.00000000021203
 30
0.0
 11
409.153077350764
 21
48.00000000021203
 31
0.0
  0
CIRCLE
  5
1B8
330
1F
100
AcDbEntity
  8
LAY-1
  6
CONTINUOUS
 62
     7
100
AcDbCircle
 10
409.1530773507601
 20
304.6000000000021
 30
0.0
 40
10.0
  0
CIRCLE
  5
1B9
330
1F
100
AcDbEntity
  8
LAY-1
  6
CONTINUOUS
 62
     7
100
AcDbCircle
 10
409.1530773507601
 20
304.6000000000021
 30
0.0
 40
27.00000000000002
  0
ARC
  5
1BA
330
1F
100
AcDbEntity
  8
LAY-1
  6
CONTINUOUS
 62
     7
100
AcDbCircle
 10
494.261819172979
 20
269.3468048607306
 30
0.0
 40
56.00000000000004
100
AcDbArc
 50
145.6635745399944
 51
169.3364254600095
  0
ARC
  5
1BB
330
1F
100
AcDbEntity
  8
LAY-1
  6
CONTINUOUS
 62
     7
100
AcDbCircle
 10
442.6530773507601
 20
304.6000000000021
 30
0.0
 40
6.500000000000004
100
AcDbArc
 50
325.6635745399946
 51
0.0000000000001719
  0
ARC
  5
1BC
330
1F
100
AcDbEntity
  8
LAY-1
  6
CONTINUOUS
 62
     7
100
AcDbCircle
 10
432.84115452051
 20
280.911922830252
 30
0.0
 40
6.500000000000004
100
AcDbArc
 50
315.0000000000003
 51
349.3364254600098
  0
ARC
  5
1BD
330
1F
100
AcDbEntity
  8
LAY-1
  6
CONTINUOUS
 62
     7
100
AcDbCircle
 10
432.8411545205108
 20
280.9119228302529
 30
0.0
 40
6.500000000000004
100
AcDbArc
 50
280.6635745399903
 51
315.0000000000003
  0
ARC
  5
1BE
330
1F
100
AcDbEntity
  8
LAY-1
  6
CONTINUOUS
 62
     7
100
AcDbCircle
 10
444.4062724900323
 20
219.4912581777839
 30
0.0
 40
56.00000000000004
100
AcDbArc
 50
100.6635745399906
 51
124.3364254600056
  0
ARC
  5
1BF
330
1F
100
AcDbEntity
  8
LAY-1
  6
CONTINUOUS
 62
     7
100
AcDbCircle
 10
409.1530773507609
 20
271.1000000000029
 30
0.0
 40
6.500000000000004
100
AcDbArc
 50
270.0000000000002
 51
304.336425460006
  0
ARC
  5
1C0
330
1F
100
AcDbEntity
  8
LAY-1
  6
CONTINUOUS
 62
     7
100
AcDbCircle
 10
442.6530773507601
 20
304.6000000000021
 30
0.0
 40
6.500000000000004
100
AcDbArc
 50
0.0000000000001719
 51
34.33642546000587
  0
ARC
  5
1C1
330
1F
100
AcDbEntity
  8
LAY-1
  6
CONTINUOUS
 62
     7
100
AcDbCircle
 10
494.261819172979
 20
339.8531951392735
 30
0.0
 40
56.00000000000004
100
AcDbArc
 50
190.6635745399906
 51
214.3364254600058
  0
ARC
  5
1C2
330
1F
100
AcDbEntity
  8
LAY-1
  6
CONTINUOUS
 62
     7
100
AcDbCircle
 10
432.84115452051
 20
328.288077169752
 30
0.0
 40
6.500000000000004
100
AcDbArc
 50
10.66357453999039
 51
45.00000000000027
  0
ARC
  5
1C3
330
1F
100
AcDbEntity
  8
LAY-1
  6
CONTINUOUS
 62
     7
100
AcDbCircle
 10
432.8411545205108
 20
328.2880771697512
 30
0.0
 40
6.500000000000004
100
AcDbArc
 50
45.00000000000027
 51
79.33642546000975
  0
ARC
  5
1C4
330
1F
100
AcDbEntity
  8
LAY-1
  6
CONTINUOUS
 62
     7
100
AcDbCircle
 10
444.4062724900323
 20
389.7087418222202
 30
0.0
 40
56.00000000000004
100
AcDbArc
 50
235.6635745399948
 51
259.3364254600094
  0
ARC
  5
1C5
330
1F
100
AcDbEntity
  8
LAY-1
  6
CONTINUOUS
 62
     7
100
AcDbCircle
 10
409.1530773507609
 20
338.1000000000013
 30
0.0
 40
6.500000000000004
100
AcDbArc
 50
55.66357453999415
 51
90.00000000000009
  0
ARC
  5
1C6
330
1F
100
AcDbEntity
  8
LAY-1
  6
CONTINUOUS
 62
     7
100
AcDbCircle
 10
385.4650001810101
 20
328.288077169752
 30
0.0
 40
6.500000000000004
100
AcDbArc
 50
135.0000000000001
 51
169.3364254600098
  0
ARC
  5
1C7
330
1F
100
AcDbEntity
  8
LAY-1
  6
CONTINUOUS
 62
     7
100
AcDbCircle
 10
385.4650001810093
 20
328.2880771697512
 30
0.0
 40
6.500000000000004
100
AcDbArc
 50
100.6635745399903
 51
135.0000000000001
  0
ARC
  5
1C8
330
1F
100
AcDbEntity
  8
LAY-1
  6
CONTINUOUS
 62
     7
100
AcDbCircle
 10
373.8998822114879
 20
389.7087418222202
 30
0.0
 40
56.00000000000004
100
AcDbArc
 50
280.6635745399906
 51
304.336425460006
  0
ARC
  5
1C9
330
1F
100
AcDbEntity
  8
LAY-1
  6
CONTINUOUS
 62
     7
100
AcDbCircle
 10
409.1530773507592
 20
338.1000000000013
 30
0.0
 40
6.500000000000004
100
AcDbArc
 50
90.00000000000009
 51
124.336425460006
  0
ARC
  5
1CA
330
1F
100
AcDbEntity
  8
LAY-1
  6
CONTINUOUS
 62
     7
100
AcDbCircle
 10
324.0443355285411
 20
339.8531951392735
 30
0.0
 40
56.00000000000004
100
AcDbArc
 50
325.6635745399946
 51
349.3364254600098
  0
ARC
  5
1CB
330
1F
100
AcDbEntity
  8
LAY-1
  6
CONTINUOUS
 62
     7
100
AcDbCircle
 10
375.6530773507601
 20
304.6000000000021
 30
0.0
 40
6.500000000000004
100
AcDbArc
 50
180.0
 51
214.3364254600058
  0
ARC
  5
1CC
330
1F
100
AcDbEntity
  8
LAY-1
  6
CONTINUOUS
 62
     7
100
AcDbCircle
 10
375.6530773507601
 20
304.6000000000021
 30
0.0
 40
6.500000000000004
100
AcDbArc
 50
145.6635745399944
 51
180.0
  0
ARC
  5
1CD
330
1F
100
AcDbEntity
  8
LAY-1
  6
CONTINUOUS
 62
     7
100
AcDbCircle
 10
324.0443355285411
 20
269.3468048607307
 30
0.0
 40
56.00000000000004
100
AcDbArc
 50
10.66357453999062
 51
34.33642546000587
  0
ARC
  5
1CE
330
1F
100
AcDbEntity
  8
LAY-1
  6
CONTINUOUS
 62
     7
100
AcDbCircle
 10
385.4650001810101
 20
280.911922830252
 30
0.0
 40
6.500000000000004
100
AcDbArc
 50
190.6635745399903
 51
225.0000000000003
  0
ARC
  5
1CF
330
1F
100
AcDbEntity
  8
LAY-1
  6
CONTINUOUS
 62
     7
100
AcDbCircle
 10
385.4650001810093
 20
280.9119228302529
 30
0.0
 40
6.500000000000004
100
AcDbArc
 50
225.0000000000003
 51
259.3364254600099
  0
ARC
  5
1D0
330
1F
100
AcDbEntity
  8
LAY-1
  6
CONTINUOUS
 62
     7
100
AcDbCircle
 10
373.8998822114879
 20
219.4912581777839
 30
0.0
 40
56.00000000000004
100
AcDbArc
 50
55.66357453999438
 51
79.33642546000965
  0
ARC
  5
1D1
330
1F
100
AcDbEntity
  8
LAY-1
  6
CONTINUOUS
 62
     7
100
AcDbCircle
 10
409.1530773507592
 20
271.1000000000029
 30
0.0
 40
6.500000000000004
100
AcDbArc
 50
235.6635745399943
 51
270.0000000000002
  0
ARC
  5
1D2
330
1F
100
AcDbEntity
  8
LAY-1
  6
CONTINUOUS
 62
     7
100
AcDbCircle
 10
417.1026141724626
 20
313.5891525918984
 30
0.0
 40
2.0
100
AcDbArc
 50
183.0885597106198
 51
228.5121354544808
  0
ARC
  5
1D3
330
1F
100
AcDbEntity
  8
LAY-1
  6
CONTINUOUS
 62
     7
100
AcDbCircle
 10
416.2949185581411
 20
328.558174057483
 30
0.0
 40
2.0
100
AcDbArc
 50
73.40088001781197
 51
183.0885597106206
  0
ARC
  5
1D4
330
1F
100
AcDbEntity
  8
LAY-1
  6
CONTINUOUS
 62
     7
100
AcDbCircle
 10
401.2035405290575
 20
313.5891525918984
 30
0.0
 40
2.0
100
AcDbArc
 50
311.4878645455194
 51
356.9114402893808
  0
LINE
  5
1D5
330
1F
100
AcDbEntity
  8
LAY-1
  6
CONTINUOUS
 62
     7
100
AcDbLine
 10
404.0083310401319
 20
328.4504151907328
 30
0.0
 11
403.2006354258104
 21
313.4813937251481
 31
0.0
  0
ARC
  5
1D6
330
1F
100
AcDbEntity
  8
LAY-1
  6
CONTINUOUS
 62
     7
100
AcDbCircle
 10
402.0112361433789
 20
328.558174057483
 30
0.0
 40
2.0
100
AcDbArc
 50
356.9114402893799
 51
106.5991199821883
  0
ARC
  5
1D7
330
1F
100
AcDbEntity
  8
LAY-1
  6
CONTINUOUS
 62
     7
100
AcDbCircle
 10
400.1639247588638
 20
312.5495368217047
 30
0.0
 40
2.0
100
AcDbArc
 50
273.0885597106201
 51
318.5121354544805
  0
LINE
  5
1D8
330
1F
100
AcDbEntity
  8
LAY-1
  6
CONTINUOUS
 62
     7
100
AcDbLine
 10
385.3026621600294
 20
309.7447463106303
 30
0.0
 11
400.2716836256141
 21
310.5524419249517
 31
0.0
  0
ARC
  5
1D9
330
1F
100
AcDbEntity
  8
LAY-1
  6
CONTINUOUS
 62
     7
100
AcDbCircle
 10
385.1949032932791
 20
311.7418412073832
 30
0.0
 40
2.0
100
AcDbArc
 50
163.400880017812
 51
273.0885597106207
  0
ARC
  5
1DA
330
1F
100
AcDbEntity
  8
LAY-1
  6
CONTINUOUS
 62
     7
100
AcDbCircle
 10
400.1639247588638
 20
296.6504631782994
 30
0.0
 40
2.0
100
AcDbArc
 50
41.48786454551921
 51
86.91144028938051
  0
LINE
  5
1DB
330
1F
100
AcDbEntity
  8
LAY-1
  6
CONTINUOUS
 62
     7
100
AcDbLine
 10
385.3026621600294
 20
299.4552536893739
 30
0.0
 11
400.2716836256141
 21
298.6475580750524
 31
0.0
  0
ARC
  5
1DC
330
1F
100
AcDbEntity
  8
LAY-1
  6
CONTINUOUS
 62
     7
100
AcDbCircle
 10
385.1949032932791
 20
297.4581587926209
 30
0.0
 40
2.0
100
AcDbArc
 50
86.91144028937953
 51
196.5991199821881
  0
ARC
  5
1DD
330
1F
100
AcDbEntity
  8
LAY-1
  6
CONTINUOUS
 62
     7
100
AcDbCircle
 10
401.2035405290575
 20
295.6108474081058
 30
0.0
 40
2.0
100
AcDbArc
 50
3.088559710620042
 51
48.51213545448088
  0
LINE
  5
1DE
330
1F
100
AcDbEntity
  8
LAY-1
  6
CONTINUOUS
 62
     7
100
AcDbLine
 10
404.0083310401319
 20
280.7495848092714
 30
0.0
 11
403.2006354258104
 21
295.718606274856
 31
0.0
  0
ARC
  5
1DF
330
1F
100
AcDbEntity
  8
LAY-1
  6
CONTINUOUS
 62
     7
100
AcDbCircle
 10
402.0112361433789
 20
280.6418259425211
 30
0.0
 40
2.0
100
AcDbArc
 50
253.4008800178117
 51
3.088559710620557
  0
ARC
  5
1E0
330
1F
100
AcDbEntity
  8
LAY-1
  6
CONTINUOUS
 62
     7
100
AcDbCircle
 10
417.1026141724626
 20
295.6108474081058
 30
0.0
 40
2.0
100
AcDbArc
 50
131.4878645455193
 51
176.9114402893804
  0
LINE
  5
1E1
330
1F
100
AcDbEntity
  8
LAY-1
  6
CONTINUOUS
 62
     7
100
AcDbLine
 10
414.2978236613882
 20
280.7495848092714
 30
0.0
 11
415.1055192757096
 21
295.718606274856
 31
0.0
  0
ARC
  5
1E2
330
1F
100
AcDbEntity
  8
LAY-1
  6
CONTINUOUS
 62
     7
100
AcDbCircle
 10
416.2949185581411
 20
280.6418259425211
 30
0.0
 40
2.0
100
AcDbArc
 50
176.9114402893794
 51
286.5991199821884
  0
ARC
  5
1E3
330
1F
100
AcDbEntity
  8
LAY-1
  6
CONTINUOUS
 62
     7
100
AcDbCircle
 10
418.1422299426563
 20
296.6504631782994
 30
0.0
 40
2.0
100
AcDbArc
 50
93.08855971061972
 51
138.5121354544805
  0
ARC
  5
1E4
330
1F
100
AcDbEntity
  8
LAY-1
  6
CONTINUOUS
 62
     7
100
AcDbCircle
 10
433.1112514082409
 20
297.4581587926209
 30
0.0
 40
2.0
100
AcDbArc
 50
343.4008800178123
 51
93.08855971062057
  0
ARC
  5
1E5
330
1F
100
AcDbEntity
  8
LAY-1
  6
CONTINUOUS
 62
     7
100
AcDbCircle
 10
418.1422299426563
 20
312.5495368217047
 30
0.0
 40
2.0
100
AcDbArc
 50
221.487864545519
 51
266.9114402893804
  0
ARC
  5
1E6
330
1F
100
AcDbEntity
  8
LAY-1
  6
CONTINUOUS
 62
     7
100
AcDbCircle
 10
433.1112514082409
 20
311.7418412073832
 30
0.0
 40
2.0
100
AcDbArc
 50
266.9114402893796
 51
16.59911998218822
  0
LINE
  5
1E7
330
1F
100
AcDbEntity
  8
LAY-1
  6
CONTINUOUS
 62
     7
100
AcDbLine
 10
418.9874602890426
 20
333.9991549166551
 30
0.0
 11
417.2197587509011
 21
335.216854249492
 31
0.0
  0
LINE
  5
1E8
330
1F
100
AcDbEntity
  8
LAY-1
  6
CONTINUOUS
 62
     7
100
AcDbLine
 10
399.3186944124841
 20
333.9991549166551
 30
0.0
 11
401.0863959506255
 21
335.216854249492
 31
0.0
  0
ARC
  5
1E9
330
1F
100
AcDbEntity
  8
LAY-1
  6
CONTINUOUS
 62
     7
100
AcDbCircle
 10
409.1530773507601
 20
310.2568542494921
 30
0.0
 40
25.6984810591365
100
AcDbArc
 50
67.50000000000027
 51
112.4999999999592
  0
LINE
  5
1EA
330
1F
100
AcDbEntity
  8
LAY-1
  6
CONTINUOUS
 62
     7
100
AcDbLine
 10
414.2978236613883
 20
328.4504151907328
 30
0.0
 11
415.1055192757096
 21
313.4813937251481
 31
0.0
  0
LINE
  5
1EB
330
1F
100
AcDbEntity
  8
LAY-1
  6
CONTINUOUS
 62
     7
100
AcDbLine
 10
433.4931047183766
 20
299.4816720901289
 30
0.0
 11
417.6942172353551
 21
298.6291987230132
 31
0.0
  0
LINE
  5
1EC
330
1F
100
AcDbEntity
  8
LAY-1
  6
CONTINUOUS
 62
     7
100
AcDbLine
 10
433.4551915314439
 20
309.7203736224076
 30
0.0
 11
417.6942172353552
 21
310.5708012769909
 31
0.0
  0
POLYLINE
  5
1ED
330
1F
100
AcDbEntity
  8
LAY-1
  6
CONTINUOUS
 62
     7
100
AcDb2dPolyline
 66
     1
 10
0.0
 20
0.0
 30
0.0
 70
   128
  0
VERTEX
  5
1EE
330
1ED
100
AcDbEntity
  8
LAY-1
  6
CONTINUOUS
 62
     7
100
AcDbVertex
100
AcDb2dVertex
 10
414.9265800426563
 20
304.6000000000021
 30
0.0
  0
VERTEX
  5
1EF
330
1ED
100
AcDbEntity
  8
LAY-1
  6
CONTINUOUS
 62
     7
100
AcDbVertex
100
AcDb2dVertex
 10
412.0398286967082
 20
309.6000000000021
 30
0.0
  0
VERTEX
  5
1F0
330
1ED
100
AcDbEntity
  8
LAY-1
  6
CONTINUOUS
 62
     7
100
AcDbVertex
100
AcDb2dVertex
 10
406.266326004812
 20
309.6000000000021
 30
0.0
  0
VERTEX
  5
1F1
330
1ED
100
AcDbEntity
  8
LAY-1
  6
CONTINUOUS
 62
     7
100
AcDbVertex
100
AcDb2dVertex
 10
403.3795746588638
 20
304.6000000000021
 30
0.0
  0
VERTEX
  5
1F2
330
1ED
100
AcDbEntity
  8
LAY-1
  6
CONTINUOUS
 62
     7
100
AcDbVertex
100
AcDb2dVertex
 10
406.2663260048119
 20
299.6000000000021
 30
0.0
  0
VERTEX
  5
1F3
330
1ED
100
AcDbEntity
  8
LAY-1
  6
CONTINUOUS
 62
     7
100
AcDbVertex
100
AcDb2dVertex
 10
412.0398286967081
 20
299.6000000000021
 30
0.0
  0
VERTEX
  5
1F4
330
1ED
100
AcDbEntity
  8
LAY-1
  6
CONTINUOUS
 62
     7
100
AcDbVertex
100
AcDb2dVertex
 10
414.9265800426563
 20
304.6000000000021
 30
0.0
  0
SEQEND
  5
1F5
330
1ED
100
AcDbEntity
  8
LAY-1
  6
CONTINUOUS
 62
     7
  0
CIRCLE
  5
1F6
330
1F
100
AcDbEntity
  8
LAY-1
  6
CONTINUOUS
 62
     7
100
AcDbCircle
 10
409.1530773507601
 20
304.6000000000021
 30
0.0
 40
5.0
  0
CIRCLE
  5
1F7
330
1F
100
AcDbEntity
  8
LAY-1
  6
CONTINUOUS
 62
     7
100
AcDbCircle
 10
409.1530773507601
 20
304.6000000000021
 30
0.0
 40
4.400000000000002
  0
ARC
  5
1F8
330
1F
100
AcDbEntity
  8
LAY-1
  6
CONTINUOUS
 62
     7
100
AcDbCircle
 10
409.153078169315
 20
327.5999999999991
 30
0.0
 40
51.50000000000004
100
AcDbArc
 50
269.9999990893261
 51
270.0000000000002
  0
ARC
  5
1F9
330
1F
100
AcDbEntity
  8
LAY-1
  6
CONTINUOUS
 62
     7
100
AcDbCircle
 10
374.1530773507641
 20
283.68117581825
 30
0.0
 40
6.000000000000004
100
AcDbArc
 50
101.3099237312399
 51
180.0
  0
LINE
  5
1FA
330
1F
100
AcDbEntity
  8
LAY-1
  6
CONTINUOUS
 62
     7
100
AcDbLine
 10
375.9434183773151
 20
319.041933030991
 30
0.0
 11
372.9763814377111
 21
319.635339948054
 31
0.0
  0
ARC
  5
1FB
330
1F
100
AcDbEntity
  8
LAY-1
  6
CONTINUOUS
 62
     7
100
AcDbCircle
 10
374.1530773507641
 20
325.5188241817541
 30
0.0
 40
6.000000000000004
100
AcDbArc
 50
180.0
 51
258.6900762687602
  0
LINE
  5
1FC
330
1F
100
AcDbEntity
  8
LAY-1
  6
CONTINUOUS
 62
     7
100
AcDbLine
 10
375.9434183773151
 20
290.158066969014
 30
0.0
 11
372.976381437711
 21
289.564660051951
 31
0.0
  0
LINE
  5
1FD
330
1F
100
AcDbEntity
  8
LAY-1
  6
CONTINUOUS
 62
     7
100
AcDbLine
 10
442.3627363242121
 20
319.041933030991
 30
0.0
 11
445.3297732638161
 21
319.635339948054
 31
0.0
  0
ARC
  5
1FE
330
1F
100
AcDbEntity
  8
LAY-1
  6
CONTINUOUS
 62
     7
100
AcDbCircle
 10
444.1530773507641
 20
283.68117581825
 30
0.0
 40
6.000000000000004
100
AcDbArc
 50
0.0000000000001719
 51
78.69007626876038
  0
LINE
  5
1FF
330
1F
100
AcDbEntity
  8
LAY-1
  6
CONTINUOUS
 62
     7
100
AcDbLine
 10
442.3627363242121
 20
290.158066969014
 30
0.0
 11
445.3297732638161
 21
289.564660051951
 31
0.0
  0
ARC
  5
200
330
1F
100
AcDbEntity
  8
LAY-1
  6
CONTINUOUS
 62
     7
100
AcDbCircle
 10
444.1530773507641
 20
325.5188241817541
 30
0.0
 40
6.000000000000004
100
AcDbArc
 50
281.3099237312402
 51
0.0000000000001719
  0
ARC
  5
201
330
1F
100
AcDbEntity
  8
LAY-1
  6
CONTINUOUS
 62
     7
100
AcDbCircle
 10
464.1530773507631
 20
331.1000000000021
 30
0.0
 40
1.0
100
AcDbArc
 50
180.0
 51
270.0000000000002
  0
ARC
  5
202
330
1F
100
AcDbEntity
  8
LAY-1
  6
CONTINUOUS
 62
     7
100
AcDbCircle
 10
464.1530773507631
 20
278.1000000000021
 30
0.0
 40
1.0
100
AcDbArc
 50
90.00000000000009
 51
180.0
  0
LINE
  5
203
330
1F
100
AcDbEntity
  8
LAY-1
  6
CONTINUOUS
 62
     7
100
AcDbLine
 10
464.1530773507631
 20
330.1000000000021
 30
0.0
 11
464.1530773507631
 21
279.1000000000021
 31
0.0
  0
ARC
  5
204
330
1F
100
AcDbEntity
  8
LAY-1
  6
CONTINUOUS
 62
     7
100
AcDbCircle
 10
354.1530773507641
 20
331.1000000000021
 30
0.0
 40
1.0
100
AcDbArc
 50
270.0000000000002
 51
0.0000000000001719
  0
ARC
  5
205
330
1F
100
AcDbEntity
  8
LAY-1
  6
CONTINUOUS
 62
     7
100
AcDbCircle
 10
354.1530773507641
 20
278.1000000000021
 30
0.0
 40
1.0
100
AcDbArc
 50
0.0000000000001719
 51
90.00000000000009
  0
ARC
  5
206
330
1F
100
AcDbEntity
  8
LAY-1
  6
CONTINUOUS
 62
     7
100
AcDbCircle
 10
377.1201142903681
 20
324.9254172646921
 30
0.0
 40
6.000000000000004
100
AcDbArc
 50
258.6900762687598
 51
259.5049510289296
  0
ARC
  5
207
330
1F
100
AcDbEntity
  8
LAY-1
  6
CONTINUOUS
 62
     7
100
AcDbCircle
 10
441.1860404111601
 20
324.9254172646921
 30
0.0
 40
6.000000000000004
100
AcDbArc
 50
280.4950489709979
 51
281.3099237312402
  0
ARC
  5
208
330
1F
100
AcDbEntity
  8
LAY-1
  6
CONTINUOUS
 62
     7
100
AcDbCircle
 10
441.1860404111601
 20
284.2745827353131
 30
0.0
 40
6.000000000000004
100
AcDbArc
 50
78.69007626876038
 51
79.50495102899903
  0
ARC
  5
209
330
1F
100
AcDbEntity
  8
LAY-1
  6
CONTINUOUS
 62
     7
100
AcDbCircle
 10
377.1201142903681
 20
284.2745827353131
 30
0.0
 40
6.000000000000004
100
AcDbArc
 50
100.4950489710742
 51
101.3099237312402
  0
ARC
  5
20A
330
1F
100
AcDbEntity
  8
LAY-1
  6
CONTINUOUS
 62
     7
100
AcDbCircle
 10
374.1530773507641
 20
548.6188241817522
 30
0.0
 40
6.000000000000004
100
AcDbArc
 50
180.0000000000001
 51
258.6900762687611
  0
LINE
  5
20B
330
1F
100
AcDbEntity
  8
LAY-1
  6
CONTINUOUS
 62
     7
100
AcDbLine
 10
375.9434183773151
 20
513.2580669690111
 30
0.0
 11
372.9763814377111
 21
512.6646600519482
 31
0.0
  0
ARC
  5
20C
330
1F
100
AcDbEntity
  8
LAY-1
  6
CONTINUOUS
 62
     7
100
AcDbCircle
 10
374.1530773507641
 20
506.7811758182482
 30
0.0
 40
6.000000000000004
100
AcDbArc
 50
101.3099237312392
 51
180.0000000000001
  0
LINE
  5
20D
330
1F
100
AcDbEntity
  8
LAY-1
  6
CONTINUOUS
 62
     7
100
AcDbLine
 10
375.9434183773151
 20
542.1419330309882
 30
0.0
 11
372.9763814377111
 21
542.7353399480512
 31
0.0
  0
LINE
  5
20E
330
1F
100
AcDbEntity
  8
LAY-1
  6
CONTINUOUS
 62
     7
100
AcDbLine
 10
442.3627363242122
 20
513.2580669690111
 30
0.0
 11
445.3297732638162
 21
512.6646600519481
 31
0.0
  0
ARC
  5
20F
330
1F
100
AcDbEntity
  8
LAY-1
  6
CONTINUOUS
 62
     7
100
AcDbCircle
 10
377.1201142903681
 20
548.0254172646892
 30
0.0
 40
6.000000000000004
100
AcDbArc
 50
258.6900762687611
 51
308.4622801311606
  0
ARC
  5
210
330
1F
100
AcDbEntity
  8
LAY-1
  6
CONTINUOUS
 62
     7
100
AcDbCircle
 10
377.1201142903681
 20
507.3745827353101
 30
0.0
 40
6.000000000000004
100
AcDbArc
 50
51.53771986883947
 51
101.3099237312393
  0
ARC
  5
211
330
1F
100
AcDbEntity
  8
LAY-1
  6
CONTINUOUS
 62
     7
100
AcDbCircle
 10
444.1530773507641
 20
548.6188241817521
 30
0.0
 40
6.000000000000004
100
AcDbArc
 50
281.3099237312402
 51
0.0
  0
ARC
  5
212
330
1F
100
AcDbEntity
  8
LAY-1
  6
CONTINUOUS
 62
     7
100
AcDbCircle
 10
400.025345607572
 20
429.2000000000012
 30
0.0
 40
1.0
100
AcDbArc
 50
90.00000000000001
 51
163.2204805075198
  0
ARC
  5
213
330
1F
100
AcDbEntity
  8
LAY-1
  6
CONTINUOUS
 62
     7
100
AcDbCircle
 10
397.1530773532261
 20
430.0660687473181
 30
0.0
 40
2.0
100
AcDbArc
 50
277.6622556607493
 51
343.2204805075233
  0
LINE
  5
214
330
1F
100
AcDbEntity
  8
LAY-1
  6
CONTINUOUS
 62
     7
100
AcDbLine
 10
409.1530773507791
 20
430.2000000000031
 30
0.0
 11
400.0253456080981
 21
430.2000000000012
 31
0.0
  0
ARC
  5
215
330
1F
100
AcDbEntity
  8
LAY-1
  6
CONTINUOUS
 62
     7
100
AcDbCircle
 10
375.6530773507831
 20
416.6999999999931
 30
0.0
 40
6.500000000000004
100
AcDbArc
 50
90.00000000000001
 51
270.0000000000002
  0
ARC
  5
216
330
1F
100
AcDbEntity
  8
LAY-1
  6
CONTINUOUS
 62
     7
100
AcDbCircle
 10
418.280809093987
 20
429.2000000000062
 30
0.0
 40
1.0
100
AcDbArc
 50
16.77951949247857
 51
90.00000000000001
  0
ARC
  5
217
330
1F
100
AcDbEntity
  8
LAY-1
  6
CONTINUOUS
 62
     7
100
AcDbCircle
 10
421.1530773483321
 20
430.0660687473252
 30
0.0
 40
2.0
100
AcDbArc
 50
196.7795194924804
 51
262.3377443392804
  0
LINE
  5
218
330
1F
100
AcDbEntity
  8
LAY-1
  6
CONTINUOUS
 62
     7
100
AcDbLine
 10
409.1530773507791
 20
430.2000000000031
 30
0.0
 11
418.2808090934611
 21
430.2000000000062
 31
0.0
  0
LINE
  5
219
330
1F
100
AcDbEntity
  8
LAY-1
  6
CONTINUOUS
 62
     7
100
AcDbLine
 10
423.6530773507781
 20
435.2000000000081
 30
0.0
 11
425.896235157277
 21
436.4950877634252
 31
0.0
  0
LINE
  5
21A
330
1F
100
AcDbEntity
  8
LAY-1
  6
CONTINUOUS
 62
     7
100
AcDbLine
 10
425.896235157277
 20
436.4950877634252
 30
0.0
 11
425.8962351572751
 21
442.2000000000081
 31
0.0
  0
LINE
  5
21B
330
1F
100
AcDbEntity
  8
LAY-1
  6
CONTINUOUS
 62
     7
100
AcDbLine
 10
392.4099195442781
 20
436.4950877634152
 30
0.0
 11
392.409919544277
 21
442.1999999999981
 31
0.0
  0
LINE
  5
21C
330
1F
100
AcDbEntity
  8
LAY-1
  6
CONTINUOUS
 62
     7
100
AcDbLine
 10
394.6530773507781
 20
435.1999999999991
 30
0.0
 11
392.4099195442781
 21
436.4950877634152
 31
0.0
  0
LINE
  5
21D
330
1F
100
AcDbEntity
  8
LAY-1
  6
CONTINUOUS
 62
     7
100
AcDbLine
 10
414.1530773507791
 20
431.0660254037892
 30
0.0
 11
409.1530773507791
 21
431.0660254037881
 31
0.0
  0
LINE
  5
21E
330
1F
100
AcDbEntity
  8
LAY-1
  6
CONTINUOUS
 62
     7
100
AcDbLine
 10
414.1530773507791
 20
431.0660254037892
 30
0.0
 11
413.6530773507791
 21
430.2000000000052
 31
0.0
  0
LINE
  5
21F
330
1F
100
AcDbEntity
  8
LAY-1
  6
CONTINUOUS
 62
     7
100
AcDbLine
 10
404.1530773507791
 20
431.0660254037862
 30
0.0
 11
409.1530773507791
 21
431.0660254037881
 31
0.0
  0
ARC
  5
220
330
1F
100
AcDbEntity
  8
LAY-1
  6
CONTINUOUS
 62
     7
100
AcDbCircle
 10
441.1860404111601
 20
507.3745827353101
 30
0.0
 40
6.000000000000004
100
AcDbArc
 50
78.690076268759
 51
128.46228013116
  0
ARC
  5
221
330
1F
100
AcDbEntity
  8
LAY-1
  6
CONTINUOUS
 62
     7
100
AcDbCircle
 10
441.1860404111601
 20
548.0254172646892
 30
0.0
 40
6.000000000000004
100
AcDbArc
 50
231.5377198688402
 51
281.3099237312402
  0
LINE
  5
222
330
1F
100
AcDbEntity
  8
LAY-1
  6
CONTINUOUS
 62
     7
100
AcDbLine
 10
404.1530773507791
 20
431.0660254037862
 30
0.0
 11
404.6530773507791
 21
430.2000000000022
 31
0.0
  0
LINE
  5
223
330
1F
100
AcDbEntity
  8
LAY-1
  6
CONTINUOUS
 62
     7
100
AcDbLine
 10
387.2137671215592
 20
480.5029884479331
 30
0.0
 11
390.1530773507641
 21
482.1999999999981
 31
0.0
  0
LINE
  5
224
330
1F
100
AcDbEntity
  8
LAY-1
  6
CONTINUOUS
 62
     7
100
AcDbLine
 10
387.2137671215592
 20
479.2606897707911
 30
0.0
 11
387.2137671215592
 21
480.5029884479331
 31
0.0
  0
LINE
  5
225
330
1F
100
AcDbEntity
  8
LAY-1
  6
CONTINUOUS
 62
     7
100
AcDbLine
 10
387.2137671215642
 20
463.6393102292031
 30
0.0
 11
387.2137671215592
 21
479.2606897707911
 31
0.0
  0
LINE
  5
226
330
1F
100
AcDbEntity
  8
LAY-1
  6
CONTINUOUS
 62
     7
100
AcDbLine
 10
387.2137671215642
 20
461.7630369558452
 30
0.0
 11
387.2137671215642
 21
463.6393102292031
 31
0.0
  0
LINE
  5
227
330
1F
100
AcDbEntity
  8
LAY-1
  6
CONTINUOUS
 62
     7
100
AcDbLine
 10
391.6530773507711
 20
458.6226497308091
 30
0.0
 11
391.6530773507751
 21
445.1999999999981
 31
0.0
  0
LINE
  5
228
330
1F
100
AcDbEntity
  8
LAY-1
  6
CONTINUOUS
 62
     7
100
AcDbLine
 10
391.1530773507711
 20
459.4886751345931
 30
0.0
 11
387.2137671215642
 21
461.7630369558452
 31
0.0
  0
LINE
  5
229
330
1F
100
AcDbEntity
  8
LAY-1
  6
CONTINUOUS
 62
     7
100
AcDbLine
 10
387.2137671215592
 20
479.2606897707911
 30
0.0
 11
387.2137671215642
 21
463.6393102292031
 31
0.0
  0
ARC
  5
22A
330
1F
100
AcDbEntity
  8
LAY-1
  6
CONTINUOUS
 62
     7
100
AcDbCircle
 10
392.6530773507751
 20
445.1999999999981
 30
0.0
 40
1.0
100
AcDbArc
 50
180.0000000000001
 51
270.0000000000002
  0
LINE
  5
22B
330
1F
100
AcDbEntity
  8
LAY-1
  6
CONTINUOUS
 62
     7
100
AcDbLine
 10
395.9655773507641
 20
482.1999999999991
 30
0.0
 11
390.1530773507641
 21
482.1999999999981
 31
0.0
  0
ARC
  5
22C
330
1F
100
AcDbEntity
  8
LAY-1
  6
CONTINUOUS
 62
     7
100
AcDbCircle
 10
390.6530773507711
 20
458.6226497308081
 30
0.0
 40
1.0
100
AcDbArc
 50
0.0000000000001719
 51
60.00000000012097
  0
ARC
  5
22D
330
1F
100
AcDbEntity
  8
LAY-1
  6
CONTINUOUS
 62
     7
100
AcDbCircle
 10
427.6530773507711
 20
458.6226497308191
 30
0.0
 40
1.0
100
AcDbArc
 50
119.9999999998795
 51
180.0000000000001
  0
LINE
  5
22E
330
1F
100
AcDbEntity
  8
LAY-1
  6
CONTINUOUS
 62
     7
100
AcDbLine
 10
422.3405773507641
 20
482.2000000000072
 30
0.0
 11
428.1530773507641
 21
482.2000000000091
 31
0.0
  0
ARC
  5
22F
330
1F
100
AcDbEntity
  8
LAY-1
  6
CONTINUOUS
 62
     7
100
AcDbCircle
 10
425.6530773507751
 20
445.2000000000081
 30
0.0
 40
1.0
100
AcDbArc
 50
270.0000000000002
 51
0.0000000000001719
  0
LINE
  5
230
330
1F
100
AcDbEntity
  8
LAY-1
  6
CONTINUOUS
 62
     7
100
AcDbLine
 10
431.092387579971
 20
479.2606897708041
 30
0.0
 11
431.0923875799751
 21
463.6393102292162
 31
0.0
  0
LINE
  5
231
330
1F
100
AcDbEntity
  8
LAY-1
  6
CONTINUOUS
 62
     7
100
AcDbLine
 10
427.1530773507711
 20
459.4886751346031
 30
0.0
 11
431.092387579976
 21
461.7630369558582
 31
0.0
  0
LINE
  5
232
330
1F
100
AcDbEntity
  8
LAY-1
  6
CONTINUOUS
 62
     7
100
AcDbLine
 10
426.6530773507711
 20
458.6226497308191
 30
0.0
 11
426.6530773507751
 21
445.2000000000091
 31
0.0
  0
LINE
  5
233
330
1F
100
AcDbEntity
  8
LAY-1
  6
CONTINUOUS
 62
     7
100
AcDbLine
 10
431.0923875799701
 20
480.5029884479462
 30
0.0
 11
428.1530773507641
 21
482.2000000000091
 31
0.0
  0
LINE
  5
234
330
1F
100
AcDbEntity
  8
LAY-1
  6
CONTINUOUS
 62
     7
100
AcDbLine
 10
431.092387579971
 20
479.2606897708041
 30
0.0
 11
431.0923875799701
 21
480.5029884479462
 31
0.0
  0
LINE
  5
235
330
1F
100
AcDbEntity
  8
LAY-1
  6
CONTINUOUS
 62
     7
100
AcDbLine
 10
431.0923875799751
 20
463.6393102292162
 30
0.0
 11
431.092387579971
 21
479.2606897708041
 31
0.0
  0
LINE
  5
236
330
1F
100
AcDbEntity
  8
LAY-1
  6
CONTINUOUS
 62
     7
100
AcDbLine
 10
431.092387579976
 20
461.7630369558582
 30
0.0
 11
431.0923875799751
 21
463.6393102292162
 31
0.0
  0
ARC
  5
237
330
1F
100
AcDbEntity
  8
LAY-1
  6
CONTINUOUS
 62
     7
100
AcDbCircle
 10
442.6530773507831
 20
416.7000000000131
 30
0.0
 40
6.500000000000004
100
AcDbArc
 50
270.0000000000002
 51
90.00000000000001
  0
LINE
  5
238
330
1F
100
AcDbEntity
  8
LAY-1
  6
CONTINUOUS
 62
     7
100
AcDbLine
 10
442.3627363242122
 20
542.1419330309881
 30
0.0
 11
445.3297732638162
 21
542.7353399480511
 31
0.0
  0
ARC
  5
239
330
1F
100
AcDbEntity
  8
LAY-1
  6
CONTINUOUS
 62
     7
100
AcDbCircle
 10
444.1530773507641
 20
506.7811758182481
 30
0.0
 40
6.000000000000004
100
AcDbArc
 50
0.0000000000001719
 51
78.690076268759
  0
ARC
  5
23A
330
1F
100
AcDbEntity
  8
LAY-1
  6
CONTINUOUS
 62
     7
100
AcDbCircle
 10
430.1530773507509
 20
493.200000000007
 30
0.0
 40
1.5
100
AcDbArc
 50
0.0000000000001719
 51
48.18968510424076
  0
ARC
  5
23B
330
1F
100
AcDbEntity
  8
LAY-1
  6
CONTINUOUS
 62
     7
100
AcDbCircle
 10
432.1530773507502
 20
495.4360679775076
 30
0.0
 40
1.5
100
AcDbArc
 50
180.0000000000001
 51
228.1896851042405
  0
LINE
  5
23C
330
1F
100
AcDbEntity
  8
LAY-1
  6
CONTINUOUS
 62
     7
100
AcDbLine
 10
430.6530773507502
 20
495.4360679775076
 30
0.0
 11
430.6530773507502
 21
504.156917885848
 31
0.0
  0
ARC
  5
23D
330
1F
100
AcDbEntity
  8
LAY-1
  6
CONTINUOUS
 62
     7
100
AcDbCircle
 10
436.6530773507502
 20
504.156917885848
 30
0.0
 40
6.000000000000004
100
AcDbArc
 50
122.2748034138614
 51
180.0000000000001
  0
ARC
  5
23E
330
1F
100
AcDbEntity
  8
LAY-1
  6
CONTINUOUS
 62
     7
100
AcDbCircle
 10
388.1530773507527
 20
493.2000000000071
 30
0.0
 40
1.5
100
AcDbArc
 50
131.8103148957597
 51
180.0000000000001
  0
ARC
  5
23F
330
1F
100
AcDbEntity
  8
LAY-1
  6
CONTINUOUS
 62
     7
100
AcDbCircle
 10
386.1530773507534
 20
495.4360679775076
 30
0.0
 40
1.5
100
AcDbArc
 50
311.8103148957598
 51
0.0000000000001719
  0
ARC
  5
240
330
1F
100
AcDbEntity
  8
LAY-1
  6
CONTINUOUS
 62
     7
100
AcDbCircle
 10
409.1530773507641
 20
547.7000000000002
 30
0.0
 40
45.5
100
AcDbArc
 50
302.27480341385
 51
308.4622801311601
  0
ARC
  5
241
330
1F
100
AcDbEntity
  8
LAY-1
  6
CONTINUOUS
 62
     7
100
AcDbCircle
 10
409.1530773507641
 20
547.7000000000002
 30
0.0
 40
45.5
100
AcDbArc
 50
231.53771986884
 51
237.7251965861246
  0
ARC
  5
242
330
1F
100
AcDbEntity
  8
LAY-1
  6
CONTINUOUS
 62
     7
100
AcDbCircle
 10
381.6530773507534
 20
504.1569178858524
 30
0.0
 40
6.000000000000004
100
AcDbArc
 50
0.0000000000001719
 51
57.7251965861245
  0
LINE
  5
243
330
1F
100
AcDbEntity
  8
LAY-1
  6
CONTINUOUS
 62
     7
100
AcDbLine
 10
387.6530773507534
 20
495.4360679775076
 30
0.0
 11
387.6530773507534
 21
504.4262350600062
 31
0.0
  0
LINE
  5
244
330
1F
100
AcDbEntity
  8
LAY-1
  6
CONTINUOUS
 62
     7
100
AcDbLine
 10
431.6530773507511
 20
483.6999999999991
 30
0.0
 11
431.6530773507509
 21
493.2000000000071
 31
0.0
  0
ARC
  5
245
330
1F
100
AcDbEntity
  8
LAY-1
  6
CONTINUOUS
 62
     7
100
AcDbCircle
 10
430.1530773507511
 20
483.6999999999991
 30
0.0
 40
1.5
100
AcDbArc
 50
270.0000000000002
 51
0.0000000000001719
  0
LINE
  5
246
330
1F
100
AcDbEntity
  8
LAY-1
  6
CONTINUOUS
 62
     7
100
AcDbLine
 10
386.6530773507525
 20
483.7000000000004
 30
0.0
 11
386.6530773507527
 21
493.2000000000071
 31
0.0
  0
ARC
  5
247
330
1F
100
AcDbEntity
  8
LAY-1
  6
CONTINUOUS
 62
     7
100
AcDbCircle
 10
388.1530773507525
 20
483.7000000000003
 30
0.0
 40
1.5
100
AcDbArc
 50
180.0000000000001
 51
270.0000000000002
  0
LINE
  5
248
330
1F
100
AcDbEntity
  8
LAY-1
  6
CONTINUOUS
 62
     7
100
AcDbLine
 10
409.1530773507641
 20
435.2000000000052
 30
0.0
 11
423.6530773507781
 21
435.2000000000081
 31
0.0
  0
LINE
  5
249
330
1F
100
AcDbEntity
  8
LAY-1
  6
CONTINUOUS
 62
     7
100
AcDbLine
 10
409.1530773507641
 20
435.2000000000022
 30
0.0
 11
394.6530773507781
 21
435.1999999999991
 31
0.0
  0
LINE
  5
24A
330
1F
100
AcDbEntity
  8
LAY-1
  6
CONTINUOUS
 62
     7
100
AcDbLine
 10
392.409919544277
 20
442.1999999999981
 30
0.0
 11
409.1530773507641
 21
442.1999999999981
 31
0.0
  0
LINE
  5
24B
330
1F
100
AcDbEntity
  8
LAY-1
  6
CONTINUOUS
 62
     7
100
AcDbLine
 10
404.1530773507745
 20
435.2000000000011
 30
0.0
 11
404.1530773507791
 21
431.0660254037862
 31
0.0
  0
LINE
  5
24C
330
1F
100
AcDbEntity
  8
LAY-1
  6
CONTINUOUS
 62
     7
100
AcDbLine
 10
414.1530773507745
 20
435.2000000000052
 30
0.0
 11
414.1530773507791
 21
431.0660254037892
 31
0.0
  0
LINE
  5
24D
330
1F
100
AcDbEntity
  8
LAY-1
  6
CONTINUOUS
 62
     7
100
AcDbLine
 10
425.8962351572751
 20
442.2000000000081
 30
0.0
 11
409.1530773507641
 21
442.2000000000081
 31
0.0
  0
LINE
  5
24E
330
1F
100
AcDbEntity
  8
LAY-1
  6
CONTINUOUS
 62
     7
100
AcDbLine
 10
425.6530773507751
 20
444.2000000000081
 30
0.0
 11
409.1530773507641
 21
444.2000000000081
 31
0.0
  0
LINE
  5
24F
330
1F
100
AcDbEntity
  8
LAY-1
  6
CONTINUOUS
 62
     7
100
AcDbLine
 10
392.6530773507751
 20
444.1999999999981
 30
0.0
 11
409.1530773507641
 21
444.1999999999981
 31
0.0
  0
LINE
  5
250
330
1F
100
AcDbEntity
  8
LAY-1
  6
CONTINUOUS
 62
     7
100
AcDbLine
 10
395.1530773507761
 20
442.1999999999991
 30
0.0
 11
395.1530773507761
 21
444.1999999999981
 31
0.0
  0
LINE
  5
251
330
1F
100
AcDbEntity
  8
LAY-1
  6
CONTINUOUS
 62
     7
100
AcDbLine
 10
423.1530773507761
 20
442.2000000000072
 30
0.0
 11
423.1530773507761
 21
444.2000000000081
 31
0.0
  0
LINE
  5
252
330
1F
100
AcDbEntity
  8
LAY-1
  6
CONTINUOUS
 62
     7
100
AcDbLine
 10
409.1530773507641
 20
482.2000000000072
 30
0.0
 11
430.1530773507495
 21
482.1999999999991
 31
0.0
  0
LINE
  5
253
330
1F
100
AcDbEntity
  8
LAY-1
  6
CONTINUOUS
 62
     7
100
AcDbLine
 10
388.1530773507523
 20
482.2000000000003
 30
0.0
 11
409.1530773507641
 21
482.2000000000003
 31
0.0
  0
LINE
  5
254
330
1F
100
AcDbEntity
  8
LAY-1
  6
CONTINUOUS
 62
     7
100
AcDbLine
 10
430.5030773507501
 20
493.3000000000062
 30
0.0
 11
409.1530773507641
 21
493.3000000000062
 31
0.0
  0
LINE
  5
255
330
1F
100
AcDbEntity
  8
LAY-1
  6
CONTINUOUS
 62
     7
100
AcDbLine
 10
429.0030773507501
 20
494.6000000000062
 30
0.0
 11
409.1530773507641
 21
494.6000000000062
 31
0.0
  0
LINE
  5
256
330
1F
100
AcDbEntity
  8
LAY-1
  6
CONTINUOUS
 62
     7
100
AcDbLine
 10
389.303077350778
 20
494.6000000000062
 30
0.0
 11
409.1530773507641
 21
494.6000000000062
 31
0.0
  0
LINE
  5
257
330
1F
100
AcDbEntity
  8
LAY-1
  6
CONTINUOUS
 62
     7
100
AcDbLine
 10
387.803077350778
 20
493.3000000000062
 30
0.0
 11
409.1530773507641
 21
493.3000000000062
 31
0.0
  0
LINE
  5
258
330
1F
100
AcDbEntity
  8
LAY-1
  6
CONTINUOUS
 62
     7
100
AcDbLine
 10
375.6530773507831
 20
410.1999999999931
 30
0.0
 11
409.1530773507641
 21
410.1999999999931
 31
0.0
  0
LINE
  5
259
330
1F
100
AcDbEntity
  8
LAY-1
  6
CONTINUOUS
 62
     7
100
AcDbLine
 10
442.653077350785
 20
410.2000000000131
 30
0.0
 11
409.1530773507641
 21
410.2000000000132
 31
0.0
  0
ARC
  5
25A
330
1F
100
AcDbEntity
  8
LAY-1
  6
CONTINUOUS
 62
     7
100
AcDbCircle
 10
409.1530773507841
 20
413.7000000000022
 30
0.0
 40
4.5
100
AcDbArc
 50
231.0575587310015
 51
308.9424412692051
  0
ARC
  5
25B
330
1F
100
AcDbEntity
  8
LAY-1
  6
CONTINUOUS
 62
     7
100
AcDbCircle
 10
399.1530773532311
 20
415.2000000000002
 30
0.0
 40
13.00000000000001
100
AcDbArc
 50
97.66225567981719
 51
142.0201275551474
  0
LINE
  5
25C
330
1F
100
AcDbEntity
  8
LAY-1
  6
CONTINUOUS
 62
     7
100
AcDbLine
 10
375.6530773507811
 20
423.1999999999931
 30
0.0
 11
409.1530773507641
 21
423.1999999999931
 31
0.0
  0
LINE
  5
25D
330
1F
100
AcDbEntity
  8
LAY-1
  6
CONTINUOUS
 62
     7
100
AcDbLine
 10
442.6530773507811
 20
423.2000000000131
 30
0.0
 11
409.1530773507641
 21
423.2000000000131
 31
0.0
  0
ARC
  5
25E
330
1F
100
AcDbEntity
  8
LAY-1
  6
CONTINUOUS
 62
     7
100
AcDbCircle
 10
419.1530773483371
 20
415.2000000000062
 30
0.0
 40
13.00000000000001
100
AcDbArc
 50
37.9798724448908
 51
82.33774432020016
  0
LINE
  5
25F
330
1F
100
AcDbEntity
  8
LAY-1
  6
CONTINUOUS
 62
     7
100
AcDbLine
 10
420.1227324653702
 20
461.7630369558561
 30
0.0
 11
420.1227324653702
 21
480.5029884479362
 31
0.0
  0
LINE
  5
260
330
1F
100
AcDbEntity
  8
LAY-1
  6
CONTINUOUS
 62
     7
100
AcDbLine
 10
398.1834222361581
 20
461.7630369558561
 30
0.0
 11
398.1834222361581
 21
480.5029884479362
 31
0.0
  0
ARC
  5
261
330
1F
100
AcDbEntity
  8
LAY-1
  6
CONTINUOUS
 62
     7
100
AcDbCircle
 10
425.60756002267
 20
469.4131982120106
 30
0.0
 40
9.413198212004533
100
AcDbArc
 50
234.3611490757514
 51
305.6388509242504
  0
ARC
  5
262
330
1F
100
AcDbEntity
  8
LAY-1
  6
CONTINUOUS
 62
     7
100
AcDbCircle
 10
409.1530773507652
 20
495.0082374141806
 30
0.0
 40
35.00823741417941
100
AcDbArc
 50
251.7390699577535
 51
288.2609300422467
  0
ARC
  5
263
330
1F
100
AcDbEntity
  8
LAY-1
  6
CONTINUOUS
 62
     7
100
AcDbCircle
 10
392.6985946788602
 20
469.4131982119577
 30
0.0
 40
9.413198211961452
100
AcDbArc
 50
234.3611490755625
 51
305.638850924437
  0
ARC
  5
264
330
1F
100
AcDbEntity
  8
LAY-1
  6
CONTINUOUS
 62
     7
100
AcDbCircle
 10
392.69859467886
 20
472.487873555999
 30
0.0
 40
9.712126444001248
100
AcDbArc
 50
55.61575253194042
 51
124.3842474680576
  0
ARC
  5
265
330
1F
100
AcDbEntity
  8
LAY-1
  6
CONTINUOUS
 62
     7
100
AcDbCircle
 10
409.1530773507651
 20
445.8970115522052
 30
0.0
 40
36.30298844780198
100
AcDbArc
 50
72.41204622593548
 51
107.5879537740641
  0
ARC
  5
266
330
1F
100
AcDbEntity
  8
LAY-1
  6
CONTINUOUS
 62
     7
100
AcDbCircle
 10
425.6075600226775
 20
472.4878735559781
 30
0.0
 40
9.712126444022692
100
AcDbArc
 50
55.61575253207964
 51
124.3842474680248
  0
LINE
  5
267
330
1F
100
AcDbEntity
  8
LAY-1
  6
CONTINUOUS
 62
     7
100
AcDbLine
 10
417.53176152821
 20
436.4950877634261
 30
0.0
 11
417.53176152821
 21
442.2000000000081
 31
0.0
  0
LINE
  5
268
330
1F
100
AcDbEntity
  8
LAY-1
  6
CONTINUOUS
 62
     7
100
AcDbLine
 10
400.7743931733181
 20
436.4950877634261
 30
0.0
 11
400.7743931733181
 21
442.2000000000081
 31
0.0
  0
ARC
  5
269
330
1F
100
AcDbEntity
  8
LAY-1
  6
CONTINUOUS
 62
     7
100
AcDbCircle
 10
421.7139983427451
 20
442.6004085395856
 30
0.0
 40
7.400408539577812
100
AcDbArc
 50
235.5882684477689
 51
304.4117315522328
  0
ARC
  5
26A
330
1F
100
AcDbEntity
  8
LAY-1
  6
CONTINUOUS
 62
     7
100
AcDbCircle
 10
409.153077350765
 20
462.9508609417744
 30
0.0
 40
27.75086094177222
100
AcDbArc
 50
252.4267282812252
 51
287.5732717187756
  0
ARC
  5
26B
330
1F
100
AcDbEntity
  8
LAY-1
  6
CONTINUOUS
 62
     7
100
AcDbCircle
 10
396.5921563587932
 20
442.6004085395125
 30
0.0
 40
7.400408539512974
100
AcDbArc
 50
235.5882684476324
 51
304.4117315525002
  0
ARC
  5
26C
330
1F
100
AcDbEntity
  8
LAY-1
  6
CONTINUOUS
 62
     7
100
AcDbCircle
 10
383.1530773507614
 20
552.1550334608011
 30
0.0
 40
6.000000000000004
100
AcDbArc
 50
300.3216855263997
 51
0.0000000000001719
  0
ARC
  5
26D
330
1F
100
AcDbEntity
  8
LAY-1
  6
CONTINUOUS
 62
     7
100
AcDbCircle
 10
435.1530773507614
 20
552.1550334608011
 30
0.0
 40
6.000000000000004
100
AcDbArc
 50
180.0000000000001
 51
239.6783144736006
  0
ARC
  5
26E
330
1F
100
AcDbEntity
  8
LAY-1
  6
CONTINUOUS
 62
     7
100
AcDbCircle
 10
423.2511535621155
 20
593.7000000000111
 30
0.0
 40
1.5
100
AcDbArc
 50
60.00000000012011
 51
90.00000000000001
  0
ARC
  5
26F
330
1F
100
AcDbEntity
  8
LAY-1
  6
CONTINUOUS
 62
     7
100
AcDbCircle
 10
427.3960773507614
 20
580.7499804433571
 30
0.0
 40
1.5
100
AcDbArc
 50
180.0000000000001
 51
254.9999999998798
  0
ARC
  5
270
330
1F
100
AcDbEntity
  8
LAY-1
  6
CONTINUOUS
 62
     7
100
AcDbCircle
 10
424.8960773507615
 20
593.3276530770291
 30
0.0
 40
1.0
100
AcDbArc
 50
0.0000000000001719
 51
60.00000000012097
  0
LINE
  5
271
330
1F
100
AcDbEntity
  8
LAY-1
  6
CONTINUOUS
 62
     7
100
AcDbLine
 10
430.1530773507614
 20
578.1244680703411
 30
0.0
 11
430.1530773507614
 21
573.7000000000111
 31
0.0
  0
ARC
  5
272
330
1F
100
AcDbEntity
  8
LAY-1
  6
CONTINUOUS
 62
     7
100
AcDbCircle
 10
395.0550011394083
 20
593.7000000000111
 30
0.0
 40
1.5
100
AcDbArc
 50
90.00000000000001
 51
119.9999999998799
  0
LINE
  5
273
330
1F
100
AcDbEntity
  8
LAY-1
  6
CONTINUOUS
 62
     7
100
AcDbLine
 10
389.3766202154534
 20
578.7861775717082
 30
0.0
 11
391.2983059184154
 21
579.3010917039231
 31
0.0
  0
LINE
  5
274
330
1F
100
AcDbEntity
  8
LAY-1
  6
CONTINUOUS
 62
     7
100
AcDbLine
 10
404.7113848362163
 20
599.7000000000102
 30
0.0
 11
404.7113848362163
 21
605.0747852176742
 31
0.0
  0
LINE
  5
275
330
1F
100
AcDbEntity
  8
LAY-1
  6
CONTINUOUS
 62
     7
100
AcDbLine
 10
413.1945292350894
 20
599.7000000000121
 30
0.0
 11
413.1945292350894
 21
605.0747852176742
 31
0.0
  0
LINE
  5
276
330
1F
100
AcDbEntity
  8
LAY-1
  6
CONTINUOUS
 62
     7
100
AcDbLine
 10
417.2359811194153
 20
599.7000000000131
 30
0.0
 11
417.2359811194134
 21
605.0747852176742
 31
0.0
  0
LINE
  5
277
330
1F
100
AcDbEntity
  8
LAY-1
  6
CONTINUOUS
 62
     7
100
AcDbLine
 10
417.2359811194134
 20
605.0747852176742
 30
0.0
 11
416.1301925432783
 21
605.7000000000131
 31
0.0
  0
LINE
  5
278
330
1F
100
AcDbEntity
  8
LAY-1
  6
CONTINUOUS
 62
     7
100
AcDbLine
 10
416.1301925432783
 20
605.7000000000131
 30
0.0
 11
402.1530773507584
 21
605.7000000000091
 31
0.0
  0
LINE
  5
279
330
1F
100
AcDbEntity
  8
LAY-1
  6
CONTINUOUS
 62
     7
100
AcDbLine
 10
402.1530773507584
 20
605.7000000000091
 30
0.0
 11
401.0701735821034
 21
605.0747852176692
 31
0.0
  0
LINE
  5
27A
330
1F
100
AcDbEntity
  8
LAY-1
  6
CONTINUOUS
 62
     7
100
AcDbLine
 10
401.0701735821034
 20
605.0747852176692
 30
0.0
 11
401.0701735821053
 21
599.7000000000081
 31
0.0
  0
LINE
  5
27B
330
1F
100
AcDbEntity
  8
LAY-1
  6
CONTINUOUS
 62
     7
100
AcDbLine
 10
417.2359811194153
 20
599.7000000000131
 30
0.0
 11
409.1530773507614
 21
599.7000000000111
 31
0.0
  0
LINE
  5
27C
330
1F
100
AcDbEntity
  8
LAY-1
  6
CONTINUOUS
 62
     7
100
AcDbLine
 10
415.8944955479553
 20
599.7000000000131
 30
0.0
 11
415.8316430158693
 21
597.7000000000131
 31
0.0
  0
LINE
  5
27D
330
1F
100
AcDbEntity
  8
LAY-1
  6
CONTINUOUS
 62
     7
100
AcDbLine
 10
402.4745116856524
 20
597.7000000000091
 30
0.0
 11
402.4273722865863
 21
599.7000000000091
 31
0.0
  0
LINE
  5
27E
330
1F
100
AcDbEntity
  8
LAY-1
  6
CONTINUOUS
 62
     7
100
AcDbLine
 10
429.6530773507614
 20
573.2000000000111
 30
0.0
 11
430.1530773507614
 21
573.7000000000111
 31
0.0
  0
ARC
  5
27F
330
1F
100
AcDbEntity
  8
LAY-1
  6
CONTINUOUS
 62
     7
100
AcDbCircle
 10
390.1530773507614
 20
575.8884000928412
 30
0.0
 40
3.000000000000002
100
AcDbArc
 50
105.0000000001204
 51
131.810314895639
  0
LINE
  5
280
330
1F
100
AcDbEntity
  8
LAY-1
  6
CONTINUOUS
 62
     7
100
AcDbLine
 10
422.3530773507614
 20
573.2000000000111
 30
0.0
 11
429.6530773507614
 21
573.2000000000111
 31
0.0
  0
LINE
  5
281
330
1F
100
AcDbEntity
  8
LAY-1
  6
CONTINUOUS
 62
     7
100
AcDbLine
 10
388.6530773507614
 20
573.2000000000111
 30
0.0
 11
387.6530773507614
 21
572.2000000000111
 31
0.0
  0
LINE
  5
282
330
1F
100
AcDbEntity
  8
LAY-1
  6
CONTINUOUS
 62
     7
100
AcDbLine
 10
430.6530773507614
 20
572.2000000000111
 30
0.0
 11
429.6530773507614
 21
573.2000000000111
 31
0.0
  0
ARC
  5
283
330
1F
100
AcDbEntity
  8
LAY-1
  6
CONTINUOUS
 62
     7
100
AcDbCircle
 10
430.6530773507614
 20
559.2000000000111
 30
0.0
 40
1.5
100
AcDbArc
 50
119.9999999998795
 51
180.0000000000001
  0
ARC
  5
284
330
1F
100
AcDbEntity
  8
LAY-1
  6
CONTINUOUS
 62
     7
100
AcDbCircle
 10
387.6530773507614
 20
559.2000000000111
 30
0.0
 40
1.5
100
AcDbArc
 50
0.0000000000001719
 51
60.00000000012011
  0
LINE
  5
285
330
1F
100
AcDbEntity
  8
LAY-1
  6
CONTINUOUS
 62
     7
100
AcDbLine
 10
430.6530773507614
 20
561.7980762113642
 30
0.0
 11
430.6530773507614
 21
572.2000000000111
 31
0.0
  0
LINE
  5
286
330
1F
100
AcDbEntity
  8
LAY-1
  6
CONTINUOUS
 62
     7
100
AcDbLine
 10
389.1530773507614
 20
559.2000000000111
 30
0.0
 11
389.1530773507614
 21
552.1550334608011
 31
0.0
  0
ARC
  5
287
330
1F
100
AcDbEntity
  8
LAY-1
  6
CONTINUOUS
 62
     7
100
AcDbCircle
 10
389.1530773507614
 20
561.7980762113642
 30
0.0
 40
1.5
100
AcDbArc
 50
180.0000000000001
 51
240.0000000001203
  0
LINE
  5
288
330
1F
100
AcDbEntity
  8
LAY-1
  6
CONTINUOUS
 62
     7
100
AcDbLine
 10
387.6530773507614
 20
572.2000000000111
 30
0.0
 11
387.6530773507614
 21
561.7980762113642
 31
0.0
  0
ARC
  5
289
330
1F
100
AcDbEntity
  8
LAY-1
  6
CONTINUOUS
 62
     7
100
AcDbCircle
 10
429.1530773507614
 20
561.7980762113642
 30
0.0
 40
1.5
100
AcDbArc
 50
299.99999999988
 51
0.0000000000001719
  0
LINE
  5
28A
330
1F
100
AcDbEntity
  8
LAY-1
  6
CONTINUOUS
 62
     7
100
AcDbLine
 10
429.1530773507614
 20
552.1550334608011
 30
0.0
 11
429.1530773507614
 21
559.2000000000111
 31
0.0
  0
LINE
  5
28B
330
1F
100
AcDbEntity
  8
LAY-1
  6
CONTINUOUS
 62
     7
100
AcDbLine
 10
392.4100773507614
 20
580.7499804433571
 30
0.0
 11
392.4100773507614
 21
593.3276530770291
 31
0.0
  0
LINE
  5
28C
330
1F
100
AcDbEntity
  8
LAY-1
  6
CONTINUOUS
 62
     7
100
AcDbLine
 10
388.6530773507614
 20
573.2000000000111
 30
0.0
 11
395.9530773507613
 21
573.2000000000111
 31
0.0
  0
LINE
  5
28D
330
1F
100
AcDbEntity
  8
LAY-1
  6
CONTINUOUS
 62
     7
100
AcDbLine
 10
409.1530773507614
 20
599.7000000000111
 30
0.0
 11
401.0701735821053
 21
599.7000000000081
 31
0.0
  0
LINE
  5
28E
330
1F
100
AcDbEntity
  8
LAY-1
  6
CONTINUOUS
 62
     7
100
AcDbLine
 10
409.1530773507614
 20
597.7000000000131
 30
0.0
 11
402.4745116856524
 21
597.7000000000091
 31
0.0
  0
LINE
  5
28F
330
1F
100
AcDbEntity
  8
LAY-1
  6
CONTINUOUS
 62
     7
100
AcDbLine
 10
409.1530773507614
 20
597.7000000000131
 30
0.0
 11
415.8316430158693
 21
597.7000000000131
 31
0.0
  0
LINE
  5
290
330
1F
100
AcDbEntity
  8
LAY-1
  6
CONTINUOUS
 62
     7
100
AcDbLine
 10
388.1530773507614
 20
578.1244680703411
 30
0.0
 11
388.1530773507624
 21
573.7000000000111
 31
0.0
  0
ARC
  5
291
330
1F
100
AcDbEntity
  8
LAY-1
  6
CONTINUOUS
 62
     7
100
AcDbCircle
 10
390.9100773507614
 20
580.7499804433571
 30
0.0
 40
1.5
100
AcDbArc
 50
285.0000000001204
 51
0.0000000000001719
  0
LINE
  5
292
330
1F
100
AcDbEntity
  8
LAY-1
  6
CONTINUOUS
 62
     7
100
AcDbLine
 10
425.3960773507614
 20
594.1936784808132
 30
0.0
 11
424.0011535621155
 21
594.9990381056881
 31
0.0
  0
ARC
  5
293
330
1F
100
AcDbEntity
  8
LAY-1
  6
CONTINUOUS
 62
     7
100
AcDbCircle
 10
393.4100773507614
 20
593.3276530770291
 30
0.0
 40
1.0
100
AcDbArc
 50
119.9999999998795
 51
180.0000000000001
  0
LINE
  5
294
330
1F
100
AcDbEntity
  8
LAY-1
  6
CONTINUOUS
 62
     7
100
AcDbLine
 10
388.6530773507614
 20
573.2000000000111
 30
0.0
 11
388.1530773507624
 21
573.7000000000111
 31
0.0
  0
LINE
  5
295
330
1F
100
AcDbEntity
  8
LAY-1
  6
CONTINUOUS
 62
     7
100
AcDbLine
 10
392.9100773507614
 20
594.1936784808132
 30
0.0
 11
394.3050011394083
 21
594.9990381056881
 31
0.0
  0
LINE
  5
296
330
1F
100
AcDbEntity
  8
LAY-1
  6
CONTINUOUS
 62
     7
100
AcDbLine
 10
425.8960773507614
 20
580.7499804433571
 30
0.0
 11
425.8960773507614
 21
593.3276530770291
 31
0.0
  0
ARC
  5
297
330
1F
100
AcDbEntity
  8
LAY-1
  6
CONTINUOUS
 62
     7
100
AcDbCircle
 10
428.1530773507614
 20
575.8884000928412
 30
0.0
 40
3.000000000000002
100
AcDbArc
 50
48.18968510436125
 51
74.99999999987979
  0
ARC
  5
298
330
1F
100
AcDbEntity
  8
LAY-1
  6
CONTINUOUS
 62
     7
100
AcDbCircle
 10
415.2152551772514
 20
602.1218481522232
 30
0.0
 40
3.578151847806
100
AcDbArc
 50
55.61575253208009
 51
124.3842474679202
  0
ARC
  5
299
330
1F
100
AcDbEntity
  8
LAY-1
  6
CONTINUOUS
 62
     7
100
AcDbCircle
 10
408.9529570356524
 20
590.9995892240681
 30
0.0
 40
14.700410775943
100
AcDbArc
 50
73.2297751376403
 51
106.77022486236
  0
LINE
  5
29A
330
1F
100
AcDbEntity
  8
LAY-1
  6
CONTINUOUS
 62
     7
100
AcDbLine
 10
428.9295344860693
 20
578.7861775717082
 30
0.0
 11
427.0078487831083
 21
579.3010917039231
 31
0.0
  0
ARC
  5
29B
330
1F
100
AcDbEntity
  8
LAY-1
  6
CONTINUOUS
 62
     7
100
AcDbCircle
 10
402.8907792091624
 20
602.7366196721571
 30
0.0
 40
2.963380327852
100
AcDbArc
 50
52.09399786140116
 51
127.9060021389615
  0
LINE
  5
29C
330
1F
100
AcDbEntity
  8
LAY-1
  6
CONTINUOUS
 62
     7
100
AcDbLine
 10
409.1530773507614
 20
573.2000000000111
 30
0.0
 11
429.6530773507614
 21
573.2000000000111
 31
0.0
  0
LINE
  5
29D
330
1F
100
AcDbEntity
  8
LAY-1
  6
CONTINUOUS
 62
     7
100
AcDbLine
 10
409.1530773507602
 20
573.2000000000111
 30
0.0
 11
389.1530773507614
 21
573.2000000000111
 31
0.0
  0
LINE
  5
29E
330
1F
100
AcDbEntity
  8
LAY-1
  6
CONTINUOUS
 62
     7
100
AcDbLine
 10
395.0550011394083
 20
595.2000000000111
 30
0.0
 11
409.1530773507602
 21
595.2000000000111
 31
0.0
  0
LINE
  5
29F
330
1F
100
AcDbEntity
  8
LAY-1
  6
CONTINUOUS
 62
     7
100
AcDbLine
 10
423.2511535621155
 20
595.2000000000111
 30
0.0
 11
409.1530773507602
 21
595.2000000000111
 31
0.0
  0
LINE
  5
2A0
330
1F
100
AcDbEntity
  8
LAY-1
  6
CONTINUOUS
 62
     7
100
AcDbLine
 10
415.8316430158693
 20
597.7000000000131
 30
0.0
 11
415.7530773507616
 21
595.2000000000111
 31
0.0
  0
LINE
  5
2A1
330
1F
100
AcDbEntity
  8
LAY-1
  6
CONTINUOUS
 62
     7
100
AcDbLine
 10
402.5530773507614
 20
595.2000000000111
 30
0.0
 11
402.4745116856524
 21
597.7000000000091
 31
0.0
  0
LINE
  5
2A2
330
1F
100
AcDbEntity
  8
LAY-1
  6
CONTINUOUS
 62
     7
100
AcDbLine
 10
400.7648152404101
 20
580.6035050718411
 30
0.0
 11
400.7648152404101
 21
593.3276530770291
 31
0.0
  0
LINE
  5
2A3
330
1F
100
AcDbEntity
  8
LAY-1
  6
CONTINUOUS
 62
     7
100
AcDbLine
 10
417.5413394611124
 20
580.6035050718411
 30
0.0
 11
417.5413394611124
 21
593.3276530770291
 31
0.0
  0
ARC
  5
2A4
330
1F
100
AcDbEntity
  8
LAY-1
  6
CONTINUOUS
 62
     7
100
AcDbCircle
 10
396.5874462955852
 20
589.6037896919843
 30
0.0
 40
5.596210308026882
100
AcDbArc
 50
41.71500900752051
 51
138.2849909924808
  0
ARC
  5
2A5
330
1F
100
AcDbEntity
  8
LAY-1
  6
CONTINUOUS
 62
     7
100
AcDbCircle
 10
409.1530773507602
 20
575.4737881198198
 30
0.0
 40
19.72621188019133
100
AcDbArc
 50
64.83450458869874
 51
115.1654954113011
  0
ARC
  5
2A6
330
1F
100
AcDbEntity
  8
LAY-1
  6
CONTINUOUS
 62
     7
100
AcDbCircle
 10
421.7187084059356
 20
589.6037896919855
 30
0.0
 40
5.596210308025622
100
AcDbArc
 50
41.71500900751272
 51
138.2849909925002
  0
LINE
  5
2A7
330
1F
100
AcDbEntity
  8
LAY-1
  6
CONTINUOUS
 62
     7
100
AcDbLine
 10
391.9729400472202
 20
578.2035050718412
 30
0.0
 11
409.1530773507602
 21
578.2035050718412
 31
0.0
  0
LINE
  5
2A8
330
1F
100
AcDbEntity
  8
LAY-1
  6
CONTINUOUS
 62
     7
100
AcDbLine
 10
426.3332146543025
 20
578.2035050718412
 30
0.0
 11
409.1530773507624
 21
578.2035050718412
 31
0.0
  0
ARC
  5
2A9
330
1F
100
AcDbEntity
  8
LAY-1
  6
CONTINUOUS
 62
     7
100
AcDbCircle
 10
409.1530773507641
 20
507.7000000000002
 30
0.0
 40
45.5
100
AcDbArc
 50
51.53771986883994
 51
59.67831447348314
  0
ARC
  5
2AA
330
1F
100
AcDbEntity
  8
LAY-1
  6
CONTINUOUS
 62
     7
100
AcDbCircle
 10
409.1530773507641
 20
507.7000000000002
 30
0.0
 40
45.5
100
AcDbArc
 50
120.3216855265222
 51
128.4622801311597
  0
LINE
  5
2AB
330
1F
100
AcDbEntity
  8
LAY-1
  6
CONTINUOUS
 62
     7
100
AcDbLine
 10
427.8530773507601
 20
559.7999999997961
 30
0.0
 11
409.1530773507641
 21
559.7999999997961
 31
0.0
  0
LINE
  5
2AC
330
1F
100
AcDbEntity
  8
LAY-1
  6
CONTINUOUS
 62
     7
100
AcDbLine
 10
428.7530773507601
 20
561.1999999997962
 30
0.0
 11
409.1530773507641
 21
561.1999999997962
 31
0.0
  0
LINE
  5
2AD
330
1F
100
AcDbEntity
  8
LAY-1
  6
CONTINUOUS
 62
     7
100
AcDbLine
 10
390.4530773507681
 20
559.7999999997961
 30
0.0
 11
409.1530773507641
 21
559.7999999997961
 31
0.0
  0
LINE
  5
2AE
330
1F
100
AcDbEntity
  8
LAY-1
  6
CONTINUOUS
 62
     7
100
AcDbLine
 10
389.553077350768
 20
561.1999999997962
 30
0.0
 11
409.1530773507641
 21
561.1999999997962
 31
0.0
  0
LINE
  5
2AF
330
1F
100
AcDbEntity
  8
LAY-1
  6
CONTINUOUS
 62
     7
100
AcDbLine
 10
428.716397039765
 20
523.699999999783
 30
0.0
 11
404.716397039765
 21
523.699999999783
 31
0.0
  0
LINE
  5
2B0
330
1F
100
AcDbEntity
  8
LAY-1
  6
CONTINUOUS
 62
     7
100
AcDbLine
 10
422.716397039765
 20
517.199999999783
 30
0.0
 11
422.716397039765
 21
530.199999999783
 31
0.0
  0
LINE
  5
2B1
330
1F
100
AcDbEntity
  8
LAY-1
  6
CONTINUOUS
 62
     7
100
AcDbLine
 10
416.716397039765
 20
530.1999999997811
 30
0.0
 11
416.716397039765
 21
517.1999999997811
 31
0.0
  0
LINE
  5
2B2
330
1F
100
AcDbEntity
  8
LAY-1
  6
CONTINUOUS
 62
     7
100
AcDbLine
 10
404.716397039765
 20
517.1999999997811
 30
0.0
 11
428.716397039765
 21
517.199999999783
 31
0.0
  0
LINE
  5
2B3
330
1F
100
AcDbEntity
  8
LAY-1
  6
CONTINUOUS
 62
     7
100
AcDbLine
 10
404.716397039765
 20
530.1999999997811
 30
0.0
 11
404.716397039765
 21
517.1999999997811
 31
0.0
  0
LINE
  5
2B4
330
1F
100
AcDbEntity
  8
LAY-1
  6
CONTINUOUS
 62
     7
100
AcDbLine
 10
428.716397039765
 20
530.199999999783
 30
0.0
 11
404.716397039765
 21
530.1999999997811
 31
0.0
  0
LINE
  5
2B5
330
1F
100
AcDbEntity
  8
LAY-1
  6
CONTINUOUS
 62
     7
100
AcDbLine
 10
428.716397039765
 20
517.199999999783
 30
0.0
 11
428.716397039765
 21
530.199999999783
 31
0.0
  0
LINE
  5
2B6
330
1F
100
AcDbEntity
  8
LAY-1
  6
CONTINUOUS
 62
     7
100
AcDbLine
 10
410.716397039765
 20
517.1999999997811
 30
0.0
 11
410.716397039765
 21
530.1999999997811
 31
0.0
  0
LINE
  5
2B7
330
1F
100
AcDbEntity
  8
LAY-1
  6
CONTINUOUS
 62
     7
100
AcDbLine
 10
385.716397039765
 20
539.1999999997831
 30
0.0
 11
429.716397039765
 21
539.199999999783
 31
0.0
  0
LINE
  5
2B8
330
1F
100
AcDbEntity
  8
LAY-1
  6
CONTINUOUS
 62
     7
100
AcDbLine
 10
385.716397039765
 20
516.1999999997831
 30
0.0
 11
385.716397039765
 21
539.1999999997831
 31
0.0
  0
LINE
  5
2B9
330
1F
100
AcDbEntity
  8
LAY-1
  6
CONTINUOUS
 62
     7
100
AcDbLine
 10
429.716397039765
 20
516.199999999783
 30
0.0
 11
385.716397039765
 21
516.1999999997831
 31
0.0
  0
LINE
  5
2BA
330
1F
100
AcDbEntity
  8
LAY-1
  6
CONTINUOUS
 62
     7
100
AcDbLine
 10
429.716397039765
 20
539.199999999783
 30
0.0
 11
429.716397039765
 21
516.199999999783
 31
0.0
  0
LINE
  5
2BB
330
1F
100
AcDbEntity
  8
LAY-1
  6
CONTINUOUS
 62
     7
100
AcDbLine
 10
398.193589309456
 20
527.6056540992221
 30
0.0
 11
399.860272642956
 21
527.6056540992221
 31
0.0
  0
LINE
  5
2BC
330
1F
100
AcDbEntity
  8
LAY-1
  6
CONTINUOUS
 62
     7
100
AcDbLine
 10
398.193589309456
 20
530.105679099472
 30
0.0
 11
398.193589309456
 21
527.6056540992221
 31
0.0
  0
LINE
  5
2BD
330
1F
100
AcDbEntity
  8
LAY-1
  6
CONTINUOUS
 62
     7
100
AcDbLine
 10
399.193599309556
 20
530.6056840995221
 30
0.0
 11
398.193589309456
 21
530.105679099472
 31
0.0
  0
LINE
  5
2BE
330
1F
100
AcDbEntity
  8
LAY-1
  6
CONTINUOUS
 62
     7
100
AcDbLine
 10
395.1935593091559
 20
530.6056840995221
 30
0.0
 11
399.193599309556
 21
530.6056840995221
 31
0.0
  0
LINE
  5
2BF
330
1F
100
AcDbEntity
  8
LAY-1
  6
CONTINUOUS
 62
     7
100
AcDbLine
 10
396.193569309256
 20
530.105679099472
 30
0.0
 11
395.1935593091559
 21
530.6056840995221
 31
0.0
  0
LINE
  5
2C0
330
1F
100
AcDbEntity
  8
LAY-1
  6
CONTINUOUS
 62
     7
100
AcDbLine
 10
396.193569309256
 20
527.6056540992221
 30
0.0
 11
396.193569309256
 21
530.105679099472
 31
0.0
  0
LINE
  5
2C1
330
1F
100
AcDbEntity
  8
LAY-1
  6
CONTINUOUS
 62
     7
100
AcDbLine
 10
395.1935593091559
 20
527.6056540992221
 30
0.0
 11
396.193569309256
 21
527.6056540992221
 31
0.0
  0
LINE
  5
2C2
330
1F
100
AcDbEntity
  8
LAY-1
  6
CONTINUOUS
 62
     7
100
AcDbLine
 10
393.1935393089559
 20
527.6056540992221
 30
0.0
 11
390.526845975356
 21
527.6056540992221
 31
0.0
  0
LINE
  5
2C3
330
1F
100
AcDbEntity
  8
LAY-1
  6
CONTINUOUS
 62
     7
100
AcDbLine
 10
399.193599309556
 20
525.605634099022
 30
0.0
 11
398.193589309456
 21
525.605634099022
 31
0.0
  0
LINE
  5
2C4
330
1F
100
AcDbEntity
  8
LAY-1
  6
CONTINUOUS
 62
     7
100
AcDbLine
 10
396.193569309256
 20
525.6056340990222
 30
0.0
 11
391.193519308756
 21
525.6056340990222
 31
0.0
  0
LINE
  5
2C5
330
1F
100
AcDbEntity
  8
LAY-1
  6
CONTINUOUS
 62
     7
100
AcDbLine
 10
391.193519308756
 20
525.6056340990222
 30
0.0
 11
391.193519308756
 21
524.9389607656221
 31
0.0
  0
LINE
  5
2C6
330
1F
100
AcDbEntity
  8
LAY-1
  6
CONTINUOUS
 62
     7
100
AcDbLine
 10
391.193519308756
 20
524.9389607656221
 30
0.0
 11
389.3601676419059
 21
528.6056640993221
 31
0.0
  0
LINE
  5
2C7
330
1F
100
AcDbEntity
  8
LAY-1
  6
CONTINUOUS
 62
     7
100
AcDbLine
 10
389.3601676419059
 20
528.6056640993221
 30
0.0
 11
390.526845975356
 21
527.6056540992221
 31
0.0
  0
LINE
  5
2C8
330
1F
100
AcDbEntity
  8
LAY-1
  6
CONTINUOUS
 62
     7
100
AcDbLine
 10
399.193599309556
 20
525.605634099022
 30
0.0
 11
399.193599309556
 21
524.938960765622
 31
0.0
  0
LINE
  5
2C9
330
1F
100
AcDbEntity
  8
LAY-1
  6
CONTINUOUS
 62
     7
100
AcDbLine
 10
399.193599309556
 20
524.938960765622
 30
0.0
 11
401.0269509764059
 21
528.6056640993221
 31
0.0
  0
LINE
  5
2CA
330
1F
100
AcDbEntity
  8
LAY-1
  6
CONTINUOUS
 62
     7
100
AcDbLine
 10
401.0269509764059
 20
528.6056640993221
 30
0.0
 11
399.860272642956
 21
527.6056540992221
 31
0.0
  0
LINE
  5
2CB
330
1F
100
AcDbEntity
  8
LAY-1
  6
CONTINUOUS
 62
     7
100
AcDbLine
 10
395.1935593091559
 20
527.6056540992221
 30
0.0
 11
395.1935593091559
 21
535.1335934236162
 31
0.0
  0
LINE
  5
2CC
330
1F
100
AcDbEntity
  8
LAY-1
  6
CONTINUOUS
 62
     7
100
AcDbLine
 10
395.1935593091559
 20
536.1057391000721
 30
0.0
 11
396.193569309256
 21
536.6057441001221
 31
0.0
  0
LINE
  5
2CD
330
1F
100
AcDbEntity
  8
LAY-1
  6
CONTINUOUS
 62
     7
100
AcDbLine
 10
396.193569309256
 20
536.6057441001221
 30
0.0
 11
392.193529308856
 21
536.6057441001221
 31
0.0
  0
LINE
  5
2CE
330
1F
100
AcDbEntity
  8
LAY-1
  6
CONTINUOUS
 62
     7
100
AcDbLine
 10
392.193529308856
 20
536.6057441001221
 30
0.0
 11
393.1935393089559
 21
536.1057391000721
 31
0.0
  0
LINE
  5
2CF
330
1F
100
AcDbEntity
  8
LAY-1
  6
CONTINUOUS
 62
     7
100
AcDbLine
 10
393.1935393089559
 20
536.1057391000721
 30
0.0
 11
393.1935393089559
 21
535.3516982520791
 31
0.0
  0
LINE
  5
2D0
330
1F
100
AcDbEntity
  8
LAY-1
  6
CONTINUOUS
 62
     7
100
AcDbLine
 10
399.193599309556
 20
518.6055640983221
 30
0.0
 11
396.193569309256
 21
519.6683207926952
 31
0.0
  0
LINE
  5
2D1
330
1F
100
AcDbEntity
  8
LAY-1
  6
CONTINUOUS
 62
     7
100
AcDbLine
 10
399.193599309556
 20
518.6055640983221
 30
0.0
 11
398.193589309456
 21
520.1893814494002
 31
0.0
  0
LINE
  5
2D2
330
1F
100
AcDbEntity
  8
LAY-1
  6
CONTINUOUS
 62
     7
100
AcDbLine
 10
398.193589309456
 20
525.605634099022
 30
0.0
 11
398.193589309456
 21
521.3605936502191
 31
0.0
  0
ARC
  5
2D3
330
1F
100
AcDbEntity
  8
LAY-1
  6
CONTINUOUS
 62
     7
100
AcDbCircle
 10
395.1935593091559
 20
527.6056540992221
 30
0.0
 40
8.000080000800018
100
AcDbArc
 50
104.4775121860804
 51
277.1807557813199
  0
ARC
  5
2D4
330
1F
100
AcDbEntity
  8
LAY-1
  6
CONTINUOUS
 62
     7
100
AcDbCircle
 10
395.1935593091559
 20
527.6056540992221
 30
0.0
 40
8.000080000800018
100
AcDbArc
 50
292.0243128371999
 51
90.00000000000026
  0
LINE
  5
2D5
330
1F
100
AcDbEntity
  8
LAY-1
  6
CONTINUOUS
 62
     7
100
AcDbLine
 10
395.1935593091559
 20
535.6057341000221
 30
0.0
 11
395.1935593091559
 21
536.1057391000721
 31
0.0
  0
ARC
  5
2D6
330
1F
100
AcDbEntity
  8
LAY-1
  6
CONTINUOUS
 62
     7
100
AcDbCircle
 10
393.1935393089559
 20
527.6056540992221
 30
0.0
 40
8.000080000800018
100
AcDbArc
 50
308.6821874534401
 51
63.43494882300066
  0
ARC
  5
2D7
330
1F
100
AcDbEntity
  8
LAY-1
  6
CONTINUOUS
 62
     7
100
AcDbCircle
 10
395.1935593091559
 20
531.6056940996222
 30
0.0
 40
3.527899323994008
100
AcDbArc
 50
63.4349488230002
 51
90.00000000000026
  0
ARC
  5
2D8
330
1F
100
AcDbEntity
  8
LAY-1
  6
CONTINUOUS
 62
     7
100
AcDbCircle
 10
397.193579309356
 20
527.6056540992221
 30
0.0
 40
8.000080000800018
100
AcDbArc
 50
119.9999999998803
 51
243.4349488230002
  0
ARC
  5
2D9
330
1F
100
AcDbEntity
  8
LAY-1
  6
CONTINUOUS
 62
     7
100
AcDbCircle
 10
395.1935593091559
 20
523.6056140988221
 30
0.0
 40
3.527899323994008
100
AcDbArc
 50
243.4349488229993
 51
286.4666760696001
  0
LINE
  5
2DA
330
1F
100
AcDbEntity
  8
LAY-1
  6
CONTINUOUS
 62
     7
100
AcDbLine
 10
396.193569309256
 20
520.2224124140372
 30
0.0
 11
396.193569309256
 21
525.6056340990222
 31
0.0
  0
LINE
  5
2DB
330
1F
100
AcDbEntity
  8
LAY-1
  6
CONTINUOUS
 62
     7
100
AcDbLine
 10
393.1935393089559
 20
534.5339266122231
 30
0.0
 11
393.1935393089559
 21
527.6056540992221
 31
0.0
  0
LINE
  5
2DC
330
1F
100
AcDbEntity
  8
LAY-1
  6
CONTINUOUS
 62
     1
100
AcDbLine
 10
395.6764022161797
 20
165.00000000001
 30
0.0
 11
395.153077350775
 21
165.906425255755
 31
0.0
  0
LINE
  5
2DD
330
1F
100
AcDbEntity
  8
LAY-1
  6
CONTINUOUS
 62
     1
100
AcDbLine
 10
422.6297524853695
 20
165.0
 30
0.0
 11
423.153077350775
 21
165.9064252557461
 31
0.0
  0
LINE
  5
2DE
330
1F
100
AcDbEntity
  8
LAY-1
  6
CONTINUOUS
 62
     1
100
AcDbLine
 10
403.3741337229382
 20
11.49999999999801
 30
0.0
 11
402.4273722865861
 21
9.94115427318701
 31
0.0
  0
LINE
  5
2DF
330
1F
100
AcDbEntity
  8
LAY-1
  6
CONTINUOUS
 62
     1
100
AcDbLine
 10
415.8787824149331
 20
9.941154273182008
 30
0.0
 11
414.9317247533982
 21
11.49999999999505
 31
0.0
  0
LINE
  5
2E0
330
1F
100
AcDbEntity
  8
LAY-1
  6
CONTINUOUS
 62
     1
100
AcDbLine
 10
414.9317247533982
 20
11.49999999999505
 30
0.0
 11
414.8531386539081
 21
13.99999999999704
 31
0.0
  0
LINE
  5
2E1
330
1F
100
AcDbEntity
  8
LAY-1
  6
CONTINUOUS
 62
     1
100
AcDbLine
 10
403.4527938787259
 20
13.99999999999704
 30
0.0
 11
403.3741337229382
 21
11.49999999999801
 31
0.0
  0
LINE
  5
2E2
330
1F
100
AcDbEntity
  8
LAY-1
  6
EXLTYPE2
 62
     1
100
AcDbLine
 10
409.1530773507609
 20
259.500000000002
 30
0.0
 11
409.1530773507601
 21
348.1000000000021
 31
0.0
  0
LINE
  5
2E3
330
1F
100
AcDbEntity
  8
LAY-1
  6
EXLTYPE2
 62
     1
100
AcDbLine
 10
445.6095555922141
 20
339.6000000000021
 30
0.0
 11
470.4176541837631
 21
339.6000000000021
 31
0.0
  0
LINE
  5
2E4
330
1F
100
AcDbEntity
  8
LAY-1
  6
EXLTYPE2
 62
     1
100
AcDbLine
 10
445.6095555922141
 20
269.6000000000021
 30
0.0
 11
470.4176541837631
 21
269.6000000000021
 31
0.0
  0
LINE
  5
2E5
330
1F
100
AcDbEntity
  8
LAY-1
  6
EXLTYPE2
 62
     1
100
AcDbLine
 10
445.6095638586501
 20
269.6000000000021
 30
0.0
 11
470.4176624501991
 21
269.6000000000021
 31
0.0
  0
LINE
  5
2E6
330
1F
100
AcDbEntity
  8
LAY-1
  6
EXLTYPE2
 62
     1
100
AcDbLine
 10
445.6095638586501
 20
339.6000000000021
 30
0.0
 11
470.4176624501991
 21
339.6000000000021
 31
0.0
  0
LINE
  5
2E7
330
1F
100
AcDbEntity
  8
LAY-1
  6
EXLTYPE2
 62
     1
100
AcDbLine
 10
372.6965991093061
 20
269.6000000000021
 30
0.0
 11
347.8885005177571
 21
269.6000000000021
 31
0.0
  0
LINE
  5
2E8
330
1F
100
AcDbEntity
  8
LAY-1
  6
EXLTYPE2
 62
     1
100
AcDbLine
 10
372.6965991093061
 20
339.6000000000021
 30
0.0
 11
347.8885005177571
 21
339.6000000000021
 31
0.0
  0
LINE
  5
2E9
330
1F
100
AcDbEntity
  8
LAY-1
  6
EXLTYPE2
 62
     1
100
AcDbLine
 10
409.153077350764
 20
-0.499999999787974
 30
0.0
 11
409.153077350764
 21
212.1408450704341
 31
0.0
  0
LINE
  5
2EA
330
1F
100
AcDbEntity
  8
LAY-1
  6
CONTINUOUS
 62
     1
100
AcDbLine
 10
395.6764022161798
 20
444.1999999999981
 30
0.0
 11
395.1530773507751
 21
443.2935747442532
 31
0.0
  0
LINE
  5
2EB
330
1F
100
AcDbEntity
  8
LAY-1
  6
CONTINUOUS
 62
     1
100
AcDbLine
 10
422.6297524853695
 20
444.2000000000081
 30
0.0
 11
423.1530773507751
 21
443.2935747442622
 31
0.0
  0
LINE
  5
2EC
330
1F
100
AcDbEntity
  8
LAY-1
  6
CONTINUOUS
 62
     1
100
AcDbLine
 10
403.3741337229384
 20
597.7000000000102
 30
0.0
 11
402.4273722865863
 21
599.2588457268212
 31
0.0
  0
LINE
  5
2ED
330
1F
100
AcDbEntity
  8
LAY-1
  6
CONTINUOUS
 62
     1
100
AcDbLine
 10
415.8787824149333
 20
599.2588457268262
 30
0.0
 11
414.9317247533984
 21
597.7000000000131
 31
0.0
  0
LINE
  5
2EE
330
1F
100
AcDbEntity
  8
LAY-1
  6
CONTINUOUS
 62
     1
100
AcDbLine
 10
414.9317247533984
 20
597.7000000000131
 30
0.0
 11
414.8531386539083
 21
595.2000000000111
 31
0.0
  0
LINE
  5
2EF
330
1F
100
AcDbEntity
  8
LAY-1
  6
CONTINUOUS
 62
     1
100
AcDbLine
 10
403.4527938787261
 20
595.2000000000111
 30
0.0
 11
403.3741337229384
 21
597.7000000000102
 31
0.0
  0
LINE
  5
2F0
330
1F
100
AcDbEntity
  8
LAY-1
  6
EXLTYPE2
 62
     1
100
AcDbLine
 10
409.1530773507642
 20
609.6999999997962
 30
0.0
 11
409.1530773507641
 21
397.0591549295742
 31
0.0
  0
LINE
  5
2F1
330
1F
100
AcDbEntity
  8
LAY-1
  6
EXLTYPE2
 62
     1
100
AcDbLine
 10
474.0378542573699
 20
81.50000000000801
 30
0.0
 11
344.26830044415
 21
81.50000000000804
 31
0.0
  0
LINE
  5
2F2
330
1F
100
AcDbEntity
  8
LAY-1
  6
EXLTYPE2
 62
     1
100
AcDbLine
 10
474.0378542573702
 20
527.7000000000002
 30
0.0
 11
344.2683004441502
 21
527.7000000000002
 31
0.0
  0
LINE
  5
2F3
330
1F
100
AcDbEntity
  8
LAY-1
  6
EXLTYPE2
 62
     1
100
AcDbLine
 10
409.153077350764
 20
-0.9765386753799703
 30
0.0
 11
409.153077350764
 21
212.140845070434
 31
0.0
  0
CIRCLE
  5
2F4
330
1F
100
AcDbEntity
  8
LAY-1
  6
CONTINUOUS
 62
     7
100
AcDbCircle
 10
639.0203837807011
 20
329.3487373415289
 30
0.0
 40
7.500000000000004
  0
CIRCLE
  5
2F5
330
1F
100
AcDbEntity
  8
LAY-1
  6
CONTINUOUS
 62
     7
100
AcDbCircle
 10
589.522909097643
 20
329.3487373415289
 30
0.0
 40
7.500000000000004
  0
CIRCLE
  5
2F6
330
1F
100
AcDbEntity
  8
LAY-1
  6
CONTINUOUS
 62
     7
100
AcDbCircle
 10
614.2716464391721
 20
304.5999999999999
 30
0.0
 40
47.50000000000004
  0
CIRCLE
  5
2F7
330
1F
100
AcDbEntity
  8
LAY-1
  6
CONTINUOUS
 62
     7
100
AcDbCircle
 10
614.2716464391681
 20
304.5999999999999
 30
0.0
 40
25.50000000000002
  0
CIRCLE
  5
2F8
330
1F
100
AcDbEntity
  8
LAY-1
  6
CONTINUOUS
 62
     7
100
AcDbCircle
 10
614.2716464391721
 20
304.5999999999999
 30
0.0
 40
7.500000000000004
  0
CIRCLE
  5
2F9
330
1F
100
AcDbEntity
  8
LAY-1
  6
CONTINUOUS
 62
     7
100
AcDbCircle
 10
589.522909097643
 20
279.8512626584709
 30
0.0
 40
7.500000000000004
  0
CIRCLE
  5
2FA
330
1F
100
AcDbEntity
  8
LAY-1
  6
CONTINUOUS
 62
     7
100
AcDbCircle
 10
639.0203837807011
 20
279.8512626584709
 30
0.0
 40
7.500000000000004
  0
ARC
  5
2FB
330
1F
100
AcDbEntity
  8
LAY-1
  6
CONTINUOUS
 62
     7
100
AcDbCircle
 10
515.7716464391731
 20
295.4722682568119
 30
0.0
 40
1.0
100
AcDbArc
 50
286.7795194924803
 51
0.0000000000002292
  0
ARC
  5
2FC
330
1F
100
AcDbEntity
  8
LAY-1
  6
CONTINUOUS
 62
     7
100
AcDbCircle
 10
516.6377151864901
 20
292.6000000024659
 30
0.0
 40
2.0
100
AcDbArc
 50
106.7795194924776
 51
172.3377443392519
  0
LINE
  5
2FD
330
1F
100
AcDbEntity
  8
LAY-1
  6
CONTINUOUS
 62
     7
100
AcDbLine
 10
516.7716464391751
 20
304.600000000019
 30
0.0
 11
516.7716464391731
 21
295.4722682573379
 31
0.0
  0
ARC
  5
2FE
330
1F
100
AcDbEntity
  8
LAY-1
  6
CONTINUOUS
 62
     7
100
AcDbCircle
 10
503.271646439165
 20
271.1000000000229
 30
0.0
 40
6.500000000000004
100
AcDbArc
 50
180.0000000000001
 51
0.0000000000002292
  0
ARC
  5
2FF
330
1F
100
AcDbEntity
  8
LAY-1
  6
CONTINUOUS
 62
     7
100
AcDbCircle
 10
515.7716464391781
 20
313.7277317432269
 30
0.0
 40
1.0
100
AcDbArc
 50
0.0000000000002292
 51
73.22048050752042
  0
ARC
  5
300
330
1F
100
AcDbEntity
  8
LAY-1
  6
CONTINUOUS
 62
     7
100
AcDbCircle
 10
516.6377151864971
 20
316.599999997572
 30
0.0
 40
2.0
100
AcDbArc
 50
187.6622556607196
 51
253.2204805075204
  0
LINE
  5
301
330
1F
100
AcDbEntity
  8
LAY-1
  6
CONTINUOUS
 62
     7
100
AcDbLine
 10
516.7716464391751
 20
304.600000000019
 30
0.0
 11
516.7716464391781
 21
313.727731742701
 31
0.0
  0
LINE
  5
302
330
1F
100
AcDbEntity
  8
LAY-1
  6
CONTINUOUS
 62
     7
100
AcDbLine
 10
521.7716464391801
 20
319.1000000000179
 30
0.0
 11
523.0667342025971
 21
321.3431578065169
 31
0.0
  0
LINE
  5
303
330
1F
100
AcDbEntity
  8
LAY-1
  6
CONTINUOUS
 62
     7
100
AcDbLine
 10
523.0667342025971
 20
321.3431578065169
 30
0.0
 11
528.7716464391801
 21
321.343157806515
 31
0.0
  0
LINE
  5
304
330
1F
100
AcDbEntity
  8
LAY-1
  6
CONTINUOUS
 62
     7
100
AcDbLine
 10
523.0667342025871
 20
287.8568421935179
 30
0.0
 11
528.7716464391701
 21
287.8568421935169
 31
0.0
  0
LINE
  5
305
330
1F
100
AcDbEntity
  8
LAY-1
  6
CONTINUOUS
 62
     7
100
AcDbLine
 10
521.771646439171
 20
290.1000000000179
 30
0.0
 11
523.0667342025871
 21
287.8568421935179
 31
0.0
  0
LINE
  5
306
330
1F
100
AcDbEntity
  8
LAY-1
  6
CONTINUOUS
 62
     7
100
AcDbLine
 10
517.637671842961
 20
309.600000000019
 30
0.0
 11
517.6376718429601
 21
304.600000000019
 31
0.0
  0
LINE
  5
307
330
1F
100
AcDbEntity
  8
LAY-1
  6
CONTINUOUS
 62
     7
100
AcDbLine
 10
517.637671842961
 20
309.600000000019
 30
0.0
 11
516.7716464391771
 21
309.100000000019
 31
0.0
  0
LINE
  5
308
330
1F
100
AcDbEntity
  8
LAY-1
  6
CONTINUOUS
 62
     7
100
AcDbLine
 10
517.6376718429581
 20
299.600000000019
 30
0.0
 11
517.6376718429601
 21
304.600000000019
 31
0.0
  0
LINE
  5
309
330
1F
100
AcDbEntity
  8
LAY-1
  6
CONTINUOUS
 62
     7
100
AcDbLine
 10
517.6376718429581
 20
299.600000000019
 30
0.0
 11
516.7716464391741
 21
300.100000000019
 31
0.0
  0
LINE
  5
30A
330
1F
100
AcDbEntity
  8
LAY-1
  6
CONTINUOUS
 62
     7
100
AcDbLine
 10
567.074634887105
 20
282.6606897707989
 30
0.0
 11
568.7716464391701
 21
285.6000000000039
 31
0.0
  0
LINE
  5
30B
330
1F
100
AcDbEntity
  8
LAY-1
  6
CONTINUOUS
 62
     7
100
AcDbLine
 10
565.832336209963
 20
282.6606897707989
 30
0.0
 11
567.074634887105
 21
282.6606897707989
 31
0.0
  0
LINE
  5
30C
330
1F
100
AcDbEntity
  8
LAY-1
  6
CONTINUOUS
 62
     7
100
AcDbLine
 10
550.210956668375
 20
282.6606897708039
 30
0.0
 11
565.832336209963
 21
282.6606897707989
 31
0.0
  0
LINE
  5
30D
330
1F
100
AcDbEntity
  8
LAY-1
  6
CONTINUOUS
 62
     7
100
AcDbLine
 10
548.334683395017
 20
282.6606897708039
 30
0.0
 11
550.210956668375
 21
282.6606897708039
 31
0.0
  0
LINE
  5
30E
330
1F
100
AcDbEntity
  8
LAY-1
  6
CONTINUOUS
 62
     7
100
AcDbLine
 10
545.194296169981
 20
287.100000000011
 30
0.0
 11
531.7716464391701
 21
287.100000000015
 31
0.0
  0
LINE
  5
30F
330
1F
100
AcDbEntity
  8
LAY-1
  6
CONTINUOUS
 62
     7
100
AcDbLine
 10
546.0603215737651
 20
286.600000000011
 30
0.0
 11
548.334683395017
 21
282.6606897708039
 31
0.0
  0
LINE
  5
310
330
1F
100
AcDbEntity
  8
LAY-1
  6
CONTINUOUS
 62
     7
100
AcDbLine
 10
565.832336209963
 20
282.6606897707989
 30
0.0
 11
550.210956668375
 21
282.6606897708039
 31
0.0
  0
ARC
  5
311
330
1F
100
AcDbEntity
  8
LAY-1
  6
CONTINUOUS
 62
     7
100
AcDbCircle
 10
531.7716464391701
 20
288.100000000015
 30
0.0
 40
1.0
100
AcDbArc
 50
180.0000000000001
 51
270.0000000000002
  0
ARC
  5
312
330
1F
100
AcDbEntity
  8
LAY-1
  6
CONTINUOUS
 62
     7
100
AcDbCircle
 10
545.1942961699801
 20
286.100000000011
 30
0.0
 40
1.0
100
AcDbArc
 50
29.99999999987813
 51
90.0000000000002
  0
ARC
  5
313
330
1F
100
AcDbEntity
  8
LAY-1
  6
CONTINUOUS
 62
     7
100
AcDbCircle
 10
545.194296169991
 20
323.100000000011
 30
0.0
 40
1.0
100
AcDbArc
 50
270.0000000000002
 51
330.0000000001208
  0
ARC
  5
314
330
1F
100
AcDbEntity
  8
LAY-1
  6
CONTINUOUS
 62
     7
100
AcDbCircle
 10
531.7716464391801
 20
321.100000000015
 30
0.0
 40
1.0
100
AcDbArc
 50
90.0000000000002
 51
180.0000000000001
  0
LINE
  5
315
330
1F
100
AcDbEntity
  8
LAY-1
  6
CONTINUOUS
 62
     7
100
AcDbLine
 10
565.8323362099761
 20
326.5393102292109
 30
0.0
 11
550.210956668388
 21
326.5393102292148
 31
0.0
  0
LINE
  5
316
330
1F
100
AcDbEntity
  8
LAY-1
  6
CONTINUOUS
 62
     7
100
AcDbLine
 10
546.0603215737751
 20
322.600000000011
 30
0.0
 11
548.3346833950301
 21
326.5393102292159
 31
0.0
  0
LINE
  5
317
330
1F
100
AcDbEntity
  8
LAY-1
  6
CONTINUOUS
 62
     7
100
AcDbLine
 10
545.194296169991
 20
322.100000000011
 30
0.0
 11
531.771646439181
 21
322.100000000015
 31
0.0
  0
LINE
  5
318
330
1F
100
AcDbEntity
  8
LAY-1
  6
CONTINUOUS
 62
     7
100
AcDbLine
 10
567.074634887118
 20
326.5393102292098
 30
0.0
 11
568.771646439181
 21
323.6000000000039
 31
0.0
  0
LINE
  5
319
330
1F
100
AcDbEntity
  8
LAY-1
  6
CONTINUOUS
 62
     7
100
AcDbLine
 10
565.8323362099761
 20
326.5393102292109
 30
0.0
 11
567.074634887118
 21
326.5393102292098
 31
0.0
  0
LINE
  5
31A
330
1F
100
AcDbEntity
  8
LAY-1
  6
CONTINUOUS
 62
     7
100
AcDbLine
 10
550.210956668388
 20
326.5393102292148
 30
0.0
 11
565.8323362099761
 21
326.5393102292109
 31
0.0
  0
LINE
  5
31B
330
1F
100
AcDbEntity
  8
LAY-1
  6
CONTINUOUS
 62
     7
100
AcDbLine
 10
548.3346833950301
 20
326.5393102292159
 30
0.0
 11
550.210956668388
 21
326.5393102292148
 31
0.0
  0
ARC
  5
31C
330
1F
100
AcDbEntity
  8
LAY-1
  6
CONTINUOUS
 62
     7
100
AcDbCircle
 10
503.2716464391851
 20
338.1000000000229
 30
0.0
 40
6.500000000000004
100
AcDbArc
 50
0.0000000000002292
 51
180.0000000000001
  0
ARC
  5
31D
330
1F
100
AcDbEntity
  8
LAY-1
  6
CONTINUOUS
 62
     7
100
AcDbCircle
 10
570.271646439171
 20
325.5999999999908
 30
0.0
 40
1.5
100
AcDbArc
 50
90.0000000000002
 51
180.0000000000001
  0
ARC
  5
31E
330
1F
100
AcDbEntity
  8
LAY-1
  6
CONTINUOUS
 62
     7
100
AcDbCircle
 10
570.2716464391722
 20
283.5999999999923
 30
0.0
 40
1.5
100
AcDbArc
 50
180.0000000000001
 51
270.0000000000002
  0
LINE
  5
31F
330
1F
100
AcDbEntity
  8
LAY-1
  6
CONTINUOUS
 62
     7
100
AcDbLine
 10
521.7716464391771
 20
304.6000000000039
 30
0.0
 11
521.7716464391801
 21
319.1000000000179
 31
0.0
  0
LINE
  5
320
330
1F
100
AcDbEntity
  8
LAY-1
  6
CONTINUOUS
 62
     7
100
AcDbLine
 10
521.7716464391741
 20
304.6000000000039
 30
0.0
 11
521.771646439171
 21
290.1000000000179
 31
0.0
  0
LINE
  5
321
330
1F
100
AcDbEntity
  8
LAY-1
  6
CONTINUOUS
 62
     7
100
AcDbLine
 10
528.7716464391701
 20
287.8568421935169
 30
0.0
 11
528.7716464391701
 21
304.6000000000039
 31
0.0
  0
LINE
  5
322
330
1F
100
AcDbEntity
  8
LAY-1
  6
CONTINUOUS
 62
     7
100
AcDbLine
 10
521.7716464391731
 20
299.6000000000144
 30
0.0
 11
517.6376718429581
 21
299.600000000019
 31
0.0
  0
LINE
  5
323
330
1F
100
AcDbEntity
  8
LAY-1
  6
CONTINUOUS
 62
     7
100
AcDbLine
 10
521.7716464391771
 20
309.6000000000144
 30
0.0
 11
517.637671842961
 21
309.600000000019
 31
0.0
  0
LINE
  5
324
330
1F
100
AcDbEntity
  8
LAY-1
  6
CONTINUOUS
 62
     7
100
AcDbLine
 10
528.7716464391801
 20
321.343157806515
 30
0.0
 11
528.7716464391801
 21
304.6000000000039
 31
0.0
  0
LINE
  5
325
330
1F
100
AcDbEntity
  8
LAY-1
  6
CONTINUOUS
 62
     7
100
AcDbLine
 10
530.7716464391701
 20
288.100000000015
 30
0.0
 11
530.7716464391701
 21
304.6000000000039
 31
0.0
  0
LINE
  5
326
330
1F
100
AcDbEntity
  8
LAY-1
  6
CONTINUOUS
 62
     7
100
AcDbLine
 10
528.771646439171
 20
290.600000000016
 30
0.0
 11
530.7716464391701
 21
290.600000000016
 31
0.0
  0
LINE
  5
327
330
1F
100
AcDbEntity
  8
LAY-1
  6
CONTINUOUS
 62
     7
100
AcDbLine
 10
528.7716464391791
 20
318.600000000016
 30
0.0
 11
530.7716464391801
 21
318.600000000016
 31
0.0
  0
LINE
  5
328
330
1F
100
AcDbEntity
  8
LAY-1
  6
CONTINUOUS
 62
     7
100
AcDbLine
 10
530.7716464391801
 20
321.100000000015
 30
0.0
 11
530.7716464391801
 21
304.6000000000039
 31
0.0
  0
LINE
  5
329
330
1F
100
AcDbEntity
  8
LAY-1
  6
CONTINUOUS
 62
     7
100
AcDbLine
 10
496.771646439165
 20
271.1000000000229
 30
0.0
 11
496.771646439165
 21
304.6000000000039
 31
0.0
  0
LINE
  5
32A
330
1F
100
AcDbEntity
  8
LAY-1
  6
CONTINUOUS
 62
     7
100
AcDbLine
 10
496.7716464391851
 20
338.1000000000249
 30
0.0
 11
496.7716464391851
 21
304.6000000000039
 31
0.0
  0
ARC
  5
32B
330
1F
100
AcDbEntity
  8
LAY-1
  6
CONTINUOUS
 62
     7
100
AcDbCircle
 10
500.2716464391741
 20
304.600000000024
 30
0.0
 40
4.5
100
AcDbArc
 50
141.0575587307953
 51
218.9424412689987
  0
ARC
  5
32C
330
1F
100
AcDbEntity
  8
LAY-1
  6
CONTINUOUS
 62
     7
100
AcDbCircle
 10
501.7716464391721
 20
294.6000000024709
 30
0.0
 40
13.00000000000001
100
AcDbArc
 50
307.9798724448526
 51
352.3377443201832
  0
LINE
  5
32D
330
1F
100
AcDbEntity
  8
LAY-1
  6
CONTINUOUS
 62
     7
100
AcDbLine
 10
509.771646439165
 20
271.100000000021
 30
0.0
 11
509.7716464391651
 21
304.6000000000039
 31
0.0
  0
LINE
  5
32E
330
1F
100
AcDbEntity
  8
LAY-1
  6
CONTINUOUS
 62
     7
100
AcDbLine
 10
509.7716464391851
 20
338.100000000021
 30
0.0
 11
509.7716464391851
 21
304.6000000000039
 31
0.0
  0
ARC
  5
32F
330
1F
100
AcDbEntity
  8
LAY-1
  6
CONTINUOUS
 62
     7
100
AcDbCircle
 10
501.7716464391781
 20
314.599999997577
 30
0.0
 40
13.00000000000001
100
AcDbArc
 50
7.66225567980015
 51
52.02012755510945
  0
LINE
  5
330
330
1F
100
AcDbEntity
  8
LAY-1
  6
CONTINUOUS
 62
     7
100
AcDbLine
 10
548.334683395028
 20
315.56965511461
 30
0.0
 11
567.074634887108
 21
315.56965511461
 31
0.0
  0
LINE
  5
331
330
1F
100
AcDbEntity
  8
LAY-1
  6
CONTINUOUS
 62
     7
100
AcDbLine
 10
548.334683395028
 20
293.6303448853979
 30
0.0
 11
567.074634887108
 21
293.6303448853979
 31
0.0
  0
ARC
  5
332
330
1F
100
AcDbEntity
  8
LAY-1
  6
CONTINUOUS
 62
     7
100
AcDbCircle
 10
555.9848446511825
 20
321.0544826719098
 30
0.0
 40
9.413198212004533
100
AcDbArc
 50
144.3611490757497
 51
215.638850924249
  0
ARC
  5
333
330
1F
100
AcDbEntity
  8
LAY-1
  6
CONTINUOUS
 62
     7
100
AcDbCircle
 10
581.5798838533524
 20
304.6000000000049
 30
0.0
 40
35.00823741417941
100
AcDbArc
 50
161.7390699577535
 51
198.2609300422467
  0
ARC
  5
334
330
1F
100
AcDbEntity
  8
LAY-1
  6
CONTINUOUS
 62
     7
100
AcDbCircle
 10
555.9848446511296
 20
288.1455173280999
 30
0.0
 40
9.413198211961452
100
AcDbArc
 50
144.361149075563
 51
215.6388509244374
  0
ARC
  5
335
330
1F
100
AcDbEntity
  8
LAY-1
  6
CONTINUOUS
 62
     7
100
AcDbCircle
 10
559.059519995171
 20
288.1455173280998
 30
0.0
 40
9.712126444001248
100
AcDbArc
 50
325.6157525319421
 51
34.38424746805933
  0
ARC
  5
336
330
1F
100
AcDbEntity
  8
LAY-1
  6
CONTINUOUS
 62
     7
100
AcDbCircle
 10
559.0595199951501
 20
321.0544826719173
 30
0.0
 40
9.712126444022692
100
AcDbArc
 50
325.6157525319752
 51
34.3842474679201
  0
LINE
  5
337
330
1F
100
AcDbEntity
  8
LAY-1
  6
CONTINUOUS
 62
     7
100
AcDbLine
 10
570.271646439171
 20
327.0999999999908
 30
0.0
 11
572.4386451124633
 21
327.0999999999908
 31
0.0
  0
LINE
  5
338
330
1F
100
AcDbEntity
  8
LAY-1
  6
CONTINUOUS
 62
     7
100
AcDbLine
 10
570.2716464391722
 20
282.0999999999923
 30
0.0
 11
572.4386451124724
 21
282.0999999999924
 31
0.0
  0
ARC
  5
339
330
1F
100
AcDbEntity
  8
LAY-1
  6
CONTINUOUS
 62
     7
100
AcDbCircle
 10
532.4686579913771
 20
304.600000000005
 30
0.0
 40
36.30298844780198
100
AcDbArc
 50
342.4120462259359
 51
345.6231655461789
  0
LINE
  5
33A
330
1F
100
AcDbEntity
  8
LAY-1
  6
CONTINUOUS
 62
     7
100
AcDbLine
 10
568.7716464391722
 20
283.5999999999921
 30
0.0
 11
568.7716464391722
 21
290.9618183030135
 31
0.0
  0
ARC
  5
33B
330
1F
100
AcDbEntity
  8
LAY-1
  6
CONTINUOUS
 62
     7
100
AcDbCircle
 10
532.4686579913771
 20
304.600000000005
 30
0.0
 40
36.30298844780198
100
AcDbArc
 50
14.37683445381446
 51
17.58795377406459
  0
LINE
  5
33C
330
1F
100
AcDbEntity
  8
LAY-1
  6
CONTINUOUS
 62
     7
100
AcDbLine
 10
568.7716464391739
 20
318.2381816969919
 30
0.0
 11
568.771646439171
 21
325.5999999999893
 31
0.0
  0
LINE
  5
33D
330
1F
100
AcDbEntity
  8
LAY-1
  6
CONTINUOUS
 62
     7
100
AcDbLine
 10
568.7716464391746
 20
318.2381816969943
 30
0.0
 11
568.771646439181
 21
323.6000000000039
 31
0.0
  0
LINE
  5
33E
330
1F
100
AcDbEntity
  8
LAY-1
  6
CONTINUOUS
 62
     7
100
AcDbLine
 10
568.771646439171
 20
290.9618183030176
 30
0.0
 11
568.7716464391701
 21
285.6000000000039
 31
0.0
  0
ARC
  5
33F
330
1F
100
AcDbEntity
  8
LAY-1
  6
CONTINUOUS
 62
     7
100
AcDbCircle
 10
529.1720549787575
 20
317.1609209919849
 30
0.0
 40
7.400408539577812
100
AcDbArc
 50
145.588268447768
 51
214.4117315522317
  0
LINE
  5
340
330
1F
100
AcDbEntity
  8
LAY-1
  6
CONTINUOUS
 62
     7
100
AcDbLine
 10
523.0667342025981
 20
312.9786841774499
 30
0.0
 11
528.7716464391801
 21
312.9786841774499
 31
0.0
  0
ARC
  5
341
330
1F
100
AcDbEntity
  8
LAY-1
  6
CONTINUOUS
 62
     7
100
AcDbCircle
 10
549.5225073809463
 20
304.6000000000048
 30
0.0
 40
27.75086094177222
100
AcDbArc
 50
162.4267282812248
 51
197.573271718775
  0
ARC
  5
342
330
1F
100
AcDbEntity
  8
LAY-1
  6
CONTINUOUS
 62
     7
100
AcDbCircle
 10
529.1720549786844
 20
292.0390790080331
 30
0.0
 40
7.400408539512974
100
AcDbArc
 50
145.5882684475
 51
214.4117315523675
  0
LINE
  5
343
330
1F
100
AcDbEntity
  8
LAY-1
  6
CONTINUOUS
 62
     7
100
AcDbLine
 10
523.0667342025981
 20
296.221315822558
 30
0.0
 11
528.7716464391801
 21
296.221315822558
 31
0.0
  0
ARC
  5
344
330
1F
100
AcDbEntity
  8
LAY-1
  6
CONTINUOUS
 62
     7
100
AcDbCircle
 10
680.2716464391831
 20
318.6980762113551
 30
0.0
 40
1.5
100
AcDbArc
 50
0.0000000000002292
 51
29.9999999998802
  0
ARC
  5
345
330
1F
100
AcDbEntity
  8
LAY-1
  6
CONTINUOUS
 62
     7
100
AcDbCircle
 10
667.321626882529
 20
322.8430000000011
 30
0.0
 40
1.5
100
AcDbArc
 50
195.0000000001204
 51
270.0000000000002
  0
ARC
  5
346
330
1F
100
AcDbEntity
  8
LAY-1
  6
CONTINUOUS
 62
     7
100
AcDbCircle
 10
679.899299516201
 20
320.3430000000011
 30
0.0
 40
1.0
100
AcDbArc
 50
29.99999999987969
 51
90.0000000000002
  0
LINE
  5
347
330
1F
100
AcDbEntity
  8
LAY-1
  6
CONTINUOUS
 62
     7
100
AcDbLine
 10
664.6961145095131
 20
325.600000000001
 30
0.0
 11
660.2716464391831
 21
325.600000000001
 31
0.0
  0
ARC
  5
348
330
1F
100
AcDbEntity
  8
LAY-1
  6
CONTINUOUS
 62
     7
100
AcDbCircle
 10
680.271646439183
 20
290.501923788648
 30
0.0
 40
1.5
100
AcDbArc
 50
330.0000000001205
 51
0.0000000000002292
  0
LINE
  5
349
330
1F
100
AcDbEntity
  8
LAY-1
  6
CONTINUOUS
 62
     7
100
AcDbLine
 10
665.35782401088
 20
284.8235428646931
 30
0.0
 11
665.872738143095
 21
286.7452285676551
 31
0.0
  0
LINE
  5
34A
330
1F
100
AcDbEntity
  8
LAY-1
  6
CONTINUOUS
 62
     7
100
AcDbLine
 10
686.2716464391821
 20
300.158307485456
 30
0.0
 11
691.6464316568461
 21
300.158307485456
 31
0.0
  0
LINE
  5
34B
330
1F
100
AcDbEntity
  8
LAY-1
  6
CONTINUOUS
 62
     7
100
AcDbLine
 10
686.271646439184
 20
308.6414518843291
 30
0.0
 11
691.6464316568461
 21
308.6414518843291
 31
0.0
  0
LINE
  5
34C
330
1F
100
AcDbEntity
  8
LAY-1
  6
CONTINUOUS
 62
     7
100
AcDbLine
 10
686.271646439185
 20
312.682903768655
 30
0.0
 11
691.6464316568461
 21
312.6829037686531
 31
0.0
  0
LINE
  5
34D
330
1F
100
AcDbEntity
  8
LAY-1
  6
CONTINUOUS
 62
     7
100
AcDbLine
 10
691.6464316568461
 20
312.6829037686531
 30
0.0
 11
692.271646439185
 21
311.577115192518
 31
0.0
  0
LINE
  5
34E
330
1F
100
AcDbEntity
  8
LAY-1
  6
CONTINUOUS
 62
     7
100
AcDbLine
 10
692.271646439185
 20
311.577115192518
 30
0.0
 11
692.271646439181
 21
297.5999999999981
 31
0.0
  0
LINE
  5
34F
330
1F
100
AcDbEntity
  8
LAY-1
  6
CONTINUOUS
 62
     7
100
AcDbLine
 10
692.271646439181
 20
297.5999999999981
 30
0.0
 11
691.6464316568411
 21
296.5170962313431
 31
0.0
  0
LINE
  5
350
330
1F
100
AcDbEntity
  8
LAY-1
  6
CONTINUOUS
 62
     7
100
AcDbLine
 10
691.6464316568411
 20
296.5170962313431
 30
0.0
 11
686.27164643918
 21
296.517096231345
 31
0.0
  0
LINE
  5
351
330
1F
100
AcDbEntity
  8
LAY-1
  6
CONTINUOUS
 62
     7
100
AcDbLine
 10
686.271646439185
 20
312.682903768655
 30
0.0
 11
686.271646439183
 21
304.600000000001
 31
0.0
  0
LINE
  5
352
330
1F
100
AcDbEntity
  8
LAY-1
  6
CONTINUOUS
 62
     7
100
AcDbLine
 10
686.271646439185
 20
311.341418197195
 30
0.0
 11
684.271646439185
 21
311.278565665109
 31
0.0
  0
LINE
  5
353
330
1F
100
AcDbEntity
  8
LAY-1
  6
CONTINUOUS
 62
     7
100
AcDbLine
 10
684.271646439181
 20
297.9214343348921
 30
0.0
 11
686.271646439181
 21
297.874294935826
 31
0.0
  0
LINE
  5
354
330
1F
100
AcDbEntity
  8
LAY-1
  6
CONTINUOUS
 62
     7
100
AcDbLine
 10
659.7716464391831
 20
325.100000000001
 30
0.0
 11
660.2716464391831
 21
325.600000000001
 31
0.0
  0
ARC
  5
355
330
1F
100
AcDbEntity
  8
LAY-1
  6
CONTINUOUS
 62
     7
100
AcDbCircle
 10
662.460046532013
 20
285.600000000001
 30
0.0
 40
3.000000000000002
100
AcDbArc
 50
318.189685104361
 51
344.9999999998798
  0
LINE
  5
356
330
1F
100
AcDbEntity
  8
LAY-1
  6
CONTINUOUS
 62
     7
100
AcDbLine
 10
659.7716464391831
 20
317.8000000000011
 30
0.0
 11
659.7716464391831
 21
325.100000000001
 31
0.0
  0
LINE
  5
357
330
1F
100
AcDbEntity
  8
LAY-1
  6
CONTINUOUS
 62
     7
100
AcDbLine
 10
659.771646439183
 20
284.100000000001
 30
0.0
 11
658.771646439183
 21
283.100000000001
 31
0.0
  0
LINE
  5
358
330
1F
100
AcDbEntity
  8
LAY-1
  6
CONTINUOUS
 62
     7
100
AcDbLine
 10
658.7716464391831
 20
326.100000000001
 30
0.0
 11
659.7716464391831
 21
325.100000000001
 31
0.0
  0
LINE
  5
359
330
1F
100
AcDbEntity
  8
LAY-1
  6
CONTINUOUS
 62
     7
100
AcDbLine
 10
667.321626882529
 20
287.8570000000011
 30
0.0
 11
679.899299516201
 21
287.8570000000011
 31
0.0
  0
LINE
  5
35A
330
1F
100
AcDbEntity
  8
LAY-1
  6
CONTINUOUS
 62
     7
100
AcDbLine
 10
659.771646439183
 20
284.100000000001
 30
0.0
 11
659.771646439183
 21
291.400000000001
 31
0.0
  0
LINE
  5
35B
330
1F
100
AcDbEntity
  8
LAY-1
  6
CONTINUOUS
 62
     7
100
AcDbLine
 10
686.271646439183
 20
304.600000000001
 30
0.0
 11
686.27164643918
 21
296.517096231345
 31
0.0
  0
LINE
  5
35C
330
1F
100
AcDbEntity
  8
LAY-1
  6
CONTINUOUS
 62
     7
100
AcDbLine
 10
684.271646439185
 20
304.600000000001
 30
0.0
 11
684.271646439181
 21
297.9214343348921
 31
0.0
  0
LINE
  5
35D
330
1F
100
AcDbEntity
  8
LAY-1
  6
CONTINUOUS
 62
     7
100
AcDbLine
 10
684.271646439185
 20
304.600000000001
 30
0.0
 11
684.271646439185
 21
311.278565665109
 31
0.0
  0
LINE
  5
35E
330
1F
100
AcDbEntity
  8
LAY-1
  6
CONTINUOUS
 62
     7
100
AcDbLine
 10
664.696114509513
 20
283.600000000001
 30
0.0
 11
660.271646439183
 21
283.6000000000021
 31
0.0
  0
ARC
  5
35F
330
1F
100
AcDbEntity
  8
LAY-1
  6
CONTINUOUS
 62
     7
100
AcDbCircle
 10
667.321626882529
 20
286.3570000000011
 30
0.0
 40
1.5
100
AcDbArc
 50
90.0000000000002
 51
164.9999999998798
  0
LINE
  5
360
330
1F
100
AcDbEntity
  8
LAY-1
  6
CONTINUOUS
 62
     7
100
AcDbLine
 10
680.765324919985
 20
320.8430000000011
 30
0.0
 11
681.5706845448601
 21
319.4480762113551
 31
0.0
  0
ARC
  5
361
330
1F
100
AcDbEntity
  8
LAY-1
  6
CONTINUOUS
 62
     7
100
AcDbCircle
 10
679.899299516201
 20
288.8570000000011
 30
0.0
 40
1.0
100
AcDbArc
 50
270.0000000000002
 51
330.0000000001208
  0
LINE
  5
362
330
1F
100
AcDbEntity
  8
LAY-1
  6
CONTINUOUS
 62
     7
100
AcDbLine
 10
659.771646439183
 20
284.100000000001
 30
0.0
 11
660.271646439183
 21
283.6000000000021
 31
0.0
  0
LINE
  5
363
330
1F
100
AcDbEntity
  8
LAY-1
  6
CONTINUOUS
 62
     7
100
AcDbLine
 10
680.765324919985
 20
288.3570000000011
 30
0.0
 11
681.57068454486
 21
289.751923788648
 31
0.0
  0
LINE
  5
364
330
1F
100
AcDbEntity
  8
LAY-1
  6
CONTINUOUS
 62
     7
100
AcDbLine
 10
667.321626882529
 20
321.3430000000011
 30
0.0
 11
679.899299516201
 21
321.3430000000011
 31
0.0
  0
ARC
  5
365
330
1F
100
AcDbEntity
  8
LAY-1
  6
CONTINUOUS
 62
     7
100
AcDbCircle
 10
662.460046532013
 20
323.600000000001
 30
0.0
 40
3.000000000000002
100
AcDbArc
 50
15.00000000012087
 51
41.8103148956394
  0
ARC
  5
366
330
1F
100
AcDbEntity
  8
LAY-1
  6
CONTINUOUS
 62
     7
100
AcDbCircle
 10
688.693494591395
 20
310.6621778264911
 30
0.0
 40
3.578151847806
100
AcDbArc
 50
325.6157525320801
 51
34.38424746792061
  0
ARC
  5
367
330
1F
100
AcDbEntity
  8
LAY-1
  6
CONTINUOUS
 62
     7
100
AcDbCircle
 10
677.57123566324
 20
304.3998796848921
 30
0.0
 40
14.700410775943
100
AcDbArc
 50
343.2297751376401
 51
16.77022486236006
  0
LINE
  5
368
330
1F
100
AcDbEntity
  8
LAY-1
  6
CONTINUOUS
 62
     7
100
AcDbLine
 10
665.35782401088
 20
324.376457135309
 30
0.0
 11
665.872738143095
 21
322.454771432348
 31
0.0
  0
ARC
  5
369
330
1F
100
AcDbEntity
  8
LAY-1
  6
CONTINUOUS
 62
     7
100
AcDbCircle
 10
689.308266111329
 20
298.3377018584021
 30
0.0
 40
2.963380327852
100
AcDbArc
 50
322.0939978610388
 51
37.90600213859995
  0
LINE
  5
36A
330
1F
100
AcDbEntity
  8
LAY-1
  6
CONTINUOUS
 62
     7
100
AcDbLine
 10
681.771646439183
 20
290.501923788648
 30
0.0
 11
681.7716464391831
 21
304.5999999999999
 31
0.0
  0
LINE
  5
36B
330
1F
100
AcDbEntity
  8
LAY-1
  6
CONTINUOUS
 62
     7
100
AcDbLine
 10
681.7716464391831
 20
318.6980762113551
 30
0.0
 11
681.7716464391831
 21
304.5999999999999
 31
0.0
  0
LINE
  5
36C
330
1F
100
AcDbEntity
  8
LAY-1
  6
CONTINUOUS
 62
     7
100
AcDbLine
 10
684.271646439185
 20
311.278565665109
 30
0.0
 11
681.7716464391831
 21
311.2000000000013
 31
0.0
  0
LINE
  5
36D
330
1F
100
AcDbEntity
  8
LAY-1
  6
CONTINUOUS
 62
     7
100
AcDbLine
 10
681.771646439183
 20
298.0000000000011
 30
0.0
 11
684.271646439181
 21
297.9214343348921
 31
0.0
  0
LINE
  5
36E
330
1F
100
AcDbEntity
  8
LAY-1
  6
CONTINUOUS
 62
     7
100
AcDbLine
 10
667.175151511013
 20
296.2117378896498
 30
0.0
 11
679.899299516201
 21
296.2117378896498
 31
0.0
  0
LINE
  5
36F
330
1F
100
AcDbEntity
  8
LAY-1
  6
CONTINUOUS
 62
     7
100
AcDbLine
 10
667.175151511013
 20
312.9882621103523
 30
0.0
 11
679.899299516201
 21
312.9882621103523
 31
0.0
  0
ARC
  5
370
330
1F
100
AcDbEntity
  8
LAY-1
  6
CONTINUOUS
 62
     7
100
AcDbCircle
 10
676.1754361311562
 20
292.0343689448249
 30
0.0
 40
5.596210308026882
100
AcDbArc
 50
311.7150090075201
 51
48.28499099248059
  0
ARC
  5
371
330
1F
100
AcDbEntity
  8
LAY-1
  6
CONTINUOUS
 62
     7
100
AcDbCircle
 10
662.0454345589917
 20
304.5999999999999
 30
0.0
 40
19.72621188019133
100
AcDbArc
 50
334.834504588699
 51
25.16549541130146
  0
ARC
  5
372
330
1F
100
AcDbEntity
  8
LAY-1
  6
CONTINUOUS
 62
     7
100
AcDbCircle
 10
676.1754361311574
 20
317.1656310551753
 30
0.0
 40
5.596210308025622
100
AcDbArc
 50
311.7150090075006
 51
48.28499099248793
  0
LINE
  5
373
330
1F
100
AcDbEntity
  8
LAY-1
  6
CONTINUOUS
 62
     7
100
AcDbLine
 10
664.7751515110131
 20
287.4198626964599
 30
0.0
 11
664.7751515110131
 21
304.5999999999999
 31
0.0
  0
LINE
  5
374
330
1F
100
AcDbEntity
  8
LAY-1
  6
CONTINUOUS
 62
     7
100
AcDbLine
 10
664.7751515110131
 20
321.7801373035422
 30
0.0
 11
664.7751515110131
 21
304.6000000000022
 31
0.0
  0
LINE
  5
375
330
1F
100
AcDbEntity
  8
LAY-1
  6
CONTINUOUS
 62
     7
100
AcDbLine
 10
656.6272836082662
 20
326.100000000001
 30
0.0
 11
658.7716464391831
 21
326.100000000001
 31
0.0
  0
LINE
  5
376
330
1F
100
AcDbEntity
  8
LAY-1
  6
CONTINUOUS
 62
     7
100
AcDbLine
 10
659.7716464391831
 20
318.2381816969493
 30
0.0
 11
659.7716464391831
 21
325.100000000001
 31
0.0
  0
LINE
  5
377
330
1F
100
AcDbEntity
  8
LAY-1
  6
CONTINUOUS
 62
     7
100
AcDbLine
 10
659.771646439183
 20
290.9618183030506
 30
0.0
 11
659.771646439183
 21
284.600000000001
 31
0.0
  0
LINE
  5
378
330
1F
100
AcDbEntity
  8
LAY-1
  6
CONTINUOUS
 62
     7
100
AcDbLine
 10
658.771646439183
 20
283.100000000001
 30
0.0
 11
656.6272836082674
 21
283.100000000001
 31
0.0
  0
LINE
  5
379
330
1F
100
AcDbEntity
  8
LAY-1
  6
EXLTYPE2
 62
     1
100
AcDbLine
 10
614.2716464391721
 20
361.860563380282
 30
0.0
 11
614.2716464391721
 21
246.50709114284
 31
0.0
  0
LINE
  5
37A
330
1F
100
AcDbEntity
  8
LAY-1
  6
CONTINUOUS
 62
     1
100
AcDbLine
 10
530.7716464391701
 20
291.1233248654196
 30
0.0
 11
529.8652211834251
 21
290.600000000015
 31
0.0
  0
LINE
  5
37B
330
1F
100
AcDbEntity
  8
LAY-1
  6
CONTINUOUS
 62
     1
100
AcDbLine
 10
530.7716464391801
 20
318.0766751346094
 30
0.0
 11
529.8652211834341
 21
318.600000000015
 31
0.0
  0
LINE
  5
37C
330
1F
100
AcDbEntity
  8
LAY-1
  6
CONTINUOUS
 62
     1
100
AcDbLine
 10
684.2716464391821
 20
298.8210563721781
 30
0.0
 11
685.8304921659931
 21
297.874294935826
 31
0.0
  0
LINE
  5
37D
330
1F
100
AcDbEntity
  8
LAY-1
  6
CONTINUOUS
 62
     1
100
AcDbLine
 10
685.8304921659981
 20
311.325705064173
 30
0.0
 11
684.271646439185
 21
310.3786474026381
 31
0.0
  0
LINE
  5
37E
330
1F
100
AcDbEntity
  8
LAY-1
  6
CONTINUOUS
 62
     1
100
AcDbLine
 10
684.271646439185
 20
310.3786474026381
 30
0.0
 11
681.7716464391831
 21
310.300061303148
 31
0.0
  0
LINE
  5
37F
330
1F
100
AcDbEntity
  8
LAY-1
  6
CONTINUOUS
 62
     1
100
AcDbLine
 10
681.771646439183
 20
298.8997165279658
 30
0.0
 11
684.2716464391821
 21
298.8210563721781
 31
0.0
  0
LINE
  5
380
330
1F
100
AcDbEntity
  8
LAY-1
  6
EXLTYPE2
 62
     1
100
AcDbLine
 10
483.63080136875
 20
304.6
 30
0.0
 11
696.7481851145601
 21
304.6
 31
0.0
  0
CIRCLE
  5
381
330
1F
100
AcDbEntity
  8
LAY-1
  6
CONTINUOUS
 62
     7
100
AcDbCircle
 10
177.241218956799
 20
329.348737341529
 30
0.0
 40
7.500000000000004
  0
CIRCLE
  5
382
330
1F
100
AcDbEntity
  8
LAY-1
  6
CONTINUOUS
 62
     7
100
AcDbCircle
 10
226.738693639857
 20
329.348737341529
 30
0.0
 40
7.500000000000004
  0
CIRCLE
  5
383
330
1F
100
AcDbEntity
  8
LAY-1
  6
CONTINUOUS
 62
     7
100
AcDbCircle
 10
201.989956298328
 20
304.6
 30
0.0
 40
47.50000000000004
  0
CIRCLE
  5
384
330
1F
100
AcDbEntity
  8
LAY-1
  6
CONTINUOUS
 62
     7
100
AcDbCircle
 10
201.989956298332
 20
304.6
 30
0.0
 40
25.50000000000002
  0
CIRCLE
  5
385
330
1F
100
AcDbEntity
  8
LAY-1
  6
CONTINUOUS
 62
     7
100
AcDbCircle
 10
201.989956298328
 20
304.6
 30
0.0
 40
7.500000000000004
  0
CIRCLE
  5
386
330
1F
100
AcDbEntity
  8
LAY-1
  6
CONTINUOUS
 62
     7
100
AcDbCircle
 10
226.738693639857
 20
279.851262658471
 30
0.0
 40
7.500000000000004
  0
CIRCLE
  5
387
330
1F
100
AcDbEntity
  8
LAY-1
  6
CONTINUOUS
 62
     7
100
AcDbCircle
 10
177.241218956799
 20
279.851262658471
 30
0.0
 40
7.500000000000004
  0
ARC
  5
388
330
1F
100
AcDbEntity
  8
LAY-1
  6
CONTINUOUS
 62
     7
100
AcDbCircle
 10
300.489956298327
 20
295.4722682568119
 30
0.0
 40
1.0
100
AcDbArc
 50
180.0
 51
253.2204805075175
  0
ARC
  5
389
330
1F
100
AcDbEntity
  8
LAY-1
  6
CONTINUOUS
 62
     7
100
AcDbCircle
 10
299.6238875510099
 20
292.6000000024659
 30
0.0
 40
2.0
100
AcDbArc
 50
7.662255660747528
 51
73.22048050752225
  0
LINE
  5
38A
330
1F
100
AcDbEntity
  8
LAY-1
  6
CONTINUOUS
 62
     7
100
AcDbLine
 10
299.489956298325
 20
304.600000000019
 30
0.0
 11
299.489956298327
 21
295.4722682573379
 31
0.0
  0
ARC
  5
38B
330
1F
100
AcDbEntity
  8
LAY-1
  6
CONTINUOUS
 62
     7
100
AcDbCircle
 10
312.989956298335
 20
271.1000000000229
 30
0.0
 40
6.500000000000004
100
AcDbArc
 50
180.0
 51
0.0000000000001719
  0
ARC
  5
38C
330
1F
100
AcDbEntity
  8
LAY-1
  6
CONTINUOUS
 62
     7
100
AcDbCircle
 10
300.489956298322
 20
313.7277317432269
 30
0.0
 40
1.0
100
AcDbArc
 50
106.7795194924825
 51
180.0
  0
ARC
  5
38D
330
1F
100
AcDbEntity
  8
LAY-1
  6
CONTINUOUS
 62
     7
100
AcDbCircle
 10
299.623887551003
 20
316.599999997572
 30
0.0
 40
2.0
100
AcDbArc
 50
286.77951949248
 51
352.3377443392805
  0
LINE
  5
38E
330
1F
100
AcDbEntity
  8
LAY-1
  6
CONTINUOUS
 62
     7
100
AcDbLine
 10
299.489956298325
 20
304.600000000019
 30
0.0
 11
299.489956298322
 21
313.727731742701
 31
0.0
  0
LINE
  5
38F
330
1F
100
AcDbEntity
  8
LAY-1
  6
CONTINUOUS
 62
     7
100
AcDbLine
 10
294.48995629832
 20
319.1000000000179
 30
0.0
 11
293.194868534903
 21
321.3431578065169
 31
0.0
  0
LINE
  5
390
330
1F
100
AcDbEntity
  8
LAY-1
  6
CONTINUOUS
 62
     7
100
AcDbLine
 10
293.194868534903
 20
321.3431578065169
 30
0.0
 11
287.48995629832
 21
321.343157806515
 31
0.0
  0
LINE
  5
391
330
1F
100
AcDbEntity
  8
LAY-1
  6
CONTINUOUS
 62
     7
100
AcDbLine
 10
293.194868534913
 20
287.8568421935179
 30
0.0
 11
287.48995629833
 21
287.8568421935169
 31
0.0
  0
LINE
  5
392
330
1F
100
AcDbEntity
  8
LAY-1
  6
CONTINUOUS
 62
     7
100
AcDbLine
 10
294.489956298329
 20
290.1000000000179
 30
0.0
 11
293.194868534913
 21
287.8568421935179
 31
0.0
  0
LINE
  5
393
330
1F
100
AcDbEntity
  8
LAY-1
  6
CONTINUOUS
 62
     7
100
AcDbLine
 10
298.6239308945389
 20
309.600000000019
 30
0.0
 11
298.62393089454
 21
304.600000000019
 31
0.0
  0
LINE
  5
394
330
1F
100
AcDbEntity
  8
LAY-1
  6
CONTINUOUS
 62
     7
100
AcDbLine
 10
298.6239308945389
 20
309.600000000019
 30
0.0
 11
299.489956298323
 21
309.100000000019
 31
0.0
  0
LINE
  5
395
330
1F
100
AcDbEntity
  8
LAY-1
  6
CONTINUOUS
 62
     7
100
AcDbLine
 10
298.623930894542
 20
299.600000000019
 30
0.0
 11
298.62393089454
 21
304.600000000019
 31
0.0
  0
LINE
  5
396
330
1F
100
AcDbEntity
  8
LAY-1
  6
CONTINUOUS
 62
     7
100
AcDbLine
 10
298.623930894542
 20
299.600000000019
 30
0.0
 11
299.489956298326
 21
300.100000000019
 31
0.0
  0
LINE
  5
397
330
1F
100
AcDbEntity
  8
LAY-1
  6
CONTINUOUS
 62
     7
100
AcDbLine
 10
249.186967850395
 20
282.6606897707989
 30
0.0
 11
247.48995629833
 21
285.6000000000039
 31
0.0
  0
LINE
  5
398
330
1F
100
AcDbEntity
  8
LAY-1
  6
CONTINUOUS
 62
     7
100
AcDbLine
 10
250.429266527537
 20
282.6606897707989
 30
0.0
 11
249.186967850395
 21
282.6606897707989
 31
0.0
  0
LINE
  5
399
330
1F
100
AcDbEntity
  8
LAY-1
  6
CONTINUOUS
 62
     7
100
AcDbLine
 10
266.050646069125
 20
282.6606897708039
 30
0.0
 11
250.429266527537
 21
282.6606897707989
 31
0.0
  0
LINE
  5
39A
330
1F
100
AcDbEntity
  8
LAY-1
  6
CONTINUOUS
 62
     7
100
AcDbLine
 10
267.926919342483
 20
282.6606897708039
 30
0.0
 11
266.050646069125
 21
282.6606897708039
 31
0.0
  0
LINE
  5
39B
330
1F
100
AcDbEntity
  8
LAY-1
  6
CONTINUOUS
 62
     7
100
AcDbLine
 10
271.067306567519
 20
287.100000000011
 30
0.0
 11
284.48995629833
 21
287.100000000015
 31
0.0
  0
LINE
  5
39C
330
1F
100
AcDbEntity
  8
LAY-1
  6
CONTINUOUS
 62
     7
100
AcDbLine
 10
270.201281163735
 20
286.600000000011
 30
0.0
 11
267.926919342483
 21
282.6606897708039
 31
0.0
  0
LINE
  5
39D
330
1F
100
AcDbEntity
  8
LAY-1
  6
CONTINUOUS
 62
     7
100
AcDbLine
 10
250.429266527537
 20
282.6606897707989
 30
0.0
 11
266.050646069125
 21
282.6606897708039
 31
0.0
  0
ARC
  5
39E
330
1F
100
AcDbEntity
  8
LAY-1
  6
CONTINUOUS
 62
     7
100
AcDbCircle
 10
284.48995629833
 20
288.100000000015
 30
0.0
 40
1.0
100
AcDbArc
 50
270.0000000000002
 51
0.0000000000001719
  0
ARC
  5
39F
330
1F
100
AcDbEntity
  8
LAY-1
  6
CONTINUOUS
 62
     7
100
AcDbCircle
 10
271.0673065675199
 20
286.100000000011
 30
0.0
 40
1.0
100
AcDbArc
 50
90.00000000000009
 51
150.0000000001192
  0
ARC
  5
3A0
330
1F
100
AcDbEntity
  8
LAY-1
  6
CONTINUOUS
 62
     7
100
AcDbCircle
 10
271.067306567509
 20
323.100000000011
 30
0.0
 40
1.0
100
AcDbArc
 50
209.9999999998795
 51
270.0000000000002
  0
ARC
  5
3A1
330
1F
100
AcDbEntity
  8
LAY-1
  6
CONTINUOUS
 62
     7
100
AcDbCircle
 10
284.48995629832
 20
321.100000000015
 30
0.0
 40
1.0
100
AcDbArc
 50
0.0000000000001719
 51
90.00000000000009
  0
LINE
  5
3A2
330
1F
100
AcDbEntity
  8
LAY-1
  6
CONTINUOUS
 62
     7
100
AcDbLine
 10
250.429266527524
 20
326.5393102292109
 30
0.0
 11
266.050646069112
 21
326.5393102292149
 31
0.0
  0
LINE
  5
3A3
330
1F
100
AcDbEntity
  8
LAY-1
  6
CONTINUOUS
 62
     7
100
AcDbLine
 10
270.201281163725
 20
322.600000000011
 30
0.0
 11
267.92691934247
 21
326.5393102292159
 31
0.0
  0
LINE
  5
3A4
330
1F
100
AcDbEntity
  8
LAY-1
  6
CONTINUOUS
 62
     7
100
AcDbLine
 10
271.067306567509
 20
322.100000000011
 30
0.0
 11
284.489956298319
 21
322.100000000015
 31
0.0
  0
LINE
  5
3A5
330
1F
100
AcDbEntity
  8
LAY-1
  6
CONTINUOUS
 62
     7
100
AcDbLine
 10
249.186967850382
 20
326.5393102292099
 30
0.0
 11
247.489956298319
 21
323.6000000000039
 31
0.0
  0
LINE
  5
3A6
330
1F
100
AcDbEntity
  8
LAY-1
  6
CONTINUOUS
 62
     7
100
AcDbLine
 10
250.429266527524
 20
326.5393102292109
 30
0.0
 11
249.186967850382
 21
326.5393102292099
 31
0.0
  0
LINE
  5
3A7
330
1F
100
AcDbEntity
  8
LAY-1
  6
CONTINUOUS
 62
     7
100
AcDbLine
 10
266.050646069112
 20
326.5393102292149
 30
0.0
 11
250.429266527524
 21
326.5393102292109
 31
0.0
  0
LINE
  5
3A8
330
1F
100
AcDbEntity
  8
LAY-1
  6
CONTINUOUS
 62
     7
100
AcDbLine
 10
267.92691934247
 20
326.5393102292159
 30
0.0
 11
266.050646069112
 21
326.5393102292149
 31
0.0
  0
ARC
  5
3A9
330
1F
100
AcDbEntity
  8
LAY-1
  6
CONTINUOUS
 62
     7
100
AcDbCircle
 10
312.989956298315
 20
338.1000000000229
 30
0.0
 40
6.500000000000004
100
AcDbArc
 50
0.0000000000001719
 51
180.0
  0
ARC
  5
3AA
330
1F
100
AcDbEntity
  8
LAY-1
  6
CONTINUOUS
 62
     7
100
AcDbCircle
 10
245.989956298329
 20
325.5999999999909
 30
0.0
 40
1.5
100
AcDbArc
 50
0.0000000000001719
 51
90.00000000000009
  0
ARC
  5
3AB
330
1F
100
AcDbEntity
  8
LAY-1
  6
CONTINUOUS
 62
     7
100
AcDbCircle
 10
245.9899562983279
 20
283.5999999999923
 30
0.0
 40
1.5
100
AcDbArc
 50
270.0000000000002
 51
0.0000000000001719
  0
LINE
  5
3AC
330
1F
100
AcDbEntity
  8
LAY-1
  6
CONTINUOUS
 62
     7
100
AcDbLine
 10
294.489956298323
 20
304.6000000000039
 30
0.0
 11
294.48995629832
 21
319.1000000000179
 31
0.0
  0
LINE
  5
3AD
330
1F
100
AcDbEntity
  8
LAY-1
  6
CONTINUOUS
 62
     7
100
AcDbLine
 10
294.489956298326
 20
304.6000000000039
 30
0.0
 11
294.489956298329
 21
290.1000000000179
 31
0.0
  0
LINE
  5
3AE
330
1F
100
AcDbEntity
  8
LAY-1
  6
CONTINUOUS
 62
     7
100
AcDbLine
 10
287.48995629833
 20
287.8568421935169
 30
0.0
 11
287.48995629833
 21
304.6000000000039
 31
0.0
  0
LINE
  5
3AF
330
1F
100
AcDbEntity
  8
LAY-1
  6
CONTINUOUS
 62
     7
100
AcDbLine
 10
294.489956298327
 20
299.6000000000144
 30
0.0
 11
298.623930894542
 21
299.600000000019
 31
0.0
  0
LINE
  5
3B0
330
1F
100
AcDbEntity
  8
LAY-1
  6
CONTINUOUS
 62
     7
100
AcDbLine
 10
294.489956298323
 20
309.6000000000144
 30
0.0
 11
298.6239308945389
 21
309.600000000019
 31
0.0
  0
LINE
  5
3B1
330
1F
100
AcDbEntity
  8
LAY-1
  6
CONTINUOUS
 62
     7
100
AcDbLine
 10
287.48995629832
 20
321.343157806515
 30
0.0
 11
287.48995629832
 21
304.6000000000039
 31
0.0
  0
LINE
  5
3B2
330
1F
100
AcDbEntity
  8
LAY-1
  6
CONTINUOUS
 62
     7
100
AcDbLine
 10
285.48995629833
 20
288.100000000015
 30
0.0
 11
285.48995629833
 21
304.6000000000039
 31
0.0
  0
LINE
  5
3B3
330
1F
100
AcDbEntity
  8
LAY-1
  6
CONTINUOUS
 62
     7
100
AcDbLine
 10
287.489956298329
 20
290.600000000016
 30
0.0
 11
285.48995629833
 21
290.600000000016
 31
0.0
  0
LINE
  5
3B4
330
1F
100
AcDbEntity
  8
LAY-1
  6
CONTINUOUS
 62
     7
100
AcDbLine
 10
287.489956298321
 20
318.600000000016
 30
0.0
 11
285.48995629832
 21
318.600000000016
 31
0.0
  0
LINE
  5
3B5
330
1F
100
AcDbEntity
  8
LAY-1
  6
CONTINUOUS
 62
     7
100
AcDbLine
 10
285.48995629832
 20
321.100000000015
 30
0.0
 11
285.48995629832
 21
304.6000000000039
 31
0.0
  0
LINE
  5
3B6
330
1F
100
AcDbEntity
  8
LAY-1
  6
CONTINUOUS
 62
     7
100
AcDbLine
 10
319.4899562983351
 20
271.1000000000229
 30
0.0
 11
319.4899562983351
 21
304.6000000000039
 31
0.0
  0
LINE
  5
3B7
330
1F
100
AcDbEntity
  8
LAY-1
  6
CONTINUOUS
 62
     7
100
AcDbLine
 10
319.489956298315
 20
338.1000000000249
 30
0.0
 11
319.489956298315
 21
304.6000000000039
 31
0.0
  0
ARC
  5
3B8
330
1F
100
AcDbEntity
  8
LAY-1
  6
CONTINUOUS
 62
     7
100
AcDbCircle
 10
315.989956298326
 20
304.600000000024
 30
0.0
 40
4.5
100
AcDbArc
 50
321.0575587310014
 51
38.94244126920496
  0
ARC
  5
3B9
330
1F
100
AcDbEntity
  8
LAY-1
  6
CONTINUOUS
 62
     7
100
AcDbCircle
 10
314.489956298328
 20
294.6000000024709
 30
0.0
 40
13.00000000000001
100
AcDbArc
 50
187.662255679817
 51
232.0201275551478
  0
LINE
  5
3BA
330
1F
100
AcDbEntity
  8
LAY-1
  6
CONTINUOUS
 62
     7
100
AcDbLine
 10
306.489956298335
 20
271.100000000021
 30
0.0
 11
306.489956298335
 21
304.6000000000039
 31
0.0
  0
LINE
  5
3BB
330
1F
100
AcDbEntity
  8
LAY-1
  6
CONTINUOUS
 62
     7
100
AcDbLine
 10
306.489956298315
 20
338.100000000021
 30
0.0
 11
306.489956298315
 21
304.6000000000039
 31
0.0
  0
ARC
  5
3BC
330
1F
100
AcDbEntity
  8
LAY-1
  6
CONTINUOUS
 62
     7
100
AcDbCircle
 10
314.4899562983221
 20
314.599999997577
 30
0.0
 40
13.00000000000001
100
AcDbArc
 50
127.9798724448908
 51
172.3377443201998
  0
LINE
  5
3BD
330
1F
100
AcDbEntity
  8
LAY-1
  6
CONTINUOUS
 62
     7
100
AcDbLine
 10
267.926919342472
 20
315.56965511461
 30
0.0
 11
249.186967850392
 21
315.5696551146101
 31
0.0
  0
LINE
  5
3BE
330
1F
100
AcDbEntity
  8
LAY-1
  6
CONTINUOUS
 62
     7
100
AcDbLine
 10
267.926919342472
 20
293.630344885398
 30
0.0
 11
249.186967850392
 21
293.630344885398
 31
0.0
  0
ARC
  5
3BF
330
1F
100
AcDbEntity
  8
LAY-1
  6
CONTINUOUS
 62
     7
100
AcDbCircle
 10
260.2767580863176
 20
321.0544826719099
 30
0.0
 40
9.413198212004533
100
AcDbArc
 50
324.361149075751
 51
35.63885092425041
  0
ARC
  5
3C0
330
1F
100
AcDbEntity
  8
LAY-1
  6
CONTINUOUS
 62
     7
100
AcDbCircle
 10
234.6817188841476
 20
304.600000000005
 30
0.0
 40
35.00823741417941
100
AcDbArc
 50
341.7390699577534
 51
18.26093004224663
  0
ARC
  5
3C1
330
1F
100
AcDbEntity
  8
LAY-1
  6
CONTINUOUS
 62
     7
100
AcDbCircle
 10
260.2767580863705
 20
288.1455173281
 30
0.0
 40
9.413198211961452
100
AcDbArc
 50
324.3611490755625
 51
35.63885092443726
  0
ARC
  5
3C2
330
1F
100
AcDbEntity
  8
LAY-1
  6
CONTINUOUS
 62
     7
100
AcDbCircle
 10
257.2020827423291
 20
288.1455173280999
 30
0.0
 40
9.712126444001248
100
AcDbArc
 50
145.6157525319408
 51
214.3842474680579
  0
ARC
  5
3C3
330
1F
100
AcDbEntity
  8
LAY-1
  6
CONTINUOUS
 62
     7
100
AcDbCircle
 10
257.2020827423499
 20
321.0544826719174
 30
0.0
 40
9.712126444022692
100
AcDbArc
 50
145.6157525320801
 51
214.3842474680251
  0
LINE
  5
3C4
330
1F
100
AcDbEntity
  8
LAY-1
  6
CONTINUOUS
 62
     7
100
AcDbLine
 10
245.989956298329
 20
327.0999999999909
 30
0.0
 11
243.8229576250367
 21
327.0999999999909
 31
0.0
  0
LINE
  5
3C5
330
1F
100
AcDbEntity
  8
LAY-1
  6
CONTINUOUS
 62
     7
100
AcDbLine
 10
245.9899562983278
 20
282.0999999999923
 30
0.0
 11
243.8229576250277
 21
282.0999999999925
 31
0.0
  0
ARC
  5
3C6
330
1F
100
AcDbEntity
  8
LAY-1
  6
CONTINUOUS
 62
     7
100
AcDbCircle
 10
283.792944746123
 20
304.600000000005
 30
0.0
 40
36.30298844780198
100
AcDbArc
 50
194.3768344538215
 51
197.5879537740644
  0
LINE
  5
3C7
330
1F
100
AcDbEntity
  8
LAY-1
  6
CONTINUOUS
 62
     7
100
AcDbLine
 10
247.4899562983279
 20
283.5999999999921
 30
0.0
 11
247.4899562983279
 21
290.9618183030136
 31
0.0
  0
ARC
  5
3C8
330
1F
100
AcDbEntity
  8
LAY-1
  6
CONTINUOUS
 62
     7
100
AcDbCircle
 10
283.792944746123
 20
304.600000000005
 30
0.0
 40
36.30298844780198
100
AcDbArc
 50
162.4120462259356
 51
165.6231655461858
  0
LINE
  5
3C9
330
1F
100
AcDbEntity
  8
LAY-1
  6
CONTINUOUS
 62
     7
100
AcDbLine
 10
247.4899562983262
 20
318.238181696992
 30
0.0
 11
247.489956298329
 21
325.5999999999894
 31
0.0
  0
LINE
  5
3CA
330
1F
100
AcDbEntity
  8
LAY-1
  6
CONTINUOUS
 62
     7
100
AcDbLine
 10
247.4899562983255
 20
318.2381816969944
 30
0.0
 11
247.489956298319
 21
323.6000000000039
 31
0.0
  0
LINE
  5
3CB
330
1F
100
AcDbEntity
  8
LAY-1
  6
CONTINUOUS
 62
     7
100
AcDbLine
 10
247.489956298329
 20
290.9618183030177
 30
0.0
 11
247.48995629833
 21
285.6000000000039
 31
0.0
  0
ARC
  5
3CC
330
1F
100
AcDbEntity
  8
LAY-1
  6
CONTINUOUS
 62
     7
100
AcDbCircle
 10
287.0895477587426
 20
317.1609209919849
 30
0.0
 40
7.400408539577812
100
AcDbArc
 50
325.5882684477689
 51
34.41173155223272
  0
LINE
  5
3CD
330
1F
100
AcDbEntity
  8
LAY-1
  6
CONTINUOUS
 62
     7
100
AcDbLine
 10
293.194868534902
 20
312.9786841774499
 30
0.0
 11
287.48995629832
 21
312.9786841774499
 31
0.0
  0
ARC
  5
3CE
330
1F
100
AcDbEntity
  8
LAY-1
  6
CONTINUOUS
 62
     7
100
AcDbCircle
 10
266.7390953565538
 20
304.6000000000049
 30
0.0
 40
27.75086094177222
100
AcDbArc
 50
342.4267282812252
 51
17.57327171877553
  0
ARC
  5
3CF
330
1F
100
AcDbEntity
  8
LAY-1
  6
CONTINUOUS
 62
     7
100
AcDbCircle
 10
287.0895477588157
 20
292.0390790080331
 30
0.0
 40
7.400408539512974
100
AcDbArc
 50
325.588268447633
 51
34.41173155250029
  0
LINE
  5
3D0
330
1F
100
AcDbEntity
  8
LAY-1
  6
CONTINUOUS
 62
     7
100
AcDbLine
 10
293.194868534902
 20
296.221315822558
 30
0.0
 11
287.48995629832
 21
296.221315822558
 31
0.0
  0
ARC
  5
3D1
330
1F
100
AcDbEntity
  8
LAY-1
  6
CONTINUOUS
 62
     7
100
AcDbCircle
 10
135.989956298317
 20
318.6980762113552
 30
0.0
 40
1.5
100
AcDbArc
 50
150.0000000001203
 51
180.0
  0
ARC
  5
3D2
330
1F
100
AcDbEntity
  8
LAY-1
  6
CONTINUOUS
 62
     7
100
AcDbCircle
 10
148.9399758549711
 20
322.8430000000012
 30
0.0
 40
1.5
100
AcDbArc
 50
270.0000000000002
 51
344.9999999998793
  0
ARC
  5
3D3
330
1F
100
AcDbEntity
  8
LAY-1
  6
CONTINUOUS
 62
     7
100
AcDbCircle
 10
136.362303221299
 20
320.3430000000012
 30
0.0
 40
1.0
100
AcDbArc
 50
90.00000000000009
 51
150.0000000001208
  0
LINE
  5
3D4
330
1F
100
AcDbEntity
  8
LAY-1
  6
CONTINUOUS
 62
     7
100
AcDbLine
 10
151.565488227987
 20
325.6000000000012
 30
0.0
 11
155.989956298317
 21
325.6000000000012
 31
0.0
  0
ARC
  5
3D5
330
1F
100
AcDbEntity
  8
LAY-1
  6
CONTINUOUS
 62
     7
100
AcDbCircle
 10
135.989956298317
 20
290.5019237886481
 30
0.0
 40
1.5
100
AcDbArc
 50
180.0
 51
209.99999999988
  0
LINE
  5
3D6
330
1F
100
AcDbEntity
  8
LAY-1
  6
CONTINUOUS
 62
     7
100
AcDbLine
 10
150.90377872662
 20
284.8235428646932
 30
0.0
 11
150.388864594405
 21
286.7452285676552
 31
0.0
  0
LINE
  5
3D7
330
1F
100
AcDbEntity
  8
LAY-1
  6
CONTINUOUS
 62
     7
100
AcDbLine
 10
129.989956298318
 20
300.1583074854561
 30
0.0
 11
124.615171080654
 21
300.1583074854561
 31
0.0
  0
LINE
  5
3D8
330
1F
100
AcDbEntity
  8
LAY-1
  6
CONTINUOUS
 62
     7
100
AcDbLine
 10
129.9899562983161
 20
308.6414518843292
 30
0.0
 11
124.615171080654
 21
308.6414518843292
 31
0.0
  0
LINE
  5
3D9
330
1F
100
AcDbEntity
  8
LAY-1
  6
CONTINUOUS
 62
     7
100
AcDbLine
 10
129.9899562983151
 20
312.6829037686551
 30
0.0
 11
124.615171080654
 21
312.6829037686532
 31
0.0
  0
LINE
  5
3DA
330
1F
100
AcDbEntity
  8
LAY-1
  6
CONTINUOUS
 62
     7
100
AcDbLine
 10
124.615171080654
 20
312.6829037686532
 30
0.0
 11
123.9899562983151
 21
311.5771151925181
 31
0.0
  0
LINE
  5
3DB
330
1F
100
AcDbEntity
  8
LAY-1
  6
CONTINUOUS
 62
     7
100
AcDbLine
 10
123.9899562983151
 20
311.5771151925181
 30
0.0
 11
123.989956298319
 21
297.5999999999982
 31
0.0
  0
LINE
  5
3DC
330
1F
100
AcDbEntity
  8
LAY-1
  6
CONTINUOUS
 62
     7
100
AcDbLine
 10
123.989956298319
 20
297.5999999999982
 30
0.0
 11
124.615171080659
 21
296.5170962313432
 31
0.0
  0
LINE
  5
3DD
330
1F
100
AcDbEntity
  8
LAY-1
  6
CONTINUOUS
 62
     7
100
AcDbLine
 10
124.615171080659
 20
296.5170962313432
 30
0.0
 11
129.9899562983201
 21
296.5170962313451
 31
0.0
  0
LINE
  5
3DE
330
1F
100
AcDbEntity
  8
LAY-1
  6
CONTINUOUS
 62
     7
100
AcDbLine
 10
129.9899562983151
 20
312.6829037686551
 30
0.0
 11
129.9899562983171
 21
304.6000000000012
 31
0.0
  0
LINE
  5
3DF
330
1F
100
AcDbEntity
  8
LAY-1
  6
CONTINUOUS
 62
     7
100
AcDbLine
 10
129.9899562983151
 20
311.3414181971951
 30
0.0
 11
131.9899562983151
 21
311.2785656651091
 31
0.0
  0
LINE
  5
3E0
330
1F
100
AcDbEntity
  8
LAY-1
  6
CONTINUOUS
 62
     7
100
AcDbLine
 10
131.989956298319
 20
297.9214343348922
 30
0.0
 11
129.989956298319
 21
297.8742949358261
 31
0.0
  0
LINE
  5
3E1
330
1F
100
AcDbEntity
  8
LAY-1
  6
CONTINUOUS
 62
     7
100
AcDbLine
 10
156.489956298317
 20
325.1000000000012
 30
0.0
 11
155.989956298317
 21
325.6000000000012
 31
0.0
  0
ARC
  5
3E2
330
1F
100
AcDbEntity
  8
LAY-1
  6
CONTINUOUS
 62
     7
100
AcDbCircle
 10
153.801556205487
 20
285.6000000000012
 30
0.0
 40
3.000000000000002
100
AcDbArc
 50
195.0000000001204
 51
221.8103148956383
  0
LINE
  5
3E3
330
1F
100
AcDbEntity
  8
LAY-1
  6
CONTINUOUS
 62
     7
100
AcDbLine
 10
156.489956298317
 20
317.8000000000012
 30
0.0
 11
156.489956298317
 21
325.1000000000012
 31
0.0
  0
LINE
  5
3E4
330
1F
100
AcDbEntity
  8
LAY-1
  6
CONTINUOUS
 62
     7
100
AcDbLine
 10
156.489956298317
 20
284.1000000000012
 30
0.0
 11
157.489956298317
 21
283.1000000000012
 31
0.0
  0
LINE
  5
3E5
330
1F
100
AcDbEntity
  8
LAY-1
  6
CONTINUOUS
 62
     7
100
AcDbLine
 10
157.489956298317
 20
326.1000000000012
 30
0.0
 11
156.489956298317
 21
325.1000000000012
 31
0.0
  0
LINE
  5
3E6
330
1F
100
AcDbEntity
  8
LAY-1
  6
CONTINUOUS
 62
     7
100
AcDbLine
 10
148.9399758549711
 20
287.8570000000012
 30
0.0
 11
136.362303221299
 21
287.8570000000012
 31
0.0
  0
LINE
  5
3E7
330
1F
100
AcDbEntity
  8
LAY-1
  6
CONTINUOUS
 62
     7
100
AcDbLine
 10
156.489956298317
 20
284.1000000000012
 30
0.0
 11
156.489956298317
 21
291.4000000000011
 31
0.0
  0
LINE
  5
3E8
330
1F
100
AcDbEntity
  8
LAY-1
  6
CONTINUOUS
 62
     7
100
AcDbLine
 10
129.9899562983171
 20
304.6000000000012
 30
0.0
 11
129.9899562983201
 21
296.5170962313451
 31
0.0
  0
LINE
  5
3E9
330
1F
100
AcDbEntity
  8
LAY-1
  6
CONTINUOUS
 62
     7
100
AcDbLine
 10
131.9899562983151
 20
304.6000000000012
 30
0.0
 11
131.989956298319
 21
297.9214343348922
 31
0.0
  0
LINE
  5
3EA
330
1F
100
AcDbEntity
  8
LAY-1
  6
CONTINUOUS
 62
     7
100
AcDbLine
 10
131.9899562983151
 20
304.6000000000012
 30
0.0
 11
131.9899562983151
 21
311.2785656651091
 31
0.0
  0
LINE
  5
3EB
330
1F
100
AcDbEntity
  8
LAY-1
  6
CONTINUOUS
 62
     7
100
AcDbLine
 10
151.565488227987
 20
283.6000000000012
 30
0.0
 11
155.989956298317
 21
283.6000000000022
 31
0.0
  0
ARC
  5
3EC
330
1F
100
AcDbEntity
  8
LAY-1
  6
CONTINUOUS
 62
     7
100
AcDbCircle
 10
148.9399758549711
 20
286.3570000000012
 30
0.0
 40
1.5
100
AcDbArc
 50
15.00000000012093
 51
90.00000000000009
  0
LINE
  5
3ED
330
1F
100
AcDbEntity
  8
LAY-1
  6
CONTINUOUS
 62
     7
100
AcDbLine
 10
135.496277817515
 20
320.8430000000012
 30
0.0
 11
134.69091819264
 21
319.4480762113552
 31
0.0
  0
ARC
  5
3EE
330
1F
100
AcDbEntity
  8
LAY-1
  6
CONTINUOUS
 62
     7
100
AcDbCircle
 10
136.362303221299
 20
288.8570000000012
 30
0.0
 40
1.0
100
AcDbArc
 50
209.9999999998795
 51
270.0000000000002
  0
LINE
  5
3EF
330
1F
100
AcDbEntity
  8
LAY-1
  6
CONTINUOUS
 62
     7
100
AcDbLine
 10
156.489956298317
 20
284.1000000000012
 30
0.0
 11
155.989956298317
 21
283.6000000000022
 31
0.0
  0
LINE
  5
3F0
330
1F
100
AcDbEntity
  8
LAY-1
  6
CONTINUOUS
 62
     7
100
AcDbLine
 10
135.496277817515
 20
288.3570000000012
 30
0.0
 11
134.69091819264
 21
289.7519237886481
 31
0.0
  0
LINE
  5
3F1
330
1F
100
AcDbEntity
  8
LAY-1
  6
CONTINUOUS
 62
     7
100
AcDbLine
 10
148.9399758549711
 20
321.3430000000012
 30
0.0
 11
136.362303221299
 21
321.3430000000012
 31
0.0
  0
ARC
  5
3F2
330
1F
100
AcDbEntity
  8
LAY-1
  6
CONTINUOUS
 62
     7
100
AcDbCircle
 10
153.801556205487
 20
323.6000000000012
 30
0.0
 40
3.000000000000002
100
AcDbArc
 50
138.1896851043613
 51
164.9999999998798
  0
ARC
  5
3F3
330
1F
100
AcDbEntity
  8
LAY-1
  6
CONTINUOUS
 62
     7
100
AcDbCircle
 10
127.568108146105
 20
310.6621778264912
 30
0.0
 40
3.578151847806
100
AcDbArc
 50
145.6157525320801
 51
214.3842474679204
  0
ARC
  5
3F4
330
1F
100
AcDbEntity
  8
LAY-1
  6
CONTINUOUS
 62
     7
100
AcDbCircle
 10
138.6903670742601
 20
304.3998796848922
 30
0.0
 40
14.700410775943
100
AcDbArc
 50
163.2297751376402
 51
196.7702248623601
  0
LINE
  5
3F5
330
1F
100
AcDbEntity
  8
LAY-1
  6
CONTINUOUS
 62
     7
100
AcDbLine
 10
150.90377872662
 20
324.3764571353091
 30
0.0
 11
150.388864594405
 21
322.4547714323481
 31
0.0
  0
ARC
  5
3F6
330
1F
100
AcDbEntity
  8
LAY-1
  6
CONTINUOUS
 62
     7
100
AcDbCircle
 10
126.9533366261711
 20
298.3377018584022
 30
0.0
 40
2.963380327852
100
AcDbArc
 50
142.0939978614001
 51
217.9060021389615
  0
LINE
  5
3F7
330
1F
100
AcDbEntity
  8
LAY-1
  6
CONTINUOUS
 62
     7
100
AcDbLine
 10
134.489956298317
 20
290.5019237886481
 30
0.0
 11
134.489956298317
 21
304.6
 31
0.0
  0
LINE
  5
3F8
330
1F
100
AcDbEntity
  8
LAY-1
  6
CONTINUOUS
 62
     7
100
AcDbLine
 10
134.489956298317
 20
318.6980762113552
 30
0.0
 11
134.489956298317
 21
304.6
 31
0.0
  0
LINE
  5
3F9
330
1F
100
AcDbEntity
  8
LAY-1
  6
CONTINUOUS
 62
     7
100
AcDbLine
 10
131.9899562983151
 20
311.2785656651091
 30
0.0
 11
134.489956298317
 21
311.2000000000014
 31
0.0
  0
LINE
  5
3FA
330
1F
100
AcDbEntity
  8
LAY-1
  6
CONTINUOUS
 62
     7
100
AcDbLine
 10
134.489956298317
 20
298.0000000000013
 30
0.0
 11
131.989956298319
 21
297.9214343348922
 31
0.0
  0
LINE
  5
3FB
330
1F
100
AcDbEntity
  8
LAY-1
  6
CONTINUOUS
 62
     7
100
AcDbLine
 10
149.086451226487
 20
296.21173788965
 30
0.0
 11
136.362303221299
 21
296.21173788965
 31
0.0
  0
LINE
  5
3FC
330
1F
100
AcDbEntity
  8
LAY-1
  6
CONTINUOUS
 62
     7
100
AcDbLine
 10
149.086451226487
 20
312.9882621103524
 30
0.0
 11
136.362303221299
 21
312.9882621103524
 31
0.0
  0
ARC
  5
3FD
330
1F
100
AcDbEntity
  8
LAY-1
  6
CONTINUOUS
 62
     7
100
AcDbCircle
 10
140.0861666063439
 20
292.034368944825
 30
0.0
 40
5.596210308026882
100
AcDbArc
 50
131.7150090075196
 51
228.2849909924801
  0
ARC
  5
3FE
330
1F
100
AcDbEntity
  8
LAY-1
  6
CONTINUOUS
 62
     7
100
AcDbCircle
 10
154.2161681785084
 20
304.6
 30
0.0
 40
19.72621188019133
100
AcDbArc
 50
154.8345045886988
 51
205.1654954113012
  0
ARC
  5
3FF
330
1F
100
AcDbEntity
  8
LAY-1
  6
CONTINUOUS
 62
     7
100
AcDbCircle
 10
140.0861666063427
 20
317.1656310551754
 30
0.0
 40
5.596210308025622
100
AcDbArc
 50
131.7150090075124
 51
228.2849909924997
  0
LINE
  5
400
330
1F
100
AcDbEntity
  8
LAY-1
  6
CONTINUOUS
 62
     7
100
AcDbLine
 10
151.486451226487
 20
287.41986269646
 30
0.0
 11
151.486451226487
 21
304.6
 31
0.0
  0
LINE
  5
401
330
1F
100
AcDbEntity
  8
LAY-1
  6
CONTINUOUS
 62
     7
100
AcDbLine
 10
151.486451226487
 20
321.7801373035423
 30
0.0
 11
151.486451226487
 21
304.6000000000023
 31
0.0
  0
LINE
  5
402
330
1F
100
AcDbEntity
  8
LAY-1
  6
CONTINUOUS
 62
     7
100
AcDbLine
 10
159.6343191292339
 20
326.1000000000012
 30
0.0
 11
157.489956298317
 21
326.1000000000012
 31
0.0
  0
LINE
  5
403
330
1F
100
AcDbEntity
  8
LAY-1
  6
CONTINUOUS
 62
     7
100
AcDbLine
 10
156.489956298317
 20
318.2381816969494
 30
0.0
 11
156.489956298317
 21
325.1000000000012
 31
0.0
  0
LINE
  5
404
330
1F
100
AcDbEntity
  8
LAY-1
  6
CONTINUOUS
 62
     7
100
AcDbLine
 10
156.489956298317
 20
290.9618183030507
 30
0.0
 11
156.489956298317
 21
284.6000000000012
 31
0.0
  0
LINE
  5
405
330
1F
100
AcDbEntity
  8
LAY-1
  6
CONTINUOUS
 62
     7
100
AcDbLine
 10
157.489956298317
 20
283.1000000000012
 30
0.0
 11
159.6343191292326
 21
283.1000000000012
 31
0.0
  0
LINE
  5
406
330
1F
100
AcDbEntity
  8
LAY-1
  6
EXLTYPE2
 62
     1
100
AcDbLine
 10
201.989956298328
 20
361.860563380282
 30
0.0
 11
201.989956298328
 21
246.5070911428401
 31
0.0
  0
LINE
  5
407
330
1F
100
AcDbEntity
  8
LAY-1
  6
CONTINUOUS
 62
     1
100
AcDbLine
 10
285.48995629833
 20
291.1233248654196
 30
0.0
 11
286.396381554075
 21
290.600000000015
 31
0.0
  0
LINE
  5
408
330
1F
100
AcDbEntity
  8
LAY-1
  6
CONTINUOUS
 62
     1
100
AcDbLine
 10
285.48995629832
 20
318.0766751346094
 30
0.0
 11
286.396381554066
 21
318.600000000015
 31
0.0
  0
LINE
  5
409
330
1F
100
AcDbEntity
  8
LAY-1
  6
CONTINUOUS
 62
     1
100
AcDbLine
 10
131.989956298318
 20
298.8210563721782
 30
0.0
 11
130.431110571507
 21
297.8742949358261
 31
0.0
  0
LINE
  5
40A
330
1F
100
AcDbEntity
  8
LAY-1
  6
CONTINUOUS
 62
     1
100
AcDbLine
 10
130.431110571502
 20
311.3257050641731
 30
0.0
 11
131.9899562983151
 21
310.3786474026382
 31
0.0
  0
LINE
  5
40B
330
1F
100
AcDbEntity
  8
LAY-1
  6
CONTINUOUS
 62
     1
100
AcDbLine
 10
131.9899562983151
 20
310.3786474026382
 30
0.0
 11
134.489956298317
 21
310.3000613031481
 31
0.0
  0
LINE
  5
40C
330
1F
100
AcDbEntity
  8
LAY-1
  6
CONTINUOUS
 62
     1
100
AcDbLine
 10
134.489956298317
 20
298.8997165279659
 30
0.0
 11
131.989956298318
 21
298.8210563721782
 31
0.0
  0
LINE
  5
40D
330
1F
100
AcDbEntity
  8
LAY-1
  6
EXLTYPE2
 62
     1
100
AcDbLine
 10
332.63080136875
 20
304.6
 30
0.0
 11
119.51341762294
 21
304.6
 31
0.0
  0
LINE
  5
40E
330
1F
100
AcDbEntity
  8
LAY-1
  6
EXLTYPE2
 62
     1
100
AcDbLine
 10
474.05307735076
 20
304.6000000000021
 30
0.0
 11
346.75307735076
 21
304.6000000000021
 31
0.0
  0
TEXT
  5
40F
330
1F
100
AcDbEntity
  8
LAY-1
  6
CONTINUOUS
 62
     3
100
AcDbText
 10
238.5469226492401
 20
6.585505649240003
 30
0.0
 40
7.795275999999999
  1
４－φ１５
 41
1.498697239288211
  7
EXCADSTD
 72
     5
 11
286.94692264924
 21
6.585505649240003
 31
0.0
100
AcDbText
  0
TEXT
  5
410
330
1F
100
AcDbEntity
  8
LAY-1
  6
CONTINUOUS
 62
     3
100
AcDbText
 10
530.55307735076
 20
5.948405277482003
 30
0.0
 40
7.795275999999999
  1
４－φ１５
 41
1.498697239288211
  7
EXCADSTD
 72
     5
 11
578.9530773507599
 21
5.948405277482003
 31
0.0
100
AcDbText
  0
LINE
  5
411
330
1F
100
AcDbEntity
  8
LAY-1
  6
CONTINUOUS
 62
     7
100
AcDbLine
 10
319.0652036639461
 20
85.50000000001103
 30
0.0
 11
319.0652036639461
 21
77.50000000001103
 31
0.0
  0
LINE
  5
412
330
1F
100
AcDbEntity
  8
LAY-1
  6
CONTINUOUS
 62
     7
100
AcDbLine
 10
319.0652036639461
 20
77.50000000001103
 30
0.0
 11
333.464272961714
 21
77.50000000001296
 31
0.0
  0
LINE
  5
413
330
1F
100
AcDbEntity
  8
LAY-1
  6
CONTINUOUS
 62
     7
100
AcDbLine
 10
333.464272961714
 20
77.50000000001296
 30
0.0
 11
333.464272961714
 21
73.50000000001296
 31
0.0
  0
LINE
  5
414
330
1F
100
AcDbEntity
  8
LAY-1
  6
CONTINUOUS
 62
     7
100
AcDbLine
 10
333.464272961714
 20
73.50000000001296
 30
0.0
 11
342.4
 21
81.50000000001296
 31
0.0
  0
LINE
  5
415
330
1F
100
AcDbEntity
  8
LAY-1
  6
CONTINUOUS
 62
     7
100
AcDbLine
 10
342.4
 20
81.50000000001296
 30
0.0
 11
333.4642729617099
 21
89.50000000001296
 31
0.0
  0
LINE
  5
416
330
1F
100
AcDbEntity
  8
LAY-1
  6
CONTINUOUS
 62
     7
100
AcDbLine
 10
333.4642729617099
 20
89.50000000001296
 30
0.0
 11
333.4642729617099
 21
85.50000000001296
 31
0.0
  0
LINE
  5
417
330
1F
100
AcDbEntity
  8
LAY-1
  6
CONTINUOUS
 62
     7
100
AcDbLine
 10
333.4642729617099
 20
85.50000000001296
 30
0.0
 11
319.0652036639461
 21
85.50000000001103
 31
0.0
  0
LINE
  5
418
330
1F
100
AcDbEntity
  8
LAY-1
  6
CONTINUOUS
 62
     7
100
AcDbLine
 10
479.3652036639461
 20
85.50000000000902
 30
0.0
 11
479.3652036639461
 21
77.50000000000902
 31
0.0
  0
LINE
  5
419
330
1F
100
AcDbEntity
  8
LAY-1
  6
CONTINUOUS
 62
     7
100
AcDbLine
 10
479.3652036639461
 20
77.50000000000902
 30
0.0
 11
493.764272961714
 21
77.50000000001096
 31
0.0
  0
LINE
  5
41A
330
1F
100
AcDbEntity
  8
LAY-1
  6
CONTINUOUS
 62
     7
100
AcDbLine
 10
493.764272961714
 20
77.50000000001096
 30
0.0
 11
493.764272961714
 21
73.50000000001096
 31
0.0
  0
LINE
  5
41B
330
1F
100
AcDbEntity
  8
LAY-1
  6
CONTINUOUS
 62
     7
100
AcDbLine
 10
493.764272961714
 20
73.50000000001096
 30
0.0
 11
502.7
 21
81.50000000001096
 31
0.0
  0
LINE
  5
41C
330
1F
100
AcDbEntity
  8
LAY-1
  6
CONTINUOUS
 62
     7
100
AcDbLine
 10
502.7
 20
81.50000000001096
 30
0.0
 11
493.7642729617099
 21
89.50000000001096
 31
0.0
  0
LINE
  5
41D
330
1F
100
AcDbEntity
  8
LAY-1
  6
CONTINUOUS
 62
     7
100
AcDbLine
 10
493.7642729617099
 20
89.50000000001096
 30
0.0
 11
493.7642729617099
 21
85.50000000001096
 31
0.0
  0
LINE
  5
41E
330
1F
100
AcDbEntity
  8
LAY-1
  6
CONTINUOUS
 62
     7
100
AcDbLine
 10
493.7642729617099
 20
85.50000000001096
 30
0.0
 11
479.3652036639461
 21
85.50000000000902
 31
0.0
  0
LINE
  5
41F
330
1F
100
AcDbEntity
  8
LAY-1
  6
EXLTYPE2
 62
     1
100
AcDbLine
 10
362.6530773507611
 20
133.390354144097
 30
0.0
 11
362.6530773507611
 21
126.791415560673
 31
0.0
  0
ARC
  5
420
330
1F
100
AcDbEntity
  8
LAY-1
  6
EXLTYPE3
 62
     1
100
AcDbCircle
 10
364.5530773507611
 20
130.399999999998
 30
0.0
 40
0.9
100
AcDbArc
 50
0.0
 51
90.00000000000001
  0
ARC
  5
421
330
1F
100
AcDbEntity
  8
LAY-1
  6
EXLTYPE3
 62
     1
100
AcDbCircle
 10
360.7530773507611
 20
130.399999999998
 30
0.0
 40
0.9
100
AcDbArc
 50
90.00000000000001
 51
180.0
  0
LINE
  5
422
330
1F
100
AcDbEntity
  8
LAY-1
  6
EXLTYPE3
 62
     1
100
AcDbLine
 10
367.6530773507611
 20
128.999999999998
 30
0.0
 11
366.6530773507611
 21
128.999999999998
 31
0.0
  0
LINE
  5
423
330
1F
100
AcDbEntity
  8
LAY-1
  6
EXLTYPE3
 62
     1
100
AcDbLine
 10
367.6530773507611
 20
129.499999999998
 30
0.0
 11
367.6530773507611
 21
128.999999999998
 31
0.0
  0
LINE
  5
424
330
1F
100
AcDbEntity
  8
LAY-1
  6
EXLTYPE3
 62
     1
100
AcDbLine
 10
357.6530773507611
 20
129.499999999998
 30
0.0
 11
367.6530773507611
 21
129.499999999998
 31
0.0
  0
LINE
  5
425
330
1F
100
AcDbEntity
  8
LAY-1
  6
EXLTYPE3
 62
     1
100
AcDbLine
 10
357.6530773507611
 20
128.999999999998
 30
0.0
 11
357.6530773507611
 21
129.499999999998
 31
0.0
  0
LINE
  5
426
330
1F
100
AcDbEntity
  8
LAY-1
  6
EXLTYPE3
 62
     1
100
AcDbLine
 10
359.8530773507611
 20
130.399999999998
 30
0.0
 11
359.8530773507611
 21
129.499999999998
 31
0.0
  0
LINE
  5
427
330
1F
100
AcDbEntity
  8
LAY-1
  6
EXLTYPE3
 62
     1
100
AcDbLine
 10
365.4530773507611
 20
130.399999999998
 30
0.0
 11
365.4530773507611
 21
129.499999999998
 31
0.0
  0
LINE
  5
428
330
1F
100
AcDbEntity
  8
LAY-1
  6
EXLTYPE3
 62
     1
100
AcDbLine
 10
360.7530773507611
 20
131.299999999998
 30
0.0
 11
364.5530773507611
 21
131.299999999998
 31
0.0
  0
ARC
  5
429
330
1F
100
AcDbEntity
  8
LAY-1
  6
CONTINUOUS
 62
     7
100
AcDbCircle
 10
377.9881932662661
 20
102.499999999998
 30
0.0
 40
6.000000000000004
100
AcDbArc
 50
270.0000000000002
 51
307.2391601169604
  0
ARC
  5
42A
330
1F
100
AcDbEntity
  8
LAY-1
  6
CONTINUOUS
 62
     7
100
AcDbCircle
 10
377.1601882019431
 20
102.499999999998
 30
0.0
 40
6.000000000000004
100
AcDbArc
 50
206.0823420316801
 51
270.0000000000002
  0
LINE
  5
42B
330
1F
100
AcDbEntity
  8
LAY-1
  6
CONTINUOUS
 62
     7
100
AcDbLine
 10
377.1601882019431
 20
96.49999999999802
 30
0.0
 11
377.9881932662661
 21
96.49999999999802
 31
0.0
  0
ARC
  5
42C
330
1F
100
AcDbEntity
  8
LAY-1
  6
CONTINUOUS
 62
     7
100
AcDbCircle
 10
409.1530773507611
 20
61.499999999998
 30
0.0
 40
45.5
100
AcDbArc
 50
120.3216855263999
 51
127.2391601169599
  0
LINE
  5
42D
330
1F
100
AcDbEntity
  8
LAY-1
  6
CONTINUOUS
 62
     7
100
AcDbLine
 10
368.1530773507611
 20
100.499999999998
 30
0.0
 11
371.7712094949972
 21
99.86202568320103
 31
0.0
  0
ARC
  5
42E
330
1F
100
AcDbEntity
  8
LAY-1
  6
CONTINUOUS
 62
     7
100
AcDbCircle
 10
383.1530773507611
 20
105.955033460788
 30
0.0
 40
6.000000000000004
100
AcDbArc
 50
300.3216855264
 51
0.0
  0
ARC
  5
42F
330
1F
100
AcDbEntity
  8
LAY-1
  6
CONTINUOUS
 62
     7
100
AcDbCircle
 10
387.6530773507611
 20
112.999999999998
 30
0.0
 40
1.5
100
AcDbArc
 50
0.0
 51
60.00000000012011
  0
ARC
  5
430
330
1F
100
AcDbEntity
  8
LAY-1
  6
CONTINUOUS
 62
     7
100
AcDbCircle
 10
389.1530773507611
 20
115.598076211351
 30
0.0
 40
1.5
100
AcDbArc
 50
180.0
 51
240.0000000001203
  0
LINE
  5
431
330
1F
100
AcDbEntity
  8
LAY-1
  6
CONTINUOUS
 62
     7
100
AcDbLine
 10
389.1530773507611
 20
105.955033460788
 30
0.0
 11
389.1530773507611
 21
112.999999999998
 31
0.0
  0
ARC
  5
432
330
1F
100
AcDbEntity
  8
LAY-1
  6
CONTINUOUS
 62
     7
100
AcDbCircle
 10
377.9881932662661
 20
60.499999999998
 30
0.0
 40
6.000000000000004
100
AcDbArc
 50
52.76083988303972
 51
90.00000000000001
  0
ARC
  5
433
330
1F
100
AcDbEntity
  8
LAY-1
  6
CONTINUOUS
 62
     7
100
AcDbCircle
 10
377.1601882019431
 20
60.499999999998
 30
0.0
 40
6.000000000000004
100
AcDbArc
 50
90.00000000000001
 51
153.9176579683201
  0
LINE
  5
434
330
1F
100
AcDbEntity
  8
LAY-1
  6
CONTINUOUS
 62
     7
100
AcDbLine
 10
377.9881932662661
 20
66.499999999998
 30
0.0
 11
377.1601882019431
 21
66.499999999998
 31
0.0
  0
LINE
  5
435
330
1F
100
AcDbEntity
  8
LAY-1
  6
CONTINUOUS
 62
     7
100
AcDbLine
 10
371.7712094949972
 20
63.137974316795
 30
0.0
 11
368.1530773507611
 21
62.499999999998
 31
0.0
  0
ARC
  5
436
330
1F
100
AcDbEntity
  8
LAY-1
  6
CONTINUOUS
 62
     7
100
AcDbCircle
 10
409.1530773507611
 20
101.499999999998
 30
0.0
 40
45.5
100
AcDbArc
 50
232.76083988304
 51
239.6783144736
  0
ARC
  5
437
330
1F
100
AcDbEntity
  8
LAY-1
  6
CONTINUOUS
 62
     7
100
AcDbCircle
 10
383.1530773507611
 20
57.044966539208
 30
0.0
 40
6.000000000000004
100
AcDbArc
 50
0.0
 51
59.67831447360037
  0
LINE
  5
438
330
1F
100
AcDbEntity
  8
LAY-1
  6
CONTINUOUS
 62
     7
100
AcDbLine
 10
389.1530773507611
 20
49.999999999998
 30
0.0
 11
389.1530773507611
 21
57.044966539208
 31
0.0
  0
ARC
  5
439
330
1F
100
AcDbEntity
  8
LAY-1
  6
CONTINUOUS
 62
     7
100
AcDbCircle
 10
387.6530773507611
 20
49.999999999998
 30
0.0
 40
1.5
100
AcDbArc
 50
299.99999999988
 51
0.0
  0
ARC
  5
43A
330
1F
100
AcDbEntity
  8
LAY-1
  6
CONTINUOUS
 62
     7
100
AcDbCircle
 10
389.1530773507611
 20
47.40192378864496
 30
0.0
 40
1.5
100
AcDbArc
 50
119.9999999998799
 51
180.0
  0
ARC
  5
43B
330
1F
100
AcDbEntity
  8
LAY-1
  6
CONTINUOUS
 62
     7
100
AcDbCircle
 10
388.6530773507611
 20
125.999999999998
 30
0.0
 40
1.0
100
AcDbArc
 50
90.00000000000001
 51
180.0
  0
LINE
  5
43C
330
1F
100
AcDbEntity
  8
LAY-1
  6
CONTINUOUS
 62
     7
100
AcDbLine
 10
387.2137671215502
 20
145.560689770782
 30
0.0
 11
387.2137671215542
 21
129.939310229194
 31
0.0
  0
LINE
  5
43D
330
1F
100
AcDbEntity
  8
LAY-1
  6
CONTINUOUS
 62
     7
100
AcDbLine
 10
387.65307735076
 20
126.0
 30
0.0
 11
387.65307735076
 21
115.52
 31
0.0
  0
LINE
  5
43E
330
1F
100
AcDbEntity
  8
LAY-1
  6
CONTINUOUS
 62
     7
100
AcDbLine
 10
450.1530773507611
 20
62.499999999998
 30
0.0
 11
446.5349452065251
 21
63.137974316795
 31
0.0
  0
ARC
  5
43F
330
1F
100
AcDbEntity
  8
LAY-1
  6
CONTINUOUS
 62
     7
100
AcDbCircle
 10
441.1459664995791
 20
60.499999999998
 30
0.0
 40
6.000000000000004
100
AcDbArc
 50
26.08234203167999
 51
90.00000000000001
  0
LINE
  5
440
330
1F
100
AcDbEntity
  8
LAY-1
  6
CONTINUOUS
 62
     7
100
AcDbLine
 10
446.5349452065251
 20
99.86202568320103
 30
0.0
 11
450.1530773507611
 21
100.499999999998
 31
0.0
  0
ARC
  5
441
330
1F
100
AcDbEntity
  8
LAY-1
  6
CONTINUOUS
 62
     7
100
AcDbCircle
 10
441.1459664995791
 20
102.499999999998
 30
0.0
 40
6.000000000000004
100
AcDbArc
 50
270.0000000000002
 51
333.9176579683202
  0
ARC
  5
442
330
1F
100
AcDbEntity
  8
LAY-1
  6
CONTINUOUS
 62
     7
100
AcDbCircle
 10
435.1530773507611
 20
105.955033460788
 30
0.0
 40
6.000000000000004
100
AcDbArc
 50
180.0
 51
239.6783144736004
  0
ARC
  5
443
330
1F
100
AcDbEntity
  8
LAY-1
  6
CONTINUOUS
 62
     7
100
AcDbCircle
 10
440.3179614352562
 20
102.499999999998
 30
0.0
 40
6.000000000000004
100
AcDbArc
 50
232.7608398830399
 51
270.0000000000002
  0
LINE
  5
444
330
1F
100
AcDbEntity
  8
LAY-1
  6
CONTINUOUS
 62
     7
100
AcDbLine
 10
440.3179614352562
 20
96.49999999999802
 30
0.0
 11
441.1459664995791
 21
96.49999999999802
 31
0.0
  0
ARC
  5
445
330
1F
100
AcDbEntity
  8
LAY-1
  6
CONTINUOUS
 62
     7
100
AcDbCircle
 10
409.1530773507611
 20
61.499999999998
 30
0.0
 40
45.5
100
AcDbArc
 50
52.76083988303989
 51
59.67831447359992
  0
ARC
  5
446
330
1F
100
AcDbEntity
  8
LAY-1
  6
CONTINUOUS
 62
     7
100
AcDbCircle
 10
409.1530773507611
 20
61.499999999998
 30
0.0
 40
40.0
100
AcDbArc
 50
59.65984751868
 51
59.67831447359992
  0
ARC
  5
447
330
1F
100
AcDbEntity
  8
LAY-1
  6
CONTINUOUS
 62
     7
100
AcDbCircle
 10
430.6530773507611
 20
112.999999999998
 30
0.0
 40
1.5
100
AcDbArc
 50
119.9999999998799
 51
180.0
  0
LINE
  5
448
330
1F
100
AcDbEntity
  8
LAY-1
  6
CONTINUOUS
 62
     7
100
AcDbLine
 10
429.1530773507611
 20
112.999999999998
 30
0.0
 11
429.1530773507611
 21
105.955033460788
 31
0.0
  0
ARC
  5
449
330
1F
100
AcDbEntity
  8
LAY-1
  6
CONTINUOUS
 62
     7
100
AcDbCircle
 10
429.1530773507611
 20
115.598076211351
 30
0.0
 40
1.5
100
AcDbArc
 50
299.99999999988
 51
0.0
  0
LINE
  5
44A
330
1F
100
AcDbEntity
  8
LAY-1
  6
CONTINUOUS
 62
     7
100
AcDbLine
 10
430.6530773507611
 20
125.999999999998
 30
0.0
 11
430.6530773507611
 21
115.598076211351
 31
0.0
  0
ARC
  5
44B
330
1F
100
AcDbEntity
  8
LAY-1
  6
CONTINUOUS
 62
     7
100
AcDbCircle
 10
429.6530773507611
 20
125.999999999998
 30
0.0
 40
1.0
100
AcDbArc
 50
0.0
 51
90.00000000000001
  0
ARC
  5
44C
330
1F
100
AcDbEntity
  8
LAY-1
  6
CONTINUOUS
 62
     7
100
AcDbCircle
 10
435.1530773507611
 20
57.044966539208
 30
0.0
 40
6.000000000000004
100
AcDbArc
 50
120.3216855263996
 51
180.0
  0
ARC
  5
44D
330
1F
100
AcDbEntity
  8
LAY-1
  6
CONTINUOUS
 62
     7
100
AcDbCircle
 10
440.3179614352562
 20
60.499999999998
 30
0.0
 40
6.000000000000004
100
AcDbArc
 50
90.00000000000001
 51
127.2391601169602
  0
LINE
  5
44E
330
1F
100
AcDbEntity
  8
LAY-1
  6
CONTINUOUS
 62
     7
100
AcDbLine
 10
441.1459664995791
 20
66.499999999998
 30
0.0
 11
440.3179614352562
 21
66.499999999998
 31
0.0
  0
ARC
  5
44F
330
1F
100
AcDbEntity
  8
LAY-1
  6
CONTINUOUS
 62
     7
100
AcDbCircle
 10
409.1530773507611
 20
101.499999999998
 30
0.0
 40
45.5
100
AcDbArc
 50
300.3216855264005
 51
307.2391601169604
  0
LINE
  5
450
330
1F
100
AcDbEntity
  8
LAY-1
  6
CONTINUOUS
 62
     7
100
AcDbLine
 10
429.1530773507611
 20
57.044966539208
 30
0.0
 11
429.1530773507611
 21
49.999999999998
 31
0.0
  0
LINE
  5
451
330
1F
100
AcDbEntity
  8
LAY-1
  6
CONTINUOUS
 62
     7
100
AcDbLine
 10
430.6530773507611
 20
36.999999999998
 30
0.0
 11
429.6530773507611
 21
35.999999999998
 31
0.0
  0
ARC
  5
452
330
1F
100
AcDbEntity
  8
LAY-1
  6
CONTINUOUS
 62
     7
100
AcDbCircle
 10
430.6530773507611
 20
49.999999999998
 30
0.0
 40
1.5
100
AcDbArc
 50
180.0
 51
240.0000000001203
  0
LINE
  5
453
330
1F
100
AcDbEntity
  8
LAY-1
  6
CONTINUOUS
 62
     7
100
AcDbLine
 10
430.6530773507611
 20
47.40192378864496
 30
0.0
 11
430.6530773507611
 21
36.999999999998
 31
0.0
  0
ARC
  5
454
330
1F
100
AcDbEntity
  8
LAY-1
  6
CONTINUOUS
 62
     7
100
AcDbCircle
 10
429.1530773507611
 20
47.40192378864496
 30
0.0
 40
1.5
100
AcDbArc
 50
0.0
 51
60.00000000012011
  0
LINE
  5
455
330
1F
100
AcDbEntity
  8
LAY-1
  6
CONTINUOUS
 62
     7
100
AcDbLine
 10
429.65307735076
 20
126.999999999984
 30
0.0
 11
388.6530773507611
 21
126.999999999998
 31
0.0
  0
LINE
  5
456
330
1F
100
AcDbEntity
  8
LAY-1
  6
CONTINUOUS
 62
     7
100
AcDbLine
 10
366.6530773507641
 20
352.1000000000021
 30
0.0
 11
355.1530773507641
 21
352.1000000000021
 31
0.0
  0
ARC
  5
457
330
1F
100
AcDbEntity
  8
LAY-1
  6
CONTINUOUS
 62
     7
100
AcDbCircle
 10
366.6530773507641
 20
350.6000000000021
 30
0.0
 40
1.5
100
AcDbArc
 50
0.0000000000001719
 51
90.00000000000009
  0
ARC
  5
458
330
1F
100
AcDbEntity
  8
LAY-1
  6
CONTINUOUS
 62
     7
100
AcDbCircle
 10
451.6530773507631
 20
350.6000000000021
 30
0.0
 40
1.5
100
AcDbArc
 50
90.00000000000009
 51
180.0
  0
LINE
  5
459
330
1F
100
AcDbEntity
  8
LAY-1
  6
CONTINUOUS
 62
     7
100
AcDbLine
 10
451.6530773507631
 20
352.1000000000021
 30
0.0
 11
463.1530773507631
 21
352.1000000000021
 31
0.0
  0
LINE
  5
45A
330
1F
100
AcDbEntity
  8
LAY-1
  6
CONTINUOUS
 62
     7
100
AcDbLine
 10
463.1530773507631
 20
352.1000000000021
 30
0.0
 11
463.1530773507631
 21
304.6000000000021
 31
0.0
  0
LINE
  5
45B
330
1F
100
AcDbEntity
  8
LAY-1
  6
CONTINUOUS
 62
     7
100
AcDbLine
 10
450.1530773507641
 20
304.6000000000021
 30
0.0
 11
450.1530773507631
 21
350.600000000002
 31
0.0
  0
LINE
  5
45C
330
1F
100
AcDbEntity
  8
LAY-1
  6
CONTINUOUS
 62
     7
100
AcDbLine
 10
368.1530773507641
 20
304.6000000000021
 30
0.0
 11
368.1530773507641
 21
350.6000000000021
 31
0.0
  0
LINE
  5
45D
330
1F
100
AcDbEntity
  8
LAY-1
  6
CONTINUOUS
 62
     7
100
AcDbLine
 10
355.1530773507641
 20
352.1000000000021
 30
0.0
 11
355.1530773507641
 21
304.6000000000021
 31
0.0
  0
LINE
  5
45E
330
1F
100
AcDbEntity
  8
LAY-1
  6
CONTINUOUS
 62
     7
100
AcDbLine
 10
366.6530773507641
 20
257.1000000000021
 30
0.0
 11
355.1530773507641
 21
257.1000000000021
 31
0.0
  0
ARC
  5
45F
330
1F
100
AcDbEntity
  8
LAY-1
  6
CONTINUOUS
 62
     7
100
AcDbCircle
 10
366.6530773507641
 20
258.6000000000021
 30
0.0
 40
1.5
100
AcDbArc
 50
270.0
 51
0.0
  0
ARC
  5
460
330
1F
100
AcDbEntity
  8
LAY-1
  6
CONTINUOUS
 62
     7
100
AcDbCircle
 10
451.6530773507631
 20
258.6000000000021
 30
0.0
 40
1.5
100
AcDbArc
 50
180.0
 51
270.0
  0
LINE
  5
461
330
1F
100
AcDbEntity
  8
LAY-1
  6
CONTINUOUS
 62
     7
100
AcDbLine
 10
451.6530773507631
 20
257.1000000000021
 30
0.0
 11
463.1530773507631
 21
257.1000000000021
 31
0.0
  0
LINE
  5
462
330
1F
100
AcDbEntity
  8
LAY-1
  6
CONTINUOUS
 62
     7
100
AcDbLine
 10
463.1530773507631
 20
304.6000000000021
 30
0.0
 11
463.1530773507631
 21
257.1000000000021
 31
0.0
  0
LINE
  5
463
330
1F
100
AcDbEntity
  8
LAY-1
  6
CONTINUOUS
 62
     7
100
AcDbLine
 10
450.1530773507631
 20
258.6000000000021
 30
0.0
 11
450.1530773507631
 21
304.6000000000021
 31
0.0
  0
LINE
  5
464
330
1F
100
AcDbEntity
  8
LAY-1
  6
CONTINUOUS
 62
     7
100
AcDbLine
 10
355.1530773507641
 20
304.6000000000021
 30
0.0
 11
355.1530773507641
 21
257.1000000000021
 31
0.0
  0
LINE
  5
465
330
1F
100
AcDbEntity
  8
LAY-1
  6
CONTINUOUS
 62
     7
100
AcDbLine
 10
368.1530773507641
 20
258.6000000000021
 30
0.0
 11
368.1530773507641
 21
304.6000000000021
 31
0.0
  0
LINE
  5
466
330
1F
100
AcDbEntity
  8
LAY-1
  6
EXLTYPE2
 62
     1
100
AcDbLine
 10
447.1728752812141
 20
492.7000000000021
 30
0.0
 11
471.9809738727632
 21
492.7000000000021
 31
0.0
  0
LINE
  5
467
330
1F
100
AcDbEntity
  8
LAY-1
  6
EXLTYPE2
 62
     1
100
AcDbLine
 10
447.1728752812141
 20
562.7000000000021
 30
0.0
 11
471.9809738727632
 21
562.7000000000021
 31
0.0
  0
ARC
  5
468
330
1F
100
AcDbEntity
  8
LAY-1
  6
CONTINUOUS
 62
     7
100
AcDbCircle
 10
354.1530773507641
 20
554.2000000000021
 30
0.0
 40
1.0
100
AcDbArc
 50
270.0000000000002
 51
0.0000000000001719
  0
ARC
  5
469
330
1F
100
AcDbEntity
  8
LAY-1
  6
CONTINUOUS
 62
     7
100
AcDbCircle
 10
354.1530773507641
 20
501.2000000000021
 30
0.0
 40
1.0
100
AcDbArc
 50
0.0000000000001719
 51
90.00000000000009
  0
LINE
  5
46A
330
1F
100
AcDbEntity
  8
LAY-1
  6
CONTINUOUS
 62
     7
100
AcDbLine
 10
354.1530773507641
 20
553.2000000000021
 30
0.0
 11
354.1530773507641
 21
502.2000000000021
 31
0.0
  0
LINE
  5
46B
330
1F
100
AcDbEntity
  8
LAY-1
  6
CONTINUOUS
 62
     7
100
AcDbLine
 10
366.6530773507641
 20
575.2000000000021
 30
0.0
 11
355.1530773507641
 21
575.2000000000021
 31
0.0
  0
ARC
  5
46C
330
1F
100
AcDbEntity
  8
LAY-1
  6
CONTINUOUS
 62
     7
100
AcDbCircle
 10
366.6530773507641
 20
573.7000000000021
 30
0.0
 40
1.5
100
AcDbArc
 50
0.0000000000001719
 51
90.00000000000009
  0
LINE
  5
46D
330
1F
100
AcDbEntity
  8
LAY-1
  6
CONTINUOUS
 62
     7
100
AcDbLine
 10
368.1530773507641
 20
527.7000000000021
 30
0.0
 11
368.1530773507641
 21
573.7000000000021
 31
0.0
  0
LINE
  5
46E
330
1F
100
AcDbEntity
  8
LAY-1
  6
CONTINUOUS
 62
     7
100
AcDbLine
 10
355.1530773507641
 20
575.2000000000021
 30
0.0
 11
355.1530773507641
 21
527.7000000000021
 31
0.0
  0
LINE
  5
46F
330
1F
100
AcDbEntity
  8
LAY-1
  6
CONTINUOUS
 62
     7
100
AcDbLine
 10
366.6530773507641
 20
480.2000000000021
 30
0.0
 11
355.1530773507641
 21
480.2000000000021
 31
0.0
  0
ARC
  5
470
330
1F
100
AcDbEntity
  8
LAY-1
  6
CONTINUOUS
 62
     7
100
AcDbCircle
 10
366.6530773507641
 20
481.7000000000021
 30
0.0
 40
1.5
100
AcDbArc
 50
270.0
 51
0.0
  0
LINE
  5
471
330
1F
100
AcDbEntity
  8
LAY-1
  6
CONTINUOUS
 62
     7
100
AcDbLine
 10
355.1530773507641
 20
527.7000000000021
 30
0.0
 11
355.1530773507641
 21
480.2000000000021
 31
0.0
  0
LINE
  5
472
330
1F
100
AcDbEntity
  8
LAY-1
  6
CONTINUOUS
 62
     7
100
AcDbLine
 10
368.1530773507641
 20
481.7000000000021
 30
0.0
 11
368.1530773507641
 21
527.7000000000021
 31
0.0
  0
ARC
  5
473
330
1F
100
AcDbEntity
  8
LAY-1
  6
CONTINUOUS
 62
     7
100
AcDbCircle
 10
464.1530773507631
 20
554.2000000000021
 30
0.0
 40
1.0
100
AcDbArc
 50
180.0
 51
270.0000000000002
  0
ARC
  5
474
330
1F
100
AcDbEntity
  8
LAY-1
  6
CONTINUOUS
 62
     7
100
AcDbCircle
 10
464.1530773507631
 20
501.2000000000021
 30
0.0
 40
1.0
100
AcDbArc
 50
90.00000000000009
 51
180.0
  0
LINE
  5
475
330
1F
100
AcDbEntity
  8
LAY-1
  6
CONTINUOUS
 62
     7
100
AcDbLine
 10
464.1530773507631
 20
553.2000000000021
 30
0.0
 11
464.1530773507631
 21
502.2000000000021
 31
0.0
  0
ARC
  5
476
330
1F
100
AcDbEntity
  8
LAY-1
  6
CONTINUOUS
 62
     7
100
AcDbCircle
 10
451.6530773507631
 20
573.7000000000021
 30
0.0
 40
1.5
100
AcDbArc
 50
90.00000000000009
 51
180.0
  0
LINE
  5
477
330
1F
100
AcDbEntity
  8
LAY-1
  6
CONTINUOUS
 62
     7
100
AcDbLine
 10
451.6530773507631
 20
575.2000000000021
 30
0.0
 11
463.1530773507631
 21
575.2000000000021
 31
0.0
  0
LINE
  5
478
330
1F
100
AcDbEntity
  8
LAY-1
  6
CONTINUOUS
 62
     7
100
AcDbLine
 10
463.1530773507631
 20
575.2000000000021
 30
0.0
 11
463.1530773507631
 21
527.7000000000021
 31
0.0
  0
LINE
  5
479
330
1F
100
AcDbEntity
  8
LAY-1
  6
CONTINUOUS
 62
     7
100
AcDbLine
 10
450.1530773507641
 20
527.7000000000021
 30
0.0
 11
450.1530773507632
 21
573.7000000000021
 31
0.0
  0
ARC
  5
47A
330
1F
100
AcDbEntity
  8
LAY-1
  6
CONTINUOUS
 62
     7
100
AcDbCircle
 10
451.6530773507631
 20
481.7000000000021
 30
0.0
 40
1.5
100
AcDbArc
 50
180.0
 51
270.0
  0
LINE
  5
47B
330
1F
100
AcDbEntity
  8
LAY-1
  6
CONTINUOUS
 62
     7
100
AcDbLine
 10
451.6530773507631
 20
480.2000000000021
 30
0.0
 11
463.1530773507631
 21
480.2000000000021
 31
0.0
  0
LINE
  5
47C
330
1F
100
AcDbEntity
  8
LAY-1
  6
CONTINUOUS
 62
     7
100
AcDbLine
 10
463.1530773507631
 20
527.7000000000021
 30
0.0
 11
463.1530773507631
 21
480.2000000000021
 31
0.0
  0
LINE
  5
47D
330
1F
100
AcDbEntity
  8
LAY-1
  6
CONTINUOUS
 62
     7
100
AcDbLine
 10
450.1530773507631
 20
481.7000000000021
 30
0.0
 11
450.1530773507631
 21
527.7000000000021
 31
0.0
  0
LINE
  5
47E
330
1F
100
AcDbEntity
  8
LAY-1
  6
EXLTYPE2
 62
     1
100
AcDbLine
 10
372.6965991093062
 20
562.7000000000021
 30
0.0
 11
347.8885005177572
 21
562.7000000000021
 31
0.0
  0
LINE
  5
47F
330
1F
100
AcDbEntity
  8
LAY-1
  6
EXLTYPE2
 62
     1
100
AcDbLine
 10
372.6965991093061
 20
492.7000000000021
 30
0.0
 11
347.8885005177571
 21
492.7000000000021
 31
0.0
  0
ARC
  5
480
330
1F
100
AcDbEntity
  8
LAY-1
  6
CONTINUOUS
 62
     7
100
AcDbCircle
 10
354.1530773507641
 20
108.00000000001
 30
0.0
 40
1.0
100
AcDbArc
 50
270.0000000000002
 51
0.0000000000001719
  0
ARC
  5
481
330
1F
100
AcDbEntity
  8
LAY-1
  6
CONTINUOUS
 62
     7
100
AcDbCircle
 10
354.1530773507641
 20
55.00000000001005
 30
0.0
 40
1.0
100
AcDbArc
 50
0.0000000000001719
 51
90.00000000000009
  0
LINE
  5
482
330
1F
100
AcDbEntity
  8
LAY-1
  6
CONTINUOUS
 62
     7
100
AcDbLine
 10
354.1530773507641
 20
107.00000000001
 30
0.0
 11
354.1530773507641
 21
56.00000000001005
 31
0.0
  0
LINE
  5
483
330
1F
100
AcDbEntity
  8
LAY-1
  6
CONTINUOUS
 62
     7
100
AcDbLine
 10
366.6530773507641
 20
129.0000000000101
 30
0.0
 11
355.1530773507641
 21
129.0000000000101
 31
0.0
  0
ARC
  5
484
330
1F
100
AcDbEntity
  8
LAY-1
  6
CONTINUOUS
 62
     7
100
AcDbCircle
 10
366.6530773507641
 20
127.50000000001
 30
0.0
 40
1.5
100
AcDbArc
 50
0.0000000000001719
 51
90.00000000000009
  0
LINE
  5
485
330
1F
100
AcDbEntity
  8
LAY-1
  6
CONTINUOUS
 62
     7
100
AcDbLine
 10
368.1530773507641
 20
81.50000000001005
 30
0.0
 11
368.1530773507641
 21
127.50000000001
 31
0.0
  0
LINE
  5
486
330
1F
100
AcDbEntity
  8
LAY-1
  6
CONTINUOUS
 62
     7
100
AcDbLine
 10
355.1530773507641
 20
129.0000000000101
 30
0.0
 11
355.1530773507641
 21
81.50000000001005
 31
0.0
  0
LINE
  5
487
330
1F
100
AcDbEntity
  8
LAY-1
  6
CONTINUOUS
 62
     7
100
AcDbLine
 10
366.6530773507641
 20
34.00000000001005
 30
0.0
 11
355.1530773507641
 21
34.00000000001005
 31
0.0
  0
ARC
  5
488
330
1F
100
AcDbEntity
  8
LAY-1
  6
CONTINUOUS
 62
     7
100
AcDbCircle
 10
366.6530773507641
 20
35.50000000001005
 30
0.0
 40
1.5
100
AcDbArc
 50
270.0
 51
0.0
  0
LINE
  5
489
330
1F
100
AcDbEntity
  8
LAY-1
  6
CONTINUOUS
 62
     7
100
AcDbLine
 10
355.1530773507641
 20
81.50000000001005
 30
0.0
 11
355.1530773507641
 21
34.00000000001005
 31
0.0
  0
LINE
  5
48A
330
1F
100
AcDbEntity
  8
LAY-1
  6
CONTINUOUS
 62
     7
100
AcDbLine
 10
368.1530773507641
 20
35.50000000001005
 30
0.0
 11
368.1530773507641
 21
81.50000000001005
 31
0.0
  0
ARC
  5
48B
330
1F
100
AcDbEntity
  8
LAY-1
  6
CONTINUOUS
 62
     7
100
AcDbCircle
 10
464.1530773507631
 20
108.00000000001
 30
0.0
 40
1.0
100
AcDbArc
 50
180.0
 51
270.0000000000002
  0
ARC
  5
48C
330
1F
100
AcDbEntity
  8
LAY-1
  6
CONTINUOUS
 62
     7
100
AcDbCircle
 10
464.1530773507631
 20
55.00000000001005
 30
0.0
 40
1.0
100
AcDbArc
 50
90.00000000000009
 51
180.0
  0
LINE
  5
48D
330
1F
100
AcDbEntity
  8
LAY-1
  6
CONTINUOUS
 62
     7
100
AcDbLine
 10
464.1530773507631
 20
107.00000000001
 30
0.0
 11
464.1530773507631
 21
56.00000000001005
 31
0.0
  0
ARC
  5
48E
330
1F
100
AcDbEntity
  8
LAY-1
  6
CONTINUOUS
 62
     7
100
AcDbCircle
 10
451.6530773507631
 20
127.50000000001
 30
0.0
 40
1.5
100
AcDbArc
 50
90.00000000000009
 51
180.0
  0
LINE
  5
48F
330
1F
100
AcDbEntity
  8
LAY-1
  6
CONTINUOUS
 62
     7
100
AcDbLine
 10
451.6530773507631
 20
129.0000000000101
 30
0.0
 11
463.1530773507631
 21
129.0000000000101
 31
0.0
  0
LINE
  5
490
330
1F
100
AcDbEntity
  8
LAY-1
  6
CONTINUOUS
 62
     7
100
AcDbLine
 10
463.1530773507631
 20
129.0000000000101
 30
0.0
 11
463.1530773507631
 21
81.50000000001005
 31
0.0
  0
LINE
  5
491
330
1F
100
AcDbEntity
  8
LAY-1
  6
CONTINUOUS
 62
     7
100
AcDbLine
 10
450.1530773507641
 20
81.50000000001005
 30
0.0
 11
450.1530773507631
 21
127.50000000001
 31
0.0
  0
ARC
  5
492
330
1F
100
AcDbEntity
  8
LAY-1
  6
CONTINUOUS
 62
     7
100
AcDbCircle
 10
451.6530773507631
 20
35.50000000001005
 30
0.0
 40
1.5
100
AcDbArc
 50
180.0
 51
270.0
  0
LINE
  5
493
330
1F
100
AcDbEntity
  8
LAY-1
  6
CONTINUOUS
 62
     7
100
AcDbLine
 10
451.6530773507631
 20
34.00000000001005
 30
0.0
 11
463.1530773507631
 21
34.00000000001005
 31
0.0
  0
LINE
  5
494
330
1F
100
AcDbEntity
  8
LAY-1
  6
CONTINUOUS
 62
     7
100
AcDbLine
 10
463.1530773507631
 20
81.50000000001005
 30
0.0
 11
463.1530773507631
 21
34.00000000001005
 31
0.0
  0
LINE
  5
495
330
1F
100
AcDbEntity
  8
LAY-1
  6
CONTINUOUS
 62
     7
100
AcDbLine
 10
450.1530773507631
 20
35.50000000001005
 30
0.0
 11
450.1530773507631
 21
81.50000000001005
 31
0.0
  0
LINE
  5
496
330
1F
100
AcDbEntity
  8
LAY-1
  6
EXLTYPE2
 62
     1
100
AcDbLine
 10
447.1728752812141
 20
46.50000000001005
 30
0.0
 11
471.9809738727631
 21
46.50000000001005
 31
0.0
  0
LINE
  5
497
330
1F
100
AcDbEntity
  8
LAY-1
  6
EXLTYPE2
 62
     1
100
AcDbLine
 10
447.1728752812141
 20
116.50000000001
 30
0.0
 11
471.9809738727631
 21
116.50000000001
 31
0.0
  0
LINE
  5
498
330
1F
100
AcDbEntity
  8
LAY-1
  6
EXLTYPE2
 62
     1
100
AcDbLine
 10
372.6965991093061
 20
116.50000000001
 30
0.0
 11
347.8885005177571
 21
116.50000000001
 31
0.0
  0
LINE
  5
499
330
1F
100
AcDbEntity
  8
LAY-1
  6
EXLTYPE2
 62
     1
100
AcDbLine
 10
372.6965991093061
 20
46.50000000001005
 30
0.0
 11
347.8885005177571
 21
46.50000000001005
 31
0.0
  0
LINE
  5
49A
330
1F
100
AcDbEntity
  8
LAY-3
  6
CONTINUOUS
 62
     1
100
AcDbLine
 10
464.15307735076
 20
-29.00000000000012
 30
0.0
 11
354.15307735076
 21
-28.99999999999995
 31
0.0
  0
LINE
  5
49B
330
1F
100
AcDbEntity
  8
LAY-3
  6
CONTINUOUS
 62
     1
100
AcDbLine
 10
462.15307735076
 20
-29.33333333333345
 30
0.0
 11
464.15307735076
 21
-29.00000000000012
 31
0.0
  0
LINE
  5
49C
330
1F
100
AcDbEntity
  8
LAY-3
  6
CONTINUOUS
 62
     1
100
AcDbLine
 10
464.15307735076
 20
-29.00000000000012
 30
0.0
 11
462.15307735076
 21
-28.66666666666679
 31
0.0
  0
LINE
  5
49D
330
1F
100
AcDbEntity
  8
LAY-3
  6
CONTINUOUS
 62
     1
100
AcDbLine
 10
356.15307735076
 20
-28.66666666666662
 30
0.0
 11
354.15307735076
 21
-28.99999999999995
 31
0.0
  0
LINE
  5
49E
330
1F
100
AcDbEntity
  8
LAY-3
  6
CONTINUOUS
 62
     1
100
AcDbLine
 10
354.15307735076
 20
-28.99999999999995
 30
0.0
 11
356.15307735076
 21
-29.33333333333329
 31
0.0
  0
TEXT
  5
49F
330
1F
100
AcDbEntity
  8
LAY-3
  6
CONTINUOUS
 62
     3
100
AcDbText
 10
394.15307735076
 20
-26.66141699999998
 30
0.0
 40
7.795275999999999
  1
１１０
 41
1.500154407240849
  7
EXCADSTD
 72
     5
 11
422.55307735076
 21
-26.66141699999998
 31
0.0
100
AcDbText
  0
LINE
  5
4A0
330
1F
100
AcDbEntity
  8
LAY-3
  6
CONTINUOUS
 62
     1
100
AcDbLine
 10
464.15307735076
 20
56.00000000000801
 30
0.0
 11
464.15307735076
 21
-29.50000000000001
 31
0.0
  0
LINE
  5
4A1
330
1F
100
AcDbEntity
  8
LAY-3
  6
CONTINUOUS
 62
     1
100
AcDbLine
 10
354.15307735076
 20
56.00000000000804
 30
0.0
 11
354.15307735076
 21
-29.49999999999995
 31
0.0
  0
ENDSEC
  0
SECTION
  2
OBJECTS
  0
DICTIONARY
  5
C
330
0
100
AcDbDictionary
  3
ACAD_GROUP
350
D
  3
ACAD_LAYOUT
350
1A
  3
ACAD_MATERIAL
350
43
  3
ACAD_MLEADERSTYLE
350
6B
  3
ACAD_MLINESTYLE
350
17
  3
ACAD_PLOTSETTINGS
350
19
  3
ACAD_SCALELIST
350
47
  3
ACAD_VISUALSTYLE
350
2A
  3
ACDBHEADERROUNDTRIPXREC
350
4A2
  3
ACDBVARIABLEDICTIONARY
350
4C3
  0
DICTIONARY
  5
4CE
330
8
100
AcDbDictionary
280
     1
  3
ACAD_XREC_ROUNDTRIP
360
4CF
  0
DICTIONARY
  5
D
102
{ACAD_REACTORS
330
C
102
}
330
C
100
AcDbDictionary
  0
DICTIONARY
  5
1A
102
{ACAD_REACTORS
330
C
102
}
330
C
100
AcDbDictionary
  0
DICTIONARY
  5
43
102
{ACAD_REACTORS
330
C
102
}
330
C
100
AcDbDictionary
  3
BYBLOCK
350
45
  3
BYLAYER
350
44
  3
GLOBAL
350
46
  0
DICTIONARY
  5
6B
102
{ACAD_REACTORS
330
C
102
}
330
C
100
AcDbDictionary
  3
STANDARD
350
6C
  0
DICTIONARY
  5
17
102
{ACAD_REACTORS
330
C
102
}
330
C
100
AcDbDictionary
  3
STANDARD
350
18
  0
DICTIONARY
  5
19
102
{ACAD_REACTORS
330
C
102
}
330
C
100
AcDbDictionary
  0
DICTIONARY
  5
47
102
{ACAD_REACTORS
330
C
102
}
330
C
100
AcDbDictionary
  3
A0
350
48
  3
A1
350
49
  3
A2
350
4A
  3
A3
350
4B
  3
A4
350
4C
  3
A5
350
4D
  3
A6
350
4E
  3
A7
350
4F
  3
A8
350
50
  3
A9
350
51
  3
B0
350
52
  3
B1
350
53
  3
B2
350
54
  3
B3
350
55
  3
B4
350
56
  3
B5
350
57
  3
B6
350
58
  3
B7
350
59
  3
B8
350
5A
  3
B9
350
5B
  3
C0
350
5C
  3
C1
350
5D
  3
C2
350
5E
  3
C3
350
5F
  3
C4
350
60
  3
C5
350
61
  3
C6
350
62
  3
C7
350
63
  3
C8
350
64
  3
C9
350
65
  3
D0
350
66
  3
D1
350
67
  3
D2
350
68
  0
DICTIONARY
  5
2A
102
{ACAD_REACTORS
330
C
102
}
330
C
100
AcDbDictionary
  3
2DWIREFRAME
350
2F
  3
BASIC
350
32
  3
BRIGHTEN
350
36
  3
COLORCHANGE
350
3A
  3
CONCEPTUAL
350
34
  3
DIM
350
35
  3
EDGECOLOROFF
350
3D
  3
FACEPATTERN
350
39
  3
FLAT
350
2B
  3
FLATWITHEDGES
350
2C
  3
GOURAUD
350
2D
  3
GOURAUDWITHEDGES
350
2E
  3
HIDDEN
350
31
  3
JITTEROFF
350
3B
  3
LINEPATTERN
350
38
  3
OVERHANGOFF
350
3C
  3
REALISTIC
350
33
  3
SHADED
350
42
  3
SHADED_WITH_EDGES
350
41
  3
SHADES_OF_GRAY
350
3E
  3
SKETCHY
350
3F
  3
THICKEN
350
37
  3
WIREFRAME
350
30
  3
X-RAY
350
40
  0
DICTIONARY
  5
4A2
102
{ACAD_REACTORS
330
C
102
}
330
C
100
AcDbDictionary
  3
CEPSNID
350
4AC
  3
CEPSNTYPE
350
4AB
  3
DIMSTYLEDATA
350
4C2
  3
FINGERPRINTGUID
350
4AD
  3
HYPERLINKBASE
350
4A5
  3
INSUNITS
350
4AA
  3
LAYOUTDICT
350
4A7
  3
LWETCUNION
350
4A9
  3
PLOTSETDICT
350
4A8
  3
PSVPSCALE
350
4AF
  3
PUCSBASE
350
4B2
  3
PUCSORGBACK
350
4B8
  3
PUCSORGBOTTOM
350
4B4
  3
PUCSORGFRONT
350
4B7
  3
PUCSORGLEFT
350
4B5
  3
PUCSORGRIGHT
350
4B6
  3
PUCSORGTOP
350
4B3
  3
PUCSORTHOREF
350
4B0
  3
PUCSORTHOVIEW
350
4B1
  3
STYLESHEET
350
4A6
  3
TSTACKALIGN
350
4A3
  3
TSTACKSIZE
350
4A4
  3
UCSBASE
350
4BB
  3
UCSORGBACK
350
4C1
  3
UCSORGBOTTOM
350
4BD
  3
UCSORGFRONT
350
4C0
  3
UCSORGLEFT
350
4BE
  3
UCSORGRIGHT
350
4BF
  3
UCSORGTOP
350
4BC
  3
UCSORTHOREF
350
4B9
  3
UCSORTHOVIEW
350
4BA
  3
VERSIONGUID
350
4AE
  0
DICTIONARY
  5
4C3
102
{ACAD_REACTORS
330
C
102
}
330
C
100
AcDbDictionary
  3
CANNOSCALE
350
4D0
  3
CENTEREXE
350
4CA
  3
CENTERLTYPEFILE
350
4CB
  3
CMLEADERSTYLE
350
4C5
  3
CTABLESTYLE
350
4C4
  3
DIMASSOC
350
4CC
  3
HIDETEXT
350
4CD
  3
MSLTSCALE
350
4D1
  3
PSOLHEIGHT
350
4C7
  3
PSOLWIDTH
350
4C6
  0
XRECORD
  5
4CF
102
{ACAD_REACTORS
330
4CE
102
}
330
4CE
100
AcDbXrecord
102
VTR_0.000_0.000_1.000_1.000_VISUALSTYLE
340
2F
102
VTR_0.000_0.000_1.000_1.000_GRIDDISPLAY
 70
     3
102
VTR_0.000_0.000_1.000_1.000_GRIDMAJOR
 70
     5
102
VTR_0.000_0.000_1.000_1.000_DEFAULTLIGHTING
280
     1
102
VTR_0.000_0.000_1.000_1.000_DEFAULTLIGHTINGTYPE
 70
     1
102
VTR_0.000_0.000_1.000_1.000_BRIGHTNESS
141
0.0
102
VTR_0.000_0.000_1.000_1.000_CONTRAST
142
0.0
  0
MATERIAL
  5
45
102
{ACAD_REACTORS
330
43
102
}
102
{ACAD_XDICTIONARY
360
4D4
102
}
330
43
100
AcDbMaterial
  1
BYBLOCK
  0
MATERIAL
  5
44
102
{ACAD_REACTORS
330
43
102
}
102
{ACAD_XDICTIONARY
360
4D2
102
}
330
43
100
AcDbMaterial
  1
BYLAYER
  0
MATERIAL
  5
46
102
{ACAD_REACTORS
330
43
102
}
102
{ACAD_XDICTIONARY
360
4D6
102
}
330
43
100
AcDbMaterial
  1
GLOBAL
  0
ACAD_PROXY_OBJECT
  5
6C
102
{ACAD_REACTORS
330
6B
102
}
330
6B
100
AcDbProxyObject
 90
      499
 91
      505
 93
      610
310
40901902A4063FBFFFFFE0000000000000020400000000000020404214DD185B99185C990000000000000104090141901A00000000000004100000000000000041025764000000000000039000
340
14
340
0
340
11
340
0
 94
        0
1001
ACAD_MLEADERVER
1070
     2
  0
MLINESTYLE
  5
18
102
{ACAD_REACTORS
330
17
102
}
330
17
100
AcDbMlineStyle
  2
Standard
 70
     0
  3

 62
   256
 51
90.0
 52
90.0
 71
     2
 49
0.5
 62
   256
  6
BYLAYER
 49
-0.5
 62
   256
  6
BYLAYER
  0
ACAD_PROXY_OBJECT
  5
48
102
{ACAD_REACTORS
330
47
102
}
330
47
100
AcDbProxyObject
 90
      499
 91
      503
 93
       41
310
903313A31580
  0
ACAD_PROXY_OBJECT
  5
49
102
{ACAD_REACTORS
330
47
102
}
330
47
100
AcDbProxyObject
 90
      499
 91
      503
 93
      105
310
903313A324000000000000004000
  0
ACAD_PROXY_OBJECT
  5
4A
102
{ACAD_REACTORS
330
47
102
}
330
47
100
AcDbProxyObject
 90
      499
 91
      503
 93
      105
310
903313A344000000000000104000
  0
ACAD_PROXY_OBJECT
  5
4B
102
{ACAD_REACTORS
330
47
102
}
330
47
100
AcDbProxyObject
 90
      499
 91
      503
 93
      105
310
903313A354000000000000144000
  0
ACAD_PROXY_OBJECT
  5
4C
102
{ACAD_REACTORS
330
47
102
}
330
47
100
AcDbProxyObject
 90
      499
 91
      503
 93
      105
310
903313A384000000000000204000
  0
ACAD_PROXY_OBJECT
  5
4D
102
{ACAD_REACTORS
330
47
102
}
330
47
100
AcDbProxyObject
 90
      499
 91
      503
 93
      113
310
904313A31304000000000000244000
  0
ACAD_PROXY_OBJECT
  5
4E
102
{ACAD_REACTORS
330
47
102
}
330
47
100
AcDbProxyObject
 90
      499
 91
      503
 93
      113
310
904313A31364000000000000304000
  0
ACAD_PROXY_OBJECT
  5
4F
102
{ACAD_REACTORS
330
47
102
}
330
47
100
AcDbProxyObject
 90
      499
 91
      503
 93
      113
310
904313A32304000000000000344000
  0
ACAD_PROXY_OBJECT
  5
50
102
{ACAD_REACTORS
330
47
102
}
330
47
100
AcDbProxyObject
 90
      499
 91
      503
 93
      113
310
904313A333040000000000003E4000
  0
ACAD_PROXY_OBJECT
  5
51
102
{ACAD_REACTORS
330
47
102
}
330
47
100
AcDbProxyObject
 90
      499
 91
      503
 93
      113
310
904313A34304000000000000444000
  0
ACAD_PROXY_OBJECT
  5
52
102
{ACAD_REACTORS
330
47
102
}
330
47
100
AcDbProxyObject
 90
      499
 91
      503
 93
      113
310
904313A35304000000000000494000
  0
ACAD_PROXY_OBJECT
  5
53
102
{ACAD_REACTORS
330
47
102
}
330
47
100
AcDbProxyObject
 90
      499
 91
      503
 93
      121
310
905313A3130304000000000000594000
  0
ACAD_PROXY_OBJECT
  5
54
102
{ACAD_REACTORS
330
47
102
}
330
47
100
AcDbProxyObject
 90
      499
 91
      503
 93
      105
310
903323A310000000000000010100
  0
ACAD_PROXY_OBJECT
  5
55
102
{ACAD_REACTORS
330
47
102
}
330
47
100
AcDbProxyObject
 90
      499
 91
      503
 93
      105
310
903343A310000000000000410100
  0
ACAD_PROXY_OBJECT
  5
56
102
{ACAD_REACTORS
330
47
102
}
330
47
100
AcDbProxyObject
 90
      499
 91
      503
 93
      105
310
903383A310000000000000810100
  0
ACAD_PROXY_OBJECT
  5
57
102
{ACAD_REACTORS
330
47
102
}
330
47
100
AcDbProxyObject
 90
      499
 91
      503
 93
      113
310
90431303A310000000000000910100
  0
ACAD_PROXY_OBJECT
  5
58
102
{ACAD_REACTORS
330
47
102
}
330
47
100
AcDbProxyObject
 90
      499
 91
      503
 93
      121
310
9053130303A310000000000001650100
  0
ACAD_PROXY_OBJECT
  5
59
102
{ACAD_REACTORS
330
47
102
}
330
47
100
AcDbProxyObject
 90
      499
 91
      503
 93
      257
310
90E312F31323822203D2031272D3022000000000000200FC000000000000284000
  0
ACAD_PROXY_OBJECT
  5
5A
102
{ACAD_REACTORS
330
47
102
}
330
47
100
AcDbProxyObject
 90
      499
 91
      503
 93
      249
310
90D312F363422203D2031272D3022000000000000240FC000000000000284000
  0
ACAD_PROXY_OBJECT
  5
5B
102
{ACAD_REACTORS
330
47
102
}
330
47
100
AcDbProxyObject
 90
      499
 91
      503
 93
      249
310
90D312F333222203D2031272D3022000000000000280FC000000000000284000
  0
ACAD_PROXY_OBJECT
  5
5C
102
{ACAD_REACTORS
330
47
102
}
330
47
100
AcDbProxyObject
 90
      499
 91
      503
 93
      249
310
90D312F313622203D2031272D30220000000000002C0FC000000000000284000
  0
ACAD_PROXY_OBJECT
  5
5D
102
{ACAD_REACTORS
330
47
102
}
330
47
100
AcDbProxyObject
 90
      499
 91
      503
 93
      249
310
90D332F333222203D2031272D30220000000000002E0FC000000000000284000
  0
ACAD_PROXY_OBJECT
  5
5E
102
{ACAD_REACTORS
330
47
102
}
330
47
100
AcDbProxyObject
 90
      499
 91
      503
 93
      241
310
90C312F3822203D2031272D3022000000000000300FC000000000000284000
  0
ACAD_PROXY_OBJECT
  5
5F
102
{ACAD_REACTORS
330
47
102
}
330
47
100
AcDbProxyObject
 90
      499
 91
      503
 93
      249
310
90D332F313622203D2031272D3022000000000000320FC000000000000284000
  0
ACAD_PROXY_OBJECT
  5
60
102
{ACAD_REACTORS
330
47
102
}
330
47
100
AcDbProxyObject
 90
      499
 91
      503
 93
      241
310
90C312F3422203D2031272D3022000000000000340FC000000000000284000
  0
ACAD_PROXY_OBJECT
  5
61
102
{ACAD_REACTORS
330
47
102
}
330
47
100
AcDbProxyObject
 90
      499
 91
      503
 93
      241
310
90C332F3822203D2031272D3022000000000000360FC000000000000284000
  0
ACAD_PROXY_OBJECT
  5
62
102
{ACAD_REACTORS
330
47
102
}
330
47
100
AcDbProxyObject
 90
      499
 91
      503
 93
      241
310
90C312F3222203D2031272D3022000000000000380FC000000000000284000
  0
ACAD_PROXY_OBJECT
  5
63
102
{ACAD_REACTORS
330
47
102
}
330
47
100
AcDbProxyObject
 90
      499
 91
      503
 93
      241
310
90C332F3422203D2031272D30220000000000003A0FC000000000000284000
  0
ACAD_PROXY_OBJECT
  5
64
102
{ACAD_REACTORS
330
47
102
}
330
47
100
AcDbProxyObject
 90
      499
 91
      503
 93
      161
310
90A3122203D2031272D30224000000000000284000
  0
ACAD_PROXY_OBJECT
  5
65
102
{ACAD_REACTORS
330
47
102
}
330
47
100
AcDbProxyObject
 90
      499
 91
      503
 93
      257
310
90E312D312F3222203D2031272D30220000000000003E0FC000000000000284000
  0
ACAD_PROXY_OBJECT
  5
66
102
{ACAD_REACTORS
330
47
102
}
330
47
100
AcDbProxyObject
 90
      499
 91
      503
 93
      225
310
90A3322203D2031272D302200000000000002100000000000000284000
  0
ACAD_PROXY_OBJECT
  5
67
102
{ACAD_REACTORS
330
47
102
}
330
47
100
AcDbProxyObject
 90
      499
 91
      503
 93
      225
310
90A3622203D2031272D302200000000000006100000000000000284000
  0
ACAD_PROXY_OBJECT
  5
68
102
{ACAD_REACTORS
330
47
102
}
330
47
100
AcDbProxyObject
 90
      499
 91
      503
 93
      249
310
90D31272D3022203D2031272D30220000000000000A100000000000000284000
  0
ACAD_PROXY_OBJECT
  5
2F
102
{ACAD_REACTORS
330
2A
102
}
330
2A
100
AcDbProxyObject
 90
      499
 91
      501
 93
      436
310
42CC9915DA5C99599C985B595049028333333333333E33F0000000000000F90107901411070040501600405405064090741402480A0340
1001
ACAD
1000
AcDbSavedByObjectVersion
1070
     0
  0
ACAD_PROXY_OBJECT
  5
32
102
{ACAD_REACTORS
330
2A
102
}
330
2A
100
AcDbProxyObject
 90
      499
 91
      501
 93
      388
310
4150985CDA58D07406404333333333333E33F0000000000000F90107A41107004050150841D405064090741402480A0350
1001
ACAD
1000
AcDbSavedByObjectVersion
1070
     0
  0
ACAD_PROXY_OBJECT
  5
36
102
{ACAD_REACTORS
330
2A
102
}
330
2A
100
AcDbProxyObject
 90
      499
 91
      501
 93
      428
310
42109C9A59DA1D195B90C409028333333333333E33F0000000000000F9010790141107004050150841D405064090741402480A029950
1001
ACAD
1000
AcDbSavedByObjectVersion
1070
     0
  0
ACAD_PROXY_OBJECT
  5
3A
102
{ACAD_REACTORS
330
2A
102
}
330
2A
100
AcDbProxyObject
 90
      499
 91
      501
 93
      452
310
42D0DBDB1BDC90DA185B99D95104090240C333333333333E33F0000000000000F90108901411070040501508421405064090741402480A0350
1001
ACAD
1000
AcDbSavedByObjectVersion
1070
     0
  0
ACAD_PROXY_OBJECT
  5
34
102
{ACAD_REACTORS
330
2A
102
}
330
2A
100
AcDbProxyObject
 90
      499
 91
      501
 93
      500
310
4290DBDB98D95C1D1D585B10940D028333333333333E33F0000000000000F90107902409070040501000000000018199010841D405064090740C02480A0340
1001
ACAD
1000
AcDbSavedByObjectVersion
1070
     0
  0
ACAD_PROXY_OBJECT
  5
35
102
{ACAD_REACTORS
330
2A
102
}
330
2A
100
AcDbProxyObject
 90
      499
 91
      501
 93
      412
310
40D11A5B50B409028333333333333E33F0000000000000F9010790141107004050150841D405064090741402480A02677FFFFFD0
1001
ACAD
1000
AcDbSavedByObjectVersion
1070
     0
  0
ACAD_PROXY_OBJECT
  5
3D
102
{ACAD_REACTORS
330
2A
102
}
330
2A
100
AcDbProxyObject
 90
      499
 91
      501
 93
      452
310
43115919D950DBDB1BDC93D999916409028333333333333E33F0000000000000F9010790141107004050150841D405064090741402480A0350
1001
ACAD
1000
AcDbSavedByObjectVersion
1070
     0
  0
ACAD_PROXY_OBJECT
  5
39
102
{ACAD_REACTORS
330
2A
102
}
330
2A
100
AcDbProxyObject
 90
      499
 91
      501
 93
      444
310
42D19858D95C185D1D195C9B90F409028333333333333E33F0000000000000F9010790141107004050150841D405064090741402480A0350
1001
ACAD
1000
AcDbSavedByObjectVersion
1070
     0
  0
ACAD_PROXY_OBJECT
  5
2B
102
{ACAD_REACTORS
330
2A
102
}
330
2A
100
AcDbProxyObject
 90
      499
 91
      501
 93
      380
310
41119B185D240901404333333333333E33F0000000000000F9010740A907004050150841D405064090741402480A1B50
1001
ACAD
1000
AcDbSavedByObjectVersion
1070
     0
  0
ACAD_PROXY_OBJECT
  5
2C
102
{ACAD_REACTORS
330
2A
102
}
330
2A
100
AcDbProxyObject
 90
      499
 91
      501
 93
      468
310
43519B185D15DA5D1A115919D95CD0140901404333333333333E33F0000000000000F90107409019070040501600405405064090741402480A1B50
1001
ACAD
1000
AcDbSavedByObjectVersion
1070
     0
  0
ACAD_PROXY_OBJECT
  5
2D
102
{ACAD_REACTORS
330
2A
102
}
330
2A
100
AcDbProxyObject
 90
      499
 91
      501
 93
      404
310
41D1DBDD5C985D5910240902404333333333333E33F0000000000000F9010740A9070040501641D405064090741402480A1B50
1001
ACAD
1000
AcDbSavedByObjectVersion
1070
     0
  0
ACAD_PROXY_OBJECT
  5
2E
102
{ACAD_REACTORS
330
2A
102
}
330
2A
100
AcDbProxyObject
 90
      499
 91
      501
 93
      492
310
4411DBDD5C985D5915DA5D1A115919D95CD0340902404333333333333E33F0000000000000F90107409019070040501600405405064090741402480A1B50
1001
ACAD
1000
AcDbSavedByObjectVersion
1070
     0
  0
ACAD_PROXY_OBJECT
  5
31
102
{ACAD_REACTORS
330
2A
102
}
330
2A
100
AcDbProxyObject
 90
      499
 91
      501
 93
      476
310
41921A5919195B90640502408333333333333E33F0000000000000F901079024090700405020000000000001110200405405064090740C02480A0340
1001
ACAD
1000
AcDbSavedByObjectVersion
1070
     0
  0
ACAD_PROXY_OBJECT
  5
3B
102
{ACAD_REACTORS
330
2A
102
}
330
2A
100
AcDbProxyObject
 90
      499
 91
      501
 93
      428
310
42529A5D1D195C93D999914409028333333333333E33F0000000000000F9010790141107004050150A41D405064090741402480A0350
1001
ACAD
1000
AcDbSavedByObjectVersion
1070
     0
  0
ACAD_PROXY_OBJECT
  5
38
102
{ACAD_REACTORS
330
2A
102
}
330
2A
100
AcDbProxyObject
 90
      499
 91
      501
 93
      444
310
42D31A5B995C185D1D195C9B90E409028333333333333E33F0000000000000F9010790141107004050750841D405064090741402483A0350
1001
ACAD
1000
AcDbSavedByObjectVersion
1070
     0
  0
ACAD_PROXY_OBJECT
  5
3C
102
{ACAD_REACTORS
330
2A
102
}
330
2A
100
AcDbProxyObject
 90
      499
 91
      501
 93
      444
310
42D3DD995C9A185B99D3D999915409028333333333333E33F0000000000000F9010790141107004050150941D405064090741402480A0350
1001
ACAD
1000
AcDbSavedByObjectVersion
1070
     0
  0
ACAD_PROXY_OBJECT
  5
33
102
{ACAD_REACTORS
330
2A
102
}
330
2A
100
AcDbProxyObject
 90
      499
 91
      501
 93
      428
310
425499585B1A5CDD1A58D08409038333333333333E33F0000000000000F9010740A907004050150800405405064090740C02480A1B40
1001
ACAD
1000
AcDbSavedByObjectVersion
1070
     0
  0
ACAD_PROXY_OBJECT
  5
42
102
{ACAD_REACTORS
330
2A
102
}
330
2A
100
AcDbProxyObject
 90
      499
 91
      501
 93
      420
310
4194DA1859195911B40902404333333333333E33F0000000000000F9010740A41107004050150800405405064090840C02480A0B40
1001
ACAD
1000
AcDbSavedByObjectVersion
1070
     0
  0
ACAD_PROXY_OBJECT
  5
41
102
{ACAD_REACTORS
330
2A
102
}
330
2A
100
AcDbProxyObject
 90
      499
 91
      501
 93
      516
310
4454DA18591959081DDA5D1A08195919D95CD1A40902404333333333333E33F0000000000000F901074090142907004050250800405405064090740C02480A0B40
1001
ACAD
1000
AcDbSavedByObjectVersion
1070
     0
  0
ACAD_PROXY_OBJECT
  5
3E
102
{ACAD_REACTORS
330
2A
102
}
330
2A
100
AcDbProxyObject
 90
      499
 91
      501
 93
      532
310
4394DA1859195CC81BD98811DC985E5174090240C333333333333E33F0000000000000F901079024090741D01000000000000111010841D405064090740C02480A0340
1001
ACAD
1000
AcDbSavedByObjectVersion
1070
     0
  0
ACAD_PROXY_OBJECT
  5
3F
102
{ACAD_REACTORS
330
2A
102
}
330
2A
100
AcDbProxyObject
 90
      499
 91
      501
 93
      476
310
41D4DAD95D18DA1E51840502408333333333333E33F0000000000000F901079024090741D01000000000000111010B41D405064090741802480A0340
1001
ACAD
1000
AcDbSavedByObjectVersion
1070
     0
  0
ACAD_PROXY_OBJECT
  5
37
102
{ACAD_REACTORS
330
2A
102
}
330
2A
100
AcDbProxyObject
 90
      499
 91
      501
 93
      412
310
41D51A1A58DAD95B90D409028333333333333E33F0000000000000F9010790141107004050150C41D405064090741402480A0350
1001
ACAD
1000
AcDbSavedByObjectVersion
1070
     0
  0
ACAD_PROXY_OBJECT
  5
30
102
{ACAD_REACTORS
330
2A
102
}
330
2A
100
AcDbProxyObject
 90
      499
 91
      501
 93
      420
310
4255DA5C99599C985B595059028333333333333E33F0000000000000F90107901411070040501600405405064090740C02480A0340
1001
ACAD
1000
AcDbSavedByObjectVersion
1070
     0
  0
ACAD_PROXY_OBJECT
  5
40
102
{ACAD_REACTORS
330
2A
102
}
330
2A
100
AcDbProxyObject
 90
      499
 91
      501
 93
      404
310
41560B54985E51940902404000000000000E03F0000000000000F9010740501907004050150841D405064090740C02480A1B40
1001
ACAD
1000
AcDbSavedByObjectVersion
1070
     0
  0
XRECORD
  5
4AC
102
{ACAD_REACTORS
330
4A2
102
}
330
4A2
100
AcDbXrecord
340
0
  0
XRECORD
  5
4AB
102
{ACAD_REACTORS
330
4A2
102
}
330
4A2
100
AcDbXrecord
 90
        0
  0
XRECORD
  5
4C2
102
{ACAD_REACTORS
330
4A2
102
}
330
4A2
100
AcDbXrecord
1000
DSTYLE
1002
{
1070
   340
340
11
1002
}
  0
XRECORD
  5
4AD
102
{ACAD_REACTORS
330
4A2
102
}
330
4A2
100
AcDbXrecord
  1
{ebe2c322-1625-4eaa-87c1-48c0f7ef34b1}
  0
XRECORD
  5
4A5
102
{ACAD_REACTORS
330
4A2
102
}
330
4A2
100
AcDbXrecord
  1

  0
XRECORD
  5
4AA
102
{ACAD_REACTORS
330
4A2
102
}
330
4A2
100
AcDbXrecord
 90
        4
  0
XRECORD
  5
4A7
102
{ACAD_REACTORS
330
4A2
102
}
330
4A2
100
AcDbXrecord
340
1A
  0
XRECORD
  5
4A9
102
{ACAD_REACTORS
330
4A2
102
}
330
4A2
100
AcDbXrecord
 90
    10781
  0
XRECORD
  5
4A8
102
{ACAD_REACTORS
330
4A2
102
}
330
4A2
100
AcDbXrecord
340
19
  0
XRECORD
  5
4AF
102
{ACAD_REACTORS
330
4A2
102
}
330
4A2
100
AcDbXrecord
 40
0.0
  0
XRECORD
  5
4B2
102
{ACAD_REACTORS
330
4A2
102
}
330
4A2
100
AcDbXrecord
340
0
  0
XRECORD
  5
4B8
102
{ACAD_REACTORS
330
4A2
102
}
330
4A2
100
AcDbXrecord
 10
0.0
 20
0.0
 30
0.0
  0
XRECORD
  5
4B4
102
{ACAD_REACTORS
330
4A2
102
}
330
4A2
100
AcDbXrecord
 10
0.0
 20
0.0
 30
0.0
  0
XRECORD
  5
4B7
102
{ACAD_REACTORS
330
4A2
102
}
330
4A2
100
AcDbXrecord
 10
0.0
 20
0.0
 30
0.0
  0
XRECORD
  5
4B5
102
{ACAD_REACTORS
330
4A2
102
}
330
4A2
100
AcDbXrecord
 10
0.0
 20
0.0
 30
0.0
  0
XRECORD
  5
4B6
102
{ACAD_REACTORS
330
4A2
102
}
330
4A2
100
AcDbXrecord
 10
0.0
 20
0.0
 30
0.0
  0
XRECORD
  5
4B3
102
{ACAD_REACTORS
330
4A2
102
}
330
4A2
100
AcDbXrecord
 10
0.0
 20
0.0
 30
0.0
  0
XRECORD
  5
4B0
102
{ACAD_REACTORS
330
4A2
102
}
330
4A2
100
AcDbXrecord
340
0
  0
XRECORD
  5
4B1
102
{ACAD_REACTORS
330
4A2
102
}
330
4A2
100
AcDbXrecord
 70
     0
  0
XRECORD
  5
4A6
102
{ACAD_REACTORS
330
4A2
102
}
330
4A2
100
AcDbXrecord
  1

  0
XRECORD
  5
4A3
102
{ACAD_REACTORS
330
4A2
102
}
330
4A2
100
AcDbXrecord
 90
        1
  0
XRECORD
  5
4A4
102
{ACAD_REACTORS
330
4A2
102
}
330
4A2
100
AcDbXrecord
 90
       70
  0
XRECORD
  5
4BB
102
{ACAD_REACTORS
330
4A2
102
}
330
4A2
100
AcDbXrecord
340
0
  0
XRECORD
  5
4C1
102
{ACAD_REACTORS
330
4A2
102
}
330
4A2
100
AcDbXrecord
 10
0.0
 20
0.0
 30
0.0
  0
XRECORD
  5
4BD
102
{ACAD_REACTORS
330
4A2
102
}
330
4A2
100
AcDbXrecord
 10
0.0
 20
0.0
 30
0.0
  0
XRECORD
  5
4C0
102
{ACAD_REACTORS
330
4A2
102
}
330
4A2
100
AcDbXrecord
 10
0.0
 20
0.0
 30
0.0
  0
XRECORD
  5
4BE
102
{ACAD_REACTORS
330
4A2
102
}
330
4A2
100
AcDbXrecord
 10
0.0
 20
0.0
 30
0.0
  0
XRECORD
  5
4BF
102
{ACAD_REACTORS
330
4A2
102
}
330
4A2
100
AcDbXrecord
 10
0.0
 20
0.0
 30
0.0
  0
XRECORD
  5
4BC
102
{ACAD_REACTORS
330
4A2
102
}
330
4A2
100
AcDbXrecord
 10
0.0
 20
0.0
 30
0.0
  0
XRECORD
  5
4B9
102
{ACAD_REACTORS
330
4A2
102
}
330
4A2
100
AcDbXrecord
340
0
  0
XRECORD
  5
4BA
102
{ACAD_REACTORS
330
4A2
102
}
330
4A2
100
AcDbXrecord
 70
     0
  0
XRECORD
  5
4AE
102
{ACAD_REACTORS
330
4A2
102
}
330
4A2
100
AcDbXrecord
  1
{FAEB1C32-E019-11D5-929B-00C0DF256EC4}
  0
DICTIONARYVAR
  5
4D0
102
{ACAD_REACTORS
330
4C3
102
}
330
4C3
100
DictionaryVariables
280
     0
  1
1:1
  0
DICTIONARYVAR
  5
4CA
102
{ACAD_REACTORS
330
4C3
102
}
330
4C3
100
DictionaryVariables
280
     0
  1
3.500000
  0
DICTIONARYVAR
  5
4CB
102
{ACAD_REACTORS
330
4C3
102
}
330
4C3
100
DictionaryVariables
280
     0
  1
acadiso.lin
  0
DICTIONARYVAR
  5
4C5
102
{ACAD_REACTORS
330
4C3
102
}
330
4C3
100
DictionaryVariables
280
     0
  1
Standard
  0
DICTIONARYVAR
  5
4C4
102
{ACAD_REACTORS
330
4C3
102
}
330
4C3
100
DictionaryVariables
280
     0
  1
Standard
  0
DICTIONARYVAR
  5
4CC
102
{ACAD_REACTORS
330
4C3
102
}
330
4C3
100
DictionaryVariables
280
     0
  1
2
  0
DICTIONARYVAR
  5
4CD
102
{ACAD_REACTORS
330
4C3
102
}
330
4C3
100
DictionaryVariables
280
     0
  1
1
  0
DICTIONARYVAR
  5
4D1
102
{ACAD_REACTORS
330
4C3
102
}
330
4C3
100
DictionaryVariables
280
     0
  1
1
  0
DICTIONARYVAR
  5
4C7
102
{ACAD_REACTORS
330
4C3
102
}
330
4C3
100
DictionaryVariables
280
     0
  1
80.000000
  0
DICTIONARYVAR
  5
4C6
102
{ACAD_REACTORS
330
4C3
102
}
330
4C3
100
DictionaryVariables
280
     0
  1
5.000000
  0
DICTIONARY
  5
4D4
330
45
100
AcDbDictionary
280
     1
  3
ACAD_XREC_ROUNDTRIP
360
4D5
  0
DICTIONARY
  5
4D2
330
44
100
AcDbDictionary
280
     1
  3
ACAD_XREC_ROUNDTRIP
360
4D3
  0
DICTIONARY
  5
4D6
330
46
100
AcDbDictionary
280
     1
  3
ACAD_XREC_ROUNDTRIP
360
4D7
  0
XRECORD
  5
4D5
102
{ACAD_REACTORS
330
4D4
102
}
330
4D4
100
AcDbXrecord
102
MATERIAL
148
0.0
149
0.0
149
0.0
 93
        0
 94
      127
282
     0
 72
     1
 77
     1
171
     1
175
     1
179
     1
273
     0
  0
XRECORD
  5
4D3
102
{ACAD_REACTORS
330
4D2
102
}
330
4D2
100
AcDbXrecord
102
MATERIAL
148
0.0
149
0.0
149
0.0
 93
        0
 94
      127
282
     0
 72
     1
 77
     1
171
     1
175
     1
179
     1
273
     0
  0
XRECORD
  5
4D7
102
{ACAD_REACTORS
330
4D6
102
}
330
4D6
100
AcDbXrecord
102
MATERIAL
148
0.0
149
0.0
149
0.0
 93
        0
 94
      127
282
     0
 72
     1
 77
     1
171
     1
175
     1
179
     1
273
     0
  0
ENDSEC
  0
EOF
