  0
SECTION
  2
HEADER
  9
$ACADVER
  1
AC1014
  9
$ACADMAINTVER
 70
     0
  9
$DWGCODEPAGE
  3
ANSI_932
  9
$INSBASE
 10
0.0
 20
0.0
 30
0.0
  9
$EXTMIN
 10
224.326388
 20
126.5
 30
0.0
  9
$EXTMAX
 10
971.173612
 20
845.562287
 30
0.0
  9
$LIMMIN
 10
0.0
 20
0.0
  9
$LIMMAX
 10
420.0
 20
297.0
  9
$ORTHOMODE
 70
     0
  9
$REGENMODE
 70
     1
  9
$FILLMODE
 70
     1
  9
$QTEXTMODE
 70
     0
  9
$MIRRTEXT
 70
     1
  9
$DRAGMODE
 70
     2
  9
$LTSCALE
 40
1.0
  9
$OSMODE
 70
     0
  9
$ATTMODE
 70
     1
  9
$TEXTSIZE
 40
0.2
  9
$TRACEWID
 40
0.05
  9
$TEXTSTYLE
  7
STANDARD
  9
$CLAYER
  8
LAY-1
  9
$CELTYPE
  6
CONTINUOUS
  9
$CECOLOR
 62
   256
  9
$CELTSCALE
 40
1.0
  9
$DELOBJ
 70
     1
  9
$DISPSILH
 70
     0
  9
$DIMSCALE
 40
1.0
  9
$DIMASZ
 40
0.18
  9
$DIMEXO
 40
0.0625
  9
$DIMDLI
 40
0.38
  9
$DIMRND
 40
0.0
  9
$DIMDLE
 40
0.0
  9
$DIMEXE
 40
0.18
  9
$DIMTP
 40
0.0
  9
$DIMTM
 40
0.0
  9
$DIMTXT
 40
0.18
  9
$DIMCEN
 40
0.09
  9
$DIMTSZ
 40
0.0
  9
$DIMTOL
 70
     0
  9
$DIMLIM
 70
     0
  9
$DIMTIH
 70
     1
  9
$DIMTOH
 70
     1
  9
$DIMSE1
 70
     0
  9
$DIMSE2
 70
     0
  9
$DIMTAD
 70
     0
  9
$DIMZIN
 70
     0
  9
$DIMBLK
  1

  9
$DIMASO
 70
     1
  9
$DIMSHO
 70
     1
  9
$DIMPOST
  1

  9
$DIMAPOST
  1

  9
$DIMALT
 70
     0
  9
$DIMALTD
 70
     2
  9
$DIMALTF
 40
25.4
  9
$DIMLFAC
 40
1.0
  9
$DIMTOFL
 70
     0
  9
$DIMTVP
 40
0.0
  9
$DIMTIX
 70
     0
  9
$DIMSOXD
 70
     0
  9
$DIMSAH
 70
     0
  9
$DIMBLK1
  1

  9
$DIMBLK2
  1

  9
$DIMSTYLE
  2
STANDARD
  9
$DIMCLRD
 70
     0
  9
$DIMCLRE
 70
     0
  9
$DIMCLRT
 70
     0
  9
$DIMTFAC
 40
1.0
  9
$DIMGAP
 40
0.09
  9
$DIMJUST
 70
     0
  9
$DIMSD1
 70
     0
  9
$DIMSD2
 70
     0
  9
$DIMTOLJ
 70
     1
  9
$DIMTZIN
 70
     0
  9
$DIMALTZ
 70
     0
  9
$DIMALTTZ
 70
     0
  9
$DIMFIT
 70
     3
  9
$DIMUPT
 70
     0
  9
$DIMUNIT
 70
     2
  9
$DIMDEC
 70
     4
  9
$DIMTDEC
 70
     4
  9
$DIMALTU
 70
     2
  9
$DIMALTTD
 70
     2
  9
$DIMTXSTY
  7
STANDARD
  9
$DIMAUNIT
 70
     0
  9
$LUNITS
 70
     2
  9
$LUPREC
 70
     4
  9
$SKETCHINC
 40
0.1
  9
$FILLETRAD
 40
0.0
  9
$AUNITS
 70
     0
  9
$AUPREC
 70
     0
  9
$MENU
  1
acad
  9
$ELEVATION
 40
0.0
  9
$PELEVATION
 40
0.0
  9
$THICKNESS
 40
0.0
  9
$LIMCHECK
 70
     0
  9
$BLIPMODE
 70
     1
  9
$CHAMFERA
 40
0.0
  9
$CHAMFERB
 40
0.0
  9
$CHAMFERC
 40
0.0
  9
$CHAMFERD
 40
0.0
  9
$SKPOLY
 70
     0
  9
$TDCREATE
 40
2456816.144865185
  9
$TDUPDATE
 40
2456816.144865185
  9
$TDINDWG
 40
0.0000000000
  9
$TDUSRTIMER
 40
0.0000000000
  9
$USRTIMER
 70
     1
  9
$ANGBASE
 50
0.0
  9
$ANGDIR
 70
     0
  9
$PDMODE
 70
     0
  9
$PDSIZE
 40
0.0
  9
$PLINEWID
 40
0.0
  9
$COORDS
 70
     1
  9
$SPLFRAME
 70
     0
  9
$SPLINETYPE
 70
     6
  9
$SPLINESEGS
 70
     8
  9
$ATTDIA
 70
     0
  9
$ATTREQ
 70
     1
  9
$HANDLING
 70
     1
  9
$HANDSEED
  5
47F
  9
$SURFTAB1
 70
     6
  9
$SURFTAB2
 70
     6
  9
$SURFTYPE
 70
     6
  9
$SURFU
 70
     6
  9
$SURFV
 70
     6
  9
$UCSNAME
  2

  9
$UCSORG
 10
0.0
 20
0.0
 30
0.0
  9
$UCSXDIR
 10
1.0
 20
0.0
 30
0.0
  9
$UCSYDIR
 10
0.0
 20
1.0
 30
0.0
  9
$PUCSNAME
  2

  9
$PUCSORG
 10
0.0
 20
0.0
 30
0.0
  9
$PUCSXDIR
 10
1.0
 20
0.0
 30
0.0
  9
$PUCSYDIR
 10
0.0
 20
1.0
 30
0.0
  9
$USERI1
 70
     0
  9
$USERI2
 70
     0
  9
$USERI3
 70
     0
  9
$USERI4
 70
     0
  9
$USERI5
 70
     0
  9
$USERR1
 40
0.0
  9
$USERR2
 40
0.0
  9
$USERR3
 40
0.0
  9
$USERR4
 40
0.0
  9
$USERR5
 40
0.0
  9
$WORLDVIEW
 70
     1
  9
$SHADEDGE
 70
     3
  9
$SHADEDIF
 70
    70
  9
$TILEMODE
 70
     1
  9
$MAXACTVP
 70
    16
  9
$PINSBASE
 10
0.0
 20
0.0
 30
0.0
  9
$PLIMCHECK
 70
     0
  9
$PEXTMIN
 10
1.000000E+20
 20
1.000000E+20
 30
1.000000E+20
  9
$PEXTMAX
 10
-1.000000E+20
 20
-1.000000E+20
 30
-1.000000E+20
  9
$PLIMMIN
 10
0.0
 20
0.0
  9
$PLIMMAX
 10
12.0
 20
9.0
  9
$UNITMODE
 70
     0
  9
$VISRETAIN
 70
     0
  9
$PLINEGEN
 70
     1
  9
$PSLTSCALE
 70
     0
  9
$TREEDEPTH
 70
  3020
  9
$PICKSTYLE
 70
     1
  9
$CMLSTYLE
  2
Standard
  9
$CMLJUST
 70
     0
  9
$CMLSCALE
 40
1.0
  9
$PROXYGRAPHICS
 70
     0
  9
$MEASUREMENT
 70
     0
  0
ENDSEC
  0
SECTION
  2
CLASSES
  0
CLASS
  1
LWPOLYLINE
  2
AcDbPolyline
  3
"AutoCAD"
 90
        0
280
     0
281
     1
  0
CLASS
  1
IMAGE
  2
AcDbRasterImage
  3
ISM
 90
      127
280
     0
281
     1
  0
CLASS
  1
OLE2FRAME
  2
AcDbOle2Frame
  3
""
 90
        0
280
     0
281
     1
  0
CLASS
  1
HATCH
  2
AcDbHatch
  3
"ACAD_SEDONA"
 90
        0
280
     0
281
     1
  0
CLASS
  1
DICTIONARYVAR
  2
AcDbDictionaryVar
  3
"AutoCAD"
 90
        0
280
     0
281
     0
  0
CLASS
  1
RASTERVARIABLES
  2
AcDbRasterVariables
  3
ISM
 90
        0
280
     0
281
     0
  0
CLASS
  1
IMAGEDEF
  2
AcDbRasterImageDef
  3
ISM
 90
        0
280
     0
281
     0
  0
CLASS
  1
IMAGEDEF_REACTOR
  2
AcDbRasterImageDefReactor
  3
ISM
 90
        1
280
     0
281
     0
  0
CLASS
  1
IDBUFFER
  2
AcDbIdBuffer
  3
"Acad"
 90
        0
280
     0
281
     0
  0
CLASS
  1
SPATIAL_FILTER
  2
AcDbSpatialFilter
  3
"Acad"
 90
        0
280
     0
281
     0
  0
CLASS
  1
XRECORD
  2
AcDbXrecord
  3
"<Built In>"
 90
        0
280
     0
281
     0
  0
CLASS
  1
SORTENTSTABLE
  2
AcDbSortentsTable
  3
"AutoCAD"
 90
        0
280
     0
281
     0
  0
CLASS
  1
LAYER_INDEX
  2
AcDbLayerIndex
  3
"Acad"
 90
        0
280
     0
281
     0
  0
CLASS
  1
SPATIAL_INDEX
  2
AcDbSpatialIndex
  3
"Acad"
 90
        0
280
     0
281
     0
  0
CLASS
  1
OBJECT_PTR
  2
CAseDLPNTableRecord
  3
"ASE-LPNTableRecord"
 90
        1
280
     0
281
     0
  0
CLASS
  1
LAYOUT
  2
AcDbLayout
  3
"AutoCAD 2000"
 90
        0
280
     0
281
     0
  0
CLASS
  1
PLOTSETTINGS
  2
AcDbPlotSettings
  3
"AutoCAD 2000"
 90
        0
280
     0
281
     0
  0
CLASS
  1
ACDBDICTIONARYWDFLT
  2
AcDbDictionaryWithDefault
  3
"AutoCAD 2000"
 90
        0
280
     0
281
     0
  0
CLASS
  1
ACDBPLACEHOLDER
  2
AcDbPlaceHolder
  3
"AutoCAD 2000"
 90
        0
280
     0
281
     0
  0
CLASS
  1
VBA_PROJECT
  2
AcDbVbaProject
  3
"acadvba"
 90
        0
280
     0
281
     0
  0
CLASS
  1
WIPEOUT
  2
AcDbWipeout
  3
WipeOut|AutoCAD Express Tool|expresstools@autodesk.com
 90
      127
280
     0
281
     1
  0
CLASS
  1
WIPEOUTVARIABLES
  2
AcDbWipeoutVariables
  3
WipeOut|AutoCAD Express Tool|expresstools@autodesk.com
 90
        0
280
     0
281
     0
  0
CLASS
  1
RTEXT
  2
RText
  3
RText|AutoCAD Express Tool|expresstools@autodesk.com
 90
        0
280
     0
281
     1
  0
CLASS
  1
ARCALIGNEDTEXT
  2
AcDbArcAlignedText
  3
ATEXT|AutoCAD Express Tool|expresstools@autodesk.com
 90
        0
280
     0
281
     1
  0
ENDSEC
  0
SECTION
  2
TABLES
  0
TABLE
  2
VPORT
  5
7
100
AcDbSymbolTable
 70
     1
  0
VPORT
  5
15
100
AcDbSymbolTableRecord
100
AcDbViewportTableRecord
  2
*ACTIVE
 70
     0
 10
0.0
 20
0.0
 11
1.0
 21
1.0
 12
597.75
 22
486.031143
 13
0.0
 23
0.0
 14
1.0
 24
1.0
 15
0.0
 25
0.0
 16
0.0
 26
0.0
 36
1.0
 17
0.0
 27
0.0
 37
0.0
 40
719.062287
 41
1.722533
 42
50.0
 43
0.0
 44
0.0
 50
0.0
 51
0.0
 71
     0
 72
  1000
 73
     1
 74
     1
 75
     0
 76
     0
 77
     0
 78
     0
  0
ENDTAB
  0
TABLE
  2
LTYPE
  5
4
100
AcDbSymbolTable
 70
     9
  0
LTYPE
  5
11
100
AcDbSymbolTableRecord
100
AcDbLinetypeTableRecord
  2
BYBLOCK
 70
    64
  3

 72
    65
 73
     0
 40
0.0
  0
LTYPE
  5
12
100
AcDbSymbolTableRecord
100
AcDbLinetypeTableRecord
  2
BYLAYER
 70
    64
  3

 72
    65
 73
     0
 40
0.0
  0
LTYPE
  5
13
100
AcDbSymbolTableRecord
100
AcDbLinetypeTableRecord
  2
CONTINUOUS
 70
    64
  3
実線
 72
    65
 73
     0
 40
0.0
  0
LTYPE
  5
1D
100
AcDbSymbolTableRecord
100
AcDbLinetypeTableRecord
  2
EXLTYPE1
 70
    64
  3
破線
 72
    65
 73
     2
 40
4.0
 49
2.0
 74
     0
 49
-2.0
 74
     0
  0
LTYPE
  5
1E
100
AcDbSymbolTableRecord
100
AcDbLinetypeTableRecord
  2
EXLTYPE2
 70
    64
  3
点線
 72
    65
 73
     2
 40
2.0
 49
1.0
 74
     0
 49
-1.0
 74
     0
  0
LTYPE
  5
1F
100
AcDbSymbolTableRecord
100
AcDbLinetypeTableRecord
  2
EXLTYPE3
 70
    64
  3
一点鎖線
 72
    65
 73
     4
 40
33.0
 49
30.0
 74
     0
 49
-1.0
 74
     0
 49
1.0
 74
     0
 49
-1.0
 74
     0
  0
LTYPE
  5
20
100
AcDbSymbolTableRecord
100
AcDbLinetypeTableRecord
  2
EXLTYPE4
 70
    64
  3
二点鎖線
 72
    65
 73
     6
 40
35.0
 49
30.0
 74
     0
 49
-1.0
 74
     0
 49
1.0
 74
     0
 49
-1.0
 74
     0
 49
1.0
 74
     0
 49
-1.0
 74
     0
  0
LTYPE
  5
21
100
AcDbSymbolTableRecord
100
AcDbLinetypeTableRecord
  2
EXLTYPE5
 70
    64
  3
三点鎖線
 72
    65
 73
     8
 40
37.0
 49
30.0
 74
     0
 49
-1.0
 74
     0
 49
1.0
 74
     0
 49
-1.0
 74
     0
 49
1.0
 74
     0
 49
-1.0
 74
     0
 49
1.0
 74
     0
 49
-1.0
 74
     0
  0
LTYPE
  5
22
100
AcDbSymbolTableRecord
100
AcDbLinetypeTableRecord
  2
EXLTYPE6
 70
    64
  3
四点鎖線
 72
    65
 73
    10
 40
39.0
 49
30.0
 74
     0
 49
-1.0
 74
     0
 49
1.0
 74
     0
 49
-1.0
 74
     0
 49
1.0
 74
     0
 49
-1.0
 74
     0
 49
1.0
 74
     0
 49
-1.0
 74
     0
 49
1.0
 74
     0
 49
-1.0
 74
     0
  0
ENDTAB
  0
TABLE
  2
LAYER
  5
2
100
AcDbSymbolTable
 70
     3
  0
LAYER
  5
14
100
AcDbSymbolTableRecord
100
AcDbLayerTableRecord
  2
0
 70
     0
 62
     7
  6
CONTINUOUS
  0
LAYER
  5
25
100
AcDbSymbolTableRecord
100
AcDbLayerTableRecord
  2
LAY-1
 70
    64
 62
     7
  6
CONTINUOUS
  0
LAYER
  5
26
100
AcDbSymbolTableRecord
100
AcDbLayerTableRecord
  2
LAY-3
 70
    64
 62
     1
  6
CONTINUOUS
  0
ENDTAB
  0
TABLE
  2
STYLE
  5
3
100
AcDbSymbolTable
 70
     3
  0
STYLE
  5
17
100
AcDbSymbolTableRecord
100
AcDbTextStyleTableRecord
  2
STANDARD
 70
     0
 40
0.0
 41
1.0
 50
0.0
 71
     0
 42
0.0
  3
monotxt
  4
extfont
  0
STYLE
  5
23
100
AcDbSymbolTableRecord
100
AcDbTextStyleTableRecord
  2
EXCADSTD
 70
    64
 40
0.0
 41
1.0
 50
0.0
 71
     0
 42
0.2
  3
monotxt
  4
extfont
  0
STYLE
  5
24
100
AcDbSymbolTableRecord
100
AcDbTextStyleTableRecord
  2
EXCADVERT
 70
    68
 40
0.0
 41
1.0
 50
0.0
 71
     0
 42
0.286885
  3
monotxt
  4
extfont
  0
ENDTAB
  0
TABLE
  2
VIEW
  5
5
100
AcDbSymbolTable
 70
     0
  0
ENDTAB
  0
TABLE
  2
UCS
  5
6
100
AcDbSymbolTable
 70
     0
  0
ENDTAB
  0
TABLE
  2
APPID
  5
8
100
AcDbSymbolTable
 70
     1
  0
APPID
  5
16
100
AcDbSymbolTableRecord
100
AcDbRegAppTableRecord
  2
ACAD
 70
     0
  0
ENDTAB
  0
TABLE
  2
DIMSTYLE
  5
9
100
AcDbSymbolTable
 70
     1
  0
DIMSTYLE
105
18
100
AcDbSymbolTableRecord
100
AcDbDimStyleTableRecord
  2
STANDARD
 70
     0
  3

  4

  5

  6

  7

 40
1.0
 41
0.18
 42
0.0625
 43
0.38
 44
0.18
 45
0.0
 46
0.0
 47
0.0
 48
0.0
 71
     0
 72
     0
 73
     1
 74
     1
 75
     0
 76
     0
 77
     0
 78
     0
140
0.18
141
0.09
142
0.0
143
25.4
144
1.0
145
0.0
146
1.0
147
0.09
170
     0
171
     2
172
     1
173
     0
174
     0
175
     0
176
     0
177
     0
178
     0
270
     2
271
     4
272
     4
273
     2
274
     2
275
     0
280
     0
281
     0
282
     0
283
     1
284
     0
285
     0
286
     0
287
     3
288
     0
340
17
  0
ENDTAB
  0
TABLE
  2
BLOCK_RECORD
  5
1
100
AcDbSymbolTable
 70
    14
  0
BLOCK_RECORD
  5
A
100
AcDbSymbolTableRecord
100
AcDbBlockTableRecord
  2
*MODEL_SPACE
  0
BLOCK_RECORD
  5
B
100
AcDbSymbolTableRecord
100
AcDbBlockTableRecord
  2
*PAPER_SPACE
  0
BLOCK_RECORD
  5
27
100
AcDbSymbolTableRecord
100
AcDbBlockTableRecord
  2
_EX_NORM
  0
BLOCK_RECORD
  5
28
100
AcDbSymbolTableRecord
100
AcDbBlockTableRecord
  2
_EX_BNORM
  0
BLOCK_RECORD
  5
29
100
AcDbSymbolTableRecord
100
AcDbBlockTableRecord
  2
_EX_BCIR
  0
BLOCK_RECORD
  5
2A
100
AcDbSymbolTableRecord
100
AcDbBlockTableRecord
  2
_EX_RCIVIL
  0
BLOCK_RECORD
  5
2B
100
AcDbSymbolTableRecord
100
AcDbBlockTableRecord
  2
_EX_SLANT
  0
BLOCK_RECORD
  5
2C
100
AcDbSymbolTableRecord
100
AcDbBlockTableRecord
  2
_EX_NONE
  0
BLOCK_RECORD
  5
2D
100
AcDbSymbolTableRecord
100
AcDbBlockTableRecord
  2
_EX_CIVIL
  0
BLOCK_RECORD
  5
2E
100
AcDbSymbolTableRecord
100
AcDbBlockTableRecord
  2
_EX_WCIR
  0
BLOCK_RECORD
  5
2F
100
AcDbSymbolTableRecord
100
AcDbBlockTableRecord
  2
_EX_WCIR2
  0
BLOCK_RECORD
  5
30
100
AcDbSymbolTableRecord
100
AcDbBlockTableRecord
  2
_EX_WNORM
  0
BLOCK_RECORD
  5
31
100
AcDbSymbolTableRecord
100
AcDbBlockTableRecord
  2
_EX_NNORM
  0
BLOCK_RECORD
  5
32
100
AcDbSymbolTableRecord
100
AcDbBlockTableRecord
  2
_EX_BBOX
  0
BLOCK_RECORD
  5
33
100
AcDbSymbolTableRecord
100
AcDbBlockTableRecord
  2
_EX_WBOX
  0
BLOCK_RECORD
  5
34
100
AcDbSymbolTableRecord
100
AcDbBlockTableRecord
  2
_EX_INTEGRAL
  0
ENDTAB
  0
ENDSEC
  0
SECTION
  2
BLOCKS
  0
BLOCK
  5
D
100
AcDbEntity
  8
0
100
AcDbBlockBegin
  2
*MODEL_SPACE
 70
     0
 10
0.0
 20
0.0
 30
0.0
  3
*MODEL_SPACE
  1

  0
ENDBLK
  5
E
100
AcDbEntity
  8
0
100
AcDbBlockEnd
  0
BLOCK
  5
F
100
AcDbEntity
 67
     1
  8
0
100
AcDbBlockBegin
  2
*PAPER_SPACE
 70
     0
 10
0.0
 20
0.0
 30
0.0
  3
*PAPER_SPACE
  1

  0
ENDBLK
  5
10
100
AcDbEntity
 67
     1
  8
0
100
AcDbBlockEnd
  0
BLOCK
  5
35
100
AcDbEntity
  8
0
100
AcDbBlockBegin
  2
_EX_NORM
 70
     0
 10
0.0
 20
0.0
 30
0.0
  3
_EX_NORM
  1

  0
LINE
  5
36
100
AcDbEntity
  8
0
  6
CONTINUOUS
 62
     0
100
AcDbLine
 10
0.0
 20
0.0
 30
0.0
 11
-1.0
 21
0.0
 31
0.0
  0
LINE
  5
37
100
AcDbEntity
  8
0
  6
CONTINUOUS
 62
     0
100
AcDbLine
 10
0.0
 20
0.0
 30
0.0
 11
-1.0
 21
0.166667
 31
0.0
  0
LINE
  5
38
100
AcDbEntity
  8
0
  6
CONTINUOUS
 62
     0
100
AcDbLine
 10
0.0
 20
0.0
 30
0.0
 11
-1.0
 21
-0.166667
 31
0.0
  0
ENDBLK
  5
39
100
AcDbEntity
  8
0
100
AcDbBlockEnd
  0
BLOCK
  5
3A
100
AcDbEntity
  8
0
100
AcDbBlockBegin
  2
_EX_BNORM
 70
     0
 10
0.0
 20
0.0
 30
0.0
  3
_EX_BNORM
  1

  0
LINE
  5
3B
100
AcDbEntity
  8
0
  6
CONTINUOUS
 62
     0
100
AcDbLine
 10
0.0
 20
0.0
 30
0.0
 11
-1.0
 21
0.0
 31
0.0
  0
LINE
  5
3C
100
AcDbEntity
  8
0
  6
CONTINUOUS
 62
     0
100
AcDbLine
 10
0.0
 20
0.0
 30
0.0
 11
-1.0
 21
0.166667
 31
0.0
  0
LINE
  5
3D
100
AcDbEntity
  8
0
  6
CONTINUOUS
 62
     0
100
AcDbLine
 10
0.0
 20
0.0
 30
0.0
 11
-1.0
 21
-0.166667
 31
0.0
  0
LINE
  5
3E
100
AcDbEntity
  8
0
  6
CONTINUOUS
 62
     0
100
AcDbLine
 10
0.0
 20
0.0
 30
0.0
 11
-1.0
 21
0.083333
 31
0.0
  0
LINE
  5
3F
100
AcDbEntity
  8
0
  6
CONTINUOUS
 62
     0
100
AcDbLine
 10
0.0
 20
0.0
 30
0.0
 11
-1.0
 21
-0.083333
 31
0.0
  0
LINE
  5
40
100
AcDbEntity
  8
0
  6
CONTINUOUS
 62
     0
100
AcDbLine
 10
-1.0
 20
0.166667
 30
0.0
 11
-1.0
 21
-0.166667
 31
0.0
  0
ENDBLK
  5
41
100
AcDbEntity
  8
0
100
AcDbBlockEnd
  0
BLOCK
  5
42
100
AcDbEntity
  8
0
100
AcDbBlockBegin
  2
_EX_BCIR
 70
     0
 10
0.0
 20
0.0
 30
0.0
  3
_EX_BCIR
  1

  0
LINE
  5
43
100
AcDbEntity
  8
0
  6
CONTINUOUS
 62
     0
100
AcDbLine
 10
0.0
 20
0.0
 30
0.0
 11
-1.0
 21
0.0
 31
0.0
  0
CIRCLE
  5
44
100
AcDbEntity
  8
0
  6
CONTINUOUS
 62
     0
100
AcDbCircle
 10
0.0
 20
0.0
 30
0.0
 40
0.5
  0
CIRCLE
  5
45
100
AcDbEntity
  8
0
  6
CONTINUOUS
 62
     0
100
AcDbCircle
 10
0.0
 20
0.0
 30
0.0
 40
0.25
  0
ENDBLK
  5
46
100
AcDbEntity
  8
0
100
AcDbBlockEnd
  0
BLOCK
  5
47
100
AcDbEntity
  8
0
100
AcDbBlockBegin
  2
_EX_RCIVIL
 70
     0
 10
0.0
 20
0.0
 30
0.0
  3
_EX_RCIVIL
  1

  0
LINE
  5
48
100
AcDbEntity
  8
0
  6
CONTINUOUS
 62
     0
100
AcDbLine
 10
0.0
 20
0.0
 30
0.0
 11
-1.0
 21
0.0
 31
0.0
  0
LINE
  5
49
100
AcDbEntity
  8
0
  6
CONTINUOUS
 62
     0
100
AcDbLine
 10
-1.0
 20
-0.25
 30
0.0
 11
0.0
 21
-0.25
 31
0.0
  0
LINE
  5
4A
100
AcDbEntity
  8
0
  6
CONTINUOUS
 62
     0
100
AcDbLine
 10
-1.0
 20
-0.125
 30
0.0
 11
0.0
 21
-0.125
 31
0.0
  0
ENDBLK
  5
4B
100
AcDbEntity
  8
0
100
AcDbBlockEnd
  0
BLOCK
  5
4C
100
AcDbEntity
  8
0
100
AcDbBlockBegin
  2
_EX_SLANT
 70
     0
 10
0.0
 20
0.0
 30
0.0
  3
_EX_SLANT
  1

  0
LINE
  5
4D
100
AcDbEntity
  8
0
  6
CONTINUOUS
 62
     0
100
AcDbLine
 10
0.0
 20
0.0
 30
0.0
 11
-1.0
 21
0.0
 31
0.0
  0
LINE
  5
4E
100
AcDbEntity
  8
0
  6
CONTINUOUS
 62
     0
100
AcDbLine
 10
0.707107
 20
0.707107
 30
0.0
 11
-0.707107
 21
-0.707107
 31
0.0
  0
ENDBLK
  5
4F
100
AcDbEntity
  8
0
100
AcDbBlockEnd
  0
BLOCK
  5
50
100
AcDbEntity
  8
0
100
AcDbBlockBegin
  2
_EX_NONE
 70
     0
 10
0.0
 20
0.0
 30
0.0
  3
_EX_NONE
  1

  0
LINE
  5
51
100
AcDbEntity
  8
0
  6
CONTINUOUS
 62
     0
100
AcDbLine
 10
0.0
 20
0.0
 30
0.0
 11
-1.0
 21
0.0
 31
0.0
  0
ENDBLK
  5
52
100
AcDbEntity
  8
0
100
AcDbBlockEnd
  0
BLOCK
  5
53
100
AcDbEntity
  8
0
100
AcDbBlockBegin
  2
_EX_CIVIL
 70
     0
 10
0.0
 20
0.0
 30
0.0
  3
_EX_CIVIL
  1

  0
LINE
  5
54
100
AcDbEntity
  8
0
  6
CONTINUOUS
 62
     0
100
AcDbLine
 10
0.0
 20
0.0
 30
0.0
 11
-1.0
 21
0.0
 31
0.0
  0
LINE
  5
55
100
AcDbEntity
  8
0
  6
CONTINUOUS
 62
     0
100
AcDbLine
 10
-1.0
 20
0.25
 30
0.0
 11
0.0
 21
0.25
 31
0.0
  0
LINE
  5
56
100
AcDbEntity
  8
0
  6
CONTINUOUS
 62
     0
100
AcDbLine
 10
-1.0
 20
0.125
 30
0.0
 11
0.0
 21
0.125
 31
0.0
  0
ENDBLK
  5
57
100
AcDbEntity
  8
0
100
AcDbBlockEnd
  0
BLOCK
  5
58
100
AcDbEntity
  8
0
100
AcDbBlockBegin
  2
_EX_WCIR
 70
     0
 10
0.0
 20
0.0
 30
0.0
  3
_EX_WCIR
  1

  0
LINE
  5
59
100
AcDbEntity
  8
0
  6
CONTINUOUS
 62
     0
100
AcDbLine
 10
0.0
 20
0.0
 30
0.0
 11
-1.0
 21
0.0
 31
0.0
  0
CIRCLE
  5
5A
100
AcDbEntity
  8
0
  6
CONTINUOUS
 62
     0
100
AcDbCircle
 10
0.0
 20
0.0
 30
0.0
 40
0.5
  0
ENDBLK
  5
5B
100
AcDbEntity
  8
0
100
AcDbBlockEnd
  0
BLOCK
  5
5C
100
AcDbEntity
  8
0
100
AcDbBlockBegin
  2
_EX_WCIR2
 70
     0
 10
0.0
 20
0.0
 30
0.0
  3
_EX_WCIR2
  1

  0
LINE
  5
5D
100
AcDbEntity
  8
0
  6
CONTINUOUS
 62
     0
100
AcDbLine
 10
-0.5
 20
0.0
 30
0.0
 11
-1.0
 21
0.0
 31
0.0
  0
CIRCLE
  5
5E
100
AcDbEntity
  8
0
  6
CONTINUOUS
 62
     0
100
AcDbCircle
 10
0.0
 20
0.0
 30
0.0
 40
0.5
  0
ENDBLK
  5
5F
100
AcDbEntity
  8
0
100
AcDbBlockEnd
  0
BLOCK
  5
60
100
AcDbEntity
  8
0
100
AcDbBlockBegin
  2
_EX_WNORM
 70
     0
 10
0.0
 20
0.0
 30
0.0
  3
_EX_WNORM
  1

  0
LINE
  5
61
100
AcDbEntity
  8
0
  6
CONTINUOUS
 62
     0
100
AcDbLine
 10
-1.0
 20
0.0
 30
0.0
 11
-1.0
 21
0.0
 31
0.0
  0
LINE
  5
62
100
AcDbEntity
  8
0
  6
CONTINUOUS
 62
     0
100
AcDbLine
 10
0.0
 20
0.0
 30
0.0
 11
-1.0
 21
0.166667
 31
0.0
  0
LINE
  5
63
100
AcDbEntity
  8
0
  6
CONTINUOUS
 62
     0
100
AcDbLine
 10
0.0
 20
0.0
 30
0.0
 11
-1.0
 21
-0.166667
 31
0.0
  0
LINE
  5
64
100
AcDbEntity
  8
0
  6
CONTINUOUS
 62
     0
100
AcDbLine
 10
-1.0
 20
0.166667
 30
0.0
 11
-1.0
 21
-0.166667
 31
0.0
  0
ENDBLK
  5
65
100
AcDbEntity
  8
0
100
AcDbBlockEnd
  0
BLOCK
  5
66
100
AcDbEntity
  8
0
100
AcDbBlockBegin
  2
_EX_NNORM
 70
     0
 10
0.0
 20
0.0
 30
0.0
  3
_EX_NNORM
  1

  0
LINE
  5
67
100
AcDbEntity
  8
0
  6
CONTINUOUS
 62
     0
100
AcDbLine
 10
0.0
 20
0.0
 30
0.0
 11
-1.0
 21
0.0
 31
0.0
  0
LINE
  5
68
100
AcDbEntity
  8
0
  6
CONTINUOUS
 62
     0
100
AcDbLine
 10
0.0
 20
0.0
 30
0.0
 11
-1.0
 21
0.166667
 31
0.0
  0
LINE
  5
69
100
AcDbEntity
  8
0
  6
CONTINUOUS
 62
     0
100
AcDbLine
 10
0.0
 20
0.0
 30
0.0
 11
-1.0
 21
-0.166667
 31
0.0
  0
LINE
  5
6A
100
AcDbEntity
  8
0
  6
CONTINUOUS
 62
     0
100
AcDbLine
 10
-1.0
 20
0.166667
 30
0.0
 11
-1.0
 21
-0.166667
 31
0.0
  0
ENDBLK
  5
6B
100
AcDbEntity
  8
0
100
AcDbBlockEnd
  0
BLOCK
  5
6C
100
AcDbEntity
  8
0
100
AcDbBlockBegin
  2
_EX_BBOX
 70
     0
 10
0.0
 20
0.0
 30
0.0
  3
_EX_BBOX
  1

  0
LINE
  5
6D
100
AcDbEntity
  8
0
  6
CONTINUOUS
 62
     0
100
AcDbLine
 10
0.0
 20
0.0
 30
0.0
 11
-1.0
 21
0.0
 31
0.0
  0
LINE
  5
6E
100
AcDbEntity
  8
0
  6
CONTINUOUS
 62
     0
100
AcDbLine
 10
-0.5
 20
0.5
 30
0.0
 11
0.5
 21
0.5
 31
0.0
  0
LINE
  5
6F
100
AcDbEntity
  8
0
  6
CONTINUOUS
 62
     0
100
AcDbLine
 10
0.5
 20
0.5
 30
0.0
 11
0.5
 21
-0.5
 31
0.0
  0
LINE
  5
70
100
AcDbEntity
  8
0
  6
CONTINUOUS
 62
     0
100
AcDbLine
 10
0.5
 20
-0.5
 30
0.0
 11
-0.5
 21
-0.5
 31
0.0
  0
LINE
  5
71
100
AcDbEntity
  8
0
  6
CONTINUOUS
 62
     0
100
AcDbLine
 10
-0.5
 20
-0.5
 30
0.0
 11
-0.5
 21
0.5
 31
0.0
  0
LINE
  5
72
100
AcDbEntity
  8
0
  6
CONTINUOUS
 62
     0
100
AcDbLine
 10
-0.25
 20
0.25
 30
0.0
 11
0.25
 21
0.25
 31
0.0
  0
LINE
  5
73
100
AcDbEntity
  8
0
  6
CONTINUOUS
 62
     0
100
AcDbLine
 10
0.25
 20
0.25
 30
0.0
 11
0.25
 21
-0.25
 31
0.0
  0
LINE
  5
74
100
AcDbEntity
  8
0
  6
CONTINUOUS
 62
     0
100
AcDbLine
 10
0.25
 20
-0.25
 30
0.0
 11
-0.25
 21
-0.25
 31
0.0
  0
LINE
  5
75
100
AcDbEntity
  8
0
  6
CONTINUOUS
 62
     0
100
AcDbLine
 10
-0.25
 20
-0.25
 30
0.0
 11
-0.25
 21
0.25
 31
0.0
  0
ENDBLK
  5
76
100
AcDbEntity
  8
0
100
AcDbBlockEnd
  0
BLOCK
  5
77
100
AcDbEntity
  8
0
100
AcDbBlockBegin
  2
_EX_WBOX
 70
     0
 10
0.0
 20
0.0
 30
0.0
  3
_EX_WBOX
  1

  0
LINE
  5
78
100
AcDbEntity
  8
0
  6
CONTINUOUS
 62
     0
100
AcDbLine
 10
-0.5
 20
0.0
 30
0.0
 11
-1.0
 21
0.0
 31
0.0
  0
LINE
  5
79
100
AcDbEntity
  8
0
  6
CONTINUOUS
 62
     0
100
AcDbLine
 10
-0.5
 20
0.5
 30
0.0
 11
0.5
 21
0.5
 31
0.0
  0
LINE
  5
7A
100
AcDbEntity
  8
0
  6
CONTINUOUS
 62
     0
100
AcDbLine
 10
0.5
 20
0.5
 30
0.0
 11
0.5
 21
-0.5
 31
0.0
  0
LINE
  5
7B
100
AcDbEntity
  8
0
  6
CONTINUOUS
 62
     0
100
AcDbLine
 10
0.5
 20
-0.5
 30
0.0
 11
-0.5
 21
-0.5
 31
0.0
  0
LINE
  5
7C
100
AcDbEntity
  8
0
  6
CONTINUOUS
 62
     0
100
AcDbLine
 10
-0.5
 20
-0.5
 30
0.0
 11
-0.5
 21
0.5
 31
0.0
  0
ENDBLK
  5
7D
100
AcDbEntity
  8
0
100
AcDbBlockEnd
  0
BLOCK
  5
7E
100
AcDbEntity
  8
0
100
AcDbBlockBegin
  2
_EX_INTEGRAL
 70
     0
 10
0.0
 20
0.0
 30
0.0
  3
_EX_INTEGRAL
  1

  0
LINE
  5
7F
100
AcDbEntity
  8
0
  6
CONTINUOUS
 62
     0
100
AcDbLine
 10
0.0
 20
0.0
 30
0.0
 11
-1.0
 21
0.0
 31
0.0
  0
ARC
  5
80
100
AcDbEntity
  8
0
  6
CONTINUOUS
 62
     0
100
AcDbCircle
 10
0.542115
 20
0.164992
 30
0.0
 40
0.56667
100
AcDbArc
 50
73.07249
 51
196.927513
  0
ARC
  5
81
100
AcDbEntity
  8
0
  6
CONTINUOUS
 62
     0
100
AcDbCircle
 10
-0.542115
 20
-0.164992
 30
0.0
 40
0.56667
100
AcDbArc
 50
253.072487
 51
16.927513
  0
ENDBLK
  5
82
100
AcDbEntity
  8
0
100
AcDbBlockEnd
  0
ENDSEC
  0
SECTION
  2
ENTITIES
  0
LINE
  5
83
100
AcDbEntity
  8
LAY-1
  6
CONTINUOUS
 62
     1
100
AcDbLine
 10
524.843857
 20
258.248185
 30
0.0
 11
495.262287
 21
258.248185
 31
0.0
  0
LINE
  5
84
100
AcDbEntity
  8
LAY-1
  6
CONTINUOUS
 62
     1
100
AcDbLine
 10
567.362287
 20
384.248185
 30
0.0
 11
495.262287
 21
384.248185
 31
0.0
  0
TEXT
  5
85
100
AcDbEntity
  8
LAY-1
  6
CONTINUOUS
 62
     3
100
AcDbText
 10
494.762287
 20
298.748185
 30
0.0
 40
15.0
  1
１２６
 50
90.0
 41
0.84
  7
EXCADSTD
 72
     5
 11
494.762287
 21
343.748185
 31
0.0
100
AcDbText
  0
LINE
  5
86
100
AcDbEntity
  8
LAY-1
  6
CONTINUOUS
 62
     1
100
AcDbLine
 10
495.762287
 20
258.248185
 30
0.0
 11
495.762287
 21
384.248185
 31
0.0
  0
LINE
  5
87
100
AcDbEntity
  8
LAY-1
  6
CONTINUOUS
 62
     1
100
AcDbLine
 10
495.428953
 20
260.248185
 30
0.0
 11
495.762287
 21
258.248185
 31
0.0
  0
LINE
  5
88
100
AcDbEntity
  8
LAY-1
  6
CONTINUOUS
 62
     1
100
AcDbLine
 10
495.762287
 20
258.248185
 30
0.0
 11
496.09562
 21
260.248185
 31
0.0
  0
LINE
  5
89
100
AcDbEntity
  8
LAY-1
  6
CONTINUOUS
 62
     1
100
AcDbLine
 10
496.09562
 20
382.248185
 30
0.0
 11
495.762287
 21
384.248185
 31
0.0
  0
LINE
  5
8A
100
AcDbEntity
  8
LAY-1
  6
CONTINUOUS
 62
     1
100
AcDbLine
 10
495.762287
 20
384.248185
 30
0.0
 11
495.428953
 21
382.248185
 31
0.0
  0
TEXT
  5
8B
100
AcDbEntity
  8
LAY-1
  6
CONTINUOUS
 62
     3
100
AcDbText
 10
290.5
 20
191.3
 30
0.0
 40
15.0
  1
ＪＩＳ２０Ｋ　２０Ａフランジ
 41
0.84
  7
EXCADSTD
 72
     5
 11
500.5
 21
191.3
 31
0.0
100
AcDbText
  0
POLYLINE
  5
8C
100
AcDbEntity
  8
LAY-1
  6
CONTINUOUS
 62
     1
100
AcDb2dPolyline
 66
     1
 10
0.0
 20
0.0
 30
0.0
 70
   128
  0
VERTEX
  5
8D
100
AcDbEntity
  8
LAY-1
  6
CONTINUOUS
 62
     1
100
AcDbVertex
100
AcDb2dVertex
 10
538.75
 20
213.4
 30
0.0
  0
VERTEX
  5
8E
100
AcDbEntity
  8
LAY-1
  6
CONTINUOUS
 62
     1
100
AcDbVertex
100
AcDb2dVertex
 10
496.7
 20
191.0
 30
0.0
  0
VERTEX
  5
8F
100
AcDbEntity
  8
LAY-1
  6
CONTINUOUS
 62
     1
100
AcDbVertex
100
AcDb2dVertex
 10
297.7
 20
191.0
 30
0.0
  0
SEQEND
  5
90
100
AcDbEntity
  8
LAY-1
  6
CONTINUOUS
 62
     1
  0
LINE
  5
91
100
AcDbEntity
  8
LAY-1
  6
CONTINUOUS
 62
     1
100
AcDbLine
 10
537.141547
 20
212.1655
 30
0.0
 11
538.75
 21
213.4
 31
0.0
  0
LINE
  5
92
100
AcDbEntity
  8
LAY-1
  6
CONTINUOUS
 62
     1
100
AcDbLine
 10
538.75
 20
213.4
 30
0.0
 11
536.828112
 21
212.75389
 31
0.0
  0
TEXT
  5
93
100
AcDbEntity
  8
LAY-1
  6
CONTINUOUS
 62
     3
100
AcDbText
 10
684.5
 20
191.324574
 30
0.0
 40
15.0
  1
ＪＩＳ２０Ｋ　２０Ａフランジ
 41
0.84
  7
EXCADSTD
 72
     5
 11
894.5
 21
191.324574
 31
0.0
100
AcDbText
  0
POLYLINE
  5
94
100
AcDbEntity
  8
LAY-1
  6
CONTINUOUS
 62
     1
100
AcDb2dPolyline
 66
     1
 10
0.0
 20
0.0
 30
0.0
 70
   128
  0
VERTEX
  5
95
100
AcDbEntity
  8
LAY-1
  6
CONTINUOUS
 62
     1
100
AcDbVertex
100
AcDb2dVertex
 10
656.75
 20
213.2
 30
0.0
  0
VERTEX
  5
96
100
AcDbEntity
  8
LAY-1
  6
CONTINUOUS
 62
     1
100
AcDbVertex
100
AcDb2dVertex
 10
683.0
 20
191.0
 30
0.0
  0
VERTEX
  5
97
100
AcDbEntity
  8
LAY-1
  6
CONTINUOUS
 62
     1
100
AcDbVertex
100
AcDb2dVertex
 10
894.998547
 20
191.026048
 30
0.0
  0
SEQEND
  5
98
100
AcDbEntity
  8
LAY-1
  6
CONTINUOUS
 62
     1
  0
LINE
  5
99
100
AcDbEntity
  8
LAY-1
  6
CONTINUOUS
 62
     1
100
AcDbLine
 10
658.492352
 20
212.163024
 30
0.0
 11
656.75
 21
213.2
 31
0.0
  0
LINE
  5
9A
100
AcDbEntity
  8
LAY-1
  6
CONTINUOUS
 62
     1
100
AcDbLine
 10
656.75
 20
213.2
 30
0.0
 11
658.061855
 21
211.653989
 31
0.0
  0
TEXT
  5
9B
100
AcDbEntity
  8
LAY-1
  6
CONTINUOUS
 62
     3
100
AcDbText
 10
722.704
 20
312.296
 30
0.0
 40
12.0
  1
型式
 41
0.984714
  7
EXCADSTD
 72
     5
 11
748.492244
 21
312.296
 31
0.0
100
AcDbText
  0
TEXT
  5
9C
100
AcDbEntity
  8
LAY-1
  6
CONTINUOUS
 62
     3
100
AcDbText
 10
722.416
 20
295.4
 30
0.0
 40
12.0
  1
品名
 41
0.984714
  7
EXCADSTD
 72
     5
 11
748.204244
 21
295.4
 31
0.0
100
AcDbText
  0
LINE
  5
9D
100
AcDbEntity
  8
LAY-1
  6
CONTINUOUS
 62
     4
100
AcDbLine
 10
717.04
 20
278.36
 30
0.0
 11
932.08
 21
278.36
 31
0.0
  0
LINE
  5
9E
100
AcDbEntity
  8
LAY-1
  6
CONTINUOUS
 62
     1
100
AcDbLine
 10
717.04
 20
293.0
 30
0.0
 11
932.08
 21
293.0
 31
0.0
  0
TEXT
  5
9F
100
AcDbEntity
  8
LAY-1
  6
CONTINUOUS
 62
     3
100
AcDbText
 10
793.456
 20
279.944
 30
0.0
 40
12.0
  1
外観図
 41
1.47392
  7
EXCADSTD
 72
     5
 11
856.623999
 21
279.944
 31
0.0
100
AcDbText
  0
LINE
  5
A0
100
AcDbEntity
  8
LAY-1
  6
CONTINUOUS
 62
     4
100
AcDbLine
 10
717.04
 20
343.4
 30
0.0
 11
932.08
 21
343.4
 31
0.0
  0
LINE
  5
A1
100
AcDbEntity
  8
LAY-1
  6
CONTINUOUS
 62
     1
100
AcDbLine
 10
717.04
 20
309.8
 30
0.0
 11
932.08
 21
309.8
 31
0.0
  0
LINE
  5
A2
100
AcDbEntity
  8
LAY-1
  6
CONTINUOUS
 62
     1
100
AcDbLine
 10
717.04
 20
326.6
 30
0.0
 11
932.08
 21
326.6
 31
0.0
  0
LINE
  5
A3
100
AcDbEntity
  8
LAY-1
  6
CONTINUOUS
 62
     1
100
AcDbLine
 10
753.04
 20
343.4
 30
0.0
 11
753.04
 21
293.0
 31
0.0
  0
LINE
  5
A4
100
AcDbEntity
  8
LAY-1
  6
CONTINUOUS
 62
     4
100
AcDbLine
 10
717.04
 20
263.72
 30
0.0
 11
932.08
 21
263.72
 31
0.0
  0
LINE
  5
A5
100
AcDbEntity
  8
LAY-1
  6
CONTINUOUS
 62
     4
100
AcDbLine
 10
932.08
 20
263.72
 30
0.0
 11
932.08
 21
343.4
 31
0.0
  0
LINE
  5
A6
100
AcDbEntity
  8
LAY-1
  6
CONTINUOUS
 62
     4
100
AcDbLine
 10
717.04
 20
263.72
 30
0.0
 11
717.04
 21
343.4
 31
0.0
  0
TEXT
  5
A7
100
AcDbEntity
  8
LAY-1
  6
CONTINUOUS
 62
     3
100
AcDbText
 10
718.576
 20
328.712
 30
0.0
 40
12.0
  1
作成日
 41
0.84
  7
EXCADSTD
 72
     5
 11
754.576
 21
328.712
 31
0.0
100
AcDbText
  0
HATCH
  5
A8
100
AcDbEntity
  8
LAY-1
  6
CONTINUOUS
 62
     3
100
AcDbHatch
 10
0.0
 20
0.0
 30
0.0
210
0.0
220
0.0
230
1.0
  2
SOLID
 70
     1
 71
     1
 91
        1
 92
        1
 93
       16
 72
     1
 10
868.39593961674655
 20
267.37751428571397
 11
870.66779675960379
 21
267.37751428571397
 72
     1
 10
870.66779675960379
 20
267.37751428571397
 11
870.66779675960379
 21
265.91179999999974
 72
     1
 10
870.66779675960379
 20
265.91179999999974
 11
864.58508247388932
 21
265.91179999999974
 72
     1
 10
864.58508247388932
 20
265.91179999999974
 11
864.58508247388932
 21
267.37751428571397
 72
     1
 10
864.58508247388932
 20
267.37751428571397
 11
866.93022533103226
 21
267.37751428571397
 72
     1
 10
866.93022533103226
 20
267.37751428571397
 11
866.93022533103226
 21
271.62808571428536
 72
     1
 10
866.93022533103226
 20
271.62808571428536
 11
865.09808247388946
 21
271.62808571428536
 72
     1
 10
865.09808247388946
 20
271.62808571428536
 11
865.09808247388946
 21
273.09379999999976
 72
     1
 10
865.09808247388946
 20
273.09379999999976
 11
866.93022533103226
 21
273.09379999999976
 72
     1
 10
866.93022533103226
 20
273.09379999999976
 11
866.93022533103226
 21
276.17179999999968
 72
     1
 10
866.93022533103226
 20
276.17179999999968
 11
868.39593961674655
 21
276.17179999999968
 72
     1
 10
868.39593961674655
 20
276.17179999999968
 11
868.39593961674655
 21
273.09379999999976
 72
     1
 10
868.39593961674655
 20
273.09379999999976
 11
870.52122533103216
 21
273.09379999999976
 72
     1
 10
870.52122533103216
 20
273.09379999999976
 11
870.52122533103216
 21
271.62808571428536
 72
     1
 10
870.52122533103216
 20
271.62808571428536
 11
868.39593961674655
 21
271.62808571428536
 72
     1
 10
868.39593961674655
 20
271.62808571428536
 11
868.39593961674655
 21
267.37751428571397
 97
        0
 75
     0
 76
     1
 98
        1
 10
0.0
 20
0.0
  0
HATCH
  5
A9
100
AcDbEntity
  8
LAY-1
  6
CONTINUOUS
 62
     3
100
AcDbHatch
 10
0.0
 20
0.0
 30
0.0
210
0.0
220
0.0
230
1.0
  2
SOLID
 70
     1
 71
     1
 91
        1
 92
        1
 93
       17
 72
     2
 10
852.99718083032076
 20
279.01647607541577
 40
13.191428571428618
 50
44.165469
 51
51.472792
 73
     0
 72
     1
 10
861.2139396167463
 20
268.69665714285691
 11
860.47184634729911
 21
269.98200038949454
 72
     2
 10
852.99718083032076
 20
279.01647607541577
 40
11.725714285714325
 50
309.602625
 51
331.307968
 73
     1
 72
     1
 10
863.28312907316956
 20
273.38694285714257
 11
860.8475110453179
 21
273.38694285714257
 72
     1
 10
860.8475110453179
 20
273.38694285714257
 11
860.8475110453179
 21
274.70608571428545
 72
     1
 10
860.8475110453179
 20
274.70608571428545
 11
862.45979675960371
 21
274.70608571428545
 72
     1
 10
862.45979675960371
 20
274.70608571428545
 11
862.45979675960371
 21
276.17179999999968
 72
     1
 10
862.45979675960371
 20
276.17179999999968
 11
863.77893961674658
 21
276.17179999999968
 72
     1
 10
863.77893961674658
 20
276.17179999999968
 11
863.77893961674658
 21
274.70608571428545
 72
     1
 10
863.77893961674658
 20
274.70608571428545
 11
865.46451104531786
 21
274.70608571428545
 72
     2
 10
852.99718083032076
 20
279.01647607541577
 40
13.191428571428618
 50
19.072051
 51
32.871988
 73
     0
 72
     1
 10
864.07646806042203
 20
271.85664491623186
 11
865.83093961674626
 21
270.16237142857113
 72
     1
 10
865.83093961674626
 20
270.16237142857113
 11
864.79436523073628
 21
269.12579704256075
 72
     1
 10
864.79436523073628
 20
269.12579704256075
 11
863.77893961674658
 21
270.10638215964207
 72
     1
 10
863.77893961674658
 20
270.10638215964207
 11
863.77893961674658
 21
265.91179999999974
 72
     1
 10
863.77893961674658
 20
265.91179999999974
 11
862.45979675960371
 21
265.91179999999974
 72
     1
 10
862.45979675960371
 20
265.91179999999974
 11
862.45979675960371
 21
269.8255736425757
 97
        0
 75
     0
 76
     1
 98
        1
 10
0.0
 20
0.0
  0
HATCH
  5
AA
100
AcDbEntity
  8
LAY-1
  6
CONTINUOUS
 62
     3
100
AcDbHatch
 10
0.0
 20
0.0
 30
0.0
210
0.0
220
0.0
230
1.0
  2
SOLID
 70
     1
 71
     1
 91
        1
 92
        1
 93
       12
 72
     2
 10
871.53424398311972
 20
259.23302676792616
 40
20.666571428571498
 50
150.903074
 51
156.790773
 73
     1
 72
     1
 10
852.54017918158661
 20
267.37751428571391
 11
857.05277483924419
 21
267.37751428571403
 72
     2
 10
844.23424298050782
 20
263.69139369808295
 40
13.338000000000045
 50
16.043216
 51
21.362935
 73
     1
 72
     1
 10
856.65581115411965
 20
268.55008571428544
 11
858.06265390246062
 21
268.55008571428544
 72
     2
 10
844.23424298050782
 20
263.69139369808295
 40
14.657142857142906
 50
340.64078
 51
351.286733
 73
     0
 72
     1
 10
858.72222533103206
 20
265.91179999999974
 11
850.5875110453178
 21
265.91179999999974
 72
     2
 10
871.53424398311972
 20
259.23302676792616
 40
21.985714285714355
 50
197.684652
 51
207.200855
 73
     0
 72
     1
 10
851.97993961674638
 20
269.28294285714264
 11
849.92793961674647
 21
269.28294285714264
 72
     1
 10
849.92793961674647
 20
269.28294285714264
 11
849.92793961674647
 21
270.74865714285687
 72
     1
 10
849.92793961674647
 20
270.74865714285687
 11
859.30851104531803
 21
270.74865714285687
 72
     1
 10
859.30851104531803
 20
270.74865714285687
 11
859.30851104531803
 21
269.28294285714264
 72
     1
 10
859.30851104531803
 20
269.28294285714264
 11
853.47582873670467
 21
269.28294285714264
 97
        0
 75
     0
 76
     1
 98
        1
 10
0.0
 20
0.0
  0
HATCH
  5
AB
100
AcDbEntity
  8
LAY-1
  6
CONTINUOUS
 62
     3
100
AcDbHatch
 10
0.0
 20
0.0
 30
0.0
210
0.0
220
0.0
230
1.0
  2
SOLID
 70
     1
 71
     1
 91
        1
 92
        1
 93
       10
 72
     2
 10
871.62215061774145
 20
290.95773839129555
 40
23.45142857142865
 50
129.545698
 51
136.474664
 73
     0
 72
     1
 10
854.61822533103282
 20
274.80731960772061
 11
854.61822533103282
 21
276.17179999999968
 72
     1
 10
854.61822533103282
 20
276.17179999999968
 11
855.35108247388951
 21
276.17179999999968
 72
     2
 10
871.62215061774145
 20
290.95773839129555
 40
21.985714285714355
 50
222.262231
 51
237.763996
 73
     1
 72
     1
 10
859.89479675960365
 20
272.36094285714256
 11
858.94448891840966
 21
271.22841007332897
 72
     2
 10
871.62215061774145
 20
290.95773839129555
 40
23.45142857142865
 50
122.723968
 51
128.230009
 73
     0
 72
     1
 10
857.10993961674649
 20
272.53587003047431
 11
857.10993961674649
 21
271.40822857142825
 72
     1
 10
857.10993961674649
 20
271.40822857142825
 11
854.61822533103282
 21
271.40822857142825
 72
     1
 10
854.61822533103282
 20
271.40822857142825
 11
854.61822533103282
 21
272.87394285714254
 72
     1
 10
854.61822533103282
 20
272.87394285714254
 11
856.69077957822287
 21
272.87394285714254
 97
        0
 75
     0
 76
     1
 98
        1
 10
0.0
 20
0.0
  0
HATCH
  5
AC
100
AcDbEntity
  8
LAY-1
  6
CONTINUOUS
 62
     3
100
AcDbHatch
 10
0.0
 20
0.0
 30
0.0
210
0.0
220
0.0
230
1.0
  2
SOLID
 70
     1
 71
     1
 91
        1
 92
        1
 93
       10
 72
     2
 10
837.61430004432304
 20
290.95773839129555
 40
23.45142857142865
 50
51.769991
 51
57.276032
 73
     0
 72
     1
 10
850.29196174365484
 20
271.22841007332897
 11
849.34165390246085
 21
272.36094285714256
 72
     2
 10
837.61430004432304
 20
290.95773839129555
 40
21.985714285714355
 50
302.236004
 51
317.737769
 73
     1
 72
     1
 10
853.88536818817499
 20
276.17179999999968
 11
854.61822533103282
 21
276.17179999999968
 72
     1
 10
854.61822533103282
 20
276.17179999999968
 11
854.61822533103282
 21
274.80731960772141
 72
     2
 10
837.61430004432304
 20
290.95773839129555
 40
23.45142857142865
 50
43.525336
 51
50.454302
 73
     0
 72
     1
 10
852.54567108384163
 20
272.87394285714254
 11
854.61822533103282
 21
272.87394285714254
 72
     1
 10
854.61822533103282
 20
272.87394285714254
 11
854.61822533103282
 21
271.40822857142825
 72
     1
 10
854.61822533103282
 20
271.40822857142825
 11
852.12651104531801
 21
271.40822857142825
 72
     1
 10
852.12651104531801
 20
271.40822857142825
 11
852.12651104531801
 21
272.53587003047431
 97
        0
 75
     0
 76
     1
 98
        1
 10
0.0
 20
0.0
  0
HATCH
  5
AD
100
AcDbEntity
  8
LAY-1
  6
CONTINUOUS
 62
     3
100
AcDbHatch
 10
0.0
 20
0.0
 30
0.0
210
0.0
220
0.0
230
1.0
  2
SOLID
 70
     1
 71
     1
 91
        1
 92
        1
 93
       18
 72
     2
 10
826.82681392552399
 20
269.58501247382219
 40
20.520000000000067
 50
14.02954
 51
18.723021
 73
     1
 72
     1
 10
846.26092388932193
 20
276.17179999999968
 11
847.80265390246063
 21
276.17179999999968
 72
     2
 10
826.82681392552399
 20
269.58501247382219
 40
21.985714285714355
 50
342.566782
 51
346.922981
 73
     0
 72
     1
 10
848.24236818817485
 20
274.55951428571399
 11
848.8286539024607
 21
274.55951428571399
 72
     1
 10
848.8286539024607
 20
274.55951428571399
 11
848.8286539024607
 21
273.09379999999976
 72
     1
 10
848.8286539024607
 20
273.09379999999976
 11
846.0884325090708
 21
273.09379999999976
 72
     2
 10
861.28722533103212
 20
275.5122285714283
 40
15.390000000000052
 50
189.041096
 51
204.65198
 73
     1
 72
     2
 10
850.36520259852273
 20
270.49974543925794
 40
3.3726971528654888
 50
204.65198
 51
242.897449
 73
     1
 72
     1
 10
848.8286539024607
 20
267.49739566123776
 11
848.8286539024607
 21
265.91179999999974
 72
     2
 10
850.36520259852273
 20
270.49974543925794
 40
4.8384114385797794
 50
108.516212
 51
155.34802
 73
     0
 72
     2
 10
861.28722533103212
 20
275.5122285714283
 40
16.855714285714338
 50
155.34802
 51
171.750831
 73
     0
 72
     1
 10
844.60590921609287
 20
273.09379999999976
 11
839.00836818817493
 21
273.09379999999976
 72
     1
 10
839.00836818817493
 20
273.09379999999976
 11
839.00836818817493
 21
274.55951428571399
 72
     1
 10
839.00836818817493
 20
274.55951428571399
 11
844.45450625673539
 21
274.55951428571399
 72
     1
 10
844.45450625673539
 20
274.55951428571399
 11
844.39820399895189
 21
276.17179999999968
 72
     1
 10
844.39820399895189
 20
276.17179999999968
 11
845.8648117024527
 21
276.17179999999968
 72
     1
 10
845.8648117024527
 20
276.17179999999968
 11
845.9211139602362
 21
274.55951428571399
 72
     1
 10
845.9211139602362
 20
274.55951428571399
 11
846.73472018719531
 21
274.55951428571399
 97
        0
 75
     0
 76
     1
 98
        1
 10
0.0
 20
0.0
  0
HATCH
  5
AE
100
AcDbEntity
  8
LAY-1
  6
CONTINUOUS
 62
     3
100
AcDbHatch
 10
0.0
 20
0.0
 30
0.0
210
0.0
220
0.0
230
1.0
  2
SOLID
 70
     1
 71
     1
 91
        1
 92
        1
 93
       12
 72
     2
 10
834.39500124219057
 20
339.49187772334727
 40
71.820000000000235
 50
276.500664
 51
278.269357
 73
     1
 72
     1
 10
844.72465390246089
 20
268.4186009175167
 11
844.72465390246089
 21
266.93779999999975
 72
     2
 10
834.39500124219057
 20
339.49187772334727
 40
73.285714285714533
 50
81.897153
 51
86.39082
 73
     0
 72
     1
 10
839.00836818817493
 20
266.35151428571402
 11
839.00836818817493
 21
267.82020099242561
 72
     2
 10
834.39500124219057
 20
339.49187772334727
 40
71.820000000000235
 50
273.682937
 51
275.325087
 73
     1
 72
     1
 10
841.06036818817506
 20
267.98184148034557
 11
841.06036818817506
 21
270.3089428571426
 72
     1
 10
841.06036818817506
 20
270.3089428571426
 11
839.00836818817493
 21
270.3089428571426
 72
     1
 10
839.00836818817493
 20
270.3089428571426
 11
839.00836818817493
 21
271.77465714285682
 72
     1
 10
839.00836818817493
 20
271.77465714285682
 11
844.28493961674667
 21
271.77465714285682
 72
     1
 10
844.28493961674667
 20
271.77465714285682
 11
844.28493961674667
 21
270.3089428571426
 72
     1
 10
844.28493961674667
 20
270.3089428571426
 11
842.52608247388935
 21
270.3089428571426
 72
     1
 10
842.52608247388935
 20
270.3089428571426
 11
842.52608247388935
 21
268.13364121204074
 97
        0
 75
     0
 76
     1
 98
        1
 10
0.0
 20
0.0
  0
HATCH
  5
AF
100
AcDbEntity
  8
LAY-1
  6
CONTINUOUS
 62
     3
100
AcDbHatch
 10
0.0
 20
0.0
 30
0.0
210
0.0
220
0.0
230
1.0
  2
SOLID
 70
     1
 71
     1
 91
        1
 92
        1
 93
       30
 72
     2
 10
821.14759948871665
 20
278.51524347054612
 40
16.049571428571479
 50
37.940537
 51
46.713808
 73
     0
 72
     1
 10
832.15187496046292
 20
266.83215037056885
 11
831.16679675960359
 21
267.81722857142836
 72
     2
 10
821.14759948871665
 20
278.51524347054612
 40
14.657142857142915
 50
313.123325
 51
325.95222
 73
     1
 72
     1
 10
833.2920824738892
 20
270.3089428571426
 11
831.53322533103233
 21
270.3089428571426
 72
     1
 10
831.53322533103233
 20
270.3089428571426
 11
831.53322533103233
 21
271.77465714285682
 72
     1
 10
831.53322533103233
 20
271.77465714285682
 11
833.80508247388934
 21
271.77465714285682
 72
     1
 10
833.80508247388934
 20
271.77465714285682
 11
833.80508247388934
 21
273.24037142857117
 72
     1
 10
833.80508247388934
 20
273.24037142857117
 11
833.07430816412398
 21
273.24037142857117
 72
     2
 10
817.40172181313255
 20
276.34065243119056
 40
15.976285714285774
 50
11.189535
 51
14.746058
 73
     0
 72
     1
 10
832.85180384519117
 20
272.27412191647113
 11
831.6065110453178
 21
272.72737142857113
 72
     2
 10
817.40172181313255
 20
276.34065243119056
 40
14.657142857142915
 50
345.728313
 51
357.620387
 73
     1
 72
     1
 10
832.04622533103225
 20
275.73208571428984
 11
833.35593562312317
 21
275.5011484528826
 72
     2
 10
817.40172181313255
 20
276.34065243119056
 40
15.976285714285774
 50
3.012102
 51
6.401006
 73
     0
 72
     1
 10
833.27841076679101
 20
274.55951428571399
 11
833.80508247388934
 21
274.55951428571399
 72
     1
 10
833.80508247388934
 20
274.55951428571399
 11
833.80508247388934
 21
276.17179999999968
 72
     1
 10
833.80508247388934
 20
276.17179999999968
 11
835.27079675960363
 21
276.17179999999968
 72
     1
 10
835.27079675960363
 20
276.17179999999968
 11
835.27079675960363
 21
274.55951428571399
 72
     1
 10
835.27079675960363
 20
274.55951428571399
 11
837.24951104531794
 21
274.55951428571399
 72
     1
 10
837.24951104531794
 20
274.55951428571399
 11
837.24951104531794
 21
273.24037142857117
 72
     1
 10
837.24951104531794
 20
273.24037142857117
 11
835.27079675960363
 21
273.24037142857117
 72
     1
 10
835.27079675960363
 20
273.24037142857117
 11
835.27079675960363
 21
271.77465714285682
 72
     1
 10
835.27079675960363
 20
271.77465714285682
 11
837.54265390246087
 21
271.77465714285682
 72
     1
 10
837.54265390246087
 20
271.77465714285682
 11
837.54265390246087
 21
270.3089428571426
 72
     1
 10
837.54265390246087
 20
270.3089428571426
 11
835.78379675960355
 21
270.3089428571426
 72
     2
 10
847.92827974477609
 20
278.51524347054612
 40
14.657142857142915
 50
214.04778
 51
226.876675
 73
     1
 72
     1
 10
837.90908247388916
 20
267.81722857142836
 11
836.9240042730296
 21
266.83215037056885
 72
     2
 10
847.92827974477609
 20
278.51524347054612
 40
16.049571428571479
 50
133.286192
 51
142.059463
 73
     0
 72
     1
 10
835.27079675960363
 20
268.64727166673123
 11
835.27079675960363
 21
265.91179999999974
 72
     1
 10
835.27079675960363
 20
265.91179999999974
 11
833.80508247388934
 21
265.91179999999974
 72
     1
 10
833.80508247388934
 20
265.91179999999974
 11
833.80508247388934
 21
268.64727166673163
 97
        0
 75
     0
 76
     1
 98
        1
 10
0.0
 20
0.0
  0
HATCH
  5
B0
100
AcDbEntity
  8
LAY-1
  6
CONTINUOUS
 62
     3
100
AcDbHatch
 10
0.0
 20
0.0
 30
0.0
210
0.0
220
0.0
230
1.0
  2
SOLID
 70
     1
 71
     1
 91
        1
 92
        1
 93
       19
 72
     2
 10
815.11391985440628
 20
276.55902151411448
 40
15.976285714285769
 50
27.683433
 51
32.280505
 73
     0
 72
     1
 10
828.62096835234308
 20
268.02665102878768
 11
827.57579675960369
 21
268.8432285714282
 72
     2
 10
815.11391985440628
 20
276.55902151411448
 40
14.657142857142906
 50
328.236207
 51
344.845745
 73
     1
 72
     1
 10
829.26136818817486
 20
272.72737142857113
 11
827.9422253310322
 21
272.72737142857113
 72
     1
 10
827.9422253310322
 20
272.72737142857113
 11
827.9422253310322
 21
274.19308571428542
 72
     1
 10
827.9422253310322
 20
274.19308571428542
 11
829.26136818817508
 21
274.19308571428542
 72
     1
 10
829.26136818817508
 20
274.19308571428542
 11
829.26136818817508
 21
276.17179999999968
 72
     1
 10
829.26136818817508
 20
276.17179999999968
 11
830.72708247388937
 21
276.17179999999968
 72
     1
 10
830.72708247388937
 20
276.17179999999968
 11
830.72708247388937
 21
274.19308571428542
 72
     1
 10
830.72708247388937
 20
274.19308571428542
 11
831.38665390246069
 21
274.19308571428542
 72
     1
 10
831.38665390246069
 20
274.19308571428542
 11
831.38665390246069
 21
272.72737142857113
 72
     1
 10
831.38665390246069
 20
272.72737142857113
 11
830.72708247388925
 21
272.72737142857113
 72
     1
 10
830.72708247388925
 20
272.72737142857113
 11
831.53322533103233
 21
271.57608011399293
 72
     1
 10
831.53322533103233
 20
271.57608011399293
 11
831.53322533103233
 21
270.68377237460732
 72
     1
 10
831.53322533103233
 20
270.68377237460732
 11
831.09351104531765
 21
270.15974129489229
 72
     1
 10
831.09351104531765
 20
270.15974129489229
 11
830.72708247388937
 21
270.68305552879127
 72
     1
 10
830.72708247388937
 20
270.68305552879127
 11
830.72708247388937
 21
265.91179999999974
 72
     1
 10
830.72708247388937
 20
265.91179999999974
 11
829.26136818817508
 21
265.91179999999974
 72
     1
 10
829.26136818817508
 20
265.91179999999974
 11
829.26136818817508
 21
269.13666266615826
 97
        0
 75
     0
 76
     1
 98
        1
 10
0.0
 20
0.0
  0
HATCH
  5
B1
100
AcDbEntity
  8
LAY-1
  6
CONTINUOUS
 62
     3
100
AcDbHatch
 10
0.0
 20
0.0
 30
0.0
210
0.0
220
0.0
230
1.0
  2
SOLID
 70
     1
 71
     1
 91
        1
 92
        1
 93
        8
 72
     2
 10
821.27007996715497
 20
270.22099999999955
 40
2.8728000000000233
 50
270.0
 51
330.0
 73
     1
 72
     2
 10
819.84841266430249
 20
271.04179999999951
 40
4.5144000000000224
 50
330.0
 51
30.0
 73
     1
 72
     2
 10
821.27007996715497
 20
271.86259999999953
 40
2.872800000000022
 50
30.0
 51
90.0
 73
     1
 72
     1
 10
821.27007996715588
 20
274.73539999999946
 11
821.27007996715588
 21
276.37699999999984
 72
     2
 10
821.27007996715497
 20
271.86259999999987
 40
4.5144000000000144
 50
270.0
 51
330.0
 73
     0
 72
     2
 10
819.84841266430271
 20
271.04179999999974
 40
6.156000000000029
 50
330.0
 51
30.0
 73
     0
 72
     2
 10
821.2700799671552
 20
270.22099999999932
 40
4.5144000000000091
 50
30.0
 51
90.0
 73
     0
 72
     1
 10
821.27007996715588
 20
265.7065999999993
 11
821.27007996715588
 21
267.34819999999945
 97
        0
 75
     0
 76
     1
 98
        1
 10
0.0
 20
0.0
  0
HATCH
  5
B2
100
AcDbEntity
  8
LAY-1
  6
CONTINUOUS
 62
     3
100
AcDbHatch
 10
0.0
 20
0.0
 30
0.0
210
0.0
220
0.0
230
1.0
  2
SOLID
 70
     1
 71
     1
 91
        1
 92
        1
 93
        8
 72
     2
 10
821.2700799671552
 20
270.22099999999932
 40
4.5144000000000091
 50
90.0
 51
150.0
 73
     0
 72
     2
 10
822.69174727000745
 20
271.0417999999994
 40
6.1560000000000334
 50
150.0
 51
210.0
 73
     0
 72
     2
 10
821.27007996715497
 20
271.86259999999987
 40
4.5144000000000144
 50
210.0
 51
270.0
 73
     0
 72
     1
 10
821.27007996715588
 20
276.37699999999984
 11
821.27007996715588
 21
274.73539999999946
 72
     2
 10
821.27007996715497
 20
271.86259999999953
 40
2.872800000000022
 50
90.0
 51
150.0
 73
     1
 72
     2
 10
822.69174727000745
 20
271.04179999999951
 40
4.5144000000000233
 50
150.0
 51
210.0
 73
     1
 72
     2
 10
821.27007996715497
 20
270.22099999999955
 40
2.8728000000000233
 50
210.0
 51
270.0
 73
     1
 72
     1
 10
821.27007996715588
 20
267.34819999999945
 11
821.27007996715588
 21
265.7065999999993
 97
        0
 75
     0
 76
     1
 98
        1
 10
0.0
 20
0.0
  0
HATCH
  5
B3
100
AcDbEntity
  8
LAY-1
  6
CONTINUOUS
 62
     3
100
AcDbHatch
 10
0.0
 20
0.0
 30
0.0
210
0.0
220
0.0
230
1.0
  2
SOLID
 70
     1
 71
     1
 91
        1
 92
        1
 93
        4
 72
     1
 10
814.90887996715492
 20
269.19499999999948
 11
813.26727996715499
 21
269.19499999999948
 72
     1
 10
813.26727996715499
 20
269.19499999999948
 11
813.26727996715499
 21
270.83659999999952
 72
     1
 10
813.26727996715499
 20
270.83659999999952
 11
814.90887996715492
 21
270.83659999999952
 72
     1
 10
814.90887996715492
 20
270.83659999999952
 11
814.90887996715492
 21
269.19499999999937
 97
        0
 75
     0
 76
     1
 98
        1
 10
0.0
 20
0.0
  0
HATCH
  5
B4
100
AcDbEntity
  8
LAY-1
  6
CONTINUOUS
 62
     3
100
AcDbHatch
 10
0.0
 20
0.0
 30
0.0
210
0.0
220
0.0
230
1.0
  2
SOLID
 70
     1
 71
     1
 91
        1
 92
        1
 93
       16
 72
     1
 10
807.11127996715504
 20
274.53019999999947
 11
804.85407996715503
 21
274.53019999999947
 72
     1
 10
804.85407996715503
 20
274.53019999999947
 11
804.44367996715505
 21
272.27299999999951
 72
     1
 10
804.44367996715505
 20
272.27299999999951
 11
803.2124799671551
 21
272.27299999999951
 72
     1
 10
803.2124799671551
 20
272.27299999999951
 11
803.2124799671551
 21
276.17179999999951
 72
     1
 10
803.2124799671551
 20
276.17179999999951
 11
812.65167996715513
 21
276.17179999999951
 72
     1
 10
812.65167996715513
 20
276.17179999999951
 11
812.65167996715513
 21
272.27299999999951
 72
     1
 10
812.65167996715513
 20
272.27299999999951
 11
811.42047996715519
 21
272.27299999999951
 72
     1
 10
811.42047996715519
 20
272.27299999999951
 11
811.01007996715521
 21
274.53019999999947
 72
     1
 10
811.01007996715521
 20
274.53019999999947
 11
808.75287996715497
 21
274.53019999999947
 72
     1
 10
808.75287996715497
 20
274.53019999999947
 11
808.75287996715508
 21
267.55339999999944
 72
     1
 10
808.75287996715508
 20
267.55339999999944
 11
810.39447996715512
 21
267.14299999999946
 72
     1
 10
810.39447996715512
 20
267.14299999999946
 11
810.39447996715512
 21
265.91179999999946
 72
     1
 10
810.39447996715512
 20
265.91179999999946
 11
805.46967996715512
 21
265.91179999999946
 72
     1
 10
805.46967996715512
 20
265.91179999999946
 11
805.46967996715512
 21
267.14299999999946
 72
     1
 10
805.46967996715512
 20
267.14299999999946
 11
807.11127996715504
 21
267.55339999999944
 72
     1
 10
807.11127996715504
 20
267.55339999999944
 11
807.11127996715504
 21
274.53019999999947
 97
        0
 75
     0
 76
     1
 98
        1
 10
0.0
 20
0.0
  0
HATCH
  5
B5
100
AcDbEntity
  8
LAY-1
  6
CONTINUOUS
 62
     3
100
AcDbHatch
 10
0.0
 20
0.0
 30
0.0
210
0.0
220
0.0
230
1.0
  2
SOLID
 70
     1
 71
     1
 91
        1
 92
        1
 93
        4
 72
     1
 10
800.95527996715487
 20
269.19499999999948
 11
800.95527996715509
 21
270.83659999999958
 72
     1
 10
800.95527996715509
 20
270.83659999999958
 11
802.59687996715502
 21
270.83659999999952
 72
     1
 10
802.59687996715502
 20
270.83659999999952
 11
802.59687996715502
 21
269.19499999999948
 72
     1
 10
802.59687996715502
 20
269.19499999999948
 11
800.95527996715509
 21
269.19499999999948
 97
        0
 75
     0
 76
     1
 98
        1
 10
0.0
 20
0.0
  0
HATCH
  5
B6
100
AcDbEntity
  8
LAY-1
  6
CONTINUOUS
 62
     3
100
AcDbHatch
 10
0.0
 20
0.0
 30
0.0
210
0.0
220
0.0
230
1.0
  2
SOLID
 70
     1
 71
     1
 91
        1
 92
        1
 93
       12
 72
     1
 10
799.10847996715506
 20
276.17179999999951
 11
799.10847996715506
 21
274.94059999999945
 72
     1
 10
799.10847996715506
 20
274.94059999999945
 11
797.46687996715514
 21
274.53019999999947
 72
     1
 10
797.46687996715514
 20
274.53019999999947
 11
797.46687996715514
 21
267.55339999999944
 72
     1
 10
797.46687996715514
 20
267.55339999999944
 11
799.10847996715506
 21
267.14299999999946
 72
     1
 10
799.10847996715506
 20
267.14299999999946
 11
799.10847996715506
 21
265.91179999999946
 72
     1
 10
799.10847996715506
 20
265.91179999999946
 11
794.18367996715483
 21
265.91179999999946
 72
     1
 10
794.18367996715483
 20
265.91179999999946
 11
794.18367996715483
 21
267.14299999999946
 72
     1
 10
794.18367996715483
 20
267.14299999999946
 11
795.82527996715498
 21
267.55339999999944
 72
     1
 10
795.82527996715498
 20
267.55339999999944
 11
795.82527996715498
 21
274.53019999999947
 72
     1
 10
795.82527996715498
 20
274.53019999999947
 11
794.18367996715483
 21
274.94059999999945
 72
     1
 10
794.18367996715483
 20
274.94059999999945
 11
794.18367996715483
 21
276.17179999999951
 72
     1
 10
794.18367996715483
 20
276.17179999999951
 11
799.10847996715506
 21
276.17179999999951
 97
        0
 75
     0
 76
     1
 98
        1
 10
0.0
 20
0.0
  0
HATCH
  5
B7
100
AcDbEntity
  8
LAY-1
  6
CONTINUOUS
 62
     3
100
AcDbHatch
 10
0.0
 20
0.0
 30
0.0
210
0.0
220
0.0
230
1.0
  2
SOLID
 70
     1
 71
     1
 91
        1
 92
        1
 93
       15
 72
     2
 10
783.01583000300832
 20
271.04179999999974
 40
4.555895589558963
 50
124.301153
 51
180.0
 73
     0
 72
     1
 10
778.45993441344933
 20
271.04179999999997
 11
780.17904391397497
 21
271.04179999999997
 72
     2
 10
784.61180719030267
 20
271.04179999999974
 40
4.4327632763276466
 50
180.0
 51
199.464384
 73
     1
 72
     2
 10
780.36064771847703
 20
271.53352156669905
 40
1.9701170117012174
 50
272.086657
 51
294.619977
 73
     1
 72
     2
 10
780.92491086435462
 20
270.30219843438579
 40
0.6156615661566193
 50
294.619977
 51
0.0
 73
     1
 72
     1
 10
781.54057243051102
 20
270.30219843438579
 11
781.54057243051102
 21
271.04179999999997
 72
     1
 10
781.54057243051102
 20
271.04179999999997
 11
783.01816018928696
 21
271.04179999999997
 72
     1
 10
783.01816018928696
 20
271.04179999999997
 11
783.01816018928696
 21
270.30089205055009
 72
     2
 10
783.63382175544371
 20
270.30089205055009
 40
0.6156615661565941
 50
180.0
 51
245.380023
 73
     1
 72
     2
 10
784.19808490132118
 20
271.53221518286352
 40
1.9701170117014342
 50
245.380023
 51
267.913343
 73
     1
 72
     1
 10
784.12635100836906
 20
269.56340455499782
 11
784.12635100836906
 21
269.19400761530392
 72
     1
 10
784.12635100836906
 20
269.19400761530392
 11
780.58253261948767
 21
269.1940076153038
 72
     2
 10
784.61180719030267
 20
271.04179999999974
 40
4.4327632763276403
 50
204.635803
 51
268.19864
 73
     1
 72
     1
 10
784.47246558652751
 20
266.61122733030834
 11
784.47246558652751
 21
265.99468931360781
 72
     2
 10
784.61180719030267
 20
273.3813139513951
 40
7.3879387938794219
 50
91.080702
 51
124.301153
 73
     0
 97
        0
 75
     0
 76
     1
 98
        1
 10
0.0
 20
0.0
  0
HATCH
  5
B8
100
AcDbEntity
  8
LAY-1
  6
CONTINUOUS
 62
     3
100
AcDbHatch
 10
0.0
 20
0.0
 30
0.0
210
0.0
220
0.0
230
1.0
  2
SOLID
 70
     1
 71
     1
 91
        1
 92
        1
 93
       24
 72
     2
 10
783.75686456698099
 20
271.65746156615637
 40
0.6156615661566246
 50
90.0
 51
157.380135
 73
     1
 72
     2
 10
785.23445232575682
 20
271.04179999999985
 40
2.2163816381638264
 50
157.380135
 51
180.0
 73
     1
 72
     1
 10
783.01807068759297
 20
271.04179999999997
 11
781.54057243051102
 21
271.04179999999997
 72
     1
 10
781.54057243051102
 20
271.04179999999997
 11
781.54057243051102
 21
274.23818973127584
 72
     2
 10
784.61180719030267
 20
271.04179999999974
 40
4.4327632763276466
 50
133.856042
 51
180.0
 73
     1
 72
     1
 10
780.17904391397497
 20
271.04179999999997
 11
778.45993441344933
 21
271.04179999999997
 72
     2
 10
783.01583000300832
 20
271.04179999999974
 40
4.555895589558963
 50
180.0
 51
235.698847
 73
     0
 72
     2
 10
784.61180719030267
 20
268.70228604860432
 40
7.3879387938794379
 50
235.698847
 51
245.436008
 73
     0
 72
     1
 10
781.54057243051102
 20
275.42159826581496
 11
781.54057243051102
 21
276.09072354009362
 72
     2
 10
780.92491086435462
 20
276.09072354009362
 40
0.6156615661566158
 50
0.0
 51
65.380023
 73
     1
 72
     2
 10
780.36064771847703
 20
274.85940040778041
 40
1.9701170117011728
 50
65.380023
 51
87.913343
 73
     1
 72
     1
 10
780.43238161142926
 20
276.82821103564589
 11
780.43238161142926
 21
277.19760797533991
 72
     1
 10
780.43238161142926
 20
277.19760797533991
 11
784.12635100836906
 21
277.19760797533991
 72
     1
 10
784.12635100836906
 20
277.19760797533991
 11
784.12635100836906
 21
276.82821103564589
 72
     2
 10
784.19808490132118
 20
274.85940040778041
 40
1.9701170117011819
 50
92.086657
 51
114.619977
 73
     1
 72
     2
 10
783.63382175544371
 20
276.09072354009362
 40
0.6156615661566246
 50
114.619977
 51
180.0
 73
     1
 72
     1
 10
783.01816018928707
 20
276.09072354009362
 11
783.01816018928707
 21
275.91629525696158
 72
     2
 10
784.61180719030267
 20
268.70228604860432
 40
7.3879387938794201
 50
257.542857
 51
268.919298
 73
     0
 72
     1
 10
784.47246558652751
 20
276.08891068639161
 11
784.47246558652751
 21
275.47237266969114
 72
     2
 10
784.61180719030267
 20
271.04179999999974
 40
4.4327632763276466
 50
91.80136
 51
111.070443
 73
     1
 72
     1
 10
783.01816018928696
 20
275.17818483462435
 11
783.01816018928696
 21
272.88878469846952
 72
     1
 10
783.01816018928696
 20
272.88878469846952
 11
784.47246558652773
 21
272.88878469846952
 72
     1
 10
784.47246558652773
 20
272.88878469846952
 11
784.47246558652751
 21
272.27312313231295
 72
     1
 10
784.47246558652751
 20
272.27312313231295
 11
783.75686456698099
 21
272.27312313231295
 97
        0
 75
     0
 76
     1
 98
        1
 10
0.0
 20
0.0
  0
HATCH
  5
B9
100
AcDbEntity
  8
LAY-1
  6
CONTINUOUS
 62
     3
100
AcDbHatch
 10
0.0
 20
0.0
 30
0.0
210
0.0
220
0.0
230
1.0
  2
SOLID
 70
     1
 71
     1
 91
        1
 92
        1
 93
       14
 72
     2
 10
784.61180719030267
 20
271.04179999999974
 40
4.4327632763276554
 50
0.0
 51
9.281799
 73
     1
 72
     2
 10
788.3789315978247
 20
271.65746156615637
 40
0.6156615661566121
 50
9.281799
 51
90.0
 73
     1
 72
     1
 10
788.3789315978247
 20
272.27312313231295
 11
787.0744534549292
 21
272.27312313231295
 72
     1
 10
787.0744534549292
 20
272.27312313231295
 11
787.0744534549292
 21
271.04179999999997
 72
     1
 10
787.0744534549292
 20
271.04179999999997
 11
785.59686569615326
 21
271.04179999999997
 72
     1
 10
785.59686569615326
 20
271.04179999999997
 11
785.59686569615326
 21
272.27312313231295
 72
     1
 10
785.59686569615326
 20
272.27312313231295
 11
784.47246558652751
 21
272.27312313231295
 72
     1
 10
784.47246558652751
 20
272.27312313231295
 11
784.47246558652751
 21
272.88878469846952
 72
     1
 10
784.47246558652751
 20
272.88878469846952
 11
788.64145206145167
 21
272.88878469846952
 72
     2
 10
784.61180719030267
 20
271.04179999999974
 40
4.4327632763276466
 50
24.624318
 51
91.80136
 73
     1
 72
     1
 10
784.47246558652751
 20
275.47237266969114
 11
784.47246558652751
 21
276.08891068639161
 72
     2
 10
784.61180719030267
 20
268.70228604860432
 40
7.3879387938794201
 50
268.919298
 51
304.301153
 73
     0
 72
     2
 10
786.20778437759691
 20
271.04179999999974
 40
4.5558955895589675
 50
304.301153
 51
0.0
 73
     0
 72
     1
 10
790.76367996715589
 20
271.04179999999997
 11
789.04457046663015
 21
271.04179999999997
 97
        0
 75
     0
 76
     1
 98
        1
 10
0.0
 20
0.0
  0
HATCH
  5
BA
100
AcDbEntity
  8
LAY-1
  6
CONTINUOUS
 62
     3
100
AcDbHatch
 10
0.0
 20
0.0
 30
0.0
210
0.0
220
0.0
230
1.0
  2
SOLID
 70
     1
 71
     1
 91
        1
 92
        1
 93
       19
 72
     2
 10
784.61180719030267
 20
271.04179999999974
 40
4.4327632763276554
 50
303.748989
 51
0.0
 73
     1
 72
     1
 10
789.04457046663015
 20
271.04179999999997
 11
790.76367996715589
 21
271.04179999999997
 72
     2
 10
786.20778437759691
 20
271.04179999999974
 40
4.5558955895589675
 50
0.0
 51
55.698847
 73
     0
 72
     2
 10
784.61180719030267
 20
273.38131395139516
 40
7.3879387938794325
 50
55.698847
 51
70.528779
 73
     0
 72
     1
 10
787.0744534549292
 20
266.41589845787064
 11
787.0744534549292
 21
265.99206877367982
 72
     2
 10
787.6901150210856
 20
265.99206877367982
 40
0.6156615661566193
 50
180.0
 51
245.380023
 73
     1
 72
     2
 10
788.25437816696331
 20
267.22339190599303
 40
1.9701170117011781
 50
245.380023
 51
267.913343
 73
     1
 72
     1
 10
788.18264427401095
 20
265.25458127812755
 11
788.18264427401095
 21
264.88518433843353
 72
     1
 10
788.18264427401095
 20
264.88518433843353
 11
784.48867487707139
 21
264.88518433843353
 72
     1
 10
784.48867487707139
 20
264.88518433843353
 11
784.48867487707139
 21
265.25458127812755
 72
     2
 10
784.41694098411926
 20
267.22339190599303
 40
1.9701170117011781
 50
272.086657
 51
294.619977
 73
     1
 72
     2
 10
784.98120412999651
 20
265.99206877367982
 40
0.6156615661566193
 50
294.619977
 51
0.0
 73
     1
 72
     1
 10
785.59686569615326
 20
265.99206877367982
 11
785.59686569615326
 21
266.05934021734225
 72
     2
 10
784.61180719030267
 20
273.3813139513951
 40
7.3879387938794219
 50
82.337744
 51
91.080702
 73
     0
 72
     1
 10
784.47246558652751
 20
265.99468931360781
 11
784.47246558652751
 21
266.61122733030834
 72
     2
 10
784.61180719030267
 20
271.04179999999974
 40
4.4327632763276403
 50
268.19864
 51
282.839588
 73
     1
 72
     1
 10
785.59686569615326
 20
266.71987334583145
 11
785.59686569615326
 21
271.04179999999997
 72
     1
 10
785.59686569615326
 20
271.04179999999997
 11
787.0744534549292
 21
271.04179999999997
 72
     1
 10
787.0744534549292
 20
271.04179999999997
 11
787.0744534549292
 21
267.35604856517932
 97
        0
 75
     0
 76
     1
 98
        1
 10
0.0
 20
0.0
  0
TEXT
  5
BB
100
AcDbEntity
  8
LAY-1
  6
CONTINUOUS
 62
     3
100
AcDbText
 10
765.328
 20
328.712
 30
0.0
 40
12.0
  1
２０１４年　６月２６日
 41
0.84
  7
EXCADSTD
 72
     5
 11
897.328
 21
328.712
 31
0.0
100
AcDbText
  0
TEXT
  5
BC
100
AcDbEntity
  8
LAY-1
  6
CONTINUOUS
 62
     3
100
AcDbText
 10
759.0016
 20
312.152
 30
0.0
 40
12.0
  1
Ｄ７－２０Ｆ
 41
0.84
  7
EXCADSTD
 72
     5
 11
831.0016
 21
312.152
 31
0.0
100
AcDbText
  0
TEXT
  5
BD
100
AcDbEntity
  8
LAY-1
  6
CONTINUOUS
 62
     3
100
AcDbText
 10
758.9824
 20
295.4096
 30
0.0
 40
12.0
  1
２０Ａフランジ式ストレーナバルブ
 41
0.654314
  7
EXCADSTD
 72
     5
 11
908.539922
 21
295.4096
 31
0.0
100
AcDbText
  0
TEXT
  5
BE
100
AcDbEntity
  8
LAY-1
  6
CONTINUOUS
 62
     3
100
AcDbText
 10
575.25
 20
417.262287
 30
0.0
 40
15.0
  1
φ
 41
0.84
  7
EXCADSTD
 72
     5
 11
587.25
 21
417.262287
 31
0.0
100
AcDbText
  0
TEXT
  5
BF
100
AcDbEntity
  8
LAY-1
  6
CONTINUOUS
 62
     3
100
AcDbText
 10
590.25
 20
417.262287
 30
0.0
 40
15.0
  1
８０
 41
0.84
  7
EXCADSTD
 72
     5
 11
617.748
 21
417.262287
 31
0.0
100
AcDbText
  0
LINE
  5
C0
100
AcDbEntity
  8
LAY-1
  6
CONTINUOUS
 62
     1
100
AcDbLine
 10
557.75
 20
377.748185
 30
0.0
 11
557.75
 21
416.762287
 31
0.0
  0
LINE
  5
C1
100
AcDbEntity
  8
LAY-1
  6
CONTINUOUS
 62
     1
100
AcDbLine
 10
637.75
 20
377.748185
 30
0.0
 11
637.75
 21
416.762287
 31
0.0
  0
LINE
  5
C2
100
AcDbEntity
  8
LAY-1
  6
CONTINUOUS
 62
     1
100
AcDbLine
 10
557.75
 20
416.262287
 30
0.0
 11
637.75
 21
416.262287
 31
0.0
  0
LINE
  5
C3
100
AcDbEntity
  8
LAY-1
  6
CONTINUOUS
 62
     1
100
AcDbLine
 10
559.75
 20
416.59562
 30
0.0
 11
557.75
 21
416.262287
 31
0.0
  0
LINE
  5
C4
100
AcDbEntity
  8
LAY-1
  6
CONTINUOUS
 62
     1
100
AcDbLine
 10
557.75
 20
416.262287
 30
0.0
 11
559.75
 21
415.928953
 31
0.0
  0
LINE
  5
C5
100
AcDbEntity
  8
LAY-1
  6
CONTINUOUS
 62
     1
100
AcDbLine
 10
635.75
 20
415.928953
 30
0.0
 11
637.75
 21
416.262287
 31
0.0
  0
LINE
  5
C6
100
AcDbEntity
  8
LAY-1
  6
CONTINUOUS
 62
     1
100
AcDbLine
 10
637.75
 20
416.262287
 30
0.0
 11
635.75
 21
416.59562
 31
0.0
  0
TEXT
  5
C7
100
AcDbEntity
  8
LAY-1
  6
CONTINUOUS
 62
     3
100
AcDbText
 10
579.05514
 20
524.107147
 30
0.0
 40
3.6
  1
ＯＰＥＮ
 50
35.0
 41
0.659167
  7
EXCADSTD
 72
     5
 11
588.311558
 21
530.588561
 31
0.0
100
AcDbText
  0
TEXT
  5
C8
100
AcDbEntity
  8
LAY-1
  6
CONTINUOUS
 62
     3
100
AcDbText
 10
607.188442
 20
530.588561
 30
0.0
 40
3.6
  1
ＳＨＵＴ
 50
325.0
 41
0.659167
  7
EXCADSTD
 72
     5
 11
616.44486
 21
524.107147
 31
0.0
100
AcDbText
  0
TEXT
  5
C9
100
AcDbEntity
  8
LAY-1
  6
CONTINUOUS
 62
     3
100
AcDbText
 10
580.85
 20
251.448185
 30
0.0
 40
8.0
  1
２０　２０
 41
0.735
  7
EXCADSTD
 72
     5
 11
615.85
 21
251.448185
 31
0.0
100
AcDbText
  0
TEXT
  5
CA
100
AcDbEntity
  8
LAY-1
  6
CONTINUOUS
 62
     3
100
AcDbText
 10
594.35
 20
254.948185
 30
0.0
 40
5.0
  1
Ｋ
 41
1.176
  7
EXCADSTD
 72
     5
 11
599.95
 21
254.948185
 31
0.0
100
AcDbText
  0
TEXT
  5
CB
100
AcDbEntity
  8
LAY-1
  6
CONTINUOUS
 62
     3
100
AcDbText
 10
580.75
 20
261.748185
 30
0.0
 40
8.0
  1
ＦＣＤ－Ｓ
 41
0.735
  7
EXCADSTD
 72
     5
 11
615.75
 21
261.748185
 31
0.0
100
AcDbText
  0
LINE
  5
CC
100
AcDbEntity
  8
LAY-1
  6
CONTINUOUS
 62
     3
100
AcDbLine
 10
595.35
 20
253.548185
 30
0.0
 11
599.55
 21
253.548185
 31
0.0
  0
TEXT
  5
CD
100
AcDbEntity
  8
LAY-1
  6
CONTINUOUS
 62
     3
100
AcDbText
 10
619.85
 20
756.876388
 30
0.0
 40
8.0
  1
２Ｈ０５
 50
180.0
 41
0.72713
  7
EXCADSTD
 72
     5
 11
592.14982
 21
756.876388
 31
0.0
100
AcDbText
  0
LINE
  5
CE
100
AcDbEntity
  8
LAY-1
  6
EXLTYPE3
 62
     1
100
AcDbLine
 10
664.040493
 20
540.312287
 30
0.0
 11
636.385563
 21
540.312287
 31
0.0
  0
LINE
  5
CF
100
AcDbEntity
  8
LAY-1
  6
EXLTYPE3
 62
     1
100
AcDbLine
 10
664.040493
 20
465.312287
 30
0.0
 11
636.385563
 21
465.312287
 31
0.0
  0
LINE
  5
D0
100
AcDbEntity
  8
LAY-1
  6
EXLTYPE3
 62
     1
100
AcDbLine
 10
531.459507
 20
465.312287
 30
0.0
 11
559.927817
 21
465.312287
 31
0.0
  0
LINE
  5
D1
100
AcDbEntity
  8
LAY-1
  6
EXLTYPE3
 62
     1
100
AcDbLine
 10
531.459507
 20
540.312287
 30
0.0
 11
559.927817
 21
540.312287
 31
0.0
  0
LINE
  5
D2
100
AcDbEntity
  8
LAY-1
  6
EXLTYPE3
 62
     1
100
AcDbLine
 10
524.843857
 20
502.812287
 30
0.0
 11
670.656143
 21
502.812287
 31
0.0
  0
LINE
  5
D3
100
AcDbEntity
  8
LAY-1
  6
EXLTYPE3
 62
     1
100
AcDbLine
 10
664.040493
 20
295.748185
 30
0.0
 11
636.385563
 21
295.748185
 31
0.0
  0
LINE
  5
D4
100
AcDbEntity
  8
LAY-1
  6
EXLTYPE3
 62
     1
100
AcDbLine
 10
664.040493
 20
220.748185
 30
0.0
 11
636.385563
 21
220.748185
 31
0.0
  0
LINE
  5
D5
100
AcDbEntity
  8
LAY-1
  6
EXLTYPE3
 62
     1
100
AcDbLine
 10
531.459507
 20
220.748185
 30
0.0
 11
559.927817
 21
220.748185
 31
0.0
  0
LINE
  5
D6
100
AcDbEntity
  8
LAY-1
  6
EXLTYPE3
 62
     1
100
AcDbLine
 10
531.459507
 20
295.748185
 30
0.0
 11
559.927817
 21
295.748185
 31
0.0
  0
LINE
  5
D7
100
AcDbEntity
  8
LAY-1
  6
CONTINUOUS
 62
     1
100
AcDbLine
 10
591.776731
 20
172.748185
 30
0.0
 11
590.871101
 21
171.189339
 31
0.0
  0
LINE
  5
D8
100
AcDbEntity
  8
LAY-1
  6
CONTINUOUS
 62
     1
100
AcDbLine
 10
603.723269
 20
172.748185
 30
0.0
 11
604.628899
 21
171.189339
 31
0.0
  0
LINE
  5
D9
100
AcDbEntity
  8
LAY-1
  6
CONTINUOUS
 62
     1
100
AcDbLine
 10
603.704452
 20
174.748185
 30
0.0
 11
603.723269
 21
172.748185
 31
0.0
  0
LINE
  5
DA
100
AcDbEntity
  8
LAY-1
  6
CONTINUOUS
 62
     1
100
AcDbLine
 10
591.795548
 20
174.748185
 30
0.0
 11
591.776731
 21
172.748185
 31
0.0
  0
LINE
  5
DB
100
AcDbEntity
  8
LAY-1
  6
CONTINUOUS
 62
     1
100
AcDbLine
 10
582.562
 20
349.748185
 30
0.0
 11
581.75
 21
351.15461
 31
0.0
  0
LINE
  5
DC
100
AcDbEntity
  8
LAY-1
  6
CONTINUOUS
 62
     1
100
AcDbLine
 10
612.938
 20
349.748185
 30
0.0
 11
613.75
 21
351.15461
 31
0.0
  0
LINE
  5
DD
100
AcDbEntity
  8
LAY-1
  6
EXLTYPE3
 62
     1
100
AcDbLine
 10
670.656143
 20
258.248185
 30
0.0
 11
524.843857
 21
258.248185
 31
0.0
  0
LINE
  5
DE
100
AcDbEntity
  8
LAY-1
  6
EXLTYPE3
 62
     1
100
AcDbLine
 10
664.040493
 20
709.876388
 30
0.0
 11
636.385563
 21
709.876388
 31
0.0
  0
LINE
  5
DF
100
AcDbEntity
  8
LAY-1
  6
EXLTYPE3
 62
     1
100
AcDbLine
 10
664.040493
 20
784.876388
 30
0.0
 11
636.385563
 21
784.876388
 31
0.0
  0
LINE
  5
E0
100
AcDbEntity
  8
LAY-1
  6
EXLTYPE3
 62
     1
100
AcDbLine
 10
531.459507
 20
784.876388
 30
0.0
 11
559.927817
 21
784.876388
 31
0.0
  0
LINE
  5
E1
100
AcDbEntity
  8
LAY-1
  6
EXLTYPE3
 62
     1
100
AcDbLine
 10
531.459507
 20
709.876388
 30
0.0
 11
559.927817
 21
709.876388
 31
0.0
  0
LINE
  5
E2
100
AcDbEntity
  8
LAY-1
  6
CONTINUOUS
 62
     1
100
AcDbLine
 10
591.776731
 20
832.876388
 30
0.0
 11
590.871101
 21
834.435234
 31
0.0
  0
LINE
  5
E3
100
AcDbEntity
  8
LAY-1
  6
CONTINUOUS
 62
     1
100
AcDbLine
 10
603.723269
 20
832.876388
 30
0.0
 11
604.628899
 21
834.435234
 31
0.0
  0
LINE
  5
E4
100
AcDbEntity
  8
LAY-1
  6
CONTINUOUS
 62
     1
100
AcDbLine
 10
603.704452
 20
830.876388
 30
0.0
 11
603.723269
 21
832.876388
 31
0.0
  0
LINE
  5
E5
100
AcDbEntity
  8
LAY-1
  6
CONTINUOUS
 62
     1
100
AcDbLine
 10
591.795548
 20
830.876388
 30
0.0
 11
591.776731
 21
832.876388
 31
0.0
  0
LINE
  5
E6
100
AcDbEntity
  8
LAY-1
  6
CONTINUOUS
 62
     1
100
AcDbLine
 10
582.562
 20
655.876388
 30
0.0
 11
581.75
 21
654.469963
 31
0.0
  0
LINE
  5
E7
100
AcDbEntity
  8
LAY-1
  6
CONTINUOUS
 62
     1
100
AcDbLine
 10
612.938
 20
655.876388
 30
0.0
 11
613.75
 21
654.469963
 31
0.0
  0
LINE
  5
E8
100
AcDbEntity
  8
LAY-1
  6
EXLTYPE3
 62
     1
100
AcDbLine
 10
670.656143
 20
747.376388
 30
0.0
 11
524.843857
 21
747.376388
 31
0.0
  0
LINE
  5
E9
100
AcDbEntity
  8
LAY-1
  6
CONTINUOUS
 62
     1
100
AcDbLine
 10
240.062287
 20
496.857835
 30
0.0
 11
238.062287
 21
496.839018
 31
0.0
  0
LINE
  5
EA
100
AcDbEntity
  8
LAY-1
  6
CONTINUOUS
 62
     1
100
AcDbLine
 10
240.062287
 20
508.766738
 30
0.0
 11
238.062287
 21
508.785555
 31
0.0
  0
LINE
  5
EB
100
AcDbEntity
  8
LAY-1
  6
CONTINUOUS
 62
     1
100
AcDbLine
 10
238.062287
 20
508.785555
 30
0.0
 11
236.503441
 21
509.691186
 31
0.0
  0
LINE
  5
EC
100
AcDbEntity
  8
LAY-1
  6
CONTINUOUS
 62
     1
100
AcDbLine
 10
238.062287
 20
496.839018
 30
0.0
 11
236.503441
 21
495.933388
 31
0.0
  0
LINE
  5
ED
100
AcDbEntity
  8
LAY-1
  6
CONTINUOUS
 62
     1
100
AcDbLine
 10
415.062287
 20
518.000287
 30
0.0
 11
416.468712
 21
518.812287
 31
0.0
  0
LINE
  5
EE
100
AcDbEntity
  8
LAY-1
  6
CONTINUOUS
 62
     1
100
AcDbLine
 10
415.062287
 20
487.624287
 30
0.0
 11
416.468712
 21
486.812287
 31
0.0
  0
LINE
  5
EF
100
AcDbEntity
  8
LAY-1
  6
EXLTYPE3
 62
     1
100
AcDbLine
 10
464.126388
 20
502.812287
 30
0.0
 11
224.326388
 21
502.812287
 31
0.0
  0
LINE
  5
F0
100
AcDbEntity
  8
LAY-1
  6
EXLTYPE3
 62
     1
100
AcDbLine
 10
323.562287
 20
441.414737
 30
0.0
 11
323.562287
 21
564.209837
 31
0.0
  0
LINE
  5
F1
100
AcDbEntity
  8
LAY-1
  6
CONTINUOUS
 62
     1
100
AcDbLine
 10
955.437713
 20
496.857835
 30
0.0
 11
957.437713
 21
496.839018
 31
0.0
  0
LINE
  5
F2
100
AcDbEntity
  8
LAY-1
  6
CONTINUOUS
 62
     1
100
AcDbLine
 10
955.437713
 20
508.766738
 30
0.0
 11
957.437713
 21
508.785555
 31
0.0
  0
LINE
  5
F3
100
AcDbEntity
  8
LAY-1
  6
CONTINUOUS
 62
     1
100
AcDbLine
 10
957.437713
 20
508.785555
 30
0.0
 11
958.996559
 21
509.691186
 31
0.0
  0
LINE
  5
F4
100
AcDbEntity
  8
LAY-1
  6
CONTINUOUS
 62
     1
100
AcDbLine
 10
957.437713
 20
496.839018
 30
0.0
 11
958.996559
 21
495.933388
 31
0.0
  0
LINE
  5
F5
100
AcDbEntity
  8
LAY-1
  6
CONTINUOUS
 62
     1
100
AcDbLine
 10
780.437713
 20
518.000287
 30
0.0
 11
779.031288
 21
518.812287
 31
0.0
  0
LINE
  5
F6
100
AcDbEntity
  8
LAY-1
  6
CONTINUOUS
 62
     1
100
AcDbLine
 10
780.437713
 20
487.624287
 30
0.0
 11
779.031288
 21
486.812287
 31
0.0
  0
LINE
  5
F7
100
AcDbEntity
  8
LAY-1
  6
EXLTYPE3
 62
     1
100
AcDbLine
 10
731.373612
 20
502.812287
 30
0.0
 11
971.173612
 21
502.812287
 31
0.0
  0
LINE
  5
F8
100
AcDbEntity
  8
LAY-1
  6
EXLTYPE3
 62
     1
100
AcDbLine
 10
871.937713
 20
441.414737
 30
0.0
 11
871.937713
 21
564.209837
 31
0.0
  0
LINE
  5
F9
100
AcDbEntity
  8
LAY-1
  6
CONTINUOUS
 62
     7
100
AcDbLine
 10
656.75
 20
531.812287
 30
0.0
 11
657.75
 21
531.812287
 31
0.0
  0
LINE
  5
FA
100
AcDbEntity
  8
LAY-1
  6
CONTINUOUS
 62
     7
100
AcDbLine
 10
657.75
 20
531.812287
 30
0.0
 11
657.75
 21
473.812287
 31
0.0
  0
LINE
  5
FB
100
AcDbEntity
  8
LAY-1
  6
CONTINUOUS
 62
     7
100
AcDbLine
 10
657.75
 20
473.812287
 30
0.0
 11
656.75
 21
473.812287
 31
0.0
  0
LINE
  5
FC
100
AcDbEntity
  8
LAY-1
  6
CONTINUOUS
 62
     7
100
AcDbLine
 10
641.75
 20
452.812287
 30
0.0
 11
656.75
 21
452.812287
 31
0.0
  0
LINE
  5
FD
100
AcDbEntity
  8
LAY-1
  6
CONTINUOUS
 62
     7
100
AcDbLine
 10
656.75
 20
552.812287
 30
0.0
 11
641.75
 21
552.812287
 31
0.0
  0
ARC
  5
FE
100
AcDbEntity
  8
LAY-1
  6
CONTINUOUS
 62
     7
100
AcDbCircle
 10
637.75
 20
528.812286
 30
0.0
 40
4.0
100
AcDbArc
 50
291.609305
 51
0.0
  0
ARC
  5
FF
100
AcDbEntity
  8
LAY-1
  6
CONTINUOUS
 62
     7
100
AcDbCircle
 10
637.75
 20
476.812286
 30
0.0
 40
4.0
100
AcDbArc
 50
0.0
 51
68.323666
  0
ARC
  5
100
100
AcDbEntity
  8
LAY-1
  6
CONTINUOUS
 62
     7
100
AcDbCircle
 10
635.25
 20
480.068056
 30
0.0
 40
4.0
100
AcDbArc
 50
6.616547
 51
127.571869
  0
ARC
  5
101
100
AcDbEntity
  8
LAY-1
  6
CONTINUOUS
 62
     7
100
AcDbCircle
 10
635.25
 20
525.556517
 30
0.0
 40
4.0
100
AcDbArc
 50
232.428131
 51
353.351708
  0
LINE
  5
102
100
AcDbEntity
  8
LAY-1
  6
CONTINUOUS
 62
     7
100
AcDbLine
 10
656.75
 20
552.812287
 30
0.0
 11
656.75
 21
502.812287
 31
0.0
  0
LINE
  5
103
100
AcDbEntity
  8
LAY-1
  6
CONTINUOUS
 62
     7
100
AcDbLine
 10
656.75
 20
502.812287
 30
0.0
 11
656.75
 21
452.812287
 31
0.0
  0
LINE
  5
104
100
AcDbEntity
  8
LAY-1
  6
CONTINUOUS
 62
     7
100
AcDbLine
 10
641.75
 20
452.812287
 30
0.0
 11
641.75
 21
502.812287
 31
0.0
  0
LINE
  5
105
100
AcDbEntity
  8
LAY-1
  6
CONTINUOUS
 62
     7
100
AcDbLine
 10
641.75
 20
552.812287
 30
0.0
 11
641.75
 21
502.812287
 31
0.0
  0
LINE
  5
106
100
AcDbEntity
  8
LAY-1
  6
CONTINUOUS
 62
     7
100
AcDbLine
 10
639.223102
 20
525.09342
 30
0.0
 11
639.223102
 21
480.528952
 31
0.0
  0
LINE
  5
107
100
AcDbEntity
  8
LAY-1
  6
CONTINUOUS
 62
     7
100
AcDbLine
 10
553.75
 20
552.812287
 30
0.0
 11
538.75
 21
552.812287
 31
0.0
  0
LINE
  5
108
100
AcDbEntity
  8
LAY-1
  6
CONTINUOUS
 62
     7
100
AcDbLine
 10
538.75
 20
452.812287
 30
0.0
 11
553.75
 21
452.812287
 31
0.0
  0
LINE
  5
109
100
AcDbEntity
  8
LAY-1
  6
CONTINUOUS
 62
     7
100
AcDbLine
 10
538.75
 20
473.812287
 30
0.0
 11
537.75
 21
473.812287
 31
0.0
  0
LINE
  5
10A
100
AcDbEntity
  8
LAY-1
  6
CONTINUOUS
 62
     7
100
AcDbLine
 10
537.75
 20
473.812287
 30
0.0
 11
537.75
 21
531.812287
 31
0.0
  0
LINE
  5
10B
100
AcDbEntity
  8
LAY-1
  6
CONTINUOUS
 62
     7
100
AcDbLine
 10
537.75
 20
531.812287
 30
0.0
 11
538.75
 21
531.812287
 31
0.0
  0
ARC
  5
10C
100
AcDbEntity
  8
LAY-1
  6
CONTINUOUS
 62
     7
100
AcDbCircle
 10
557.75
 20
476.812287
 30
0.0
 40
4.0
100
AcDbArc
 50
111.672311
 51
180.0
  0
ARC
  5
10D
100
AcDbEntity
  8
LAY-1
  6
CONTINUOUS
 62
     7
100
AcDbCircle
 10
557.75
 20
528.812287
 30
0.0
 40
4.0
100
AcDbArc
 50
180.0
 51
248.390695
  0
LINE
  5
10E
100
AcDbEntity
  8
LAY-1
  6
CONTINUOUS
 62
     7
100
AcDbLine
 10
553.75
 20
502.812287
 30
0.0
 11
553.75
 21
552.812287
 31
0.0
  0
LINE
  5
10F
100
AcDbEntity
  8
LAY-1
  6
CONTINUOUS
 62
     7
100
AcDbLine
 10
538.75
 20
502.812287
 30
0.0
 11
538.75
 21
552.812287
 31
0.0
  0
LINE
  5
110
100
AcDbEntity
  8
LAY-1
  6
CONTINUOUS
 62
     7
100
AcDbLine
 10
538.75
 20
452.812287
 30
0.0
 11
538.75
 21
502.812287
 31
0.0
  0
LINE
  5
111
100
AcDbEntity
  8
LAY-1
  6
CONTINUOUS
 62
     7
100
AcDbLine
 10
553.75
 20
502.812287
 30
0.0
 11
553.75
 21
452.812287
 31
0.0
  0
LINE
  5
112
100
AcDbEntity
  8
LAY-1
  6
CONTINUOUS
 62
     7
100
AcDbLine
 10
556.276898
 20
525.09342
 30
0.0
 11
556.276898
 21
480.529532
 31
0.0
  0
ARC
  5
113
100
AcDbEntity
  8
LAY-1
  6
CONTINUOUS
 62
     7
100
AcDbCircle
 10
560.25
 20
525.556517
 30
0.0
 40
4.0
100
AcDbArc
 50
186.648284
 51
307.571869
  0
ARC
  5
114
100
AcDbEntity
  8
LAY-1
  6
CONTINUOUS
 62
     7
100
AcDbCircle
 10
560.25
 20
480.068056
 30
0.0
 40
4.0
100
AcDbArc
 50
52.428131
 51
173.381541
  0
CIRCLE
  5
115
100
AcDbEntity
  8
LAY-1
  6
CONTINUOUS
 62
     7
100
AcDbCircle
 10
597.75
 20
502.812287
 30
0.0
 40
10.0
  0
CIRCLE
  5
116
100
AcDbEntity
  8
LAY-1
  6
CONTINUOUS
 62
     7
100
AcDbCircle
 10
597.75
 20
502.812287
 30
0.0
 40
27.0
  0
ARC
  5
117
100
AcDbEntity
  8
LAY-1
  6
CONTINUOUS
 62
     7
100
AcDbCircle
 10
621.438077
 20
479.12421
 30
0.0
 40
6.5
100
AcDbArc
 50
315.0
 51
349.336425
  0
ARC
  5
118
100
AcDbEntity
  8
LAY-1
  6
CONTINUOUS
 62
     7
100
AcDbCircle
 10
621.438077
 20
479.12421
 30
0.0
 40
6.5
100
AcDbArc
 50
280.663575
 51
315.0
  0
ARC
  5
119
100
AcDbEntity
  8
LAY-1
  6
CONTINUOUS
 62
     7
100
AcDbCircle
 10
633.003195
 20
417.703545
 30
0.0
 40
56.0
100
AcDbArc
 50
100.663575
 51
124.336425
  0
ARC
  5
11A
100
AcDbEntity
  8
LAY-1
  6
CONTINUOUS
 62
     7
100
AcDbCircle
 10
597.75
 20
469.312287
 30
0.0
 40
6.5
100
AcDbArc
 50
270.0
 51
304.336425
  0
ARC
  5
11B
100
AcDbEntity
  8
LAY-1
  6
CONTINUOUS
 62
     7
100
AcDbCircle
 10
621.438077
 20
526.500364
 30
0.0
 40
6.5
100
AcDbArc
 50
10.663575
 51
45.0
  0
ARC
  5
11C
100
AcDbEntity
  8
LAY-1
  6
CONTINUOUS
 62
     7
100
AcDbCircle
 10
621.438077
 20
526.500364
 30
0.0
 40
6.5
100
AcDbArc
 50
45.0
 51
79.336425
  0
ARC
  5
11D
100
AcDbEntity
  8
LAY-1
  6
CONTINUOUS
 62
     7
100
AcDbCircle
 10
633.003195
 20
587.921029
 30
0.0
 40
56.0
100
AcDbArc
 50
235.663575
 51
259.336425
  0
ARC
  5
11E
100
AcDbEntity
  8
LAY-1
  6
CONTINUOUS
 62
     7
100
AcDbCircle
 10
597.75
 20
536.312287
 30
0.0
 40
6.5
100
AcDbArc
 50
55.663575
 51
90.0
  0
ARC
  5
11F
100
AcDbEntity
  8
LAY-1
  6
CONTINUOUS
 62
     7
100
AcDbCircle
 10
574.061923
 20
526.500364
 30
0.0
 40
6.5
100
AcDbArc
 50
135.0
 51
169.336425
  0
ARC
  5
120
100
AcDbEntity
  8
LAY-1
  6
CONTINUOUS
 62
     7
100
AcDbCircle
 10
574.061923
 20
526.500364
 30
0.0
 40
6.5
100
AcDbArc
 50
100.663575
 51
135.0
  0
ARC
  5
121
100
AcDbEntity
  8
LAY-1
  6
CONTINUOUS
 62
     7
100
AcDbCircle
 10
562.496805
 20
587.921029
 30
0.0
 40
56.0
100
AcDbArc
 50
280.663575
 51
304.336425
  0
ARC
  5
122
100
AcDbEntity
  8
LAY-1
  6
CONTINUOUS
 62
     7
100
AcDbCircle
 10
597.75
 20
536.312287
 30
0.0
 40
6.5
100
AcDbArc
 50
90.0
 51
124.336425
  0
ARC
  5
123
100
AcDbEntity
  8
LAY-1
  6
CONTINUOUS
 62
     7
100
AcDbCircle
 10
574.061923
 20
479.12421
 30
0.0
 40
6.5
100
AcDbArc
 50
190.663575
 51
225.0
  0
ARC
  5
124
100
AcDbEntity
  8
LAY-1
  6
CONTINUOUS
 62
     7
100
AcDbCircle
 10
574.061923
 20
479.12421
 30
0.0
 40
6.5
100
AcDbArc
 50
225.0
 51
259.336425
  0
ARC
  5
125
100
AcDbEntity
  8
LAY-1
  6
CONTINUOUS
 62
     7
100
AcDbCircle
 10
562.496805
 20
417.703545
 30
0.0
 40
56.0
100
AcDbArc
 50
55.663575
 51
79.336425
  0
ARC
  5
126
100
AcDbEntity
  8
LAY-1
  6
CONTINUOUS
 62
     7
100
AcDbCircle
 10
597.75
 20
469.312287
 30
0.0
 40
6.5
100
AcDbArc
 50
235.663575
 51
270.0
  0
ARC
  5
127
100
AcDbEntity
  8
LAY-1
  6
CONTINUOUS
 62
     7
100
AcDbCircle
 10
605.699537
 20
511.801439
 30
0.0
 40
2.0
100
AcDbArc
 50
183.08856
 51
228.512135
  0
ARC
  5
128
100
AcDbEntity
  8
LAY-1
  6
CONTINUOUS
 62
     7
100
AcDbCircle
 10
604.891841
 20
526.770461
 30
0.0
 40
2.0
100
AcDbArc
 50
73.40088
 51
183.08856
  0
ARC
  5
129
100
AcDbEntity
  8
LAY-1
  6
CONTINUOUS
 62
     7
100
AcDbCircle
 10
589.800463
 20
511.801439
 30
0.0
 40
2.0
100
AcDbArc
 50
311.487865
 51
356.91144
  0
LINE
  5
12A
100
AcDbEntity
  8
LAY-1
  6
CONTINUOUS
 62
     7
100
AcDbLine
 10
592.605254
 20
526.662702
 30
0.0
 11
591.797558
 21
511.69368
 31
0.0
  0
ARC
  5
12B
100
AcDbEntity
  8
LAY-1
  6
CONTINUOUS
 62
     7
100
AcDbCircle
 10
590.608159
 20
526.770461
 30
0.0
 40
2.0
100
AcDbArc
 50
356.91144
 51
106.59912
  0
ARC
  5
12C
100
AcDbEntity
  8
LAY-1
  6
CONTINUOUS
 62
     7
100
AcDbCircle
 10
588.760847
 20
510.761824
 30
0.0
 40
2.0
100
AcDbArc
 50
273.08856
 51
318.512135
  0
LINE
  5
12D
100
AcDbEntity
  8
LAY-1
  6
CONTINUOUS
 62
     7
100
AcDbLine
 10
573.899585
 20
507.957033
 30
0.0
 11
588.868606
 21
508.764729
 31
0.0
  0
ARC
  5
12E
100
AcDbEntity
  8
LAY-1
  6
CONTINUOUS
 62
     7
100
AcDbCircle
 10
573.791826
 20
509.954128
 30
0.0
 40
2.0
100
AcDbArc
 50
163.40088
 51
273.08856
  0
ARC
  5
12F
100
AcDbEntity
  8
LAY-1
  6
CONTINUOUS
 62
     7
100
AcDbCircle
 10
588.760847
 20
494.86275
 30
0.0
 40
2.0
100
AcDbArc
 50
41.487865
 51
86.91144
  0
LINE
  5
130
100
AcDbEntity
  8
LAY-1
  6
CONTINUOUS
 62
     7
100
AcDbLine
 10
573.899585
 20
497.66754
 30
0.0
 11
588.868606
 21
496.859845
 31
0.0
  0
ARC
  5
131
100
AcDbEntity
  8
LAY-1
  6
CONTINUOUS
 62
     7
100
AcDbCircle
 10
573.791826
 20
495.670446
 30
0.0
 40
2.0
100
AcDbArc
 50
86.91144
 51
196.59912
  0
ARC
  5
132
100
AcDbEntity
  8
LAY-1
  6
CONTINUOUS
 62
     7
100
AcDbCircle
 10
589.800463
 20
493.823134
 30
0.0
 40
2.0
100
AcDbArc
 50
3.08856
 51
48.512135
  0
LINE
  5
133
100
AcDbEntity
  8
LAY-1
  6
CONTINUOUS
 62
     7
100
AcDbLine
 10
592.605254
 20
478.961872
 30
0.0
 11
591.797558
 21
493.930893
 31
0.0
  0
ARC
  5
134
100
AcDbEntity
  8
LAY-1
  6
CONTINUOUS
 62
     7
100
AcDbCircle
 10
590.608159
 20
478.854113
 30
0.0
 40
2.0
100
AcDbArc
 50
253.40088
 51
3.08856
  0
ARC
  5
135
100
AcDbEntity
  8
LAY-1
  6
CONTINUOUS
 62
     7
100
AcDbCircle
 10
605.699537
 20
493.823134
 30
0.0
 40
2.0
100
AcDbArc
 50
131.487865
 51
176.91144
  0
LINE
  5
136
100
AcDbEntity
  8
LAY-1
  6
CONTINUOUS
 62
     7
100
AcDbLine
 10
602.894746
 20
478.961872
 30
0.0
 11
603.702442
 21
493.930893
 31
0.0
  0
ARC
  5
137
100
AcDbEntity
  8
LAY-1
  6
CONTINUOUS
 62
     7
100
AcDbCircle
 10
604.891841
 20
478.854113
 30
0.0
 40
2.0
100
AcDbArc
 50
176.91144
 51
286.59912
  0
ARC
  5
138
100
AcDbEntity
  8
LAY-1
  6
CONTINUOUS
 62
     7
100
AcDbCircle
 10
606.739153
 20
494.86275
 30
0.0
 40
2.0
100
AcDbArc
 50
93.08856
 51
138.512135
  0
ARC
  5
139
100
AcDbEntity
  8
LAY-1
  6
CONTINUOUS
 62
     7
100
AcDbCircle
 10
621.708174
 20
495.670446
 30
0.0
 40
2.0
100
AcDbArc
 50
343.40088
 51
93.08856
  0
ARC
  5
13A
100
AcDbEntity
  8
LAY-1
  6
CONTINUOUS
 62
     7
100
AcDbCircle
 10
606.739153
 20
510.761824
 30
0.0
 40
2.0
100
AcDbArc
 50
221.487865
 51
266.91144
  0
ARC
  5
13B
100
AcDbEntity
  8
LAY-1
  6
CONTINUOUS
 62
     7
100
AcDbCircle
 10
621.708174
 20
509.954128
 30
0.0
 40
2.0
100
AcDbArc
 50
266.91144
 51
16.59912
  0
LINE
  5
13C
100
AcDbEntity
  8
LAY-1
  6
CONTINUOUS
 62
     7
100
AcDbLine
 10
607.584383
 20
532.211442
 30
0.0
 11
605.816681
 21
533.429141
 31
0.0
  0
LINE
  5
13D
100
AcDbEntity
  8
LAY-1
  6
CONTINUOUS
 62
     7
100
AcDbLine
 10
587.915617
 20
532.211442
 30
0.0
 11
589.683319
 21
533.429141
 31
0.0
  0
ARC
  5
13E
100
AcDbEntity
  8
LAY-1
  6
CONTINUOUS
 62
     7
100
AcDbCircle
 10
597.75
 20
508.469141
 30
0.0
 40
25.698481
100
AcDbArc
 50
67.5
 51
112.5
  0
LINE
  5
13F
100
AcDbEntity
  8
LAY-1
  6
CONTINUOUS
 62
     7
100
AcDbLine
 10
602.894746
 20
526.662702
 30
0.0
 11
603.702442
 21
511.69368
 31
0.0
  0
LINE
  5
140
100
AcDbEntity
  8
LAY-1
  6
CONTINUOUS
 62
     7
100
AcDbLine
 10
622.090027
 20
497.693959
 30
0.0
 11
606.29114
 21
496.841485
 31
0.0
  0
LINE
  5
141
100
AcDbEntity
  8
LAY-1
  6
CONTINUOUS
 62
     7
100
AcDbLine
 10
622.052114
 20
507.93266
 30
0.0
 11
606.29114
 21
508.783088
 31
0.0
  0
POLYLINE
  5
142
100
AcDbEntity
  8
LAY-1
  6
CONTINUOUS
 62
     7
100
AcDb2dPolyline
 66
     1
 10
0.0
 20
0.0
 30
0.0
 70
   128
  0
VERTEX
  5
143
100
AcDbEntity
  8
LAY-1
  6
CONTINUOUS
 62
     7
100
AcDbVertex
100
AcDb2dVertex
 10
603.523503
 20
502.812287
 30
0.0
  0
VERTEX
  5
144
100
AcDbEntity
  8
LAY-1
  6
CONTINUOUS
 62
     7
100
AcDbVertex
100
AcDb2dVertex
 10
600.636751
 20
507.812287
 30
0.0
  0
VERTEX
  5
145
100
AcDbEntity
  8
LAY-1
  6
CONTINUOUS
 62
     7
100
AcDbVertex
100
AcDb2dVertex
 10
594.863249
 20
507.812287
 30
0.0
  0
VERTEX
  5
146
100
AcDbEntity
  8
LAY-1
  6
CONTINUOUS
 62
     7
100
AcDbVertex
100
AcDb2dVertex
 10
591.976497
 20
502.812287
 30
0.0
  0
VERTEX
  5
147
100
AcDbEntity
  8
LAY-1
  6
CONTINUOUS
 62
     7
100
AcDbVertex
100
AcDb2dVertex
 10
594.863249
 20
497.812287
 30
0.0
  0
VERTEX
  5
148
100
AcDbEntity
  8
LAY-1
  6
CONTINUOUS
 62
     7
100
AcDbVertex
100
AcDb2dVertex
 10
600.636751
 20
497.812287
 30
0.0
  0
VERTEX
  5
149
100
AcDbEntity
  8
LAY-1
  6
CONTINUOUS
 62
     7
100
AcDbVertex
100
AcDb2dVertex
 10
603.523503
 20
502.812287
 30
0.0
  0
SEQEND
  5
14A
100
AcDbEntity
  8
LAY-1
  6
CONTINUOUS
 62
     7
  0
CIRCLE
  5
14B
100
AcDbEntity
  8
LAY-1
  6
CONTINUOUS
 62
     7
100
AcDbCircle
 10
597.75
 20
502.812287
 30
0.0
 40
5.0
  0
CIRCLE
  5
14C
100
AcDbEntity
  8
LAY-1
  6
CONTINUOUS
 62
     7
100
AcDbCircle
 10
597.75
 20
502.812287
 30
0.0
 40
4.4
  0
ARC
  5
14D
100
AcDbEntity
  8
LAY-1
  6
CONTINUOUS
 62
     7
100
AcDbCircle
 10
597.750001
 20
525.812287
 30
0.0
 40
51.5
100
AcDbArc
 50
269.999999
 51
270.0
  0
ARC
  5
14E
100
AcDbEntity
  8
LAY-1
  6
CONTINUOUS
 62
     7
100
AcDbCircle
 10
682.858742
 20
467.559092
 30
0.0
 40
56.0
100
AcDbArc
 50
145.663575
 51
169.336425
  0
ARC
  5
14F
100
AcDbEntity
  8
LAY-1
  6
CONTINUOUS
 62
     7
100
AcDbCircle
 10
631.25
 20
502.812287
 30
0.0
 40
6.5
100
AcDbArc
 50
325.663575
 51
0.0
  0
ARC
  5
150
100
AcDbEntity
  8
LAY-1
  6
CONTINUOUS
 62
     7
100
AcDbCircle
 10
631.25
 20
502.812287
 30
0.0
 40
6.5
100
AcDbArc
 50
0.0
 51
34.336425
  0
ARC
  5
151
100
AcDbEntity
  8
LAY-1
  6
CONTINUOUS
 62
     7
100
AcDbCircle
 10
682.858742
 20
538.065482
 30
0.0
 40
56.0
100
AcDbArc
 50
190.663575
 51
214.336425
  0
ARC
  5
152
100
AcDbEntity
  8
LAY-1
  6
CONTINUOUS
 62
     7
100
AcDbCircle
 10
512.641258
 20
538.065482
 30
0.0
 40
56.0
100
AcDbArc
 50
325.663575
 51
349.336425
  0
ARC
  5
153
100
AcDbEntity
  8
LAY-1
  6
CONTINUOUS
 62
     7
100
AcDbCircle
 10
564.25
 20
502.812287
 30
0.0
 40
6.5
100
AcDbArc
 50
180.0
 51
214.336425
  0
ARC
  5
154
100
AcDbEntity
  8
LAY-1
  6
CONTINUOUS
 62
     7
100
AcDbCircle
 10
564.25
 20
502.812287
 30
0.0
 40
6.5
100
AcDbArc
 50
145.663575
 51
180.0
  0
ARC
  5
155
100
AcDbEntity
  8
LAY-1
  6
CONTINUOUS
 62
     7
100
AcDbCircle
 10
512.641258
 20
467.559092
 30
0.0
 40
56.0
100
AcDbArc
 50
10.663575
 51
34.336425
  0
ARC
  5
156
100
AcDbEntity
  8
LAY-1
  6
CONTINUOUS
 62
     7
100
AcDbCircle
 10
597.75
 20
476.812287
 30
0.0
 40
57.5
100
AcDbArc
 50
52.428131
 51
57.932617
  0
ARC
  5
157
100
AcDbEntity
  8
LAY-1
  6
CONTINUOUS
 62
     7
100
AcDbCircle
 10
597.75
 20
528.812287
 30
0.0
 40
57.5
100
AcDbArc
 50
302.067383
 51
307.571869
  0
ARC
  5
158
100
AcDbEntity
  8
LAY-1
  6
CONTINUOUS
 62
     7
100
AcDbCircle
 10
597.75
 20
528.812287
 30
0.0
 40
57.5
100
AcDbArc
 50
232.428131
 51
237.932617
  0
ARC
  5
159
100
AcDbEntity
  8
LAY-1
  6
CONTINUOUS
 62
     7
100
AcDbCircle
 10
597.75
 20
476.812287
 30
0.0
 40
57.5
100
AcDbArc
 50
122.067383
 51
127.571869
  0
LINE
  5
15A
100
AcDbEntity
  8
LAY-1
  6
CONTINUOUS
 62
     7
100
AcDbLine
 10
656.75
 20
287.248185
 30
0.0
 11
657.75
 21
287.248185
 31
0.0
  0
LINE
  5
15B
100
AcDbEntity
  8
LAY-1
  6
CONTINUOUS
 62
     7
100
AcDbLine
 10
657.75
 20
287.248185
 30
0.0
 11
657.75
 21
229.248185
 31
0.0
  0
LINE
  5
15C
100
AcDbEntity
  8
LAY-1
  6
CONTINUOUS
 62
     7
100
AcDbLine
 10
657.75
 20
229.248185
 30
0.0
 11
656.75
 21
229.248185
 31
0.0
  0
ARC
  5
15D
100
AcDbEntity
  8
LAY-1
  6
CONTINUOUS
 62
     7
100
AcDbCircle
 10
597.75
 20
284.248185
 30
0.0
 40
57.5
100
AcDbArc
 50
299.73987
 51
307.571869
  0
LINE
  5
15E
100
AcDbEntity
  8
LAY-1
  6
CONTINUOUS
 62
     7
100
AcDbLine
 10
553.75
 20
308.248185
 30
0.0
 11
538.75
 21
308.248185
 31
0.0
  0
LINE
  5
15F
100
AcDbEntity
  8
LAY-1
  6
CONTINUOUS
 62
     7
100
AcDbLine
 10
538.75
 20
208.248185
 30
0.0
 11
553.75
 21
208.248185
 31
0.0
  0
LINE
  5
160
100
AcDbEntity
  8
LAY-1
  6
CONTINUOUS
 62
     7
100
AcDbLine
 10
641.75
 20
208.248185
 30
0.0
 11
656.75
 21
208.248185
 31
0.0
  0
LINE
  5
161
100
AcDbEntity
  8
LAY-1
  6
CONTINUOUS
 62
     7
100
AcDbLine
 10
656.75
 20
308.248185
 30
0.0
 11
641.75
 21
308.248185
 31
0.0
  0
LINE
  5
162
100
AcDbEntity
  8
LAY-1
  6
CONTINUOUS
 62
     7
100
AcDbLine
 10
538.75
 20
229.248185
 30
0.0
 11
537.75
 21
229.248185
 31
0.0
  0
LINE
  5
163
100
AcDbEntity
  8
LAY-1
  6
CONTINUOUS
 62
     7
100
AcDbLine
 10
537.75
 20
229.248185
 30
0.0
 11
537.75
 21
287.248185
 31
0.0
  0
LINE
  5
164
100
AcDbEntity
  8
LAY-1
  6
CONTINUOUS
 62
     7
100
AcDbLine
 10
537.75
 20
287.248185
 30
0.0
 11
538.75
 21
287.248185
 31
0.0
  0
ARC
  5
165
100
AcDbEntity
  8
LAY-1
  6
CONTINUOUS
 62
     7
100
AcDbCircle
 10
557.75
 20
232.248185
 30
0.0
 40
4.0
100
AcDbArc
 50
111.672311
 51
180.0
  0
ARC
  5
166
100
AcDbEntity
  8
LAY-1
  6
CONTINUOUS
 62
     7
100
AcDbCircle
 10
557.75
 20
284.248185
 30
0.0
 40
4.0
100
AcDbArc
 50
180.0
 51
248.390695
  0
ARC
  5
167
100
AcDbEntity
  8
LAY-1
  6
CONTINUOUS
 62
     7
100
AcDbCircle
 10
637.75
 20
284.248185
 30
0.0
 40
4.0
100
AcDbArc
 50
291.609305
 51
0.0
  0
ARC
  5
168
100
AcDbEntity
  8
LAY-1
  6
CONTINUOUS
 62
     7
100
AcDbCircle
 10
637.75
 20
232.248185
 30
0.0
 40
4.0
100
AcDbArc
 50
0.0
 51
68.323666
  0
ARC
  5
169
100
AcDbEntity
  8
LAY-1
  6
CONTINUOUS
 62
     7
100
AcDbCircle
 10
597.75
 20
232.248185
 30
0.0
 40
57.5
100
AcDbArc
 50
52.428131
 51
62.317802
  0
ARC
  5
16A
100
AcDbEntity
  8
LAY-1
  6
CONTINUOUS
 62
     7
100
AcDbCircle
 10
597.75
 20
232.248185
 30
0.0
 40
57.5
100
AcDbArc
 50
117.682198
 51
127.571869
  0
ARC
  5
16B
100
AcDbEntity
  8
LAY-1
  6
CONTINUOUS
 62
     7
100
AcDbCircle
 10
597.75
 20
284.248185
 30
0.0
 40
57.5
100
AcDbArc
 50
232.428131
 51
240.26013
  0
ARC
  5
16C
100
AcDbEntity
  8
LAY-1
  6
CONTINUOUS
 62
     7
100
AcDbCircle
 10
560.25
 20
235.503955
 30
0.0
 40
4.0
100
AcDbArc
 50
52.428131
 51
173.381541
  0
ARC
  5
16D
100
AcDbEntity
  8
LAY-1
  6
CONTINUOUS
 62
     7
100
AcDbCircle
 10
635.25
 20
235.503955
 30
0.0
 40
4.0
100
AcDbArc
 50
6.616547
 51
127.571869
  0
ARC
  5
16E
100
AcDbEntity
  8
LAY-1
  6
CONTINUOUS
 62
     7
100
AcDbCircle
 10
560.25
 20
280.992416
 30
0.0
 40
4.0
100
AcDbArc
 50
186.648284
 51
307.571869
  0
ARC
  5
16F
100
AcDbEntity
  8
LAY-1
  6
CONTINUOUS
 62
     7
100
AcDbCircle
 10
635.25
 20
280.992416
 30
0.0
 40
4.0
100
AcDbArc
 50
232.428131
 51
353.351708
  0
ARC
  5
170
100
AcDbEntity
  8
LAY-1
  6
CONTINUOUS
 62
     7
100
AcDbCircle
 10
573.75
 20
193.500425
 30
0.0
 40
5.0
100
AcDbArc
 50
216.869898
 51
260.0
  0
LINE
  5
171
100
AcDbEntity
  8
LAY-1
  6
CONTINUOUS
 62
     7
100
AcDbLine
 10
590.92009
 20
172.748185
 30
0.0
 11
604.57991
 21
172.748185
 31
0.0
  0
LINE
  5
172
100
AcDbEntity
  8
LAY-1
  6
CONTINUOUS
 62
     7
100
AcDbLine
 10
569.75
 20
194.248185
 30
0.0
 11
570.25
 21
194.748185
 31
0.0
  0
ARC
  5
173
100
AcDbEntity
  8
LAY-1
  6
CONTINUOUS
 62
     7
100
AcDbCircle
 10
616.0
 20
185.886271
 30
0.0
 40
1.5
100
AcDbArc
 50
100.0
 51
180.0
  0
LINE
  5
174
100
AcDbEntity
  8
LAY-1
  6
CONTINUOUS
 62
     7
100
AcDbLine
 10
612.482051
 20
174.88216
 30
0.0
 11
614.0
 21
175.758548
 31
0.0
  0
LINE
  5
175
100
AcDbEntity
  8
LAY-1
  6
CONTINUOUS
 62
     7
100
AcDbLine
 10
614.5
 20
176.624574
 30
0.0
 11
614.5
 21
185.886271
 31
0.0
  0
LINE
  5
176
100
AcDbEntity
  8
LAY-1
  6
CONTINUOUS
 62
     7
100
AcDbLine
 10
581.0
 20
176.624574
 30
0.0
 11
581.0
 21
185.886271
 31
0.0
  0
LINE
  5
177
100
AcDbEntity
  8
LAY-1
  6
CONTINUOUS
 62
     7
100
AcDbLine
 10
583.017949
 20
174.88216
 30
0.0
 11
581.5
 21
175.758548
 31
0.0
  0
ARC
  5
178
100
AcDbEntity
  8
LAY-1
  6
CONTINUOUS
 62
     7
100
AcDbCircle
 10
583.517949
 20
175.748185
 30
0.0
 40
1.0
100
AcDbArc
 50
240.0
 51
270.0
  0
ARC
  5
179
100
AcDbEntity
  8
LAY-1
  6
CONTINUOUS
 62
     7
100
AcDbCircle
 10
621.75
 20
193.500425
 30
0.0
 40
5.0
100
AcDbArc
 50
280.0
 51
323.130102
  0
ARC
  5
17A
100
AcDbEntity
  8
LAY-1
  6
CONTINUOUS
 62
     7
100
AcDbCircle
 10
579.5
 20
185.886271
 30
0.0
 40
1.5
100
AcDbArc
 50
0.0
 51
80.0
  0
ARC
  5
17B
100
AcDbEntity
  8
LAY-1
  6
CONTINUOUS
 62
     7
100
AcDbCircle
 10
582.0
 20
176.624574
 30
0.0
 40
1.0
100
AcDbArc
 50
180.0
 51
240.0
  0
ARC
  5
17C
100
AcDbEntity
  8
LAY-1
  6
CONTINUOUS
 62
     7
100
AcDbCircle
 10
613.5
 20
176.624574
 30
0.0
 40
1.0
100
AcDbArc
 50
300.0
 51
0.0
  0
LINE
  5
17D
100
AcDbEntity
  8
LAY-1
  6
CONTINUOUS
 62
     7
100
AcDbLine
 10
569.75
 20
194.248185
 30
0.0
 11
569.75
 21
190.500425
 31
0.0
  0
LINE
  5
17E
100
AcDbEntity
  8
LAY-1
  6
CONTINUOUS
 62
     7
100
AcDbLine
 10
615.739528
 20
187.363483
 30
0.0
 11
622.618241
 21
188.576386
 31
0.0
  0
LINE
  5
17F
100
AcDbEntity
  8
LAY-1
  6
CONTINUOUS
 62
     7
100
AcDbLine
 10
625.75
 20
194.248185
 30
0.0
 11
625.25
 21
194.748185
 31
0.0
  0
LINE
  5
180
100
AcDbEntity
  8
LAY-1
  6
CONTINUOUS
 62
     7
100
AcDbLine
 10
625.75
 20
190.500425
 30
0.0
 11
625.75
 21
194.248185
 31
0.0
  0
LINE
  5
181
100
AcDbEntity
  8
LAY-1
  6
CONTINUOUS
 62
     7
100
AcDbLine
 10
579.760472
 20
187.363483
 30
0.0
 11
572.881759
 21
188.576386
 31
0.0
  0
LINE
  5
182
100
AcDbEntity
  8
LAY-1
  6
CONTINUOUS
 62
     7
100
AcDbLine
 10
601.791452
 20
170.748185
 30
0.0
 11
601.791452
 21
165.3734
 31
0.0
  0
LINE
  5
183
100
AcDbEntity
  8
LAY-1
  6
CONTINUOUS
 62
     7
100
AcDbLine
 10
597.75
 20
172.748185
 30
0.0
 11
604.428566
 21
172.748185
 31
0.0
  0
LINE
  5
184
100
AcDbEntity
  8
LAY-1
  6
CONTINUOUS
 62
     7
100
AcDbLine
 10
597.75
 20
172.748185
 30
0.0
 11
591.071434
 21
172.748185
 31
0.0
  0
LINE
  5
185
100
AcDbEntity
  8
LAY-1
  6
CONTINUOUS
 62
     7
100
AcDbLine
 10
597.75
 20
170.748185
 30
0.0
 11
589.667096
 21
170.748185
 31
0.0
  0
LINE
  5
186
100
AcDbEntity
  8
LAY-1
  6
CONTINUOUS
 62
     7
100
AcDbLine
 10
605.832904
 20
170.748185
 30
0.0
 11
597.75
 21
170.748185
 31
0.0
  0
LINE
  5
187
100
AcDbEntity
  8
LAY-1
  6
CONTINUOUS
 62
     7
100
AcDbLine
 10
589.667096
 20
165.3734
 30
0.0
 11
589.667096
 21
170.748185
 31
0.0
  0
LINE
  5
188
100
AcDbEntity
  8
LAY-1
  6
CONTINUOUS
 62
     7
100
AcDbLine
 10
590.75
 20
164.748185
 30
0.0
 11
589.667096
 21
165.3734
 31
0.0
  0
LINE
  5
189
100
AcDbEntity
  8
LAY-1
  6
CONTINUOUS
 62
     7
100
AcDbLine
 10
604.727115
 20
164.748185
 30
0.0
 11
590.75
 21
164.748185
 31
0.0
  0
LINE
  5
18A
100
AcDbEntity
  8
LAY-1
  6
CONTINUOUS
 62
     7
100
AcDbLine
 10
605.832904
 20
165.3734
 30
0.0
 11
604.727115
 21
164.748185
 31
0.0
  0
LINE
  5
18B
100
AcDbEntity
  8
LAY-1
  6
CONTINUOUS
 62
     7
100
AcDbLine
 10
605.832904
 20
170.748185
 30
0.0
 11
605.832904
 21
165.3734
 31
0.0
  0
ARC
  5
18C
100
AcDbEntity
  8
LAY-1
  6
CONTINUOUS
 62
     7
100
AcDbCircle
 10
603.812178
 20
168.326337
 30
0.0
 40
3.578152
100
AcDbArc
 50
235.615753
 51
304.384247
  0
LINE
  5
18D
100
AcDbEntity
  8
LAY-1
  6
CONTINUOUS
 62
     7
100
AcDbLine
 10
577.55
 20
194.748185
 30
0.0
 11
569.75
 21
194.748185
 31
0.0
  0
ARC
  5
18E
100
AcDbEntity
  8
LAY-1
  6
CONTINUOUS
 62
     7
100
AcDbCircle
 10
611.982051
 20
175.748185
 30
0.0
 40
1.0
100
AcDbArc
 50
270.0
 51
300.0
  0
LINE
  5
18F
100
AcDbEntity
  8
LAY-1
  6
CONTINUOUS
 62
     7
100
AcDbLine
 10
577.55
 20
194.748185
 30
0.0
 11
569.75
 21
194.748185
 31
0.0
  0
LINE
  5
190
100
AcDbEntity
  8
LAY-1
  6
CONTINUOUS
 62
     7
100
AcDbLine
 10
625.75
 20
194.748185
 30
0.0
 11
617.95
 21
194.748185
 31
0.0
  0
LINE
  5
191
100
AcDbEntity
  8
LAY-1
  6
CONTINUOUS
 62
     7
100
AcDbLine
 10
625.75
 20
194.748185
 30
0.0
 11
617.95
 21
194.748185
 31
0.0
  0
LINE
  5
192
100
AcDbEntity
  8
LAY-1
  6
CONTINUOUS
 62
     7
100
AcDbLine
 10
569.75
 20
208.374788
 30
0.0
 11
569.75
 21
194.748185
 31
0.0
  0
ARC
  5
193
100
AcDbEntity
  8
LAY-1
  6
CONTINUOUS
 62
     7
100
AcDbCircle
 10
572.75
 20
208.374788
 30
0.0
 40
3.0
100
AcDbArc
 50
125.685335
 51
180.0
  0
LINE
  5
194
100
AcDbEntity
  8
LAY-1
  6
CONTINUOUS
 62
     7
100
AcDbLine
 10
572.25
 20
229.11199
 30
0.0
 11
572.25
 21
213.248185
 31
0.0
  0
LINE
  5
195
100
AcDbEntity
  8
LAY-1
  6
CONTINUOUS
 62
     7
100
AcDbLine
 10
625.75
 20
194.748185
 30
0.0
 11
625.75
 21
208.374788
 31
0.0
  0
ARC
  5
196
100
AcDbEntity
  8
LAY-1
  6
CONTINUOUS
 62
     7
100
AcDbCircle
 10
622.75
 20
208.374788
 30
0.0
 40
3.0
100
AcDbArc
 50
0.0
 51
54.314665
  0
LINE
  5
197
100
AcDbEntity
  8
LAY-1
  6
CONTINUOUS
 62
     7
100
AcDbLine
 10
623.25
 20
213.248185
 30
0.0
 11
623.25
 21
229.11199
 31
0.0
  0
ARC
  5
198
100
AcDbEntity
  8
LAY-1
  6
CONTINUOUS
 62
     7
100
AcDbCircle
 10
626.25
 20
213.248185
 30
0.0
 40
3.0
100
AcDbArc
 50
180.0
 51
234.314665
  0
ARC
  5
199
100
AcDbEntity
  8
LAY-1
  6
CONTINUOUS
 62
     7
100
AcDbCircle
 10
569.25
 20
213.248185
 30
0.0
 40
3.0
100
AcDbArc
 50
305.685335
 51
0.0
  0
ARC
  5
19A
100
AcDbEntity
  8
LAY-1
  6
CONTINUOUS
 62
     7
100
AcDbCircle
 10
629.25
 20
229.11199
 30
0.0
 40
6.0
100
AcDbArc
 50
119.73987
 51
180.0
  0
ARC
  5
19B
100
AcDbEntity
  8
LAY-1
  6
CONTINUOUS
 62
     7
100
AcDbCircle
 10
566.25
 20
229.11199
 30
0.0
 40
6.0
100
AcDbArc
 50
0.0
 51
60.26013
  0
ARC
  5
19C
100
AcDbEntity
  8
LAY-1
  6
CONTINUOUS
 62
     7
100
AcDbCircle
 10
597.75
 20
178.12297
 30
0.0
 40
13.374785
100
AcDbArc
 50
252.412046
 51
287.587954
  0
ARC
  5
19D
100
AcDbEntity
  8
LAY-1
  6
CONTINUOUS
 62
     7
100
AcDbCircle
 10
591.687822
 20
168.326337
 30
0.0
 40
3.578152
100
AcDbArc
 50
235.615753
 51
304.384247
  0
LINE
  5
19E
100
AcDbEntity
  8
LAY-1
  6
CONTINUOUS
 62
     7
100
AcDbLine
 10
593.708548
 20
170.748185
 30
0.0
 11
593.708548
 21
165.3734
 31
0.0
  0
LINE
  5
19F
100
AcDbEntity
  8
LAY-1
  6
CONTINUOUS
 62
     7
100
AcDbLine
 10
597.75
 20
174.748185
 30
0.0
 11
611.982051
 21
174.748185
 31
0.0
  0
LINE
  5
1A0
100
AcDbEntity
  8
LAY-1
  6
CONTINUOUS
 62
     7
100
AcDbLine
 10
597.75
 20
174.748185
 30
0.0
 11
583.517949
 21
174.748185
 31
0.0
  0
LINE
  5
1A1
100
AcDbEntity
  8
LAY-1
  6
CONTINUOUS
 62
     7
100
AcDbLine
 10
570.25
 20
194.748185
 30
0.0
 11
597.75
 21
194.748185
 31
0.0
  0
LINE
  5
1A2
100
AcDbEntity
  8
LAY-1
  6
CONTINUOUS
 62
     7
100
AcDbLine
 10
625.25
 20
194.748185
 30
0.0
 11
597.75
 21
194.748185
 31
0.0
  0
LINE
  5
1A3
100
AcDbEntity
  8
LAY-1
  6
CONTINUOUS
 62
     7
100
AcDbLine
 10
604.517058
 20
174.748185
 30
0.0
 11
604.642763
 21
170.748185
 31
0.0
  0
LINE
  5
1A4
100
AcDbEntity
  8
LAY-1
  6
CONTINUOUS
 62
     7
100
AcDbLine
 10
590.982942
 20
174.748185
 30
0.0
 11
590.857237
 21
170.748185
 31
0.0
  0
LINE
  5
1A5
100
AcDbEntity
  8
LAY-1
  6
CONTINUOUS
 62
     7
100
AcDbLine
 10
623.35
 20
209.412287
 30
0.0
 11
597.75
 21
209.412287
 31
0.0
  0
LINE
  5
1A6
100
AcDbEntity
  8
LAY-1
  6
CONTINUOUS
 62
     7
100
AcDbLine
 10
621.75
 20
211.912287
 30
0.0
 11
597.75
 21
211.912287
 31
0.0
  0
LINE
  5
1A7
100
AcDbEntity
  8
LAY-1
  6
CONTINUOUS
 62
     7
100
AcDbLine
 10
572.15
 20
209.412287
 30
0.0
 11
597.75
 21
209.412287
 31
0.0
  0
LINE
  5
1A8
100
AcDbEntity
  8
LAY-1
  6
CONTINUOUS
 62
     7
100
AcDbLine
 10
573.75
 20
211.912287
 30
0.0
 11
597.75
 21
211.912287
 31
0.0
  0
LINE
  5
1A9
100
AcDbEntity
  8
LAY-1
  6
CONTINUOUS
 62
     7
100
AcDbLine
 10
606.121579
 20
176.312287
 30
0.0
 11
606.121579
 21
186.748185
 31
0.0
  0
LINE
  5
1AA
100
AcDbEntity
  8
LAY-1
  6
CONTINUOUS
 62
     7
100
AcDbLine
 10
589.378421
 20
176.312287
 30
0.0
 11
589.378421
 21
186.748185
 31
0.0
  0
ARC
  5
1AB
100
AcDbEntity
  8
LAY-1
  6
CONTINUOUS
 62
     7
100
AcDbCircle
 10
585.214217
 20
181.073546
 30
0.0
 40
6.32536
100
AcDbArc
 50
228.827006
 51
311.172994
  0
ARC
  5
1AC
100
AcDbEntity
  8
LAY-1
  6
CONTINUOUS
 62
     7
100
AcDbCircle
 10
597.75
 20
197.933938
 30
0.0
 40
23.185753
100
AcDbArc
 50
248.834344
 51
291.165656
  0
ARC
  5
1AD
100
AcDbEntity
  8
LAY-1
  6
CONTINUOUS
 62
     7
100
AcDbCircle
 10
610.26557
 20
181.01986
 30
0.0
 40
6.271675
100
AcDbArc
 50
228.643128
 51
312.032291
  0
LINE
  5
1AE
100
AcDbEntity
  8
LAY-1
  6
CONTINUOUS
 62
     7
100
AcDbLine
 10
597.75
 20
190.500425
 30
0.0
 11
625.75
 21
190.500425
 31
0.0
  0
LINE
  5
1AF
100
AcDbEntity
  8
LAY-1
  6
CONTINUOUS
 62
     7
100
AcDbLine
 10
597.75
 20
190.500425
 30
0.0
 11
569.75
 21
190.500425
 31
0.0
  0
ARC
  5
1B0
100
AcDbEntity
  8
LAY-1
  6
CONTINUOUS
 62
     7
100
AcDbCircle
 10
568.25
 20
288.479849
 30
0.0
 40
6.0
100
AcDbArc
 50
297.682198
 51
0.0
  0
ARC
  5
1B1
100
AcDbEntity
  8
LAY-1
  6
CONTINUOUS
 62
     7
100
AcDbCircle
 10
622.75
 20
292.248185
 30
0.0
 40
1.5
100
AcDbArc
 50
120.0
 51
180.0
  0
ARC
  5
1B2
100
AcDbEntity
  8
LAY-1
  6
CONTINUOUS
 62
     7
100
AcDbCircle
 10
572.75
 20
292.248185
 30
0.0
 40
1.5
100
AcDbArc
 50
0.0
 51
60.0
  0
LINE
  5
1B3
100
AcDbEntity
  8
LAY-1
  6
CONTINUOUS
 62
     7
100
AcDbLine
 10
574.25
 20
292.248185
 30
0.0
 11
574.25
 21
288.479849
 31
0.0
  0
LINE
  5
1B4
100
AcDbEntity
  8
LAY-1
  6
CONTINUOUS
 62
     7
100
AcDbLine
 10
621.25
 20
292.248185
 30
0.0
 11
621.25
 21
288.479849
 31
0.0
  0
ARC
  5
1B5
100
AcDbEntity
  8
LAY-1
  6
CONTINUOUS
 62
     7
100
AcDbCircle
 10
627.25
 20
288.479849
 30
0.0
 40
6.0
100
AcDbArc
 50
180.0
 51
242.317802
  0
ARC
  5
1B6
100
AcDbEntity
  8
LAY-1
  6
CONTINUOUS
 62
     7
100
AcDbCircle
 10
621.25
 20
294.846261
 30
0.0
 40
1.5
100
AcDbArc
 50
300.0
 51
0.0
  0
LINE
  5
1B7
100
AcDbEntity
  8
LAY-1
  6
CONTINUOUS
 62
     7
100
AcDbLine
 10
622.75
 20
307.748185
 30
0.0
 11
622.75
 21
294.846261
 31
0.0
  0
LINE
  5
1B8
100
AcDbEntity
  8
LAY-1
  6
CONTINUOUS
 62
     7
100
AcDbLine
 10
572.75
 20
307.748185
 30
0.0
 11
574.75
 21
309.748185
 31
0.0
  0
LINE
  5
1B9
100
AcDbEntity
  8
LAY-1
  6
CONTINUOUS
 62
     7
100
AcDbLine
 10
572.75
 20
294.846261
 30
0.0
 11
572.75
 21
307.748185
 31
0.0
  0
ARC
  5
1BA
100
AcDbEntity
  8
LAY-1
  6
CONTINUOUS
 62
     7
100
AcDbCircle
 10
574.25
 20
294.846261
 30
0.0
 40
1.5
100
AcDbArc
 50
180.0
 51
240.0
  0
LINE
  5
1BB
100
AcDbEntity
  8
LAY-1
  6
CONTINUOUS
 62
     7
100
AcDbLine
 10
620.75
 20
309.748185
 30
0.0
 11
622.75
 21
307.748185
 31
0.0
  0
LINE
  5
1BC
100
AcDbEntity
  8
LAY-1
  6
CONTINUOUS
 62
     7
100
AcDbLine
 10
597.75
 20
309.748185
 30
0.0
 11
620.75
 21
309.748185
 31
0.0
  0
LINE
  5
1BD
100
AcDbEntity
  8
LAY-1
  6
CONTINUOUS
 62
     7
100
AcDbLine
 10
597.75
 20
309.748185
 30
0.0
 11
574.75
 21
309.748185
 31
0.0
  0
LINE
  5
1BE
100
AcDbEntity
  8
LAY-1
  6
CONTINUOUS
 62
     7
100
AcDbLine
 10
574.75
 20
309.748185
 30
0.0
 11
571.191888
 21
311.802462
 31
0.0
  0
LINE
  5
1BF
100
AcDbEntity
  8
LAY-1
  6
CONTINUOUS
 62
     7
100
AcDbLine
 10
571.191888
 20
311.802462
 30
0.0
 11
571.191888
 21
331.961857
 31
0.0
  0
LINE
  5
1C0
100
AcDbEntity
  8
LAY-1
  6
CONTINUOUS
 62
     7
100
AcDbLine
 10
603.75
 20
362.516134
 30
0.0
 11
597.75
 21
362.516134
 31
0.0
  0
LINE
  5
1C1
100
AcDbEntity
  8
LAY-1
  6
CONTINUOUS
 62
     7
100
AcDbLine
 10
602.75
 20
364.248185
 30
0.0
 11
603.75
 21
362.516134
 31
0.0
  0
LINE
  5
1C2
100
AcDbEntity
  8
LAY-1
  6
CONTINUOUS
 62
     7
100
AcDbLine
 10
597.75
 20
364.248185
 30
0.0
 11
606.877732
 21
364.248185
 31
0.0
  0
ARC
  5
1C3
100
AcDbEntity
  8
LAY-1
  6
CONTINUOUS
 62
     7
100
AcDbCircle
 10
616.75
 20
348.748185
 30
0.0
 40
1.0
100
AcDbArc
 50
0.0
 51
90.0
  0
ARC
  5
1C4
100
AcDbEntity
  8
LAY-1
  6
CONTINUOUS
 62
     7
100
AcDbCircle
 10
618.75
 20
336.325535
 30
0.0
 40
1.0
100
AcDbArc
 50
180.0
 51
240.0
  0
LINE
  5
1C5
100
AcDbEntity
  8
LAY-1
  6
CONTINUOUS
 62
     7
100
AcDbLine
 10
577.75
 20
336.325535
 30
0.0
 11
577.75
 21
348.748185
 31
0.0
  0
LINE
  5
1C6
100
AcDbEntity
  8
LAY-1
  6
CONTINUOUS
 62
     7
100
AcDbLine
 10
577.75
 20
337.453143
 30
0.0
 11
577.75
 21
336.325535
 31
0.0
  0
LINE
  5
1C7
100
AcDbEntity
  8
LAY-1
  6
CONTINUOUS
 62
     7
100
AcDbLine
 10
571.191888
 20
331.961857
 30
0.0
 11
577.25
 21
335.45951
 31
0.0
  0
LINE
  5
1C8
100
AcDbEntity
  8
LAY-1
  6
CONTINUOUS
 62
     7
100
AcDbLine
 10
571.191888
 20
311.802462
 30
0.0
 11
571.191888
 21
331.961857
 31
0.0
  0
LINE
  5
1C9
100
AcDbEntity
  8
LAY-1
  6
CONTINUOUS
 62
     7
100
AcDbLine
 10
574.75
 20
309.748185
 30
0.0
 11
571.191888
 21
311.802462
 31
0.0
  0
LINE
  5
1CA
100
AcDbEntity
  8
LAY-1
  6
CONTINUOUS
 62
     7
100
AcDbLine
 10
577.75
 20
336.325535
 30
0.0
 11
577.75
 21
348.748185
 31
0.0
  0
LINE
  5
1CB
100
AcDbEntity
  8
LAY-1
  6
CONTINUOUS
 62
     7
100
AcDbLine
 10
578.75
 20
349.748185
 30
0.0
 11
581.75
 21
349.748185
 31
0.0
  0
ARC
  5
1CC
100
AcDbEntity
  8
LAY-1
  6
CONTINUOUS
 62
     7
100
AcDbCircle
 10
578.75
 20
348.748185
 30
0.0
 40
1.0
100
AcDbArc
 50
90.0
 51
180.0
  0
ARC
  5
1CD
100
AcDbEntity
  8
LAY-1
  6
CONTINUOUS
 62
     7
100
AcDbCircle
 10
576.75
 20
336.325535
 30
0.0
 40
1.0
100
AcDbArc
 50
300.0
 51
0.0
  0
LINE
  5
1CE
100
AcDbEntity
  8
LAY-1
  6
CONTINUOUS
 62
     7
100
AcDbLine
 10
617.75
 20
336.325535
 30
0.0
 11
617.75
 21
348.748185
 31
0.0
  0
LINE
  5
1CF
100
AcDbEntity
  8
LAY-1
  6
CONTINUOUS
 62
     7
100
AcDbLine
 10
617.75
 20
337.453143
 30
0.0
 11
617.75
 21
336.325535
 31
0.0
  0
LINE
  5
1D0
100
AcDbEntity
  8
LAY-1
  6
CONTINUOUS
 62
     7
100
AcDbLine
 10
624.308112
 20
331.961857
 30
0.0
 11
618.25
 21
335.45951
 31
0.0
  0
LINE
  5
1D1
100
AcDbEntity
  8
LAY-1
  6
CONTINUOUS
 62
     7
100
AcDbLine
 10
624.308112
 20
311.802462
 30
0.0
 11
624.308112
 21
331.961857
 31
0.0
  0
LINE
  5
1D2
100
AcDbEntity
  8
LAY-1
  6
CONTINUOUS
 62
     7
100
AcDbLine
 10
620.75
 20
309.748185
 30
0.0
 11
624.308112
 21
311.802462
 31
0.0
  0
LINE
  5
1D3
100
AcDbEntity
  8
LAY-1
  6
CONTINUOUS
 62
     7
100
AcDbLine
 10
577.542741
 20
357.685148
 30
0.0
 11
580.25
 21
359.248185
 31
0.0
  0
LINE
  5
1D4
100
AcDbEntity
  8
LAY-1
  6
CONTINUOUS
 62
     7
100
AcDbLine
 10
577.542741
 20
352.248185
 30
0.0
 11
577.542741
 21
357.685148
 31
0.0
  0
LINE
  5
1D5
100
AcDbEntity
  8
LAY-1
  6
CONTINUOUS
 62
     7
100
AcDbLine
 10
581.75
 20
349.748185
 30
0.0
 11
581.75
 21
352.248185
 31
0.0
  0
LINE
  5
1D6
100
AcDbEntity
  8
LAY-1
  6
CONTINUOUS
 62
     7
100
AcDbLine
 10
613.75
 20
349.748185
 30
0.0
 11
613.75
 21
352.248185
 31
0.0
  0
LINE
  5
1D7
100
AcDbEntity
  8
LAY-1
  6
CONTINUOUS
 62
     7
100
AcDbLine
 10
617.957259
 20
352.248185
 30
0.0
 11
617.957259
 21
357.685148
 31
0.0
  0
LINE
  5
1D8
100
AcDbEntity
  8
LAY-1
  6
CONTINUOUS
 62
     7
100
AcDbLine
 10
617.957259
 20
357.685148
 30
0.0
 11
615.25
 21
359.248185
 31
0.0
  0
ARC
  5
1D9
100
AcDbEntity
  8
LAY-1
  6
CONTINUOUS
 62
     7
100
AcDbCircle
 10
609.75
 20
364.382116
 30
0.0
 40
2.0
100
AcDbArc
 50
97.662256
 51
163.220481
  0
ARC
  5
1DA
100
AcDbEntity
  8
LAY-1
  6
CONTINUOUS
 62
     7
100
AcDbCircle
 10
606.877732
 20
365.248185
 30
0.0
 40
1.0
100
AcDbArc
 50
270.0
 51
343.220481
  0
ARC
  5
1DB
100
AcDbEntity
  8
LAY-1
  6
CONTINUOUS
 62
     7
100
AcDbCircle
 10
564.25
 20
377.748185
 30
0.0
 40
6.5
100
AcDbArc
 50
90.0
 51
270.0
  0
LINE
  5
1DC
100
AcDbEntity
  8
LAY-1
  6
CONTINUOUS
 62
     7
100
AcDbLine
 10
631.25
 20
384.248185
 30
0.0
 11
626.75
 21
384.248185
 31
0.0
  0
LINE
  5
1DD
100
AcDbEntity
  8
LAY-1
  6
CONTINUOUS
 62
     7
100
AcDbLine
 10
597.75
 20
364.248185
 30
0.0
 11
588.622268
 21
364.248185
 31
0.0
  0
ARC
  5
1DE
100
AcDbEntity
  8
LAY-1
  6
CONTINUOUS
 62
     7
100
AcDbCircle
 10
585.75
 20
364.382116
 30
0.0
 40
2.0
100
AcDbArc
 50
16.779519
 51
82.337744
  0
ARC
  5
1DF
100
AcDbEntity
  8
LAY-1
  6
CONTINUOUS
 62
     7
100
AcDbCircle
 10
588.622268
 20
365.248185
 30
0.0
 40
1.0
100
AcDbArc
 50
196.779519
 51
270.0
  0
ARC
  5
1E0
100
AcDbEntity
  8
LAY-1
  6
CONTINUOUS
 62
     7
100
AcDbCircle
 10
631.25
 20
377.748185
 30
0.0
 40
6.5
100
AcDbArc
 50
270.0
 51
90.0
  0
LINE
  5
1E1
100
AcDbEntity
  8
LAY-1
  6
CONTINUOUS
 62
     7
100
AcDbLine
 10
581.562
 20
309.748185
 30
0.0
 11
574.75
 21
309.748185
 31
0.0
  0
LINE
  5
1E2
100
AcDbEntity
  8
LAY-1
  6
CONTINUOUS
 62
     7
100
AcDbLine
 10
620.75
 20
309.748185
 30
0.0
 11
613.938
 21
309.748185
 31
0.0
  0
LINE
  5
1E3
100
AcDbEntity
  8
LAY-1
  6
CONTINUOUS
 62
     7
100
AcDbLine
 10
591.75
 20
362.516134
 30
0.0
 11
597.75
 21
362.516134
 31
0.0
  0
LINE
  5
1E4
100
AcDbEntity
  8
LAY-1
  6
CONTINUOUS
 62
     7
100
AcDbLine
 10
592.75
 20
364.248185
 30
0.0
 11
591.75
 21
362.516134
 31
0.0
  0
LINE
  5
1E5
100
AcDbEntity
  8
LAY-1
  6
CONTINUOUS
 62
     7
100
AcDbLine
 10
571.191888
 20
331.961857
 30
0.0
 11
577.25
 21
335.45951
 31
0.0
  0
ARC
  5
1E6
100
AcDbEntity
  8
LAY-1
  6
CONTINUOUS
 62
     7
100
AcDbCircle
 10
578.75
 20
348.748185
 30
0.0
 40
1.0
100
AcDbArc
 50
90.0
 51
180.0
  0
LINE
  5
1E7
100
AcDbEntity
  8
LAY-1
  6
CONTINUOUS
 62
     7
100
AcDbLine
 10
620.75
 20
309.748185
 30
0.0
 11
624.308112
 21
311.802462
 31
0.0
  0
LINE
  5
1E8
100
AcDbEntity
  8
LAY-1
  6
CONTINUOUS
 62
     7
100
AcDbLine
 10
624.308112
 20
311.802462
 30
0.0
 11
624.308112
 21
331.961857
 31
0.0
  0
ARC
  5
1E9
100
AcDbEntity
  8
LAY-1
  6
CONTINUOUS
 62
     7
100
AcDbCircle
 10
576.75
 20
336.325535
 30
0.0
 40
1.0
100
AcDbArc
 50
300.0
 51
0.0
  0
LINE
  5
1EA
100
AcDbEntity
  8
LAY-1
  6
CONTINUOUS
 62
     7
100
AcDbLine
 10
617.75
 20
337.453143
 30
0.0
 11
617.75
 21
336.325535
 31
0.0
  0
LINE
  5
1EB
100
AcDbEntity
  8
LAY-1
  6
CONTINUOUS
 62
     7
100
AcDbLine
 10
624.308112
 20
331.961857
 30
0.0
 11
618.25
 21
335.45951
 31
0.0
  0
LINE
  5
1EC
100
AcDbEntity
  8
LAY-1
  6
CONTINUOUS
 62
     7
100
AcDbLine
 10
617.75
 20
336.325535
 30
0.0
 11
617.75
 21
348.748185
 31
0.0
  0
LINE
  5
1ED
100
AcDbEntity
  8
LAY-1
  6
CONTINUOUS
 62
     7
100
AcDbLine
 10
616.75
 20
349.748185
 30
0.0
 11
613.75
 21
349.748185
 31
0.0
  0
LINE
  5
1EE
100
AcDbEntity
  8
LAY-1
  6
CONTINUOUS
 62
     7
100
AcDbLine
 10
577.75
 20
337.453143
 30
0.0
 11
577.75
 21
336.325535
 31
0.0
  0
ARC
  5
1EF
100
AcDbEntity
  8
LAY-1
  6
CONTINUOUS
 62
     7
100
AcDbCircle
 10
618.75
 20
336.325535
 30
0.0
 40
1.0
100
AcDbArc
 50
180.0
 51
240.0
  0
ARC
  5
1F0
100
AcDbEntity
  8
LAY-1
  6
CONTINUOUS
 62
     7
100
AcDbCircle
 10
616.75
 20
348.748185
 30
0.0
 40
1.0
100
AcDbArc
 50
0.0
 51
90.0
  0
LINE
  5
1F1
100
AcDbEntity
  8
LAY-1
  6
CONTINUOUS
 62
     7
100
AcDbLine
 10
581.562
 20
309.748185
 30
0.0
 11
574.75
 21
309.748185
 31
0.0
  0
LINE
  5
1F2
100
AcDbEntity
  8
LAY-1
  6
CONTINUOUS
 62
     7
100
AcDbLine
 10
581.562
 20
309.748185
 30
0.0
 11
574.75
 21
309.748185
 31
0.0
  0
LINE
  5
1F3
100
AcDbEntity
  8
LAY-1
  6
CONTINUOUS
 62
     7
100
AcDbLine
 10
571.191888
 20
311.802462
 30
0.0
 11
571.191888
 21
331.961857
 31
0.0
  0
LINE
  5
1F4
100
AcDbEntity
  8
LAY-1
  6
CONTINUOUS
 62
     7
100
AcDbLine
 10
574.75
 20
309.748185
 30
0.0
 11
571.191888
 21
311.802462
 31
0.0
  0
LINE
  5
1F5
100
AcDbEntity
  8
LAY-1
  6
CONTINUOUS
 62
     7
100
AcDbLine
 10
624.308112
 20
311.802462
 30
0.0
 11
624.308112
 21
331.961857
 31
0.0
  0
LINE
  5
1F6
100
AcDbEntity
  8
LAY-1
  6
CONTINUOUS
 62
     7
100
AcDbLine
 10
620.75
 20
309.748185
 30
0.0
 11
624.308112
 21
311.802462
 31
0.0
  0
LINE
  5
1F7
100
AcDbEntity
  8
LAY-1
  6
CONTINUOUS
 62
     7
100
AcDbLine
 10
564.25
 20
371.248185
 30
0.0
 11
597.75
 21
371.248185
 31
0.0
  0
LINE
  5
1F8
100
AcDbEntity
  8
LAY-1
  6
CONTINUOUS
 62
     7
100
AcDbLine
 10
631.25
 20
371.248185
 30
0.0
 11
597.75
 21
371.248185
 31
0.0
  0
LINE
  5
1F9
100
AcDbEntity
  8
LAY-1
  6
CONTINUOUS
 62
     7
100
AcDbLine
 10
627.75
 20
384.248185
 30
0.0
 11
597.75
 21
384.248185
 31
0.0
  0
LINE
  5
1FA
100
AcDbEntity
  8
LAY-1
  6
CONTINUOUS
 62
     7
100
AcDbLine
 10
564.05
 20
384.248185
 30
0.0
 11
597.75
 21
384.248185
 31
0.0
  0
ARC
  5
1FB
100
AcDbEntity
  8
LAY-1
  6
CONTINUOUS
 62
     7
100
AcDbCircle
 10
597.75
 20
380.748185
 30
0.0
 40
4.5
100
AcDbArc
 50
51.057559
 51
128.942441
  0
ARC
  5
1FC
100
AcDbEntity
  8
LAY-1
  6
CONTINUOUS
 62
     7
100
AcDbCircle
 10
587.75
 20
379.248185
 30
0.0
 40
13.0
100
AcDbArc
 50
217.979872
 51
262.337744
  0
ARC
  5
1FD
100
AcDbEntity
  8
LAY-1
  6
CONTINUOUS
 62
     7
100
AcDbCircle
 10
607.75
 20
379.248185
 30
0.0
 40
13.0
100
AcDbArc
 50
277.662256
 51
322.020128
  0
LINE
  5
1FE
100
AcDbEntity
  8
LAY-1
  6
CONTINUOUS
 62
     7
100
AcDbLine
 10
616.75
 20
349.748185
 30
0.0
 11
597.75
 21
349.748185
 31
0.0
  0
LINE
  5
1FF
100
AcDbEntity
  8
LAY-1
  6
CONTINUOUS
 62
     7
100
AcDbLine
 10
578.75
 20
349.748185
 30
0.0
 11
597.75
 21
349.748185
 31
0.0
  0
LINE
  5
200
100
AcDbEntity
  8
LAY-1
  6
CONTINUOUS
 62
     7
100
AcDbLine
 10
591.75
 20
359.248185
 30
0.0
 11
591.75
 21
362.516134
 31
0.0
  0
LINE
  5
201
100
AcDbEntity
  8
LAY-1
  6
CONTINUOUS
 62
     7
100
AcDbLine
 10
580.25
 20
359.248185
 30
0.0
 11
597.75
 21
359.248185
 31
0.0
  0
LINE
  5
202
100
AcDbEntity
  8
LAY-1
  6
CONTINUOUS
 62
     7
100
AcDbLine
 10
615.25
 20
359.248185
 30
0.0
 11
597.75
 21
359.248185
 31
0.0
  0
LINE
  5
203
100
AcDbEntity
  8
LAY-1
  6
CONTINUOUS
 62
     7
100
AcDbLine
 10
603.75
 20
359.248185
 30
0.0
 11
603.75
 21
362.516134
 31
0.0
  0
LINE
  5
204
100
AcDbEntity
  8
LAY-1
  6
CONTINUOUS
 62
     7
100
AcDbLine
 10
597.75
 20
309.748185
 30
0.0
 11
620.75
 21
309.748185
 31
0.0
  0
LINE
  5
205
100
AcDbEntity
  8
LAY-1
  6
CONTINUOUS
 62
     7
100
AcDbLine
 10
597.75
 20
309.748185
 30
0.0
 11
574.75
 21
309.748185
 31
0.0
  0
LINE
  5
206
100
AcDbEntity
  8
LAY-1
  6
CONTINUOUS
 62
     7
100
AcDbLine
 10
597.75
 20
352.248185
 30
0.0
 11
617.957259
 21
352.248185
 31
0.0
  0
LINE
  5
207
100
AcDbEntity
  8
LAY-1
  6
CONTINUOUS
 62
     7
100
AcDbLine
 10
597.75
 20
352.248185
 30
0.0
 11
577.542741
 21
352.248185
 31
0.0
  0
LINE
  5
208
100
AcDbEntity
  8
LAY-1
  6
CONTINUOUS
 62
     7
100
AcDbLine
 10
607.85363
 20
352.248185
 30
0.0
 11
607.85363
 21
357.685148
 31
0.0
  0
LINE
  5
209
100
AcDbEntity
  8
LAY-1
  6
CONTINUOUS
 62
     7
100
AcDbLine
 10
587.64637
 20
352.248185
 30
0.0
 11
587.64637
 21
357.685148
 31
0.0
  0
ARC
  5
20A
100
AcDbEntity
  8
LAY-1
  6
CONTINUOUS
 62
     7
100
AcDbCircle
 10
612.905445
 20
350.302806
 30
0.0
 40
8.94538
100
AcDbArc
 50
55.615753
 51
124.384247
  0
ARC
  5
20B
100
AcDbEntity
  8
LAY-1
  6
CONTINUOUS
 62
     7
100
AcDbCircle
 10
597.75
 20
325.811222
 30
0.0
 40
33.436963
100
AcDbArc
 50
72.412046
 51
107.587954
  0
ARC
  5
20C
100
AcDbEntity
  8
LAY-1
  6
CONTINUOUS
 62
     7
100
AcDbCircle
 10
582.594555
 20
350.302806
 30
0.0
 40
8.94538
100
AcDbArc
 50
55.615753
 51
124.384247
  0
LINE
  5
20D
100
AcDbEntity
  8
LAY-1
  6
CONTINUOUS
 62
     7
100
AcDbLine
 10
611.029056
 20
311.802462
 30
0.0
 11
611.029056
 21
331.961857
 31
0.0
  0
LINE
  5
20E
100
AcDbEntity
  8
LAY-1
  6
CONTINUOUS
 62
     7
100
AcDbLine
 10
584.470944
 20
311.802462
 30
0.0
 11
584.470944
 21
331.961857
 31
0.0
  0
ARC
  5
20F
100
AcDbEntity
  8
LAY-1
  6
CONTINUOUS
 62
     7
100
AcDbCircle
 10
617.668584
 20
322.25935
 30
0.0
 40
11.756785
100
AcDbArc
 50
55.615753
 51
124.384247
  0
ARC
  5
210
100
AcDbEntity
  8
LAY-1
  6
CONTINUOUS
 62
     7
100
AcDbCircle
 10
597.75
 20
290.070411
 30
0.0
 40
43.945723
100
AcDbArc
 50
72.412046
 51
107.587954
  0
ARC
  5
211
100
AcDbEntity
  8
LAY-1
  6
CONTINUOUS
 62
     7
100
AcDbCircle
 10
577.831416
 20
322.25935
 30
0.0
 40
11.756785
100
AcDbArc
 50
55.615753
 51
124.384247
  0
ARC
  5
212
100
AcDbEntity
  8
LAY-1
  6
CONTINUOUS
 62
     7
100
AcDbCircle
 10
577.831416
 20
321.50497
 30
0.0
 40
11.756785
100
AcDbArc
 50
235.615753
 51
304.384247
  0
ARC
  5
213
100
AcDbEntity
  8
LAY-1
  6
CONTINUOUS
 62
     7
100
AcDbCircle
 10
597.75
 20
353.693908
 30
0.0
 40
43.945723
100
AcDbArc
 50
252.412046
 51
287.587954
  0
ARC
  5
214
100
AcDbEntity
  8
LAY-1
  6
CONTINUOUS
 62
     7
100
AcDbCircle
 10
617.668584
 20
321.50497
 30
0.0
 40
11.756785
100
AcDbArc
 50
235.615753
 51
304.384247
  0
LINE
  5
215
100
AcDbEntity
  8
LAY-1
  6
CONTINUOUS
 62
     7
100
AcDbLine
 10
656.75
 20
308.248185
 30
0.0
 11
656.75
 21
258.248185
 31
0.0
  0
LINE
  5
216
100
AcDbEntity
  8
LAY-1
  6
CONTINUOUS
 62
     7
100
AcDbLine
 10
656.75
 20
258.248185
 30
0.0
 11
656.75
 21
208.248185
 31
0.0
  0
LINE
  5
217
100
AcDbEntity
  8
LAY-1
  6
CONTINUOUS
 62
     7
100
AcDbLine
 10
641.75
 20
208.248185
 30
0.0
 11
641.75
 21
258.248185
 31
0.0
  0
LINE
  5
218
100
AcDbEntity
  8
LAY-1
  6
CONTINUOUS
 62
     7
100
AcDbLine
 10
641.75
 20
308.248185
 30
0.0
 11
641.75
 21
258.248185
 31
0.0
  0
LINE
  5
219
100
AcDbEntity
  8
LAY-1
  6
CONTINUOUS
 62
     7
100
AcDbLine
 10
553.75
 20
258.248185
 30
0.0
 11
553.75
 21
308.248185
 31
0.0
  0
LINE
  5
21A
100
AcDbEntity
  8
LAY-1
  6
CONTINUOUS
 62
     7
100
AcDbLine
 10
538.75
 20
258.248185
 30
0.0
 11
538.75
 21
308.248185
 31
0.0
  0
LINE
  5
21B
100
AcDbEntity
  8
LAY-1
  6
CONTINUOUS
 62
     7
100
AcDbLine
 10
538.75
 20
208.248185
 30
0.0
 11
538.75
 21
258.248185
 31
0.0
  0
LINE
  5
21C
100
AcDbEntity
  8
LAY-1
  6
CONTINUOUS
 62
     7
100
AcDbLine
 10
553.75
 20
258.248185
 30
0.0
 11
553.75
 21
208.248185
 31
0.0
  0
LINE
  5
21D
100
AcDbEntity
  8
LAY-1
  6
CONTINUOUS
 62
     7
100
AcDbLine
 10
556.276898
 20
280.529319
 30
0.0
 11
556.276898
 21
235.96543
 31
0.0
  0
LINE
  5
21E
100
AcDbEntity
  8
LAY-1
  6
CONTINUOUS
 62
     7
100
AcDbLine
 10
639.223102
 20
280.529318
 30
0.0
 11
639.223102
 21
235.964851
 31
0.0
  0
LINE
  5
21F
100
AcDbEntity
  8
LAY-1
  6
CONTINUOUS
 62
     7
100
AcDbLine
 10
620.45
 20
295.012287
 30
0.0
 11
597.75
 21
295.012287
 31
0.0
  0
LINE
  5
220
100
AcDbEntity
  8
LAY-1
  6
CONTINUOUS
 62
     7
100
AcDbLine
 10
619.85
 20
293.312287
 30
0.0
 11
597.75
 21
293.312287
 31
0.0
  0
LINE
  5
221
100
AcDbEntity
  8
LAY-1
  6
CONTINUOUS
 62
     7
100
AcDbLine
 10
575.05
 20
295.012287
 30
0.0
 11
597.75
 21
295.012287
 31
0.0
  0
LINE
  5
222
100
AcDbEntity
  8
LAY-1
  6
CONTINUOUS
 62
     7
100
AcDbLine
 10
575.65
 20
293.312287
 30
0.0
 11
597.75
 21
293.312287
 31
0.0
  0
LINE
  5
223
100
AcDbEntity
  8
LAY-1
  6
CONTINUOUS
 62
     7
100
AcDbLine
 10
579.75
 20
270.748185
 30
0.0
 11
579.75
 21
245.748185
 31
0.0
  0
LINE
  5
224
100
AcDbEntity
  8
LAY-1
  6
CONTINUOUS
 62
     7
100
AcDbLine
 10
615.75
 20
270.748185
 30
0.0
 11
615.75
 21
245.748185
 31
0.0
  0
LINE
  5
225
100
AcDbEntity
  8
LAY-1
  6
CONTINUOUS
 62
     7
100
AcDbLine
 10
615.75
 20
245.748185
 30
0.0
 11
579.75
 21
245.748185
 31
0.0
  0
LINE
  5
226
100
AcDbEntity
  8
LAY-1
  6
CONTINUOUS
 62
     7
100
AcDbLine
 10
615.75
 20
270.748185
 30
0.0
 11
579.75
 21
270.748185
 31
0.0
  0
LINE
  5
227
100
AcDbEntity
  8
LAY-1
  6
CONTINUOUS
 62
     7
100
AcDbLine
 10
613.75
 20
249.748185
 30
0.0
 11
609.95
 21
246.748185
 31
0.0
  0
LINE
  5
228
100
AcDbEntity
  8
LAY-1
  6
CONTINUOUS
 62
     7
100
AcDbLine
 10
609.95
 20
246.748185
 30
0.0
 11
609.95
 21
248.748185
 31
0.0
  0
LINE
  5
229
100
AcDbEntity
  8
LAY-1
  6
CONTINUOUS
 62
     7
100
AcDbLine
 10
591.15
 20
248.748185
 30
0.0
 11
589.995299
 21
246.748185
 31
0.0
  0
LINE
  5
22A
100
AcDbEntity
  8
LAY-1
  6
CONTINUOUS
 62
     7
100
AcDbLine
 10
609.95
 20
248.748185
 30
0.0
 11
591.15
 21
248.748185
 31
0.0
  0
LINE
  5
22B
100
AcDbEntity
  8
LAY-1
  6
CONTINUOUS
 62
     7
100
AcDbLine
 10
583.482051
 20
249.748185
 30
0.0
 11
581.75
 21
246.748185
 31
0.0
  0
LINE
  5
22C
100
AcDbEntity
  8
LAY-1
  6
CONTINUOUS
 62
     7
100
AcDbLine
 10
613.75
 20
249.748185
 30
0.0
 11
583.482051
 21
249.748185
 31
0.0
  0
LINE
  5
22D
100
AcDbEntity
  8
LAY-1
  6
CONTINUOUS
 62
     7
100
AcDbLine
 10
581.75
 20
246.748185
 30
0.0
 11
589.995299
 21
246.748185
 31
0.0
  0
LINE
  5
22E
100
AcDbEntity
  8
LAY-1
  6
CONTINUOUS
 62
     7
100
AcDbLine
 10
656.75
 20
718.376388
 30
0.0
 11
657.75
 21
718.376388
 31
0.0
  0
LINE
  5
22F
100
AcDbEntity
  8
LAY-1
  6
CONTINUOUS
 62
     7
100
AcDbLine
 10
657.75
 20
718.376388
 30
0.0
 11
657.75
 21
776.376388
 31
0.0
  0
LINE
  5
230
100
AcDbEntity
  8
LAY-1
  6
CONTINUOUS
 62
     7
100
AcDbLine
 10
657.75
 20
776.376388
 30
0.0
 11
656.75
 21
776.376388
 31
0.0
  0
ARC
  5
231
100
AcDbEntity
  8
LAY-1
  6
CONTINUOUS
 62
     7
100
AcDbCircle
 10
597.75
 20
721.376388
 30
0.0
 40
57.5
100
AcDbArc
 50
52.428131
 51
60.26013
  0
LINE
  5
232
100
AcDbEntity
  8
LAY-1
  6
CONTINUOUS
 62
     7
100
AcDbLine
 10
553.75
 20
697.376388
 30
0.0
 11
538.75
 21
697.376388
 31
0.0
  0
LINE
  5
233
100
AcDbEntity
  8
LAY-1
  6
CONTINUOUS
 62
     7
100
AcDbLine
 10
538.75
 20
797.376388
 30
0.0
 11
553.75
 21
797.376388
 31
0.0
  0
LINE
  5
234
100
AcDbEntity
  8
LAY-1
  6
CONTINUOUS
 62
     7
100
AcDbLine
 10
641.75
 20
797.376388
 30
0.0
 11
656.75
 21
797.376388
 31
0.0
  0
LINE
  5
235
100
AcDbEntity
  8
LAY-1
  6
CONTINUOUS
 62
     7
100
AcDbLine
 10
656.75
 20
697.376388
 30
0.0
 11
641.75
 21
697.376388
 31
0.0
  0
LINE
  5
236
100
AcDbEntity
  8
LAY-1
  6
CONTINUOUS
 62
     7
100
AcDbLine
 10
538.75
 20
776.376388
 30
0.0
 11
537.75
 21
776.376388
 31
0.0
  0
LINE
  5
237
100
AcDbEntity
  8
LAY-1
  6
CONTINUOUS
 62
     7
100
AcDbLine
 10
537.75
 20
776.376388
 30
0.0
 11
537.75
 21
718.376388
 31
0.0
  0
LINE
  5
238
100
AcDbEntity
  8
LAY-1
  6
CONTINUOUS
 62
     7
100
AcDbLine
 10
537.75
 20
718.376388
 30
0.0
 11
538.75
 21
718.376388
 31
0.0
  0
ARC
  5
239
100
AcDbEntity
  8
LAY-1
  6
CONTINUOUS
 62
     7
100
AcDbCircle
 10
557.75
 20
773.376388
 30
0.0
 40
4.0
100
AcDbArc
 50
180.0
 51
248.327689
  0
ARC
  5
23A
100
AcDbEntity
  8
LAY-1
  6
CONTINUOUS
 62
     7
100
AcDbCircle
 10
557.75
 20
721.376388
 30
0.0
 40
4.0
100
AcDbArc
 50
111.609305
 51
180.0
  0
ARC
  5
23B
100
AcDbEntity
  8
LAY-1
  6
CONTINUOUS
 62
     7
100
AcDbCircle
 10
637.75
 20
721.376389
 30
0.0
 40
4.0
100
AcDbArc
 50
0.0
 51
68.390695
  0
ARC
  5
23C
100
AcDbEntity
  8
LAY-1
  6
CONTINUOUS
 62
     7
100
AcDbCircle
 10
637.75
 20
773.376389
 30
0.0
 40
4.0
100
AcDbArc
 50
291.676334
 51
0.0
  0
ARC
  5
23D
100
AcDbEntity
  8
LAY-1
  6
CONTINUOUS
 62
     7
100
AcDbCircle
 10
597.75
 20
773.376388
 30
0.0
 40
57.5
100
AcDbArc
 50
297.682198
 51
307.571869
  0
ARC
  5
23E
100
AcDbEntity
  8
LAY-1
  6
CONTINUOUS
 62
     7
100
AcDbCircle
 10
597.75
 20
773.376388
 30
0.0
 40
57.5
100
AcDbArc
 50
232.428131
 51
242.317802
  0
ARC
  5
23F
100
AcDbEntity
  8
LAY-1
  6
CONTINUOUS
 62
     7
100
AcDbCircle
 10
597.75
 20
721.376388
 30
0.0
 40
57.5
100
AcDbArc
 50
119.73987
 51
127.571869
  0
ARC
  5
240
100
AcDbEntity
  8
LAY-1
  6
CONTINUOUS
 62
     7
100
AcDbCircle
 10
560.25
 20
770.120619
 30
0.0
 40
4.0
100
AcDbArc
 50
186.618459
 51
307.571869
  0
ARC
  5
241
100
AcDbEntity
  8
LAY-1
  6
CONTINUOUS
 62
     7
100
AcDbCircle
 10
635.25
 20
770.120619
 30
0.0
 40
4.0
100
AcDbArc
 50
232.428131
 51
353.383453
  0
ARC
  5
242
100
AcDbEntity
  8
LAY-1
  6
CONTINUOUS
 62
     7
100
AcDbCircle
 10
560.25
 20
724.632158
 30
0.0
 40
4.0
100
AcDbArc
 50
52.428131
 51
173.351716
  0
ARC
  5
243
100
AcDbEntity
  8
LAY-1
  6
CONTINUOUS
 62
     7
100
AcDbCircle
 10
635.25
 20
724.632158
 30
0.0
 40
4.0
100
AcDbArc
 50
6.648292
 51
127.571869
  0
ARC
  5
244
100
AcDbEntity
  8
LAY-1
  6
CONTINUOUS
 62
     7
100
AcDbCircle
 10
573.75
 20
812.124149
 30
0.0
 40
5.0
100
AcDbArc
 50
100.0
 51
143.130102
  0
LINE
  5
245
100
AcDbEntity
  8
LAY-1
  6
CONTINUOUS
 62
     7
100
AcDbLine
 10
590.92009
 20
832.876388
 30
0.0
 11
604.57991
 21
832.876388
 31
0.0
  0
LINE
  5
246
100
AcDbEntity
  8
LAY-1
  6
CONTINUOUS
 62
     7
100
AcDbLine
 10
569.75
 20
811.376388
 30
0.0
 11
570.25
 21
810.876388
 31
0.0
  0
ARC
  5
247
100
AcDbEntity
  8
LAY-1
  6
CONTINUOUS
 62
     7
100
AcDbCircle
 10
616.0
 20
819.738302
 30
0.0
 40
1.5
100
AcDbArc
 50
180.0
 51
260.0
  0
LINE
  5
248
100
AcDbEntity
  8
LAY-1
  6
CONTINUOUS
 62
     7
100
AcDbLine
 10
612.482051
 20
830.742414
 30
0.0
 11
614.0
 21
829.866025
 31
0.0
  0
LINE
  5
249
100
AcDbEntity
  8
LAY-1
  6
CONTINUOUS
 62
     7
100
AcDbLine
 10
614.5
 20
829.0
 30
0.0
 11
614.5
 21
819.738302
 31
0.0
  0
LINE
  5
24A
100
AcDbEntity
  8
LAY-1
  6
CONTINUOUS
 62
     7
100
AcDbLine
 10
581.0
 20
829.0
 30
0.0
 11
581.0
 21
819.738302
 31
0.0
  0
LINE
  5
24B
100
AcDbEntity
  8
LAY-1
  6
CONTINUOUS
 62
     7
100
AcDbLine
 10
583.017949
 20
830.742414
 30
0.0
 11
581.5
 21
829.866025
 31
0.0
  0
ARC
  5
24C
100
AcDbEntity
  8
LAY-1
  6
CONTINUOUS
 62
     7
100
AcDbCircle
 10
583.517949
 20
829.876388
 30
0.0
 40
1.0
100
AcDbArc
 50
90.0
 51
120.0
  0
ARC
  5
24D
100
AcDbEntity
  8
LAY-1
  6
CONTINUOUS
 62
     7
100
AcDbCircle
 10
621.75
 20
812.124149
 30
0.0
 40
5.0
100
AcDbArc
 50
36.869898
 51
80.0
  0
ARC
  5
24E
100
AcDbEntity
  8
LAY-1
  6
CONTINUOUS
 62
     7
100
AcDbCircle
 10
579.5
 20
819.738302
 30
0.0
 40
1.5
100
AcDbArc
 50
280.0
 51
0.0
  0
ARC
  5
24F
100
AcDbEntity
  8
LAY-1
  6
CONTINUOUS
 62
     7
100
AcDbCircle
 10
582.0
 20
829.0
 30
0.0
 40
1.0
100
AcDbArc
 50
120.0
 51
180.0
  0
ARC
  5
250
100
AcDbEntity
  8
LAY-1
  6
CONTINUOUS
 62
     7
100
AcDbCircle
 10
613.5
 20
829.0
 30
0.0
 40
1.0
100
AcDbArc
 50
0.0
 51
60.0
  0
LINE
  5
251
100
AcDbEntity
  8
LAY-1
  6
CONTINUOUS
 62
     7
100
AcDbLine
 10
569.75
 20
811.376388
 30
0.0
 11
569.75
 21
815.124149
 31
0.0
  0
LINE
  5
252
100
AcDbEntity
  8
LAY-1
  6
CONTINUOUS
 62
     7
100
AcDbLine
 10
615.739528
 20
818.26109
 30
0.0
 11
622.618241
 21
817.048188
 31
0.0
  0
LINE
  5
253
100
AcDbEntity
  8
LAY-1
  6
CONTINUOUS
 62
     7
100
AcDbLine
 10
625.75
 20
811.376388
 30
0.0
 11
625.25
 21
810.876388
 31
0.0
  0
LINE
  5
254
100
AcDbEntity
  8
LAY-1
  6
CONTINUOUS
 62
     7
100
AcDbLine
 10
625.75
 20
815.124149
 30
0.0
 11
625.75
 21
811.376388
 31
0.0
  0
LINE
  5
255
100
AcDbEntity
  8
LAY-1
  6
CONTINUOUS
 62
     7
100
AcDbLine
 10
579.760472
 20
818.26109
 30
0.0
 11
572.881759
 21
817.048188
 31
0.0
  0
LINE
  5
256
100
AcDbEntity
  8
LAY-1
  6
CONTINUOUS
 62
     7
100
AcDbLine
 10
601.791452
 20
834.876388
 30
0.0
 11
601.791452
 21
840.251174
 31
0.0
  0
LINE
  5
257
100
AcDbEntity
  8
LAY-1
  6
CONTINUOUS
 62
     7
100
AcDbLine
 10
597.75
 20
832.876388
 30
0.0
 11
604.428566
 21
832.876388
 31
0.0
  0
LINE
  5
258
100
AcDbEntity
  8
LAY-1
  6
CONTINUOUS
 62
     7
100
AcDbLine
 10
597.75
 20
832.876388
 30
0.0
 11
591.071434
 21
832.876388
 31
0.0
  0
LINE
  5
259
100
AcDbEntity
  8
LAY-1
  6
CONTINUOUS
 62
     7
100
AcDbLine
 10
597.75
 20
834.876388
 30
0.0
 11
589.667096
 21
834.876388
 31
0.0
  0
LINE
  5
25A
100
AcDbEntity
  8
LAY-1
  6
CONTINUOUS
 62
     7
100
AcDbLine
 10
605.832904
 20
834.876388
 30
0.0
 11
597.75
 21
834.876388
 31
0.0
  0
LINE
  5
25B
100
AcDbEntity
  8
LAY-1
  6
CONTINUOUS
 62
     7
100
AcDbLine
 10
589.667096
 20
840.251174
 30
0.0
 11
589.667096
 21
834.876388
 31
0.0
  0
LINE
  5
25C
100
AcDbEntity
  8
LAY-1
  6
CONTINUOUS
 62
     7
100
AcDbLine
 10
590.75
 20
840.876388
 30
0.0
 11
589.667096
 21
840.251174
 31
0.0
  0
LINE
  5
25D
100
AcDbEntity
  8
LAY-1
  6
CONTINUOUS
 62
     7
100
AcDbLine
 10
604.727115
 20
840.876388
 30
0.0
 11
590.75
 21
840.876388
 31
0.0
  0
LINE
  5
25E
100
AcDbEntity
  8
LAY-1
  6
CONTINUOUS
 62
     7
100
AcDbLine
 10
605.832904
 20
840.251174
 30
0.0
 11
604.727115
 21
840.876388
 31
0.0
  0
LINE
  5
25F
100
AcDbEntity
  8
LAY-1
  6
CONTINUOUS
 62
     7
100
AcDbLine
 10
605.832904
 20
834.876388
 30
0.0
 11
605.832904
 21
840.251174
 31
0.0
  0
ARC
  5
260
100
AcDbEntity
  8
LAY-1
  6
CONTINUOUS
 62
     7
100
AcDbCircle
 10
603.812178
 20
837.298237
 30
0.0
 40
3.578152
100
AcDbArc
 50
55.615753
 51
124.384247
  0
LINE
  5
261
100
AcDbEntity
  8
LAY-1
  6
CONTINUOUS
 62
     7
100
AcDbLine
 10
577.55
 20
810.876388
 30
0.0
 11
569.75
 21
810.876388
 31
0.0
  0
ARC
  5
262
100
AcDbEntity
  8
LAY-1
  6
CONTINUOUS
 62
     7
100
AcDbCircle
 10
611.982051
 20
829.876388
 30
0.0
 40
1.0
100
AcDbArc
 50
60.0
 51
90.0
  0
LINE
  5
263
100
AcDbEntity
  8
LAY-1
  6
CONTINUOUS
 62
     7
100
AcDbLine
 10
577.55
 20
810.876388
 30
0.0
 11
569.75
 21
810.876388
 31
0.0
  0
LINE
  5
264
100
AcDbEntity
  8
LAY-1
  6
CONTINUOUS
 62
     7
100
AcDbLine
 10
625.75
 20
810.876388
 30
0.0
 11
617.95
 21
810.876388
 31
0.0
  0
LINE
  5
265
100
AcDbEntity
  8
LAY-1
  6
CONTINUOUS
 62
     7
100
AcDbLine
 10
625.75
 20
810.876388
 30
0.0
 11
617.95
 21
810.876388
 31
0.0
  0
LINE
  5
266
100
AcDbEntity
  8
LAY-1
  6
CONTINUOUS
 62
     7
100
AcDbLine
 10
569.75
 20
797.249786
 30
0.0
 11
569.75
 21
810.876388
 31
0.0
  0
ARC
  5
267
100
AcDbEntity
  8
LAY-1
  6
CONTINUOUS
 62
     7
100
AcDbCircle
 10
572.75
 20
797.249786
 30
0.0
 40
3.0
100
AcDbArc
 50
180.0
 51
234.314665
  0
LINE
  5
268
100
AcDbEntity
  8
LAY-1
  6
CONTINUOUS
 62
     7
100
AcDbLine
 10
572.25
 20
776.512583
 30
0.0
 11
572.25
 21
792.376388
 31
0.0
  0
LINE
  5
269
100
AcDbEntity
  8
LAY-1
  6
CONTINUOUS
 62
     7
100
AcDbLine
 10
625.75
 20
810.876388
 30
0.0
 11
625.75
 21
797.249786
 31
0.0
  0
ARC
  5
26A
100
AcDbEntity
  8
LAY-1
  6
CONTINUOUS
 62
     7
100
AcDbCircle
 10
622.75
 20
797.249786
 30
0.0
 40
3.0
100
AcDbArc
 50
305.685335
 51
0.0
  0
LINE
  5
26B
100
AcDbEntity
  8
LAY-1
  6
CONTINUOUS
 62
     7
100
AcDbLine
 10
623.25
 20
792.376388
 30
0.0
 11
623.25
 21
776.512583
 31
0.0
  0
ARC
  5
26C
100
AcDbEntity
  8
LAY-1
  6
CONTINUOUS
 62
     7
100
AcDbCircle
 10
626.25
 20
792.376388
 30
0.0
 40
3.0
100
AcDbArc
 50
125.685335
 51
180.0
  0
ARC
  5
26D
100
AcDbEntity
  8
LAY-1
  6
CONTINUOUS
 62
     7
100
AcDbCircle
 10
569.25
 20
792.376388
 30
0.0
 40
3.0
100
AcDbArc
 50
0.0
 51
54.314665
  0
ARC
  5
26E
100
AcDbEntity
  8
LAY-1
  6
CONTINUOUS
 62
     7
100
AcDbCircle
 10
629.25
 20
776.512583
 30
0.0
 40
6.0
100
AcDbArc
 50
180.0
 51
240.26013
  0
ARC
  5
26F
100
AcDbEntity
  8
LAY-1
  6
CONTINUOUS
 62
     7
100
AcDbCircle
 10
566.25
 20
776.512583
 30
0.0
 40
6.0
100
AcDbArc
 50
299.73987
 51
0.0
  0
ARC
  5
270
100
AcDbEntity
  8
LAY-1
  6
CONTINUOUS
 62
     7
100
AcDbCircle
 10
597.75
 20
827.501603
 30
0.0
 40
13.374785
100
AcDbArc
 50
72.412046
 51
107.587954
  0
ARC
  5
271
100
AcDbEntity
  8
LAY-1
  6
CONTINUOUS
 62
     7
100
AcDbCircle
 10
591.687822
 20
837.298237
 30
0.0
 40
3.578152
100
AcDbArc
 50
55.615753
 51
124.384247
  0
LINE
  5
272
100
AcDbEntity
  8
LAY-1
  6
CONTINUOUS
 62
     7
100
AcDbLine
 10
593.708548
 20
834.876388
 30
0.0
 11
593.708548
 21
840.251174
 31
0.0
  0
LINE
  5
273
100
AcDbEntity
  8
LAY-1
  6
CONTINUOUS
 62
     7
100
AcDbLine
 10
597.75
 20
830.876388
 30
0.0
 11
611.982051
 21
830.876388
 31
0.0
  0
LINE
  5
274
100
AcDbEntity
  8
LAY-1
  6
CONTINUOUS
 62
     7
100
AcDbLine
 10
597.75
 20
830.876388
 30
0.0
 11
583.517949
 21
830.876388
 31
0.0
  0
LINE
  5
275
100
AcDbEntity
  8
LAY-1
  6
CONTINUOUS
 62
     7
100
AcDbLine
 10
570.25
 20
810.876388
 30
0.0
 11
597.75
 21
810.876388
 31
0.0
  0
LINE
  5
276
100
AcDbEntity
  8
LAY-1
  6
CONTINUOUS
 62
     7
100
AcDbLine
 10
625.25
 20
810.876388
 30
0.0
 11
597.75
 21
810.876388
 31
0.0
  0
LINE
  5
277
100
AcDbEntity
  8
LAY-1
  6
CONTINUOUS
 62
     7
100
AcDbLine
 10
604.517058
 20
830.876388
 30
0.0
 11
604.642763
 21
834.876388
 31
0.0
  0
LINE
  5
278
100
AcDbEntity
  8
LAY-1
  6
CONTINUOUS
 62
     7
100
AcDbLine
 10
590.982942
 20
830.876388
 30
0.0
 11
590.857237
 21
834.876388
 31
0.0
  0
LINE
  5
279
100
AcDbEntity
  8
LAY-1
  6
CONTINUOUS
 62
     7
100
AcDbLine
 10
623.35
 20
796.212287
 30
0.0
 11
597.75
 21
796.212287
 31
0.0
  0
LINE
  5
27A
100
AcDbEntity
  8
LAY-1
  6
CONTINUOUS
 62
     7
100
AcDbLine
 10
621.75
 20
793.712287
 30
0.0
 11
597.75
 21
793.712287
 31
0.0
  0
LINE
  5
27B
100
AcDbEntity
  8
LAY-1
  6
CONTINUOUS
 62
     7
100
AcDbLine
 10
572.15
 20
796.212287
 30
0.0
 11
597.75
 21
796.212287
 31
0.0
  0
LINE
  5
27C
100
AcDbEntity
  8
LAY-1
  6
CONTINUOUS
 62
     7
100
AcDbLine
 10
573.75
 20
793.712287
 30
0.0
 11
597.75
 21
793.712287
 31
0.0
  0
LINE
  5
27D
100
AcDbEntity
  8
LAY-1
  6
CONTINUOUS
 62
     7
100
AcDbLine
 10
606.121579
 20
829.312287
 30
0.0
 11
606.121579
 21
818.876388
 31
0.0
  0
LINE
  5
27E
100
AcDbEntity
  8
LAY-1
  6
CONTINUOUS
 62
     7
100
AcDbLine
 10
589.378421
 20
829.312287
 30
0.0
 11
589.378421
 21
818.876388
 31
0.0
  0
ARC
  5
27F
100
AcDbEntity
  8
LAY-1
  6
CONTINUOUS
 62
     7
100
AcDbCircle
 10
585.214217
 20
824.551028
 30
0.0
 40
6.32536
100
AcDbArc
 50
48.827006
 51
131.172994
  0
ARC
  5
280
100
AcDbEntity
  8
LAY-1
  6
CONTINUOUS
 62
     7
100
AcDbCircle
 10
597.75
 20
807.690635
 30
0.0
 40
23.185753
100
AcDbArc
 50
68.834344
 51
111.165656
  0
ARC
  5
281
100
AcDbEntity
  8
LAY-1
  6
CONTINUOUS
 62
     7
100
AcDbCircle
 10
610.26557
 20
824.604713
 30
0.0
 40
6.271675
100
AcDbArc
 50
47.967709
 51
131.356872
  0
LINE
  5
282
100
AcDbEntity
  8
LAY-1
  6
CONTINUOUS
 62
     7
100
AcDbLine
 10
597.75
 20
815.124149
 30
0.0
 11
625.75
 21
815.124149
 31
0.0
  0
LINE
  5
283
100
AcDbEntity
  8
LAY-1
  6
CONTINUOUS
 62
     7
100
AcDbLine
 10
597.75
 20
815.124149
 30
0.0
 11
569.75
 21
815.124149
 31
0.0
  0
ARC
  5
284
100
AcDbEntity
  8
LAY-1
  6
CONTINUOUS
 62
     7
100
AcDbCircle
 10
568.25
 20
717.144725
 30
0.0
 40
6.0
100
AcDbArc
 50
0.0
 51
62.317802
  0
ARC
  5
285
100
AcDbEntity
  8
LAY-1
  6
CONTINUOUS
 62
     7
100
AcDbCircle
 10
622.75
 20
713.376388
 30
0.0
 40
1.5
100
AcDbArc
 50
180.0
 51
240.0
  0
ARC
  5
286
100
AcDbEntity
  8
LAY-1
  6
CONTINUOUS
 62
     7
100
AcDbCircle
 10
572.75
 20
713.376388
 30
0.0
 40
1.5
100
AcDbArc
 50
300.0
 51
0.0
  0
LINE
  5
287
100
AcDbEntity
  8
LAY-1
  6
CONTINUOUS
 62
     7
100
AcDbLine
 10
574.25
 20
713.376388
 30
0.0
 11
574.25
 21
717.144725
 31
0.0
  0
LINE
  5
288
100
AcDbEntity
  8
LAY-1
  6
CONTINUOUS
 62
     7
100
AcDbLine
 10
621.25
 20
713.376388
 30
0.0
 11
621.25
 21
717.144725
 31
0.0
  0
ARC
  5
289
100
AcDbEntity
  8
LAY-1
  6
CONTINUOUS
 62
     7
100
AcDbCircle
 10
627.25
 20
717.144725
 30
0.0
 40
6.0
100
AcDbArc
 50
117.682198
 51
180.0
  0
ARC
  5
28A
100
AcDbEntity
  8
LAY-1
  6
CONTINUOUS
 62
     7
100
AcDbCircle
 10
621.25
 20
710.778312
 30
0.0
 40
1.5
100
AcDbArc
 50
0.0
 51
60.0
  0
LINE
  5
28B
100
AcDbEntity
  8
LAY-1
  6
CONTINUOUS
 62
     7
100
AcDbLine
 10
622.75
 20
697.876388
 30
0.0
 11
622.75
 21
710.778312
 31
0.0
  0
LINE
  5
28C
100
AcDbEntity
  8
LAY-1
  6
CONTINUOUS
 62
     7
100
AcDbLine
 10
572.75
 20
697.876388
 30
0.0
 11
574.75
 21
695.876388
 31
0.0
  0
LINE
  5
28D
100
AcDbEntity
  8
LAY-1
  6
CONTINUOUS
 62
     7
100
AcDbLine
 10
572.75
 20
710.778312
 30
0.0
 11
572.75
 21
697.876388
 31
0.0
  0
ARC
  5
28E
100
AcDbEntity
  8
LAY-1
  6
CONTINUOUS
 62
     7
100
AcDbCircle
 10
574.25
 20
710.778312
 30
0.0
 40
1.5
100
AcDbArc
 50
120.0
 51
180.0
  0
LINE
  5
28F
100
AcDbEntity
  8
LAY-1
  6
CONTINUOUS
 62
     7
100
AcDbLine
 10
620.75
 20
695.876388
 30
0.0
 11
622.75
 21
697.876388
 31
0.0
  0
LINE
  5
290
100
AcDbEntity
  8
LAY-1
  6
CONTINUOUS
 62
     7
100
AcDbLine
 10
597.75
 20
695.876388
 30
0.0
 11
620.75
 21
695.876388
 31
0.0
  0
LINE
  5
291
100
AcDbEntity
  8
LAY-1
  6
CONTINUOUS
 62
     7
100
AcDbLine
 10
597.75
 20
695.876388
 30
0.0
 11
574.75
 21
695.876388
 31
0.0
  0
LINE
  5
292
100
AcDbEntity
  8
LAY-1
  6
CONTINUOUS
 62
     7
100
AcDbLine
 10
574.75
 20
695.876388
 30
0.0
 11
571.191888
 21
693.822111
 31
0.0
  0
LINE
  5
293
100
AcDbEntity
  8
LAY-1
  6
CONTINUOUS
 62
     7
100
AcDbLine
 10
571.191888
 20
693.822111
 30
0.0
 11
571.191888
 21
673.662716
 31
0.0
  0
LINE
  5
294
100
AcDbEntity
  8
LAY-1
  6
CONTINUOUS
 62
     7
100
AcDbLine
 10
603.75
 20
643.108439
 30
0.0
 11
597.75
 21
643.108439
 31
0.0
  0
LINE
  5
295
100
AcDbEntity
  8
LAY-1
  6
CONTINUOUS
 62
     7
100
AcDbLine
 10
602.75
 20
641.376388
 30
0.0
 11
603.75
 21
643.108439
 31
0.0
  0
LINE
  5
296
100
AcDbEntity
  8
LAY-1
  6
CONTINUOUS
 62
     7
100
AcDbLine
 10
597.75
 20
641.376388
 30
0.0
 11
606.877732
 21
641.376388
 31
0.0
  0
ARC
  5
297
100
AcDbEntity
  8
LAY-1
  6
CONTINUOUS
 62
     7
100
AcDbCircle
 10
616.75
 20
656.876388
 30
0.0
 40
1.0
100
AcDbArc
 50
270.0
 51
0.0
  0
ARC
  5
298
100
AcDbEntity
  8
LAY-1
  6
CONTINUOUS
 62
     7
100
AcDbCircle
 10
618.75
 20
669.299038
 30
0.0
 40
1.0
100
AcDbArc
 50
120.0
 51
180.0
  0
LINE
  5
299
100
AcDbEntity
  8
LAY-1
  6
CONTINUOUS
 62
     7
100
AcDbLine
 10
577.75
 20
669.299038
 30
0.0
 11
577.75
 21
656.876388
 31
0.0
  0
LINE
  5
29A
100
AcDbEntity
  8
LAY-1
  6
CONTINUOUS
 62
     7
100
AcDbLine
 10
577.75
 20
668.17143
 30
0.0
 11
577.75
 21
669.299038
 31
0.0
  0
LINE
  5
29B
100
AcDbEntity
  8
LAY-1
  6
CONTINUOUS
 62
     7
100
AcDbLine
 10
571.191888
 20
673.662716
 30
0.0
 11
577.25
 21
670.165064
 31
0.0
  0
LINE
  5
29C
100
AcDbEntity
  8
LAY-1
  6
CONTINUOUS
 62
     7
100
AcDbLine
 10
571.191888
 20
693.822111
 30
0.0
 11
571.191888
 21
673.662716
 31
0.0
  0
LINE
  5
29D
100
AcDbEntity
  8
LAY-1
  6
CONTINUOUS
 62
     7
100
AcDbLine
 10
574.75
 20
695.876388
 30
0.0
 11
571.191888
 21
693.822111
 31
0.0
  0
LINE
  5
29E
100
AcDbEntity
  8
LAY-1
  6
CONTINUOUS
 62
     7
100
AcDbLine
 10
577.75
 20
669.299038
 30
0.0
 11
577.75
 21
656.876388
 31
0.0
  0
LINE
  5
29F
100
AcDbEntity
  8
LAY-1
  6
CONTINUOUS
 62
     7
100
AcDbLine
 10
578.75
 20
655.876388
 30
0.0
 11
581.75
 21
655.876388
 31
0.0
  0
ARC
  5
2A0
100
AcDbEntity
  8
LAY-1
  6
CONTINUOUS
 62
     7
100
AcDbCircle
 10
578.75
 20
656.876388
 30
0.0
 40
1.0
100
AcDbArc
 50
180.0
 51
270.0
  0
ARC
  5
2A1
100
AcDbEntity
  8
LAY-1
  6
CONTINUOUS
 62
     7
100
AcDbCircle
 10
576.75
 20
669.299038
 30
0.0
 40
1.0
100
AcDbArc
 50
0.0
 51
60.0
  0
LINE
  5
2A2
100
AcDbEntity
  8
LAY-1
  6
CONTINUOUS
 62
     7
100
AcDbLine
 10
617.75
 20
669.299038
 30
0.0
 11
617.75
 21
656.876388
 31
0.0
  0
LINE
  5
2A3
100
AcDbEntity
  8
LAY-1
  6
CONTINUOUS
 62
     7
100
AcDbLine
 10
617.75
 20
668.17143
 30
0.0
 11
617.75
 21
669.299038
 31
0.0
  0
LINE
  5
2A4
100
AcDbEntity
  8
LAY-1
  6
CONTINUOUS
 62
     7
100
AcDbLine
 10
624.308112
 20
673.662716
 30
0.0
 11
618.25
 21
670.165064
 31
0.0
  0
LINE
  5
2A5
100
AcDbEntity
  8
LAY-1
  6
CONTINUOUS
 62
     7
100
AcDbLine
 10
624.308112
 20
693.822111
 30
0.0
 11
624.308112
 21
673.662716
 31
0.0
  0
LINE
  5
2A6
100
AcDbEntity
  8
LAY-1
  6
CONTINUOUS
 62
     7
100
AcDbLine
 10
620.75
 20
695.876388
 30
0.0
 11
624.308112
 21
693.822111
 31
0.0
  0
LINE
  5
2A7
100
AcDbEntity
  8
LAY-1
  6
CONTINUOUS
 62
     7
100
AcDbLine
 10
577.542741
 20
647.939425
 30
0.0
 11
580.25
 21
646.376388
 31
0.0
  0
LINE
  5
2A8
100
AcDbEntity
  8
LAY-1
  6
CONTINUOUS
 62
     7
100
AcDbLine
 10
577.542741
 20
653.376388
 30
0.0
 11
577.542741
 21
647.939425
 31
0.0
  0
LINE
  5
2A9
100
AcDbEntity
  8
LAY-1
  6
CONTINUOUS
 62
     7
100
AcDbLine
 10
581.75
 20
655.876388
 30
0.0
 11
581.75
 21
653.376388
 31
0.0
  0
LINE
  5
2AA
100
AcDbEntity
  8
LAY-1
  6
CONTINUOUS
 62
     7
100
AcDbLine
 10
613.75
 20
655.876388
 30
0.0
 11
613.75
 21
653.376388
 31
0.0
  0
LINE
  5
2AB
100
AcDbEntity
  8
LAY-1
  6
CONTINUOUS
 62
     7
100
AcDbLine
 10
617.957259
 20
653.376388
 30
0.0
 11
617.957259
 21
647.939425
 31
0.0
  0
LINE
  5
2AC
100
AcDbEntity
  8
LAY-1
  6
CONTINUOUS
 62
     7
100
AcDbLine
 10
617.957259
 20
647.939425
 30
0.0
 11
615.25
 21
646.376388
 31
0.0
  0
ARC
  5
2AD
100
AcDbEntity
  8
LAY-1
  6
CONTINUOUS
 62
     7
100
AcDbCircle
 10
609.75
 20
641.242457
 30
0.0
 40
2.0
100
AcDbArc
 50
196.779519
 51
262.337744
  0
ARC
  5
2AE
100
AcDbEntity
  8
LAY-1
  6
CONTINUOUS
 62
     7
100
AcDbCircle
 10
606.877732
 20
640.376388
 30
0.0
 40
1.0
100
AcDbArc
 50
16.779519
 51
90.0
  0
ARC
  5
2AF
100
AcDbEntity
  8
LAY-1
  6
CONTINUOUS
 62
     7
100
AcDbCircle
 10
564.25
 20
627.876388
 30
0.0
 40
6.5
100
AcDbArc
 50
90.0
 51
270.0
  0
LINE
  5
2B0
100
AcDbEntity
  8
LAY-1
  6
CONTINUOUS
 62
     7
100
AcDbLine
 10
631.25
 20
621.376388
 30
0.0
 11
626.75
 21
621.376388
 31
0.0
  0
LINE
  5
2B1
100
AcDbEntity
  8
LAY-1
  6
CONTINUOUS
 62
     7
100
AcDbLine
 10
597.75
 20
641.376388
 30
0.0
 11
588.622268
 21
641.376388
 31
0.0
  0
ARC
  5
2B2
100
AcDbEntity
  8
LAY-1
  6
CONTINUOUS
 62
     7
100
AcDbCircle
 10
585.75
 20
641.242457
 30
0.0
 40
2.0
100
AcDbArc
 50
277.662256
 51
343.220481
  0
ARC
  5
2B3
100
AcDbEntity
  8
LAY-1
  6
CONTINUOUS
 62
     7
100
AcDbCircle
 10
588.622268
 20
640.376388
 30
0.0
 40
1.0
100
AcDbArc
 50
90.0
 51
163.220481
  0
ARC
  5
2B4
100
AcDbEntity
  8
LAY-1
  6
CONTINUOUS
 62
     7
100
AcDbCircle
 10
631.25
 20
627.876388
 30
0.0
 40
6.5
100
AcDbArc
 50
270.0
 51
90.0
  0
LINE
  5
2B5
100
AcDbEntity
  8
LAY-1
  6
CONTINUOUS
 62
     7
100
AcDbLine
 10
581.562
 20
695.876388
 30
0.0
 11
574.75
 21
695.876388
 31
0.0
  0
LINE
  5
2B6
100
AcDbEntity
  8
LAY-1
  6
CONTINUOUS
 62
     7
100
AcDbLine
 10
620.75
 20
695.876388
 30
0.0
 11
613.938
 21
695.876388
 31
0.0
  0
LINE
  5
2B7
100
AcDbEntity
  8
LAY-1
  6
CONTINUOUS
 62
     7
100
AcDbLine
 10
591.75
 20
643.108439
 30
0.0
 11
597.75
 21
643.108439
 31
0.0
  0
LINE
  5
2B8
100
AcDbEntity
  8
LAY-1
  6
CONTINUOUS
 62
     7
100
AcDbLine
 10
592.75
 20
641.376388
 30
0.0
 11
591.75
 21
643.108439
 31
0.0
  0
LINE
  5
2B9
100
AcDbEntity
  8
LAY-1
  6
CONTINUOUS
 62
     7
100
AcDbLine
 10
571.191888
 20
673.662716
 30
0.0
 11
577.25
 21
670.165064
 31
0.0
  0
ARC
  5
2BA
100
AcDbEntity
  8
LAY-1
  6
CONTINUOUS
 62
     7
100
AcDbCircle
 10
578.75
 20
656.876388
 30
0.0
 40
1.0
100
AcDbArc
 50
180.0
 51
270.0
  0
LINE
  5
2BB
100
AcDbEntity
  8
LAY-1
  6
CONTINUOUS
 62
     7
100
AcDbLine
 10
620.75
 20
695.876388
 30
0.0
 11
624.308112
 21
693.822111
 31
0.0
  0
LINE
  5
2BC
100
AcDbEntity
  8
LAY-1
  6
CONTINUOUS
 62
     7
100
AcDbLine
 10
624.308112
 20
693.822111
 30
0.0
 11
624.308112
 21
673.662716
 31
0.0
  0
ARC
  5
2BD
100
AcDbEntity
  8
LAY-1
  6
CONTINUOUS
 62
     7
100
AcDbCircle
 10
576.75
 20
669.299038
 30
0.0
 40
1.0
100
AcDbArc
 50
0.0
 51
60.0
  0
LINE
  5
2BE
100
AcDbEntity
  8
LAY-1
  6
CONTINUOUS
 62
     7
100
AcDbLine
 10
617.75
 20
668.17143
 30
0.0
 11
617.75
 21
669.299038
 31
0.0
  0
LINE
  5
2BF
100
AcDbEntity
  8
LAY-1
  6
CONTINUOUS
 62
     7
100
AcDbLine
 10
624.308112
 20
673.662716
 30
0.0
 11
618.25
 21
670.165064
 31
0.0
  0
LINE
  5
2C0
100
AcDbEntity
  8
LAY-1
  6
CONTINUOUS
 62
     7
100
AcDbLine
 10
617.75
 20
669.299038
 30
0.0
 11
617.75
 21
656.876388
 31
0.0
  0
LINE
  5
2C1
100
AcDbEntity
  8
LAY-1
  6
CONTINUOUS
 62
     7
100
AcDbLine
 10
616.75
 20
655.876388
 30
0.0
 11
613.75
 21
655.876388
 31
0.0
  0
LINE
  5
2C2
100
AcDbEntity
  8
LAY-1
  6
CONTINUOUS
 62
     7
100
AcDbLine
 10
577.75
 20
668.17143
 30
0.0
 11
577.75
 21
669.299038
 31
0.0
  0
ARC
  5
2C3
100
AcDbEntity
  8
LAY-1
  6
CONTINUOUS
 62
     7
100
AcDbCircle
 10
618.75
 20
669.299038
 30
0.0
 40
1.0
100
AcDbArc
 50
120.0
 51
180.0
  0
ARC
  5
2C4
100
AcDbEntity
  8
LAY-1
  6
CONTINUOUS
 62
     7
100
AcDbCircle
 10
616.75
 20
656.876388
 30
0.0
 40
1.0
100
AcDbArc
 50
270.0
 51
0.0
  0
LINE
  5
2C5
100
AcDbEntity
  8
LAY-1
  6
CONTINUOUS
 62
     7
100
AcDbLine
 10
581.562
 20
695.876388
 30
0.0
 11
574.75
 21
695.876388
 31
0.0
  0
LINE
  5
2C6
100
AcDbEntity
  8
LAY-1
  6
CONTINUOUS
 62
     7
100
AcDbLine
 10
581.562
 20
695.876388
 30
0.0
 11
574.75
 21
695.876388
 31
0.0
  0
LINE
  5
2C7
100
AcDbEntity
  8
LAY-1
  6
CONTINUOUS
 62
     7
100
AcDbLine
 10
571.191888
 20
693.822111
 30
0.0
 11
571.191888
 21
673.662716
 31
0.0
  0
LINE
  5
2C8
100
AcDbEntity
  8
LAY-1
  6
CONTINUOUS
 62
     7
100
AcDbLine
 10
574.75
 20
695.876388
 30
0.0
 11
571.191888
 21
693.822111
 31
0.0
  0
LINE
  5
2C9
100
AcDbEntity
  8
LAY-1
  6
CONTINUOUS
 62
     7
100
AcDbLine
 10
624.308112
 20
693.822111
 30
0.0
 11
624.308112
 21
673.662716
 31
0.0
  0
LINE
  5
2CA
100
AcDbEntity
  8
LAY-1
  6
CONTINUOUS
 62
     7
100
AcDbLine
 10
620.75
 20
695.876388
 30
0.0
 11
624.308112
 21
693.822111
 31
0.0
  0
LINE
  5
2CB
100
AcDbEntity
  8
LAY-1
  6
CONTINUOUS
 62
     7
100
AcDbLine
 10
564.25
 20
634.376388
 30
0.0
 11
597.75
 21
634.376388
 31
0.0
  0
LINE
  5
2CC
100
AcDbEntity
  8
LAY-1
  6
CONTINUOUS
 62
     7
100
AcDbLine
 10
631.25
 20
634.376388
 30
0.0
 11
597.75
 21
634.376388
 31
0.0
  0
LINE
  5
2CD
100
AcDbEntity
  8
LAY-1
  6
CONTINUOUS
 62
     7
100
AcDbLine
 10
627.75
 20
621.376388
 30
0.0
 11
597.75
 21
621.376388
 31
0.0
  0
LINE
  5
2CE
100
AcDbEntity
  8
LAY-1
  6
CONTINUOUS
 62
     7
100
AcDbLine
 10
564.05
 20
621.376388
 30
0.0
 11
597.75
 21
621.376388
 31
0.0
  0
ARC
  5
2CF
100
AcDbEntity
  8
LAY-1
  6
CONTINUOUS
 62
     7
100
AcDbCircle
 10
597.75
 20
624.876388
 30
0.0
 40
4.5
100
AcDbArc
 50
231.057559
 51
308.942441
  0
ARC
  5
2D0
100
AcDbEntity
  8
LAY-1
  6
CONTINUOUS
 62
     7
100
AcDbCircle
 10
587.75
 20
626.376388
 30
0.0
 40
13.0
100
AcDbArc
 50
97.662256
 51
142.020128
  0
ARC
  5
2D1
100
AcDbEntity
  8
LAY-1
  6
CONTINUOUS
 62
     7
100
AcDbCircle
 10
607.75
 20
626.376388
 30
0.0
 40
13.0
100
AcDbArc
 50
37.979872
 51
82.337744
  0
LINE
  5
2D2
100
AcDbEntity
  8
LAY-1
  6
CONTINUOUS
 62
     7
100
AcDbLine
 10
616.75
 20
655.876388
 30
0.0
 11
597.75
 21
655.876388
 31
0.0
  0
LINE
  5
2D3
100
AcDbEntity
  8
LAY-1
  6
CONTINUOUS
 62
     7
100
AcDbLine
 10
578.75
 20
655.876388
 30
0.0
 11
597.75
 21
655.876388
 31
0.0
  0
LINE
  5
2D4
100
AcDbEntity
  8
LAY-1
  6
CONTINUOUS
 62
     7
100
AcDbLine
 10
591.75
 20
646.376388
 30
0.0
 11
591.75
 21
643.108439
 31
0.0
  0
LINE
  5
2D5
100
AcDbEntity
  8
LAY-1
  6
CONTINUOUS
 62
     7
100
AcDbLine
 10
580.25
 20
646.376388
 30
0.0
 11
597.75
 21
646.376388
 31
0.0
  0
LINE
  5
2D6
100
AcDbEntity
  8
LAY-1
  6
CONTINUOUS
 62
     7
100
AcDbLine
 10
615.25
 20
646.376388
 30
0.0
 11
597.75
 21
646.376388
 31
0.0
  0
LINE
  5
2D7
100
AcDbEntity
  8
LAY-1
  6
CONTINUOUS
 62
     7
100
AcDbLine
 10
603.75
 20
646.376388
 30
0.0
 11
603.75
 21
643.108439
 31
0.0
  0
LINE
  5
2D8
100
AcDbEntity
  8
LAY-1
  6
CONTINUOUS
 62
     7
100
AcDbLine
 10
597.75
 20
695.876388
 30
0.0
 11
620.75
 21
695.876388
 31
0.0
  0
LINE
  5
2D9
100
AcDbEntity
  8
LAY-1
  6
CONTINUOUS
 62
     7
100
AcDbLine
 10
597.75
 20
695.876388
 30
0.0
 11
574.75
 21
695.876388
 31
0.0
  0
LINE
  5
2DA
100
AcDbEntity
  8
LAY-1
  6
CONTINUOUS
 62
     7
100
AcDbLine
 10
597.75
 20
653.376388
 30
0.0
 11
617.957259
 21
653.376388
 31
0.0
  0
LINE
  5
2DB
100
AcDbEntity
  8
LAY-1
  6
CONTINUOUS
 62
     7
100
AcDbLine
 10
597.75
 20
653.376388
 30
0.0
 11
577.542741
 21
653.376388
 31
0.0
  0
LINE
  5
2DC
100
AcDbEntity
  8
LAY-1
  6
CONTINUOUS
 62
     7
100
AcDbLine
 10
607.85363
 20
653.376388
 30
0.0
 11
607.85363
 21
647.939425
 31
0.0
  0
LINE
  5
2DD
100
AcDbEntity
  8
LAY-1
  6
CONTINUOUS
 62
     7
100
AcDbLine
 10
587.64637
 20
653.376388
 30
0.0
 11
587.64637
 21
647.939425
 31
0.0
  0
ARC
  5
2DE
100
AcDbEntity
  8
LAY-1
  6
CONTINUOUS
 62
     7
100
AcDbCircle
 10
612.905445
 20
655.321768
 30
0.0
 40
8.94538
100
AcDbArc
 50
235.615753
 51
304.384247
  0
ARC
  5
2DF
100
AcDbEntity
  8
LAY-1
  6
CONTINUOUS
 62
     7
100
AcDbCircle
 10
597.75
 20
679.813351
 30
0.0
 40
33.436963
100
AcDbArc
 50
252.412046
 51
287.587954
  0
ARC
  5
2E0
100
AcDbEntity
  8
LAY-1
  6
CONTINUOUS
 62
     7
100
AcDbCircle
 10
582.594555
 20
655.321768
 30
0.0
 40
8.94538
100
AcDbArc
 50
235.615753
 51
304.384247
  0
LINE
  5
2E1
100
AcDbEntity
  8
LAY-1
  6
CONTINUOUS
 62
     7
100
AcDbLine
 10
611.029056
 20
693.822111
 30
0.0
 11
611.029056
 21
673.662716
 31
0.0
  0
LINE
  5
2E2
100
AcDbEntity
  8
LAY-1
  6
CONTINUOUS
 62
     7
100
AcDbLine
 10
584.470944
 20
693.822111
 30
0.0
 11
584.470944
 21
673.662716
 31
0.0
  0
ARC
  5
2E3
100
AcDbEntity
  8
LAY-1
  6
CONTINUOUS
 62
     7
100
AcDbCircle
 10
617.668584
 20
683.365224
 30
0.0
 40
11.756785
100
AcDbArc
 50
235.615753
 51
304.384247
  0
ARC
  5
2E4
100
AcDbEntity
  8
LAY-1
  6
CONTINUOUS
 62
     7
100
AcDbCircle
 10
597.75
 20
715.554162
 30
0.0
 40
43.945723
100
AcDbArc
 50
252.412046
 51
287.587954
  0
ARC
  5
2E5
100
AcDbEntity
  8
LAY-1
  6
CONTINUOUS
 62
     7
100
AcDbCircle
 10
577.831416
 20
683.365224
 30
0.0
 40
11.756785
100
AcDbArc
 50
235.615753
 51
304.384247
  0
ARC
  5
2E6
100
AcDbEntity
  8
LAY-1
  6
CONTINUOUS
 62
     7
100
AcDbCircle
 10
577.831416
 20
684.119604
 30
0.0
 40
11.756785
100
AcDbArc
 50
55.615753
 51
124.384247
  0
ARC
  5
2E7
100
AcDbEntity
  8
LAY-1
  6
CONTINUOUS
 62
     7
100
AcDbCircle
 10
597.75
 20
651.930666
 30
0.0
 40
43.945723
100
AcDbArc
 50
72.412046
 51
107.587954
  0
ARC
  5
2E8
100
AcDbEntity
  8
LAY-1
  6
CONTINUOUS
 62
     7
100
AcDbCircle
 10
617.668584
 20
684.119604
 30
0.0
 40
11.756785
100
AcDbArc
 50
55.615753
 51
124.384247
  0
LINE
  5
2E9
100
AcDbEntity
  8
LAY-1
  6
CONTINUOUS
 62
     7
100
AcDbLine
 10
656.75
 20
697.376388
 30
0.0
 11
656.75
 21
747.376388
 31
0.0
  0
LINE
  5
2EA
100
AcDbEntity
  8
LAY-1
  6
CONTINUOUS
 62
     7
100
AcDbLine
 10
656.75
 20
747.376388
 30
0.0
 11
656.75
 21
797.376388
 31
0.0
  0
LINE
  5
2EB
100
AcDbEntity
  8
LAY-1
  6
CONTINUOUS
 62
     7
100
AcDbLine
 10
641.75
 20
797.376388
 30
0.0
 11
641.75
 21
747.376388
 31
0.0
  0
LINE
  5
2EC
100
AcDbEntity
  8
LAY-1
  6
CONTINUOUS
 62
     7
100
AcDbLine
 10
641.75
 20
697.376388
 30
0.0
 11
641.75
 21
747.376388
 31
0.0
  0
LINE
  5
2ED
100
AcDbEntity
  8
LAY-1
  6
CONTINUOUS
 62
     7
100
AcDbLine
 10
553.75
 20
747.376388
 30
0.0
 11
553.75
 21
697.376388
 31
0.0
  0
LINE
  5
2EE
100
AcDbEntity
  8
LAY-1
  6
CONTINUOUS
 62
     7
100
AcDbLine
 10
538.75
 20
747.376388
 30
0.0
 11
538.75
 21
697.376388
 31
0.0
  0
LINE
  5
2EF
100
AcDbEntity
  8
LAY-1
  6
CONTINUOUS
 62
     7
100
AcDbLine
 10
538.75
 20
797.376388
 30
0.0
 11
538.75
 21
747.376388
 31
0.0
  0
LINE
  5
2F0
100
AcDbEntity
  8
LAY-1
  6
CONTINUOUS
 62
     7
100
AcDbLine
 10
553.75
 20
747.376388
 30
0.0
 11
553.75
 21
797.376388
 31
0.0
  0
LINE
  5
2F1
100
AcDbEntity
  8
LAY-1
  6
CONTINUOUS
 62
     7
100
AcDbLine
 10
556.276898
 20
725.095255
 30
0.0
 11
556.276898
 21
769.659144
 31
0.0
  0
LINE
  5
2F2
100
AcDbEntity
  8
LAY-1
  6
CONTINUOUS
 62
     7
100
AcDbLine
 10
639.223102
 20
725.095255
 30
0.0
 11
639.223102
 21
769.659723
 31
0.0
  0
LINE
  5
2F3
100
AcDbEntity
  8
LAY-1
  6
CONTINUOUS
 62
     7
100
AcDbLine
 10
620.45
 20
710.612287
 30
0.0
 11
597.75
 21
710.612287
 31
0.0
  0
LINE
  5
2F4
100
AcDbEntity
  8
LAY-1
  6
CONTINUOUS
 62
     7
100
AcDbLine
 10
619.85
 20
712.312287
 30
0.0
 11
597.75
 21
712.312287
 31
0.0
  0
LINE
  5
2F5
100
AcDbEntity
  8
LAY-1
  6
CONTINUOUS
 62
     7
100
AcDbLine
 10
575.05
 20
710.612287
 30
0.0
 11
597.75
 21
710.612287
 31
0.0
  0
LINE
  5
2F6
100
AcDbEntity
  8
LAY-1
  6
CONTINUOUS
 62
     7
100
AcDbLine
 10
575.65
 20
712.312287
 30
0.0
 11
597.75
 21
712.312287
 31
0.0
  0
ARC
  5
2F7
100
AcDbEntity
  8
LAY-1
  6
CONTINUOUS
 62
     7
100
AcDbCircle
 10
583.75
 20
747.376388
 30
0.0
 40
8.0
100
AcDbArc
 50
292.024313
 51
90.0
  0
LINE
  5
2F8
100
AcDbEntity
  8
LAY-1
  6
CONTINUOUS
 62
     7
100
AcDbLine
 10
581.75
 20
754.304592
 30
0.0
 11
581.75
 21
747.376388
 31
0.0
  0
LINE
  5
2F9
100
AcDbEntity
  8
LAY-1
  6
CONTINUOUS
 62
     7
100
AcDbLine
 10
583.75
 20
755.376388
 30
0.0
 11
583.75
 21
755.876388
 31
0.0
  0
ARC
  5
2FA
100
AcDbEntity
  8
LAY-1
  6
CONTINUOUS
 62
     7
100
AcDbCircle
 10
583.75
 20
751.376388
 30
0.0
 40
3.528
100
AcDbArc
 50
62.762185
 51
90.0
  0
ARC
  5
2FB
100
AcDbEntity
  8
LAY-1
  6
CONTINUOUS
 62
     7
100
AcDbCircle
 10
583.75
 20
743.376388
 30
0.0
 40
3.528
100
AcDbArc
 50
242.762185
 51
286.466023
  0
LINE
  5
2FC
100
AcDbEntity
  8
LAY-1
  6
CONTINUOUS
 62
     7
100
AcDbLine
 10
587.75
 20
738.376388
 30
0.0
 11
584.75
 21
739.439134
 31
0.0
  0
LINE
  5
2FD
100
AcDbEntity
  8
LAY-1
  6
CONTINUOUS
 62
     7
100
AcDbLine
 10
586.75
 20
739.96019
 30
0.0
 11
587.75
 21
738.376388
 31
0.0
  0
ARC
  5
2FE
100
AcDbEntity
  8
LAY-1
  6
CONTINUOUS
 62
     7
100
AcDbCircle
 10
583.75
 20
747.376388
 30
0.0
 40
8.0
100
AcDbArc
 50
104.477512
 51
277.180756
  0
LINE
  5
2FF
100
AcDbEntity
  8
LAY-1
  6
CONTINUOUS
 62
     7
100
AcDbLine
 10
577.916667
 20
748.376388
 30
0.0
 11
579.083333
 21
747.376388
 31
0.0
  0
LINE
  5
300
100
AcDbEntity
  8
LAY-1
  6
CONTINUOUS
 62
     7
100
AcDbLine
 10
579.75
 20
744.709722
 30
0.0
 11
577.916667
 21
748.376388
 31
0.0
  0
LINE
  5
301
100
AcDbEntity
  8
LAY-1
  6
CONTINUOUS
 62
     7
100
AcDbLine
 10
589.583333
 20
748.376388
 30
0.0
 11
588.416667
 21
747.376388
 31
0.0
  0
LINE
  5
302
100
AcDbEntity
  8
LAY-1
  6
CONTINUOUS
 62
     7
100
AcDbLine
 10
587.75
 20
744.709722
 30
0.0
 11
589.583333
 21
748.376388
 31
0.0
  0
ARC
  5
303
100
AcDbEntity
  8
LAY-1
  6
CONTINUOUS
 62
     7
100
AcDbCircle
 10
585.75
 20
747.376388
 30
0.0
 40
8.0
100
AcDbArc
 50
120.0
 51
243.731632
  0
ARC
  5
304
100
AcDbEntity
  8
LAY-1
  6
CONTINUOUS
 62
     7
100
AcDbCircle
 10
581.75
 20
747.376388
 30
0.0
 40
8.0
100
AcDbArc
 50
308.682187
 51
63.731632
  0
LINE
  5
305
100
AcDbEntity
  8
LAY-1
  6
CONTINUOUS
 62
     7
100
AcDbLine
 10
579.75
 20
745.376388
 30
0.0
 11
579.75
 21
744.709722
 31
0.0
  0
LINE
  5
306
100
AcDbEntity
  8
LAY-1
  6
CONTINUOUS
 62
     7
100
AcDbLine
 10
584.75
 20
745.376388
 30
0.0
 11
579.75
 21
745.376388
 31
0.0
  0
LINE
  5
307
100
AcDbEntity
  8
LAY-1
  6
CONTINUOUS
 62
     7
100
AcDbLine
 10
584.75
 20
739.993079
 30
0.0
 11
584.75
 21
745.376388
 31
0.0
  0
LINE
  5
308
100
AcDbEntity
  8
LAY-1
  6
CONTINUOUS
 62
     7
100
AcDbLine
 10
586.75
 20
745.376388
 30
0.0
 11
586.75
 21
741.13139
 31
0.0
  0
LINE
  5
309
100
AcDbEntity
  8
LAY-1
  6
CONTINUOUS
 62
     7
100
AcDbLine
 10
587.75
 20
745.376388
 30
0.0
 11
586.75
 21
745.376388
 31
0.0
  0
LINE
  5
30A
100
AcDbEntity
  8
LAY-1
  6
CONTINUOUS
 62
     7
100
AcDbLine
 10
587.75
 20
744.709722
 30
0.0
 11
587.75
 21
745.376388
 31
0.0
  0
LINE
  5
30B
100
AcDbEntity
  8
LAY-1
  6
CONTINUOUS
 62
     7
100
AcDbLine
 10
586.75
 20
747.376388
 30
0.0
 11
588.416667
 21
747.376388
 31
0.0
  0
LINE
  5
30C
100
AcDbEntity
  8
LAY-1
  6
CONTINUOUS
 62
     7
100
AcDbLine
 10
586.75
 20
749.876388
 30
0.0
 11
586.75
 21
747.376388
 31
0.0
  0
LINE
  5
30D
100
AcDbEntity
  8
LAY-1
  6
CONTINUOUS
 62
     7
100
AcDbLine
 10
587.75
 20
750.376388
 30
0.0
 11
586.75
 21
749.876388
 31
0.0
  0
LINE
  5
30E
100
AcDbEntity
  8
LAY-1
  6
CONTINUOUS
 62
     7
100
AcDbLine
 10
583.75
 20
750.376388
 30
0.0
 11
587.75
 21
750.376388
 31
0.0
  0
LINE
  5
30F
100
AcDbEntity
  8
LAY-1
  6
CONTINUOUS
 62
     7
100
AcDbLine
 10
584.75
 20
749.876388
 30
0.0
 11
583.75
 21
750.376388
 31
0.0
  0
LINE
  5
310
100
AcDbEntity
  8
LAY-1
  6
CONTINUOUS
 62
     7
100
AcDbLine
 10
584.75
 20
747.376388
 30
0.0
 11
584.75
 21
749.876388
 31
0.0
  0
LINE
  5
311
100
AcDbEntity
  8
LAY-1
  6
CONTINUOUS
 62
     7
100
AcDbLine
 10
583.75
 20
747.376388
 30
0.0
 11
584.75
 21
747.376388
 31
0.0
  0
LINE
  5
312
100
AcDbEntity
  8
LAY-1
  6
CONTINUOUS
 62
     7
100
AcDbLine
 10
583.75
 20
747.376388
 30
0.0
 11
583.75
 21
754.904388
 31
0.0
  0
LINE
  5
313
100
AcDbEntity
  8
LAY-1
  6
CONTINUOUS
 62
     7
100
AcDbLine
 10
581.75
 20
747.376388
 30
0.0
 11
579.083333
 21
747.376388
 31
0.0
  0
LINE
  5
314
100
AcDbEntity
  8
LAY-1
  6
CONTINUOUS
 62
     7
100
AcDbLine
 10
581.75
 20
755.876388
 30
0.0
 11
581.75
 21
755.122355
 31
0.0
  0
LINE
  5
315
100
AcDbEntity
  8
LAY-1
  6
CONTINUOUS
 62
     7
100
AcDbLine
 10
580.75
 20
756.376388
 30
0.0
 11
581.75
 21
755.876388
 31
0.0
  0
LINE
  5
316
100
AcDbEntity
  8
LAY-1
  6
CONTINUOUS
 62
     7
100
AcDbLine
 10
584.75
 20
756.376388
 30
0.0
 11
580.75
 21
756.376388
 31
0.0
  0
LINE
  5
317
100
AcDbEntity
  8
LAY-1
  6
CONTINUOUS
 62
     7
100
AcDbLine
 10
583.75
 20
755.876388
 30
0.0
 11
584.75
 21
756.376388
 31
0.0
  0
LINE
  5
318
100
AcDbEntity
  8
LAY-1
  6
CONTINUOUS
 62
     7
100
AcDbLine
 10
572.25
 20
735.376388
 30
0.0
 11
623.25
 21
735.376388
 31
0.0
  0
LINE
  5
319
100
AcDbEntity
  8
LAY-1
  6
CONTINUOUS
 62
     7
100
AcDbLine
 10
572.25
 20
759.376388
 30
0.0
 11
623.25
 21
759.376388
 31
0.0
  0
LINE
  5
31A
100
AcDbEntity
  8
LAY-1
  6
CONTINUOUS
 62
     7
100
AcDbLine
 10
572.25
 20
735.376388
 30
0.0
 11
572.25
 21
759.376388
 31
0.0
  0
LINE
  5
31B
100
AcDbEntity
  8
LAY-1
  6
CONTINUOUS
 62
     7
100
AcDbLine
 10
623.25
 20
735.376388
 30
0.0
 11
623.25
 21
759.376388
 31
0.0
  0
LINE
  5
31C
100
AcDbEntity
  8
LAY-1
  6
CONTINUOUS
 62
     7
100
AcDbLine
 10
594.75
 20
737.376388
 30
0.0
 11
618.75
 21
737.376388
 31
0.0
  0
LINE
  5
31D
100
AcDbEntity
  8
LAY-1
  6
CONTINUOUS
 62
     7
100
AcDbLine
 10
594.75
 20
742.876388
 30
0.0
 11
618.75
 21
742.876388
 31
0.0
  0
LINE
  5
31E
100
AcDbEntity
  8
LAY-1
  6
CONTINUOUS
 62
     7
100
AcDbLine
 10
594.75
 20
748.376388
 30
0.0
 11
618.75
 21
748.376388
 31
0.0
  0
LINE
  5
31F
100
AcDbEntity
  8
LAY-1
  6
CONTINUOUS
 62
     7
100
AcDbLine
 10
594.75
 20
748.376388
 30
0.0
 11
594.75
 21
737.376388
 31
0.0
  0
LINE
  5
320
100
AcDbEntity
  8
LAY-1
  6
CONTINUOUS
 62
     7
100
AcDbLine
 10
612.75
 20
748.376388
 30
0.0
 11
612.75
 21
737.376388
 31
0.0
  0
LINE
  5
321
100
AcDbEntity
  8
LAY-1
  6
CONTINUOUS
 62
     7
100
AcDbLine
 10
618.75
 20
748.376388
 30
0.0
 11
618.75
 21
737.376388
 31
0.0
  0
LINE
  5
322
100
AcDbEntity
  8
LAY-1
  6
CONTINUOUS
 62
     7
100
AcDbLine
 10
606.75
 20
748.376388
 30
0.0
 11
606.75
 21
737.376388
 31
0.0
  0
LINE
  5
323
100
AcDbEntity
  8
LAY-1
  6
CONTINUOUS
 62
     7
100
AcDbLine
 10
600.75
 20
748.376388
 30
0.0
 11
600.75
 21
737.376388
 31
0.0
  0
LINE
  5
324
100
AcDbEntity
  8
LAY-1
  6
CONTINUOUS
 62
     7
100
AcDbLine
 10
277.226388
 20
478.812287
 30
0.0
 11
277.226388
 21
484.024404
 31
0.0
  0
LINE
  5
325
100
AcDbEntity
  8
LAY-1
  6
CONTINUOUS
 62
     7
100
AcDbLine
 10
274.726388
 20
477.212287
 30
0.0
 11
274.726388
 21
492.085916
 31
0.0
  0
LINE
  5
326
100
AcDbEntity
  8
LAY-1
  6
CONTINUOUS
 62
     7
100
AcDbLine
 10
277.226388
 20
526.812287
 30
0.0
 11
277.226388
 21
521.600169
 31
0.0
  0
LINE
  5
327
100
AcDbEntity
  8
LAY-1
  6
CONTINUOUS
 62
     7
100
AcDbLine
 10
274.726388
 20
528.412287
 30
0.0
 11
274.726388
 21
513.538657
 31
0.0
  0
LINE
  5
328
100
AcDbEntity
  8
LAY-1
  6
CONTINUOUS
 62
     7
100
AcDbLine
 10
280.553567
 20
477.312287
 30
0.0
 11
278.562287
 21
477.312287
 31
0.0
  0
LINE
  5
329
100
AcDbEntity
  8
LAY-1
  6
CONTINUOUS
 62
     7
100
AcDbLine
 10
278.562287
 20
528.312287
 30
0.0
 11
280.553567
 21
528.312287
 31
0.0
  0
LINE
  5
32A
100
AcDbEntity
  8
LAY-1
  6
CONTINUOUS
 62
     7
100
AcDbLine
 10
255.814526
 20
502.812287
 30
0.0
 11
255.814526
 21
474.812287
 31
0.0
  0
LINE
  5
32B
100
AcDbEntity
  8
LAY-1
  6
CONTINUOUS
 62
     7
100
AcDbLine
 10
255.814526
 20
502.812287
 30
0.0
 11
255.814526
 21
530.812287
 31
0.0
  0
ARC
  5
32C
100
AcDbEntity
  8
LAY-1
  6
CONTINUOUS
 62
     7
100
AcDbCircle
 10
246.333962
 20
515.327857
 30
0.0
 40
6.271675
100
AcDbArc
 50
137.967709
 51
221.356872
  0
ARC
  5
32D
100
AcDbEntity
  8
LAY-1
  6
CONTINUOUS
 62
     7
100
AcDbCircle
 10
263.24804
 20
502.812287
 30
0.0
 40
23.185753
100
AcDbArc
 50
158.834344
 51
201.165656
  0
ARC
  5
32E
100
AcDbEntity
  8
LAY-1
  6
CONTINUOUS
 62
     7
100
AcDbCircle
 10
246.387647
 20
490.276503
 30
0.0
 40
6.32536
100
AcDbArc
 50
138.827006
 51
221.172994
  0
LINE
  5
32F
100
AcDbEntity
  8
LAY-1
  6
CONTINUOUS
 62
     7
100
AcDbLine
 10
241.626388
 20
494.440708
 30
0.0
 11
252.062287
 21
494.440708
 31
0.0
  0
LINE
  5
330
100
AcDbEntity
  8
LAY-1
  6
CONTINUOUS
 62
     7
100
AcDbLine
 10
241.626388
 20
511.183866
 30
0.0
 11
252.062287
 21
511.183866
 31
0.0
  0
LINE
  5
331
100
AcDbEntity
  8
LAY-1
  6
CONTINUOUS
 62
     7
100
AcDbLine
 10
240.062287
 20
496.045229
 30
0.0
 11
236.062287
 21
495.919524
 31
0.0
  0
LINE
  5
332
100
AcDbEntity
  8
LAY-1
  6
CONTINUOUS
 62
     7
100
AcDbLine
 10
240.062287
 20
509.579344
 30
0.0
 11
236.062287
 21
509.705049
 31
0.0
  0
LINE
  5
333
100
AcDbEntity
  8
LAY-1
  6
CONTINUOUS
 62
     7
100
AcDbLine
 10
260.062287
 20
530.312287
 30
0.0
 11
260.062287
 21
502.812287
 31
0.0
  0
LINE
  5
334
100
AcDbEntity
  8
LAY-1
  6
CONTINUOUS
 62
     7
100
AcDbLine
 10
260.062287
 20
475.312287
 30
0.0
 11
260.062287
 21
502.812287
 31
0.0
  0
LINE
  5
335
100
AcDbEntity
  8
LAY-1
  6
CONTINUOUS
 62
     7
100
AcDbLine
 10
240.062287
 20
502.812287
 30
0.0
 11
240.062287
 21
488.580236
 31
0.0
  0
LINE
  5
336
100
AcDbEntity
  8
LAY-1
  6
CONTINUOUS
 62
     7
100
AcDbLine
 10
240.062287
 20
502.812287
 30
0.0
 11
240.062287
 21
517.044338
 31
0.0
  0
LINE
  5
337
100
AcDbEntity
  8
LAY-1
  6
CONTINUOUS
 62
     7
100
AcDbLine
 10
236.062287
 20
498.770835
 30
0.0
 11
230.687502
 21
498.770835
 31
0.0
  0
ARC
  5
338
100
AcDbEntity
  8
LAY-1
  6
CONTINUOUS
 62
     7
100
AcDbCircle
 10
233.640439
 20
496.750109
 30
0.0
 40
3.578152
100
AcDbArc
 50
145.615753
 51
214.384247
  0
ARC
  5
339
100
AcDbEntity
  8
LAY-1
  6
CONTINUOUS
 62
     7
100
AcDbCircle
 10
243.437072
 20
502.812287
 30
0.0
 40
13.374785
100
AcDbArc
 50
162.412046
 51
197.587954
  0
ARC
  5
33A
100
AcDbEntity
  8
LAY-1
  6
CONTINUOUS
 62
     7
100
AcDbCircle
 10
278.562287
 20
474.312287
 30
0.0
 40
3.0
100
AcDbArc
 50
90.0
 51
144.314665
  0
ARC
  5
33B
100
AcDbEntity
  8
LAY-1
  6
CONTINUOUS
 62
     7
100
AcDbCircle
 10
278.562287
 20
531.312287
 30
0.0
 40
3.0
100
AcDbArc
 50
215.685335
 51
270.0
  0
ARC
  5
33C
100
AcDbEntity
  8
LAY-1
  6
CONTINUOUS
 62
     7
100
AcDbCircle
 10
273.68889
 20
527.812287
 30
0.0
 40
3.0
100
AcDbArc
 50
35.685335
 51
90.0
  0
LINE
  5
33D
100
AcDbEntity
  8
LAY-1
  6
CONTINUOUS
 62
     7
100
AcDbLine
 10
260.062287
 20
530.812287
 30
0.0
 11
273.68889
 21
530.812287
 31
0.0
  0
ARC
  5
33E
100
AcDbEntity
  8
LAY-1
  6
CONTINUOUS
 62
     7
100
AcDbCircle
 10
273.68889
 20
477.812287
 30
0.0
 40
3.0
100
AcDbArc
 50
270.0
 51
324.314665
  0
LINE
  5
33F
100
AcDbEntity
  8
LAY-1
  6
CONTINUOUS
 62
     7
100
AcDbLine
 10
273.68889
 20
474.812287
 30
0.0
 11
260.062287
 21
474.812287
 31
0.0
  0
LINE
  5
340
100
AcDbEntity
  8
LAY-1
  6
CONTINUOUS
 62
     7
100
AcDbLine
 10
260.062287
 20
530.812287
 30
0.0
 11
260.062287
 21
523.012287
 31
0.0
  0
LINE
  5
341
100
AcDbEntity
  8
LAY-1
  6
CONTINUOUS
 62
     7
100
AcDbLine
 10
260.062287
 20
530.812287
 30
0.0
 11
260.062287
 21
523.012287
 31
0.0
  0
LINE
  5
342
100
AcDbEntity
  8
LAY-1
  6
CONTINUOUS
 62
     7
100
AcDbLine
 10
260.062287
 20
482.612287
 30
0.0
 11
260.062287
 21
474.812287
 31
0.0
  0
ARC
  5
343
100
AcDbEntity
  8
LAY-1
  6
CONTINUOUS
 62
     7
100
AcDbCircle
 10
241.062287
 20
517.044338
 30
0.0
 40
1.0
100
AcDbArc
 50
150.0
 51
180.0
  0
LINE
  5
344
100
AcDbEntity
  8
LAY-1
  6
CONTINUOUS
 62
     7
100
AcDbLine
 10
260.062287
 20
482.612287
 30
0.0
 11
260.062287
 21
474.812287
 31
0.0
  0
ARC
  5
345
100
AcDbEntity
  8
LAY-1
  6
CONTINUOUS
 62
     7
100
AcDbCircle
 10
233.640439
 20
508.874465
 30
0.0
 40
3.578152
100
AcDbArc
 50
145.615753
 51
214.384247
  0
LINE
  5
346
100
AcDbEntity
  8
LAY-1
  6
CONTINUOUS
 62
     7
100
AcDbLine
 10
236.062287
 20
510.895191
 30
0.0
 11
230.687502
 21
510.895191
 31
0.0
  0
LINE
  5
347
100
AcDbEntity
  8
LAY-1
  6
CONTINUOUS
 62
     7
100
AcDbLine
 10
230.687502
 20
510.895191
 30
0.0
 11
230.062287
 21
509.789402
 31
0.0
  0
LINE
  5
348
100
AcDbEntity
  8
LAY-1
  6
CONTINUOUS
 62
     7
100
AcDbLine
 10
230.062287
 20
509.789402
 30
0.0
 11
230.062287
 21
495.812287
 31
0.0
  0
LINE
  5
349
100
AcDbEntity
  8
LAY-1
  6
CONTINUOUS
 62
     7
100
AcDbLine
 10
230.062287
 20
495.812287
 30
0.0
 11
230.687502
 21
494.729383
 31
0.0
  0
LINE
  5
34A
100
AcDbEntity
  8
LAY-1
  6
CONTINUOUS
 62
     7
100
AcDbLine
 10
230.687502
 20
494.729383
 30
0.0
 11
236.062287
 21
494.729383
 31
0.0
  0
LINE
  5
34B
100
AcDbEntity
  8
LAY-1
  6
CONTINUOUS
 62
     7
100
AcDbLine
 10
236.062287
 20
510.895191
 30
0.0
 11
236.062287
 21
502.812287
 31
0.0
  0
LINE
  5
34C
100
AcDbEntity
  8
LAY-1
  6
CONTINUOUS
 62
     7
100
AcDbLine
 10
236.062287
 20
502.812287
 30
0.0
 11
236.062287
 21
494.729383
 31
0.0
  0
LINE
  5
34D
100
AcDbEntity
  8
LAY-1
  6
CONTINUOUS
 62
     7
100
AcDbLine
 10
238.062287
 20
502.812287
 30
0.0
 11
238.062287
 21
496.133721
 31
0.0
  0
LINE
  5
34E
100
AcDbEntity
  8
LAY-1
  6
CONTINUOUS
 62
     7
100
AcDbLine
 10
238.062287
 20
502.812287
 30
0.0
 11
238.062287
 21
509.490852
 31
0.0
  0
LINE
  5
34F
100
AcDbEntity
  8
LAY-1
  6
CONTINUOUS
 62
     7
100
AcDbLine
 10
236.062287
 20
506.853739
 30
0.0
 11
230.687502
 21
506.853739
 31
0.0
  0
LINE
  5
350
100
AcDbEntity
  8
LAY-1
  6
CONTINUOUS
 62
     7
100
AcDbLine
 10
252.677585
 20
484.822759
 30
0.0
 11
253.890487
 21
477.944046
 31
0.0
  0
LINE
  5
351
100
AcDbEntity
  8
LAY-1
  6
CONTINUOUS
 62
     7
100
AcDbLine
 10
255.814526
 20
530.812287
 30
0.0
 11
259.562287
 21
530.812287
 31
0.0
  0
LINE
  5
352
100
AcDbEntity
  8
LAY-1
  6
CONTINUOUS
 62
     7
100
AcDbLine
 10
259.562287
 20
530.812287
 30
0.0
 11
260.062287
 21
530.312287
 31
0.0
  0
LINE
  5
353
100
AcDbEntity
  8
LAY-1
  6
CONTINUOUS
 62
     7
100
AcDbLine
 10
252.677585
 20
520.801814
 30
0.0
 11
253.890487
 21
527.680528
 31
0.0
  0
LINE
  5
354
100
AcDbEntity
  8
LAY-1
  6
CONTINUOUS
 62
     7
100
AcDbLine
 10
259.562287
 20
474.812287
 30
0.0
 11
255.814526
 21
474.812287
 31
0.0
  0
ARC
  5
355
100
AcDbEntity
  8
LAY-1
  6
CONTINUOUS
 62
     7
100
AcDbCircle
 10
241.938675
 20
518.562287
 30
0.0
 40
1.0
100
AcDbArc
 50
90.0
 51
150.0
  0
ARC
  5
356
100
AcDbEntity
  8
LAY-1
  6
CONTINUOUS
 62
     7
100
AcDbCircle
 10
241.938675
 20
487.062287
 30
0.0
 40
1.0
100
AcDbArc
 50
210.0
 51
270.0
  0
ARC
  5
357
100
AcDbEntity
  8
LAY-1
  6
CONTINUOUS
 62
     7
100
AcDbCircle
 10
251.200373
 20
484.562287
 30
0.0
 40
1.5
100
AcDbArc
 50
10.0
 51
90.0
  0
ARC
  5
358
100
AcDbEntity
  8
LAY-1
  6
CONTINUOUS
 62
     7
100
AcDbCircle
 10
258.814526
 20
526.812287
 30
0.0
 40
5.0
100
AcDbArc
 50
126.869898
 51
170.0
  0
ARC
  5
359
100
AcDbEntity
  8
LAY-1
  6
CONTINUOUS
 62
     7
100
AcDbCircle
 10
241.062287
 20
488.580236
 30
0.0
 40
1.0
100
AcDbArc
 50
180.0
 51
210.0
  0
LINE
  5
35A
100
AcDbEntity
  8
LAY-1
  6
CONTINUOUS
 62
     7
100
AcDbLine
 10
240.196261
 20
488.080236
 30
0.0
 11
241.07265
 21
486.562287
 31
0.0
  0
LINE
  5
35B
100
AcDbEntity
  8
LAY-1
  6
CONTINUOUS
 62
     7
100
AcDbLine
 10
241.938675
 20
486.062287
 30
0.0
 11
251.200373
 21
486.062287
 31
0.0
  0
LINE
  5
35C
100
AcDbEntity
  8
LAY-1
  6
CONTINUOUS
 62
     7
100
AcDbLine
 10
241.938675
 20
519.562287
 30
0.0
 11
251.200373
 21
519.562287
 31
0.0
  0
LINE
  5
35D
100
AcDbEntity
  8
LAY-1
  6
CONTINUOUS
 62
     7
100
AcDbLine
 10
240.196261
 20
517.544338
 30
0.0
 11
241.07265
 21
519.062287
 31
0.0
  0
ARC
  5
35E
100
AcDbEntity
  8
LAY-1
  6
CONTINUOUS
 62
     7
100
AcDbCircle
 10
251.200373
 20
521.062287
 30
0.0
 40
1.5
100
AcDbArc
 50
270.0
 51
350.0
  0
LINE
  5
35F
100
AcDbEntity
  8
LAY-1
  6
CONTINUOUS
 62
     7
100
AcDbLine
 10
259.562287
 20
474.812287
 30
0.0
 11
260.062287
 21
475.312287
 31
0.0
  0
LINE
  5
360
100
AcDbEntity
  8
LAY-1
  6
CONTINUOUS
 62
     7
100
AcDbLine
 10
238.062287
 20
495.982377
 30
0.0
 11
238.062287
 21
509.642197
 31
0.0
  0
ARC
  5
361
100
AcDbEntity
  8
LAY-1
  6
CONTINUOUS
 62
     7
100
AcDbCircle
 10
258.814526
 20
478.812287
 30
0.0
 40
5.0
100
AcDbArc
 50
190.0
 51
233.130102
  0
LINE
  5
362
100
AcDbEntity
  8
LAY-1
  6
CONTINUOUS
 62
     7
100
AcDbLine
 10
373.062287
 20
477.812287
 30
0.0
 11
366.863557
 21
477.812287
 31
0.0
  0
LINE
  5
363
100
AcDbEntity
  8
LAY-1
  6
CONTINUOUS
 62
     7
100
AcDbLine
 10
373.062287
 20
527.812287
 30
0.0
 11
366.863557
 21
527.812287
 31
0.0
  0
ARC
  5
364
100
AcDbEntity
  8
LAY-1
  6
CONTINUOUS
 62
     7
100
AcDbCircle
 10
386.819071
 20
522.730871
 30
0.0
 40
11.756785
100
AcDbArc
 50
145.615753
 51
214.384247
  0
ARC
  5
365
100
AcDbEntity
  8
LAY-1
  6
CONTINUOUS
 62
     7
100
AcDbCircle
 10
419.00801
 20
502.812287
 30
0.0
 40
43.945723
100
AcDbArc
 50
162.412046
 51
197.587954
  0
ARC
  5
366
100
AcDbEntity
  8
LAY-1
  6
CONTINUOUS
 62
     7
100
AcDbCircle
 10
386.819071
 20
482.893702
 30
0.0
 40
11.756785
100
AcDbArc
 50
145.615753
 51
214.384247
  0
ARC
  5
367
100
AcDbEntity
  8
LAY-1
  6
CONTINUOUS
 62
     7
100
AcDbCircle
 10
387.573451
 20
482.893702
 30
0.0
 40
11.756785
100
AcDbArc
 50
325.615753
 51
34.384247
  0
ARC
  5
368
100
AcDbEntity
  8
LAY-1
  6
CONTINUOUS
 62
     7
100
AcDbCircle
 10
355.384513
 20
502.812287
 30
0.0
 40
43.945723
100
AcDbArc
 50
342.412046
 51
17.587954
  0
ARC
  5
369
100
AcDbEntity
  8
LAY-1
  6
CONTINUOUS
 62
     7
100
AcDbCircle
 10
387.573451
 20
522.730871
 30
0.0
 40
11.756785
100
AcDbArc
 50
325.615753
 51
34.384247
  0
LINE
  5
36A
100
AcDbEntity
  8
LAY-1
  6
CONTINUOUS
 62
     7
100
AcDbLine
 10
377.116564
 20
489.533231
 30
0.0
 11
397.275959
 21
489.533231
 31
0.0
  0
LINE
  5
36B
100
AcDbEntity
  8
LAY-1
  6
CONTINUOUS
 62
     7
100
AcDbLine
 10
377.116564
 20
516.091343
 30
0.0
 11
397.275959
 21
516.091343
 31
0.0
  0
ARC
  5
36C
100
AcDbEntity
  8
LAY-1
  6
CONTINUOUS
 62
     7
100
AcDbCircle
 10
415.616907
 20
487.656842
 30
0.0
 40
8.94538
100
AcDbArc
 50
325.615753
 51
34.384247
  0
ARC
  5
36D
100
AcDbEntity
  8
LAY-1
  6
CONTINUOUS
 62
     7
100
AcDbCircle
 10
391.125324
 20
502.812287
 30
0.0
 40
33.436963
100
AcDbArc
 50
342.412046
 51
17.587954
  0
ARC
  5
36E
100
AcDbEntity
  8
LAY-1
  6
CONTINUOUS
 62
     7
100
AcDbCircle
 10
415.616907
 20
517.967731
 30
0.0
 40
8.94538
100
AcDbArc
 50
325.615753
 51
34.384247
  0
LINE
  5
36F
100
AcDbEntity
  8
LAY-1
  6
CONTINUOUS
 62
     7
100
AcDbLine
 10
417.562287
 20
492.708657
 30
0.0
 11
422.99925
 21
492.708657
 31
0.0
  0
LINE
  5
370
100
AcDbEntity
  8
LAY-1
  6
CONTINUOUS
 62
     7
100
AcDbLine
 10
417.562287
 20
512.915916
 30
0.0
 11
422.99925
 21
512.915916
 31
0.0
  0
LINE
  5
371
100
AcDbEntity
  8
LAY-1
  6
CONTINUOUS
 62
     7
100
AcDbLine
 10
417.562287
 20
502.812287
 30
0.0
 11
417.562287
 21
482.605027
 31
0.0
  0
LINE
  5
372
100
AcDbEntity
  8
LAY-1
  6
CONTINUOUS
 62
     7
100
AcDbLine
 10
417.562287
 20
502.812287
 30
0.0
 11
417.562287
 21
523.019546
 31
0.0
  0
LINE
  5
373
100
AcDbEntity
  8
LAY-1
  6
CONTINUOUS
 62
     7
100
AcDbLine
 10
375.062287
 20
502.812287
 30
0.0
 11
375.062287
 21
479.812287
 31
0.0
  0
LINE
  5
374
100
AcDbEntity
  8
LAY-1
  6
CONTINUOUS
 62
     7
100
AcDbLine
 10
375.062287
 20
502.812287
 30
0.0
 11
375.062287
 21
525.812287
 31
0.0
  0
LINE
  5
375
100
AcDbEntity
  8
LAY-1
  6
CONTINUOUS
 62
     7
100
AcDbLine
 10
424.562287
 20
508.812287
 30
0.0
 11
427.830236
 21
508.812287
 31
0.0
  0
LINE
  5
376
100
AcDbEntity
  8
LAY-1
  6
CONTINUOUS
 62
     7
100
AcDbLine
 10
424.562287
 20
520.312287
 30
0.0
 11
424.562287
 21
502.812287
 31
0.0
  0
LINE
  5
377
100
AcDbEntity
  8
LAY-1
  6
CONTINUOUS
 62
     7
100
AcDbLine
 10
424.562287
 20
485.312287
 30
0.0
 11
424.562287
 21
502.812287
 31
0.0
  0
LINE
  5
378
100
AcDbEntity
  8
LAY-1
  6
CONTINUOUS
 62
     7
100
AcDbLine
 10
424.562287
 20
496.812287
 30
0.0
 11
427.830236
 21
496.812287
 31
0.0
  0
LINE
  5
379
100
AcDbEntity
  8
LAY-1
  6
CONTINUOUS
 62
     7
100
AcDbLine
 10
415.062287
 20
483.812287
 30
0.0
 11
415.062287
 21
502.812287
 31
0.0
  0
LINE
  5
37A
100
AcDbEntity
  8
LAY-1
  6
CONTINUOUS
 62
     7
100
AcDbLine
 10
415.062287
 20
521.812287
 30
0.0
 11
415.062287
 21
502.812287
 31
0.0
  0
ARC
  5
37B
100
AcDbEntity
  8
LAY-1
  6
CONTINUOUS
 62
     7
100
AcDbCircle
 10
444.562287
 20
512.812287
 30
0.0
 40
13.0
100
AcDbArc
 50
127.979872
 51
172.337744
  0
ARC
  5
37C
100
AcDbEntity
  8
LAY-1
  6
CONTINUOUS
 62
     7
100
AcDbCircle
 10
444.562287
 20
492.812287
 30
0.0
 40
13.0
100
AcDbArc
 50
187.662256
 51
232.020128
  0
ARC
  5
37D
100
AcDbEntity
  8
LAY-1
  6
CONTINUOUS
 62
     7
100
AcDbCircle
 10
446.062287
 20
502.812287
 30
0.0
 40
4.5
100
AcDbArc
 50
321.057559
 51
38.942441
  0
LINE
  5
37E
100
AcDbEntity
  8
LAY-1
  6
CONTINUOUS
 62
     7
100
AcDbLine
 10
449.562287
 20
469.112287
 30
0.0
 11
449.562287
 21
502.812287
 31
0.0
  0
LINE
  5
37F
100
AcDbEntity
  8
LAY-1
  6
CONTINUOUS
 62
     7
100
AcDbLine
 10
449.562287
 20
532.812287
 30
0.0
 11
449.562287
 21
502.812287
 31
0.0
  0
LINE
  5
380
100
AcDbEntity
  8
LAY-1
  6
CONTINUOUS
 62
     7
100
AcDbLine
 10
436.562287
 20
536.312287
 30
0.0
 11
436.562287
 21
502.812287
 31
0.0
  0
LINE
  5
381
100
AcDbEntity
  8
LAY-1
  6
CONTINUOUS
 62
     7
100
AcDbLine
 10
436.562287
 20
469.312287
 30
0.0
 11
436.562287
 21
502.812287
 31
0.0
  0
LINE
  5
382
100
AcDbEntity
  8
LAY-1
  6
CONTINUOUS
 62
     7
100
AcDbLine
 10
375.062287
 20
525.812287
 30
0.0
 11
377.116564
 21
529.370399
 31
0.0
  0
LINE
  5
383
100
AcDbEntity
  8
LAY-1
  6
CONTINUOUS
 62
     7
100
AcDbLine
 10
377.116564
 20
529.370399
 30
0.0
 11
397.275959
 21
529.370399
 31
0.0
  0
LINE
  5
384
100
AcDbEntity
  8
LAY-1
  6
CONTINUOUS
 62
     7
100
AcDbLine
 10
375.062287
 20
479.812287
 30
0.0
 11
377.116564
 21
476.254174
 31
0.0
  0
LINE
  5
385
100
AcDbEntity
  8
LAY-1
  6
CONTINUOUS
 62
     7
100
AcDbLine
 10
377.116564
 20
476.254174
 30
0.0
 11
397.275959
 21
476.254174
 31
0.0
  0
LINE
  5
386
100
AcDbEntity
  8
LAY-1
  6
CONTINUOUS
 62
     7
100
AcDbLine
 10
375.062287
 20
486.624287
 30
0.0
 11
375.062287
 21
479.812287
 31
0.0
  0
LINE
  5
387
100
AcDbEntity
  8
LAY-1
  6
CONTINUOUS
 62
     7
100
AcDbLine
 10
375.062287
 20
486.624287
 30
0.0
 11
375.062287
 21
479.812287
 31
0.0
  0
ARC
  5
388
100
AcDbEntity
  8
LAY-1
  6
CONTINUOUS
 62
     7
100
AcDbCircle
 10
414.062287
 20
521.812287
 30
0.0
 40
1.0
100
AcDbArc
 50
0.0
 51
90.0
  0
ARC
  5
389
100
AcDbEntity
  8
LAY-1
  6
CONTINUOUS
 62
     7
100
AcDbCircle
 10
401.639637
 20
523.812287
 30
0.0
 40
1.0
100
AcDbArc
 50
210.0
 51
270.0
  0
LINE
  5
38A
100
AcDbEntity
  8
LAY-1
  6
CONTINUOUS
 62
     7
100
AcDbLine
 10
402.767245
 20
482.812287
 30
0.0
 11
401.639637
 21
482.812287
 31
0.0
  0
LINE
  5
38B
100
AcDbEntity
  8
LAY-1
  6
CONTINUOUS
 62
     7
100
AcDbLine
 10
415.062287
 20
521.812287
 30
0.0
 11
415.062287
 21
518.812287
 31
0.0
  0
LINE
  5
38C
100
AcDbEntity
  8
LAY-1
  6
CONTINUOUS
 62
     7
100
AcDbLine
 10
401.639637
 20
522.812287
 30
0.0
 11
414.062287
 21
522.812287
 31
0.0
  0
LINE
  5
38D
100
AcDbEntity
  8
LAY-1
  6
CONTINUOUS
 62
     7
100
AcDbLine
 10
397.275959
 20
529.370399
 30
0.0
 11
400.773612
 21
523.312287
 31
0.0
  0
LINE
  5
38E
100
AcDbEntity
  8
LAY-1
  6
CONTINUOUS
 62
     7
100
AcDbLine
 10
402.767245
 20
522.812287
 30
0.0
 11
401.639637
 21
522.812287
 31
0.0
  0
ARC
  5
38F
100
AcDbEntity
  8
LAY-1
  6
CONTINUOUS
 62
     7
100
AcDbCircle
 10
401.639637
 20
481.812287
 30
0.0
 40
1.0
100
AcDbArc
 50
90.0
 51
150.0
  0
LINE
  5
390
100
AcDbEntity
  8
LAY-1
  6
CONTINUOUS
 62
     7
100
AcDbLine
 10
377.116564
 20
529.370399
 30
0.0
 11
397.275959
 21
529.370399
 31
0.0
  0
LINE
  5
391
100
AcDbEntity
  8
LAY-1
  6
CONTINUOUS
 62
     7
100
AcDbLine
 10
375.062287
 20
525.812287
 30
0.0
 11
377.116564
 21
529.370399
 31
0.0
  0
ARC
  5
392
100
AcDbEntity
  8
LAY-1
  6
CONTINUOUS
 62
     7
100
AcDbCircle
 10
414.062287
 20
483.812287
 30
0.0
 40
1.0
100
AcDbArc
 50
270.0
 51
0.0
  0
LINE
  5
393
100
AcDbEntity
  8
LAY-1
  6
CONTINUOUS
 62
     7
100
AcDbLine
 10
397.275959
 20
476.254174
 30
0.0
 11
400.773612
 21
482.312287
 31
0.0
  0
LINE
  5
394
100
AcDbEntity
  8
LAY-1
  6
CONTINUOUS
 62
     7
100
AcDbLine
 10
429.562287
 20
497.812287
 30
0.0
 11
427.830236
 21
496.812287
 31
0.0
  0
LINE
  5
395
100
AcDbEntity
  8
LAY-1
  6
CONTINUOUS
 62
     7
100
AcDbLine
 10
427.830236
 20
496.812287
 30
0.0
 11
427.830236
 21
502.812287
 31
0.0
  0
LINE
  5
396
100
AcDbEntity
  8
LAY-1
  6
CONTINUOUS
 62
     7
100
AcDbLine
 10
373.062287
 20
527.812287
 30
0.0
 11
375.062287
 21
525.812287
 31
0.0
  0
LINE
  5
397
100
AcDbEntity
  8
LAY-1
  6
CONTINUOUS
 62
     7
100
AcDbLine
 10
375.062287
 20
479.812287
 30
0.0
 11
373.062287
 21
477.812287
 31
0.0
  0
LINE
  5
398
100
AcDbEntity
  8
LAY-1
  6
CONTINUOUS
 62
     7
100
AcDbLine
 10
375.062287
 20
525.812287
 30
0.0
 11
375.062287
 21
519.000287
 31
0.0
  0
LINE
  5
399
100
AcDbEntity
  8
LAY-1
  6
CONTINUOUS
 62
     7
100
AcDbLine
 10
375.062287
 20
486.624287
 30
0.0
 11
375.062287
 21
479.812287
 31
0.0
  0
ARC
  5
39A
100
AcDbEntity
  8
LAY-1
  6
CONTINUOUS
 62
     7
100
AcDbCircle
 10
443.062287
 20
536.312287
 30
0.0
 40
6.5
100
AcDbArc
 50
0.0
 51
180.0
  0
ARC
  5
39B
100
AcDbEntity
  8
LAY-1
  6
CONTINUOUS
 62
     7
100
AcDbCircle
 10
430.562287
 20
493.684555
 30
0.0
 40
1.0
100
AcDbArc
 50
180.0
 51
253.220481
  0
ARC
  5
39C
100
AcDbEntity
  8
LAY-1
  6
CONTINUOUS
 62
     7
100
AcDbCircle
 10
429.696218
 20
490.812287
 30
0.0
 40
2.0
100
AcDbArc
 50
7.662256
 51
73.220481
  0
LINE
  5
39D
100
AcDbEntity
  8
LAY-1
  6
CONTINUOUS
 62
     7
100
AcDbLine
 10
429.562287
 20
502.812287
 30
0.0
 11
429.562287
 21
493.684555
 31
0.0
  0
LINE
  5
39E
100
AcDbEntity
  8
LAY-1
  6
CONTINUOUS
 62
     7
100
AcDbLine
 10
449.562287
 20
536.312287
 30
0.0
 11
449.562287
 21
531.812287
 31
0.0
  0
ARC
  5
39F
100
AcDbEntity
  8
LAY-1
  6
CONTINUOUS
 62
     7
100
AcDbCircle
 10
443.062287
 20
469.312287
 30
0.0
 40
6.5
100
AcDbArc
 50
180.0
 51
0.0
  0
ARC
  5
3A0
100
AcDbEntity
  8
LAY-1
  6
CONTINUOUS
 62
     7
100
AcDbCircle
 10
430.562287
 20
511.940019
 30
0.0
 40
1.0
100
AcDbArc
 50
106.779519
 51
180.0
  0
ARC
  5
3A1
100
AcDbEntity
  8
LAY-1
  6
CONTINUOUS
 62
     7
100
AcDbCircle
 10
429.696218
 20
514.812287
 30
0.0
 40
2.0
100
AcDbArc
 50
286.779519
 51
352.337744
  0
LINE
  5
3A2
100
AcDbEntity
  8
LAY-1
  6
CONTINUOUS
 62
     7
100
AcDbLine
 10
422.99925
 20
523.019546
 30
0.0
 11
424.562287
 21
520.312287
 31
0.0
  0
LINE
  5
3A3
100
AcDbEntity
  8
LAY-1
  6
CONTINUOUS
 62
     7
100
AcDbLine
 10
417.562287
 20
523.019546
 30
0.0
 11
422.99925
 21
523.019546
 31
0.0
  0
LINE
  5
3A4
100
AcDbEntity
  8
LAY-1
  6
CONTINUOUS
 62
     7
100
AcDbLine
 10
415.062287
 20
518.812287
 30
0.0
 11
417.562287
 21
518.812287
 31
0.0
  0
LINE
  5
3A5
100
AcDbEntity
  8
LAY-1
  6
CONTINUOUS
 62
     7
100
AcDbLine
 10
415.062287
 20
486.812287
 30
0.0
 11
417.562287
 21
486.812287
 31
0.0
  0
LINE
  5
3A6
100
AcDbEntity
  8
LAY-1
  6
CONTINUOUS
 62
     7
100
AcDbLine
 10
417.562287
 20
482.605027
 30
0.0
 11
422.99925
 21
482.605027
 31
0.0
  0
LINE
  5
3A7
100
AcDbEntity
  8
LAY-1
  6
CONTINUOUS
 62
     7
100
AcDbLine
 10
422.99925
 20
482.605027
 30
0.0
 11
424.562287
 21
485.312287
 31
0.0
  0
LINE
  5
3A8
100
AcDbEntity
  8
LAY-1
  6
CONTINUOUS
 62
     7
100
AcDbLine
 10
375.062287
 20
525.812287
 30
0.0
 11
377.116564
 21
529.370399
 31
0.0
  0
LINE
  5
3A9
100
AcDbEntity
  8
LAY-1
  6
CONTINUOUS
 62
     7
100
AcDbLine
 10
377.116564
 20
529.370399
 30
0.0
 11
397.275959
 21
529.370399
 31
0.0
  0
LINE
  5
3AA
100
AcDbEntity
  8
LAY-1
  6
CONTINUOUS
 62
     7
100
AcDbLine
 10
397.275959
 20
529.370399
 30
0.0
 11
400.773612
 21
523.312287
 31
0.0
  0
LINE
  5
3AB
100
AcDbEntity
  8
LAY-1
  6
CONTINUOUS
 62
     7
100
AcDbLine
 10
402.767245
 20
522.812287
 30
0.0
 11
401.639637
 21
522.812287
 31
0.0
  0
LINE
  5
3AC
100
AcDbEntity
  8
LAY-1
  6
CONTINUOUS
 62
     7
100
AcDbLine
 10
401.639637
 20
522.812287
 30
0.0
 11
414.062287
 21
522.812287
 31
0.0
  0
ARC
  5
3AD
100
AcDbEntity
  8
LAY-1
  6
CONTINUOUS
 62
     7
100
AcDbCircle
 10
401.639637
 20
481.812287
 30
0.0
 40
1.0
100
AcDbArc
 50
90.0
 51
150.0
  0
ARC
  5
3AE
100
AcDbEntity
  8
LAY-1
  6
CONTINUOUS
 62
     7
100
AcDbCircle
 10
414.062287
 20
483.812287
 30
0.0
 40
1.0
100
AcDbArc
 50
270.0
 51
0.0
  0
LINE
  5
3AF
100
AcDbEntity
  8
LAY-1
  6
CONTINUOUS
 62
     7
100
AcDbLine
 10
415.062287
 20
483.812287
 30
0.0
 11
415.062287
 21
486.812287
 31
0.0
  0
LINE
  5
3B0
100
AcDbEntity
  8
LAY-1
  6
CONTINUOUS
 62
     7
100
AcDbLine
 10
401.639637
 20
482.812287
 30
0.0
 11
414.062287
 21
482.812287
 31
0.0
  0
LINE
  5
3B1
100
AcDbEntity
  8
LAY-1
  6
CONTINUOUS
 62
     7
100
AcDbLine
 10
375.062287
 20
479.812287
 30
0.0
 11
377.116564
 21
476.254174
 31
0.0
  0
LINE
  5
3B2
100
AcDbEntity
  8
LAY-1
  6
CONTINUOUS
 62
     7
100
AcDbLine
 10
377.116564
 20
476.254174
 30
0.0
 11
397.275959
 21
476.254174
 31
0.0
  0
LINE
  5
3B3
100
AcDbEntity
  8
LAY-1
  6
CONTINUOUS
 62
     7
100
AcDbLine
 10
397.275959
 20
476.254174
 30
0.0
 11
400.773612
 21
482.312287
 31
0.0
  0
LINE
  5
3B4
100
AcDbEntity
  8
LAY-1
  6
CONTINUOUS
 62
     7
100
AcDbLine
 10
402.767245
 20
482.812287
 30
0.0
 11
401.639637
 21
482.812287
 31
0.0
  0
LINE
  5
3B5
100
AcDbEntity
  8
LAY-1
  6
CONTINUOUS
 62
     7
100
AcDbLine
 10
401.639637
 20
482.812287
 30
0.0
 11
414.062287
 21
482.812287
 31
0.0
  0
ARC
  5
3B6
100
AcDbEntity
  8
LAY-1
  6
CONTINUOUS
 62
     7
100
AcDbCircle
 10
401.639637
 20
523.812287
 30
0.0
 40
1.0
100
AcDbArc
 50
210.0
 51
270.0
  0
ARC
  5
3B7
100
AcDbEntity
  8
LAY-1
  6
CONTINUOUS
 62
     7
100
AcDbCircle
 10
414.062287
 20
521.812287
 30
0.0
 40
1.0
100
AcDbArc
 50
0.0
 51
90.0
  0
LINE
  5
3B8
100
AcDbEntity
  8
LAY-1
  6
CONTINUOUS
 62
     7
100
AcDbLine
 10
429.562287
 20
502.812287
 30
0.0
 11
429.562287
 21
511.940019
 31
0.0
  0
LINE
  5
3B9
100
AcDbEntity
  8
LAY-1
  6
CONTINUOUS
 62
     7
100
AcDbLine
 10
429.562287
 20
507.812287
 30
0.0
 11
427.830236
 21
508.812287
 31
0.0
  0
LINE
  5
3BA
100
AcDbEntity
  8
LAY-1
  6
CONTINUOUS
 62
     7
100
AcDbLine
 10
427.830236
 20
508.812287
 30
0.0
 11
427.830236
 21
502.812287
 31
0.0
  0
LINE
  5
3BB
100
AcDbEntity
  8
LAY-1
  6
CONTINUOUS
 62
     7
100
AcDbLine
 10
377.116564
 20
476.254174
 30
0.0
 11
397.275959
 21
476.254174
 31
0.0
  0
LINE
  5
3BC
100
AcDbEntity
  8
LAY-1
  6
CONTINUOUS
 62
     7
100
AcDbLine
 10
375.062287
 20
479.812287
 30
0.0
 11
377.116564
 21
476.254174
 31
0.0
  0
CIRCLE
  5
3BD
100
AcDbEntity
  8
LAY-1
  6
CONTINUOUS
 62
     7
100
AcDbCircle
 10
297.045782
 20
476.295782
 30
0.0
 40
7.5
  0
CIRCLE
  5
3BE
100
AcDbEntity
  8
LAY-1
  6
CONTINUOUS
 62
     7
100
AcDbCircle
 10
297.045782
 20
529.328791
 30
0.0
 40
7.5
  0
CIRCLE
  5
3BF
100
AcDbEntity
  8
LAY-1
  6
CONTINUOUS
 62
     7
100
AcDbCircle
 10
350.078791
 20
529.328791
 30
0.0
 40
7.5
  0
CIRCLE
  5
3C0
100
AcDbEntity
  8
LAY-1
  6
CONTINUOUS
 62
     7
100
AcDbCircle
 10
323.562287
 20
502.812287
 30
0.0
 40
50.0
  0
CIRCLE
  5
3C1
100
AcDbEntity
  8
LAY-1
  6
CONTINUOUS
 62
     7
100
AcDbCircle
 10
323.562287
 20
502.812287
 30
0.0
 40
28.0
  0
CIRCLE
  5
3C2
100
AcDbEntity
  8
LAY-1
  6
CONTINUOUS
 62
     7
100
AcDbCircle
 10
323.562287
 20
502.812287
 30
0.0
 40
10.0
  0
CIRCLE
  5
3C3
100
AcDbEntity
  8
LAY-1
  6
CONTINUOUS
 62
     7
100
AcDbCircle
 10
350.078791
 20
476.295782
 30
0.0
 40
7.5
  0
LINE
  5
3C4
100
AcDbEntity
  8
LAY-1
  6
CONTINUOUS
 62
     7
100
AcDbLine
 10
918.273612
 20
478.812287
 30
0.0
 11
918.273612
 21
484.024404
 31
0.0
  0
LINE
  5
3C5
100
AcDbEntity
  8
LAY-1
  6
CONTINUOUS
 62
     7
100
AcDbLine
 10
920.773612
 20
477.212287
 30
0.0
 11
920.773612
 21
492.085916
 31
0.0
  0
LINE
  5
3C6
100
AcDbEntity
  8
LAY-1
  6
CONTINUOUS
 62
     7
100
AcDbLine
 10
918.273612
 20
526.812287
 30
0.0
 11
918.273612
 21
521.600169
 31
0.0
  0
LINE
  5
3C7
100
AcDbEntity
  8
LAY-1
  6
CONTINUOUS
 62
     7
100
AcDbLine
 10
920.773612
 20
528.412287
 30
0.0
 11
920.773612
 21
513.538657
 31
0.0
  0
LINE
  5
3C8
100
AcDbEntity
  8
LAY-1
  6
CONTINUOUS
 62
     7
100
AcDbLine
 10
914.946433
 20
477.312287
 30
0.0
 11
916.937713
 21
477.312287
 31
0.0
  0
LINE
  5
3C9
100
AcDbEntity
  8
LAY-1
  6
CONTINUOUS
 62
     7
100
AcDbLine
 10
916.937713
 20
528.312287
 30
0.0
 11
914.946433
 21
528.312287
 31
0.0
  0
LINE
  5
3CA
100
AcDbEntity
  8
LAY-1
  6
CONTINUOUS
 62
     7
100
AcDbLine
 10
939.685474
 20
502.812287
 30
0.0
 11
939.685474
 21
474.812287
 31
0.0
  0
LINE
  5
3CB
100
AcDbEntity
  8
LAY-1
  6
CONTINUOUS
 62
     7
100
AcDbLine
 10
939.685474
 20
502.812287
 30
0.0
 11
939.685474
 21
530.812287
 31
0.0
  0
ARC
  5
3CC
100
AcDbEntity
  8
LAY-1
  6
CONTINUOUS
 62
     7
100
AcDbCircle
 10
949.166038
 20
515.327857
 30
0.0
 40
6.271675
100
AcDbArc
 50
318.643128
 51
42.032291
  0
ARC
  5
3CD
100
AcDbEntity
  8
LAY-1
  6
CONTINUOUS
 62
     7
100
AcDbCircle
 10
932.25196
 20
502.812287
 30
0.0
 40
23.185753
100
AcDbArc
 50
338.834344
 51
21.165656
  0
ARC
  5
3CE
100
AcDbEntity
  8
LAY-1
  6
CONTINUOUS
 62
     7
100
AcDbCircle
 10
949.112353
 20
490.276503
 30
0.0
 40
6.32536
100
AcDbArc
 50
318.827006
 51
41.172994
  0
LINE
  5
3CF
100
AcDbEntity
  8
LAY-1
  6
CONTINUOUS
 62
     7
100
AcDbLine
 10
953.873612
 20
494.440708
 30
0.0
 11
943.437713
 21
494.440708
 31
0.0
  0
LINE
  5
3D0
100
AcDbEntity
  8
LAY-1
  6
CONTINUOUS
 62
     7
100
AcDbLine
 10
953.873612
 20
511.183866
 30
0.0
 11
943.437713
 21
511.183866
 31
0.0
  0
LINE
  5
3D1
100
AcDbEntity
  8
LAY-1
  6
CONTINUOUS
 62
     7
100
AcDbLine
 10
955.437713
 20
496.045229
 30
0.0
 11
959.437713
 21
495.919524
 31
0.0
  0
LINE
  5
3D2
100
AcDbEntity
  8
LAY-1
  6
CONTINUOUS
 62
     7
100
AcDbLine
 10
955.437713
 20
509.579344
 30
0.0
 11
959.437713
 21
509.705049
 31
0.0
  0
LINE
  5
3D3
100
AcDbEntity
  8
LAY-1
  6
CONTINUOUS
 62
     7
100
AcDbLine
 10
935.437713
 20
530.312287
 30
0.0
 11
935.437713
 21
502.812287
 31
0.0
  0
LINE
  5
3D4
100
AcDbEntity
  8
LAY-1
  6
CONTINUOUS
 62
     7
100
AcDbLine
 10
935.437713
 20
475.312287
 30
0.0
 11
935.437713
 21
502.812287
 31
0.0
  0
LINE
  5
3D5
100
AcDbEntity
  8
LAY-1
  6
CONTINUOUS
 62
     7
100
AcDbLine
 10
955.437713
 20
502.812287
 30
0.0
 11
955.437713
 21
488.580236
 31
0.0
  0
LINE
  5
3D6
100
AcDbEntity
  8
LAY-1
  6
CONTINUOUS
 62
     7
100
AcDbLine
 10
955.437713
 20
502.812287
 30
0.0
 11
955.437713
 21
517.044338
 31
0.0
  0
LINE
  5
3D7
100
AcDbEntity
  8
LAY-1
  6
CONTINUOUS
 62
     7
100
AcDbLine
 10
959.437713
 20
498.770835
 30
0.0
 11
964.812498
 21
498.770835
 31
0.0
  0
ARC
  5
3D8
100
AcDbEntity
  8
LAY-1
  6
CONTINUOUS
 62
     7
100
AcDbCircle
 10
961.859561
 20
496.750109
 30
0.0
 40
3.578152
100
AcDbArc
 50
325.615753
 51
34.384247
  0
ARC
  5
3D9
100
AcDbEntity
  8
LAY-1
  6
CONTINUOUS
 62
     7
100
AcDbCircle
 10
952.062928
 20
502.812287
 30
0.0
 40
13.374785
100
AcDbArc
 50
342.412046
 51
17.587954
  0
ARC
  5
3DA
100
AcDbEntity
  8
LAY-1
  6
CONTINUOUS
 62
     7
100
AcDbCircle
 10
916.937713
 20
474.312287
 30
0.0
 40
3.0
100
AcDbArc
 50
35.685335
 51
90.0
  0
ARC
  5
3DB
100
AcDbEntity
  8
LAY-1
  6
CONTINUOUS
 62
     7
100
AcDbCircle
 10
916.937713
 20
531.312287
 30
0.0
 40
3.0
100
AcDbArc
 50
270.0
 51
324.314665
  0
ARC
  5
3DC
100
AcDbEntity
  8
LAY-1
  6
CONTINUOUS
 62
     7
100
AcDbCircle
 10
921.81111
 20
527.812287
 30
0.0
 40
3.0
100
AcDbArc
 50
90.0
 51
144.314665
  0
LINE
  5
3DD
100
AcDbEntity
  8
LAY-1
  6
CONTINUOUS
 62
     7
100
AcDbLine
 10
935.437713
 20
530.812287
 30
0.0
 11
921.81111
 21
530.812287
 31
0.0
  0
ARC
  5
3DE
100
AcDbEntity
  8
LAY-1
  6
CONTINUOUS
 62
     7
100
AcDbCircle
 10
921.81111
 20
477.812287
 30
0.0
 40
3.0
100
AcDbArc
 50
215.685335
 51
270.0
  0
LINE
  5
3DF
100
AcDbEntity
  8
LAY-1
  6
CONTINUOUS
 62
     7
100
AcDbLine
 10
921.81111
 20
474.812287
 30
0.0
 11
935.437713
 21
474.812287
 31
0.0
  0
LINE
  5
3E0
100
AcDbEntity
  8
LAY-1
  6
CONTINUOUS
 62
     7
100
AcDbLine
 10
935.437713
 20
530.812287
 30
0.0
 11
935.437713
 21
523.012287
 31
0.0
  0
LINE
  5
3E1
100
AcDbEntity
  8
LAY-1
  6
CONTINUOUS
 62
     7
100
AcDbLine
 10
935.437713
 20
530.812287
 30
0.0
 11
935.437713
 21
523.012287
 31
0.0
  0
LINE
  5
3E2
100
AcDbEntity
  8
LAY-1
  6
CONTINUOUS
 62
     7
100
AcDbLine
 10
935.437713
 20
482.612287
 30
0.0
 11
935.437713
 21
474.812287
 31
0.0
  0
ARC
  5
3E3
100
AcDbEntity
  8
LAY-1
  6
CONTINUOUS
 62
     7
100
AcDbCircle
 10
954.437713
 20
517.044338
 30
0.0
 40
1.0
100
AcDbArc
 50
0.0
 51
30.0
  0
LINE
  5
3E4
100
AcDbEntity
  8
LAY-1
  6
CONTINUOUS
 62
     7
100
AcDbLine
 10
935.437713
 20
482.612287
 30
0.0
 11
935.437713
 21
474.812287
 31
0.0
  0
ARC
  5
3E5
100
AcDbEntity
  8
LAY-1
  6
CONTINUOUS
 62
     7
100
AcDbCircle
 10
961.859561
 20
508.874465
 30
0.0
 40
3.578152
100
AcDbArc
 50
325.615753
 51
34.384247
  0
LINE
  5
3E6
100
AcDbEntity
  8
LAY-1
  6
CONTINUOUS
 62
     7
100
AcDbLine
 10
959.437713
 20
510.895191
 30
0.0
 11
964.812498
 21
510.895191
 31
0.0
  0
LINE
  5
3E7
100
AcDbEntity
  8
LAY-1
  6
CONTINUOUS
 62
     7
100
AcDbLine
 10
964.812498
 20
510.895191
 30
0.0
 11
965.437713
 21
509.789402
 31
0.0
  0
LINE
  5
3E8
100
AcDbEntity
  8
LAY-1
  6
CONTINUOUS
 62
     7
100
AcDbLine
 10
965.437713
 20
509.789402
 30
0.0
 11
965.437713
 21
495.812287
 31
0.0
  0
LINE
  5
3E9
100
AcDbEntity
  8
LAY-1
  6
CONTINUOUS
 62
     7
100
AcDbLine
 10
965.437713
 20
495.812287
 30
0.0
 11
964.812498
 21
494.729383
 31
0.0
  0
LINE
  5
3EA
100
AcDbEntity
  8
LAY-1
  6
CONTINUOUS
 62
     7
100
AcDbLine
 10
964.812498
 20
494.729383
 30
0.0
 11
959.437713
 21
494.729383
 31
0.0
  0
LINE
  5
3EB
100
AcDbEntity
  8
LAY-1
  6
CONTINUOUS
 62
     7
100
AcDbLine
 10
959.437713
 20
510.895191
 30
0.0
 11
959.437713
 21
502.812287
 31
0.0
  0
LINE
  5
3EC
100
AcDbEntity
  8
LAY-1
  6
CONTINUOUS
 62
     7
100
AcDbLine
 10
959.437713
 20
502.812287
 30
0.0
 11
959.437713
 21
494.729383
 31
0.0
  0
LINE
  5
3ED
100
AcDbEntity
  8
LAY-1
  6
CONTINUOUS
 62
     7
100
AcDbLine
 10
957.437713
 20
502.812287
 30
0.0
 11
957.437713
 21
496.133721
 31
0.0
  0
LINE
  5
3EE
100
AcDbEntity
  8
LAY-1
  6
CONTINUOUS
 62
     7
100
AcDbLine
 10
957.437713
 20
502.812287
 30
0.0
 11
957.437713
 21
509.490852
 31
0.0
  0
LINE
  5
3EF
100
AcDbEntity
  8
LAY-1
  6
CONTINUOUS
 62
     7
100
AcDbLine
 10
959.437713
 20
506.853739
 30
0.0
 11
964.812498
 21
506.853739
 31
0.0
  0
LINE
  5
3F0
100
AcDbEntity
  8
LAY-1
  6
CONTINUOUS
 62
     7
100
AcDbLine
 10
942.822415
 20
484.822759
 30
0.0
 11
941.609513
 21
477.944046
 31
0.0
  0
LINE
  5
3F1
100
AcDbEntity
  8
LAY-1
  6
CONTINUOUS
 62
     7
100
AcDbLine
 10
939.685474
 20
530.812287
 30
0.0
 11
935.937713
 21
530.812287
 31
0.0
  0
LINE
  5
3F2
100
AcDbEntity
  8
LAY-1
  6
CONTINUOUS
 62
     7
100
AcDbLine
 10
935.937713
 20
530.812287
 30
0.0
 11
935.437713
 21
530.312287
 31
0.0
  0
LINE
  5
3F3
100
AcDbEntity
  8
LAY-1
  6
CONTINUOUS
 62
     7
100
AcDbLine
 10
942.822415
 20
520.801814
 30
0.0
 11
941.609513
 21
527.680528
 31
0.0
  0
LINE
  5
3F4
100
AcDbEntity
  8
LAY-1
  6
CONTINUOUS
 62
     7
100
AcDbLine
 10
935.937713
 20
474.812287
 30
0.0
 11
939.685474
 21
474.812287
 31
0.0
  0
ARC
  5
3F5
100
AcDbEntity
  8
LAY-1
  6
CONTINUOUS
 62
     7
100
AcDbCircle
 10
953.561325
 20
518.562287
 30
0.0
 40
1.0
100
AcDbArc
 50
30.0
 51
90.0
  0
ARC
  5
3F6
100
AcDbEntity
  8
LAY-1
  6
CONTINUOUS
 62
     7
100
AcDbCircle
 10
953.561325
 20
487.062287
 30
0.0
 40
1.0
100
AcDbArc
 50
270.0
 51
330.0
  0
ARC
  5
3F7
100
AcDbEntity
  8
LAY-1
  6
CONTINUOUS
 62
     7
100
AcDbCircle
 10
944.299627
 20
484.562287
 30
0.0
 40
1.5
100
AcDbArc
 50
90.0
 51
170.0
  0
ARC
  5
3F8
100
AcDbEntity
  8
LAY-1
  6
CONTINUOUS
 62
     7
100
AcDbCircle
 10
936.685474
 20
526.812287
 30
0.0
 40
5.0
100
AcDbArc
 50
10.0
 51
53.130102
  0
ARC
  5
3F9
100
AcDbEntity
  8
LAY-1
  6
CONTINUOUS
 62
     7
100
AcDbCircle
 10
954.437713
 20
488.580236
 30
0.0
 40
1.0
100
AcDbArc
 50
330.0
 51
0.0
  0
LINE
  5
3FA
100
AcDbEntity
  8
LAY-1
  6
CONTINUOUS
 62
     7
100
AcDbLine
 10
955.303739
 20
488.080236
 30
0.0
 11
954.42735
 21
486.562287
 31
0.0
  0
LINE
  5
3FB
100
AcDbEntity
  8
LAY-1
  6
CONTINUOUS
 62
     7
100
AcDbLine
 10
953.561325
 20
486.062287
 30
0.0
 11
944.299627
 21
486.062287
 31
0.0
  0
LINE
  5
3FC
100
AcDbEntity
  8
LAY-1
  6
CONTINUOUS
 62
     7
100
AcDbLine
 10
953.561325
 20
519.562287
 30
0.0
 11
944.299627
 21
519.562287
 31
0.0
  0
LINE
  5
3FD
100
AcDbEntity
  8
LAY-1
  6
CONTINUOUS
 62
     7
100
AcDbLine
 10
955.303739
 20
517.544338
 30
0.0
 11
954.42735
 21
519.062287
 31
0.0
  0
ARC
  5
3FE
100
AcDbEntity
  8
LAY-1
  6
CONTINUOUS
 62
     7
100
AcDbCircle
 10
944.299627
 20
521.062287
 30
0.0
 40
1.5
100
AcDbArc
 50
190.0
 51
270.0
  0
LINE
  5
3FF
100
AcDbEntity
  8
LAY-1
  6
CONTINUOUS
 62
     7
100
AcDbLine
 10
935.937713
 20
474.812287
 30
0.0
 11
935.437713
 21
475.312287
 31
0.0
  0
LINE
  5
400
100
AcDbEntity
  8
LAY-1
  6
CONTINUOUS
 62
     7
100
AcDbLine
 10
957.437713
 20
495.982377
 30
0.0
 11
957.437713
 21
509.642197
 31
0.0
  0
ARC
  5
401
100
AcDbEntity
  8
LAY-1
  6
CONTINUOUS
 62
     7
100
AcDbCircle
 10
936.685474
 20
478.812287
 30
0.0
 40
5.0
100
AcDbArc
 50
306.869898
 51
350.0
  0
LINE
  5
402
100
AcDbEntity
  8
LAY-1
  6
CONTINUOUS
 62
     7
100
AcDbLine
 10
822.437713
 20
477.812287
 30
0.0
 11
828.636443
 21
477.812287
 31
0.0
  0
LINE
  5
403
100
AcDbEntity
  8
LAY-1
  6
CONTINUOUS
 62
     7
100
AcDbLine
 10
822.437713
 20
527.812287
 30
0.0
 11
828.636443
 21
527.812287
 31
0.0
  0
ARC
  5
404
100
AcDbEntity
  8
LAY-1
  6
CONTINUOUS
 62
     7
100
AcDbCircle
 10
808.680929
 20
522.730871
 30
0.0
 40
11.756785
100
AcDbArc
 50
325.615753
 51
34.384247
  0
ARC
  5
405
100
AcDbEntity
  8
LAY-1
  6
CONTINUOUS
 62
     7
100
AcDbCircle
 10
776.49199
 20
502.812287
 30
0.0
 40
43.945723
100
AcDbArc
 50
342.412046
 51
17.587954
  0
ARC
  5
406
100
AcDbEntity
  8
LAY-1
  6
CONTINUOUS
 62
     7
100
AcDbCircle
 10
808.680929
 20
482.893702
 30
0.0
 40
11.756785
100
AcDbArc
 50
325.615753
 51
34.384247
  0
ARC
  5
407
100
AcDbEntity
  8
LAY-1
  6
CONTINUOUS
 62
     7
100
AcDbCircle
 10
807.926549
 20
482.893702
 30
0.0
 40
11.756785
100
AcDbArc
 50
145.615753
 51
214.384247
  0
ARC
  5
408
100
AcDbEntity
  8
LAY-1
  6
CONTINUOUS
 62
     7
100
AcDbCircle
 10
840.115487
 20
502.812287
 30
0.0
 40
43.945723
100
AcDbArc
 50
162.412046
 51
197.587954
  0
ARC
  5
409
100
AcDbEntity
  8
LAY-1
  6
CONTINUOUS
 62
     7
100
AcDbCircle
 10
807.926549
 20
522.730871
 30
0.0
 40
11.756785
100
AcDbArc
 50
145.615753
 51
214.384247
  0
LINE
  5
40A
100
AcDbEntity
  8
LAY-1
  6
CONTINUOUS
 62
     7
100
AcDbLine
 10
818.383436
 20
489.533231
 30
0.0
 11
798.224041
 21
489.533231
 31
0.0
  0
LINE
  5
40B
100
AcDbEntity
  8
LAY-1
  6
CONTINUOUS
 62
     7
100
AcDbLine
 10
818.383436
 20
516.091343
 30
0.0
 11
798.224041
 21
516.091343
 31
0.0
  0
ARC
  5
40C
100
AcDbEntity
  8
LAY-1
  6
CONTINUOUS
 62
     7
100
AcDbCircle
 10
779.883093
 20
487.656842
 30
0.0
 40
8.94538
100
AcDbArc
 50
145.615753
 51
214.384247
  0
ARC
  5
40D
100
AcDbEntity
  8
LAY-1
  6
CONTINUOUS
 62
     7
100
AcDbCircle
 10
804.374676
 20
502.812287
 30
0.0
 40
33.436963
100
AcDbArc
 50
162.412046
 51
197.587954
  0
ARC
  5
40E
100
AcDbEntity
  8
LAY-1
  6
CONTINUOUS
 62
     7
100
AcDbCircle
 10
779.883093
 20
517.967731
 30
0.0
 40
8.94538
100
AcDbArc
 50
145.615753
 51
214.384247
  0
LINE
  5
40F
100
AcDbEntity
  8
LAY-1
  6
CONTINUOUS
 62
     7
100
AcDbLine
 10
777.937713
 20
492.708657
 30
0.0
 11
772.50075
 21
492.708657
 31
0.0
  0
LINE
  5
410
100
AcDbEntity
  8
LAY-1
  6
CONTINUOUS
 62
     7
100
AcDbLine
 10
777.937713
 20
512.915916
 30
0.0
 11
772.50075
 21
512.915916
 31
0.0
  0
LINE
  5
411
100
AcDbEntity
  8
LAY-1
  6
CONTINUOUS
 62
     7
100
AcDbLine
 10
777.937713
 20
502.812287
 30
0.0
 11
777.937713
 21
482.605027
 31
0.0
  0
LINE
  5
412
100
AcDbEntity
  8
LAY-1
  6
CONTINUOUS
 62
     7
100
AcDbLine
 10
777.937713
 20
502.812287
 30
0.0
 11
777.937713
 21
523.019546
 31
0.0
  0
LINE
  5
413
100
AcDbEntity
  8
LAY-1
  6
CONTINUOUS
 62
     7
100
AcDbLine
 10
820.437713
 20
502.812287
 30
0.0
 11
820.437713
 21
479.812287
 31
0.0
  0
LINE
  5
414
100
AcDbEntity
  8
LAY-1
  6
CONTINUOUS
 62
     7
100
AcDbLine
 10
820.437713
 20
502.812287
 30
0.0
 11
820.437713
 21
525.812287
 31
0.0
  0
LINE
  5
415
100
AcDbEntity
  8
LAY-1
  6
CONTINUOUS
 62
     7
100
AcDbLine
 10
770.937713
 20
508.812287
 30
0.0
 11
767.669764
 21
508.812287
 31
0.0
  0
LINE
  5
416
100
AcDbEntity
  8
LAY-1
  6
CONTINUOUS
 62
     7
100
AcDbLine
 10
770.937713
 20
520.312287
 30
0.0
 11
770.937713
 21
502.812287
 31
0.0
  0
LINE
  5
417
100
AcDbEntity
  8
LAY-1
  6
CONTINUOUS
 62
     7
100
AcDbLine
 10
770.937713
 20
485.312287
 30
0.0
 11
770.937713
 21
502.812287
 31
0.0
  0
LINE
  5
418
100
AcDbEntity
  8
LAY-1
  6
CONTINUOUS
 62
     7
100
AcDbLine
 10
770.937713
 20
496.812287
 30
0.0
 11
767.669764
 21
496.812287
 31
0.0
  0
LINE
  5
419
100
AcDbEntity
  8
LAY-1
  6
CONTINUOUS
 62
     7
100
AcDbLine
 10
780.437713
 20
483.812287
 30
0.0
 11
780.437713
 21
502.812287
 31
0.0
  0
LINE
  5
41A
100
AcDbEntity
  8
LAY-1
  6
CONTINUOUS
 62
     7
100
AcDbLine
 10
780.437713
 20
521.812287
 30
0.0
 11
780.437713
 21
502.812287
 31
0.0
  0
ARC
  5
41B
100
AcDbEntity
  8
LAY-1
  6
CONTINUOUS
 62
     7
100
AcDbCircle
 10
750.937713
 20
512.812287
 30
0.0
 40
13.0
100
AcDbArc
 50
7.662256
 51
52.020128
  0
ARC
  5
41C
100
AcDbEntity
  8
LAY-1
  6
CONTINUOUS
 62
     7
100
AcDbCircle
 10
750.937713
 20
492.812287
 30
0.0
 40
13.0
100
AcDbArc
 50
307.979872
 51
352.337744
  0
ARC
  5
41D
100
AcDbEntity
  8
LAY-1
  6
CONTINUOUS
 62
     7
100
AcDbCircle
 10
749.437713
 20
502.812287
 30
0.0
 40
4.5
100
AcDbArc
 50
141.057559
 51
218.942441
  0
LINE
  5
41E
100
AcDbEntity
  8
LAY-1
  6
CONTINUOUS
 62
     7
100
AcDbLine
 10
745.937713
 20
469.112287
 30
0.0
 11
745.937713
 21
502.812287
 31
0.0
  0
LINE
  5
41F
100
AcDbEntity
  8
LAY-1
  6
CONTINUOUS
 62
     7
100
AcDbLine
 10
745.937713
 20
532.812287
 30
0.0
 11
745.937713
 21
502.812287
 31
0.0
  0
LINE
  5
420
100
AcDbEntity
  8
LAY-1
  6
CONTINUOUS
 62
     7
100
AcDbLine
 10
758.937713
 20
536.312287
 30
0.0
 11
758.937713
 21
502.812287
 31
0.0
  0
LINE
  5
421
100
AcDbEntity
  8
LAY-1
  6
CONTINUOUS
 62
     7
100
AcDbLine
 10
758.937713
 20
469.312287
 30
0.0
 11
758.937713
 21
502.812287
 31
0.0
  0
LINE
  5
422
100
AcDbEntity
  8
LAY-1
  6
CONTINUOUS
 62
     7
100
AcDbLine
 10
820.437713
 20
525.812287
 30
0.0
 11
818.383436
 21
529.370399
 31
0.0
  0
LINE
  5
423
100
AcDbEntity
  8
LAY-1
  6
CONTINUOUS
 62
     7
100
AcDbLine
 10
818.383436
 20
529.370399
 30
0.0
 11
798.224041
 21
529.370399
 31
0.0
  0
LINE
  5
424
100
AcDbEntity
  8
LAY-1
  6
CONTINUOUS
 62
     7
100
AcDbLine
 10
820.437713
 20
479.812287
 30
0.0
 11
818.383436
 21
476.254174
 31
0.0
  0
LINE
  5
425
100
AcDbEntity
  8
LAY-1
  6
CONTINUOUS
 62
     7
100
AcDbLine
 10
818.383436
 20
476.254174
 30
0.0
 11
798.224041
 21
476.254174
 31
0.0
  0
LINE
  5
426
100
AcDbEntity
  8
LAY-1
  6
CONTINUOUS
 62
     7
100
AcDbLine
 10
820.437713
 20
486.624287
 30
0.0
 11
820.437713
 21
479.812287
 31
0.0
  0
LINE
  5
427
100
AcDbEntity
  8
LAY-1
  6
CONTINUOUS
 62
     7
100
AcDbLine
 10
820.437713
 20
486.624287
 30
0.0
 11
820.437713
 21
479.812287
 31
0.0
  0
ARC
  5
428
100
AcDbEntity
  8
LAY-1
  6
CONTINUOUS
 62
     7
100
AcDbCircle
 10
781.437713
 20
521.812287
 30
0.0
 40
1.0
100
AcDbArc
 50
90.0
 51
180.0
  0
ARC
  5
429
100
AcDbEntity
  8
LAY-1
  6
CONTINUOUS
 62
     7
100
AcDbCircle
 10
793.860363
 20
523.812287
 30
0.0
 40
1.0
100
AcDbArc
 50
270.0
 51
330.0
  0
LINE
  5
42A
100
AcDbEntity
  8
LAY-1
  6
CONTINUOUS
 62
     7
100
AcDbLine
 10
792.732755
 20
482.812287
 30
0.0
 11
793.860363
 21
482.812287
 31
0.0
  0
LINE
  5
42B
100
AcDbEntity
  8
LAY-1
  6
CONTINUOUS
 62
     7
100
AcDbLine
 10
780.437713
 20
521.812287
 30
0.0
 11
780.437713
 21
518.812287
 31
0.0
  0
LINE
  5
42C
100
AcDbEntity
  8
LAY-1
  6
CONTINUOUS
 62
     7
100
AcDbLine
 10
793.860363
 20
522.812287
 30
0.0
 11
781.437713
 21
522.812287
 31
0.0
  0
LINE
  5
42D
100
AcDbEntity
  8
LAY-1
  6
CONTINUOUS
 62
     7
100
AcDbLine
 10
798.224041
 20
529.370399
 30
0.0
 11
794.726388
 21
523.312287
 31
0.0
  0
LINE
  5
42E
100
AcDbEntity
  8
LAY-1
  6
CONTINUOUS
 62
     7
100
AcDbLine
 10
792.732755
 20
522.812287
 30
0.0
 11
793.860363
 21
522.812287
 31
0.0
  0
ARC
  5
42F
100
AcDbEntity
  8
LAY-1
  6
CONTINUOUS
 62
     7
100
AcDbCircle
 10
793.860363
 20
481.812287
 30
0.0
 40
1.0
100
AcDbArc
 50
30.0
 51
90.0
  0
LINE
  5
430
100
AcDbEntity
  8
LAY-1
  6
CONTINUOUS
 62
     7
100
AcDbLine
 10
818.383436
 20
529.370399
 30
0.0
 11
798.224041
 21
529.370399
 31
0.0
  0
LINE
  5
431
100
AcDbEntity
  8
LAY-1
  6
CONTINUOUS
 62
     7
100
AcDbLine
 10
820.437713
 20
525.812287
 30
0.0
 11
818.383436
 21
529.370399
 31
0.0
  0
ARC
  5
432
100
AcDbEntity
  8
LAY-1
  6
CONTINUOUS
 62
     7
100
AcDbCircle
 10
781.437713
 20
483.812287
 30
0.0
 40
1.0
100
AcDbArc
 50
180.0
 51
270.0
  0
LINE
  5
433
100
AcDbEntity
  8
LAY-1
  6
CONTINUOUS
 62
     7
100
AcDbLine
 10
798.224041
 20
476.254174
 30
0.0
 11
794.726388
 21
482.312287
 31
0.0
  0
LINE
  5
434
100
AcDbEntity
  8
LAY-1
  6
CONTINUOUS
 62
     7
100
AcDbLine
 10
765.937713
 20
497.812287
 30
0.0
 11
767.669764
 21
496.812287
 31
0.0
  0
LINE
  5
435
100
AcDbEntity
  8
LAY-1
  6
CONTINUOUS
 62
     7
100
AcDbLine
 10
767.669764
 20
496.812287
 30
0.0
 11
767.669764
 21
502.812287
 31
0.0
  0
LINE
  5
436
100
AcDbEntity
  8
LAY-1
  6
CONTINUOUS
 62
     7
100
AcDbLine
 10
822.437713
 20
527.812287
 30
0.0
 11
820.437713
 21
525.812287
 31
0.0
  0
LINE
  5
437
100
AcDbEntity
  8
LAY-1
  6
CONTINUOUS
 62
     7
100
AcDbLine
 10
820.437713
 20
479.812287
 30
0.0
 11
822.437713
 21
477.812287
 31
0.0
  0
LINE
  5
438
100
AcDbEntity
  8
LAY-1
  6
CONTINUOUS
 62
     7
100
AcDbLine
 10
820.437713
 20
525.812287
 30
0.0
 11
820.437713
 21
519.000287
 31
0.0
  0
LINE
  5
439
100
AcDbEntity
  8
LAY-1
  6
CONTINUOUS
 62
     7
100
AcDbLine
 10
820.437713
 20
486.624287
 30
0.0
 11
820.437713
 21
479.812287
 31
0.0
  0
ARC
  5
43A
100
AcDbEntity
  8
LAY-1
  6
CONTINUOUS
 62
     7
100
AcDbCircle
 10
752.437713
 20
536.312287
 30
0.0
 40
6.5
100
AcDbArc
 50
0.0
 51
180.0
  0
ARC
  5
43B
100
AcDbEntity
  8
LAY-1
  6
CONTINUOUS
 62
     7
100
AcDbCircle
 10
764.937713
 20
493.684555
 30
0.0
 40
1.0
100
AcDbArc
 50
286.779519
 51
0.0
  0
ARC
  5
43C
100
AcDbEntity
  8
LAY-1
  6
CONTINUOUS
 62
     7
100
AcDbCircle
 10
765.803782
 20
490.812287
 30
0.0
 40
2.0
100
AcDbArc
 50
106.779519
 51
172.337744
  0
LINE
  5
43D
100
AcDbEntity
  8
LAY-1
  6
CONTINUOUS
 62
     7
100
AcDbLine
 10
765.937713
 20
502.812287
 30
0.0
 11
765.937713
 21
493.684555
 31
0.0
  0
LINE
  5
43E
100
AcDbEntity
  8
LAY-1
  6
CONTINUOUS
 62
     7
100
AcDbLine
 10
745.937713
 20
536.312287
 30
0.0
 11
745.937713
 21
531.812287
 31
0.0
  0
ARC
  5
43F
100
AcDbEntity
  8
LAY-1
  6
CONTINUOUS
 62
     7
100
AcDbCircle
 10
752.437713
 20
469.312287
 30
0.0
 40
6.5
100
AcDbArc
 50
180.0
 51
0.0
  0
ARC
  5
440
100
AcDbEntity
  8
LAY-1
  6
CONTINUOUS
 62
     7
100
AcDbCircle
 10
764.937713
 20
511.940019
 30
0.0
 40
1.0
100
AcDbArc
 50
0.0
 51
73.220481
  0
ARC
  5
441
100
AcDbEntity
  8
LAY-1
  6
CONTINUOUS
 62
     7
100
AcDbCircle
 10
765.803782
 20
514.812287
 30
0.0
 40
2.0
100
AcDbArc
 50
187.662256
 51
253.220481
  0
LINE
  5
442
100
AcDbEntity
  8
LAY-1
  6
CONTINUOUS
 62
     7
100
AcDbLine
 10
772.50075
 20
523.019546
 30
0.0
 11
770.937713
 21
520.312287
 31
0.0
  0
LINE
  5
443
100
AcDbEntity
  8
LAY-1
  6
CONTINUOUS
 62
     7
100
AcDbLine
 10
777.937713
 20
523.019546
 30
0.0
 11
772.50075
 21
523.019546
 31
0.0
  0
LINE
  5
444
100
AcDbEntity
  8
LAY-1
  6
CONTINUOUS
 62
     7
100
AcDbLine
 10
780.437713
 20
518.812287
 30
0.0
 11
777.937713
 21
518.812287
 31
0.0
  0
LINE
  5
445
100
AcDbEntity
  8
LAY-1
  6
CONTINUOUS
 62
     7
100
AcDbLine
 10
780.437713
 20
486.812287
 30
0.0
 11
777.937713
 21
486.812287
 31
0.0
  0
LINE
  5
446
100
AcDbEntity
  8
LAY-1
  6
CONTINUOUS
 62
     7
100
AcDbLine
 10
777.937713
 20
482.605027
 30
0.0
 11
772.50075
 21
482.605027
 31
0.0
  0
LINE
  5
447
100
AcDbEntity
  8
LAY-1
  6
CONTINUOUS
 62
     7
100
AcDbLine
 10
772.50075
 20
482.605027
 30
0.0
 11
770.937713
 21
485.312287
 31
0.0
  0
LINE
  5
448
100
AcDbEntity
  8
LAY-1
  6
CONTINUOUS
 62
     7
100
AcDbLine
 10
820.437713
 20
525.812287
 30
0.0
 11
818.383436
 21
529.370399
 31
0.0
  0
LINE
  5
449
100
AcDbEntity
  8
LAY-1
  6
CONTINUOUS
 62
     7
100
AcDbLine
 10
818.383436
 20
529.370399
 30
0.0
 11
798.224041
 21
529.370399
 31
0.0
  0
LINE
  5
44A
100
AcDbEntity
  8
LAY-1
  6
CONTINUOUS
 62
     7
100
AcDbLine
 10
798.224041
 20
529.370399
 30
0.0
 11
794.726388
 21
523.312287
 31
0.0
  0
LINE
  5
44B
100
AcDbEntity
  8
LAY-1
  6
CONTINUOUS
 62
     7
100
AcDbLine
 10
792.732755
 20
522.812287
 30
0.0
 11
793.860363
 21
522.812287
 31
0.0
  0
LINE
  5
44C
100
AcDbEntity
  8
LAY-1
  6
CONTINUOUS
 62
     7
100
AcDbLine
 10
793.860363
 20
522.812287
 30
0.0
 11
781.437713
 21
522.812287
 31
0.0
  0
ARC
  5
44D
100
AcDbEntity
  8
LAY-1
  6
CONTINUOUS
 62
     7
100
AcDbCircle
 10
793.860363
 20
481.812287
 30
0.0
 40
1.0
100
AcDbArc
 50
30.0
 51
90.0
  0
ARC
  5
44E
100
AcDbEntity
  8
LAY-1
  6
CONTINUOUS
 62
     7
100
AcDbCircle
 10
781.437713
 20
483.812287
 30
0.0
 40
1.0
100
AcDbArc
 50
180.0
 51
270.0
  0
LINE
  5
44F
100
AcDbEntity
  8
LAY-1
  6
CONTINUOUS
 62
     7
100
AcDbLine
 10
780.437713
 20
483.812287
 30
0.0
 11
780.437713
 21
486.812287
 31
0.0
  0
LINE
  5
450
100
AcDbEntity
  8
LAY-1
  6
CONTINUOUS
 62
     7
100
AcDbLine
 10
793.860363
 20
482.812287
 30
0.0
 11
781.437713
 21
482.812287
 31
0.0
  0
LINE
  5
451
100
AcDbEntity
  8
LAY-1
  6
CONTINUOUS
 62
     7
100
AcDbLine
 10
820.437713
 20
479.812287
 30
0.0
 11
818.383436
 21
476.254174
 31
0.0
  0
LINE
  5
452
100
AcDbEntity
  8
LAY-1
  6
CONTINUOUS
 62
     7
100
AcDbLine
 10
818.383436
 20
476.254174
 30
0.0
 11
798.224041
 21
476.254174
 31
0.0
  0
LINE
  5
453
100
AcDbEntity
  8
LAY-1
  6
CONTINUOUS
 62
     7
100
AcDbLine
 10
798.224041
 20
476.254174
 30
0.0
 11
794.726388
 21
482.312287
 31
0.0
  0
LINE
  5
454
100
AcDbEntity
  8
LAY-1
  6
CONTINUOUS
 62
     7
100
AcDbLine
 10
792.732755
 20
482.812287
 30
0.0
 11
793.860363
 21
482.812287
 31
0.0
  0
LINE
  5
455
100
AcDbEntity
  8
LAY-1
  6
CONTINUOUS
 62
     7
100
AcDbLine
 10
793.860363
 20
482.812287
 30
0.0
 11
781.437713
 21
482.812287
 31
0.0
  0
ARC
  5
456
100
AcDbEntity
  8
LAY-1
  6
CONTINUOUS
 62
     7
100
AcDbCircle
 10
793.860363
 20
523.812287
 30
0.0
 40
1.0
100
AcDbArc
 50
270.0
 51
330.0
  0
ARC
  5
457
100
AcDbEntity
  8
LAY-1
  6
CONTINUOUS
 62
     7
100
AcDbCircle
 10
781.437713
 20
521.812287
 30
0.0
 40
1.0
100
AcDbArc
 50
90.0
 51
180.0
  0
LINE
  5
458
100
AcDbEntity
  8
LAY-1
  6
CONTINUOUS
 62
     7
100
AcDbLine
 10
765.937713
 20
502.812287
 30
0.0
 11
765.937713
 21
511.940019
 31
0.0
  0
LINE
  5
459
100
AcDbEntity
  8
LAY-1
  6
CONTINUOUS
 62
     7
100
AcDbLine
 10
765.937713
 20
507.812287
 30
0.0
 11
767.669764
 21
508.812287
 31
0.0
  0
LINE
  5
45A
100
AcDbEntity
  8
LAY-1
  6
CONTINUOUS
 62
     7
100
AcDbLine
 10
767.669764
 20
508.812287
 30
0.0
 11
767.669764
 21
502.812287
 31
0.0
  0
LINE
  5
45B
100
AcDbEntity
  8
LAY-1
  6
CONTINUOUS
 62
     7
100
AcDbLine
 10
818.383436
 20
476.254174
 30
0.0
 11
798.224041
 21
476.254174
 31
0.0
  0
LINE
  5
45C
100
AcDbEntity
  8
LAY-1
  6
CONTINUOUS
 62
     7
100
AcDbLine
 10
820.437713
 20
479.812287
 30
0.0
 11
818.383436
 21
476.254174
 31
0.0
  0
CIRCLE
  5
45D
100
AcDbEntity
  8
LAY-1
  6
CONTINUOUS
 62
     7
100
AcDbCircle
 10
898.454218
 20
476.295782
 30
0.0
 40
7.5
  0
CIRCLE
  5
45E
100
AcDbEntity
  8
LAY-1
  6
CONTINUOUS
 62
     7
100
AcDbCircle
 10
898.454218
 20
529.328791
 30
0.0
 40
7.5
  0
CIRCLE
  5
45F
100
AcDbEntity
  8
LAY-1
  6
CONTINUOUS
 62
     7
100
AcDbCircle
 10
845.421209
 20
529.328791
 30
0.0
 40
7.5
  0
CIRCLE
  5
460
100
AcDbEntity
  8
LAY-1
  6
CONTINUOUS
 62
     7
100
AcDbCircle
 10
871.937713
 20
502.812287
 30
0.0
 40
50.0
  0
CIRCLE
  5
461
100
AcDbEntity
  8
LAY-1
  6
CONTINUOUS
 62
     7
100
AcDbCircle
 10
871.937713
 20
502.812287
 30
0.0
 40
28.0
  0
CIRCLE
  5
462
100
AcDbEntity
  8
LAY-1
  6
CONTINUOUS
 62
     7
100
AcDbCircle
 10
871.937713
 20
502.812287
 30
0.0
 40
10.0
  0
CIRCLE
  5
463
100
AcDbEntity
  8
LAY-1
  6
CONTINUOUS
 62
     7
100
AcDbCircle
 10
845.421209
 20
476.295782
 30
0.0
 40
7.5
  0
LINE
  5
464
100
AcDbEntity
  8
LAY-1
  6
EXLTYPE3
 62
     1
100
AcDbLine
 10
597.75
 20
548.262287
 30
0.0
 11
597.75
 21
457.362287
 31
0.0
  0
LINE
  5
465
100
AcDbEntity
  8
LAY-1
  6
EXLTYPE3
 62
     1
100
AcDbLine
 10
597.75
 20
160.062287
 30
0.0
 11
597.75
 21
388.88903
 31
0.0
  0
LINE
  5
466
100
AcDbEntity
  8
LAY-1
  6
EXLTYPE3
 62
     1
100
AcDbLine
 10
597.75
 20
845.562287
 30
0.0
 11
597.75
 21
616.735543
 31
0.0
  0
TEXT
  5
467
100
AcDbEntity
  8
LAY-1
  6
CONTINUOUS
 62
     3
100
AcDbText
 10
367.6
 20
172.2
 30
0.0
 40
15.0
  1
４－φ１９
 41
0.84
  7
EXCADSTD
 72
     5
 11
442.6
 21
172.2
 31
0.0
100
AcDbText
  0
TEXT
  5
468
100
AcDbEntity
  8
LAY-1
  6
CONTINUOUS
 62
     3
100
AcDbText
 10
742.4
 20
170.2
 30
0.0
 40
15.0
  1
４－φ１９
 41
0.84
  7
EXCADSTD
 72
     5
 11
817.4
 21
170.2
 31
0.0
100
AcDbText
  0
LINE
  5
469
100
AcDbEntity
  8
LAY-1
  6
CONTINUOUS
 62
     7
100
AcDbLine
 10
503.065204
 20
262.248185
 30
0.0
 11
503.065204
 21
254.248185
 31
0.0
  0
LINE
  5
46A
100
AcDbEntity
  8
LAY-1
  6
CONTINUOUS
 62
     7
100
AcDbLine
 10
503.065204
 20
254.248185
 30
0.0
 11
517.464273
 21
254.248185
 31
0.0
  0
LINE
  5
46B
100
AcDbEntity
  8
LAY-1
  6
CONTINUOUS
 62
     7
100
AcDbLine
 10
517.464273
 20
254.248185
 30
0.0
 11
517.464273
 21
250.248185
 31
0.0
  0
LINE
  5
46C
100
AcDbEntity
  8
LAY-1
  6
CONTINUOUS
 62
     7
100
AcDbLine
 10
517.464273
 20
250.248185
 30
0.0
 11
526.4
 21
258.248185
 31
0.0
  0
LINE
  5
46D
100
AcDbEntity
  8
LAY-1
  6
CONTINUOUS
 62
     7
100
AcDbLine
 10
526.4
 20
258.248185
 30
0.0
 11
517.464273
 21
266.248185
 31
0.0
  0
LINE
  5
46E
100
AcDbEntity
  8
LAY-1
  6
CONTINUOUS
 62
     7
100
AcDbLine
 10
517.464273
 20
266.248185
 30
0.0
 11
517.464273
 21
262.248185
 31
0.0
  0
LINE
  5
46F
100
AcDbEntity
  8
LAY-1
  6
CONTINUOUS
 62
     7
100
AcDbLine
 10
517.464273
 20
262.248185
 30
0.0
 11
503.065204
 21
262.248185
 31
0.0
  0
LINE
  5
470
100
AcDbEntity
  8
LAY-1
  6
CONTINUOUS
 62
     7
100
AcDbLine
 10
673.565204
 20
262.248185
 30
0.0
 11
673.565204
 21
254.248185
 31
0.0
  0
LINE
  5
471
100
AcDbEntity
  8
LAY-1
  6
CONTINUOUS
 62
     7
100
AcDbLine
 10
673.565204
 20
254.248185
 30
0.0
 11
687.964273
 21
254.248185
 31
0.0
  0
LINE
  5
472
100
AcDbEntity
  8
LAY-1
  6
CONTINUOUS
 62
     7
100
AcDbLine
 10
687.964273
 20
254.248185
 30
0.0
 11
687.964273
 21
250.248185
 31
0.0
  0
LINE
  5
473
100
AcDbEntity
  8
LAY-1
  6
CONTINUOUS
 62
     7
100
AcDbLine
 10
687.964273
 20
250.248185
 30
0.0
 11
696.9
 21
258.248185
 31
0.0
  0
LINE
  5
474
100
AcDbEntity
  8
LAY-1
  6
CONTINUOUS
 62
     7
100
AcDbLine
 10
696.9
 20
258.248185
 30
0.0
 11
687.964273
 21
266.248185
 31
0.0
  0
LINE
  5
475
100
AcDbEntity
  8
LAY-1
  6
CONTINUOUS
 62
     7
100
AcDbLine
 10
687.964273
 20
266.248185
 30
0.0
 11
687.964273
 21
262.248185
 31
0.0
  0
LINE
  5
476
100
AcDbEntity
  8
LAY-1
  6
CONTINUOUS
 62
     7
100
AcDbLine
 10
687.964273
 20
262.248185
 30
0.0
 11
673.565204
 21
262.248185
 31
0.0
  0
LINE
  5
477
100
AcDbEntity
  8
LAY-3
  6
CONTINUOUS
 62
     1
100
AcDbLine
 10
657.75
 20
127.0
 30
0.0
 11
537.75
 21
127.0
 31
0.0
  0
LINE
  5
478
100
AcDbEntity
  8
LAY-3
  6
CONTINUOUS
 62
     1
100
AcDbLine
 10
655.75
 20
126.666667
 30
0.0
 11
657.75
 21
127.0
 31
0.0
  0
LINE
  5
479
100
AcDbEntity
  8
LAY-3
  6
CONTINUOUS
 62
     1
100
AcDbLine
 10
657.75
 20
127.0
 30
0.0
 11
655.75
 21
127.333333
 31
0.0
  0
LINE
  5
47A
100
AcDbEntity
  8
LAY-3
  6
CONTINUOUS
 62
     1
100
AcDbLine
 10
539.75
 20
127.333333
 30
0.0
 11
537.75
 21
127.0
 31
0.0
  0
LINE
  5
47B
100
AcDbEntity
  8
LAY-3
  6
CONTINUOUS
 62
     1
100
AcDbLine
 10
537.75
 20
127.0
 30
0.0
 11
539.75
 21
126.666667
 31
0.0
  0
TEXT
  5
47C
100
AcDbEntity
  8
LAY-3
  6
CONTINUOUS
 62
     3
100
AcDbText
 10
575.25
 20
128.0
 30
0.0
 40
15.0
  1
１２０
 41
0.84
  7
EXCADSTD
 72
     5
 11
620.25
 21
128.0
 31
0.0
100
AcDbText
  0
LINE
  5
47D
100
AcDbEntity
  8
LAY-3
  6
CONTINUOUS
 62
     1
100
AcDbLine
 10
657.75
 20
229.248186
 30
0.0
 11
657.75
 21
126.5
 31
0.0
  0
LINE
  5
47E
100
AcDbEntity
  8
LAY-3
  6
CONTINUOUS
 62
     1
100
AcDbLine
 10
537.75
 20
229.248186
 30
0.0
 11
537.75
 21
126.5
 31
0.0
  0
ENDSEC
  0
SECTION
  2
OBJECTS
  0
DICTIONARY
  5
19
100
AcDbDictionary
  3
ACAD_GROUP
350
1A
  3
ACAD_MLINESTYLE
350
1B
  0
DICTIONARY
  5
1A
102
{ACAD_REACTORS
330
19
102
}
100
AcDbDictionary
  0
DICTIONARY
  5
1B
102
{ACAD_REACTORS
330
19
102
}
100
AcDbDictionary
  3
STANDARD
350
1C
  0
MLINESTYLE
  5
1C
102
{ACAD_REACTORS
330
1B
102
}
100
AcDbMlineStyle
  2
Standard
 70
     0
  3

 62
     0
 51
90.0
 52
90.0
 71
     2
 49
0.5
 62
   256
  6
ByLayer
 49
-0.5
 62
   256
  6
ByLayer
  0
ENDSEC
  0
EOF
