  0
SECTION
  2
HEADER
  9
$ACADVER
  1
AC1014
  9
$ACADMAINTVER
 70
     0
  9
$DWGCODEPAGE
  3
ANSI_932
  9
$INSBASE
 10
0.0
 20
0.0
 30
0.0
  9
$EXTMIN
 10
184.779714
 20
0.5
 30
0.0
  9
$EXTMAX
 10
1051.389264
 20
879.463986
 30
0.0
  9
$LIMMIN
 10
0.0
 20
0.0
  9
$LIMMAX
 10
420.0
 20
297.0
  9
$ORTHOMODE
 70
     0
  9
$REGENMODE
 70
     1
  9
$FILLMODE
 70
     1
  9
$QTEXTMODE
 70
     0
  9
$MIRRTEXT
 70
     1
  9
$DRAGMODE
 70
     2
  9
$LTSCALE
 40
1.0
  9
$OSMODE
 70
     0
  9
$ATTMODE
 70
     1
  9
$TEXTSIZE
 40
0.2
  9
$TRACEWID
 40
0.05
  9
$TEXTSTYLE
  7
STANDARD
  9
$CLAYER
  8
LAY-1
  9
$CELTYPE
  6
CONTINUOUS
  9
$CECOLOR
 62
   256
  9
$CELTSCALE
 40
1.0
  9
$DELOBJ
 70
     1
  9
$DISPSILH
 70
     0
  9
$DIMSCALE
 40
1.0
  9
$DIMASZ
 40
0.18
  9
$DIMEXO
 40
0.0625
  9
$DIMDLI
 40
0.38
  9
$DIMRND
 40
0.0
  9
$DIMDLE
 40
0.0
  9
$DIMEXE
 40
0.18
  9
$DIMTP
 40
0.0
  9
$DIMTM
 40
0.0
  9
$DIMTXT
 40
0.18
  9
$DIMCEN
 40
0.09
  9
$DIMTSZ
 40
0.0
  9
$DIMTOL
 70
     0
  9
$DIMLIM
 70
     0
  9
$DIMTIH
 70
     1
  9
$DIMTOH
 70
     1
  9
$DIMSE1
 70
     0
  9
$DIMSE2
 70
     0
  9
$DIMTAD
 70
     0
  9
$DIMZIN
 70
     0
  9
$DIMBLK
  1

  9
$DIMASO
 70
     1
  9
$DIMSHO
 70
     1
  9
$DIMPOST
  1

  9
$DIMAPOST
  1

  9
$DIMALT
 70
     0
  9
$DIMALTD
 70
     2
  9
$DIMALTF
 40
25.4
  9
$DIMLFAC
 40
1.0
  9
$DIMTOFL
 70
     0
  9
$DIMTVP
 40
0.0
  9
$DIMTIX
 70
     0
  9
$DIMSOXD
 70
     0
  9
$DIMSAH
 70
     0
  9
$DIMBLK1
  1

  9
$DIMBLK2
  1

  9
$DIMSTYLE
  2
STANDARD
  9
$DIMCLRD
 70
     0
  9
$DIMCLRE
 70
     0
  9
$DIMCLRT
 70
     0
  9
$DIMTFAC
 40
1.0
  9
$DIMGAP
 40
0.09
  9
$DIMJUST
 70
     0
  9
$DIMSD1
 70
     0
  9
$DIMSD2
 70
     0
  9
$DIMTOLJ
 70
     1
  9
$DIMTZIN
 70
     0
  9
$DIMALTZ
 70
     0
  9
$DIMALTTZ
 70
     0
  9
$DIMFIT
 70
     3
  9
$DIMUPT
 70
     0
  9
$DIMUNIT
 70
     2
  9
$DIMDEC
 70
     4
  9
$DIMTDEC
 70
     4
  9
$DIMALTU
 70
     2
  9
$DIMALTTD
 70
     2
  9
$DIMTXSTY
  7
STANDARD
  9
$DIMAUNIT
 70
     0
  9
$LUNITS
 70
     2
  9
$LUPREC
 70
     4
  9
$SKETCHINC
 40
0.1
  9
$FILLETRAD
 40
0.0
  9
$AUNITS
 70
     0
  9
$AUPREC
 70
     0
  9
$MENU
  1
acad
  9
$ELEVATION
 40
0.0
  9
$PELEVATION
 40
0.0
  9
$THICKNESS
 40
0.0
  9
$LIMCHECK
 70
     0
  9
$BLIPMODE
 70
     1
  9
$CHAMFERA
 40
0.0
  9
$CHAMFERB
 40
0.0
  9
$CHAMFERC
 40
0.0
  9
$CHAMFERD
 40
0.0
  9
$SKPOLY
 70
     0
  9
$TDCREATE
 40
2456816.144865185
  9
$TDUPDATE
 40
2456816.144865185
  9
$TDINDWG
 40
0.0000000000
  9
$TDUSRTIMER
 40
0.0000000000
  9
$USRTIMER
 70
     1
  9
$ANGBASE
 50
0.0
  9
$ANGDIR
 70
     0
  9
$PDMODE
 70
     0
  9
$PDSIZE
 40
0.0
  9
$PLINEWID
 40
0.0
  9
$COORDS
 70
     1
  9
$SPLFRAME
 70
     0
  9
$SPLINETYPE
 70
     6
  9
$SPLINESEGS
 70
     8
  9
$ATTDIA
 70
     0
  9
$ATTREQ
 70
     1
  9
$HANDLING
 70
     1
  9
$HANDSEED
  5
40E
  9
$SURFTAB1
 70
     6
  9
$SURFTAB2
 70
     6
  9
$SURFTYPE
 70
     6
  9
$SURFU
 70
     6
  9
$SURFV
 70
     6
  9
$UCSNAME
  2

  9
$UCSORG
 10
0.0
 20
0.0
 30
0.0
  9
$UCSXDIR
 10
1.0
 20
0.0
 30
0.0
  9
$UCSYDIR
 10
0.0
 20
1.0
 30
0.0
  9
$PUCSNAME
  2

  9
$PUCSORG
 10
0.0
 20
0.0
 30
0.0
  9
$PUCSXDIR
 10
1.0
 20
0.0
 30
0.0
  9
$PUCSYDIR
 10
0.0
 20
1.0
 30
0.0
  9
$USERI1
 70
     0
  9
$USERI2
 70
     0
  9
$USERI3
 70
     0
  9
$USERI4
 70
     0
  9
$USERI5
 70
     0
  9
$USERR1
 40
0.0
  9
$USERR2
 40
0.0
  9
$USERR3
 40
0.0
  9
$USERR4
 40
0.0
  9
$USERR5
 40
0.0
  9
$WORLDVIEW
 70
     1
  9
$SHADEDGE
 70
     3
  9
$SHADEDIF
 70
    70
  9
$TILEMODE
 70
     1
  9
$MAXACTVP
 70
    16
  9
$PINSBASE
 10
0.0
 20
0.0
 30
0.0
  9
$PLIMCHECK
 70
     0
  9
$PEXTMIN
 10
1.000000E+20
 20
1.000000E+20
 30
1.000000E+20
  9
$PEXTMAX
 10
-1.000000E+20
 20
-1.000000E+20
 30
-1.000000E+20
  9
$PLIMMIN
 10
0.0
 20
0.0
  9
$PLIMMAX
 10
12.0
 20
9.0
  9
$UNITMODE
 70
     0
  9
$VISRETAIN
 70
     0
  9
$PLINEGEN
 70
     1
  9
$PSLTSCALE
 70
     0
  9
$TREEDEPTH
 70
  3020
  9
$PICKSTYLE
 70
     1
  9
$CMLSTYLE
  2
Standard
  9
$CMLJUST
 70
     0
  9
$CMLSCALE
 40
1.0
  9
$PROXYGRAPHICS
 70
     0
  9
$MEASUREMENT
 70
     0
  0
ENDSEC
  0
SECTION
  2
CLASSES
  0
CLASS
  1
LWPOLYLINE
  2
AcDbPolyline
  3
"AutoCAD"
 90
        0
280
     0
281
     1
  0
CLASS
  1
IMAGE
  2
AcDbRasterImage
  3
ISM
 90
      127
280
     0
281
     1
  0
CLASS
  1
OLE2FRAME
  2
AcDbOle2Frame
  3
""
 90
        0
280
     0
281
     1
  0
CLASS
  1
HATCH
  2
AcDbHatch
  3
"ACAD_SEDONA"
 90
        0
280
     0
281
     1
  0
CLASS
  1
DICTIONARYVAR
  2
AcDbDictionaryVar
  3
"AutoCAD"
 90
        0
280
     0
281
     0
  0
CLASS
  1
RASTERVARIABLES
  2
AcDbRasterVariables
  3
ISM
 90
        0
280
     0
281
     0
  0
CLASS
  1
IMAGEDEF
  2
AcDbRasterImageDef
  3
ISM
 90
        0
280
     0
281
     0
  0
CLASS
  1
IMAGEDEF_REACTOR
  2
AcDbRasterImageDefReactor
  3
ISM
 90
        1
280
     0
281
     0
  0
CLASS
  1
IDBUFFER
  2
AcDbIdBuffer
  3
"Acad"
 90
        0
280
     0
281
     0
  0
CLASS
  1
SPATIAL_FILTER
  2
AcDbSpatialFilter
  3
"Acad"
 90
        0
280
     0
281
     0
  0
CLASS
  1
XRECORD
  2
AcDbXrecord
  3
"<Built In>"
 90
        0
280
     0
281
     0
  0
CLASS
  1
SORTENTSTABLE
  2
AcDbSortentsTable
  3
"AutoCAD"
 90
        0
280
     0
281
     0
  0
CLASS
  1
LAYER_INDEX
  2
AcDbLayerIndex
  3
"Acad"
 90
        0
280
     0
281
     0
  0
CLASS
  1
SPATIAL_INDEX
  2
AcDbSpatialIndex
  3
"Acad"
 90
        0
280
     0
281
     0
  0
CLASS
  1
OBJECT_PTR
  2
CAseDLPNTableRecord
  3
"ASE-LPNTableRecord"
 90
        1
280
     0
281
     0
  0
CLASS
  1
LAYOUT
  2
AcDbLayout
  3
"AutoCAD 2000"
 90
        0
280
     0
281
     0
  0
CLASS
  1
PLOTSETTINGS
  2
AcDbPlotSettings
  3
"AutoCAD 2000"
 90
        0
280
     0
281
     0
  0
CLASS
  1
ACDBDICTIONARYWDFLT
  2
AcDbDictionaryWithDefault
  3
"AutoCAD 2000"
 90
        0
280
     0
281
     0
  0
CLASS
  1
ACDBPLACEHOLDER
  2
AcDbPlaceHolder
  3
"AutoCAD 2000"
 90
        0
280
     0
281
     0
  0
CLASS
  1
VBA_PROJECT
  2
AcDbVbaProject
  3
"acadvba"
 90
        0
280
     0
281
     0
  0
CLASS
  1
WIPEOUT
  2
AcDbWipeout
  3
WipeOut|AutoCAD Express Tool|expresstools@autodesk.com
 90
      127
280
     0
281
     1
  0
CLASS
  1
WIPEOUTVARIABLES
  2
AcDbWipeoutVariables
  3
WipeOut|AutoCAD Express Tool|expresstools@autodesk.com
 90
        0
280
     0
281
     0
  0
CLASS
  1
RTEXT
  2
RText
  3
RText|AutoCAD Express Tool|expresstools@autodesk.com
 90
        0
280
     0
281
     1
  0
CLASS
  1
ARCALIGNEDTEXT
  2
AcDbArcAlignedText
  3
ATEXT|AutoCAD Express Tool|expresstools@autodesk.com
 90
        0
280
     0
281
     1
  0
ENDSEC
  0
SECTION
  2
TABLES
  0
TABLE
  2
VPORT
  5
7
100
AcDbSymbolTable
 70
     1
  0
VPORT
  5
15
100
AcDbSymbolTableRecord
100
AcDbViewportTableRecord
  2
*ACTIVE
 70
     0
 10
0.0
 20
0.0
 11
1.0
 21
1.0
 12
618.084489
 22
439.981993
 13
0.0
 23
0.0
 14
1.0
 24
1.0
 15
0.0
 25
0.0
 16
0.0
 26
0.0
 36
1.0
 17
0.0
 27
0.0
 37
0.0
 40
878.963986
 41
1.722533
 42
50.0
 43
0.0
 44
0.0
 50
0.0
 51
0.0
 71
     0
 72
  1000
 73
     1
 74
     1
 75
     0
 76
     0
 77
     0
 78
     0
  0
ENDTAB
  0
TABLE
  2
LTYPE
  5
4
100
AcDbSymbolTable
 70
     9
  0
LTYPE
  5
11
100
AcDbSymbolTableRecord
100
AcDbLinetypeTableRecord
  2
BYBLOCK
 70
    64
  3

 72
    65
 73
     0
 40
0.0
  0
LTYPE
  5
12
100
AcDbSymbolTableRecord
100
AcDbLinetypeTableRecord
  2
BYLAYER
 70
    64
  3

 72
    65
 73
     0
 40
0.0
  0
LTYPE
  5
13
100
AcDbSymbolTableRecord
100
AcDbLinetypeTableRecord
  2
CONTINUOUS
 70
    64
  3
実線
 72
    65
 73
     0
 40
0.0
  0
LTYPE
  5
1D
100
AcDbSymbolTableRecord
100
AcDbLinetypeTableRecord
  2
EXLTYPE1
 70
    64
  3
破線
 72
    65
 73
     2
 40
4.0
 49
2.0
 74
     0
 49
-2.0
 74
     0
  0
LTYPE
  5
1E
100
AcDbSymbolTableRecord
100
AcDbLinetypeTableRecord
  2
EXLTYPE2
 70
    64
  3
点線
 72
    65
 73
     2
 40
2.0
 49
1.0
 74
     0
 49
-1.0
 74
     0
  0
LTYPE
  5
1F
100
AcDbSymbolTableRecord
100
AcDbLinetypeTableRecord
  2
EXLTYPE3
 70
    64
  3
一点鎖線
 72
    65
 73
     4
 40
33.0
 49
30.0
 74
     0
 49
-1.0
 74
     0
 49
1.0
 74
     0
 49
-1.0
 74
     0
  0
LTYPE
  5
20
100
AcDbSymbolTableRecord
100
AcDbLinetypeTableRecord
  2
EXLTYPE4
 70
    64
  3
二点鎖線
 72
    65
 73
     6
 40
35.0
 49
30.0
 74
     0
 49
-1.0
 74
     0
 49
1.0
 74
     0
 49
-1.0
 74
     0
 49
1.0
 74
     0
 49
-1.0
 74
     0
  0
LTYPE
  5
21
100
AcDbSymbolTableRecord
100
AcDbLinetypeTableRecord
  2
EXLTYPE5
 70
    64
  3
三点鎖線
 72
    65
 73
     8
 40
37.0
 49
30.0
 74
     0
 49
-1.0
 74
     0
 49
1.0
 74
     0
 49
-1.0
 74
     0
 49
1.0
 74
     0
 49
-1.0
 74
     0
 49
1.0
 74
     0
 49
-1.0
 74
     0
  0
LTYPE
  5
22
100
AcDbSymbolTableRecord
100
AcDbLinetypeTableRecord
  2
EXLTYPE6
 70
    64
  3
四点鎖線
 72
    65
 73
    10
 40
39.0
 49
30.0
 74
     0
 49
-1.0
 74
     0
 49
1.0
 74
     0
 49
-1.0
 74
     0
 49
1.0
 74
     0
 49
-1.0
 74
     0
 49
1.0
 74
     0
 49
-1.0
 74
     0
 49
1.0
 74
     0
 49
-1.0
 74
     0
  0
ENDTAB
  0
TABLE
  2
LAYER
  5
2
100
AcDbSymbolTable
 70
     3
  0
LAYER
  5
14
100
AcDbSymbolTableRecord
100
AcDbLayerTableRecord
  2
0
 70
     0
 62
     7
  6
CONTINUOUS
  0
LAYER
  5
25
100
AcDbSymbolTableRecord
100
AcDbLayerTableRecord
  2
LAY-1
 70
    64
 62
     7
  6
CONTINUOUS
  0
LAYER
  5
26
100
AcDbSymbolTableRecord
100
AcDbLayerTableRecord
  2
LAY-3
 70
    64
 62
     1
  6
CONTINUOUS
  0
ENDTAB
  0
TABLE
  2
STYLE
  5
3
100
AcDbSymbolTable
 70
     3
  0
STYLE
  5
17
100
AcDbSymbolTableRecord
100
AcDbTextStyleTableRecord
  2
STANDARD
 70
     0
 40
0.0
 41
1.0
 50
0.0
 71
     0
 42
0.0
  3
monotxt
  4
extfont
  0
STYLE
  5
23
100
AcDbSymbolTableRecord
100
AcDbTextStyleTableRecord
  2
EXCADSTD
 70
    64
 40
0.0
 41
1.0
 50
0.0
 71
     0
 42
0.2
  3
monotxt
  4
extfont
  0
STYLE
  5
24
100
AcDbSymbolTableRecord
100
AcDbTextStyleTableRecord
  2
EXCADVERT
 70
    68
 40
0.0
 41
1.0
 50
0.0
 71
     0
 42
0.286885
  3
monotxt
  4
extfont
  0
ENDTAB
  0
TABLE
  2
VIEW
  5
5
100
AcDbSymbolTable
 70
     0
  0
ENDTAB
  0
TABLE
  2
UCS
  5
6
100
AcDbSymbolTable
 70
     0
  0
ENDTAB
  0
TABLE
  2
APPID
  5
8
100
AcDbSymbolTable
 70
     1
  0
APPID
  5
16
100
AcDbSymbolTableRecord
100
AcDbRegAppTableRecord
  2
ACAD
 70
     0
  0
ENDTAB
  0
TABLE
  2
DIMSTYLE
  5
9
100
AcDbSymbolTable
 70
     1
  0
DIMSTYLE
105
18
100
AcDbSymbolTableRecord
100
AcDbDimStyleTableRecord
  2
STANDARD
 70
     0
  3

  4

  5

  6

  7

 40
1.0
 41
0.18
 42
0.0625
 43
0.38
 44
0.18
 45
0.0
 46
0.0
 47
0.0
 48
0.0
 71
     0
 72
     0
 73
     1
 74
     1
 75
     0
 76
     0
 77
     0
 78
     0
140
0.18
141
0.09
142
0.0
143
25.4
144
1.0
145
0.0
146
1.0
147
0.09
170
     0
171
     2
172
     1
173
     0
174
     0
175
     0
176
     0
177
     0
178
     0
270
     2
271
     4
272
     4
273
     2
274
     2
275
     0
280
     0
281
     0
282
     0
283
     1
284
     0
285
     0
286
     0
287
     3
288
     0
340
17
  0
ENDTAB
  0
TABLE
  2
BLOCK_RECORD
  5
1
100
AcDbSymbolTable
 70
    14
  0
BLOCK_RECORD
  5
A
100
AcDbSymbolTableRecord
100
AcDbBlockTableRecord
  2
*MODEL_SPACE
  0
BLOCK_RECORD
  5
B
100
AcDbSymbolTableRecord
100
AcDbBlockTableRecord
  2
*PAPER_SPACE
  0
BLOCK_RECORD
  5
27
100
AcDbSymbolTableRecord
100
AcDbBlockTableRecord
  2
_EX_NORM
  0
BLOCK_RECORD
  5
28
100
AcDbSymbolTableRecord
100
AcDbBlockTableRecord
  2
_EX_BNORM
  0
BLOCK_RECORD
  5
29
100
AcDbSymbolTableRecord
100
AcDbBlockTableRecord
  2
_EX_BCIR
  0
BLOCK_RECORD
  5
2A
100
AcDbSymbolTableRecord
100
AcDbBlockTableRecord
  2
_EX_RCIVIL
  0
BLOCK_RECORD
  5
2B
100
AcDbSymbolTableRecord
100
AcDbBlockTableRecord
  2
_EX_SLANT
  0
BLOCK_RECORD
  5
2C
100
AcDbSymbolTableRecord
100
AcDbBlockTableRecord
  2
_EX_NONE
  0
BLOCK_RECORD
  5
2D
100
AcDbSymbolTableRecord
100
AcDbBlockTableRecord
  2
_EX_CIVIL
  0
BLOCK_RECORD
  5
2E
100
AcDbSymbolTableRecord
100
AcDbBlockTableRecord
  2
_EX_WCIR
  0
BLOCK_RECORD
  5
2F
100
AcDbSymbolTableRecord
100
AcDbBlockTableRecord
  2
_EX_WCIR2
  0
BLOCK_RECORD
  5
30
100
AcDbSymbolTableRecord
100
AcDbBlockTableRecord
  2
_EX_WNORM
  0
BLOCK_RECORD
  5
31
100
AcDbSymbolTableRecord
100
AcDbBlockTableRecord
  2
_EX_NNORM
  0
BLOCK_RECORD
  5
32
100
AcDbSymbolTableRecord
100
AcDbBlockTableRecord
  2
_EX_BBOX
  0
BLOCK_RECORD
  5
33
100
AcDbSymbolTableRecord
100
AcDbBlockTableRecord
  2
_EX_WBOX
  0
BLOCK_RECORD
  5
34
100
AcDbSymbolTableRecord
100
AcDbBlockTableRecord
  2
_EX_INTEGRAL
  0
ENDTAB
  0
ENDSEC
  0
SECTION
  2
BLOCKS
  0
BLOCK
  5
D
100
AcDbEntity
  8
0
100
AcDbBlockBegin
  2
*MODEL_SPACE
 70
     0
 10
0.0
 20
0.0
 30
0.0
  3
*MODEL_SPACE
  1

  0
ENDBLK
  5
E
100
AcDbEntity
  8
0
100
AcDbBlockEnd
  0
BLOCK
  5
F
100
AcDbEntity
 67
     1
  8
0
100
AcDbBlockBegin
  2
*PAPER_SPACE
 70
     0
 10
0.0
 20
0.0
 30
0.0
  3
*PAPER_SPACE
  1

  0
ENDBLK
  5
10
100
AcDbEntity
 67
     1
  8
0
100
AcDbBlockEnd
  0
BLOCK
  5
35
100
AcDbEntity
  8
0
100
AcDbBlockBegin
  2
_EX_NORM
 70
     0
 10
0.0
 20
0.0
 30
0.0
  3
_EX_NORM
  1

  0
LINE
  5
36
100
AcDbEntity
  8
0
  6
CONTINUOUS
 62
     0
100
AcDbLine
 10
0.0
 20
0.0
 30
0.0
 11
-1.0
 21
0.0
 31
0.0
  0
LINE
  5
37
100
AcDbEntity
  8
0
  6
CONTINUOUS
 62
     0
100
AcDbLine
 10
0.0
 20
0.0
 30
0.0
 11
-1.0
 21
0.166667
 31
0.0
  0
LINE
  5
38
100
AcDbEntity
  8
0
  6
CONTINUOUS
 62
     0
100
AcDbLine
 10
0.0
 20
0.0
 30
0.0
 11
-1.0
 21
-0.166667
 31
0.0
  0
ENDBLK
  5
39
100
AcDbEntity
  8
0
100
AcDbBlockEnd
  0
BLOCK
  5
3A
100
AcDbEntity
  8
0
100
AcDbBlockBegin
  2
_EX_BNORM
 70
     0
 10
0.0
 20
0.0
 30
0.0
  3
_EX_BNORM
  1

  0
LINE
  5
3B
100
AcDbEntity
  8
0
  6
CONTINUOUS
 62
     0
100
AcDbLine
 10
0.0
 20
0.0
 30
0.0
 11
-1.0
 21
0.0
 31
0.0
  0
LINE
  5
3C
100
AcDbEntity
  8
0
  6
CONTINUOUS
 62
     0
100
AcDbLine
 10
0.0
 20
0.0
 30
0.0
 11
-1.0
 21
0.166667
 31
0.0
  0
LINE
  5
3D
100
AcDbEntity
  8
0
  6
CONTINUOUS
 62
     0
100
AcDbLine
 10
0.0
 20
0.0
 30
0.0
 11
-1.0
 21
-0.166667
 31
0.0
  0
LINE
  5
3E
100
AcDbEntity
  8
0
  6
CONTINUOUS
 62
     0
100
AcDbLine
 10
0.0
 20
0.0
 30
0.0
 11
-1.0
 21
0.083333
 31
0.0
  0
LINE
  5
3F
100
AcDbEntity
  8
0
  6
CONTINUOUS
 62
     0
100
AcDbLine
 10
0.0
 20
0.0
 30
0.0
 11
-1.0
 21
-0.083333
 31
0.0
  0
LINE
  5
40
100
AcDbEntity
  8
0
  6
CONTINUOUS
 62
     0
100
AcDbLine
 10
-1.0
 20
0.166667
 30
0.0
 11
-1.0
 21
-0.166667
 31
0.0
  0
ENDBLK
  5
41
100
AcDbEntity
  8
0
100
AcDbBlockEnd
  0
BLOCK
  5
42
100
AcDbEntity
  8
0
100
AcDbBlockBegin
  2
_EX_BCIR
 70
     0
 10
0.0
 20
0.0
 30
0.0
  3
_EX_BCIR
  1

  0
LINE
  5
43
100
AcDbEntity
  8
0
  6
CONTINUOUS
 62
     0
100
AcDbLine
 10
0.0
 20
0.0
 30
0.0
 11
-1.0
 21
0.0
 31
0.0
  0
CIRCLE
  5
44
100
AcDbEntity
  8
0
  6
CONTINUOUS
 62
     0
100
AcDbCircle
 10
0.0
 20
0.0
 30
0.0
 40
0.5
  0
CIRCLE
  5
45
100
AcDbEntity
  8
0
  6
CONTINUOUS
 62
     0
100
AcDbCircle
 10
0.0
 20
0.0
 30
0.0
 40
0.25
  0
ENDBLK
  5
46
100
AcDbEntity
  8
0
100
AcDbBlockEnd
  0
BLOCK
  5
47
100
AcDbEntity
  8
0
100
AcDbBlockBegin
  2
_EX_RCIVIL
 70
     0
 10
0.0
 20
0.0
 30
0.0
  3
_EX_RCIVIL
  1

  0
LINE
  5
48
100
AcDbEntity
  8
0
  6
CONTINUOUS
 62
     0
100
AcDbLine
 10
0.0
 20
0.0
 30
0.0
 11
-1.0
 21
0.0
 31
0.0
  0
LINE
  5
49
100
AcDbEntity
  8
0
  6
CONTINUOUS
 62
     0
100
AcDbLine
 10
-1.0
 20
-0.25
 30
0.0
 11
0.0
 21
-0.25
 31
0.0
  0
LINE
  5
4A
100
AcDbEntity
  8
0
  6
CONTINUOUS
 62
     0
100
AcDbLine
 10
-1.0
 20
-0.125
 30
0.0
 11
0.0
 21
-0.125
 31
0.0
  0
ENDBLK
  5
4B
100
AcDbEntity
  8
0
100
AcDbBlockEnd
  0
BLOCK
  5
4C
100
AcDbEntity
  8
0
100
AcDbBlockBegin
  2
_EX_SLANT
 70
     0
 10
0.0
 20
0.0
 30
0.0
  3
_EX_SLANT
  1

  0
LINE
  5
4D
100
AcDbEntity
  8
0
  6
CONTINUOUS
 62
     0
100
AcDbLine
 10
0.0
 20
0.0
 30
0.0
 11
-1.0
 21
0.0
 31
0.0
  0
LINE
  5
4E
100
AcDbEntity
  8
0
  6
CONTINUOUS
 62
     0
100
AcDbLine
 10
0.707107
 20
0.707107
 30
0.0
 11
-0.707107
 21
-0.707107
 31
0.0
  0
ENDBLK
  5
4F
100
AcDbEntity
  8
0
100
AcDbBlockEnd
  0
BLOCK
  5
50
100
AcDbEntity
  8
0
100
AcDbBlockBegin
  2
_EX_NONE
 70
     0
 10
0.0
 20
0.0
 30
0.0
  3
_EX_NONE
  1

  0
LINE
  5
51
100
AcDbEntity
  8
0
  6
CONTINUOUS
 62
     0
100
AcDbLine
 10
0.0
 20
0.0
 30
0.0
 11
-1.0
 21
0.0
 31
0.0
  0
ENDBLK
  5
52
100
AcDbEntity
  8
0
100
AcDbBlockEnd
  0
BLOCK
  5
53
100
AcDbEntity
  8
0
100
AcDbBlockBegin
  2
_EX_CIVIL
 70
     0
 10
0.0
 20
0.0
 30
0.0
  3
_EX_CIVIL
  1

  0
LINE
  5
54
100
AcDbEntity
  8
0
  6
CONTINUOUS
 62
     0
100
AcDbLine
 10
0.0
 20
0.0
 30
0.0
 11
-1.0
 21
0.0
 31
0.0
  0
LINE
  5
55
100
AcDbEntity
  8
0
  6
CONTINUOUS
 62
     0
100
AcDbLine
 10
-1.0
 20
0.25
 30
0.0
 11
0.0
 21
0.25
 31
0.0
  0
LINE
  5
56
100
AcDbEntity
  8
0
  6
CONTINUOUS
 62
     0
100
AcDbLine
 10
-1.0
 20
0.125
 30
0.0
 11
0.0
 21
0.125
 31
0.0
  0
ENDBLK
  5
57
100
AcDbEntity
  8
0
100
AcDbBlockEnd
  0
BLOCK
  5
58
100
AcDbEntity
  8
0
100
AcDbBlockBegin
  2
_EX_WCIR
 70
     0
 10
0.0
 20
0.0
 30
0.0
  3
_EX_WCIR
  1

  0
LINE
  5
59
100
AcDbEntity
  8
0
  6
CONTINUOUS
 62
     0
100
AcDbLine
 10
0.0
 20
0.0
 30
0.0
 11
-1.0
 21
0.0
 31
0.0
  0
CIRCLE
  5
5A
100
AcDbEntity
  8
0
  6
CONTINUOUS
 62
     0
100
AcDbCircle
 10
0.0
 20
0.0
 30
0.0
 40
0.5
  0
ENDBLK
  5
5B
100
AcDbEntity
  8
0
100
AcDbBlockEnd
  0
BLOCK
  5
5C
100
AcDbEntity
  8
0
100
AcDbBlockBegin
  2
_EX_WCIR2
 70
     0
 10
0.0
 20
0.0
 30
0.0
  3
_EX_WCIR2
  1

  0
LINE
  5
5D
100
AcDbEntity
  8
0
  6
CONTINUOUS
 62
     0
100
AcDbLine
 10
-0.5
 20
0.0
 30
0.0
 11
-1.0
 21
0.0
 31
0.0
  0
CIRCLE
  5
5E
100
AcDbEntity
  8
0
  6
CONTINUOUS
 62
     0
100
AcDbCircle
 10
0.0
 20
0.0
 30
0.0
 40
0.5
  0
ENDBLK
  5
5F
100
AcDbEntity
  8
0
100
AcDbBlockEnd
  0
BLOCK
  5
60
100
AcDbEntity
  8
0
100
AcDbBlockBegin
  2
_EX_WNORM
 70
     0
 10
0.0
 20
0.0
 30
0.0
  3
_EX_WNORM
  1

  0
LINE
  5
61
100
AcDbEntity
  8
0
  6
CONTINUOUS
 62
     0
100
AcDbLine
 10
-1.0
 20
0.0
 30
0.0
 11
-1.0
 21
0.0
 31
0.0
  0
LINE
  5
62
100
AcDbEntity
  8
0
  6
CONTINUOUS
 62
     0
100
AcDbLine
 10
0.0
 20
0.0
 30
0.0
 11
-1.0
 21
0.166667
 31
0.0
  0
LINE
  5
63
100
AcDbEntity
  8
0
  6
CONTINUOUS
 62
     0
100
AcDbLine
 10
0.0
 20
0.0
 30
0.0
 11
-1.0
 21
-0.166667
 31
0.0
  0
LINE
  5
64
100
AcDbEntity
  8
0
  6
CONTINUOUS
 62
     0
100
AcDbLine
 10
-1.0
 20
0.166667
 30
0.0
 11
-1.0
 21
-0.166667
 31
0.0
  0
ENDBLK
  5
65
100
AcDbEntity
  8
0
100
AcDbBlockEnd
  0
BLOCK
  5
66
100
AcDbEntity
  8
0
100
AcDbBlockBegin
  2
_EX_NNORM
 70
     0
 10
0.0
 20
0.0
 30
0.0
  3
_EX_NNORM
  1

  0
LINE
  5
67
100
AcDbEntity
  8
0
  6
CONTINUOUS
 62
     0
100
AcDbLine
 10
0.0
 20
0.0
 30
0.0
 11
-1.0
 21
0.0
 31
0.0
  0
LINE
  5
68
100
AcDbEntity
  8
0
  6
CONTINUOUS
 62
     0
100
AcDbLine
 10
0.0
 20
0.0
 30
0.0
 11
-1.0
 21
0.166667
 31
0.0
  0
LINE
  5
69
100
AcDbEntity
  8
0
  6
CONTINUOUS
 62
     0
100
AcDbLine
 10
0.0
 20
0.0
 30
0.0
 11
-1.0
 21
-0.166667
 31
0.0
  0
LINE
  5
6A
100
AcDbEntity
  8
0
  6
CONTINUOUS
 62
     0
100
AcDbLine
 10
-1.0
 20
0.166667
 30
0.0
 11
-1.0
 21
-0.166667
 31
0.0
  0
ENDBLK
  5
6B
100
AcDbEntity
  8
0
100
AcDbBlockEnd
  0
BLOCK
  5
6C
100
AcDbEntity
  8
0
100
AcDbBlockBegin
  2
_EX_BBOX
 70
     0
 10
0.0
 20
0.0
 30
0.0
  3
_EX_BBOX
  1

  0
LINE
  5
6D
100
AcDbEntity
  8
0
  6
CONTINUOUS
 62
     0
100
AcDbLine
 10
0.0
 20
0.0
 30
0.0
 11
-1.0
 21
0.0
 31
0.0
  0
LINE
  5
6E
100
AcDbEntity
  8
0
  6
CONTINUOUS
 62
     0
100
AcDbLine
 10
-0.5
 20
0.5
 30
0.0
 11
0.5
 21
0.5
 31
0.0
  0
LINE
  5
6F
100
AcDbEntity
  8
0
  6
CONTINUOUS
 62
     0
100
AcDbLine
 10
0.5
 20
0.5
 30
0.0
 11
0.5
 21
-0.5
 31
0.0
  0
LINE
  5
70
100
AcDbEntity
  8
0
  6
CONTINUOUS
 62
     0
100
AcDbLine
 10
0.5
 20
-0.5
 30
0.0
 11
-0.5
 21
-0.5
 31
0.0
  0
LINE
  5
71
100
AcDbEntity
  8
0
  6
CONTINUOUS
 62
     0
100
AcDbLine
 10
-0.5
 20
-0.5
 30
0.0
 11
-0.5
 21
0.5
 31
0.0
  0
LINE
  5
72
100
AcDbEntity
  8
0
  6
CONTINUOUS
 62
     0
100
AcDbLine
 10
-0.25
 20
0.25
 30
0.0
 11
0.25
 21
0.25
 31
0.0
  0
LINE
  5
73
100
AcDbEntity
  8
0
  6
CONTINUOUS
 62
     0
100
AcDbLine
 10
0.25
 20
0.25
 30
0.0
 11
0.25
 21
-0.25
 31
0.0
  0
LINE
  5
74
100
AcDbEntity
  8
0
  6
CONTINUOUS
 62
     0
100
AcDbLine
 10
0.25
 20
-0.25
 30
0.0
 11
-0.25
 21
-0.25
 31
0.0
  0
LINE
  5
75
100
AcDbEntity
  8
0
  6
CONTINUOUS
 62
     0
100
AcDbLine
 10
-0.25
 20
-0.25
 30
0.0
 11
-0.25
 21
0.25
 31
0.0
  0
ENDBLK
  5
76
100
AcDbEntity
  8
0
100
AcDbBlockEnd
  0
BLOCK
  5
77
100
AcDbEntity
  8
0
100
AcDbBlockBegin
  2
_EX_WBOX
 70
     0
 10
0.0
 20
0.0
 30
0.0
  3
_EX_WBOX
  1

  0
LINE
  5
78
100
AcDbEntity
  8
0
  6
CONTINUOUS
 62
     0
100
AcDbLine
 10
-0.5
 20
0.0
 30
0.0
 11
-1.0
 21
0.0
 31
0.0
  0
LINE
  5
79
100
AcDbEntity
  8
0
  6
CONTINUOUS
 62
     0
100
AcDbLine
 10
-0.5
 20
0.5
 30
0.0
 11
0.5
 21
0.5
 31
0.0
  0
LINE
  5
7A
100
AcDbEntity
  8
0
  6
CONTINUOUS
 62
     0
100
AcDbLine
 10
0.5
 20
0.5
 30
0.0
 11
0.5
 21
-0.5
 31
0.0
  0
LINE
  5
7B
100
AcDbEntity
  8
0
  6
CONTINUOUS
 62
     0
100
AcDbLine
 10
0.5
 20
-0.5
 30
0.0
 11
-0.5
 21
-0.5
 31
0.0
  0
LINE
  5
7C
100
AcDbEntity
  8
0
  6
CONTINUOUS
 62
     0
100
AcDbLine
 10
-0.5
 20
-0.5
 30
0.0
 11
-0.5
 21
0.5
 31
0.0
  0
ENDBLK
  5
7D
100
AcDbEntity
  8
0
100
AcDbBlockEnd
  0
BLOCK
  5
7E
100
AcDbEntity
  8
0
100
AcDbBlockBegin
  2
_EX_INTEGRAL
 70
     0
 10
0.0
 20
0.0
 30
0.0
  3
_EX_INTEGRAL
  1

  0
LINE
  5
7F
100
AcDbEntity
  8
0
  6
CONTINUOUS
 62
     0
100
AcDbLine
 10
0.0
 20
0.0
 30
0.0
 11
-1.0
 21
0.0
 31
0.0
  0
ARC
  5
80
100
AcDbEntity
  8
0
  6
CONTINUOUS
 62
     0
100
AcDbCircle
 10
0.542115
 20
0.164992
 30
0.0
 40
0.56667
100
AcDbArc
 50
73.07249
 51
196.927513
  0
ARC
  5
81
100
AcDbEntity
  8
0
  6
CONTINUOUS
 62
     0
100
AcDbCircle
 10
-0.542115
 20
-0.164992
 30
0.0
 40
0.56667
100
AcDbArc
 50
253.072487
 51
16.927513
  0
ENDBLK
  5
82
100
AcDbEntity
  8
0
100
AcDbBlockEnd
  0
ENDSEC
  0
SECTION
  2
ENTITIES
  0
TEXT
  5
83
100
AcDbEntity
  8
LAY-1
  6
CONTINUOUS
 62
     3
100
AcDbText
 10
235.161249
 20
60.3
 30
0.0
 40
20.0
  1
ＪＩＳ２０Ｋ　２５Ａフランジ
 41
0.84
  7
EXCADSTD
 72
     5
 11
515.161249
 21
60.3
 31
0.0
100
AcDbText
  0
POLYLINE
  5
84
100
AcDbEntity
  8
LAY-1
  6
CONTINUOUS
 62
     1
100
AcDb2dPolyline
 66
     1
 10
0.0
 20
0.0
 30
0.0
 70
   128
  0
VERTEX
  5
85
100
AcDbEntity
  8
LAY-1
  6
CONTINUOUS
 62
     1
100
AcDbVertex
100
AcDb2dVertex
 10
534.0
 20
98.6
 30
0.0
  0
VERTEX
  5
86
100
AcDbEntity
  8
LAY-1
  6
CONTINUOUS
 62
     1
100
AcDbVertex
100
AcDb2dVertex
 10
516.061249
 20
60.0
 30
0.0
  0
VERTEX
  5
87
100
AcDbEntity
  8
LAY-1
  6
CONTINUOUS
 62
     1
100
AcDbVertex
100
AcDb2dVertex
 10
234.261249
 20
60.0
 30
0.0
  0
SEQEND
  5
88
100
AcDbEntity
  8
LAY-1
  6
CONTINUOUS
 62
     1
  0
LINE
  5
89
100
AcDbEntity
  8
LAY-1
  6
CONTINUOUS
 62
     1
100
AcDbLine
 10
533.459392
 20
96.645811
 30
0.0
 11
534.0
 21
98.6
 31
0.0
  0
LINE
  5
8A
100
AcDbEntity
  8
LAY-1
  6
CONTINUOUS
 62
     1
100
AcDbLine
 10
534.0
 20
98.6
 30
0.0
 11
532.854823
 21
96.926775
 31
0.0
  0
TEXT
  5
8B
100
AcDbEntity
  8
LAY-1
  6
CONTINUOUS
 62
     3
100
AcDbText
 10
699.0
 20
60.0
 30
0.0
 40
20.0
  1
ＪＩＳ２０Ｋ　２５Ａフランジ
 41
0.84
  7
EXCADSTD
 72
     5
 11
979.0
 21
60.0
 31
0.0
100
AcDbText
  0
POLYLINE
  5
8C
100
AcDbEntity
  8
LAY-1
  6
CONTINUOUS
 62
     1
100
AcDb2dPolyline
 66
     1
 10
0.0
 20
0.0
 30
0.0
 70
   128
  0
VERTEX
  5
8D
100
AcDbEntity
  8
LAY-1
  6
CONTINUOUS
 62
     1
100
AcDbVertex
100
AcDb2dVertex
 10
663.0
 20
98.8
 30
0.0
  0
VERTEX
  5
8E
100
AcDbEntity
  8
LAY-1
  6
CONTINUOUS
 62
     1
100
AcDbVertex
100
AcDb2dVertex
 10
698.1
 20
59.7
 30
0.0
  0
VERTEX
  5
8F
100
AcDbEntity
  8
LAY-1
  6
CONTINUOUS
 62
     1
100
AcDbVertex
100
AcDb2dVertex
 10
979.9
 20
59.7
 30
0.0
  0
SEQEND
  5
90
100
AcDbEntity
  8
LAY-1
  6
CONTINUOUS
 62
     1
  0
LINE
  5
91
100
AcDbEntity
  8
LAY-1
  6
CONTINUOUS
 62
     1
100
AcDbLine
 10
664.584084
 20
97.534382
 30
0.0
 11
663.0
 21
98.8
 31
0.0
  0
LINE
  5
92
100
AcDbEntity
  8
LAY-1
  6
CONTINUOUS
 62
     1
100
AcDbLine
 10
663.0
 20
98.8
 30
0.0
 11
664.087987
 21
97.089037
 31
0.0
  0
LINE
  5
93
100
AcDbEntity
  8
LAY-1
  6
CONTINUOUS
 62
     1
100
AcDbLine
 10
525.41319
 20
157.520286
 30
0.0
 11
447.961249
 21
157.520286
 31
0.0
  0
LINE
  5
94
100
AcDbEntity
  8
LAY-1
  6
CONTINUOUS
 62
     1
100
AcDbLine
 10
556.0
 20
312.020286
 30
0.0
 11
447.961249
 21
312.020286
 31
0.0
  0
TEXT
  5
95
100
AcDbEntity
  8
LAY-1
  6
CONTINUOUS
 62
     3
100
AcDbText
 10
447.461249
 20
189.770286
 30
0.0
 40
20.0
  1
１５４.５
 50
90.0
 41
0.7848
  7
EXCADSTD
 72
     5
 11
447.461249
 21
279.770286
 31
0.0
100
AcDbText
  0
LINE
  5
96
100
AcDbEntity
  8
LAY-1
  6
CONTINUOUS
 62
     1
100
AcDbLine
 10
448.461249
 20
157.520286
 30
0.0
 11
448.461249
 21
312.020286
 31
0.0
  0
LINE
  5
97
100
AcDbEntity
  8
LAY-1
  6
CONTINUOUS
 62
     1
100
AcDbLine
 10
448.127915
 20
159.520286
 30
0.0
 11
448.461249
 21
157.520286
 31
0.0
  0
LINE
  5
98
100
AcDbEntity
  8
LAY-1
  6
CONTINUOUS
 62
     1
100
AcDbLine
 10
448.461249
 20
157.520286
 30
0.0
 11
448.794582
 21
159.520286
 31
0.0
  0
LINE
  5
99
100
AcDbEntity
  8
LAY-1
  6
CONTINUOUS
 62
     1
100
AcDbLine
 10
448.794582
 20
310.020286
 30
0.0
 11
448.461249
 21
312.020286
 31
0.0
  0
LINE
  5
9A
100
AcDbEntity
  8
LAY-1
  6
CONTINUOUS
 62
     1
100
AcDbLine
 10
448.461249
 20
312.020286
 30
0.0
 11
448.127915
 21
310.020286
 31
0.0
  0
TEXT
  5
9B
100
AcDbEntity
  8
LAY-1
  6
CONTINUOUS
 62
     3
100
AcDbText
 10
558.0
 20
343.461249
 30
0.0
 40
20.0
  1
φ
 41
0.84
  7
EXCADSTD
 72
     5
 11
574.0
 21
343.461249
 31
0.0
100
AcDbText
  0
TEXT
  5
9C
100
AcDbEntity
  8
LAY-1
  6
CONTINUOUS
 62
     3
100
AcDbText
 10
578.0
 20
343.461249
 30
0.0
 40
20.0
  1
１００
 41
0.84
  7
EXCADSTD
 72
     5
 11
638.0
 21
343.461249
 31
0.0
100
AcDbText
  0
LINE
  5
9D
100
AcDbEntity
  8
LAY-1
  6
CONTINUOUS
 62
     1
100
AcDbLine
 10
548.0
 20
304.020286
 30
0.0
 11
548.0
 21
342.961249
 31
0.0
  0
LINE
  5
9E
100
AcDbEntity
  8
LAY-1
  6
CONTINUOUS
 62
     1
100
AcDbLine
 10
648.0
 20
304.020286
 30
0.0
 11
648.0
 21
342.961249
 31
0.0
  0
LINE
  5
9F
100
AcDbEntity
  8
LAY-1
  6
CONTINUOUS
 62
     1
100
AcDbLine
 10
548.0
 20
342.461249
 30
0.0
 11
648.0
 21
342.461249
 31
0.0
  0
LINE
  5
A0
100
AcDbEntity
  8
LAY-1
  6
CONTINUOUS
 62
     1
100
AcDbLine
 10
550.0
 20
342.794582
 30
0.0
 11
548.0
 21
342.461249
 31
0.0
  0
LINE
  5
A1
100
AcDbEntity
  8
LAY-1
  6
CONTINUOUS
 62
     1
100
AcDbLine
 10
548.0
 20
342.461249
 30
0.0
 11
550.0
 21
342.127915
 31
0.0
  0
LINE
  5
A2
100
AcDbEntity
  8
LAY-1
  6
CONTINUOUS
 62
     1
100
AcDbLine
 10
646.0
 20
342.127915
 30
0.0
 11
648.0
 21
342.461249
 31
0.0
  0
LINE
  5
A3
100
AcDbEntity
  8
LAY-1
  6
CONTINUOUS
 62
     1
100
AcDbLine
 10
648.0
 20
342.461249
 30
0.0
 11
646.0
 21
342.794582
 31
0.0
  0
TEXT
  5
A4
100
AcDbEntity
  8
LAY-1
  6
CONTINUOUS
 62
     3
100
AcDbText
 10
772.221264
 20
218.1468
 30
0.0
 40
16.0
  1
型式
 41
0.984714
  7
EXCADSTD
 72
     5
 11
806.605589
 21
218.1468
 31
0.0
100
AcDbText
  0
TEXT
  5
A5
100
AcDbEntity
  8
LAY-1
  6
CONTINUOUS
 62
     3
100
AcDbText
 10
771.837264
 20
195.6188
 30
0.0
 40
16.0
  1
品名
 41
0.984714
  7
EXCADSTD
 72
     5
 11
806.221589
 21
195.6188
 31
0.0
100
AcDbText
  0
LINE
  5
A6
100
AcDbEntity
  8
LAY-1
  6
CONTINUOUS
 62
     4
100
AcDbLine
 10
764.669264
 20
172.8988
 30
0.0
 11
1051.389264
 21
172.8988
 31
0.0
  0
LINE
  5
A7
100
AcDbEntity
  8
LAY-1
  6
CONTINUOUS
 62
     1
100
AcDbLine
 10
764.669264
 20
192.4188
 30
0.0
 11
1051.389264
 21
192.4188
 31
0.0
  0
TEXT
  5
A8
100
AcDbEntity
  8
LAY-1
  6
CONTINUOUS
 62
     3
100
AcDbText
 10
866.557264
 20
175.0108
 30
0.0
 40
16.0
  1
外観図
 41
1.47392
  7
EXCADSTD
 72
     5
 11
950.781263
 21
175.0108
 31
0.0
100
AcDbText
  0
LINE
  5
A9
100
AcDbEntity
  8
LAY-1
  6
CONTINUOUS
 62
     4
100
AcDbLine
 10
764.669264
 20
259.6188
 30
0.0
 11
1051.389264
 21
259.6188
 31
0.0
  0
LINE
  5
AA
100
AcDbEntity
  8
LAY-1
  6
CONTINUOUS
 62
     1
100
AcDbLine
 10
764.669264
 20
214.8188
 30
0.0
 11
1051.389264
 21
214.8188
 31
0.0
  0
LINE
  5
AB
100
AcDbEntity
  8
LAY-1
  6
CONTINUOUS
 62
     1
100
AcDbLine
 10
764.669264
 20
237.2188
 30
0.0
 11
1051.389264
 21
237.2188
 31
0.0
  0
LINE
  5
AC
100
AcDbEntity
  8
LAY-1
  6
CONTINUOUS
 62
     1
100
AcDbLine
 10
812.669264
 20
259.6188
 30
0.0
 11
812.669264
 21
192.4188
 31
0.0
  0
LINE
  5
AD
100
AcDbEntity
  8
LAY-1
  6
CONTINUOUS
 62
     4
100
AcDbLine
 10
764.669264
 20
153.3788
 30
0.0
 11
1051.389264
 21
153.3788
 31
0.0
  0
LINE
  5
AE
100
AcDbEntity
  8
LAY-1
  6
CONTINUOUS
 62
     4
100
AcDbLine
 10
1051.389264
 20
153.3788
 30
0.0
 11
1051.389264
 21
259.6188
 31
0.0
  0
LINE
  5
AF
100
AcDbEntity
  8
LAY-1
  6
CONTINUOUS
 62
     4
100
AcDbLine
 10
764.669264
 20
153.3788
 30
0.0
 11
764.669264
 21
259.6188
 31
0.0
  0
TEXT
  5
B0
100
AcDbEntity
  8
LAY-1
  6
CONTINUOUS
 62
     3
100
AcDbText
 10
766.717264
 20
240.0348
 30
0.0
 40
16.0
  1
作成日
 41
0.84
  7
EXCADSTD
 72
     5
 11
814.717264
 21
240.0348
 31
0.0
100
AcDbText
  0
HATCH
  5
B1
100
AcDbEntity
  8
LAY-1
  6
CONTINUOUS
 62
     3
100
AcDbHatch
 10
0.0
 20
0.0
 30
0.0
210
0.0
220
0.0
230
1.0
  2
SOLID
 70
     1
 71
     1
 91
        1
 92
        1
 93
       16
 72
     1
 10
966.47718311265533
 20
158.25548571428536
 11
969.50632596979824
 21
158.25548571428536
 72
     1
 10
969.50632596979824
 20
158.25548571428536
 11
969.50632596979824
 21
156.30119999999962
 72
     1
 10
969.50632596979824
 20
156.30119999999962
 11
961.39604025551228
 21
156.30119999999962
 72
     1
 10
961.39604025551228
 20
156.30119999999962
 11
961.39604025551228
 21
158.25548571428536
 72
     1
 10
961.39604025551228
 20
158.25548571428536
 11
964.52289739836954
 21
158.25548571428536
 72
     1
 10
964.52289739836954
 20
158.25548571428536
 11
964.52289739836954
 21
163.92291428571392
 72
     1
 10
964.52289739836954
 20
163.92291428571392
 11
962.08004025551247
 21
163.92291428571392
 72
     1
 10
962.08004025551247
 20
163.92291428571392
 11
962.08004025551247
 21
165.87719999999965
 72
     1
 10
962.08004025551247
 20
165.87719999999965
 11
964.52289739836954
 21
165.87719999999965
 72
     1
 10
964.52289739836954
 20
165.87719999999965
 11
964.52289739836954
 21
169.98119999999963
 72
     1
 10
964.52289739836954
 20
169.98119999999963
 11
966.47718311265533
 21
169.98119999999963
 72
     1
 10
966.47718311265533
 20
169.98119999999963
 11
966.47718311265533
 21
165.87719999999965
 72
     1
 10
966.47718311265533
 20
165.87719999999965
 11
969.31089739836955
 21
165.87719999999965
 72
     1
 10
969.31089739836955
 20
165.87719999999965
 11
969.31089739836955
 21
163.92291428571392
 72
     1
 10
969.31089739836955
 20
163.92291428571392
 11
966.47718311265533
 21
163.92291428571392
 72
     1
 10
966.47718311265533
 20
163.92291428571392
 11
966.47718311265533
 21
158.25548571428536
 97
        0
 75
     0
 76
     1
 98
        1
 10
0.0
 20
0.0
  0
HATCH
  5
B2
100
AcDbEntity
  8
LAY-1
  6
CONTINUOUS
 62
     3
100
AcDbHatch
 10
0.0
 20
0.0
 30
0.0
210
0.0
220
0.0
230
1.0
  2
SOLID
 70
     1
 71
     1
 91
        1
 92
        1
 93
       17
 72
     2
 10
945.94550473075435
 20
173.77410143388769
 40
17.588571428571491
 50
44.165469
 51
51.472792
 73
     0
 72
     1
 10
956.90118311265508
 20
160.01434285714257
 11
955.91172542005881
 21
161.72813385265945
 72
     2
 10
945.94550473075435
 20
173.77410143388769
 40
15.634285714285767
 50
309.602625
 51
331.307968
 73
     1
 72
     1
 10
959.66010238788601
 20
166.2680571428568
 11
956.4126116840838
 21
166.2680571428568
 72
     1
 10
956.4126116840838
 20
166.2680571428568
 11
956.4126116840838
 21
168.0269142857139
 72
     1
 10
956.4126116840838
 20
168.0269142857139
 11
958.56232596979828
 21
168.0269142857139
 72
     1
 10
958.56232596979828
 20
168.0269142857139
 11
958.56232596979828
 21
169.98119999999963
 72
     1
 10
958.56232596979828
 20
169.98119999999963
 11
960.32118311265538
 21
169.98119999999963
 72
     1
 10
960.32118311265538
 20
169.98119999999963
 11
960.32118311265538
 21
168.0269142857139
 72
     1
 10
960.32118311265538
 20
168.0269142857139
 11
962.56861168408375
 21
168.0269142857139
 72
     2
 10
945.94550473075435
 20
173.77410143388769
 40
17.588571428571491
 50
19.072051
 51
32.871988
 73
     0
 72
     1
 10
960.71788770422256
 20
164.2276598883092
 11
963.05718311265503
 21
161.96862857142824
 72
     1
 10
963.05718311265503
 20
161.96862857142824
 11
961.67508393130822
 21
160.58652939008104
 72
     1
 10
961.67508393130822
 20
160.58652939008104
 11
960.32118311265538
 21
161.89397621285619
 72
     1
 10
960.32118311265538
 20
161.89397621285619
 11
960.32118311265538
 21
156.30119999999962
 72
     1
 10
960.32118311265538
 20
156.30119999999962
 11
958.56232596979828
 21
156.30119999999962
 72
     1
 10
958.56232596979828
 20
156.30119999999962
 11
958.56232596979828
 21
161.51956485676757
 97
        0
 75
     0
 76
     1
 98
        1
 10
0.0
 20
0.0
  0
HATCH
  5
B3
100
AcDbEntity
  8
LAY-1
  6
CONTINUOUS
 62
     3
100
AcDbHatch
 10
0.0
 20
0.0
 30
0.0
210
0.0
220
0.0
230
1.0
  2
SOLID
 70
     1
 71
     1
 91
        1
 92
        1
 93
       12
 72
     2
 10
970.6615889344863
 20
147.39616902390159
 40
27.555428571428664
 50
150.903074
 51
156.790773
 73
     1
 72
     1
 10
945.33616919910867
 20
158.25548571428519
 11
951.35296340931893
 21
158.25548571428541
 72
     2
 10
934.26158759767043
 20
153.3406582641106
 40
17.784000000000059
 50
16.043216
 51
21.362935
 73
     1
 72
     1
 10
950.82367849581954
 20
159.81891428571393
 11
952.69946882694069
 21
159.81891428571393
 72
     2
 10
934.26158759767043
 20
153.3406582641106
 40
19.542857142857208
 50
340.64078
 51
351.286733
 73
     0
 72
     1
 10
953.57889739836935
 20
156.30119999999962
 11
942.73261168408374
 21
156.30119999999962
 72
     2
 10
970.6615889344863
 20
147.39616902390159
 40
29.314285714285809
 50
197.684652
 51
207.200855
 73
     0
 72
     1
 10
944.58918311265518
 20
160.79605714285682
 11
941.8531831126553
 21
160.79605714285682
 72
     1
 10
941.8531831126553
 20
160.79605714285682
 11
941.8531831126553
 21
162.75034285714256
 72
     1
 10
941.8531831126553
 20
162.75034285714256
 11
954.36061168408389
 21
162.75034285714256
 72
     1
 10
954.36061168408389
 20
162.75034285714256
 11
954.36061168408389
 21
160.79605714285682
 72
     1
 10
954.36061168408389
 20
160.79605714285682
 11
946.58370193926623
 21
160.79605714285682
 97
        0
 75
     0
 76
     1
 98
        1
 10
0.0
 20
0.0
  0
HATCH
  5
B4
100
AcDbEntity
  8
LAY-1
  6
CONTINUOUS
 62
     3
100
AcDbHatch
 10
0.0
 20
0.0
 30
0.0
210
0.0
220
0.0
230
1.0
  2
SOLID
 70
     1
 71
     1
 91
        1
 92
        1
 93
       10
 72
     2
 10
970.77879778064846
 20
189.6957845217274
 40
31.268571428571533
 50
129.545698
 51
136.474664
 73
     0
 72
     1
 10
948.10689739837028
 20
168.16189281029418
 11
948.10689739837028
 21
169.98119999999963
 72
     1
 10
948.10689739837028
 20
169.98119999999963
 11
949.0840402555126
 21
169.98119999999963
 72
     2
 10
970.77879778064846
 20
189.6957845217274
 40
29.314285714285809
 50
222.262231
 51
237.763996
 73
     1
 72
     1
 10
955.14232596979821
 20
164.90005714285681
 11
953.87524884820607
 21
163.39001343110536
 72
     2
 10
970.77879778064846
 20
189.6957845217274
 40
31.268571428571533
 50
122.723968
 51
128.230009
 73
     0
 72
     1
 10
951.42918311265532
 20
165.13329337396576
 11
951.42918311265532
 21
163.62977142857105
 72
     1
 10
951.42918311265532
 20
163.62977142857105
 11
948.10689739837028
 21
163.62977142857105
 72
     1
 10
948.10689739837028
 20
163.62977142857105
 11
948.10689739837028
 21
165.58405714285678
 72
     1
 10
948.10689739837028
 20
165.58405714285678
 11
950.87030306129043
 21
165.58405714285678
 97
        0
 75
     0
 76
     1
 98
        1
 10
0.0
 20
0.0
  0
HATCH
  5
B5
100
AcDbEntity
  8
LAY-1
  6
CONTINUOUS
 62
     3
100
AcDbHatch
 10
0.0
 20
0.0
 30
0.0
210
0.0
220
0.0
230
1.0
  2
SOLID
 70
     1
 71
     1
 91
        1
 92
        1
 93
       10
 72
     2
 10
925.43499701609073
 20
189.6957845217274
 40
31.268571428571533
 50
51.769991
 51
57.276032
 73
     0
 72
     1
 10
942.33854594853312
 20
163.3900134311053
 11
941.07146882694099
 21
164.90005714285681
 72
     2
 10
925.43499701609073
 20
189.6957845217274
 40
29.314285714285809
 50
302.236004
 51
317.737769
 73
     1
 72
     1
 10
947.12975454122659
 20
169.98119999999963
 11
948.10689739837028
 21
169.98119999999963
 72
     1
 10
948.10689739837028
 20
169.98119999999963
 11
948.10689739837028
 21
168.16189281029531
 72
     2
 10
925.43499701609073
 20
189.6957845217274
 40
31.268571428571533
 50
43.525336
 51
50.454302
 73
     0
 72
     1
 10
945.34349173544877
 20
165.58405714285678
 11
948.10689739837028
 21
165.58405714285678
 72
     1
 10
948.10689739837028
 20
165.58405714285678
 11
948.10689739837028
 21
163.62977142857105
 72
     1
 10
948.10689739837028
 20
163.62977142857105
 11
944.78461168408387
 21
163.62977142857105
 72
     1
 10
944.78461168408387
 20
163.62977142857105
 11
944.78461168408387
 21
165.13329337396576
 97
        0
 75
     0
 76
     1
 98
        1
 10
0.0
 20
0.0
  0
HATCH
  5
B6
100
AcDbEntity
  8
LAY-1
  6
CONTINUOUS
 62
     3
100
AcDbHatch
 10
0.0
 20
0.0
 30
0.0
210
0.0
220
0.0
230
1.0
  2
SOLID
 70
     1
 71
     1
 91
        1
 92
        1
 93
       18
 72
     2
 10
911.05168219102518
 20
161.19881663176292
 40
27.360000000000088
 50
14.02954
 51
18.723021
 73
     1
 72
     1
 10
936.96382880942258
 20
169.98119999999963
 11
939.01946882694085
 21
169.98119999999963
 72
     2
 10
911.05168219102518
 20
161.19881663176292
 40
29.314285714285809
 50
342.566782
 51
346.922981
 73
     0
 72
     1
 10
939.60575454122647
 20
167.83148571428538
 11
940.38746882694079
 21
167.83148571428538
 72
     1
 10
940.38746882694079
 20
167.83148571428538
 11
940.38746882694079
 21
165.87719999999965
 72
     1
 10
940.38746882694079
 20
165.87719999999965
 11
936.73384030242107
 21
165.87719999999965
 72
     2
 10
956.99889739836942
 20
169.10177142857108
 40
20.520000000000071
 50
189.041096
 51
204.65198
 73
     1
 72
     2
 10
942.43620042169016
 20
162.41846058567725
 40
4.496929537153985
 50
204.65198
 51
242.897449
 73
     1
 72
     1
 10
940.38746882694079
 20
158.41532754831704
 11
940.38746882694079
 21
156.30119999999962
 72
     2
 10
942.43620042169016
 20
162.41846058567725
 40
6.451215251439705
 50
108.516212
 51
155.34802
 73
     0
 72
     2
 10
956.99889739836942
 20
169.10177142857108
 40
22.474285714285784
 50
155.34802
 51
171.750831
 73
     0
 72
     1
 10
934.7571425784505
 20
165.87719999999965
 11
927.29375454122658
 21
165.87719999999965
 72
     1
 10
927.29375454122658
 20
165.87719999999965
 11
927.29375454122658
 21
167.83148571428538
 72
     1
 10
927.29375454122658
 20
167.83148571428538
 11
934.5552719659737
 21
167.83148571428538
 72
     1
 10
934.5552719659737
 20
167.83148571428538
 11
934.48020228892904
 21
169.98119999999963
 72
     1
 10
934.48020228892904
 20
169.98119999999963
 11
936.43567922693012
 21
169.98119999999963
 72
     1
 10
936.43567922693012
 20
169.98119999999963
 11
936.51074890397479
 21
167.83148571428538
 72
     1
 10
936.51074890397479
 20
167.83148571428538
 11
937.59555720658693
 21
167.83148571428538
 97
        0
 75
     0
 76
     1
 98
        1
 10
0.0
 20
0.0
  0
HATCH
  5
B7
100
AcDbEntity
  8
LAY-1
  6
CONTINUOUS
 62
     3
100
AcDbHatch
 10
0.0
 20
0.0
 30
0.0
210
0.0
220
0.0
230
1.0
  2
SOLID
 70
     1
 71
     1
 91
        1
 92
        1
 93
       12
 72
     2
 10
921.14259861324729
 20
254.40797029779637
 40
95.760000000000318
 50
276.500664
 51
278.269357
 73
     1
 72
     1
 10
934.91546882694104
 20
159.64360122335566
 11
934.91546882694104
 21
157.66919999999968
 72
     2
 10
921.14259861324729
 20
254.40797029779637
 40
97.714285714286035
 50
81.897153
 51
86.39082
 73
     0
 72
     1
 10
927.29375454122658
 20
156.88748571428536
 11
927.29375454122658
 21
158.84573465656754
 72
     2
 10
921.14259861324729
 20
254.40797029779637
 40
95.760000000000318
 50
273.682937
 51
275.325087
 73
     1
 72
     1
 10
930.02975454122668
 20
159.06125530712748
 11
930.02975454122668
 21
162.16405714285676
 72
     1
 10
930.02975454122668
 20
162.16405714285676
 11
927.29375454122658
 21
162.16405714285676
 72
     1
 10
927.29375454122658
 20
162.16405714285676
 11
927.29375454122658
 21
164.11834285714249
 72
     1
 10
927.29375454122658
 20
164.11834285714249
 11
934.32918311265541
 21
164.11834285714249
 72
     1
 10
934.32918311265541
 20
164.11834285714249
 11
934.32918311265541
 21
162.16405714285676
 72
     1
 10
934.32918311265541
 20
162.16405714285676
 11
931.98404025551247
 21
162.16405714285676
 72
     1
 10
931.98404025551247
 20
162.16405714285676
 11
931.98404025551247
 21
159.26365494938776
 97
        0
 75
     0
 76
     1
 98
        1
 10
0.0
 20
0.0
  0
HATCH
  5
B8
100
AcDbEntity
  8
LAY-1
  6
CONTINUOUS
 62
     3
100
AcDbHatch
 10
0.0
 20
0.0
 30
0.0
210
0.0
220
0.0
230
1.0
  2
SOLID
 70
     1
 71
     1
 91
        1
 92
        1
 93
       30
 72
     2
 10
903.47939627528206
 20
173.10579129406156
 40
21.39942857142864
 50
37.940537
 51
46.713808
 73
     0
 72
     1
 10
918.1517635709439
 20
157.5283338274252
 11
916.83832596979812
 21
158.84177142857115
 72
     2
 10
903.47939627528206
 20
173.10579129406156
 40
19.542857142857219
 50
313.123325
 51
325.95222
 73
     1
 72
     1
 10
919.67204025551212
 20
162.16405714285682
 11
917.32689739836962
 21
162.16405714285682
 72
     1
 10
917.32689739836962
 20
162.16405714285682
 11
917.32689739836962
 21
164.11834285714249
 72
     1
 10
917.32689739836962
 20
164.11834285714249
 11
920.35604025551231
 21
164.11834285714249
 72
     1
 10
920.35604025551231
 20
164.11834285714249
 11
920.35604025551231
 21
166.07262857142823
 72
     1
 10
920.35604025551231
 20
166.07262857142823
 11
919.38167450915864
 21
166.07262857142823
 72
     2
 10
898.48489270783659
 20
170.20633657492081
 40
21.301714285714365
 50
11.189535
 51
14.746058
 73
     0
 72
     1
 10
919.0850020839149
 20
164.78429588862818
 11
917.42461168408374
 21
165.3886285714282
 72
     2
 10
898.48489270783659
 20
170.20633657492081
 40
19.542857142857219
 50
345.728313
 51
357.620387
 73
     1
 72
     1
 10
918.01089739836959
 20
169.39491428571975
 11
919.75717778782416
 21
169.08699793717685
 72
     2
 10
898.48489270783659
 20
170.20633657492081
 40
21.301714285714365
 50
3.012102
 51
6.401006
 73
     0
 72
     1
 10
919.65381131271454
 20
167.83148571428538
 11
920.35604025551231
 21
167.83148571428538
 72
     1
 10
920.35604025551231
 20
167.83148571428538
 11
920.35604025551231
 21
169.98119999999963
 72
     1
 10
920.35604025551231
 20
169.98119999999963
 11
922.3103259697981
 21
169.98119999999963
 72
     1
 10
922.3103259697981
 20
169.98119999999963
 11
922.3103259697981
 21
167.83148571428538
 72
     1
 10
922.3103259697981
 20
167.83148571428538
 11
924.94861168408386
 21
167.83148571428538
 72
     1
 10
924.94861168408386
 20
167.83148571428538
 11
924.94861168408386
 21
166.07262857142823
 72
     1
 10
924.94861168408386
 20
166.07262857142823
 11
922.3103259697981
 21
166.07262857142823
 72
     1
 10
922.3103259697981
 20
166.07262857142823
 11
922.3103259697981
 21
164.11834285714249
 72
     1
 10
922.3103259697981
 20
164.11834285714249
 11
925.33946882694102
 21
164.11834285714249
 72
     1
 10
925.33946882694102
 20
164.11834285714249
 11
925.33946882694102
 21
162.16405714285682
 72
     1
 10
925.33946882694102
 20
162.16405714285682
 11
922.99432596979807
 21
162.16405714285682
 72
     2
 10
939.18696995002813
 20
173.1057912940615
 40
19.542857142857219
 50
214.04778
 51
226.876675
 73
     1
 72
     1
 10
925.82804025551206
 20
158.84177142857115
 11
924.51460265436606
 21
157.5283338274252
 72
     2
 10
939.18696995002813
 20
173.1057912940615
 40
21.39942857142864
 50
133.286192
 51
142.059463
 73
     0
 72
     1
 10
922.3103259697981
 20
159.9484955556417
 11
922.3103259697981
 21
156.30119999999962
 72
     1
 10
922.3103259697981
 20
156.30119999999962
 11
920.35604025551231
 21
156.30119999999962
 72
     1
 10
920.35604025551231
 20
156.30119999999962
 11
920.35604025551231
 21
159.94849555564221
 97
        0
 75
     0
 76
     1
 98
        1
 10
0.0
 20
0.0
  0
HATCH
  5
B9
100
AcDbEntity
  8
LAY-1
  6
CONTINUOUS
 62
     3
100
AcDbHatch
 10
0.0
 20
0.0
 30
0.0
210
0.0
220
0.0
230
1.0
  2
SOLID
 70
     1
 71
     1
 91
        1
 92
        1
 93
       19
 72
     2
 10
895.43449009620156
 20
170.49749535215264
 40
21.301714285714358
 50
27.683433
 51
32.280505
 73
     0
 72
     1
 10
913.44388809345071
 20
159.12100137171697
 11
912.05032596979811
 21
160.20977142857103
 72
     2
 10
895.43449009620156
 20
170.49749535215264
 40
19.542857142857208
 50
328.236207
 51
344.845745
 73
     1
 72
     1
 10
914.29775454122648
 20
165.3886285714282
 11
912.53889739836961
 21
165.3886285714282
 72
     1
 10
912.53889739836961
 20
165.3886285714282
 11
912.53889739836961
 21
167.34291428571393
 72
     1
 10
912.53889739836961
 20
167.34291428571393
 11
914.29775454122671
 21
167.34291428571393
 72
     1
 10
914.29775454122671
 20
167.34291428571393
 11
914.29775454122671
 21
169.98119999999963
 72
     1
 10
914.29775454122671
 20
169.98119999999963
 11
916.2520402555125
 21
169.98119999999963
 72
     1
 10
916.2520402555125
 20
169.98119999999963
 11
916.2520402555125
 21
167.34291428571393
 72
     1
 10
916.2520402555125
 20
167.34291428571393
 11
917.13146882694093
 21
167.34291428571393
 72
     1
 10
917.13146882694093
 20
167.34291428571393
 11
917.13146882694093
 21
165.3886285714282
 72
     1
 10
917.13146882694093
 20
165.3886285714282
 11
916.25204025551227
 21
165.3886285714282
 72
     1
 10
916.25204025551227
 20
165.3886285714282
 11
917.32689739836962
 21
163.85357348532401
 72
     1
 10
917.32689739836962
 20
163.85357348532401
 11
917.32689739836962
 21
162.66382983280985
 72
     1
 10
917.32689739836962
 20
162.66382983280985
 11
916.74061168408355
 21
161.96512172652305
 72
     1
 10
916.74061168408355
 20
161.96512172652305
 11
916.2520402555125
 21
162.66287403838837
 72
     1
 10
916.2520402555125
 20
162.66287403838837
 11
916.2520402555125
 21
156.30119999999962
 72
     1
 10
916.2520402555125
 20
156.30119999999962
 11
914.29775454122671
 21
156.30119999999962
 72
     1
 10
914.29775454122671
 20
156.30119999999962
 11
914.29775454122671
 21
160.60101688821103
 97
        0
 75
     0
 76
     1
 98
        1
 10
0.0
 20
0.0
  0
HATCH
  5
BA
100
AcDbEntity
  8
LAY-1
  6
CONTINUOUS
 62
     3
100
AcDbHatch
 10
0.0
 20
0.0
 30
0.0
210
0.0
220
0.0
230
1.0
  2
SOLID
 70
     1
 71
     1
 91
        1
 92
        1
 93
        8
 72
     2
 10
903.64270357986663
 20
162.04679999999937
 40
3.8304000000000311
 50
270.0
 51
330.0
 73
     1
 72
     2
 10
901.74714717606332
 20
163.14119999999937
 40
6.019200000000029
 50
330.0
 51
30.0
 73
     1
 72
     2
 10
903.64270357986663
 20
164.23559999999938
 40
3.8304000000000289
 50
30.0
 51
90.0
 73
     1
 72
     1
 10
903.64270357986777
 20
168.06599999999938
 11
903.64270357986777
 21
170.25479999999985
 72
     2
 10
903.64270357986663
 20
164.23559999999983
 40
6.0192000000000192
 50
270.0
 51
330.0
 73
     0
 72
     2
 10
901.74714717606355
 20
163.14119999999971
 40
8.2080000000000375
 50
330.0
 51
30.0
 73
     0
 72
     2
 10
903.64270357986686
 20
162.04679999999914
 40
6.0192000000000121
 50
30.0
 51
90.0
 73
     0
 72
     1
 10
903.64270357986777
 20
156.02759999999913
 11
903.64270357986777
 21
158.21639999999931
 97
        0
 75
     0
 76
     1
 98
        1
 10
0.0
 20
0.0
  0
HATCH
  5
BB
100
AcDbEntity
  8
LAY-1
  6
CONTINUOUS
 62
     3
100
AcDbHatch
 10
0.0
 20
0.0
 30
0.0
210
0.0
220
0.0
230
1.0
  2
SOLID
 70
     1
 71
     1
 91
        1
 92
        1
 93
        8
 72
     2
 10
903.64270357986686
 20
162.04679999999914
 40
6.0192000000000121
 50
90.0
 51
150.0
 73
     0
 72
     2
 10
905.53825998366995
 20
163.14119999999926
 40
8.2080000000000446
 50
150.0
 51
210.0
 73
     0
 72
     2
 10
903.64270357986663
 20
164.23559999999983
 40
6.0192000000000192
 50
210.0
 51
270.0
 73
     0
 72
     1
 10
903.64270357986777
 20
170.25479999999985
 11
903.64270357986777
 21
168.06599999999938
 72
     2
 10
903.64270357986663
 20
164.23559999999938
 40
3.8304000000000289
 50
90.0
 51
150.0
 73
     1
 72
     2
 10
905.53825998366995
 20
163.14119999999937
 40
6.0192000000000316
 50
150.0
 51
210.0
 73
     1
 72
     2
 10
903.64270357986663
 20
162.04679999999937
 40
3.8304000000000311
 50
210.0
 51
270.0
 73
     1
 72
     1
 10
903.64270357986777
 20
158.21639999999931
 11
903.64270357986777
 21
156.02759999999913
 97
        0
 75
     0
 76
     1
 98
        1
 10
0.0
 20
0.0
  0
HATCH
  5
BC
100
AcDbEntity
  8
LAY-1
  6
CONTINUOUS
 62
     3
100
AcDbHatch
 10
0.0
 20
0.0
 30
0.0
210
0.0
220
0.0
230
1.0
  2
SOLID
 70
     1
 71
     1
 91
        1
 92
        1
 93
        4
 72
     1
 10
895.16110357986656
 20
160.67879999999937
 11
892.97230357986666
 21
160.67879999999937
 72
     1
 10
892.97230357986666
 20
160.67879999999937
 11
892.97230357986666
 21
162.86759999999933
 72
     1
 10
892.97230357986666
 20
162.86759999999933
 11
895.16110357986656
 21
162.86759999999933
 72
     1
 10
895.16110357986656
 20
162.86759999999933
 11
895.16110357986656
 21
160.6787999999992
 97
        0
 75
     0
 76
     1
 98
        1
 10
0.0
 20
0.0
  0
HATCH
  5
BD
100
AcDbEntity
  8
LAY-1
  6
CONTINUOUS
 62
     3
100
AcDbHatch
 10
0.0
 20
0.0
 30
0.0
210
0.0
220
0.0
230
1.0
  2
SOLID
 70
     1
 71
     1
 91
        1
 92
        1
 93
       16
 72
     1
 10
884.76430357986658
 20
167.79239999999939
 11
881.75470357986671
 21
167.79239999999939
 72
     1
 10
881.75470357986671
 20
167.79239999999939
 11
881.20750357986674
 21
164.78279999999936
 72
     1
 10
881.20750357986674
 20
164.78279999999936
 11
879.56590357986681
 21
164.78279999999936
 72
     1
 10
879.56590357986681
 20
164.78279999999936
 11
879.56590357986681
 21
169.9811999999994
 72
     1
 10
879.56590357986681
 20
169.9811999999994
 11
892.1515035798667
 21
169.9811999999994
 72
     1
 10
892.1515035798667
 20
169.9811999999994
 11
892.1515035798667
 21
164.78279999999936
 72
     1
 10
892.1515035798667
 20
164.78279999999936
 11
890.50990357986677
 21
164.78279999999936
 72
     1
 10
890.50990357986677
 20
164.78279999999936
 11
889.9627035798668
 21
167.79239999999939
 72
     1
 10
889.9627035798668
 20
167.79239999999939
 11
886.95310357986648
 21
167.79239999999939
 72
     1
 10
886.95310357986648
 20
167.79239999999939
 11
886.95310357986671
 21
158.48999999999936
 72
     1
 10
886.95310357986671
 20
158.48999999999936
 11
889.14190357986683
 21
157.94279999999932
 72
     1
 10
889.14190357986683
 20
157.94279999999932
 11
889.14190357986683
 21
156.30119999999934
 72
     1
 10
889.14190357986683
 20
156.30119999999934
 11
882.57550357986668
 21
156.30119999999934
 72
     1
 10
882.57550357986668
 20
156.30119999999934
 11
882.57550357986668
 21
157.94279999999932
 72
     1
 10
882.57550357986668
 20
157.94279999999932
 11
884.76430357986658
 21
158.48999999999936
 72
     1
 10
884.76430357986658
 20
158.48999999999936
 11
884.76430357986658
 21
167.79239999999939
 97
        0
 75
     0
 76
     1
 98
        1
 10
0.0
 20
0.0
  0
HATCH
  5
BE
100
AcDbEntity
  8
LAY-1
  6
CONTINUOUS
 62
     3
100
AcDbHatch
 10
0.0
 20
0.0
 30
0.0
210
0.0
220
0.0
230
1.0
  2
SOLID
 70
     1
 71
     1
 91
        1
 92
        1
 93
        4
 72
     1
 10
876.55630357986649
 20
160.67879999999937
 11
876.55630357986672
 21
162.8675999999995
 72
     1
 10
876.55630357986672
 20
162.8675999999995
 11
878.74510357986662
 21
162.86759999999933
 72
     1
 10
878.74510357986662
 20
162.86759999999933
 11
878.74510357986662
 21
160.67879999999937
 72
     1
 10
878.74510357986662
 20
160.67879999999937
 11
876.55630357986672
 21
160.67879999999937
 97
        0
 75
     0
 76
     1
 98
        1
 10
0.0
 20
0.0
  0
HATCH
  5
BF
100
AcDbEntity
  8
LAY-1
  6
CONTINUOUS
 62
     3
100
AcDbHatch
 10
0.0
 20
0.0
 30
0.0
210
0.0
220
0.0
230
1.0
  2
SOLID
 70
     1
 71
     1
 91
        1
 92
        1
 93
       12
 72
     1
 10
874.09390357986661
 20
169.9811999999994
 11
874.09390357986661
 21
168.33959999999936
 72
     1
 10
874.09390357986661
 20
168.33959999999936
 11
871.9051035798667
 21
167.79239999999939
 72
     1
 10
871.9051035798667
 20
167.79239999999939
 11
871.9051035798667
 21
158.48999999999936
 72
     1
 10
871.9051035798667
 20
158.48999999999936
 11
874.09390357986661
 21
157.94279999999932
 72
     1
 10
874.09390357986661
 20
157.94279999999932
 11
874.09390357986661
 21
156.30119999999934
 72
     1
 10
874.09390357986661
 20
156.30119999999934
 11
867.52750357986645
 21
156.30119999999934
 72
     1
 10
867.52750357986645
 20
156.30119999999934
 11
867.52750357986645
 21
157.94279999999932
 72
     1
 10
867.52750357986645
 20
157.94279999999932
 11
869.71630357986658
 21
158.48999999999936
 72
     1
 10
869.71630357986658
 20
158.48999999999936
 11
869.71630357986658
 21
167.79239999999939
 72
     1
 10
869.71630357986658
 20
167.79239999999939
 11
867.52750357986645
 21
168.33959999999936
 72
     1
 10
867.52750357986645
 20
168.33959999999936
 11
867.52750357986645
 21
169.9811999999994
 72
     1
 10
867.52750357986645
 20
169.9811999999994
 11
874.09390357986661
 21
169.9811999999994
 97
        0
 75
     0
 76
     1
 98
        1
 10
0.0
 20
0.0
  0
HATCH
  5
C0
100
AcDbEntity
  8
LAY-1
  6
CONTINUOUS
 62
     3
100
AcDbHatch
 10
0.0
 20
0.0
 30
0.0
210
0.0
220
0.0
230
1.0
  2
SOLID
 70
     1
 71
     1
 91
        1
 92
        1
 93
       15
 72
     2
 10
852.63703696100436
 20
163.14119999999966
 40
6.0745274527452837
 50
124.301153
 51
180.0
 73
     0
 72
     1
 10
846.56250950825904
 20
163.1412
 11
848.85465550895981
 21
163.1412
 72
     2
 10
854.76500654406357
 20
163.14119999999971
 40
5.9103510351035284
 50
180.0
 51
199.464384
 73
     1
 72
     2
 10
849.09679391496263
 20
163.79682875559874
 40
2.6268226822682901
 50
272.086657
 51
294.619977
 73
     1
 72
     2
 10
849.84914477613268
 20
162.15506457918107
 40
0.8208820882088257
 50
294.619977
 51
0.0
 73
     1
 72
     1
 10
850.67002686434137
 20
162.15506457918107
 11
850.67002686434137
 21
163.1412
 72
     1
 10
850.67002686434137
 20
163.1412
 11
852.64014387604254
 21
163.1412
 72
     1
 10
852.64014387604254
 20
163.1412
 11
852.64014387604254
 21
162.15332273406685
 72
     2
 10
853.46102596425146
 20
162.15332273406685
 40
0.8208820882087921
 50
180.0
 51
245.380023
 73
     1
 72
     2
 10
854.21337682542151
 20
163.7950869104848
 40
2.6268226822685787
 50
245.380023
 51
267.913343
 73
     1
 72
     1
 10
854.1177316348186
 20
161.17000607333043
 11
854.1177316348186
 21
160.67747682040519
 72
     1
 10
854.1177316348186
 20
160.67747682040519
 11
849.39264044964341
 21
160.67747682040513
 72
     2
 10
854.76500654406357
 20
163.14119999999971
 40
5.9103510351035204
 50
204.635803
 51
268.19864
 73
     1
 72
     1
 10
854.57921773903001
 20
157.23376977374451
 11
854.57921773903001
 21
156.41171908481047
 72
     2
 10
854.76500654406357
 20
166.26055193519349
 40
9.8505850585058958
 50
91.080702
 51
124.301153
 73
     0
 97
        0
 75
     0
 76
     1
 98
        1
 10
0.0
 20
0.0
  0
HATCH
  5
C1
100
AcDbEntity
  8
LAY-1
  6
CONTINUOUS
 62
     3
100
AcDbHatch
 10
0.0
 20
0.0
 30
0.0
210
0.0
220
0.0
230
1.0
  2
SOLID
 70
     1
 71
     1
 91
        1
 92
        1
 93
       24
 72
     2
 10
853.62508304630126
 20
163.96208208820852
 40
0.8208820882088329
 50
90.0
 51
157.380135
 73
     1
 72
     2
 10
855.59520005800243
 20
163.14119999999977
 40
2.9551755175517687
 50
157.380135
 51
180.0
 73
     1
 72
     1
 10
852.64002454045055
 20
163.1412
 11
850.67002686434137
 21
163.1412
 72
     1
 10
850.67002686434137
 20
163.1412
 11
850.67002686434137
 21
167.40305297503446
 72
     2
 10
854.76500654406357
 20
163.14119999999971
 40
5.9103510351035284
 50
133.856042
 51
180.0
 73
     1
 72
     1
 10
848.85465550895981
 20
163.1412
 11
846.56250950825904
 21
163.1412
 72
     2
 10
852.63703696100436
 20
163.14119999999966
 40
6.0745274527452837
 50
180.0
 51
235.698847
 73
     0
 72
     2
 10
854.76500654406357
 20
160.02184806480582
 40
9.8505850585059171
 50
235.698847
 51
245.436008
 73
     0
 72
     1
 10
850.67002686434137
 20
168.98093102108672
 11
850.67002686434137
 21
169.87309805345822
 72
     2
 10
849.84914477613268
 20
169.87309805345822
 40
0.820882088208821
 50
0.0
 51
65.380023
 73
     1
 72
     2
 10
849.09679391496263
 20
168.23133387704056
 40
2.6268226822682306
 50
65.380023
 51
87.913343
 73
     1
 72
     1
 10
849.19243910556554
 20
170.85641471419459
 11
849.19243910556554
 21
171.34894396711988
 72
     1
 10
849.19243910556554
 20
171.34894396711988
 11
854.1177316348186
 21
171.34894396711988
 72
     1
 10
854.1177316348186
 20
171.34894396711988
 11
854.1177316348186
 21
170.85641471419459
 72
     2
 10
854.21337682542151
 20
168.23133387704056
 40
2.6268226822682426
 50
92.086657
 51
114.619977
 73
     1
 72
     2
 10
853.46102596425146
 20
169.87309805345822
 40
0.8208820882088329
 50
114.619977
 51
180.0
 73
     1
 72
     1
 10
852.64014387604277
 20
169.87309805345822
 11
852.64014387604277
 21
169.64052700928207
 72
     2
 10
854.76500654406357
 20
160.02184806480582
 40
9.8505850585058923
 50
257.542857
 51
268.919298
 73
     0
 72
     1
 10
854.57921773903001
 20
169.87068091518884
 11
854.57921773903001
 21
169.04863022625491
 72
     2
 10
854.76500654406357
 20
163.14119999999971
 40
5.9103510351035284
 50
91.80136
 51
111.070443
 73
     1
 72
     1
 10
852.64014387604254
 20
168.65637977949913
 11
852.64014387604254
 21
165.60384626462613
 72
     1
 10
852.64014387604254
 20
165.60384626462613
 11
854.57921773903024
 21
165.60384626462613
 72
     1
 10
854.57921773903024
 20
165.60384626462613
 11
854.57921773903001
 21
164.78296417641732
 72
     1
 10
854.57921773903001
 20
164.78296417641732
 11
853.62508304630126
 21
164.78296417641732
 97
        0
 75
     0
 76
     1
 98
        1
 10
0.0
 20
0.0
  0
HATCH
  5
C2
100
AcDbEntity
  8
LAY-1
  6
CONTINUOUS
 62
     3
100
AcDbHatch
 10
0.0
 20
0.0
 30
0.0
210
0.0
220
0.0
230
1.0
  2
SOLID
 70
     1
 71
     1
 91
        1
 92
        1
 93
       14
 72
     2
 10
854.76500654406357
 20
163.14119999999971
 40
5.91035103510354
 50
0.0
 51
9.281799
 73
     1
 72
     2
 10
859.78783908742628
 20
163.96208208820852
 40
0.820882088208816
 50
9.281799
 51
90.0
 73
     1
 72
     1
 10
859.78783908742628
 20
164.78296417641732
 11
858.04853489689879
 21
164.78296417641732
 72
     1
 10
858.04853489689879
 20
164.78296417641732
 11
858.04853489689879
 21
163.1412
 72
     1
 10
858.04853489689879
 20
163.1412
 11
856.07841788519761
 21
163.1412
 72
     1
 10
856.07841788519761
 20
163.1412
 11
856.07841788519761
 21
164.78296417641732
 72
     1
 10
856.07841788519761
 20
164.78296417641732
 11
854.57921773903001
 21
164.78296417641732
 72
     1
 10
854.57921773903001
 20
164.78296417641732
 11
854.57921773903001
 21
165.60384626462613
 72
     1
 10
854.57921773903001
 20
165.60384626462613
 11
860.13786637226224
 21
165.60384626462607
 72
     2
 10
854.76500654406357
 20
163.14119999999971
 40
5.9103510351035284
 50
24.624318
 51
91.80136
 73
     1
 72
     1
 10
854.57921773903001
 20
169.04863022625491
 11
854.57921773903001
 21
169.87068091518884
 72
     2
 10
854.76500654406357
 20
160.02184806480582
 40
9.8505850585058923
 50
268.919298
 51
304.301153
 73
     0
 72
     2
 10
856.89297612712255
 20
163.14119999999966
 40
6.074527452745289
 50
304.301153
 51
0.0
 73
     0
 72
     1
 10
862.96750357986787
 20
163.1412
 11
860.67535757916687
 21
163.1412
 97
        0
 75
     0
 76
     1
 98
        1
 10
0.0
 20
0.0
  0
HATCH
  5
C3
100
AcDbEntity
  8
LAY-1
  6
CONTINUOUS
 62
     3
100
AcDbHatch
 10
0.0
 20
0.0
 30
0.0
210
0.0
220
0.0
230
1.0
  2
SOLID
 70
     1
 71
     1
 91
        1
 92
        1
 93
       19
 72
     2
 10
854.76500654406357
 20
163.14119999999971
 40
5.91035103510354
 50
303.748989
 51
0.0
 73
     1
 72
     1
 10
860.67535757916687
 20
163.1412
 11
862.96750357986787
 21
163.1412
 72
     2
 10
856.89297612712255
 20
163.14119999999966
 40
6.074527452745289
 50
0.0
 51
55.698847
 73
     0
 72
     2
 10
854.76500654406357
 20
166.26055193519355
 40
9.85058505850591
 50
55.698847
 51
70.528779
 73
     0
 72
     1
 10
858.04853489689879
 20
156.97333127716095
 11
858.04853489689879
 21
156.4082250315731
 72
     2
 10
858.86941698510748
 20
156.4082250315731
 40
0.8208820882088257
 50
180.0
 51
245.380023
 73
     1
 72
     2
 10
859.62176784627775
 20
158.04998920799076
 40
2.6268226822682377
 50
245.380023
 51
267.913343
 73
     1
 72
     1
 10
859.52612265567461
 20
155.42490837083673
 11
859.52612265567461
 21
154.93237911791144
 72
     1
 10
859.52612265567461
 20
154.93237911791144
 11
854.60083012642178
 21
154.93237911791144
 72
     1
 10
854.60083012642178
 20
154.93237911791144
 11
854.60083012642178
 21
155.42490837083673
 72
     2
 10
854.50518493581887
 20
158.04998920799076
 40
2.6268226822682377
 50
272.086657
 51
294.619977
 73
     1
 72
     2
 10
855.25753579698869
 20
156.4082250315731
 40
0.8208820882088257
 50
294.619977
 51
0.0
 73
     1
 72
     1
 10
856.07841788519761
 20
156.4082250315731
 11
856.07841788519761
 21
156.49792028978968
 72
     2
 10
854.76500654406357
 20
166.26055193519349
 40
9.8505850585058958
 50
82.337744
 51
91.080702
 73
     0
 72
     1
 10
854.57921773903001
 20
156.41171908481047
 11
854.57921773903001
 21
157.23376977374451
 72
     2
 10
854.76500654406357
 20
163.14119999999971
 40
5.9103510351035204
 50
268.19864
 51
282.839588
 73
     1
 72
     1
 10
856.07841788519761
 20
157.37863112777526
 11
856.07841788519761
 21
163.1412
 72
     1
 10
856.07841788519761
 20
163.1412
 11
858.04853489689879
 21
163.1412
 72
     1
 10
858.04853489689879
 20
163.1412
 11
858.04853489689879
 21
158.22686475357253
 97
        0
 75
     0
 76
     1
 98
        1
 10
0.0
 20
0.0
  0
TEXT
  5
C4
100
AcDbEntity
  8
LAY-1
  6
CONTINUOUS
 62
     3
100
AcDbText
 10
829.053264
 20
240.0348
 30
0.0
 40
16.0
  1
２０１４年　６月２６日
 41
0.84
  7
EXCADSTD
 72
     5
 11
1005.053264
 21
240.0348
 31
0.0
100
AcDbText
  0
TEXT
  5
C5
100
AcDbEntity
  8
LAY-1
  6
CONTINUOUS
 62
     3
100
AcDbText
 10
820.618064
 20
217.9548
 30
0.0
 40
16.0
  1
Ｄ７－２５Ｆ
 41
0.84
  7
EXCADSTD
 72
     5
 11
916.618064
 21
217.9548
 31
0.0
100
AcDbText
  0
TEXT
  5
C6
100
AcDbEntity
  8
LAY-1
  6
CONTINUOUS
 62
     3
100
AcDbText
 10
820.592464
 20
195.6316
 30
0.0
 40
16.0
  1
２５Ａフランジ式ストレーナバルブ
 41
0.654314
  7
EXCADSTD
 72
     5
 11
1020.002492
 21
195.6316
 31
0.0
100
AcDbText
  0
TEXT
  5
C7
100
AcDbEntity
  8
LAY-1
  6
CONTINUOUS
 62
     3
100
AcDbText
 10
594.6
 20
154.220286
 30
0.0
 40
5.0
  1
Ｋ
 41
1.176
  7
EXCADSTD
 72
     5
 11
600.2
 21
154.220286
 31
0.0
100
AcDbText
  0
TEXT
  5
C8
100
AcDbEntity
  8
LAY-1
  6
CONTINUOUS
 62
     3
100
AcDbText
 10
581.0
 20
161.020286
 30
0.0
 40
8.0
  1
ＦＣＤ－Ｓ
 41
0.735
  7
EXCADSTD
 72
     5
 11
616.0
 21
161.020286
 31
0.0
100
AcDbText
  0
LINE
  5
C9
100
AcDbEntity
  8
LAY-1
  6
CONTINUOUS
 62
     3
100
AcDbLine
 10
595.6
 20
152.820286
 30
0.0
 11
599.8
 21
152.820286
 31
0.0
  0
TEXT
  5
CA
100
AcDbEntity
  8
LAY-1
  6
CONTINUOUS
 62
     3
100
AcDbText
 10
581.1
 20
150.720286
 30
0.0
 40
8.0
  1
２０　２５
 41
0.735
  7
EXCADSTD
 72
     5
 11
616.1
 21
150.720286
 31
0.0
100
AcDbText
  0
TEXT
  5
CB
100
AcDbEntity
  8
LAY-1
  6
CONTINUOUS
 62
     3
100
AcDbText
 10
574.40514
 20
491.056109
 30
0.0
 40
3.6
  1
ＯＰＥＮ
 50
35.0
 41
0.659167
  7
EXCADSTD
 72
     5
 11
583.661558
 21
497.537523
 31
0.0
100
AcDbText
  0
TEXT
  5
CC
100
AcDbEntity
  8
LAY-1
  6
CONTINUOUS
 62
     3
100
AcDbText
 10
613.010279
 20
496.961249
 30
0.0
 40
3.6
  1
ＳＨＵＴ
 50
325.0
 41
0.659167
  7
EXCADSTD
 72
     5
 11
622.266697
 21
490.479835
 31
0.0
100
AcDbText
  0
TEXT
  5
CD
100
AcDbEntity
  8
LAY-1
  6
CONTINUOUS
 62
     3
100
AcDbText
 10
620.1
 20
778.402211
 30
0.0
 40
8.0
  1
２Ｈ０５
 50
180.0
 41
0.72713
  7
EXCADSTD
 72
     5
 11
592.39982
 21
778.402211
 31
0.0
100
AcDbText
  0
LINE
  5
CE
100
AcDbEntity
  8
LAY-1
  6
CONTINUOUS
 62
     7
100
AcDbLine
 10
566.0
 20
78.043135
 30
0.0
 11
566.0
 21
73.543135
 31
0.0
  0
LINE
  5
CF
100
AcDbEntity
  8
LAY-1
  6
CONTINUOUS
 62
     7
100
AcDbLine
 10
630.0
 20
73.543135
 30
0.0
 11
630.0
 21
78.044267
 31
0.0
  0
LINE
  5
D0
100
AcDbEntity
  8
LAY-1
  6
CONTINUOUS
 62
     7
100
AcDbLine
 10
630.0
 20
78.044267
 30
0.0
 11
629.500157
 21
78.544111
 31
0.0
  0
ARC
  5
D1
100
AcDbEntity
  8
LAY-1
  6
CONTINUOUS
 62
     7
100
AcDbCircle
 10
615.75
 20
69.078092
 30
0.0
 40
1.0
100
AcDbArc
 50
100.0
 51
180.0
  0
LINE
  5
D2
100
AcDbEntity
  8
LAY-1
  6
CONTINUOUS
 62
     7
100
AcDbLine
 10
580.423648
 20
70.0629
 30
0.0
 11
568.305407
 21
72.199673
 31
0.0
  0
ARC
  5
D3
100
AcDbEntity
  8
LAY-1
  6
CONTINUOUS
 62
     7
100
AcDbCircle
 10
627.0
 20
76.138904
 30
0.0
 40
4.0
100
AcDbArc
 50
280.0
 51
319.538091
  0
LINE
  5
D4
100
AcDbEntity
  8
LAY-1
  6
CONTINUOUS
 62
     7
100
AcDbLine
 10
581.25
 20
58.842173
 30
0.0
 11
581.25
 21
69.267152
 31
0.0
  0
LINE
  5
D5
100
AcDbEntity
  8
LAY-1
  6
CONTINUOUS
 62
     7
100
AcDbLine
 10
583.5
 20
57.543135
 30
0.0
 11
581.25
 21
58.842173
 31
0.0
  0
LINE
  5
D6
100
AcDbEntity
  8
LAY-1
  6
CONTINUOUS
 62
     7
100
AcDbLine
 10
615.576352
 20
70.0629
 30
0.0
 11
627.694593
 21
72.199673
 31
0.0
  0
LINE
  5
D7
100
AcDbEntity
  8
LAY-1
  6
CONTINUOUS
 62
     7
100
AcDbLine
 10
612.5
 20
57.543135
 30
0.0
 11
614.75
 21
58.842173
 31
0.0
  0
LINE
  5
D8
100
AcDbEntity
  8
LAY-1
  6
CONTINUOUS
 62
     7
100
AcDbLine
 10
614.75
 20
58.842173
 30
0.0
 11
614.75
 21
69.078092
 31
0.0
  0
ARC
  5
D9
100
AcDbEntity
  8
LAY-1
  6
CONTINUOUS
 62
     7
100
AcDbCircle
 10
580.25
 20
69.078092
 30
0.0
 40
1.0
100
AcDbArc
 50
0.0
 51
80.0
  0
ARC
  5
DA
100
AcDbEntity
  8
LAY-1
  6
CONTINUOUS
 62
     7
100
AcDbCircle
 10
569.0
 20
76.138904
 30
0.0
 40
4.0
100
AcDbArc
 50
220.868211
 51
260.0
  0
ARC
  5
DB
100
AcDbEntity
  8
LAY-1
  6
CONTINUOUS
 62
     7
100
AcDbCircle
 10
554.0
 20
188.520286
 30
0.0
 40
5.0
100
AcDbArc
 50
180.0
 51
274.321688
  0
LINE
  5
DC
100
AcDbEntity
  8
LAY-1
  6
CONTINUOUS
 62
     7
100
AcDbLine
 10
533.0
 20
157.520286
 30
0.0
 11
533.0
 21
192.520286
 31
0.0
  0
ARC
  5
DD
100
AcDbEntity
  8
LAY-1
  6
CONTINUOUS
 62
     7
100
AcDbCircle
 10
554.0
 20
126.520286
 30
0.0
 40
5.0
100
AcDbArc
 50
85.678312
 51
180.0
  0
LINE
  5
DE
100
AcDbEntity
  8
LAY-1
  6
CONTINUOUS
 62
     7
100
AcDbLine
 10
533.0
 20
157.520286
 30
0.0
 11
533.0
 21
122.520286
 31
0.0
  0
ARC
  5
DF
100
AcDbEntity
  8
LAY-1
  6
CONTINUOUS
 62
     7
100
AcDbCircle
 10
533.0
 20
121.520286
 30
0.0
 40
1.0
100
AcDbArc
 50
0.0
 51
90.0
  0
LINE
  5
E0
100
AcDbEntity
  8
LAY-1
  6
CONTINUOUS
 62
     7
100
AcDbLine
 10
534.0
 20
220.020286
 30
0.0
 11
547.5
 21
220.020286
 31
0.0
  0
LINE
  5
E1
100
AcDbEntity
  8
LAY-1
  6
CONTINUOUS
 62
     7
100
AcDbLine
 10
534.0
 20
95.020286
 30
0.0
 11
547.5
 21
95.020286
 31
0.0
  0
ARC
  5
E2
100
AcDbEntity
  8
LAY-1
  6
CONTINUOUS
 62
     7
100
AcDbCircle
 10
533.0
 20
193.520286
 30
0.0
 40
1.0
100
AcDbArc
 50
270.0
 51
0.0
  0
ARC
  5
E3
100
AcDbEntity
  8
LAY-1
  6
CONTINUOUS
 62
     7
100
AcDbCircle
 10
642.0
 20
188.520286
 30
0.0
 40
5.0
100
AcDbArc
 50
265.678312
 51
0.0
  0
LINE
  5
E4
100
AcDbEntity
  8
LAY-1
  6
CONTINUOUS
 62
     7
100
AcDbLine
 10
663.0
 20
157.520286
 30
0.0
 11
663.0
 21
192.520286
 31
0.0
  0
ARC
  5
E5
100
AcDbEntity
  8
LAY-1
  6
CONTINUOUS
 62
     7
100
AcDbCircle
 10
642.0
 20
126.520286
 30
0.0
 40
5.0
100
AcDbArc
 50
0.0
 51
94.321688
  0
LINE
  5
E6
100
AcDbEntity
  8
LAY-1
  6
CONTINUOUS
 62
     7
100
AcDbLine
 10
663.0
 20
157.520286
 30
0.0
 11
663.0
 21
122.520286
 31
0.0
  0
ARC
  5
E7
100
AcDbEntity
  8
LAY-1
  6
CONTINUOUS
 62
     7
100
AcDbCircle
 10
629.5
 20
79.020286
 30
0.0
 40
0.5
100
AcDbArc
 50
270.0
 51
0.0
  0
ARC
  5
E8
100
AcDbEntity
  8
LAY-1
  6
CONTINUOUS
 62
     7
100
AcDbCircle
 10
663.0
 20
121.520286
 30
0.0
 40
1.0
100
AcDbArc
 50
90.0
 51
180.0
  0
ARC
  5
E9
100
AcDbEntity
  8
LAY-1
  6
CONTINUOUS
 62
     7
100
AcDbCircle
 10
566.5
 20
79.020286
 30
0.0
 40
0.5
100
AcDbArc
 50
180.0
 51
270.0
  0
LINE
  5
EA
100
AcDbEntity
  8
LAY-1
  6
CONTINUOUS
 62
     7
100
AcDbLine
 10
662.0
 20
220.020286
 30
0.0
 11
648.5
 21
220.020286
 31
0.0
  0
LINE
  5
EB
100
AcDbEntity
  8
LAY-1
  6
CONTINUOUS
 62
     7
100
AcDbLine
 10
662.0
 20
95.020286
 30
0.0
 11
648.5
 21
95.020286
 31
0.0
  0
ARC
  5
EC
100
AcDbEntity
  8
LAY-1
  6
CONTINUOUS
 62
     7
100
AcDbCircle
 10
561.0
 20
125.172471
 30
0.0
 40
7.0
100
AcDbArc
 50
0.0
 51
59.3132
  0
ARC
  5
ED
100
AcDbEntity
  8
LAY-1
  6
CONTINUOUS
 62
     7
100
AcDbCircle
 10
559.100116
 20
126.339823
 30
0.0
 40
7.0
100
AcDbArc
 50
57.550903
 51
132.435683
  0
ARC
  5
EE
100
AcDbEntity
  8
LAY-1
  6
CONTINUOUS
 62
     7
100
AcDbCircle
 10
568.0
 20
98.520286
 30
0.0
 40
2.0
100
AcDbArc
 50
120.0
 51
180.0
  0
ARC
  5
EF
100
AcDbEntity
  8
LAY-1
  6
CONTINUOUS
 62
     7
100
AcDbCircle
 10
597.999999
 20
187.520286
 30
0.0
 40
65.5
100
AcDbArc
 50
237.550903
 51
239.3132
  0
LINE
  5
F0
100
AcDbEntity
  8
LAY-1
  6
CONTINUOUS
 62
     7
100
AcDbLine
 10
568.0
 20
101.984388
 30
0.0
 11
568.0
 21
125.172471
 31
0.0
  0
ARC
  5
F1
100
AcDbEntity
  8
LAY-1
  6
CONTINUOUS
 62
     7
100
AcDbCircle
 10
566.0
 20
101.984388
 30
0.0
 40
2.0
100
AcDbArc
 50
300.0
 51
0.0
  0
LINE
  5
F2
100
AcDbEntity
  8
LAY-1
  6
CONTINUOUS
 62
     7
100
AcDbLine
 10
566.0
 20
79.020286
 30
0.0
 11
566.0
 21
98.520286
 31
0.0
  0
ARC
  5
F3
100
AcDbEntity
  8
LAY-1
  6
CONTINUOUS
 62
     7
100
AcDbCircle
 10
567.0
 20
191.874535
 30
0.0
 40
2.0
100
AcDbArc
 50
0.0
 51
41.409622
  0
LINE
  5
F4
100
AcDbEntity
  8
LAY-1
  6
CONTINUOUS
 62
     7
100
AcDbLine
 10
568.0
 20
213.520286
 30
0.0
 11
568.0
 21
194.520286
 31
0.0
  0
ARC
  5
F5
100
AcDbEntity
  8
LAY-1
  6
CONTINUOUS
 62
     7
100
AcDbCircle
 10
597.999999
 20
127.520286
 30
0.0
 40
65.5
100
AcDbArc
 50
118.833731
 51
122.449097
  0
ARC
  5
F6
100
AcDbEntity
  8
LAY-1
  6
CONTINUOUS
 62
     7
100
AcDbCircle
 10
570.0
 20
194.520286
 30
0.0
 40
2.0
100
AcDbArc
 50
180.0
 51
221.409622
  0
ARC
  5
F7
100
AcDbEntity
  8
LAY-1
  6
CONTINUOUS
 62
     7
100
AcDbCircle
 10
559.100116
 20
188.70075
 30
0.0
 40
7.0
100
AcDbArc
 50
227.564317
 51
302.449097
  0
ARC
  5
F8
100
AcDbEntity
  8
LAY-1
  6
CONTINUOUS
 62
     7
100
AcDbCircle
 10
564.0
 20
189.279901
 30
0.0
 40
5.0
100
AcDbArc
 50
298.833731
 51
0.0
  0
ARC
  5
F9
100
AcDbEntity
  8
LAY-1
  6
CONTINUOUS
 62
     7
100
AcDbCircle
 10
635.0
 20
125.172471
 30
0.0
 40
7.0
100
AcDbArc
 50
120.6868
 51
180.0
  0
ARC
  5
FA
100
AcDbEntity
  8
LAY-1
  6
CONTINUOUS
 62
     7
100
AcDbCircle
 10
636.899884
 20
126.339823
 30
0.0
 40
7.0
100
AcDbArc
 50
47.564317
 51
122.449097
  0
ARC
  5
FB
100
AcDbEntity
  8
LAY-1
  6
CONTINUOUS
 62
     7
100
AcDbCircle
 10
628.0
 20
98.520286
 30
0.0
 40
2.0
100
AcDbArc
 50
0.0
 51
60.0
  0
ARC
  5
FC
100
AcDbEntity
  8
LAY-1
  6
CONTINUOUS
 62
     7
100
AcDbCircle
 10
663.0
 20
193.520286
 30
0.0
 40
1.0
100
AcDbArc
 50
180.0
 51
270.0
  0
ARC
  5
FD
100
AcDbEntity
  8
LAY-1
  6
CONTINUOUS
 62
     7
100
AcDbCircle
 10
598.000001
 20
187.520286
 30
0.0
 40
65.5
100
AcDbArc
 50
300.6868
 51
302.449097
  0
LINE
  5
FE
100
AcDbEntity
  8
LAY-1
  6
CONTINUOUS
 62
     7
100
AcDbLine
 10
628.0
 20
101.984388
 30
0.0
 11
628.0
 21
125.172471
 31
0.0
  0
ARC
  5
FF
100
AcDbEntity
  8
LAY-1
  6
CONTINUOUS
 62
     7
100
AcDbCircle
 10
630.0
 20
101.984388
 30
0.0
 40
2.0
100
AcDbArc
 50
180.0
 51
240.0
  0
LINE
  5
100
100
AcDbEntity
  8
LAY-1
  6
CONTINUOUS
 62
     7
100
AcDbLine
 10
630.0
 20
79.020286
 30
0.0
 11
630.0
 21
98.520286
 31
0.0
  0
ARC
  5
101
100
AcDbEntity
  8
LAY-1
  6
CONTINUOUS
 62
     7
100
AcDbCircle
 10
629.0
 20
191.874535
 30
0.0
 40
2.0
100
AcDbArc
 50
138.590378
 51
180.0
  0
LINE
  5
102
100
AcDbEntity
  8
LAY-1
  6
CONTINUOUS
 62
     7
100
AcDbLine
 10
628.0
 20
213.520286
 30
0.0
 11
628.0
 21
194.520286
 31
0.0
  0
ARC
  5
103
100
AcDbEntity
  8
LAY-1
  6
CONTINUOUS
 62
     7
100
AcDbCircle
 10
598.000001
 20
127.520286
 30
0.0
 40
65.5
100
AcDbArc
 50
57.550903
 51
61.166269
  0
ARC
  5
104
100
AcDbEntity
  8
LAY-1
  6
CONTINUOUS
 62
     7
100
AcDbCircle
 10
648.5
 20
218.520286
 30
0.0
 40
1.5
100
AcDbArc
 50
90.0
 51
180.0
  0
ARC
  5
105
100
AcDbEntity
  8
LAY-1
  6
CONTINUOUS
 62
     7
100
AcDbCircle
 10
648.5
 20
96.520286
 30
0.0
 40
1.5
100
AcDbArc
 50
180.0
 51
270.0
  0
ARC
  5
106
100
AcDbEntity
  8
LAY-1
  6
CONTINUOUS
 62
     7
100
AcDbCircle
 10
547.5
 20
96.520286
 30
0.0
 40
1.5
100
AcDbArc
 50
270.0
 51
0.0
  0
ARC
  5
107
100
AcDbEntity
  8
LAY-1
  6
CONTINUOUS
 62
     7
100
AcDbCircle
 10
626.0
 20
194.520286
 30
0.0
 40
2.0
100
AcDbArc
 50
318.590378
 51
0.0
  0
ARC
  5
108
100
AcDbEntity
  8
LAY-1
  6
CONTINUOUS
 62
     7
100
AcDbCircle
 10
636.899884
 20
188.70075
 30
0.0
 40
7.0
100
AcDbArc
 50
237.550903
 51
312.435683
  0
LINE
  5
109
100
AcDbEntity
  8
LAY-1
  6
CONTINUOUS
 62
     7
100
AcDbLine
 10
627.0
 20
189.279901
 30
0.0
 11
627.0
 21
191.874535
 31
0.0
  0
LINE
  5
10A
100
AcDbEntity
  8
LAY-1
  6
CONTINUOUS
 62
     7
100
AcDbLine
 10
569.0
 20
189.279901
 30
0.0
 11
569.0
 21
191.874535
 31
0.0
  0
ARC
  5
10B
100
AcDbEntity
  8
LAY-1
  6
CONTINUOUS
 62
     7
100
AcDbCircle
 10
632.0
 20
189.279901
 30
0.0
 40
5.0
100
AcDbArc
 50
180.0
 51
241.166269
  0
ARC
  5
10C
100
AcDbEntity
  8
LAY-1
  6
CONTINUOUS
 62
     7
100
AcDbCircle
 10
547.5
 20
218.520286
 30
0.0
 40
1.5
100
AcDbArc
 50
0.0
 51
90.0
  0
LINE
  5
10D
100
AcDbEntity
  8
LAY-1
  6
CONTINUOUS
 62
     7
100
AcDbLine
 10
598.0
 20
55.520286
 30
0.0
 11
591.107237
 21
55.520286
 31
0.0
  0
LINE
  5
10E
100
AcDbEntity
  8
LAY-1
  6
CONTINUOUS
 62
     7
100
AcDbLine
 10
566.0
 20
78.043135
 30
0.0
 11
566.5
 21
78.543135
 31
0.0
  0
LINE
  5
10F
100
AcDbEntity
  8
LAY-1
  6
CONTINUOUS
 62
     7
100
AcDbLine
 10
598.0
 20
55.520286
 30
0.0
 11
604.892763
 21
55.520286
 31
0.0
  0
LINE
  5
110
100
AcDbEntity
  8
LAY-1
  6
CONTINUOUS
 62
     7
100
AcDbLine
 10
602.041452
 20
53.520286
 30
0.0
 11
602.041452
 21
48.145501
 31
0.0
  0
LINE
  5
111
100
AcDbEntity
  8
LAY-1
  6
CONTINUOUS
 62
     7
100
AcDbLine
 10
593.958548
 20
48.145501
 30
0.0
 11
593.958548
 21
53.520286
 31
0.0
  0
ARC
  5
112
100
AcDbEntity
  8
LAY-1
  6
CONTINUOUS
 62
     7
100
AcDbCircle
 10
604.062178
 20
51.098438
 30
0.0
 40
3.578152
100
AcDbArc
 50
235.615753
 51
304.384247
  0
LINE
  5
113
100
AcDbEntity
  8
LAY-1
  6
CONTINUOUS
 62
     7
100
AcDbLine
 10
591.0
 20
47.520286
 30
0.0
 11
589.917096
 21
48.145501
 31
0.0
  0
LINE
  5
114
100
AcDbEntity
  8
LAY-1
  6
CONTINUOUS
 62
     7
100
AcDbLine
 10
589.917096
 20
48.145501
 30
0.0
 11
589.917096
 21
53.520286
 31
0.0
  0
LINE
  5
115
100
AcDbEntity
  8
LAY-1
  6
CONTINUOUS
 62
     7
100
AcDbLine
 10
605.0
 20
47.520286
 30
0.0
 11
591.0
 21
47.520286
 31
0.0
  0
LINE
  5
116
100
AcDbEntity
  8
LAY-1
  6
CONTINUOUS
 62
     7
100
AcDbLine
 10
606.082904
 20
48.145501
 30
0.0
 11
605.0
 21
47.520286
 31
0.0
  0
LINE
  5
117
100
AcDbEntity
  8
LAY-1
  6
CONTINUOUS
 62
     7
100
AcDbLine
 10
606.082904
 20
53.520286
 30
0.0
 11
606.082904
 21
48.145501
 31
0.0
  0
LINE
  5
118
100
AcDbEntity
  8
LAY-1
  6
CONTINUOUS
 62
     7
100
AcDbLine
 10
589.917096
 20
53.520286
 30
0.0
 11
606.082904
 21
53.520286
 31
0.0
  0
ARC
  5
119
100
AcDbEntity
  8
LAY-1
  6
CONTINUOUS
 62
     7
100
AcDbCircle
 10
598.0
 20
60.895071
 30
0.0
 40
13.374785
100
AcDbArc
 50
252.412046
 51
287.587954
  0
ARC
  5
11A
100
AcDbEntity
  8
LAY-1
  6
CONTINUOUS
 62
     7
100
AcDbCircle
 10
591.937822
 20
51.098438
 30
0.0
 40
3.578152
100
AcDbArc
 50
235.615753
 51
304.384247
  0
LINE
  5
11B
100
AcDbEntity
  8
LAY-1
  6
CONTINUOUS
 62
     7
100
AcDbLine
 10
627.0
 20
214.520286
 30
0.0
 11
628.0
 21
213.520286
 31
0.0
  0
LINE
  5
11C
100
AcDbEntity
  8
LAY-1
  6
CONTINUOUS
 62
     7
100
AcDbLine
 10
568.0
 20
213.520286
 30
0.0
 11
569.0
 21
214.520286
 31
0.0
  0
LINE
  5
11D
100
AcDbEntity
  8
LAY-1
  6
CONTINUOUS
 62
     7
100
AcDbLine
 10
598.0
 20
57.543135
 30
0.0
 11
612.5
 21
57.543135
 31
0.0
  0
LINE
  5
11E
100
AcDbEntity
  8
LAY-1
  6
CONTINUOUS
 62
     7
100
AcDbLine
 10
598.0
 20
57.543135
 30
0.0
 11
583.5
 21
57.543135
 31
0.0
  0
LINE
  5
11F
100
AcDbEntity
  8
LAY-1
  6
CONTINUOUS
 62
     7
100
AcDbLine
 10
604.829192
 20
57.543135
 30
0.0
 11
604.955615
 21
53.520286
 31
0.0
  0
LINE
  5
120
100
AcDbEntity
  8
LAY-1
  6
CONTINUOUS
 62
     7
100
AcDbLine
 10
591.170808
 20
57.543135
 30
0.0
 11
591.044385
 21
53.520286
 31
0.0
  0
LINE
  5
121
100
AcDbEntity
  8
LAY-1
  6
CONTINUOUS
 62
     7
100
AcDbLine
 10
629.500157
 20
78.544111
 30
0.0
 11
598.0
 21
78.540384
 31
0.0
  0
LINE
  5
122
100
AcDbEntity
  8
LAY-1
  6
CONTINUOUS
 62
     7
100
AcDbLine
 10
598.0
 20
78.542922
 30
0.0
 11
566.5
 21
78.543135
 31
0.0
  0
LINE
  5
123
100
AcDbEntity
  8
LAY-1
  6
CONTINUOUS
 62
     7
100
AcDbLine
 10
604.5
 20
286.028428
 30
0.0
 11
603.35
 21
288.020286
 31
0.0
  0
LINE
  5
124
100
AcDbEntity
  8
LAY-1
  6
CONTINUOUS
 62
     7
100
AcDbLine
 10
610.098753
 20
288.020286
 30
0.0
 11
598.0
 21
288.020286
 31
0.0
  0
LINE
  5
125
100
AcDbEntity
  8
LAY-1
  6
CONTINUOUS
 62
     7
100
AcDbLine
 10
598.0
 20
286.028428
 30
0.0
 11
604.5
 21
286.028428
 31
0.0
  0
LINE
  5
126
100
AcDbEntity
  8
LAY-1
  6
CONTINUOUS
 62
     7
100
AcDbLine
 10
618.207259
 20
271.520286
 30
0.0
 11
618.207259
 21
277.957249
 31
0.0
  0
LINE
  5
127
100
AcDbEntity
  8
LAY-1
  6
CONTINUOUS
 62
     7
100
AcDbLine
 10
618.207259
 20
277.957249
 30
0.0
 11
615.5
 21
279.520286
 31
0.0
  0
LINE
  5
128
100
AcDbEntity
  8
LAY-1
  6
CONTINUOUS
 62
     7
100
AcDbLine
 10
577.792741
 20
277.957249
 30
0.0
 11
580.5
 21
279.520286
 31
0.0
  0
LINE
  5
129
100
AcDbEntity
  8
LAY-1
  6
CONTINUOUS
 62
     7
100
AcDbLine
 10
577.792741
 20
271.520286
 30
0.0
 11
577.792741
 21
277.957249
 31
0.0
  0
LINE
  5
12A
100
AcDbEntity
  8
LAY-1
  6
CONTINUOUS
 62
     7
100
AcDbLine
 10
598.0
 20
286.028428
 30
0.0
 11
591.5
 21
286.028428
 31
0.0
  0
LINE
  5
12B
100
AcDbEntity
  8
LAY-1
  6
CONTINUOUS
 62
     7
100
AcDbLine
 10
585.901247
 20
288.020286
 30
0.0
 11
598.0
 21
288.020286
 31
0.0
  0
LINE
  5
12C
100
AcDbEntity
  8
LAY-1
  6
CONTINUOUS
 62
     7
100
AcDbLine
 10
591.5
 20
286.028428
 30
0.0
 11
592.65
 21
288.020286
 31
0.0
  0
ARC
  5
12D
100
AcDbEntity
  8
LAY-1
  6
CONTINUOUS
 62
     7
100
AcDbCircle
 10
610.098753
 20
289.020286
 30
0.0
 40
1.0
100
AcDbArc
 50
270.0
 51
346.357114
  0
ARC
  5
12E
100
AcDbEntity
  8
LAY-1
  6
CONTINUOUS
 62
     7
100
AcDbCircle
 10
640.0
 20
304.020286
 30
0.0
 40
8.0
100
AcDbArc
 50
270.0
 51
90.0
  0
ARC
  5
12F
100
AcDbEntity
  8
LAY-1
  6
CONTINUOUS
 62
     7
100
AcDbCircle
 10
613.5
 20
288.194743
 30
0.0
 40
2.5
100
AcDbArc
 50
97.983556
 51
166.357114
  0
ARC
  5
130
100
AcDbEntity
  8
LAY-1
  6
CONTINUOUS
 62
     7
100
AcDbCircle
 10
582.5
 20
288.194743
 30
0.0
 40
2.5
100
AcDbArc
 50
13.642886
 51
82.016444
  0
ARC
  5
131
100
AcDbEntity
  8
LAY-1
  6
CONTINUOUS
 62
     7
100
AcDbCircle
 10
556.0
 20
304.020286
 30
0.0
 40
8.0
100
AcDbArc
 50
90.0
 51
270.0
  0
ARC
  5
132
100
AcDbEntity
  8
LAY-1
  6
CONTINUOUS
 62
     7
100
AcDbCircle
 10
585.901247
 20
289.020286
 30
0.0
 40
1.0
100
AcDbArc
 50
193.642886
 51
270.0
  0
LINE
  5
133
100
AcDbEntity
  8
LAY-1
  6
CONTINUOUS
 62
     7
100
AcDbLine
 10
566.5
 20
214.520286
 30
0.0
 11
565.5
 21
215.520286
 31
0.0
  0
LINE
  5
134
100
AcDbEntity
  8
LAY-1
  6
CONTINUOUS
 62
     7
100
AcDbLine
 10
629.5
 20
214.520286
 30
0.0
 11
630.5
 21
215.520286
 31
0.0
  0
LINE
  5
135
100
AcDbEntity
  8
LAY-1
  6
CONTINUOUS
 62
     7
100
AcDbLine
 10
618.0
 20
269.520286
 30
0.0
 11
618.0
 21
249.520286
 31
0.0
  0
LINE
  5
136
100
AcDbEntity
  8
LAY-1
  6
CONTINUOUS
 62
     7
100
AcDbLine
 10
578.0
 20
269.520286
 30
0.0
 11
578.0
 21
249.520286
 31
0.0
  0
LINE
  5
137
100
AcDbEntity
  8
LAY-1
  6
CONTINUOUS
 62
     7
100
AcDbLine
 10
598.0
 20
269.520286
 30
0.0
 11
618.0
 21
269.520286
 31
0.0
  0
LINE
  5
138
100
AcDbEntity
  8
LAY-1
  6
CONTINUOUS
 62
     7
100
AcDbLine
 10
578.0
 20
269.520286
 30
0.0
 11
598.0
 21
269.520286
 31
0.0
  0
LINE
  5
139
100
AcDbEntity
  8
LAY-1
  6
CONTINUOUS
 62
     7
100
AcDbLine
 10
581.0
 20
271.520286
 30
0.0
 11
581.0
 21
269.520286
 31
0.0
  0
LINE
  5
13A
100
AcDbEntity
  8
LAY-1
  6
CONTINUOUS
 62
     7
100
AcDbLine
 10
615.0
 20
271.520286
 30
0.0
 11
615.0
 21
269.520286
 31
0.0
  0
LINE
  5
13B
100
AcDbEntity
  8
LAY-1
  6
CONTINUOUS
 62
     7
100
AcDbLine
 10
604.5
 20
279.520286
 30
0.0
 11
604.5
 21
286.028428
 31
0.0
  0
LINE
  5
13C
100
AcDbEntity
  8
LAY-1
  6
CONTINUOUS
 62
     7
100
AcDbLine
 10
615.5
 20
279.520286
 30
0.0
 11
598.0
 21
279.520286
 31
0.0
  0
LINE
  5
13D
100
AcDbEntity
  8
LAY-1
  6
CONTINUOUS
 62
     7
100
AcDbLine
 10
580.5
 20
279.520286
 30
0.0
 11
598.0
 21
279.520286
 31
0.0
  0
LINE
  5
13E
100
AcDbEntity
  8
LAY-1
  6
CONTINUOUS
 62
     7
100
AcDbLine
 10
591.5
 20
279.520286
 30
0.0
 11
591.5
 21
286.028428
 31
0.0
  0
LINE
  5
13F
100
AcDbEntity
  8
LAY-1
  6
CONTINUOUS
 62
     7
100
AcDbLine
 10
598.0
 20
214.520286
 30
0.0
 11
629.5
 21
214.520286
 31
0.0
  0
LINE
  5
140
100
AcDbEntity
  8
LAY-1
  6
CONTINUOUS
 62
     7
100
AcDbLine
 10
598.0
 20
214.520286
 30
0.0
 11
566.5
 21
214.520286
 31
0.0
  0
LINE
  5
141
100
AcDbEntity
  8
LAY-1
  6
CONTINUOUS
 62
     7
100
AcDbLine
 10
556.0
 20
312.020286
 30
0.0
 11
598.0
 21
312.020286
 31
0.0
  0
LINE
  5
142
100
AcDbEntity
  8
LAY-1
  6
CONTINUOUS
 62
     7
100
AcDbLine
 10
640.0
 20
312.020286
 30
0.0
 11
598.0
 21
312.020286
 31
0.0
  0
ARC
  5
143
100
AcDbEntity
  8
LAY-1
  6
CONTINUOUS
 62
     7
100
AcDbCircle
 10
598.0
 20
309.020286
 30
0.0
 40
6.0
100
AcDbArc
 50
30.0
 51
150.0
  0
ARC
  5
144
100
AcDbEntity
  8
LAY-1
  6
CONTINUOUS
 62
     7
100
AcDbCircle
 10
611.0
 20
306.020286
 30
0.0
 40
15.5
100
AcDbArc
 50
277.983556
 51
319.82223
  0
ARC
  5
145
100
AcDbEntity
  8
LAY-1
  6
CONTINUOUS
 62
     7
100
AcDbCircle
 10
585.0
 20
306.020286
 30
0.0
 40
15.5
100
AcDbArc
 50
220.17777
 51
262.016444
  0
LINE
  5
146
100
AcDbEntity
  8
LAY-1
  6
CONTINUOUS
 62
     7
100
AcDbLine
 10
640.0
 20
296.020286
 30
0.0
 11
598.0
 21
296.020286
 31
0.0
  0
LINE
  5
147
100
AcDbEntity
  8
LAY-1
  6
CONTINUOUS
 62
     7
100
AcDbLine
 10
556.0
 20
296.020286
 30
0.0
 11
598.0
 21
296.020286
 31
0.0
  0
LINE
  5
148
100
AcDbEntity
  8
LAY-1
  6
CONTINUOUS
 62
     7
100
AcDbLine
 10
598.0
 20
271.520286
 30
0.0
 11
618.207259
 21
271.520286
 31
0.0
  0
LINE
  5
149
100
AcDbEntity
  8
LAY-1
  6
CONTINUOUS
 62
     7
100
AcDbLine
 10
598.0
 20
271.520286
 30
0.0
 11
577.792741
 21
271.520286
 31
0.0
  0
ARC
  5
14A
100
AcDbEntity
  8
LAY-1
  6
CONTINUOUS
 62
     7
100
AcDbCircle
 10
613.155445
 20
270.574907
 30
0.0
 40
8.94538
100
AcDbArc
 50
55.615753
 51
124.384247
  0
ARC
  5
14B
100
AcDbEntity
  8
LAY-1
  6
CONTINUOUS
 62
     7
100
AcDbCircle
 10
598.0
 20
246.083323
 30
0.0
 40
33.436963
100
AcDbArc
 50
72.412046
 51
107.587954
  0
ARC
  5
14C
100
AcDbEntity
  8
LAY-1
  6
CONTINUOUS
 62
     7
100
AcDbCircle
 10
582.844555
 20
270.574907
 30
0.0
 40
8.94538
100
AcDbArc
 50
55.615753
 51
124.384247
  0
LINE
  5
14D
100
AcDbEntity
  8
LAY-1
  6
CONTINUOUS
 62
     7
100
AcDbLine
 10
608.10363
 20
271.520286
 30
0.0
 11
608.10363
 21
277.957249
 31
0.0
  0
LINE
  5
14E
100
AcDbEntity
  8
LAY-1
  6
CONTINUOUS
 62
     7
100
AcDbLine
 10
587.89637
 20
271.520286
 30
0.0
 11
587.89637
 21
277.957249
 31
0.0
  0
LINE
  5
14F
100
AcDbEntity
  8
LAY-1
  6
CONTINUOUS
 62
     7
100
AcDbLine
 10
630.5
 20
215.520286
 30
0.0
 11
630.5
 21
226.520286
 31
0.0
  0
LINE
  5
150
100
AcDbEntity
  8
LAY-1
  6
CONTINUOUS
 62
     7
100
AcDbLine
 10
565.5
 20
215.520286
 30
0.0
 11
565.5
 21
226.520286
 31
0.0
  0
LINE
  5
151
100
AcDbEntity
  8
LAY-1
  6
CONTINUOUS
 62
     7
100
AcDbLine
 10
623.0
 20
246.633535
 30
0.0
 11
623.0
 21
226.520286
 31
0.0
  0
LINE
  5
152
100
AcDbEntity
  8
LAY-1
  6
CONTINUOUS
 62
     7
100
AcDbLine
 10
623.0
 20
226.520286
 30
0.0
 11
630.5
 21
226.520286
 31
0.0
  0
LINE
  5
153
100
AcDbEntity
  8
LAY-1
  6
CONTINUOUS
 62
     7
100
AcDbLine
 10
618.0
 20
249.520286
 30
0.0
 11
623.0
 21
246.633535
 31
0.0
  0
LINE
  5
154
100
AcDbEntity
  8
LAY-1
  6
CONTINUOUS
 62
     7
100
AcDbLine
 10
573.0
 20
246.633535
 30
0.0
 11
573.0
 21
226.520286
 31
0.0
  0
LINE
  5
155
100
AcDbEntity
  8
LAY-1
  6
CONTINUOUS
 62
     7
100
AcDbLine
 10
573.0
 20
226.520286
 30
0.0
 11
565.5
 21
226.520286
 31
0.0
  0
LINE
  5
156
100
AcDbEntity
  8
LAY-1
  6
CONTINUOUS
 62
     7
100
AcDbLine
 10
618.76656
 20
226.520286
 30
0.0
 11
618.76656
 21
246.633535
 31
0.0
  0
LINE
  5
157
100
AcDbEntity
  8
LAY-1
  6
CONTINUOUS
 62
     7
100
AcDbLine
 10
618.76656
 20
246.633535
 30
0.0
 11
598.0
 21
246.633535
 31
0.0
  0
LINE
  5
158
100
AcDbEntity
  8
LAY-1
  6
CONTINUOUS
 62
     7
100
AcDbLine
 10
618.76656
 20
226.520286
 30
0.0
 11
598.0
 21
226.520286
 31
0.0
  0
LINE
  5
159
100
AcDbEntity
  8
LAY-1
  6
CONTINUOUS
 62
     7
100
AcDbLine
 10
577.23344
 20
246.633535
 30
0.0
 11
598.0
 21
246.633535
 31
0.0
  0
LINE
  5
15A
100
AcDbEntity
  8
LAY-1
  6
CONTINUOUS
 62
     7
100
AcDbLine
 10
577.23344
 20
226.520286
 30
0.0
 11
598.0
 21
226.520286
 31
0.0
  0
LINE
  5
15B
100
AcDbEntity
  8
LAY-1
  6
CONTINUOUS
 62
     7
100
AcDbLine
 10
577.23344
 20
226.520286
 30
0.0
 11
577.23344
 21
246.633535
 31
0.0
  0
LINE
  5
15C
100
AcDbEntity
  8
LAY-1
  6
CONTINUOUS
 62
     7
100
AcDbLine
 10
578.0
 20
249.520286
 30
0.0
 11
573.0
 21
246.633535
 31
0.0
  0
LINE
  5
15D
100
AcDbEntity
  8
LAY-1
  6
CONTINUOUS
 62
     7
100
AcDbLine
 10
662.0
 20
157.520286
 30
0.0
 11
662.0
 21
220.020286
 31
0.0
  0
LINE
  5
15E
100
AcDbEntity
  8
LAY-1
  6
CONTINUOUS
 62
     7
100
AcDbLine
 10
662.0
 20
157.520286
 30
0.0
 11
662.0
 21
95.020286
 31
0.0
  0
LINE
  5
15F
100
AcDbEntity
  8
LAY-1
  6
CONTINUOUS
 62
     7
100
AcDbLine
 10
647.0
 20
96.520286
 30
0.0
 11
647.0
 21
157.520286
 31
0.0
  0
LINE
  5
160
100
AcDbEntity
  8
LAY-1
  6
CONTINUOUS
 62
     7
100
AcDbLine
 10
647.0
 20
218.520286
 30
0.0
 11
647.0
 21
157.520286
 31
0.0
  0
LINE
  5
161
100
AcDbEntity
  8
LAY-1
  6
CONTINUOUS
 62
     7
100
AcDbLine
 10
549.0
 20
218.520286
 30
0.0
 11
549.0
 21
157.520286
 31
0.0
  0
LINE
  5
162
100
AcDbEntity
  8
LAY-1
  6
CONTINUOUS
 62
     7
100
AcDbLine
 10
534.0
 20
157.520286
 30
0.0
 11
534.0
 21
220.020286
 31
0.0
  0
LINE
  5
163
100
AcDbEntity
  8
LAY-1
  6
CONTINUOUS
 62
     7
100
AcDbLine
 10
534.0
 20
157.520286
 30
0.0
 11
534.0
 21
95.020286
 31
0.0
  0
LINE
  5
164
100
AcDbEntity
  8
LAY-1
  6
CONTINUOUS
 62
     7
100
AcDbLine
 10
549.0
 20
96.520286
 30
0.0
 11
549.0
 21
157.520286
 31
0.0
  0
LINE
  5
165
100
AcDbEntity
  8
LAY-1
  6
CONTINUOUS
 62
     7
100
AcDbLine
 10
641.623219
 20
183.534503
 30
0.0
 11
641.623219
 21
131.50607
 31
0.0
  0
LINE
  5
166
100
AcDbEntity
  8
LAY-1
  6
CONTINUOUS
 62
     7
100
AcDbLine
 10
554.376781
 20
183.534503
 30
0.0
 11
554.376781
 21
131.50607
 31
0.0
  0
LINE
  5
167
100
AcDbEntity
  8
LAY-1
  6
CONTINUOUS
 62
     7
100
AcDbLine
 10
626.063254
 20
194.861249
 30
0.0
 11
598.0
 21
194.861249
 31
0.0
  0
LINE
  5
168
100
AcDbEntity
  8
LAY-1
  6
CONTINUOUS
 62
     7
100
AcDbLine
 10
624.463254
 20
193.161249
 30
0.0
 11
598.0
 21
193.161249
 31
0.0
  0
LINE
  5
169
100
AcDbEntity
  8
LAY-1
  6
CONTINUOUS
 62
     7
100
AcDbLine
 10
626.763254
 20
101.061249
 30
0.0
 11
598.0
 21
101.061249
 31
0.0
  0
LINE
  5
16A
100
AcDbEntity
  8
LAY-1
  6
CONTINUOUS
 62
     7
100
AcDbLine
 10
628.263254
 20
99.261249
 30
0.0
 11
598.0
 21
99.261249
 31
0.0
  0
LINE
  5
16B
100
AcDbEntity
  8
LAY-1
  6
CONTINUOUS
 62
     7
100
AcDbLine
 10
567.736746
 20
99.261249
 30
0.0
 11
598.0
 21
99.261249
 31
0.0
  0
LINE
  5
16C
100
AcDbEntity
  8
LAY-1
  6
CONTINUOUS
 62
     7
100
AcDbLine
 10
569.236746
 20
101.061249
 30
0.0
 11
598.0
 21
101.061249
 31
0.0
  0
LINE
  5
16D
100
AcDbEntity
  8
LAY-1
  6
CONTINUOUS
 62
     7
100
AcDbLine
 10
571.536746
 20
193.161249
 30
0.0
 11
598.0
 21
193.161249
 31
0.0
  0
LINE
  5
16E
100
AcDbEntity
  8
LAY-1
  6
CONTINUOUS
 62
     7
100
AcDbLine
 10
569.936746
 20
194.861249
 30
0.0
 11
598.0
 21
194.861249
 31
0.0
  0
LINE
  5
16F
100
AcDbEntity
  8
LAY-1
  6
CONTINUOUS
 62
     7
100
AcDbLine
 10
580.0
 20
170.020286
 30
0.0
 11
580.0
 21
145.020286
 31
0.0
  0
LINE
  5
170
100
AcDbEntity
  8
LAY-1
  6
CONTINUOUS
 62
     7
100
AcDbLine
 10
616.0
 20
170.020286
 30
0.0
 11
616.0
 21
145.020286
 31
0.0
  0
LINE
  5
171
100
AcDbEntity
  8
LAY-1
  6
CONTINUOUS
 62
     7
100
AcDbLine
 10
616.0
 20
145.020286
 30
0.0
 11
580.0
 21
145.020286
 31
0.0
  0
LINE
  5
172
100
AcDbEntity
  8
LAY-1
  6
CONTINUOUS
 62
     7
100
AcDbLine
 10
616.0
 20
170.020286
 30
0.0
 11
580.0
 21
170.020286
 31
0.0
  0
LINE
  5
173
100
AcDbEntity
  8
LAY-1
  6
CONTINUOUS
 62
     7
100
AcDbLine
 10
614.0
 20
149.020286
 30
0.0
 11
610.2
 21
146.020286
 31
0.0
  0
LINE
  5
174
100
AcDbEntity
  8
LAY-1
  6
CONTINUOUS
 62
     7
100
AcDbLine
 10
610.2
 20
146.020286
 30
0.0
 11
610.2
 21
148.020286
 31
0.0
  0
LINE
  5
175
100
AcDbEntity
  8
LAY-1
  6
CONTINUOUS
 62
     7
100
AcDbLine
 10
591.4
 20
148.020286
 30
0.0
 11
590.245299
 21
146.020286
 31
0.0
  0
LINE
  5
176
100
AcDbEntity
  8
LAY-1
  6
CONTINUOUS
 62
     7
100
AcDbLine
 10
610.2
 20
148.020286
 30
0.0
 11
591.4
 21
148.020286
 31
0.0
  0
LINE
  5
177
100
AcDbEntity
  8
LAY-1
  6
CONTINUOUS
 62
     7
100
AcDbLine
 10
583.732051
 20
149.020286
 30
0.0
 11
582.0
 21
146.020286
 31
0.0
  0
LINE
  5
178
100
AcDbEntity
  8
LAY-1
  6
CONTINUOUS
 62
     7
100
AcDbLine
 10
614.0
 20
149.020286
 30
0.0
 11
583.732051
 21
149.020286
 31
0.0
  0
LINE
  5
179
100
AcDbEntity
  8
LAY-1
  6
CONTINUOUS
 62
     7
100
AcDbLine
 10
590.245299
 20
146.020286
 30
0.0
 11
582.0
 21
146.020286
 31
0.0
  0
LINE
  5
17A
100
AcDbEntity
  8
LAY-1
  6
CONTINUOUS
 62
     7
100
AcDbLine
 10
606.263254
 20
69.520456
 30
0.0
 11
606.263254
 21
58.842173
 31
0.0
  0
LINE
  5
17B
100
AcDbEntity
  8
LAY-1
  6
CONTINUOUS
 62
     7
100
AcDbLine
 10
589.736746
 20
69.520456
 30
0.0
 11
589.736746
 21
58.842173
 31
0.0
  0
ARC
  5
17C
100
AcDbEntity
  8
LAY-1
  6
CONTINUOUS
 62
     7
100
AcDbCircle
 10
585.494114
 20
65.120831
 30
0.0
 40
7.577696
100
AcDbArc
 50
236.032313
 51
304.047792
  0
ARC
  5
17D
100
AcDbEntity
  8
LAY-1
  6
CONTINUOUS
 62
     7
100
AcDbCircle
 10
598.0
 20
84.474161
 30
0.0
 40
26.931027
100
AcDbArc
 50
252.13169
 51
287.86831
  0
ARC
  5
17E
100
AcDbEntity
  8
LAY-1
  6
CONTINUOUS
 62
     7
100
AcDbCircle
 10
610.503206
 20
65.112079
 30
0.0
 40
7.568944
100
AcDbArc
 50
235.931927
 51
304.068073
  0
LINE
  5
17F
100
AcDbEntity
  8
LAY-1
  6
CONTINUOUS
 62
     7
100
AcDbLine
 10
629.063254
 20
73.661249
 30
0.0
 11
598.0
 21
73.661249
 31
0.0
  0
LINE
  5
180
100
AcDbEntity
  8
LAY-1
  6
CONTINUOUS
 62
     7
100
AcDbLine
 10
566.936746
 20
73.661249
 30
0.0
 11
598.0
 21
73.661249
 31
0.0
  0
ARC
  5
181
100
AcDbEntity
  8
LAY-1
  6
CONTINUOUS
 62
     7
100
AcDbCircle
 10
642.0
 20
493.461249
 30
0.0
 40
5.0
100
AcDbArc
 50
265.678312
 51
0.0
  0
LINE
  5
182
100
AcDbEntity
  8
LAY-1
  6
CONTINUOUS
 62
     7
100
AcDbLine
 10
663.0
 20
462.461249
 30
0.0
 11
663.0
 21
497.461249
 31
0.0
  0
ARC
  5
183
100
AcDbEntity
  8
LAY-1
  6
CONTINUOUS
 62
     7
100
AcDbCircle
 10
642.0
 20
431.461249
 30
0.0
 40
5.0
100
AcDbArc
 50
0.0
 51
94.321688
  0
LINE
  5
184
100
AcDbEntity
  8
LAY-1
  6
CONTINUOUS
 62
     7
100
AcDbLine
 10
663.0
 20
462.461249
 30
0.0
 11
663.0
 21
427.461249
 31
0.0
  0
ARC
  5
185
100
AcDbEntity
  8
LAY-1
  6
CONTINUOUS
 62
     7
100
AcDbCircle
 10
663.0
 20
426.461249
 30
0.0
 40
1.0
100
AcDbArc
 50
90.0
 51
180.0
  0
LINE
  5
186
100
AcDbEntity
  8
LAY-1
  6
CONTINUOUS
 62
     7
100
AcDbLine
 10
662.0
 20
524.961249
 30
0.0
 11
648.5
 21
524.961249
 31
0.0
  0
LINE
  5
187
100
AcDbEntity
  8
LAY-1
  6
CONTINUOUS
 62
     7
100
AcDbLine
 10
662.0
 20
399.961249
 30
0.0
 11
648.5
 21
399.961249
 31
0.0
  0
ARC
  5
188
100
AcDbEntity
  8
LAY-1
  6
CONTINUOUS
 62
     7
100
AcDbCircle
 10
663.0
 20
498.461249
 30
0.0
 40
1.0
100
AcDbArc
 50
180.0
 51
270.0
  0
ARC
  5
189
100
AcDbEntity
  8
LAY-1
  6
CONTINUOUS
 62
     7
100
AcDbCircle
 10
648.5
 20
523.461249
 30
0.0
 40
1.5
100
AcDbArc
 50
90.0
 51
180.0
  0
ARC
  5
18A
100
AcDbEntity
  8
LAY-1
  6
CONTINUOUS
 62
     7
100
AcDbCircle
 10
648.5
 20
401.461249
 30
0.0
 40
1.5
100
AcDbArc
 50
180.0
 51
270.0
  0
LINE
  5
18B
100
AcDbEntity
  8
LAY-1
  6
CONTINUOUS
 62
     7
100
AcDbLine
 10
662.0
 20
462.461249
 30
0.0
 11
662.0
 21
524.961249
 31
0.0
  0
LINE
  5
18C
100
AcDbEntity
  8
LAY-1
  6
CONTINUOUS
 62
     7
100
AcDbLine
 10
662.0
 20
462.461249
 30
0.0
 11
662.0
 21
399.961249
 31
0.0
  0
ARC
  5
18D
100
AcDbEntity
  8
LAY-1
  6
CONTINUOUS
 62
     7
100
AcDbCircle
 10
554.0
 20
493.461249
 30
0.0
 40
5.0
100
AcDbArc
 50
180.0
 51
274.321688
  0
LINE
  5
18E
100
AcDbEntity
  8
LAY-1
  6
CONTINUOUS
 62
     7
100
AcDbLine
 10
533.0
 20
462.461249
 30
0.0
 11
533.0
 21
497.461249
 31
0.0
  0
ARC
  5
18F
100
AcDbEntity
  8
LAY-1
  6
CONTINUOUS
 62
     7
100
AcDbCircle
 10
554.0
 20
431.461249
 30
0.0
 40
5.0
100
AcDbArc
 50
85.678312
 51
180.0
  0
LINE
  5
190
100
AcDbEntity
  8
LAY-1
  6
CONTINUOUS
 62
     7
100
AcDbLine
 10
533.0
 20
462.461249
 30
0.0
 11
533.0
 21
427.461249
 31
0.0
  0
ARC
  5
191
100
AcDbEntity
  8
LAY-1
  6
CONTINUOUS
 62
     7
100
AcDbCircle
 10
533.0
 20
426.461249
 30
0.0
 40
1.0
100
AcDbArc
 50
0.0
 51
90.0
  0
LINE
  5
192
100
AcDbEntity
  8
LAY-1
  6
CONTINUOUS
 62
     7
100
AcDbLine
 10
534.0
 20
524.961249
 30
0.0
 11
547.5
 21
524.961249
 31
0.0
  0
LINE
  5
193
100
AcDbEntity
  8
LAY-1
  6
CONTINUOUS
 62
     7
100
AcDbLine
 10
534.0
 20
399.961249
 30
0.0
 11
547.5
 21
399.961249
 31
0.0
  0
ARC
  5
194
100
AcDbEntity
  8
LAY-1
  6
CONTINUOUS
 62
     7
100
AcDbCircle
 10
533.0
 20
498.461249
 30
0.0
 40
1.0
100
AcDbArc
 50
270.0
 51
0.0
  0
ARC
  5
195
100
AcDbEntity
  8
LAY-1
  6
CONTINUOUS
 62
     7
100
AcDbCircle
 10
547.5
 20
523.461249
 30
0.0
 40
1.5
100
AcDbArc
 50
0.0
 51
90.0
  0
ARC
  5
196
100
AcDbEntity
  8
LAY-1
  6
CONTINUOUS
 62
     7
100
AcDbCircle
 10
547.5
 20
401.461249
 30
0.0
 40
1.5
100
AcDbArc
 50
270.0
 51
0.0
  0
LINE
  5
197
100
AcDbEntity
  8
LAY-1
  6
CONTINUOUS
 62
     7
100
AcDbLine
 10
534.0
 20
462.461249
 30
0.0
 11
534.0
 21
524.961249
 31
0.0
  0
LINE
  5
198
100
AcDbEntity
  8
LAY-1
  6
CONTINUOUS
 62
     7
100
AcDbLine
 10
534.0
 20
462.461249
 30
0.0
 11
534.0
 21
399.961249
 31
0.0
  0
CIRCLE
  5
199
100
AcDbEntity
  8
LAY-1
  6
CONTINUOUS
 62
     7
100
AcDbCircle
 10
598.0
 20
462.461249
 30
0.0
 40
13.0
  0
CIRCLE
  5
19A
100
AcDbEntity
  8
LAY-1
  6
CONTINUOUS
 62
     7
100
AcDbCircle
 10
598.0
 20
462.461249
 30
0.0
 40
34.0
  0
ARC
  5
19B
100
AcDbEntity
  8
LAY-1
  6
CONTINUOUS
 62
     7
100
AcDbCircle
 10
704.365332
 20
418.403286
 30
0.0
 40
70.0
100
AcDbArc
 50
145.608424
 51
169.391576
  0
ARC
  5
19C
100
AcDbEntity
  8
LAY-1
  6
CONTINUOUS
 62
     7
100
AcDbCircle
 10
491.634668
 20
418.403286
 30
0.0
 40
70.0
100
AcDbArc
 50
10.608424
 51
34.391576
  0
ARC
  5
19D
100
AcDbEntity
  8
LAY-1
  6
CONTINUOUS
 62
     7
100
AcDbCircle
 10
642.057963
 20
356.095917
 30
0.0
 40
70.0
100
AcDbArc
 50
100.608424
 51
124.391576
  0
ARC
  5
19E
100
AcDbEntity
  8
LAY-1
  6
CONTINUOUS
 62
     7
100
AcDbCircle
 10
553.942037
 20
356.095917
 30
0.0
 40
70.0
100
AcDbArc
 50
55.608424
 51
79.391576
  0
ARC
  5
19F
100
AcDbEntity
  8
LAY-1
  6
CONTINUOUS
 62
     7
100
AcDbCircle
 10
627.698485
 20
432.762764
 30
0.0
 40
8.0
100
AcDbArc
 50
280.608424
 51
349.391576
  0
ARC
  5
1A0
100
AcDbEntity
  8
LAY-1
  6
CONTINUOUS
 62
     7
100
AcDbCircle
 10
598.0
 20
420.461249
 30
0.0
 40
8.0
100
AcDbArc
 50
235.608424
 51
304.391576
  0
ARC
  5
1A1
100
AcDbEntity
  8
LAY-1
  6
CONTINUOUS
 62
     7
100
AcDbCircle
 10
568.301515
 20
432.762764
 30
0.0
 40
8.0
100
AcDbArc
 50
190.608424
 51
259.391576
  0
ARC
  5
1A2
100
AcDbEntity
  8
LAY-1
  6
CONTINUOUS
 62
     7
100
AcDbCircle
 10
587.563429
 20
450.333677
 30
0.0
 40
3.0
100
AcDbArc
 50
2.516377
 51
49.285846
  0
ARC
  5
1A3
100
AcDbEntity
  8
LAY-1
  6
CONTINUOUS
 62
     7
100
AcDbCircle
 10
608.436571
 20
450.333677
 30
0.0
 40
3.0
100
AcDbArc
 50
130.714154
 51
177.483623
  0
ARC
  5
1A4
100
AcDbEntity
  8
LAY-1
  6
CONTINUOUS
 62
     7
100
AcDbCircle
 10
607.675231
 20
433.009765
 30
0.0
 40
3.0
100
AcDbArc
 50
177.483623
 51
288.186087
  0
ARC
  5
1A5
100
AcDbEntity
  8
LAY-1
  6
CONTINUOUS
 62
     7
100
AcDbCircle
 10
588.324769
 20
433.009765
 30
0.0
 40
3.0
100
AcDbArc
 50
251.813913
 51
2.516377
  0
LINE
  5
1A6
100
AcDbEntity
  8
LAY-1
  6
CONTINUOUS
 62
     7
100
AcDbLine
 10
591.321876
 20
433.141479
 30
0.0
 11
590.560536
 21
450.465392
 31
0.0
  0
LINE
  5
1A7
100
AcDbEntity
  8
LAY-1
  6
CONTINUOUS
 62
     7
100
AcDbLine
 10
604.678124
 20
433.141479
 30
0.0
 11
605.439464
 21
450.465392
 31
0.0
  0
ARC
  5
1A8
100
AcDbEntity
  8
LAY-1
  6
CONTINUOUS
 62
     7
100
AcDbCircle
 10
610.127572
 20
452.024678
 30
0.0
 40
3.0
100
AcDbArc
 50
92.516377
 51
139.285846
  0
ARC
  5
1A9
100
AcDbEntity
  8
LAY-1
  6
CONTINUOUS
 62
     7
100
AcDbCircle
 10
610.127572
 20
472.897819
 30
0.0
 40
3.0
100
AcDbArc
 50
220.714154
 51
267.483623
  0
ARC
  5
1AA
100
AcDbEntity
  8
LAY-1
  6
CONTINUOUS
 62
     7
100
AcDbCircle
 10
627.451484
 20
472.13648
 30
0.0
 40
3.0
100
AcDbArc
 50
267.483623
 51
18.186087
  0
ARC
  5
1AB
100
AcDbEntity
  8
LAY-1
  6
CONTINUOUS
 62
     7
100
AcDbCircle
 10
627.451484
 20
452.786017
 30
0.0
 40
3.0
100
AcDbArc
 50
341.813913
 51
92.516377
  0
LINE
  5
1AC
100
AcDbEntity
  8
LAY-1
  6
CONTINUOUS
 62
     7
100
AcDbLine
 10
627.319769
 20
469.139372
 30
0.0
 11
609.995857
 21
469.900712
 31
0.0
  0
ARC
  5
1AD
100
AcDbEntity
  8
LAY-1
  6
CONTINUOUS
 62
     7
100
AcDbCircle
 10
608.436571
 20
474.58882
 30
0.0
 40
3.0
100
AcDbArc
 50
182.516377
 51
229.285846
  0
ARC
  5
1AE
100
AcDbEntity
  8
LAY-1
  6
CONTINUOUS
 62
     7
100
AcDbCircle
 10
587.563429
 20
474.58882
 30
0.0
 40
3.0
100
AcDbArc
 50
310.714154
 51
357.483623
  0
ARC
  5
1AF
100
AcDbEntity
  8
LAY-1
  6
CONTINUOUS
 62
     7
100
AcDbCircle
 10
588.324769
 20
491.912732
 30
0.0
 40
3.0
100
AcDbArc
 50
357.483623
 51
108.186087
  0
ARC
  5
1B0
100
AcDbEntity
  8
LAY-1
  6
CONTINUOUS
 62
     7
100
AcDbCircle
 10
607.675231
 20
491.912732
 30
0.0
 40
3.0
100
AcDbArc
 50
71.813913
 51
182.516377
  0
LINE
  5
1B1
100
AcDbEntity
  8
LAY-1
  6
CONTINUOUS
 62
     7
100
AcDbLine
 10
604.678124
 20
491.781018
 30
0.0
 11
605.439464
 21
474.457105
 31
0.0
  0
LINE
  5
1B2
100
AcDbEntity
  8
LAY-1
  6
CONTINUOUS
 62
     7
100
AcDbLine
 10
591.321876
 20
491.781018
 30
0.0
 11
590.560536
 21
474.457105
 31
0.0
  0
ARC
  5
1B3
100
AcDbEntity
  8
LAY-1
  6
CONTINUOUS
 62
     7
100
AcDbCircle
 10
585.872428
 20
472.897819
 30
0.0
 40
3.0
100
AcDbArc
 50
272.516377
 51
319.285846
  0
ARC
  5
1B4
100
AcDbEntity
  8
LAY-1
  6
CONTINUOUS
 62
     7
100
AcDbCircle
 10
585.872428
 20
452.024678
 30
0.0
 40
3.0
100
AcDbArc
 50
40.714154
 51
87.483623
  0
ARC
  5
1B5
100
AcDbEntity
  8
LAY-1
  6
CONTINUOUS
 62
     7
100
AcDbCircle
 10
568.548516
 20
452.786017
 30
0.0
 40
3.0
100
AcDbArc
 50
87.483623
 51
198.186087
  0
ARC
  5
1B6
100
AcDbEntity
  8
LAY-1
  6
CONTINUOUS
 62
     7
100
AcDbCircle
 10
568.548516
 20
472.13648
 30
0.0
 40
3.0
100
AcDbArc
 50
161.813913
 51
272.516377
  0
LINE
  5
1B7
100
AcDbEntity
  8
LAY-1
  6
CONTINUOUS
 62
     7
100
AcDbLine
 10
568.680231
 20
469.139372
 30
0.0
 11
586.004143
 21
469.900712
 31
0.0
  0
LINE
  5
1B8
100
AcDbEntity
  8
LAY-1
  6
CONTINUOUS
 62
     7
100
AcDbLine
 10
568.680231
 20
455.783125
 30
0.0
 11
586.004143
 21
455.021785
 31
0.0
  0
LINE
  5
1B9
100
AcDbEntity
  8
LAY-1
  6
CONTINUOUS
 62
     7
100
AcDbLine
 10
627.319769
 20
455.783125
 30
0.0
 11
609.995857
 21
455.021785
 31
0.0
  0
ARC
  5
1BA
100
AcDbEntity
  8
LAY-1
  6
CONTINUOUS
 62
     7
100
AcDbCircle
 10
640.0
 20
462.461249
 30
0.0
 40
8.0
100
AcDbArc
 50
325.608424
 51
0.0
  0
ARC
  5
1BB
100
AcDbEntity
  8
LAY-1
  6
CONTINUOUS
 62
     7
100
AcDbCircle
 10
640.0
 20
462.461249
 30
0.0
 40
8.0
100
AcDbArc
 50
0.0
 51
34.391576
  0
ARC
  5
1BC
100
AcDbEntity
  8
LAY-1
  6
CONTINUOUS
 62
     7
100
AcDbCircle
 10
704.365332
 20
506.519211
 30
0.0
 40
70.0
100
AcDbArc
 50
190.608424
 51
214.391576
  0
ARC
  5
1BD
100
AcDbEntity
  8
LAY-1
  6
CONTINUOUS
 62
     7
100
AcDbCircle
 10
627.698485
 20
492.159733
 30
0.0
 40
8.0
100
AcDbArc
 50
10.608424
 51
79.391576
  0
ARC
  5
1BE
100
AcDbEntity
  8
LAY-1
  6
CONTINUOUS
 62
     7
100
AcDbCircle
 10
642.057963
 20
568.82658
 30
0.0
 40
70.0
100
AcDbArc
 50
235.608424
 51
259.391576
  0
ARC
  5
1BF
100
AcDbEntity
  8
LAY-1
  6
CONTINUOUS
 62
     7
100
AcDbCircle
 10
598.0
 20
504.461249
 30
0.0
 40
8.0
100
AcDbArc
 50
55.608424
 51
124.391576
  0
ARC
  5
1C0
100
AcDbEntity
  8
LAY-1
  6
CONTINUOUS
 62
     7
100
AcDbCircle
 10
553.942037
 20
568.82658
 30
0.0
 40
70.0
100
AcDbArc
 50
280.608424
 51
304.391576
  0
ARC
  5
1C1
100
AcDbEntity
  8
LAY-1
  6
CONTINUOUS
 62
     7
100
AcDbCircle
 10
568.301515
 20
492.159733
 30
0.0
 40
8.0
100
AcDbArc
 50
100.608424
 51
169.391576
  0
ARC
  5
1C2
100
AcDbEntity
  8
LAY-1
  6
CONTINUOUS
 62
     7
100
AcDbCircle
 10
491.634668
 20
506.519211
 30
0.0
 40
70.0
100
AcDbArc
 50
325.608424
 51
349.391576
  0
LINE
  5
1C3
100
AcDbEntity
  8
LAY-1
  6
CONTINUOUS
 62
     7
100
AcDbLine
 10
613.12982
 20
498.987865
 30
0.0
 11
610.410279
 21
500.861249
 31
0.0
  0
LINE
  5
1C4
100
AcDbEntity
  8
LAY-1
  6
CONTINUOUS
 62
     7
100
AcDbLine
 10
582.87018
 20
498.987865
 30
0.0
 11
585.589721
 21
500.861249
 31
0.0
  0
ARC
  5
1C5
100
AcDbEntity
  8
LAY-1
  6
CONTINUOUS
 62
     7
100
AcDbCircle
 10
598.0
 20
462.461249
 30
0.0
 40
39.536125
100
AcDbArc
 50
67.5
 51
112.5
  0
POLYLINE
  5
1C6
100
AcDbEntity
  8
LAY-1
  6
CONTINUOUS
 62
     7
100
AcDb2dPolyline
 66
     1
 10
0.0
 20
0.0
 30
0.0
 70
   128
  0
VERTEX
  5
1C7
100
AcDbEntity
  8
LAY-1
  6
CONTINUOUS
 62
     7
100
AcDbVertex
100
AcDb2dVertex
 10
606.082904
 20
462.461249
 30
0.0
  0
VERTEX
  5
1C8
100
AcDbEntity
  8
LAY-1
  6
CONTINUOUS
 62
     7
100
AcDbVertex
100
AcDb2dVertex
 10
602.041452
 20
469.461249
 30
0.0
  0
VERTEX
  5
1C9
100
AcDbEntity
  8
LAY-1
  6
CONTINUOUS
 62
     7
100
AcDbVertex
100
AcDb2dVertex
 10
593.958548
 20
469.461249
 30
0.0
  0
VERTEX
  5
1CA
100
AcDbEntity
  8
LAY-1
  6
CONTINUOUS
 62
     7
100
AcDbVertex
100
AcDb2dVertex
 10
589.917096
 20
462.461249
 30
0.0
  0
VERTEX
  5
1CB
100
AcDbEntity
  8
LAY-1
  6
CONTINUOUS
 62
     7
100
AcDbVertex
100
AcDb2dVertex
 10
593.958548
 20
455.461249
 30
0.0
  0
VERTEX
  5
1CC
100
AcDbEntity
  8
LAY-1
  6
CONTINUOUS
 62
     7
100
AcDbVertex
100
AcDb2dVertex
 10
602.041452
 20
455.461249
 30
0.0
  0
VERTEX
  5
1CD
100
AcDbEntity
  8
LAY-1
  6
CONTINUOUS
 62
     7
100
AcDbVertex
100
AcDb2dVertex
 10
606.082904
 20
462.461249
 30
0.0
  0
SEQEND
  5
1CE
100
AcDbEntity
  8
LAY-1
  6
CONTINUOUS
 62
     7
  0
CIRCLE
  5
1CF
100
AcDbEntity
  8
LAY-1
  6
CONTINUOUS
 62
     7
100
AcDbCircle
 10
598.0
 20
462.461249
 30
0.0
 40
7.0
  0
CIRCLE
  5
1D0
100
AcDbEntity
  8
LAY-1
  6
CONTINUOUS
 62
     7
100
AcDbCircle
 10
598.0
 20
462.461249
 30
0.0
 40
5.91608
  0
ARC
  5
1D1
100
AcDbEntity
  8
LAY-1
  6
CONTINUOUS
 62
     7
100
AcDbCircle
 10
598.0
 20
438.461249
 30
0.0
 40
58.0
100
AcDbArc
 50
89.999999
 51
90.0
  0
ARC
  5
1D2
100
AcDbEntity
  8
LAY-1
  6
CONTINUOUS
 62
     7
100
AcDbCircle
 10
598.0
 20
486.461249
 30
0.0
 40
58.0
100
AcDbArc
 50
270.0
 51
270.000001
  0
ARC
  5
1D3
100
AcDbEntity
  8
LAY-1
  6
CONTINUOUS
 62
     7
100
AcDbCircle
 10
556.0
 20
462.461249
 30
0.0
 40
8.0
100
AcDbArc
 50
145.608424
 51
180.0
  0
ARC
  5
1D4
100
AcDbEntity
  8
LAY-1
  6
CONTINUOUS
 62
     7
100
AcDbCircle
 10
556.0
 20
462.461249
 30
0.0
 40
8.0
100
AcDbArc
 50
180.0
 51
214.391576
  0
ARC
  5
1D5
100
AcDbEntity
  8
LAY-1
  6
CONTINUOUS
 62
     7
100
AcDbCircle
 10
636.899884
 20
493.641712
 30
0.0
 40
7.0
100
AcDbArc
 50
272.820877
 51
312.435683
  0
ARC
  5
1D6
100
AcDbEntity
  8
LAY-1
  6
CONTINUOUS
 62
     7
100
AcDbCircle
 10
636.899884
 20
431.280785
 30
0.0
 40
7.0
100
AcDbArc
 50
47.564317
 51
87.179123
  0
ARC
  5
1D7
100
AcDbEntity
  8
LAY-1
  6
CONTINUOUS
 62
     7
100
AcDbCircle
 10
559.100116
 20
431.280785
 30
0.0
 40
7.0
100
AcDbArc
 50
92.820877
 51
132.435683
  0
ARC
  5
1D8
100
AcDbEntity
  8
LAY-1
  6
CONTINUOUS
 62
     7
100
AcDbCircle
 10
559.100116
 20
493.641712
 30
0.0
 40
7.0
100
AcDbArc
 50
227.564317
 51
267.179123
  0
LINE
  5
1D9
100
AcDbEntity
  8
LAY-1
  6
CONTINUOUS
 62
     7
100
AcDbLine
 10
641.623219
 20
488.475465
 30
0.0
 11
641.623219
 21
475.480086
 31
0.0
  0
LINE
  5
1DA
100
AcDbEntity
  8
LAY-1
  6
CONTINUOUS
 62
     7
100
AcDbLine
 10
641.623219
 20
449.442411
 30
0.0
 11
641.623219
 21
436.447032
 31
0.0
  0
LINE
  5
1DB
100
AcDbEntity
  8
LAY-1
  6
CONTINUOUS
 62
     7
100
AcDbLine
 10
647.0
 20
401.461249
 30
0.0
 11
647.0
 21
458.588265
 31
0.0
  0
LINE
  5
1DC
100
AcDbEntity
  8
LAY-1
  6
CONTINUOUS
 62
     7
100
AcDbLine
 10
647.0
 20
523.461249
 30
0.0
 11
647.0
 21
466.334232
 31
0.0
  0
LINE
  5
1DD
100
AcDbEntity
  8
LAY-1
  6
CONTINUOUS
 62
     7
100
AcDbLine
 10
554.376781
 20
488.475465
 30
0.0
 11
554.376781
 21
475.480086
 31
0.0
  0
LINE
  5
1DE
100
AcDbEntity
  8
LAY-1
  6
CONTINUOUS
 62
     7
100
AcDbLine
 10
554.376781
 20
449.442411
 30
0.0
 11
554.376781
 21
436.447032
 31
0.0
  0
LINE
  5
1DF
100
AcDbEntity
  8
LAY-1
  6
CONTINUOUS
 62
     7
100
AcDbLine
 10
549.0
 20
401.461249
 30
0.0
 11
549.0
 21
458.588265
 31
0.0
  0
LINE
  5
1E0
100
AcDbEntity
  8
LAY-1
  6
CONTINUOUS
 62
     7
100
AcDbLine
 10
549.0
 20
523.461249
 30
0.0
 11
549.0
 21
466.334232
 31
0.0
  0
LINE
  5
1E1
100
AcDbEntity
  8
LAY-1
  6
CONTINUOUS
 62
     7
100
AcDbLine
 10
566.0
 20
846.879362
 30
0.0
 11
566.0
 21
851.379362
 31
0.0
  0
LINE
  5
1E2
100
AcDbEntity
  8
LAY-1
  6
CONTINUOUS
 62
     7
100
AcDbLine
 10
630.0
 20
851.379362
 30
0.0
 11
630.0
 21
846.87823
 31
0.0
  0
LINE
  5
1E3
100
AcDbEntity
  8
LAY-1
  6
CONTINUOUS
 62
     7
100
AcDbLine
 10
630.0
 20
846.87823
 30
0.0
 11
629.500157
 21
846.378386
 31
0.0
  0
ARC
  5
1E4
100
AcDbEntity
  8
LAY-1
  6
CONTINUOUS
 62
     7
100
AcDbCircle
 10
615.75
 20
855.844405
 30
0.0
 40
1.0
100
AcDbArc
 50
180.0
 51
260.0
  0
LINE
  5
1E5
100
AcDbEntity
  8
LAY-1
  6
CONTINUOUS
 62
     7
100
AcDbLine
 10
580.423648
 20
854.859597
 30
0.0
 11
568.305407
 21
852.722824
 31
0.0
  0
ARC
  5
1E6
100
AcDbEntity
  8
LAY-1
  6
CONTINUOUS
 62
     7
100
AcDbCircle
 10
627.0
 20
848.783593
 30
0.0
 40
4.0
100
AcDbArc
 50
40.461909
 51
80.0
  0
LINE
  5
1E7
100
AcDbEntity
  8
LAY-1
  6
CONTINUOUS
 62
     7
100
AcDbLine
 10
581.25
 20
866.080324
 30
0.0
 11
581.25
 21
855.655345
 31
0.0
  0
LINE
  5
1E8
100
AcDbEntity
  8
LAY-1
  6
CONTINUOUS
 62
     7
100
AcDbLine
 10
583.5
 20
867.379362
 30
0.0
 11
581.25
 21
866.080324
 31
0.0
  0
LINE
  5
1E9
100
AcDbEntity
  8
LAY-1
  6
CONTINUOUS
 62
     7
100
AcDbLine
 10
615.576352
 20
854.859597
 30
0.0
 11
627.694593
 21
852.722824
 31
0.0
  0
LINE
  5
1EA
100
AcDbEntity
  8
LAY-1
  6
CONTINUOUS
 62
     7
100
AcDbLine
 10
612.5
 20
867.379362
 30
0.0
 11
614.75
 21
866.080324
 31
0.0
  0
LINE
  5
1EB
100
AcDbEntity
  8
LAY-1
  6
CONTINUOUS
 62
     7
100
AcDbLine
 10
614.75
 20
866.080324
 30
0.0
 11
614.75
 21
855.844405
 31
0.0
  0
ARC
  5
1EC
100
AcDbEntity
  8
LAY-1
  6
CONTINUOUS
 62
     7
100
AcDbCircle
 10
580.25
 20
855.844405
 30
0.0
 40
1.0
100
AcDbArc
 50
280.0
 51
0.0
  0
ARC
  5
1ED
100
AcDbEntity
  8
LAY-1
  6
CONTINUOUS
 62
     7
100
AcDbCircle
 10
569.0
 20
848.783593
 30
0.0
 40
4.0
100
AcDbArc
 50
100.0
 51
139.131789
  0
ARC
  5
1EE
100
AcDbEntity
  8
LAY-1
  6
CONTINUOUS
 62
     7
100
AcDbCircle
 10
554.0
 20
736.402211
 30
0.0
 40
5.0
100
AcDbArc
 50
85.678312
 51
180.0
  0
LINE
  5
1EF
100
AcDbEntity
  8
LAY-1
  6
CONTINUOUS
 62
     7
100
AcDbLine
 10
533.0
 20
767.402211
 30
0.0
 11
533.0
 21
732.402211
 31
0.0
  0
ARC
  5
1F0
100
AcDbEntity
  8
LAY-1
  6
CONTINUOUS
 62
     7
100
AcDbCircle
 10
554.0
 20
798.402211
 30
0.0
 40
5.0
100
AcDbArc
 50
180.0
 51
274.321688
  0
LINE
  5
1F1
100
AcDbEntity
  8
LAY-1
  6
CONTINUOUS
 62
     7
100
AcDbLine
 10
533.0
 20
767.402211
 30
0.0
 11
533.0
 21
802.402211
 31
0.0
  0
ARC
  5
1F2
100
AcDbEntity
  8
LAY-1
  6
CONTINUOUS
 62
     7
100
AcDbCircle
 10
533.0
 20
803.402211
 30
0.0
 40
1.0
100
AcDbArc
 50
270.0
 51
0.0
  0
LINE
  5
1F3
100
AcDbEntity
  8
LAY-1
  6
CONTINUOUS
 62
     7
100
AcDbLine
 10
534.0
 20
704.902211
 30
0.0
 11
547.5
 21
704.902211
 31
0.0
  0
LINE
  5
1F4
100
AcDbEntity
  8
LAY-1
  6
CONTINUOUS
 62
     7
100
AcDbLine
 10
534.0
 20
829.902211
 30
0.0
 11
547.5
 21
829.902211
 31
0.0
  0
ARC
  5
1F5
100
AcDbEntity
  8
LAY-1
  6
CONTINUOUS
 62
     7
100
AcDbCircle
 10
533.0
 20
731.402211
 30
0.0
 40
1.0
100
AcDbArc
 50
0.0
 51
90.0
  0
ARC
  5
1F6
100
AcDbEntity
  8
LAY-1
  6
CONTINUOUS
 62
     7
100
AcDbCircle
 10
642.0
 20
736.402211
 30
0.0
 40
5.0
100
AcDbArc
 50
0.0
 51
94.321688
  0
LINE
  5
1F7
100
AcDbEntity
  8
LAY-1
  6
CONTINUOUS
 62
     7
100
AcDbLine
 10
663.0
 20
767.402211
 30
0.0
 11
663.0
 21
732.402211
 31
0.0
  0
ARC
  5
1F8
100
AcDbEntity
  8
LAY-1
  6
CONTINUOUS
 62
     7
100
AcDbCircle
 10
642.0
 20
798.402211
 30
0.0
 40
5.0
100
AcDbArc
 50
265.678312
 51
0.0
  0
LINE
  5
1F9
100
AcDbEntity
  8
LAY-1
  6
CONTINUOUS
 62
     7
100
AcDbLine
 10
663.0
 20
767.402211
 30
0.0
 11
663.0
 21
802.402211
 31
0.0
  0
ARC
  5
1FA
100
AcDbEntity
  8
LAY-1
  6
CONTINUOUS
 62
     7
100
AcDbCircle
 10
629.5
 20
845.902211
 30
0.0
 40
0.5
100
AcDbArc
 50
0.0
 51
90.0
  0
ARC
  5
1FB
100
AcDbEntity
  8
LAY-1
  6
CONTINUOUS
 62
     7
100
AcDbCircle
 10
663.0
 20
803.402211
 30
0.0
 40
1.0
100
AcDbArc
 50
180.0
 51
270.0
  0
ARC
  5
1FC
100
AcDbEntity
  8
LAY-1
  6
CONTINUOUS
 62
     7
100
AcDbCircle
 10
566.5
 20
845.902211
 30
0.0
 40
0.5
100
AcDbArc
 50
90.0
 51
180.0
  0
LINE
  5
1FD
100
AcDbEntity
  8
LAY-1
  6
CONTINUOUS
 62
     7
100
AcDbLine
 10
662.0
 20
704.902211
 30
0.0
 11
648.5
 21
704.902211
 31
0.0
  0
LINE
  5
1FE
100
AcDbEntity
  8
LAY-1
  6
CONTINUOUS
 62
     7
100
AcDbLine
 10
662.0
 20
829.902211
 30
0.0
 11
648.5
 21
829.902211
 31
0.0
  0
ARC
  5
1FF
100
AcDbEntity
  8
LAY-1
  6
CONTINUOUS
 62
     7
100
AcDbCircle
 10
561.0
 20
799.750026
 30
0.0
 40
7.0
100
AcDbArc
 50
300.6868
 51
0.0
  0
ARC
  5
200
100
AcDbEntity
  8
LAY-1
  6
CONTINUOUS
 62
     7
100
AcDbCircle
 10
559.100116
 20
798.582674
 30
0.0
 40
7.0
100
AcDbArc
 50
227.564317
 51
302.449097
  0
ARC
  5
201
100
AcDbEntity
  8
LAY-1
  6
CONTINUOUS
 62
     7
100
AcDbCircle
 10
568.0
 20
826.402211
 30
0.0
 40
2.0
100
AcDbArc
 50
180.0
 51
240.0
  0
ARC
  5
202
100
AcDbEntity
  8
LAY-1
  6
CONTINUOUS
 62
     7
100
AcDbCircle
 10
597.999999
 20
737.402211
 30
0.0
 40
65.5
100
AcDbArc
 50
120.6868
 51
122.449097
  0
LINE
  5
203
100
AcDbEntity
  8
LAY-1
  6
CONTINUOUS
 62
     7
100
AcDbLine
 10
568.0
 20
822.938109
 30
0.0
 11
568.0
 21
799.750026
 31
0.0
  0
ARC
  5
204
100
AcDbEntity
  8
LAY-1
  6
CONTINUOUS
 62
     7
100
AcDbCircle
 10
566.0
 20
822.938109
 30
0.0
 40
2.0
100
AcDbArc
 50
0.0
 51
60.0
  0
LINE
  5
205
100
AcDbEntity
  8
LAY-1
  6
CONTINUOUS
 62
     7
100
AcDbLine
 10
566.0
 20
845.902211
 30
0.0
 11
566.0
 21
826.402211
 31
0.0
  0
ARC
  5
206
100
AcDbEntity
  8
LAY-1
  6
CONTINUOUS
 62
     7
100
AcDbCircle
 10
567.0
 20
733.047962
 30
0.0
 40
2.0
100
AcDbArc
 50
318.590378
 51
0.0
  0
LINE
  5
207
100
AcDbEntity
  8
LAY-1
  6
CONTINUOUS
 62
     7
100
AcDbLine
 10
568.0
 20
711.402211
 30
0.0
 11
568.0
 21
730.402211
 31
0.0
  0
ARC
  5
208
100
AcDbEntity
  8
LAY-1
  6
CONTINUOUS
 62
     7
100
AcDbCircle
 10
597.999999
 20
797.402211
 30
0.0
 40
65.5
100
AcDbArc
 50
237.550903
 51
241.166269
  0
ARC
  5
209
100
AcDbEntity
  8
LAY-1
  6
CONTINUOUS
 62
     7
100
AcDbCircle
 10
570.0
 20
730.402211
 30
0.0
 40
2.0
100
AcDbArc
 50
138.590378
 51
180.0
  0
ARC
  5
20A
100
AcDbEntity
  8
LAY-1
  6
CONTINUOUS
 62
     7
100
AcDbCircle
 10
559.100116
 20
736.221747
 30
0.0
 40
7.0
100
AcDbArc
 50
57.550903
 51
132.435683
  0
ARC
  5
20B
100
AcDbEntity
  8
LAY-1
  6
CONTINUOUS
 62
     7
100
AcDbCircle
 10
564.0
 20
735.642596
 30
0.0
 40
5.0
100
AcDbArc
 50
0.0
 51
61.166269
  0
ARC
  5
20C
100
AcDbEntity
  8
LAY-1
  6
CONTINUOUS
 62
     7
100
AcDbCircle
 10
635.0
 20
799.750026
 30
0.0
 40
7.0
100
AcDbArc
 50
180.0
 51
239.3132
  0
ARC
  5
20D
100
AcDbEntity
  8
LAY-1
  6
CONTINUOUS
 62
     7
100
AcDbCircle
 10
636.899884
 20
798.582674
 30
0.0
 40
7.0
100
AcDbArc
 50
237.550903
 51
312.435683
  0
ARC
  5
20E
100
AcDbEntity
  8
LAY-1
  6
CONTINUOUS
 62
     7
100
AcDbCircle
 10
628.0
 20
826.402211
 30
0.0
 40
2.0
100
AcDbArc
 50
300.0
 51
0.0
  0
ARC
  5
20F
100
AcDbEntity
  8
LAY-1
  6
CONTINUOUS
 62
     7
100
AcDbCircle
 10
663.0
 20
731.402211
 30
0.0
 40
1.0
100
AcDbArc
 50
90.0
 51
180.0
  0
ARC
  5
210
100
AcDbEntity
  8
LAY-1
  6
CONTINUOUS
 62
     7
100
AcDbCircle
 10
598.000001
 20
737.402211
 30
0.0
 40
65.5
100
AcDbArc
 50
57.550903
 51
59.3132
  0
LINE
  5
211
100
AcDbEntity
  8
LAY-1
  6
CONTINUOUS
 62
     7
100
AcDbLine
 10
628.0
 20
822.938109
 30
0.0
 11
628.0
 21
799.750026
 31
0.0
  0
ARC
  5
212
100
AcDbEntity
  8
LAY-1
  6
CONTINUOUS
 62
     7
100
AcDbCircle
 10
630.0
 20
822.938109
 30
0.0
 40
2.0
100
AcDbArc
 50
120.0
 51
180.0
  0
LINE
  5
213
100
AcDbEntity
  8
LAY-1
  6
CONTINUOUS
 62
     7
100
AcDbLine
 10
630.0
 20
845.902211
 30
0.0
 11
630.0
 21
826.402211
 31
0.0
  0
ARC
  5
214
100
AcDbEntity
  8
LAY-1
  6
CONTINUOUS
 62
     7
100
AcDbCircle
 10
629.0
 20
733.047962
 30
0.0
 40
2.0
100
AcDbArc
 50
180.0
 51
221.409622
  0
LINE
  5
215
100
AcDbEntity
  8
LAY-1
  6
CONTINUOUS
 62
     7
100
AcDbLine
 10
628.0
 20
711.402211
 30
0.0
 11
628.0
 21
730.402211
 31
0.0
  0
ARC
  5
216
100
AcDbEntity
  8
LAY-1
  6
CONTINUOUS
 62
     7
100
AcDbCircle
 10
598.000001
 20
797.402211
 30
0.0
 40
65.5
100
AcDbArc
 50
298.833731
 51
302.449097
  0
ARC
  5
217
100
AcDbEntity
  8
LAY-1
  6
CONTINUOUS
 62
     7
100
AcDbCircle
 10
648.5
 20
706.402211
 30
0.0
 40
1.5
100
AcDbArc
 50
180.0
 51
270.0
  0
ARC
  5
218
100
AcDbEntity
  8
LAY-1
  6
CONTINUOUS
 62
     7
100
AcDbCircle
 10
648.5
 20
828.402211
 30
0.0
 40
1.5
100
AcDbArc
 50
90.0
 51
180.0
  0
ARC
  5
219
100
AcDbEntity
  8
LAY-1
  6
CONTINUOUS
 62
     7
100
AcDbCircle
 10
547.5
 20
828.402211
 30
0.0
 40
1.5
100
AcDbArc
 50
0.0
 51
90.0
  0
ARC
  5
21A
100
AcDbEntity
  8
LAY-1
  6
CONTINUOUS
 62
     7
100
AcDbCircle
 10
626.0
 20
730.402211
 30
0.0
 40
2.0
100
AcDbArc
 50
0.0
 51
41.409622
  0
ARC
  5
21B
100
AcDbEntity
  8
LAY-1
  6
CONTINUOUS
 62
     7
100
AcDbCircle
 10
636.899884
 20
736.221747
 30
0.0
 40
7.0
100
AcDbArc
 50
47.564317
 51
122.449097
  0
LINE
  5
21C
100
AcDbEntity
  8
LAY-1
  6
CONTINUOUS
 62
     7
100
AcDbLine
 10
627.0
 20
735.642596
 30
0.0
 11
627.0
 21
733.047962
 31
0.0
  0
LINE
  5
21D
100
AcDbEntity
  8
LAY-1
  6
CONTINUOUS
 62
     7
100
AcDbLine
 10
569.0
 20
735.642596
 30
0.0
 11
569.0
 21
733.047962
 31
0.0
  0
ARC
  5
21E
100
AcDbEntity
  8
LAY-1
  6
CONTINUOUS
 62
     7
100
AcDbCircle
 10
632.0
 20
735.642596
 30
0.0
 40
5.0
100
AcDbArc
 50
118.833731
 51
180.0
  0
ARC
  5
21F
100
AcDbEntity
  8
LAY-1
  6
CONTINUOUS
 62
     7
100
AcDbCircle
 10
547.5
 20
706.402211
 30
0.0
 40
1.5
100
AcDbArc
 50
270.0
 51
0.0
  0
LINE
  5
220
100
AcDbEntity
  8
LAY-1
  6
CONTINUOUS
 62
     7
100
AcDbLine
 10
598.0
 20
869.402211
 30
0.0
 11
591.107237
 21
869.402211
 31
0.0
  0
LINE
  5
221
100
AcDbEntity
  8
LAY-1
  6
CONTINUOUS
 62
     7
100
AcDbLine
 10
566.0
 20
846.879362
 30
0.0
 11
566.5
 21
846.379362
 31
0.0
  0
LINE
  5
222
100
AcDbEntity
  8
LAY-1
  6
CONTINUOUS
 62
     7
100
AcDbLine
 10
598.0
 20
869.402211
 30
0.0
 11
604.892763
 21
869.402211
 31
0.0
  0
LINE
  5
223
100
AcDbEntity
  8
LAY-1
  6
CONTINUOUS
 62
     7
100
AcDbLine
 10
602.041452
 20
871.402211
 30
0.0
 11
602.041452
 21
876.776996
 31
0.0
  0
LINE
  5
224
100
AcDbEntity
  8
LAY-1
  6
CONTINUOUS
 62
     7
100
AcDbLine
 10
593.958548
 20
876.776996
 30
0.0
 11
593.958548
 21
871.402211
 31
0.0
  0
ARC
  5
225
100
AcDbEntity
  8
LAY-1
  6
CONTINUOUS
 62
     7
100
AcDbCircle
 10
604.062178
 20
873.824059
 30
0.0
 40
3.578152
100
AcDbArc
 50
55.615753
 51
124.384247
  0
LINE
  5
226
100
AcDbEntity
  8
LAY-1
  6
CONTINUOUS
 62
     7
100
AcDbLine
 10
591.0
 20
877.402211
 30
0.0
 11
589.917096
 21
876.776996
 31
0.0
  0
LINE
  5
227
100
AcDbEntity
  8
LAY-1
  6
CONTINUOUS
 62
     7
100
AcDbLine
 10
589.917096
 20
876.776996
 30
0.0
 11
589.917096
 21
871.402211
 31
0.0
  0
LINE
  5
228
100
AcDbEntity
  8
LAY-1
  6
CONTINUOUS
 62
     7
100
AcDbLine
 10
605.0
 20
877.402211
 30
0.0
 11
591.0
 21
877.402211
 31
0.0
  0
LINE
  5
229
100
AcDbEntity
  8
LAY-1
  6
CONTINUOUS
 62
     7
100
AcDbLine
 10
606.082904
 20
876.776996
 30
0.0
 11
605.0
 21
877.402211
 31
0.0
  0
LINE
  5
22A
100
AcDbEntity
  8
LAY-1
  6
CONTINUOUS
 62
     7
100
AcDbLine
 10
606.082904
 20
871.402211
 30
0.0
 11
606.082904
 21
876.776996
 31
0.0
  0
LINE
  5
22B
100
AcDbEntity
  8
LAY-1
  6
CONTINUOUS
 62
     7
100
AcDbLine
 10
589.917096
 20
871.402211
 30
0.0
 11
606.082904
 21
871.402211
 31
0.0
  0
ARC
  5
22C
100
AcDbEntity
  8
LAY-1
  6
CONTINUOUS
 62
     7
100
AcDbCircle
 10
598.0
 20
864.027426
 30
0.0
 40
13.374785
100
AcDbArc
 50
72.412046
 51
107.587954
  0
ARC
  5
22D
100
AcDbEntity
  8
LAY-1
  6
CONTINUOUS
 62
     7
100
AcDbCircle
 10
591.937822
 20
873.824059
 30
0.0
 40
3.578152
100
AcDbArc
 50
55.615753
 51
124.384247
  0
LINE
  5
22E
100
AcDbEntity
  8
LAY-1
  6
CONTINUOUS
 62
     7
100
AcDbLine
 10
627.0
 20
710.402211
 30
0.0
 11
628.0
 21
711.402211
 31
0.0
  0
LINE
  5
22F
100
AcDbEntity
  8
LAY-1
  6
CONTINUOUS
 62
     7
100
AcDbLine
 10
568.0
 20
711.402211
 30
0.0
 11
569.0
 21
710.402211
 31
0.0
  0
LINE
  5
230
100
AcDbEntity
  8
LAY-1
  6
CONTINUOUS
 62
     7
100
AcDbLine
 10
598.0
 20
867.379362
 30
0.0
 11
612.5
 21
867.379362
 31
0.0
  0
LINE
  5
231
100
AcDbEntity
  8
LAY-1
  6
CONTINUOUS
 62
     7
100
AcDbLine
 10
598.0
 20
867.379362
 30
0.0
 11
583.5
 21
867.379362
 31
0.0
  0
LINE
  5
232
100
AcDbEntity
  8
LAY-1
  6
CONTINUOUS
 62
     7
100
AcDbLine
 10
604.829192
 20
867.379362
 30
0.0
 11
604.955615
 21
871.402211
 31
0.0
  0
LINE
  5
233
100
AcDbEntity
  8
LAY-1
  6
CONTINUOUS
 62
     7
100
AcDbLine
 10
591.170808
 20
867.379362
 30
0.0
 11
591.044385
 21
871.402211
 31
0.0
  0
LINE
  5
234
100
AcDbEntity
  8
LAY-1
  6
CONTINUOUS
 62
     7
100
AcDbLine
 10
629.500157
 20
846.378386
 30
0.0
 11
598.0
 21
846.382113
 31
0.0
  0
LINE
  5
235
100
AcDbEntity
  8
LAY-1
  6
CONTINUOUS
 62
     7
100
AcDbLine
 10
598.0
 20
846.379575
 30
0.0
 11
566.5
 21
846.379362
 31
0.0
  0
LINE
  5
236
100
AcDbEntity
  8
LAY-1
  6
CONTINUOUS
 62
     7
100
AcDbLine
 10
604.5
 20
638.894069
 30
0.0
 11
603.35
 21
636.902211
 31
0.0
  0
LINE
  5
237
100
AcDbEntity
  8
LAY-1
  6
CONTINUOUS
 62
     7
100
AcDbLine
 10
610.098753
 20
636.902211
 30
0.0
 11
598.0
 21
636.902211
 31
0.0
  0
LINE
  5
238
100
AcDbEntity
  8
LAY-1
  6
CONTINUOUS
 62
     7
100
AcDbLine
 10
598.0
 20
638.894069
 30
0.0
 11
604.5
 21
638.894069
 31
0.0
  0
LINE
  5
239
100
AcDbEntity
  8
LAY-1
  6
CONTINUOUS
 62
     7
100
AcDbLine
 10
618.207259
 20
653.402211
 30
0.0
 11
618.207259
 21
646.965248
 31
0.0
  0
LINE
  5
23A
100
AcDbEntity
  8
LAY-1
  6
CONTINUOUS
 62
     7
100
AcDbLine
 10
618.207259
 20
646.965248
 30
0.0
 11
615.5
 21
645.402211
 31
0.0
  0
LINE
  5
23B
100
AcDbEntity
  8
LAY-1
  6
CONTINUOUS
 62
     7
100
AcDbLine
 10
577.792741
 20
646.965248
 30
0.0
 11
580.5
 21
645.402211
 31
0.0
  0
LINE
  5
23C
100
AcDbEntity
  8
LAY-1
  6
CONTINUOUS
 62
     7
100
AcDbLine
 10
577.792741
 20
653.402211
 30
0.0
 11
577.792741
 21
646.965248
 31
0.0
  0
LINE
  5
23D
100
AcDbEntity
  8
LAY-1
  6
CONTINUOUS
 62
     7
100
AcDbLine
 10
598.0
 20
638.894069
 30
0.0
 11
591.5
 21
638.894069
 31
0.0
  0
LINE
  5
23E
100
AcDbEntity
  8
LAY-1
  6
CONTINUOUS
 62
     7
100
AcDbLine
 10
585.901247
 20
636.902211
 30
0.0
 11
598.0
 21
636.902211
 31
0.0
  0
LINE
  5
23F
100
AcDbEntity
  8
LAY-1
  6
CONTINUOUS
 62
     7
100
AcDbLine
 10
591.5
 20
638.894069
 30
0.0
 11
592.65
 21
636.902211
 31
0.0
  0
ARC
  5
240
100
AcDbEntity
  8
LAY-1
  6
CONTINUOUS
 62
     7
100
AcDbCircle
 10
610.098753
 20
635.902211
 30
0.0
 40
1.0
100
AcDbArc
 50
13.642886
 51
90.0
  0
ARC
  5
241
100
AcDbEntity
  8
LAY-1
  6
CONTINUOUS
 62
     7
100
AcDbCircle
 10
640.0
 20
620.902211
 30
0.0
 40
8.0
100
AcDbArc
 50
270.0
 51
90.0
  0
ARC
  5
242
100
AcDbEntity
  8
LAY-1
  6
CONTINUOUS
 62
     7
100
AcDbCircle
 10
613.5
 20
636.727754
 30
0.0
 40
2.5
100
AcDbArc
 50
193.642886
 51
262.016444
  0
ARC
  5
243
100
AcDbEntity
  8
LAY-1
  6
CONTINUOUS
 62
     7
100
AcDbCircle
 10
582.5
 20
636.727754
 30
0.0
 40
2.5
100
AcDbArc
 50
277.983556
 51
346.357114
  0
ARC
  5
244
100
AcDbEntity
  8
LAY-1
  6
CONTINUOUS
 62
     7
100
AcDbCircle
 10
556.0
 20
620.902211
 30
0.0
 40
8.0
100
AcDbArc
 50
90.0
 51
270.0
  0
ARC
  5
245
100
AcDbEntity
  8
LAY-1
  6
CONTINUOUS
 62
     7
100
AcDbCircle
 10
585.901247
 20
635.902211
 30
0.0
 40
1.0
100
AcDbArc
 50
90.0
 51
166.357114
  0
LINE
  5
246
100
AcDbEntity
  8
LAY-1
  6
CONTINUOUS
 62
     7
100
AcDbLine
 10
566.5
 20
710.402211
 30
0.0
 11
565.5
 21
709.402211
 31
0.0
  0
LINE
  5
247
100
AcDbEntity
  8
LAY-1
  6
CONTINUOUS
 62
     7
100
AcDbLine
 10
629.5
 20
710.402211
 30
0.0
 11
630.5
 21
709.402211
 31
0.0
  0
LINE
  5
248
100
AcDbEntity
  8
LAY-1
  6
CONTINUOUS
 62
     7
100
AcDbLine
 10
618.0
 20
655.402211
 30
0.0
 11
618.0
 21
675.402211
 31
0.0
  0
LINE
  5
249
100
AcDbEntity
  8
LAY-1
  6
CONTINUOUS
 62
     7
100
AcDbLine
 10
578.0
 20
655.402211
 30
0.0
 11
578.0
 21
675.402211
 31
0.0
  0
LINE
  5
24A
100
AcDbEntity
  8
LAY-1
  6
CONTINUOUS
 62
     7
100
AcDbLine
 10
598.0
 20
655.402211
 30
0.0
 11
618.0
 21
655.402211
 31
0.0
  0
LINE
  5
24B
100
AcDbEntity
  8
LAY-1
  6
CONTINUOUS
 62
     7
100
AcDbLine
 10
578.0
 20
655.402211
 30
0.0
 11
598.0
 21
655.402211
 31
0.0
  0
LINE
  5
24C
100
AcDbEntity
  8
LAY-1
  6
CONTINUOUS
 62
     7
100
AcDbLine
 10
581.0
 20
653.402211
 30
0.0
 11
581.0
 21
655.402211
 31
0.0
  0
LINE
  5
24D
100
AcDbEntity
  8
LAY-1
  6
CONTINUOUS
 62
     7
100
AcDbLine
 10
615.0
 20
653.402211
 30
0.0
 11
615.0
 21
655.402211
 31
0.0
  0
LINE
  5
24E
100
AcDbEntity
  8
LAY-1
  6
CONTINUOUS
 62
     7
100
AcDbLine
 10
604.5
 20
645.402211
 30
0.0
 11
604.5
 21
638.894069
 31
0.0
  0
LINE
  5
24F
100
AcDbEntity
  8
LAY-1
  6
CONTINUOUS
 62
     7
100
AcDbLine
 10
615.5
 20
645.402211
 30
0.0
 11
598.0
 21
645.402211
 31
0.0
  0
LINE
  5
250
100
AcDbEntity
  8
LAY-1
  6
CONTINUOUS
 62
     7
100
AcDbLine
 10
580.5
 20
645.402211
 30
0.0
 11
598.0
 21
645.402211
 31
0.0
  0
LINE
  5
251
100
AcDbEntity
  8
LAY-1
  6
CONTINUOUS
 62
     7
100
AcDbLine
 10
591.5
 20
645.402211
 30
0.0
 11
591.5
 21
638.894069
 31
0.0
  0
LINE
  5
252
100
AcDbEntity
  8
LAY-1
  6
CONTINUOUS
 62
     7
100
AcDbLine
 10
598.0
 20
710.402211
 30
0.0
 11
629.5
 21
710.402211
 31
0.0
  0
LINE
  5
253
100
AcDbEntity
  8
LAY-1
  6
CONTINUOUS
 62
     7
100
AcDbLine
 10
598.0
 20
710.402211
 30
0.0
 11
566.5
 21
710.402211
 31
0.0
  0
LINE
  5
254
100
AcDbEntity
  8
LAY-1
  6
CONTINUOUS
 62
     7
100
AcDbLine
 10
556.0
 20
612.902211
 30
0.0
 11
598.0
 21
612.902211
 31
0.0
  0
LINE
  5
255
100
AcDbEntity
  8
LAY-1
  6
CONTINUOUS
 62
     7
100
AcDbLine
 10
640.0
 20
612.902211
 30
0.0
 11
598.0
 21
612.902211
 31
0.0
  0
ARC
  5
256
100
AcDbEntity
  8
LAY-1
  6
CONTINUOUS
 62
     7
100
AcDbCircle
 10
598.0
 20
615.902211
 30
0.0
 40
6.0
100
AcDbArc
 50
210.0
 51
330.0
  0
ARC
  5
257
100
AcDbEntity
  8
LAY-1
  6
CONTINUOUS
 62
     7
100
AcDbCircle
 10
611.0
 20
618.902211
 30
0.0
 40
15.5
100
AcDbArc
 50
40.17777
 51
82.016444
  0
ARC
  5
258
100
AcDbEntity
  8
LAY-1
  6
CONTINUOUS
 62
     7
100
AcDbCircle
 10
585.0
 20
618.902211
 30
0.0
 40
15.5
100
AcDbArc
 50
97.983556
 51
139.82223
  0
LINE
  5
259
100
AcDbEntity
  8
LAY-1
  6
CONTINUOUS
 62
     7
100
AcDbLine
 10
640.0
 20
628.902211
 30
0.0
 11
598.0
 21
628.902211
 31
0.0
  0
LINE
  5
25A
100
AcDbEntity
  8
LAY-1
  6
CONTINUOUS
 62
     7
100
AcDbLine
 10
556.0
 20
628.902211
 30
0.0
 11
598.0
 21
628.902211
 31
0.0
  0
LINE
  5
25B
100
AcDbEntity
  8
LAY-1
  6
CONTINUOUS
 62
     7
100
AcDbLine
 10
598.0
 20
653.402211
 30
0.0
 11
618.207259
 21
653.402211
 31
0.0
  0
LINE
  5
25C
100
AcDbEntity
  8
LAY-1
  6
CONTINUOUS
 62
     7
100
AcDbLine
 10
598.0
 20
653.402211
 30
0.0
 11
577.792741
 21
653.402211
 31
0.0
  0
ARC
  5
25D
100
AcDbEntity
  8
LAY-1
  6
CONTINUOUS
 62
     7
100
AcDbCircle
 10
613.155445
 20
654.34759
 30
0.0
 40
8.94538
100
AcDbArc
 50
235.615753
 51
304.384247
  0
ARC
  5
25E
100
AcDbEntity
  8
LAY-1
  6
CONTINUOUS
 62
     7
100
AcDbCircle
 10
598.0
 20
678.839174
 30
0.0
 40
33.436963
100
AcDbArc
 50
252.412046
 51
287.587954
  0
ARC
  5
25F
100
AcDbEntity
  8
LAY-1
  6
CONTINUOUS
 62
     7
100
AcDbCircle
 10
582.844555
 20
654.34759
 30
0.0
 40
8.94538
100
AcDbArc
 50
235.615753
 51
304.384247
  0
LINE
  5
260
100
AcDbEntity
  8
LAY-1
  6
CONTINUOUS
 62
     7
100
AcDbLine
 10
608.10363
 20
653.402211
 30
0.0
 11
608.10363
 21
646.965248
 31
0.0
  0
LINE
  5
261
100
AcDbEntity
  8
LAY-1
  6
CONTINUOUS
 62
     7
100
AcDbLine
 10
587.89637
 20
653.402211
 30
0.0
 11
587.89637
 21
646.965248
 31
0.0
  0
LINE
  5
262
100
AcDbEntity
  8
LAY-1
  6
CONTINUOUS
 62
     7
100
AcDbLine
 10
630.5
 20
709.402211
 30
0.0
 11
630.5
 21
698.402211
 31
0.0
  0
LINE
  5
263
100
AcDbEntity
  8
LAY-1
  6
CONTINUOUS
 62
     7
100
AcDbLine
 10
565.5
 20
709.402211
 30
0.0
 11
565.5
 21
698.402211
 31
0.0
  0
LINE
  5
264
100
AcDbEntity
  8
LAY-1
  6
CONTINUOUS
 62
     7
100
AcDbLine
 10
623.0
 20
678.288962
 30
0.0
 11
623.0
 21
698.402211
 31
0.0
  0
LINE
  5
265
100
AcDbEntity
  8
LAY-1
  6
CONTINUOUS
 62
     7
100
AcDbLine
 10
623.0
 20
698.402211
 30
0.0
 11
630.5
 21
698.402211
 31
0.0
  0
LINE
  5
266
100
AcDbEntity
  8
LAY-1
  6
CONTINUOUS
 62
     7
100
AcDbLine
 10
618.0
 20
675.402211
 30
0.0
 11
623.0
 21
678.288962
 31
0.0
  0
LINE
  5
267
100
AcDbEntity
  8
LAY-1
  6
CONTINUOUS
 62
     7
100
AcDbLine
 10
573.0
 20
678.288962
 30
0.0
 11
573.0
 21
698.402211
 31
0.0
  0
LINE
  5
268
100
AcDbEntity
  8
LAY-1
  6
CONTINUOUS
 62
     7
100
AcDbLine
 10
573.0
 20
698.402211
 30
0.0
 11
565.5
 21
698.402211
 31
0.0
  0
LINE
  5
269
100
AcDbEntity
  8
LAY-1
  6
CONTINUOUS
 62
     7
100
AcDbLine
 10
618.76656
 20
698.402211
 30
0.0
 11
618.76656
 21
678.288962
 31
0.0
  0
LINE
  5
26A
100
AcDbEntity
  8
LAY-1
  6
CONTINUOUS
 62
     7
100
AcDbLine
 10
618.76656
 20
678.288962
 30
0.0
 11
598.0
 21
678.288962
 31
0.0
  0
LINE
  5
26B
100
AcDbEntity
  8
LAY-1
  6
CONTINUOUS
 62
     7
100
AcDbLine
 10
618.76656
 20
698.402211
 30
0.0
 11
598.0
 21
698.402211
 31
0.0
  0
LINE
  5
26C
100
AcDbEntity
  8
LAY-1
  6
CONTINUOUS
 62
     7
100
AcDbLine
 10
577.23344
 20
678.288962
 30
0.0
 11
598.0
 21
678.288962
 31
0.0
  0
LINE
  5
26D
100
AcDbEntity
  8
LAY-1
  6
CONTINUOUS
 62
     7
100
AcDbLine
 10
577.23344
 20
698.402211
 30
0.0
 11
598.0
 21
698.402211
 31
0.0
  0
LINE
  5
26E
100
AcDbEntity
  8
LAY-1
  6
CONTINUOUS
 62
     7
100
AcDbLine
 10
577.23344
 20
698.402211
 30
0.0
 11
577.23344
 21
678.288962
 31
0.0
  0
LINE
  5
26F
100
AcDbEntity
  8
LAY-1
  6
CONTINUOUS
 62
     7
100
AcDbLine
 10
578.0
 20
675.402211
 30
0.0
 11
573.0
 21
678.288962
 31
0.0
  0
LINE
  5
270
100
AcDbEntity
  8
LAY-1
  6
CONTINUOUS
 62
     7
100
AcDbLine
 10
662.0
 20
767.402211
 30
0.0
 11
662.0
 21
704.902211
 31
0.0
  0
LINE
  5
271
100
AcDbEntity
  8
LAY-1
  6
CONTINUOUS
 62
     7
100
AcDbLine
 10
662.0
 20
767.402211
 30
0.0
 11
662.0
 21
829.902211
 31
0.0
  0
LINE
  5
272
100
AcDbEntity
  8
LAY-1
  6
CONTINUOUS
 62
     7
100
AcDbLine
 10
647.0
 20
828.402211
 30
0.0
 11
647.0
 21
767.402211
 31
0.0
  0
LINE
  5
273
100
AcDbEntity
  8
LAY-1
  6
CONTINUOUS
 62
     7
100
AcDbLine
 10
647.0
 20
706.402211
 30
0.0
 11
647.0
 21
767.402211
 31
0.0
  0
LINE
  5
274
100
AcDbEntity
  8
LAY-1
  6
CONTINUOUS
 62
     7
100
AcDbLine
 10
549.0
 20
706.402211
 30
0.0
 11
549.0
 21
767.402211
 31
0.0
  0
LINE
  5
275
100
AcDbEntity
  8
LAY-1
  6
CONTINUOUS
 62
     7
100
AcDbLine
 10
534.0
 20
767.402211
 30
0.0
 11
534.0
 21
704.902211
 31
0.0
  0
LINE
  5
276
100
AcDbEntity
  8
LAY-1
  6
CONTINUOUS
 62
     7
100
AcDbLine
 10
534.0
 20
767.402211
 30
0.0
 11
534.0
 21
829.902211
 31
0.0
  0
LINE
  5
277
100
AcDbEntity
  8
LAY-1
  6
CONTINUOUS
 62
     7
100
AcDbLine
 10
549.0
 20
828.402211
 30
0.0
 11
549.0
 21
767.402211
 31
0.0
  0
LINE
  5
278
100
AcDbEntity
  8
LAY-1
  6
CONTINUOUS
 62
     7
100
AcDbLine
 10
641.623219
 20
741.387994
 30
0.0
 11
641.623219
 21
793.416427
 31
0.0
  0
LINE
  5
279
100
AcDbEntity
  8
LAY-1
  6
CONTINUOUS
 62
     7
100
AcDbLine
 10
554.376781
 20
741.387994
 30
0.0
 11
554.376781
 21
793.416427
 31
0.0
  0
LINE
  5
27A
100
AcDbEntity
  8
LAY-1
  6
CONTINUOUS
 62
     7
100
AcDbLine
 10
626.063254
 20
730.061249
 30
0.0
 11
598.0
 21
730.061249
 31
0.0
  0
LINE
  5
27B
100
AcDbEntity
  8
LAY-1
  6
CONTINUOUS
 62
     7
100
AcDbLine
 10
624.463254
 20
731.761249
 30
0.0
 11
598.0
 21
731.761249
 31
0.0
  0
LINE
  5
27C
100
AcDbEntity
  8
LAY-1
  6
CONTINUOUS
 62
     7
100
AcDbLine
 10
626.763254
 20
823.861249
 30
0.0
 11
598.0
 21
823.861249
 31
0.0
  0
LINE
  5
27D
100
AcDbEntity
  8
LAY-1
  6
CONTINUOUS
 62
     7
100
AcDbLine
 10
628.263254
 20
825.661249
 30
0.0
 11
598.0
 21
825.661249
 31
0.0
  0
LINE
  5
27E
100
AcDbEntity
  8
LAY-1
  6
CONTINUOUS
 62
     7
100
AcDbLine
 10
567.736746
 20
825.661249
 30
0.0
 11
598.0
 21
825.661249
 31
0.0
  0
LINE
  5
27F
100
AcDbEntity
  8
LAY-1
  6
CONTINUOUS
 62
     7
100
AcDbLine
 10
569.236746
 20
823.861249
 30
0.0
 11
598.0
 21
823.861249
 31
0.0
  0
LINE
  5
280
100
AcDbEntity
  8
LAY-1
  6
CONTINUOUS
 62
     7
100
AcDbLine
 10
571.536746
 20
731.761249
 30
0.0
 11
598.0
 21
731.761249
 31
0.0
  0
LINE
  5
281
100
AcDbEntity
  8
LAY-1
  6
CONTINUOUS
 62
     7
100
AcDbLine
 10
569.936746
 20
730.061249
 30
0.0
 11
598.0
 21
730.061249
 31
0.0
  0
LINE
  5
282
100
AcDbEntity
  8
LAY-1
  6
CONTINUOUS
 62
     7
100
AcDbLine
 10
606.263254
 20
855.402041
 30
0.0
 11
606.263254
 21
866.080324
 31
0.0
  0
LINE
  5
283
100
AcDbEntity
  8
LAY-1
  6
CONTINUOUS
 62
     7
100
AcDbLine
 10
589.736746
 20
855.402041
 30
0.0
 11
589.736746
 21
866.080324
 31
0.0
  0
ARC
  5
284
100
AcDbEntity
  8
LAY-1
  6
CONTINUOUS
 62
     7
100
AcDbCircle
 10
585.494114
 20
859.801666
 30
0.0
 40
7.577696
100
AcDbArc
 50
55.952208
 51
123.967687
  0
ARC
  5
285
100
AcDbEntity
  8
LAY-1
  6
CONTINUOUS
 62
     7
100
AcDbCircle
 10
598.0
 20
840.448336
 30
0.0
 40
26.931027
100
AcDbArc
 50
72.13169
 51
107.86831
  0
ARC
  5
286
100
AcDbEntity
  8
LAY-1
  6
CONTINUOUS
 62
     7
100
AcDbCircle
 10
610.503206
 20
859.810418
 30
0.0
 40
7.568944
100
AcDbArc
 50
55.931927
 51
124.068073
  0
LINE
  5
287
100
AcDbEntity
  8
LAY-1
  6
CONTINUOUS
 62
     7
100
AcDbLine
 10
629.063254
 20
851.261249
 30
0.0
 11
598.0
 21
851.261249
 31
0.0
  0
LINE
  5
288
100
AcDbEntity
  8
LAY-1
  6
CONTINUOUS
 62
     7
100
AcDbLine
 10
566.936746
 20
851.261249
 30
0.0
 11
598.0
 21
851.261249
 31
0.0
  0
LINE
  5
289
100
AcDbEntity
  8
LAY-1
  6
CONTINUOUS
 62
     7
100
AcDbLine
 10
573.0
 20
755.902211
 30
0.0
 11
623.0
 21
755.902211
 31
0.0
  0
LINE
  5
28A
100
AcDbEntity
  8
LAY-1
  6
CONTINUOUS
 62
     7
100
AcDbLine
 10
595.0
 20
769.902211
 30
0.0
 11
619.0
 21
769.902211
 31
0.0
  0
LINE
  5
28B
100
AcDbEntity
  8
LAY-1
  6
CONTINUOUS
 62
     7
100
AcDbLine
 10
595.0
 20
763.402211
 30
0.0
 11
619.0
 21
763.402211
 31
0.0
  0
LINE
  5
28C
100
AcDbEntity
  8
LAY-1
  6
CONTINUOUS
 62
     7
100
AcDbLine
 10
595.0
 20
756.902211
 30
0.0
 11
619.0
 21
756.902211
 31
0.0
  0
LINE
  5
28D
100
AcDbEntity
  8
LAY-1
  6
CONTINUOUS
 62
     7
100
AcDbLine
 10
613.0
 20
769.902211
 30
0.0
 11
613.0
 21
756.902211
 31
0.0
  0
LINE
  5
28E
100
AcDbEntity
  8
LAY-1
  6
CONTINUOUS
 62
     7
100
AcDbLine
 10
619.0
 20
769.902211
 30
0.0
 11
619.0
 21
756.902211
 31
0.0
  0
LINE
  5
28F
100
AcDbEntity
  8
LAY-1
  6
CONTINUOUS
 62
     7
100
AcDbLine
 10
607.0
 20
769.902211
 30
0.0
 11
607.0
 21
756.902211
 31
0.0
  0
LINE
  5
290
100
AcDbEntity
  8
LAY-1
  6
CONTINUOUS
 62
     7
100
AcDbLine
 10
601.0
 20
769.902211
 30
0.0
 11
601.0
 21
756.902211
 31
0.0
  0
LINE
  5
291
100
AcDbEntity
  8
LAY-1
  6
CONTINUOUS
 62
     7
100
AcDbLine
 10
595.0
 20
769.902211
 30
0.0
 11
595.0
 21
756.902211
 31
0.0
  0
ARC
  5
292
100
AcDbEntity
  8
LAY-1
  6
CONTINUOUS
 62
     7
100
AcDbCircle
 10
584.0
 20
767.402211
 30
0.0
 40
8.0
100
AcDbArc
 50
292.024313
 51
90.0
  0
LINE
  5
293
100
AcDbEntity
  8
LAY-1
  6
CONTINUOUS
 62
     7
100
AcDbLine
 10
582.0
 20
774.330414
 30
0.0
 11
582.0
 21
767.402211
 31
0.0
  0
LINE
  5
294
100
AcDbEntity
  8
LAY-1
  6
CONTINUOUS
 62
     7
100
AcDbLine
 10
584.0
 20
775.402211
 30
0.0
 11
584.0
 21
775.902211
 31
0.0
  0
ARC
  5
295
100
AcDbEntity
  8
LAY-1
  6
CONTINUOUS
 62
     7
100
AcDbCircle
 10
584.0
 20
771.402211
 30
0.0
 40
3.528
100
AcDbArc
 50
62.762185
 51
90.0
  0
ARC
  5
296
100
AcDbEntity
  8
LAY-1
  6
CONTINUOUS
 62
     7
100
AcDbCircle
 10
584.0
 20
763.402211
 30
0.0
 40
3.528
100
AcDbArc
 50
242.762185
 51
286.466023
  0
LINE
  5
297
100
AcDbEntity
  8
LAY-1
  6
CONTINUOUS
 62
     7
100
AcDbLine
 10
588.0
 20
758.402211
 30
0.0
 11
585.0
 21
759.464957
 31
0.0
  0
LINE
  5
298
100
AcDbEntity
  8
LAY-1
  6
CONTINUOUS
 62
     7
100
AcDbLine
 10
587.0
 20
759.986012
 30
0.0
 11
588.0
 21
758.402211
 31
0.0
  0
ARC
  5
299
100
AcDbEntity
  8
LAY-1
  6
CONTINUOUS
 62
     7
100
AcDbCircle
 10
584.0
 20
767.402211
 30
0.0
 40
8.0
100
AcDbArc
 50
104.477512
 51
277.180756
  0
LINE
  5
29A
100
AcDbEntity
  8
LAY-1
  6
CONTINUOUS
 62
     7
100
AcDbLine
 10
578.166667
 20
768.402211
 30
0.0
 11
579.333333
 21
767.402211
 31
0.0
  0
LINE
  5
29B
100
AcDbEntity
  8
LAY-1
  6
CONTINUOUS
 62
     7
100
AcDbLine
 10
580.0
 20
764.735544
 30
0.0
 11
578.166667
 21
768.402211
 31
0.0
  0
LINE
  5
29C
100
AcDbEntity
  8
LAY-1
  6
CONTINUOUS
 62
     7
100
AcDbLine
 10
589.833333
 20
768.402211
 30
0.0
 11
588.666667
 21
767.402211
 31
0.0
  0
LINE
  5
29D
100
AcDbEntity
  8
LAY-1
  6
CONTINUOUS
 62
     7
100
AcDbLine
 10
588.0
 20
764.735544
 30
0.0
 11
589.833333
 21
768.402211
 31
0.0
  0
ARC
  5
29E
100
AcDbEntity
  8
LAY-1
  6
CONTINUOUS
 62
     7
100
AcDbCircle
 10
586.0
 20
767.402211
 30
0.0
 40
8.0
100
AcDbArc
 50
120.0
 51
243.731632
  0
ARC
  5
29F
100
AcDbEntity
  8
LAY-1
  6
CONTINUOUS
 62
     7
100
AcDbCircle
 10
582.0
 20
767.402211
 30
0.0
 40
8.0
100
AcDbArc
 50
308.682187
 51
63.731632
  0
LINE
  5
2A0
100
AcDbEntity
  8
LAY-1
  6
CONTINUOUS
 62
     7
100
AcDbLine
 10
580.0
 20
765.402211
 30
0.0
 11
580.0
 21
764.735544
 31
0.0
  0
LINE
  5
2A1
100
AcDbEntity
  8
LAY-1
  6
CONTINUOUS
 62
     7
100
AcDbLine
 10
585.0
 20
765.402211
 30
0.0
 11
580.0
 21
765.402211
 31
0.0
  0
LINE
  5
2A2
100
AcDbEntity
  8
LAY-1
  6
CONTINUOUS
 62
     7
100
AcDbLine
 10
585.0
 20
760.018901
 30
0.0
 11
585.0
 21
765.402211
 31
0.0
  0
LINE
  5
2A3
100
AcDbEntity
  8
LAY-1
  6
CONTINUOUS
 62
     7
100
AcDbLine
 10
587.0
 20
765.402211
 30
0.0
 11
587.0
 21
761.157213
 31
0.0
  0
LINE
  5
2A4
100
AcDbEntity
  8
LAY-1
  6
CONTINUOUS
 62
     7
100
AcDbLine
 10
588.0
 20
765.402211
 30
0.0
 11
587.0
 21
765.402211
 31
0.0
  0
LINE
  5
2A5
100
AcDbEntity
  8
LAY-1
  6
CONTINUOUS
 62
     7
100
AcDbLine
 10
588.0
 20
764.735544
 30
0.0
 11
588.0
 21
765.402211
 31
0.0
  0
LINE
  5
2A6
100
AcDbEntity
  8
LAY-1
  6
CONTINUOUS
 62
     7
100
AcDbLine
 10
587.0
 20
767.402211
 30
0.0
 11
588.666667
 21
767.402211
 31
0.0
  0
LINE
  5
2A7
100
AcDbEntity
  8
LAY-1
  6
CONTINUOUS
 62
     7
100
AcDbLine
 10
587.0
 20
769.902211
 30
0.0
 11
587.0
 21
767.402211
 31
0.0
  0
LINE
  5
2A8
100
AcDbEntity
  8
LAY-1
  6
CONTINUOUS
 62
     7
100
AcDbLine
 10
588.0
 20
770.402211
 30
0.0
 11
587.0
 21
769.902211
 31
0.0
  0
LINE
  5
2A9
100
AcDbEntity
  8
LAY-1
  6
CONTINUOUS
 62
     7
100
AcDbLine
 10
584.0
 20
770.402211
 30
0.0
 11
588.0
 21
770.402211
 31
0.0
  0
LINE
  5
2AA
100
AcDbEntity
  8
LAY-1
  6
CONTINUOUS
 62
     7
100
AcDbLine
 10
585.0
 20
769.902211
 30
0.0
 11
584.0
 21
770.402211
 31
0.0
  0
LINE
  5
2AB
100
AcDbEntity
  8
LAY-1
  6
CONTINUOUS
 62
     7
100
AcDbLine
 10
585.0
 20
767.402211
 30
0.0
 11
585.0
 21
769.902211
 31
0.0
  0
LINE
  5
2AC
100
AcDbEntity
  8
LAY-1
  6
CONTINUOUS
 62
     7
100
AcDbLine
 10
584.0
 20
767.402211
 30
0.0
 11
585.0
 21
767.402211
 31
0.0
  0
LINE
  5
2AD
100
AcDbEntity
  8
LAY-1
  6
CONTINUOUS
 62
     7
100
AcDbLine
 10
584.0
 20
767.402211
 30
0.0
 11
584.0
 21
774.930211
 31
0.0
  0
LINE
  5
2AE
100
AcDbEntity
  8
LAY-1
  6
CONTINUOUS
 62
     7
100
AcDbLine
 10
582.0
 20
767.402211
 30
0.0
 11
579.333333
 21
767.402211
 31
0.0
  0
LINE
  5
2AF
100
AcDbEntity
  8
LAY-1
  6
CONTINUOUS
 62
     7
100
AcDbLine
 10
582.0
 20
775.902211
 30
0.0
 11
582.0
 21
775.148177
 31
0.0
  0
LINE
  5
2B0
100
AcDbEntity
  8
LAY-1
  6
CONTINUOUS
 62
     7
100
AcDbLine
 10
581.0
 20
776.402211
 30
0.0
 11
582.0
 21
775.902211
 31
0.0
  0
LINE
  5
2B1
100
AcDbEntity
  8
LAY-1
  6
CONTINUOUS
 62
     7
100
AcDbLine
 10
585.0
 20
776.402211
 30
0.0
 11
581.0
 21
776.402211
 31
0.0
  0
LINE
  5
2B2
100
AcDbEntity
  8
LAY-1
  6
CONTINUOUS
 62
     7
100
AcDbLine
 10
584.0
 20
775.902211
 30
0.0
 11
585.0
 21
776.402211
 31
0.0
  0
LINE
  5
2B3
100
AcDbEntity
  8
LAY-1
  6
CONTINUOUS
 62
     7
100
AcDbLine
 10
623.0
 20
780.902211
 30
0.0
 11
573.0
 21
780.902211
 31
0.0
  0
LINE
  5
2B4
100
AcDbEntity
  8
LAY-1
  6
CONTINUOUS
 62
     7
100
AcDbLine
 10
573.0
 20
755.902211
 30
0.0
 11
573.0
 21
780.902211
 31
0.0
  0
LINE
  5
2B5
100
AcDbEntity
  8
LAY-1
  6
CONTINUOUS
 62
     7
100
AcDbLine
 10
623.0
 20
755.902211
 30
0.0
 11
623.0
 21
780.902211
 31
0.0
  0
CIRCLE
  5
2B6
100
AcDbEntity
  8
LAY-1
  6
CONTINUOUS
 62
     7
100
AcDbCircle
 10
278.218946
 20
494.281054
 30
0.0
 40
9.5
  0
CIRCLE
  5
2B7
100
AcDbEntity
  8
LAY-1
  6
CONTINUOUS
 62
     7
100
AcDbCircle
 10
341.858557
 20
494.281054
 30
0.0
 40
9.5
  0
CIRCLE
  5
2B8
100
AcDbEntity
  8
LAY-1
  6
CONTINUOUS
 62
     7
100
AcDbCircle
 10
310.038752
 20
462.461249
 30
0.0
 40
62.5
  0
CIRCLE
  5
2B9
100
AcDbEntity
  8
LAY-1
  6
CONTINUOUS
 62
     7
100
AcDbCircle
 10
310.038752
 20
462.461249
 30
0.0
 40
12.5
  0
CIRCLE
  5
2BA
100
AcDbEntity
  8
LAY-1
  6
CONTINUOUS
 62
     7
100
AcDbCircle
 10
310.038752
 20
462.461249
 30
0.0
 40
33.5
  0
CIRCLE
  5
2BB
100
AcDbEntity
  8
LAY-1
  6
CONTINUOUS
 62
     7
100
AcDbCircle
 10
341.858557
 20
430.641443
 30
0.0
 40
9.5
  0
CIRCLE
  5
2BC
100
AcDbEntity
  8
LAY-1
  6
CONTINUOUS
 62
     7
100
AcDbCircle
 10
278.218946
 20
430.641443
 30
0.0
 40
9.5
  0
LINE
  5
2BD
100
AcDbEntity
  8
LAY-1
  6
CONTINUOUS
 62
     7
100
AcDbLine
 10
438.546893
 20
468.961249
 30
0.0
 11
440.538751
 21
467.811249
 31
0.0
  0
LINE
  5
2BE
100
AcDbEntity
  8
LAY-1
  6
CONTINUOUS
 62
     7
100
AcDbLine
 10
440.538751
 20
474.560002
 30
0.0
 11
440.538751
 21
462.461249
 31
0.0
  0
LINE
  5
2BF
100
AcDbEntity
  8
LAY-1
  6
CONTINUOUS
 62
     7
100
AcDbLine
 10
438.546893
 20
462.461249
 30
0.0
 11
438.546893
 21
468.961249
 31
0.0
  0
LINE
  5
2C0
100
AcDbEntity
  8
LAY-1
  6
CONTINUOUS
 62
     7
100
AcDbLine
 10
424.038751
 20
482.668508
 30
0.0
 11
430.475715
 21
482.668508
 31
0.0
  0
LINE
  5
2C1
100
AcDbEntity
  8
LAY-1
  6
CONTINUOUS
 62
     7
100
AcDbLine
 10
430.475715
 20
482.668508
 30
0.0
 11
432.038751
 21
479.961249
 31
0.0
  0
LINE
  5
2C2
100
AcDbEntity
  8
LAY-1
  6
CONTINUOUS
 62
     7
100
AcDbLine
 10
430.475715
 20
442.253989
 30
0.0
 11
432.038751
 21
444.961249
 31
0.0
  0
LINE
  5
2C3
100
AcDbEntity
  8
LAY-1
  6
CONTINUOUS
 62
     7
100
AcDbLine
 10
424.038751
 20
442.253989
 30
0.0
 11
430.475715
 21
442.253989
 31
0.0
  0
LINE
  5
2C4
100
AcDbEntity
  8
LAY-1
  6
CONTINUOUS
 62
     7
100
AcDbLine
 10
438.546893
 20
462.461249
 30
0.0
 11
438.546893
 21
455.961249
 31
0.0
  0
LINE
  5
2C5
100
AcDbEntity
  8
LAY-1
  6
CONTINUOUS
 62
     7
100
AcDbLine
 10
440.538751
 20
450.362495
 30
0.0
 11
440.538751
 21
462.461249
 31
0.0
  0
LINE
  5
2C6
100
AcDbEntity
  8
LAY-1
  6
CONTINUOUS
 62
     7
100
AcDbLine
 10
438.546893
 20
455.961249
 30
0.0
 11
440.538751
 21
457.111249
 31
0.0
  0
ARC
  5
2C7
100
AcDbEntity
  8
LAY-1
  6
CONTINUOUS
 62
     7
100
AcDbCircle
 10
441.538751
 20
474.560002
 30
0.0
 40
1.0
100
AcDbArc
 50
103.642886
 51
180.0
  0
ARC
  5
2C8
100
AcDbEntity
  8
LAY-1
  6
CONTINUOUS
 62
     7
100
AcDbCircle
 10
456.538751
 20
504.461249
 30
0.0
 40
8.0
100
AcDbArc
 50
0.0
 51
180.0
  0
ARC
  5
2C9
100
AcDbEntity
  8
LAY-1
  6
CONTINUOUS
 62
     7
100
AcDbCircle
 10
440.713208
 20
477.961249
 30
0.0
 40
2.5
100
AcDbArc
 50
283.642886
 51
352.016444
  0
ARC
  5
2CA
100
AcDbEntity
  8
LAY-1
  6
CONTINUOUS
 62
     7
100
AcDbCircle
 10
440.713208
 20
446.961249
 30
0.0
 40
2.5
100
AcDbArc
 50
7.983556
 51
76.357114
  0
ARC
  5
2CB
100
AcDbEntity
  8
LAY-1
  6
CONTINUOUS
 62
     7
100
AcDbCircle
 10
456.538751
 20
420.461249
 30
0.0
 40
8.0
100
AcDbArc
 50
180.0
 51
0.0
  0
ARC
  5
2CC
100
AcDbEntity
  8
LAY-1
  6
CONTINUOUS
 62
     7
100
AcDbCircle
 10
441.538751
 20
450.362495
 30
0.0
 40
1.0
100
AcDbArc
 50
180.0
 51
256.357114
  0
LINE
  5
2CD
100
AcDbEntity
  8
LAY-1
  6
CONTINUOUS
 62
     7
100
AcDbLine
 10
367.038751
 20
430.961249
 30
0.0
 11
368.038751
 21
429.961249
 31
0.0
  0
LINE
  5
2CE
100
AcDbEntity
  8
LAY-1
  6
CONTINUOUS
 62
     7
100
AcDbLine
 10
367.038751
 20
493.961249
 30
0.0
 11
368.038751
 21
494.961249
 31
0.0
  0
LINE
  5
2CF
100
AcDbEntity
  8
LAY-1
  6
CONTINUOUS
 62
     7
100
AcDbLine
 10
422.038751
 20
482.461249
 30
0.0
 11
402.038751
 21
482.461249
 31
0.0
  0
LINE
  5
2D0
100
AcDbEntity
  8
LAY-1
  6
CONTINUOUS
 62
     7
100
AcDbLine
 10
422.038751
 20
442.461249
 30
0.0
 11
402.038751
 21
442.461249
 31
0.0
  0
LINE
  5
2D1
100
AcDbEntity
  8
LAY-1
  6
CONTINUOUS
 62
     7
100
AcDbLine
 10
422.038751
 20
462.461249
 30
0.0
 11
422.038751
 21
482.461249
 31
0.0
  0
LINE
  5
2D2
100
AcDbEntity
  8
LAY-1
  6
CONTINUOUS
 62
     7
100
AcDbLine
 10
422.038751
 20
442.461249
 30
0.0
 11
422.038751
 21
462.461249
 31
0.0
  0
LINE
  5
2D3
100
AcDbEntity
  8
LAY-1
  6
CONTINUOUS
 62
     7
100
AcDbLine
 10
424.038751
 20
445.461249
 30
0.0
 11
422.038751
 21
445.461249
 31
0.0
  0
LINE
  5
2D4
100
AcDbEntity
  8
LAY-1
  6
CONTINUOUS
 62
     7
100
AcDbLine
 10
424.038751
 20
479.461249
 30
0.0
 11
422.038751
 21
479.461249
 31
0.0
  0
LINE
  5
2D5
100
AcDbEntity
  8
LAY-1
  6
CONTINUOUS
 62
     7
100
AcDbLine
 10
432.038751
 20
468.961249
 30
0.0
 11
438.546893
 21
468.961249
 31
0.0
  0
LINE
  5
2D6
100
AcDbEntity
  8
LAY-1
  6
CONTINUOUS
 62
     7
100
AcDbLine
 10
432.038751
 20
479.961249
 30
0.0
 11
432.038751
 21
462.461249
 31
0.0
  0
LINE
  5
2D7
100
AcDbEntity
  8
LAY-1
  6
CONTINUOUS
 62
     7
100
AcDbLine
 10
432.038751
 20
444.961249
 30
0.0
 11
432.038751
 21
462.461249
 31
0.0
  0
LINE
  5
2D8
100
AcDbEntity
  8
LAY-1
  6
CONTINUOUS
 62
     7
100
AcDbLine
 10
432.038751
 20
455.961249
 30
0.0
 11
438.546893
 21
455.961249
 31
0.0
  0
LINE
  5
2D9
100
AcDbEntity
  8
LAY-1
  6
CONTINUOUS
 62
     7
100
AcDbLine
 10
464.538751
 20
420.461249
 30
0.0
 11
464.538751
 21
462.461249
 31
0.0
  0
LINE
  5
2DA
100
AcDbEntity
  8
LAY-1
  6
CONTINUOUS
 62
     7
100
AcDbLine
 10
464.538751
 20
504.461249
 30
0.0
 11
464.538751
 21
462.461249
 31
0.0
  0
ARC
  5
2DB
100
AcDbEntity
  8
LAY-1
  6
CONTINUOUS
 62
     7
100
AcDbCircle
 10
461.538751
 20
462.461248
 30
0.0
 40
6.0
100
AcDbArc
 50
300.0
 51
60.0
  0
ARC
  5
2DC
100
AcDbEntity
  8
LAY-1
  6
CONTINUOUS
 62
     7
100
AcDbCircle
 10
458.538751
 20
475.461249
 30
0.0
 40
15.5
100
AcDbArc
 50
130.17777
 51
172.016444
  0
ARC
  5
2DD
100
AcDbEntity
  8
LAY-1
  6
CONTINUOUS
 62
     7
100
AcDbCircle
 10
458.538751
 20
449.461249
 30
0.0
 40
15.5
100
AcDbArc
 50
187.983556
 51
229.82223
  0
LINE
  5
2DE
100
AcDbEntity
  8
LAY-1
  6
CONTINUOUS
 62
     7
100
AcDbLine
 10
448.538751
 20
504.461249
 30
0.0
 11
448.538751
 21
462.461249
 31
0.0
  0
LINE
  5
2DF
100
AcDbEntity
  8
LAY-1
  6
CONTINUOUS
 62
     7
100
AcDbLine
 10
448.538751
 20
420.461249
 30
0.0
 11
448.538751
 21
462.461249
 31
0.0
  0
LINE
  5
2E0
100
AcDbEntity
  8
LAY-1
  6
CONTINUOUS
 62
     7
100
AcDbLine
 10
424.038751
 20
462.461249
 30
0.0
 11
424.038751
 21
482.668508
 31
0.0
  0
LINE
  5
2E1
100
AcDbEntity
  8
LAY-1
  6
CONTINUOUS
 62
     7
100
AcDbLine
 10
424.038751
 20
462.461249
 30
0.0
 11
424.038751
 21
442.253989
 31
0.0
  0
ARC
  5
2E2
100
AcDbEntity
  8
LAY-1
  6
CONTINUOUS
 62
     7
100
AcDbCircle
 10
423.093372
 20
477.616693
 30
0.0
 40
8.94538
100
AcDbArc
 50
325.615753
 51
34.384247
  0
ARC
  5
2E3
100
AcDbEntity
  8
LAY-1
  6
CONTINUOUS
 62
     7
100
AcDbCircle
 10
398.601788
 20
462.461249
 30
0.0
 40
33.436963
100
AcDbArc
 50
342.412046
 51
17.587954
  0
ARC
  5
2E4
100
AcDbEntity
  8
LAY-1
  6
CONTINUOUS
 62
     7
100
AcDbCircle
 10
423.093372
 20
447.305804
 30
0.0
 40
8.94538
100
AcDbArc
 50
325.615753
 51
34.384247
  0
LINE
  5
2E5
100
AcDbEntity
  8
LAY-1
  6
CONTINUOUS
 62
     7
100
AcDbLine
 10
424.038751
 20
472.564878
 30
0.0
 11
430.475715
 21
472.564878
 31
0.0
  0
LINE
  5
2E6
100
AcDbEntity
  8
LAY-1
  6
CONTINUOUS
 62
     7
100
AcDbLine
 10
424.038751
 20
452.357619
 30
0.0
 11
430.475715
 21
452.357619
 31
0.0
  0
LINE
  5
2E7
100
AcDbEntity
  8
LAY-1
  6
CONTINUOUS
 62
     7
100
AcDbLine
 10
368.038751
 20
494.961249
 30
0.0
 11
379.038751
 21
494.961249
 31
0.0
  0
LINE
  5
2E8
100
AcDbEntity
  8
LAY-1
  6
CONTINUOUS
 62
     7
100
AcDbLine
 10
368.038751
 20
429.961249
 30
0.0
 11
379.038751
 21
429.961249
 31
0.0
  0
LINE
  5
2E9
100
AcDbEntity
  8
LAY-1
  6
CONTINUOUS
 62
     7
100
AcDbLine
 10
399.152
 20
487.461249
 30
0.0
 11
379.038751
 21
487.461249
 31
0.0
  0
LINE
  5
2EA
100
AcDbEntity
  8
LAY-1
  6
CONTINUOUS
 62
     7
100
AcDbLine
 10
379.038751
 20
487.461249
 30
0.0
 11
379.038751
 21
494.961249
 31
0.0
  0
LINE
  5
2EB
100
AcDbEntity
  8
LAY-1
  6
CONTINUOUS
 62
     7
100
AcDbLine
 10
402.038751
 20
482.461249
 30
0.0
 11
399.152
 21
487.461249
 31
0.0
  0
LINE
  5
2EC
100
AcDbEntity
  8
LAY-1
  6
CONTINUOUS
 62
     7
100
AcDbLine
 10
399.152
 20
437.461249
 30
0.0
 11
379.038751
 21
437.461249
 31
0.0
  0
LINE
  5
2ED
100
AcDbEntity
  8
LAY-1
  6
CONTINUOUS
 62
     7
100
AcDbLine
 10
379.038751
 20
437.461249
 30
0.0
 11
379.038751
 21
429.961249
 31
0.0
  0
LINE
  5
2EE
100
AcDbEntity
  8
LAY-1
  6
CONTINUOUS
 62
     7
100
AcDbLine
 10
379.038751
 20
483.227808
 30
0.0
 11
399.152
 21
483.227808
 31
0.0
  0
LINE
  5
2EF
100
AcDbEntity
  8
LAY-1
  6
CONTINUOUS
 62
     7
100
AcDbLine
 10
399.152
 20
483.227808
 30
0.0
 11
399.152
 21
462.461249
 31
0.0
  0
LINE
  5
2F0
100
AcDbEntity
  8
LAY-1
  6
CONTINUOUS
 62
     7
100
AcDbLine
 10
379.038751
 20
483.227808
 30
0.0
 11
379.038751
 21
462.461249
 31
0.0
  0
LINE
  5
2F1
100
AcDbEntity
  8
LAY-1
  6
CONTINUOUS
 62
     7
100
AcDbLine
 10
399.152
 20
441.694689
 30
0.0
 11
399.152
 21
462.461249
 31
0.0
  0
LINE
  5
2F2
100
AcDbEntity
  8
LAY-1
  6
CONTINUOUS
 62
     7
100
AcDbLine
 10
379.038751
 20
441.694689
 30
0.0
 11
379.038751
 21
462.461249
 31
0.0
  0
LINE
  5
2F3
100
AcDbEntity
  8
LAY-1
  6
CONTINUOUS
 62
     7
100
AcDbLine
 10
379.038751
 20
441.694689
 30
0.0
 11
399.152
 21
441.694689
 31
0.0
  0
LINE
  5
2F4
100
AcDbEntity
  8
LAY-1
  6
CONTINUOUS
 62
     7
100
AcDbLine
 10
402.038751
 20
442.461249
 30
0.0
 11
399.152
 21
437.461249
 31
0.0
  0
LINE
  5
2F5
100
AcDbEntity
  8
LAY-1
  6
CONTINUOUS
 62
     7
100
AcDbLine
 10
367.038751
 20
488.098136
 30
0.0
 11
367.038751
 21
493.961249
 31
0.0
  0
LINE
  5
2F6
100
AcDbEntity
  8
LAY-1
  6
CONTINUOUS
 62
     7
100
AcDbLine
 10
367.038751
 20
436.824361
 30
0.0
 11
367.038751
 21
430.961249
 31
0.0
  0
LINE
  5
2F7
100
AcDbEntity
  8
LAY-1
  6
CONTINUOUS
 62
     7
100
AcDbLine
 10
367.038751
 20
432.461249
 30
0.0
 11
364.868032
 21
432.461249
 31
0.0
  0
LINE
  5
2F8
100
AcDbEntity
  8
LAY-1
  6
CONTINUOUS
 62
     7
100
AcDbLine
 10
367.038751
 20
492.461249
 30
0.0
 11
364.868032
 21
492.461249
 31
0.0
  0
ARC
  5
2F9
100
AcDbEntity
  8
LAY-1
  6
CONTINUOUS
 62
     7
100
AcDbCircle
 10
251.038751
 20
432.461249
 30
0.0
 40
2.0
100
AcDbArc
 50
270.0
 51
330.0
  0
ARC
  5
2FA
100
AcDbEntity
  8
LAY-1
  6
CONTINUOUS
 62
     7
100
AcDbCircle
 10
254.502853
 20
430.461249
 30
0.0
 40
2.0
100
AcDbArc
 50
90.0
 51
150.0
  0
LINE
  5
2FB
100
AcDbEntity
  8
LAY-1
  6
CONTINUOUS
 62
     7
100
AcDbLine
 10
231.538751
 20
430.461249
 30
0.0
 11
251.038751
 21
430.461249
 31
0.0
  0
ARC
  5
2FC
100
AcDbEntity
  8
LAY-1
  6
CONTINUOUS
 62
     7
100
AcDbCircle
 10
251.038751
 20
492.461249
 30
0.0
 40
2.0
100
AcDbArc
 50
30.0
 51
90.0
  0
ARC
  5
2FD
100
AcDbEntity
  8
LAY-1
  6
CONTINUOUS
 62
     7
100
AcDbCircle
 10
254.502853
 20
494.461249
 30
0.0
 40
2.0
100
AcDbArc
 50
210.0
 51
270.0
  0
LINE
  5
2FE
100
AcDbEntity
  8
LAY-1
  6
CONTINUOUS
 62
     7
100
AcDbLine
 10
231.538751
 20
494.461249
 30
0.0
 11
251.038751
 21
494.461249
 31
0.0
  0
LINE
  5
2FF
100
AcDbEntity
  8
LAY-1
  6
CONTINUOUS
 62
     7
100
AcDbLine
 10
254.502853
 20
492.461249
 30
0.0
 11
255.209471
 21
492.461249
 31
0.0
  0
LINE
  5
300
100
AcDbEntity
  8
LAY-1
  6
CONTINUOUS
 62
     7
100
AcDbLine
 10
254.502853
 20
432.461249
 30
0.0
 11
255.209471
 21
432.461249
 31
0.0
  0
LINE
  5
301
100
AcDbEntity
  8
LAY-1
  6
CONTINUOUS
 62
     7
100
AcDbLine
 10
253.579714
 20
433.697995
 30
0.0
 11
253.579714
 21
435.654028
 31
0.0
  0
LINE
  5
302
100
AcDbEntity
  8
LAY-1
  6
CONTINUOUS
 62
     7
100
AcDbLine
 10
251.779714
 20
432.197995
 30
0.0
 11
251.779714
 21
439.830859
 31
0.0
  0
LINE
  5
303
100
AcDbEntity
  8
LAY-1
  6
CONTINUOUS
 62
     7
100
AcDbLine
 10
251.779714
 20
492.724502
 30
0.0
 11
251.779714
 21
485.091638
 31
0.0
  0
LINE
  5
304
100
AcDbEntity
  8
LAY-1
  6
CONTINUOUS
 62
     7
100
AcDbLine
 10
253.579714
 20
491.224502
 30
0.0
 11
253.579714
 21
489.268469
 31
0.0
  0
LINE
  5
305
100
AcDbEntity
  8
LAY-1
  6
CONTINUOUS
 62
     7
100
AcDbLine
 10
230.5616
 20
430.461249
 30
0.0
 11
226.0616
 21
430.461249
 31
0.0
  0
LINE
  5
306
100
AcDbEntity
  8
LAY-1
  6
CONTINUOUS
 62
     7
100
AcDbLine
 10
226.0616
 20
494.461249
 30
0.0
 11
230.562732
 21
494.461249
 31
0.0
  0
LINE
  5
307
100
AcDbEntity
  8
LAY-1
  6
CONTINUOUS
 62
     7
100
AcDbLine
 10
230.562732
 20
494.461249
 30
0.0
 11
231.062576
 21
493.961405
 31
0.0
  0
ARC
  5
308
100
AcDbEntity
  8
LAY-1
  6
CONTINUOUS
 62
     7
100
AcDbCircle
 10
221.596558
 20
480.211249
 30
0.0
 40
1.0
100
AcDbArc
 50
270.0
 51
350.0
  0
LINE
  5
309
100
AcDbEntity
  8
LAY-1
  6
CONTINUOUS
 62
     7
100
AcDbLine
 10
222.581365
 20
444.884897
 30
0.0
 11
224.718138
 21
432.766656
 31
0.0
  0
ARC
  5
30A
100
AcDbEntity
  8
LAY-1
  6
CONTINUOUS
 62
     7
100
AcDbCircle
 10
228.657369
 20
491.461249
 30
0.0
 40
4.0
100
AcDbArc
 50
130.461909
 51
170.0
  0
LINE
  5
30B
100
AcDbEntity
  8
LAY-1
  6
CONTINUOUS
 62
     7
100
AcDbLine
 10
211.360638
 20
445.711249
 30
0.0
 11
221.785617
 21
445.711249
 31
0.0
  0
LINE
  5
30C
100
AcDbEntity
  8
LAY-1
  6
CONTINUOUS
 62
     7
100
AcDbLine
 10
210.0616
 20
447.961249
 30
0.0
 11
211.360638
 21
445.711249
 31
0.0
  0
LINE
  5
30D
100
AcDbEntity
  8
LAY-1
  6
CONTINUOUS
 62
     7
100
AcDbLine
 10
222.581365
 20
480.0376
 30
0.0
 11
224.718138
 21
492.155841
 31
0.0
  0
LINE
  5
30E
100
AcDbEntity
  8
LAY-1
  6
CONTINUOUS
 62
     7
100
AcDbLine
 10
210.0616
 20
476.961249
 30
0.0
 11
211.360638
 21
479.211249
 31
0.0
  0
LINE
  5
30F
100
AcDbEntity
  8
LAY-1
  6
CONTINUOUS
 62
     7
100
AcDbLine
 10
211.360638
 20
479.211249
 30
0.0
 11
221.596558
 21
479.211249
 31
0.0
  0
ARC
  5
310
100
AcDbEntity
  8
LAY-1
  6
CONTINUOUS
 62
     7
100
AcDbCircle
 10
221.596558
 20
444.711249
 30
0.0
 40
1.0
100
AcDbArc
 50
10.0
 51
90.0
  0
ARC
  5
311
100
AcDbEntity
  8
LAY-1
  6
CONTINUOUS
 62
     7
100
AcDbCircle
 10
228.657369
 20
433.461249
 30
0.0
 40
4.0
100
AcDbArc
 50
190.0
 51
229.131789
  0
ARC
  5
312
100
AcDbEntity
  8
LAY-1
  6
CONTINUOUS
 62
     7
100
AcDbCircle
 10
231.538751
 20
493.961249
 30
0.0
 40
0.5
100
AcDbArc
 50
90.0
 51
180.0
  0
ARC
  5
313
100
AcDbEntity
  8
LAY-1
  6
CONTINUOUS
 62
     7
100
AcDbCircle
 10
231.538751
 20
430.961249
 30
0.0
 40
0.5
100
AcDbArc
 50
180.0
 51
270.0
  0
LINE
  5
314
100
AcDbEntity
  8
LAY-1
  6
CONTINUOUS
 62
     7
100
AcDbLine
 10
208.038751
 20
462.461249
 30
0.0
 11
208.038751
 21
455.568486
 31
0.0
  0
LINE
  5
315
100
AcDbEntity
  8
LAY-1
  6
CONTINUOUS
 62
     7
100
AcDbLine
 10
230.5616
 20
430.461249
 30
0.0
 11
231.0616
 21
430.961249
 31
0.0
  0
LINE
  5
316
100
AcDbEntity
  8
LAY-1
  6
CONTINUOUS
 62
     7
100
AcDbLine
 10
208.038751
 20
462.461249
 30
0.0
 11
208.038751
 21
469.354011
 31
0.0
  0
LINE
  5
317
100
AcDbEntity
  8
LAY-1
  6
CONTINUOUS
 62
     7
100
AcDbLine
 10
206.038751
 20
466.5027
 30
0.0
 11
200.663966
 21
466.5027
 31
0.0
  0
LINE
  5
318
100
AcDbEntity
  8
LAY-1
  6
CONTINUOUS
 62
     7
100
AcDbLine
 10
200.663966
 20
458.419797
 30
0.0
 11
206.038751
 21
458.419797
 31
0.0
  0
ARC
  5
319
100
AcDbEntity
  8
LAY-1
  6
CONTINUOUS
 62
     7
100
AcDbCircle
 10
203.616903
 20
468.523426
 30
0.0
 40
3.578152
100
AcDbArc
 50
145.615753
 51
214.384247
  0
LINE
  5
31A
100
AcDbEntity
  8
LAY-1
  6
CONTINUOUS
 62
     7
100
AcDbLine
 10
200.038751
 20
455.461249
 30
0.0
 11
200.663966
 21
454.378345
 31
0.0
  0
LINE
  5
31B
100
AcDbEntity
  8
LAY-1
  6
CONTINUOUS
 62
     7
100
AcDbLine
 10
200.663966
 20
454.378345
 30
0.0
 11
206.038751
 21
454.378345
 31
0.0
  0
LINE
  5
31C
100
AcDbEntity
  8
LAY-1
  6
CONTINUOUS
 62
     7
100
AcDbLine
 10
200.038751
 20
469.461249
 30
0.0
 11
200.038751
 21
455.461249
 31
0.0
  0
LINE
  5
31D
100
AcDbEntity
  8
LAY-1
  6
CONTINUOUS
 62
     7
100
AcDbLine
 10
200.663966
 20
470.544152
 30
0.0
 11
200.038751
 21
469.461249
 31
0.0
  0
LINE
  5
31E
100
AcDbEntity
  8
LAY-1
  6
CONTINUOUS
 62
     7
100
AcDbLine
 10
206.038751
 20
470.544152
 30
0.0
 11
200.663966
 21
470.544152
 31
0.0
  0
LINE
  5
31F
100
AcDbEntity
  8
LAY-1
  6
CONTINUOUS
 62
     7
100
AcDbLine
 10
206.038751
 20
454.378345
 30
0.0
 11
206.038751
 21
470.544152
 31
0.0
  0
ARC
  5
320
100
AcDbEntity
  8
LAY-1
  6
CONTINUOUS
 62
     7
100
AcDbCircle
 10
213.413537
 20
462.461249
 30
0.0
 40
13.374785
100
AcDbArc
 50
162.412046
 51
197.587954
  0
ARC
  5
321
100
AcDbEntity
  8
LAY-1
  6
CONTINUOUS
 62
     7
100
AcDbCircle
 10
203.616903
 20
456.399071
 30
0.0
 40
3.578152
100
AcDbArc
 50
145.615753
 51
214.384247
  0
LINE
  5
322
100
AcDbEntity
  8
LAY-1
  6
CONTINUOUS
 62
     7
100
AcDbLine
 10
210.0616
 20
462.461249
 30
0.0
 11
210.0616
 21
476.961249
 31
0.0
  0
LINE
  5
323
100
AcDbEntity
  8
LAY-1
  6
CONTINUOUS
 62
     7
100
AcDbLine
 10
210.0616
 20
462.461249
 30
0.0
 11
210.0616
 21
447.961249
 31
0.0
  0
LINE
  5
324
100
AcDbEntity
  8
LAY-1
  6
CONTINUOUS
 62
     7
100
AcDbLine
 10
210.0616
 20
469.290441
 30
0.0
 11
206.038751
 21
469.416864
 31
0.0
  0
LINE
  5
325
100
AcDbEntity
  8
LAY-1
  6
CONTINUOUS
 62
     7
100
AcDbLine
 10
210.0616
 20
455.632056
 30
0.0
 11
206.038751
 21
455.505633
 31
0.0
  0
LINE
  5
326
100
AcDbEntity
  8
LAY-1
  6
CONTINUOUS
 62
     7
100
AcDbLine
 10
231.062576
 20
493.961405
 30
0.0
 11
231.058849
 21
462.461249
 31
0.0
  0
LINE
  5
327
100
AcDbEntity
  8
LAY-1
  6
CONTINUOUS
 62
     7
100
AcDbLine
 10
231.061387
 20
462.461249
 30
0.0
 11
231.0616
 21
430.961249
 31
0.0
  0
LINE
  5
328
100
AcDbEntity
  8
LAY-1
  6
CONTINUOUS
 62
     7
100
AcDbLine
 10
222.038922
 20
470.724502
 30
0.0
 11
211.360638
 21
470.724502
 31
0.0
  0
LINE
  5
329
100
AcDbEntity
  8
LAY-1
  6
CONTINUOUS
 62
     7
100
AcDbLine
 10
222.038922
 20
454.197995
 30
0.0
 11
211.360638
 21
454.197995
 31
0.0
  0
ARC
  5
32A
100
AcDbEntity
  8
LAY-1
  6
CONTINUOUS
 62
     7
100
AcDbCircle
 10
217.639296
 20
449.955362
 30
0.0
 40
7.577696
100
AcDbArc
 50
145.952208
 51
213.967687
  0
ARC
  5
32B
100
AcDbEntity
  8
LAY-1
  6
CONTINUOUS
 62
     7
100
AcDbCircle
 10
236.992627
 20
462.461249
 30
0.0
 40
26.931027
100
AcDbArc
 50
162.13169
 51
197.86831
  0
ARC
  5
32C
100
AcDbEntity
  8
LAY-1
  6
CONTINUOUS
 62
     7
100
AcDbCircle
 10
217.630544
 20
474.964454
 30
0.0
 40
7.568944
100
AcDbArc
 50
145.931927
 51
214.068073
  0
LINE
  5
32D
100
AcDbEntity
  8
LAY-1
  6
CONTINUOUS
 62
     7
100
AcDbLine
 10
226.179714
 20
493.524502
 30
0.0
 11
226.179714
 21
462.461249
 31
0.0
  0
LINE
  5
32E
100
AcDbEntity
  8
LAY-1
  6
CONTINUOUS
 62
     7
100
AcDbLine
 10
226.179714
 20
431.397995
 30
0.0
 11
226.179714
 21
462.461249
 31
0.0
  0
CIRCLE
  5
32F
100
AcDbEntity
  8
LAY-1
  6
CONTINUOUS
 62
     7
100
AcDbCircle
 10
917.781054
 20
494.281054
 30
0.0
 40
9.5
  0
CIRCLE
  5
330
100
AcDbEntity
  8
LAY-1
  6
CONTINUOUS
 62
     7
100
AcDbCircle
 10
854.141443
 20
494.281054
 30
0.0
 40
9.5
  0
CIRCLE
  5
331
100
AcDbEntity
  8
LAY-1
  6
CONTINUOUS
 62
     7
100
AcDbCircle
 10
885.961248
 20
462.461249
 30
0.0
 40
62.5
  0
CIRCLE
  5
332
100
AcDbEntity
  8
LAY-1
  6
CONTINUOUS
 62
     7
100
AcDbCircle
 10
885.961248
 20
462.461249
 30
0.0
 40
12.5
  0
CIRCLE
  5
333
100
AcDbEntity
  8
LAY-1
  6
CONTINUOUS
 62
     7
100
AcDbCircle
 10
885.961248
 20
462.461249
 30
0.0
 40
33.5
  0
CIRCLE
  5
334
100
AcDbEntity
  8
LAY-1
  6
CONTINUOUS
 62
     7
100
AcDbCircle
 10
854.141443
 20
430.641443
 30
0.0
 40
9.5
  0
CIRCLE
  5
335
100
AcDbEntity
  8
LAY-1
  6
CONTINUOUS
 62
     7
100
AcDbCircle
 10
917.781054
 20
430.641443
 30
0.0
 40
9.5
  0
LINE
  5
336
100
AcDbEntity
  8
LAY-1
  6
CONTINUOUS
 62
     7
100
AcDbLine
 10
757.453107
 20
468.961249
 30
0.0
 11
755.461249
 21
467.811249
 31
0.0
  0
LINE
  5
337
100
AcDbEntity
  8
LAY-1
  6
CONTINUOUS
 62
     7
100
AcDbLine
 10
755.461249
 20
474.560002
 30
0.0
 11
755.461249
 21
462.461249
 31
0.0
  0
LINE
  5
338
100
AcDbEntity
  8
LAY-1
  6
CONTINUOUS
 62
     7
100
AcDbLine
 10
757.453107
 20
462.461249
 30
0.0
 11
757.453107
 21
468.961249
 31
0.0
  0
LINE
  5
339
100
AcDbEntity
  8
LAY-1
  6
CONTINUOUS
 62
     7
100
AcDbLine
 10
771.961249
 20
482.668508
 30
0.0
 11
765.524285
 21
482.668508
 31
0.0
  0
LINE
  5
33A
100
AcDbEntity
  8
LAY-1
  6
CONTINUOUS
 62
     7
100
AcDbLine
 10
765.524285
 20
482.668508
 30
0.0
 11
763.961249
 21
479.961249
 31
0.0
  0
LINE
  5
33B
100
AcDbEntity
  8
LAY-1
  6
CONTINUOUS
 62
     7
100
AcDbLine
 10
765.524285
 20
442.253989
 30
0.0
 11
763.961249
 21
444.961249
 31
0.0
  0
LINE
  5
33C
100
AcDbEntity
  8
LAY-1
  6
CONTINUOUS
 62
     7
100
AcDbLine
 10
771.961249
 20
442.253989
 30
0.0
 11
765.524285
 21
442.253989
 31
0.0
  0
LINE
  5
33D
100
AcDbEntity
  8
LAY-1
  6
CONTINUOUS
 62
     7
100
AcDbLine
 10
757.453107
 20
462.461249
 30
0.0
 11
757.453107
 21
455.961249
 31
0.0
  0
LINE
  5
33E
100
AcDbEntity
  8
LAY-1
  6
CONTINUOUS
 62
     7
100
AcDbLine
 10
755.461249
 20
450.362495
 30
0.0
 11
755.461249
 21
462.461249
 31
0.0
  0
LINE
  5
33F
100
AcDbEntity
  8
LAY-1
  6
CONTINUOUS
 62
     7
100
AcDbLine
 10
757.453107
 20
455.961249
 30
0.0
 11
755.461249
 21
457.111249
 31
0.0
  0
ARC
  5
340
100
AcDbEntity
  8
LAY-1
  6
CONTINUOUS
 62
     7
100
AcDbCircle
 10
754.461249
 20
474.560002
 30
0.0
 40
1.0
100
AcDbArc
 50
0.0
 51
76.357114
  0
ARC
  5
341
100
AcDbEntity
  8
LAY-1
  6
CONTINUOUS
 62
     7
100
AcDbCircle
 10
739.461249
 20
504.461249
 30
0.0
 40
8.0
100
AcDbArc
 50
0.0
 51
180.0
  0
ARC
  5
342
100
AcDbEntity
  8
LAY-1
  6
CONTINUOUS
 62
     7
100
AcDbCircle
 10
755.286792
 20
477.961249
 30
0.0
 40
2.5
100
AcDbArc
 50
187.983556
 51
256.357114
  0
ARC
  5
343
100
AcDbEntity
  8
LAY-1
  6
CONTINUOUS
 62
     7
100
AcDbCircle
 10
755.286792
 20
446.961249
 30
0.0
 40
2.5
100
AcDbArc
 50
103.642886
 51
172.016444
  0
ARC
  5
344
100
AcDbEntity
  8
LAY-1
  6
CONTINUOUS
 62
     7
100
AcDbCircle
 10
739.461249
 20
420.461249
 30
0.0
 40
8.0
100
AcDbArc
 50
180.0
 51
0.0
  0
ARC
  5
345
100
AcDbEntity
  8
LAY-1
  6
CONTINUOUS
 62
     7
100
AcDbCircle
 10
754.461249
 20
450.362495
 30
0.0
 40
1.0
100
AcDbArc
 50
283.642886
 51
0.0
  0
LINE
  5
346
100
AcDbEntity
  8
LAY-1
  6
CONTINUOUS
 62
     7
100
AcDbLine
 10
828.961249
 20
430.961249
 30
0.0
 11
827.961249
 21
429.961249
 31
0.0
  0
LINE
  5
347
100
AcDbEntity
  8
LAY-1
  6
CONTINUOUS
 62
     7
100
AcDbLine
 10
828.961249
 20
493.961249
 30
0.0
 11
827.961249
 21
494.961249
 31
0.0
  0
LINE
  5
348
100
AcDbEntity
  8
LAY-1
  6
CONTINUOUS
 62
     7
100
AcDbLine
 10
773.961249
 20
482.461249
 30
0.0
 11
793.961248
 21
482.461249
 31
0.0
  0
LINE
  5
349
100
AcDbEntity
  8
LAY-1
  6
CONTINUOUS
 62
     7
100
AcDbLine
 10
773.961249
 20
442.461249
 30
0.0
 11
793.961249
 21
442.461249
 31
0.0
  0
LINE
  5
34A
100
AcDbEntity
  8
LAY-1
  6
CONTINUOUS
 62
     7
100
AcDbLine
 10
773.961249
 20
462.461249
 30
0.0
 11
773.961249
 21
482.461249
 31
0.0
  0
LINE
  5
34B
100
AcDbEntity
  8
LAY-1
  6
CONTINUOUS
 62
     7
100
AcDbLine
 10
773.961249
 20
442.461249
 30
0.0
 11
773.961249
 21
462.461249
 31
0.0
  0
LINE
  5
34C
100
AcDbEntity
  8
LAY-1
  6
CONTINUOUS
 62
     7
100
AcDbLine
 10
771.961249
 20
445.461249
 30
0.0
 11
773.961249
 21
445.461249
 31
0.0
  0
LINE
  5
34D
100
AcDbEntity
  8
LAY-1
  6
CONTINUOUS
 62
     7
100
AcDbLine
 10
771.961249
 20
479.461249
 30
0.0
 11
773.961249
 21
479.461249
 31
0.0
  0
LINE
  5
34E
100
AcDbEntity
  8
LAY-1
  6
CONTINUOUS
 62
     7
100
AcDbLine
 10
763.961249
 20
468.961249
 30
0.0
 11
757.453107
 21
468.961249
 31
0.0
  0
LINE
  5
34F
100
AcDbEntity
  8
LAY-1
  6
CONTINUOUS
 62
     7
100
AcDbLine
 10
763.961249
 20
479.961249
 30
0.0
 11
763.961249
 21
462.461249
 31
0.0
  0
LINE
  5
350
100
AcDbEntity
  8
LAY-1
  6
CONTINUOUS
 62
     7
100
AcDbLine
 10
763.961249
 20
444.961249
 30
0.0
 11
763.961249
 21
462.461249
 31
0.0
  0
LINE
  5
351
100
AcDbEntity
  8
LAY-1
  6
CONTINUOUS
 62
     7
100
AcDbLine
 10
763.961249
 20
455.961249
 30
0.0
 11
757.453107
 21
455.961249
 31
0.0
  0
LINE
  5
352
100
AcDbEntity
  8
LAY-1
  6
CONTINUOUS
 62
     7
100
AcDbLine
 10
731.461249
 20
420.461249
 30
0.0
 11
731.461249
 21
462.461249
 31
0.0
  0
LINE
  5
353
100
AcDbEntity
  8
LAY-1
  6
CONTINUOUS
 62
     7
100
AcDbLine
 10
731.461249
 20
504.461249
 30
0.0
 11
731.461249
 21
462.461249
 31
0.0
  0
ARC
  5
354
100
AcDbEntity
  8
LAY-1
  6
CONTINUOUS
 62
     7
100
AcDbCircle
 10
734.461249
 20
462.461248
 30
0.0
 40
6.0
100
AcDbArc
 50
120.0
 51
240.0
  0
ARC
  5
355
100
AcDbEntity
  8
LAY-1
  6
CONTINUOUS
 62
     7
100
AcDbCircle
 10
737.461249
 20
475.461249
 30
0.0
 40
15.5
100
AcDbArc
 50
7.983556
 51
49.82223
  0
ARC
  5
356
100
AcDbEntity
  8
LAY-1
  6
CONTINUOUS
 62
     7
100
AcDbCircle
 10
737.461249
 20
449.461249
 30
0.0
 40
15.5
100
AcDbArc
 50
310.17777
 51
352.016444
  0
LINE
  5
357
100
AcDbEntity
  8
LAY-1
  6
CONTINUOUS
 62
     7
100
AcDbLine
 10
747.461249
 20
504.461249
 30
0.0
 11
747.461249
 21
462.461249
 31
0.0
  0
LINE
  5
358
100
AcDbEntity
  8
LAY-1
  6
CONTINUOUS
 62
     7
100
AcDbLine
 10
747.461249
 20
420.461249
 30
0.0
 11
747.461249
 21
462.461249
 31
0.0
  0
LINE
  5
359
100
AcDbEntity
  8
LAY-1
  6
CONTINUOUS
 62
     7
100
AcDbLine
 10
771.961249
 20
462.461249
 30
0.0
 11
771.961249
 21
482.668508
 31
0.0
  0
LINE
  5
35A
100
AcDbEntity
  8
LAY-1
  6
CONTINUOUS
 62
     7
100
AcDbLine
 10
771.961249
 20
462.461249
 30
0.0
 11
771.961249
 21
442.253989
 31
0.0
  0
ARC
  5
35B
100
AcDbEntity
  8
LAY-1
  6
CONTINUOUS
 62
     7
100
AcDbCircle
 10
772.906628
 20
477.616693
 30
0.0
 40
8.94538
100
AcDbArc
 50
145.615753
 51
214.384247
  0
ARC
  5
35C
100
AcDbEntity
  8
LAY-1
  6
CONTINUOUS
 62
     7
100
AcDbCircle
 10
797.398212
 20
462.461249
 30
0.0
 40
33.436963
100
AcDbArc
 50
162.412046
 51
197.587954
  0
ARC
  5
35D
100
AcDbEntity
  8
LAY-1
  6
CONTINUOUS
 62
     7
100
AcDbCircle
 10
772.906628
 20
447.305804
 30
0.0
 40
8.94538
100
AcDbArc
 50
145.615753
 51
214.384247
  0
LINE
  5
35E
100
AcDbEntity
  8
LAY-1
  6
CONTINUOUS
 62
     7
100
AcDbLine
 10
771.961249
 20
472.564878
 30
0.0
 11
765.524285
 21
472.564878
 31
0.0
  0
LINE
  5
35F
100
AcDbEntity
  8
LAY-1
  6
CONTINUOUS
 62
     7
100
AcDbLine
 10
771.961249
 20
452.357619
 30
0.0
 11
765.524285
 21
452.357619
 31
0.0
  0
LINE
  5
360
100
AcDbEntity
  8
LAY-1
  6
CONTINUOUS
 62
     7
100
AcDbLine
 10
827.961249
 20
494.961249
 30
0.0
 11
816.961249
 21
494.961249
 31
0.0
  0
LINE
  5
361
100
AcDbEntity
  8
LAY-1
  6
CONTINUOUS
 62
     7
100
AcDbLine
 10
827.961249
 20
429.961249
 30
0.0
 11
816.961249
 21
429.961249
 31
0.0
  0
LINE
  5
362
100
AcDbEntity
  8
LAY-1
  6
CONTINUOUS
 62
     7
100
AcDbLine
 10
796.848
 20
487.461249
 30
0.0
 11
816.961249
 21
487.461249
 31
0.0
  0
LINE
  5
363
100
AcDbEntity
  8
LAY-1
  6
CONTINUOUS
 62
     7
100
AcDbLine
 10
816.961249
 20
487.461249
 30
0.0
 11
816.961249
 21
494.961249
 31
0.0
  0
LINE
  5
364
100
AcDbEntity
  8
LAY-1
  6
CONTINUOUS
 62
     7
100
AcDbLine
 10
793.961249
 20
482.461249
 30
0.0
 11
796.848
 21
487.461249
 31
0.0
  0
LINE
  5
365
100
AcDbEntity
  8
LAY-1
  6
CONTINUOUS
 62
     7
100
AcDbLine
 10
796.848
 20
437.461249
 30
0.0
 11
816.961249
 21
437.461249
 31
0.0
  0
LINE
  5
366
100
AcDbEntity
  8
LAY-1
  6
CONTINUOUS
 62
     7
100
AcDbLine
 10
816.961249
 20
437.461249
 30
0.0
 11
816.961249
 21
429.961249
 31
0.0
  0
LINE
  5
367
100
AcDbEntity
  8
LAY-1
  6
CONTINUOUS
 62
     7
100
AcDbLine
 10
816.961249
 20
483.227808
 30
0.0
 11
796.848
 21
483.227808
 31
0.0
  0
LINE
  5
368
100
AcDbEntity
  8
LAY-1
  6
CONTINUOUS
 62
     7
100
AcDbLine
 10
796.848
 20
483.227808
 30
0.0
 11
796.848
 21
462.461249
 31
0.0
  0
LINE
  5
369
100
AcDbEntity
  8
LAY-1
  6
CONTINUOUS
 62
     7
100
AcDbLine
 10
816.961249
 20
483.227808
 30
0.0
 11
816.961249
 21
462.461249
 31
0.0
  0
LINE
  5
36A
100
AcDbEntity
  8
LAY-1
  6
CONTINUOUS
 62
     7
100
AcDbLine
 10
796.848
 20
441.694689
 30
0.0
 11
796.848
 21
462.461249
 31
0.0
  0
LINE
  5
36B
100
AcDbEntity
  8
LAY-1
  6
CONTINUOUS
 62
     7
100
AcDbLine
 10
816.961249
 20
441.694689
 30
0.0
 11
816.961249
 21
462.461249
 31
0.0
  0
LINE
  5
36C
100
AcDbEntity
  8
LAY-1
  6
CONTINUOUS
 62
     7
100
AcDbLine
 10
816.961249
 20
441.694689
 30
0.0
 11
796.848
 21
441.694689
 31
0.0
  0
LINE
  5
36D
100
AcDbEntity
  8
LAY-1
  6
CONTINUOUS
 62
     7
100
AcDbLine
 10
793.961249
 20
442.461249
 30
0.0
 11
796.848
 21
437.461249
 31
0.0
  0
LINE
  5
36E
100
AcDbEntity
  8
LAY-1
  6
CONTINUOUS
 62
     7
100
AcDbLine
 10
828.961249
 20
488.098136
 30
0.0
 11
828.961249
 21
493.961249
 31
0.0
  0
LINE
  5
36F
100
AcDbEntity
  8
LAY-1
  6
CONTINUOUS
 62
     7
100
AcDbLine
 10
828.961249
 20
436.824361
 30
0.0
 11
828.961249
 21
430.961249
 31
0.0
  0
LINE
  5
370
100
AcDbEntity
  8
LAY-1
  6
CONTINUOUS
 62
     7
100
AcDbLine
 10
828.961249
 20
432.461249
 30
0.0
 11
831.131968
 21
432.461249
 31
0.0
  0
LINE
  5
371
100
AcDbEntity
  8
LAY-1
  6
CONTINUOUS
 62
     7
100
AcDbLine
 10
828.961249
 20
492.461249
 30
0.0
 11
831.131968
 21
492.461249
 31
0.0
  0
ARC
  5
372
100
AcDbEntity
  8
LAY-1
  6
CONTINUOUS
 62
     7
100
AcDbCircle
 10
944.961249
 20
432.461249
 30
0.0
 40
2.0
100
AcDbArc
 50
210.0
 51
270.0
  0
ARC
  5
373
100
AcDbEntity
  8
LAY-1
  6
CONTINUOUS
 62
     7
100
AcDbCircle
 10
941.497147
 20
430.461249
 30
0.0
 40
2.0
100
AcDbArc
 50
30.0
 51
90.0
  0
LINE
  5
374
100
AcDbEntity
  8
LAY-1
  6
CONTINUOUS
 62
     7
100
AcDbLine
 10
964.461249
 20
430.461249
 30
0.0
 11
944.961249
 21
430.461249
 31
0.0
  0
ARC
  5
375
100
AcDbEntity
  8
LAY-1
  6
CONTINUOUS
 62
     7
100
AcDbCircle
 10
944.961249
 20
492.461249
 30
0.0
 40
2.0
100
AcDbArc
 50
90.0
 51
150.0
  0
ARC
  5
376
100
AcDbEntity
  8
LAY-1
  6
CONTINUOUS
 62
     7
100
AcDbCircle
 10
941.497147
 20
494.461249
 30
0.0
 40
2.0
100
AcDbArc
 50
270.0
 51
330.0
  0
LINE
  5
377
100
AcDbEntity
  8
LAY-1
  6
CONTINUOUS
 62
     7
100
AcDbLine
 10
964.461249
 20
494.461249
 30
0.0
 11
944.961249
 21
494.461249
 31
0.0
  0
LINE
  5
378
100
AcDbEntity
  8
LAY-1
  6
CONTINUOUS
 62
     7
100
AcDbLine
 10
941.497147
 20
492.461249
 30
0.0
 11
940.790529
 21
492.461249
 31
0.0
  0
LINE
  5
379
100
AcDbEntity
  8
LAY-1
  6
CONTINUOUS
 62
     7
100
AcDbLine
 10
941.497147
 20
432.461249
 30
0.0
 11
940.790529
 21
432.461249
 31
0.0
  0
LINE
  5
37A
100
AcDbEntity
  8
LAY-1
  6
CONTINUOUS
 62
     7
100
AcDbLine
 10
942.420286
 20
433.697995
 30
0.0
 11
942.420286
 21
435.654028
 31
0.0
  0
LINE
  5
37B
100
AcDbEntity
  8
LAY-1
  6
CONTINUOUS
 62
     7
100
AcDbLine
 10
944.220286
 20
432.197995
 30
0.0
 11
944.220286
 21
439.830859
 31
0.0
  0
LINE
  5
37C
100
AcDbEntity
  8
LAY-1
  6
CONTINUOUS
 62
     7
100
AcDbLine
 10
944.220286
 20
492.724502
 30
0.0
 11
944.220286
 21
485.091638
 31
0.0
  0
LINE
  5
37D
100
AcDbEntity
  8
LAY-1
  6
CONTINUOUS
 62
     7
100
AcDbLine
 10
942.420286
 20
491.224502
 30
0.0
 11
942.420286
 21
489.268469
 31
0.0
  0
LINE
  5
37E
100
AcDbEntity
  8
LAY-1
  6
CONTINUOUS
 62
     7
100
AcDbLine
 10
965.4384
 20
430.461249
 30
0.0
 11
969.9384
 21
430.461249
 31
0.0
  0
LINE
  5
37F
100
AcDbEntity
  8
LAY-1
  6
CONTINUOUS
 62
     7
100
AcDbLine
 10
969.9384
 20
494.461249
 30
0.0
 11
965.437268
 21
494.461249
 31
0.0
  0
LINE
  5
380
100
AcDbEntity
  8
LAY-1
  6
CONTINUOUS
 62
     7
100
AcDbLine
 10
965.437268
 20
494.461249
 30
0.0
 11
964.937424
 21
493.961405
 31
0.0
  0
ARC
  5
381
100
AcDbEntity
  8
LAY-1
  6
CONTINUOUS
 62
     7
100
AcDbCircle
 10
974.403442
 20
480.211249
 30
0.0
 40
1.0
100
AcDbArc
 50
190.0
 51
270.0
  0
LINE
  5
382
100
AcDbEntity
  8
LAY-1
  6
CONTINUOUS
 62
     7
100
AcDbLine
 10
973.418635
 20
444.884897
 30
0.0
 11
971.281862
 21
432.766656
 31
0.0
  0
ARC
  5
383
100
AcDbEntity
  8
LAY-1
  6
CONTINUOUS
 62
     7
100
AcDbCircle
 10
967.342631
 20
491.461249
 30
0.0
 40
4.0
100
AcDbArc
 50
10.0
 51
49.538091
  0
LINE
  5
384
100
AcDbEntity
  8
LAY-1
  6
CONTINUOUS
 62
     7
100
AcDbLine
 10
984.639362
 20
445.711249
 30
0.0
 11
974.214383
 21
445.711249
 31
0.0
  0
LINE
  5
385
100
AcDbEntity
  8
LAY-1
  6
CONTINUOUS
 62
     7
100
AcDbLine
 10
985.9384
 20
447.961249
 30
0.0
 11
984.639362
 21
445.711249
 31
0.0
  0
LINE
  5
386
100
AcDbEntity
  8
LAY-1
  6
CONTINUOUS
 62
     7
100
AcDbLine
 10
973.418635
 20
480.0376
 30
0.0
 11
971.281862
 21
492.155841
 31
0.0
  0
LINE
  5
387
100
AcDbEntity
  8
LAY-1
  6
CONTINUOUS
 62
     7
100
AcDbLine
 10
985.9384
 20
476.961249
 30
0.0
 11
984.639362
 21
479.211249
 31
0.0
  0
LINE
  5
388
100
AcDbEntity
  8
LAY-1
  6
CONTINUOUS
 62
     7
100
AcDbLine
 10
984.639362
 20
479.211249
 30
0.0
 11
974.403442
 21
479.211249
 31
0.0
  0
ARC
  5
389
100
AcDbEntity
  8
LAY-1
  6
CONTINUOUS
 62
     7
100
AcDbCircle
 10
974.403442
 20
444.711249
 30
0.0
 40
1.0
100
AcDbArc
 50
90.0
 51
170.0
  0
ARC
  5
38A
100
AcDbEntity
  8
LAY-1
  6
CONTINUOUS
 62
     7
100
AcDbCircle
 10
967.342631
 20
433.461249
 30
0.0
 40
4.0
100
AcDbArc
 50
310.868211
 51
350.0
  0
ARC
  5
38B
100
AcDbEntity
  8
LAY-1
  6
CONTINUOUS
 62
     7
100
AcDbCircle
 10
964.461249
 20
493.961249
 30
0.0
 40
0.5
100
AcDbArc
 50
0.0
 51
90.0
  0
ARC
  5
38C
100
AcDbEntity
  8
LAY-1
  6
CONTINUOUS
 62
     7
100
AcDbCircle
 10
964.461249
 20
430.961249
 30
0.0
 40
0.5
100
AcDbArc
 50
270.0
 51
0.0
  0
LINE
  5
38D
100
AcDbEntity
  8
LAY-1
  6
CONTINUOUS
 62
     7
100
AcDbLine
 10
987.961249
 20
462.461249
 30
0.0
 11
987.961249
 21
455.568486
 31
0.0
  0
LINE
  5
38E
100
AcDbEntity
  8
LAY-1
  6
CONTINUOUS
 62
     7
100
AcDbLine
 10
965.4384
 20
430.461249
 30
0.0
 11
964.9384
 21
430.961249
 31
0.0
  0
LINE
  5
38F
100
AcDbEntity
  8
LAY-1
  6
CONTINUOUS
 62
     7
100
AcDbLine
 10
987.961249
 20
462.461249
 30
0.0
 11
987.961249
 21
469.354011
 31
0.0
  0
LINE
  5
390
100
AcDbEntity
  8
LAY-1
  6
CONTINUOUS
 62
     7
100
AcDbLine
 10
989.961249
 20
466.5027
 30
0.0
 11
995.336034
 21
466.5027
 31
0.0
  0
LINE
  5
391
100
AcDbEntity
  8
LAY-1
  6
CONTINUOUS
 62
     7
100
AcDbLine
 10
995.336034
 20
458.419797
 30
0.0
 11
989.961249
 21
458.419797
 31
0.0
  0
ARC
  5
392
100
AcDbEntity
  8
LAY-1
  6
CONTINUOUS
 62
     7
100
AcDbCircle
 10
992.383097
 20
468.523426
 30
0.0
 40
3.578152
100
AcDbArc
 50
325.615753
 51
34.384247
  0
LINE
  5
393
100
AcDbEntity
  8
LAY-1
  6
CONTINUOUS
 62
     7
100
AcDbLine
 10
995.961249
 20
455.461249
 30
0.0
 11
995.336034
 21
454.378345
 31
0.0
  0
LINE
  5
394
100
AcDbEntity
  8
LAY-1
  6
CONTINUOUS
 62
     7
100
AcDbLine
 10
995.336034
 20
454.378345
 30
0.0
 11
989.961249
 21
454.378345
 31
0.0
  0
LINE
  5
395
100
AcDbEntity
  8
LAY-1
  6
CONTINUOUS
 62
     7
100
AcDbLine
 10
995.961249
 20
469.461249
 30
0.0
 11
995.961249
 21
455.461249
 31
0.0
  0
LINE
  5
396
100
AcDbEntity
  8
LAY-1
  6
CONTINUOUS
 62
     7
100
AcDbLine
 10
995.336034
 20
470.544152
 30
0.0
 11
995.961249
 21
469.461249
 31
0.0
  0
LINE
  5
397
100
AcDbEntity
  8
LAY-1
  6
CONTINUOUS
 62
     7
100
AcDbLine
 10
989.961249
 20
470.544152
 30
0.0
 11
995.336034
 21
470.544152
 31
0.0
  0
LINE
  5
398
100
AcDbEntity
  8
LAY-1
  6
CONTINUOUS
 62
     7
100
AcDbLine
 10
989.961249
 20
454.378345
 30
0.0
 11
989.961249
 21
470.544152
 31
0.0
  0
ARC
  5
399
100
AcDbEntity
  8
LAY-1
  6
CONTINUOUS
 62
     7
100
AcDbCircle
 10
982.586463
 20
462.461249
 30
0.0
 40
13.374785
100
AcDbArc
 50
342.412046
 51
17.587954
  0
ARC
  5
39A
100
AcDbEntity
  8
LAY-1
  6
CONTINUOUS
 62
     7
100
AcDbCircle
 10
992.383097
 20
456.399071
 30
0.0
 40
3.578152
100
AcDbArc
 50
325.615753
 51
34.384247
  0
LINE
  5
39B
100
AcDbEntity
  8
LAY-1
  6
CONTINUOUS
 62
     7
100
AcDbLine
 10
985.9384
 20
462.461249
 30
0.0
 11
985.9384
 21
476.961249
 31
0.0
  0
LINE
  5
39C
100
AcDbEntity
  8
LAY-1
  6
CONTINUOUS
 62
     7
100
AcDbLine
 10
985.9384
 20
462.461249
 30
0.0
 11
985.9384
 21
447.961249
 31
0.0
  0
LINE
  5
39D
100
AcDbEntity
  8
LAY-1
  6
CONTINUOUS
 62
     7
100
AcDbLine
 10
985.9384
 20
469.290441
 30
0.0
 11
989.961249
 21
469.416864
 31
0.0
  0
LINE
  5
39E
100
AcDbEntity
  8
LAY-1
  6
CONTINUOUS
 62
     7
100
AcDbLine
 10
985.9384
 20
455.632056
 30
0.0
 11
989.961249
 21
455.505633
 31
0.0
  0
LINE
  5
39F
100
AcDbEntity
  8
LAY-1
  6
CONTINUOUS
 62
     7
100
AcDbLine
 10
964.937424
 20
493.961405
 30
0.0
 11
964.941151
 21
462.461249
 31
0.0
  0
LINE
  5
3A0
100
AcDbEntity
  8
LAY-1
  6
CONTINUOUS
 62
     7
100
AcDbLine
 10
964.938613
 20
462.461249
 30
0.0
 11
964.9384
 21
430.961249
 31
0.0
  0
LINE
  5
3A1
100
AcDbEntity
  8
LAY-1
  6
CONTINUOUS
 62
     7
100
AcDbLine
 10
973.961078
 20
470.724502
 30
0.0
 11
984.639362
 21
470.724502
 31
0.0
  0
LINE
  5
3A2
100
AcDbEntity
  8
LAY-1
  6
CONTINUOUS
 62
     7
100
AcDbLine
 10
973.961078
 20
454.197995
 30
0.0
 11
984.639362
 21
454.197995
 31
0.0
  0
ARC
  5
3A3
100
AcDbEntity
  8
LAY-1
  6
CONTINUOUS
 62
     7
100
AcDbCircle
 10
978.360704
 20
449.955362
 30
0.0
 40
7.577696
100
AcDbArc
 50
326.032313
 51
34.047792
  0
ARC
  5
3A4
100
AcDbEntity
  8
LAY-1
  6
CONTINUOUS
 62
     7
100
AcDbCircle
 10
959.007373
 20
462.461249
 30
0.0
 40
26.931027
100
AcDbArc
 50
342.13169
 51
17.86831
  0
ARC
  5
3A5
100
AcDbEntity
  8
LAY-1
  6
CONTINUOUS
 62
     7
100
AcDbCircle
 10
978.369456
 20
474.964454
 30
0.0
 40
7.568944
100
AcDbArc
 50
325.931927
 51
34.068073
  0
LINE
  5
3A6
100
AcDbEntity
  8
LAY-1
  6
CONTINUOUS
 62
     7
100
AcDbLine
 10
969.820286
 20
493.524502
 30
0.0
 11
969.820286
 21
462.461249
 31
0.0
  0
LINE
  5
3A7
100
AcDbEntity
  8
LAY-1
  6
CONTINUOUS
 62
     7
100
AcDbLine
 10
969.820286
 20
431.397995
 30
0.0
 11
969.820286
 21
462.461249
 31
0.0
  0
LINE
  5
3A8
100
AcDbEntity
  8
LAY-1
  6
CONTINUOUS
 62
     1
100
AcDbLine
 10
591.963237
 20
55.520286
 30
0.0
 11
591.057961
 21
53.952302
 31
0.0
  0
LINE
  5
3A9
100
AcDbEntity
  8
LAY-1
  6
CONTINUOUS
 62
     1
100
AcDbLine
 10
604.036763
 20
55.520286
 30
0.0
 11
604.942039
 21
53.952302
 31
0.0
  0
LINE
  5
3AA
100
AcDbEntity
  8
LAY-1
  6
EXLTYPE3
 62
     1
100
AcDbLine
 10
598.0
 20
315.497349
 30
0.0
 11
598.0
 21
45.458511
 31
0.0
  0
LINE
  5
3AB
100
AcDbEntity
  8
LAY-1
  6
EXLTYPE3
 62
     1
100
AcDbLine
 10
643.115175
 20
202.520286
 30
0.0
 11
665.847197
 21
202.520286
 31
0.0
  0
LINE
  5
3AC
100
AcDbEntity
  8
LAY-1
  6
EXLTYPE3
 62
     1
100
AcDbLine
 10
552.884825
 20
202.520286
 30
0.0
 11
530.152803
 21
202.520286
 31
0.0
  0
LINE
  5
3AD
100
AcDbEntity
  8
LAY-1
  6
EXLTYPE3
 62
     1
100
AcDbLine
 10
525.41319
 20
157.520286
 30
0.0
 11
665.301769
 21
157.520286
 31
0.0
  0
LINE
  5
3AE
100
AcDbEntity
  8
LAY-1
  6
EXLTYPE3
 62
     1
100
AcDbLine
 10
643.115175
 20
112.520286
 30
0.0
 11
665.847197
 21
112.520286
 31
0.0
  0
LINE
  5
3AF
100
AcDbEntity
  8
LAY-1
  6
EXLTYPE3
 62
     1
100
AcDbLine
 10
552.884825
 20
112.520286
 30
0.0
 11
530.152803
 21
112.520286
 31
0.0
  0
LINE
  5
3B0
100
AcDbEntity
  8
LAY-1
  6
CONTINUOUS
 62
     1
100
AcDbLine
 10
592.026808
 20
57.543135
 30
0.0
 11
591.963237
 21
55.520286
 31
0.0
  0
LINE
  5
3B1
100
AcDbEntity
  8
LAY-1
  6
CONTINUOUS
 62
     1
100
AcDbLine
 10
603.973192
 20
57.543135
 30
0.0
 11
604.036763
 21
55.520286
 31
0.0
  0
LINE
  5
3B2
100
AcDbEntity
  8
LAY-1
  6
CONTINUOUS
 62
     1
100
AcDbLine
 10
581.461325
 20
269.520286
 30
0.0
 11
581.0
 21
270.319324
 31
0.0
  0
LINE
  5
3B3
100
AcDbEntity
  8
LAY-1
  6
CONTINUOUS
 62
     1
100
AcDbLine
 10
614.538675
 20
269.520286
 30
0.0
 11
615.0
 21
270.319324
 31
0.0
  0
LINE
  5
3B4
100
AcDbEntity
  8
LAY-1
  6
EXLTYPE3
 62
     1
100
AcDbLine
 10
643.115175
 20
507.461249
 30
0.0
 11
665.847197
 21
507.461249
 31
0.0
  0
LINE
  5
3B5
100
AcDbEntity
  8
LAY-1
  6
EXLTYPE3
 62
     1
100
AcDbLine
 10
643.115175
 20
417.461249
 30
0.0
 11
665.847197
 21
417.461249
 31
0.0
  0
LINE
  5
3B6
100
AcDbEntity
  8
LAY-1
  6
EXLTYPE3
 62
     1
100
AcDbLine
 10
552.884825
 20
507.461249
 30
0.0
 11
530.152803
 21
507.461249
 31
0.0
  0
LINE
  5
3B7
100
AcDbEntity
  8
LAY-1
  6
EXLTYPE3
 62
     1
100
AcDbLine
 10
552.884825
 20
417.461249
 30
0.0
 11
530.152803
 21
417.461249
 31
0.0
  0
LINE
  5
3B8
100
AcDbEntity
  8
LAY-1
  6
EXLTYPE3
 62
     1
100
AcDbLine
 10
676.763254
 20
462.461249
 30
0.0
 11
518.763254
 21
462.461249
 31
0.0
  0
LINE
  5
3B9
100
AcDbEntity
  8
LAY-1
  6
EXLTYPE3
 62
     1
100
AcDbLine
 10
598.0
 20
398.461249
 30
0.0
 11
598.0
 21
526.461249
 31
0.0
  0
LINE
  5
3BA
100
AcDbEntity
  8
LAY-1
  6
CONTINUOUS
 62
     1
100
AcDbLine
 10
591.963237
 20
869.402211
 30
0.0
 11
591.057961
 21
870.970195
 31
0.0
  0
LINE
  5
3BB
100
AcDbEntity
  8
LAY-1
  6
CONTINUOUS
 62
     1
100
AcDbLine
 10
604.036763
 20
869.402211
 30
0.0
 11
604.942039
 21
870.970195
 31
0.0
  0
LINE
  5
3BC
100
AcDbEntity
  8
LAY-1
  6
EXLTYPE3
 62
     1
100
AcDbLine
 10
598.0
 20
609.425148
 30
0.0
 11
598.0
 21
879.463986
 31
0.0
  0
LINE
  5
3BD
100
AcDbEntity
  8
LAY-1
  6
EXLTYPE3
 62
     1
100
AcDbLine
 10
643.115175
 20
722.402211
 30
0.0
 11
665.847197
 21
722.402211
 31
0.0
  0
LINE
  5
3BE
100
AcDbEntity
  8
LAY-1
  6
EXLTYPE3
 62
     1
100
AcDbLine
 10
552.884825
 20
722.402211
 30
0.0
 11
530.152803
 21
722.402211
 31
0.0
  0
LINE
  5
3BF
100
AcDbEntity
  8
LAY-1
  6
EXLTYPE3
 62
     1
100
AcDbLine
 10
643.115175
 20
812.402211
 30
0.0
 11
665.847197
 21
812.402211
 31
0.0
  0
LINE
  5
3C0
100
AcDbEntity
  8
LAY-1
  6
EXLTYPE3
 62
     1
100
AcDbLine
 10
552.884825
 20
812.402211
 30
0.0
 11
530.152803
 21
812.402211
 31
0.0
  0
LINE
  5
3C1
100
AcDbEntity
  8
LAY-1
  6
CONTINUOUS
 62
     1
100
AcDbLine
 10
592.026808
 20
867.379362
 30
0.0
 11
591.963237
 21
869.402211
 31
0.0
  0
LINE
  5
3C2
100
AcDbEntity
  8
LAY-1
  6
CONTINUOUS
 62
     1
100
AcDbLine
 10
603.973192
 20
867.379362
 30
0.0
 11
604.036763
 21
869.402211
 31
0.0
  0
LINE
  5
3C3
100
AcDbEntity
  8
LAY-1
  6
CONTINUOUS
 62
     1
100
AcDbLine
 10
581.461325
 20
655.402211
 30
0.0
 11
581.0
 21
654.603173
 31
0.0
  0
LINE
  5
3C4
100
AcDbEntity
  8
LAY-1
  6
CONTINUOUS
 62
     1
100
AcDbLine
 10
614.538675
 20
655.402211
 30
0.0
 11
615.0
 21
654.603173
 31
0.0
  0
LINE
  5
3C5
100
AcDbEntity
  8
LAY-1
  6
EXLTYPE3
 62
     1
100
AcDbLine
 10
525.41319
 20
767.402211
 30
0.0
 11
674.087756
 21
767.402211
 31
0.0
  0
LINE
  5
3C6
100
AcDbEntity
  8
LAY-1
  6
CONTINUOUS
 62
     1
100
AcDbLine
 10
422.038751
 20
445.922573
 30
0.0
 11
422.83779
 21
445.461249
 31
0.0
  0
LINE
  5
3C7
100
AcDbEntity
  8
LAY-1
  6
CONTINUOUS
 62
     1
100
AcDbLine
 10
422.038751
 20
478.999924
 30
0.0
 11
422.83779
 21
479.461249
 31
0.0
  0
LINE
  5
3C8
100
AcDbEntity
  8
LAY-1
  6
CONTINUOUS
 62
     1
100
AcDbLine
 10
208.038751
 20
456.424486
 30
0.0
 11
206.470768
 21
455.51921
 31
0.0
  0
LINE
  5
3C9
100
AcDbEntity
  8
LAY-1
  6
CONTINUOUS
 62
     1
100
AcDbLine
 10
208.038751
 20
468.498011
 30
0.0
 11
206.470768
 21
469.403287
 31
0.0
  0
LINE
  5
3CA
100
AcDbEntity
  8
LAY-1
  6
CONTINUOUS
 62
     1
100
AcDbLine
 10
210.0616
 20
456.488056
 30
0.0
 11
208.038751
 21
456.424486
 31
0.0
  0
LINE
  5
3CB
100
AcDbEntity
  8
LAY-1
  6
CONTINUOUS
 62
     1
100
AcDbLine
 10
210.0616
 20
468.434441
 30
0.0
 11
208.038751
 21
468.498011
 31
0.0
  0
LINE
  5
3CC
100
AcDbEntity
  8
LAY-1
  6
EXLTYPE3
 62
     1
100
AcDbLine
 10
480.462698
 20
462.461249
 30
0.0
 11
184.779714
 21
462.461249
 31
0.0
  0
LINE
  5
3CD
100
AcDbEntity
  8
LAY-1
  6
EXLTYPE3
 62
     1
100
AcDbLine
 10
310.038752
 20
388.917687
 30
0.0
 11
310.038752
 21
536.00481
 31
0.0
  0
LINE
  5
3CE
100
AcDbEntity
  8
LAY-1
  6
CONTINUOUS
 62
     1
100
AcDbLine
 10
773.961249
 20
445.922573
 30
0.0
 11
773.16221
 21
445.461249
 31
0.0
  0
LINE
  5
3CF
100
AcDbEntity
  8
LAY-1
  6
CONTINUOUS
 62
     1
100
AcDbLine
 10
773.961249
 20
478.999924
 30
0.0
 11
773.16221
 21
479.461249
 31
0.0
  0
LINE
  5
3D0
100
AcDbEntity
  8
LAY-1
  6
CONTINUOUS
 62
     1
100
AcDbLine
 10
987.961249
 20
456.424486
 30
0.0
 11
989.529232
 21
455.51921
 31
0.0
  0
LINE
  5
3D1
100
AcDbEntity
  8
LAY-1
  6
CONTINUOUS
 62
     1
100
AcDbLine
 10
987.961249
 20
468.498011
 30
0.0
 11
989.529232
 21
469.403287
 31
0.0
  0
LINE
  5
3D2
100
AcDbEntity
  8
LAY-1
  6
CONTINUOUS
 62
     1
100
AcDbLine
 10
985.9384
 20
456.488056
 30
0.0
 11
987.961249
 21
456.424486
 31
0.0
  0
LINE
  5
3D3
100
AcDbEntity
  8
LAY-1
  6
CONTINUOUS
 62
     1
100
AcDbLine
 10
985.9384
 20
468.434441
 30
0.0
 11
987.961249
 21
468.498011
 31
0.0
  0
LINE
  5
3D4
100
AcDbEntity
  8
LAY-1
  6
EXLTYPE3
 62
     1
100
AcDbLine
 10
715.537302
 20
462.461249
 30
0.0
 11
1011.220286
 21
462.461249
 31
0.0
  0
LINE
  5
3D5
100
AcDbEntity
  8
LAY-1
  6
EXLTYPE3
 62
     1
100
AcDbLine
 10
885.961248
 20
388.917687
 30
0.0
 11
885.961248
 21
536.00481
 31
0.0
  0
ARC
  5
3D6
100
AcDbEntity
  8
LAY-1
  6
CONTINUOUS
 62
     7
100
AcDbCircle
 10
598.0
 20
462.461249
 30
0.0
 40
32.5
100
AcDbArc
 50
103.495002
 51
166.504998
  0
ARC
  5
3D7
100
AcDbEntity
  8
LAY-1
  6
CONTINUOUS
 62
     7
100
AcDbCircle
 10
598.0
 20
462.461249
 30
0.0
 40
25.0
100
AcDbArc
 50
106.047317
 51
163.952683
  0
POLYLINE
  5
3D8
100
AcDbEntity
  8
LAY-1
  6
CONTINUOUS
 62
     7
100
AcDb2dPolyline
 66
     1
 10
0.0
 20
0.0
 30
0.0
 70
   128
  0
VERTEX
  5
3D9
100
AcDbEntity
  8
LAY-1
  6
CONTINUOUS
 62
     7
100
AcDbVertex
100
AcDb2dVertex
 10
590.802429
 20
479.961249
 30
0.0
  0
VERTEX
  5
3DA
100
AcDbEntity
  8
LAY-1
  6
CONTINUOUS
 62
     7
100
AcDbVertex
100
AcDb2dVertex
 10
587.89637
 20
479.961249
 30
0.0
  0
VERTEX
  5
3DB
100
AcDbEntity
  8
LAY-1
  6
CONTINUOUS
 62
     7
100
AcDbVertex
100
AcDb2dVertex
 10
581.985964
 20
469.724124
 30
0.0
  0
SEQEND
  5
3DC
100
AcDbEntity
  8
LAY-1
  6
CONTINUOUS
 62
     7
  0
ARC
  5
3DD
100
AcDbEntity
  8
LAY-1
  6
CONTINUOUS
 62
     7
100
AcDbCircle
 10
598.0
 20
462.461249
 30
0.0
 40
17.5
100
AcDbArc
 50
114.535569
 51
155.464431
  0
ARC
  5
3DE
100
AcDbEntity
  8
LAY-1
  6
CONTINUOUS
 62
     7
100
AcDbCircle
 10
598.0
 20
462.461249
 30
0.0
 40
32.5
100
AcDbArc
 50
13.495002
 51
76.504998
  0
ARC
  5
3DF
100
AcDbEntity
  8
LAY-1
  6
CONTINUOUS
 62
     7
100
AcDbCircle
 10
598.0
 20
462.461249
 30
0.0
 40
25.0
100
AcDbArc
 50
16.047317
 51
73.952683
  0
POLYLINE
  5
3E0
100
AcDbEntity
  8
LAY-1
  6
CONTINUOUS
 62
     7
100
AcDb2dPolyline
 66
     1
 10
0.0
 20
0.0
 30
0.0
 70
   128
  0
VERTEX
  5
3E1
100
AcDbEntity
  8
LAY-1
  6
CONTINUOUS
 62
     7
100
AcDbVertex
100
AcDb2dVertex
 10
614.014036
 20
469.724124
 30
0.0
  0
VERTEX
  5
3E2
100
AcDbEntity
  8
LAY-1
  6
CONTINUOUS
 62
     7
100
AcDbVertex
100
AcDb2dVertex
 10
608.10363
 20
479.961249
 30
0.0
  0
VERTEX
  5
3E3
100
AcDbEntity
  8
LAY-1
  6
CONTINUOUS
 62
     7
100
AcDbVertex
100
AcDb2dVertex
 10
605.197571
 20
479.961249
 30
0.0
  0
SEQEND
  5
3E4
100
AcDbEntity
  8
LAY-1
  6
CONTINUOUS
 62
     7
  0
ARC
  5
3E5
100
AcDbEntity
  8
LAY-1
  6
CONTINUOUS
 62
     7
100
AcDbCircle
 10
598.0
 20
462.461249
 30
0.0
 40
17.5
100
AcDbArc
 50
24.535569
 51
65.464431
  0
ARC
  5
3E6
100
AcDbEntity
  8
LAY-1
  6
CONTINUOUS
 62
     7
100
AcDbCircle
 10
598.0
 20
462.461249
 30
0.0
 40
25.0
100
AcDbArc
 50
286.047317
 51
343.952683
  0
ARC
  5
3E7
100
AcDbEntity
  8
LAY-1
  6
CONTINUOUS
 62
     7
100
AcDbCircle
 10
598.0
 20
462.461249
 30
0.0
 40
25.0
100
AcDbArc
 50
196.047317
 51
253.952683
  0
ARC
  5
3E8
100
AcDbEntity
  8
LAY-1
  6
CONTINUOUS
 62
     7
100
AcDbCircle
 10
598.0
 20
462.461249
 30
0.0
 40
32.5
100
AcDbArc
 50
193.495002
 51
256.504998
  0
ARC
  5
3E9
100
AcDbEntity
  8
LAY-1
  6
CONTINUOUS
 62
     7
100
AcDbCircle
 10
598.0
 20
462.461249
 30
0.0
 40
32.5
100
AcDbArc
 50
283.495002
 51
346.504998
  0
ARC
  5
3EA
100
AcDbEntity
  8
LAY-1
  6
CONTINUOUS
 62
     7
100
AcDbCircle
 10
598.0
 20
462.461249
 30
0.0
 40
17.5
100
AcDbArc
 50
204.535569
 51
245.464431
  0
POLYLINE
  5
3EB
100
AcDbEntity
  8
LAY-1
  6
CONTINUOUS
 62
     7
100
AcDb2dPolyline
 66
     1
 10
0.0
 20
0.0
 30
0.0
 70
   128
  0
VERTEX
  5
3EC
100
AcDbEntity
  8
LAY-1
  6
CONTINUOUS
 62
     7
100
AcDbVertex
100
AcDb2dVertex
 10
581.985964
 20
455.198373
 30
0.0
  0
VERTEX
  5
3ED
100
AcDbEntity
  8
LAY-1
  6
CONTINUOUS
 62
     7
100
AcDbVertex
100
AcDb2dVertex
 10
587.89637
 20
444.961249
 30
0.0
  0
VERTEX
  5
3EE
100
AcDbEntity
  8
LAY-1
  6
CONTINUOUS
 62
     7
100
AcDbVertex
100
AcDb2dVertex
 10
590.802429
 20
444.961249
 30
0.0
  0
SEQEND
  5
3EF
100
AcDbEntity
  8
LAY-1
  6
CONTINUOUS
 62
     7
  0
ARC
  5
3F0
100
AcDbEntity
  8
LAY-1
  6
CONTINUOUS
 62
     7
100
AcDbCircle
 10
598.0
 20
462.461249
 30
0.0
 40
17.5
100
AcDbArc
 50
294.535569
 51
335.464431
  0
POLYLINE
  5
3F1
100
AcDbEntity
  8
LAY-1
  6
CONTINUOUS
 62
     7
100
AcDb2dPolyline
 66
     1
 10
0.0
 20
0.0
 30
0.0
 70
   128
  0
VERTEX
  5
3F2
100
AcDbEntity
  8
LAY-1
  6
CONTINUOUS
 62
     7
100
AcDbVertex
100
AcDb2dVertex
 10
605.197571
 20
444.961249
 30
0.0
  0
VERTEX
  5
3F3
100
AcDbEntity
  8
LAY-1
  6
CONTINUOUS
 62
     7
100
AcDbVertex
100
AcDb2dVertex
 10
608.10363
 20
444.961249
 30
0.0
  0
VERTEX
  5
3F4
100
AcDbEntity
  8
LAY-1
  6
CONTINUOUS
 62
     7
100
AcDbVertex
100
AcDb2dVertex
 10
614.014036
 20
455.198373
 30
0.0
  0
SEQEND
  5
3F5
100
AcDbEntity
  8
LAY-1
  6
CONTINUOUS
 62
     7
  0
TEXT
  5
3F6
100
AcDbEntity
  8
LAY-1
  6
CONTINUOUS
 62
     3
100
AcDbText
 10
298.661249
 20
37.377503
 30
0.0
 40
20.0
  1
４－φ１９
 41
0.84
  7
EXCADSTD
 72
     5
 11
398.661249
 21
37.377503
 31
0.0
100
AcDbText
  0
TEXT
  5
3F7
100
AcDbEntity
  8
LAY-1
  6
CONTINUOUS
 62
     3
100
AcDbText
 10
774.2
 20
36.3
 30
0.0
 40
20.0
  1
４－φ１９
 41
0.84
  7
EXCADSTD
 72
     5
 11
874.2
 21
36.3
 31
0.0
100
AcDbText
  0
LINE
  5
3F8
100
AcDbEntity
  8
LAY-3
  6
CONTINUOUS
 62
     1
100
AcDbLine
 10
663.0
 20
1.0
 30
0.0
 11
533.0
 21
1.0
 31
0.0
  0
LINE
  5
3F9
100
AcDbEntity
  8
LAY-3
  6
CONTINUOUS
 62
     1
100
AcDbLine
 10
661.0
 20
0.666667
 30
0.0
 11
663.0
 21
1.0
 31
0.0
  0
LINE
  5
3FA
100
AcDbEntity
  8
LAY-3
  6
CONTINUOUS
 62
     1
100
AcDbLine
 10
663.0
 20
1.0
 30
0.0
 11
661.0
 21
1.333333
 31
0.0
  0
LINE
  5
3FB
100
AcDbEntity
  8
LAY-3
  6
CONTINUOUS
 62
     1
100
AcDbLine
 10
535.0
 20
1.333333
 30
0.0
 11
533.0
 21
1.0
 31
0.0
  0
LINE
  5
3FC
100
AcDbEntity
  8
LAY-3
  6
CONTINUOUS
 62
     1
100
AcDbLine
 10
533.0
 20
1.0
 30
0.0
 11
535.0
 21
0.666667
 31
0.0
  0
TEXT
  5
3FD
100
AcDbEntity
  8
LAY-3
  6
CONTINUOUS
 62
     3
100
AcDbText
 10
568.0
 20
2.0
 30
0.0
 40
20.0
  1
１３０
 41
0.84
  7
EXCADSTD
 72
     5
 11
628.0
 21
2.0
 31
0.0
100
AcDbText
  0
LINE
  5
3FE
100
AcDbEntity
  8
LAY-3
  6
CONTINUOUS
 62
     1
100
AcDbLine
 10
663.0
 20
122.520286
 30
0.0
 11
663.0
 21
0.5
 31
0.0
  0
LINE
  5
3FF
100
AcDbEntity
  8
LAY-3
  6
CONTINUOUS
 62
     1
100
AcDbLine
 10
533.0
 20
122.520286
 30
0.0
 11
533.0
 21
0.5
 31
0.0
  0
LINE
  5
400
100
AcDbEntity
  8
LAY-3
  6
CONTINUOUS
 62
     7
100
AcDbLine
 10
491.665204
 20
161.520286
 30
0.0
 11
491.665204
 21
153.520286
 31
0.0
  0
LINE
  5
401
100
AcDbEntity
  8
LAY-3
  6
CONTINUOUS
 62
     7
100
AcDbLine
 10
491.665204
 20
153.520286
 30
0.0
 11
506.064273
 21
153.520286
 31
0.0
  0
LINE
  5
402
100
AcDbEntity
  8
LAY-3
  6
CONTINUOUS
 62
     7
100
AcDbLine
 10
506.064273
 20
153.520286
 30
0.0
 11
506.064273
 21
149.520286
 31
0.0
  0
LINE
  5
403
100
AcDbEntity
  8
LAY-3
  6
CONTINUOUS
 62
     7
100
AcDbLine
 10
506.064273
 20
149.520286
 30
0.0
 11
515.0
 21
157.520286
 31
0.0
  0
LINE
  5
404
100
AcDbEntity
  8
LAY-3
  6
CONTINUOUS
 62
     7
100
AcDbLine
 10
515.0
 20
157.520286
 30
0.0
 11
506.064273
 21
165.520286
 31
0.0
  0
LINE
  5
405
100
AcDbEntity
  8
LAY-3
  6
CONTINUOUS
 62
     7
100
AcDbLine
 10
506.064273
 20
165.520286
 30
0.0
 11
506.064273
 21
161.520286
 31
0.0
  0
LINE
  5
406
100
AcDbEntity
  8
LAY-3
  6
CONTINUOUS
 62
     7
100
AcDbLine
 10
506.064273
 20
161.520286
 30
0.0
 11
491.665204
 21
161.520286
 31
0.0
  0
LINE
  5
407
100
AcDbEntity
  8
LAY-3
  6
CONTINUOUS
 62
     7
100
AcDbLine
 10
678.665204
 20
161.520286
 30
0.0
 11
678.665204
 21
153.520286
 31
0.0
  0
LINE
  5
408
100
AcDbEntity
  8
LAY-3
  6
CONTINUOUS
 62
     7
100
AcDbLine
 10
678.665204
 20
153.520286
 30
0.0
 11
693.064273
 21
153.520286
 31
0.0
  0
LINE
  5
409
100
AcDbEntity
  8
LAY-3
  6
CONTINUOUS
 62
     7
100
AcDbLine
 10
693.064273
 20
153.520286
 30
0.0
 11
693.064273
 21
149.520286
 31
0.0
  0
LINE
  5
40A
100
AcDbEntity
  8
LAY-3
  6
CONTINUOUS
 62
     7
100
AcDbLine
 10
693.064273
 20
149.520286
 30
0.0
 11
702.0
 21
157.520286
 31
0.0
  0
LINE
  5
40B
100
AcDbEntity
  8
LAY-3
  6
CONTINUOUS
 62
     7
100
AcDbLine
 10
702.0
 20
157.520286
 30
0.0
 11
693.064273
 21
165.520286
 31
0.0
  0
LINE
  5
40C
100
AcDbEntity
  8
LAY-3
  6
CONTINUOUS
 62
     7
100
AcDbLine
 10
693.064273
 20
165.520286
 30
0.0
 11
693.064273
 21
161.520286
 31
0.0
  0
LINE
  5
40D
100
AcDbEntity
  8
LAY-3
  6
CONTINUOUS
 62
     7
100
AcDbLine
 10
693.064273
 20
161.520286
 30
0.0
 11
678.665204
 21
161.520286
 31
0.0
  0
ENDSEC
  0
SECTION
  2
OBJECTS
  0
DICTIONARY
  5
19
100
AcDbDictionary
  3
ACAD_GROUP
350
1A
  3
ACAD_MLINESTYLE
350
1B
  0
DICTIONARY
  5
1A
102
{ACAD_REACTORS
330
19
102
}
100
AcDbDictionary
  0
DICTIONARY
  5
1B
102
{ACAD_REACTORS
330
19
102
}
100
AcDbDictionary
  3
STANDARD
350
1C
  0
MLINESTYLE
  5
1C
102
{ACAD_REACTORS
330
1B
102
}
100
AcDbMlineStyle
  2
Standard
 70
     0
  3

 62
     0
 51
90.0
 52
90.0
 71
     2
 49
0.5
 62
   256
  6
ByLayer
 49
-0.5
 62
   256
  6
ByLayer
  0
ENDSEC
  0
EOF
