  0
SECTION
  2
HEADER
  9
$ACADVER
  1
AC1014
  9
$ACADMAINTVER
 70
     0
  9
$DWGCODEPAGE
  3
ANSI_932
  9
$INSBASE
 10
0.0
 20
0.0
 30
0.0
  9
$EXTMIN
 10
-450.0
 20
-424.871343
 30
0.0
  9
$EXTMAX
 10
803.72
 20
717.328657
 30
0.0
  9
$LIMMIN
 10
0.0
 20
0.0
  9
$LIMMAX
 10
420.0
 20
297.0
  9
$ORTHOMODE
 70
     0
  9
$REGENMODE
 70
     1
  9
$FILLMODE
 70
     1
  9
$QTEXTMODE
 70
     0
  9
$MIRRTEXT
 70
     1
  9
$DRAGMODE
 70
     2
  9
$LTSCALE
 40
1.0
  9
$OSMODE
 70
     0
  9
$ATTMODE
 70
     1
  9
$TEXTSIZE
 40
0.2
  9
$TRACEWID
 40
0.05
  9
$TEXTSTYLE
  7
STANDARD
  9
$CLAYER
  8
LAY-1
  9
$CELTYPE
  6
CONTINUOUS
  9
$CECOLOR
 62
   256
  9
$CELTSCALE
 40
1.0
  9
$DELOBJ
 70
     1
  9
$DISPSILH
 70
     0
  9
$DIMSCALE
 40
1.0
  9
$DIMASZ
 40
0.18
  9
$DIMEXO
 40
0.0625
  9
$DIMDLI
 40
0.38
  9
$DIMRND
 40
0.0
  9
$DIMDLE
 40
0.0
  9
$DIMEXE
 40
0.18
  9
$DIMTP
 40
0.0
  9
$DIMTM
 40
0.0
  9
$DIMTXT
 40
0.18
  9
$DIMCEN
 40
0.09
  9
$DIMTSZ
 40
0.0
  9
$DIMTOL
 70
     0
  9
$DIMLIM
 70
     0
  9
$DIMTIH
 70
     1
  9
$DIMTOH
 70
     1
  9
$DIMSE1
 70
     0
  9
$DIMSE2
 70
     0
  9
$DIMTAD
 70
     0
  9
$DIMZIN
 70
     0
  9
$DIMBLK
  1

  9
$DIMASO
 70
     1
  9
$DIMSHO
 70
     1
  9
$DIMPOST
  1

  9
$DIMAPOST
  1

  9
$DIMALT
 70
     0
  9
$DIMALTD
 70
     2
  9
$DIMALTF
 40
25.4
  9
$DIMLFAC
 40
1.0
  9
$DIMTOFL
 70
     0
  9
$DIMTVP
 40
0.0
  9
$DIMTIX
 70
     0
  9
$DIMSOXD
 70
     0
  9
$DIMSAH
 70
     0
  9
$DIMBLK1
  1

  9
$DIMBLK2
  1

  9
$DIMSTYLE
  2
STANDARD
  9
$DIMCLRD
 70
     0
  9
$DIMCLRE
 70
     0
  9
$DIMCLRT
 70
     0
  9
$DIMTFAC
 40
1.0
  9
$DIMGAP
 40
0.09
  9
$DIMJUST
 70
     0
  9
$DIMSD1
 70
     0
  9
$DIMSD2
 70
     0
  9
$DIMTOLJ
 70
     1
  9
$DIMTZIN
 70
     0
  9
$DIMALTZ
 70
     0
  9
$DIMALTTZ
 70
     0
  9
$DIMFIT
 70
     3
  9
$DIMUPT
 70
     0
  9
$DIMUNIT
 70
     2
  9
$DIMDEC
 70
     4
  9
$DIMTDEC
 70
     4
  9
$DIMALTU
 70
     2
  9
$DIMALTTD
 70
     2
  9
$DIMTXSTY
  7
STANDARD
  9
$DIMAUNIT
 70
     0
  9
$LUNITS
 70
     2
  9
$LUPREC
 70
     4
  9
$SKETCHINC
 40
0.1
  9
$FILLETRAD
 40
0.0
  9
$AUNITS
 70
     0
  9
$AUPREC
 70
     0
  9
$MENU
  1
acad
  9
$ELEVATION
 40
0.0
  9
$PELEVATION
 40
0.0
  9
$THICKNESS
 40
0.0
  9
$LIMCHECK
 70
     0
  9
$BLIPMODE
 70
     1
  9
$CHAMFERA
 40
0.0
  9
$CHAMFERB
 40
0.0
  9
$CHAMFERC
 40
0.0
  9
$CHAMFERD
 40
0.0
  9
$SKPOLY
 70
     0
  9
$TDCREATE
 40
2457091.144865185
  9
$TDUPDATE
 40
2457091.144865185
  9
$TDINDWG
 40
0.0000000000
  9
$TDUSRTIMER
 40
0.0000000000
  9
$USRTIMER
 70
     1
  9
$ANGBASE
 50
0.0
  9
$ANGDIR
 70
     0
  9
$PDMODE
 70
     0
  9
$PDSIZE
 40
0.0
  9
$PLINEWID
 40
0.0
  9
$COORDS
 70
     1
  9
$SPLFRAME
 70
     0
  9
$SPLINETYPE
 70
     6
  9
$SPLINESEGS
 70
     8
  9
$ATTDIA
 70
     0
  9
$ATTREQ
 70
     1
  9
$HANDLING
 70
     1
  9
$HANDSEED
  5
78C
  9
$SURFTAB1
 70
     6
  9
$SURFTAB2
 70
     6
  9
$SURFTYPE
 70
     6
  9
$SURFU
 70
     6
  9
$SURFV
 70
     6
  9
$UCSNAME
  2

  9
$UCSORG
 10
0.0
 20
0.0
 30
0.0
  9
$UCSXDIR
 10
1.0
 20
0.0
 30
0.0
  9
$UCSYDIR
 10
0.0
 20
1.0
 30
0.0
  9
$PUCSNAME
  2

  9
$PUCSORG
 10
0.0
 20
0.0
 30
0.0
  9
$PUCSXDIR
 10
1.0
 20
0.0
 30
0.0
  9
$PUCSYDIR
 10
0.0
 20
1.0
 30
0.0
  9
$USERI1
 70
     0
  9
$USERI2
 70
     0
  9
$USERI3
 70
     0
  9
$USERI4
 70
     0
  9
$USERI5
 70
     0
  9
$USERR1
 40
0.0
  9
$USERR2
 40
0.0
  9
$USERR3
 40
0.0
  9
$USERR4
 40
0.0
  9
$USERR5
 40
0.0
  9
$WORLDVIEW
 70
     1
  9
$SHADEDGE
 70
     3
  9
$SHADEDIF
 70
    70
  9
$TILEMODE
 70
     1
  9
$MAXACTVP
 70
    16
  9
$PINSBASE
 10
0.0
 20
0.0
 30
0.0
  9
$PLIMCHECK
 70
     0
  9
$PEXTMIN
 10
1.000000E+20
 20
1.000000E+20
 30
1.000000E+20
  9
$PEXTMAX
 10
-1.000000E+20
 20
-1.000000E+20
 30
-1.000000E+20
  9
$PLIMMIN
 10
0.0
 20
0.0
  9
$PLIMMAX
 10
12.0
 20
9.0
  9
$UNITMODE
 70
     0
  9
$VISRETAIN
 70
     0
  9
$PLINEGEN
 70
     1
  9
$PSLTSCALE
 70
     0
  9
$TREEDEPTH
 70
  3020
  9
$PICKSTYLE
 70
     1
  9
$CMLSTYLE
  2
Standard
  9
$CMLJUST
 70
     0
  9
$CMLSCALE
 40
1.0
  9
$PROXYGRAPHICS
 70
     0
  9
$MEASUREMENT
 70
     0
  0
ENDSEC
  0
SECTION
  2
CLASSES
  0
CLASS
  1
LWPOLYLINE
  2
AcDbPolyline
  3
"AutoCAD"
 90
        0
280
     0
281
     1
  0
CLASS
  1
IMAGE
  2
AcDbRasterImage
  3
ISM
 90
      127
280
     0
281
     1
  0
CLASS
  1
OLE2FRAME
  2
AcDbOle2Frame
  3
""
 90
        0
280
     0
281
     1
  0
CLASS
  1
HATCH
  2
AcDbHatch
  3
"ACAD_SEDONA"
 90
        0
280
     0
281
     1
  0
CLASS
  1
DICTIONARYVAR
  2
AcDbDictionaryVar
  3
"AutoCAD"
 90
        0
280
     0
281
     0
  0
CLASS
  1
RASTERVARIABLES
  2
AcDbRasterVariables
  3
ISM
 90
        0
280
     0
281
     0
  0
CLASS
  1
IMAGEDEF
  2
AcDbRasterImageDef
  3
ISM
 90
        0
280
     0
281
     0
  0
CLASS
  1
IMAGEDEF_REACTOR
  2
AcDbRasterImageDefReactor
  3
ISM
 90
        1
280
     0
281
     0
  0
CLASS
  1
IDBUFFER
  2
AcDbIdBuffer
  3
"Acad"
 90
        0
280
     0
281
     0
  0
CLASS
  1
SPATIAL_FILTER
  2
AcDbSpatialFilter
  3
"Acad"
 90
        0
280
     0
281
     0
  0
CLASS
  1
XRECORD
  2
AcDbXrecord
  3
"<Built In>"
 90
        0
280
     0
281
     0
  0
CLASS
  1
SORTENTSTABLE
  2
AcDbSortentsTable
  3
"AutoCAD"
 90
        0
280
     0
281
     0
  0
CLASS
  1
LAYER_INDEX
  2
AcDbLayerIndex
  3
"Acad"
 90
        0
280
     0
281
     0
  0
CLASS
  1
SPATIAL_INDEX
  2
AcDbSpatialIndex
  3
"Acad"
 90
        0
280
     0
281
     0
  0
CLASS
  1
OBJECT_PTR
  2
CAseDLPNTableRecord
  3
"ASE-LPNTableRecord"
 90
        1
280
     0
281
     0
  0
CLASS
  1
LAYOUT
  2
AcDbLayout
  3
"AutoCAD 2000"
 90
        0
280
     0
281
     0
  0
CLASS
  1
PLOTSETTINGS
  2
AcDbPlotSettings
  3
"AutoCAD 2000"
 90
        0
280
     0
281
     0
  0
CLASS
  1
ACDBDICTIONARYWDFLT
  2
AcDbDictionaryWithDefault
  3
"AutoCAD 2000"
 90
        0
280
     0
281
     0
  0
CLASS
  1
ACDBPLACEHOLDER
  2
AcDbPlaceHolder
  3
"AutoCAD 2000"
 90
        0
280
     0
281
     0
  0
CLASS
  1
VBA_PROJECT
  2
AcDbVbaProject
  3
"acadvba"
 90
        0
280
     0
281
     0
  0
CLASS
  1
WIPEOUT
  2
AcDbWipeout
  3
WipeOut|AutoCAD Express Tool|expresstools@autodesk.com
 90
      127
280
     0
281
     1
  0
CLASS
  1
WIPEOUTVARIABLES
  2
AcDbWipeoutVariables
  3
WipeOut|AutoCAD Express Tool|expresstools@autodesk.com
 90
        0
280
     0
281
     0
  0
CLASS
  1
RTEXT
  2
RText
  3
RText|AutoCAD Express Tool|expresstools@autodesk.com
 90
        0
280
     0
281
     1
  0
CLASS
  1
ARCALIGNEDTEXT
  2
AcDbArcAlignedText
  3
ATEXT|AutoCAD Express Tool|expresstools@autodesk.com
 90
        0
280
     0
281
     1
  0
ENDSEC
  0
SECTION
  2
TABLES
  0
TABLE
  2
VPORT
  5
7
100
AcDbSymbolTable
 70
     1
  0
VPORT
  5
15
100
AcDbSymbolTableRecord
100
AcDbViewportTableRecord
  2
*ACTIVE
 70
     0
 10
0.0
 20
0.0
 11
1.0
 21
1.0
 12
176.86
 22
146.228657
 13
0.0
 23
0.0
 14
1.0
 24
1.0
 15
0.0
 25
0.0
 16
0.0
 26
0.0
 36
1.0
 17
0.0
 27
0.0
 37
0.0
 40
1142.2
 41
1.722533
 42
50.0
 43
0.0
 44
0.0
 50
0.0
 51
0.0
 71
     0
 72
  1000
 73
     1
 74
     1
 75
     0
 76
     0
 77
     0
 78
     0
  0
ENDTAB
  0
TABLE
  2
LTYPE
  5
4
100
AcDbSymbolTable
 70
     9
  0
LTYPE
  5
11
100
AcDbSymbolTableRecord
100
AcDbLinetypeTableRecord
  2
BYBLOCK
 70
    64
  3

 72
    65
 73
     0
 40
0.0
  0
LTYPE
  5
12
100
AcDbSymbolTableRecord
100
AcDbLinetypeTableRecord
  2
BYLAYER
 70
    64
  3

 72
    65
 73
     0
 40
0.0
  0
LTYPE
  5
13
100
AcDbSymbolTableRecord
100
AcDbLinetypeTableRecord
  2
CONTINUOUS
 70
    64
  3
実線
 72
    65
 73
     0
 40
0.0
  0
LTYPE
  5
1D
100
AcDbSymbolTableRecord
100
AcDbLinetypeTableRecord
  2
EXLTYPE1
 70
    64
  3
破線
 72
    65
 73
     2
 40
4.0
 49
3.0
 74
     0
 49
-1.0
 74
     0
  0
LTYPE
  5
1E
100
AcDbSymbolTableRecord
100
AcDbLinetypeTableRecord
  2
EXLTYPE2
 70
    64
  3
点線
 72
    65
 73
     2
 40
2.0
 49
1.0
 74
     0
 49
-1.0
 74
     0
  0
LTYPE
  5
1F
100
AcDbSymbolTableRecord
100
AcDbLinetypeTableRecord
  2
EXLTYPE3
 70
    64
  3
一点鎖線
 72
    65
 73
     4
 40
33.0
 49
30.0
 74
     0
 49
-1.0
 74
     0
 49
1.0
 74
     0
 49
-1.0
 74
     0
  0
LTYPE
  5
20
100
AcDbSymbolTableRecord
100
AcDbLinetypeTableRecord
  2
EXLTYPE4
 70
    64
  3
二点鎖線
 72
    65
 73
     6
 40
35.0
 49
30.0
 74
     0
 49
-1.0
 74
     0
 49
1.0
 74
     0
 49
-1.0
 74
     0
 49
1.0
 74
     0
 49
-1.0
 74
     0
  0
LTYPE
  5
21
100
AcDbSymbolTableRecord
100
AcDbLinetypeTableRecord
  2
EXLTYPE5
 70
    64
  3
三点鎖線
 72
    65
 73
     8
 40
37.0
 49
30.0
 74
     0
 49
-1.0
 74
     0
 49
1.0
 74
     0
 49
-1.0
 74
     0
 49
1.0
 74
     0
 49
-1.0
 74
     0
 49
1.0
 74
     0
 49
-1.0
 74
     0
  0
LTYPE
  5
22
100
AcDbSymbolTableRecord
100
AcDbLinetypeTableRecord
  2
EXLTYPE6
 70
    64
  3
四点鎖線
 72
    65
 73
    10
 40
39.0
 49
30.0
 74
     0
 49
-1.0
 74
     0
 49
1.0
 74
     0
 49
-1.0
 74
     0
 49
1.0
 74
     0
 49
-1.0
 74
     0
 49
1.0
 74
     0
 49
-1.0
 74
     0
 49
1.0
 74
     0
 49
-1.0
 74
     0
  0
ENDTAB
  0
TABLE
  2
LAYER
  5
2
100
AcDbSymbolTable
 70
     4
  0
LAYER
  5
14
100
AcDbSymbolTableRecord
100
AcDbLayerTableRecord
  2
0
 70
     0
 62
     7
  6
CONTINUOUS
  0
LAYER
  5
25
100
AcDbSymbolTableRecord
100
AcDbLayerTableRecord
  2
LAY-1
 70
    64
 62
     7
  6
CONTINUOUS
  0
LAYER
  5
26
100
AcDbSymbolTableRecord
100
AcDbLayerTableRecord
  2
LAY-3
 70
    64
 62
     1
  6
CONTINUOUS
  0
LAYER
  5
27
100
AcDbSymbolTableRecord
100
AcDbLayerTableRecord
  2
LAY-5
 70
    64
 62
     7
  6
CONTINUOUS
  0
ENDTAB
  0
TABLE
  2
STYLE
  5
3
100
AcDbSymbolTable
 70
     3
  0
STYLE
  5
17
100
AcDbSymbolTableRecord
100
AcDbTextStyleTableRecord
  2
STANDARD
 70
     0
 40
0.0
 41
1.0
 50
0.0
 71
     0
 42
0.0
  3
monotxt
  4
extfont
  0
STYLE
  5
23
100
AcDbSymbolTableRecord
100
AcDbTextStyleTableRecord
  2
EXCADSTD
 70
    64
 40
0.0
 41
1.0
 50
0.0
 71
     0
 42
0.2
  3
monotxt
  4
extfont
  0
STYLE
  5
24
100
AcDbSymbolTableRecord
100
AcDbTextStyleTableRecord
  2
EXCADVERT
 70
    68
 40
0.0
 41
1.0
 50
0.0
 71
     0
 42
0.286885
  3
monotxt
  4
extfont
  0
ENDTAB
  0
TABLE
  2
VIEW
  5
5
100
AcDbSymbolTable
 70
     0
  0
ENDTAB
  0
TABLE
  2
UCS
  5
6
100
AcDbSymbolTable
 70
     0
  0
ENDTAB
  0
TABLE
  2
APPID
  5
8
100
AcDbSymbolTable
 70
     1
  0
APPID
  5
16
100
AcDbSymbolTableRecord
100
AcDbRegAppTableRecord
  2
ACAD
 70
     0
  0
ENDTAB
  0
TABLE
  2
DIMSTYLE
  5
9
100
AcDbSymbolTable
 70
     1
  0
DIMSTYLE
105
18
100
AcDbSymbolTableRecord
100
AcDbDimStyleTableRecord
  2
STANDARD
 70
     0
  3

  4

  5

  6

  7

 40
1.0
 41
0.18
 42
0.0625
 43
0.38
 44
0.18
 45
0.0
 46
0.0
 47
0.0
 48
0.0
 71
     0
 72
     0
 73
     1
 74
     1
 75
     0
 76
     0
 77
     0
 78
     0
140
0.18
141
0.09
142
0.0
143
25.4
144
1.0
145
0.0
146
1.0
147
0.09
170
     0
171
     2
172
     1
173
     0
174
     0
175
     0
176
     0
177
     0
178
     0
270
     2
271
     4
272
     4
273
     2
274
     2
275
     0
280
     0
281
     0
282
     0
283
     1
284
     0
285
     0
286
     0
287
     3
288
     0
340
17
  0
ENDTAB
  0
TABLE
  2
BLOCK_RECORD
  5
1
100
AcDbSymbolTable
 70
    15
  0
BLOCK_RECORD
  5
A
100
AcDbSymbolTableRecord
100
AcDbBlockTableRecord
  2
*MODEL_SPACE
  0
BLOCK_RECORD
  5
B
100
AcDbSymbolTableRecord
100
AcDbBlockTableRecord
  2
*PAPER_SPACE
  0
BLOCK_RECORD
  5
28
100
AcDbSymbolTableRecord
100
AcDbBlockTableRecord
  2
_EX_NORM
  0
BLOCK_RECORD
  5
29
100
AcDbSymbolTableRecord
100
AcDbBlockTableRecord
  2
_EX_BNORM
  0
BLOCK_RECORD
  5
2A
100
AcDbSymbolTableRecord
100
AcDbBlockTableRecord
  2
_EX_BCIR
  0
BLOCK_RECORD
  5
2B
100
AcDbSymbolTableRecord
100
AcDbBlockTableRecord
  2
_EX_RCIVIL
  0
BLOCK_RECORD
  5
2C
100
AcDbSymbolTableRecord
100
AcDbBlockTableRecord
  2
_EX_SLANT
  0
BLOCK_RECORD
  5
2D
100
AcDbSymbolTableRecord
100
AcDbBlockTableRecord
  2
_EX_NONE
  0
BLOCK_RECORD
  5
2E
100
AcDbSymbolTableRecord
100
AcDbBlockTableRecord
  2
_EX_CIVIL
  0
BLOCK_RECORD
  5
2F
100
AcDbSymbolTableRecord
100
AcDbBlockTableRecord
  2
_EX_WCIR
  0
BLOCK_RECORD
  5
30
100
AcDbSymbolTableRecord
100
AcDbBlockTableRecord
  2
_EX_WCIR2
  0
BLOCK_RECORD
  5
31
100
AcDbSymbolTableRecord
100
AcDbBlockTableRecord
  2
_EX_WNORM
  0
BLOCK_RECORD
  5
32
100
AcDbSymbolTableRecord
100
AcDbBlockTableRecord
  2
_EX_NNORM
  0
BLOCK_RECORD
  5
33
100
AcDbSymbolTableRecord
100
AcDbBlockTableRecord
  2
_EX_BBOX
  0
BLOCK_RECORD
  5
34
100
AcDbSymbolTableRecord
100
AcDbBlockTableRecord
  2
_EX_WBOX
  0
BLOCK_RECORD
  5
35
100
AcDbSymbolTableRecord
100
AcDbBlockTableRecord
  2
_EX_INTEGRAL
  0
BLOCK_RECORD
  5
36
100
AcDbSymbolTableRecord
100
AcDbBlockTableRecord
  2
SYM-1
  0
ENDTAB
  0
ENDSEC
  0
SECTION
  2
BLOCKS
  0
BLOCK
  5
D
100
AcDbEntity
  8
0
100
AcDbBlockBegin
  2
*MODEL_SPACE
 70
     0
 10
0.0
 20
0.0
 30
0.0
  3
*MODEL_SPACE
  1

  0
ENDBLK
  5
E
100
AcDbEntity
  8
0
100
AcDbBlockEnd
  0
BLOCK
  5
F
100
AcDbEntity
 67
     1
  8
0
100
AcDbBlockBegin
  2
*PAPER_SPACE
 70
     0
 10
0.0
 20
0.0
 30
0.0
  3
*PAPER_SPACE
  1

  0
ENDBLK
  5
10
100
AcDbEntity
 67
     1
  8
0
100
AcDbBlockEnd
  0
BLOCK
  5
37
100
AcDbEntity
  8
0
100
AcDbBlockBegin
  2
_EX_NORM
 70
     0
 10
0.0
 20
0.0
 30
0.0
  3
_EX_NORM
  1

  0
LINE
  5
38
100
AcDbEntity
  8
0
  6
CONTINUOUS
 62
     0
100
AcDbLine
 10
0.0
 20
0.0
 30
0.0
 11
-1.0
 21
0.0
 31
0.0
  0
LINE
  5
39
100
AcDbEntity
  8
0
  6
CONTINUOUS
 62
     0
100
AcDbLine
 10
0.0
 20
0.0
 30
0.0
 11
-1.0
 21
0.166667
 31
0.0
  0
LINE
  5
3A
100
AcDbEntity
  8
0
  6
CONTINUOUS
 62
     0
100
AcDbLine
 10
0.0
 20
0.0
 30
0.0
 11
-1.0
 21
-0.166667
 31
0.0
  0
ENDBLK
  5
3B
100
AcDbEntity
  8
0
100
AcDbBlockEnd
  0
BLOCK
  5
3C
100
AcDbEntity
  8
0
100
AcDbBlockBegin
  2
_EX_BNORM
 70
     0
 10
0.0
 20
0.0
 30
0.0
  3
_EX_BNORM
  1

  0
LINE
  5
3D
100
AcDbEntity
  8
0
  6
CONTINUOUS
 62
     0
100
AcDbLine
 10
0.0
 20
0.0
 30
0.0
 11
-1.0
 21
0.0
 31
0.0
  0
LINE
  5
3E
100
AcDbEntity
  8
0
  6
CONTINUOUS
 62
     0
100
AcDbLine
 10
0.0
 20
0.0
 30
0.0
 11
-1.0
 21
0.166667
 31
0.0
  0
LINE
  5
3F
100
AcDbEntity
  8
0
  6
CONTINUOUS
 62
     0
100
AcDbLine
 10
0.0
 20
0.0
 30
0.0
 11
-1.0
 21
-0.166667
 31
0.0
  0
LINE
  5
40
100
AcDbEntity
  8
0
  6
CONTINUOUS
 62
     0
100
AcDbLine
 10
0.0
 20
0.0
 30
0.0
 11
-1.0
 21
0.083333
 31
0.0
  0
LINE
  5
41
100
AcDbEntity
  8
0
  6
CONTINUOUS
 62
     0
100
AcDbLine
 10
0.0
 20
0.0
 30
0.0
 11
-1.0
 21
-0.083333
 31
0.0
  0
LINE
  5
42
100
AcDbEntity
  8
0
  6
CONTINUOUS
 62
     0
100
AcDbLine
 10
-1.0
 20
0.166667
 30
0.0
 11
-1.0
 21
-0.166667
 31
0.0
  0
ENDBLK
  5
43
100
AcDbEntity
  8
0
100
AcDbBlockEnd
  0
BLOCK
  5
44
100
AcDbEntity
  8
0
100
AcDbBlockBegin
  2
_EX_BCIR
 70
     0
 10
0.0
 20
0.0
 30
0.0
  3
_EX_BCIR
  1

  0
LINE
  5
45
100
AcDbEntity
  8
0
  6
CONTINUOUS
 62
     0
100
AcDbLine
 10
0.0
 20
0.0
 30
0.0
 11
-1.0
 21
0.0
 31
0.0
  0
CIRCLE
  5
46
100
AcDbEntity
  8
0
  6
CONTINUOUS
 62
     0
100
AcDbCircle
 10
0.0
 20
0.0
 30
0.0
 40
0.5
  0
CIRCLE
  5
47
100
AcDbEntity
  8
0
  6
CONTINUOUS
 62
     0
100
AcDbCircle
 10
0.0
 20
0.0
 30
0.0
 40
0.25
  0
ENDBLK
  5
48
100
AcDbEntity
  8
0
100
AcDbBlockEnd
  0
BLOCK
  5
49
100
AcDbEntity
  8
0
100
AcDbBlockBegin
  2
_EX_RCIVIL
 70
     0
 10
0.0
 20
0.0
 30
0.0
  3
_EX_RCIVIL
  1

  0
LINE
  5
4A
100
AcDbEntity
  8
0
  6
CONTINUOUS
 62
     0
100
AcDbLine
 10
0.0
 20
0.0
 30
0.0
 11
-1.0
 21
0.0
 31
0.0
  0
LINE
  5
4B
100
AcDbEntity
  8
0
  6
CONTINUOUS
 62
     0
100
AcDbLine
 10
-1.0
 20
-0.25
 30
0.0
 11
0.0
 21
-0.25
 31
0.0
  0
LINE
  5
4C
100
AcDbEntity
  8
0
  6
CONTINUOUS
 62
     0
100
AcDbLine
 10
-1.0
 20
-0.125
 30
0.0
 11
0.0
 21
-0.125
 31
0.0
  0
ENDBLK
  5
4D
100
AcDbEntity
  8
0
100
AcDbBlockEnd
  0
BLOCK
  5
4E
100
AcDbEntity
  8
0
100
AcDbBlockBegin
  2
_EX_SLANT
 70
     0
 10
0.0
 20
0.0
 30
0.0
  3
_EX_SLANT
  1

  0
LINE
  5
4F
100
AcDbEntity
  8
0
  6
CONTINUOUS
 62
     0
100
AcDbLine
 10
0.0
 20
0.0
 30
0.0
 11
-1.0
 21
0.0
 31
0.0
  0
LINE
  5
50
100
AcDbEntity
  8
0
  6
CONTINUOUS
 62
     0
100
AcDbLine
 10
0.707107
 20
0.707107
 30
0.0
 11
-0.707107
 21
-0.707107
 31
0.0
  0
ENDBLK
  5
51
100
AcDbEntity
  8
0
100
AcDbBlockEnd
  0
BLOCK
  5
52
100
AcDbEntity
  8
0
100
AcDbBlockBegin
  2
_EX_NONE
 70
     0
 10
0.0
 20
0.0
 30
0.0
  3
_EX_NONE
  1

  0
LINE
  5
53
100
AcDbEntity
  8
0
  6
CONTINUOUS
 62
     0
100
AcDbLine
 10
0.0
 20
0.0
 30
0.0
 11
-1.0
 21
0.0
 31
0.0
  0
ENDBLK
  5
54
100
AcDbEntity
  8
0
100
AcDbBlockEnd
  0
BLOCK
  5
55
100
AcDbEntity
  8
0
100
AcDbBlockBegin
  2
_EX_CIVIL
 70
     0
 10
0.0
 20
0.0
 30
0.0
  3
_EX_CIVIL
  1

  0
LINE
  5
56
100
AcDbEntity
  8
0
  6
CONTINUOUS
 62
     0
100
AcDbLine
 10
0.0
 20
0.0
 30
0.0
 11
-1.0
 21
0.0
 31
0.0
  0
LINE
  5
57
100
AcDbEntity
  8
0
  6
CONTINUOUS
 62
     0
100
AcDbLine
 10
-1.0
 20
0.25
 30
0.0
 11
0.0
 21
0.25
 31
0.0
  0
LINE
  5
58
100
AcDbEntity
  8
0
  6
CONTINUOUS
 62
     0
100
AcDbLine
 10
-1.0
 20
0.125
 30
0.0
 11
0.0
 21
0.125
 31
0.0
  0
ENDBLK
  5
59
100
AcDbEntity
  8
0
100
AcDbBlockEnd
  0
BLOCK
  5
5A
100
AcDbEntity
  8
0
100
AcDbBlockBegin
  2
_EX_WCIR
 70
     0
 10
0.0
 20
0.0
 30
0.0
  3
_EX_WCIR
  1

  0
LINE
  5
5B
100
AcDbEntity
  8
0
  6
CONTINUOUS
 62
     0
100
AcDbLine
 10
0.0
 20
0.0
 30
0.0
 11
-1.0
 21
0.0
 31
0.0
  0
CIRCLE
  5
5C
100
AcDbEntity
  8
0
  6
CONTINUOUS
 62
     0
100
AcDbCircle
 10
0.0
 20
0.0
 30
0.0
 40
0.5
  0
ENDBLK
  5
5D
100
AcDbEntity
  8
0
100
AcDbBlockEnd
  0
BLOCK
  5
5E
100
AcDbEntity
  8
0
100
AcDbBlockBegin
  2
_EX_WCIR2
 70
     0
 10
0.0
 20
0.0
 30
0.0
  3
_EX_WCIR2
  1

  0
LINE
  5
5F
100
AcDbEntity
  8
0
  6
CONTINUOUS
 62
     0
100
AcDbLine
 10
-0.5
 20
0.0
 30
0.0
 11
-1.0
 21
0.0
 31
0.0
  0
CIRCLE
  5
60
100
AcDbEntity
  8
0
  6
CONTINUOUS
 62
     0
100
AcDbCircle
 10
0.0
 20
0.0
 30
0.0
 40
0.5
  0
ENDBLK
  5
61
100
AcDbEntity
  8
0
100
AcDbBlockEnd
  0
BLOCK
  5
62
100
AcDbEntity
  8
0
100
AcDbBlockBegin
  2
_EX_WNORM
 70
     0
 10
0.0
 20
0.0
 30
0.0
  3
_EX_WNORM
  1

  0
LINE
  5
63
100
AcDbEntity
  8
0
  6
CONTINUOUS
 62
     0
100
AcDbLine
 10
-1.0
 20
0.0
 30
0.0
 11
-1.0
 21
0.0
 31
0.0
  0
LINE
  5
64
100
AcDbEntity
  8
0
  6
CONTINUOUS
 62
     0
100
AcDbLine
 10
0.0
 20
0.0
 30
0.0
 11
-1.0
 21
0.166667
 31
0.0
  0
LINE
  5
65
100
AcDbEntity
  8
0
  6
CONTINUOUS
 62
     0
100
AcDbLine
 10
0.0
 20
0.0
 30
0.0
 11
-1.0
 21
-0.166667
 31
0.0
  0
LINE
  5
66
100
AcDbEntity
  8
0
  6
CONTINUOUS
 62
     0
100
AcDbLine
 10
-1.0
 20
0.166667
 30
0.0
 11
-1.0
 21
-0.166667
 31
0.0
  0
ENDBLK
  5
67
100
AcDbEntity
  8
0
100
AcDbBlockEnd
  0
BLOCK
  5
68
100
AcDbEntity
  8
0
100
AcDbBlockBegin
  2
_EX_NNORM
 70
     0
 10
0.0
 20
0.0
 30
0.0
  3
_EX_NNORM
  1

  0
LINE
  5
69
100
AcDbEntity
  8
0
  6
CONTINUOUS
 62
     0
100
AcDbLine
 10
0.0
 20
0.0
 30
0.0
 11
-1.0
 21
0.0
 31
0.0
  0
LINE
  5
6A
100
AcDbEntity
  8
0
  6
CONTINUOUS
 62
     0
100
AcDbLine
 10
0.0
 20
0.0
 30
0.0
 11
-1.0
 21
0.166667
 31
0.0
  0
LINE
  5
6B
100
AcDbEntity
  8
0
  6
CONTINUOUS
 62
     0
100
AcDbLine
 10
0.0
 20
0.0
 30
0.0
 11
-1.0
 21
-0.166667
 31
0.0
  0
LINE
  5
6C
100
AcDbEntity
  8
0
  6
CONTINUOUS
 62
     0
100
AcDbLine
 10
-1.0
 20
0.166667
 30
0.0
 11
-1.0
 21
-0.166667
 31
0.0
  0
ENDBLK
  5
6D
100
AcDbEntity
  8
0
100
AcDbBlockEnd
  0
BLOCK
  5
6E
100
AcDbEntity
  8
0
100
AcDbBlockBegin
  2
_EX_BBOX
 70
     0
 10
0.0
 20
0.0
 30
0.0
  3
_EX_BBOX
  1

  0
LINE
  5
6F
100
AcDbEntity
  8
0
  6
CONTINUOUS
 62
     0
100
AcDbLine
 10
0.0
 20
0.0
 30
0.0
 11
-1.0
 21
0.0
 31
0.0
  0
LINE
  5
70
100
AcDbEntity
  8
0
  6
CONTINUOUS
 62
     0
100
AcDbLine
 10
-0.5
 20
0.5
 30
0.0
 11
0.5
 21
0.5
 31
0.0
  0
LINE
  5
71
100
AcDbEntity
  8
0
  6
CONTINUOUS
 62
     0
100
AcDbLine
 10
0.5
 20
0.5
 30
0.0
 11
0.5
 21
-0.5
 31
0.0
  0
LINE
  5
72
100
AcDbEntity
  8
0
  6
CONTINUOUS
 62
     0
100
AcDbLine
 10
0.5
 20
-0.5
 30
0.0
 11
-0.5
 21
-0.5
 31
0.0
  0
LINE
  5
73
100
AcDbEntity
  8
0
  6
CONTINUOUS
 62
     0
100
AcDbLine
 10
-0.5
 20
-0.5
 30
0.0
 11
-0.5
 21
0.5
 31
0.0
  0
LINE
  5
74
100
AcDbEntity
  8
0
  6
CONTINUOUS
 62
     0
100
AcDbLine
 10
-0.25
 20
0.25
 30
0.0
 11
0.25
 21
0.25
 31
0.0
  0
LINE
  5
75
100
AcDbEntity
  8
0
  6
CONTINUOUS
 62
     0
100
AcDbLine
 10
0.25
 20
0.25
 30
0.0
 11
0.25
 21
-0.25
 31
0.0
  0
LINE
  5
76
100
AcDbEntity
  8
0
  6
CONTINUOUS
 62
     0
100
AcDbLine
 10
0.25
 20
-0.25
 30
0.0
 11
-0.25
 21
-0.25
 31
0.0
  0
LINE
  5
77
100
AcDbEntity
  8
0
  6
CONTINUOUS
 62
     0
100
AcDbLine
 10
-0.25
 20
-0.25
 30
0.0
 11
-0.25
 21
0.25
 31
0.0
  0
ENDBLK
  5
78
100
AcDbEntity
  8
0
100
AcDbBlockEnd
  0
BLOCK
  5
79
100
AcDbEntity
  8
0
100
AcDbBlockBegin
  2
_EX_WBOX
 70
     0
 10
0.0
 20
0.0
 30
0.0
  3
_EX_WBOX
  1

  0
LINE
  5
7A
100
AcDbEntity
  8
0
  6
CONTINUOUS
 62
     0
100
AcDbLine
 10
-0.5
 20
0.0
 30
0.0
 11
-1.0
 21
0.0
 31
0.0
  0
LINE
  5
7B
100
AcDbEntity
  8
0
  6
CONTINUOUS
 62
     0
100
AcDbLine
 10
-0.5
 20
0.5
 30
0.0
 11
0.5
 21
0.5
 31
0.0
  0
LINE
  5
7C
100
AcDbEntity
  8
0
  6
CONTINUOUS
 62
     0
100
AcDbLine
 10
0.5
 20
0.5
 30
0.0
 11
0.5
 21
-0.5
 31
0.0
  0
LINE
  5
7D
100
AcDbEntity
  8
0
  6
CONTINUOUS
 62
     0
100
AcDbLine
 10
0.5
 20
-0.5
 30
0.0
 11
-0.5
 21
-0.5
 31
0.0
  0
LINE
  5
7E
100
AcDbEntity
  8
0
  6
CONTINUOUS
 62
     0
100
AcDbLine
 10
-0.5
 20
-0.5
 30
0.0
 11
-0.5
 21
0.5
 31
0.0
  0
ENDBLK
  5
7F
100
AcDbEntity
  8
0
100
AcDbBlockEnd
  0
BLOCK
  5
80
100
AcDbEntity
  8
0
100
AcDbBlockBegin
  2
_EX_INTEGRAL
 70
     0
 10
0.0
 20
0.0
 30
0.0
  3
_EX_INTEGRAL
  1

  0
LINE
  5
81
100
AcDbEntity
  8
0
  6
CONTINUOUS
 62
     0
100
AcDbLine
 10
0.0
 20
0.0
 30
0.0
 11
-1.0
 21
0.0
 31
0.0
  0
ARC
  5
82
100
AcDbEntity
  8
0
  6
CONTINUOUS
 62
     0
100
AcDbCircle
 10
0.542115
 20
0.164992
 30
0.0
 40
0.56667
100
AcDbArc
 50
73.07249
 51
196.927513
  0
ARC
  5
83
100
AcDbEntity
  8
0
  6
CONTINUOUS
 62
     0
100
AcDbCircle
 10
-0.542115
 20
-0.164992
 30
0.0
 40
0.56667
100
AcDbArc
 50
253.072487
 51
16.927513
  0
ENDBLK
  5
84
100
AcDbEntity
  8
0
100
AcDbBlockEnd
  0
BLOCK
  5
85
100
AcDbEntity
  8
0
100
AcDbBlockBegin
  2
SYM-1
 70
     0
 10
0.0
 20
0.0
 30
0.0
  3
SYM-1
  1

  0
HATCH
  5
86
100
AcDbEntity
  8
0
  6
CONTINUOUS
 62
     3
100
AcDbHatch
 10
0.0
 20
0.0
 30
0.0
210
0.0
220
0.0
230
1.0
  2
SOLID
 70
     1
 71
     1
 91
        1
 92
        1
 93
       16
 72
     1
 10
24.351152239011505
 20
-2.0357142857144446
 11
25.613295096154353
 21
-2.0357142857144446
 72
     1
 10
25.613295096154353
 20
-2.0357142857144446
 11
25.613295096154353
 21
-2.8500000000001648
 72
     1
 10
25.613295096154353
 20
-2.8500000000001648
 11
22.23400938186861
 21
-2.8500000000001648
 72
     1
 10
22.23400938186861
 20
-2.8500000000001648
 11
22.23400938186861
 21
-2.0357142857144446
 72
     1
 10
22.23400938186861
 20
-2.0357142857144446
 11
23.536866524725802
 21
-2.0357142857144446
 72
     1
 10
23.536866524725802
 20
-2.0357142857144446
 11
23.536866524725802
 21
0.3257142857141346
 72
     1
 10
23.536866524725802
 20
0.3257142857141346
 11
22.519009381868621
 21
0.3257142857141346
 72
     1
 10
22.519009381868621
 20
0.3257142857141346
 11
22.519009381868621
 21
1.1399999999998514
 72
     1
 10
22.519009381868621
 20
1.1399999999998514
 11
23.536866524725802
 21
1.1399999999998514
 72
     1
 10
23.536866524725802
 20
1.1399999999998514
 11
23.536866524725802
 21
2.8499999999998487
 72
     1
 10
23.536866524725802
 20
2.8499999999998487
 11
24.351152239011505
 21
2.8499999999998487
 72
     1
 10
24.351152239011505
 20
2.8499999999998487
 11
24.351152239011505
 21
1.1399999999998514
 72
     1
 10
24.351152239011505
 20
1.1399999999998514
 11
25.531866524725821
 21
1.1399999999998514
 72
     1
 10
25.531866524725821
 20
1.1399999999998514
 11
25.531866524725821
 21
0.3257142857141346
 72
     1
 10
25.531866524725821
 20
0.3257142857141346
 11
24.351152239011505
 21
0.3257142857141346
 72
     1
 10
24.351152239011505
 20
0.3257142857141346
 11
24.351152239011505
 21
-2.0357142857144446
 97
        0
 75
     0
 76
     1
 98
        1
 10
0.0
 20
0.0
  0
HATCH
  5
87
100
AcDbEntity
  8
0
  6
CONTINUOUS
 62
     3
100
AcDbHatch
 10
0.0
 20
0.0
 30
0.0
210
0.0
220
0.0
230
1.0
  2
SOLID
 70
     1
 71
     1
 91
        1
 92
        1
 93
       17
 72
     2
 10
15.796286246552746
 20
4.4303755974531924
 40
7.328571428571454
 50
44.165469
 51
51.472792
 73
     0
 72
     1
 10
20.361152239011439
 20
-1.3028571428572775
 11
19.948878200429583
 21
-0.5887775613918898
 72
     2
 10
15.796286246552746
 20
4.4303755974531924
 40
6.5142857142857364
 50
309.602625
 51
331.307968
 73
     1
 72
     1
 10
21.510701937024301
 20
1.3028571428570004
 11
20.157580810440017
 21
1.3028571428570004
 72
     1
 10
20.157580810440017
 20
1.3028571428570004
 11
20.157580810440017
 21
2.0357142857141319
 72
     1
 10
20.157580810440017
 20
2.0357142857141319
 11
21.053295096154336
 21
2.0357142857141319
 72
     1
 10
21.053295096154336
 20
2.0357142857141319
 11
21.053295096154336
 21
2.8499999999998487
 72
     1
 10
21.053295096154336
 20
2.8499999999998487
 11
21.786152239011507
 21
2.8499999999998487
 72
     1
 10
21.786152239011507
 20
2.8499999999998487
 11
21.786152239011507
 21
2.0357142857141319
 72
     1
 10
21.786152239011507
 20
2.0357142857141319
 11
22.722580810439986
 21
2.0357142857141319
 72
     2
 10
15.796286246552746
 20
4.4303755974531924
 40
7.328571428571454
 50
19.072051
 51
32.871988
 73
     0
 72
     1
 10
21.951445818831196
 20
0.4526916201288422
 11
22.926152239011437
 21
-0.4885714285715821
 72
     1
 10
22.926152239011437
 20
-0.4885714285715821
 11
22.350277580116831
 21
-1.0644460874662265
 72
     1
 10
22.350277580116831
 20
-1.0644460874662265
 11
21.786152239011507
 21
-0.5196765779765897
 72
     1
 10
21.786152239011507
 20
-0.5196765779765897
 11
21.786152239011507
 21
-2.8500000000001648
 72
     1
 10
21.786152239011507
 20
-2.8500000000001648
 11
21.053295096154336
 21
-2.8500000000001648
 72
     1
 10
21.053295096154336
 20
-2.8500000000001648
 11
21.053295096154336
 21
-0.6756813096801793
 97
        0
 75
     0
 76
     1
 98
        1
 10
0.0
 20
0.0
  0
HATCH
  5
88
100
AcDbEntity
  8
0
  6
CONTINUOUS
 62
     3
100
AcDbHatch
 10
0.0
 20
0.0
 30
0.0
210
0.0
220
0.0
230
1.0
  2
SOLID
 70
     1
 71
     1
 91
        1
 92
        1
 93
       12
 72
     2
 10
26.09465466477446
 20
-6.5604295733743392
 40
11.481428571428609
 50
150.903074
 51
156.790773
 73
     1
 72
     1
 10
15.542396441700383
 20
-2.035714285714505
 11
18.049394029288031
 21
-2.0357142857144055
 72
     2
 10
10.927987441101074
 20
-4.0835590566205937
 40
7.4100000000000241
 50
16.043216
 51
21.362935
 73
     1
 72
     1
 10
17.828858648663306
 20
-1.3842857142858769
 11
18.610437953297115
 21
-1.3842857142858769
 72
     2
 10
10.927987441101074
 20
-4.0835590566205937
 40
8.1428571428571708
 50
340.64078
 51
351.286733
 73
     0
 72
     1
 10
18.976866524725686
 20
-2.8500000000001648
 11
14.457580810439971
 21
-2.8500000000001648
 72
     2
 10
26.09465466477446
 20
-6.5604295733743392
 40
12.214285714285754
 50
197.684652
 51
207.200855
 73
     0
 72
     1
 10
15.231152239011401
 20
-0.9771428571430043
 11
14.091152239011485
 21
-0.9771428571430043
 72
     1
 10
14.091152239011485
 20
-0.9771428571430043
 11
14.091152239011485
 21
-0.162857142857284
 72
     1
 10
14.091152239011485
 20
-0.162857142857284
 11
19.302580810440098
 21
-0.162857142857284
 72
     1
 10
19.302580810440098
 20
-0.162857142857284
 11
19.302580810440098
 21
-0.9771428571430043
 72
     1
 10
19.302580810440098
 20
-0.9771428571430043
 11
16.062201750099412
 21
-0.9771428571430043
 97
        0
 75
     0
 76
     1
 98
        1
 10
0.0
 20
0.0
  0
HATCH
  5
89
100
AcDbEntity
  8
0
  6
CONTINUOUS
 62
     3
100
AcDbHatch
 10
0.0
 20
0.0
 30
0.0
210
0.0
220
0.0
230
1.0
  2
SOLID
 70
     1
 71
     1
 91
        1
 92
        1
 93
       10
 72
     2
 10
26.143491684008573
 20
11.064410217386417
 40
13.028571428571473
 50
129.545698
 51
136.474664
 73
     0
 72
     1
 10
16.696866524725998
 20
2.0919553376225579
 11
16.696866524725998
 21
2.8499999999998487
 72
     1
 10
16.696866524725998
 20
2.8499999999998487
 11
17.104009381868686
 21
2.8499999999998487
 72
     2
 10
26.143491684008573
 20
11.064410217386417
 40
12.214285714285754
 50
222.262231
 51
237.763996
 73
     1
 72
     1
 10
19.628295096154382
 20
0.7328571428570001
 11
19.100346295490944
 21
0.1036722629605507
 72
     2
 10
26.143491684008573
 20
11.064410217386417
 40
13.028571428571473
 50
122.723968
 51
128.230009
 73
     0
 72
     1
 10
18.08115223901148
 20
0.830038905819066
 11
18.08115223901148
 21
0.2035714285712729
 72
     1
 10
18.08115223901148
 20
0.2035714285712729
 11
16.696866524725998
 21
0.2035714285712729
 72
     1
 10
16.696866524725998
 20
0.2035714285712729
 11
16.696866524725998
 21
1.0178571428569896
 72
     1
 10
16.696866524725998
 20
1.0178571428569896
 11
17.848285550942784
 21
1.0178571428569896
 97
        0
 75
     0
 76
     1
 98
        1
 10
0.0
 20
0.0
  0
HATCH
  5
8A
100
AcDbEntity
  8
0
  6
CONTINUOUS
 62
     3
100
AcDbHatch
 10
0.0
 20
0.0
 30
0.0
210
0.0
220
0.0
230
1.0
  2
SOLID
 70
     1
 71
     1
 91
        1
 92
        1
 93
       10
 72
     2
 10
7.2502413654429532
 20
11.064410217386417
 40
13.028571428571473
 50
51.769991
 51
57.276032
 73
     0
 72
     1
 10
14.293386753960569
 20
0.1036722629605329
 11
13.76543795329713
 21
0.7328571428569894
 72
     2
 10
7.2502413654429532
 20
11.064410217386417
 40
12.214285714285754
 50
302.236004
 51
317.737769
 73
     1
 72
     1
 10
16.289723667582841
 20
2.8499999999998487
 11
16.696866524725998
 21
2.8499999999998487
 72
     1
 10
16.696866524725998
 20
2.8499999999998487
 11
16.696866524725998
 21
2.0919553376230482
 72
     2
 10
7.2502413654429532
 20
11.064410217386417
 40
13.028571428571473
 50
43.525336
 51
50.454302
 73
     0
 72
     1
 10
15.545447498508743
 20
1.0178571428569896
 11
16.696866524725998
 21
1.0178571428569896
 72
     1
 10
16.696866524725998
 20
1.0178571428569896
 11
16.696866524725998
 21
0.2035714285712729
 72
     1
 10
16.696866524725998
 20
0.2035714285712729
 11
15.312580810440046
 21
0.2035714285712729
 72
     1
 10
15.312580810440046
 20
0.2035714285712729
 11
15.312580810440046
 21
0.8300389058190589
 97
        0
 75
     0
 76
     1
 98
        1
 10
0.0
 20
0.0
  0
HATCH
  5
8B
100
AcDbEntity
  8
0
  6
CONTINUOUS
 62
     3
100
AcDbHatch
 10
0.0
 20
0.0
 30
0.0
210
0.0
220
0.0
230
1.0
  2
SOLID
 70
     1
 71
     1
 91
        1
 92
        1
 93
       18
 72
     2
 10
1.2571935216656343
 20
-0.8093264034321166
 40
11.400000000000038
 50
14.02954
 51
18.723021
 73
     1
 72
     1
 10
12.053921279331213
 20
2.8499999999998487
 11
12.910437953297141
 21
2.8499999999998487
 72
     2
 10
1.2571935216656343
 20
-0.8093264034321166
 40
12.214285714285754
 50
342.566782
 51
346.922981
 73
     0
 72
     1
 10
13.15472366758285
 20
1.9542857142855716
 11
13.480437953297177
 21
1.9542857142855716
 72
     1
 10
13.480437953297177
 20
1.9542857142855716
 11
13.480437953297177
 21
1.1399999999998407
 72
     1
 10
13.480437953297177
 20
1.1399999999998407
 11
11.958092734747289
 21
1.1399999999998514
 72
     2
 10
20.401866524725683
 20
2.4835714285712918
 40
8.5500000000000291
 50
189.041096
 51
204.65198
 73
     1
 72
     2
 10
14.334076117775972
 20
-0.301141422634494
 40
1.8737206404808271
 50
204.65198
 51
242.897449
 73
     1
 72
     1
 10
13.480437953297177
 20
-1.9691135215345774
 11
13.480437953297177
 21
-2.8500000000001648
 72
     2
 10
14.334076117775972
 20
-0.301141422634494
 40
2.6880063547665438
 50
108.516212
 51
155.34802
 73
     0
 72
     2
 10
20.401866524725683
 20
2.4835714285712918
 40
9.3642857142857441
 50
155.34802
 51
171.750831
 73
     0
 72
     1
 10
11.134468683092756
 20
1.1399999999998549
 11
8.0247236675828972
 21
1.1399999999998407
 72
     1
 10
8.0247236675828972
 20
1.1399999999998407
 11
8.0247236675828972
 21
1.9542857142855716
 72
     1
 10
8.0247236675828972
 20
1.9542857142855716
 11
11.050355927894167
 21
1.9542857142855716
 72
     1
 10
11.050355927894167
 20
1.9542857142855716
 11
11.019076895792274
 21
2.8499999999998487
 72
     1
 10
11.019076895792274
 20
2.8499999999998487
 11
11.833858953292697
 21
2.8499999999998487
 72
     1
 10
11.833858953292697
 20
2.8499999999998487
 11
11.865137985394604
 21
1.9542857142855716
 72
     1
 10
11.865137985394604
 20
1.9542857142855716
 11
12.317141444816265
 21
1.9542857142855716
 97
        0
 75
     0
 76
     1
 98
        1
 10
0.0
 20
0.0
  0
HATCH
  5
8C
100
AcDbEntity
  8
0
  6
CONTINUOUS
 62
     3
100
AcDbHatch
 10
0.0
 20
0.0
 30
0.0
210
0.0
220
0.0
230
1.0
  2
SOLID
 70
     1
 71
     1
 91
        1
 92
        1
 93
       12
 72
     2
 10
5.4617420309248317
 20
38.027820957415145
 40
39.900000000000134
 50
276.500664
 51
278.269357
 73
     1
 72
     1
 10
11.200437953297204
 20
-1.457332823601817
 11
11.20043795329719
 21
-2.2800000000001504
 72
     2
 10
5.4617420309248317
 20
38.027820957415145
 40
40.71428571428585
 50
81.897153
 51
86.39082
 73
     0
 72
     1
 10
8.024723667582883
 20
-2.6057142857144413
 11
8.024723667582883
 21
-1.7897772264302034
 72
     2
 10
5.4617420309248317
 20
38.027820957415145
 40
39.900000000000134
 50
273.682937
 51
275.325087
 73
     1
 72
     1
 10
9.1647236675828836
 20
-1.6999769553635602
 11
9.1647236675828836
 21
-0.4071428571430218
 72
     1
 10
9.1647236675828836
 20
-0.4071428571430218
 11
8.0247236675828972
 21
-0.4071428571430218
 72
     1
 10
8.0247236675828972
 20
-0.4071428571430218
 11
8.0247236675828972
 21
0.4071428571426949
 72
     1
 10
8.0247236675828972
 20
0.4071428571426949
 11
10.95615223901148
 21
0.4071428571426949
 72
     1
 10
10.95615223901148
 20
0.4071428571426949
 11
10.95615223901148
 21
-0.4071428571430218
 72
     1
 10
10.95615223901148
 20
-0.4071428571430218
 11
9.9790093818686287
 21
-0.4071428571430218
 72
     1
 10
9.9790093818686287
 20
-0.4071428571430218
 11
9.9790093818685861
 21
-1.6156437710884397
 97
        0
 75
     0
 76
     1
 98
        1
 10
0.0
 20
0.0
  0
HATCH
  5
8D
100
AcDbEntity
  8
0
  6
CONTINUOUS
 62
     3
100
AcDbHatch
 10
0.0
 20
0.0
 30
0.0
210
0.0
220
0.0
230
1.0
  2
SOLID
 70
     1
 71
     1
 91
        1
 92
        1
 93
       30
 72
     2
 10
-1.8979256098940809
 20
4.1519130391923014
 40
8.9164285714286002
 50
37.940537
 51
46.713808
 73
     0
 72
     1
 10
4.21556076329842
 20
-2.3386942385728418
 11
3.6682950961542744
 21
-1.7914285714286962
 72
     2
 10
-1.8979256098940809
 20
4.1519130391923014
 40
8.1428571428571743
 50
313.123325
 51
325.95222
 73
     1
 72
     1
 10
4.8490093818684983
 20
-0.4071428571430076
 11
3.8718665247257533
 21
-0.4071428571430076
 72
     1
 10
3.8718665247257533
 20
-0.4071428571430076
 11
3.8718665247257533
 21
0.4071428571427092
 72
     1
 10
3.8718665247257533
 20
0.4071428571427092
 11
5.1340093818686157
 21
0.4071428571427092
 72
     1
 10
5.1340093818686157
 20
0.4071428571427092
 11
5.1340093818686157
 21
1.2214285714284152
 72
     1
 10
5.1340093818686157
 20
1.2214285714284152
 11
4.7280236542212677
 21
1.2214285714284152
 72
     2
 10
-3.9789687629962955
 20
2.9438069062169916
 40
8.8757142857143183
 50
11.189535
 51
14.746058
 73
     0
 72
     1
 10
4.6044101437030562
 20
0.6846232869284066
 11
3.9125808104399411
 21
0.9364285714284044
 72
     2
 10
-3.9789687629962955
 20
2.9438069062169916
 40
8.1428571428571743
 50
345.728313
 51
357.620387
 73
     1
 72
     1
 10
4.1568665247257641
 20
2.6057142857165694
 11
4.8844833536651819
 21
2.4774158071570227
 72
     2
 10
-3.9789687629962955
 20
2.9438069062169916
 40
8.8757142857143183
 50
3.012102
 51
6.401006
 73
     0
 72
     1
 10
4.8414139890361767
 20
1.9542857142855716
 11
5.1340093818686157
 21
1.9542857142855716
 72
     1
 10
5.1340093818686157
 20
1.9542857142855716
 11
5.1340093818686157
 21
2.8499999999998487
 72
     1
 10
5.1340093818686157
 20
2.8499999999998487
 11
5.948295096154304
 21
2.8499999999998487
 72
     1
 10
5.948295096154304
 20
2.8499999999998487
 11
5.948295096154304
 21
1.9542857142855716
 72
     1
 10
5.948295096154304
 20
1.9542857142855716
 11
7.0475808104400599
 21
1.9542857142855716
 72
     1
 10
7.0475808104400599
 20
1.9542857142855716
 11
7.0475808104400599
 21
1.2214285714284152
 72
     1
 10
7.0475808104400599
 20
1.2214285714284152
 11
5.948295096154304
 21
1.2214285714284152
 72
     1
 10
5.948295096154304
 20
1.2214285714284152
 11
5.948295096154304
 21
0.4071428571427092
 72
     1
 10
5.948295096154304
 20
0.4071428571427092
 11
7.2104379532971521
 21
0.4071428571427092
 72
     1
 10
7.2104379532971521
 20
0.4071428571427092
 11
7.2104379532971521
 21
-0.4071428571430076
 72
     1
 10
7.2104379532971521
 20
-0.4071428571430076
 11
6.2332950961542579
 21
-0.4071428571430076
 72
     2
 10
12.98023008791683
 20
4.1519130391922907
 40
8.1428571428571743
 50
214.04778
 51
226.876675
 73
     1
 72
     1
 10
7.4140093818684889
 20
-1.7914285714286962
 11
6.866743714724322
 21
-2.3386942385728453
 72
     2
 10
12.98023008791683
 20
4.1519130391922907
 40
8.9164285714286002
 50
133.286192
 51
142.059463
 73
     0
 72
     1
 10
5.948295096154304
 20
-1.330293518482641
 11
5.948295096154304
 21
-2.8500000000001648
 72
     1
 10
5.948295096154304
 20
-2.8500000000001648
 11
5.1340093818686157
 21
-2.8500000000001648
 72
     1
 10
5.1340093818686157
 20
-2.8500000000001648
 11
5.1340093818686157
 21
-1.3302935184824136
 97
        0
 75
     0
 76
     1
 98
        1
 10
0.0
 20
0.0
  0
HATCH
  5
8E
100
AcDbEntity
  8
0
  6
CONTINUOUS
 62
     3
100
AcDbHatch
 10
0.0
 20
0.0
 30
0.0
210
0.0
220
0.0
230
1.0
  2
SOLID
 70
     1
 71
     1
 91
        1
 92
        1
 93
       19
 72
     2
 10
-5.2499698511775321
 20
3.0651230633969284
 40
8.8757142857143165
 50
27.683433
 51
32.280505
 73
     0
 72
     1
 10
2.2539459810095721
 20
-1.6750827617845943
 11
1.6732950961542841
 21
-1.2214285714287314
 72
     2
 10
-5.2499698511775321
 20
3.0651230633969284
 40
8.1428571428571708
 50
328.236207
 51
344.845745
 73
     1
 72
     1
 10
2.6097236675827773
 20
0.9364285714284151
 11
1.8768665247257346
 21
0.9364285714284151
 72
     1
 10
1.8768665247257346
 20
0.9364285714284151
 11
1.8768665247257346
 21
1.7507142857141353
 72
     1
 10
1.8768665247257346
 20
1.7507142857141353
 11
2.6097236675829052
 21
1.7507142857141353
 72
     1
 10
2.6097236675829052
 20
1.7507142857141353
 11
2.6097236675829052
 21
2.8499999999998487
 72
     1
 10
2.6097236675829052
 20
2.8499999999998487
 11
3.4240093818685935
 21
2.8499999999998487
 72
     1
 10
3.4240093818685935
 20
2.8499999999998487
 11
3.4240093818685935
 21
1.7507142857141353
 72
     1
 10
3.4240093818685935
 20
1.7507142857141353
 11
3.7904379532971788
 21
1.7507142857141353
 72
     1
 10
3.7904379532971788
 20
1.7507142857141353
 11
3.7904379532971788
 21
0.9364285714284151
 72
     1
 10
3.7904379532971788
 20
0.9364285714284151
 11
3.4240093818685367
 21
0.9364285714284151
 72
     1
 10
3.4240093818685367
 20
0.9364285714284151
 11
3.8718665247257533
 21
0.2968222855516665
 72
     1
 10
3.8718665247257533
 20
0.2968222855516665
 11
3.8718665247257533
 21
-0.1989042363292235
 72
     1
 10
3.8718665247257533
 20
-0.1989042363292235
 11
3.6275808104399871
 21
-0.4900326139487277
 72
     1
 10
3.6275808104399871
 20
-0.4900326139487277
 11
3.4240093818685935
 21
-0.1993024840048498
 72
     1
 10
3.4240093818685935
 20
-0.1993024840048498
 11
3.4240093818685935
 21
-2.8500000000001648
 72
     1
 10
3.4240093818685935
 20
-2.8500000000001648
 11
2.6097236675829052
 21
-2.8500000000001648
 72
     1
 10
2.6097236675829052
 20
-2.8500000000001648
 11
2.6097236675829052
 21
-1.0584096299120844
 97
        0
 75
     0
 76
     1
 98
        1
 10
0.0
 20
0.0
  0
HATCH
  5
8F
100
AcDbEntity
  8
0
  6
CONTINUOUS
 62
     3
100
AcDbHatch
 10
0.0
 20
0.0
 30
0.0
210
0.0
220
0.0
230
1.0
  2
SOLID
 70
     1
 71
     1
 91
        1
 92
        1
 93
        8
 72
     2
 10
-1.8298808996504405
 20
-0.4560000000002766
 40
1.596000000000013
 50
270.0
 51
330.0
 73
     1
 72
     2
 10
-2.619696067901863
 20
-0.00000000000027
 40
2.508000000000012
 50
330.0
 51
30.0
 73
     1
 72
     2
 10
-1.8298808996504405
 20
0.4559999999997331
 40
1.5960000000000121
 50
30.0
 51
90.0
 73
     1
 72
     1
 10
-1.82988089965
 20
2.0519999999997438
 11
-1.82988089965
 21
2.9639999999999276
 72
     2
 10
-1.8298808996504974
 20
0.4559999999999214
 40
2.508000000000008
 50
270.0
 51
330.0
 73
     0
 72
     2
 10
-2.6196960679017494
 20
-0.0000000000001243
 40
3.420000000000015
 50
330.0
 51
30.0
 73
     0
 72
     2
 10
-1.8298808996503837
 20
-0.456000000000369
 40
2.5080000000000053
 50
30.0
 51
90.0
 73
     0
 72
     1
 10
-1.82988089965
 20
-2.9640000000003752
 11
-1.82988089965
 21
-2.0520000000002909
 97
        0
 75
     0
 76
     1
 98
        1
 10
0.0
 20
0.0
  0
HATCH
  5
90
100
AcDbEntity
  8
0
  6
CONTINUOUS
 62
     3
100
AcDbHatch
 10
0.0
 20
0.0
 30
0.0
210
0.0
220
0.0
230
1.0
  2
SOLID
 70
     1
 71
     1
 91
        1
 92
        1
 93
        8
 72
     2
 10
-1.8298808996503837
 20
-0.456000000000369
 40
2.5080000000000053
 50
90.0
 51
150.0
 73
     0
 72
     2
 10
-1.0400657313991175
 20
-0.0000000000003126
 40
3.4200000000000181
 50
150.0
 51
210.0
 73
     0
 72
     2
 10
-1.8298808996504974
 20
0.4559999999999214
 40
2.508000000000008
 50
210.0
 51
270.0
 73
     0
 72
     1
 10
-1.82988089965
 20
2.9639999999999276
 11
-1.82988089965
 21
2.0519999999997438
 72
     2
 10
-1.8298808996504405
 20
0.4559999999997331
 40
1.5960000000000121
 50
90.0
 51
150.0
 73
     1
 72
     2
 10
-1.040065731399018
 20
-0.00000000000027
 40
2.5080000000000129
 50
150.0
 51
210.0
 73
     1
 72
     2
 10
-1.8298808996504405
 20
-0.4560000000002766
 40
1.596000000000013
 50
210.0
 51
270.0
 73
     1
 72
     1
 10
-1.82988089965
 20
-2.0520000000002909
 11
-1.82988089965
 21
-2.9640000000003752
 97
        0
 75
     0
 76
     1
 98
        1
 10
0.0
 20
0.0
  0
HATCH
  5
91
100
AcDbEntity
  8
0
  6
CONTINUOUS
 62
     3
100
AcDbHatch
 10
0.0
 20
0.0
 30
0.0
210
0.0
220
0.0
230
1.0
  2
SOLID
 70
     1
 71
     1
 91
        1
 92
        1
 93
        4
 72
     1
 10
-5.3638808996504608
 20
-1.0260000000002698
 11
-6.2758808996504385
 21
-1.0260000000002698
 72
     1
 10
-6.2758808996504385
 20
-1.0260000000002698
 11
-6.2758808996504385
 21
-0.1140000000002743
 72
     1
 10
-6.2758808996504385
 20
-0.1140000000002743
 11
-5.3638808996504608
 21
-0.1140000000002743
 72
     1
 10
-5.3638808996504608
 20
-0.1140000000002743
 11
-5.3638808996504608
 21
-1.0260000000003267
 97
        0
 75
     0
 76
     1
 98
        1
 10
0.0
 20
0.0
  0
HATCH
  5
92
100
AcDbEntity
  8
0
  6
CONTINUOUS
 62
     3
100
AcDbHatch
 10
0.0
 20
0.0
 30
0.0
210
0.0
220
0.0
230
1.0
  2
SOLID
 70
     1
 71
     1
 91
        1
 92
        1
 93
       16
 72
     1
 10
-9.6958808996504686
 20
1.9379999999997324
 11
-10.949880899650459
 21
1.9379999999997324
 72
     1
 10
-10.949880899650459
 20
1.9379999999997324
 11
-11.177880899650468
 21
0.6839999999997275
 72
     1
 10
-11.177880899650468
 20
0.6839999999997275
 11
-11.861880899650437
 21
0.6839999999997275
 72
     1
 10
-11.861880899650437
 20
0.6839999999997275
 11
-11.861880899650437
 21
2.8499999999997421
 72
     1
 10
-11.861880899650437
 20
2.8499999999997421
 11
-6.6178808996504515
 21
2.8499999999997421
 72
     1
 10
-6.6178808996504515
 20
2.8499999999997421
 11
-6.6178808996504515
 21
0.6839999999997275
 72
     1
 10
-6.6178808996504515
 20
0.6839999999997275
 11
-7.3018808996504205
 21
0.6839999999997275
 72
     1
 10
-7.3018808996504205
 20
0.6839999999997275
 11
-7.5298808996504292
 21
1.9379999999997324
 72
     1
 10
-7.5298808996504292
 20
1.9379999999997324
 11
-8.7838808996504767
 21
1.9379999999997324
 72
     1
 10
-8.7838808996504767
 20
1.9379999999997324
 11
-8.7838808996504341
 21
-1.9380000000002759
 72
     1
 10
-8.7838808996504341
 20
-1.9380000000002759
 11
-7.8718808996504421
 21
-2.1660000000002846
 72
     1
 10
-7.8718808996504421
 20
-2.1660000000002846
 11
-7.8718808996504421
 21
-2.8500000000002856
 72
     1
 10
-7.8718808996504421
 20
-2.8500000000002856
 11
-10.607880899650446
 21
-2.8500000000002856
 72
     1
 10
-10.607880899650446
 20
-2.8500000000002856
 11
-10.607880899650446
 21
-2.1660000000002846
 72
     1
 10
-10.607880899650446
 20
-2.1660000000002846
 11
-9.6958808996504686
 21
-1.9380000000002759
 72
     1
 10
-9.6958808996504686
 20
-1.9380000000002759
 11
-9.6958808996504686
 21
1.9379999999997324
 97
        0
 75
     0
 76
     1
 98
        1
 10
0.0
 20
0.0
  0
HATCH
  5
93
100
AcDbEntity
  8
0
  6
CONTINUOUS
 62
     3
100
AcDbHatch
 10
0.0
 20
0.0
 30
0.0
210
0.0
220
0.0
230
1.0
  2
SOLID
 70
     1
 71
     1
 91
        1
 92
        1
 93
        4
 72
     1
 10
-13.115880899650485
 20
-1.0260000000002698
 11
-13.115880899650428
 21
-0.1140000000002175
 72
     1
 10
-13.115880899650428
 20
-0.1140000000002175
 11
-12.20388089965045
 21
-0.1140000000002743
 72
     1
 10
-12.20388089965045
 20
-0.1140000000002743
 11
-12.20388089965045
 21
-1.0260000000002698
 72
     1
 10
-12.20388089965045
 20
-1.0260000000002698
 11
-13.115880899650428
 21
-1.0260000000002698
 97
        0
 75
     0
 76
     1
 98
        1
 10
0.0
 20
0.0
  0
HATCH
  5
94
100
AcDbEntity
  8
0
  6
CONTINUOUS
 62
     3
100
AcDbHatch
 10
0.0
 20
0.0
 30
0.0
210
0.0
220
0.0
230
1.0
  2
SOLID
 70
     1
 71
     1
 91
        1
 92
        1
 93
       12
 72
     1
 10
-14.141880899650467
 20
2.8499999999997421
 11
-14.141880899650467
 21
2.1659999999997304
 72
     1
 10
-14.141880899650467
 20
2.1659999999997304
 11
-15.053880899650444
 21
1.9379999999997324
 72
     1
 10
-15.053880899650444
 20
1.9379999999997324
 11
-15.053880899650444
 21
-1.9380000000002759
 72
     1
 10
-15.053880899650444
 20
-1.9380000000002759
 11
-14.141880899650467
 21
-2.1660000000002846
 72
     1
 10
-14.141880899650467
 20
-2.1660000000002846
 11
-14.141880899650467
 21
-2.8500000000002856
 72
     1
 10
-14.141880899650467
 20
-2.8500000000002856
 11
-16.877880899650467
 21
-2.8500000000002856
 72
     1
 10
-16.877880899650467
 20
-2.8500000000002856
 11
-16.877880899650467
 21
-2.1660000000002846
 72
     1
 10
-16.877880899650467
 20
-2.1660000000002846
 11
-15.965880899650482
 21
-1.9380000000002759
 72
     1
 10
-15.965880899650482
 20
-1.9380000000002759
 11
-15.965880899650482
 21
1.9379999999997324
 72
     1
 10
-15.965880899650482
 20
1.9379999999997324
 11
-16.877880899650467
 21
2.165999999999741
 72
     1
 10
-16.877880899650467
 20
2.165999999999741
 11
-16.877880899650467
 21
2.8499999999997421
 72
     1
 10
-16.877880899650467
 20
2.8499999999997421
 11
-14.141880899650467
 21
2.8499999999997421
 97
        0
 75
     0
 76
     1
 98
        1
 10
0.0
 20
0.0
  0
HATCH
  5
95
100
AcDbEntity
  8
0
  6
CONTINUOUS
 62
     3
100
AcDbHatch
 10
0.0
 20
0.0
 30
0.0
210
0.0
220
0.0
230
1.0
  2
SOLID
 70
     1
 71
     1
 91
        1
 92
        1
 93
       15
 72
     2
 10
-23.082241990843084
 20
-0.0000000000001492
 40
2.531053105310535
 50
124.301153
 51
180.0
 73
     0
 72
     1
 10
-25.613295096153617
 20
0.0
 11
-24.658234262528236
 21
0.0
 72
     2
 10
-22.195587997901765
 20
-0.000000000000135
 40
2.46264626462647
 50
180.0
 51
199.464384
 73
     1
 72
     2
 10
-24.557343260027135
 20
0.2731786481661374
 40
1.094509450945121
 50
272.086657
 51
294.619977
 73
     1
 72
     2
 10
-24.243863734539655
 20
-0.4108897586745677
 40
0.342034203420344
 50
294.619977
 51
0.0
 73
     1
 72
     1
 10
-23.901829531119287
 20
-0.4108897586745677
 11
-23.901829531119287
 21
0.0
 72
     1
 10
-23.901829531119287
 20
0.0
 11
-23.080947442910482
 21
0.0
 72
     1
 10
-23.080947442910482
 20
0.0
 11
-23.080947442910482
 21
-0.4116155274721614
 72
     2
 10
-22.73891323949012
 20
-0.4116155274721614
 40
0.34203420342033
 50
180.0
 51
245.380023
 73
     1
 72
     2
 10
-22.425433714002583
 20
0.2724528793686645
 40
1.0945094509452411
 50
245.380023
 51
267.913343
 73
     1
 72
     1
 10
-22.465285876753814
 20
-0.8213308027789985
 11
-22.465285876753814
 21
-1.0265513248311819
 72
     1
 10
-22.465285876753814
 20
-1.0265513248311819
 11
-24.434073870576871
 21
-1.0265513248311962
 72
     2
 10
-22.195587997901708
 20
-0.000000000000135
 40
2.4626462646264669
 50
204.635803
 51
268.19864
 73
     1
 72
     1
 10
-22.272999999999005
 20
-2.4614292609397985
 11
-22.272999999999005
 21
-2.8039503813289706
 72
     2
 10
-22.195587997901765
 20
1.2997299729972909
 40
4.1044104410441236
 50
91.080702
 51
124.301153
 73
     0
 97
        0
 75
     0
 76
     1
 98
        1
 10
0.0
 20
0.0
  0
HATCH
  5
96
100
AcDbEntity
  8
0
  6
CONTINUOUS
 62
     3
100
AcDbHatch
 10
0.0
 20
0.0
 30
0.0
210
0.0
220
0.0
230
1.0
  2
SOLID
 70
     1
 71
     1
 91
        1
 92
        1
 93
       24
 72
     2
 10
-22.67055612196938
 20
0.3420342034202015
 40
0.342034203420347
 50
90.0
 51
157.380135
 73
     1
 72
     2
 10
-21.849674033760575
 20
-0.0000000000001101
 40
1.231323132313237
 50
157.380135
 51
180.0
 73
     1
 72
     1
 10
-23.080997166073811
 20
0.0
 11
-23.901829531119287
 21
0.0
 72
     1
 10
-23.901829531119287
 20
0.0
 11
-23.901829531119287
 21
1.7757720729310194
 72
     2
 10
-22.195587997901765
 20
-0.000000000000135
 40
2.46264626462647
 50
133.856042
 51
180.0
 73
     1
 72
     1
 10
-24.658234262528236
 20
0.0
 11
-25.613295096153617
 21
0.0
 72
     2
 10
-23.082241990843084
 20
-0.0000000000001492
 40
2.531053105310535
 50
180.0
 51
235.698847
 73
     0
 72
     2
 10
-22.195587997901708
 20
-1.2997299729975893
 40
4.1044104410441324
 50
235.698847
 51
245.436008
 73
     0
 72
     1
 10
-23.901829531119287
 20
2.4332212587861193
 11
-23.901829531119287
 21
2.8049575222742433
 72
     2
 10
-24.243863734539655
 20
2.8049575222742433
 40
0.3420342034203421
 50
0.0
 51
65.380023
 73
     1
 72
     2
 10
-24.557343260027135
 20
2.1208891154335525
 40
1.0945094509450961
 50
65.380023
 51
87.913343
 73
     1
 72
     1
 10
-24.517491097275904
 20
3.2146727975810734
 11
-24.517491097275904
 21
3.4198933196332746
 72
     1
 10
-24.517491097275904
 20
3.4198933196332746
 11
-22.465285876753814
 21
3.4198933196332746
 72
     1
 10
-22.465285876753814
 20
3.4198933196332746
 11
-22.465285876753814
 21
3.2146727975810769
 72
     2
 10
-22.425433714002583
 20
2.1208891154335525
 40
1.094509450945101
 50
92.086657
 51
114.619977
 73
     1
 72
     2
 10
-22.738913239490063
 20
2.8049575222742575
 40
0.342034203420347
 50
114.619977
 51
180.0
 73
     1
 72
     1
 10
-23.080947442910432
 20
2.8049575222742433
 11
-23.080947442910432
 21
2.7080529205341897
 72
     2
 10
-22.195587997901765
 20
-1.2997299729975893
 40
4.1044104410441218
 50
257.542857
 51
268.919298
 73
     0
 72
     1
 10
-22.272999999999005
 20
2.8039503813286721
 11
-22.272999999999005
 21
2.4614292609395321
 72
     2
 10
-22.195587997901708
 20
-0.000000000000135
 40
2.46264626462647
 50
91.80136
 51
111.070443
 73
     1
 72
     1
 10
-23.080947442910482
 20
2.2979915747913111
 11
-23.080947442910482
 21
1.0261026102608923
 72
     1
 10
-23.080947442910482
 20
1.0261026102608923
 11
-22.272999999998969
 21
1.0261026102608923
 72
     1
 10
-22.272999999998969
 20
1.0261026102608923
 11
-22.272999999999005
 21
0.6840684068405416
 72
     1
 10
-22.272999999999005
 20
0.6840684068405416
 11
-22.67055612196938
 21
0.6840684068405416
 97
        0
 75
     0
 76
     1
 98
        1
 10
0.0
 20
0.0
  0
HATCH
  5
97
100
AcDbEntity
  8
0
  6
CONTINUOUS
 62
     3
100
AcDbHatch
 10
0.0
 20
0.0
 30
0.0
210
0.0
220
0.0
230
1.0
  2
SOLID
 70
     1
 71
     1
 91
        1
 92
        1
 93
       14
 72
     2
 10
-22.195587997901765
 20
-0.000000000000135
 40
2.4626462646264748
 50
0.0
 51
9.281799
 73
     1
 72
     2
 10
-20.102741104833992
 20
0.3420342034202015
 40
0.34203420342034
 50
9.281799
 51
90.0
 73
     1
 72
     1
 10
-20.102741104833992
 20
0.6840684068405416
 11
-20.827451184220411
 21
0.6840684068405416
 72
     1
 10
-20.827451184220411
 20
0.6840684068405416
 11
-20.827451184220411
 21
0.0
 72
     1
 10
-20.827451184220411
 20
0.0
 11
-21.648333272429209
 21
0.0
 72
     1
 10
-21.648333272429209
 20
0.0
 11
-21.648333272429209
 21
0.6840684068405416
 72
     1
 10
-21.648333272429209
 20
0.6840684068405416
 11
-22.272999999999005
 21
0.6840684068405416
 72
     1
 10
-22.272999999999005
 20
0.6840684068405416
 11
-22.272999999999005
 21
1.0261026102608923
 72
     1
 10
-22.272999999999005
 20
1.0261026102608923
 11
-19.956896402818945
 21
1.0261026102608675
 72
     2
 10
-22.195587997901708
 20
-0.000000000000135
 40
2.46264626462647
 50
24.624318
 51
91.80136
 73
     1
 72
     1
 10
-22.272999999999005
 20
2.4614292609395321
 11
-22.272999999999005
 21
2.8039503813286721
 72
     2
 10
-22.195587997901765
 20
-1.2997299729975893
 40
4.1044104410441218
 50
268.919298
 51
304.301153
 73
     0
 72
     2
 10
-21.308934004960445
 20
-0.0000000000001492
 40
2.5310531053105372
 50
304.301153
 51
0.0
 73
     0
 72
     1
 10
-18.777880899649912
 20
0.0
 11
-19.732941733275293
 21
0.0
 97
        0
 75
     0
 76
     1
 98
        1
 10
0.0
 20
0.0
  0
HATCH
  5
98
100
AcDbEntity
  8
0
  6
CONTINUOUS
 62
     3
100
AcDbHatch
 10
0.0
 20
0.0
 30
0.0
210
0.0
220
0.0
230
1.0
  2
SOLID
 70
     1
 71
     1
 91
        1
 92
        1
 93
       19
 72
     2
 10
-22.195587997901765
 20
-0.000000000000135
 40
2.4626462646264748
 50
303.748989
 51
0.0
 73
     1
 72
     1
 10
-19.732941733275293
 20
0.0
 11
-18.777880899649912
 21
0.0
 72
     2
 10
-21.308934004960445
 20
-0.0000000000001492
 40
2.5310531053105372
 50
0.0
 51
55.698847
 73
     0
 72
     2
 10
-22.195587997901708
 20
1.2997299729973051
 40
4.1044104410441289
 50
55.698847
 51
70.528779
 73
     0
 72
     1
 10
-20.827451184220411
 20
-2.5699453011829512
 11
-20.827451184220411
 21
-2.8054062368445436
 72
     2
 10
-20.485416980800043
 20
-2.8054062368445436
 40
0.342034203420344
 50
180.0
 51
245.380023
 73
     1
 72
     2
 10
-20.171937455312563
 20
-2.1213378300038528
 40
1.094509450945099
 50
245.380023
 51
267.913343
 73
     1
 72
     1
 10
-20.211789618063744
 20
-3.2151215121513772
 11
-20.211789618063744
 21
-3.4203420342035784
 72
     1
 10
-20.211789618063744
 20
-3.4203420342035784
 11
-22.263994838585827
 21
-3.4203420342035784
 72
     1
 10
-22.263994838585827
 20
-3.4203420342035784
 11
-22.263994838585827
 21
-3.2151215121513737
 72
     2
 10
-22.303847001337058
 20
-2.1213378300038528
 40
1.094509450945099
 50
272.086657
 51
294.619977
 73
     1
 72
     2
 10
-21.990367475849578
 20
-2.8054062368445436
 40
0.342034203420344
 50
294.619977
 51
0.0
 73
     1
 72
     1
 10
-21.648333272429209
 20
-2.8054062368445436
 11
-21.648333272429209
 21
-2.7680332125876284
 72
     2
 10
-22.195587997901765
 20
1.2997299729972909
 40
4.1044104410441236
 50
82.337744
 51
91.080702
 73
     0
 72
     1
 10
-22.272999999999005
 20
-2.8039503813289706
 11
-22.272999999999005
 21
-2.4614292609397985
 72
     2
 10
-22.195587997901708
 20
-0.000000000000135
 40
2.4626462646264669
 50
268.19864
 51
282.839588
 73
     1
 72
     1
 10
-21.648333272429209
 20
-2.4010703634269781
 11
-21.648333272429209
 21
0.0
 72
     1
 10
-21.648333272429209
 20
0.0
 11
-20.827451184220411
 21
0.0
 72
     1
 10
-20.827451184220411
 20
0.0
 11
-20.827451184220411
 21
-2.047639686011447
 97
        0
 75
     0
 76
     1
 98
        1
 10
0.0
 20
0.0
  0
ENDBLK
  5
99
100
AcDbEntity
  8
0
100
AcDbBlockEnd
  0
ENDSEC
  0
SECTION
  2
ENTITIES
  0
LINE
  5
9A
100
AcDbEntity
  8
LAY-1
  6
CONTINUOUS
 62
     1
100
AcDbLine
 10
-275.084042
 20
-16.9
 30
0.0
 11
-379.584042
 21
-16.9
 31
0.0
  0
LINE
  5
9B
100
AcDbEntity
  8
LAY-1
  6
CONTINUOUS
 62
     1
100
AcDbLine
 10
-337.584042
 20
348.1
 30
0.0
 11
-379.584042
 21
348.1
 31
0.0
  0
TEXT
  5
9C
100
AcDbEntity
  8
LAY-1
  6
CONTINUOUS
 62
     3
100
AcDbText
 10
-380.084042
 20
135.6
 30
0.0
 40
20.0
  1
３６５
 50
90.0
 41
0.84
  7
EXCADSTD
 72
     5
 11
-380.084042
 21
195.6
 31
0.0
100
AcDbText
  0
LINE
  5
9D
100
AcDbEntity
  8
LAY-1
  6
CONTINUOUS
 62
     1
100
AcDbLine
 10
-379.084042
 20
-16.9
 30
0.0
 11
-379.084042
 21
348.1
 31
0.0
  0
LINE
  5
9E
100
AcDbEntity
  8
LAY-1
  6
CONTINUOUS
 62
     1
100
AcDbLine
 10
-379.417375
 20
-14.9
 30
0.0
 11
-379.084042
 21
-16.9
 31
0.0
  0
LINE
  5
9F
100
AcDbEntity
  8
LAY-1
  6
CONTINUOUS
 62
     1
100
AcDbLine
 10
-379.084042
 20
-16.9
 30
0.0
 11
-378.750708
 21
-14.9
 31
0.0
  0
LINE
  5
A0
100
AcDbEntity
  8
LAY-1
  6
CONTINUOUS
 62
     1
100
AcDbLine
 10
-378.750708
 20
346.1
 30
0.0
 11
-379.084042
 21
348.1
 31
0.0
  0
LINE
  5
A1
100
AcDbEntity
  8
LAY-1
  6
CONTINUOUS
 62
     1
100
AcDbLine
 10
-379.084042
 20
348.1
 30
0.0
 11
-379.417375
 21
346.1
 31
0.0
  0
LINE
  5
A2
100
AcDbEntity
  8
LAY-1
  6
CONTINUOUS
 62
     1
100
AcDbLine
 10
-212.784042
 20
242.3
 30
0.0
 11
-2.584042
 21
242.3
 31
0.0
  0
LINE
  5
A3
100
AcDbEntity
  8
LAY-1
  6
CONTINUOUS
 62
     1
100
AcDbLine
 10
-212.784042
 20
2.3
 30
0.0
 11
-2.584042
 21
2.3
 31
0.0
  0
TEXT
  5
A4
100
AcDbEntity
  8
LAY-1
  6
CONTINUOUS
 62
     3
100
AcDbText
 10
-4.084042
 20
82.3
 30
0.0
 40
20.0
  1
φ
 50
90.0
 41
0.84
  7
EXCADSTD
 72
     5
 11
-4.084042
 21
98.3
 31
0.0
100
AcDbText
  0
TEXT
  5
A5
100
AcDbEntity
  8
LAY-1
  6
CONTINUOUS
 62
     3
100
AcDbText
 10
-4.084042
 20
102.3
 30
0.0
 40
20.0
  1
２４０
 50
90.0
 41
0.84
  7
EXCADSTD
 72
     5
 11
-4.084042
 21
162.3
 31
0.0
100
AcDbText
  0
LINE
  5
A6
100
AcDbEntity
  8
LAY-1
  6
CONTINUOUS
 62
     1
100
AcDbLine
 10
-3.084042
 20
242.3
 30
0.0
 11
-3.084042
 21
2.3
 31
0.0
  0
LINE
  5
A7
100
AcDbEntity
  8
LAY-1
  6
CONTINUOUS
 62
     1
100
AcDbLine
 10
-2.750708
 20
240.3
 30
0.0
 11
-3.084042
 21
242.3
 31
0.0
  0
LINE
  5
A8
100
AcDbEntity
  8
LAY-1
  6
CONTINUOUS
 62
     1
100
AcDbLine
 10
-3.084042
 20
242.3
 30
0.0
 11
-3.417375
 21
240.3
 31
0.0
  0
LINE
  5
A9
100
AcDbEntity
  8
LAY-1
  6
CONTINUOUS
 62
     1
100
AcDbLine
 10
-3.417375
 20
4.3
 30
0.0
 11
-3.084042
 21
2.3
 31
0.0
  0
LINE
  5
AA
100
AcDbEntity
  8
LAY-1
  6
CONTINUOUS
 62
     1
100
AcDbLine
 10
-3.084042
 20
2.3
 30
0.0
 11
-2.750708
 21
4.3
 31
0.0
  0
LINE
  5
AB
100
AcDbEntity
  8
LAY-1
  6
CONTINUOUS
 62
     1
100
AcDbLine
 10
-275.084042
 20
-49.9
 30
0.0
 11
-275.084042
 21
-85.2
 31
0.0
  0
TEXT
  5
AC
100
AcDbEntity
  8
LAY-1
  6
CONTINUOUS
 62
     3
100
AcDbText
 10
-195.584042
 20
-83.7
 30
0.0
 40
20.0
  1
２１９
 41
0.84
  7
EXCADSTD
 72
     5
 11
-135.584042
 21
-83.7
 31
0.0
100
AcDbText
  0
LINE
  5
AD
100
AcDbEntity
  8
LAY-1
  6
CONTINUOUS
 62
     1
100
AcDbLine
 10
-275.084042
 20
-84.7
 30
0.0
 11
-56.084042
 21
-84.7
 31
0.0
  0
LINE
  5
AE
100
AcDbEntity
  8
LAY-1
  6
CONTINUOUS
 62
     1
100
AcDbLine
 10
-273.084042
 20
-84.366667
 30
0.0
 11
-275.084042
 21
-84.7
 31
0.0
  0
LINE
  5
AF
100
AcDbEntity
  8
LAY-1
  6
CONTINUOUS
 62
     1
100
AcDbLine
 10
-275.084042
 20
-84.7
 30
0.0
 11
-273.084042
 21
-85.033333
 31
0.0
  0
LINE
  5
B0
100
AcDbEntity
  8
LAY-1
  6
CONTINUOUS
 62
     1
100
AcDbLine
 10
-58.084042
 20
-85.033333
 30
0.0
 11
-56.084042
 21
-84.7
 31
0.0
  0
LINE
  5
B1
100
AcDbEntity
  8
LAY-1
  6
CONTINUOUS
 62
     1
100
AcDbLine
 10
-56.084042
 20
-84.7
 30
0.0
 11
-58.084042
 21
-84.366667
 31
0.0
  0
LINE
  5
B2
100
AcDbEntity
  8
LAY-1
  6
CONTINUOUS
 62
     1
100
AcDbLine
 10
-56.084042
 20
122.3
 30
0.0
 11
-56.084042
 21
-85.2
 31
0.0
  0
LINE
  5
B3
100
AcDbEntity
  8
LAY-1
  6
CONTINUOUS
 62
     1
100
AcDbLine
 10
-292.084042
 20
285.914735
 30
0.0
 11
-290.458953
 21
283.1
 31
0.0
  0
LINE
  5
B4
100
AcDbEntity
  8
LAY-1
  6
CONTINUOUS
 62
     1
100
AcDbLine
 10
-290.458953
 20
283.1
 30
0.0
 11
-290.229542
 21
275.8
 31
0.0
  0
LINE
  5
B5
100
AcDbEntity
  8
LAY-1
  6
CONTINUOUS
 62
     1
100
AcDbLine
 10
-258.084042
 20
285.914735
 30
0.0
 11
-259.70913
 21
283.1
 31
0.0
  0
LINE
  5
B6
100
AcDbEntity
  8
LAY-1
  6
CONTINUOUS
 62
     1
100
AcDbLine
 10
-259.70913
 20
283.1
 30
0.0
 11
-259.938542
 21
275.8
 31
0.0
  0
LINE
  5
B7
100
AcDbEntity
  8
LAY-1
  6
CONTINUOUS
 62
     1
100
AcDbLine
 10
201.915958
 20
285.914735
 30
0.0
 11
203.541047
 21
283.1
 31
0.0
  0
LINE
  5
B8
100
AcDbEntity
  8
LAY-1
  6
CONTINUOUS
 62
     1
100
AcDbLine
 10
203.541047
 20
283.1
 30
0.0
 11
203.770458
 21
275.8
 31
0.0
  0
LINE
  5
B9
100
AcDbEntity
  8
LAY-1
  6
CONTINUOUS
 62
     1
100
AcDbLine
 10
235.915958
 20
285.914735
 30
0.0
 11
234.29087
 21
283.1
 31
0.0
  0
LINE
  5
BA
100
AcDbEntity
  8
LAY-1
  6
CONTINUOUS
 62
     1
100
AcDbLine
 10
234.29087
 20
283.1
 30
0.0
 11
234.061458
 21
275.8
 31
0.0
  0
LINE
  5
BB
100
AcDbEntity
  8
LAY-1
  6
CONTINUOUS
 62
     1
100
AcDbLine
 10
729.915958
 20
285.914735
 30
0.0
 11
728.29087
 21
283.1
 31
0.0
  0
LINE
  5
BC
100
AcDbEntity
  8
LAY-1
  6
CONTINUOUS
 62
     1
100
AcDbLine
 10
728.29087
 20
283.1
 30
0.0
 11
728.061458
 21
275.8
 31
0.0
  0
LINE
  5
BD
100
AcDbEntity
  8
LAY-1
  6
CONTINUOUS
 62
     1
100
AcDbLine
 10
695.915958
 20
285.914735
 30
0.0
 11
697.541047
 21
283.1
 31
0.0
  0
LINE
  5
BE
100
AcDbEntity
  8
LAY-1
  6
CONTINUOUS
 62
     1
100
AcDbLine
 10
697.541047
 20
283.1
 30
0.0
 11
697.770458
 21
275.8
 31
0.0
  0
POLYLINE
  5
BF
100
AcDbEntity
  8
LAY-1
  6
CONTINUOUS
 62
     1
100
AcDb2dPolyline
 66
     1
 10
0.0
 20
0.0
 30
0.0
 70
   128
  0
VERTEX
  5
C0
100
AcDbEntity
  8
LAY-1
  6
CONTINUOUS
 62
     1
100
AcDbVertex
100
AcDb2dVertex
 10
268.893819
 20
224.850628
 30
0.0
  0
VERTEX
  5
C1
100
AcDbEntity
  8
LAY-1
  6
CONTINUOUS
 62
     1
100
AcDbVertex
100
AcDb2dVertex
 10
265.143819
 20
231.345819
 30
0.0
  0
VERTEX
  5
C2
100
AcDbEntity
  8
LAY-1
  6
CONTINUOUS
 62
     1
100
AcDbVertex
100
AcDb2dVertex
 10
257.643819
 20
231.345819
 30
0.0
  0
VERTEX
  5
C3
100
AcDbEntity
  8
LAY-1
  6
CONTINUOUS
 62
     1
100
AcDbVertex
100
AcDb2dVertex
 10
253.893819
 20
224.850628
 30
0.0
  0
VERTEX
  5
C4
100
AcDbEntity
  8
LAY-1
  6
CONTINUOUS
 62
     1
100
AcDbVertex
100
AcDb2dVertex
 10
257.643819
 20
218.355438
 30
0.0
  0
VERTEX
  5
C5
100
AcDbEntity
  8
LAY-1
  6
CONTINUOUS
 62
     1
100
AcDbVertex
100
AcDb2dVertex
 10
265.143819
 20
218.355438
 30
0.0
  0
VERTEX
  5
C6
100
AcDbEntity
  8
LAY-1
  6
CONTINUOUS
 62
     1
100
AcDbVertex
100
AcDb2dVertex
 10
268.893819
 20
224.850628
 30
0.0
  0
SEQEND
  5
C7
100
AcDbEntity
  8
LAY-1
  6
CONTINUOUS
 62
     1
  0
CIRCLE
  5
C8
100
AcDbEntity
  8
LAY-1
  6
CONTINUOUS
 62
     1
100
AcDbCircle
 10
261.393819
 20
224.850628
 30
0.0
 40
6.480741
  0
POLYLINE
  5
C9
100
AcDbEntity
  8
LAY-1
  6
CONTINUOUS
 62
     1
100
AcDb2dPolyline
 66
     1
 10
0.0
 20
0.0
 30
0.0
 70
   128
  0
VERTEX
  5
CA
100
AcDbEntity
  8
LAY-1
  6
CONTINUOUS
 62
     1
100
AcDbVertex
100
AcDb2dVertex
 10
326.769887
 20
159.47456
 30
0.0
  0
VERTEX
  5
CB
100
AcDbEntity
  8
LAY-1
  6
CONTINUOUS
 62
     1
100
AcDbVertex
100
AcDb2dVertex
 10
328.71103
 20
166.719004
 30
0.0
  0
VERTEX
  5
CC
100
AcDbEntity
  8
LAY-1
  6
CONTINUOUS
 62
     1
100
AcDbVertex
100
AcDb2dVertex
 10
323.407729
 20
172.022305
 30
0.0
  0
VERTEX
  5
CD
100
AcDbEntity
  8
LAY-1
  6
CONTINUOUS
 62
     1
100
AcDbVertex
100
AcDb2dVertex
 10
316.163285
 20
170.081162
 30
0.0
  0
VERTEX
  5
CE
100
AcDbEntity
  8
LAY-1
  6
CONTINUOUS
 62
     1
100
AcDbVertex
100
AcDb2dVertex
 10
314.222143
 20
162.836718
 30
0.0
  0
VERTEX
  5
CF
100
AcDbEntity
  8
LAY-1
  6
CONTINUOUS
 62
     1
100
AcDbVertex
100
AcDb2dVertex
 10
319.525444
 20
157.533417
 30
0.0
  0
VERTEX
  5
D0
100
AcDbEntity
  8
LAY-1
  6
CONTINUOUS
 62
     1
100
AcDbVertex
100
AcDb2dVertex
 10
326.769887
 20
159.47456
 30
0.0
  0
SEQEND
  5
D1
100
AcDbEntity
  8
LAY-1
  6
CONTINUOUS
 62
     1
  0
CIRCLE
  5
D2
100
AcDbEntity
  8
LAY-1
  6
CONTINUOUS
 62
     1
100
AcDbCircle
 10
321.466586
 20
164.777861
 30
0.0
 40
6.480741
  0
POLYLINE
  5
D3
100
AcDbEntity
  8
LAY-1
  6
CONTINUOUS
 62
     1
100
AcDb2dPolyline
 66
     1
 10
0.0
 20
0.0
 30
0.0
 70
   128
  0
VERTEX
  5
D4
100
AcDbEntity
  8
LAY-1
  6
CONTINUOUS
 62
     1
100
AcDbVertex
100
AcDb2dVertex
 10
321.466586
 20
72.322139
 30
0.0
  0
VERTEX
  5
D5
100
AcDbEntity
  8
LAY-1
  6
CONTINUOUS
 62
     1
100
AcDbVertex
100
AcDb2dVertex
 10
327.961777
 20
76.072139
 30
0.0
  0
VERTEX
  5
D6
100
AcDbEntity
  8
LAY-1
  6
CONTINUOUS
 62
     1
100
AcDbVertex
100
AcDb2dVertex
 10
327.961777
 20
83.572139
 30
0.0
  0
VERTEX
  5
D7
100
AcDbEntity
  8
LAY-1
  6
CONTINUOUS
 62
     1
100
AcDbVertex
100
AcDb2dVertex
 10
321.466586
 20
87.322139
 30
0.0
  0
VERTEX
  5
D8
100
AcDbEntity
  8
LAY-1
  6
CONTINUOUS
 62
     1
100
AcDbVertex
100
AcDb2dVertex
 10
314.971396
 20
83.572139
 30
0.0
  0
VERTEX
  5
D9
100
AcDbEntity
  8
LAY-1
  6
CONTINUOUS
 62
     1
100
AcDbVertex
100
AcDb2dVertex
 10
314.971396
 20
76.072139
 30
0.0
  0
VERTEX
  5
DA
100
AcDbEntity
  8
LAY-1
  6
CONTINUOUS
 62
     1
100
AcDbVertex
100
AcDb2dVertex
 10
321.466586
 20
72.322139
 30
0.0
  0
SEQEND
  5
DB
100
AcDbEntity
  8
LAY-1
  6
CONTINUOUS
 62
     1
  0
CIRCLE
  5
DC
100
AcDbEntity
  8
LAY-1
  6
CONTINUOUS
 62
     1
100
AcDbCircle
 10
321.466586
 20
79.822139
 30
0.0
 40
6.480741
  0
CIRCLE
  5
DD
100
AcDbEntity
  8
LAY-1
  6
CONTINUOUS
 62
     1
100
AcDbCircle
 10
261.393819
 20
19.749372
 30
0.0
 40
6.480741
  0
POLYLINE
  5
DE
100
AcDbEntity
  8
LAY-1
  6
CONTINUOUS
 62
     1
100
AcDb2dPolyline
 66
     1
 10
0.0
 20
0.0
 30
0.0
 70
   128
  0
VERTEX
  5
DF
100
AcDbEntity
  8
LAY-1
  6
CONTINUOUS
 62
     1
100
AcDbVertex
100
AcDb2dVertex
 10
256.090518
 20
14.446071
 30
0.0
  0
VERTEX
  5
E0
100
AcDbEntity
  8
LAY-1
  6
CONTINUOUS
 62
     1
100
AcDbVertex
100
AcDb2dVertex
 10
263.334962
 20
12.504928
 30
0.0
  0
VERTEX
  5
E1
100
AcDbEntity
  8
LAY-1
  6
CONTINUOUS
 62
     1
100
AcDbVertex
100
AcDb2dVertex
 10
268.638263
 20
17.808229
 30
0.0
  0
VERTEX
  5
E2
100
AcDbEntity
  8
LAY-1
  6
CONTINUOUS
 62
     1
100
AcDbVertex
100
AcDb2dVertex
 10
266.69712
 20
25.052673
 30
0.0
  0
VERTEX
  5
E3
100
AcDbEntity
  8
LAY-1
  6
CONTINUOUS
 62
     1
100
AcDbVertex
100
AcDb2dVertex
 10
259.452676
 20
26.993816
 30
0.0
  0
VERTEX
  5
E4
100
AcDbEntity
  8
LAY-1
  6
CONTINUOUS
 62
     1
100
AcDbVertex
100
AcDb2dVertex
 10
254.149376
 20
21.690515
 30
0.0
  0
VERTEX
  5
E5
100
AcDbEntity
  8
LAY-1
  6
CONTINUOUS
 62
     1
100
AcDbVertex
100
AcDb2dVertex
 10
256.090518
 20
14.446071
 30
0.0
  0
SEQEND
  5
E6
100
AcDbEntity
  8
LAY-1
  6
CONTINUOUS
 62
     1
  0
POLYLINE
  5
E7
100
AcDbEntity
  8
LAY-1
  6
CONTINUOUS
 62
     1
100
AcDb2dPolyline
 66
     1
 10
0.0
 20
0.0
 30
0.0
 70
   128
  0
VERTEX
  5
E8
100
AcDbEntity
  8
LAY-1
  6
CONTINUOUS
 62
     1
100
AcDbVertex
100
AcDb2dVertex
 10
168.938097
 20
19.749372
 30
0.0
  0
VERTEX
  5
E9
100
AcDbEntity
  8
LAY-1
  6
CONTINUOUS
 62
     1
100
AcDbVertex
100
AcDb2dVertex
 10
172.688097
 20
13.254181
 30
0.0
  0
VERTEX
  5
EA
100
AcDbEntity
  8
LAY-1
  6
CONTINUOUS
 62
     1
100
AcDbVertex
100
AcDb2dVertex
 10
180.188097
 20
13.254181
 30
0.0
  0
VERTEX
  5
EB
100
AcDbEntity
  8
LAY-1
  6
CONTINUOUS
 62
     1
100
AcDbVertex
100
AcDb2dVertex
 10
183.938097
 20
19.749372
 30
0.0
  0
VERTEX
  5
EC
100
AcDbEntity
  8
LAY-1
  6
CONTINUOUS
 62
     1
100
AcDbVertex
100
AcDb2dVertex
 10
180.188097
 20
26.244562
 30
0.0
  0
VERTEX
  5
ED
100
AcDbEntity
  8
LAY-1
  6
CONTINUOUS
 62
     1
100
AcDbVertex
100
AcDb2dVertex
 10
172.688097
 20
26.244562
 30
0.0
  0
VERTEX
  5
EE
100
AcDbEntity
  8
LAY-1
  6
CONTINUOUS
 62
     1
100
AcDbVertex
100
AcDb2dVertex
 10
168.938097
 20
19.749372
 30
0.0
  0
SEQEND
  5
EF
100
AcDbEntity
  8
LAY-1
  6
CONTINUOUS
 62
     1
  0
CIRCLE
  5
F0
100
AcDbEntity
  8
LAY-1
  6
CONTINUOUS
 62
     1
100
AcDbCircle
 10
176.438097
 20
19.749372
 30
0.0
 40
6.480741
  0
POLYLINE
  5
F1
100
AcDbEntity
  8
LAY-1
  6
CONTINUOUS
 62
     1
100
AcDb2dPolyline
 66
     1
 10
0.0
 20
0.0
 30
0.0
 70
   128
  0
VERTEX
  5
F2
100
AcDbEntity
  8
LAY-1
  6
CONTINUOUS
 62
     1
100
AcDbVertex
100
AcDb2dVertex
 10
111.062029
 20
85.12544
 30
0.0
  0
VERTEX
  5
F3
100
AcDbEntity
  8
LAY-1
  6
CONTINUOUS
 62
     1
100
AcDbVertex
100
AcDb2dVertex
 10
109.120886
 20
77.880996
 30
0.0
  0
VERTEX
  5
F4
100
AcDbEntity
  8
LAY-1
  6
CONTINUOUS
 62
     1
100
AcDbVertex
100
AcDb2dVertex
 10
114.424187
 20
72.577695
 30
0.0
  0
VERTEX
  5
F5
100
AcDbEntity
  8
LAY-1
  6
CONTINUOUS
 62
     1
100
AcDbVertex
100
AcDb2dVertex
 10
121.668631
 20
74.518838
 30
0.0
  0
VERTEX
  5
F6
100
AcDbEntity
  8
LAY-1
  6
CONTINUOUS
 62
     1
100
AcDbVertex
100
AcDb2dVertex
 10
123.609774
 20
81.763282
 30
0.0
  0
VERTEX
  5
F7
100
AcDbEntity
  8
LAY-1
  6
CONTINUOUS
 62
     1
100
AcDbVertex
100
AcDb2dVertex
 10
118.306473
 20
87.066583
 30
0.0
  0
VERTEX
  5
F8
100
AcDbEntity
  8
LAY-1
  6
CONTINUOUS
 62
     1
100
AcDbVertex
100
AcDb2dVertex
 10
111.062029
 20
85.12544
 30
0.0
  0
SEQEND
  5
F9
100
AcDbEntity
  8
LAY-1
  6
CONTINUOUS
 62
     1
  0
CIRCLE
  5
FA
100
AcDbEntity
  8
LAY-1
  6
CONTINUOUS
 62
     1
100
AcDbCircle
 10
116.36533
 20
79.822139
 30
0.0
 40
6.480741
  0
POLYLINE
  5
FB
100
AcDbEntity
  8
LAY-1
  6
CONTINUOUS
 62
     1
100
AcDb2dPolyline
 66
     1
 10
0.0
 20
0.0
 30
0.0
 70
   128
  0
VERTEX
  5
FC
100
AcDbEntity
  8
LAY-1
  6
CONTINUOUS
 62
     1
100
AcDbVertex
100
AcDb2dVertex
 10
181.741398
 20
230.153929
 30
0.0
  0
VERTEX
  5
FD
100
AcDbEntity
  8
LAY-1
  6
CONTINUOUS
 62
     1
100
AcDbVertex
100
AcDb2dVertex
 10
174.496954
 20
232.095072
 30
0.0
  0
VERTEX
  5
FE
100
AcDbEntity
  8
LAY-1
  6
CONTINUOUS
 62
     1
100
AcDbVertex
100
AcDb2dVertex
 10
169.193654
 20
226.791771
 30
0.0
  0
VERTEX
  5
FF
100
AcDbEntity
  8
LAY-1
  6
CONTINUOUS
 62
     1
100
AcDbVertex
100
AcDb2dVertex
 10
171.134796
 20
219.547327
 30
0.0
  0
VERTEX
  5
100
100
AcDbEntity
  8
LAY-1
  6
CONTINUOUS
 62
     1
100
AcDbVertex
100
AcDb2dVertex
 10
178.37924
 20
217.606184
 30
0.0
  0
VERTEX
  5
101
100
AcDbEntity
  8
LAY-1
  6
CONTINUOUS
 62
     1
100
AcDbVertex
100
AcDb2dVertex
 10
183.682541
 20
222.909485
 30
0.0
  0
VERTEX
  5
102
100
AcDbEntity
  8
LAY-1
  6
CONTINUOUS
 62
     1
100
AcDbVertex
100
AcDb2dVertex
 10
181.741398
 20
230.153929
 30
0.0
  0
SEQEND
  5
103
100
AcDbEntity
  8
LAY-1
  6
CONTINUOUS
 62
     1
  0
CIRCLE
  5
104
100
AcDbEntity
  8
LAY-1
  6
CONTINUOUS
 62
     1
100
AcDbCircle
 10
176.438097
 20
224.850628
 30
0.0
 40
6.480741
  0
POLYLINE
  5
105
100
AcDbEntity
  8
LAY-1
  6
CONTINUOUS
 62
     1
100
AcDb2dPolyline
 66
     1
 10
0.0
 20
0.0
 30
0.0
 70
   128
  0
VERTEX
  5
106
100
AcDbEntity
  8
LAY-1
  6
CONTINUOUS
 62
     1
100
AcDbVertex
100
AcDb2dVertex
 10
116.36533
 20
172.277861
 30
0.0
  0
VERTEX
  5
107
100
AcDbEntity
  8
LAY-1
  6
CONTINUOUS
 62
     1
100
AcDbVertex
100
AcDb2dVertex
 10
109.87014
 20
168.527861
 30
0.0
  0
VERTEX
  5
108
100
AcDbEntity
  8
LAY-1
  6
CONTINUOUS
 62
     1
100
AcDbVertex
100
AcDb2dVertex
 10
109.87014
 20
161.027861
 30
0.0
  0
VERTEX
  5
109
100
AcDbEntity
  8
LAY-1
  6
CONTINUOUS
 62
     1
100
AcDbVertex
100
AcDb2dVertex
 10
116.36533
 20
157.277861
 30
0.0
  0
VERTEX
  5
10A
100
AcDbEntity
  8
LAY-1
  6
CONTINUOUS
 62
     1
100
AcDbVertex
100
AcDb2dVertex
 10
122.860521
 20
161.027861
 30
0.0
  0
VERTEX
  5
10B
100
AcDbEntity
  8
LAY-1
  6
CONTINUOUS
 62
     1
100
AcDbVertex
100
AcDb2dVertex
 10
122.860521
 20
168.527861
 30
0.0
  0
VERTEX
  5
10C
100
AcDbEntity
  8
LAY-1
  6
CONTINUOUS
 62
     1
100
AcDbVertex
100
AcDb2dVertex
 10
116.36533
 20
172.277861
 30
0.0
  0
SEQEND
  5
10D
100
AcDbEntity
  8
LAY-1
  6
CONTINUOUS
 62
     1
  0
CIRCLE
  5
10E
100
AcDbEntity
  8
LAY-1
  6
CONTINUOUS
 62
     1
100
AcDbCircle
 10
116.36533
 20
164.777861
 30
0.0
 40
6.480741
  0
CIRCLE
  5
10F
100
AcDbEntity
  8
LAY-1
  6
CONTINUOUS
 62
     3
100
AcDbCircle
 10
218.915958
 20
-344.9
 30
0.0
 40
25.0
  0
CIRCLE
  5
110
100
AcDbEntity
  8
LAY-1
  6
CONTINUOUS
 62
     3
100
AcDbCircle
 10
218.915958
 20
-344.9
 30
0.0
 40
35.0
  0
POLYLINE
  5
111
100
AcDbEntity
  8
LAY-1
  6
CONTINUOUS
 62
     3
100
AcDb2dPolyline
 66
     1
 10
0.0
 20
0.0
 30
0.0
 70
   128
  0
VERTEX
  5
112
100
AcDbEntity
  8
LAY-1
  6
CONTINUOUS
 62
     3
100
AcDbVertex
100
AcDb2dVertex
 10
227.038951
 20
-369.9
 30
0.0
  0
VERTEX
  5
113
100
AcDbEntity
  8
LAY-1
  6
CONTINUOUS
 62
     3
100
AcDbVertex
100
AcDb2dVertex
 10
240.182228
 20
-360.35085
 30
0.0
  0
VERTEX
  5
114
100
AcDbEntity
  8
LAY-1
  6
CONTINUOUS
 62
     3
100
AcDbVertex
100
AcDb2dVertex
 10
245.202514
 20
-344.9
 30
0.0
  0
VERTEX
  5
115
100
AcDbEntity
  8
LAY-1
  6
CONTINUOUS
 62
     3
100
AcDbVertex
100
AcDb2dVertex
 10
240.182228
 20
-329.44915
 30
0.0
  0
VERTEX
  5
116
100
AcDbEntity
  8
LAY-1
  6
CONTINUOUS
 62
     3
100
AcDbVertex
100
AcDb2dVertex
 10
227.038951
 20
-319.9
 30
0.0
  0
VERTEX
  5
117
100
AcDbEntity
  8
LAY-1
  6
CONTINUOUS
 62
     3
100
AcDbVertex
100
AcDb2dVertex
 10
210.792966
 20
-319.9
 30
0.0
  0
VERTEX
  5
118
100
AcDbEntity
  8
LAY-1
  6
CONTINUOUS
 62
     3
100
AcDbVertex
100
AcDb2dVertex
 10
197.649688
 20
-329.44915
 30
0.0
  0
VERTEX
  5
119
100
AcDbEntity
  8
LAY-1
  6
CONTINUOUS
 62
     3
100
AcDbVertex
100
AcDb2dVertex
 10
192.629403
 20
-344.9
 30
0.0
  0
VERTEX
  5
11A
100
AcDbEntity
  8
LAY-1
  6
CONTINUOUS
 62
     3
100
AcDbVertex
100
AcDb2dVertex
 10
197.649688
 20
-360.35085
 30
0.0
  0
VERTEX
  5
11B
100
AcDbEntity
  8
LAY-1
  6
CONTINUOUS
 62
     3
100
AcDbVertex
100
AcDb2dVertex
 10
210.792966
 20
-369.9
 30
0.0
  0
VERTEX
  5
11C
100
AcDbEntity
  8
LAY-1
  6
CONTINUOUS
 62
     3
100
AcDbVertex
100
AcDb2dVertex
 10
227.038951
 20
-369.9
 30
0.0
  0
SEQEND
  5
11D
100
AcDbEntity
  8
LAY-1
  6
CONTINUOUS
 62
     3
  0
POLYLINE
  5
11E
100
AcDbEntity
  8
LAY-1
  6
CONTINUOUS
 62
     3
100
AcDb2dPolyline
 66
     1
 10
0.0
 20
0.0
 30
0.0
 70
   128
  0
VERTEX
  5
11F
100
AcDbEntity
  8
LAY-1
  6
CONTINUOUS
 62
     3
100
AcDbVertex
100
AcDb2dVertex
 10
230.288148
 20
-379.9
 30
0.0
  0
VERTEX
  5
120
100
AcDbEntity
  8
LAY-1
  6
CONTINUOUS
 62
     3
100
AcDbVertex
100
AcDb2dVertex
 10
248.688737
 20
-366.53119
 30
0.0
  0
VERTEX
  5
121
100
AcDbEntity
  8
LAY-1
  6
CONTINUOUS
 62
     3
100
AcDbVertex
100
AcDb2dVertex
 10
255.717136
 20
-344.9
 30
0.0
  0
VERTEX
  5
122
100
AcDbEntity
  8
LAY-1
  6
CONTINUOUS
 62
     3
100
AcDbVertex
100
AcDb2dVertex
 10
248.688737
 20
-323.26881
 30
0.0
  0
VERTEX
  5
123
100
AcDbEntity
  8
LAY-1
  6
CONTINUOUS
 62
     3
100
AcDbVertex
100
AcDb2dVertex
 10
230.288148
 20
-309.9
 30
0.0
  0
VERTEX
  5
124
100
AcDbEntity
  8
LAY-1
  6
CONTINUOUS
 62
     3
100
AcDbVertex
100
AcDb2dVertex
 10
207.543769
 20
-309.9
 30
0.0
  0
VERTEX
  5
125
100
AcDbEntity
  8
LAY-1
  6
CONTINUOUS
 62
     3
100
AcDbVertex
100
AcDb2dVertex
 10
189.14318
 20
-323.26881
 30
0.0
  0
VERTEX
  5
126
100
AcDbEntity
  8
LAY-1
  6
CONTINUOUS
 62
     3
100
AcDbVertex
100
AcDb2dVertex
 10
182.11478
 20
-344.9
 30
0.0
  0
VERTEX
  5
127
100
AcDbEntity
  8
LAY-1
  6
CONTINUOUS
 62
     3
100
AcDbVertex
100
AcDb2dVertex
 10
189.14318
 20
-366.53119
 30
0.0
  0
VERTEX
  5
128
100
AcDbEntity
  8
LAY-1
  6
CONTINUOUS
 62
     3
100
AcDbVertex
100
AcDb2dVertex
 10
207.543769
 20
-379.9
 30
0.0
  0
VERTEX
  5
129
100
AcDbEntity
  8
LAY-1
  6
CONTINUOUS
 62
     3
100
AcDbVertex
100
AcDb2dVertex
 10
230.288148
 20
-379.9
 30
0.0
  0
SEQEND
  5
12A
100
AcDbEntity
  8
LAY-1
  6
CONTINUOUS
 62
     3
  0
CIRCLE
  5
12B
100
AcDbEntity
  8
LAY-1
  6
CONTINUOUS
 62
     3
100
AcDbCircle
 10
218.915958
 20
-344.9
 30
0.0
 40
20.955
  0
CIRCLE
  5
12C
100
AcDbEntity
  8
LAY-1
  6
CONTINUOUS
 62
     3
100
AcDbCircle
 10
218.915958
 20
-344.9
 30
0.0
 40
19.427545
  0
LINE
  5
12D
100
AcDbEntity
  8
LAY-1
  6
EXLTYPE3
 62
     1
100
AcDbLine
 10
317.665958
 20
643.1
 30
0.0
 11
120.165958
 21
643.1
 31
0.0
  0
LINE
  5
12E
100
AcDbEntity
  8
LAY-1
  6
EXLTYPE3
 62
     1
100
AcDbLine
 10
317.665958
 20
-344.9
 30
0.0
 11
120.165958
 21
-344.9
 31
0.0
  0
LINE
  5
12F
100
AcDbEntity
  8
LAY-1
  6
EXLTYPE3
 62
     1
100
AcDbLine
 10
-40.853273
 20
122.3
 30
0.0
 11
-323.54558
 21
122.3
 31
0.0
  0
LINE
  5
130
100
AcDbEntity
  8
LAY-1
  6
EXLTYPE3
 62
     1
100
AcDbLine
 10
-275.084042
 20
366.3
 30
0.0
 11
-275.084042
 21
-79.7
 31
0.0
  0
LINE
  5
131
100
AcDbEntity
  8
LAY-1
  6
EXLTYPE3
 62
     1
100
AcDbLine
 10
218.915958
 20
-79.7
 30
0.0
 11
218.915958
 21
366.3
 31
0.0
  0
LINE
  5
132
100
AcDbEntity
  8
LAY-1
  6
EXLTYPE3
 62
     1
100
AcDbLine
 10
478.685189
 20
122.3
 30
0.0
 11
761.377497
 21
122.3
 31
0.0
  0
LINE
  5
133
100
AcDbEntity
  8
LAY-1
  6
EXLTYPE3
 62
     1
100
AcDbLine
 10
712.915958
 20
366.3
 30
0.0
 11
712.915958
 21
-79.7
 31
0.0
  0
LINE
  5
134
100
AcDbEntity
  8
LAY-1
  6
EXLTYPE3
 62
     1
100
AcDbLine
 10
373.915958
 20
122.3
 30
0.0
 11
71.915958
 21
122.3
 31
0.0
  0
LINE
  5
135
100
AcDbEntity
  8
LAY-1
  6
EXLTYPE3
 62
     1
100
AcDbLine
 10
218.915958
 20
408.869231
 30
0.0
 11
218.915958
 21
717.328657
 31
0.0
  0
LINE
  5
136
100
AcDbEntity
  8
LAY-1
  6
EXLTYPE3
 62
     1
100
AcDbLine
 10
218.915958
 20
-110.669231
 30
0.0
 11
218.915958
 21
-424.871343
 31
0.0
  0
LINE
  5
137
100
AcDbEntity
  8
LAY-1
  6
CONTINUOUS
 62
     1
100
AcDbLine
 10
108.86533
 20
578.7
 30
0.0
 11
123.86533
 21
578.7
 31
0.0
  0
ARC
  5
138
100
AcDbEntity
  8
LAY-1
  6
CONTINUOUS
 62
     1
100
AcDbCircle
 10
110.738942
 20
575.528788
 30
0.0
 40
3.328788
100
AcDbArc
 50
235.746813
 51
304.253187
  0
LINE
  5
139
100
AcDbEntity
  8
LAY-1
  6
CONTINUOUS
 62
     1
100
AcDbLine
 10
109.86533
 20
572.2
 30
0.0
 11
108.86533
 21
572.77735
 31
0.0
  0
LINE
  5
13A
100
AcDbEntity
  8
LAY-1
  6
CONTINUOUS
 62
     1
100
AcDbLine
 10
108.86533
 20
578.7
 30
0.0
 11
108.86533
 21
572.77735
 31
0.0
  0
LINE
  5
13B
100
AcDbEntity
  8
LAY-1
  6
CONTINUOUS
 62
     1
100
AcDbLine
 10
108.86533
 20
580.3
 30
0.0
 11
108.86533
 21
578.7
 31
0.0
  0
LINE
  5
13C
100
AcDbEntity
  8
LAY-1
  6
CONTINUOUS
 62
     1
100
AcDbLine
 10
112.612553
 20
608.02265
 30
0.0
 11
112.612553
 21
603.1
 31
0.0
  0
LINE
  5
13D
100
AcDbEntity
  8
LAY-1
  6
CONTINUOUS
 62
     1
100
AcDbLine
 10
108.86533
 20
603.1
 30
0.0
 11
108.86533
 21
608.02265
 31
0.0
  0
ARC
  5
13E
100
AcDbEntity
  8
LAY-1
  6
CONTINUOUS
 62
     1
100
AcDbCircle
 10
110.738942
 20
605.271212
 30
0.0
 40
3.328788
100
AcDbArc
 50
55.746813
 51
124.253187
  0
LINE
  5
13F
100
AcDbEntity
  8
LAY-1
  6
CONTINUOUS
 62
     1
100
AcDbLine
 10
109.86533
 20
608.6
 30
0.0
 11
108.86533
 21
608.02265
 31
0.0
  0
LINE
  5
140
100
AcDbEntity
  8
LAY-1
  6
CONTINUOUS
 62
     1
100
AcDbLine
 10
120.118107
 20
578.7
 30
0.0
 11
120.118107
 21
572.77735
 31
0.0
  0
LINE
  5
141
100
AcDbEntity
  8
LAY-1
  6
CONTINUOUS
 62
     1
100
AcDbLine
 10
112.612553
 20
572.77735
 30
0.0
 11
112.612553
 21
578.7
 31
0.0
  0
ARC
  5
142
100
AcDbEntity
  8
LAY-1
  6
CONTINUOUS
 62
     1
100
AcDbCircle
 10
121.9819
 20
575.497008
 30
0.0
 40
3.297008
100
AcDbArc
 50
235.576995
 51
304.703566
  0
LINE
  5
143
100
AcDbEntity
  8
LAY-1
  6
CONTINUOUS
 62
     1
100
AcDbLine
 10
122.86533
 20
572.2
 30
0.0
 11
123.86533
 21
572.77735
 31
0.0
  0
ARC
  5
144
100
AcDbEntity
  8
LAY-1
  6
CONTINUOUS
 62
     1
100
AcDbCircle
 10
116.36533
 20
584.6852
 30
0.0
 40
12.4852
100
AcDbArc
 50
252.507675
 51
287.492325
  0
LINE
  5
145
100
AcDbEntity
  8
LAY-1
  6
CONTINUOUS
 62
     1
100
AcDbLine
 10
123.86533
 20
608.02265
 30
0.0
 11
123.86533
 21
603.1
 31
0.0
  0
LINE
  5
146
100
AcDbEntity
  8
LAY-1
  6
CONTINUOUS
 62
     1
100
AcDbLine
 10
109.884589
 20
608.6
 30
0.0
 11
122.86533
 21
608.6
 31
0.0
  0
ARC
  5
147
100
AcDbEntity
  8
LAY-1
  6
CONTINUOUS
 62
     1
100
AcDbCircle
 10
116.36533
 20
572.7
 30
0.0
 40
6.5
100
AcDbArc
 50
184.411726
 51
355.588274
  0
LINE
  5
148
100
AcDbEntity
  8
LAY-1
  6
CONTINUOUS
 62
     1
100
AcDbLine
 10
123.86533
 20
572.77735
 30
0.0
 11
123.86533
 21
578.7
 31
0.0
  0
LINE
  5
149
100
AcDbEntity
  8
LAY-1
  6
CONTINUOUS
 62
     1
100
AcDbLine
 10
109.884589
 20
572.2
 30
0.0
 11
122.86533
 21
572.2
 31
0.0
  0
LINE
  5
14A
100
AcDbEntity
  8
LAY-1
  6
CONTINUOUS
 62
     1
100
AcDbLine
 10
122.86533
 20
608.6
 30
0.0
 11
123.86533
 21
608.02265
 31
0.0
  0
LINE
  5
14B
100
AcDbEntity
  8
LAY-1
  6
CONTINUOUS
 62
     1
100
AcDbLine
 10
123.86533
 20
578.7
 30
0.0
 11
123.86533
 21
580.3
 31
0.0
  0
LINE
  5
14C
100
AcDbEntity
  8
LAY-1
  6
CONTINUOUS
 62
     1
100
AcDbLine
 10
120.118107
 20
603.1
 30
0.0
 11
120.118107
 21
608.02265
 31
0.0
  0
ARC
  5
14D
100
AcDbEntity
  8
LAY-1
  6
CONTINUOUS
 62
     1
100
AcDbCircle
 10
121.9819
 20
605.302992
 30
0.0
 40
3.297008
100
AcDbArc
 50
55.296434
 51
124.423005
  0
ARC
  5
14E
100
AcDbEntity
  8
LAY-1
  6
CONTINUOUS
 62
     1
100
AcDbCircle
 10
116.36533
 20
596.1148
 30
0.0
 40
12.4852
100
AcDbArc
 50
72.507675
 51
107.492325
  0
LINE
  5
14F
100
AcDbEntity
  8
LAY-1
  6
CONTINUOUS
 62
     1
100
AcDbLine
 10
168.938097
 20
578.7
 30
0.0
 11
183.938097
 21
578.7
 31
0.0
  0
ARC
  5
150
100
AcDbEntity
  8
LAY-1
  6
CONTINUOUS
 62
     1
100
AcDbCircle
 10
170.811709
 20
575.528788
 30
0.0
 40
3.328788
100
AcDbArc
 50
235.746813
 51
304.253187
  0
LINE
  5
151
100
AcDbEntity
  8
LAY-1
  6
CONTINUOUS
 62
     1
100
AcDbLine
 10
169.938097
 20
572.2
 30
0.0
 11
168.938097
 21
572.77735
 31
0.0
  0
LINE
  5
152
100
AcDbEntity
  8
LAY-1
  6
CONTINUOUS
 62
     1
100
AcDbLine
 10
168.938097
 20
578.7
 30
0.0
 11
168.938097
 21
572.77735
 31
0.0
  0
LINE
  5
153
100
AcDbEntity
  8
LAY-1
  6
CONTINUOUS
 62
     1
100
AcDbLine
 10
168.938097
 20
580.3
 30
0.0
 11
168.938097
 21
578.7
 31
0.0
  0
LINE
  5
154
100
AcDbEntity
  8
LAY-1
  6
CONTINUOUS
 62
     1
100
AcDbLine
 10
180.190874
 20
578.7
 30
0.0
 11
180.190874
 21
572.77735
 31
0.0
  0
LINE
  5
155
100
AcDbEntity
  8
LAY-1
  6
CONTINUOUS
 62
     1
100
AcDbLine
 10
172.685321
 20
572.77735
 30
0.0
 11
172.685321
 21
578.7
 31
0.0
  0
ARC
  5
156
100
AcDbEntity
  8
LAY-1
  6
CONTINUOUS
 62
     1
100
AcDbCircle
 10
182.054667
 20
575.497008
 30
0.0
 40
3.297008
100
AcDbArc
 50
235.576995
 51
304.703566
  0
LINE
  5
157
100
AcDbEntity
  8
LAY-1
  6
CONTINUOUS
 62
     1
100
AcDbLine
 10
182.938097
 20
572.2
 30
0.0
 11
183.938097
 21
572.77735
 31
0.0
  0
ARC
  5
158
100
AcDbEntity
  8
LAY-1
  6
CONTINUOUS
 62
     1
100
AcDbCircle
 10
176.438097
 20
584.6852
 30
0.0
 40
12.4852
100
AcDbArc
 50
252.507675
 51
287.492325
  0
ARC
  5
159
100
AcDbEntity
  8
LAY-1
  6
CONTINUOUS
 62
     1
100
AcDbCircle
 10
176.438097
 20
572.7
 30
0.0
 40
6.5
100
AcDbArc
 50
184.411726
 51
355.588274
  0
LINE
  5
15A
100
AcDbEntity
  8
LAY-1
  6
CONTINUOUS
 62
     1
100
AcDbLine
 10
183.938097
 20
572.77735
 30
0.0
 11
183.938097
 21
578.7
 31
0.0
  0
LINE
  5
15B
100
AcDbEntity
  8
LAY-1
  6
CONTINUOUS
 62
     1
100
AcDbLine
 10
169.957357
 20
572.2
 30
0.0
 11
182.938097
 21
572.2
 31
0.0
  0
LINE
  5
15C
100
AcDbEntity
  8
LAY-1
  6
CONTINUOUS
 62
     1
100
AcDbLine
 10
183.938097
 20
578.7
 30
0.0
 11
183.938097
 21
580.3
 31
0.0
  0
LINE
  5
15D
100
AcDbEntity
  8
LAY-1
  6
CONTINUOUS
 62
     1
100
AcDbLine
 10
253.893819
 20
578.7
 30
0.0
 11
268.893819
 21
578.7
 31
0.0
  0
ARC
  5
15E
100
AcDbEntity
  8
LAY-1
  6
CONTINUOUS
 62
     1
100
AcDbCircle
 10
255.767431
 20
575.528788
 30
0.0
 40
3.328788
100
AcDbArc
 50
235.746813
 51
304.253187
  0
LINE
  5
15F
100
AcDbEntity
  8
LAY-1
  6
CONTINUOUS
 62
     1
100
AcDbLine
 10
254.893819
 20
572.2
 30
0.0
 11
253.893819
 21
572.77735
 31
0.0
  0
LINE
  5
160
100
AcDbEntity
  8
LAY-1
  6
CONTINUOUS
 62
     1
100
AcDbLine
 10
253.893819
 20
578.7
 30
0.0
 11
253.893819
 21
572.77735
 31
0.0
  0
LINE
  5
161
100
AcDbEntity
  8
LAY-1
  6
CONTINUOUS
 62
     1
100
AcDbLine
 10
253.893819
 20
580.3
 30
0.0
 11
253.893819
 21
578.7
 31
0.0
  0
LINE
  5
162
100
AcDbEntity
  8
LAY-1
  6
CONTINUOUS
 62
     1
100
AcDbLine
 10
265.146596
 20
578.7
 30
0.0
 11
265.146596
 21
572.77735
 31
0.0
  0
LINE
  5
163
100
AcDbEntity
  8
LAY-1
  6
CONTINUOUS
 62
     1
100
AcDbLine
 10
257.641042
 20
572.77735
 30
0.0
 11
257.641042
 21
578.7
 31
0.0
  0
ARC
  5
164
100
AcDbEntity
  8
LAY-1
  6
CONTINUOUS
 62
     1
100
AcDbCircle
 10
267.010389
 20
575.497008
 30
0.0
 40
3.297008
100
AcDbArc
 50
235.576995
 51
304.703566
  0
LINE
  5
165
100
AcDbEntity
  8
LAY-1
  6
CONTINUOUS
 62
     1
100
AcDbLine
 10
267.893819
 20
572.2
 30
0.0
 11
268.893819
 21
572.77735
 31
0.0
  0
ARC
  5
166
100
AcDbEntity
  8
LAY-1
  6
CONTINUOUS
 62
     1
100
AcDbCircle
 10
261.393819
 20
584.6852
 30
0.0
 40
12.4852
100
AcDbArc
 50
252.507675
 51
287.492325
  0
ARC
  5
167
100
AcDbEntity
  8
LAY-1
  6
CONTINUOUS
 62
     1
100
AcDbCircle
 10
261.393819
 20
572.7
 30
0.0
 40
6.5
100
AcDbArc
 50
184.411726
 51
355.588274
  0
LINE
  5
168
100
AcDbEntity
  8
LAY-1
  6
CONTINUOUS
 62
     1
100
AcDbLine
 10
268.893819
 20
572.77735
 30
0.0
 11
268.893819
 21
578.7
 31
0.0
  0
LINE
  5
169
100
AcDbEntity
  8
LAY-1
  6
CONTINUOUS
 62
     1
100
AcDbLine
 10
254.913079
 20
572.2
 30
0.0
 11
267.893819
 21
572.2
 31
0.0
  0
LINE
  5
16A
100
AcDbEntity
  8
LAY-1
  6
CONTINUOUS
 62
     1
100
AcDbLine
 10
268.893819
 20
578.7
 30
0.0
 11
268.893819
 21
580.3
 31
0.0
  0
LINE
  5
16B
100
AcDbEntity
  8
LAY-1
  6
CONTINUOUS
 62
     1
100
AcDbLine
 10
313.966586
 20
578.7
 30
0.0
 11
328.966586
 21
578.7
 31
0.0
  0
ARC
  5
16C
100
AcDbEntity
  8
LAY-1
  6
CONTINUOUS
 62
     1
100
AcDbCircle
 10
315.840198
 20
575.528788
 30
0.0
 40
3.328788
100
AcDbArc
 50
235.746813
 51
304.253187
  0
LINE
  5
16D
100
AcDbEntity
  8
LAY-1
  6
CONTINUOUS
 62
     1
100
AcDbLine
 10
314.966586
 20
572.2
 30
0.0
 11
313.966586
 21
572.77735
 31
0.0
  0
LINE
  5
16E
100
AcDbEntity
  8
LAY-1
  6
CONTINUOUS
 62
     1
100
AcDbLine
 10
313.966586
 20
578.7
 30
0.0
 11
313.966586
 21
572.77735
 31
0.0
  0
LINE
  5
16F
100
AcDbEntity
  8
LAY-1
  6
CONTINUOUS
 62
     1
100
AcDbLine
 10
313.966586
 20
580.3
 30
0.0
 11
313.966586
 21
578.7
 31
0.0
  0
LINE
  5
170
100
AcDbEntity
  8
LAY-1
  6
CONTINUOUS
 62
     1
100
AcDbLine
 10
317.71381
 20
608.02265
 30
0.0
 11
317.71381
 21
603.1
 31
0.0
  0
LINE
  5
171
100
AcDbEntity
  8
LAY-1
  6
CONTINUOUS
 62
     1
100
AcDbLine
 10
313.966586
 20
603.1
 30
0.0
 11
313.966586
 21
608.02265
 31
0.0
  0
ARC
  5
172
100
AcDbEntity
  8
LAY-1
  6
CONTINUOUS
 62
     1
100
AcDbCircle
 10
315.840198
 20
605.271212
 30
0.0
 40
3.328788
100
AcDbArc
 50
55.746813
 51
124.253187
  0
LINE
  5
173
100
AcDbEntity
  8
LAY-1
  6
CONTINUOUS
 62
     1
100
AcDbLine
 10
314.966586
 20
608.6
 30
0.0
 11
313.966586
 21
608.02265
 31
0.0
  0
LINE
  5
174
100
AcDbEntity
  8
LAY-1
  6
CONTINUOUS
 62
     1
100
AcDbLine
 10
325.219363
 20
578.7
 30
0.0
 11
325.219363
 21
572.77735
 31
0.0
  0
LINE
  5
175
100
AcDbEntity
  8
LAY-1
  6
CONTINUOUS
 62
     1
100
AcDbLine
 10
317.71381
 20
572.77735
 30
0.0
 11
317.71381
 21
578.7
 31
0.0
  0
ARC
  5
176
100
AcDbEntity
  8
LAY-1
  6
CONTINUOUS
 62
     1
100
AcDbCircle
 10
327.083156
 20
575.497008
 30
0.0
 40
3.297008
100
AcDbArc
 50
235.576995
 51
304.703566
  0
LINE
  5
177
100
AcDbEntity
  8
LAY-1
  6
CONTINUOUS
 62
     1
100
AcDbLine
 10
327.966586
 20
572.2
 30
0.0
 11
328.966586
 21
572.77735
 31
0.0
  0
ARC
  5
178
100
AcDbEntity
  8
LAY-1
  6
CONTINUOUS
 62
     1
100
AcDbCircle
 10
321.466586
 20
584.6852
 30
0.0
 40
12.4852
100
AcDbArc
 50
252.507675
 51
287.492325
  0
LINE
  5
179
100
AcDbEntity
  8
LAY-1
  6
CONTINUOUS
 62
     1
100
AcDbLine
 10
328.966586
 20
608.02265
 30
0.0
 11
328.966586
 21
603.1
 31
0.0
  0
LINE
  5
17A
100
AcDbEntity
  8
LAY-1
  6
CONTINUOUS
 62
     1
100
AcDbLine
 10
314.985846
 20
608.6
 30
0.0
 11
327.966586
 21
608.6
 31
0.0
  0
ARC
  5
17B
100
AcDbEntity
  8
LAY-1
  6
CONTINUOUS
 62
     1
100
AcDbCircle
 10
321.466586
 20
572.7
 30
0.0
 40
6.5
100
AcDbArc
 50
184.411726
 51
355.588274
  0
LINE
  5
17C
100
AcDbEntity
  8
LAY-1
  6
CONTINUOUS
 62
     1
100
AcDbLine
 10
328.966586
 20
572.77735
 30
0.0
 11
328.966586
 21
578.7
 31
0.0
  0
LINE
  5
17D
100
AcDbEntity
  8
LAY-1
  6
CONTINUOUS
 62
     1
100
AcDbLine
 10
314.985846
 20
572.2
 30
0.0
 11
327.966586
 21
572.2
 31
0.0
  0
LINE
  5
17E
100
AcDbEntity
  8
LAY-1
  6
CONTINUOUS
 62
     1
100
AcDbLine
 10
327.966586
 20
608.6
 30
0.0
 11
328.966586
 21
608.02265
 31
0.0
  0
LINE
  5
17F
100
AcDbEntity
  8
LAY-1
  6
CONTINUOUS
 62
     1
100
AcDbLine
 10
328.966586
 20
578.7
 30
0.0
 11
328.966586
 21
580.3
 31
0.0
  0
LINE
  5
180
100
AcDbEntity
  8
LAY-1
  6
CONTINUOUS
 62
     1
100
AcDbLine
 10
325.219363
 20
603.1
 30
0.0
 11
325.219363
 21
608.02265
 31
0.0
  0
ARC
  5
181
100
AcDbEntity
  8
LAY-1
  6
CONTINUOUS
 62
     1
100
AcDbCircle
 10
327.083156
 20
605.302992
 30
0.0
 40
3.297008
100
AcDbArc
 50
55.296434
 51
124.423005
  0
ARC
  5
182
100
AcDbEntity
  8
LAY-1
  6
CONTINUOUS
 62
     1
100
AcDbCircle
 10
321.466586
 20
596.1148
 30
0.0
 40
12.4852
100
AcDbArc
 50
72.507675
 51
107.492325
  0
LINE
  5
183
100
AcDbEntity
  8
LAY-1
  6
CONTINUOUS
 62
     1
100
AcDbLine
 10
168.938097
 20
603.1
 30
0.0
 11
168.938097
 21
605.570499
 31
0.0
  0
LINE
  5
184
100
AcDbEntity
  8
LAY-1
  6
CONTINUOUS
 62
     1
100
AcDbLine
 10
268.893819
 20
605.570499
 30
0.0
 11
268.893819
 21
603.1
 31
0.0
  0
ARC
  5
185
100
AcDbEntity
  8
LAY-1
  6
CONTINUOUS
 62
     1
100
AcDbCircle
 10
-228.098842
 20
19.749372
 30
0.0
 40
12.4852
100
AcDbArc
 50
162.507675
 51
197.492325
  0
ARC
  5
186
100
AcDbEntity
  8
LAY-1
  6
CONTINUOUS
 62
     1
100
AcDbCircle
 10
-237.287034
 20
25.365941
 30
0.0
 40
3.297008
100
AcDbArc
 50
145.296434
 51
214.423005
  0
LINE
  5
187
100
AcDbEntity
  8
LAY-1
  6
CONTINUOUS
 62
     1
100
AcDbLine
 10
-235.084042
 20
23.502149
 30
0.0
 11
-240.006691
 21
23.502149
 31
0.0
  0
LINE
  5
188
100
AcDbEntity
  8
LAY-1
  6
CONTINUOUS
 62
     1
100
AcDbLine
 10
-210.684042
 20
27.249372
 30
0.0
 11
-212.284042
 21
27.249372
 31
0.0
  0
LINE
  5
189
100
AcDbEntity
  8
LAY-1
  6
CONTINUOUS
 62
     1
100
AcDbLine
 10
-240.584042
 20
26.249372
 30
0.0
 11
-240.006691
 21
27.249372
 31
0.0
  0
LINE
  5
18A
100
AcDbEntity
  8
LAY-1
  6
CONTINUOUS
 62
     1
100
AcDbLine
 10
-204.184042
 20
13.268631
 30
0.0
 11
-204.184042
 21
26.249372
 31
0.0
  0
LINE
  5
18B
100
AcDbEntity
  8
LAY-1
  6
CONTINUOUS
 62
     1
100
AcDbLine
 10
-204.761392
 20
27.249372
 30
0.0
 11
-210.684042
 21
27.249372
 31
0.0
  0
ARC
  5
18C
100
AcDbEntity
  8
LAY-1
  6
CONTINUOUS
 62
     1
100
AcDbCircle
 10
-204.684042
 20
19.749372
 30
0.0
 40
6.5
100
AcDbArc
 50
274.411726
 51
85.588274
  0
LINE
  5
18D
100
AcDbEntity
  8
LAY-1
  6
CONTINUOUS
 62
     1
100
AcDbLine
 10
-240.584042
 20
13.268631
 30
0.0
 11
-240.584042
 21
26.249372
 31
0.0
  0
LINE
  5
18E
100
AcDbEntity
  8
LAY-1
  6
CONTINUOUS
 62
     1
100
AcDbLine
 10
-240.006691
 20
27.249372
 30
0.0
 11
-235.084042
 21
27.249372
 31
0.0
  0
ARC
  5
18F
100
AcDbEntity
  8
LAY-1
  6
CONTINUOUS
 62
     1
100
AcDbCircle
 10
-216.669241
 20
19.749372
 30
0.0
 40
12.4852
100
AcDbArc
 50
342.507675
 51
17.492325
  0
LINE
  5
190
100
AcDbEntity
  8
LAY-1
  6
CONTINUOUS
 62
     1
100
AcDbLine
 10
-204.184042
 20
26.249372
 30
0.0
 11
-204.761392
 21
27.249372
 31
0.0
  0
ARC
  5
191
100
AcDbEntity
  8
LAY-1
  6
CONTINUOUS
 62
     1
100
AcDbCircle
 10
-207.481049
 20
25.365941
 30
0.0
 40
3.297008
100
AcDbArc
 50
325.576995
 51
34.703566
  0
LINE
  5
192
100
AcDbEntity
  8
LAY-1
  6
CONTINUOUS
 62
     1
100
AcDbLine
 10
-204.761392
 20
15.996595
 30
0.0
 11
-210.684042
 21
15.996595
 31
0.0
  0
LINE
  5
193
100
AcDbEntity
  8
LAY-1
  6
CONTINUOUS
 62
     1
100
AcDbLine
 10
-210.684042
 20
23.502149
 30
0.0
 11
-204.761392
 21
23.502149
 31
0.0
  0
LINE
  5
194
100
AcDbEntity
  8
LAY-1
  6
CONTINUOUS
 62
     1
100
AcDbLine
 10
-240.584042
 20
13.249372
 30
0.0
 11
-240.006691
 21
12.249372
 31
0.0
  0
ARC
  5
195
100
AcDbEntity
  8
LAY-1
  6
CONTINUOUS
 62
     1
100
AcDbCircle
 10
-237.255253
 20
14.122984
 30
0.0
 40
3.328788
100
AcDbArc
 50
145.746813
 51
214.253187
  0
LINE
  5
196
100
AcDbEntity
  8
LAY-1
  6
CONTINUOUS
 62
     1
100
AcDbLine
 10
-235.084042
 20
12.249372
 30
0.0
 11
-240.006691
 21
12.249372
 31
0.0
  0
LINE
  5
197
100
AcDbEntity
  8
LAY-1
  6
CONTINUOUS
 62
     1
100
AcDbLine
 10
-240.006691
 20
15.996595
 30
0.0
 11
-235.084042
 21
15.996595
 31
0.0
  0
LINE
  5
198
100
AcDbEntity
  8
LAY-1
  6
CONTINUOUS
 62
     1
100
AcDbLine
 10
-212.284042
 20
12.249372
 30
0.0
 11
-210.684042
 21
12.249372
 31
0.0
  0
LINE
  5
199
100
AcDbEntity
  8
LAY-1
  6
CONTINUOUS
 62
     1
100
AcDbLine
 10
-210.684042
 20
12.249372
 30
0.0
 11
-204.761392
 21
12.249372
 31
0.0
  0
LINE
  5
19A
100
AcDbEntity
  8
LAY-1
  6
CONTINUOUS
 62
     1
100
AcDbLine
 10
-204.184042
 20
13.249372
 30
0.0
 11
-204.761392
 21
12.249372
 31
0.0
  0
ARC
  5
19B
100
AcDbEntity
  8
LAY-1
  6
CONTINUOUS
 62
     1
100
AcDbCircle
 10
-207.51283
 20
14.122984
 30
0.0
 40
3.328788
100
AcDbArc
 50
325.746813
 51
34.253187
  0
LINE
  5
19C
100
AcDbEntity
  8
LAY-1
  6
CONTINUOUS
 62
     1
100
AcDbLine
 10
-210.684042
 20
12.249372
 30
0.0
 11
-210.684042
 21
27.249372
 31
0.0
  0
LINE
  5
19D
100
AcDbEntity
  8
LAY-1
  6
CONTINUOUS
 62
     1
100
AcDbLine
 10
-210.684042
 20
72.322139
 30
0.0
 11
-210.684042
 21
87.322139
 31
0.0
  0
ARC
  5
19E
100
AcDbEntity
  8
LAY-1
  6
CONTINUOUS
 62
     1
100
AcDbCircle
 10
-207.51283
 20
74.195751
 30
0.0
 40
3.328788
100
AcDbArc
 50
325.746813
 51
34.253187
  0
LINE
  5
19F
100
AcDbEntity
  8
LAY-1
  6
CONTINUOUS
 62
     1
100
AcDbLine
 10
-204.184042
 20
73.322139
 30
0.0
 11
-204.761392
 21
72.322139
 31
0.0
  0
LINE
  5
1A0
100
AcDbEntity
  8
LAY-1
  6
CONTINUOUS
 62
     1
100
AcDbLine
 10
-210.684042
 20
72.322139
 30
0.0
 11
-204.761392
 21
72.322139
 31
0.0
  0
LINE
  5
1A1
100
AcDbEntity
  8
LAY-1
  6
CONTINUOUS
 62
     1
100
AcDbLine
 10
-212.284042
 20
72.322139
 30
0.0
 11
-210.684042
 21
72.322139
 31
0.0
  0
LINE
  5
1A2
100
AcDbEntity
  8
LAY-1
  6
CONTINUOUS
 62
     1
100
AcDbLine
 10
-240.006691
 20
76.069362
 30
0.0
 11
-235.084042
 21
76.069362
 31
0.0
  0
LINE
  5
1A3
100
AcDbEntity
  8
LAY-1
  6
CONTINUOUS
 62
     1
100
AcDbLine
 10
-235.084042
 20
72.322139
 30
0.0
 11
-240.006691
 21
72.322139
 31
0.0
  0
ARC
  5
1A4
100
AcDbEntity
  8
LAY-1
  6
CONTINUOUS
 62
     1
100
AcDbCircle
 10
-237.255253
 20
74.195751
 30
0.0
 40
3.328788
100
AcDbArc
 50
145.746813
 51
214.253187
  0
LINE
  5
1A5
100
AcDbEntity
  8
LAY-1
  6
CONTINUOUS
 62
     1
100
AcDbLine
 10
-240.584042
 20
73.322139
 30
0.0
 11
-240.006691
 21
72.322139
 31
0.0
  0
LINE
  5
1A6
100
AcDbEntity
  8
LAY-1
  6
CONTINUOUS
 62
     1
100
AcDbLine
 10
-210.684042
 20
83.574916
 30
0.0
 11
-204.761392
 21
83.574916
 31
0.0
  0
LINE
  5
1A7
100
AcDbEntity
  8
LAY-1
  6
CONTINUOUS
 62
     1
100
AcDbLine
 10
-204.761392
 20
76.069362
 30
0.0
 11
-210.684042
 21
76.069362
 31
0.0
  0
ARC
  5
1A8
100
AcDbEntity
  8
LAY-1
  6
CONTINUOUS
 62
     1
100
AcDbCircle
 10
-207.481049
 20
85.438708
 30
0.0
 40
3.297008
100
AcDbArc
 50
325.576995
 51
34.703566
  0
LINE
  5
1A9
100
AcDbEntity
  8
LAY-1
  6
CONTINUOUS
 62
     1
100
AcDbLine
 10
-204.184042
 20
86.322139
 30
0.0
 11
-204.761392
 21
87.322139
 31
0.0
  0
ARC
  5
1AA
100
AcDbEntity
  8
LAY-1
  6
CONTINUOUS
 62
     1
100
AcDbCircle
 10
-216.669241
 20
79.822139
 30
0.0
 40
12.4852
100
AcDbArc
 50
342.507675
 51
17.492325
  0
LINE
  5
1AB
100
AcDbEntity
  8
LAY-1
  6
CONTINUOUS
 62
     1
100
AcDbLine
 10
-240.006691
 20
87.322139
 30
0.0
 11
-235.084042
 21
87.322139
 31
0.0
  0
LINE
  5
1AC
100
AcDbEntity
  8
LAY-1
  6
CONTINUOUS
 62
     1
100
AcDbLine
 10
-240.584042
 20
73.341398
 30
0.0
 11
-240.584042
 21
86.322139
 31
0.0
  0
ARC
  5
1AD
100
AcDbEntity
  8
LAY-1
  6
CONTINUOUS
 62
     1
100
AcDbCircle
 10
-204.684042
 20
79.822139
 30
0.0
 40
6.5
100
AcDbArc
 50
274.411726
 51
85.588274
  0
LINE
  5
1AE
100
AcDbEntity
  8
LAY-1
  6
CONTINUOUS
 62
     1
100
AcDbLine
 10
-204.761392
 20
87.322139
 30
0.0
 11
-210.684042
 21
87.322139
 31
0.0
  0
LINE
  5
1AF
100
AcDbEntity
  8
LAY-1
  6
CONTINUOUS
 62
     1
100
AcDbLine
 10
-204.184042
 20
73.341398
 30
0.0
 11
-204.184042
 21
86.322139
 31
0.0
  0
LINE
  5
1B0
100
AcDbEntity
  8
LAY-1
  6
CONTINUOUS
 62
     1
100
AcDbLine
 10
-240.584042
 20
86.322139
 30
0.0
 11
-240.006691
 21
87.322139
 31
0.0
  0
LINE
  5
1B1
100
AcDbEntity
  8
LAY-1
  6
CONTINUOUS
 62
     1
100
AcDbLine
 10
-210.684042
 20
87.322139
 30
0.0
 11
-212.284042
 21
87.322139
 31
0.0
  0
LINE
  5
1B2
100
AcDbEntity
  8
LAY-1
  6
CONTINUOUS
 62
     1
100
AcDbLine
 10
-235.084042
 20
83.574916
 30
0.0
 11
-240.006691
 21
83.574916
 31
0.0
  0
ARC
  5
1B3
100
AcDbEntity
  8
LAY-1
  6
CONTINUOUS
 62
     1
100
AcDbCircle
 10
-237.287034
 20
85.438708
 30
0.0
 40
3.297008
100
AcDbArc
 50
145.296434
 51
214.423005
  0
ARC
  5
1B4
100
AcDbEntity
  8
LAY-1
  6
CONTINUOUS
 62
     1
100
AcDbCircle
 10
-228.098842
 20
79.822139
 30
0.0
 40
12.4852
100
AcDbArc
 50
162.507675
 51
197.492325
  0
LINE
  5
1B5
100
AcDbEntity
  8
LAY-1
  6
CONTINUOUS
 62
     1
100
AcDbLine
 10
-210.684042
 20
157.277861
 30
0.0
 11
-210.684042
 21
172.277861
 31
0.0
  0
ARC
  5
1B6
100
AcDbEntity
  8
LAY-1
  6
CONTINUOUS
 62
     1
100
AcDbCircle
 10
-207.51283
 20
159.151473
 30
0.0
 40
3.328788
100
AcDbArc
 50
325.746813
 51
34.253187
  0
LINE
  5
1B7
100
AcDbEntity
  8
LAY-1
  6
CONTINUOUS
 62
     1
100
AcDbLine
 10
-204.184042
 20
158.277861
 30
0.0
 11
-204.761392
 21
157.277861
 31
0.0
  0
LINE
  5
1B8
100
AcDbEntity
  8
LAY-1
  6
CONTINUOUS
 62
     1
100
AcDbLine
 10
-210.684042
 20
157.277861
 30
0.0
 11
-204.761392
 21
157.277861
 31
0.0
  0
LINE
  5
1B9
100
AcDbEntity
  8
LAY-1
  6
CONTINUOUS
 62
     1
100
AcDbLine
 10
-212.284042
 20
157.277861
 30
0.0
 11
-210.684042
 21
157.277861
 31
0.0
  0
LINE
  5
1BA
100
AcDbEntity
  8
LAY-1
  6
CONTINUOUS
 62
     1
100
AcDbLine
 10
-240.006691
 20
161.025084
 30
0.0
 11
-235.084042
 21
161.025084
 31
0.0
  0
LINE
  5
1BB
100
AcDbEntity
  8
LAY-1
  6
CONTINUOUS
 62
     1
100
AcDbLine
 10
-235.084042
 20
157.277861
 30
0.0
 11
-240.006691
 21
157.277861
 31
0.0
  0
ARC
  5
1BC
100
AcDbEntity
  8
LAY-1
  6
CONTINUOUS
 62
     1
100
AcDbCircle
 10
-237.255253
 20
159.151473
 30
0.0
 40
3.328788
100
AcDbArc
 50
145.746813
 51
214.253187
  0
LINE
  5
1BD
100
AcDbEntity
  8
LAY-1
  6
CONTINUOUS
 62
     1
100
AcDbLine
 10
-240.584042
 20
158.277861
 30
0.0
 11
-240.006691
 21
157.277861
 31
0.0
  0
LINE
  5
1BE
100
AcDbEntity
  8
LAY-1
  6
CONTINUOUS
 62
     1
100
AcDbLine
 10
-210.684042
 20
168.530638
 30
0.0
 11
-204.761392
 21
168.530638
 31
0.0
  0
LINE
  5
1BF
100
AcDbEntity
  8
LAY-1
  6
CONTINUOUS
 62
     1
100
AcDbLine
 10
-204.761392
 20
161.025084
 30
0.0
 11
-210.684042
 21
161.025084
 31
0.0
  0
ARC
  5
1C0
100
AcDbEntity
  8
LAY-1
  6
CONTINUOUS
 62
     1
100
AcDbCircle
 10
-207.481049
 20
170.39443
 30
0.0
 40
3.297008
100
AcDbArc
 50
325.576995
 51
34.703566
  0
LINE
  5
1C1
100
AcDbEntity
  8
LAY-1
  6
CONTINUOUS
 62
     1
100
AcDbLine
 10
-204.184042
 20
171.277861
 30
0.0
 11
-204.761392
 21
172.277861
 31
0.0
  0
ARC
  5
1C2
100
AcDbEntity
  8
LAY-1
  6
CONTINUOUS
 62
     1
100
AcDbCircle
 10
-216.669241
 20
164.777861
 30
0.0
 40
12.4852
100
AcDbArc
 50
342.507675
 51
17.492325
  0
LINE
  5
1C3
100
AcDbEntity
  8
LAY-1
  6
CONTINUOUS
 62
     1
100
AcDbLine
 10
-240.006691
 20
172.277861
 30
0.0
 11
-235.084042
 21
172.277861
 31
0.0
  0
LINE
  5
1C4
100
AcDbEntity
  8
LAY-1
  6
CONTINUOUS
 62
     1
100
AcDbLine
 10
-240.584042
 20
158.29712
 30
0.0
 11
-240.584042
 21
171.277861
 31
0.0
  0
ARC
  5
1C5
100
AcDbEntity
  8
LAY-1
  6
CONTINUOUS
 62
     1
100
AcDbCircle
 10
-204.684042
 20
164.777861
 30
0.0
 40
6.5
100
AcDbArc
 50
274.411726
 51
85.588274
  0
LINE
  5
1C6
100
AcDbEntity
  8
LAY-1
  6
CONTINUOUS
 62
     1
100
AcDbLine
 10
-204.761392
 20
172.277861
 30
0.0
 11
-210.684042
 21
172.277861
 31
0.0
  0
LINE
  5
1C7
100
AcDbEntity
  8
LAY-1
  6
CONTINUOUS
 62
     1
100
AcDbLine
 10
-204.184042
 20
158.29712
 30
0.0
 11
-204.184042
 21
171.277861
 31
0.0
  0
LINE
  5
1C8
100
AcDbEntity
  8
LAY-1
  6
CONTINUOUS
 62
     1
100
AcDbLine
 10
-240.584042
 20
171.277861
 30
0.0
 11
-240.006691
 21
172.277861
 31
0.0
  0
LINE
  5
1C9
100
AcDbEntity
  8
LAY-1
  6
CONTINUOUS
 62
     1
100
AcDbLine
 10
-210.684042
 20
172.277861
 30
0.0
 11
-212.284042
 21
172.277861
 31
0.0
  0
LINE
  5
1CA
100
AcDbEntity
  8
LAY-1
  6
CONTINUOUS
 62
     1
100
AcDbLine
 10
-235.084042
 20
168.530638
 30
0.0
 11
-240.006691
 21
168.530638
 31
0.0
  0
ARC
  5
1CB
100
AcDbEntity
  8
LAY-1
  6
CONTINUOUS
 62
     1
100
AcDbCircle
 10
-237.287034
 20
170.39443
 30
0.0
 40
3.297008
100
AcDbArc
 50
145.296434
 51
214.423005
  0
ARC
  5
1CC
100
AcDbEntity
  8
LAY-1
  6
CONTINUOUS
 62
     1
100
AcDbCircle
 10
-228.098842
 20
164.777861
 30
0.0
 40
12.4852
100
AcDbArc
 50
162.507675
 51
197.492325
  0
LINE
  5
1CD
100
AcDbEntity
  8
LAY-1
  6
CONTINUOUS
 62
     1
100
AcDbLine
 10
-210.684042
 20
217.350628
 30
0.0
 11
-210.684042
 21
232.350628
 31
0.0
  0
ARC
  5
1CE
100
AcDbEntity
  8
LAY-1
  6
CONTINUOUS
 62
     1
100
AcDbCircle
 10
-207.51283
 20
219.22424
 30
0.0
 40
3.328788
100
AcDbArc
 50
325.746813
 51
34.253187
  0
LINE
  5
1CF
100
AcDbEntity
  8
LAY-1
  6
CONTINUOUS
 62
     1
100
AcDbLine
 10
-204.184042
 20
218.350628
 30
0.0
 11
-204.761392
 21
217.350628
 31
0.0
  0
LINE
  5
1D0
100
AcDbEntity
  8
LAY-1
  6
CONTINUOUS
 62
     1
100
AcDbLine
 10
-210.684042
 20
217.350628
 30
0.0
 11
-204.761392
 21
217.350628
 31
0.0
  0
LINE
  5
1D1
100
AcDbEntity
  8
LAY-1
  6
CONTINUOUS
 62
     1
100
AcDbLine
 10
-212.284042
 20
217.350628
 30
0.0
 11
-210.684042
 21
217.350628
 31
0.0
  0
LINE
  5
1D2
100
AcDbEntity
  8
LAY-1
  6
CONTINUOUS
 62
     1
100
AcDbLine
 10
-240.006691
 20
221.097851
 30
0.0
 11
-235.084042
 21
221.097851
 31
0.0
  0
LINE
  5
1D3
100
AcDbEntity
  8
LAY-1
  6
CONTINUOUS
 62
     1
100
AcDbLine
 10
-235.084042
 20
217.350628
 30
0.0
 11
-240.006691
 21
217.350628
 31
0.0
  0
ARC
  5
1D4
100
AcDbEntity
  8
LAY-1
  6
CONTINUOUS
 62
     1
100
AcDbCircle
 10
-237.255253
 20
219.22424
 30
0.0
 40
3.328788
100
AcDbArc
 50
145.746813
 51
214.253187
  0
LINE
  5
1D5
100
AcDbEntity
  8
LAY-1
  6
CONTINUOUS
 62
     1
100
AcDbLine
 10
-240.584042
 20
218.350628
 30
0.0
 11
-240.006691
 21
217.350628
 31
0.0
  0
LINE
  5
1D6
100
AcDbEntity
  8
LAY-1
  6
CONTINUOUS
 62
     1
100
AcDbLine
 10
-210.684042
 20
228.603405
 30
0.0
 11
-204.761392
 21
228.603405
 31
0.0
  0
LINE
  5
1D7
100
AcDbEntity
  8
LAY-1
  6
CONTINUOUS
 62
     1
100
AcDbLine
 10
-204.761392
 20
221.097851
 30
0.0
 11
-210.684042
 21
221.097851
 31
0.0
  0
ARC
  5
1D8
100
AcDbEntity
  8
LAY-1
  6
CONTINUOUS
 62
     1
100
AcDbCircle
 10
-207.481049
 20
230.467198
 30
0.0
 40
3.297008
100
AcDbArc
 50
325.576995
 51
34.703566
  0
LINE
  5
1D9
100
AcDbEntity
  8
LAY-1
  6
CONTINUOUS
 62
     1
100
AcDbLine
 10
-204.184042
 20
231.350628
 30
0.0
 11
-204.761392
 21
232.350628
 31
0.0
  0
ARC
  5
1DA
100
AcDbEntity
  8
LAY-1
  6
CONTINUOUS
 62
     1
100
AcDbCircle
 10
-216.669241
 20
224.850628
 30
0.0
 40
12.4852
100
AcDbArc
 50
342.507675
 51
17.492325
  0
LINE
  5
1DB
100
AcDbEntity
  8
LAY-1
  6
CONTINUOUS
 62
     1
100
AcDbLine
 10
-240.006691
 20
232.350628
 30
0.0
 11
-235.084042
 21
232.350628
 31
0.0
  0
LINE
  5
1DC
100
AcDbEntity
  8
LAY-1
  6
CONTINUOUS
 62
     1
100
AcDbLine
 10
-240.584042
 20
218.369887
 30
0.0
 11
-240.584042
 21
231.350628
 31
0.0
  0
ARC
  5
1DD
100
AcDbEntity
  8
LAY-1
  6
CONTINUOUS
 62
     1
100
AcDbCircle
 10
-204.684042
 20
224.850628
 30
0.0
 40
6.5
100
AcDbArc
 50
274.411726
 51
85.588274
  0
LINE
  5
1DE
100
AcDbEntity
  8
LAY-1
  6
CONTINUOUS
 62
     1
100
AcDbLine
 10
-204.761392
 20
232.350628
 30
0.0
 11
-210.684042
 21
232.350628
 31
0.0
  0
LINE
  5
1DF
100
AcDbEntity
  8
LAY-1
  6
CONTINUOUS
 62
     1
100
AcDbLine
 10
-204.184042
 20
218.369887
 30
0.0
 11
-204.184042
 21
231.350628
 31
0.0
  0
LINE
  5
1E0
100
AcDbEntity
  8
LAY-1
  6
CONTINUOUS
 62
     1
100
AcDbLine
 10
-240.584042
 20
231.350628
 30
0.0
 11
-240.006691
 21
232.350628
 31
0.0
  0
LINE
  5
1E1
100
AcDbEntity
  8
LAY-1
  6
CONTINUOUS
 62
     1
100
AcDbLine
 10
-210.684042
 20
232.350628
 30
0.0
 11
-212.284042
 21
232.350628
 31
0.0
  0
LINE
  5
1E2
100
AcDbEntity
  8
LAY-1
  6
CONTINUOUS
 62
     1
100
AcDbLine
 10
-235.084042
 20
228.603405
 30
0.0
 11
-240.006691
 21
228.603405
 31
0.0
  0
ARC
  5
1E3
100
AcDbEntity
  8
LAY-1
  6
CONTINUOUS
 62
     1
100
AcDbCircle
 10
-237.287034
 20
230.467198
 30
0.0
 40
3.297008
100
AcDbArc
 50
145.296434
 51
214.423005
  0
ARC
  5
1E4
100
AcDbEntity
  8
LAY-1
  6
CONTINUOUS
 62
     1
100
AcDbCircle
 10
-228.098842
 20
224.850628
 30
0.0
 40
12.4852
100
AcDbArc
 50
162.507675
 51
197.492325
  0
LINE
  5
1E5
100
AcDbEntity
  8
LAY-1
  6
CONTINUOUS
 62
     1
100
AcDbLine
 10
648.515958
 20
12.249372
 30
0.0
 11
648.515958
 21
27.249372
 31
0.0
  0
ARC
  5
1E6
100
AcDbEntity
  8
LAY-1
  6
CONTINUOUS
 62
     1
100
AcDbCircle
 10
645.344747
 20
14.122984
 30
0.0
 40
3.328788
100
AcDbArc
 50
145.746813
 51
214.253187
  0
LINE
  5
1E7
100
AcDbEntity
  8
LAY-1
  6
CONTINUOUS
 62
     1
100
AcDbLine
 10
642.015958
 20
13.249372
 30
0.0
 11
642.593309
 21
12.249372
 31
0.0
  0
LINE
  5
1E8
100
AcDbEntity
  8
LAY-1
  6
CONTINUOUS
 62
     1
100
AcDbLine
 10
648.515958
 20
12.249372
 30
0.0
 11
642.593309
 21
12.249372
 31
0.0
  0
LINE
  5
1E9
100
AcDbEntity
  8
LAY-1
  6
CONTINUOUS
 62
     1
100
AcDbLine
 10
650.115958
 20
12.249372
 30
0.0
 11
648.515958
 21
12.249372
 31
0.0
  0
LINE
  5
1EA
100
AcDbEntity
  8
LAY-1
  6
CONTINUOUS
 62
     1
100
AcDbLine
 10
677.838608
 20
15.996595
 30
0.0
 11
672.915958
 21
15.996595
 31
0.0
  0
LINE
  5
1EB
100
AcDbEntity
  8
LAY-1
  6
CONTINUOUS
 62
     1
100
AcDbLine
 10
672.915958
 20
12.249372
 30
0.0
 11
677.838608
 21
12.249372
 31
0.0
  0
ARC
  5
1EC
100
AcDbEntity
  8
LAY-1
  6
CONTINUOUS
 62
     1
100
AcDbCircle
 10
675.08717
 20
14.122984
 30
0.0
 40
3.328788
100
AcDbArc
 50
325.746813
 51
34.253187
  0
LINE
  5
1ED
100
AcDbEntity
  8
LAY-1
  6
CONTINUOUS
 62
     1
100
AcDbLine
 10
678.415958
 20
13.249372
 30
0.0
 11
677.838608
 21
12.249372
 31
0.0
  0
LINE
  5
1EE
100
AcDbEntity
  8
LAY-1
  6
CONTINUOUS
 62
     1
100
AcDbLine
 10
648.515958
 20
23.502149
 30
0.0
 11
642.593309
 21
23.502149
 31
0.0
  0
LINE
  5
1EF
100
AcDbEntity
  8
LAY-1
  6
CONTINUOUS
 62
     1
100
AcDbLine
 10
642.593309
 20
15.996595
 30
0.0
 11
648.515958
 21
15.996595
 31
0.0
  0
ARC
  5
1F0
100
AcDbEntity
  8
LAY-1
  6
CONTINUOUS
 62
     1
100
AcDbCircle
 10
645.312966
 20
25.365941
 30
0.0
 40
3.297008
100
AcDbArc
 50
145.296434
 51
214.423005
  0
LINE
  5
1F1
100
AcDbEntity
  8
LAY-1
  6
CONTINUOUS
 62
     1
100
AcDbLine
 10
642.015958
 20
26.249372
 30
0.0
 11
642.593309
 21
27.249372
 31
0.0
  0
ARC
  5
1F2
100
AcDbEntity
  8
LAY-1
  6
CONTINUOUS
 62
     1
100
AcDbCircle
 10
654.501158
 20
19.749372
 30
0.0
 40
12.4852
100
AcDbArc
 50
162.507675
 51
197.492325
  0
LINE
  5
1F3
100
AcDbEntity
  8
LAY-1
  6
CONTINUOUS
 62
     1
100
AcDbLine
 10
677.838608
 20
27.249372
 30
0.0
 11
672.915958
 21
27.249372
 31
0.0
  0
LINE
  5
1F4
100
AcDbEntity
  8
LAY-1
  6
CONTINUOUS
 62
     1
100
AcDbLine
 10
678.415958
 20
13.268631
 30
0.0
 11
678.415958
 21
26.249372
 31
0.0
  0
ARC
  5
1F5
100
AcDbEntity
  8
LAY-1
  6
CONTINUOUS
 62
     1
100
AcDbCircle
 10
642.515958
 20
19.749372
 30
0.0
 40
6.5
100
AcDbArc
 50
94.411726
 51
265.588274
  0
LINE
  5
1F6
100
AcDbEntity
  8
LAY-1
  6
CONTINUOUS
 62
     1
100
AcDbLine
 10
642.593309
 20
27.249372
 30
0.0
 11
648.515958
 21
27.249372
 31
0.0
  0
LINE
  5
1F7
100
AcDbEntity
  8
LAY-1
  6
CONTINUOUS
 62
     1
100
AcDbLine
 10
642.015958
 20
13.268631
 30
0.0
 11
642.015958
 21
26.249372
 31
0.0
  0
LINE
  5
1F8
100
AcDbEntity
  8
LAY-1
  6
CONTINUOUS
 62
     1
100
AcDbLine
 10
678.415958
 20
26.249372
 30
0.0
 11
677.838608
 21
27.249372
 31
0.0
  0
LINE
  5
1F9
100
AcDbEntity
  8
LAY-1
  6
CONTINUOUS
 62
     1
100
AcDbLine
 10
648.515958
 20
27.249372
 30
0.0
 11
650.115958
 21
27.249372
 31
0.0
  0
LINE
  5
1FA
100
AcDbEntity
  8
LAY-1
  6
CONTINUOUS
 62
     1
100
AcDbLine
 10
672.915958
 20
23.502149
 30
0.0
 11
677.838608
 21
23.502149
 31
0.0
  0
ARC
  5
1FB
100
AcDbEntity
  8
LAY-1
  6
CONTINUOUS
 62
     1
100
AcDbCircle
 10
675.118951
 20
25.365941
 30
0.0
 40
3.297008
100
AcDbArc
 50
325.576995
 51
34.703566
  0
ARC
  5
1FC
100
AcDbEntity
  8
LAY-1
  6
CONTINUOUS
 62
     1
100
AcDbCircle
 10
665.930759
 20
19.749372
 30
0.0
 40
12.4852
100
AcDbArc
 50
342.507675
 51
17.492325
  0
LINE
  5
1FD
100
AcDbEntity
  8
LAY-1
  6
CONTINUOUS
 62
     1
100
AcDbLine
 10
648.515958
 20
72.322139
 30
0.0
 11
648.515958
 21
87.322139
 31
0.0
  0
ARC
  5
1FE
100
AcDbEntity
  8
LAY-1
  6
CONTINUOUS
 62
     1
100
AcDbCircle
 10
645.344747
 20
74.195751
 30
0.0
 40
3.328788
100
AcDbArc
 50
145.746813
 51
214.253187
  0
LINE
  5
1FF
100
AcDbEntity
  8
LAY-1
  6
CONTINUOUS
 62
     1
100
AcDbLine
 10
642.015958
 20
73.322139
 30
0.0
 11
642.593309
 21
72.322139
 31
0.0
  0
LINE
  5
200
100
AcDbEntity
  8
LAY-1
  6
CONTINUOUS
 62
     1
100
AcDbLine
 10
648.515958
 20
72.322139
 30
0.0
 11
642.593309
 21
72.322139
 31
0.0
  0
LINE
  5
201
100
AcDbEntity
  8
LAY-1
  6
CONTINUOUS
 62
     1
100
AcDbLine
 10
650.115958
 20
72.322139
 30
0.0
 11
648.515958
 21
72.322139
 31
0.0
  0
LINE
  5
202
100
AcDbEntity
  8
LAY-1
  6
CONTINUOUS
 62
     1
100
AcDbLine
 10
677.838608
 20
76.069362
 30
0.0
 11
672.915958
 21
76.069362
 31
0.0
  0
LINE
  5
203
100
AcDbEntity
  8
LAY-1
  6
CONTINUOUS
 62
     1
100
AcDbLine
 10
672.915958
 20
72.322139
 30
0.0
 11
677.838608
 21
72.322139
 31
0.0
  0
ARC
  5
204
100
AcDbEntity
  8
LAY-1
  6
CONTINUOUS
 62
     1
100
AcDbCircle
 10
675.08717
 20
74.195751
 30
0.0
 40
3.328788
100
AcDbArc
 50
325.746813
 51
34.253187
  0
LINE
  5
205
100
AcDbEntity
  8
LAY-1
  6
CONTINUOUS
 62
     1
100
AcDbLine
 10
678.415958
 20
73.322139
 30
0.0
 11
677.838608
 21
72.322139
 31
0.0
  0
LINE
  5
206
100
AcDbEntity
  8
LAY-1
  6
CONTINUOUS
 62
     1
100
AcDbLine
 10
648.515958
 20
83.574916
 30
0.0
 11
642.593309
 21
83.574916
 31
0.0
  0
LINE
  5
207
100
AcDbEntity
  8
LAY-1
  6
CONTINUOUS
 62
     1
100
AcDbLine
 10
642.593309
 20
76.069362
 30
0.0
 11
648.515958
 21
76.069362
 31
0.0
  0
ARC
  5
208
100
AcDbEntity
  8
LAY-1
  6
CONTINUOUS
 62
     1
100
AcDbCircle
 10
645.312966
 20
85.438708
 30
0.0
 40
3.297008
100
AcDbArc
 50
145.296434
 51
214.423005
  0
LINE
  5
209
100
AcDbEntity
  8
LAY-1
  6
CONTINUOUS
 62
     1
100
AcDbLine
 10
642.015958
 20
86.322139
 30
0.0
 11
642.593309
 21
87.322139
 31
0.0
  0
ARC
  5
20A
100
AcDbEntity
  8
LAY-1
  6
CONTINUOUS
 62
     1
100
AcDbCircle
 10
654.501158
 20
79.822139
 30
0.0
 40
12.4852
100
AcDbArc
 50
162.507675
 51
197.492325
  0
LINE
  5
20B
100
AcDbEntity
  8
LAY-1
  6
CONTINUOUS
 62
     1
100
AcDbLine
 10
677.838608
 20
87.322139
 30
0.0
 11
672.915958
 21
87.322139
 31
0.0
  0
LINE
  5
20C
100
AcDbEntity
  8
LAY-1
  6
CONTINUOUS
 62
     1
100
AcDbLine
 10
678.415958
 20
73.341398
 30
0.0
 11
678.415958
 21
86.322139
 31
0.0
  0
ARC
  5
20D
100
AcDbEntity
  8
LAY-1
  6
CONTINUOUS
 62
     1
100
AcDbCircle
 10
642.515958
 20
79.822139
 30
0.0
 40
6.5
100
AcDbArc
 50
94.411726
 51
265.588274
  0
LINE
  5
20E
100
AcDbEntity
  8
LAY-1
  6
CONTINUOUS
 62
     1
100
AcDbLine
 10
642.593309
 20
87.322139
 30
0.0
 11
648.515958
 21
87.322139
 31
0.0
  0
LINE
  5
20F
100
AcDbEntity
  8
LAY-1
  6
CONTINUOUS
 62
     1
100
AcDbLine
 10
642.015958
 20
73.341398
 30
0.0
 11
642.015958
 21
86.322139
 31
0.0
  0
LINE
  5
210
100
AcDbEntity
  8
LAY-1
  6
CONTINUOUS
 62
     1
100
AcDbLine
 10
678.415958
 20
86.322139
 30
0.0
 11
677.838608
 21
87.322139
 31
0.0
  0
LINE
  5
211
100
AcDbEntity
  8
LAY-1
  6
CONTINUOUS
 62
     1
100
AcDbLine
 10
648.515958
 20
87.322139
 30
0.0
 11
650.115958
 21
87.322139
 31
0.0
  0
LINE
  5
212
100
AcDbEntity
  8
LAY-1
  6
CONTINUOUS
 62
     1
100
AcDbLine
 10
672.915958
 20
83.574916
 30
0.0
 11
677.838608
 21
83.574916
 31
0.0
  0
ARC
  5
213
100
AcDbEntity
  8
LAY-1
  6
CONTINUOUS
 62
     1
100
AcDbCircle
 10
675.118951
 20
85.438708
 30
0.0
 40
3.297008
100
AcDbArc
 50
325.576995
 51
34.703566
  0
ARC
  5
214
100
AcDbEntity
  8
LAY-1
  6
CONTINUOUS
 62
     1
100
AcDbCircle
 10
665.930759
 20
79.822139
 30
0.0
 40
12.4852
100
AcDbArc
 50
342.507675
 51
17.492325
  0
LINE
  5
215
100
AcDbEntity
  8
LAY-1
  6
CONTINUOUS
 62
     1
100
AcDbLine
 10
648.515958
 20
157.277861
 30
0.0
 11
648.515958
 21
172.277861
 31
0.0
  0
ARC
  5
216
100
AcDbEntity
  8
LAY-1
  6
CONTINUOUS
 62
     1
100
AcDbCircle
 10
645.344747
 20
159.151473
 30
0.0
 40
3.328788
100
AcDbArc
 50
145.746813
 51
214.253187
  0
LINE
  5
217
100
AcDbEntity
  8
LAY-1
  6
CONTINUOUS
 62
     1
100
AcDbLine
 10
642.015958
 20
158.277861
 30
0.0
 11
642.593309
 21
157.277861
 31
0.0
  0
LINE
  5
218
100
AcDbEntity
  8
LAY-1
  6
CONTINUOUS
 62
     1
100
AcDbLine
 10
648.515958
 20
157.277861
 30
0.0
 11
642.593309
 21
157.277861
 31
0.0
  0
LINE
  5
219
100
AcDbEntity
  8
LAY-1
  6
CONTINUOUS
 62
     1
100
AcDbLine
 10
650.115958
 20
157.277861
 30
0.0
 11
648.515958
 21
157.277861
 31
0.0
  0
LINE
  5
21A
100
AcDbEntity
  8
LAY-1
  6
CONTINUOUS
 62
     1
100
AcDbLine
 10
677.838608
 20
161.025084
 30
0.0
 11
672.915958
 21
161.025084
 31
0.0
  0
LINE
  5
21B
100
AcDbEntity
  8
LAY-1
  6
CONTINUOUS
 62
     1
100
AcDbLine
 10
672.915958
 20
157.277861
 30
0.0
 11
677.838608
 21
157.277861
 31
0.0
  0
ARC
  5
21C
100
AcDbEntity
  8
LAY-1
  6
CONTINUOUS
 62
     1
100
AcDbCircle
 10
675.08717
 20
159.151473
 30
0.0
 40
3.328788
100
AcDbArc
 50
325.746813
 51
34.253187
  0
LINE
  5
21D
100
AcDbEntity
  8
LAY-1
  6
CONTINUOUS
 62
     1
100
AcDbLine
 10
678.415958
 20
158.277861
 30
0.0
 11
677.838608
 21
157.277861
 31
0.0
  0
LINE
  5
21E
100
AcDbEntity
  8
LAY-1
  6
CONTINUOUS
 62
     1
100
AcDbLine
 10
648.515958
 20
168.530638
 30
0.0
 11
642.593309
 21
168.530638
 31
0.0
  0
LINE
  5
21F
100
AcDbEntity
  8
LAY-1
  6
CONTINUOUS
 62
     1
100
AcDbLine
 10
642.593309
 20
161.025084
 30
0.0
 11
648.515958
 21
161.025084
 31
0.0
  0
ARC
  5
220
100
AcDbEntity
  8
LAY-1
  6
CONTINUOUS
 62
     1
100
AcDbCircle
 10
645.312966
 20
170.39443
 30
0.0
 40
3.297008
100
AcDbArc
 50
145.296434
 51
214.423005
  0
LINE
  5
221
100
AcDbEntity
  8
LAY-1
  6
CONTINUOUS
 62
     1
100
AcDbLine
 10
642.015958
 20
171.277861
 30
0.0
 11
642.593309
 21
172.277861
 31
0.0
  0
ARC
  5
222
100
AcDbEntity
  8
LAY-1
  6
CONTINUOUS
 62
     1
100
AcDbCircle
 10
654.501158
 20
164.777861
 30
0.0
 40
12.4852
100
AcDbArc
 50
162.507675
 51
197.492325
  0
LINE
  5
223
100
AcDbEntity
  8
LAY-1
  6
CONTINUOUS
 62
     1
100
AcDbLine
 10
677.838608
 20
172.277861
 30
0.0
 11
672.915958
 21
172.277861
 31
0.0
  0
LINE
  5
224
100
AcDbEntity
  8
LAY-1
  6
CONTINUOUS
 62
     1
100
AcDbLine
 10
678.415958
 20
158.29712
 30
0.0
 11
678.415958
 21
171.277861
 31
0.0
  0
ARC
  5
225
100
AcDbEntity
  8
LAY-1
  6
CONTINUOUS
 62
     1
100
AcDbCircle
 10
642.515958
 20
164.777861
 30
0.0
 40
6.5
100
AcDbArc
 50
94.411726
 51
265.588274
  0
LINE
  5
226
100
AcDbEntity
  8
LAY-1
  6
CONTINUOUS
 62
     1
100
AcDbLine
 10
642.593309
 20
172.277861
 30
0.0
 11
648.515958
 21
172.277861
 31
0.0
  0
LINE
  5
227
100
AcDbEntity
  8
LAY-1
  6
CONTINUOUS
 62
     1
100
AcDbLine
 10
642.015958
 20
158.29712
 30
0.0
 11
642.015958
 21
171.277861
 31
0.0
  0
LINE
  5
228
100
AcDbEntity
  8
LAY-1
  6
CONTINUOUS
 62
     1
100
AcDbLine
 10
678.415958
 20
171.277861
 30
0.0
 11
677.838608
 21
172.277861
 31
0.0
  0
LINE
  5
229
100
AcDbEntity
  8
LAY-1
  6
CONTINUOUS
 62
     1
100
AcDbLine
 10
648.515958
 20
172.277861
 30
0.0
 11
650.115958
 21
172.277861
 31
0.0
  0
LINE
  5
22A
100
AcDbEntity
  8
LAY-1
  6
CONTINUOUS
 62
     1
100
AcDbLine
 10
672.915958
 20
168.530638
 30
0.0
 11
677.838608
 21
168.530638
 31
0.0
  0
ARC
  5
22B
100
AcDbEntity
  8
LAY-1
  6
CONTINUOUS
 62
     1
100
AcDbCircle
 10
675.118951
 20
170.39443
 30
0.0
 40
3.297008
100
AcDbArc
 50
325.576995
 51
34.703566
  0
ARC
  5
22C
100
AcDbEntity
  8
LAY-1
  6
CONTINUOUS
 62
     1
100
AcDbCircle
 10
665.930759
 20
164.777861
 30
0.0
 40
12.4852
100
AcDbArc
 50
342.507675
 51
17.492325
  0
LINE
  5
22D
100
AcDbEntity
  8
LAY-1
  6
CONTINUOUS
 62
     1
100
AcDbLine
 10
648.515958
 20
217.350628
 30
0.0
 11
648.515958
 21
232.350628
 31
0.0
  0
ARC
  5
22E
100
AcDbEntity
  8
LAY-1
  6
CONTINUOUS
 62
     1
100
AcDbCircle
 10
645.344747
 20
219.22424
 30
0.0
 40
3.328788
100
AcDbArc
 50
145.746813
 51
214.253187
  0
LINE
  5
22F
100
AcDbEntity
  8
LAY-1
  6
CONTINUOUS
 62
     1
100
AcDbLine
 10
642.015958
 20
218.350628
 30
0.0
 11
642.593309
 21
217.350628
 31
0.0
  0
LINE
  5
230
100
AcDbEntity
  8
LAY-1
  6
CONTINUOUS
 62
     1
100
AcDbLine
 10
648.515958
 20
217.350628
 30
0.0
 11
642.593309
 21
217.350628
 31
0.0
  0
LINE
  5
231
100
AcDbEntity
  8
LAY-1
  6
CONTINUOUS
 62
     1
100
AcDbLine
 10
650.115958
 20
217.350628
 30
0.0
 11
648.515958
 21
217.350628
 31
0.0
  0
LINE
  5
232
100
AcDbEntity
  8
LAY-1
  6
CONTINUOUS
 62
     1
100
AcDbLine
 10
677.838608
 20
221.097851
 30
0.0
 11
672.915958
 21
221.097851
 31
0.0
  0
LINE
  5
233
100
AcDbEntity
  8
LAY-1
  6
CONTINUOUS
 62
     1
100
AcDbLine
 10
672.915958
 20
217.350628
 30
0.0
 11
677.838608
 21
217.350628
 31
0.0
  0
ARC
  5
234
100
AcDbEntity
  8
LAY-1
  6
CONTINUOUS
 62
     1
100
AcDbCircle
 10
675.08717
 20
219.22424
 30
0.0
 40
3.328788
100
AcDbArc
 50
325.746813
 51
34.253187
  0
LINE
  5
235
100
AcDbEntity
  8
LAY-1
  6
CONTINUOUS
 62
     1
100
AcDbLine
 10
678.415958
 20
218.350628
 30
0.0
 11
677.838608
 21
217.350628
 31
0.0
  0
LINE
  5
236
100
AcDbEntity
  8
LAY-1
  6
CONTINUOUS
 62
     1
100
AcDbLine
 10
648.515958
 20
228.603405
 30
0.0
 11
642.593309
 21
228.603405
 31
0.0
  0
LINE
  5
237
100
AcDbEntity
  8
LAY-1
  6
CONTINUOUS
 62
     1
100
AcDbLine
 10
642.593309
 20
221.097851
 30
0.0
 11
648.515958
 21
221.097851
 31
0.0
  0
ARC
  5
238
100
AcDbEntity
  8
LAY-1
  6
CONTINUOUS
 62
     1
100
AcDbCircle
 10
645.312966
 20
230.467198
 30
0.0
 40
3.297008
100
AcDbArc
 50
145.296434
 51
214.423005
  0
LINE
  5
239
100
AcDbEntity
  8
LAY-1
  6
CONTINUOUS
 62
     1
100
AcDbLine
 10
642.015958
 20
231.350628
 30
0.0
 11
642.593309
 21
232.350628
 31
0.0
  0
ARC
  5
23A
100
AcDbEntity
  8
LAY-1
  6
CONTINUOUS
 62
     1
100
AcDbCircle
 10
654.501158
 20
224.850628
 30
0.0
 40
12.4852
100
AcDbArc
 50
162.507675
 51
197.492325
  0
LINE
  5
23B
100
AcDbEntity
  8
LAY-1
  6
CONTINUOUS
 62
     1
100
AcDbLine
 10
677.838608
 20
232.350628
 30
0.0
 11
672.915958
 21
232.350628
 31
0.0
  0
LINE
  5
23C
100
AcDbEntity
  8
LAY-1
  6
CONTINUOUS
 62
     1
100
AcDbLine
 10
678.415958
 20
218.369887
 30
0.0
 11
678.415958
 21
231.350628
 31
0.0
  0
ARC
  5
23D
100
AcDbEntity
  8
LAY-1
  6
CONTINUOUS
 62
     1
100
AcDbCircle
 10
642.515958
 20
224.850628
 30
0.0
 40
6.5
100
AcDbArc
 50
94.411726
 51
265.588274
  0
LINE
  5
23E
100
AcDbEntity
  8
LAY-1
  6
CONTINUOUS
 62
     1
100
AcDbLine
 10
642.593309
 20
232.350628
 30
0.0
 11
648.515958
 21
232.350628
 31
0.0
  0
LINE
  5
23F
100
AcDbEntity
  8
LAY-1
  6
CONTINUOUS
 62
     1
100
AcDbLine
 10
642.015958
 20
218.369887
 30
0.0
 11
642.015958
 21
231.350628
 31
0.0
  0
LINE
  5
240
100
AcDbEntity
  8
LAY-1
  6
CONTINUOUS
 62
     1
100
AcDbLine
 10
678.415958
 20
231.350628
 30
0.0
 11
677.838608
 21
232.350628
 31
0.0
  0
LINE
  5
241
100
AcDbEntity
  8
LAY-1
  6
CONTINUOUS
 62
     1
100
AcDbLine
 10
648.515958
 20
232.350628
 30
0.0
 11
650.115958
 21
232.350628
 31
0.0
  0
LINE
  5
242
100
AcDbEntity
  8
LAY-1
  6
CONTINUOUS
 62
     1
100
AcDbLine
 10
672.915958
 20
228.603405
 30
0.0
 11
677.838608
 21
228.603405
 31
0.0
  0
ARC
  5
243
100
AcDbEntity
  8
LAY-1
  6
CONTINUOUS
 62
     1
100
AcDbCircle
 10
675.118951
 20
230.467198
 30
0.0
 40
3.297008
100
AcDbArc
 50
325.576995
 51
34.703566
  0
ARC
  5
244
100
AcDbEntity
  8
LAY-1
  6
CONTINUOUS
 62
     1
100
AcDbCircle
 10
665.930759
 20
224.850628
 30
0.0
 40
12.4852
100
AcDbArc
 50
342.507675
 51
17.492325
  0
LINE
  5
245
100
AcDbEntity
  8
LAY-1
  6
CONTINUOUS
 62
     1
100
AcDbLine
 10
328.966586
 20
-280.5
 30
0.0
 11
313.966586
 21
-280.5
 31
0.0
  0
ARC
  5
246
100
AcDbEntity
  8
LAY-1
  6
CONTINUOUS
 62
     1
100
AcDbCircle
 10
327.092975
 20
-277.328788
 30
0.0
 40
3.328788
100
AcDbArc
 50
55.746813
 51
124.253187
  0
LINE
  5
247
100
AcDbEntity
  8
LAY-1
  6
CONTINUOUS
 62
     1
100
AcDbLine
 10
327.966586
 20
-274.0
 30
0.0
 11
328.966586
 21
-274.57735
 31
0.0
  0
LINE
  5
248
100
AcDbEntity
  8
LAY-1
  6
CONTINUOUS
 62
     1
100
AcDbLine
 10
328.966586
 20
-280.5
 30
0.0
 11
328.966586
 21
-274.57735
 31
0.0
  0
LINE
  5
249
100
AcDbEntity
  8
LAY-1
  6
CONTINUOUS
 62
     1
100
AcDbLine
 10
328.966586
 20
-282.1
 30
0.0
 11
328.966586
 21
-280.5
 31
0.0
  0
LINE
  5
24A
100
AcDbEntity
  8
LAY-1
  6
CONTINUOUS
 62
     1
100
AcDbLine
 10
325.219363
 20
-309.82265
 30
0.0
 11
325.219363
 21
-304.9
 31
0.0
  0
LINE
  5
24B
100
AcDbEntity
  8
LAY-1
  6
CONTINUOUS
 62
     1
100
AcDbLine
 10
328.966586
 20
-304.9
 30
0.0
 11
328.966586
 21
-309.82265
 31
0.0
  0
ARC
  5
24C
100
AcDbEntity
  8
LAY-1
  6
CONTINUOUS
 62
     1
100
AcDbCircle
 10
327.092975
 20
-307.071212
 30
0.0
 40
3.328788
100
AcDbArc
 50
235.746813
 51
304.253187
  0
LINE
  5
24D
100
AcDbEntity
  8
LAY-1
  6
CONTINUOUS
 62
     1
100
AcDbLine
 10
327.966586
 20
-310.4
 30
0.0
 11
328.966586
 21
-309.82265
 31
0.0
  0
LINE
  5
24E
100
AcDbEntity
  8
LAY-1
  6
CONTINUOUS
 62
     1
100
AcDbLine
 10
317.71381
 20
-280.5
 30
0.0
 11
317.71381
 21
-274.57735
 31
0.0
  0
LINE
  5
24F
100
AcDbEntity
  8
LAY-1
  6
CONTINUOUS
 62
     1
100
AcDbLine
 10
325.219363
 20
-274.57735
 30
0.0
 11
325.219363
 21
-280.5
 31
0.0
  0
ARC
  5
250
100
AcDbEntity
  8
LAY-1
  6
CONTINUOUS
 62
     1
100
AcDbCircle
 10
315.850017
 20
-277.297008
 30
0.0
 40
3.297008
100
AcDbArc
 50
55.576995
 51
124.703566
  0
LINE
  5
251
100
AcDbEntity
  8
LAY-1
  6
CONTINUOUS
 62
     1
100
AcDbLine
 10
314.966586
 20
-274.0
 30
0.0
 11
313.966586
 21
-274.57735
 31
0.0
  0
ARC
  5
252
100
AcDbEntity
  8
LAY-1
  6
CONTINUOUS
 62
     1
100
AcDbCircle
 10
321.466586
 20
-286.4852
 30
0.0
 40
12.4852
100
AcDbArc
 50
72.507675
 51
107.492325
  0
LINE
  5
253
100
AcDbEntity
  8
LAY-1
  6
CONTINUOUS
 62
     1
100
AcDbLine
 10
313.966586
 20
-309.82265
 30
0.0
 11
313.966586
 21
-304.9
 31
0.0
  0
LINE
  5
254
100
AcDbEntity
  8
LAY-1
  6
CONTINUOUS
 62
     1
100
AcDbLine
 10
327.947327
 20
-310.4
 30
0.0
 11
314.966586
 21
-310.4
 31
0.0
  0
ARC
  5
255
100
AcDbEntity
  8
LAY-1
  6
CONTINUOUS
 62
     1
100
AcDbCircle
 10
321.466586
 20
-274.5
 30
0.0
 40
6.5
100
AcDbArc
 50
4.411726
 51
175.588274
  0
LINE
  5
256
100
AcDbEntity
  8
LAY-1
  6
CONTINUOUS
 62
     1
100
AcDbLine
 10
313.966586
 20
-274.57735
 30
0.0
 11
313.966586
 21
-280.5
 31
0.0
  0
LINE
  5
257
100
AcDbEntity
  8
LAY-1
  6
CONTINUOUS
 62
     1
100
AcDbLine
 10
327.947327
 20
-274.0
 30
0.0
 11
314.966586
 21
-274.0
 31
0.0
  0
LINE
  5
258
100
AcDbEntity
  8
LAY-1
  6
CONTINUOUS
 62
     1
100
AcDbLine
 10
314.966586
 20
-310.4
 30
0.0
 11
313.966586
 21
-309.82265
 31
0.0
  0
LINE
  5
259
100
AcDbEntity
  8
LAY-1
  6
CONTINUOUS
 62
     1
100
AcDbLine
 10
313.966586
 20
-280.5
 30
0.0
 11
313.966586
 21
-282.1
 31
0.0
  0
LINE
  5
25A
100
AcDbEntity
  8
LAY-1
  6
CONTINUOUS
 62
     1
100
AcDbLine
 10
317.71381
 20
-304.9
 30
0.0
 11
317.71381
 21
-309.82265
 31
0.0
  0
ARC
  5
25B
100
AcDbEntity
  8
LAY-1
  6
CONTINUOUS
 62
     1
100
AcDbCircle
 10
315.850017
 20
-307.102992
 30
0.0
 40
3.297008
100
AcDbArc
 50
235.296434
 51
304.423005
  0
ARC
  5
25C
100
AcDbEntity
  8
LAY-1
  6
CONTINUOUS
 62
     1
100
AcDbCircle
 10
321.466586
 20
-297.9148
 30
0.0
 40
12.4852
100
AcDbArc
 50
252.507675
 51
287.492325
  0
LINE
  5
25D
100
AcDbEntity
  8
LAY-1
  6
CONTINUOUS
 62
     1
100
AcDbLine
 10
268.893819
 20
-280.5
 30
0.0
 11
253.893819
 21
-280.5
 31
0.0
  0
ARC
  5
25E
100
AcDbEntity
  8
LAY-1
  6
CONTINUOUS
 62
     1
100
AcDbCircle
 10
267.020208
 20
-277.328788
 30
0.0
 40
3.328788
100
AcDbArc
 50
55.746813
 51
124.253187
  0
LINE
  5
25F
100
AcDbEntity
  8
LAY-1
  6
CONTINUOUS
 62
     1
100
AcDbLine
 10
267.893819
 20
-274.0
 30
0.0
 11
268.893819
 21
-274.57735
 31
0.0
  0
LINE
  5
260
100
AcDbEntity
  8
LAY-1
  6
CONTINUOUS
 62
     1
100
AcDbLine
 10
268.893819
 20
-280.5
 30
0.0
 11
268.893819
 21
-274.57735
 31
0.0
  0
LINE
  5
261
100
AcDbEntity
  8
LAY-1
  6
CONTINUOUS
 62
     1
100
AcDbLine
 10
268.893819
 20
-282.1
 30
0.0
 11
268.893819
 21
-280.5
 31
0.0
  0
LINE
  5
262
100
AcDbEntity
  8
LAY-1
  6
CONTINUOUS
 62
     1
100
AcDbLine
 10
257.641042
 20
-280.5
 30
0.0
 11
257.641042
 21
-274.57735
 31
0.0
  0
LINE
  5
263
100
AcDbEntity
  8
LAY-1
  6
CONTINUOUS
 62
     1
100
AcDbLine
 10
265.146596
 20
-274.57735
 30
0.0
 11
265.146596
 21
-280.5
 31
0.0
  0
ARC
  5
264
100
AcDbEntity
  8
LAY-1
  6
CONTINUOUS
 62
     1
100
AcDbCircle
 10
255.77725
 20
-277.297008
 30
0.0
 40
3.297008
100
AcDbArc
 50
55.576995
 51
124.703566
  0
LINE
  5
265
100
AcDbEntity
  8
LAY-1
  6
CONTINUOUS
 62
     1
100
AcDbLine
 10
254.893819
 20
-274.0
 30
0.0
 11
253.893819
 21
-274.57735
 31
0.0
  0
ARC
  5
266
100
AcDbEntity
  8
LAY-1
  6
CONTINUOUS
 62
     1
100
AcDbCircle
 10
261.393819
 20
-286.4852
 30
0.0
 40
12.4852
100
AcDbArc
 50
72.507675
 51
107.492325
  0
ARC
  5
267
100
AcDbEntity
  8
LAY-1
  6
CONTINUOUS
 62
     1
100
AcDbCircle
 10
261.393819
 20
-274.5
 30
0.0
 40
6.5
100
AcDbArc
 50
4.411726
 51
175.588274
  0
LINE
  5
268
100
AcDbEntity
  8
LAY-1
  6
CONTINUOUS
 62
     1
100
AcDbLine
 10
253.893819
 20
-274.57735
 30
0.0
 11
253.893819
 21
-280.5
 31
0.0
  0
LINE
  5
269
100
AcDbEntity
  8
LAY-1
  6
CONTINUOUS
 62
     1
100
AcDbLine
 10
267.87456
 20
-274.0
 30
0.0
 11
254.893819
 21
-274.0
 31
0.0
  0
LINE
  5
26A
100
AcDbEntity
  8
LAY-1
  6
CONTINUOUS
 62
     1
100
AcDbLine
 10
253.893819
 20
-280.5
 30
0.0
 11
253.893819
 21
-282.1
 31
0.0
  0
LINE
  5
26B
100
AcDbEntity
  8
LAY-1
  6
CONTINUOUS
 62
     1
100
AcDbLine
 10
183.938097
 20
-280.5
 30
0.0
 11
168.938097
 21
-280.5
 31
0.0
  0
ARC
  5
26C
100
AcDbEntity
  8
LAY-1
  6
CONTINUOUS
 62
     1
100
AcDbCircle
 10
182.064486
 20
-277.328788
 30
0.0
 40
3.328788
100
AcDbArc
 50
55.746813
 51
124.253187
  0
LINE
  5
26D
100
AcDbEntity
  8
LAY-1
  6
CONTINUOUS
 62
     1
100
AcDbLine
 10
182.938097
 20
-274.0
 30
0.0
 11
183.938097
 21
-274.57735
 31
0.0
  0
LINE
  5
26E
100
AcDbEntity
  8
LAY-1
  6
CONTINUOUS
 62
     1
100
AcDbLine
 10
183.938097
 20
-280.5
 30
0.0
 11
183.938097
 21
-274.57735
 31
0.0
  0
LINE
  5
26F
100
AcDbEntity
  8
LAY-1
  6
CONTINUOUS
 62
     1
100
AcDbLine
 10
183.938097
 20
-282.1
 30
0.0
 11
183.938097
 21
-280.5
 31
0.0
  0
LINE
  5
270
100
AcDbEntity
  8
LAY-1
  6
CONTINUOUS
 62
     1
100
AcDbLine
 10
172.685321
 20
-280.5
 30
0.0
 11
172.685321
 21
-274.57735
 31
0.0
  0
LINE
  5
271
100
AcDbEntity
  8
LAY-1
  6
CONTINUOUS
 62
     1
100
AcDbLine
 10
180.190874
 20
-274.57735
 30
0.0
 11
180.190874
 21
-280.5
 31
0.0
  0
ARC
  5
272
100
AcDbEntity
  8
LAY-1
  6
CONTINUOUS
 62
     1
100
AcDbCircle
 10
170.821528
 20
-277.297008
 30
0.0
 40
3.297008
100
AcDbArc
 50
55.576995
 51
124.703566
  0
LINE
  5
273
100
AcDbEntity
  8
LAY-1
  6
CONTINUOUS
 62
     1
100
AcDbLine
 10
169.938097
 20
-274.0
 30
0.0
 11
168.938097
 21
-274.57735
 31
0.0
  0
ARC
  5
274
100
AcDbEntity
  8
LAY-1
  6
CONTINUOUS
 62
     1
100
AcDbCircle
 10
176.438097
 20
-286.4852
 30
0.0
 40
12.4852
100
AcDbArc
 50
72.507675
 51
107.492325
  0
ARC
  5
275
100
AcDbEntity
  8
LAY-1
  6
CONTINUOUS
 62
     1
100
AcDbCircle
 10
176.438097
 20
-274.5
 30
0.0
 40
6.5
100
AcDbArc
 50
4.411726
 51
175.588274
  0
LINE
  5
276
100
AcDbEntity
  8
LAY-1
  6
CONTINUOUS
 62
     1
100
AcDbLine
 10
168.938097
 20
-274.57735
 30
0.0
 11
168.938097
 21
-280.5
 31
0.0
  0
LINE
  5
277
100
AcDbEntity
  8
LAY-1
  6
CONTINUOUS
 62
     1
100
AcDbLine
 10
182.918838
 20
-274.0
 30
0.0
 11
169.938097
 21
-274.0
 31
0.0
  0
LINE
  5
278
100
AcDbEntity
  8
LAY-1
  6
CONTINUOUS
 62
     1
100
AcDbLine
 10
168.938097
 20
-280.5
 30
0.0
 11
168.938097
 21
-282.1
 31
0.0
  0
LINE
  5
279
100
AcDbEntity
  8
LAY-1
  6
CONTINUOUS
 62
     1
100
AcDbLine
 10
123.86533
 20
-280.5
 30
0.0
 11
108.86533
 21
-280.5
 31
0.0
  0
ARC
  5
27A
100
AcDbEntity
  8
LAY-1
  6
CONTINUOUS
 62
     1
100
AcDbCircle
 10
121.991719
 20
-277.328788
 30
0.0
 40
3.328788
100
AcDbArc
 50
55.746813
 51
124.253187
  0
LINE
  5
27B
100
AcDbEntity
  8
LAY-1
  6
CONTINUOUS
 62
     1
100
AcDbLine
 10
122.86533
 20
-274.0
 30
0.0
 11
123.86533
 21
-274.57735
 31
0.0
  0
LINE
  5
27C
100
AcDbEntity
  8
LAY-1
  6
CONTINUOUS
 62
     1
100
AcDbLine
 10
123.86533
 20
-280.5
 30
0.0
 11
123.86533
 21
-274.57735
 31
0.0
  0
LINE
  5
27D
100
AcDbEntity
  8
LAY-1
  6
CONTINUOUS
 62
     1
100
AcDbLine
 10
123.86533
 20
-282.1
 30
0.0
 11
123.86533
 21
-280.5
 31
0.0
  0
LINE
  5
27E
100
AcDbEntity
  8
LAY-1
  6
CONTINUOUS
 62
     1
100
AcDbLine
 10
120.118107
 20
-309.82265
 30
0.0
 11
120.118107
 21
-304.9
 31
0.0
  0
LINE
  5
27F
100
AcDbEntity
  8
LAY-1
  6
CONTINUOUS
 62
     1
100
AcDbLine
 10
123.86533
 20
-304.9
 30
0.0
 11
123.86533
 21
-309.82265
 31
0.0
  0
ARC
  5
280
100
AcDbEntity
  8
LAY-1
  6
CONTINUOUS
 62
     1
100
AcDbCircle
 10
121.991719
 20
-307.071212
 30
0.0
 40
3.328788
100
AcDbArc
 50
235.746813
 51
304.253187
  0
LINE
  5
281
100
AcDbEntity
  8
LAY-1
  6
CONTINUOUS
 62
     1
100
AcDbLine
 10
122.86533
 20
-310.4
 30
0.0
 11
123.86533
 21
-309.82265
 31
0.0
  0
LINE
  5
282
100
AcDbEntity
  8
LAY-1
  6
CONTINUOUS
 62
     1
100
AcDbLine
 10
112.612553
 20
-280.5
 30
0.0
 11
112.612553
 21
-274.57735
 31
0.0
  0
LINE
  5
283
100
AcDbEntity
  8
LAY-1
  6
CONTINUOUS
 62
     1
100
AcDbLine
 10
120.118107
 20
-274.57735
 30
0.0
 11
120.118107
 21
-280.5
 31
0.0
  0
ARC
  5
284
100
AcDbEntity
  8
LAY-1
  6
CONTINUOUS
 62
     1
100
AcDbCircle
 10
110.748761
 20
-277.297008
 30
0.0
 40
3.297008
100
AcDbArc
 50
55.576995
 51
124.703566
  0
LINE
  5
285
100
AcDbEntity
  8
LAY-1
  6
CONTINUOUS
 62
     1
100
AcDbLine
 10
109.86533
 20
-274.0
 30
0.0
 11
108.86533
 21
-274.57735
 31
0.0
  0
ARC
  5
286
100
AcDbEntity
  8
LAY-1
  6
CONTINUOUS
 62
     1
100
AcDbCircle
 10
116.36533
 20
-286.4852
 30
0.0
 40
12.4852
100
AcDbArc
 50
72.507675
 51
107.492325
  0
LINE
  5
287
100
AcDbEntity
  8
LAY-1
  6
CONTINUOUS
 62
     1
100
AcDbLine
 10
108.86533
 20
-309.82265
 30
0.0
 11
108.86533
 21
-304.9
 31
0.0
  0
LINE
  5
288
100
AcDbEntity
  8
LAY-1
  6
CONTINUOUS
 62
     1
100
AcDbLine
 10
122.846071
 20
-310.4
 30
0.0
 11
109.86533
 21
-310.4
 31
0.0
  0
ARC
  5
289
100
AcDbEntity
  8
LAY-1
  6
CONTINUOUS
 62
     1
100
AcDbCircle
 10
116.36533
 20
-274.5
 30
0.0
 40
6.5
100
AcDbArc
 50
4.411726
 51
175.588274
  0
LINE
  5
28A
100
AcDbEntity
  8
LAY-1
  6
CONTINUOUS
 62
     1
100
AcDbLine
 10
108.86533
 20
-274.57735
 30
0.0
 11
108.86533
 21
-280.5
 31
0.0
  0
LINE
  5
28B
100
AcDbEntity
  8
LAY-1
  6
CONTINUOUS
 62
     1
100
AcDbLine
 10
122.846071
 20
-274.0
 30
0.0
 11
109.86533
 21
-274.0
 31
0.0
  0
LINE
  5
28C
100
AcDbEntity
  8
LAY-1
  6
CONTINUOUS
 62
     1
100
AcDbLine
 10
109.86533
 20
-310.4
 30
0.0
 11
108.86533
 21
-309.82265
 31
0.0
  0
LINE
  5
28D
100
AcDbEntity
  8
LAY-1
  6
CONTINUOUS
 62
     1
100
AcDbLine
 10
108.86533
 20
-280.5
 30
0.0
 11
108.86533
 21
-282.1
 31
0.0
  0
LINE
  5
28E
100
AcDbEntity
  8
LAY-1
  6
CONTINUOUS
 62
     1
100
AcDbLine
 10
112.612553
 20
-304.9
 30
0.0
 11
112.612553
 21
-309.82265
 31
0.0
  0
ARC
  5
28F
100
AcDbEntity
  8
LAY-1
  6
CONTINUOUS
 62
     1
100
AcDbCircle
 10
110.748761
 20
-307.102992
 30
0.0
 40
3.297008
100
AcDbArc
 50
235.296434
 51
304.423005
  0
ARC
  5
290
100
AcDbEntity
  8
LAY-1
  6
CONTINUOUS
 62
     1
100
AcDbCircle
 10
116.36533
 20
-297.9148
 30
0.0
 40
12.4852
100
AcDbArc
 50
252.507675
 51
287.492325
  0
LINE
  5
291
100
AcDbEntity
  8
LAY-1
  6
CONTINUOUS
 62
     1
100
AcDbLine
 10
180.190874
 20
-309.82265
 30
0.0
 11
180.190874
 21
-304.9
 31
0.0
  0
LINE
  5
292
100
AcDbEntity
  8
LAY-1
  6
CONTINUOUS
 62
     1
100
AcDbLine
 10
183.938097
 20
-304.9
 30
0.0
 11
183.938097
 21
-309.82265
 31
0.0
  0
ARC
  5
293
100
AcDbEntity
  8
LAY-1
  6
CONTINUOUS
 62
     1
100
AcDbCircle
 10
182.064486
 20
-307.071212
 30
0.0
 40
3.328788
100
AcDbArc
 50
235.746813
 51
304.253187
  0
LINE
  5
294
100
AcDbEntity
  8
LAY-1
  6
CONTINUOUS
 62
     1
100
AcDbLine
 10
182.938097
 20
-310.4
 30
0.0
 11
183.938097
 21
-309.82265
 31
0.0
  0
LINE
  5
295
100
AcDbEntity
  8
LAY-1
  6
CONTINUOUS
 62
     1
100
AcDbLine
 10
168.938097
 20
-309.82265
 30
0.0
 11
168.938097
 21
-304.9
 31
0.0
  0
LINE
  5
296
100
AcDbEntity
  8
LAY-1
  6
CONTINUOUS
 62
     1
100
AcDbLine
 10
182.918838
 20
-310.4
 30
0.0
 11
169.938097
 21
-310.4
 31
0.0
  0
LINE
  5
297
100
AcDbEntity
  8
LAY-1
  6
CONTINUOUS
 62
     1
100
AcDbLine
 10
169.938097
 20
-310.4
 30
0.0
 11
168.938097
 21
-309.82265
 31
0.0
  0
LINE
  5
298
100
AcDbEntity
  8
LAY-1
  6
CONTINUOUS
 62
     1
100
AcDbLine
 10
172.685321
 20
-304.9
 30
0.0
 11
172.685321
 21
-309.82265
 31
0.0
  0
ARC
  5
299
100
AcDbEntity
  8
LAY-1
  6
CONTINUOUS
 62
     1
100
AcDbCircle
 10
170.821528
 20
-307.102992
 30
0.0
 40
3.297008
100
AcDbArc
 50
235.296434
 51
304.423005
  0
ARC
  5
29A
100
AcDbEntity
  8
LAY-1
  6
CONTINUOUS
 62
     1
100
AcDbCircle
 10
176.438097
 20
-297.9148
 30
0.0
 40
12.4852
100
AcDbArc
 50
252.507675
 51
287.492325
  0
LINE
  5
29B
100
AcDbEntity
  8
LAY-1
  6
CONTINUOUS
 62
     1
100
AcDbLine
 10
265.146596
 20
-309.82265
 30
0.0
 11
265.146596
 21
-304.9
 31
0.0
  0
LINE
  5
29C
100
AcDbEntity
  8
LAY-1
  6
CONTINUOUS
 62
     1
100
AcDbLine
 10
268.893819
 20
-304.9
 30
0.0
 11
268.893819
 21
-309.82265
 31
0.0
  0
ARC
  5
29D
100
AcDbEntity
  8
LAY-1
  6
CONTINUOUS
 62
     1
100
AcDbCircle
 10
267.020208
 20
-307.071212
 30
0.0
 40
3.328788
100
AcDbArc
 50
235.746813
 51
304.253187
  0
LINE
  5
29E
100
AcDbEntity
  8
LAY-1
  6
CONTINUOUS
 62
     1
100
AcDbLine
 10
267.893819
 20
-310.4
 30
0.0
 11
268.893819
 21
-309.82265
 31
0.0
  0
LINE
  5
29F
100
AcDbEntity
  8
LAY-1
  6
CONTINUOUS
 62
     1
100
AcDbLine
 10
253.893819
 20
-309.82265
 30
0.0
 11
253.893819
 21
-304.9
 31
0.0
  0
LINE
  5
2A0
100
AcDbEntity
  8
LAY-1
  6
CONTINUOUS
 62
     1
100
AcDbLine
 10
267.87456
 20
-310.4
 30
0.0
 11
254.893819
 21
-310.4
 31
0.0
  0
LINE
  5
2A1
100
AcDbEntity
  8
LAY-1
  6
CONTINUOUS
 62
     1
100
AcDbLine
 10
254.893819
 20
-310.4
 30
0.0
 11
253.893819
 21
-309.82265
 31
0.0
  0
LINE
  5
2A2
100
AcDbEntity
  8
LAY-1
  6
CONTINUOUS
 62
     1
100
AcDbLine
 10
257.641042
 20
-304.9
 30
0.0
 11
257.641042
 21
-309.82265
 31
0.0
  0
ARC
  5
2A3
100
AcDbEntity
  8
LAY-1
  6
CONTINUOUS
 62
     1
100
AcDbCircle
 10
255.77725
 20
-307.102992
 30
0.0
 40
3.297008
100
AcDbArc
 50
235.296434
 51
304.423005
  0
ARC
  5
2A4
100
AcDbEntity
  8
LAY-1
  6
CONTINUOUS
 62
     1
100
AcDbCircle
 10
261.393819
 20
-297.9148
 30
0.0
 40
12.4852
100
AcDbArc
 50
252.507675
 51
287.492325
  0
LINE
  5
2A5
100
AcDbEntity
  8
LAY-1
  6
CONTINUOUS
 62
     2
100
AcDbLine
 10
98.415958
 20
592.1
 30
0.0
 11
98.415958
 21
603.1
 31
0.0
  0
ARC
  5
2A6
100
AcDbEntity
  8
LAY-1
  6
CONTINUOUS
 62
     2
100
AcDbCircle
 10
345.837806
 20
610.162178
 30
0.0
 40
3.578152
100
AcDbArc
 50
325.615753
 51
34.384247
  0
ARC
  5
2A7
100
AcDbEntity
  8
LAY-1
  6
CONTINUOUS
 62
     2
100
AcDbCircle
 10
336.041173
 20
604.1
 30
0.0
 40
13.374785
100
AcDbArc
 50
342.412046
 51
17.587954
  0
ARC
  5
2A8
100
AcDbEntity
  8
LAY-1
  6
CONTINUOUS
 62
     2
100
AcDbCircle
 10
345.837806
 20
598.037822
 30
0.0
 40
3.578152
100
AcDbArc
 50
325.615753
 51
34.384247
  0
LINE
  5
2A9
100
AcDbEntity
  8
LAY-1
  6
CONTINUOUS
 62
     2
100
AcDbLine
 10
349.415958
 20
597.1
 30
0.0
 11
348.790743
 21
596.017096
 31
0.0
  0
LINE
  5
2AA
100
AcDbEntity
  8
LAY-1
  6
CONTINUOUS
 62
     2
100
AcDbLine
 10
349.415958
 20
604.1
 30
0.0
 11
349.415958
 21
597.1
 31
0.0
  0
LINE
  5
2AB
100
AcDbEntity
  8
LAY-1
  6
CONTINUOUS
 62
     2
100
AcDbLine
 10
348.790743
 20
596.017096
 30
0.0
 11
343.415958
 21
596.017096
 31
0.0
  0
LINE
  5
2AC
100
AcDbEntity
  8
LAY-1
  6
CONTINUOUS
 62
     2
100
AcDbLine
 10
343.415958
 20
596.017096
 30
0.0
 11
343.415958
 21
604.1
 31
0.0
  0
LINE
  5
2AD
100
AcDbEntity
  8
LAY-1
  6
CONTINUOUS
 62
     2
100
AcDbLine
 10
348.790743
 20
608.141452
 30
0.0
 11
343.415958
 21
608.141452
 31
0.0
  0
LINE
  5
2AE
100
AcDbEntity
  8
LAY-1
  6
CONTINUOUS
 62
     2
100
AcDbLine
 10
343.415958
 20
600.058548
 30
0.0
 11
348.790743
 21
600.058548
 31
0.0
  0
LINE
  5
2AF
100
AcDbEntity
  8
LAY-1
  6
CONTINUOUS
 62
     2
100
AcDbLine
 10
348.790743
 20
612.182904
 30
0.0
 11
343.415958
 21
612.182904
 31
0.0
  0
LINE
  5
2B0
100
AcDbEntity
  8
LAY-1
  6
CONTINUOUS
 62
     2
100
AcDbLine
 10
349.415958
 20
604.1
 30
0.0
 11
349.415958
 21
611.1
 31
0.0
  0
LINE
  5
2B1
100
AcDbEntity
  8
LAY-1
  6
CONTINUOUS
 62
     2
100
AcDbLine
 10
349.415958
 20
611.1
 30
0.0
 11
348.790743
 21
612.182904
 31
0.0
  0
LINE
  5
2B2
100
AcDbEntity
  8
LAY-1
  6
CONTINUOUS
 62
     2
100
AcDbLine
 10
338.915958
 20
580.3
 30
0.0
 11
326.755276
 21
580.3
 31
0.0
  0
ARC
  5
2B3
100
AcDbEntity
  8
LAY-1
  6
CONTINUOUS
 62
     2
100
AcDbCircle
 10
338.915958
 20
581.3
 30
0.0
 40
1.0
100
AcDbArc
 50
270.0
 51
0.0
  0
LINE
  5
2B4
100
AcDbEntity
  8
LAY-1
  6
CONTINUOUS
 62
     2
100
AcDbLine
 10
338.415958
 20
580.3
 30
0.0
 11
98.415958
 21
580.3
 31
0.0
  0
LINE
  5
2B5
100
AcDbEntity
  8
LAY-1
  6
CONTINUOUS
 62
     2
100
AcDbLine
 10
338.915958
 20
591.3
 30
0.0
 11
338.915958
 21
592.1
 31
0.0
  0
LINE
  5
2B6
100
AcDbEntity
  8
LAY-1
  6
CONTINUOUS
 62
     2
100
AcDbLine
 10
339.915958
 20
581.3
 30
0.0
 11
339.915958
 21
591.3
 31
0.0
  0
LINE
  5
2B7
100
AcDbEntity
  8
LAY-1
  6
CONTINUOUS
 62
     2
100
AcDbLine
 10
339.415958
 20
592.1
 30
0.0
 11
339.415958
 21
615.1
 31
0.0
  0
ARC
  5
2B8
100
AcDbEntity
  8
LAY-1
  6
CONTINUOUS
 62
     2
100
AcDbCircle
 10
338.415958
 20
615.1
 30
0.0
 40
1.0
100
AcDbArc
 50
0.0
 51
90.0
  0
LINE
  5
2B9
100
AcDbEntity
  8
LAY-1
  6
CONTINUOUS
 62
     2
100
AcDbLine
 10
312.462897
 20
616.1
 30
0.0
 11
338.415958
 21
616.1
 31
0.0
  0
LINE
  5
2BA
100
AcDbEntity
  8
LAY-1
  6
CONTINUOUS
 62
     2
100
AcDbLine
 10
98.415958
 20
592.1
 30
0.0
 11
182.787714
 21
592.1
 31
0.0
  0
LINE
  5
2BB
100
AcDbEntity
  8
LAY-1
  6
CONTINUOUS
 62
     2
100
AcDbLine
 10
98.415958
 20
591.3
 30
0.0
 11
183.944398
 21
591.3
 31
0.0
  0
LINE
  5
2BC
100
AcDbEntity
  8
LAY-1
  6
CONTINUOUS
 62
     2
100
AcDbLine
 10
255.044202
 20
592.1
 30
0.0
 11
339.415958
 21
592.1
 31
0.0
  0
LINE
  5
2BD
100
AcDbEntity
  8
LAY-1
  6
CONTINUOUS
 62
     2
100
AcDbLine
 10
253.887518
 20
591.3
 30
0.0
 11
339.915958
 21
591.3
 31
0.0
  0
LINE
  5
2BE
100
AcDbEntity
  8
LAY-1
  6
CONTINUOUS
 62
     2
100
AcDbLine
 10
135.857422
 20
621.220255
 30
0.0
 11
159.01961
 21
625.248461
 31
0.0
  0
LINE
  5
2BF
100
AcDbEntity
  8
LAY-1
  6
CONTINUOUS
 62
     2
100
AcDbLine
 10
301.974494
 20
621.220255
 30
0.0
 11
278.812307
 21
625.248461
 31
0.0
  0
LINE
  5
2C0
100
AcDbEntity
  8
LAY-1
  6
CONTINUOUS
 62
     2
100
AcDbLine
 10
98.415958
 20
603.1
 30
0.0
 11
170.892526
 21
603.1
 31
0.0
  0
LINE
  5
2C1
100
AcDbEntity
  8
LAY-1
  6
CONTINUOUS
 62
     2
100
AcDbLine
 10
343.415958
 20
612.182904
 30
0.0
 11
343.415958
 21
604.1
 31
0.0
  0
LINE
  5
2C2
100
AcDbEntity
  8
LAY-1
  6
CONTINUOUS
 62
     2
100
AcDbLine
 10
98.415958
 20
-293.9
 30
0.0
 11
98.415958
 21
-304.9
 31
0.0
  0
ARC
  5
2C3
100
AcDbEntity
  8
LAY-1
  6
CONTINUOUS
 62
     2
100
AcDbCircle
 10
345.837806
 20
-311.962178
 30
0.0
 40
3.578152
100
AcDbArc
 50
325.615753
 51
34.384247
  0
ARC
  5
2C4
100
AcDbEntity
  8
LAY-1
  6
CONTINUOUS
 62
     2
100
AcDbCircle
 10
336.041173
 20
-305.9
 30
0.0
 40
13.374785
100
AcDbArc
 50
342.412046
 51
17.587954
  0
ARC
  5
2C5
100
AcDbEntity
  8
LAY-1
  6
CONTINUOUS
 62
     2
100
AcDbCircle
 10
345.837806
 20
-299.837822
 30
0.0
 40
3.578152
100
AcDbArc
 50
325.615753
 51
34.384247
  0
LINE
  5
2C6
100
AcDbEntity
  8
LAY-1
  6
CONTINUOUS
 62
     2
100
AcDbLine
 10
349.415958
 20
-298.9
 30
0.0
 11
348.790743
 21
-297.817096
 31
0.0
  0
LINE
  5
2C7
100
AcDbEntity
  8
LAY-1
  6
CONTINUOUS
 62
     2
100
AcDbLine
 10
349.415958
 20
-305.9
 30
0.0
 11
349.415958
 21
-298.9
 31
0.0
  0
LINE
  5
2C8
100
AcDbEntity
  8
LAY-1
  6
CONTINUOUS
 62
     2
100
AcDbLine
 10
348.790743
 20
-297.817096
 30
0.0
 11
343.415958
 21
-297.817096
 31
0.0
  0
LINE
  5
2C9
100
AcDbEntity
  8
LAY-1
  6
CONTINUOUS
 62
     2
100
AcDbLine
 10
343.415958
 20
-297.817096
 30
0.0
 11
343.415958
 21
-305.9
 31
0.0
  0
LINE
  5
2CA
100
AcDbEntity
  8
LAY-1
  6
CONTINUOUS
 62
     2
100
AcDbLine
 10
348.790743
 20
-309.941452
 30
0.0
 11
343.415958
 21
-309.941452
 31
0.0
  0
LINE
  5
2CB
100
AcDbEntity
  8
LAY-1
  6
CONTINUOUS
 62
     2
100
AcDbLine
 10
343.415958
 20
-301.858548
 30
0.0
 11
348.790743
 21
-301.858548
 31
0.0
  0
LINE
  5
2CC
100
AcDbEntity
  8
LAY-1
  6
CONTINUOUS
 62
     2
100
AcDbLine
 10
348.790743
 20
-313.982904
 30
0.0
 11
343.415958
 21
-313.982904
 31
0.0
  0
LINE
  5
2CD
100
AcDbEntity
  8
LAY-1
  6
CONTINUOUS
 62
     2
100
AcDbLine
 10
349.415958
 20
-305.9
 30
0.0
 11
349.415958
 21
-312.9
 31
0.0
  0
LINE
  5
2CE
100
AcDbEntity
  8
LAY-1
  6
CONTINUOUS
 62
     2
100
AcDbLine
 10
349.415958
 20
-312.9
 30
0.0
 11
348.790743
 21
-313.982904
 31
0.0
  0
LINE
  5
2CF
100
AcDbEntity
  8
LAY-1
  6
CONTINUOUS
 62
     2
100
AcDbLine
 10
338.915958
 20
-282.1
 30
0.0
 11
326.755276
 21
-282.1
 31
0.0
  0
LINE
  5
2D0
100
AcDbEntity
  8
LAY-1
  6
CONTINUOUS
 62
     2
100
AcDbLine
 10
338.415958
 20
-282.1
 30
0.0
 11
98.415958
 21
-282.1
 31
0.0
  0
LINE
  5
2D1
100
AcDbEntity
  8
LAY-1
  6
CONTINUOUS
 62
     2
100
AcDbLine
 10
338.915958
 20
-293.1
 30
0.0
 11
338.915958
 21
-293.9
 31
0.0
  0
ARC
  5
2D2
100
AcDbEntity
  8
LAY-1
  6
CONTINUOUS
 62
     2
100
AcDbCircle
 10
338.915958
 20
-283.1
 30
0.0
 40
1.0
100
AcDbArc
 50
0.0
 51
90.0
  0
LINE
  5
2D3
100
AcDbEntity
  8
LAY-1
  6
CONTINUOUS
 62
     2
100
AcDbLine
 10
339.915958
 20
-283.1
 30
0.0
 11
339.915958
 21
-293.1
 31
0.0
  0
LINE
  5
2D4
100
AcDbEntity
  8
LAY-1
  6
CONTINUOUS
 62
     2
100
AcDbLine
 10
339.415958
 20
-293.9
 30
0.0
 11
339.415958
 21
-316.9
 31
0.0
  0
ARC
  5
2D5
100
AcDbEntity
  8
LAY-1
  6
CONTINUOUS
 62
     2
100
AcDbCircle
 10
338.415958
 20
-316.9
 30
0.0
 40
1.0
100
AcDbArc
 50
270.0
 51
0.0
  0
LINE
  5
2D6
100
AcDbEntity
  8
LAY-1
  6
CONTINUOUS
 62
     2
100
AcDbLine
 10
312.462897
 20
-317.9
 30
0.0
 11
338.415958
 21
-317.9
 31
0.0
  0
LINE
  5
2D7
100
AcDbEntity
  8
LAY-1
  6
CONTINUOUS
 62
     2
100
AcDbLine
 10
343.415958
 20
-313.982904
 30
0.0
 11
343.415958
 21
-305.9
 31
0.0
  0
ARC
  5
2D8
100
AcDbEntity
  8
LAY-1
  6
CONTINUOUS
 62
     2
100
AcDbCircle
 10
251.391229
 20
-306.9
 30
0.0
 40
2.0
100
AcDbArc
 50
90.0
 51
179.287165
  0
ARC
  5
2D9
100
AcDbEntity
  8
LAY-1
  6
CONTINUOUS
 62
     2
100
AcDbCircle
 10
186.440687
 20
-306.9
 30
0.0
 40
2.0
100
AcDbArc
 50
0.712835
 51
90.0
  0
LINE
  5
2DA
100
AcDbEntity
  8
LAY-1
  6
CONTINUOUS
 62
     2
100
AcDbLine
 10
98.415958
 20
-293.9
 30
0.0
 11
339.415958
 21
-293.9
 31
0.0
  0
LINE
  5
2DB
100
AcDbEntity
  8
LAY-1
  6
CONTINUOUS
 62
     2
100
AcDbLine
 10
98.415958
 20
-293.1
 30
0.0
 11
339.915958
 21
-293.1
 31
0.0
  0
LINE
  5
2DC
100
AcDbEntity
  8
LAY-1
  6
CONTINUOUS
 62
     2
100
AcDbLine
 10
135.857422
 20
-323.020255
 30
0.0
 11
185.302501
 21
-331.619399
 31
0.0
  0
LINE
  5
2DD
100
AcDbEntity
  8
LAY-1
  6
CONTINUOUS
 62
     2
100
AcDbLine
 10
301.974494
 20
-323.020255
 30
0.0
 11
252.529416
 21
-331.619399
 31
0.0
  0
LINE
  5
2DE
100
AcDbEntity
  8
LAY-1
  6
CONTINUOUS
 62
     2
100
AcDbLine
 10
-303.084042
 20
24.3
 30
0.0
 11
-247.084042
 21
24.3
 31
0.0
  0
LINE
  5
2DF
100
AcDbEntity
  8
LAY-1
  6
CONTINUOUS
 62
     2
100
AcDbLine
 10
-253.204296
 20
205.358536
 30
0.0
 11
-262.972303
 21
149.192497
 31
0.0
  0
LINE
  5
2E0
100
AcDbEntity
  8
LAY-1
  6
CONTINUOUS
 62
     2
100
AcDbLine
 10
-255.823172
 20
54.3
 30
0.0
 11
-303.084042
 21
54.3
 31
0.0
  0
LINE
  5
2E1
100
AcDbEntity
  8
LAY-1
  6
CONTINUOUS
 62
     2
100
AcDbLine
 10
-212.784042
 20
242.3
 30
0.0
 11
-224.084042
 21
242.3
 31
0.0
  0
ARC
  5
2E2
100
AcDbEntity
  8
LAY-1
  6
CONTINUOUS
 62
     2
100
AcDbCircle
 10
-212.784042
 20
241.8
 30
0.0
 40
0.5
100
AcDbArc
 50
0.0
 51
90.0
  0
ARC
  5
2E3
100
AcDbEntity
  8
LAY-1
  6
CONTINUOUS
 62
     2
100
AcDbCircle
 10
-212.784042
 20
2.8
 30
0.0
 40
0.5
100
AcDbArc
 50
270.0
 51
0.0
  0
LINE
  5
2E4
100
AcDbEntity
  8
LAY-1
  6
CONTINUOUS
 62
     2
100
AcDbLine
 10
-212.784042
 20
2.3
 30
0.0
 11
-224.084042
 21
2.3
 31
0.0
  0
LINE
  5
2E5
100
AcDbEntity
  8
LAY-1
  6
CONTINUOUS
 62
     2
100
AcDbLine
 10
-242.67044
 20
24.3
 30
0.0
 11
-254.129042
 21
24.3
 31
0.0
  0
LINE
  5
2E6
100
AcDbEntity
  8
LAY-1
  6
CONTINUOUS
 62
     2
100
AcDbLine
 10
-224.084042
 20
1.8
 30
0.0
 11
-235.084042
 21
1.8
 31
0.0
  0
LINE
  5
2E7
100
AcDbEntity
  8
LAY-1
  6
CONTINUOUS
 62
     2
100
AcDbLine
 10
-245.084042
 20
242.8
 30
0.0
 11
-224.084042
 21
242.8
 31
0.0
  0
ARC
  5
2E8
100
AcDbEntity
  8
LAY-1
  6
CONTINUOUS
 62
     2
100
AcDbCircle
 10
-299.084042
 20
101.3
 30
0.0
 40
1.0
100
AcDbArc
 50
0.0
 51
90.0
  0
ARC
  5
2E9
100
AcDbEntity
  8
LAY-1
  6
CONTINUOUS
 62
     2
100
AcDbCircle
 10
-302.084042
 20
230.8
 30
0.0
 40
2.0
100
AcDbArc
 50
0.0
 51
90.0
  0
ARC
  5
2EA
100
AcDbEntity
  8
LAY-1
  6
CONTINUOUS
 62
     2
100
AcDbCircle
 10
-303.084042
 20
234.8
 30
0.0
 40
2.0
100
AcDbArc
 50
180.0
 51
270.0
  0
ARC
  5
2EB
100
AcDbEntity
  8
LAY-1
  6
CONTINUOUS
 62
     2
100
AcDbCircle
 10
-300.084042
 20
56.3
 30
0.0
 40
2.0
100
AcDbArc
 50
270.0
 51
0.0
  0
ARC
  5
2EC
100
AcDbEntity
  8
LAY-1
  6
CONTINUOUS
 62
     2
100
AcDbCircle
 10
-303.084042
 20
52.3
 30
0.0
 40
2.0
100
AcDbArc
 50
90.0
 51
180.0
  0
ARC
  5
2ED
100
AcDbEntity
  8
LAY-1
  6
CONTINUOUS
 62
     2
100
AcDbCircle
 10
-303.084042
 20
26.3
 30
0.0
 40
2.0
100
AcDbArc
 50
180.0
 51
270.0
  0
LINE
  5
2EE
100
AcDbEntity
  8
LAY-1
  6
CONTINUOUS
 62
     2
100
AcDbLine
 10
-305.084042
 20
234.8
 30
0.0
 11
-305.084042
 21
258.3
 31
0.0
  0
LINE
  5
2EF
100
AcDbEntity
  8
LAY-1
  6
CONTINUOUS
 62
     2
100
AcDbLine
 10
-300.084042
 20
208.3
 30
0.0
 11
-300.084042
 21
230.8
 31
0.0
  0
LINE
  5
2F0
100
AcDbEntity
  8
LAY-1
  6
CONTINUOUS
 62
     2
100
AcDbLine
 10
-298.099542
 20
143.315265
 30
0.0
 11
-299.084042
 21
207.8
 31
0.0
  0
ARC
  5
2F1
100
AcDbEntity
  8
LAY-1
  6
CONTINUOUS
 62
     2
100
AcDbCircle
 10
-299.584042
 20
208.3
 30
0.0
 40
0.5
100
AcDbArc
 50
180.0
 51
270.0
  0
LINE
  5
2F2
100
AcDbEntity
  8
LAY-1
  6
CONTINUOUS
 62
     2
100
AcDbLine
 10
-299.084042
 20
102.3
 30
0.0
 11
-299.084042
 21
142.3
 31
0.0
  0
ARC
  5
2F3
100
AcDbEntity
  8
LAY-1
  6
CONTINUOUS
 62
     2
100
AcDbCircle
 10
-299.099425
 20
143.3
 30
0.0
 40
1.0
100
AcDbArc
 50
270.0
 51
0.874677
  0
LINE
  5
2F4
100
AcDbEntity
  8
LAY-1
  6
CONTINUOUS
 62
     2
100
AcDbLine
 10
-298.084042
 20
56.3
 30
0.0
 11
-298.084042
 21
101.3
 31
0.0
  0
LINE
  5
2F5
100
AcDbEntity
  8
LAY-1
  6
CONTINUOUS
 62
     2
100
AcDbLine
 10
-305.084042
 20
26.3
 30
0.0
 11
-305.084042
 21
52.3
 31
0.0
  0
LINE
  5
2F6
100
AcDbEntity
  8
LAY-1
  6
CONTINUOUS
 62
     2
100
AcDbLine
 10
-245.084042
 20
258.3
 30
0.0
 11
-245.084042
 21
242.8
 31
0.0
  0
LINE
  5
2F7
100
AcDbEntity
  8
LAY-1
  6
CONTINUOUS
 62
     2
100
AcDbLine
 10
-223.284042
 20
2.3
 30
0.0
 11
-223.284042
 21
242.3
 31
0.0
  0
LINE
  5
2F8
100
AcDbEntity
  8
LAY-1
  6
CONTINUOUS
 62
     2
100
AcDbLine
 10
-246.990031
 20
262.086328
 30
0.0
 11
-246.990031
 21
274.013672
 31
0.0
  0
LINE
  5
2F9
100
AcDbEntity
  8
LAY-1
  6
CONTINUOUS
 62
     2
100
AcDbLine
 10
-260.650285
 20
274.013672
 30
0.0
 11
-260.650285
 21
262.086328
 31
0.0
  0
LINE
  5
2FA
100
AcDbEntity
  8
LAY-1
  6
CONTINUOUS
 62
     2
100
AcDbLine
 10
-289.517798
 20
262.086328
 30
0.0
 11
-289.517798
 21
274.013672
 31
0.0
  0
LINE
  5
2FB
100
AcDbEntity
  8
LAY-1
  6
CONTINUOUS
 62
     2
100
AcDbLine
 10
-303.178053
 20
274.013672
 30
0.0
 11
-303.178053
 21
262.086328
 31
0.0
  0
LINE
  5
2FC
100
AcDbEntity
  8
LAY-1
  6
CONTINUOUS
 62
     2
100
AcDbLine
 10
-303.178053
 20
262.086328
 30
0.0
 11
-300.084042
 21
260.3
 31
0.0
  0
LINE
  5
2FD
100
AcDbEntity
  8
LAY-1
  6
CONTINUOUS
 62
     2
100
AcDbLine
 10
-300.084042
 20
260.3
 30
0.0
 11
-250.084042
 21
260.3
 31
0.0
  0
ARC
  5
2FE
100
AcDbEntity
  8
LAY-1
  6
CONTINUOUS
 62
     2
100
AcDbCircle
 10
-275.084042
 20
319.506458
 30
0.0
 40
59.206458
100
AcDbArc
 50
255.889847
 51
284.110153
  0
LINE
  5
2FF
100
AcDbEntity
  8
LAY-1
  6
CONTINUOUS
 62
     2
100
AcDbLine
 10
-250.084042
 20
260.3
 30
0.0
 11
-246.990031
 21
262.086328
 31
0.0
  0
ARC
  5
300
100
AcDbEntity
  8
LAY-1
  6
CONTINUOUS
 62
     2
100
AcDbCircle
 10
-296.347926
 20
274.250855
 30
0.0
 40
13.950855
100
AcDbArc
 50
240.686701
 51
299.313299
  0
ARC
  5
301
100
AcDbEntity
  8
LAY-1
  6
CONTINUOUS
 62
     2
100
AcDbCircle
 10
-253.820158
 20
261.849145
 30
0.0
 40
13.950855
100
AcDbArc
 50
60.686701
 51
119.313299
  0
ARC
  5
302
100
AcDbEntity
  8
LAY-1
  6
CONTINUOUS
 62
     2
100
AcDbCircle
 10
-253.820158
 20
274.250855
 30
0.0
 40
13.950855
100
AcDbArc
 50
240.686701
 51
299.313299
  0
ARC
  5
303
100
AcDbEntity
  8
LAY-1
  6
CONTINUOUS
 62
     2
100
AcDbCircle
 10
-296.347926
 20
261.849145
 30
0.0
 40
13.950855
100
AcDbArc
 50
60.686701
 51
119.313299
  0
LINE
  5
304
100
AcDbEntity
  8
LAY-1
  6
CONTINUOUS
 62
     2
100
AcDbLine
 10
-250.084042
 20
275.8
 30
0.0
 11
-246.990031
 21
274.013672
 31
0.0
  0
ARC
  5
305
100
AcDbEntity
  8
LAY-1
  6
CONTINUOUS
 62
     2
100
AcDbCircle
 10
-303.084042
 20
258.3
 30
0.0
 40
2.0
100
AcDbArc
 50
90.0
 51
180.0
  0
ARC
  5
306
100
AcDbEntity
  8
LAY-1
  6
CONTINUOUS
 62
     2
100
AcDbCircle
 10
-247.084042
 20
258.3
 30
0.0
 40
2.0
100
AcDbArc
 50
0.0
 51
90.0
  0
LINE
  5
307
100
AcDbEntity
  8
LAY-1
  6
CONTINUOUS
 62
     2
100
AcDbLine
 10
-303.084042
 20
260.3
 30
0.0
 11
-247.084042
 21
260.3
 31
0.0
  0
LINE
  5
308
100
AcDbEntity
  8
LAY-1
  6
CONTINUOUS
 62
     2
100
AcDbLine
 10
-305.084042
 20
238.4895
 30
0.0
 11
-305.084042
 21
258.3
 31
0.0
  0
ARC
  5
309
100
AcDbEntity
  8
LAY-1
  6
CONTINUOUS
 62
     2
100
AcDbCircle
 10
-275.084042
 20
216.593542
 30
0.0
 40
59.206458
100
AcDbArc
 50
75.889847
 51
104.110153
  0
LINE
  5
30A
100
AcDbEntity
  8
LAY-1
  6
CONTINUOUS
 62
     2
100
AcDbLine
 10
-300.084042
 20
275.8
 30
0.0
 11
-250.084042
 21
275.8
 31
0.0
  0
LINE
  5
30B
100
AcDbEntity
  8
LAY-1
  6
CONTINUOUS
 62
     2
100
AcDbLine
 10
-303.178053
 20
274.013672
 30
0.0
 11
-300.084042
 21
275.8
 31
0.0
  0
LINE
  5
30C
100
AcDbEntity
  8
LAY-1
  6
CONTINUOUS
 62
     2
100
AcDbLine
 10
-258.084042
 20
329.6
 30
0.0
 11
-292.084042
 21
329.6
 31
0.0
  0
LINE
  5
30D
100
AcDbEntity
  8
LAY-1
  6
CONTINUOUS
 62
     2
100
AcDbLine
 10
-212.584042
 20
334.1
 30
0.0
 11
-275.084042
 21
334.1
 31
0.0
  0
LINE
  5
30E
100
AcDbEntity
  8
LAY-1
  6
CONTINUOUS
 62
     2
100
AcDbLine
 10
-258.084042
 20
329.6
 30
0.0
 11
-258.084042
 21
287.748604
 31
0.0
  0
LINE
  5
30F
100
AcDbEntity
  8
LAY-1
  6
CONTINUOUS
 62
     2
100
AcDbLine
 10
-212.584042
 20
348.1
 30
0.0
 11
-275.084042
 21
348.1
 31
0.0
  0
LINE
  5
310
100
AcDbEntity
  8
LAY-1
  6
CONTINUOUS
 62
     2
100
AcDbLine
 10
-212.584042
 20
348.1
 30
0.0
 11
-212.584042
 21
334.1
 31
0.0
  0
LINE
  5
311
100
AcDbEntity
  8
LAY-1
  6
CONTINUOUS
 62
     2
100
AcDbLine
 10
-253.584042
 20
334.1
 30
0.0
 11
-258.084042
 21
329.6
 31
0.0
  0
LINE
  5
312
100
AcDbEntity
  8
LAY-1
  6
CONTINUOUS
 62
     2
100
AcDbLine
 10
-258.084042
 20
287.748604
 30
0.0
 11
-258.459542
 21
275.8
 31
0.0
  0
LINE
  5
313
100
AcDbEntity
  8
LAY-1
  6
CONTINUOUS
 62
     2
100
AcDbLine
 10
-291.937953
 20
283.1
 30
0.0
 11
-258.222024
 21
283.1
 31
0.0
  0
LINE
  5
314
100
AcDbEntity
  8
LAY-1
  6
CONTINUOUS
 62
     2
100
AcDbLine
 10
-292.084042
 20
287.748604
 30
0.0
 11
-291.708542
 21
275.8
 31
0.0
  0
LINE
  5
315
100
AcDbEntity
  8
LAY-1
  6
CONTINUOUS
 62
     2
100
AcDbLine
 10
-296.584042
 20
334.1
 30
0.0
 11
-292.084042
 21
329.6
 31
0.0
  0
LINE
  5
316
100
AcDbEntity
  8
LAY-1
  6
CONTINUOUS
 62
     2
100
AcDbLine
 10
-337.584042
 20
348.1
 30
0.0
 11
-337.584042
 21
334.1
 31
0.0
  0
LINE
  5
317
100
AcDbEntity
  8
LAY-1
  6
CONTINUOUS
 62
     2
100
AcDbLine
 10
-337.584042
 20
348.1
 30
0.0
 11
-275.084042
 21
348.1
 31
0.0
  0
LINE
  5
318
100
AcDbEntity
  8
LAY-1
  6
CONTINUOUS
 62
     2
100
AcDbLine
 10
-292.084042
 20
329.6
 30
0.0
 11
-292.084042
 21
287.748604
 31
0.0
  0
LINE
  5
319
100
AcDbEntity
  8
LAY-1
  6
CONTINUOUS
 62
     2
100
AcDbLine
 10
-337.584042
 20
334.1
 30
0.0
 11
-275.084042
 21
334.1
 31
0.0
  0
ARC
  5
31A
100
AcDbEntity
  8
LAY-1
  6
CONTINUOUS
 62
     2
100
AcDbCircle
 10
-248.084042
 20
230.8
 30
0.0
 40
2.0
100
AcDbArc
 50
90.0
 51
180.0
  0
ARC
  5
31B
100
AcDbEntity
  8
LAY-1
  6
CONTINUOUS
 62
     2
100
AcDbCircle
 10
-247.084042
 20
234.8
 30
0.0
 40
2.0
100
AcDbArc
 50
270.0
 51
0.0
  0
LINE
  5
31C
100
AcDbEntity
  8
LAY-1
  6
CONTINUOUS
 62
     2
100
AcDbLine
 10
-245.084042
 20
258.3
 30
0.0
 11
-245.084042
 21
234.8
 31
0.0
  0
LINE
  5
31D
100
AcDbEntity
  8
LAY-1
  6
CONTINUOUS
 62
     2
100
AcDbLine
 10
-247.084042
 20
232.8
 30
0.0
 11
-303.084042
 21
232.8
 31
0.0
  0
LINE
  5
31E
100
AcDbEntity
  8
LAY-1
  6
CONTINUOUS
 62
     2
100
AcDbLine
 10
-253.879042
 20
15.1
 30
0.0
 11
-296.289042
 21
15.1
 31
0.0
  0
LINE
  5
31F
100
AcDbEntity
  8
LAY-1
  6
CONTINUOUS
 62
     2
100
AcDbLine
 10
-254.129042
 20
24.3
 30
0.0
 11
-253.839959
 21
15.101228
 31
0.0
  0
LINE
  5
320
100
AcDbEntity
  8
LAY-1
  6
CONTINUOUS
 62
     2
100
AcDbLine
 10
-296.039042
 20
24.3
 30
0.0
 11
-296.328125
 21
15.101228
 31
0.0
  0
LINE
  5
321
100
AcDbEntity
  8
LAY-1
  6
CONTINUOUS
 62
     2
100
AcDbLine
 10
-235.084042
 20
1.8
 30
0.0
 11
-235.084042
 21
242.8
 31
0.0
  0
LINE
  5
322
100
AcDbEntity
  8
LAY-1
  6
CONTINUOUS
 62
     2
100
AcDbLine
 10
-224.084042
 20
1.8
 30
0.0
 11
-224.084042
 21
242.8
 31
0.0
  0
LINE
  5
323
100
AcDbEntity
  8
LAY-1
  6
CONTINUOUS
 62
     2
100
AcDbLine
 10
-262.972303
 20
149.192497
 30
0.0
 11
-262.972303
 21
95.407503
 31
0.0
  0
LINE
  5
324
100
AcDbEntity
  8
LAY-1
  6
CONTINUOUS
 62
     2
100
AcDbLine
 10
-252.597753
 20
207.8
 30
0.0
 11
-299.584042
 21
207.8
 31
0.0
  0
LINE
  5
325
100
AcDbEntity
  8
LAY-1
  6
CONTINUOUS
 62
     2
100
AcDbLine
 10
-250.084042
 20
213.199449
 30
0.0
 11
-250.084042
 21
230.8
 31
0.0
  0
ARC
  5
326
100
AcDbEntity
  8
LAY-1
  6
CONTINUOUS
 62
     2
100
AcDbCircle
 10
345.337806
 20
128.362178
 30
0.0
 40
3.578152
100
AcDbArc
 50
325.615753
 51
34.384247
  0
ARC
  5
327
100
AcDbEntity
  8
LAY-1
  6
CONTINUOUS
 62
     2
100
AcDbCircle
 10
335.541173
 20
122.3
 30
0.0
 40
13.374785
100
AcDbArc
 50
342.412046
 51
17.587954
  0
ARC
  5
328
100
AcDbEntity
  8
LAY-1
  6
CONTINUOUS
 62
     2
100
AcDbCircle
 10
345.337806
 20
116.237822
 30
0.0
 40
3.578152
100
AcDbArc
 50
325.615753
 51
34.384247
  0
LINE
  5
329
100
AcDbEntity
  8
LAY-1
  6
CONTINUOUS
 62
     2
100
AcDbLine
 10
348.915958
 20
115.3
 30
0.0
 11
348.290743
 21
114.217096
 31
0.0
  0
LINE
  5
32A
100
AcDbEntity
  8
LAY-1
  6
CONTINUOUS
 62
     2
100
AcDbLine
 10
348.915958
 20
122.3
 30
0.0
 11
348.915958
 21
115.3
 31
0.0
  0
LINE
  5
32B
100
AcDbEntity
  8
LAY-1
  6
CONTINUOUS
 62
     2
100
AcDbLine
 10
348.290743
 20
114.217096
 30
0.0
 11
342.915958
 21
114.217096
 31
0.0
  0
LINE
  5
32C
100
AcDbEntity
  8
LAY-1
  6
CONTINUOUS
 62
     2
100
AcDbLine
 10
342.915958
 20
114.217096
 30
0.0
 11
342.915958
 21
122.3
 31
0.0
  0
LINE
  5
32D
100
AcDbEntity
  8
LAY-1
  6
CONTINUOUS
 62
     2
100
AcDbLine
 10
342.915958
 20
115.344385
 30
0.0
 11
338.721783
 21
115.476192
 31
0.0
  0
LINE
  5
32E
100
AcDbEntity
  8
LAY-1
  6
CONTINUOUS
 62
     2
100
AcDbLine
 10
340.915958
 20
115.407237
 30
0.0
 11
340.915958
 21
122.3
 31
0.0
  0
LINE
  5
32F
100
AcDbEntity
  8
LAY-1
  6
CONTINUOUS
 62
     2
100
AcDbLine
 10
348.290743
 20
126.341452
 30
0.0
 11
342.915958
 21
126.341452
 31
0.0
  0
LINE
  5
330
100
AcDbEntity
  8
LAY-1
  6
CONTINUOUS
 62
     2
100
AcDbLine
 10
342.915958
 20
118.258548
 30
0.0
 11
348.290743
 21
118.258548
 31
0.0
  0
LINE
  5
331
100
AcDbEntity
  8
LAY-1
  6
CONTINUOUS
 62
     2
100
AcDbLine
 10
340.915958
 20
129.192763
 30
0.0
 11
340.915958
 21
122.3
 31
0.0
  0
LINE
  5
332
100
AcDbEntity
  8
LAY-1
  6
CONTINUOUS
 62
     2
100
AcDbLine
 10
247.009969
 20
262.086328
 30
0.0
 11
247.009969
 21
274.013672
 31
0.0
  0
LINE
  5
333
100
AcDbEntity
  8
LAY-1
  6
CONTINUOUS
 62
     2
100
AcDbLine
 10
233.349715
 20
274.013672
 30
0.0
 11
233.349715
 21
262.086328
 31
0.0
  0
LINE
  5
334
100
AcDbEntity
  8
LAY-1
  6
CONTINUOUS
 62
     2
100
AcDbLine
 10
204.482202
 20
262.086328
 30
0.0
 11
204.482202
 21
274.013672
 31
0.0
  0
LINE
  5
335
100
AcDbEntity
  8
LAY-1
  6
CONTINUOUS
 62
     2
100
AcDbLine
 10
190.821947
 20
274.013672
 30
0.0
 11
190.821947
 21
262.086328
 31
0.0
  0
LINE
  5
336
100
AcDbEntity
  8
LAY-1
  6
CONTINUOUS
 62
     2
100
AcDbLine
 10
190.821947
 20
262.086328
 30
0.0
 11
193.915958
 21
260.3
 31
0.0
  0
LINE
  5
337
100
AcDbEntity
  8
LAY-1
  6
CONTINUOUS
 62
     2
100
AcDbLine
 10
193.915958
 20
260.3
 30
0.0
 11
243.915958
 21
260.3
 31
0.0
  0
ARC
  5
338
100
AcDbEntity
  8
LAY-1
  6
CONTINUOUS
 62
     2
100
AcDbCircle
 10
218.915958
 20
319.506458
 30
0.0
 40
59.206458
100
AcDbArc
 50
255.889847
 51
284.110153
  0
LINE
  5
339
100
AcDbEntity
  8
LAY-1
  6
CONTINUOUS
 62
     2
100
AcDbLine
 10
243.915958
 20
260.3
 30
0.0
 11
247.009969
 21
262.086328
 31
0.0
  0
ARC
  5
33A
100
AcDbEntity
  8
LAY-1
  6
CONTINUOUS
 62
     2
100
AcDbCircle
 10
197.652074
 20
274.250855
 30
0.0
 40
13.950855
100
AcDbArc
 50
240.686701
 51
299.313299
  0
ARC
  5
33B
100
AcDbEntity
  8
LAY-1
  6
CONTINUOUS
 62
     2
100
AcDbCircle
 10
240.179842
 20
261.849145
 30
0.0
 40
13.950855
100
AcDbArc
 50
60.686701
 51
119.313299
  0
ARC
  5
33C
100
AcDbEntity
  8
LAY-1
  6
CONTINUOUS
 62
     2
100
AcDbCircle
 10
240.179842
 20
274.250855
 30
0.0
 40
13.950855
100
AcDbArc
 50
240.686701
 51
299.313299
  0
ARC
  5
33D
100
AcDbEntity
  8
LAY-1
  6
CONTINUOUS
 62
     2
100
AcDbCircle
 10
197.652074
 20
261.849145
 30
0.0
 40
13.950855
100
AcDbArc
 50
60.686701
 51
119.313299
  0
LINE
  5
33E
100
AcDbEntity
  8
LAY-1
  6
CONTINUOUS
 62
     2
100
AcDbLine
 10
342.915958
 20
129.255615
 30
0.0
 11
338.721783
 21
129.123808
 31
0.0
  0
LINE
  5
33F
100
AcDbEntity
  8
LAY-1
  6
CONTINUOUS
 62
     2
100
AcDbLine
 10
243.915958
 20
275.8
 30
0.0
 11
247.009969
 21
274.013672
 31
0.0
  0
LINE
  5
340
100
AcDbEntity
  8
LAY-1
  6
CONTINUOUS
 62
     2
100
AcDbLine
 10
342.915958
 20
130.382904
 30
0.0
 11
342.915958
 21
122.3
 31
0.0
  0
ARC
  5
341
100
AcDbEntity
  8
LAY-1
  6
CONTINUOUS
 62
     2
100
AcDbCircle
 10
190.915958
 20
258.3
 30
0.0
 40
2.0
100
AcDbArc
 50
90.0
 51
180.0
  0
ARC
  5
342
100
AcDbEntity
  8
LAY-1
  6
CONTINUOUS
 62
     2
100
AcDbCircle
 10
246.915958
 20
258.3
 30
0.0
 40
2.0
100
AcDbArc
 50
0.0
 51
90.0
  0
LINE
  5
343
100
AcDbEntity
  8
LAY-1
  6
CONTINUOUS
 62
     2
100
AcDbLine
 10
248.915958
 20
258.3
 30
0.0
 11
248.915958
 21
238.4895
 31
0.0
  0
LINE
  5
344
100
AcDbEntity
  8
LAY-1
  6
CONTINUOUS
 62
     2
100
AcDbLine
 10
190.915958
 20
260.3
 30
0.0
 11
246.915958
 21
260.3
 31
0.0
  0
LINE
  5
345
100
AcDbEntity
  8
LAY-1
  6
CONTINUOUS
 62
     2
100
AcDbLine
 10
188.915958
 20
238.4895
 30
0.0
 11
188.915958
 21
258.3
 31
0.0
  0
ARC
  5
346
100
AcDbEntity
  8
LAY-1
  6
CONTINUOUS
 62
     2
100
AcDbCircle
 10
218.915958
 20
216.593542
 30
0.0
 40
59.206458
100
AcDbArc
 50
75.889847
 51
104.110153
  0
LINE
  5
347
100
AcDbEntity
  8
LAY-1
  6
CONTINUOUS
 62
     2
100
AcDbLine
 10
193.915958
 20
275.8
 30
0.0
 11
243.915958
 21
275.8
 31
0.0
  0
LINE
  5
348
100
AcDbEntity
  8
LAY-1
  6
CONTINUOUS
 62
     2
100
AcDbLine
 10
348.290743
 20
130.382904
 30
0.0
 11
342.915958
 21
130.382904
 31
0.0
  0
LINE
  5
349
100
AcDbEntity
  8
LAY-1
  6
CONTINUOUS
 62
     2
100
AcDbLine
 10
348.915958
 20
122.3
 30
0.0
 11
348.915958
 21
129.3
 31
0.0
  0
LINE
  5
34A
100
AcDbEntity
  8
LAY-1
  6
CONTINUOUS
 62
     2
100
AcDbLine
 10
190.821947
 20
274.013672
 30
0.0
 11
193.915958
 21
275.8
 31
0.0
  0
LINE
  5
34B
100
AcDbEntity
  8
LAY-1
  6
CONTINUOUS
 62
     2
100
AcDbLine
 10
235.915958
 20
329.6
 30
0.0
 11
201.915958
 21
329.6
 31
0.0
  0
LINE
  5
34C
100
AcDbEntity
  8
LAY-1
  6
CONTINUOUS
 62
     2
100
AcDbLine
 10
281.415958
 20
334.1
 30
0.0
 11
218.915958
 21
334.1
 31
0.0
  0
LINE
  5
34D
100
AcDbEntity
  8
LAY-1
  6
CONTINUOUS
 62
     2
100
AcDbLine
 10
235.915958
 20
329.6
 30
0.0
 11
235.915958
 21
287.748604
 31
0.0
  0
LINE
  5
34E
100
AcDbEntity
  8
LAY-1
  6
CONTINUOUS
 62
     2
100
AcDbLine
 10
281.415958
 20
348.1
 30
0.0
 11
218.915958
 21
348.1
 31
0.0
  0
LINE
  5
34F
100
AcDbEntity
  8
LAY-1
  6
CONTINUOUS
 62
     2
100
AcDbLine
 10
281.415958
 20
348.1
 30
0.0
 11
281.415958
 21
334.1
 31
0.0
  0
LINE
  5
350
100
AcDbEntity
  8
LAY-1
  6
CONTINUOUS
 62
     2
100
AcDbLine
 10
240.415958
 20
334.1
 30
0.0
 11
235.915958
 21
329.6
 31
0.0
  0
LINE
  5
351
100
AcDbEntity
  8
LAY-1
  6
CONTINUOUS
 62
     2
100
AcDbLine
 10
235.915958
 20
287.748604
 30
0.0
 11
235.540458
 21
275.8
 31
0.0
  0
LINE
  5
352
100
AcDbEntity
  8
LAY-1
  6
CONTINUOUS
 62
     2
100
AcDbLine
 10
202.062047
 20
283.1
 30
0.0
 11
235.777976
 21
283.1
 31
0.0
  0
LINE
  5
353
100
AcDbEntity
  8
LAY-1
  6
CONTINUOUS
 62
     2
100
AcDbLine
 10
201.915958
 20
287.748604
 30
0.0
 11
202.291458
 21
275.8
 31
0.0
  0
LINE
  5
354
100
AcDbEntity
  8
LAY-1
  6
CONTINUOUS
 62
     2
100
AcDbLine
 10
197.415958
 20
334.1
 30
0.0
 11
201.915958
 21
329.6
 31
0.0
  0
LINE
  5
355
100
AcDbEntity
  8
LAY-1
  6
CONTINUOUS
 62
     2
100
AcDbLine
 10
156.415958
 20
348.1
 30
0.0
 11
156.415958
 21
334.1
 31
0.0
  0
LINE
  5
356
100
AcDbEntity
  8
LAY-1
  6
CONTINUOUS
 62
     2
100
AcDbLine
 10
156.415958
 20
348.1
 30
0.0
 11
218.915958
 21
348.1
 31
0.0
  0
LINE
  5
357
100
AcDbEntity
  8
LAY-1
  6
CONTINUOUS
 62
     2
100
AcDbLine
 10
201.915958
 20
329.6
 30
0.0
 11
201.915958
 21
287.748604
 31
0.0
  0
LINE
  5
358
100
AcDbEntity
  8
LAY-1
  6
CONTINUOUS
 62
     2
100
AcDbLine
 10
156.415958
 20
334.1
 30
0.0
 11
218.915958
 21
334.1
 31
0.0
  0
LINE
  5
359
100
AcDbEntity
  8
LAY-1
  6
CONTINUOUS
 62
     2
100
AcDbLine
 10
348.915958
 20
129.3
 30
0.0
 11
348.290743
 21
130.382904
 31
0.0
  0
ARC
  5
35A
100
AcDbEntity
  8
LAY-1
  6
CONTINUOUS
 62
     2
100
AcDbCircle
 10
218.915958
 20
122.3
 30
0.0
 40
100.796085
100
AcDbArc
 50
8.861963
 51
18.801834
  0
CIRCLE
  5
35B
100
AcDbEntity
  8
LAY-1
  6
CONTINUOUS
 62
     2
100
AcDbCircle
 10
298.915958
 20
122.3
 30
0.0
 40
22.25
  0
CIRCLE
  5
35C
100
AcDbEntity
  8
LAY-1
  6
CONTINUOUS
 62
     2
100
AcDbCircle
 10
298.915958
 20
122.3
 30
0.0
 40
25.0
  0
CIRCLE
  5
35D
100
AcDbEntity
  8
LAY-1
  6
CONTINUOUS
 62
     2
100
AcDbCircle
 10
201.415958
 20
55.3
 30
0.0
 40
1.0
  0
CIRCLE
  5
35E
100
AcDbEntity
  8
LAY-1
  6
CONTINUOUS
 62
     2
100
AcDbCircle
 10
236.415958
 20
55.3
 30
0.0
 40
1.0
  0
LINE
  5
35F
100
AcDbEntity
  8
LAY-1
  6
CONTINUOUS
 62
     2
100
AcDbLine
 10
194.415958
 20
68.8
 30
0.0
 11
243.415958
 21
68.8
 31
0.0
  0
LINE
  5
360
100
AcDbEntity
  8
LAY-1
  6
CONTINUOUS
 62
     2
100
AcDbLine
 10
194.415958
 20
41.8
 30
0.0
 11
194.415958
 21
68.8
 31
0.0
  0
LINE
  5
361
100
AcDbEntity
  8
LAY-1
  6
CONTINUOUS
 62
     2
100
AcDbLine
 10
243.415958
 20
41.8
 30
0.0
 11
194.415958
 21
41.8
 31
0.0
  0
LINE
  5
362
100
AcDbEntity
  8
LAY-1
  6
CONTINUOUS
 62
     2
100
AcDbLine
 10
243.415958
 20
68.8
 30
0.0
 11
243.415958
 21
41.8
 31
0.0
  0
ARC
  5
363
100
AcDbEntity
  8
LAY-1
  6
CONTINUOUS
 62
     2
100
AcDbCircle
 10
218.915958
 20
122.3
 30
0.0
 40
100.796085
100
AcDbArc
 50
116.198166
 51
153.801834
  0
ARC
  5
364
100
AcDbEntity
  8
LAY-1
  6
CONTINUOUS
 62
     2
100
AcDbCircle
 10
218.915958
 20
122.3
 30
0.0
 40
100.796085
100
AcDbArc
 50
71.198166
 51
108.801834
  0
ARC
  5
365
100
AcDbEntity
  8
LAY-1
  6
CONTINUOUS
 62
     2
100
AcDbCircle
 10
218.915958
 20
122.3
 30
0.0
 40
100.796085
100
AcDbArc
 50
26.198166
 51
63.801834
  0
ARC
  5
366
100
AcDbEntity
  8
LAY-1
  6
CONTINUOUS
 62
     2
100
AcDbCircle
 10
218.915958
 20
122.3
 30
0.0
 40
100.796085
100
AcDbArc
 50
341.198166
 51
351.138037
  0
ARC
  5
367
100
AcDbEntity
  8
LAY-1
  6
CONTINUOUS
 62
     2
100
AcDbCircle
 10
218.915958
 20
122.3
 30
0.0
 40
100.796085
100
AcDbArc
 50
296.198166
 51
333.801834
  0
ARC
  5
368
100
AcDbEntity
  8
LAY-1
  6
CONTINUOUS
 62
     2
100
AcDbCircle
 10
173.185288
 20
232.703604
 30
0.0
 40
20.0
100
AcDbArc
 50
273.530234
 51
311.469766
  0
ARC
  5
369
100
AcDbEntity
  8
LAY-1
  6
CONTINUOUS
 62
     2
100
AcDbCircle
 10
108.512354
 20
76.56933
 30
0.0
 40
20.0
100
AcDbArc
 50
3.530234
 51
41.469766
  0
ARC
  5
36A
100
AcDbEntity
  8
LAY-1
  6
CONTINUOUS
 62
     2
100
AcDbCircle
 10
173.185288
 20
11.896396
 30
0.0
 40
20.0
100
AcDbArc
 50
48.530234
 51
86.469766
  0
ARC
  5
36B
100
AcDbEntity
  8
LAY-1
  6
CONTINUOUS
 62
     2
100
AcDbCircle
 10
218.915958
 20
122.3
 30
0.0
 40
100.796085
100
AcDbArc
 50
206.198166
 51
243.801834
  0
ARC
  5
36C
100
AcDbEntity
  8
LAY-1
  6
CONTINUOUS
 62
     2
100
AcDbCircle
 10
264.646628
 20
232.703604
 30
0.0
 40
20.0
100
AcDbArc
 50
228.530234
 51
266.469766
  0
ARC
  5
36D
100
AcDbEntity
  8
LAY-1
  6
CONTINUOUS
 62
     2
100
AcDbCircle
 10
264.646628
 20
11.896396
 30
0.0
 40
20.0
100
AcDbArc
 50
93.530234
 51
131.469766
  0
ARC
  5
36E
100
AcDbEntity
  8
LAY-1
  6
CONTINUOUS
 62
     2
100
AcDbCircle
 10
329.319562
 20
168.03067
 30
0.0
 40
20.0
100
AcDbArc
 50
183.530234
 51
221.469766
  0
ARC
  5
36F
100
AcDbEntity
  8
LAY-1
  6
CONTINUOUS
 62
     2
100
AcDbCircle
 10
218.915958
 20
122.3
 30
0.0
 40
100.796085
100
AcDbArc
 50
251.198166
 51
288.801834
  0
ARC
  5
370
100
AcDbEntity
  8
LAY-1
  6
CONTINUOUS
 62
     2
100
AcDbCircle
 10
329.319562
 20
76.56933
 30
0.0
 40
20.0
100
AcDbArc
 50
138.530234
 51
176.469766
  0
ARC
  5
371
100
AcDbEntity
  8
LAY-1
  6
CONTINUOUS
 62
     2
100
AcDbCircle
 10
108.512354
 20
168.03067
 30
0.0
 40
20.0
100
AcDbArc
 50
318.530234
 51
356.469766
  0
CIRCLE
  5
372
100
AcDbEntity
  8
LAY-1
  6
CONTINUOUS
 62
     2
100
AcDbCircle
 10
218.915958
 20
122.3
 30
0.0
 40
120.0
  0
LINE
  5
373
100
AcDbEntity
  8
LAY-1
  6
CONTINUOUS
 62
     2
100
AcDbLine
 10
240.915958
 20
115.896876
 30
0.0
 11
240.915958
 21
122.3
 31
0.0
  0
ARC
  5
374
100
AcDbEntity
  8
LAY-1
  6
CONTINUOUS
 62
     2
100
AcDbCircle
 10
238.915958
 20
115.896876
 30
0.0
 40
2.0
100
AcDbArc
 50
342.24721
 51
0.0
  0
ARC
  5
375
100
AcDbEntity
  8
LAY-1
  6
CONTINUOUS
 62
     2
100
AcDbCircle
 10
218.915958
 20
122.3
 30
0.0
 40
23.0
100
AcDbArc
 50
332.75279
 51
342.24721
  0
ARC
  5
376
100
AcDbEntity
  8
LAY-1
  6
CONTINUOUS
 62
     2
100
AcDbCircle
 10
237.585786
 20
112.685557
 30
0.0
 40
2.0
100
AcDbArc
 50
315.0
 51
332.75279
  0
LINE
  5
377
100
AcDbEntity
  8
LAY-1
  6
CONTINUOUS
 62
     2
100
AcDbLine
 10
229.944615
 20
102.215958
 30
0.0
 11
239.0
 21
111.271343
 31
0.0
  0
ARC
  5
378
100
AcDbEntity
  8
LAY-1
  6
CONTINUOUS
 62
     2
100
AcDbCircle
 10
228.530401
 20
103.630172
 30
0.0
 40
2.0
100
AcDbArc
 50
297.24721
 51
315.0
  0
ARC
  5
379
100
AcDbEntity
  8
LAY-1
  6
CONTINUOUS
 62
     2
100
AcDbCircle
 10
225.319082
 20
102.3
 30
0.0
 40
2.0
100
AcDbArc
 50
270.0
 51
287.75279
  0
LINE
  5
37A
100
AcDbEntity
  8
LAY-1
  6
CONTINUOUS
 62
     2
100
AcDbLine
 10
212.512834
 20
100.3
 30
0.0
 11
225.319082
 21
100.3
 31
0.0
  0
ARC
  5
37B
100
AcDbEntity
  8
LAY-1
  6
CONTINUOUS
 62
     2
100
AcDbCircle
 10
212.512834
 20
102.3
 30
0.0
 40
2.0
100
AcDbArc
 50
252.24721
 51
270.0
  0
ARC
  5
37C
100
AcDbEntity
  8
LAY-1
  6
CONTINUOUS
 62
     2
100
AcDbCircle
 10
218.915958
 20
122.3
 30
0.0
 40
23.0
100
AcDbArc
 50
242.75279
 51
252.24721
  0
ARC
  5
37D
100
AcDbEntity
  8
LAY-1
  6
CONTINUOUS
 62
     2
100
AcDbCircle
 10
209.301515
 20
103.630172
 30
0.0
 40
2.0
100
AcDbArc
 50
225.0
 51
242.75279
  0
LINE
  5
37E
100
AcDbEntity
  8
LAY-1
  6
CONTINUOUS
 62
     2
100
AcDbLine
 10
198.831916
 20
111.271343
 30
0.0
 11
207.887302
 21
102.215958
 31
0.0
  0
ARC
  5
37F
100
AcDbEntity
  8
LAY-1
  6
CONTINUOUS
 62
     2
100
AcDbCircle
 10
200.24613
 20
112.685557
 30
0.0
 40
2.0
100
AcDbArc
 50
207.24721
 51
225.0
  0
LINE
  5
380
100
AcDbEntity
  8
LAY-1
  6
CONTINUOUS
 62
     2
100
AcDbLine
 10
196.915958
 20
122.3
 30
0.0
 11
196.915958
 21
115.896876
 31
0.0
  0
ARC
  5
381
100
AcDbEntity
  8
LAY-1
  6
CONTINUOUS
 62
     2
100
AcDbCircle
 10
218.915958
 20
122.3
 30
0.0
 40
23.0
100
AcDbArc
 50
197.75279
 51
207.24721
  0
ARC
  5
382
100
AcDbEntity
  8
LAY-1
  6
CONTINUOUS
 62
     2
100
AcDbCircle
 10
198.915958
 20
115.896876
 30
0.0
 40
2.0
100
AcDbArc
 50
180.0
 51
197.75279
  0
LINE
  5
383
100
AcDbEntity
  8
LAY-1
  6
CONTINUOUS
 62
     2
100
AcDbLine
 10
240.915958
 20
128.703124
 30
0.0
 11
240.915958
 21
122.3
 31
0.0
  0
ARC
  5
384
100
AcDbEntity
  8
LAY-1
  6
CONTINUOUS
 62
     2
100
AcDbCircle
 10
238.915958
 20
128.703124
 30
0.0
 40
2.0
100
AcDbArc
 50
0.0
 51
17.75279
  0
ARC
  5
385
100
AcDbEntity
  8
LAY-1
  6
CONTINUOUS
 62
     2
100
AcDbCircle
 10
218.915958
 20
122.3
 30
0.0
 40
23.0
100
AcDbArc
 50
17.75279
 51
27.24721
  0
ARC
  5
386
100
AcDbEntity
  8
LAY-1
  6
CONTINUOUS
 62
     2
100
AcDbCircle
 10
237.585786
 20
131.914443
 30
0.0
 40
2.0
100
AcDbArc
 50
27.24721
 51
45.0
  0
LINE
  5
387
100
AcDbEntity
  8
LAY-1
  6
CONTINUOUS
 62
     2
100
AcDbLine
 10
229.944615
 20
142.384042
 30
0.0
 11
239.0
 21
133.328657
 31
0.0
  0
ARC
  5
388
100
AcDbEntity
  8
LAY-1
  6
CONTINUOUS
 62
     2
100
AcDbCircle
 10
228.530401
 20
140.969828
 30
0.0
 40
2.0
100
AcDbArc
 50
45.0
 51
62.75279
  0
ARC
  5
389
100
AcDbEntity
  8
LAY-1
  6
CONTINUOUS
 62
     2
100
AcDbCircle
 10
218.915958
 20
122.3
 30
0.0
 40
23.0
100
AcDbArc
 50
62.75279
 51
72.24721
  0
ARC
  5
38A
100
AcDbEntity
  8
LAY-1
  6
CONTINUOUS
 62
     2
100
AcDbCircle
 10
225.319082
 20
142.3
 30
0.0
 40
2.0
100
AcDbArc
 50
72.24721
 51
90.0
  0
LINE
  5
38B
100
AcDbEntity
  8
LAY-1
  6
CONTINUOUS
 62
     2
100
AcDbLine
 10
212.512834
 20
144.3
 30
0.0
 11
225.319082
 21
144.3
 31
0.0
  0
ARC
  5
38C
100
AcDbEntity
  8
LAY-1
  6
CONTINUOUS
 62
     2
100
AcDbCircle
 10
212.512834
 20
142.3
 30
0.0
 40
2.0
100
AcDbArc
 50
90.0
 51
107.75279
  0
ARC
  5
38D
100
AcDbEntity
  8
LAY-1
  6
CONTINUOUS
 62
     2
100
AcDbCircle
 10
218.915958
 20
122.3
 30
0.0
 40
23.0
100
AcDbArc
 50
107.75279
 51
117.24721
  0
ARC
  5
38E
100
AcDbEntity
  8
LAY-1
  6
CONTINUOUS
 62
     2
100
AcDbCircle
 10
209.301515
 20
140.969828
 30
0.0
 40
2.0
100
AcDbArc
 50
117.24721
 51
135.0
  0
LINE
  5
38F
100
AcDbEntity
  8
LAY-1
  6
CONTINUOUS
 62
     2
100
AcDbLine
 10
198.831916
 20
133.328657
 30
0.0
 11
207.887302
 21
142.384042
 31
0.0
  0
ARC
  5
390
100
AcDbEntity
  8
LAY-1
  6
CONTINUOUS
 62
     2
100
AcDbCircle
 10
200.24613
 20
131.914443
 30
0.0
 40
2.0
100
AcDbArc
 50
135.0
 51
152.75279
  0
LINE
  5
391
100
AcDbEntity
  8
LAY-1
  6
CONTINUOUS
 62
     2
100
AcDbLine
 10
196.915958
 20
122.3
 30
0.0
 11
196.915958
 21
128.703124
 31
0.0
  0
ARC
  5
392
100
AcDbEntity
  8
LAY-1
  6
CONTINUOUS
 62
     2
100
AcDbCircle
 10
218.915958
 20
122.3
 30
0.0
 40
23.0
100
AcDbArc
 50
152.75279
 51
162.24721
  0
ARC
  5
393
100
AcDbEntity
  8
LAY-1
  6
CONTINUOUS
 62
     2
100
AcDbCircle
 10
198.915958
 20
128.703124
 30
0.0
 40
2.0
100
AcDbArc
 50
162.24721
 51
180.0
  0
ARC
  5
394
100
AcDbEntity
  8
LAY-1
  6
CONTINUOUS
 62
     2
100
AcDbCircle
 10
218.915958
 20
122.3
 30
0.0
 40
23.0
100
AcDbArc
 50
287.75279
 51
297.24721
  0
CIRCLE
  5
395
100
AcDbEntity
  8
LAY-1
  6
CONTINUOUS
 62
     2
100
AcDbCircle
 10
218.915958
 20
122.3
 30
0.0
 40
28.0
  0
LINE
  5
396
100
AcDbEntity
  8
LAY-1
  6
CONTINUOUS
 62
     2
100
AcDbLine
 10
740.915958
 20
24.3
 30
0.0
 11
684.915958
 21
24.3
 31
0.0
  0
LINE
  5
397
100
AcDbEntity
  8
LAY-1
  6
CONTINUOUS
 62
     2
100
AcDbLine
 10
691.036213
 20
39.241464
 30
0.0
 11
700.80422
 21
95.407503
 31
0.0
  0
LINE
  5
398
100
AcDbEntity
  8
LAY-1
  6
CONTINUOUS
 62
     2
100
AcDbLine
 10
691.036213
 20
205.358536
 30
0.0
 11
700.80422
 21
149.192497
 31
0.0
  0
LINE
  5
399
100
AcDbEntity
  8
LAY-1
  6
CONTINUOUS
 62
     2
100
AcDbLine
 10
693.655089
 20
54.3
 30
0.0
 11
740.915958
 21
54.3
 31
0.0
  0
LINE
  5
39A
100
AcDbEntity
  8
LAY-1
  6
CONTINUOUS
 62
     2
100
AcDbLine
 10
650.615958
 20
242.3
 30
0.0
 11
661.915958
 21
242.3
 31
0.0
  0
ARC
  5
39B
100
AcDbEntity
  8
LAY-1
  6
CONTINUOUS
 62
     2
100
AcDbCircle
 10
650.615958
 20
241.8
 30
0.0
 40
0.5
100
AcDbArc
 50
90.0
 51
180.0
  0
ARC
  5
39C
100
AcDbEntity
  8
LAY-1
  6
CONTINUOUS
 62
     2
100
AcDbCircle
 10
650.615958
 20
2.8
 30
0.0
 40
0.5
100
AcDbArc
 50
180.0
 51
270.0
  0
LINE
  5
39D
100
AcDbEntity
  8
LAY-1
  6
CONTINUOUS
 62
     2
100
AcDbLine
 10
650.615958
 20
2.3
 30
0.0
 11
661.915958
 21
2.3
 31
0.0
  0
LINE
  5
39E
100
AcDbEntity
  8
LAY-1
  6
CONTINUOUS
 62
     2
100
AcDbLine
 10
661.915958
 20
1.8
 30
0.0
 11
672.915958
 21
1.8
 31
0.0
  0
LINE
  5
39F
100
AcDbEntity
  8
LAY-1
  6
CONTINUOUS
 62
     2
100
AcDbLine
 10
682.915958
 20
242.8
 30
0.0
 11
661.915958
 21
242.8
 31
0.0
  0
ARC
  5
3A0
100
AcDbEntity
  8
LAY-1
  6
CONTINUOUS
 62
     2
100
AcDbCircle
 10
736.915958
 20
101.3
 30
0.0
 40
1.0
100
AcDbArc
 50
90.0
 51
180.0
  0
ARC
  5
3A1
100
AcDbEntity
  8
LAY-1
  6
CONTINUOUS
 62
     2
100
AcDbCircle
 10
739.915958
 20
230.8
 30
0.0
 40
2.0
100
AcDbArc
 50
90.0
 51
180.0
  0
ARC
  5
3A2
100
AcDbEntity
  8
LAY-1
  6
CONTINUOUS
 62
     2
100
AcDbCircle
 10
740.915958
 20
234.8
 30
0.0
 40
2.0
100
AcDbArc
 50
270.0
 51
0.0
  0
ARC
  5
3A3
100
AcDbEntity
  8
LAY-1
  6
CONTINUOUS
 62
     2
100
AcDbCircle
 10
737.915958
 20
56.3
 30
0.0
 40
2.0
100
AcDbArc
 50
180.0
 51
270.0
  0
ARC
  5
3A4
100
AcDbEntity
  8
LAY-1
  6
CONTINUOUS
 62
     2
100
AcDbCircle
 10
740.915958
 20
52.3
 30
0.0
 40
2.0
100
AcDbArc
 50
0.0
 51
90.0
  0
ARC
  5
3A5
100
AcDbEntity
  8
LAY-1
  6
CONTINUOUS
 62
     2
100
AcDbCircle
 10
740.915958
 20
26.3
 30
0.0
 40
2.0
100
AcDbArc
 50
270.0
 51
0.0
  0
LINE
  5
3A6
100
AcDbEntity
  8
LAY-1
  6
CONTINUOUS
 62
     2
100
AcDbLine
 10
742.915958
 20
234.8
 30
0.0
 11
742.915958
 21
258.3
 31
0.0
  0
LINE
  5
3A7
100
AcDbEntity
  8
LAY-1
  6
CONTINUOUS
 62
     2
100
AcDbLine
 10
737.915958
 20
208.3
 30
0.0
 11
737.915958
 21
230.8
 31
0.0
  0
LINE
  5
3A8
100
AcDbEntity
  8
LAY-1
  6
CONTINUOUS
 62
     2
100
AcDbLine
 10
735.931458
 20
143.315265
 30
0.0
 11
736.915958
 21
207.8
 31
0.0
  0
ARC
  5
3A9
100
AcDbEntity
  8
LAY-1
  6
CONTINUOUS
 62
     2
100
AcDbCircle
 10
737.415958
 20
208.3
 30
0.0
 40
0.5
100
AcDbArc
 50
270.0
 51
0.0
  0
LINE
  5
3AA
100
AcDbEntity
  8
LAY-1
  6
CONTINUOUS
 62
     2
100
AcDbLine
 10
736.915958
 20
102.3
 30
0.0
 11
736.915958
 21
142.3
 31
0.0
  0
ARC
  5
3AB
100
AcDbEntity
  8
LAY-1
  6
CONTINUOUS
 62
     2
100
AcDbCircle
 10
736.931342
 20
143.3
 30
0.0
 40
1.0
100
AcDbArc
 50
179.125323
 51
270.0
  0
LINE
  5
3AC
100
AcDbEntity
  8
LAY-1
  6
CONTINUOUS
 62
     2
100
AcDbLine
 10
735.915958
 20
56.3
 30
0.0
 11
735.915958
 21
101.3
 31
0.0
  0
LINE
  5
3AD
100
AcDbEntity
  8
LAY-1
  6
CONTINUOUS
 62
     2
100
AcDbLine
 10
742.915958
 20
26.3
 30
0.0
 11
742.915958
 21
52.3
 31
0.0
  0
LINE
  5
3AE
100
AcDbEntity
  8
LAY-1
  6
CONTINUOUS
 62
     2
100
AcDbLine
 10
682.915958
 20
258.3
 30
0.0
 11
682.915958
 21
242.8
 31
0.0
  0
LINE
  5
3AF
100
AcDbEntity
  8
LAY-1
  6
CONTINUOUS
 62
     2
100
AcDbLine
 10
661.115958
 20
2.3
 30
0.0
 11
661.115958
 21
242.3
 31
0.0
  0
LINE
  5
3B0
100
AcDbEntity
  8
LAY-1
  6
CONTINUOUS
 62
     2
100
AcDbLine
 10
684.821947
 20
262.086328
 30
0.0
 11
684.821947
 21
274.013672
 31
0.0
  0
LINE
  5
3B1
100
AcDbEntity
  8
LAY-1
  6
CONTINUOUS
 62
     2
100
AcDbLine
 10
698.482202
 20
274.013672
 30
0.0
 11
698.482202
 21
262.086328
 31
0.0
  0
LINE
  5
3B2
100
AcDbEntity
  8
LAY-1
  6
CONTINUOUS
 62
     2
100
AcDbLine
 10
727.349715
 20
262.086328
 30
0.0
 11
727.349715
 21
274.013672
 31
0.0
  0
LINE
  5
3B3
100
AcDbEntity
  8
LAY-1
  6
CONTINUOUS
 62
     2
100
AcDbLine
 10
741.009969
 20
274.013672
 30
0.0
 11
741.009969
 21
262.086328
 31
0.0
  0
LINE
  5
3B4
100
AcDbEntity
  8
LAY-1
  6
CONTINUOUS
 62
     2
100
AcDbLine
 10
741.009969
 20
262.086328
 30
0.0
 11
737.915958
 21
260.3
 31
0.0
  0
LINE
  5
3B5
100
AcDbEntity
  8
LAY-1
  6
CONTINUOUS
 62
     2
100
AcDbLine
 10
737.915958
 20
260.3
 30
0.0
 11
687.915958
 21
260.3
 31
0.0
  0
ARC
  5
3B6
100
AcDbEntity
  8
LAY-1
  6
CONTINUOUS
 62
     2
100
AcDbCircle
 10
712.915958
 20
319.506458
 30
0.0
 40
59.206458
100
AcDbArc
 50
255.889847
 51
284.110153
  0
LINE
  5
3B7
100
AcDbEntity
  8
LAY-1
  6
CONTINUOUS
 62
     2
100
AcDbLine
 10
687.915958
 20
260.3
 30
0.0
 11
684.821947
 21
262.086328
 31
0.0
  0
ARC
  5
3B8
100
AcDbEntity
  8
LAY-1
  6
CONTINUOUS
 62
     2
100
AcDbCircle
 10
734.179842
 20
274.250855
 30
0.0
 40
13.950855
100
AcDbArc
 50
240.686701
 51
299.313299
  0
ARC
  5
3B9
100
AcDbEntity
  8
LAY-1
  6
CONTINUOUS
 62
     2
100
AcDbCircle
 10
691.652074
 20
261.849145
 30
0.0
 40
13.950855
100
AcDbArc
 50
60.686701
 51
119.313299
  0
ARC
  5
3BA
100
AcDbEntity
  8
LAY-1
  6
CONTINUOUS
 62
     2
100
AcDbCircle
 10
691.652074
 20
274.250855
 30
0.0
 40
13.950855
100
AcDbArc
 50
240.686701
 51
299.313299
  0
ARC
  5
3BB
100
AcDbEntity
  8
LAY-1
  6
CONTINUOUS
 62
     2
100
AcDbCircle
 10
734.179842
 20
261.849145
 30
0.0
 40
13.950855
100
AcDbArc
 50
60.686701
 51
119.313299
  0
LINE
  5
3BC
100
AcDbEntity
  8
LAY-1
  6
CONTINUOUS
 62
     2
100
AcDbLine
 10
687.915958
 20
275.8
 30
0.0
 11
684.821947
 21
274.013672
 31
0.0
  0
ARC
  5
3BD
100
AcDbEntity
  8
LAY-1
  6
CONTINUOUS
 62
     2
100
AcDbCircle
 10
740.915958
 20
258.3
 30
0.0
 40
2.0
100
AcDbArc
 50
0.0
 51
90.0
  0
ARC
  5
3BE
100
AcDbEntity
  8
LAY-1
  6
CONTINUOUS
 62
     2
100
AcDbCircle
 10
684.915958
 20
258.3
 30
0.0
 40
2.0
100
AcDbArc
 50
90.0
 51
180.0
  0
LINE
  5
3BF
100
AcDbEntity
  8
LAY-1
  6
CONTINUOUS
 62
     2
100
AcDbLine
 10
740.915958
 20
260.3
 30
0.0
 11
684.915958
 21
260.3
 31
0.0
  0
LINE
  5
3C0
100
AcDbEntity
  8
LAY-1
  6
CONTINUOUS
 62
     2
100
AcDbLine
 10
742.915958
 20
238.4895
 30
0.0
 11
742.915958
 21
258.3
 31
0.0
  0
ARC
  5
3C1
100
AcDbEntity
  8
LAY-1
  6
CONTINUOUS
 62
     2
100
AcDbCircle
 10
712.915958
 20
216.593542
 30
0.0
 40
59.206458
100
AcDbArc
 50
75.889847
 51
104.110153
  0
LINE
  5
3C2
100
AcDbEntity
  8
LAY-1
  6
CONTINUOUS
 62
     2
100
AcDbLine
 10
737.915958
 20
275.8
 30
0.0
 11
687.915958
 21
275.8
 31
0.0
  0
LINE
  5
3C3
100
AcDbEntity
  8
LAY-1
  6
CONTINUOUS
 62
     2
100
AcDbLine
 10
741.009969
 20
274.013672
 30
0.0
 11
737.915958
 21
275.8
 31
0.0
  0
LINE
  5
3C4
100
AcDbEntity
  8
LAY-1
  6
CONTINUOUS
 62
     2
100
AcDbLine
 10
695.915958
 20
329.6
 30
0.0
 11
729.915958
 21
329.6
 31
0.0
  0
LINE
  5
3C5
100
AcDbEntity
  8
LAY-1
  6
CONTINUOUS
 62
     2
100
AcDbLine
 10
650.415958
 20
334.1
 30
0.0
 11
712.915958
 21
334.1
 31
0.0
  0
LINE
  5
3C6
100
AcDbEntity
  8
LAY-1
  6
CONTINUOUS
 62
     2
100
AcDbLine
 10
695.915958
 20
329.6
 30
0.0
 11
695.915958
 21
287.748604
 31
0.0
  0
LINE
  5
3C7
100
AcDbEntity
  8
LAY-1
  6
CONTINUOUS
 62
     2
100
AcDbLine
 10
650.415958
 20
348.1
 30
0.0
 11
712.915958
 21
348.1
 31
0.0
  0
LINE
  5
3C8
100
AcDbEntity
  8
LAY-1
  6
CONTINUOUS
 62
     2
100
AcDbLine
 10
650.415958
 20
348.1
 30
0.0
 11
650.415958
 21
334.1
 31
0.0
  0
LINE
  5
3C9
100
AcDbEntity
  8
LAY-1
  6
CONTINUOUS
 62
     2
100
AcDbLine
 10
691.415958
 20
334.1
 30
0.0
 11
695.915958
 21
329.6
 31
0.0
  0
LINE
  5
3CA
100
AcDbEntity
  8
LAY-1
  6
CONTINUOUS
 62
     2
100
AcDbLine
 10
695.915958
 20
287.748604
 30
0.0
 11
696.291458
 21
275.8
 31
0.0
  0
LINE
  5
3CB
100
AcDbEntity
  8
LAY-1
  6
CONTINUOUS
 62
     2
100
AcDbLine
 10
729.76987
 20
283.1
 30
0.0
 11
696.053941
 21
283.1
 31
0.0
  0
LINE
  5
3CC
100
AcDbEntity
  8
LAY-1
  6
CONTINUOUS
 62
     2
100
AcDbLine
 10
729.915958
 20
287.748604
 30
0.0
 11
729.540458
 21
275.8
 31
0.0
  0
LINE
  5
3CD
100
AcDbEntity
  8
LAY-1
  6
CONTINUOUS
 62
     2
100
AcDbLine
 10
734.415958
 20
334.1
 30
0.0
 11
729.915958
 21
329.6
 31
0.0
  0
LINE
  5
3CE
100
AcDbEntity
  8
LAY-1
  6
CONTINUOUS
 62
     2
100
AcDbLine
 10
775.415958
 20
348.1
 30
0.0
 11
775.415958
 21
334.1
 31
0.0
  0
LINE
  5
3CF
100
AcDbEntity
  8
LAY-1
  6
CONTINUOUS
 62
     2
100
AcDbLine
 10
775.415958
 20
348.1
 30
0.0
 11
712.915958
 21
348.1
 31
0.0
  0
LINE
  5
3D0
100
AcDbEntity
  8
LAY-1
  6
CONTINUOUS
 62
     2
100
AcDbLine
 10
729.915958
 20
329.6
 30
0.0
 11
729.915958
 21
287.748604
 31
0.0
  0
LINE
  5
3D1
100
AcDbEntity
  8
LAY-1
  6
CONTINUOUS
 62
     2
100
AcDbLine
 10
775.415958
 20
334.1
 30
0.0
 11
712.915958
 21
334.1
 31
0.0
  0
ARC
  5
3D2
100
AcDbEntity
  8
LAY-1
  6
CONTINUOUS
 62
     2
100
AcDbCircle
 10
685.915958
 20
230.8
 30
0.0
 40
2.0
100
AcDbArc
 50
0.0
 51
90.0
  0
ARC
  5
3D3
100
AcDbEntity
  8
LAY-1
  6
CONTINUOUS
 62
     2
100
AcDbCircle
 10
684.915958
 20
234.8
 30
0.0
 40
2.0
100
AcDbArc
 50
180.0
 51
270.0
  0
LINE
  5
3D4
100
AcDbEntity
  8
LAY-1
  6
CONTINUOUS
 62
     2
100
AcDbLine
 10
682.915958
 20
258.3
 30
0.0
 11
682.915958
 21
234.8
 31
0.0
  0
LINE
  5
3D5
100
AcDbEntity
  8
LAY-1
  6
CONTINUOUS
 62
     2
100
AcDbLine
 10
684.915958
 20
232.8
 30
0.0
 11
740.915958
 21
232.8
 31
0.0
  0
LINE
  5
3D6
100
AcDbEntity
  8
LAY-1
  6
CONTINUOUS
 62
     2
100
AcDbLine
 10
691.960958
 20
24.3
 30
0.0
 11
691.671875
 21
15.101228
 31
0.0
  0
LINE
  5
3D7
100
AcDbEntity
  8
LAY-1
  6
CONTINUOUS
 62
     2
100
AcDbLine
 10
733.870958
 20
24.3
 30
0.0
 11
734.160041
 21
15.101228
 31
0.0
  0
LINE
  5
3D8
100
AcDbEntity
  8
LAY-1
  6
CONTINUOUS
 62
     2
100
AcDbLine
 10
661.915958
 20
1.8
 30
0.0
 11
661.915958
 21
242.8
 31
0.0
  0
LINE
  5
3D9
100
AcDbEntity
  8
LAY-1
  6
CONTINUOUS
 62
     2
100
AcDbLine
 10
700.80422
 20
149.192497
 30
0.0
 11
700.80422
 21
95.407503
 31
0.0
  0
LINE
  5
3DA
100
AcDbEntity
  8
LAY-1
  6
CONTINUOUS
 62
     2
100
AcDbLine
 10
690.42967
 20
207.8
 30
0.0
 11
737.415958
 21
207.8
 31
0.0
  0
LINE
  5
3DB
100
AcDbEntity
  8
LAY-1
  6
CONTINUOUS
 62
     2
100
AcDbLine
 10
687.915958
 20
213.199449
 30
0.0
 11
687.915958
 21
230.8
 31
0.0
  0
LINE
  5
3DC
100
AcDbEntity
  8
LAY-1
  6
CONTINUOUS
 62
     2
100
AcDbLine
 10
650.115958
 20
241.8
 30
0.0
 11
650.115958
 21
2.8
 31
0.0
  0
ARC
  5
3DD
100
AcDbEntity
  8
LAY-1
  6
CONTINUOUS
 62
     2
100
AcDbCircle
 10
673.915958
 20
122.3
 30
0.0
 40
12.0
100
AcDbArc
 50
274.096044
 51
85.903956
  0
LINE
  5
3DE
100
AcDbEntity
  8
LAY-1
  6
CONTINUOUS
 62
     2
100
AcDbLine
 10
672.915958
 20
1.8
 30
0.0
 11
672.915958
 21
108.33576
 31
0.0
  0
LINE
  5
3DF
100
AcDbEntity
  8
LAY-1
  6
CONTINUOUS
 62
     2
100
AcDbLine
 10
672.915958
 20
136.26424
 30
0.0
 11
672.915958
 21
242.8
 31
0.0
  0
ARC
  5
3E0
100
AcDbEntity
  8
LAY-1
  6
CONTINUOUS
 62
     2
100
AcDbCircle
 10
246.753867
 20
-38.38696
 30
0.0
 40
11.51304
100
AcDbArc
 50
235.193995
 51
256.715751
  0
ARC
  5
3E1
100
AcDbEntity
  8
LAY-1
  6
CONTINUOUS
 62
     2
100
AcDbCircle
 10
257.889031
 20
-24.018256
 30
0.0
 40
16.118256
100
AcDbArc
 50
103.284249
 51
124.806005
  0
ARC
  5
3E2
100
AcDbEntity
  8
LAY-1
  6
CONTINUOUS
 62
     2
100
AcDbCircle
 10
257.889031
 20
-14.781744
 30
0.0
 40
16.118256
100
AcDbArc
 50
235.193995
 51
256.715751
  0
ARC
  5
3E3
100
AcDbEntity
  8
LAY-1
  6
CONTINUOUS
 62
     2
100
AcDbCircle
 10
239.488442
 20
-24.018256
 30
0.0
 40
16.118256
100
AcDbArc
 50
55.193995
 51
124.806005
  0
ARC
  5
3E4
100
AcDbEntity
  8
LAY-1
  6
CONTINUOUS
 62
     2
100
AcDbCircle
 10
239.488442
 20
-14.781744
 30
0.0
 40
16.118256
100
AcDbArc
 50
235.193995
 51
304.806005
  0
ARC
  5
3E5
100
AcDbEntity
  8
LAY-1
  6
CONTINUOUS
 62
     2
100
AcDbCircle
 10
233.61059
 20
-38.38696
 30
0.0
 40
11.51304
100
AcDbArc
 50
235.193995
 51
304.806005
  0
LINE
  5
3E6
100
AcDbEntity
  8
LAY-1
  6
CONTINUOUS
 62
     2
100
AcDbLine
 10
227.038951
 20
-30.9
 30
0.0
 11
227.038951
 21
-47.840195
 31
0.0
  0
LINE
  5
3E7
100
AcDbEntity
  8
LAY-1
  6
CONTINUOUS
 62
     2
100
AcDbLine
 10
240.182228
 20
-30.9
 30
0.0
 11
240.182228
 21
-47.840195
 31
0.0
  0
LINE
  5
3E8
100
AcDbEntity
  8
LAY-1
  6
CONTINUOUS
 62
     2
100
AcDbLine
 10
248.688737
 20
-10.783727
 30
0.0
 11
248.688737
 21
-28.016273
 31
0.0
  0
LINE
  5
3E9
100
AcDbEntity
  8
LAY-1
  6
CONTINUOUS
 62
     2
100
AcDbLine
 10
230.288148
 20
-10.783727
 30
0.0
 11
230.288148
 21
-28.016273
 31
0.0
  0
LINE
  5
3EA
100
AcDbEntity
  8
LAY-1
  6
CONTINUOUS
 62
     2
100
AcDbLine
 10
255.717136
 20
-28.016273
 30
0.0
 11
253.915958
 21
-30.9
 31
0.0
  0
LINE
  5
3EB
100
AcDbEntity
  8
LAY-1
  6
CONTINUOUS
 62
     2
100
AcDbLine
 10
255.717136
 20
-10.783727
 30
0.0
 11
255.717136
 21
-28.016273
 31
0.0
  0
LINE
  5
3EC
100
AcDbEntity
  8
LAY-1
  6
CONTINUOUS
 62
     2
100
AcDbLine
 10
253.915958
 20
-7.9
 30
0.0
 11
255.717136
 21
-10.783727
 31
0.0
  0
LINE
  5
3ED
100
AcDbEntity
  8
LAY-1
  6
CONTINUOUS
 62
     2
100
AcDbLine
 10
245.202514
 20
-47.840195
 30
0.0
 11
243.915958
 21
-49.9
 31
0.0
  0
LINE
  5
3EE
100
AcDbEntity
  8
LAY-1
  6
CONTINUOUS
 62
     2
100
AcDbLine
 10
245.202514
 20
-32.9
 30
0.0
 11
245.202514
 21
-47.840195
 31
0.0
  0
ARC
  5
3EF
100
AcDbEntity
  8
LAY-1
  6
CONTINUOUS
 62
     2
100
AcDbCircle
 10
247.202514
 20
-32.9
 30
0.0
 40
2.0
100
AcDbArc
 50
90.0
 51
180.0
  0
LINE
  5
3F0
100
AcDbEntity
  8
LAY-1
  6
CONTINUOUS
 62
     2
100
AcDbLine
 10
183.915958
 20
-7.9
 30
0.0
 11
253.915958
 21
-7.9
 31
0.0
  0
ARC
  5
3F1
100
AcDbEntity
  8
LAY-1
  6
CONTINUOUS
 62
     2
100
AcDbCircle
 10
191.078049
 20
-38.38696
 30
0.0
 40
11.51304
100
AcDbArc
 50
283.284249
 51
304.806005
  0
ARC
  5
3F2
100
AcDbEntity
  8
LAY-1
  6
CONTINUOUS
 62
     2
100
AcDbCircle
 10
179.942885
 20
-24.018256
 30
0.0
 40
16.118256
100
AcDbArc
 50
55.193995
 51
76.715751
  0
ARC
  5
3F3
100
AcDbEntity
  8
LAY-1
  6
CONTINUOUS
 62
     2
100
AcDbCircle
 10
179.942885
 20
-14.781744
 30
0.0
 40
16.118256
100
AcDbArc
 50
283.284249
 51
304.806005
  0
ARC
  5
3F4
100
AcDbEntity
  8
LAY-1
  6
CONTINUOUS
 62
     2
100
AcDbCircle
 10
198.343474
 20
-24.018256
 30
0.0
 40
16.118256
100
AcDbArc
 50
55.193995
 51
124.806005
  0
ARC
  5
3F5
100
AcDbEntity
  8
LAY-1
  6
CONTINUOUS
 62
     2
100
AcDbCircle
 10
198.343474
 20
-14.781744
 30
0.0
 40
16.118256
100
AcDbArc
 50
235.193995
 51
304.806005
  0
ARC
  5
3F6
100
AcDbEntity
  8
LAY-1
  6
CONTINUOUS
 62
     2
100
AcDbCircle
 10
218.915958
 20
-31.765396
 30
0.0
 40
23.865396
100
AcDbArc
 50
61.542044
 51
118.457956
  0
ARC
  5
3F7
100
AcDbEntity
  8
LAY-1
  6
CONTINUOUS
 62
     2
100
AcDbCircle
 10
218.915958
 20
-7.034604
 30
0.0
 40
23.865396
100
AcDbArc
 50
241.542044
 51
298.457956
  0
ARC
  5
3F8
100
AcDbEntity
  8
LAY-1
  6
CONTINUOUS
 62
     2
100
AcDbCircle
 10
218.915958
 20
-32.853289
 30
0.0
 40
17.046711
100
AcDbArc
 50
241.542044
 51
298.457956
  0
ARC
  5
3F9
100
AcDbEntity
  8
LAY-1
  6
CONTINUOUS
 62
     2
100
AcDbCircle
 10
204.221327
 20
-38.38696
 30
0.0
 40
11.51304
100
AcDbArc
 50
235.193995
 51
304.806005
  0
LINE
  5
3FA
100
AcDbEntity
  8
LAY-1
  6
CONTINUOUS
 62
     2
100
AcDbLine
 10
210.792966
 20
-30.9
 30
0.0
 11
210.792966
 21
-47.840195
 31
0.0
  0
LINE
  5
3FB
100
AcDbEntity
  8
LAY-1
  6
CONTINUOUS
 62
     2
100
AcDbLine
 10
197.649688
 20
-30.9
 30
0.0
 11
197.649688
 21
-47.840195
 31
0.0
  0
LINE
  5
3FC
100
AcDbEntity
  8
LAY-1
  6
CONTINUOUS
 62
     2
100
AcDbLine
 10
189.14318
 20
-10.783727
 30
0.0
 11
189.14318
 21
-28.016273
 31
0.0
  0
LINE
  5
3FD
100
AcDbEntity
  8
LAY-1
  6
CONTINUOUS
 62
     2
100
AcDbLine
 10
207.543769
 20
-10.783727
 30
0.0
 11
207.543769
 21
-28.016273
 31
0.0
  0
LINE
  5
3FE
100
AcDbEntity
  8
LAY-1
  6
CONTINUOUS
 62
     2
100
AcDbLine
 10
182.11478
 20
-28.016273
 30
0.0
 11
183.915958
 21
-30.9
 31
0.0
  0
LINE
  5
3FF
100
AcDbEntity
  8
LAY-1
  6
CONTINUOUS
 62
     2
100
AcDbLine
 10
182.11478
 20
-10.783727
 30
0.0
 11
182.11478
 21
-28.016273
 31
0.0
  0
LINE
  5
400
100
AcDbEntity
  8
LAY-1
  6
CONTINUOUS
 62
     2
100
AcDbLine
 10
183.915958
 20
-7.9
 30
0.0
 11
182.11478
 21
-10.783727
 31
0.0
  0
LINE
  5
401
100
AcDbEntity
  8
LAY-1
  6
CONTINUOUS
 62
     2
100
AcDbLine
 10
192.629403
 20
-47.840195
 30
0.0
 11
193.915958
 21
-49.9
 31
0.0
  0
LINE
  5
402
100
AcDbEntity
  8
LAY-1
  6
CONTINUOUS
 62
     2
100
AcDbLine
 10
192.629403
 20
-32.9
 30
0.0
 11
192.629403
 21
-47.840195
 31
0.0
  0
ARC
  5
403
100
AcDbEntity
  8
LAY-1
  6
CONTINUOUS
 62
     2
100
AcDbCircle
 10
190.629403
 20
-32.9
 30
0.0
 40
2.0
100
AcDbArc
 50
0.0
 51
90.0
  0
LINE
  5
404
100
AcDbEntity
  8
LAY-1
  6
CONTINUOUS
 62
     2
100
AcDbLine
 10
193.915958
 20
-49.9
 30
0.0
 11
218.915958
 21
-49.9
 31
0.0
  0
LINE
  5
405
100
AcDbEntity
  8
LAY-1
  6
CONTINUOUS
 62
     2
100
AcDbLine
 10
243.915958
 20
-49.9
 30
0.0
 11
218.915958
 21
-49.9
 31
0.0
  0
LINE
  5
406
100
AcDbEntity
  8
LAY-1
  6
CONTINUOUS
 62
     2
100
AcDbLine
 10
253.915958
 20
-30.9
 30
0.0
 11
183.915958
 21
-30.9
 31
0.0
  0
LINE
  5
407
100
AcDbEntity
  8
LAY-1
  6
CONTINUOUS
 62
     2
100
AcDbLine
 10
193.155134
 20
5.097697
 30
0.0
 11
193.155134
 21
-7.9
 31
0.0
  0
LINE
  5
408
100
AcDbEntity
  8
LAY-1
  6
CONTINUOUS
 62
     2
100
AcDbLine
 10
244.676783
 20
5.097697
 30
0.0
 11
244.676783
 21
-7.9
 31
0.0
  0
LINE
  5
409
100
AcDbEntity
  8
LAY-1
  6
CONTINUOUS
 62
     2
100
AcDbLine
 10
239.756903
 20
4.123627
 30
0.0
 11
239.756903
 21
-7.902236
 31
0.0
  0
LINE
  5
40A
100
AcDbEntity
  8
LAY-1
  6
CONTINUOUS
 62
     2
100
AcDbLine
 10
226.876491
 20
2.564333
 30
0.0
 11
226.876491
 21
-7.9
 31
0.0
  0
LINE
  5
40B
100
AcDbEntity
  8
LAY-1
  6
CONTINUOUS
 62
     2
100
AcDbLine
 10
210.955426
 20
2.564333
 30
0.0
 11
210.955426
 21
-7.9
 31
0.0
  0
LINE
  5
40C
100
AcDbEntity
  8
LAY-1
  6
CONTINUOUS
 62
     2
100
AcDbLine
 10
198.075013
 20
4.123627
 30
0.0
 11
198.075013
 21
-7.902236
 31
0.0
  0
LINE
  5
40D
100
AcDbEntity
  8
LAY-1
  6
CONTINUOUS
 62
     2
100
AcDbLine
 10
-299.584042
 20
11.1
 30
0.0
 11
-250.584042
 21
11.1
 31
0.0
  0
LINE
  5
40E
100
AcDbEntity
  8
LAY-1
  6
CONTINUOUS
 62
     2
100
AcDbLine
 10
-250.084042
 20
-49.9
 30
0.0
 11
-275.084042
 21
-49.9
 31
0.0
  0
LINE
  5
40F
100
AcDbEntity
  8
LAY-1
  6
CONTINUOUS
 62
     2
100
AcDbLine
 10
-240.084042
 20
-30.9
 30
0.0
 11
-310.084042
 21
-30.9
 31
0.0
  0
LINE
  5
410
100
AcDbEntity
  8
LAY-1
  6
CONTINUOUS
 62
     2
100
AcDbLine
 10
-310.084042
 20
-7.9
 30
0.0
 11
-240.084042
 21
-7.9
 31
0.0
  0
LINE
  5
411
100
AcDbEntity
  8
LAY-1
  6
CONTINUOUS
 62
     2
100
AcDbLine
 10
-311.88522
 20
-28.016273
 30
0.0
 11
-310.084042
 21
-30.9
 31
0.0
  0
LINE
  5
412
100
AcDbEntity
  8
LAY-1
  6
CONTINUOUS
 62
     2
100
AcDbLine
 10
-311.88522
 20
-10.783727
 30
0.0
 11
-311.88522
 21
-28.016273
 31
0.0
  0
LINE
  5
413
100
AcDbEntity
  8
LAY-1
  6
CONTINUOUS
 62
     2
100
AcDbLine
 10
-310.084042
 20
-7.9
 30
0.0
 11
-311.88522
 21
-10.783727
 31
0.0
  0
LINE
  5
414
100
AcDbEntity
  8
LAY-1
  6
CONTINUOUS
 62
     2
100
AcDbLine
 10
-300.084042
 20
-49.9
 30
0.0
 11
-275.084042
 21
-49.9
 31
0.0
  0
ARC
  5
415
100
AcDbEntity
  8
LAY-1
  6
CONTINUOUS
 62
     2
100
AcDbCircle
 10
-303.370597
 20
-32.9
 30
0.0
 40
2.0
100
AcDbArc
 50
0.0
 51
90.0
  0
LINE
  5
416
100
AcDbEntity
  8
LAY-1
  6
CONTINUOUS
 62
     2
100
AcDbLine
 10
-301.370597
 20
-32.9
 30
0.0
 11
-301.370597
 21
-47.840195
 31
0.0
  0
LINE
  5
417
100
AcDbEntity
  8
LAY-1
  6
CONTINUOUS
 62
     2
100
AcDbLine
 10
-301.370597
 20
-47.840195
 30
0.0
 11
-300.084042
 21
-49.9
 31
0.0
  0
LINE
  5
418
100
AcDbEntity
  8
LAY-1
  6
CONTINUOUS
 62
     2
100
AcDbLine
 10
-300.844866
 20
9.081391
 30
0.0
 11
-300.844866
 21
-7.9
 31
0.0
  0
LINE
  5
419
100
AcDbEntity
  8
LAY-1
  6
CONTINUOUS
 62
     2
100
AcDbLine
 10
-299.584042
 20
11.1
 30
0.0
 11
-300.844866
 21
9.081391
 31
0.0
  0
ARC
  5
41A
100
AcDbEntity
  8
LAY-1
  6
CONTINUOUS
 62
     2
100
AcDbCircle
 10
-314.057115
 20
-24.018256
 30
0.0
 40
16.118256
100
AcDbArc
 50
55.193995
 51
76.715751
  0
ARC
  5
41B
100
AcDbEntity
  8
LAY-1
  6
CONTINUOUS
 62
     2
100
AcDbCircle
 10
-314.057115
 20
-14.781744
 30
0.0
 40
16.118256
100
AcDbArc
 50
283.284249
 51
304.806005
  0
LINE
  5
41C
100
AcDbEntity
  8
LAY-1
  6
CONTINUOUS
 62
     2
100
AcDbLine
 10
-304.85682
 20
-10.783727
 30
0.0
 11
-304.85682
 21
-28.016273
 31
0.0
  0
ARC
  5
41D
100
AcDbEntity
  8
LAY-1
  6
CONTINUOUS
 62
     2
100
AcDbCircle
 10
-302.921951
 20
-38.38696
 30
0.0
 40
11.51304
100
AcDbArc
 50
283.284249
 51
304.806005
  0
ARC
  5
41E
100
AcDbEntity
  8
LAY-1
  6
CONTINUOUS
 62
     2
100
AcDbCircle
 10
-253.25508
 20
13.1
 30
0.0
 40
2.0
100
AcDbArc
 50
181.8
 51
270.0
  0
ARC
  5
41F
100
AcDbEntity
  8
LAY-1
  6
CONTINUOUS
 62
     2
100
AcDbCircle
 10
-296.913003
 20
13.1
 30
0.0
 40
2.0
100
AcDbArc
 50
270.0
 51
358.2
  0
LINE
  5
420
100
AcDbEntity
  8
LAY-1
  6
CONTINUOUS
 62
     2
100
AcDbLine
 10
-249.323217
 20
9.081391
 30
0.0
 11
-249.323217
 21
-7.9
 31
0.0
  0
LINE
  5
421
100
AcDbEntity
  8
LAY-1
  6
CONTINUOUS
 62
     2
100
AcDbLine
 10
-250.584042
 20
11.1
 30
0.0
 11
-249.323217
 21
9.081391
 31
0.0
  0
ARC
  5
422
100
AcDbEntity
  8
LAY-1
  6
CONTINUOUS
 62
     2
100
AcDbCircle
 10
-246.797486
 20
-32.9
 30
0.0
 40
2.0
100
AcDbArc
 50
90.0
 51
180.0
  0
LINE
  5
423
100
AcDbEntity
  8
LAY-1
  6
CONTINUOUS
 62
     2
100
AcDbLine
 10
-248.797486
 20
-32.9
 30
0.0
 11
-248.797486
 21
-47.840195
 31
0.0
  0
LINE
  5
424
100
AcDbEntity
  8
LAY-1
  6
CONTINUOUS
 62
     2
100
AcDbLine
 10
-248.797486
 20
-47.840195
 30
0.0
 11
-250.084042
 21
-49.9
 31
0.0
  0
LINE
  5
425
100
AcDbEntity
  8
LAY-1
  6
CONTINUOUS
 62
     2
100
AcDbLine
 10
-240.084042
 20
-7.9
 30
0.0
 11
-238.282864
 21
-10.783727
 31
0.0
  0
LINE
  5
426
100
AcDbEntity
  8
LAY-1
  6
CONTINUOUS
 62
     2
100
AcDbLine
 10
-238.282864
 20
-10.783727
 30
0.0
 11
-238.282864
 21
-28.016273
 31
0.0
  0
LINE
  5
427
100
AcDbEntity
  8
LAY-1
  6
CONTINUOUS
 62
     2
100
AcDbLine
 10
-238.282864
 20
-28.016273
 30
0.0
 11
-240.084042
 21
-30.9
 31
0.0
  0
ARC
  5
428
100
AcDbEntity
  8
LAY-1
  6
CONTINUOUS
 62
     2
100
AcDbCircle
 10
-247.246133
 20
-38.38696
 30
0.0
 40
11.51304
100
AcDbArc
 50
235.193995
 51
256.715751
  0
ARC
  5
429
100
AcDbEntity
  8
LAY-1
  6
CONTINUOUS
 62
     2
100
AcDbCircle
 10
-236.110969
 20
-24.018256
 30
0.0
 40
16.118256
100
AcDbArc
 50
103.284249
 51
124.806005
  0
ARC
  5
42A
100
AcDbEntity
  8
LAY-1
  6
CONTINUOUS
 62
     2
100
AcDbCircle
 10
-236.110969
 20
-14.781744
 30
0.0
 40
16.118256
100
AcDbArc
 50
235.193995
 51
256.715751
  0
LINE
  5
42B
100
AcDbEntity
  8
LAY-1
  6
CONTINUOUS
 62
     2
100
AcDbLine
 10
-245.311263
 20
-10.783727
 30
0.0
 11
-245.311263
 21
-28.016273
 31
0.0
  0
ARC
  5
42C
100
AcDbEntity
  8
LAY-1
  6
CONTINUOUS
 62
     2
100
AcDbCircle
 10
-254.511558
 20
-24.018256
 30
0.0
 40
16.118256
100
AcDbArc
 50
55.193995
 51
124.806005
  0
ARC
  5
42D
100
AcDbEntity
  8
LAY-1
  6
CONTINUOUS
 62
     2
100
AcDbCircle
 10
-254.511558
 20
-14.781744
 30
0.0
 40
16.118256
100
AcDbArc
 50
235.193995
 51
304.806005
  0
ARC
  5
42E
100
AcDbEntity
  8
LAY-1
  6
CONTINUOUS
 62
     2
100
AcDbCircle
 10
-295.656526
 20
-14.781744
 30
0.0
 40
16.118256
100
AcDbArc
 50
235.193995
 51
304.806005
  0
ARC
  5
42F
100
AcDbEntity
  8
LAY-1
  6
CONTINUOUS
 62
     2
100
AcDbCircle
 10
-295.656526
 20
-24.018256
 30
0.0
 40
16.118256
100
AcDbArc
 50
55.193995
 51
124.806005
  0
ARC
  5
430
100
AcDbEntity
  8
LAY-1
  6
CONTINUOUS
 62
     2
100
AcDbCircle
 10
-302.365193
 20
-0.182779
 30
0.0
 40
11.282779
100
AcDbArc
 50
55.193995
 51
76.715751
  0
ARC
  5
431
100
AcDbEntity
  8
LAY-1
  6
CONTINUOUS
 62
     2
100
AcDbCircle
 10
-247.802891
 20
-0.182779
 30
0.0
 40
11.282779
100
AcDbArc
 50
103.284249
 51
124.806005
  0
ARC
  5
432
100
AcDbEntity
  8
LAY-1
  6
CONTINUOUS
 62
     2
100
AcDbCircle
 10
-260.683303
 20
-0.182779
 30
0.0
 40
11.282779
100
AcDbArc
 50
55.193995
 51
124.806005
  0
ARC
  5
433
100
AcDbEntity
  8
LAY-1
  6
CONTINUOUS
 62
     2
100
AcDbCircle
 10
-275.084042
 20
-5.605777
 30
0.0
 40
16.705777
100
AcDbArc
 50
61.542044
 51
118.457956
  0
ARC
  5
434
100
AcDbEntity
  8
LAY-1
  6
CONTINUOUS
 62
     2
100
AcDbCircle
 10
-289.48478
 20
-0.182779
 30
0.0
 40
11.282779
100
AcDbArc
 50
55.193995
 51
124.806005
  0
LINE
  5
435
100
AcDbEntity
  8
LAY-1
  6
CONTINUOUS
 62
     2
100
AcDbLine
 10
-254.243097
 20
9.081391
 30
0.0
 11
-254.243097
 21
-7.902236
 31
0.0
  0
LINE
  5
436
100
AcDbEntity
  8
LAY-1
  6
CONTINUOUS
 62
     2
100
AcDbLine
 10
-267.123509
 20
9.081391
 30
0.0
 11
-267.123509
 21
-7.9
 31
0.0
  0
LINE
  5
437
100
AcDbEntity
  8
LAY-1
  6
CONTINUOUS
 62
     2
100
AcDbLine
 10
-283.044574
 20
9.081391
 30
0.0
 11
-283.044574
 21
-7.9
 31
0.0
  0
LINE
  5
438
100
AcDbEntity
  8
LAY-1
  6
CONTINUOUS
 62
     2
100
AcDbLine
 10
-295.924987
 20
9.081391
 30
0.0
 11
-295.924987
 21
-7.902236
 31
0.0
  0
LINE
  5
439
100
AcDbEntity
  8
LAY-1
  6
CONTINUOUS
 62
     2
100
AcDbLine
 10
-286.456231
 20
-10.783727
 30
0.0
 11
-286.456231
 21
-28.016273
 31
0.0
  0
LINE
  5
43A
100
AcDbEntity
  8
LAY-1
  6
CONTINUOUS
 62
     2
100
AcDbLine
 10
-296.350312
 20
-30.9
 30
0.0
 11
-296.350312
 21
-47.840195
 31
0.0
  0
LINE
  5
43B
100
AcDbEntity
  8
LAY-1
  6
CONTINUOUS
 62
     2
100
AcDbLine
 10
-283.207034
 20
-30.9
 30
0.0
 11
-283.207034
 21
-47.840195
 31
0.0
  0
ARC
  5
43C
100
AcDbEntity
  8
LAY-1
  6
CONTINUOUS
 62
     2
100
AcDbCircle
 10
-289.778673
 20
-38.38696
 30
0.0
 40
11.51304
100
AcDbArc
 50
235.193995
 51
304.806005
  0
ARC
  5
43D
100
AcDbEntity
  8
LAY-1
  6
CONTINUOUS
 62
     2
100
AcDbCircle
 10
-275.084042
 20
-32.853289
 30
0.0
 40
17.046711
100
AcDbArc
 50
241.542044
 51
298.457956
  0
ARC
  5
43E
100
AcDbEntity
  8
LAY-1
  6
CONTINUOUS
 62
     2
100
AcDbCircle
 10
-275.084042
 20
-7.034604
 30
0.0
 40
23.865396
100
AcDbArc
 50
241.542044
 51
298.457956
  0
ARC
  5
43F
100
AcDbEntity
  8
LAY-1
  6
CONTINUOUS
 62
     2
100
AcDbCircle
 10
-275.084042
 20
-31.765396
 30
0.0
 40
23.865396
100
AcDbArc
 50
61.542044
 51
118.457956
  0
LINE
  5
440
100
AcDbEntity
  8
LAY-1
  6
CONTINUOUS
 62
     2
100
AcDbLine
 10
-263.711852
 20
-10.783727
 30
0.0
 11
-263.711852
 21
-28.016273
 31
0.0
  0
LINE
  5
441
100
AcDbEntity
  8
LAY-1
  6
CONTINUOUS
 62
     2
100
AcDbLine
 10
-253.817772
 20
-30.9
 30
0.0
 11
-253.817772
 21
-47.840195
 31
0.0
  0
LINE
  5
442
100
AcDbEntity
  8
LAY-1
  6
CONTINUOUS
 62
     2
100
AcDbLine
 10
-266.961049
 20
-30.9
 30
0.0
 11
-266.961049
 21
-47.840195
 31
0.0
  0
ARC
  5
443
100
AcDbEntity
  8
LAY-1
  6
CONTINUOUS
 62
     2
100
AcDbCircle
 10
-260.38941
 20
-38.38696
 30
0.0
 40
11.51304
100
AcDbArc
 50
235.193995
 51
304.806005
  0
LINE
  5
444
100
AcDbEntity
  8
LAY-1
  6
CONTINUOUS
 62
     2
100
AcDbLine
 10
-294.849163
 20
15.1
 30
0.0
 11
-294.91399
 21
13.037178
 31
0.0
  0
LINE
  5
445
100
AcDbEntity
  8
LAY-1
  6
CONTINUOUS
 62
     2
100
AcDbLine
 10
-255.31892
 20
15.1
 30
0.0
 11
-255.254093
 21
13.037178
 31
0.0
  0
LINE
  5
446
100
AcDbEntity
  8
LAY-1
  6
CONTINUOUS
 62
     2
100
AcDbLine
 10
691.710958
 20
15.1
 30
0.0
 11
734.120958
 21
15.1
 31
0.0
  0
LINE
  5
447
100
AcDbEntity
  8
LAY-1
  6
CONTINUOUS
 62
     2
100
AcDbLine
 10
737.415958
 20
11.1
 30
0.0
 11
688.415958
 21
11.1
 31
0.0
  0
LINE
  5
448
100
AcDbEntity
  8
LAY-1
  6
CONTINUOUS
 62
     2
100
AcDbLine
 10
687.915958
 20
-49.9
 30
0.0
 11
712.915958
 21
-49.9
 31
0.0
  0
LINE
  5
449
100
AcDbEntity
  8
LAY-1
  6
CONTINUOUS
 62
     2
100
AcDbLine
 10
677.915958
 20
-30.9
 30
0.0
 11
747.915958
 21
-30.9
 31
0.0
  0
LINE
  5
44A
100
AcDbEntity
  8
LAY-1
  6
CONTINUOUS
 62
     2
100
AcDbLine
 10
747.915958
 20
-7.9
 30
0.0
 11
677.915958
 21
-7.9
 31
0.0
  0
LINE
  5
44B
100
AcDbEntity
  8
LAY-1
  6
CONTINUOUS
 62
     2
100
AcDbLine
 10
749.717136
 20
-28.016273
 30
0.0
 11
747.915958
 21
-30.9
 31
0.0
  0
LINE
  5
44C
100
AcDbEntity
  8
LAY-1
  6
CONTINUOUS
 62
     2
100
AcDbLine
 10
749.717136
 20
-10.783727
 30
0.0
 11
749.717136
 21
-28.016273
 31
0.0
  0
LINE
  5
44D
100
AcDbEntity
  8
LAY-1
  6
CONTINUOUS
 62
     2
100
AcDbLine
 10
747.915958
 20
-7.9
 30
0.0
 11
749.717136
 21
-10.783727
 31
0.0
  0
LINE
  5
44E
100
AcDbEntity
  8
LAY-1
  6
CONTINUOUS
 62
     2
100
AcDbLine
 10
737.915958
 20
-49.9
 30
0.0
 11
712.915958
 21
-49.9
 31
0.0
  0
ARC
  5
44F
100
AcDbEntity
  8
LAY-1
  6
CONTINUOUS
 62
     2
100
AcDbCircle
 10
741.202514
 20
-32.9
 30
0.0
 40
2.0
100
AcDbArc
 50
90.0
 51
180.0
  0
LINE
  5
450
100
AcDbEntity
  8
LAY-1
  6
CONTINUOUS
 62
     2
100
AcDbLine
 10
739.202514
 20
-32.9
 30
0.0
 11
739.202514
 21
-47.840195
 31
0.0
  0
LINE
  5
451
100
AcDbEntity
  8
LAY-1
  6
CONTINUOUS
 62
     2
100
AcDbLine
 10
739.202514
 20
-47.840195
 30
0.0
 11
737.915958
 21
-49.9
 31
0.0
  0
LINE
  5
452
100
AcDbEntity
  8
LAY-1
  6
CONTINUOUS
 62
     2
100
AcDbLine
 10
738.676783
 20
9.081391
 30
0.0
 11
738.676783
 21
-7.9
 31
0.0
  0
LINE
  5
453
100
AcDbEntity
  8
LAY-1
  6
CONTINUOUS
 62
     2
100
AcDbLine
 10
737.415958
 20
11.1
 30
0.0
 11
738.676783
 21
9.081391
 31
0.0
  0
ARC
  5
454
100
AcDbEntity
  8
LAY-1
  6
CONTINUOUS
 62
     2
100
AcDbCircle
 10
751.889031
 20
-24.018256
 30
0.0
 40
16.118256
100
AcDbArc
 50
103.284249
 51
124.806005
  0
ARC
  5
455
100
AcDbEntity
  8
LAY-1
  6
CONTINUOUS
 62
     2
100
AcDbCircle
 10
751.889031
 20
-14.781744
 30
0.0
 40
16.118256
100
AcDbArc
 50
235.193995
 51
256.715751
  0
LINE
  5
456
100
AcDbEntity
  8
LAY-1
  6
CONTINUOUS
 62
     2
100
AcDbLine
 10
742.688737
 20
-10.783727
 30
0.0
 11
742.688737
 21
-28.016273
 31
0.0
  0
ARC
  5
457
100
AcDbEntity
  8
LAY-1
  6
CONTINUOUS
 62
     2
100
AcDbCircle
 10
740.753867
 20
-38.38696
 30
0.0
 40
11.51304
100
AcDbArc
 50
235.193995
 51
256.715751
  0
ARC
  5
458
100
AcDbEntity
  8
LAY-1
  6
CONTINUOUS
 62
     2
100
AcDbCircle
 10
691.086997
 20
13.1
 30
0.0
 40
2.0
100
AcDbArc
 50
270.0
 51
358.2
  0
ARC
  5
459
100
AcDbEntity
  8
LAY-1
  6
CONTINUOUS
 62
     2
100
AcDbCircle
 10
734.74492
 20
13.1
 30
0.0
 40
2.0
100
AcDbArc
 50
181.8
 51
270.0
  0
LINE
  5
45A
100
AcDbEntity
  8
LAY-1
  6
CONTINUOUS
 62
     2
100
AcDbLine
 10
687.155134
 20
9.081391
 30
0.0
 11
687.155134
 21
-7.9
 31
0.0
  0
LINE
  5
45B
100
AcDbEntity
  8
LAY-1
  6
CONTINUOUS
 62
     2
100
AcDbLine
 10
688.415958
 20
11.1
 30
0.0
 11
687.155134
 21
9.081391
 31
0.0
  0
ARC
  5
45C
100
AcDbEntity
  8
LAY-1
  6
CONTINUOUS
 62
     2
100
AcDbCircle
 10
684.629403
 20
-32.9
 30
0.0
 40
2.0
100
AcDbArc
 50
0.0
 51
90.0
  0
LINE
  5
45D
100
AcDbEntity
  8
LAY-1
  6
CONTINUOUS
 62
     2
100
AcDbLine
 10
686.629403
 20
-32.9
 30
0.0
 11
686.629403
 21
-47.840195
 31
0.0
  0
LINE
  5
45E
100
AcDbEntity
  8
LAY-1
  6
CONTINUOUS
 62
     2
100
AcDbLine
 10
686.629403
 20
-47.840195
 30
0.0
 11
687.915958
 21
-49.9
 31
0.0
  0
LINE
  5
45F
100
AcDbEntity
  8
LAY-1
  6
CONTINUOUS
 62
     2
100
AcDbLine
 10
677.915958
 20
-7.9
 30
0.0
 11
676.11478
 21
-10.783727
 31
0.0
  0
LINE
  5
460
100
AcDbEntity
  8
LAY-1
  6
CONTINUOUS
 62
     2
100
AcDbLine
 10
676.11478
 20
-10.783727
 30
0.0
 11
676.11478
 21
-28.016273
 31
0.0
  0
LINE
  5
461
100
AcDbEntity
  8
LAY-1
  6
CONTINUOUS
 62
     2
100
AcDbLine
 10
676.11478
 20
-28.016273
 30
0.0
 11
677.915958
 21
-30.9
 31
0.0
  0
ARC
  5
462
100
AcDbEntity
  8
LAY-1
  6
CONTINUOUS
 62
     2
100
AcDbCircle
 10
685.078049
 20
-38.38696
 30
0.0
 40
11.51304
100
AcDbArc
 50
283.284249
 51
304.806005
  0
ARC
  5
463
100
AcDbEntity
  8
LAY-1
  6
CONTINUOUS
 62
     2
100
AcDbCircle
 10
673.942885
 20
-24.018256
 30
0.0
 40
16.118256
100
AcDbArc
 50
55.193995
 51
76.715751
  0
ARC
  5
464
100
AcDbEntity
  8
LAY-1
  6
CONTINUOUS
 62
     2
100
AcDbCircle
 10
673.942885
 20
-14.781744
 30
0.0
 40
16.118256
100
AcDbArc
 50
283.284249
 51
304.806005
  0
LINE
  5
465
100
AcDbEntity
  8
LAY-1
  6
CONTINUOUS
 62
     2
100
AcDbLine
 10
683.14318
 20
-10.783727
 30
0.0
 11
683.14318
 21
-28.016273
 31
0.0
  0
ARC
  5
466
100
AcDbEntity
  8
LAY-1
  6
CONTINUOUS
 62
     2
100
AcDbCircle
 10
692.343474
 20
-24.018256
 30
0.0
 40
16.118256
100
AcDbArc
 50
55.193995
 51
124.806005
  0
ARC
  5
467
100
AcDbEntity
  8
LAY-1
  6
CONTINUOUS
 62
     2
100
AcDbCircle
 10
692.343474
 20
-14.781744
 30
0.0
 40
16.118256
100
AcDbArc
 50
235.193995
 51
304.806005
  0
ARC
  5
468
100
AcDbEntity
  8
LAY-1
  6
CONTINUOUS
 62
     2
100
AcDbCircle
 10
733.488442
 20
-14.781744
 30
0.0
 40
16.118256
100
AcDbArc
 50
235.193995
 51
304.806005
  0
ARC
  5
469
100
AcDbEntity
  8
LAY-1
  6
CONTINUOUS
 62
     2
100
AcDbCircle
 10
733.488442
 20
-24.018256
 30
0.0
 40
16.118256
100
AcDbArc
 50
55.193995
 51
124.806005
  0
ARC
  5
46A
100
AcDbEntity
  8
LAY-1
  6
CONTINUOUS
 62
     2
100
AcDbCircle
 10
740.197109
 20
-0.182779
 30
0.0
 40
11.282779
100
AcDbArc
 50
103.284249
 51
124.806005
  0
ARC
  5
46B
100
AcDbEntity
  8
LAY-1
  6
CONTINUOUS
 62
     2
100
AcDbCircle
 10
685.634807
 20
-0.182779
 30
0.0
 40
11.282779
100
AcDbArc
 50
55.193995
 51
76.715751
  0
ARC
  5
46C
100
AcDbEntity
  8
LAY-1
  6
CONTINUOUS
 62
     2
100
AcDbCircle
 10
698.51522
 20
-0.182779
 30
0.0
 40
11.282779
100
AcDbArc
 50
55.193995
 51
124.806005
  0
ARC
  5
46D
100
AcDbEntity
  8
LAY-1
  6
CONTINUOUS
 62
     2
100
AcDbCircle
 10
712.915958
 20
-5.605777
 30
0.0
 40
16.705777
100
AcDbArc
 50
61.542044
 51
118.457956
  0
ARC
  5
46E
100
AcDbEntity
  8
LAY-1
  6
CONTINUOUS
 62
     2
100
AcDbCircle
 10
727.316697
 20
-0.182779
 30
0.0
 40
11.282779
100
AcDbArc
 50
55.193995
 51
124.806005
  0
LINE
  5
46F
100
AcDbEntity
  8
LAY-1
  6
CONTINUOUS
 62
     2
100
AcDbLine
 10
692.075013
 20
9.081391
 30
0.0
 11
692.075013
 21
-7.902236
 31
0.0
  0
LINE
  5
470
100
AcDbEntity
  8
LAY-1
  6
CONTINUOUS
 62
     2
100
AcDbLine
 10
704.955426
 20
9.081391
 30
0.0
 11
704.955426
 21
-7.9
 31
0.0
  0
LINE
  5
471
100
AcDbEntity
  8
LAY-1
  6
CONTINUOUS
 62
     2
100
AcDbLine
 10
720.876491
 20
9.081391
 30
0.0
 11
720.876491
 21
-7.9
 31
0.0
  0
LINE
  5
472
100
AcDbEntity
  8
LAY-1
  6
CONTINUOUS
 62
     2
100
AcDbLine
 10
733.756903
 20
9.081391
 30
0.0
 11
733.756903
 21
-7.902236
 31
0.0
  0
LINE
  5
473
100
AcDbEntity
  8
LAY-1
  6
CONTINUOUS
 62
     2
100
AcDbLine
 10
724.288148
 20
-10.783727
 30
0.0
 11
724.288148
 21
-28.016273
 31
0.0
  0
LINE
  5
474
100
AcDbEntity
  8
LAY-1
  6
CONTINUOUS
 62
     2
100
AcDbLine
 10
734.182228
 20
-30.9
 30
0.0
 11
734.182228
 21
-47.840195
 31
0.0
  0
LINE
  5
475
100
AcDbEntity
  8
LAY-1
  6
CONTINUOUS
 62
     2
100
AcDbLine
 10
721.038951
 20
-30.9
 30
0.0
 11
721.038951
 21
-47.840195
 31
0.0
  0
ARC
  5
476
100
AcDbEntity
  8
LAY-1
  6
CONTINUOUS
 62
     2
100
AcDbCircle
 10
727.61059
 20
-38.38696
 30
0.0
 40
11.51304
100
AcDbArc
 50
235.193995
 51
304.806005
  0
ARC
  5
477
100
AcDbEntity
  8
LAY-1
  6
CONTINUOUS
 62
     2
100
AcDbCircle
 10
712.915958
 20
-32.853289
 30
0.0
 40
17.046711
100
AcDbArc
 50
241.542044
 51
298.457956
  0
ARC
  5
478
100
AcDbEntity
  8
LAY-1
  6
CONTINUOUS
 62
     2
100
AcDbCircle
 10
712.915958
 20
-7.034604
 30
0.0
 40
23.865396
100
AcDbArc
 50
241.542044
 51
298.457956
  0
ARC
  5
479
100
AcDbEntity
  8
LAY-1
  6
CONTINUOUS
 62
     2
100
AcDbCircle
 10
712.915958
 20
-31.765396
 30
0.0
 40
23.865396
100
AcDbArc
 50
61.542044
 51
118.457956
  0
LINE
  5
47A
100
AcDbEntity
  8
LAY-1
  6
CONTINUOUS
 62
     2
100
AcDbLine
 10
701.543769
 20
-10.783727
 30
0.0
 11
701.543769
 21
-28.016273
 31
0.0
  0
LINE
  5
47B
100
AcDbEntity
  8
LAY-1
  6
CONTINUOUS
 62
     2
100
AcDbLine
 10
691.649688
 20
-30.9
 30
0.0
 11
691.649688
 21
-47.840195
 31
0.0
  0
LINE
  5
47C
100
AcDbEntity
  8
LAY-1
  6
CONTINUOUS
 62
     2
100
AcDbLine
 10
704.792966
 20
-30.9
 30
0.0
 11
704.792966
 21
-47.840195
 31
0.0
  0
ARC
  5
47D
100
AcDbEntity
  8
LAY-1
  6
CONTINUOUS
 62
     2
100
AcDbCircle
 10
698.221327
 20
-38.38696
 30
0.0
 40
11.51304
100
AcDbArc
 50
235.193995
 51
304.806005
  0
LINE
  5
47E
100
AcDbEntity
  8
LAY-1
  6
CONTINUOUS
 62
     2
100
AcDbLine
 10
732.68108
 20
15.1
 30
0.0
 11
732.745907
 21
13.037178
 31
0.0
  0
LINE
  5
47F
100
AcDbEntity
  8
LAY-1
  6
CONTINUOUS
 62
     2
100
AcDbLine
 10
693.150837
 20
15.1
 30
0.0
 11
693.08601
 21
13.037178
 31
0.0
  0
ARC
  5
480
100
AcDbEntity
  8
LAY-1
  6
CONTINUOUS
 62
     2
100
AcDbCircle
 10
684.915958
 20
26.3
 30
0.0
 40
2.0
100
AcDbArc
 50
189.917422
 51
270.0
  0
LINE
  5
481
100
AcDbEntity
  8
LAY-1
  6
CONTINUOUS
 62
     2
100
AcDbLine
 10
266.93939
 20
603.1
 30
0.0
 11
339.415958
 21
603.1
 31
0.0
  0
LINE
  5
482
100
AcDbEntity
  8
LAY-1
  6
CONTINUOUS
 62
     2
100
AcDbLine
 10
98.415958
 20
-304.9
 30
0.0
 11
339.415958
 21
-304.9
 31
0.0
  0
ARC
  5
483
100
AcDbEntity
  8
LAY-1
  6
CONTINUOUS
 62
     2
100
AcDbCircle
 10
297.915958
 20
-301.395862
 30
0.0
 40
22.0
100
AcDbArc
 50
279.865807
 51
335.84045
  0
ARC
  5
484
100
AcDbEntity
  8
LAY-1
  6
CONTINUOUS
 62
     2
100
AcDbCircle
 10
139.915958
 20
-301.395862
 30
0.0
 40
22.0
100
AcDbArc
 50
204.15955
 51
260.134193
  0
ARC
  5
485
100
AcDbEntity
  8
LAY-1
  6
CONTINUOUS
 62
     2
100
AcDbCircle
 10
-247.084042
 20
26.3
 30
0.0
 40
2.0
100
AcDbArc
 50
270.0
 51
350.082578
  0
ARC
  5
486
100
AcDbEntity
  8
LAY-1
  6
CONTINUOUS
 62
     2
100
AcDbCircle
 10
-231.579904
 20
43.3
 30
0.0
 40
22.0
100
AcDbArc
 50
189.865807
 51
245.84045
  0
ARC
  5
487
100
AcDbEntity
  8
LAY-1
  6
CONTINUOUS
 62
     2
100
AcDbCircle
 10
-231.579904
 20
201.3
 30
0.0
 40
22.0
100
AcDbArc
 50
114.15955
 51
170.134193
  0
ARC
  5
488
100
AcDbEntity
  8
LAY-1
  6
CONTINUOUS
 62
     2
100
AcDbCircle
 10
139.915958
 20
599.595862
 30
0.0
 40
22.0
100
AcDbArc
 50
99.865807
 51
155.84045
  0
ARC
  5
489
100
AcDbEntity
  8
LAY-1
  6
CONTINUOUS
 62
     2
100
AcDbCircle
 10
297.915958
 20
599.595862
 30
0.0
 40
22.0
100
AcDbArc
 50
24.15955
 51
80.134193
  0
LINE
  5
48A
100
AcDbEntity
  8
LAY-1
  6
CONTINUOUS
 62
     2
100
AcDbLine
 10
684.915958
 20
24.3
 30
0.0
 11
691.960958
 21
24.3
 31
0.0
  0
ARC
  5
48B
100
AcDbEntity
  8
LAY-1
  6
CONTINUOUS
 62
     2
100
AcDbCircle
 10
669.41182
 20
43.3
 30
0.0
 40
22.0
100
AcDbArc
 50
294.15955
 51
350.134193
  0
ARC
  5
48C
100
AcDbEntity
  8
LAY-1
  6
CONTINUOUS
 62
     2
100
AcDbCircle
 10
669.41182
 20
201.3
 30
0.0
 40
22.0
100
AcDbArc
 50
9.865807
 51
65.84045
  0
CIRCLE
  5
48D
100
AcDbEntity
  8
LAY-1
  6
CONTINUOUS
 62
     2
100
AcDbCircle
 10
218.915958
 20
643.1
 30
0.0
 40
62.5
  0
CIRCLE
  5
48E
100
AcDbEntity
  8
LAY-1
  6
CONTINUOUS
 62
     2
100
AcDbCircle
 10
250.735763
 20
674.919805
 30
0.0
 40
9.5
  0
CIRCLE
  5
48F
100
AcDbEntity
  8
LAY-1
  6
CONTINUOUS
 62
     2
100
AcDbCircle
 10
187.096153
 20
674.919805
 30
0.0
 40
9.5
  0
CIRCLE
  5
490
100
AcDbEntity
  8
LAY-1
  6
CONTINUOUS
 62
     2
100
AcDbCircle
 10
250.735763
 20
611.280195
 30
0.0
 40
9.5
  0
CIRCLE
  5
491
100
AcDbEntity
  8
LAY-1
  6
CONTINUOUS
 62
     2
100
AcDbCircle
 10
187.096153
 20
611.280195
 30
0.0
 40
9.5
  0
CIRCLE
  5
492
100
AcDbEntity
  8
LAY-1
  6
CONTINUOUS
 62
     2
100
AcDbCircle
 10
218.915958
 20
643.1
 30
0.0
 40
17.0
  0
CIRCLE
  5
493
100
AcDbEntity
  8
LAY-1
  6
CONTINUOUS
 62
     2
100
AcDbCircle
 10
218.915958
 20
643.1
 30
0.0
 40
12.5
  0
LINE
  5
494
100
AcDbEntity
  8
LAY-1
  6
CONTINUOUS
 62
     2
100
AcDbLine
 10
249.169023
 20
-324.74698
 30
0.0
 11
249.391384
 21
-306.875118
 31
0.0
  0
LINE
  5
495
100
AcDbEntity
  8
LAY-1
  6
CONTINUOUS
 62
     2
100
AcDbLine
 10
188.662893
 20
-324.74698
 30
0.0
 11
188.440533
 21
-306.875118
 31
0.0
  0
LINE
  5
496
100
AcDbEntity
  8
LAY-1
  6
EXLTYPE3
 62
     2
100
AcDbLine
 10
343.415958
 20
-298.944385
 30
0.0
 11
339.415958
 21
-299.07009
 31
0.0
  0
LINE
  5
497
100
AcDbEntity
  8
LAY-1
  6
EXLTYPE3
 62
     2
100
AcDbLine
 10
343.415958
 20
-312.855615
 30
0.0
 11
339.415958
 21
-312.72991
 31
0.0
  0
LINE
  5
498
100
AcDbEntity
  8
LAY-1
  6
CONTINUOUS
 62
     2
100
AcDbLine
 10
-253.254562
 20
39.530494
 30
0.0
 11
-262.972303
 21
95.407503
 31
0.0
  0
LINE
  5
499
100
AcDbEntity
  8
LAY-1
  6
CONTINUOUS
 62
     2
100
AcDbLine
 10
343.415958
 20
597.144385
 30
0.0
 11
339.415958
 21
597.27009
 31
0.0
  0
LINE
  5
49A
100
AcDbEntity
  8
LAY-1
  6
CONTINUOUS
 62
     2
100
AcDbLine
 10
343.415958
 20
611.055615
 30
0.0
 11
339.415958
 21
610.92991
 31
0.0
  0
ARC
  5
49B
100
AcDbEntity
  8
LAY-1
  6
CONTINUOUS
 62
     2
100
AcDbCircle
 10
674.915958
 20
108.33576
 30
0.0
 40
2.0
100
AcDbArc
 50
94.096044
 51
180.0
  0
ARC
  5
49C
100
AcDbEntity
  8
LAY-1
  6
CONTINUOUS
 62
     2
100
AcDbCircle
 10
674.915958
 20
136.26424
 30
0.0
 40
2.0
100
AcDbArc
 50
180.0
 51
265.903956
  0
POLYLINE
  5
49D
100
AcDbEntity
  8
LAY-1
  6
CONTINUOUS
 62
     2
100
AcDb2dPolyline
 66
     1
 10
0.0
 20
0.0
 30
0.0
 70
   128
  0
VERTEX
  5
49E
100
AcDbEntity
  8
LAY-1
  6
CONTINUOUS
 62
     2
100
AcDbVertex
100
AcDb2dVertex
 10
673.915958
 20
130.382904
 30
0.0
  0
VERTEX
  5
49F
100
AcDbEntity
  8
LAY-1
  6
CONTINUOUS
 62
     2
100
AcDbVertex
100
AcDb2dVertex
 10
666.915958
 20
126.341452
 30
0.0
  0
VERTEX
  5
4A0
100
AcDbEntity
  8
LAY-1
  6
CONTINUOUS
 62
     2
100
AcDbVertex
100
AcDb2dVertex
 10
666.915958
 20
118.258548
 30
0.0
  0
VERTEX
  5
4A1
100
AcDbEntity
  8
LAY-1
  6
CONTINUOUS
 62
     2
100
AcDbVertex
100
AcDb2dVertex
 10
673.915958
 20
114.217096
 30
0.0
  0
VERTEX
  5
4A2
100
AcDbEntity
  8
LAY-1
  6
CONTINUOUS
 62
     2
100
AcDbVertex
100
AcDb2dVertex
 10
680.915958
 20
118.258548
 30
0.0
  0
VERTEX
  5
4A3
100
AcDbEntity
  8
LAY-1
  6
CONTINUOUS
 62
     2
100
AcDbVertex
100
AcDb2dVertex
 10
680.915958
 20
126.341452
 30
0.0
  0
VERTEX
  5
4A4
100
AcDbEntity
  8
LAY-1
  6
CONTINUOUS
 62
     2
100
AcDbVertex
100
AcDb2dVertex
 10
673.915958
 20
130.382904
 30
0.0
  0
SEQEND
  5
4A5
100
AcDbEntity
  8
LAY-1
  6
CONTINUOUS
 62
     2
  0
CIRCLE
  5
4A6
100
AcDbEntity
  8
LAY-1
  6
CONTINUOUS
 62
     2
100
AcDbCircle
 10
673.915958
 20
122.3
 30
0.0
 40
7.0
  0
ARC
  5
4A7
100
AcDbEntity
  8
LAY-1
  6
CONTINUOUS
 62
     3
100
AcDbCircle
 10
218.915958
 20
-344.9
 30
0.0
 40
62.5
100
AcDbArc
 50
163.403811
 51
16.596189
  0
ARC
  5
4A8
100
AcDbEntity
  8
LAY-1
  6
CONTINUOUS
 62
     3
100
AcDbCircle
 10
250.735763
 20
-376.719805
 30
0.0
 40
9.5
100
AcDbArc
 50
132.113331
 51
119.886669
  0
ARC
  5
4A9
100
AcDbEntity
  8
LAY-1
  6
CONTINUOUS
 62
     3
100
AcDbCircle
 10
187.096153
 20
-376.719805
 30
0.0
 40
9.5
100
AcDbArc
 50
60.113331
 51
47.886669
  0
LINE
  5
4AA
100
AcDbEntity
  8
LAY-1
  6
EXLTYPE3
 62
     5
100
AcDbLine
 10
139.915958
 20
100.343637
 30
0.0
 11
139.915958
 21
144.256363
 31
0.0
  0
LINE
  5
4AB
100
AcDbEntity
  8
LAY-1
  6
CONTINUOUS
 62
     2
100
AcDbLine
 10
139.915958
 20
147.850995
 30
0.0
 11
139.915958
 21
147.835765
 31
0.0
  0
LINE
  5
4AC
100
AcDbEntity
  8
LAY-1
  6
CONTINUOUS
 62
     2
100
AcDbLine
 10
139.915958
 20
145.982196
 30
0.0
 11
139.915958
 21
98.442196
 31
0.0
  0
ARC
  5
4AD
100
AcDbEntity
  8
LAY-1
  6
CONTINUOUS
 62
     2
100
AcDbCircle
 10
137.844826
 20
142.3
 30
0.0
 40
5.0
100
AcDbArc
 50
44.998733
 51
90.0
  0
LINE
  5
4AE
100
AcDbEntity
  8
LAY-1
  6
CONTINUOUS
 62
     2
100
AcDbLine
 10
145.915958
 20
140.242196
 30
0.0
 11
145.915958
 21
104.242196
 31
0.0
  0
LINE
  5
4AF
100
AcDbEntity
  8
LAY-1
  6
CONTINUOUS
 62
     2
100
AcDbLine
 10
144.451213
 20
142.764544
 30
0.0
 11
141.380438
 21
145.835456
 31
0.0
  0
ARC
  5
4B0
100
AcDbEntity
  8
LAY-1
  6
CONTINUOUS
 62
     2
100
AcDbCircle
 10
147.986825
 20
146.3
 30
0.0
 40
5.0
100
AcDbArc
 50
224.998733
 51
270.0
  0
LINE
  5
4B1
100
AcDbEntity
  8
LAY-1
  6
CONTINUOUS
 62
     2
100
AcDbLine
 10
139.915958
 20
96.749005
 30
0.0
 11
139.915958
 21
96.764235
 31
0.0
  0
ARC
  5
4B2
100
AcDbEntity
  8
LAY-1
  6
CONTINUOUS
 62
     2
100
AcDbCircle
 10
137.844826
 20
102.3
 30
0.0
 40
5.0
100
AcDbArc
 50
270.0
 51
315.001267
  0
LINE
  5
4B3
100
AcDbEntity
  8
LAY-1
  6
CONTINUOUS
 62
     2
100
AcDbLine
 10
144.451213
 20
101.835456
 30
0.0
 11
141.380438
 21
98.764544
 31
0.0
  0
ARC
  5
4B4
100
AcDbEntity
  8
LAY-1
  6
CONTINUOUS
 62
     2
100
AcDbCircle
 10
147.986825
 20
98.3
 30
0.0
 40
5.0
100
AcDbArc
 50
90.0
 51
135.001267
  0
LINE
  5
4B5
100
AcDbEntity
  8
LAY-1
  6
CONTINUOUS
 62
     2
100
AcDbLine
 10
144.451213
 20
101.835456
 30
0.0
 11
141.380438
 21
98.764544
 31
0.0
  0
LINE
  5
4B6
100
AcDbEntity
  8
LAY-1
  6
CONTINUOUS
 62
     2
100
AcDbLine
 10
193.029862
 20
103.3
 30
0.0
 11
147.986825
 21
103.3
 31
0.0
  0
LINE
  5
4B7
100
AcDbEntity
  8
LAY-1
  6
CONTINUOUS
 62
     2
100
AcDbLine
 10
193.029862
 20
141.3
 30
0.0
 11
147.986825
 21
141.3
 31
0.0
  0
ARC
  5
4B8
100
AcDbEntity
  8
LAY-1
  6
CONTINUOUS
 62
     2
100
AcDbCircle
 10
193.029862
 20
98.3
 30
0.0
 40
5.0
100
AcDbArc
 50
42.834789
 51
90.0
  0
ARC
  5
4B9
100
AcDbEntity
  8
LAY-1
  6
CONTINUOUS
 62
     2
100
AcDbCircle
 10
193.029862
 20
146.3
 30
0.0
 40
5.0
100
AcDbArc
 50
270.0
 51
317.165211
  0
POLYLINE
  5
4BA
100
AcDbEntity
  8
LAY-1
  6
CONTINUOUS
 62
     2
100
AcDb2dPolyline
 66
     1
 10
0.0
 20
0.0
 30
0.0
 70
   128
  0
VERTEX
  5
4BB
100
AcDbEntity
  8
LAY-1
  6
CONTINUOUS
 62
     2
100
AcDbVertex
100
AcDb2dVertex
 10
190.086298
 20
192.353424
 30
0.0
  0
VERTEX
  5
4BC
100
AcDbEntity
  8
LAY-1
  6
CONTINUOUS
 62
     2
100
AcDbVertex
100
AcDb2dVertex
 10
190.086298
 20
189.005501
 30
0.0
  0
SEQEND
  5
4BD
100
AcDbEntity
  8
LAY-1
  6
CONTINUOUS
 62
     2
  0
ARC
  5
4BE
100
AcDbEntity
  8
LAY-1
  6
CONTINUOUS
 62
     2
100
AcDbCircle
 10
192.415958
 20
186.306682
 30
0.0
 40
6.48
100
AcDbArc
 50
24.624318
 51
111.070443
  0
POLYLINE
  5
4BF
100
AcDbEntity
  8
LAY-1
  6
CONTINUOUS
 62
     2
100
AcDb2dPolyline
 66
     1
 10
0.0
 20
0.0
 30
0.0
 70
   128
  0
VERTEX
  5
4C0
100
AcDbEntity
  8
LAY-1
  6
CONTINUOUS
 62
     2
100
AcDbVertex
100
AcDb2dVertex
 10
190.086298
 20
189.006682
 30
0.0
  0
VERTEX
  5
4C1
100
AcDbEntity
  8
LAY-1
  6
CONTINUOUS
 62
     2
100
AcDbVertex
100
AcDb2dVertex
 10
198.306663
 20
189.006682
 30
0.0
  0
SEQEND
  5
4C2
100
AcDbEntity
  8
LAY-1
  6
CONTINUOUS
 62
     2
  0
ARC
  5
4C3
100
AcDbEntity
  8
LAY-1
  6
CONTINUOUS
 62
     2
100
AcDbCircle
 10
186.201434
 20
187.025501
 30
0.0
 40
2.88
100
AcDbArc
 50
272.086657
 51
294.619977
  0
ARC
  5
4C4
100
AcDbEntity
  8
LAY-1
  6
CONTINUOUS
 62
     2
100
AcDbCircle
 10
192.415958
 20
186.306682
 30
0.0
 40
6.48
100
AcDbArc
 50
133.856042
 51
199.464384
  0
POLYLINE
  5
4C5
100
AcDbEntity
  8
LAY-1
  6
CONTINUOUS
 62
     2
100
AcDb2dPolyline
 66
     1
 10
0.0
 20
0.0
 30
0.0
 70
   128
  0
VERTEX
  5
4C6
100
AcDbEntity
  8
LAY-1
  6
CONTINUOUS
 62
     2
100
AcDbVertex
100
AcDb2dVertex
 10
187.926298
 20
185.225501
 30
0.0
  0
VERTEX
  5
4C7
100
AcDbEntity
  8
LAY-1
  6
CONTINUOUS
 62
     2
100
AcDbVertex
100
AcDb2dVertex
 10
187.926298
 20
190.979299
 30
0.0
  0
SEQEND
  5
4C8
100
AcDbEntity
  8
LAY-1
  6
CONTINUOUS
 62
     2
  0
ARC
  5
4C9
100
AcDbEntity
  8
LAY-1
  6
CONTINUOUS
 62
     2
100
AcDbCircle
 10
187.026298
 20
185.225501
 30
0.0
 40
0.9
100
AcDbArc
 50
294.619977
 51
0.0
  0
POLYLINE
  5
4CA
100
AcDbEntity
  8
LAY-1
  6
CONTINUOUS
 62
     2
100
AcDb2dPolyline
 66
     1
 10
0.0
 20
0.0
 30
0.0
 70
   128
  0
VERTEX
  5
4CB
100
AcDbEntity
  8
LAY-1
  6
CONTINUOUS
 62
     2
100
AcDbVertex
100
AcDb2dVertex
 10
197.922899
 20
188.106682
 30
0.0
  0
VERTEX
  5
4CC
100
AcDbEntity
  8
LAY-1
  6
CONTINUOUS
 62
     2
100
AcDbVertex
100
AcDb2dVertex
 10
196.015958
 20
188.106682
 30
0.0
  0
SEQEND
  5
4CD
100
AcDbEntity
  8
LAY-1
  6
CONTINUOUS
 62
     2
  0
ARC
  5
4CE
100
AcDbEntity
  8
LAY-1
  6
CONTINUOUS
 62
     2
100
AcDbCircle
 10
197.922899
 20
187.206682
 30
0.0
 40
0.9
100
AcDbArc
 50
9.281799
 51
90.0
  0
ARC
  5
4CF
100
AcDbEntity
  8
LAY-1
  6
CONTINUOUS
 62
     2
100
AcDbCircle
 10
192.415958
 20
186.306682
 30
0.0
 40
6.48
100
AcDbArc
 50
303.748989
 51
9.281799
  0
POLYLINE
  5
4D0
100
AcDbEntity
  8
LAY-1
  6
CONTINUOUS
 62
     2
100
AcDb2dPolyline
 66
     1
 10
0.0
 20
0.0
 30
0.0
 70
   128
  0
VERTEX
  5
4D1
100
AcDbEntity
  8
LAY-1
  6
CONTINUOUS
 62
     2
100
AcDbVertex
100
AcDb2dVertex
 10
196.015958
 20
188.106682
 30
0.0
  0
VERTEX
  5
4D2
100
AcDbEntity
  8
LAY-1
  6
CONTINUOUS
 62
     2
100
AcDbVertex
100
AcDb2dVertex
 10
196.015958
 20
180.918696
 30
0.0
  0
SEQEND
  5
4D3
100
AcDbEntity
  8
LAY-1
  6
CONTINUOUS
 62
     2
  0
POLYLINE
  5
4D4
100
AcDbEntity
  8
LAY-1
  6
CONTINUOUS
 62
     2
100
AcDb2dPolyline
 66
     1
 10
0.0
 20
0.0
 30
0.0
 70
   128
  0
VERTEX
  5
4D5
100
AcDbEntity
  8
LAY-1
  6
CONTINUOUS
 62
     2
100
AcDbVertex
100
AcDb2dVertex
 10
187.926298
 20
193.687411
 30
0.0
  0
VERTEX
  5
4D6
100
AcDbEntity
  8
LAY-1
  6
CONTINUOUS
 62
     2
100
AcDbVertex
100
AcDb2dVertex
 10
187.926298
 20
192.709256
 30
0.0
  0
SEQEND
  5
4D7
100
AcDbEntity
  8
LAY-1
  6
CONTINUOUS
 62
     2
  0
ARC
  5
4D8
100
AcDbEntity
  8
LAY-1
  6
CONTINUOUS
 62
     2
100
AcDbCircle
 10
187.026298
 20
193.687411
 30
0.0
 40
0.9
100
AcDbArc
 50
0.0
 51
65.380023
  0
ARC
  5
4D9
100
AcDbEntity
  8
LAY-1
  6
CONTINUOUS
 62
     2
100
AcDbCircle
 10
186.201434
 20
191.887411
 30
0.0
 40
2.88
100
AcDbArc
 50
65.380023
 51
87.913343
  0
POLYLINE
  5
4DA
100
AcDbEntity
  8
LAY-1
  6
CONTINUOUS
 62
     2
100
AcDb2dPolyline
 66
     1
 10
0.0
 20
0.0
 30
0.0
 70
   128
  0
VERTEX
  5
4DB
100
AcDbEntity
  8
LAY-1
  6
CONTINUOUS
 62
     2
100
AcDbVertex
100
AcDb2dVertex
 10
191.706298
 20
194.765501
 30
0.0
  0
VERTEX
  5
4DC
100
AcDbEntity
  8
LAY-1
  6
CONTINUOUS
 62
     2
100
AcDbVertex
100
AcDb2dVertex
 10
191.706298
 20
195.305501
 30
0.0
  0
VERTEX
  5
4DD
100
AcDbEntity
  8
LAY-1
  6
CONTINUOUS
 62
     2
100
AcDbVertex
100
AcDb2dVertex
 10
186.306298
 20
195.305501
 30
0.0
  0
VERTEX
  5
4DE
100
AcDbEntity
  8
LAY-1
  6
CONTINUOUS
 62
     2
100
AcDbVertex
100
AcDb2dVertex
 10
186.306298
 20
194.765501
 30
0.0
  0
SEQEND
  5
4DF
100
AcDbEntity
  8
LAY-1
  6
CONTINUOUS
 62
     2
  0
ARC
  5
4E0
100
AcDbEntity
  8
LAY-1
  6
CONTINUOUS
 62
     2
100
AcDbCircle
 10
191.811162
 20
191.887411
 30
0.0
 40
2.88
100
AcDbArc
 50
92.086657
 51
114.619977
  0
ARC
  5
4E1
100
AcDbEntity
  8
LAY-1
  6
CONTINUOUS
 62
     2
100
AcDbCircle
 10
190.986298
 20
193.687411
 30
0.0
 40
0.9
100
AcDbArc
 50
114.619977
 51
180.0
  0
POLYLINE
  5
4E2
100
AcDbEntity
  8
LAY-1
  6
CONTINUOUS
 62
     2
100
AcDb2dPolyline
 66
     1
 10
0.0
 20
0.0
 30
0.0
 70
   128
  0
VERTEX
  5
4E3
100
AcDbEntity
  8
LAY-1
  6
CONTINUOUS
 62
     2
100
AcDbVertex
100
AcDb2dVertex
 10
190.086298
 20
193.432425
 30
0.0
  0
VERTEX
  5
4E4
100
AcDbEntity
  8
LAY-1
  6
CONTINUOUS
 62
     2
100
AcDbVertex
100
AcDb2dVertex
 10
190.086298
 20
193.687411
 30
0.0
  0
SEQEND
  5
4E5
100
AcDbEntity
  8
LAY-1
  6
CONTINUOUS
 62
     2
  0
ARC
  5
4E6
100
AcDbEntity
  8
LAY-1
  6
CONTINUOUS
 62
     2
100
AcDbCircle
 10
192.415958
 20
182.886682
 30
0.0
 40
10.8
100
AcDbArc
 50
55.698847
 51
102.457143
  0
ARC
  5
4E7
100
AcDbEntity
  8
LAY-1
  6
CONTINUOUS
 62
     2
100
AcDbCircle
 10
194.749025
 20
186.306682
 30
0.0
 40
6.66
100
AcDbArc
 50
304.301153
 51
55.698847
  0
ARC
  5
4E8
100
AcDbEntity
  8
LAY-1
  6
CONTINUOUS
 62
     2
100
AcDbCircle
 10
192.415958
 20
189.726682
 30
0.0
 40
10.8
100
AcDbArc
 50
289.471221
 51
304.301153
  0
POLYLINE
  5
4E9
100
AcDbEntity
  8
LAY-1
  6
CONTINUOUS
 62
     2
100
AcDb2dPolyline
 66
     1
 10
0.0
 20
0.0
 30
0.0
 70
   128
  0
VERTEX
  5
4EA
100
AcDbEntity
  8
LAY-1
  6
CONTINUOUS
 62
     2
100
AcDbVertex
100
AcDb2dVertex
 10
196.015958
 20
178.924772
 30
0.0
  0
VERTEX
  5
4EB
100
AcDbEntity
  8
LAY-1
  6
CONTINUOUS
 62
     2
100
AcDbVertex
100
AcDb2dVertex
 10
196.015958
 20
179.544345
 30
0.0
  0
SEQEND
  5
4EC
100
AcDbEntity
  8
LAY-1
  6
CONTINUOUS
 62
     2
  0
ARC
  5
4ED
100
AcDbEntity
  8
LAY-1
  6
CONTINUOUS
 62
     2
100
AcDbCircle
 10
196.915958
 20
178.924772
 30
0.0
 40
0.9
100
AcDbArc
 50
180.0
 51
245.380023
  0
ARC
  5
4EE
100
AcDbEntity
  8
LAY-1
  6
CONTINUOUS
 62
     2
100
AcDbCircle
 10
197.740822
 20
180.724772
 30
0.0
 40
2.88
100
AcDbArc
 50
245.380023
 51
267.913343
  0
POLYLINE
  5
4EF
100
AcDbEntity
  8
LAY-1
  6
CONTINUOUS
 62
     2
100
AcDb2dPolyline
 66
     1
 10
0.0
 20
0.0
 30
0.0
 70
   128
  0
VERTEX
  5
4F0
100
AcDbEntity
  8
LAY-1
  6
CONTINUOUS
 62
     2
100
AcDbVertex
100
AcDb2dVertex
 10
192.235958
 20
177.846682
 30
0.0
  0
VERTEX
  5
4F1
100
AcDbEntity
  8
LAY-1
  6
CONTINUOUS
 62
     2
100
AcDbVertex
100
AcDb2dVertex
 10
192.235958
 20
177.306682
 30
0.0
  0
VERTEX
  5
4F2
100
AcDbEntity
  8
LAY-1
  6
CONTINUOUS
 62
     2
100
AcDbVertex
100
AcDb2dVertex
 10
197.635958
 20
177.306682
 30
0.0
  0
VERTEX
  5
4F3
100
AcDbEntity
  8
LAY-1
  6
CONTINUOUS
 62
     2
100
AcDbVertex
100
AcDb2dVertex
 10
197.635958
 20
177.846682
 30
0.0
  0
SEQEND
  5
4F4
100
AcDbEntity
  8
LAY-1
  6
CONTINUOUS
 62
     2
  0
ARC
  5
4F5
100
AcDbEntity
  8
LAY-1
  6
CONTINUOUS
 62
     2
100
AcDbCircle
 10
192.131095
 20
180.724772
 30
0.0
 40
2.88
100
AcDbArc
 50
272.086657
 51
294.619977
  0
ARC
  5
4F6
100
AcDbEntity
  8
LAY-1
  6
CONTINUOUS
 62
     2
100
AcDbCircle
 10
192.955958
 20
178.924772
 30
0.0
 40
0.9
100
AcDbArc
 50
294.619977
 51
0.0
  0
POLYLINE
  5
4F7
100
AcDbEntity
  8
LAY-1
  6
CONTINUOUS
 62
     2
100
AcDb2dPolyline
 66
     1
 10
0.0
 20
0.0
 30
0.0
 70
   128
  0
VERTEX
  5
4F8
100
AcDbEntity
  8
LAY-1
  6
CONTINUOUS
 62
     2
100
AcDbVertex
100
AcDb2dVertex
 10
193.855958
 20
179.023113
 30
0.0
  0
VERTEX
  5
4F9
100
AcDbEntity
  8
LAY-1
  6
CONTINUOUS
 62
     2
100
AcDbVertex
100
AcDb2dVertex
 10
193.855958
 20
178.924772
 30
0.0
  0
SEQEND
  5
4FA
100
AcDbEntity
  8
LAY-1
  6
CONTINUOUS
 62
     2
  0
ARC
  5
4FB
100
AcDbEntity
  8
LAY-1
  6
CONTINUOUS
 62
     2
100
AcDbCircle
 10
192.415958
 20
189.726682
 30
0.0
 40
10.8
100
AcDbArc
 50
235.698847
 51
277.662256
  0
ARC
  5
4FC
100
AcDbEntity
  8
LAY-1
  6
CONTINUOUS
 62
     2
100
AcDbCircle
 10
190.082892
 20
186.306682
 30
0.0
 40
6.66
100
AcDbArc
 50
124.301153
 51
235.698847
  0
ARC
  5
4FD
100
AcDbEntity
  8
LAY-1
  6
CONTINUOUS
 62
     2
100
AcDbCircle
 10
192.415958
 20
182.886682
 30
0.0
 40
10.8
100
AcDbArc
 50
114.563992
 51
124.301153
  0
ARC
  5
4FE
100
AcDbEntity
  8
LAY-1
  6
CONTINUOUS
 62
     2
100
AcDbCircle
 10
193.326167
 20
186.306682
 30
0.0
 40
3.24
100
AcDbArc
 50
157.380135
 51
180.514911
  0
ARC
  5
4FF
100
AcDbEntity
  8
LAY-1
  6
CONTINUOUS
 62
     2
100
AcDbCircle
 10
191.166167
 20
187.206682
 30
0.0
 40
0.9
100
AcDbArc
 50
90.0
 51
157.380135
  0
POLYLINE
  5
500
100
AcDbEntity
  8
LAY-1
  6
CONTINUOUS
 62
     2
100
AcDb2dPolyline
 66
     1
 10
0.0
 20
0.0
 30
0.0
 70
   128
  0
VERTEX
  5
501
100
AcDbEntity
  8
LAY-1
  6
CONTINUOUS
 62
     2
100
AcDbVertex
100
AcDb2dVertex
 10
193.855958
 20
179.988708
 30
0.0
  0
VERTEX
  5
502
100
AcDbEntity
  8
LAY-1
  6
CONTINUOUS
 62
     2
100
AcDbVertex
100
AcDb2dVertex
 10
193.855958
 20
188.106682
 30
0.0
  0
VERTEX
  5
503
100
AcDbEntity
  8
LAY-1
  6
CONTINUOUS
 62
     2
100
AcDbVertex
100
AcDb2dVertex
 10
191.166167
 20
188.106682
 30
0.0
  0
SEQEND
  5
504
100
AcDbEntity
  8
LAY-1
  6
CONTINUOUS
 62
     2
  0
ARC
  5
505
100
AcDbEntity
  8
LAY-1
  6
CONTINUOUS
 62
     2
100
AcDbCircle
 10
192.415958
 20
186.306682
 30
0.0
 40
6.48
100
AcDbArc
 50
204.635803
 51
282.839588
  0
POLYLINE
  5
506
100
AcDbEntity
  8
LAY-1
  6
CONTINUOUS
 62
     2
100
AcDb2dPolyline
 66
     1
 10
0.0
 20
0.0
 30
0.0
 70
   128
  0
VERTEX
  5
507
100
AcDbEntity
  8
LAY-1
  6
CONTINUOUS
 62
     2
100
AcDbVertex
100
AcDb2dVertex
 10
191.706298
 20
184.145501
 30
0.0
  0
VERTEX
  5
508
100
AcDbEntity
  8
LAY-1
  6
CONTINUOUS
 62
     2
100
AcDbVertex
100
AcDb2dVertex
 10
191.706298
 20
183.605501
 30
0.0
  0
VERTEX
  5
509
100
AcDbEntity
  8
LAY-1
  6
CONTINUOUS
 62
     2
100
AcDbVertex
100
AcDb2dVertex
 10
186.525795
 20
183.605501
 30
0.0
  0
SEQEND
  5
50A
100
AcDbEntity
  8
LAY-1
  6
CONTINUOUS
 62
     2
  0
ARC
  5
50B
100
AcDbEntity
  8
LAY-1
  6
CONTINUOUS
 62
     2
100
AcDbCircle
 10
191.811162
 20
187.023592
 30
0.0
 40
2.88
100
AcDbArc
 50
245.380023
 51
267.913343
  0
ARC
  5
50C
100
AcDbEntity
  8
LAY-1
  6
CONTINUOUS
 62
     2
100
AcDbCircle
 10
190.986298
 20
185.223592
 30
0.0
 40
0.9
100
AcDbArc
 50
180.0
 51
245.380023
  0
POLYLINE
  5
50D
100
AcDbEntity
  8
LAY-1
  6
CONTINUOUS
 62
     2
100
AcDb2dPolyline
 66
     1
 10
0.0
 20
0.0
 30
0.0
 70
   128
  0
VERTEX
  5
50E
100
AcDbEntity
  8
LAY-1
  6
CONTINUOUS
 62
     2
100
AcDbVertex
100
AcDb2dVertex
 10
190.086298
 20
186.335799
 30
0.0
  0
VERTEX
  5
50F
100
AcDbEntity
  8
LAY-1
  6
CONTINUOUS
 62
     2
100
AcDbVertex
100
AcDb2dVertex
 10
190.086298
 20
185.223592
 30
0.0
  0
SEQEND
  5
510
100
AcDbEntity
  8
LAY-1
  6
CONTINUOUS
 62
     2
  0
ARC
  5
511
100
AcDbEntity
  8
LAY-1
  6
CONTINUOUS
 62
     2
100
AcDbCircle
 10
244.337497
 20
184.805698
 30
0.0
 40
6.6
100
AcDbArc
 50
330.0
 51
30.0
  0
ARC
  5
512
100
AcDbEntity
  8
LAY-1
  6
CONTINUOUS
 62
     2
100
AcDbCircle
 10
246.415958
 20
186.005698
 30
0.0
 40
4.2
100
AcDbArc
 50
30.0
 51
150.0
  0
ARC
  5
513
100
AcDbEntity
  8
LAY-1
  6
CONTINUOUS
 62
     2
100
AcDbCircle
 10
248.494419
 20
184.805698
 30
0.0
 40
6.6
100
AcDbArc
 50
150.0
 51
210.0
  0
ARC
  5
514
100
AcDbEntity
  8
LAY-1
  6
CONTINUOUS
 62
     2
100
AcDbCircle
 10
246.415958
 20
183.605698
 30
0.0
 40
4.2
100
AcDbArc
 50
210.0
 51
330.0
  0
ARC
  5
515
100
AcDbEntity
  8
LAY-1
  6
CONTINUOUS
 62
     2
100
AcDbCircle
 10
244.337497
 20
184.805698
 30
0.0
 40
9.0
100
AcDbArc
 50
330.0
 51
30.0
  0
ARC
  5
516
100
AcDbEntity
  8
LAY-1
  6
CONTINUOUS
 62
     2
100
AcDbCircle
 10
246.415958
 20
186.005698
 30
0.0
 40
6.6
100
AcDbArc
 50
30.0
 51
150.0
  0
ARC
  5
517
100
AcDbEntity
  8
LAY-1
  6
CONTINUOUS
 62
     2
100
AcDbCircle
 10
248.494419
 20
184.805698
 30
0.0
 40
9.0
100
AcDbArc
 50
150.0
 51
210.0
  0
ARC
  5
518
100
AcDbEntity
  8
LAY-1
  6
CONTINUOUS
 62
     2
100
AcDbCircle
 10
246.415958
 20
183.605698
 30
0.0
 40
6.6
100
AcDbArc
 50
210.0
 51
330.0
  0
POLYLINE
  5
519
100
AcDbEntity
  8
LAY-1
  6
CONTINUOUS
 62
     2
100
AcDb2dPolyline
 66
     1
 10
0.0
 20
0.0
 30
0.0
 70
   128
  0
VERTEX
  5
51A
100
AcDbEntity
  8
LAY-1
  6
CONTINUOUS
 62
     2
100
AcDbVertex
100
AcDb2dVertex
 10
206.815958
 20
177.305698
 30
0.0
  0
VERTEX
  5
51B
100
AcDbEntity
  8
LAY-1
  6
CONTINUOUS
 62
     2
100
AcDbVertex
100
AcDb2dVertex
 10
206.815958
 20
179.105698
 30
0.0
  0
VERTEX
  5
51C
100
AcDbEntity
  8
LAY-1
  6
CONTINUOUS
 62
     2
100
AcDbVertex
100
AcDb2dVertex
 10
209.215958
 20
179.705698
 30
0.0
  0
VERTEX
  5
51D
100
AcDbEntity
  8
LAY-1
  6
CONTINUOUS
 62
     2
100
AcDbVertex
100
AcDb2dVertex
 10
209.215958
 20
189.905698
 30
0.0
  0
VERTEX
  5
51E
100
AcDbEntity
  8
LAY-1
  6
CONTINUOUS
 62
     2
100
AcDbVertex
100
AcDb2dVertex
 10
206.815958
 20
190.505698
 30
0.0
  0
VERTEX
  5
51F
100
AcDbEntity
  8
LAY-1
  6
CONTINUOUS
 62
     2
100
AcDbVertex
100
AcDb2dVertex
 10
206.815958
 20
192.305698
 30
0.0
  0
VERTEX
  5
520
100
AcDbEntity
  8
LAY-1
  6
CONTINUOUS
 62
     2
100
AcDbVertex
100
AcDb2dVertex
 10
214.015958
 20
192.305698
 30
0.0
  0
VERTEX
  5
521
100
AcDbEntity
  8
LAY-1
  6
CONTINUOUS
 62
     2
100
AcDbVertex
100
AcDb2dVertex
 10
214.015958
 20
190.505698
 30
0.0
  0
VERTEX
  5
522
100
AcDbEntity
  8
LAY-1
  6
CONTINUOUS
 62
     2
100
AcDbVertex
100
AcDb2dVertex
 10
211.615958
 20
189.905698
 30
0.0
  0
VERTEX
  5
523
100
AcDbEntity
  8
LAY-1
  6
CONTINUOUS
 62
     2
100
AcDbVertex
100
AcDb2dVertex
 10
211.615958
 20
179.705698
 30
0.0
  0
VERTEX
  5
524
100
AcDbEntity
  8
LAY-1
  6
CONTINUOUS
 62
     2
100
AcDbVertex
100
AcDb2dVertex
 10
214.015958
 20
179.105698
 30
0.0
  0
VERTEX
  5
525
100
AcDbEntity
  8
LAY-1
  6
CONTINUOUS
 62
     2
100
AcDbVertex
100
AcDb2dVertex
 10
214.015958
 20
177.305698
 30
0.0
  0
VERTEX
  5
526
100
AcDbEntity
  8
LAY-1
  6
CONTINUOUS
 62
     2
100
AcDbVertex
100
AcDb2dVertex
 10
206.815958
 20
177.305698
 30
0.0
  0
SEQEND
  5
527
100
AcDbEntity
  8
LAY-1
  6
CONTINUOUS
 62
     2
  0
POLYLINE
  5
528
100
AcDbEntity
  8
LAY-1
  6
CONTINUOUS
 62
     2
100
AcDb2dPolyline
 66
     1
 10
0.0
 20
0.0
 30
0.0
 70
   128
  0
VERTEX
  5
529
100
AcDbEntity
  8
LAY-1
  6
CONTINUOUS
 62
     2
100
AcDbVertex
100
AcDb2dVertex
 10
219.115958
 20
184.505698
 30
0.0
  0
VERTEX
  5
52A
100
AcDbEntity
  8
LAY-1
  6
CONTINUOUS
 62
     2
100
AcDbVertex
100
AcDb2dVertex
 10
219.115958
 20
182.105698
 30
0.0
  0
VERTEX
  5
52B
100
AcDbEntity
  8
LAY-1
  6
CONTINUOUS
 62
     2
100
AcDbVertex
100
AcDb2dVertex
 10
219.115958
 20
184.505698
 30
0.0
  0
VERTEX
  5
52C
100
AcDbEntity
  8
LAY-1
  6
CONTINUOUS
 62
     2
100
AcDbVertex
100
AcDb2dVertex
 10
216.715958
 20
184.505698
 30
0.0
  0
VERTEX
  5
52D
100
AcDbEntity
  8
LAY-1
  6
CONTINUOUS
 62
     2
100
AcDbVertex
100
AcDb2dVertex
 10
216.715958
 20
182.105698
 30
0.0
  0
VERTEX
  5
52E
100
AcDbEntity
  8
LAY-1
  6
CONTINUOUS
 62
     2
100
AcDbVertex
100
AcDb2dVertex
 10
219.115958
 20
182.105698
 30
0.0
  0
SEQEND
  5
52F
100
AcDbEntity
  8
LAY-1
  6
CONTINUOUS
 62
     2
  0
POLYLINE
  5
530
100
AcDbEntity
  8
LAY-1
  6
CONTINUOUS
 62
     2
100
AcDb2dPolyline
 66
     1
 10
0.0
 20
0.0
 30
0.0
 70
   128
  0
VERTEX
  5
531
100
AcDbEntity
  8
LAY-1
  6
CONTINUOUS
 62
     2
100
AcDbVertex
100
AcDb2dVertex
 10
237.115958
 20
182.105698
 30
0.0
  0
VERTEX
  5
532
100
AcDbEntity
  8
LAY-1
  6
CONTINUOUS
 62
     2
100
AcDbVertex
100
AcDb2dVertex
 10
237.115958
 20
184.505698
 30
0.0
  0
VERTEX
  5
533
100
AcDbEntity
  8
LAY-1
  6
CONTINUOUS
 62
     2
100
AcDbVertex
100
AcDb2dVertex
 10
234.715958
 20
184.505698
 30
0.0
  0
VERTEX
  5
534
100
AcDbEntity
  8
LAY-1
  6
CONTINUOUS
 62
     2
100
AcDbVertex
100
AcDb2dVertex
 10
234.715958
 20
182.105698
 30
0.0
  0
VERTEX
  5
535
100
AcDbEntity
  8
LAY-1
  6
CONTINUOUS
 62
     2
100
AcDbVertex
100
AcDb2dVertex
 10
237.115958
 20
182.105698
 30
0.0
  0
SEQEND
  5
536
100
AcDbEntity
  8
LAY-1
  6
CONTINUOUS
 62
     2
  0
POLYLINE
  5
537
100
AcDbEntity
  8
LAY-1
  6
CONTINUOUS
 62
     2
100
AcDb2dPolyline
 66
     1
 10
0.0
 20
0.0
 30
0.0
 70
   128
  0
VERTEX
  5
538
100
AcDbEntity
  8
LAY-1
  6
CONTINUOUS
 62
     2
100
AcDbVertex
100
AcDb2dVertex
 10
223.315958
 20
179.105698
 30
0.0
  0
VERTEX
  5
539
100
AcDbEntity
  8
LAY-1
  6
CONTINUOUS
 62
     2
100
AcDbVertex
100
AcDb2dVertex
 10
225.715958
 20
179.705698
 30
0.0
  0
VERTEX
  5
53A
100
AcDbEntity
  8
LAY-1
  6
CONTINUOUS
 62
     2
100
AcDbVertex
100
AcDb2dVertex
 10
225.715958
 20
189.905698
 30
0.0
  0
VERTEX
  5
53B
100
AcDbEntity
  8
LAY-1
  6
CONTINUOUS
 62
     2
100
AcDbVertex
100
AcDb2dVertex
 10
222.415958
 20
189.905698
 30
0.0
  0
VERTEX
  5
53C
100
AcDbEntity
  8
LAY-1
  6
CONTINUOUS
 62
     2
100
AcDbVertex
100
AcDb2dVertex
 10
221.815958
 20
186.605698
 30
0.0
  0
VERTEX
  5
53D
100
AcDbEntity
  8
LAY-1
  6
CONTINUOUS
 62
     2
100
AcDbVertex
100
AcDb2dVertex
 10
220.015958
 20
186.605698
 30
0.0
  0
VERTEX
  5
53E
100
AcDbEntity
  8
LAY-1
  6
CONTINUOUS
 62
     2
100
AcDbVertex
100
AcDb2dVertex
 10
220.015958
 20
192.305698
 30
0.0
  0
VERTEX
  5
53F
100
AcDbEntity
  8
LAY-1
  6
CONTINUOUS
 62
     2
100
AcDbVertex
100
AcDb2dVertex
 10
233.815958
 20
192.305698
 30
0.0
  0
VERTEX
  5
540
100
AcDbEntity
  8
LAY-1
  6
CONTINUOUS
 62
     2
100
AcDbVertex
100
AcDb2dVertex
 10
233.815958
 20
186.605698
 30
0.0
  0
VERTEX
  5
541
100
AcDbEntity
  8
LAY-1
  6
CONTINUOUS
 62
     2
100
AcDbVertex
100
AcDb2dVertex
 10
232.015958
 20
186.605698
 30
0.0
  0
VERTEX
  5
542
100
AcDbEntity
  8
LAY-1
  6
CONTINUOUS
 62
     2
100
AcDbVertex
100
AcDb2dVertex
 10
231.415958
 20
189.905698
 30
0.0
  0
VERTEX
  5
543
100
AcDbEntity
  8
LAY-1
  6
CONTINUOUS
 62
     2
100
AcDbVertex
100
AcDb2dVertex
 10
228.115958
 20
189.905698
 30
0.0
  0
VERTEX
  5
544
100
AcDbEntity
  8
LAY-1
  6
CONTINUOUS
 62
     2
100
AcDbVertex
100
AcDb2dVertex
 10
228.115958
 20
179.705698
 30
0.0
  0
VERTEX
  5
545
100
AcDbEntity
  8
LAY-1
  6
CONTINUOUS
 62
     2
100
AcDbVertex
100
AcDb2dVertex
 10
230.515958
 20
179.105698
 30
0.0
  0
VERTEX
  5
546
100
AcDbEntity
  8
LAY-1
  6
CONTINUOUS
 62
     2
100
AcDbVertex
100
AcDb2dVertex
 10
230.515958
 20
177.305698
 30
0.0
  0
VERTEX
  5
547
100
AcDbEntity
  8
LAY-1
  6
CONTINUOUS
 62
     2
100
AcDbVertex
100
AcDb2dVertex
 10
223.315958
 20
177.305698
 30
0.0
  0
VERTEX
  5
548
100
AcDbEntity
  8
LAY-1
  6
CONTINUOUS
 62
     2
100
AcDbVertex
100
AcDb2dVertex
 10
223.315958
 20
179.105698
 30
0.0
  0
SEQEND
  5
549
100
AcDbEntity
  8
LAY-1
  6
CONTINUOUS
 62
     2
  0
ARC
  5
54A
100
AcDbEntity
  8
LAY-1
  6
CONTINUOUS
 62
     2
100
AcDbCircle
 10
218.915958
 20
122.3
 30
0.0
 40
100.796085
100
AcDbArc
 50
161.198166
 51
165.639297
  0
ARC
  5
54B
100
AcDbEntity
  8
LAY-1
  6
CONTINUOUS
 62
     2
100
AcDbCircle
 10
218.915958
 20
122.3
 30
0.0
 40
100.796085
100
AcDbArc
 50
194.360703
 51
198.801834
  0
LINE
  5
54C
100
AcDbEntity
  8
LAY-1
  6
CONTINUOUS
 62
     2
100
AcDbLine
 10
101.549012
 20
147.3
 30
0.0
 11
137.844826
 21
147.3
 31
0.0
  0
LINE
  5
54D
100
AcDbEntity
  8
LAY-1
  6
CONTINUOUS
 62
     2
100
AcDbLine
 10
101.549012
 20
97.3
 30
0.0
 11
137.844826
 21
97.3
 31
0.0
  0
ARC
  5
54E
100
AcDbEntity
  8
LAY-1
  6
CONTINUOUS
 62
     2
100
AcDbCircle
 10
98.915958
 20
-283.1
 30
0.0
 40
1.0
100
AcDbArc
 50
90.0
 51
180.0
  0
LINE
  5
54F
100
AcDbEntity
  8
LAY-1
  6
CONTINUOUS
 62
     2
100
AcDbLine
 10
97.915958
 20
-283.1
 30
0.0
 11
97.915958
 21
-293.1
 31
0.0
  0
LINE
  5
550
100
AcDbEntity
  8
LAY-1
  6
CONTINUOUS
 62
     2
100
AcDbLine
 10
98.415958
 20
591.3
 30
0.0
 11
98.415958
 21
580.3
 31
0.0
  0
ARC
  5
551
100
AcDbEntity
  8
LAY-1
  6
CONTINUOUS
 62
     2
100
AcDbCircle
 10
629.415958
 20
39.704872
 30
0.0
 40
2.0
100
AcDbArc
 50
0.0
 51
85.0
  0
LINE
  5
552
100
AcDbEntity
  8
LAY-1
  6
CONTINUOUS
 62
     2
100
AcDbLine
 10
629.59027
 20
41.697261
 30
0.0
 11
628.415958
 21
41.8
 31
0.0
  0
LINE
  5
553
100
AcDbEntity
  8
LAY-1
  6
CONTINUOUS
 62
     2
100
AcDbLine
 10
628.415958
 20
41.8
 30
0.0
 11
628.415958
 21
68.8
 31
0.0
  0
LINE
  5
554
100
AcDbEntity
  8
LAY-1
  6
CONTINUOUS
 62
     2
100
AcDbLine
 10
629.59027
 20
68.902739
 30
0.0
 11
628.415958
 21
68.8
 31
0.0
  0
ARC
  5
555
100
AcDbEntity
  8
LAY-1
  6
CONTINUOUS
 62
     2
100
AcDbCircle
 10
629.415958
 20
70.895128
 30
0.0
 40
2.0
100
AcDbArc
 50
275.0
 51
355.97773
  0
LINE
  5
556
100
AcDbEntity
  8
LAY-1
  6
CONTINUOUS
 62
     2
100
AcDbLine
 10
643.351857
 20
72.893936
 30
0.0
 11
642.815958
 21
73.822139
 31
0.0
  0
ARC
  5
557
100
AcDbEntity
  8
LAY-1
  6
CONTINUOUS
 62
     2
100
AcDbCircle
 10
610.415958
 20
70.3
 30
0.0
 40
21.0
100
AcDbArc
 50
1.241069
 51
88.088126
  0
LINE
  5
558
100
AcDbEntity
  8
LAY-1
  6
CONTINUOUS
 62
     2
100
AcDbLine
 10
631.415958
 20
37.35001
 30
0.0
 11
631.415958
 21
70.75484
 31
0.0
  0
LINE
  5
559
100
AcDbEntity
  8
LAY-1
  6
CONTINUOUS
 62
     2
100
AcDbLine
 10
611.116567
 20
91.28831
 30
0.0
 11
505.915958
 21
94.8
 31
0.0
  0
LINE
  5
55A
100
AcDbEntity
  8
LAY-1
  6
CONTINUOUS
 62
     2
100
AcDbLine
 10
502.415958
 20
93.8
 30
0.0
 11
504.915958
 21
93.8
 31
0.0
  0
LINE
  5
55B
100
AcDbEntity
  8
LAY-1
  6
CONTINUOUS
 62
     2
100
AcDbLine
 10
504.915958
 20
122.3
 30
0.0
 11
504.915958
 21
93.8
 31
0.0
  0
LINE
  5
55C
100
AcDbEntity
  8
LAY-1
  6
CONTINUOUS
 62
     2
100
AcDbLine
 10
504.915958
 20
95.3
 30
0.0
 11
505.915958
 21
95.3
 31
0.0
  0
LINE
  5
55D
100
AcDbEntity
  8
LAY-1
  6
CONTINUOUS
 62
     2
100
AcDbLine
 10
501.915958
 20
122.3
 30
0.0
 11
501.915958
 21
94.3
 31
0.0
  0
ARC
  5
55E
100
AcDbEntity
  8
LAY-1
  6
CONTINUOUS
 62
     2
100
AcDbCircle
 10
500.915958
 20
99.3
 30
0.0
 40
1.0
100
AcDbArc
 50
0.0
 51
90.0
  0
LINE
  5
55F
100
AcDbEntity
  8
LAY-1
  6
CONTINUOUS
 62
     2
100
AcDbLine
 10
495.915958
 20
100.3
 30
0.0
 11
500.915958
 21
100.3
 31
0.0
  0
ARC
  5
560
100
AcDbEntity
  8
LAY-1
  6
CONTINUOUS
 62
     2
100
AcDbCircle
 10
495.915958
 20
102.3
 30
0.0
 40
2.0
100
AcDbArc
 50
180.0
 51
270.0
  0
LINE
  5
561
100
AcDbEntity
  8
LAY-1
  6
CONTINUOUS
 62
     2
100
AcDbLine
 10
493.915958
 20
102.3
 30
0.0
 11
493.915958
 21
122.3
 31
0.0
  0
LINE
  5
562
100
AcDbEntity
  8
LAY-1
  6
CONTINUOUS
 62
     2
100
AcDbLine
 10
502.415958
 20
93.8
 30
0.0
 11
501.915958
 21
94.3
 31
0.0
  0
POLYLINE
  5
563
100
AcDbEntity
  8
LAY-1
  6
CONTINUOUS
 62
     2
100
AcDb2dPolyline
 66
     1
 10
0.0
 20
0.0
 30
0.0
 70
   128
  0
VERTEX
  5
564
100
AcDbEntity
  8
LAY-1
  6
CONTINUOUS
 62
     2
100
AcDbVertex
100
AcDb2dVertex
 10
493.915958
 20
116.201955
 30
0.0
  0
VERTEX
  5
565
100
AcDbEntity
  8
LAY-1
  6
CONTINUOUS
 62
     2
100
AcDbVertex
100
AcDb2dVertex
 10
493.916022
 20
116.199457
 30
0.0
  0
VERTEX
  5
566
100
AcDbEntity
  8
LAY-1
  6
CONTINUOUS
 62
     2
100
AcDbVertex
100
AcDb2dVertex
 10
493.969719
 20
116.130422
 30
0.0
  0
VERTEX
  5
567
100
AcDbEntity
  8
LAY-1
  6
CONTINUOUS
 62
     2
100
AcDbVertex
100
AcDb2dVertex
 10
494.072325
 20
116.082005
 30
0.0
  0
VERTEX
  5
568
100
AcDbEntity
  8
LAY-1
  6
CONTINUOUS
 62
     2
100
AcDbVertex
100
AcDb2dVertex
 10
494.230741
 20
116.035901
 30
0.0
  0
VERTEX
  5
569
100
AcDbEntity
  8
LAY-1
  6
CONTINUOUS
 62
     2
100
AcDbVertex
100
AcDb2dVertex
 10
494.429872
 20
115.996224
 30
0.0
  0
VERTEX
  5
56A
100
AcDbEntity
  8
LAY-1
  6
CONTINUOUS
 62
     2
100
AcDbVertex
100
AcDb2dVertex
 10
494.676959
 20
115.961287
 30
0.0
  0
VERTEX
  5
56B
100
AcDbEntity
  8
LAY-1
  6
CONTINUOUS
 62
     2
100
AcDbVertex
100
AcDb2dVertex
 10
494.95048
 20
115.934019
 30
0.0
  0
VERTEX
  5
56C
100
AcDbEntity
  8
LAY-1
  6
CONTINUOUS
 62
     2
100
AcDbVertex
100
AcDb2dVertex
 10
495.25943
 20
115.913417
 30
0.0
  0
VERTEX
  5
56D
100
AcDbEntity
  8
LAY-1
  6
CONTINUOUS
 62
     2
100
AcDbVertex
100
AcDb2dVertex
 10
495.578212
 20
115.901159
 30
0.0
  0
VERTEX
  5
56E
100
AcDbEntity
  8
LAY-1
  6
CONTINUOUS
 62
     2
100
AcDbVertex
100
AcDb2dVertex
 10
495.915958
 20
115.896876
 30
0.0
  0
SEQEND
  5
56F
100
AcDbEntity
  8
LAY-1
  6
CONTINUOUS
 62
     2
  0
POLYLINE
  5
570
100
AcDbEntity
  8
LAY-1
  6
CONTINUOUS
 62
     2
100
AcDb2dPolyline
 66
     1
 10
0.0
 20
0.0
 30
0.0
 70
   128
  0
VERTEX
  5
571
100
AcDbEntity
  8
LAY-1
  6
CONTINUOUS
 62
     2
100
AcDbVertex
100
AcDb2dVertex
 10
493.915958
 20
112.469833
 30
0.0
  0
VERTEX
  5
572
100
AcDbEntity
  8
LAY-1
  6
CONTINUOUS
 62
     2
100
AcDbVertex
100
AcDb2dVertex
 10
493.916022
 20
112.460284
 30
0.0
  0
VERTEX
  5
573
100
AcDbEntity
  8
LAY-1
  6
CONTINUOUS
 62
     2
100
AcDbVertex
100
AcDb2dVertex
 10
493.969719
 20
112.194722
 30
0.0
  0
VERTEX
  5
574
100
AcDbEntity
  8
LAY-1
  6
CONTINUOUS
 62
     2
100
AcDbVertex
100
AcDb2dVertex
 10
494.072325
 20
112.006465
 30
0.0
  0
VERTEX
  5
575
100
AcDbEntity
  8
LAY-1
  6
CONTINUOUS
 62
     2
100
AcDbVertex
100
AcDb2dVertex
 10
494.230741
 20
111.82566
 30
0.0
  0
VERTEX
  5
576
100
AcDbEntity
  8
LAY-1
  6
CONTINUOUS
 62
     2
100
AcDbVertex
100
AcDb2dVertex
 10
494.429872
 20
111.668854
 30
0.0
  0
VERTEX
  5
577
100
AcDbEntity
  8
LAY-1
  6
CONTINUOUS
 62
     2
100
AcDbVertex
100
AcDb2dVertex
 10
494.676959
 20
111.529858
 30
0.0
  0
VERTEX
  5
578
100
AcDbEntity
  8
LAY-1
  6
CONTINUOUS
 62
     2
100
AcDbVertex
100
AcDb2dVertex
 10
494.95048
 20
111.420775
 30
0.0
  0
VERTEX
  5
579
100
AcDbEntity
  8
LAY-1
  6
CONTINUOUS
 62
     2
100
AcDbVertex
100
AcDb2dVertex
 10
495.25943
 20
111.338014
 30
0.0
  0
VERTEX
  5
57A
100
AcDbEntity
  8
LAY-1
  6
CONTINUOUS
 62
     2
100
AcDbVertex
100
AcDb2dVertex
 10
495.578212
 20
111.288626
 30
0.0
  0
VERTEX
  5
57B
100
AcDbEntity
  8
LAY-1
  6
CONTINUOUS
 62
     2
100
AcDbVertex
100
AcDb2dVertex
 10
495.915958
 20
111.271343
 30
0.0
  0
SEQEND
  5
57C
100
AcDbEntity
  8
LAY-1
  6
CONTINUOUS
 62
     2
  0
POLYLINE
  5
57D
100
AcDbEntity
  8
LAY-1
  6
CONTINUOUS
 62
     2
100
AcDb2dPolyline
 66
     1
 10
0.0
 20
0.0
 30
0.0
 70
   128
  0
VERTEX
  5
57E
100
AcDbEntity
  8
LAY-1
  6
CONTINUOUS
 62
     2
100
AcDbVertex
100
AcDb2dVertex
 10
493.915958
 20
103.845896
 30
0.0
  0
VERTEX
  5
57F
100
AcDbEntity
  8
LAY-1
  6
CONTINUOUS
 62
     2
100
AcDbVertex
100
AcDb2dVertex
 10
493.916022
 20
103.832812
 30
0.0
  0
VERTEX
  5
580
100
AcDbEntity
  8
LAY-1
  6
CONTINUOUS
 62
     2
100
AcDbVertex
100
AcDb2dVertex
 10
493.969719
 20
103.469621
 30
0.0
  0
VERTEX
  5
581
100
AcDbEntity
  8
LAY-1
  6
CONTINUOUS
 62
     2
100
AcDbVertex
100
AcDb2dVertex
 10
494.072325
 20
103.212892
 30
0.0
  0
VERTEX
  5
582
100
AcDbEntity
  8
LAY-1
  6
CONTINUOUS
 62
     2
100
AcDbVertex
100
AcDb2dVertex
 10
494.230741
 20
102.966886
 30
0.0
  0
VERTEX
  5
583
100
AcDbEntity
  8
LAY-1
  6
CONTINUOUS
 62
     2
100
AcDbVertex
100
AcDb2dVertex
 10
494.429872
 20
102.753968
 30
0.0
  0
VERTEX
  5
584
100
AcDbEntity
  8
LAY-1
  6
CONTINUOUS
 62
     2
100
AcDbVertex
100
AcDb2dVertex
 10
494.676959
 20
102.565564
 30
0.0
  0
VERTEX
  5
585
100
AcDbEntity
  8
LAY-1
  6
CONTINUOUS
 62
     2
100
AcDbVertex
100
AcDb2dVertex
 10
494.95048
 20
102.417918
 30
0.0
  0
VERTEX
  5
586
100
AcDbEntity
  8
LAY-1
  6
CONTINUOUS
 62
     2
100
AcDbVertex
100
AcDb2dVertex
 10
495.25943
 20
102.306022
 30
0.0
  0
VERTEX
  5
587
100
AcDbEntity
  8
LAY-1
  6
CONTINUOUS
 62
     2
100
AcDbVertex
100
AcDb2dVertex
 10
495.578212
 20
102.239298
 30
0.0
  0
VERTEX
  5
588
100
AcDbEntity
  8
LAY-1
  6
CONTINUOUS
 62
     2
100
AcDbVertex
100
AcDb2dVertex
 10
495.915958
 20
102.215958
 30
0.0
  0
SEQEND
  5
589
100
AcDbEntity
  8
LAY-1
  6
CONTINUOUS
 62
     2
  0
LINE
  5
58A
100
AcDbEntity
  8
LAY-1
  6
CONTINUOUS
 62
     2
100
AcDbLine
 10
495.915958
 20
115.896876
 30
0.0
 11
501.915958
 21
115.896876
 31
0.0
  0
LINE
  5
58B
100
AcDbEntity
  8
LAY-1
  6
CONTINUOUS
 62
     2
100
AcDbLine
 10
495.915958
 20
111.271343
 30
0.0
 11
501.915958
 21
111.271343
 31
0.0
  0
LINE
  5
58C
100
AcDbEntity
  8
LAY-1
  6
CONTINUOUS
 62
     2
100
AcDbLine
 10
495.915958
 20
102.215958
 30
0.0
 11
501.915958
 21
102.215958
 31
0.0
  0
LINE
  5
58D
100
AcDbEntity
  8
LAY-1
  6
CONTINUOUS
 62
     2
100
AcDbLine
 10
505.915958
 20
122.3
 30
0.0
 11
505.915958
 21
94.8
 31
0.0
  0
LINE
  5
58E
100
AcDbEntity
  8
LAY-1
  6
CONTINUOUS
 62
     2
100
AcDbLine
 10
502.415958
 20
150.8
 30
0.0
 11
504.915958
 21
150.8
 31
0.0
  0
LINE
  5
58F
100
AcDbEntity
  8
LAY-1
  6
CONTINUOUS
 62
     2
100
AcDbLine
 10
504.915958
 20
122.3
 30
0.0
 11
504.915958
 21
150.8
 31
0.0
  0
LINE
  5
590
100
AcDbEntity
  8
LAY-1
  6
CONTINUOUS
 62
     2
100
AcDbLine
 10
504.915958
 20
149.3
 30
0.0
 11
505.915958
 21
149.3
 31
0.0
  0
LINE
  5
591
100
AcDbEntity
  8
LAY-1
  6
CONTINUOUS
 62
     2
100
AcDbLine
 10
501.915958
 20
122.3
 30
0.0
 11
501.915958
 21
150.3
 31
0.0
  0
ARC
  5
592
100
AcDbEntity
  8
LAY-1
  6
CONTINUOUS
 62
     2
100
AcDbCircle
 10
500.915958
 20
145.3
 30
0.0
 40
1.0
100
AcDbArc
 50
270.0
 51
0.0
  0
LINE
  5
593
100
AcDbEntity
  8
LAY-1
  6
CONTINUOUS
 62
     2
100
AcDbLine
 10
495.915958
 20
144.3
 30
0.0
 11
500.915958
 21
144.3
 31
0.0
  0
ARC
  5
594
100
AcDbEntity
  8
LAY-1
  6
CONTINUOUS
 62
     2
100
AcDbCircle
 10
495.915958
 20
142.3
 30
0.0
 40
2.0
100
AcDbArc
 50
90.0
 51
180.0
  0
LINE
  5
595
100
AcDbEntity
  8
LAY-1
  6
CONTINUOUS
 62
     2
100
AcDbLine
 10
493.915958
 20
142.3
 30
0.0
 11
493.915958
 21
122.3
 31
0.0
  0
LINE
  5
596
100
AcDbEntity
  8
LAY-1
  6
CONTINUOUS
 62
     2
100
AcDbLine
 10
502.415958
 20
150.8
 30
0.0
 11
501.915958
 21
150.3
 31
0.0
  0
POLYLINE
  5
597
100
AcDbEntity
  8
LAY-1
  6
CONTINUOUS
 62
     2
100
AcDb2dPolyline
 66
     1
 10
0.0
 20
0.0
 30
0.0
 70
   128
  0
VERTEX
  5
598
100
AcDbEntity
  8
LAY-1
  6
CONTINUOUS
 62
     2
100
AcDbVertex
100
AcDb2dVertex
 10
493.915958
 20
128.398045
 30
0.0
  0
VERTEX
  5
599
100
AcDbEntity
  8
LAY-1
  6
CONTINUOUS
 62
     2
100
AcDbVertex
100
AcDb2dVertex
 10
493.916022
 20
128.400543
 30
0.0
  0
VERTEX
  5
59A
100
AcDbEntity
  8
LAY-1
  6
CONTINUOUS
 62
     2
100
AcDbVertex
100
AcDb2dVertex
 10
493.969719
 20
128.469578
 30
0.0
  0
VERTEX
  5
59B
100
AcDbEntity
  8
LAY-1
  6
CONTINUOUS
 62
     2
100
AcDbVertex
100
AcDb2dVertex
 10
494.072325
 20
128.517995
 30
0.0
  0
VERTEX
  5
59C
100
AcDbEntity
  8
LAY-1
  6
CONTINUOUS
 62
     2
100
AcDbVertex
100
AcDb2dVertex
 10
494.230741
 20
128.564099
 30
0.0
  0
VERTEX
  5
59D
100
AcDbEntity
  8
LAY-1
  6
CONTINUOUS
 62
     2
100
AcDbVertex
100
AcDb2dVertex
 10
494.429872
 20
128.603776
 30
0.0
  0
VERTEX
  5
59E
100
AcDbEntity
  8
LAY-1
  6
CONTINUOUS
 62
     2
100
AcDbVertex
100
AcDb2dVertex
 10
494.676959
 20
128.638713
 30
0.0
  0
VERTEX
  5
59F
100
AcDbEntity
  8
LAY-1
  6
CONTINUOUS
 62
     2
100
AcDbVertex
100
AcDb2dVertex
 10
494.95048
 20
128.665981
 30
0.0
  0
VERTEX
  5
5A0
100
AcDbEntity
  8
LAY-1
  6
CONTINUOUS
 62
     2
100
AcDbVertex
100
AcDb2dVertex
 10
495.25943
 20
128.686583
 30
0.0
  0
VERTEX
  5
5A1
100
AcDbEntity
  8
LAY-1
  6
CONTINUOUS
 62
     2
100
AcDbVertex
100
AcDb2dVertex
 10
495.578212
 20
128.698841
 30
0.0
  0
VERTEX
  5
5A2
100
AcDbEntity
  8
LAY-1
  6
CONTINUOUS
 62
     2
100
AcDbVertex
100
AcDb2dVertex
 10
495.915958
 20
128.703124
 30
0.0
  0
SEQEND
  5
5A3
100
AcDbEntity
  8
LAY-1
  6
CONTINUOUS
 62
     2
  0
POLYLINE
  5
5A4
100
AcDbEntity
  8
LAY-1
  6
CONTINUOUS
 62
     2
100
AcDb2dPolyline
 66
     1
 10
0.0
 20
0.0
 30
0.0
 70
   128
  0
VERTEX
  5
5A5
100
AcDbEntity
  8
LAY-1
  6
CONTINUOUS
 62
     2
100
AcDbVertex
100
AcDb2dVertex
 10
493.915958
 20
132.130167
 30
0.0
  0
VERTEX
  5
5A6
100
AcDbEntity
  8
LAY-1
  6
CONTINUOUS
 62
     2
100
AcDbVertex
100
AcDb2dVertex
 10
493.916022
 20
132.139716
 30
0.0
  0
VERTEX
  5
5A7
100
AcDbEntity
  8
LAY-1
  6
CONTINUOUS
 62
     2
100
AcDbVertex
100
AcDb2dVertex
 10
493.969719
 20
132.405278
 30
0.0
  0
VERTEX
  5
5A8
100
AcDbEntity
  8
LAY-1
  6
CONTINUOUS
 62
     2
100
AcDbVertex
100
AcDb2dVertex
 10
494.072325
 20
132.593535
 30
0.0
  0
VERTEX
  5
5A9
100
AcDbEntity
  8
LAY-1
  6
CONTINUOUS
 62
     2
100
AcDbVertex
100
AcDb2dVertex
 10
494.230741
 20
132.77434
 30
0.0
  0
VERTEX
  5
5AA
100
AcDbEntity
  8
LAY-1
  6
CONTINUOUS
 62
     2
100
AcDbVertex
100
AcDb2dVertex
 10
494.429872
 20
132.931146
 30
0.0
  0
VERTEX
  5
5AB
100
AcDbEntity
  8
LAY-1
  6
CONTINUOUS
 62
     2
100
AcDbVertex
100
AcDb2dVertex
 10
494.676959
 20
133.070142
 30
0.0
  0
VERTEX
  5
5AC
100
AcDbEntity
  8
LAY-1
  6
CONTINUOUS
 62
     2
100
AcDbVertex
100
AcDb2dVertex
 10
494.95048
 20
133.179225
 30
0.0
  0
VERTEX
  5
5AD
100
AcDbEntity
  8
LAY-1
  6
CONTINUOUS
 62
     2
100
AcDbVertex
100
AcDb2dVertex
 10
495.25943
 20
133.261986
 30
0.0
  0
VERTEX
  5
5AE
100
AcDbEntity
  8
LAY-1
  6
CONTINUOUS
 62
     2
100
AcDbVertex
100
AcDb2dVertex
 10
495.578212
 20
133.311374
 30
0.0
  0
VERTEX
  5
5AF
100
AcDbEntity
  8
LAY-1
  6
CONTINUOUS
 62
     2
100
AcDbVertex
100
AcDb2dVertex
 10
495.915958
 20
133.328657
 30
0.0
  0
SEQEND
  5
5B0
100
AcDbEntity
  8
LAY-1
  6
CONTINUOUS
 62
     2
  0
POLYLINE
  5
5B1
100
AcDbEntity
  8
LAY-1
  6
CONTINUOUS
 62
     2
100
AcDb2dPolyline
 66
     1
 10
0.0
 20
0.0
 30
0.0
 70
   128
  0
VERTEX
  5
5B2
100
AcDbEntity
  8
LAY-1
  6
CONTINUOUS
 62
     2
100
AcDbVertex
100
AcDb2dVertex
 10
493.915958
 20
140.754104
 30
0.0
  0
VERTEX
  5
5B3
100
AcDbEntity
  8
LAY-1
  6
CONTINUOUS
 62
     2
100
AcDbVertex
100
AcDb2dVertex
 10
493.916022
 20
140.767188
 30
0.0
  0
VERTEX
  5
5B4
100
AcDbEntity
  8
LAY-1
  6
CONTINUOUS
 62
     2
100
AcDbVertex
100
AcDb2dVertex
 10
493.969719
 20
141.130379
 30
0.0
  0
VERTEX
  5
5B5
100
AcDbEntity
  8
LAY-1
  6
CONTINUOUS
 62
     2
100
AcDbVertex
100
AcDb2dVertex
 10
494.072325
 20
141.387108
 30
0.0
  0
VERTEX
  5
5B6
100
AcDbEntity
  8
LAY-1
  6
CONTINUOUS
 62
     2
100
AcDbVertex
100
AcDb2dVertex
 10
494.230741
 20
141.633114
 30
0.0
  0
VERTEX
  5
5B7
100
AcDbEntity
  8
LAY-1
  6
CONTINUOUS
 62
     2
100
AcDbVertex
100
AcDb2dVertex
 10
494.429872
 20
141.846032
 30
0.0
  0
VERTEX
  5
5B8
100
AcDbEntity
  8
LAY-1
  6
CONTINUOUS
 62
     2
100
AcDbVertex
100
AcDb2dVertex
 10
494.676959
 20
142.034436
 30
0.0
  0
VERTEX
  5
5B9
100
AcDbEntity
  8
LAY-1
  6
CONTINUOUS
 62
     2
100
AcDbVertex
100
AcDb2dVertex
 10
494.95048
 20
142.182082
 30
0.0
  0
VERTEX
  5
5BA
100
AcDbEntity
  8
LAY-1
  6
CONTINUOUS
 62
     2
100
AcDbVertex
100
AcDb2dVertex
 10
495.25943
 20
142.293978
 30
0.0
  0
VERTEX
  5
5BB
100
AcDbEntity
  8
LAY-1
  6
CONTINUOUS
 62
     2
100
AcDbVertex
100
AcDb2dVertex
 10
495.578212
 20
142.360702
 30
0.0
  0
VERTEX
  5
5BC
100
AcDbEntity
  8
LAY-1
  6
CONTINUOUS
 62
     2
100
AcDbVertex
100
AcDb2dVertex
 10
495.915958
 20
142.384042
 30
0.0
  0
SEQEND
  5
5BD
100
AcDbEntity
  8
LAY-1
  6
CONTINUOUS
 62
     2
  0
LINE
  5
5BE
100
AcDbEntity
  8
LAY-1
  6
CONTINUOUS
 62
     2
100
AcDbLine
 10
495.915958
 20
128.703124
 30
0.0
 11
501.915958
 21
128.703124
 31
0.0
  0
LINE
  5
5BF
100
AcDbEntity
  8
LAY-1
  6
CONTINUOUS
 62
     2
100
AcDbLine
 10
495.915958
 20
133.328657
 30
0.0
 11
501.915958
 21
133.328657
 31
0.0
  0
LINE
  5
5C0
100
AcDbEntity
  8
LAY-1
  6
CONTINUOUS
 62
     2
100
AcDbLine
 10
495.915958
 20
142.384042
 30
0.0
 11
501.915958
 21
142.384042
 31
0.0
  0
LINE
  5
5C1
100
AcDbEntity
  8
LAY-1
  6
CONTINUOUS
 62
     2
100
AcDbLine
 10
505.915958
 20
122.3
 30
0.0
 11
505.915958
 21
149.8
 31
0.0
  0
LINE
  5
5C2
100
AcDbEntity
  8
LAY-1
  6
CONTINUOUS
 62
     2
100
AcDbLine
 10
611.116567
 20
153.31169
 30
0.0
 11
505.915958
 21
149.8
 31
0.0
  0
ARC
  5
5C3
100
AcDbEntity
  8
LAY-1
  6
CONTINUOUS
 62
     2
100
AcDbCircle
 10
650.886801
 20
-40.386441
 30
0.0
 40
139.207272
100
AcDbArc
 50
90.939613
 51
99.961055
  0
ARC
  5
5C4
100
AcDbEntity
  8
LAY-1
  6
CONTINUOUS
 62
     2
100
AcDbCircle
 10
650.886801
 20
284.986441
 30
0.0
 40
139.207272
100
AcDbArc
 50
260.038945
 51
269.060387
  0
LINE
  5
5C5
100
AcDbEntity
  8
LAY-1
  6
CONTINUOUS
 62
     2
100
AcDbLine
 10
623.915958
 20
97.918119
 30
0.0
 11
623.915958
 21
122.3
 31
0.0
  0
LINE
  5
5C6
100
AcDbEntity
  8
LAY-1
  6
CONTINUOUS
 62
     2
100
AcDbLine
 10
626.068976
 20
148.023994
 30
0.0
 11
625.191371
 21
147.997051
 31
0.0
  0
ARC
  5
5C7
100
AcDbEntity
  8
LAY-1
  6
CONTINUOUS
 62
     2
100
AcDbCircle
 10
625.231748
 20
146.681881
 30
0.0
 40
1.315789
100
AcDbArc
 50
91.758461
 51
180.0
  0
LINE
  5
5C8
100
AcDbEntity
  8
LAY-1
  6
CONTINUOUS
 62
     2
100
AcDbLine
 10
626.068976
 20
96.576006
 30
0.0
 11
625.191371
 21
96.602949
 31
0.0
  0
ARC
  5
5C9
100
AcDbEntity
  8
LAY-1
  6
CONTINUOUS
 62
     2
100
AcDbCircle
 10
625.231748
 20
97.918119
 30
0.0
 40
1.315789
100
AcDbArc
 50
180.0
 51
268.241539
  0
LINE
  5
5CA
100
AcDbEntity
  8
LAY-1
  6
CONTINUOUS
 62
     2
100
AcDbLine
 10
623.915958
 20
146.681881
 30
0.0
 11
623.915958
 21
122.3
 31
0.0
  0
ARC
  5
5CB
100
AcDbEntity
  8
LAY-1
  6
CONTINUOUS
 62
     2
100
AcDbCircle
 10
610.415958
 20
174.3
 30
0.0
 40
21.0
100
AcDbArc
 50
271.911874
 51
0.0
  0
LINE
  5
5CC
100
AcDbEntity
  8
LAY-1
  6
CONTINUOUS
 62
     2
100
AcDbLine
 10
631.415958
 20
207.24999
 30
0.0
 11
631.415958
 21
174.3
 31
0.0
  0
ARC
  5
5CD
100
AcDbEntity
  8
LAY-1
  6
CONTINUOUS
 62
     2
100
AcDbCircle
 10
646.415958
 20
207.24999
 30
0.0
 40
15.0
100
AcDbArc
 50
122.638399
 51
180.0
  0
ARC
  5
5CE
100
AcDbEntity
  8
LAY-1
  6
CONTINUOUS
 62
     2
100
AcDbCircle
 10
646.415958
 20
37.35001
 30
0.0
 40
15.0
100
AcDbArc
 50
180.0
 51
237.361601
  0
LINE
  5
5CF
100
AcDbEntity
  8
LAY-1
  6
CONTINUOUS
 62
     2
100
AcDbLine
 10
-64.584042
 20
150.8
 30
0.0
 11
-67.084042
 21
150.8
 31
0.0
  0
LINE
  5
5D0
100
AcDbEntity
  8
LAY-1
  6
CONTINUOUS
 62
     2
100
AcDbLine
 10
-67.084042
 20
122.3
 30
0.0
 11
-67.084042
 21
150.8
 31
0.0
  0
LINE
  5
5D1
100
AcDbEntity
  8
LAY-1
  6
CONTINUOUS
 62
     2
100
AcDbLine
 10
-67.084042
 20
149.3
 30
0.0
 11
-68.084042
 21
149.3
 31
0.0
  0
LINE
  5
5D2
100
AcDbEntity
  8
LAY-1
  6
CONTINUOUS
 62
     2
100
AcDbLine
 10
-64.084042
 20
122.3
 30
0.0
 11
-64.084042
 21
150.3
 31
0.0
  0
ARC
  5
5D3
100
AcDbEntity
  8
LAY-1
  6
CONTINUOUS
 62
     2
100
AcDbCircle
 10
-63.084042
 20
145.3
 30
0.0
 40
1.0
100
AcDbArc
 50
180.0
 51
270.0
  0
LINE
  5
5D4
100
AcDbEntity
  8
LAY-1
  6
CONTINUOUS
 62
     2
100
AcDbLine
 10
-58.084042
 20
144.3
 30
0.0
 11
-63.084042
 21
144.3
 31
0.0
  0
ARC
  5
5D5
100
AcDbEntity
  8
LAY-1
  6
CONTINUOUS
 62
     2
100
AcDbCircle
 10
-58.084042
 20
142.3
 30
0.0
 40
2.0
100
AcDbArc
 50
0.0
 51
90.0
  0
LINE
  5
5D6
100
AcDbEntity
  8
LAY-1
  6
CONTINUOUS
 62
     2
100
AcDbLine
 10
-56.084042
 20
142.3
 30
0.0
 11
-56.084042
 21
122.3
 31
0.0
  0
LINE
  5
5D7
100
AcDbEntity
  8
LAY-1
  6
CONTINUOUS
 62
     2
100
AcDbLine
 10
-64.584042
 20
150.8
 30
0.0
 11
-64.084042
 21
150.3
 31
0.0
  0
POLYLINE
  5
5D8
100
AcDbEntity
  8
LAY-1
  6
CONTINUOUS
 62
     2
100
AcDb2dPolyline
 66
     1
 10
0.0
 20
0.0
 30
0.0
 70
   128
  0
VERTEX
  5
5D9
100
AcDbEntity
  8
LAY-1
  6
CONTINUOUS
 62
     2
100
AcDbVertex
100
AcDb2dVertex
 10
-56.084042
 20
128.398045
 30
0.0
  0
VERTEX
  5
5DA
100
AcDbEntity
  8
LAY-1
  6
CONTINUOUS
 62
     2
100
AcDbVertex
100
AcDb2dVertex
 10
-56.084106
 20
128.400543
 30
0.0
  0
VERTEX
  5
5DB
100
AcDbEntity
  8
LAY-1
  6
CONTINUOUS
 62
     2
100
AcDbVertex
100
AcDb2dVertex
 10
-56.137802
 20
128.469578
 30
0.0
  0
VERTEX
  5
5DC
100
AcDbEntity
  8
LAY-1
  6
CONTINUOUS
 62
     2
100
AcDbVertex
100
AcDb2dVertex
 10
-56.240408
 20
128.517995
 30
0.0
  0
VERTEX
  5
5DD
100
AcDbEntity
  8
LAY-1
  6
CONTINUOUS
 62
     2
100
AcDbVertex
100
AcDb2dVertex
 10
-56.398825
 20
128.564099
 30
0.0
  0
VERTEX
  5
5DE
100
AcDbEntity
  8
LAY-1
  6
CONTINUOUS
 62
     2
100
AcDbVertex
100
AcDb2dVertex
 10
-56.597956
 20
128.603776
 30
0.0
  0
VERTEX
  5
5DF
100
AcDbEntity
  8
LAY-1
  6
CONTINUOUS
 62
     2
100
AcDbVertex
100
AcDb2dVertex
 10
-56.845042
 20
128.638713
 30
0.0
  0
VERTEX
  5
5E0
100
AcDbEntity
  8
LAY-1
  6
CONTINUOUS
 62
     2
100
AcDbVertex
100
AcDb2dVertex
 10
-57.118563
 20
128.665981
 30
0.0
  0
VERTEX
  5
5E1
100
AcDbEntity
  8
LAY-1
  6
CONTINUOUS
 62
     2
100
AcDbVertex
100
AcDb2dVertex
 10
-57.427514
 20
128.686583
 30
0.0
  0
VERTEX
  5
5E2
100
AcDbEntity
  8
LAY-1
  6
CONTINUOUS
 62
     2
100
AcDbVertex
100
AcDb2dVertex
 10
-57.746295
 20
128.698841
 30
0.0
  0
VERTEX
  5
5E3
100
AcDbEntity
  8
LAY-1
  6
CONTINUOUS
 62
     2
100
AcDbVertex
100
AcDb2dVertex
 10
-58.084042
 20
128.703124
 30
0.0
  0
SEQEND
  5
5E4
100
AcDbEntity
  8
LAY-1
  6
CONTINUOUS
 62
     2
  0
POLYLINE
  5
5E5
100
AcDbEntity
  8
LAY-1
  6
CONTINUOUS
 62
     2
100
AcDb2dPolyline
 66
     1
 10
0.0
 20
0.0
 30
0.0
 70
   128
  0
VERTEX
  5
5E6
100
AcDbEntity
  8
LAY-1
  6
CONTINUOUS
 62
     2
100
AcDbVertex
100
AcDb2dVertex
 10
-56.084042
 20
132.130167
 30
0.0
  0
VERTEX
  5
5E7
100
AcDbEntity
  8
LAY-1
  6
CONTINUOUS
 62
     2
100
AcDbVertex
100
AcDb2dVertex
 10
-56.084106
 20
132.139716
 30
0.0
  0
VERTEX
  5
5E8
100
AcDbEntity
  8
LAY-1
  6
CONTINUOUS
 62
     2
100
AcDbVertex
100
AcDb2dVertex
 10
-56.137802
 20
132.405278
 30
0.0
  0
VERTEX
  5
5E9
100
AcDbEntity
  8
LAY-1
  6
CONTINUOUS
 62
     2
100
AcDbVertex
100
AcDb2dVertex
 10
-56.240408
 20
132.593535
 30
0.0
  0
VERTEX
  5
5EA
100
AcDbEntity
  8
LAY-1
  6
CONTINUOUS
 62
     2
100
AcDbVertex
100
AcDb2dVertex
 10
-56.398825
 20
132.77434
 30
0.0
  0
VERTEX
  5
5EB
100
AcDbEntity
  8
LAY-1
  6
CONTINUOUS
 62
     2
100
AcDbVertex
100
AcDb2dVertex
 10
-56.597956
 20
132.931146
 30
0.0
  0
VERTEX
  5
5EC
100
AcDbEntity
  8
LAY-1
  6
CONTINUOUS
 62
     2
100
AcDbVertex
100
AcDb2dVertex
 10
-56.845042
 20
133.070142
 30
0.0
  0
VERTEX
  5
5ED
100
AcDbEntity
  8
LAY-1
  6
CONTINUOUS
 62
     2
100
AcDbVertex
100
AcDb2dVertex
 10
-57.118563
 20
133.179225
 30
0.0
  0
VERTEX
  5
5EE
100
AcDbEntity
  8
LAY-1
  6
CONTINUOUS
 62
     2
100
AcDbVertex
100
AcDb2dVertex
 10
-57.427514
 20
133.261986
 30
0.0
  0
VERTEX
  5
5EF
100
AcDbEntity
  8
LAY-1
  6
CONTINUOUS
 62
     2
100
AcDbVertex
100
AcDb2dVertex
 10
-57.746295
 20
133.311374
 30
0.0
  0
VERTEX
  5
5F0
100
AcDbEntity
  8
LAY-1
  6
CONTINUOUS
 62
     2
100
AcDbVertex
100
AcDb2dVertex
 10
-58.084042
 20
133.328657
 30
0.0
  0
SEQEND
  5
5F1
100
AcDbEntity
  8
LAY-1
  6
CONTINUOUS
 62
     2
  0
POLYLINE
  5
5F2
100
AcDbEntity
  8
LAY-1
  6
CONTINUOUS
 62
     2
100
AcDb2dPolyline
 66
     1
 10
0.0
 20
0.0
 30
0.0
 70
   128
  0
VERTEX
  5
5F3
100
AcDbEntity
  8
LAY-1
  6
CONTINUOUS
 62
     2
100
AcDbVertex
100
AcDb2dVertex
 10
-56.084042
 20
140.754104
 30
0.0
  0
VERTEX
  5
5F4
100
AcDbEntity
  8
LAY-1
  6
CONTINUOUS
 62
     2
100
AcDbVertex
100
AcDb2dVertex
 10
-56.084106
 20
140.767188
 30
0.0
  0
VERTEX
  5
5F5
100
AcDbEntity
  8
LAY-1
  6
CONTINUOUS
 62
     2
100
AcDbVertex
100
AcDb2dVertex
 10
-56.137802
 20
141.130379
 30
0.0
  0
VERTEX
  5
5F6
100
AcDbEntity
  8
LAY-1
  6
CONTINUOUS
 62
     2
100
AcDbVertex
100
AcDb2dVertex
 10
-56.240408
 20
141.387108
 30
0.0
  0
VERTEX
  5
5F7
100
AcDbEntity
  8
LAY-1
  6
CONTINUOUS
 62
     2
100
AcDbVertex
100
AcDb2dVertex
 10
-56.398825
 20
141.633114
 30
0.0
  0
VERTEX
  5
5F8
100
AcDbEntity
  8
LAY-1
  6
CONTINUOUS
 62
     2
100
AcDbVertex
100
AcDb2dVertex
 10
-56.597956
 20
141.846032
 30
0.0
  0
VERTEX
  5
5F9
100
AcDbEntity
  8
LAY-1
  6
CONTINUOUS
 62
     2
100
AcDbVertex
100
AcDb2dVertex
 10
-56.845042
 20
142.034436
 30
0.0
  0
VERTEX
  5
5FA
100
AcDbEntity
  8
LAY-1
  6
CONTINUOUS
 62
     2
100
AcDbVertex
100
AcDb2dVertex
 10
-57.118563
 20
142.182082
 30
0.0
  0
VERTEX
  5
5FB
100
AcDbEntity
  8
LAY-1
  6
CONTINUOUS
 62
     2
100
AcDbVertex
100
AcDb2dVertex
 10
-57.427514
 20
142.293978
 30
0.0
  0
VERTEX
  5
5FC
100
AcDbEntity
  8
LAY-1
  6
CONTINUOUS
 62
     2
100
AcDbVertex
100
AcDb2dVertex
 10
-57.746295
 20
142.360702
 30
0.0
  0
VERTEX
  5
5FD
100
AcDbEntity
  8
LAY-1
  6
CONTINUOUS
 62
     2
100
AcDbVertex
100
AcDb2dVertex
 10
-58.084042
 20
142.384042
 30
0.0
  0
SEQEND
  5
5FE
100
AcDbEntity
  8
LAY-1
  6
CONTINUOUS
 62
     2
  0
LINE
  5
5FF
100
AcDbEntity
  8
LAY-1
  6
CONTINUOUS
 62
     2
100
AcDbLine
 10
-58.084042
 20
128.703124
 30
0.0
 11
-64.084042
 21
128.703124
 31
0.0
  0
LINE
  5
600
100
AcDbEntity
  8
LAY-1
  6
CONTINUOUS
 62
     2
100
AcDbLine
 10
-58.084042
 20
133.328657
 30
0.0
 11
-64.084042
 21
133.328657
 31
0.0
  0
LINE
  5
601
100
AcDbEntity
  8
LAY-1
  6
CONTINUOUS
 62
     2
100
AcDbLine
 10
-58.084042
 20
142.384042
 30
0.0
 11
-64.084042
 21
142.384042
 31
0.0
  0
LINE
  5
602
100
AcDbEntity
  8
LAY-1
  6
CONTINUOUS
 62
     2
100
AcDbLine
 10
-68.084042
 20
122.3
 30
0.0
 11
-68.084042
 21
149.8
 31
0.0
  0
LINE
  5
603
100
AcDbEntity
  8
LAY-1
  6
CONTINUOUS
 62
     2
100
AcDbLine
 10
-64.584042
 20
93.8
 30
0.0
 11
-67.084042
 21
93.8
 31
0.0
  0
LINE
  5
604
100
AcDbEntity
  8
LAY-1
  6
CONTINUOUS
 62
     2
100
AcDbLine
 10
-67.084042
 20
122.3
 30
0.0
 11
-67.084042
 21
93.8
 31
0.0
  0
LINE
  5
605
100
AcDbEntity
  8
LAY-1
  6
CONTINUOUS
 62
     2
100
AcDbLine
 10
-67.084042
 20
95.3
 30
0.0
 11
-68.084042
 21
95.3
 31
0.0
  0
LINE
  5
606
100
AcDbEntity
  8
LAY-1
  6
CONTINUOUS
 62
     2
100
AcDbLine
 10
-64.084042
 20
122.3
 30
0.0
 11
-64.084042
 21
94.3
 31
0.0
  0
ARC
  5
607
100
AcDbEntity
  8
LAY-1
  6
CONTINUOUS
 62
     2
100
AcDbCircle
 10
-63.084042
 20
99.3
 30
0.0
 40
1.0
100
AcDbArc
 50
90.0
 51
180.0
  0
LINE
  5
608
100
AcDbEntity
  8
LAY-1
  6
CONTINUOUS
 62
     2
100
AcDbLine
 10
-58.084042
 20
100.3
 30
0.0
 11
-63.084042
 21
100.3
 31
0.0
  0
ARC
  5
609
100
AcDbEntity
  8
LAY-1
  6
CONTINUOUS
 62
     2
100
AcDbCircle
 10
-58.084042
 20
102.3
 30
0.0
 40
2.0
100
AcDbArc
 50
270.0
 51
0.0
  0
LINE
  5
60A
100
AcDbEntity
  8
LAY-1
  6
CONTINUOUS
 62
     2
100
AcDbLine
 10
-56.084042
 20
102.3
 30
0.0
 11
-56.084042
 21
122.3
 31
0.0
  0
LINE
  5
60B
100
AcDbEntity
  8
LAY-1
  6
CONTINUOUS
 62
     2
100
AcDbLine
 10
-64.584042
 20
93.8
 30
0.0
 11
-64.084042
 21
94.3
 31
0.0
  0
POLYLINE
  5
60C
100
AcDbEntity
  8
LAY-1
  6
CONTINUOUS
 62
     2
100
AcDb2dPolyline
 66
     1
 10
0.0
 20
0.0
 30
0.0
 70
   128
  0
VERTEX
  5
60D
100
AcDbEntity
  8
LAY-1
  6
CONTINUOUS
 62
     2
100
AcDbVertex
100
AcDb2dVertex
 10
-56.084042
 20
116.201955
 30
0.0
  0
VERTEX
  5
60E
100
AcDbEntity
  8
LAY-1
  6
CONTINUOUS
 62
     2
100
AcDbVertex
100
AcDb2dVertex
 10
-56.084106
 20
116.199457
 30
0.0
  0
VERTEX
  5
60F
100
AcDbEntity
  8
LAY-1
  6
CONTINUOUS
 62
     2
100
AcDbVertex
100
AcDb2dVertex
 10
-56.137802
 20
116.130422
 30
0.0
  0
VERTEX
  5
610
100
AcDbEntity
  8
LAY-1
  6
CONTINUOUS
 62
     2
100
AcDbVertex
100
AcDb2dVertex
 10
-56.240408
 20
116.082005
 30
0.0
  0
VERTEX
  5
611
100
AcDbEntity
  8
LAY-1
  6
CONTINUOUS
 62
     2
100
AcDbVertex
100
AcDb2dVertex
 10
-56.398825
 20
116.035901
 30
0.0
  0
VERTEX
  5
612
100
AcDbEntity
  8
LAY-1
  6
CONTINUOUS
 62
     2
100
AcDbVertex
100
AcDb2dVertex
 10
-56.597956
 20
115.996224
 30
0.0
  0
VERTEX
  5
613
100
AcDbEntity
  8
LAY-1
  6
CONTINUOUS
 62
     2
100
AcDbVertex
100
AcDb2dVertex
 10
-56.845042
 20
115.961287
 30
0.0
  0
VERTEX
  5
614
100
AcDbEntity
  8
LAY-1
  6
CONTINUOUS
 62
     2
100
AcDbVertex
100
AcDb2dVertex
 10
-57.118563
 20
115.934019
 30
0.0
  0
VERTEX
  5
615
100
AcDbEntity
  8
LAY-1
  6
CONTINUOUS
 62
     2
100
AcDbVertex
100
AcDb2dVertex
 10
-57.427514
 20
115.913417
 30
0.0
  0
VERTEX
  5
616
100
AcDbEntity
  8
LAY-1
  6
CONTINUOUS
 62
     2
100
AcDbVertex
100
AcDb2dVertex
 10
-57.746295
 20
115.901159
 30
0.0
  0
VERTEX
  5
617
100
AcDbEntity
  8
LAY-1
  6
CONTINUOUS
 62
     2
100
AcDbVertex
100
AcDb2dVertex
 10
-58.084042
 20
115.896876
 30
0.0
  0
SEQEND
  5
618
100
AcDbEntity
  8
LAY-1
  6
CONTINUOUS
 62
     2
  0
POLYLINE
  5
619
100
AcDbEntity
  8
LAY-1
  6
CONTINUOUS
 62
     2
100
AcDb2dPolyline
 66
     1
 10
0.0
 20
0.0
 30
0.0
 70
   128
  0
VERTEX
  5
61A
100
AcDbEntity
  8
LAY-1
  6
CONTINUOUS
 62
     2
100
AcDbVertex
100
AcDb2dVertex
 10
-56.084042
 20
112.469833
 30
0.0
  0
VERTEX
  5
61B
100
AcDbEntity
  8
LAY-1
  6
CONTINUOUS
 62
     2
100
AcDbVertex
100
AcDb2dVertex
 10
-56.084106
 20
112.460284
 30
0.0
  0
VERTEX
  5
61C
100
AcDbEntity
  8
LAY-1
  6
CONTINUOUS
 62
     2
100
AcDbVertex
100
AcDb2dVertex
 10
-56.137802
 20
112.194722
 30
0.0
  0
VERTEX
  5
61D
100
AcDbEntity
  8
LAY-1
  6
CONTINUOUS
 62
     2
100
AcDbVertex
100
AcDb2dVertex
 10
-56.240408
 20
112.006465
 30
0.0
  0
VERTEX
  5
61E
100
AcDbEntity
  8
LAY-1
  6
CONTINUOUS
 62
     2
100
AcDbVertex
100
AcDb2dVertex
 10
-56.398825
 20
111.82566
 30
0.0
  0
VERTEX
  5
61F
100
AcDbEntity
  8
LAY-1
  6
CONTINUOUS
 62
     2
100
AcDbVertex
100
AcDb2dVertex
 10
-56.597956
 20
111.668854
 30
0.0
  0
VERTEX
  5
620
100
AcDbEntity
  8
LAY-1
  6
CONTINUOUS
 62
     2
100
AcDbVertex
100
AcDb2dVertex
 10
-56.845042
 20
111.529858
 30
0.0
  0
VERTEX
  5
621
100
AcDbEntity
  8
LAY-1
  6
CONTINUOUS
 62
     2
100
AcDbVertex
100
AcDb2dVertex
 10
-57.118563
 20
111.420775
 30
0.0
  0
VERTEX
  5
622
100
AcDbEntity
  8
LAY-1
  6
CONTINUOUS
 62
     2
100
AcDbVertex
100
AcDb2dVertex
 10
-57.427514
 20
111.338014
 30
0.0
  0
VERTEX
  5
623
100
AcDbEntity
  8
LAY-1
  6
CONTINUOUS
 62
     2
100
AcDbVertex
100
AcDb2dVertex
 10
-57.746295
 20
111.288626
 30
0.0
  0
VERTEX
  5
624
100
AcDbEntity
  8
LAY-1
  6
CONTINUOUS
 62
     2
100
AcDbVertex
100
AcDb2dVertex
 10
-58.084042
 20
111.271343
 30
0.0
  0
SEQEND
  5
625
100
AcDbEntity
  8
LAY-1
  6
CONTINUOUS
 62
     2
  0
POLYLINE
  5
626
100
AcDbEntity
  8
LAY-1
  6
CONTINUOUS
 62
     2
100
AcDb2dPolyline
 66
     1
 10
0.0
 20
0.0
 30
0.0
 70
   128
  0
VERTEX
  5
627
100
AcDbEntity
  8
LAY-1
  6
CONTINUOUS
 62
     2
100
AcDbVertex
100
AcDb2dVertex
 10
-56.084042
 20
103.845896
 30
0.0
  0
VERTEX
  5
628
100
AcDbEntity
  8
LAY-1
  6
CONTINUOUS
 62
     2
100
AcDbVertex
100
AcDb2dVertex
 10
-56.084106
 20
103.832812
 30
0.0
  0
VERTEX
  5
629
100
AcDbEntity
  8
LAY-1
  6
CONTINUOUS
 62
     2
100
AcDbVertex
100
AcDb2dVertex
 10
-56.137802
 20
103.469621
 30
0.0
  0
VERTEX
  5
62A
100
AcDbEntity
  8
LAY-1
  6
CONTINUOUS
 62
     2
100
AcDbVertex
100
AcDb2dVertex
 10
-56.240408
 20
103.212892
 30
0.0
  0
VERTEX
  5
62B
100
AcDbEntity
  8
LAY-1
  6
CONTINUOUS
 62
     2
100
AcDbVertex
100
AcDb2dVertex
 10
-56.398825
 20
102.966886
 30
0.0
  0
VERTEX
  5
62C
100
AcDbEntity
  8
LAY-1
  6
CONTINUOUS
 62
     2
100
AcDbVertex
100
AcDb2dVertex
 10
-56.597956
 20
102.753968
 30
0.0
  0
VERTEX
  5
62D
100
AcDbEntity
  8
LAY-1
  6
CONTINUOUS
 62
     2
100
AcDbVertex
100
AcDb2dVertex
 10
-56.845042
 20
102.565564
 30
0.0
  0
VERTEX
  5
62E
100
AcDbEntity
  8
LAY-1
  6
CONTINUOUS
 62
     2
100
AcDbVertex
100
AcDb2dVertex
 10
-57.118563
 20
102.417918
 30
0.0
  0
VERTEX
  5
62F
100
AcDbEntity
  8
LAY-1
  6
CONTINUOUS
 62
     2
100
AcDbVertex
100
AcDb2dVertex
 10
-57.427514
 20
102.306022
 30
0.0
  0
VERTEX
  5
630
100
AcDbEntity
  8
LAY-1
  6
CONTINUOUS
 62
     2
100
AcDbVertex
100
AcDb2dVertex
 10
-57.746295
 20
102.239298
 30
0.0
  0
VERTEX
  5
631
100
AcDbEntity
  8
LAY-1
  6
CONTINUOUS
 62
     2
100
AcDbVertex
100
AcDb2dVertex
 10
-58.084042
 20
102.215958
 30
0.0
  0
SEQEND
  5
632
100
AcDbEntity
  8
LAY-1
  6
CONTINUOUS
 62
     2
  0
LINE
  5
633
100
AcDbEntity
  8
LAY-1
  6
CONTINUOUS
 62
     2
100
AcDbLine
 10
-58.084042
 20
115.896876
 30
0.0
 11
-64.084042
 21
115.896876
 31
0.0
  0
LINE
  5
634
100
AcDbEntity
  8
LAY-1
  6
CONTINUOUS
 62
     2
100
AcDbLine
 10
-58.084042
 20
111.271343
 30
0.0
 11
-64.084042
 21
111.271343
 31
0.0
  0
LINE
  5
635
100
AcDbEntity
  8
LAY-1
  6
CONTINUOUS
 62
     2
100
AcDbLine
 10
-58.084042
 20
102.215958
 30
0.0
 11
-64.084042
 21
102.215958
 31
0.0
  0
LINE
  5
636
100
AcDbEntity
  8
LAY-1
  6
CONTINUOUS
 62
     2
100
AcDbLine
 10
-68.084042
 20
122.3
 30
0.0
 11
-68.084042
 21
94.8
 31
0.0
  0
LINE
  5
637
100
AcDbEntity
  8
LAY-1
  6
CONTINUOUS
 62
     2
100
AcDbLine
 10
-173.28465
 20
153.31169
 30
0.0
 11
-68.084042
 21
149.8
 31
0.0
  0
LINE
  5
638
100
AcDbEntity
  8
LAY-1
  6
CONTINUOUS
 62
     2
100
AcDbLine
 10
-173.28465
 20
91.28831
 30
0.0
 11
-68.084042
 21
94.8
 31
0.0
  0
ARC
  5
639
100
AcDbEntity
  8
LAY-1
  6
CONTINUOUS
 62
     2
100
AcDbCircle
 10
-172.584042
 20
70.3
 30
0.0
 40
21.0
100
AcDbArc
 50
91.911874
 51
178.758931
  0
ARC
  5
63A
100
AcDbEntity
  8
LAY-1
  6
CONTINUOUS
 62
     2
100
AcDbCircle
 10
-191.584042
 20
39.704872
 30
0.0
 40
2.0
100
AcDbArc
 50
95.0
 51
180.0
  0
LINE
  5
63B
100
AcDbEntity
  8
LAY-1
  6
CONTINUOUS
 62
     2
100
AcDbLine
 10
-191.758353
 20
41.697261
 30
0.0
 11
-190.584042
 21
41.8
 31
0.0
  0
LINE
  5
63C
100
AcDbEntity
  8
LAY-1
  6
CONTINUOUS
 62
     2
100
AcDbLine
 10
-190.584042
 20
41.8
 30
0.0
 11
-190.584042
 21
68.8
 31
0.0
  0
LINE
  5
63D
100
AcDbEntity
  8
LAY-1
  6
CONTINUOUS
 62
     2
100
AcDbLine
 10
-191.758353
 20
68.902739
 30
0.0
 11
-190.584042
 21
68.8
 31
0.0
  0
ARC
  5
63E
100
AcDbEntity
  8
LAY-1
  6
CONTINUOUS
 62
     2
100
AcDbCircle
 10
-191.584042
 20
70.895128
 30
0.0
 40
2.0
100
AcDbArc
 50
184.02227
 51
265.0
  0
LINE
  5
63F
100
AcDbEntity
  8
LAY-1
  6
CONTINUOUS
 62
     2
100
AcDbLine
 10
-193.584042
 20
37.35001
 30
0.0
 11
-193.584042
 21
70.75484
 31
0.0
  0
ARC
  5
640
100
AcDbEntity
  8
LAY-1
  6
CONTINUOUS
 62
     2
100
AcDbCircle
 10
-172.584042
 20
174.3
 30
0.0
 40
21.0
100
AcDbArc
 50
180.0
 51
268.088126
  0
LINE
  5
641
100
AcDbEntity
  8
LAY-1
  6
CONTINUOUS
 62
     2
100
AcDbLine
 10
-193.584042
 20
207.24999
 30
0.0
 11
-193.584042
 21
174.3
 31
0.0
  0
ARC
  5
642
100
AcDbEntity
  8
LAY-1
  6
CONTINUOUS
 62
     2
100
AcDbCircle
 10
-208.584042
 20
207.24999
 30
0.0
 40
15.0
100
AcDbArc
 50
0.0
 51
57.361601
  0
ARC
  5
643
100
AcDbEntity
  8
LAY-1
  6
CONTINUOUS
 62
     2
100
AcDbCircle
 10
-208.584042
 20
37.35001
 30
0.0
 40
15.0
100
AcDbArc
 50
302.638399
 51
0.0
  0
LINE
  5
644
100
AcDbEntity
  8
LAY-1
  6
CONTINUOUS
 62
     2
100
AcDbLine
 10
134.34489
 20
-221.9
 30
0.0
 11
100.915958
 21
-221.9
 31
0.0
  0
ARC
  5
645
100
AcDbEntity
  8
LAY-1
  6
CONTINUOUS
 62
     2
100
AcDbCircle
 10
100.915958
 20
-223.9
 30
0.0
 40
2.0
100
AcDbArc
 50
90.0
 51
180.0
  0
LINE
  5
646
100
AcDbEntity
  8
LAY-1
  6
CONTINUOUS
 62
     2
100
AcDbLine
 10
136.415958
 20
-223.9
 30
0.0
 11
136.415958
 21
-263.4
 31
0.0
  0
LINE
  5
647
100
AcDbEntity
  8
LAY-1
  6
CONTINUOUS
 62
     2
100
AcDbLine
 10
142.415958
 20
-229.9
 30
0.0
 11
142.415958
 21
-263.4
 31
0.0
  0
LINE
  5
648
100
AcDbEntity
  8
LAY-1
  6
CONTINUOUS
 62
     2
100
AcDbLine
 10
166.915958
 20
-263.4
 30
0.0
 11
133.965968
 21
-263.4
 31
0.0
  0
ARC
  5
649
100
AcDbEntity
  8
LAY-1
  6
CONTINUOUS
 62
     2
100
AcDbCircle
 10
166.915958
 20
-242.4
 30
0.0
 40
21.0
100
AcDbArc
 50
271.241069
 51
358.088126
  0
ARC
  5
64A
100
AcDbEntity
  8
LAY-1
  6
CONTINUOUS
 62
     2
100
AcDbCircle
 10
192.157546
 20
-260.766342
 30
0.0
 40
2.0
100
AcDbArc
 50
275.858415
 51
355.0
  0
LINE
  5
64B
100
AcDbEntity
  8
LAY-1
  6
CONTINUOUS
 62
     2
100
AcDbLine
 10
194.149936
 20
-260.940654
 30
0.0
 11
194.415958
 21
-257.9
 31
0.0
  0
LINE
  5
64C
100
AcDbEntity
  8
LAY-1
  6
CONTINUOUS
 62
     2
100
AcDbLine
 10
194.415958
 20
-257.9
 30
0.0
 11
218.915958
 21
-257.9
 31
0.0
  0
LINE
  5
64D
100
AcDbEntity
  8
LAY-1
  6
CONTINUOUS
 62
     2
100
AcDbLine
 10
218.915958
 20
-262.786527
 30
0.0
 11
194.120184
 21
-262.786527
 31
0.0
  0
ARC
  5
64E
100
AcDbEntity
  8
LAY-1
  6
CONTINUOUS
 62
     2
100
AcDbCircle
 10
245.67437
 20
-260.766342
 30
0.0
 40
2.0
100
AcDbArc
 50
185.0
 51
264.141585
  0
LINE
  5
64F
100
AcDbEntity
  8
LAY-1
  6
CONTINUOUS
 62
     2
100
AcDbLine
 10
243.681981
 20
-260.940654
 30
0.0
 11
243.415958
 21
-257.9
 31
0.0
  0
LINE
  5
650
100
AcDbEntity
  8
LAY-1
  6
CONTINUOUS
 62
     2
100
AcDbLine
 10
243.415958
 20
-257.9
 30
0.0
 11
218.915958
 21
-257.9
 31
0.0
  0
LINE
  5
651
100
AcDbEntity
  8
LAY-1
  6
CONTINUOUS
 62
     2
100
AcDbLine
 10
218.915958
 20
-262.786527
 30
0.0
 11
243.711733
 21
-262.786527
 31
0.0
  0
LINE
  5
652
100
AcDbEntity
  8
LAY-1
  6
CONTINUOUS
 62
     2
100
AcDbLine
 10
187.904268
 20
-243.100609
 30
0.0
 11
191.415958
 21
-137.9
 31
0.0
  0
ARC
  5
653
100
AcDbEntity
  8
LAY-1
  6
CONTINUOUS
 62
     2
100
AcDbCircle
 10
183.575797
 20
-222.9
 30
0.0
 40
5.0
100
AcDbArc
 50
270.0
 51
358.088126
  0
LINE
  5
654
100
AcDbEntity
  8
LAY-1
  6
CONTINUOUS
 62
     2
100
AcDbLine
 10
183.575797
 20
-227.9
 30
0.0
 11
144.487026
 21
-227.9
 31
0.0
  0
ARC
  5
655
100
AcDbEntity
  8
LAY-1
  6
CONTINUOUS
 62
     2
100
AcDbCircle
 10
134.34489
 20
-226.9
 30
0.0
 40
5.0
100
AcDbArc
 50
45.0
 51
90.0
  0
LINE
  5
656
100
AcDbEntity
  8
LAY-1
  6
CONTINUOUS
 62
     2
100
AcDbLine
 10
137.880424
 20
-223.364466
 30
0.0
 11
140.951492
 21
-226.435534
 31
0.0
  0
ARC
  5
657
100
AcDbEntity
  8
LAY-1
  6
CONTINUOUS
 62
     2
100
AcDbCircle
 10
144.487026
 20
-222.9
 30
0.0
 40
5.0
100
AcDbArc
 50
225.0
 51
270.0
  0
LINE
  5
658
100
AcDbEntity
  8
LAY-1
  6
CONTINUOUS
 62
     2
100
AcDbLine
 10
249.927648
 20
-243.100609
 30
0.0
 11
246.415958
 21
-137.9
 31
0.0
  0
ARC
  5
659
100
AcDbEntity
  8
LAY-1
  6
CONTINUOUS
 62
     2
100
AcDbCircle
 10
270.915958
 20
-242.4
 30
0.0
 40
21.0
100
AcDbArc
 50
181.911874
 51
268.758931
  0
LINE
  5
65A
100
AcDbEntity
  8
LAY-1
  6
CONTINUOUS
 62
     2
100
AcDbLine
 10
273.915958
 20
-257.9
 30
0.0
 11
273.791298
 21
-261.469799
 31
0.0
  0
ARC
  5
65B
100
AcDbEntity
  8
LAY-1
  6
CONTINUOUS
 62
     2
100
AcDbCircle
 10
271.792516
 20
-261.4
 30
0.0
 40
2.0
100
AcDbArc
 50
270.0
 51
358.0
  0
LINE
  5
65C
100
AcDbEntity
  8
LAY-1
  6
CONTINUOUS
 62
     2
100
AcDbLine
 10
323.915958
 20
-257.9
 30
0.0
 11
273.915958
 21
-257.9
 31
0.0
  0
LINE
  5
65D
100
AcDbEntity
  8
LAY-1
  6
CONTINUOUS
 62
     2
100
AcDbLine
 10
270.461118
 20
-263.4
 30
0.0
 11
303.865948
 21
-263.4
 31
0.0
  0
LINE
  5
65E
100
AcDbEntity
  8
LAY-1
  6
CONTINUOUS
 62
     2
100
AcDbLine
 10
190.415958
 20
-134.4
 30
0.0
 11
190.415958
 21
-136.9
 31
0.0
  0
LINE
  5
65F
100
AcDbEntity
  8
LAY-1
  6
CONTINUOUS
 62
     2
100
AcDbLine
 10
218.915958
 20
-136.9
 30
0.0
 11
190.415958
 21
-136.9
 31
0.0
  0
LINE
  5
660
100
AcDbEntity
  8
LAY-1
  6
CONTINUOUS
 62
     2
100
AcDbLine
 10
191.915958
 20
-136.9
 30
0.0
 11
191.915958
 21
-137.9
 31
0.0
  0
LINE
  5
661
100
AcDbEntity
  8
LAY-1
  6
CONTINUOUS
 62
     2
100
AcDbLine
 10
218.915958
 20
-133.9
 30
0.0
 11
190.915958
 21
-133.9
 31
0.0
  0
ARC
  5
662
100
AcDbEntity
  8
LAY-1
  6
CONTINUOUS
 62
     2
100
AcDbCircle
 10
195.915958
 20
-132.9
 30
0.0
 40
1.0
100
AcDbArc
 50
270.0
 51
0.0
  0
LINE
  5
663
100
AcDbEntity
  8
LAY-1
  6
CONTINUOUS
 62
     2
100
AcDbLine
 10
196.915958
 20
-127.9
 30
0.0
 11
196.915958
 21
-132.9
 31
0.0
  0
ARC
  5
664
100
AcDbEntity
  8
LAY-1
  6
CONTINUOUS
 62
     2
100
AcDbCircle
 10
198.915958
 20
-127.9
 30
0.0
 40
2.0
100
AcDbArc
 50
90.0
 51
180.0
  0
LINE
  5
665
100
AcDbEntity
  8
LAY-1
  6
CONTINUOUS
 62
     2
100
AcDbLine
 10
198.915958
 20
-125.9
 30
0.0
 11
218.915958
 21
-125.9
 31
0.0
  0
LINE
  5
666
100
AcDbEntity
  8
LAY-1
  6
CONTINUOUS
 62
     2
100
AcDbLine
 10
190.415958
 20
-134.4
 30
0.0
 11
190.915958
 21
-133.9
 31
0.0
  0
POLYLINE
  5
667
100
AcDbEntity
  8
LAY-1
  6
CONTINUOUS
 62
     2
100
AcDb2dPolyline
 66
     1
 10
0.0
 20
0.0
 30
0.0
 70
   128
  0
VERTEX
  5
668
100
AcDbEntity
  8
LAY-1
  6
CONTINUOUS
 62
     2
100
AcDbVertex
100
AcDb2dVertex
 10
212.817914
 20
-125.9
 30
0.0
  0
VERTEX
  5
669
100
AcDbEntity
  8
LAY-1
  6
CONTINUOUS
 62
     2
100
AcDbVertex
100
AcDb2dVertex
 10
212.815415
 20
-125.900064
 30
0.0
  0
VERTEX
  5
66A
100
AcDbEntity
  8
LAY-1
  6
CONTINUOUS
 62
     2
100
AcDbVertex
100
AcDb2dVertex
 10
212.74638
 20
-125.95376
 30
0.0
  0
VERTEX
  5
66B
100
AcDbEntity
  8
LAY-1
  6
CONTINUOUS
 62
     2
100
AcDbVertex
100
AcDb2dVertex
 10
212.697963
 20
-126.056366
 30
0.0
  0
VERTEX
  5
66C
100
AcDbEntity
  8
LAY-1
  6
CONTINUOUS
 62
     2
100
AcDbVertex
100
AcDb2dVertex
 10
212.651859
 20
-126.214783
 30
0.0
  0
VERTEX
  5
66D
100
AcDbEntity
  8
LAY-1
  6
CONTINUOUS
 62
     2
100
AcDbVertex
100
AcDb2dVertex
 10
212.612182
 20
-126.413914
 30
0.0
  0
VERTEX
  5
66E
100
AcDbEntity
  8
LAY-1
  6
CONTINUOUS
 62
     2
100
AcDbVertex
100
AcDb2dVertex
 10
212.577245
 20
-126.661001
 30
0.0
  0
VERTEX
  5
66F
100
AcDbEntity
  8
LAY-1
  6
CONTINUOUS
 62
     2
100
AcDbVertex
100
AcDb2dVertex
 10
212.549977
 20
-126.934522
 30
0.0
  0
VERTEX
  5
670
100
AcDbEntity
  8
LAY-1
  6
CONTINUOUS
 62
     2
100
AcDbVertex
100
AcDb2dVertex
 10
212.529376
 20
-127.243472
 30
0.0
  0
VERTEX
  5
671
100
AcDbEntity
  8
LAY-1
  6
CONTINUOUS
 62
     2
100
AcDbVertex
100
AcDb2dVertex
 10
212.517117
 20
-127.562254
 30
0.0
  0
VERTEX
  5
672
100
AcDbEntity
  8
LAY-1
  6
CONTINUOUS
 62
     2
100
AcDbVertex
100
AcDb2dVertex
 10
212.512834
 20
-127.9
 30
0.0
  0
SEQEND
  5
673
100
AcDbEntity
  8
LAY-1
  6
CONTINUOUS
 62
     2
  0
POLYLINE
  5
674
100
AcDbEntity
  8
LAY-1
  6
CONTINUOUS
 62
     2
100
AcDb2dPolyline
 66
     1
 10
0.0
 20
0.0
 30
0.0
 70
   128
  0
VERTEX
  5
675
100
AcDbEntity
  8
LAY-1
  6
CONTINUOUS
 62
     2
100
AcDbVertex
100
AcDb2dVertex
 10
209.085791
 20
-125.9
 30
0.0
  0
VERTEX
  5
676
100
AcDbEntity
  8
LAY-1
  6
CONTINUOUS
 62
     2
100
AcDbVertex
100
AcDb2dVertex
 10
209.076242
 20
-125.900064
 30
0.0
  0
VERTEX
  5
677
100
AcDbEntity
  8
LAY-1
  6
CONTINUOUS
 62
     2
100
AcDbVertex
100
AcDb2dVertex
 10
208.810681
 20
-125.95376
 30
0.0
  0
VERTEX
  5
678
100
AcDbEntity
  8
LAY-1
  6
CONTINUOUS
 62
     2
100
AcDbVertex
100
AcDb2dVertex
 10
208.622423
 20
-126.056366
 30
0.0
  0
VERTEX
  5
679
100
AcDbEntity
  8
LAY-1
  6
CONTINUOUS
 62
     2
100
AcDbVertex
100
AcDb2dVertex
 10
208.441618
 20
-126.214783
 30
0.0
  0
VERTEX
  5
67A
100
AcDbEntity
  8
LAY-1
  6
CONTINUOUS
 62
     2
100
AcDbVertex
100
AcDb2dVertex
 10
208.284812
 20
-126.413914
 30
0.0
  0
VERTEX
  5
67B
100
AcDbEntity
  8
LAY-1
  6
CONTINUOUS
 62
     2
100
AcDbVertex
100
AcDb2dVertex
 10
208.145817
 20
-126.661001
 30
0.0
  0
VERTEX
  5
67C
100
AcDbEntity
  8
LAY-1
  6
CONTINUOUS
 62
     2
100
AcDbVertex
100
AcDb2dVertex
 10
208.036734
 20
-126.934522
 30
0.0
  0
VERTEX
  5
67D
100
AcDbEntity
  8
LAY-1
  6
CONTINUOUS
 62
     2
100
AcDbVertex
100
AcDb2dVertex
 10
207.953972
 20
-127.243472
 30
0.0
  0
VERTEX
  5
67E
100
AcDbEntity
  8
LAY-1
  6
CONTINUOUS
 62
     2
100
AcDbVertex
100
AcDb2dVertex
 10
207.904584
 20
-127.562254
 30
0.0
  0
VERTEX
  5
67F
100
AcDbEntity
  8
LAY-1
  6
CONTINUOUS
 62
     2
100
AcDbVertex
100
AcDb2dVertex
 10
207.887302
 20
-127.9
 30
0.0
  0
SEQEND
  5
680
100
AcDbEntity
  8
LAY-1
  6
CONTINUOUS
 62
     2
  0
POLYLINE
  5
681
100
AcDbEntity
  8
LAY-1
  6
CONTINUOUS
 62
     2
100
AcDb2dPolyline
 66
     1
 10
0.0
 20
0.0
 30
0.0
 70
   128
  0
VERTEX
  5
682
100
AcDbEntity
  8
LAY-1
  6
CONTINUOUS
 62
     2
100
AcDbVertex
100
AcDb2dVertex
 10
200.461854
 20
-125.9
 30
0.0
  0
VERTEX
  5
683
100
AcDbEntity
  8
LAY-1
  6
CONTINUOUS
 62
     2
100
AcDbVertex
100
AcDb2dVertex
 10
200.44877
 20
-125.900064
 30
0.0
  0
VERTEX
  5
684
100
AcDbEntity
  8
LAY-1
  6
CONTINUOUS
 62
     2
100
AcDbVertex
100
AcDb2dVertex
 10
200.085579
 20
-125.95376
 30
0.0
  0
VERTEX
  5
685
100
AcDbEntity
  8
LAY-1
  6
CONTINUOUS
 62
     2
100
AcDbVertex
100
AcDb2dVertex
 10
199.828851
 20
-126.056366
 30
0.0
  0
VERTEX
  5
686
100
AcDbEntity
  8
LAY-1
  6
CONTINUOUS
 62
     2
100
AcDbVertex
100
AcDb2dVertex
 10
199.582844
 20
-126.214783
 30
0.0
  0
VERTEX
  5
687
100
AcDbEntity
  8
LAY-1
  6
CONTINUOUS
 62
     2
100
AcDbVertex
100
AcDb2dVertex
 10
199.369926
 20
-126.413914
 30
0.0
  0
VERTEX
  5
688
100
AcDbEntity
  8
LAY-1
  6
CONTINUOUS
 62
     2
100
AcDbVertex
100
AcDb2dVertex
 10
199.181522
 20
-126.661001
 30
0.0
  0
VERTEX
  5
689
100
AcDbEntity
  8
LAY-1
  6
CONTINUOUS
 62
     2
100
AcDbVertex
100
AcDb2dVertex
 10
199.033876
 20
-126.934522
 30
0.0
  0
VERTEX
  5
68A
100
AcDbEntity
  8
LAY-1
  6
CONTINUOUS
 62
     2
100
AcDbVertex
100
AcDb2dVertex
 10
198.92198
 20
-127.243472
 30
0.0
  0
VERTEX
  5
68B
100
AcDbEntity
  8
LAY-1
  6
CONTINUOUS
 62
     2
100
AcDbVertex
100
AcDb2dVertex
 10
198.855256
 20
-127.562254
 30
0.0
  0
VERTEX
  5
68C
100
AcDbEntity
  8
LAY-1
  6
CONTINUOUS
 62
     2
100
AcDbVertex
100
AcDb2dVertex
 10
198.831916
 20
-127.9
 30
0.0
  0
SEQEND
  5
68D
100
AcDbEntity
  8
LAY-1
  6
CONTINUOUS
 62
     2
  0
LINE
  5
68E
100
AcDbEntity
  8
LAY-1
  6
CONTINUOUS
 62
     2
100
AcDbLine
 10
212.512834
 20
-127.9
 30
0.0
 11
212.512834
 21
-133.9
 31
0.0
  0
LINE
  5
68F
100
AcDbEntity
  8
LAY-1
  6
CONTINUOUS
 62
     2
100
AcDbLine
 10
207.887302
 20
-127.9
 30
0.0
 11
207.887302
 21
-133.9
 31
0.0
  0
LINE
  5
690
100
AcDbEntity
  8
LAY-1
  6
CONTINUOUS
 62
     2
100
AcDbLine
 10
198.831916
 20
-127.9
 30
0.0
 11
198.831916
 21
-133.9
 31
0.0
  0
LINE
  5
691
100
AcDbEntity
  8
LAY-1
  6
CONTINUOUS
 62
     2
100
AcDbLine
 10
218.915958
 20
-137.9
 30
0.0
 11
191.415958
 21
-137.9
 31
0.0
  0
LINE
  5
692
100
AcDbEntity
  8
LAY-1
  6
CONTINUOUS
 62
     2
100
AcDbLine
 10
247.415958
 20
-134.4
 30
0.0
 11
247.415958
 21
-136.9
 31
0.0
  0
LINE
  5
693
100
AcDbEntity
  8
LAY-1
  6
CONTINUOUS
 62
     2
100
AcDbLine
 10
218.915958
 20
-136.9
 30
0.0
 11
247.415958
 21
-136.9
 31
0.0
  0
LINE
  5
694
100
AcDbEntity
  8
LAY-1
  6
CONTINUOUS
 62
     2
100
AcDbLine
 10
245.915958
 20
-136.9
 30
0.0
 11
245.915958
 21
-137.9
 31
0.0
  0
LINE
  5
695
100
AcDbEntity
  8
LAY-1
  6
CONTINUOUS
 62
     2
100
AcDbLine
 10
218.915958
 20
-133.9
 30
0.0
 11
246.915958
 21
-133.9
 31
0.0
  0
ARC
  5
696
100
AcDbEntity
  8
LAY-1
  6
CONTINUOUS
 62
     2
100
AcDbCircle
 10
241.915958
 20
-132.9
 30
0.0
 40
1.0
100
AcDbArc
 50
180.0
 51
270.0
  0
LINE
  5
697
100
AcDbEntity
  8
LAY-1
  6
CONTINUOUS
 62
     2
100
AcDbLine
 10
240.915958
 20
-127.9
 30
0.0
 11
240.915958
 21
-132.9
 31
0.0
  0
ARC
  5
698
100
AcDbEntity
  8
LAY-1
  6
CONTINUOUS
 62
     2
100
AcDbCircle
 10
238.915958
 20
-127.9
 30
0.0
 40
2.0
100
AcDbArc
 50
0.0
 51
90.0
  0
LINE
  5
699
100
AcDbEntity
  8
LAY-1
  6
CONTINUOUS
 62
     2
100
AcDbLine
 10
238.915958
 20
-125.9
 30
0.0
 11
218.915958
 21
-125.9
 31
0.0
  0
LINE
  5
69A
100
AcDbEntity
  8
LAY-1
  6
CONTINUOUS
 62
     2
100
AcDbLine
 10
247.415958
 20
-134.4
 30
0.0
 11
246.915958
 21
-133.9
 31
0.0
  0
POLYLINE
  5
69B
100
AcDbEntity
  8
LAY-1
  6
CONTINUOUS
 62
     2
100
AcDb2dPolyline
 66
     1
 10
0.0
 20
0.0
 30
0.0
 70
   128
  0
VERTEX
  5
69C
100
AcDbEntity
  8
LAY-1
  6
CONTINUOUS
 62
     2
100
AcDbVertex
100
AcDb2dVertex
 10
225.014003
 20
-125.9
 30
0.0
  0
VERTEX
  5
69D
100
AcDbEntity
  8
LAY-1
  6
CONTINUOUS
 62
     2
100
AcDbVertex
100
AcDb2dVertex
 10
225.016502
 20
-125.900064
 30
0.0
  0
VERTEX
  5
69E
100
AcDbEntity
  8
LAY-1
  6
CONTINUOUS
 62
     2
100
AcDbVertex
100
AcDb2dVertex
 10
225.085537
 20
-125.95376
 30
0.0
  0
VERTEX
  5
69F
100
AcDbEntity
  8
LAY-1
  6
CONTINUOUS
 62
     2
100
AcDbVertex
100
AcDb2dVertex
 10
225.133953
 20
-126.056366
 30
0.0
  0
VERTEX
  5
6A0
100
AcDbEntity
  8
LAY-1
  6
CONTINUOUS
 62
     2
100
AcDbVertex
100
AcDb2dVertex
 10
225.180057
 20
-126.214783
 30
0.0
  0
VERTEX
  5
6A1
100
AcDbEntity
  8
LAY-1
  6
CONTINUOUS
 62
     2
100
AcDbVertex
100
AcDb2dVertex
 10
225.219734
 20
-126.413914
 30
0.0
  0
VERTEX
  5
6A2
100
AcDbEntity
  8
LAY-1
  6
CONTINUOUS
 62
     2
100
AcDbVertex
100
AcDb2dVertex
 10
225.254672
 20
-126.661001
 30
0.0
  0
VERTEX
  5
6A3
100
AcDbEntity
  8
LAY-1
  6
CONTINUOUS
 62
     2
100
AcDbVertex
100
AcDb2dVertex
 10
225.28194
 20
-126.934522
 30
0.0
  0
VERTEX
  5
6A4
100
AcDbEntity
  8
LAY-1
  6
CONTINUOUS
 62
     2
100
AcDbVertex
100
AcDb2dVertex
 10
225.302541
 20
-127.243472
 30
0.0
  0
VERTEX
  5
6A5
100
AcDbEntity
  8
LAY-1
  6
CONTINUOUS
 62
     2
100
AcDbVertex
100
AcDb2dVertex
 10
225.314799
 20
-127.562254
 30
0.0
  0
VERTEX
  5
6A6
100
AcDbEntity
  8
LAY-1
  6
CONTINUOUS
 62
     2
100
AcDbVertex
100
AcDb2dVertex
 10
225.319082
 20
-127.9
 30
0.0
  0
SEQEND
  5
6A7
100
AcDbEntity
  8
LAY-1
  6
CONTINUOUS
 62
     2
  0
POLYLINE
  5
6A8
100
AcDbEntity
  8
LAY-1
  6
CONTINUOUS
 62
     2
100
AcDb2dPolyline
 66
     1
 10
0.0
 20
0.0
 30
0.0
 70
   128
  0
VERTEX
  5
6A9
100
AcDbEntity
  8
LAY-1
  6
CONTINUOUS
 62
     2
100
AcDbVertex
100
AcDb2dVertex
 10
228.746125
 20
-125.9
 30
0.0
  0
VERTEX
  5
6AA
100
AcDbEntity
  8
LAY-1
  6
CONTINUOUS
 62
     2
100
AcDbVertex
100
AcDb2dVertex
 10
228.755675
 20
-125.900064
 30
0.0
  0
VERTEX
  5
6AB
100
AcDbEntity
  8
LAY-1
  6
CONTINUOUS
 62
     2
100
AcDbVertex
100
AcDb2dVertex
 10
229.021236
 20
-125.95376
 30
0.0
  0
VERTEX
  5
6AC
100
AcDbEntity
  8
LAY-1
  6
CONTINUOUS
 62
     2
100
AcDbVertex
100
AcDb2dVertex
 10
229.209493
 20
-126.056366
 30
0.0
  0
VERTEX
  5
6AD
100
AcDbEntity
  8
LAY-1
  6
CONTINUOUS
 62
     2
100
AcDbVertex
100
AcDb2dVertex
 10
229.390299
 20
-126.214783
 30
0.0
  0
VERTEX
  5
6AE
100
AcDbEntity
  8
LAY-1
  6
CONTINUOUS
 62
     2
100
AcDbVertex
100
AcDb2dVertex
 10
229.547104
 20
-126.413914
 30
0.0
  0
VERTEX
  5
6AF
100
AcDbEntity
  8
LAY-1
  6
CONTINUOUS
 62
     2
100
AcDbVertex
100
AcDb2dVertex
 10
229.6861
 20
-126.661001
 30
0.0
  0
VERTEX
  5
6B0
100
AcDbEntity
  8
LAY-1
  6
CONTINUOUS
 62
     2
100
AcDbVertex
100
AcDb2dVertex
 10
229.795183
 20
-126.934522
 30
0.0
  0
VERTEX
  5
6B1
100
AcDbEntity
  8
LAY-1
  6
CONTINUOUS
 62
     2
100
AcDbVertex
100
AcDb2dVertex
 10
229.877944
 20
-127.243472
 30
0.0
  0
VERTEX
  5
6B2
100
AcDbEntity
  8
LAY-1
  6
CONTINUOUS
 62
     2
100
AcDbVertex
100
AcDb2dVertex
 10
229.927332
 20
-127.562254
 30
0.0
  0
VERTEX
  5
6B3
100
AcDbEntity
  8
LAY-1
  6
CONTINUOUS
 62
     2
100
AcDbVertex
100
AcDb2dVertex
 10
229.944615
 20
-127.9
 30
0.0
  0
SEQEND
  5
6B4
100
AcDbEntity
  8
LAY-1
  6
CONTINUOUS
 62
     2
  0
POLYLINE
  5
6B5
100
AcDbEntity
  8
LAY-1
  6
CONTINUOUS
 62
     2
100
AcDb2dPolyline
 66
     1
 10
0.0
 20
0.0
 30
0.0
 70
   128
  0
VERTEX
  5
6B6
100
AcDbEntity
  8
LAY-1
  6
CONTINUOUS
 62
     2
100
AcDbVertex
100
AcDb2dVertex
 10
237.370063
 20
-125.9
 30
0.0
  0
VERTEX
  5
6B7
100
AcDbEntity
  8
LAY-1
  6
CONTINUOUS
 62
     2
100
AcDbVertex
100
AcDb2dVertex
 10
237.383146
 20
-125.900064
 30
0.0
  0
VERTEX
  5
6B8
100
AcDbEntity
  8
LAY-1
  6
CONTINUOUS
 62
     2
100
AcDbVertex
100
AcDb2dVertex
 10
237.746337
 20
-125.95376
 30
0.0
  0
VERTEX
  5
6B9
100
AcDbEntity
  8
LAY-1
  6
CONTINUOUS
 62
     2
100
AcDbVertex
100
AcDb2dVertex
 10
238.003066
 20
-126.056366
 30
0.0
  0
VERTEX
  5
6BA
100
AcDbEntity
  8
LAY-1
  6
CONTINUOUS
 62
     2
100
AcDbVertex
100
AcDb2dVertex
 10
238.249072
 20
-126.214783
 30
0.0
  0
VERTEX
  5
6BB
100
AcDbEntity
  8
LAY-1
  6
CONTINUOUS
 62
     2
100
AcDbVertex
100
AcDb2dVertex
 10
238.46199
 20
-126.413914
 30
0.0
  0
VERTEX
  5
6BC
100
AcDbEntity
  8
LAY-1
  6
CONTINUOUS
 62
     2
100
AcDbVertex
100
AcDb2dVertex
 10
238.650394
 20
-126.661001
 30
0.0
  0
VERTEX
  5
6BD
100
AcDbEntity
  8
LAY-1
  6
CONTINUOUS
 62
     2
100
AcDbVertex
100
AcDb2dVertex
 10
238.79804
 20
-126.934522
 30
0.0
  0
VERTEX
  5
6BE
100
AcDbEntity
  8
LAY-1
  6
CONTINUOUS
 62
     2
100
AcDbVertex
100
AcDb2dVertex
 10
238.909936
 20
-127.243472
 30
0.0
  0
VERTEX
  5
6BF
100
AcDbEntity
  8
LAY-1
  6
CONTINUOUS
 62
     2
100
AcDbVertex
100
AcDb2dVertex
 10
238.97666
 20
-127.562254
 30
0.0
  0
VERTEX
  5
6C0
100
AcDbEntity
  8
LAY-1
  6
CONTINUOUS
 62
     2
100
AcDbVertex
100
AcDb2dVertex
 10
239.0
 20
-127.9
 30
0.0
  0
SEQEND
  5
6C1
100
AcDbEntity
  8
LAY-1
  6
CONTINUOUS
 62
     2
  0
LINE
  5
6C2
100
AcDbEntity
  8
LAY-1
  6
CONTINUOUS
 62
     2
100
AcDbLine
 10
225.319082
 20
-127.9
 30
0.0
 11
225.319082
 21
-133.9
 31
0.0
  0
LINE
  5
6C3
100
AcDbEntity
  8
LAY-1
  6
CONTINUOUS
 62
     2
100
AcDbLine
 10
229.944615
 20
-127.9
 30
0.0
 11
229.944615
 21
-133.9
 31
0.0
  0
LINE
  5
6C4
100
AcDbEntity
  8
LAY-1
  6
CONTINUOUS
 62
     2
100
AcDbLine
 10
239.0
 20
-127.9
 30
0.0
 11
239.0
 21
-133.9
 31
0.0
  0
LINE
  5
6C5
100
AcDbEntity
  8
LAY-1
  6
CONTINUOUS
 62
     2
100
AcDbLine
 10
218.915958
 20
-137.9
 30
0.0
 11
246.415958
 21
-137.9
 31
0.0
  0
LINE
  5
6C6
100
AcDbEntity
  8
LAY-1
  6
CONTINUOUS
 62
     2
100
AcDbLine
 10
323.915958
 20
-257.9
 30
0.0
 11
324.29121
 21
-268.645814
 31
0.0
  0
ARC
  5
6C7
100
AcDbEntity
  8
LAY-1
  6
CONTINUOUS
 62
     2
100
AcDbCircle
 10
303.865948
 20
-278.4
 30
0.0
 40
15.0
100
AcDbArc
 50
32.638399
 51
90.0
  0
ARC
  5
6C8
100
AcDbEntity
  8
LAY-1
  6
CONTINUOUS
 62
     2
100
AcDbCircle
 10
133.965968
 20
-278.4
 30
0.0
 40
15.0
100
AcDbArc
 50
90.0
 51
147.361601
  0
LINE
  5
6C9
100
AcDbEntity
  8
LAY-1
  6
CONTINUOUS
 62
     2
100
AcDbLine
 10
98.915958
 20
-282.1
 30
0.0
 11
98.915958
 21
-223.9
 31
0.0
  0
ARC
  5
6CA
100
AcDbEntity
  8
LAY-1
  6
CONTINUOUS
 62
     2
100
AcDbCircle
 10
183.575797
 20
521.1
 30
0.0
 40
5.0
100
AcDbArc
 50
1.911874
 51
90.0
  0
ARC
  5
6CB
100
AcDbEntity
  8
LAY-1
  6
CONTINUOUS
 62
     2
100
AcDbCircle
 10
134.34489
 20
525.1
 30
0.0
 40
5.0
100
AcDbArc
 50
270.0
 51
315.0
  0
LINE
  5
6CC
100
AcDbEntity
  8
LAY-1
  6
CONTINUOUS
 62
     2
100
AcDbLine
 10
137.880424
 20
521.564466
 30
0.0
 11
140.951492
 21
524.635534
 31
0.0
  0
ARC
  5
6CD
100
AcDbEntity
  8
LAY-1
  6
CONTINUOUS
 62
     2
100
AcDbCircle
 10
144.487026
 20
521.1
 30
0.0
 40
5.0
100
AcDbArc
 50
90.0
 51
135.0
  0
LINE
  5
6CE
100
AcDbEntity
  8
LAY-1
  6
CONTINUOUS
 62
     2
100
AcDbLine
 10
183.575797
 20
526.1
 30
0.0
 11
144.487026
 21
526.1
 31
0.0
  0
LINE
  5
6CF
100
AcDbEntity
  8
LAY-1
  6
CONTINUOUS
 62
     2
100
AcDbLine
 10
190.415958
 20
432.6
 30
0.0
 11
190.415958
 21
435.1
 31
0.0
  0
LINE
  5
6D0
100
AcDbEntity
  8
LAY-1
  6
CONTINUOUS
 62
     2
100
AcDbLine
 10
218.915958
 20
435.1
 30
0.0
 11
190.415958
 21
435.1
 31
0.0
  0
LINE
  5
6D1
100
AcDbEntity
  8
LAY-1
  6
CONTINUOUS
 62
     2
100
AcDbLine
 10
191.915958
 20
435.1
 30
0.0
 11
191.915958
 21
436.1
 31
0.0
  0
LINE
  5
6D2
100
AcDbEntity
  8
LAY-1
  6
CONTINUOUS
 62
     2
100
AcDbLine
 10
218.915958
 20
432.1
 30
0.0
 11
190.915958
 21
432.1
 31
0.0
  0
ARC
  5
6D3
100
AcDbEntity
  8
LAY-1
  6
CONTINUOUS
 62
     2
100
AcDbCircle
 10
195.915958
 20
431.1
 30
0.0
 40
1.0
100
AcDbArc
 50
0.0
 51
90.0
  0
LINE
  5
6D4
100
AcDbEntity
  8
LAY-1
  6
CONTINUOUS
 62
     2
100
AcDbLine
 10
196.915958
 20
426.1
 30
0.0
 11
196.915958
 21
431.1
 31
0.0
  0
ARC
  5
6D5
100
AcDbEntity
  8
LAY-1
  6
CONTINUOUS
 62
     2
100
AcDbCircle
 10
198.915958
 20
426.1
 30
0.0
 40
2.0
100
AcDbArc
 50
180.0
 51
270.0
  0
LINE
  5
6D6
100
AcDbEntity
  8
LAY-1
  6
CONTINUOUS
 62
     2
100
AcDbLine
 10
198.915958
 20
424.1
 30
0.0
 11
218.915958
 21
424.1
 31
0.0
  0
LINE
  5
6D7
100
AcDbEntity
  8
LAY-1
  6
CONTINUOUS
 62
     2
100
AcDbLine
 10
190.415958
 20
432.6
 30
0.0
 11
190.915958
 21
432.1
 31
0.0
  0
POLYLINE
  5
6D8
100
AcDbEntity
  8
LAY-1
  6
CONTINUOUS
 62
     2
100
AcDb2dPolyline
 66
     1
 10
0.0
 20
0.0
 30
0.0
 70
   128
  0
VERTEX
  5
6D9
100
AcDbEntity
  8
LAY-1
  6
CONTINUOUS
 62
     2
100
AcDbVertex
100
AcDb2dVertex
 10
212.817914
 20
424.1
 30
0.0
  0
VERTEX
  5
6DA
100
AcDbEntity
  8
LAY-1
  6
CONTINUOUS
 62
     2
100
AcDbVertex
100
AcDb2dVertex
 10
212.815415
 20
424.100064
 30
0.0
  0
VERTEX
  5
6DB
100
AcDbEntity
  8
LAY-1
  6
CONTINUOUS
 62
     2
100
AcDbVertex
100
AcDb2dVertex
 10
212.74638
 20
424.15376
 30
0.0
  0
VERTEX
  5
6DC
100
AcDbEntity
  8
LAY-1
  6
CONTINUOUS
 62
     2
100
AcDbVertex
100
AcDb2dVertex
 10
212.697963
 20
424.256366
 30
0.0
  0
VERTEX
  5
6DD
100
AcDbEntity
  8
LAY-1
  6
CONTINUOUS
 62
     2
100
AcDbVertex
100
AcDb2dVertex
 10
212.651859
 20
424.414783
 30
0.0
  0
VERTEX
  5
6DE
100
AcDbEntity
  8
LAY-1
  6
CONTINUOUS
 62
     2
100
AcDbVertex
100
AcDb2dVertex
 10
212.612182
 20
424.613914
 30
0.0
  0
VERTEX
  5
6DF
100
AcDbEntity
  8
LAY-1
  6
CONTINUOUS
 62
     2
100
AcDbVertex
100
AcDb2dVertex
 10
212.577245
 20
424.861001
 30
0.0
  0
VERTEX
  5
6E0
100
AcDbEntity
  8
LAY-1
  6
CONTINUOUS
 62
     2
100
AcDbVertex
100
AcDb2dVertex
 10
212.549977
 20
425.134522
 30
0.0
  0
VERTEX
  5
6E1
100
AcDbEntity
  8
LAY-1
  6
CONTINUOUS
 62
     2
100
AcDbVertex
100
AcDb2dVertex
 10
212.529376
 20
425.443472
 30
0.0
  0
VERTEX
  5
6E2
100
AcDbEntity
  8
LAY-1
  6
CONTINUOUS
 62
     2
100
AcDbVertex
100
AcDb2dVertex
 10
212.517117
 20
425.762254
 30
0.0
  0
VERTEX
  5
6E3
100
AcDbEntity
  8
LAY-1
  6
CONTINUOUS
 62
     2
100
AcDbVertex
100
AcDb2dVertex
 10
212.512834
 20
426.1
 30
0.0
  0
SEQEND
  5
6E4
100
AcDbEntity
  8
LAY-1
  6
CONTINUOUS
 62
     2
  0
POLYLINE
  5
6E5
100
AcDbEntity
  8
LAY-1
  6
CONTINUOUS
 62
     2
100
AcDb2dPolyline
 66
     1
 10
0.0
 20
0.0
 30
0.0
 70
   128
  0
VERTEX
  5
6E6
100
AcDbEntity
  8
LAY-1
  6
CONTINUOUS
 62
     2
100
AcDbVertex
100
AcDb2dVertex
 10
209.085791
 20
424.1
 30
0.0
  0
VERTEX
  5
6E7
100
AcDbEntity
  8
LAY-1
  6
CONTINUOUS
 62
     2
100
AcDbVertex
100
AcDb2dVertex
 10
209.076242
 20
424.100064
 30
0.0
  0
VERTEX
  5
6E8
100
AcDbEntity
  8
LAY-1
  6
CONTINUOUS
 62
     2
100
AcDbVertex
100
AcDb2dVertex
 10
208.810681
 20
424.15376
 30
0.0
  0
VERTEX
  5
6E9
100
AcDbEntity
  8
LAY-1
  6
CONTINUOUS
 62
     2
100
AcDbVertex
100
AcDb2dVertex
 10
208.622423
 20
424.256366
 30
0.0
  0
VERTEX
  5
6EA
100
AcDbEntity
  8
LAY-1
  6
CONTINUOUS
 62
     2
100
AcDbVertex
100
AcDb2dVertex
 10
208.441618
 20
424.414783
 30
0.0
  0
VERTEX
  5
6EB
100
AcDbEntity
  8
LAY-1
  6
CONTINUOUS
 62
     2
100
AcDbVertex
100
AcDb2dVertex
 10
208.284812
 20
424.613914
 30
0.0
  0
VERTEX
  5
6EC
100
AcDbEntity
  8
LAY-1
  6
CONTINUOUS
 62
     2
100
AcDbVertex
100
AcDb2dVertex
 10
208.145817
 20
424.861001
 30
0.0
  0
VERTEX
  5
6ED
100
AcDbEntity
  8
LAY-1
  6
CONTINUOUS
 62
     2
100
AcDbVertex
100
AcDb2dVertex
 10
208.036734
 20
425.134522
 30
0.0
  0
VERTEX
  5
6EE
100
AcDbEntity
  8
LAY-1
  6
CONTINUOUS
 62
     2
100
AcDbVertex
100
AcDb2dVertex
 10
207.953972
 20
425.443472
 30
0.0
  0
VERTEX
  5
6EF
100
AcDbEntity
  8
LAY-1
  6
CONTINUOUS
 62
     2
100
AcDbVertex
100
AcDb2dVertex
 10
207.904584
 20
425.762254
 30
0.0
  0
VERTEX
  5
6F0
100
AcDbEntity
  8
LAY-1
  6
CONTINUOUS
 62
     2
100
AcDbVertex
100
AcDb2dVertex
 10
207.887302
 20
426.1
 30
0.0
  0
SEQEND
  5
6F1
100
AcDbEntity
  8
LAY-1
  6
CONTINUOUS
 62
     2
  0
POLYLINE
  5
6F2
100
AcDbEntity
  8
LAY-1
  6
CONTINUOUS
 62
     2
100
AcDb2dPolyline
 66
     1
 10
0.0
 20
0.0
 30
0.0
 70
   128
  0
VERTEX
  5
6F3
100
AcDbEntity
  8
LAY-1
  6
CONTINUOUS
 62
     2
100
AcDbVertex
100
AcDb2dVertex
 10
200.461854
 20
424.1
 30
0.0
  0
VERTEX
  5
6F4
100
AcDbEntity
  8
LAY-1
  6
CONTINUOUS
 62
     2
100
AcDbVertex
100
AcDb2dVertex
 10
200.44877
 20
424.100064
 30
0.0
  0
VERTEX
  5
6F5
100
AcDbEntity
  8
LAY-1
  6
CONTINUOUS
 62
     2
100
AcDbVertex
100
AcDb2dVertex
 10
200.085579
 20
424.15376
 30
0.0
  0
VERTEX
  5
6F6
100
AcDbEntity
  8
LAY-1
  6
CONTINUOUS
 62
     2
100
AcDbVertex
100
AcDb2dVertex
 10
199.828851
 20
424.256366
 30
0.0
  0
VERTEX
  5
6F7
100
AcDbEntity
  8
LAY-1
  6
CONTINUOUS
 62
     2
100
AcDbVertex
100
AcDb2dVertex
 10
199.582844
 20
424.414783
 30
0.0
  0
VERTEX
  5
6F8
100
AcDbEntity
  8
LAY-1
  6
CONTINUOUS
 62
     2
100
AcDbVertex
100
AcDb2dVertex
 10
199.369926
 20
424.613914
 30
0.0
  0
VERTEX
  5
6F9
100
AcDbEntity
  8
LAY-1
  6
CONTINUOUS
 62
     2
100
AcDbVertex
100
AcDb2dVertex
 10
199.181522
 20
424.861001
 30
0.0
  0
VERTEX
  5
6FA
100
AcDbEntity
  8
LAY-1
  6
CONTINUOUS
 62
     2
100
AcDbVertex
100
AcDb2dVertex
 10
199.033876
 20
425.134522
 30
0.0
  0
VERTEX
  5
6FB
100
AcDbEntity
  8
LAY-1
  6
CONTINUOUS
 62
     2
100
AcDbVertex
100
AcDb2dVertex
 10
198.92198
 20
425.443472
 30
0.0
  0
VERTEX
  5
6FC
100
AcDbEntity
  8
LAY-1
  6
CONTINUOUS
 62
     2
100
AcDbVertex
100
AcDb2dVertex
 10
198.855256
 20
425.762254
 30
0.0
  0
VERTEX
  5
6FD
100
AcDbEntity
  8
LAY-1
  6
CONTINUOUS
 62
     2
100
AcDbVertex
100
AcDb2dVertex
 10
198.831916
 20
426.1
 30
0.0
  0
SEQEND
  5
6FE
100
AcDbEntity
  8
LAY-1
  6
CONTINUOUS
 62
     2
  0
LINE
  5
6FF
100
AcDbEntity
  8
LAY-1
  6
CONTINUOUS
 62
     2
100
AcDbLine
 10
212.512834
 20
426.1
 30
0.0
 11
212.512834
 21
432.1
 31
0.0
  0
LINE
  5
700
100
AcDbEntity
  8
LAY-1
  6
CONTINUOUS
 62
     2
100
AcDbLine
 10
207.887302
 20
426.1
 30
0.0
 11
207.887302
 21
432.1
 31
0.0
  0
LINE
  5
701
100
AcDbEntity
  8
LAY-1
  6
CONTINUOUS
 62
     2
100
AcDbLine
 10
198.831916
 20
426.1
 30
0.0
 11
198.831916
 21
432.1
 31
0.0
  0
LINE
  5
702
100
AcDbEntity
  8
LAY-1
  6
CONTINUOUS
 62
     2
100
AcDbLine
 10
218.915958
 20
436.1
 30
0.0
 11
191.415958
 21
436.1
 31
0.0
  0
LINE
  5
703
100
AcDbEntity
  8
LAY-1
  6
CONTINUOUS
 62
     2
100
AcDbLine
 10
247.415958
 20
432.6
 30
0.0
 11
247.415958
 21
435.1
 31
0.0
  0
LINE
  5
704
100
AcDbEntity
  8
LAY-1
  6
CONTINUOUS
 62
     2
100
AcDbLine
 10
218.915958
 20
435.1
 30
0.0
 11
247.415958
 21
435.1
 31
0.0
  0
LINE
  5
705
100
AcDbEntity
  8
LAY-1
  6
CONTINUOUS
 62
     2
100
AcDbLine
 10
245.915958
 20
435.1
 30
0.0
 11
245.915958
 21
436.1
 31
0.0
  0
LINE
  5
706
100
AcDbEntity
  8
LAY-1
  6
CONTINUOUS
 62
     2
100
AcDbLine
 10
218.915958
 20
432.1
 30
0.0
 11
246.915958
 21
432.1
 31
0.0
  0
ARC
  5
707
100
AcDbEntity
  8
LAY-1
  6
CONTINUOUS
 62
     2
100
AcDbCircle
 10
241.915958
 20
431.1
 30
0.0
 40
1.0
100
AcDbArc
 50
90.0
 51
180.0
  0
LINE
  5
708
100
AcDbEntity
  8
LAY-1
  6
CONTINUOUS
 62
     2
100
AcDbLine
 10
240.915958
 20
426.1
 30
0.0
 11
240.915958
 21
431.1
 31
0.0
  0
ARC
  5
709
100
AcDbEntity
  8
LAY-1
  6
CONTINUOUS
 62
     2
100
AcDbCircle
 10
238.915958
 20
426.1
 30
0.0
 40
2.0
100
AcDbArc
 50
270.0
 51
0.0
  0
LINE
  5
70A
100
AcDbEntity
  8
LAY-1
  6
CONTINUOUS
 62
     2
100
AcDbLine
 10
238.915958
 20
424.1
 30
0.0
 11
218.915958
 21
424.1
 31
0.0
  0
LINE
  5
70B
100
AcDbEntity
  8
LAY-1
  6
CONTINUOUS
 62
     2
100
AcDbLine
 10
247.415958
 20
432.6
 30
0.0
 11
246.915958
 21
432.1
 31
0.0
  0
POLYLINE
  5
70C
100
AcDbEntity
  8
LAY-1
  6
CONTINUOUS
 62
     2
100
AcDb2dPolyline
 66
     1
 10
0.0
 20
0.0
 30
0.0
 70
   128
  0
VERTEX
  5
70D
100
AcDbEntity
  8
LAY-1
  6
CONTINUOUS
 62
     2
100
AcDbVertex
100
AcDb2dVertex
 10
225.014003
 20
424.1
 30
0.0
  0
VERTEX
  5
70E
100
AcDbEntity
  8
LAY-1
  6
CONTINUOUS
 62
     2
100
AcDbVertex
100
AcDb2dVertex
 10
225.016502
 20
424.100064
 30
0.0
  0
VERTEX
  5
70F
100
AcDbEntity
  8
LAY-1
  6
CONTINUOUS
 62
     2
100
AcDbVertex
100
AcDb2dVertex
 10
225.085537
 20
424.15376
 30
0.0
  0
VERTEX
  5
710
100
AcDbEntity
  8
LAY-1
  6
CONTINUOUS
 62
     2
100
AcDbVertex
100
AcDb2dVertex
 10
225.133953
 20
424.256366
 30
0.0
  0
VERTEX
  5
711
100
AcDbEntity
  8
LAY-1
  6
CONTINUOUS
 62
     2
100
AcDbVertex
100
AcDb2dVertex
 10
225.180057
 20
424.414783
 30
0.0
  0
VERTEX
  5
712
100
AcDbEntity
  8
LAY-1
  6
CONTINUOUS
 62
     2
100
AcDbVertex
100
AcDb2dVertex
 10
225.219734
 20
424.613914
 30
0.0
  0
VERTEX
  5
713
100
AcDbEntity
  8
LAY-1
  6
CONTINUOUS
 62
     2
100
AcDbVertex
100
AcDb2dVertex
 10
225.254672
 20
424.861001
 30
0.0
  0
VERTEX
  5
714
100
AcDbEntity
  8
LAY-1
  6
CONTINUOUS
 62
     2
100
AcDbVertex
100
AcDb2dVertex
 10
225.28194
 20
425.134522
 30
0.0
  0
VERTEX
  5
715
100
AcDbEntity
  8
LAY-1
  6
CONTINUOUS
 62
     2
100
AcDbVertex
100
AcDb2dVertex
 10
225.302541
 20
425.443472
 30
0.0
  0
VERTEX
  5
716
100
AcDbEntity
  8
LAY-1
  6
CONTINUOUS
 62
     2
100
AcDbVertex
100
AcDb2dVertex
 10
225.314799
 20
425.762254
 30
0.0
  0
VERTEX
  5
717
100
AcDbEntity
  8
LAY-1
  6
CONTINUOUS
 62
     2
100
AcDbVertex
100
AcDb2dVertex
 10
225.319082
 20
426.1
 30
0.0
  0
SEQEND
  5
718
100
AcDbEntity
  8
LAY-1
  6
CONTINUOUS
 62
     2
  0
POLYLINE
  5
719
100
AcDbEntity
  8
LAY-1
  6
CONTINUOUS
 62
     2
100
AcDb2dPolyline
 66
     1
 10
0.0
 20
0.0
 30
0.0
 70
   128
  0
VERTEX
  5
71A
100
AcDbEntity
  8
LAY-1
  6
CONTINUOUS
 62
     2
100
AcDbVertex
100
AcDb2dVertex
 10
228.746125
 20
424.1
 30
0.0
  0
VERTEX
  5
71B
100
AcDbEntity
  8
LAY-1
  6
CONTINUOUS
 62
     2
100
AcDbVertex
100
AcDb2dVertex
 10
228.755675
 20
424.100064
 30
0.0
  0
VERTEX
  5
71C
100
AcDbEntity
  8
LAY-1
  6
CONTINUOUS
 62
     2
100
AcDbVertex
100
AcDb2dVertex
 10
229.021236
 20
424.15376
 30
0.0
  0
VERTEX
  5
71D
100
AcDbEntity
  8
LAY-1
  6
CONTINUOUS
 62
     2
100
AcDbVertex
100
AcDb2dVertex
 10
229.209493
 20
424.256366
 30
0.0
  0
VERTEX
  5
71E
100
AcDbEntity
  8
LAY-1
  6
CONTINUOUS
 62
     2
100
AcDbVertex
100
AcDb2dVertex
 10
229.390299
 20
424.414783
 30
0.0
  0
VERTEX
  5
71F
100
AcDbEntity
  8
LAY-1
  6
CONTINUOUS
 62
     2
100
AcDbVertex
100
AcDb2dVertex
 10
229.547104
 20
424.613914
 30
0.0
  0
VERTEX
  5
720
100
AcDbEntity
  8
LAY-1
  6
CONTINUOUS
 62
     2
100
AcDbVertex
100
AcDb2dVertex
 10
229.6861
 20
424.861001
 30
0.0
  0
VERTEX
  5
721
100
AcDbEntity
  8
LAY-1
  6
CONTINUOUS
 62
     2
100
AcDbVertex
100
AcDb2dVertex
 10
229.795183
 20
425.134522
 30
0.0
  0
VERTEX
  5
722
100
AcDbEntity
  8
LAY-1
  6
CONTINUOUS
 62
     2
100
AcDbVertex
100
AcDb2dVertex
 10
229.877944
 20
425.443472
 30
0.0
  0
VERTEX
  5
723
100
AcDbEntity
  8
LAY-1
  6
CONTINUOUS
 62
     2
100
AcDbVertex
100
AcDb2dVertex
 10
229.927332
 20
425.762254
 30
0.0
  0
VERTEX
  5
724
100
AcDbEntity
  8
LAY-1
  6
CONTINUOUS
 62
     2
100
AcDbVertex
100
AcDb2dVertex
 10
229.944615
 20
426.1
 30
0.0
  0
SEQEND
  5
725
100
AcDbEntity
  8
LAY-1
  6
CONTINUOUS
 62
     2
  0
POLYLINE
  5
726
100
AcDbEntity
  8
LAY-1
  6
CONTINUOUS
 62
     2
100
AcDb2dPolyline
 66
     1
 10
0.0
 20
0.0
 30
0.0
 70
   128
  0
VERTEX
  5
727
100
AcDbEntity
  8
LAY-1
  6
CONTINUOUS
 62
     2
100
AcDbVertex
100
AcDb2dVertex
 10
237.370063
 20
424.1
 30
0.0
  0
VERTEX
  5
728
100
AcDbEntity
  8
LAY-1
  6
CONTINUOUS
 62
     2
100
AcDbVertex
100
AcDb2dVertex
 10
237.383146
 20
424.100064
 30
0.0
  0
VERTEX
  5
729
100
AcDbEntity
  8
LAY-1
  6
CONTINUOUS
 62
     2
100
AcDbVertex
100
AcDb2dVertex
 10
237.746337
 20
424.15376
 30
0.0
  0
VERTEX
  5
72A
100
AcDbEntity
  8
LAY-1
  6
CONTINUOUS
 62
     2
100
AcDbVertex
100
AcDb2dVertex
 10
238.003066
 20
424.256366
 30
0.0
  0
VERTEX
  5
72B
100
AcDbEntity
  8
LAY-1
  6
CONTINUOUS
 62
     2
100
AcDbVertex
100
AcDb2dVertex
 10
238.249072
 20
424.414783
 30
0.0
  0
VERTEX
  5
72C
100
AcDbEntity
  8
LAY-1
  6
CONTINUOUS
 62
     2
100
AcDbVertex
100
AcDb2dVertex
 10
238.46199
 20
424.613914
 30
0.0
  0
VERTEX
  5
72D
100
AcDbEntity
  8
LAY-1
  6
CONTINUOUS
 62
     2
100
AcDbVertex
100
AcDb2dVertex
 10
238.650394
 20
424.861001
 30
0.0
  0
VERTEX
  5
72E
100
AcDbEntity
  8
LAY-1
  6
CONTINUOUS
 62
     2
100
AcDbVertex
100
AcDb2dVertex
 10
238.79804
 20
425.134522
 30
0.0
  0
VERTEX
  5
72F
100
AcDbEntity
  8
LAY-1
  6
CONTINUOUS
 62
     2
100
AcDbVertex
100
AcDb2dVertex
 10
238.909936
 20
425.443472
 30
0.0
  0
VERTEX
  5
730
100
AcDbEntity
  8
LAY-1
  6
CONTINUOUS
 62
     2
100
AcDbVertex
100
AcDb2dVertex
 10
238.97666
 20
425.762254
 30
0.0
  0
VERTEX
  5
731
100
AcDbEntity
  8
LAY-1
  6
CONTINUOUS
 62
     2
100
AcDbVertex
100
AcDb2dVertex
 10
239.0
 20
426.1
 30
0.0
  0
SEQEND
  5
732
100
AcDbEntity
  8
LAY-1
  6
CONTINUOUS
 62
     2
  0
LINE
  5
733
100
AcDbEntity
  8
LAY-1
  6
CONTINUOUS
 62
     2
100
AcDbLine
 10
225.319082
 20
426.1
 30
0.0
 11
225.319082
 21
432.1
 31
0.0
  0
LINE
  5
734
100
AcDbEntity
  8
LAY-1
  6
CONTINUOUS
 62
     2
100
AcDbLine
 10
229.944615
 20
426.1
 30
0.0
 11
229.944615
 21
432.1
 31
0.0
  0
LINE
  5
735
100
AcDbEntity
  8
LAY-1
  6
CONTINUOUS
 62
     2
100
AcDbLine
 10
239.0
 20
426.1
 30
0.0
 11
239.0
 21
432.1
 31
0.0
  0
LINE
  5
736
100
AcDbEntity
  8
LAY-1
  6
CONTINUOUS
 62
     2
100
AcDbLine
 10
218.915958
 20
436.1
 30
0.0
 11
246.415958
 21
436.1
 31
0.0
  0
ARC
  5
737
100
AcDbEntity
  8
LAY-1
  6
CONTINUOUS
 62
     2
100
AcDbCircle
 10
100.915958
 20
522.1
 30
0.0
 40
2.0
100
AcDbArc
 50
180.0
 51
270.0
  0
LINE
  5
738
100
AcDbEntity
  8
LAY-1
  6
CONTINUOUS
 62
     2
100
AcDbLine
 10
134.34489
 20
520.1
 30
0.0
 11
100.915958
 21
520.1
 31
0.0
  0
LINE
  5
739
100
AcDbEntity
  8
LAY-1
  6
CONTINUOUS
 62
     2
100
AcDbLine
 10
142.415958
 20
528.1
 30
0.0
 11
142.415958
 21
561.6
 31
0.0
  0
LINE
  5
73A
100
AcDbEntity
  8
LAY-1
  6
CONTINUOUS
 62
     2
100
AcDbLine
 10
136.415958
 20
522.1
 30
0.0
 11
136.415958
 21
561.6
 31
0.0
  0
ARC
  5
73B
100
AcDbEntity
  8
LAY-1
  6
CONTINUOUS
 62
     2
100
AcDbCircle
 10
133.965968
 20
576.6
 30
0.0
 40
15.0
100
AcDbArc
 50
194.307129
 51
270.0
  0
LINE
  5
73C
100
AcDbEntity
  8
LAY-1
  6
CONTINUOUS
 62
     2
100
AcDbLine
 10
166.915958
 20
561.6
 30
0.0
 11
133.965968
 21
561.6
 31
0.0
  0
ARC
  5
73D
100
AcDbEntity
  8
LAY-1
  6
CONTINUOUS
 62
     2
100
AcDbCircle
 10
166.915958
 20
540.6
 30
0.0
 40
21.0
100
AcDbArc
 50
1.911874
 51
88.758931
  0
LINE
  5
73E
100
AcDbEntity
  8
LAY-1
  6
CONTINUOUS
 62
     2
100
AcDbLine
 10
187.904268
 20
541.300609
 30
0.0
 11
191.415958
 21
436.1
 31
0.0
  0
LINE
  5
73F
100
AcDbEntity
  8
LAY-1
  6
CONTINUOUS
 62
     2
100
AcDbLine
 10
249.927648
 20
541.300609
 30
0.0
 11
246.415958
 21
436.1
 31
0.0
  0
ARC
  5
740
100
AcDbEntity
  8
LAY-1
  6
CONTINUOUS
 62
     2
100
AcDbCircle
 10
270.915958
 20
540.6
 30
0.0
 40
21.0
100
AcDbArc
 50
91.241069
 51
178.088126
  0
LINE
  5
741
100
AcDbEntity
  8
LAY-1
  6
CONTINUOUS
 62
     2
100
AcDbLine
 10
218.915958
 20
560.986527
 30
0.0
 11
243.711733
 21
560.986527
 31
0.0
  0
LINE
  5
742
100
AcDbEntity
  8
LAY-1
  6
CONTINUOUS
 62
     2
100
AcDbLine
 10
218.915958
 20
560.986527
 30
0.0
 11
194.120184
 21
560.986527
 31
0.0
  0
LINE
  5
743
100
AcDbEntity
  8
LAY-1
  6
CONTINUOUS
 62
     2
100
AcDbLine
 10
270.461118
 20
561.6
 30
0.0
 11
303.865948
 21
561.6
 31
0.0
  0
LINE
  5
744
100
AcDbEntity
  8
LAY-1
  6
CONTINUOUS
 62
     2
100
AcDbLine
 10
273.915958
 20
556.1
 30
0.0
 11
273.791298
 21
559.669799
 31
0.0
  0
ARC
  5
745
100
AcDbEntity
  8
LAY-1
  6
CONTINUOUS
 62
     2
100
AcDbCircle
 10
271.792516
 20
559.6
 30
0.0
 40
2.0
100
AcDbArc
 50
2.0
 51
90.0
  0
LINE
  5
746
100
AcDbEntity
  8
LAY-1
  6
CONTINUOUS
 62
     2
100
AcDbLine
 10
323.915958
 20
556.1
 30
0.0
 11
273.915958
 21
556.1
 31
0.0
  0
ARC
  5
747
100
AcDbEntity
  8
LAY-1
  6
CONTINUOUS
 62
     2
100
AcDbCircle
 10
303.865948
 20
576.6
 30
0.0
 40
15.0
100
AcDbArc
 50
270.0
 51
345.692871
  0
LINE
  5
748
100
AcDbEntity
  8
LAY-1
  6
CONTINUOUS
 62
     2
100
AcDbLine
 10
323.915958
 20
556.1
 30
0.0
 11
324.506119
 21
573.0
 31
0.0
  0
LINE
  5
749
100
AcDbEntity
  8
LAY-1
  6
CONTINUOUS
 62
     2
100
AcDbLine
 10
98.915958
 20
580.3
 30
0.0
 11
98.915958
 21
522.1
 31
0.0
  0
LINE
  5
74A
100
AcDbEntity
  8
LAY-1
  6
CONTINUOUS
 62
     2
100
AcDbLine
 10
702.626884
 20
409.932837
 30
0.0
 11
692.626884
 21
409.932837
 31
0.0
  0
LINE
  5
74B
100
AcDbEntity
  8
LAY-1
  6
CONTINUOUS
 62
     2
100
AcDbLine
 10
692.626884
 20
409.932837
 30
0.0
 11
712.967391
 21
389.968214
 31
0.0
  0
LINE
  5
74C
100
AcDbEntity
  8
LAY-1
  6
CONTINUOUS
 62
     2
100
AcDbLine
 10
712.967391
 20
389.968214
 30
0.0
 11
732.932014
 21
409.932837
 31
0.0
  0
LINE
  5
74D
100
AcDbEntity
  8
LAY-1
  6
CONTINUOUS
 62
     2
100
AcDbLine
 10
732.932014
 20
409.932837
 30
0.0
 11
722.626884
 21
409.932837
 31
0.0
  0
LINE
  5
74E
100
AcDbEntity
  8
LAY-1
  6
CONTINUOUS
 62
     2
100
AcDbLine
 10
722.626884
 20
409.932837
 30
0.0
 11
722.626884
 21
419.59233
 31
0.0
  0
LINE
  5
74F
100
AcDbEntity
  8
LAY-1
  6
CONTINUOUS
 62
     2
100
AcDbLine
 10
722.626884
 20
419.59233
 30
0.0
 11
702.626884
 21
419.59233
 31
0.0
  0
LINE
  5
750
100
AcDbEntity
  8
LAY-1
  6
CONTINUOUS
 62
     2
100
AcDbLine
 10
-264.794968
 20
409.932837
 30
0.0
 11
-254.794968
 21
409.932837
 31
0.0
  0
LINE
  5
751
100
AcDbEntity
  8
LAY-1
  6
CONTINUOUS
 62
     2
100
AcDbLine
 10
-254.794968
 20
409.932837
 30
0.0
 11
-275.135475
 21
389.968214
 31
0.0
  0
LINE
  5
752
100
AcDbEntity
  8
LAY-1
  6
CONTINUOUS
 62
     2
100
AcDbLine
 10
-275.135475
 20
389.968214
 30
0.0
 11
-295.100098
 21
409.932837
 31
0.0
  0
LINE
  5
753
100
AcDbEntity
  8
LAY-1
  6
CONTINUOUS
 62
     2
100
AcDbLine
 10
-295.100098
 20
409.932837
 30
0.0
 11
-284.794968
 21
409.932837
 31
0.0
  0
LINE
  5
754
100
AcDbEntity
  8
LAY-1
  6
CONTINUOUS
 62
     2
100
AcDbLine
 10
-284.794968
 20
409.932837
 30
0.0
 11
-284.794968
 21
419.59233
 31
0.0
  0
LINE
  5
755
100
AcDbEntity
  8
LAY-1
  6
CONTINUOUS
 62
     2
100
AcDbLine
 10
-284.794968
 20
419.59233
 30
0.0
 11
-264.794968
 21
419.59233
 31
0.0
  0
LINE
  5
756
100
AcDbEntity
  8
LAY-1
  6
CONTINUOUS
 62
     2
100
AcDbLine
 10
-264.794968
 20
419.59233
 30
0.0
 11
-264.794968
 21
409.932837
 31
0.0
  0
LINE
  5
757
100
AcDbEntity
  8
LAY-1
  6
CONTINUOUS
 62
     2
100
AcDbLine
 10
702.626884
 20
419.59233
 30
0.0
 11
702.626884
 21
409.932837
 31
0.0
  0
TEXT
  5
758
100
AcDbEntity
  8
LAY-1
  6
CONTINUOUS
 62
     3
100
AcDbText
 10
-437.734042
 20
-84.05
 30
0.0
 40
20.0
  1
Ｒｃ１ １／ ４
 41
0.801224
  7
EXCADSTD
 72
     5
 11
-307.734042
 21
-84.05
 31
0.0
100
AcDbText
  0
POLYLINE
  5
759
100
AcDbEntity
  8
LAY-1
  6
CONTINUOUS
 62
     1
100
AcDb2dPolyline
 66
     1
 10
0.0
 20
0.0
 30
0.0
 70
   128
  0
VERTEX
  5
75A
100
AcDbEntity
  8
LAY-1
  6
CONTINUOUS
 62
     1
100
AcDbVertex
100
AcDb2dVertex
 10
-231.484042
 20
347.1
 30
0.0
  0
VERTEX
  5
75B
100
AcDbEntity
  8
LAY-1
  6
CONTINUOUS
 62
     1
100
AcDbVertex
100
AcDb2dVertex
 10
-209.784042
 20
374.0
 30
0.0
  0
VERTEX
  5
75C
100
AcDbEntity
  8
LAY-1
  6
CONTINUOUS
 62
     1
100
AcDbVertex
100
AcDb2dVertex
 10
80.0
 20
374.0
 30
0.0
  0
SEQEND
  5
75D
100
AcDbEntity
  8
LAY-1
  6
CONTINUOUS
 62
     1
  0
LINE
  5
75E
100
AcDbEntity
  8
LAY-1
  6
CONTINUOUS
 62
     1
100
AcDbLine
 10
-230.487751
 20
348.865932
 30
0.0
 11
-231.484042
 21
347.1
 31
0.0
  0
LINE
  5
75F
100
AcDbEntity
  8
LAY-1
  6
CONTINUOUS
 62
     1
100
AcDbLine
 10
-231.484042
 20
347.1
 30
0.0
 11
-229.96887
 21
348.447355
 31
0.0
  0
POLYLINE
  5
760
100
AcDbEntity
  8
LAY-1
  6
CONTINUOUS
 62
     1
100
AcDb2dPolyline
 66
     1
 10
0.0
 20
0.0
 30
0.0
 70
   128
  0
VERTEX
  5
761
100
AcDbEntity
  8
LAY-1
  6
CONTINUOUS
 62
     1
100
AcDbVertex
100
AcDb2dVertex
 10
-275.084042
 20
-49.9
 30
0.0
  0
VERTEX
  5
762
100
AcDbEntity
  8
LAY-1
  6
CONTINUOUS
 62
     1
100
AcDbVertex
100
AcDb2dVertex
 10
-306.384042
 20
-86.5
 30
0.0
  0
VERTEX
  5
763
100
AcDbEntity
  8
LAY-1
  6
CONTINUOUS
 62
     1
100
AcDbVertex
100
AcDb2dVertex
 10
-450.0
 20
-86.5
 30
0.0
  0
SEQEND
  5
764
100
AcDbEntity
  8
LAY-1
  6
CONTINUOUS
 62
     1
  0
LINE
  5
765
100
AcDbEntity
  8
LAY-1
  6
CONTINUOUS
 62
     1
100
AcDbLine
 10
-276.130584
 20
-51.636623
 30
0.0
 11
-275.084042
 21
-49.9
 31
0.0
  0
LINE
  5
766
100
AcDbEntity
  8
LAY-1
  6
CONTINUOUS
 62
     1
100
AcDbLine
 10
-275.084042
 20
-49.9
 30
0.0
 11
-276.637243
 21
-51.203333
 31
0.0
  0
TEXT
  5
767
100
AcDbEntity
  8
LAY-1
  6
CONTINUOUS
 62
     3
100
AcDbText
 10
-109.65
 20
300.778657
 30
0.0
 40
20.0
  1
Ｒｃ１
 41
0.84
  7
EXCADSTD
 72
     5
 11
-49.65
 21
300.778657
 31
0.0
100
AcDbText
  0
TEXT
  5
768
100
AcDbEntity
  8
LAY-1
  6
CONTINUOUS
 62
     3
100
AcDbText
 10
-209.059875
 20
375.899296
 30
0.0
 40
20.0
  1
ＪＩＳ１０Ｋ　２５Ａフランジ
 41
0.84
  7
EXCADSTD
 72
     5
 11
70.940125
 21
375.899296
 31
0.0
100
AcDbText
  0
POLYLINE
  5
769
100
AcDbEntity
  8
LAY-1
  6
CONTINUOUS
 62
     1
100
AcDb2dPolyline
 66
     1
 10
0.0
 20
0.0
 30
0.0
 70
   128
  0
VERTEX
  5
76A
100
AcDbEntity
  8
LAY-1
  6
CONTINUOUS
 62
     1
100
AcDbVertex
100
AcDb2dVertex
 10
-174.086216
 20
140.928632
 30
0.0
  0
VERTEX
  5
76B
100
AcDbEntity
  8
LAY-1
  6
CONTINUOUS
 62
     1
100
AcDbVertex
100
AcDb2dVertex
 10
-111.0
 20
298.328657
 30
0.0
  0
VERTEX
  5
76C
100
AcDbEntity
  8
LAY-1
  6
CONTINUOUS
 62
     1
100
AcDbVertex
100
AcDb2dVertex
 10
-39.0
 20
298.328657
 30
0.0
  0
SEQEND
  5
76D
100
AcDbEntity
  8
LAY-1
  6
CONTINUOUS
 62
     1
  0
LINE
  5
76E
100
AcDbEntity
  8
LAY-1
  6
CONTINUOUS
 62
     1
100
AcDbLine
 10
-173.651558
 20
142.909083
 30
0.0
 11
-174.086216
 21
140.928632
 31
0.0
  0
LINE
  5
76F
100
AcDbEntity
  8
LAY-1
  6
CONTINUOUS
 62
     1
100
AcDbLine
 10
-174.086216
 20
140.928632
 30
0.0
 11
-173.032745
 21
142.661061
 31
0.0
  0
ARC
  5
770
100
AcDbEntity
  8
LAY-1
  6
CONTINUOUS
 62
     2
100
AcDbCircle
 10
-176.284042
 20
122.3
 30
0.0
 40
24.0
100
AcDbArc
 50
272.0
 51
0.0
  0
ARC
  5
771
100
AcDbEntity
  8
LAY-1
  6
CONTINUOUS
 62
     2
100
AcDbCircle
 10
-176.284042
 20
122.270742
 30
0.0
 40
24.0
100
AcDbArc
 50
0.0
 51
88.0
  0
CIRCLE
  5
772
100
AcDbEntity
  8
LAY-1
  6
CONTINUOUS
 62
     2
100
AcDbCircle
 10
-176.284042
 20
122.285371
 30
0.0
 40
18.75
  0
CIRCLE
  5
773
100
AcDbEntity
  8
LAY-1
  6
CONTINUOUS
 62
     1
100
AcDbCircle
 10
-176.284042
 20
122.3
 30
0.0
 40
16.6245
  0
CIRCLE
  5
774
100
AcDbEntity
  8
LAY-1
  6
CONTINUOUS
 62
     2
100
AcDbCircle
 10
-176.284042
 20
122.270742
 30
0.0
 40
15.097816
  0
LINE
  5
775
100
AcDbEntity
  8
LAY-1
  6
CONTINUOUS
 62
     2
100
AcDbLine
 10
-210.353841
 20
97.095627
 30
0.0
 11
-175.446454
 21
98.31462
 31
0.0
  0
LINE
  5
776
100
AcDbEntity
  8
LAY-1
  6
CONTINUOUS
 62
     2
100
AcDbLine
 10
-210.353841
 20
147.475115
 30
0.0
 11
-175.446454
 21
146.256122
 31
0.0
  0
ARC
  5
777
100
AcDbEntity
  8
LAY-1
  6
CONTINUOUS
 62
     2
100
AcDbCircle
 10
-210.284042
 20
149.473896
 30
0.0
 40
2.0
100
AcDbArc
 50
180.0
 51
268.0
  0
ARC
  5
778
100
AcDbEntity
  8
LAY-1
  6
CONTINUOUS
 62
     2
100
AcDbCircle
 10
-210.284042
 20
95.096846
 30
0.0
 40
2.0
100
AcDbArc
 50
92.0
 51
180.0
  0
LINE
  5
779
100
AcDbEntity
  8
LAY-1
  6
CONTINUOUS
 62
     2
100
AcDbLine
 10
-212.284042
 20
241.8
 30
0.0
 11
-212.284042
 21
149.473896
 31
0.0
  0
LINE
  5
77A
100
AcDbEntity
  8
LAY-1
  6
CONTINUOUS
 62
     2
100
AcDbLine
 10
-212.284042
 20
95.096846
 30
0.0
 11
-212.284042
 21
2.8
 31
0.0
  0
TEXT
  5
77B
100
AcDbEntity
  8
LAY-5
  6
CONTINUOUS
 62
     3
100
AcDbText
 10
524.552
 20
-190.232
 30
0.0
 40
16.0
  1
型式
 41
0.984714
  7
EXCADSTD
 72
     5
 11
558.936325
 21
-190.232
 31
0.0
100
AcDbText
  0
TEXT
  5
77C
100
AcDbEntity
  8
LAY-5
  6
CONTINUOUS
 62
     3
100
AcDbText
 10
524.168
 20
-212.76
 30
0.0
 40
16.0
  1
品名
 41
0.984714
  7
EXCADSTD
 72
     5
 11
558.552325
 21
-212.76
 31
0.0
100
AcDbText
  0
LINE
  5
77D
100
AcDbEntity
  8
LAY-5
  6
CONTINUOUS
 62
     4
100
AcDbLine
 10
517.0
 20
-235.48
 30
0.0
 11
803.72
 21
-235.48
 31
0.0
  0
LINE
  5
77E
100
AcDbEntity
  8
LAY-5
  6
CONTINUOUS
 62
     1
100
AcDbLine
 10
517.0
 20
-215.96
 30
0.0
 11
803.72
 21
-215.96
 31
0.0
  0
TEXT
  5
77F
100
AcDbEntity
  8
LAY-5
  6
CONTINUOUS
 62
     3
100
AcDbText
 10
618.888
 20
-233.368
 30
0.0
 40
16.0
  1
外観図
 41
1.47392
  7
EXCADSTD
 72
     5
 11
703.111999
 21
-233.368
 31
0.0
100
AcDbText
  0
LINE
  5
780
100
AcDbEntity
  8
LAY-5
  6
CONTINUOUS
 62
     4
100
AcDbLine
 10
517.0
 20
-148.76
 30
0.0
 11
803.72
 21
-148.76
 31
0.0
  0
LINE
  5
781
100
AcDbEntity
  8
LAY-5
  6
CONTINUOUS
 62
     1
100
AcDbLine
 10
517.0
 20
-193.56
 30
0.0
 11
803.72
 21
-193.56
 31
0.0
  0
LINE
  5
782
100
AcDbEntity
  8
LAY-5
  6
CONTINUOUS
 62
     1
100
AcDbLine
 10
517.0
 20
-171.16
 30
0.0
 11
803.72
 21
-171.16
 31
0.0
  0
LINE
  5
783
100
AcDbEntity
  8
LAY-5
  6
CONTINUOUS
 62
     1
100
AcDbLine
 10
565.0
 20
-148.76
 30
0.0
 11
565.0
 21
-215.96
 31
0.0
  0
LINE
  5
784
100
AcDbEntity
  8
LAY-5
  6
CONTINUOUS
 62
     4
100
AcDbLine
 10
517.0
 20
-255.0
 30
0.0
 11
803.72
 21
-255.0
 31
0.0
  0
LINE
  5
785
100
AcDbEntity
  8
LAY-5
  6
CONTINUOUS
 62
     4
100
AcDbLine
 10
803.72
 20
-255.0
 30
0.0
 11
803.72
 21
-148.76
 31
0.0
  0
LINE
  5
786
100
AcDbEntity
  8
LAY-5
  6
CONTINUOUS
 62
     4
100
AcDbLine
 10
517.0
 20
-255.0
 30
0.0
 11
517.0
 21
-148.76
 31
0.0
  0
TEXT
  5
787
100
AcDbEntity
  8
LAY-5
  6
CONTINUOUS
 62
     3
100
AcDbText
 10
519.048
 20
-168.344
 30
0.0
 40
16.0
  1
作成日
 41
0.84
  7
EXCADSTD
 72
     5
 11
567.048
 21
-168.344
 31
0.0
100
AcDbText
  0
TEXT
  5
788
100
AcDbEntity
  8
LAY-5
  6
CONTINUOUS
 62
     3
100
AcDbText
 10
572.9232
 20
-212.7472
 30
0.0
 40
16.0
  1
二段式二次用調整器
 41
0.84
  7
EXCADSTD
 72
     5
 11
716.9232
 21
-212.7472
 31
0.0
100
AcDbText
  0
TEXT
  5
789
100
AcDbEntity
  8
LAY-5
  6
CONTINUOUS
 62
     3
100
AcDbText
 10
572.9488
 20
-190.424
 30
0.0
 40
16.0
  1
ＧＬ－５０－２
 41
0.84
  7
EXCADSTD
 72
     5
 11
684.9488
 21
-190.424
 31
0.0
100
AcDbText
  0
INSERT
  5
78A
100
AcDbEntity
  8
LAY-5
  6
CONTINUOUS
 62
     0
100
AcDbBlockReference
  2
SYM-1
 10
662.147904
 20
-245.3485
 30
0.0
 41
2.43
 42
2.43
  0
TEXT
  5
78B
100
AcDbEntity
  8
LAY-5
  6
CONTINUOUS
 62
     3
100
AcDbText
 10
581.384
 20
-168.344
 30
0.0
 40
16.0
  1
２０１５年　４月　２日
 41
0.84
  7
EXCADSTD
 72
     5
 11
757.384
 21
-168.344
 31
0.0
100
AcDbText
  0
ENDSEC
  0
SECTION
  2
OBJECTS
  0
DICTIONARY
  5
19
100
AcDbDictionary
  3
ACAD_GROUP
350
1A
  3
ACAD_MLINESTYLE
350
1B
  0
DICTIONARY
  5
1A
102
{ACAD_REACTORS
330
19
102
}
100
AcDbDictionary
  0
DICTIONARY
  5
1B
102
{ACAD_REACTORS
330
19
102
}
100
AcDbDictionary
  3
STANDARD
350
1C
  0
MLINESTYLE
  5
1C
102
{ACAD_REACTORS
330
1B
102
}
100
AcDbMlineStyle
  2
Standard
 70
     0
  3

 62
     0
 51
90.0
 52
90.0
 71
     2
 49
0.5
 62
   256
  6
ByLayer
 49
-0.5
 62
   256
  6
ByLayer
  0
ENDSEC
  0
EOF
