  0
SECTION
  2
HEADER
  9
$ACADVER
  1
AC1014
  9
$ACADMAINTVER
 70
     0
  9
$DWGCODEPAGE
  3
ANSI_932
  9
$INSBASE
 10
0.0
 20
0.0
 30
0.0
  9
$EXTMIN
 10
-870.0
 20
-561.0
 30
0.0
  9
$EXTMAX
 10
904.4
 20
858.5
 30
0.0
  9
$LIMMIN
 10
0.0
 20
0.0
  9
$LIMMAX
 10
420.0
 20
297.0
  9
$ORTHOMODE
 70
     0
  9
$REGENMODE
 70
     1
  9
$FILLMODE
 70
     1
  9
$QTEXTMODE
 70
     0
  9
$MIRRTEXT
 70
     1
  9
$DRAGMODE
 70
     2
  9
$LTSCALE
 40
1.0
  9
$OSMODE
 70
     0
  9
$ATTMODE
 70
     1
  9
$TEXTSIZE
 40
0.2
  9
$TRACEWID
 40
0.05
  9
$TEXTSTYLE
  7
STANDARD
  9
$CLAYER
  8
LAY-1
  9
$CELTYPE
  6
CONTINUOUS
  9
$CECOLOR
 62
   256
  9
$CELTSCALE
 40
1.0
  9
$DELOBJ
 70
     1
  9
$DISPSILH
 70
     0
  9
$DIMSCALE
 40
1.0
  9
$DIMASZ
 40
0.18
  9
$DIMEXO
 40
0.0625
  9
$DIMDLI
 40
0.38
  9
$DIMRND
 40
0.0
  9
$DIMDLE
 40
0.0
  9
$DIMEXE
 40
0.18
  9
$DIMTP
 40
0.0
  9
$DIMTM
 40
0.0
  9
$DIMTXT
 40
0.18
  9
$DIMCEN
 40
0.09
  9
$DIMTSZ
 40
0.0
  9
$DIMTOL
 70
     0
  9
$DIMLIM
 70
     0
  9
$DIMTIH
 70
     1
  9
$DIMTOH
 70
     1
  9
$DIMSE1
 70
     0
  9
$DIMSE2
 70
     0
  9
$DIMTAD
 70
     0
  9
$DIMZIN
 70
     0
  9
$DIMBLK
  1

  9
$DIMASO
 70
     1
  9
$DIMSHO
 70
     1
  9
$DIMPOST
  1

  9
$DIMAPOST
  1

  9
$DIMALT
 70
     0
  9
$DIMALTD
 70
     2
  9
$DIMALTF
 40
25.4
  9
$DIMLFAC
 40
1.0
  9
$DIMTOFL
 70
     0
  9
$DIMTVP
 40
0.0
  9
$DIMTIX
 70
     0
  9
$DIMSOXD
 70
     0
  9
$DIMSAH
 70
     0
  9
$DIMBLK1
  1

  9
$DIMBLK2
  1

  9
$DIMSTYLE
  2
STANDARD
  9
$DIMCLRD
 70
     0
  9
$DIMCLRE
 70
     0
  9
$DIMCLRT
 70
     0
  9
$DIMTFAC
 40
1.0
  9
$DIMGAP
 40
0.09
  9
$DIMJUST
 70
     0
  9
$DIMSD1
 70
     0
  9
$DIMSD2
 70
     0
  9
$DIMTOLJ
 70
     1
  9
$DIMTZIN
 70
     0
  9
$DIMALTZ
 70
     0
  9
$DIMALTTZ
 70
     0
  9
$DIMFIT
 70
     3
  9
$DIMUPT
 70
     0
  9
$DIMUNIT
 70
     2
  9
$DIMDEC
 70
     4
  9
$DIMTDEC
 70
     4
  9
$DIMALTU
 70
     2
  9
$DIMALTTD
 70
     2
  9
$DIMTXSTY
  7
STANDARD
  9
$DIMAUNIT
 70
     0
  9
$LUNITS
 70
     2
  9
$LUPREC
 70
     4
  9
$SKETCHINC
 40
0.1
  9
$FILLETRAD
 40
0.0
  9
$AUNITS
 70
     0
  9
$AUPREC
 70
     0
  9
$MENU
  1
acad
  9
$ELEVATION
 40
0.0
  9
$PELEVATION
 40
0.0
  9
$THICKNESS
 40
0.0
  9
$LIMCHECK
 70
     0
  9
$BLIPMODE
 70
     1
  9
$CHAMFERA
 40
0.0
  9
$CHAMFERB
 40
0.0
  9
$CHAMFERC
 40
0.0
  9
$CHAMFERD
 40
0.0
  9
$SKPOLY
 70
     0
  9
$TDCREATE
 40
2456723.144865185
  9
$TDUPDATE
 40
2456723.144865185
  9
$TDINDWG
 40
0.0000000000
  9
$TDUSRTIMER
 40
0.0000000000
  9
$USRTIMER
 70
     1
  9
$ANGBASE
 50
0.0
  9
$ANGDIR
 70
     0
  9
$PDMODE
 70
     0
  9
$PDSIZE
 40
0.0
  9
$PLINEWID
 40
0.0
  9
$COORDS
 70
     1
  9
$SPLFRAME
 70
     0
  9
$SPLINETYPE
 70
     6
  9
$SPLINESEGS
 70
     8
  9
$ATTDIA
 70
     0
  9
$ATTREQ
 70
     1
  9
$HANDLING
 70
     1
  9
$HANDSEED
  5
757
  9
$SURFTAB1
 70
     6
  9
$SURFTAB2
 70
     6
  9
$SURFTYPE
 70
     6
  9
$SURFU
 70
     6
  9
$SURFV
 70
     6
  9
$UCSNAME
  2

  9
$UCSORG
 10
0.0
 20
0.0
 30
0.0
  9
$UCSXDIR
 10
1.0
 20
0.0
 30
0.0
  9
$UCSYDIR
 10
0.0
 20
1.0
 30
0.0
  9
$PUCSNAME
  2

  9
$PUCSORG
 10
0.0
 20
0.0
 30
0.0
  9
$PUCSXDIR
 10
1.0
 20
0.0
 30
0.0
  9
$PUCSYDIR
 10
0.0
 20
1.0
 30
0.0
  9
$USERI1
 70
     0
  9
$USERI2
 70
     0
  9
$USERI3
 70
     0
  9
$USERI4
 70
     0
  9
$USERI5
 70
     0
  9
$USERR1
 40
0.0
  9
$USERR2
 40
0.0
  9
$USERR3
 40
0.0
  9
$USERR4
 40
0.0
  9
$USERR5
 40
0.0
  9
$WORLDVIEW
 70
     1
  9
$SHADEDGE
 70
     3
  9
$SHADEDIF
 70
    70
  9
$TILEMODE
 70
     1
  9
$MAXACTVP
 70
    16
  9
$PINSBASE
 10
0.0
 20
0.0
 30
0.0
  9
$PLIMCHECK
 70
     0
  9
$PEXTMIN
 10
1.000000E+20
 20
1.000000E+20
 30
1.000000E+20
  9
$PEXTMAX
 10
-1.000000E+20
 20
-1.000000E+20
 30
-1.000000E+20
  9
$PLIMMIN
 10
0.0
 20
0.0
  9
$PLIMMAX
 10
12.0
 20
9.0
  9
$UNITMODE
 70
     0
  9
$VISRETAIN
 70
     0
  9
$PLINEGEN
 70
     1
  9
$PSLTSCALE
 70
     0
  9
$TREEDEPTH
 70
  3020
  9
$PICKSTYLE
 70
     1
  9
$CMLSTYLE
  2
Standard
  9
$CMLJUST
 70
     0
  9
$CMLSCALE
 40
1.0
  9
$PROXYGRAPHICS
 70
     0
  9
$MEASUREMENT
 70
     0
  0
ENDSEC
  0
SECTION
  2
CLASSES
  0
CLASS
  1
LWPOLYLINE
  2
AcDbPolyline
  3
"AutoCAD"
 90
        0
280
     0
281
     1
  0
CLASS
  1
IMAGE
  2
AcDbRasterImage
  3
ISM
 90
      127
280
     0
281
     1
  0
CLASS
  1
OLE2FRAME
  2
AcDbOle2Frame
  3
""
 90
        0
280
     0
281
     1
  0
CLASS
  1
HATCH
  2
AcDbHatch
  3
"ACAD_SEDONA"
 90
        0
280
     0
281
     1
  0
CLASS
  1
DICTIONARYVAR
  2
AcDbDictionaryVar
  3
"AutoCAD"
 90
        0
280
     0
281
     0
  0
CLASS
  1
RASTERVARIABLES
  2
AcDbRasterVariables
  3
ISM
 90
        0
280
     0
281
     0
  0
CLASS
  1
IMAGEDEF
  2
AcDbRasterImageDef
  3
ISM
 90
        0
280
     0
281
     0
  0
CLASS
  1
IMAGEDEF_REACTOR
  2
AcDbRasterImageDefReactor
  3
ISM
 90
        1
280
     0
281
     0
  0
CLASS
  1
IDBUFFER
  2
AcDbIdBuffer
  3
"Acad"
 90
        0
280
     0
281
     0
  0
CLASS
  1
SPATIAL_FILTER
  2
AcDbSpatialFilter
  3
"Acad"
 90
        0
280
     0
281
     0
  0
CLASS
  1
XRECORD
  2
AcDbXrecord
  3
"<Built In>"
 90
        0
280
     0
281
     0
  0
CLASS
  1
SORTENTSTABLE
  2
AcDbSortentsTable
  3
"AutoCAD"
 90
        0
280
     0
281
     0
  0
CLASS
  1
LAYER_INDEX
  2
AcDbLayerIndex
  3
"Acad"
 90
        0
280
     0
281
     0
  0
CLASS
  1
SPATIAL_INDEX
  2
AcDbSpatialIndex
  3
"Acad"
 90
        0
280
     0
281
     0
  0
CLASS
  1
OBJECT_PTR
  2
CAseDLPNTableRecord
  3
"ASE-LPNTableRecord"
 90
        1
280
     0
281
     0
  0
CLASS
  1
LAYOUT
  2
AcDbLayout
  3
"AutoCAD 2000"
 90
        0
280
     0
281
     0
  0
CLASS
  1
PLOTSETTINGS
  2
AcDbPlotSettings
  3
"AutoCAD 2000"
 90
        0
280
     0
281
     0
  0
CLASS
  1
ACDBDICTIONARYWDFLT
  2
AcDbDictionaryWithDefault
  3
"AutoCAD 2000"
 90
        0
280
     0
281
     0
  0
CLASS
  1
ACDBPLACEHOLDER
  2
AcDbPlaceHolder
  3
"AutoCAD 2000"
 90
        0
280
     0
281
     0
  0
CLASS
  1
VBA_PROJECT
  2
AcDbVbaProject
  3
"acadvba"
 90
        0
280
     0
281
     0
  0
CLASS
  1
WIPEOUT
  2
AcDbWipeout
  3
WipeOut|AutoCAD Express Tool|expresstools@autodesk.com
 90
      127
280
     0
281
     1
  0
CLASS
  1
WIPEOUTVARIABLES
  2
AcDbWipeoutVariables
  3
WipeOut|AutoCAD Express Tool|expresstools@autodesk.com
 90
        0
280
     0
281
     0
  0
CLASS
  1
RTEXT
  2
RText
  3
RText|AutoCAD Express Tool|expresstools@autodesk.com
 90
        0
280
     0
281
     1
  0
CLASS
  1
ARCALIGNEDTEXT
  2
AcDbArcAlignedText
  3
ATEXT|AutoCAD Express Tool|expresstools@autodesk.com
 90
        0
280
     0
281
     1
  0
ENDSEC
  0
SECTION
  2
TABLES
  0
TABLE
  2
VPORT
  5
7
100
AcDbSymbolTable
 70
     1
  0
VPORT
  5
15
100
AcDbSymbolTableRecord
100
AcDbViewportTableRecord
  2
*ACTIVE
 70
     0
 10
0.0
 20
0.0
 11
1.0
 21
1.0
 12
17.2
 22
148.75
 13
0.0
 23
0.0
 14
1.0
 24
1.0
 15
0.0
 25
0.0
 16
0.0
 26
0.0
 36
1.0
 17
0.0
 27
0.0
 37
0.0
 40
1419.5
 41
1.722533
 42
50.0
 43
0.0
 44
0.0
 50
0.0
 51
0.0
 71
     0
 72
  1000
 73
     1
 74
     1
 75
     0
 76
     0
 77
     0
 78
     0
  0
ENDTAB
  0
TABLE
  2
LTYPE
  5
4
100
AcDbSymbolTable
 70
     9
  0
LTYPE
  5
11
100
AcDbSymbolTableRecord
100
AcDbLinetypeTableRecord
  2
BYBLOCK
 70
    64
  3

 72
    65
 73
     0
 40
0.0
  0
LTYPE
  5
12
100
AcDbSymbolTableRecord
100
AcDbLinetypeTableRecord
  2
BYLAYER
 70
    64
  3

 72
    65
 73
     0
 40
0.0
  0
LTYPE
  5
13
100
AcDbSymbolTableRecord
100
AcDbLinetypeTableRecord
  2
CONTINUOUS
 70
    64
  3
実線
 72
    65
 73
     0
 40
0.0
  0
LTYPE
  5
1D
100
AcDbSymbolTableRecord
100
AcDbLinetypeTableRecord
  2
EXLTYPE1
 70
    64
  3
破線
 72
    65
 73
     2
 40
4.0
 49
3.0
 74
     0
 49
-1.0
 74
     0
  0
LTYPE
  5
1E
100
AcDbSymbolTableRecord
100
AcDbLinetypeTableRecord
  2
EXLTYPE2
 70
    64
  3
点線
 72
    65
 73
     2
 40
2.0
 49
1.0
 74
     0
 49
-1.0
 74
     0
  0
LTYPE
  5
1F
100
AcDbSymbolTableRecord
100
AcDbLinetypeTableRecord
  2
EXLTYPE3
 70
    64
  3
一点鎖線
 72
    65
 73
     4
 40
33.0
 49
30.0
 74
     0
 49
-1.0
 74
     0
 49
1.0
 74
     0
 49
-1.0
 74
     0
  0
LTYPE
  5
20
100
AcDbSymbolTableRecord
100
AcDbLinetypeTableRecord
  2
EXLTYPE4
 70
    64
  3
二点鎖線
 72
    65
 73
     6
 40
20.0
 49
10.0
 74
     0
 49
-2.0
 74
     0
 49
2.0
 74
     0
 49
-2.0
 74
     0
 49
2.0
 74
     0
 49
-2.0
 74
     0
  0
LTYPE
  5
21
100
AcDbSymbolTableRecord
100
AcDbLinetypeTableRecord
  2
EXLTYPE5
 70
    64
  3
三点鎖線
 72
    65
 73
     8
 40
37.0
 49
30.0
 74
     0
 49
-1.0
 74
     0
 49
1.0
 74
     0
 49
-1.0
 74
     0
 49
1.0
 74
     0
 49
-1.0
 74
     0
 49
1.0
 74
     0
 49
-1.0
 74
     0
  0
LTYPE
  5
22
100
AcDbSymbolTableRecord
100
AcDbLinetypeTableRecord
  2
EXLTYPE6
 70
    64
  3
四点鎖線
 72
    65
 73
    10
 40
39.0
 49
30.0
 74
     0
 49
-1.0
 74
     0
 49
1.0
 74
     0
 49
-1.0
 74
     0
 49
1.0
 74
     0
 49
-1.0
 74
     0
 49
1.0
 74
     0
 49
-1.0
 74
     0
 49
1.0
 74
     0
 49
-1.0
 74
     0
  0
ENDTAB
  0
TABLE
  2
LAYER
  5
2
100
AcDbSymbolTable
 70
     4
  0
LAYER
  5
14
100
AcDbSymbolTableRecord
100
AcDbLayerTableRecord
  2
0
 70
     0
 62
     7
  6
CONTINUOUS
  0
LAYER
  5
25
100
AcDbSymbolTableRecord
100
AcDbLayerTableRecord
  2
LAY-1
 70
    64
 62
     7
  6
CONTINUOUS
  0
LAYER
  5
26
100
AcDbSymbolTableRecord
100
AcDbLayerTableRecord
  2
LAY-3
 70
    64
 62
     1
  6
CONTINUOUS
  0
LAYER
  5
27
100
AcDbSymbolTableRecord
100
AcDbLayerTableRecord
  2
LAY-5
 70
    64
 62
     7
  6
CONTINUOUS
  0
ENDTAB
  0
TABLE
  2
STYLE
  5
3
100
AcDbSymbolTable
 70
     3
  0
STYLE
  5
17
100
AcDbSymbolTableRecord
100
AcDbTextStyleTableRecord
  2
STANDARD
 70
     0
 40
0.0
 41
1.0
 50
0.0
 71
     0
 42
0.0
  3
monotxt
  4
extfont
  0
STYLE
  5
23
100
AcDbSymbolTableRecord
100
AcDbTextStyleTableRecord
  2
EXCADSTD
 70
    64
 40
0.0
 41
1.0
 50
0.0
 71
     0
 42
0.2
  3
monotxt
  4
extfont
  0
STYLE
  5
24
100
AcDbSymbolTableRecord
100
AcDbTextStyleTableRecord
  2
EXCADVERT
 70
    68
 40
0.0
 41
1.0
 50
0.0
 71
     0
 42
0.286885
  3
monotxt
  4
extfont
  0
ENDTAB
  0
TABLE
  2
VIEW
  5
5
100
AcDbSymbolTable
 70
     0
  0
ENDTAB
  0
TABLE
  2
UCS
  5
6
100
AcDbSymbolTable
 70
     0
  0
ENDTAB
  0
TABLE
  2
APPID
  5
8
100
AcDbSymbolTable
 70
     1
  0
APPID
  5
16
100
AcDbSymbolTableRecord
100
AcDbRegAppTableRecord
  2
ACAD
 70
     0
  0
ENDTAB
  0
TABLE
  2
DIMSTYLE
  5
9
100
AcDbSymbolTable
 70
     1
  0
DIMSTYLE
105
18
100
AcDbSymbolTableRecord
100
AcDbDimStyleTableRecord
  2
STANDARD
 70
     0
  3

  4

  5

  6

  7

 40
1.0
 41
0.18
 42
0.0625
 43
0.38
 44
0.18
 45
0.0
 46
0.0
 47
0.0
 48
0.0
 71
     0
 72
     0
 73
     1
 74
     1
 75
     0
 76
     0
 77
     0
 78
     0
140
0.18
141
0.09
142
0.0
143
25.4
144
1.0
145
0.0
146
1.0
147
0.09
170
     0
171
     2
172
     1
173
     0
174
     0
175
     0
176
     0
177
     0
178
     0
270
     2
271
     4
272
     4
273
     2
274
     2
275
     0
280
     0
281
     0
282
     0
283
     1
284
     0
285
     0
286
     0
287
     3
288
     0
340
17
  0
ENDTAB
  0
TABLE
  2
BLOCK_RECORD
  5
1
100
AcDbSymbolTable
 70
    15
  0
BLOCK_RECORD
  5
A
100
AcDbSymbolTableRecord
100
AcDbBlockTableRecord
  2
*MODEL_SPACE
  0
BLOCK_RECORD
  5
B
100
AcDbSymbolTableRecord
100
AcDbBlockTableRecord
  2
*PAPER_SPACE
  0
BLOCK_RECORD
  5
28
100
AcDbSymbolTableRecord
100
AcDbBlockTableRecord
  2
_EX_NORM
  0
BLOCK_RECORD
  5
29
100
AcDbSymbolTableRecord
100
AcDbBlockTableRecord
  2
_EX_BNORM
  0
BLOCK_RECORD
  5
2A
100
AcDbSymbolTableRecord
100
AcDbBlockTableRecord
  2
_EX_BCIR
  0
BLOCK_RECORD
  5
2B
100
AcDbSymbolTableRecord
100
AcDbBlockTableRecord
  2
_EX_RCIVIL
  0
BLOCK_RECORD
  5
2C
100
AcDbSymbolTableRecord
100
AcDbBlockTableRecord
  2
_EX_SLANT
  0
BLOCK_RECORD
  5
2D
100
AcDbSymbolTableRecord
100
AcDbBlockTableRecord
  2
_EX_NONE
  0
BLOCK_RECORD
  5
2E
100
AcDbSymbolTableRecord
100
AcDbBlockTableRecord
  2
_EX_CIVIL
  0
BLOCK_RECORD
  5
2F
100
AcDbSymbolTableRecord
100
AcDbBlockTableRecord
  2
_EX_WCIR
  0
BLOCK_RECORD
  5
30
100
AcDbSymbolTableRecord
100
AcDbBlockTableRecord
  2
_EX_WCIR2
  0
BLOCK_RECORD
  5
31
100
AcDbSymbolTableRecord
100
AcDbBlockTableRecord
  2
_EX_WNORM
  0
BLOCK_RECORD
  5
32
100
AcDbSymbolTableRecord
100
AcDbBlockTableRecord
  2
_EX_NNORM
  0
BLOCK_RECORD
  5
33
100
AcDbSymbolTableRecord
100
AcDbBlockTableRecord
  2
_EX_BBOX
  0
BLOCK_RECORD
  5
34
100
AcDbSymbolTableRecord
100
AcDbBlockTableRecord
  2
_EX_WBOX
  0
BLOCK_RECORD
  5
35
100
AcDbSymbolTableRecord
100
AcDbBlockTableRecord
  2
_EX_INTEGRAL
  0
BLOCK_RECORD
  5
36
100
AcDbSymbolTableRecord
100
AcDbBlockTableRecord
  2
SYM-1
  0
ENDTAB
  0
ENDSEC
  0
SECTION
  2
BLOCKS
  0
BLOCK
  5
D
100
AcDbEntity
  8
0
100
AcDbBlockBegin
  2
*MODEL_SPACE
 70
     0
 10
0.0
 20
0.0
 30
0.0
  3
*MODEL_SPACE
  1

  0
ENDBLK
  5
E
100
AcDbEntity
  8
0
100
AcDbBlockEnd
  0
BLOCK
  5
F
100
AcDbEntity
 67
     1
  8
0
100
AcDbBlockBegin
  2
*PAPER_SPACE
 70
     0
 10
0.0
 20
0.0
 30
0.0
  3
*PAPER_SPACE
  1

  0
ENDBLK
  5
10
100
AcDbEntity
 67
     1
  8
0
100
AcDbBlockEnd
  0
BLOCK
  5
37
100
AcDbEntity
  8
0
100
AcDbBlockBegin
  2
_EX_NORM
 70
     0
 10
0.0
 20
0.0
 30
0.0
  3
_EX_NORM
  1

  0
LINE
  5
38
100
AcDbEntity
  8
0
  6
CONTINUOUS
 62
     0
100
AcDbLine
 10
0.0
 20
0.0
 30
0.0
 11
-1.0
 21
0.0
 31
0.0
  0
LINE
  5
39
100
AcDbEntity
  8
0
  6
CONTINUOUS
 62
     0
100
AcDbLine
 10
0.0
 20
0.0
 30
0.0
 11
-1.0
 21
0.166667
 31
0.0
  0
LINE
  5
3A
100
AcDbEntity
  8
0
  6
CONTINUOUS
 62
     0
100
AcDbLine
 10
0.0
 20
0.0
 30
0.0
 11
-1.0
 21
-0.166667
 31
0.0
  0
ENDBLK
  5
3B
100
AcDbEntity
  8
0
100
AcDbBlockEnd
  0
BLOCK
  5
3C
100
AcDbEntity
  8
0
100
AcDbBlockBegin
  2
_EX_BNORM
 70
     0
 10
0.0
 20
0.0
 30
0.0
  3
_EX_BNORM
  1

  0
LINE
  5
3D
100
AcDbEntity
  8
0
  6
CONTINUOUS
 62
     0
100
AcDbLine
 10
0.0
 20
0.0
 30
0.0
 11
-1.0
 21
0.0
 31
0.0
  0
LINE
  5
3E
100
AcDbEntity
  8
0
  6
CONTINUOUS
 62
     0
100
AcDbLine
 10
0.0
 20
0.0
 30
0.0
 11
-1.0
 21
0.166667
 31
0.0
  0
LINE
  5
3F
100
AcDbEntity
  8
0
  6
CONTINUOUS
 62
     0
100
AcDbLine
 10
0.0
 20
0.0
 30
0.0
 11
-1.0
 21
-0.166667
 31
0.0
  0
LINE
  5
40
100
AcDbEntity
  8
0
  6
CONTINUOUS
 62
     0
100
AcDbLine
 10
0.0
 20
0.0
 30
0.0
 11
-1.0
 21
0.083333
 31
0.0
  0
LINE
  5
41
100
AcDbEntity
  8
0
  6
CONTINUOUS
 62
     0
100
AcDbLine
 10
0.0
 20
0.0
 30
0.0
 11
-1.0
 21
-0.083333
 31
0.0
  0
LINE
  5
42
100
AcDbEntity
  8
0
  6
CONTINUOUS
 62
     0
100
AcDbLine
 10
-1.0
 20
0.166667
 30
0.0
 11
-1.0
 21
-0.166667
 31
0.0
  0
ENDBLK
  5
43
100
AcDbEntity
  8
0
100
AcDbBlockEnd
  0
BLOCK
  5
44
100
AcDbEntity
  8
0
100
AcDbBlockBegin
  2
_EX_BCIR
 70
     0
 10
0.0
 20
0.0
 30
0.0
  3
_EX_BCIR
  1

  0
LINE
  5
45
100
AcDbEntity
  8
0
  6
CONTINUOUS
 62
     0
100
AcDbLine
 10
0.0
 20
0.0
 30
0.0
 11
-1.0
 21
0.0
 31
0.0
  0
CIRCLE
  5
46
100
AcDbEntity
  8
0
  6
CONTINUOUS
 62
     0
100
AcDbCircle
 10
0.0
 20
0.0
 30
0.0
 40
0.5
  0
CIRCLE
  5
47
100
AcDbEntity
  8
0
  6
CONTINUOUS
 62
     0
100
AcDbCircle
 10
0.0
 20
0.0
 30
0.0
 40
0.25
  0
ENDBLK
  5
48
100
AcDbEntity
  8
0
100
AcDbBlockEnd
  0
BLOCK
  5
49
100
AcDbEntity
  8
0
100
AcDbBlockBegin
  2
_EX_RCIVIL
 70
     0
 10
0.0
 20
0.0
 30
0.0
  3
_EX_RCIVIL
  1

  0
LINE
  5
4A
100
AcDbEntity
  8
0
  6
CONTINUOUS
 62
     0
100
AcDbLine
 10
0.0
 20
0.0
 30
0.0
 11
-1.0
 21
0.0
 31
0.0
  0
LINE
  5
4B
100
AcDbEntity
  8
0
  6
CONTINUOUS
 62
     0
100
AcDbLine
 10
-1.0
 20
-0.25
 30
0.0
 11
0.0
 21
-0.25
 31
0.0
  0
LINE
  5
4C
100
AcDbEntity
  8
0
  6
CONTINUOUS
 62
     0
100
AcDbLine
 10
-1.0
 20
-0.125
 30
0.0
 11
0.0
 21
-0.125
 31
0.0
  0
ENDBLK
  5
4D
100
AcDbEntity
  8
0
100
AcDbBlockEnd
  0
BLOCK
  5
4E
100
AcDbEntity
  8
0
100
AcDbBlockBegin
  2
_EX_SLANT
 70
     0
 10
0.0
 20
0.0
 30
0.0
  3
_EX_SLANT
  1

  0
LINE
  5
4F
100
AcDbEntity
  8
0
  6
CONTINUOUS
 62
     0
100
AcDbLine
 10
0.0
 20
0.0
 30
0.0
 11
-1.0
 21
0.0
 31
0.0
  0
LINE
  5
50
100
AcDbEntity
  8
0
  6
CONTINUOUS
 62
     0
100
AcDbLine
 10
0.707107
 20
0.707107
 30
0.0
 11
-0.707107
 21
-0.707107
 31
0.0
  0
ENDBLK
  5
51
100
AcDbEntity
  8
0
100
AcDbBlockEnd
  0
BLOCK
  5
52
100
AcDbEntity
  8
0
100
AcDbBlockBegin
  2
_EX_NONE
 70
     0
 10
0.0
 20
0.0
 30
0.0
  3
_EX_NONE
  1

  0
LINE
  5
53
100
AcDbEntity
  8
0
  6
CONTINUOUS
 62
     0
100
AcDbLine
 10
0.0
 20
0.0
 30
0.0
 11
-1.0
 21
0.0
 31
0.0
  0
ENDBLK
  5
54
100
AcDbEntity
  8
0
100
AcDbBlockEnd
  0
BLOCK
  5
55
100
AcDbEntity
  8
0
100
AcDbBlockBegin
  2
_EX_CIVIL
 70
     0
 10
0.0
 20
0.0
 30
0.0
  3
_EX_CIVIL
  1

  0
LINE
  5
56
100
AcDbEntity
  8
0
  6
CONTINUOUS
 62
     0
100
AcDbLine
 10
0.0
 20
0.0
 30
0.0
 11
-1.0
 21
0.0
 31
0.0
  0
LINE
  5
57
100
AcDbEntity
  8
0
  6
CONTINUOUS
 62
     0
100
AcDbLine
 10
-1.0
 20
0.25
 30
0.0
 11
0.0
 21
0.25
 31
0.0
  0
LINE
  5
58
100
AcDbEntity
  8
0
  6
CONTINUOUS
 62
     0
100
AcDbLine
 10
-1.0
 20
0.125
 30
0.0
 11
0.0
 21
0.125
 31
0.0
  0
ENDBLK
  5
59
100
AcDbEntity
  8
0
100
AcDbBlockEnd
  0
BLOCK
  5
5A
100
AcDbEntity
  8
0
100
AcDbBlockBegin
  2
_EX_WCIR
 70
     0
 10
0.0
 20
0.0
 30
0.0
  3
_EX_WCIR
  1

  0
LINE
  5
5B
100
AcDbEntity
  8
0
  6
CONTINUOUS
 62
     0
100
AcDbLine
 10
0.0
 20
0.0
 30
0.0
 11
-1.0
 21
0.0
 31
0.0
  0
CIRCLE
  5
5C
100
AcDbEntity
  8
0
  6
CONTINUOUS
 62
     0
100
AcDbCircle
 10
0.0
 20
0.0
 30
0.0
 40
0.5
  0
ENDBLK
  5
5D
100
AcDbEntity
  8
0
100
AcDbBlockEnd
  0
BLOCK
  5
5E
100
AcDbEntity
  8
0
100
AcDbBlockBegin
  2
_EX_WCIR2
 70
     0
 10
0.0
 20
0.0
 30
0.0
  3
_EX_WCIR2
  1

  0
LINE
  5
5F
100
AcDbEntity
  8
0
  6
CONTINUOUS
 62
     0
100
AcDbLine
 10
-0.5
 20
0.0
 30
0.0
 11
-1.0
 21
0.0
 31
0.0
  0
CIRCLE
  5
60
100
AcDbEntity
  8
0
  6
CONTINUOUS
 62
     0
100
AcDbCircle
 10
0.0
 20
0.0
 30
0.0
 40
0.5
  0
ENDBLK
  5
61
100
AcDbEntity
  8
0
100
AcDbBlockEnd
  0
BLOCK
  5
62
100
AcDbEntity
  8
0
100
AcDbBlockBegin
  2
_EX_WNORM
 70
     0
 10
0.0
 20
0.0
 30
0.0
  3
_EX_WNORM
  1

  0
LINE
  5
63
100
AcDbEntity
  8
0
  6
CONTINUOUS
 62
     0
100
AcDbLine
 10
-1.0
 20
0.0
 30
0.0
 11
-1.0
 21
0.0
 31
0.0
  0
LINE
  5
64
100
AcDbEntity
  8
0
  6
CONTINUOUS
 62
     0
100
AcDbLine
 10
0.0
 20
0.0
 30
0.0
 11
-1.0
 21
0.166667
 31
0.0
  0
LINE
  5
65
100
AcDbEntity
  8
0
  6
CONTINUOUS
 62
     0
100
AcDbLine
 10
0.0
 20
0.0
 30
0.0
 11
-1.0
 21
-0.166667
 31
0.0
  0
LINE
  5
66
100
AcDbEntity
  8
0
  6
CONTINUOUS
 62
     0
100
AcDbLine
 10
-1.0
 20
0.166667
 30
0.0
 11
-1.0
 21
-0.166667
 31
0.0
  0
ENDBLK
  5
67
100
AcDbEntity
  8
0
100
AcDbBlockEnd
  0
BLOCK
  5
68
100
AcDbEntity
  8
0
100
AcDbBlockBegin
  2
_EX_NNORM
 70
     0
 10
0.0
 20
0.0
 30
0.0
  3
_EX_NNORM
  1

  0
LINE
  5
69
100
AcDbEntity
  8
0
  6
CONTINUOUS
 62
     0
100
AcDbLine
 10
0.0
 20
0.0
 30
0.0
 11
-1.0
 21
0.0
 31
0.0
  0
LINE
  5
6A
100
AcDbEntity
  8
0
  6
CONTINUOUS
 62
     0
100
AcDbLine
 10
0.0
 20
0.0
 30
0.0
 11
-1.0
 21
0.166667
 31
0.0
  0
LINE
  5
6B
100
AcDbEntity
  8
0
  6
CONTINUOUS
 62
     0
100
AcDbLine
 10
0.0
 20
0.0
 30
0.0
 11
-1.0
 21
-0.166667
 31
0.0
  0
LINE
  5
6C
100
AcDbEntity
  8
0
  6
CONTINUOUS
 62
     0
100
AcDbLine
 10
-1.0
 20
0.166667
 30
0.0
 11
-1.0
 21
-0.166667
 31
0.0
  0
ENDBLK
  5
6D
100
AcDbEntity
  8
0
100
AcDbBlockEnd
  0
BLOCK
  5
6E
100
AcDbEntity
  8
0
100
AcDbBlockBegin
  2
_EX_BBOX
 70
     0
 10
0.0
 20
0.0
 30
0.0
  3
_EX_BBOX
  1

  0
LINE
  5
6F
100
AcDbEntity
  8
0
  6
CONTINUOUS
 62
     0
100
AcDbLine
 10
0.0
 20
0.0
 30
0.0
 11
-1.0
 21
0.0
 31
0.0
  0
LINE
  5
70
100
AcDbEntity
  8
0
  6
CONTINUOUS
 62
     0
100
AcDbLine
 10
-0.5
 20
0.5
 30
0.0
 11
0.5
 21
0.5
 31
0.0
  0
LINE
  5
71
100
AcDbEntity
  8
0
  6
CONTINUOUS
 62
     0
100
AcDbLine
 10
0.5
 20
0.5
 30
0.0
 11
0.5
 21
-0.5
 31
0.0
  0
LINE
  5
72
100
AcDbEntity
  8
0
  6
CONTINUOUS
 62
     0
100
AcDbLine
 10
0.5
 20
-0.5
 30
0.0
 11
-0.5
 21
-0.5
 31
0.0
  0
LINE
  5
73
100
AcDbEntity
  8
0
  6
CONTINUOUS
 62
     0
100
AcDbLine
 10
-0.5
 20
-0.5
 30
0.0
 11
-0.5
 21
0.5
 31
0.0
  0
LINE
  5
74
100
AcDbEntity
  8
0
  6
CONTINUOUS
 62
     0
100
AcDbLine
 10
-0.25
 20
0.25
 30
0.0
 11
0.25
 21
0.25
 31
0.0
  0
LINE
  5
75
100
AcDbEntity
  8
0
  6
CONTINUOUS
 62
     0
100
AcDbLine
 10
0.25
 20
0.25
 30
0.0
 11
0.25
 21
-0.25
 31
0.0
  0
LINE
  5
76
100
AcDbEntity
  8
0
  6
CONTINUOUS
 62
     0
100
AcDbLine
 10
0.25
 20
-0.25
 30
0.0
 11
-0.25
 21
-0.25
 31
0.0
  0
LINE
  5
77
100
AcDbEntity
  8
0
  6
CONTINUOUS
 62
     0
100
AcDbLine
 10
-0.25
 20
-0.25
 30
0.0
 11
-0.25
 21
0.25
 31
0.0
  0
ENDBLK
  5
78
100
AcDbEntity
  8
0
100
AcDbBlockEnd
  0
BLOCK
  5
79
100
AcDbEntity
  8
0
100
AcDbBlockBegin
  2
_EX_WBOX
 70
     0
 10
0.0
 20
0.0
 30
0.0
  3
_EX_WBOX
  1

  0
LINE
  5
7A
100
AcDbEntity
  8
0
  6
CONTINUOUS
 62
     0
100
AcDbLine
 10
-0.5
 20
0.0
 30
0.0
 11
-1.0
 21
0.0
 31
0.0
  0
LINE
  5
7B
100
AcDbEntity
  8
0
  6
CONTINUOUS
 62
     0
100
AcDbLine
 10
-0.5
 20
0.5
 30
0.0
 11
0.5
 21
0.5
 31
0.0
  0
LINE
  5
7C
100
AcDbEntity
  8
0
  6
CONTINUOUS
 62
     0
100
AcDbLine
 10
0.5
 20
0.5
 30
0.0
 11
0.5
 21
-0.5
 31
0.0
  0
LINE
  5
7D
100
AcDbEntity
  8
0
  6
CONTINUOUS
 62
     0
100
AcDbLine
 10
0.5
 20
-0.5
 30
0.0
 11
-0.5
 21
-0.5
 31
0.0
  0
LINE
  5
7E
100
AcDbEntity
  8
0
  6
CONTINUOUS
 62
     0
100
AcDbLine
 10
-0.5
 20
-0.5
 30
0.0
 11
-0.5
 21
0.5
 31
0.0
  0
ENDBLK
  5
7F
100
AcDbEntity
  8
0
100
AcDbBlockEnd
  0
BLOCK
  5
80
100
AcDbEntity
  8
0
100
AcDbBlockBegin
  2
_EX_INTEGRAL
 70
     0
 10
0.0
 20
0.0
 30
0.0
  3
_EX_INTEGRAL
  1

  0
LINE
  5
81
100
AcDbEntity
  8
0
  6
CONTINUOUS
 62
     0
100
AcDbLine
 10
0.0
 20
0.0
 30
0.0
 11
-1.0
 21
0.0
 31
0.0
  0
ARC
  5
82
100
AcDbEntity
  8
0
  6
CONTINUOUS
 62
     0
100
AcDbCircle
 10
0.542115
 20
0.164992
 30
0.0
 40
0.56667
100
AcDbArc
 50
73.07249
 51
196.927513
  0
ARC
  5
83
100
AcDbEntity
  8
0
  6
CONTINUOUS
 62
     0
100
AcDbCircle
 10
-0.542115
 20
-0.164992
 30
0.0
 40
0.56667
100
AcDbArc
 50
253.072487
 51
16.927513
  0
ENDBLK
  5
84
100
AcDbEntity
  8
0
100
AcDbBlockEnd
  0
BLOCK
  5
85
100
AcDbEntity
  8
0
100
AcDbBlockBegin
  2
SYM-1
 70
     0
 10
0.0
 20
0.0
 30
0.0
  3
SYM-1
  1

  0
HATCH
  5
86
100
AcDbEntity
  8
0
  6
CONTINUOUS
 62
     3
100
AcDbHatch
 10
0.0
 20
0.0
 30
0.0
210
0.0
220
0.0
230
1.0
  2
SOLID
 70
     1
 71
     1
 91
        1
 92
        1
 93
       16
 72
     1
 10
24.351152239011505
 20
-2.0357142857144446
 11
25.613295096154353
 21
-2.0357142857144446
 72
     1
 10
25.613295096154353
 20
-2.0357142857144446
 11
25.613295096154353
 21
-2.8500000000001648
 72
     1
 10
25.613295096154353
 20
-2.8500000000001648
 11
22.23400938186861
 21
-2.8500000000001648
 72
     1
 10
22.23400938186861
 20
-2.8500000000001648
 11
22.23400938186861
 21
-2.0357142857144446
 72
     1
 10
22.23400938186861
 20
-2.0357142857144446
 11
23.536866524725802
 21
-2.0357142857144446
 72
     1
 10
23.536866524725802
 20
-2.0357142857144446
 11
23.536866524725802
 21
0.3257142857141346
 72
     1
 10
23.536866524725802
 20
0.3257142857141346
 11
22.519009381868621
 21
0.3257142857141346
 72
     1
 10
22.519009381868621
 20
0.3257142857141346
 11
22.519009381868621
 21
1.1399999999998514
 72
     1
 10
22.519009381868621
 20
1.1399999999998514
 11
23.536866524725802
 21
1.1399999999998514
 72
     1
 10
23.536866524725802
 20
1.1399999999998514
 11
23.536866524725802
 21
2.8499999999998487
 72
     1
 10
23.536866524725802
 20
2.8499999999998487
 11
24.351152239011505
 21
2.8499999999998487
 72
     1
 10
24.351152239011505
 20
2.8499999999998487
 11
24.351152239011505
 21
1.1399999999998514
 72
     1
 10
24.351152239011505
 20
1.1399999999998514
 11
25.531866524725821
 21
1.1399999999998514
 72
     1
 10
25.531866524725821
 20
1.1399999999998514
 11
25.531866524725821
 21
0.3257142857141346
 72
     1
 10
25.531866524725821
 20
0.3257142857141346
 11
24.351152239011505
 21
0.3257142857141346
 72
     1
 10
24.351152239011505
 20
0.3257142857141346
 11
24.351152239011505
 21
-2.0357142857144446
 97
        0
 75
     0
 76
     1
 98
        1
 10
0.0
 20
0.0
  0
HATCH
  5
87
100
AcDbEntity
  8
0
  6
CONTINUOUS
 62
     3
100
AcDbHatch
 10
0.0
 20
0.0
 30
0.0
210
0.0
220
0.0
230
1.0
  2
SOLID
 70
     1
 71
     1
 91
        1
 92
        1
 93
       17
 72
     2
 10
15.796286246552746
 20
4.4303755974531924
 40
7.328571428571454
 50
44.165469
 51
51.472792
 73
     0
 72
     1
 10
20.361152239011439
 20
-1.3028571428572775
 11
19.948878200429583
 21
-0.5887775613918898
 72
     2
 10
15.796286246552746
 20
4.4303755974531924
 40
6.5142857142857364
 50
309.602625
 51
331.307968
 73
     1
 72
     1
 10
21.510701937024301
 20
1.3028571428570004
 11
20.157580810440017
 21
1.3028571428570004
 72
     1
 10
20.157580810440017
 20
1.3028571428570004
 11
20.157580810440017
 21
2.0357142857141319
 72
     1
 10
20.157580810440017
 20
2.0357142857141319
 11
21.053295096154336
 21
2.0357142857141319
 72
     1
 10
21.053295096154336
 20
2.0357142857141319
 11
21.053295096154336
 21
2.8499999999998487
 72
     1
 10
21.053295096154336
 20
2.8499999999998487
 11
21.786152239011507
 21
2.8499999999998487
 72
     1
 10
21.786152239011507
 20
2.8499999999998487
 11
21.786152239011507
 21
2.0357142857141319
 72
     1
 10
21.786152239011507
 20
2.0357142857141319
 11
22.722580810439986
 21
2.0357142857141319
 72
     2
 10
15.796286246552746
 20
4.4303755974531924
 40
7.328571428571454
 50
19.072051
 51
32.871988
 73
     0
 72
     1
 10
21.951445818831196
 20
0.4526916201288422
 11
22.926152239011437
 21
-0.4885714285715821
 72
     1
 10
22.926152239011437
 20
-0.4885714285715821
 11
22.350277580116831
 21
-1.0644460874662265
 72
     1
 10
22.350277580116831
 20
-1.0644460874662265
 11
21.786152239011507
 21
-0.5196765779765897
 72
     1
 10
21.786152239011507
 20
-0.5196765779765897
 11
21.786152239011507
 21
-2.8500000000001648
 72
     1
 10
21.786152239011507
 20
-2.8500000000001648
 11
21.053295096154336
 21
-2.8500000000001648
 72
     1
 10
21.053295096154336
 20
-2.8500000000001648
 11
21.053295096154336
 21
-0.6756813096801793
 97
        0
 75
     0
 76
     1
 98
        1
 10
0.0
 20
0.0
  0
HATCH
  5
88
100
AcDbEntity
  8
0
  6
CONTINUOUS
 62
     3
100
AcDbHatch
 10
0.0
 20
0.0
 30
0.0
210
0.0
220
0.0
230
1.0
  2
SOLID
 70
     1
 71
     1
 91
        1
 92
        1
 93
       12
 72
     2
 10
26.09465466477446
 20
-6.5604295733743392
 40
11.481428571428609
 50
150.903074
 51
156.790773
 73
     1
 72
     1
 10
15.542396441700383
 20
-2.035714285714505
 11
18.049394029288031
 21
-2.0357142857144055
 72
     2
 10
10.927987441101074
 20
-4.0835590566205937
 40
7.4100000000000241
 50
16.043216
 51
21.362935
 73
     1
 72
     1
 10
17.828858648663306
 20
-1.3842857142858769
 11
18.610437953297115
 21
-1.3842857142858769
 72
     2
 10
10.927987441101074
 20
-4.0835590566205937
 40
8.1428571428571708
 50
340.64078
 51
351.286733
 73
     0
 72
     1
 10
18.976866524725686
 20
-2.8500000000001648
 11
14.457580810439971
 21
-2.8500000000001648
 72
     2
 10
26.09465466477446
 20
-6.5604295733743392
 40
12.214285714285754
 50
197.684652
 51
207.200855
 73
     0
 72
     1
 10
15.231152239011401
 20
-0.9771428571430043
 11
14.091152239011485
 21
-0.9771428571430043
 72
     1
 10
14.091152239011485
 20
-0.9771428571430043
 11
14.091152239011485
 21
-0.162857142857284
 72
     1
 10
14.091152239011485
 20
-0.162857142857284
 11
19.302580810440098
 21
-0.162857142857284
 72
     1
 10
19.302580810440098
 20
-0.162857142857284
 11
19.302580810440098
 21
-0.9771428571430043
 72
     1
 10
19.302580810440098
 20
-0.9771428571430043
 11
16.062201750099412
 21
-0.9771428571430043
 97
        0
 75
     0
 76
     1
 98
        1
 10
0.0
 20
0.0
  0
HATCH
  5
89
100
AcDbEntity
  8
0
  6
CONTINUOUS
 62
     3
100
AcDbHatch
 10
0.0
 20
0.0
 30
0.0
210
0.0
220
0.0
230
1.0
  2
SOLID
 70
     1
 71
     1
 91
        1
 92
        1
 93
       10
 72
     2
 10
26.143491684008573
 20
11.064410217386417
 40
13.028571428571473
 50
129.545698
 51
136.474664
 73
     0
 72
     1
 10
16.696866524725998
 20
2.0919553376225579
 11
16.696866524725998
 21
2.8499999999998487
 72
     1
 10
16.696866524725998
 20
2.8499999999998487
 11
17.104009381868686
 21
2.8499999999998487
 72
     2
 10
26.143491684008573
 20
11.064410217386417
 40
12.214285714285754
 50
222.262231
 51
237.763996
 73
     1
 72
     1
 10
19.628295096154382
 20
0.7328571428570001
 11
19.100346295490944
 21
0.1036722629605507
 72
     2
 10
26.143491684008573
 20
11.064410217386417
 40
13.028571428571473
 50
122.723968
 51
128.230009
 73
     0
 72
     1
 10
18.08115223901148
 20
0.830038905819066
 11
18.08115223901148
 21
0.2035714285712729
 72
     1
 10
18.08115223901148
 20
0.2035714285712729
 11
16.696866524725998
 21
0.2035714285712729
 72
     1
 10
16.696866524725998
 20
0.2035714285712729
 11
16.696866524725998
 21
1.0178571428569896
 72
     1
 10
16.696866524725998
 20
1.0178571428569896
 11
17.848285550942784
 21
1.0178571428569896
 97
        0
 75
     0
 76
     1
 98
        1
 10
0.0
 20
0.0
  0
HATCH
  5
8A
100
AcDbEntity
  8
0
  6
CONTINUOUS
 62
     3
100
AcDbHatch
 10
0.0
 20
0.0
 30
0.0
210
0.0
220
0.0
230
1.0
  2
SOLID
 70
     1
 71
     1
 91
        1
 92
        1
 93
       10
 72
     2
 10
7.2502413654429532
 20
11.064410217386417
 40
13.028571428571473
 50
51.769991
 51
57.276032
 73
     0
 72
     1
 10
14.293386753960569
 20
0.1036722629605329
 11
13.76543795329713
 21
0.7328571428569894
 72
     2
 10
7.2502413654429532
 20
11.064410217386417
 40
12.214285714285754
 50
302.236004
 51
317.737769
 73
     1
 72
     1
 10
16.289723667582841
 20
2.8499999999998487
 11
16.696866524725998
 21
2.8499999999998487
 72
     1
 10
16.696866524725998
 20
2.8499999999998487
 11
16.696866524725998
 21
2.0919553376230482
 72
     2
 10
7.2502413654429532
 20
11.064410217386417
 40
13.028571428571473
 50
43.525336
 51
50.454302
 73
     0
 72
     1
 10
15.545447498508743
 20
1.0178571428569896
 11
16.696866524725998
 21
1.0178571428569896
 72
     1
 10
16.696866524725998
 20
1.0178571428569896
 11
16.696866524725998
 21
0.2035714285712729
 72
     1
 10
16.696866524725998
 20
0.2035714285712729
 11
15.312580810440046
 21
0.2035714285712729
 72
     1
 10
15.312580810440046
 20
0.2035714285712729
 11
15.312580810440046
 21
0.8300389058190589
 97
        0
 75
     0
 76
     1
 98
        1
 10
0.0
 20
0.0
  0
HATCH
  5
8B
100
AcDbEntity
  8
0
  6
CONTINUOUS
 62
     3
100
AcDbHatch
 10
0.0
 20
0.0
 30
0.0
210
0.0
220
0.0
230
1.0
  2
SOLID
 70
     1
 71
     1
 91
        1
 92
        1
 93
       18
 72
     2
 10
1.2571935216656343
 20
-0.8093264034321166
 40
11.400000000000038
 50
14.02954
 51
18.723021
 73
     1
 72
     1
 10
12.053921279331213
 20
2.8499999999998487
 11
12.910437953297141
 21
2.8499999999998487
 72
     2
 10
1.2571935216656343
 20
-0.8093264034321166
 40
12.214285714285754
 50
342.566782
 51
346.922981
 73
     0
 72
     1
 10
13.15472366758285
 20
1.9542857142855716
 11
13.480437953297177
 21
1.9542857142855716
 72
     1
 10
13.480437953297177
 20
1.9542857142855716
 11
13.480437953297177
 21
1.1399999999998407
 72
     1
 10
13.480437953297177
 20
1.1399999999998407
 11
11.958092734747289
 21
1.1399999999998514
 72
     2
 10
20.401866524725683
 20
2.4835714285712918
 40
8.5500000000000291
 50
189.041096
 51
204.65198
 73
     1
 72
     2
 10
14.334076117775972
 20
-0.301141422634494
 40
1.8737206404808271
 50
204.65198
 51
242.897449
 73
     1
 72
     1
 10
13.480437953297177
 20
-1.9691135215345774
 11
13.480437953297177
 21
-2.8500000000001648
 72
     2
 10
14.334076117775972
 20
-0.301141422634494
 40
2.6880063547665438
 50
108.516212
 51
155.34802
 73
     0
 72
     2
 10
20.401866524725683
 20
2.4835714285712918
 40
9.3642857142857441
 50
155.34802
 51
171.750831
 73
     0
 72
     1
 10
11.134468683092756
 20
1.1399999999998549
 11
8.0247236675828972
 21
1.1399999999998407
 72
     1
 10
8.0247236675828972
 20
1.1399999999998407
 11
8.0247236675828972
 21
1.9542857142855716
 72
     1
 10
8.0247236675828972
 20
1.9542857142855716
 11
11.050355927894167
 21
1.9542857142855716
 72
     1
 10
11.050355927894167
 20
1.9542857142855716
 11
11.019076895792274
 21
2.8499999999998487
 72
     1
 10
11.019076895792274
 20
2.8499999999998487
 11
11.833858953292697
 21
2.8499999999998487
 72
     1
 10
11.833858953292697
 20
2.8499999999998487
 11
11.865137985394604
 21
1.9542857142855716
 72
     1
 10
11.865137985394604
 20
1.9542857142855716
 11
12.317141444816265
 21
1.9542857142855716
 97
        0
 75
     0
 76
     1
 98
        1
 10
0.0
 20
0.0
  0
HATCH
  5
8C
100
AcDbEntity
  8
0
  6
CONTINUOUS
 62
     3
100
AcDbHatch
 10
0.0
 20
0.0
 30
0.0
210
0.0
220
0.0
230
1.0
  2
SOLID
 70
     1
 71
     1
 91
        1
 92
        1
 93
       12
 72
     2
 10
5.4617420309248317
 20
38.027820957415145
 40
39.900000000000134
 50
276.500664
 51
278.269357
 73
     1
 72
     1
 10
11.200437953297204
 20
-1.457332823601817
 11
11.20043795329719
 21
-2.2800000000001504
 72
     2
 10
5.4617420309248317
 20
38.027820957415145
 40
40.71428571428585
 50
81.897153
 51
86.39082
 73
     0
 72
     1
 10
8.024723667582883
 20
-2.6057142857144413
 11
8.024723667582883
 21
-1.7897772264302034
 72
     2
 10
5.4617420309248317
 20
38.027820957415145
 40
39.900000000000134
 50
273.682937
 51
275.325087
 73
     1
 72
     1
 10
9.1647236675828836
 20
-1.6999769553635602
 11
9.1647236675828836
 21
-0.4071428571430218
 72
     1
 10
9.1647236675828836
 20
-0.4071428571430218
 11
8.0247236675828972
 21
-0.4071428571430218
 72
     1
 10
8.0247236675828972
 20
-0.4071428571430218
 11
8.0247236675828972
 21
0.4071428571426949
 72
     1
 10
8.0247236675828972
 20
0.4071428571426949
 11
10.95615223901148
 21
0.4071428571426949
 72
     1
 10
10.95615223901148
 20
0.4071428571426949
 11
10.95615223901148
 21
-0.4071428571430218
 72
     1
 10
10.95615223901148
 20
-0.4071428571430218
 11
9.9790093818686287
 21
-0.4071428571430218
 72
     1
 10
9.9790093818686287
 20
-0.4071428571430218
 11
9.9790093818685861
 21
-1.6156437710884397
 97
        0
 75
     0
 76
     1
 98
        1
 10
0.0
 20
0.0
  0
HATCH
  5
8D
100
AcDbEntity
  8
0
  6
CONTINUOUS
 62
     3
100
AcDbHatch
 10
0.0
 20
0.0
 30
0.0
210
0.0
220
0.0
230
1.0
  2
SOLID
 70
     1
 71
     1
 91
        1
 92
        1
 93
       30
 72
     2
 10
-1.8979256098940809
 20
4.1519130391923014
 40
8.9164285714286002
 50
37.940537
 51
46.713808
 73
     0
 72
     1
 10
4.21556076329842
 20
-2.3386942385728418
 11
3.6682950961542744
 21
-1.7914285714286962
 72
     2
 10
-1.8979256098940809
 20
4.1519130391923014
 40
8.1428571428571743
 50
313.123325
 51
325.95222
 73
     1
 72
     1
 10
4.8490093818684983
 20
-0.4071428571430076
 11
3.8718665247257533
 21
-0.4071428571430076
 72
     1
 10
3.8718665247257533
 20
-0.4071428571430076
 11
3.8718665247257533
 21
0.4071428571427092
 72
     1
 10
3.8718665247257533
 20
0.4071428571427092
 11
5.1340093818686157
 21
0.4071428571427092
 72
     1
 10
5.1340093818686157
 20
0.4071428571427092
 11
5.1340093818686157
 21
1.2214285714284152
 72
     1
 10
5.1340093818686157
 20
1.2214285714284152
 11
4.7280236542212677
 21
1.2214285714284152
 72
     2
 10
-3.9789687629962955
 20
2.9438069062169916
 40
8.8757142857143183
 50
11.189535
 51
14.746058
 73
     0
 72
     1
 10
4.6044101437030562
 20
0.6846232869284066
 11
3.9125808104399411
 21
0.9364285714284044
 72
     2
 10
-3.9789687629962955
 20
2.9438069062169916
 40
8.1428571428571743
 50
345.728313
 51
357.620387
 73
     1
 72
     1
 10
4.1568665247257641
 20
2.6057142857165694
 11
4.8844833536651819
 21
2.4774158071570227
 72
     2
 10
-3.9789687629962955
 20
2.9438069062169916
 40
8.8757142857143183
 50
3.012102
 51
6.401006
 73
     0
 72
     1
 10
4.8414139890361767
 20
1.9542857142855716
 11
5.1340093818686157
 21
1.9542857142855716
 72
     1
 10
5.1340093818686157
 20
1.9542857142855716
 11
5.1340093818686157
 21
2.8499999999998487
 72
     1
 10
5.1340093818686157
 20
2.8499999999998487
 11
5.948295096154304
 21
2.8499999999998487
 72
     1
 10
5.948295096154304
 20
2.8499999999998487
 11
5.948295096154304
 21
1.9542857142855716
 72
     1
 10
5.948295096154304
 20
1.9542857142855716
 11
7.0475808104400599
 21
1.9542857142855716
 72
     1
 10
7.0475808104400599
 20
1.9542857142855716
 11
7.0475808104400599
 21
1.2214285714284152
 72
     1
 10
7.0475808104400599
 20
1.2214285714284152
 11
5.948295096154304
 21
1.2214285714284152
 72
     1
 10
5.948295096154304
 20
1.2214285714284152
 11
5.948295096154304
 21
0.4071428571427092
 72
     1
 10
5.948295096154304
 20
0.4071428571427092
 11
7.2104379532971521
 21
0.4071428571427092
 72
     1
 10
7.2104379532971521
 20
0.4071428571427092
 11
7.2104379532971521
 21
-0.4071428571430076
 72
     1
 10
7.2104379532971521
 20
-0.4071428571430076
 11
6.2332950961542579
 21
-0.4071428571430076
 72
     2
 10
12.98023008791683
 20
4.1519130391922907
 40
8.1428571428571743
 50
214.04778
 51
226.876675
 73
     1
 72
     1
 10
7.4140093818684889
 20
-1.7914285714286962
 11
6.866743714724322
 21
-2.3386942385728453
 72
     2
 10
12.98023008791683
 20
4.1519130391922907
 40
8.9164285714286002
 50
133.286192
 51
142.059463
 73
     0
 72
     1
 10
5.948295096154304
 20
-1.330293518482641
 11
5.948295096154304
 21
-2.8500000000001648
 72
     1
 10
5.948295096154304
 20
-2.8500000000001648
 11
5.1340093818686157
 21
-2.8500000000001648
 72
     1
 10
5.1340093818686157
 20
-2.8500000000001648
 11
5.1340093818686157
 21
-1.3302935184824136
 97
        0
 75
     0
 76
     1
 98
        1
 10
0.0
 20
0.0
  0
HATCH
  5
8E
100
AcDbEntity
  8
0
  6
CONTINUOUS
 62
     3
100
AcDbHatch
 10
0.0
 20
0.0
 30
0.0
210
0.0
220
0.0
230
1.0
  2
SOLID
 70
     1
 71
     1
 91
        1
 92
        1
 93
       19
 72
     2
 10
-5.2499698511775321
 20
3.0651230633969284
 40
8.8757142857143165
 50
27.683433
 51
32.280505
 73
     0
 72
     1
 10
2.2539459810095721
 20
-1.6750827617845943
 11
1.6732950961542841
 21
-1.2214285714287314
 72
     2
 10
-5.2499698511775321
 20
3.0651230633969284
 40
8.1428571428571708
 50
328.236207
 51
344.845745
 73
     1
 72
     1
 10
2.6097236675827773
 20
0.9364285714284151
 11
1.8768665247257346
 21
0.9364285714284151
 72
     1
 10
1.8768665247257346
 20
0.9364285714284151
 11
1.8768665247257346
 21
1.7507142857141353
 72
     1
 10
1.8768665247257346
 20
1.7507142857141353
 11
2.6097236675829052
 21
1.7507142857141353
 72
     1
 10
2.6097236675829052
 20
1.7507142857141353
 11
2.6097236675829052
 21
2.8499999999998487
 72
     1
 10
2.6097236675829052
 20
2.8499999999998487
 11
3.4240093818685935
 21
2.8499999999998487
 72
     1
 10
3.4240093818685935
 20
2.8499999999998487
 11
3.4240093818685935
 21
1.7507142857141353
 72
     1
 10
3.4240093818685935
 20
1.7507142857141353
 11
3.7904379532971788
 21
1.7507142857141353
 72
     1
 10
3.7904379532971788
 20
1.7507142857141353
 11
3.7904379532971788
 21
0.9364285714284151
 72
     1
 10
3.7904379532971788
 20
0.9364285714284151
 11
3.4240093818685367
 21
0.9364285714284151
 72
     1
 10
3.4240093818685367
 20
0.9364285714284151
 11
3.8718665247257533
 21
0.2968222855516665
 72
     1
 10
3.8718665247257533
 20
0.2968222855516665
 11
3.8718665247257533
 21
-0.1989042363292235
 72
     1
 10
3.8718665247257533
 20
-0.1989042363292235
 11
3.6275808104399871
 21
-0.4900326139487277
 72
     1
 10
3.6275808104399871
 20
-0.4900326139487277
 11
3.4240093818685935
 21
-0.1993024840048498
 72
     1
 10
3.4240093818685935
 20
-0.1993024840048498
 11
3.4240093818685935
 21
-2.8500000000001648
 72
     1
 10
3.4240093818685935
 20
-2.8500000000001648
 11
2.6097236675829052
 21
-2.8500000000001648
 72
     1
 10
2.6097236675829052
 20
-2.8500000000001648
 11
2.6097236675829052
 21
-1.0584096299120844
 97
        0
 75
     0
 76
     1
 98
        1
 10
0.0
 20
0.0
  0
HATCH
  5
8F
100
AcDbEntity
  8
0
  6
CONTINUOUS
 62
     3
100
AcDbHatch
 10
0.0
 20
0.0
 30
0.0
210
0.0
220
0.0
230
1.0
  2
SOLID
 70
     1
 71
     1
 91
        1
 92
        1
 93
        8
 72
     2
 10
-1.8298808996504405
 20
-0.4560000000002766
 40
1.596000000000013
 50
270.0
 51
330.0
 73
     1
 72
     2
 10
-2.619696067901863
 20
-0.00000000000027
 40
2.508000000000012
 50
330.0
 51
30.0
 73
     1
 72
     2
 10
-1.8298808996504405
 20
0.4559999999997331
 40
1.5960000000000121
 50
30.0
 51
90.0
 73
     1
 72
     1
 10
-1.82988089965
 20
2.0519999999997438
 11
-1.82988089965
 21
2.9639999999999276
 72
     2
 10
-1.8298808996504974
 20
0.4559999999999214
 40
2.508000000000008
 50
270.0
 51
330.0
 73
     0
 72
     2
 10
-2.6196960679017494
 20
-0.0000000000001243
 40
3.420000000000015
 50
330.0
 51
30.0
 73
     0
 72
     2
 10
-1.8298808996503837
 20
-0.456000000000369
 40
2.5080000000000053
 50
30.0
 51
90.0
 73
     0
 72
     1
 10
-1.82988089965
 20
-2.9640000000003752
 11
-1.82988089965
 21
-2.0520000000002909
 97
        0
 75
     0
 76
     1
 98
        1
 10
0.0
 20
0.0
  0
HATCH
  5
90
100
AcDbEntity
  8
0
  6
CONTINUOUS
 62
     3
100
AcDbHatch
 10
0.0
 20
0.0
 30
0.0
210
0.0
220
0.0
230
1.0
  2
SOLID
 70
     1
 71
     1
 91
        1
 92
        1
 93
        8
 72
     2
 10
-1.8298808996503837
 20
-0.456000000000369
 40
2.5080000000000053
 50
90.0
 51
150.0
 73
     0
 72
     2
 10
-1.0400657313991175
 20
-0.0000000000003126
 40
3.4200000000000181
 50
150.0
 51
210.0
 73
     0
 72
     2
 10
-1.8298808996504974
 20
0.4559999999999214
 40
2.508000000000008
 50
210.0
 51
270.0
 73
     0
 72
     1
 10
-1.82988089965
 20
2.9639999999999276
 11
-1.82988089965
 21
2.0519999999997438
 72
     2
 10
-1.8298808996504405
 20
0.4559999999997331
 40
1.5960000000000121
 50
90.0
 51
150.0
 73
     1
 72
     2
 10
-1.040065731399018
 20
-0.00000000000027
 40
2.5080000000000129
 50
150.0
 51
210.0
 73
     1
 72
     2
 10
-1.8298808996504405
 20
-0.4560000000002766
 40
1.596000000000013
 50
210.0
 51
270.0
 73
     1
 72
     1
 10
-1.82988089965
 20
-2.0520000000002909
 11
-1.82988089965
 21
-2.9640000000003752
 97
        0
 75
     0
 76
     1
 98
        1
 10
0.0
 20
0.0
  0
HATCH
  5
91
100
AcDbEntity
  8
0
  6
CONTINUOUS
 62
     3
100
AcDbHatch
 10
0.0
 20
0.0
 30
0.0
210
0.0
220
0.0
230
1.0
  2
SOLID
 70
     1
 71
     1
 91
        1
 92
        1
 93
        4
 72
     1
 10
-5.3638808996504608
 20
-1.0260000000002698
 11
-6.2758808996504385
 21
-1.0260000000002698
 72
     1
 10
-6.2758808996504385
 20
-1.0260000000002698
 11
-6.2758808996504385
 21
-0.1140000000002743
 72
     1
 10
-6.2758808996504385
 20
-0.1140000000002743
 11
-5.3638808996504608
 21
-0.1140000000002743
 72
     1
 10
-5.3638808996504608
 20
-0.1140000000002743
 11
-5.3638808996504608
 21
-1.0260000000003267
 97
        0
 75
     0
 76
     1
 98
        1
 10
0.0
 20
0.0
  0
HATCH
  5
92
100
AcDbEntity
  8
0
  6
CONTINUOUS
 62
     3
100
AcDbHatch
 10
0.0
 20
0.0
 30
0.0
210
0.0
220
0.0
230
1.0
  2
SOLID
 70
     1
 71
     1
 91
        1
 92
        1
 93
       16
 72
     1
 10
-9.6958808996504686
 20
1.9379999999997324
 11
-10.949880899650459
 21
1.9379999999997324
 72
     1
 10
-10.949880899650459
 20
1.9379999999997324
 11
-11.177880899650468
 21
0.6839999999997275
 72
     1
 10
-11.177880899650468
 20
0.6839999999997275
 11
-11.861880899650437
 21
0.6839999999997275
 72
     1
 10
-11.861880899650437
 20
0.6839999999997275
 11
-11.861880899650437
 21
2.8499999999997421
 72
     1
 10
-11.861880899650437
 20
2.8499999999997421
 11
-6.6178808996504515
 21
2.8499999999997421
 72
     1
 10
-6.6178808996504515
 20
2.8499999999997421
 11
-6.6178808996504515
 21
0.6839999999997275
 72
     1
 10
-6.6178808996504515
 20
0.6839999999997275
 11
-7.3018808996504205
 21
0.6839999999997275
 72
     1
 10
-7.3018808996504205
 20
0.6839999999997275
 11
-7.5298808996504292
 21
1.9379999999997324
 72
     1
 10
-7.5298808996504292
 20
1.9379999999997324
 11
-8.7838808996504767
 21
1.9379999999997324
 72
     1
 10
-8.7838808996504767
 20
1.9379999999997324
 11
-8.7838808996504341
 21
-1.9380000000002759
 72
     1
 10
-8.7838808996504341
 20
-1.9380000000002759
 11
-7.8718808996504421
 21
-2.1660000000002846
 72
     1
 10
-7.8718808996504421
 20
-2.1660000000002846
 11
-7.8718808996504421
 21
-2.8500000000002856
 72
     1
 10
-7.8718808996504421
 20
-2.8500000000002856
 11
-10.607880899650446
 21
-2.8500000000002856
 72
     1
 10
-10.607880899650446
 20
-2.8500000000002856
 11
-10.607880899650446
 21
-2.1660000000002846
 72
     1
 10
-10.607880899650446
 20
-2.1660000000002846
 11
-9.6958808996504686
 21
-1.9380000000002759
 72
     1
 10
-9.6958808996504686
 20
-1.9380000000002759
 11
-9.6958808996504686
 21
1.9379999999997324
 97
        0
 75
     0
 76
     1
 98
        1
 10
0.0
 20
0.0
  0
HATCH
  5
93
100
AcDbEntity
  8
0
  6
CONTINUOUS
 62
     3
100
AcDbHatch
 10
0.0
 20
0.0
 30
0.0
210
0.0
220
0.0
230
1.0
  2
SOLID
 70
     1
 71
     1
 91
        1
 92
        1
 93
        4
 72
     1
 10
-13.115880899650485
 20
-1.0260000000002698
 11
-13.115880899650428
 21
-0.1140000000002175
 72
     1
 10
-13.115880899650428
 20
-0.1140000000002175
 11
-12.20388089965045
 21
-0.1140000000002743
 72
     1
 10
-12.20388089965045
 20
-0.1140000000002743
 11
-12.20388089965045
 21
-1.0260000000002698
 72
     1
 10
-12.20388089965045
 20
-1.0260000000002698
 11
-13.115880899650428
 21
-1.0260000000002698
 97
        0
 75
     0
 76
     1
 98
        1
 10
0.0
 20
0.0
  0
HATCH
  5
94
100
AcDbEntity
  8
0
  6
CONTINUOUS
 62
     3
100
AcDbHatch
 10
0.0
 20
0.0
 30
0.0
210
0.0
220
0.0
230
1.0
  2
SOLID
 70
     1
 71
     1
 91
        1
 92
        1
 93
       12
 72
     1
 10
-14.141880899650467
 20
2.8499999999997421
 11
-14.141880899650467
 21
2.1659999999997304
 72
     1
 10
-14.141880899650467
 20
2.1659999999997304
 11
-15.053880899650444
 21
1.9379999999997324
 72
     1
 10
-15.053880899650444
 20
1.9379999999997324
 11
-15.053880899650444
 21
-1.9380000000002759
 72
     1
 10
-15.053880899650444
 20
-1.9380000000002759
 11
-14.141880899650467
 21
-2.1660000000002846
 72
     1
 10
-14.141880899650467
 20
-2.1660000000002846
 11
-14.141880899650467
 21
-2.8500000000002856
 72
     1
 10
-14.141880899650467
 20
-2.8500000000002856
 11
-16.877880899650467
 21
-2.8500000000002856
 72
     1
 10
-16.877880899650467
 20
-2.8500000000002856
 11
-16.877880899650467
 21
-2.1660000000002846
 72
     1
 10
-16.877880899650467
 20
-2.1660000000002846
 11
-15.965880899650482
 21
-1.9380000000002759
 72
     1
 10
-15.965880899650482
 20
-1.9380000000002759
 11
-15.965880899650482
 21
1.9379999999997324
 72
     1
 10
-15.965880899650482
 20
1.9379999999997324
 11
-16.877880899650467
 21
2.165999999999741
 72
     1
 10
-16.877880899650467
 20
2.165999999999741
 11
-16.877880899650467
 21
2.8499999999997421
 72
     1
 10
-16.877880899650467
 20
2.8499999999997421
 11
-14.141880899650467
 21
2.8499999999997421
 97
        0
 75
     0
 76
     1
 98
        1
 10
0.0
 20
0.0
  0
HATCH
  5
95
100
AcDbEntity
  8
0
  6
CONTINUOUS
 62
     3
100
AcDbHatch
 10
0.0
 20
0.0
 30
0.0
210
0.0
220
0.0
230
1.0
  2
SOLID
 70
     1
 71
     1
 91
        1
 92
        1
 93
       15
 72
     2
 10
-23.082241990843084
 20
-0.0000000000001492
 40
2.531053105310535
 50
124.301153
 51
180.0
 73
     0
 72
     1
 10
-25.613295096153617
 20
0.0
 11
-24.658234262528236
 21
0.0
 72
     2
 10
-22.195587997901765
 20
-0.000000000000135
 40
2.46264626462647
 50
180.0
 51
199.464384
 73
     1
 72
     2
 10
-24.557343260027135
 20
0.2731786481661374
 40
1.094509450945121
 50
272.086657
 51
294.619977
 73
     1
 72
     2
 10
-24.243863734539655
 20
-0.4108897586745677
 40
0.342034203420344
 50
294.619977
 51
0.0
 73
     1
 72
     1
 10
-23.901829531119287
 20
-0.4108897586745677
 11
-23.901829531119287
 21
0.0
 72
     1
 10
-23.901829531119287
 20
0.0
 11
-23.080947442910482
 21
0.0
 72
     1
 10
-23.080947442910482
 20
0.0
 11
-23.080947442910482
 21
-0.4116155274721614
 72
     2
 10
-22.73891323949012
 20
-0.4116155274721614
 40
0.34203420342033
 50
180.0
 51
245.380023
 73
     1
 72
     2
 10
-22.425433714002583
 20
0.2724528793686645
 40
1.0945094509452411
 50
245.380023
 51
267.913343
 73
     1
 72
     1
 10
-22.465285876753814
 20
-0.8213308027789985
 11
-22.465285876753814
 21
-1.0265513248311819
 72
     1
 10
-22.465285876753814
 20
-1.0265513248311819
 11
-24.434073870576871
 21
-1.0265513248311962
 72
     2
 10
-22.195587997901708
 20
-0.000000000000135
 40
2.4626462646264669
 50
204.635803
 51
268.19864
 73
     1
 72
     1
 10
-22.272999999999005
 20
-2.4614292609397985
 11
-22.272999999999005
 21
-2.8039503813289706
 72
     2
 10
-22.195587997901765
 20
1.2997299729972909
 40
4.1044104410441236
 50
91.080702
 51
124.301153
 73
     0
 97
        0
 75
     0
 76
     1
 98
        1
 10
0.0
 20
0.0
  0
HATCH
  5
96
100
AcDbEntity
  8
0
  6
CONTINUOUS
 62
     3
100
AcDbHatch
 10
0.0
 20
0.0
 30
0.0
210
0.0
220
0.0
230
1.0
  2
SOLID
 70
     1
 71
     1
 91
        1
 92
        1
 93
       24
 72
     2
 10
-22.67055612196938
 20
0.3420342034202015
 40
0.342034203420347
 50
90.0
 51
157.380135
 73
     1
 72
     2
 10
-21.849674033760575
 20
-0.0000000000001101
 40
1.231323132313237
 50
157.380135
 51
180.0
 73
     1
 72
     1
 10
-23.080997166073811
 20
0.0
 11
-23.901829531119287
 21
0.0
 72
     1
 10
-23.901829531119287
 20
0.0
 11
-23.901829531119287
 21
1.7757720729310194
 72
     2
 10
-22.195587997901765
 20
-0.000000000000135
 40
2.46264626462647
 50
133.856042
 51
180.0
 73
     1
 72
     1
 10
-24.658234262528236
 20
0.0
 11
-25.613295096153617
 21
0.0
 72
     2
 10
-23.082241990843084
 20
-0.0000000000001492
 40
2.531053105310535
 50
180.0
 51
235.698847
 73
     0
 72
     2
 10
-22.195587997901708
 20
-1.2997299729975893
 40
4.1044104410441324
 50
235.698847
 51
245.436008
 73
     0
 72
     1
 10
-23.901829531119287
 20
2.4332212587861193
 11
-23.901829531119287
 21
2.8049575222742433
 72
     2
 10
-24.243863734539655
 20
2.8049575222742433
 40
0.3420342034203421
 50
0.0
 51
65.380023
 73
     1
 72
     2
 10
-24.557343260027135
 20
2.1208891154335525
 40
1.0945094509450961
 50
65.380023
 51
87.913343
 73
     1
 72
     1
 10
-24.517491097275904
 20
3.2146727975810734
 11
-24.517491097275904
 21
3.4198933196332746
 72
     1
 10
-24.517491097275904
 20
3.4198933196332746
 11
-22.465285876753814
 21
3.4198933196332746
 72
     1
 10
-22.465285876753814
 20
3.4198933196332746
 11
-22.465285876753814
 21
3.2146727975810769
 72
     2
 10
-22.425433714002583
 20
2.1208891154335525
 40
1.094509450945101
 50
92.086657
 51
114.619977
 73
     1
 72
     2
 10
-22.738913239490063
 20
2.8049575222742575
 40
0.342034203420347
 50
114.619977
 51
180.0
 73
     1
 72
     1
 10
-23.080947442910432
 20
2.8049575222742433
 11
-23.080947442910432
 21
2.7080529205341897
 72
     2
 10
-22.195587997901765
 20
-1.2997299729975893
 40
4.1044104410441218
 50
257.542857
 51
268.919298
 73
     0
 72
     1
 10
-22.272999999999005
 20
2.8039503813286721
 11
-22.272999999999005
 21
2.4614292609395321
 72
     2
 10
-22.195587997901708
 20
-0.000000000000135
 40
2.46264626462647
 50
91.80136
 51
111.070443
 73
     1
 72
     1
 10
-23.080947442910482
 20
2.2979915747913111
 11
-23.080947442910482
 21
1.0261026102608923
 72
     1
 10
-23.080947442910482
 20
1.0261026102608923
 11
-22.272999999998969
 21
1.0261026102608923
 72
     1
 10
-22.272999999998969
 20
1.0261026102608923
 11
-22.272999999999005
 21
0.6840684068405416
 72
     1
 10
-22.272999999999005
 20
0.6840684068405416
 11
-22.67055612196938
 21
0.6840684068405416
 97
        0
 75
     0
 76
     1
 98
        1
 10
0.0
 20
0.0
  0
HATCH
  5
97
100
AcDbEntity
  8
0
  6
CONTINUOUS
 62
     3
100
AcDbHatch
 10
0.0
 20
0.0
 30
0.0
210
0.0
220
0.0
230
1.0
  2
SOLID
 70
     1
 71
     1
 91
        1
 92
        1
 93
       14
 72
     2
 10
-22.195587997901765
 20
-0.000000000000135
 40
2.4626462646264748
 50
0.0
 51
9.281799
 73
     1
 72
     2
 10
-20.102741104833992
 20
0.3420342034202015
 40
0.34203420342034
 50
9.281799
 51
90.0
 73
     1
 72
     1
 10
-20.102741104833992
 20
0.6840684068405416
 11
-20.827451184220411
 21
0.6840684068405416
 72
     1
 10
-20.827451184220411
 20
0.6840684068405416
 11
-20.827451184220411
 21
0.0
 72
     1
 10
-20.827451184220411
 20
0.0
 11
-21.648333272429209
 21
0.0
 72
     1
 10
-21.648333272429209
 20
0.0
 11
-21.648333272429209
 21
0.6840684068405416
 72
     1
 10
-21.648333272429209
 20
0.6840684068405416
 11
-22.272999999999005
 21
0.6840684068405416
 72
     1
 10
-22.272999999999005
 20
0.6840684068405416
 11
-22.272999999999005
 21
1.0261026102608923
 72
     1
 10
-22.272999999999005
 20
1.0261026102608923
 11
-19.956896402818945
 21
1.0261026102608675
 72
     2
 10
-22.195587997901708
 20
-0.000000000000135
 40
2.46264626462647
 50
24.624318
 51
91.80136
 73
     1
 72
     1
 10
-22.272999999999005
 20
2.4614292609395321
 11
-22.272999999999005
 21
2.8039503813286721
 72
     2
 10
-22.195587997901765
 20
-1.2997299729975893
 40
4.1044104410441218
 50
268.919298
 51
304.301153
 73
     0
 72
     2
 10
-21.308934004960445
 20
-0.0000000000001492
 40
2.5310531053105372
 50
304.301153
 51
0.0
 73
     0
 72
     1
 10
-18.777880899649912
 20
0.0
 11
-19.732941733275293
 21
0.0
 97
        0
 75
     0
 76
     1
 98
        1
 10
0.0
 20
0.0
  0
HATCH
  5
98
100
AcDbEntity
  8
0
  6
CONTINUOUS
 62
     3
100
AcDbHatch
 10
0.0
 20
0.0
 30
0.0
210
0.0
220
0.0
230
1.0
  2
SOLID
 70
     1
 71
     1
 91
        1
 92
        1
 93
       19
 72
     2
 10
-22.195587997901765
 20
-0.000000000000135
 40
2.4626462646264748
 50
303.748989
 51
0.0
 73
     1
 72
     1
 10
-19.732941733275293
 20
0.0
 11
-18.777880899649912
 21
0.0
 72
     2
 10
-21.308934004960445
 20
-0.0000000000001492
 40
2.5310531053105372
 50
0.0
 51
55.698847
 73
     0
 72
     2
 10
-22.195587997901708
 20
1.2997299729973051
 40
4.1044104410441289
 50
55.698847
 51
70.528779
 73
     0
 72
     1
 10
-20.827451184220411
 20
-2.5699453011829512
 11
-20.827451184220411
 21
-2.8054062368445436
 72
     2
 10
-20.485416980800043
 20
-2.8054062368445436
 40
0.342034203420344
 50
180.0
 51
245.380023
 73
     1
 72
     2
 10
-20.171937455312563
 20
-2.1213378300038528
 40
1.094509450945099
 50
245.380023
 51
267.913343
 73
     1
 72
     1
 10
-20.211789618063744
 20
-3.2151215121513772
 11
-20.211789618063744
 21
-3.4203420342035784
 72
     1
 10
-20.211789618063744
 20
-3.4203420342035784
 11
-22.263994838585827
 21
-3.4203420342035784
 72
     1
 10
-22.263994838585827
 20
-3.4203420342035784
 11
-22.263994838585827
 21
-3.2151215121513737
 72
     2
 10
-22.303847001337058
 20
-2.1213378300038528
 40
1.094509450945099
 50
272.086657
 51
294.619977
 73
     1
 72
     2
 10
-21.990367475849578
 20
-2.8054062368445436
 40
0.342034203420344
 50
294.619977
 51
0.0
 73
     1
 72
     1
 10
-21.648333272429209
 20
-2.8054062368445436
 11
-21.648333272429209
 21
-2.7680332125876284
 72
     2
 10
-22.195587997901765
 20
1.2997299729972909
 40
4.1044104410441236
 50
82.337744
 51
91.080702
 73
     0
 72
     1
 10
-22.272999999999005
 20
-2.8039503813289706
 11
-22.272999999999005
 21
-2.4614292609397985
 72
     2
 10
-22.195587997901708
 20
-0.000000000000135
 40
2.4626462646264669
 50
268.19864
 51
282.839588
 73
     1
 72
     1
 10
-21.648333272429209
 20
-2.4010703634269781
 11
-21.648333272429209
 21
0.0
 72
     1
 10
-21.648333272429209
 20
0.0
 11
-20.827451184220411
 21
0.0
 72
     1
 10
-20.827451184220411
 20
0.0
 11
-20.827451184220411
 21
-2.047639686011447
 97
        0
 75
     0
 76
     1
 98
        1
 10
0.0
 20
0.0
  0
ENDBLK
  5
99
100
AcDbEntity
  8
0
100
AcDbBlockEnd
  0
ENDSEC
  0
SECTION
  2
ENTITIES
  0
LINE
  5
9A
100
AcDbEntity
  8
LAY-1
  6
CONTINUOUS
 62
     1
100
AcDbLine
 10
212.287665
 20
191.52307
 30
0.0
 11
213.27307
 21
190.537665
 31
0.0
  0
LINE
  5
9B
100
AcDbEntity
  8
LAY-1
  6
CONTINUOUS
 62
     1
100
AcDbLine
 10
211.063529
 20
192.349343
 30
0.0
 11
214.099343
 21
189.313529
 31
0.0
  0
LINE
  5
9C
100
AcDbEntity
  8
LAY-1
  6
CONTINUOUS
 62
     1
100
AcDbLine
 10
210.312195
 20
192.702814
 30
0.0
 11
212.249386
 21
190.765624
 31
0.0
  0
LINE
  5
9D
100
AcDbEntity
  8
LAY-1
  6
CONTINUOUS
 62
     1
100
AcDbLine
 10
213.399723
 20
189.615287
 30
0.0
 11
213.701481
 21
189.313529
 31
0.0
  0
LINE
  5
9E
100
AcDbEntity
  8
LAY-1
  6
CONTINUOUS
 62
     1
100
AcDbLine
 10
209.695769
 20
192.921378
 30
0.0
 11
211.125073
 21
191.492075
 31
0.0
  0
LINE
  5
9F
100
AcDbEntity
  8
LAY-1
  6
CONTINUOUS
 62
     1
100
AcDbLine
 10
209.153915
 20
193.06537
 30
0.0
 11
210.393829
 21
191.825456
 31
0.0
  0
LINE
  5
A0
100
AcDbEntity
  8
LAY-1
  6
CONTINUOUS
 62
     1
100
AcDbLine
 10
208.661977
 20
193.159445
 30
0.0
 11
209.786435
 21
192.034988
 31
0.0
  0
LINE
  5
A1
100
AcDbEntity
  8
LAY-1
  6
CONTINUOUS
 62
     1
100
AcDbLine
 10
208.206948
 20
193.216612
 30
0.0
 11
209.248778
 21
192.174782
 31
0.0
  0
LINE
  5
A2
100
AcDbEntity
  8
LAY-1
  6
CONTINUOUS
 62
     1
100
AcDbLine
 10
207.780957
 20
193.24474
 30
0.0
 11
208.758268
 21
192.26743
 31
0.0
  0
LINE
  5
A3
100
AcDbEntity
  8
LAY-1
  6
CONTINUOUS
 62
     1
100
AcDbLine
 10
207.37881
 20
193.249025
 30
0.0
 11
208.302867
 21
192.324968
 31
0.0
  0
LINE
  5
A4
100
AcDbEntity
  8
LAY-1
  6
CONTINUOUS
 62
     1
100
AcDbLine
 10
206.996863
 20
193.233109
 30
0.0
 11
207.875245
 21
192.354727
 31
0.0
  0
LINE
  5
A5
100
AcDbEntity
  8
LAY-1
  6
CONTINUOUS
 62
     1
100
AcDbLine
 10
206.632451
 20
193.19966
 30
0.0
 11
207.470548
 21
192.361562
 31
0.0
  0
LINE
  5
A6
100
AcDbEntity
  8
LAY-1
  6
CONTINUOUS
 62
     1
100
AcDbLine
 10
206.28355
 20
193.150697
 30
0.0
 11
207.085363
 21
192.348884
 31
0.0
  0
LINE
  5
A7
100
AcDbEntity
  8
LAY-1
  6
CONTINUOUS
 62
     1
100
AcDbLine
 10
205.948592
 20
193.087793
 30
0.0
 11
206.71719
 21
192.319196
 31
0.0
  0
LINE
  5
A8
100
AcDbEntity
  8
LAY-1
  6
CONTINUOUS
 62
     1
100
AcDbLine
 10
205.626331
 20
193.012192
 30
0.0
 11
206.364132
 21
192.274391
 31
0.0
  0
LINE
  5
A9
100
AcDbEntity
  8
LAY-1
  6
CONTINUOUS
 62
     1
100
AcDbLine
 10
205.315762
 20
192.924899
 30
0.0
 11
206.02472
 21
192.215941
 31
0.0
  0
LINE
  5
AA
100
AcDbEntity
  8
LAY-1
  6
CONTINUOUS
 62
     1
100
AcDbLine
 10
205.016066
 20
192.826732
 30
0.0
 11
205.697788
 21
192.14501
 31
0.0
  0
LINE
  5
AB
100
AcDbEntity
  8
LAY-1
  6
CONTINUOUS
 62
     1
100
AcDbLine
 10
204.726568
 20
192.718367
 30
0.0
 11
205.382402
 21
192.062533
 31
0.0
  0
LINE
  5
AC
100
AcDbEntity
  8
LAY-1
  6
CONTINUOUS
 62
     1
100
AcDbLine
 10
204.446709
 20
192.600364
 30
0.0
 11
205.077803
 21
191.96927
 31
0.0
  0
LINE
  5
AD
100
AcDbEntity
  8
LAY-1
  6
CONTINUOUS
 62
     1
100
AcDbLine
 10
204.176023
 20
192.473187
 30
0.0
 11
204.783369
 21
191.865841
 31
0.0
  0
LINE
  5
AE
100
AcDbEntity
  8
LAY-1
  6
CONTINUOUS
 62
     1
100
AcDbLine
 10
203.914122
 20
192.337226
 30
0.0
 11
204.498592
 21
191.752756
 31
0.0
  0
LINE
  5
AF
100
AcDbEntity
  8
LAY-1
  6
CONTINUOUS
 62
     1
100
AcDbLine
 10
203.660683
 20
192.192803
 30
0.0
 11
204.223053
 21
191.630433
 31
0.0
  0
LINE
  5
B0
100
AcDbEntity
  8
LAY-1
  6
CONTINUOUS
 62
     1
100
AcDbLine
 10
203.415438
 20
192.040185
 30
0.0
 11
203.95641
 21
191.499214
 31
0.0
  0
LINE
  5
B1
100
AcDbEntity
  8
LAY-1
  6
CONTINUOUS
 62
     1
100
AcDbLine
 10
203.178171
 20
191.879589
 30
0.0
 11
203.698385
 21
191.359376
 31
0.0
  0
LINE
  5
B2
100
AcDbEntity
  8
LAY-1
  6
CONTINUOUS
 62
     1
100
AcDbLine
 10
202.948707
 20
191.711191
 30
0.0
 11
203.448759
 21
191.21114
 31
0.0
  0
LINE
  5
B3
100
AcDbEntity
  8
LAY-1
  6
CONTINUOUS
 62
     1
100
AcDbLine
 10
202.72691
 20
191.535126
 30
0.0
 11
203.20736
 21
191.054676
 31
0.0
  0
LINE
  5
B4
100
AcDbEntity
  8
LAY-1
  6
CONTINUOUS
 62
     1
100
AcDbLine
 10
202.512681
 20
191.351493
 30
0.0
 11
202.974066
 21
190.890107
 31
0.0
  0
LINE
  5
B5
100
AcDbEntity
  8
LAY-1
  6
CONTINUOUS
 62
     1
100
AcDbLine
 10
202.305954
 20
191.160357
 30
0.0
 11
202.748795
 21
190.717516
 31
0.0
  0
LINE
  5
B6
100
AcDbEntity
  8
LAY-1
  6
CONTINUOUS
 62
     1
100
AcDbLine
 10
202.106697
 20
190.961752
 30
0.0
 11
202.531505
 21
190.536944
 31
0.0
  0
LINE
  5
B7
100
AcDbEntity
  8
LAY-1
  6
CONTINUOUS
 62
     1
100
AcDbLine
 10
201.914908
 20
190.755678
 30
0.0
 11
202.322194
 21
190.348392
 31
0.0
  0
LINE
  5
B8
100
AcDbEntity
  8
LAY-1
  6
CONTINUOUS
 62
     1
100
AcDbLine
 10
201.730617
 20
190.542107
 30
0.0
 11
202.1209
 21
190.151823
 31
0.0
  0
LINE
  5
B9
100
AcDbEntity
  8
LAY-1
  6
CONTINUOUS
 62
     1
100
AcDbLine
 10
201.553887
 20
190.320974
 30
0.0
 11
201.927702
 21
189.947159
 31
0.0
  0
LINE
  5
BA
100
AcDbEntity
  8
LAY-1
  6
CONTINUOUS
 62
     1
100
AcDbLine
 10
201.384814
 20
190.092185
 30
0.0
 11
201.74272
 21
189.734279
 31
0.0
  0
LINE
  5
BB
100
AcDbEntity
  8
LAY-1
  6
CONTINUOUS
 62
     1
100
AcDbLine
 10
201.22353
 20
189.855606
 30
0.0
 11
201.566119
 21
189.513017
 31
0.0
  0
LINE
  5
BC
100
AcDbEntity
  8
LAY-1
  6
CONTINUOUS
 62
     1
100
AcDbLine
 10
201.070207
 20
189.611067
 30
0.0
 11
201.398115
 21
189.283159
 31
0.0
  0
LINE
  5
BD
100
AcDbEntity
  8
LAY-1
  6
CONTINUOUS
 62
     1
100
AcDbLine
 10
200.925058
 20
189.358353
 30
0.0
 11
201.238981
 21
189.044431
 31
0.0
  0
LINE
  5
BE
100
AcDbEntity
  8
LAY-1
  6
CONTINUOUS
 62
     1
100
AcDbLine
 10
200.788346
 20
189.097203
 30
0.0
 11
201.089051
 21
188.796498
 31
0.0
  0
LINE
  5
BF
100
AcDbEntity
  8
LAY-1
  6
CONTINUOUS
 62
     1
100
AcDbLine
 10
200.660387
 20
188.827299
 30
0.0
 11
200.948738
 21
188.538948
 31
0.0
  0
LINE
  5
C0
100
AcDbEntity
  8
LAY-1
  6
CONTINUOUS
 62
     1
100
AcDbLine
 10
200.541565
 20
188.548259
 30
0.0
 11
200.818543
 21
188.271281
 31
0.0
  0
LINE
  5
C1
100
AcDbEntity
  8
LAY-1
  6
CONTINUOUS
 62
     1
100
AcDbLine
 10
200.432337
 20
188.259624
 30
0.0
 11
200.699074
 21
187.992887
 31
0.0
  0
LINE
  5
C2
100
AcDbEntity
  8
LAY-1
  6
CONTINUOUS
 62
     1
100
AcDbLine
 10
200.333255
 20
187.960844
 30
0.0
 11
200.591079
 21
187.70302
 31
0.0
  0
LINE
  5
C3
100
AcDbEntity
  8
LAY-1
  6
CONTINUOUS
 62
     1
100
AcDbLine
 10
200.244981
 20
187.651256
 30
0.0
 11
200.495475
 21
187.400762
 31
0.0
  0
LINE
  5
C4
100
AcDbEntity
  8
LAY-1
  6
CONTINUOUS
 62
     1
100
AcDbLine
 10
200.168322
 20
187.330052
 30
0.0
 11
200.413402
 21
187.084972
 31
0.0
  0
LINE
  5
C5
100
AcDbEntity
  8
LAY-1
  6
CONTINUOUS
 62
     1
100
AcDbLine
 10
200.104263
 20
186.996249
 30
0.0
 11
200.346303
 21
186.754209
 31
0.0
  0
LINE
  5
C6
100
AcDbEntity
  8
LAY-1
  6
CONTINUOUS
 62
     1
100
AcDbLine
 10
200.054025
 20
186.648624
 30
0.0
 11
200.296028
 21
186.406621
 31
0.0
  0
LINE
  5
C7
100
AcDbEntity
  8
LAY-1
  6
CONTINUOUS
 62
     1
100
AcDbLine
 10
200.019147
 20
186.28564
 30
0.0
 11
200.265017
 21
186.03977
 31
0.0
  0
LINE
  5
C8
100
AcDbEntity
  8
LAY-1
  6
CONTINUOUS
 62
     1
100
AcDbLine
 10
200.001604
 20
185.905321
 30
0.0
 11
200.156925
 21
185.75
 31
0.0
  0
LINE
  5
C9
100
AcDbEntity
  8
LAY-1
  6
CONTINUOUS
 62
     1
100
AcDbLine
 10
216.216853
 20
189.981057
 30
0.0
 11
216.353153
 21
189.844756
 31
0.0
  0
LINE
  5
CA
100
AcDbEntity
  8
LAY-1
  6
CONTINUOUS
 62
     1
100
AcDbLine
 10
215.914351
 20
189.885696
 30
0.0
 11
216.207841
 21
189.592206
 31
0.0
  0
LINE
  5
CB
100
AcDbEntity
  8
LAY-1
  6
CONTINUOUS
 62
     1
100
AcDbLine
 10
215.61185
 20
189.790335
 30
0.0
 11
216.062528
 21
189.339656
 31
0.0
  0
LINE
  5
CC
100
AcDbEntity
  8
LAY-1
  6
CONTINUOUS
 62
     1
100
AcDbLine
 10
215.309349
 20
189.694973
 30
0.0
 11
215.917216
 21
189.087106
 31
0.0
  0
LINE
  5
CD
100
AcDbEntity
  8
LAY-1
  6
CONTINUOUS
 62
     1
100
AcDbLine
 10
215.006847
 20
189.599612
 30
0.0
 11
215.771903
 21
188.834556
 31
0.0
  0
LINE
  5
CE
100
AcDbEntity
  8
LAY-1
  6
CONTINUOUS
 62
     1
100
AcDbLine
 10
214.704346
 20
189.504251
 30
0.0
 11
215.626591
 21
188.582006
 31
0.0
  0
LINE
  5
CF
100
AcDbEntity
  8
LAY-1
  6
CONTINUOUS
 62
     1
100
AcDbLine
 10
214.401845
 20
189.40889
 30
0.0
 11
215.481279
 21
188.329456
 31
0.0
  0
LINE
  5
D0
100
AcDbEntity
  8
LAY-1
  6
CONTINUOUS
 62
     1
100
AcDbLine
 10
214.099343
 20
189.313529
 30
0.0
 11
215.335966
 21
188.076906
 31
0.0
  0
LINE
  5
D1
100
AcDbEntity
  8
LAY-1
  6
CONTINUOUS
 62
     1
100
AcDbLine
 10
213.701481
 20
189.313529
 30
0.0
 11
215.190654
 21
187.824356
 31
0.0
  0
LINE
  5
D2
100
AcDbEntity
  8
LAY-1
  6
CONTINUOUS
 62
     1
100
AcDbLine
 10
213.303618
 20
189.313529
 30
0.0
 11
215.045341
 21
187.571806
 31
0.0
  0
LINE
  5
D3
100
AcDbEntity
  8
LAY-1
  6
CONTINUOUS
 62
     1
100
AcDbLine
 10
212.905756
 20
189.313529
 30
0.0
 11
214.900029
 21
187.319256
 31
0.0
  0
LINE
  5
D4
100
AcDbEntity
  8
LAY-1
  6
CONTINUOUS
 62
     1
100
AcDbLine
 10
212.507893
 20
189.313529
 30
0.0
 11
214.909445
 21
186.911977
 31
0.0
  0
LINE
  5
D5
100
AcDbEntity
  8
LAY-1
  6
CONTINUOUS
 62
     1
100
AcDbLine
 10
212.110031
 20
189.313529
 30
0.0
 11
214.548235
 21
186.875325
 31
0.0
  0
LINE
  5
D6
100
AcDbEntity
  8
LAY-1
  6
CONTINUOUS
 62
     1
100
AcDbLine
 10
211.712169
 20
189.313529
 30
0.0
 11
214.150373
 21
186.875325
 31
0.0
  0
LINE
  5
D7
100
AcDbEntity
  8
LAY-1
  6
CONTINUOUS
 62
     1
100
AcDbLine
 10
211.314306
 20
189.313529
 30
0.0
 11
213.75251
 21
186.875325
 31
0.0
  0
LINE
  5
D8
100
AcDbEntity
  8
LAY-1
  6
CONTINUOUS
 62
     1
100
AcDbLine
 10
209.775451
 20
190.454521
 30
0.0
 11
210.181159
 21
190.048814
 31
0.0
  0
LINE
  5
D9
100
AcDbEntity
  8
LAY-1
  6
CONTINUOUS
 62
     1
100
AcDbLine
 10
210.916444
 20
189.313529
 30
0.0
 11
213.354648
 21
186.875325
 31
0.0
  0
LINE
  5
DA
100
AcDbEntity
  8
LAY-1
  6
CONTINUOUS
 62
     1
100
AcDbLine
 10
208.834099
 20
190.998012
 30
0.0
 11
209.982228
 21
189.849882
 31
0.0
  0
LINE
  5
DB
100
AcDbEntity
  8
LAY-1
  6
CONTINUOUS
 62
     1
100
AcDbLine
 10
210.518581
 20
189.313529
 30
0.0
 11
212.956785
 21
186.875325
 31
0.0
  0
LINE
  5
DC
100
AcDbEntity
  8
LAY-1
  6
CONTINUOUS
 62
     1
100
AcDbLine
 10
207.892746
 20
191.541502
 30
0.0
 11
209.783297
 21
189.650951
 31
0.0
  0
LINE
  5
DD
100
AcDbEntity
  8
LAY-1
  6
CONTINUOUS
 62
     1
100
AcDbLine
 10
210.120719
 20
189.313529
 30
0.0
 11
212.558923
 21
186.875325
 31
0.0
  0
LINE
  5
DE
100
AcDbEntity
  8
LAY-1
  6
CONTINUOUS
 62
     1
100
AcDbLine
 10
206.951393
 20
192.084992
 30
0.0
 11
212.16106
 21
186.875325
 31
0.0
  0
LINE
  5
DF
100
AcDbEntity
  8
LAY-1
  6
CONTINUOUS
 62
     1
100
AcDbLine
 10
207.456262
 20
191.182261
 30
0.0
 11
211.763198
 21
186.875325
 31
0.0
  0
LINE
  5
E0
100
AcDbEntity
  8
LAY-1
  6
CONTINUOUS
 62
     1
100
AcDbLine
 10
207.5
 20
190.74066
 30
0.0
 11
211.365335
 21
186.875325
 31
0.0
  0
LINE
  5
E1
100
AcDbEntity
  8
LAY-1
  6
CONTINUOUS
 62
     1
100
AcDbLine
 10
207.5
 20
190.342798
 30
0.0
 11
210.967473
 21
186.875325
 31
0.0
  0
LINE
  5
E2
100
AcDbEntity
  8
LAY-1
  6
CONTINUOUS
 62
     1
100
AcDbLine
 10
207.5
 20
189.944936
 30
0.0
 11
210.569611
 21
186.875325
 31
0.0
  0
LINE
  5
E3
100
AcDbEntity
  8
LAY-1
  6
CONTINUOUS
 62
     1
100
AcDbLine
 10
207.5
 20
189.547073
 30
0.0
 11
210.171748
 21
186.875325
 31
0.0
  0
LINE
  5
E4
100
AcDbEntity
  8
LAY-1
  6
CONTINUOUS
 62
     1
100
AcDbLine
 10
207.335682
 20
189.313529
 30
0.0
 11
209.773886
 21
186.875325
 31
0.0
  0
LINE
  5
E5
100
AcDbEntity
  8
LAY-1
  6
CONTINUOUS
 62
     1
100
AcDbLine
 10
206.937819
 20
189.313529
 30
0.0
 11
209.727206
 21
186.524143
 31
0.0
  0
LINE
  5
E6
100
AcDbEntity
  8
LAY-1
  6
CONTINUOUS
 62
     1
100
AcDbLine
 10
206.539957
 20
189.313529
 30
0.0
 11
209.727206
 21
186.12628
 31
0.0
  0
LINE
  5
E7
100
AcDbEntity
  8
LAY-1
  6
CONTINUOUS
 62
     1
100
AcDbLine
 10
206.142094
 20
189.313529
 30
0.0
 11
209.727206
 21
185.728418
 31
0.0
  0
LINE
  5
E8
100
AcDbEntity
  8
LAY-1
  6
CONTINUOUS
 62
     1
100
AcDbLine
 10
205.744232
 20
189.313529
 30
0.0
 11
209.727206
 21
185.330555
 31
0.0
  0
LINE
  5
E9
100
AcDbEntity
  8
LAY-1
  6
CONTINUOUS
 62
     1
100
AcDbLine
 10
205.346369
 20
189.313529
 30
0.0
 11
209.727206
 21
184.932693
 31
0.0
  0
LINE
  5
EA
100
AcDbEntity
  8
LAY-1
  6
CONTINUOUS
 62
     1
100
AcDbLine
 10
204.077137
 20
190.184899
 30
0.0
 11
204.190426
 21
190.07161
 31
0.0
  0
LINE
  5
EB
100
AcDbEntity
  8
LAY-1
  6
CONTINUOUS
 62
     1
100
AcDbLine
 10
204.948507
 20
189.313529
 30
0.0
 11
207.386711
 21
186.875325
 31
0.0
  0
LINE
  5
EC
100
AcDbEntity
  8
LAY-1
  6
CONTINUOUS
 62
     1
100
AcDbLine
 10
207.5
 20
186.762036
 30
0.0
 11
209.727206
 21
184.53483
 31
0.0
  0
LINE
  5
ED
100
AcDbEntity
  8
LAY-1
  6
CONTINUOUS
 62
     1
100
AcDbLine
 10
204.077137
 20
189.787037
 30
0.0
 11
206.988849
 21
186.875325
 31
0.0
  0
LINE
  5
EE
100
AcDbEntity
  8
LAY-1
  6
CONTINUOUS
 62
     1
100
AcDbLine
 10
207.5
 20
186.364173
 30
0.0
 11
209.727206
 21
184.136968
 31
0.0
  0
LINE
  5
EF
100
AcDbEntity
  8
LAY-1
  6
CONTINUOUS
 62
     1
100
AcDbLine
 10
204.077137
 20
189.389174
 30
0.0
 11
206.590986
 21
186.875325
 31
0.0
  0
LINE
  5
F0
100
AcDbEntity
  8
LAY-1
  6
CONTINUOUS
 62
     1
100
AcDbLine
 10
207.5
 20
185.966311
 30
0.0
 11
209.727206
 21
183.739105
 31
0.0
  0
LINE
  5
F1
100
AcDbEntity
  8
LAY-1
  6
CONTINUOUS
 62
     1
100
AcDbLine
 10
204.077137
 20
188.991312
 30
0.0
 11
206.193124
 21
186.875325
 31
0.0
  0
LINE
  5
F2
100
AcDbEntity
  8
LAY-1
  6
CONTINUOUS
 62
     1
100
AcDbLine
 10
207.318449
 20
185.75
 30
0.0
 11
209.727206
 21
183.341243
 31
0.0
  0
LINE
  5
F3
100
AcDbEntity
  8
LAY-1
  6
CONTINUOUS
 62
     1
100
AcDbLine
 10
204.077137
 20
188.593449
 30
0.0
 11
205.795261
 21
186.875325
 31
0.0
  0
LINE
  5
F4
100
AcDbEntity
  8
LAY-1
  6
CONTINUOUS
 62
     1
100
AcDbLine
 10
206.920586
 20
185.75
 30
0.0
 11
209.727206
 21
182.943381
 31
0.0
  0
LINE
  5
F5
100
AcDbEntity
  8
LAY-1
  6
CONTINUOUS
 62
     1
100
AcDbLine
 10
204.077137
 20
188.195587
 30
0.0
 11
205.397399
 21
186.875325
 31
0.0
  0
LINE
  5
F6
100
AcDbEntity
  8
LAY-1
  6
CONTINUOUS
 62
     1
100
AcDbLine
 10
206.522724
 20
185.75
 30
0.0
 11
209.727206
 21
182.545518
 31
0.0
  0
LINE
  5
F7
100
AcDbEntity
  8
LAY-1
  6
CONTINUOUS
 62
     1
100
AcDbLine
 10
204.077137
 20
187.797725
 30
0.0
 11
204.999536
 21
186.875325
 31
0.0
  0
LINE
  5
F8
100
AcDbEntity
  8
LAY-1
  6
CONTINUOUS
 62
     1
100
AcDbLine
 10
206.124861
 20
185.75
 30
0.0
 11
209.727206
 21
182.147656
 31
0.0
  0
LINE
  5
F9
100
AcDbEntity
  8
LAY-1
  6
CONTINUOUS
 62
     1
100
AcDbLine
 10
204.077137
 20
187.399862
 30
0.0
 11
204.601674
 21
186.875325
 31
0.0
  0
LINE
  5
FA
100
AcDbEntity
  8
LAY-1
  6
CONTINUOUS
 62
     1
100
AcDbLine
 10
205.726999
 20
185.75
 30
0.0
 11
210.191382
 21
181.285617
 31
0.0
  0
LINE
  5
FB
100
AcDbEntity
  8
LAY-1
  6
CONTINUOUS
 62
     1
100
AcDbLine
 10
204.077137
 20
187.002
 30
0.0
 11
204.45818
 21
186.620956
 31
0.0
  0
LINE
  5
FC
100
AcDbEntity
  8
LAY-1
  6
CONTINUOUS
 62
     1
100
AcDbLine
 10
205.329136
 20
185.75
 30
0.0
 11
209.939148
 21
181.139989
 31
0.0
  0
LINE
  5
FD
100
AcDbEntity
  8
LAY-1
  6
CONTINUOUS
 62
     1
100
AcDbLine
 10
204.077137
 20
186.604137
 30
0.0
 11
204.337091
 21
186.344182
 31
0.0
  0
LINE
  5
FE
100
AcDbEntity
  8
LAY-1
  6
CONTINUOUS
 62
     1
100
AcDbLine
 10
204.931274
 20
185.75
 30
0.0
 11
209.686913
 21
180.994361
 31
0.0
  0
LINE
  5
FF
100
AcDbEntity
  8
LAY-1
  6
CONTINUOUS
 62
     1
100
AcDbLine
 10
204.077137
 20
186.206275
 30
0.0
 11
204.216003
 21
186.067409
 31
0.0
  0
LINE
  5
100
100
AcDbEntity
  8
LAY-1
  6
CONTINUOUS
 62
     1
100
AcDbLine
 10
204.533411
 20
185.75
 30
0.0
 11
207.299835
 21
182.983576
 31
0.0
  0
LINE
  5
101
100
AcDbEntity
  8
LAY-1
  6
CONTINUOUS
 62
     1
100
AcDbLine
 10
207.5
 20
182.783411
 30
0.0
 11
209.434678
 21
180.848733
 31
0.0
  0
LINE
  5
102
100
AcDbEntity
  8
LAY-1
  6
CONTINUOUS
 62
     1
100
AcDbLine
 10
204.077137
 20
185.808412
 30
0.0
 11
204.094914
 21
185.790635
 31
0.0
  0
LINE
  5
103
100
AcDbEntity
  8
LAY-1
  6
CONTINUOUS
 62
     1
100
AcDbLine
 10
204.135549
 20
185.75
 30
0.0
 11
206.901973
 21
182.983576
 31
0.0
  0
LINE
  5
104
100
AcDbEntity
  8
LAY-1
  6
CONTINUOUS
 62
     1
100
AcDbLine
 10
207.5
 20
182.385549
 30
0.0
 11
209.182444
 21
180.703105
 31
0.0
  0
LINE
  5
105
100
AcDbEntity
  8
LAY-1
  6
CONTINUOUS
 62
     1
100
AcDbLine
 10
203.737687
 20
185.75
 30
0.0
 11
206.50411
 21
182.983576
 31
0.0
  0
LINE
  5
106
100
AcDbEntity
  8
LAY-1
  6
CONTINUOUS
 62
     1
100
AcDbLine
 10
207.5
 20
181.987687
 30
0.0
 11
208.930209
 21
180.557478
 31
0.0
  0
LINE
  5
107
100
AcDbEntity
  8
LAY-1
  6
CONTINUOUS
 62
     1
100
AcDbLine
 10
203.339824
 20
185.75
 30
0.0
 11
206.106248
 21
182.983576
 31
0.0
  0
LINE
  5
108
100
AcDbEntity
  8
LAY-1
  6
CONTINUOUS
 62
     1
100
AcDbLine
 10
207.5
 20
181.589824
 30
0.0
 11
208.677974
 21
180.41185
 31
0.0
  0
LINE
  5
109
100
AcDbEntity
  8
LAY-1
  6
CONTINUOUS
 62
     1
100
AcDbLine
 10
202.941962
 20
185.75
 30
0.0
 11
205.708385
 21
182.983576
 31
0.0
  0
LINE
  5
10A
100
AcDbEntity
  8
LAY-1
  6
CONTINUOUS
 62
     1
100
AcDbLine
 10
207.5
 20
181.191962
 30
0.0
 11
208.425739
 21
180.266222
 31
0.0
  0
LINE
  5
10B
100
AcDbEntity
  8
LAY-1
  6
CONTINUOUS
 62
     1
100
AcDbLine
 10
202.544099
 20
185.75
 30
0.0
 11
205.310523
 21
182.983576
 31
0.0
  0
LINE
  5
10C
100
AcDbEntity
  8
LAY-1
  6
CONTINUOUS
 62
     1
100
AcDbLine
 10
207.5
 20
180.794099
 30
0.0
 11
208.173505
 21
180.120594
 31
0.0
  0
LINE
  5
10D
100
AcDbEntity
  8
LAY-1
  6
CONTINUOUS
 62
     1
100
AcDbLine
 10
202.146237
 20
185.75
 30
0.0
 11
204.912661
 21
182.983576
 31
0.0
  0
LINE
  5
10E
100
AcDbEntity
  8
LAY-1
  6
CONTINUOUS
 62
     1
100
AcDbLine
 10
207.5
 20
180.396237
 30
0.0
 11
207.92127
 21
179.974967
 31
0.0
  0
LINE
  5
10F
100
AcDbEntity
  8
LAY-1
  6
CONTINUOUS
 62
     1
100
AcDbLine
 10
201.748374
 20
185.75
 30
0.0
 11
204.514798
 21
182.983576
 31
0.0
  0
LINE
  5
110
100
AcDbEntity
  8
LAY-1
  6
CONTINUOUS
 62
     1
100
AcDbLine
 10
207.355375
 20
180.142999
 30
0.0
 11
207.669035
 21
179.829339
 31
0.0
  0
LINE
  5
111
100
AcDbEntity
  8
LAY-1
  6
CONTINUOUS
 62
     1
100
AcDbLine
 10
201.350512
 20
185.75
 30
0.0
 11
204.116936
 21
182.983576
 31
0.0
  0
LINE
  5
112
100
AcDbEntity
  8
LAY-1
  6
CONTINUOUS
 62
     1
100
AcDbLine
 10
207.209748
 20
179.890764
 30
0.0
 11
207.416801
 21
179.683711
 31
0.0
  0
LINE
  5
113
100
AcDbEntity
  8
LAY-1
  6
CONTINUOUS
 62
     1
100
AcDbLine
 10
200.952649
 20
185.75
 30
0.0
 11
203.719073
 21
182.983576
 31
0.0
  0
LINE
  5
114
100
AcDbEntity
  8
LAY-1
  6
CONTINUOUS
 62
     1
100
AcDbLine
 10
207.06412
 20
179.638529
 30
0.0
 11
207.164566
 21
179.538083
 31
0.0
  0
LINE
  5
115
100
AcDbEntity
  8
LAY-1
  6
CONTINUOUS
 62
     1
100
AcDbLine
 10
200.554787
 20
185.75
 30
0.0
 11
203.321211
 21
182.983576
 31
0.0
  0
LINE
  5
116
100
AcDbEntity
  8
LAY-1
  6
CONTINUOUS
 62
     1
100
AcDbLine
 10
200.156925
 20
185.75
 30
0.0
 11
202.923348
 21
182.983576
 31
0.0
  0
LINE
  5
117
100
AcDbEntity
  8
LAY-1
  6
CONTINUOUS
 62
     1
100
AcDbLine
 10
199.271061
 20
186.238001
 30
0.0
 11
202.525486
 21
182.983576
 31
0.0
  0
LINE
  5
118
100
AcDbEntity
  8
LAY-1
  6
CONTINUOUS
 62
     1
100
AcDbLine
 10
199.271061
 20
185.840138
 30
0.0
 11
202.127623
 21
182.983576
 31
0.0
  0
LINE
  5
119
100
AcDbEntity
  8
LAY-1
  6
CONTINUOUS
 62
     1
100
AcDbLine
 10
199.271061
 20
185.442276
 30
0.0
 11
201.729761
 21
182.983576
 31
0.0
  0
LINE
  5
11A
100
AcDbEntity
  8
LAY-1
  6
CONTINUOUS
 62
     1
100
AcDbLine
 10
199.271061
 20
185.044413
 30
0.0
 11
201.331899
 21
182.983576
 31
0.0
  0
LINE
  5
11B
100
AcDbEntity
  8
LAY-1
  6
CONTINUOUS
 62
     1
100
AcDbLine
 10
199.271061
 20
184.646551
 30
0.0
 11
200.934036
 21
182.983576
 31
0.0
  0
LINE
  5
11C
100
AcDbEntity
  8
LAY-1
  6
CONTINUOUS
 62
     1
100
AcDbLine
 10
199.271061
 20
184.248688
 30
0.0
 11
200.536174
 21
182.983576
 31
0.0
  0
LINE
  5
11D
100
AcDbEntity
  8
LAY-1
  6
CONTINUOUS
 62
     1
100
AcDbLine
 10
199.271061
 20
183.850826
 30
0.0
 11
200.138311
 21
182.983576
 31
0.0
  0
LINE
  5
11E
100
AcDbEntity
  8
LAY-1
  6
CONTINUOUS
 62
     1
100
AcDbLine
 10
199.271061
 20
183.452964
 30
0.0
 11
199.852487
 21
182.871538
 31
0.0
  0
LINE
  5
11F
100
AcDbEntity
  8
LAY-1
  6
CONTINUOUS
 62
     1
100
AcDbLine
 10
199.271061
 20
183.055101
 30
0.0
 11
199.66639
 21
182.659772
 31
0.0
  0
LINE
  5
120
100
AcDbEntity
  8
LAY-1
  6
CONTINUOUS
 62
     1
100
AcDbLine
 10
199.271061
 20
182.657239
 30
0.0
 11
199.480293
 21
182.448007
 31
0.0
  0
LINE
  5
121
100
AcDbEntity
  8
LAY-1
  6
CONTINUOUS
 62
     1
100
AcDbLine
 10
199.271061
 20
182.259376
 30
0.0
 11
199.294196
 21
182.236241
 31
0.0
  0
LINE
  5
122
100
AcDbEntity
  8
LAY-1
  6
CONTINUOUS
 62
     1
100
AcDbLine
 10
214.903993
 20
186.917429
 30
0.0
 11
214.909445
 21
186.911977
 31
0.0
  0
LINE
  5
123
100
AcDbEntity
  8
LAY-1
  6
CONTINUOUS
 62
     1
100
AcDbLine
 10
214.672327
 20
186.751233
 30
0.0
 11
214.966612
 21
186.456948
 31
0.0
  0
LINE
  5
124
100
AcDbEntity
  8
LAY-1
  6
CONTINUOUS
 62
     1
100
AcDbLine
 10
214.721421
 20
186.304276
 30
0.0
 11
214.99474
 21
186.030957
 31
0.0
  0
LINE
  5
125
100
AcDbEntity
  8
LAY-1
  6
CONTINUOUS
 62
     1
100
AcDbLine
 10
214.742939
 20
185.884896
 30
0.0
 11
214.999025
 21
185.62881
 31
0.0
  0
LINE
  5
126
100
AcDbEntity
  8
LAY-1
  6
CONTINUOUS
 62
     1
100
AcDbLine
 10
214.736676
 20
185.493296
 30
0.0
 11
214.983109
 21
185.246863
 31
0.0
  0
LINE
  5
127
100
AcDbEntity
  8
LAY-1
  6
CONTINUOUS
 62
     1
100
AcDbLine
 10
214.70749
 20
185.12462
 30
0.0
 11
214.94966
 21
184.882451
 31
0.0
  0
LINE
  5
128
100
AcDbEntity
  8
LAY-1
  6
CONTINUOUS
 62
     1
100
AcDbLine
 10
214.65879
 20
184.775457
 30
0.0
 11
214.900697
 21
184.53355
 31
0.0
  0
LINE
  5
129
100
AcDbEntity
  8
LAY-1
  6
CONTINUOUS
 62
     1
100
AcDbLine
 10
214.59308
 20
184.443305
 30
0.0
 11
214.837793
 21
184.198592
 31
0.0
  0
LINE
  5
12A
100
AcDbEntity
  8
LAY-1
  6
CONTINUOUS
 62
     1
100
AcDbLine
 10
214.512254
 20
184.126269
 30
0.0
 11
214.762192
 21
183.876331
 31
0.0
  0
LINE
  5
12B
100
AcDbEntity
  8
LAY-1
  6
CONTINUOUS
 62
     1
100
AcDbLine
 10
214.417782
 20
183.822878
 30
0.0
 11
214.674899
 21
183.565762
 31
0.0
  0
LINE
  5
12C
100
AcDbEntity
  8
LAY-1
  6
CONTINUOUS
 62
     1
100
AcDbLine
 10
214.31083
 20
183.531968
 30
0.0
 11
214.576732
 21
183.266066
 31
0.0
  0
LINE
  5
12D
100
AcDbEntity
  8
LAY-1
  6
CONTINUOUS
 62
     1
100
AcDbLine
 10
214.192332
 20
183.252603
 30
0.0
 11
214.468367
 21
182.976568
 31
0.0
  0
LINE
  5
12E
100
AcDbEntity
  8
LAY-1
  6
CONTINUOUS
 62
     1
100
AcDbLine
 10
214.063048
 20
182.984025
 30
0.0
 11
214.350364
 21
182.696709
 31
0.0
  0
LINE
  5
12F
100
AcDbEntity
  8
LAY-1
  6
CONTINUOUS
 62
     1
100
AcDbLine
 10
213.923597
 20
182.725613
 30
0.0
 11
214.223187
 21
182.426023
 31
0.0
  0
LINE
  5
130
100
AcDbEntity
  8
LAY-1
  6
CONTINUOUS
 62
     1
100
AcDbLine
 10
213.77449
 20
182.476858
 30
0.0
 11
214.087226
 21
182.164122
 31
0.0
  0
LINE
  5
131
100
AcDbEntity
  8
LAY-1
  6
CONTINUOUS
 62
     1
100
AcDbLine
 10
213.616146
 20
182.23734
 30
0.0
 11
213.942803
 21
181.910683
 31
0.0
  0
LINE
  5
132
100
AcDbEntity
  8
LAY-1
  6
CONTINUOUS
 62
     1
100
AcDbLine
 10
213.448905
 20
182.006718
 30
0.0
 11
213.790185
 21
181.665438
 31
0.0
  0
LINE
  5
133
100
AcDbEntity
  8
LAY-1
  6
CONTINUOUS
 62
     1
100
AcDbLine
 10
213.273046
 20
181.784715
 30
0.0
 11
213.629589
 21
181.428171
 31
0.0
  0
LINE
  5
134
100
AcDbEntity
  8
LAY-1
  6
CONTINUOUS
 62
     1
100
AcDbLine
 10
213.088788
 20
181.57111
 30
0.0
 11
213.461191
 21
181.198707
 31
0.0
  0
LINE
  5
135
100
AcDbEntity
  8
LAY-1
  6
CONTINUOUS
 62
     1
100
AcDbLine
 10
212.896303
 20
181.365733
 30
0.0
 11
213.285126
 21
180.97691
 31
0.0
  0
LINE
  5
136
100
AcDbEntity
  8
LAY-1
  6
CONTINUOUS
 62
     1
100
AcDbLine
 10
212.695713
 20
181.168461
 30
0.0
 11
213.101493
 21
180.762681
 31
0.0
  0
LINE
  5
137
100
AcDbEntity
  8
LAY-1
  6
CONTINUOUS
 62
     1
100
AcDbLine
 10
212.4871
 20
180.979211
 30
0.0
 11
212.910357
 21
180.555954
 31
0.0
  0
LINE
  5
138
100
AcDbEntity
  8
LAY-1
  6
CONTINUOUS
 62
     1
100
AcDbLine
 10
212.270507
 20
180.797942
 30
0.0
 11
212.711752
 21
180.356697
 31
0.0
  0
LINE
  5
139
100
AcDbEntity
  8
LAY-1
  6
CONTINUOUS
 62
     1
100
AcDbLine
 10
212.045934
 20
180.624652
 30
0.0
 11
212.505678
 21
180.164908
 31
0.0
  0
LINE
  5
13A
100
AcDbEntity
  8
LAY-1
  6
CONTINUOUS
 62
     1
100
AcDbLine
 10
211.813343
 20
180.459381
 30
0.0
 11
212.292107
 21
179.980617
 31
0.0
  0
LINE
  5
13B
100
AcDbEntity
  8
LAY-1
  6
CONTINUOUS
 62
     1
100
AcDbLine
 10
211.572657
 20
180.302204
 30
0.0
 11
212.070974
 21
179.803887
 31
0.0
  0
LINE
  5
13C
100
AcDbEntity
  8
LAY-1
  6
CONTINUOUS
 62
     1
100
AcDbLine
 10
211.323756
 20
180.153243
 30
0.0
 11
211.842185
 21
179.634814
 31
0.0
  0
LINE
  5
13D
100
AcDbEntity
  8
LAY-1
  6
CONTINUOUS
 62
     1
100
AcDbLine
 10
211.066473
 20
180.012663
 30
0.0
 11
211.605606
 21
179.47353
 31
0.0
  0
LINE
  5
13E
100
AcDbEntity
  8
LAY-1
  6
CONTINUOUS
 62
     1
100
AcDbLine
 10
210.800593
 20
179.880681
 30
0.0
 11
211.361067
 21
179.320207
 31
0.0
  0
LINE
  5
13F
100
AcDbEntity
  8
LAY-1
  6
CONTINUOUS
 62
     1
100
AcDbLine
 10
210.525843
 20
179.757568
 30
0.0
 11
211.108353
 21
179.175058
 31
0.0
  0
LINE
  5
140
100
AcDbEntity
  8
LAY-1
  6
CONTINUOUS
 62
     1
100
AcDbLine
 10
210.241889
 20
179.64366
 30
0.0
 11
210.847203
 21
179.038346
 31
0.0
  0
LINE
  5
141
100
AcDbEntity
  8
LAY-1
  6
CONTINUOUS
 62
     1
100
AcDbLine
 10
209.948318
 20
179.539369
 30
0.0
 11
210.577299
 21
178.910387
 31
0.0
  0
LINE
  5
142
100
AcDbEntity
  8
LAY-1
  6
CONTINUOUS
 62
     1
100
AcDbLine
 10
209.64463
 20
179.445194
 30
0.0
 11
210.298259
 21
178.791565
 31
0.0
  0
LINE
  5
143
100
AcDbEntity
  8
LAY-1
  6
CONTINUOUS
 62
     1
100
AcDbLine
 10
209.330214
 20
179.361748
 30
0.0
 11
210.009624
 21
178.682337
 31
0.0
  0
LINE
  5
144
100
AcDbEntity
  8
LAY-1
  6
CONTINUOUS
 62
     1
100
AcDbLine
 10
209.004326
 20
179.289774
 30
0.0
 11
209.710844
 21
178.583255
 31
0.0
  0
LINE
  5
145
100
AcDbEntity
  8
LAY-1
  6
CONTINUOUS
 62
     1
100
AcDbLine
 10
208.666046
 20
179.230191
 30
0.0
 11
209.401256
 21
178.494981
 31
0.0
  0
LINE
  5
146
100
AcDbEntity
  8
LAY-1
  6
CONTINUOUS
 62
     1
100
AcDbLine
 10
208.314234
 20
179.18414
 30
0.0
 11
209.080052
 21
178.418322
 31
0.0
  0
LINE
  5
147
100
AcDbEntity
  8
LAY-1
  6
CONTINUOUS
 62
     1
100
AcDbLine
 10
207.94745
 20
179.153062
 30
0.0
 11
208.746249
 21
178.354263
 31
0.0
  0
LINE
  5
148
100
AcDbEntity
  8
LAY-1
  6
CONTINUOUS
 62
     1
100
AcDbLine
 10
207.563841
 20
179.138809
 30
0.0
 11
208.398624
 21
178.304025
 31
0.0
  0
LINE
  5
149
100
AcDbEntity
  8
LAY-1
  6
CONTINUOUS
 62
     1
100
AcDbLine
 10
207.160968
 20
179.143819
 30
0.0
 11
208.03564
 21
178.269147
 31
0.0
  0
LINE
  5
14A
100
AcDbEntity
  8
LAY-1
  6
CONTINUOUS
 62
     1
100
AcDbLine
 10
206.735517
 20
179.171408
 30
0.0
 11
207.655321
 21
178.251604
 31
0.0
  0
LINE
  5
14B
100
AcDbEntity
  8
LAY-1
  6
CONTINUOUS
 62
     1
100
AcDbLine
 10
206.282789
 20
179.226273
 30
0.0
 11
207.255066
 21
178.253996
 31
0.0
  0
LINE
  5
14C
100
AcDbEntity
  8
LAY-1
  6
CONTINUOUS
 62
     1
100
AcDbLine
 10
205.795734
 20
179.315465
 30
0.0
 11
206.831338
 21
178.279862
 31
0.0
  0
LINE
  5
14D
100
AcDbEntity
  8
LAY-1
  6
CONTINUOUS
 62
     1
100
AcDbLine
 10
205.262876
 20
179.450462
 30
0.0
 11
206.379109
 21
178.334228
 31
0.0
  0
LINE
  5
14E
100
AcDbEntity
  8
LAY-1
  6
CONTINUOUS
 62
     1
100
AcDbLine
 10
204.662988
 20
179.652487
 30
0.0
 11
205.890814
 21
178.424661
 31
0.0
  0
LINE
  5
14F
100
AcDbEntity
  8
LAY-1
  6
CONTINUOUS
 62
     1
100
AcDbLine
 10
203.94671
 20
179.970903
 30
0.0
 11
205.354058
 21
178.563554
 31
0.0
  0
LINE
  5
150
100
AcDbEntity
  8
LAY-1
  6
CONTINUOUS
 62
     1
100
AcDbLine
 10
200.536174
 20
182.983576
 30
0.0
 11
201.489391
 21
182.030359
 31
0.0
  0
LINE
  5
151
100
AcDbEntity
  8
LAY-1
  6
CONTINUOUS
 62
     1
100
AcDbLine
 10
202.899407
 20
180.620343
 30
0.0
 11
204.745703
 21
178.774047
 31
0.0
  0
LINE
  5
152
100
AcDbEntity
  8
LAY-1
  6
CONTINUOUS
 62
     1
100
AcDbLine
 10
200.861025
 20
182.260862
 30
0.0
 11
204.010862
 21
179.111025
 31
0.0
  0
LINE
  5
153
100
AcDbEntity
  8
LAY-1
  6
CONTINUOUS
 62
     1
100
AcDbLine
 10
201.584328
 20
181.139697
 30
0.0
 11
202.889697
 21
179.834328
 31
0.0
  0
LINE
  5
154
100
AcDbEntity
  8
LAY-1
  6
CONTINUOUS
 62
     2
100
AcDbLine
 10
145.0
 20
290.25
 30
0.0
 11
207.5
 21
290.25
 31
0.0
  0
LINE
  5
155
100
AcDbEntity
  8
LAY-1
  6
CONTINUOUS
 62
     2
100
AcDbLine
 10
174.0
 20
291.25
 30
0.0
 11
207.5
 21
291.25
 31
0.0
  0
LINE
  5
156
100
AcDbEntity
  8
LAY-1
  6
CONTINUOUS
 62
     2
100
AcDbLine
 10
174.0
 20
290.25
 30
0.0
 11
174.0
 21
291.25
 31
0.0
  0
ARC
  5
157
100
AcDbEntity
  8
LAY-1
  6
CONTINUOUS
 62
     2
100
AcDbCircle
 10
147.0
 20
277.215395
 30
0.0
 40
2.0
100
AcDbArc
 50
180.0
 51
269.0
  0
LINE
  5
158
100
AcDbEntity
  8
LAY-1
  6
CONTINUOUS
 62
     2
100
AcDbLine
 10
146.965095
 20
275.215699
 30
0.0
 11
207.5
 21
274.159058
 31
0.0
  0
ARC
  5
159
100
AcDbEntity
  8
LAY-1
  6
CONTINUOUS
 62
     2
100
AcDbCircle
 10
522.953766
 20
148.75
 30
0.0
 40
357.0
100
AcDbArc
 50
162.072371
 51
162.170214
  0
LINE
  5
15A
100
AcDbEntity
  8
LAY-1
  6
CONTINUOUS
 62
     2
100
AcDbLine
 10
207.5
 20
261.430432
 30
0.0
 11
187.5
 21
261.430432
 31
0.0
  0
ARC
  5
15B
100
AcDbEntity
  8
LAY-1
  6
CONTINUOUS
 62
     2
100
AcDbCircle
 10
173.773054
 20
261.718272
 30
0.0
 40
10.0
100
AcDbArc
 50
342.072371
 51
15.0
  0
LINE
  5
15C
100
AcDbEntity
  8
LAY-1
  6
CONTINUOUS
 62
     2
100
AcDbLine
 10
181.641987
 20
270.988047
 30
0.0
 11
183.432312
 21
264.306463
 31
0.0
  0
ARC
  5
15D
100
AcDbEntity
  8
LAY-1
  6
CONTINUOUS
 62
     2
100
AcDbCircle
 10
176.812358
 20
269.693952
 30
0.0
 40
5.0
100
AcDbArc
 50
15.0
 51
89.0
  0
LINE
  5
15E
100
AcDbEntity
  8
LAY-1
  6
CONTINUOUS
 62
     2
100
AcDbLine
 10
145.0
 20
290.25
 30
0.0
 11
145.0
 21
277.215395
 31
0.0
  0
ARC
  5
15F
100
AcDbEntity
  8
LAY-1
  6
CONTINUOUS
 62
     2
100
AcDbCircle
 10
-107.953766
 20
148.75
 30
0.0
 40
357.0
100
AcDbArc
 50
17.829786
 51
17.927629
  0
LINE
  5
160
100
AcDbEntity
  8
LAY-1
  6
CONTINUOUS
 62
     2
100
AcDbLine
 10
241.0
 20
290.25
 30
0.0
 11
241.0
 21
291.25
 31
0.0
  0
LINE
  5
161
100
AcDbEntity
  8
LAY-1
  6
CONTINUOUS
 62
     2
100
AcDbLine
 10
270.0
 20
290.25
 30
0.0
 11
207.5
 21
290.25
 31
0.0
  0
LINE
  5
162
100
AcDbEntity
  8
LAY-1
  6
CONTINUOUS
 62
     2
100
AcDbLine
 10
241.0
 20
291.25
 30
0.0
 11
207.5
 21
291.25
 31
0.0
  0
ARC
  5
163
100
AcDbEntity
  8
LAY-1
  6
CONTINUOUS
 62
     2
100
AcDbCircle
 10
268.0
 20
277.215395
 30
0.0
 40
2.0
100
AcDbArc
 50
271.0
 51
0.0
  0
LINE
  5
164
100
AcDbEntity
  8
LAY-1
  6
CONTINUOUS
 62
     2
100
AcDbLine
 10
268.034905
 20
275.215699
 30
0.0
 11
207.5
 21
274.159058
 31
0.0
  0
LINE
  5
165
100
AcDbEntity
  8
LAY-1
  6
CONTINUOUS
 62
     2
100
AcDbLine
 10
207.5
 20
261.430432
 30
0.0
 11
227.5
 21
261.430432
 31
0.0
  0
ARC
  5
166
100
AcDbEntity
  8
LAY-1
  6
CONTINUOUS
 62
     2
100
AcDbCircle
 10
241.226946
 20
261.718272
 30
0.0
 40
10.0
100
AcDbArc
 50
165.0
 51
197.927629
  0
LINE
  5
167
100
AcDbEntity
  8
LAY-1
  6
CONTINUOUS
 62
     2
100
AcDbLine
 10
233.358013
 20
270.988047
 30
0.0
 11
231.567688
 21
264.306463
 31
0.0
  0
ARC
  5
168
100
AcDbEntity
  8
LAY-1
  6
CONTINUOUS
 62
     2
100
AcDbCircle
 10
238.187642
 20
269.693952
 30
0.0
 40
5.0
100
AcDbArc
 50
91.0
 51
165.0
  0
LINE
  5
169
100
AcDbEntity
  8
LAY-1
  6
CONTINUOUS
 62
     2
100
AcDbLine
 10
270.0
 20
290.25
 30
0.0
 11
270.0
 21
277.215395
 31
0.0
  0
LINE
  5
16A
100
AcDbEntity
  8
LAY-1
  6
CONTINUOUS
 62
     2
100
AcDbLine
 10
270.0
 20
6.25
 30
0.0
 11
270.0
 21
18.284605
 31
0.0
  0
LINE
  5
16B
100
AcDbEntity
  8
LAY-1
  6
CONTINUOUS
 62
     2
100
AcDbLine
 10
270.0
 20
6.25
 30
0.0
 11
207.5
 21
6.25
 31
0.0
  0
LINE
  5
16C
100
AcDbEntity
  8
LAY-1
  6
CONTINUOUS
 62
     2
100
AcDbLine
 10
207.5
 20
21.340942
 30
0.0
 11
268.034905
 21
20.284301
 31
0.0
  0
ARC
  5
16D
100
AcDbEntity
  8
LAY-1
  6
CONTINUOUS
 62
     2
100
AcDbCircle
 10
268.0
 20
18.284605
 30
0.0
 40
2.0
100
AcDbArc
 50
0.0
 51
89.0
  0
ARC
  5
16E
100
AcDbEntity
  8
LAY-1
  6
CONTINUOUS
 62
     2
100
AcDbCircle
 10
237.5
 20
23.817747
 30
0.0
 40
3.0
100
AcDbArc
 50
180.0
 51
269.0
  0
LINE
  5
16F
100
AcDbEntity
  8
LAY-1
  6
CONTINUOUS
 62
     2
100
AcDbLine
 10
234.5
 20
40.053174
 30
0.0
 11
234.5
 21
23.817747
 31
0.0
  0
LINE
  5
170
100
AcDbEntity
  8
LAY-1
  6
CONTINUOUS
 62
     2
100
AcDbLine
 10
145.0
 20
6.25
 30
0.0
 11
145.0
 21
18.284605
 31
0.0
  0
LINE
  5
171
100
AcDbEntity
  8
LAY-1
  6
CONTINUOUS
 62
     2
100
AcDbLine
 10
145.0
 20
6.25
 30
0.0
 11
207.5
 21
6.25
 31
0.0
  0
LINE
  5
172
100
AcDbEntity
  8
LAY-1
  6
CONTINUOUS
 62
     2
100
AcDbLine
 10
207.5
 20
21.340942
 30
0.0
 11
146.965095
 21
20.284301
 31
0.0
  0
ARC
  5
173
100
AcDbEntity
  8
LAY-1
  6
CONTINUOUS
 62
     2
100
AcDbCircle
 10
147.0
 20
18.284605
 30
0.0
 40
2.0
100
AcDbArc
 50
91.0
 51
180.0
  0
ARC
  5
174
100
AcDbEntity
  8
LAY-1
  6
CONTINUOUS
 62
     2
100
AcDbCircle
 10
177.5
 20
23.817747
 30
0.0
 40
3.0
100
AcDbArc
 50
271.0
 51
0.0
  0
LINE
  5
175
100
AcDbEntity
  8
LAY-1
  6
CONTINUOUS
 62
     2
100
AcDbLine
 10
180.5
 20
40.053174
 30
0.0
 11
180.5
 21
23.817747
 31
0.0
  0
ARC
  5
176
100
AcDbEntity
  8
LAY-1
  6
CONTINUOUS
 62
     2
100
AcDbCircle
 10
-107.953766
 20
148.75
 30
0.0
 40
357.0
100
AcDbArc
 50
17.829786
 51
17.927629
  0
ARC
  5
177
100
AcDbEntity
  8
LAY-1
  6
CONTINUOUS
 62
     2
100
AcDbCircle
 10
522.953766
 20
148.75
 30
0.0
 40
357.0
100
AcDbArc
 50
162.072371
 51
162.170214
  0
ARC
  5
178
100
AcDbEntity
  8
LAY-1
  6
CONTINUOUS
 62
     2
100
AcDbCircle
 10
300.25
 20
148.75
 30
0.0
 40
0.8
100
AcDbArc
 50
91.79781
 51
268.20219
  0
ARC
  5
179
100
AcDbEntity
  8
LAY-1
  6
CONTINUOUS
 62
     2
100
AcDbCircle
 10
287.5
 20
148.75
 30
0.0
 40
12.75
100
AcDbArc
 50
3.595619
 51
356.404381
  0
ARC
  5
17A
100
AcDbEntity
  8
LAY-1
  6
CONTINUOUS
 62
     2
100
AcDbCircle
 10
273.848727
 20
137.800445
 30
0.0
 40
3.0
100
AcDbArc
 50
38.732766
 51
170.628921
  0
ARC
  5
17B
100
AcDbEntity
  8
LAY-1
  6
CONTINUOUS
 62
     2
100
AcDbCircle
 10
273.848727
 20
159.699555
 30
0.0
 40
3.0
100
AcDbArc
 50
189.371079
 51
321.267234
  0
ARC
  5
17C
100
AcDbEntity
  8
LAY-1
  6
CONTINUOUS
 62
     2
100
AcDbCircle
 10
287.5
 20
148.75
 30
0.0
 40
14.5
100
AcDbArc
 50
218.732766
 51
141.267234
  0
ARC
  5
17D
100
AcDbEntity
  8
LAY-1
  6
CONTINUOUS
 62
     2
100
AcDbCircle
 10
207.5
 20
148.75
 30
0.0
 40
64.246163
100
AcDbArc
 50
191.836775
 51
350.628921
  0
ARC
  5
17E
100
AcDbEntity
  8
LAY-1
  6
CONTINUOUS
 62
     2
100
AcDbCircle
 10
207.5
 20
148.75
 30
0.0
 40
64.246163
100
AcDbArc
 50
9.371079
 51
168.163225
  0
CIRCLE
  5
17F
100
AcDbEntity
  8
LAY-1
  6
CONTINUOUS
 62
     2
100
AcDbCircle
 10
207.5
 20
148.75
 30
0.0
 40
20.5
  0
ARC
  5
180
100
AcDbEntity
  8
LAY-1
  6
CONTINUOUS
 62
     2
100
AcDbCircle
 10
207.5
 20
148.75
 30
0.0
 40
83.453064
100
AcDbArc
 50
188.844814
 51
349.660662
  0
ARC
  5
181
100
AcDbEntity
  8
LAY-1
  6
CONTINUOUS
 62
     2
100
AcDbCircle
 10
207.5
 20
148.75
 30
0.0
 40
83.453064
100
AcDbArc
 50
10.833445
 51
171.150742
  0
LINE
  5
182
100
AcDbEntity
  8
LAY-1
  6
CONTINUOUS
 62
     2
100
AcDbLine
 10
175.0
 20
170.25
 30
0.0
 11
167.0
 21
170.25
 31
0.0
  0
ARC
  5
183
100
AcDbEntity
  8
LAY-1
  6
CONTINUOUS
 62
     2
100
AcDbCircle
 10
175.5
 20
129.25
 30
0.0
 40
2.0
100
AcDbArc
 50
270.0
 51
0.0
  0
LINE
  5
184
100
AcDbEntity
  8
LAY-1
  6
CONTINUOUS
 62
     2
100
AcDbLine
 10
166.5
 20
127.25
 30
0.0
 11
175.5
 21
127.25
 31
0.0
  0
ARC
  5
185
100
AcDbEntity
  8
LAY-1
  6
CONTINUOUS
 62
     2
100
AcDbCircle
 10
166.5
 20
129.25
 30
0.0
 40
2.0
100
AcDbArc
 50
180.0
 51
270.0
  0
LINE
  5
186
100
AcDbEntity
  8
LAY-1
  6
CONTINUOUS
 62
     2
100
AcDbLine
 10
166.5
 20
170.25
 30
0.0
 11
175.5
 21
170.25
 31
0.0
  0
LINE
  5
187
100
AcDbEntity
  8
LAY-1
  6
CONTINUOUS
 62
     2
100
AcDbLine
 10
177.5
 20
129.25
 30
0.0
 11
177.5
 21
168.25
 31
0.0
  0
ARC
  5
188
100
AcDbEntity
  8
LAY-1
  6
CONTINUOUS
 62
     2
100
AcDbCircle
 10
175.5
 20
168.25
 30
0.0
 40
2.0
100
AcDbArc
 50
0.0
 51
90.0
  0
CIRCLE
  5
189
100
AcDbEntity
  8
LAY-1
  6
CONTINUOUS
 62
     2
100
AcDbCircle
 10
171.0
 20
132.0
 30
0.0
 40
1.0
  0
ARC
  5
18A
100
AcDbEntity
  8
LAY-1
  6
CONTINUOUS
 62
     2
100
AcDbCircle
 10
166.726453
 20
168.03482
 30
0.0
 40
2.226725
100
AcDbArc
 50
95.836941
 51
180.89598
  0
CIRCLE
  5
18B
100
AcDbEntity
  8
LAY-1
  6
CONTINUOUS
 62
     2
100
AcDbCircle
 10
171.0
 20
165.5
 30
0.0
 40
1.0
  0
LINE
  5
18C
100
AcDbEntity
  8
LAY-1
  6
CONTINUOUS
 62
     2
100
AcDbLine
 10
164.5
 20
168.0
 30
0.0
 11
164.5
 21
129.25
 31
0.0
  0
ARC
  5
18D
100
AcDbEntity
  8
LAY-1
  6
CONTINUOUS
 62
     2
100
AcDbCircle
 10
145.559893
 20
159.75
 30
0.0
 40
2.0
100
AcDbArc
 50
262.664274
 51
310.722759
  0
ARC
  5
18E
100
AcDbEntity
  8
LAY-1
  6
CONTINUOUS
 62
     2
100
AcDbCircle
 10
145.559893
 20
137.75
 30
0.0
 40
2.0
100
AcDbArc
 50
49.277241
 51
97.335726
  0
ARC
  5
18F
100
AcDbEntity
  8
LAY-1
  6
CONTINUOUS
 62
     2
100
AcDbCircle
 10
122.671573
 20
157.75
 30
0.0
 40
2.0
100
AcDbArc
 50
45.0
 51
90.0
  0
LINE
  5
190
100
AcDbEntity
  8
LAY-1
  6
CONTINUOUS
 62
     2
100
AcDbLine
 10
124.085786
 20
159.164214
 30
0.0
 11
124.914214
 21
158.335786
 31
0.0
  0
ARC
  5
191
100
AcDbEntity
  8
LAY-1
  6
CONTINUOUS
 62
     2
100
AcDbCircle
 10
126.328427
 20
159.75
 30
0.0
 40
2.0
100
AcDbArc
 50
225.0
 51
270.0
  0
LINE
  5
192
100
AcDbEntity
  8
LAY-1
  6
CONTINUOUS
 62
     2
100
AcDbLine
 10
107.5
 20
159.75
 30
0.0
 11
122.671573
 21
159.75
 31
0.0
  0
ARC
  5
193
100
AcDbEntity
  8
LAY-1
  6
CONTINUOUS
 62
     2
100
AcDbCircle
 10
107.5
 20
157.75
 30
0.0
 40
2.0
100
AcDbArc
 50
90.0
 51
180.0
  0
LINE
  5
194
100
AcDbEntity
  8
LAY-1
  6
CONTINUOUS
 62
     2
100
AcDbLine
 10
105.5
 20
148.75
 30
0.0
 11
105.5
 21
157.75
 31
0.0
  0
ARC
  5
195
100
AcDbEntity
  8
LAY-1
  6
CONTINUOUS
 62
     2
100
AcDbCircle
 10
122.671573
 20
139.75
 30
0.0
 40
2.0
100
AcDbArc
 50
270.0
 51
315.0
  0
LINE
  5
196
100
AcDbEntity
  8
LAY-1
  6
CONTINUOUS
 62
     2
100
AcDbLine
 10
124.085786
 20
138.335786
 30
0.0
 11
124.914214
 21
139.164214
 31
0.0
  0
ARC
  5
197
100
AcDbEntity
  8
LAY-1
  6
CONTINUOUS
 62
     2
100
AcDbCircle
 10
126.328427
 20
137.75
 30
0.0
 40
2.0
100
AcDbArc
 50
90.0
 51
135.0
  0
LINE
  5
198
100
AcDbEntity
  8
LAY-1
  6
CONTINUOUS
 62
     2
100
AcDbLine
 10
107.5
 20
137.75
 30
0.0
 11
122.671573
 21
137.75
 31
0.0
  0
ARC
  5
199
100
AcDbEntity
  8
LAY-1
  6
CONTINUOUS
 62
     2
100
AcDbCircle
 10
107.5
 20
139.75
 30
0.0
 40
2.0
100
AcDbArc
 50
180.0
 51
270.0
  0
LINE
  5
19A
100
AcDbEntity
  8
LAY-1
  6
CONTINUOUS
 62
     2
100
AcDbLine
 10
105.5
 20
148.75
 30
0.0
 11
105.5
 21
139.75
 31
0.0
  0
LINE
  5
19B
100
AcDbEntity
  8
LAY-1
  6
CONTINUOUS
 62
     2
100
AcDbLine
 10
123.3
 20
157.95
 30
0.0
 11
123.3
 21
139.15
 31
0.0
  0
LINE
  5
19C
100
AcDbEntity
  8
LAY-1
  6
CONTINUOUS
 62
     2
100
AcDbLine
 10
125.6
 20
156.45
 30
0.0
 11
125.6
 21
141.15
 31
0.0
  0
LINE
  5
19D
100
AcDbEntity
  8
LAY-1
  6
CONTINUOUS
 62
     2
100
AcDbLine
 10
145.559893
 20
139.75
 30
0.0
 11
126.328427
 21
139.75
 31
0.0
  0
LINE
  5
19E
100
AcDbEntity
  8
LAY-1
  6
CONTINUOUS
 62
     2
100
AcDbLine
 10
145.559893
 20
157.75
 30
0.0
 11
126.328427
 21
157.75
 31
0.0
  0
CIRCLE
  5
19F
100
AcDbEntity
  8
LAY-1
  6
CONTINUOUS
 62
     2
100
AcDbCircle
 10
207.5
 20
148.75
 30
0.0
 40
13.0
  0
LINE
  5
1A0
100
AcDbEntity
  8
LAY-1
  6
CONTINUOUS
 62
     2
100
AcDbLine
 10
199.994447
 20
135.75
 30
0.0
 11
215.005553
 21
135.75
 31
0.0
  0
LINE
  5
1A1
100
AcDbEntity
  8
LAY-1
  6
CONTINUOUS
 62
     2
100
AcDbLine
 10
215.005553
 20
135.75
 30
0.0
 11
222.511107
 21
148.75
 31
0.0
  0
LINE
  5
1A2
100
AcDbEntity
  8
LAY-1
  6
CONTINUOUS
 62
     2
100
AcDbLine
 10
222.511107
 20
148.75
 30
0.0
 11
215.005553
 21
161.75
 31
0.0
  0
LINE
  5
1A3
100
AcDbEntity
  8
LAY-1
  6
CONTINUOUS
 62
     2
100
AcDbLine
 10
215.005553
 20
161.75
 30
0.0
 11
199.994447
 21
161.75
 31
0.0
  0
LINE
  5
1A4
100
AcDbEntity
  8
LAY-1
  6
CONTINUOUS
 62
     2
100
AcDbLine
 10
199.994447
 20
161.75
 30
0.0
 11
192.488893
 21
148.75
 31
0.0
  0
LINE
  5
1A5
100
AcDbEntity
  8
LAY-1
  6
CONTINUOUS
 62
     2
100
AcDbLine
 10
192.488893
 20
148.75
 30
0.0
 11
199.994447
 21
135.75
 31
0.0
  0
LINE
  5
1A6
100
AcDbEntity
  8
LAY-1
  6
CONTINUOUS
 62
     2
100
AcDbLine
 10
-121.615683
 20
132.29885
 30
0.0
 11
-47.404616
 21
132.29885
 31
0.0
  0
ARC
  5
1A7
100
AcDbEntity
  8
LAY-1
  6
CONTINUOUS
 62
     2
100
AcDbCircle
 10
-47.404616
 20
137.29885
 30
0.0
 40
5.0
100
AcDbArc
 50
270.0
 51
320.492811
  0
ARC
  5
1A8
100
AcDbEntity
  8
LAY-1
  6
CONTINUOUS
 62
     2
100
AcDbCircle
 10
-61.292422
 20
148.75
 30
0.0
 40
23.0
100
AcDbArc
 50
320.492811
 51
0.0
  0
ARC
  5
1A9
100
AcDbEntity
  8
LAY-1
  6
CONTINUOUS
 62
     2
100
AcDbCircle
 10
-61.292422
 20
148.75
 30
0.0
 40
23.0
100
AcDbArc
 50
0.0
 51
39.507189
  0
ARC
  5
1AA
100
AcDbEntity
  8
LAY-1
  6
CONTINUOUS
 62
     2
100
AcDbCircle
 10
-47.404616
 20
160.201151
 30
0.0
 40
5.0
100
AcDbArc
 50
39.507189
 51
90.0
  0
LINE
  5
1AB
100
AcDbEntity
  8
LAY-1
  6
CONTINUOUS
 62
     2
100
AcDbLine
 10
-121.615683
 20
165.201151
 30
0.0
 11
-47.404616
 21
165.201151
 31
0.0
  0
ARC
  5
1AC
100
AcDbEntity
  8
LAY-1
  6
CONTINUOUS
 62
     2
100
AcDbCircle
 10
-291.517801
 20
162.309951
 30
0.0
 40
2.0
100
AcDbArc
 50
180.0
 51
268.0
  0
LINE
  5
1AD
100
AcDbEntity
  8
LAY-1
  6
CONTINUOUS
 62
     2
100
AcDbLine
 10
-275.517801
 20
159.75
 30
0.0
 11
-291.5876
 21
160.31117
 31
0.0
  0
ARC
  5
1AE
100
AcDbEntity
  8
LAY-1
  6
CONTINUOUS
 62
     2
100
AcDbCircle
 10
-291.517801
 20
135.190049
 30
0.0
 40
2.0
100
AcDbArc
 50
92.0
 51
180.0
  0
LINE
  5
1AF
100
AcDbEntity
  8
LAY-1
  6
CONTINUOUS
 62
     2
100
AcDbLine
 10
-275.517801
 20
137.75
 30
0.0
 11
-291.5876
 21
137.18883
 31
0.0
  0
ARC
  5
1B0
100
AcDbEntity
  8
LAY-1
  6
CONTINUOUS
 62
     2
100
AcDbCircle
 10
-275.517801
 20
148.75
 30
0.0
 40
11.0
100
AcDbArc
 50
270.0
 51
90.0
  0
CIRCLE
  5
1B1
100
AcDbEntity
  8
LAY-1
  6
CONTINUOUS
 62
     2
100
AcDbCircle
 10
-275.517801
 20
148.75
 30
0.0
 40
8.5
  0
LINE
  5
1B2
100
AcDbEntity
  8
LAY-1
  6
CONTINUOUS
 62
     2
100
AcDbLine
 10
-308.517801
 20
260.75
 30
0.0
 11
-308.517801
 21
36.75
 31
0.0
  0
LINE
  5
1B3
100
AcDbEntity
  8
LAY-1
  6
CONTINUOUS
 62
     2
100
AcDbLine
 10
-310.5
 20
260.75
 30
0.0
 11
-310.5
 21
36.75
 31
0.0
  0
LINE
  5
1B4
100
AcDbEntity
  8
LAY-1
  6
CONTINUOUS
 62
     2
100
AcDbLine
 10
-154.298077
 20
120.82617
 30
0.0
 11
-156.189639
 21
102.829161
 31
0.0
  0
ARC
  5
1B5
100
AcDbEntity
  8
LAY-1
  6
CONTINUOUS
 62
     2
100
AcDbCircle
 10
-171.107311
 20
193.101421
 30
0.0
 40
15.0
100
AcDbArc
 50
6.0
 51
87.5304
  0
ARC
  5
1B6
100
AcDbEntity
  8
LAY-1
  6
CONTINUOUS
 62
     2
100
AcDbCircle
 10
-154.143828
 20
174.723536
 30
0.0
 40
2.0
100
AcDbArc
 50
10.0
 51
94.26083
  0
ARC
  5
1B7
100
AcDbEntity
  8
LAY-1
  6
CONTINUOUS
 62
     2
100
AcDbCircle
 10
-150.01243
 20
174.25
 30
0.0
 40
2.0
100
AcDbArc
 50
189.335443
 51
270.0
  0
LINE
  5
1B8
100
AcDbEntity
  8
LAY-1
  6
CONTINUOUS
 62
     2
100
AcDbLine
 10
-152.174212
 20
175.070833
 30
0.0
 11
-151.985941
 21
173.925572
 31
0.0
  0
LINE
  5
1B9
100
AcDbEntity
  8
LAY-1
  6
CONTINUOUS
 62
     2
100
AcDbLine
 10
-153.749144
 20
176.718009
 30
0.0
 11
-153.758251
 21
176.718009
 31
0.0
  0
LINE
  5
1BA
100
AcDbEntity
  8
LAY-1
  6
CONTINUOUS
 62
     2
100
AcDbLine
 10
-150.01243
 20
172.25
 30
0.0
 11
-144.65884
 21
172.25
 31
0.0
  0
ARC
  5
1BB
100
AcDbEntity
  8
LAY-1
  6
CONTINUOUS
 62
     2
100
AcDbCircle
 10
-144.65884
 20
167.25
 30
0.0
 40
5.0
100
AcDbArc
 50
30.0
 51
90.0
  0
ARC
  5
1BC
100
AcDbEntity
  8
LAY-1
  6
CONTINUOUS
 62
     2
100
AcDbCircle
 10
-137.730637
 20
171.25
 30
0.0
 40
3.0
100
AcDbArc
 50
210.0
 51
270.0
  0
LINE
  5
1BD
100
AcDbEntity
  8
LAY-1
  6
CONTINUOUS
 62
     2
100
AcDbLine
 10
-137.730637
 20
168.25
 30
0.0
 11
-129.040038
 21
168.25
 31
0.0
  0
ARC
  5
1BE
100
AcDbEntity
  8
LAY-1
  6
CONTINUOUS
 62
     2
100
AcDbCircle
 10
-129.040038
 20
163.25
 30
0.0
 40
5.0
100
AcDbArc
 50
60.0
 51
90.0
  0
LINE
  5
1BF
100
AcDbEntity
  8
LAY-1
  6
CONTINUOUS
 62
     2
100
AcDbLine
 10
-126.540038
 20
167.580127
 30
0.0
 11
-123.115683
 21
165.603075
 31
0.0
  0
ARC
  5
1C0
100
AcDbEntity
  8
LAY-1
  6
CONTINUOUS
 62
     2
100
AcDbCircle
 10
-121.615683
 20
168.201151
 30
0.0
 40
3.0
100
AcDbArc
 50
240.0
 51
270.0
  0
ARC
  5
1C1
100
AcDbEntity
  8
LAY-1
  6
CONTINUOUS
 62
     2
100
AcDbCircle
 10
-121.615683
 20
129.29885
 30
0.0
 40
3.0
100
AcDbArc
 50
90.0
 51
120.0
  0
LINE
  5
1C2
100
AcDbEntity
  8
LAY-1
  6
CONTINUOUS
 62
     2
100
AcDbLine
 10
-126.540038
 20
129.919873
 30
0.0
 11
-123.115683
 21
131.896926
 31
0.0
  0
ARC
  5
1C3
100
AcDbEntity
  8
LAY-1
  6
CONTINUOUS
 62
     2
100
AcDbCircle
 10
-129.040038
 20
134.25
 30
0.0
 40
5.0
100
AcDbArc
 50
270.0
 51
300.0
  0
LINE
  5
1C4
100
AcDbEntity
  8
LAY-1
  6
CONTINUOUS
 62
     2
100
AcDbLine
 10
-137.730637
 20
129.25
 30
0.0
 11
-129.040038
 21
129.25
 31
0.0
  0
ARC
  5
1C5
100
AcDbEntity
  8
LAY-1
  6
CONTINUOUS
 62
     2
100
AcDbCircle
 10
-137.730637
 20
126.25
 30
0.0
 40
3.0
100
AcDbArc
 50
90.0
 51
150.0
  0
ARC
  5
1C6
100
AcDbEntity
  8
LAY-1
  6
CONTINUOUS
 62
     2
100
AcDbCircle
 10
-144.65884
 20
130.25
 30
0.0
 40
5.0
100
AcDbArc
 50
270.0
 51
330.0
  0
LINE
  5
1C7
100
AcDbEntity
  8
LAY-1
  6
CONTINUOUS
 62
     2
100
AcDbLine
 10
-150.01243
 20
125.25
 30
0.0
 11
-144.65884
 21
125.25
 31
0.0
  0
ARC
  5
1C8
100
AcDbEntity
  8
LAY-1
  6
CONTINUOUS
 62
     2
100
AcDbCircle
 10
-150.01243
 20
123.25
 30
0.0
 40
2.0
100
AcDbArc
 50
90.0
 51
170.664557
  0
LINE
  5
1C9
100
AcDbEntity
  8
LAY-1
  6
CONTINUOUS
 62
     2
100
AcDbLine
 10
-152.174212
 20
122.429168
 30
0.0
 11
-151.985941
 21
123.574429
 31
0.0
  0
ARC
  5
1CA
100
AcDbEntity
  8
LAY-1
  6
CONTINUOUS
 62
     2
100
AcDbCircle
 10
-154.143828
 20
122.776464
 30
0.0
 40
2.0
100
AcDbArc
 50
265.73917
 51
350.0
  0
LINE
  5
1CB
100
AcDbEntity
  8
LAY-1
  6
CONTINUOUS
 62
     2
100
AcDbLine
 10
-153.749144
 20
120.781992
 30
0.0
 11
-153.758251
 21
120.781992
 31
0.0
  0
LINE
  5
1CC
100
AcDbEntity
  8
LAY-1
  6
CONTINUOUS
 62
     2
100
AcDbLine
 10
-308.517801
 20
36.75
 30
0.0
 11
-295.517801
 21
36.75
 31
0.0
  0
ARC
  5
1CD
100
AcDbEntity
  8
LAY-1
  6
CONTINUOUS
 62
     2
100
AcDbCircle
 10
-295.517801
 20
38.75
 30
0.0
 40
2.0
100
AcDbArc
 50
270.0
 51
0.0
  0
ARC
  5
1CE
100
AcDbEntity
  8
LAY-1
  6
CONTINUOUS
 62
     2
100
AcDbCircle
 10
-278.017801
 20
78.768076
 30
0.0
 40
6.0
100
AcDbArc
 50
92.4696
 51
180.0
  0
LINE
  5
1CF
100
AcDbEntity
  8
LAY-1
  6
CONTINUOUS
 62
     2
100
AcDbLine
 10
-310.5
 20
36.75
 30
0.0
 11
-295.539392
 21
36.75
 31
0.0
  0
ARC
  5
1D0
100
AcDbEntity
  8
LAY-1
  6
CONTINUOUS
 62
     2
100
AcDbCircle
 10
-278.017801
 20
218.731925
 30
0.0
 40
6.0
100
AcDbArc
 50
180.0
 51
267.5304
  0
LINE
  5
1D1
100
AcDbEntity
  8
LAY-1
  6
CONTINUOUS
 62
     2
100
AcDbLine
 10
-263.647069
 20
212.106546
 30
0.0
 11
-278.276337
 21
212.737498
 31
0.0
  0
LINE
  5
1D2
100
AcDbEntity
  8
LAY-1
  6
CONTINUOUS
 62
     2
100
AcDbLine
 10
-308.517801
 20
260.75
 30
0.0
 11
-295.517801
 21
260.75
 31
0.0
  0
ARC
  5
1D3
100
AcDbEntity
  8
LAY-1
  6
CONTINUOUS
 62
     2
100
AcDbCircle
 10
-295.517801
 20
258.75
 30
0.0
 40
2.0
100
AcDbArc
 50
0.0
 51
90.0
  0
LINE
  5
1D4
100
AcDbEntity
  8
LAY-1
  6
CONTINUOUS
 62
     2
100
AcDbLine
 10
-170.460971
 20
208.087489
 30
0.0
 11
-263.647069
 21
212.106546
 31
0.0
  0
LINE
  5
1D5
100
AcDbEntity
  8
LAY-1
  6
CONTINUOUS
 62
     2
100
AcDbLine
 10
-170.460971
 20
89.412512
 30
0.0
 11
-278.276337
 21
84.762503
 31
0.0
  0
ARC
  5
1D6
100
AcDbEntity
  8
LAY-1
  6
CONTINUOUS
 62
     2
100
AcDbCircle
 10
-171.107311
 20
104.39858
 30
0.0
 40
15.0
100
AcDbArc
 50
272.4696
 51
354.0
  0
LINE
  5
1D7
100
AcDbEntity
  8
LAY-1
  6
CONTINUOUS
 62
     2
100
AcDbLine
 10
-154.298077
 20
176.67383
 30
0.0
 11
-156.189482
 21
194.669347
 31
0.0
  0
LINE
  5
1D8
100
AcDbEntity
  8
LAY-1
  6
CONTINUOUS
 62
     2
100
AcDbLine
 10
536.615683
 20
132.29885
 30
0.0
 11
462.404616
 21
132.29885
 31
0.0
  0
ARC
  5
1D9
100
AcDbEntity
  8
LAY-1
  6
CONTINUOUS
 62
     2
100
AcDbCircle
 10
462.404616
 20
137.29885
 30
0.0
 40
5.0
100
AcDbArc
 50
219.507189
 51
270.0
  0
ARC
  5
1DA
100
AcDbEntity
  8
LAY-1
  6
CONTINUOUS
 62
     2
100
AcDbCircle
 10
476.292422
 20
148.75
 30
0.0
 40
23.0
100
AcDbArc
 50
180.0
 51
219.507189
  0
ARC
  5
1DB
100
AcDbEntity
  8
LAY-1
  6
CONTINUOUS
 62
     2
100
AcDbCircle
 10
476.292422
 20
148.75
 30
0.0
 40
23.0
100
AcDbArc
 50
140.492811
 51
180.0
  0
ARC
  5
1DC
100
AcDbEntity
  8
LAY-1
  6
CONTINUOUS
 62
     2
100
AcDbCircle
 10
462.404616
 20
160.201151
 30
0.0
 40
5.0
100
AcDbArc
 50
90.0
 51
140.492811
  0
LINE
  5
1DD
100
AcDbEntity
  8
LAY-1
  6
CONTINUOUS
 62
     2
100
AcDbLine
 10
536.615683
 20
165.201151
 30
0.0
 11
462.404616
 21
165.201151
 31
0.0
  0
LINE
  5
1DE
100
AcDbEntity
  8
LAY-1
  6
CONTINUOUS
 62
     2
100
AcDbLine
 10
723.517801
 20
260.75
 30
0.0
 11
723.517801
 21
36.75
 31
0.0
  0
LINE
  5
1DF
100
AcDbEntity
  8
LAY-1
  6
CONTINUOUS
 62
     2
100
AcDbLine
 10
725.5
 20
260.75
 30
0.0
 11
725.5
 21
36.75
 31
0.0
  0
LINE
  5
1E0
100
AcDbEntity
  8
LAY-1
  6
CONTINUOUS
 62
     2
100
AcDbLine
 10
569.298077
 20
120.82617
 30
0.0
 11
571.189639
 21
102.829161
 31
0.0
  0
LINE
  5
1E1
100
AcDbEntity
  8
LAY-1
  6
CONTINUOUS
 62
     2
100
AcDbLine
 10
569.298077
 20
176.67383
 30
0.0
 11
570.929706
 21
192.197736
 31
0.0
  0
LINE
  5
1E2
100
AcDbEntity
  8
LAY-1
  6
CONTINUOUS
 62
     2
100
AcDbLine
 10
570.929706
 20
192.197736
 30
0.0
 11
571.189639
 21
194.67084
 31
0.0
  0
LINE
  5
1E3
100
AcDbEntity
  8
LAY-1
  6
CONTINUOUS
 62
     2
100
AcDbLine
 10
570.929706
 20
192.197736
 30
0.0
 11
571.189482
 21
194.669347
 31
0.0
  0
ARC
  5
1E4
100
AcDbEntity
  8
LAY-1
  6
CONTINUOUS
 62
     2
100
AcDbCircle
 10
586.107311
 20
193.101421
 30
0.0
 40
15.0
100
AcDbArc
 50
92.4696
 51
174.0
  0
ARC
  5
1E5
100
AcDbEntity
  8
LAY-1
  6
CONTINUOUS
 62
     2
100
AcDbCircle
 10
569.143828
 20
174.723536
 30
0.0
 40
2.0
100
AcDbArc
 50
85.73917
 51
170.0
  0
ARC
  5
1E6
100
AcDbEntity
  8
LAY-1
  6
CONTINUOUS
 62
     2
100
AcDbCircle
 10
565.01243
 20
174.25
 30
0.0
 40
2.0
100
AcDbArc
 50
270.0
 51
350.664557
  0
LINE
  5
1E7
100
AcDbEntity
  8
LAY-1
  6
CONTINUOUS
 62
     2
100
AcDbLine
 10
567.174212
 20
175.070833
 30
0.0
 11
566.985941
 21
173.925572
 31
0.0
  0
LINE
  5
1E8
100
AcDbEntity
  8
LAY-1
  6
CONTINUOUS
 62
     2
100
AcDbLine
 10
568.749144
 20
176.718009
 30
0.0
 11
568.758251
 21
176.718009
 31
0.0
  0
LINE
  5
1E9
100
AcDbEntity
  8
LAY-1
  6
CONTINUOUS
 62
     2
100
AcDbLine
 10
565.01243
 20
172.25
 30
0.0
 11
559.65884
 21
172.25
 31
0.0
  0
ARC
  5
1EA
100
AcDbEntity
  8
LAY-1
  6
CONTINUOUS
 62
     2
100
AcDbCircle
 10
559.65884
 20
167.25
 30
0.0
 40
5.0
100
AcDbArc
 50
90.0
 51
150.0
  0
ARC
  5
1EB
100
AcDbEntity
  8
LAY-1
  6
CONTINUOUS
 62
     2
100
AcDbCircle
 10
552.730637
 20
171.25
 30
0.0
 40
3.0
100
AcDbArc
 50
270.0
 51
330.0
  0
LINE
  5
1EC
100
AcDbEntity
  8
LAY-1
  6
CONTINUOUS
 62
     2
100
AcDbLine
 10
552.730637
 20
168.25
 30
0.0
 11
544.040038
 21
168.25
 31
0.0
  0
ARC
  5
1ED
100
AcDbEntity
  8
LAY-1
  6
CONTINUOUS
 62
     2
100
AcDbCircle
 10
544.040038
 20
163.25
 30
0.0
 40
5.0
100
AcDbArc
 50
90.0
 51
120.0
  0
LINE
  5
1EE
100
AcDbEntity
  8
LAY-1
  6
CONTINUOUS
 62
     2
100
AcDbLine
 10
541.540038
 20
167.580127
 30
0.0
 11
538.115683
 21
165.603075
 31
0.0
  0
ARC
  5
1EF
100
AcDbEntity
  8
LAY-1
  6
CONTINUOUS
 62
     2
100
AcDbCircle
 10
536.615683
 20
168.201151
 30
0.0
 40
3.0
100
AcDbArc
 50
270.0
 51
300.0
  0
ARC
  5
1F0
100
AcDbEntity
  8
LAY-1
  6
CONTINUOUS
 62
     2
100
AcDbCircle
 10
536.615683
 20
129.29885
 30
0.0
 40
3.0
100
AcDbArc
 50
60.0
 51
90.0
  0
LINE
  5
1F1
100
AcDbEntity
  8
LAY-1
  6
CONTINUOUS
 62
     2
100
AcDbLine
 10
541.540038
 20
129.919873
 30
0.0
 11
538.115683
 21
131.896926
 31
0.0
  0
ARC
  5
1F2
100
AcDbEntity
  8
LAY-1
  6
CONTINUOUS
 62
     2
100
AcDbCircle
 10
544.040038
 20
134.25
 30
0.0
 40
5.0
100
AcDbArc
 50
240.0
 51
270.0
  0
LINE
  5
1F3
100
AcDbEntity
  8
LAY-1
  6
CONTINUOUS
 62
     2
100
AcDbLine
 10
552.730637
 20
129.25
 30
0.0
 11
544.040038
 21
129.25
 31
0.0
  0
ARC
  5
1F4
100
AcDbEntity
  8
LAY-1
  6
CONTINUOUS
 62
     2
100
AcDbCircle
 10
552.730637
 20
126.25
 30
0.0
 40
3.0
100
AcDbArc
 50
30.0
 51
90.0
  0
ARC
  5
1F5
100
AcDbEntity
  8
LAY-1
  6
CONTINUOUS
 62
     2
100
AcDbCircle
 10
559.65884
 20
130.25
 30
0.0
 40
5.0
100
AcDbArc
 50
210.0
 51
270.0
  0
LINE
  5
1F6
100
AcDbEntity
  8
LAY-1
  6
CONTINUOUS
 62
     2
100
AcDbLine
 10
565.01243
 20
125.25
 30
0.0
 11
559.65884
 21
125.25
 31
0.0
  0
ARC
  5
1F7
100
AcDbEntity
  8
LAY-1
  6
CONTINUOUS
 62
     2
100
AcDbCircle
 10
565.01243
 20
123.25
 30
0.0
 40
2.0
100
AcDbArc
 50
9.335443
 51
90.0
  0
LINE
  5
1F8
100
AcDbEntity
  8
LAY-1
  6
CONTINUOUS
 62
     2
100
AcDbLine
 10
567.174212
 20
122.429168
 30
0.0
 11
566.985941
 21
123.574429
 31
0.0
  0
ARC
  5
1F9
100
AcDbEntity
  8
LAY-1
  6
CONTINUOUS
 62
     2
100
AcDbCircle
 10
569.143828
 20
122.776464
 30
0.0
 40
2.0
100
AcDbArc
 50
190.0
 51
274.26083
  0
LINE
  5
1FA
100
AcDbEntity
  8
LAY-1
  6
CONTINUOUS
 62
     2
100
AcDbLine
 10
568.749144
 20
120.781992
 30
0.0
 11
568.758251
 21
120.781992
 31
0.0
  0
LINE
  5
1FB
100
AcDbEntity
  8
LAY-1
  6
CONTINUOUS
 62
     2
100
AcDbLine
 10
723.517801
 20
36.75
 30
0.0
 11
710.517801
 21
36.75
 31
0.0
  0
ARC
  5
1FC
100
AcDbEntity
  8
LAY-1
  6
CONTINUOUS
 62
     2
100
AcDbCircle
 10
710.517801
 20
38.75
 30
0.0
 40
2.0
100
AcDbArc
 50
180.0
 51
270.0
  0
ARC
  5
1FD
100
AcDbEntity
  8
LAY-1
  6
CONTINUOUS
 62
     2
100
AcDbCircle
 10
693.017801
 20
78.768076
 30
0.0
 40
6.0
100
AcDbArc
 50
0.0
 51
87.5304
  0
LINE
  5
1FE
100
AcDbEntity
  8
LAY-1
  6
CONTINUOUS
 62
     2
100
AcDbLine
 10
725.5
 20
36.75
 30
0.0
 11
710.539392
 21
36.75
 31
0.0
  0
ARC
  5
1FF
100
AcDbEntity
  8
LAY-1
  6
CONTINUOUS
 62
     2
100
AcDbCircle
 10
693.017801
 20
218.731925
 30
0.0
 40
6.0
100
AcDbArc
 50
272.4696
 51
0.0
  0
LINE
  5
200
100
AcDbEntity
  8
LAY-1
  6
CONTINUOUS
 62
     2
100
AcDbLine
 10
678.647069
 20
212.106546
 30
0.0
 11
693.276337
 21
212.737498
 31
0.0
  0
LINE
  5
201
100
AcDbEntity
  8
LAY-1
  6
CONTINUOUS
 62
     2
100
AcDbLine
 10
723.517801
 20
260.75
 30
0.0
 11
710.517801
 21
260.75
 31
0.0
  0
ARC
  5
202
100
AcDbEntity
  8
LAY-1
  6
CONTINUOUS
 62
     2
100
AcDbCircle
 10
710.517801
 20
258.75
 30
0.0
 40
2.0
100
AcDbArc
 50
90.0
 51
180.0
  0
LINE
  5
203
100
AcDbEntity
  8
LAY-1
  6
CONTINUOUS
 62
     2
100
AcDbLine
 10
585.460971
 20
208.087489
 30
0.0
 11
678.647069
 21
212.106546
 31
0.0
  0
LINE
  5
204
100
AcDbEntity
  8
LAY-1
  6
CONTINUOUS
 62
     2
100
AcDbLine
 10
585.460971
 20
89.412512
 30
0.0
 11
693.276337
 21
84.762503
 31
0.0
  0
ARC
  5
205
100
AcDbEntity
  8
LAY-1
  6
CONTINUOUS
 62
     2
100
AcDbCircle
 10
586.107311
 20
104.39858
 30
0.0
 40
15.0
100
AcDbArc
 50
186.0
 51
267.5304
  0
LINE
  5
206
100
AcDbEntity
  8
LAY-1
  6
CONTINUOUS
 62
     2
100
AcDbLine
 10
708.517801
 20
211.75
 30
0.0
 11
708.517801
 21
199.25
 31
0.0
  0
LINE
  5
207
100
AcDbEntity
  8
LAY-1
  6
CONTINUOUS
 62
     2
100
AcDbLine
 10
696.517801
 20
135.25
 30
0.0
 11
696.517801
 21
162.25
 31
0.0
  0
ARC
  5
208
100
AcDbEntity
  8
LAY-1
  6
CONTINUOUS
 62
     2
100
AcDbCircle
 10
705.517801
 20
166.25
 30
0.0
 40
3.0
100
AcDbArc
 50
270.0
 51
0.0
  0
ARC
  5
209
100
AcDbEntity
  8
LAY-1
  6
CONTINUOUS
 62
     2
100
AcDbCircle
 10
705.517801
 20
131.25
 30
0.0
 40
3.0
100
AcDbArc
 50
0.0
 51
90.0
  0
LINE
  5
20A
100
AcDbEntity
  8
LAY-1
  6
CONTINUOUS
 62
     2
100
AcDbLine
 10
207.5
 20
675.232199
 30
0.0
 11
319.5
 21
675.232199
 31
0.0
  0
LINE
  5
20B
100
AcDbEntity
  8
LAY-1
  6
CONTINUOUS
 62
     2
100
AcDbLine
 10
207.5
 20
675.232199
 30
0.0
 11
95.5
 21
675.232199
 31
0.0
  0
LINE
  5
20C
100
AcDbEntity
  8
LAY-1
  6
CONTINUOUS
 62
     2
100
AcDbLine
 10
319.5
 20
673.244397
 30
0.0
 11
95.5
 21
673.244397
 31
0.0
  0
LINE
  5
20D
100
AcDbEntity
  8
LAY-1
  6
CONTINUOUS
 62
     2
100
AcDbLine
 10
235.466938
 20
519.029204
 30
0.0
 11
253.42084
 21
520.916235
 31
0.0
  0
LINE
  5
20E
100
AcDbEntity
  8
LAY-1
  6
CONTINUOUS
 62
     2
100
AcDbLine
 10
179.57617
 20
519.024673
 30
0.0
 11
161.580653
 21
520.916078
 31
0.0
  0
LINE
  5
20F
100
AcDbEntity
  8
LAY-1
  6
CONTINUOUS
 62
     2
100
AcDbLine
 10
179.531992
 20
518.47574
 30
0.0
 11
179.531992
 21
518.484847
 31
0.0
  0
ARC
  5
210
100
AcDbEntity
  8
LAY-1
  6
CONTINUOUS
 62
     2
100
AcDbCircle
 10
181.526464
 20
518.870424
 30
0.0
 40
2.0
100
AcDbArc
 50
175.73917
 51
260.0
  0
LINE
  5
211
100
AcDbEntity
  8
LAY-1
  6
CONTINUOUS
 62
     2
100
AcDbLine
 10
181.179168
 20
516.900808
 30
0.0
 11
182.324429
 21
516.712537
 31
0.0
  0
ARC
  5
212
100
AcDbEntity
  8
LAY-1
  6
CONTINUOUS
 62
     2
100
AcDbCircle
 10
182.0
 20
514.739026
 30
0.0
 40
2.0
100
AcDbArc
 50
0.0
 51
80.664557
  0
LINE
  5
213
100
AcDbEntity
  8
LAY-1
  6
CONTINUOUS
 62
     2
100
AcDbLine
 10
184.0
 20
514.739026
 30
0.0
 11
184.0
 21
509.385436
 31
0.0
  0
ARC
  5
214
100
AcDbEntity
  8
LAY-1
  6
CONTINUOUS
 62
     2
100
AcDbCircle
 10
189.0
 20
509.385436
 30
0.0
 40
5.0
100
AcDbArc
 50
180.0
 51
240.0
  0
ARC
  5
215
100
AcDbEntity
  8
LAY-1
  6
CONTINUOUS
 62
     2
100
AcDbCircle
 10
185.0
 20
502.457233
 30
0.0
 40
3.0
100
AcDbArc
 50
0.0
 51
60.0
  0
LINE
  5
216
100
AcDbEntity
  8
LAY-1
  6
CONTINUOUS
 62
     2
100
AcDbLine
 10
188.0
 20
502.457233
 30
0.0
 11
188.0
 21
493.766634
 31
0.0
  0
ARC
  5
217
100
AcDbEntity
  8
LAY-1
  6
CONTINUOUS
 62
     2
100
AcDbCircle
 10
193.0
 20
493.766634
 30
0.0
 40
5.0
100
AcDbArc
 50
180.0
 51
210.0
  0
LINE
  5
218
100
AcDbEntity
  8
LAY-1
  6
CONTINUOUS
 62
     2
100
AcDbLine
 10
188.669873
 20
491.266634
 30
0.0
 11
190.646926
 21
487.842279
 31
0.0
  0
ARC
  5
219
100
AcDbEntity
  8
LAY-1
  6
CONTINUOUS
 62
     2
100
AcDbCircle
 10
188.04885
 20
486.342279
 30
0.0
 40
3.0
100
AcDbArc
 50
0.0
 51
30.0
  0
ARC
  5
21A
100
AcDbEntity
  8
LAY-1
  6
CONTINUOUS
 62
     2
100
AcDbCircle
 10
226.951151
 20
486.342279
 30
0.0
 40
3.0
100
AcDbArc
 50
150.0
 51
180.0
  0
LINE
  5
21B
100
AcDbEntity
  8
LAY-1
  6
CONTINUOUS
 62
     2
100
AcDbLine
 10
226.330127
 20
491.266634
 30
0.0
 11
224.353075
 21
487.842279
 31
0.0
  0
ARC
  5
21C
100
AcDbEntity
  8
LAY-1
  6
CONTINUOUS
 62
     2
100
AcDbCircle
 10
222.0
 20
493.766634
 30
0.0
 40
5.0
100
AcDbArc
 50
330.0
 51
0.0
  0
LINE
  5
21D
100
AcDbEntity
  8
LAY-1
  6
CONTINUOUS
 62
     2
100
AcDbLine
 10
227.0
 20
502.457233
 30
0.0
 11
227.0
 21
493.766634
 31
0.0
  0
ARC
  5
21E
100
AcDbEntity
  8
LAY-1
  6
CONTINUOUS
 62
     2
100
AcDbCircle
 10
230.0
 20
502.457233
 30
0.0
 40
3.0
100
AcDbArc
 50
120.0
 51
180.0
  0
ARC
  5
21F
100
AcDbEntity
  8
LAY-1
  6
CONTINUOUS
 62
     2
100
AcDbCircle
 10
226.0
 20
509.385436
 30
0.0
 40
5.0
100
AcDbArc
 50
300.0
 51
0.0
  0
LINE
  5
220
100
AcDbEntity
  8
LAY-1
  6
CONTINUOUS
 62
     2
100
AcDbLine
 10
231.0
 20
514.739026
 30
0.0
 11
231.0
 21
509.385436
 31
0.0
  0
LINE
  5
221
100
AcDbEntity
  8
LAY-1
  6
CONTINUOUS
 62
     2
100
AcDbLine
 10
235.468009
 20
518.47574
 30
0.0
 11
235.468009
 21
518.484847
 31
0.0
  0
LINE
  5
222
100
AcDbEntity
  8
LAY-1
  6
CONTINUOUS
 62
     2
100
AcDbLine
 10
233.820833
 20
516.900808
 30
0.0
 11
232.675572
 21
516.712537
 31
0.0
  0
ARC
  5
223
100
AcDbEntity
  8
LAY-1
  6
CONTINUOUS
 62
     2
100
AcDbCircle
 10
233.0
 20
514.739026
 30
0.0
 40
2.0
100
AcDbArc
 50
99.335443
 51
180.0
  0
ARC
  5
224
100
AcDbEntity
  8
LAY-1
  6
CONTINUOUS
 62
     2
100
AcDbCircle
 10
233.473536
 20
518.870424
 30
0.0
 40
2.0
100
AcDbArc
 50
280.0
 51
4.26083
  0
LINE
  5
225
100
AcDbEntity
  8
LAY-1
  6
CONTINUOUS
 62
     2
100
AcDbLine
 10
223.951151
 20
486.342279
 30
0.0
 11
223.951151
 21
412.131212
 31
0.0
  0
ARC
  5
226
100
AcDbEntity
  8
LAY-1
  6
CONTINUOUS
 62
     2
100
AcDbCircle
 10
218.951151
 20
412.131212
 30
0.0
 40
5.0
100
AcDbArc
 50
309.507189
 51
0.0
  0
ARC
  5
227
100
AcDbEntity
  8
LAY-1
  6
CONTINUOUS
 62
     2
100
AcDbCircle
 10
207.5
 20
426.019018
 30
0.0
 40
23.0
100
AcDbArc
 50
270.0
 51
309.507189
  0
ARC
  5
228
100
AcDbEntity
  8
LAY-1
  6
CONTINUOUS
 62
     2
100
AcDbCircle
 10
207.5
 20
426.019018
 30
0.0
 40
23.0
100
AcDbArc
 50
230.492811
 51
270.0
  0
ARC
  5
229
100
AcDbEntity
  8
LAY-1
  6
CONTINUOUS
 62
     2
100
AcDbCircle
 10
196.04885
 20
412.131212
 30
0.0
 40
5.0
100
AcDbArc
 50
180.0
 51
230.492811
  0
LINE
  5
22A
100
AcDbEntity
  8
LAY-1
  6
CONTINUOUS
 62
     2
100
AcDbLine
 10
191.04885
 20
486.342279
 30
0.0
 11
191.04885
 21
412.131212
 31
0.0
  0
LINE
  5
22B
100
AcDbEntity
  8
LAY-1
  6
CONTINUOUS
 62
     2
100
AcDbLine
 10
164.052264
 20
520.656302
 30
0.0
 11
161.580653
 21
520.916078
 31
0.0
  0
LINE
  5
22C
100
AcDbEntity
  8
LAY-1
  6
CONTINUOUS
 62
     2
100
AcDbLine
 10
164.052264
 20
520.656302
 30
0.0
 11
161.57916
 21
520.916235
 31
0.0
  0
LINE
  5
22D
100
AcDbEntity
  8
LAY-1
  6
CONTINUOUS
 62
     2
100
AcDbLine
 10
317.5
 20
658.244397
 30
0.0
 11
97.5
 21
658.244397
 31
0.0
  0
LINE
  5
22E
100
AcDbEntity
  8
LAY-1
  6
CONTINUOUS
 62
     2
100
AcDbLine
 10
141.14624
 20
631.244397
 30
0.0
 11
126.328427
 21
631.244397
 31
0.0
  0
LINE
  5
22F
100
AcDbEntity
  8
LAY-1
  6
CONTINUOUS
 62
     2
100
AcDbLine
 10
124.914214
 20
630.658611
 30
0.0
 11
124.085786
 21
629.830184
 31
0.0
  0
LINE
  5
230
100
AcDbEntity
  8
LAY-1
  6
CONTINUOUS
 62
     2
100
AcDbLine
 10
107.5
 20
629.244397
 30
0.0
 11
122.671573
 21
629.244397
 31
0.0
  0
ARC
  5
231
100
AcDbEntity
  8
LAY-1
  6
CONTINUOUS
 62
     2
100
AcDbCircle
 10
141.14624
 20
628.244397
 30
0.0
 40
3.0
100
AcDbArc
 50
2.4696
 51
90.0
  0
ARC
  5
232
100
AcDbEntity
  8
LAY-1
  6
CONTINUOUS
 62
     2
100
AcDbCircle
 10
163.14858
 20
535.833907
 30
0.0
 40
15.0
100
AcDbArc
 50
182.4696
 51
264.0
  0
ARC
  5
233
100
AcDbEntity
  8
LAY-1
  6
CONTINUOUS
 62
     2
100
AcDbCircle
 10
274.5007
 20
643.244397
 30
0.0
 40
3.0
100
AcDbArc
 50
90.0
 51
177.5304
  0
ARC
  5
234
100
AcDbEntity
  8
LAY-1
  6
CONTINUOUS
 62
     2
100
AcDbCircle
 10
251.85142
 20
535.833907
 30
0.0
 40
15.0
100
AcDbArc
 50
276.0
 51
357.5304
  0
ARC
  5
235
100
AcDbEntity
  8
LAY-1
  6
CONTINUOUS
 62
     2
100
AcDbCircle
 10
107.5
 20
631.244397
 30
0.0
 40
2.0
100
AcDbArc
 50
180.0
 51
270.0
  0
ARC
  5
236
100
AcDbEntity
  8
LAY-1
  6
CONTINUOUS
 62
     2
100
AcDbCircle
 10
126.328427
 20
629.244397
 30
0.0
 40
2.0
100
AcDbArc
 50
90.0
 51
135.0
  0
ARC
  5
237
100
AcDbEntity
  8
LAY-1
  6
CONTINUOUS
 62
     2
100
AcDbCircle
 10
122.671573
 20
631.244397
 30
0.0
 40
2.0
100
AcDbArc
 50
270.0
 51
315.0
  0
LINE
  5
238
100
AcDbEntity
  8
LAY-1
  6
CONTINUOUS
 62
     2
100
AcDbLine
 10
319.5
 20
675.232199
 30
0.0
 11
319.5
 21
660.244397
 31
0.0
  0
ARC
  5
239
100
AcDbEntity
  8
LAY-1
  6
CONTINUOUS
 62
     2
100
AcDbCircle
 10
317.5
 20
660.244397
 30
0.0
 40
2.0
100
AcDbArc
 50
270.0
 51
0.0
  0
LINE
  5
23A
100
AcDbEntity
  8
LAY-1
  6
CONTINUOUS
 62
     2
100
AcDbLine
 10
95.5
 20
675.232199
 30
0.0
 11
95.5
 21
660.244397
 31
0.0
  0
ARC
  5
23B
100
AcDbEntity
  8
LAY-1
  6
CONTINUOUS
 62
     2
100
AcDbCircle
 10
97.5
 20
660.244397
 30
0.0
 40
2.0
100
AcDbArc
 50
180.0
 51
270.0
  0
LINE
  5
23C
100
AcDbEntity
  8
LAY-1
  6
CONTINUOUS
 62
     2
100
AcDbLine
 10
207.5
 20
-377.732199
 30
0.0
 11
319.5
 21
-377.732199
 31
0.0
  0
LINE
  5
23D
100
AcDbEntity
  8
LAY-1
  6
CONTINUOUS
 62
     2
100
AcDbLine
 10
207.5
 20
-377.732199
 30
0.0
 11
95.5
 21
-377.732199
 31
0.0
  0
LINE
  5
23E
100
AcDbEntity
  8
LAY-1
  6
CONTINUOUS
 62
     2
100
AcDbLine
 10
319.5
 20
-375.744397
 30
0.0
 11
95.5
 21
-375.744397
 31
0.0
  0
LINE
  5
23F
100
AcDbEntity
  8
LAY-1
  6
CONTINUOUS
 62
     2
100
AcDbLine
 10
235.466938
 20
-221.529204
 30
0.0
 11
253.42084
 21
-223.416235
 31
0.0
  0
LINE
  5
240
100
AcDbEntity
  8
LAY-1
  6
CONTINUOUS
 62
     2
100
AcDbLine
 10
179.57617
 20
-221.524673
 30
0.0
 11
161.580653
 21
-223.416078
 31
0.0
  0
LINE
  5
241
100
AcDbEntity
  8
LAY-1
  6
CONTINUOUS
 62
     2
100
AcDbLine
 10
179.531992
 20
-220.97574
 30
0.0
 11
179.531992
 21
-220.984847
 31
0.0
  0
ARC
  5
242
100
AcDbEntity
  8
LAY-1
  6
CONTINUOUS
 62
     2
100
AcDbCircle
 10
181.526464
 20
-221.370424
 30
0.0
 40
2.0
100
AcDbArc
 50
100.0
 51
184.26083
  0
LINE
  5
243
100
AcDbEntity
  8
LAY-1
  6
CONTINUOUS
 62
     2
100
AcDbLine
 10
181.179168
 20
-219.400808
 30
0.0
 11
182.324429
 21
-219.212537
 31
0.0
  0
ARC
  5
244
100
AcDbEntity
  8
LAY-1
  6
CONTINUOUS
 62
     2
100
AcDbCircle
 10
182.0
 20
-217.239026
 30
0.0
 40
2.0
100
AcDbArc
 50
279.335443
 51
0.0
  0
LINE
  5
245
100
AcDbEntity
  8
LAY-1
  6
CONTINUOUS
 62
     2
100
AcDbLine
 10
184.0
 20
-217.239026
 30
0.0
 11
184.0
 21
-211.885436
 31
0.0
  0
ARC
  5
246
100
AcDbEntity
  8
LAY-1
  6
CONTINUOUS
 62
     2
100
AcDbCircle
 10
189.0
 20
-211.885436
 30
0.0
 40
5.0
100
AcDbArc
 50
120.0
 51
180.0
  0
ARC
  5
247
100
AcDbEntity
  8
LAY-1
  6
CONTINUOUS
 62
     2
100
AcDbCircle
 10
185.0
 20
-204.957233
 30
0.0
 40
3.0
100
AcDbArc
 50
300.0
 51
0.0
  0
LINE
  5
248
100
AcDbEntity
  8
LAY-1
  6
CONTINUOUS
 62
     2
100
AcDbLine
 10
188.0
 20
-204.957233
 30
0.0
 11
188.0
 21
-196.266634
 31
0.0
  0
ARC
  5
249
100
AcDbEntity
  8
LAY-1
  6
CONTINUOUS
 62
     2
100
AcDbCircle
 10
193.0
 20
-196.266634
 30
0.0
 40
5.0
100
AcDbArc
 50
150.0
 51
180.0
  0
LINE
  5
24A
100
AcDbEntity
  8
LAY-1
  6
CONTINUOUS
 62
     2
100
AcDbLine
 10
188.669873
 20
-193.766634
 30
0.0
 11
190.646926
 21
-190.342279
 31
0.0
  0
ARC
  5
24B
100
AcDbEntity
  8
LAY-1
  6
CONTINUOUS
 62
     2
100
AcDbCircle
 10
188.04885
 20
-188.842279
 30
0.0
 40
3.0
100
AcDbArc
 50
330.0
 51
0.0
  0
ARC
  5
24C
100
AcDbEntity
  8
LAY-1
  6
CONTINUOUS
 62
     2
100
AcDbCircle
 10
226.951151
 20
-188.842279
 30
0.0
 40
3.0
100
AcDbArc
 50
180.0
 51
210.0
  0
LINE
  5
24D
100
AcDbEntity
  8
LAY-1
  6
CONTINUOUS
 62
     2
100
AcDbLine
 10
226.330127
 20
-193.766634
 30
0.0
 11
224.353075
 21
-190.342279
 31
0.0
  0
ARC
  5
24E
100
AcDbEntity
  8
LAY-1
  6
CONTINUOUS
 62
     2
100
AcDbCircle
 10
222.0
 20
-196.266634
 30
0.0
 40
5.0
100
AcDbArc
 50
0.0
 51
30.0
  0
LINE
  5
24F
100
AcDbEntity
  8
LAY-1
  6
CONTINUOUS
 62
     2
100
AcDbLine
 10
227.0
 20
-204.957233
 30
0.0
 11
227.0
 21
-196.266634
 31
0.0
  0
ARC
  5
250
100
AcDbEntity
  8
LAY-1
  6
CONTINUOUS
 62
     2
100
AcDbCircle
 10
230.0
 20
-204.957233
 30
0.0
 40
3.0
100
AcDbArc
 50
180.0
 51
240.0
  0
ARC
  5
251
100
AcDbEntity
  8
LAY-1
  6
CONTINUOUS
 62
     2
100
AcDbCircle
 10
226.0
 20
-211.885436
 30
0.0
 40
5.0
100
AcDbArc
 50
0.0
 51
60.0
  0
LINE
  5
252
100
AcDbEntity
  8
LAY-1
  6
CONTINUOUS
 62
     2
100
AcDbLine
 10
231.0
 20
-217.239026
 30
0.0
 11
231.0
 21
-211.885436
 31
0.0
  0
LINE
  5
253
100
AcDbEntity
  8
LAY-1
  6
CONTINUOUS
 62
     2
100
AcDbLine
 10
235.468009
 20
-220.97574
 30
0.0
 11
235.468009
 21
-220.984847
 31
0.0
  0
LINE
  5
254
100
AcDbEntity
  8
LAY-1
  6
CONTINUOUS
 62
     2
100
AcDbLine
 10
233.820833
 20
-219.400808
 30
0.0
 11
232.675572
 21
-219.212537
 31
0.0
  0
ARC
  5
255
100
AcDbEntity
  8
LAY-1
  6
CONTINUOUS
 62
     2
100
AcDbCircle
 10
233.0
 20
-217.239026
 30
0.0
 40
2.0
100
AcDbArc
 50
180.0
 51
260.664557
  0
ARC
  5
256
100
AcDbEntity
  8
LAY-1
  6
CONTINUOUS
 62
     2
100
AcDbCircle
 10
233.473536
 20
-221.370424
 30
0.0
 40
2.0
100
AcDbArc
 50
355.73917
 51
80.0
  0
LINE
  5
257
100
AcDbEntity
  8
LAY-1
  6
CONTINUOUS
 62
     2
100
AcDbLine
 10
223.951151
 20
-188.842279
 30
0.0
 11
223.951151
 21
-114.631212
 31
0.0
  0
ARC
  5
258
100
AcDbEntity
  8
LAY-1
  6
CONTINUOUS
 62
     2
100
AcDbCircle
 10
218.951151
 20
-114.631212
 30
0.0
 40
5.0
100
AcDbArc
 50
0.0
 51
50.492811
  0
ARC
  5
259
100
AcDbEntity
  8
LAY-1
  6
CONTINUOUS
 62
     2
100
AcDbCircle
 10
207.5
 20
-128.519018
 30
0.0
 40
23.0
100
AcDbArc
 50
50.492811
 51
90.0
  0
ARC
  5
25A
100
AcDbEntity
  8
LAY-1
  6
CONTINUOUS
 62
     2
100
AcDbCircle
 10
207.5
 20
-128.519018
 30
0.0
 40
23.0
100
AcDbArc
 50
90.0
 51
129.507189
  0
ARC
  5
25B
100
AcDbEntity
  8
LAY-1
  6
CONTINUOUS
 62
     2
100
AcDbCircle
 10
196.04885
 20
-114.631212
 30
0.0
 40
5.0
100
AcDbArc
 50
129.507189
 51
180.0
  0
LINE
  5
25C
100
AcDbEntity
  8
LAY-1
  6
CONTINUOUS
 62
     2
100
AcDbLine
 10
191.04885
 20
-188.842279
 30
0.0
 11
191.04885
 21
-114.631212
 31
0.0
  0
LINE
  5
25D
100
AcDbEntity
  8
LAY-1
  6
CONTINUOUS
 62
     2
100
AcDbLine
 10
164.052264
 20
-223.156302
 30
0.0
 11
161.580653
 21
-223.416078
 31
0.0
  0
LINE
  5
25E
100
AcDbEntity
  8
LAY-1
  6
CONTINUOUS
 62
     2
100
AcDbLine
 10
164.052264
 20
-223.156302
 30
0.0
 11
161.57916
 21
-223.416235
 31
0.0
  0
LINE
  5
25F
100
AcDbEntity
  8
LAY-1
  6
CONTINUOUS
 62
     2
100
AcDbLine
 10
317.5
 20
-360.744397
 30
0.0
 11
97.5
 21
-360.744397
 31
0.0
  0
LINE
  5
260
100
AcDbEntity
  8
LAY-1
  6
CONTINUOUS
 62
     2
100
AcDbLine
 10
141.14624
 20
-333.744397
 30
0.0
 11
126.328427
 21
-333.744397
 31
0.0
  0
LINE
  5
261
100
AcDbEntity
  8
LAY-1
  6
CONTINUOUS
 62
     2
100
AcDbLine
 10
124.914214
 20
-333.158611
 30
0.0
 11
124.085786
 21
-332.330184
 31
0.0
  0
LINE
  5
262
100
AcDbEntity
  8
LAY-1
  6
CONTINUOUS
 62
     2
100
AcDbLine
 10
107.5
 20
-331.744397
 30
0.0
 11
122.671573
 21
-331.744397
 31
0.0
  0
ARC
  5
263
100
AcDbEntity
  8
LAY-1
  6
CONTINUOUS
 62
     2
100
AcDbCircle
 10
141.14624
 20
-330.744397
 30
0.0
 40
3.0
100
AcDbArc
 50
270.0
 51
357.5304
  0
ARC
  5
264
100
AcDbEntity
  8
LAY-1
  6
CONTINUOUS
 62
     2
100
AcDbCircle
 10
163.14858
 20
-238.333907
 30
0.0
 40
15.0
100
AcDbArc
 50
96.0
 51
177.5304
  0
ARC
  5
265
100
AcDbEntity
  8
LAY-1
  6
CONTINUOUS
 62
     2
100
AcDbCircle
 10
274.5007
 20
-345.744397
 30
0.0
 40
3.0
100
AcDbArc
 50
182.4696
 51
270.0
  0
ARC
  5
266
100
AcDbEntity
  8
LAY-1
  6
CONTINUOUS
 62
     2
100
AcDbCircle
 10
251.85142
 20
-238.333907
 30
0.0
 40
15.0
100
AcDbArc
 50
2.4696
 51
84.0
  0
ARC
  5
267
100
AcDbEntity
  8
LAY-1
  6
CONTINUOUS
 62
     2
100
AcDbCircle
 10
107.5
 20
-333.744397
 30
0.0
 40
2.0
100
AcDbArc
 50
90.0
 51
180.0
  0
ARC
  5
268
100
AcDbEntity
  8
LAY-1
  6
CONTINUOUS
 62
     2
100
AcDbCircle
 10
126.328427
 20
-331.744397
 30
0.0
 40
2.0
100
AcDbArc
 50
225.0
 51
270.0
  0
ARC
  5
269
100
AcDbEntity
  8
LAY-1
  6
CONTINUOUS
 62
     2
100
AcDbCircle
 10
122.671573
 20
-333.744397
 30
0.0
 40
2.0
100
AcDbArc
 50
45.0
 51
90.0
  0
LINE
  5
26A
100
AcDbEntity
  8
LAY-1
  6
CONTINUOUS
 62
     2
100
AcDbLine
 10
319.5
 20
-377.732199
 30
0.0
 11
319.5
 21
-362.744397
 31
0.0
  0
ARC
  5
26B
100
AcDbEntity
  8
LAY-1
  6
CONTINUOUS
 62
     2
100
AcDbCircle
 10
317.5
 20
-362.744397
 30
0.0
 40
2.0
100
AcDbArc
 50
0.0
 51
90.0
  0
LINE
  5
26C
100
AcDbEntity
  8
LAY-1
  6
CONTINUOUS
 62
     2
100
AcDbLine
 10
95.5
 20
-377.732199
 30
0.0
 11
95.5
 21
-362.744397
 31
0.0
  0
ARC
  5
26D
100
AcDbEntity
  8
LAY-1
  6
CONTINUOUS
 62
     2
100
AcDbCircle
 10
97.5
 20
-362.744397
 30
0.0
 40
2.0
100
AcDbArc
 50
90.0
 51
180.0
  0
ARC
  5
26E
100
AcDbEntity
  8
LAY-1
  6
CONTINUOUS
 62
     2
100
AcDbCircle
 10
-461.0
 20
276.159391
 30
0.0
 40
2.0
100
AcDbArc
 50
180.0
 51
270.0
  0
ARC
  5
26F
100
AcDbEntity
  8
LAY-1
  6
CONTINUOUS
 62
     2
100
AcDbCircle
 10
-340.0
 20
276.159391
 30
0.0
 40
2.0
100
AcDbArc
 50
270.0
 51
0.0
  0
ARC
  5
270
100
AcDbEntity
  8
LAY-1
  6
CONTINUOUS
 62
     2
100
AcDbCircle
 10
-357.779994
 20
228.753432
 30
0.0
 40
10.0
100
AcDbArc
 50
192.59118
 51
270.0
  0
ARC
  5
271
100
AcDbEntity
  8
LAY-1
  6
CONTINUOUS
 62
     2
100
AcDbCircle
 10
-357.778461
 20
68.753432
 30
0.0
 40
10.0
100
AcDbArc
 50
90.0
 51
167.409918
  0
ARC
  5
272
100
AcDbEntity
  8
LAY-1
  6
CONTINUOUS
 62
     2
100
AcDbCircle
 10
-445.350273
 20
113.75
 30
0.0
 40
5.0
100
AcDbArc
 50
5.548314
 51
90.0
  0
LINE
  5
273
100
AcDbEntity
  8
LAY-1
  6
CONTINUOUS
 62
     2
100
AcDbLine
 10
-434.0
 20
290.25
 30
0.0
 11
-434.0
 21
291.25
 31
0.0
  0
LINE
  5
274
100
AcDbEntity
  8
LAY-1
  6
CONTINUOUS
 62
     2
100
AcDbLine
 10
-434.0
 20
291.25
 30
0.0
 11
-367.0
 21
291.25
 31
0.0
  0
LINE
  5
275
100
AcDbEntity
  8
LAY-1
  6
CONTINUOUS
 62
     2
100
AcDbLine
 10
-367.0
 20
291.25
 30
0.0
 11
-367.0
 21
290.25
 31
0.0
  0
ARC
  5
276
100
AcDbEntity
  8
LAY-1
  6
CONTINUOUS
 62
     2
100
AcDbCircle
 10
-85.046234
 20
148.75
 30
0.0
 40
357.0
100
AcDbArc
 50
162.524264
 51
174.451686
  0
ARC
  5
277
100
AcDbEntity
  8
LAY-1
  6
CONTINUOUS
 62
     2
100
AcDbCircle
 10
-715.953766
 20
148.75
 30
0.0
 40
357.0
100
AcDbArc
 50
12.59118
 51
17.475736
  0
ARC
  5
278
100
AcDbEntity
  8
LAY-1
  6
CONTINUOUS
 62
     2
100
AcDbCircle
 10
-356.354499
 20
261.963814
 30
0.0
 40
20.0
100
AcDbArc
 50
165.0
 51
197.475736
  0
ARC
  5
279
100
AcDbEntity
  8
LAY-1
  6
CONTINUOUS
 62
     2
100
AcDbCircle
 10
-444.645501
 20
261.963814
 30
0.0
 40
20.0
100
AcDbArc
 50
342.524264
 51
15.0
  0
ARC
  5
27A
100
AcDbEntity
  8
LAY-1
  6
CONTINUOUS
 62
     2
100
AcDbCircle
 10
-369.955593
 20
269.159391
 30
0.0
 40
5.0
100
AcDbArc
 50
90.0
 51
165.0
  0
LINE
  5
27B
100
AcDbEntity
  8
LAY-1
  6
CONTINUOUS
 62
     2
100
AcDbLine
 10
-374.785222
 20
270.453486
 30
0.0
 11
-375.673016
 21
267.140195
 31
0.0
  0
LINE
  5
27C
100
AcDbEntity
  8
LAY-1
  6
CONTINUOUS
 62
     2
100
AcDbLine
 10
-463.0
 20
290.25
 30
0.0
 11
-463.0
 21
276.159391
 31
0.0
  0
LINE
  5
27D
100
AcDbEntity
  8
LAY-1
  6
CONTINUOUS
 62
     2
100
AcDbLine
 10
-425.326984
 20
267.140195
 30
0.0
 11
-426.214778
 21
270.453486
 31
0.0
  0
ARC
  5
27E
100
AcDbEntity
  8
LAY-1
  6
CONTINUOUS
 62
     2
100
AcDbCircle
 10
-431.044407
 20
269.159391
 30
0.0
 40
5.0
100
AcDbArc
 50
15.0
 51
90.0
  0
LINE
  5
27F
100
AcDbEntity
  8
LAY-1
  6
CONTINUOUS
 62
     2
100
AcDbLine
 10
-338.0
 20
276.159391
 30
0.0
 11
-338.0
 21
290.25
 31
0.0
  0
LINE
  5
280
100
AcDbEntity
  8
LAY-1
  6
CONTINUOUS
 62
     2
100
AcDbLine
 10
-344.699818
 20
218.75
 30
0.0
 11
-357.779994
 21
218.75
 31
0.0
  0
LINE
  5
281
100
AcDbEntity
  8
LAY-1
  6
CONTINUOUS
 62
     2
100
AcDbLine
 10
-344.699818
 20
78.75
 30
0.0
 11
-357.779994
 21
78.75
 31
0.0
  0
ARC
  5
282
100
AcDbEntity
  8
LAY-1
  6
CONTINUOUS
 62
     2
100
AcDbCircle
 10
-344.900758
 20
68.75
 30
0.0
 40
10.0
100
AcDbArc
 50
24.443335
 51
90.0
  0
ARC
  5
283
100
AcDbEntity
  8
LAY-1
  6
CONTINUOUS
 62
     2
100
AcDbCircle
 10
-323.5
 20
258.75
 30
0.0
 40
2.0
100
AcDbArc
 50
90.0
 51
180.0
  0
ARC
  5
284
100
AcDbEntity
  8
LAY-1
  6
CONTINUOUS
 62
     2
100
AcDbCircle
 10
-344.900758
 20
228.75
 30
0.0
 40
10.0
100
AcDbArc
 50
270.0
 51
335.556665
  0
ARC
  5
285
100
AcDbEntity
  8
LAY-1
  6
CONTINUOUS
 62
     2
100
AcDbCircle
 10
-445.350273
 20
183.75
 30
0.0
 40
5.0
100
AcDbArc
 50
270.0
 51
354.451686
  0
LINE
  5
286
100
AcDbEntity
  8
LAY-1
  6
CONTINUOUS
 62
     2
100
AcDbLine
 10
-445.350273
 20
178.75
 30
0.0
 11
-449.5
 21
178.75
 31
0.0
  0
LINE
  5
287
100
AcDbEntity
  8
LAY-1
  6
CONTINUOUS
 62
     2
100
AcDbLine
 10
-465.5
 20
148.75
 30
0.0
 11
-465.5
 21
130.75
 31
0.0
  0
LINE
  5
288
100
AcDbEntity
  8
LAY-1
  6
CONTINUOUS
 62
     2
100
AcDbLine
 10
-463.9
 20
127.95
 30
0.0
 11
-465.5
 21
130.75
 31
0.0
  0
LINE
  5
289
100
AcDbEntity
  8
LAY-1
  6
CONTINUOUS
 62
     2
100
AcDbLine
 10
-463.9
 20
127.95
 30
0.0
 11
-455.5
 21
127.95
 31
0.0
  0
LINE
  5
28A
100
AcDbEntity
  8
LAY-1
  6
CONTINUOUS
 62
     2
100
AcDbLine
 10
-455.5
 20
122.25
 30
0.0
 11
-449.5
 21
122.25
 31
0.0
  0
LINE
  5
28B
100
AcDbEntity
  8
LAY-1
  6
CONTINUOUS
 62
     2
100
AcDbLine
 10
-455.5
 20
157.5
 30
0.0
 11
-455.5
 21
161.75
 31
0.0
  0
LINE
  5
28C
100
AcDbEntity
  8
LAY-1
  6
CONTINUOUS
 62
     2
100
AcDbLine
 10
-465.5
 20
148.75
 30
0.0
 11
-465.5
 21
166.75
 31
0.0
  0
LINE
  5
28D
100
AcDbEntity
  8
LAY-1
  6
CONTINUOUS
 62
     2
100
AcDbLine
 10
-463.9
 20
169.55
 30
0.0
 11
-465.5
 21
166.75
 31
0.0
  0
LINE
  5
28E
100
AcDbEntity
  8
LAY-1
  6
CONTINUOUS
 62
     2
100
AcDbLine
 10
-463.9
 20
169.55
 30
0.0
 11
-455.5
 21
169.55
 31
0.0
  0
LINE
  5
28F
100
AcDbEntity
  8
LAY-1
  6
CONTINUOUS
 62
     2
100
AcDbLine
 10
-455.5
 20
175.25
 30
0.0
 11
-449.5
 21
175.25
 31
0.0
  0
ARC
  5
290
100
AcDbEntity
  8
LAY-1
  6
CONTINUOUS
 62
     2
100
AcDbCircle
 10
-340.0
 20
19.340942
 30
0.0
 40
2.0
100
AcDbArc
 50
0.0
 51
90.0
  0
LINE
  5
291
100
AcDbEntity
  8
LAY-1
  6
CONTINUOUS
 62
     2
100
AcDbLine
 10
-338.0
 20
19.340942
 30
0.0
 11
-338.0
 21
6.25
 31
0.0
  0
LINE
  5
292
100
AcDbEntity
  8
LAY-1
  6
CONTINUOUS
 62
     2
100
AcDbLine
 10
-338.0
 20
6.25
 30
0.0
 11
-463.0
 21
6.25
 31
0.0
  0
LINE
  5
293
100
AcDbEntity
  8
LAY-1
  6
CONTINUOUS
 62
     2
100
AcDbLine
 10
-373.5
 20
45.037571
 30
0.0
 11
-373.5
 21
24.340942
 31
0.0
  0
ARC
  5
294
100
AcDbEntity
  8
LAY-1
  6
CONTINUOUS
 62
     2
100
AcDbCircle
 10
-353.5
 20
45.037571
 30
0.0
 40
20.0
100
AcDbArc
 50
164.032069
 51
180.0
  0
ARC
  5
295
100
AcDbEntity
  8
LAY-1
  6
CONTINUOUS
 62
     2
100
AcDbCircle
 10
-447.5
 20
45.037571
 30
0.0
 40
20.0
100
AcDbArc
 50
0.0
 51
15.967931
  0
LINE
  5
296
100
AcDbEntity
  8
LAY-1
  6
CONTINUOUS
 62
     2
100
AcDbLine
 10
-427.5
 20
45.037571
 30
0.0
 11
-427.5
 21
24.340942
 31
0.0
  0
ARC
  5
297
100
AcDbEntity
  8
LAY-1
  6
CONTINUOUS
 62
     2
100
AcDbCircle
 10
-430.5
 20
24.340942
 30
0.0
 40
3.0
100
AcDbArc
 50
270.0
 51
0.0
  0
ARC
  5
298
100
AcDbEntity
  8
LAY-1
  6
CONTINUOUS
 62
     2
100
AcDbCircle
 10
-461.0
 20
19.340942
 30
0.0
 40
2.0
100
AcDbArc
 50
90.0
 51
180.0
  0
LINE
  5
299
100
AcDbEntity
  8
LAY-1
  6
CONTINUOUS
 62
     2
100
AcDbLine
 10
-463.0
 20
19.340942
 30
0.0
 11
-463.0
 21
6.25
 31
0.0
  0
ARC
  5
29A
100
AcDbEntity
  8
LAY-1
  6
CONTINUOUS
 62
     2
100
AcDbCircle
 10
-370.5
 20
24.340942
 30
0.0
 40
3.0
100
AcDbArc
 50
180.0
 51
270.0
  0
LINE
  5
29B
100
AcDbEntity
  8
LAY-1
  6
CONTINUOUS
 62
     2
100
AcDbLine
 10
-340.0
 20
21.340942
 30
0.0
 11
-461.0
 21
21.340942
 31
0.0
  0
LINE
  5
29C
100
AcDbEntity
  8
LAY-1
  6
CONTINUOUS
 62
     2
100
AcDbLine
 10
-455.5
 20
122.25
 30
0.0
 11
-455.5
 21
175.25
 31
0.0
  0
LINE
  5
29D
100
AcDbEntity
  8
LAY-1
  6
CONTINUOUS
 62
     2
100
AcDbLine
 10
-449.5
 20
178.75
 30
0.0
 11
-449.5
 21
118.75
 31
0.0
  0
LINE
  5
29E
100
AcDbEntity
  8
LAY-1
  6
CONTINUOUS
 62
     2
100
AcDbLine
 10
-340.0
 20
274.159391
 30
0.0
 11
-461.0
 21
274.159391
 31
0.0
  0
LINE
  5
29F
100
AcDbEntity
  8
LAY-1
  6
CONTINUOUS
 62
     2
100
AcDbLine
 10
-338.0
 20
290.25
 30
0.0
 11
-463.0
 21
290.25
 31
0.0
  0
LINE
  5
2A0
100
AcDbEntity
  8
LAY-1
  6
CONTINUOUS
 62
     2
100
AcDbLine
 10
-445.350273
 20
118.75
 30
0.0
 11
-449.5
 21
118.75
 31
0.0
  0
LINE
  5
2A1
100
AcDbEntity
  8
LAY-1
  6
CONTINUOUS
 62
     2
100
AcDbLine
 10
-449.5
 20
178.75
 30
0.0
 11
-445.350273
 21
178.75
 31
0.0
  0
LINE
  5
2A2
100
AcDbEntity
  8
LAY-1
  6
CONTINUOUS
 62
     2
100
AcDbLine
 10
-449.5
 20
118.75
 30
0.0
 11
-445.350273
 21
118.75
 31
0.0
  0
ARC
  5
2A3
100
AcDbEntity
  8
LAY-1
  6
CONTINUOUS
 62
     2
100
AcDbCircle
 10
-342.45
 20
148.75
 30
0.0
 40
35.0
100
AcDbArc
 50
121.002719
 51
238.997281
  0
ARC
  5
2A4
100
AcDbEntity
  8
LAY-1
  6
CONTINUOUS
 62
     2
100
AcDbCircle
 10
-327.5
 20
137.217437
 30
0.0
 40
2.0
100
AcDbArc
 50
0.0
 51
62.513574
  0
ARC
  5
2A5
100
AcDbEntity
  8
LAY-1
  6
CONTINUOUS
 62
     2
100
AcDbCircle
 10
-327.5
 20
160.282563
 30
0.0
 40
2.0
100
AcDbArc
 50
297.486426
 51
0.0
  0
LINE
  5
2A6
100
AcDbEntity
  8
LAY-1
  6
CONTINUOUS
 62
     2
100
AcDbLine
 10
-325.5
 20
137.217437
 30
0.0
 11
-325.5
 21
133.75
 31
0.0
  0
LINE
  5
2A7
100
AcDbEntity
  8
LAY-1
  6
CONTINUOUS
 62
     2
100
AcDbLine
 10
-325.5
 20
163.75
 30
0.0
 11
-325.5
 21
160.282563
 31
0.0
  0
ARC
  5
2A8
100
AcDbEntity
  8
LAY-1
  6
CONTINUOUS
 62
     2
100
AcDbCircle
 10
-321.5
 20
148.75
 30
0.0
 40
11.0
100
AcDbArc
 50
117.486426
 51
242.513574
  0
LINE
  5
2A9
100
AcDbEntity
  8
LAY-1
  6
CONTINUOUS
 62
     2
100
AcDbLine
 10
-308.517801
 20
260.75
 30
0.0
 11
-323.5
 21
260.75
 31
0.0
  0
LINE
  5
2AA
100
AcDbEntity
  8
LAY-1
  6
CONTINUOUS
 62
     2
100
AcDbLine
 10
-415.5
 20
148.75
 30
0.0
 11
-415.5
 21
98.75
 31
0.0
  0
ARC
  5
2AB
100
AcDbEntity
  8
LAY-1
  6
CONTINUOUS
 62
     2
100
AcDbCircle
 10
-400.5
 20
98.75
 30
0.0
 40
15.0
100
AcDbArc
 50
180.0
 51
0.0
  0
ARC
  5
2AC
100
AcDbEntity
  8
LAY-1
  6
CONTINUOUS
 62
     2
100
AcDbCircle
 10
-400.5
 20
198.75
 30
0.0
 40
15.0
100
AcDbArc
 50
0.0
 51
180.0
  0
LINE
  5
2AD
100
AcDbEntity
  8
LAY-1
  6
CONTINUOUS
 62
     2
100
AcDbLine
 10
-415.5
 20
148.75
 30
0.0
 11
-415.5
 21
198.75
 31
0.0
  0
LINE
  5
2AE
100
AcDbEntity
  8
LAY-1
  6
CONTINUOUS
 62
     2
100
AcDbLine
 10
-403.5
 20
138.75
 30
0.0
 11
-406.5
 21
138.75
 31
0.0
  0
LINE
  5
2AF
100
AcDbEntity
  8
LAY-1
  6
CONTINUOUS
 62
     2
100
AcDbLine
 10
-403.5
 20
138.75
 30
0.0
 11
-409.5
 21
128.75
 31
0.0
  0
LINE
  5
2B0
100
AcDbEntity
  8
LAY-1
  6
CONTINUOUS
 62
     2
100
AcDbLine
 10
-409.5
 20
128.75
 30
0.0
 11
-409.5
 21
168.75
 31
0.0
  0
LINE
  5
2B1
100
AcDbEntity
  8
LAY-1
  6
CONTINUOUS
 62
     2
100
AcDbLine
 10
-403.5
 20
168.75
 30
0.0
 11
-403.5
 21
158.75
 31
0.0
  0
LINE
  5
2B2
100
AcDbEntity
  8
LAY-1
  6
CONTINUOUS
 62
     2
100
AcDbLine
 10
-406.5
 20
163.75
 30
0.0
 11
-409.5
 21
168.75
 31
0.0
  0
LINE
  5
2B3
100
AcDbEntity
  8
LAY-1
  6
CONTINUOUS
 62
     2
100
AcDbLine
 10
-403.5
 20
158.75
 30
0.0
 11
-406.5
 21
158.75
 31
0.0
  0
LINE
  5
2B4
100
AcDbEntity
  8
LAY-1
  6
CONTINUOUS
 62
     2
100
AcDbLine
 10
-406.5
 20
158.75
 30
0.0
 11
-406.5
 21
138.75
 31
0.0
  0
LINE
  5
2B5
100
AcDbEntity
  8
LAY-1
  6
CONTINUOUS
 62
     2
100
AcDbLine
 10
-406.5
 20
163.75
 30
0.0
 11
-403.5
 21
168.75
 31
0.0
  0
ARC
  5
2B6
100
AcDbEntity
  8
LAY-1
  6
CONTINUOUS
 62
     2
100
AcDbCircle
 10
-387.5
 20
175.75
 30
0.0
 40
2.0
100
AcDbArc
 50
270.0
 51
0.0
  0
LINE
  5
2B7
100
AcDbEntity
  8
LAY-1
  6
CONTINUOUS
 62
     2
100
AcDbLine
 10
-387.5
 20
173.75
 30
0.0
 11
-413.5
 21
173.75
 31
0.0
  0
ARC
  5
2B8
100
AcDbEntity
  8
LAY-1
  6
CONTINUOUS
 62
     2
100
AcDbCircle
 10
-413.5
 20
175.75
 30
0.0
 40
2.0
100
AcDbArc
 50
180.0
 51
270.0
  0
ARC
  5
2B9
100
AcDbEntity
  8
LAY-1
  6
CONTINUOUS
 62
     2
100
AcDbCircle
 10
-387.5
 20
121.75
 30
0.0
 40
2.0
100
AcDbArc
 50
0.0
 51
90.0
  0
LINE
  5
2BA
100
AcDbEntity
  8
LAY-1
  6
CONTINUOUS
 62
     2
100
AcDbLine
 10
-387.5
 20
123.75
 30
0.0
 11
-413.5
 21
123.75
 31
0.0
  0
ARC
  5
2BB
100
AcDbEntity
  8
LAY-1
  6
CONTINUOUS
 62
     2
100
AcDbCircle
 10
-413.5
 20
121.75
 30
0.0
 40
2.0
100
AcDbArc
 50
90.0
 51
180.0
  0
ARC
  5
2BC
100
AcDbEntity
  8
LAY-1
  6
CONTINUOUS
 62
     2
100
AcDbCircle
 10
876.0
 20
276.159391
 30
0.0
 40
2.0
100
AcDbArc
 50
270.0
 51
0.0
  0
ARC
  5
2BD
100
AcDbEntity
  8
LAY-1
  6
CONTINUOUS
 62
     2
100
AcDbCircle
 10
755.0
 20
276.159391
 30
0.0
 40
2.0
100
AcDbArc
 50
180.0
 51
270.0
  0
ARC
  5
2BE
100
AcDbEntity
  8
LAY-1
  6
CONTINUOUS
 62
     2
100
AcDbCircle
 10
772.779994
 20
228.753432
 30
0.0
 40
10.0
100
AcDbArc
 50
270.0
 51
347.40882
  0
ARC
  5
2BF
100
AcDbEntity
  8
LAY-1
  6
CONTINUOUS
 62
     2
100
AcDbCircle
 10
772.778461
 20
68.753432
 30
0.0
 40
10.0
100
AcDbArc
 50
12.590082
 51
90.0
  0
ARC
  5
2C0
100
AcDbEntity
  8
LAY-1
  6
CONTINUOUS
 62
     2
100
AcDbCircle
 10
860.350273
 20
113.75
 30
0.0
 40
5.0
100
AcDbArc
 50
90.0
 51
174.451686
  0
LINE
  5
2C1
100
AcDbEntity
  8
LAY-1
  6
CONTINUOUS
 62
     2
100
AcDbLine
 10
849.0
 20
290.25
 30
0.0
 11
849.0
 21
291.25
 31
0.0
  0
LINE
  5
2C2
100
AcDbEntity
  8
LAY-1
  6
CONTINUOUS
 62
     2
100
AcDbLine
 10
849.0
 20
291.25
 30
0.0
 11
782.0
 21
291.25
 31
0.0
  0
LINE
  5
2C3
100
AcDbEntity
  8
LAY-1
  6
CONTINUOUS
 62
     2
100
AcDbLine
 10
782.0
 20
291.25
 30
0.0
 11
782.0
 21
290.25
 31
0.0
  0
ARC
  5
2C4
100
AcDbEntity
  8
LAY-1
  6
CONTINUOUS
 62
     2
100
AcDbCircle
 10
500.046234
 20
148.75
 30
0.0
 40
357.0
100
AcDbArc
 50
5.548314
 51
17.475736
  0
ARC
  5
2C5
100
AcDbEntity
  8
LAY-1
  6
CONTINUOUS
 62
     2
100
AcDbCircle
 10
1130.953766
 20
148.75
 30
0.0
 40
357.0
100
AcDbArc
 50
162.524264
 51
167.40882
  0
ARC
  5
2C6
100
AcDbEntity
  8
LAY-1
  6
CONTINUOUS
 62
     2
100
AcDbCircle
 10
771.354499
 20
261.963814
 30
0.0
 40
20.0
100
AcDbArc
 50
342.524264
 51
15.0
  0
ARC
  5
2C7
100
AcDbEntity
  8
LAY-1
  6
CONTINUOUS
 62
     2
100
AcDbCircle
 10
859.645501
 20
261.963814
 30
0.0
 40
20.0
100
AcDbArc
 50
165.0
 51
197.475736
  0
ARC
  5
2C8
100
AcDbEntity
  8
LAY-1
  6
CONTINUOUS
 62
     2
100
AcDbCircle
 10
784.955593
 20
269.159391
 30
0.0
 40
5.0
100
AcDbArc
 50
15.0
 51
90.0
  0
LINE
  5
2C9
100
AcDbEntity
  8
LAY-1
  6
CONTINUOUS
 62
     2
100
AcDbLine
 10
789.785222
 20
270.453486
 30
0.0
 11
790.673016
 21
267.140195
 31
0.0
  0
LINE
  5
2CA
100
AcDbEntity
  8
LAY-1
  6
CONTINUOUS
 62
     2
100
AcDbLine
 10
878.0
 20
290.25
 30
0.0
 11
878.0
 21
276.159391
 31
0.0
  0
LINE
  5
2CB
100
AcDbEntity
  8
LAY-1
  6
CONTINUOUS
 62
     2
100
AcDbLine
 10
840.326984
 20
267.140195
 30
0.0
 11
841.214778
 21
270.453486
 31
0.0
  0
ARC
  5
2CC
100
AcDbEntity
  8
LAY-1
  6
CONTINUOUS
 62
     2
100
AcDbCircle
 10
846.044407
 20
269.159391
 30
0.0
 40
5.0
100
AcDbArc
 50
90.0
 51
165.0
  0
LINE
  5
2CD
100
AcDbEntity
  8
LAY-1
  6
CONTINUOUS
 62
     2
100
AcDbLine
 10
753.0
 20
276.159391
 30
0.0
 11
753.0
 21
290.25
 31
0.0
  0
LINE
  5
2CE
100
AcDbEntity
  8
LAY-1
  6
CONTINUOUS
 62
     2
100
AcDbLine
 10
759.699818
 20
218.75
 30
0.0
 11
772.779994
 21
218.75
 31
0.0
  0
LINE
  5
2CF
100
AcDbEntity
  8
LAY-1
  6
CONTINUOUS
 62
     2
100
AcDbLine
 10
759.699818
 20
78.75
 30
0.0
 11
772.779994
 21
78.75
 31
0.0
  0
ARC
  5
2D0
100
AcDbEntity
  8
LAY-1
  6
CONTINUOUS
 62
     2
100
AcDbCircle
 10
759.900758
 20
68.75
 30
0.0
 40
10.0
100
AcDbArc
 50
90.0
 51
155.556665
  0
ARC
  5
2D1
100
AcDbEntity
  8
LAY-1
  6
CONTINUOUS
 62
     2
100
AcDbCircle
 10
738.5
 20
258.75
 30
0.0
 40
2.0
100
AcDbArc
 50
0.0
 51
90.0
  0
ARC
  5
2D2
100
AcDbEntity
  8
LAY-1
  6
CONTINUOUS
 62
     2
100
AcDbCircle
 10
759.900758
 20
228.75
 30
0.0
 40
10.0
100
AcDbArc
 50
204.443335
 51
270.0
  0
ARC
  5
2D3
100
AcDbEntity
  8
LAY-1
  6
CONTINUOUS
 62
     2
100
AcDbCircle
 10
860.350273
 20
183.75
 30
0.0
 40
5.0
100
AcDbArc
 50
185.548314
 51
270.0
  0
LINE
  5
2D4
100
AcDbEntity
  8
LAY-1
  6
CONTINUOUS
 62
     2
100
AcDbLine
 10
860.350273
 20
178.75
 30
0.0
 11
864.5
 21
178.75
 31
0.0
  0
LINE
  5
2D5
100
AcDbEntity
  8
LAY-1
  6
CONTINUOUS
 62
     2
100
AcDbLine
 10
880.5
 20
148.75
 30
0.0
 11
880.5
 21
130.75
 31
0.0
  0
LINE
  5
2D6
100
AcDbEntity
  8
LAY-1
  6
CONTINUOUS
 62
     2
100
AcDbLine
 10
878.9
 20
127.95
 30
0.0
 11
880.5
 21
130.75
 31
0.0
  0
LINE
  5
2D7
100
AcDbEntity
  8
LAY-1
  6
CONTINUOUS
 62
     2
100
AcDbLine
 10
878.9
 20
127.95
 30
0.0
 11
870.5
 21
127.95
 31
0.0
  0
LINE
  5
2D8
100
AcDbEntity
  8
LAY-1
  6
CONTINUOUS
 62
     2
100
AcDbLine
 10
870.5
 20
122.25
 30
0.0
 11
864.5
 21
122.25
 31
0.0
  0
LINE
  5
2D9
100
AcDbEntity
  8
LAY-1
  6
CONTINUOUS
 62
     2
100
AcDbLine
 10
870.5
 20
157.5
 30
0.0
 11
870.5
 21
161.75
 31
0.0
  0
LINE
  5
2DA
100
AcDbEntity
  8
LAY-1
  6
CONTINUOUS
 62
     2
100
AcDbLine
 10
880.5
 20
148.75
 30
0.0
 11
880.5
 21
166.75
 31
0.0
  0
LINE
  5
2DB
100
AcDbEntity
  8
LAY-1
  6
CONTINUOUS
 62
     2
100
AcDbLine
 10
878.9
 20
169.55
 30
0.0
 11
880.5
 21
166.75
 31
0.0
  0
LINE
  5
2DC
100
AcDbEntity
  8
LAY-1
  6
CONTINUOUS
 62
     2
100
AcDbLine
 10
878.9
 20
169.55
 30
0.0
 11
870.5
 21
169.55
 31
0.0
  0
LINE
  5
2DD
100
AcDbEntity
  8
LAY-1
  6
CONTINUOUS
 62
     2
100
AcDbLine
 10
870.5
 20
175.25
 30
0.0
 11
864.5
 21
175.25
 31
0.0
  0
ARC
  5
2DE
100
AcDbEntity
  8
LAY-1
  6
CONTINUOUS
 62
     2
100
AcDbCircle
 10
755.0
 20
19.340942
 30
0.0
 40
2.0
100
AcDbArc
 50
90.0
 51
180.0
  0
LINE
  5
2DF
100
AcDbEntity
  8
LAY-1
  6
CONTINUOUS
 62
     2
100
AcDbLine
 10
753.0
 20
19.340942
 30
0.0
 11
753.0
 21
6.25
 31
0.0
  0
LINE
  5
2E0
100
AcDbEntity
  8
LAY-1
  6
CONTINUOUS
 62
     2
100
AcDbLine
 10
753.0
 20
6.25
 30
0.0
 11
878.0
 21
6.25
 31
0.0
  0
LINE
  5
2E1
100
AcDbEntity
  8
LAY-1
  6
CONTINUOUS
 62
     2
100
AcDbLine
 10
788.5
 20
45.037571
 30
0.0
 11
788.5
 21
24.340942
 31
0.0
  0
ARC
  5
2E2
100
AcDbEntity
  8
LAY-1
  6
CONTINUOUS
 62
     2
100
AcDbCircle
 10
768.5
 20
45.037571
 30
0.0
 40
20.0
100
AcDbArc
 50
0.0
 51
15.967931
  0
ARC
  5
2E3
100
AcDbEntity
  8
LAY-1
  6
CONTINUOUS
 62
     2
100
AcDbCircle
 10
862.5
 20
45.037571
 30
0.0
 40
20.0
100
AcDbArc
 50
164.032069
 51
180.0
  0
LINE
  5
2E4
100
AcDbEntity
  8
LAY-1
  6
CONTINUOUS
 62
     2
100
AcDbLine
 10
842.5
 20
45.037571
 30
0.0
 11
842.5
 21
24.340942
 31
0.0
  0
ARC
  5
2E5
100
AcDbEntity
  8
LAY-1
  6
CONTINUOUS
 62
     2
100
AcDbCircle
 10
845.5
 20
24.340942
 30
0.0
 40
3.0
100
AcDbArc
 50
180.0
 51
270.0
  0
ARC
  5
2E6
100
AcDbEntity
  8
LAY-1
  6
CONTINUOUS
 62
     2
100
AcDbCircle
 10
876.0
 20
19.340942
 30
0.0
 40
2.0
100
AcDbArc
 50
0.0
 51
90.0
  0
LINE
  5
2E7
100
AcDbEntity
  8
LAY-1
  6
CONTINUOUS
 62
     2
100
AcDbLine
 10
878.0
 20
19.340942
 30
0.0
 11
878.0
 21
6.25
 31
0.0
  0
ARC
  5
2E8
100
AcDbEntity
  8
LAY-1
  6
CONTINUOUS
 62
     2
100
AcDbCircle
 10
785.5
 20
24.340942
 30
0.0
 40
3.0
100
AcDbArc
 50
270.0
 51
0.0
  0
LINE
  5
2E9
100
AcDbEntity
  8
LAY-1
  6
CONTINUOUS
 62
     2
100
AcDbLine
 10
755.0
 20
21.340942
 30
0.0
 11
876.0
 21
21.340942
 31
0.0
  0
LINE
  5
2EA
100
AcDbEntity
  8
LAY-1
  6
CONTINUOUS
 62
     2
100
AcDbLine
 10
870.5
 20
122.25
 30
0.0
 11
870.5
 21
175.25
 31
0.0
  0
LINE
  5
2EB
100
AcDbEntity
  8
LAY-1
  6
CONTINUOUS
 62
     2
100
AcDbLine
 10
864.5
 20
178.75
 30
0.0
 11
864.5
 21
118.75
 31
0.0
  0
LINE
  5
2EC
100
AcDbEntity
  8
LAY-1
  6
CONTINUOUS
 62
     2
100
AcDbLine
 10
755.0
 20
274.159391
 30
0.0
 11
876.0
 21
274.159391
 31
0.0
  0
LINE
  5
2ED
100
AcDbEntity
  8
LAY-1
  6
CONTINUOUS
 62
     2
100
AcDbLine
 10
753.0
 20
290.25
 30
0.0
 11
878.0
 21
290.25
 31
0.0
  0
LINE
  5
2EE
100
AcDbEntity
  8
LAY-1
  6
CONTINUOUS
 62
     2
100
AcDbLine
 10
860.350273
 20
118.75
 30
0.0
 11
864.5
 21
118.75
 31
0.0
  0
LINE
  5
2EF
100
AcDbEntity
  8
LAY-1
  6
CONTINUOUS
 62
     2
100
AcDbLine
 10
864.5
 20
178.75
 30
0.0
 11
860.350273
 21
178.75
 31
0.0
  0
LINE
  5
2F0
100
AcDbEntity
  8
LAY-1
  6
CONTINUOUS
 62
     2
100
AcDbLine
 10
864.5
 20
118.75
 30
0.0
 11
860.350273
 21
118.75
 31
0.0
  0
ARC
  5
2F1
100
AcDbEntity
  8
LAY-1
  6
CONTINUOUS
 62
     2
100
AcDbCircle
 10
757.45
 20
148.75
 30
0.0
 40
35.0
100
AcDbArc
 50
301.002719
 51
58.997281
  0
LINE
  5
2F2
100
AcDbEntity
  8
LAY-1
  6
CONTINUOUS
 62
     2
100
AcDbLine
 10
723.517801
 20
260.75
 30
0.0
 11
738.5
 21
260.75
 31
0.0
  0
LINE
  5
2F3
100
AcDbEntity
  8
LAY-1
  6
CONTINUOUS
 62
     2
100
AcDbLine
 10
830.5
 20
148.75
 30
0.0
 11
830.5
 21
98.75
 31
0.0
  0
LINE
  5
2F4
100
AcDbEntity
  8
LAY-1
  6
CONTINUOUS
 62
     2
100
AcDbLine
 10
800.5
 20
98.75
 30
0.0
 11
800.5
 21
148.75
 31
0.0
  0
ARC
  5
2F5
100
AcDbEntity
  8
LAY-1
  6
CONTINUOUS
 62
     2
100
AcDbCircle
 10
815.5
 20
98.75
 30
0.0
 40
15.0
100
AcDbArc
 50
180.0
 51
0.0
  0
ARC
  5
2F6
100
AcDbEntity
  8
LAY-1
  6
CONTINUOUS
 62
     2
100
AcDbCircle
 10
815.5
 20
198.75
 30
0.0
 40
15.0
100
AcDbArc
 50
0.0
 51
180.0
  0
LINE
  5
2F7
100
AcDbEntity
  8
LAY-1
  6
CONTINUOUS
 62
     2
100
AcDbLine
 10
800.5
 20
198.75
 30
0.0
 11
800.5
 21
148.75
 31
0.0
  0
LINE
  5
2F8
100
AcDbEntity
  8
LAY-1
  6
CONTINUOUS
 62
     2
100
AcDbLine
 10
830.5
 20
148.75
 30
0.0
 11
830.5
 21
198.75
 31
0.0
  0
ARC
  5
2F9
100
AcDbEntity
  8
LAY-1
  6
CONTINUOUS
 62
     2
100
AcDbCircle
 10
802.5
 20
175.75
 30
0.0
 40
2.0
100
AcDbArc
 50
180.0
 51
270.0
  0
LINE
  5
2FA
100
AcDbEntity
  8
LAY-1
  6
CONTINUOUS
 62
     2
100
AcDbLine
 10
802.5
 20
173.75
 30
0.0
 11
828.5
 21
173.75
 31
0.0
  0
ARC
  5
2FB
100
AcDbEntity
  8
LAY-1
  6
CONTINUOUS
 62
     2
100
AcDbCircle
 10
828.5
 20
175.75
 30
0.0
 40
2.0
100
AcDbArc
 50
270.0
 51
0.0
  0
ARC
  5
2FC
100
AcDbEntity
  8
LAY-1
  6
CONTINUOUS
 62
     2
100
AcDbCircle
 10
802.5
 20
121.75
 30
0.0
 40
2.0
100
AcDbArc
 50
90.0
 51
180.0
  0
LINE
  5
2FD
100
AcDbEntity
  8
LAY-1
  6
CONTINUOUS
 62
     2
100
AcDbLine
 10
802.5
 20
123.75
 30
0.0
 11
828.5
 21
123.75
 31
0.0
  0
ARC
  5
2FE
100
AcDbEntity
  8
LAY-1
  6
CONTINUOUS
 62
     2
100
AcDbCircle
 10
828.5
 20
121.75
 30
0.0
 40
2.0
100
AcDbArc
 50
0.0
 51
90.0
  0
ARC
  5
2FF
100
AcDbEntity
  8
LAY-1
  6
CONTINUOUS
 62
     2
100
AcDbCircle
 10
742.5
 20
137.217437
 30
0.0
 40
2.0
100
AcDbArc
 50
117.486426
 51
180.0
  0
ARC
  5
300
100
AcDbEntity
  8
LAY-1
  6
CONTINUOUS
 62
     2
100
AcDbCircle
 10
742.5
 20
160.282563
 30
0.0
 40
2.0
100
AcDbArc
 50
180.0
 51
242.513574
  0
LINE
  5
301
100
AcDbEntity
  8
LAY-1
  6
CONTINUOUS
 62
     2
100
AcDbLine
 10
740.5
 20
137.217437
 30
0.0
 11
740.5
 21
133.75
 31
0.0
  0
LINE
  5
302
100
AcDbEntity
  8
LAY-1
  6
CONTINUOUS
 62
     2
100
AcDbLine
 10
740.5
 20
163.75
 30
0.0
 11
740.5
 21
160.282563
 31
0.0
  0
ARC
  5
303
100
AcDbEntity
  8
LAY-1
  6
CONTINUOUS
 62
     2
100
AcDbCircle
 10
736.5
 20
148.75
 30
0.0
 40
11.0
100
AcDbArc
 50
297.486426
 51
62.513574
  0
ARC
  5
304
100
AcDbEntity
  8
LAY-1
  6
CONTINUOUS
 62
     2
100
AcDbCircle
 10
97.5
 20
695.232199
 30
0.0
 40
2.0
100
AcDbArc
 50
90.0
 51
180.0
  0
ARC
  5
305
100
AcDbEntity
  8
LAY-1
  6
CONTINUOUS
 62
     2
100
AcDbCircle
 10
317.5
 20
695.232199
 30
0.0
 40
2.0
100
AcDbArc
 50
0.0
 51
90.0
  0
CIRCLE
  5
306
100
AcDbEntity
  8
LAY-1
  6
CONTINUOUS
 62
     2
100
AcDbCircle
 10
207.5
 20
765.232199
 30
0.0
 40
62.5
  0
CIRCLE
  5
307
100
AcDbEntity
  8
LAY-1
  6
CONTINUOUS
 62
     2
100
AcDbCircle
 10
175.680195
 20
733.412393
 30
0.0
 40
9.5
  0
CIRCLE
  5
308
100
AcDbEntity
  8
LAY-1
  6
CONTINUOUS
 62
     2
100
AcDbCircle
 10
239.319805
 20
733.412393
 30
0.0
 40
9.5
  0
CIRCLE
  5
309
100
AcDbEntity
  8
LAY-1
  6
CONTINUOUS
 62
     2
100
AcDbCircle
 10
175.680195
 20
797.052004
 30
0.0
 40
9.5
  0
CIRCLE
  5
30A
100
AcDbEntity
  8
LAY-1
  6
CONTINUOUS
 62
     2
100
AcDbCircle
 10
239.319805
 20
797.052004
 30
0.0
 40
9.5
  0
CIRCLE
  5
30B
100
AcDbEntity
  8
LAY-1
  6
CONTINUOUS
 62
     2
100
AcDbCircle
 10
207.5
 20
765.232199
 30
0.0
 40
33.5
  0
CIRCLE
  5
30C
100
AcDbEntity
  8
LAY-1
  6
CONTINUOUS
 62
     2
100
AcDbCircle
 10
207.5
 20
765.232199
 30
0.0
 40
17.0
  0
CIRCLE
  5
30D
100
AcDbEntity
  8
LAY-1
  6
CONTINUOUS
 62
     2
100
AcDbCircle
 10
207.5
 20
765.232199
 30
0.0
 40
13.6
  0
LINE
  5
30E
100
AcDbEntity
  8
LAY-1
  6
CONTINUOUS
 62
     2
100
AcDbLine
 10
95.5
 20
673.244397
 30
0.0
 11
95.5
 21
695.232199
 31
0.0
  0
LINE
  5
30F
100
AcDbEntity
  8
LAY-1
  6
CONTINUOUS
 62
     2
100
AcDbLine
 10
319.5
 20
673.244397
 30
0.0
 11
319.5
 21
695.232199
 31
0.0
  0
ARC
  5
310
100
AcDbEntity
  8
LAY-1
  6
CONTINUOUS
 62
     2
100
AcDbCircle
 10
97.5
 20
-397.732199
 30
0.0
 40
2.0
100
AcDbArc
 50
180.0
 51
270.0
  0
ARC
  5
311
100
AcDbEntity
  8
LAY-1
  6
CONTINUOUS
 62
     2
100
AcDbCircle
 10
317.5
 20
-397.732199
 30
0.0
 40
2.0
100
AcDbArc
 50
270.0
 51
0.0
  0
LINE
  5
312
100
AcDbEntity
  8
LAY-1
  6
CONTINUOUS
 62
     2
100
AcDbLine
 10
95.5
 20
-375.744397
 30
0.0
 11
95.5
 21
-397.732199
 31
0.0
  0
LINE
  5
313
100
AcDbEntity
  8
LAY-1
  6
CONTINUOUS
 62
     2
100
AcDbLine
 10
319.5
 20
-375.744397
 30
0.0
 11
319.5
 21
-397.732199
 31
0.0
  0
CIRCLE
  5
314
100
AcDbEntity
  8
LAY-1
  6
CONTINUOUS
 62
     2
100
AcDbCircle
 10
207.5
 20
-467.732199
 30
0.0
 40
62.5
  0
CIRCLE
  5
315
100
AcDbEntity
  8
LAY-1
  6
CONTINUOUS
 62
     2
100
AcDbCircle
 10
175.680195
 20
-499.552004
 30
0.0
 40
9.5
  0
CIRCLE
  5
316
100
AcDbEntity
  8
LAY-1
  6
CONTINUOUS
 62
     2
100
AcDbCircle
 10
239.319805
 20
-499.552004
 30
0.0
 40
9.5
  0
CIRCLE
  5
317
100
AcDbEntity
  8
LAY-1
  6
CONTINUOUS
 62
     2
100
AcDbCircle
 10
175.680195
 20
-435.912393
 30
0.0
 40
9.5
  0
CIRCLE
  5
318
100
AcDbEntity
  8
LAY-1
  6
CONTINUOUS
 62
     2
100
AcDbCircle
 10
239.319805
 20
-435.912393
 30
0.0
 40
9.5
  0
CIRCLE
  5
319
100
AcDbEntity
  8
LAY-1
  6
CONTINUOUS
 62
     2
100
AcDbCircle
 10
207.5
 20
-467.732199
 30
0.0
 40
17.0
  0
CIRCLE
  5
31A
100
AcDbEntity
  8
LAY-1
  6
CONTINUOUS
 62
     2
100
AcDbCircle
 10
207.5
 20
-467.732199
 30
0.0
 40
21.808326
  0
LINE
  5
31B
100
AcDbEntity
  8
LAY-1
  6
CONTINUOUS
 62
     2
100
AcDbLine
 10
-310.5
 20
36.75
 30
0.0
 11
-323.5
 21
36.75
 31
0.0
  0
ARC
  5
31C
100
AcDbEntity
  8
LAY-1
  6
CONTINUOUS
 62
     2
100
AcDbCircle
 10
-323.5
 20
38.75
 30
0.0
 40
2.0
100
AcDbArc
 50
180.0
 51
270.0
  0
ARC
  5
31D
100
AcDbEntity
  8
LAY-1
  6
CONTINUOUS
 62
     2
100
AcDbCircle
 10
-318.5
 20
216.75
 30
0.0
 40
19.0
100
AcDbArc
 50
135.071306
 51
155.556665
  0
ARC
  5
31E
100
AcDbEntity
  8
LAY-1
  6
CONTINUOUS
 62
     2
100
AcDbCircle
 10
-293.517801
 20
224.166129
 30
0.0
 40
9.5
100
AcDbArc
 50
0.0
 51
39.183587
  0
ARC
  5
31F
100
AcDbEntity
  8
LAY-1
  6
CONTINUOUS
 62
     2
100
AcDbCircle
 10
-318.5
 20
80.75
 30
0.0
 40
19.0
100
AcDbArc
 50
204.443335
 51
224.928694
  0
LINE
  5
320
100
AcDbEntity
  8
LAY-1
  6
CONTINUOUS
 62
     2
100
AcDbLine
 10
-291.083728
 20
64.150992
 30
0.0
 11
-291.157905
 21
64.13133
 31
0.0
  0
ARC
  5
321
100
AcDbEntity
  8
LAY-1
  6
CONTINUOUS
 62
     2
100
AcDbCircle
 10
-293.517801
 20
73.333872
 30
0.0
 40
9.5
100
AcDbArc
 50
284.845786
 51
286.511664
  0
ARC
  5
322
100
AcDbEntity
  8
LAY-1
  6
CONTINUOUS
 62
     2
100
AcDbCircle
 10
-293.517801
 20
73.333872
 30
0.0
 40
9.5
100
AcDbArc
 50
320.816407
 51
0.0
  0
LINE
  5
323
100
AcDbEntity
  8
LAY-1
  6
CONTINUOUS
 62
     2
100
AcDbLine
 10
-360.477756
 20
118.75
 30
0.0
 11
-333.499826
 21
118.75
 31
0.0
  0
LINE
  5
324
100
AcDbEntity
  8
LAY-1
  6
CONTINUOUS
 62
     2
100
AcDbLine
 10
-360.477756
 20
178.75
 30
0.0
 11
-333.499826
 21
178.75
 31
0.0
  0
ARC
  5
325
100
AcDbEntity
  8
LAY-1
  6
CONTINUOUS
 62
     2
100
AcDbCircle
 10
140.4993
 20
643.244397
 30
0.0
 40
3.0
100
AcDbArc
 50
2.4696
 51
90.0
  0
LINE
  5
326
100
AcDbEntity
  8
LAY-1
  6
CONTINUOUS
 62
     2
100
AcDbLine
 10
148.162511
 20
535.187567
 30
0.0
 11
143.496513
 21
643.373665
 31
0.0
  0
ARC
  5
327
100
AcDbEntity
  8
LAY-1
  6
CONTINUOUS
 62
     2
100
AcDbCircle
 10
140.4993
 20
-345.744397
 30
0.0
 40
3.0
100
AcDbArc
 50
270.0
 51
357.5304
  0
LINE
  5
328
100
AcDbEntity
  8
LAY-1
  6
CONTINUOUS
 62
     2
100
AcDbLine
 10
148.162511
 20
-237.687567
 30
0.0
 11
143.496513
 21
-345.873665
 31
0.0
  0
LINE
  5
329
100
AcDbEntity
  8
LAY-1
  6
CONTINUOUS
 62
     2
100
AcDbLine
 10
725.5
 20
36.75
 30
0.0
 11
738.5
 21
36.75
 31
0.0
  0
ARC
  5
32A
100
AcDbEntity
  8
LAY-1
  6
CONTINUOUS
 62
     2
100
AcDbCircle
 10
738.5
 20
38.75
 30
0.0
 40
2.0
100
AcDbArc
 50
270.0
 51
0.0
  0
LINE
  5
32B
100
AcDbEntity
  8
LAY-1
  6
CONTINUOUS
 62
     2
100
AcDbLine
 10
708.517801
 20
258.75
 30
0.0
 11
708.517801
 21
38.75
 31
0.0
  0
ARC
  5
32C
100
AcDbEntity
  8
LAY-1
  6
CONTINUOUS
 62
     2
100
AcDbCircle
 10
708.517801
 20
73.333872
 30
0.0
 40
9.5
100
AcDbArc
 50
180.0
 51
219.183593
  0
ARC
  5
32D
100
AcDbEntity
  8
LAY-1
  6
CONTINUOUS
 62
     2
100
AcDbCircle
 10
733.5
 20
80.75
 30
0.0
 40
19.0
100
AcDbArc
 50
315.071306
 51
335.556665
  0
LINE
  5
32E
100
AcDbEntity
  8
LAY-1
  6
CONTINUOUS
 62
     2
100
AcDbLine
 10
706.083728
 20
233.349009
 30
0.0
 11
706.157905
 21
233.36867
 31
0.0
  0
ARC
  5
32F
100
AcDbEntity
  8
LAY-1
  6
CONTINUOUS
 62
     2
100
AcDbCircle
 10
708.517801
 20
224.166129
 30
0.0
 40
9.5
100
AcDbArc
 50
104.845786
 51
106.511664
  0
ARC
  5
330
100
AcDbEntity
  8
LAY-1
  6
CONTINUOUS
 62
     2
100
AcDbCircle
 10
708.517801
 20
224.166129
 30
0.0
 40
9.5
100
AcDbArc
 50
140.816413
 51
180.0
  0
ARC
  5
331
100
AcDbEntity
  8
LAY-1
  6
CONTINUOUS
 62
     2
100
AcDbCircle
 10
733.5
 20
216.75
 30
0.0
 40
19.0
100
AcDbArc
 50
24.443335
 51
44.928694
  0
LINE
  5
332
100
AcDbEntity
  8
LAY-1
  6
CONTINUOUS
 62
     2
100
AcDbLine
 10
775.477756
 20
118.75
 30
0.0
 11
748.499826
 21
118.75
 31
0.0
  0
LINE
  5
333
100
AcDbEntity
  8
LAY-1
  6
CONTINUOUS
 62
     2
100
AcDbLine
 10
775.477756
 20
178.75
 30
0.0
 11
748.499826
 21
178.75
 31
0.0
  0
LINE
  5
334
100
AcDbEntity
  8
LAY-1
  6
CONTINUOUS
 62
     2
100
AcDbLine
 10
-385.5
 20
198.75
 30
0.0
 11
-385.5
 21
98.75
 31
0.0
  0
LINE
  5
335
100
AcDbEntity
  8
LAY-1
  6
CONTINUOUS
 62
     2
100
AcDbLine
 10
-390.159493
 20
368.214623
 30
0.0
 11
-390.159493
 21
358.214623
 31
0.0
  0
LINE
  5
336
100
AcDbEntity
  8
LAY-1
  6
CONTINUOUS
 62
     2
100
AcDbLine
 10
-390.159493
 20
358.214623
 30
0.0
 11
-380.159493
 21
358.214623
 31
0.0
  0
LINE
  5
337
100
AcDbEntity
  8
LAY-1
  6
CONTINUOUS
 62
     2
100
AcDbLine
 10
-380.159493
 20
358.214623
 30
0.0
 11
-400.5
 21
338.25
 31
0.0
  0
LINE
  5
338
100
AcDbEntity
  8
LAY-1
  6
CONTINUOUS
 62
     2
100
AcDbLine
 10
-400.5
 20
338.25
 30
0.0
 11
-420.464623
 21
358.214623
 31
0.0
  0
LINE
  5
339
100
AcDbEntity
  8
LAY-1
  6
CONTINUOUS
 62
     2
100
AcDbLine
 10
-420.464623
 20
358.214623
 30
0.0
 11
-410.159493
 21
358.214623
 31
0.0
  0
LINE
  5
33A
100
AcDbEntity
  8
LAY-1
  6
CONTINUOUS
 62
     2
100
AcDbLine
 10
-410.159493
 20
358.214623
 30
0.0
 11
-410.159493
 21
367.874116
 31
0.0
  0
LINE
  5
33B
100
AcDbEntity
  8
LAY-1
  6
CONTINUOUS
 62
     2
100
AcDbLine
 10
-410.159493
 20
367.874116
 30
0.0
 11
-390.159493
 21
367.874116
 31
0.0
  0
LINE
  5
33C
100
AcDbEntity
  8
LAY-1
  6
CONTINUOUS
 62
     2
100
AcDbLine
 10
805.159493
 20
368.214623
 30
0.0
 11
805.159493
 21
358.214623
 31
0.0
  0
LINE
  5
33D
100
AcDbEntity
  8
LAY-1
  6
CONTINUOUS
 62
     2
100
AcDbLine
 10
805.159493
 20
358.214623
 30
0.0
 11
795.159493
 21
358.214623
 31
0.0
  0
LINE
  5
33E
100
AcDbEntity
  8
LAY-1
  6
CONTINUOUS
 62
     2
100
AcDbLine
 10
795.159493
 20
358.214623
 30
0.0
 11
815.5
 21
338.25
 31
0.0
  0
LINE
  5
33F
100
AcDbEntity
  8
LAY-1
  6
CONTINUOUS
 62
     2
100
AcDbLine
 10
815.5
 20
338.25
 30
0.0
 11
835.464623
 21
358.214623
 31
0.0
  0
LINE
  5
340
100
AcDbEntity
  8
LAY-1
  6
CONTINUOUS
 62
     2
100
AcDbLine
 10
835.464623
 20
358.214623
 30
0.0
 11
825.159493
 21
358.214623
 31
0.0
  0
LINE
  5
341
100
AcDbEntity
  8
LAY-1
  6
CONTINUOUS
 62
     2
100
AcDbLine
 10
825.159493
 20
358.214623
 30
0.0
 11
825.159493
 21
367.874116
 31
0.0
  0
LINE
  5
342
100
AcDbEntity
  8
LAY-1
  6
CONTINUOUS
 62
     2
100
AcDbLine
 10
825.159493
 20
367.874116
 30
0.0
 11
805.159493
 21
367.874116
 31
0.0
  0
ARC
  5
343
100
AcDbEntity
  8
LAY-1
  6
CONTINUOUS
 62
     2
100
AcDbCircle
 10
139.5
 20
680.850272
 30
0.0
 40
19.0
100
AcDbArc
 50
92.0
 51
134.928694
  0
LINE
  5
344
100
AcDbEntity
  8
LAY-1
  6
CONTINUOUS
 62
     2
100
AcDbLine
 10
129.875424
 20
697.232199
 30
0.0
 11
126.081702
 21
697.232199
 31
0.0
  0
LINE
  5
345
100
AcDbEntity
  8
LAY-1
  6
CONTINUOUS
 62
     2
100
AcDbLine
 10
104.142392
 20
697.232199
 30
0.0
 11
97.5
 21
697.232199
 31
0.0
  0
LINE
  5
346
100
AcDbEntity
  8
LAY-1
  6
CONTINUOUS
 62
     2
100
AcDbLine
 10
319.5
 20
690.232199
 30
0.0
 11
95.5
 21
690.232199
 31
0.0
  0
LINE
  5
347
100
AcDbEntity
  8
LAY-1
  6
CONTINUOUS
 62
     2
100
AcDbLine
 10
288.918298
 20
697.232199
 30
0.0
 11
285.124576
 21
697.232199
 31
0.0
  0
LINE
  5
348
100
AcDbEntity
  8
LAY-1
  6
CONTINUOUS
 62
     2
100
AcDbLine
 10
317.5
 20
697.232199
 30
0.0
 11
310.857608
 21
697.232199
 31
0.0
  0
ARC
  5
349
100
AcDbEntity
  8
LAY-1
  6
CONTINUOUS
 62
     2
100
AcDbCircle
 10
275.5
 20
680.850272
 30
0.0
 40
19.0
100
AcDbArc
 50
45.071306
 51
88.0
  0
LINE
  5
34A
100
AcDbEntity
  8
LAY-1
  6
CONTINUOUS
 62
     2
100
AcDbLine
 10
125.6
 20
631.107028
 30
0.0
 11
125.6
 21
646.120395
 31
0.0
  0
LINE
  5
34B
100
AcDbEntity
  8
LAY-1
  6
CONTINUOUS
 62
     2
100
AcDbLine
 10
123.3
 20
629.244397
 30
0.0
 11
123.3
 21
645.550159
 31
0.0
  0
LINE
  5
34C
100
AcDbEntity
  8
LAY-1
  6
CONTINUOUS
 62
     2
100
AcDbLine
 10
105.5
 20
645.61469
 30
0.0
 11
105.5
 21
631.244397
 31
0.0
  0
ARC
  5
34D
100
AcDbEntity
  8
LAY-1
  6
CONTINUOUS
 62
     2
100
AcDbCircle
 10
103.5
 20
656.244397
 30
0.0
 40
2.0
100
AcDbArc
 50
0.0
 51
4.03704
  0
LINE
  5
34E
100
AcDbEntity
  8
LAY-1
  6
CONTINUOUS
 62
     2
100
AcDbLine
 10
266.837489
 20
535.187567
 30
0.0
 11
271.503487
 21
643.373665
 31
0.0
  0
LINE
  5
34F
100
AcDbEntity
  8
LAY-1
  6
CONTINUOUS
 62
     2
100
AcDbLine
 10
-325.5
 20
137.217437
 30
0.0
 11
-325.5
 21
38.75
 31
0.0
  0
LINE
  5
350
100
AcDbEntity
  8
LAY-1
  6
CONTINUOUS
 62
     2
100
AcDbLine
 10
-325.5
 20
258.75
 30
0.0
 11
-325.5
 21
160.282563
 31
0.0
  0
LINE
  5
351
100
AcDbEntity
  8
LAY-1
  6
CONTINUOUS
 62
     2
100
AcDbLine
 10
740.5
 20
137.217437
 30
0.0
 11
740.5
 21
38.75
 31
0.0
  0
LINE
  5
352
100
AcDbEntity
  8
LAY-1
  6
CONTINUOUS
 62
     2
100
AcDbLine
 10
740.5
 20
258.75
 30
0.0
 11
740.5
 21
160.282563
 31
0.0
  0
LINE
  5
353
100
AcDbEntity
  8
LAY-1
  6
CONTINUOUS
 62
     2
100
AcDbLine
 10
-293.517801
 20
135.190049
 30
0.0
 11
-293.517801
 21
36.75
 31
0.0
  0
LINE
  5
354
100
AcDbEntity
  8
LAY-1
  6
CONTINUOUS
 62
     2
100
AcDbLine
 10
-293.517801
 20
258.75
 30
0.0
 11
-293.517801
 21
162.309951
 31
0.0
  0
LINE
  5
355
100
AcDbEntity
  8
LAY-1
  6
CONTINUOUS
 62
     2
100
AcDbLine
 10
319.5
 20
-392.732199
 30
0.0
 11
95.5
 21
-392.732199
 31
0.0
  0
ARC
  5
356
100
AcDbEntity
  8
LAY-1
  6
CONTINUOUS
 62
     2
100
AcDbCircle
 10
275.5
 20
-383.350272
 30
0.0
 40
19.0
100
AcDbArc
 50
272.0
 51
314.928694
  0
ARC
  5
357
100
AcDbEntity
  8
LAY-1
  6
CONTINUOUS
 62
     2
100
AcDbCircle
 10
139.5
 20
-383.350272
 30
0.0
 40
19.0
100
AcDbArc
 50
225.071306
 51
268.0
  0
LINE
  5
358
100
AcDbEntity
  8
LAY-1
  6
CONTINUOUS
 62
     2
100
AcDbLine
 10
288.918298
 20
-399.732199
 30
0.0
 11
285.124576
 21
-399.732199
 31
0.0
  0
LINE
  5
359
100
AcDbEntity
  8
LAY-1
  6
CONTINUOUS
 62
     2
100
AcDbLine
 10
317.5
 20
-399.732199
 30
0.0
 11
310.857608
 21
-399.732199
 31
0.0
  0
LINE
  5
35A
100
AcDbEntity
  8
LAY-1
  6
CONTINUOUS
 62
     2
100
AcDbLine
 10
129.875424
 20
-399.732199
 30
0.0
 11
126.081702
 21
-399.732199
 31
0.0
  0
LINE
  5
35B
100
AcDbEntity
  8
LAY-1
  6
CONTINUOUS
 62
     2
100
AcDbLine
 10
104.142392
 20
-399.732199
 30
0.0
 11
97.5
 21
-399.732199
 31
0.0
  0
LINE
  5
35C
100
AcDbEntity
  8
LAY-1
  6
CONTINUOUS
 62
     2
100
AcDbLine
 10
266.837489
 20
-237.687567
 30
0.0
 11
271.503487
 21
-345.873665
 31
0.0
  0
ARC
  5
35D
100
AcDbEntity
  8
LAY-1
  6
CONTINUOUS
 62
     2
100
AcDbCircle
 10
167.5
 20
710.84573
 30
0.0
 40
10.0
100
AcDbArc
 50
272.0
 51
357.492106
  0
ARC
  5
35E
100
AcDbEntity
  8
LAY-1
  6
CONTINUOUS
 62
     2
100
AcDbCircle
 10
247.5
 20
710.84573
 30
0.0
 40
10.0
100
AcDbArc
 50
182.507894
 51
268.0
  0
LINE
  5
35F
100
AcDbEntity
  8
LAY-1
  6
CONTINUOUS
 62
     2
100
AcDbLine
 10
105.5
 20
-348.05
 30
0.0
 11
105.5
 21
-333.744397
 31
0.0
  0
LINE
  5
360
100
AcDbEntity
  8
LAY-1
  6
CONTINUOUS
 62
     2
100
AcDbLine
 10
123.3
 20
-331.744397
 30
0.0
 11
123.3
 21
-348.05
 31
0.0
  0
LINE
  5
361
100
AcDbEntity
  8
LAY-1
  6
CONTINUOUS
 62
     2
100
AcDbLine
 10
125.6
 20
-333.607028
 30
0.0
 11
125.6
 21
-348.608327
 31
0.0
  0
LINE
  5
362
100
AcDbEntity
  8
LAY-1
  6
CONTINUOUS
 62
     2
100
AcDbLine
 10
289.158335
 20
-348.744397
 30
0.0
 11
256.497961
 21
-348.744397
 31
0.0
  0
LINE
  5
363
100
AcDbEntity
  8
LAY-1
  6
CONTINUOUS
 62
     2
100
AcDbLine
 10
179.934389
 20
-348.744397
 30
0.0
 11
235.038725
 21
-348.744397
 31
0.0
  0
LINE
  5
364
100
AcDbEntity
  8
LAY-1
  6
CONTINUOUS
 62
     2
100
AcDbLine
 10
125.841665
 20
-348.744397
 30
0.0
 11
158.502039
 21
-348.744397
 31
0.0
  0
LINE
  5
365
100
AcDbEntity
  8
LAY-1
  6
CONTINUOUS
 62
     2
100
AcDbLine
 10
289.185221
 20
646.244397
 30
0.0
 11
256.471075
 21
646.244397
 31
0.0
  0
LINE
  5
366
100
AcDbEntity
  8
LAY-1
  6
CONTINUOUS
 62
     2
100
AcDbLine
 10
235.065611
 20
646.244397
 30
0.0
 11
179.934389
 21
646.244397
 31
0.0
  0
LINE
  5
367
100
AcDbEntity
  8
LAY-1
  6
CONTINUOUS
 62
     2
100
AcDbLine
 10
125.814779
 20
646.244397
 30
0.0
 11
158.502039
 21
646.244397
 31
0.0
  0
LINE
  5
368
100
AcDbEntity
  8
LAY-1
  6
CONTINUOUS
 62
     2
100
AcDbLine
 10
-284.017801
 20
197.987999
 30
0.0
 11
-284.017801
 21
224.166129
 31
0.0
  0
LINE
  5
369
100
AcDbEntity
  8
LAY-1
  6
CONTINUOUS
 62
     2
100
AcDbLine
 10
-284.017801
 20
160.046827
 30
0.0
 11
-284.017801
 21
176.048688
 31
0.0
  0
LINE
  5
36A
100
AcDbEntity
  8
LAY-1
  6
CONTINUOUS
 62
     2
100
AcDbLine
 10
-284.017801
 20
137.453173
 30
0.0
 11
-284.017801
 21
121.451312
 31
0.0
  0
LINE
  5
36B
100
AcDbEntity
  8
LAY-1
  6
CONTINUOUS
 62
     2
100
AcDbLine
 10
-284.017801
 20
99.512001
 30
0.0
 11
-284.017801
 21
73.333872
 31
0.0
  0
LINE
  5
36C
100
AcDbEntity
  8
LAY-1
  6
CONTINUOUS
 62
     2
100
AcDbLine
 10
699.017801
 20
197.987999
 30
0.0
 11
699.017801
 21
224.166129
 31
0.0
  0
LINE
  5
36D
100
AcDbEntity
  8
LAY-1
  6
CONTINUOUS
 62
     2
100
AcDbLine
 10
699.017801
 20
163.25
 30
0.0
 11
699.017801
 21
176.048688
 31
0.0
  0
LINE
  5
36E
100
AcDbEntity
  8
LAY-1
  6
CONTINUOUS
 62
     2
100
AcDbLine
 10
699.017801
 20
99.512001
 30
0.0
 11
699.017801
 21
73.333872
 31
0.0
  0
LINE
  5
36F
100
AcDbEntity
  8
LAY-1
  6
CONTINUOUS
 62
     2
100
AcDbLine
 10
699.017801
 20
134.25
 30
0.0
 11
699.017801
 21
121.451312
 31
0.0
  0
CIRCLE
  5
370
100
AcDbEntity
  8
LAY-1
  6
CONTINUOUS
 62
     2
100
AcDbCircle
 10
207.5
 20
148.75
 30
0.0
 40
57.900272
  0
CIRCLE
  5
371
100
AcDbEntity
  8
LAY-1
  6
CONTINUOUS
 62
     2
100
AcDbCircle
 10
207.5
 20
148.75
 30
0.0
 40
112.0
  0
ARC
  5
372
100
AcDbEntity
  8
LAY-1
  6
CONTINUOUS
 62
     2
100
AcDbCircle
 10
697.517801
 20
135.25
 30
0.0
 40
1.0
100
AcDbArc
 50
180.0
 51
270.0
  0
LINE
  5
373
100
AcDbEntity
  8
LAY-1
  6
CONTINUOUS
 62
     2
100
AcDbLine
 10
697.517801
 20
134.25
 30
0.0
 11
705.517801
 21
134.25
 31
0.0
  0
ARC
  5
374
100
AcDbEntity
  8
LAY-1
  6
CONTINUOUS
 62
     2
100
AcDbCircle
 10
697.517801
 20
162.25
 30
0.0
 40
1.0
100
AcDbArc
 50
90.0
 51
180.0
  0
LINE
  5
375
100
AcDbEntity
  8
LAY-1
  6
CONTINUOUS
 62
     2
100
AcDbLine
 10
697.517801
 20
163.25
 30
0.0
 11
705.517801
 21
163.25
 31
0.0
  0
ARC
  5
376
100
AcDbEntity
  8
LAY-1
  6
CONTINUOUS
 62
     3
100
AcDbCircle
 10
207.5
 20
300.726596
 30
0.0
 40
220.076784
100
AcDbArc
 50
82.69894
 51
97.30106
  0
ARC
  5
377
100
AcDbEntity
  8
LAY-1
  6
CONTINUOUS
 62
     3
100
AcDbCircle
 10
207.5
 20
-3.226596
 30
0.0
 40
220.076784
100
AcDbArc
 50
262.69894
 51
277.30106
  0
LINE
  5
378
100
AcDbEntity
  8
LAY-1
  6
CONTINUOUS
 62
     3
100
AcDbLine
 10
230.620765
 20
187.95163
 30
0.0
 11
234.863506
 21
185.973207
 31
0.0
  0
LINE
  5
379
100
AcDbEntity
  8
LAY-1
  6
CONTINUOUS
 62
     3
100
AcDbLine
 10
234.863506
 20
185.973207
 30
0.0
 11
224.42129
 21
173.960811
 31
0.0
  0
LINE
  5
37A
100
AcDbEntity
  8
LAY-1
  6
CONTINUOUS
 62
     3
100
AcDbLine
 10
246.674152
 20
173.016494
 30
0.0
 11
244.118824
 21
171.694201
 31
0.0
  0
LINE
  5
37B
100
AcDbEntity
  8
LAY-1
  6
CONTINUOUS
 62
     3
100
AcDbLine
 10
241.797169
 20
174.169791
 30
0.0
 11
244.129654
 21
171.699805
 31
0.0
  0
LINE
  5
37C
100
AcDbEntity
  8
LAY-1
  6
CONTINUOUS
 62
     3
100
AcDbLine
 10
236.566288
 20
179.709034
 30
0.0
 11
238.674213
 21
177.476846
 31
0.0
  0
LINE
  5
37D
100
AcDbEntity
  8
LAY-1
  6
CONTINUOUS
 62
     3
100
AcDbLine
 10
239.128245
 20
181.034758
 30
0.0
 11
236.566288
 21
179.709034
 31
0.0
  0
LINE
  5
37E
100
AcDbEntity
  8
LAY-1
  6
CONTINUOUS
 62
     3
100
AcDbLine
 10
239.159754
 20
180.973867
 30
0.0
 11
246.674152
 21
173.016494
 31
0.0
  0
LINE
  5
37F
100
AcDbEntity
  8
LAY-1
  6
CONTINUOUS
 62
     3
100
AcDbLine
 10
241.818626
 20
174.147069
 30
0.0
 11
230.227027
 21
168.148818
 31
0.0
  0
LINE
  5
380
100
AcDbEntity
  8
LAY-1
  6
CONTINUOUS
 62
     3
100
AcDbLine
 10
227.090186
 20
171.470577
 30
0.0
 11
230.227027
 21
168.148818
 31
0.0
  0
LINE
  5
381
100
AcDbEntity
  8
LAY-1
  6
CONTINUOUS
 62
     3
100
AcDbLine
 10
238.679085
 20
177.467431
 30
0.0
 11
227.090186
 21
171.470577
 31
0.0
  0
ELLIPSE
  5
382
100
AcDbEntity
  8
LAY-1
  6
CONTINUOUS
 62
     3
100
AcDbEllipse
 10
242.274721
 20
162.999344
 30
0.0
 11
7.9446102896612301
 21
0.4664310901749094
 31
0.0
210
0.0
220
0.0
230
1.0
 40
0.66547
 41
0.0
 42
6.2831853071796004
  0
ELLIPSE
  5
383
100
AcDbEntity
  8
LAY-1
  6
CONTINUOUS
 62
     3
100
AcDbEllipse
 10
242.208974
 20
163.075911
 30
0.0
 11
-4.7779196695278134
 21
-1.0687841837768477
 31
0.0
210
0.0
220
0.0
230
1.0
 40
0.1875
 41
0.0
 42
6.2831853071796004
  0
LINE
  5
384
100
AcDbEntity
  8
LAY-1
  6
CONTINUOUS
 62
     3
100
AcDbLine
 10
252.854649
 20
145.950814
 30
0.0
 11
237.571607
 21
150.396734
 31
0.0
  0
LINE
  5
385
100
AcDbEntity
  8
LAY-1
  6
CONTINUOUS
 62
     3
100
AcDbLine
 10
252.871098
 20
150.234783
 30
0.0
 11
237.588056
 21
154.680703
 31
0.0
  0
LINE
  5
386
100
AcDbEntity
  8
LAY-1
  6
CONTINUOUS
 62
     3
100
AcDbLine
 10
252.847599
 20
144.114828
 30
0.0
 11
246.096787
 21
147.916713
 31
0.0
  0
LINE
  5
387
100
AcDbEntity
  8
LAY-1
  6
CONTINUOUS
 62
     3
100
AcDbLine
 10
237.562207
 20
147.948752
 30
0.0
 11
246.096787
 21
147.916713
 31
0.0
  0
LINE
  5
388
100
AcDbEntity
  8
LAY-1
  6
CONTINUOUS
 62
     3
100
AcDbLine
 10
252.83115
 20
139.83086
 30
0.0
 11
245.018703
 21
144.230631
 31
0.0
  0
LINE
  5
389
100
AcDbEntity
  8
LAY-1
  6
CONTINUOUS
 62
     3
100
AcDbLine
 10
252.871098
 20
150.234783
 30
0.0
 11
252.854649
 21
145.950814
 31
0.0
  0
LINE
  5
38A
100
AcDbEntity
  8
LAY-1
  6
CONTINUOUS
 62
     3
100
AcDbLine
 10
245.018703
 20
144.230631
 30
0.0
 11
237.548038
 21
144.258676
 31
0.0
  0
LINE
  5
38B
100
AcDbEntity
  8
LAY-1
  6
CONTINUOUS
 62
     3
100
AcDbLine
 10
252.847599
 20
144.114828
 30
0.0
 11
252.83115
 21
139.83086
 31
0.0
  0
LINE
  5
38C
100
AcDbEntity
  8
LAY-1
  6
CONTINUOUS
 62
     3
100
AcDbLine
 10
237.588056
 20
154.680703
 30
0.0
 11
237.571607
 21
150.396734
 31
0.0
  0
LINE
  5
38D
100
AcDbEntity
  8
LAY-1
  6
CONTINUOUS
 62
     3
100
AcDbLine
 10
237.562207
 20
147.948752
 30
0.0
 11
237.548038
 21
144.258676
 31
0.0
  0
ELLIPSE
  5
38E
100
AcDbEntity
  8
LAY-1
  6
CONTINUOUS
 62
     3
100
AcDbEllipse
 10
242.958316
 20
136.174566
 30
0.0
 11
-3.9749161294072843
 21
2.8584712284959894
 31
0.0
210
0.0
220
0.0
230
1.0
 40
0.1875
 41
0.0
 42
6.2831853071796004
  0
ELLIPSE
  5
38F
100
AcDbEntity
  8
LAY-1
  6
CONTINUOUS
 62
     3
100
AcDbEllipse
 10
242.944833
 20
136.07455
 30
0.0
 11
5.6303070175116448
 21
-5.6244140587978428
 31
0.0
210
0.0
220
0.0
230
1.0
 40
0.66547
 41
0.0
 42
6.2831853071796004
  0
LINE
  5
390
100
AcDbEntity
  8
LAY-1
  6
CONTINUOUS
 62
     3
100
AcDbLine
 10
230.371312
 20
129.983195
 30
0.0
 11
227.879739
 21
127.26126
 31
0.0
  0
LINE
  5
391
100
AcDbEntity
  8
LAY-1
  6
CONTINUOUS
 62
     3
100
AcDbLine
 10
233.390804
 20
122.217474
 30
0.0
 11
227.879739
 21
127.26126
 31
0.0
  0
LINE
  5
392
100
AcDbEntity
  8
LAY-1
  6
CONTINUOUS
 62
     3
100
AcDbLine
 10
234.916786
 20
134.948927
 30
0.0
 11
232.024212
 21
131.788916
 31
0.0
  0
LINE
  5
393
100
AcDbEntity
  8
LAY-1
  6
CONTINUOUS
 62
     3
100
AcDbLine
 10
243.240282
 20
121.382166
 30
0.0
 11
240.347708
 21
118.222155
 31
0.0
  0
LINE
  5
394
100
AcDbEntity
  8
LAY-1
  6
CONTINUOUS
 62
     3
100
AcDbLine
 10
240.347708
 20
118.222155
 30
0.0
 11
232.024212
 21
131.788916
 31
0.0
  0
LINE
  5
395
100
AcDbEntity
  8
LAY-1
  6
CONTINUOUS
 62
     3
100
AcDbLine
 10
230.371312
 20
129.983195
 30
0.0
 11
236.667221
 21
124.22111
 31
0.0
  0
LINE
  5
396
100
AcDbEntity
  8
LAY-1
  6
CONTINUOUS
 62
     3
100
AcDbLine
 10
239.108033
 20
116.867865
 30
0.0
 11
236.667221
 21
124.22111
 31
0.0
  0
LINE
  5
397
100
AcDbEntity
  8
LAY-1
  6
CONTINUOUS
 62
     3
100
AcDbLine
 10
236.215459
 20
113.707854
 30
0.0
 11
233.390804
 21
122.217474
 31
0.0
  0
LINE
  5
398
100
AcDbEntity
  8
LAY-1
  6
CONTINUOUS
 62
     3
100
AcDbLine
 10
239.108033
 20
116.867865
 30
0.0
 11
236.215459
 21
113.707854
 31
0.0
  0
LINE
  5
399
100
AcDbEntity
  8
LAY-1
  6
CONTINUOUS
 62
     3
100
AcDbLine
 10
243.240282
 20
121.382166
 30
0.0
 11
234.916786
 21
134.948927
 31
0.0
  0
LINE
  5
39A
100
AcDbEntity
  8
LAY-1
  6
CONTINUOUS
 62
     3
100
AcDbLine
 10
227.43435
 20
125.446201
 30
0.0
 11
230.743593
 21
109.877435
 31
0.0
  0
LINE
  5
39B
100
AcDbEntity
  8
LAY-1
  6
CONTINUOUS
 62
     3
100
AcDbLine
 10
230.743593
 20
109.877435
 30
0.0
 11
226.610209
 21
107.679676
 31
0.0
  0
LINE
  5
39C
100
AcDbEntity
  8
LAY-1
  6
CONTINUOUS
 62
     3
100
AcDbLine
 10
227.43435
 20
125.446201
 30
0.0
 11
223.300966
 21
123.248442
 31
0.0
  0
LINE
  5
39D
100
AcDbEntity
  8
LAY-1
  6
CONTINUOUS
 62
     3
100
AcDbLine
 10
226.610209
 20
107.679676
 30
0.0
 11
223.300966
 21
123.248442
 31
0.0
  0
LINE
  5
39E
100
AcDbEntity
  8
LAY-1
  6
CONTINUOUS
 62
     3
100
AcDbLine
 10
220.178548
 20
175.939234
 30
0.0
 11
230.620765
 21
187.95163
 31
0.0
  0
LINE
  5
39F
100
AcDbEntity
  8
LAY-1
  6
CONTINUOUS
 62
     3
100
AcDbLine
 10
220.178548
 20
175.939234
 30
0.0
 11
224.42129
 21
173.960811
 31
0.0
  0
ARC
  5
3A0
100
AcDbEntity
  8
LAY-1
  6
CONTINUOUS
 62
     3
100
AcDbCircle
 10
351.0
 20
148.75
 30
0.0
 40
220.076784
100
AcDbArc
 50
352.69894
 51
0.0
  0
ARC
  5
3A1
100
AcDbEntity
  8
LAY-1
  6
CONTINUOUS
 62
     3
100
AcDbCircle
 10
351.0
 20
148.75
 30
0.0
 40
220.076784
100
AcDbArc
 50
0.0
 51
7.30106
  0
LINE
  5
3A2
100
AcDbEntity
  8
LAY-1
  6
CONTINUOUS
 62
     1
100
AcDbLine
 10
207.5
 20
185.75
 30
0.0
 11
200.256349
 21
185.75
 31
0.0
  0
LINE
  5
3A3
100
AcDbEntity
  8
LAY-1
  6
CONTINUOUS
 62
     1
100
AcDbLine
 10
199.271061
 20
186.617438
 30
0.0
 11
199.271061
 21
182.209915
 31
0.0
  0
LINE
  5
3A4
100
AcDbEntity
  8
LAY-1
  6
CONTINUOUS
 62
     1
100
AcDbLine
 10
199.271061
 20
182.209915
 30
0.0
 11
199.950945
 21
182.983576
 31
0.0
  0
LINE
  5
3A5
100
AcDbEntity
  8
LAY-1
  6
CONTINUOUS
 62
     1
100
AcDbLine
 10
207.5
 20
182.983576
 30
0.0
 11
207.5
 21
180.393496
 31
0.0
  0
LINE
  5
3A6
100
AcDbEntity
  8
LAY-1
  6
CONTINUOUS
 62
     1
100
AcDbLine
 10
207.5
 20
180.393496
 30
0.0
 11
206.926908
 21
179.400871
 31
0.0
  0
LINE
  5
3A7
100
AcDbEntity
  8
LAY-1
  6
CONTINUOUS
 62
     1
100
AcDbLine
 10
206.926908
 20
179.400871
 30
0.0
 11
210.289868
 21
181.342477
 31
0.0
  0
LINE
  5
3A8
100
AcDbEntity
  8
LAY-1
  6
CONTINUOUS
 62
     1
100
AcDbLine
 10
210.289868
 20
181.342477
 30
0.0
 11
209.727206
 21
181.90514
 31
0.0
  0
LINE
  5
3A9
100
AcDbEntity
  8
LAY-1
  6
CONTINUOUS
 62
     1
100
AcDbLine
 10
209.727206
 20
181.90514
 30
0.0
 11
209.727206
 21
186.875325
 31
0.0
  0
LINE
  5
3AA
100
AcDbEntity
  8
LAY-1
  6
CONTINUOUS
 62
     1
100
AcDbLine
 10
209.727206
 20
186.875325
 30
0.0
 11
214.6446
 21
186.875325
 31
0.0
  0
LINE
  5
3AB
100
AcDbEntity
  8
LAY-1
  6
CONTINUOUS
 62
     1
100
AcDbLine
 10
209.727206
 20
189.59486
 30
0.0
 11
210.289868
 21
190.157523
 31
0.0
  0
LINE
  5
3AC
100
AcDbEntity
  8
LAY-1
  6
CONTINUOUS
 62
     1
100
AcDbLine
 10
210.289868
 20
190.157523
 30
0.0
 11
206.926908
 21
192.099129
 31
0.0
  0
LINE
  5
3AD
100
AcDbEntity
  8
LAY-1
  6
CONTINUOUS
 62
     1
100
AcDbLine
 10
206.926908
 20
192.099129
 30
0.0
 11
207.5
 21
191.106504
 31
0.0
  0
LINE
  5
3AE
100
AcDbEntity
  8
LAY-1
  6
CONTINUOUS
 62
     1
100
AcDbLine
 10
207.5
 20
191.106504
 30
0.0
 11
207.5
 21
189.313529
 31
0.0
  0
LINE
  5
3AF
100
AcDbEntity
  8
LAY-1
  6
CONTINUOUS
 62
     1
100
AcDbLine
 10
207.5
 20
189.313529
 30
0.0
 11
204.569466
 21
189.313529
 31
0.0
  0
LINE
  5
3B0
100
AcDbEntity
  8
LAY-1
  6
CONTINUOUS
 62
     1
100
AcDbLine
 10
204.569466
 20
189.313529
 30
0.0
 11
204.077137
 21
190.298188
 31
0.0
  0
LINE
  5
3B1
100
AcDbEntity
  8
LAY-1
  6
CONTINUOUS
 62
     1
100
AcDbLine
 10
204.077137
 20
190.298188
 30
0.0
 11
204.077137
 21
185.75
 31
0.0
  0
LINE
  5
3B2
100
AcDbEntity
  8
LAY-1
  6
CONTINUOUS
 62
     1
100
AcDbLine
 10
204.077137
 20
185.75
 30
0.0
 11
204.569466
 21
186.875325
 31
0.0
  0
LINE
  5
3B3
100
AcDbEntity
  8
LAY-1
  6
CONTINUOUS
 62
     1
100
AcDbLine
 10
204.569466
 20
186.875325
 30
0.0
 11
207.5
 21
186.875325
 31
0.0
  0
LINE
  5
3B4
100
AcDbEntity
  8
LAY-1
  6
CONTINUOUS
 62
     1
100
AcDbLine
 10
207.5
 20
186.875325
 30
0.0
 11
207.5
 21
185.75
 31
0.0
  0
ELLIPSE
  5
3B5
100
AcDbEntity
  8
LAY-1
  6
CONTINUOUS
 62
     1
100
AcDbEllipse
 10
207.5
 20
185.75
 30
0.0
 11
7.2411479782635171
 21
0.2129749405371851
 31
0.0
210
0.0
220
0.0
230
1.0
 40
0.912621
 41
0.5369857443297825
 42
3.109376019493407
  0
ARC
  5
3B6
100
AcDbEntity
  8
LAY-1
  6
CONTINUOUS
 62
     1
100
AcDbCircle
 10
207.5
 20
185.75
 30
0.0
 40
7.500005
100
AcDbArc
 50
28.368264
 51
180.0
  0
LINE
  5
3B7
100
AcDbEntity
  8
LAY-1
  6
CONTINUOUS
 62
     1
100
AcDbLine
 10
216.479155
 20
190.063746
 30
0.0
 11
214.099343
 21
189.313529
 31
0.0
  0
LINE
  5
3B8
100
AcDbEntity
  8
LAY-1
  6
CONTINUOUS
 62
     1
100
AcDbLine
 10
199.999995
 20
185.75
 30
0.0
 11
199.271061
 21
186.617438
 31
0.0
  0
LINE
  5
3B9
100
AcDbEntity
  8
LAY-1
  6
CONTINUOUS
 62
     1
100
AcDbLine
 10
209.727206
 20
189.313529
 30
0.0
 11
209.727206
 21
189.59486
 31
0.0
  0
LINE
  5
3BA
100
AcDbEntity
  8
LAY-1
  6
CONTINUOUS
 62
     1
100
AcDbLine
 10
199.950945
 20
182.983576
 30
0.0
 11
200.536174
 21
182.983576
 31
0.0
  0
LINE
  5
3BB
100
AcDbEntity
  8
LAY-1
  6
CONTINUOUS
 62
     1
100
AcDbLine
 10
200.934036
 20
182.983576
 30
0.0
 11
207.5
 21
182.983576
 31
0.0
  0
ARC
  5
3BC
100
AcDbEntity
  8
LAY-1
  6
CONTINUOUS
 62
     1
100
AcDbCircle
 10
207.5
 20
185.75
 30
0.0
 40
7.500005
100
AcDbArc
 50
201.645098
 51
11.419721
  0
ELLIPSE
  5
3BD
100
AcDbEntity
  8
LAY-1
  6
CONTINUOUS
 62
     1
100
AcDbEllipse
 10
207.5
 20
185.75
 30
0.0
 11
7.2411479782635171
 21
0.2129749405371851
 31
0.0
210
0.0
220
0.0
230
1.0
 40
0.912621
 41
3.5427715523045551
 42
0.1388139713137096
  0
LINE
  5
3BE
100
AcDbEntity
  8
LAY-1
  6
CONTINUOUS
 62
     1
100
AcDbLine
 10
214.851528
 20
187.234961
 30
0.0
 11
216.479155
 21
190.063746
 31
0.0
  0
LINE
  5
3BF
100
AcDbEntity
  8
LAY-1
  6
CONTINUOUS
 62
     1
100
AcDbLine
 10
209.727206
 20
189.313529
 30
0.0
 11
213.622562
 21
189.313529
 31
0.0
  0
LINE
  5
3C0
100
AcDbEntity
  8
LAY-1
  6
EXLTYPE3
 62
     1
100
AcDbLine
 10
207.5
 20
308.75
 30
0.0
 11
207.5
 21
-11.25
 31
0.0
  0
LINE
  5
3C1
100
AcDbEntity
  8
LAY-1
  6
EXLTYPE2
 62
     1
100
AcDbLine
 10
-93.517801
 20
148.749998
 30
0.0
 11
-93.517801
 21
134.899998
 31
0.0
  0
LINE
  5
3C2
100
AcDbEntity
  8
LAY-1
  6
EXLTYPE2
 62
     1
100
AcDbLine
 10
-83.517801
 20
136.749998
 30
0.0
 11
-84.585899
 21
134.899998
 31
0.0
  0
LINE
  5
3C3
100
AcDbEntity
  8
LAY-1
  6
EXLTYPE2
 62
     1
100
AcDbLine
 10
-93.517801
 20
134.899998
 30
0.0
 11
-84.585899
 21
134.899998
 31
0.0
  0
LINE
  5
3C4
100
AcDbEntity
  8
LAY-1
  6
EXLTYPE2
 62
     1
100
AcDbLine
 10
-83.517801
 20
148.749998
 30
0.0
 11
-83.517801
 21
136.749998
 31
0.0
  0
LINE
  5
3C5
100
AcDbEntity
  8
LAY-1
  6
EXLTYPE2
 62
     1
100
AcDbLine
 10
-84.585899
 20
141.821795
 30
0.0
 11
-93.517801
 21
141.821795
 31
0.0
  0
ARC
  5
3C6
100
AcDbEntity
  8
LAY-1
  6
EXLTYPE2
 62
     1
100
AcDbCircle
 10
-89.658928
 20
138.360897
 30
0.0
 40
6.141127
100
AcDbArc
 50
325.697591
 51
34.302409
  0
LINE
  5
3C7
100
AcDbEntity
  8
LAY-1
  6
EXLTYPE2
 62
     1
100
AcDbLine
 10
-93.517801
 20
148.749998
 30
0.0
 11
-93.517801
 21
162.599998
 31
0.0
  0
LINE
  5
3C8
100
AcDbEntity
  8
LAY-1
  6
EXLTYPE2
 62
     1
100
AcDbLine
 10
-83.517801
 20
160.749998
 30
0.0
 11
-84.585899
 21
162.599998
 31
0.0
  0
LINE
  5
3C9
100
AcDbEntity
  8
LAY-1
  6
EXLTYPE2
 62
     1
100
AcDbLine
 10
-93.517801
 20
162.599998
 30
0.0
 11
-84.585899
 21
162.599998
 31
0.0
  0
LINE
  5
3CA
100
AcDbEntity
  8
LAY-1
  6
EXLTYPE2
 62
     1
100
AcDbLine
 10
-83.517801
 20
148.749998
 30
0.0
 11
-83.517801
 21
160.749998
 31
0.0
  0
LINE
  5
3CB
100
AcDbEntity
  8
LAY-1
  6
EXLTYPE2
 62
     1
100
AcDbLine
 10
-84.585899
 20
155.678202
 30
0.0
 11
-93.517801
 21
155.678202
 31
0.0
  0
ARC
  5
3CC
100
AcDbEntity
  8
LAY-1
  6
EXLTYPE2
 62
     1
100
AcDbCircle
 10
-89.658928
 20
159.1391
 30
0.0
 40
6.141127
100
AcDbArc
 50
325.697591
 51
34.302409
  0
ARC
  5
3CD
100
AcDbEntity
  8
LAY-1
  6
EXLTYPE2
 62
     1
100
AcDbCircle
 10
-106.521699
 20
148.749998
 30
0.0
 40
23.003897
100
AcDbArc
 50
342.471798
 51
17.528202
  0
LINE
  5
3CE
100
AcDbEntity
  8
LAY-1
  6
EXLTYPE2
 62
     1
100
AcDbLine
 10
-130.517801
 20
140.75
 30
0.0
 11
-93.517801
 21
140.75
 31
0.0
  0
LINE
  5
3CF
100
AcDbEntity
  8
LAY-1
  6
EXLTYPE2
 62
     1
100
AcDbLine
 10
-93.517801
 20
156.75
 30
0.0
 11
-130.517801
 21
156.75
 31
0.0
  0
ARC
  5
3D0
100
AcDbEntity
  8
LAY-1
  6
EXLTYPE2
 62
     1
100
AcDbCircle
 10
-151.716993
 20
126.25
 30
0.0
 40
2.0
100
AcDbArc
 50
90.0
 51
174.0
  0
LINE
  5
3D1
100
AcDbEntity
  8
LAY-1
  6
EXLTYPE2
 62
     1
100
AcDbLine
 10
-145.517801
 20
128.25
 30
0.0
 11
-151.716993
 21
128.25
 31
0.0
  0
ARC
  5
3D2
100
AcDbEntity
  8
LAY-1
  6
EXLTYPE2
 62
     1
100
AcDbCircle
 10
-145.517801
 20
130.25
 30
0.0
 40
2.0
100
AcDbArc
 50
270.0
 51
0.0
  0
ARC
  5
3D3
100
AcDbEntity
  8
LAY-1
  6
EXLTYPE2
 62
     1
100
AcDbCircle
 10
-151.297411
 20
171.25
 30
0.0
 40
2.0
100
AcDbArc
 50
190.0
 51
270.0
  0
LINE
  5
3D4
100
AcDbEntity
  8
LAY-1
  6
EXLTYPE2
 62
     1
100
AcDbLine
 10
-145.517801
 20
169.25
 30
0.0
 11
-151.297411
 21
169.25
 31
0.0
  0
ARC
  5
3D5
100
AcDbEntity
  8
LAY-1
  6
EXLTYPE2
 62
     1
100
AcDbCircle
 10
-145.517801
 20
167.25
 30
0.0
 40
2.0
100
AcDbArc
 50
0.0
 51
90.0
  0
LINE
  5
3D6
100
AcDbEntity
  8
LAY-1
  6
EXLTYPE2
 62
     1
100
AcDbLine
 10
-143.517801
 20
130.25
 30
0.0
 11
-143.517801
 21
167.25
 31
0.0
  0
LINE
  5
3D7
100
AcDbEntity
  8
LAY-1
  6
EXLTYPE2
 62
     1
100
AcDbLine
 10
-131.585899
 20
155.678204
 30
0.0
 11
-143.517801
 21
155.678204
 31
0.0
  0
LINE
  5
3D8
100
AcDbEntity
  8
LAY-1
  6
EXLTYPE2
 62
     1
100
AcDbLine
 10
-143.517801
 20
162.600001
 30
0.0
 11
-131.585899
 21
162.600001
 31
0.0
  0
LINE
  5
3D9
100
AcDbEntity
  8
LAY-1
  6
EXLTYPE2
 62
     1
100
AcDbLine
 10
-131.585899
 20
141.821798
 30
0.0
 11
-143.517801
 21
141.821798
 31
0.0
  0
LINE
  5
3DA
100
AcDbEntity
  8
LAY-1
  6
EXLTYPE2
 62
     1
100
AcDbLine
 10
-143.517801
 20
134.900001
 30
0.0
 11
-131.585899
 21
134.900001
 31
0.0
  0
ARC
  5
3DB
100
AcDbEntity
  8
LAY-1
  6
EXLTYPE2
 62
     1
100
AcDbCircle
 10
-153.521699
 20
148.750001
 30
0.0
 40
23.003897
100
AcDbArc
 50
342.471798
 51
17.528202
  0
ARC
  5
3DC
100
AcDbEntity
  8
LAY-1
  6
EXLTYPE2
 62
     1
100
AcDbCircle
 10
-136.658928
 20
159.139103
 30
0.0
 40
6.141127
100
AcDbArc
 50
325.697591
 51
34.302409
  0
LINE
  5
3DD
100
AcDbEntity
  8
LAY-1
  6
EXLTYPE2
 62
     1
100
AcDbLine
 10
-130.517801
 20
148.750001
 30
0.0
 11
-130.517801
 21
160.750001
 31
0.0
  0
LINE
  5
3DE
100
AcDbEntity
  8
LAY-1
  6
EXLTYPE2
 62
     1
100
AcDbLine
 10
-130.517801
 20
160.750001
 30
0.0
 11
-131.585899
 21
162.600001
 31
0.0
  0
ARC
  5
3DF
100
AcDbEntity
  8
LAY-1
  6
EXLTYPE2
 62
     1
100
AcDbCircle
 10
-136.658928
 20
138.360899
 30
0.0
 40
6.141127
100
AcDbArc
 50
325.697591
 51
34.302409
  0
LINE
  5
3E0
100
AcDbEntity
  8
LAY-1
  6
EXLTYPE2
 62
     1
100
AcDbLine
 10
-130.517801
 20
148.750001
 30
0.0
 11
-130.517801
 21
136.750001
 31
0.0
  0
LINE
  5
3E1
100
AcDbEntity
  8
LAY-1
  6
EXLTYPE2
 62
     1
100
AcDbLine
 10
-130.517801
 20
136.750001
 30
0.0
 11
-131.585899
 21
134.900001
 31
0.0
  0
LINE
  5
3E2
100
AcDbEntity
  8
LAY-1
  6
EXLTYPE2
 62
     1
100
AcDbLine
 10
-154.292422
 20
120.781992
 30
0.0
 11
-153.706037
 21
126.459057
 31
0.0
  0
LINE
  5
3E3
100
AcDbEntity
  8
LAY-1
  6
EXLTYPE2
 62
     1
100
AcDbLine
 10
508.517801
 20
148.749998
 30
0.0
 11
508.517801
 21
134.899998
 31
0.0
  0
LINE
  5
3E4
100
AcDbEntity
  8
LAY-1
  6
EXLTYPE2
 62
     1
100
AcDbLine
 10
498.517801
 20
136.749998
 30
0.0
 11
499.585899
 21
134.899998
 31
0.0
  0
LINE
  5
3E5
100
AcDbEntity
  8
LAY-1
  6
EXLTYPE2
 62
     1
100
AcDbLine
 10
508.517801
 20
134.899998
 30
0.0
 11
499.585899
 21
134.899998
 31
0.0
  0
LINE
  5
3E6
100
AcDbEntity
  8
LAY-1
  6
EXLTYPE2
 62
     1
100
AcDbLine
 10
498.517801
 20
148.749998
 30
0.0
 11
498.517801
 21
136.749998
 31
0.0
  0
LINE
  5
3E7
100
AcDbEntity
  8
LAY-1
  6
EXLTYPE2
 62
     1
100
AcDbLine
 10
499.585899
 20
141.821795
 30
0.0
 11
508.517801
 21
141.821795
 31
0.0
  0
ARC
  5
3E8
100
AcDbEntity
  8
LAY-1
  6
EXLTYPE2
 62
     1
100
AcDbCircle
 10
504.658928
 20
138.360897
 30
0.0
 40
6.141127
100
AcDbArc
 50
145.697591
 51
214.302409
  0
LINE
  5
3E9
100
AcDbEntity
  8
LAY-1
  6
EXLTYPE2
 62
     1
100
AcDbLine
 10
508.517801
 20
148.749998
 30
0.0
 11
508.517801
 21
162.599998
 31
0.0
  0
LINE
  5
3EA
100
AcDbEntity
  8
LAY-1
  6
EXLTYPE2
 62
     1
100
AcDbLine
 10
498.517801
 20
160.749998
 30
0.0
 11
499.585899
 21
162.599998
 31
0.0
  0
LINE
  5
3EB
100
AcDbEntity
  8
LAY-1
  6
EXLTYPE2
 62
     1
100
AcDbLine
 10
508.517801
 20
162.599998
 30
0.0
 11
499.585899
 21
162.599998
 31
0.0
  0
LINE
  5
3EC
100
AcDbEntity
  8
LAY-1
  6
EXLTYPE2
 62
     1
100
AcDbLine
 10
498.517801
 20
148.749998
 30
0.0
 11
498.517801
 21
160.749998
 31
0.0
  0
LINE
  5
3ED
100
AcDbEntity
  8
LAY-1
  6
EXLTYPE2
 62
     1
100
AcDbLine
 10
499.585899
 20
155.678202
 30
0.0
 11
508.517801
 21
155.678202
 31
0.0
  0
ARC
  5
3EE
100
AcDbEntity
  8
LAY-1
  6
EXLTYPE2
 62
     1
100
AcDbCircle
 10
504.658928
 20
159.1391
 30
0.0
 40
6.141127
100
AcDbArc
 50
145.697591
 51
214.302409
  0
ARC
  5
3EF
100
AcDbEntity
  8
LAY-1
  6
EXLTYPE2
 62
     1
100
AcDbCircle
 10
521.521699
 20
148.749998
 30
0.0
 40
23.003897
100
AcDbArc
 50
162.471798
 51
197.528202
  0
LINE
  5
3F0
100
AcDbEntity
  8
LAY-1
  6
EXLTYPE2
 62
     1
100
AcDbLine
 10
545.517801
 20
140.75
 30
0.0
 11
508.517801
 21
140.75
 31
0.0
  0
LINE
  5
3F1
100
AcDbEntity
  8
LAY-1
  6
EXLTYPE2
 62
     1
100
AcDbLine
 10
508.517801
 20
156.75
 30
0.0
 11
545.517801
 21
156.75
 31
0.0
  0
LINE
  5
3F2
100
AcDbEntity
  8
LAY-1
  6
EXLTYPE2
 62
     1
100
AcDbLine
 10
560.517801
 20
128.25
 30
0.0
 11
566.716993
 21
128.25
 31
0.0
  0
ARC
  5
3F3
100
AcDbEntity
  8
LAY-1
  6
EXLTYPE2
 62
     1
100
AcDbCircle
 10
560.517801
 20
130.25
 30
0.0
 40
2.0
100
AcDbArc
 50
180.0
 51
270.0
  0
ARC
  5
3F4
100
AcDbEntity
  8
LAY-1
  6
EXLTYPE2
 62
     1
100
AcDbCircle
 10
566.297411
 20
171.25
 30
0.0
 40
2.0
100
AcDbArc
 50
270.0
 51
350.0
  0
LINE
  5
3F5
100
AcDbEntity
  8
LAY-1
  6
EXLTYPE2
 62
     1
100
AcDbLine
 10
560.517801
 20
169.25
 30
0.0
 11
566.297411
 21
169.25
 31
0.0
  0
ARC
  5
3F6
100
AcDbEntity
  8
LAY-1
  6
EXLTYPE2
 62
     1
100
AcDbCircle
 10
560.517801
 20
167.25
 30
0.0
 40
2.0
100
AcDbArc
 50
90.0
 51
180.0
  0
LINE
  5
3F7
100
AcDbEntity
  8
LAY-1
  6
EXLTYPE2
 62
     1
100
AcDbLine
 10
558.517801
 20
130.25
 30
0.0
 11
558.517801
 21
167.25
 31
0.0
  0
LINE
  5
3F8
100
AcDbEntity
  8
LAY-1
  6
EXLTYPE2
 62
     1
100
AcDbLine
 10
546.585899
 20
155.678204
 30
0.0
 11
558.517801
 21
155.678204
 31
0.0
  0
LINE
  5
3F9
100
AcDbEntity
  8
LAY-1
  6
EXLTYPE2
 62
     1
100
AcDbLine
 10
558.517801
 20
162.600001
 30
0.0
 11
546.585899
 21
162.600001
 31
0.0
  0
LINE
  5
3FA
100
AcDbEntity
  8
LAY-1
  6
EXLTYPE2
 62
     1
100
AcDbLine
 10
546.585899
 20
141.821798
 30
0.0
 11
558.517801
 21
141.821798
 31
0.0
  0
LINE
  5
3FB
100
AcDbEntity
  8
LAY-1
  6
EXLTYPE2
 62
     1
100
AcDbLine
 10
558.517801
 20
134.900001
 30
0.0
 11
546.585899
 21
134.900001
 31
0.0
  0
ARC
  5
3FC
100
AcDbEntity
  8
LAY-1
  6
EXLTYPE2
 62
     1
100
AcDbCircle
 10
568.521699
 20
148.750001
 30
0.0
 40
23.003897
100
AcDbArc
 50
162.471798
 51
197.528202
  0
ARC
  5
3FD
100
AcDbEntity
  8
LAY-1
  6
EXLTYPE2
 62
     1
100
AcDbCircle
 10
551.658928
 20
159.139103
 30
0.0
 40
6.141127
100
AcDbArc
 50
145.697591
 51
214.302409
  0
LINE
  5
3FE
100
AcDbEntity
  8
LAY-1
  6
EXLTYPE2
 62
     1
100
AcDbLine
 10
545.517801
 20
148.750001
 30
0.0
 11
545.517801
 21
160.750001
 31
0.0
  0
LINE
  5
3FF
100
AcDbEntity
  8
LAY-1
  6
EXLTYPE2
 62
     1
100
AcDbLine
 10
545.517801
 20
160.750001
 30
0.0
 11
546.585899
 21
162.600001
 31
0.0
  0
ARC
  5
400
100
AcDbEntity
  8
LAY-1
  6
EXLTYPE2
 62
     1
100
AcDbCircle
 10
551.658928
 20
138.360899
 30
0.0
 40
6.141127
100
AcDbArc
 50
145.697591
 51
214.302409
  0
LINE
  5
401
100
AcDbEntity
  8
LAY-1
  6
EXLTYPE2
 62
     1
100
AcDbLine
 10
545.517801
 20
148.750001
 30
0.0
 11
545.517801
 21
136.750001
 31
0.0
  0
LINE
  5
402
100
AcDbEntity
  8
LAY-1
  6
EXLTYPE2
 62
     1
100
AcDbLine
 10
545.517801
 20
136.750001
 30
0.0
 11
546.585899
 21
134.900001
 31
0.0
  0
LINE
  5
403
100
AcDbEntity
  8
LAY-1
  6
EXLTYPE2
 62
     1
100
AcDbLine
 10
569.292422
 20
120.781992
 30
0.0
 11
568.706037
 21
126.459057
 31
0.0
  0
LINE
  5
404
100
AcDbEntity
  8
LAY-1
  6
EXLTYPE2
 62
     1
100
AcDbLine
 10
569.292422
 20
176.718009
 30
0.0
 11
568.267027
 21
170.902704
 31
0.0
  0
LINE
  5
405
100
AcDbEntity
  8
LAY-1
  6
EXLTYPE2
 62
     1
100
AcDbLine
 10
235.468009
 20
519.019018
 30
0.0
 11
229.652704
 21
517.993623
 31
0.0
  0
LINE
  5
406
100
AcDbEntity
  8
LAY-1
  6
EXLTYPE2
 62
     1
100
AcDbLine
 10
179.531992
 20
519.019018
 30
0.0
 11
185.209057
 21
518.432633
 31
0.0
  0
LINE
  5
407
100
AcDbEntity
  8
LAY-1
  6
EXLTYPE2
 62
     1
100
AcDbLine
 10
195.500001
 20
495.244397
 30
0.0
 11
193.650001
 21
496.312495
 31
0.0
  0
LINE
  5
408
100
AcDbEntity
  8
LAY-1
  6
EXLTYPE2
 62
     1
100
AcDbLine
 10
207.500001
 20
495.244397
 30
0.0
 11
195.500001
 21
495.244397
 31
0.0
  0
ARC
  5
409
100
AcDbEntity
  8
LAY-1
  6
EXLTYPE2
 62
     1
100
AcDbCircle
 10
197.110899
 20
501.385524
 30
0.0
 40
6.141127
100
AcDbArc
 50
235.697591
 51
304.302409
  0
LINE
  5
40A
100
AcDbEntity
  8
LAY-1
  6
EXLTYPE2
 62
     1
100
AcDbLine
 10
219.500001
 20
495.244397
 30
0.0
 11
221.350001
 21
496.312495
 31
0.0
  0
LINE
  5
40B
100
AcDbEntity
  8
LAY-1
  6
EXLTYPE2
 62
     1
100
AcDbLine
 10
207.500001
 20
495.244397
 30
0.0
 11
219.500001
 21
495.244397
 31
0.0
  0
ARC
  5
40C
100
AcDbEntity
  8
LAY-1
  6
EXLTYPE2
 62
     1
100
AcDbCircle
 10
217.889103
 20
501.385524
 30
0.0
 40
6.141127
100
AcDbArc
 50
235.697591
 51
304.302409
  0
ARC
  5
40D
100
AcDbEntity
  8
LAY-1
  6
EXLTYPE2
 62
     1
100
AcDbCircle
 10
207.500001
 20
518.248295
 30
0.0
 40
23.003897
100
AcDbArc
 50
252.471798
 51
287.528202
  0
LINE
  5
40E
100
AcDbEntity
  8
LAY-1
  6
EXLTYPE2
 62
     1
100
AcDbLine
 10
193.650001
 20
508.244397
 30
0.0
 11
193.650001
 21
496.312495
 31
0.0
  0
LINE
  5
40F
100
AcDbEntity
  8
LAY-1
  6
EXLTYPE2
 62
     1
100
AcDbLine
 10
200.571798
 20
496.312495
 30
0.0
 11
200.571798
 21
508.244397
 31
0.0
  0
LINE
  5
410
100
AcDbEntity
  8
LAY-1
  6
EXLTYPE2
 62
     1
100
AcDbLine
 10
221.350001
 20
508.244397
 30
0.0
 11
221.350001
 21
496.312495
 31
0.0
  0
LINE
  5
411
100
AcDbEntity
  8
LAY-1
  6
EXLTYPE2
 62
     1
100
AcDbLine
 10
214.428204
 20
496.312495
 30
0.0
 11
214.428204
 21
508.244397
 31
0.0
  0
LINE
  5
412
100
AcDbEntity
  8
LAY-1
  6
EXLTYPE2
 62
     1
100
AcDbLine
 10
189.0
 20
508.244397
 30
0.0
 11
226.0
 21
508.244397
 31
0.0
  0
ARC
  5
413
100
AcDbEntity
  8
LAY-1
  6
EXLTYPE2
 62
     1
100
AcDbCircle
 10
226.0
 20
510.244397
 30
0.0
 40
2.0
100
AcDbArc
 50
270.0
 51
0.0
  0
LINE
  5
414
100
AcDbEntity
  8
LAY-1
  6
EXLTYPE2
 62
     1
100
AcDbLine
 10
228.0
 20
510.244397
 30
0.0
 11
228.0
 21
516.024007
 31
0.0
  0
ARC
  5
415
100
AcDbEntity
  8
LAY-1
  6
EXLTYPE2
 62
     1
100
AcDbCircle
 10
230.0
 20
516.024007
 30
0.0
 40
2.0
100
AcDbArc
 50
100.0
 51
180.0
  0
ARC
  5
416
100
AcDbEntity
  8
LAY-1
  6
EXLTYPE2
 62
     1
100
AcDbCircle
 10
189.0
 20
510.244397
 30
0.0
 40
2.0
100
AcDbArc
 50
180.0
 51
270.0
  0
LINE
  5
417
100
AcDbEntity
  8
LAY-1
  6
EXLTYPE2
 62
     1
100
AcDbLine
 10
187.0
 20
510.244397
 30
0.0
 11
187.0
 21
516.443589
 31
0.0
  0
ARC
  5
418
100
AcDbEntity
  8
LAY-1
  6
EXLTYPE2
 62
     1
100
AcDbCircle
 10
185.0
 20
516.443589
 30
0.0
 40
2.0
100
AcDbArc
 50
0.0
 51
84.0
  0
LINE
  5
419
100
AcDbEntity
  8
LAY-1
  6
EXLTYPE2
 62
     1
100
AcDbLine
 10
215.5
 20
458.244397
 30
0.0
 11
215.5
 21
495.244397
 31
0.0
  0
LINE
  5
41A
100
AcDbEntity
  8
LAY-1
  6
EXLTYPE2
 62
     1
100
AcDbLine
 10
199.5
 20
495.244397
 30
0.0
 11
199.5
 21
458.244397
 31
0.0
  0
ARC
  5
41B
100
AcDbEntity
  8
LAY-1
  6
EXLTYPE2
 62
     1
100
AcDbCircle
 10
207.499998
 20
471.248295
 30
0.0
 40
23.003897
100
AcDbArc
 50
252.471798
 51
287.528202
  0
ARC
  5
41C
100
AcDbEntity
  8
LAY-1
  6
EXLTYPE2
 62
     1
100
AcDbCircle
 10
217.8891
 20
454.385524
 30
0.0
 40
6.141127
100
AcDbArc
 50
235.697591
 51
304.302409
  0
LINE
  5
41D
100
AcDbEntity
  8
LAY-1
  6
EXLTYPE2
 62
     1
100
AcDbLine
 10
214.428202
 20
449.312495
 30
0.0
 11
214.428202
 21
458.244397
 31
0.0
  0
LINE
  5
41E
100
AcDbEntity
  8
LAY-1
  6
EXLTYPE2
 62
     1
100
AcDbLine
 10
207.499998
 20
448.244397
 30
0.0
 11
219.499998
 21
448.244397
 31
0.0
  0
LINE
  5
41F
100
AcDbEntity
  8
LAY-1
  6
EXLTYPE2
 62
     1
100
AcDbLine
 10
221.349998
 20
458.244397
 30
0.0
 11
221.349998
 21
449.312495
 31
0.0
  0
LINE
  5
420
100
AcDbEntity
  8
LAY-1
  6
EXLTYPE2
 62
     1
100
AcDbLine
 10
219.499998
 20
448.244397
 30
0.0
 11
221.349998
 21
449.312495
 31
0.0
  0
LINE
  5
421
100
AcDbEntity
  8
LAY-1
  6
EXLTYPE2
 62
     1
100
AcDbLine
 10
207.499998
 20
458.244397
 30
0.0
 11
221.349998
 21
458.244397
 31
0.0
  0
ARC
  5
422
100
AcDbEntity
  8
LAY-1
  6
EXLTYPE2
 62
     1
100
AcDbCircle
 10
197.110897
 20
454.385524
 30
0.0
 40
6.141127
100
AcDbArc
 50
235.697591
 51
304.302409
  0
LINE
  5
423
100
AcDbEntity
  8
LAY-1
  6
EXLTYPE2
 62
     1
100
AcDbLine
 10
200.571795
 20
449.312495
 30
0.0
 11
200.571795
 21
458.244397
 31
0.0
  0
LINE
  5
424
100
AcDbEntity
  8
LAY-1
  6
EXLTYPE2
 62
     1
100
AcDbLine
 10
207.499998
 20
448.244397
 30
0.0
 11
195.499998
 21
448.244397
 31
0.0
  0
LINE
  5
425
100
AcDbEntity
  8
LAY-1
  6
EXLTYPE2
 62
     1
100
AcDbLine
 10
193.649998
 20
458.244397
 30
0.0
 11
193.649998
 21
449.312495
 31
0.0
  0
LINE
  5
426
100
AcDbEntity
  8
LAY-1
  6
EXLTYPE2
 62
     1
100
AcDbLine
 10
195.499998
 20
448.244397
 30
0.0
 11
193.649998
 21
449.312495
 31
0.0
  0
LINE
  5
427
100
AcDbEntity
  8
LAY-1
  6
EXLTYPE2
 62
     1
100
AcDbLine
 10
207.499998
 20
458.244397
 30
0.0
 11
193.649998
 21
458.244397
 31
0.0
  0
ARC
  5
428
100
AcDbEntity
  8
LAY-1
  6
EXLTYPE4
 62
     1
100
AcDbCircle
 10
178.0
 20
518.690932
 30
0.0
 40
0.5
100
AcDbArc
 50
84.0
 51
180.0
  0
ARC
  5
429
100
AcDbEntity
  8
LAY-1
  6
EXLTYPE4
 62
     1
100
AcDbCircle
 10
165.0
 20
517.747748
 30
0.0
 40
0.5
100
AcDbArc
 50
180.0
 51
270.0
  0
LINE
  5
42A
100
AcDbEntity
  8
LAY-1
  6
EXLTYPE4
 62
     1
100
AcDbLine
 10
165.0
 20
517.247748
 30
0.0
 11
177.0
 21
517.247748
 31
0.0
  0
ARC
  5
42B
100
AcDbEntity
  8
LAY-1
  6
EXLTYPE4
 62
     1
100
AcDbCircle
 10
177.0
 20
517.747748
 30
0.0
 40
0.5
100
AcDbArc
 50
270.0
 51
0.0
  0
LINE
  5
42C
100
AcDbEntity
  8
LAY-1
  6
EXLTYPE4
 62
     1
100
AcDbLine
 10
177.5
 20
517.747748
 30
0.0
 11
177.5
 21
518.690932
 31
0.0
  0
ARC
  5
42D
100
AcDbEntity
  8
LAY-1
  6
EXLTYPE4
 62
     1
100
AcDbCircle
 10
178.0
 20
518.690932
 30
0.0
 40
0.5
100
AcDbArc
 50
84.0
 51
180.0
  0
LINE
  5
42E
100
AcDbEntity
  8
LAY-1
  6
EXLTYPE4
 62
     1
100
AcDbLine
 10
164.5
 20
517.747748
 30
0.0
 11
164.5
 21
520.162391
 31
0.0
  0
ARC
  5
42F
100
AcDbEntity
  8
LAY-1
  6
EXLTYPE4
 62
     1
100
AcDbCircle
 10
164.0
 20
520.162391
 30
0.0
 40
0.5
100
AcDbArc
 50
0.0
 51
84.0
  0
ARC
  5
430
100
AcDbEntity
  8
LAY-1
  6
EXLTYPE4
 62
     1
100
AcDbCircle
 10
172.9
 20
515.847748
 30
0.0
 40
0.9
100
AcDbArc
 50
270.0
 51
0.0
  0
ARC
  5
431
100
AcDbEntity
  8
LAY-1
  6
EXLTYPE4
 62
     1
100
AcDbCircle
 10
169.1
 20
515.847748
 30
0.0
 40
0.9
100
AcDbArc
 50
180.0
 51
270.0
  0
LINE
  5
432
100
AcDbEntity
  8
LAY-1
  6
EXLTYPE4
 62
     1
100
AcDbLine
 10
169.1
 20
514.947748
 30
0.0
 11
172.9
 21
514.947748
 31
0.0
  0
LINE
  5
433
100
AcDbEntity
  8
LAY-1
  6
EXLTYPE4
 62
     1
100
AcDbLine
 10
173.8
 20
515.847748
 30
0.0
 11
173.8
 21
516.747748
 31
0.0
  0
LINE
  5
434
100
AcDbEntity
  8
LAY-1
  6
EXLTYPE4
 62
     1
100
AcDbLine
 10
168.2
 20
515.847748
 30
0.0
 11
168.2
 21
516.747748
 31
0.0
  0
LINE
  5
435
100
AcDbEntity
  8
LAY-1
  6
EXLTYPE4
 62
     1
100
AcDbLine
 10
166.0
 20
517.247748
 30
0.0
 11
166.0
 21
516.747748
 31
0.0
  0
LINE
  5
436
100
AcDbEntity
  8
LAY-1
  6
EXLTYPE4
 62
     1
100
AcDbLine
 10
166.0
 20
516.747748
 30
0.0
 11
176.0
 21
516.747748
 31
0.0
  0
LINE
  5
437
100
AcDbEntity
  8
LAY-1
  6
EXLTYPE4
 62
     1
100
AcDbLine
 10
176.0
 20
516.747748
 30
0.0
 11
176.0
 21
517.247748
 31
0.0
  0
LINE
  5
438
100
AcDbEntity
  8
LAY-1
  6
EXLTYPE2
 62
     1
100
AcDbLine
 10
235.468009
 20
-221.519018
 30
0.0
 11
229.652704
 21
-220.493623
 31
0.0
  0
LINE
  5
439
100
AcDbEntity
  8
LAY-1
  6
EXLTYPE2
 62
     1
100
AcDbLine
 10
179.531992
 20
-221.519018
 30
0.0
 11
185.209057
 21
-220.932633
 31
0.0
  0
LINE
  5
43A
100
AcDbEntity
  8
LAY-1
  6
EXLTYPE2
 62
     1
100
AcDbLine
 10
195.500001
 20
-197.744397
 30
0.0
 11
193.650001
 21
-198.812495
 31
0.0
  0
LINE
  5
43B
100
AcDbEntity
  8
LAY-1
  6
EXLTYPE2
 62
     1
100
AcDbLine
 10
207.500001
 20
-197.744397
 30
0.0
 11
195.500001
 21
-197.744397
 31
0.0
  0
ARC
  5
43C
100
AcDbEntity
  8
LAY-1
  6
EXLTYPE2
 62
     1
100
AcDbCircle
 10
197.110899
 20
-203.885524
 30
0.0
 40
6.141127
100
AcDbArc
 50
55.697591
 51
124.302409
  0
LINE
  5
43D
100
AcDbEntity
  8
LAY-1
  6
EXLTYPE2
 62
     1
100
AcDbLine
 10
219.500001
 20
-197.744397
 30
0.0
 11
221.350001
 21
-198.812495
 31
0.0
  0
LINE
  5
43E
100
AcDbEntity
  8
LAY-1
  6
EXLTYPE2
 62
     1
100
AcDbLine
 10
207.500001
 20
-197.744397
 30
0.0
 11
219.500001
 21
-197.744397
 31
0.0
  0
ARC
  5
43F
100
AcDbEntity
  8
LAY-1
  6
EXLTYPE2
 62
     1
100
AcDbCircle
 10
217.889103
 20
-203.885524
 30
0.0
 40
6.141127
100
AcDbArc
 50
55.697591
 51
124.302409
  0
ARC
  5
440
100
AcDbEntity
  8
LAY-1
  6
EXLTYPE2
 62
     1
100
AcDbCircle
 10
207.500001
 20
-220.748295
 30
0.0
 40
23.003897
100
AcDbArc
 50
72.471798
 51
107.528202
  0
LINE
  5
441
100
AcDbEntity
  8
LAY-1
  6
EXLTYPE2
 62
     1
100
AcDbLine
 10
193.650001
 20
-210.744397
 30
0.0
 11
193.650001
 21
-198.812495
 31
0.0
  0
LINE
  5
442
100
AcDbEntity
  8
LAY-1
  6
EXLTYPE2
 62
     1
100
AcDbLine
 10
200.571798
 20
-198.812495
 30
0.0
 11
200.571798
 21
-210.744397
 31
0.0
  0
LINE
  5
443
100
AcDbEntity
  8
LAY-1
  6
EXLTYPE2
 62
     1
100
AcDbLine
 10
221.350001
 20
-210.744397
 30
0.0
 11
221.350001
 21
-198.812495
 31
0.0
  0
LINE
  5
444
100
AcDbEntity
  8
LAY-1
  6
EXLTYPE2
 62
     1
100
AcDbLine
 10
214.428204
 20
-198.812495
 30
0.0
 11
214.428204
 21
-210.744397
 31
0.0
  0
LINE
  5
445
100
AcDbEntity
  8
LAY-1
  6
EXLTYPE2
 62
     1
100
AcDbLine
 10
189.0
 20
-210.744397
 30
0.0
 11
226.0
 21
-210.744397
 31
0.0
  0
ARC
  5
446
100
AcDbEntity
  8
LAY-1
  6
EXLTYPE2
 62
     1
100
AcDbCircle
 10
226.0
 20
-212.744397
 30
0.0
 40
2.0
100
AcDbArc
 50
0.0
 51
90.0
  0
LINE
  5
447
100
AcDbEntity
  8
LAY-1
  6
EXLTYPE2
 62
     1
100
AcDbLine
 10
228.0
 20
-212.744397
 30
0.0
 11
228.0
 21
-218.524007
 31
0.0
  0
ARC
  5
448
100
AcDbEntity
  8
LAY-1
  6
EXLTYPE2
 62
     1
100
AcDbCircle
 10
230.0
 20
-218.524007
 30
0.0
 40
2.0
100
AcDbArc
 50
180.0
 51
260.0
  0
ARC
  5
449
100
AcDbEntity
  8
LAY-1
  6
EXLTYPE2
 62
     1
100
AcDbCircle
 10
189.0
 20
-212.744397
 30
0.0
 40
2.0
100
AcDbArc
 50
90.0
 51
180.0
  0
LINE
  5
44A
100
AcDbEntity
  8
LAY-1
  6
EXLTYPE2
 62
     1
100
AcDbLine
 10
187.0
 20
-212.744397
 30
0.0
 11
187.0
 21
-218.943589
 31
0.0
  0
ARC
  5
44B
100
AcDbEntity
  8
LAY-1
  6
EXLTYPE2
 62
     1
100
AcDbCircle
 10
185.0
 20
-218.943589
 30
0.0
 40
2.0
100
AcDbArc
 50
276.0
 51
0.0
  0
LINE
  5
44C
100
AcDbEntity
  8
LAY-1
  6
EXLTYPE2
 62
     1
100
AcDbLine
 10
215.5
 20
-160.744397
 30
0.0
 11
215.5
 21
-197.744397
 31
0.0
  0
LINE
  5
44D
100
AcDbEntity
  8
LAY-1
  6
EXLTYPE2
 62
     1
100
AcDbLine
 10
199.5
 20
-197.744397
 30
0.0
 11
199.5
 21
-160.744397
 31
0.0
  0
ARC
  5
44E
100
AcDbEntity
  8
LAY-1
  6
EXLTYPE2
 62
     1
100
AcDbCircle
 10
207.499998
 20
-173.748295
 30
0.0
 40
23.003897
100
AcDbArc
 50
72.471798
 51
107.528202
  0
ARC
  5
44F
100
AcDbEntity
  8
LAY-1
  6
EXLTYPE2
 62
     1
100
AcDbCircle
 10
217.8891
 20
-156.885524
 30
0.0
 40
6.141127
100
AcDbArc
 50
55.697591
 51
124.302409
  0
LINE
  5
450
100
AcDbEntity
  8
LAY-1
  6
EXLTYPE2
 62
     1
100
AcDbLine
 10
214.428202
 20
-151.812495
 30
0.0
 11
214.428202
 21
-160.744397
 31
0.0
  0
LINE
  5
451
100
AcDbEntity
  8
LAY-1
  6
EXLTYPE2
 62
     1
100
AcDbLine
 10
207.499998
 20
-150.744397
 30
0.0
 11
219.499998
 21
-150.744397
 31
0.0
  0
LINE
  5
452
100
AcDbEntity
  8
LAY-1
  6
EXLTYPE2
 62
     1
100
AcDbLine
 10
221.349998
 20
-160.744397
 30
0.0
 11
221.349998
 21
-151.812495
 31
0.0
  0
LINE
  5
453
100
AcDbEntity
  8
LAY-1
  6
EXLTYPE2
 62
     1
100
AcDbLine
 10
219.499998
 20
-150.744397
 30
0.0
 11
221.349998
 21
-151.812495
 31
0.0
  0
LINE
  5
454
100
AcDbEntity
  8
LAY-1
  6
EXLTYPE2
 62
     1
100
AcDbLine
 10
207.499998
 20
-160.744397
 30
0.0
 11
221.349998
 21
-160.744397
 31
0.0
  0
ARC
  5
455
100
AcDbEntity
  8
LAY-1
  6
EXLTYPE2
 62
     1
100
AcDbCircle
 10
197.110897
 20
-156.885524
 30
0.0
 40
6.141127
100
AcDbArc
 50
55.697591
 51
124.302409
  0
LINE
  5
456
100
AcDbEntity
  8
LAY-1
  6
EXLTYPE2
 62
     1
100
AcDbLine
 10
200.571795
 20
-151.812495
 30
0.0
 11
200.571795
 21
-160.744397
 31
0.0
  0
LINE
  5
457
100
AcDbEntity
  8
LAY-1
  6
EXLTYPE2
 62
     1
100
AcDbLine
 10
207.499998
 20
-150.744397
 30
0.0
 11
195.499998
 21
-150.744397
 31
0.0
  0
LINE
  5
458
100
AcDbEntity
  8
LAY-1
  6
EXLTYPE2
 62
     1
100
AcDbLine
 10
193.649998
 20
-160.744397
 30
0.0
 11
193.649998
 21
-151.812495
 31
0.0
  0
LINE
  5
459
100
AcDbEntity
  8
LAY-1
  6
EXLTYPE2
 62
     1
100
AcDbLine
 10
195.499998
 20
-150.744397
 30
0.0
 11
193.649998
 21
-151.812495
 31
0.0
  0
LINE
  5
45A
100
AcDbEntity
  8
LAY-1
  6
EXLTYPE2
 62
     1
100
AcDbLine
 10
207.499998
 20
-160.744397
 30
0.0
 11
193.649998
 21
-160.744397
 31
0.0
  0
ARC
  5
45B
100
AcDbEntity
  8
LAY-1
  6
EXLTYPE4
 62
     1
100
AcDbCircle
 10
178.0
 20
-221.190932
 30
0.0
 40
0.5
100
AcDbArc
 50
180.0
 51
276.0
  0
ARC
  5
45C
100
AcDbEntity
  8
LAY-1
  6
EXLTYPE4
 62
     1
100
AcDbCircle
 10
165.0
 20
-220.247748
 30
0.0
 40
0.5
100
AcDbArc
 50
90.0
 51
180.0
  0
LINE
  5
45D
100
AcDbEntity
  8
LAY-1
  6
EXLTYPE4
 62
     1
100
AcDbLine
 10
165.0
 20
-219.747748
 30
0.0
 11
177.0
 21
-219.747748
 31
0.0
  0
ARC
  5
45E
100
AcDbEntity
  8
LAY-1
  6
EXLTYPE4
 62
     1
100
AcDbCircle
 10
177.0
 20
-220.247748
 30
0.0
 40
0.5
100
AcDbArc
 50
0.0
 51
90.0
  0
LINE
  5
45F
100
AcDbEntity
  8
LAY-1
  6
EXLTYPE4
 62
     1
100
AcDbLine
 10
177.5
 20
-220.247748
 30
0.0
 11
177.5
 21
-221.190932
 31
0.0
  0
ARC
  5
460
100
AcDbEntity
  8
LAY-1
  6
EXLTYPE4
 62
     1
100
AcDbCircle
 10
178.0
 20
-221.190932
 30
0.0
 40
0.5
100
AcDbArc
 50
180.0
 51
276.0
  0
LINE
  5
461
100
AcDbEntity
  8
LAY-1
  6
EXLTYPE4
 62
     1
100
AcDbLine
 10
164.5
 20
-220.247748
 30
0.0
 11
164.5
 21
-222.662391
 31
0.0
  0
ARC
  5
462
100
AcDbEntity
  8
LAY-1
  6
EXLTYPE4
 62
     1
100
AcDbCircle
 10
164.0
 20
-222.662391
 30
0.0
 40
0.5
100
AcDbArc
 50
276.0
 51
0.0
  0
ARC
  5
463
100
AcDbEntity
  8
LAY-1
  6
EXLTYPE4
 62
     1
100
AcDbCircle
 10
172.9
 20
-218.347748
 30
0.0
 40
0.9
100
AcDbArc
 50
0.0
 51
90.0
  0
ARC
  5
464
100
AcDbEntity
  8
LAY-1
  6
EXLTYPE4
 62
     1
100
AcDbCircle
 10
169.1
 20
-218.347748
 30
0.0
 40
0.9
100
AcDbArc
 50
90.0
 51
180.0
  0
LINE
  5
465
100
AcDbEntity
  8
LAY-1
  6
EXLTYPE4
 62
     1
100
AcDbLine
 10
169.1
 20
-217.447748
 30
0.0
 11
172.9
 21
-217.447748
 31
0.0
  0
LINE
  5
466
100
AcDbEntity
  8
LAY-1
  6
EXLTYPE4
 62
     1
100
AcDbLine
 10
173.8
 20
-218.347748
 30
0.0
 11
173.8
 21
-219.247748
 31
0.0
  0
LINE
  5
467
100
AcDbEntity
  8
LAY-1
  6
EXLTYPE4
 62
     1
100
AcDbLine
 10
168.2
 20
-218.347748
 30
0.0
 11
168.2
 21
-219.247748
 31
0.0
  0
LINE
  5
468
100
AcDbEntity
  8
LAY-1
  6
EXLTYPE4
 62
     1
100
AcDbLine
 10
166.0
 20
-219.747748
 30
0.0
 11
166.0
 21
-219.247748
 31
0.0
  0
LINE
  5
469
100
AcDbEntity
  8
LAY-1
  6
EXLTYPE4
 62
     1
100
AcDbLine
 10
166.0
 20
-219.247748
 30
0.0
 11
176.0
 21
-219.247748
 31
0.0
  0
LINE
  5
46A
100
AcDbEntity
  8
LAY-1
  6
EXLTYPE4
 62
     1
100
AcDbLine
 10
176.0
 20
-219.247748
 30
0.0
 11
176.0
 21
-219.747748
 31
0.0
  0
ARC
  5
46B
100
AcDbEntity
  8
LAY-1
  6
EXLTYPE4
 62
     1
100
AcDbCircle
 10
-351.140114
 20
188.753432
 30
0.0
 40
10.0
100
AcDbArc
 50
186.257202
 51
270.0
  0
ARC
  5
46C
100
AcDbEntity
  8
LAY-1
  6
EXLTYPE4
 62
     1
100
AcDbCircle
 10
-351.140114
 20
108.746568
 30
0.0
 40
10.0
100
AcDbArc
 50
90.0
 51
173.742798
  0
LINE
  5
46D
100
AcDbEntity
  8
LAY-1
  6
EXLTYPE4
 62
     1
100
AcDbLine
 10
-347.5
 20
178.75
 30
0.0
 11
-351.140114
 21
178.75
 31
0.0
  0
LINE
  5
46E
100
AcDbEntity
  8
LAY-1
  6
EXLTYPE4
 62
     1
100
AcDbLine
 10
-337.5
 20
80.75
 30
0.0
 11
-337.5
 21
108.75
 31
0.0
  0
ARC
  5
46F
100
AcDbEntity
  8
LAY-1
  6
EXLTYPE4
 62
     1
100
AcDbCircle
 10
-318.5
 20
80.75
 30
0.0
 40
19.0
100
AcDbArc
 50
180.0
 51
204.443335
  0
ARC
  5
470
100
AcDbEntity
  8
LAY-1
  6
EXLTYPE4
 62
     1
100
AcDbCircle
 10
-347.5
 20
108.75
 30
0.0
 40
10.0
100
AcDbArc
 50
0.0
 51
90.0
  0
LINE
  5
471
100
AcDbEntity
  8
LAY-1
  6
EXLTYPE4
 62
     1
100
AcDbLine
 10
-337.5
 20
216.75
 30
0.0
 11
-337.5
 21
188.75
 31
0.0
  0
ARC
  5
472
100
AcDbEntity
  8
LAY-1
  6
EXLTYPE4
 62
     1
100
AcDbCircle
 10
-347.5
 20
188.75
 30
0.0
 40
10.0
100
AcDbArc
 50
270.0
 51
0.0
  0
ARC
  5
473
100
AcDbEntity
  8
LAY-1
  6
EXLTYPE4
 62
     1
100
AcDbCircle
 10
-318.5
 20
216.75
 30
0.0
 40
19.0
100
AcDbArc
 50
155.556665
 51
180.0
  0
LINE
  5
474
100
AcDbEntity
  8
LAY-1
  6
EXLTYPE3
 62
     1
100
AcDbLine
 10
-380.5
 20
148.75
 30
0.0
 11
-420.5
 21
148.75
 31
0.0
  0
LINE
  5
475
100
AcDbEntity
  8
LAY-1
  6
EXLTYPE3
 62
     1
100
AcDbLine
 10
-400.5
 20
307.75
 30
0.0
 11
-400.5
 21
-15.25
 31
0.0
  0
ARC
  5
476
100
AcDbEntity
  8
LAY-1
  6
EXLTYPE4
 62
     1
100
AcDbCircle
 10
-715.953766
 20
148.746568
 30
0.0
 40
357.0
100
AcDbArc
 50
347.409369
 51
353.684272
  0
ARC
  5
477
100
AcDbEntity
  8
LAY-1
  6
EXLTYPE4
 62
     1
100
AcDbCircle
 10
-715.953766
 20
148.753432
 30
0.0
 40
357.0
100
AcDbArc
 50
6.257202
 51
12.590631
  0
LINE
  5
478
100
AcDbEntity
  8
LAY-1
  6
EXLTYPE3
 62
     1
100
AcDbLine
 10
-25.467949
 20
148.75
 30
0.0
 11
-474.467949
 21
148.75
 31
0.0
  0
LINE
  5
479
100
AcDbEntity
  8
LAY-1
  6
EXLTYPE3
 62
     1
100
AcDbLine
 10
-316.417801
 20
148.75
 30
0.0
 11
-261.017801
 21
148.75
 31
0.0
  0
LINE
  5
47A
100
AcDbEntity
  8
LAY-1
  6
EXLTYPE3
 62
     1
100
AcDbLine
 10
-380.5
 20
148.75
 30
0.0
 11
-420.5
 21
148.75
 31
0.0
  0
LINE
  5
47B
100
AcDbEntity
  8
LAY-1
  6
EXLTYPE3
 62
     1
100
AcDbLine
 10
-400.5
 20
78.75
 30
0.0
 11
-400.5
 21
218.75
 31
0.0
  0
ARC
  5
47C
100
AcDbEntity
  8
LAY-1
  6
EXLTYPE4
 62
     1
100
AcDbCircle
 10
766.140114
 20
188.753432
 30
0.0
 40
10.0
100
AcDbArc
 50
270.0
 51
353.742798
  0
ARC
  5
47D
100
AcDbEntity
  8
LAY-1
  6
EXLTYPE4
 62
     1
100
AcDbCircle
 10
766.140114
 20
108.746568
 30
0.0
 40
10.0
100
AcDbArc
 50
6.257202
 51
90.0
  0
LINE
  5
47E
100
AcDbEntity
  8
LAY-1
  6
EXLTYPE4
 62
     1
100
AcDbLine
 10
762.5
 20
178.75
 30
0.0
 11
766.140114
 21
178.75
 31
0.0
  0
LINE
  5
47F
100
AcDbEntity
  8
LAY-1
  6
EXLTYPE4
 62
     1
100
AcDbLine
 10
752.5
 20
80.75
 30
0.0
 11
752.5
 21
108.75
 31
0.0
  0
ARC
  5
480
100
AcDbEntity
  8
LAY-1
  6
EXLTYPE4
 62
     1
100
AcDbCircle
 10
733.5
 20
80.75
 30
0.0
 40
19.0
100
AcDbArc
 50
335.556665
 51
0.0
  0
ARC
  5
481
100
AcDbEntity
  8
LAY-1
  6
EXLTYPE4
 62
     1
100
AcDbCircle
 10
762.5
 20
108.75
 30
0.0
 40
10.0
100
AcDbArc
 50
90.0
 51
180.0
  0
LINE
  5
482
100
AcDbEntity
  8
LAY-1
  6
EXLTYPE4
 62
     1
100
AcDbLine
 10
752.5
 20
216.75
 30
0.0
 11
752.5
 21
188.75
 31
0.0
  0
ARC
  5
483
100
AcDbEntity
  8
LAY-1
  6
EXLTYPE4
 62
     1
100
AcDbCircle
 10
762.5
 20
188.75
 30
0.0
 40
10.0
100
AcDbArc
 50
180.0
 51
270.0
  0
ARC
  5
484
100
AcDbEntity
  8
LAY-1
  6
EXLTYPE4
 62
     1
100
AcDbCircle
 10
733.5
 20
216.75
 30
0.0
 40
19.0
100
AcDbArc
 50
0.0
 51
24.443335
  0
LINE
  5
485
100
AcDbEntity
  8
LAY-1
  6
EXLTYPE3
 62
     1
100
AcDbLine
 10
815.5
 20
307.75
 30
0.0
 11
815.5
 21
-15.25
 31
0.0
  0
ARC
  5
486
100
AcDbEntity
  8
LAY-1
  6
EXLTYPE4
 62
     1
100
AcDbCircle
 10
1130.953766
 20
148.746568
 30
0.0
 40
357.0
100
AcDbArc
 50
186.257202
 51
192.590631
  0
ARC
  5
487
100
AcDbEntity
  8
LAY-1
  6
EXLTYPE4
 62
     1
100
AcDbCircle
 10
1130.953766
 20
148.753432
 30
0.0
 40
357.0
100
AcDbArc
 50
167.409369
 51
173.742798
  0
LINE
  5
488
100
AcDbEntity
  8
LAY-1
  6
EXLTYPE3
 62
     1
100
AcDbLine
 10
443.467949
 20
148.75
 30
0.0
 11
889.467949
 21
148.75
 31
0.0
  0
LINE
  5
489
100
AcDbEntity
  8
LAY-1
  6
EXLTYPE3
 62
     1
100
AcDbLine
 10
815.5
 20
78.75
 30
0.0
 11
815.5
 21
218.75
 31
0.0
  0
LINE
  5
48A
100
AcDbEntity
  8
LAY-1
  6
EXLTYPE3
 62
     1
100
AcDbLine
 10
296.5
 20
765.232199
 30
0.0
 11
116.0
 21
765.232199
 31
0.0
  0
CIRCLE
  5
48B
100
AcDbEntity
  8
LAY-1
  6
EXLTYPE4
 62
     1
100
AcDbCircle
 10
207.5
 20
-467.732199
 30
0.0
 40
13.6
  0
LINE
  5
48C
100
AcDbEntity
  8
LAY-1
  6
EXLTYPE3
 62
     1
100
AcDbLine
 10
296.5
 20
-467.732199
 30
0.0
 11
116.0
 21
-467.732199
 31
0.0
  0
LINE
  5
48D
100
AcDbEntity
  8
LAY-1
  6
CONTINUOUS
 62
     1
100
AcDbLine
 10
-292.291522
 20
98.481656
 30
0.0
 11
-293.517801
 21
98.481656
 31
0.0
  0
LINE
  5
48E
100
AcDbEntity
  8
LAY-1
  6
CONTINUOUS
 62
     1
100
AcDbLine
 10
-292.291522
 20
110.481656
 30
0.0
 11
-292.291522
 21
98.481656
 31
0.0
  0
LINE
  5
48F
100
AcDbEntity
  8
LAY-1
  6
CONTINUOUS
 62
     1
100
AcDbLine
 10
-292.291522
 20
98.481656
 30
0.0
 11
-290.817801
 21
103.981656
 31
0.0
  0
LINE
  5
490
100
AcDbEntity
  8
LAY-1
  6
CONTINUOUS
 62
     1
100
AcDbLine
 10
-290.817801
 20
99.512001
 30
0.0
 11
-290.817801
 21
110.481656
 31
0.0
  0
LINE
  5
491
100
AcDbEntity
  8
LAY-1
  6
CONTINUOUS
 62
     1
100
AcDbLine
 10
-281.666307
 20
99.512001
 30
0.0
 11
-290.817801
 21
99.512001
 31
0.0
  0
LINE
  5
492
100
AcDbEntity
  8
LAY-1
  6
CONTINUOUS
 62
     1
100
AcDbLine
 10
-280.817801
 20
100.981656
 30
0.0
 11
-281.666307
 21
99.512001
 31
0.0
  0
LINE
  5
493
100
AcDbEntity
  8
LAY-1
  6
CONTINUOUS
 62
     1
100
AcDbLine
 10
-281.666307
 20
104.996829
 30
0.0
 11
-290.817801
 21
104.996829
 31
0.0
  0
ARC
  5
494
100
AcDbEntity
  8
LAY-1
  6
CONTINUOUS
 62
     1
100
AcDbCircle
 10
-285.673865
 20
102.254415
 30
0.0
 40
4.856063
100
AcDbArc
 50
325.615753
 51
34.384247
  0
LINE
  5
495
100
AcDbEntity
  8
LAY-1
  6
CONTINUOUS
 62
     1
100
AcDbLine
 10
-280.817801
 20
110.481656
 30
0.0
 11
-280.817801
 21
100.981656
 31
0.0
  0
ARC
  5
496
100
AcDbEntity
  8
LAY-1
  6
CONTINUOUS
 62
     1
100
AcDbCircle
 10
-298.969296
 20
110.481656
 30
0.0
 40
18.151494
100
AcDbArc
 50
342.412046
 51
0.0
  0
ARC
  5
497
100
AcDbEntity
  8
LAY-1
  6
CONTINUOUS
 62
     1
100
AcDbCircle
 10
-298.969296
 20
110.481657
 30
0.0
 40
18.151494
100
AcDbArc
 50
0.0
 51
17.587954
  0
LINE
  5
498
100
AcDbEntity
  8
LAY-1
  6
CONTINUOUS
 62
     1
100
AcDbLine
 10
-280.817801
 20
119.981657
 30
0.0
 11
-281.666307
 21
121.451312
 31
0.0
  0
LINE
  5
499
100
AcDbEntity
  8
LAY-1
  6
CONTINUOUS
 62
     1
100
AcDbLine
 10
-280.817801
 20
110.481657
 30
0.0
 11
-280.817801
 21
119.981657
 31
0.0
  0
ARC
  5
49A
100
AcDbEntity
  8
LAY-1
  6
CONTINUOUS
 62
     1
100
AcDbCircle
 10
-285.673865
 20
118.708898
 30
0.0
 40
4.856063
100
AcDbArc
 50
325.615753
 51
34.384247
  0
LINE
  5
49B
100
AcDbEntity
  8
LAY-1
  6
CONTINUOUS
 62
     1
100
AcDbLine
 10
-281.666307
 20
121.451312
 30
0.0
 11
-290.817801
 21
121.451312
 31
0.0
  0
LINE
  5
49C
100
AcDbEntity
  8
LAY-1
  6
CONTINUOUS
 62
     1
100
AcDbLine
 10
-290.817801
 20
121.451312
 30
0.0
 11
-290.817801
 21
110.481657
 31
0.0
  0
LINE
  5
49D
100
AcDbEntity
  8
LAY-1
  6
CONTINUOUS
 62
     1
100
AcDbLine
 10
-292.291522
 20
122.481657
 30
0.0
 11
-290.817801
 21
116.981657
 31
0.0
  0
LINE
  5
49E
100
AcDbEntity
  8
LAY-1
  6
CONTINUOUS
 62
     1
100
AcDbLine
 10
-292.291522
 20
122.481657
 30
0.0
 11
-293.517801
 21
122.481657
 31
0.0
  0
LINE
  5
49F
100
AcDbEntity
  8
LAY-1
  6
CONTINUOUS
 62
     1
100
AcDbLine
 10
-292.291522
 20
110.481657
 30
0.0
 11
-292.291522
 21
122.481657
 31
0.0
  0
LINE
  5
4A0
100
AcDbEntity
  8
LAY-1
  6
CONTINUOUS
 62
     1
100
AcDbLine
 10
-276.017801
 20
116.481657
 30
0.0
 11
-275.517801
 21
115.981657
 31
0.0
  0
LINE
  5
4A1
100
AcDbEntity
  8
LAY-1
  6
CONTINUOUS
 62
     1
100
AcDbLine
 10
-276.017801
 20
104.481657
 30
0.0
 11
-275.517801
 21
104.981657
 31
0.0
  0
LINE
  5
4A2
100
AcDbEntity
  8
LAY-1
  6
CONTINUOUS
 62
     1
100
AcDbLine
 10
-275.517801
 20
104.981657
 30
0.0
 11
-275.517801
 21
115.981657
 31
0.0
  0
LINE
  5
4A3
100
AcDbEntity
  8
LAY-1
  6
CONTINUOUS
 62
     1
100
AcDbLine
 10
-276.017801
 20
116.481657
 30
0.0
 11
-280.817801
 21
116.481657
 31
0.0
  0
LINE
  5
4A4
100
AcDbEntity
  8
LAY-1
  6
CONTINUOUS
 62
     1
100
AcDbLine
 10
-276.017801
 20
104.481657
 30
0.0
 11
-280.817801
 21
104.481657
 31
0.0
  0
LINE
  5
4A5
100
AcDbEntity
  8
LAY-1
  6
CONTINUOUS
 62
     1
100
AcDbLine
 10
-281.666307
 20
115.966485
 30
0.0
 11
-290.817801
 21
115.966485
 31
0.0
  0
LINE
  5
4A6
100
AcDbEntity
  8
LAY-1
  6
CONTINUOUS
 62
     1
100
AcDbLine
 10
-333.5
 20
119.981657
 30
0.0
 11
-333.5
 21
100.981657
 31
0.0
  0
ARC
  5
4A7
100
AcDbEntity
  8
LAY-1
  6
CONTINUOUS
 62
     1
100
AcDbCircle
 10
-328.643937
 20
102.254415
 30
0.0
 40
4.856063
100
AcDbArc
 50
145.615753
 51
214.384247
  0
LINE
  5
4A8
100
AcDbEntity
  8
LAY-1
  6
CONTINUOUS
 62
     1
100
AcDbLine
 10
-325.5
 20
104.996829
 30
0.0
 11
-332.651494
 21
104.996829
 31
0.0
  0
LINE
  5
4A9
100
AcDbEntity
  8
LAY-1
  6
CONTINUOUS
 62
     1
100
AcDbLine
 10
-333.5
 20
100.981657
 30
0.0
 11
-332.651494
 21
99.512002
 31
0.0
  0
LINE
  5
4AA
100
AcDbEntity
  8
LAY-1
  6
CONTINUOUS
 62
     1
100
AcDbLine
 10
-332.651494
 20
99.512002
 30
0.0
 11
-325.5
 21
99.512002
 31
0.0
  0
ARC
  5
4AB
100
AcDbEntity
  8
LAY-1
  6
CONTINUOUS
 62
     1
100
AcDbCircle
 10
-315.348506
 20
110.481657
 30
0.0
 40
18.151494
100
AcDbArc
 50
162.412046
 51
197.587954
  0
ARC
  5
4AC
100
AcDbEntity
  8
LAY-1
  6
CONTINUOUS
 62
     1
100
AcDbCircle
 10
-328.643937
 20
118.708898
 30
0.0
 40
4.856063
100
AcDbArc
 50
145.615753
 51
214.384247
  0
LINE
  5
4AD
100
AcDbEntity
  8
LAY-1
  6
CONTINUOUS
 62
     1
100
AcDbLine
 10
-332.651494
 20
115.966484
 30
0.0
 11
-325.5
 21
115.966484
 31
0.0
  0
LINE
  5
4AE
100
AcDbEntity
  8
LAY-1
  6
CONTINUOUS
 62
     1
100
AcDbLine
 10
-332.651494
 20
121.451312
 30
0.0
 11
-333.5
 21
119.981657
 31
0.0
  0
LINE
  5
4AF
100
AcDbEntity
  8
LAY-1
  6
CONTINUOUS
 62
     1
100
AcDbLine
 10
-325.5
 20
121.451312
 30
0.0
 11
-332.651494
 21
121.451312
 31
0.0
  0
LINE
  5
4B0
100
AcDbEntity
  8
LAY-1
  6
CONTINUOUS
 62
     1
100
AcDbLine
 10
-292.291522
 20
175.018343
 30
0.0
 11
-293.517801
 21
175.018343
 31
0.0
  0
LINE
  5
4B1
100
AcDbEntity
  8
LAY-1
  6
CONTINUOUS
 62
     1
100
AcDbLine
 10
-292.291522
 20
187.018343
 30
0.0
 11
-292.291522
 21
175.018343
 31
0.0
  0
LINE
  5
4B2
100
AcDbEntity
  8
LAY-1
  6
CONTINUOUS
 62
     1
100
AcDbLine
 10
-292.291522
 20
175.018343
 30
0.0
 11
-290.817801
 21
180.518343
 31
0.0
  0
LINE
  5
4B3
100
AcDbEntity
  8
LAY-1
  6
CONTINUOUS
 62
     1
100
AcDbLine
 10
-290.817801
 20
176.048688
 30
0.0
 11
-290.817801
 21
187.018343
 31
0.0
  0
LINE
  5
4B4
100
AcDbEntity
  8
LAY-1
  6
CONTINUOUS
 62
     1
100
AcDbLine
 10
-281.666307
 20
176.048688
 30
0.0
 11
-290.817801
 21
176.048688
 31
0.0
  0
LINE
  5
4B5
100
AcDbEntity
  8
LAY-1
  6
CONTINUOUS
 62
     1
100
AcDbLine
 10
-280.817801
 20
177.518343
 30
0.0
 11
-281.666307
 21
176.048688
 31
0.0
  0
LINE
  5
4B6
100
AcDbEntity
  8
LAY-1
  6
CONTINUOUS
 62
     1
100
AcDbLine
 10
-281.666307
 20
181.533515
 30
0.0
 11
-290.817801
 21
181.533515
 31
0.0
  0
ARC
  5
4B7
100
AcDbEntity
  8
LAY-1
  6
CONTINUOUS
 62
     1
100
AcDbCircle
 10
-285.673865
 20
178.791102
 30
0.0
 40
4.856063
100
AcDbArc
 50
325.615753
 51
34.384247
  0
LINE
  5
4B8
100
AcDbEntity
  8
LAY-1
  6
CONTINUOUS
 62
     1
100
AcDbLine
 10
-280.817801
 20
187.018343
 30
0.0
 11
-280.817801
 21
177.518343
 31
0.0
  0
ARC
  5
4B9
100
AcDbEntity
  8
LAY-1
  6
CONTINUOUS
 62
     1
100
AcDbCircle
 10
-298.969296
 20
187.018343
 30
0.0
 40
18.151494
100
AcDbArc
 50
342.412046
 51
0.0
  0
ARC
  5
4BA
100
AcDbEntity
  8
LAY-1
  6
CONTINUOUS
 62
     1
100
AcDbCircle
 10
-298.969296
 20
187.018344
 30
0.0
 40
18.151494
100
AcDbArc
 50
0.0
 51
17.587954
  0
LINE
  5
4BB
100
AcDbEntity
  8
LAY-1
  6
CONTINUOUS
 62
     1
100
AcDbLine
 10
-280.817801
 20
196.518344
 30
0.0
 11
-281.666307
 21
197.987999
 31
0.0
  0
LINE
  5
4BC
100
AcDbEntity
  8
LAY-1
  6
CONTINUOUS
 62
     1
100
AcDbLine
 10
-280.817801
 20
187.018344
 30
0.0
 11
-280.817801
 21
196.518344
 31
0.0
  0
ARC
  5
4BD
100
AcDbEntity
  8
LAY-1
  6
CONTINUOUS
 62
     1
100
AcDbCircle
 10
-285.673865
 20
195.245585
 30
0.0
 40
4.856063
100
AcDbArc
 50
325.615753
 51
34.384247
  0
LINE
  5
4BE
100
AcDbEntity
  8
LAY-1
  6
CONTINUOUS
 62
     1
100
AcDbLine
 10
-281.666307
 20
197.987999
 30
0.0
 11
-290.817801
 21
197.987999
 31
0.0
  0
LINE
  5
4BF
100
AcDbEntity
  8
LAY-1
  6
CONTINUOUS
 62
     1
100
AcDbLine
 10
-290.817801
 20
197.987999
 30
0.0
 11
-290.817801
 21
187.018344
 31
0.0
  0
LINE
  5
4C0
100
AcDbEntity
  8
LAY-1
  6
CONTINUOUS
 62
     1
100
AcDbLine
 10
-292.291522
 20
199.018344
 30
0.0
 11
-290.817801
 21
193.518344
 31
0.0
  0
LINE
  5
4C1
100
AcDbEntity
  8
LAY-1
  6
CONTINUOUS
 62
     1
100
AcDbLine
 10
-292.291522
 20
199.018344
 30
0.0
 11
-293.517801
 21
199.018344
 31
0.0
  0
LINE
  5
4C2
100
AcDbEntity
  8
LAY-1
  6
CONTINUOUS
 62
     1
100
AcDbLine
 10
-292.291522
 20
187.018344
 30
0.0
 11
-292.291522
 21
199.018344
 31
0.0
  0
LINE
  5
4C3
100
AcDbEntity
  8
LAY-1
  6
CONTINUOUS
 62
     1
100
AcDbLine
 10
-276.017801
 20
193.018343
 30
0.0
 11
-275.517801
 21
192.518343
 31
0.0
  0
LINE
  5
4C4
100
AcDbEntity
  8
LAY-1
  6
CONTINUOUS
 62
     1
100
AcDbLine
 10
-276.017801
 20
181.018343
 30
0.0
 11
-275.517801
 21
181.518343
 31
0.0
  0
LINE
  5
4C5
100
AcDbEntity
  8
LAY-1
  6
CONTINUOUS
 62
     1
100
AcDbLine
 10
-275.517801
 20
181.518343
 30
0.0
 11
-275.517801
 21
192.518343
 31
0.0
  0
LINE
  5
4C6
100
AcDbEntity
  8
LAY-1
  6
CONTINUOUS
 62
     1
100
AcDbLine
 10
-276.017801
 20
193.018343
 30
0.0
 11
-280.817801
 21
193.018343
 31
0.0
  0
LINE
  5
4C7
100
AcDbEntity
  8
LAY-1
  6
CONTINUOUS
 62
     1
100
AcDbLine
 10
-276.017801
 20
181.018343
 30
0.0
 11
-280.817801
 21
181.018343
 31
0.0
  0
LINE
  5
4C8
100
AcDbEntity
  8
LAY-1
  6
CONTINUOUS
 62
     1
100
AcDbLine
 10
-281.666307
 20
192.503171
 30
0.0
 11
-290.817801
 21
192.503171
 31
0.0
  0
LINE
  5
4C9
100
AcDbEntity
  8
LAY-1
  6
CONTINUOUS
 62
     1
100
AcDbLine
 10
-333.5
 20
196.518343
 30
0.0
 11
-333.5
 21
177.518343
 31
0.0
  0
ARC
  5
4CA
100
AcDbEntity
  8
LAY-1
  6
CONTINUOUS
 62
     1
100
AcDbCircle
 10
-328.643937
 20
178.791102
 30
0.0
 40
4.856063
100
AcDbArc
 50
145.615753
 51
214.384247
  0
LINE
  5
4CB
100
AcDbEntity
  8
LAY-1
  6
CONTINUOUS
 62
     1
100
AcDbLine
 10
-325.5
 20
181.533516
 30
0.0
 11
-332.651494
 21
181.533516
 31
0.0
  0
LINE
  5
4CC
100
AcDbEntity
  8
LAY-1
  6
CONTINUOUS
 62
     1
100
AcDbLine
 10
-333.5
 20
177.518343
 30
0.0
 11
-332.651494
 21
176.048688
 31
0.0
  0
LINE
  5
4CD
100
AcDbEntity
  8
LAY-1
  6
CONTINUOUS
 62
     1
100
AcDbLine
 10
-332.651494
 20
176.048688
 30
0.0
 11
-325.5
 21
176.048688
 31
0.0
  0
ARC
  5
4CE
100
AcDbEntity
  8
LAY-1
  6
CONTINUOUS
 62
     1
100
AcDbCircle
 10
-315.348506
 20
187.018343
 30
0.0
 40
18.151494
100
AcDbArc
 50
162.412046
 51
197.587954
  0
ARC
  5
4CF
100
AcDbEntity
  8
LAY-1
  6
CONTINUOUS
 62
     1
100
AcDbCircle
 10
-328.643937
 20
195.245585
 30
0.0
 40
4.856063
100
AcDbArc
 50
145.615753
 51
214.384247
  0
LINE
  5
4D0
100
AcDbEntity
  8
LAY-1
  6
CONTINUOUS
 62
     1
100
AcDbLine
 10
-332.651494
 20
192.503171
 30
0.0
 11
-325.5
 21
192.503171
 31
0.0
  0
LINE
  5
4D1
100
AcDbEntity
  8
LAY-1
  6
CONTINUOUS
 62
     1
100
AcDbLine
 10
-332.651494
 20
197.987998
 30
0.0
 11
-333.5
 21
196.518343
 31
0.0
  0
LINE
  5
4D2
100
AcDbEntity
  8
LAY-1
  6
CONTINUOUS
 62
     1
100
AcDbLine
 10
-325.5
 20
197.987998
 30
0.0
 11
-332.651494
 21
197.987998
 31
0.0
  0
LINE
  5
4D3
100
AcDbEntity
  8
LAY-1
  6
CONTINUOUS
 62
     1
100
AcDbLine
 10
-292.291522
 20
229.137953
 30
0.0
 11
-293.517801
 21
229.137953
 31
0.0
  0
LINE
  5
4D4
100
AcDbEntity
  8
LAY-1
  6
CONTINUOUS
 62
     1
100
AcDbLine
 10
-292.291522
 20
241.137953
 30
0.0
 11
-292.291522
 21
229.137953
 31
0.0
  0
LINE
  5
4D5
100
AcDbEntity
  8
LAY-1
  6
CONTINUOUS
 62
     1
100
AcDbLine
 10
-292.291522
 20
229.137953
 30
0.0
 11
-290.817801
 21
234.637953
 31
0.0
  0
LINE
  5
4D6
100
AcDbEntity
  8
LAY-1
  6
CONTINUOUS
 62
     1
100
AcDbLine
 10
-290.817801
 20
230.168298
 30
0.0
 11
-290.817801
 21
241.137953
 31
0.0
  0
LINE
  5
4D7
100
AcDbEntity
  8
LAY-1
  6
CONTINUOUS
 62
     1
100
AcDbLine
 10
-281.666307
 20
230.168298
 30
0.0
 11
-290.817801
 21
230.168298
 31
0.0
  0
LINE
  5
4D8
100
AcDbEntity
  8
LAY-1
  6
CONTINUOUS
 62
     1
100
AcDbLine
 10
-280.817801
 20
231.637953
 30
0.0
 11
-281.666307
 21
230.168298
 31
0.0
  0
LINE
  5
4D9
100
AcDbEntity
  8
LAY-1
  6
CONTINUOUS
 62
     1
100
AcDbLine
 10
-281.666307
 20
235.653125
 30
0.0
 11
-290.817801
 21
235.653125
 31
0.0
  0
ARC
  5
4DA
100
AcDbEntity
  8
LAY-1
  6
CONTINUOUS
 62
     1
100
AcDbCircle
 10
-285.673865
 20
232.910712
 30
0.0
 40
4.856063
100
AcDbArc
 50
325.615753
 51
34.384247
  0
LINE
  5
4DB
100
AcDbEntity
  8
LAY-1
  6
CONTINUOUS
 62
     1
100
AcDbLine
 10
-280.817801
 20
241.137953
 30
0.0
 11
-280.817801
 21
231.637953
 31
0.0
  0
ARC
  5
4DC
100
AcDbEntity
  8
LAY-1
  6
CONTINUOUS
 62
     1
100
AcDbCircle
 10
-298.969296
 20
241.137953
 30
0.0
 40
18.151494
100
AcDbArc
 50
342.412046
 51
0.0
  0
ARC
  5
4DD
100
AcDbEntity
  8
LAY-1
  6
CONTINUOUS
 62
     1
100
AcDbCircle
 10
-298.969296
 20
241.137954
 30
0.0
 40
18.151494
100
AcDbArc
 50
0.0
 51
17.587954
  0
LINE
  5
4DE
100
AcDbEntity
  8
LAY-1
  6
CONTINUOUS
 62
     1
100
AcDbLine
 10
-280.817801
 20
250.637954
 30
0.0
 11
-281.666307
 21
252.107609
 31
0.0
  0
LINE
  5
4DF
100
AcDbEntity
  8
LAY-1
  6
CONTINUOUS
 62
     1
100
AcDbLine
 10
-280.817801
 20
241.137954
 30
0.0
 11
-280.817801
 21
250.637954
 31
0.0
  0
ARC
  5
4E0
100
AcDbEntity
  8
LAY-1
  6
CONTINUOUS
 62
     1
100
AcDbCircle
 10
-285.673865
 20
249.365195
 30
0.0
 40
4.856063
100
AcDbArc
 50
325.615753
 51
34.384247
  0
LINE
  5
4E1
100
AcDbEntity
  8
LAY-1
  6
CONTINUOUS
 62
     1
100
AcDbLine
 10
-281.666307
 20
252.107609
 30
0.0
 11
-290.817801
 21
252.107609
 31
0.0
  0
LINE
  5
4E2
100
AcDbEntity
  8
LAY-1
  6
CONTINUOUS
 62
     1
100
AcDbLine
 10
-290.817801
 20
252.107609
 30
0.0
 11
-290.817801
 21
241.137954
 31
0.0
  0
LINE
  5
4E3
100
AcDbEntity
  8
LAY-1
  6
CONTINUOUS
 62
     1
100
AcDbLine
 10
-292.291522
 20
253.137954
 30
0.0
 11
-290.817801
 21
247.637954
 31
0.0
  0
LINE
  5
4E4
100
AcDbEntity
  8
LAY-1
  6
CONTINUOUS
 62
     1
100
AcDbLine
 10
-292.291522
 20
253.137954
 30
0.0
 11
-293.517801
 21
253.137954
 31
0.0
  0
LINE
  5
4E5
100
AcDbEntity
  8
LAY-1
  6
CONTINUOUS
 62
     1
100
AcDbLine
 10
-292.291522
 20
241.137954
 30
0.0
 11
-292.291522
 21
253.137954
 31
0.0
  0
LINE
  5
4E6
100
AcDbEntity
  8
LAY-1
  6
CONTINUOUS
 62
     1
100
AcDbLine
 10
-276.017801
 20
247.137953
 30
0.0
 11
-275.517801
 21
246.637953
 31
0.0
  0
LINE
  5
4E7
100
AcDbEntity
  8
LAY-1
  6
CONTINUOUS
 62
     1
100
AcDbLine
 10
-276.017801
 20
235.137953
 30
0.0
 11
-275.517801
 21
235.637953
 31
0.0
  0
LINE
  5
4E8
100
AcDbEntity
  8
LAY-1
  6
CONTINUOUS
 62
     1
100
AcDbLine
 10
-275.517801
 20
235.637953
 30
0.0
 11
-275.517801
 21
246.637953
 31
0.0
  0
LINE
  5
4E9
100
AcDbEntity
  8
LAY-1
  6
CONTINUOUS
 62
     1
100
AcDbLine
 10
-276.017801
 20
247.137953
 30
0.0
 11
-280.817801
 21
247.137953
 31
0.0
  0
LINE
  5
4EA
100
AcDbEntity
  8
LAY-1
  6
CONTINUOUS
 62
     1
100
AcDbLine
 10
-276.017801
 20
235.137953
 30
0.0
 11
-280.817801
 21
235.137953
 31
0.0
  0
LINE
  5
4EB
100
AcDbEntity
  8
LAY-1
  6
CONTINUOUS
 62
     1
100
AcDbLine
 10
-281.666307
 20
246.622781
 30
0.0
 11
-290.817801
 21
246.622781
 31
0.0
  0
LINE
  5
4EC
100
AcDbEntity
  8
LAY-1
  6
CONTINUOUS
 62
     1
100
AcDbLine
 10
-333.5
 20
250.637953
 30
0.0
 11
-333.5
 21
231.637953
 31
0.0
  0
ARC
  5
4ED
100
AcDbEntity
  8
LAY-1
  6
CONTINUOUS
 62
     1
100
AcDbCircle
 10
-328.643937
 20
232.910712
 30
0.0
 40
4.856063
100
AcDbArc
 50
145.615753
 51
214.384247
  0
LINE
  5
4EE
100
AcDbEntity
  8
LAY-1
  6
CONTINUOUS
 62
     1
100
AcDbLine
 10
-325.5
 20
235.653126
 30
0.0
 11
-332.651494
 21
235.653126
 31
0.0
  0
LINE
  5
4EF
100
AcDbEntity
  8
LAY-1
  6
CONTINUOUS
 62
     1
100
AcDbLine
 10
-333.5
 20
231.637953
 30
0.0
 11
-332.651494
 21
230.168298
 31
0.0
  0
LINE
  5
4F0
100
AcDbEntity
  8
LAY-1
  6
CONTINUOUS
 62
     1
100
AcDbLine
 10
-332.651494
 20
230.168298
 30
0.0
 11
-325.5
 21
230.168298
 31
0.0
  0
ARC
  5
4F1
100
AcDbEntity
  8
LAY-1
  6
CONTINUOUS
 62
     1
100
AcDbCircle
 10
-315.348506
 20
241.137953
 30
0.0
 40
18.151494
100
AcDbArc
 50
162.412046
 51
197.587954
  0
ARC
  5
4F2
100
AcDbEntity
  8
LAY-1
  6
CONTINUOUS
 62
     1
100
AcDbCircle
 10
-328.643937
 20
249.365195
 30
0.0
 40
4.856063
100
AcDbArc
 50
145.615753
 51
214.384247
  0
LINE
  5
4F3
100
AcDbEntity
  8
LAY-1
  6
CONTINUOUS
 62
     1
100
AcDbLine
 10
-332.651494
 20
246.622781
 30
0.0
 11
-325.5
 21
246.622781
 31
0.0
  0
LINE
  5
4F4
100
AcDbEntity
  8
LAY-1
  6
CONTINUOUS
 62
     1
100
AcDbLine
 10
-332.651494
 20
252.107608
 30
0.0
 11
-333.5
 21
250.637953
 31
0.0
  0
LINE
  5
4F5
100
AcDbEntity
  8
LAY-1
  6
CONTINUOUS
 62
     1
100
AcDbLine
 10
-325.5
 20
252.107608
 30
0.0
 11
-332.651494
 21
252.107608
 31
0.0
  0
LINE
  5
4F6
100
AcDbEntity
  8
LAY-1
  6
CONTINUOUS
 62
     1
100
AcDbLine
 10
-293.517801
 20
44.362046
 30
0.0
 11
-293.517801
 21
68.362047
 31
0.0
  0
LINE
  5
4F7
100
AcDbEntity
  8
LAY-1
  6
CONTINUOUS
 62
     1
100
AcDbLine
 10
-292.291522
 20
44.362046
 30
0.0
 11
-293.517801
 21
44.362046
 31
0.0
  0
LINE
  5
4F8
100
AcDbEntity
  8
LAY-1
  6
CONTINUOUS
 62
     1
100
AcDbLine
 10
-292.291522
 20
56.362046
 30
0.0
 11
-292.291522
 21
44.362046
 31
0.0
  0
LINE
  5
4F9
100
AcDbEntity
  8
LAY-1
  6
CONTINUOUS
 62
     1
100
AcDbLine
 10
-292.291522
 20
44.362046
 30
0.0
 11
-290.817801
 21
49.862046
 31
0.0
  0
LINE
  5
4FA
100
AcDbEntity
  8
LAY-1
  6
CONTINUOUS
 62
     1
100
AcDbLine
 10
-290.817801
 20
45.392391
 30
0.0
 11
-290.817801
 21
56.362046
 31
0.0
  0
LINE
  5
4FB
100
AcDbEntity
  8
LAY-1
  6
CONTINUOUS
 62
     1
100
AcDbLine
 10
-281.666307
 20
45.392391
 30
0.0
 11
-290.817801
 21
45.392391
 31
0.0
  0
LINE
  5
4FC
100
AcDbEntity
  8
LAY-1
  6
CONTINUOUS
 62
     1
100
AcDbLine
 10
-280.817801
 20
46.862046
 30
0.0
 11
-281.666307
 21
45.392391
 31
0.0
  0
LINE
  5
4FD
100
AcDbEntity
  8
LAY-1
  6
CONTINUOUS
 62
     1
100
AcDbLine
 10
-281.666307
 20
50.877219
 30
0.0
 11
-290.817801
 21
50.877219
 31
0.0
  0
ARC
  5
4FE
100
AcDbEntity
  8
LAY-1
  6
CONTINUOUS
 62
     1
100
AcDbCircle
 10
-285.673865
 20
48.134805
 30
0.0
 40
4.856063
100
AcDbArc
 50
325.615753
 51
34.384247
  0
LINE
  5
4FF
100
AcDbEntity
  8
LAY-1
  6
CONTINUOUS
 62
     1
100
AcDbLine
 10
-280.817801
 20
56.362046
 30
0.0
 11
-280.817801
 21
46.862046
 31
0.0
  0
ARC
  5
500
100
AcDbEntity
  8
LAY-1
  6
CONTINUOUS
 62
     1
100
AcDbCircle
 10
-298.969296
 20
56.362046
 30
0.0
 40
18.151494
100
AcDbArc
 50
342.412046
 51
0.0
  0
ARC
  5
501
100
AcDbEntity
  8
LAY-1
  6
CONTINUOUS
 62
     1
100
AcDbCircle
 10
-298.969296
 20
56.362047
 30
0.0
 40
18.151494
100
AcDbArc
 50
0.0
 51
17.587954
  0
LINE
  5
502
100
AcDbEntity
  8
LAY-1
  6
CONTINUOUS
 62
     1
100
AcDbLine
 10
-280.817801
 20
65.862047
 30
0.0
 11
-281.666307
 21
67.331702
 31
0.0
  0
LINE
  5
503
100
AcDbEntity
  8
LAY-1
  6
CONTINUOUS
 62
     1
100
AcDbLine
 10
-280.817801
 20
56.362047
 30
0.0
 11
-280.817801
 21
65.862047
 31
0.0
  0
ARC
  5
504
100
AcDbEntity
  8
LAY-1
  6
CONTINUOUS
 62
     1
100
AcDbCircle
 10
-285.673865
 20
64.589288
 30
0.0
 40
4.856063
100
AcDbArc
 50
325.615753
 51
34.384247
  0
LINE
  5
505
100
AcDbEntity
  8
LAY-1
  6
CONTINUOUS
 62
     1
100
AcDbLine
 10
-281.666307
 20
67.331702
 30
0.0
 11
-290.817801
 21
67.331702
 31
0.0
  0
LINE
  5
506
100
AcDbEntity
  8
LAY-1
  6
CONTINUOUS
 62
     1
100
AcDbLine
 10
-290.817801
 20
67.331702
 30
0.0
 11
-290.817801
 21
56.362047
 31
0.0
  0
LINE
  5
507
100
AcDbEntity
  8
LAY-1
  6
CONTINUOUS
 62
     1
100
AcDbLine
 10
-292.291522
 20
68.362047
 30
0.0
 11
-290.817801
 21
62.862047
 31
0.0
  0
LINE
  5
508
100
AcDbEntity
  8
LAY-1
  6
CONTINUOUS
 62
     1
100
AcDbLine
 10
-292.291522
 20
68.362047
 30
0.0
 11
-293.517801
 21
68.362047
 31
0.0
  0
LINE
  5
509
100
AcDbEntity
  8
LAY-1
  6
CONTINUOUS
 62
     1
100
AcDbLine
 10
-292.291522
 20
56.362047
 30
0.0
 11
-292.291522
 21
68.362047
 31
0.0
  0
LINE
  5
50A
100
AcDbEntity
  8
LAY-1
  6
CONTINUOUS
 62
     1
100
AcDbLine
 10
-276.017801
 20
62.362047
 30
0.0
 11
-275.517801
 21
61.862047
 31
0.0
  0
LINE
  5
50B
100
AcDbEntity
  8
LAY-1
  6
CONTINUOUS
 62
     1
100
AcDbLine
 10
-276.017801
 20
50.362047
 30
0.0
 11
-275.517801
 21
50.862047
 31
0.0
  0
LINE
  5
50C
100
AcDbEntity
  8
LAY-1
  6
CONTINUOUS
 62
     1
100
AcDbLine
 10
-275.517801
 20
50.862047
 30
0.0
 11
-275.517801
 21
61.862047
 31
0.0
  0
LINE
  5
50D
100
AcDbEntity
  8
LAY-1
  6
CONTINUOUS
 62
     1
100
AcDbLine
 10
-276.017801
 20
62.362047
 30
0.0
 11
-280.817801
 21
62.362047
 31
0.0
  0
LINE
  5
50E
100
AcDbEntity
  8
LAY-1
  6
CONTINUOUS
 62
     1
100
AcDbLine
 10
-276.017801
 20
50.362047
 30
0.0
 11
-280.817801
 21
50.362047
 31
0.0
  0
LINE
  5
50F
100
AcDbEntity
  8
LAY-1
  6
CONTINUOUS
 62
     1
100
AcDbLine
 10
-281.666307
 20
61.846875
 30
0.0
 11
-290.817801
 21
61.846875
 31
0.0
  0
LINE
  5
510
100
AcDbEntity
  8
LAY-1
  6
CONTINUOUS
 62
     1
100
AcDbLine
 10
-333.5
 20
65.862047
 30
0.0
 11
-333.5
 21
46.862047
 31
0.0
  0
ARC
  5
511
100
AcDbEntity
  8
LAY-1
  6
CONTINUOUS
 62
     1
100
AcDbCircle
 10
-328.643937
 20
48.134805
 30
0.0
 40
4.856063
100
AcDbArc
 50
145.615753
 51
214.384247
  0
LINE
  5
512
100
AcDbEntity
  8
LAY-1
  6
CONTINUOUS
 62
     1
100
AcDbLine
 10
-325.5
 20
50.877219
 30
0.0
 11
-332.651494
 21
50.877219
 31
0.0
  0
LINE
  5
513
100
AcDbEntity
  8
LAY-1
  6
CONTINUOUS
 62
     1
100
AcDbLine
 10
-333.5
 20
46.862047
 30
0.0
 11
-332.651494
 21
45.392392
 31
0.0
  0
LINE
  5
514
100
AcDbEntity
  8
LAY-1
  6
CONTINUOUS
 62
     1
100
AcDbLine
 10
-332.651494
 20
45.392392
 30
0.0
 11
-325.5
 21
45.392392
 31
0.0
  0
ARC
  5
515
100
AcDbEntity
  8
LAY-1
  6
CONTINUOUS
 62
     1
100
AcDbCircle
 10
-315.348506
 20
56.362047
 30
0.0
 40
18.151494
100
AcDbArc
 50
162.412046
 51
197.587954
  0
ARC
  5
516
100
AcDbEntity
  8
LAY-1
  6
CONTINUOUS
 62
     1
100
AcDbCircle
 10
-328.643937
 20
64.589288
 30
0.0
 40
4.856063
100
AcDbArc
 50
145.615753
 51
214.384247
  0
LINE
  5
517
100
AcDbEntity
  8
LAY-1
  6
CONTINUOUS
 62
     1
100
AcDbLine
 10
-332.651494
 20
61.846874
 30
0.0
 11
-325.5
 21
61.846874
 31
0.0
  0
LINE
  5
518
100
AcDbEntity
  8
LAY-1
  6
CONTINUOUS
 62
     1
100
AcDbLine
 10
-332.651494
 20
67.331702
 30
0.0
 11
-333.5
 21
65.862047
 31
0.0
  0
LINE
  5
519
100
AcDbEntity
  8
LAY-1
  6
CONTINUOUS
 62
     1
100
AcDbLine
 10
-325.5
 20
67.331702
 30
0.0
 11
-332.651494
 21
67.331702
 31
0.0
  0
LINE
  5
51A
100
AcDbEntity
  8
LAY-1
  6
CONTINUOUS
 62
     1
100
AcDbLine
 10
707.291522
 20
98.481656
 30
0.0
 11
708.517801
 21
98.481656
 31
0.0
  0
LINE
  5
51B
100
AcDbEntity
  8
LAY-1
  6
CONTINUOUS
 62
     1
100
AcDbLine
 10
707.291522
 20
110.481656
 30
0.0
 11
707.291522
 21
98.481656
 31
0.0
  0
LINE
  5
51C
100
AcDbEntity
  8
LAY-1
  6
CONTINUOUS
 62
     1
100
AcDbLine
 10
707.291522
 20
98.481656
 30
0.0
 11
705.817801
 21
103.981656
 31
0.0
  0
LINE
  5
51D
100
AcDbEntity
  8
LAY-1
  6
CONTINUOUS
 62
     1
100
AcDbLine
 10
705.817801
 20
99.512001
 30
0.0
 11
705.817801
 21
110.481656
 31
0.0
  0
LINE
  5
51E
100
AcDbEntity
  8
LAY-1
  6
CONTINUOUS
 62
     1
100
AcDbLine
 10
696.666307
 20
99.512001
 30
0.0
 11
705.817801
 21
99.512001
 31
0.0
  0
LINE
  5
51F
100
AcDbEntity
  8
LAY-1
  6
CONTINUOUS
 62
     1
100
AcDbLine
 10
695.817801
 20
100.981656
 30
0.0
 11
696.666307
 21
99.512001
 31
0.0
  0
LINE
  5
520
100
AcDbEntity
  8
LAY-1
  6
CONTINUOUS
 62
     1
100
AcDbLine
 10
696.666307
 20
104.996829
 30
0.0
 11
705.817801
 21
104.996829
 31
0.0
  0
ARC
  5
521
100
AcDbEntity
  8
LAY-1
  6
CONTINUOUS
 62
     1
100
AcDbCircle
 10
700.673865
 20
102.254415
 30
0.0
 40
4.856063
100
AcDbArc
 50
145.615753
 51
214.384247
  0
LINE
  5
522
100
AcDbEntity
  8
LAY-1
  6
CONTINUOUS
 62
     1
100
AcDbLine
 10
695.817801
 20
110.481656
 30
0.0
 11
695.817801
 21
100.981656
 31
0.0
  0
ARC
  5
523
100
AcDbEntity
  8
LAY-1
  6
CONTINUOUS
 62
     1
100
AcDbCircle
 10
713.969296
 20
110.481656
 30
0.0
 40
18.151494
100
AcDbArc
 50
180.0
 51
197.587954
  0
ARC
  5
524
100
AcDbEntity
  8
LAY-1
  6
CONTINUOUS
 62
     1
100
AcDbCircle
 10
713.969296
 20
110.481657
 30
0.0
 40
18.151494
100
AcDbArc
 50
162.412046
 51
180.0
  0
LINE
  5
525
100
AcDbEntity
  8
LAY-1
  6
CONTINUOUS
 62
     1
100
AcDbLine
 10
695.817801
 20
119.981657
 30
0.0
 11
696.666307
 21
121.451312
 31
0.0
  0
LINE
  5
526
100
AcDbEntity
  8
LAY-1
  6
CONTINUOUS
 62
     1
100
AcDbLine
 10
695.817801
 20
110.481657
 30
0.0
 11
695.817801
 21
119.981657
 31
0.0
  0
ARC
  5
527
100
AcDbEntity
  8
LAY-1
  6
CONTINUOUS
 62
     1
100
AcDbCircle
 10
700.673865
 20
118.708898
 30
0.0
 40
4.856063
100
AcDbArc
 50
145.615753
 51
214.384247
  0
LINE
  5
528
100
AcDbEntity
  8
LAY-1
  6
CONTINUOUS
 62
     1
100
AcDbLine
 10
696.666307
 20
121.451312
 30
0.0
 11
705.817801
 21
121.451312
 31
0.0
  0
LINE
  5
529
100
AcDbEntity
  8
LAY-1
  6
CONTINUOUS
 62
     1
100
AcDbLine
 10
705.817801
 20
121.451312
 30
0.0
 11
705.817801
 21
110.481657
 31
0.0
  0
LINE
  5
52A
100
AcDbEntity
  8
LAY-1
  6
CONTINUOUS
 62
     1
100
AcDbLine
 10
707.291522
 20
122.481657
 30
0.0
 11
705.817801
 21
116.981657
 31
0.0
  0
LINE
  5
52B
100
AcDbEntity
  8
LAY-1
  6
CONTINUOUS
 62
     1
100
AcDbLine
 10
707.291522
 20
122.481657
 30
0.0
 11
708.517801
 21
122.481657
 31
0.0
  0
LINE
  5
52C
100
AcDbEntity
  8
LAY-1
  6
CONTINUOUS
 62
     1
100
AcDbLine
 10
707.291522
 20
110.481657
 30
0.0
 11
707.291522
 21
122.481657
 31
0.0
  0
LINE
  5
52D
100
AcDbEntity
  8
LAY-1
  6
CONTINUOUS
 62
     1
100
AcDbLine
 10
691.017801
 20
116.481657
 30
0.0
 11
690.517801
 21
115.981657
 31
0.0
  0
LINE
  5
52E
100
AcDbEntity
  8
LAY-1
  6
CONTINUOUS
 62
     1
100
AcDbLine
 10
691.017801
 20
104.481657
 30
0.0
 11
690.517801
 21
104.981657
 31
0.0
  0
LINE
  5
52F
100
AcDbEntity
  8
LAY-1
  6
CONTINUOUS
 62
     1
100
AcDbLine
 10
690.517801
 20
104.981657
 30
0.0
 11
690.517801
 21
115.981657
 31
0.0
  0
LINE
  5
530
100
AcDbEntity
  8
LAY-1
  6
CONTINUOUS
 62
     1
100
AcDbLine
 10
691.017801
 20
116.481657
 30
0.0
 11
695.817801
 21
116.481657
 31
0.0
  0
LINE
  5
531
100
AcDbEntity
  8
LAY-1
  6
CONTINUOUS
 62
     1
100
AcDbLine
 10
691.017801
 20
104.481657
 30
0.0
 11
695.817801
 21
104.481657
 31
0.0
  0
LINE
  5
532
100
AcDbEntity
  8
LAY-1
  6
CONTINUOUS
 62
     1
100
AcDbLine
 10
696.666307
 20
115.966485
 30
0.0
 11
705.817801
 21
115.966485
 31
0.0
  0
LINE
  5
533
100
AcDbEntity
  8
LAY-1
  6
CONTINUOUS
 62
     1
100
AcDbLine
 10
748.5
 20
119.981657
 30
0.0
 11
748.5
 21
100.981657
 31
0.0
  0
ARC
  5
534
100
AcDbEntity
  8
LAY-1
  6
CONTINUOUS
 62
     1
100
AcDbCircle
 10
743.643937
 20
102.254415
 30
0.0
 40
4.856063
100
AcDbArc
 50
325.615753
 51
34.384247
  0
LINE
  5
535
100
AcDbEntity
  8
LAY-1
  6
CONTINUOUS
 62
     1
100
AcDbLine
 10
740.5
 20
104.996829
 30
0.0
 11
747.651494
 21
104.996829
 31
0.0
  0
LINE
  5
536
100
AcDbEntity
  8
LAY-1
  6
CONTINUOUS
 62
     1
100
AcDbLine
 10
748.5
 20
100.981657
 30
0.0
 11
747.651494
 21
99.512002
 31
0.0
  0
LINE
  5
537
100
AcDbEntity
  8
LAY-1
  6
CONTINUOUS
 62
     1
100
AcDbLine
 10
747.651494
 20
99.512002
 30
0.0
 11
740.5
 21
99.512002
 31
0.0
  0
ARC
  5
538
100
AcDbEntity
  8
LAY-1
  6
CONTINUOUS
 62
     1
100
AcDbCircle
 10
730.348506
 20
110.481657
 30
0.0
 40
18.151494
100
AcDbArc
 50
342.412046
 51
17.587954
  0
ARC
  5
539
100
AcDbEntity
  8
LAY-1
  6
CONTINUOUS
 62
     1
100
AcDbCircle
 10
743.643937
 20
118.708898
 30
0.0
 40
4.856063
100
AcDbArc
 50
325.615753
 51
34.384247
  0
LINE
  5
53A
100
AcDbEntity
  8
LAY-1
  6
CONTINUOUS
 62
     1
100
AcDbLine
 10
747.651494
 20
115.966484
 30
0.0
 11
740.5
 21
115.966484
 31
0.0
  0
LINE
  5
53B
100
AcDbEntity
  8
LAY-1
  6
CONTINUOUS
 62
     1
100
AcDbLine
 10
747.651494
 20
121.451312
 30
0.0
 11
748.5
 21
119.981657
 31
0.0
  0
LINE
  5
53C
100
AcDbEntity
  8
LAY-1
  6
CONTINUOUS
 62
     1
100
AcDbLine
 10
740.5
 20
121.451312
 30
0.0
 11
747.651494
 21
121.451312
 31
0.0
  0
LINE
  5
53D
100
AcDbEntity
  8
LAY-1
  6
CONTINUOUS
 62
     1
100
AcDbLine
 10
707.291522
 20
175.018343
 30
0.0
 11
708.517801
 21
175.018343
 31
0.0
  0
LINE
  5
53E
100
AcDbEntity
  8
LAY-1
  6
CONTINUOUS
 62
     1
100
AcDbLine
 10
707.291522
 20
187.018343
 30
0.0
 11
707.291522
 21
175.018343
 31
0.0
  0
LINE
  5
53F
100
AcDbEntity
  8
LAY-1
  6
CONTINUOUS
 62
     1
100
AcDbLine
 10
707.291522
 20
175.018343
 30
0.0
 11
705.817801
 21
180.518343
 31
0.0
  0
LINE
  5
540
100
AcDbEntity
  8
LAY-1
  6
CONTINUOUS
 62
     1
100
AcDbLine
 10
705.817801
 20
176.048688
 30
0.0
 11
705.817801
 21
187.018343
 31
0.0
  0
LINE
  5
541
100
AcDbEntity
  8
LAY-1
  6
CONTINUOUS
 62
     1
100
AcDbLine
 10
696.666307
 20
176.048688
 30
0.0
 11
705.817801
 21
176.048688
 31
0.0
  0
LINE
  5
542
100
AcDbEntity
  8
LAY-1
  6
CONTINUOUS
 62
     1
100
AcDbLine
 10
695.817801
 20
177.518343
 30
0.0
 11
696.666307
 21
176.048688
 31
0.0
  0
LINE
  5
543
100
AcDbEntity
  8
LAY-1
  6
CONTINUOUS
 62
     1
100
AcDbLine
 10
696.666307
 20
181.533515
 30
0.0
 11
705.817801
 21
181.533515
 31
0.0
  0
ARC
  5
544
100
AcDbEntity
  8
LAY-1
  6
CONTINUOUS
 62
     1
100
AcDbCircle
 10
700.673865
 20
178.791102
 30
0.0
 40
4.856063
100
AcDbArc
 50
145.615753
 51
214.384247
  0
LINE
  5
545
100
AcDbEntity
  8
LAY-1
  6
CONTINUOUS
 62
     1
100
AcDbLine
 10
695.817801
 20
187.018343
 30
0.0
 11
695.817801
 21
177.518343
 31
0.0
  0
ARC
  5
546
100
AcDbEntity
  8
LAY-1
  6
CONTINUOUS
 62
     1
100
AcDbCircle
 10
713.969296
 20
187.018343
 30
0.0
 40
18.151494
100
AcDbArc
 50
180.0
 51
197.587954
  0
ARC
  5
547
100
AcDbEntity
  8
LAY-1
  6
CONTINUOUS
 62
     1
100
AcDbCircle
 10
713.969296
 20
187.018344
 30
0.0
 40
18.151494
100
AcDbArc
 50
162.412046
 51
180.0
  0
LINE
  5
548
100
AcDbEntity
  8
LAY-1
  6
CONTINUOUS
 62
     1
100
AcDbLine
 10
695.817801
 20
196.518344
 30
0.0
 11
696.666307
 21
197.987999
 31
0.0
  0
LINE
  5
549
100
AcDbEntity
  8
LAY-1
  6
CONTINUOUS
 62
     1
100
AcDbLine
 10
695.817801
 20
187.018344
 30
0.0
 11
695.817801
 21
196.518344
 31
0.0
  0
ARC
  5
54A
100
AcDbEntity
  8
LAY-1
  6
CONTINUOUS
 62
     1
100
AcDbCircle
 10
700.673865
 20
195.245585
 30
0.0
 40
4.856063
100
AcDbArc
 50
145.615753
 51
214.384247
  0
LINE
  5
54B
100
AcDbEntity
  8
LAY-1
  6
CONTINUOUS
 62
     1
100
AcDbLine
 10
696.666307
 20
197.987999
 30
0.0
 11
705.817801
 21
197.987999
 31
0.0
  0
LINE
  5
54C
100
AcDbEntity
  8
LAY-1
  6
CONTINUOUS
 62
     1
100
AcDbLine
 10
705.817801
 20
197.987999
 30
0.0
 11
705.817801
 21
187.018344
 31
0.0
  0
LINE
  5
54D
100
AcDbEntity
  8
LAY-1
  6
CONTINUOUS
 62
     1
100
AcDbLine
 10
707.291522
 20
199.018344
 30
0.0
 11
705.817801
 21
193.518344
 31
0.0
  0
LINE
  5
54E
100
AcDbEntity
  8
LAY-1
  6
CONTINUOUS
 62
     1
100
AcDbLine
 10
707.291522
 20
199.018344
 30
0.0
 11
708.517801
 21
199.018344
 31
0.0
  0
LINE
  5
54F
100
AcDbEntity
  8
LAY-1
  6
CONTINUOUS
 62
     1
100
AcDbLine
 10
707.291522
 20
187.018344
 30
0.0
 11
707.291522
 21
199.018344
 31
0.0
  0
LINE
  5
550
100
AcDbEntity
  8
LAY-1
  6
CONTINUOUS
 62
     1
100
AcDbLine
 10
691.017801
 20
193.018343
 30
0.0
 11
690.517801
 21
192.518343
 31
0.0
  0
LINE
  5
551
100
AcDbEntity
  8
LAY-1
  6
CONTINUOUS
 62
     1
100
AcDbLine
 10
691.017801
 20
181.018343
 30
0.0
 11
690.517801
 21
181.518343
 31
0.0
  0
LINE
  5
552
100
AcDbEntity
  8
LAY-1
  6
CONTINUOUS
 62
     1
100
AcDbLine
 10
690.517801
 20
181.518343
 30
0.0
 11
690.517801
 21
192.518343
 31
0.0
  0
LINE
  5
553
100
AcDbEntity
  8
LAY-1
  6
CONTINUOUS
 62
     1
100
AcDbLine
 10
691.017801
 20
193.018343
 30
0.0
 11
695.817801
 21
193.018343
 31
0.0
  0
LINE
  5
554
100
AcDbEntity
  8
LAY-1
  6
CONTINUOUS
 62
     1
100
AcDbLine
 10
691.017801
 20
181.018343
 30
0.0
 11
695.817801
 21
181.018343
 31
0.0
  0
LINE
  5
555
100
AcDbEntity
  8
LAY-1
  6
CONTINUOUS
 62
     1
100
AcDbLine
 10
696.666307
 20
192.503171
 30
0.0
 11
705.817801
 21
192.503171
 31
0.0
  0
LINE
  5
556
100
AcDbEntity
  8
LAY-1
  6
CONTINUOUS
 62
     1
100
AcDbLine
 10
748.5
 20
196.518343
 30
0.0
 11
748.5
 21
177.518343
 31
0.0
  0
ARC
  5
557
100
AcDbEntity
  8
LAY-1
  6
CONTINUOUS
 62
     1
100
AcDbCircle
 10
743.643937
 20
178.791102
 30
0.0
 40
4.856063
100
AcDbArc
 50
325.615753
 51
34.384247
  0
LINE
  5
558
100
AcDbEntity
  8
LAY-1
  6
CONTINUOUS
 62
     1
100
AcDbLine
 10
740.5
 20
181.533516
 30
0.0
 11
747.651494
 21
181.533516
 31
0.0
  0
LINE
  5
559
100
AcDbEntity
  8
LAY-1
  6
CONTINUOUS
 62
     1
100
AcDbLine
 10
748.5
 20
177.518343
 30
0.0
 11
747.651494
 21
176.048688
 31
0.0
  0
LINE
  5
55A
100
AcDbEntity
  8
LAY-1
  6
CONTINUOUS
 62
     1
100
AcDbLine
 10
747.651494
 20
176.048688
 30
0.0
 11
740.5
 21
176.048688
 31
0.0
  0
ARC
  5
55B
100
AcDbEntity
  8
LAY-1
  6
CONTINUOUS
 62
     1
100
AcDbCircle
 10
730.348506
 20
187.018343
 30
0.0
 40
18.151494
100
AcDbArc
 50
342.412046
 51
17.587954
  0
ARC
  5
55C
100
AcDbEntity
  8
LAY-1
  6
CONTINUOUS
 62
     1
100
AcDbCircle
 10
743.643937
 20
195.245585
 30
0.0
 40
4.856063
100
AcDbArc
 50
325.615753
 51
34.384247
  0
LINE
  5
55D
100
AcDbEntity
  8
LAY-1
  6
CONTINUOUS
 62
     1
100
AcDbLine
 10
747.651494
 20
192.503171
 30
0.0
 11
740.5
 21
192.503171
 31
0.0
  0
LINE
  5
55E
100
AcDbEntity
  8
LAY-1
  6
CONTINUOUS
 62
     1
100
AcDbLine
 10
747.651494
 20
197.987998
 30
0.0
 11
748.5
 21
196.518343
 31
0.0
  0
LINE
  5
55F
100
AcDbEntity
  8
LAY-1
  6
CONTINUOUS
 62
     1
100
AcDbLine
 10
740.5
 20
197.987998
 30
0.0
 11
747.651494
 21
197.987998
 31
0.0
  0
LINE
  5
560
100
AcDbEntity
  8
LAY-1
  6
CONTINUOUS
 62
     1
100
AcDbLine
 10
707.291522
 20
229.137953
 30
0.0
 11
708.517801
 21
229.137953
 31
0.0
  0
LINE
  5
561
100
AcDbEntity
  8
LAY-1
  6
CONTINUOUS
 62
     1
100
AcDbLine
 10
707.291522
 20
241.137953
 30
0.0
 11
707.291522
 21
229.137953
 31
0.0
  0
LINE
  5
562
100
AcDbEntity
  8
LAY-1
  6
CONTINUOUS
 62
     1
100
AcDbLine
 10
707.291522
 20
229.137953
 30
0.0
 11
705.817801
 21
234.637953
 31
0.0
  0
LINE
  5
563
100
AcDbEntity
  8
LAY-1
  6
CONTINUOUS
 62
     1
100
AcDbLine
 10
705.817801
 20
230.168298
 30
0.0
 11
705.817801
 21
241.137953
 31
0.0
  0
LINE
  5
564
100
AcDbEntity
  8
LAY-1
  6
CONTINUOUS
 62
     1
100
AcDbLine
 10
696.666307
 20
230.168298
 30
0.0
 11
705.817801
 21
230.168298
 31
0.0
  0
LINE
  5
565
100
AcDbEntity
  8
LAY-1
  6
CONTINUOUS
 62
     1
100
AcDbLine
 10
695.817801
 20
231.637953
 30
0.0
 11
696.666307
 21
230.168298
 31
0.0
  0
LINE
  5
566
100
AcDbEntity
  8
LAY-1
  6
CONTINUOUS
 62
     1
100
AcDbLine
 10
696.666307
 20
235.653125
 30
0.0
 11
705.817801
 21
235.653125
 31
0.0
  0
ARC
  5
567
100
AcDbEntity
  8
LAY-1
  6
CONTINUOUS
 62
     1
100
AcDbCircle
 10
700.673865
 20
232.910712
 30
0.0
 40
4.856063
100
AcDbArc
 50
145.615753
 51
214.384247
  0
LINE
  5
568
100
AcDbEntity
  8
LAY-1
  6
CONTINUOUS
 62
     1
100
AcDbLine
 10
695.817801
 20
241.137953
 30
0.0
 11
695.817801
 21
231.637953
 31
0.0
  0
ARC
  5
569
100
AcDbEntity
  8
LAY-1
  6
CONTINUOUS
 62
     1
100
AcDbCircle
 10
713.969296
 20
241.137953
 30
0.0
 40
18.151494
100
AcDbArc
 50
180.0
 51
197.587954
  0
ARC
  5
56A
100
AcDbEntity
  8
LAY-1
  6
CONTINUOUS
 62
     1
100
AcDbCircle
 10
713.969296
 20
241.137954
 30
0.0
 40
18.151494
100
AcDbArc
 50
162.412046
 51
180.0
  0
LINE
  5
56B
100
AcDbEntity
  8
LAY-1
  6
CONTINUOUS
 62
     1
100
AcDbLine
 10
695.817801
 20
250.637954
 30
0.0
 11
696.666307
 21
252.107609
 31
0.0
  0
LINE
  5
56C
100
AcDbEntity
  8
LAY-1
  6
CONTINUOUS
 62
     1
100
AcDbLine
 10
695.817801
 20
241.137954
 30
0.0
 11
695.817801
 21
250.637954
 31
0.0
  0
ARC
  5
56D
100
AcDbEntity
  8
LAY-1
  6
CONTINUOUS
 62
     1
100
AcDbCircle
 10
700.673865
 20
249.365195
 30
0.0
 40
4.856063
100
AcDbArc
 50
145.615753
 51
214.384247
  0
LINE
  5
56E
100
AcDbEntity
  8
LAY-1
  6
CONTINUOUS
 62
     1
100
AcDbLine
 10
696.666307
 20
252.107609
 30
0.0
 11
705.817801
 21
252.107609
 31
0.0
  0
LINE
  5
56F
100
AcDbEntity
  8
LAY-1
  6
CONTINUOUS
 62
     1
100
AcDbLine
 10
705.817801
 20
252.107609
 30
0.0
 11
705.817801
 21
241.137954
 31
0.0
  0
LINE
  5
570
100
AcDbEntity
  8
LAY-1
  6
CONTINUOUS
 62
     1
100
AcDbLine
 10
707.291522
 20
253.137954
 30
0.0
 11
705.817801
 21
247.637954
 31
0.0
  0
LINE
  5
571
100
AcDbEntity
  8
LAY-1
  6
CONTINUOUS
 62
     1
100
AcDbLine
 10
707.291522
 20
253.137954
 30
0.0
 11
708.517801
 21
253.137954
 31
0.0
  0
LINE
  5
572
100
AcDbEntity
  8
LAY-1
  6
CONTINUOUS
 62
     1
100
AcDbLine
 10
707.291522
 20
241.137954
 30
0.0
 11
707.291522
 21
253.137954
 31
0.0
  0
LINE
  5
573
100
AcDbEntity
  8
LAY-1
  6
CONTINUOUS
 62
     1
100
AcDbLine
 10
691.017801
 20
247.137953
 30
0.0
 11
690.517801
 21
246.637953
 31
0.0
  0
LINE
  5
574
100
AcDbEntity
  8
LAY-1
  6
CONTINUOUS
 62
     1
100
AcDbLine
 10
691.017801
 20
235.137953
 30
0.0
 11
690.517801
 21
235.637953
 31
0.0
  0
LINE
  5
575
100
AcDbEntity
  8
LAY-1
  6
CONTINUOUS
 62
     1
100
AcDbLine
 10
690.517801
 20
235.637953
 30
0.0
 11
690.517801
 21
246.637953
 31
0.0
  0
LINE
  5
576
100
AcDbEntity
  8
LAY-1
  6
CONTINUOUS
 62
     1
100
AcDbLine
 10
691.017801
 20
247.137953
 30
0.0
 11
695.817801
 21
247.137953
 31
0.0
  0
LINE
  5
577
100
AcDbEntity
  8
LAY-1
  6
CONTINUOUS
 62
     1
100
AcDbLine
 10
691.017801
 20
235.137953
 30
0.0
 11
695.817801
 21
235.137953
 31
0.0
  0
LINE
  5
578
100
AcDbEntity
  8
LAY-1
  6
CONTINUOUS
 62
     1
100
AcDbLine
 10
696.666307
 20
246.622781
 30
0.0
 11
705.817801
 21
246.622781
 31
0.0
  0
LINE
  5
579
100
AcDbEntity
  8
LAY-1
  6
CONTINUOUS
 62
     1
100
AcDbLine
 10
748.5
 20
250.637953
 30
0.0
 11
748.5
 21
231.637953
 31
0.0
  0
ARC
  5
57A
100
AcDbEntity
  8
LAY-1
  6
CONTINUOUS
 62
     1
100
AcDbCircle
 10
743.643937
 20
232.910712
 30
0.0
 40
4.856063
100
AcDbArc
 50
325.615753
 51
34.384247
  0
LINE
  5
57B
100
AcDbEntity
  8
LAY-1
  6
CONTINUOUS
 62
     1
100
AcDbLine
 10
740.5
 20
235.653126
 30
0.0
 11
747.651494
 21
235.653126
 31
0.0
  0
LINE
  5
57C
100
AcDbEntity
  8
LAY-1
  6
CONTINUOUS
 62
     1
100
AcDbLine
 10
748.5
 20
231.637953
 30
0.0
 11
747.651494
 21
230.168298
 31
0.0
  0
LINE
  5
57D
100
AcDbEntity
  8
LAY-1
  6
CONTINUOUS
 62
     1
100
AcDbLine
 10
747.651494
 20
230.168298
 30
0.0
 11
740.5
 21
230.168298
 31
0.0
  0
ARC
  5
57E
100
AcDbEntity
  8
LAY-1
  6
CONTINUOUS
 62
     1
100
AcDbCircle
 10
730.348506
 20
241.137953
 30
0.0
 40
18.151494
100
AcDbArc
 50
342.412046
 51
17.587954
  0
ARC
  5
57F
100
AcDbEntity
  8
LAY-1
  6
CONTINUOUS
 62
     1
100
AcDbCircle
 10
743.643937
 20
249.365195
 30
0.0
 40
4.856063
100
AcDbArc
 50
325.615753
 51
34.384247
  0
LINE
  5
580
100
AcDbEntity
  8
LAY-1
  6
CONTINUOUS
 62
     1
100
AcDbLine
 10
747.651494
 20
246.622781
 30
0.0
 11
740.5
 21
246.622781
 31
0.0
  0
LINE
  5
581
100
AcDbEntity
  8
LAY-1
  6
CONTINUOUS
 62
     1
100
AcDbLine
 10
747.651494
 20
252.107608
 30
0.0
 11
748.5
 21
250.637953
 31
0.0
  0
LINE
  5
582
100
AcDbEntity
  8
LAY-1
  6
CONTINUOUS
 62
     1
100
AcDbLine
 10
740.5
 20
252.107608
 30
0.0
 11
747.651494
 21
252.107608
 31
0.0
  0
LINE
  5
583
100
AcDbEntity
  8
LAY-1
  6
CONTINUOUS
 62
     1
100
AcDbLine
 10
708.517801
 20
44.362046
 30
0.0
 11
708.517801
 21
68.362047
 31
0.0
  0
LINE
  5
584
100
AcDbEntity
  8
LAY-1
  6
CONTINUOUS
 62
     1
100
AcDbLine
 10
707.291522
 20
44.362046
 30
0.0
 11
708.517801
 21
44.362046
 31
0.0
  0
LINE
  5
585
100
AcDbEntity
  8
LAY-1
  6
CONTINUOUS
 62
     1
100
AcDbLine
 10
707.291522
 20
56.362046
 30
0.0
 11
707.291522
 21
44.362046
 31
0.0
  0
LINE
  5
586
100
AcDbEntity
  8
LAY-1
  6
CONTINUOUS
 62
     1
100
AcDbLine
 10
707.291522
 20
44.362046
 30
0.0
 11
705.817801
 21
49.862046
 31
0.0
  0
LINE
  5
587
100
AcDbEntity
  8
LAY-1
  6
CONTINUOUS
 62
     1
100
AcDbLine
 10
705.817801
 20
45.392391
 30
0.0
 11
705.817801
 21
56.362046
 31
0.0
  0
LINE
  5
588
100
AcDbEntity
  8
LAY-1
  6
CONTINUOUS
 62
     1
100
AcDbLine
 10
696.666307
 20
45.392391
 30
0.0
 11
705.817801
 21
45.392391
 31
0.0
  0
LINE
  5
589
100
AcDbEntity
  8
LAY-1
  6
CONTINUOUS
 62
     1
100
AcDbLine
 10
695.817801
 20
46.862046
 30
0.0
 11
696.666307
 21
45.392391
 31
0.0
  0
LINE
  5
58A
100
AcDbEntity
  8
LAY-1
  6
CONTINUOUS
 62
     1
100
AcDbLine
 10
696.666307
 20
50.877219
 30
0.0
 11
705.817801
 21
50.877219
 31
0.0
  0
ARC
  5
58B
100
AcDbEntity
  8
LAY-1
  6
CONTINUOUS
 62
     1
100
AcDbCircle
 10
700.673865
 20
48.134805
 30
0.0
 40
4.856063
100
AcDbArc
 50
145.615753
 51
214.384247
  0
LINE
  5
58C
100
AcDbEntity
  8
LAY-1
  6
CONTINUOUS
 62
     1
100
AcDbLine
 10
695.817801
 20
56.362046
 30
0.0
 11
695.817801
 21
46.862046
 31
0.0
  0
ARC
  5
58D
100
AcDbEntity
  8
LAY-1
  6
CONTINUOUS
 62
     1
100
AcDbCircle
 10
713.969296
 20
56.362046
 30
0.0
 40
18.151494
100
AcDbArc
 50
180.0
 51
197.587954
  0
ARC
  5
58E
100
AcDbEntity
  8
LAY-1
  6
CONTINUOUS
 62
     1
100
AcDbCircle
 10
713.969296
 20
56.362047
 30
0.0
 40
18.151494
100
AcDbArc
 50
162.412046
 51
180.0
  0
LINE
  5
58F
100
AcDbEntity
  8
LAY-1
  6
CONTINUOUS
 62
     1
100
AcDbLine
 10
695.817801
 20
65.862047
 30
0.0
 11
696.666307
 21
67.331702
 31
0.0
  0
LINE
  5
590
100
AcDbEntity
  8
LAY-1
  6
CONTINUOUS
 62
     1
100
AcDbLine
 10
695.817801
 20
56.362047
 30
0.0
 11
695.817801
 21
65.862047
 31
0.0
  0
ARC
  5
591
100
AcDbEntity
  8
LAY-1
  6
CONTINUOUS
 62
     1
100
AcDbCircle
 10
700.673865
 20
64.589288
 30
0.0
 40
4.856063
100
AcDbArc
 50
145.615753
 51
214.384247
  0
LINE
  5
592
100
AcDbEntity
  8
LAY-1
  6
CONTINUOUS
 62
     1
100
AcDbLine
 10
696.666307
 20
67.331702
 30
0.0
 11
705.817801
 21
67.331702
 31
0.0
  0
LINE
  5
593
100
AcDbEntity
  8
LAY-1
  6
CONTINUOUS
 62
     1
100
AcDbLine
 10
705.817801
 20
67.331702
 30
0.0
 11
705.817801
 21
56.362047
 31
0.0
  0
LINE
  5
594
100
AcDbEntity
  8
LAY-1
  6
CONTINUOUS
 62
     1
100
AcDbLine
 10
707.291522
 20
68.362047
 30
0.0
 11
705.817801
 21
62.862047
 31
0.0
  0
LINE
  5
595
100
AcDbEntity
  8
LAY-1
  6
CONTINUOUS
 62
     1
100
AcDbLine
 10
707.291522
 20
68.362047
 30
0.0
 11
708.517801
 21
68.362047
 31
0.0
  0
LINE
  5
596
100
AcDbEntity
  8
LAY-1
  6
CONTINUOUS
 62
     1
100
AcDbLine
 10
707.291522
 20
56.362047
 30
0.0
 11
707.291522
 21
68.362047
 31
0.0
  0
LINE
  5
597
100
AcDbEntity
  8
LAY-1
  6
CONTINUOUS
 62
     1
100
AcDbLine
 10
691.017801
 20
62.362047
 30
0.0
 11
690.517801
 21
61.862047
 31
0.0
  0
LINE
  5
598
100
AcDbEntity
  8
LAY-1
  6
CONTINUOUS
 62
     1
100
AcDbLine
 10
691.017801
 20
50.362047
 30
0.0
 11
690.517801
 21
50.862047
 31
0.0
  0
LINE
  5
599
100
AcDbEntity
  8
LAY-1
  6
CONTINUOUS
 62
     1
100
AcDbLine
 10
690.517801
 20
50.862047
 30
0.0
 11
690.517801
 21
61.862047
 31
0.0
  0
LINE
  5
59A
100
AcDbEntity
  8
LAY-1
  6
CONTINUOUS
 62
     1
100
AcDbLine
 10
691.017801
 20
62.362047
 30
0.0
 11
695.817801
 21
62.362047
 31
0.0
  0
LINE
  5
59B
100
AcDbEntity
  8
LAY-1
  6
CONTINUOUS
 62
     1
100
AcDbLine
 10
691.017801
 20
50.362047
 30
0.0
 11
695.817801
 21
50.362047
 31
0.0
  0
LINE
  5
59C
100
AcDbEntity
  8
LAY-1
  6
CONTINUOUS
 62
     1
100
AcDbLine
 10
696.666307
 20
61.846875
 30
0.0
 11
705.817801
 21
61.846875
 31
0.0
  0
LINE
  5
59D
100
AcDbEntity
  8
LAY-1
  6
CONTINUOUS
 62
     1
100
AcDbLine
 10
748.5
 20
65.862047
 30
0.0
 11
748.5
 21
46.862047
 31
0.0
  0
ARC
  5
59E
100
AcDbEntity
  8
LAY-1
  6
CONTINUOUS
 62
     1
100
AcDbCircle
 10
743.643937
 20
48.134805
 30
0.0
 40
4.856063
100
AcDbArc
 50
325.615753
 51
34.384247
  0
LINE
  5
59F
100
AcDbEntity
  8
LAY-1
  6
CONTINUOUS
 62
     1
100
AcDbLine
 10
740.5
 20
50.877219
 30
0.0
 11
747.651494
 21
50.877219
 31
0.0
  0
LINE
  5
5A0
100
AcDbEntity
  8
LAY-1
  6
CONTINUOUS
 62
     1
100
AcDbLine
 10
748.5
 20
46.862047
 30
0.0
 11
747.651494
 21
45.392392
 31
0.0
  0
LINE
  5
5A1
100
AcDbEntity
  8
LAY-1
  6
CONTINUOUS
 62
     1
100
AcDbLine
 10
747.651494
 20
45.392392
 30
0.0
 11
740.5
 21
45.392392
 31
0.0
  0
ARC
  5
5A2
100
AcDbEntity
  8
LAY-1
  6
CONTINUOUS
 62
     1
100
AcDbCircle
 10
730.348506
 20
56.362047
 30
0.0
 40
18.151494
100
AcDbArc
 50
342.412046
 51
17.587954
  0
ARC
  5
5A3
100
AcDbEntity
  8
LAY-1
  6
CONTINUOUS
 62
     1
100
AcDbCircle
 10
743.643937
 20
64.589288
 30
0.0
 40
4.856063
100
AcDbArc
 50
325.615753
 51
34.384247
  0
LINE
  5
5A4
100
AcDbEntity
  8
LAY-1
  6
CONTINUOUS
 62
     1
100
AcDbLine
 10
747.651494
 20
61.846874
 30
0.0
 11
740.5
 21
61.846874
 31
0.0
  0
LINE
  5
5A5
100
AcDbEntity
  8
LAY-1
  6
CONTINUOUS
 62
     1
100
AcDbLine
 10
747.651494
 20
67.331702
 30
0.0
 11
748.5
 21
65.862047
 31
0.0
  0
LINE
  5
5A6
100
AcDbEntity
  8
LAY-1
  6
CONTINUOUS
 62
     1
100
AcDbLine
 10
740.5
 20
67.331702
 30
0.0
 11
747.651494
 21
67.331702
 31
0.0
  0
LINE
  5
5A7
100
AcDbEntity
  8
LAY-1
  6
EXLTYPE3
 62
     1
100
AcDbLine
 10
-178.55
 20
148.75
 30
0.0
 11
-165.35
 21
148.75
 31
0.0
  0
LINE
  5
5A8
100
AcDbEntity
  8
LAY-1
  6
EXLTYPE3
 62
     1
100
AcDbLine
 10
-158.015549
 20
148.75
 30
0.0
 11
-147.715549
 21
148.75
 31
0.0
  0
LINE
  5
5A9
100
AcDbEntity
  8
LAY-1
  6
EXLTYPE2
 62
     1
100
AcDbLine
 10
-154.292422
 20
176.718009
 30
0.0
 11
-153.267027
 21
170.902704
 31
0.0
  0
LINE
  5
5AA
100
AcDbEntity
  8
LAY-1
  6
CONTINUOUS
 62
     1
100
AcDbLine
 10
157.231656
 20
657.023721
 30
0.0
 11
157.231656
 21
658.25
 31
0.0
  0
LINE
  5
5AB
100
AcDbEntity
  8
LAY-1
  6
CONTINUOUS
 62
     1
100
AcDbLine
 10
169.231656
 20
657.023721
 30
0.0
 11
157.231656
 21
657.023721
 31
0.0
  0
LINE
  5
5AC
100
AcDbEntity
  8
LAY-1
  6
CONTINUOUS
 62
     1
100
AcDbLine
 10
157.231656
 20
657.023721
 30
0.0
 11
162.731656
 21
655.55
 31
0.0
  0
LINE
  5
5AD
100
AcDbEntity
  8
LAY-1
  6
CONTINUOUS
 62
     1
100
AcDbLine
 10
158.262001
 20
655.55
 30
0.0
 11
169.231656
 21
655.55
 31
0.0
  0
LINE
  5
5AE
100
AcDbEntity
  8
LAY-1
  6
CONTINUOUS
 62
     1
100
AcDbLine
 10
158.262001
 20
646.398506
 30
0.0
 11
158.262001
 21
655.55
 31
0.0
  0
LINE
  5
5AF
100
AcDbEntity
  8
LAY-1
  6
CONTINUOUS
 62
     1
100
AcDbLine
 10
159.731656
 20
645.55
 30
0.0
 11
158.262001
 21
646.398506
 31
0.0
  0
LINE
  5
5B0
100
AcDbEntity
  8
LAY-1
  6
CONTINUOUS
 62
     1
100
AcDbLine
 10
163.746829
 20
646.398506
 30
0.0
 11
163.746829
 21
655.55
 31
0.0
  0
ARC
  5
5B1
100
AcDbEntity
  8
LAY-1
  6
CONTINUOUS
 62
     1
100
AcDbCircle
 10
161.004415
 20
650.406063
 30
0.0
 40
4.856063
100
AcDbArc
 50
235.615753
 51
304.384247
  0
LINE
  5
5B2
100
AcDbEntity
  8
LAY-1
  6
CONTINUOUS
 62
     1
100
AcDbLine
 10
169.231656
 20
645.55
 30
0.0
 11
159.731656
 21
645.55
 31
0.0
  0
ARC
  5
5B3
100
AcDbEntity
  8
LAY-1
  6
CONTINUOUS
 62
     1
100
AcDbCircle
 10
169.231656
 20
663.701494
 30
0.0
 40
18.151494
100
AcDbArc
 50
252.412046
 51
270.0
  0
ARC
  5
5B4
100
AcDbEntity
  8
LAY-1
  6
CONTINUOUS
 62
     1
100
AcDbCircle
 10
169.231657
 20
663.701494
 30
0.0
 40
18.151494
100
AcDbArc
 50
270.0
 51
287.587954
  0
LINE
  5
5B5
100
AcDbEntity
  8
LAY-1
  6
CONTINUOUS
 62
     1
100
AcDbLine
 10
178.731657
 20
645.55
 30
0.0
 11
180.201312
 21
646.398506
 31
0.0
  0
LINE
  5
5B6
100
AcDbEntity
  8
LAY-1
  6
CONTINUOUS
 62
     1
100
AcDbLine
 10
169.231657
 20
645.55
 30
0.0
 11
178.731657
 21
645.55
 31
0.0
  0
ARC
  5
5B7
100
AcDbEntity
  8
LAY-1
  6
CONTINUOUS
 62
     1
100
AcDbCircle
 10
177.458898
 20
650.406063
 30
0.0
 40
4.856063
100
AcDbArc
 50
235.615753
 51
304.384247
  0
LINE
  5
5B8
100
AcDbEntity
  8
LAY-1
  6
CONTINUOUS
 62
     1
100
AcDbLine
 10
180.201312
 20
646.398506
 30
0.0
 11
180.201312
 21
655.55
 31
0.0
  0
LINE
  5
5B9
100
AcDbEntity
  8
LAY-1
  6
CONTINUOUS
 62
     1
100
AcDbLine
 10
180.201312
 20
655.55
 30
0.0
 11
169.231657
 21
655.55
 31
0.0
  0
LINE
  5
5BA
100
AcDbEntity
  8
LAY-1
  6
CONTINUOUS
 62
     1
100
AcDbLine
 10
181.231657
 20
657.023721
 30
0.0
 11
175.731657
 21
655.55
 31
0.0
  0
LINE
  5
5BB
100
AcDbEntity
  8
LAY-1
  6
CONTINUOUS
 62
     1
100
AcDbLine
 10
181.231657
 20
657.023721
 30
0.0
 11
181.231657
 21
658.25
 31
0.0
  0
LINE
  5
5BC
100
AcDbEntity
  8
LAY-1
  6
CONTINUOUS
 62
     1
100
AcDbLine
 10
169.231657
 20
657.023721
 30
0.0
 11
181.231657
 21
657.023721
 31
0.0
  0
LINE
  5
5BD
100
AcDbEntity
  8
LAY-1
  6
CONTINUOUS
 62
     1
100
AcDbLine
 10
175.231657
 20
640.75
 30
0.0
 11
174.731657
 21
640.25
 31
0.0
  0
LINE
  5
5BE
100
AcDbEntity
  8
LAY-1
  6
CONTINUOUS
 62
     1
100
AcDbLine
 10
163.231657
 20
640.75
 30
0.0
 11
163.731657
 21
640.25
 31
0.0
  0
LINE
  5
5BF
100
AcDbEntity
  8
LAY-1
  6
CONTINUOUS
 62
     1
100
AcDbLine
 10
163.731657
 20
640.25
 30
0.0
 11
174.731657
 21
640.25
 31
0.0
  0
LINE
  5
5C0
100
AcDbEntity
  8
LAY-1
  6
CONTINUOUS
 62
     1
100
AcDbLine
 10
175.231657
 20
640.75
 30
0.0
 11
175.231657
 21
645.55
 31
0.0
  0
LINE
  5
5C1
100
AcDbEntity
  8
LAY-1
  6
CONTINUOUS
 62
     1
100
AcDbLine
 10
163.231657
 20
640.75
 30
0.0
 11
163.231657
 21
645.55
 31
0.0
  0
LINE
  5
5C2
100
AcDbEntity
  8
LAY-1
  6
CONTINUOUS
 62
     1
100
AcDbLine
 10
174.716485
 20
646.398506
 30
0.0
 11
174.716485
 21
655.55
 31
0.0
  0
LINE
  5
5C3
100
AcDbEntity
  8
LAY-1
  6
CONTINUOUS
 62
     1
100
AcDbLine
 10
178.731657
 20
698.232199
 30
0.0
 11
159.731657
 21
698.232199
 31
0.0
  0
ARC
  5
5C4
100
AcDbEntity
  8
LAY-1
  6
CONTINUOUS
 62
     1
100
AcDbCircle
 10
161.004415
 20
693.376135
 30
0.0
 40
4.856063
100
AcDbArc
 50
55.615753
 51
124.384247
  0
LINE
  5
5C5
100
AcDbEntity
  8
LAY-1
  6
CONTINUOUS
 62
     1
100
AcDbLine
 10
163.746829
 20
690.232199
 30
0.0
 11
163.746829
 21
697.383693
 31
0.0
  0
LINE
  5
5C6
100
AcDbEntity
  8
LAY-1
  6
CONTINUOUS
 62
     1
100
AcDbLine
 10
159.731657
 20
698.232199
 30
0.0
 11
158.262002
 21
697.383693
 31
0.0
  0
LINE
  5
5C7
100
AcDbEntity
  8
LAY-1
  6
CONTINUOUS
 62
     1
100
AcDbLine
 10
158.262002
 20
697.383693
 30
0.0
 11
158.262002
 21
690.232199
 31
0.0
  0
ARC
  5
5C8
100
AcDbEntity
  8
LAY-1
  6
CONTINUOUS
 62
     1
100
AcDbCircle
 10
169.231657
 20
680.080704
 30
0.0
 40
18.151494
100
AcDbArc
 50
72.412046
 51
107.587954
  0
ARC
  5
5C9
100
AcDbEntity
  8
LAY-1
  6
CONTINUOUS
 62
     1
100
AcDbCircle
 10
177.458898
 20
693.376135
 30
0.0
 40
4.856063
100
AcDbArc
 50
55.615753
 51
124.384247
  0
LINE
  5
5CA
100
AcDbEntity
  8
LAY-1
  6
CONTINUOUS
 62
     1
100
AcDbLine
 10
174.716484
 20
697.383693
 30
0.0
 11
174.716484
 21
690.232199
 31
0.0
  0
LINE
  5
5CB
100
AcDbEntity
  8
LAY-1
  6
CONTINUOUS
 62
     1
100
AcDbLine
 10
180.201312
 20
697.383693
 30
0.0
 11
178.731657
 21
698.232199
 31
0.0
  0
LINE
  5
5CC
100
AcDbEntity
  8
LAY-1
  6
CONTINUOUS
 62
     1
100
AcDbLine
 10
180.201312
 20
690.232199
 30
0.0
 11
180.201312
 21
697.383693
 31
0.0
  0
LINE
  5
5CD
100
AcDbEntity
  8
LAY-1
  6
CONTINUOUS
 62
     1
100
AcDbLine
 10
233.768343
 20
657.023721
 30
0.0
 11
233.768343
 21
658.25
 31
0.0
  0
LINE
  5
5CE
100
AcDbEntity
  8
LAY-1
  6
CONTINUOUS
 62
     1
100
AcDbLine
 10
245.768343
 20
657.023721
 30
0.0
 11
233.768343
 21
657.023721
 31
0.0
  0
LINE
  5
5CF
100
AcDbEntity
  8
LAY-1
  6
CONTINUOUS
 62
     1
100
AcDbLine
 10
233.768343
 20
657.023721
 30
0.0
 11
239.268343
 21
655.55
 31
0.0
  0
LINE
  5
5D0
100
AcDbEntity
  8
LAY-1
  6
CONTINUOUS
 62
     1
100
AcDbLine
 10
234.798688
 20
655.55
 30
0.0
 11
245.768343
 21
655.55
 31
0.0
  0
LINE
  5
5D1
100
AcDbEntity
  8
LAY-1
  6
CONTINUOUS
 62
     1
100
AcDbLine
 10
234.798688
 20
646.398506
 30
0.0
 11
234.798688
 21
655.55
 31
0.0
  0
LINE
  5
5D2
100
AcDbEntity
  8
LAY-1
  6
CONTINUOUS
 62
     1
100
AcDbLine
 10
236.268343
 20
645.55
 30
0.0
 11
234.798688
 21
646.398506
 31
0.0
  0
LINE
  5
5D3
100
AcDbEntity
  8
LAY-1
  6
CONTINUOUS
 62
     1
100
AcDbLine
 10
240.283515
 20
646.398506
 30
0.0
 11
240.283515
 21
655.55
 31
0.0
  0
ARC
  5
5D4
100
AcDbEntity
  8
LAY-1
  6
CONTINUOUS
 62
     1
100
AcDbCircle
 10
237.541102
 20
650.406063
 30
0.0
 40
4.856063
100
AcDbArc
 50
235.615753
 51
304.384247
  0
LINE
  5
5D5
100
AcDbEntity
  8
LAY-1
  6
CONTINUOUS
 62
     1
100
AcDbLine
 10
245.768343
 20
645.55
 30
0.0
 11
236.268343
 21
645.55
 31
0.0
  0
ARC
  5
5D6
100
AcDbEntity
  8
LAY-1
  6
CONTINUOUS
 62
     1
100
AcDbCircle
 10
245.768343
 20
663.701494
 30
0.0
 40
18.151494
100
AcDbArc
 50
252.412046
 51
270.0
  0
ARC
  5
5D7
100
AcDbEntity
  8
LAY-1
  6
CONTINUOUS
 62
     1
100
AcDbCircle
 10
245.768344
 20
663.701494
 30
0.0
 40
18.151494
100
AcDbArc
 50
270.0
 51
287.587954
  0
LINE
  5
5D8
100
AcDbEntity
  8
LAY-1
  6
CONTINUOUS
 62
     1
100
AcDbLine
 10
255.268344
 20
645.55
 30
0.0
 11
256.737999
 21
646.398506
 31
0.0
  0
LINE
  5
5D9
100
AcDbEntity
  8
LAY-1
  6
CONTINUOUS
 62
     1
100
AcDbLine
 10
245.768344
 20
645.55
 30
0.0
 11
255.268344
 21
645.55
 31
0.0
  0
ARC
  5
5DA
100
AcDbEntity
  8
LAY-1
  6
CONTINUOUS
 62
     1
100
AcDbCircle
 10
253.995585
 20
650.406063
 30
0.0
 40
4.856063
100
AcDbArc
 50
235.615753
 51
304.384247
  0
LINE
  5
5DB
100
AcDbEntity
  8
LAY-1
  6
CONTINUOUS
 62
     1
100
AcDbLine
 10
256.737999
 20
646.398506
 30
0.0
 11
256.737999
 21
655.55
 31
0.0
  0
LINE
  5
5DC
100
AcDbEntity
  8
LAY-1
  6
CONTINUOUS
 62
     1
100
AcDbLine
 10
256.737999
 20
655.55
 30
0.0
 11
245.768344
 21
655.55
 31
0.0
  0
LINE
  5
5DD
100
AcDbEntity
  8
LAY-1
  6
CONTINUOUS
 62
     1
100
AcDbLine
 10
257.768344
 20
657.023721
 30
0.0
 11
252.268344
 21
655.55
 31
0.0
  0
LINE
  5
5DE
100
AcDbEntity
  8
LAY-1
  6
CONTINUOUS
 62
     1
100
AcDbLine
 10
257.768344
 20
657.023721
 30
0.0
 11
257.768344
 21
658.25
 31
0.0
  0
LINE
  5
5DF
100
AcDbEntity
  8
LAY-1
  6
CONTINUOUS
 62
     1
100
AcDbLine
 10
245.768344
 20
657.023721
 30
0.0
 11
257.768344
 21
657.023721
 31
0.0
  0
LINE
  5
5E0
100
AcDbEntity
  8
LAY-1
  6
CONTINUOUS
 62
     1
100
AcDbLine
 10
251.768343
 20
640.75
 30
0.0
 11
251.268343
 21
640.25
 31
0.0
  0
LINE
  5
5E1
100
AcDbEntity
  8
LAY-1
  6
CONTINUOUS
 62
     1
100
AcDbLine
 10
239.768343
 20
640.75
 30
0.0
 11
240.268343
 21
640.25
 31
0.0
  0
LINE
  5
5E2
100
AcDbEntity
  8
LAY-1
  6
CONTINUOUS
 62
     1
100
AcDbLine
 10
240.268343
 20
640.25
 30
0.0
 11
251.268343
 21
640.25
 31
0.0
  0
LINE
  5
5E3
100
AcDbEntity
  8
LAY-1
  6
CONTINUOUS
 62
     1
100
AcDbLine
 10
251.768343
 20
640.75
 30
0.0
 11
251.768343
 21
645.55
 31
0.0
  0
LINE
  5
5E4
100
AcDbEntity
  8
LAY-1
  6
CONTINUOUS
 62
     1
100
AcDbLine
 10
239.768343
 20
640.75
 30
0.0
 11
239.768343
 21
645.55
 31
0.0
  0
LINE
  5
5E5
100
AcDbEntity
  8
LAY-1
  6
CONTINUOUS
 62
     1
100
AcDbLine
 10
251.253171
 20
646.398506
 30
0.0
 11
251.253171
 21
655.55
 31
0.0
  0
LINE
  5
5E6
100
AcDbEntity
  8
LAY-1
  6
CONTINUOUS
 62
     1
100
AcDbLine
 10
255.268343
 20
698.232199
 30
0.0
 11
236.268343
 21
698.232199
 31
0.0
  0
ARC
  5
5E7
100
AcDbEntity
  8
LAY-1
  6
CONTINUOUS
 62
     1
100
AcDbCircle
 10
237.541102
 20
693.376135
 30
0.0
 40
4.856063
100
AcDbArc
 50
55.615753
 51
124.384247
  0
LINE
  5
5E8
100
AcDbEntity
  8
LAY-1
  6
CONTINUOUS
 62
     1
100
AcDbLine
 10
240.283516
 20
690.232199
 30
0.0
 11
240.283516
 21
697.383693
 31
0.0
  0
LINE
  5
5E9
100
AcDbEntity
  8
LAY-1
  6
CONTINUOUS
 62
     1
100
AcDbLine
 10
236.268343
 20
698.232199
 30
0.0
 11
234.798688
 21
697.383693
 31
0.0
  0
LINE
  5
5EA
100
AcDbEntity
  8
LAY-1
  6
CONTINUOUS
 62
     1
100
AcDbLine
 10
234.798688
 20
697.383693
 30
0.0
 11
234.798688
 21
690.232199
 31
0.0
  0
ARC
  5
5EB
100
AcDbEntity
  8
LAY-1
  6
CONTINUOUS
 62
     1
100
AcDbCircle
 10
245.768343
 20
680.080704
 30
0.0
 40
18.151494
100
AcDbArc
 50
72.412046
 51
107.587954
  0
ARC
  5
5EC
100
AcDbEntity
  8
LAY-1
  6
CONTINUOUS
 62
     1
100
AcDbCircle
 10
253.995585
 20
693.376135
 30
0.0
 40
4.856063
100
AcDbArc
 50
55.615753
 51
124.384247
  0
LINE
  5
5ED
100
AcDbEntity
  8
LAY-1
  6
CONTINUOUS
 62
     1
100
AcDbLine
 10
251.253171
 20
697.383693
 30
0.0
 11
251.253171
 21
690.232199
 31
0.0
  0
LINE
  5
5EE
100
AcDbEntity
  8
LAY-1
  6
CONTINUOUS
 62
     1
100
AcDbLine
 10
256.737998
 20
697.383693
 30
0.0
 11
255.268343
 21
698.232199
 31
0.0
  0
LINE
  5
5EF
100
AcDbEntity
  8
LAY-1
  6
CONTINUOUS
 62
     1
100
AcDbLine
 10
256.737998
 20
690.232199
 30
0.0
 11
256.737998
 21
697.383693
 31
0.0
  0
LINE
  5
5F0
100
AcDbEntity
  8
LAY-1
  6
CONTINUOUS
 62
     1
100
AcDbLine
 10
287.887953
 20
657.023721
 30
0.0
 11
287.887953
 21
658.25
 31
0.0
  0
LINE
  5
5F1
100
AcDbEntity
  8
LAY-1
  6
CONTINUOUS
 62
     1
100
AcDbLine
 10
299.887953
 20
657.023721
 30
0.0
 11
287.887953
 21
657.023721
 31
0.0
  0
LINE
  5
5F2
100
AcDbEntity
  8
LAY-1
  6
CONTINUOUS
 62
     1
100
AcDbLine
 10
287.887953
 20
657.023721
 30
0.0
 11
293.387953
 21
655.55
 31
0.0
  0
LINE
  5
5F3
100
AcDbEntity
  8
LAY-1
  6
CONTINUOUS
 62
     1
100
AcDbLine
 10
288.918298
 20
655.55
 30
0.0
 11
299.887953
 21
655.55
 31
0.0
  0
LINE
  5
5F4
100
AcDbEntity
  8
LAY-1
  6
CONTINUOUS
 62
     1
100
AcDbLine
 10
288.918298
 20
646.398506
 30
0.0
 11
288.918298
 21
655.55
 31
0.0
  0
LINE
  5
5F5
100
AcDbEntity
  8
LAY-1
  6
CONTINUOUS
 62
     1
100
AcDbLine
 10
290.387953
 20
645.55
 30
0.0
 11
288.918298
 21
646.398506
 31
0.0
  0
LINE
  5
5F6
100
AcDbEntity
  8
LAY-1
  6
CONTINUOUS
 62
     1
100
AcDbLine
 10
294.403125
 20
646.398506
 30
0.0
 11
294.403125
 21
655.55
 31
0.0
  0
ARC
  5
5F7
100
AcDbEntity
  8
LAY-1
  6
CONTINUOUS
 62
     1
100
AcDbCircle
 10
291.660712
 20
650.406063
 30
0.0
 40
4.856063
100
AcDbArc
 50
235.615753
 51
304.384247
  0
LINE
  5
5F8
100
AcDbEntity
  8
LAY-1
  6
CONTINUOUS
 62
     1
100
AcDbLine
 10
299.887953
 20
645.55
 30
0.0
 11
290.387953
 21
645.55
 31
0.0
  0
ARC
  5
5F9
100
AcDbEntity
  8
LAY-1
  6
CONTINUOUS
 62
     1
100
AcDbCircle
 10
299.887953
 20
663.701494
 30
0.0
 40
18.151494
100
AcDbArc
 50
252.412046
 51
270.0
  0
ARC
  5
5FA
100
AcDbEntity
  8
LAY-1
  6
CONTINUOUS
 62
     1
100
AcDbCircle
 10
299.887954
 20
663.701494
 30
0.0
 40
18.151494
100
AcDbArc
 50
270.0
 51
287.587954
  0
LINE
  5
5FB
100
AcDbEntity
  8
LAY-1
  6
CONTINUOUS
 62
     1
100
AcDbLine
 10
309.387954
 20
645.55
 30
0.0
 11
310.857609
 21
646.398506
 31
0.0
  0
LINE
  5
5FC
100
AcDbEntity
  8
LAY-1
  6
CONTINUOUS
 62
     1
100
AcDbLine
 10
299.887954
 20
645.55
 30
0.0
 11
309.387954
 21
645.55
 31
0.0
  0
ARC
  5
5FD
100
AcDbEntity
  8
LAY-1
  6
CONTINUOUS
 62
     1
100
AcDbCircle
 10
308.115195
 20
650.406063
 30
0.0
 40
4.856063
100
AcDbArc
 50
235.615753
 51
304.384247
  0
LINE
  5
5FE
100
AcDbEntity
  8
LAY-1
  6
CONTINUOUS
 62
     1
100
AcDbLine
 10
310.857609
 20
646.398506
 30
0.0
 11
310.857609
 21
655.55
 31
0.0
  0
LINE
  5
5FF
100
AcDbEntity
  8
LAY-1
  6
CONTINUOUS
 62
     1
100
AcDbLine
 10
310.857609
 20
655.55
 30
0.0
 11
299.887954
 21
655.55
 31
0.0
  0
LINE
  5
600
100
AcDbEntity
  8
LAY-1
  6
CONTINUOUS
 62
     1
100
AcDbLine
 10
311.887954
 20
657.023721
 30
0.0
 11
306.387954
 21
655.55
 31
0.0
  0
LINE
  5
601
100
AcDbEntity
  8
LAY-1
  6
CONTINUOUS
 62
     1
100
AcDbLine
 10
311.887954
 20
657.023721
 30
0.0
 11
311.887954
 21
658.25
 31
0.0
  0
LINE
  5
602
100
AcDbEntity
  8
LAY-1
  6
CONTINUOUS
 62
     1
100
AcDbLine
 10
299.887954
 20
657.023721
 30
0.0
 11
311.887954
 21
657.023721
 31
0.0
  0
LINE
  5
603
100
AcDbEntity
  8
LAY-1
  6
CONTINUOUS
 62
     1
100
AcDbLine
 10
305.887953
 20
640.75
 30
0.0
 11
305.387953
 21
640.25
 31
0.0
  0
LINE
  5
604
100
AcDbEntity
  8
LAY-1
  6
CONTINUOUS
 62
     1
100
AcDbLine
 10
293.887953
 20
640.75
 30
0.0
 11
294.387953
 21
640.25
 31
0.0
  0
LINE
  5
605
100
AcDbEntity
  8
LAY-1
  6
CONTINUOUS
 62
     1
100
AcDbLine
 10
294.387953
 20
640.25
 30
0.0
 11
305.387953
 21
640.25
 31
0.0
  0
LINE
  5
606
100
AcDbEntity
  8
LAY-1
  6
CONTINUOUS
 62
     1
100
AcDbLine
 10
305.887953
 20
640.75
 30
0.0
 11
305.887953
 21
645.55
 31
0.0
  0
LINE
  5
607
100
AcDbEntity
  8
LAY-1
  6
CONTINUOUS
 62
     1
100
AcDbLine
 10
293.887953
 20
640.75
 30
0.0
 11
293.887953
 21
645.55
 31
0.0
  0
LINE
  5
608
100
AcDbEntity
  8
LAY-1
  6
CONTINUOUS
 62
     1
100
AcDbLine
 10
305.372781
 20
646.398506
 30
0.0
 11
305.372781
 21
655.55
 31
0.0
  0
LINE
  5
609
100
AcDbEntity
  8
LAY-1
  6
CONTINUOUS
 62
     1
100
AcDbLine
 10
309.387953
 20
698.232199
 30
0.0
 11
290.387953
 21
698.232199
 31
0.0
  0
ARC
  5
60A
100
AcDbEntity
  8
LAY-1
  6
CONTINUOUS
 62
     1
100
AcDbCircle
 10
291.660712
 20
693.376135
 30
0.0
 40
4.856063
100
AcDbArc
 50
55.615753
 51
124.384247
  0
LINE
  5
60B
100
AcDbEntity
  8
LAY-1
  6
CONTINUOUS
 62
     1
100
AcDbLine
 10
294.403126
 20
690.232199
 30
0.0
 11
294.403126
 21
697.383693
 31
0.0
  0
LINE
  5
60C
100
AcDbEntity
  8
LAY-1
  6
CONTINUOUS
 62
     1
100
AcDbLine
 10
290.387953
 20
698.232199
 30
0.0
 11
288.918298
 21
697.383693
 31
0.0
  0
LINE
  5
60D
100
AcDbEntity
  8
LAY-1
  6
CONTINUOUS
 62
     1
100
AcDbLine
 10
288.918298
 20
697.383693
 30
0.0
 11
288.918298
 21
690.232199
 31
0.0
  0
ARC
  5
60E
100
AcDbEntity
  8
LAY-1
  6
CONTINUOUS
 62
     1
100
AcDbCircle
 10
299.887953
 20
680.080704
 30
0.0
 40
18.151494
100
AcDbArc
 50
72.412046
 51
107.587954
  0
ARC
  5
60F
100
AcDbEntity
  8
LAY-1
  6
CONTINUOUS
 62
     1
100
AcDbCircle
 10
308.115195
 20
693.376135
 30
0.0
 40
4.856063
100
AcDbArc
 50
55.615753
 51
124.384247
  0
LINE
  5
610
100
AcDbEntity
  8
LAY-1
  6
CONTINUOUS
 62
     1
100
AcDbLine
 10
305.372781
 20
697.383693
 30
0.0
 11
305.372781
 21
690.232199
 31
0.0
  0
LINE
  5
611
100
AcDbEntity
  8
LAY-1
  6
CONTINUOUS
 62
     1
100
AcDbLine
 10
310.857608
 20
697.383693
 30
0.0
 11
309.387953
 21
698.232199
 31
0.0
  0
LINE
  5
612
100
AcDbEntity
  8
LAY-1
  6
CONTINUOUS
 62
     1
100
AcDbLine
 10
310.857608
 20
690.232199
 30
0.0
 11
310.857608
 21
697.383693
 31
0.0
  0
LINE
  5
613
100
AcDbEntity
  8
LAY-1
  6
CONTINUOUS
 62
     1
100
AcDbLine
 10
103.112046
 20
658.25
 30
0.0
 11
127.112047
 21
658.25
 31
0.0
  0
LINE
  5
614
100
AcDbEntity
  8
LAY-1
  6
CONTINUOUS
 62
     1
100
AcDbLine
 10
103.112046
 20
657.023721
 30
0.0
 11
103.112046
 21
658.25
 31
0.0
  0
LINE
  5
615
100
AcDbEntity
  8
LAY-1
  6
CONTINUOUS
 62
     1
100
AcDbLine
 10
115.112046
 20
657.023721
 30
0.0
 11
103.112046
 21
657.023721
 31
0.0
  0
LINE
  5
616
100
AcDbEntity
  8
LAY-1
  6
CONTINUOUS
 62
     1
100
AcDbLine
 10
103.112046
 20
657.023721
 30
0.0
 11
108.612046
 21
655.55
 31
0.0
  0
LINE
  5
617
100
AcDbEntity
  8
LAY-1
  6
CONTINUOUS
 62
     1
100
AcDbLine
 10
104.142391
 20
655.55
 30
0.0
 11
115.112046
 21
655.55
 31
0.0
  0
LINE
  5
618
100
AcDbEntity
  8
LAY-1
  6
CONTINUOUS
 62
     1
100
AcDbLine
 10
104.142391
 20
646.398506
 30
0.0
 11
104.142391
 21
655.55
 31
0.0
  0
LINE
  5
619
100
AcDbEntity
  8
LAY-1
  6
CONTINUOUS
 62
     1
100
AcDbLine
 10
105.612046
 20
645.55
 30
0.0
 11
104.142391
 21
646.398506
 31
0.0
  0
LINE
  5
61A
100
AcDbEntity
  8
LAY-1
  6
CONTINUOUS
 62
     1
100
AcDbLine
 10
109.627219
 20
646.398506
 30
0.0
 11
109.627219
 21
655.55
 31
0.0
  0
ARC
  5
61B
100
AcDbEntity
  8
LAY-1
  6
CONTINUOUS
 62
     1
100
AcDbCircle
 10
106.884805
 20
650.406063
 30
0.0
 40
4.856063
100
AcDbArc
 50
235.615753
 51
304.384247
  0
LINE
  5
61C
100
AcDbEntity
  8
LAY-1
  6
CONTINUOUS
 62
     1
100
AcDbLine
 10
115.112046
 20
645.55
 30
0.0
 11
105.612046
 21
645.55
 31
0.0
  0
ARC
  5
61D
100
AcDbEntity
  8
LAY-1
  6
CONTINUOUS
 62
     1
100
AcDbCircle
 10
115.112046
 20
663.701494
 30
0.0
 40
18.151494
100
AcDbArc
 50
252.412046
 51
270.0
  0
ARC
  5
61E
100
AcDbEntity
  8
LAY-1
  6
CONTINUOUS
 62
     1
100
AcDbCircle
 10
115.112047
 20
663.701494
 30
0.0
 40
18.151494
100
AcDbArc
 50
270.0
 51
287.587954
  0
LINE
  5
61F
100
AcDbEntity
  8
LAY-1
  6
CONTINUOUS
 62
     1
100
AcDbLine
 10
124.612047
 20
645.55
 30
0.0
 11
126.081702
 21
646.398506
 31
0.0
  0
LINE
  5
620
100
AcDbEntity
  8
LAY-1
  6
CONTINUOUS
 62
     1
100
AcDbLine
 10
115.112047
 20
645.55
 30
0.0
 11
124.612047
 21
645.55
 31
0.0
  0
ARC
  5
621
100
AcDbEntity
  8
LAY-1
  6
CONTINUOUS
 62
     1
100
AcDbCircle
 10
123.339288
 20
650.406063
 30
0.0
 40
4.856063
100
AcDbArc
 50
235.615753
 51
304.384247
  0
LINE
  5
622
100
AcDbEntity
  8
LAY-1
  6
CONTINUOUS
 62
     1
100
AcDbLine
 10
126.081702
 20
646.398506
 30
0.0
 11
126.081702
 21
655.55
 31
0.0
  0
LINE
  5
623
100
AcDbEntity
  8
LAY-1
  6
CONTINUOUS
 62
     1
100
AcDbLine
 10
126.081702
 20
655.55
 30
0.0
 11
115.112047
 21
655.55
 31
0.0
  0
LINE
  5
624
100
AcDbEntity
  8
LAY-1
  6
CONTINUOUS
 62
     1
100
AcDbLine
 10
127.112047
 20
657.023721
 30
0.0
 11
121.612047
 21
655.55
 31
0.0
  0
LINE
  5
625
100
AcDbEntity
  8
LAY-1
  6
CONTINUOUS
 62
     1
100
AcDbLine
 10
127.112047
 20
657.023721
 30
0.0
 11
127.112047
 21
658.25
 31
0.0
  0
LINE
  5
626
100
AcDbEntity
  8
LAY-1
  6
CONTINUOUS
 62
     1
100
AcDbLine
 10
115.112047
 20
657.023721
 30
0.0
 11
127.112047
 21
657.023721
 31
0.0
  0
LINE
  5
627
100
AcDbEntity
  8
LAY-1
  6
CONTINUOUS
 62
     1
100
AcDbLine
 10
121.112047
 20
640.75
 30
0.0
 11
120.612047
 21
640.25
 31
0.0
  0
LINE
  5
628
100
AcDbEntity
  8
LAY-1
  6
CONTINUOUS
 62
     1
100
AcDbLine
 10
109.112047
 20
640.75
 30
0.0
 11
109.612047
 21
640.25
 31
0.0
  0
LINE
  5
629
100
AcDbEntity
  8
LAY-1
  6
CONTINUOUS
 62
     1
100
AcDbLine
 10
109.612047
 20
640.25
 30
0.0
 11
120.612047
 21
640.25
 31
0.0
  0
LINE
  5
62A
100
AcDbEntity
  8
LAY-1
  6
CONTINUOUS
 62
     1
100
AcDbLine
 10
121.112047
 20
640.75
 30
0.0
 11
121.112047
 21
645.55
 31
0.0
  0
LINE
  5
62B
100
AcDbEntity
  8
LAY-1
  6
CONTINUOUS
 62
     1
100
AcDbLine
 10
109.112047
 20
640.75
 30
0.0
 11
109.112047
 21
645.55
 31
0.0
  0
LINE
  5
62C
100
AcDbEntity
  8
LAY-1
  6
CONTINUOUS
 62
     1
100
AcDbLine
 10
120.596875
 20
646.398506
 30
0.0
 11
120.596875
 21
655.55
 31
0.0
  0
LINE
  5
62D
100
AcDbEntity
  8
LAY-1
  6
CONTINUOUS
 62
     1
100
AcDbLine
 10
124.612047
 20
698.232199
 30
0.0
 11
105.612047
 21
698.232199
 31
0.0
  0
ARC
  5
62E
100
AcDbEntity
  8
LAY-1
  6
CONTINUOUS
 62
     1
100
AcDbCircle
 10
106.884805
 20
693.376135
 30
0.0
 40
4.856063
100
AcDbArc
 50
55.615753
 51
124.384247
  0
LINE
  5
62F
100
AcDbEntity
  8
LAY-1
  6
CONTINUOUS
 62
     1
100
AcDbLine
 10
109.627219
 20
690.232199
 30
0.0
 11
109.627219
 21
697.383693
 31
0.0
  0
LINE
  5
630
100
AcDbEntity
  8
LAY-1
  6
CONTINUOUS
 62
     1
100
AcDbLine
 10
105.612047
 20
698.232199
 30
0.0
 11
104.142392
 21
697.383693
 31
0.0
  0
LINE
  5
631
100
AcDbEntity
  8
LAY-1
  6
CONTINUOUS
 62
     1
100
AcDbLine
 10
104.142392
 20
697.383693
 30
0.0
 11
104.142392
 21
690.232199
 31
0.0
  0
ARC
  5
632
100
AcDbEntity
  8
LAY-1
  6
CONTINUOUS
 62
     1
100
AcDbCircle
 10
115.112047
 20
680.080704
 30
0.0
 40
18.151494
100
AcDbArc
 50
72.412046
 51
107.587954
  0
ARC
  5
633
100
AcDbEntity
  8
LAY-1
  6
CONTINUOUS
 62
     1
100
AcDbCircle
 10
123.339288
 20
693.376135
 30
0.0
 40
4.856063
100
AcDbArc
 50
55.615753
 51
124.384247
  0
LINE
  5
634
100
AcDbEntity
  8
LAY-1
  6
CONTINUOUS
 62
     1
100
AcDbLine
 10
120.596874
 20
697.383693
 30
0.0
 11
120.596874
 21
690.232199
 31
0.0
  0
LINE
  5
635
100
AcDbEntity
  8
LAY-1
  6
CONTINUOUS
 62
     1
100
AcDbLine
 10
126.081702
 20
697.383693
 30
0.0
 11
124.612047
 21
698.232199
 31
0.0
  0
LINE
  5
636
100
AcDbEntity
  8
LAY-1
  6
CONTINUOUS
 62
     1
100
AcDbLine
 10
126.081702
 20
690.232199
 30
0.0
 11
126.081702
 21
697.383693
 31
0.0
  0
LINE
  5
637
100
AcDbEntity
  8
LAY-1
  6
CONTINUOUS
 62
     1
100
AcDbLine
 10
257.768344
 20
-359.523721
 30
0.0
 11
257.768344
 21
-360.75
 31
0.0
  0
LINE
  5
638
100
AcDbEntity
  8
LAY-1
  6
CONTINUOUS
 62
     1
100
AcDbLine
 10
245.768344
 20
-359.523721
 30
0.0
 11
257.768344
 21
-359.523721
 31
0.0
  0
LINE
  5
639
100
AcDbEntity
  8
LAY-1
  6
CONTINUOUS
 62
     1
100
AcDbLine
 10
257.768344
 20
-359.523721
 30
0.0
 11
252.268344
 21
-358.05
 31
0.0
  0
LINE
  5
63A
100
AcDbEntity
  8
LAY-1
  6
CONTINUOUS
 62
     1
100
AcDbLine
 10
256.737999
 20
-358.05
 30
0.0
 11
245.768344
 21
-358.05
 31
0.0
  0
LINE
  5
63B
100
AcDbEntity
  8
LAY-1
  6
CONTINUOUS
 62
     1
100
AcDbLine
 10
256.737999
 20
-348.898506
 30
0.0
 11
256.737999
 21
-358.05
 31
0.0
  0
LINE
  5
63C
100
AcDbEntity
  8
LAY-1
  6
CONTINUOUS
 62
     1
100
AcDbLine
 10
255.268344
 20
-348.05
 30
0.0
 11
256.737999
 21
-348.898506
 31
0.0
  0
LINE
  5
63D
100
AcDbEntity
  8
LAY-1
  6
CONTINUOUS
 62
     1
100
AcDbLine
 10
251.253171
 20
-348.898506
 30
0.0
 11
251.253171
 21
-358.05
 31
0.0
  0
ARC
  5
63E
100
AcDbEntity
  8
LAY-1
  6
CONTINUOUS
 62
     1
100
AcDbCircle
 10
253.995585
 20
-352.906063
 30
0.0
 40
4.856063
100
AcDbArc
 50
55.615753
 51
124.384247
  0
LINE
  5
63F
100
AcDbEntity
  8
LAY-1
  6
CONTINUOUS
 62
     1
100
AcDbLine
 10
245.768344
 20
-348.05
 30
0.0
 11
255.268344
 21
-348.05
 31
0.0
  0
ARC
  5
640
100
AcDbEntity
  8
LAY-1
  6
CONTINUOUS
 62
     1
100
AcDbCircle
 10
245.768344
 20
-366.201494
 30
0.0
 40
18.151494
100
AcDbArc
 50
72.412046
 51
90.0
  0
ARC
  5
641
100
AcDbEntity
  8
LAY-1
  6
CONTINUOUS
 62
     1
100
AcDbCircle
 10
245.768343
 20
-366.201494
 30
0.0
 40
18.151494
100
AcDbArc
 50
90.0
 51
107.587954
  0
LINE
  5
642
100
AcDbEntity
  8
LAY-1
  6
CONTINUOUS
 62
     1
100
AcDbLine
 10
236.268343
 20
-348.05
 30
0.0
 11
234.798688
 21
-348.898506
 31
0.0
  0
LINE
  5
643
100
AcDbEntity
  8
LAY-1
  6
CONTINUOUS
 62
     1
100
AcDbLine
 10
245.768343
 20
-348.05
 30
0.0
 11
236.268343
 21
-348.05
 31
0.0
  0
ARC
  5
644
100
AcDbEntity
  8
LAY-1
  6
CONTINUOUS
 62
     1
100
AcDbCircle
 10
237.541102
 20
-352.906063
 30
0.0
 40
4.856063
100
AcDbArc
 50
55.615753
 51
124.384247
  0
LINE
  5
645
100
AcDbEntity
  8
LAY-1
  6
CONTINUOUS
 62
     1
100
AcDbLine
 10
234.798688
 20
-348.898506
 30
0.0
 11
234.798688
 21
-358.05
 31
0.0
  0
LINE
  5
646
100
AcDbEntity
  8
LAY-1
  6
CONTINUOUS
 62
     1
100
AcDbLine
 10
234.798688
 20
-358.05
 30
0.0
 11
245.768343
 21
-358.05
 31
0.0
  0
LINE
  5
647
100
AcDbEntity
  8
LAY-1
  6
CONTINUOUS
 62
     1
100
AcDbLine
 10
233.768343
 20
-359.523721
 30
0.0
 11
239.268343
 21
-358.05
 31
0.0
  0
LINE
  5
648
100
AcDbEntity
  8
LAY-1
  6
CONTINUOUS
 62
     1
100
AcDbLine
 10
233.768343
 20
-359.523721
 30
0.0
 11
233.768343
 21
-360.75
 31
0.0
  0
LINE
  5
649
100
AcDbEntity
  8
LAY-1
  6
CONTINUOUS
 62
     1
100
AcDbLine
 10
245.768343
 20
-359.523721
 30
0.0
 11
233.768343
 21
-359.523721
 31
0.0
  0
LINE
  5
64A
100
AcDbEntity
  8
LAY-1
  6
CONTINUOUS
 62
     1
100
AcDbLine
 10
239.768343
 20
-343.25
 30
0.0
 11
240.268343
 21
-342.75
 31
0.0
  0
LINE
  5
64B
100
AcDbEntity
  8
LAY-1
  6
CONTINUOUS
 62
     1
100
AcDbLine
 10
251.768343
 20
-343.25
 30
0.0
 11
251.268343
 21
-342.75
 31
0.0
  0
LINE
  5
64C
100
AcDbEntity
  8
LAY-1
  6
CONTINUOUS
 62
     1
100
AcDbLine
 10
251.268343
 20
-342.75
 30
0.0
 11
240.268343
 21
-342.75
 31
0.0
  0
LINE
  5
64D
100
AcDbEntity
  8
LAY-1
  6
CONTINUOUS
 62
     1
100
AcDbLine
 10
239.768343
 20
-343.25
 30
0.0
 11
239.768343
 21
-348.05
 31
0.0
  0
LINE
  5
64E
100
AcDbEntity
  8
LAY-1
  6
CONTINUOUS
 62
     1
100
AcDbLine
 10
251.768343
 20
-343.25
 30
0.0
 11
251.768343
 21
-348.05
 31
0.0
  0
LINE
  5
64F
100
AcDbEntity
  8
LAY-1
  6
CONTINUOUS
 62
     1
100
AcDbLine
 10
240.283515
 20
-348.898506
 30
0.0
 11
240.283515
 21
-358.05
 31
0.0
  0
LINE
  5
650
100
AcDbEntity
  8
LAY-1
  6
CONTINUOUS
 62
     1
100
AcDbLine
 10
236.268343
 20
-400.732199
 30
0.0
 11
255.268343
 21
-400.732199
 31
0.0
  0
ARC
  5
651
100
AcDbEntity
  8
LAY-1
  6
CONTINUOUS
 62
     1
100
AcDbCircle
 10
253.995585
 20
-395.876135
 30
0.0
 40
4.856063
100
AcDbArc
 50
235.615753
 51
304.384247
  0
LINE
  5
652
100
AcDbEntity
  8
LAY-1
  6
CONTINUOUS
 62
     1
100
AcDbLine
 10
251.253171
 20
-392.732199
 30
0.0
 11
251.253171
 21
-399.883693
 31
0.0
  0
LINE
  5
653
100
AcDbEntity
  8
LAY-1
  6
CONTINUOUS
 62
     1
100
AcDbLine
 10
255.268343
 20
-400.732199
 30
0.0
 11
256.737998
 21
-399.883693
 31
0.0
  0
LINE
  5
654
100
AcDbEntity
  8
LAY-1
  6
CONTINUOUS
 62
     1
100
AcDbLine
 10
256.737998
 20
-399.883693
 30
0.0
 11
256.737998
 21
-392.732199
 31
0.0
  0
ARC
  5
655
100
AcDbEntity
  8
LAY-1
  6
CONTINUOUS
 62
     1
100
AcDbCircle
 10
245.768343
 20
-382.580704
 30
0.0
 40
18.151494
100
AcDbArc
 50
252.412046
 51
287.587954
  0
ARC
  5
656
100
AcDbEntity
  8
LAY-1
  6
CONTINUOUS
 62
     1
100
AcDbCircle
 10
237.541102
 20
-395.876135
 30
0.0
 40
4.856063
100
AcDbArc
 50
235.615753
 51
304.384247
  0
LINE
  5
657
100
AcDbEntity
  8
LAY-1
  6
CONTINUOUS
 62
     1
100
AcDbLine
 10
240.283516
 20
-399.883693
 30
0.0
 11
240.283516
 21
-392.732199
 31
0.0
  0
LINE
  5
658
100
AcDbEntity
  8
LAY-1
  6
CONTINUOUS
 62
     1
100
AcDbLine
 10
234.798688
 20
-399.883693
 30
0.0
 11
236.268343
 21
-400.732199
 31
0.0
  0
LINE
  5
659
100
AcDbEntity
  8
LAY-1
  6
CONTINUOUS
 62
     1
100
AcDbLine
 10
234.798688
 20
-392.732199
 30
0.0
 11
234.798688
 21
-399.883693
 31
0.0
  0
LINE
  5
65A
100
AcDbEntity
  8
LAY-1
  6
CONTINUOUS
 62
     1
100
AcDbLine
 10
181.231657
 20
-359.523721
 30
0.0
 11
181.231657
 21
-360.75
 31
0.0
  0
LINE
  5
65B
100
AcDbEntity
  8
LAY-1
  6
CONTINUOUS
 62
     1
100
AcDbLine
 10
169.231657
 20
-359.523721
 30
0.0
 11
181.231657
 21
-359.523721
 31
0.0
  0
LINE
  5
65C
100
AcDbEntity
  8
LAY-1
  6
CONTINUOUS
 62
     1
100
AcDbLine
 10
181.231657
 20
-359.523721
 30
0.0
 11
175.731657
 21
-358.05
 31
0.0
  0
LINE
  5
65D
100
AcDbEntity
  8
LAY-1
  6
CONTINUOUS
 62
     1
100
AcDbLine
 10
180.201312
 20
-358.05
 30
0.0
 11
169.231657
 21
-358.05
 31
0.0
  0
LINE
  5
65E
100
AcDbEntity
  8
LAY-1
  6
CONTINUOUS
 62
     1
100
AcDbLine
 10
180.201312
 20
-348.898506
 30
0.0
 11
180.201312
 21
-358.05
 31
0.0
  0
LINE
  5
65F
100
AcDbEntity
  8
LAY-1
  6
CONTINUOUS
 62
     1
100
AcDbLine
 10
178.731657
 20
-348.05
 30
0.0
 11
180.201312
 21
-348.898506
 31
0.0
  0
LINE
  5
660
100
AcDbEntity
  8
LAY-1
  6
CONTINUOUS
 62
     1
100
AcDbLine
 10
174.716485
 20
-348.898506
 30
0.0
 11
174.716485
 21
-358.05
 31
0.0
  0
ARC
  5
661
100
AcDbEntity
  8
LAY-1
  6
CONTINUOUS
 62
     1
100
AcDbCircle
 10
177.458898
 20
-352.906063
 30
0.0
 40
4.856063
100
AcDbArc
 50
55.615753
 51
124.384247
  0
LINE
  5
662
100
AcDbEntity
  8
LAY-1
  6
CONTINUOUS
 62
     1
100
AcDbLine
 10
169.231657
 20
-348.05
 30
0.0
 11
178.731657
 21
-348.05
 31
0.0
  0
ARC
  5
663
100
AcDbEntity
  8
LAY-1
  6
CONTINUOUS
 62
     1
100
AcDbCircle
 10
169.231657
 20
-366.201494
 30
0.0
 40
18.151494
100
AcDbArc
 50
72.412046
 51
90.0
  0
ARC
  5
664
100
AcDbEntity
  8
LAY-1
  6
CONTINUOUS
 62
     1
100
AcDbCircle
 10
169.231656
 20
-366.201494
 30
0.0
 40
18.151494
100
AcDbArc
 50
90.0
 51
107.587954
  0
LINE
  5
665
100
AcDbEntity
  8
LAY-1
  6
CONTINUOUS
 62
     1
100
AcDbLine
 10
159.731656
 20
-348.05
 30
0.0
 11
158.262001
 21
-348.898506
 31
0.0
  0
LINE
  5
666
100
AcDbEntity
  8
LAY-1
  6
CONTINUOUS
 62
     1
100
AcDbLine
 10
169.231656
 20
-348.05
 30
0.0
 11
159.731656
 21
-348.05
 31
0.0
  0
ARC
  5
667
100
AcDbEntity
  8
LAY-1
  6
CONTINUOUS
 62
     1
100
AcDbCircle
 10
161.004415
 20
-352.906063
 30
0.0
 40
4.856063
100
AcDbArc
 50
55.615753
 51
124.384247
  0
LINE
  5
668
100
AcDbEntity
  8
LAY-1
  6
CONTINUOUS
 62
     1
100
AcDbLine
 10
158.262001
 20
-348.898506
 30
0.0
 11
158.262001
 21
-358.05
 31
0.0
  0
LINE
  5
669
100
AcDbEntity
  8
LAY-1
  6
CONTINUOUS
 62
     1
100
AcDbLine
 10
158.262001
 20
-358.05
 30
0.0
 11
169.231656
 21
-358.05
 31
0.0
  0
LINE
  5
66A
100
AcDbEntity
  8
LAY-1
  6
CONTINUOUS
 62
     1
100
AcDbLine
 10
157.231656
 20
-359.523721
 30
0.0
 11
162.731656
 21
-358.05
 31
0.0
  0
LINE
  5
66B
100
AcDbEntity
  8
LAY-1
  6
CONTINUOUS
 62
     1
100
AcDbLine
 10
157.231656
 20
-359.523721
 30
0.0
 11
157.231656
 21
-360.75
 31
0.0
  0
LINE
  5
66C
100
AcDbEntity
  8
LAY-1
  6
CONTINUOUS
 62
     1
100
AcDbLine
 10
169.231656
 20
-359.523721
 30
0.0
 11
157.231656
 21
-359.523721
 31
0.0
  0
LINE
  5
66D
100
AcDbEntity
  8
LAY-1
  6
CONTINUOUS
 62
     1
100
AcDbLine
 10
163.231657
 20
-343.25
 30
0.0
 11
163.731657
 21
-342.75
 31
0.0
  0
LINE
  5
66E
100
AcDbEntity
  8
LAY-1
  6
CONTINUOUS
 62
     1
100
AcDbLine
 10
175.231657
 20
-343.25
 30
0.0
 11
174.731657
 21
-342.75
 31
0.0
  0
LINE
  5
66F
100
AcDbEntity
  8
LAY-1
  6
CONTINUOUS
 62
     1
100
AcDbLine
 10
174.731657
 20
-342.75
 30
0.0
 11
163.731657
 21
-342.75
 31
0.0
  0
LINE
  5
670
100
AcDbEntity
  8
LAY-1
  6
CONTINUOUS
 62
     1
100
AcDbLine
 10
163.231657
 20
-343.25
 30
0.0
 11
163.231657
 21
-348.05
 31
0.0
  0
LINE
  5
671
100
AcDbEntity
  8
LAY-1
  6
CONTINUOUS
 62
     1
100
AcDbLine
 10
175.231657
 20
-343.25
 30
0.0
 11
175.231657
 21
-348.05
 31
0.0
  0
LINE
  5
672
100
AcDbEntity
  8
LAY-1
  6
CONTINUOUS
 62
     1
100
AcDbLine
 10
163.746829
 20
-348.898506
 30
0.0
 11
163.746829
 21
-358.05
 31
0.0
  0
LINE
  5
673
100
AcDbEntity
  8
LAY-1
  6
CONTINUOUS
 62
     1
100
AcDbLine
 10
159.731657
 20
-400.732199
 30
0.0
 11
178.731657
 21
-400.732199
 31
0.0
  0
ARC
  5
674
100
AcDbEntity
  8
LAY-1
  6
CONTINUOUS
 62
     1
100
AcDbCircle
 10
177.458898
 20
-395.876135
 30
0.0
 40
4.856063
100
AcDbArc
 50
235.615753
 51
304.384247
  0
LINE
  5
675
100
AcDbEntity
  8
LAY-1
  6
CONTINUOUS
 62
     1
100
AcDbLine
 10
174.716484
 20
-392.732199
 30
0.0
 11
174.716484
 21
-399.883693
 31
0.0
  0
LINE
  5
676
100
AcDbEntity
  8
LAY-1
  6
CONTINUOUS
 62
     1
100
AcDbLine
 10
178.731657
 20
-400.732199
 30
0.0
 11
180.201312
 21
-399.883693
 31
0.0
  0
LINE
  5
677
100
AcDbEntity
  8
LAY-1
  6
CONTINUOUS
 62
     1
100
AcDbLine
 10
180.201312
 20
-399.883693
 30
0.0
 11
180.201312
 21
-392.732199
 31
0.0
  0
ARC
  5
678
100
AcDbEntity
  8
LAY-1
  6
CONTINUOUS
 62
     1
100
AcDbCircle
 10
169.231657
 20
-382.580704
 30
0.0
 40
18.151494
100
AcDbArc
 50
252.412046
 51
287.587954
  0
ARC
  5
679
100
AcDbEntity
  8
LAY-1
  6
CONTINUOUS
 62
     1
100
AcDbCircle
 10
161.004415
 20
-395.876135
 30
0.0
 40
4.856063
100
AcDbArc
 50
235.615753
 51
304.384247
  0
LINE
  5
67A
100
AcDbEntity
  8
LAY-1
  6
CONTINUOUS
 62
     1
100
AcDbLine
 10
163.746829
 20
-399.883693
 30
0.0
 11
163.746829
 21
-392.732199
 31
0.0
  0
LINE
  5
67B
100
AcDbEntity
  8
LAY-1
  6
CONTINUOUS
 62
     1
100
AcDbLine
 10
158.262002
 20
-399.883693
 30
0.0
 11
159.731657
 21
-400.732199
 31
0.0
  0
LINE
  5
67C
100
AcDbEntity
  8
LAY-1
  6
CONTINUOUS
 62
     1
100
AcDbLine
 10
158.262002
 20
-392.732199
 30
0.0
 11
158.262002
 21
-399.883693
 31
0.0
  0
LINE
  5
67D
100
AcDbEntity
  8
LAY-1
  6
CONTINUOUS
 62
     1
100
AcDbLine
 10
127.112047
 20
-359.523721
 30
0.0
 11
127.112047
 21
-360.75
 31
0.0
  0
LINE
  5
67E
100
AcDbEntity
  8
LAY-1
  6
CONTINUOUS
 62
     1
100
AcDbLine
 10
115.112047
 20
-359.523721
 30
0.0
 11
127.112047
 21
-359.523721
 31
0.0
  0
LINE
  5
67F
100
AcDbEntity
  8
LAY-1
  6
CONTINUOUS
 62
     1
100
AcDbLine
 10
127.112047
 20
-359.523721
 30
0.0
 11
121.612047
 21
-358.05
 31
0.0
  0
LINE
  5
680
100
AcDbEntity
  8
LAY-1
  6
CONTINUOUS
 62
     1
100
AcDbLine
 10
126.081702
 20
-358.05
 30
0.0
 11
115.112047
 21
-358.05
 31
0.0
  0
LINE
  5
681
100
AcDbEntity
  8
LAY-1
  6
CONTINUOUS
 62
     1
100
AcDbLine
 10
126.081702
 20
-348.898506
 30
0.0
 11
126.081702
 21
-358.05
 31
0.0
  0
LINE
  5
682
100
AcDbEntity
  8
LAY-1
  6
CONTINUOUS
 62
     1
100
AcDbLine
 10
124.612047
 20
-348.05
 30
0.0
 11
126.081702
 21
-348.898506
 31
0.0
  0
LINE
  5
683
100
AcDbEntity
  8
LAY-1
  6
CONTINUOUS
 62
     1
100
AcDbLine
 10
120.596875
 20
-348.898506
 30
0.0
 11
120.596875
 21
-358.05
 31
0.0
  0
ARC
  5
684
100
AcDbEntity
  8
LAY-1
  6
CONTINUOUS
 62
     1
100
AcDbCircle
 10
123.339288
 20
-352.906063
 30
0.0
 40
4.856063
100
AcDbArc
 50
55.615753
 51
124.384247
  0
LINE
  5
685
100
AcDbEntity
  8
LAY-1
  6
CONTINUOUS
 62
     1
100
AcDbLine
 10
115.112047
 20
-348.05
 30
0.0
 11
124.612047
 21
-348.05
 31
0.0
  0
ARC
  5
686
100
AcDbEntity
  8
LAY-1
  6
CONTINUOUS
 62
     1
100
AcDbCircle
 10
115.112047
 20
-366.201494
 30
0.0
 40
18.151494
100
AcDbArc
 50
72.412046
 51
90.0
  0
ARC
  5
687
100
AcDbEntity
  8
LAY-1
  6
CONTINUOUS
 62
     1
100
AcDbCircle
 10
115.112046
 20
-366.201494
 30
0.0
 40
18.151494
100
AcDbArc
 50
90.0
 51
107.587954
  0
LINE
  5
688
100
AcDbEntity
  8
LAY-1
  6
CONTINUOUS
 62
     1
100
AcDbLine
 10
105.612046
 20
-348.05
 30
0.0
 11
104.142391
 21
-348.898506
 31
0.0
  0
LINE
  5
689
100
AcDbEntity
  8
LAY-1
  6
CONTINUOUS
 62
     1
100
AcDbLine
 10
115.112046
 20
-348.05
 30
0.0
 11
105.612046
 21
-348.05
 31
0.0
  0
ARC
  5
68A
100
AcDbEntity
  8
LAY-1
  6
CONTINUOUS
 62
     1
100
AcDbCircle
 10
106.884805
 20
-352.906063
 30
0.0
 40
4.856063
100
AcDbArc
 50
55.615753
 51
124.384247
  0
LINE
  5
68B
100
AcDbEntity
  8
LAY-1
  6
CONTINUOUS
 62
     1
100
AcDbLine
 10
104.142391
 20
-348.898506
 30
0.0
 11
104.142391
 21
-358.05
 31
0.0
  0
LINE
  5
68C
100
AcDbEntity
  8
LAY-1
  6
CONTINUOUS
 62
     1
100
AcDbLine
 10
104.142391
 20
-358.05
 30
0.0
 11
115.112046
 21
-358.05
 31
0.0
  0
LINE
  5
68D
100
AcDbEntity
  8
LAY-1
  6
CONTINUOUS
 62
     1
100
AcDbLine
 10
103.112046
 20
-359.523721
 30
0.0
 11
108.612046
 21
-358.05
 31
0.0
  0
LINE
  5
68E
100
AcDbEntity
  8
LAY-1
  6
CONTINUOUS
 62
     1
100
AcDbLine
 10
103.112046
 20
-359.523721
 30
0.0
 11
103.112046
 21
-360.75
 31
0.0
  0
LINE
  5
68F
100
AcDbEntity
  8
LAY-1
  6
CONTINUOUS
 62
     1
100
AcDbLine
 10
115.112046
 20
-359.523721
 30
0.0
 11
103.112046
 21
-359.523721
 31
0.0
  0
LINE
  5
690
100
AcDbEntity
  8
LAY-1
  6
CONTINUOUS
 62
     1
100
AcDbLine
 10
109.112047
 20
-343.25
 30
0.0
 11
109.612047
 21
-342.75
 31
0.0
  0
LINE
  5
691
100
AcDbEntity
  8
LAY-1
  6
CONTINUOUS
 62
     1
100
AcDbLine
 10
121.112047
 20
-343.25
 30
0.0
 11
120.612047
 21
-342.75
 31
0.0
  0
LINE
  5
692
100
AcDbEntity
  8
LAY-1
  6
CONTINUOUS
 62
     1
100
AcDbLine
 10
120.612047
 20
-342.75
 30
0.0
 11
109.612047
 21
-342.75
 31
0.0
  0
LINE
  5
693
100
AcDbEntity
  8
LAY-1
  6
CONTINUOUS
 62
     1
100
AcDbLine
 10
109.112047
 20
-343.25
 30
0.0
 11
109.112047
 21
-348.05
 31
0.0
  0
LINE
  5
694
100
AcDbEntity
  8
LAY-1
  6
CONTINUOUS
 62
     1
100
AcDbLine
 10
121.112047
 20
-343.25
 30
0.0
 11
121.112047
 21
-348.05
 31
0.0
  0
LINE
  5
695
100
AcDbEntity
  8
LAY-1
  6
CONTINUOUS
 62
     1
100
AcDbLine
 10
109.627219
 20
-348.898506
 30
0.0
 11
109.627219
 21
-358.05
 31
0.0
  0
LINE
  5
696
100
AcDbEntity
  8
LAY-1
  6
CONTINUOUS
 62
     1
100
AcDbLine
 10
105.612047
 20
-400.732199
 30
0.0
 11
124.612047
 21
-400.732199
 31
0.0
  0
ARC
  5
697
100
AcDbEntity
  8
LAY-1
  6
CONTINUOUS
 62
     1
100
AcDbCircle
 10
123.339288
 20
-395.876135
 30
0.0
 40
4.856063
100
AcDbArc
 50
235.615753
 51
304.384247
  0
LINE
  5
698
100
AcDbEntity
  8
LAY-1
  6
CONTINUOUS
 62
     1
100
AcDbLine
 10
120.596874
 20
-392.732199
 30
0.0
 11
120.596874
 21
-399.883693
 31
0.0
  0
LINE
  5
699
100
AcDbEntity
  8
LAY-1
  6
CONTINUOUS
 62
     1
100
AcDbLine
 10
124.612047
 20
-400.732199
 30
0.0
 11
126.081702
 21
-399.883693
 31
0.0
  0
LINE
  5
69A
100
AcDbEntity
  8
LAY-1
  6
CONTINUOUS
 62
     1
100
AcDbLine
 10
126.081702
 20
-399.883693
 30
0.0
 11
126.081702
 21
-392.732199
 31
0.0
  0
ARC
  5
69B
100
AcDbEntity
  8
LAY-1
  6
CONTINUOUS
 62
     1
100
AcDbCircle
 10
115.112047
 20
-382.580704
 30
0.0
 40
18.151494
100
AcDbArc
 50
252.412046
 51
287.587954
  0
ARC
  5
69C
100
AcDbEntity
  8
LAY-1
  6
CONTINUOUS
 62
     1
100
AcDbCircle
 10
106.884805
 20
-395.876135
 30
0.0
 40
4.856063
100
AcDbArc
 50
235.615753
 51
304.384247
  0
LINE
  5
69D
100
AcDbEntity
  8
LAY-1
  6
CONTINUOUS
 62
     1
100
AcDbLine
 10
109.627219
 20
-399.883693
 30
0.0
 11
109.627219
 21
-392.732199
 31
0.0
  0
LINE
  5
69E
100
AcDbEntity
  8
LAY-1
  6
CONTINUOUS
 62
     1
100
AcDbLine
 10
104.142392
 20
-399.883693
 30
0.0
 11
105.612047
 21
-400.732199
 31
0.0
  0
LINE
  5
69F
100
AcDbEntity
  8
LAY-1
  6
CONTINUOUS
 62
     1
100
AcDbLine
 10
104.142392
 20
-392.732199
 30
0.0
 11
104.142392
 21
-399.883693
 31
0.0
  0
LINE
  5
6A0
100
AcDbEntity
  8
LAY-1
  6
CONTINUOUS
 62
     1
100
AcDbLine
 10
311.887954
 20
-360.75
 30
0.0
 11
287.887953
 21
-360.75
 31
0.0
  0
LINE
  5
6A1
100
AcDbEntity
  8
LAY-1
  6
CONTINUOUS
 62
     1
100
AcDbLine
 10
311.887954
 20
-359.523721
 30
0.0
 11
311.887954
 21
-360.75
 31
0.0
  0
LINE
  5
6A2
100
AcDbEntity
  8
LAY-1
  6
CONTINUOUS
 62
     1
100
AcDbLine
 10
299.887954
 20
-359.523721
 30
0.0
 11
311.887954
 21
-359.523721
 31
0.0
  0
LINE
  5
6A3
100
AcDbEntity
  8
LAY-1
  6
CONTINUOUS
 62
     1
100
AcDbLine
 10
311.887954
 20
-359.523721
 30
0.0
 11
306.387954
 21
-358.05
 31
0.0
  0
LINE
  5
6A4
100
AcDbEntity
  8
LAY-1
  6
CONTINUOUS
 62
     1
100
AcDbLine
 10
310.857609
 20
-358.05
 30
0.0
 11
299.887954
 21
-358.05
 31
0.0
  0
LINE
  5
6A5
100
AcDbEntity
  8
LAY-1
  6
CONTINUOUS
 62
     1
100
AcDbLine
 10
310.857609
 20
-348.898506
 30
0.0
 11
310.857609
 21
-358.05
 31
0.0
  0
LINE
  5
6A6
100
AcDbEntity
  8
LAY-1
  6
CONTINUOUS
 62
     1
100
AcDbLine
 10
309.387954
 20
-348.05
 30
0.0
 11
310.857609
 21
-348.898506
 31
0.0
  0
LINE
  5
6A7
100
AcDbEntity
  8
LAY-1
  6
CONTINUOUS
 62
     1
100
AcDbLine
 10
305.372781
 20
-348.898506
 30
0.0
 11
305.372781
 21
-358.05
 31
0.0
  0
ARC
  5
6A8
100
AcDbEntity
  8
LAY-1
  6
CONTINUOUS
 62
     1
100
AcDbCircle
 10
308.115195
 20
-352.906063
 30
0.0
 40
4.856063
100
AcDbArc
 50
55.615753
 51
124.384247
  0
LINE
  5
6A9
100
AcDbEntity
  8
LAY-1
  6
CONTINUOUS
 62
     1
100
AcDbLine
 10
299.887954
 20
-348.05
 30
0.0
 11
309.387954
 21
-348.05
 31
0.0
  0
ARC
  5
6AA
100
AcDbEntity
  8
LAY-1
  6
CONTINUOUS
 62
     1
100
AcDbCircle
 10
299.887954
 20
-366.201494
 30
0.0
 40
18.151494
100
AcDbArc
 50
72.412046
 51
90.0
  0
ARC
  5
6AB
100
AcDbEntity
  8
LAY-1
  6
CONTINUOUS
 62
     1
100
AcDbCircle
 10
299.887953
 20
-366.201494
 30
0.0
 40
18.151494
100
AcDbArc
 50
90.0
 51
107.587954
  0
LINE
  5
6AC
100
AcDbEntity
  8
LAY-1
  6
CONTINUOUS
 62
     1
100
AcDbLine
 10
290.387953
 20
-348.05
 30
0.0
 11
288.918298
 21
-348.898506
 31
0.0
  0
LINE
  5
6AD
100
AcDbEntity
  8
LAY-1
  6
CONTINUOUS
 62
     1
100
AcDbLine
 10
299.887953
 20
-348.05
 30
0.0
 11
290.387953
 21
-348.05
 31
0.0
  0
ARC
  5
6AE
100
AcDbEntity
  8
LAY-1
  6
CONTINUOUS
 62
     1
100
AcDbCircle
 10
291.660712
 20
-352.906063
 30
0.0
 40
4.856063
100
AcDbArc
 50
55.615753
 51
124.384247
  0
LINE
  5
6AF
100
AcDbEntity
  8
LAY-1
  6
CONTINUOUS
 62
     1
100
AcDbLine
 10
288.918298
 20
-348.898506
 30
0.0
 11
288.918298
 21
-358.05
 31
0.0
  0
LINE
  5
6B0
100
AcDbEntity
  8
LAY-1
  6
CONTINUOUS
 62
     1
100
AcDbLine
 10
288.918298
 20
-358.05
 30
0.0
 11
299.887953
 21
-358.05
 31
0.0
  0
LINE
  5
6B1
100
AcDbEntity
  8
LAY-1
  6
CONTINUOUS
 62
     1
100
AcDbLine
 10
287.887953
 20
-359.523721
 30
0.0
 11
293.387953
 21
-358.05
 31
0.0
  0
LINE
  5
6B2
100
AcDbEntity
  8
LAY-1
  6
CONTINUOUS
 62
     1
100
AcDbLine
 10
287.887953
 20
-359.523721
 30
0.0
 11
287.887953
 21
-360.75
 31
0.0
  0
LINE
  5
6B3
100
AcDbEntity
  8
LAY-1
  6
CONTINUOUS
 62
     1
100
AcDbLine
 10
299.887953
 20
-359.523721
 30
0.0
 11
287.887953
 21
-359.523721
 31
0.0
  0
LINE
  5
6B4
100
AcDbEntity
  8
LAY-1
  6
CONTINUOUS
 62
     1
100
AcDbLine
 10
293.887953
 20
-343.25
 30
0.0
 11
294.387953
 21
-342.75
 31
0.0
  0
LINE
  5
6B5
100
AcDbEntity
  8
LAY-1
  6
CONTINUOUS
 62
     1
100
AcDbLine
 10
305.887953
 20
-343.25
 30
0.0
 11
305.387953
 21
-342.75
 31
0.0
  0
LINE
  5
6B6
100
AcDbEntity
  8
LAY-1
  6
CONTINUOUS
 62
     1
100
AcDbLine
 10
305.387953
 20
-342.75
 30
0.0
 11
294.387953
 21
-342.75
 31
0.0
  0
LINE
  5
6B7
100
AcDbEntity
  8
LAY-1
  6
CONTINUOUS
 62
     1
100
AcDbLine
 10
293.887953
 20
-343.25
 30
0.0
 11
293.887953
 21
-348.05
 31
0.0
  0
LINE
  5
6B8
100
AcDbEntity
  8
LAY-1
  6
CONTINUOUS
 62
     1
100
AcDbLine
 10
305.887953
 20
-343.25
 30
0.0
 11
305.887953
 21
-348.05
 31
0.0
  0
LINE
  5
6B9
100
AcDbEntity
  8
LAY-1
  6
CONTINUOUS
 62
     1
100
AcDbLine
 10
294.403125
 20
-348.898506
 30
0.0
 11
294.403125
 21
-358.05
 31
0.0
  0
LINE
  5
6BA
100
AcDbEntity
  8
LAY-1
  6
CONTINUOUS
 62
     1
100
AcDbLine
 10
290.387953
 20
-400.732199
 30
0.0
 11
309.387953
 21
-400.732199
 31
0.0
  0
ARC
  5
6BB
100
AcDbEntity
  8
LAY-1
  6
CONTINUOUS
 62
     1
100
AcDbCircle
 10
308.115195
 20
-395.876135
 30
0.0
 40
4.856063
100
AcDbArc
 50
235.615753
 51
304.384247
  0
LINE
  5
6BC
100
AcDbEntity
  8
LAY-1
  6
CONTINUOUS
 62
     1
100
AcDbLine
 10
305.372781
 20
-392.732199
 30
0.0
 11
305.372781
 21
-399.883693
 31
0.0
  0
LINE
  5
6BD
100
AcDbEntity
  8
LAY-1
  6
CONTINUOUS
 62
     1
100
AcDbLine
 10
309.387953
 20
-400.732199
 30
0.0
 11
310.857608
 21
-399.883693
 31
0.0
  0
LINE
  5
6BE
100
AcDbEntity
  8
LAY-1
  6
CONTINUOUS
 62
     1
100
AcDbLine
 10
310.857608
 20
-399.883693
 30
0.0
 11
310.857608
 21
-392.732199
 31
0.0
  0
ARC
  5
6BF
100
AcDbEntity
  8
LAY-1
  6
CONTINUOUS
 62
     1
100
AcDbCircle
 10
299.887953
 20
-382.580704
 30
0.0
 40
18.151494
100
AcDbArc
 50
252.412046
 51
287.587954
  0
ARC
  5
6C0
100
AcDbEntity
  8
LAY-1
  6
CONTINUOUS
 62
     1
100
AcDbCircle
 10
291.660712
 20
-395.876135
 30
0.0
 40
4.856063
100
AcDbArc
 50
235.615753
 51
304.384247
  0
LINE
  5
6C1
100
AcDbEntity
  8
LAY-1
  6
CONTINUOUS
 62
     1
100
AcDbLine
 10
294.403126
 20
-399.883693
 30
0.0
 11
294.403126
 21
-392.732199
 31
0.0
  0
LINE
  5
6C2
100
AcDbEntity
  8
LAY-1
  6
CONTINUOUS
 62
     1
100
AcDbLine
 10
288.918298
 20
-399.883693
 30
0.0
 11
290.387953
 21
-400.732199
 31
0.0
  0
LINE
  5
6C3
100
AcDbEntity
  8
LAY-1
  6
CONTINUOUS
 62
     1
100
AcDbLine
 10
288.918298
 20
-392.732199
 30
0.0
 11
288.918298
 21
-399.883693
 31
0.0
  0
LINE
  5
6C4
100
AcDbEntity
  8
LAY-1
  6
CONTINUOUS
 62
     1
100
AcDbLine
 10
252.446246
 20
232.435141
 30
0.0
 11
256.644151
 21
242.569781
 31
0.0
  0
LINE
  5
6C5
100
AcDbEntity
  8
LAY-1
  6
CONTINUOUS
 62
     1
100
AcDbLine
 10
256.644151
 20
242.569781
 30
0.0
 11
249.966249
 21
251.272593
 31
0.0
  0
LINE
  5
6C6
100
AcDbEntity
  8
LAY-1
  6
CONTINUOUS
 62
     1
100
AcDbLine
 10
249.966249
 20
251.272593
 30
0.0
 11
239.09044
 21
249.840766
 31
0.0
  0
LINE
  5
6C7
100
AcDbEntity
  8
LAY-1
  6
CONTINUOUS
 62
     1
100
AcDbLine
 10
239.09044
 20
249.840766
 30
0.0
 11
234.892535
 21
239.706126
 31
0.0
  0
LINE
  5
6C8
100
AcDbEntity
  8
LAY-1
  6
CONTINUOUS
 62
     1
100
AcDbLine
 10
234.892535
 20
239.706126
 30
0.0
 11
241.570438
 21
231.003313
 31
0.0
  0
LINE
  5
6C9
100
AcDbEntity
  8
LAY-1
  6
CONTINUOUS
 62
     1
100
AcDbLine
 10
241.570438
 20
231.003313
 30
0.0
 11
252.446246
 21
232.435141
 31
0.0
  0
LINE
  5
6CA
100
AcDbEntity
  8
LAY-1
  6
CONTINUOUS
 62
     1
100
AcDbLine
 10
162.553754
 20
232.435141
 30
0.0
 11
158.355849
 21
242.569781
 31
0.0
  0
LINE
  5
6CB
100
AcDbEntity
  8
LAY-1
  6
CONTINUOUS
 62
     1
100
AcDbLine
 10
158.355849
 20
242.569781
 30
0.0
 11
165.033751
 21
251.272593
 31
0.0
  0
LINE
  5
6CC
100
AcDbEntity
  8
LAY-1
  6
CONTINUOUS
 62
     1
100
AcDbLine
 10
165.033751
 20
251.272593
 30
0.0
 11
175.90956
 21
249.840766
 31
0.0
  0
LINE
  5
6CD
100
AcDbEntity
  8
LAY-1
  6
CONTINUOUS
 62
     1
100
AcDbLine
 10
175.90956
 20
249.840766
 30
0.0
 11
180.107465
 21
239.706126
 31
0.0
  0
LINE
  5
6CE
100
AcDbEntity
  8
LAY-1
  6
CONTINUOUS
 62
     1
100
AcDbLine
 10
180.107465
 20
239.706126
 30
0.0
 11
173.429562
 21
231.003313
 31
0.0
  0
LINE
  5
6CF
100
AcDbEntity
  8
LAY-1
  6
CONTINUOUS
 62
     1
100
AcDbLine
 10
173.429562
 20
231.003313
 30
0.0
 11
162.553754
 21
232.435141
 31
0.0
  0
CIRCLE
  5
6D0
100
AcDbEntity
  8
LAY-1
  6
CONTINUOUS
 62
     1
100
AcDbCircle
 10
245.768343
 20
241.137953
 30
0.0
 40
9.5
  0
CIRCLE
  5
6D1
100
AcDbEntity
  8
LAY-1
  6
CONTINUOUS
 62
     1
100
AcDbCircle
 10
169.231657
 20
241.137953
 30
0.0
 40
9.5
  0
LINE
  5
6D2
100
AcDbEntity
  8
LAY-1
  6
CONTINUOUS
 62
     1
100
AcDbLine
 10
298.456126
 20
176.142535
 30
0.0
 11
308.590766
 21
180.34044
 31
0.0
  0
LINE
  5
6D3
100
AcDbEntity
  8
LAY-1
  6
CONTINUOUS
 62
     1
100
AcDbLine
 10
308.590766
 20
180.34044
 30
0.0
 11
310.022593
 21
191.216249
 31
0.0
  0
LINE
  5
6D4
100
AcDbEntity
  8
LAY-1
  6
CONTINUOUS
 62
     1
100
AcDbLine
 10
310.022593
 20
191.216249
 30
0.0
 11
301.319781
 21
197.894151
 31
0.0
  0
LINE
  5
6D5
100
AcDbEntity
  8
LAY-1
  6
CONTINUOUS
 62
     1
100
AcDbLine
 10
301.319781
 20
197.894151
 30
0.0
 11
291.185141
 21
193.696246
 31
0.0
  0
LINE
  5
6D6
100
AcDbEntity
  8
LAY-1
  6
CONTINUOUS
 62
     1
100
AcDbLine
 10
291.185141
 20
193.696246
 30
0.0
 11
289.753313
 21
182.820438
 31
0.0
  0
LINE
  5
6D7
100
AcDbEntity
  8
LAY-1
  6
CONTINUOUS
 62
     1
100
AcDbLine
 10
289.753313
 20
182.820438
 30
0.0
 11
298.456126
 21
176.142535
 31
0.0
  0
CIRCLE
  5
6D8
100
AcDbEntity
  8
LAY-1
  6
CONTINUOUS
 62
     1
100
AcDbCircle
 10
299.887953
 20
187.018343
 30
0.0
 40
9.5
  0
LINE
  5
6D9
100
AcDbEntity
  8
LAY-1
  6
CONTINUOUS
 62
     1
100
AcDbLine
 10
298.456126
 20
121.357465
 30
0.0
 11
308.590766
 21
117.15956
 31
0.0
  0
LINE
  5
6DA
100
AcDbEntity
  8
LAY-1
  6
CONTINUOUS
 62
     1
100
AcDbLine
 10
308.590766
 20
117.15956
 30
0.0
 11
310.022593
 21
106.283751
 31
0.0
  0
LINE
  5
6DB
100
AcDbEntity
  8
LAY-1
  6
CONTINUOUS
 62
     1
100
AcDbLine
 10
310.022593
 20
106.283751
 30
0.0
 11
301.319781
 21
99.605849
 31
0.0
  0
LINE
  5
6DC
100
AcDbEntity
  8
LAY-1
  6
CONTINUOUS
 62
     1
100
AcDbLine
 10
301.319781
 20
99.605849
 30
0.0
 11
291.185141
 21
103.803754
 31
0.0
  0
LINE
  5
6DD
100
AcDbEntity
  8
LAY-1
  6
CONTINUOUS
 62
     1
100
AcDbLine
 10
291.185141
 20
103.803754
 30
0.0
 11
289.753313
 21
114.679562
 31
0.0
  0
LINE
  5
6DE
100
AcDbEntity
  8
LAY-1
  6
CONTINUOUS
 62
     1
100
AcDbLine
 10
289.753313
 20
114.679562
 30
0.0
 11
298.456126
 21
121.357465
 31
0.0
  0
CIRCLE
  5
6DF
100
AcDbEntity
  8
LAY-1
  6
CONTINUOUS
 62
     1
100
AcDbCircle
 10
299.887953
 20
110.481657
 30
0.0
 40
9.5
  0
LINE
  5
6E0
100
AcDbEntity
  8
LAY-1
  6
CONTINUOUS
 62
     1
100
AcDbLine
 10
252.446246
 20
65.064859
 30
0.0
 11
256.644151
 21
54.930219
 31
0.0
  0
LINE
  5
6E1
100
AcDbEntity
  8
LAY-1
  6
CONTINUOUS
 62
     1
100
AcDbLine
 10
256.644151
 20
54.930219
 30
0.0
 11
249.966249
 21
46.227407
 31
0.0
  0
LINE
  5
6E2
100
AcDbEntity
  8
LAY-1
  6
CONTINUOUS
 62
     1
100
AcDbLine
 10
249.966249
 20
46.227407
 30
0.0
 11
239.09044
 21
47.659234
 31
0.0
  0
LINE
  5
6E3
100
AcDbEntity
  8
LAY-1
  6
CONTINUOUS
 62
     1
100
AcDbLine
 10
239.09044
 20
47.659234
 30
0.0
 11
234.892535
 21
57.793874
 31
0.0
  0
LINE
  5
6E4
100
AcDbEntity
  8
LAY-1
  6
CONTINUOUS
 62
     1
100
AcDbLine
 10
234.892535
 20
57.793874
 30
0.0
 11
241.570438
 21
66.496687
 31
0.0
  0
LINE
  5
6E5
100
AcDbEntity
  8
LAY-1
  6
CONTINUOUS
 62
     1
100
AcDbLine
 10
241.570438
 20
66.496687
 30
0.0
 11
252.446246
 21
65.064859
 31
0.0
  0
CIRCLE
  5
6E6
100
AcDbEntity
  8
LAY-1
  6
CONTINUOUS
 62
     1
100
AcDbCircle
 10
245.768343
 20
56.362047
 30
0.0
 40
9.5
  0
LINE
  5
6E7
100
AcDbEntity
  8
LAY-1
  6
CONTINUOUS
 62
     1
100
AcDbLine
 10
162.553754
 20
65.064859
 30
0.0
 11
158.355849
 21
54.930219
 31
0.0
  0
LINE
  5
6E8
100
AcDbEntity
  8
LAY-1
  6
CONTINUOUS
 62
     1
100
AcDbLine
 10
158.355849
 20
54.930219
 30
0.0
 11
165.033751
 21
46.227407
 31
0.0
  0
LINE
  5
6E9
100
AcDbEntity
  8
LAY-1
  6
CONTINUOUS
 62
     1
100
AcDbLine
 10
165.033751
 20
46.227407
 30
0.0
 11
175.90956
 21
47.659234
 31
0.0
  0
LINE
  5
6EA
100
AcDbEntity
  8
LAY-1
  6
CONTINUOUS
 62
     1
100
AcDbLine
 10
175.90956
 20
47.659234
 30
0.0
 11
180.107465
 21
57.793874
 31
0.0
  0
LINE
  5
6EB
100
AcDbEntity
  8
LAY-1
  6
CONTINUOUS
 62
     1
100
AcDbLine
 10
180.107465
 20
57.793874
 30
0.0
 11
173.429562
 21
66.496687
 31
0.0
  0
LINE
  5
6EC
100
AcDbEntity
  8
LAY-1
  6
CONTINUOUS
 62
     1
100
AcDbLine
 10
173.429562
 20
66.496687
 30
0.0
 11
162.553754
 21
65.064859
 31
0.0
  0
CIRCLE
  5
6ED
100
AcDbEntity
  8
LAY-1
  6
CONTINUOUS
 62
     1
100
AcDbCircle
 10
169.231657
 20
56.362047
 30
0.0
 40
9.5
  0
LINE
  5
6EE
100
AcDbEntity
  8
LAY-1
  6
CONTINUOUS
 62
     1
100
AcDbLine
 10
116.543874
 20
121.357465
 30
0.0
 11
106.409234
 21
117.15956
 31
0.0
  0
LINE
  5
6EF
100
AcDbEntity
  8
LAY-1
  6
CONTINUOUS
 62
     1
100
AcDbLine
 10
106.409234
 20
117.15956
 30
0.0
 11
104.977407
 21
106.283751
 31
0.0
  0
LINE
  5
6F0
100
AcDbEntity
  8
LAY-1
  6
CONTINUOUS
 62
     1
100
AcDbLine
 10
104.977407
 20
106.283751
 30
0.0
 11
113.680219
 21
99.605849
 31
0.0
  0
LINE
  5
6F1
100
AcDbEntity
  8
LAY-1
  6
CONTINUOUS
 62
     1
100
AcDbLine
 10
113.680219
 20
99.605849
 30
0.0
 11
123.814859
 21
103.803754
 31
0.0
  0
LINE
  5
6F2
100
AcDbEntity
  8
LAY-1
  6
CONTINUOUS
 62
     1
100
AcDbLine
 10
123.814859
 20
103.803754
 30
0.0
 11
125.246687
 21
114.679562
 31
0.0
  0
LINE
  5
6F3
100
AcDbEntity
  8
LAY-1
  6
CONTINUOUS
 62
     1
100
AcDbLine
 10
125.246687
 20
114.679562
 30
0.0
 11
116.543874
 21
121.357465
 31
0.0
  0
CIRCLE
  5
6F4
100
AcDbEntity
  8
LAY-1
  6
CONTINUOUS
 62
     1
100
AcDbCircle
 10
115.112047
 20
110.481657
 30
0.0
 40
9.5
  0
LINE
  5
6F5
100
AcDbEntity
  8
LAY-1
  6
CONTINUOUS
 62
     1
100
AcDbLine
 10
116.543874
 20
176.142535
 30
0.0
 11
106.409234
 21
180.34044
 31
0.0
  0
LINE
  5
6F6
100
AcDbEntity
  8
LAY-1
  6
CONTINUOUS
 62
     1
100
AcDbLine
 10
106.409234
 20
180.34044
 30
0.0
 11
104.977407
 21
191.216249
 31
0.0
  0
LINE
  5
6F7
100
AcDbEntity
  8
LAY-1
  6
CONTINUOUS
 62
     1
100
AcDbLine
 10
104.977407
 20
191.216249
 30
0.0
 11
113.680219
 21
197.894151
 31
0.0
  0
LINE
  5
6F8
100
AcDbEntity
  8
LAY-1
  6
CONTINUOUS
 62
     1
100
AcDbLine
 10
113.680219
 20
197.894151
 30
0.0
 11
123.814859
 21
193.696246
 31
0.0
  0
LINE
  5
6F9
100
AcDbEntity
  8
LAY-1
  6
CONTINUOUS
 62
     1
100
AcDbLine
 10
123.814859
 20
193.696246
 30
0.0
 11
125.246687
 21
182.820438
 31
0.0
  0
LINE
  5
6FA
100
AcDbEntity
  8
LAY-1
  6
CONTINUOUS
 62
     1
100
AcDbLine
 10
125.246687
 20
182.820438
 30
0.0
 11
116.543874
 21
176.142535
 31
0.0
  0
CIRCLE
  5
6FB
100
AcDbEntity
  8
LAY-1
  6
CONTINUOUS
 62
     1
100
AcDbCircle
 10
115.112047
 20
187.018343
 30
0.0
 40
9.5
  0
LINE
  5
6FC
100
AcDbEntity
  8
LAY-1
  6
EXLTYPE3
 62
     1
100
AcDbLine
 10
207.5
 20
310.25
 30
0.0
 11
207.5
 21
-12.75
 31
0.0
  0
LINE
  5
6FD
100
AcDbEntity
  8
LAY-1
  6
EXLTYPE3
 62
     1
100
AcDbLine
 10
207.5
 20
-90.0
 30
0.0
 11
207.5
 21
-561.0
 31
0.0
  0
LINE
  5
6FE
100
AcDbEntity
  8
LAY-1
  6
EXLTYPE3
 62
     1
100
AcDbLine
 10
346.0
 20
148.75
 30
0.0
 11
69.0
 21
148.75
 31
0.0
  0
LINE
  5
6FF
100
AcDbEntity
  8
LAY-1
  6
EXLTYPE3
 62
     1
100
AcDbLine
 10
207.5
 20
387.5
 30
0.0
 11
207.5
 21
858.5
 31
0.0
  0
ARC
  5
700
100
AcDbEntity
  8
LAY-1
  6
CONTINUOUS
 62
     2
100
AcDbCircle
 10
-715.953766
 20
148.75
 30
0.0
 40
357.0
100
AcDbArc
 50
344.032069
 51
347.409918
  0
ARC
  5
701
100
AcDbEntity
  8
LAY-1
  6
CONTINUOUS
 62
     2
100
AcDbCircle
 10
-85.046234
 20
148.75
 30
0.0
 40
357.0
100
AcDbArc
 50
185.548314
 51
195.967931
  0
ARC
  5
702
100
AcDbEntity
  8
LAY-1
  6
CONTINUOUS
 62
     2
100
AcDbCircle
 10
500.046234
 20
148.75
 30
0.0
 40
357.0
100
AcDbArc
 50
344.032069
 51
354.451686
  0
ARC
  5
703
100
AcDbEntity
  8
LAY-1
  6
CONTINUOUS
 62
     2
100
AcDbCircle
 10
1130.953766
 20
148.75
 30
0.0
 40
357.0
100
AcDbArc
 50
192.590082
 51
195.967931
  0
LINE
  5
704
100
AcDbEntity
  8
LAY-1
  6
CONTINUOUS
 62
     2
100
AcDbLine
 10
276.16309
 20
-402.338698
 30
0.0
 11
235.598437
 21
-403.755246
 31
0.0
  0
LINE
  5
705
100
AcDbEntity
  8
LAY-1
  6
CONTINUOUS
 62
     2
100
AcDbLine
 10
138.83691
 20
-402.338698
 30
0.0
 11
179.401563
 21
-403.755246
 31
0.0
  0
LINE
  5
706
100
AcDbEntity
  8
LAY-1
  6
CONTINUOUS
 62
     2
100
AcDbLine
 10
235.598437
 20
-403.755246
 30
0.0
 11
179.401563
 21
-403.755246
 31
0.0
  0
ARC
  5
707
100
AcDbEntity
  8
LAY-1
  6
CONTINUOUS
 62
     2
100
AcDbCircle
 10
247.5
 20
-413.34573
 30
0.0
 40
10.0
100
AcDbArc
 50
92.0
 51
177.492106
  0
ARC
  5
708
100
AcDbEntity
  8
LAY-1
  6
CONTINUOUS
 62
     2
100
AcDbCircle
 10
167.5
 20
-413.34573
 30
0.0
 40
10.0
100
AcDbArc
 50
2.507894
 51
88.0
  0
LINE
  5
709
100
AcDbEntity
  8
LAY-1
  6
CONTINUOUS
 62
     2
100
AcDbLine
 10
235.598437
 20
701.255246
 30
0.0
 11
179.401563
 21
701.255246
 31
0.0
  0
LINE
  5
70A
100
AcDbEntity
  8
LAY-1
  6
CONTINUOUS
 62
     2
100
AcDbLine
 10
235.598437
 20
701.255246
 30
0.0
 11
179.401563
 21
701.255246
 31
0.0
  0
LINE
  5
70B
100
AcDbEntity
  8
LAY-1
  6
CONTINUOUS
 62
     2
100
AcDbLine
 10
276.16309
 20
699.838698
 30
0.0
 11
235.598437
 21
701.255246
 31
0.0
  0
LINE
  5
70C
100
AcDbEntity
  8
LAY-1
  6
CONTINUOUS
 62
     2
100
AcDbLine
 10
138.83691
 20
699.838698
 30
0.0
 11
179.401563
 21
701.255246
 31
0.0
  0
ARC
  5
70D
100
AcDbEntity
  8
LAY-1
  6
CONTINUOUS
 62
     3
100
AcDbCircle
 10
64.0
 20
148.75
 30
0.0
 40
220.076784
100
AcDbArc
 50
172.69894
 51
187.30106
  0
LINE
  5
70E
100
AcDbEntity
  8
LAY-3
  6
CONTINUOUS
 62
     1
100
AcDbLine
 10
-434.0
 20
291.25
 30
0.0
 11
-510.7
 21
291.25
 31
0.0
  0
LINE
  5
70F
100
AcDbEntity
  8
LAY-3
  6
CONTINUOUS
 62
     1
100
AcDbLine
 10
-463.0
 20
6.25
 30
0.0
 11
-510.7
 21
6.25
 31
0.0
  0
LINE
  5
710
100
AcDbEntity
  8
LAY-3
  6
CONTINUOUS
 62
     1
100
AcDbLine
 10
-510.2
 20
291.25
 30
0.0
 11
-510.2
 21
6.25
 31
0.0
  0
LINE
  5
711
100
AcDbEntity
  8
LAY-3
  6
CONTINUOUS
 62
     1
100
AcDbLine
 10
-509.866667
 20
289.25
 30
0.0
 11
-510.2
 21
291.25
 31
0.0
  0
LINE
  5
712
100
AcDbEntity
  8
LAY-3
  6
CONTINUOUS
 62
     1
100
AcDbLine
 10
-510.2
 20
291.25
 30
0.0
 11
-510.533333
 21
289.25
 31
0.0
  0
LINE
  5
713
100
AcDbEntity
  8
LAY-3
  6
CONTINUOUS
 62
     1
100
AcDbLine
 10
-510.533333
 20
8.25
 30
0.0
 11
-510.2
 21
6.25
 31
0.0
  0
LINE
  5
714
100
AcDbEntity
  8
LAY-3
  6
CONTINUOUS
 62
     1
100
AcDbLine
 10
-510.2
 20
6.25
 30
0.0
 11
-509.866667
 21
8.25
 31
0.0
  0
TEXT
  5
715
100
AcDbEntity
  8
LAY-3
  6
CONTINUOUS
 62
     3
100
AcDbText
 10
-511.2
 20
111.25
 30
0.0
 40
25.0
  1
２８５
 50
90.0
 41
0.84
  7
EXCADSTD
 72
     5
 11
-511.2
 21
186.25
 31
0.0
100
AcDbText
  0
LINE
  5
716
100
AcDbEntity
  8
LAY-3
  6
CONTINUOUS
 62
     1
100
AcDbLine
 10
-400.5
 20
-15.25
 30
0.0
 11
-400.5
 21
-120.5
 31
0.0
  0
LINE
  5
717
100
AcDbEntity
  8
LAY-3
  6
CONTINUOUS
 62
     1
100
AcDbLine
 10
-465.5
 20
-120.0
 30
0.0
 11
-400.5
 21
-120.0
 31
0.0
  0
LINE
  5
718
100
AcDbEntity
  8
LAY-3
  6
CONTINUOUS
 62
     1
100
AcDbLine
 10
-463.5
 20
-119.666667
 30
0.0
 11
-465.5
 21
-120.0
 31
0.0
  0
LINE
  5
719
100
AcDbEntity
  8
LAY-3
  6
CONTINUOUS
 62
     1
100
AcDbLine
 10
-465.5
 20
-120.0
 30
0.0
 11
-463.5
 21
-120.333333
 31
0.0
  0
LINE
  5
71A
100
AcDbEntity
  8
LAY-3
  6
CONTINUOUS
 62
     1
100
AcDbLine
 10
-402.5
 20
-120.333333
 30
0.0
 11
-400.5
 21
-120.0
 31
0.0
  0
LINE
  5
71B
100
AcDbEntity
  8
LAY-3
  6
CONTINUOUS
 62
     1
100
AcDbLine
 10
-400.5
 20
-120.0
 30
0.0
 11
-402.5
 21
-119.666667
 31
0.0
  0
TEXT
  5
71C
100
AcDbEntity
  8
LAY-3
  6
CONTINUOUS
 62
     3
100
AcDbText
 10
-458.0
 20
-119.0
 30
0.0
 40
25.0
  1
６５
 41
0.84
  7
EXCADSTD
 72
     5
 11
-412.17
 21
-119.0
 31
0.0
100
AcDbText
  0
LINE
  5
71D
100
AcDbEntity
  8
LAY-3
  6
CONTINUOUS
 62
     1
100
AcDbLine
 10
-465.5
 20
130.75
 30
0.0
 11
-465.5
 21
-120.5
 31
0.0
  0
TEXT
  5
71E
100
AcDbEntity
  8
LAY-3
  6
CONTINUOUS
 62
     3
100
AcDbText
 10
-397.508901
 20
-119.0
 30
0.0
 40
25.0
  1
約３２０(０.０７ＭＰａ 設定時)
 41
0.642231
  7
EXCADSTD
 72
     5
 11
-86.508901
 21
-119.0
 31
0.0
100
AcDbText
  0
LINE
  5
71F
100
AcDbEntity
  8
LAY-3
  6
CONTINUOUS
 62
     1
100
AcDbLine
 10
-83.517801
 20
148.749998
 30
0.0
 11
-83.517801
 21
-120.5
 31
0.0
  0
LINE
  5
720
100
AcDbEntity
  8
LAY-3
  6
CONTINUOUS
 62
     1
100
AcDbLine
 10
-400.5
 20
-120.0
 30
0.0
 11
-83.517801
 21
-120.0
 31
0.0
  0
LINE
  5
721
100
AcDbEntity
  8
LAY-3
  6
CONTINUOUS
 62
     1
100
AcDbLine
 10
-398.5
 20
-119.666667
 30
0.0
 11
-400.5
 21
-120.0
 31
0.0
  0
LINE
  5
722
100
AcDbEntity
  8
LAY-3
  6
CONTINUOUS
 62
     1
100
AcDbLine
 10
-400.5
 20
-120.0
 30
0.0
 11
-398.5
 21
-120.333333
 31
0.0
  0
LINE
  5
723
100
AcDbEntity
  8
LAY-3
  6
CONTINUOUS
 62
     1
100
AcDbLine
 10
-85.517801
 20
-120.333333
 30
0.0
 11
-83.517801
 21
-120.0
 31
0.0
  0
LINE
  5
724
100
AcDbEntity
  8
LAY-3
  6
CONTINUOUS
 62
     1
100
AcDbLine
 10
-83.517801
 20
-120.0
 30
0.0
 11
-85.517801
 21
-119.666667
 31
0.0
  0
LINE
  5
725
100
AcDbEntity
  8
LAY-3
  6
CONTINUOUS
 62
     1
100
AcDbLine
 10
-295.517801
 20
260.75
 30
0.0
 11
13.5
 21
260.75
 31
0.0
  0
LINE
  5
726
100
AcDbEntity
  8
LAY-3
  6
CONTINUOUS
 62
     1
100
AcDbLine
 10
-295.517801
 20
36.75
 30
0.0
 11
13.5
 21
36.75
 31
0.0
  0
LINE
  5
727
100
AcDbEntity
  8
LAY-3
  6
CONTINUOUS
 62
     1
100
AcDbLine
 10
13.0
 20
260.75
 30
0.0
 11
13.0
 21
36.75
 31
0.0
  0
LINE
  5
728
100
AcDbEntity
  8
LAY-3
  6
CONTINUOUS
 62
     1
100
AcDbLine
 10
13.333333
 20
258.75
 30
0.0
 11
13.0
 21
260.75
 31
0.0
  0
LINE
  5
729
100
AcDbEntity
  8
LAY-3
  6
CONTINUOUS
 62
     1
100
AcDbLine
 10
13.0
 20
260.75
 30
0.0
 11
12.666667
 21
258.75
 31
0.0
  0
LINE
  5
72A
100
AcDbEntity
  8
LAY-3
  6
CONTINUOUS
 62
     1
100
AcDbLine
 10
12.666667
 20
38.75
 30
0.0
 11
13.0
 21
36.75
 31
0.0
  0
LINE
  5
72B
100
AcDbEntity
  8
LAY-3
  6
CONTINUOUS
 62
     1
100
AcDbLine
 10
13.0
 20
36.75
 30
0.0
 11
13.333333
 21
38.75
 31
0.0
  0
TEXT
  5
72C
100
AcDbEntity
  8
LAY-3
  6
CONTINUOUS
 62
     3
100
AcDbText
 10
12.0
 20
98.75
 30
0.0
 40
25.0
  1
φ
 50
90.0
 41
0.84
  7
EXCADSTD
 72
     5
 11
12.0
 21
118.75
 31
0.0
100
AcDbText
  0
TEXT
  5
72D
100
AcDbEntity
  8
LAY-3
  6
CONTINUOUS
 62
     3
100
AcDbText
 10
12.0
 20
123.75
 30
0.0
 40
25.0
  1
２２４
 50
90.0
 41
0.84
  7
EXCADSTD
 72
     5
 11
12.0
 21
198.75
 31
0.0
100
AcDbText
  0
TEXT
  5
72E
100
AcDbEntity
  8
LAY-3
  6
CONTINUOUS
 62
     3
100
AcDbText
 10
-227.0
 20
6.3
 30
0.0
 40
25.0
  1
Ｒｃ１／４
 41
0.84
  7
EXCADSTD
 72
     5
 11
-102.0
 21
6.3
 31
0.0
100
AcDbText
  0
POLYLINE
  5
72F
100
AcDbEntity
  8
LAY-3
  6
CONTINUOUS
 62
     1
100
AcDb2dPolyline
 66
     1
 10
0.0
 20
0.0
 30
0.0
 70
   128
  0
VERTEX
  5
730
100
AcDbEntity
  8
LAY-3
  6
CONTINUOUS
 62
     1
100
AcDbVertex
100
AcDb2dVertex
 10
-269.659819
 20
142.590938
 30
0.0
  0
VERTEX
  5
731
100
AcDbEntity
  8
LAY-3
  6
CONTINUOUS
 62
     1
100
AcDbVertex
100
AcDb2dVertex
 10
-236.0
 20
6.0
 30
0.0
  0
VERTEX
  5
732
100
AcDbEntity
  8
LAY-3
  6
CONTINUOUS
 62
     1
100
AcDbVertex
100
AcDb2dVertex
 10
-93.0
 20
6.0
 30
0.0
  0
SEQEND
  5
733
100
AcDbEntity
  8
LAY-3
  6
CONTINUOUS
 62
     1
  0
LINE
  5
734
100
AcDbEntity
  8
LAY-3
  6
CONTINUOUS
 62
     1
100
AcDbLine
 10
-269.058176
 20
141.194326
 30
0.0
 11
-269.659819
 21
142.590938
 31
0.0
  0
LINE
  5
735
100
AcDbEntity
  8
LAY-3
  6
CONTINUOUS
 62
     1
100
AcDbLine
 10
-269.659819
 20
142.590938
 30
0.0
 11
-269.543652
 21
141.074691
 31
0.0
  0
POLYLINE
  5
736
100
AcDbEntity
  8
LAY-3
  6
CONTINUOUS
 62
     1
100
AcDb2dPolyline
 66
     1
 10
0.0
 20
0.0
 30
0.0
 70
   128
  0
VERTEX
  5
737
100
AcDbEntity
  8
LAY-3
  6
CONTINUOUS
 62
     1
100
AcDbVertex
100
AcDb2dVertex
 10
-347.0
 20
290.25
 30
0.0
  0
VERTEX
  5
738
100
AcDbEntity
  8
LAY-3
  6
CONTINUOUS
 62
     1
100
AcDbVertex
100
AcDb2dVertex
 10
-312.125
 20
325.125
 30
0.0
  0
VERTEX
  5
739
100
AcDbEntity
  8
LAY-3
  6
CONTINUOUS
 62
     1
100
AcDbVertex
100
AcDb2dVertex
 10
-15.0
 20
325.125
 30
0.0
  0
SEQEND
  5
73A
100
AcDbEntity
  8
LAY-3
  6
CONTINUOUS
 62
     1
  0
LINE
  5
73B
100
AcDbEntity
  8
LAY-3
  6
CONTINUOUS
 62
     1
100
AcDbLine
 10
-346.116117
 20
291.487437
 30
0.0
 11
-347.0
 21
290.25
 31
0.0
  0
LINE
  5
73C
100
AcDbEntity
  8
LAY-3
  6
CONTINUOUS
 62
     1
100
AcDbLine
 10
-347.0
 20
290.25
 30
0.0
 11
-345.762563
 21
291.133883
 31
0.0
  0
TEXT
  5
73D
100
AcDbEntity
  8
LAY-3
  6
CONTINUOUS
 62
     3
100
AcDbText
 10
-341.5625
 20
325.425
 30
0.0
 40
25.0
  1
ＪＩＳ２０Ｋ　２５Ａフランジ
 41
0.84
  7
EXCADSTD
 72
     5
 11
8.4375
 21
325.425
 31
0.0
100
AcDbText
  0
TEXT
  5
73E
100
AcDbEntity
  8
LAY-3
  6
CONTINUOUS
 62
     3
100
AcDbText
 10
-853.428569
 20
-42.194868
 30
0.0
 40
25.0
  1
ＪＩＳ１０Ｋ　２５Ａフランジ
 41
0.84
  7
EXCADSTD
 72
     5
 11
-503.428569
 21
-42.194868
 31
0.0
100
AcDbText
  0
POLYLINE
  5
73F
100
AcDbEntity
  8
LAY-3
  6
CONTINUOUS
 62
     1
100
AcDb2dPolyline
 66
     1
 10
0.0
 20
0.0
 30
0.0
 70
   128
  0
VERTEX
  5
740
100
AcDbEntity
  8
LAY-3
  6
CONTINUOUS
 62
     1
100
AcDbVertex
100
AcDb2dVertex
 10
-413.0
 20
6.25
 30
0.0
  0
VERTEX
  5
741
100
AcDbEntity
  8
LAY-3
  6
CONTINUOUS
 62
     1
100
AcDbVertex
100
AcDb2dVertex
 10
-497.0
 20
-42.494868
 30
0.0
  0
VERTEX
  5
742
100
AcDbEntity
  8
LAY-3
  6
CONTINUOUS
 62
     1
100
AcDbVertex
100
AcDb2dVertex
 10
-870.0
 20
-42.494868
 30
0.0
  0
SEQEND
  5
743
100
AcDbEntity
  8
LAY-3
  6
CONTINUOUS
 62
     1
  0
LINE
  5
744
100
AcDbEntity
  8
LAY-3
  6
CONTINUOUS
 62
     1
100
AcDbLine
 10
-414.171903
 20
5.280905
 30
0.0
 11
-413.0
 21
6.25
 31
0.0
  0
LINE
  5
745
100
AcDbEntity
  8
LAY-3
  6
CONTINUOUS
 62
     1
100
AcDbLine
 10
-413.0
 20
6.25
 30
0.0
 11
-414.422857
 21
5.713365
 31
0.0
  0
TEXT
  5
746
100
AcDbEntity
  8
LAY-5
  6
CONTINUOUS
 62
     3
100
AcDbText
 10
615.904
 20
-321.184
 30
0.0
 40
20.0
  1
二段式一次用調整器
 41
0.84
  7
EXCADSTD
 72
     5
 11
795.904
 21
-321.184
 31
0.0
100
AcDbText
  0
TEXT
  5
747
100
AcDbEntity
  8
LAY-5
  6
CONTINUOUS
 62
     3
100
AcDbText
 10
555.44
 20
-293.04
 30
0.0
 40
20.0
  1
型式
 41
0.984714
  7
EXCADSTD
 72
     5
 11
598.420406
 21
-293.04
 31
0.0
100
AcDbText
  0
TEXT
  5
748
100
AcDbEntity
  8
LAY-5
  6
CONTINUOUS
 62
     3
100
AcDbText
 10
554.96
 20
-321.2
 30
0.0
 40
20.0
  1
品名
 41
0.984714
  7
EXCADSTD
 72
     5
 11
597.940406
 21
-321.2
 31
0.0
100
AcDbText
  0
LINE
  5
749
100
AcDbEntity
  8
LAY-5
  6
CONTINUOUS
 62
     4
100
AcDbLine
 10
546.0
 20
-349.6
 30
0.0
 11
904.4
 21
-349.6
 31
0.0
  0
LINE
  5
74A
100
AcDbEntity
  8
LAY-5
  6
CONTINUOUS
 62
     1
100
AcDbLine
 10
546.0
 20
-325.2
 30
0.0
 11
904.4
 21
-325.2
 31
0.0
  0
TEXT
  5
74B
100
AcDbEntity
  8
LAY-5
  6
CONTINUOUS
 62
     3
100
AcDbText
 10
673.36
 20
-346.96
 30
0.0
 40
20.0
  1
外観図
 41
1.47392
  7
EXCADSTD
 72
     5
 11
778.639999
 21
-346.96
 31
0.0
100
AcDbText
  0
LINE
  5
74C
100
AcDbEntity
  8
LAY-5
  6
CONTINUOUS
 62
     4
100
AcDbLine
 10
546.0
 20
-241.2
 30
0.0
 11
904.4
 21
-241.2
 31
0.0
  0
LINE
  5
74D
100
AcDbEntity
  8
LAY-5
  6
CONTINUOUS
 62
     1
100
AcDbLine
 10
546.0
 20
-297.2
 30
0.0
 11
904.4
 21
-297.2
 31
0.0
  0
LINE
  5
74E
100
AcDbEntity
  8
LAY-5
  6
CONTINUOUS
 62
     1
100
AcDbLine
 10
546.0
 20
-269.2
 30
0.0
 11
904.4
 21
-269.2
 31
0.0
  0
LINE
  5
74F
100
AcDbEntity
  8
LAY-5
  6
CONTINUOUS
 62
     1
100
AcDbLine
 10
606.0
 20
-241.2
 30
0.0
 11
606.0
 21
-325.2
 31
0.0
  0
LINE
  5
750
100
AcDbEntity
  8
LAY-5
  6
CONTINUOUS
 62
     4
100
AcDbLine
 10
546.0
 20
-374.0
 30
0.0
 11
904.4
 21
-374.0
 31
0.0
  0
LINE
  5
751
100
AcDbEntity
  8
LAY-5
  6
CONTINUOUS
 62
     4
100
AcDbLine
 10
904.4
 20
-374.0
 30
0.0
 11
904.4
 21
-241.2
 31
0.0
  0
LINE
  5
752
100
AcDbEntity
  8
LAY-5
  6
CONTINUOUS
 62
     4
100
AcDbLine
 10
546.0
 20
-374.0
 30
0.0
 11
546.0
 21
-241.2
 31
0.0
  0
TEXT
  5
753
100
AcDbEntity
  8
LAY-5
  6
CONTINUOUS
 62
     3
100
AcDbText
 10
548.56
 20
-265.68
 30
0.0
 40
20.0
  1
作成日
 41
0.84
  7
EXCADSTD
 72
     5
 11
608.56
 21
-265.68
 31
0.0
100
AcDbText
  0
TEXT
  5
754
100
AcDbEntity
  8
LAY-5
  6
CONTINUOUS
 62
     3
100
AcDbText
 10
615.936
 20
-293.28
 30
0.0
 40
20.0
  1
ＧＭＦ－１００
 41
0.84
  7
EXCADSTD
 72
     5
 11
755.936
 21
-293.28
 31
0.0
100
AcDbText
  0
INSERT
  5
755
100
AcDbEntity
  8
LAY-5
  6
CONTINUOUS
 62
     0
100
AcDbBlockReference
  2
SYM-1
 10
728.778841
 20
-362.027
 30
0.0
 41
3.06
 42
3.06
  0
TEXT
  5
756
100
AcDbEntity
  8
LAY-5
  6
CONTINUOUS
 62
     3
100
AcDbText
 10
626.48
 20
-265.68
 30
0.0
 40
20.0
  1
２０１４年　４月　１日
 41
0.84
  7
EXCADSTD
 72
     5
 11
846.48
 21
-265.68
 31
0.0
100
AcDbText
  0
ENDSEC
  0
SECTION
  2
OBJECTS
  0
DICTIONARY
  5
19
100
AcDbDictionary
  3
ACAD_GROUP
350
1A
  3
ACAD_MLINESTYLE
350
1B
  0
DICTIONARY
  5
1A
102
{ACAD_REACTORS
330
19
102
}
100
AcDbDictionary
  0
DICTIONARY
  5
1B
102
{ACAD_REACTORS
330
19
102
}
100
AcDbDictionary
  3
STANDARD
350
1C
  0
MLINESTYLE
  5
1C
102
{ACAD_REACTORS
330
1B
102
}
100
AcDbMlineStyle
  2
Standard
 70
     0
  3

 62
     0
 51
90.0
 52
90.0
 71
     2
 49
0.5
 62
   256
  6
ByLayer
 49
-0.5
 62
   256
  6
ByLayer
  0
ENDSEC
  0
EOF
