  0
SECTION
  2
HEADER
  9
$ACADVER
  1
AC1014
  9
$ACADMAINTVER
 70
     0
  9
$DWGCODEPAGE
  3
ANSI_932
  9
$INSBASE
 10
0.0
 20
0.0
 30
0.0
  9
$EXTMIN
 10
-450.7
 20
-422.331337
 30
0.0
  9
$EXTMAX
 10
813.72
 20
706.7
 30
0.0
  9
$LIMMIN
 10
0.0
 20
0.0
  9
$LIMMAX
 10
420.0
 20
297.0
  9
$ORTHOMODE
 70
     0
  9
$REGENMODE
 70
     1
  9
$FILLMODE
 70
     1
  9
$QTEXTMODE
 70
     0
  9
$MIRRTEXT
 70
     1
  9
$DRAGMODE
 70
     2
  9
$LTSCALE
 40
1.0
  9
$OSMODE
 70
     0
  9
$ATTMODE
 70
     1
  9
$TEXTSIZE
 40
0.2
  9
$TRACEWID
 40
0.05
  9
$TEXTSTYLE
  7
STANDARD
  9
$CLAYER
  8
LAY-1
  9
$CELTYPE
  6
CONTINUOUS
  9
$CECOLOR
 62
   256
  9
$CELTSCALE
 40
1.0
  9
$DELOBJ
 70
     1
  9
$DISPSILH
 70
     0
  9
$DIMSCALE
 40
1.0
  9
$DIMASZ
 40
0.18
  9
$DIMEXO
 40
0.0625
  9
$DIMDLI
 40
0.38
  9
$DIMRND
 40
0.0
  9
$DIMDLE
 40
0.0
  9
$DIMEXE
 40
0.18
  9
$DIMTP
 40
0.0
  9
$DIMTM
 40
0.0
  9
$DIMTXT
 40
0.18
  9
$DIMCEN
 40
0.09
  9
$DIMTSZ
 40
0.0
  9
$DIMTOL
 70
     0
  9
$DIMLIM
 70
     0
  9
$DIMTIH
 70
     1
  9
$DIMTOH
 70
     1
  9
$DIMSE1
 70
     0
  9
$DIMSE2
 70
     0
  9
$DIMTAD
 70
     0
  9
$DIMZIN
 70
     0
  9
$DIMBLK
  1

  9
$DIMASO
 70
     1
  9
$DIMSHO
 70
     1
  9
$DIMPOST
  1

  9
$DIMAPOST
  1

  9
$DIMALT
 70
     0
  9
$DIMALTD
 70
     2
  9
$DIMALTF
 40
25.4
  9
$DIMLFAC
 40
1.0
  9
$DIMTOFL
 70
     0
  9
$DIMTVP
 40
0.0
  9
$DIMTIX
 70
     0
  9
$DIMSOXD
 70
     0
  9
$DIMSAH
 70
     0
  9
$DIMBLK1
  1

  9
$DIMBLK2
  1

  9
$DIMSTYLE
  2
STANDARD
  9
$DIMCLRD
 70
     0
  9
$DIMCLRE
 70
     0
  9
$DIMCLRT
 70
     0
  9
$DIMTFAC
 40
1.0
  9
$DIMGAP
 40
0.09
  9
$DIMJUST
 70
     0
  9
$DIMSD1
 70
     0
  9
$DIMSD2
 70
     0
  9
$DIMTOLJ
 70
     1
  9
$DIMTZIN
 70
     0
  9
$DIMALTZ
 70
     0
  9
$DIMALTTZ
 70
     0
  9
$DIMFIT
 70
     3
  9
$DIMUPT
 70
     0
  9
$DIMUNIT
 70
     2
  9
$DIMDEC
 70
     4
  9
$DIMTDEC
 70
     4
  9
$DIMALTU
 70
     2
  9
$DIMALTTD
 70
     2
  9
$DIMTXSTY
  7
STANDARD
  9
$DIMAUNIT
 70
     0
  9
$LUNITS
 70
     2
  9
$LUPREC
 70
     4
  9
$SKETCHINC
 40
0.1
  9
$FILLETRAD
 40
0.0
  9
$AUNITS
 70
     0
  9
$AUPREC
 70
     0
  9
$MENU
  1
acad
  9
$ELEVATION
 40
0.0
  9
$PELEVATION
 40
0.0
  9
$THICKNESS
 40
0.0
  9
$LIMCHECK
 70
     0
  9
$BLIPMODE
 70
     1
  9
$CHAMFERA
 40
0.0
  9
$CHAMFERB
 40
0.0
  9
$CHAMFERC
 40
0.0
  9
$CHAMFERD
 40
0.0
  9
$SKPOLY
 70
     0
  9
$TDCREATE
 40
2456723.144865185
  9
$TDUPDATE
 40
2456723.144865185
  9
$TDINDWG
 40
0.0000000000
  9
$TDUSRTIMER
 40
0.0000000000
  9
$USRTIMER
 70
     1
  9
$ANGBASE
 50
0.0
  9
$ANGDIR
 70
     0
  9
$PDMODE
 70
     0
  9
$PDSIZE
 40
0.0
  9
$PLINEWID
 40
0.0
  9
$COORDS
 70
     1
  9
$SPLFRAME
 70
     0
  9
$SPLINETYPE
 70
     6
  9
$SPLINESEGS
 70
     8
  9
$ATTDIA
 70
     0
  9
$ATTREQ
 70
     1
  9
$HANDLING
 70
     1
  9
$HANDSEED
  5
5EB
  9
$SURFTAB1
 70
     6
  9
$SURFTAB2
 70
     6
  9
$SURFTYPE
 70
     6
  9
$SURFU
 70
     6
  9
$SURFV
 70
     6
  9
$UCSNAME
  2

  9
$UCSORG
 10
0.0
 20
0.0
 30
0.0
  9
$UCSXDIR
 10
1.0
 20
0.0
 30
0.0
  9
$UCSYDIR
 10
0.0
 20
1.0
 30
0.0
  9
$PUCSNAME
  2

  9
$PUCSORG
 10
0.0
 20
0.0
 30
0.0
  9
$PUCSXDIR
 10
1.0
 20
0.0
 30
0.0
  9
$PUCSYDIR
 10
0.0
 20
1.0
 30
0.0
  9
$USERI1
 70
     0
  9
$USERI2
 70
     0
  9
$USERI3
 70
     0
  9
$USERI4
 70
     0
  9
$USERI5
 70
     0
  9
$USERR1
 40
0.0
  9
$USERR2
 40
0.0
  9
$USERR3
 40
0.0
  9
$USERR4
 40
0.0
  9
$USERR5
 40
0.0
  9
$WORLDVIEW
 70
     1
  9
$SHADEDGE
 70
     3
  9
$SHADEDIF
 70
    70
  9
$TILEMODE
 70
     1
  9
$MAXACTVP
 70
    16
  9
$PINSBASE
 10
0.0
 20
0.0
 30
0.0
  9
$PLIMCHECK
 70
     0
  9
$PEXTMIN
 10
1.000000E+20
 20
1.000000E+20
 30
1.000000E+20
  9
$PEXTMAX
 10
-1.000000E+20
 20
-1.000000E+20
 30
-1.000000E+20
  9
$PLIMMIN
 10
0.0
 20
0.0
  9
$PLIMMAX
 10
12.0
 20
9.0
  9
$UNITMODE
 70
     0
  9
$VISRETAIN
 70
     0
  9
$PLINEGEN
 70
     1
  9
$PSLTSCALE
 70
     0
  9
$TREEDEPTH
 70
  3020
  9
$PICKSTYLE
 70
     1
  9
$CMLSTYLE
  2
Standard
  9
$CMLJUST
 70
     0
  9
$CMLSCALE
 40
1.0
  9
$PROXYGRAPHICS
 70
     0
  9
$MEASUREMENT
 70
     0
  0
ENDSEC
  0
SECTION
  2
CLASSES
  0
CLASS
  1
LWPOLYLINE
  2
AcDbPolyline
  3
"AutoCAD"
 90
        0
280
     0
281
     1
  0
CLASS
  1
IMAGE
  2
AcDbRasterImage
  3
ISM
 90
      127
280
     0
281
     1
  0
CLASS
  1
OLE2FRAME
  2
AcDbOle2Frame
  3
""
 90
        0
280
     0
281
     1
  0
CLASS
  1
HATCH
  2
AcDbHatch
  3
"ACAD_SEDONA"
 90
        0
280
     0
281
     1
  0
CLASS
  1
DICTIONARYVAR
  2
AcDbDictionaryVar
  3
"AutoCAD"
 90
        0
280
     0
281
     0
  0
CLASS
  1
RASTERVARIABLES
  2
AcDbRasterVariables
  3
ISM
 90
        0
280
     0
281
     0
  0
CLASS
  1
IMAGEDEF
  2
AcDbRasterImageDef
  3
ISM
 90
        0
280
     0
281
     0
  0
CLASS
  1
IMAGEDEF_REACTOR
  2
AcDbRasterImageDefReactor
  3
ISM
 90
        1
280
     0
281
     0
  0
CLASS
  1
IDBUFFER
  2
AcDbIdBuffer
  3
"Acad"
 90
        0
280
     0
281
     0
  0
CLASS
  1
SPATIAL_FILTER
  2
AcDbSpatialFilter
  3
"Acad"
 90
        0
280
     0
281
     0
  0
CLASS
  1
XRECORD
  2
AcDbXrecord
  3
"<Built In>"
 90
        0
280
     0
281
     0
  0
CLASS
  1
SORTENTSTABLE
  2
AcDbSortentsTable
  3
"AutoCAD"
 90
        0
280
     0
281
     0
  0
CLASS
  1
LAYER_INDEX
  2
AcDbLayerIndex
  3
"Acad"
 90
        0
280
     0
281
     0
  0
CLASS
  1
SPATIAL_INDEX
  2
AcDbSpatialIndex
  3
"Acad"
 90
        0
280
     0
281
     0
  0
CLASS
  1
OBJECT_PTR
  2
CAseDLPNTableRecord
  3
"ASE-LPNTableRecord"
 90
        1
280
     0
281
     0
  0
CLASS
  1
LAYOUT
  2
AcDbLayout
  3
"AutoCAD 2000"
 90
        0
280
     0
281
     0
  0
CLASS
  1
PLOTSETTINGS
  2
AcDbPlotSettings
  3
"AutoCAD 2000"
 90
        0
280
     0
281
     0
  0
CLASS
  1
ACDBDICTIONARYWDFLT
  2
AcDbDictionaryWithDefault
  3
"AutoCAD 2000"
 90
        0
280
     0
281
     0
  0
CLASS
  1
ACDBPLACEHOLDER
  2
AcDbPlaceHolder
  3
"AutoCAD 2000"
 90
        0
280
     0
281
     0
  0
CLASS
  1
VBA_PROJECT
  2
AcDbVbaProject
  3
"acadvba"
 90
        0
280
     0
281
     0
  0
CLASS
  1
WIPEOUT
  2
AcDbWipeout
  3
WipeOut|AutoCAD Express Tool|expresstools@autodesk.com
 90
      127
280
     0
281
     1
  0
CLASS
  1
WIPEOUTVARIABLES
  2
AcDbWipeoutVariables
  3
WipeOut|AutoCAD Express Tool|expresstools@autodesk.com
 90
        0
280
     0
281
     0
  0
CLASS
  1
RTEXT
  2
RText
  3
RText|AutoCAD Express Tool|expresstools@autodesk.com
 90
        0
280
     0
281
     1
  0
CLASS
  1
ARCALIGNEDTEXT
  2
AcDbArcAlignedText
  3
ATEXT|AutoCAD Express Tool|expresstools@autodesk.com
 90
        0
280
     0
281
     1
  0
ENDSEC
  0
SECTION
  2
TABLES
  0
TABLE
  2
VPORT
  5
7
100
AcDbSymbolTable
 70
     1
  0
VPORT
  5
15
100
AcDbSymbolTableRecord
100
AcDbViewportTableRecord
  2
*ACTIVE
 70
     0
 10
0.0
 20
0.0
 11
1.0
 21
1.0
 12
181.51
 22
142.184331
 13
0.0
 23
0.0
 14
1.0
 24
1.0
 15
0.0
 25
0.0
 16
0.0
 26
0.0
 36
1.0
 17
0.0
 27
0.0
 37
0.0
 40
1129.031337
 41
1.722533
 42
50.0
 43
0.0
 44
0.0
 50
0.0
 51
0.0
 71
     0
 72
  1000
 73
     1
 74
     1
 75
     0
 76
     0
 77
     0
 78
     0
  0
ENDTAB
  0
TABLE
  2
LTYPE
  5
4
100
AcDbSymbolTable
 70
     9
  0
LTYPE
  5
11
100
AcDbSymbolTableRecord
100
AcDbLinetypeTableRecord
  2
BYBLOCK
 70
    64
  3

 72
    65
 73
     0
 40
0.0
  0
LTYPE
  5
12
100
AcDbSymbolTableRecord
100
AcDbLinetypeTableRecord
  2
BYLAYER
 70
    64
  3

 72
    65
 73
     0
 40
0.0
  0
LTYPE
  5
13
100
AcDbSymbolTableRecord
100
AcDbLinetypeTableRecord
  2
CONTINUOUS
 70
    64
  3
実線
 72
    65
 73
     0
 40
0.0
  0
LTYPE
  5
1D
100
AcDbSymbolTableRecord
100
AcDbLinetypeTableRecord
  2
EXLTYPE1
 70
    64
  3
破線
 72
    65
 73
     2
 40
4.0
 49
3.0
 74
     0
 49
-1.0
 74
     0
  0
LTYPE
  5
1E
100
AcDbSymbolTableRecord
100
AcDbLinetypeTableRecord
  2
EXLTYPE2
 70
    64
  3
点線
 72
    65
 73
     2
 40
2.0
 49
1.0
 74
     0
 49
-1.0
 74
     0
  0
LTYPE
  5
1F
100
AcDbSymbolTableRecord
100
AcDbLinetypeTableRecord
  2
EXLTYPE3
 70
    64
  3
一点鎖線
 72
    65
 73
     4
 40
33.0
 49
30.0
 74
     0
 49
-1.0
 74
     0
 49
1.0
 74
     0
 49
-1.0
 74
     0
  0
LTYPE
  5
20
100
AcDbSymbolTableRecord
100
AcDbLinetypeTableRecord
  2
EXLTYPE4
 70
    64
  3
二点鎖線
 72
    65
 73
     6
 40
35.0
 49
30.0
 74
     0
 49
-1.0
 74
     0
 49
1.0
 74
     0
 49
-1.0
 74
     0
 49
1.0
 74
     0
 49
-1.0
 74
     0
  0
LTYPE
  5
21
100
AcDbSymbolTableRecord
100
AcDbLinetypeTableRecord
  2
EXLTYPE5
 70
    64
  3
三点鎖線
 72
    65
 73
     8
 40
37.0
 49
30.0
 74
     0
 49
-1.0
 74
     0
 49
1.0
 74
     0
 49
-1.0
 74
     0
 49
1.0
 74
     0
 49
-1.0
 74
     0
 49
1.0
 74
     0
 49
-1.0
 74
     0
  0
LTYPE
  5
22
100
AcDbSymbolTableRecord
100
AcDbLinetypeTableRecord
  2
EXLTYPE6
 70
    64
  3
四点鎖線
 72
    65
 73
    10
 40
39.0
 49
30.0
 74
     0
 49
-1.0
 74
     0
 49
1.0
 74
     0
 49
-1.0
 74
     0
 49
1.0
 74
     0
 49
-1.0
 74
     0
 49
1.0
 74
     0
 49
-1.0
 74
     0
 49
1.0
 74
     0
 49
-1.0
 74
     0
  0
ENDTAB
  0
TABLE
  2
LAYER
  5
2
100
AcDbSymbolTable
 70
     4
  0
LAYER
  5
14
100
AcDbSymbolTableRecord
100
AcDbLayerTableRecord
  2
0
 70
     0
 62
     7
  6
CONTINUOUS
  0
LAYER
  5
25
100
AcDbSymbolTableRecord
100
AcDbLayerTableRecord
  2
LAY-1
 70
    64
 62
     7
  6
CONTINUOUS
  0
LAYER
  5
26
100
AcDbSymbolTableRecord
100
AcDbLayerTableRecord
  2
LAY-2
 70
    64
 62
     7
  6
CONTINUOUS
  0
LAYER
  5
27
100
AcDbSymbolTableRecord
100
AcDbLayerTableRecord
  2
LAY-3
 70
    64
 62
     1
  6
CONTINUOUS
  0
ENDTAB
  0
TABLE
  2
STYLE
  5
3
100
AcDbSymbolTable
 70
     3
  0
STYLE
  5
17
100
AcDbSymbolTableRecord
100
AcDbTextStyleTableRecord
  2
STANDARD
 70
     0
 40
0.0
 41
1.0
 50
0.0
 71
     0
 42
0.0
  3
monotxt
  4
extfont
  0
STYLE
  5
23
100
AcDbSymbolTableRecord
100
AcDbTextStyleTableRecord
  2
EXCADSTD
 70
    64
 40
0.0
 41
1.0
 50
0.0
 71
     0
 42
0.2
  3
monotxt
  4
extfont
  0
STYLE
  5
24
100
AcDbSymbolTableRecord
100
AcDbTextStyleTableRecord
  2
EXCADVERT
 70
    68
 40
0.0
 41
1.0
 50
0.0
 71
     0
 42
0.286885
  3
monotxt
  4
extfont
  0
ENDTAB
  0
TABLE
  2
VIEW
  5
5
100
AcDbSymbolTable
 70
     0
  0
ENDTAB
  0
TABLE
  2
UCS
  5
6
100
AcDbSymbolTable
 70
     0
  0
ENDTAB
  0
TABLE
  2
APPID
  5
8
100
AcDbSymbolTable
 70
     1
  0
APPID
  5
16
100
AcDbSymbolTableRecord
100
AcDbRegAppTableRecord
  2
ACAD
 70
     0
  0
ENDTAB
  0
TABLE
  2
DIMSTYLE
  5
9
100
AcDbSymbolTable
 70
     1
  0
DIMSTYLE
105
18
100
AcDbSymbolTableRecord
100
AcDbDimStyleTableRecord
  2
STANDARD
 70
     0
  3

  4

  5

  6

  7

 40
1.0
 41
0.18
 42
0.0625
 43
0.38
 44
0.18
 45
0.0
 46
0.0
 47
0.0
 48
0.0
 71
     0
 72
     0
 73
     1
 74
     1
 75
     0
 76
     0
 77
     0
 78
     0
140
0.18
141
0.09
142
0.0
143
25.4
144
1.0
145
0.0
146
1.0
147
0.09
170
     0
171
     2
172
     1
173
     0
174
     0
175
     0
176
     0
177
     0
178
     0
270
     2
271
     4
272
     4
273
     2
274
     2
275
     0
280
     0
281
     0
282
     0
283
     1
284
     0
285
     0
286
     0
287
     3
288
     0
340
17
  0
ENDTAB
  0
TABLE
  2
BLOCK_RECORD
  5
1
100
AcDbSymbolTable
 70
    15
  0
BLOCK_RECORD
  5
A
100
AcDbSymbolTableRecord
100
AcDbBlockTableRecord
  2
*MODEL_SPACE
  0
BLOCK_RECORD
  5
B
100
AcDbSymbolTableRecord
100
AcDbBlockTableRecord
  2
*PAPER_SPACE
  0
BLOCK_RECORD
  5
28
100
AcDbSymbolTableRecord
100
AcDbBlockTableRecord
  2
_EX_NORM
  0
BLOCK_RECORD
  5
29
100
AcDbSymbolTableRecord
100
AcDbBlockTableRecord
  2
_EX_BNORM
  0
BLOCK_RECORD
  5
2A
100
AcDbSymbolTableRecord
100
AcDbBlockTableRecord
  2
_EX_BCIR
  0
BLOCK_RECORD
  5
2B
100
AcDbSymbolTableRecord
100
AcDbBlockTableRecord
  2
_EX_RCIVIL
  0
BLOCK_RECORD
  5
2C
100
AcDbSymbolTableRecord
100
AcDbBlockTableRecord
  2
_EX_SLANT
  0
BLOCK_RECORD
  5
2D
100
AcDbSymbolTableRecord
100
AcDbBlockTableRecord
  2
_EX_NONE
  0
BLOCK_RECORD
  5
2E
100
AcDbSymbolTableRecord
100
AcDbBlockTableRecord
  2
_EX_CIVIL
  0
BLOCK_RECORD
  5
2F
100
AcDbSymbolTableRecord
100
AcDbBlockTableRecord
  2
_EX_WCIR
  0
BLOCK_RECORD
  5
30
100
AcDbSymbolTableRecord
100
AcDbBlockTableRecord
  2
_EX_WCIR2
  0
BLOCK_RECORD
  5
31
100
AcDbSymbolTableRecord
100
AcDbBlockTableRecord
  2
_EX_WNORM
  0
BLOCK_RECORD
  5
32
100
AcDbSymbolTableRecord
100
AcDbBlockTableRecord
  2
_EX_NNORM
  0
BLOCK_RECORD
  5
33
100
AcDbSymbolTableRecord
100
AcDbBlockTableRecord
  2
_EX_BBOX
  0
BLOCK_RECORD
  5
34
100
AcDbSymbolTableRecord
100
AcDbBlockTableRecord
  2
_EX_WBOX
  0
BLOCK_RECORD
  5
35
100
AcDbSymbolTableRecord
100
AcDbBlockTableRecord
  2
_EX_INTEGRAL
  0
BLOCK_RECORD
  5
36
100
AcDbSymbolTableRecord
100
AcDbBlockTableRecord
  2
SYM-1
  0
ENDTAB
  0
ENDSEC
  0
SECTION
  2
BLOCKS
  0
BLOCK
  5
D
100
AcDbEntity
  8
0
100
AcDbBlockBegin
  2
*MODEL_SPACE
 70
     0
 10
0.0
 20
0.0
 30
0.0
  3
*MODEL_SPACE
  1

  0
ENDBLK
  5
E
100
AcDbEntity
  8
0
100
AcDbBlockEnd
  0
BLOCK
  5
F
100
AcDbEntity
 67
     1
  8
0
100
AcDbBlockBegin
  2
*PAPER_SPACE
 70
     0
 10
0.0
 20
0.0
 30
0.0
  3
*PAPER_SPACE
  1

  0
ENDBLK
  5
10
100
AcDbEntity
 67
     1
  8
0
100
AcDbBlockEnd
  0
BLOCK
  5
37
100
AcDbEntity
  8
0
100
AcDbBlockBegin
  2
_EX_NORM
 70
     0
 10
0.0
 20
0.0
 30
0.0
  3
_EX_NORM
  1

  0
LINE
  5
38
100
AcDbEntity
  8
0
  6
CONTINUOUS
 62
     0
100
AcDbLine
 10
0.0
 20
0.0
 30
0.0
 11
-1.0
 21
0.0
 31
0.0
  0
LINE
  5
39
100
AcDbEntity
  8
0
  6
CONTINUOUS
 62
     0
100
AcDbLine
 10
0.0
 20
0.0
 30
0.0
 11
-1.0
 21
0.166667
 31
0.0
  0
LINE
  5
3A
100
AcDbEntity
  8
0
  6
CONTINUOUS
 62
     0
100
AcDbLine
 10
0.0
 20
0.0
 30
0.0
 11
-1.0
 21
-0.166667
 31
0.0
  0
ENDBLK
  5
3B
100
AcDbEntity
  8
0
100
AcDbBlockEnd
  0
BLOCK
  5
3C
100
AcDbEntity
  8
0
100
AcDbBlockBegin
  2
_EX_BNORM
 70
     0
 10
0.0
 20
0.0
 30
0.0
  3
_EX_BNORM
  1

  0
LINE
  5
3D
100
AcDbEntity
  8
0
  6
CONTINUOUS
 62
     0
100
AcDbLine
 10
0.0
 20
0.0
 30
0.0
 11
-1.0
 21
0.0
 31
0.0
  0
LINE
  5
3E
100
AcDbEntity
  8
0
  6
CONTINUOUS
 62
     0
100
AcDbLine
 10
0.0
 20
0.0
 30
0.0
 11
-1.0
 21
0.166667
 31
0.0
  0
LINE
  5
3F
100
AcDbEntity
  8
0
  6
CONTINUOUS
 62
     0
100
AcDbLine
 10
0.0
 20
0.0
 30
0.0
 11
-1.0
 21
-0.166667
 31
0.0
  0
LINE
  5
40
100
AcDbEntity
  8
0
  6
CONTINUOUS
 62
     0
100
AcDbLine
 10
0.0
 20
0.0
 30
0.0
 11
-1.0
 21
0.083333
 31
0.0
  0
LINE
  5
41
100
AcDbEntity
  8
0
  6
CONTINUOUS
 62
     0
100
AcDbLine
 10
0.0
 20
0.0
 30
0.0
 11
-1.0
 21
-0.083333
 31
0.0
  0
LINE
  5
42
100
AcDbEntity
  8
0
  6
CONTINUOUS
 62
     0
100
AcDbLine
 10
-1.0
 20
0.166667
 30
0.0
 11
-1.0
 21
-0.166667
 31
0.0
  0
ENDBLK
  5
43
100
AcDbEntity
  8
0
100
AcDbBlockEnd
  0
BLOCK
  5
44
100
AcDbEntity
  8
0
100
AcDbBlockBegin
  2
_EX_BCIR
 70
     0
 10
0.0
 20
0.0
 30
0.0
  3
_EX_BCIR
  1

  0
LINE
  5
45
100
AcDbEntity
  8
0
  6
CONTINUOUS
 62
     0
100
AcDbLine
 10
0.0
 20
0.0
 30
0.0
 11
-1.0
 21
0.0
 31
0.0
  0
CIRCLE
  5
46
100
AcDbEntity
  8
0
  6
CONTINUOUS
 62
     0
100
AcDbCircle
 10
0.0
 20
0.0
 30
0.0
 40
0.5
  0
CIRCLE
  5
47
100
AcDbEntity
  8
0
  6
CONTINUOUS
 62
     0
100
AcDbCircle
 10
0.0
 20
0.0
 30
0.0
 40
0.25
  0
ENDBLK
  5
48
100
AcDbEntity
  8
0
100
AcDbBlockEnd
  0
BLOCK
  5
49
100
AcDbEntity
  8
0
100
AcDbBlockBegin
  2
_EX_RCIVIL
 70
     0
 10
0.0
 20
0.0
 30
0.0
  3
_EX_RCIVIL
  1

  0
LINE
  5
4A
100
AcDbEntity
  8
0
  6
CONTINUOUS
 62
     0
100
AcDbLine
 10
0.0
 20
0.0
 30
0.0
 11
-1.0
 21
0.0
 31
0.0
  0
LINE
  5
4B
100
AcDbEntity
  8
0
  6
CONTINUOUS
 62
     0
100
AcDbLine
 10
-1.0
 20
-0.25
 30
0.0
 11
0.0
 21
-0.25
 31
0.0
  0
LINE
  5
4C
100
AcDbEntity
  8
0
  6
CONTINUOUS
 62
     0
100
AcDbLine
 10
-1.0
 20
-0.125
 30
0.0
 11
0.0
 21
-0.125
 31
0.0
  0
ENDBLK
  5
4D
100
AcDbEntity
  8
0
100
AcDbBlockEnd
  0
BLOCK
  5
4E
100
AcDbEntity
  8
0
100
AcDbBlockBegin
  2
_EX_SLANT
 70
     0
 10
0.0
 20
0.0
 30
0.0
  3
_EX_SLANT
  1

  0
LINE
  5
4F
100
AcDbEntity
  8
0
  6
CONTINUOUS
 62
     0
100
AcDbLine
 10
0.0
 20
0.0
 30
0.0
 11
-1.0
 21
0.0
 31
0.0
  0
LINE
  5
50
100
AcDbEntity
  8
0
  6
CONTINUOUS
 62
     0
100
AcDbLine
 10
0.707107
 20
0.707107
 30
0.0
 11
-0.707107
 21
-0.707107
 31
0.0
  0
ENDBLK
  5
51
100
AcDbEntity
  8
0
100
AcDbBlockEnd
  0
BLOCK
  5
52
100
AcDbEntity
  8
0
100
AcDbBlockBegin
  2
_EX_NONE
 70
     0
 10
0.0
 20
0.0
 30
0.0
  3
_EX_NONE
  1

  0
LINE
  5
53
100
AcDbEntity
  8
0
  6
CONTINUOUS
 62
     0
100
AcDbLine
 10
0.0
 20
0.0
 30
0.0
 11
-1.0
 21
0.0
 31
0.0
  0
ENDBLK
  5
54
100
AcDbEntity
  8
0
100
AcDbBlockEnd
  0
BLOCK
  5
55
100
AcDbEntity
  8
0
100
AcDbBlockBegin
  2
_EX_CIVIL
 70
     0
 10
0.0
 20
0.0
 30
0.0
  3
_EX_CIVIL
  1

  0
LINE
  5
56
100
AcDbEntity
  8
0
  6
CONTINUOUS
 62
     0
100
AcDbLine
 10
0.0
 20
0.0
 30
0.0
 11
-1.0
 21
0.0
 31
0.0
  0
LINE
  5
57
100
AcDbEntity
  8
0
  6
CONTINUOUS
 62
     0
100
AcDbLine
 10
-1.0
 20
0.25
 30
0.0
 11
0.0
 21
0.25
 31
0.0
  0
LINE
  5
58
100
AcDbEntity
  8
0
  6
CONTINUOUS
 62
     0
100
AcDbLine
 10
-1.0
 20
0.125
 30
0.0
 11
0.0
 21
0.125
 31
0.0
  0
ENDBLK
  5
59
100
AcDbEntity
  8
0
100
AcDbBlockEnd
  0
BLOCK
  5
5A
100
AcDbEntity
  8
0
100
AcDbBlockBegin
  2
_EX_WCIR
 70
     0
 10
0.0
 20
0.0
 30
0.0
  3
_EX_WCIR
  1

  0
LINE
  5
5B
100
AcDbEntity
  8
0
  6
CONTINUOUS
 62
     0
100
AcDbLine
 10
0.0
 20
0.0
 30
0.0
 11
-1.0
 21
0.0
 31
0.0
  0
CIRCLE
  5
5C
100
AcDbEntity
  8
0
  6
CONTINUOUS
 62
     0
100
AcDbCircle
 10
0.0
 20
0.0
 30
0.0
 40
0.5
  0
ENDBLK
  5
5D
100
AcDbEntity
  8
0
100
AcDbBlockEnd
  0
BLOCK
  5
5E
100
AcDbEntity
  8
0
100
AcDbBlockBegin
  2
_EX_WCIR2
 70
     0
 10
0.0
 20
0.0
 30
0.0
  3
_EX_WCIR2
  1

  0
LINE
  5
5F
100
AcDbEntity
  8
0
  6
CONTINUOUS
 62
     0
100
AcDbLine
 10
-0.5
 20
0.0
 30
0.0
 11
-1.0
 21
0.0
 31
0.0
  0
CIRCLE
  5
60
100
AcDbEntity
  8
0
  6
CONTINUOUS
 62
     0
100
AcDbCircle
 10
0.0
 20
0.0
 30
0.0
 40
0.5
  0
ENDBLK
  5
61
100
AcDbEntity
  8
0
100
AcDbBlockEnd
  0
BLOCK
  5
62
100
AcDbEntity
  8
0
100
AcDbBlockBegin
  2
_EX_WNORM
 70
     0
 10
0.0
 20
0.0
 30
0.0
  3
_EX_WNORM
  1

  0
LINE
  5
63
100
AcDbEntity
  8
0
  6
CONTINUOUS
 62
     0
100
AcDbLine
 10
-1.0
 20
0.0
 30
0.0
 11
-1.0
 21
0.0
 31
0.0
  0
LINE
  5
64
100
AcDbEntity
  8
0
  6
CONTINUOUS
 62
     0
100
AcDbLine
 10
0.0
 20
0.0
 30
0.0
 11
-1.0
 21
0.166667
 31
0.0
  0
LINE
  5
65
100
AcDbEntity
  8
0
  6
CONTINUOUS
 62
     0
100
AcDbLine
 10
0.0
 20
0.0
 30
0.0
 11
-1.0
 21
-0.166667
 31
0.0
  0
LINE
  5
66
100
AcDbEntity
  8
0
  6
CONTINUOUS
 62
     0
100
AcDbLine
 10
-1.0
 20
0.166667
 30
0.0
 11
-1.0
 21
-0.166667
 31
0.0
  0
ENDBLK
  5
67
100
AcDbEntity
  8
0
100
AcDbBlockEnd
  0
BLOCK
  5
68
100
AcDbEntity
  8
0
100
AcDbBlockBegin
  2
_EX_NNORM
 70
     0
 10
0.0
 20
0.0
 30
0.0
  3
_EX_NNORM
  1

  0
LINE
  5
69
100
AcDbEntity
  8
0
  6
CONTINUOUS
 62
     0
100
AcDbLine
 10
0.0
 20
0.0
 30
0.0
 11
-1.0
 21
0.0
 31
0.0
  0
LINE
  5
6A
100
AcDbEntity
  8
0
  6
CONTINUOUS
 62
     0
100
AcDbLine
 10
0.0
 20
0.0
 30
0.0
 11
-1.0
 21
0.166667
 31
0.0
  0
LINE
  5
6B
100
AcDbEntity
  8
0
  6
CONTINUOUS
 62
     0
100
AcDbLine
 10
0.0
 20
0.0
 30
0.0
 11
-1.0
 21
-0.166667
 31
0.0
  0
LINE
  5
6C
100
AcDbEntity
  8
0
  6
CONTINUOUS
 62
     0
100
AcDbLine
 10
-1.0
 20
0.166667
 30
0.0
 11
-1.0
 21
-0.166667
 31
0.0
  0
ENDBLK
  5
6D
100
AcDbEntity
  8
0
100
AcDbBlockEnd
  0
BLOCK
  5
6E
100
AcDbEntity
  8
0
100
AcDbBlockBegin
  2
_EX_BBOX
 70
     0
 10
0.0
 20
0.0
 30
0.0
  3
_EX_BBOX
  1

  0
LINE
  5
6F
100
AcDbEntity
  8
0
  6
CONTINUOUS
 62
     0
100
AcDbLine
 10
0.0
 20
0.0
 30
0.0
 11
-1.0
 21
0.0
 31
0.0
  0
LINE
  5
70
100
AcDbEntity
  8
0
  6
CONTINUOUS
 62
     0
100
AcDbLine
 10
-0.5
 20
0.5
 30
0.0
 11
0.5
 21
0.5
 31
0.0
  0
LINE
  5
71
100
AcDbEntity
  8
0
  6
CONTINUOUS
 62
     0
100
AcDbLine
 10
0.5
 20
0.5
 30
0.0
 11
0.5
 21
-0.5
 31
0.0
  0
LINE
  5
72
100
AcDbEntity
  8
0
  6
CONTINUOUS
 62
     0
100
AcDbLine
 10
0.5
 20
-0.5
 30
0.0
 11
-0.5
 21
-0.5
 31
0.0
  0
LINE
  5
73
100
AcDbEntity
  8
0
  6
CONTINUOUS
 62
     0
100
AcDbLine
 10
-0.5
 20
-0.5
 30
0.0
 11
-0.5
 21
0.5
 31
0.0
  0
LINE
  5
74
100
AcDbEntity
  8
0
  6
CONTINUOUS
 62
     0
100
AcDbLine
 10
-0.25
 20
0.25
 30
0.0
 11
0.25
 21
0.25
 31
0.0
  0
LINE
  5
75
100
AcDbEntity
  8
0
  6
CONTINUOUS
 62
     0
100
AcDbLine
 10
0.25
 20
0.25
 30
0.0
 11
0.25
 21
-0.25
 31
0.0
  0
LINE
  5
76
100
AcDbEntity
  8
0
  6
CONTINUOUS
 62
     0
100
AcDbLine
 10
0.25
 20
-0.25
 30
0.0
 11
-0.25
 21
-0.25
 31
0.0
  0
LINE
  5
77
100
AcDbEntity
  8
0
  6
CONTINUOUS
 62
     0
100
AcDbLine
 10
-0.25
 20
-0.25
 30
0.0
 11
-0.25
 21
0.25
 31
0.0
  0
ENDBLK
  5
78
100
AcDbEntity
  8
0
100
AcDbBlockEnd
  0
BLOCK
  5
79
100
AcDbEntity
  8
0
100
AcDbBlockBegin
  2
_EX_WBOX
 70
     0
 10
0.0
 20
0.0
 30
0.0
  3
_EX_WBOX
  1

  0
LINE
  5
7A
100
AcDbEntity
  8
0
  6
CONTINUOUS
 62
     0
100
AcDbLine
 10
-0.5
 20
0.0
 30
0.0
 11
-1.0
 21
0.0
 31
0.0
  0
LINE
  5
7B
100
AcDbEntity
  8
0
  6
CONTINUOUS
 62
     0
100
AcDbLine
 10
-0.5
 20
0.5
 30
0.0
 11
0.5
 21
0.5
 31
0.0
  0
LINE
  5
7C
100
AcDbEntity
  8
0
  6
CONTINUOUS
 62
     0
100
AcDbLine
 10
0.5
 20
0.5
 30
0.0
 11
0.5
 21
-0.5
 31
0.0
  0
LINE
  5
7D
100
AcDbEntity
  8
0
  6
CONTINUOUS
 62
     0
100
AcDbLine
 10
0.5
 20
-0.5
 30
0.0
 11
-0.5
 21
-0.5
 31
0.0
  0
LINE
  5
7E
100
AcDbEntity
  8
0
  6
CONTINUOUS
 62
     0
100
AcDbLine
 10
-0.5
 20
-0.5
 30
0.0
 11
-0.5
 21
0.5
 31
0.0
  0
ENDBLK
  5
7F
100
AcDbEntity
  8
0
100
AcDbBlockEnd
  0
BLOCK
  5
80
100
AcDbEntity
  8
0
100
AcDbBlockBegin
  2
_EX_INTEGRAL
 70
     0
 10
0.0
 20
0.0
 30
0.0
  3
_EX_INTEGRAL
  1

  0
LINE
  5
81
100
AcDbEntity
  8
0
  6
CONTINUOUS
 62
     0
100
AcDbLine
 10
0.0
 20
0.0
 30
0.0
 11
-1.0
 21
0.0
 31
0.0
  0
ARC
  5
82
100
AcDbEntity
  8
0
  6
CONTINUOUS
 62
     0
100
AcDbCircle
 10
0.542115
 20
0.164992
 30
0.0
 40
0.56667
100
AcDbArc
 50
73.07249
 51
196.927513
  0
ARC
  5
83
100
AcDbEntity
  8
0
  6
CONTINUOUS
 62
     0
100
AcDbCircle
 10
-0.542115
 20
-0.164992
 30
0.0
 40
0.56667
100
AcDbArc
 50
253.072487
 51
16.927513
  0
ENDBLK
  5
84
100
AcDbEntity
  8
0
100
AcDbBlockEnd
  0
BLOCK
  5
85
100
AcDbEntity
  8
0
100
AcDbBlockBegin
  2
SYM-1
 70
     0
 10
0.0
 20
0.0
 30
0.0
  3
SYM-1
  1

  0
HATCH
  5
86
100
AcDbEntity
  8
0
  6
CONTINUOUS
 62
     3
100
AcDbHatch
 10
0.0
 20
0.0
 30
0.0
210
0.0
220
0.0
230
1.0
  2
SOLID
 70
     1
 71
     1
 91
        1
 92
        1
 93
       16
 72
     1
 10
24.351152239011505
 20
-2.0357142857144446
 11
25.613295096154353
 21
-2.0357142857144446
 72
     1
 10
25.613295096154353
 20
-2.0357142857144446
 11
25.613295096154353
 21
-2.8500000000001648
 72
     1
 10
25.613295096154353
 20
-2.8500000000001648
 11
22.23400938186861
 21
-2.8500000000001648
 72
     1
 10
22.23400938186861
 20
-2.8500000000001648
 11
22.23400938186861
 21
-2.0357142857144446
 72
     1
 10
22.23400938186861
 20
-2.0357142857144446
 11
23.536866524725802
 21
-2.0357142857144446
 72
     1
 10
23.536866524725802
 20
-2.0357142857144446
 11
23.536866524725802
 21
0.3257142857141346
 72
     1
 10
23.536866524725802
 20
0.3257142857141346
 11
22.519009381868621
 21
0.3257142857141346
 72
     1
 10
22.519009381868621
 20
0.3257142857141346
 11
22.519009381868621
 21
1.1399999999998514
 72
     1
 10
22.519009381868621
 20
1.1399999999998514
 11
23.536866524725802
 21
1.1399999999998514
 72
     1
 10
23.536866524725802
 20
1.1399999999998514
 11
23.536866524725802
 21
2.8499999999998487
 72
     1
 10
23.536866524725802
 20
2.8499999999998487
 11
24.351152239011505
 21
2.8499999999998487
 72
     1
 10
24.351152239011505
 20
2.8499999999998487
 11
24.351152239011505
 21
1.1399999999998514
 72
     1
 10
24.351152239011505
 20
1.1399999999998514
 11
25.531866524725821
 21
1.1399999999998514
 72
     1
 10
25.531866524725821
 20
1.1399999999998514
 11
25.531866524725821
 21
0.3257142857141346
 72
     1
 10
25.531866524725821
 20
0.3257142857141346
 11
24.351152239011505
 21
0.3257142857141346
 72
     1
 10
24.351152239011505
 20
0.3257142857141346
 11
24.351152239011505
 21
-2.0357142857144446
 97
        0
 75
     0
 76
     1
 98
        1
 10
0.0
 20
0.0
  0
HATCH
  5
87
100
AcDbEntity
  8
0
  6
CONTINUOUS
 62
     3
100
AcDbHatch
 10
0.0
 20
0.0
 30
0.0
210
0.0
220
0.0
230
1.0
  2
SOLID
 70
     1
 71
     1
 91
        1
 92
        1
 93
       17
 72
     2
 10
15.796286246552746
 20
4.4303755974531924
 40
7.328571428571454
 50
44.165469
 51
51.472792
 73
     0
 72
     1
 10
20.361152239011439
 20
-1.3028571428572775
 11
19.948878200429583
 21
-0.5887775613918898
 72
     2
 10
15.796286246552746
 20
4.4303755974531924
 40
6.5142857142857364
 50
309.602625
 51
331.307968
 73
     1
 72
     1
 10
21.510701937024301
 20
1.3028571428570004
 11
20.157580810440017
 21
1.3028571428570004
 72
     1
 10
20.157580810440017
 20
1.3028571428570004
 11
20.157580810440017
 21
2.0357142857141319
 72
     1
 10
20.157580810440017
 20
2.0357142857141319
 11
21.053295096154336
 21
2.0357142857141319
 72
     1
 10
21.053295096154336
 20
2.0357142857141319
 11
21.053295096154336
 21
2.8499999999998487
 72
     1
 10
21.053295096154336
 20
2.8499999999998487
 11
21.786152239011507
 21
2.8499999999998487
 72
     1
 10
21.786152239011507
 20
2.8499999999998487
 11
21.786152239011507
 21
2.0357142857141319
 72
     1
 10
21.786152239011507
 20
2.0357142857141319
 11
22.722580810439986
 21
2.0357142857141319
 72
     2
 10
15.796286246552746
 20
4.4303755974531924
 40
7.328571428571454
 50
19.072051
 51
32.871988
 73
     0
 72
     1
 10
21.951445818831196
 20
0.4526916201288422
 11
22.926152239011437
 21
-0.4885714285715821
 72
     1
 10
22.926152239011437
 20
-0.4885714285715821
 11
22.350277580116831
 21
-1.0644460874662265
 72
     1
 10
22.350277580116831
 20
-1.0644460874662265
 11
21.786152239011507
 21
-0.5196765779765897
 72
     1
 10
21.786152239011507
 20
-0.5196765779765897
 11
21.786152239011507
 21
-2.8500000000001648
 72
     1
 10
21.786152239011507
 20
-2.8500000000001648
 11
21.053295096154336
 21
-2.8500000000001648
 72
     1
 10
21.053295096154336
 20
-2.8500000000001648
 11
21.053295096154336
 21
-0.6756813096801793
 97
        0
 75
     0
 76
     1
 98
        1
 10
0.0
 20
0.0
  0
HATCH
  5
88
100
AcDbEntity
  8
0
  6
CONTINUOUS
 62
     3
100
AcDbHatch
 10
0.0
 20
0.0
 30
0.0
210
0.0
220
0.0
230
1.0
  2
SOLID
 70
     1
 71
     1
 91
        1
 92
        1
 93
       12
 72
     2
 10
26.09465466477446
 20
-6.5604295733743392
 40
11.481428571428609
 50
150.903074
 51
156.790773
 73
     1
 72
     1
 10
15.542396441700383
 20
-2.035714285714505
 11
18.049394029288031
 21
-2.0357142857144055
 72
     2
 10
10.927987441101074
 20
-4.0835590566205937
 40
7.4100000000000241
 50
16.043216
 51
21.362935
 73
     1
 72
     1
 10
17.828858648663306
 20
-1.3842857142858769
 11
18.610437953297115
 21
-1.3842857142858769
 72
     2
 10
10.927987441101074
 20
-4.0835590566205937
 40
8.1428571428571708
 50
340.64078
 51
351.286733
 73
     0
 72
     1
 10
18.976866524725686
 20
-2.8500000000001648
 11
14.457580810439971
 21
-2.8500000000001648
 72
     2
 10
26.09465466477446
 20
-6.5604295733743392
 40
12.214285714285754
 50
197.684652
 51
207.200855
 73
     0
 72
     1
 10
15.231152239011401
 20
-0.9771428571430043
 11
14.091152239011485
 21
-0.9771428571430043
 72
     1
 10
14.091152239011485
 20
-0.9771428571430043
 11
14.091152239011485
 21
-0.162857142857284
 72
     1
 10
14.091152239011485
 20
-0.162857142857284
 11
19.302580810440098
 21
-0.162857142857284
 72
     1
 10
19.302580810440098
 20
-0.162857142857284
 11
19.302580810440098
 21
-0.9771428571430043
 72
     1
 10
19.302580810440098
 20
-0.9771428571430043
 11
16.062201750099412
 21
-0.9771428571430043
 97
        0
 75
     0
 76
     1
 98
        1
 10
0.0
 20
0.0
  0
HATCH
  5
89
100
AcDbEntity
  8
0
  6
CONTINUOUS
 62
     3
100
AcDbHatch
 10
0.0
 20
0.0
 30
0.0
210
0.0
220
0.0
230
1.0
  2
SOLID
 70
     1
 71
     1
 91
        1
 92
        1
 93
       10
 72
     2
 10
26.143491684008573
 20
11.064410217386417
 40
13.028571428571473
 50
129.545698
 51
136.474664
 73
     0
 72
     1
 10
16.696866524725998
 20
2.0919553376225579
 11
16.696866524725998
 21
2.8499999999998487
 72
     1
 10
16.696866524725998
 20
2.8499999999998487
 11
17.104009381868686
 21
2.8499999999998487
 72
     2
 10
26.143491684008573
 20
11.064410217386417
 40
12.214285714285754
 50
222.262231
 51
237.763996
 73
     1
 72
     1
 10
19.628295096154382
 20
0.7328571428570001
 11
19.100346295490944
 21
0.1036722629605507
 72
     2
 10
26.143491684008573
 20
11.064410217386417
 40
13.028571428571473
 50
122.723968
 51
128.230009
 73
     0
 72
     1
 10
18.08115223901148
 20
0.830038905819066
 11
18.08115223901148
 21
0.2035714285712729
 72
     1
 10
18.08115223901148
 20
0.2035714285712729
 11
16.696866524725998
 21
0.2035714285712729
 72
     1
 10
16.696866524725998
 20
0.2035714285712729
 11
16.696866524725998
 21
1.0178571428569896
 72
     1
 10
16.696866524725998
 20
1.0178571428569896
 11
17.848285550942784
 21
1.0178571428569896
 97
        0
 75
     0
 76
     1
 98
        1
 10
0.0
 20
0.0
  0
HATCH
  5
8A
100
AcDbEntity
  8
0
  6
CONTINUOUS
 62
     3
100
AcDbHatch
 10
0.0
 20
0.0
 30
0.0
210
0.0
220
0.0
230
1.0
  2
SOLID
 70
     1
 71
     1
 91
        1
 92
        1
 93
       10
 72
     2
 10
7.2502413654429532
 20
11.064410217386417
 40
13.028571428571473
 50
51.769991
 51
57.276032
 73
     0
 72
     1
 10
14.293386753960569
 20
0.1036722629605329
 11
13.76543795329713
 21
0.7328571428569894
 72
     2
 10
7.2502413654429532
 20
11.064410217386417
 40
12.214285714285754
 50
302.236004
 51
317.737769
 73
     1
 72
     1
 10
16.289723667582841
 20
2.8499999999998487
 11
16.696866524725998
 21
2.8499999999998487
 72
     1
 10
16.696866524725998
 20
2.8499999999998487
 11
16.696866524725998
 21
2.0919553376230482
 72
     2
 10
7.2502413654429532
 20
11.064410217386417
 40
13.028571428571473
 50
43.525336
 51
50.454302
 73
     0
 72
     1
 10
15.545447498508743
 20
1.0178571428569896
 11
16.696866524725998
 21
1.0178571428569896
 72
     1
 10
16.696866524725998
 20
1.0178571428569896
 11
16.696866524725998
 21
0.2035714285712729
 72
     1
 10
16.696866524725998
 20
0.2035714285712729
 11
15.312580810440046
 21
0.2035714285712729
 72
     1
 10
15.312580810440046
 20
0.2035714285712729
 11
15.312580810440046
 21
0.8300389058190589
 97
        0
 75
     0
 76
     1
 98
        1
 10
0.0
 20
0.0
  0
HATCH
  5
8B
100
AcDbEntity
  8
0
  6
CONTINUOUS
 62
     3
100
AcDbHatch
 10
0.0
 20
0.0
 30
0.0
210
0.0
220
0.0
230
1.0
  2
SOLID
 70
     1
 71
     1
 91
        1
 92
        1
 93
       18
 72
     2
 10
1.2571935216656343
 20
-0.8093264034321166
 40
11.400000000000038
 50
14.02954
 51
18.723021
 73
     1
 72
     1
 10
12.053921279331213
 20
2.8499999999998487
 11
12.910437953297141
 21
2.8499999999998487
 72
     2
 10
1.2571935216656343
 20
-0.8093264034321166
 40
12.214285714285754
 50
342.566782
 51
346.922981
 73
     0
 72
     1
 10
13.15472366758285
 20
1.9542857142855716
 11
13.480437953297177
 21
1.9542857142855716
 72
     1
 10
13.480437953297177
 20
1.9542857142855716
 11
13.480437953297177
 21
1.1399999999998407
 72
     1
 10
13.480437953297177
 20
1.1399999999998407
 11
11.958092734747289
 21
1.1399999999998514
 72
     2
 10
20.401866524725683
 20
2.4835714285712918
 40
8.5500000000000291
 50
189.041096
 51
204.65198
 73
     1
 72
     2
 10
14.334076117775972
 20
-0.301141422634494
 40
1.8737206404808271
 50
204.65198
 51
242.897449
 73
     1
 72
     1
 10
13.480437953297177
 20
-1.9691135215345774
 11
13.480437953297177
 21
-2.8500000000001648
 72
     2
 10
14.334076117775972
 20
-0.301141422634494
 40
2.6880063547665438
 50
108.516212
 51
155.34802
 73
     0
 72
     2
 10
20.401866524725683
 20
2.4835714285712918
 40
9.3642857142857441
 50
155.34802
 51
171.750831
 73
     0
 72
     1
 10
11.134468683092756
 20
1.1399999999998549
 11
8.0247236675828972
 21
1.1399999999998407
 72
     1
 10
8.0247236675828972
 20
1.1399999999998407
 11
8.0247236675828972
 21
1.9542857142855716
 72
     1
 10
8.0247236675828972
 20
1.9542857142855716
 11
11.050355927894167
 21
1.9542857142855716
 72
     1
 10
11.050355927894167
 20
1.9542857142855716
 11
11.019076895792274
 21
2.8499999999998487
 72
     1
 10
11.019076895792274
 20
2.8499999999998487
 11
11.833858953292697
 21
2.8499999999998487
 72
     1
 10
11.833858953292697
 20
2.8499999999998487
 11
11.865137985394604
 21
1.9542857142855716
 72
     1
 10
11.865137985394604
 20
1.9542857142855716
 11
12.317141444816265
 21
1.9542857142855716
 97
        0
 75
     0
 76
     1
 98
        1
 10
0.0
 20
0.0
  0
HATCH
  5
8C
100
AcDbEntity
  8
0
  6
CONTINUOUS
 62
     3
100
AcDbHatch
 10
0.0
 20
0.0
 30
0.0
210
0.0
220
0.0
230
1.0
  2
SOLID
 70
     1
 71
     1
 91
        1
 92
        1
 93
       12
 72
     2
 10
5.4617420309248317
 20
38.027820957415145
 40
39.900000000000134
 50
276.500664
 51
278.269357
 73
     1
 72
     1
 10
11.200437953297204
 20
-1.457332823601817
 11
11.20043795329719
 21
-2.2800000000001504
 72
     2
 10
5.4617420309248317
 20
38.027820957415145
 40
40.71428571428585
 50
81.897153
 51
86.39082
 73
     0
 72
     1
 10
8.024723667582883
 20
-2.6057142857144413
 11
8.024723667582883
 21
-1.7897772264302034
 72
     2
 10
5.4617420309248317
 20
38.027820957415145
 40
39.900000000000134
 50
273.682937
 51
275.325087
 73
     1
 72
     1
 10
9.1647236675828836
 20
-1.6999769553635602
 11
9.1647236675828836
 21
-0.4071428571430218
 72
     1
 10
9.1647236675828836
 20
-0.4071428571430218
 11
8.0247236675828972
 21
-0.4071428571430218
 72
     1
 10
8.0247236675828972
 20
-0.4071428571430218
 11
8.0247236675828972
 21
0.4071428571426949
 72
     1
 10
8.0247236675828972
 20
0.4071428571426949
 11
10.95615223901148
 21
0.4071428571426949
 72
     1
 10
10.95615223901148
 20
0.4071428571426949
 11
10.95615223901148
 21
-0.4071428571430218
 72
     1
 10
10.95615223901148
 20
-0.4071428571430218
 11
9.9790093818686287
 21
-0.4071428571430218
 72
     1
 10
9.9790093818686287
 20
-0.4071428571430218
 11
9.9790093818685861
 21
-1.6156437710884397
 97
        0
 75
     0
 76
     1
 98
        1
 10
0.0
 20
0.0
  0
HATCH
  5
8D
100
AcDbEntity
  8
0
  6
CONTINUOUS
 62
     3
100
AcDbHatch
 10
0.0
 20
0.0
 30
0.0
210
0.0
220
0.0
230
1.0
  2
SOLID
 70
     1
 71
     1
 91
        1
 92
        1
 93
       30
 72
     2
 10
-1.8979256098940809
 20
4.1519130391923014
 40
8.9164285714286002
 50
37.940537
 51
46.713808
 73
     0
 72
     1
 10
4.21556076329842
 20
-2.3386942385728418
 11
3.6682950961542744
 21
-1.7914285714286962
 72
     2
 10
-1.8979256098940809
 20
4.1519130391923014
 40
8.1428571428571743
 50
313.123325
 51
325.95222
 73
     1
 72
     1
 10
4.8490093818684983
 20
-0.4071428571430076
 11
3.8718665247257533
 21
-0.4071428571430076
 72
     1
 10
3.8718665247257533
 20
-0.4071428571430076
 11
3.8718665247257533
 21
0.4071428571427092
 72
     1
 10
3.8718665247257533
 20
0.4071428571427092
 11
5.1340093818686157
 21
0.4071428571427092
 72
     1
 10
5.1340093818686157
 20
0.4071428571427092
 11
5.1340093818686157
 21
1.2214285714284152
 72
     1
 10
5.1340093818686157
 20
1.2214285714284152
 11
4.7280236542212677
 21
1.2214285714284152
 72
     2
 10
-3.9789687629962955
 20
2.9438069062169916
 40
8.8757142857143183
 50
11.189535
 51
14.746058
 73
     0
 72
     1
 10
4.6044101437030562
 20
0.6846232869284066
 11
3.9125808104399411
 21
0.9364285714284044
 72
     2
 10
-3.9789687629962955
 20
2.9438069062169916
 40
8.1428571428571743
 50
345.728313
 51
357.620387
 73
     1
 72
     1
 10
4.1568665247257641
 20
2.6057142857165694
 11
4.8844833536651819
 21
2.4774158071570227
 72
     2
 10
-3.9789687629962955
 20
2.9438069062169916
 40
8.8757142857143183
 50
3.012102
 51
6.401006
 73
     0
 72
     1
 10
4.8414139890361767
 20
1.9542857142855716
 11
5.1340093818686157
 21
1.9542857142855716
 72
     1
 10
5.1340093818686157
 20
1.9542857142855716
 11
5.1340093818686157
 21
2.8499999999998487
 72
     1
 10
5.1340093818686157
 20
2.8499999999998487
 11
5.948295096154304
 21
2.8499999999998487
 72
     1
 10
5.948295096154304
 20
2.8499999999998487
 11
5.948295096154304
 21
1.9542857142855716
 72
     1
 10
5.948295096154304
 20
1.9542857142855716
 11
7.0475808104400599
 21
1.9542857142855716
 72
     1
 10
7.0475808104400599
 20
1.9542857142855716
 11
7.0475808104400599
 21
1.2214285714284152
 72
     1
 10
7.0475808104400599
 20
1.2214285714284152
 11
5.948295096154304
 21
1.2214285714284152
 72
     1
 10
5.948295096154304
 20
1.2214285714284152
 11
5.948295096154304
 21
0.4071428571427092
 72
     1
 10
5.948295096154304
 20
0.4071428571427092
 11
7.2104379532971521
 21
0.4071428571427092
 72
     1
 10
7.2104379532971521
 20
0.4071428571427092
 11
7.2104379532971521
 21
-0.4071428571430076
 72
     1
 10
7.2104379532971521
 20
-0.4071428571430076
 11
6.2332950961542579
 21
-0.4071428571430076
 72
     2
 10
12.98023008791683
 20
4.1519130391922907
 40
8.1428571428571743
 50
214.04778
 51
226.876675
 73
     1
 72
     1
 10
7.4140093818684889
 20
-1.7914285714286962
 11
6.866743714724322
 21
-2.3386942385728453
 72
     2
 10
12.98023008791683
 20
4.1519130391922907
 40
8.9164285714286002
 50
133.286192
 51
142.059463
 73
     0
 72
     1
 10
5.948295096154304
 20
-1.330293518482641
 11
5.948295096154304
 21
-2.8500000000001648
 72
     1
 10
5.948295096154304
 20
-2.8500000000001648
 11
5.1340093818686157
 21
-2.8500000000001648
 72
     1
 10
5.1340093818686157
 20
-2.8500000000001648
 11
5.1340093818686157
 21
-1.3302935184824136
 97
        0
 75
     0
 76
     1
 98
        1
 10
0.0
 20
0.0
  0
HATCH
  5
8E
100
AcDbEntity
  8
0
  6
CONTINUOUS
 62
     3
100
AcDbHatch
 10
0.0
 20
0.0
 30
0.0
210
0.0
220
0.0
230
1.0
  2
SOLID
 70
     1
 71
     1
 91
        1
 92
        1
 93
       19
 72
     2
 10
-5.2499698511775321
 20
3.0651230633969284
 40
8.8757142857143165
 50
27.683433
 51
32.280505
 73
     0
 72
     1
 10
2.2539459810095721
 20
-1.6750827617845943
 11
1.6732950961542841
 21
-1.2214285714287314
 72
     2
 10
-5.2499698511775321
 20
3.0651230633969284
 40
8.1428571428571708
 50
328.236207
 51
344.845745
 73
     1
 72
     1
 10
2.6097236675827773
 20
0.9364285714284151
 11
1.8768665247257346
 21
0.9364285714284151
 72
     1
 10
1.8768665247257346
 20
0.9364285714284151
 11
1.8768665247257346
 21
1.7507142857141353
 72
     1
 10
1.8768665247257346
 20
1.7507142857141353
 11
2.6097236675829052
 21
1.7507142857141353
 72
     1
 10
2.6097236675829052
 20
1.7507142857141353
 11
2.6097236675829052
 21
2.8499999999998487
 72
     1
 10
2.6097236675829052
 20
2.8499999999998487
 11
3.4240093818685935
 21
2.8499999999998487
 72
     1
 10
3.4240093818685935
 20
2.8499999999998487
 11
3.4240093818685935
 21
1.7507142857141353
 72
     1
 10
3.4240093818685935
 20
1.7507142857141353
 11
3.7904379532971788
 21
1.7507142857141353
 72
     1
 10
3.7904379532971788
 20
1.7507142857141353
 11
3.7904379532971788
 21
0.9364285714284151
 72
     1
 10
3.7904379532971788
 20
0.9364285714284151
 11
3.4240093818685367
 21
0.9364285714284151
 72
     1
 10
3.4240093818685367
 20
0.9364285714284151
 11
3.8718665247257533
 21
0.2968222855516665
 72
     1
 10
3.8718665247257533
 20
0.2968222855516665
 11
3.8718665247257533
 21
-0.1989042363292235
 72
     1
 10
3.8718665247257533
 20
-0.1989042363292235
 11
3.6275808104399871
 21
-0.4900326139487277
 72
     1
 10
3.6275808104399871
 20
-0.4900326139487277
 11
3.4240093818685935
 21
-0.1993024840048498
 72
     1
 10
3.4240093818685935
 20
-0.1993024840048498
 11
3.4240093818685935
 21
-2.8500000000001648
 72
     1
 10
3.4240093818685935
 20
-2.8500000000001648
 11
2.6097236675829052
 21
-2.8500000000001648
 72
     1
 10
2.6097236675829052
 20
-2.8500000000001648
 11
2.6097236675829052
 21
-1.0584096299120844
 97
        0
 75
     0
 76
     1
 98
        1
 10
0.0
 20
0.0
  0
HATCH
  5
8F
100
AcDbEntity
  8
0
  6
CONTINUOUS
 62
     3
100
AcDbHatch
 10
0.0
 20
0.0
 30
0.0
210
0.0
220
0.0
230
1.0
  2
SOLID
 70
     1
 71
     1
 91
        1
 92
        1
 93
        8
 72
     2
 10
-1.8298808996504405
 20
-0.4560000000002766
 40
1.596000000000013
 50
270.0
 51
330.0
 73
     1
 72
     2
 10
-2.619696067901863
 20
-0.00000000000027
 40
2.508000000000012
 50
330.0
 51
30.0
 73
     1
 72
     2
 10
-1.8298808996504405
 20
0.4559999999997331
 40
1.5960000000000121
 50
30.0
 51
90.0
 73
     1
 72
     1
 10
-1.82988089965
 20
2.0519999999997438
 11
-1.82988089965
 21
2.9639999999999276
 72
     2
 10
-1.8298808996504974
 20
0.4559999999999214
 40
2.508000000000008
 50
270.0
 51
330.0
 73
     0
 72
     2
 10
-2.6196960679017494
 20
-0.0000000000001243
 40
3.420000000000015
 50
330.0
 51
30.0
 73
     0
 72
     2
 10
-1.8298808996503837
 20
-0.456000000000369
 40
2.5080000000000053
 50
30.0
 51
90.0
 73
     0
 72
     1
 10
-1.82988089965
 20
-2.9640000000003752
 11
-1.82988089965
 21
-2.0520000000002909
 97
        0
 75
     0
 76
     1
 98
        1
 10
0.0
 20
0.0
  0
HATCH
  5
90
100
AcDbEntity
  8
0
  6
CONTINUOUS
 62
     3
100
AcDbHatch
 10
0.0
 20
0.0
 30
0.0
210
0.0
220
0.0
230
1.0
  2
SOLID
 70
     1
 71
     1
 91
        1
 92
        1
 93
        8
 72
     2
 10
-1.8298808996503837
 20
-0.456000000000369
 40
2.5080000000000053
 50
90.0
 51
150.0
 73
     0
 72
     2
 10
-1.0400657313991175
 20
-0.0000000000003126
 40
3.4200000000000181
 50
150.0
 51
210.0
 73
     0
 72
     2
 10
-1.8298808996504974
 20
0.4559999999999214
 40
2.508000000000008
 50
210.0
 51
270.0
 73
     0
 72
     1
 10
-1.82988089965
 20
2.9639999999999276
 11
-1.82988089965
 21
2.0519999999997438
 72
     2
 10
-1.8298808996504405
 20
0.4559999999997331
 40
1.5960000000000121
 50
90.0
 51
150.0
 73
     1
 72
     2
 10
-1.040065731399018
 20
-0.00000000000027
 40
2.5080000000000129
 50
150.0
 51
210.0
 73
     1
 72
     2
 10
-1.8298808996504405
 20
-0.4560000000002766
 40
1.596000000000013
 50
210.0
 51
270.0
 73
     1
 72
     1
 10
-1.82988089965
 20
-2.0520000000002909
 11
-1.82988089965
 21
-2.9640000000003752
 97
        0
 75
     0
 76
     1
 98
        1
 10
0.0
 20
0.0
  0
HATCH
  5
91
100
AcDbEntity
  8
0
  6
CONTINUOUS
 62
     3
100
AcDbHatch
 10
0.0
 20
0.0
 30
0.0
210
0.0
220
0.0
230
1.0
  2
SOLID
 70
     1
 71
     1
 91
        1
 92
        1
 93
        4
 72
     1
 10
-5.3638808996504608
 20
-1.0260000000002698
 11
-6.2758808996504385
 21
-1.0260000000002698
 72
     1
 10
-6.2758808996504385
 20
-1.0260000000002698
 11
-6.2758808996504385
 21
-0.1140000000002743
 72
     1
 10
-6.2758808996504385
 20
-0.1140000000002743
 11
-5.3638808996504608
 21
-0.1140000000002743
 72
     1
 10
-5.3638808996504608
 20
-0.1140000000002743
 11
-5.3638808996504608
 21
-1.0260000000003267
 97
        0
 75
     0
 76
     1
 98
        1
 10
0.0
 20
0.0
  0
HATCH
  5
92
100
AcDbEntity
  8
0
  6
CONTINUOUS
 62
     3
100
AcDbHatch
 10
0.0
 20
0.0
 30
0.0
210
0.0
220
0.0
230
1.0
  2
SOLID
 70
     1
 71
     1
 91
        1
 92
        1
 93
       16
 72
     1
 10
-9.6958808996504686
 20
1.9379999999997324
 11
-10.949880899650459
 21
1.9379999999997324
 72
     1
 10
-10.949880899650459
 20
1.9379999999997324
 11
-11.177880899650468
 21
0.6839999999997275
 72
     1
 10
-11.177880899650468
 20
0.6839999999997275
 11
-11.861880899650437
 21
0.6839999999997275
 72
     1
 10
-11.861880899650437
 20
0.6839999999997275
 11
-11.861880899650437
 21
2.8499999999997421
 72
     1
 10
-11.861880899650437
 20
2.8499999999997421
 11
-6.6178808996504515
 21
2.8499999999997421
 72
     1
 10
-6.6178808996504515
 20
2.8499999999997421
 11
-6.6178808996504515
 21
0.6839999999997275
 72
     1
 10
-6.6178808996504515
 20
0.6839999999997275
 11
-7.3018808996504205
 21
0.6839999999997275
 72
     1
 10
-7.3018808996504205
 20
0.6839999999997275
 11
-7.5298808996504292
 21
1.9379999999997324
 72
     1
 10
-7.5298808996504292
 20
1.9379999999997324
 11
-8.7838808996504767
 21
1.9379999999997324
 72
     1
 10
-8.7838808996504767
 20
1.9379999999997324
 11
-8.7838808996504341
 21
-1.9380000000002759
 72
     1
 10
-8.7838808996504341
 20
-1.9380000000002759
 11
-7.8718808996504421
 21
-2.1660000000002846
 72
     1
 10
-7.8718808996504421
 20
-2.1660000000002846
 11
-7.8718808996504421
 21
-2.8500000000002856
 72
     1
 10
-7.8718808996504421
 20
-2.8500000000002856
 11
-10.607880899650446
 21
-2.8500000000002856
 72
     1
 10
-10.607880899650446
 20
-2.8500000000002856
 11
-10.607880899650446
 21
-2.1660000000002846
 72
     1
 10
-10.607880899650446
 20
-2.1660000000002846
 11
-9.6958808996504686
 21
-1.9380000000002759
 72
     1
 10
-9.6958808996504686
 20
-1.9380000000002759
 11
-9.6958808996504686
 21
1.9379999999997324
 97
        0
 75
     0
 76
     1
 98
        1
 10
0.0
 20
0.0
  0
HATCH
  5
93
100
AcDbEntity
  8
0
  6
CONTINUOUS
 62
     3
100
AcDbHatch
 10
0.0
 20
0.0
 30
0.0
210
0.0
220
0.0
230
1.0
  2
SOLID
 70
     1
 71
     1
 91
        1
 92
        1
 93
        4
 72
     1
 10
-13.115880899650485
 20
-1.0260000000002698
 11
-13.115880899650428
 21
-0.1140000000002175
 72
     1
 10
-13.115880899650428
 20
-0.1140000000002175
 11
-12.20388089965045
 21
-0.1140000000002743
 72
     1
 10
-12.20388089965045
 20
-0.1140000000002743
 11
-12.20388089965045
 21
-1.0260000000002698
 72
     1
 10
-12.20388089965045
 20
-1.0260000000002698
 11
-13.115880899650428
 21
-1.0260000000002698
 97
        0
 75
     0
 76
     1
 98
        1
 10
0.0
 20
0.0
  0
HATCH
  5
94
100
AcDbEntity
  8
0
  6
CONTINUOUS
 62
     3
100
AcDbHatch
 10
0.0
 20
0.0
 30
0.0
210
0.0
220
0.0
230
1.0
  2
SOLID
 70
     1
 71
     1
 91
        1
 92
        1
 93
       12
 72
     1
 10
-14.141880899650467
 20
2.8499999999997421
 11
-14.141880899650467
 21
2.1659999999997304
 72
     1
 10
-14.141880899650467
 20
2.1659999999997304
 11
-15.053880899650444
 21
1.9379999999997324
 72
     1
 10
-15.053880899650444
 20
1.9379999999997324
 11
-15.053880899650444
 21
-1.9380000000002759
 72
     1
 10
-15.053880899650444
 20
-1.9380000000002759
 11
-14.141880899650467
 21
-2.1660000000002846
 72
     1
 10
-14.141880899650467
 20
-2.1660000000002846
 11
-14.141880899650467
 21
-2.8500000000002856
 72
     1
 10
-14.141880899650467
 20
-2.8500000000002856
 11
-16.877880899650467
 21
-2.8500000000002856
 72
     1
 10
-16.877880899650467
 20
-2.8500000000002856
 11
-16.877880899650467
 21
-2.1660000000002846
 72
     1
 10
-16.877880899650467
 20
-2.1660000000002846
 11
-15.965880899650482
 21
-1.9380000000002759
 72
     1
 10
-15.965880899650482
 20
-1.9380000000002759
 11
-15.965880899650482
 21
1.9379999999997324
 72
     1
 10
-15.965880899650482
 20
1.9379999999997324
 11
-16.877880899650467
 21
2.165999999999741
 72
     1
 10
-16.877880899650467
 20
2.165999999999741
 11
-16.877880899650467
 21
2.8499999999997421
 72
     1
 10
-16.877880899650467
 20
2.8499999999997421
 11
-14.141880899650467
 21
2.8499999999997421
 97
        0
 75
     0
 76
     1
 98
        1
 10
0.0
 20
0.0
  0
HATCH
  5
95
100
AcDbEntity
  8
0
  6
CONTINUOUS
 62
     3
100
AcDbHatch
 10
0.0
 20
0.0
 30
0.0
210
0.0
220
0.0
230
1.0
  2
SOLID
 70
     1
 71
     1
 91
        1
 92
        1
 93
       15
 72
     2
 10
-23.082241990843084
 20
-0.0000000000001492
 40
2.531053105310535
 50
124.301153
 51
180.0
 73
     0
 72
     1
 10
-25.613295096153617
 20
0.0
 11
-24.658234262528236
 21
0.0
 72
     2
 10
-22.195587997901765
 20
-0.000000000000135
 40
2.46264626462647
 50
180.0
 51
199.464384
 73
     1
 72
     2
 10
-24.557343260027135
 20
0.2731786481661374
 40
1.094509450945121
 50
272.086657
 51
294.619977
 73
     1
 72
     2
 10
-24.243863734539655
 20
-0.4108897586745677
 40
0.342034203420344
 50
294.619977
 51
0.0
 73
     1
 72
     1
 10
-23.901829531119287
 20
-0.4108897586745677
 11
-23.901829531119287
 21
0.0
 72
     1
 10
-23.901829531119287
 20
0.0
 11
-23.080947442910482
 21
0.0
 72
     1
 10
-23.080947442910482
 20
0.0
 11
-23.080947442910482
 21
-0.4116155274721614
 72
     2
 10
-22.73891323949012
 20
-0.4116155274721614
 40
0.34203420342033
 50
180.0
 51
245.380023
 73
     1
 72
     2
 10
-22.425433714002583
 20
0.2724528793686645
 40
1.0945094509452411
 50
245.380023
 51
267.913343
 73
     1
 72
     1
 10
-22.465285876753814
 20
-0.8213308027789985
 11
-22.465285876753814
 21
-1.0265513248311819
 72
     1
 10
-22.465285876753814
 20
-1.0265513248311819
 11
-24.434073870576871
 21
-1.0265513248311962
 72
     2
 10
-22.195587997901708
 20
-0.000000000000135
 40
2.4626462646264669
 50
204.635803
 51
268.19864
 73
     1
 72
     1
 10
-22.272999999999005
 20
-2.4614292609397985
 11
-22.272999999999005
 21
-2.8039503813289706
 72
     2
 10
-22.195587997901765
 20
1.2997299729972909
 40
4.1044104410441236
 50
91.080702
 51
124.301153
 73
     0
 97
        0
 75
     0
 76
     1
 98
        1
 10
0.0
 20
0.0
  0
HATCH
  5
96
100
AcDbEntity
  8
0
  6
CONTINUOUS
 62
     3
100
AcDbHatch
 10
0.0
 20
0.0
 30
0.0
210
0.0
220
0.0
230
1.0
  2
SOLID
 70
     1
 71
     1
 91
        1
 92
        1
 93
       24
 72
     2
 10
-22.67055612196938
 20
0.3420342034202015
 40
0.342034203420347
 50
90.0
 51
157.380135
 73
     1
 72
     2
 10
-21.849674033760575
 20
-0.0000000000001101
 40
1.231323132313237
 50
157.380135
 51
180.0
 73
     1
 72
     1
 10
-23.080997166073811
 20
0.0
 11
-23.901829531119287
 21
0.0
 72
     1
 10
-23.901829531119287
 20
0.0
 11
-23.901829531119287
 21
1.7757720729310194
 72
     2
 10
-22.195587997901765
 20
-0.000000000000135
 40
2.46264626462647
 50
133.856042
 51
180.0
 73
     1
 72
     1
 10
-24.658234262528236
 20
0.0
 11
-25.613295096153617
 21
0.0
 72
     2
 10
-23.082241990843084
 20
-0.0000000000001492
 40
2.531053105310535
 50
180.0
 51
235.698847
 73
     0
 72
     2
 10
-22.195587997901708
 20
-1.2997299729975893
 40
4.1044104410441324
 50
235.698847
 51
245.436008
 73
     0
 72
     1
 10
-23.901829531119287
 20
2.4332212587861193
 11
-23.901829531119287
 21
2.8049575222742433
 72
     2
 10
-24.243863734539655
 20
2.8049575222742433
 40
0.3420342034203421
 50
0.0
 51
65.380023
 73
     1
 72
     2
 10
-24.557343260027135
 20
2.1208891154335525
 40
1.0945094509450961
 50
65.380023
 51
87.913343
 73
     1
 72
     1
 10
-24.517491097275904
 20
3.2146727975810734
 11
-24.517491097275904
 21
3.4198933196332746
 72
     1
 10
-24.517491097275904
 20
3.4198933196332746
 11
-22.465285876753814
 21
3.4198933196332746
 72
     1
 10
-22.465285876753814
 20
3.4198933196332746
 11
-22.465285876753814
 21
3.2146727975810769
 72
     2
 10
-22.425433714002583
 20
2.1208891154335525
 40
1.094509450945101
 50
92.086657
 51
114.619977
 73
     1
 72
     2
 10
-22.738913239490063
 20
2.8049575222742575
 40
0.342034203420347
 50
114.619977
 51
180.0
 73
     1
 72
     1
 10
-23.080947442910432
 20
2.8049575222742433
 11
-23.080947442910432
 21
2.7080529205341897
 72
     2
 10
-22.195587997901765
 20
-1.2997299729975893
 40
4.1044104410441218
 50
257.542857
 51
268.919298
 73
     0
 72
     1
 10
-22.272999999999005
 20
2.8039503813286721
 11
-22.272999999999005
 21
2.4614292609395321
 72
     2
 10
-22.195587997901708
 20
-0.000000000000135
 40
2.46264626462647
 50
91.80136
 51
111.070443
 73
     1
 72
     1
 10
-23.080947442910482
 20
2.2979915747913111
 11
-23.080947442910482
 21
1.0261026102608923
 72
     1
 10
-23.080947442910482
 20
1.0261026102608923
 11
-22.272999999998969
 21
1.0261026102608923
 72
     1
 10
-22.272999999998969
 20
1.0261026102608923
 11
-22.272999999999005
 21
0.6840684068405416
 72
     1
 10
-22.272999999999005
 20
0.6840684068405416
 11
-22.67055612196938
 21
0.6840684068405416
 97
        0
 75
     0
 76
     1
 98
        1
 10
0.0
 20
0.0
  0
HATCH
  5
97
100
AcDbEntity
  8
0
  6
CONTINUOUS
 62
     3
100
AcDbHatch
 10
0.0
 20
0.0
 30
0.0
210
0.0
220
0.0
230
1.0
  2
SOLID
 70
     1
 71
     1
 91
        1
 92
        1
 93
       14
 72
     2
 10
-22.195587997901765
 20
-0.000000000000135
 40
2.4626462646264748
 50
0.0
 51
9.281799
 73
     1
 72
     2
 10
-20.102741104833992
 20
0.3420342034202015
 40
0.34203420342034
 50
9.281799
 51
90.0
 73
     1
 72
     1
 10
-20.102741104833992
 20
0.6840684068405416
 11
-20.827451184220411
 21
0.6840684068405416
 72
     1
 10
-20.827451184220411
 20
0.6840684068405416
 11
-20.827451184220411
 21
0.0
 72
     1
 10
-20.827451184220411
 20
0.0
 11
-21.648333272429209
 21
0.0
 72
     1
 10
-21.648333272429209
 20
0.0
 11
-21.648333272429209
 21
0.6840684068405416
 72
     1
 10
-21.648333272429209
 20
0.6840684068405416
 11
-22.272999999999005
 21
0.6840684068405416
 72
     1
 10
-22.272999999999005
 20
0.6840684068405416
 11
-22.272999999999005
 21
1.0261026102608923
 72
     1
 10
-22.272999999999005
 20
1.0261026102608923
 11
-19.956896402818945
 21
1.0261026102608675
 72
     2
 10
-22.195587997901708
 20
-0.000000000000135
 40
2.46264626462647
 50
24.624318
 51
91.80136
 73
     1
 72
     1
 10
-22.272999999999005
 20
2.4614292609395321
 11
-22.272999999999005
 21
2.8039503813286721
 72
     2
 10
-22.195587997901765
 20
-1.2997299729975893
 40
4.1044104410441218
 50
268.919298
 51
304.301153
 73
     0
 72
     2
 10
-21.308934004960445
 20
-0.0000000000001492
 40
2.5310531053105372
 50
304.301153
 51
0.0
 73
     0
 72
     1
 10
-18.777880899649912
 20
0.0
 11
-19.732941733275293
 21
0.0
 97
        0
 75
     0
 76
     1
 98
        1
 10
0.0
 20
0.0
  0
HATCH
  5
98
100
AcDbEntity
  8
0
  6
CONTINUOUS
 62
     3
100
AcDbHatch
 10
0.0
 20
0.0
 30
0.0
210
0.0
220
0.0
230
1.0
  2
SOLID
 70
     1
 71
     1
 91
        1
 92
        1
 93
       19
 72
     2
 10
-22.195587997901765
 20
-0.000000000000135
 40
2.4626462646264748
 50
303.748989
 51
0.0
 73
     1
 72
     1
 10
-19.732941733275293
 20
0.0
 11
-18.777880899649912
 21
0.0
 72
     2
 10
-21.308934004960445
 20
-0.0000000000001492
 40
2.5310531053105372
 50
0.0
 51
55.698847
 73
     0
 72
     2
 10
-22.195587997901708
 20
1.2997299729973051
 40
4.1044104410441289
 50
55.698847
 51
70.528779
 73
     0
 72
     1
 10
-20.827451184220411
 20
-2.5699453011829512
 11
-20.827451184220411
 21
-2.8054062368445436
 72
     2
 10
-20.485416980800043
 20
-2.8054062368445436
 40
0.342034203420344
 50
180.0
 51
245.380023
 73
     1
 72
     2
 10
-20.171937455312563
 20
-2.1213378300038528
 40
1.094509450945099
 50
245.380023
 51
267.913343
 73
     1
 72
     1
 10
-20.211789618063744
 20
-3.2151215121513772
 11
-20.211789618063744
 21
-3.4203420342035784
 72
     1
 10
-20.211789618063744
 20
-3.4203420342035784
 11
-22.263994838585827
 21
-3.4203420342035784
 72
     1
 10
-22.263994838585827
 20
-3.4203420342035784
 11
-22.263994838585827
 21
-3.2151215121513737
 72
     2
 10
-22.303847001337058
 20
-2.1213378300038528
 40
1.094509450945099
 50
272.086657
 51
294.619977
 73
     1
 72
     2
 10
-21.990367475849578
 20
-2.8054062368445436
 40
0.342034203420344
 50
294.619977
 51
0.0
 73
     1
 72
     1
 10
-21.648333272429209
 20
-2.8054062368445436
 11
-21.648333272429209
 21
-2.7680332125876284
 72
     2
 10
-22.195587997901765
 20
1.2997299729972909
 40
4.1044104410441236
 50
82.337744
 51
91.080702
 73
     0
 72
     1
 10
-22.272999999999005
 20
-2.8039503813289706
 11
-22.272999999999005
 21
-2.4614292609397985
 72
     2
 10
-22.195587997901708
 20
-0.000000000000135
 40
2.4626462646264669
 50
268.19864
 51
282.839588
 73
     1
 72
     1
 10
-21.648333272429209
 20
-2.4010703634269781
 11
-21.648333272429209
 21
0.0
 72
     1
 10
-21.648333272429209
 20
0.0
 11
-20.827451184220411
 21
0.0
 72
     1
 10
-20.827451184220411
 20
0.0
 11
-20.827451184220411
 21
-2.047639686011447
 97
        0
 75
     0
 76
     1
 98
        1
 10
0.0
 20
0.0
  0
ENDBLK
  5
99
100
AcDbEntity
  8
0
100
AcDbBlockEnd
  0
ENDSEC
  0
SECTION
  2
ENTITIES
  0
ARC
  5
9A
100
AcDbEntity
  8
LAY-1
  6
CONTINUOUS
 62
     2
100
AcDbCircle
 10
631.853077
 20
117.818547
 30
0.0
 40
5.009003
100
AcDbArc
 50
180.0
 51
210.565895
  0
ARC
  5
9B
100
AcDbEntity
  8
LAY-1
  6
CONTINUOUS
 62
     2
100
AcDbCircle
 10
631.853077
 20
105.218547
 30
0.0
 40
5.009003
100
AcDbArc
 50
149.434105
 51
180.0
  0
LINE
  5
9C
100
AcDbEntity
  8
LAY-1
  6
CONTINUOUS
 62
     2
100
AcDbLine
 10
633.344074
 20
107.76577
 30
0.0
 11
627.540101
 21
107.76577
 31
0.0
  0
LINE
  5
9D
100
AcDbEntity
  8
LAY-1
  6
CONTINUOUS
 62
     2
100
AcDbLine
 10
627.540101
 20
104.012994
 30
0.0
 11
633.344074
 21
104.012994
 31
0.0
  0
LINE
  5
9E
100
AcDbEntity
  8
LAY-1
  6
CONTINUOUS
 62
     2
100
AcDbLine
 10
633.344074
 20
115.271324
 30
0.0
 11
627.540101
 21
115.271324
 31
0.0
  0
LINE
  5
9F
100
AcDbEntity
  8
LAY-1
  6
CONTINUOUS
 62
     2
100
AcDbLine
 10
633.344074
 20
119.024101
 30
0.0
 11
627.540101
 21
119.024101
 31
0.0
  0
LINE
  5
A0
100
AcDbEntity
  8
LAY-1
  6
CONTINUOUS
 62
     2
100
AcDbLine
 10
627.540101
 20
104.012994
 30
0.0
 11
626.844074
 21
105.218547
 31
0.0
  0
LINE
  5
A1
100
AcDbEntity
  8
LAY-1
  6
CONTINUOUS
 62
     2
100
AcDbLine
 10
660.344074
 20
119.024101
 30
0.0
 11
665.148048
 21
119.024101
 31
0.0
  0
LINE
  5
A2
100
AcDbEntity
  8
LAY-1
  6
CONTINUOUS
 62
     2
100
AcDbLine
 10
626.844074
 20
117.818547
 30
0.0
 11
626.844074
 21
105.218547
 31
0.0
  0
ARC
  5
A3
100
AcDbEntity
  8
LAY-1
  6
CONTINUOUS
 62
     2
100
AcDbCircle
 10
637.309037
 20
111.518547
 30
0.0
 40
10.464963
100
AcDbArc
 50
158.985518
 51
201.014482
  0
LINE
  5
A4
100
AcDbEntity
  8
LAY-1
  6
CONTINUOUS
 62
     2
100
AcDbLine
 10
665.844074
 20
117.818547
 30
0.0
 11
665.844074
 21
105.218547
 31
0.0
  0
LINE
  5
A5
100
AcDbEntity
  8
LAY-1
  6
CONTINUOUS
 62
     2
100
AcDbLine
 10
665.148048
 20
104.012994
 30
0.0
 11
660.344074
 21
104.012994
 31
0.0
  0
LINE
  5
A6
100
AcDbEntity
  8
LAY-1
  6
CONTINUOUS
 62
     2
100
AcDbLine
 10
665.148048
 20
119.024101
 30
0.0
 11
665.844074
 21
117.818547
 31
0.0
  0
ARC
  5
A7
100
AcDbEntity
  8
LAY-1
  6
CONTINUOUS
 62
     2
100
AcDbCircle
 10
655.379111
 20
111.518547
 30
0.0
 40
10.464963
100
AcDbArc
 50
338.985518
 51
21.014482
  0
LINE
  5
A8
100
AcDbEntity
  8
LAY-1
  6
CONTINUOUS
 62
     2
100
AcDbLine
 10
665.148048
 20
104.012994
 30
0.0
 11
665.844074
 21
105.218547
 31
0.0
  0
LINE
  5
A9
100
AcDbEntity
  8
LAY-1
  6
CONTINUOUS
 62
     2
100
AcDbLine
 10
627.540101
 20
119.024101
 30
0.0
 11
626.844074
 21
117.818547
 31
0.0
  0
ARC
  5
AA
100
AcDbEntity
  8
LAY-1
  6
CONTINUOUS
 62
     2
100
AcDbCircle
 10
660.835071
 20
117.818547
 30
0.0
 40
5.009003
100
AcDbArc
 50
329.434105
 51
0.0
  0
ARC
  5
AB
100
AcDbEntity
  8
LAY-1
  6
CONTINUOUS
 62
     2
100
AcDbCircle
 10
660.835071
 20
105.218547
 30
0.0
 40
5.009003
100
AcDbArc
 50
0.0
 51
30.565895
  0
LINE
  5
AC
100
AcDbEntity
  8
LAY-1
  6
CONTINUOUS
 62
     2
100
AcDbLine
 10
660.344074
 20
115.271324
 30
0.0
 11
665.148048
 21
115.271324
 31
0.0
  0
LINE
  5
AD
100
AcDbEntity
  8
LAY-1
  6
CONTINUOUS
 62
     2
100
AcDbLine
 10
660.344074
 20
107.76577
 30
0.0
 11
665.148048
 21
107.76577
 31
0.0
  0
LINE
  5
AE
100
AcDbEntity
  8
LAY-1
  6
CONTINUOUS
 62
     2
100
AcDbLine
 10
634.344074
 20
120.252481
 30
0.0
 11
633.344074
 21
119.024101
 31
0.0
  0
LINE
  5
AF
100
AcDbEntity
  8
LAY-1
  6
CONTINUOUS
 62
     2
100
AcDbLine
 10
633.344074
 20
119.024101
 30
0.0
 11
633.344074
 21
104.012994
 31
0.0
  0
LINE
  5
B0
100
AcDbEntity
  8
LAY-1
  6
CONTINUOUS
 62
     2
100
AcDbLine
 10
633.344074
 20
104.012994
 30
0.0
 11
634.344074
 21
102.830425
 31
0.0
  0
ARC
  5
B1
100
AcDbEntity
  8
LAY-1
  6
CONTINUOUS
 62
     2
100
AcDbCircle
 10
631.853077
 20
74.450579
 30
0.0
 40
5.009003
100
AcDbArc
 50
180.0
 51
210.565895
  0
ARC
  5
B2
100
AcDbEntity
  8
LAY-1
  6
CONTINUOUS
 62
     2
100
AcDbCircle
 10
631.853077
 20
61.850579
 30
0.0
 40
5.009003
100
AcDbArc
 50
149.434105
 51
180.0
  0
LINE
  5
B3
100
AcDbEntity
  8
LAY-1
  6
CONTINUOUS
 62
     2
100
AcDbLine
 10
633.344074
 20
64.397803
 30
0.0
 11
627.540101
 21
64.397803
 31
0.0
  0
LINE
  5
B4
100
AcDbEntity
  8
LAY-1
  6
CONTINUOUS
 62
     2
100
AcDbLine
 10
627.540101
 20
60.645026
 30
0.0
 11
633.344074
 21
60.645026
 31
0.0
  0
LINE
  5
B5
100
AcDbEntity
  8
LAY-1
  6
CONTINUOUS
 62
     2
100
AcDbLine
 10
633.344074
 20
71.903356
 30
0.0
 11
627.540101
 21
71.903356
 31
0.0
  0
LINE
  5
B6
100
AcDbEntity
  8
LAY-1
  6
CONTINUOUS
 62
     2
100
AcDbLine
 10
633.344074
 20
75.656133
 30
0.0
 11
627.540101
 21
75.656133
 31
0.0
  0
LINE
  5
B7
100
AcDbEntity
  8
LAY-1
  6
CONTINUOUS
 62
     2
100
AcDbLine
 10
627.540101
 20
60.645026
 30
0.0
 11
626.844074
 21
61.850579
 31
0.0
  0
LINE
  5
B8
100
AcDbEntity
  8
LAY-1
  6
CONTINUOUS
 62
     2
100
AcDbLine
 10
660.344074
 20
75.656133
 30
0.0
 11
665.148048
 21
75.656133
 31
0.0
  0
LINE
  5
B9
100
AcDbEntity
  8
LAY-1
  6
CONTINUOUS
 62
     2
100
AcDbLine
 10
626.844074
 20
74.450579
 30
0.0
 11
626.844074
 21
61.850579
 31
0.0
  0
ARC
  5
BA
100
AcDbEntity
  8
LAY-1
  6
CONTINUOUS
 62
     2
100
AcDbCircle
 10
637.309037
 20
68.150579
 30
0.0
 40
10.464963
100
AcDbArc
 50
158.985518
 51
201.014482
  0
LINE
  5
BB
100
AcDbEntity
  8
LAY-1
  6
CONTINUOUS
 62
     2
100
AcDbLine
 10
665.844074
 20
74.450579
 30
0.0
 11
665.844074
 21
61.850579
 31
0.0
  0
LINE
  5
BC
100
AcDbEntity
  8
LAY-1
  6
CONTINUOUS
 62
     2
100
AcDbLine
 10
665.148048
 20
60.645026
 30
0.0
 11
660.344074
 21
60.645026
 31
0.0
  0
LINE
  5
BD
100
AcDbEntity
  8
LAY-1
  6
CONTINUOUS
 62
     2
100
AcDbLine
 10
665.148048
 20
75.656133
 30
0.0
 11
665.844074
 21
74.450579
 31
0.0
  0
ARC
  5
BE
100
AcDbEntity
  8
LAY-1
  6
CONTINUOUS
 62
     2
100
AcDbCircle
 10
655.379111
 20
68.150579
 30
0.0
 40
10.464963
100
AcDbArc
 50
338.985518
 51
21.014482
  0
LINE
  5
BF
100
AcDbEntity
  8
LAY-1
  6
CONTINUOUS
 62
     2
100
AcDbLine
 10
665.148048
 20
60.645026
 30
0.0
 11
665.844074
 21
61.850579
 31
0.0
  0
LINE
  5
C0
100
AcDbEntity
  8
LAY-1
  6
CONTINUOUS
 62
     2
100
AcDbLine
 10
627.540101
 20
75.656133
 30
0.0
 11
626.844074
 21
74.450579
 31
0.0
  0
ARC
  5
C1
100
AcDbEntity
  8
LAY-1
  6
CONTINUOUS
 62
     2
100
AcDbCircle
 10
660.835071
 20
74.450579
 30
0.0
 40
5.009003
100
AcDbArc
 50
329.434105
 51
0.0
  0
ARC
  5
C2
100
AcDbEntity
  8
LAY-1
  6
CONTINUOUS
 62
     2
100
AcDbCircle
 10
660.835071
 20
61.850579
 30
0.0
 40
5.009003
100
AcDbArc
 50
0.0
 51
30.565895
  0
LINE
  5
C3
100
AcDbEntity
  8
LAY-1
  6
CONTINUOUS
 62
     2
100
AcDbLine
 10
660.344074
 20
71.903356
 30
0.0
 11
665.148048
 21
71.903356
 31
0.0
  0
LINE
  5
C4
100
AcDbEntity
  8
LAY-1
  6
CONTINUOUS
 62
     2
100
AcDbLine
 10
660.344074
 20
64.397803
 30
0.0
 11
665.148048
 21
64.397803
 31
0.0
  0
LINE
  5
C5
100
AcDbEntity
  8
LAY-1
  6
CONTINUOUS
 62
     2
100
AcDbLine
 10
634.344074
 20
76.884513
 30
0.0
 11
633.344074
 21
75.656133
 31
0.0
  0
LINE
  5
C6
100
AcDbEntity
  8
LAY-1
  6
CONTINUOUS
 62
     2
100
AcDbLine
 10
633.344074
 20
75.656133
 30
0.0
 11
633.344074
 21
60.645026
 31
0.0
  0
LINE
  5
C7
100
AcDbEntity
  8
LAY-1
  6
CONTINUOUS
 62
     2
100
AcDbLine
 10
633.344074
 20
60.645026
 30
0.0
 11
634.344074
 21
59.462457
 31
0.0
  0
ARC
  5
C8
100
AcDbEntity
  8
LAY-1
  6
CONTINUOUS
 62
     2
100
AcDbCircle
 10
631.853077
 20
179.150116
 30
0.0
 40
5.009003
100
AcDbArc
 50
180.0
 51
210.565895
  0
ARC
  5
C9
100
AcDbEntity
  8
LAY-1
  6
CONTINUOUS
 62
     2
100
AcDbCircle
 10
631.853077
 20
166.550116
 30
0.0
 40
5.009003
100
AcDbArc
 50
149.434105
 51
180.0
  0
LINE
  5
CA
100
AcDbEntity
  8
LAY-1
  6
CONTINUOUS
 62
     2
100
AcDbLine
 10
633.344074
 20
169.097339
 30
0.0
 11
627.540101
 21
169.097339
 31
0.0
  0
LINE
  5
CB
100
AcDbEntity
  8
LAY-1
  6
CONTINUOUS
 62
     2
100
AcDbLine
 10
627.540101
 20
165.344562
 30
0.0
 11
633.344074
 21
165.344562
 31
0.0
  0
LINE
  5
CC
100
AcDbEntity
  8
LAY-1
  6
CONTINUOUS
 62
     2
100
AcDbLine
 10
633.344074
 20
176.602892
 30
0.0
 11
627.540101
 21
176.602892
 31
0.0
  0
LINE
  5
CD
100
AcDbEntity
  8
LAY-1
  6
CONTINUOUS
 62
     2
100
AcDbLine
 10
633.344074
 20
180.355669
 30
0.0
 11
627.540101
 21
180.355669
 31
0.0
  0
LINE
  5
CE
100
AcDbEntity
  8
LAY-1
  6
CONTINUOUS
 62
     2
100
AcDbLine
 10
627.540101
 20
165.344562
 30
0.0
 11
626.844074
 21
166.550116
 31
0.0
  0
LINE
  5
CF
100
AcDbEntity
  8
LAY-1
  6
CONTINUOUS
 62
     2
100
AcDbLine
 10
660.344074
 20
180.355669
 30
0.0
 11
665.148048
 21
180.355669
 31
0.0
  0
LINE
  5
D0
100
AcDbEntity
  8
LAY-1
  6
CONTINUOUS
 62
     2
100
AcDbLine
 10
626.844074
 20
179.150116
 30
0.0
 11
626.844074
 21
166.550116
 31
0.0
  0
ARC
  5
D1
100
AcDbEntity
  8
LAY-1
  6
CONTINUOUS
 62
     2
100
AcDbCircle
 10
637.309037
 20
172.850116
 30
0.0
 40
10.464963
100
AcDbArc
 50
158.985518
 51
201.014482
  0
LINE
  5
D2
100
AcDbEntity
  8
LAY-1
  6
CONTINUOUS
 62
     2
100
AcDbLine
 10
665.844074
 20
179.150116
 30
0.0
 11
665.844074
 21
166.550116
 31
0.0
  0
LINE
  5
D3
100
AcDbEntity
  8
LAY-1
  6
CONTINUOUS
 62
     2
100
AcDbLine
 10
665.148048
 20
165.344562
 30
0.0
 11
660.344074
 21
165.344562
 31
0.0
  0
LINE
  5
D4
100
AcDbEntity
  8
LAY-1
  6
CONTINUOUS
 62
     2
100
AcDbLine
 10
665.148048
 20
180.355669
 30
0.0
 11
665.844074
 21
179.150116
 31
0.0
  0
ARC
  5
D5
100
AcDbEntity
  8
LAY-1
  6
CONTINUOUS
 62
     2
100
AcDbCircle
 10
655.379111
 20
172.850116
 30
0.0
 40
10.464963
100
AcDbArc
 50
338.985518
 51
21.014482
  0
LINE
  5
D6
100
AcDbEntity
  8
LAY-1
  6
CONTINUOUS
 62
     2
100
AcDbLine
 10
665.148048
 20
165.344562
 30
0.0
 11
665.844074
 21
166.550116
 31
0.0
  0
LINE
  5
D7
100
AcDbEntity
  8
LAY-1
  6
CONTINUOUS
 62
     2
100
AcDbLine
 10
627.540101
 20
180.355669
 30
0.0
 11
626.844074
 21
179.150116
 31
0.0
  0
ARC
  5
D8
100
AcDbEntity
  8
LAY-1
  6
CONTINUOUS
 62
     2
100
AcDbCircle
 10
660.835071
 20
179.150116
 30
0.0
 40
5.009003
100
AcDbArc
 50
329.434105
 51
0.0
  0
ARC
  5
D9
100
AcDbEntity
  8
LAY-1
  6
CONTINUOUS
 62
     2
100
AcDbCircle
 10
660.835071
 20
166.550116
 30
0.0
 40
5.009003
100
AcDbArc
 50
0.0
 51
30.565895
  0
LINE
  5
DA
100
AcDbEntity
  8
LAY-1
  6
CONTINUOUS
 62
     2
100
AcDbLine
 10
660.344074
 20
176.602892
 30
0.0
 11
665.148048
 21
176.602892
 31
0.0
  0
LINE
  5
DB
100
AcDbEntity
  8
LAY-1
  6
CONTINUOUS
 62
     2
100
AcDbLine
 10
660.344074
 20
169.097339
 30
0.0
 11
665.148048
 21
169.097339
 31
0.0
  0
LINE
  5
DC
100
AcDbEntity
  8
LAY-1
  6
CONTINUOUS
 62
     2
100
AcDbLine
 10
634.344074
 20
181.58405
 30
0.0
 11
633.344074
 21
180.355669
 31
0.0
  0
LINE
  5
DD
100
AcDbEntity
  8
LAY-1
  6
CONTINUOUS
 62
     2
100
AcDbLine
 10
633.344074
 20
180.355669
 30
0.0
 11
633.344074
 21
165.344562
 31
0.0
  0
LINE
  5
DE
100
AcDbEntity
  8
LAY-1
  6
CONTINUOUS
 62
     2
100
AcDbLine
 10
633.344074
 20
165.344562
 30
0.0
 11
634.344074
 21
164.161993
 31
0.0
  0
ARC
  5
DF
100
AcDbEntity
  8
LAY-1
  6
CONTINUOUS
 62
     2
100
AcDbCircle
 10
631.853077
 20
209.918084
 30
0.0
 40
5.009003
100
AcDbArc
 50
149.434105
 51
180.0
  0
ARC
  5
E0
100
AcDbEntity
  8
LAY-1
  6
CONTINUOUS
 62
     2
100
AcDbCircle
 10
631.853077
 20
222.518084
 30
0.0
 40
5.009003
100
AcDbArc
 50
180.0
 51
210.565895
  0
LINE
  5
E1
100
AcDbEntity
  8
LAY-1
  6
CONTINUOUS
 62
     2
100
AcDbLine
 10
633.344074
 20
219.97086
 30
0.0
 11
627.540101
 21
219.97086
 31
0.0
  0
LINE
  5
E2
100
AcDbEntity
  8
LAY-1
  6
CONTINUOUS
 62
     2
100
AcDbLine
 10
627.540101
 20
223.723637
 30
0.0
 11
633.344074
 21
223.723637
 31
0.0
  0
LINE
  5
E3
100
AcDbEntity
  8
LAY-1
  6
CONTINUOUS
 62
     2
100
AcDbLine
 10
633.344074
 20
212.465307
 30
0.0
 11
627.540101
 21
212.465307
 31
0.0
  0
LINE
  5
E4
100
AcDbEntity
  8
LAY-1
  6
CONTINUOUS
 62
     2
100
AcDbLine
 10
633.344074
 20
208.71253
 30
0.0
 11
627.540101
 21
208.71253
 31
0.0
  0
LINE
  5
E5
100
AcDbEntity
  8
LAY-1
  6
CONTINUOUS
 62
     2
100
AcDbLine
 10
627.540101
 20
223.723637
 30
0.0
 11
626.844074
 21
222.518084
 31
0.0
  0
LINE
  5
E6
100
AcDbEntity
  8
LAY-1
  6
CONTINUOUS
 62
     2
100
AcDbLine
 10
660.344074
 20
208.71253
 30
0.0
 11
665.148048
 21
208.71253
 31
0.0
  0
LINE
  5
E7
100
AcDbEntity
  8
LAY-1
  6
CONTINUOUS
 62
     2
100
AcDbLine
 10
626.844074
 20
209.918084
 30
0.0
 11
626.844074
 21
222.518084
 31
0.0
  0
ARC
  5
E8
100
AcDbEntity
  8
LAY-1
  6
CONTINUOUS
 62
     2
100
AcDbCircle
 10
637.309037
 20
216.218084
 30
0.0
 40
10.464963
100
AcDbArc
 50
158.985518
 51
201.014482
  0
LINE
  5
E9
100
AcDbEntity
  8
LAY-1
  6
CONTINUOUS
 62
     2
100
AcDbLine
 10
665.844074
 20
209.918084
 30
0.0
 11
665.844074
 21
222.518084
 31
0.0
  0
LINE
  5
EA
100
AcDbEntity
  8
LAY-1
  6
CONTINUOUS
 62
     2
100
AcDbLine
 10
665.148048
 20
223.723637
 30
0.0
 11
660.344074
 21
223.723637
 31
0.0
  0
LINE
  5
EB
100
AcDbEntity
  8
LAY-1
  6
CONTINUOUS
 62
     2
100
AcDbLine
 10
665.148048
 20
208.71253
 30
0.0
 11
665.844074
 21
209.918084
 31
0.0
  0
ARC
  5
EC
100
AcDbEntity
  8
LAY-1
  6
CONTINUOUS
 62
     2
100
AcDbCircle
 10
655.379111
 20
216.218084
 30
0.0
 40
10.464963
100
AcDbArc
 50
338.985518
 51
21.014482
  0
LINE
  5
ED
100
AcDbEntity
  8
LAY-1
  6
CONTINUOUS
 62
     2
100
AcDbLine
 10
665.148048
 20
223.723637
 30
0.0
 11
665.844074
 21
222.518084
 31
0.0
  0
LINE
  5
EE
100
AcDbEntity
  8
LAY-1
  6
CONTINUOUS
 62
     2
100
AcDbLine
 10
627.540101
 20
208.71253
 30
0.0
 11
626.844074
 21
209.918084
 31
0.0
  0
ARC
  5
EF
100
AcDbEntity
  8
LAY-1
  6
CONTINUOUS
 62
     2
100
AcDbCircle
 10
660.835071
 20
209.918084
 30
0.0
 40
5.009003
100
AcDbArc
 50
0.0
 51
30.565895
  0
ARC
  5
F0
100
AcDbEntity
  8
LAY-1
  6
CONTINUOUS
 62
     2
100
AcDbCircle
 10
660.835071
 20
222.518084
 30
0.0
 40
5.009003
100
AcDbArc
 50
329.434105
 51
0.0
  0
LINE
  5
F1
100
AcDbEntity
  8
LAY-1
  6
CONTINUOUS
 62
     2
100
AcDbLine
 10
660.344074
 20
212.465307
 30
0.0
 11
665.148048
 21
212.465307
 31
0.0
  0
LINE
  5
F2
100
AcDbEntity
  8
LAY-1
  6
CONTINUOUS
 62
     2
100
AcDbLine
 10
660.344074
 20
219.97086
 30
0.0
 11
665.148048
 21
219.97086
 31
0.0
  0
LINE
  5
F3
100
AcDbEntity
  8
LAY-1
  6
CONTINUOUS
 62
     2
100
AcDbLine
 10
634.344074
 20
207.48415
 30
0.0
 11
633.344074
 21
208.71253
 31
0.0
  0
LINE
  5
F4
100
AcDbEntity
  8
LAY-1
  6
CONTINUOUS
 62
     2
100
AcDbLine
 10
633.344074
 20
208.71253
 30
0.0
 11
633.344074
 21
223.723637
 31
0.0
  0
LINE
  5
F5
100
AcDbEntity
  8
LAY-1
  6
CONTINUOUS
 62
     2
100
AcDbLine
 10
633.344074
 20
223.723637
 30
0.0
 11
634.344074
 21
224.906206
 31
0.0
  0
LINE
  5
F6
100
AcDbEntity
  8
LAY-1
  6
CONTINUOUS
 62
     2
100
AcDbLine
 10
165.765785
 20
-283.315669
 30
0.0
 11
165.765785
 21
-288.119642
 31
0.0
  0
LINE
  5
F7
100
AcDbEntity
  8
LAY-1
  6
CONTINUOUS
 62
     2
100
AcDbLine
 10
166.971338
 20
-288.815669
 30
0.0
 11
179.571338
 21
-288.815669
 31
0.0
  0
LINE
  5
F8
100
AcDbEntity
  8
LAY-1
  6
CONTINUOUS
 62
     2
100
AcDbLine
 10
180.776892
 20
-288.119642
 30
0.0
 11
180.776892
 21
-283.315669
 31
0.0
  0
LINE
  5
F9
100
AcDbEntity
  8
LAY-1
  6
CONTINUOUS
 62
     2
100
AcDbLine
 10
165.765785
 20
-288.119642
 30
0.0
 11
166.971338
 21
-288.815669
 31
0.0
  0
ARC
  5
FA
100
AcDbEntity
  8
LAY-1
  6
CONTINUOUS
 62
     2
100
AcDbCircle
 10
173.271338
 20
-278.350705
 30
0.0
 40
10.464963
100
AcDbArc
 50
248.985518
 51
291.014482
  0
LINE
  5
FB
100
AcDbEntity
  8
LAY-1
  6
CONTINUOUS
 62
     2
100
AcDbLine
 10
180.776892
 20
-288.119642
 30
0.0
 11
179.571338
 21
-288.815669
 31
0.0
  0
ARC
  5
FC
100
AcDbEntity
  8
LAY-1
  6
CONTINUOUS
 62
     2
100
AcDbCircle
 10
166.971338
 20
-283.806665
 30
0.0
 40
5.009003
100
AcDbArc
 50
270.0
 51
300.565895
  0
ARC
  5
FD
100
AcDbEntity
  8
LAY-1
  6
CONTINUOUS
 62
     2
100
AcDbCircle
 10
179.571338
 20
-283.806665
 30
0.0
 40
5.009003
100
AcDbArc
 50
239.434105
 51
270.0
  0
LINE
  5
FE
100
AcDbEntity
  8
LAY-1
  6
CONTINUOUS
 62
     2
100
AcDbLine
 10
169.518561
 20
-283.315669
 30
0.0
 11
169.518561
 21
-288.119642
 31
0.0
  0
LINE
  5
FF
100
AcDbEntity
  8
LAY-1
  6
CONTINUOUS
 62
     2
100
AcDbLine
 10
177.024115
 20
-283.315669
 30
0.0
 11
177.024115
 21
-288.119642
 31
0.0
  0
LINE
  5
100
100
AcDbEntity
  8
LAY-1
  6
CONTINUOUS
 62
     2
100
AcDbLine
 10
137.408924
 20
-283.315669
 30
0.0
 11
137.408924
 21
-288.119642
 31
0.0
  0
LINE
  5
101
100
AcDbEntity
  8
LAY-1
  6
CONTINUOUS
 62
     2
100
AcDbLine
 10
136.20337
 20
-288.815669
 30
0.0
 11
123.60337
 21
-288.815669
 31
0.0
  0
LINE
  5
102
100
AcDbEntity
  8
LAY-1
  6
CONTINUOUS
 62
     2
100
AcDbLine
 10
122.397817
 20
-288.119642
 30
0.0
 11
122.397817
 21
-283.315669
 31
0.0
  0
LINE
  5
103
100
AcDbEntity
  8
LAY-1
  6
CONTINUOUS
 62
     2
100
AcDbLine
 10
137.408924
 20
-288.119642
 30
0.0
 11
136.20337
 21
-288.815669
 31
0.0
  0
ARC
  5
104
100
AcDbEntity
  8
LAY-1
  6
CONTINUOUS
 62
     2
100
AcDbCircle
 10
129.90337
 20
-278.350705
 30
0.0
 40
10.464963
100
AcDbArc
 50
248.985518
 51
291.014482
  0
LINE
  5
105
100
AcDbEntity
  8
LAY-1
  6
CONTINUOUS
 62
     2
100
AcDbLine
 10
122.397817
 20
-288.119642
 30
0.0
 11
123.60337
 21
-288.815669
 31
0.0
  0
ARC
  5
106
100
AcDbEntity
  8
LAY-1
  6
CONTINUOUS
 62
     2
100
AcDbCircle
 10
136.20337
 20
-283.806665
 30
0.0
 40
5.009003
100
AcDbArc
 50
239.434105
 51
270.0
  0
ARC
  5
107
100
AcDbEntity
  8
LAY-1
  6
CONTINUOUS
 62
     2
100
AcDbCircle
 10
123.60337
 20
-283.806665
 30
0.0
 40
5.009003
100
AcDbArc
 50
270.0
 51
300.565895
  0
LINE
  5
108
100
AcDbEntity
  8
LAY-1
  6
CONTINUOUS
 62
     2
100
AcDbLine
 10
133.656147
 20
-283.315669
 30
0.0
 11
133.656147
 21
-288.119642
 31
0.0
  0
LINE
  5
109
100
AcDbEntity
  8
LAY-1
  6
CONTINUOUS
 62
     2
100
AcDbLine
 10
126.150593
 20
-283.315669
 30
0.0
 11
126.150593
 21
-288.119642
 31
0.0
  0
ARC
  5
10A
100
AcDbEntity
  8
LAY-1
  6
CONTINUOUS
 62
     2
100
AcDbCircle
 10
166.971338
 20
-254.731624
 30
0.0
 40
5.009003
100
AcDbArc
 50
59.434105
 51
90.0
  0
ARC
  5
10B
100
AcDbEntity
  8
LAY-1
  6
CONTINUOUS
 62
     2
100
AcDbCircle
 10
179.571338
 20
-254.731624
 30
0.0
 40
5.009003
100
AcDbArc
 50
90.0
 51
120.565895
  0
LINE
  5
10C
100
AcDbEntity
  8
LAY-1
  6
CONTINUOUS
 62
     2
100
AcDbLine
 10
177.024115
 20
-256.222621
 30
0.0
 11
177.024115
 21
-250.418647
 31
0.0
  0
LINE
  5
10D
100
AcDbEntity
  8
LAY-1
  6
CONTINUOUS
 62
     2
100
AcDbLine
 10
180.776892
 20
-250.418647
 30
0.0
 11
180.776892
 21
-256.222621
 31
0.0
  0
LINE
  5
10E
100
AcDbEntity
  8
LAY-1
  6
CONTINUOUS
 62
     2
100
AcDbLine
 10
169.518561
 20
-256.222621
 30
0.0
 11
169.518561
 21
-250.418647
 31
0.0
  0
LINE
  5
10F
100
AcDbEntity
  8
LAY-1
  6
CONTINUOUS
 62
     2
100
AcDbLine
 10
165.765785
 20
-256.222621
 30
0.0
 11
165.765785
 21
-250.418647
 31
0.0
  0
LINE
  5
110
100
AcDbEntity
  8
LAY-1
  6
CONTINUOUS
 62
     2
100
AcDbLine
 10
180.776892
 20
-250.418647
 30
0.0
 11
179.571338
 21
-249.722621
 31
0.0
  0
LINE
  5
111
100
AcDbEntity
  8
LAY-1
  6
CONTINUOUS
 62
     2
100
AcDbLine
 10
166.971338
 20
-249.722621
 30
0.0
 11
179.571338
 21
-249.722621
 31
0.0
  0
ARC
  5
112
100
AcDbEntity
  8
LAY-1
  6
CONTINUOUS
 62
     2
100
AcDbCircle
 10
173.271338
 20
-260.187584
 30
0.0
 40
10.464963
100
AcDbArc
 50
68.985518
 51
111.014482
  0
LINE
  5
113
100
AcDbEntity
  8
LAY-1
  6
CONTINUOUS
 62
     2
100
AcDbLine
 10
165.765785
 20
-250.418647
 30
0.0
 11
166.971338
 21
-249.722621
 31
0.0
  0
LINE
  5
114
100
AcDbEntity
  8
LAY-1
  6
CONTINUOUS
 62
     2
100
AcDbLine
 10
164.537404
 20
-257.222621
 30
0.0
 11
165.765785
 21
-256.222621
 31
0.0
  0
LINE
  5
115
100
AcDbEntity
  8
LAY-1
  6
CONTINUOUS
 62
     2
100
AcDbLine
 10
165.765785
 20
-256.222621
 30
0.0
 11
180.776892
 21
-256.222621
 31
0.0
  0
LINE
  5
116
100
AcDbEntity
  8
LAY-1
  6
CONTINUOUS
 62
     2
100
AcDbLine
 10
180.776892
 20
-256.222621
 30
0.0
 11
181.95946
 21
-257.222621
 31
0.0
  0
ARC
  5
117
100
AcDbEntity
  8
LAY-1
  6
CONTINUOUS
 62
     2
100
AcDbCircle
 10
136.20337
 20
-254.731624
 30
0.0
 40
5.009003
100
AcDbArc
 50
90.0
 51
120.565895
  0
ARC
  5
118
100
AcDbEntity
  8
LAY-1
  6
CONTINUOUS
 62
     2
100
AcDbCircle
 10
123.60337
 20
-254.731624
 30
0.0
 40
5.009003
100
AcDbArc
 50
59.434105
 51
90.0
  0
LINE
  5
119
100
AcDbEntity
  8
LAY-1
  6
CONTINUOUS
 62
     2
100
AcDbLine
 10
126.150593
 20
-256.222621
 30
0.0
 11
126.150593
 21
-250.418647
 31
0.0
  0
LINE
  5
11A
100
AcDbEntity
  8
LAY-1
  6
CONTINUOUS
 62
     2
100
AcDbLine
 10
122.397817
 20
-250.418647
 30
0.0
 11
122.397817
 21
-256.222621
 31
0.0
  0
LINE
  5
11B
100
AcDbEntity
  8
LAY-1
  6
CONTINUOUS
 62
     2
100
AcDbLine
 10
133.656147
 20
-256.222621
 30
0.0
 11
133.656147
 21
-250.418647
 31
0.0
  0
LINE
  5
11C
100
AcDbEntity
  8
LAY-1
  6
CONTINUOUS
 62
     2
100
AcDbLine
 10
137.408924
 20
-256.222621
 30
0.0
 11
137.408924
 21
-250.418647
 31
0.0
  0
LINE
  5
11D
100
AcDbEntity
  8
LAY-1
  6
CONTINUOUS
 62
     2
100
AcDbLine
 10
122.397817
 20
-250.418647
 30
0.0
 11
123.60337
 21
-249.722621
 31
0.0
  0
LINE
  5
11E
100
AcDbEntity
  8
LAY-1
  6
CONTINUOUS
 62
     2
100
AcDbLine
 10
136.20337
 20
-249.722621
 30
0.0
 11
123.60337
 21
-249.722621
 31
0.0
  0
ARC
  5
11F
100
AcDbEntity
  8
LAY-1
  6
CONTINUOUS
 62
     2
100
AcDbCircle
 10
129.90337
 20
-260.187584
 30
0.0
 40
10.464963
100
AcDbArc
 50
68.985518
 51
111.014482
  0
LINE
  5
120
100
AcDbEntity
  8
LAY-1
  6
CONTINUOUS
 62
     2
100
AcDbLine
 10
137.408924
 20
-250.418647
 30
0.0
 11
136.20337
 21
-249.722621
 31
0.0
  0
LINE
  5
121
100
AcDbEntity
  8
LAY-1
  6
CONTINUOUS
 62
     2
100
AcDbLine
 10
138.637304
 20
-257.222621
 30
0.0
 11
137.408924
 21
-256.222621
 31
0.0
  0
LINE
  5
122
100
AcDbEntity
  8
LAY-1
  6
CONTINUOUS
 62
     2
100
AcDbLine
 10
137.408924
 20
-256.222621
 30
0.0
 11
122.397817
 21
-256.222621
 31
0.0
  0
LINE
  5
123
100
AcDbEntity
  8
LAY-1
  6
CONTINUOUS
 62
     2
100
AcDbLine
 10
122.397817
 20
-256.222621
 30
0.0
 11
121.215248
 21
-257.222621
 31
0.0
  0
LINE
  5
124
100
AcDbEntity
  8
LAY-1
  6
CONTINUOUS
 62
     2
100
AcDbLine
 10
270.465321
 20
-283.315669
 30
0.0
 11
270.465321
 21
-288.119642
 31
0.0
  0
LINE
  5
125
100
AcDbEntity
  8
LAY-1
  6
CONTINUOUS
 62
     2
100
AcDbLine
 10
271.670874
 20
-288.815669
 30
0.0
 11
284.270874
 21
-288.815669
 31
0.0
  0
LINE
  5
126
100
AcDbEntity
  8
LAY-1
  6
CONTINUOUS
 62
     2
100
AcDbLine
 10
285.476428
 20
-288.119642
 30
0.0
 11
285.476428
 21
-283.315669
 31
0.0
  0
LINE
  5
127
100
AcDbEntity
  8
LAY-1
  6
CONTINUOUS
 62
     2
100
AcDbLine
 10
270.465321
 20
-288.119642
 30
0.0
 11
271.670874
 21
-288.815669
 31
0.0
  0
ARC
  5
128
100
AcDbEntity
  8
LAY-1
  6
CONTINUOUS
 62
     2
100
AcDbCircle
 10
277.970874
 20
-278.350705
 30
0.0
 40
10.464963
100
AcDbArc
 50
248.985518
 51
291.014482
  0
LINE
  5
129
100
AcDbEntity
  8
LAY-1
  6
CONTINUOUS
 62
     2
100
AcDbLine
 10
285.476428
 20
-288.119642
 30
0.0
 11
284.270874
 21
-288.815669
 31
0.0
  0
ARC
  5
12A
100
AcDbEntity
  8
LAY-1
  6
CONTINUOUS
 62
     2
100
AcDbCircle
 10
271.670874
 20
-283.806665
 30
0.0
 40
5.009003
100
AcDbArc
 50
270.0
 51
300.565895
  0
ARC
  5
12B
100
AcDbEntity
  8
LAY-1
  6
CONTINUOUS
 62
     2
100
AcDbCircle
 10
284.270874
 20
-283.806665
 30
0.0
 40
5.009003
100
AcDbArc
 50
239.434105
 51
270.0
  0
LINE
  5
12C
100
AcDbEntity
  8
LAY-1
  6
CONTINUOUS
 62
     2
100
AcDbLine
 10
274.218098
 20
-283.315669
 30
0.0
 11
274.218098
 21
-288.119642
 31
0.0
  0
LINE
  5
12D
100
AcDbEntity
  8
LAY-1
  6
CONTINUOUS
 62
     2
100
AcDbLine
 10
281.723651
 20
-283.315669
 30
0.0
 11
281.723651
 21
-288.119642
 31
0.0
  0
LINE
  5
12E
100
AcDbEntity
  8
LAY-1
  6
CONTINUOUS
 62
     2
100
AcDbLine
 10
227.097353
 20
-283.315669
 30
0.0
 11
227.097353
 21
-288.119642
 31
0.0
  0
LINE
  5
12F
100
AcDbEntity
  8
LAY-1
  6
CONTINUOUS
 62
     2
100
AcDbLine
 10
228.302906
 20
-288.815669
 30
0.0
 11
240.902906
 21
-288.815669
 31
0.0
  0
LINE
  5
130
100
AcDbEntity
  8
LAY-1
  6
CONTINUOUS
 62
     2
100
AcDbLine
 10
242.10846
 20
-288.119642
 30
0.0
 11
242.10846
 21
-283.315669
 31
0.0
  0
LINE
  5
131
100
AcDbEntity
  8
LAY-1
  6
CONTINUOUS
 62
     2
100
AcDbLine
 10
227.097353
 20
-288.119642
 30
0.0
 11
228.302906
 21
-288.815669
 31
0.0
  0
ARC
  5
132
100
AcDbEntity
  8
LAY-1
  6
CONTINUOUS
 62
     2
100
AcDbCircle
 10
234.602906
 20
-278.350705
 30
0.0
 40
10.464963
100
AcDbArc
 50
248.985518
 51
291.014482
  0
LINE
  5
133
100
AcDbEntity
  8
LAY-1
  6
CONTINUOUS
 62
     2
100
AcDbLine
 10
242.10846
 20
-288.119642
 30
0.0
 11
240.902906
 21
-288.815669
 31
0.0
  0
ARC
  5
134
100
AcDbEntity
  8
LAY-1
  6
CONTINUOUS
 62
     2
100
AcDbCircle
 10
228.302906
 20
-283.806665
 30
0.0
 40
5.009003
100
AcDbArc
 50
270.0
 51
300.565895
  0
ARC
  5
135
100
AcDbEntity
  8
LAY-1
  6
CONTINUOUS
 62
     2
100
AcDbCircle
 10
240.902906
 20
-283.806665
 30
0.0
 40
5.009003
100
AcDbArc
 50
239.434105
 51
270.0
  0
LINE
  5
136
100
AcDbEntity
  8
LAY-1
  6
CONTINUOUS
 62
     2
100
AcDbLine
 10
230.85013
 20
-283.315669
 30
0.0
 11
230.85013
 21
-288.119642
 31
0.0
  0
LINE
  5
137
100
AcDbEntity
  8
LAY-1
  6
CONTINUOUS
 62
     2
100
AcDbLine
 10
238.355683
 20
-283.315669
 30
0.0
 11
238.355683
 21
-288.119642
 31
0.0
  0
ARC
  5
138
100
AcDbEntity
  8
LAY-1
  6
CONTINUOUS
 62
     2
100
AcDbCircle
 10
228.302906
 20
-254.731624
 30
0.0
 40
5.009003
100
AcDbArc
 50
59.434105
 51
90.0
  0
ARC
  5
139
100
AcDbEntity
  8
LAY-1
  6
CONTINUOUS
 62
     2
100
AcDbCircle
 10
240.902906
 20
-254.731624
 30
0.0
 40
5.009003
100
AcDbArc
 50
90.0
 51
120.565895
  0
LINE
  5
13A
100
AcDbEntity
  8
LAY-1
  6
CONTINUOUS
 62
     2
100
AcDbLine
 10
238.355683
 20
-256.222621
 30
0.0
 11
238.355683
 21
-250.418647
 31
0.0
  0
LINE
  5
13B
100
AcDbEntity
  8
LAY-1
  6
CONTINUOUS
 62
     2
100
AcDbLine
 10
242.10846
 20
-250.418647
 30
0.0
 11
242.10846
 21
-256.222621
 31
0.0
  0
LINE
  5
13C
100
AcDbEntity
  8
LAY-1
  6
CONTINUOUS
 62
     2
100
AcDbLine
 10
230.85013
 20
-256.222621
 30
0.0
 11
230.85013
 21
-250.418647
 31
0.0
  0
LINE
  5
13D
100
AcDbEntity
  8
LAY-1
  6
CONTINUOUS
 62
     2
100
AcDbLine
 10
227.097353
 20
-256.222621
 30
0.0
 11
227.097353
 21
-250.418647
 31
0.0
  0
LINE
  5
13E
100
AcDbEntity
  8
LAY-1
  6
CONTINUOUS
 62
     2
100
AcDbLine
 10
242.10846
 20
-250.418647
 30
0.0
 11
240.902906
 21
-249.722621
 31
0.0
  0
LINE
  5
13F
100
AcDbEntity
  8
LAY-1
  6
CONTINUOUS
 62
     2
100
AcDbLine
 10
228.302906
 20
-249.722621
 30
0.0
 11
240.902906
 21
-249.722621
 31
0.0
  0
ARC
  5
140
100
AcDbEntity
  8
LAY-1
  6
CONTINUOUS
 62
     2
100
AcDbCircle
 10
234.602906
 20
-260.187584
 30
0.0
 40
10.464963
100
AcDbArc
 50
68.985518
 51
111.014482
  0
LINE
  5
141
100
AcDbEntity
  8
LAY-1
  6
CONTINUOUS
 62
     2
100
AcDbLine
 10
227.097353
 20
-250.418647
 30
0.0
 11
228.302906
 21
-249.722621
 31
0.0
  0
LINE
  5
142
100
AcDbEntity
  8
LAY-1
  6
CONTINUOUS
 62
     2
100
AcDbLine
 10
225.868972
 20
-257.222621
 30
0.0
 11
227.097353
 21
-256.222621
 31
0.0
  0
LINE
  5
143
100
AcDbEntity
  8
LAY-1
  6
CONTINUOUS
 62
     2
100
AcDbLine
 10
227.097353
 20
-256.222621
 30
0.0
 11
242.10846
 21
-256.222621
 31
0.0
  0
LINE
  5
144
100
AcDbEntity
  8
LAY-1
  6
CONTINUOUS
 62
     2
100
AcDbLine
 10
242.10846
 20
-256.222621
 30
0.0
 11
243.291029
 21
-257.222621
 31
0.0
  0
ARC
  5
145
100
AcDbEntity
  8
LAY-1
  6
CONTINUOUS
 62
     2
100
AcDbCircle
 10
271.670874
 20
-254.731624
 30
0.0
 40
5.009003
100
AcDbArc
 50
59.434105
 51
90.0
  0
ARC
  5
146
100
AcDbEntity
  8
LAY-1
  6
CONTINUOUS
 62
     2
100
AcDbCircle
 10
284.270874
 20
-254.731624
 30
0.0
 40
5.009003
100
AcDbArc
 50
90.0
 51
120.565895
  0
LINE
  5
147
100
AcDbEntity
  8
LAY-1
  6
CONTINUOUS
 62
     2
100
AcDbLine
 10
281.723651
 20
-256.222621
 30
0.0
 11
281.723651
 21
-250.418647
 31
0.0
  0
LINE
  5
148
100
AcDbEntity
  8
LAY-1
  6
CONTINUOUS
 62
     2
100
AcDbLine
 10
285.476428
 20
-250.418647
 30
0.0
 11
285.476428
 21
-256.222621
 31
0.0
  0
LINE
  5
149
100
AcDbEntity
  8
LAY-1
  6
CONTINUOUS
 62
     2
100
AcDbLine
 10
274.218098
 20
-256.222621
 30
0.0
 11
274.218098
 21
-250.418647
 31
0.0
  0
LINE
  5
14A
100
AcDbEntity
  8
LAY-1
  6
CONTINUOUS
 62
     2
100
AcDbLine
 10
270.465321
 20
-256.222621
 30
0.0
 11
270.465321
 21
-250.418647
 31
0.0
  0
LINE
  5
14B
100
AcDbEntity
  8
LAY-1
  6
CONTINUOUS
 62
     2
100
AcDbLine
 10
285.476428
 20
-250.418647
 30
0.0
 11
284.270874
 21
-249.722621
 31
0.0
  0
LINE
  5
14C
100
AcDbEntity
  8
LAY-1
  6
CONTINUOUS
 62
     2
100
AcDbLine
 10
271.670874
 20
-249.722621
 30
0.0
 11
284.270874
 21
-249.722621
 31
0.0
  0
ARC
  5
14D
100
AcDbEntity
  8
LAY-1
  6
CONTINUOUS
 62
     2
100
AcDbCircle
 10
277.970874
 20
-260.187584
 30
0.0
 40
10.464963
100
AcDbArc
 50
68.985518
 51
111.014482
  0
LINE
  5
14E
100
AcDbEntity
  8
LAY-1
  6
CONTINUOUS
 62
     2
100
AcDbLine
 10
270.465321
 20
-250.418647
 30
0.0
 11
271.670874
 21
-249.722621
 31
0.0
  0
LINE
  5
14F
100
AcDbEntity
  8
LAY-1
  6
CONTINUOUS
 62
     2
100
AcDbLine
 10
269.23694
 20
-257.222621
 30
0.0
 11
270.465321
 21
-256.222621
 31
0.0
  0
LINE
  5
150
100
AcDbEntity
  8
LAY-1
  6
CONTINUOUS
 62
     2
100
AcDbLine
 10
270.465321
 20
-256.222621
 30
0.0
 11
285.476428
 21
-256.222621
 31
0.0
  0
LINE
  5
151
100
AcDbEntity
  8
LAY-1
  6
CONTINUOUS
 62
     2
100
AcDbLine
 10
285.476428
 20
-256.222621
 30
0.0
 11
286.658997
 21
-257.222621
 31
0.0
  0
ARC
  5
152
100
AcDbEntity
  8
LAY-1
  6
CONTINUOUS
 62
     2
100
AcDbCircle
 10
-223.978833
 20
117.818547
 30
0.0
 40
5.009003
100
AcDbArc
 50
329.434105
 51
0.0
  0
ARC
  5
153
100
AcDbEntity
  8
LAY-1
  6
CONTINUOUS
 62
     2
100
AcDbCircle
 10
-223.978833
 20
105.218547
 30
0.0
 40
5.009003
100
AcDbArc
 50
0.0
 51
30.565895
  0
LINE
  5
154
100
AcDbEntity
  8
LAY-1
  6
CONTINUOUS
 62
     2
100
AcDbLine
 10
-225.46983
 20
107.76577
 30
0.0
 11
-219.665856
 21
107.76577
 31
0.0
  0
LINE
  5
155
100
AcDbEntity
  8
LAY-1
  6
CONTINUOUS
 62
     2
100
AcDbLine
 10
-219.665856
 20
104.012994
 30
0.0
 11
-225.46983
 21
104.012994
 31
0.0
  0
LINE
  5
156
100
AcDbEntity
  8
LAY-1
  6
CONTINUOUS
 62
     2
100
AcDbLine
 10
-225.46983
 20
115.271324
 30
0.0
 11
-219.665856
 21
115.271324
 31
0.0
  0
LINE
  5
157
100
AcDbEntity
  8
LAY-1
  6
CONTINUOUS
 62
     2
100
AcDbLine
 10
-225.46983
 20
119.024101
 30
0.0
 11
-219.665856
 21
119.024101
 31
0.0
  0
LINE
  5
158
100
AcDbEntity
  8
LAY-1
  6
CONTINUOUS
 62
     2
100
AcDbLine
 10
-219.665856
 20
104.012994
 30
0.0
 11
-218.96983
 21
105.218547
 31
0.0
  0
LINE
  5
159
100
AcDbEntity
  8
LAY-1
  6
CONTINUOUS
 62
     2
100
AcDbLine
 10
-252.46983
 20
119.024101
 30
0.0
 11
-257.273803
 21
119.024101
 31
0.0
  0
LINE
  5
15A
100
AcDbEntity
  8
LAY-1
  6
CONTINUOUS
 62
     2
100
AcDbLine
 10
-218.96983
 20
117.818547
 30
0.0
 11
-218.96983
 21
105.218547
 31
0.0
  0
ARC
  5
15B
100
AcDbEntity
  8
LAY-1
  6
CONTINUOUS
 62
     2
100
AcDbCircle
 10
-229.434793
 20
111.518547
 30
0.0
 40
10.464963
100
AcDbArc
 50
338.985518
 51
21.014482
  0
LINE
  5
15C
100
AcDbEntity
  8
LAY-1
  6
CONTINUOUS
 62
     2
100
AcDbLine
 10
-257.96983
 20
117.818547
 30
0.0
 11
-257.96983
 21
105.218547
 31
0.0
  0
LINE
  5
15D
100
AcDbEntity
  8
LAY-1
  6
CONTINUOUS
 62
     2
100
AcDbLine
 10
-257.273803
 20
104.012994
 30
0.0
 11
-252.46983
 21
104.012994
 31
0.0
  0
LINE
  5
15E
100
AcDbEntity
  8
LAY-1
  6
CONTINUOUS
 62
     2
100
AcDbLine
 10
-257.273803
 20
119.024101
 30
0.0
 11
-257.96983
 21
117.818547
 31
0.0
  0
ARC
  5
15F
100
AcDbEntity
  8
LAY-1
  6
CONTINUOUS
 62
     2
100
AcDbCircle
 10
-247.504866
 20
111.518547
 30
0.0
 40
10.464963
100
AcDbArc
 50
158.985518
 51
201.014482
  0
LINE
  5
160
100
AcDbEntity
  8
LAY-1
  6
CONTINUOUS
 62
     2
100
AcDbLine
 10
-257.273803
 20
104.012994
 30
0.0
 11
-257.96983
 21
105.218547
 31
0.0
  0
LINE
  5
161
100
AcDbEntity
  8
LAY-1
  6
CONTINUOUS
 62
     2
100
AcDbLine
 10
-219.665856
 20
119.024101
 30
0.0
 11
-218.96983
 21
117.818547
 31
0.0
  0
ARC
  5
162
100
AcDbEntity
  8
LAY-1
  6
CONTINUOUS
 62
     2
100
AcDbCircle
 10
-252.960826
 20
117.818547
 30
0.0
 40
5.009003
100
AcDbArc
 50
180.0
 51
210.565895
  0
ARC
  5
163
100
AcDbEntity
  8
LAY-1
  6
CONTINUOUS
 62
     2
100
AcDbCircle
 10
-252.960826
 20
105.218547
 30
0.0
 40
5.009003
100
AcDbArc
 50
149.434105
 51
180.0
  0
LINE
  5
164
100
AcDbEntity
  8
LAY-1
  6
CONTINUOUS
 62
     2
100
AcDbLine
 10
-252.46983
 20
115.271324
 30
0.0
 11
-257.273803
 21
115.271324
 31
0.0
  0
LINE
  5
165
100
AcDbEntity
  8
LAY-1
  6
CONTINUOUS
 62
     2
100
AcDbLine
 10
-252.46983
 20
107.76577
 30
0.0
 11
-257.273803
 21
107.76577
 31
0.0
  0
LINE
  5
166
100
AcDbEntity
  8
LAY-1
  6
CONTINUOUS
 62
     2
100
AcDbLine
 10
-226.46983
 20
120.252481
 30
0.0
 11
-225.46983
 21
119.024101
 31
0.0
  0
LINE
  5
167
100
AcDbEntity
  8
LAY-1
  6
CONTINUOUS
 62
     2
100
AcDbLine
 10
-225.46983
 20
119.024101
 30
0.0
 11
-225.46983
 21
104.012994
 31
0.0
  0
LINE
  5
168
100
AcDbEntity
  8
LAY-1
  6
CONTINUOUS
 62
     2
100
AcDbLine
 10
-225.46983
 20
104.012994
 30
0.0
 11
-226.46983
 21
102.830425
 31
0.0
  0
ARC
  5
169
100
AcDbEntity
  8
LAY-1
  6
CONTINUOUS
 62
     2
100
AcDbCircle
 10
-223.978833
 20
74.450579
 30
0.0
 40
5.009003
100
AcDbArc
 50
329.434105
 51
0.0
  0
ARC
  5
16A
100
AcDbEntity
  8
LAY-1
  6
CONTINUOUS
 62
     2
100
AcDbCircle
 10
-223.978833
 20
61.850579
 30
0.0
 40
5.009003
100
AcDbArc
 50
0.0
 51
30.565895
  0
LINE
  5
16B
100
AcDbEntity
  8
LAY-1
  6
CONTINUOUS
 62
     2
100
AcDbLine
 10
-225.46983
 20
64.397803
 30
0.0
 11
-219.665856
 21
64.397803
 31
0.0
  0
LINE
  5
16C
100
AcDbEntity
  8
LAY-1
  6
CONTINUOUS
 62
     2
100
AcDbLine
 10
-219.665856
 20
60.645026
 30
0.0
 11
-225.46983
 21
60.645026
 31
0.0
  0
LINE
  5
16D
100
AcDbEntity
  8
LAY-1
  6
CONTINUOUS
 62
     2
100
AcDbLine
 10
-225.46983
 20
71.903356
 30
0.0
 11
-219.665856
 21
71.903356
 31
0.0
  0
LINE
  5
16E
100
AcDbEntity
  8
LAY-1
  6
CONTINUOUS
 62
     2
100
AcDbLine
 10
-225.46983
 20
75.656133
 30
0.0
 11
-219.665856
 21
75.656133
 31
0.0
  0
LINE
  5
16F
100
AcDbEntity
  8
LAY-1
  6
CONTINUOUS
 62
     2
100
AcDbLine
 10
-219.665856
 20
60.645026
 30
0.0
 11
-218.96983
 21
61.850579
 31
0.0
  0
LINE
  5
170
100
AcDbEntity
  8
LAY-1
  6
CONTINUOUS
 62
     2
100
AcDbLine
 10
-252.46983
 20
75.656133
 30
0.0
 11
-257.273803
 21
75.656133
 31
0.0
  0
LINE
  5
171
100
AcDbEntity
  8
LAY-1
  6
CONTINUOUS
 62
     2
100
AcDbLine
 10
-218.96983
 20
74.450579
 30
0.0
 11
-218.96983
 21
61.850579
 31
0.0
  0
ARC
  5
172
100
AcDbEntity
  8
LAY-1
  6
CONTINUOUS
 62
     2
100
AcDbCircle
 10
-229.434793
 20
68.150579
 30
0.0
 40
10.464963
100
AcDbArc
 50
338.985518
 51
21.014482
  0
LINE
  5
173
100
AcDbEntity
  8
LAY-1
  6
CONTINUOUS
 62
     2
100
AcDbLine
 10
-257.96983
 20
74.450579
 30
0.0
 11
-257.96983
 21
61.850579
 31
0.0
  0
LINE
  5
174
100
AcDbEntity
  8
LAY-1
  6
CONTINUOUS
 62
     2
100
AcDbLine
 10
-257.273803
 20
60.645026
 30
0.0
 11
-252.46983
 21
60.645026
 31
0.0
  0
LINE
  5
175
100
AcDbEntity
  8
LAY-1
  6
CONTINUOUS
 62
     2
100
AcDbLine
 10
-257.273803
 20
75.656133
 30
0.0
 11
-257.96983
 21
74.450579
 31
0.0
  0
ARC
  5
176
100
AcDbEntity
  8
LAY-1
  6
CONTINUOUS
 62
     2
100
AcDbCircle
 10
-247.504866
 20
68.150579
 30
0.0
 40
10.464963
100
AcDbArc
 50
158.985518
 51
201.014482
  0
LINE
  5
177
100
AcDbEntity
  8
LAY-1
  6
CONTINUOUS
 62
     2
100
AcDbLine
 10
-257.273803
 20
60.645026
 30
0.0
 11
-257.96983
 21
61.850579
 31
0.0
  0
LINE
  5
178
100
AcDbEntity
  8
LAY-1
  6
CONTINUOUS
 62
     2
100
AcDbLine
 10
-219.665856
 20
75.656133
 30
0.0
 11
-218.96983
 21
74.450579
 31
0.0
  0
ARC
  5
179
100
AcDbEntity
  8
LAY-1
  6
CONTINUOUS
 62
     2
100
AcDbCircle
 10
-252.960826
 20
74.450579
 30
0.0
 40
5.009003
100
AcDbArc
 50
180.0
 51
210.565895
  0
ARC
  5
17A
100
AcDbEntity
  8
LAY-1
  6
CONTINUOUS
 62
     2
100
AcDbCircle
 10
-252.960826
 20
61.850579
 30
0.0
 40
5.009003
100
AcDbArc
 50
149.434105
 51
180.0
  0
LINE
  5
17B
100
AcDbEntity
  8
LAY-1
  6
CONTINUOUS
 62
     2
100
AcDbLine
 10
-252.46983
 20
71.903356
 30
0.0
 11
-257.273803
 21
71.903356
 31
0.0
  0
LINE
  5
17C
100
AcDbEntity
  8
LAY-1
  6
CONTINUOUS
 62
     2
100
AcDbLine
 10
-252.46983
 20
64.397803
 30
0.0
 11
-257.273803
 21
64.397803
 31
0.0
  0
LINE
  5
17D
100
AcDbEntity
  8
LAY-1
  6
CONTINUOUS
 62
     2
100
AcDbLine
 10
-226.46983
 20
76.884513
 30
0.0
 11
-225.46983
 21
75.656133
 31
0.0
  0
LINE
  5
17E
100
AcDbEntity
  8
LAY-1
  6
CONTINUOUS
 62
     2
100
AcDbLine
 10
-225.46983
 20
75.656133
 30
0.0
 11
-225.46983
 21
60.645026
 31
0.0
  0
LINE
  5
17F
100
AcDbEntity
  8
LAY-1
  6
CONTINUOUS
 62
     2
100
AcDbLine
 10
-225.46983
 20
60.645026
 30
0.0
 11
-226.46983
 21
59.462457
 31
0.0
  0
ARC
  5
180
100
AcDbEntity
  8
LAY-1
  6
CONTINUOUS
 62
     2
100
AcDbCircle
 10
-223.978833
 20
179.150116
 30
0.0
 40
5.009003
100
AcDbArc
 50
329.434105
 51
0.0
  0
ARC
  5
181
100
AcDbEntity
  8
LAY-1
  6
CONTINUOUS
 62
     2
100
AcDbCircle
 10
-223.978833
 20
166.550116
 30
0.0
 40
5.009003
100
AcDbArc
 50
0.0
 51
30.565895
  0
LINE
  5
182
100
AcDbEntity
  8
LAY-1
  6
CONTINUOUS
 62
     2
100
AcDbLine
 10
-225.46983
 20
169.097339
 30
0.0
 11
-219.665856
 21
169.097339
 31
0.0
  0
LINE
  5
183
100
AcDbEntity
  8
LAY-1
  6
CONTINUOUS
 62
     2
100
AcDbLine
 10
-219.665856
 20
165.344562
 30
0.0
 11
-225.46983
 21
165.344562
 31
0.0
  0
LINE
  5
184
100
AcDbEntity
  8
LAY-1
  6
CONTINUOUS
 62
     2
100
AcDbLine
 10
-225.46983
 20
176.602892
 30
0.0
 11
-219.665856
 21
176.602892
 31
0.0
  0
LINE
  5
185
100
AcDbEntity
  8
LAY-1
  6
CONTINUOUS
 62
     2
100
AcDbLine
 10
-225.46983
 20
180.355669
 30
0.0
 11
-219.665856
 21
180.355669
 31
0.0
  0
LINE
  5
186
100
AcDbEntity
  8
LAY-1
  6
CONTINUOUS
 62
     2
100
AcDbLine
 10
-219.665856
 20
165.344562
 30
0.0
 11
-218.96983
 21
166.550116
 31
0.0
  0
LINE
  5
187
100
AcDbEntity
  8
LAY-1
  6
CONTINUOUS
 62
     2
100
AcDbLine
 10
-252.46983
 20
180.355669
 30
0.0
 11
-257.273803
 21
180.355669
 31
0.0
  0
LINE
  5
188
100
AcDbEntity
  8
LAY-1
  6
CONTINUOUS
 62
     2
100
AcDbLine
 10
-218.96983
 20
179.150116
 30
0.0
 11
-218.96983
 21
166.550116
 31
0.0
  0
ARC
  5
189
100
AcDbEntity
  8
LAY-1
  6
CONTINUOUS
 62
     2
100
AcDbCircle
 10
-229.434793
 20
172.850116
 30
0.0
 40
10.464963
100
AcDbArc
 50
338.985518
 51
21.014482
  0
LINE
  5
18A
100
AcDbEntity
  8
LAY-1
  6
CONTINUOUS
 62
     2
100
AcDbLine
 10
-257.96983
 20
179.150116
 30
0.0
 11
-257.96983
 21
166.550116
 31
0.0
  0
LINE
  5
18B
100
AcDbEntity
  8
LAY-1
  6
CONTINUOUS
 62
     2
100
AcDbLine
 10
-257.273803
 20
165.344562
 30
0.0
 11
-252.46983
 21
165.344562
 31
0.0
  0
LINE
  5
18C
100
AcDbEntity
  8
LAY-1
  6
CONTINUOUS
 62
     2
100
AcDbLine
 10
-257.273803
 20
180.355669
 30
0.0
 11
-257.96983
 21
179.150116
 31
0.0
  0
ARC
  5
18D
100
AcDbEntity
  8
LAY-1
  6
CONTINUOUS
 62
     2
100
AcDbCircle
 10
-247.504866
 20
172.850116
 30
0.0
 40
10.464963
100
AcDbArc
 50
158.985518
 51
201.014482
  0
LINE
  5
18E
100
AcDbEntity
  8
LAY-1
  6
CONTINUOUS
 62
     2
100
AcDbLine
 10
-257.273803
 20
165.344562
 30
0.0
 11
-257.96983
 21
166.550116
 31
0.0
  0
LINE
  5
18F
100
AcDbEntity
  8
LAY-1
  6
CONTINUOUS
 62
     2
100
AcDbLine
 10
-219.665856
 20
180.355669
 30
0.0
 11
-218.96983
 21
179.150116
 31
0.0
  0
ARC
  5
190
100
AcDbEntity
  8
LAY-1
  6
CONTINUOUS
 62
     2
100
AcDbCircle
 10
-252.960826
 20
179.150116
 30
0.0
 40
5.009003
100
AcDbArc
 50
180.0
 51
210.565895
  0
ARC
  5
191
100
AcDbEntity
  8
LAY-1
  6
CONTINUOUS
 62
     2
100
AcDbCircle
 10
-252.960826
 20
166.550116
 30
0.0
 40
5.009003
100
AcDbArc
 50
149.434105
 51
180.0
  0
LINE
  5
192
100
AcDbEntity
  8
LAY-1
  6
CONTINUOUS
 62
     2
100
AcDbLine
 10
-252.46983
 20
176.602892
 30
0.0
 11
-257.273803
 21
176.602892
 31
0.0
  0
LINE
  5
193
100
AcDbEntity
  8
LAY-1
  6
CONTINUOUS
 62
     2
100
AcDbLine
 10
-252.46983
 20
169.097339
 30
0.0
 11
-257.273803
 21
169.097339
 31
0.0
  0
LINE
  5
194
100
AcDbEntity
  8
LAY-1
  6
CONTINUOUS
 62
     2
100
AcDbLine
 10
-226.46983
 20
181.58405
 30
0.0
 11
-225.46983
 21
180.355669
 31
0.0
  0
LINE
  5
195
100
AcDbEntity
  8
LAY-1
  6
CONTINUOUS
 62
     2
100
AcDbLine
 10
-225.46983
 20
180.355669
 30
0.0
 11
-225.46983
 21
165.344562
 31
0.0
  0
LINE
  5
196
100
AcDbEntity
  8
LAY-1
  6
CONTINUOUS
 62
     2
100
AcDbLine
 10
-225.46983
 20
165.344562
 30
0.0
 11
-226.46983
 21
164.161993
 31
0.0
  0
ARC
  5
197
100
AcDbEntity
  8
LAY-1
  6
CONTINUOUS
 62
     2
100
AcDbCircle
 10
-223.978833
 20
209.918084
 30
0.0
 40
5.009003
100
AcDbArc
 50
0.0
 51
30.565895
  0
ARC
  5
198
100
AcDbEntity
  8
LAY-1
  6
CONTINUOUS
 62
     2
100
AcDbCircle
 10
-223.978833
 20
222.518084
 30
0.0
 40
5.009003
100
AcDbArc
 50
329.434105
 51
0.0
  0
LINE
  5
199
100
AcDbEntity
  8
LAY-1
  6
CONTINUOUS
 62
     2
100
AcDbLine
 10
-225.46983
 20
219.97086
 30
0.0
 11
-219.665856
 21
219.97086
 31
0.0
  0
LINE
  5
19A
100
AcDbEntity
  8
LAY-1
  6
CONTINUOUS
 62
     2
100
AcDbLine
 10
-219.665856
 20
223.723637
 30
0.0
 11
-225.46983
 21
223.723637
 31
0.0
  0
LINE
  5
19B
100
AcDbEntity
  8
LAY-1
  6
CONTINUOUS
 62
     2
100
AcDbLine
 10
-225.46983
 20
212.465307
 30
0.0
 11
-219.665856
 21
212.465307
 31
0.0
  0
LINE
  5
19C
100
AcDbEntity
  8
LAY-1
  6
CONTINUOUS
 62
     2
100
AcDbLine
 10
-225.46983
 20
208.71253
 30
0.0
 11
-219.665856
 21
208.71253
 31
0.0
  0
LINE
  5
19D
100
AcDbEntity
  8
LAY-1
  6
CONTINUOUS
 62
     2
100
AcDbLine
 10
-219.665856
 20
223.723637
 30
0.0
 11
-218.96983
 21
222.518084
 31
0.0
  0
LINE
  5
19E
100
AcDbEntity
  8
LAY-1
  6
CONTINUOUS
 62
     2
100
AcDbLine
 10
-252.46983
 20
208.71253
 30
0.0
 11
-257.273803
 21
208.71253
 31
0.0
  0
LINE
  5
19F
100
AcDbEntity
  8
LAY-1
  6
CONTINUOUS
 62
     2
100
AcDbLine
 10
-218.96983
 20
209.918084
 30
0.0
 11
-218.96983
 21
222.518084
 31
0.0
  0
ARC
  5
1A0
100
AcDbEntity
  8
LAY-1
  6
CONTINUOUS
 62
     2
100
AcDbCircle
 10
-229.434793
 20
216.218084
 30
0.0
 40
10.464963
100
AcDbArc
 50
338.985518
 51
21.014482
  0
LINE
  5
1A1
100
AcDbEntity
  8
LAY-1
  6
CONTINUOUS
 62
     2
100
AcDbLine
 10
-257.96983
 20
209.918084
 30
0.0
 11
-257.96983
 21
222.518084
 31
0.0
  0
LINE
  5
1A2
100
AcDbEntity
  8
LAY-1
  6
CONTINUOUS
 62
     2
100
AcDbLine
 10
-257.273803
 20
223.723637
 30
0.0
 11
-252.46983
 21
223.723637
 31
0.0
  0
LINE
  5
1A3
100
AcDbEntity
  8
LAY-1
  6
CONTINUOUS
 62
     2
100
AcDbLine
 10
-257.273803
 20
208.71253
 30
0.0
 11
-257.96983
 21
209.918084
 31
0.0
  0
ARC
  5
1A4
100
AcDbEntity
  8
LAY-1
  6
CONTINUOUS
 62
     2
100
AcDbCircle
 10
-247.504866
 20
216.218084
 30
0.0
 40
10.464963
100
AcDbArc
 50
158.985518
 51
201.014482
  0
LINE
  5
1A5
100
AcDbEntity
  8
LAY-1
  6
CONTINUOUS
 62
     2
100
AcDbLine
 10
-257.273803
 20
223.723637
 30
0.0
 11
-257.96983
 21
222.518084
 31
0.0
  0
LINE
  5
1A6
100
AcDbEntity
  8
LAY-1
  6
CONTINUOUS
 62
     2
100
AcDbLine
 10
-219.665856
 20
208.71253
 30
0.0
 11
-218.96983
 21
209.918084
 31
0.0
  0
ARC
  5
1A7
100
AcDbEntity
  8
LAY-1
  6
CONTINUOUS
 62
     2
100
AcDbCircle
 10
-252.960826
 20
209.918084
 30
0.0
 40
5.009003
100
AcDbArc
 50
149.434105
 51
180.0
  0
ARC
  5
1A8
100
AcDbEntity
  8
LAY-1
  6
CONTINUOUS
 62
     2
100
AcDbCircle
 10
-252.960826
 20
222.518084
 30
0.0
 40
5.009003
100
AcDbArc
 50
180.0
 51
210.565895
  0
LINE
  5
1A9
100
AcDbEntity
  8
LAY-1
  6
CONTINUOUS
 62
     2
100
AcDbLine
 10
-252.46983
 20
212.465307
 30
0.0
 11
-257.273803
 21
212.465307
 31
0.0
  0
LINE
  5
1AA
100
AcDbEntity
  8
LAY-1
  6
CONTINUOUS
 62
     2
100
AcDbLine
 10
-252.46983
 20
219.97086
 30
0.0
 11
-257.273803
 21
219.97086
 31
0.0
  0
LINE
  5
1AB
100
AcDbEntity
  8
LAY-1
  6
CONTINUOUS
 62
     2
100
AcDbLine
 10
-226.46983
 20
207.48415
 30
0.0
 11
-225.46983
 21
208.71253
 31
0.0
  0
LINE
  5
1AC
100
AcDbEntity
  8
LAY-1
  6
CONTINUOUS
 62
     2
100
AcDbLine
 10
-225.46983
 20
208.71253
 30
0.0
 11
-225.46983
 21
223.723637
 31
0.0
  0
LINE
  5
1AD
100
AcDbEntity
  8
LAY-1
  6
CONTINUOUS
 62
     2
100
AcDbLine
 10
-225.46983
 20
223.723637
 30
0.0
 11
-226.46983
 21
224.906206
 31
0.0
  0
LINE
  5
1AE
100
AcDbEntity
  8
LAY-1
  6
CONTINUOUS
 62
     2
100
AcDbLine
 10
270.465321
 20
567.684331
 30
0.0
 11
270.465321
 21
572.488305
 31
0.0
  0
LINE
  5
1AF
100
AcDbEntity
  8
LAY-1
  6
CONTINUOUS
 62
     2
100
AcDbLine
 10
271.670874
 20
573.184331
 30
0.0
 11
284.270874
 21
573.184331
 31
0.0
  0
LINE
  5
1B0
100
AcDbEntity
  8
LAY-1
  6
CONTINUOUS
 62
     2
100
AcDbLine
 10
285.476428
 20
572.488305
 30
0.0
 11
285.476428
 21
567.684331
 31
0.0
  0
LINE
  5
1B1
100
AcDbEntity
  8
LAY-1
  6
CONTINUOUS
 62
     2
100
AcDbLine
 10
270.465321
 20
572.488305
 30
0.0
 11
271.670874
 21
573.184331
 31
0.0
  0
ARC
  5
1B2
100
AcDbEntity
  8
LAY-1
  6
CONTINUOUS
 62
     2
100
AcDbCircle
 10
277.970874
 20
562.719368
 30
0.0
 40
10.464963
100
AcDbArc
 50
68.985518
 51
111.014482
  0
LINE
  5
1B3
100
AcDbEntity
  8
LAY-1
  6
CONTINUOUS
 62
     2
100
AcDbLine
 10
285.476428
 20
572.488305
 30
0.0
 11
284.270874
 21
573.184331
 31
0.0
  0
ARC
  5
1B4
100
AcDbEntity
  8
LAY-1
  6
CONTINUOUS
 62
     2
100
AcDbCircle
 10
271.670874
 20
568.175328
 30
0.0
 40
5.009003
100
AcDbArc
 50
59.434105
 51
90.0
  0
ARC
  5
1B5
100
AcDbEntity
  8
LAY-1
  6
CONTINUOUS
 62
     2
100
AcDbCircle
 10
284.270874
 20
568.175328
 30
0.0
 40
5.009003
100
AcDbArc
 50
90.0
 51
120.565895
  0
LINE
  5
1B6
100
AcDbEntity
  8
LAY-1
  6
CONTINUOUS
 62
     2
100
AcDbLine
 10
274.218098
 20
567.684331
 30
0.0
 11
274.218098
 21
572.488305
 31
0.0
  0
LINE
  5
1B7
100
AcDbEntity
  8
LAY-1
  6
CONTINUOUS
 62
     2
100
AcDbLine
 10
281.723651
 20
567.684331
 30
0.0
 11
281.723651
 21
572.488305
 31
0.0
  0
LINE
  5
1B8
100
AcDbEntity
  8
LAY-1
  6
CONTINUOUS
 62
     2
100
AcDbLine
 10
242.10846
 20
567.684331
 30
0.0
 11
242.10846
 21
572.488305
 31
0.0
  0
LINE
  5
1B9
100
AcDbEntity
  8
LAY-1
  6
CONTINUOUS
 62
     2
100
AcDbLine
 10
240.902906
 20
573.184331
 30
0.0
 11
228.302906
 21
573.184331
 31
0.0
  0
LINE
  5
1BA
100
AcDbEntity
  8
LAY-1
  6
CONTINUOUS
 62
     2
100
AcDbLine
 10
227.097353
 20
572.488305
 30
0.0
 11
227.097353
 21
567.684331
 31
0.0
  0
LINE
  5
1BB
100
AcDbEntity
  8
LAY-1
  6
CONTINUOUS
 62
     2
100
AcDbLine
 10
242.10846
 20
572.488305
 30
0.0
 11
240.902906
 21
573.184331
 31
0.0
  0
ARC
  5
1BC
100
AcDbEntity
  8
LAY-1
  6
CONTINUOUS
 62
     2
100
AcDbCircle
 10
234.602906
 20
562.719368
 30
0.0
 40
10.464963
100
AcDbArc
 50
68.985518
 51
111.014482
  0
LINE
  5
1BD
100
AcDbEntity
  8
LAY-1
  6
CONTINUOUS
 62
     2
100
AcDbLine
 10
227.097353
 20
572.488305
 30
0.0
 11
228.302906
 21
573.184331
 31
0.0
  0
ARC
  5
1BE
100
AcDbEntity
  8
LAY-1
  6
CONTINUOUS
 62
     2
100
AcDbCircle
 10
240.902906
 20
568.175328
 30
0.0
 40
5.009003
100
AcDbArc
 50
90.0
 51
120.565895
  0
ARC
  5
1BF
100
AcDbEntity
  8
LAY-1
  6
CONTINUOUS
 62
     2
100
AcDbCircle
 10
228.302906
 20
568.175328
 30
0.0
 40
5.009003
100
AcDbArc
 50
59.434105
 51
90.0
  0
LINE
  5
1C0
100
AcDbEntity
  8
LAY-1
  6
CONTINUOUS
 62
     2
100
AcDbLine
 10
238.355683
 20
567.684331
 30
0.0
 11
238.355683
 21
572.488305
 31
0.0
  0
LINE
  5
1C1
100
AcDbEntity
  8
LAY-1
  6
CONTINUOUS
 62
     2
100
AcDbLine
 10
230.85013
 20
567.684331
 30
0.0
 11
230.85013
 21
572.488305
 31
0.0
  0
LINE
  5
1C2
100
AcDbEntity
  8
LAY-1
  6
CONTINUOUS
 62
     2
100
AcDbLine
 10
180.776892
 20
567.684331
 30
0.0
 11
180.776892
 21
572.488305
 31
0.0
  0
LINE
  5
1C3
100
AcDbEntity
  8
LAY-1
  6
CONTINUOUS
 62
     2
100
AcDbLine
 10
179.571338
 20
573.184331
 30
0.0
 11
166.971338
 21
573.184331
 31
0.0
  0
LINE
  5
1C4
100
AcDbEntity
  8
LAY-1
  6
CONTINUOUS
 62
     2
100
AcDbLine
 10
165.765785
 20
572.488305
 30
0.0
 11
165.765785
 21
567.684331
 31
0.0
  0
LINE
  5
1C5
100
AcDbEntity
  8
LAY-1
  6
CONTINUOUS
 62
     2
100
AcDbLine
 10
180.776892
 20
572.488305
 30
0.0
 11
179.571338
 21
573.184331
 31
0.0
  0
ARC
  5
1C6
100
AcDbEntity
  8
LAY-1
  6
CONTINUOUS
 62
     2
100
AcDbCircle
 10
173.271338
 20
562.719368
 30
0.0
 40
10.464963
100
AcDbArc
 50
68.985518
 51
111.014482
  0
LINE
  5
1C7
100
AcDbEntity
  8
LAY-1
  6
CONTINUOUS
 62
     2
100
AcDbLine
 10
165.765785
 20
572.488305
 30
0.0
 11
166.971338
 21
573.184331
 31
0.0
  0
ARC
  5
1C8
100
AcDbEntity
  8
LAY-1
  6
CONTINUOUS
 62
     2
100
AcDbCircle
 10
179.571338
 20
568.175328
 30
0.0
 40
5.009003
100
AcDbArc
 50
90.0
 51
120.565895
  0
ARC
  5
1C9
100
AcDbEntity
  8
LAY-1
  6
CONTINUOUS
 62
     2
100
AcDbCircle
 10
166.971338
 20
568.175328
 30
0.0
 40
5.009003
100
AcDbArc
 50
59.434105
 51
90.0
  0
LINE
  5
1CA
100
AcDbEntity
  8
LAY-1
  6
CONTINUOUS
 62
     2
100
AcDbLine
 10
177.024115
 20
567.684331
 30
0.0
 11
177.024115
 21
572.488305
 31
0.0
  0
LINE
  5
1CB
100
AcDbEntity
  8
LAY-1
  6
CONTINUOUS
 62
     2
100
AcDbLine
 10
169.518561
 20
567.684331
 30
0.0
 11
169.518561
 21
572.488305
 31
0.0
  0
LINE
  5
1CC
100
AcDbEntity
  8
LAY-1
  6
CONTINUOUS
 62
     2
100
AcDbLine
 10
137.408924
 20
567.684331
 30
0.0
 11
137.408924
 21
572.488305
 31
0.0
  0
LINE
  5
1CD
100
AcDbEntity
  8
LAY-1
  6
CONTINUOUS
 62
     2
100
AcDbLine
 10
136.20337
 20
573.184331
 30
0.0
 11
123.60337
 21
573.184331
 31
0.0
  0
LINE
  5
1CE
100
AcDbEntity
  8
LAY-1
  6
CONTINUOUS
 62
     2
100
AcDbLine
 10
122.397817
 20
572.488305
 30
0.0
 11
122.397817
 21
567.684331
 31
0.0
  0
LINE
  5
1CF
100
AcDbEntity
  8
LAY-1
  6
CONTINUOUS
 62
     2
100
AcDbLine
 10
137.408924
 20
572.488305
 30
0.0
 11
136.20337
 21
573.184331
 31
0.0
  0
ARC
  5
1D0
100
AcDbEntity
  8
LAY-1
  6
CONTINUOUS
 62
     2
100
AcDbCircle
 10
129.90337
 20
562.719368
 30
0.0
 40
10.464963
100
AcDbArc
 50
68.985518
 51
111.014482
  0
LINE
  5
1D1
100
AcDbEntity
  8
LAY-1
  6
CONTINUOUS
 62
     2
100
AcDbLine
 10
122.397817
 20
572.488305
 30
0.0
 11
123.60337
 21
573.184331
 31
0.0
  0
ARC
  5
1D2
100
AcDbEntity
  8
LAY-1
  6
CONTINUOUS
 62
     2
100
AcDbCircle
 10
136.20337
 20
568.175328
 30
0.0
 40
5.009003
100
AcDbArc
 50
90.0
 51
120.565895
  0
ARC
  5
1D3
100
AcDbEntity
  8
LAY-1
  6
CONTINUOUS
 62
     2
100
AcDbCircle
 10
123.60337
 20
568.175328
 30
0.0
 40
5.009003
100
AcDbArc
 50
59.434105
 51
90.0
  0
LINE
  5
1D4
100
AcDbEntity
  8
LAY-1
  6
CONTINUOUS
 62
     2
100
AcDbLine
 10
133.656147
 20
567.684331
 30
0.0
 11
133.656147
 21
572.488305
 31
0.0
  0
LINE
  5
1D5
100
AcDbEntity
  8
LAY-1
  6
CONTINUOUS
 62
     2
100
AcDbLine
 10
126.150593
 20
567.684331
 30
0.0
 11
126.150593
 21
572.488305
 31
0.0
  0
ARC
  5
1D6
100
AcDbEntity
  8
LAY-1
  6
CONTINUOUS
 62
     2
100
AcDbCircle
 10
240.902906
 20
539.100287
 30
0.0
 40
5.009003
100
AcDbArc
 50
239.434105
 51
270.0
  0
ARC
  5
1D7
100
AcDbEntity
  8
LAY-1
  6
CONTINUOUS
 62
     2
100
AcDbCircle
 10
228.302906
 20
539.100287
 30
0.0
 40
5.009003
100
AcDbArc
 50
270.0
 51
300.565895
  0
LINE
  5
1D8
100
AcDbEntity
  8
LAY-1
  6
CONTINUOUS
 62
     2
100
AcDbLine
 10
230.85013
 20
540.591283
 30
0.0
 11
230.85013
 21
534.78731
 31
0.0
  0
LINE
  5
1D9
100
AcDbEntity
  8
LAY-1
  6
CONTINUOUS
 62
     2
100
AcDbLine
 10
227.097353
 20
534.78731
 30
0.0
 11
227.097353
 21
540.591283
 31
0.0
  0
LINE
  5
1DA
100
AcDbEntity
  8
LAY-1
  6
CONTINUOUS
 62
     2
100
AcDbLine
 10
238.355683
 20
540.591283
 30
0.0
 11
238.355683
 21
534.78731
 31
0.0
  0
LINE
  5
1DB
100
AcDbEntity
  8
LAY-1
  6
CONTINUOUS
 62
     2
100
AcDbLine
 10
242.10846
 20
540.591283
 30
0.0
 11
242.10846
 21
534.78731
 31
0.0
  0
LINE
  5
1DC
100
AcDbEntity
  8
LAY-1
  6
CONTINUOUS
 62
     2
100
AcDbLine
 10
227.097353
 20
534.78731
 30
0.0
 11
228.302906
 21
534.091283
 31
0.0
  0
LINE
  5
1DD
100
AcDbEntity
  8
LAY-1
  6
CONTINUOUS
 62
     2
100
AcDbLine
 10
240.902906
 20
534.091283
 30
0.0
 11
228.302906
 21
534.091283
 31
0.0
  0
ARC
  5
1DE
100
AcDbEntity
  8
LAY-1
  6
CONTINUOUS
 62
     2
100
AcDbCircle
 10
234.602906
 20
544.556247
 30
0.0
 40
10.464963
100
AcDbArc
 50
248.985518
 51
291.014482
  0
LINE
  5
1DF
100
AcDbEntity
  8
LAY-1
  6
CONTINUOUS
 62
     2
100
AcDbLine
 10
242.10846
 20
534.78731
 30
0.0
 11
240.902906
 21
534.091283
 31
0.0
  0
LINE
  5
1E0
100
AcDbEntity
  8
LAY-1
  6
CONTINUOUS
 62
     2
100
AcDbLine
 10
243.336841
 20
541.591283
 30
0.0
 11
242.10846
 21
540.591283
 31
0.0
  0
LINE
  5
1E1
100
AcDbEntity
  8
LAY-1
  6
CONTINUOUS
 62
     2
100
AcDbLine
 10
242.10846
 20
540.591283
 30
0.0
 11
227.097353
 21
540.591283
 31
0.0
  0
LINE
  5
1E2
100
AcDbEntity
  8
LAY-1
  6
CONTINUOUS
 62
     2
100
AcDbLine
 10
227.097353
 20
540.591283
 30
0.0
 11
225.914784
 21
541.591283
 31
0.0
  0
ARC
  5
1E3
100
AcDbEntity
  8
LAY-1
  6
CONTINUOUS
 62
     2
100
AcDbCircle
 10
179.571338
 20
539.100287
 30
0.0
 40
5.009003
100
AcDbArc
 50
239.434105
 51
270.0
  0
ARC
  5
1E4
100
AcDbEntity
  8
LAY-1
  6
CONTINUOUS
 62
     2
100
AcDbCircle
 10
166.971338
 20
539.100287
 30
0.0
 40
5.009003
100
AcDbArc
 50
270.0
 51
300.565895
  0
LINE
  5
1E5
100
AcDbEntity
  8
LAY-1
  6
CONTINUOUS
 62
     2
100
AcDbLine
 10
169.518561
 20
540.591283
 30
0.0
 11
169.518561
 21
534.78731
 31
0.0
  0
LINE
  5
1E6
100
AcDbEntity
  8
LAY-1
  6
CONTINUOUS
 62
     2
100
AcDbLine
 10
165.765785
 20
534.78731
 30
0.0
 11
165.765785
 21
540.591283
 31
0.0
  0
LINE
  5
1E7
100
AcDbEntity
  8
LAY-1
  6
CONTINUOUS
 62
     2
100
AcDbLine
 10
177.024115
 20
540.591283
 30
0.0
 11
177.024115
 21
534.78731
 31
0.0
  0
LINE
  5
1E8
100
AcDbEntity
  8
LAY-1
  6
CONTINUOUS
 62
     2
100
AcDbLine
 10
180.776892
 20
540.591283
 30
0.0
 11
180.776892
 21
534.78731
 31
0.0
  0
LINE
  5
1E9
100
AcDbEntity
  8
LAY-1
  6
CONTINUOUS
 62
     2
100
AcDbLine
 10
165.765785
 20
534.78731
 30
0.0
 11
166.971338
 21
534.091283
 31
0.0
  0
LINE
  5
1EA
100
AcDbEntity
  8
LAY-1
  6
CONTINUOUS
 62
     2
100
AcDbLine
 10
179.571338
 20
534.091283
 30
0.0
 11
166.971338
 21
534.091283
 31
0.0
  0
ARC
  5
1EB
100
AcDbEntity
  8
LAY-1
  6
CONTINUOUS
 62
     2
100
AcDbCircle
 10
173.271338
 20
544.556247
 30
0.0
 40
10.464963
100
AcDbArc
 50
248.985518
 51
291.014482
  0
LINE
  5
1EC
100
AcDbEntity
  8
LAY-1
  6
CONTINUOUS
 62
     2
100
AcDbLine
 10
180.776892
 20
534.78731
 30
0.0
 11
179.571338
 21
534.091283
 31
0.0
  0
LINE
  5
1ED
100
AcDbEntity
  8
LAY-1
  6
CONTINUOUS
 62
     2
100
AcDbLine
 10
182.005272
 20
541.591283
 30
0.0
 11
180.776892
 21
540.591283
 31
0.0
  0
LINE
  5
1EE
100
AcDbEntity
  8
LAY-1
  6
CONTINUOUS
 62
     2
100
AcDbLine
 10
180.776892
 20
540.591283
 30
0.0
 11
165.765785
 21
540.591283
 31
0.0
  0
LINE
  5
1EF
100
AcDbEntity
  8
LAY-1
  6
CONTINUOUS
 62
     2
100
AcDbLine
 10
165.765785
 20
540.591283
 30
0.0
 11
164.583216
 21
541.591283
 31
0.0
  0
ARC
  5
1F0
100
AcDbEntity
  8
LAY-1
  6
CONTINUOUS
 62
     2
100
AcDbCircle
 10
271.670874
 20
539.100287
 30
0.0
 40
5.009003
100
AcDbArc
 50
270.0
 51
300.565895
  0
ARC
  5
1F1
100
AcDbEntity
  8
LAY-1
  6
CONTINUOUS
 62
     2
100
AcDbCircle
 10
284.270874
 20
539.100287
 30
0.0
 40
5.009003
100
AcDbArc
 50
239.434105
 51
270.0
  0
LINE
  5
1F2
100
AcDbEntity
  8
LAY-1
  6
CONTINUOUS
 62
     2
100
AcDbLine
 10
281.723651
 20
540.591283
 30
0.0
 11
281.723651
 21
534.78731
 31
0.0
  0
LINE
  5
1F3
100
AcDbEntity
  8
LAY-1
  6
CONTINUOUS
 62
     2
100
AcDbLine
 10
285.476428
 20
534.78731
 30
0.0
 11
285.476428
 21
540.591283
 31
0.0
  0
LINE
  5
1F4
100
AcDbEntity
  8
LAY-1
  6
CONTINUOUS
 62
     2
100
AcDbLine
 10
274.218098
 20
540.591283
 30
0.0
 11
274.218098
 21
534.78731
 31
0.0
  0
LINE
  5
1F5
100
AcDbEntity
  8
LAY-1
  6
CONTINUOUS
 62
     2
100
AcDbLine
 10
270.465321
 20
540.591283
 30
0.0
 11
270.465321
 21
534.78731
 31
0.0
  0
LINE
  5
1F6
100
AcDbEntity
  8
LAY-1
  6
CONTINUOUS
 62
     2
100
AcDbLine
 10
285.476428
 20
534.78731
 30
0.0
 11
284.270874
 21
534.091283
 31
0.0
  0
LINE
  5
1F7
100
AcDbEntity
  8
LAY-1
  6
CONTINUOUS
 62
     2
100
AcDbLine
 10
271.670874
 20
534.091283
 30
0.0
 11
284.270874
 21
534.091283
 31
0.0
  0
ARC
  5
1F8
100
AcDbEntity
  8
LAY-1
  6
CONTINUOUS
 62
     2
100
AcDbCircle
 10
277.970874
 20
544.556247
 30
0.0
 40
10.464963
100
AcDbArc
 50
248.985518
 51
291.014482
  0
LINE
  5
1F9
100
AcDbEntity
  8
LAY-1
  6
CONTINUOUS
 62
     2
100
AcDbLine
 10
270.465321
 20
534.78731
 30
0.0
 11
271.670874
 21
534.091283
 31
0.0
  0
LINE
  5
1FA
100
AcDbEntity
  8
LAY-1
  6
CONTINUOUS
 62
     2
100
AcDbLine
 10
269.23694
 20
541.591283
 30
0.0
 11
270.465321
 21
540.591283
 31
0.0
  0
LINE
  5
1FB
100
AcDbEntity
  8
LAY-1
  6
CONTINUOUS
 62
     2
100
AcDbLine
 10
270.465321
 20
540.591283
 30
0.0
 11
285.476428
 21
540.591283
 31
0.0
  0
LINE
  5
1FC
100
AcDbEntity
  8
LAY-1
  6
CONTINUOUS
 62
     2
100
AcDbLine
 10
285.476428
 20
540.591283
 30
0.0
 11
286.658997
 21
541.591283
 31
0.0
  0
ARC
  5
1FD
100
AcDbEntity
  8
LAY-1
  6
CONTINUOUS
 62
     2
100
AcDbCircle
 10
136.20337
 20
539.100287
 30
0.0
 40
5.009003
100
AcDbArc
 50
239.434105
 51
270.0
  0
ARC
  5
1FE
100
AcDbEntity
  8
LAY-1
  6
CONTINUOUS
 62
     2
100
AcDbCircle
 10
123.60337
 20
539.100287
 30
0.0
 40
5.009003
100
AcDbArc
 50
270.0
 51
300.565895
  0
LINE
  5
1FF
100
AcDbEntity
  8
LAY-1
  6
CONTINUOUS
 62
     2
100
AcDbLine
 10
126.150593
 20
540.591283
 30
0.0
 11
126.150593
 21
534.78731
 31
0.0
  0
LINE
  5
200
100
AcDbEntity
  8
LAY-1
  6
CONTINUOUS
 62
     2
100
AcDbLine
 10
122.397817
 20
534.78731
 30
0.0
 11
122.397817
 21
540.591283
 31
0.0
  0
LINE
  5
201
100
AcDbEntity
  8
LAY-1
  6
CONTINUOUS
 62
     2
100
AcDbLine
 10
133.656147
 20
540.591283
 30
0.0
 11
133.656147
 21
534.78731
 31
0.0
  0
LINE
  5
202
100
AcDbEntity
  8
LAY-1
  6
CONTINUOUS
 62
     2
100
AcDbLine
 10
137.408924
 20
540.591283
 30
0.0
 11
137.408924
 21
534.78731
 31
0.0
  0
LINE
  5
203
100
AcDbEntity
  8
LAY-1
  6
CONTINUOUS
 62
     2
100
AcDbLine
 10
122.397817
 20
534.78731
 30
0.0
 11
123.60337
 21
534.091283
 31
0.0
  0
LINE
  5
204
100
AcDbEntity
  8
LAY-1
  6
CONTINUOUS
 62
     2
100
AcDbLine
 10
136.20337
 20
534.091283
 30
0.0
 11
123.60337
 21
534.091283
 31
0.0
  0
ARC
  5
205
100
AcDbEntity
  8
LAY-1
  6
CONTINUOUS
 62
     2
100
AcDbCircle
 10
129.90337
 20
544.556247
 30
0.0
 40
10.464963
100
AcDbArc
 50
248.985518
 51
291.014482
  0
LINE
  5
206
100
AcDbEntity
  8
LAY-1
  6
CONTINUOUS
 62
     2
100
AcDbLine
 10
137.408924
 20
534.78731
 30
0.0
 11
136.20337
 21
534.091283
 31
0.0
  0
LINE
  5
207
100
AcDbEntity
  8
LAY-1
  6
CONTINUOUS
 62
     2
100
AcDbLine
 10
138.637304
 20
541.591283
 30
0.0
 11
137.408924
 21
540.591283
 31
0.0
  0
LINE
  5
208
100
AcDbEntity
  8
LAY-1
  6
CONTINUOUS
 62
     2
100
AcDbLine
 10
137.408924
 20
540.591283
 30
0.0
 11
122.397817
 21
540.591283
 31
0.0
  0
LINE
  5
209
100
AcDbEntity
  8
LAY-1
  6
CONTINUOUS
 62
     2
100
AcDbLine
 10
122.397817
 20
540.591283
 30
0.0
 11
121.215248
 21
541.591283
 31
0.0
  0
CIRCLE
  5
20A
100
AcDbEntity
  8
LAY-1
  6
CONTINUOUS
 62
     2
100
AcDbCircle
 10
-223.96983
 20
142.184331
 30
0.0
 40
2.0
  0
LINE
  5
20B
100
AcDbEntity
  8
LAY-1
  6
CONTINUOUS
 62
     2
100
AcDbLine
 10
113.937122
 20
-269.422621
 30
0.0
 11
113.937122
 21
-244.365669
 31
0.0
  0
ARC
  5
20C
100
AcDbEntity
  8
LAY-1
  6
CONTINUOUS
 62
     2
100
AcDbCircle
 10
131.108695
 20
-245.722621
 30
0.0
 40
2.0
100
AcDbArc
 50
45.0
 51
90.0
  0
ARC
  5
20D
100
AcDbEntity
  8
LAY-1
  6
CONTINUOUS
 62
     2
100
AcDbCircle
 10
136.765549
 20
-245.722621
 30
0.0
 40
2.0
100
AcDbArc
 50
225.0
 51
270.0
  0
LINE
  5
20E
100
AcDbEntity
  8
LAY-1
  6
CONTINUOUS
 62
     2
100
AcDbLine
 10
132.522909
 20
-244.308407
 30
0.0
 11
135.351336
 21
-247.136834
 31
0.0
  0
LINE
  5
20F
100
AcDbEntity
  8
LAY-1
  6
CONTINUOUS
 62
     2
100
AcDbLine
 10
136.915549
 20
-247.722621
 30
0.0
 11
143.437122
 21
-247.722621
 31
0.0
  0
ARC
  5
210
100
AcDbEntity
  8
LAY-1
  6
CONTINUOUS
 62
     2
100
AcDbCircle
 10
143.437122
 20
-245.722621
 30
0.0
 40
2.0
100
AcDbArc
 50
270.0
 51
0.0
  0
LINE
  5
211
100
AcDbEntity
  8
LAY-1
  6
CONTINUOUS
 62
     2
100
AcDbLine
 10
145.437122
 20
-245.722621
 30
0.0
 11
145.437122
 21
-244.722621
 31
0.0
  0
ARC
  5
212
100
AcDbEntity
  8
LAY-1
  6
CONTINUOUS
 62
     2
100
AcDbCircle
 10
146.437122
 20
-244.722621
 30
0.0
 40
1.0
100
AcDbArc
 50
90.0
 51
180.0
  0
ARC
  5
213
100
AcDbEntity
  8
LAY-1
  6
CONTINUOUS
 62
     2
100
AcDbCircle
 10
114.437122
 20
-244.222621
 30
0.0
 40
0.5
100
AcDbArc
 50
90.0
 51
180.0
  0
LINE
  5
214
100
AcDbEntity
  8
LAY-1
  6
CONTINUOUS
 62
     2
100
AcDbLine
 10
114.437122
 20
-243.722621
 30
0.0
 11
131.108695
 21
-243.722621
 31
0.0
  0
LINE
  5
215
100
AcDbEntity
  8
LAY-1
  6
CONTINUOUS
 62
     2
100
AcDbLine
 10
146.437122
 20
-243.722621
 30
0.0
 11
160.99022
 21
-243.722621
 31
0.0
  0
LINE
  5
216
100
AcDbEntity
  8
LAY-1
  6
CONTINUOUS
 62
     2
100
AcDbLine
 10
113.937122
 20
553.791283
 30
0.0
 11
113.937122
 21
528.734331
 31
0.0
  0
ARC
  5
217
100
AcDbEntity
  8
LAY-1
  6
CONTINUOUS
 62
     2
100
AcDbCircle
 10
131.108695
 20
530.091283
 30
0.0
 40
2.0
100
AcDbArc
 50
270.0
 51
315.0
  0
ARC
  5
218
100
AcDbEntity
  8
LAY-1
  6
CONTINUOUS
 62
     2
100
AcDbCircle
 10
136.765549
 20
530.091283
 30
0.0
 40
2.0
100
AcDbArc
 50
90.0
 51
135.0
  0
LINE
  5
219
100
AcDbEntity
  8
LAY-1
  6
CONTINUOUS
 62
     2
100
AcDbLine
 10
132.522909
 20
528.67707
 30
0.0
 11
135.351336
 21
531.505497
 31
0.0
  0
LINE
  5
21A
100
AcDbEntity
  8
LAY-1
  6
CONTINUOUS
 62
     2
100
AcDbLine
 10
136.915549
 20
532.091283
 30
0.0
 11
143.437122
 21
532.091283
 31
0.0
  0
ARC
  5
21B
100
AcDbEntity
  8
LAY-1
  6
CONTINUOUS
 62
     2
100
AcDbCircle
 10
143.437122
 20
530.091283
 30
0.0
 40
2.0
100
AcDbArc
 50
0.0
 51
90.0
  0
LINE
  5
21C
100
AcDbEntity
  8
LAY-1
  6
CONTINUOUS
 62
     2
100
AcDbLine
 10
145.437122
 20
530.091283
 30
0.0
 11
145.437122
 21
529.091283
 31
0.0
  0
ARC
  5
21D
100
AcDbEntity
  8
LAY-1
  6
CONTINUOUS
 62
     2
100
AcDbCircle
 10
146.437122
 20
529.091283
 30
0.0
 40
1.0
100
AcDbArc
 50
180.0
 51
270.0
  0
ARC
  5
21E
100
AcDbEntity
  8
LAY-1
  6
CONTINUOUS
 62
     2
100
AcDbCircle
 10
114.437122
 20
528.591283
 30
0.0
 40
0.5
100
AcDbArc
 50
180.0
 51
270.0
  0
LINE
  5
21F
100
AcDbEntity
  8
LAY-1
  6
CONTINUOUS
 62
     2
100
AcDbLine
 10
114.437122
 20
528.091283
 30
0.0
 11
131.108695
 21
528.091283
 31
0.0
  0
LINE
  5
220
100
AcDbEntity
  8
LAY-1
  6
CONTINUOUS
 62
     2
100
AcDbLine
 10
146.437122
 20
528.091283
 30
0.0
 11
160.99022
 21
528.091283
 31
0.0
  0
ARC
  5
221
100
AcDbEntity
  8
LAY-1
  6
CONTINUOUS
 62
     2
100
AcDbCircle
 10
635.344074
 20
231.184331
 30
0.0
 40
1.0
100
AcDbArc
 50
90.0
 51
180.0
  0
LINE
  5
222
100
AcDbEntity
  8
LAY-1
  6
CONTINUOUS
 62
     2
100
AcDbLine
 10
628.844074
 20
165.344562
 30
0.0
 11
628.844074
 21
119.024101
 31
0.0
  0
LINE
  5
223
100
AcDbEntity
  8
LAY-1
  6
CONTINUOUS
 62
     2
100
AcDbLine
 10
628.844074
 20
197.911388
 30
0.0
 11
628.844074
 21
180.355669
 31
0.0
  0
LINE
  5
224
100
AcDbEntity
  8
LAY-1
  6
CONTINUOUS
 62
     2
100
AcDbLine
 10
628.844074
 20
86.457275
 30
0.0
 11
628.844074
 21
104.012994
 31
0.0
  0
ARC
  5
225
100
AcDbEntity
  8
LAY-1
  6
CONTINUOUS
 62
     2
100
AcDbCircle
 10
635.844074
 20
86.457275
 30
0.0
 40
7.0
100
AcDbArc
 50
180.0
 51
240.005968
  0
LINE
  5
226
100
AcDbEntity
  8
LAY-1
  6
CONTINUOUS
 62
     2
100
AcDbLine
 10
632.344706
 20
80.394733
 30
0.0
 11
633.343894
 21
79.81799
 31
0.0
  0
ARC
  5
227
100
AcDbEntity
  8
LAY-1
  6
CONTINUOUS
 62
     2
100
AcDbCircle
 10
632.344074
 20
78.085835
 30
0.0
 40
2.0
100
AcDbArc
 50
0.0
 51
60.005968
  0
ARC
  5
228
100
AcDbEntity
  8
LAY-1
  6
CONTINUOUS
 62
     2
100
AcDbCircle
 10
620.844074
 20
92.129894
 30
0.0
 40
8.0
100
AcDbArc
 50
0.0
 51
88.356383
  0
LINE
  5
229
100
AcDbEntity
  8
LAY-1
  6
CONTINUOUS
 62
     2
100
AcDbLine
 10
504.154691
 20
103.48152
 30
0.0
 11
621.073535
 21
100.126603
 31
0.0
  0
LINE
  5
22A
100
AcDbEntity
  8
LAY-1
  6
CONTINUOUS
 62
     2
100
AcDbLine
 10
227.097353
 20
536.091283
 30
0.0
 11
180.776892
 21
536.091283
 31
0.0
  0
LINE
  5
22B
100
AcDbEntity
  8
LAY-1
  6
CONTINUOUS
 62
     2
100
AcDbLine
 10
263.880779
 20
536.091283
 30
0.0
 11
242.10846
 21
536.091283
 31
0.0
  0
LINE
  5
22C
100
AcDbEntity
  8
LAY-1
  6
CONTINUOUS
 62
     2
100
AcDbLine
 10
143.993465
 20
536.091283
 30
0.0
 11
165.765785
 21
536.091283
 31
0.0
  0
LINE
  5
22D
100
AcDbEntity
  8
LAY-1
  6
CONTINUOUS
 62
     2
100
AcDbLine
 10
165.188048
 20
-127.368067
 30
0.0
 11
160.99022
 21
-244.010345
 31
0.0
  0
LINE
  5
22E
100
AcDbEntity
  8
LAY-1
  6
CONTINUOUS
 62
     2
100
AcDbLine
 10
143.993465
 20
-251.722621
 30
0.0
 11
165.765785
 21
-251.722621
 31
0.0
  0
LINE
  5
22F
100
AcDbEntity
  8
LAY-1
  6
CONTINUOUS
 62
     2
100
AcDbLine
 10
180.776892
 20
-251.722621
 30
0.0
 11
183.937122
 21
-251.722621
 31
0.0
  0
LINE
  5
230
100
AcDbEntity
  8
LAY-1
  6
CONTINUOUS
 62
     2
100
AcDbLine
 10
227.097353
 20
-251.722621
 30
0.0
 11
223.937122
 21
-251.722621
 31
0.0
  0
LINE
  5
231
100
AcDbEntity
  8
LAY-1
  6
CONTINUOUS
 62
     2
100
AcDbLine
 10
263.880779
 20
-251.722621
 30
0.0
 11
242.10846
 21
-251.722621
 31
0.0
  0
LINE
  5
232
100
AcDbEntity
  8
LAY-1
  6
CONTINUOUS
 62
     2
100
AcDbLine
 10
646.844074
 20
52.184331
 30
0.0
 11
635.344074
 21
52.184331
 31
0.0
  0
LINE
  5
233
100
AcDbEntity
  8
LAY-1
  6
CONTINUOUS
 62
     2
100
AcDbLine
 10
646.844074
 20
52.184331
 30
0.0
 11
646.844074
 21
232.184331
 31
0.0
  0
LINE
  5
234
100
AcDbEntity
  8
LAY-1
  6
CONTINUOUS
 62
     2
100
AcDbLine
 10
646.844074
 20
232.184331
 30
0.0
 11
635.344074
 21
232.184331
 31
0.0
  0
LINE
  5
235
100
AcDbEntity
  8
LAY-1
  6
CONTINUOUS
 62
     2
100
AcDbLine
 10
-238.96983
 20
52.184331
 30
0.0
 11
-238.96983
 21
232.184331
 31
0.0
  0
LINE
  5
236
100
AcDbEntity
  8
LAY-1
  6
CONTINUOUS
 62
     2
100
AcDbLine
 10
-238.96983
 20
52.184331
 30
0.0
 11
-227.46983
 21
52.184331
 31
0.0
  0
LINE
  5
237
100
AcDbEntity
  8
LAY-1
  6
CONTINUOUS
 62
     2
100
AcDbLine
 10
-238.96983
 20
232.184331
 30
0.0
 11
-227.46983
 21
232.184331
 31
0.0
  0
LINE
  5
238
100
AcDbEntity
  8
LAY-1
  6
CONTINUOUS
 62
     2
100
AcDbLine
 10
-220.96983
 20
119.024101
 30
0.0
 11
-220.96983
 21
131.601326
 31
0.0
  0
LINE
  5
239
100
AcDbEntity
  8
LAY-1
  6
CONTINUOUS
 62
     2
100
AcDbLine
 10
-220.96983
 20
86.457275
 30
0.0
 11
-220.96983
 21
104.012994
 31
0.0
  0
LINE
  5
23A
100
AcDbEntity
  8
LAY-1
  6
CONTINUOUS
 62
     2
100
AcDbLine
 10
-220.96983
 20
165.344562
 30
0.0
 11
-220.96983
 21
152.767337
 31
0.0
  0
LINE
  5
23B
100
AcDbEntity
  8
LAY-1
  6
CONTINUOUS
 62
     2
100
AcDbLine
 10
-220.96983
 20
197.911388
 30
0.0
 11
-220.96983
 21
180.355669
 31
0.0
  0
ARC
  5
23C
100
AcDbEntity
  8
LAY-1
  6
CONTINUOUS
 62
     2
100
AcDbCircle
 10
-227.96983
 20
86.457275
 30
0.0
 40
7.0
100
AcDbArc
 50
299.994032
 51
0.0
  0
LINE
  5
23D
100
AcDbEntity
  8
LAY-1
  6
CONTINUOUS
 62
     2
100
AcDbLine
 10
-224.470461
 20
80.394733
 30
0.0
 11
-225.469649
 21
79.81799
 31
0.0
  0
ARC
  5
23E
100
AcDbEntity
  8
LAY-1
  6
CONTINUOUS
 62
     2
100
AcDbCircle
 10
-224.46983
 20
78.085835
 30
0.0
 40
2.0
100
AcDbArc
 50
119.994032
 51
180.0
  0
ARC
  5
23F
100
AcDbEntity
  8
LAY-1
  6
CONTINUOUS
 62
     2
100
AcDbCircle
 10
-212.96983
 20
92.129894
 30
0.0
 40
8.0
100
AcDbArc
 50
91.643617
 51
180.0
  0
LINE
  5
240
100
AcDbEntity
  8
LAY-1
  6
CONTINUOUS
 62
     2
100
AcDbLine
 10
-96.280447
 20
103.48152
 30
0.0
 11
-213.199291
 21
100.126603
 31
0.0
  0
ARC
  5
241
100
AcDbEntity
  8
LAY-1
  6
CONTINUOUS
 62
     2
100
AcDbCircle
 10
138.993465
 20
-255.222621
 30
0.0
 40
2.0
100
AcDbArc
 50
270.0
 51
0.0
  0
LINE
  5
242
100
AcDbEntity
  8
LAY-1
  6
CONTINUOUS
 62
     2
100
AcDbLine
 10
140.993465
 20
-254.722621
 30
0.0
 11
140.993465
 21
-255.222621
 31
0.0
  0
ARC
  5
243
100
AcDbEntity
  8
LAY-1
  6
CONTINUOUS
 62
     2
100
AcDbCircle
 10
143.993465
 20
-254.722621
 30
0.0
 40
3.0
100
AcDbArc
 50
90.0
 51
180.0
  0
ARC
  5
244
100
AcDbEntity
  8
LAY-1
  6
CONTINUOUS
 62
     2
100
AcDbCircle
 10
152.995396
 20
-243.722621
 30
0.0
 40
8.0
100
AcDbArc
 50
270.0
 51
357.938877
  0
ARC
  5
245
100
AcDbEntity
  8
LAY-1
  6
CONTINUOUS
 62
     2
100
AcDbCircle
 10
152.995396
 20
528.091283
 30
0.0
 40
8.0
100
AcDbArc
 50
2.061123
 51
90.0
  0
ARC
  5
246
100
AcDbEntity
  8
LAY-1
  6
CONTINUOUS
 62
     2
100
AcDbCircle
 10
138.993465
 20
539.591283
 30
0.0
 40
2.0
100
AcDbArc
 50
0.0
 51
90.0
  0
LINE
  5
247
100
AcDbEntity
  8
LAY-1
  6
CONTINUOUS
 62
     2
100
AcDbLine
 10
140.993465
 20
539.091283
 30
0.0
 11
140.993465
 21
539.591283
 31
0.0
  0
ARC
  5
248
100
AcDbEntity
  8
LAY-1
  6
CONTINUOUS
 62
     2
100
AcDbCircle
 10
143.993465
 20
539.091283
 30
0.0
 40
3.0
100
AcDbArc
 50
180.0
 51
270.0
  0
ARC
  5
249
100
AcDbEntity
  8
LAY-1
  6
CONTINUOUS
 62
     2
100
AcDbCircle
 10
156.916022
 20
-277.179766
 30
0.0
 40
22.0
100
AcDbArc
 50
207.540243
 51
258.870811
  0
LINE
  5
24A
100
AcDbEntity
  8
LAY-1
  6
CONTINUOUS
 62
     2
100
AcDbLine
 10
115.902217
 20
-283.349969
 30
0.0
 11
122.397817
 21
-283.463351
 31
0.0
  0
ARC
  5
24B
100
AcDbEntity
  8
LAY-1
  6
CONTINUOUS
 62
     2
100
AcDbCircle
 10
250.958222
 20
-277.179766
 30
0.0
 40
22.0
100
AcDbArc
 50
281.129189
 51
332.459757
  0
LINE
  5
24C
100
AcDbEntity
  8
LAY-1
  6
CONTINUOUS
 62
     2
100
AcDbLine
 10
291.972027
 20
-283.349969
 30
0.0
 11
285.476428
 21
-283.463351
 31
0.0
  0
LINE
  5
24D
100
AcDbEntity
  8
LAY-1
  6
CONTINUOUS
 62
     2
100
AcDbLine
 10
132.087122
 20
-245.615669
 30
0.0
 11
132.087122
 21
-249.722621
 31
0.0
  0
LINE
  5
24E
100
AcDbEntity
  8
LAY-1
  6
CONTINUOUS
 62
     2
100
AcDbLine
 10
133.847881
 20
-248.415669
 30
0.0
 11
133.847881
 21
-249.722621
 31
0.0
  0
LINE
  5
24F
100
AcDbEntity
  8
LAY-1
  6
CONTINUOUS
 62
     2
100
AcDbLine
 10
113.937122
 20
-257.222621
 30
0.0
 11
293.937122
 21
-257.222621
 31
0.0
  0
ARC
  5
250
100
AcDbEntity
  8
LAY-1
  6
CONTINUOUS
 62
     2
100
AcDbCircle
 10
250.958222
 20
561.548429
 30
0.0
 40
22.0
100
AcDbArc
 50
27.540243
 51
78.870811
  0
LINE
  5
251
100
AcDbEntity
  8
LAY-1
  6
CONTINUOUS
 62
     2
100
AcDbLine
 10
291.972027
 20
567.718632
 30
0.0
 11
285.476428
 21
567.832013
 31
0.0
  0
ARC
  5
252
100
AcDbEntity
  8
LAY-1
  6
CONTINUOUS
 62
     2
100
AcDbCircle
 10
156.916022
 20
561.548429
 30
0.0
 40
22.0
100
AcDbArc
 50
101.129189
 51
152.459757
  0
LINE
  5
253
100
AcDbEntity
  8
LAY-1
  6
CONTINUOUS
 62
     2
100
AcDbLine
 10
115.902217
 20
567.718632
 30
0.0
 11
122.397817
 21
567.832013
 31
0.0
  0
LINE
  5
254
100
AcDbEntity
  8
LAY-1
  6
CONTINUOUS
 62
     2
100
AcDbLine
 10
113.937122
 20
541.591283
 30
0.0
 11
292.937122
 21
541.591283
 31
0.0
  0
LINE
  5
255
100
AcDbEntity
  8
LAY-1
  6
CONTINUOUS
 62
     2
100
AcDbLine
 10
132.087122
 20
529.984331
 30
0.0
 11
132.087122
 21
534.091283
 31
0.0
  0
LINE
  5
256
100
AcDbEntity
  8
LAY-1
  6
CONTINUOUS
 62
     2
100
AcDbLine
 10
133.847881
 20
532.784331
 30
0.0
 11
133.847881
 21
534.091283
 31
0.0
  0
ARC
  5
257
100
AcDbEntity
  8
LAY-1
  6
CONTINUOUS
 62
     2
100
AcDbCircle
 10
654.208172
 20
189.205432
 30
0.0
 40
22.0
100
AcDbArc
 50
11.129189
 51
62.459757
  0
ARC
  5
258
100
AcDbEntity
  8
LAY-1
  6
CONTINUOUS
 62
     2
100
AcDbCircle
 10
654.208172
 20
95.163231
 30
0.0
 40
22.0
100
AcDbArc
 50
297.540243
 51
348.870811
  0
LINE
  5
259
100
AcDbEntity
  8
LAY-1
  6
CONTINUOUS
 62
     2
100
AcDbLine
 10
623.57087
 20
95.747595
 30
0.0
 11
627.213334
 21
75.090156
 31
0.0
  0
LINE
  5
25A
100
AcDbEntity
  8
LAY-1
  6
CONTINUOUS
 62
     2
100
AcDbLine
 10
629.7604
 20
60.645026
 30
0.0
 11
630.17642
 21
58.285658
 31
0.0
  0
ARC
  5
25B
100
AcDbEntity
  8
LAY-1
  6
CONTINUOUS
 62
     2
100
AcDbCircle
 10
-246.333927
 20
95.163231
 30
0.0
 40
22.0
100
AcDbArc
 50
191.129189
 51
242.459757
  0
ARC
  5
25C
100
AcDbEntity
  8
LAY-1
  6
CONTINUOUS
 62
     2
100
AcDbCircle
 10
-246.333927
 20
189.205432
 30
0.0
 40
22.0
100
AcDbArc
 50
117.540243
 51
168.870811
  0
LINE
  5
25D
100
AcDbEntity
  8
LAY-1
  6
CONTINUOUS
 62
     2
100
AcDbLine
 10
-215.696626
 20
95.747595
 30
0.0
 11
-219.339089
 21
75.090156
 31
0.0
  0
LINE
  5
25E
100
AcDbEntity
  8
LAY-1
  6
CONTINUOUS
 62
     2
100
AcDbLine
 10
-221.886156
 20
60.645026
 30
0.0
 11
-222.302176
 21
58.285658
 31
0.0
  0
LINE
  5
25F
100
AcDbEntity
  8
LAY-1
  6
CONTINUOUS
 62
     2
100
AcDbLine
 10
-278.361225
 20
182.184331
 30
0.0
 11
-293.512888
 21
182.184331
 31
0.0
  0
LINE
  5
260
100
AcDbEntity
  8
LAY-1
  6
CONTINUOUS
 62
     2
100
AcDbLine
 10
-277.912878
 20
102.184331
 30
0.0
 11
-293.512888
 21
102.184331
 31
0.0
  0
ARC
  5
261
100
AcDbEntity
  8
LAY-1
  6
CONTINUOUS
 62
     2
100
AcDbCircle
 10
-229.062878
 20
142.184331
 30
0.0
 40
127.0
100
AcDbArc
 50
153.342035
 51
165.522488
  0
CIRCLE
  5
262
100
AcDbEntity
  8
LAY-1
  6
CONTINUOUS
 62
     2
100
AcDbCircle
 10
203.937122
 20
640.184331
 30
0.0
 40
50.0
  0
CIRCLE
  5
263
100
AcDbEntity
  8
LAY-1
  6
CONTINUOUS
 62
     2
100
AcDbCircle
 10
177.420618
 20
613.667827
 30
0.0
 40
7.5
  0
CIRCLE
  5
264
100
AcDbEntity
  8
LAY-1
  6
CONTINUOUS
 62
     2
100
AcDbCircle
 10
230.453627
 20
613.667827
 30
0.0
 40
7.5
  0
CIRCLE
  5
265
100
AcDbEntity
  8
LAY-1
  6
CONTINUOUS
 62
     2
100
AcDbCircle
 10
230.453627
 20
666.700836
 30
0.0
 40
7.5
  0
CIRCLE
  5
266
100
AcDbEntity
  8
LAY-1
  6
CONTINUOUS
 62
     2
100
AcDbCircle
 10
177.420618
 20
666.700836
 30
0.0
 40
7.5
  0
CIRCLE
  5
267
100
AcDbEntity
  8
LAY-1
  6
CONTINUOUS
 62
     2
100
AcDbCircle
 10
203.937122
 20
640.184331
 30
0.0
 40
28.0
  0
CIRCLE
  5
268
100
AcDbEntity
  8
LAY-1
  6
CONTINUOUS
 62
     2
100
AcDbCircle
 10
203.937122
 20
640.184331
 30
0.0
 40
10.7
  0
CIRCLE
  5
269
100
AcDbEntity
  8
LAY-1
  6
CONTINUOUS
 62
     2
100
AcDbCircle
 10
203.937122
 20
640.184331
 30
0.0
 40
13.6
  0
CIRCLE
  5
26A
100
AcDbEntity
  8
LAY-1
  6
CONTINUOUS
 62
     2
100
AcDbCircle
 10
203.937122
 20
-355.815669
 30
0.0
 40
50.0
  0
CIRCLE
  5
26B
100
AcDbEntity
  8
LAY-1
  6
CONTINUOUS
 62
     2
100
AcDbCircle
 10
177.420618
 20
-382.332173
 30
0.0
 40
7.5
  0
CIRCLE
  5
26C
100
AcDbEntity
  8
LAY-1
  6
CONTINUOUS
 62
     2
100
AcDbCircle
 10
230.453627
 20
-382.332173
 30
0.0
 40
7.5
  0
CIRCLE
  5
26D
100
AcDbEntity
  8
LAY-1
  6
CONTINUOUS
 62
     2
100
AcDbCircle
 10
230.453627
 20
-329.299164
 30
0.0
 40
7.5
  0
CIRCLE
  5
26E
100
AcDbEntity
  8
LAY-1
  6
CONTINUOUS
 62
     2
100
AcDbCircle
 10
177.420618
 20
-329.299164
 30
0.0
 40
7.5
  0
CIRCLE
  5
26F
100
AcDbEntity
  8
LAY-1
  6
CONTINUOUS
 62
     2
100
AcDbCircle
 10
203.937122
 20
-355.815669
 30
0.0
 40
10.7
  0
CIRCLE
  5
270
100
AcDbEntity
  8
LAY-1
  6
CONTINUOUS
 62
     2
100
AcDbCircle
 10
203.937122
 20
-355.815669
 30
0.0
 40
13.6
  0
ARC
  5
271
100
AcDbEntity
  8
LAY-1
  6
CONTINUOUS
 62
     2
100
AcDbCircle
 10
115.937122
 20
-281.350274
 30
0.0
 40
2.0
100
AcDbArc
 50
180.0
 51
269.0
  0
LINE
  5
272
100
AcDbEntity
  8
LAY-1
  6
CONTINUOUS
 62
     2
100
AcDbLine
 10
113.937122
 20
-270.815669
 30
0.0
 11
113.937122
 21
-281.350274
 31
0.0
  0
LINE
  5
273
100
AcDbEntity
  8
LAY-1
  6
CONTINUOUS
 62
     2
100
AcDbLine
 10
128.437122
 20
-269.722621
 30
0.0
 11
128.437122
 21
-269.422621
 31
0.0
  0
LINE
  5
274
100
AcDbEntity
  8
LAY-1
  6
CONTINUOUS
 62
     2
100
AcDbLine
 10
165.188048
 20
411.73673
 30
0.0
 11
161.000575
 21
528.091283
 31
0.0
  0
LINE
  5
275
100
AcDbEntity
  8
LAY-1
  6
CONTINUOUS
 62
     2
100
AcDbLine
 10
-238.96983
 20
232.05064
 30
0.0
 11
-250.46983
 21
232.05064
 31
0.0
  0
ARC
  5
276
100
AcDbEntity
  8
LAY-1
  6
EXLTYPE4
 62
     2
100
AcDbCircle
 10
-227.46983
 20
231.184331
 30
0.0
 40
1.0
100
AcDbArc
 50
0.0
 51
90.0
  0
ARC
  5
277
100
AcDbEntity
  8
LAY-1
  6
CONTINUOUS
 62
     2
100
AcDbCircle
 10
-224.46983
 20
155.174713
 30
0.0
 40
2.0
100
AcDbArc
 50
180.0
 51
272.204228
  0
ARC
  5
278
100
AcDbEntity
  8
LAY-1
  6
CONTINUOUS
 62
     2
100
AcDbCircle
 10
-224.46983
 20
129.19395
 30
0.0
 40
2.0
100
AcDbArc
 50
87.795772
 51
180.0
  0
ARC
  5
279
100
AcDbEntity
  8
LAY-1
  6
CONTINUOUS
 62
     2
100
AcDbCircle
 10
-223.96983
 20
142.184331
 30
0.0
 40
11.0
100
AcDbArc
 50
267.795772
 51
92.204228
  0
CIRCLE
  5
27A
100
AcDbEntity
  8
LAY-1
  6
CONTINUOUS
 62
     2
100
AcDbCircle
 10
-223.96983
 20
142.184331
 30
0.0
 40
8.5
  0
CIRCLE
  5
27B
100
AcDbEntity
  8
LAY-1
  6
CONTINUOUS
 62
     2
100
AcDbCircle
 10
-223.96983
 20
142.184331
 30
0.0
 40
5.6
  0
LINE
  5
27C
100
AcDbEntity
  8
LAY-1
  6
CONTINUOUS
 62
     2
100
AcDbLine
 10
-226.46983
 20
231.184331
 30
0.0
 11
-226.46983
 21
155.174713
 31
0.0
  0
LINE
  5
27D
100
AcDbEntity
  8
LAY-1
  6
CONTINUOUS
 62
     2
100
AcDbLine
 10
-226.46983
 20
129.19395
 30
0.0
 11
-226.46983
 21
53.184331
 31
0.0
  0
LINE
  5
27E
100
AcDbEntity
  8
LAY-1
  6
CONTINUOUS
 62
     2
100
AcDbLine
 10
177.687122
 20
401.500325
 30
0.0
 11
173.445096
 21
402.248309
 31
0.0
  0
LINE
  5
27F
100
AcDbEntity
  8
LAY-1
  6
CONTINUOUS
 62
     2
100
AcDbLine
 10
230.187122
 20
401.500325
 30
0.0
 11
234.429148
 21
402.248309
 31
0.0
  0
ARC
  5
280
100
AcDbEntity
  8
LAY-1
  6
CONTINUOUS
 62
     2
100
AcDbCircle
 10
191.639562
 20
335.341018
 30
0.0
 40
2.0
100
AcDbArc
 50
180.0
 51
252.974393
  0
LINE
  5
281
100
AcDbEntity
  8
LAY-1
  6
CONTINUOUS
 62
     2
100
AcDbLine
 10
189.639562
 20
335.341018
 30
0.0
 11
189.639562
 21
371.938961
 31
0.0
  0
ARC
  5
282
100
AcDbEntity
  8
LAY-1
  6
CONTINUOUS
 62
     2
100
AcDbCircle
 10
189.137122
 20
375.115795
 30
0.0
 40
2.0
100
AcDbArc
 50
180.0
 51
240.0
  0
LINE
  5
283
100
AcDbEntity
  8
LAY-1
  6
CONTINUOUS
 62
     2
100
AcDbLine
 10
188.137122
 20
373.383745
 30
0.0
 11
189.139562
 21
372.804986
 31
0.0
  0
ARC
  5
284
100
AcDbEntity
  8
LAY-1
  6
CONTINUOUS
 62
     2
100
AcDbCircle
 10
188.639562
 20
371.938961
 30
0.0
 40
1.0
100
AcDbArc
 50
0.0
 51
60.0
  0
LINE
  5
285
100
AcDbEntity
  8
LAY-1
  6
CONTINUOUS
 62
     2
100
AcDbLine
 10
187.137122
 20
382.970418
 30
0.0
 11
187.137122
 21
375.115795
 31
0.0
  0
LINE
  5
286
100
AcDbEntity
  8
LAY-1
  6
CONTINUOUS
 62
     2
100
AcDbLine
 10
183.711161
 20
385.525748
 30
0.0
 11
186.637122
 21
383.836443
 31
0.0
  0
ARC
  5
287
100
AcDbEntity
  8
LAY-1
  6
CONTINUOUS
 62
     2
100
AcDbCircle
 10
185.361161
 20
388.383632
 30
0.0
 40
3.3
100
AcDbArc
 50
182.0
 51
240.0
  0
ARC
  5
288
100
AcDbEntity
  8
LAY-1
  6
CONTINUOUS
 62
     2
100
AcDbCircle
 10
186.137122
 20
382.970418
 30
0.0
 40
1.0
100
AcDbArc
 50
0.0
 51
60.0
  0
LINE
  5
289
100
AcDbEntity
  8
LAY-1
  6
CONTINUOUS
 62
     2
100
AcDbLine
 10
181.731704
 20
397.760446
 30
0.0
 11
182.063171
 21
388.268463
 31
0.0
  0
ARC
  5
28A
100
AcDbEntity
  8
LAY-1
  6
CONTINUOUS
 62
     2
100
AcDbCircle
 10
179.687122
 20
401.355501
 30
0.0
 40
2.0
100
AcDbArc
 50
180.0
 51
260.134193
  0
LINE
  5
28B
100
AcDbEntity
  8
LAY-1
  6
CONTINUOUS
 62
     2
100
AcDbLine
 10
179.34444
 20
399.385078
 30
0.0
 11
180.489629
 21
399.185915
 31
0.0
  0
ARC
  5
28C
100
AcDbEntity
  8
LAY-1
  6
CONTINUOUS
 62
     2
100
AcDbCircle
 10
180.232618
 20
397.708097
 30
0.0
 40
1.5
100
AcDbArc
 50
2.0
 51
80.134193
  0
ARC
  5
28D
100
AcDbEntity
  8
LAY-1
  6
CONTINUOUS
 62
     2
100
AcDbCircle
 10
227.641627
 20
397.708097
 30
0.0
 40
1.5
100
AcDbArc
 50
99.865807
 51
178.0
  0
LINE
  5
28E
100
AcDbEntity
  8
LAY-1
  6
CONTINUOUS
 62
     2
100
AcDbLine
 10
228.529805
 20
399.385078
 30
0.0
 11
227.384615
 21
399.185915
 31
0.0
  0
ARC
  5
28F
100
AcDbEntity
  8
LAY-1
  6
CONTINUOUS
 62
     2
100
AcDbCircle
 10
228.187122
 20
401.355501
 30
0.0
 40
2.0
100
AcDbArc
 50
279.865807
 51
0.0
  0
LINE
  5
290
100
AcDbEntity
  8
LAY-1
  6
CONTINUOUS
 62
     2
100
AcDbLine
 10
230.187122
 20
401.355501
 30
0.0
 11
230.187122
 21
401.500325
 31
0.0
  0
ARC
  5
291
100
AcDbEntity
  8
LAY-1
  6
CONTINUOUS
 62
     2
100
AcDbCircle
 10
222.317075
 20
388.501406
 30
0.0
 40
3.5
100
AcDbArc
 50
300.0
 51
358.0
  0
LINE
  5
292
100
AcDbEntity
  8
LAY-1
  6
CONTINUOUS
 62
     2
100
AcDbLine
 10
226.142541
 20
397.760446
 30
0.0
 11
225.814942
 21
388.379258
 31
0.0
  0
ARC
  5
293
100
AcDbEntity
  8
LAY-1
  6
CONTINUOUS
 62
     2
100
AcDbCircle
 10
221.737122
 20
382.970418
 30
0.0
 40
1.0
100
AcDbArc
 50
120.0
 51
180.0
  0
LINE
  5
294
100
AcDbEntity
  8
LAY-1
  6
CONTINUOUS
 62
     2
100
AcDbLine
 10
224.067075
 20
385.470317
 30
0.0
 11
221.237122
 21
383.836443
 31
0.0
  0
LINE
  5
295
100
AcDbEntity
  8
LAY-1
  6
CONTINUOUS
 62
     2
100
AcDbLine
 10
220.737122
 20
382.970418
 30
0.0
 11
220.737122
 21
375.115795
 31
0.0
  0
ARC
  5
296
100
AcDbEntity
  8
LAY-1
  6
CONTINUOUS
 62
     2
100
AcDbCircle
 10
218.737122
 20
375.115795
 30
0.0
 40
2.0
100
AcDbArc
 50
300.0
 51
0.0
  0
LINE
  5
297
100
AcDbEntity
  8
LAY-1
  6
CONTINUOUS
 62
     2
100
AcDbLine
 10
219.737122
 20
373.383745
 30
0.0
 11
218.734683
 21
372.804986
 31
0.0
  0
ARC
  5
298
100
AcDbEntity
  8
LAY-1
  6
CONTINUOUS
 62
     2
100
AcDbCircle
 10
219.234683
 20
371.938961
 30
0.0
 40
1.0
100
AcDbArc
 50
120.0
 51
180.0
  0
LINE
  5
299
100
AcDbEntity
  8
LAY-1
  6
CONTINUOUS
 62
     2
100
AcDbLine
 10
218.234683
 20
335.341018
 30
0.0
 11
218.234683
 21
371.938961
 31
0.0
  0
ARC
  5
29A
100
AcDbEntity
  8
LAY-1
  6
CONTINUOUS
 62
     2
100
AcDbCircle
 10
216.234683
 20
335.341018
 30
0.0
 40
2.0
100
AcDbArc
 50
287.025607
 51
0.0
  0
ARC
  5
29B
100
AcDbEntity
  8
LAY-1
  6
CONTINUOUS
 62
     2
100
AcDbCircle
 10
203.937122
 20
375.500325
 30
0.0
 40
44.0
100
AcDbArc
 50
252.974393
 51
287.025607
  0
LINE
  5
29C
100
AcDbEntity
  8
LAY-1
  6
CONTINUOUS
 62
     2
100
AcDbLine
 10
293.937122
 20
553.791283
 30
0.0
 11
114.087122
 21
553.791283
 31
0.0
  0
LINE
  5
29D
100
AcDbEntity
  8
LAY-1
  6
CONTINUOUS
 62
     2
100
AcDbLine
 10
113.937122
 20
555.184331
 30
0.0
 11
293.937122
 21
555.184331
 31
0.0
  0
LINE
  5
29E
100
AcDbEntity
  8
LAY-1
  6
CONTINUOUS
 62
     2
100
AcDbLine
 10
228.937122
 20
596.526546
 30
0.0
 11
228.937122
 21
596.883061
 31
0.0
  0
ARC
  5
29F
100
AcDbEntity
  8
LAY-1
  6
CONTINUOUS
 62
     2
100
AcDbCircle
 10
238.937122
 20
596.526546
 30
0.0
 40
10.0
100
AcDbArc
 50
180.0
 51
258.870811
  0
LINE
  5
2A0
100
AcDbEntity
  8
LAY-1
  6
CONTINUOUS
 62
     2
100
AcDbLine
 10
255.204703
 20
583.134707
 30
0.0
 11
237.006904
 21
586.714602
 31
0.0
  0
LINE
  5
2A1
100
AcDbEntity
  8
LAY-1
  6
CONTINUOUS
 62
     2
100
AcDbLine
 10
293.937122
 20
555.184331
 30
0.0
 11
293.937122
 21
565.718937
 31
0.0
  0
ARC
  5
2A2
100
AcDbEntity
  8
LAY-1
  6
CONTINUOUS
 62
     2
100
AcDbCircle
 10
291.937122
 20
565.718937
 30
0.0
 40
2.0
100
AcDbArc
 50
0.0
 51
89.0
  0
ARC
  5
2A3
100
AcDbEntity
  8
LAY-1
  6
CONTINUOUS
 62
     2
100
AcDbCircle
 10
175.181578
 20
412.096387
 30
0.0
 40
10.0
100
AcDbArc
 50
182.061123
 51
260.0
  0
ARC
  5
2A4
100
AcDbEntity
  8
LAY-1
  6
CONTINUOUS
 62
     2
100
AcDbCircle
 10
232.692666
 20
412.096387
 30
0.0
 40
10.0
100
AcDbArc
 50
280.0
 51
357.938877
  0
LINE
  5
2A5
100
AcDbEntity
  8
LAY-1
  6
CONTINUOUS
 62
     2
100
AcDbLine
 10
242.686197
 20
411.73673
 30
0.0
 11
246.884025
 21
528.379008
 31
0.0
  0
ARC
  5
2A6
100
AcDbEntity
  8
LAY-1
  6
CONTINUOUS
 62
     2
100
AcDbCircle
 10
254.878849
 20
528.091283
 30
0.0
 40
8.0
100
AcDbArc
 50
90.0
 51
177.938877
  0
ARC
  5
2A7
100
AcDbEntity
  8
LAY-1
  6
CONTINUOUS
 62
     2
100
AcDbCircle
 10
268.880779
 20
539.591283
 30
0.0
 40
2.0
100
AcDbArc
 50
90.0
 51
180.0
  0
LINE
  5
2A8
100
AcDbEntity
  8
LAY-1
  6
CONTINUOUS
 62
     2
100
AcDbLine
 10
266.880779
 20
539.091283
 30
0.0
 11
266.880779
 21
539.591283
 31
0.0
  0
ARC
  5
2A9
100
AcDbEntity
  8
LAY-1
  6
CONTINUOUS
 62
     2
100
AcDbCircle
 10
263.880779
 20
539.091283
 30
0.0
 40
3.0
100
AcDbArc
 50
270.0
 51
0.0
  0
ARC
  5
2AA
100
AcDbEntity
  8
LAY-1
  6
CONTINUOUS
 62
     2
100
AcDbCircle
 10
292.937122
 20
542.591283
 30
0.0
 40
1.0
100
AcDbArc
 50
270.0
 51
0.0
  0
LINE
  5
2AB
100
AcDbEntity
  8
LAY-1
  6
CONTINUOUS
 62
     2
100
AcDbLine
 10
293.937122
 20
553.791283
 30
0.0
 11
293.937122
 21
542.591283
 31
0.0
  0
LINE
  5
2AC
100
AcDbEntity
  8
LAY-1
  6
CONTINUOUS
 62
     2
100
AcDbLine
 10
279.437122
 20
554.091283
 30
0.0
 11
279.437122
 21
553.791283
 31
0.0
  0
LINE
  5
2AD
100
AcDbEntity
  8
LAY-1
  6
CONTINUOUS
 62
     2
100
AcDbLine
 10
279.437122
 20
554.091283
 30
0.0
 11
203.937122
 21
554.091283
 31
0.0
  0
LINE
  5
2AE
100
AcDbEntity
  8
LAY-1
  6
CONTINUOUS
 62
     2
100
AcDbLine
 10
128.437122
 20
554.091283
 30
0.0
 11
203.937122
 21
554.091283
 31
0.0
  0
LINE
  5
2AF
100
AcDbEntity
  8
LAY-1
  6
CONTINUOUS
 62
     2
100
AcDbLine
 10
128.437122
 20
554.091283
 30
0.0
 11
128.437122
 21
553.791283
 31
0.0
  0
LINE
  5
2B0
100
AcDbEntity
  8
LAY-1
  6
CONTINUOUS
 62
     2
100
AcDbLine
 10
115.937122
 20
567.684331
 30
0.0
 11
291.637122
 21
567.684331
 31
0.0
  0
LINE
  5
2B1
100
AcDbEntity
  8
LAY-1
  6
CONTINUOUS
 62
     2
100
AcDbLine
 10
178.937122
 20
596.526546
 30
0.0
 11
178.937122
 21
596.883061
 31
0.0
  0
LINE
  5
2B2
100
AcDbEntity
  8
LAY-1
  6
CONTINUOUS
 62
     2
100
AcDbLine
 10
113.937122
 20
555.184331
 30
0.0
 11
113.937122
 21
565.718937
 31
0.0
  0
ARC
  5
2B3
100
AcDbEntity
  8
LAY-1
  6
CONTINUOUS
 62
     2
100
AcDbCircle
 10
115.937122
 20
565.718937
 30
0.0
 40
2.0
100
AcDbArc
 50
91.0
 51
180.0
  0
ARC
  5
2B4
100
AcDbEntity
  8
LAY-1
  6
CONTINUOUS
 62
     2
100
AcDbCircle
 10
168.937122
 20
596.526546
 30
0.0
 40
10.0
100
AcDbArc
 50
281.129189
 51
0.0
  0
LINE
  5
2B5
100
AcDbEntity
  8
LAY-1
  6
CONTINUOUS
 62
     2
100
AcDbLine
 10
152.669541
 20
583.134707
 30
0.0
 11
170.867341
 21
586.714602
 31
0.0
  0
LINE
  5
2B6
100
AcDbEntity
  8
LAY-1
  6
CONTINUOUS
 62
     2
100
AcDbLine
 10
742.937122
 20
104.184331
 30
0.0
 11
742.937122
 21
180.184331
 31
0.0
  0
LINE
  5
2B7
100
AcDbEntity
  8
LAY-1
  6
CONTINUOUS
 62
     2
100
AcDbLine
 10
712.937122
 20
104.184331
 30
0.0
 11
712.937122
 21
180.184331
 31
0.0
  0
ARC
  5
2B8
100
AcDbEntity
  8
LAY-1
  6
CONTINUOUS
 62
     2
100
AcDbCircle
 10
740.937122
 20
104.184331
 30
0.0
 40
2.0
100
AcDbArc
 50
270.0
 51
0.0
  0
LINE
  5
2B9
100
AcDbEntity
  8
LAY-1
  6
CONTINUOUS
 62
     2
100
AcDbLine
 10
714.937122
 20
102.184331
 30
0.0
 11
740.937122
 21
102.184331
 31
0.0
  0
ARC
  5
2BA
100
AcDbEntity
  8
LAY-1
  6
CONTINUOUS
 62
     2
100
AcDbCircle
 10
714.937122
 20
104.184331
 30
0.0
 40
2.0
100
AcDbArc
 50
180.0
 51
270.0
  0
ARC
  5
2BB
100
AcDbEntity
  8
LAY-1
  6
CONTINUOUS
 62
     2
100
AcDbCircle
 10
740.937122
 20
180.184331
 30
0.0
 40
2.0
100
AcDbArc
 50
0.0
 51
90.0
  0
LINE
  5
2BC
100
AcDbEntity
  8
LAY-1
  6
CONTINUOUS
 62
     2
100
AcDbLine
 10
714.937122
 20
182.184331
 30
0.0
 11
740.937122
 21
182.184331
 31
0.0
  0
ARC
  5
2BD
100
AcDbEntity
  8
LAY-1
  6
CONTINUOUS
 62
     2
100
AcDbCircle
 10
714.937122
 20
180.184331
 30
0.0
 40
2.0
100
AcDbArc
 50
90.0
 51
180.0
  0
LINE
  5
2BE
100
AcDbEntity
  8
LAY-1
  6
CONTINUOUS
 62
     2
100
AcDbLine
 10
749.937122
 20
151.184331
 30
0.0
 11
749.937122
 21
137.184331
 31
0.0
  0
LINE
  5
2BF
100
AcDbEntity
  8
LAY-1
  6
CONTINUOUS
 62
     2
100
AcDbLine
 10
755.937122
 20
151.184331
 30
0.0
 11
755.937122
 21
137.184331
 31
0.0
  0
LINE
  5
2C0
100
AcDbEntity
  8
LAY-1
  6
CONTINUOUS
 62
     2
100
AcDbLine
 10
746.937122
 20
137.184331
 30
0.0
 11
752.937122
 21
131.184331
 31
0.0
  0
LINE
  5
2C1
100
AcDbEntity
  8
LAY-1
  6
CONTINUOUS
 62
     2
100
AcDbLine
 10
749.937122
 20
137.184331
 30
0.0
 11
746.937122
 21
137.184331
 31
0.0
  0
LINE
  5
2C2
100
AcDbEntity
  8
LAY-1
  6
CONTINUOUS
 62
     2
100
AcDbLine
 10
758.937122
 20
137.184331
 30
0.0
 11
752.937122
 21
131.184331
 31
0.0
  0
LINE
  5
2C3
100
AcDbEntity
  8
LAY-1
  6
CONTINUOUS
 62
     2
100
AcDbLine
 10
758.937122
 20
137.184331
 30
0.0
 11
755.937122
 21
137.184331
 31
0.0
  0
LINE
  5
2C4
100
AcDbEntity
  8
LAY-1
  6
CONTINUOUS
 62
     2
100
AcDbLine
 10
755.937122
 20
151.184331
 30
0.0
 11
749.937122
 21
151.184331
 31
0.0
  0
ARC
  5
2C5
100
AcDbEntity
  8
LAY-1
  6
CONTINUOUS
 62
     2
100
AcDbCircle
 10
740.937122
 20
120.184331
 30
0.0
 40
2.0
100
AcDbArc
 50
0.0
 51
90.0
  0
LINE
  5
2C6
100
AcDbEntity
  8
LAY-1
  6
CONTINUOUS
 62
     2
100
AcDbLine
 10
714.937122
 20
122.184331
 30
0.0
 11
740.937122
 21
122.184331
 31
0.0
  0
ARC
  5
2C7
100
AcDbEntity
  8
LAY-1
  6
CONTINUOUS
 62
     2
100
AcDbCircle
 10
714.937122
 20
120.184331
 30
0.0
 40
2.0
100
AcDbArc
 50
90.0
 51
180.0
  0
ARC
  5
2C8
100
AcDbEntity
  8
LAY-1
  6
CONTINUOUS
 62
     2
100
AcDbCircle
 10
740.937122
 20
164.184331
 30
0.0
 40
2.0
100
AcDbArc
 50
270.0
 51
0.0
  0
LINE
  5
2C9
100
AcDbEntity
  8
LAY-1
  6
CONTINUOUS
 62
     2
100
AcDbLine
 10
714.937122
 20
162.184331
 30
0.0
 11
740.937122
 21
162.184331
 31
0.0
  0
ARC
  5
2CA
100
AcDbEntity
  8
LAY-1
  6
CONTINUOUS
 62
     2
100
AcDbCircle
 10
714.937122
 20
164.184331
 30
0.0
 40
2.0
100
AcDbArc
 50
180.0
 51
270.0
  0
LINE
  5
2CB
100
AcDbEntity
  8
LAY-1
  6
CONTINUOUS
 62
     2
100
AcDbLine
 10
729.437122
 20
187.704016
 30
0.0
 11
736.437122
 21
187.704016
 31
0.0
  0
LINE
  5
2CC
100
AcDbEntity
  8
LAY-1
  6
CONTINUOUS
 62
     2
100
AcDbLine
 10
736.437122
 20
187.704016
 30
0.0
 11
736.437122
 21
226.027236
 31
0.0
  0
LINE
  5
2CD
100
AcDbEntity
  8
LAY-1
  6
CONTINUOUS
 62
     2
100
AcDbLine
 10
729.437122
 20
187.704016
 30
0.0
 11
729.437122
 21
226.027236
 31
0.0
  0
LINE
  5
2CE
100
AcDbEntity
  8
LAY-1
  6
CONTINUOUS
 62
     2
100
AcDbLine
 10
729.437122
 20
94.664647
 30
0.0
 11
736.437122
 21
94.664647
 31
0.0
  0
LINE
  5
2CF
100
AcDbEntity
  8
LAY-1
  6
CONTINUOUS
 62
     2
100
AcDbLine
 10
736.437122
 20
94.664647
 30
0.0
 11
736.437122
 21
56.341427
 31
0.0
  0
LINE
  5
2D0
100
AcDbEntity
  8
LAY-1
  6
CONTINUOUS
 62
     2
100
AcDbLine
 10
729.437122
 20
94.664647
 30
0.0
 11
729.437122
 21
56.341427
 31
0.0
  0
LINE
  5
2D1
100
AcDbEntity
  8
LAY-1
  6
CONTINUOUS
 62
     2
100
AcDbLine
 10
494.253116
 20
168.434331
 30
0.0
 11
494.995997
 21
172.647416
 31
0.0
  0
LINE
  5
2D2
100
AcDbEntity
  8
LAY-1
  6
CONTINUOUS
 62
     2
100
AcDbLine
 10
494.253116
 20
115.934331
 30
0.0
 11
494.995997
 21
111.721247
 31
0.0
  0
ARC
  5
2D3
100
AcDbEntity
  8
LAY-1
  6
CONTINUOUS
 62
     2
100
AcDbCircle
 10
504.844074
 20
170.910934
 30
0.0
 40
10.0
100
AcDbArc
 50
93.953009
 51
170.0
  0
ARC
  5
2D4
100
AcDbEntity
  8
LAY-1
  6
CONTINUOUS
 62
     2
100
AcDbCircle
 10
504.844074
 20
113.457729
 30
0.0
 40
10.0
100
AcDbArc
 50
190.0
 51
266.046991
  0
LINE
  5
2D5
100
AcDbEntity
  8
LAY-1
  6
CONTINUOUS
 62
     2
100
AcDbLine
 10
504.154691
 20
180.887143
 30
0.0
 11
621.073535
 21
184.24206
 31
0.0
  0
LINE
  5
2D6
100
AcDbEntity
  8
LAY-1
  6
CONTINUOUS
 62
     2
100
AcDbLine
 10
634.344074
 20
231.184331
 30
0.0
 11
634.344074
 21
53.184331
 31
0.0
  0
LINE
  5
2D7
100
AcDbEntity
  8
LAY-1
  6
CONTINUOUS
 62
     2
100
AcDbLine
 10
660.344074
 20
230.05064
 30
0.0
 11
660.344074
 21
54.35064
 31
0.0
  0
LINE
  5
2D8
100
AcDbEntity
  8
LAY-1
  6
CONTINUOUS
 62
     2
100
AcDbLine
 10
647.844074
 20
52.35064
 30
0.0
 11
647.844074
 21
192.20064
 31
0.0
  0
LINE
  5
2D9
100
AcDbEntity
  8
LAY-1
  6
CONTINUOUS
 62
     2
100
AcDbLine
 10
774.937122
 20
168.684331
 30
0.0
 11
774.937122
 21
115.684331
 31
0.0
  0
LINE
  5
2DA
100
AcDbEntity
  8
LAY-1
  6
CONTINUOUS
 62
     2
100
AcDbLine
 10
768.937122
 20
115.184331
 30
0.0
 11
768.937122
 21
169.184331
 31
0.0
  0
LINE
  5
2DB
100
AcDbEntity
  8
LAY-1
  6
CONTINUOUS
 62
     2
100
AcDbLine
 10
782.937122
 20
56.184331
 30
0.0
 11
682.937122
 21
56.184331
 31
0.0
  0
LINE
  5
2DC
100
AcDbEntity
  8
LAY-1
  6
CONTINUOUS
 62
     2
100
AcDbLine
 10
782.937122
 20
226.184331
 30
0.0
 11
682.937122
 21
226.184331
 31
0.0
  0
LINE
  5
2DD
100
AcDbEntity
  8
LAY-1
  6
CONTINUOUS
 62
     2
100
AcDbLine
 10
782.937122
 20
241.184331
 30
0.0
 11
682.937122
 21
241.184331
 31
0.0
  0
LINE
  5
2DE
100
AcDbEntity
  8
LAY-1
  6
CONTINUOUS
 62
     2
100
AcDbLine
 10
732.937122
 20
42.184331
 30
0.0
 11
782.937122
 21
42.184331
 31
0.0
  0
LINE
  5
2DF
100
AcDbEntity
  8
LAY-1
  6
CONTINUOUS
 62
     2
100
AcDbLine
 10
732.937122
 20
42.184331
 30
0.0
 11
682.937122
 21
42.184331
 31
0.0
  0
LINE
  5
2E0
100
AcDbEntity
  8
LAY-1
  6
CONTINUOUS
 62
     2
100
AcDbLine
 10
682.937122
 20
56.184331
 30
0.0
 11
682.937122
 21
42.184331
 31
0.0
  0
LINE
  5
2E1
100
AcDbEntity
  8
LAY-1
  6
CONTINUOUS
 62
     2
100
AcDbLine
 10
782.937122
 20
56.184331
 30
0.0
 11
782.937122
 21
42.184331
 31
0.0
  0
LINE
  5
2E2
100
AcDbEntity
  8
LAY-1
  6
CONTINUOUS
 62
     2
100
AcDbLine
 10
753.437122
 20
91.620016
 30
0.0
 11
753.437122
 21
61.184331
 31
0.0
  0
ARC
  5
2E3
100
AcDbEntity
  8
LAY-1
  6
CONTINUOUS
 62
     2
100
AcDbCircle
 10
758.437122
 20
61.184331
 30
0.0
 40
5.0
100
AcDbArc
 50
180.0
 51
270.0
  0
ARC
  5
2E4
100
AcDbEntity
  8
LAY-1
  6
CONTINUOUS
 62
     2
100
AcDbCircle
 10
707.437122
 20
61.184331
 30
0.0
 40
5.0
100
AcDbArc
 50
270.0
 51
0.0
  0
LINE
  5
2E5
100
AcDbEntity
  8
LAY-1
  6
CONTINUOUS
 62
     2
100
AcDbLine
 10
712.437122
 20
89.584427
 30
0.0
 11
712.437122
 21
61.184331
 31
0.0
  0
LINE
  5
2E6
100
AcDbEntity
  8
LAY-1
  6
CONTINUOUS
 62
     2
100
AcDbLine
 10
675.79445
 20
90.91675
 30
0.0
 11
676.423525
 21
94.11455
 31
0.0
  0
ARC
  5
2E7
100
AcDbEntity
  8
LAY-1
  6
CONTINUOUS
 62
     2
100
AcDbCircle
 10
686.235469
 20
92.184331
 30
0.0
 40
10.0
100
AcDbArc
 50
90.0
 51
168.870811
  0
ARC
  5
2E8
100
AcDbEntity
  8
LAY-1
  6
CONTINUOUS
 62
     2
100
AcDbCircle
 10
686.235469
 20
192.184331
 30
0.0
 40
10.0
100
AcDbArc
 50
191.129189
 51
270.0
  0
LINE
  5
2E9
100
AcDbEntity
  8
LAY-1
  6
CONTINUOUS
 62
     2
100
AcDbLine
 10
675.79445
 20
193.451913
 30
0.0
 11
676.423525
 21
190.254113
 31
0.0
  0
ARC
  5
2EA
100
AcDbEntity
  8
LAY-1
  6
CONTINUOUS
 62
     2
100
AcDbCircle
 10
705.437122
 20
201.486524
 30
0.0
 40
10.0
100
AcDbArc
 50
334.350627
 51
0.0
  0
LINE
  5
2EB
100
AcDbEntity
  8
LAY-1
  6
CONTINUOUS
 62
     2
100
AcDbLine
 10
715.437122
 20
216.184331
 30
0.0
 11
715.437122
 21
201.486524
 31
0.0
  0
ARC
  5
2EC
100
AcDbEntity
  8
LAY-1
  6
CONTINUOUS
 62
     2
100
AcDbCircle
 10
828.937122
 20
142.184331
 30
0.0
 40
127.0
100
AcDbArc
 50
154.350627
 51
158.450885
  0
ARC
  5
2ED
100
AcDbEntity
  8
LAY-1
  6
CONTINUOUS
 62
     2
100
AcDbCircle
 10
701.387132
 20
192.184331
 30
0.0
 40
10.0
100
AcDbArc
 50
270.0
 51
338.594663
  0
LINE
  5
2EE
100
AcDbEntity
  8
LAY-1
  6
CONTINUOUS
 62
     2
100
AcDbLine
 10
685.090387
 20
182.184331
 30
0.0
 11
701.387132
 21
182.184331
 31
0.0
  0
ARC
  5
2EF
100
AcDbEntity
  8
LAY-1
  6
CONTINUOUS
 62
     2
100
AcDbCircle
 10
658.344074
 20
230.05064
 30
0.0
 40
2.0
100
AcDbArc
 50
0.0
 51
90.0
  0
LINE
  5
2F0
100
AcDbEntity
  8
LAY-1
  6
CONTINUOUS
 62
     2
100
AcDbLine
 10
646.844074
 20
232.05064
 30
0.0
 11
658.344074
 21
232.05064
 31
0.0
  0
ARC
  5
2F1
100
AcDbEntity
  8
LAY-1
  6
CONTINUOUS
 62
     2
100
AcDbCircle
 10
702.437122
 20
89.584427
 30
0.0
 40
10.0
100
AcDbArc
 50
0.0
 51
22.578007
  0
ARC
  5
2F2
100
AcDbEntity
  8
LAY-1
  6
CONTINUOUS
 62
     2
100
AcDbCircle
 10
828.937122
 20
142.184331
 30
0.0
 40
127.0
100
AcDbArc
 50
201.549115
 51
202.578007
  0
ARC
  5
2F3
100
AcDbEntity
  8
LAY-1
  6
CONTINUOUS
 62
     2
100
AcDbCircle
 10
701.387132
 20
92.184331
 30
0.0
 40
10.0
100
AcDbArc
 50
21.405337
 51
90.0
  0
LINE
  5
2F4
100
AcDbEntity
  8
LAY-1
  6
CONTINUOUS
 62
     2
100
AcDbLine
 10
685.090387
 20
102.184331
 30
0.0
 11
701.387132
 21
102.184331
 31
0.0
  0
ARC
  5
2F5
100
AcDbEntity
  8
LAY-1
  6
CONTINUOUS
 62
     2
100
AcDbCircle
 10
658.344074
 20
54.35064
 30
0.0
 40
2.0
100
AcDbArc
 50
270.0
 51
0.0
  0
LINE
  5
2F6
100
AcDbEntity
  8
LAY-1
  6
CONTINUOUS
 62
     2
100
AcDbLine
 10
646.844074
 20
52.35064
 30
0.0
 11
658.344074
 21
52.35064
 31
0.0
  0
ARC
  5
2F7
100
AcDbEntity
  8
LAY-1
  6
CONTINUOUS
 62
     2
100
AcDbCircle
 10
635.344074
 20
53.184331
 30
0.0
 40
1.0
100
AcDbArc
 50
180.0
 51
270.0
  0
ARC
  5
2F8
100
AcDbEntity
  8
LAY-1
  6
CONTINUOUS
 62
     2
100
AcDbCircle
 10
620.844074
 20
192.238768
 30
0.0
 40
8.0
100
AcDbArc
 50
271.643617
 51
0.0
  0
ARC
  5
2F9
100
AcDbEntity
  8
LAY-1
  6
CONTINUOUS
 62
     2
100
AcDbCircle
 10
635.844074
 20
197.911388
 30
0.0
 40
7.0
100
AcDbArc
 50
119.994032
 51
180.0
  0
LINE
  5
2FA
100
AcDbEntity
  8
LAY-1
  6
CONTINUOUS
 62
     2
100
AcDbLine
 10
632.344706
 20
203.97393
 30
0.0
 11
633.343894
 21
204.550673
 31
0.0
  0
ARC
  5
2FB
100
AcDbEntity
  8
LAY-1
  6
CONTINUOUS
 62
     2
100
AcDbCircle
 10
632.344074
 20
206.282828
 30
0.0
 40
2.0
100
AcDbArc
 50
299.994032
 51
0.0
  0
LINE
  5
2FC
100
AcDbEntity
  8
LAY-1
  6
CONTINUOUS
 62
     2
100
AcDbLine
 10
631.126329
 20
57.459915
 30
0.0
 11
633.378974
 21
57.381251
 31
0.0
  0
LINE
  5
2FD
100
AcDbEntity
  8
LAY-1
  6
CONTINUOUS
 62
     2
100
AcDbLine
 10
624.520778
 20
96.920634
 30
0.0
 11
624.798416
 21
96.930329
 31
0.0
  0
ARC
  5
2FE
100
AcDbEntity
  8
LAY-1
  6
CONTINUOUS
 62
     2
100
AcDbCircle
 10
624.763516
 20
97.92972
 30
0.0
 40
1.0
100
AcDbArc
 50
272.0
 51
55.949717
  0
ARC
  5
2FF
100
AcDbEntity
  8
LAY-1
  6
CONTINUOUS
 62
     2
100
AcDbCircle
 10
624.555678
 20
95.921243
 30
0.0
 40
1.0
100
AcDbArc
 50
92.0
 51
190.0
  0
ARC
  5
300
100
AcDbEntity
  8
LAY-1
  6
CONTINUOUS
 62
     2
100
AcDbCircle
 10
631.161228
 20
58.459306
 30
0.0
 40
1.0
100
AcDbArc
 50
190.0
 51
268.0
  0
ARC
  5
301
100
AcDbEntity
  8
LAY-1
  6
CONTINUOUS
 62
     2
100
AcDbCircle
 10
633.344074
 20
56.38186
 30
0.0
 40
1.0
100
AcDbArc
 50
0.0
 51
88.0
  0
LINE
  5
302
100
AcDbEntity
  8
LAY-1
  6
CONTINUOUS
 62
     2
100
AcDbLine
 10
647.844074
 20
192.20064
 30
0.0
 11
647.844074
 21
232.05064
 31
0.0
  0
ARC
  5
303
100
AcDbEntity
  8
LAY-1
  6
CONTINUOUS
 62
     2
100
AcDbCircle
 10
481.136423
 20
160.760293
 30
0.0
 40
3.3
100
AcDbArc
 50
92.0
 51
150.0
  0
ARC
  5
304
100
AcDbEntity
  8
LAY-1
  6
CONTINUOUS
 62
     2
100
AcDbCircle
 10
494.108292
 20
166.434331
 30
0.0
 40
2.0
100
AcDbArc
 50
90.0
 51
170.134193
  0
LINE
  5
305
100
AcDbEntity
  8
LAY-1
  6
CONTINUOUS
 62
     2
100
AcDbLine
 10
494.108292
 20
168.434331
 30
0.0
 11
494.253116
 21
168.434331
 31
0.0
  0
LINE
  5
306
100
AcDbEntity
  8
LAY-1
  6
CONTINUOUS
 62
     2
100
AcDbLine
 10
490.513237
 20
164.38975
 30
0.0
 11
481.021254
 21
164.058283
 31
0.0
  0
LINE
  5
307
100
AcDbEntity
  8
LAY-1
  6
CONTINUOUS
 62
     2
100
AcDbLine
 10
492.137869
 20
166.777014
 30
0.0
 11
491.938705
 21
165.631824
 31
0.0
  0
ARC
  5
308
100
AcDbEntity
  8
LAY-1
  6
CONTINUOUS
 62
     2
100
AcDbCircle
 10
490.460888
 20
165.888836
 30
0.0
 40
1.5
100
AcDbArc
 50
272.0
 51
350.134193
  0
LINE
  5
309
100
AcDbEntity
  8
LAY-1
  6
CONTINUOUS
 62
     2
100
AcDbLine
 10
478.278539
 20
162.410293
 30
0.0
 11
476.589234
 21
159.484331
 31
0.0
  0
ARC
  5
30A
100
AcDbEntity
  8
LAY-1
  6
CONTINUOUS
 62
     2
100
AcDbCircle
 10
475.723209
 20
159.984331
 30
0.0
 40
1.0
100
AcDbArc
 50
270.0
 51
330.0
  0
LINE
  5
30B
100
AcDbEntity
  8
LAY-1
  6
CONTINUOUS
 62
     2
100
AcDbLine
 10
475.723209
 20
158.984331
 30
0.0
 11
467.868586
 21
158.984331
 31
0.0
  0
ARC
  5
30C
100
AcDbEntity
  8
LAY-1
  6
CONTINUOUS
 62
     2
100
AcDbCircle
 10
467.868586
 20
156.984331
 30
0.0
 40
2.0
100
AcDbArc
 50
90.0
 51
150.0
  0
LINE
  5
30D
100
AcDbEntity
  8
LAY-1
  6
CONTINUOUS
 62
     2
100
AcDbLine
 10
466.136535
 20
157.984331
 30
0.0
 11
465.557777
 21
156.981892
 31
0.0
  0
ARC
  5
30E
100
AcDbEntity
  8
LAY-1
  6
CONTINUOUS
 62
     2
100
AcDbCircle
 10
464.691751
 20
157.481892
 30
0.0
 40
1.0
100
AcDbArc
 50
270.0
 51
330.0
  0
ARC
  5
30F
100
AcDbEntity
  8
LAY-1
  6
CONTINUOUS
 62
     2
100
AcDbCircle
 10
494.108292
 20
117.934331
 30
0.0
 40
2.0
100
AcDbArc
 50
189.865807
 51
270.0
  0
LINE
  5
310
100
AcDbEntity
  8
LAY-1
  6
CONTINUOUS
 62
     2
100
AcDbLine
 10
494.108292
 20
115.934331
 30
0.0
 11
494.253116
 21
115.934331
 31
0.0
  0
LINE
  5
311
100
AcDbEntity
  8
LAY-1
  6
CONTINUOUS
 62
     2
100
AcDbLine
 10
492.137869
 20
117.591649
 30
0.0
 11
491.938705
 21
118.736838
 31
0.0
  0
ARC
  5
312
100
AcDbEntity
  8
LAY-1
  6
CONTINUOUS
 62
     2
100
AcDbCircle
 10
490.460888
 20
118.479827
 30
0.0
 40
1.5
100
AcDbArc
 50
9.865807
 51
88.0
  0
ARC
  5
313
100
AcDbEntity
  8
LAY-1
  6
CONTINUOUS
 62
     2
100
AcDbCircle
 10
475.723209
 20
124.384331
 30
0.0
 40
1.0
100
AcDbArc
 50
30.0
 51
90.0
  0
LINE
  5
314
100
AcDbEntity
  8
LAY-1
  6
CONTINUOUS
 62
     2
100
AcDbLine
 10
475.723209
 20
125.384331
 30
0.0
 11
467.868586
 21
125.384331
 31
0.0
  0
ARC
  5
315
100
AcDbEntity
  8
LAY-1
  6
CONTINUOUS
 62
     2
100
AcDbCircle
 10
467.868586
 20
127.384331
 30
0.0
 40
2.0
100
AcDbArc
 50
210.0
 51
270.0
  0
LINE
  5
316
100
AcDbEntity
  8
LAY-1
  6
CONTINUOUS
 62
     2
100
AcDbLine
 10
466.136535
 20
126.384331
 30
0.0
 11
465.557777
 21
127.386771
 31
0.0
  0
ARC
  5
317
100
AcDbEntity
  8
LAY-1
  6
CONTINUOUS
 62
     2
100
AcDbCircle
 10
464.691751
 20
126.886771
 30
0.0
 40
1.0
100
AcDbArc
 50
30.0
 51
90.0
  0
LINE
  5
318
100
AcDbEntity
  8
LAY-1
  6
CONTINUOUS
 62
     2
100
AcDbLine
 10
478.223108
 20
122.054379
 30
0.0
 11
476.589234
 21
124.884331
 31
0.0
  0
LINE
  5
319
100
AcDbEntity
  8
LAY-1
  6
CONTINUOUS
 62
     2
100
AcDbLine
 10
490.513237
 20
119.978913
 30
0.0
 11
481.132048
 21
120.306511
 31
0.0
  0
ARC
  5
31A
100
AcDbEntity
  8
LAY-1
  6
CONTINUOUS
 62
     2
100
AcDbCircle
 10
481.254197
 20
123.804379
 30
0.0
 40
3.5
100
AcDbArc
 50
210.0
 51
268.0
  0
LINE
  5
31B
100
AcDbEntity
  8
LAY-1
  6
CONTINUOUS
 62
     2
100
AcDbLine
 10
428.093808
 20
127.886771
 30
0.0
 11
464.691751
 21
127.886771
 31
0.0
  0
ARC
  5
31C
100
AcDbEntity
  8
LAY-1
  6
CONTINUOUS
 62
     2
100
AcDbCircle
 10
428.093808
 20
129.886771
 30
0.0
 40
2.0
100
AcDbArc
 50
197.025607
 51
270.0
  0
ARC
  5
31D
100
AcDbEntity
  8
LAY-1
  6
CONTINUOUS
 62
     2
100
AcDbCircle
 10
468.253116
 20
142.184331
 30
0.0
 40
44.0
100
AcDbArc
 50
162.974393
 51
197.025607
  0
LINE
  5
31E
100
AcDbEntity
  8
LAY-1
  6
CONTINUOUS
 62
     2
100
AcDbLine
 10
428.093808
 20
156.481892
 30
0.0
 11
464.691751
 21
156.481892
 31
0.0
  0
ARC
  5
31F
100
AcDbEntity
  8
LAY-1
  6
CONTINUOUS
 62
     2
100
AcDbCircle
 10
428.093808
 20
154.481892
 30
0.0
 40
2.0
100
AcDbArc
 50
90.0
 51
162.974393
  0
LINE
  5
320
100
AcDbEntity
  8
LAY-1
  6
CONTINUOUS
 62
     2
100
AcDbLine
 10
768.937122
 20
169.184331
 30
0.0
 11
767.937122
 21
170.184331
 31
0.0
  0
LINE
  5
321
100
AcDbEntity
  8
LAY-1
  6
CONTINUOUS
 62
     2
100
AcDbLine
 10
767.937122
 20
170.184331
 30
0.0
 11
764.745573
 21
170.184331
 31
0.0
  0
ARC
  5
322
100
AcDbEntity
  8
LAY-1
  6
CONTINUOUS
 62
     2
100
AcDbCircle
 10
764.745573
 20
175.184331
 30
0.0
 40
5.0
100
AcDbArc
 50
194.477512
 51
270.0
  0
ARC
  5
323
100
AcDbEntity
  8
LAY-1
  6
CONTINUOUS
 62
     2
100
AcDbCircle
 10
636.937122
 20
142.184331
 30
0.0
 40
127.0
100
AcDbArc
 50
14.477512
 51
26.809531
  0
LINE
  5
324
100
AcDbEntity
  8
LAY-1
  6
CONTINUOUS
 62
     2
100
AcDbLine
 10
764.745573
 20
114.184331
 30
0.0
 11
767.937122
 21
114.184331
 31
0.0
  0
LINE
  5
325
100
AcDbEntity
  8
LAY-1
  6
CONTINUOUS
 62
     2
100
AcDbLine
 10
767.937122
 20
114.184331
 30
0.0
 11
768.937122
 21
115.184331
 31
0.0
  0
ARC
  5
326
100
AcDbEntity
  8
LAY-1
  6
CONTINUOUS
 62
     2
100
AcDbCircle
 10
764.745573
 20
109.184331
 30
0.0
 40
5.0
100
AcDbArc
 50
90.0
 51
165.522488
  0
ARC
  5
327
100
AcDbEntity
  8
LAY-1
  6
CONTINUOUS
 62
     2
100
AcDbCircle
 10
636.937122
 20
142.184331
 30
0.0
 40
127.0
100
AcDbArc
 50
336.537784
 51
345.522488
  0
ARC
  5
328
100
AcDbEntity
  8
LAY-1
  6
CONTINUOUS
 62
     2
100
AcDbCircle
 10
764.36124
 20
91.864414
 30
0.0
 40
10.0
100
AcDbArc
 50
158.450885
 51
195.0
  0
ARC
  5
329
100
AcDbEntity
  8
LAY-1
  6
CONTINUOUS
 62
     2
100
AcDbCircle
 10
771.242198
 20
66.184331
 30
0.0
 40
10.0
100
AcDbArc
 50
195.0
 51
270.0
  0
LINE
  5
32A
100
AcDbEntity
  8
LAY-1
  6
CONTINUOUS
 62
     2
100
AcDbLine
 10
754.701982
 20
89.276223
 30
0.0
 11
761.582939
 21
63.596141
 31
0.0
  0
ARC
  5
32B
100
AcDbEntity
  8
LAY-1
  6
CONTINUOUS
 62
     2
100
AcDbCircle
 10
694.632047
 20
66.184331
 30
0.0
 40
10.0
100
AcDbArc
 50
270.0
 51
345.0
  0
LINE
  5
32C
100
AcDbEntity
  8
LAY-1
  6
CONTINUOUS
 62
     2
100
AcDbLine
 10
711.172262
 20
89.276223
 30
0.0
 11
704.291305
 21
63.596141
 31
0.0
  0
ARC
  5
32D
100
AcDbEntity
  8
LAY-1
  6
CONTINUOUS
 62
     2
100
AcDbCircle
 10
701.513004
 20
91.864414
 30
0.0
 40
10.0
100
AcDbArc
 50
345.0
 51
21.549115
  0
ARC
  5
32E
100
AcDbEntity
  8
LAY-1
  6
CONTINUOUS
 62
     2
100
AcDbCircle
 10
701.513004
 20
192.504249
 30
0.0
 40
10.0
100
AcDbArc
 50
338.450885
 51
15.0
  0
LINE
  5
32F
100
AcDbEntity
  8
LAY-1
  6
CONTINUOUS
 62
     2
100
AcDbLine
 10
711.172262
 20
195.09244
 30
0.0
 11
704.827203
 21
218.772522
 31
0.0
  0
ARC
  5
330
100
AcDbEntity
  8
LAY-1
  6
CONTINUOUS
 62
     2
100
AcDbCircle
 10
764.36124
 20
192.504249
 30
0.0
 40
10.0
100
AcDbArc
 50
165.0
 51
201.549115
  0
LINE
  5
331
100
AcDbEntity
  8
LAY-1
  6
CONTINUOUS
 62
     2
100
AcDbLine
 10
754.701982
 20
195.09244
 30
0.0
 11
761.047041
 21
218.772522
 31
0.0
  0
ARC
  5
332
100
AcDbEntity
  8
LAY-1
  6
CONTINUOUS
 62
     2
100
AcDbCircle
 10
770.706299
 20
216.184331
 30
0.0
 40
10.0
100
AcDbArc
 50
90.0
 51
165.0
  0
ARC
  5
333
100
AcDbEntity
  8
LAY-1
  6
CONTINUOUS
 62
     2
100
AcDbCircle
 10
695.167945
 20
216.184331
 30
0.0
 40
10.0
100
AcDbArc
 50
15.0
 51
90.0
  0
LINE
  5
334
100
AcDbEntity
  8
LAY-1
  6
CONTINUOUS
 62
     2
100
AcDbLine
 10
750.437122
 20
216.184331
 30
0.0
 11
750.437122
 21
199.164591
 31
0.0
  0
ARC
  5
335
100
AcDbEntity
  8
LAY-1
  6
CONTINUOUS
 62
     2
100
AcDbCircle
 10
705.437122
 20
216.184331
 30
0.0
 40
10.0
100
AcDbArc
 50
0.0
 51
90.0
  0
ARC
  5
336
100
AcDbEntity
  8
LAY-1
  6
CONTINUOUS
 62
     2
100
AcDbCircle
 10
760.437122
 20
216.184331
 30
0.0
 40
10.0
100
AcDbArc
 50
90.0
 51
180.0
  0
ARC
  5
337
100
AcDbEntity
  8
LAY-1
  6
CONTINUOUS
 62
     2
100
AcDbCircle
 10
761.937122
 20
242.184331
 30
0.0
 40
1.0
100
AcDbArc
 50
180.0
 51
270.0
  0
ARC
  5
338
100
AcDbEntity
  8
LAY-1
  6
CONTINUOUS
 62
     2
100
AcDbCircle
 10
703.937122
 20
242.184331
 30
0.0
 40
1.0
100
AcDbArc
 50
270.0
 51
0.0
  0
LINE
  5
339
100
AcDbEntity
  8
LAY-1
  6
CONTINUOUS
 62
     2
100
AcDbLine
 10
704.937122
 20
242.184331
 30
0.0
 11
760.937122
 21
242.184331
 31
0.0
  0
LINE
  5
33A
100
AcDbEntity
  8
LAY-1
  6
CONTINUOUS
 62
     2
100
AcDbLine
 10
682.937122
 20
241.184331
 30
0.0
 11
682.937122
 21
226.229285
 31
0.0
  0
LINE
  5
33B
100
AcDbEntity
  8
LAY-1
  6
CONTINUOUS
 62
     2
100
AcDbLine
 10
782.937122
 20
241.184331
 30
0.0
 11
782.937122
 21
226.158388
 31
0.0
  0
LINE
  5
33C
100
AcDbEntity
  8
LAY-1
  6
CONTINUOUS
 62
     2
100
AcDbLine
 10
774.937122
 20
162.984331
 30
0.0
 11
783.337122
 21
162.984331
 31
0.0
  0
LINE
  5
33D
100
AcDbEntity
  8
LAY-1
  6
CONTINUOUS
 62
     2
100
AcDbLine
 10
768.937122
 20
168.684331
 30
0.0
 11
774.937122
 21
168.684331
 31
0.0
  0
LINE
  5
33E
100
AcDbEntity
  8
LAY-1
  6
CONTINUOUS
 62
     2
100
AcDbLine
 10
784.937122
 20
160.184331
 30
0.0
 11
784.937122
 21
124.184331
 31
0.0
  0
LINE
  5
33F
100
AcDbEntity
  8
LAY-1
  6
CONTINUOUS
 62
     2
100
AcDbLine
 10
784.937122
 20
160.184331
 30
0.0
 11
783.337122
 21
162.984331
 31
0.0
  0
LINE
  5
340
100
AcDbEntity
  8
LAY-1
  6
CONTINUOUS
 62
     2
100
AcDbLine
 10
783.337122
 20
121.384331
 30
0.0
 11
784.937122
 21
124.184331
 31
0.0
  0
LINE
  5
341
100
AcDbEntity
  8
LAY-1
  6
CONTINUOUS
 62
     2
100
AcDbLine
 10
783.337122
 20
121.384331
 30
0.0
 11
774.937122
 21
121.384331
 31
0.0
  0
LINE
  5
342
100
AcDbEntity
  8
LAY-1
  6
CONTINUOUS
 62
     2
100
AcDbLine
 10
774.937122
 20
115.684331
 30
0.0
 11
768.937122
 21
115.684331
 31
0.0
  0
LINE
  5
343
100
AcDbEntity
  8
LAY-1
  6
CONTINUOUS
 62
     2
100
AcDbLine
 10
-321.562878
 20
187.704016
 30
0.0
 11
-328.562878
 21
187.704016
 31
0.0
  0
LINE
  5
344
100
AcDbEntity
  8
LAY-1
  6
CONTINUOUS
 62
     2
100
AcDbLine
 10
-328.562878
 20
187.704016
 30
0.0
 11
-328.562878
 21
226.027236
 31
0.0
  0
LINE
  5
345
100
AcDbEntity
  8
LAY-1
  6
CONTINUOUS
 62
     2
100
AcDbLine
 10
-321.562878
 20
187.704016
 30
0.0
 11
-321.562878
 21
226.027236
 31
0.0
  0
LINE
  5
346
100
AcDbEntity
  8
LAY-1
  6
CONTINUOUS
 62
     2
100
AcDbLine
 10
-321.562878
 20
94.664647
 30
0.0
 11
-328.562878
 21
94.664647
 31
0.0
  0
LINE
  5
347
100
AcDbEntity
  8
LAY-1
  6
CONTINUOUS
 62
     2
100
AcDbLine
 10
-328.562878
 20
94.664647
 30
0.0
 11
-328.562878
 21
56.341427
 31
0.0
  0
LINE
  5
348
100
AcDbEntity
  8
LAY-1
  6
CONTINUOUS
 62
     2
100
AcDbLine
 10
-321.562878
 20
94.664647
 30
0.0
 11
-321.562878
 21
56.341427
 31
0.0
  0
ARC
  5
349
100
AcDbEntity
  8
LAY-1
  6
CONTINUOUS
 62
     2
100
AcDbCircle
 10
-313.062878
 20
180.184331
 30
0.0
 40
2.0
100
AcDbArc
 50
0.0
 51
90.0
  0
ARC
  5
34A
100
AcDbEntity
  8
LAY-1
  6
CONTINUOUS
 62
     2
100
AcDbCircle
 10
-339.062878
 20
180.184331
 30
0.0
 40
2.0
100
AcDbArc
 50
90.0
 51
180.0
  0
LINE
  5
34B
100
AcDbEntity
  8
LAY-1
  6
CONTINUOUS
 62
     2
100
AcDbLine
 10
-313.062878
 20
182.184331
 30
0.0
 11
-339.062878
 21
182.184331
 31
0.0
  0
ARC
  5
34C
100
AcDbEntity
  8
LAY-1
  6
CONTINUOUS
 62
     2
100
AcDbCircle
 10
-339.062878
 20
164.184331
 30
0.0
 40
2.0
100
AcDbArc
 50
180.0
 51
270.0
  0
ARC
  5
34D
100
AcDbEntity
  8
LAY-1
  6
CONTINUOUS
 62
     2
100
AcDbCircle
 10
-339.062878
 20
120.184331
 30
0.0
 40
2.0
100
AcDbArc
 50
90.0
 51
180.0
  0
ARC
  5
34E
100
AcDbEntity
  8
LAY-1
  6
CONTINUOUS
 62
     2
100
AcDbCircle
 10
-313.062878
 20
120.184331
 30
0.0
 40
2.0
100
AcDbArc
 50
0.0
 51
90.0
  0
LINE
  5
34F
100
AcDbEntity
  8
LAY-1
  6
CONTINUOUS
 62
     2
100
AcDbLine
 10
-313.062878
 20
122.184331
 30
0.0
 11
-339.062878
 21
122.184331
 31
0.0
  0
LINE
  5
350
100
AcDbEntity
  8
LAY-1
  6
CONTINUOUS
 62
     2
100
AcDbLine
 10
-313.062878
 20
162.184331
 30
0.0
 11
-339.062878
 21
162.184331
 31
0.0
  0
ARC
  5
351
100
AcDbEntity
  8
LAY-1
  6
CONTINUOUS
 62
     2
100
AcDbCircle
 10
-313.062878
 20
164.184331
 30
0.0
 40
2.0
100
AcDbArc
 50
270.0
 51
0.0
  0
LINE
  5
352
100
AcDbEntity
  8
LAY-1
  6
CONTINUOUS
 62
     2
100
AcDbLine
 10
-348.062878
 20
151.184331
 30
0.0
 11
-354.062878
 21
151.184331
 31
0.0
  0
LINE
  5
353
100
AcDbEntity
  8
LAY-1
  6
CONTINUOUS
 62
     2
100
AcDbLine
 10
-354.062878
 20
137.184331
 30
0.0
 11
-357.062878
 21
137.184331
 31
0.0
  0
LINE
  5
354
100
AcDbEntity
  8
LAY-1
  6
CONTINUOUS
 62
     2
100
AcDbLine
 10
-345.062878
 20
137.184331
 30
0.0
 11
-348.062878
 21
137.184331
 31
0.0
  0
LINE
  5
355
100
AcDbEntity
  8
LAY-1
  6
CONTINUOUS
 62
     2
100
AcDbLine
 10
-348.062878
 20
151.184331
 30
0.0
 11
-348.062878
 21
137.184331
 31
0.0
  0
LINE
  5
356
100
AcDbEntity
  8
LAY-1
  6
CONTINUOUS
 62
     2
100
AcDbLine
 10
-354.062878
 20
151.184331
 30
0.0
 11
-354.062878
 21
137.184331
 31
0.0
  0
LINE
  5
357
100
AcDbEntity
  8
LAY-1
  6
CONTINUOUS
 62
     2
100
AcDbLine
 10
-357.062878
 20
137.184331
 30
0.0
 11
-351.062878
 21
131.184331
 31
0.0
  0
LINE
  5
358
100
AcDbEntity
  8
LAY-1
  6
CONTINUOUS
 62
     2
100
AcDbLine
 10
-345.062878
 20
137.184331
 30
0.0
 11
-351.062878
 21
131.184331
 31
0.0
  0
LINE
  5
359
100
AcDbEntity
  8
LAY-1
  6
CONTINUOUS
 62
     2
100
AcDbLine
 10
-341.062878
 20
180.184331
 30
0.0
 11
-341.062878
 21
104.184331
 31
0.0
  0
ARC
  5
35A
100
AcDbEntity
  8
LAY-1
  6
CONTINUOUS
 62
     2
100
AcDbCircle
 10
-339.062878
 20
104.184331
 30
0.0
 40
2.0
100
AcDbArc
 50
180.0
 51
270.0
  0
LINE
  5
35B
100
AcDbEntity
  8
LAY-1
  6
CONTINUOUS
 62
     2
100
AcDbLine
 10
-313.062878
 20
102.184331
 30
0.0
 11
-339.062878
 21
102.184331
 31
0.0
  0
LINE
  5
35C
100
AcDbEntity
  8
LAY-1
  6
CONTINUOUS
 62
     2
100
AcDbLine
 10
-311.062878
 20
180.184331
 30
0.0
 11
-311.062878
 21
104.184331
 31
0.0
  0
ARC
  5
35D
100
AcDbEntity
  8
LAY-1
  6
CONTINUOUS
 62
     2
100
AcDbCircle
 10
-313.062878
 20
104.184331
 30
0.0
 40
2.0
100
AcDbArc
 50
270.0
 51
0.0
  0
LINE
  5
35E
100
AcDbEntity
  8
LAY-1
  6
CONTINUOUS
 62
     2
100
AcDbLine
 10
-86.378872
 20
168.434331
 30
0.0
 11
-87.121752
 21
172.647416
 31
0.0
  0
LINE
  5
35F
100
AcDbEntity
  8
LAY-1
  6
CONTINUOUS
 62
     2
100
AcDbLine
 10
-86.378872
 20
115.934331
 30
0.0
 11
-87.121752
 21
111.721247
 31
0.0
  0
ARC
  5
360
100
AcDbEntity
  8
LAY-1
  6
CONTINUOUS
 62
     2
100
AcDbCircle
 10
-96.96983
 20
170.910934
 30
0.0
 40
10.0
100
AcDbArc
 50
10.0
 51
86.046991
  0
ARC
  5
361
100
AcDbEntity
  8
LAY-1
  6
CONTINUOUS
 62
     2
100
AcDbCircle
 10
-96.96983
 20
113.457729
 30
0.0
 40
10.0
100
AcDbArc
 50
273.953009
 51
350.0
  0
LINE
  5
362
100
AcDbEntity
  8
LAY-1
  6
CONTINUOUS
 62
     2
100
AcDbLine
 10
-96.280447
 20
180.887143
 30
0.0
 11
-213.199291
 21
184.24206
 31
0.0
  0
LINE
  5
363
100
AcDbEntity
  8
LAY-1
  6
CONTINUOUS
 62
     2
100
AcDbLine
 10
-252.46983
 20
230.05064
 30
0.0
 11
-252.46983
 21
54.35064
 31
0.0
  0
LINE
  5
364
100
AcDbEntity
  8
LAY-1
  6
CONTINUOUS
 62
     2
100
AcDbLine
 10
-239.96983
 20
52.35064
 30
0.0
 11
-239.96983
 21
192.20064
 31
0.0
  0
LINE
  5
365
100
AcDbEntity
  8
LAY-1
  6
CONTINUOUS
 62
     2
100
AcDbLine
 10
-367.062878
 20
168.684331
 30
0.0
 11
-367.062878
 21
115.684331
 31
0.0
  0
LINE
  5
366
100
AcDbEntity
  8
LAY-1
  6
CONTINUOUS
 62
     2
100
AcDbLine
 10
-361.062878
 20
115.184331
 30
0.0
 11
-361.062878
 21
169.184331
 31
0.0
  0
LINE
  5
367
100
AcDbEntity
  8
LAY-1
  6
CONTINUOUS
 62
     2
100
AcDbLine
 10
-375.062878
 20
56.184331
 30
0.0
 11
-275.062878
 21
56.184331
 31
0.0
  0
LINE
  5
368
100
AcDbEntity
  8
LAY-1
  6
CONTINUOUS
 62
     2
100
AcDbLine
 10
-375.062878
 20
226.184331
 30
0.0
 11
-275.062878
 21
226.184331
 31
0.0
  0
LINE
  5
369
100
AcDbEntity
  8
LAY-1
  6
CONTINUOUS
 62
     2
100
AcDbLine
 10
-375.062878
 20
241.184331
 30
0.0
 11
-275.062878
 21
241.184331
 31
0.0
  0
LINE
  5
36A
100
AcDbEntity
  8
LAY-1
  6
CONTINUOUS
 62
     2
100
AcDbLine
 10
-325.062878
 20
42.184331
 30
0.0
 11
-375.062878
 21
42.184331
 31
0.0
  0
LINE
  5
36B
100
AcDbEntity
  8
LAY-1
  6
CONTINUOUS
 62
     2
100
AcDbLine
 10
-325.062878
 20
42.184331
 30
0.0
 11
-275.062878
 21
42.184331
 31
0.0
  0
LINE
  5
36C
100
AcDbEntity
  8
LAY-1
  6
CONTINUOUS
 62
     2
100
AcDbLine
 10
-275.062878
 20
56.184331
 30
0.0
 11
-275.062878
 21
42.184331
 31
0.0
  0
LINE
  5
36D
100
AcDbEntity
  8
LAY-1
  6
CONTINUOUS
 62
     2
100
AcDbLine
 10
-375.062878
 20
56.184331
 30
0.0
 11
-375.062878
 21
42.184331
 31
0.0
  0
LINE
  5
36E
100
AcDbEntity
  8
LAY-1
  6
CONTINUOUS
 62
     2
100
AcDbLine
 10
-345.562878
 20
91.620016
 30
0.0
 11
-345.562878
 21
61.184331
 31
0.0
  0
ARC
  5
36F
100
AcDbEntity
  8
LAY-1
  6
CONTINUOUS
 62
     2
100
AcDbCircle
 10
-350.562878
 20
61.184331
 30
0.0
 40
5.0
100
AcDbArc
 50
270.0
 51
0.0
  0
ARC
  5
370
100
AcDbEntity
  8
LAY-1
  6
CONTINUOUS
 62
     2
100
AcDbCircle
 10
-299.562878
 20
61.184331
 30
0.0
 40
5.0
100
AcDbArc
 50
180.0
 51
270.0
  0
LINE
  5
371
100
AcDbEntity
  8
LAY-1
  6
CONTINUOUS
 62
     2
100
AcDbLine
 10
-304.562878
 20
89.584427
 30
0.0
 11
-304.562878
 21
61.184331
 31
0.0
  0
LINE
  5
372
100
AcDbEntity
  8
LAY-1
  6
CONTINUOUS
 62
     2
100
AcDbLine
 10
-267.920205
 20
90.91675
 30
0.0
 11
-268.54928
 21
94.11455
 31
0.0
  0
ARC
  5
373
100
AcDbEntity
  8
LAY-1
  6
CONTINUOUS
 62
     2
100
AcDbCircle
 10
-278.361225
 20
92.184331
 30
0.0
 40
10.0
100
AcDbArc
 50
11.129189
 51
90.0
  0
ARC
  5
374
100
AcDbEntity
  8
LAY-1
  6
CONTINUOUS
 62
     2
100
AcDbCircle
 10
-278.361225
 20
192.184331
 30
0.0
 40
10.0
100
AcDbArc
 50
270.0
 51
348.870811
  0
LINE
  5
375
100
AcDbEntity
  8
LAY-1
  6
CONTINUOUS
 62
     2
100
AcDbLine
 10
-267.920205
 20
193.451913
 30
0.0
 11
-268.54928
 21
190.254113
 31
0.0
  0
ARC
  5
376
100
AcDbEntity
  8
LAY-1
  6
CONTINUOUS
 62
     2
100
AcDbCircle
 10
-297.562878
 20
201.486524
 30
0.0
 40
10.0
100
AcDbArc
 50
180.0
 51
205.649373
  0
LINE
  5
377
100
AcDbEntity
  8
LAY-1
  6
CONTINUOUS
 62
     2
100
AcDbLine
 10
-307.562878
 20
216.184331
 30
0.0
 11
-307.562878
 21
201.486524
 31
0.0
  0
ARC
  5
378
100
AcDbEntity
  8
LAY-1
  6
CONTINUOUS
 62
     2
100
AcDbCircle
 10
-421.062878
 20
142.184331
 30
0.0
 40
127.0
100
AcDbArc
 50
21.549115
 51
25.649373
  0
ARC
  5
379
100
AcDbEntity
  8
LAY-1
  6
CONTINUOUS
 62
     2
100
AcDbCircle
 10
-293.512888
 20
192.184331
 30
0.0
 40
10.0
100
AcDbArc
 50
201.405337
 51
270.0
  0
ARC
  5
37A
100
AcDbEntity
  8
LAY-1
  6
CONTINUOUS
 62
     2
100
AcDbCircle
 10
-250.46983
 20
230.05064
 30
0.0
 40
2.0
100
AcDbArc
 50
90.0
 51
180.0
  0
ARC
  5
37B
100
AcDbEntity
  8
LAY-1
  6
CONTINUOUS
 62
     2
100
AcDbCircle
 10
-294.562878
 20
89.584427
 30
0.0
 40
10.0
100
AcDbArc
 50
157.421993
 51
180.0
  0
ARC
  5
37C
100
AcDbEntity
  8
LAY-1
  6
CONTINUOUS
 62
     2
100
AcDbCircle
 10
-421.062878
 20
142.184331
 30
0.0
 40
127.0
100
AcDbArc
 50
337.421993
 51
338.450885
  0
ARC
  5
37D
100
AcDbEntity
  8
LAY-1
  6
CONTINUOUS
 62
     2
100
AcDbCircle
 10
-293.512888
 20
92.184331
 30
0.0
 40
10.0
100
AcDbArc
 50
90.0
 51
158.594663
  0
ARC
  5
37E
100
AcDbEntity
  8
LAY-1
  6
CONTINUOUS
 62
     2
100
AcDbCircle
 10
-250.46983
 20
54.35064
 30
0.0
 40
2.0
100
AcDbArc
 50
180.0
 51
270.0
  0
LINE
  5
37F
100
AcDbEntity
  8
LAY-1
  6
CONTINUOUS
 62
     2
100
AcDbLine
 10
-238.96983
 20
52.35064
 30
0.0
 11
-250.46983
 21
52.35064
 31
0.0
  0
ARC
  5
380
100
AcDbEntity
  8
LAY-1
  6
CONTINUOUS
 62
     2
100
AcDbCircle
 10
-227.46983
 20
53.184331
 30
0.0
 40
1.0
100
AcDbArc
 50
270.0
 51
0.0
  0
ARC
  5
381
100
AcDbEntity
  8
LAY-1
  6
CONTINUOUS
 62
     2
100
AcDbCircle
 10
-212.96983
 20
192.238768
 30
0.0
 40
8.0
100
AcDbArc
 50
180.0
 51
268.356383
  0
ARC
  5
382
100
AcDbEntity
  8
LAY-1
  6
CONTINUOUS
 62
     2
100
AcDbCircle
 10
-227.96983
 20
197.911388
 30
0.0
 40
7.0
100
AcDbArc
 50
0.0
 51
60.005968
  0
LINE
  5
383
100
AcDbEntity
  8
LAY-1
  6
CONTINUOUS
 62
     2
100
AcDbLine
 10
-224.470461
 20
203.97393
 30
0.0
 11
-225.469649
 21
204.550673
 31
0.0
  0
ARC
  5
384
100
AcDbEntity
  8
LAY-1
  6
CONTINUOUS
 62
     2
100
AcDbCircle
 10
-224.46983
 20
206.282828
 30
0.0
 40
2.0
100
AcDbArc
 50
180.0
 51
240.005968
  0
LINE
  5
385
100
AcDbEntity
  8
LAY-1
  6
CONTINUOUS
 62
     2
100
AcDbLine
 10
-223.252084
 20
57.459915
 30
0.0
 11
-225.504729
 21
57.381251
 31
0.0
  0
LINE
  5
386
100
AcDbEntity
  8
LAY-1
  6
CONTINUOUS
 62
     2
100
AcDbLine
 10
-216.646534
 20
96.920634
 30
0.0
 11
-216.924171
 21
96.930329
 31
0.0
  0
ARC
  5
387
100
AcDbEntity
  8
LAY-1
  6
CONTINUOUS
 62
     2
100
AcDbCircle
 10
-216.889272
 20
97.92972
 30
0.0
 40
1.0
100
AcDbArc
 50
124.050283
 51
268.0
  0
ARC
  5
388
100
AcDbEntity
  8
LAY-1
  6
CONTINUOUS
 62
     2
100
AcDbCircle
 10
-216.681433
 20
95.921243
 30
0.0
 40
1.0
100
AcDbArc
 50
350.0
 51
88.0
  0
ARC
  5
389
100
AcDbEntity
  8
LAY-1
  6
CONTINUOUS
 62
     2
100
AcDbCircle
 10
-223.286984
 20
58.459306
 30
0.0
 40
1.0
100
AcDbArc
 50
272.0
 51
350.0
  0
ARC
  5
38A
100
AcDbEntity
  8
LAY-1
  6
CONTINUOUS
 62
     2
100
AcDbCircle
 10
-225.46983
 20
56.38186
 30
0.0
 40
1.0
100
AcDbArc
 50
92.0
 51
180.0
  0
LINE
  5
38B
100
AcDbEntity
  8
LAY-1
  6
CONTINUOUS
 62
     2
100
AcDbLine
 10
-239.96983
 20
192.20064
 30
0.0
 11
-239.96983
 21
232.05064
 31
0.0
  0
ARC
  5
38C
100
AcDbEntity
  8
LAY-1
  6
CONTINUOUS
 62
     2
100
AcDbCircle
 10
-73.262178
 20
160.760293
 30
0.0
 40
3.3
100
AcDbArc
 50
30.0
 51
88.0
  0
ARC
  5
38D
100
AcDbEntity
  8
LAY-1
  6
CONTINUOUS
 62
     2
100
AcDbCircle
 10
-86.234048
 20
166.434331
 30
0.0
 40
2.0
100
AcDbArc
 50
9.865807
 51
90.0
  0
LINE
  5
38E
100
AcDbEntity
  8
LAY-1
  6
CONTINUOUS
 62
     2
100
AcDbLine
 10
-86.234048
 20
168.434331
 30
0.0
 11
-86.378872
 21
168.434331
 31
0.0
  0
LINE
  5
38F
100
AcDbEntity
  8
LAY-1
  6
CONTINUOUS
 62
     2
100
AcDbLine
 10
-82.638992
 20
164.38975
 30
0.0
 11
-73.14701
 21
164.058283
 31
0.0
  0
LINE
  5
390
100
AcDbEntity
  8
LAY-1
  6
CONTINUOUS
 62
     2
100
AcDbLine
 10
-84.263624
 20
166.777014
 30
0.0
 11
-84.064461
 21
165.631824
 31
0.0
  0
ARC
  5
391
100
AcDbEntity
  8
LAY-1
  6
CONTINUOUS
 62
     2
100
AcDbCircle
 10
-82.586643
 20
165.888836
 30
0.0
 40
1.5
100
AcDbArc
 50
189.865807
 51
268.0
  0
LINE
  5
392
100
AcDbEntity
  8
LAY-1
  6
CONTINUOUS
 62
     2
100
AcDbLine
 10
-70.404294
 20
162.410293
 30
0.0
 11
-68.71499
 21
159.484331
 31
0.0
  0
ARC
  5
393
100
AcDbEntity
  8
LAY-1
  6
CONTINUOUS
 62
     2
100
AcDbCircle
 10
-67.848964
 20
159.984331
 30
0.0
 40
1.0
100
AcDbArc
 50
210.0
 51
270.0
  0
LINE
  5
394
100
AcDbEntity
  8
LAY-1
  6
CONTINUOUS
 62
     2
100
AcDbLine
 10
-67.848964
 20
158.984331
 30
0.0
 11
-59.994342
 21
158.984331
 31
0.0
  0
ARC
  5
395
100
AcDbEntity
  8
LAY-1
  6
CONTINUOUS
 62
     2
100
AcDbCircle
 10
-59.994342
 20
156.984331
 30
0.0
 40
2.0
100
AcDbArc
 50
30.0
 51
90.0
  0
LINE
  5
396
100
AcDbEntity
  8
LAY-1
  6
CONTINUOUS
 62
     2
100
AcDbLine
 10
-58.262291
 20
157.984331
 30
0.0
 11
-57.683532
 21
156.981892
 31
0.0
  0
ARC
  5
397
100
AcDbEntity
  8
LAY-1
  6
CONTINUOUS
 62
     2
100
AcDbCircle
 10
-56.817507
 20
157.481892
 30
0.0
 40
1.0
100
AcDbArc
 50
210.0
 51
270.0
  0
ARC
  5
398
100
AcDbEntity
  8
LAY-1
  6
CONTINUOUS
 62
     2
100
AcDbCircle
 10
-86.234048
 20
117.934331
 30
0.0
 40
2.0
100
AcDbArc
 50
270.0
 51
350.134193
  0
LINE
  5
399
100
AcDbEntity
  8
LAY-1
  6
CONTINUOUS
 62
     2
100
AcDbLine
 10
-86.234048
 20
115.934331
 30
0.0
 11
-86.378872
 21
115.934331
 31
0.0
  0
LINE
  5
39A
100
AcDbEntity
  8
LAY-1
  6
CONTINUOUS
 62
     2
100
AcDbLine
 10
-84.263624
 20
117.591649
 30
0.0
 11
-84.064461
 21
118.736838
 31
0.0
  0
ARC
  5
39B
100
AcDbEntity
  8
LAY-1
  6
CONTINUOUS
 62
     2
100
AcDbCircle
 10
-82.586643
 20
118.479827
 30
0.0
 40
1.5
100
AcDbArc
 50
92.0
 51
170.134193
  0
ARC
  5
39C
100
AcDbEntity
  8
LAY-1
  6
CONTINUOUS
 62
     2
100
AcDbCircle
 10
-67.848964
 20
124.384331
 30
0.0
 40
1.0
100
AcDbArc
 50
90.0
 51
150.0
  0
LINE
  5
39D
100
AcDbEntity
  8
LAY-1
  6
CONTINUOUS
 62
     2
100
AcDbLine
 10
-67.848964
 20
125.384331
 30
0.0
 11
-59.994342
 21
125.384331
 31
0.0
  0
ARC
  5
39E
100
AcDbEntity
  8
LAY-1
  6
CONTINUOUS
 62
     2
100
AcDbCircle
 10
-59.994342
 20
127.384331
 30
0.0
 40
2.0
100
AcDbArc
 50
270.0
 51
330.0
  0
LINE
  5
39F
100
AcDbEntity
  8
LAY-1
  6
CONTINUOUS
 62
     2
100
AcDbLine
 10
-58.262291
 20
126.384331
 30
0.0
 11
-57.683532
 21
127.386771
 31
0.0
  0
ARC
  5
3A0
100
AcDbEntity
  8
LAY-1
  6
CONTINUOUS
 62
     2
100
AcDbCircle
 10
-56.817507
 20
126.886771
 30
0.0
 40
1.0
100
AcDbArc
 50
90.0
 51
150.0
  0
LINE
  5
3A1
100
AcDbEntity
  8
LAY-1
  6
CONTINUOUS
 62
     2
100
AcDbLine
 10
-70.348863
 20
122.054379
 30
0.0
 11
-68.71499
 21
124.884331
 31
0.0
  0
LINE
  5
3A2
100
AcDbEntity
  8
LAY-1
  6
CONTINUOUS
 62
     2
100
AcDbLine
 10
-82.638992
 20
119.978913
 30
0.0
 11
-73.257804
 21
120.306511
 31
0.0
  0
ARC
  5
3A3
100
AcDbEntity
  8
LAY-1
  6
CONTINUOUS
 62
     2
100
AcDbCircle
 10
-73.379952
 20
123.804379
 30
0.0
 40
3.5
100
AcDbArc
 50
272.0
 51
330.0
  0
LINE
  5
3A4
100
AcDbEntity
  8
LAY-1
  6
CONTINUOUS
 62
     2
100
AcDbLine
 10
-20.219564
 20
127.886771
 30
0.0
 11
-56.817507
 21
127.886771
 31
0.0
  0
ARC
  5
3A5
100
AcDbEntity
  8
LAY-1
  6
CONTINUOUS
 62
     2
100
AcDbCircle
 10
-20.219564
 20
129.886771
 30
0.0
 40
2.0
100
AcDbArc
 50
270.0
 51
342.974393
  0
ARC
  5
3A6
100
AcDbEntity
  8
LAY-1
  6
CONTINUOUS
 62
     2
100
AcDbCircle
 10
-60.378872
 20
142.184331
 30
0.0
 40
44.0
100
AcDbArc
 50
342.974393
 51
17.025607
  0
LINE
  5
3A7
100
AcDbEntity
  8
LAY-1
  6
CONTINUOUS
 62
     2
100
AcDbLine
 10
-20.219564
 20
156.481892
 30
0.0
 11
-56.817507
 21
156.481892
 31
0.0
  0
ARC
  5
3A8
100
AcDbEntity
  8
LAY-1
  6
CONTINUOUS
 62
     2
100
AcDbCircle
 10
-20.219564
 20
154.481892
 30
0.0
 40
2.0
100
AcDbArc
 50
17.025607
 51
90.0
  0
LINE
  5
3A9
100
AcDbEntity
  8
LAY-1
  6
CONTINUOUS
 62
     2
100
AcDbLine
 10
-361.062878
 20
169.184331
 30
0.0
 11
-360.062878
 21
170.184331
 31
0.0
  0
LINE
  5
3AA
100
AcDbEntity
  8
LAY-1
  6
CONTINUOUS
 62
     2
100
AcDbLine
 10
-360.062878
 20
170.184331
 30
0.0
 11
-356.871328
 21
170.184331
 31
0.0
  0
ARC
  5
3AB
100
AcDbEntity
  8
LAY-1
  6
CONTINUOUS
 62
     2
100
AcDbCircle
 10
-356.871328
 20
175.184331
 30
0.0
 40
5.0
100
AcDbArc
 50
270.0
 51
345.522488
  0
LINE
  5
3AC
100
AcDbEntity
  8
LAY-1
  6
CONTINUOUS
 62
     2
100
AcDbLine
 10
-356.871328
 20
114.184331
 30
0.0
 11
-360.062878
 21
114.184331
 31
0.0
  0
LINE
  5
3AD
100
AcDbEntity
  8
LAY-1
  6
CONTINUOUS
 62
     2
100
AcDbLine
 10
-360.062878
 20
114.184331
 30
0.0
 11
-361.062878
 21
115.184331
 31
0.0
  0
ARC
  5
3AE
100
AcDbEntity
  8
LAY-1
  6
CONTINUOUS
 62
     2
100
AcDbCircle
 10
-356.871328
 20
109.184331
 30
0.0
 40
5.0
100
AcDbArc
 50
14.477512
 51
90.0
  0
ARC
  5
3AF
100
AcDbEntity
  8
LAY-1
  6
CONTINUOUS
 62
     2
100
AcDbCircle
 10
-229.062878
 20
142.184331
 30
0.0
 40
127.0
100
AcDbArc
 50
194.477512
 51
203.462216
  0
ARC
  5
3B0
100
AcDbEntity
  8
LAY-1
  6
CONTINUOUS
 62
     2
100
AcDbCircle
 10
-356.486996
 20
91.864414
 30
0.0
 40
10.0
100
AcDbArc
 50
345.0
 51
21.549115
  0
ARC
  5
3B1
100
AcDbEntity
  8
LAY-1
  6
CONTINUOUS
 62
     2
100
AcDbCircle
 10
-363.367953
 20
66.184331
 30
0.0
 40
10.0
100
AcDbArc
 50
270.0
 51
345.0
  0
LINE
  5
3B2
100
AcDbEntity
  8
LAY-1
  6
CONTINUOUS
 62
     2
100
AcDbLine
 10
-346.827738
 20
89.276223
 30
0.0
 11
-353.708695
 21
63.596141
 31
0.0
  0
ARC
  5
3B3
100
AcDbEntity
  8
LAY-1
  6
CONTINUOUS
 62
     2
100
AcDbCircle
 10
-286.757802
 20
66.184331
 30
0.0
 40
10.0
100
AcDbArc
 50
195.0
 51
270.0
  0
LINE
  5
3B4
100
AcDbEntity
  8
LAY-1
  6
CONTINUOUS
 62
     2
100
AcDbLine
 10
-303.298018
 20
89.276223
 30
0.0
 11
-296.417061
 21
63.596141
 31
0.0
  0
ARC
  5
3B5
100
AcDbEntity
  8
LAY-1
  6
CONTINUOUS
 62
     2
100
AcDbCircle
 10
-293.63876
 20
91.864414
 30
0.0
 40
10.0
100
AcDbArc
 50
158.450885
 51
195.0
  0
ARC
  5
3B6
100
AcDbEntity
  8
LAY-1
  6
CONTINUOUS
 62
     2
100
AcDbCircle
 10
-293.63876
 20
192.504249
 30
0.0
 40
10.0
100
AcDbArc
 50
165.0
 51
201.549115
  0
LINE
  5
3B7
100
AcDbEntity
  8
LAY-1
  6
CONTINUOUS
 62
     2
100
AcDbLine
 10
-303.298018
 20
195.09244
 30
0.0
 11
-296.952959
 21
218.772522
 31
0.0
  0
ARC
  5
3B8
100
AcDbEntity
  8
LAY-1
  6
CONTINUOUS
 62
     2
100
AcDbCircle
 10
-356.486996
 20
192.504249
 30
0.0
 40
10.0
100
AcDbArc
 50
338.450885
 51
15.0
  0
LINE
  5
3B9
100
AcDbEntity
  8
LAY-1
  6
CONTINUOUS
 62
     2
100
AcDbLine
 10
-346.827738
 20
195.09244
 30
0.0
 11
-353.172797
 21
218.772522
 31
0.0
  0
ARC
  5
3BA
100
AcDbEntity
  8
LAY-1
  6
CONTINUOUS
 62
     2
100
AcDbCircle
 10
-362.832055
 20
216.184331
 30
0.0
 40
10.0
100
AcDbArc
 50
15.0
 51
90.0
  0
ARC
  5
3BB
100
AcDbEntity
  8
LAY-1
  6
CONTINUOUS
 62
     2
100
AcDbCircle
 10
-287.293701
 20
216.184331
 30
0.0
 40
10.0
100
AcDbArc
 50
90.0
 51
165.0
  0
LINE
  5
3BC
100
AcDbEntity
  8
LAY-1
  6
CONTINUOUS
 62
     2
100
AcDbLine
 10
-342.562878
 20
216.184331
 30
0.0
 11
-342.562878
 21
199.164591
 31
0.0
  0
ARC
  5
3BD
100
AcDbEntity
  8
LAY-1
  6
CONTINUOUS
 62
     2
100
AcDbCircle
 10
-297.562878
 20
216.184331
 30
0.0
 40
10.0
100
AcDbArc
 50
90.0
 51
180.0
  0
ARC
  5
3BE
100
AcDbEntity
  8
LAY-1
  6
CONTINUOUS
 62
     2
100
AcDbCircle
 10
-352.562878
 20
216.184331
 30
0.0
 40
10.0
100
AcDbArc
 50
0.0
 51
90.0
  0
ARC
  5
3BF
100
AcDbEntity
  8
LAY-1
  6
CONTINUOUS
 62
     2
100
AcDbCircle
 10
-354.062878
 20
242.184331
 30
0.0
 40
1.0
100
AcDbArc
 50
270.0
 51
0.0
  0
ARC
  5
3C0
100
AcDbEntity
  8
LAY-1
  6
CONTINUOUS
 62
     2
100
AcDbCircle
 10
-296.062878
 20
242.184331
 30
0.0
 40
1.0
100
AcDbArc
 50
180.0
 51
270.0
  0
LINE
  5
3C1
100
AcDbEntity
  8
LAY-1
  6
CONTINUOUS
 62
     2
100
AcDbLine
 10
-297.062878
 20
242.184331
 30
0.0
 11
-353.062878
 21
242.184331
 31
0.0
  0
LINE
  5
3C2
100
AcDbEntity
  8
LAY-1
  6
CONTINUOUS
 62
     2
100
AcDbLine
 10
-275.062878
 20
241.184331
 30
0.0
 11
-275.062878
 21
226.229285
 31
0.0
  0
LINE
  5
3C3
100
AcDbEntity
  8
LAY-1
  6
CONTINUOUS
 62
     2
100
AcDbLine
 10
-375.062878
 20
241.184331
 30
0.0
 11
-375.062878
 21
226.158388
 31
0.0
  0
LINE
  5
3C4
100
AcDbEntity
  8
LAY-1
  6
CONTINUOUS
 62
     2
100
AcDbLine
 10
-367.062878
 20
162.984331
 30
0.0
 11
-375.462878
 21
162.984331
 31
0.0
  0
LINE
  5
3C5
100
AcDbEntity
  8
LAY-1
  6
CONTINUOUS
 62
     2
100
AcDbLine
 10
-361.062878
 20
168.684331
 30
0.0
 11
-367.062878
 21
168.684331
 31
0.0
  0
LINE
  5
3C6
100
AcDbEntity
  8
LAY-1
  6
CONTINUOUS
 62
     2
100
AcDbLine
 10
-377.062878
 20
160.184331
 30
0.0
 11
-377.062878
 21
124.184331
 31
0.0
  0
LINE
  5
3C7
100
AcDbEntity
  8
LAY-1
  6
CONTINUOUS
 62
     2
100
AcDbLine
 10
-377.062878
 20
160.184331
 30
0.0
 11
-375.462878
 21
162.984331
 31
0.0
  0
LINE
  5
3C8
100
AcDbEntity
  8
LAY-1
  6
CONTINUOUS
 62
     2
100
AcDbLine
 10
-375.462878
 20
121.384331
 30
0.0
 11
-377.062878
 21
124.184331
 31
0.0
  0
LINE
  5
3C9
100
AcDbEntity
  8
LAY-1
  6
CONTINUOUS
 62
     2
100
AcDbLine
 10
-375.462878
 20
121.384331
 30
0.0
 11
-367.062878
 21
121.384331
 31
0.0
  0
LINE
  5
3CA
100
AcDbEntity
  8
LAY-1
  6
CONTINUOUS
 62
     2
100
AcDbLine
 10
-367.062878
 20
115.684331
 30
0.0
 11
-361.062878
 21
115.684331
 31
0.0
  0
LINE
  5
3CB
100
AcDbEntity
  8
LAY-1
  6
CONTINUOUS
 62
     2
100
AcDbLine
 10
183.937122
 20
-249.627146
 30
0.0
 11
183.937122
 21
-257.222621
 31
0.0
  0
LINE
  5
3CC
100
AcDbEntity
  8
LAY-1
  6
CONTINUOUS
 62
     2
100
AcDbLine
 10
223.937122
 20
-249.627146
 30
0.0
 11
223.937122
 21
-257.222621
 31
0.0
  0
ELLIPSE
  5
3CD
100
AcDbEntity
  8
LAY-1
  6
CONTINUOUS
 62
     2
100
AcDbEllipse
 10
203.937122
 20
-249.627146
 30
0.0
 11
19.999999998359968
 21
0.0
 31
0.0
210
0.0
220
0.0
230
1.0
 40
0.158886
 41
0.0
 42
6.2831853071796004
  0
LINE
  5
3CE
100
AcDbEntity
  8
LAY-1
  6
CONTINUOUS
 62
     2
100
AcDbLine
 10
177.687122
 20
-117.131663
 30
0.0
 11
173.445096
 21
-117.879646
 31
0.0
  0
LINE
  5
3CF
100
AcDbEntity
  8
LAY-1
  6
CONTINUOUS
 62
     2
100
AcDbLine
 10
230.187122
 20
-117.131663
 30
0.0
 11
234.429148
 21
-117.879646
 31
0.0
  0
ARC
  5
3D0
100
AcDbEntity
  8
LAY-1
  6
CONTINUOUS
 62
     2
100
AcDbCircle
 10
191.639562
 20
-50.972355
 30
0.0
 40
2.0
100
AcDbArc
 50
107.025607
 51
180.0
  0
LINE
  5
3D1
100
AcDbEntity
  8
LAY-1
  6
CONTINUOUS
 62
     2
100
AcDbLine
 10
189.639562
 20
-50.972355
 30
0.0
 11
189.639562
 21
-87.570298
 31
0.0
  0
ARC
  5
3D2
100
AcDbEntity
  8
LAY-1
  6
CONTINUOUS
 62
     2
100
AcDbCircle
 10
189.137122
 20
-90.747133
 30
0.0
 40
2.0
100
AcDbArc
 50
120.0
 51
180.0
  0
LINE
  5
3D3
100
AcDbEntity
  8
LAY-1
  6
CONTINUOUS
 62
     2
100
AcDbLine
 10
188.137122
 20
-89.015082
 30
0.0
 11
189.139562
 21
-88.436323
 31
0.0
  0
ARC
  5
3D4
100
AcDbEntity
  8
LAY-1
  6
CONTINUOUS
 62
     2
100
AcDbCircle
 10
188.639562
 20
-87.570298
 30
0.0
 40
1.0
100
AcDbArc
 50
300.0
 51
0.0
  0
LINE
  5
3D5
100
AcDbEntity
  8
LAY-1
  6
CONTINUOUS
 62
     2
100
AcDbLine
 10
187.137122
 20
-98.601755
 30
0.0
 11
187.137122
 21
-90.747133
 31
0.0
  0
LINE
  5
3D6
100
AcDbEntity
  8
LAY-1
  6
CONTINUOUS
 62
     2
100
AcDbLine
 10
183.711161
 20
-101.157085
 30
0.0
 11
186.637122
 21
-99.46778
 31
0.0
  0
ARC
  5
3D7
100
AcDbEntity
  8
LAY-1
  6
CONTINUOUS
 62
     2
100
AcDbCircle
 10
185.361161
 20
-104.014969
 30
0.0
 40
3.3
100
AcDbArc
 50
120.0
 51
178.0
  0
ARC
  5
3D8
100
AcDbEntity
  8
LAY-1
  6
CONTINUOUS
 62
     2
100
AcDbCircle
 10
186.137122
 20
-98.601755
 30
0.0
 40
1.0
100
AcDbArc
 50
300.0
 51
0.0
  0
LINE
  5
3D9
100
AcDbEntity
  8
LAY-1
  6
CONTINUOUS
 62
     2
100
AcDbLine
 10
181.731704
 20
-113.391783
 30
0.0
 11
182.063171
 21
-103.899801
 31
0.0
  0
ARC
  5
3DA
100
AcDbEntity
  8
LAY-1
  6
CONTINUOUS
 62
     2
100
AcDbCircle
 10
179.687122
 20
-116.986838
 30
0.0
 40
2.0
100
AcDbArc
 50
99.865807
 51
180.0
  0
LINE
  5
3DB
100
AcDbEntity
  8
LAY-1
  6
CONTINUOUS
 62
     2
100
AcDbLine
 10
179.34444
 20
-115.016415
 30
0.0
 11
180.489629
 21
-114.817252
 31
0.0
  0
ARC
  5
3DC
100
AcDbEntity
  8
LAY-1
  6
CONTINUOUS
 62
     2
100
AcDbCircle
 10
180.232618
 20
-113.339434
 30
0.0
 40
1.5
100
AcDbArc
 50
279.865807
 51
358.0
  0
ARC
  5
3DD
100
AcDbEntity
  8
LAY-1
  6
CONTINUOUS
 62
     2
100
AcDbCircle
 10
227.641627
 20
-113.339434
 30
0.0
 40
1.5
100
AcDbArc
 50
182.0
 51
260.134193
  0
LINE
  5
3DE
100
AcDbEntity
  8
LAY-1
  6
CONTINUOUS
 62
     2
100
AcDbLine
 10
228.529805
 20
-115.016415
 30
0.0
 11
227.384615
 21
-114.817252
 31
0.0
  0
ARC
  5
3DF
100
AcDbEntity
  8
LAY-1
  6
CONTINUOUS
 62
     2
100
AcDbCircle
 10
228.187122
 20
-116.986838
 30
0.0
 40
2.0
100
AcDbArc
 50
0.0
 51
80.134193
  0
LINE
  5
3E0
100
AcDbEntity
  8
LAY-1
  6
CONTINUOUS
 62
     2
100
AcDbLine
 10
230.187122
 20
-116.986838
 30
0.0
 11
230.187122
 21
-117.131663
 31
0.0
  0
ARC
  5
3E1
100
AcDbEntity
  8
LAY-1
  6
CONTINUOUS
 62
     2
100
AcDbCircle
 10
222.317075
 20
-104.132743
 30
0.0
 40
3.5
100
AcDbArc
 50
2.0
 51
60.0
  0
LINE
  5
3E2
100
AcDbEntity
  8
LAY-1
  6
CONTINUOUS
 62
     2
100
AcDbLine
 10
226.142541
 20
-113.391783
 30
0.0
 11
225.814942
 21
-104.010595
 31
0.0
  0
ARC
  5
3E3
100
AcDbEntity
  8
LAY-1
  6
CONTINUOUS
 62
     2
100
AcDbCircle
 10
221.737122
 20
-98.601755
 30
0.0
 40
1.0
100
AcDbArc
 50
180.0
 51
240.0
  0
LINE
  5
3E4
100
AcDbEntity
  8
LAY-1
  6
CONTINUOUS
 62
     2
100
AcDbLine
 10
224.067075
 20
-101.101654
 30
0.0
 11
221.237122
 21
-99.46778
 31
0.0
  0
LINE
  5
3E5
100
AcDbEntity
  8
LAY-1
  6
CONTINUOUS
 62
     2
100
AcDbLine
 10
220.737122
 20
-98.601755
 30
0.0
 11
220.737122
 21
-90.747133
 31
0.0
  0
ARC
  5
3E6
100
AcDbEntity
  8
LAY-1
  6
CONTINUOUS
 62
     2
100
AcDbCircle
 10
218.737122
 20
-90.747133
 30
0.0
 40
2.0
100
AcDbArc
 50
0.0
 51
60.0
  0
LINE
  5
3E7
100
AcDbEntity
  8
LAY-1
  6
CONTINUOUS
 62
     2
100
AcDbLine
 10
219.737122
 20
-89.015082
 30
0.0
 11
218.734683
 21
-88.436323
 31
0.0
  0
ARC
  5
3E8
100
AcDbEntity
  8
LAY-1
  6
CONTINUOUS
 62
     2
100
AcDbCircle
 10
219.234683
 20
-87.570298
 30
0.0
 40
1.0
100
AcDbArc
 50
180.0
 51
240.0
  0
LINE
  5
3E9
100
AcDbEntity
  8
LAY-1
  6
CONTINUOUS
 62
     2
100
AcDbLine
 10
218.234683
 20
-50.972355
 30
0.0
 11
218.234683
 21
-87.570298
 31
0.0
  0
ARC
  5
3EA
100
AcDbEntity
  8
LAY-1
  6
CONTINUOUS
 62
     2
100
AcDbCircle
 10
216.234683
 20
-50.972355
 30
0.0
 40
2.0
100
AcDbArc
 50
0.0
 51
72.974393
  0
ARC
  5
3EB
100
AcDbEntity
  8
LAY-1
  6
CONTINUOUS
 62
     2
100
AcDbCircle
 10
203.937122
 20
-91.131663
 30
0.0
 40
44.0
100
AcDbArc
 50
72.974393
 51
107.025607
  0
LINE
  5
3EC
100
AcDbEntity
  8
LAY-1
  6
CONTINUOUS
 62
     2
100
AcDbLine
 10
293.937122
 20
-269.422621
 30
0.0
 11
114.087122
 21
-269.422621
 31
0.0
  0
LINE
  5
3ED
100
AcDbEntity
  8
LAY-1
  6
CONTINUOUS
 62
     2
100
AcDbLine
 10
113.937122
 20
-270.815669
 30
0.0
 11
293.937122
 21
-270.815669
 31
0.0
  0
LINE
  5
3EE
100
AcDbEntity
  8
LAY-1
  6
CONTINUOUS
 62
     2
100
AcDbLine
 10
228.937122
 20
-312.157883
 30
0.0
 11
228.937122
 21
-312.514398
 31
0.0
  0
ARC
  5
3EF
100
AcDbEntity
  8
LAY-1
  6
CONTINUOUS
 62
     2
100
AcDbCircle
 10
238.937122
 20
-312.157883
 30
0.0
 40
10.0
100
AcDbArc
 50
101.129189
 51
180.0
  0
LINE
  5
3F0
100
AcDbEntity
  8
LAY-1
  6
CONTINUOUS
 62
     2
100
AcDbLine
 10
255.204703
 20
-298.766044
 30
0.0
 11
237.006904
 21
-302.345939
 31
0.0
  0
LINE
  5
3F1
100
AcDbEntity
  8
LAY-1
  6
CONTINUOUS
 62
     2
100
AcDbLine
 10
293.937122
 20
-270.815669
 30
0.0
 11
293.937122
 21
-281.350274
 31
0.0
  0
ARC
  5
3F2
100
AcDbEntity
  8
LAY-1
  6
CONTINUOUS
 62
     2
100
AcDbCircle
 10
291.937122
 20
-281.350274
 30
0.0
 40
2.0
100
AcDbArc
 50
271.0
 51
0.0
  0
ARC
  5
3F3
100
AcDbEntity
  8
LAY-1
  6
CONTINUOUS
 62
     2
100
AcDbCircle
 10
175.181578
 20
-127.727724
 30
0.0
 40
10.0
100
AcDbArc
 50
100.0
 51
177.938877
  0
ARC
  5
3F4
100
AcDbEntity
  8
LAY-1
  6
CONTINUOUS
 62
     2
100
AcDbCircle
 10
232.692666
 20
-127.727724
 30
0.0
 40
10.0
100
AcDbArc
 50
2.061123
 51
80.0
  0
LINE
  5
3F5
100
AcDbEntity
  8
LAY-1
  6
CONTINUOUS
 62
     2
100
AcDbLine
 10
242.686197
 20
-127.368067
 30
0.0
 11
246.884025
 21
-244.010345
 31
0.0
  0
LINE
  5
3F6
100
AcDbEntity
  8
LAY-1
  6
CONTINUOUS
 62
     2
100
AcDbLine
 10
253.437122
 20
-255.722621
 30
0.0
 11
253.437122
 21
-255.635698
 31
0.0
  0
ARC
  5
3F7
100
AcDbEntity
  8
LAY-1
  6
CONTINUOUS
 62
     2
100
AcDbCircle
 10
254.878849
 20
-243.722621
 30
0.0
 40
8.0
100
AcDbArc
 50
182.061123
 51
270.0
  0
ARC
  5
3F8
100
AcDbEntity
  8
LAY-1
  6
CONTINUOUS
 62
     2
100
AcDbCircle
 10
268.880779
 20
-255.222621
 30
0.0
 40
2.0
100
AcDbArc
 50
180.0
 51
270.0
  0
LINE
  5
3F9
100
AcDbEntity
  8
LAY-1
  6
CONTINUOUS
 62
     2
100
AcDbLine
 10
266.880779
 20
-254.722621
 30
0.0
 11
266.880779
 21
-255.222621
 31
0.0
  0
ARC
  5
3FA
100
AcDbEntity
  8
LAY-1
  6
CONTINUOUS
 62
     2
100
AcDbCircle
 10
263.880779
 20
-254.722621
 30
0.0
 40
3.0
100
AcDbArc
 50
0.0
 51
90.0
  0
ARC
  5
3FB
100
AcDbEntity
  8
LAY-1
  6
CONTINUOUS
 62
     2
100
AcDbCircle
 10
292.937122
 20
-258.222621
 30
0.0
 40
1.0
100
AcDbArc
 50
0.0
 51
90.0
  0
LINE
  5
3FC
100
AcDbEntity
  8
LAY-1
  6
CONTINUOUS
 62
     2
100
AcDbLine
 10
293.937122
 20
-269.422621
 30
0.0
 11
293.937122
 21
-258.222621
 31
0.0
  0
LINE
  5
3FD
100
AcDbEntity
  8
LAY-1
  6
CONTINUOUS
 62
     2
100
AcDbLine
 10
279.437122
 20
-269.722621
 30
0.0
 11
279.437122
 21
-269.422621
 31
0.0
  0
LINE
  5
3FE
100
AcDbEntity
  8
LAY-1
  6
CONTINUOUS
 62
     2
100
AcDbLine
 10
279.437122
 20
-269.722621
 30
0.0
 11
203.937122
 21
-269.722621
 31
0.0
  0
LINE
  5
3FF
100
AcDbEntity
  8
LAY-1
  6
CONTINUOUS
 62
     2
100
AcDbLine
 10
128.437122
 20
-269.722621
 30
0.0
 11
203.937122
 21
-269.722621
 31
0.0
  0
LINE
  5
400
100
AcDbEntity
  8
LAY-1
  6
CONTINUOUS
 62
     2
100
AcDbLine
 10
115.937122
 20
-283.315669
 30
0.0
 11
291.637122
 21
-283.315669
 31
0.0
  0
LINE
  5
401
100
AcDbEntity
  8
LAY-1
  6
CONTINUOUS
 62
     2
100
AcDbLine
 10
178.937122
 20
-312.157883
 30
0.0
 11
178.937122
 21
-312.514398
 31
0.0
  0
ARC
  5
402
100
AcDbEntity
  8
LAY-1
  6
CONTINUOUS
 62
     2
100
AcDbCircle
 10
168.937122
 20
-312.157883
 30
0.0
 40
10.0
100
AcDbArc
 50
0.0
 51
78.870811
  0
LINE
  5
403
100
AcDbEntity
  8
LAY-1
  6
CONTINUOUS
 62
     2
100
AcDbLine
 10
152.669541
 20
-298.766044
 30
0.0
 11
170.867341
 21
-302.345939
 31
0.0
  0
LINE
  5
404
100
AcDbEntity
  8
LAY-1
  6
CONTINUOUS
 62
     2
100
AcDbLine
 10
160.437122
 20
56.184746
 30
0.0
 11
160.437122
 21
56.184331
 31
0.0
  0
LINE
  5
405
100
AcDbEntity
  8
LAY-1
  6
CONTINUOUS
 62
     2
100
AcDbLine
 10
172.437122
 20
56.184331
 30
0.0
 11
172.437122
 21
56.185668
 31
0.0
  0
LINE
  5
406
100
AcDbEntity
  8
LAY-1
  6
CONTINUOUS
 62
     2
100
AcDbLine
 10
203.937122
 20
42.184331
 30
0.0
 11
153.937122
 21
42.184331
 31
0.0
  0
ARC
  5
407
100
AcDbEntity
  8
LAY-1
  6
CONTINUOUS
 62
     2
100
AcDbCircle
 10
158.209881
 20
61.831525
 30
0.0
 40
4.856063
100
AcDbArc
 50
118.708624
 51
124.384247
  0
LINE
  5
408
100
AcDbEntity
  8
LAY-1
  6
CONTINUOUS
 62
     2
100
AcDbLine
 10
155.88964
 20
66.082824
 30
0.0
 11
155.467467
 21
65.839083
 31
0.0
  0
LINE
  5
409
100
AcDbEntity
  8
LAY-1
  6
CONTINUOUS
 62
     2
100
AcDbLine
 10
153.937122
 20
56.184331
 30
0.0
 11
177.404124
 21
56.184331
 31
0.0
  0
LINE
  5
40A
100
AcDbEntity
  8
LAY-1
  6
CONTINUOUS
 62
     2
100
AcDbLine
 10
153.937122
 20
56.184331
 30
0.0
 11
177.404124
 21
56.184331
 31
0.0
  0
LINE
  5
40B
100
AcDbEntity
  8
LAY-1
  6
CONTINUOUS
 62
     2
100
AcDbLine
 10
177.393569
 20
56.187589
 30
0.0
 11
166.437122
 21
56.187589
 31
0.0
  0
LINE
  5
40C
100
AcDbEntity
  8
LAY-1
  6
CONTINUOUS
 62
     2
100
AcDbLine
 10
235.437122
 20
56.184331
 30
0.0
 11
235.437122
 21
56.185668
 31
0.0
  0
LINE
  5
40D
100
AcDbEntity
  8
LAY-1
  6
CONTINUOUS
 62
     2
100
AcDbLine
 10
203.937122
 20
42.184331
 30
0.0
 11
253.937122
 21
42.184331
 31
0.0
  0
LINE
  5
40E
100
AcDbEntity
  8
LAY-1
  6
CONTINUOUS
 62
     2
100
AcDbLine
 10
247.437122
 20
56.184746
 30
0.0
 11
247.437122
 21
56.184331
 31
0.0
  0
LINE
  5
40F
100
AcDbEntity
  8
LAY-1
  6
CONTINUOUS
 62
     2
100
AcDbLine
 10
253.937122
 20
56.184331
 30
0.0
 11
230.470121
 21
56.184331
 31
0.0
  0
LINE
  5
410
100
AcDbEntity
  8
LAY-1
  6
CONTINUOUS
 62
     2
100
AcDbLine
 10
230.480675
 20
56.187589
 30
0.0
 11
241.437122
 21
56.187589
 31
0.0
  0
LINE
  5
411
100
AcDbEntity
  8
LAY-1
  6
CONTINUOUS
 62
     2
100
AcDbLine
 10
154.437122
 20
56.187589
 30
0.0
 11
166.437122
 21
56.187589
 31
0.0
  0
LINE
  5
412
100
AcDbEntity
  8
LAY-1
  6
CONTINUOUS
 62
     2
100
AcDbLine
 10
177.406777
 20
56.187589
 30
0.0
 11
155.467467
 21
56.187589
 31
0.0
  0
LINE
  5
413
100
AcDbEntity
  8
LAY-1
  6
CONTINUOUS
 62
     2
100
AcDbLine
 10
253.437122
 20
56.187589
 30
0.0
 11
241.437122
 21
56.187589
 31
0.0
  0
LINE
  5
414
100
AcDbEntity
  8
LAY-1
  6
CONTINUOUS
 62
     2
100
AcDbLine
 10
230.467467
 20
56.187589
 30
0.0
 11
252.406777
 21
56.187589
 31
0.0
  0
LINE
  5
415
100
AcDbEntity
  8
LAY-1
  6
CONTINUOUS
 62
     2
100
AcDbLine
 10
253.937122
 20
56.184331
 30
0.0
 11
253.937122
 21
42.184331
 31
0.0
  0
LINE
  5
416
100
AcDbEntity
  8
LAY-1
  6
CONTINUOUS
 62
     2
100
AcDbLine
 10
153.937122
 20
56.184331
 30
0.0
 11
153.937122
 21
42.184331
 31
0.0
  0
LINE
  5
417
100
AcDbEntity
  8
LAY-1
  6
CONTINUOUS
 62
     2
100
AcDbLine
 10
253.937122
 20
226.184331
 30
0.0
 11
236.248111
 21
226.184331
 31
0.0
  0
LINE
  5
418
100
AcDbEntity
  8
LAY-1
  6
CONTINUOUS
 62
     2
100
AcDbLine
 10
171.626133
 20
226.184331
 30
0.0
 11
153.937122
 21
226.184331
 31
0.0
  0
LINE
  5
419
100
AcDbEntity
  8
LAY-1
  6
CONTINUOUS
 62
     2
100
AcDbLine
 10
253.937122
 20
241.184331
 30
0.0
 11
153.937122
 21
241.184331
 31
0.0
  0
LINE
  5
41A
100
AcDbEntity
  8
LAY-1
  6
CONTINUOUS
 62
     2
100
AcDbLine
 10
253.937122
 20
226.184331
 30
0.0
 11
253.937122
 21
241.184331
 31
0.0
  0
LINE
  5
41B
100
AcDbEntity
  8
LAY-1
  6
CONTINUOUS
 62
     2
100
AcDbLine
 10
153.937122
 20
226.184331
 30
0.0
 11
153.937122
 21
241.184331
 31
0.0
  0
ARC
  5
41C
100
AcDbEntity
  8
LAY-1
  6
CONTINUOUS
 62
     2
100
AcDbCircle
 10
174.888708
 20
242.184331
 30
0.0
 40
1.001669
100
AcDbArc
 50
270.0
 51
0.0
  0
ARC
  5
41D
100
AcDbEntity
  8
LAY-1
  6
CONTINUOUS
 62
     2
100
AcDbCircle
 10
232.985536
 20
242.184331
 30
0.0
 40
1.001669
100
AcDbArc
 50
180.0
 51
270.0
  0
LINE
  5
41E
100
AcDbEntity
  8
LAY-1
  6
CONTINUOUS
 62
     2
100
AcDbLine
 10
231.983867
 20
242.184331
 30
0.0
 11
175.890378
 21
242.184331
 31
0.0
  0
ARC
  5
41F
100
AcDbEntity
  8
LAY-1
  6
CONTINUOUS
 62
     2
100
AcDbCircle
 10
221.687122
 20
77.184331
 30
0.0
 40
0.8
100
AcDbArc
 50
91.291327
 51
268.708673
  0
ARC
  5
420
100
AcDbEntity
  8
LAY-1
  6
CONTINUOUS
 62
     2
100
AcDbCircle
 10
203.937122
 20
77.184331
 30
0.0
 40
17.75
100
AcDbArc
 50
2.582654
 51
357.417346
  0
CIRCLE
  5
421
100
AcDbEntity
  8
LAY-1
  6
CONTINUOUS
 62
     2
100
AcDbCircle
 10
203.937122
 20
77.184331
 30
0.0
 40
20.0
  0
ARC
  5
422
100
AcDbEntity
  8
LAY-1
  6
CONTINUOUS
 62
     2
100
AcDbCircle
 10
203.937122
 20
142.184331
 30
0.0
 40
62.610759
100
AcDbArc
 50
189.747122
 51
252.035681
  0
ARC
  5
423
100
AcDbEntity
  8
LAY-1
  6
CONTINUOUS
 62
     2
100
AcDbCircle
 10
203.937122
 20
142.184331
 30
0.0
 40
62.610759
100
AcDbArc
 50
289.260349
 51
170.258348
  0
CIRCLE
  5
424
100
AcDbEntity
  8
LAY-1
  6
CONTINUOUS
 62
     2
100
AcDbCircle
 10
203.937122
 20
142.184331
 30
0.0
 40
20.0
  0
CIRCLE
  5
425
100
AcDbEntity
  8
LAY-1
  6
CONTINUOUS
 62
     2
100
AcDbCircle
 10
203.937122
 20
142.184331
 30
0.0
 40
39.028662
  0
ARC
  5
426
100
AcDbEntity
  8
LAY-1
  6
CONTINUOUS
 62
     2
100
AcDbCircle
 10
160.063944
 20
154.184331
 30
0.0
 40
2.0
100
AcDbArc
 50
270.0
 51
344.767608
  0
ARC
  5
427
100
AcDbEntity
  8
LAY-1
  6
CONTINUOUS
 62
     2
100
AcDbCircle
 10
150.641291
 20
131.184331
 30
0.0
 40
2.0
100
AcDbArc
 50
66.443536
 51
90.0
  0
ARC
  5
428
100
AcDbEntity
  8
LAY-1
  6
CONTINUOUS
 62
     2
100
AcDbCircle
 10
150.641291
 20
153.184331
 30
0.0
 40
2.0
100
AcDbArc
 50
270.0
 51
293.556464
  0
LINE
  5
429
100
AcDbEntity
  8
LAY-1
  6
CONTINUOUS
 62
     2
100
AcDbLine
 10
155.437122
 20
152.184331
 30
0.0
 11
160.063944
 21
152.184331
 31
0.0
  0
ARC
  5
42A
100
AcDbEntity
  8
LAY-1
  6
CONTINUOUS
 62
     2
100
AcDbCircle
 10
160.063944
 20
130.184331
 30
0.0
 40
2.0
100
AcDbArc
 50
15.232392
 51
90.0
  0
LINE
  5
42B
100
AcDbEntity
  8
LAY-1
  6
CONTINUOUS
 62
     2
100
AcDbLine
 10
155.437122
 20
132.184331
 30
0.0
 11
160.063944
 21
132.184331
 31
0.0
  0
ARC
  5
42C
100
AcDbEntity
  8
LAY-1
  6
CONTINUOUS
 62
     2
100
AcDbCircle
 10
155.437122
 20
142.184331
 30
0.0
 40
10.0
100
AcDbArc
 50
90.0
 51
270.0
  0
LINE
  5
42D
100
AcDbEntity
  8
LAY-1
  6
CONTINUOUS
 62
     2
100
AcDbLine
 10
150.641291
 20
151.184331
 30
0.0
 11
134.915549
 21
151.184331
 31
0.0
  0
LINE
  5
42E
100
AcDbEntity
  8
LAY-1
  6
CONTINUOUS
 62
     2
100
AcDbLine
 10
150.641291
 20
133.184331
 30
0.0
 11
134.915549
 21
133.184331
 31
0.0
  0
ARC
  5
42F
100
AcDbEntity
  8
LAY-1
  6
CONTINUOUS
 62
     2
100
AcDbCircle
 10
134.915549
 20
131.184331
 30
0.0
 40
2.0
100
AcDbArc
 50
90.0
 51
135.0
  0
LINE
  5
430
100
AcDbEntity
  8
LAY-1
  6
CONTINUOUS
 62
     2
100
AcDbLine
 10
132.672909
 20
131.770118
 30
0.0
 11
133.501336
 21
132.598545
 31
0.0
  0
LINE
  5
431
100
AcDbEntity
  8
LAY-1
  6
CONTINUOUS
 62
     2
100
AcDbLine
 10
133.847881
 20
142.184331
 30
0.0
 11
133.847881
 21
149.423572
 31
0.0
  0
LINE
  5
432
100
AcDbEntity
  8
LAY-1
  6
CONTINUOUS
 62
     2
100
AcDbLine
 10
133.847881
 20
142.184331
 30
0.0
 11
133.847881
 21
134.945091
 31
0.0
  0
LINE
  5
433
100
AcDbEntity
  8
LAY-1
  6
CONTINUOUS
 62
     2
100
AcDbLine
 10
132.087122
 20
142.184331
 30
0.0
 11
132.087122
 21
133.184331
 31
0.0
  0
LINE
  5
434
100
AcDbEntity
  8
LAY-1
  6
CONTINUOUS
 62
     2
100
AcDbLine
 10
132.672909
 20
152.598545
 30
0.0
 11
133.501336
 21
151.770118
 31
0.0
  0
ARC
  5
435
100
AcDbEntity
  8
LAY-1
  6
CONTINUOUS
 62
     2
100
AcDbCircle
 10
134.915549
 20
153.184331
 30
0.0
 40
2.0
100
AcDbArc
 50
225.0
 51
270.0
  0
LINE
  5
436
100
AcDbEntity
  8
LAY-1
  6
CONTINUOUS
 62
     2
100
AcDbLine
 10
114.763009
 20
131.184331
 30
0.0
 11
131.258695
 21
131.184331
 31
0.0
  0
ARC
  5
437
100
AcDbEntity
  8
LAY-1
  6
CONTINUOUS
 62
     2
100
AcDbCircle
 10
131.258695
 20
133.184331
 30
0.0
 40
2.0
100
AcDbArc
 50
270.0
 51
315.0
  0
ARC
  5
438
100
AcDbEntity
  8
LAY-1
  6
CONTINUOUS
 62
     2
100
AcDbCircle
 10
131.258695
 20
151.184331
 30
0.0
 40
2.0
100
AcDbArc
 50
45.0
 51
90.0
  0
LINE
  5
439
100
AcDbEntity
  8
LAY-1
  6
CONTINUOUS
 62
     2
100
AcDbLine
 10
114.763009
 20
153.184331
 30
0.0
 11
131.258695
 21
153.184331
 31
0.0
  0
LINE
  5
43A
100
AcDbEntity
  8
LAY-1
  6
CONTINUOUS
 62
     2
100
AcDbLine
 10
132.087122
 20
151.184331
 30
0.0
 11
132.087122
 21
142.184331
 31
0.0
  0
LINE
  5
43B
100
AcDbEntity
  8
LAY-1
  6
CONTINUOUS
 62
     2
100
AcDbLine
 10
197.28651
 20
130.665133
 30
0.0
 11
210.587735
 21
130.665133
 31
0.0
  0
LINE
  5
43C
100
AcDbEntity
  8
LAY-1
  6
CONTINUOUS
 62
     2
100
AcDbLine
 10
210.587735
 20
130.665133
 30
0.0
 11
217.238347
 21
142.184331
 31
0.0
  0
LINE
  5
43D
100
AcDbEntity
  8
LAY-1
  6
CONTINUOUS
 62
     2
100
AcDbLine
 10
217.238347
 20
142.184331
 30
0.0
 11
210.587735
 21
153.70353
 31
0.0
  0
LINE
  5
43E
100
AcDbEntity
  8
LAY-1
  6
CONTINUOUS
 62
     2
100
AcDbLine
 10
210.587735
 20
153.70353
 30
0.0
 11
197.28651
 21
153.70353
 31
0.0
  0
LINE
  5
43F
100
AcDbEntity
  8
LAY-1
  6
CONTINUOUS
 62
     2
100
AcDbLine
 10
197.28651
 20
153.70353
 30
0.0
 11
190.635897
 21
142.184331
 31
0.0
  0
CIRCLE
  5
440
100
AcDbEntity
  8
LAY-1
  6
CONTINUOUS
 62
     2
100
AcDbCircle
 10
203.937122
 20
142.184331
 30
0.0
 40
90.0
  0
CIRCLE
  5
441
100
AcDbEntity
  8
LAY-1
  6
CONTINUOUS
 62
     2
100
AcDbCircle
 10
203.937122
 20
142.184331
 30
0.0
 40
11.519199
  0
LINE
  5
442
100
AcDbEntity
  8
LAY-1
  6
CONTINUOUS
 62
     2
100
AcDbLine
 10
190.635897
 20
142.184331
 30
0.0
 11
197.28651
 21
130.665133
 31
0.0
  0
LINE
  5
443
100
AcDbEntity
  8
LAY-1
  6
CONTINUOUS
 62
     2
100
AcDbLine
 10
198.937122
 20
240.674331
 30
0.0
 11
208.937122
 21
240.674331
 31
0.0
  0
LINE
  5
444
100
AcDbEntity
  8
LAY-1
  6
CONTINUOUS
 62
     2
100
AcDbLine
 10
198.937122
 20
239.674331
 30
0.0
 11
208.937122
 21
239.674331
 31
0.0
  0
ARC
  5
445
100
AcDbEntity
  8
LAY-1
  6
CONTINUOUS
 62
     2
100
AcDbCircle
 10
208.937122
 20
235.674331
 30
0.0
 40
5.0
100
AcDbArc
 50
309.428275
 51
90.0
  0
ARC
  5
446
100
AcDbEntity
  8
LAY-1
  6
CONTINUOUS
 62
     2
100
AcDbCircle
 10
208.937122
 20
235.674331
 30
0.0
 40
4.0
100
AcDbArc
 50
291.470125
 51
90.0
  0
ARC
  5
447
100
AcDbEntity
  8
LAY-1
  6
CONTINUOUS
 62
     2
100
AcDbCircle
 10
198.937122
 20
235.674331
 30
0.0
 40
5.0
100
AcDbArc
 50
90.0
 51
230.571725
  0
ARC
  5
448
100
AcDbEntity
  8
LAY-1
  6
CONTINUOUS
 62
     2
100
AcDbCircle
 10
198.937122
 20
235.674331
 30
0.0
 40
4.0
100
AcDbArc
 50
90.0
 51
248.529875
  0
ELLIPSE
  5
449
100
AcDbEntity
  8
LAY-1
  6
CONTINUOUS
 62
     2
100
AcDbEllipse
 10
257.737898
 20
150.761411
 30
0.0
 11
2.5447158500361247
 21
-0.2793228285960503
 31
0.0
210
0.0
220
0.0
230
1.0
 40
0.3125
 41
0.0
 42
6.2831853071796004
  0
ELLIPSE
  5
44A
100
AcDbEntity
  8
LAY-1
  6
CONTINUOUS
 62
     2
100
AcDbEllipse
 10
257.737898
 20
150.761411
 30
0.0
 11
4.1351632563086804
 21
-0.4538995964687131
 31
0.0
210
0.0
220
0.0
230
1.0
 40
0.576923
 41
0.0
 42
6.2831853071796004
  0
ELLIPSE
  5
44B
100
AcDbEntity
  8
LAY-1
  6
CONTINUOUS
 62
     2
100
AcDbEllipse
 10
257.908029
 20
134.608702
 30
0.0
 11
2.3594626861142012
 21
-0.9932451020944785
 31
0.0
210
0.0
220
0.0
230
1.0
 40
0.3125
 41
0.0
 42
6.2831853071796004
  0
ELLIPSE
  5
44C
100
AcDbEntity
  8
LAY-1
  6
CONTINUOUS
 62
     2
100
AcDbEllipse
 10
257.908029
 20
134.608702
 30
0.0
 11
3.8341268649355311
 21
-1.6140232909036885
 31
0.0
210
0.0
220
0.0
230
1.0
 40
0.576923
 41
0.0
 42
6.2831853071796004
  0
LINE
  5
44D
100
AcDbEntity
  8
LAY-1
  6
CONTINUOUS
 62
     2
100
AcDbLine
 10
253.474825
 20
132.372806
 30
0.0
 11
253.086209
 21
130.762596
 31
0.0
  0
LINE
  5
44E
100
AcDbEntity
  8
LAY-1
  6
CONTINUOUS
 62
     2
100
AcDbLine
 10
258.021224
 20
119.846164
 30
0.0
 11
258.59569
 21
121.399801
 31
0.0
  0
LINE
  5
44F
100
AcDbEntity
  8
LAY-1
  6
CONTINUOUS
 62
     2
100
AcDbLine
 10
258.59569
 20
121.399801
 30
0.0
 11
251.835613
 21
126.184815
 31
0.0
  0
LINE
  5
450
100
AcDbEntity
  8
LAY-1
  6
CONTINUOUS
 62
     2
100
AcDbLine
 10
251.261147
 20
124.631177
 30
0.0
 11
258.021224
 21
119.846164
 31
0.0
  0
LINE
  5
451
100
AcDbEntity
  8
LAY-1
  6
CONTINUOUS
 62
     2
100
AcDbLine
 10
251.835613
 20
126.184815
 30
0.0
 11
251.261147
 21
124.631177
 31
0.0
  0
LINE
  5
452
100
AcDbEntity
  8
LAY-1
  6
CONTINUOUS
 62
     2
100
AcDbLine
 10
259.597388
 20
160.469464
 30
0.0
 11
258.994077
 21
162.012129
 31
0.0
  0
LINE
  5
453
100
AcDbEntity
  8
LAY-1
  6
CONTINUOUS
 62
     2
100
AcDbLine
 10
250.762835
 20
161.094715
 30
0.0
 11
251.366146
 21
159.55205
 31
0.0
  0
LINE
  5
454
100
AcDbEntity
  8
LAY-1
  6
CONTINUOUS
 62
     2
100
AcDbLine
 10
258.994077
 20
162.012129
 30
0.0
 11
250.762835
 21
161.094715
 31
0.0
  0
LINE
  5
455
100
AcDbEntity
  8
LAY-1
  6
CONTINUOUS
 62
     2
100
AcDbLine
 10
251.366146
 20
159.55205
 30
0.0
 11
259.597388
 21
160.469464
 31
0.0
  0
LINE
  5
456
100
AcDbEntity
  8
LAY-1
  6
CONTINUOUS
 62
     2
100
AcDbLine
 10
261.433561
 20
153.949718
 30
0.0
 11
259.856964
 21
159.358761
 31
0.0
  0
LINE
  5
457
100
AcDbEntity
  8
LAY-1
  6
CONTINUOUS
 62
     2
100
AcDbLine
 10
259.777514
 20
153.913582
 30
0.0
 11
261.433561
 21
153.949718
 31
0.0
  0
LINE
  5
458
100
AcDbEntity
  8
LAY-1
  6
CONTINUOUS
 62
     2
100
AcDbLine
 10
259.243841
 20
155.744525
 30
0.0
 11
259.777514
 21
153.913582
 31
0.0
  0
LINE
  5
459
100
AcDbEntity
  8
LAY-1
  6
CONTINUOUS
 62
     2
100
AcDbLine
 10
258.200917
 20
159.322625
 30
0.0
 11
258.780319
 21
157.334792
 31
0.0
  0
LINE
  5
45A
100
AcDbEntity
  8
LAY-1
  6
CONTINUOUS
 62
     2
100
AcDbLine
 10
259.856964
 20
159.358761
 30
0.0
 11
258.200917
 21
159.322625
 31
0.0
  0
LINE
  5
45B
100
AcDbEntity
  8
LAY-1
  6
CONTINUOUS
 62
     2
100
AcDbLine
 10
252.156128
 20
157.190246
 30
0.0
 11
252.61965
 21
155.59998
 31
0.0
  0
LINE
  5
45C
100
AcDbEntity
  8
LAY-1
  6
CONTINUOUS
 62
     2
100
AcDbLine
 10
258.780319
 20
157.334792
 30
0.0
 11
252.156128
 21
157.190246
 31
0.0
  0
LINE
  5
45D
100
AcDbEntity
  8
LAY-1
  6
CONTINUOUS
 62
     2
100
AcDbLine
 10
252.61965
 20
155.59998
 30
0.0
 11
259.243841
 21
155.744525
 31
0.0
  0
LINE
  5
45E
100
AcDbEntity
  8
LAY-1
  6
CONTINUOUS
 62
     2
100
AcDbLine
 10
260.360021
 20
126.801959
 30
0.0
 11
260.748637
 21
128.412169
 31
0.0
  0
LINE
  5
45F
100
AcDbEntity
  8
LAY-1
  6
CONTINUOUS
 62
     2
100
AcDbLine
 10
259.950301
 20
125.104304
 30
0.0
 11
259.483058
 21
123.168307
 31
0.0
  0
LINE
  5
460
100
AcDbEntity
  8
LAY-1
  6
CONTINUOUS
 62
     2
100
AcDbLine
 10
257.086806
 20
128.584245
 30
0.0
 11
260.360021
 21
126.801959
 31
0.0
  0
LINE
  5
461
100
AcDbEntity
  8
LAY-1
  6
CONTINUOUS
 62
     2
100
AcDbLine
 10
257.086806
 20
128.584245
 30
0.0
 11
259.950301
 21
125.104304
 31
0.0
  0
LINE
  5
462
100
AcDbEntity
  8
LAY-1
  6
CONTINUOUS
 62
     2
100
AcDbLine
 10
259.483058
 20
123.168307
 30
0.0
 11
256.177279
 21
127.17208
 31
0.0
  0
LINE
  5
463
100
AcDbEntity
  8
LAY-1
  6
CONTINUOUS
 62
     2
100
AcDbLine
 10
252.201733
 20
127.097815
 30
0.0
 11
256.176978
 21
127.171831
 31
0.0
  0
LINE
  5
464
100
AcDbEntity
  8
LAY-1
  6
CONTINUOUS
 62
     2
100
AcDbLine
 10
256.723115
 20
128.782277
 30
0.0
 11
252.589695
 21
128.705316
 31
0.0
  0
LINE
  5
465
100
AcDbEntity
  8
LAY-1
  6
CONTINUOUS
 62
     2
100
AcDbLine
 10
252.589695
 20
128.705316
 30
0.0
 11
252.201733
 21
127.097815
 31
0.0
  0
LINE
  5
466
100
AcDbEntity
  8
LAY-1
  6
CONTINUOUS
 62
     2
100
AcDbLine
 10
253.086209
 20
130.762596
 30
0.0
 11
256.723115
 21
128.782277
 31
0.0
  0
LINE
  5
467
100
AcDbEntity
  8
LAY-1
  6
CONTINUOUS
 62
     2
100
AcDbLine
 10
260.748637
 20
128.412169
 30
0.0
 11
253.474825
 21
132.372806
 31
0.0
  0
LINE
  5
468
100
AcDbEntity
  8
LAY-1
  6
CONTINUOUS
 62
     2
100
AcDbLine
 10
258.837122
 20
141.923828
 30
0.0
 11
262.437122
 21
140.95921
 31
0.0
  0
LINE
  5
469
100
AcDbEntity
  8
LAY-1
  6
CONTINUOUS
 62
     2
100
AcDbLine
 10
254.437122
 20
144.759246
 30
0.0
 11
254.437122
 21
143.102804
 31
0.0
  0
LINE
  5
46A
100
AcDbEntity
  8
LAY-1
  6
CONTINUOUS
 62
     2
100
AcDbLine
 10
254.437122
 20
139.332802
 30
0.0
 11
258.284053
 21
140.33738
 31
0.0
  0
LINE
  5
46B
100
AcDbEntity
  8
LAY-1
  6
CONTINUOUS
 62
     2
100
AcDbLine
 10
258.437122
 20
142.031007
 30
0.0
 11
254.437122
 21
140.986457
 31
0.0
  0
LINE
  5
46C
100
AcDbEntity
  8
LAY-1
  6
CONTINUOUS
 62
     2
100
AcDbLine
 10
258.837122
 20
141.923828
 30
0.0
 11
262.437122
 21
139.212813
 31
0.0
  0
LINE
  5
46D
100
AcDbEntity
  8
LAY-1
  6
CONTINUOUS
 62
     2
100
AcDbLine
 10
262.437122
 20
142.615652
 30
0.0
 11
254.437122
 21
144.759246
 31
0.0
  0
LINE
  5
46E
100
AcDbEntity
  8
LAY-1
  6
CONTINUOUS
 62
     2
100
AcDbLine
 10
262.437122
 20
140.95921
 30
0.0
 11
262.437122
 21
142.615652
 31
0.0
  0
LINE
  5
46F
100
AcDbEntity
  8
LAY-1
  6
CONTINUOUS
 62
     2
100
AcDbLine
 10
262.437122
 20
139.212813
 30
0.0
 11
262.437122
 21
137.221231
 31
0.0
  0
LINE
  5
470
100
AcDbEntity
  8
LAY-1
  6
CONTINUOUS
 62
     2
100
AcDbLine
 10
254.437122
 20
140.986457
 30
0.0
 11
254.437122
 21
139.332802
 31
0.0
  0
LINE
  5
471
100
AcDbEntity
  8
LAY-1
  6
CONTINUOUS
 62
     2
100
AcDbLine
 10
262.437122
 20
137.221231
 30
0.0
 11
258.284287
 21
140.337692
 31
0.0
  0
LINE
  5
472
100
AcDbEntity
  8
LAY-1
  6
CONTINUOUS
 62
     2
100
AcDbLine
 10
254.437122
 20
143.102804
 30
0.0
 11
258.437122
 21
142.031007
 31
0.0
  0
LINE
  5
473
100
AcDbEntity
  8
LAY-1
  6
CONTINUOUS
 62
     3
100
AcDbLine
 10
-86.378872
 20
115.934331
 30
0.0
 11
-86.378872
 21
168.434331
 31
0.0
  0
LINE
  5
474
100
AcDbEntity
  8
LAY-1
  6
CONTINUOUS
 62
     3
100
AcDbLine
 10
494.253116
 20
115.934331
 30
0.0
 11
494.253116
 21
168.434331
 31
0.0
  0
LINE
  5
475
100
AcDbEntity
  8
LAY-1
  6
CONTINUOUS
 62
     3
100
AcDbLine
 10
177.687122
 20
401.500325
 30
0.0
 11
230.187122
 21
401.500325
 31
0.0
  0
LINE
  5
476
100
AcDbEntity
  8
LAY-1
  6
CONTINUOUS
 62
     3
100
AcDbLine
 10
230.187122
 20
-117.131663
 30
0.0
 11
177.687122
 21
-117.131663
 31
0.0
  0
LINE
  5
477
100
AcDbEntity
  8
LAY-1
  6
CONTINUOUS
 62
     1
100
AcDbLine
 10
246.437122
 20
56.184331
 30
0.0
 11
246.437122
 21
56.1849
 31
0.0
  0
LINE
  5
478
100
AcDbEntity
  8
LAY-1
  6
CONTINUOUS
 62
     1
100
AcDbLine
 10
236.437122
 20
56.185668
 30
0.0
 11
236.437122
 21
56.184331
 31
0.0
  0
LINE
  5
479
100
AcDbEntity
  8
LAY-1
  6
CONTINUOUS
 62
     1
100
AcDbLine
 10
171.437122
 20
56.185668
 30
0.0
 11
171.437122
 21
56.184331
 31
0.0
  0
LINE
  5
47A
100
AcDbEntity
  8
LAY-1
  6
CONTINUOUS
 62
     1
100
AcDbLine
 10
161.437122
 20
56.184331
 30
0.0
 11
161.437122
 21
56.1849
 31
0.0
  0
LINE
  5
47B
100
AcDbEntity
  8
LAY-1
  6
EXLTYPE2
 62
     1
100
AcDbLine
 10
225.894244
 20
-116.624712
 30
0.0
 11
230.187122
 21
-117.381663
 31
0.0
  0
LINE
  5
47C
100
AcDbEntity
  8
LAY-1
  6
EXLTYPE2
 62
     1
100
AcDbLine
 10
223.970824
 20
-106.937721
 30
0.0
 11
224.242758
 21
-114.724896
 31
0.0
  0
ARC
  5
47D
100
AcDbEntity
  8
LAY-1
  6
EXLTYPE2
 62
     1
100
AcDbCircle
 10
226.24154
 20
-114.655097
 30
0.0
 40
2.0
100
AcDbArc
 50
182.0
 51
260.0
  0
ARC
  5
47E
100
AcDbEntity
  8
LAY-1
  6
EXLTYPE2
 62
     1
100
AcDbCircle
 10
184.902811
 20
-106.972621
 30
0.0
 40
1.0
100
AcDbArc
 50
90.0
 51
178.0
  0
LINE
  5
47F
100
AcDbEntity
  8
LAY-1
  6
EXLTYPE2
 62
     1
100
AcDbLine
 10
203.937122
 20
-105.972621
 30
0.0
 11
184.902807
 21
-105.972621
 31
0.0
  0
ARC
  5
480
100
AcDbEntity
  8
LAY-1
  6
EXLTYPE2
 62
     1
100
AcDbCircle
 10
222.971433
 20
-106.972621
 30
0.0
 40
1.0
100
AcDbArc
 50
2.0
 51
90.0
  0
LINE
  5
481
100
AcDbEntity
  8
LAY-1
  6
EXLTYPE2
 62
     1
100
AcDbLine
 10
203.937122
 20
-105.972621
 30
0.0
 11
222.971438
 21
-105.972621
 31
0.0
  0
LINE
  5
482
100
AcDbEntity
  8
LAY-1
  6
EXLTYPE2
 62
     1
100
AcDbLine
 10
183.90342
 20
-106.937721
 30
0.0
 11
183.631486
 21
-114.724896
 31
0.0
  0
ARC
  5
483
100
AcDbEntity
  8
LAY-1
  6
EXLTYPE2
 62
     1
100
AcDbCircle
 10
181.632704
 20
-114.655097
 30
0.0
 40
2.0
100
AcDbArc
 50
280.0
 51
358.0
  0
LINE
  5
484
100
AcDbEntity
  8
LAY-1
  6
EXLTYPE2
 62
     1
100
AcDbLine
 10
181.980001
 20
-116.624712
 30
0.0
 11
177.687122
 21
-117.381663
 31
0.0
  0
LINE
  5
485
100
AcDbEntity
  8
LAY-1
  6
EXLTYPE2
 62
     1
100
AcDbLine
 10
191.237122
 20
-105.972621
 30
0.0
 11
191.237122
 21
-96.242791
 31
0.0
  0
LINE
  5
486
100
AcDbEntity
  8
LAY-1
  6
EXLTYPE2
 62
     1
100
AcDbLine
 10
193.437122
 20
-94.972621
 30
0.0
 11
214.437122
 21
-94.972621
 31
0.0
  0
LINE
  5
487
100
AcDbEntity
  8
LAY-1
  6
EXLTYPE2
 62
     1
100
AcDbLine
 10
216.637122
 20
-96.242791
 30
0.0
 11
216.637122
 21
-105.972621
 31
0.0
  0
LINE
  5
488
100
AcDbEntity
  8
LAY-1
  6
EXLTYPE2
 62
     1
100
AcDbLine
 10
197.586269
 20
-96.242791
 30
0.0
 11
197.586269
 21
-105.972621
 31
0.0
  0
ARC
  5
489
100
AcDbEntity
  8
LAY-1
  6
EXLTYPE2
 62
     1
100
AcDbCircle
 10
203.937122
 20
-111.484838
 30
0.0
 40
16.512218
100
AcDbArc
 50
67.380135
 51
112.619865
  0
LINE
  5
48A
100
AcDbEntity
  8
LAY-1
  6
EXLTYPE2
 62
     1
100
AcDbLine
 10
214.437122
 20
-94.972621
 30
0.0
 11
216.637122
 21
-96.242791
 31
0.0
  0
LINE
  5
48B
100
AcDbEntity
  8
LAY-1
  6
EXLTYPE2
 62
     1
100
AcDbLine
 10
210.287975
 20
-96.242791
 30
0.0
 11
210.287975
 21
-105.972621
 31
0.0
  0
LINE
  5
48C
100
AcDbEntity
  8
LAY-1
  6
EXLTYPE2
 62
     1
100
AcDbLine
 10
193.437122
 20
-94.972621
 30
0.0
 11
191.237122
 21
-96.242791
 31
0.0
  0
ARC
  5
48D
100
AcDbEntity
  8
LAY-1
  6
EXLTYPE2
 62
     1
100
AcDbCircle
 10
193.437122
 20
-102.39333
 30
0.0
 40
7.419201
100
AcDbArc
 50
55.996439
 51
90.0
  0
ARC
  5
48E
100
AcDbEntity
  8
LAY-1
  6
EXLTYPE2
 62
     1
100
AcDbCircle
 10
214.437122
 20
-102.39333
 30
0.0
 40
7.419201
100
AcDbArc
 50
90.0
 51
124.003561
  0
LINE
  5
48F
100
AcDbEntity
  8
LAY-1
  6
EXLTYPE2
 62
     1
100
AcDbLine
 10
210.937122
 20
-94.950356
 30
0.0
 11
210.937122
 21
-70.065669
 31
0.0
  0
LINE
  5
490
100
AcDbEntity
  8
LAY-1
  6
EXLTYPE2
 62
     1
100
AcDbLine
 10
196.937122
 20
-70.065669
 30
0.0
 11
196.937122
 21
-94.891385
 31
0.0
  0
LINE
  5
491
100
AcDbEntity
  8
LAY-1
  6
EXLTYPE2
 62
     1
100
AcDbLine
 10
191.908621
 20
-69.630642
 30
0.0
 11
191.908621
 21
-69.62125
 31
0.0
  0
LINE
  5
492
100
AcDbEntity
  8
LAY-1
  6
EXLTYPE2
 62
     1
100
AcDbLine
 10
192.937122
 20
-70.065669
 30
0.0
 11
191.237122
 21
-69.346617
 31
0.0
  0
ARC
  5
493
100
AcDbEntity
  8
LAY-1
  6
EXLTYPE2
 62
     1
100
AcDbCircle
 10
194.412122
 20
-62.792088
 30
0.0
 40
7.273581
100
AcDbArc
 50
247.07303
 51
295.881497
  0
LINE
  5
494
100
AcDbEntity
  8
LAY-1
  6
EXLTYPE2
 62
     1
100
AcDbLine
 10
191.908621
 20
-69.630642
 30
0.0
 11
191.908621
 21
-69.62125
 31
0.0
  0
LINE
  5
495
100
AcDbEntity
  8
LAY-1
  6
EXLTYPE2
 62
     1
100
AcDbLine
 10
191.908621
 20
-69.62125
 30
0.0
 11
191.908621
 21
-69.630642
 31
0.0
  0
ARC
  5
496
100
AcDbEntity
  8
LAY-1
  6
EXLTYPE2
 62
     1
100
AcDbCircle
 10
213.462122
 20
-62.792088
 30
0.0
 40
7.273581
100
AcDbArc
 50
244.118503
 51
295.881497
  0
LINE
  5
497
100
AcDbEntity
  8
LAY-1
  6
EXLTYPE2
 62
     1
100
AcDbLine
 10
214.937122
 20
-70.065669
 30
0.0
 11
216.637122
 21
-69.346617
 31
0.0
  0
LINE
  5
498
100
AcDbEntity
  8
LAY-1
  6
EXLTYPE2
 62
     1
100
AcDbLine
 10
215.965623
 20
-69.630642
 30
0.0
 11
215.965623
 21
-69.62125
 31
0.0
  0
LINE
  5
499
100
AcDbEntity
  8
LAY-1
  6
EXLTYPE2
 62
     1
100
AcDbLine
 10
215.965623
 20
-69.62125
 30
0.0
 11
215.965623
 21
-69.630642
 31
0.0
  0
LINE
  5
49A
100
AcDbEntity
  8
LAY-1
  6
EXLTYPE2
 62
     1
100
AcDbLine
 10
216.637122
 20
-61.78472
 30
0.0
 11
216.637122
 21
-69.346617
 31
0.0
  0
LINE
  5
49B
100
AcDbEntity
  8
LAY-1
  6
EXLTYPE2
 62
     1
100
AcDbLine
 10
214.937122
 20
-61.065669
 30
0.0
 11
216.637122
 21
-61.78472
 31
0.0
  0
ARC
  5
49C
100
AcDbEntity
  8
LAY-1
  6
EXLTYPE2
 62
     1
100
AcDbCircle
 10
213.462122
 20
-68.339249
 30
0.0
 40
7.273581
100
AcDbArc
 50
64.118503
 51
115.881497
  0
LINE
  5
49D
100
AcDbEntity
  8
LAY-1
  6
EXLTYPE2
 62
     1
100
AcDbLine
 10
214.937122
 20
-70.065669
 30
0.0
 11
192.937122
 21
-70.065669
 31
0.0
  0
LINE
  5
49E
100
AcDbEntity
  8
LAY-1
  6
EXLTYPE2
 62
     1
100
AcDbLine
 10
192.937122
 20
-61.065669
 30
0.0
 11
214.937122
 21
-61.065669
 31
0.0
  0
LINE
  5
49F
100
AcDbEntity
  8
LAY-1
  6
EXLTYPE2
 62
     1
100
AcDbLine
 10
191.237122
 20
-69.322824
 30
0.0
 11
191.237122
 21
-61.78472
 31
0.0
  0
ARC
  5
4A0
100
AcDbEntity
  8
LAY-1
  6
EXLTYPE2
 62
     1
100
AcDbCircle
 10
203.937122
 20
-89.065669
 30
0.0
 40
28.0
100
AcDbArc
 50
76.892093
 51
103.107907
  0
LINE
  5
4A1
100
AcDbEntity
  8
LAY-1
  6
EXLTYPE2
 62
     1
100
AcDbLine
 10
192.937122
 20
-61.065669
 30
0.0
 11
191.212303
 21
-61.795218
 31
0.0
  0
ARC
  5
4A2
100
AcDbEntity
  8
LAY-1
  6
EXLTYPE2
 62
     1
100
AcDbCircle
 10
194.412122
 20
-68.339249
 30
0.0
 40
7.273581
100
AcDbArc
 50
64.118503
 51
116.120405
  0
LINE
  5
4A3
100
AcDbEntity
  8
LAY-1
  6
EXLTYPE2
 62
     1
100
AcDbLine
 10
210.287122
 20
-61.795218
 30
0.0
 11
210.287122
 21
-69.33612
 31
0.0
  0
LINE
  5
4A4
100
AcDbEntity
  8
LAY-1
  6
EXLTYPE2
 62
     1
100
AcDbLine
 10
197.587122
 20
-61.795218
 30
0.0
 11
197.587122
 21
-69.33612
 31
0.0
  0
LINE
  5
4A5
100
AcDbEntity
  8
LAY-1
  6
EXLTYPE2
 62
     1
100
AcDbLine
 10
192.937122
 20
-70.065669
 30
0.0
 11
214.937122
 21
-70.065669
 31
0.0
  0
ARC
  5
4A6
100
AcDbEntity
  8
LAY-1
  6
EXLTYPE2
 62
     1
100
AcDbCircle
 10
203.937122
 20
-42.065669
 30
0.0
 40
28.0
100
AcDbArc
 50
256.892093
 51
283.107907
  0
ARC
  5
4A7
100
AcDbEntity
  8
LAY-1
  6
EXLTYPE2
 62
     1
100
AcDbCircle
 10
-11.062878
 20
142.184331
 30
0.0
 40
28.0
100
AcDbArc
 50
166.892093
 51
193.107907
  0
LINE
  5
4A8
100
AcDbEntity
  8
LAY-1
  6
EXLTYPE2
 62
     1
100
AcDbLine
 10
-39.062878
 20
153.184331
 30
0.0
 11
-39.062878
 21
131.184331
 31
0.0
  0
LINE
  5
4A9
100
AcDbEntity
  8
LAY-1
  6
EXLTYPE2
 62
     1
100
AcDbLine
 10
-30.792427
 20
148.534331
 30
0.0
 11
-38.333329
 21
148.534331
 31
0.0
  0
LINE
  5
4AA
100
AcDbEntity
  8
LAY-1
  6
EXLTYPE2
 62
     1
100
AcDbLine
 10
-30.792427
 20
135.834331
 30
0.0
 11
-38.333329
 21
135.834331
 31
0.0
  0
ARC
  5
4AB
100
AcDbEntity
  8
LAY-1
  6
EXLTYPE2
 62
     1
100
AcDbCircle
 10
-37.336459
 20
151.709331
 30
0.0
 40
7.273581
100
AcDbArc
 50
334.118503
 51
26.120405
  0
LINE
  5
4AC
100
AcDbEntity
  8
LAY-1
  6
EXLTYPE2
 62
     1
100
AcDbLine
 10
-30.062878
 20
153.184331
 30
0.0
 11
-30.792427
 21
154.90915
 31
0.0
  0
ARC
  5
4AD
100
AcDbEntity
  8
LAY-1
  6
EXLTYPE2
 62
     1
100
AcDbCircle
 10
-58.062878
 20
142.184331
 30
0.0
 40
28.0
100
AcDbArc
 50
346.892093
 51
13.107907
  0
LINE
  5
4AE
100
AcDbEntity
  8
LAY-1
  6
EXLTYPE2
 62
     1
100
AcDbLine
 10
-38.320033
 20
154.884331
 30
0.0
 11
-30.781929
 21
154.884331
 31
0.0
  0
LINE
  5
4AF
100
AcDbEntity
  8
LAY-1
  6
EXLTYPE2
 62
     1
100
AcDbLine
 10
-30.062878
 20
153.184331
 30
0.0
 11
-30.062878
 21
131.184331
 31
0.0
  0
LINE
  5
4B0
100
AcDbEntity
  8
LAY-1
  6
EXLTYPE2
 62
     1
100
AcDbLine
 10
-39.062878
 20
131.184331
 30
0.0
 11
-39.062878
 21
153.184331
 31
0.0
  0
ARC
  5
4B1
100
AcDbEntity
  8
LAY-1
  6
EXLTYPE2
 62
     1
100
AcDbCircle
 10
-37.336459
 20
132.659331
 30
0.0
 40
7.273581
100
AcDbArc
 50
334.118503
 51
25.881497
  0
LINE
  5
4B2
100
AcDbEntity
  8
LAY-1
  6
EXLTYPE2
 62
     1
100
AcDbLine
 10
-30.062878
 20
131.184331
 30
0.0
 11
-30.781929
 21
129.484331
 31
0.0
  0
LINE
  5
4B3
100
AcDbEntity
  8
LAY-1
  6
EXLTYPE2
 62
     1
100
AcDbLine
 10
-30.781929
 20
129.484331
 30
0.0
 11
-38.343826
 21
129.484331
 31
0.0
  0
LINE
  5
4B4
100
AcDbEntity
  8
LAY-1
  6
EXLTYPE2
 62
     1
100
AcDbLine
 10
-38.61846
 20
130.155831
 30
0.0
 11
-38.627851
 21
130.155831
 31
0.0
  0
LINE
  5
4B5
100
AcDbEntity
  8
LAY-1
  6
EXLTYPE2
 62
     1
100
AcDbLine
 10
-38.627851
 20
130.155831
 30
0.0
 11
-38.61846
 21
130.155831
 31
0.0
  0
LINE
  5
4B6
100
AcDbEntity
  8
LAY-1
  6
EXLTYPE2
 62
     1
100
AcDbLine
 10
-39.062878
 20
131.184331
 30
0.0
 11
-38.343826
 21
129.484331
 31
0.0
  0
ARC
  5
4B7
100
AcDbEntity
  8
LAY-1
  6
EXLTYPE2
 62
     1
100
AcDbCircle
 10
-31.789297
 20
132.659331
 30
0.0
 40
7.273581
100
AcDbArc
 50
154.118503
 51
205.881497
  0
LINE
  5
4B8
100
AcDbEntity
  8
LAY-1
  6
EXLTYPE2
 62
     1
100
AcDbLine
 10
-38.61846
 20
154.212832
 30
0.0
 11
-38.627851
 21
154.212832
 31
0.0
  0
LINE
  5
4B9
100
AcDbEntity
  8
LAY-1
  6
EXLTYPE2
 62
     1
100
AcDbLine
 10
-38.627851
 20
154.212832
 30
0.0
 11
-38.61846
 21
154.212832
 31
0.0
  0
ARC
  5
4BA
100
AcDbEntity
  8
LAY-1
  6
EXLTYPE2
 62
     1
100
AcDbCircle
 10
-31.789297
 20
151.709331
 30
0.0
 40
7.273581
100
AcDbArc
 50
157.07303
 51
205.881497
  0
LINE
  5
4BB
100
AcDbEntity
  8
LAY-1
  6
EXLTYPE2
 62
     1
100
AcDbLine
 10
-39.062878
 20
153.184331
 30
0.0
 11
-38.343826
 21
154.884331
 31
0.0
  0
LINE
  5
4BC
100
AcDbEntity
  8
LAY-1
  6
EXLTYPE2
 62
     1
100
AcDbLine
 10
-38.627851
 20
154.212832
 30
0.0
 11
-38.61846
 21
154.212832
 31
0.0
  0
LINE
  5
4BD
100
AcDbEntity
  8
LAY-1
  6
EXLTYPE2
 62
     1
100
AcDbLine
 10
-39.062878
 20
149.184331
 30
0.0
 11
-63.888594
 21
149.184331
 31
0.0
  0
LINE
  5
4BE
100
AcDbEntity
  8
LAY-1
  6
EXLTYPE2
 62
     1
100
AcDbLine
 10
-63.947565
 20
135.184331
 30
0.0
 11
-39.062878
 21
135.184331
 31
0.0
  0
ARC
  5
4BF
100
AcDbEntity
  8
LAY-1
  6
EXLTYPE2
 62
     1
100
AcDbCircle
 10
-71.390539
 20
131.684331
 30
0.0
 40
7.419201
100
AcDbArc
 50
0.0
 51
34.003561
  0
ARC
  5
4C0
100
AcDbEntity
  8
LAY-1
  6
EXLTYPE2
 62
     1
100
AcDbCircle
 10
-71.390539
 20
152.684331
 30
0.0
 40
7.419201
100
AcDbArc
 50
325.996439
 51
0.0
  0
LINE
  5
4C1
100
AcDbEntity
  8
LAY-1
  6
EXLTYPE2
 62
     1
100
AcDbLine
 10
-63.96983
 20
152.684331
 30
0.0
 11
-65.24
 21
154.884331
 31
0.0
  0
LINE
  5
4C2
100
AcDbEntity
  8
LAY-1
  6
EXLTYPE2
 62
     1
100
AcDbLine
 10
-65.24
 20
135.833478
 30
0.0
 11
-74.96983
 21
135.833478
 31
0.0
  0
LINE
  5
4C3
100
AcDbEntity
  8
LAY-1
  6
EXLTYPE2
 62
     1
100
AcDbLine
 10
-63.96983
 20
131.684331
 30
0.0
 11
-65.24
 21
129.484331
 31
0.0
  0
ARC
  5
4C4
100
AcDbEntity
  8
LAY-1
  6
EXLTYPE2
 62
     1
100
AcDbCircle
 10
-80.482047
 20
142.184331
 30
0.0
 40
16.512218
100
AcDbArc
 50
337.380135
 51
22.619865
  0
LINE
  5
4C5
100
AcDbEntity
  8
LAY-1
  6
EXLTYPE2
 62
     1
100
AcDbLine
 10
-65.24
 20
148.535184
 30
0.0
 11
-74.96983
 21
148.535184
 31
0.0
  0
LINE
  5
4C6
100
AcDbEntity
  8
LAY-1
  6
EXLTYPE2
 62
     1
100
AcDbLine
 10
-65.24
 20
129.484331
 30
0.0
 11
-74.96983
 21
129.484331
 31
0.0
  0
LINE
  5
4C7
100
AcDbEntity
  8
LAY-1
  6
EXLTYPE2
 62
     1
100
AcDbLine
 10
-63.96983
 20
152.684331
 30
0.0
 11
-63.96983
 21
131.684331
 31
0.0
  0
LINE
  5
4C8
100
AcDbEntity
  8
LAY-1
  6
EXLTYPE2
 62
     1
100
AcDbLine
 10
-74.96983
 20
154.884331
 30
0.0
 11
-65.24
 21
154.884331
 31
0.0
  0
LINE
  5
4C9
100
AcDbEntity
  8
LAY-1
  6
EXLTYPE2
 62
     1
100
AcDbLine
 10
-85.621921
 20
164.141453
 30
0.0
 11
-86.378872
 21
168.434331
 31
0.0
  0
ARC
  5
4CA
100
AcDbEntity
  8
LAY-1
  6
EXLTYPE2
 62
     1
100
AcDbCircle
 10
-83.652306
 20
164.488749
 30
0.0
 40
2.0
100
AcDbArc
 50
190.0
 51
268.0
  0
LINE
  5
4CB
100
AcDbEntity
  8
LAY-1
  6
EXLTYPE2
 62
     1
100
AcDbLine
 10
-75.93493
 20
162.218034
 30
0.0
 11
-83.722105
 21
162.489968
 31
0.0
  0
LINE
  5
4CC
100
AcDbEntity
  8
LAY-1
  6
EXLTYPE2
 62
     1
100
AcDbLine
 10
-74.96983
 20
142.184331
 30
0.0
 11
-74.96983
 21
123.150016
 31
0.0
  0
ARC
  5
4CD
100
AcDbEntity
  8
LAY-1
  6
EXLTYPE2
 62
     1
100
AcDbCircle
 10
-75.96983
 20
123.15002
 30
0.0
 40
1.0
100
AcDbArc
 50
272.0
 51
0.0
  0
LINE
  5
4CE
100
AcDbEntity
  8
LAY-1
  6
EXLTYPE2
 62
     1
100
AcDbLine
 10
-74.96983
 20
142.184331
 30
0.0
 11
-74.96983
 21
161.218647
 31
0.0
  0
ARC
  5
4CF
100
AcDbEntity
  8
LAY-1
  6
EXLTYPE2
 62
     1
100
AcDbCircle
 10
-75.96983
 20
161.218643
 30
0.0
 40
1.0
100
AcDbArc
 50
0.0
 51
88.0
  0
ARC
  5
4D0
100
AcDbEntity
  8
LAY-1
  6
EXLTYPE2
 62
     1
100
AcDbCircle
 10
-83.652306
 20
119.879914
 30
0.0
 40
2.0
100
AcDbArc
 50
92.0
 51
170.0
  0
LINE
  5
4D1
100
AcDbEntity
  8
LAY-1
  6
EXLTYPE2
 62
     1
100
AcDbLine
 10
-75.93493
 20
122.150629
 30
0.0
 11
-83.722105
 21
121.878695
 31
0.0
  0
LINE
  5
4D2
100
AcDbEntity
  8
LAY-1
  6
EXLTYPE2
 62
     1
100
AcDbLine
 10
-85.621921
 20
120.22721
 30
0.0
 11
-86.378872
 21
115.934331
 31
0.0
  0
LINE
  5
4D3
100
AcDbEntity
  8
LAY-1
  6
EXLTYPE4
 62
     1
100
AcDbLine
 10
-268.54928
 20
94.11455
 30
0.0
 11
-271.5001
 21
109.11455
 31
0.0
  0
ARC
  5
4D4
100
AcDbEntity
  8
LAY-1
  6
EXLTYPE4
 62
     1
100
AcDbCircle
 10
-421.062878
 20
142.184331
 30
0.0
 40
127.0
100
AcDbArc
 50
338.450885
 51
345.198299
  0
ARC
  5
4D5
100
AcDbEntity
  8
LAY-1
  6
EXLTYPE4
 62
     1
100
AcDbCircle
 10
-288.609112
 20
107.184331
 30
0.0
 40
10.0
100
AcDbArc
 50
90.0
 51
165.198299
  0
LINE
  5
4D6
100
AcDbEntity
  8
LAY-1
  6
EXLTYPE4
 62
     1
100
AcDbLine
 10
-281.312045
 20
117.184331
 30
0.0
 11
-288.609112
 21
117.184331
 31
0.0
  0
ARC
  5
4D7
100
AcDbEntity
  8
LAY-1
  6
EXLTYPE4
 62
     1
100
AcDbCircle
 10
-281.312045
 20
107.184331
 30
0.0
 40
10.0
100
AcDbArc
 50
11.129189
 51
90.0
  0
ARC
  5
4D8
100
AcDbEntity
  8
LAY-1
  6
EXLTYPE4
 62
     1
100
AcDbCircle
 10
-421.062878
 20
142.184331
 30
0.0
 40
127.0
100
AcDbArc
 50
14.801701
 51
21.549115
  0
LINE
  5
4D9
100
AcDbEntity
  8
LAY-1
  6
EXLTYPE4
 62
     1
100
AcDbLine
 10
-281.312045
 20
167.184331
 30
0.0
 11
-288.609112
 21
167.184331
 31
0.0
  0
ARC
  5
4DA
100
AcDbEntity
  8
LAY-1
  6
EXLTYPE4
 62
     1
100
AcDbCircle
 10
-288.609112
 20
177.184331
 30
0.0
 40
10.0
100
AcDbArc
 50
194.801701
 51
270.0
  0
ARC
  5
4DB
100
AcDbEntity
  8
LAY-1
  6
EXLTYPE4
 62
     1
100
AcDbCircle
 10
-281.312045
 20
177.184331
 30
0.0
 40
10.0
100
AcDbArc
 50
270.0
 51
348.870811
  0
LINE
  5
4DC
100
AcDbEntity
  8
LAY-1
  6
EXLTYPE4
 62
     1
100
AcDbLine
 10
-268.54928
 20
190.254113
 30
0.0
 11
-271.5001
 21
175.254113
 31
0.0
  0
LINE
  5
4DD
100
AcDbEntity
  8
LAY-1
  6
EXLTYPE3
 62
     1
100
AcDbLine
 10
-325.062878
 20
31.084331
 30
0.0
 11
-325.062878
 21
102.084331
 31
0.0
  0
LINE
  5
4DE
100
AcDbEntity
  8
LAY-1
  6
EXLTYPE3
 62
     1
100
AcDbLine
 10
-325.062878
 20
261.684331
 30
0.0
 11
-325.062878
 21
34.225799
 31
0.0
  0
ARC
  5
4DF
100
AcDbEntity
  8
LAY-1
  6
EXLTYPE2
 62
     1
100
AcDbCircle
 10
418.937122
 20
142.184331
 30
0.0
 40
28.0
100
AcDbArc
 50
346.892093
 51
13.107907
  0
LINE
  5
4E0
100
AcDbEntity
  8
LAY-1
  6
EXLTYPE2
 62
     1
100
AcDbLine
 10
446.937122
 20
153.184331
 30
0.0
 11
446.937122
 21
131.184331
 31
0.0
  0
LINE
  5
4E1
100
AcDbEntity
  8
LAY-1
  6
EXLTYPE2
 62
     1
100
AcDbLine
 10
438.666671
 20
148.534331
 30
0.0
 11
446.207573
 21
148.534331
 31
0.0
  0
LINE
  5
4E2
100
AcDbEntity
  8
LAY-1
  6
EXLTYPE2
 62
     1
100
AcDbLine
 10
438.666671
 20
135.834331
 30
0.0
 11
446.207573
 21
135.834331
 31
0.0
  0
ARC
  5
4E3
100
AcDbEntity
  8
LAY-1
  6
EXLTYPE2
 62
     1
100
AcDbCircle
 10
445.210703
 20
151.709331
 30
0.0
 40
7.273581
100
AcDbArc
 50
153.879595
 51
205.881497
  0
LINE
  5
4E4
100
AcDbEntity
  8
LAY-1
  6
EXLTYPE2
 62
     1
100
AcDbLine
 10
437.937122
 20
153.184331
 30
0.0
 11
438.666671
 21
154.90915
 31
0.0
  0
ARC
  5
4E5
100
AcDbEntity
  8
LAY-1
  6
EXLTYPE2
 62
     1
100
AcDbCircle
 10
465.937122
 20
142.184331
 30
0.0
 40
28.0
100
AcDbArc
 50
166.892093
 51
193.107907
  0
LINE
  5
4E6
100
AcDbEntity
  8
LAY-1
  6
EXLTYPE2
 62
     1
100
AcDbLine
 10
446.194278
 20
154.884331
 30
0.0
 11
438.656174
 21
154.884331
 31
0.0
  0
LINE
  5
4E7
100
AcDbEntity
  8
LAY-1
  6
EXLTYPE2
 62
     1
100
AcDbLine
 10
437.937122
 20
153.184331
 30
0.0
 11
437.937122
 21
131.184331
 31
0.0
  0
LINE
  5
4E8
100
AcDbEntity
  8
LAY-1
  6
EXLTYPE2
 62
     1
100
AcDbLine
 10
446.937122
 20
131.184331
 30
0.0
 11
446.937122
 21
153.184331
 31
0.0
  0
ARC
  5
4E9
100
AcDbEntity
  8
LAY-1
  6
EXLTYPE2
 62
     1
100
AcDbCircle
 10
445.210703
 20
132.659331
 30
0.0
 40
7.273581
100
AcDbArc
 50
154.118503
 51
205.881497
  0
LINE
  5
4EA
100
AcDbEntity
  8
LAY-1
  6
EXLTYPE2
 62
     1
100
AcDbLine
 10
437.937122
 20
131.184331
 30
0.0
 11
438.656174
 21
129.484331
 31
0.0
  0
LINE
  5
4EB
100
AcDbEntity
  8
LAY-1
  6
EXLTYPE2
 62
     1
100
AcDbLine
 10
438.656174
 20
129.484331
 30
0.0
 11
446.218071
 21
129.484331
 31
0.0
  0
LINE
  5
4EC
100
AcDbEntity
  8
LAY-1
  6
EXLTYPE2
 62
     1
100
AcDbLine
 10
446.492704
 20
130.155831
 30
0.0
 11
446.502096
 21
130.155831
 31
0.0
  0
LINE
  5
4ED
100
AcDbEntity
  8
LAY-1
  6
EXLTYPE2
 62
     1
100
AcDbLine
 10
446.502096
 20
130.155831
 30
0.0
 11
446.492704
 21
130.155831
 31
0.0
  0
LINE
  5
4EE
100
AcDbEntity
  8
LAY-1
  6
EXLTYPE2
 62
     1
100
AcDbLine
 10
446.937122
 20
131.184331
 30
0.0
 11
446.218071
 21
129.484331
 31
0.0
  0
ARC
  5
4EF
100
AcDbEntity
  8
LAY-1
  6
EXLTYPE2
 62
     1
100
AcDbCircle
 10
439.663541
 20
132.659331
 30
0.0
 40
7.273581
100
AcDbArc
 50
334.118503
 51
25.881497
  0
LINE
  5
4F0
100
AcDbEntity
  8
LAY-1
  6
EXLTYPE2
 62
     1
100
AcDbLine
 10
446.492704
 20
154.212832
 30
0.0
 11
446.502096
 21
154.212832
 31
0.0
  0
LINE
  5
4F1
100
AcDbEntity
  8
LAY-1
  6
EXLTYPE2
 62
     1
100
AcDbLine
 10
446.502096
 20
154.212832
 30
0.0
 11
446.492704
 21
154.212832
 31
0.0
  0
ARC
  5
4F2
100
AcDbEntity
  8
LAY-1
  6
EXLTYPE2
 62
     1
100
AcDbCircle
 10
439.663541
 20
151.709331
 30
0.0
 40
7.273581
100
AcDbArc
 50
334.118503
 51
22.92697
  0
LINE
  5
4F3
100
AcDbEntity
  8
LAY-1
  6
EXLTYPE2
 62
     1
100
AcDbLine
 10
446.937122
 20
153.184331
 30
0.0
 11
446.218071
 21
154.884331
 31
0.0
  0
LINE
  5
4F4
100
AcDbEntity
  8
LAY-1
  6
EXLTYPE2
 62
     1
100
AcDbLine
 10
446.502096
 20
154.212832
 30
0.0
 11
446.492704
 21
154.212832
 31
0.0
  0
LINE
  5
4F5
100
AcDbEntity
  8
LAY-1
  6
EXLTYPE2
 62
     1
100
AcDbLine
 10
446.937122
 20
149.184331
 30
0.0
 11
471.762839
 21
149.184331
 31
0.0
  0
LINE
  5
4F6
100
AcDbEntity
  8
LAY-1
  6
EXLTYPE2
 62
     1
100
AcDbLine
 10
471.821809
 20
135.184331
 30
0.0
 11
446.937122
 21
135.184331
 31
0.0
  0
ARC
  5
4F7
100
AcDbEntity
  8
LAY-1
  6
EXLTYPE2
 62
     1
100
AcDbCircle
 10
479.264784
 20
131.684331
 30
0.0
 40
7.419201
100
AcDbArc
 50
145.996439
 51
180.0
  0
ARC
  5
4F8
100
AcDbEntity
  8
LAY-1
  6
EXLTYPE2
 62
     1
100
AcDbCircle
 10
479.264784
 20
152.684331
 30
0.0
 40
7.419201
100
AcDbArc
 50
180.0
 51
214.003561
  0
LINE
  5
4F9
100
AcDbEntity
  8
LAY-1
  6
EXLTYPE2
 62
     1
100
AcDbLine
 10
471.844074
 20
152.684331
 30
0.0
 11
473.114245
 21
154.884331
 31
0.0
  0
LINE
  5
4FA
100
AcDbEntity
  8
LAY-1
  6
EXLTYPE2
 62
     1
100
AcDbLine
 10
473.114245
 20
135.833478
 30
0.0
 11
482.844074
 21
135.833478
 31
0.0
  0
LINE
  5
4FB
100
AcDbEntity
  8
LAY-1
  6
EXLTYPE2
 62
     1
100
AcDbLine
 10
471.844074
 20
131.684331
 30
0.0
 11
473.114245
 21
129.484331
 31
0.0
  0
ARC
  5
4FC
100
AcDbEntity
  8
LAY-1
  6
EXLTYPE2
 62
     1
100
AcDbCircle
 10
488.356292
 20
142.184331
 30
0.0
 40
16.512218
100
AcDbArc
 50
157.380135
 51
202.619865
  0
LINE
  5
4FD
100
AcDbEntity
  8
LAY-1
  6
EXLTYPE2
 62
     1
100
AcDbLine
 10
473.114245
 20
148.535184
 30
0.0
 11
482.844074
 21
148.535184
 31
0.0
  0
LINE
  5
4FE
100
AcDbEntity
  8
LAY-1
  6
EXLTYPE2
 62
     1
100
AcDbLine
 10
473.114245
 20
129.484331
 30
0.0
 11
482.844074
 21
129.484331
 31
0.0
  0
LINE
  5
4FF
100
AcDbEntity
  8
LAY-1
  6
EXLTYPE2
 62
     1
100
AcDbLine
 10
471.844074
 20
152.684331
 30
0.0
 11
471.844074
 21
131.684331
 31
0.0
  0
LINE
  5
500
100
AcDbEntity
  8
LAY-1
  6
EXLTYPE2
 62
     1
100
AcDbLine
 10
482.844074
 20
154.884331
 30
0.0
 11
473.114245
 21
154.884331
 31
0.0
  0
LINE
  5
501
100
AcDbEntity
  8
LAY-1
  6
EXLTYPE2
 62
     1
100
AcDbLine
 10
493.496166
 20
164.141453
 30
0.0
 11
494.253116
 21
168.434331
 31
0.0
  0
ARC
  5
502
100
AcDbEntity
  8
LAY-1
  6
EXLTYPE2
 62
     1
100
AcDbCircle
 10
491.52655
 20
164.488749
 30
0.0
 40
2.0
100
AcDbArc
 50
272.0
 51
350.0
  0
LINE
  5
503
100
AcDbEntity
  8
LAY-1
  6
EXLTYPE2
 62
     1
100
AcDbLine
 10
483.809175
 20
162.218034
 30
0.0
 11
491.596349
 21
162.489968
 31
0.0
  0
LINE
  5
504
100
AcDbEntity
  8
LAY-1
  6
EXLTYPE2
 62
     1
100
AcDbLine
 10
482.844074
 20
142.184331
 30
0.0
 11
482.844074
 21
123.150016
 31
0.0
  0
ARC
  5
505
100
AcDbEntity
  8
LAY-1
  6
EXLTYPE2
 62
     1
100
AcDbCircle
 10
483.844074
 20
123.15002
 30
0.0
 40
1.0
100
AcDbArc
 50
180.0
 51
268.0
  0
LINE
  5
506
100
AcDbEntity
  8
LAY-1
  6
EXLTYPE2
 62
     1
100
AcDbLine
 10
482.844074
 20
142.184331
 30
0.0
 11
482.844074
 21
161.218647
 31
0.0
  0
ARC
  5
507
100
AcDbEntity
  8
LAY-1
  6
EXLTYPE2
 62
     1
100
AcDbCircle
 10
483.844074
 20
161.218643
 30
0.0
 40
1.0
100
AcDbArc
 50
92.0
 51
180.0
  0
ARC
  5
508
100
AcDbEntity
  8
LAY-1
  6
EXLTYPE2
 62
     1
100
AcDbCircle
 10
491.52655
 20
119.879914
 30
0.0
 40
2.0
100
AcDbArc
 50
10.0
 51
88.0
  0
LINE
  5
509
100
AcDbEntity
  8
LAY-1
  6
EXLTYPE2
 62
     1
100
AcDbLine
 10
483.809175
 20
122.150629
 30
0.0
 11
491.596349
 21
121.878695
 31
0.0
  0
LINE
  5
50A
100
AcDbEntity
  8
LAY-1
  6
EXLTYPE2
 62
     1
100
AcDbLine
 10
493.496166
 20
120.22721
 30
0.0
 11
494.253116
 21
115.934331
 31
0.0
  0
LINE
  5
50B
100
AcDbEntity
  8
LAY-1
  6
EXLTYPE4
 62
     1
100
AcDbLine
 10
676.423525
 20
94.11455
 30
0.0
 11
679.374345
 21
109.11455
 31
0.0
  0
ARC
  5
50C
100
AcDbEntity
  8
LAY-1
  6
EXLTYPE4
 62
     1
100
AcDbCircle
 10
828.937122
 20
142.184331
 30
0.0
 40
127.0
100
AcDbArc
 50
194.801701
 51
201.549115
  0
ARC
  5
50D
100
AcDbEntity
  8
LAY-1
  6
EXLTYPE4
 62
     1
100
AcDbCircle
 10
696.483357
 20
107.184331
 30
0.0
 40
10.0
100
AcDbArc
 50
14.801701
 51
90.0
  0
LINE
  5
50E
100
AcDbEntity
  8
LAY-1
  6
EXLTYPE4
 62
     1
100
AcDbLine
 10
689.186289
 20
117.184331
 30
0.0
 11
696.483357
 21
117.184331
 31
0.0
  0
ARC
  5
50F
100
AcDbEntity
  8
LAY-1
  6
EXLTYPE4
 62
     1
100
AcDbCircle
 10
689.186289
 20
107.184331
 30
0.0
 40
10.0
100
AcDbArc
 50
90.0
 51
168.870811
  0
ARC
  5
510
100
AcDbEntity
  8
LAY-1
  6
EXLTYPE4
 62
     1
100
AcDbCircle
 10
828.937122
 20
142.184331
 30
0.0
 40
127.0
100
AcDbArc
 50
158.450885
 51
165.198299
  0
LINE
  5
511
100
AcDbEntity
  8
LAY-1
  6
EXLTYPE4
 62
     1
100
AcDbLine
 10
689.186289
 20
167.184331
 30
0.0
 11
696.483357
 21
167.184331
 31
0.0
  0
ARC
  5
512
100
AcDbEntity
  8
LAY-1
  6
EXLTYPE4
 62
     1
100
AcDbCircle
 10
696.483357
 20
177.184331
 30
0.0
 40
10.0
100
AcDbArc
 50
270.0
 51
345.198299
  0
ARC
  5
513
100
AcDbEntity
  8
LAY-1
  6
EXLTYPE4
 62
     1
100
AcDbCircle
 10
689.186289
 20
177.184331
 30
0.0
 40
10.0
100
AcDbArc
 50
191.129189
 51
270.0
  0
LINE
  5
514
100
AcDbEntity
  8
LAY-1
  6
EXLTYPE4
 62
     1
100
AcDbLine
 10
676.423525
 20
190.254113
 30
0.0
 11
679.374345
 21
175.254113
 31
0.0
  0
LINE
  5
515
100
AcDbEntity
  8
LAY-1
  6
EXLTYPE3
 62
     1
100
AcDbLine
 10
732.937122
 20
31.084331
 30
0.0
 11
732.937122
 21
102.084331
 31
0.0
  0
LINE
  5
516
100
AcDbEntity
  8
LAY-1
  6
EXLTYPE3
 62
     1
100
AcDbLine
 10
732.937122
 20
261.684331
 30
0.0
 11
732.937122
 21
34.225799
 31
0.0
  0
LINE
  5
517
100
AcDbEntity
  8
LAY-1
  6
EXLTYPE2
 62
     1
100
AcDbLine
 10
223.970824
 20
391.306384
 30
0.0
 11
224.242758
 21
399.093559
 31
0.0
  0
ARC
  5
518
100
AcDbEntity
  8
LAY-1
  6
EXLTYPE2
 62
     1
100
AcDbCircle
 10
184.902811
 20
391.341283
 30
0.0
 40
1.0
100
AcDbArc
 50
182.0
 51
270.0
  0
LINE
  5
519
100
AcDbEntity
  8
LAY-1
  6
EXLTYPE2
 62
     1
100
AcDbLine
 10
203.937122
 20
390.341283
 30
0.0
 11
184.902807
 21
390.341283
 31
0.0
  0
ARC
  5
51A
100
AcDbEntity
  8
LAY-1
  6
EXLTYPE2
 62
     1
100
AcDbCircle
 10
222.971433
 20
391.341283
 30
0.0
 40
1.0
100
AcDbArc
 50
270.0
 51
358.0
  0
LINE
  5
51B
100
AcDbEntity
  8
LAY-1
  6
EXLTYPE2
 62
     1
100
AcDbLine
 10
203.937122
 20
390.341283
 30
0.0
 11
222.971438
 21
390.341283
 31
0.0
  0
LINE
  5
51C
100
AcDbEntity
  8
LAY-1
  6
EXLTYPE2
 62
     1
100
AcDbLine
 10
183.90342
 20
391.306384
 30
0.0
 11
183.631486
 21
399.093559
 31
0.0
  0
LINE
  5
51D
100
AcDbEntity
  8
LAY-1
  6
EXLTYPE2
 62
     1
100
AcDbLine
 10
191.237122
 20
390.341283
 30
0.0
 11
191.237122
 21
380.611454
 31
0.0
  0
LINE
  5
51E
100
AcDbEntity
  8
LAY-1
  6
EXLTYPE2
 62
     1
100
AcDbLine
 10
193.437122
 20
379.341283
 30
0.0
 11
214.437122
 21
379.341283
 31
0.0
  0
LINE
  5
51F
100
AcDbEntity
  8
LAY-1
  6
EXLTYPE2
 62
     1
100
AcDbLine
 10
216.637122
 20
380.611454
 30
0.0
 11
216.637122
 21
390.341283
 31
0.0
  0
LINE
  5
520
100
AcDbEntity
  8
LAY-1
  6
EXLTYPE2
 62
     1
100
AcDbLine
 10
197.586269
 20
380.611454
 30
0.0
 11
197.586269
 21
390.341283
 31
0.0
  0
ARC
  5
521
100
AcDbEntity
  8
LAY-1
  6
EXLTYPE2
 62
     1
100
AcDbCircle
 10
203.937122
 20
395.853501
 30
0.0
 40
16.512218
100
AcDbArc
 50
247.380135
 51
292.619865
  0
LINE
  5
522
100
AcDbEntity
  8
LAY-1
  6
EXLTYPE2
 62
     1
100
AcDbLine
 10
214.437122
 20
379.341283
 30
0.0
 11
216.637122
 21
380.611454
 31
0.0
  0
LINE
  5
523
100
AcDbEntity
  8
LAY-1
  6
EXLTYPE2
 62
     1
100
AcDbLine
 10
210.287975
 20
380.611454
 30
0.0
 11
210.287975
 21
390.341283
 31
0.0
  0
LINE
  5
524
100
AcDbEntity
  8
LAY-1
  6
EXLTYPE2
 62
     1
100
AcDbLine
 10
193.437122
 20
379.341283
 30
0.0
 11
191.237122
 21
380.611454
 31
0.0
  0
ARC
  5
525
100
AcDbEntity
  8
LAY-1
  6
EXLTYPE2
 62
     1
100
AcDbCircle
 10
193.437122
 20
386.761993
 30
0.0
 40
7.419201
100
AcDbArc
 50
270.0
 51
304.003561
  0
ARC
  5
526
100
AcDbEntity
  8
LAY-1
  6
EXLTYPE2
 62
     1
100
AcDbCircle
 10
214.437122
 20
386.761993
 30
0.0
 40
7.419201
100
AcDbArc
 50
235.996439
 51
270.0
  0
LINE
  5
527
100
AcDbEntity
  8
LAY-1
  6
EXLTYPE2
 62
     1
100
AcDbLine
 10
210.937122
 20
379.319018
 30
0.0
 11
210.937122
 21
354.434331
 31
0.0
  0
LINE
  5
528
100
AcDbEntity
  8
LAY-1
  6
EXLTYPE2
 62
     1
100
AcDbLine
 10
196.937122
 20
354.434331
 30
0.0
 11
196.937122
 21
379.260048
 31
0.0
  0
LINE
  5
529
100
AcDbEntity
  8
LAY-1
  6
EXLTYPE2
 62
     1
100
AcDbLine
 10
191.908621
 20
353.999305
 30
0.0
 11
191.908621
 21
353.989913
 31
0.0
  0
LINE
  5
52A
100
AcDbEntity
  8
LAY-1
  6
EXLTYPE2
 62
     1
100
AcDbLine
 10
192.937122
 20
354.434331
 30
0.0
 11
191.237122
 21
353.71528
 31
0.0
  0
ARC
  5
52B
100
AcDbEntity
  8
LAY-1
  6
EXLTYPE2
 62
     1
100
AcDbCircle
 10
194.412122
 20
347.160751
 30
0.0
 40
7.273581
100
AcDbArc
 50
64.118503
 51
112.92697
  0
LINE
  5
52C
100
AcDbEntity
  8
LAY-1
  6
EXLTYPE2
 62
     1
100
AcDbLine
 10
191.908621
 20
353.999305
 30
0.0
 11
191.908621
 21
353.989913
 31
0.0
  0
LINE
  5
52D
100
AcDbEntity
  8
LAY-1
  6
EXLTYPE2
 62
     1
100
AcDbLine
 10
191.908621
 20
353.989913
 30
0.0
 11
191.908621
 21
353.999305
 31
0.0
  0
ARC
  5
52E
100
AcDbEntity
  8
LAY-1
  6
EXLTYPE2
 62
     1
100
AcDbCircle
 10
213.462122
 20
347.160751
 30
0.0
 40
7.273581
100
AcDbArc
 50
64.118503
 51
115.881497
  0
LINE
  5
52F
100
AcDbEntity
  8
LAY-1
  6
EXLTYPE2
 62
     1
100
AcDbLine
 10
214.937122
 20
354.434331
 30
0.0
 11
216.637122
 21
353.71528
 31
0.0
  0
LINE
  5
530
100
AcDbEntity
  8
LAY-1
  6
EXLTYPE2
 62
     1
100
AcDbLine
 10
215.965623
 20
353.999305
 30
0.0
 11
215.965623
 21
353.989913
 31
0.0
  0
LINE
  5
531
100
AcDbEntity
  8
LAY-1
  6
EXLTYPE2
 62
     1
100
AcDbLine
 10
215.965623
 20
353.989913
 30
0.0
 11
215.965623
 21
353.999305
 31
0.0
  0
LINE
  5
532
100
AcDbEntity
  8
LAY-1
  6
EXLTYPE2
 62
     1
100
AcDbLine
 10
216.637122
 20
346.153383
 30
0.0
 11
216.637122
 21
353.71528
 31
0.0
  0
LINE
  5
533
100
AcDbEntity
  8
LAY-1
  6
EXLTYPE2
 62
     1
100
AcDbLine
 10
214.937122
 20
345.434331
 30
0.0
 11
216.637122
 21
346.153383
 31
0.0
  0
ARC
  5
534
100
AcDbEntity
  8
LAY-1
  6
EXLTYPE2
 62
     1
100
AcDbCircle
 10
213.462122
 20
352.707912
 30
0.0
 40
7.273581
100
AcDbArc
 50
244.118503
 51
295.881497
  0
LINE
  5
535
100
AcDbEntity
  8
LAY-1
  6
EXLTYPE2
 62
     1
100
AcDbLine
 10
214.937122
 20
354.434331
 30
0.0
 11
192.937122
 21
354.434331
 31
0.0
  0
LINE
  5
536
100
AcDbEntity
  8
LAY-1
  6
EXLTYPE2
 62
     1
100
AcDbLine
 10
192.937122
 20
345.434331
 30
0.0
 11
214.937122
 21
345.434331
 31
0.0
  0
LINE
  5
537
100
AcDbEntity
  8
LAY-1
  6
EXLTYPE2
 62
     1
100
AcDbLine
 10
191.237122
 20
353.691487
 30
0.0
 11
191.237122
 21
346.153383
 31
0.0
  0
ARC
  5
538
100
AcDbEntity
  8
LAY-1
  6
EXLTYPE2
 62
     1
100
AcDbCircle
 10
203.937122
 20
373.434331
 30
0.0
 40
28.0
100
AcDbArc
 50
256.892093
 51
283.107907
  0
LINE
  5
539
100
AcDbEntity
  8
LAY-1
  6
EXLTYPE2
 62
     1
100
AcDbLine
 10
192.937122
 20
345.434331
 30
0.0
 11
191.212303
 21
346.16388
 31
0.0
  0
ARC
  5
53A
100
AcDbEntity
  8
LAY-1
  6
EXLTYPE2
 62
     1
100
AcDbCircle
 10
194.412122
 20
352.707912
 30
0.0
 40
7.273581
100
AcDbArc
 50
243.879595
 51
295.881497
  0
LINE
  5
53B
100
AcDbEntity
  8
LAY-1
  6
EXLTYPE2
 62
     1
100
AcDbLine
 10
210.287122
 20
346.16388
 30
0.0
 11
210.287122
 21
353.704782
 31
0.0
  0
LINE
  5
53C
100
AcDbEntity
  8
LAY-1
  6
EXLTYPE2
 62
     1
100
AcDbLine
 10
197.587122
 20
346.16388
 30
0.0
 11
197.587122
 21
353.704782
 31
0.0
  0
LINE
  5
53D
100
AcDbEntity
  8
LAY-1
  6
EXLTYPE2
 62
     1
100
AcDbLine
 10
192.937122
 20
354.434331
 30
0.0
 11
214.937122
 21
354.434331
 31
0.0
  0
ARC
  5
53E
100
AcDbEntity
  8
LAY-1
  6
EXLTYPE2
 62
     1
100
AcDbCircle
 10
203.937122
 20
326.434331
 30
0.0
 40
28.0
100
AcDbArc
 50
76.892093
 51
103.107907
  0
LINE
  5
53F
100
AcDbEntity
  8
LAY-1
  6
EXLTYPE3
 62
     1
100
AcDbLine
 10
1.937122
 20
142.184331
 30
0.0
 11
-383.576084
 21
142.184331
 31
0.0
  0
LINE
  5
540
100
AcDbEntity
  8
LAY-1
  6
EXLTYPE3
 62
     1
100
AcDbLine
 10
410.437122
 20
142.184331
 30
0.0
 11
791.450329
 21
142.184331
 31
0.0
  0
LINE
  5
541
100
AcDbEntity
  8
LAY-1
  6
EXLTYPE2
 62
     1
100
AcDbLine
 10
181.980001
 20
400.743375
 30
0.0
 11
177.687122
 21
401.500325
 31
0.0
  0
ARC
  5
542
100
AcDbEntity
  8
LAY-1
  6
EXLTYPE2
 62
     1
100
AcDbCircle
 10
181.632704
 20
398.77376
 30
0.0
 40
2.0
100
AcDbArc
 50
2.0
 51
80.0
  0
LINE
  5
543
100
AcDbEntity
  8
LAY-1
  6
EXLTYPE2
 62
     1
100
AcDbLine
 10
183.90342
 20
391.056384
 30
0.0
 11
183.631486
 21
398.843559
 31
0.0
  0
LINE
  5
544
100
AcDbEntity
  8
LAY-1
  6
EXLTYPE2
 62
     1
100
AcDbLine
 10
225.894244
 20
400.743375
 30
0.0
 11
230.187122
 21
401.500325
 31
0.0
  0
ARC
  5
545
100
AcDbEntity
  8
LAY-1
  6
EXLTYPE2
 62
     1
100
AcDbCircle
 10
226.24154
 20
398.77376
 30
0.0
 40
2.0
100
AcDbArc
 50
100.0
 51
178.0
  0
LINE
  5
546
100
AcDbEntity
  8
LAY-1
  6
EXLTYPE2
 62
     1
100
AcDbLine
 10
223.970824
 20
391.056384
 30
0.0
 11
224.242758
 21
398.843559
 31
0.0
  0
LINE
  5
547
100
AcDbEntity
  8
LAY-1
  6
EXLTYPE2
 62
     1
100
AcDbLine
 10
225.894244
 20
-116.374712
 30
0.0
 11
230.187122
 21
-117.131663
 31
0.0
  0
ARC
  5
548
100
AcDbEntity
  8
LAY-1
  6
EXLTYPE2
 62
     1
100
AcDbCircle
 10
226.24154
 20
-114.405097
 30
0.0
 40
2.0
100
AcDbArc
 50
182.0
 51
260.0
  0
LINE
  5
549
100
AcDbEntity
  8
LAY-1
  6
EXLTYPE2
 62
     1
100
AcDbLine
 10
223.970824
 20
-106.687721
 30
0.0
 11
224.242758
 21
-114.474896
 31
0.0
  0
LINE
  5
54A
100
AcDbEntity
  8
LAY-1
  6
EXLTYPE2
 62
     1
100
AcDbLine
 10
181.980001
 20
-116.374712
 30
0.0
 11
177.687122
 21
-117.131663
 31
0.0
  0
ARC
  5
54B
100
AcDbEntity
  8
LAY-1
  6
EXLTYPE2
 62
     1
100
AcDbCircle
 10
181.632704
 20
-114.405097
 30
0.0
 40
2.0
100
AcDbArc
 50
280.0
 51
358.0
  0
LINE
  5
54C
100
AcDbEntity
  8
LAY-1
  6
EXLTYPE2
 62
     1
100
AcDbLine
 10
183.90342
 20
-106.687721
 30
0.0
 11
183.631486
 21
-114.474896
 31
0.0
  0
LINE
  5
54D
100
AcDbEntity
  8
LAY-1
  6
EXLTYPE3
 62
     1
100
AcDbLine
 10
203.937122
 20
261.684331
 30
0.0
 11
203.937122
 21
28.184331
 31
0.0
  0
CIRCLE
  5
54E
100
AcDbEntity
  8
LAY-1
  6
CONTINUOUS
 62
     1
100
AcDbCircle
 10
173.271338
 20
216.218084
 30
0.0
 40
5.759599
  0
LINE
  5
54F
100
AcDbEntity
  8
LAY-1
  6
CONTINUOUS
 62
     1
100
AcDbLine
 10
166.760487
 20
212.459042
 30
0.0
 11
166.760487
 21
219.977125
 31
0.0
  0
LINE
  5
550
100
AcDbEntity
  8
LAY-1
  6
CONTINUOUS
 62
     1
100
AcDbLine
 10
166.760487
 20
219.977125
 30
0.0
 11
173.271338
 21
223.736167
 31
0.0
  0
LINE
  5
551
100
AcDbEntity
  8
LAY-1
  6
CONTINUOUS
 62
     1
100
AcDbLine
 10
173.271338
 20
223.736167
 30
0.0
 11
179.782189
 21
219.977125
 31
0.0
  0
LINE
  5
552
100
AcDbEntity
  8
LAY-1
  6
CONTINUOUS
 62
     1
100
AcDbLine
 10
179.782189
 20
219.977125
 30
0.0
 11
179.782189
 21
212.459042
 31
0.0
  0
LINE
  5
553
100
AcDbEntity
  8
LAY-1
  6
CONTINUOUS
 62
     1
100
AcDbLine
 10
179.782189
 20
212.459042
 30
0.0
 11
173.271338
 21
208.7
 31
0.0
  0
LINE
  5
554
100
AcDbEntity
  8
LAY-1
  6
CONTINUOUS
 62
     1
100
AcDbLine
 10
173.271338
 20
208.7
 30
0.0
 11
166.760487
 21
212.459042
 31
0.0
  0
CIRCLE
  5
555
100
AcDbEntity
  8
LAY-1
  6
CONTINUOUS
 62
     1
100
AcDbCircle
 10
234.602906
 20
216.218084
 30
0.0
 40
5.759599
  0
LINE
  5
556
100
AcDbEntity
  8
LAY-1
  6
CONTINUOUS
 62
     1
100
AcDbLine
 10
241.113758
 20
212.459042
 30
0.0
 11
241.113758
 21
219.977125
 31
0.0
  0
LINE
  5
557
100
AcDbEntity
  8
LAY-1
  6
CONTINUOUS
 62
     1
100
AcDbLine
 10
241.113758
 20
219.977125
 30
0.0
 11
234.602906
 21
223.736167
 31
0.0
  0
LINE
  5
558
100
AcDbEntity
  8
LAY-1
  6
CONTINUOUS
 62
     1
100
AcDbLine
 10
234.602906
 20
223.736167
 30
0.0
 11
228.092055
 21
219.977125
 31
0.0
  0
LINE
  5
559
100
AcDbEntity
  8
LAY-1
  6
CONTINUOUS
 62
     1
100
AcDbLine
 10
228.092055
 20
219.977125
 30
0.0
 11
228.092055
 21
212.459042
 31
0.0
  0
LINE
  5
55A
100
AcDbEntity
  8
LAY-1
  6
CONTINUOUS
 62
     1
100
AcDbLine
 10
228.092055
 20
212.459042
 30
0.0
 11
234.602906
 21
208.7
 31
0.0
  0
LINE
  5
55B
100
AcDbEntity
  8
LAY-1
  6
CONTINUOUS
 62
     1
100
AcDbLine
 10
234.602906
 20
208.7
 30
0.0
 11
241.113758
 21
212.459042
 31
0.0
  0
CIRCLE
  5
55C
100
AcDbEntity
  8
LAY-1
  6
CONTINUOUS
 62
     1
100
AcDbCircle
 10
277.970874
 20
172.850116
 30
0.0
 40
5.759599
  0
LINE
  5
55D
100
AcDbEntity
  8
LAY-1
  6
CONTINUOUS
 62
     1
100
AcDbLine
 10
284.481726
 20
169.091074
 30
0.0
 11
284.481726
 21
176.609158
 31
0.0
  0
LINE
  5
55E
100
AcDbEntity
  8
LAY-1
  6
CONTINUOUS
 62
     1
100
AcDbLine
 10
284.481726
 20
176.609158
 30
0.0
 11
277.970874
 21
180.368199
 31
0.0
  0
LINE
  5
55F
100
AcDbEntity
  8
LAY-1
  6
CONTINUOUS
 62
     1
100
AcDbLine
 10
277.970874
 20
180.368199
 30
0.0
 11
271.460023
 21
176.609158
 31
0.0
  0
LINE
  5
560
100
AcDbEntity
  8
LAY-1
  6
CONTINUOUS
 62
     1
100
AcDbLine
 10
271.460023
 20
176.609158
 30
0.0
 11
271.460023
 21
169.091074
 31
0.0
  0
LINE
  5
561
100
AcDbEntity
  8
LAY-1
  6
CONTINUOUS
 62
     1
100
AcDbLine
 10
271.460023
 20
169.091074
 30
0.0
 11
277.970874
 21
165.332032
 31
0.0
  0
LINE
  5
562
100
AcDbEntity
  8
LAY-1
  6
CONTINUOUS
 62
     1
100
AcDbLine
 10
277.970874
 20
165.332032
 30
0.0
 11
284.481726
 21
169.091074
 31
0.0
  0
CIRCLE
  5
563
100
AcDbEntity
  8
LAY-1
  6
CONTINUOUS
 62
     1
100
AcDbCircle
 10
277.970874
 20
111.518547
 30
0.0
 40
5.759599
  0
LINE
  5
564
100
AcDbEntity
  8
LAY-1
  6
CONTINUOUS
 62
     1
100
AcDbLine
 10
284.481726
 20
115.277589
 30
0.0
 11
284.481726
 21
107.759505
 31
0.0
  0
LINE
  5
565
100
AcDbEntity
  8
LAY-1
  6
CONTINUOUS
 62
     1
100
AcDbLine
 10
284.481726
 20
107.759505
 30
0.0
 11
277.970874
 21
104.000464
 31
0.0
  0
LINE
  5
566
100
AcDbEntity
  8
LAY-1
  6
CONTINUOUS
 62
     1
100
AcDbLine
 10
277.970874
 20
104.000464
 30
0.0
 11
271.460023
 21
107.759505
 31
0.0
  0
LINE
  5
567
100
AcDbEntity
  8
LAY-1
  6
CONTINUOUS
 62
     1
100
AcDbLine
 10
271.460023
 20
107.759505
 30
0.0
 11
271.460023
 21
115.277589
 31
0.0
  0
LINE
  5
568
100
AcDbEntity
  8
LAY-1
  6
CONTINUOUS
 62
     1
100
AcDbLine
 10
271.460023
 20
115.277589
 30
0.0
 11
277.970874
 21
119.036631
 31
0.0
  0
LINE
  5
569
100
AcDbEntity
  8
LAY-1
  6
CONTINUOUS
 62
     1
100
AcDbLine
 10
277.970874
 20
119.036631
 30
0.0
 11
284.481726
 21
115.277589
 31
0.0
  0
CIRCLE
  5
56A
100
AcDbEntity
  8
LAY-1
  6
CONTINUOUS
 62
     1
100
AcDbCircle
 10
234.602906
 20
68.150579
 30
0.0
 40
5.759599
  0
LINE
  5
56B
100
AcDbEntity
  8
LAY-1
  6
CONTINUOUS
 62
     1
100
AcDbLine
 10
241.113758
 20
71.909621
 30
0.0
 11
241.113758
 21
64.391537
 31
0.0
  0
LINE
  5
56C
100
AcDbEntity
  8
LAY-1
  6
CONTINUOUS
 62
     1
100
AcDbLine
 10
228.092055
 20
64.391537
 30
0.0
 11
228.092055
 21
71.909621
 31
0.0
  0
LINE
  5
56D
100
AcDbEntity
  8
LAY-1
  6
CONTINUOUS
 62
     1
100
AcDbLine
 10
228.092055
 20
71.909621
 30
0.0
 11
234.602906
 21
75.668663
 31
0.0
  0
LINE
  5
56E
100
AcDbEntity
  8
LAY-1
  6
CONTINUOUS
 62
     1
100
AcDbLine
 10
234.602906
 20
75.668663
 30
0.0
 11
241.113758
 21
71.909621
 31
0.0
  0
LINE
  5
56F
100
AcDbEntity
  8
LAY-1
  6
CONTINUOUS
 62
     1
100
AcDbLine
 10
234.602906
 20
60.632496
 30
0.0
 11
228.092055
 21
64.391537
 31
0.0
  0
LINE
  5
570
100
AcDbEntity
  8
LAY-1
  6
CONTINUOUS
 62
     1
100
AcDbLine
 10
241.113758
 20
64.391537
 30
0.0
 11
234.602906
 21
60.632496
 31
0.0
  0
LINE
  5
571
100
AcDbEntity
  8
LAY-1
  6
CONTINUOUS
 62
     1
100
AcDbLine
 10
241.113758
 20
64.391537
 30
0.0
 11
234.602906
 21
60.632496
 31
0.0
  0
LINE
  5
572
100
AcDbEntity
  8
LAY-1
  6
CONTINUOUS
 62
     1
100
AcDbLine
 10
234.602906
 20
60.632496
 30
0.0
 11
228.092055
 21
64.391537
 31
0.0
  0
LINE
  5
573
100
AcDbEntity
  8
LAY-1
  6
CONTINUOUS
 62
     1
100
AcDbLine
 10
173.271338
 20
75.668663
 30
0.0
 11
166.760487
 21
71.909621
 31
0.0
  0
LINE
  5
574
100
AcDbEntity
  8
LAY-1
  6
CONTINUOUS
 62
     1
100
AcDbLine
 10
179.782189
 20
71.909621
 30
0.0
 11
173.271338
 21
75.668663
 31
0.0
  0
LINE
  5
575
100
AcDbEntity
  8
LAY-1
  6
CONTINUOUS
 62
     1
100
AcDbLine
 10
179.782189
 20
64.391537
 30
0.0
 11
179.782189
 21
71.909621
 31
0.0
  0
LINE
  5
576
100
AcDbEntity
  8
LAY-1
  6
CONTINUOUS
 62
     1
100
AcDbLine
 10
166.760487
 20
71.909621
 30
0.0
 11
166.760487
 21
64.391537
 31
0.0
  0
CIRCLE
  5
577
100
AcDbEntity
  8
LAY-1
  6
CONTINUOUS
 62
     1
100
AcDbCircle
 10
173.271338
 20
68.150579
 30
0.0
 40
5.759599
  0
LINE
  5
578
100
AcDbEntity
  8
LAY-1
  6
CONTINUOUS
 62
     1
100
AcDbLine
 10
173.271338
 20
60.632496
 30
0.0
 11
179.782189
 21
64.391537
 31
0.0
  0
LINE
  5
579
100
AcDbEntity
  8
LAY-1
  6
CONTINUOUS
 62
     1
100
AcDbLine
 10
166.760487
 20
64.391537
 30
0.0
 11
173.271338
 21
60.632496
 31
0.0
  0
LINE
  5
57A
100
AcDbEntity
  8
LAY-1
  6
CONTINUOUS
 62
     1
100
AcDbLine
 10
173.271338
 20
60.632496
 30
0.0
 11
179.782189
 21
64.391537
 31
0.0
  0
LINE
  5
57B
100
AcDbEntity
  8
LAY-1
  6
CONTINUOUS
 62
     1
100
AcDbLine
 10
166.760487
 20
64.391537
 30
0.0
 11
173.271338
 21
60.632496
 31
0.0
  0
LINE
  5
57C
100
AcDbEntity
  8
LAY-1
  6
CONTINUOUS
 62
     1
100
AcDbLine
 10
129.90337
 20
119.036631
 30
0.0
 11
123.392519
 21
115.277589
 31
0.0
  0
LINE
  5
57D
100
AcDbEntity
  8
LAY-1
  6
CONTINUOUS
 62
     1
100
AcDbLine
 10
136.414221
 20
115.277589
 30
0.0
 11
129.90337
 21
119.036631
 31
0.0
  0
LINE
  5
57E
100
AcDbEntity
  8
LAY-1
  6
CONTINUOUS
 62
     1
100
AcDbLine
 10
136.414221
 20
107.759505
 30
0.0
 11
136.414221
 21
115.277589
 31
0.0
  0
LINE
  5
57F
100
AcDbEntity
  8
LAY-1
  6
CONTINUOUS
 62
     1
100
AcDbLine
 10
129.90337
 20
104.000464
 30
0.0
 11
136.414221
 21
107.759505
 31
0.0
  0
LINE
  5
580
100
AcDbEntity
  8
LAY-1
  6
CONTINUOUS
 62
     1
100
AcDbLine
 10
123.392519
 20
107.759505
 30
0.0
 11
129.90337
 21
104.000464
 31
0.0
  0
LINE
  5
581
100
AcDbEntity
  8
LAY-1
  6
CONTINUOUS
 62
     1
100
AcDbLine
 10
123.392519
 20
115.277589
 30
0.0
 11
123.392519
 21
107.759505
 31
0.0
  0
CIRCLE
  5
582
100
AcDbEntity
  8
LAY-1
  6
CONTINUOUS
 62
     1
100
AcDbCircle
 10
129.90337
 20
111.518547
 30
0.0
 40
5.759599
  0
CIRCLE
  5
583
100
AcDbEntity
  8
LAY-1
  6
CONTINUOUS
 62
     1
100
AcDbCircle
 10
129.90337
 20
172.850116
 30
0.0
 40
5.759599
  0
LINE
  5
584
100
AcDbEntity
  8
LAY-1
  6
CONTINUOUS
 62
     1
100
AcDbLine
 10
123.392519
 20
169.091074
 30
0.0
 11
123.392519
 21
176.609158
 31
0.0
  0
LINE
  5
585
100
AcDbEntity
  8
LAY-1
  6
CONTINUOUS
 62
     1
100
AcDbLine
 10
123.392519
 20
176.609158
 30
0.0
 11
129.90337
 21
180.368199
 31
0.0
  0
LINE
  5
586
100
AcDbEntity
  8
LAY-1
  6
CONTINUOUS
 62
     1
100
AcDbLine
 10
129.90337
 20
180.368199
 30
0.0
 11
136.414221
 21
176.609158
 31
0.0
  0
LINE
  5
587
100
AcDbEntity
  8
LAY-1
  6
CONTINUOUS
 62
     1
100
AcDbLine
 10
136.414221
 20
176.609158
 30
0.0
 11
136.414221
 21
169.091074
 31
0.0
  0
LINE
  5
588
100
AcDbEntity
  8
LAY-1
  6
CONTINUOUS
 62
     1
100
AcDbLine
 10
136.414221
 20
169.091074
 30
0.0
 11
129.90337
 21
165.332032
 31
0.0
  0
LINE
  5
589
100
AcDbEntity
  8
LAY-1
  6
CONTINUOUS
 62
     1
100
AcDbLine
 10
129.90337
 20
165.332032
 30
0.0
 11
123.392519
 21
169.091074
 31
0.0
  0
LINE
  5
58A
100
AcDbEntity
  8
LAY-1
  6
EXLTYPE3
 62
     1
100
AcDbLine
 10
311.814962
 20
142.184331
 30
0.0
 11
96.059282
 21
142.184331
 31
0.0
  0
LINE
  5
58B
100
AcDbEntity
  8
LAY-1
  6
EXLTYPE3
 62
     1
100
AcDbLine
 10
203.937122
 20
706.7
 30
0.0
 11
203.937122
 21
310.7
 31
0.0
  0
LINE
  5
58C
100
AcDbEntity
  8
LAY-1
  6
EXLTYPE3
 62
     1
100
AcDbLine
 10
287.057481
 20
640.184331
 30
0.0
 11
120.816763
 21
640.184331
 31
0.0
  0
LINE
  5
58D
100
AcDbEntity
  8
LAY-1
  6
EXLTYPE3
 62
     1
100
AcDbLine
 10
203.937122
 20
-422.331337
 30
0.0
 11
203.937122
 21
-26.331337
 31
0.0
  0
LINE
  5
58E
100
AcDbEntity
  8
LAY-1
  6
EXLTYPE3
 62
     1
100
AcDbLine
 10
287.057481
 20
-355.815669
 30
0.0
 11
120.816763
 21
-355.815669
 31
0.0
  0
LINE
  5
58F
100
AcDbEntity
  8
LAY-1
  6
EXLTYPE3
 62
     1
100
AcDbLine
 10
-223.96983
 20
155.2
 30
0.0
 11
-223.96983
 21
128.9
 31
0.0
  0
CIRCLE
  5
590
100
AcDbEntity
  8
LAY-1
  6
CONTINUOUS
 62
     1
100
AcDbCircle
 10
-223.96983
 20
142.184331
 30
0.0
 40
6.6
  0
TEXT
  5
591
100
AcDbEntity
  8
LAY-2
  6
CONTINUOUS
 62
     3
100
AcDbText
 10
582.9232
 20
-308.7472
 30
0.0
 40
16.0
  1
二段式一次用調整器
 41
0.84
  7
EXCADSTD
 72
     5
 11
726.9232
 21
-308.7472
 31
0.0
100
AcDbText
  0
TEXT
  5
592
100
AcDbEntity
  8
LAY-2
  6
CONTINUOUS
 62
     3
100
AcDbText
 10
534.552
 20
-286.232
 30
0.0
 40
16.0
  1
型式
 41
0.984714
  7
EXCADSTD
 72
     5
 11
568.936325
 21
-286.232
 31
0.0
100
AcDbText
  0
TEXT
  5
593
100
AcDbEntity
  8
LAY-2
  6
CONTINUOUS
 62
     3
100
AcDbText
 10
534.168
 20
-308.76
 30
0.0
 40
16.0
  1
品名
 41
0.984714
  7
EXCADSTD
 72
     5
 11
568.552325
 21
-308.76
 31
0.0
100
AcDbText
  0
LINE
  5
594
100
AcDbEntity
  8
LAY-2
  6
CONTINUOUS
 62
     4
100
AcDbLine
 10
527.0
 20
-331.48
 30
0.0
 11
813.72
 21
-331.48
 31
0.0
  0
TEXT
  5
595
100
AcDbEntity
  8
LAY-2
  6
CONTINUOUS
 62
     3
100
AcDbText
 10
628.888
 20
-329.368
 30
0.0
 40
16.0
  1
外観図
 41
1.47392
  7
EXCADSTD
 72
     5
 11
713.111999
 21
-329.368
 31
0.0
100
AcDbText
  0
LINE
  5
596
100
AcDbEntity
  8
LAY-2
  6
CONTINUOUS
 62
     4
100
AcDbLine
 10
527.0
 20
-244.76
 30
0.0
 11
813.72
 21
-244.76
 31
0.0
  0
TEXT
  5
597
100
AcDbEntity
  8
LAY-2
  6
CONTINUOUS
 62
     3
100
AcDbText
 10
582.9488
 20
-286.424
 30
0.0
 40
16.0
  1
ＧＭＦ－７０
 41
0.84
  7
EXCADSTD
 72
     5
 11
678.9488
 21
-286.424
 31
0.0
100
AcDbText
  0
LINE
  5
598
100
AcDbEntity
  8
LAY-2
  6
CONTINUOUS
 62
     4
100
AcDbLine
 10
527.0
 20
-351.0
 30
0.0
 11
813.72
 21
-351.0
 31
0.0
  0
LINE
  5
599
100
AcDbEntity
  8
LAY-2
  6
CONTINUOUS
 62
     4
100
AcDbLine
 10
813.72
 20
-351.0
 30
0.0
 11
813.72
 21
-244.76
 31
0.0
  0
LINE
  5
59A
100
AcDbEntity
  8
LAY-2
  6
CONTINUOUS
 62
     4
100
AcDbLine
 10
527.0
 20
-351.0
 30
0.0
 11
527.0
 21
-244.76
 31
0.0
  0
TEXT
  5
59B
100
AcDbEntity
  8
LAY-2
  6
CONTINUOUS
 62
     3
100
AcDbText
 10
529.048
 20
-264.344
 30
0.0
 40
16.0
  1
作成日
 41
0.84
  7
EXCADSTD
 72
     5
 11
577.048
 21
-264.344
 31
0.0
100
AcDbText
  0
LINE
  5
59C
100
AcDbEntity
  8
LAY-2
  6
CONTINUOUS
 62
     1
100
AcDbLine
 10
527.0
 20
-311.96
 30
0.0
 11
813.72
 21
-311.96
 31
0.0
  0
LINE
  5
59D
100
AcDbEntity
  8
LAY-2
  6
CONTINUOUS
 62
     1
100
AcDbLine
 10
527.0
 20
-289.56
 30
0.0
 11
813.72
 21
-289.56
 31
0.0
  0
LINE
  5
59E
100
AcDbEntity
  8
LAY-2
  6
CONTINUOUS
 62
     1
100
AcDbLine
 10
527.0
 20
-267.16
 30
0.0
 11
813.72
 21
-267.16
 31
0.0
  0
LINE
  5
59F
100
AcDbEntity
  8
LAY-2
  6
CONTINUOUS
 62
     1
100
AcDbLine
 10
575.0
 20
-244.76
 30
0.0
 11
575.0
 21
-311.96
 31
0.0
  0
INSERT
  5
5A0
100
AcDbEntity
  8
LAY-2
  6
CONTINUOUS
 62
     0
100
AcDbBlockReference
  2
SYM-1
 10
666.772055
 20
-340.983
 30
0.0
 41
2.34
 42
2.34
  0
TEXT
  5
5A1
100
AcDbEntity
  8
LAY-2
  6
CONTINUOUS
 62
     3
100
AcDbText
 10
607.084
 20
-264.344
 30
0.0
 40
16.0
  1
２０１４年　４月　１日
 41
0.84
  7
EXCADSTD
 72
     5
 11
783.084
 21
-264.344
 31
0.0
100
AcDbText
  0
TEXT
  5
5A2
100
AcDbEntity
  8
LAY-3
  6
CONTINUOUS
 62
     3
100
AcDbText
 10
-298.6
 20
264.9
 30
0.0
 40
20.0
  1
ＪＩＳ２０Ｋ　２０Ａフランジ
 41
0.684
  7
EXCADSTD
 72
     5
 11
-70.6
 21
264.9
 31
0.0
100
AcDbText
  0
POLYLINE
  5
5A3
100
AcDbEntity
  8
LAY-3
  6
CONTINUOUS
 62
     1
100
AcDb2dPolyline
 66
     1
 10
0.0
 20
0.0
 30
0.0
 70
   128
  0
VERTEX
  5
5A4
100
AcDbEntity
  8
LAY-3
  6
CONTINUOUS
 62
     1
100
AcDbVertex
100
AcDb2dVertex
 10
-311.8
 20
242.184331
 30
0.0
  0
VERTEX
  5
5A5
100
AcDbEntity
  8
LAY-3
  6
CONTINUOUS
 62
     1
100
AcDbVertex
100
AcDb2dVertex
 10
-298.7
 20
263.4
 30
0.0
  0
VERTEX
  5
5A6
100
AcDbEntity
  8
LAY-3
  6
CONTINUOUS
 62
     1
100
AcDbVertex
100
AcDb2dVertex
 10
-59.0
 20
263.4
 30
0.0
  0
SEQEND
  5
5A7
100
AcDbEntity
  8
LAY-3
  6
CONTINUOUS
 62
     1
  0
LINE
  5
5A8
100
AcDbEntity
  8
LAY-3
  6
CONTINUOUS
 62
     1
100
AcDbLine
 10
-311.032857
 20
244.061191
 30
0.0
 11
-311.8
 21
242.184331
 31
0.0
  0
LINE
  5
5A9
100
AcDbEntity
  8
LAY-3
  6
CONTINUOUS
 62
     1
100
AcDbLine
 10
-311.8
 20
242.184331
 30
0.0
 11
-310.465613
 21
243.710936
 31
0.0
  0
LINE
  5
5AA
100
AcDbEntity
  8
LAY-3
  6
CONTINUOUS
 62
     1
100
AcDbLine
 10
-227.46983
 20
232.184331
 30
0.0
 11
22.6
 21
232.184331
 31
0.0
  0
LINE
  5
5AB
100
AcDbEntity
  8
LAY-3
  6
CONTINUOUS
 62
     1
100
AcDbLine
 10
-227.46983
 20
52.184331
 30
0.0
 11
22.6
 21
52.184331
 31
0.0
  0
TEXT
  5
5AC
100
AcDbEntity
  8
LAY-3
  6
CONTINUOUS
 62
     3
100
AcDbText
 10
21.1
 20
102.184331
 30
0.0
 40
20.0
  1
φ
 50
90.0
 41
0.84
  7
EXCADSTD
 72
     5
 11
21.1
 21
118.184331
 31
0.0
100
AcDbText
  0
TEXT
  5
5AD
100
AcDbEntity
  8
LAY-3
  6
CONTINUOUS
 62
     3
100
AcDbText
 10
21.1
 20
122.184331
 30
0.0
 40
20.0
  1
１８０
 50
90.0
 41
0.84
  7
EXCADSTD
 72
     5
 11
21.1
 21
182.184331
 31
0.0
100
AcDbText
  0
LINE
  5
5AE
100
AcDbEntity
  8
LAY-3
  6
CONTINUOUS
 62
     1
100
AcDbLine
 10
22.1
 20
232.184331
 30
0.0
 11
22.1
 21
52.184331
 31
0.0
  0
LINE
  5
5AF
100
AcDbEntity
  8
LAY-3
  6
CONTINUOUS
 62
     1
100
AcDbLine
 10
22.433333
 20
230.184331
 30
0.0
 11
22.1
 21
232.184331
 31
0.0
  0
LINE
  5
5B0
100
AcDbEntity
  8
LAY-3
  6
CONTINUOUS
 62
     1
100
AcDbLine
 10
22.1
 20
232.184331
 30
0.0
 11
21.766667
 21
230.184331
 31
0.0
  0
LINE
  5
5B1
100
AcDbEntity
  8
LAY-3
  6
CONTINUOUS
 62
     1
100
AcDbLine
 10
21.766667
 20
54.184331
 30
0.0
 11
22.1
 21
52.184331
 31
0.0
  0
LINE
  5
5B2
100
AcDbEntity
  8
LAY-3
  6
CONTINUOUS
 62
     1
100
AcDbLine
 10
22.1
 20
52.184331
 30
0.0
 11
22.433333
 21
54.184331
 31
0.0
  0
TEXT
  5
5B3
100
AcDbEntity
  8
LAY-3
  6
CONTINUOUS
 62
     3
100
AcDbText
 10
-187.6
 20
197.1
 30
0.0
 40
20.0
  1
Ｒｃ１／４
 41
0.84
  7
EXCADSTD
 72
     5
 11
-87.6
 21
197.1
 31
0.0
100
AcDbText
  0
POLYLINE
  5
5B4
100
AcDbEntity
  8
LAY-3
  6
CONTINUOUS
 62
     1
100
AcDb2dPolyline
 66
     1
 10
0.0
 20
0.0
 30
0.0
 70
   128
  0
VERTEX
  5
5B5
100
AcDbEntity
  8
LAY-3
  6
CONTINUOUS
 62
     1
100
AcDbVertex
100
AcDb2dVertex
 10
-220.035192
 20
147.483258
 30
0.0
  0
VERTEX
  5
5B6
100
AcDbEntity
  8
LAY-3
  6
CONTINUOUS
 62
     1
100
AcDbVertex
100
AcDb2dVertex
 10
-189.4
 20
196.5
 30
0.0
  0
VERTEX
  5
5B7
100
AcDbEntity
  8
LAY-3
  6
CONTINUOUS
 62
     1
100
AcDbVertex
100
AcDb2dVertex
 10
-90.0
 20
196.5
 30
0.0
  0
SEQEND
  5
5B8
100
AcDbEntity
  8
LAY-3
  6
CONTINUOUS
 62
     1
  0
LINE
  5
5B9
100
AcDbEntity
  8
LAY-3
  6
CONTINUOUS
 62
     1
100
AcDbLine
 10
-219.257868
 20
149.355924
 30
0.0
 11
-220.035192
 21
147.483258
 31
0.0
  0
LINE
  5
5BA
100
AcDbEntity
  8
LAY-3
  6
CONTINUOUS
 62
     1
100
AcDbLine
 10
-220.035192
 20
147.483258
 30
0.0
 11
-218.692534
 21
149.002594
 31
0.0
  0
TEXT
  5
5BB
100
AcDbEntity
  8
LAY-3
  6
CONTINUOUS
 62
     3
100
AcDbText
 10
-298.6
 20
16.7
 30
0.0
 40
20.0
  1
ＪＩＳ１０Ｋ　２０Ａフランジ
 41
0.684
  7
EXCADSTD
 72
     5
 11
-70.6
 21
16.7
 31
0.0
100
AcDbText
  0
POLYLINE
  5
5BC
100
AcDbEntity
  8
LAY-3
  6
CONTINUOUS
 62
     1
100
AcDb2dPolyline
 66
     1
 10
0.0
 20
0.0
 30
0.0
 70
   128
  0
VERTEX
  5
5BD
100
AcDbEntity
  8
LAY-3
  6
CONTINUOUS
 62
     1
100
AcDbVertex
100
AcDb2dVertex
 10
-307.7
 20
42.184331
 30
0.0
  0
VERTEX
  5
5BE
100
AcDbEntity
  8
LAY-3
  6
CONTINUOUS
 62
     1
100
AcDbVertex
100
AcDb2dVertex
 10
-298.7
 20
15.2
 30
0.0
  0
VERTEX
  5
5BF
100
AcDbEntity
  8
LAY-3
  6
CONTINUOUS
 62
     1
100
AcDbVertex
100
AcDb2dVertex
 10
-61.0
 20
15.2
 30
0.0
  0
SEQEND
  5
5C0
100
AcDbEntity
  8
LAY-3
  6
CONTINUOUS
 62
     1
  0
LINE
  5
5C1
100
AcDbEntity
  8
LAY-3
  6
CONTINUOUS
 62
     1
100
AcDbLine
 10
-306.751005
 20
40.392539
 30
0.0
 11
-307.7
 21
42.184331
 31
0.0
  0
LINE
  5
5C2
100
AcDbEntity
  8
LAY-3
  6
CONTINUOUS
 62
     1
100
AcDbLine
 10
-307.7
 20
42.184331
 30
0.0
 11
-307.383423
 21
40.181611
 31
0.0
  0
TEXT
  5
5C3
100
AcDbEntity
  8
LAY-3
  6
CONTINUOUS
 62
     3
100
AcDbText
 10
-227.562878
 20
-20.3
 30
0.0
 40
20.0
  1
（
 41
0.84
  7
EXCADSTD
 72
     5
 11
-211.562878
 21
-20.3
 31
0.0
100
AcDbText
  0
TEXT
  5
5C4
100
AcDbEntity
  8
LAY-3
  6
CONTINUOUS
 62
     3
100
AcDbText
 10
-207.562878
 20
-20.3
 30
0.0
 40
20.0
  1
３０５
 41
0.84
  7
EXCADSTD
 72
     5
 11
-147.562878
 21
-20.3
 31
0.0
100
AcDbText
  0
TEXT
  5
5C5
100
AcDbEntity
  8
LAY-3
  6
CONTINUOUS
 62
     3
100
AcDbText
 10
-147.562878
 20
-20.3
 30
0.0
 40
20.0
  1
）
 41
0.84
  7
EXCADSTD
 72
     5
 11
-131.562878
 21
-20.3
 31
0.0
100
AcDbText
  0
LINE
  5
5C6
100
AcDbEntity
  8
LAY-3
  6
CONTINUOUS
 62
     1
100
AcDbLine
 10
-325.062878
 20
42.184331
 30
0.0
 11
-325.062878
 21
-21.8
 31
0.0
  0
LINE
  5
5C7
100
AcDbEntity
  8
LAY-3
  6
CONTINUOUS
 62
     1
100
AcDbLine
 10
-30.062878
 20
132.659331
 30
0.0
 11
-30.062878
 21
-21.8
 31
0.0
  0
LINE
  5
5C8
100
AcDbEntity
  8
LAY-3
  6
CONTINUOUS
 62
     1
100
AcDbLine
 10
-325.062878
 20
-21.3
 30
0.0
 11
-30.062878
 21
-21.3
 31
0.0
  0
LINE
  5
5C9
100
AcDbEntity
  8
LAY-3
  6
CONTINUOUS
 62
     1
100
AcDbLine
 10
-323.062878
 20
-20.966667
 30
0.0
 11
-325.062878
 21
-21.3
 31
0.0
  0
LINE
  5
5CA
100
AcDbEntity
  8
LAY-3
  6
CONTINUOUS
 62
     1
100
AcDbLine
 10
-325.062878
 20
-21.3
 30
0.0
 11
-323.062878
 21
-21.633333
 31
0.0
  0
LINE
  5
5CB
100
AcDbEntity
  8
LAY-3
  6
CONTINUOUS
 62
     1
100
AcDbLine
 10
-32.062878
 20
-21.633333
 30
0.0
 11
-30.062878
 21
-21.3
 31
0.0
  0
LINE
  5
5CC
100
AcDbEntity
  8
LAY-3
  6
CONTINUOUS
 62
     1
100
AcDbLine
 10
-30.062878
 20
-21.3
 30
0.0
 11
-32.062878
 21
-20.966667
 31
0.0
  0
LINE
  5
5CD
100
AcDbEntity
  8
LAY-3
  6
CONTINUOUS
 62
     1
100
AcDbLine
 10
-377.062878
 20
124.184331
 30
0.0
 11
-377.062878
 21
-21.8
 31
0.0
  0
LINE
  5
5CE
100
AcDbEntity
  8
LAY-3
  6
CONTINUOUS
 62
     1
100
AcDbLine
 10
-325.062878
 20
42.184331
 30
0.0
 11
-325.062878
 21
-21.8
 31
0.0
  0
TEXT
  5
5CF
100
AcDbEntity
  8
LAY-3
  6
CONTINUOUS
 62
     3
100
AcDbText
 10
-371.062878
 20
-20.3
 30
0.0
 40
20.0
  1
５２
 41
0.84
  7
EXCADSTD
 72
     5
 11
-334.398878
 21
-20.3
 31
0.0
100
AcDbText
  0
LINE
  5
5D0
100
AcDbEntity
  8
LAY-3
  6
CONTINUOUS
 62
     1
100
AcDbLine
 10
-377.062878
 20
-21.3
 30
0.0
 11
-325.062878
 21
-21.3
 31
0.0
  0
LINE
  5
5D1
100
AcDbEntity
  8
LAY-3
  6
CONTINUOUS
 62
     1
100
AcDbLine
 10
-375.062878
 20
-20.966667
 30
0.0
 11
-377.062878
 21
-21.3
 31
0.0
  0
LINE
  5
5D2
100
AcDbEntity
  8
LAY-3
  6
CONTINUOUS
 62
     1
100
AcDbLine
 10
-377.062878
 20
-21.3
 30
0.0
 11
-375.062878
 21
-21.633333
 31
0.0
  0
LINE
  5
5D3
100
AcDbEntity
  8
LAY-3
  6
CONTINUOUS
 62
     1
100
AcDbLine
 10
-327.062878
 20
-21.633333
 30
0.0
 11
-325.062878
 21
-21.3
 31
0.0
  0
LINE
  5
5D4
100
AcDbEntity
  8
LAY-3
  6
CONTINUOUS
 62
     1
100
AcDbLine
 10
-325.062878
 20
-21.3
 30
0.0
 11
-327.062878
 21
-20.966667
 31
0.0
  0
LINE
  5
5D5
100
AcDbEntity
  8
LAY-3
  6
CONTINUOUS
 62
     1
100
AcDbLine
 10
-375.062878
 20
42.184331
 30
0.0
 11
-430.2
 21
42.184331
 31
0.0
  0
LINE
  5
5D6
100
AcDbEntity
  8
LAY-3
  6
CONTINUOUS
 62
     1
100
AcDbLine
 10
-353.062878
 20
242.184331
 30
0.0
 11
-430.2
 21
242.184331
 31
0.0
  0
TEXT
  5
5D7
100
AcDbEntity
  8
LAY-3
  6
CONTINUOUS
 62
     3
100
AcDbText
 10
-430.7
 20
112.184331
 30
0.0
 40
20.0
  1
２００
 50
90.0
 41
0.84
  7
EXCADSTD
 72
     5
 11
-430.7
 21
172.184331
 31
0.0
100
AcDbText
  0
LINE
  5
5D8
100
AcDbEntity
  8
LAY-3
  6
CONTINUOUS
 62
     1
100
AcDbLine
 10
-429.7
 20
42.184331
 30
0.0
 11
-429.7
 21
242.184331
 31
0.0
  0
LINE
  5
5D9
100
AcDbEntity
  8
LAY-3
  6
CONTINUOUS
 62
     1
100
AcDbLine
 10
-430.033333
 20
44.184331
 30
0.0
 11
-429.7
 21
42.184331
 31
0.0
  0
LINE
  5
5DA
100
AcDbEntity
  8
LAY-3
  6
CONTINUOUS
 62
     1
100
AcDbLine
 10
-429.7
 20
42.184331
 30
0.0
 11
-429.366667
 21
44.184331
 31
0.0
  0
LINE
  5
5DB
100
AcDbEntity
  8
LAY-3
  6
CONTINUOUS
 62
     1
100
AcDbLine
 10
-429.366667
 20
240.184331
 30
0.0
 11
-429.7
 21
242.184331
 31
0.0
  0
LINE
  5
5DC
100
AcDbEntity
  8
LAY-3
  6
CONTINUOUS
 62
     1
100
AcDbLine
 10
-429.7
 20
242.184331
 30
0.0
 11
-430.033333
 21
240.184331
 31
0.0
  0
LINE
  5
5DD
100
AcDbEntity
  8
LAY-3
  6
CONTINUOUS
 62
     2
100
AcDbLine
 10
-334.773804
 20
321.217645
 30
0.0
 11
-314.773804
 21
321.217645
 31
0.0
  0
LINE
  5
5DE
100
AcDbEntity
  8
LAY-3
  6
CONTINUOUS
 62
     2
100
AcDbLine
 10
-334.773804
 20
311.558152
 30
0.0
 11
-334.773804
 21
321.217645
 31
0.0
  0
LINE
  5
5DF
100
AcDbEntity
  8
LAY-3
  6
CONTINUOUS
 62
     2
100
AcDbLine
 10
-345.078934
 20
311.558152
 30
0.0
 11
-334.773804
 21
311.558152
 31
0.0
  0
LINE
  5
5E0
100
AcDbEntity
  8
LAY-3
  6
CONTINUOUS
 62
     2
100
AcDbLine
 10
-325.114311
 20
291.59353
 30
0.0
 11
-345.078934
 21
311.558152
 31
0.0
  0
LINE
  5
5E1
100
AcDbEntity
  8
LAY-3
  6
CONTINUOUS
 62
     2
100
AcDbLine
 10
-304.773804
 20
311.558152
 30
0.0
 11
-325.114311
 21
291.59353
 31
0.0
  0
LINE
  5
5E2
100
AcDbEntity
  8
LAY-3
  6
CONTINUOUS
 62
     2
100
AcDbLine
 10
-314.773804
 20
311.558152
 30
0.0
 11
-304.773804
 21
311.558152
 31
0.0
  0
LINE
  5
5E3
100
AcDbEntity
  8
LAY-3
  6
CONTINUOUS
 62
     2
100
AcDbLine
 10
-314.773804
 20
321.558152
 30
0.0
 11
-314.773804
 21
311.558152
 31
0.0
  0
LINE
  5
5E4
100
AcDbEntity
  8
LAY-3
  6
CONTINUOUS
 62
     2
100
AcDbLine
 10
742.648048
 20
321.217645
 30
0.0
 11
722.648048
 21
321.217645
 31
0.0
  0
LINE
  5
5E5
100
AcDbEntity
  8
LAY-3
  6
CONTINUOUS
 62
     2
100
AcDbLine
 10
742.648048
 20
311.558152
 30
0.0
 11
742.648048
 21
321.217645
 31
0.0
  0
LINE
  5
5E6
100
AcDbEntity
  8
LAY-3
  6
CONTINUOUS
 62
     2
100
AcDbLine
 10
752.953178
 20
311.558152
 30
0.0
 11
742.648048
 21
311.558152
 31
0.0
  0
LINE
  5
5E7
100
AcDbEntity
  8
LAY-3
  6
CONTINUOUS
 62
     2
100
AcDbLine
 10
732.988555
 20
291.59353
 30
0.0
 11
752.953178
 21
311.558152
 31
0.0
  0
LINE
  5
5E8
100
AcDbEntity
  8
LAY-3
  6
CONTINUOUS
 62
     2
100
AcDbLine
 10
712.648048
 20
311.558152
 30
0.0
 11
732.988555
 21
291.59353
 31
0.0
  0
LINE
  5
5E9
100
AcDbEntity
  8
LAY-3
  6
CONTINUOUS
 62
     2
100
AcDbLine
 10
722.648048
 20
311.558152
 30
0.0
 11
712.648048
 21
311.558152
 31
0.0
  0
LINE
  5
5EA
100
AcDbEntity
  8
LAY-3
  6
CONTINUOUS
 62
     2
100
AcDbLine
 10
722.648048
 20
321.558152
 30
0.0
 11
722.648048
 21
311.558152
 31
0.0
  0
ENDSEC
  0
SECTION
  2
OBJECTS
  0
DICTIONARY
  5
19
100
AcDbDictionary
  3
ACAD_GROUP
350
1A
  3
ACAD_MLINESTYLE
350
1B
  0
DICTIONARY
  5
1A
102
{ACAD_REACTORS
330
19
102
}
100
AcDbDictionary
  0
DICTIONARY
  5
1B
102
{ACAD_REACTORS
330
19
102
}
100
AcDbDictionary
  3
STANDARD
350
1C
  0
MLINESTYLE
  5
1C
102
{ACAD_REACTORS
330
1B
102
}
100
AcDbMlineStyle
  2
Standard
 70
     0
  3

 62
     0
 51
90.0
 52
90.0
 71
     2
 49
0.5
 62
   256
  6
ByLayer
 49
-0.5
 62
   256
  6
ByLayer
  0
ENDSEC
  0
EOF
