  0
SECTION
  2
HEADER
  9
$ACADVER
  1
AC1014
  9
$ACADMAINTVER
 70
     0
  9
$DWGCODEPAGE
  3
ANSI_932
  9
$INSBASE
 10
0.0
 20
0.0
 30
0.0
  9
$EXTMIN
 10
195.0
 20
127.0
 30
0.0
  9
$EXTMAX
 10
1890.904
 20
1470.4
 30
0.0
  9
$LIMMIN
 10
0.0
 20
0.0
  9
$LIMMAX
 10
420.0
 20
297.0
  9
$ORTHOMODE
 70
     0
  9
$REGENMODE
 70
     1
  9
$FILLMODE
 70
     1
  9
$QTEXTMODE
 70
     0
  9
$MIRRTEXT
 70
     1
  9
$DRAGMODE
 70
     2
  9
$LTSCALE
 40
1.0
  9
$OSMODE
 70
     0
  9
$ATTMODE
 70
     1
  9
$TEXTSIZE
 40
0.2
  9
$TRACEWID
 40
0.05
  9
$TEXTSTYLE
  7
STANDARD
  9
$CLAYER
  8
LAY-1
  9
$CELTYPE
  6
CONTINUOUS
  9
$CECOLOR
 62
   256
  9
$CELTSCALE
 40
1.0
  9
$DELOBJ
 70
     1
  9
$DISPSILH
 70
     0
  9
$DIMSCALE
 40
1.0
  9
$DIMASZ
 40
0.18
  9
$DIMEXO
 40
0.0625
  9
$DIMDLI
 40
0.38
  9
$DIMRND
 40
0.0
  9
$DIMDLE
 40
0.0
  9
$DIMEXE
 40
0.18
  9
$DIMTP
 40
0.0
  9
$DIMTM
 40
0.0
  9
$DIMTXT
 40
0.18
  9
$DIMCEN
 40
0.09
  9
$DIMTSZ
 40
0.0
  9
$DIMTOL
 70
     0
  9
$DIMLIM
 70
     0
  9
$DIMTIH
 70
     1
  9
$DIMTOH
 70
     1
  9
$DIMSE1
 70
     0
  9
$DIMSE2
 70
     0
  9
$DIMTAD
 70
     0
  9
$DIMZIN
 70
     0
  9
$DIMBLK
  1

  9
$DIMASO
 70
     1
  9
$DIMSHO
 70
     1
  9
$DIMPOST
  1

  9
$DIMAPOST
  1

  9
$DIMALT
 70
     0
  9
$DIMALTD
 70
     2
  9
$DIMALTF
 40
25.4
  9
$DIMLFAC
 40
1.0
  9
$DIMTOFL
 70
     0
  9
$DIMTVP
 40
0.0
  9
$DIMTIX
 70
     0
  9
$DIMSOXD
 70
     0
  9
$DIMSAH
 70
     0
  9
$DIMBLK1
  1

  9
$DIMBLK2
  1

  9
$DIMSTYLE
  2
STANDARD
  9
$DIMCLRD
 70
     0
  9
$DIMCLRE
 70
     0
  9
$DIMCLRT
 70
     0
  9
$DIMTFAC
 40
1.0
  9
$DIMGAP
 40
0.09
  9
$DIMJUST
 70
     0
  9
$DIMSD1
 70
     0
  9
$DIMSD2
 70
     0
  9
$DIMTOLJ
 70
     1
  9
$DIMTZIN
 70
     0
  9
$DIMALTZ
 70
     0
  9
$DIMALTTZ
 70
     0
  9
$DIMFIT
 70
     3
  9
$DIMUPT
 70
     0
  9
$DIMUNIT
 70
     2
  9
$DIMDEC
 70
     4
  9
$DIMTDEC
 70
     4
  9
$DIMALTU
 70
     2
  9
$DIMALTTD
 70
     2
  9
$DIMTXSTY
  7
STANDARD
  9
$DIMAUNIT
 70
     0
  9
$LUNITS
 70
     2
  9
$LUPREC
 70
     4
  9
$SKETCHINC
 40
0.1
  9
$FILLETRAD
 40
0.0
  9
$AUNITS
 70
     0
  9
$AUPREC
 70
     0
  9
$MENU
  1
acad
  9
$ELEVATION
 40
0.0
  9
$PELEVATION
 40
0.0
  9
$THICKNESS
 40
0.0
  9
$LIMCHECK
 70
     0
  9
$BLIPMODE
 70
     1
  9
$CHAMFERA
 40
0.0
  9
$CHAMFERB
 40
0.0
  9
$CHAMFERC
 40
0.0
  9
$CHAMFERD
 40
0.0
  9
$SKPOLY
 70
     0
  9
$TDCREATE
 40
2457661.144865185
  9
$TDUPDATE
 40
2457661.144865185
  9
$TDINDWG
 40
0.0000000000
  9
$TDUSRTIMER
 40
0.0000000000
  9
$USRTIMER
 70
     1
  9
$ANGBASE
 50
0.0
  9
$ANGDIR
 70
     0
  9
$PDMODE
 70
     0
  9
$PDSIZE
 40
0.0
  9
$PLINEWID
 40
0.0
  9
$COORDS
 70
     1
  9
$SPLFRAME
 70
     0
  9
$SPLINETYPE
 70
     6
  9
$SPLINESEGS
 70
     8
  9
$ATTDIA
 70
     0
  9
$ATTREQ
 70
     1
  9
$HANDLING
 70
     1
  9
$HANDSEED
  5
777
  9
$SURFTAB1
 70
     6
  9
$SURFTAB2
 70
     6
  9
$SURFTYPE
 70
     6
  9
$SURFU
 70
     6
  9
$SURFV
 70
     6
  9
$UCSNAME
  2

  9
$UCSORG
 10
0.0
 20
0.0
 30
0.0
  9
$UCSXDIR
 10
1.0
 20
0.0
 30
0.0
  9
$UCSYDIR
 10
0.0
 20
1.0
 30
0.0
  9
$PUCSNAME
  2

  9
$PUCSORG
 10
0.0
 20
0.0
 30
0.0
  9
$PUCSXDIR
 10
1.0
 20
0.0
 30
0.0
  9
$PUCSYDIR
 10
0.0
 20
1.0
 30
0.0
  9
$USERI1
 70
     0
  9
$USERI2
 70
     0
  9
$USERI3
 70
     0
  9
$USERI4
 70
     0
  9
$USERI5
 70
     0
  9
$USERR1
 40
0.0
  9
$USERR2
 40
0.0
  9
$USERR3
 40
0.0
  9
$USERR4
 40
0.0
  9
$USERR5
 40
0.0
  9
$WORLDVIEW
 70
     1
  9
$SHADEDGE
 70
     3
  9
$SHADEDIF
 70
    70
  9
$TILEMODE
 70
     1
  9
$MAXACTVP
 70
    16
  9
$PINSBASE
 10
0.0
 20
0.0
 30
0.0
  9
$PLIMCHECK
 70
     0
  9
$PEXTMIN
 10
1.000000E+20
 20
1.000000E+20
 30
1.000000E+20
  9
$PEXTMAX
 10
-1.000000E+20
 20
-1.000000E+20
 30
-1.000000E+20
  9
$PLIMMIN
 10
0.0
 20
0.0
  9
$PLIMMAX
 10
12.0
 20
9.0
  9
$UNITMODE
 70
     0
  9
$VISRETAIN
 70
     0
  9
$PLINEGEN
 70
     1
  9
$PSLTSCALE
 70
     0
  9
$TREEDEPTH
 70
  3020
  9
$PICKSTYLE
 70
     1
  9
$CMLSTYLE
  2
Standard
  9
$CMLJUST
 70
     0
  9
$CMLSCALE
 40
1.0
  9
$PROXYGRAPHICS
 70
     0
  9
$MEASUREMENT
 70
     0
  0
ENDSEC
  0
SECTION
  2
CLASSES
  0
CLASS
  1
LWPOLYLINE
  2
AcDbPolyline
  3
"AutoCAD"
 90
        0
280
     0
281
     1
  0
CLASS
  1
IMAGE
  2
AcDbRasterImage
  3
ISM
 90
      127
280
     0
281
     1
  0
CLASS
  1
OLE2FRAME
  2
AcDbOle2Frame
  3
""
 90
        0
280
     0
281
     1
  0
CLASS
  1
HATCH
  2
AcDbHatch
  3
"ACAD_SEDONA"
 90
        0
280
     0
281
     1
  0
CLASS
  1
DICTIONARYVAR
  2
AcDbDictionaryVar
  3
"AutoCAD"
 90
        0
280
     0
281
     0
  0
CLASS
  1
RASTERVARIABLES
  2
AcDbRasterVariables
  3
ISM
 90
        0
280
     0
281
     0
  0
CLASS
  1
IMAGEDEF
  2
AcDbRasterImageDef
  3
ISM
 90
        0
280
     0
281
     0
  0
CLASS
  1
IMAGEDEF_REACTOR
  2
AcDbRasterImageDefReactor
  3
ISM
 90
        1
280
     0
281
     0
  0
CLASS
  1
IDBUFFER
  2
AcDbIdBuffer
  3
"Acad"
 90
        0
280
     0
281
     0
  0
CLASS
  1
SPATIAL_FILTER
  2
AcDbSpatialFilter
  3
"Acad"
 90
        0
280
     0
281
     0
  0
CLASS
  1
XRECORD
  2
AcDbXrecord
  3
"<Built In>"
 90
        0
280
     0
281
     0
  0
CLASS
  1
SORTENTSTABLE
  2
AcDbSortentsTable
  3
"AutoCAD"
 90
        0
280
     0
281
     0
  0
CLASS
  1
LAYER_INDEX
  2
AcDbLayerIndex
  3
"Acad"
 90
        0
280
     0
281
     0
  0
CLASS
  1
SPATIAL_INDEX
  2
AcDbSpatialIndex
  3
"Acad"
 90
        0
280
     0
281
     0
  0
CLASS
  1
OBJECT_PTR
  2
CAseDLPNTableRecord
  3
"ASE-LPNTableRecord"
 90
        1
280
     0
281
     0
  0
CLASS
  1
LAYOUT
  2
AcDbLayout
  3
"AutoCAD 2000"
 90
        0
280
     0
281
     0
  0
CLASS
  1
PLOTSETTINGS
  2
AcDbPlotSettings
  3
"AutoCAD 2000"
 90
        0
280
     0
281
     0
  0
CLASS
  1
ACDBDICTIONARYWDFLT
  2
AcDbDictionaryWithDefault
  3
"AutoCAD 2000"
 90
        0
280
     0
281
     0
  0
CLASS
  1
ACDBPLACEHOLDER
  2
AcDbPlaceHolder
  3
"AutoCAD 2000"
 90
        0
280
     0
281
     0
  0
CLASS
  1
VBA_PROJECT
  2
AcDbVbaProject
  3
"acadvba"
 90
        0
280
     0
281
     0
  0
CLASS
  1
WIPEOUT
  2
AcDbWipeout
  3
WipeOut|AutoCAD Express Tool|expresstools@autodesk.com
 90
      127
280
     0
281
     1
  0
CLASS
  1
WIPEOUTVARIABLES
  2
AcDbWipeoutVariables
  3
WipeOut|AutoCAD Express Tool|expresstools@autodesk.com
 90
        0
280
     0
281
     0
  0
CLASS
  1
RTEXT
  2
RText
  3
RText|AutoCAD Express Tool|expresstools@autodesk.com
 90
        0
280
     0
281
     1
  0
CLASS
  1
ARCALIGNEDTEXT
  2
AcDbArcAlignedText
  3
ATEXT|AutoCAD Express Tool|expresstools@autodesk.com
 90
        0
280
     0
281
     1
  0
ENDSEC
  0
SECTION
  2
TABLES
  0
TABLE
  2
VPORT
  5
7
100
AcDbSymbolTable
 70
     1
  0
VPORT
  5
15
100
AcDbSymbolTableRecord
100
AcDbViewportTableRecord
  2
*ACTIVE
 70
     0
 10
0.0
 20
0.0
 11
1.0
 21
1.0
 12
1042.952
 22
798.7
 13
0.0
 23
0.0
 14
1.0
 24
1.0
 15
0.0
 25
0.0
 16
0.0
 26
0.0
 36
1.0
 17
0.0
 27
0.0
 37
0.0
 40
1343.4
 41
1.722533
 42
50.0
 43
0.0
 44
0.0
 50
0.0
 51
0.0
 71
     0
 72
  1000
 73
     1
 74
     1
 75
     0
 76
     0
 77
     0
 78
     0
  0
ENDTAB
  0
TABLE
  2
LTYPE
  5
4
100
AcDbSymbolTable
 70
     9
  0
LTYPE
  5
11
100
AcDbSymbolTableRecord
100
AcDbLinetypeTableRecord
  2
BYBLOCK
 70
    64
  3

 72
    65
 73
     0
 40
0.0
  0
LTYPE
  5
12
100
AcDbSymbolTableRecord
100
AcDbLinetypeTableRecord
  2
BYLAYER
 70
    64
  3

 72
    65
 73
     0
 40
0.0
  0
LTYPE
  5
13
100
AcDbSymbolTableRecord
100
AcDbLinetypeTableRecord
  2
CONTINUOUS
 70
    64
  3
実線
 72
    65
 73
     0
 40
0.0
  0
LTYPE
  5
1D
100
AcDbSymbolTableRecord
100
AcDbLinetypeTableRecord
  2
EXLTYPE1
 70
    64
  3
破線
 72
    65
 73
     2
 40
4.0
 49
3.0
 74
     0
 49
-1.0
 74
     0
  0
LTYPE
  5
1E
100
AcDbSymbolTableRecord
100
AcDbLinetypeTableRecord
  2
EXLTYPE2
 70
    64
  3
点線
 72
    65
 73
     2
 40
2.0
 49
1.0
 74
     0
 49
-1.0
 74
     0
  0
LTYPE
  5
1F
100
AcDbSymbolTableRecord
100
AcDbLinetypeTableRecord
  2
EXLTYPE3
 70
    64
  3
一点鎖線
 72
    65
 73
     4
 40
33.0
 49
30.0
 74
     0
 49
-1.0
 74
     0
 49
1.0
 74
     0
 49
-1.0
 74
     0
  0
LTYPE
  5
20
100
AcDbSymbolTableRecord
100
AcDbLinetypeTableRecord
  2
EXLTYPE4
 70
    64
  3
二点鎖線
 72
    65
 73
     6
 40
35.0
 49
30.0
 74
     0
 49
-1.0
 74
     0
 49
1.0
 74
     0
 49
-1.0
 74
     0
 49
1.0
 74
     0
 49
-1.0
 74
     0
  0
LTYPE
  5
21
100
AcDbSymbolTableRecord
100
AcDbLinetypeTableRecord
  2
EXLTYPE5
 70
    64
  3
三点鎖線
 72
    65
 73
     8
 40
37.0
 49
30.0
 74
     0
 49
-1.0
 74
     0
 49
1.0
 74
     0
 49
-1.0
 74
     0
 49
1.0
 74
     0
 49
-1.0
 74
     0
 49
1.0
 74
     0
 49
-1.0
 74
     0
  0
LTYPE
  5
22
100
AcDbSymbolTableRecord
100
AcDbLinetypeTableRecord
  2
EXLTYPE6
 70
    64
  3
四点鎖線
 72
    65
 73
    10
 40
39.0
 49
30.0
 74
     0
 49
-1.0
 74
     0
 49
1.0
 74
     0
 49
-1.0
 74
     0
 49
1.0
 74
     0
 49
-1.0
 74
     0
 49
1.0
 74
     0
 49
-1.0
 74
     0
 49
1.0
 74
     0
 49
-1.0
 74
     0
  0
ENDTAB
  0
TABLE
  2
LAYER
  5
2
100
AcDbSymbolTable
 70
     4
  0
LAYER
  5
14
100
AcDbSymbolTableRecord
100
AcDbLayerTableRecord
  2
0
 70
     0
 62
     7
  6
CONTINUOUS
  0
LAYER
  5
25
100
AcDbSymbolTableRecord
100
AcDbLayerTableRecord
  2
LAY-1
 70
    64
 62
     3
  6
CONTINUOUS
  0
LAYER
  5
26
100
AcDbSymbolTableRecord
100
AcDbLayerTableRecord
  2
LAY-2
 70
    64
 62
     7
  6
CONTINUOUS
  0
LAYER
  5
27
100
AcDbSymbolTableRecord
100
AcDbLayerTableRecord
  2
LAY-5
 70
    64
 62
     1
  6
CONTINUOUS
  0
ENDTAB
  0
TABLE
  2
STYLE
  5
3
100
AcDbSymbolTable
 70
     3
  0
STYLE
  5
17
100
AcDbSymbolTableRecord
100
AcDbTextStyleTableRecord
  2
STANDARD
 70
     0
 40
0.0
 41
1.0
 50
0.0
 71
     0
 42
0.0
  3
monotxt
  4
extfont
  0
STYLE
  5
23
100
AcDbSymbolTableRecord
100
AcDbTextStyleTableRecord
  2
EXCADSTD
 70
    64
 40
0.0
 41
1.0
 50
0.0
 71
     0
 42
0.2
  3
monotxt
  4
extfont
  0
STYLE
  5
24
100
AcDbSymbolTableRecord
100
AcDbTextStyleTableRecord
  2
EXCADVERT
 70
    68
 40
0.0
 41
1.0
 50
0.0
 71
     0
 42
0.286885
  3
monotxt
  4
extfont
  0
ENDTAB
  0
TABLE
  2
VIEW
  5
5
100
AcDbSymbolTable
 70
     0
  0
ENDTAB
  0
TABLE
  2
UCS
  5
6
100
AcDbSymbolTable
 70
     0
  0
ENDTAB
  0
TABLE
  2
APPID
  5
8
100
AcDbSymbolTable
 70
     1
  0
APPID
  5
16
100
AcDbSymbolTableRecord
100
AcDbRegAppTableRecord
  2
ACAD
 70
     0
  0
ENDTAB
  0
TABLE
  2
DIMSTYLE
  5
9
100
AcDbSymbolTable
 70
     1
  0
DIMSTYLE
105
18
100
AcDbSymbolTableRecord
100
AcDbDimStyleTableRecord
  2
STANDARD
 70
     0
  3

  4

  5

  6

  7

 40
1.0
 41
0.18
 42
0.0625
 43
0.38
 44
0.18
 45
0.0
 46
0.0
 47
0.0
 48
0.0
 71
     0
 72
     0
 73
     1
 74
     1
 75
     0
 76
     0
 77
     0
 78
     0
140
0.18
141
0.09
142
0.0
143
25.4
144
1.0
145
0.0
146
1.0
147
0.09
170
     0
171
     2
172
     1
173
     0
174
     0
175
     0
176
     0
177
     0
178
     0
270
     2
271
     4
272
     4
273
     2
274
     2
275
     0
280
     0
281
     0
282
     0
283
     1
284
     0
285
     0
286
     0
287
     3
288
     0
340
17
  0
ENDTAB
  0
TABLE
  2
BLOCK_RECORD
  5
1
100
AcDbSymbolTable
 70
    15
  0
BLOCK_RECORD
  5
A
100
AcDbSymbolTableRecord
100
AcDbBlockTableRecord
  2
*MODEL_SPACE
  0
BLOCK_RECORD
  5
B
100
AcDbSymbolTableRecord
100
AcDbBlockTableRecord
  2
*PAPER_SPACE
  0
BLOCK_RECORD
  5
28
100
AcDbSymbolTableRecord
100
AcDbBlockTableRecord
  2
_EX_NORM
  0
BLOCK_RECORD
  5
29
100
AcDbSymbolTableRecord
100
AcDbBlockTableRecord
  2
_EX_BNORM
  0
BLOCK_RECORD
  5
2A
100
AcDbSymbolTableRecord
100
AcDbBlockTableRecord
  2
_EX_BCIR
  0
BLOCK_RECORD
  5
2B
100
AcDbSymbolTableRecord
100
AcDbBlockTableRecord
  2
_EX_RCIVIL
  0
BLOCK_RECORD
  5
2C
100
AcDbSymbolTableRecord
100
AcDbBlockTableRecord
  2
_EX_SLANT
  0
BLOCK_RECORD
  5
2D
100
AcDbSymbolTableRecord
100
AcDbBlockTableRecord
  2
_EX_NONE
  0
BLOCK_RECORD
  5
2E
100
AcDbSymbolTableRecord
100
AcDbBlockTableRecord
  2
_EX_CIVIL
  0
BLOCK_RECORD
  5
2F
100
AcDbSymbolTableRecord
100
AcDbBlockTableRecord
  2
_EX_WCIR
  0
BLOCK_RECORD
  5
30
100
AcDbSymbolTableRecord
100
AcDbBlockTableRecord
  2
_EX_WCIR2
  0
BLOCK_RECORD
  5
31
100
AcDbSymbolTableRecord
100
AcDbBlockTableRecord
  2
_EX_WNORM
  0
BLOCK_RECORD
  5
32
100
AcDbSymbolTableRecord
100
AcDbBlockTableRecord
  2
_EX_NNORM
  0
BLOCK_RECORD
  5
33
100
AcDbSymbolTableRecord
100
AcDbBlockTableRecord
  2
_EX_BBOX
  0
BLOCK_RECORD
  5
34
100
AcDbSymbolTableRecord
100
AcDbBlockTableRecord
  2
_EX_WBOX
  0
BLOCK_RECORD
  5
35
100
AcDbSymbolTableRecord
100
AcDbBlockTableRecord
  2
_EX_INTEGRAL
  0
BLOCK_RECORD
  5
36
100
AcDbSymbolTableRecord
100
AcDbBlockTableRecord
  2
SYM-1
  0
ENDTAB
  0
ENDSEC
  0
SECTION
  2
BLOCKS
  0
BLOCK
  5
D
100
AcDbEntity
  8
0
100
AcDbBlockBegin
  2
*MODEL_SPACE
 70
     0
 10
0.0
 20
0.0
 30
0.0
  3
*MODEL_SPACE
  1

  0
ENDBLK
  5
E
100
AcDbEntity
  8
0
100
AcDbBlockEnd
  0
BLOCK
  5
F
100
AcDbEntity
 67
     1
  8
0
100
AcDbBlockBegin
  2
*PAPER_SPACE
 70
     0
 10
0.0
 20
0.0
 30
0.0
  3
*PAPER_SPACE
  1

  0
ENDBLK
  5
10
100
AcDbEntity
 67
     1
  8
0
100
AcDbBlockEnd
  0
BLOCK
  5
37
100
AcDbEntity
  8
0
100
AcDbBlockBegin
  2
_EX_NORM
 70
     0
 10
0.0
 20
0.0
 30
0.0
  3
_EX_NORM
  1

  0
LINE
  5
38
100
AcDbEntity
  8
0
  6
CONTINUOUS
 62
     0
100
AcDbLine
 10
0.0
 20
0.0
 30
0.0
 11
-1.0
 21
0.0
 31
0.0
  0
LINE
  5
39
100
AcDbEntity
  8
0
  6
CONTINUOUS
 62
     0
100
AcDbLine
 10
0.0
 20
0.0
 30
0.0
 11
-1.0
 21
0.166667
 31
0.0
  0
LINE
  5
3A
100
AcDbEntity
  8
0
  6
CONTINUOUS
 62
     0
100
AcDbLine
 10
0.0
 20
0.0
 30
0.0
 11
-1.0
 21
-0.166667
 31
0.0
  0
ENDBLK
  5
3B
100
AcDbEntity
  8
0
100
AcDbBlockEnd
  0
BLOCK
  5
3C
100
AcDbEntity
  8
0
100
AcDbBlockBegin
  2
_EX_BNORM
 70
     0
 10
0.0
 20
0.0
 30
0.0
  3
_EX_BNORM
  1

  0
LINE
  5
3D
100
AcDbEntity
  8
0
  6
CONTINUOUS
 62
     0
100
AcDbLine
 10
0.0
 20
0.0
 30
0.0
 11
-1.0
 21
0.0
 31
0.0
  0
LINE
  5
3E
100
AcDbEntity
  8
0
  6
CONTINUOUS
 62
     0
100
AcDbLine
 10
0.0
 20
0.0
 30
0.0
 11
-1.0
 21
0.166667
 31
0.0
  0
LINE
  5
3F
100
AcDbEntity
  8
0
  6
CONTINUOUS
 62
     0
100
AcDbLine
 10
0.0
 20
0.0
 30
0.0
 11
-1.0
 21
-0.166667
 31
0.0
  0
LINE
  5
40
100
AcDbEntity
  8
0
  6
CONTINUOUS
 62
     0
100
AcDbLine
 10
0.0
 20
0.0
 30
0.0
 11
-1.0
 21
0.083333
 31
0.0
  0
LINE
  5
41
100
AcDbEntity
  8
0
  6
CONTINUOUS
 62
     0
100
AcDbLine
 10
0.0
 20
0.0
 30
0.0
 11
-1.0
 21
-0.083333
 31
0.0
  0
LINE
  5
42
100
AcDbEntity
  8
0
  6
CONTINUOUS
 62
     0
100
AcDbLine
 10
-1.0
 20
0.166667
 30
0.0
 11
-1.0
 21
-0.166667
 31
0.0
  0
ENDBLK
  5
43
100
AcDbEntity
  8
0
100
AcDbBlockEnd
  0
BLOCK
  5
44
100
AcDbEntity
  8
0
100
AcDbBlockBegin
  2
_EX_BCIR
 70
     0
 10
0.0
 20
0.0
 30
0.0
  3
_EX_BCIR
  1

  0
LINE
  5
45
100
AcDbEntity
  8
0
  6
CONTINUOUS
 62
     0
100
AcDbLine
 10
0.0
 20
0.0
 30
0.0
 11
-1.0
 21
0.0
 31
0.0
  0
CIRCLE
  5
46
100
AcDbEntity
  8
0
  6
CONTINUOUS
 62
     0
100
AcDbCircle
 10
0.0
 20
0.0
 30
0.0
 40
0.5
  0
CIRCLE
  5
47
100
AcDbEntity
  8
0
  6
CONTINUOUS
 62
     0
100
AcDbCircle
 10
0.0
 20
0.0
 30
0.0
 40
0.25
  0
ENDBLK
  5
48
100
AcDbEntity
  8
0
100
AcDbBlockEnd
  0
BLOCK
  5
49
100
AcDbEntity
  8
0
100
AcDbBlockBegin
  2
_EX_RCIVIL
 70
     0
 10
0.0
 20
0.0
 30
0.0
  3
_EX_RCIVIL
  1

  0
LINE
  5
4A
100
AcDbEntity
  8
0
  6
CONTINUOUS
 62
     0
100
AcDbLine
 10
0.0
 20
0.0
 30
0.0
 11
-1.0
 21
0.0
 31
0.0
  0
LINE
  5
4B
100
AcDbEntity
  8
0
  6
CONTINUOUS
 62
     0
100
AcDbLine
 10
-1.0
 20
-0.25
 30
0.0
 11
0.0
 21
-0.25
 31
0.0
  0
LINE
  5
4C
100
AcDbEntity
  8
0
  6
CONTINUOUS
 62
     0
100
AcDbLine
 10
-1.0
 20
-0.125
 30
0.0
 11
0.0
 21
-0.125
 31
0.0
  0
ENDBLK
  5
4D
100
AcDbEntity
  8
0
100
AcDbBlockEnd
  0
BLOCK
  5
4E
100
AcDbEntity
  8
0
100
AcDbBlockBegin
  2
_EX_SLANT
 70
     0
 10
0.0
 20
0.0
 30
0.0
  3
_EX_SLANT
  1

  0
LINE
  5
4F
100
AcDbEntity
  8
0
  6
CONTINUOUS
 62
     0
100
AcDbLine
 10
0.0
 20
0.0
 30
0.0
 11
-1.0
 21
0.0
 31
0.0
  0
LINE
  5
50
100
AcDbEntity
  8
0
  6
CONTINUOUS
 62
     0
100
AcDbLine
 10
0.707107
 20
0.707107
 30
0.0
 11
-0.707107
 21
-0.707107
 31
0.0
  0
ENDBLK
  5
51
100
AcDbEntity
  8
0
100
AcDbBlockEnd
  0
BLOCK
  5
52
100
AcDbEntity
  8
0
100
AcDbBlockBegin
  2
_EX_NONE
 70
     0
 10
0.0
 20
0.0
 30
0.0
  3
_EX_NONE
  1

  0
LINE
  5
53
100
AcDbEntity
  8
0
  6
CONTINUOUS
 62
     0
100
AcDbLine
 10
0.0
 20
0.0
 30
0.0
 11
-1.0
 21
0.0
 31
0.0
  0
ENDBLK
  5
54
100
AcDbEntity
  8
0
100
AcDbBlockEnd
  0
BLOCK
  5
55
100
AcDbEntity
  8
0
100
AcDbBlockBegin
  2
_EX_CIVIL
 70
     0
 10
0.0
 20
0.0
 30
0.0
  3
_EX_CIVIL
  1

  0
LINE
  5
56
100
AcDbEntity
  8
0
  6
CONTINUOUS
 62
     0
100
AcDbLine
 10
0.0
 20
0.0
 30
0.0
 11
-1.0
 21
0.0
 31
0.0
  0
LINE
  5
57
100
AcDbEntity
  8
0
  6
CONTINUOUS
 62
     0
100
AcDbLine
 10
-1.0
 20
0.25
 30
0.0
 11
0.0
 21
0.25
 31
0.0
  0
LINE
  5
58
100
AcDbEntity
  8
0
  6
CONTINUOUS
 62
     0
100
AcDbLine
 10
-1.0
 20
0.125
 30
0.0
 11
0.0
 21
0.125
 31
0.0
  0
ENDBLK
  5
59
100
AcDbEntity
  8
0
100
AcDbBlockEnd
  0
BLOCK
  5
5A
100
AcDbEntity
  8
0
100
AcDbBlockBegin
  2
_EX_WCIR
 70
     0
 10
0.0
 20
0.0
 30
0.0
  3
_EX_WCIR
  1

  0
LINE
  5
5B
100
AcDbEntity
  8
0
  6
CONTINUOUS
 62
     0
100
AcDbLine
 10
0.0
 20
0.0
 30
0.0
 11
-1.0
 21
0.0
 31
0.0
  0
CIRCLE
  5
5C
100
AcDbEntity
  8
0
  6
CONTINUOUS
 62
     0
100
AcDbCircle
 10
0.0
 20
0.0
 30
0.0
 40
0.5
  0
ENDBLK
  5
5D
100
AcDbEntity
  8
0
100
AcDbBlockEnd
  0
BLOCK
  5
5E
100
AcDbEntity
  8
0
100
AcDbBlockBegin
  2
_EX_WCIR2
 70
     0
 10
0.0
 20
0.0
 30
0.0
  3
_EX_WCIR2
  1

  0
LINE
  5
5F
100
AcDbEntity
  8
0
  6
CONTINUOUS
 62
     0
100
AcDbLine
 10
-0.5
 20
0.0
 30
0.0
 11
-1.0
 21
0.0
 31
0.0
  0
CIRCLE
  5
60
100
AcDbEntity
  8
0
  6
CONTINUOUS
 62
     0
100
AcDbCircle
 10
0.0
 20
0.0
 30
0.0
 40
0.5
  0
ENDBLK
  5
61
100
AcDbEntity
  8
0
100
AcDbBlockEnd
  0
BLOCK
  5
62
100
AcDbEntity
  8
0
100
AcDbBlockBegin
  2
_EX_WNORM
 70
     0
 10
0.0
 20
0.0
 30
0.0
  3
_EX_WNORM
  1

  0
LINE
  5
63
100
AcDbEntity
  8
0
  6
CONTINUOUS
 62
     0
100
AcDbLine
 10
-1.0
 20
0.0
 30
0.0
 11
-1.0
 21
0.0
 31
0.0
  0
LINE
  5
64
100
AcDbEntity
  8
0
  6
CONTINUOUS
 62
     0
100
AcDbLine
 10
0.0
 20
0.0
 30
0.0
 11
-1.0
 21
0.166667
 31
0.0
  0
LINE
  5
65
100
AcDbEntity
  8
0
  6
CONTINUOUS
 62
     0
100
AcDbLine
 10
0.0
 20
0.0
 30
0.0
 11
-1.0
 21
-0.166667
 31
0.0
  0
LINE
  5
66
100
AcDbEntity
  8
0
  6
CONTINUOUS
 62
     0
100
AcDbLine
 10
-1.0
 20
0.166667
 30
0.0
 11
-1.0
 21
-0.166667
 31
0.0
  0
ENDBLK
  5
67
100
AcDbEntity
  8
0
100
AcDbBlockEnd
  0
BLOCK
  5
68
100
AcDbEntity
  8
0
100
AcDbBlockBegin
  2
_EX_NNORM
 70
     0
 10
0.0
 20
0.0
 30
0.0
  3
_EX_NNORM
  1

  0
LINE
  5
69
100
AcDbEntity
  8
0
  6
CONTINUOUS
 62
     0
100
AcDbLine
 10
0.0
 20
0.0
 30
0.0
 11
-1.0
 21
0.0
 31
0.0
  0
LINE
  5
6A
100
AcDbEntity
  8
0
  6
CONTINUOUS
 62
     0
100
AcDbLine
 10
0.0
 20
0.0
 30
0.0
 11
-1.0
 21
0.166667
 31
0.0
  0
LINE
  5
6B
100
AcDbEntity
  8
0
  6
CONTINUOUS
 62
     0
100
AcDbLine
 10
0.0
 20
0.0
 30
0.0
 11
-1.0
 21
-0.166667
 31
0.0
  0
LINE
  5
6C
100
AcDbEntity
  8
0
  6
CONTINUOUS
 62
     0
100
AcDbLine
 10
-1.0
 20
0.166667
 30
0.0
 11
-1.0
 21
-0.166667
 31
0.0
  0
ENDBLK
  5
6D
100
AcDbEntity
  8
0
100
AcDbBlockEnd
  0
BLOCK
  5
6E
100
AcDbEntity
  8
0
100
AcDbBlockBegin
  2
_EX_BBOX
 70
     0
 10
0.0
 20
0.0
 30
0.0
  3
_EX_BBOX
  1

  0
LINE
  5
6F
100
AcDbEntity
  8
0
  6
CONTINUOUS
 62
     0
100
AcDbLine
 10
0.0
 20
0.0
 30
0.0
 11
-1.0
 21
0.0
 31
0.0
  0
LINE
  5
70
100
AcDbEntity
  8
0
  6
CONTINUOUS
 62
     0
100
AcDbLine
 10
-0.5
 20
0.5
 30
0.0
 11
0.5
 21
0.5
 31
0.0
  0
LINE
  5
71
100
AcDbEntity
  8
0
  6
CONTINUOUS
 62
     0
100
AcDbLine
 10
0.5
 20
0.5
 30
0.0
 11
0.5
 21
-0.5
 31
0.0
  0
LINE
  5
72
100
AcDbEntity
  8
0
  6
CONTINUOUS
 62
     0
100
AcDbLine
 10
0.5
 20
-0.5
 30
0.0
 11
-0.5
 21
-0.5
 31
0.0
  0
LINE
  5
73
100
AcDbEntity
  8
0
  6
CONTINUOUS
 62
     0
100
AcDbLine
 10
-0.5
 20
-0.5
 30
0.0
 11
-0.5
 21
0.5
 31
0.0
  0
LINE
  5
74
100
AcDbEntity
  8
0
  6
CONTINUOUS
 62
     0
100
AcDbLine
 10
-0.25
 20
0.25
 30
0.0
 11
0.25
 21
0.25
 31
0.0
  0
LINE
  5
75
100
AcDbEntity
  8
0
  6
CONTINUOUS
 62
     0
100
AcDbLine
 10
0.25
 20
0.25
 30
0.0
 11
0.25
 21
-0.25
 31
0.0
  0
LINE
  5
76
100
AcDbEntity
  8
0
  6
CONTINUOUS
 62
     0
100
AcDbLine
 10
0.25
 20
-0.25
 30
0.0
 11
-0.25
 21
-0.25
 31
0.0
  0
LINE
  5
77
100
AcDbEntity
  8
0
  6
CONTINUOUS
 62
     0
100
AcDbLine
 10
-0.25
 20
-0.25
 30
0.0
 11
-0.25
 21
0.25
 31
0.0
  0
ENDBLK
  5
78
100
AcDbEntity
  8
0
100
AcDbBlockEnd
  0
BLOCK
  5
79
100
AcDbEntity
  8
0
100
AcDbBlockBegin
  2
_EX_WBOX
 70
     0
 10
0.0
 20
0.0
 30
0.0
  3
_EX_WBOX
  1

  0
LINE
  5
7A
100
AcDbEntity
  8
0
  6
CONTINUOUS
 62
     0
100
AcDbLine
 10
-0.5
 20
0.0
 30
0.0
 11
-1.0
 21
0.0
 31
0.0
  0
LINE
  5
7B
100
AcDbEntity
  8
0
  6
CONTINUOUS
 62
     0
100
AcDbLine
 10
-0.5
 20
0.5
 30
0.0
 11
0.5
 21
0.5
 31
0.0
  0
LINE
  5
7C
100
AcDbEntity
  8
0
  6
CONTINUOUS
 62
     0
100
AcDbLine
 10
0.5
 20
0.5
 30
0.0
 11
0.5
 21
-0.5
 31
0.0
  0
LINE
  5
7D
100
AcDbEntity
  8
0
  6
CONTINUOUS
 62
     0
100
AcDbLine
 10
0.5
 20
-0.5
 30
0.0
 11
-0.5
 21
-0.5
 31
0.0
  0
LINE
  5
7E
100
AcDbEntity
  8
0
  6
CONTINUOUS
 62
     0
100
AcDbLine
 10
-0.5
 20
-0.5
 30
0.0
 11
-0.5
 21
0.5
 31
0.0
  0
ENDBLK
  5
7F
100
AcDbEntity
  8
0
100
AcDbBlockEnd
  0
BLOCK
  5
80
100
AcDbEntity
  8
0
100
AcDbBlockBegin
  2
_EX_INTEGRAL
 70
     0
 10
0.0
 20
0.0
 30
0.0
  3
_EX_INTEGRAL
  1

  0
LINE
  5
81
100
AcDbEntity
  8
0
  6
CONTINUOUS
 62
     0
100
AcDbLine
 10
0.0
 20
0.0
 30
0.0
 11
-1.0
 21
0.0
 31
0.0
  0
ARC
  5
82
100
AcDbEntity
  8
0
  6
CONTINUOUS
 62
     0
100
AcDbCircle
 10
0.542115
 20
0.164992
 30
0.0
 40
0.56667
100
AcDbArc
 50
73.07249
 51
196.927513
  0
ARC
  5
83
100
AcDbEntity
  8
0
  6
CONTINUOUS
 62
     0
100
AcDbCircle
 10
-0.542115
 20
-0.164992
 30
0.0
 40
0.56667
100
AcDbArc
 50
253.072487
 51
16.927513
  0
ENDBLK
  5
84
100
AcDbEntity
  8
0
100
AcDbBlockEnd
  0
BLOCK
  5
85
100
AcDbEntity
  8
0
100
AcDbBlockBegin
  2
SYM-1
 70
     0
 10
0.0
 20
0.0
 30
0.0
  3
SYM-1
  1

  0
HATCH
  5
86
100
AcDbEntity
  8
0
  6
CONTINUOUS
 62
     3
100
AcDbHatch
 10
0.0
 20
0.0
 30
0.0
210
0.0
220
0.0
230
1.0
  2
SOLID
 70
     1
 71
     1
 91
        1
 92
        1
 93
       16
 72
     1
 10
24.351152239011505
 20
-2.0357142857144446
 11
25.613295096154353
 21
-2.0357142857144446
 72
     1
 10
25.613295096154353
 20
-2.0357142857144446
 11
25.613295096154353
 21
-2.8500000000001648
 72
     1
 10
25.613295096154353
 20
-2.8500000000001648
 11
22.23400938186861
 21
-2.8500000000001648
 72
     1
 10
22.23400938186861
 20
-2.8500000000001648
 11
22.23400938186861
 21
-2.0357142857144446
 72
     1
 10
22.23400938186861
 20
-2.0357142857144446
 11
23.536866524725802
 21
-2.0357142857144446
 72
     1
 10
23.536866524725802
 20
-2.0357142857144446
 11
23.536866524725802
 21
0.3257142857141346
 72
     1
 10
23.536866524725802
 20
0.3257142857141346
 11
22.519009381868621
 21
0.3257142857141346
 72
     1
 10
22.519009381868621
 20
0.3257142857141346
 11
22.519009381868621
 21
1.1399999999998514
 72
     1
 10
22.519009381868621
 20
1.1399999999998514
 11
23.536866524725802
 21
1.1399999999998514
 72
     1
 10
23.536866524725802
 20
1.1399999999998514
 11
23.536866524725802
 21
2.8499999999998487
 72
     1
 10
23.536866524725802
 20
2.8499999999998487
 11
24.351152239011505
 21
2.8499999999998487
 72
     1
 10
24.351152239011505
 20
2.8499999999998487
 11
24.351152239011505
 21
1.1399999999998514
 72
     1
 10
24.351152239011505
 20
1.1399999999998514
 11
25.531866524725821
 21
1.1399999999998514
 72
     1
 10
25.531866524725821
 20
1.1399999999998514
 11
25.531866524725821
 21
0.3257142857141346
 72
     1
 10
25.531866524725821
 20
0.3257142857141346
 11
24.351152239011505
 21
0.3257142857141346
 72
     1
 10
24.351152239011505
 20
0.3257142857141346
 11
24.351152239011505
 21
-2.0357142857144446
 97
        0
 75
     0
 76
     1
 98
        1
 10
0.0
 20
0.0
  0
HATCH
  5
87
100
AcDbEntity
  8
0
  6
CONTINUOUS
 62
     3
100
AcDbHatch
 10
0.0
 20
0.0
 30
0.0
210
0.0
220
0.0
230
1.0
  2
SOLID
 70
     1
 71
     1
 91
        1
 92
        1
 93
       17
 72
     2
 10
15.796286246552746
 20
4.4303755974531924
 40
7.328571428571454
 50
44.165469
 51
51.472792
 73
     0
 72
     1
 10
20.361152239011439
 20
-1.3028571428572775
 11
19.948878200429583
 21
-0.5887775613918898
 72
     2
 10
15.796286246552746
 20
4.4303755974531924
 40
6.5142857142857364
 50
309.602625
 51
331.307968
 73
     1
 72
     1
 10
21.510701937024301
 20
1.3028571428570004
 11
20.157580810440017
 21
1.3028571428570004
 72
     1
 10
20.157580810440017
 20
1.3028571428570004
 11
20.157580810440017
 21
2.0357142857141319
 72
     1
 10
20.157580810440017
 20
2.0357142857141319
 11
21.053295096154336
 21
2.0357142857141319
 72
     1
 10
21.053295096154336
 20
2.0357142857141319
 11
21.053295096154336
 21
2.8499999999998487
 72
     1
 10
21.053295096154336
 20
2.8499999999998487
 11
21.786152239011507
 21
2.8499999999998487
 72
     1
 10
21.786152239011507
 20
2.8499999999998487
 11
21.786152239011507
 21
2.0357142857141319
 72
     1
 10
21.786152239011507
 20
2.0357142857141319
 11
22.722580810439986
 21
2.0357142857141319
 72
     2
 10
15.796286246552746
 20
4.4303755974531924
 40
7.328571428571454
 50
19.072051
 51
32.871988
 73
     0
 72
     1
 10
21.951445818831196
 20
0.4526916201288422
 11
22.926152239011437
 21
-0.4885714285715821
 72
     1
 10
22.926152239011437
 20
-0.4885714285715821
 11
22.350277580116831
 21
-1.0644460874662265
 72
     1
 10
22.350277580116831
 20
-1.0644460874662265
 11
21.786152239011507
 21
-0.5196765779765897
 72
     1
 10
21.786152239011507
 20
-0.5196765779765897
 11
21.786152239011507
 21
-2.8500000000001648
 72
     1
 10
21.786152239011507
 20
-2.8500000000001648
 11
21.053295096154336
 21
-2.8500000000001648
 72
     1
 10
21.053295096154336
 20
-2.8500000000001648
 11
21.053295096154336
 21
-0.6756813096801793
 97
        0
 75
     0
 76
     1
 98
        1
 10
0.0
 20
0.0
  0
HATCH
  5
88
100
AcDbEntity
  8
0
  6
CONTINUOUS
 62
     3
100
AcDbHatch
 10
0.0
 20
0.0
 30
0.0
210
0.0
220
0.0
230
1.0
  2
SOLID
 70
     1
 71
     1
 91
        1
 92
        1
 93
       12
 72
     2
 10
26.09465466477446
 20
-6.5604295733743392
 40
11.481428571428609
 50
150.903074
 51
156.790773
 73
     1
 72
     1
 10
15.542396441700383
 20
-2.035714285714505
 11
18.049394029288031
 21
-2.0357142857144055
 72
     2
 10
10.927987441101074
 20
-4.0835590566205937
 40
7.4100000000000241
 50
16.043216
 51
21.362935
 73
     1
 72
     1
 10
17.828858648663306
 20
-1.3842857142858769
 11
18.610437953297115
 21
-1.3842857142858769
 72
     2
 10
10.927987441101074
 20
-4.0835590566205937
 40
8.1428571428571708
 50
340.64078
 51
351.286733
 73
     0
 72
     1
 10
18.976866524725686
 20
-2.8500000000001648
 11
14.457580810439971
 21
-2.8500000000001648
 72
     2
 10
26.09465466477446
 20
-6.5604295733743392
 40
12.214285714285754
 50
197.684652
 51
207.200855
 73
     0
 72
     1
 10
15.231152239011401
 20
-0.9771428571430043
 11
14.091152239011485
 21
-0.9771428571430043
 72
     1
 10
14.091152239011485
 20
-0.9771428571430043
 11
14.091152239011485
 21
-0.162857142857284
 72
     1
 10
14.091152239011485
 20
-0.162857142857284
 11
19.302580810440098
 21
-0.162857142857284
 72
     1
 10
19.302580810440098
 20
-0.162857142857284
 11
19.302580810440098
 21
-0.9771428571430043
 72
     1
 10
19.302580810440098
 20
-0.9771428571430043
 11
16.062201750099412
 21
-0.9771428571430043
 97
        0
 75
     0
 76
     1
 98
        1
 10
0.0
 20
0.0
  0
HATCH
  5
89
100
AcDbEntity
  8
0
  6
CONTINUOUS
 62
     3
100
AcDbHatch
 10
0.0
 20
0.0
 30
0.0
210
0.0
220
0.0
230
1.0
  2
SOLID
 70
     1
 71
     1
 91
        1
 92
        1
 93
       10
 72
     2
 10
26.143491684008573
 20
11.064410217386417
 40
13.028571428571473
 50
129.545698
 51
136.474664
 73
     0
 72
     1
 10
16.696866524725998
 20
2.0919553376225579
 11
16.696866524725998
 21
2.8499999999998487
 72
     1
 10
16.696866524725998
 20
2.8499999999998487
 11
17.104009381868686
 21
2.8499999999998487
 72
     2
 10
26.143491684008573
 20
11.064410217386417
 40
12.214285714285754
 50
222.262231
 51
237.763996
 73
     1
 72
     1
 10
19.628295096154382
 20
0.7328571428570001
 11
19.100346295490944
 21
0.1036722629605507
 72
     2
 10
26.143491684008573
 20
11.064410217386417
 40
13.028571428571473
 50
122.723968
 51
128.230009
 73
     0
 72
     1
 10
18.08115223901148
 20
0.830038905819066
 11
18.08115223901148
 21
0.2035714285712729
 72
     1
 10
18.08115223901148
 20
0.2035714285712729
 11
16.696866524725998
 21
0.2035714285712729
 72
     1
 10
16.696866524725998
 20
0.2035714285712729
 11
16.696866524725998
 21
1.0178571428569896
 72
     1
 10
16.696866524725998
 20
1.0178571428569896
 11
17.848285550942784
 21
1.0178571428569896
 97
        0
 75
     0
 76
     1
 98
        1
 10
0.0
 20
0.0
  0
HATCH
  5
8A
100
AcDbEntity
  8
0
  6
CONTINUOUS
 62
     3
100
AcDbHatch
 10
0.0
 20
0.0
 30
0.0
210
0.0
220
0.0
230
1.0
  2
SOLID
 70
     1
 71
     1
 91
        1
 92
        1
 93
       10
 72
     2
 10
7.2502413654429532
 20
11.064410217386417
 40
13.028571428571473
 50
51.769991
 51
57.276032
 73
     0
 72
     1
 10
14.293386753960569
 20
0.1036722629605329
 11
13.76543795329713
 21
0.7328571428569894
 72
     2
 10
7.2502413654429532
 20
11.064410217386417
 40
12.214285714285754
 50
302.236004
 51
317.737769
 73
     1
 72
     1
 10
16.289723667582841
 20
2.8499999999998487
 11
16.696866524725998
 21
2.8499999999998487
 72
     1
 10
16.696866524725998
 20
2.8499999999998487
 11
16.696866524725998
 21
2.0919553376230482
 72
     2
 10
7.2502413654429532
 20
11.064410217386417
 40
13.028571428571473
 50
43.525336
 51
50.454302
 73
     0
 72
     1
 10
15.545447498508743
 20
1.0178571428569896
 11
16.696866524725998
 21
1.0178571428569896
 72
     1
 10
16.696866524725998
 20
1.0178571428569896
 11
16.696866524725998
 21
0.2035714285712729
 72
     1
 10
16.696866524725998
 20
0.2035714285712729
 11
15.312580810440046
 21
0.2035714285712729
 72
     1
 10
15.312580810440046
 20
0.2035714285712729
 11
15.312580810440046
 21
0.8300389058190589
 97
        0
 75
     0
 76
     1
 98
        1
 10
0.0
 20
0.0
  0
HATCH
  5
8B
100
AcDbEntity
  8
0
  6
CONTINUOUS
 62
     3
100
AcDbHatch
 10
0.0
 20
0.0
 30
0.0
210
0.0
220
0.0
230
1.0
  2
SOLID
 70
     1
 71
     1
 91
        1
 92
        1
 93
       18
 72
     2
 10
1.2571935216656343
 20
-0.8093264034321166
 40
11.400000000000038
 50
14.02954
 51
18.723021
 73
     1
 72
     1
 10
12.053921279331213
 20
2.8499999999998487
 11
12.910437953297141
 21
2.8499999999998487
 72
     2
 10
1.2571935216656343
 20
-0.8093264034321166
 40
12.214285714285754
 50
342.566782
 51
346.922981
 73
     0
 72
     1
 10
13.15472366758285
 20
1.9542857142855716
 11
13.480437953297177
 21
1.9542857142855716
 72
     1
 10
13.480437953297177
 20
1.9542857142855716
 11
13.480437953297177
 21
1.1399999999998407
 72
     1
 10
13.480437953297177
 20
1.1399999999998407
 11
11.958092734747289
 21
1.1399999999998514
 72
     2
 10
20.401866524725683
 20
2.4835714285712918
 40
8.5500000000000291
 50
189.041096
 51
204.65198
 73
     1
 72
     2
 10
14.334076117775972
 20
-0.301141422634494
 40
1.8737206404808271
 50
204.65198
 51
242.897449
 73
     1
 72
     1
 10
13.480437953297177
 20
-1.9691135215345774
 11
13.480437953297177
 21
-2.8500000000001648
 72
     2
 10
14.334076117775972
 20
-0.301141422634494
 40
2.6880063547665438
 50
108.516212
 51
155.34802
 73
     0
 72
     2
 10
20.401866524725683
 20
2.4835714285712918
 40
9.3642857142857441
 50
155.34802
 51
171.750831
 73
     0
 72
     1
 10
11.134468683092756
 20
1.1399999999998549
 11
8.0247236675828972
 21
1.1399999999998407
 72
     1
 10
8.0247236675828972
 20
1.1399999999998407
 11
8.0247236675828972
 21
1.9542857142855716
 72
     1
 10
8.0247236675828972
 20
1.9542857142855716
 11
11.050355927894167
 21
1.9542857142855716
 72
     1
 10
11.050355927894167
 20
1.9542857142855716
 11
11.019076895792274
 21
2.8499999999998487
 72
     1
 10
11.019076895792274
 20
2.8499999999998487
 11
11.833858953292697
 21
2.8499999999998487
 72
     1
 10
11.833858953292697
 20
2.8499999999998487
 11
11.865137985394604
 21
1.9542857142855716
 72
     1
 10
11.865137985394604
 20
1.9542857142855716
 11
12.317141444816265
 21
1.9542857142855716
 97
        0
 75
     0
 76
     1
 98
        1
 10
0.0
 20
0.0
  0
HATCH
  5
8C
100
AcDbEntity
  8
0
  6
CONTINUOUS
 62
     3
100
AcDbHatch
 10
0.0
 20
0.0
 30
0.0
210
0.0
220
0.0
230
1.0
  2
SOLID
 70
     1
 71
     1
 91
        1
 92
        1
 93
       12
 72
     2
 10
5.4617420309248317
 20
38.027820957415145
 40
39.900000000000134
 50
276.500664
 51
278.269357
 73
     1
 72
     1
 10
11.200437953297204
 20
-1.457332823601817
 11
11.20043795329719
 21
-2.2800000000001504
 72
     2
 10
5.4617420309248317
 20
38.027820957415145
 40
40.71428571428585
 50
81.897153
 51
86.39082
 73
     0
 72
     1
 10
8.024723667582883
 20
-2.6057142857144413
 11
8.024723667582883
 21
-1.7897772264302034
 72
     2
 10
5.4617420309248317
 20
38.027820957415145
 40
39.900000000000134
 50
273.682937
 51
275.325087
 73
     1
 72
     1
 10
9.1647236675828836
 20
-1.6999769553635602
 11
9.1647236675828836
 21
-0.4071428571430218
 72
     1
 10
9.1647236675828836
 20
-0.4071428571430218
 11
8.0247236675828972
 21
-0.4071428571430218
 72
     1
 10
8.0247236675828972
 20
-0.4071428571430218
 11
8.0247236675828972
 21
0.4071428571426949
 72
     1
 10
8.0247236675828972
 20
0.4071428571426949
 11
10.95615223901148
 21
0.4071428571426949
 72
     1
 10
10.95615223901148
 20
0.4071428571426949
 11
10.95615223901148
 21
-0.4071428571430218
 72
     1
 10
10.95615223901148
 20
-0.4071428571430218
 11
9.9790093818686287
 21
-0.4071428571430218
 72
     1
 10
9.9790093818686287
 20
-0.4071428571430218
 11
9.9790093818685861
 21
-1.6156437710884397
 97
        0
 75
     0
 76
     1
 98
        1
 10
0.0
 20
0.0
  0
HATCH
  5
8D
100
AcDbEntity
  8
0
  6
CONTINUOUS
 62
     3
100
AcDbHatch
 10
0.0
 20
0.0
 30
0.0
210
0.0
220
0.0
230
1.0
  2
SOLID
 70
     1
 71
     1
 91
        1
 92
        1
 93
       30
 72
     2
 10
-1.8979256098940809
 20
4.1519130391923014
 40
8.9164285714286002
 50
37.940537
 51
46.713808
 73
     0
 72
     1
 10
4.21556076329842
 20
-2.3386942385728418
 11
3.6682950961542744
 21
-1.7914285714286962
 72
     2
 10
-1.8979256098940809
 20
4.1519130391923014
 40
8.1428571428571743
 50
313.123325
 51
325.95222
 73
     1
 72
     1
 10
4.8490093818684983
 20
-0.4071428571430076
 11
3.8718665247257533
 21
-0.4071428571430076
 72
     1
 10
3.8718665247257533
 20
-0.4071428571430076
 11
3.8718665247257533
 21
0.4071428571427092
 72
     1
 10
3.8718665247257533
 20
0.4071428571427092
 11
5.1340093818686157
 21
0.4071428571427092
 72
     1
 10
5.1340093818686157
 20
0.4071428571427092
 11
5.1340093818686157
 21
1.2214285714284152
 72
     1
 10
5.1340093818686157
 20
1.2214285714284152
 11
4.7280236542212677
 21
1.2214285714284152
 72
     2
 10
-3.9789687629962955
 20
2.9438069062169916
 40
8.8757142857143183
 50
11.189535
 51
14.746058
 73
     0
 72
     1
 10
4.6044101437030562
 20
0.6846232869284066
 11
3.9125808104399411
 21
0.9364285714284044
 72
     2
 10
-3.9789687629962955
 20
2.9438069062169916
 40
8.1428571428571743
 50
345.728313
 51
357.620387
 73
     1
 72
     1
 10
4.1568665247257641
 20
2.6057142857165694
 11
4.8844833536651819
 21
2.4774158071570227
 72
     2
 10
-3.9789687629962955
 20
2.9438069062169916
 40
8.8757142857143183
 50
3.012102
 51
6.401006
 73
     0
 72
     1
 10
4.8414139890361767
 20
1.9542857142855716
 11
5.1340093818686157
 21
1.9542857142855716
 72
     1
 10
5.1340093818686157
 20
1.9542857142855716
 11
5.1340093818686157
 21
2.8499999999998487
 72
     1
 10
5.1340093818686157
 20
2.8499999999998487
 11
5.948295096154304
 21
2.8499999999998487
 72
     1
 10
5.948295096154304
 20
2.8499999999998487
 11
5.948295096154304
 21
1.9542857142855716
 72
     1
 10
5.948295096154304
 20
1.9542857142855716
 11
7.0475808104400599
 21
1.9542857142855716
 72
     1
 10
7.0475808104400599
 20
1.9542857142855716
 11
7.0475808104400599
 21
1.2214285714284152
 72
     1
 10
7.0475808104400599
 20
1.2214285714284152
 11
5.948295096154304
 21
1.2214285714284152
 72
     1
 10
5.948295096154304
 20
1.2214285714284152
 11
5.948295096154304
 21
0.4071428571427092
 72
     1
 10
5.948295096154304
 20
0.4071428571427092
 11
7.2104379532971521
 21
0.4071428571427092
 72
     1
 10
7.2104379532971521
 20
0.4071428571427092
 11
7.2104379532971521
 21
-0.4071428571430076
 72
     1
 10
7.2104379532971521
 20
-0.4071428571430076
 11
6.2332950961542579
 21
-0.4071428571430076
 72
     2
 10
12.98023008791683
 20
4.1519130391922907
 40
8.1428571428571743
 50
214.04778
 51
226.876675
 73
     1
 72
     1
 10
7.4140093818684889
 20
-1.7914285714286962
 11
6.866743714724322
 21
-2.3386942385728453
 72
     2
 10
12.98023008791683
 20
4.1519130391922907
 40
8.9164285714286002
 50
133.286192
 51
142.059463
 73
     0
 72
     1
 10
5.948295096154304
 20
-1.330293518482641
 11
5.948295096154304
 21
-2.8500000000001648
 72
     1
 10
5.948295096154304
 20
-2.8500000000001648
 11
5.1340093818686157
 21
-2.8500000000001648
 72
     1
 10
5.1340093818686157
 20
-2.8500000000001648
 11
5.1340093818686157
 21
-1.3302935184824136
 97
        0
 75
     0
 76
     1
 98
        1
 10
0.0
 20
0.0
  0
HATCH
  5
8E
100
AcDbEntity
  8
0
  6
CONTINUOUS
 62
     3
100
AcDbHatch
 10
0.0
 20
0.0
 30
0.0
210
0.0
220
0.0
230
1.0
  2
SOLID
 70
     1
 71
     1
 91
        1
 92
        1
 93
       19
 72
     2
 10
-5.2499698511775321
 20
3.0651230633969284
 40
8.8757142857143165
 50
27.683433
 51
32.280505
 73
     0
 72
     1
 10
2.2539459810095721
 20
-1.6750827617845943
 11
1.6732950961542841
 21
-1.2214285714287314
 72
     2
 10
-5.2499698511775321
 20
3.0651230633969284
 40
8.1428571428571708
 50
328.236207
 51
344.845745
 73
     1
 72
     1
 10
2.6097236675827773
 20
0.9364285714284151
 11
1.8768665247257346
 21
0.9364285714284151
 72
     1
 10
1.8768665247257346
 20
0.9364285714284151
 11
1.8768665247257346
 21
1.7507142857141353
 72
     1
 10
1.8768665247257346
 20
1.7507142857141353
 11
2.6097236675829052
 21
1.7507142857141353
 72
     1
 10
2.6097236675829052
 20
1.7507142857141353
 11
2.6097236675829052
 21
2.8499999999998487
 72
     1
 10
2.6097236675829052
 20
2.8499999999998487
 11
3.4240093818685935
 21
2.8499999999998487
 72
     1
 10
3.4240093818685935
 20
2.8499999999998487
 11
3.4240093818685935
 21
1.7507142857141353
 72
     1
 10
3.4240093818685935
 20
1.7507142857141353
 11
3.7904379532971788
 21
1.7507142857141353
 72
     1
 10
3.7904379532971788
 20
1.7507142857141353
 11
3.7904379532971788
 21
0.9364285714284151
 72
     1
 10
3.7904379532971788
 20
0.9364285714284151
 11
3.4240093818685367
 21
0.9364285714284151
 72
     1
 10
3.4240093818685367
 20
0.9364285714284151
 11
3.8718665247257533
 21
0.2968222855516665
 72
     1
 10
3.8718665247257533
 20
0.2968222855516665
 11
3.8718665247257533
 21
-0.1989042363292235
 72
     1
 10
3.8718665247257533
 20
-0.1989042363292235
 11
3.6275808104399871
 21
-0.4900326139487277
 72
     1
 10
3.6275808104399871
 20
-0.4900326139487277
 11
3.4240093818685935
 21
-0.1993024840048498
 72
     1
 10
3.4240093818685935
 20
-0.1993024840048498
 11
3.4240093818685935
 21
-2.8500000000001648
 72
     1
 10
3.4240093818685935
 20
-2.8500000000001648
 11
2.6097236675829052
 21
-2.8500000000001648
 72
     1
 10
2.6097236675829052
 20
-2.8500000000001648
 11
2.6097236675829052
 21
-1.0584096299120844
 97
        0
 75
     0
 76
     1
 98
        1
 10
0.0
 20
0.0
  0
HATCH
  5
8F
100
AcDbEntity
  8
0
  6
CONTINUOUS
 62
     3
100
AcDbHatch
 10
0.0
 20
0.0
 30
0.0
210
0.0
220
0.0
230
1.0
  2
SOLID
 70
     1
 71
     1
 91
        1
 92
        1
 93
        8
 72
     2
 10
-1.8298808996504405
 20
-0.4560000000002766
 40
1.596000000000013
 50
270.0
 51
330.0
 73
     1
 72
     2
 10
-2.619696067901863
 20
-0.00000000000027
 40
2.508000000000012
 50
330.0
 51
30.0
 73
     1
 72
     2
 10
-1.8298808996504405
 20
0.4559999999997331
 40
1.5960000000000121
 50
30.0
 51
90.0
 73
     1
 72
     1
 10
-1.82988089965
 20
2.0519999999997438
 11
-1.82988089965
 21
2.9639999999999276
 72
     2
 10
-1.8298808996504974
 20
0.4559999999999214
 40
2.508000000000008
 50
270.0
 51
330.0
 73
     0
 72
     2
 10
-2.6196960679017494
 20
-0.0000000000001243
 40
3.420000000000015
 50
330.0
 51
30.0
 73
     0
 72
     2
 10
-1.8298808996503837
 20
-0.456000000000369
 40
2.5080000000000053
 50
30.0
 51
90.0
 73
     0
 72
     1
 10
-1.82988089965
 20
-2.9640000000003752
 11
-1.82988089965
 21
-2.0520000000002909
 97
        0
 75
     0
 76
     1
 98
        1
 10
0.0
 20
0.0
  0
HATCH
  5
90
100
AcDbEntity
  8
0
  6
CONTINUOUS
 62
     3
100
AcDbHatch
 10
0.0
 20
0.0
 30
0.0
210
0.0
220
0.0
230
1.0
  2
SOLID
 70
     1
 71
     1
 91
        1
 92
        1
 93
        8
 72
     2
 10
-1.8298808996503837
 20
-0.456000000000369
 40
2.5080000000000053
 50
90.0
 51
150.0
 73
     0
 72
     2
 10
-1.0400657313991175
 20
-0.0000000000003126
 40
3.4200000000000181
 50
150.0
 51
210.0
 73
     0
 72
     2
 10
-1.8298808996504974
 20
0.4559999999999214
 40
2.508000000000008
 50
210.0
 51
270.0
 73
     0
 72
     1
 10
-1.82988089965
 20
2.9639999999999276
 11
-1.82988089965
 21
2.0519999999997438
 72
     2
 10
-1.8298808996504405
 20
0.4559999999997331
 40
1.5960000000000121
 50
90.0
 51
150.0
 73
     1
 72
     2
 10
-1.040065731399018
 20
-0.00000000000027
 40
2.5080000000000129
 50
150.0
 51
210.0
 73
     1
 72
     2
 10
-1.8298808996504405
 20
-0.4560000000002766
 40
1.596000000000013
 50
210.0
 51
270.0
 73
     1
 72
     1
 10
-1.82988089965
 20
-2.0520000000002909
 11
-1.82988089965
 21
-2.9640000000003752
 97
        0
 75
     0
 76
     1
 98
        1
 10
0.0
 20
0.0
  0
HATCH
  5
91
100
AcDbEntity
  8
0
  6
CONTINUOUS
 62
     3
100
AcDbHatch
 10
0.0
 20
0.0
 30
0.0
210
0.0
220
0.0
230
1.0
  2
SOLID
 70
     1
 71
     1
 91
        1
 92
        1
 93
        4
 72
     1
 10
-5.3638808996504608
 20
-1.0260000000002698
 11
-6.2758808996504385
 21
-1.0260000000002698
 72
     1
 10
-6.2758808996504385
 20
-1.0260000000002698
 11
-6.2758808996504385
 21
-0.1140000000002743
 72
     1
 10
-6.2758808996504385
 20
-0.1140000000002743
 11
-5.3638808996504608
 21
-0.1140000000002743
 72
     1
 10
-5.3638808996504608
 20
-0.1140000000002743
 11
-5.3638808996504608
 21
-1.0260000000003267
 97
        0
 75
     0
 76
     1
 98
        1
 10
0.0
 20
0.0
  0
HATCH
  5
92
100
AcDbEntity
  8
0
  6
CONTINUOUS
 62
     3
100
AcDbHatch
 10
0.0
 20
0.0
 30
0.0
210
0.0
220
0.0
230
1.0
  2
SOLID
 70
     1
 71
     1
 91
        1
 92
        1
 93
       16
 72
     1
 10
-9.6958808996504686
 20
1.9379999999997324
 11
-10.949880899650459
 21
1.9379999999997324
 72
     1
 10
-10.949880899650459
 20
1.9379999999997324
 11
-11.177880899650468
 21
0.6839999999997275
 72
     1
 10
-11.177880899650468
 20
0.6839999999997275
 11
-11.861880899650437
 21
0.6839999999997275
 72
     1
 10
-11.861880899650437
 20
0.6839999999997275
 11
-11.861880899650437
 21
2.8499999999997421
 72
     1
 10
-11.861880899650437
 20
2.8499999999997421
 11
-6.6178808996504515
 21
2.8499999999997421
 72
     1
 10
-6.6178808996504515
 20
2.8499999999997421
 11
-6.6178808996504515
 21
0.6839999999997275
 72
     1
 10
-6.6178808996504515
 20
0.6839999999997275
 11
-7.3018808996504205
 21
0.6839999999997275
 72
     1
 10
-7.3018808996504205
 20
0.6839999999997275
 11
-7.5298808996504292
 21
1.9379999999997324
 72
     1
 10
-7.5298808996504292
 20
1.9379999999997324
 11
-8.7838808996504767
 21
1.9379999999997324
 72
     1
 10
-8.7838808996504767
 20
1.9379999999997324
 11
-8.7838808996504341
 21
-1.9380000000002759
 72
     1
 10
-8.7838808996504341
 20
-1.9380000000002759
 11
-7.8718808996504421
 21
-2.1660000000002846
 72
     1
 10
-7.8718808996504421
 20
-2.1660000000002846
 11
-7.8718808996504421
 21
-2.8500000000002856
 72
     1
 10
-7.8718808996504421
 20
-2.8500000000002856
 11
-10.607880899650446
 21
-2.8500000000002856
 72
     1
 10
-10.607880899650446
 20
-2.8500000000002856
 11
-10.607880899650446
 21
-2.1660000000002846
 72
     1
 10
-10.607880899650446
 20
-2.1660000000002846
 11
-9.6958808996504686
 21
-1.9380000000002759
 72
     1
 10
-9.6958808996504686
 20
-1.9380000000002759
 11
-9.6958808996504686
 21
1.9379999999997324
 97
        0
 75
     0
 76
     1
 98
        1
 10
0.0
 20
0.0
  0
HATCH
  5
93
100
AcDbEntity
  8
0
  6
CONTINUOUS
 62
     3
100
AcDbHatch
 10
0.0
 20
0.0
 30
0.0
210
0.0
220
0.0
230
1.0
  2
SOLID
 70
     1
 71
     1
 91
        1
 92
        1
 93
        4
 72
     1
 10
-13.115880899650485
 20
-1.0260000000002698
 11
-13.115880899650428
 21
-0.1140000000002175
 72
     1
 10
-13.115880899650428
 20
-0.1140000000002175
 11
-12.20388089965045
 21
-0.1140000000002743
 72
     1
 10
-12.20388089965045
 20
-0.1140000000002743
 11
-12.20388089965045
 21
-1.0260000000002698
 72
     1
 10
-12.20388089965045
 20
-1.0260000000002698
 11
-13.115880899650428
 21
-1.0260000000002698
 97
        0
 75
     0
 76
     1
 98
        1
 10
0.0
 20
0.0
  0
HATCH
  5
94
100
AcDbEntity
  8
0
  6
CONTINUOUS
 62
     3
100
AcDbHatch
 10
0.0
 20
0.0
 30
0.0
210
0.0
220
0.0
230
1.0
  2
SOLID
 70
     1
 71
     1
 91
        1
 92
        1
 93
       12
 72
     1
 10
-14.141880899650467
 20
2.8499999999997421
 11
-14.141880899650467
 21
2.1659999999997304
 72
     1
 10
-14.141880899650467
 20
2.1659999999997304
 11
-15.053880899650444
 21
1.9379999999997324
 72
     1
 10
-15.053880899650444
 20
1.9379999999997324
 11
-15.053880899650444
 21
-1.9380000000002759
 72
     1
 10
-15.053880899650444
 20
-1.9380000000002759
 11
-14.141880899650467
 21
-2.1660000000002846
 72
     1
 10
-14.141880899650467
 20
-2.1660000000002846
 11
-14.141880899650467
 21
-2.8500000000002856
 72
     1
 10
-14.141880899650467
 20
-2.8500000000002856
 11
-16.877880899650467
 21
-2.8500000000002856
 72
     1
 10
-16.877880899650467
 20
-2.8500000000002856
 11
-16.877880899650467
 21
-2.1660000000002846
 72
     1
 10
-16.877880899650467
 20
-2.1660000000002846
 11
-15.965880899650482
 21
-1.9380000000002759
 72
     1
 10
-15.965880899650482
 20
-1.9380000000002759
 11
-15.965880899650482
 21
1.9379999999997324
 72
     1
 10
-15.965880899650482
 20
1.9379999999997324
 11
-16.877880899650467
 21
2.165999999999741
 72
     1
 10
-16.877880899650467
 20
2.165999999999741
 11
-16.877880899650467
 21
2.8499999999997421
 72
     1
 10
-16.877880899650467
 20
2.8499999999997421
 11
-14.141880899650467
 21
2.8499999999997421
 97
        0
 75
     0
 76
     1
 98
        1
 10
0.0
 20
0.0
  0
HATCH
  5
95
100
AcDbEntity
  8
0
  6
CONTINUOUS
 62
     3
100
AcDbHatch
 10
0.0
 20
0.0
 30
0.0
210
0.0
220
0.0
230
1.0
  2
SOLID
 70
     1
 71
     1
 91
        1
 92
        1
 93
       15
 72
     2
 10
-23.082241990843084
 20
-0.0000000000001492
 40
2.531053105310535
 50
124.301153
 51
180.0
 73
     0
 72
     1
 10
-25.613295096153617
 20
0.0
 11
-24.658234262528236
 21
0.0
 72
     2
 10
-22.195587997901765
 20
-0.000000000000135
 40
2.46264626462647
 50
180.0
 51
199.464384
 73
     1
 72
     2
 10
-24.557343260027135
 20
0.2731786481661374
 40
1.094509450945121
 50
272.086657
 51
294.619977
 73
     1
 72
     2
 10
-24.243863734539655
 20
-0.4108897586745677
 40
0.342034203420344
 50
294.619977
 51
0.0
 73
     1
 72
     1
 10
-23.901829531119287
 20
-0.4108897586745677
 11
-23.901829531119287
 21
0.0
 72
     1
 10
-23.901829531119287
 20
0.0
 11
-23.080947442910482
 21
0.0
 72
     1
 10
-23.080947442910482
 20
0.0
 11
-23.080947442910482
 21
-0.4116155274721614
 72
     2
 10
-22.73891323949012
 20
-0.4116155274721614
 40
0.34203420342033
 50
180.0
 51
245.380023
 73
     1
 72
     2
 10
-22.425433714002583
 20
0.2724528793686645
 40
1.0945094509452411
 50
245.380023
 51
267.913343
 73
     1
 72
     1
 10
-22.465285876753814
 20
-0.8213308027789985
 11
-22.465285876753814
 21
-1.0265513248311819
 72
     1
 10
-22.465285876753814
 20
-1.0265513248311819
 11
-24.434073870576871
 21
-1.0265513248311962
 72
     2
 10
-22.195587997901708
 20
-0.000000000000135
 40
2.4626462646264669
 50
204.635803
 51
268.19864
 73
     1
 72
     1
 10
-22.272999999999005
 20
-2.4614292609397985
 11
-22.272999999999005
 21
-2.8039503813289706
 72
     2
 10
-22.195587997901765
 20
1.2997299729972909
 40
4.1044104410441236
 50
91.080702
 51
124.301153
 73
     0
 97
        0
 75
     0
 76
     1
 98
        1
 10
0.0
 20
0.0
  0
HATCH
  5
96
100
AcDbEntity
  8
0
  6
CONTINUOUS
 62
     3
100
AcDbHatch
 10
0.0
 20
0.0
 30
0.0
210
0.0
220
0.0
230
1.0
  2
SOLID
 70
     1
 71
     1
 91
        1
 92
        1
 93
       24
 72
     2
 10
-22.67055612196938
 20
0.3420342034202015
 40
0.342034203420347
 50
90.0
 51
157.380135
 73
     1
 72
     2
 10
-21.849674033760575
 20
-0.0000000000001101
 40
1.231323132313237
 50
157.380135
 51
180.0
 73
     1
 72
     1
 10
-23.080997166073811
 20
0.0
 11
-23.901829531119287
 21
0.0
 72
     1
 10
-23.901829531119287
 20
0.0
 11
-23.901829531119287
 21
1.7757720729310194
 72
     2
 10
-22.195587997901765
 20
-0.000000000000135
 40
2.46264626462647
 50
133.856042
 51
180.0
 73
     1
 72
     1
 10
-24.658234262528236
 20
0.0
 11
-25.613295096153617
 21
0.0
 72
     2
 10
-23.082241990843084
 20
-0.0000000000001492
 40
2.531053105310535
 50
180.0
 51
235.698847
 73
     0
 72
     2
 10
-22.195587997901708
 20
-1.2997299729975893
 40
4.1044104410441324
 50
235.698847
 51
245.436008
 73
     0
 72
     1
 10
-23.901829531119287
 20
2.4332212587861193
 11
-23.901829531119287
 21
2.8049575222742433
 72
     2
 10
-24.243863734539655
 20
2.8049575222742433
 40
0.3420342034203421
 50
0.0
 51
65.380023
 73
     1
 72
     2
 10
-24.557343260027135
 20
2.1208891154335525
 40
1.0945094509450961
 50
65.380023
 51
87.913343
 73
     1
 72
     1
 10
-24.517491097275904
 20
3.2146727975810734
 11
-24.517491097275904
 21
3.4198933196332746
 72
     1
 10
-24.517491097275904
 20
3.4198933196332746
 11
-22.465285876753814
 21
3.4198933196332746
 72
     1
 10
-22.465285876753814
 20
3.4198933196332746
 11
-22.465285876753814
 21
3.2146727975810769
 72
     2
 10
-22.425433714002583
 20
2.1208891154335525
 40
1.094509450945101
 50
92.086657
 51
114.619977
 73
     1
 72
     2
 10
-22.738913239490063
 20
2.8049575222742575
 40
0.342034203420347
 50
114.619977
 51
180.0
 73
     1
 72
     1
 10
-23.080947442910432
 20
2.8049575222742433
 11
-23.080947442910432
 21
2.7080529205341897
 72
     2
 10
-22.195587997901765
 20
-1.2997299729975893
 40
4.1044104410441218
 50
257.542857
 51
268.919298
 73
     0
 72
     1
 10
-22.272999999999005
 20
2.8039503813286721
 11
-22.272999999999005
 21
2.4614292609395321
 72
     2
 10
-22.195587997901708
 20
-0.000000000000135
 40
2.46264626462647
 50
91.80136
 51
111.070443
 73
     1
 72
     1
 10
-23.080947442910482
 20
2.2979915747913111
 11
-23.080947442910482
 21
1.0261026102608923
 72
     1
 10
-23.080947442910482
 20
1.0261026102608923
 11
-22.272999999998969
 21
1.0261026102608923
 72
     1
 10
-22.272999999998969
 20
1.0261026102608923
 11
-22.272999999999005
 21
0.6840684068405416
 72
     1
 10
-22.272999999999005
 20
0.6840684068405416
 11
-22.67055612196938
 21
0.6840684068405416
 97
        0
 75
     0
 76
     1
 98
        1
 10
0.0
 20
0.0
  0
HATCH
  5
97
100
AcDbEntity
  8
0
  6
CONTINUOUS
 62
     3
100
AcDbHatch
 10
0.0
 20
0.0
 30
0.0
210
0.0
220
0.0
230
1.0
  2
SOLID
 70
     1
 71
     1
 91
        1
 92
        1
 93
       14
 72
     2
 10
-22.195587997901765
 20
-0.000000000000135
 40
2.4626462646264748
 50
0.0
 51
9.281799
 73
     1
 72
     2
 10
-20.102741104833992
 20
0.3420342034202015
 40
0.34203420342034
 50
9.281799
 51
90.0
 73
     1
 72
     1
 10
-20.102741104833992
 20
0.6840684068405416
 11
-20.827451184220411
 21
0.6840684068405416
 72
     1
 10
-20.827451184220411
 20
0.6840684068405416
 11
-20.827451184220411
 21
0.0
 72
     1
 10
-20.827451184220411
 20
0.0
 11
-21.648333272429209
 21
0.0
 72
     1
 10
-21.648333272429209
 20
0.0
 11
-21.648333272429209
 21
0.6840684068405416
 72
     1
 10
-21.648333272429209
 20
0.6840684068405416
 11
-22.272999999999005
 21
0.6840684068405416
 72
     1
 10
-22.272999999999005
 20
0.6840684068405416
 11
-22.272999999999005
 21
1.0261026102608923
 72
     1
 10
-22.272999999999005
 20
1.0261026102608923
 11
-19.956896402818945
 21
1.0261026102608675
 72
     2
 10
-22.195587997901708
 20
-0.000000000000135
 40
2.46264626462647
 50
24.624318
 51
91.80136
 73
     1
 72
     1
 10
-22.272999999999005
 20
2.4614292609395321
 11
-22.272999999999005
 21
2.8039503813286721
 72
     2
 10
-22.195587997901765
 20
-1.2997299729975893
 40
4.1044104410441218
 50
268.919298
 51
304.301153
 73
     0
 72
     2
 10
-21.308934004960445
 20
-0.0000000000001492
 40
2.5310531053105372
 50
304.301153
 51
0.0
 73
     0
 72
     1
 10
-18.777880899649912
 20
0.0
 11
-19.732941733275293
 21
0.0
 97
        0
 75
     0
 76
     1
 98
        1
 10
0.0
 20
0.0
  0
HATCH
  5
98
100
AcDbEntity
  8
0
  6
CONTINUOUS
 62
     3
100
AcDbHatch
 10
0.0
 20
0.0
 30
0.0
210
0.0
220
0.0
230
1.0
  2
SOLID
 70
     1
 71
     1
 91
        1
 92
        1
 93
       19
 72
     2
 10
-22.195587997901765
 20
-0.000000000000135
 40
2.4626462646264748
 50
303.748989
 51
0.0
 73
     1
 72
     1
 10
-19.732941733275293
 20
0.0
 11
-18.777880899649912
 21
0.0
 72
     2
 10
-21.308934004960445
 20
-0.0000000000001492
 40
2.5310531053105372
 50
0.0
 51
55.698847
 73
     0
 72
     2
 10
-22.195587997901708
 20
1.2997299729973051
 40
4.1044104410441289
 50
55.698847
 51
70.528779
 73
     0
 72
     1
 10
-20.827451184220411
 20
-2.5699453011829512
 11
-20.827451184220411
 21
-2.8054062368445436
 72
     2
 10
-20.485416980800043
 20
-2.8054062368445436
 40
0.342034203420344
 50
180.0
 51
245.380023
 73
     1
 72
     2
 10
-20.171937455312563
 20
-2.1213378300038528
 40
1.094509450945099
 50
245.380023
 51
267.913343
 73
     1
 72
     1
 10
-20.211789618063744
 20
-3.2151215121513772
 11
-20.211789618063744
 21
-3.4203420342035784
 72
     1
 10
-20.211789618063744
 20
-3.4203420342035784
 11
-22.263994838585827
 21
-3.4203420342035784
 72
     1
 10
-22.263994838585827
 20
-3.4203420342035784
 11
-22.263994838585827
 21
-3.2151215121513737
 72
     2
 10
-22.303847001337058
 20
-2.1213378300038528
 40
1.094509450945099
 50
272.086657
 51
294.619977
 73
     1
 72
     2
 10
-21.990367475849578
 20
-2.8054062368445436
 40
0.342034203420344
 50
294.619977
 51
0.0
 73
     1
 72
     1
 10
-21.648333272429209
 20
-2.8054062368445436
 11
-21.648333272429209
 21
-2.7680332125876284
 72
     2
 10
-22.195587997901765
 20
1.2997299729972909
 40
4.1044104410441236
 50
82.337744
 51
91.080702
 73
     0
 72
     1
 10
-22.272999999999005
 20
-2.8039503813289706
 11
-22.272999999999005
 21
-2.4614292609397985
 72
     2
 10
-22.195587997901708
 20
-0.000000000000135
 40
2.4626462646264669
 50
268.19864
 51
282.839588
 73
     1
 72
     1
 10
-21.648333272429209
 20
-2.4010703634269781
 11
-21.648333272429209
 21
0.0
 72
     1
 10
-21.648333272429209
 20
0.0
 11
-20.827451184220411
 21
0.0
 72
     1
 10
-20.827451184220411
 20
0.0
 11
-20.827451184220411
 21
-2.047639686011447
 97
        0
 75
     0
 76
     1
 98
        1
 10
0.0
 20
0.0
  0
ENDBLK
  5
99
100
AcDbEntity
  8
0
100
AcDbBlockEnd
  0
ENDSEC
  0
SECTION
  2
ENTITIES
  0
POLYLINE
  5
9A
100
AcDbEntity
  8
LAY-1
  6
CONTINUOUS
 62
     1
100
AcDb2dPolyline
 66
     1
 10
0.0
 20
0.0
 30
0.0
 70
   128
  0
VERTEX
  5
9B
100
AcDbEntity
  8
LAY-1
  6
CONTINUOUS
 62
     1
100
AcDbVertex
100
AcDb2dVertex
 10
450.043681
 20
950.816758
 30
0.0
  0
VERTEX
  5
9C
100
AcDbEntity
  8
LAY-1
  6
CONTINUOUS
 62
     1
100
AcDbVertex
100
AcDb2dVertex
 10
482.0
 20
1011.0
 30
0.0
  0
VERTEX
  5
9D
100
AcDbEntity
  8
LAY-1
  6
CONTINUOUS
 62
     1
100
AcDbVertex
100
AcDb2dVertex
 10
622.0
 20
1011.0
 30
0.0
  0
SEQEND
  5
9E
100
AcDbEntity
  8
LAY-1
  6
CONTINUOUS
 62
     1
  0
LINE
  5
9F
100
AcDbEntity
  8
LAY-1
  6
CONTINUOUS
 62
     1
100
AcDbLine
 10
450.68722
 20
952.739509
 30
0.0
 11
450.043681
 21
950.816758
 31
0.0
  0
LINE
  5
A0
100
AcDbEntity
  8
LAY-1
  6
CONTINUOUS
 62
     1
100
AcDbLine
 10
450.043681
 20
950.816758
 30
0.0
 11
451.276028
 21
952.426861
 31
0.0
  0
TEXT
  5
A1
100
AcDbEntity
  8
LAY-1
  6
CONTINUOUS
 62
     3
100
AcDbText
 10
502.0
 20
1011.3
 30
0.0
 40
25.0
  1
Ｒｃ　２
 41
0.84
  7
EXCADSTD
 72
     5
 11
602.0
 21
1011.3
 31
0.0
100
AcDbText
  0
TEXT
  5
A2
100
AcDbEntity
  8
LAY-1
  6
CONTINUOUS
 62
     3
100
AcDbText
 10
524.584604
 20
558.4
 30
0.0
 40
25.0
  1
Ｒｃ　２
 41
0.84
  7
EXCADSTD
 72
     5
 11
624.584604
 21
558.4
 31
0.0
100
AcDbText
  0
POLYLINE
  5
A3
100
AcDbEntity
  8
LAY-1
  6
CONTINUOUS
 62
     1
100
AcDb2dPolyline
 66
     1
 10
0.0
 20
0.0
 30
0.0
 70
   128
  0
VERTEX
  5
A4
100
AcDbEntity
  8
LAY-1
  6
CONTINUOUS
 62
     1
100
AcDbVertex
100
AcDb2dVertex
 10
450.043681
 20
660.816758
 30
0.0
  0
VERTEX
  5
A5
100
AcDbEntity
  8
LAY-1
  6
CONTINUOUS
 62
     1
100
AcDbVertex
100
AcDb2dVertex
 10
504.584604
 20
558.1
 30
0.0
  0
VERTEX
  5
A6
100
AcDbEntity
  8
LAY-1
  6
CONTINUOUS
 62
     1
100
AcDbVertex
100
AcDb2dVertex
 10
644.584604
 20
558.1
 30
0.0
  0
SEQEND
  5
A7
100
AcDbEntity
  8
LAY-1
  6
CONTINUOUS
 62
     1
  0
LINE
  5
A8
100
AcDbEntity
  8
LAY-1
  6
CONTINUOUS
 62
     1
100
AcDbLine
 10
451.276028
 20
659.206656
 30
0.0
 11
450.043681
 21
660.816758
 31
0.0
  0
LINE
  5
A9
100
AcDbEntity
  8
LAY-1
  6
CONTINUOUS
 62
     1
100
AcDbLine
 10
450.043681
 20
660.816758
 30
0.0
 11
450.68722
 21
658.894008
 31
0.0
  0
TEXT
  5
AA
100
AcDbEntity
  8
LAY-1
  6
CONTINUOUS
 62
     3
100
AcDbText
 10
1540.44
 20
207.96
 30
0.0
 40
20.0
  1
型式
 41
0.984714
  7
EXCADSTD
 72
     5
 11
1583.420406
 21
207.96
 31
0.0
100
AcDbText
  0
TEXT
  5
AB
100
AcDbEntity
  8
LAY-1
  6
CONTINUOUS
 62
     3
100
AcDbText
 10
1539.96
 20
179.8
 30
0.0
 40
20.0
  1
品名
 41
0.984714
  7
EXCADSTD
 72
     5
 11
1582.940406
 21
179.8
 31
0.0
100
AcDbText
  0
LINE
  5
AC
100
AcDbEntity
  8
LAY-1
  6
CONTINUOUS
 62
     4
100
AcDbLine
 10
1531.0
 20
151.4
 30
0.0
 11
1889.4
 21
151.4
 31
0.0
  0
LINE
  5
AD
100
AcDbEntity
  8
LAY-1
  6
CONTINUOUS
 62
     1
100
AcDbLine
 10
1531.0
 20
175.8
 30
0.0
 11
1889.4
 21
175.8
 31
0.0
  0
TEXT
  5
AE
100
AcDbEntity
  8
LAY-1
  6
CONTINUOUS
 62
     3
100
AcDbText
 10
1658.36
 20
154.04
 30
0.0
 40
20.0
  1
外観図
 41
1.47392
  7
EXCADSTD
 72
     5
 11
1763.639999
 21
154.04
 31
0.0
100
AcDbText
  0
LINE
  5
AF
100
AcDbEntity
  8
LAY-1
  6
CONTINUOUS
 62
     4
100
AcDbLine
 10
1531.0
 20
259.8
 30
0.0
 11
1889.4
 21
259.8
 31
0.0
  0
LINE
  5
B0
100
AcDbEntity
  8
LAY-1
  6
CONTINUOUS
 62
     1
100
AcDbLine
 10
1531.0
 20
203.8
 30
0.0
 11
1889.4
 21
203.8
 31
0.0
  0
LINE
  5
B1
100
AcDbEntity
  8
LAY-1
  6
CONTINUOUS
 62
     1
100
AcDbLine
 10
1531.0
 20
231.8
 30
0.0
 11
1889.4
 21
231.8
 31
0.0
  0
LINE
  5
B2
100
AcDbEntity
  8
LAY-1
  6
CONTINUOUS
 62
     1
100
AcDbLine
 10
1591.0
 20
259.8
 30
0.0
 11
1591.0
 21
175.8
 31
0.0
  0
LINE
  5
B3
100
AcDbEntity
  8
LAY-1
  6
CONTINUOUS
 62
     4
100
AcDbLine
 10
1531.0
 20
127.0
 30
0.0
 11
1889.4
 21
127.0
 31
0.0
  0
LINE
  5
B4
100
AcDbEntity
  8
LAY-1
  6
CONTINUOUS
 62
     4
100
AcDbLine
 10
1889.4
 20
127.0
 30
0.0
 11
1889.4
 21
259.8
 31
0.0
  0
LINE
  5
B5
100
AcDbEntity
  8
LAY-1
  6
CONTINUOUS
 62
     4
100
AcDbLine
 10
1531.0
 20
127.0
 30
0.0
 11
1531.0
 21
259.8
 31
0.0
  0
TEXT
  5
B6
100
AcDbEntity
  8
LAY-1
  6
CONTINUOUS
 62
     3
100
AcDbText
 10
1533.56
 20
235.32
 30
0.0
 40
20.0
  1
作成日
 41
0.84
  7
EXCADSTD
 72
     5
 11
1593.56
 21
235.32
 31
0.0
100
AcDbText
  0
LINE
  5
B7
100
AcDbEntity
  8
LAY-1
  6
EXLTYPE4
 62
     1
100
AcDbLine
 10
538.90404
 20
665.816758
 30
0.0
 11
536.904041
 21
665.816758
 31
0.0
  0
LINE
  5
B8
100
AcDbEntity
  8
LAY-1
  6
EXLTYPE4
 62
     1
100
AcDbLine
 10
365.904041
 20
900.072958
 30
0.0
 11
366.80404
 21
900.072958
 31
0.0
  0
LINE
  5
B9
100
AcDbEntity
  8
LAY-1
  6
EXLTYPE4
 62
     1
100
AcDbLine
 10
366.80404
 20
893.425958
 30
0.0
 11
365.904041
 21
893.425958
 31
0.0
  0
LINE
  5
BA
100
AcDbEntity
  8
LAY-1
  6
EXLTYPE4
 62
     1
100
AcDbLine
 10
365.904041
 20
809.140258
 30
0.0
 11
366.80404
 21
809.140258
 31
0.0
  0
LINE
  5
BB
100
AcDbEntity
  8
LAY-1
  6
EXLTYPE4
 62
     1
100
AcDbLine
 10
366.80404
 20
802.493258
 30
0.0
 11
365.904041
 21
802.493258
 31
0.0
  0
LINE
  5
BC
100
AcDbEntity
  8
LAY-1
  6
EXLTYPE4
 62
     1
100
AcDbLine
 10
365.904041
 20
718.207558
 30
0.0
 11
366.80404
 21
718.207558
 31
0.0
  0
LINE
  5
BD
100
AcDbEntity
  8
LAY-1
  6
EXLTYPE4
 62
     1
100
AcDbLine
 10
366.80404
 20
711.560558
 30
0.0
 11
365.904041
 21
711.560558
 31
0.0
  0
LINE
  5
BE
100
AcDbEntity
  8
LAY-1
  6
EXLTYPE3
 62
     1
100
AcDbLine
 10
431.404041
 20
629.048483
 30
0.0
 11
431.404041
 21
1007.216758
 31
0.0
  0
ARC
  5
BF
100
AcDbEntity
  8
LAY-1
  6
CONTINUOUS
 62
     7
100
AcDbCircle
 10
518.460331
 20
667.816758
 30
0.0
 40
2.0
100
AcDbArc
 50
180.0
 51
270.0
  0
ARC
  5
C0
100
AcDbEntity
  8
LAY-1
  6
CONTINUOUS
 62
     7
100
AcDbCircle
 10
518.460331
 20
667.816758
 30
0.0
 40
2.0
100
AcDbArc
 50
180.0
 51
270.0
  0
ARC
  5
C1
100
AcDbEntity
  8
LAY-1
  6
CONTINUOUS
 62
     7
100
AcDbCircle
 10
518.460331
 20
943.816758
 30
0.0
 40
2.0
100
AcDbArc
 50
90.0
 51
180.0
  0
LINE
  5
C2
100
AcDbEntity
  8
LAY-1
  6
CONTINUOUS
 62
     7
100
AcDbLine
 10
529.904041
 20
665.816758
 30
0.0
 11
518.460331
 21
665.816758
 31
0.0
  0
LINE
  5
C3
100
AcDbEntity
  8
LAY-1
  6
CONTINUOUS
 62
     7
100
AcDbLine
 10
529.904041
 20
945.816758
 30
0.0
 11
518.460331
 21
945.816758
 31
0.0
  0
LINE
  5
C4
100
AcDbEntity
  8
LAY-1
  6
CONTINUOUS
 62
     7
100
AcDbLine
 10
339.40404
 20
805.816758
 30
0.0
 11
339.40404
 21
719.482083
 31
0.0
  0
LINE
  5
C5
100
AcDbEntity
  8
LAY-1
  6
CONTINUOUS
 62
     7
100
AcDbLine
 10
339.40404
 20
805.816758
 30
0.0
 11
339.40404
 21
892.151434
 31
0.0
  0
LINE
  5
C6
100
AcDbEntity
  8
LAY-1
  6
CONTINUOUS
 62
     7
100
AcDbLine
 10
529.904041
 20
930.816758
 30
0.0
 11
529.904041
 21
945.816758
 31
0.0
  0
LINE
  5
C7
100
AcDbEntity
  8
LAY-1
  6
CONTINUOUS
 62
     7
100
AcDbLine
 10
536.904041
 20
665.816758
 30
0.0
 11
529.904041
 21
665.816758
 31
0.0
  0
LINE
  5
C8
100
AcDbEntity
  8
LAY-1
  6
CONTINUOUS
 62
     7
100
AcDbLine
 10
536.904041
 20
945.816758
 30
0.0
 11
529.904041
 21
945.816758
 31
0.0
  0
LINE
  5
C9
100
AcDbEntity
  8
LAY-1
  6
CONTINUOUS
 62
     7
100
AcDbLine
 10
529.904041
 20
665.816758
 30
0.0
 11
529.904041
 21
680.816758
 31
0.0
  0
ARC
  5
CA
100
AcDbEntity
  8
LAY-1
  6
CONTINUOUS
 62
     7
100
AcDbCircle
 10
536.904041
 20
667.816758
 30
0.0
 40
2.0
100
AcDbArc
 50
270.0
 51
0.0
  0
ARC
  5
CB
100
AcDbEntity
  8
LAY-1
  6
CONTINUOUS
 62
     7
100
AcDbCircle
 10
536.904041
 20
943.816758
 30
0.0
 40
2.0
100
AcDbArc
 50
0.0
 51
90.0
  0
LINE
  5
CC
100
AcDbEntity
  8
LAY-1
  6
CONTINUOUS
 62
     7
100
AcDbLine
 10
608.687669
 20
873.308862
 30
0.0
 11
550.8006
 21
921.88188
 31
0.0
  0
ARC
  5
CD
100
AcDbEntity
  8
LAY-1
  6
CONTINUOUS
 62
     7
100
AcDbCircle
 10
620.904041
 20
850.316758
 30
0.0
 40
1.5
100
AcDbArc
 50
180.0
 51
270.0
  0
LINE
  5
CE
100
AcDbEntity
  8
LAY-1
  6
CONTINUOUS
 62
     7
100
AcDbLine
 10
619.404041
 20
850.316758
 30
0.0
 11
619.404041
 21
850.327529
 31
0.0
  0
LINE
  5
CF
100
AcDbEntity
  8
LAY-1
  6
CONTINUOUS
 62
     7
100
AcDbLine
 10
621.404041
 20
848.816758
 30
0.0
 11
620.904041
 21
848.816758
 31
0.0
  0
ARC
  5
D0
100
AcDbEntity
  8
LAY-1
  6
CONTINUOUS
 62
     7
100
AcDbCircle
 10
589.404041
 20
850.327529
 30
0.0
 40
30.0
100
AcDbArc
 50
0.0
 51
50.0
  0
ARC
  5
D1
100
AcDbEntity
  8
LAY-1
  6
CONTINUOUS
 62
     7
100
AcDbCircle
 10
589.404041
 20
761.305988
 30
0.0
 40
30.0
100
AcDbArc
 50
310.0
 51
0.0
  0
LINE
  5
D2
100
AcDbEntity
  8
LAY-1
  6
CONTINUOUS
 62
     7
100
AcDbLine
 10
622.404041
 20
848.816758
 30
0.0
 11
622.404041
 21
845.816758
 31
0.0
  0
LINE
  5
D3
100
AcDbEntity
  8
LAY-1
  6
CONTINUOUS
 62
     7
100
AcDbLine
 10
621.404041
 20
845.816758
 30
0.0
 11
621.404041
 21
848.86914
 31
0.0
  0
LINE
  5
D4
100
AcDbEntity
  8
LAY-1
  6
CONTINUOUS
 62
     7
100
AcDbLine
 10
621.404041
 20
848.816758
 30
0.0
 11
622.404041
 21
848.816758
 31
0.0
  0
LINE
  5
D5
100
AcDbEntity
  8
LAY-1
  6
CONTINUOUS
 62
     7
100
AcDbLine
 10
355.904041
 20
691.816758
 30
0.0
 11
386.404041
 21
691.816758
 31
0.0
  0
ARC
  5
D6
100
AcDbEntity
  8
LAY-1
  6
CONTINUOUS
 62
     7
100
AcDbCircle
 10
350.40404
 20
693.816758
 30
0.0
 40
2.0
100
AcDbArc
 50
180.0
 51
270.0
  0
LINE
  5
D7
100
AcDbEntity
  8
LAY-1
  6
CONTINUOUS
 62
     7
100
AcDbLine
 10
355.90404
 20
691.816758
 30
0.0
 11
350.40404
 21
691.816758
 31
0.0
  0
LINE
  5
D8
100
AcDbEntity
  8
LAY-1
  6
CONTINUOUS
 62
     7
100
AcDbLine
 10
355.90404
 20
691.816758
 30
0.0
 11
355.90404
 21
710.816758
 31
0.0
  0
LINE
  5
D9
100
AcDbEntity
  8
LAY-1
  6
CONTINUOUS
 62
     7
100
AcDbLine
 10
355.904041
 20
919.816758
 30
0.0
 11
386.404041
 21
919.816758
 31
0.0
  0
LINE
  5
DA
100
AcDbEntity
  8
LAY-1
  6
CONTINUOUS
 62
     7
100
AcDbLine
 10
355.904041
 20
919.816758
 30
0.0
 11
355.904041
 21
900.816758
 31
0.0
  0
ARC
  5
DB
100
AcDbEntity
  8
LAY-1
  6
CONTINUOUS
 62
     7
100
AcDbCircle
 10
350.40404
 20
917.816758
 30
0.0
 40
2.0
100
AcDbArc
 50
90.0
 51
180.0
  0
LINE
  5
DC
100
AcDbEntity
  8
LAY-1
  6
CONTINUOUS
 62
     7
100
AcDbLine
 10
355.90404
 20
919.816758
 30
0.0
 11
350.40404
 21
919.816758
 31
0.0
  0
ARC
  5
DD
100
AcDbEntity
  8
LAY-1
  6
CONTINUOUS
 62
     7
100
AcDbCircle
 10
620.904041
 20
761.316758
 30
0.0
 40
1.5
100
AcDbArc
 50
90.0
 51
180.0
  0
LINE
  5
DE
100
AcDbEntity
  8
LAY-1
  6
CONTINUOUS
 62
     7
100
AcDbLine
 10
619.404041
 20
761.316758
 30
0.0
 11
619.404041
 21
761.305988
 31
0.0
  0
LINE
  5
DF
100
AcDbEntity
  8
LAY-1
  6
CONTINUOUS
 62
     7
100
AcDbLine
 10
621.404041
 20
762.816758
 30
0.0
 11
620.904041
 21
762.816758
 31
0.0
  0
LINE
  5
E0
100
AcDbEntity
  8
LAY-1
  6
CONTINUOUS
 62
     7
100
AcDbLine
 10
621.404041
 20
762.816758
 30
0.0
 11
622.404041
 21
762.816758
 31
0.0
  0
LINE
  5
E1
100
AcDbEntity
  8
LAY-1
  6
CONTINUOUS
 62
     7
100
AcDbLine
 10
621.404041
 20
765.816758
 30
0.0
 11
621.404041
 21
762.764377
 31
0.0
  0
LINE
  5
E2
100
AcDbEntity
  8
LAY-1
  6
CONTINUOUS
 62
     7
100
AcDbLine
 10
622.404041
 20
848.816758
 30
0.0
 11
622.404041
 21
845.816758
 31
0.0
  0
ARC
  5
E3
100
AcDbEntity
  8
LAY-1
  6
CONTINUOUS
 62
     7
100
AcDbCircle
 10
625.404041
 20
846.816758
 30
0.0
 40
2.0
100
AcDbArc
 50
0.0
 51
90.0
  0
ARC
  5
E4
100
AcDbEntity
  8
LAY-1
  6
CONTINUOUS
 62
     7
100
AcDbCircle
 10
629.404041
 20
834.316758
 30
0.0
 40
2.0
100
AcDbArc
 50
180.0
 51
270.0
  0
LINE
  5
E5
100
AcDbEntity
  8
LAY-1
  6
CONTINUOUS
 62
     7
100
AcDbLine
 10
629.404041
 20
832.316758
 30
0.0
 11
636.404041
 21
832.316758
 31
0.0
  0
LINE
  5
E6
100
AcDbEntity
  8
LAY-1
  6
CONTINUOUS
 62
     7
100
AcDbLine
 10
638.404041
 20
805.816758
 30
0.0
 11
638.404041
 21
830.316758
 31
0.0
  0
ARC
  5
E7
100
AcDbEntity
  8
LAY-1
  6
CONTINUOUS
 62
     7
100
AcDbCircle
 10
636.404041
 20
830.316758
 30
0.0
 40
2.0
100
AcDbArc
 50
0.0
 51
90.0
  0
ARC
  5
E8
100
AcDbEntity
  8
LAY-1
  6
CONTINUOUS
 62
     7
100
AcDbCircle
 10
625.404041
 20
764.816758
 30
0.0
 40
2.0
100
AcDbArc
 50
270.0
 51
0.0
  0
ARC
  5
E9
100
AcDbEntity
  8
LAY-1
  6
CONTINUOUS
 62
     7
100
AcDbCircle
 10
629.404041
 20
777.316758
 30
0.0
 40
2.0
100
AcDbArc
 50
90.0
 51
180.0
  0
LINE
  5
EA
100
AcDbEntity
  8
LAY-1
  6
CONTINUOUS
 62
     7
100
AcDbLine
 10
629.404041
 20
779.316758
 30
0.0
 11
636.404041
 21
779.316758
 31
0.0
  0
LINE
  5
EB
100
AcDbEntity
  8
LAY-1
  6
CONTINUOUS
 62
     7
100
AcDbLine
 10
638.404041
 20
805.816758
 30
0.0
 11
638.404041
 21
781.316758
 31
0.0
  0
ARC
  5
EC
100
AcDbEntity
  8
LAY-1
  6
CONTINUOUS
 62
     7
100
AcDbCircle
 10
636.404041
 20
781.316758
 30
0.0
 40
2.0
100
AcDbArc
 50
270.0
 51
0.0
  0
LINE
  5
ED
100
AcDbEntity
  8
LAY-1
  6
CONTINUOUS
 62
     7
100
AcDbLine
 10
622.904041
 20
762.816758
 30
0.0
 11
625.404041
 21
762.816758
 31
0.0
  0
LINE
  5
EE
100
AcDbEntity
  8
LAY-1
  6
CONTINUOUS
 62
     7
100
AcDbLine
 10
622.404041
 20
763.316758
 30
0.0
 11
622.904041
 21
762.816758
 31
0.0
  0
LINE
  5
EF
100
AcDbEntity
  8
LAY-1
  6
CONTINUOUS
 62
     7
100
AcDbLine
 10
622.404041
 20
848.316758
 30
0.0
 11
622.904041
 21
848.816758
 31
0.0
  0
LINE
  5
F0
100
AcDbEntity
  8
LAY-1
  6
CONTINUOUS
 62
     7
100
AcDbLine
 10
622.904041
 20
848.816758
 30
0.0
 11
625.404041
 21
848.816758
 31
0.0
  0
LINE
  5
F1
100
AcDbEntity
  8
LAY-1
  6
CONTINUOUS
 62
     7
100
AcDbLine
 10
622.404041
 20
762.816758
 30
0.0
 11
622.404041
 21
805.816758
 31
0.0
  0
LINE
  5
F2
100
AcDbEntity
  8
LAY-1
  6
CONTINUOUS
 62
     7
100
AcDbLine
 10
622.404041
 20
848.316758
 30
0.0
 11
622.404041
 21
805.816758
 31
0.0
  0
LINE
  5
F3
100
AcDbEntity
  8
LAY-1
  6
CONTINUOUS
 62
     7
100
AcDbLine
 10
621.404041
 20
848.816758
 30
0.0
 11
621.404041
 21
805.816758
 31
0.0
  0
LINE
  5
F4
100
AcDbEntity
  8
LAY-1
  6
CONTINUOUS
 62
     7
100
AcDbLine
 10
621.404041
 20
762.816758
 30
0.0
 11
621.404041
 21
805.816758
 31
0.0
  0
LINE
  5
F5
100
AcDbEntity
  8
LAY-1
  6
CONTINUOUS
 62
     7
100
AcDbLine
 10
619.404041
 20
850.316758
 30
0.0
 11
619.404041
 21
805.816758
 31
0.0
  0
LINE
  5
F6
100
AcDbEntity
  8
LAY-1
  6
CONTINUOUS
 62
     7
100
AcDbLine
 10
619.404041
 20
805.816758
 30
0.0
 11
619.404041
 21
761.316758
 31
0.0
  0
LINE
  5
F7
100
AcDbEntity
  8
LAY-1
  6
CONTINUOUS
 62
     7
100
AcDbLine
 10
627.404041
 20
805.816758
 30
0.0
 11
627.404041
 21
846.816758
 31
0.0
  0
LINE
  5
F8
100
AcDbEntity
  8
LAY-1
  6
CONTINUOUS
 62
     7
100
AcDbLine
 10
627.404041
 20
805.816758
 30
0.0
 11
627.404041
 21
764.816758
 31
0.0
  0
LINE
  5
F9
100
AcDbEntity
  8
LAY-1
  6
CONTINUOUS
 62
     7
100
AcDbLine
 10
529.904041
 20
945.816758
 30
0.0
 11
529.904041
 21
805.816758
 31
0.0
  0
LINE
  5
FA
100
AcDbEntity
  8
LAY-1
  6
CONTINUOUS
 62
     7
100
AcDbLine
 10
529.904041
 20
805.816758
 30
0.0
 11
529.904041
 21
665.816758
 31
0.0
  0
LINE
  5
FB
100
AcDbEntity
  8
LAY-1
  6
CONTINUOUS
 62
     7
100
AcDbLine
 10
538.904041
 20
919.916774
 30
0.0
 11
540.504041
 21
919.916774
 31
0.0
  0
LINE
  5
FC
100
AcDbEntity
  8
LAY-1
  6
CONTINUOUS
 62
     7
100
AcDbLine
 10
540.504041
 20
919.916774
 30
0.0
 11
540.504041
 21
933.77318
 31
0.0
  0
LINE
  5
FD
100
AcDbEntity
  8
LAY-1
  6
CONTINUOUS
 62
     7
100
AcDbLine
 10
540.504041
 20
933.77318
 30
0.0
 11
538.904041
 21
933.77318
 31
0.0
  0
LINE
  5
FE
100
AcDbEntity
  8
LAY-1
  6
CONTINUOUS
 62
     7
100
AcDbLine
 10
538.904041
 20
849.020085
 30
0.0
 11
540.504041
 21
849.020085
 31
0.0
  0
LINE
  5
FF
100
AcDbEntity
  8
LAY-1
  6
CONTINUOUS
 62
     7
100
AcDbLine
 10
540.504041
 20
849.020085
 30
0.0
 11
540.504041
 21
862.876491
 31
0.0
  0
LINE
  5
100
100
AcDbEntity
  8
LAY-1
  6
CONTINUOUS
 62
     7
100
AcDbLine
 10
540.504041
 20
862.876491
 30
0.0
 11
538.904041
 21
862.876491
 31
0.0
  0
LINE
  5
101
100
AcDbEntity
  8
LAY-1
  6
CONTINUOUS
 62
     7
100
AcDbLine
 10
538.904041
 20
691.716743
 30
0.0
 11
540.504041
 21
691.716743
 31
0.0
  0
LINE
  5
102
100
AcDbEntity
  8
LAY-1
  6
CONTINUOUS
 62
     7
100
AcDbLine
 10
540.504041
 20
691.716743
 30
0.0
 11
540.504041
 21
677.860336
 31
0.0
  0
LINE
  5
103
100
AcDbEntity
  8
LAY-1
  6
CONTINUOUS
 62
     7
100
AcDbLine
 10
540.504041
 20
677.860336
 30
0.0
 11
538.904041
 21
677.860336
 31
0.0
  0
LINE
  5
104
100
AcDbEntity
  8
LAY-1
  6
CONTINUOUS
 62
     7
100
AcDbLine
 10
538.904041
 20
762.613432
 30
0.0
 11
540.504041
 21
762.613432
 31
0.0
  0
LINE
  5
105
100
AcDbEntity
  8
LAY-1
  6
CONTINUOUS
 62
     7
100
AcDbLine
 10
540.504041
 20
762.613432
 30
0.0
 11
540.504041
 21
748.757025
 31
0.0
  0
LINE
  5
106
100
AcDbEntity
  8
LAY-1
  6
CONTINUOUS
 62
     7
100
AcDbLine
 10
540.504041
 20
748.757025
 30
0.0
 11
538.904041
 21
748.757025
 31
0.0
  0
LINE
  5
107
100
AcDbEntity
  8
LAY-1
  6
CONTINUOUS
 62
     7
100
AcDbLine
 10
540.504041
 20
678.03854
 30
0.0
 11
544.004041
 21
678.03854
 31
0.0
  0
ARC
  5
108
100
AcDbEntity
  8
LAY-1
  6
CONTINUOUS
 62
     7
100
AcDbCircle
 10
544.004041
 20
680.53854
 30
0.0
 40
2.5
100
AcDbArc
 50
270.0
 51
0.0
  0
LINE
  5
109
100
AcDbEntity
  8
LAY-1
  6
CONTINUOUS
 62
     7
100
AcDbLine
 10
546.504041
 20
689.03854
 30
0.0
 11
546.504041
 21
680.53854
 31
0.0
  0
LINE
  5
10A
100
AcDbEntity
  8
LAY-1
  6
CONTINUOUS
 62
     7
100
AcDbLine
 10
540.504041
 20
691.53854
 30
0.0
 11
544.004041
 21
691.53854
 31
0.0
  0
ARC
  5
10B
100
AcDbEntity
  8
LAY-1
  6
CONTINUOUS
 62
     7
100
AcDbCircle
 10
544.004041
 20
689.03854
 30
0.0
 40
2.5
100
AcDbArc
 50
0.0
 51
90.0
  0
LINE
  5
10C
100
AcDbEntity
  8
LAY-1
  6
CONTINUOUS
 62
     7
100
AcDbLine
 10
540.504041
 20
684.78854
 30
0.0
 11
540.504041
 21
691.53854
 31
0.0
  0
LINE
  5
10D
100
AcDbEntity
  8
LAY-1
  6
CONTINUOUS
 62
     7
100
AcDbLine
 10
540.504041
 20
684.78854
 30
0.0
 11
540.504041
 21
678.03854
 31
0.0
  0
LINE
  5
10E
100
AcDbEntity
  8
LAY-1
  6
CONTINUOUS
 62
     7
100
AcDbLine
 10
540.504041
 20
920.094977
 30
0.0
 11
544.004041
 21
920.094977
 31
0.0
  0
ARC
  5
10F
100
AcDbEntity
  8
LAY-1
  6
CONTINUOUS
 62
     7
100
AcDbCircle
 10
544.004041
 20
922.594977
 30
0.0
 40
2.5
100
AcDbArc
 50
270.0
 51
0.0
  0
LINE
  5
110
100
AcDbEntity
  8
LAY-1
  6
CONTINUOUS
 62
     7
100
AcDbLine
 10
546.504041
 20
931.094977
 30
0.0
 11
546.504041
 21
922.594977
 31
0.0
  0
LINE
  5
111
100
AcDbEntity
  8
LAY-1
  6
CONTINUOUS
 62
     7
100
AcDbLine
 10
540.504041
 20
933.594977
 30
0.0
 11
544.004041
 21
933.594977
 31
0.0
  0
ARC
  5
112
100
AcDbEntity
  8
LAY-1
  6
CONTINUOUS
 62
     7
100
AcDbCircle
 10
544.004041
 20
931.094977
 30
0.0
 40
2.5
100
AcDbArc
 50
0.0
 51
90.0
  0
LINE
  5
113
100
AcDbEntity
  8
LAY-1
  6
CONTINUOUS
 62
     7
100
AcDbLine
 10
540.504041
 20
926.844977
 30
0.0
 11
540.504041
 21
933.594977
 31
0.0
  0
LINE
  5
114
100
AcDbEntity
  8
LAY-1
  6
CONTINUOUS
 62
     7
100
AcDbLine
 10
540.504041
 20
926.844977
 30
0.0
 11
540.504041
 21
920.094977
 31
0.0
  0
LINE
  5
115
100
AcDbEntity
  8
LAY-1
  6
CONTINUOUS
 62
     7
100
AcDbLine
 10
540.504041
 20
849.198288
 30
0.0
 11
544.004041
 21
849.198288
 31
0.0
  0
ARC
  5
116
100
AcDbEntity
  8
LAY-1
  6
CONTINUOUS
 62
     7
100
AcDbCircle
 10
544.004041
 20
851.698288
 30
0.0
 40
2.5
100
AcDbArc
 50
270.0
 51
0.0
  0
LINE
  5
117
100
AcDbEntity
  8
LAY-1
  6
CONTINUOUS
 62
     7
100
AcDbLine
 10
546.504041
 20
860.198288
 30
0.0
 11
546.504041
 21
851.698288
 31
0.0
  0
LINE
  5
118
100
AcDbEntity
  8
LAY-1
  6
CONTINUOUS
 62
     7
100
AcDbLine
 10
540.504041
 20
862.698288
 30
0.0
 11
544.004041
 21
862.698288
 31
0.0
  0
ARC
  5
119
100
AcDbEntity
  8
LAY-1
  6
CONTINUOUS
 62
     7
100
AcDbCircle
 10
544.004041
 20
860.198288
 30
0.0
 40
2.5
100
AcDbArc
 50
0.0
 51
90.0
  0
LINE
  5
11A
100
AcDbEntity
  8
LAY-1
  6
CONTINUOUS
 62
     7
100
AcDbLine
 10
540.504041
 20
855.948288
 30
0.0
 11
540.504041
 21
862.698288
 31
0.0
  0
LINE
  5
11B
100
AcDbEntity
  8
LAY-1
  6
CONTINUOUS
 62
     7
100
AcDbLine
 10
540.504041
 20
855.948288
 30
0.0
 11
540.504041
 21
849.198288
 31
0.0
  0
LINE
  5
11C
100
AcDbEntity
  8
LAY-1
  6
CONTINUOUS
 62
     7
100
AcDbLine
 10
540.504041
 20
748.935229
 30
0.0
 11
544.004041
 21
748.935229
 31
0.0
  0
ARC
  5
11D
100
AcDbEntity
  8
LAY-1
  6
CONTINUOUS
 62
     7
100
AcDbCircle
 10
544.004041
 20
751.435229
 30
0.0
 40
2.5
100
AcDbArc
 50
270.0
 51
0.0
  0
LINE
  5
11E
100
AcDbEntity
  8
LAY-1
  6
CONTINUOUS
 62
     7
100
AcDbLine
 10
546.504041
 20
759.935229
 30
0.0
 11
546.504041
 21
751.435229
 31
0.0
  0
LINE
  5
11F
100
AcDbEntity
  8
LAY-1
  6
CONTINUOUS
 62
     7
100
AcDbLine
 10
540.504041
 20
762.435229
 30
0.0
 11
544.004041
 21
762.435229
 31
0.0
  0
ARC
  5
120
100
AcDbEntity
  8
LAY-1
  6
CONTINUOUS
 62
     7
100
AcDbCircle
 10
544.004041
 20
759.935229
 30
0.0
 40
2.5
100
AcDbArc
 50
0.0
 51
90.0
  0
LINE
  5
121
100
AcDbEntity
  8
LAY-1
  6
CONTINUOUS
 62
     7
100
AcDbLine
 10
540.504041
 20
755.685229
 30
0.0
 11
540.504041
 21
762.435229
 31
0.0
  0
LINE
  5
122
100
AcDbEntity
  8
LAY-1
  6
CONTINUOUS
 62
     7
100
AcDbLine
 10
540.504041
 20
755.685229
 30
0.0
 11
540.504041
 21
748.935229
 31
0.0
  0
LINE
  5
123
100
AcDbEntity
  8
LAY-1
  6
CONTINUOUS
 62
     7
100
AcDbLine
 10
516.460331
 20
943.816758
 30
0.0
 11
516.460331
 21
805.816758
 31
0.0
  0
LINE
  5
124
100
AcDbEntity
  8
LAY-1
  6
CONTINUOUS
 62
     7
100
AcDbLine
 10
516.460331
 20
667.816758
 30
0.0
 11
516.460331
 21
805.816758
 31
0.0
  0
LINE
  5
125
100
AcDbEntity
  8
LAY-1
  6
CONTINUOUS
 62
     7
100
AcDbLine
 10
355.90404
 20
919.816758
 30
0.0
 11
355.90404
 21
805.816758
 31
0.0
  0
LINE
  5
126
100
AcDbEntity
  8
LAY-1
  6
CONTINUOUS
 62
     7
100
AcDbLine
 10
355.904041
 20
691.816758
 30
0.0
 11
355.904041
 21
805.816758
 31
0.0
  0
LINE
  5
127
100
AcDbEntity
  8
LAY-1
  6
CONTINUOUS
 62
     7
100
AcDbLine
 10
348.40404
 20
917.816758
 30
0.0
 11
348.40404
 21
805.816758
 31
0.0
  0
LINE
  5
128
100
AcDbEntity
  8
LAY-1
  6
CONTINUOUS
 62
     7
100
AcDbLine
 10
348.40404
 20
693.816758
 30
0.0
 11
348.40404
 21
805.816758
 31
0.0
  0
LINE
  5
129
100
AcDbEntity
  8
LAY-1
  6
CONTINUOUS
 62
     7
100
AcDbLine
 10
348.40404
 20
812.744962
 30
0.0
 11
346.80404
 21
812.744962
 31
0.0
  0
LINE
  5
12A
100
AcDbEntity
  8
LAY-1
  6
CONTINUOUS
 62
     7
100
AcDbLine
 10
346.80404
 20
812.744962
 30
0.0
 11
346.80404
 21
798.888555
 31
0.0
  0
LINE
  5
12B
100
AcDbEntity
  8
LAY-1
  6
CONTINUOUS
 62
     7
100
AcDbLine
 10
346.80404
 20
798.888555
 30
0.0
 11
348.40404
 21
798.888555
 31
0.0
  0
LINE
  5
12C
100
AcDbEntity
  8
LAY-1
  6
CONTINUOUS
 62
     7
100
AcDbLine
 10
346.804041
 20
812.566758
 30
0.0
 11
343.30404
 21
812.566758
 31
0.0
  0
ARC
  5
12D
100
AcDbEntity
  8
LAY-1
  6
CONTINUOUS
 62
     7
100
AcDbCircle
 10
343.30404
 20
810.066758
 30
0.0
 40
2.5
100
AcDbArc
 50
90.0
 51
180.0
  0
LINE
  5
12E
100
AcDbEntity
  8
LAY-1
  6
CONTINUOUS
 62
     7
100
AcDbLine
 10
340.80404
 20
801.566758
 30
0.0
 11
340.80404
 21
810.066758
 31
0.0
  0
ARC
  5
12F
100
AcDbEntity
  8
LAY-1
  6
CONTINUOUS
 62
     7
100
AcDbCircle
 10
343.30404
 20
801.566758
 30
0.0
 40
2.5
100
AcDbArc
 50
180.0
 51
270.0
  0
LINE
  5
130
100
AcDbEntity
  8
LAY-1
  6
CONTINUOUS
 62
     7
100
AcDbLine
 10
346.804041
 20
799.066758
 30
0.0
 11
343.30404
 21
799.066758
 31
0.0
  0
LINE
  5
131
100
AcDbEntity
  8
LAY-1
  6
CONTINUOUS
 62
     7
100
AcDbLine
 10
348.40404
 20
721.812262
 30
0.0
 11
346.80404
 21
721.812262
 31
0.0
  0
LINE
  5
132
100
AcDbEntity
  8
LAY-1
  6
CONTINUOUS
 62
     7
100
AcDbLine
 10
346.80404
 20
721.812262
 30
0.0
 11
346.80404
 21
707.955855
 31
0.0
  0
LINE
  5
133
100
AcDbEntity
  8
LAY-1
  6
CONTINUOUS
 62
     7
100
AcDbLine
 10
346.80404
 20
707.955855
 30
0.0
 11
348.40404
 21
707.955855
 31
0.0
  0
LINE
  5
134
100
AcDbEntity
  8
LAY-1
  6
CONTINUOUS
 62
     7
100
AcDbLine
 10
346.804041
 20
721.634058
 30
0.0
 11
343.30404
 21
721.634058
 31
0.0
  0
ARC
  5
135
100
AcDbEntity
  8
LAY-1
  6
CONTINUOUS
 62
     7
100
AcDbCircle
 10
343.30404
 20
719.134058
 30
0.0
 40
2.5
100
AcDbArc
 50
90.0
 51
180.0
  0
LINE
  5
136
100
AcDbEntity
  8
LAY-1
  6
CONTINUOUS
 62
     7
100
AcDbLine
 10
340.80404
 20
710.634058
 30
0.0
 11
340.80404
 21
719.134058
 31
0.0
  0
ARC
  5
137
100
AcDbEntity
  8
LAY-1
  6
CONTINUOUS
 62
     7
100
AcDbCircle
 10
343.30404
 20
710.634058
 30
0.0
 40
2.5
100
AcDbArc
 50
180.0
 51
270.0
  0
LINE
  5
138
100
AcDbEntity
  8
LAY-1
  6
CONTINUOUS
 62
     7
100
AcDbLine
 10
346.804041
 20
708.134058
 30
0.0
 11
343.30404
 21
708.134058
 31
0.0
  0
ARC
  5
139
100
AcDbEntity
  8
LAY-1
  6
CONTINUOUS
 62
     7
100
AcDbCircle
 10
343.40404
 20
719.482083
 30
0.0
 40
4.0
100
AcDbArc
 50
180.0
 51
229.458398
  0
LINE
  5
13A
100
AcDbEntity
  8
LAY-1
  6
CONTINUOUS
 62
     7
100
AcDbLine
 10
348.40404
 20
889.821255
 30
0.0
 11
346.80404
 21
889.821255
 31
0.0
  0
LINE
  5
13B
100
AcDbEntity
  8
LAY-1
  6
CONTINUOUS
 62
     7
100
AcDbLine
 10
346.80404
 20
889.821255
 30
0.0
 11
346.80404
 21
903.677662
 31
0.0
  0
LINE
  5
13C
100
AcDbEntity
  8
LAY-1
  6
CONTINUOUS
 62
     7
100
AcDbLine
 10
346.80404
 20
903.677662
 30
0.0
 11
348.40404
 21
903.677662
 31
0.0
  0
LINE
  5
13D
100
AcDbEntity
  8
LAY-1
  6
CONTINUOUS
 62
     7
100
AcDbLine
 10
346.804041
 20
889.999458
 30
0.0
 11
343.30404
 21
889.999458
 31
0.0
  0
ARC
  5
13E
100
AcDbEntity
  8
LAY-1
  6
CONTINUOUS
 62
     7
100
AcDbCircle
 10
343.30404
 20
892.499458
 30
0.0
 40
2.5
100
AcDbArc
 50
180.0
 51
270.0
  0
LINE
  5
13F
100
AcDbEntity
  8
LAY-1
  6
CONTINUOUS
 62
     7
100
AcDbLine
 10
340.80404
 20
900.999458
 30
0.0
 11
340.80404
 21
892.499458
 31
0.0
  0
ARC
  5
140
100
AcDbEntity
  8
LAY-1
  6
CONTINUOUS
 62
     7
100
AcDbCircle
 10
343.30404
 20
900.999458
 30
0.0
 40
2.5
100
AcDbArc
 50
90.0
 51
180.0
  0
LINE
  5
141
100
AcDbEntity
  8
LAY-1
  6
CONTINUOUS
 62
     7
100
AcDbLine
 10
346.804041
 20
903.499458
 30
0.0
 11
343.30404
 21
903.499458
 31
0.0
  0
ARC
  5
142
100
AcDbEntity
  8
LAY-1
  6
CONTINUOUS
 62
     7
100
AcDbCircle
 10
343.40404
 20
892.151434
 30
0.0
 40
4.0
100
AcDbArc
 50
130.541602
 51
180.0
  0
ARC
  5
143
100
AcDbEntity
  8
LAY-1
  6
CONTINUOUS
 62
     7
100
AcDbCircle
 10
343.40404
 20
892.151434
 30
0.0
 40
4.0
100
AcDbArc
 50
130.541602
 51
180.0
  0
LINE
  5
144
100
AcDbEntity
  8
LAY-1
  6
CONTINUOUS
 62
     7
100
AcDbLine
 10
476.404041
 20
660.816758
 30
0.0
 11
431.404041
 21
660.816758
 31
0.0
  0
LINE
  5
145
100
AcDbEntity
  8
LAY-1
  6
CONTINUOUS
 62
     7
100
AcDbLine
 10
431.404041
 20
950.816758
 30
0.0
 11
386.404041
 21
950.816758
 31
0.0
  0
LINE
  5
146
100
AcDbEntity
  8
LAY-1
  6
CONTINUOUS
 62
     7
100
AcDbLine
 10
476.404041
 20
950.816758
 30
0.0
 11
430.684455
 21
950.816758
 31
0.0
  0
ARC
  5
147
100
AcDbEntity
  8
LAY-1
  6
CONTINUOUS
 62
     7
100
AcDbCircle
 10
509.40391
 20
912.232558
 30
0.0
 40
19.999978
100
AcDbArc
 50
92.0
 51
180.0
  0
LINE
  5
148
100
AcDbEntity
  8
LAY-1
  6
CONTINUOUS
 62
     7
100
AcDbLine
 10
489.404011
 20
912.232558
 30
0.0
 11
489.404011
 21
805.816758
 31
0.0
  0
LINE
  5
149
100
AcDbEntity
  8
LAY-1
  6
CONTINUOUS
 62
     7
100
AcDbLine
 10
489.404011
 20
699.401058
 30
0.0
 11
489.404011
 21
805.816758
 31
0.0
  0
ARC
  5
14A
100
AcDbEntity
  8
LAY-1
  6
CONTINUOUS
 62
     7
100
AcDbCircle
 10
509.40391
 20
699.401058
 30
0.0
 40
19.999978
100
AcDbArc
 50
180.0
 51
268.0
  0
LINE
  5
14B
100
AcDbEntity
  8
LAY-1
  6
CONTINUOUS
 62
     7
100
AcDbLine
 10
385.885331
 20
714.216858
 30
0.0
 11
412.764411
 21
723.288158
 31
0.0
  0
LINE
  5
14C
100
AcDbEntity
  8
LAY-1
  6
CONTINUOUS
 62
     7
100
AcDbLine
 10
484.4853
 20
723.288158
 30
0.0
 11
412.764411
 21
723.288158
 31
0.0
  0
LINE
  5
14D
100
AcDbEntity
  8
LAY-1
  6
CONTINUOUS
 62
     7
100
AcDbLine
 10
385.885331
 20
897.416658
 30
0.0
 11
412.764411
 21
888.345458
 31
0.0
  0
LINE
  5
14E
100
AcDbEntity
  8
LAY-1
  6
CONTINUOUS
 62
     7
100
AcDbLine
 10
484.4853
 20
888.345458
 30
0.0
 11
412.764411
 21
888.345458
 31
0.0
  0
LINE
  5
14F
100
AcDbEntity
  8
LAY-1
  6
CONTINUOUS
 62
     7
100
AcDbLine
 10
381.404011
 20
899.816758
 30
0.0
 11
372.632971
 21
899.816758
 31
0.0
  0
ARC
  5
150
100
AcDbEntity
  8
LAY-1
  6
CONTINUOUS
 62
     7
100
AcDbCircle
 10
381.404011
 20
904.816758
 30
0.0
 40
5.0
100
AcDbArc
 50
270.0
 51
0.0
  0
ARC
  5
151
100
AcDbEntity
  8
LAY-1
  6
CONTINUOUS
 62
     7
100
AcDbCircle
 10
372.632971
 20
904.816758
 30
0.0
 40
5.0
100
AcDbArc
 50
178.99983
 51
270.0
  0
LINE
  5
152
100
AcDbEntity
  8
LAY-1
  6
CONTINUOUS
 62
     7
100
AcDbLine
 10
381.404011
 20
711.816858
 30
0.0
 11
372.632971
 21
711.816858
 31
0.0
  0
ARC
  5
153
100
AcDbEntity
  8
LAY-1
  6
CONTINUOUS
 62
     7
100
AcDbCircle
 10
372.632971
 20
706.816858
 30
0.0
 40
5.0
100
AcDbArc
 50
90.0
 51
181.00016
  0
ARC
  5
154
100
AcDbEntity
  8
LAY-1
  6
CONTINUOUS
 62
     7
100
AcDbCircle
 10
381.404011
 20
706.816858
 30
0.0
 40
5.0
100
AcDbArc
 50
0.0
 51
90.0
  0
LINE
  5
155
100
AcDbEntity
  8
LAY-1
  6
CONTINUOUS
 62
     7
100
AcDbLine
 10
436.404021
 20
825.816858
 30
0.0
 11
426.40407
 21
825.816858
 31
0.0
  0
LINE
  5
156
100
AcDbEntity
  8
LAY-1
  6
CONTINUOUS
 62
     7
100
AcDbLine
 10
426.40407
 20
825.816858
 30
0.0
 11
426.40407
 21
793.816858
 31
0.0
  0
LINE
  5
157
100
AcDbEntity
  8
LAY-1
  6
CONTINUOUS
 62
     7
100
AcDbLine
 10
436.404021
 20
825.816858
 30
0.0
 11
436.404021
 21
793.816858
 31
0.0
  0
LINE
  5
158
100
AcDbEntity
  8
LAY-1
  6
CONTINUOUS
 62
     7
100
AcDbLine
 10
446.404061
 20
779.816958
 30
0.0
 11
446.404061
 21
831.816758
 31
0.0
  0
LINE
  5
159
100
AcDbEntity
  8
LAY-1
  6
CONTINUOUS
 62
     7
100
AcDbLine
 10
449.40412
 20
774.816858
 30
0.0
 11
446.25413
 21
777.966958
 31
0.0
  0
LINE
  5
15A
100
AcDbEntity
  8
LAY-1
  6
CONTINUOUS
 62
     7
100
AcDbLine
 10
449.40412
 20
836.816658
 30
0.0
 11
446.25413
 21
833.666858
 31
0.0
  0
LINE
  5
15B
100
AcDbEntity
  8
LAY-1
  6
CONTINUOUS
 62
     7
100
AcDbLine
 10
416.40412
 20
831.816758
 30
0.0
 11
416.40412
 21
779.816958
 31
0.0
  0
LINE
  5
15C
100
AcDbEntity
  8
LAY-1
  6
CONTINUOUS
 62
     7
100
AcDbLine
 10
412.604071
 20
774.016958
 30
0.0
 11
415.754161
 21
777.166958
 31
0.0
  0
LINE
  5
15D
100
AcDbEntity
  8
LAY-1
  6
CONTINUOUS
 62
     7
100
AcDbLine
 10
412.604071
 20
837.616758
 30
0.0
 11
415.754161
 21
834.466858
 31
0.0
  0
LINE
  5
15E
100
AcDbEntity
  8
LAY-1
  6
CONTINUOUS
 62
     7
100
AcDbLine
 10
418.404131
 20
777.816958
 30
0.0
 11
446.404061
 21
777.816958
 31
0.0
  0
LINE
  5
15F
100
AcDbEntity
  8
LAY-1
  6
CONTINUOUS
 62
     7
100
AcDbLine
 10
418.404131
 20
833.816858
 30
0.0
 11
446.404061
 21
833.816858
 31
0.0
  0
LINE
  5
160
100
AcDbEntity
  8
LAY-1
  6
CONTINUOUS
 62
     7
100
AcDbLine
 10
439.404081
 20
793.816858
 30
0.0
 11
431.404041
 21
785.816758
 31
0.0
  0
LINE
  5
161
100
AcDbEntity
  8
LAY-1
  6
CONTINUOUS
 62
     7
100
AcDbLine
 10
439.404081
 20
793.816858
 30
0.0
 11
436.404021
 21
793.816858
 31
0.0
  0
LINE
  5
162
100
AcDbEntity
  8
LAY-1
  6
CONTINUOUS
 62
     7
100
AcDbLine
 10
423.404201
 20
793.816858
 30
0.0
 11
426.40407
 21
793.816858
 31
0.0
  0
LINE
  5
163
100
AcDbEntity
  8
LAY-1
  6
CONTINUOUS
 62
     7
100
AcDbLine
 10
423.404201
 20
793.816858
 30
0.0
 11
431.404041
 21
785.816758
 31
0.0
  0
ARC
  5
164
100
AcDbEntity
  8
LAY-1
  6
CONTINUOUS
 62
     7
100
AcDbCircle
 10
444.404151
 20
831.816758
 30
0.0
 40
1.999998
100
AcDbArc
 50
0.0
 51
90.0
  0
ARC
  5
165
100
AcDbEntity
  8
LAY-1
  6
CONTINUOUS
 62
     7
100
AcDbCircle
 10
444.404151
 20
779.816958
 30
0.0
 40
1.999998
100
AcDbArc
 50
270.0
 51
0.0
  0
ARC
  5
166
100
AcDbEntity
  8
LAY-1
  6
CONTINUOUS
 62
     7
100
AcDbCircle
 10
418.404131
 20
779.816958
 30
0.0
 40
1.999998
100
AcDbArc
 50
180.0
 51
270.0
  0
ARC
  5
167
100
AcDbEntity
  8
LAY-1
  6
CONTINUOUS
 62
     7
100
AcDbCircle
 10
418.404131
 20
831.816758
 30
0.0
 40
1.999998
100
AcDbArc
 50
90.0
 51
180.0
  0
LINE
  5
168
100
AcDbEntity
  8
LAY-1
  6
CONTINUOUS
 62
     7
100
AcDbLine
 10
450.043681
 20
660.816758
 30
0.0
 11
450.043681
 21
681.461858
 31
0.0
  0
LINE
  5
169
100
AcDbEntity
  8
LAY-1
  6
CONTINUOUS
 62
     7
100
AcDbLine
 10
513.74649
 20
679.237258
 30
0.0
 11
451.637164
 21
681.406188
 31
0.0
  0
LINE
  5
16A
100
AcDbEntity
  8
LAY-1
  6
CONTINUOUS
 62
     7
100
AcDbLine
 10
513.746391
 20
932.396358
 30
0.0
 11
452.42549
 21
930.255158
 31
0.0
  0
LINE
  5
16B
100
AcDbEntity
  8
LAY-1
  6
CONTINUOUS
 62
     7
100
AcDbLine
 10
450.043681
 20
950.816758
 30
0.0
 11
450.043681
 21
930.171958
 31
0.0
  0
LINE
  5
16C
100
AcDbEntity
  8
LAY-1
  6
CONTINUOUS
 62
     7
100
AcDbLine
 10
412.764411
 20
950.816758
 30
0.0
 11
412.764411
 21
888.345458
 31
0.0
  0
LINE
  5
16D
100
AcDbEntity
  8
LAY-1
  6
CONTINUOUS
 62
     7
100
AcDbLine
 10
386.404081
 20
950.816758
 30
0.0
 11
386.404081
 21
904.816758
 31
0.0
  0
LINE
  5
16E
100
AcDbEntity
  8
LAY-1
  6
CONTINUOUS
 62
     7
100
AcDbLine
 10
476.404041
 20
680.5413
 30
0.0
 11
476.404041
 21
660.816758
 31
0.0
  0
LINE
  5
16F
100
AcDbEntity
  8
LAY-1
  6
CONTINUOUS
 62
     7
100
AcDbLine
 10
476.404041
 20
931.09244
 30
0.0
 11
476.404041
 21
950.816758
 31
0.0
  0
ARC
  5
170
100
AcDbEntity
  8
LAY-1
  6
CONTINUOUS
 62
     7
100
AcDbCircle
 10
513.460331
 20
935.394531
 30
0.0
 40
3.0
100
AcDbArc
 50
272.0
 51
0.0
  0
ARC
  5
171
100
AcDbEntity
  8
LAY-1
  6
CONTINUOUS
 62
     7
100
AcDbCircle
 10
513.460331
 20
676.25183
 30
0.0
 40
3.0
100
AcDbArc
 50
0.0
 51
88.0
  0
ARC
  5
172
100
AcDbEntity
  8
LAY-1
  6
CONTINUOUS
 62
     7
100
AcDbCircle
 10
553.854114
 20
845.47075
 30
0.0
 40
10.0
100
AcDbArc
 50
181.999999
 51
267.999946
  0
ARC
  5
173
100
AcDbEntity
  8
LAY-1
  6
CONTINUOUS
 62
     7
100
AcDbCircle
 10
553.854114
 20
766.162888
 30
0.0
 40
10.0
100
AcDbArc
 50
92.000071
 51
178.000021
  0
LINE
  5
174
100
AcDbEntity
  8
LAY-1
  6
CONTINUOUS
 62
     7
100
AcDbLine
 10
553.505115
 20
776.156785
 30
0.0
 11
572.404041
 21
776.816758
 31
0.0
  0
ARC
  5
175
100
AcDbEntity
  8
LAY-1
  6
CONTINUOUS
 62
     7
100
AcDbCircle
 10
572.404041
 20
805.816758
 30
0.0
 40
29.0
100
AcDbArc
 50
270.000003
 51
0.000005
  0
ARC
  5
176
100
AcDbEntity
  8
LAY-1
  6
CONTINUOUS
 62
     7
100
AcDbCircle
 10
572.404041
 20
805.816758
 30
0.0
 40
29.0
100
AcDbArc
 50
0.000005
 51
90.000001
  0
LINE
  5
177
100
AcDbEntity
  8
LAY-1
  6
CONTINUOUS
 62
     7
100
AcDbLine
 10
586.910816
 20
780.705918
 30
0.0
 11
603.921497
 21
781.299912
 31
0.0
  0
LINE
  5
178
100
AcDbEntity
  8
LAY-1
  6
CONTINUOUS
 62
     7
100
AcDbLine
 10
605.24303
 20
805.816758
 30
0.0
 11
604.404285
 21
781.799607
 31
0.0
  0
LINE
  5
179
100
AcDbEntity
  8
LAY-1
  6
CONTINUOUS
 62
     7
100
AcDbLine
 10
605.24303
 20
805.816758
 30
0.0
 11
604.404285
 21
829.833909
 31
0.0
  0
LINE
  5
17A
100
AcDbEntity
  8
LAY-1
  6
CONTINUOUS
 62
     7
100
AcDbLine
 10
586.910816
 20
830.927598
 30
0.0
 11
603.921497
 21
830.333604
 31
0.0
  0
LINE
  5
17B
100
AcDbEntity
  8
LAY-1
  6
CONTINUOUS
 62
     7
100
AcDbLine
 10
553.505115
 20
835.476853
 30
0.0
 11
572.404041
 21
834.81688
 31
0.0
  0
ARC
  5
17C
100
AcDbEntity
  8
LAY-1
  6
CONTINUOUS
 62
     7
100
AcDbCircle
 10
603.904041
 20
829.833909
 30
0.0
 40
0.5
100
AcDbArc
 50
2.000731
 51
88.000012
  0
ARC
  5
17D
100
AcDbEntity
  8
LAY-1
  6
CONTINUOUS
 62
     7
100
AcDbCircle
 10
603.904041
 20
781.799607
 30
0.0
 40
0.5
100
AcDbArc
 50
271.999998
 51
357.999279
  0
LINE
  5
17E
100
AcDbEntity
  8
LAY-1
  6
CONTINUOUS
 62
     7
100
AcDbLine
 10
538.904041
 20
824.416758
 30
0.0
 11
538.904041
 21
943.816758
 31
0.0
  0
LINE
  5
17F
100
AcDbEntity
  8
LAY-1
  6
CONTINUOUS
 62
     7
100
AcDbLine
 10
538.904041
 20
787.216758
 30
0.0
 11
538.904041
 21
667.816758
 31
0.0
  0
LINE
  5
180
100
AcDbEntity
  8
LAY-1
  6
CONTINUOUS
 62
     7
100
AcDbLine
 10
537.404041
 20
824.416758
 30
0.0
 11
537.404041
 21
787.216758
 31
0.0
  0
LINE
  5
181
100
AcDbEntity
  8
LAY-1
  6
CONTINUOUS
 62
     7
100
AcDbLine
 10
569.404041
 20
787.216758
 30
0.0
 11
537.404041
 21
787.216758
 31
0.0
  0
LINE
  5
182
100
AcDbEntity
  8
LAY-1
  6
CONTINUOUS
 62
     7
100
AcDbLine
 10
569.404041
 20
824.416758
 30
0.0
 11
537.404041
 21
824.416758
 31
0.0
  0
ARC
  5
183
100
AcDbEntity
  8
LAY-1
  6
CONTINUOUS
 62
     7
100
AcDbCircle
 10
569.404041
 20
805.816758
 30
0.0
 40
18.6
100
AcDbArc
 50
270.0
 51
90.0
  0
LINE
  5
184
100
AcDbEntity
  8
LAY-1
  6
CONTINUOUS
 62
     7
100
AcDbLine
 10
365.804041
 20
919.816758
 30
0.0
 11
365.804041
 21
805.816758
 31
0.0
  0
LINE
  5
185
100
AcDbEntity
  8
LAY-1
  6
CONTINUOUS
 62
     7
100
AcDbLine
 10
365.804041
 20
691.816758
 30
0.0
 11
365.804041
 21
805.816758
 31
0.0
  0
ARC
  5
186
100
AcDbEntity
  8
LAY-1
  6
CONTINUOUS
 62
     7
100
AcDbCircle
 10
537.944848
 20
906.560991
 30
0.0
 40
20.0
100
AcDbArc
 50
50.0
 51
64.661856
  0
ARC
  5
187
100
AcDbEntity
  8
LAY-1
  6
CONTINUOUS
 62
     7
100
AcDbCircle
 10
537.944848
 20
705.072525
 30
0.0
 40
20.0
100
AcDbArc
 50
295.338144
 51
310.0
  0
LINE
  5
188
100
AcDbEntity
  8
LAY-1
  6
CONTINUOUS
 62
     7
100
AcDbLine
 10
608.687669
 20
738.324655
 30
0.0
 11
550.8006
 21
689.751637
 31
0.0
  0
LINE
  5
189
100
AcDbEntity
  8
LAY-1
  6
CONTINUOUS
 62
     7
100
AcDbLine
 10
366.80404
 20
893.425958
 30
0.0
 11
366.80404
 21
900.072958
 31
0.0
  0
LINE
  5
18A
100
AcDbEntity
  8
LAY-1
  6
CONTINUOUS
 62
     7
100
AcDbLine
 10
366.12754
 20
892.749458
 30
0.0
 11
366.80404
 21
893.425958
 31
0.0
  0
LINE
  5
18B
100
AcDbEntity
  8
LAY-1
  6
CONTINUOUS
 62
     7
100
AcDbLine
 10
365.904041
 20
892.749458
 30
0.0
 11
366.12754
 21
892.749458
 31
0.0
  0
LINE
  5
18C
100
AcDbEntity
  8
LAY-1
  6
CONTINUOUS
 62
     7
100
AcDbLine
 10
366.80404
 20
900.072958
 30
0.0
 11
366.12754
 21
900.749458
 31
0.0
  0
LINE
  5
18D
100
AcDbEntity
  8
LAY-1
  6
CONTINUOUS
 62
     7
100
AcDbLine
 10
365.904041
 20
900.749458
 30
0.0
 11
366.12754
 21
900.749458
 31
0.0
  0
LINE
  5
18E
100
AcDbEntity
  8
LAY-1
  6
CONTINUOUS
 62
     7
100
AcDbLine
 10
366.12754
 20
900.749458
 30
0.0
 11
366.12754
 21
892.749458
 31
0.0
  0
LINE
  5
18F
100
AcDbEntity
  8
LAY-1
  6
CONTINUOUS
 62
     7
100
AcDbLine
 10
366.80404
 20
802.493258
 30
0.0
 11
366.80404
 21
809.140258
 31
0.0
  0
LINE
  5
190
100
AcDbEntity
  8
LAY-1
  6
CONTINUOUS
 62
     7
100
AcDbLine
 10
366.12754
 20
801.816758
 30
0.0
 11
366.80404
 21
802.493258
 31
0.0
  0
LINE
  5
191
100
AcDbEntity
  8
LAY-1
  6
CONTINUOUS
 62
     7
100
AcDbLine
 10
365.904041
 20
801.816758
 30
0.0
 11
366.12754
 21
801.816758
 31
0.0
  0
LINE
  5
192
100
AcDbEntity
  8
LAY-1
  6
CONTINUOUS
 62
     7
100
AcDbLine
 10
366.80404
 20
809.140258
 30
0.0
 11
366.12754
 21
809.816758
 31
0.0
  0
LINE
  5
193
100
AcDbEntity
  8
LAY-1
  6
CONTINUOUS
 62
     7
100
AcDbLine
 10
365.904041
 20
809.816758
 30
0.0
 11
366.12754
 21
809.816758
 31
0.0
  0
LINE
  5
194
100
AcDbEntity
  8
LAY-1
  6
CONTINUOUS
 62
     7
100
AcDbLine
 10
366.12754
 20
809.816758
 30
0.0
 11
366.12754
 21
801.816758
 31
0.0
  0
LINE
  5
195
100
AcDbEntity
  8
LAY-1
  6
CONTINUOUS
 62
     7
100
AcDbLine
 10
366.80404
 20
711.560558
 30
0.0
 11
366.80404
 21
718.207558
 31
0.0
  0
LINE
  5
196
100
AcDbEntity
  8
LAY-1
  6
CONTINUOUS
 62
     7
100
AcDbLine
 10
366.12754
 20
710.884058
 30
0.0
 11
366.80404
 21
711.560558
 31
0.0
  0
LINE
  5
197
100
AcDbEntity
  8
LAY-1
  6
CONTINUOUS
 62
     7
100
AcDbLine
 10
365.904041
 20
710.884058
 30
0.0
 11
366.12754
 21
710.884058
 31
0.0
  0
LINE
  5
198
100
AcDbEntity
  8
LAY-1
  6
CONTINUOUS
 62
     7
100
AcDbLine
 10
366.80404
 20
718.207558
 30
0.0
 11
366.12754
 21
718.884058
 31
0.0
  0
LINE
  5
199
100
AcDbEntity
  8
LAY-1
  6
CONTINUOUS
 62
     7
100
AcDbLine
 10
365.904041
 20
718.884058
 30
0.0
 11
366.12754
 21
718.884058
 31
0.0
  0
LINE
  5
19A
100
AcDbEntity
  8
LAY-1
  6
CONTINUOUS
 62
     7
100
AcDbLine
 10
366.12754
 20
718.884058
 30
0.0
 11
366.12754
 21
710.884058
 31
0.0
  0
LINE
  5
19B
100
AcDbEntity
  8
LAY-1
  6
CONTINUOUS
 62
     7
100
AcDbLine
 10
637.404041
 20
807.263684
 30
0.0
 11
628.404041
 21
807.263684
 31
0.0
  0
LINE
  5
19C
100
AcDbEntity
  8
LAY-1
  6
CONTINUOUS
 62
     7
100
AcDbLine
 10
637.404041
 20
804.369833
 30
0.0
 11
628.404041
 21
804.369833
 31
0.0
  0
LINE
  5
19D
100
AcDbEntity
  8
LAY-1
  6
CONTINUOUS
 62
     7
100
AcDbLine
 10
628.404041
 20
787.106381
 30
0.0
 11
637.404041
 21
787.106381
 31
0.0
  0
LINE
  5
19E
100
AcDbEntity
  8
LAY-1
  6
CONTINUOUS
 62
     7
100
AcDbLine
 10
628.404041
 20
824.527135
 30
0.0
 11
637.404041
 21
824.527135
 31
0.0
  0
LINE
  5
19F
100
AcDbEntity
  8
LAY-1
  6
CONTINUOUS
 62
     7
100
AcDbLine
 10
412.764411
 20
660.816758
 30
0.0
 11
412.764411
 21
723.288158
 31
0.0
  0
LINE
  5
1A0
100
AcDbEntity
  8
LAY-1
  6
CONTINUOUS
 62
     7
100
AcDbLine
 10
431.404041
 20
660.816758
 30
0.0
 11
386.404081
 21
660.816758
 31
0.0
  0
LINE
  5
1A1
100
AcDbEntity
  8
LAY-1
  6
CONTINUOUS
 62
     7
100
AcDbLine
 10
386.404081
 20
660.816758
 30
0.0
 11
386.404081
 21
706.816858
 31
0.0
  0
TEXT
  5
1A2
100
AcDbEntity
  8
LAY-1
  6
CONTINUOUS
 62
     3
100
AcDbText
 10
998.073769
 20
939.777203
 30
0.0
 40
6.0
  1
入口側
 50
180.0
 41
0.784
  7
EXCADSTD
 72
     5
 11
981.27377
 21
939.777203
 31
0.0
100
AcDbText
  0
LINE
  5
1A3
100
AcDbEntity
  8
LAY-1
  6
EXLTYPE3
 62
     1
100
AcDbLine
 10
990.0
 20
962.4933
 30
0.0
 11
990.0
 21
644.4933
 31
0.0
  0
LINE
  5
1A4
100
AcDbEntity
  8
LAY-1
  6
CONTINUOUS
 62
     1
100
AcDbLine
 10
847.518008
 20
793.696326
 30
0.0
 11
845.389155
 21
792.467232
 31
0.0
  0
LINE
  5
1A5
100
AcDbEntity
  8
LAY-1
  6
CONTINUOUS
 62
     1
100
AcDbLine
 10
830.518008
 20
793.696326
 30
0.0
 11
832.646861
 21
792.467232
 31
0.0
  0
LINE
  5
1A6
100
AcDbEntity
  8
LAY-1
  6
CONTINUOUS
 62
     1
100
AcDbLine
 10
828.518008
 20
793.758826
 30
0.0
 11
830.518008
 21
793.696326
 31
0.0
  0
LINE
  5
1A7
100
AcDbEntity
  8
LAY-1
  6
CONTINUOUS
 62
     1
100
AcDbLine
 10
847.518008
 20
817.937191
 30
0.0
 11
845.389155
 21
819.166285
 31
0.0
  0
LINE
  5
1A8
100
AcDbEntity
  8
LAY-1
  6
CONTINUOUS
 62
     1
100
AcDbLine
 10
830.518008
 20
817.937191
 30
0.0
 11
832.646861
 21
819.166285
 31
0.0
  0
LINE
  5
1A9
100
AcDbEntity
  8
LAY-1
  6
CONTINUOUS
 62
     1
100
AcDbLine
 10
828.518008
 20
817.874691
 30
0.0
 11
830.518008
 21
817.937191
 31
0.0
  0
LINE
  5
1AA
100
AcDbEntity
  8
LAY-1
  6
CONTINUOUS
 62
     1
100
AcDbLine
 10
850.0
 20
817.859629
 30
0.0
 11
847.518008
 21
817.937191
 31
0.0
  0
LINE
  5
1AB
100
AcDbEntity
  8
LAY-1
  6
CONTINUOUS
 62
     1
100
AcDbLine
 10
849.938972
 20
793.771981
 30
0.0
 11
847.518008
 21
793.696326
 31
0.0
  0
LINE
  5
1AC
100
AcDbEntity
  8
LAY-1
  6
EXLTYPE3
 62
     1
100
AcDbLine
 10
1132.684455
 20
805.816758
 30
0.0
 11
765.183242
 21
805.816758
 31
0.0
  0
LINE
  5
1AD
100
AcDbEntity
  8
LAY-1
  6
EXLTYPE4
 62
     1
100
AcDbLine
 10
1340.09596
 20
665.816758
 30
0.0
 11
1342.095959
 21
665.816758
 31
0.0
  0
LINE
  5
1AE
100
AcDbEntity
  8
LAY-1
  6
EXLTYPE4
 62
     1
100
AcDbLine
 10
1513.09596
 20
900.072958
 30
0.0
 11
1512.19596
 21
900.072958
 31
0.0
  0
LINE
  5
1AF
100
AcDbEntity
  8
LAY-1
  6
EXLTYPE4
 62
     1
100
AcDbLine
 10
1512.19596
 20
893.425958
 30
0.0
 11
1513.09596
 21
893.425958
 31
0.0
  0
LINE
  5
1B0
100
AcDbEntity
  8
LAY-1
  6
EXLTYPE4
 62
     1
100
AcDbLine
 10
1513.09596
 20
809.140258
 30
0.0
 11
1512.19596
 21
809.140258
 31
0.0
  0
LINE
  5
1B1
100
AcDbEntity
  8
LAY-1
  6
EXLTYPE4
 62
     1
100
AcDbLine
 10
1512.19596
 20
802.493258
 30
0.0
 11
1513.09596
 21
802.493258
 31
0.0
  0
LINE
  5
1B2
100
AcDbEntity
  8
LAY-1
  6
EXLTYPE4
 62
     1
100
AcDbLine
 10
1513.09596
 20
718.207558
 30
0.0
 11
1512.19596
 21
718.207558
 31
0.0
  0
LINE
  5
1B3
100
AcDbEntity
  8
LAY-1
  6
EXLTYPE4
 62
     1
100
AcDbLine
 10
1512.19596
 20
711.560558
 30
0.0
 11
1513.09596
 21
711.560558
 31
0.0
  0
LINE
  5
1B4
100
AcDbEntity
  8
LAY-1
  6
EXLTYPE3
 62
     1
100
AcDbLine
 10
1447.595959
 20
629.048483
 30
0.0
 11
1447.595959
 21
971.348483
 31
0.0
  0
LINE
  5
1B5
100
AcDbEntity
  8
LAY-1
  6
CONTINUOUS
 62
     1
100
AcDbLine
 10
1365.09605
 20
805.816758
 30
0.0
 11
1365.09605
 21
805.816748
 31
0.0
  0
LINE
  5
1B6
100
AcDbEntity
  8
LAY-1
  6
EXLTYPE3
 62
     1
100
AcDbLine
 10
876.0
 20
1291.522501
 30
0.0
 11
1106.0
 21
1291.522501
 31
0.0
  0
CIRCLE
  5
1B7
100
AcDbEntity
  8
LAY-1
  6
CONTINUOUS
 62
     1
100
AcDbCircle
 10
990.0
 20
1291.522501
 30
0.0
 40
29.71325
  0
LINE
  5
1B8
100
AcDbEntity
  8
LAY-1
  6
CONTINUOUS
 62
     1
100
AcDbLine
 10
848.511509
 20
1141.402069
 30
0.0
 11
846.382656
 21
1140.172975
 31
0.0
  0
LINE
  5
1B9
100
AcDbEntity
  8
LAY-1
  6
CONTINUOUS
 62
     1
100
AcDbLine
 10
831.511509
 20
1141.402069
 30
0.0
 11
833.640363
 21
1140.172975
 31
0.0
  0
LINE
  5
1BA
100
AcDbEntity
  8
LAY-1
  6
CONTINUOUS
 62
     1
100
AcDbLine
 10
829.511509
 20
1141.464569
 30
0.0
 11
831.511509
 21
1141.402069
 31
0.0
  0
LINE
  5
1BB
100
AcDbEntity
  8
LAY-1
  6
CONTINUOUS
 62
     1
100
AcDbLine
 10
848.511509
 20
1165.642934
 30
0.0
 11
846.382656
 21
1166.872028
 31
0.0
  0
LINE
  5
1BC
100
AcDbEntity
  8
LAY-1
  6
CONTINUOUS
 62
     1
100
AcDbLine
 10
831.511509
 20
1165.642934
 30
0.0
 11
833.640363
 21
1166.872028
 31
0.0
  0
LINE
  5
1BD
100
AcDbEntity
  8
LAY-1
  6
CONTINUOUS
 62
     1
100
AcDbLine
 10
829.511509
 20
1165.580434
 30
0.0
 11
831.511509
 21
1165.642934
 31
0.0
  0
LINE
  5
1BE
100
AcDbEntity
  8
LAY-1
  6
CONTINUOUS
 62
     1
100
AcDbLine
 10
850.993501
 20
1165.565372
 30
0.0
 11
848.511509
 21
1165.642934
 31
0.0
  0
LINE
  5
1BF
100
AcDbEntity
  8
LAY-1
  6
CONTINUOUS
 62
     1
100
AcDbLine
 10
852.253717
 20
1141.519013
 30
0.0
 11
848.511509
 21
1141.402069
 31
0.0
  0
LINE
  5
1C0
100
AcDbEntity
  8
LAY-1
  6
EXLTYPE4
 62
     1
100
AcDbLine
 10
1091.6765
 20
1357.122501
 30
0.0
 11
1091.6765
 21
1356.222501
 31
0.0
  0
LINE
  5
1C1
100
AcDbEntity
  8
LAY-1
  6
EXLTYPE4
 62
     1
100
AcDbLine
 10
1098.3235
 20
1356.222501
 30
0.0
 11
1098.3235
 21
1357.122501
 31
0.0
  0
LINE
  5
1C2
100
AcDbEntity
  8
LAY-1
  6
EXLTYPE4
 62
     1
100
AcDbLine
 10
888.3235
 20
1357.122501
 30
0.0
 11
888.3235
 21
1356.222501
 31
0.0
  0
LINE
  5
1C3
100
AcDbEntity
  8
LAY-1
  6
EXLTYPE4
 62
     1
100
AcDbLine
 10
881.6765
 20
1356.222501
 30
0.0
 11
881.6765
 21
1357.122501
 31
0.0
  0
LINE
  5
1C4
100
AcDbEntity
  8
LAY-1
  6
EXLTYPE4
 62
     1
100
AcDbLine
 10
1039.1765
 20
1357.122501
 30
0.0
 11
1039.1765
 21
1356.222501
 31
0.0
  0
LINE
  5
1C5
100
AcDbEntity
  8
LAY-1
  6
EXLTYPE4
 62
     1
100
AcDbLine
 10
1045.8235
 20
1356.222501
 30
0.0
 11
1045.8235
 21
1357.122501
 31
0.0
  0
LINE
  5
1C6
100
AcDbEntity
  8
LAY-1
  6
EXLTYPE4
 62
     1
100
AcDbLine
 10
940.8235
 20
1357.122501
 30
0.0
 11
940.8235
 21
1356.222501
 31
0.0
  0
LINE
  5
1C7
100
AcDbEntity
  8
LAY-1
  6
EXLTYPE4
 62
     1
100
AcDbLine
 10
934.1765
 20
1356.222501
 30
0.0
 11
934.1765
 21
1357.122501
 31
0.0
  0
LINE
  5
1C8
100
AcDbEntity
  8
LAY-1
  6
EXLTYPE3
 62
     1
100
AcDbLine
 10
876.0
 20
317.111015
 30
0.0
 11
1106.0
 21
317.111015
 31
0.0
  0
CIRCLE
  5
1C9
100
AcDbEntity
  8
LAY-1
  6
CONTINUOUS
 62
     1
100
AcDbCircle
 10
990.0
 20
317.111015
 30
0.0
 40
29.71325
  0
LINE
  5
1CA
100
AcDbEntity
  8
LAY-1
  6
CONTINUOUS
 62
     1
100
AcDbLine
 10
848.511509
 20
467.231448
 30
0.0
 11
846.382656
 21
468.460542
 31
0.0
  0
LINE
  5
1CB
100
AcDbEntity
  8
LAY-1
  6
CONTINUOUS
 62
     1
100
AcDbLine
 10
831.511509
 20
467.231448
 30
0.0
 11
833.640363
 21
468.460542
 31
0.0
  0
LINE
  5
1CC
100
AcDbEntity
  8
LAY-1
  6
CONTINUOUS
 62
     1
100
AcDbLine
 10
829.511509
 20
467.168948
 30
0.0
 11
831.511509
 21
467.231448
 31
0.0
  0
LINE
  5
1CD
100
AcDbEntity
  8
LAY-1
  6
CONTINUOUS
 62
     1
100
AcDbLine
 10
848.511509
 20
442.990583
 30
0.0
 11
846.382656
 21
441.761489
 31
0.0
  0
LINE
  5
1CE
100
AcDbEntity
  8
LAY-1
  6
CONTINUOUS
 62
     1
100
AcDbLine
 10
831.511509
 20
442.990583
 30
0.0
 11
833.640363
 21
441.761489
 31
0.0
  0
LINE
  5
1CF
100
AcDbEntity
  8
LAY-1
  6
CONTINUOUS
 62
     1
100
AcDbLine
 10
829.511509
 20
443.053083
 30
0.0
 11
831.511509
 21
442.990583
 31
0.0
  0
LINE
  5
1D0
100
AcDbEntity
  8
LAY-1
  6
CONTINUOUS
 62
     1
100
AcDbLine
 10
850.993501
 20
443.068145
 30
0.0
 11
848.511509
 21
442.990583
 31
0.0
  0
LINE
  5
1D1
100
AcDbEntity
  8
LAY-1
  6
CONTINUOUS
 62
     1
100
AcDbLine
 10
852.253717
 20
467.114504
 30
0.0
 11
848.511509
 21
467.231448
 31
0.0
  0
LINE
  5
1D2
100
AcDbEntity
  8
LAY-1
  6
EXLTYPE4
 62
     1
100
AcDbLine
 10
1091.6765
 20
251.511015
 30
0.0
 11
1091.6765
 21
252.411015
 31
0.0
  0
LINE
  5
1D3
100
AcDbEntity
  8
LAY-1
  6
EXLTYPE4
 62
     1
100
AcDbLine
 10
1098.3235
 20
252.411015
 30
0.0
 11
1098.3235
 21
251.511015
 31
0.0
  0
LINE
  5
1D4
100
AcDbEntity
  8
LAY-1
  6
EXLTYPE4
 62
     1
100
AcDbLine
 10
888.3235
 20
251.511015
 30
0.0
 11
888.3235
 21
252.411015
 31
0.0
  0
LINE
  5
1D5
100
AcDbEntity
  8
LAY-1
  6
EXLTYPE4
 62
     1
100
AcDbLine
 10
881.6765
 20
252.411015
 30
0.0
 11
881.6765
 21
251.511015
 31
0.0
  0
LINE
  5
1D6
100
AcDbEntity
  8
LAY-1
  6
EXLTYPE4
 62
     1
100
AcDbLine
 10
1039.1765
 20
251.511015
 30
0.0
 11
1039.1765
 21
252.411015
 31
0.0
  0
LINE
  5
1D7
100
AcDbEntity
  8
LAY-1
  6
EXLTYPE4
 62
     1
100
AcDbLine
 10
1045.8235
 20
252.411015
 30
0.0
 11
1045.8235
 21
251.511015
 31
0.0
  0
LINE
  5
1D8
100
AcDbEntity
  8
LAY-1
  6
EXLTYPE4
 62
     1
100
AcDbLine
 10
940.8235
 20
251.511015
 30
0.0
 11
940.8235
 21
252.411015
 31
0.0
  0
LINE
  5
1D9
100
AcDbEntity
  8
LAY-1
  6
EXLTYPE4
 62
     1
100
AcDbLine
 10
934.1765
 20
252.411015
 30
0.0
 11
934.1765
 21
251.511015
 31
0.0
  0
CIRCLE
  5
1DA
100
AcDbEntity
  8
LAY-1
  6
CONTINUOUS
 62
     7
100
AcDbCircle
 10
990.0
 20
805.816758
 30
0.0
 40
140.0
  0
ARC
  5
1DB
100
AcDbEntity
  8
LAY-1
  6
CONTINUOUS
 62
     7
100
AcDbCircle
 10
1040.13153
 20
684.78854
 30
0.0
 40
11.0
100
AcDbArc
 50
83.462951
 51
141.537049
  0
ARC
  5
1DC
100
AcDbEntity
  8
LAY-1
  6
CONTINUOUS
 62
     7
100
AcDbCircle
 10
1038.822869
 20
687.947925
 30
0.0
 40
8.180306
100
AcDbArc
 50
71.755999
 51
153.244001
  0
ARC
  5
1DD
100
AcDbEntity
  8
LAY-1
  6
CONTINUOUS
 62
     7
100
AcDbCircle
 10
1111.028219
 20
755.685229
 30
0.0
 40
11.0
100
AcDbArc
 50
128.462951
 51
186.537049
  0
ARC
  5
1DE
100
AcDbEntity
  8
LAY-1
  6
CONTINUOUS
 62
     7
100
AcDbCircle
 10
1107.868834
 20
756.993889
 30
0.0
 40
8.180306
100
AcDbArc
 50
116.755999
 51
198.244001
  0
ARC
  5
1DF
100
AcDbEntity
  8
LAY-1
  6
CONTINUOUS
 62
     7
100
AcDbCircle
 10
939.86847
 20
684.78854
 30
0.0
 40
11.0
100
AcDbArc
 50
38.462951
 51
96.537049
  0
ARC
  5
1E0
100
AcDbEntity
  8
LAY-1
  6
CONTINUOUS
 62
     7
100
AcDbCircle
 10
941.177131
 20
687.947925
 30
0.0
 40
8.180306
100
AcDbArc
 50
26.755999
 51
108.244001
  0
ARC
  5
1E1
100
AcDbEntity
  8
LAY-1
  6
CONTINUOUS
 62
     7
100
AcDbCircle
 10
868.971781
 20
755.685229
 30
0.0
 40
11.0
100
AcDbArc
 50
353.462951
 51
51.537049
  0
ARC
  5
1E2
100
AcDbEntity
  8
LAY-1
  6
CONTINUOUS
 62
     7
100
AcDbCircle
 10
872.131166
 20
756.993889
 30
0.0
 40
8.180306
100
AcDbArc
 50
341.755999
 51
63.244001
  0
ARC
  5
1E3
100
AcDbEntity
  8
LAY-1
  6
CONTINUOUS
 62
     7
100
AcDbCircle
 10
1111.028219
 20
855.948288
 30
0.0
 40
11.0
100
AcDbArc
 50
173.462951
 51
231.537049
  0
ARC
  5
1E4
100
AcDbEntity
  8
LAY-1
  6
CONTINUOUS
 62
     7
100
AcDbCircle
 10
1107.868834
 20
854.639628
 30
0.0
 40
8.180306
100
AcDbArc
 50
161.755999
 51
243.244001
  0
ARC
  5
1E5
100
AcDbEntity
  8
LAY-1
  6
CONTINUOUS
 62
     7
100
AcDbCircle
 10
1040.13153
 20
926.844977
 30
0.0
 40
11.0
100
AcDbArc
 50
218.462951
 51
276.537049
  0
ARC
  5
1E6
100
AcDbEntity
  8
LAY-1
  6
CONTINUOUS
 62
     7
100
AcDbCircle
 10
1038.822869
 20
923.685592
 30
0.0
 40
8.180306
100
AcDbArc
 50
206.755999
 51
288.244001
  0
ARC
  5
1E7
100
AcDbEntity
  8
LAY-1
  6
CONTINUOUS
 62
     7
100
AcDbCircle
 10
939.86847
 20
926.844977
 30
0.0
 40
11.0
100
AcDbArc
 50
263.462951
 51
321.537049
  0
ARC
  5
1E8
100
AcDbEntity
  8
LAY-1
  6
CONTINUOUS
 62
     7
100
AcDbCircle
 10
941.177131
 20
923.685592
 30
0.0
 40
8.180306
100
AcDbArc
 50
251.755999
 51
333.244001
  0
ARC
  5
1E9
100
AcDbEntity
  8
LAY-1
  6
CONTINUOUS
 62
     7
100
AcDbCircle
 10
868.971781
 20
855.948288
 30
0.0
 40
11.0
100
AcDbArc
 50
308.462951
 51
6.537049
  0
ARC
  5
1EA
100
AcDbEntity
  8
LAY-1
  6
CONTINUOUS
 62
     7
100
AcDbCircle
 10
872.131166
 20
854.639628
 30
0.0
 40
8.180306
100
AcDbArc
 50
296.755999
 51
18.244001
  0
ARC
  5
1EB
100
AcDbEntity
  8
LAY-1
  6
CONTINUOUS
 62
     7
100
AcDbCircle
 10
990.0
 20
805.816758
 30
0.0
 40
121.5
100
AcDbArc
 50
193.808831
 51
199.981416
  0
ARC
  5
1EC
100
AcDbEntity
  8
LAY-1
  6
CONTINUOUS
 62
     7
100
AcDbCircle
 10
990.0
 20
805.816758
 30
0.0
 40
121.5
100
AcDbArc
 50
205.018584
 51
244.981416
  0
ARC
  5
1ED
100
AcDbEntity
  8
LAY-1
  6
CONTINUOUS
 62
     7
100
AcDbCircle
 10
990.0
 20
805.816758
 30
0.0
 40
121.5
100
AcDbArc
 50
250.018584
 51
289.981416
  0
ARC
  5
1EE
100
AcDbEntity
  8
LAY-1
  6
CONTINUOUS
 62
     7
100
AcDbCircle
 10
990.0
 20
805.816758
 30
0.0
 40
121.5
100
AcDbArc
 50
295.018584
 51
334.981416
  0
ARC
  5
1EF
100
AcDbEntity
  8
LAY-1
  6
CONTINUOUS
 62
     7
100
AcDbCircle
 10
990.0
 20
805.816758
 30
0.0
 40
121.5
100
AcDbArc
 50
340.018584
 51
19.981416
  0
ARC
  5
1F0
100
AcDbEntity
  8
LAY-1
  6
CONTINUOUS
 62
     7
100
AcDbCircle
 10
990.0
 20
805.816758
 30
0.0
 40
121.5
100
AcDbArc
 50
25.018584
 51
64.981416
  0
ARC
  5
1F1
100
AcDbEntity
  8
LAY-1
  6
CONTINUOUS
 62
     7
100
AcDbCircle
 10
990.0
 20
805.816758
 30
0.0
 40
121.5
100
AcDbArc
 50
70.018584
 51
109.981416
  0
ARC
  5
1F2
100
AcDbEntity
  8
LAY-1
  6
CONTINUOUS
 62
     7
100
AcDbCircle
 10
990.0
 20
805.816758
 30
0.0
 40
121.5
100
AcDbArc
 50
115.018584
 51
154.981416
  0
ARC
  5
1F3
100
AcDbEntity
  8
LAY-1
  6
CONTINUOUS
 62
     7
100
AcDbCircle
 10
990.0
 20
805.816758
 30
0.0
 40
121.5
100
AcDbArc
 50
160.018584
 51
166.191169
  0
CIRCLE
  5
1F4
100
AcDbEntity
  8
LAY-1
  6
CONTINUOUS
 62
     7
100
AcDbCircle
 10
990.0
 20
805.816758
 30
0.0
 40
61.0
  0
LINE
  5
1F5
100
AcDbEntity
  8
LAY-1
  6
CONTINUOUS
 62
     7
100
AcDbLine
 10
1035.0
 20
950.816758
 30
0.0
 11
945.0
 21
950.816758
 31
0.0
  0
LINE
  5
1F6
100
AcDbEntity
  8
LAY-1
  6
CONTINUOUS
 62
     7
100
AcDbLine
 10
1035.0
 20
938.387494
 30
0.0
 11
1035.0
 21
950.816758
 31
0.0
  0
LINE
  5
1F7
100
AcDbEntity
  8
LAY-1
  6
CONTINUOUS
 62
     7
100
AcDbLine
 10
1008.63961
 20
950.816758
 30
0.0
 11
1008.63961
 21
944.570371
 31
0.0
  0
LINE
  5
1F8
100
AcDbEntity
  8
LAY-1
  6
CONTINUOUS
 62
     7
100
AcDbLine
 10
971.36039
 20
950.816758
 30
0.0
 11
971.36039
 21
944.570371
 31
0.0
  0
LINE
  5
1F9
100
AcDbEntity
  8
LAY-1
  6
CONTINUOUS
 62
     7
100
AcDbLine
 10
945.0
 20
950.816758
 30
0.0
 11
945.0
 21
938.387494
 31
0.0
  0
LINE
  5
1FA
100
AcDbEntity
  8
LAY-1
  6
CONTINUOUS
 62
     7
100
AcDbLine
 10
1035.0
 20
660.816758
 30
0.0
 11
945.0
 21
660.816758
 31
0.0
  0
LINE
  5
1FB
100
AcDbEntity
  8
LAY-1
  6
CONTINUOUS
 62
     7
100
AcDbLine
 10
1035.0
 20
673.246023
 30
0.0
 11
1035.0
 21
660.816758
 31
0.0
  0
LINE
  5
1FC
100
AcDbEntity
  8
LAY-1
  6
CONTINUOUS
 62
     7
100
AcDbLine
 10
1008.63961
 20
660.816758
 30
0.0
 11
1008.63961
 21
667.063146
 31
0.0
  0
LINE
  5
1FD
100
AcDbEntity
  8
LAY-1
  6
CONTINUOUS
 62
     7
100
AcDbLine
 10
971.36039
 20
660.816758
 30
0.0
 11
971.36039
 21
667.063146
 31
0.0
  0
LINE
  5
1FE
100
AcDbEntity
  8
LAY-1
  6
CONTINUOUS
 62
     7
100
AcDbLine
 10
945.0
 20
660.816758
 30
0.0
 11
945.0
 21
673.246023
 31
0.0
  0
LINE
  5
1FF
100
AcDbEntity
  8
LAY-1
  6
CONTINUOUS
 62
     7
100
AcDbLine
 10
995.0
 20
931.736758
 30
0.0
 11
990.0
 21
931.736758
 31
0.0
  0
LINE
  5
200
100
AcDbEntity
  8
LAY-1
  6
CONTINUOUS
 62
     7
100
AcDbLine
 10
995.0
 20
941.736758
 30
0.0
 11
990.0
 21
941.736758
 31
0.0
  0
ARC
  5
201
100
AcDbEntity
  8
LAY-1
  6
CONTINUOUS
 62
     7
100
AcDbCircle
 10
995.0
 20
936.736758
 30
0.0
 40
5.0
100
AcDbArc
 50
270.0
 51
90.0
  0
LINE
  5
202
100
AcDbEntity
  8
LAY-1
  6
CONTINUOUS
 62
     7
100
AcDbLine
 10
985.0
 20
931.736758
 30
0.0
 11
990.0
 21
931.736758
 31
0.0
  0
LINE
  5
203
100
AcDbEntity
  8
LAY-1
  6
CONTINUOUS
 62
     7
100
AcDbLine
 10
985.0
 20
941.736758
 30
0.0
 11
990.0
 21
941.736758
 31
0.0
  0
ARC
  5
204
100
AcDbEntity
  8
LAY-1
  6
CONTINUOUS
 62
     7
100
AcDbCircle
 10
985.0
 20
936.736758
 30
0.0
 40
5.0
100
AcDbArc
 50
90.0
 51
270.0
  0
LINE
  5
205
100
AcDbEntity
  8
LAY-1
  6
CONTINUOUS
 62
     7
100
AcDbLine
 10
995.0
 20
932.736758
 30
0.0
 11
990.0
 21
932.736758
 31
0.0
  0
ARC
  5
206
100
AcDbEntity
  8
LAY-1
  6
CONTINUOUS
 62
     7
100
AcDbCircle
 10
995.0
 20
936.736758
 30
0.0
 40
4.0
100
AcDbArc
 50
270.0
 51
90.0
  0
LINE
  5
207
100
AcDbEntity
  8
LAY-1
  6
CONTINUOUS
 62
     7
100
AcDbLine
 10
995.0
 20
940.736758
 30
0.0
 11
990.0
 21
940.736758
 31
0.0
  0
LINE
  5
208
100
AcDbEntity
  8
LAY-1
  6
CONTINUOUS
 62
     7
100
AcDbLine
 10
985.0
 20
932.736758
 30
0.0
 11
990.0
 21
932.736758
 31
0.0
  0
ARC
  5
209
100
AcDbEntity
  8
LAY-1
  6
CONTINUOUS
 62
     7
100
AcDbCircle
 10
985.0
 20
936.736758
 30
0.0
 40
4.0
100
AcDbArc
 50
90.0
 51
270.0
  0
LINE
  5
20A
100
AcDbEntity
  8
LAY-1
  6
CONTINUOUS
 62
     7
100
AcDbLine
 10
985.0
 20
940.736758
 30
0.0
 11
990.0
 21
940.736758
 31
0.0
  0
LINE
  5
20B
100
AcDbEntity
  8
LAY-1
  6
CONTINUOUS
 62
     7
100
AcDbLine
 10
872.011653
 20
776.816758
 30
0.0
 11
857.150461
 21
776.816758
 31
0.0
  0
ARC
  5
20C
100
AcDbEntity
  8
LAY-1
  6
CONTINUOUS
 62
     7
100
AcDbCircle
 10
857.150461
 20
781.816758
 30
0.0
 40
5.0
100
AcDbArc
 50
190.240348
 51
270.0
  0
LINE
  5
20D
100
AcDbEntity
  8
LAY-1
  6
CONTINUOUS
 62
     7
100
AcDbLine
 10
872.011653
 20
834.816758
 30
0.0
 11
857.150461
 21
834.816758
 31
0.0
  0
ARC
  5
20E
100
AcDbEntity
  8
LAY-1
  6
CONTINUOUS
 62
     7
100
AcDbCircle
 10
857.150461
 20
829.816758
 30
0.0
 40
5.0
100
AcDbArc
 50
90.0
 51
169.759652
  0
ARC
  5
20F
100
AcDbEntity
  8
LAY-1
  6
CONTINUOUS
 62
     7
100
AcDbCircle
 10
886.441843
 20
805.816758
 30
0.0
 40
26.558157
100
AcDbArc
 50
278.470305
 51
81.529695
  0
LINE
  5
210
100
AcDbEntity
  8
LAY-1
  6
CONTINUOUS
 62
     7
100
AcDbLine
 10
872.011653
 20
776.816758
 30
0.0
 11
890.353775
 21
779.548289
 31
0.0
  0
LINE
  5
211
100
AcDbEntity
  8
LAY-1
  6
CONTINUOUS
 62
     7
100
AcDbLine
 10
872.011653
 20
834.816758
 30
0.0
 11
890.353775
 21
832.085228
 31
0.0
  0
CIRCLE
  5
212
100
AcDbEntity
  8
LAY-1
  6
CONTINUOUS
 62
     7
100
AcDbCircle
 10
882.0
 20
805.816758
 30
0.0
 40
24.5
  0
CIRCLE
  5
213
100
AcDbEntity
  8
LAY-1
  6
CONTINUOUS
 62
     7
100
AcDbCircle
 10
882.0
 20
805.816758
 30
0.0
 40
22.0
  0
CIRCLE
  5
214
100
AcDbEntity
  8
LAY-1
  6
CONTINUOUS
 62
     7
100
AcDbCircle
 10
868.971781
 20
855.948288
 30
0.0
 40
6.75
  0
ARC
  5
215
100
AcDbEntity
  8
LAY-1
  6
CONTINUOUS
 62
     7
100
AcDbCircle
 10
872.471781
 20
855.948288
 30
0.0
 40
1.0
100
AcDbArc
 50
90.0
 51
270.0
  0
LINE
  5
216
100
AcDbEntity
  8
LAY-1
  6
CONTINUOUS
 62
     7
100
AcDbLine
 10
872.471781
 20
854.948288
 30
0.0
 11
872.585989
 21
854.948288
 31
0.0
  0
LINE
  5
217
100
AcDbEntity
  8
LAY-1
  6
CONTINUOUS
 62
     7
100
AcDbLine
 10
872.471781
 20
856.948288
 30
0.0
 11
872.585989
 21
856.948288
 31
0.0
  0
ARC
  5
218
100
AcDbEntity
  8
LAY-1
  6
CONTINUOUS
 62
     7
100
AcDbCircle
 10
865.471781
 20
855.948288
 30
0.0
 40
1.0
100
AcDbArc
 50
270.0
 51
90.0
  0
LINE
  5
219
100
AcDbEntity
  8
LAY-1
  6
CONTINUOUS
 62
     7
100
AcDbLine
 10
865.471781
 20
854.948288
 30
0.0
 11
865.357573
 21
854.948288
 31
0.0
  0
LINE
  5
21A
100
AcDbEntity
  8
LAY-1
  6
CONTINUOUS
 62
     7
100
AcDbLine
 10
865.471781
 20
856.948288
 30
0.0
 11
865.357573
 21
856.948288
 31
0.0
  0
ARC
  5
21B
100
AcDbEntity
  8
LAY-1
  6
CONTINUOUS
 62
     7
100
AcDbCircle
 10
870.721781
 20
858.979377
 30
0.0
 40
1.0
100
AcDbArc
 50
150.0
 51
330.0
  0
LINE
  5
21C
100
AcDbEntity
  8
LAY-1
  6
CONTINUOUS
 62
     7
100
AcDbLine
 10
871.587807
 20
858.479377
 30
0.0
 11
871.644911
 21
858.578284
 31
0.0
  0
LINE
  5
21D
100
AcDbEntity
  8
LAY-1
  6
CONTINUOUS
 62
     7
100
AcDbLine
 10
869.855756
 20
859.479377
 30
0.0
 11
869.91286
 21
859.578284
 31
0.0
  0
ARC
  5
21E
100
AcDbEntity
  8
LAY-1
  6
CONTINUOUS
 62
     7
100
AcDbCircle
 10
867.221781
 20
852.917199
 30
0.0
 40
1.0
100
AcDbArc
 50
330.0
 51
150.0
  0
LINE
  5
21F
100
AcDbEntity
  8
LAY-1
  6
CONTINUOUS
 62
     7
100
AcDbLine
 10
868.087807
 20
852.417199
 30
0.0
 11
868.030703
 21
852.318292
 31
0.0
  0
LINE
  5
220
100
AcDbEntity
  8
LAY-1
  6
CONTINUOUS
 62
     7
100
AcDbLine
 10
866.355756
 20
853.417199
 30
0.0
 11
866.298652
 21
853.318292
 31
0.0
  0
ARC
  5
221
100
AcDbEntity
  8
LAY-1
  6
CONTINUOUS
 62
     7
100
AcDbCircle
 10
870.721781
 20
852.917199
 30
0.0
 40
1.0
100
AcDbArc
 50
30.0
 51
210.0
  0
LINE
  5
222
100
AcDbEntity
  8
LAY-1
  6
CONTINUOUS
 62
     7
100
AcDbLine
 10
869.855756
 20
852.417199
 30
0.0
 11
869.91286
 21
852.318292
 31
0.0
  0
LINE
  5
223
100
AcDbEntity
  8
LAY-1
  6
CONTINUOUS
 62
     7
100
AcDbLine
 10
871.587807
 20
853.417199
 30
0.0
 11
871.644911
 21
853.318292
 31
0.0
  0
ARC
  5
224
100
AcDbEntity
  8
LAY-1
  6
CONTINUOUS
 62
     7
100
AcDbCircle
 10
867.221781
 20
858.979377
 30
0.0
 40
1.0
100
AcDbArc
 50
210.0
 51
30.0
  0
LINE
  5
225
100
AcDbEntity
  8
LAY-1
  6
CONTINUOUS
 62
     7
100
AcDbLine
 10
866.355756
 20
858.479377
 30
0.0
 11
866.298652
 21
858.578284
 31
0.0
  0
LINE
  5
226
100
AcDbEntity
  8
LAY-1
  6
CONTINUOUS
 62
     7
100
AcDbLine
 10
868.087807
 20
859.479377
 30
0.0
 11
868.030703
 21
859.578284
 31
0.0
  0
ARC
  5
227
100
AcDbEntity
  8
LAY-1
  6
CONTINUOUS
 62
     7
100
AcDbCircle
 10
868.971781
 20
855.948288
 30
0.0
 40
3.75
100
AcDbArc
 50
195.46601
 51
224.53399
  0
ARC
  5
228
100
AcDbEntity
  8
LAY-1
  6
CONTINUOUS
 62
     7
100
AcDbCircle
 10
868.971781
 20
855.948288
 30
0.0
 40
3.75
100
AcDbArc
 50
255.46601
 51
284.53399
  0
ARC
  5
229
100
AcDbEntity
  8
LAY-1
  6
CONTINUOUS
 62
     7
100
AcDbCircle
 10
868.971781
 20
855.948288
 30
0.0
 40
3.75
100
AcDbArc
 50
315.46601
 51
344.53399
  0
ARC
  5
22A
100
AcDbEntity
  8
LAY-1
  6
CONTINUOUS
 62
     7
100
AcDbCircle
 10
868.971781
 20
855.948288
 30
0.0
 40
3.75
100
AcDbArc
 50
15.46601
 51
44.53399
  0
ARC
  5
22B
100
AcDbEntity
  8
LAY-1
  6
CONTINUOUS
 62
     7
100
AcDbCircle
 10
868.971781
 20
855.948288
 30
0.0
 40
3.75
100
AcDbArc
 50
75.46601
 51
104.53399
  0
ARC
  5
22C
100
AcDbEntity
  8
LAY-1
  6
CONTINUOUS
 62
     7
100
AcDbCircle
 10
868.971781
 20
855.948288
 30
0.0
 40
3.75
100
AcDbArc
 50
135.46601
 51
164.53399
  0
CIRCLE
  5
22D
100
AcDbEntity
  8
LAY-1
  6
CONTINUOUS
 62
     7
100
AcDbCircle
 10
868.971781
 20
855.948288
 30
0.0
 40
1.5
  0
CIRCLE
  5
22E
100
AcDbEntity
  8
LAY-1
  6
CONTINUOUS
 62
     7
100
AcDbCircle
 10
939.86847
 20
926.844977
 30
0.0
 40
6.75
  0
ARC
  5
22F
100
AcDbEntity
  8
LAY-1
  6
CONTINUOUS
 62
     7
100
AcDbCircle
 10
943.36847
 20
926.844977
 30
0.0
 40
1.0
100
AcDbArc
 50
90.0
 51
270.0
  0
LINE
  5
230
100
AcDbEntity
  8
LAY-1
  6
CONTINUOUS
 62
     7
100
AcDbLine
 10
943.36847
 20
925.844977
 30
0.0
 11
943.482678
 21
925.844977
 31
0.0
  0
LINE
  5
231
100
AcDbEntity
  8
LAY-1
  6
CONTINUOUS
 62
     7
100
AcDbLine
 10
943.36847
 20
927.844977
 30
0.0
 11
943.482678
 21
927.844977
 31
0.0
  0
ARC
  5
232
100
AcDbEntity
  8
LAY-1
  6
CONTINUOUS
 62
     7
100
AcDbCircle
 10
936.36847
 20
926.844977
 30
0.0
 40
1.0
100
AcDbArc
 50
270.0
 51
90.0
  0
LINE
  5
233
100
AcDbEntity
  8
LAY-1
  6
CONTINUOUS
 62
     7
100
AcDbLine
 10
936.36847
 20
925.844977
 30
0.0
 11
936.254262
 21
925.844977
 31
0.0
  0
LINE
  5
234
100
AcDbEntity
  8
LAY-1
  6
CONTINUOUS
 62
     7
100
AcDbLine
 10
936.36847
 20
927.844977
 30
0.0
 11
936.254262
 21
927.844977
 31
0.0
  0
ARC
  5
235
100
AcDbEntity
  8
LAY-1
  6
CONTINUOUS
 62
     7
100
AcDbCircle
 10
941.61847
 20
929.876066
 30
0.0
 40
1.0
100
AcDbArc
 50
150.0
 51
330.0
  0
LINE
  5
236
100
AcDbEntity
  8
LAY-1
  6
CONTINUOUS
 62
     7
100
AcDbLine
 10
942.484496
 20
929.376066
 30
0.0
 11
942.5416
 21
929.474973
 31
0.0
  0
LINE
  5
237
100
AcDbEntity
  8
LAY-1
  6
CONTINUOUS
 62
     7
100
AcDbLine
 10
940.752445
 20
930.376066
 30
0.0
 11
940.809549
 21
930.474973
 31
0.0
  0
ARC
  5
238
100
AcDbEntity
  8
LAY-1
  6
CONTINUOUS
 62
     7
100
AcDbCircle
 10
938.11847
 20
923.813888
 30
0.0
 40
1.0
100
AcDbArc
 50
330.0
 51
150.0
  0
LINE
  5
239
100
AcDbEntity
  8
LAY-1
  6
CONTINUOUS
 62
     7
100
AcDbLine
 10
938.984496
 20
923.313888
 30
0.0
 11
938.927392
 21
923.214981
 31
0.0
  0
LINE
  5
23A
100
AcDbEntity
  8
LAY-1
  6
CONTINUOUS
 62
     7
100
AcDbLine
 10
937.252445
 20
924.313888
 30
0.0
 11
937.195341
 21
924.214981
 31
0.0
  0
ARC
  5
23B
100
AcDbEntity
  8
LAY-1
  6
CONTINUOUS
 62
     7
100
AcDbCircle
 10
941.61847
 20
923.813888
 30
0.0
 40
1.0
100
AcDbArc
 50
30.0
 51
210.0
  0
LINE
  5
23C
100
AcDbEntity
  8
LAY-1
  6
CONTINUOUS
 62
     7
100
AcDbLine
 10
940.752445
 20
923.313888
 30
0.0
 11
940.809549
 21
923.214981
 31
0.0
  0
LINE
  5
23D
100
AcDbEntity
  8
LAY-1
  6
CONTINUOUS
 62
     7
100
AcDbLine
 10
942.484496
 20
924.313888
 30
0.0
 11
942.5416
 21
924.214981
 31
0.0
  0
ARC
  5
23E
100
AcDbEntity
  8
LAY-1
  6
CONTINUOUS
 62
     7
100
AcDbCircle
 10
938.11847
 20
929.876066
 30
0.0
 40
1.0
100
AcDbArc
 50
210.0
 51
30.0
  0
LINE
  5
23F
100
AcDbEntity
  8
LAY-1
  6
CONTINUOUS
 62
     7
100
AcDbLine
 10
937.252445
 20
929.376066
 30
0.0
 11
937.195341
 21
929.474973
 31
0.0
  0
LINE
  5
240
100
AcDbEntity
  8
LAY-1
  6
CONTINUOUS
 62
     7
100
AcDbLine
 10
938.984496
 20
930.376066
 30
0.0
 11
938.927392
 21
930.474973
 31
0.0
  0
ARC
  5
241
100
AcDbEntity
  8
LAY-1
  6
CONTINUOUS
 62
     7
100
AcDbCircle
 10
939.86847
 20
926.844977
 30
0.0
 40
3.75
100
AcDbArc
 50
195.46601
 51
224.53399
  0
ARC
  5
242
100
AcDbEntity
  8
LAY-1
  6
CONTINUOUS
 62
     7
100
AcDbCircle
 10
939.86847
 20
926.844977
 30
0.0
 40
3.75
100
AcDbArc
 50
255.46601
 51
284.53399
  0
ARC
  5
243
100
AcDbEntity
  8
LAY-1
  6
CONTINUOUS
 62
     7
100
AcDbCircle
 10
939.86847
 20
926.844977
 30
0.0
 40
3.75
100
AcDbArc
 50
315.46601
 51
344.53399
  0
ARC
  5
244
100
AcDbEntity
  8
LAY-1
  6
CONTINUOUS
 62
     7
100
AcDbCircle
 10
939.86847
 20
926.844977
 30
0.0
 40
3.75
100
AcDbArc
 50
15.46601
 51
44.53399
  0
ARC
  5
245
100
AcDbEntity
  8
LAY-1
  6
CONTINUOUS
 62
     7
100
AcDbCircle
 10
939.86847
 20
926.844977
 30
0.0
 40
3.75
100
AcDbArc
 50
75.46601
 51
104.53399
  0
ARC
  5
246
100
AcDbEntity
  8
LAY-1
  6
CONTINUOUS
 62
     7
100
AcDbCircle
 10
939.86847
 20
926.844977
 30
0.0
 40
3.75
100
AcDbArc
 50
135.46601
 51
164.53399
  0
CIRCLE
  5
247
100
AcDbEntity
  8
LAY-1
  6
CONTINUOUS
 62
     7
100
AcDbCircle
 10
939.86847
 20
926.844977
 30
0.0
 40
1.5
  0
CIRCLE
  5
248
100
AcDbEntity
  8
LAY-1
  6
CONTINUOUS
 62
     7
100
AcDbCircle
 10
1040.13153
 20
926.844977
 30
0.0
 40
6.75
  0
ARC
  5
249
100
AcDbEntity
  8
LAY-1
  6
CONTINUOUS
 62
     7
100
AcDbCircle
 10
1043.63153
 20
926.844977
 30
0.0
 40
1.0
100
AcDbArc
 50
90.0
 51
270.0
  0
LINE
  5
24A
100
AcDbEntity
  8
LAY-1
  6
CONTINUOUS
 62
     7
100
AcDbLine
 10
1043.63153
 20
925.844977
 30
0.0
 11
1043.745738
 21
925.844977
 31
0.0
  0
LINE
  5
24B
100
AcDbEntity
  8
LAY-1
  6
CONTINUOUS
 62
     7
100
AcDbLine
 10
1043.63153
 20
927.844977
 30
0.0
 11
1043.745738
 21
927.844977
 31
0.0
  0
ARC
  5
24C
100
AcDbEntity
  8
LAY-1
  6
CONTINUOUS
 62
     7
100
AcDbCircle
 10
1036.63153
 20
926.844977
 30
0.0
 40
1.0
100
AcDbArc
 50
270.0
 51
90.0
  0
LINE
  5
24D
100
AcDbEntity
  8
LAY-1
  6
CONTINUOUS
 62
     7
100
AcDbLine
 10
1036.63153
 20
925.844977
 30
0.0
 11
1036.517322
 21
925.844977
 31
0.0
  0
LINE
  5
24E
100
AcDbEntity
  8
LAY-1
  6
CONTINUOUS
 62
     7
100
AcDbLine
 10
1036.63153
 20
927.844977
 30
0.0
 11
1036.517322
 21
927.844977
 31
0.0
  0
ARC
  5
24F
100
AcDbEntity
  8
LAY-1
  6
CONTINUOUS
 62
     7
100
AcDbCircle
 10
1041.88153
 20
929.876066
 30
0.0
 40
1.0
100
AcDbArc
 50
150.0
 51
330.0
  0
LINE
  5
250
100
AcDbEntity
  8
LAY-1
  6
CONTINUOUS
 62
     7
100
AcDbLine
 10
1042.747555
 20
929.376066
 30
0.0
 11
1042.804659
 21
929.474973
 31
0.0
  0
LINE
  5
251
100
AcDbEntity
  8
LAY-1
  6
CONTINUOUS
 62
     7
100
AcDbLine
 10
1041.015504
 20
930.376066
 30
0.0
 11
1041.072608
 21
930.474973
 31
0.0
  0
ARC
  5
252
100
AcDbEntity
  8
LAY-1
  6
CONTINUOUS
 62
     7
100
AcDbCircle
 10
1038.38153
 20
923.813888
 30
0.0
 40
1.0
100
AcDbArc
 50
330.0
 51
150.0
  0
LINE
  5
253
100
AcDbEntity
  8
LAY-1
  6
CONTINUOUS
 62
     7
100
AcDbLine
 10
1039.247555
 20
923.313888
 30
0.0
 11
1039.190451
 21
923.214981
 31
0.0
  0
LINE
  5
254
100
AcDbEntity
  8
LAY-1
  6
CONTINUOUS
 62
     7
100
AcDbLine
 10
1037.515504
 20
924.313888
 30
0.0
 11
1037.4584
 21
924.214981
 31
0.0
  0
ARC
  5
255
100
AcDbEntity
  8
LAY-1
  6
CONTINUOUS
 62
     7
100
AcDbCircle
 10
1041.88153
 20
923.813888
 30
0.0
 40
1.0
100
AcDbArc
 50
30.0
 51
210.0
  0
LINE
  5
256
100
AcDbEntity
  8
LAY-1
  6
CONTINUOUS
 62
     7
100
AcDbLine
 10
1041.015504
 20
923.313888
 30
0.0
 11
1041.072608
 21
923.214981
 31
0.0
  0
LINE
  5
257
100
AcDbEntity
  8
LAY-1
  6
CONTINUOUS
 62
     7
100
AcDbLine
 10
1042.747555
 20
924.313888
 30
0.0
 11
1042.804659
 21
924.214981
 31
0.0
  0
ARC
  5
258
100
AcDbEntity
  8
LAY-1
  6
CONTINUOUS
 62
     7
100
AcDbCircle
 10
1038.38153
 20
929.876066
 30
0.0
 40
1.0
100
AcDbArc
 50
210.0
 51
30.0
  0
LINE
  5
259
100
AcDbEntity
  8
LAY-1
  6
CONTINUOUS
 62
     7
100
AcDbLine
 10
1037.515504
 20
929.376066
 30
0.0
 11
1037.4584
 21
929.474973
 31
0.0
  0
LINE
  5
25A
100
AcDbEntity
  8
LAY-1
  6
CONTINUOUS
 62
     7
100
AcDbLine
 10
1039.247555
 20
930.376066
 30
0.0
 11
1039.190451
 21
930.474973
 31
0.0
  0
ARC
  5
25B
100
AcDbEntity
  8
LAY-1
  6
CONTINUOUS
 62
     7
100
AcDbCircle
 10
1040.13153
 20
926.844977
 30
0.0
 40
3.75
100
AcDbArc
 50
195.46601
 51
224.53399
  0
ARC
  5
25C
100
AcDbEntity
  8
LAY-1
  6
CONTINUOUS
 62
     7
100
AcDbCircle
 10
1040.13153
 20
926.844977
 30
0.0
 40
3.75
100
AcDbArc
 50
255.46601
 51
284.53399
  0
ARC
  5
25D
100
AcDbEntity
  8
LAY-1
  6
CONTINUOUS
 62
     7
100
AcDbCircle
 10
1040.13153
 20
926.844977
 30
0.0
 40
3.75
100
AcDbArc
 50
315.46601
 51
344.53399
  0
ARC
  5
25E
100
AcDbEntity
  8
LAY-1
  6
CONTINUOUS
 62
     7
100
AcDbCircle
 10
1040.13153
 20
926.844977
 30
0.0
 40
3.75
100
AcDbArc
 50
15.46601
 51
44.53399
  0
ARC
  5
25F
100
AcDbEntity
  8
LAY-1
  6
CONTINUOUS
 62
     7
100
AcDbCircle
 10
1040.13153
 20
926.844977
 30
0.0
 40
3.75
100
AcDbArc
 50
75.46601
 51
104.53399
  0
ARC
  5
260
100
AcDbEntity
  8
LAY-1
  6
CONTINUOUS
 62
     7
100
AcDbCircle
 10
1040.13153
 20
926.844977
 30
0.0
 40
3.75
100
AcDbArc
 50
135.46601
 51
164.53399
  0
CIRCLE
  5
261
100
AcDbEntity
  8
LAY-1
  6
CONTINUOUS
 62
     7
100
AcDbCircle
 10
1040.13153
 20
926.844977
 30
0.0
 40
1.5
  0
CIRCLE
  5
262
100
AcDbEntity
  8
LAY-1
  6
CONTINUOUS
 62
     7
100
AcDbCircle
 10
1111.028219
 20
855.948288
 30
0.0
 40
6.75
  0
ARC
  5
263
100
AcDbEntity
  8
LAY-1
  6
CONTINUOUS
 62
     7
100
AcDbCircle
 10
1114.528219
 20
855.948288
 30
0.0
 40
1.0
100
AcDbArc
 50
90.0
 51
270.0
  0
LINE
  5
264
100
AcDbEntity
  8
LAY-1
  6
CONTINUOUS
 62
     7
100
AcDbLine
 10
1114.528219
 20
854.948288
 30
0.0
 11
1114.642427
 21
854.948288
 31
0.0
  0
LINE
  5
265
100
AcDbEntity
  8
LAY-1
  6
CONTINUOUS
 62
     7
100
AcDbLine
 10
1114.528219
 20
856.948288
 30
0.0
 11
1114.642427
 21
856.948288
 31
0.0
  0
ARC
  5
266
100
AcDbEntity
  8
LAY-1
  6
CONTINUOUS
 62
     7
100
AcDbCircle
 10
1107.528219
 20
855.948288
 30
0.0
 40
1.0
100
AcDbArc
 50
270.0
 51
90.0
  0
LINE
  5
267
100
AcDbEntity
  8
LAY-1
  6
CONTINUOUS
 62
     7
100
AcDbLine
 10
1107.528219
 20
854.948288
 30
0.0
 11
1107.414011
 21
854.948288
 31
0.0
  0
LINE
  5
268
100
AcDbEntity
  8
LAY-1
  6
CONTINUOUS
 62
     7
100
AcDbLine
 10
1107.528219
 20
856.948288
 30
0.0
 11
1107.414011
 21
856.948288
 31
0.0
  0
ARC
  5
269
100
AcDbEntity
  8
LAY-1
  6
CONTINUOUS
 62
     7
100
AcDbCircle
 10
1112.778219
 20
858.979377
 30
0.0
 40
1.0
100
AcDbArc
 50
150.0
 51
330.0
  0
LINE
  5
26A
100
AcDbEntity
  8
LAY-1
  6
CONTINUOUS
 62
     7
100
AcDbLine
 10
1113.644244
 20
858.479377
 30
0.0
 11
1113.701348
 21
858.578284
 31
0.0
  0
LINE
  5
26B
100
AcDbEntity
  8
LAY-1
  6
CONTINUOUS
 62
     7
100
AcDbLine
 10
1111.912193
 20
859.479377
 30
0.0
 11
1111.969297
 21
859.578284
 31
0.0
  0
ARC
  5
26C
100
AcDbEntity
  8
LAY-1
  6
CONTINUOUS
 62
     7
100
AcDbCircle
 10
1109.278219
 20
852.917199
 30
0.0
 40
1.0
100
AcDbArc
 50
330.0
 51
150.0
  0
LINE
  5
26D
100
AcDbEntity
  8
LAY-1
  6
CONTINUOUS
 62
     7
100
AcDbLine
 10
1110.144244
 20
852.417199
 30
0.0
 11
1110.08714
 21
852.318292
 31
0.0
  0
LINE
  5
26E
100
AcDbEntity
  8
LAY-1
  6
CONTINUOUS
 62
     7
100
AcDbLine
 10
1108.412193
 20
853.417199
 30
0.0
 11
1108.355089
 21
853.318292
 31
0.0
  0
ARC
  5
26F
100
AcDbEntity
  8
LAY-1
  6
CONTINUOUS
 62
     7
100
AcDbCircle
 10
1112.778219
 20
852.917199
 30
0.0
 40
1.0
100
AcDbArc
 50
30.0
 51
210.0
  0
LINE
  5
270
100
AcDbEntity
  8
LAY-1
  6
CONTINUOUS
 62
     7
100
AcDbLine
 10
1111.912193
 20
852.417199
 30
0.0
 11
1111.969297
 21
852.318292
 31
0.0
  0
LINE
  5
271
100
AcDbEntity
  8
LAY-1
  6
CONTINUOUS
 62
     7
100
AcDbLine
 10
1113.644244
 20
853.417199
 30
0.0
 11
1113.701348
 21
853.318292
 31
0.0
  0
ARC
  5
272
100
AcDbEntity
  8
LAY-1
  6
CONTINUOUS
 62
     7
100
AcDbCircle
 10
1109.278219
 20
858.979377
 30
0.0
 40
1.0
100
AcDbArc
 50
210.0
 51
30.0
  0
LINE
  5
273
100
AcDbEntity
  8
LAY-1
  6
CONTINUOUS
 62
     7
100
AcDbLine
 10
1108.412193
 20
858.479377
 30
0.0
 11
1108.355089
 21
858.578284
 31
0.0
  0
LINE
  5
274
100
AcDbEntity
  8
LAY-1
  6
CONTINUOUS
 62
     7
100
AcDbLine
 10
1110.144244
 20
859.479377
 30
0.0
 11
1110.08714
 21
859.578284
 31
0.0
  0
ARC
  5
275
100
AcDbEntity
  8
LAY-1
  6
CONTINUOUS
 62
     7
100
AcDbCircle
 10
1111.028219
 20
855.948288
 30
0.0
 40
3.75
100
AcDbArc
 50
195.46601
 51
224.53399
  0
ARC
  5
276
100
AcDbEntity
  8
LAY-1
  6
CONTINUOUS
 62
     7
100
AcDbCircle
 10
1111.028219
 20
855.948288
 30
0.0
 40
3.75
100
AcDbArc
 50
255.46601
 51
284.53399
  0
ARC
  5
277
100
AcDbEntity
  8
LAY-1
  6
CONTINUOUS
 62
     7
100
AcDbCircle
 10
1111.028219
 20
855.948288
 30
0.0
 40
3.75
100
AcDbArc
 50
315.46601
 51
344.53399
  0
ARC
  5
278
100
AcDbEntity
  8
LAY-1
  6
CONTINUOUS
 62
     7
100
AcDbCircle
 10
1111.028219
 20
855.948288
 30
0.0
 40
3.75
100
AcDbArc
 50
15.46601
 51
44.53399
  0
ARC
  5
279
100
AcDbEntity
  8
LAY-1
  6
CONTINUOUS
 62
     7
100
AcDbCircle
 10
1111.028219
 20
855.948288
 30
0.0
 40
3.75
100
AcDbArc
 50
75.46601
 51
104.53399
  0
ARC
  5
27A
100
AcDbEntity
  8
LAY-1
  6
CONTINUOUS
 62
     7
100
AcDbCircle
 10
1111.028219
 20
855.948288
 30
0.0
 40
3.75
100
AcDbArc
 50
135.46601
 51
164.53399
  0
CIRCLE
  5
27B
100
AcDbEntity
  8
LAY-1
  6
CONTINUOUS
 62
     7
100
AcDbCircle
 10
1111.028219
 20
855.948288
 30
0.0
 40
1.5
  0
CIRCLE
  5
27C
100
AcDbEntity
  8
LAY-1
  6
CONTINUOUS
 62
     7
100
AcDbCircle
 10
1111.028219
 20
755.685229
 30
0.0
 40
6.75
  0
ARC
  5
27D
100
AcDbEntity
  8
LAY-1
  6
CONTINUOUS
 62
     7
100
AcDbCircle
 10
1114.528219
 20
755.685229
 30
0.0
 40
1.0
100
AcDbArc
 50
90.0
 51
270.0
  0
LINE
  5
27E
100
AcDbEntity
  8
LAY-1
  6
CONTINUOUS
 62
     7
100
AcDbLine
 10
1114.528219
 20
754.685229
 30
0.0
 11
1114.642427
 21
754.685229
 31
0.0
  0
LINE
  5
27F
100
AcDbEntity
  8
LAY-1
  6
CONTINUOUS
 62
     7
100
AcDbLine
 10
1114.528219
 20
756.685229
 30
0.0
 11
1114.642427
 21
756.685229
 31
0.0
  0
ARC
  5
280
100
AcDbEntity
  8
LAY-1
  6
CONTINUOUS
 62
     7
100
AcDbCircle
 10
1107.528219
 20
755.685229
 30
0.0
 40
1.0
100
AcDbArc
 50
270.0
 51
90.0
  0
LINE
  5
281
100
AcDbEntity
  8
LAY-1
  6
CONTINUOUS
 62
     7
100
AcDbLine
 10
1107.528219
 20
754.685229
 30
0.0
 11
1107.414011
 21
754.685229
 31
0.0
  0
LINE
  5
282
100
AcDbEntity
  8
LAY-1
  6
CONTINUOUS
 62
     7
100
AcDbLine
 10
1107.528219
 20
756.685229
 30
0.0
 11
1107.414011
 21
756.685229
 31
0.0
  0
ARC
  5
283
100
AcDbEntity
  8
LAY-1
  6
CONTINUOUS
 62
     7
100
AcDbCircle
 10
1112.778219
 20
758.716318
 30
0.0
 40
1.0
100
AcDbArc
 50
150.0
 51
330.0
  0
LINE
  5
284
100
AcDbEntity
  8
LAY-1
  6
CONTINUOUS
 62
     7
100
AcDbLine
 10
1113.644244
 20
758.216318
 30
0.0
 11
1113.701348
 21
758.315225
 31
0.0
  0
LINE
  5
285
100
AcDbEntity
  8
LAY-1
  6
CONTINUOUS
 62
     7
100
AcDbLine
 10
1111.912193
 20
759.216318
 30
0.0
 11
1111.969297
 21
759.315225
 31
0.0
  0
ARC
  5
286
100
AcDbEntity
  8
LAY-1
  6
CONTINUOUS
 62
     7
100
AcDbCircle
 10
1109.278219
 20
752.65414
 30
0.0
 40
1.0
100
AcDbArc
 50
330.0
 51
150.0
  0
LINE
  5
287
100
AcDbEntity
  8
LAY-1
  6
CONTINUOUS
 62
     7
100
AcDbLine
 10
1110.144244
 20
752.15414
 30
0.0
 11
1110.08714
 21
752.055233
 31
0.0
  0
LINE
  5
288
100
AcDbEntity
  8
LAY-1
  6
CONTINUOUS
 62
     7
100
AcDbLine
 10
1108.412193
 20
753.15414
 30
0.0
 11
1108.355089
 21
753.055233
 31
0.0
  0
ARC
  5
289
100
AcDbEntity
  8
LAY-1
  6
CONTINUOUS
 62
     7
100
AcDbCircle
 10
1112.778219
 20
752.65414
 30
0.0
 40
1.0
100
AcDbArc
 50
30.0
 51
210.0
  0
LINE
  5
28A
100
AcDbEntity
  8
LAY-1
  6
CONTINUOUS
 62
     7
100
AcDbLine
 10
1111.912193
 20
752.15414
 30
0.0
 11
1111.969297
 21
752.055233
 31
0.0
  0
LINE
  5
28B
100
AcDbEntity
  8
LAY-1
  6
CONTINUOUS
 62
     7
100
AcDbLine
 10
1113.644244
 20
753.15414
 30
0.0
 11
1113.701348
 21
753.055233
 31
0.0
  0
ARC
  5
28C
100
AcDbEntity
  8
LAY-1
  6
CONTINUOUS
 62
     7
100
AcDbCircle
 10
1109.278219
 20
758.716318
 30
0.0
 40
1.0
100
AcDbArc
 50
210.0
 51
30.0
  0
LINE
  5
28D
100
AcDbEntity
  8
LAY-1
  6
CONTINUOUS
 62
     7
100
AcDbLine
 10
1108.412193
 20
758.216318
 30
0.0
 11
1108.355089
 21
758.315225
 31
0.0
  0
LINE
  5
28E
100
AcDbEntity
  8
LAY-1
  6
CONTINUOUS
 62
     7
100
AcDbLine
 10
1110.144244
 20
759.216318
 30
0.0
 11
1110.08714
 21
759.315225
 31
0.0
  0
ARC
  5
28F
100
AcDbEntity
  8
LAY-1
  6
CONTINUOUS
 62
     7
100
AcDbCircle
 10
1111.028219
 20
755.685229
 30
0.0
 40
3.75
100
AcDbArc
 50
195.46601
 51
224.53399
  0
ARC
  5
290
100
AcDbEntity
  8
LAY-1
  6
CONTINUOUS
 62
     7
100
AcDbCircle
 10
1111.028219
 20
755.685229
 30
0.0
 40
3.75
100
AcDbArc
 50
255.46601
 51
284.53399
  0
ARC
  5
291
100
AcDbEntity
  8
LAY-1
  6
CONTINUOUS
 62
     7
100
AcDbCircle
 10
1111.028219
 20
755.685229
 30
0.0
 40
3.75
100
AcDbArc
 50
315.46601
 51
344.53399
  0
ARC
  5
292
100
AcDbEntity
  8
LAY-1
  6
CONTINUOUS
 62
     7
100
AcDbCircle
 10
1111.028219
 20
755.685229
 30
0.0
 40
3.75
100
AcDbArc
 50
15.46601
 51
44.53399
  0
ARC
  5
293
100
AcDbEntity
  8
LAY-1
  6
CONTINUOUS
 62
     7
100
AcDbCircle
 10
1111.028219
 20
755.685229
 30
0.0
 40
3.75
100
AcDbArc
 50
75.46601
 51
104.53399
  0
ARC
  5
294
100
AcDbEntity
  8
LAY-1
  6
CONTINUOUS
 62
     7
100
AcDbCircle
 10
1111.028219
 20
755.685229
 30
0.0
 40
3.75
100
AcDbArc
 50
135.46601
 51
164.53399
  0
CIRCLE
  5
295
100
AcDbEntity
  8
LAY-1
  6
CONTINUOUS
 62
     7
100
AcDbCircle
 10
1111.028219
 20
755.685229
 30
0.0
 40
1.5
  0
CIRCLE
  5
296
100
AcDbEntity
  8
LAY-1
  6
CONTINUOUS
 62
     7
100
AcDbCircle
 10
1040.13153
 20
684.78854
 30
0.0
 40
6.75
  0
ARC
  5
297
100
AcDbEntity
  8
LAY-1
  6
CONTINUOUS
 62
     7
100
AcDbCircle
 10
1043.63153
 20
684.78854
 30
0.0
 40
1.0
100
AcDbArc
 50
90.0
 51
270.0
  0
LINE
  5
298
100
AcDbEntity
  8
LAY-1
  6
CONTINUOUS
 62
     7
100
AcDbLine
 10
1043.63153
 20
683.78854
 30
0.0
 11
1043.745738
 21
683.78854
 31
0.0
  0
LINE
  5
299
100
AcDbEntity
  8
LAY-1
  6
CONTINUOUS
 62
     7
100
AcDbLine
 10
1043.63153
 20
685.78854
 30
0.0
 11
1043.745738
 21
685.78854
 31
0.0
  0
ARC
  5
29A
100
AcDbEntity
  8
LAY-1
  6
CONTINUOUS
 62
     7
100
AcDbCircle
 10
1036.63153
 20
684.78854
 30
0.0
 40
1.0
100
AcDbArc
 50
270.0
 51
90.0
  0
LINE
  5
29B
100
AcDbEntity
  8
LAY-1
  6
CONTINUOUS
 62
     7
100
AcDbLine
 10
1036.63153
 20
683.78854
 30
0.0
 11
1036.517322
 21
683.78854
 31
0.0
  0
LINE
  5
29C
100
AcDbEntity
  8
LAY-1
  6
CONTINUOUS
 62
     7
100
AcDbLine
 10
1036.63153
 20
685.78854
 30
0.0
 11
1036.517322
 21
685.78854
 31
0.0
  0
ARC
  5
29D
100
AcDbEntity
  8
LAY-1
  6
CONTINUOUS
 62
     7
100
AcDbCircle
 10
1041.88153
 20
687.819629
 30
0.0
 40
1.0
100
AcDbArc
 50
150.0
 51
330.0
  0
LINE
  5
29E
100
AcDbEntity
  8
LAY-1
  6
CONTINUOUS
 62
     7
100
AcDbLine
 10
1042.747555
 20
687.319629
 30
0.0
 11
1042.804659
 21
687.418536
 31
0.0
  0
LINE
  5
29F
100
AcDbEntity
  8
LAY-1
  6
CONTINUOUS
 62
     7
100
AcDbLine
 10
1041.015504
 20
688.319629
 30
0.0
 11
1041.072608
 21
688.418536
 31
0.0
  0
ARC
  5
2A0
100
AcDbEntity
  8
LAY-1
  6
CONTINUOUS
 62
     7
100
AcDbCircle
 10
1038.38153
 20
681.757451
 30
0.0
 40
1.0
100
AcDbArc
 50
330.0
 51
150.0
  0
LINE
  5
2A1
100
AcDbEntity
  8
LAY-1
  6
CONTINUOUS
 62
     7
100
AcDbLine
 10
1039.247555
 20
681.257451
 30
0.0
 11
1039.190451
 21
681.158544
 31
0.0
  0
LINE
  5
2A2
100
AcDbEntity
  8
LAY-1
  6
CONTINUOUS
 62
     7
100
AcDbLine
 10
1037.515504
 20
682.257451
 30
0.0
 11
1037.4584
 21
682.158544
 31
0.0
  0
ARC
  5
2A3
100
AcDbEntity
  8
LAY-1
  6
CONTINUOUS
 62
     7
100
AcDbCircle
 10
1041.88153
 20
681.757451
 30
0.0
 40
1.0
100
AcDbArc
 50
30.0
 51
210.0
  0
LINE
  5
2A4
100
AcDbEntity
  8
LAY-1
  6
CONTINUOUS
 62
     7
100
AcDbLine
 10
1041.015504
 20
681.257451
 30
0.0
 11
1041.072608
 21
681.158544
 31
0.0
  0
LINE
  5
2A5
100
AcDbEntity
  8
LAY-1
  6
CONTINUOUS
 62
     7
100
AcDbLine
 10
1042.747555
 20
682.257451
 30
0.0
 11
1042.804659
 21
682.158544
 31
0.0
  0
ARC
  5
2A6
100
AcDbEntity
  8
LAY-1
  6
CONTINUOUS
 62
     7
100
AcDbCircle
 10
1038.38153
 20
687.819629
 30
0.0
 40
1.0
100
AcDbArc
 50
210.0
 51
30.0
  0
LINE
  5
2A7
100
AcDbEntity
  8
LAY-1
  6
CONTINUOUS
 62
     7
100
AcDbLine
 10
1037.515504
 20
687.319629
 30
0.0
 11
1037.4584
 21
687.418536
 31
0.0
  0
LINE
  5
2A8
100
AcDbEntity
  8
LAY-1
  6
CONTINUOUS
 62
     7
100
AcDbLine
 10
1039.247555
 20
688.319629
 30
0.0
 11
1039.190451
 21
688.418536
 31
0.0
  0
ARC
  5
2A9
100
AcDbEntity
  8
LAY-1
  6
CONTINUOUS
 62
     7
100
AcDbCircle
 10
1040.13153
 20
684.78854
 30
0.0
 40
3.75
100
AcDbArc
 50
195.46601
 51
224.53399
  0
ARC
  5
2AA
100
AcDbEntity
  8
LAY-1
  6
CONTINUOUS
 62
     7
100
AcDbCircle
 10
1040.13153
 20
684.78854
 30
0.0
 40
3.75
100
AcDbArc
 50
255.46601
 51
284.53399
  0
ARC
  5
2AB
100
AcDbEntity
  8
LAY-1
  6
CONTINUOUS
 62
     7
100
AcDbCircle
 10
1040.13153
 20
684.78854
 30
0.0
 40
3.75
100
AcDbArc
 50
315.46601
 51
344.53399
  0
ARC
  5
2AC
100
AcDbEntity
  8
LAY-1
  6
CONTINUOUS
 62
     7
100
AcDbCircle
 10
1040.13153
 20
684.78854
 30
0.0
 40
3.75
100
AcDbArc
 50
15.46601
 51
44.53399
  0
ARC
  5
2AD
100
AcDbEntity
  8
LAY-1
  6
CONTINUOUS
 62
     7
100
AcDbCircle
 10
1040.13153
 20
684.78854
 30
0.0
 40
3.75
100
AcDbArc
 50
75.46601
 51
104.53399
  0
ARC
  5
2AE
100
AcDbEntity
  8
LAY-1
  6
CONTINUOUS
 62
     7
100
AcDbCircle
 10
1040.13153
 20
684.78854
 30
0.0
 40
3.75
100
AcDbArc
 50
135.46601
 51
164.53399
  0
CIRCLE
  5
2AF
100
AcDbEntity
  8
LAY-1
  6
CONTINUOUS
 62
     7
100
AcDbCircle
 10
1040.13153
 20
684.78854
 30
0.0
 40
1.5
  0
CIRCLE
  5
2B0
100
AcDbEntity
  8
LAY-1
  6
CONTINUOUS
 62
     7
100
AcDbCircle
 10
939.86847
 20
684.78854
 30
0.0
 40
6.75
  0
ARC
  5
2B1
100
AcDbEntity
  8
LAY-1
  6
CONTINUOUS
 62
     7
100
AcDbCircle
 10
943.36847
 20
684.78854
 30
0.0
 40
1.0
100
AcDbArc
 50
90.0
 51
270.0
  0
LINE
  5
2B2
100
AcDbEntity
  8
LAY-1
  6
CONTINUOUS
 62
     7
100
AcDbLine
 10
943.36847
 20
683.78854
 30
0.0
 11
943.482678
 21
683.78854
 31
0.0
  0
LINE
  5
2B3
100
AcDbEntity
  8
LAY-1
  6
CONTINUOUS
 62
     7
100
AcDbLine
 10
943.36847
 20
685.78854
 30
0.0
 11
943.482678
 21
685.78854
 31
0.0
  0
ARC
  5
2B4
100
AcDbEntity
  8
LAY-1
  6
CONTINUOUS
 62
     7
100
AcDbCircle
 10
936.36847
 20
684.78854
 30
0.0
 40
1.0
100
AcDbArc
 50
270.0
 51
90.0
  0
LINE
  5
2B5
100
AcDbEntity
  8
LAY-1
  6
CONTINUOUS
 62
     7
100
AcDbLine
 10
936.36847
 20
683.78854
 30
0.0
 11
936.254262
 21
683.78854
 31
0.0
  0
LINE
  5
2B6
100
AcDbEntity
  8
LAY-1
  6
CONTINUOUS
 62
     7
100
AcDbLine
 10
936.36847
 20
685.78854
 30
0.0
 11
936.254262
 21
685.78854
 31
0.0
  0
ARC
  5
2B7
100
AcDbEntity
  8
LAY-1
  6
CONTINUOUS
 62
     7
100
AcDbCircle
 10
941.61847
 20
687.819629
 30
0.0
 40
1.0
100
AcDbArc
 50
150.0
 51
330.0
  0
LINE
  5
2B8
100
AcDbEntity
  8
LAY-1
  6
CONTINUOUS
 62
     7
100
AcDbLine
 10
942.484496
 20
687.319629
 30
0.0
 11
942.5416
 21
687.418536
 31
0.0
  0
LINE
  5
2B9
100
AcDbEntity
  8
LAY-1
  6
CONTINUOUS
 62
     7
100
AcDbLine
 10
940.752445
 20
688.319629
 30
0.0
 11
940.809549
 21
688.418536
 31
0.0
  0
ARC
  5
2BA
100
AcDbEntity
  8
LAY-1
  6
CONTINUOUS
 62
     7
100
AcDbCircle
 10
938.11847
 20
681.757451
 30
0.0
 40
1.0
100
AcDbArc
 50
330.0
 51
150.0
  0
LINE
  5
2BB
100
AcDbEntity
  8
LAY-1
  6
CONTINUOUS
 62
     7
100
AcDbLine
 10
938.984496
 20
681.257451
 30
0.0
 11
938.927392
 21
681.158544
 31
0.0
  0
LINE
  5
2BC
100
AcDbEntity
  8
LAY-1
  6
CONTINUOUS
 62
     7
100
AcDbLine
 10
937.252445
 20
682.257451
 30
0.0
 11
937.195341
 21
682.158544
 31
0.0
  0
ARC
  5
2BD
100
AcDbEntity
  8
LAY-1
  6
CONTINUOUS
 62
     7
100
AcDbCircle
 10
941.61847
 20
681.757451
 30
0.0
 40
1.0
100
AcDbArc
 50
30.0
 51
210.0
  0
LINE
  5
2BE
100
AcDbEntity
  8
LAY-1
  6
CONTINUOUS
 62
     7
100
AcDbLine
 10
940.752445
 20
681.257451
 30
0.0
 11
940.809549
 21
681.158544
 31
0.0
  0
LINE
  5
2BF
100
AcDbEntity
  8
LAY-1
  6
CONTINUOUS
 62
     7
100
AcDbLine
 10
942.484496
 20
682.257451
 30
0.0
 11
942.5416
 21
682.158544
 31
0.0
  0
ARC
  5
2C0
100
AcDbEntity
  8
LAY-1
  6
CONTINUOUS
 62
     7
100
AcDbCircle
 10
938.11847
 20
687.819629
 30
0.0
 40
1.0
100
AcDbArc
 50
210.0
 51
30.0
  0
LINE
  5
2C1
100
AcDbEntity
  8
LAY-1
  6
CONTINUOUS
 62
     7
100
AcDbLine
 10
937.252445
 20
687.319629
 30
0.0
 11
937.195341
 21
687.418536
 31
0.0
  0
LINE
  5
2C2
100
AcDbEntity
  8
LAY-1
  6
CONTINUOUS
 62
     7
100
AcDbLine
 10
938.984496
 20
688.319629
 30
0.0
 11
938.927392
 21
688.418536
 31
0.0
  0
ARC
  5
2C3
100
AcDbEntity
  8
LAY-1
  6
CONTINUOUS
 62
     7
100
AcDbCircle
 10
939.86847
 20
684.78854
 30
0.0
 40
3.75
100
AcDbArc
 50
195.46601
 51
224.53399
  0
ARC
  5
2C4
100
AcDbEntity
  8
LAY-1
  6
CONTINUOUS
 62
     7
100
AcDbCircle
 10
939.86847
 20
684.78854
 30
0.0
 40
3.75
100
AcDbArc
 50
255.46601
 51
284.53399
  0
ARC
  5
2C5
100
AcDbEntity
  8
LAY-1
  6
CONTINUOUS
 62
     7
100
AcDbCircle
 10
939.86847
 20
684.78854
 30
0.0
 40
3.75
100
AcDbArc
 50
315.46601
 51
344.53399
  0
ARC
  5
2C6
100
AcDbEntity
  8
LAY-1
  6
CONTINUOUS
 62
     7
100
AcDbCircle
 10
939.86847
 20
684.78854
 30
0.0
 40
3.75
100
AcDbArc
 50
15.46601
 51
44.53399
  0
ARC
  5
2C7
100
AcDbEntity
  8
LAY-1
  6
CONTINUOUS
 62
     7
100
AcDbCircle
 10
939.86847
 20
684.78854
 30
0.0
 40
3.75
100
AcDbArc
 50
75.46601
 51
104.53399
  0
ARC
  5
2C8
100
AcDbEntity
  8
LAY-1
  6
CONTINUOUS
 62
     7
100
AcDbCircle
 10
939.86847
 20
684.78854
 30
0.0
 40
3.75
100
AcDbArc
 50
135.46601
 51
164.53399
  0
CIRCLE
  5
2C9
100
AcDbEntity
  8
LAY-1
  6
CONTINUOUS
 62
     7
100
AcDbCircle
 10
939.86847
 20
684.78854
 30
0.0
 40
1.5
  0
CIRCLE
  5
2CA
100
AcDbEntity
  8
LAY-1
  6
CONTINUOUS
 62
     7
100
AcDbCircle
 10
868.971781
 20
755.685229
 30
0.0
 40
6.75
  0
ARC
  5
2CB
100
AcDbEntity
  8
LAY-1
  6
CONTINUOUS
 62
     7
100
AcDbCircle
 10
872.471781
 20
755.685229
 30
0.0
 40
1.0
100
AcDbArc
 50
90.0
 51
270.0
  0
LINE
  5
2CC
100
AcDbEntity
  8
LAY-1
  6
CONTINUOUS
 62
     7
100
AcDbLine
 10
872.471781
 20
754.685229
 30
0.0
 11
872.585989
 21
754.685229
 31
0.0
  0
LINE
  5
2CD
100
AcDbEntity
  8
LAY-1
  6
CONTINUOUS
 62
     7
100
AcDbLine
 10
872.471781
 20
756.685229
 30
0.0
 11
872.585989
 21
756.685229
 31
0.0
  0
ARC
  5
2CE
100
AcDbEntity
  8
LAY-1
  6
CONTINUOUS
 62
     7
100
AcDbCircle
 10
865.471781
 20
755.685229
 30
0.0
 40
1.0
100
AcDbArc
 50
270.0
 51
90.0
  0
LINE
  5
2CF
100
AcDbEntity
  8
LAY-1
  6
CONTINUOUS
 62
     7
100
AcDbLine
 10
865.471781
 20
754.685229
 30
0.0
 11
865.357573
 21
754.685229
 31
0.0
  0
LINE
  5
2D0
100
AcDbEntity
  8
LAY-1
  6
CONTINUOUS
 62
     7
100
AcDbLine
 10
865.471781
 20
756.685229
 30
0.0
 11
865.357573
 21
756.685229
 31
0.0
  0
ARC
  5
2D1
100
AcDbEntity
  8
LAY-1
  6
CONTINUOUS
 62
     7
100
AcDbCircle
 10
870.721781
 20
758.716318
 30
0.0
 40
1.0
100
AcDbArc
 50
150.0
 51
330.0
  0
LINE
  5
2D2
100
AcDbEntity
  8
LAY-1
  6
CONTINUOUS
 62
     7
100
AcDbLine
 10
871.587807
 20
758.216318
 30
0.0
 11
871.644911
 21
758.315225
 31
0.0
  0
LINE
  5
2D3
100
AcDbEntity
  8
LAY-1
  6
CONTINUOUS
 62
     7
100
AcDbLine
 10
869.855756
 20
759.216318
 30
0.0
 11
869.91286
 21
759.315225
 31
0.0
  0
ARC
  5
2D4
100
AcDbEntity
  8
LAY-1
  6
CONTINUOUS
 62
     7
100
AcDbCircle
 10
867.221781
 20
752.65414
 30
0.0
 40
1.0
100
AcDbArc
 50
330.0
 51
150.0
  0
LINE
  5
2D5
100
AcDbEntity
  8
LAY-1
  6
CONTINUOUS
 62
     7
100
AcDbLine
 10
868.087807
 20
752.15414
 30
0.0
 11
868.030703
 21
752.055233
 31
0.0
  0
LINE
  5
2D6
100
AcDbEntity
  8
LAY-1
  6
CONTINUOUS
 62
     7
100
AcDbLine
 10
866.355756
 20
753.15414
 30
0.0
 11
866.298652
 21
753.055233
 31
0.0
  0
ARC
  5
2D7
100
AcDbEntity
  8
LAY-1
  6
CONTINUOUS
 62
     7
100
AcDbCircle
 10
870.721781
 20
752.65414
 30
0.0
 40
1.0
100
AcDbArc
 50
30.0
 51
210.0
  0
LINE
  5
2D8
100
AcDbEntity
  8
LAY-1
  6
CONTINUOUS
 62
     7
100
AcDbLine
 10
869.855756
 20
752.15414
 30
0.0
 11
869.91286
 21
752.055233
 31
0.0
  0
LINE
  5
2D9
100
AcDbEntity
  8
LAY-1
  6
CONTINUOUS
 62
     7
100
AcDbLine
 10
871.587807
 20
753.15414
 30
0.0
 11
871.644911
 21
753.055233
 31
0.0
  0
ARC
  5
2DA
100
AcDbEntity
  8
LAY-1
  6
CONTINUOUS
 62
     7
100
AcDbCircle
 10
867.221781
 20
758.716318
 30
0.0
 40
1.0
100
AcDbArc
 50
210.0
 51
30.0
  0
LINE
  5
2DB
100
AcDbEntity
  8
LAY-1
  6
CONTINUOUS
 62
     7
100
AcDbLine
 10
866.355756
 20
758.216318
 30
0.0
 11
866.298652
 21
758.315225
 31
0.0
  0
LINE
  5
2DC
100
AcDbEntity
  8
LAY-1
  6
CONTINUOUS
 62
     7
100
AcDbLine
 10
868.087807
 20
759.216318
 30
0.0
 11
868.030703
 21
759.315225
 31
0.0
  0
ARC
  5
2DD
100
AcDbEntity
  8
LAY-1
  6
CONTINUOUS
 62
     7
100
AcDbCircle
 10
868.971781
 20
755.685229
 30
0.0
 40
3.75
100
AcDbArc
 50
195.46601
 51
224.53399
  0
ARC
  5
2DE
100
AcDbEntity
  8
LAY-1
  6
CONTINUOUS
 62
     7
100
AcDbCircle
 10
868.971781
 20
755.685229
 30
0.0
 40
3.75
100
AcDbArc
 50
255.46601
 51
284.53399
  0
ARC
  5
2DF
100
AcDbEntity
  8
LAY-1
  6
CONTINUOUS
 62
     7
100
AcDbCircle
 10
868.971781
 20
755.685229
 30
0.0
 40
3.75
100
AcDbArc
 50
315.46601
 51
344.53399
  0
ARC
  5
2E0
100
AcDbEntity
  8
LAY-1
  6
CONTINUOUS
 62
     7
100
AcDbCircle
 10
868.971781
 20
755.685229
 30
0.0
 40
3.75
100
AcDbArc
 50
15.46601
 51
44.53399
  0
ARC
  5
2E1
100
AcDbEntity
  8
LAY-1
  6
CONTINUOUS
 62
     7
100
AcDbCircle
 10
868.971781
 20
755.685229
 30
0.0
 40
3.75
100
AcDbArc
 50
75.46601
 51
104.53399
  0
ARC
  5
2E2
100
AcDbEntity
  8
LAY-1
  6
CONTINUOUS
 62
     7
100
AcDbCircle
 10
868.971781
 20
755.685229
 30
0.0
 40
3.75
100
AcDbArc
 50
135.46601
 51
164.53399
  0
CIRCLE
  5
2E3
100
AcDbEntity
  8
LAY-1
  6
CONTINUOUS
 62
     7
100
AcDbCircle
 10
868.971781
 20
755.685229
 30
0.0
 40
1.5
  0
CIRCLE
  5
2E4
100
AcDbEntity
  8
LAY-1
  6
CONTINUOUS
 62
     7
100
AcDbCircle
 10
990.0
 20
805.816758
 30
0.0
 40
42.96509
  0
LINE
  5
2E5
100
AcDbEntity
  8
LAY-1
  6
CONTINUOUS
 62
     7
100
AcDbLine
 10
991.446926
 20
779.35629
 30
0.0
 11
1007.687246
 21
786.08325
 31
0.0
  0
LINE
  5
2E6
100
AcDbEntity
  8
LAY-1
  6
CONTINUOUS
 62
     7
100
AcDbLine
 10
1009.733508
 20
788.129512
 30
0.0
 11
1016.460469
 21
804.369833
 31
0.0
  0
LINE
  5
2E7
100
AcDbEntity
  8
LAY-1
  6
CONTINUOUS
 62
     7
100
AcDbLine
 10
1016.460469
 20
807.263684
 30
0.0
 11
1009.733508
 21
823.504004
 31
0.0
  0
LINE
  5
2E8
100
AcDbEntity
  8
LAY-1
  6
CONTINUOUS
 62
     7
100
AcDbLine
 10
1007.687246
 20
825.550266
 30
0.0
 11
991.446926
 21
832.277227
 31
0.0
  0
LINE
  5
2E9
100
AcDbEntity
  8
LAY-1
  6
CONTINUOUS
 62
     7
100
AcDbLine
 10
988.553074
 20
832.277227
 30
0.0
 11
972.312754
 21
825.550266
 31
0.0
  0
LINE
  5
2EA
100
AcDbEntity
  8
LAY-1
  6
CONTINUOUS
 62
     7
100
AcDbLine
 10
970.266492
 20
823.504004
 30
0.0
 11
963.539531
 21
807.263684
 31
0.0
  0
LINE
  5
2EB
100
AcDbEntity
  8
LAY-1
  6
CONTINUOUS
 62
     7
100
AcDbLine
 10
963.539531
 20
804.369833
 30
0.0
 11
970.266492
 21
788.129512
 31
0.0
  0
LINE
  5
2EC
100
AcDbEntity
  8
LAY-1
  6
CONTINUOUS
 62
     7
100
AcDbLine
 10
972.312754
 20
786.08325
 30
0.0
 11
988.553074
 21
779.35629
 31
0.0
  0
ARC
  5
2ED
100
AcDbEntity
  8
LAY-1
  6
CONTINUOUS
 62
     7
100
AcDbCircle
 10
990.0
 20
805.816758
 30
0.0
 40
26.5
100
AcDbArc
 50
221.870038
 51
228.129962
  0
ARC
  5
2EE
100
AcDbEntity
  8
LAY-1
  6
CONTINUOUS
 62
     7
100
AcDbCircle
 10
990.0
 20
805.816758
 30
0.0
 40
26.5
100
AcDbArc
 50
176.870038
 51
183.129962
  0
ARC
  5
2EF
100
AcDbEntity
  8
LAY-1
  6
CONTINUOUS
 62
     7
100
AcDbCircle
 10
990.0
 20
805.816758
 30
0.0
 40
26.5
100
AcDbArc
 50
131.870038
 51
138.129962
  0
ARC
  5
2F0
100
AcDbEntity
  8
LAY-1
  6
CONTINUOUS
 62
     7
100
AcDbCircle
 10
990.0
 20
805.816758
 30
0.0
 40
26.5
100
AcDbArc
 50
86.870038
 51
93.129962
  0
ARC
  5
2F1
100
AcDbEntity
  8
LAY-1
  6
CONTINUOUS
 62
     7
100
AcDbCircle
 10
990.0
 20
805.816758
 30
0.0
 40
26.5
100
AcDbArc
 50
41.870038
 51
48.129962
  0
ARC
  5
2F2
100
AcDbEntity
  8
LAY-1
  6
CONTINUOUS
 62
     7
100
AcDbCircle
 10
990.0
 20
805.816758
 30
0.0
 40
26.5
100
AcDbArc
 50
356.870038
 51
3.129962
  0
ARC
  5
2F3
100
AcDbEntity
  8
LAY-1
  6
CONTINUOUS
 62
     7
100
AcDbCircle
 10
990.0
 20
805.816758
 30
0.0
 40
26.5
100
AcDbArc
 50
266.870038
 51
273.129962
  0
ARC
  5
2F4
100
AcDbEntity
  8
LAY-1
  6
CONTINUOUS
 62
     7
100
AcDbCircle
 10
990.0
 20
805.816758
 30
0.0
 40
26.5
100
AcDbArc
 50
311.870038
 51
318.129962
  0
LINE
  5
2F5
100
AcDbEntity
  8
LAY-1
  6
CONTINUOUS
 62
     7
100
AcDbLine
 10
988.553074
 20
832.277227
 30
0.0
 11
972.312754
 21
825.550266
 31
0.0
  0
LINE
  5
2F6
100
AcDbEntity
  8
LAY-1
  6
CONTINUOUS
 62
     7
100
AcDbLine
 10
828.518008
 20
787.216758
 30
0.0
 11
796.518008
 21
787.216758
 31
0.0
  0
LINE
  5
2F7
100
AcDbEntity
  8
LAY-1
  6
CONTINUOUS
 62
     7
100
AcDbLine
 10
828.518008
 20
824.416758
 30
0.0
 11
796.518008
 21
824.416758
 31
0.0
  0
ARC
  5
2F8
100
AcDbEntity
  8
LAY-1
  6
CONTINUOUS
 62
     7
100
AcDbCircle
 10
796.518008
 20
805.816758
 30
0.0
 40
18.6
100
AcDbArc
 50
90.0
 51
270.0
  0
LINE
  5
2F9
100
AcDbEntity
  8
LAY-1
  6
CONTINUOUS
 62
     7
100
AcDbLine
 10
828.518008
 20
824.416758
 30
0.0
 11
828.518008
 21
787.216758
 31
0.0
  0
LINE
  5
2FA
100
AcDbEntity
  8
LAY-1
  6
CONTINUOUS
 62
     7
100
AcDbLine
 10
843.518008
 20
789.816758
 30
0.0
 11
844.518008
 21
791.548809
 31
0.0
  0
ARC
  5
2FB
100
AcDbEntity
  8
LAY-1
  6
CONTINUOUS
 62
     7
100
AcDbCircle
 10
835.649458
 20
793.916758
 30
0.0
 40
8.872659
100
AcDbArc
 50
332.477706
 51
27.522294
  0
LINE
  5
2FC
100
AcDbEntity
  8
LAY-1
  6
CONTINUOUS
 62
     7
100
AcDbLine
 10
844.518008
 20
791.548809
 30
0.0
 11
844.518008
 21
805.816758
 31
0.0
  0
ARC
  5
2FD
100
AcDbEntity
  8
LAY-1
  6
CONTINUOUS
 62
     7
100
AcDbCircle
 10
812.818008
 20
805.916758
 30
0.0
 40
31.700158
100
AcDbArc
 50
345.569224
 51
359.819257
  0
LINE
  5
2FE
100
AcDbEntity
  8
LAY-1
  6
CONTINUOUS
 62
     7
100
AcDbLine
 10
834.518008
 20
789.816758
 30
0.0
 11
833.518008
 21
791.548809
 31
0.0
  0
ARC
  5
2FF
100
AcDbEntity
  8
LAY-1
  6
CONTINUOUS
 62
     7
100
AcDbCircle
 10
842.386558
 20
793.916758
 30
0.0
 40
8.872659
100
AcDbArc
 50
152.477706
 51
207.522294
  0
LINE
  5
300
100
AcDbEntity
  8
LAY-1
  6
CONTINUOUS
 62
     7
100
AcDbLine
 10
833.518008
 20
791.548809
 30
0.0
 11
833.518008
 21
805.816758
 31
0.0
  0
ARC
  5
301
100
AcDbEntity
  8
LAY-1
  6
CONTINUOUS
 62
     7
100
AcDbCircle
 10
865.218008
 20
805.916758
 30
0.0
 40
31.700158
100
AcDbArc
 50
180.180743
 51
194.430776
  0
LINE
  5
302
100
AcDbEntity
  8
LAY-1
  6
CONTINUOUS
 62
     7
100
AcDbLine
 10
843.518008
 20
789.816758
 30
0.0
 11
834.518008
 21
789.816758
 31
0.0
  0
LINE
  5
303
100
AcDbEntity
  8
LAY-1
  6
CONTINUOUS
 62
     7
100
AcDbLine
 10
843.518008
 20
798.016758
 30
0.0
 11
834.518008
 21
798.016758
 31
0.0
  0
LINE
  5
304
100
AcDbEntity
  8
LAY-1
  6
CONTINUOUS
 62
     7
100
AcDbLine
 10
844.518008
 20
791.657247
 30
0.0
 11
844.518008
 21
805.925196
 31
0.0
  0
LINE
  5
305
100
AcDbEntity
  8
LAY-1
  6
CONTINUOUS
 62
     7
100
AcDbLine
 10
847.518008
 20
792.533758
 30
0.0
 11
847.518008
 21
805.816758
 31
0.0
  0
LINE
  5
306
100
AcDbEntity
  8
LAY-1
  6
CONTINUOUS
 62
     7
100
AcDbLine
 10
830.518008
 20
792.533758
 30
0.0
 11
830.518008
 21
805.816758
 31
0.0
  0
LINE
  5
307
100
AcDbEntity
  8
LAY-1
  6
CONTINUOUS
 62
     7
100
AcDbLine
 10
828.518008
 20
792.596258
 30
0.0
 11
833.518008
 21
792.440008
 31
0.0
  0
LINE
  5
308
100
AcDbEntity
  8
LAY-1
  6
CONTINUOUS
 62
     7
100
AcDbLine
 10
843.518008
 20
821.816758
 30
0.0
 11
844.518008
 21
820.084708
 31
0.0
  0
ARC
  5
309
100
AcDbEntity
  8
LAY-1
  6
CONTINUOUS
 62
     7
100
AcDbCircle
 10
835.649458
 20
817.716758
 30
0.0
 40
8.872659
100
AcDbArc
 50
332.477706
 51
27.522294
  0
LINE
  5
30A
100
AcDbEntity
  8
LAY-1
  6
CONTINUOUS
 62
     7
100
AcDbLine
 10
844.518008
 20
820.084708
 30
0.0
 11
844.518008
 21
805.816758
 31
0.0
  0
ARC
  5
30B
100
AcDbEntity
  8
LAY-1
  6
CONTINUOUS
 62
     7
100
AcDbCircle
 10
812.818008
 20
805.716758
 30
0.0
 40
31.700158
100
AcDbArc
 50
0.180743
 51
14.430776
  0
LINE
  5
30C
100
AcDbEntity
  8
LAY-1
  6
CONTINUOUS
 62
     7
100
AcDbLine
 10
834.518008
 20
821.816758
 30
0.0
 11
833.518008
 21
820.084708
 31
0.0
  0
ARC
  5
30D
100
AcDbEntity
  8
LAY-1
  6
CONTINUOUS
 62
     7
100
AcDbCircle
 10
842.386558
 20
817.716758
 30
0.0
 40
8.872659
100
AcDbArc
 50
152.477706
 51
207.522294
  0
LINE
  5
30E
100
AcDbEntity
  8
LAY-1
  6
CONTINUOUS
 62
     7
100
AcDbLine
 10
833.518008
 20
820.084708
 30
0.0
 11
833.518008
 21
805.816758
 31
0.0
  0
ARC
  5
30F
100
AcDbEntity
  8
LAY-1
  6
CONTINUOUS
 62
     7
100
AcDbCircle
 10
865.218008
 20
805.716758
 30
0.0
 40
31.700158
100
AcDbArc
 50
165.569224
 51
179.819257
  0
LINE
  5
310
100
AcDbEntity
  8
LAY-1
  6
CONTINUOUS
 62
     7
100
AcDbLine
 10
843.518008
 20
821.816758
 30
0.0
 11
834.518008
 21
821.816758
 31
0.0
  0
LINE
  5
311
100
AcDbEntity
  8
LAY-1
  6
CONTINUOUS
 62
     7
100
AcDbLine
 10
843.518008
 20
813.616758
 30
0.0
 11
834.518008
 21
813.616758
 31
0.0
  0
LINE
  5
312
100
AcDbEntity
  8
LAY-1
  6
CONTINUOUS
 62
     7
100
AcDbLine
 10
844.518008
 20
819.97627
 30
0.0
 11
844.518008
 21
805.708321
 31
0.0
  0
LINE
  5
313
100
AcDbEntity
  8
LAY-1
  6
CONTINUOUS
 62
     7
100
AcDbLine
 10
847.518008
 20
819.099758
 30
0.0
 11
847.518008
 21
805.816758
 31
0.0
  0
LINE
  5
314
100
AcDbEntity
  8
LAY-1
  6
CONTINUOUS
 62
     7
100
AcDbLine
 10
830.518008
 20
819.099758
 30
0.0
 11
830.518008
 21
805.816758
 31
0.0
  0
LINE
  5
315
100
AcDbEntity
  8
LAY-1
  6
CONTINUOUS
 62
     7
100
AcDbLine
 10
828.518008
 20
819.037258
 30
0.0
 11
833.518008
 21
819.193508
 31
0.0
  0
LINE
  5
316
100
AcDbEntity
  8
LAY-1
  6
CONTINUOUS
 62
     7
100
AcDbLine
 10
849.938972
 20
819.024103
 30
0.0
 11
844.518008
 21
819.193508
 31
0.0
  0
LINE
  5
317
100
AcDbEntity
  8
LAY-1
  6
CONTINUOUS
 62
     7
100
AcDbLine
 10
849.938972
 20
792.609413
 30
0.0
 11
844.518008
 21
792.440008
 31
0.0
  0
ARC
  5
318
100
AcDbEntity
  8
LAY-1
  6
CONTINUOUS
 62
     7
100
AcDbCircle
 10
1360.539669
 20
667.816758
 30
0.0
 40
2.0
100
AcDbArc
 50
270.0
 51
0.0
  0
ARC
  5
319
100
AcDbEntity
  8
LAY-1
  6
CONTINUOUS
 62
     7
100
AcDbCircle
 10
1360.539669
 20
667.816758
 30
0.0
 40
2.0
100
AcDbArc
 50
270.0
 51
0.0
  0
ARC
  5
31A
100
AcDbEntity
  8
LAY-1
  6
CONTINUOUS
 62
     7
100
AcDbCircle
 10
1360.539669
 20
943.816758
 30
0.0
 40
2.0
100
AcDbArc
 50
0.0
 51
90.0
  0
LINE
  5
31B
100
AcDbEntity
  8
LAY-1
  6
CONTINUOUS
 62
     7
100
AcDbLine
 10
1349.095959
 20
665.816758
 30
0.0
 11
1360.539669
 21
665.816758
 31
0.0
  0
LINE
  5
31C
100
AcDbEntity
  8
LAY-1
  6
CONTINUOUS
 62
     7
100
AcDbLine
 10
1349.095959
 20
945.816758
 30
0.0
 11
1360.539669
 21
945.816758
 31
0.0
  0
LINE
  5
31D
100
AcDbEntity
  8
LAY-1
  6
CONTINUOUS
 62
     7
100
AcDbLine
 10
1539.59596
 20
805.816758
 30
0.0
 11
1539.59596
 21
719.482083
 31
0.0
  0
LINE
  5
31E
100
AcDbEntity
  8
LAY-1
  6
CONTINUOUS
 62
     7
100
AcDbLine
 10
1539.59596
 20
805.816758
 30
0.0
 11
1539.59596
 21
892.151434
 31
0.0
  0
LINE
  5
31F
100
AcDbEntity
  8
LAY-1
  6
CONTINUOUS
 62
     7
100
AcDbLine
 10
1349.095959
 20
930.816758
 30
0.0
 11
1349.095959
 21
945.816758
 31
0.0
  0
LINE
  5
320
100
AcDbEntity
  8
LAY-1
  6
CONTINUOUS
 62
     7
100
AcDbLine
 10
1342.095959
 20
665.816758
 30
0.0
 11
1349.095959
 21
665.816758
 31
0.0
  0
LINE
  5
321
100
AcDbEntity
  8
LAY-1
  6
CONTINUOUS
 62
     7
100
AcDbLine
 10
1342.095959
 20
945.816758
 30
0.0
 11
1349.095959
 21
945.816758
 31
0.0
  0
LINE
  5
322
100
AcDbEntity
  8
LAY-1
  6
CONTINUOUS
 62
     7
100
AcDbLine
 10
1349.095959
 20
665.816758
 30
0.0
 11
1349.095959
 21
680.816758
 31
0.0
  0
ARC
  5
323
100
AcDbEntity
  8
LAY-1
  6
CONTINUOUS
 62
     7
100
AcDbCircle
 10
1342.095959
 20
667.816758
 30
0.0
 40
2.0
100
AcDbArc
 50
180.0
 51
270.0
  0
ARC
  5
324
100
AcDbEntity
  8
LAY-1
  6
CONTINUOUS
 62
     7
100
AcDbCircle
 10
1342.095959
 20
943.816758
 30
0.0
 40
2.0
100
AcDbArc
 50
90.0
 51
180.0
  0
LINE
  5
325
100
AcDbEntity
  8
LAY-1
  6
CONTINUOUS
 62
     7
100
AcDbLine
 10
1270.312331
 20
873.308862
 30
0.0
 11
1328.1994
 21
921.88188
 31
0.0
  0
ARC
  5
326
100
AcDbEntity
  8
LAY-1
  6
CONTINUOUS
 62
     7
100
AcDbCircle
 10
1258.095959
 20
850.316758
 30
0.0
 40
1.5
100
AcDbArc
 50
270.0
 51
0.0
  0
LINE
  5
327
100
AcDbEntity
  8
LAY-1
  6
CONTINUOUS
 62
     7
100
AcDbLine
 10
1259.595959
 20
850.316758
 30
0.0
 11
1259.595959
 21
850.327529
 31
0.0
  0
LINE
  5
328
100
AcDbEntity
  8
LAY-1
  6
CONTINUOUS
 62
     7
100
AcDbLine
 10
1257.595959
 20
848.816758
 30
0.0
 11
1258.095959
 21
848.816758
 31
0.0
  0
ARC
  5
329
100
AcDbEntity
  8
LAY-1
  6
CONTINUOUS
 62
     7
100
AcDbCircle
 10
1289.595959
 20
850.327529
 30
0.0
 40
30.0
100
AcDbArc
 50
130.0
 51
180.0
  0
ARC
  5
32A
100
AcDbEntity
  8
LAY-1
  6
CONTINUOUS
 62
     7
100
AcDbCircle
 10
1289.595959
 20
761.305988
 30
0.0
 40
30.0
100
AcDbArc
 50
180.0
 51
230.0
  0
LINE
  5
32B
100
AcDbEntity
  8
LAY-1
  6
CONTINUOUS
 62
     7
100
AcDbLine
 10
1256.595959
 20
848.816758
 30
0.0
 11
1256.595959
 21
845.816758
 31
0.0
  0
LINE
  5
32C
100
AcDbEntity
  8
LAY-1
  6
CONTINUOUS
 62
     7
100
AcDbLine
 10
1257.595959
 20
845.816758
 30
0.0
 11
1257.595959
 21
848.86914
 31
0.0
  0
LINE
  5
32D
100
AcDbEntity
  8
LAY-1
  6
CONTINUOUS
 62
     7
100
AcDbLine
 10
1257.595959
 20
848.816758
 30
0.0
 11
1256.595959
 21
848.816758
 31
0.0
  0
LINE
  5
32E
100
AcDbEntity
  8
LAY-1
  6
CONTINUOUS
 62
     7
100
AcDbLine
 10
1523.09596
 20
691.816758
 30
0.0
 11
1492.595959
 21
691.816758
 31
0.0
  0
ARC
  5
32F
100
AcDbEntity
  8
LAY-1
  6
CONTINUOUS
 62
     7
100
AcDbCircle
 10
1528.59596
 20
693.816758
 30
0.0
 40
2.0
100
AcDbArc
 50
270.0
 51
0.0
  0
LINE
  5
330
100
AcDbEntity
  8
LAY-1
  6
CONTINUOUS
 62
     7
100
AcDbLine
 10
1523.09596
 20
691.816758
 30
0.0
 11
1528.59596
 21
691.816758
 31
0.0
  0
LINE
  5
331
100
AcDbEntity
  8
LAY-1
  6
CONTINUOUS
 62
     7
100
AcDbLine
 10
1523.09596
 20
691.816758
 30
0.0
 11
1523.09596
 21
710.816758
 31
0.0
  0
LINE
  5
332
100
AcDbEntity
  8
LAY-1
  6
CONTINUOUS
 62
     7
100
AcDbLine
 10
1523.09596
 20
919.816758
 30
0.0
 11
1492.595959
 21
919.816758
 31
0.0
  0
LINE
  5
333
100
AcDbEntity
  8
LAY-1
  6
CONTINUOUS
 62
     7
100
AcDbLine
 10
1523.09596
 20
919.816758
 30
0.0
 11
1523.09596
 21
900.816758
 31
0.0
  0
ARC
  5
334
100
AcDbEntity
  8
LAY-1
  6
CONTINUOUS
 62
     7
100
AcDbCircle
 10
1528.59596
 20
917.816758
 30
0.0
 40
2.0
100
AcDbArc
 50
0.0
 51
90.0
  0
LINE
  5
335
100
AcDbEntity
  8
LAY-1
  6
CONTINUOUS
 62
     7
100
AcDbLine
 10
1523.09596
 20
919.816758
 30
0.0
 11
1528.59596
 21
919.816758
 31
0.0
  0
ARC
  5
336
100
AcDbEntity
  8
LAY-1
  6
CONTINUOUS
 62
     7
100
AcDbCircle
 10
1258.095959
 20
761.316758
 30
0.0
 40
1.5
100
AcDbArc
 50
0.0
 51
90.0
  0
LINE
  5
337
100
AcDbEntity
  8
LAY-1
  6
CONTINUOUS
 62
     7
100
AcDbLine
 10
1259.595959
 20
761.316758
 30
0.0
 11
1259.595959
 21
761.305988
 31
0.0
  0
LINE
  5
338
100
AcDbEntity
  8
LAY-1
  6
CONTINUOUS
 62
     7
100
AcDbLine
 10
1257.595959
 20
762.816758
 30
0.0
 11
1258.095959
 21
762.816758
 31
0.0
  0
LINE
  5
339
100
AcDbEntity
  8
LAY-1
  6
CONTINUOUS
 62
     7
100
AcDbLine
 10
1257.595959
 20
762.816758
 30
0.0
 11
1256.595959
 21
762.816758
 31
0.0
  0
LINE
  5
33A
100
AcDbEntity
  8
LAY-1
  6
CONTINUOUS
 62
     7
100
AcDbLine
 10
1257.595959
 20
765.816758
 30
0.0
 11
1257.595959
 21
762.764377
 31
0.0
  0
LINE
  5
33B
100
AcDbEntity
  8
LAY-1
  6
CONTINUOUS
 62
     7
100
AcDbLine
 10
1256.595959
 20
848.816758
 30
0.0
 11
1256.595959
 21
845.816758
 31
0.0
  0
ARC
  5
33C
100
AcDbEntity
  8
LAY-1
  6
CONTINUOUS
 62
     7
100
AcDbCircle
 10
1253.595959
 20
846.816758
 30
0.0
 40
2.0
100
AcDbArc
 50
90.0
 51
180.0
  0
ARC
  5
33D
100
AcDbEntity
  8
LAY-1
  6
CONTINUOUS
 62
     7
100
AcDbCircle
 10
1249.595959
 20
834.316758
 30
0.0
 40
2.0
100
AcDbArc
 50
270.0
 51
0.0
  0
LINE
  5
33E
100
AcDbEntity
  8
LAY-1
  6
CONTINUOUS
 62
     7
100
AcDbLine
 10
1249.595959
 20
832.316758
 30
0.0
 11
1242.595959
 21
832.316758
 31
0.0
  0
LINE
  5
33F
100
AcDbEntity
  8
LAY-1
  6
CONTINUOUS
 62
     7
100
AcDbLine
 10
1240.595959
 20
805.816758
 30
0.0
 11
1240.595959
 21
830.316758
 31
0.0
  0
ARC
  5
340
100
AcDbEntity
  8
LAY-1
  6
CONTINUOUS
 62
     7
100
AcDbCircle
 10
1242.595959
 20
830.316758
 30
0.0
 40
2.0
100
AcDbArc
 50
90.0
 51
180.0
  0
ARC
  5
341
100
AcDbEntity
  8
LAY-1
  6
CONTINUOUS
 62
     7
100
AcDbCircle
 10
1253.595959
 20
764.816758
 30
0.0
 40
2.0
100
AcDbArc
 50
180.0
 51
270.0
  0
ARC
  5
342
100
AcDbEntity
  8
LAY-1
  6
CONTINUOUS
 62
     7
100
AcDbCircle
 10
1249.595959
 20
777.316758
 30
0.0
 40
2.0
100
AcDbArc
 50
0.0
 51
90.0
  0
LINE
  5
343
100
AcDbEntity
  8
LAY-1
  6
CONTINUOUS
 62
     7
100
AcDbLine
 10
1249.595959
 20
779.316758
 30
0.0
 11
1242.595959
 21
779.316758
 31
0.0
  0
LINE
  5
344
100
AcDbEntity
  8
LAY-1
  6
CONTINUOUS
 62
     7
100
AcDbLine
 10
1240.595959
 20
805.816758
 30
0.0
 11
1240.595959
 21
781.316758
 31
0.0
  0
ARC
  5
345
100
AcDbEntity
  8
LAY-1
  6
CONTINUOUS
 62
     7
100
AcDbCircle
 10
1242.595959
 20
781.316758
 30
0.0
 40
2.0
100
AcDbArc
 50
180.0
 51
270.0
  0
LINE
  5
346
100
AcDbEntity
  8
LAY-1
  6
CONTINUOUS
 62
     7
100
AcDbLine
 10
1256.095959
 20
762.816758
 30
0.0
 11
1253.595959
 21
762.816758
 31
0.0
  0
LINE
  5
347
100
AcDbEntity
  8
LAY-1
  6
CONTINUOUS
 62
     7
100
AcDbLine
 10
1256.595959
 20
763.316758
 30
0.0
 11
1256.095959
 21
762.816758
 31
0.0
  0
LINE
  5
348
100
AcDbEntity
  8
LAY-1
  6
CONTINUOUS
 62
     7
100
AcDbLine
 10
1256.595959
 20
848.316758
 30
0.0
 11
1256.095959
 21
848.816758
 31
0.0
  0
LINE
  5
349
100
AcDbEntity
  8
LAY-1
  6
CONTINUOUS
 62
     7
100
AcDbLine
 10
1256.095959
 20
848.816758
 30
0.0
 11
1253.595959
 21
848.816758
 31
0.0
  0
LINE
  5
34A
100
AcDbEntity
  8
LAY-1
  6
CONTINUOUS
 62
     7
100
AcDbLine
 10
1256.595959
 20
762.816758
 30
0.0
 11
1256.595959
 21
805.816758
 31
0.0
  0
LINE
  5
34B
100
AcDbEntity
  8
LAY-1
  6
CONTINUOUS
 62
     7
100
AcDbLine
 10
1256.595959
 20
848.316758
 30
0.0
 11
1256.595959
 21
805.816758
 31
0.0
  0
LINE
  5
34C
100
AcDbEntity
  8
LAY-1
  6
CONTINUOUS
 62
     7
100
AcDbLine
 10
1257.595959
 20
848.816758
 30
0.0
 11
1257.595959
 21
805.816758
 31
0.0
  0
LINE
  5
34D
100
AcDbEntity
  8
LAY-1
  6
CONTINUOUS
 62
     7
100
AcDbLine
 10
1257.595959
 20
762.816758
 30
0.0
 11
1257.595959
 21
805.816758
 31
0.0
  0
LINE
  5
34E
100
AcDbEntity
  8
LAY-1
  6
CONTINUOUS
 62
     7
100
AcDbLine
 10
1259.595959
 20
850.316758
 30
0.0
 11
1259.595959
 21
805.816758
 31
0.0
  0
LINE
  5
34F
100
AcDbEntity
  8
LAY-1
  6
CONTINUOUS
 62
     7
100
AcDbLine
 10
1259.595959
 20
805.816758
 30
0.0
 11
1259.595959
 21
761.316758
 31
0.0
  0
LINE
  5
350
100
AcDbEntity
  8
LAY-1
  6
CONTINUOUS
 62
     7
100
AcDbLine
 10
1251.595959
 20
805.816758
 30
0.0
 11
1251.595959
 21
846.816758
 31
0.0
  0
LINE
  5
351
100
AcDbEntity
  8
LAY-1
  6
CONTINUOUS
 62
     7
100
AcDbLine
 10
1251.595959
 20
805.816758
 30
0.0
 11
1251.595959
 21
764.816758
 31
0.0
  0
LINE
  5
352
100
AcDbEntity
  8
LAY-1
  6
CONTINUOUS
 62
     7
100
AcDbLine
 10
1349.095959
 20
945.816758
 30
0.0
 11
1349.095959
 21
805.816758
 31
0.0
  0
LINE
  5
353
100
AcDbEntity
  8
LAY-1
  6
CONTINUOUS
 62
     7
100
AcDbLine
 10
1349.095959
 20
805.816758
 30
0.0
 11
1349.095959
 21
665.816758
 31
0.0
  0
LINE
  5
354
100
AcDbEntity
  8
LAY-1
  6
CONTINUOUS
 62
     7
100
AcDbLine
 10
1340.095959
 20
919.916774
 30
0.0
 11
1338.495959
 21
919.916774
 31
0.0
  0
LINE
  5
355
100
AcDbEntity
  8
LAY-1
  6
CONTINUOUS
 62
     7
100
AcDbLine
 10
1338.495959
 20
919.916774
 30
0.0
 11
1338.495959
 21
933.77318
 31
0.0
  0
LINE
  5
356
100
AcDbEntity
  8
LAY-1
  6
CONTINUOUS
 62
     7
100
AcDbLine
 10
1338.495959
 20
933.77318
 30
0.0
 11
1340.095959
 21
933.77318
 31
0.0
  0
LINE
  5
357
100
AcDbEntity
  8
LAY-1
  6
CONTINUOUS
 62
     7
100
AcDbLine
 10
1340.095959
 20
849.020085
 30
0.0
 11
1338.495959
 21
849.020085
 31
0.0
  0
LINE
  5
358
100
AcDbEntity
  8
LAY-1
  6
CONTINUOUS
 62
     7
100
AcDbLine
 10
1338.495959
 20
849.020085
 30
0.0
 11
1338.495959
 21
862.876491
 31
0.0
  0
LINE
  5
359
100
AcDbEntity
  8
LAY-1
  6
CONTINUOUS
 62
     7
100
AcDbLine
 10
1338.495959
 20
862.876491
 30
0.0
 11
1340.095959
 21
862.876491
 31
0.0
  0
LINE
  5
35A
100
AcDbEntity
  8
LAY-1
  6
CONTINUOUS
 62
     7
100
AcDbLine
 10
1340.095959
 20
691.716743
 30
0.0
 11
1338.495959
 21
691.716743
 31
0.0
  0
LINE
  5
35B
100
AcDbEntity
  8
LAY-1
  6
CONTINUOUS
 62
     7
100
AcDbLine
 10
1338.495959
 20
691.716743
 30
0.0
 11
1338.495959
 21
677.860336
 31
0.0
  0
LINE
  5
35C
100
AcDbEntity
  8
LAY-1
  6
CONTINUOUS
 62
     7
100
AcDbLine
 10
1338.495959
 20
677.860336
 30
0.0
 11
1340.095959
 21
677.860336
 31
0.0
  0
LINE
  5
35D
100
AcDbEntity
  8
LAY-1
  6
CONTINUOUS
 62
     7
100
AcDbLine
 10
1340.095959
 20
762.613432
 30
0.0
 11
1338.495959
 21
762.613432
 31
0.0
  0
LINE
  5
35E
100
AcDbEntity
  8
LAY-1
  6
CONTINUOUS
 62
     7
100
AcDbLine
 10
1338.495959
 20
762.613432
 30
0.0
 11
1338.495959
 21
748.757025
 31
0.0
  0
LINE
  5
35F
100
AcDbEntity
  8
LAY-1
  6
CONTINUOUS
 62
     7
100
AcDbLine
 10
1338.495959
 20
748.757025
 30
0.0
 11
1340.095959
 21
748.757025
 31
0.0
  0
LINE
  5
360
100
AcDbEntity
  8
LAY-1
  6
CONTINUOUS
 62
     7
100
AcDbLine
 10
1338.49596
 20
678.03854
 30
0.0
 11
1334.99596
 21
678.03854
 31
0.0
  0
ARC
  5
361
100
AcDbEntity
  8
LAY-1
  6
CONTINUOUS
 62
     7
100
AcDbCircle
 10
1334.99596
 20
680.53854
 30
0.0
 40
2.5
100
AcDbArc
 50
180.0
 51
270.0
  0
LINE
  5
362
100
AcDbEntity
  8
LAY-1
  6
CONTINUOUS
 62
     7
100
AcDbLine
 10
1332.49596
 20
689.03854
 30
0.0
 11
1332.49596
 21
680.53854
 31
0.0
  0
LINE
  5
363
100
AcDbEntity
  8
LAY-1
  6
CONTINUOUS
 62
     7
100
AcDbLine
 10
1338.49596
 20
691.53854
 30
0.0
 11
1334.99596
 21
691.53854
 31
0.0
  0
ARC
  5
364
100
AcDbEntity
  8
LAY-1
  6
CONTINUOUS
 62
     7
100
AcDbCircle
 10
1334.99596
 20
689.03854
 30
0.0
 40
2.5
100
AcDbArc
 50
90.0
 51
180.0
  0
LINE
  5
365
100
AcDbEntity
  8
LAY-1
  6
CONTINUOUS
 62
     7
100
AcDbLine
 10
1338.49596
 20
684.78854
 30
0.0
 11
1338.49596
 21
691.53854
 31
0.0
  0
LINE
  5
366
100
AcDbEntity
  8
LAY-1
  6
CONTINUOUS
 62
     7
100
AcDbLine
 10
1338.49596
 20
684.78854
 30
0.0
 11
1338.49596
 21
678.03854
 31
0.0
  0
LINE
  5
367
100
AcDbEntity
  8
LAY-1
  6
CONTINUOUS
 62
     7
100
AcDbLine
 10
1338.49596
 20
920.094977
 30
0.0
 11
1334.995959
 21
920.094977
 31
0.0
  0
ARC
  5
368
100
AcDbEntity
  8
LAY-1
  6
CONTINUOUS
 62
     7
100
AcDbCircle
 10
1334.995959
 20
922.594977
 30
0.0
 40
2.5
100
AcDbArc
 50
180.0
 51
270.0
  0
LINE
  5
369
100
AcDbEntity
  8
LAY-1
  6
CONTINUOUS
 62
     7
100
AcDbLine
 10
1332.495959
 20
931.094977
 30
0.0
 11
1332.495959
 21
922.594977
 31
0.0
  0
LINE
  5
36A
100
AcDbEntity
  8
LAY-1
  6
CONTINUOUS
 62
     7
100
AcDbLine
 10
1338.49596
 20
933.594977
 30
0.0
 11
1334.995959
 21
933.594977
 31
0.0
  0
ARC
  5
36B
100
AcDbEntity
  8
LAY-1
  6
CONTINUOUS
 62
     7
100
AcDbCircle
 10
1334.995959
 20
931.094977
 30
0.0
 40
2.5
100
AcDbArc
 50
90.0
 51
180.0
  0
LINE
  5
36C
100
AcDbEntity
  8
LAY-1
  6
CONTINUOUS
 62
     7
100
AcDbLine
 10
1338.49596
 20
926.844977
 30
0.0
 11
1338.49596
 21
933.594977
 31
0.0
  0
LINE
  5
36D
100
AcDbEntity
  8
LAY-1
  6
CONTINUOUS
 62
     7
100
AcDbLine
 10
1338.49596
 20
926.844977
 30
0.0
 11
1338.49596
 21
920.094977
 31
0.0
  0
LINE
  5
36E
100
AcDbEntity
  8
LAY-1
  6
CONTINUOUS
 62
     7
100
AcDbLine
 10
1338.49596
 20
849.198288
 30
0.0
 11
1334.995959
 21
849.198288
 31
0.0
  0
ARC
  5
36F
100
AcDbEntity
  8
LAY-1
  6
CONTINUOUS
 62
     7
100
AcDbCircle
 10
1334.995959
 20
851.698288
 30
0.0
 40
2.5
100
AcDbArc
 50
180.0
 51
270.0
  0
LINE
  5
370
100
AcDbEntity
  8
LAY-1
  6
CONTINUOUS
 62
     7
100
AcDbLine
 10
1332.495959
 20
860.198288
 30
0.0
 11
1332.495959
 21
851.698288
 31
0.0
  0
LINE
  5
371
100
AcDbEntity
  8
LAY-1
  6
CONTINUOUS
 62
     7
100
AcDbLine
 10
1338.49596
 20
862.698288
 30
0.0
 11
1334.995959
 21
862.698288
 31
0.0
  0
ARC
  5
372
100
AcDbEntity
  8
LAY-1
  6
CONTINUOUS
 62
     7
100
AcDbCircle
 10
1334.995959
 20
860.198288
 30
0.0
 40
2.5
100
AcDbArc
 50
90.0
 51
180.0
  0
LINE
  5
373
100
AcDbEntity
  8
LAY-1
  6
CONTINUOUS
 62
     7
100
AcDbLine
 10
1338.49596
 20
855.948288
 30
0.0
 11
1338.49596
 21
862.698288
 31
0.0
  0
LINE
  5
374
100
AcDbEntity
  8
LAY-1
  6
CONTINUOUS
 62
     7
100
AcDbLine
 10
1338.49596
 20
855.948288
 30
0.0
 11
1338.49596
 21
849.198288
 31
0.0
  0
LINE
  5
375
100
AcDbEntity
  8
LAY-1
  6
CONTINUOUS
 62
     7
100
AcDbLine
 10
1338.49596
 20
748.935229
 30
0.0
 11
1334.995959
 21
748.935229
 31
0.0
  0
ARC
  5
376
100
AcDbEntity
  8
LAY-1
  6
CONTINUOUS
 62
     7
100
AcDbCircle
 10
1334.995959
 20
751.435229
 30
0.0
 40
2.5
100
AcDbArc
 50
180.0
 51
270.0
  0
LINE
  5
377
100
AcDbEntity
  8
LAY-1
  6
CONTINUOUS
 62
     7
100
AcDbLine
 10
1332.495959
 20
759.935229
 30
0.0
 11
1332.495959
 21
751.435229
 31
0.0
  0
LINE
  5
378
100
AcDbEntity
  8
LAY-1
  6
CONTINUOUS
 62
     7
100
AcDbLine
 10
1338.49596
 20
762.435229
 30
0.0
 11
1334.995959
 21
762.435229
 31
0.0
  0
ARC
  5
379
100
AcDbEntity
  8
LAY-1
  6
CONTINUOUS
 62
     7
100
AcDbCircle
 10
1334.995959
 20
759.935229
 30
0.0
 40
2.5
100
AcDbArc
 50
90.0
 51
180.0
  0
LINE
  5
37A
100
AcDbEntity
  8
LAY-1
  6
CONTINUOUS
 62
     7
100
AcDbLine
 10
1338.49596
 20
755.685229
 30
0.0
 11
1338.49596
 21
762.435229
 31
0.0
  0
LINE
  5
37B
100
AcDbEntity
  8
LAY-1
  6
CONTINUOUS
 62
     7
100
AcDbLine
 10
1338.49596
 20
755.685229
 30
0.0
 11
1338.49596
 21
748.935229
 31
0.0
  0
LINE
  5
37C
100
AcDbEntity
  8
LAY-1
  6
CONTINUOUS
 62
     7
100
AcDbLine
 10
1523.09596
 20
919.816758
 30
0.0
 11
1523.09596
 21
805.816758
 31
0.0
  0
LINE
  5
37D
100
AcDbEntity
  8
LAY-1
  6
CONTINUOUS
 62
     7
100
AcDbLine
 10
1523.09596
 20
691.816758
 30
0.0
 11
1523.09596
 21
805.816758
 31
0.0
  0
LINE
  5
37E
100
AcDbEntity
  8
LAY-1
  6
CONTINUOUS
 62
     7
100
AcDbLine
 10
1530.59596
 20
917.816758
 30
0.0
 11
1530.59596
 21
805.816758
 31
0.0
  0
LINE
  5
37F
100
AcDbEntity
  8
LAY-1
  6
CONTINUOUS
 62
     7
100
AcDbLine
 10
1530.59596
 20
693.816758
 30
0.0
 11
1530.59596
 21
805.816758
 31
0.0
  0
LINE
  5
380
100
AcDbEntity
  8
LAY-1
  6
CONTINUOUS
 62
     7
100
AcDbLine
 10
1530.59596
 20
812.744962
 30
0.0
 11
1532.19596
 21
812.744962
 31
0.0
  0
LINE
  5
381
100
AcDbEntity
  8
LAY-1
  6
CONTINUOUS
 62
     7
100
AcDbLine
 10
1532.19596
 20
812.744962
 30
0.0
 11
1532.19596
 21
798.888555
 31
0.0
  0
LINE
  5
382
100
AcDbEntity
  8
LAY-1
  6
CONTINUOUS
 62
     7
100
AcDbLine
 10
1532.19596
 20
798.888555
 30
0.0
 11
1530.59596
 21
798.888555
 31
0.0
  0
LINE
  5
383
100
AcDbEntity
  8
LAY-1
  6
CONTINUOUS
 62
     7
100
AcDbLine
 10
1532.19596
 20
812.566758
 30
0.0
 11
1535.69596
 21
812.566758
 31
0.0
  0
ARC
  5
384
100
AcDbEntity
  8
LAY-1
  6
CONTINUOUS
 62
     7
100
AcDbCircle
 10
1535.69596
 20
810.066758
 30
0.0
 40
2.5
100
AcDbArc
 50
0.0
 51
90.0
  0
LINE
  5
385
100
AcDbEntity
  8
LAY-1
  6
CONTINUOUS
 62
     7
100
AcDbLine
 10
1538.19596
 20
801.566758
 30
0.0
 11
1538.19596
 21
810.066758
 31
0.0
  0
ARC
  5
386
100
AcDbEntity
  8
LAY-1
  6
CONTINUOUS
 62
     7
100
AcDbCircle
 10
1535.69596
 20
801.566758
 30
0.0
 40
2.5
100
AcDbArc
 50
270.0
 51
0.0
  0
LINE
  5
387
100
AcDbEntity
  8
LAY-1
  6
CONTINUOUS
 62
     7
100
AcDbLine
 10
1532.19596
 20
799.066758
 30
0.0
 11
1535.69596
 21
799.066758
 31
0.0
  0
LINE
  5
388
100
AcDbEntity
  8
LAY-1
  6
CONTINUOUS
 62
     7
100
AcDbLine
 10
1530.59596
 20
721.812262
 30
0.0
 11
1532.19596
 21
721.812262
 31
0.0
  0
LINE
  5
389
100
AcDbEntity
  8
LAY-1
  6
CONTINUOUS
 62
     7
100
AcDbLine
 10
1532.19596
 20
721.812262
 30
0.0
 11
1532.19596
 21
707.955855
 31
0.0
  0
LINE
  5
38A
100
AcDbEntity
  8
LAY-1
  6
CONTINUOUS
 62
     7
100
AcDbLine
 10
1532.19596
 20
707.955855
 30
0.0
 11
1530.59596
 21
707.955855
 31
0.0
  0
LINE
  5
38B
100
AcDbEntity
  8
LAY-1
  6
CONTINUOUS
 62
     7
100
AcDbLine
 10
1532.19596
 20
721.634058
 30
0.0
 11
1535.69596
 21
721.634058
 31
0.0
  0
ARC
  5
38C
100
AcDbEntity
  8
LAY-1
  6
CONTINUOUS
 62
     7
100
AcDbCircle
 10
1535.69596
 20
719.134058
 30
0.0
 40
2.5
100
AcDbArc
 50
0.0
 51
90.0
  0
LINE
  5
38D
100
AcDbEntity
  8
LAY-1
  6
CONTINUOUS
 62
     7
100
AcDbLine
 10
1538.19596
 20
710.634058
 30
0.0
 11
1538.19596
 21
719.134058
 31
0.0
  0
ARC
  5
38E
100
AcDbEntity
  8
LAY-1
  6
CONTINUOUS
 62
     7
100
AcDbCircle
 10
1535.69596
 20
710.634058
 30
0.0
 40
2.5
100
AcDbArc
 50
270.0
 51
0.0
  0
LINE
  5
38F
100
AcDbEntity
  8
LAY-1
  6
CONTINUOUS
 62
     7
100
AcDbLine
 10
1532.19596
 20
708.134058
 30
0.0
 11
1535.69596
 21
708.134058
 31
0.0
  0
ARC
  5
390
100
AcDbEntity
  8
LAY-1
  6
CONTINUOUS
 62
     7
100
AcDbCircle
 10
1535.59596
 20
719.482083
 30
0.0
 40
4.0
100
AcDbArc
 50
310.541602
 51
0.0
  0
LINE
  5
391
100
AcDbEntity
  8
LAY-1
  6
CONTINUOUS
 62
     7
100
AcDbLine
 10
1530.59596
 20
889.821255
 30
0.0
 11
1532.19596
 21
889.821255
 31
0.0
  0
LINE
  5
392
100
AcDbEntity
  8
LAY-1
  6
CONTINUOUS
 62
     7
100
AcDbLine
 10
1532.19596
 20
889.821255
 30
0.0
 11
1532.19596
 21
903.677662
 31
0.0
  0
LINE
  5
393
100
AcDbEntity
  8
LAY-1
  6
CONTINUOUS
 62
     7
100
AcDbLine
 10
1532.19596
 20
903.677662
 30
0.0
 11
1530.59596
 21
903.677662
 31
0.0
  0
LINE
  5
394
100
AcDbEntity
  8
LAY-1
  6
CONTINUOUS
 62
     7
100
AcDbLine
 10
1532.19596
 20
889.999458
 30
0.0
 11
1535.69596
 21
889.999458
 31
0.0
  0
ARC
  5
395
100
AcDbEntity
  8
LAY-1
  6
CONTINUOUS
 62
     7
100
AcDbCircle
 10
1535.69596
 20
892.499458
 30
0.0
 40
2.5
100
AcDbArc
 50
270.0
 51
0.0
  0
LINE
  5
396
100
AcDbEntity
  8
LAY-1
  6
CONTINUOUS
 62
     7
100
AcDbLine
 10
1538.19596
 20
900.999458
 30
0.0
 11
1538.19596
 21
892.499458
 31
0.0
  0
ARC
  5
397
100
AcDbEntity
  8
LAY-1
  6
CONTINUOUS
 62
     7
100
AcDbCircle
 10
1535.69596
 20
900.999458
 30
0.0
 40
2.5
100
AcDbArc
 50
0.0
 51
90.0
  0
LINE
  5
398
100
AcDbEntity
  8
LAY-1
  6
CONTINUOUS
 62
     7
100
AcDbLine
 10
1532.19596
 20
903.499458
 30
0.0
 11
1535.69596
 21
903.499458
 31
0.0
  0
ARC
  5
399
100
AcDbEntity
  8
LAY-1
  6
CONTINUOUS
 62
     7
100
AcDbCircle
 10
1535.59596
 20
892.151434
 30
0.0
 40
4.0
100
AcDbArc
 50
0.0
 51
49.458398
  0
ARC
  5
39A
100
AcDbEntity
  8
LAY-1
  6
CONTINUOUS
 62
     7
100
AcDbCircle
 10
1535.59596
 20
892.151434
 30
0.0
 40
4.0
100
AcDbArc
 50
0.0
 51
49.458398
  0
LINE
  5
39B
100
AcDbEntity
  8
LAY-1
  6
CONTINUOUS
 62
     7
100
AcDbLine
 10
1447.595959
 20
660.816758
 30
0.0
 11
1492.595959
 21
660.816758
 31
0.0
  0
LINE
  5
39C
100
AcDbEntity
  8
LAY-1
  6
CONTINUOUS
 62
     7
100
AcDbLine
 10
1402.595959
 20
660.816758
 30
0.0
 11
1447.595959
 21
660.816758
 31
0.0
  0
LINE
  5
39D
100
AcDbEntity
  8
LAY-1
  6
CONTINUOUS
 62
     7
100
AcDbLine
 10
1447.595959
 20
950.816758
 30
0.0
 11
1492.595959
 21
950.816758
 31
0.0
  0
LINE
  5
39E
100
AcDbEntity
  8
LAY-1
  6
CONTINUOUS
 62
     7
100
AcDbLine
 10
1402.595959
 20
950.816758
 30
0.0
 11
1448.315545
 21
950.816758
 31
0.0
  0
ARC
  5
39F
100
AcDbEntity
  8
LAY-1
  6
CONTINUOUS
 62
     7
100
AcDbCircle
 10
1369.59609
 20
912.232558
 30
0.0
 40
19.999978
100
AcDbArc
 50
0.0
 51
88.0
  0
LINE
  5
3A0
100
AcDbEntity
  8
LAY-1
  6
CONTINUOUS
 62
     7
100
AcDbLine
 10
1389.59599
 20
912.232558
 30
0.0
 11
1389.59599
 21
805.816758
 31
0.0
  0
LINE
  5
3A1
100
AcDbEntity
  8
LAY-1
  6
CONTINUOUS
 62
     7
100
AcDbLine
 10
1389.59599
 20
699.401058
 30
0.0
 11
1389.59599
 21
805.816758
 31
0.0
  0
ARC
  5
3A2
100
AcDbEntity
  8
LAY-1
  6
CONTINUOUS
 62
     7
100
AcDbCircle
 10
1369.59609
 20
699.401058
 30
0.0
 40
19.999978
100
AcDbArc
 50
272.0
 51
0.0
  0
LINE
  5
3A3
100
AcDbEntity
  8
LAY-1
  6
CONTINUOUS
 62
     7
100
AcDbLine
 10
1466.23559
 20
658.817058
 30
0.0
 11
1466.23559
 21
723.288158
 31
0.0
  0
LINE
  5
3A4
100
AcDbEntity
  8
LAY-1
  6
CONTINUOUS
 62
     7
100
AcDbLine
 10
1493.11467
 20
714.216858
 30
0.0
 11
1466.23559
 21
723.288158
 31
0.0
  0
LINE
  5
3A5
100
AcDbEntity
  8
LAY-1
  6
CONTINUOUS
 62
     7
100
AcDbLine
 10
1394.5147
 20
723.288158
 30
0.0
 11
1466.23559
 21
723.288158
 31
0.0
  0
LINE
  5
3A6
100
AcDbEntity
  8
LAY-1
  6
CONTINUOUS
 62
     7
100
AcDbLine
 10
1493.11467
 20
897.416658
 30
0.0
 11
1466.23559
 21
888.345458
 31
0.0
  0
LINE
  5
3A7
100
AcDbEntity
  8
LAY-1
  6
CONTINUOUS
 62
     7
100
AcDbLine
 10
1394.5147
 20
888.345458
 30
0.0
 11
1466.23559
 21
888.345458
 31
0.0
  0
LINE
  5
3A8
100
AcDbEntity
  8
LAY-1
  6
CONTINUOUS
 62
     7
100
AcDbLine
 10
1497.59599
 20
899.816758
 30
0.0
 11
1506.36703
 21
899.816758
 31
0.0
  0
ARC
  5
3A9
100
AcDbEntity
  8
LAY-1
  6
CONTINUOUS
 62
     7
100
AcDbCircle
 10
1497.59599
 20
904.816758
 30
0.0
 40
5.0
100
AcDbArc
 50
180.0
 51
270.0
  0
ARC
  5
3AA
100
AcDbEntity
  8
LAY-1
  6
CONTINUOUS
 62
     7
100
AcDbCircle
 10
1506.36703
 20
904.816758
 30
0.0
 40
5.0
100
AcDbArc
 50
270.0
 51
1.00017
  0
LINE
  5
3AB
100
AcDbEntity
  8
LAY-1
  6
CONTINUOUS
 62
     7
100
AcDbLine
 10
1497.59599
 20
711.816858
 30
0.0
 11
1506.36703
 21
711.816858
 31
0.0
  0
ARC
  5
3AC
100
AcDbEntity
  8
LAY-1
  6
CONTINUOUS
 62
     7
100
AcDbCircle
 10
1506.36703
 20
706.816858
 30
0.0
 40
5.0
100
AcDbArc
 50
358.99984
 51
90.0
  0
ARC
  5
3AD
100
AcDbEntity
  8
LAY-1
  6
CONTINUOUS
 62
     7
100
AcDbCircle
 10
1497.59599
 20
706.816858
 30
0.0
 40
5.0
100
AcDbArc
 50
90.0
 51
180.0
  0
LINE
  5
3AE
100
AcDbEntity
  8
LAY-1
  6
CONTINUOUS
 62
     7
100
AcDbLine
 10
1492.59592
 20
658.817058
 30
0.0
 11
1492.59592
 21
706.816858
 31
0.0
  0
LINE
  5
3AF
100
AcDbEntity
  8
LAY-1
  6
CONTINUOUS
 62
     7
100
AcDbLine
 10
1428.95632
 20
660.816758
 30
0.0
 11
1428.95632
 21
681.461858
 31
0.0
  0
LINE
  5
3B0
100
AcDbEntity
  8
LAY-1
  6
CONTINUOUS
 62
     7
100
AcDbLine
 10
1365.25351
 20
679.237258
 30
0.0
 11
1427.362836
 21
681.406188
 31
0.0
  0
LINE
  5
3B1
100
AcDbEntity
  8
LAY-1
  6
CONTINUOUS
 62
     7
100
AcDbLine
 10
1365.25361
 20
932.396358
 30
0.0
 11
1426.57451
 21
930.255158
 31
0.0
  0
LINE
  5
3B2
100
AcDbEntity
  8
LAY-1
  6
CONTINUOUS
 62
     7
100
AcDbLine
 10
1428.95632
 20
950.816758
 30
0.0
 11
1428.95632
 21
930.171958
 31
0.0
  0
LINE
  5
3B3
100
AcDbEntity
  8
LAY-1
  6
CONTINUOUS
 62
     7
100
AcDbLine
 10
1466.23559
 20
950.816758
 30
0.0
 11
1466.23559
 21
888.345458
 31
0.0
  0
LINE
  5
3B4
100
AcDbEntity
  8
LAY-1
  6
CONTINUOUS
 62
     7
100
AcDbLine
 10
1492.59592
 20
950.816758
 30
0.0
 11
1492.59592
 21
904.816758
 31
0.0
  0
LINE
  5
3B5
100
AcDbEntity
  8
LAY-1
  6
CONTINUOUS
 62
     7
100
AcDbLine
 10
1402.595959
 20
680.5413
 30
0.0
 11
1402.595959
 21
660.816758
 31
0.0
  0
LINE
  5
3B6
100
AcDbEntity
  8
LAY-1
  6
CONTINUOUS
 62
     7
100
AcDbLine
 10
1402.595959
 20
931.09244
 30
0.0
 11
1402.595959
 21
950.816758
 31
0.0
  0
ARC
  5
3B7
100
AcDbEntity
  8
LAY-1
  6
CONTINUOUS
 62
     7
100
AcDbCircle
 10
1365.539669
 20
935.394531
 30
0.0
 40
3.0
100
AcDbArc
 50
180.0
 51
268.0
  0
ARC
  5
3B8
100
AcDbEntity
  8
LAY-1
  6
CONTINUOUS
 62
     7
100
AcDbCircle
 10
1365.539669
 20
676.25183
 30
0.0
 40
3.0
100
AcDbArc
 50
92.0
 51
180.0
  0
LINE
  5
3B9
100
AcDbEntity
  8
LAY-1
  6
CONTINUOUS
 62
     7
100
AcDbLine
 10
1513.195959
 20
919.816758
 30
0.0
 11
1513.195959
 21
805.816758
 31
0.0
  0
LINE
  5
3BA
100
AcDbEntity
  8
LAY-1
  6
CONTINUOUS
 62
     7
100
AcDbLine
 10
1513.195959
 20
691.816758
 30
0.0
 11
1513.195959
 21
805.816758
 31
0.0
  0
ARC
  5
3BB
100
AcDbEntity
  8
LAY-1
  6
CONTINUOUS
 62
     7
100
AcDbCircle
 10
1341.055152
 20
906.560991
 30
0.0
 40
20.0
100
AcDbArc
 50
115.338144
 51
130.0
  0
ARC
  5
3BC
100
AcDbEntity
  8
LAY-1
  6
CONTINUOUS
 62
     7
100
AcDbCircle
 10
1341.055152
 20
705.072525
 30
0.0
 40
20.0
100
AcDbArc
 50
230.0
 51
244.661856
  0
LINE
  5
3BD
100
AcDbEntity
  8
LAY-1
  6
CONTINUOUS
 62
     7
100
AcDbLine
 10
1270.312331
 20
738.324655
 30
0.0
 11
1328.1994
 21
689.751637
 31
0.0
  0
LINE
  5
3BE
100
AcDbEntity
  8
LAY-1
  6
CONTINUOUS
 62
     7
100
AcDbLine
 10
1512.19596
 20
893.425958
 30
0.0
 11
1512.19596
 21
900.072958
 31
0.0
  0
LINE
  5
3BF
100
AcDbEntity
  8
LAY-1
  6
CONTINUOUS
 62
     7
100
AcDbLine
 10
1512.87246
 20
892.749458
 30
0.0
 11
1512.19596
 21
893.425958
 31
0.0
  0
LINE
  5
3C0
100
AcDbEntity
  8
LAY-1
  6
CONTINUOUS
 62
     7
100
AcDbLine
 10
1513.09596
 20
892.749458
 30
0.0
 11
1512.87246
 21
892.749458
 31
0.0
  0
LINE
  5
3C1
100
AcDbEntity
  8
LAY-1
  6
CONTINUOUS
 62
     7
100
AcDbLine
 10
1512.19596
 20
900.072958
 30
0.0
 11
1512.87246
 21
900.749458
 31
0.0
  0
LINE
  5
3C2
100
AcDbEntity
  8
LAY-1
  6
CONTINUOUS
 62
     7
100
AcDbLine
 10
1513.09596
 20
900.749458
 30
0.0
 11
1512.87246
 21
900.749458
 31
0.0
  0
LINE
  5
3C3
100
AcDbEntity
  8
LAY-1
  6
CONTINUOUS
 62
     7
100
AcDbLine
 10
1512.87246
 20
900.749458
 30
0.0
 11
1512.87246
 21
892.749458
 31
0.0
  0
LINE
  5
3C4
100
AcDbEntity
  8
LAY-1
  6
CONTINUOUS
 62
     7
100
AcDbLine
 10
1512.19596
 20
802.493258
 30
0.0
 11
1512.19596
 21
809.140258
 31
0.0
  0
LINE
  5
3C5
100
AcDbEntity
  8
LAY-1
  6
CONTINUOUS
 62
     7
100
AcDbLine
 10
1512.87246
 20
801.816758
 30
0.0
 11
1512.19596
 21
802.493258
 31
0.0
  0
LINE
  5
3C6
100
AcDbEntity
  8
LAY-1
  6
CONTINUOUS
 62
     7
100
AcDbLine
 10
1513.09596
 20
801.816758
 30
0.0
 11
1512.87246
 21
801.816758
 31
0.0
  0
LINE
  5
3C7
100
AcDbEntity
  8
LAY-1
  6
CONTINUOUS
 62
     7
100
AcDbLine
 10
1512.19596
 20
809.140258
 30
0.0
 11
1512.87246
 21
809.816758
 31
0.0
  0
LINE
  5
3C8
100
AcDbEntity
  8
LAY-1
  6
CONTINUOUS
 62
     7
100
AcDbLine
 10
1513.09596
 20
809.816758
 30
0.0
 11
1512.87246
 21
809.816758
 31
0.0
  0
LINE
  5
3C9
100
AcDbEntity
  8
LAY-1
  6
CONTINUOUS
 62
     7
100
AcDbLine
 10
1512.87246
 20
809.816758
 30
0.0
 11
1512.87246
 21
801.816758
 31
0.0
  0
LINE
  5
3CA
100
AcDbEntity
  8
LAY-1
  6
CONTINUOUS
 62
     7
100
AcDbLine
 10
1512.19596
 20
711.560558
 30
0.0
 11
1512.19596
 21
718.207558
 31
0.0
  0
LINE
  5
3CB
100
AcDbEntity
  8
LAY-1
  6
CONTINUOUS
 62
     7
100
AcDbLine
 10
1512.87246
 20
710.884058
 30
0.0
 11
1512.19596
 21
711.560558
 31
0.0
  0
LINE
  5
3CC
100
AcDbEntity
  8
LAY-1
  6
CONTINUOUS
 62
     7
100
AcDbLine
 10
1513.09596
 20
710.884058
 30
0.0
 11
1512.87246
 21
710.884058
 31
0.0
  0
LINE
  5
3CD
100
AcDbEntity
  8
LAY-1
  6
CONTINUOUS
 62
     7
100
AcDbLine
 10
1512.19596
 20
718.207558
 30
0.0
 11
1512.87246
 21
718.884058
 31
0.0
  0
LINE
  5
3CE
100
AcDbEntity
  8
LAY-1
  6
CONTINUOUS
 62
     7
100
AcDbLine
 10
1513.09596
 20
718.884058
 30
0.0
 11
1512.87246
 21
718.884058
 31
0.0
  0
LINE
  5
3CF
100
AcDbEntity
  8
LAY-1
  6
CONTINUOUS
 62
     7
100
AcDbLine
 10
1512.87246
 20
718.884058
 30
0.0
 11
1512.87246
 21
710.884058
 31
0.0
  0
LINE
  5
3D0
100
AcDbEntity
  8
LAY-1
  6
CONTINUOUS
 62
     7
100
AcDbLine
 10
1340.095959
 20
805.816758
 30
0.0
 11
1340.095959
 21
667.816758
 31
0.0
  0
LINE
  5
3D1
100
AcDbEntity
  8
LAY-1
  6
CONTINUOUS
 62
     7
100
AcDbLine
 10
1340.095959
 20
805.816758
 30
0.0
 11
1340.095959
 21
943.816758
 31
0.0
  0
LINE
  5
3D2
100
AcDbEntity
  8
LAY-1
  6
CONTINUOUS
 62
     7
100
AcDbLine
 10
1362.539669
 20
667.816758
 30
0.0
 11
1362.539669
 21
784.837974
 31
0.0
  0
ARC
  5
3D3
100
AcDbEntity
  8
LAY-1
  6
CONTINUOUS
 62
     7
100
AcDbCircle
 10
1367.539669
 20
784.837974
 30
0.0
 40
5.0
100
AcDbArc
 50
92.575655
 51
180.0
  0
LINE
  5
3D4
100
AcDbEntity
  8
LAY-1
  6
CONTINUOUS
 62
     7
100
AcDbLine
 10
1362.539669
 20
943.816758
 30
0.0
 11
1362.539669
 21
826.795543
 31
0.0
  0
ARC
  5
3D5
100
AcDbEntity
  8
LAY-1
  6
CONTINUOUS
 62
     7
100
AcDbCircle
 10
1366.59596
 20
805.816758
 30
0.0
 40
16.0
100
AcDbArc
 50
272.575655
 51
87.424345
  0
ARC
  5
3D6
100
AcDbEntity
  8
LAY-1
  6
CONTINUOUS
 62
     7
100
AcDbCircle
 10
1367.539669
 20
826.795543
 30
0.0
 40
5.0
100
AcDbArc
 50
180.0
 51
267.424345
  0
LINE
  5
3D7
100
AcDbEntity
  8
LAY-1
  6
CONTINUOUS
 62
     7
100
AcDbLine
 10
1241.595959
 20
804.369833
 30
0.0
 11
1250.595959
 21
804.369833
 31
0.0
  0
LINE
  5
3D8
100
AcDbEntity
  8
LAY-1
  6
CONTINUOUS
 62
     7
100
AcDbLine
 10
1241.595959
 20
807.263684
 30
0.0
 11
1250.595959
 21
807.263684
 31
0.0
  0
LINE
  5
3D9
100
AcDbEntity
  8
LAY-1
  6
CONTINUOUS
 62
     7
100
AcDbLine
 10
1250.595959
 20
824.527135
 30
0.0
 11
1241.595959
 21
824.527135
 31
0.0
  0
LINE
  5
3DA
100
AcDbEntity
  8
LAY-1
  6
CONTINUOUS
 62
     7
100
AcDbLine
 10
1250.595959
 20
787.106381
 30
0.0
 11
1241.595959
 21
787.106381
 31
0.0
  0
ARC
  5
3DB
100
AcDbEntity
  8
LAY-1
  6
CONTINUOUS
 62
     7
100
AcDbCircle
 10
852.0
 20
1202.022501
 30
0.0
 40
2.0
100
AcDbArc
 50
90.0
 51
180.0
  0
ARC
  5
3DC
100
AcDbEntity
  8
LAY-1
  6
CONTINUOUS
 62
     7
100
AcDbCircle
 10
1128.0
 20
1202.022501
 30
0.0
 40
2.0
100
AcDbArc
 50
0.0
 51
90.0
  0
ARC
  5
3DD
100
AcDbEntity
  8
LAY-1
  6
CONTINUOUS
 62
     7
100
AcDbCircle
 10
860.343112
 20
1207.022501
 30
0.0
 40
3.0
100
AcDbArc
 50
270.0
 51
358.0
  0
ARC
  5
3DE
100
AcDbEntity
  8
LAY-1
  6
CONTINUOUS
 62
     7
100
AcDbCircle
 10
1119.656888
 20
1207.022501
 30
0.0
 40
3.0
100
AcDbArc
 50
182.0
 51
270.0
  0
ARC
  5
3DF
100
AcDbEntity
  8
LAY-1
  6
CONTINUOUS
 62
     7
100
AcDbCircle
 10
886.0
 20
1347.122501
 30
0.0
 40
10.0
100
AcDbArc
 50
0.0
 51
90.0
  0
LINE
  5
3E0
100
AcDbEntity
  8
LAY-1
  6
CONTINUOUS
 62
     7
100
AcDbLine
 10
947.0
 20
1101.762151
 30
0.0
 11
947.0
 21
1103.762151
 31
0.0
  0
LINE
  5
3E1
100
AcDbEntity
  8
LAY-1
  6
CONTINUOUS
 62
     7
100
AcDbLine
 10
1033.0
 20
1101.762151
 30
0.0
 11
1033.0
 21
1103.762151
 31
0.0
  0
LINE
  5
3E2
100
AcDbEntity
  8
LAY-1
  6
CONTINUOUS
 62
     7
100
AcDbLine
 10
922.091034
 20
1114.478523
 30
0.0
 11
873.86773
 21
1171.948819
 31
0.0
  0
ARC
  5
3E3
100
AcDbEntity
  8
LAY-1
  6
CONTINUOUS
 62
     7
100
AcDbCircle
 10
945.072368
 20
1133.762151
 30
0.0
 40
30.0
100
AcDbArc
 50
220.0
 51
270.0
  0
LINE
  5
3E4
100
AcDbEntity
  8
LAY-1
  6
CONTINUOUS
 62
     7
100
AcDbLine
 10
1057.908966
 20
1114.478523
 30
0.0
 11
1106.13227
 21
1171.948819
 31
0.0
  0
ARC
  5
3E5
100
AcDbEntity
  8
LAY-1
  6
CONTINUOUS
 62
     7
100
AcDbCircle
 10
1034.927632
 20
1133.762151
 30
0.0
 40
30.0
100
AcDbArc
 50
270.0
 51
320.0
  0
LINE
  5
3E6
100
AcDbEntity
  8
LAY-1
  6
CONTINUOUS
 62
     7
100
AcDbLine
 10
947.0
 20
1100.762151
 30
0.0
 11
947.0
 21
1101.762151
 31
0.0
  0
LINE
  5
3E7
100
AcDbEntity
  8
LAY-1
  6
CONTINUOUS
 62
     7
100
AcDbLine
 10
1033.0
 20
1101.762151
 30
0.0
 11
1033.0
 21
1100.762151
 31
0.0
  0
LINE
  5
3E8
100
AcDbEntity
  8
LAY-1
  6
CONTINUOUS
 62
     7
100
AcDbLine
 10
947.0
 20
1100.762151
 30
0.0
 11
990.0
 21
1100.762151
 31
0.0
  0
LINE
  5
3E9
100
AcDbEntity
  8
LAY-1
  6
CONTINUOUS
 62
     7
100
AcDbLine
 10
990.0
 20
1101.762151
 30
0.0
 11
946.947619
 21
1101.762151
 31
0.0
  0
LINE
  5
3EA
100
AcDbEntity
  8
LAY-1
  6
CONTINUOUS
 62
     7
100
AcDbLine
 10
1033.0
 20
1100.762151
 30
0.0
 11
990.0
 21
1100.762151
 31
0.0
  0
LINE
  5
3EB
100
AcDbEntity
  8
LAY-1
  6
CONTINUOUS
 62
     7
100
AcDbLine
 10
1033.052381
 20
1101.762151
 30
0.0
 11
990.0
 21
1101.762151
 31
0.0
  0
LINE
  5
3EC
100
AcDbEntity
  8
LAY-1
  6
CONTINUOUS
 62
     7
100
AcDbLine
 10
1034.927632
 20
1103.762151
 30
0.0
 11
990.0
 21
1103.762151
 31
0.0
  0
LINE
  5
3ED
100
AcDbEntity
  8
LAY-1
  6
CONTINUOUS
 62
     7
100
AcDbLine
 10
990.0
 20
1103.762151
 30
0.0
 11
945.072368
 21
1103.762151
 31
0.0
  0
LINE
  5
3EE
100
AcDbEntity
  8
LAY-1
  6
CONTINUOUS
 62
     7
100
AcDbLine
 10
1128.0
 20
1204.022501
 30
0.0
 11
990.0
 21
1204.022501
 31
0.0
  0
LINE
  5
3EF
100
AcDbEntity
  8
LAY-1
  6
CONTINUOUS
 62
     7
100
AcDbLine
 10
852.0
 20
1204.022501
 30
0.0
 11
990.0
 21
1204.022501
 31
0.0
  0
LINE
  5
3F0
100
AcDbEntity
  8
LAY-1
  6
CONTINUOUS
 62
     7
100
AcDbLine
 10
1116.658715
 20
1206.917803
 30
0.0
 11
1116.4037
 21
1214.220491
 31
0.0
  0
LINE
  5
3F1
100
AcDbEntity
  8
LAY-1
  6
CONTINUOUS
 62
     7
100
AcDbLine
 10
863.341285
 20
1206.917803
 30
0.0
 11
863.5963
 21
1214.220491
 31
0.0
  0
LINE
  5
3F2
100
AcDbEntity
  8
LAY-1
  6
CONTINUOUS
 62
     7
100
AcDbLine
 10
990.0
 20
1184.022501
 30
0.0
 11
850.5
 21
1184.022501
 31
0.0
  0
LINE
  5
3F3
100
AcDbEntity
  8
LAY-1
  6
CONTINUOUS
 62
     7
100
AcDbLine
 10
990.0
 20
1184.022501
 30
0.0
 11
1129.5
 21
1184.022501
 31
0.0
  0
LINE
  5
3F4
100
AcDbEntity
  8
LAY-1
  6
CONTINUOUS
 62
     7
100
AcDbLine
 10
935.52336
 20
1236.271969
 30
0.0
 11
882.537398
 21
1233.495092
 31
0.0
  0
ARC
  5
3F5
100
AcDbEntity
  8
LAY-1
  6
CONTINUOUS
 62
     7
100
AcDbCircle
 10
883.584117
 20
1213.522501
 30
0.0
 40
20.0
100
AcDbArc
 50
93.0
 51
178.0
  0
ARC
  5
3F6
100
AcDbEntity
  8
LAY-1
  6
CONTINUOUS
 62
     7
100
AcDbCircle
 10
886.0
 20
1243.690283
 30
0.0
 40
10.0
100
AcDbArc
 50
273.0
 51
0.0
  0
LINE
  5
3F7
100
AcDbEntity
  8
LAY-1
  6
CONTINUOUS
 62
     7
100
AcDbLine
 10
1044.47664
 20
1236.271969
 30
0.0
 11
1097.462602
 21
1233.495092
 31
0.0
  0
ARC
  5
3F8
100
AcDbEntity
  8
LAY-1
  6
CONTINUOUS
 62
     7
100
AcDbCircle
 10
1094.0
 20
1243.690283
 30
0.0
 40
10.0
100
AcDbArc
 50
180.0
 51
267.0
  0
ARC
  5
3F9
100
AcDbEntity
  8
LAY-1
  6
CONTINUOUS
 62
     7
100
AcDbCircle
 10
1096.415883
 20
1213.522501
 30
0.0
 40
20.0
100
AcDbArc
 50
2.0
 51
87.0
  0
LINE
  5
3FA
100
AcDbEntity
  8
LAY-1
  6
CONTINUOUS
 62
     7
100
AcDbLine
 10
1084.0
 20
1347.122501
 30
0.0
 11
1084.0
 21
1243.690283
 31
0.0
  0
LINE
  5
3FB
100
AcDbEntity
  8
LAY-1
  6
CONTINUOUS
 62
     7
100
AcDbLine
 10
850.0
 20
1184.522501
 30
0.0
 11
850.0
 21
1202.022501
 31
0.0
  0
LINE
  5
3FC
100
AcDbEntity
  8
LAY-1
  6
CONTINUOUS
 62
     7
100
AcDbLine
 10
850.0
 20
1193.022501
 30
0.0
 11
990.0
 21
1193.022501
 31
0.0
  0
LINE
  5
3FD
100
AcDbEntity
  8
LAY-1
  6
CONTINUOUS
 62
     7
100
AcDbLine
 10
1130.0
 20
1193.022501
 30
0.0
 11
990.0
 21
1193.022501
 31
0.0
  0
ARC
  5
3FE
100
AcDbEntity
  8
LAY-1
  6
CONTINUOUS
 62
     7
100
AcDbCircle
 10
1129.5
 20
1184.522501
 30
0.0
 40
0.5
100
AcDbArc
 50
270.0
 51
0.0
  0
LINE
  5
3FF
100
AcDbEntity
  8
LAY-1
  6
CONTINUOUS
 62
     7
100
AcDbLine
 10
1104.100016
 20
1184.022501
 30
0.0
 11
1104.100016
 21
1182.422501
 31
0.0
  0
LINE
  5
400
100
AcDbEntity
  8
LAY-1
  6
CONTINUOUS
 62
     7
100
AcDbLine
 10
1104.100016
 20
1182.422501
 30
0.0
 11
1117.956422
 21
1182.422501
 31
0.0
  0
LINE
  5
401
100
AcDbEntity
  8
LAY-1
  6
CONTINUOUS
 62
     7
100
AcDbLine
 10
1117.956422
 20
1182.422501
 30
0.0
 11
1117.956422
 21
1184.022501
 31
0.0
  0
LINE
  5
402
100
AcDbEntity
  8
LAY-1
  6
CONTINUOUS
 62
     7
100
AcDbLine
 10
1033.203326
 20
1184.022501
 30
0.0
 11
1033.203326
 21
1182.422501
 31
0.0
  0
LINE
  5
403
100
AcDbEntity
  8
LAY-1
  6
CONTINUOUS
 62
     7
100
AcDbLine
 10
1033.203326
 20
1182.422501
 30
0.0
 11
1047.059733
 21
1182.422501
 31
0.0
  0
LINE
  5
404
100
AcDbEntity
  8
LAY-1
  6
CONTINUOUS
 62
     7
100
AcDbLine
 10
1047.059733
 20
1182.422501
 30
0.0
 11
1047.059733
 21
1184.022501
 31
0.0
  0
ARC
  5
405
100
AcDbEntity
  8
LAY-1
  6
CONTINUOUS
 62
     7
100
AcDbCircle
 10
1090.811381
 20
1184.804571
 30
0.0
 40
20.0
100
AcDbArc
 50
315.0
 51
336.789927
  0
LINE
  5
406
100
AcDbEntity
  8
LAY-1
  6
CONTINUOUS
 62
     7
100
AcDbLine
 10
875.899984
 20
1184.022501
 30
0.0
 11
875.899984
 21
1182.422501
 31
0.0
  0
LINE
  5
407
100
AcDbEntity
  8
LAY-1
  6
CONTINUOUS
 62
     7
100
AcDbLine
 10
875.899984
 20
1182.422501
 30
0.0
 11
862.043578
 21
1182.422501
 31
0.0
  0
LINE
  5
408
100
AcDbEntity
  8
LAY-1
  6
CONTINUOUS
 62
     7
100
AcDbLine
 10
862.043578
 20
1182.422501
 30
0.0
 11
862.043578
 21
1184.022501
 31
0.0
  0
LINE
  5
409
100
AcDbEntity
  8
LAY-1
  6
CONTINUOUS
 62
     7
100
AcDbLine
 10
946.796674
 20
1184.022501
 30
0.0
 11
946.796674
 21
1182.422501
 31
0.0
  0
LINE
  5
40A
100
AcDbEntity
  8
LAY-1
  6
CONTINUOUS
 62
     7
100
AcDbLine
 10
946.796674
 20
1182.422501
 30
0.0
 11
932.940267
 21
1182.422501
 31
0.0
  0
LINE
  5
40B
100
AcDbEntity
  8
LAY-1
  6
CONTINUOUS
 62
     7
100
AcDbLine
 10
932.940267
 20
1182.422501
 30
0.0
 11
932.940267
 21
1184.022501
 31
0.0
  0
ARC
  5
40C
100
AcDbEntity
  8
LAY-1
  6
CONTINUOUS
 62
     7
100
AcDbCircle
 10
889.188619
 20
1184.804571
 30
0.0
 40
20.0
100
AcDbArc
 50
203.210073
 51
220.0
  0
LINE
  5
40D
100
AcDbEntity
  8
LAY-1
  6
CONTINUOUS
 62
     7
100
AcDbLine
 10
876.0
 20
1367.122501
 30
0.0
 11
876.0
 21
1359.122501
 31
0.0
  0
ARC
  5
40E
100
AcDbEntity
  8
LAY-1
  6
CONTINUOUS
 62
     7
100
AcDbCircle
 10
878.0
 20
1359.122501
 30
0.0
 40
2.0
100
AcDbArc
 50
180.0
 51
270.0
  0
LINE
  5
40F
100
AcDbEntity
  8
LAY-1
  6
CONTINUOUS
 62
     7
100
AcDbLine
 10
876.0
 20
1367.122501
 30
0.0
 11
876.0
 21
1372.622501
 31
0.0
  0
LINE
  5
410
100
AcDbEntity
  8
LAY-1
  6
CONTINUOUS
 62
     7
100
AcDbLine
 10
1104.0
 20
1367.122501
 30
0.0
 11
1104.0
 21
1359.122501
 31
0.0
  0
ARC
  5
411
100
AcDbEntity
  8
LAY-1
  6
CONTINUOUS
 62
     7
100
AcDbCircle
 10
1102.0
 20
1359.122501
 30
0.0
 40
2.0
100
AcDbArc
 50
270.0
 51
0.0
  0
LINE
  5
412
100
AcDbEntity
  8
LAY-1
  6
CONTINUOUS
 62
     7
100
AcDbLine
 10
1104.0
 20
1367.122501
 30
0.0
 11
1104.0
 21
1372.622501
 31
0.0
  0
LINE
  5
413
100
AcDbEntity
  8
LAY-1
  6
CONTINUOUS
 62
     7
100
AcDbLine
 10
906.017156
 20
1121.522501
 30
0.0
 11
882.0
 21
1121.522501
 31
0.0
  0
ARC
  5
414
100
AcDbEntity
  8
LAY-1
  6
CONTINUOUS
 62
     7
100
AcDbCircle
 10
906.017156
 20
1122.022501
 30
0.0
 40
0.5
100
AcDbArc
 50
270.0
 51
358.0
  0
LINE
  5
415
100
AcDbEntity
  8
LAY-1
  6
CONTINUOUS
 62
     7
100
AcDbLine
 10
906.53553
 20
1122.539951
 30
0.0
 11
906.516851
 21
1122.005052
 31
0.0
  0
ARC
  5
416
100
AcDbEntity
  8
LAY-1
  6
CONTINUOUS
 62
     7
100
AcDbCircle
 10
907.035226
 20
1122.522501
 30
0.0
 40
0.5
100
AcDbArc
 50
90.0
 51
178.0
  0
LINE
  5
417
100
AcDbEntity
  8
LAY-1
  6
CONTINUOUS
 62
     7
100
AcDbLine
 10
857.982844
 20
1121.522501
 30
0.0
 11
882.0
 21
1121.522501
 31
0.0
  0
ARC
  5
418
100
AcDbEntity
  8
LAY-1
  6
CONTINUOUS
 62
     7
100
AcDbCircle
 10
857.982844
 20
1122.022501
 30
0.0
 40
0.5
100
AcDbArc
 50
182.0
 51
270.0
  0
LINE
  5
419
100
AcDbEntity
  8
LAY-1
  6
CONTINUOUS
 62
     7
100
AcDbLine
 10
857.461876
 20
1122.614237
 30
0.0
 11
857.483149
 21
1122.005052
 31
0.0
  0
ARC
  5
41A
100
AcDbEntity
  8
LAY-1
  6
CONTINUOUS
 62
     7
100
AcDbCircle
 10
856.96218
 20
1122.596788
 30
0.0
 40
0.5
100
AcDbArc
 50
2.0
 51
80.572412
  0
ARC
  5
41B
100
AcDbEntity
  8
LAY-1
  6
CONTINUOUS
 62
     7
100
AcDbCircle
 10
857.863086
 20
1128.022501
 30
0.0
 40
5.0
100
AcDbArc
 50
183.0
 51
260.572412
  0
ARC
  5
41C
100
AcDbEntity
  8
LAY-1
  6
CONTINUOUS
 62
     7
100
AcDbCircle
 10
882.098441
 20
1104.671712
 30
0.0
 40
32.377976
100
AcDbArc
 50
52.742518
 51
133.283057
  0
ARC
  5
41D
100
AcDbEntity
  8
LAY-1
  6
CONTINUOUS
 62
     7
100
AcDbCircle
 10
912.556019
 20
1118.022501
 30
0.0
 40
5.0
100
AcDbArc
 50
40.0
 51
90.0
  0
LINE
  5
41E
100
AcDbEntity
  8
LAY-1
  6
CONTINUOUS
 62
     7
100
AcDbLine
 10
912.556019
 20
1123.022501
 30
0.0
 11
907.035226
 21
1123.022501
 31
0.0
  0
LINE
  5
41F
100
AcDbEntity
  8
LAY-1
  6
CONTINUOUS
 62
     7
100
AcDbLine
 10
852.974466
 20
1127.7663
 30
0.0
 11
850.0
 21
1184.522501
 31
0.0
  0
LINE
  5
420
100
AcDbEntity
  8
LAY-1
  6
CONTINUOUS
 62
     7
100
AcDbLine
 10
862.221781
 20
1182.422501
 30
0.0
 11
862.221781
 21
1178.922501
 31
0.0
  0
ARC
  5
421
100
AcDbEntity
  8
LAY-1
  6
CONTINUOUS
 62
     7
100
AcDbCircle
 10
864.721781
 20
1178.922501
 30
0.0
 40
2.5
100
AcDbArc
 50
180.0
 51
270.0
  0
LINE
  5
422
100
AcDbEntity
  8
LAY-1
  6
CONTINUOUS
 62
     7
100
AcDbLine
 10
873.221781
 20
1176.422501
 30
0.0
 11
864.721781
 21
1176.422501
 31
0.0
  0
LINE
  5
423
100
AcDbEntity
  8
LAY-1
  6
CONTINUOUS
 62
     7
100
AcDbLine
 10
875.721781
 20
1182.422501
 30
0.0
 11
875.721781
 21
1178.922501
 31
0.0
  0
ARC
  5
424
100
AcDbEntity
  8
LAY-1
  6
CONTINUOUS
 62
     7
100
AcDbCircle
 10
873.221781
 20
1178.922501
 30
0.0
 40
2.5
100
AcDbArc
 50
270.0
 51
0.0
  0
LINE
  5
425
100
AcDbEntity
  8
LAY-1
  6
CONTINUOUS
 62
     7
100
AcDbLine
 10
868.971781
 20
1182.422501
 30
0.0
 11
875.721781
 21
1182.422501
 31
0.0
  0
LINE
  5
426
100
AcDbEntity
  8
LAY-1
  6
CONTINUOUS
 62
     7
100
AcDbLine
 10
868.971781
 20
1182.422501
 30
0.0
 11
862.221781
 21
1182.422501
 31
0.0
  0
LINE
  5
427
100
AcDbEntity
  8
LAY-1
  6
CONTINUOUS
 62
     7
100
AcDbLine
 10
1104.278219
 20
1182.422501
 30
0.0
 11
1104.278219
 21
1178.922501
 31
0.0
  0
ARC
  5
428
100
AcDbEntity
  8
LAY-1
  6
CONTINUOUS
 62
     7
100
AcDbCircle
 10
1106.778219
 20
1178.922501
 30
0.0
 40
2.5
100
AcDbArc
 50
180.0
 51
270.0
  0
LINE
  5
429
100
AcDbEntity
  8
LAY-1
  6
CONTINUOUS
 62
     7
100
AcDbLine
 10
1115.278219
 20
1176.422501
 30
0.0
 11
1106.778219
 21
1176.422501
 31
0.0
  0
LINE
  5
42A
100
AcDbEntity
  8
LAY-1
  6
CONTINUOUS
 62
     7
100
AcDbLine
 10
1117.778219
 20
1182.422501
 30
0.0
 11
1117.778219
 21
1178.922501
 31
0.0
  0
ARC
  5
42B
100
AcDbEntity
  8
LAY-1
  6
CONTINUOUS
 62
     7
100
AcDbCircle
 10
1115.278219
 20
1178.922501
 30
0.0
 40
2.5
100
AcDbArc
 50
270.0
 51
0.0
  0
LINE
  5
42C
100
AcDbEntity
  8
LAY-1
  6
CONTINUOUS
 62
     7
100
AcDbLine
 10
1111.028219
 20
1182.422501
 30
0.0
 11
1117.778219
 21
1182.422501
 31
0.0
  0
LINE
  5
42D
100
AcDbEntity
  8
LAY-1
  6
CONTINUOUS
 62
     7
100
AcDbLine
 10
1111.028219
 20
1182.422501
 30
0.0
 11
1104.278219
 21
1182.422501
 31
0.0
  0
LINE
  5
42E
100
AcDbEntity
  8
LAY-1
  6
CONTINUOUS
 62
     7
100
AcDbLine
 10
1033.38153
 20
1182.422501
 30
0.0
 11
1033.38153
 21
1178.922501
 31
0.0
  0
ARC
  5
42F
100
AcDbEntity
  8
LAY-1
  6
CONTINUOUS
 62
     7
100
AcDbCircle
 10
1035.88153
 20
1178.922501
 30
0.0
 40
2.5
100
AcDbArc
 50
180.0
 51
270.0
  0
LINE
  5
430
100
AcDbEntity
  8
LAY-1
  6
CONTINUOUS
 62
     7
100
AcDbLine
 10
1044.38153
 20
1176.422501
 30
0.0
 11
1035.88153
 21
1176.422501
 31
0.0
  0
LINE
  5
431
100
AcDbEntity
  8
LAY-1
  6
CONTINUOUS
 62
     7
100
AcDbLine
 10
1046.88153
 20
1182.422501
 30
0.0
 11
1046.88153
 21
1178.922501
 31
0.0
  0
ARC
  5
432
100
AcDbEntity
  8
LAY-1
  6
CONTINUOUS
 62
     7
100
AcDbCircle
 10
1044.38153
 20
1178.922501
 30
0.0
 40
2.5
100
AcDbArc
 50
270.0
 51
0.0
  0
LINE
  5
433
100
AcDbEntity
  8
LAY-1
  6
CONTINUOUS
 62
     7
100
AcDbLine
 10
1040.13153
 20
1182.422501
 30
0.0
 11
1046.88153
 21
1182.422501
 31
0.0
  0
LINE
  5
434
100
AcDbEntity
  8
LAY-1
  6
CONTINUOUS
 62
     7
100
AcDbLine
 10
1040.13153
 20
1182.422501
 30
0.0
 11
1033.38153
 21
1182.422501
 31
0.0
  0
LINE
  5
435
100
AcDbEntity
  8
LAY-1
  6
CONTINUOUS
 62
     7
100
AcDbLine
 10
933.11847
 20
1182.422501
 30
0.0
 11
933.11847
 21
1178.922501
 31
0.0
  0
ARC
  5
436
100
AcDbEntity
  8
LAY-1
  6
CONTINUOUS
 62
     7
100
AcDbCircle
 10
935.61847
 20
1178.922501
 30
0.0
 40
2.5
100
AcDbArc
 50
180.0
 51
270.0
  0
LINE
  5
437
100
AcDbEntity
  8
LAY-1
  6
CONTINUOUS
 62
     7
100
AcDbLine
 10
944.11847
 20
1176.422501
 30
0.0
 11
935.61847
 21
1176.422501
 31
0.0
  0
LINE
  5
438
100
AcDbEntity
  8
LAY-1
  6
CONTINUOUS
 62
     7
100
AcDbLine
 10
946.61847
 20
1182.422501
 30
0.0
 11
946.61847
 21
1178.922501
 31
0.0
  0
ARC
  5
439
100
AcDbEntity
  8
LAY-1
  6
CONTINUOUS
 62
     7
100
AcDbCircle
 10
944.11847
 20
1178.922501
 30
0.0
 40
2.5
100
AcDbArc
 50
270.0
 51
0.0
  0
LINE
  5
43A
100
AcDbEntity
  8
LAY-1
  6
CONTINUOUS
 62
     7
100
AcDbLine
 10
939.86847
 20
1182.422501
 30
0.0
 11
946.61847
 21
1182.422501
 31
0.0
  0
LINE
  5
43B
100
AcDbEntity
  8
LAY-1
  6
CONTINUOUS
 62
     7
100
AcDbLine
 10
939.86847
 20
1182.422501
 30
0.0
 11
933.11847
 21
1182.422501
 31
0.0
  0
LINE
  5
43C
100
AcDbEntity
  8
LAY-1
  6
CONTINUOUS
 62
     7
100
AcDbLine
 10
947.0
 20
1100.762151
 30
0.0
 11
951.5
 21
1100.762151
 31
0.0
  0
ARC
  5
43D
100
AcDbEntity
  8
LAY-1
  6
CONTINUOUS
 62
     7
100
AcDbCircle
 10
1031.982393
 20
1096.762151
 30
0.0
 40
1.0
100
AcDbArc
 50
270.0
 51
359.0
  0
LINE
  5
43E
100
AcDbEntity
  8
LAY-1
  6
CONTINUOUS
 62
     7
100
AcDbLine
 10
1033.017455
 20
1100.762151
 30
0.0
 11
1032.98224
 21
1096.744699
 31
0.0
  0
ARC
  5
43F
100
AcDbEntity
  8
LAY-1
  6
CONTINUOUS
 62
     7
100
AcDbCircle
 10
948.017607
 20
1096.762151
 30
0.0
 40
1.0
100
AcDbArc
 50
181.0
 51
270.0
  0
LINE
  5
440
100
AcDbEntity
  8
LAY-1
  6
CONTINUOUS
 62
     7
100
AcDbLine
 10
946.982545
 20
1100.762151
 30
0.0
 11
947.01776
 21
1096.744699
 31
0.0
  0
LINE
  5
441
100
AcDbEntity
  8
LAY-1
  6
CONTINUOUS
 62
     7
100
AcDbLine
 10
991.446926
 20
1085.762151
 30
0.0
 11
991.446926
 21
1094.762151
 31
0.0
  0
LINE
  5
442
100
AcDbEntity
  8
LAY-1
  6
CONTINUOUS
 62
     7
100
AcDbLine
 10
988.553074
 20
1085.762151
 30
0.0
 11
988.553074
 21
1094.762151
 31
0.0
  0
LINE
  5
443
100
AcDbEntity
  8
LAY-1
  6
CONTINUOUS
 62
     7
100
AcDbLine
 10
948.017607
 20
1095.762151
 30
0.0
 11
990.0
 21
1095.762151
 31
0.0
  0
ARC
  5
444
100
AcDbEntity
  8
LAY-1
  6
CONTINUOUS
 62
     7
100
AcDbCircle
 10
962.5
 20
1094.762151
 30
0.0
 40
1.0
100
AcDbArc
 50
0.0
 51
90.0
  0
ARC
  5
445
100
AcDbEntity
  8
LAY-1
  6
CONTINUOUS
 62
     7
100
AcDbCircle
 10
964.5
 20
1085.762151
 30
0.0
 40
1.0
100
AcDbArc
 50
180.0
 51
270.0
  0
LINE
  5
446
100
AcDbEntity
  8
LAY-1
  6
CONTINUOUS
 62
     7
100
AcDbLine
 10
990.0
 20
1084.762151
 30
0.0
 11
964.5
 21
1084.762151
 31
0.0
  0
LINE
  5
447
100
AcDbEntity
  8
LAY-1
  6
CONTINUOUS
 62
     7
100
AcDbLine
 10
963.5
 20
1085.762151
 30
0.0
 11
963.5
 21
1094.762151
 31
0.0
  0
LINE
  5
448
100
AcDbEntity
  8
LAY-1
  6
CONTINUOUS
 62
     7
100
AcDbLine
 10
1031.982393
 20
1095.762151
 30
0.0
 11
990.0
 21
1095.762151
 31
0.0
  0
ARC
  5
449
100
AcDbEntity
  8
LAY-1
  6
CONTINUOUS
 62
     7
100
AcDbCircle
 10
1017.5
 20
1094.762151
 30
0.0
 40
1.0
100
AcDbArc
 50
90.0
 51
180.0
  0
ARC
  5
44A
100
AcDbEntity
  8
LAY-1
  6
CONTINUOUS
 62
     7
100
AcDbCircle
 10
1015.5
 20
1085.762151
 30
0.0
 40
1.0
100
AcDbArc
 50
270.0
 51
0.0
  0
LINE
  5
44B
100
AcDbEntity
  8
LAY-1
  6
CONTINUOUS
 62
     7
100
AcDbLine
 10
990.0
 20
1084.762151
 30
0.0
 11
1015.5
 21
1084.762151
 31
0.0
  0
LINE
  5
44C
100
AcDbEntity
  8
LAY-1
  6
CONTINUOUS
 62
     7
100
AcDbLine
 10
1016.5
 20
1085.762151
 30
0.0
 11
1016.5
 21
1094.762151
 31
0.0
  0
ARC
  5
44D
100
AcDbEntity
  8
LAY-1
  6
CONTINUOUS
 62
     7
100
AcDbCircle
 10
850.5
 20
1184.522501
 30
0.0
 40
0.5
100
AcDbArc
 50
180.0
 51
270.0
  0
LINE
  5
44E
100
AcDbEntity
  8
LAY-1
  6
CONTINUOUS
 62
     7
100
AcDbLine
 10
850.0
 20
1184.022501
 30
0.0
 11
850.0
 21
1186.022501
 31
0.0
  0
POLYLINE
  5
44F
100
AcDbEntity
  8
LAY-1
  6
CONTINUOUS
 62
     7
100
AcDb2dPolyline
 66
     1
 10
0.0
 20
0.0
 30
0.0
 70
   128
  0
VERTEX
  5
450
100
AcDbEntity
  8
LAY-1
  6
CONTINUOUS
 62
     7
100
AcDbVertex
100
AcDb2dVertex
 10
971.36039
 20
1336.522501
 30
0.0
  0
VERTEX
  5
451
100
AcDbEntity
  8
LAY-1
  6
CONTINUOUS
 62
     7
100
AcDbVertex
100
AcDb2dVertex
 10
945.0
 20
1310.162112
 30
0.0
  0
VERTEX
  5
452
100
AcDbEntity
  8
LAY-1
  6
CONTINUOUS
 62
     7
100
AcDbVertex
100
AcDb2dVertex
 10
945.0
 20
1272.882891
 30
0.0
  0
VERTEX
  5
453
100
AcDbEntity
  8
LAY-1
  6
CONTINUOUS
 62
     7
100
AcDbVertex
100
AcDb2dVertex
 10
971.36039
 20
1246.522501
 30
0.0
  0
VERTEX
  5
454
100
AcDbEntity
  8
LAY-1
  6
CONTINUOUS
 62
     7
100
AcDbVertex
100
AcDb2dVertex
 10
1008.63961
 20
1246.522501
 30
0.0
  0
VERTEX
  5
455
100
AcDbEntity
  8
LAY-1
  6
CONTINUOUS
 62
     7
100
AcDbVertex
100
AcDb2dVertex
 10
1035.0
 20
1272.882891
 30
0.0
  0
VERTEX
  5
456
100
AcDbEntity
  8
LAY-1
  6
CONTINUOUS
 62
     7
100
AcDbVertex
100
AcDb2dVertex
 10
1035.0
 20
1310.162112
 30
0.0
  0
VERTEX
  5
457
100
AcDbEntity
  8
LAY-1
  6
CONTINUOUS
 62
     7
100
AcDbVertex
100
AcDb2dVertex
 10
1008.63961
 20
1336.522501
 30
0.0
  0
VERTEX
  5
458
100
AcDbEntity
  8
LAY-1
  6
CONTINUOUS
 62
     7
100
AcDbVertex
100
AcDb2dVertex
 10
971.36039
 20
1336.522501
 30
0.0
  0
SEQEND
  5
459
100
AcDbEntity
  8
LAY-1
  6
CONTINUOUS
 62
     7
  0
CIRCLE
  5
45A
100
AcDbEntity
  8
LAY-1
  6
CONTINUOUS
 62
     7
100
AcDbCircle
 10
990.0
 20
1291.522501
 30
0.0
 40
28.18654
  0
LINE
  5
45B
100
AcDbEntity
  8
LAY-1
  6
CONTINUOUS
 62
     7
100
AcDbLine
 10
945.0
 20
1272.882891
 30
0.0
 11
945.0
 21
1246.258264
 31
0.0
  0
ARC
  5
45C
100
AcDbEntity
  8
LAY-1
  6
CONTINUOUS
 62
     7
100
AcDbCircle
 10
935.0
 20
1246.258264
 30
0.0
 40
10.0
100
AcDbArc
 50
273.0
 51
0.0
  0
ARC
  5
45D
100
AcDbEntity
  8
LAY-1
  6
CONTINUOUS
 62
     7
100
AcDbCircle
 10
1045.0
 20
1246.258264
 30
0.0
 40
10.0
100
AcDbArc
 50
180.0
 51
267.0
  0
LINE
  5
45E
100
AcDbEntity
  8
LAY-1
  6
CONTINUOUS
 62
     7
100
AcDbLine
 10
1035.0
 20
1272.882891
 30
0.0
 11
1035.0
 21
1246.258264
 31
0.0
  0
ARC
  5
45F
100
AcDbEntity
  8
LAY-1
  6
CONTINUOUS
 62
     7
100
AcDbCircle
 10
979.0
 20
1352.122501
 30
0.0
 40
5.0
100
AcDbArc
 50
0.0
 51
90.0
  0
ARC
  5
460
100
AcDbEntity
  8
LAY-1
  6
CONTINUOUS
 62
     7
100
AcDbCircle
 10
1001.0
 20
1352.122501
 30
0.0
 40
5.0
100
AcDbArc
 50
90.0
 51
180.0
  0
LINE
  5
461
100
AcDbEntity
  8
LAY-1
  6
CONTINUOUS
 62
     7
100
AcDbLine
 10
996.0
 20
1341.522501
 30
0.0
 11
996.0
 21
1352.122501
 31
0.0
  0
ARC
  5
462
100
AcDbEntity
  8
LAY-1
  6
CONTINUOUS
 62
     7
100
AcDbCircle
 10
1001.0
 20
1341.522501
 30
0.0
 40
5.0
100
AcDbArc
 50
180.0
 51
270.0
  0
LINE
  5
463
100
AcDbEntity
  8
LAY-1
  6
CONTINUOUS
 62
     7
100
AcDbLine
 10
984.0
 20
1352.122501
 30
0.0
 11
984.0
 21
1341.522501
 31
0.0
  0
ARC
  5
464
100
AcDbEntity
  8
LAY-1
  6
CONTINUOUS
 62
     7
100
AcDbCircle
 10
979.0
 20
1341.522501
 30
0.0
 40
5.0
100
AcDbArc
 50
270.0
 51
0.0
  0
LINE
  5
465
100
AcDbEntity
  8
LAY-1
  6
CONTINUOUS
 62
     7
100
AcDbLine
 10
979.0
 20
1357.122501
 30
0.0
 11
878.0
 21
1357.122501
 31
0.0
  0
LINE
  5
466
100
AcDbEntity
  8
LAY-1
  6
CONTINUOUS
 62
     7
100
AcDbLine
 10
1001.0
 20
1357.122501
 30
0.0
 11
1102.0
 21
1357.122501
 31
0.0
  0
LINE
  5
467
100
AcDbEntity
  8
LAY-1
  6
CONTINUOUS
 62
     7
100
AcDbLine
 10
1104.0
 20
1367.122501
 30
0.0
 11
990.0
 21
1367.122501
 31
0.0
  0
LINE
  5
468
100
AcDbEntity
  8
LAY-1
  6
CONTINUOUS
 62
     7
100
AcDbLine
 10
876.0
 20
1367.122501
 30
0.0
 11
990.0
 21
1367.122501
 31
0.0
  0
LINE
  5
469
100
AcDbEntity
  8
LAY-1
  6
CONTINUOUS
 62
     7
100
AcDbLine
 10
816.111509
 20
1185.522501
 30
0.0
 11
816.111509
 21
1177.122501
 31
0.0
  0
LINE
  5
46A
100
AcDbEntity
  8
LAY-1
  6
CONTINUOUS
 62
     7
100
AcDbLine
 10
829.511509
 20
1172.122501
 30
0.0
 11
821.111509
 21
1172.122501
 31
0.0
  0
ARC
  5
46B
100
AcDbEntity
  8
LAY-1
  6
CONTINUOUS
 62
     7
100
AcDbCircle
 10
821.111509
 20
1177.122501
 30
0.0
 40
5.0
100
AcDbArc
 50
180.0
 51
270.0
  0
LINE
  5
46C
100
AcDbEntity
  8
LAY-1
  6
CONTINUOUS
 62
     7
100
AcDbLine
 10
778.911509
 20
1185.522501
 30
0.0
 11
778.911509
 21
1164.922501
 31
0.0
  0
LINE
  5
46D
100
AcDbEntity
  8
LAY-1
  6
CONTINUOUS
 62
     7
100
AcDbLine
 10
829.511509
 20
1134.922501
 30
0.0
 11
808.911509
 21
1134.922501
 31
0.0
  0
ARC
  5
46E
100
AcDbEntity
  8
LAY-1
  6
CONTINUOUS
 62
     7
100
AcDbCircle
 10
808.911509
 20
1164.922501
 30
0.0
 40
30.0
100
AcDbArc
 50
180.0
 51
270.0
  0
LINE
  5
46F
100
AcDbEntity
  8
LAY-1
  6
CONTINUOUS
 62
     7
100
AcDbLine
 10
829.511509
 20
1134.922501
 30
0.0
 11
829.511509
 21
1172.122501
 31
0.0
  0
LINE
  5
470
100
AcDbEntity
  8
LAY-1
  6
CONTINUOUS
 62
     7
100
AcDbLine
 10
816.111509
 20
1185.522501
 30
0.0
 11
815.011509
 21
1185.522501
 31
0.0
  0
LINE
  5
471
100
AcDbEntity
  8
LAY-1
  6
CONTINUOUS
 62
     7
100
AcDbLine
 10
815.011509
 20
1185.522501
 30
0.0
 11
797.511509
 21
1185.522501
 31
0.0
  0
LINE
  5
472
100
AcDbEntity
  8
LAY-1
  6
CONTINUOUS
 62
     7
100
AcDbLine
 10
778.911509
 20
1185.522501
 30
0.0
 11
797.511509
 21
1185.522501
 31
0.0
  0
LINE
  5
473
100
AcDbEntity
  8
LAY-1
  6
CONTINUOUS
 62
     7
100
AcDbLine
 10
844.511509
 20
1137.522501
 30
0.0
 11
845.511509
 21
1139.254552
 31
0.0
  0
ARC
  5
474
100
AcDbEntity
  8
LAY-1
  6
CONTINUOUS
 62
     7
100
AcDbCircle
 10
836.642959
 20
1141.622501
 30
0.0
 40
8.872659
100
AcDbArc
 50
332.477706
 51
27.522294
  0
LINE
  5
475
100
AcDbEntity
  8
LAY-1
  6
CONTINUOUS
 62
     7
100
AcDbLine
 10
845.511509
 20
1139.254552
 30
0.0
 11
845.511509
 21
1153.522501
 31
0.0
  0
ARC
  5
476
100
AcDbEntity
  8
LAY-1
  6
CONTINUOUS
 62
     7
100
AcDbCircle
 10
813.811509
 20
1153.622501
 30
0.0
 40
31.700158
100
AcDbArc
 50
345.569224
 51
359.819257
  0
LINE
  5
477
100
AcDbEntity
  8
LAY-1
  6
CONTINUOUS
 62
     7
100
AcDbLine
 10
835.511509
 20
1137.522501
 30
0.0
 11
834.511509
 21
1139.254552
 31
0.0
  0
ARC
  5
478
100
AcDbEntity
  8
LAY-1
  6
CONTINUOUS
 62
     7
100
AcDbCircle
 10
843.380059
 20
1141.622501
 30
0.0
 40
8.872659
100
AcDbArc
 50
152.477706
 51
207.522294
  0
LINE
  5
479
100
AcDbEntity
  8
LAY-1
  6
CONTINUOUS
 62
     7
100
AcDbLine
 10
834.511509
 20
1139.254552
 30
0.0
 11
834.511509
 21
1153.522501
 31
0.0
  0
ARC
  5
47A
100
AcDbEntity
  8
LAY-1
  6
CONTINUOUS
 62
     7
100
AcDbCircle
 10
866.211509
 20
1153.622501
 30
0.0
 40
31.700158
100
AcDbArc
 50
180.180743
 51
194.430776
  0
LINE
  5
47B
100
AcDbEntity
  8
LAY-1
  6
CONTINUOUS
 62
     7
100
AcDbLine
 10
844.511509
 20
1137.522501
 30
0.0
 11
835.511509
 21
1137.522501
 31
0.0
  0
LINE
  5
47C
100
AcDbEntity
  8
LAY-1
  6
CONTINUOUS
 62
     7
100
AcDbLine
 10
844.511509
 20
1145.722501
 30
0.0
 11
835.511509
 21
1145.722501
 31
0.0
  0
LINE
  5
47D
100
AcDbEntity
  8
LAY-1
  6
CONTINUOUS
 62
     7
100
AcDbLine
 10
845.511509
 20
1139.36299
 30
0.0
 11
845.511509
 21
1153.630939
 31
0.0
  0
LINE
  5
47E
100
AcDbEntity
  8
LAY-1
  6
CONTINUOUS
 62
     7
100
AcDbLine
 10
848.511509
 20
1140.239501
 30
0.0
 11
848.511509
 21
1153.522501
 31
0.0
  0
LINE
  5
47F
100
AcDbEntity
  8
LAY-1
  6
CONTINUOUS
 62
     7
100
AcDbLine
 10
831.511509
 20
1140.239501
 30
0.0
 11
831.511509
 21
1153.522501
 31
0.0
  0
LINE
  5
480
100
AcDbEntity
  8
LAY-1
  6
CONTINUOUS
 62
     7
100
AcDbLine
 10
829.511509
 20
1140.302001
 30
0.0
 11
834.511509
 21
1140.145751
 31
0.0
  0
LINE
  5
481
100
AcDbEntity
  8
LAY-1
  6
CONTINUOUS
 62
     7
100
AcDbLine
 10
844.511509
 20
1169.522501
 30
0.0
 11
845.511509
 21
1167.790451
 31
0.0
  0
ARC
  5
482
100
AcDbEntity
  8
LAY-1
  6
CONTINUOUS
 62
     7
100
AcDbCircle
 10
836.642959
 20
1165.422501
 30
0.0
 40
8.872659
100
AcDbArc
 50
332.477706
 51
27.522294
  0
LINE
  5
483
100
AcDbEntity
  8
LAY-1
  6
CONTINUOUS
 62
     7
100
AcDbLine
 10
845.511509
 20
1167.790451
 30
0.0
 11
845.511509
 21
1153.522501
 31
0.0
  0
ARC
  5
484
100
AcDbEntity
  8
LAY-1
  6
CONTINUOUS
 62
     7
100
AcDbCircle
 10
813.811509
 20
1153.422501
 30
0.0
 40
31.700158
100
AcDbArc
 50
0.180743
 51
14.430776
  0
LINE
  5
485
100
AcDbEntity
  8
LAY-1
  6
CONTINUOUS
 62
     7
100
AcDbLine
 10
835.511509
 20
1169.522501
 30
0.0
 11
834.511509
 21
1167.790451
 31
0.0
  0
ARC
  5
486
100
AcDbEntity
  8
LAY-1
  6
CONTINUOUS
 62
     7
100
AcDbCircle
 10
843.380059
 20
1165.422501
 30
0.0
 40
8.872659
100
AcDbArc
 50
152.477706
 51
207.522294
  0
LINE
  5
487
100
AcDbEntity
  8
LAY-1
  6
CONTINUOUS
 62
     7
100
AcDbLine
 10
834.511509
 20
1167.790451
 30
0.0
 11
834.511509
 21
1153.522501
 31
0.0
  0
ARC
  5
488
100
AcDbEntity
  8
LAY-1
  6
CONTINUOUS
 62
     7
100
AcDbCircle
 10
866.211509
 20
1153.422501
 30
0.0
 40
31.700158
100
AcDbArc
 50
165.569224
 51
179.819257
  0
LINE
  5
489
100
AcDbEntity
  8
LAY-1
  6
CONTINUOUS
 62
     7
100
AcDbLine
 10
844.511509
 20
1169.522501
 30
0.0
 11
835.511509
 21
1169.522501
 31
0.0
  0
LINE
  5
48A
100
AcDbEntity
  8
LAY-1
  6
CONTINUOUS
 62
     7
100
AcDbLine
 10
844.511509
 20
1161.322501
 30
0.0
 11
835.511509
 21
1161.322501
 31
0.0
  0
LINE
  5
48B
100
AcDbEntity
  8
LAY-1
  6
CONTINUOUS
 62
     7
100
AcDbLine
 10
845.511509
 20
1167.682013
 30
0.0
 11
845.511509
 21
1153.414064
 31
0.0
  0
LINE
  5
48C
100
AcDbEntity
  8
LAY-1
  6
CONTINUOUS
 62
     7
100
AcDbLine
 10
848.511509
 20
1166.805501
 30
0.0
 11
848.511509
 21
1153.522501
 31
0.0
  0
LINE
  5
48D
100
AcDbEntity
  8
LAY-1
  6
CONTINUOUS
 62
     7
100
AcDbLine
 10
831.511509
 20
1166.805501
 30
0.0
 11
831.511509
 21
1153.522501
 31
0.0
  0
LINE
  5
48E
100
AcDbEntity
  8
LAY-1
  6
CONTINUOUS
 62
     7
100
AcDbLine
 10
829.511509
 20
1166.743001
 30
0.0
 11
834.511509
 21
1166.899251
 31
0.0
  0
LINE
  5
48F
100
AcDbEntity
  8
LAY-1
  6
CONTINUOUS
 62
     7
100
AcDbLine
 10
850.932474
 20
1166.729846
 30
0.0
 11
845.511509
 21
1166.899251
 31
0.0
  0
LINE
  5
490
100
AcDbEntity
  8
LAY-1
  6
CONTINUOUS
 62
     7
100
AcDbLine
 10
852.290012
 20
1140.35758
 30
0.0
 11
845.511509
 21
1140.145751
 31
0.0
  0
LINE
  5
491
100
AcDbEntity
  8
LAY-1
  6
CONTINUOUS
 62
     7
100
AcDbLine
 10
895.00001
 20
1306.522521
 30
0.0
 11
895.00001
 21
1276.522481
 31
0.0
  0
LINE
  5
492
100
AcDbEntity
  8
LAY-1
  6
CONTINUOUS
 62
     7
100
AcDbLine
 10
895.00001
 20
1276.522481
 30
0.0
 11
901.89485
 21
1275.306601
 31
0.0
  0
LINE
  5
493
100
AcDbEntity
  8
LAY-1
  6
CONTINUOUS
 62
     7
100
AcDbLine
 10
895.00001
 20
1306.522521
 30
0.0
 11
901.89485
 21
1307.738401
 31
0.0
  0
LINE
  5
494
100
AcDbEntity
  8
LAY-1
  6
CONTINUOUS
 62
     7
100
AcDbLine
 10
896.0
 20
1276.346137
 30
0.0
 11
896.0
 21
1243.690283
 31
0.0
  0
LINE
  5
495
100
AcDbEntity
  8
LAY-1
  6
CONTINUOUS
 62
     7
100
AcDbLine
 10
896.0
 20
1347.122501
 30
0.0
 11
896.0
 21
1306.698866
 31
0.0
  0
LINE
  5
496
100
AcDbEntity
  8
LAY-1
  6
CONTINUOUS
 62
     7
100
AcDbLine
 10
1098.3235
 20
1356.222501
 30
0.0
 11
1091.6765
 21
1356.222501
 31
0.0
  0
LINE
  5
497
100
AcDbEntity
  8
LAY-1
  6
CONTINUOUS
 62
     7
100
AcDbLine
 10
1099.0
 20
1356.899001
 30
0.0
 11
1098.3235
 21
1356.222501
 31
0.0
  0
LINE
  5
498
100
AcDbEntity
  8
LAY-1
  6
CONTINUOUS
 62
     7
100
AcDbLine
 10
1099.0
 20
1357.122501
 30
0.0
 11
1099.0
 21
1356.899001
 31
0.0
  0
LINE
  5
499
100
AcDbEntity
  8
LAY-1
  6
CONTINUOUS
 62
     7
100
AcDbLine
 10
1091.6765
 20
1356.222501
 30
0.0
 11
1091.0
 21
1356.899001
 31
0.0
  0
LINE
  5
49A
100
AcDbEntity
  8
LAY-1
  6
CONTINUOUS
 62
     7
100
AcDbLine
 10
1091.0
 20
1357.122501
 30
0.0
 11
1091.0
 21
1356.899001
 31
0.0
  0
LINE
  5
49B
100
AcDbEntity
  8
LAY-1
  6
CONTINUOUS
 62
     7
100
AcDbLine
 10
1091.0
 20
1356.899001
 30
0.0
 11
1099.0
 21
1356.899001
 31
0.0
  0
LINE
  5
49C
100
AcDbEntity
  8
LAY-1
  6
CONTINUOUS
 62
     7
100
AcDbLine
 10
881.6765
 20
1356.222501
 30
0.0
 11
888.3235
 21
1356.222501
 31
0.0
  0
LINE
  5
49D
100
AcDbEntity
  8
LAY-1
  6
CONTINUOUS
 62
     7
100
AcDbLine
 10
881.0
 20
1356.899001
 30
0.0
 11
881.6765
 21
1356.222501
 31
0.0
  0
LINE
  5
49E
100
AcDbEntity
  8
LAY-1
  6
CONTINUOUS
 62
     7
100
AcDbLine
 10
881.0
 20
1357.122501
 30
0.0
 11
881.0
 21
1356.899001
 31
0.0
  0
LINE
  5
49F
100
AcDbEntity
  8
LAY-1
  6
CONTINUOUS
 62
     7
100
AcDbLine
 10
888.3235
 20
1356.222501
 30
0.0
 11
889.0
 21
1356.899001
 31
0.0
  0
LINE
  5
4A0
100
AcDbEntity
  8
LAY-1
  6
CONTINUOUS
 62
     7
100
AcDbLine
 10
889.0
 20
1357.122501
 30
0.0
 11
889.0
 21
1356.899001
 31
0.0
  0
LINE
  5
4A1
100
AcDbEntity
  8
LAY-1
  6
CONTINUOUS
 62
     7
100
AcDbLine
 10
889.0
 20
1356.899001
 30
0.0
 11
881.0
 21
1356.899001
 31
0.0
  0
ARC
  5
4A2
100
AcDbEntity
  8
LAY-1
  6
CONTINUOUS
 62
     7
100
AcDbCircle
 10
1094.0
 20
1347.122501
 30
0.0
 40
10.0
100
AcDbArc
 50
106.368733
 51
180.0
  0
LINE
  5
4A3
100
AcDbEntity
  8
LAY-1
  6
CONTINUOUS
 62
     7
100
AcDbLine
 10
1045.8235
 20
1356.222501
 30
0.0
 11
1039.1765
 21
1356.222501
 31
0.0
  0
LINE
  5
4A4
100
AcDbEntity
  8
LAY-1
  6
CONTINUOUS
 62
     7
100
AcDbLine
 10
1046.5
 20
1356.899001
 30
0.0
 11
1045.8235
 21
1356.222501
 31
0.0
  0
LINE
  5
4A5
100
AcDbEntity
  8
LAY-1
  6
CONTINUOUS
 62
     7
100
AcDbLine
 10
1046.5
 20
1357.122501
 30
0.0
 11
1046.5
 21
1356.899001
 31
0.0
  0
LINE
  5
4A6
100
AcDbEntity
  8
LAY-1
  6
CONTINUOUS
 62
     7
100
AcDbLine
 10
1039.1765
 20
1356.222501
 30
0.0
 11
1038.5
 21
1356.899001
 31
0.0
  0
LINE
  5
4A7
100
AcDbEntity
  8
LAY-1
  6
CONTINUOUS
 62
     7
100
AcDbLine
 10
1038.5
 20
1357.122501
 30
0.0
 11
1038.5
 21
1356.899001
 31
0.0
  0
LINE
  5
4A8
100
AcDbEntity
  8
LAY-1
  6
CONTINUOUS
 62
     7
100
AcDbLine
 10
1038.5
 20
1356.899001
 30
0.0
 11
1046.5
 21
1356.899001
 31
0.0
  0
LINE
  5
4A9
100
AcDbEntity
  8
LAY-1
  6
CONTINUOUS
 62
     7
100
AcDbLine
 10
934.1765
 20
1356.222501
 30
0.0
 11
940.8235
 21
1356.222501
 31
0.0
  0
LINE
  5
4AA
100
AcDbEntity
  8
LAY-1
  6
CONTINUOUS
 62
     7
100
AcDbLine
 10
933.5
 20
1356.899001
 30
0.0
 11
934.1765
 21
1356.222501
 31
0.0
  0
LINE
  5
4AB
100
AcDbEntity
  8
LAY-1
  6
CONTINUOUS
 62
     7
100
AcDbLine
 10
933.5
 20
1357.122501
 30
0.0
 11
933.5
 21
1356.899001
 31
0.0
  0
LINE
  5
4AC
100
AcDbEntity
  8
LAY-1
  6
CONTINUOUS
 62
     7
100
AcDbLine
 10
940.8235
 20
1356.222501
 30
0.0
 11
941.5
 21
1356.899001
 31
0.0
  0
LINE
  5
4AD
100
AcDbEntity
  8
LAY-1
  6
CONTINUOUS
 62
     7
100
AcDbLine
 10
941.5
 20
1357.122501
 30
0.0
 11
941.5
 21
1356.899001
 31
0.0
  0
LINE
  5
4AE
100
AcDbEntity
  8
LAY-1
  6
CONTINUOUS
 62
     7
100
AcDbLine
 10
941.5
 20
1356.899001
 30
0.0
 11
933.5
 21
1356.899001
 31
0.0
  0
LINE
  5
4AF
100
AcDbEntity
  8
LAY-1
  6
CONTINUOUS
 62
     7
100
AcDbLine
 10
971.289623
 20
1094.762151
 30
0.0
 11
971.289623
 21
1085.762151
 31
0.0
  0
LINE
  5
4B0
100
AcDbEntity
  8
LAY-1
  6
CONTINUOUS
 62
     7
100
AcDbLine
 10
1008.710377
 20
1094.762151
 30
0.0
 11
1008.710377
 21
1085.762151
 31
0.0
  0
ARC
  5
4B1
100
AcDbEntity
  8
LAY-1
  6
CONTINUOUS
 62
     7
100
AcDbCircle
 10
852.0
 20
406.611015
 30
0.0
 40
2.0
100
AcDbArc
 50
180.0
 51
270.0
  0
ARC
  5
4B2
100
AcDbEntity
  8
LAY-1
  6
CONTINUOUS
 62
     7
100
AcDbCircle
 10
1128.0
 20
406.611015
 30
0.0
 40
2.0
100
AcDbArc
 50
270.0
 51
0.0
  0
ARC
  5
4B3
100
AcDbEntity
  8
LAY-1
  6
CONTINUOUS
 62
     7
100
AcDbCircle
 10
860.343112
 20
401.611015
 30
0.0
 40
3.0
100
AcDbArc
 50
2.0
 51
90.0
  0
ARC
  5
4B4
100
AcDbEntity
  8
LAY-1
  6
CONTINUOUS
 62
     7
100
AcDbCircle
 10
1119.656888
 20
401.611015
 30
0.0
 40
3.0
100
AcDbArc
 50
90.0
 51
178.0
  0
ARC
  5
4B5
100
AcDbEntity
  8
LAY-1
  6
CONTINUOUS
 62
     7
100
AcDbCircle
 10
886.0
 20
261.511015
 30
0.0
 40
10.0
100
AcDbArc
 50
270.0
 51
0.0
  0
LINE
  5
4B6
100
AcDbEntity
  8
LAY-1
  6
CONTINUOUS
 62
     7
100
AcDbLine
 10
947.0
 20
506.871366
 30
0.0
 11
947.0
 21
504.871366
 31
0.0
  0
LINE
  5
4B7
100
AcDbEntity
  8
LAY-1
  6
CONTINUOUS
 62
     7
100
AcDbLine
 10
1033.0
 20
506.871366
 30
0.0
 11
1033.0
 21
504.871366
 31
0.0
  0
LINE
  5
4B8
100
AcDbEntity
  8
LAY-1
  6
CONTINUOUS
 62
     7
100
AcDbLine
 10
922.091034
 20
494.154994
 30
0.0
 11
873.86773
 21
436.684698
 31
0.0
  0
ARC
  5
4B9
100
AcDbEntity
  8
LAY-1
  6
CONTINUOUS
 62
     7
100
AcDbCircle
 10
945.072368
 20
474.871366
 30
0.0
 40
30.0
100
AcDbArc
 50
90.0
 51
140.0
  0
LINE
  5
4BA
100
AcDbEntity
  8
LAY-1
  6
CONTINUOUS
 62
     7
100
AcDbLine
 10
1057.908966
 20
494.154994
 30
0.0
 11
1106.13227
 21
436.684698
 31
0.0
  0
ARC
  5
4BB
100
AcDbEntity
  8
LAY-1
  6
CONTINUOUS
 62
     7
100
AcDbCircle
 10
1034.927632
 20
474.871366
 30
0.0
 40
30.0
100
AcDbArc
 50
40.0
 51
90.0
  0
LINE
  5
4BC
100
AcDbEntity
  8
LAY-1
  6
CONTINUOUS
 62
     7
100
AcDbLine
 10
947.0
 20
507.871366
 30
0.0
 11
947.0
 21
506.871366
 31
0.0
  0
LINE
  5
4BD
100
AcDbEntity
  8
LAY-1
  6
CONTINUOUS
 62
     7
100
AcDbLine
 10
1033.0
 20
506.871366
 30
0.0
 11
1033.0
 21
507.871366
 31
0.0
  0
LINE
  5
4BE
100
AcDbEntity
  8
LAY-1
  6
CONTINUOUS
 62
     7
100
AcDbLine
 10
947.0
 20
507.871366
 30
0.0
 11
990.0
 21
507.871366
 31
0.0
  0
LINE
  5
4BF
100
AcDbEntity
  8
LAY-1
  6
CONTINUOUS
 62
     7
100
AcDbLine
 10
990.0
 20
506.871366
 30
0.0
 11
946.947619
 21
506.871366
 31
0.0
  0
LINE
  5
4C0
100
AcDbEntity
  8
LAY-1
  6
CONTINUOUS
 62
     7
100
AcDbLine
 10
1033.0
 20
507.871366
 30
0.0
 11
990.0
 21
507.871366
 31
0.0
  0
LINE
  5
4C1
100
AcDbEntity
  8
LAY-1
  6
CONTINUOUS
 62
     7
100
AcDbLine
 10
1033.052381
 20
506.871366
 30
0.0
 11
990.0
 21
506.871366
 31
0.0
  0
LINE
  5
4C2
100
AcDbEntity
  8
LAY-1
  6
CONTINUOUS
 62
     7
100
AcDbLine
 10
1034.927632
 20
504.871366
 30
0.0
 11
990.0
 21
504.871366
 31
0.0
  0
LINE
  5
4C3
100
AcDbEntity
  8
LAY-1
  6
CONTINUOUS
 62
     7
100
AcDbLine
 10
990.0
 20
504.871366
 30
0.0
 11
945.072368
 21
504.871366
 31
0.0
  0
LINE
  5
4C4
100
AcDbEntity
  8
LAY-1
  6
CONTINUOUS
 62
     7
100
AcDbLine
 10
1128.0
 20
404.611015
 30
0.0
 11
990.0
 21
404.611015
 31
0.0
  0
LINE
  5
4C5
100
AcDbEntity
  8
LAY-1
  6
CONTINUOUS
 62
     7
100
AcDbLine
 10
852.0
 20
404.611015
 30
0.0
 11
990.0
 21
404.611015
 31
0.0
  0
LINE
  5
4C6
100
AcDbEntity
  8
LAY-1
  6
CONTINUOUS
 62
     7
100
AcDbLine
 10
1116.658715
 20
401.715714
 30
0.0
 11
1116.4037
 21
394.413025
 31
0.0
  0
LINE
  5
4C7
100
AcDbEntity
  8
LAY-1
  6
CONTINUOUS
 62
     7
100
AcDbLine
 10
863.341285
 20
401.715714
 30
0.0
 11
863.5963
 21
394.413025
 31
0.0
  0
LINE
  5
4C8
100
AcDbEntity
  8
LAY-1
  6
CONTINUOUS
 62
     7
100
AcDbLine
 10
990.0
 20
424.611015
 30
0.0
 11
850.5
 21
424.611015
 31
0.0
  0
LINE
  5
4C9
100
AcDbEntity
  8
LAY-1
  6
CONTINUOUS
 62
     7
100
AcDbLine
 10
990.0
 20
424.611015
 30
0.0
 11
1129.5
 21
424.611015
 31
0.0
  0
LINE
  5
4CA
100
AcDbEntity
  8
LAY-1
  6
CONTINUOUS
 62
     7
100
AcDbLine
 10
935.52336
 20
372.361548
 30
0.0
 11
882.537398
 21
375.138425
 31
0.0
  0
ARC
  5
4CB
100
AcDbEntity
  8
LAY-1
  6
CONTINUOUS
 62
     7
100
AcDbCircle
 10
883.584117
 20
395.111015
 30
0.0
 40
20.0
100
AcDbArc
 50
182.0
 51
267.0
  0
ARC
  5
4CC
100
AcDbEntity
  8
LAY-1
  6
CONTINUOUS
 62
     7
100
AcDbCircle
 10
886.0
 20
364.943234
 30
0.0
 40
10.0
100
AcDbArc
 50
0.0
 51
87.0
  0
LINE
  5
4CD
100
AcDbEntity
  8
LAY-1
  6
CONTINUOUS
 62
     7
100
AcDbLine
 10
1044.47664
 20
372.361548
 30
0.0
 11
1097.462602
 21
375.138425
 31
0.0
  0
ARC
  5
4CE
100
AcDbEntity
  8
LAY-1
  6
CONTINUOUS
 62
     7
100
AcDbCircle
 10
1094.0
 20
364.943234
 30
0.0
 40
10.0
100
AcDbArc
 50
93.0
 51
180.0
  0
ARC
  5
4CF
100
AcDbEntity
  8
LAY-1
  6
CONTINUOUS
 62
     7
100
AcDbCircle
 10
1096.415883
 20
395.111015
 30
0.0
 40
20.0
100
AcDbArc
 50
273.0
 51
358.0
  0
LINE
  5
4D0
100
AcDbEntity
  8
LAY-1
  6
CONTINUOUS
 62
     7
100
AcDbLine
 10
1084.0
 20
261.511015
 30
0.0
 11
1084.0
 21
364.943234
 31
0.0
  0
LINE
  5
4D1
100
AcDbEntity
  8
LAY-1
  6
CONTINUOUS
 62
     7
100
AcDbLine
 10
850.0
 20
424.111015
 30
0.0
 11
850.0
 21
406.611015
 31
0.0
  0
LINE
  5
4D2
100
AcDbEntity
  8
LAY-1
  6
CONTINUOUS
 62
     7
100
AcDbLine
 10
850.0
 20
415.611015
 30
0.0
 11
990.0
 21
415.611015
 31
0.0
  0
LINE
  5
4D3
100
AcDbEntity
  8
LAY-1
  6
CONTINUOUS
 62
     7
100
AcDbLine
 10
1130.0
 20
415.611015
 30
0.0
 11
990.0
 21
415.611015
 31
0.0
  0
ARC
  5
4D4
100
AcDbEntity
  8
LAY-1
  6
CONTINUOUS
 62
     7
100
AcDbCircle
 10
1129.5
 20
424.111015
 30
0.0
 40
0.5
100
AcDbArc
 50
0.0
 51
90.0
  0
LINE
  5
4D5
100
AcDbEntity
  8
LAY-1
  6
CONTINUOUS
 62
     7
100
AcDbLine
 10
1104.100016
 20
424.611015
 30
0.0
 11
1104.100016
 21
426.211015
 31
0.0
  0
LINE
  5
4D6
100
AcDbEntity
  8
LAY-1
  6
CONTINUOUS
 62
     7
100
AcDbLine
 10
1104.100016
 20
426.211015
 30
0.0
 11
1117.956422
 21
426.211015
 31
0.0
  0
LINE
  5
4D7
100
AcDbEntity
  8
LAY-1
  6
CONTINUOUS
 62
     7
100
AcDbLine
 10
1117.956422
 20
426.211015
 30
0.0
 11
1117.956422
 21
424.611015
 31
0.0
  0
LINE
  5
4D8
100
AcDbEntity
  8
LAY-1
  6
CONTINUOUS
 62
     7
100
AcDbLine
 10
1033.203326
 20
424.611015
 30
0.0
 11
1033.203326
 21
426.211015
 31
0.0
  0
LINE
  5
4D9
100
AcDbEntity
  8
LAY-1
  6
CONTINUOUS
 62
     7
100
AcDbLine
 10
1033.203326
 20
426.211015
 30
0.0
 11
1047.059733
 21
426.211015
 31
0.0
  0
LINE
  5
4DA
100
AcDbEntity
  8
LAY-1
  6
CONTINUOUS
 62
     7
100
AcDbLine
 10
1047.059733
 20
426.211015
 30
0.0
 11
1047.059733
 21
424.611015
 31
0.0
  0
ARC
  5
4DB
100
AcDbEntity
  8
LAY-1
  6
CONTINUOUS
 62
     7
100
AcDbCircle
 10
1090.811381
 20
423.828946
 30
0.0
 40
20.0
100
AcDbArc
 50
23.210073
 51
45.0
  0
LINE
  5
4DC
100
AcDbEntity
  8
LAY-1
  6
CONTINUOUS
 62
     7
100
AcDbLine
 10
875.899984
 20
424.611015
 30
0.0
 11
875.899984
 21
426.211015
 31
0.0
  0
LINE
  5
4DD
100
AcDbEntity
  8
LAY-1
  6
CONTINUOUS
 62
     7
100
AcDbLine
 10
875.899984
 20
426.211015
 30
0.0
 11
862.043578
 21
426.211015
 31
0.0
  0
LINE
  5
4DE
100
AcDbEntity
  8
LAY-1
  6
CONTINUOUS
 62
     7
100
AcDbLine
 10
862.043578
 20
426.211015
 30
0.0
 11
862.043578
 21
424.611015
 31
0.0
  0
LINE
  5
4DF
100
AcDbEntity
  8
LAY-1
  6
CONTINUOUS
 62
     7
100
AcDbLine
 10
946.796674
 20
424.611015
 30
0.0
 11
946.796674
 21
426.211015
 31
0.0
  0
LINE
  5
4E0
100
AcDbEntity
  8
LAY-1
  6
CONTINUOUS
 62
     7
100
AcDbLine
 10
946.796674
 20
426.211015
 30
0.0
 11
932.940267
 21
426.211015
 31
0.0
  0
LINE
  5
4E1
100
AcDbEntity
  8
LAY-1
  6
CONTINUOUS
 62
     7
100
AcDbLine
 10
932.940267
 20
426.211015
 30
0.0
 11
932.940267
 21
424.611015
 31
0.0
  0
ARC
  5
4E2
100
AcDbEntity
  8
LAY-1
  6
CONTINUOUS
 62
     7
100
AcDbCircle
 10
889.188619
 20
423.828946
 30
0.0
 40
20.0
100
AcDbArc
 50
140.0
 51
156.789927
  0
LINE
  5
4E3
100
AcDbEntity
  8
LAY-1
  6
CONTINUOUS
 62
     7
100
AcDbLine
 10
876.0
 20
241.511015
 30
0.0
 11
876.0
 21
249.511015
 31
0.0
  0
ARC
  5
4E4
100
AcDbEntity
  8
LAY-1
  6
CONTINUOUS
 62
     7
100
AcDbCircle
 10
878.0
 20
249.511015
 30
0.0
 40
2.0
100
AcDbArc
 50
90.0
 51
180.0
  0
LINE
  5
4E5
100
AcDbEntity
  8
LAY-1
  6
CONTINUOUS
 62
     7
100
AcDbLine
 10
1104.0
 20
241.511015
 30
0.0
 11
1104.0
 21
249.511015
 31
0.0
  0
ARC
  5
4E6
100
AcDbEntity
  8
LAY-1
  6
CONTINUOUS
 62
     7
100
AcDbCircle
 10
1102.0
 20
249.511015
 30
0.0
 40
2.0
100
AcDbArc
 50
0.0
 51
90.0
  0
LINE
  5
4E7
100
AcDbEntity
  8
LAY-1
  6
CONTINUOUS
 62
     7
100
AcDbLine
 10
906.017156
 20
487.111015
 30
0.0
 11
882.0
 21
487.111015
 31
0.0
  0
ARC
  5
4E8
100
AcDbEntity
  8
LAY-1
  6
CONTINUOUS
 62
     7
100
AcDbCircle
 10
906.017156
 20
486.611015
 30
0.0
 40
0.5
100
AcDbArc
 50
2.0
 51
90.0
  0
LINE
  5
4E9
100
AcDbEntity
  8
LAY-1
  6
CONTINUOUS
 62
     7
100
AcDbLine
 10
906.53553
 20
486.093566
 30
0.0
 11
906.516851
 21
486.628465
 31
0.0
  0
ARC
  5
4EA
100
AcDbEntity
  8
LAY-1
  6
CONTINUOUS
 62
     7
100
AcDbCircle
 10
907.035226
 20
486.111015
 30
0.0
 40
0.5
100
AcDbArc
 50
182.0
 51
270.0
  0
LINE
  5
4EB
100
AcDbEntity
  8
LAY-1
  6
CONTINUOUS
 62
     7
100
AcDbLine
 10
857.982844
 20
487.111015
 30
0.0
 11
882.0
 21
487.111015
 31
0.0
  0
ARC
  5
4EC
100
AcDbEntity
  8
LAY-1
  6
CONTINUOUS
 62
     7
100
AcDbCircle
 10
857.982844
 20
486.611015
 30
0.0
 40
0.5
100
AcDbArc
 50
90.0
 51
178.0
  0
LINE
  5
4ED
100
AcDbEntity
  8
LAY-1
  6
CONTINUOUS
 62
     7
100
AcDbLine
 10
857.461876
 20
486.019279
 30
0.0
 11
857.483149
 21
486.628465
 31
0.0
  0
ARC
  5
4EE
100
AcDbEntity
  8
LAY-1
  6
CONTINUOUS
 62
     7
100
AcDbCircle
 10
856.96218
 20
486.036729
 30
0.0
 40
0.5
100
AcDbArc
 50
279.427588
 51
358.0
  0
ARC
  5
4EF
100
AcDbEntity
  8
LAY-1
  6
CONTINUOUS
 62
     7
100
AcDbCircle
 10
857.863086
 20
480.611015
 30
0.0
 40
5.0
100
AcDbArc
 50
99.427588
 51
177.0
  0
ARC
  5
4F0
100
AcDbEntity
  8
LAY-1
  6
CONTINUOUS
 62
     7
100
AcDbCircle
 10
882.098441
 20
503.961804
 30
0.0
 40
32.377976
100
AcDbArc
 50
226.716943
 51
307.257482
  0
ARC
  5
4F1
100
AcDbEntity
  8
LAY-1
  6
CONTINUOUS
 62
     7
100
AcDbCircle
 10
912.556019
 20
490.611015
 30
0.0
 40
5.0
100
AcDbArc
 50
270.0
 51
320.0
  0
LINE
  5
4F2
100
AcDbEntity
  8
LAY-1
  6
CONTINUOUS
 62
     7
100
AcDbLine
 10
912.556019
 20
485.611015
 30
0.0
 11
907.035226
 21
485.611015
 31
0.0
  0
LINE
  5
4F3
100
AcDbEntity
  8
LAY-1
  6
CONTINUOUS
 62
     7
100
AcDbLine
 10
852.974466
 20
480.867217
 30
0.0
 11
850.0
 21
424.111015
 31
0.0
  0
LINE
  5
4F4
100
AcDbEntity
  8
LAY-1
  6
CONTINUOUS
 62
     7
100
AcDbLine
 10
862.221781
 20
426.211015
 30
0.0
 11
862.221781
 21
429.711015
 31
0.0
  0
ARC
  5
4F5
100
AcDbEntity
  8
LAY-1
  6
CONTINUOUS
 62
     7
100
AcDbCircle
 10
864.721781
 20
429.711015
 30
0.0
 40
2.5
100
AcDbArc
 50
90.0
 51
180.0
  0
LINE
  5
4F6
100
AcDbEntity
  8
LAY-1
  6
CONTINUOUS
 62
     7
100
AcDbLine
 10
873.221781
 20
432.211015
 30
0.0
 11
864.721781
 21
432.211015
 31
0.0
  0
LINE
  5
4F7
100
AcDbEntity
  8
LAY-1
  6
CONTINUOUS
 62
     7
100
AcDbLine
 10
875.721781
 20
426.211015
 30
0.0
 11
875.721781
 21
429.711015
 31
0.0
  0
ARC
  5
4F8
100
AcDbEntity
  8
LAY-1
  6
CONTINUOUS
 62
     7
100
AcDbCircle
 10
873.221781
 20
429.711015
 30
0.0
 40
2.5
100
AcDbArc
 50
0.0
 51
90.0
  0
LINE
  5
4F9
100
AcDbEntity
  8
LAY-1
  6
CONTINUOUS
 62
     7
100
AcDbLine
 10
868.971781
 20
426.211015
 30
0.0
 11
875.721781
 21
426.211015
 31
0.0
  0
LINE
  5
4FA
100
AcDbEntity
  8
LAY-1
  6
CONTINUOUS
 62
     7
100
AcDbLine
 10
868.971781
 20
426.211015
 30
0.0
 11
862.221781
 21
426.211015
 31
0.0
  0
LINE
  5
4FB
100
AcDbEntity
  8
LAY-1
  6
CONTINUOUS
 62
     7
100
AcDbLine
 10
1104.278219
 20
426.211015
 30
0.0
 11
1104.278219
 21
429.711015
 31
0.0
  0
ARC
  5
4FC
100
AcDbEntity
  8
LAY-1
  6
CONTINUOUS
 62
     7
100
AcDbCircle
 10
1106.778219
 20
429.711015
 30
0.0
 40
2.5
100
AcDbArc
 50
90.0
 51
180.0
  0
LINE
  5
4FD
100
AcDbEntity
  8
LAY-1
  6
CONTINUOUS
 62
     7
100
AcDbLine
 10
1115.278219
 20
432.211015
 30
0.0
 11
1106.778219
 21
432.211015
 31
0.0
  0
LINE
  5
4FE
100
AcDbEntity
  8
LAY-1
  6
CONTINUOUS
 62
     7
100
AcDbLine
 10
1117.778219
 20
426.211015
 30
0.0
 11
1117.778219
 21
429.711015
 31
0.0
  0
ARC
  5
4FF
100
AcDbEntity
  8
LAY-1
  6
CONTINUOUS
 62
     7
100
AcDbCircle
 10
1115.278219
 20
429.711015
 30
0.0
 40
2.5
100
AcDbArc
 50
0.0
 51
90.0
  0
LINE
  5
500
100
AcDbEntity
  8
LAY-1
  6
CONTINUOUS
 62
     7
100
AcDbLine
 10
1111.028219
 20
426.211015
 30
0.0
 11
1117.778219
 21
426.211015
 31
0.0
  0
LINE
  5
501
100
AcDbEntity
  8
LAY-1
  6
CONTINUOUS
 62
     7
100
AcDbLine
 10
1111.028219
 20
426.211015
 30
0.0
 11
1104.278219
 21
426.211015
 31
0.0
  0
LINE
  5
502
100
AcDbEntity
  8
LAY-1
  6
CONTINUOUS
 62
     7
100
AcDbLine
 10
1033.38153
 20
426.211015
 30
0.0
 11
1033.38153
 21
429.711015
 31
0.0
  0
ARC
  5
503
100
AcDbEntity
  8
LAY-1
  6
CONTINUOUS
 62
     7
100
AcDbCircle
 10
1035.88153
 20
429.711015
 30
0.0
 40
2.5
100
AcDbArc
 50
90.0
 51
180.0
  0
LINE
  5
504
100
AcDbEntity
  8
LAY-1
  6
CONTINUOUS
 62
     7
100
AcDbLine
 10
1044.38153
 20
432.211015
 30
0.0
 11
1035.88153
 21
432.211015
 31
0.0
  0
LINE
  5
505
100
AcDbEntity
  8
LAY-1
  6
CONTINUOUS
 62
     7
100
AcDbLine
 10
1046.88153
 20
426.211015
 30
0.0
 11
1046.88153
 21
429.711015
 31
0.0
  0
ARC
  5
506
100
AcDbEntity
  8
LAY-1
  6
CONTINUOUS
 62
     7
100
AcDbCircle
 10
1044.38153
 20
429.711015
 30
0.0
 40
2.5
100
AcDbArc
 50
0.0
 51
90.0
  0
LINE
  5
507
100
AcDbEntity
  8
LAY-1
  6
CONTINUOUS
 62
     7
100
AcDbLine
 10
1040.13153
 20
426.211015
 30
0.0
 11
1046.88153
 21
426.211015
 31
0.0
  0
LINE
  5
508
100
AcDbEntity
  8
LAY-1
  6
CONTINUOUS
 62
     7
100
AcDbLine
 10
1040.13153
 20
426.211015
 30
0.0
 11
1033.38153
 21
426.211015
 31
0.0
  0
LINE
  5
509
100
AcDbEntity
  8
LAY-1
  6
CONTINUOUS
 62
     7
100
AcDbLine
 10
933.11847
 20
426.211015
 30
0.0
 11
933.11847
 21
429.711015
 31
0.0
  0
ARC
  5
50A
100
AcDbEntity
  8
LAY-1
  6
CONTINUOUS
 62
     7
100
AcDbCircle
 10
935.61847
 20
429.711015
 30
0.0
 40
2.5
100
AcDbArc
 50
90.0
 51
180.0
  0
LINE
  5
50B
100
AcDbEntity
  8
LAY-1
  6
CONTINUOUS
 62
     7
100
AcDbLine
 10
944.11847
 20
432.211015
 30
0.0
 11
935.61847
 21
432.211015
 31
0.0
  0
LINE
  5
50C
100
AcDbEntity
  8
LAY-1
  6
CONTINUOUS
 62
     7
100
AcDbLine
 10
946.61847
 20
426.211015
 30
0.0
 11
946.61847
 21
429.711015
 31
0.0
  0
ARC
  5
50D
100
AcDbEntity
  8
LAY-1
  6
CONTINUOUS
 62
     7
100
AcDbCircle
 10
944.11847
 20
429.711015
 30
0.0
 40
2.5
100
AcDbArc
 50
0.0
 51
90.0
  0
LINE
  5
50E
100
AcDbEntity
  8
LAY-1
  6
CONTINUOUS
 62
     7
100
AcDbLine
 10
939.86847
 20
426.211015
 30
0.0
 11
946.61847
 21
426.211015
 31
0.0
  0
LINE
  5
50F
100
AcDbEntity
  8
LAY-1
  6
CONTINUOUS
 62
     7
100
AcDbLine
 10
939.86847
 20
426.211015
 30
0.0
 11
933.11847
 21
426.211015
 31
0.0
  0
LINE
  5
510
100
AcDbEntity
  8
LAY-1
  6
CONTINUOUS
 62
     7
100
AcDbLine
 10
947.0
 20
507.871366
 30
0.0
 11
951.5
 21
507.871366
 31
0.0
  0
ARC
  5
511
100
AcDbEntity
  8
LAY-1
  6
CONTINUOUS
 62
     7
100
AcDbCircle
 10
1031.982393
 20
511.871366
 30
0.0
 40
1.0
100
AcDbArc
 50
1.0
 51
90.0
  0
LINE
  5
512
100
AcDbEntity
  8
LAY-1
  6
CONTINUOUS
 62
     7
100
AcDbLine
 10
1033.017455
 20
507.871366
 30
0.0
 11
1032.98224
 21
511.888818
 31
0.0
  0
ARC
  5
513
100
AcDbEntity
  8
LAY-1
  6
CONTINUOUS
 62
     7
100
AcDbCircle
 10
948.017607
 20
511.871366
 30
0.0
 40
1.0
100
AcDbArc
 50
90.0
 51
179.0
  0
LINE
  5
514
100
AcDbEntity
  8
LAY-1
  6
CONTINUOUS
 62
     7
100
AcDbLine
 10
946.982545
 20
507.871366
 30
0.0
 11
947.01776
 21
511.888818
 31
0.0
  0
LINE
  5
515
100
AcDbEntity
  8
LAY-1
  6
CONTINUOUS
 62
     7
100
AcDbLine
 10
948.017607
 20
512.871366
 30
0.0
 11
990.0
 21
512.871366
 31
0.0
  0
ARC
  5
516
100
AcDbEntity
  8
LAY-1
  6
CONTINUOUS
 62
     7
100
AcDbCircle
 10
962.5
 20
513.871366
 30
0.0
 40
1.0
100
AcDbArc
 50
270.0
 51
0.0
  0
ARC
  5
517
100
AcDbEntity
  8
LAY-1
  6
CONTINUOUS
 62
     7
100
AcDbCircle
 10
964.5
 20
522.871366
 30
0.0
 40
1.0
100
AcDbArc
 50
90.0
 51
180.0
  0
LINE
  5
518
100
AcDbEntity
  8
LAY-1
  6
CONTINUOUS
 62
     7
100
AcDbLine
 10
990.0
 20
523.871366
 30
0.0
 11
964.5
 21
523.871366
 31
0.0
  0
LINE
  5
519
100
AcDbEntity
  8
LAY-1
  6
CONTINUOUS
 62
     7
100
AcDbLine
 10
963.5
 20
522.871366
 30
0.0
 11
963.5
 21
513.871366
 31
0.0
  0
LINE
  5
51A
100
AcDbEntity
  8
LAY-1
  6
CONTINUOUS
 62
     7
100
AcDbLine
 10
1031.982393
 20
512.871366
 30
0.0
 11
990.0
 21
512.871366
 31
0.0
  0
ARC
  5
51B
100
AcDbEntity
  8
LAY-1
  6
CONTINUOUS
 62
     7
100
AcDbCircle
 10
1017.5
 20
513.871366
 30
0.0
 40
1.0
100
AcDbArc
 50
180.0
 51
270.0
  0
ARC
  5
51C
100
AcDbEntity
  8
LAY-1
  6
CONTINUOUS
 62
     7
100
AcDbCircle
 10
1015.5
 20
522.871366
 30
0.0
 40
1.0
100
AcDbArc
 50
0.0
 51
90.0
  0
LINE
  5
51D
100
AcDbEntity
  8
LAY-1
  6
CONTINUOUS
 62
     7
100
AcDbLine
 10
990.0
 20
523.871366
 30
0.0
 11
1015.5
 21
523.871366
 31
0.0
  0
LINE
  5
51E
100
AcDbEntity
  8
LAY-1
  6
CONTINUOUS
 62
     7
100
AcDbLine
 10
1016.5
 20
522.871366
 30
0.0
 11
1016.5
 21
513.871366
 31
0.0
  0
ARC
  5
51F
100
AcDbEntity
  8
LAY-1
  6
CONTINUOUS
 62
     7
100
AcDbCircle
 10
850.5
 20
424.111015
 30
0.0
 40
0.5
100
AcDbArc
 50
90.0
 51
180.0
  0
LINE
  5
520
100
AcDbEntity
  8
LAY-1
  6
CONTINUOUS
 62
     7
100
AcDbLine
 10
850.0
 20
424.611015
 30
0.0
 11
850.0
 21
422.611015
 31
0.0
  0
POLYLINE
  5
521
100
AcDbEntity
  8
LAY-1
  6
CONTINUOUS
 62
     7
100
AcDb2dPolyline
 66
     1
 10
0.0
 20
0.0
 30
0.0
 70
   128
  0
VERTEX
  5
522
100
AcDbEntity
  8
LAY-1
  6
CONTINUOUS
 62
     7
100
AcDbVertex
100
AcDb2dVertex
 10
971.36039
 20
272.111015
 30
0.0
  0
VERTEX
  5
523
100
AcDbEntity
  8
LAY-1
  6
CONTINUOUS
 62
     7
100
AcDbVertex
100
AcDb2dVertex
 10
945.0
 20
298.471405
 30
0.0
  0
VERTEX
  5
524
100
AcDbEntity
  8
LAY-1
  6
CONTINUOUS
 62
     7
100
AcDbVertex
100
AcDb2dVertex
 10
945.0
 20
335.750626
 30
0.0
  0
VERTEX
  5
525
100
AcDbEntity
  8
LAY-1
  6
CONTINUOUS
 62
     7
100
AcDbVertex
100
AcDb2dVertex
 10
971.36039
 20
362.111015
 30
0.0
  0
VERTEX
  5
526
100
AcDbEntity
  8
LAY-1
  6
CONTINUOUS
 62
     7
100
AcDbVertex
100
AcDb2dVertex
 10
1008.63961
 20
362.111015
 30
0.0
  0
VERTEX
  5
527
100
AcDbEntity
  8
LAY-1
  6
CONTINUOUS
 62
     7
100
AcDbVertex
100
AcDb2dVertex
 10
1035.0
 20
335.750626
 30
0.0
  0
VERTEX
  5
528
100
AcDbEntity
  8
LAY-1
  6
CONTINUOUS
 62
     7
100
AcDbVertex
100
AcDb2dVertex
 10
1035.0
 20
298.471405
 30
0.0
  0
VERTEX
  5
529
100
AcDbEntity
  8
LAY-1
  6
CONTINUOUS
 62
     7
100
AcDbVertex
100
AcDb2dVertex
 10
1008.63961
 20
272.111015
 30
0.0
  0
VERTEX
  5
52A
100
AcDbEntity
  8
LAY-1
  6
CONTINUOUS
 62
     7
100
AcDbVertex
100
AcDb2dVertex
 10
971.36039
 20
272.111015
 30
0.0
  0
SEQEND
  5
52B
100
AcDbEntity
  8
LAY-1
  6
CONTINUOUS
 62
     7
  0
CIRCLE
  5
52C
100
AcDbEntity
  8
LAY-1
  6
CONTINUOUS
 62
     7
100
AcDbCircle
 10
990.0
 20
317.111015
 30
0.0
 40
28.18654
  0
LINE
  5
52D
100
AcDbEntity
  8
LAY-1
  6
CONTINUOUS
 62
     7
100
AcDbLine
 10
945.0
 20
335.750626
 30
0.0
 11
945.0
 21
362.375253
 31
0.0
  0
ARC
  5
52E
100
AcDbEntity
  8
LAY-1
  6
CONTINUOUS
 62
     7
100
AcDbCircle
 10
935.0
 20
362.375253
 30
0.0
 40
10.0
100
AcDbArc
 50
0.0
 51
87.0
  0
ARC
  5
52F
100
AcDbEntity
  8
LAY-1
  6
CONTINUOUS
 62
     7
100
AcDbCircle
 10
1045.0
 20
362.375253
 30
0.0
 40
10.0
100
AcDbArc
 50
93.0
 51
180.0
  0
LINE
  5
530
100
AcDbEntity
  8
LAY-1
  6
CONTINUOUS
 62
     7
100
AcDbLine
 10
1035.0
 20
335.750626
 30
0.0
 11
1035.0
 21
362.375253
 31
0.0
  0
ARC
  5
531
100
AcDbEntity
  8
LAY-1
  6
CONTINUOUS
 62
     7
100
AcDbCircle
 10
979.0
 20
256.511015
 30
0.0
 40
5.0
100
AcDbArc
 50
270.0
 51
0.0
  0
ARC
  5
532
100
AcDbEntity
  8
LAY-1
  6
CONTINUOUS
 62
     7
100
AcDbCircle
 10
1001.0
 20
256.511015
 30
0.0
 40
5.0
100
AcDbArc
 50
180.0
 51
270.0
  0
LINE
  5
533
100
AcDbEntity
  8
LAY-1
  6
CONTINUOUS
 62
     7
100
AcDbLine
 10
996.0
 20
267.111015
 30
0.0
 11
996.0
 21
256.511015
 31
0.0
  0
ARC
  5
534
100
AcDbEntity
  8
LAY-1
  6
CONTINUOUS
 62
     7
100
AcDbCircle
 10
1001.0
 20
267.111015
 30
0.0
 40
5.0
100
AcDbArc
 50
90.0
 51
180.0
  0
LINE
  5
535
100
AcDbEntity
  8
LAY-1
  6
CONTINUOUS
 62
     7
100
AcDbLine
 10
984.0
 20
256.511015
 30
0.0
 11
984.0
 21
267.111015
 31
0.0
  0
ARC
  5
536
100
AcDbEntity
  8
LAY-1
  6
CONTINUOUS
 62
     7
100
AcDbCircle
 10
979.0
 20
267.111015
 30
0.0
 40
5.0
100
AcDbArc
 50
0.0
 51
90.0
  0
LINE
  5
537
100
AcDbEntity
  8
LAY-1
  6
CONTINUOUS
 62
     7
100
AcDbLine
 10
979.0
 20
251.511015
 30
0.0
 11
878.0
 21
251.511015
 31
0.0
  0
LINE
  5
538
100
AcDbEntity
  8
LAY-1
  6
CONTINUOUS
 62
     7
100
AcDbLine
 10
1001.0
 20
251.511015
 30
0.0
 11
1102.0
 21
251.511015
 31
0.0
  0
LINE
  5
539
100
AcDbEntity
  8
LAY-1
  6
CONTINUOUS
 62
     7
100
AcDbLine
 10
1104.0
 20
241.511015
 30
0.0
 11
990.0
 21
241.511015
 31
0.0
  0
LINE
  5
53A
100
AcDbEntity
  8
LAY-1
  6
CONTINUOUS
 62
     7
100
AcDbLine
 10
876.0
 20
241.511015
 30
0.0
 11
990.0
 21
241.511015
 31
0.0
  0
LINE
  5
53B
100
AcDbEntity
  8
LAY-1
  6
CONTINUOUS
 62
     7
100
AcDbLine
 10
816.111509
 20
423.111015
 30
0.0
 11
816.111509
 21
431.511015
 31
0.0
  0
LINE
  5
53C
100
AcDbEntity
  8
LAY-1
  6
CONTINUOUS
 62
     7
100
AcDbLine
 10
829.511509
 20
436.511015
 30
0.0
 11
821.111509
 21
436.511015
 31
0.0
  0
ARC
  5
53D
100
AcDbEntity
  8
LAY-1
  6
CONTINUOUS
 62
     7
100
AcDbCircle
 10
821.111509
 20
431.511015
 30
0.0
 40
5.0
100
AcDbArc
 50
90.0
 51
180.0
  0
LINE
  5
53E
100
AcDbEntity
  8
LAY-1
  6
CONTINUOUS
 62
     7
100
AcDbLine
 10
778.911509
 20
423.111015
 30
0.0
 11
778.911509
 21
443.711015
 31
0.0
  0
LINE
  5
53F
100
AcDbEntity
  8
LAY-1
  6
CONTINUOUS
 62
     7
100
AcDbLine
 10
829.511509
 20
473.711015
 30
0.0
 11
808.911509
 21
473.711015
 31
0.0
  0
ARC
  5
540
100
AcDbEntity
  8
LAY-1
  6
CONTINUOUS
 62
     7
100
AcDbCircle
 10
808.911509
 20
443.711015
 30
0.0
 40
30.0
100
AcDbArc
 50
90.0
 51
180.0
  0
LINE
  5
541
100
AcDbEntity
  8
LAY-1
  6
CONTINUOUS
 62
     7
100
AcDbLine
 10
829.511509
 20
473.711015
 30
0.0
 11
829.511509
 21
436.511015
 31
0.0
  0
LINE
  5
542
100
AcDbEntity
  8
LAY-1
  6
CONTINUOUS
 62
     7
100
AcDbLine
 10
816.111509
 20
423.111015
 30
0.0
 11
815.011509
 21
423.111015
 31
0.0
  0
LINE
  5
543
100
AcDbEntity
  8
LAY-1
  6
CONTINUOUS
 62
     7
100
AcDbLine
 10
815.011509
 20
423.111015
 30
0.0
 11
797.511509
 21
423.111015
 31
0.0
  0
LINE
  5
544
100
AcDbEntity
  8
LAY-1
  6
CONTINUOUS
 62
     7
100
AcDbLine
 10
778.911509
 20
423.111015
 30
0.0
 11
797.511509
 21
423.111015
 31
0.0
  0
LINE
  5
545
100
AcDbEntity
  8
LAY-1
  6
CONTINUOUS
 62
     7
100
AcDbLine
 10
844.511509
 20
471.111015
 30
0.0
 11
845.511509
 21
469.378965
 31
0.0
  0
ARC
  5
546
100
AcDbEntity
  8
LAY-1
  6
CONTINUOUS
 62
     7
100
AcDbCircle
 10
836.642959
 20
467.011015
 30
0.0
 40
8.872659
100
AcDbArc
 50
332.477706
 51
27.522294
  0
LINE
  5
547
100
AcDbEntity
  8
LAY-1
  6
CONTINUOUS
 62
     7
100
AcDbLine
 10
845.511509
 20
469.378965
 30
0.0
 11
845.511509
 21
455.111015
 31
0.0
  0
ARC
  5
548
100
AcDbEntity
  8
LAY-1
  6
CONTINUOUS
 62
     7
100
AcDbCircle
 10
813.811509
 20
455.011015
 30
0.0
 40
31.700158
100
AcDbArc
 50
0.180743
 51
14.430776
  0
LINE
  5
549
100
AcDbEntity
  8
LAY-1
  6
CONTINUOUS
 62
     7
100
AcDbLine
 10
835.511509
 20
471.111015
 30
0.0
 11
834.511509
 21
469.378965
 31
0.0
  0
ARC
  5
54A
100
AcDbEntity
  8
LAY-1
  6
CONTINUOUS
 62
     7
100
AcDbCircle
 10
843.380059
 20
467.011015
 30
0.0
 40
8.872659
100
AcDbArc
 50
152.477706
 51
207.522294
  0
LINE
  5
54B
100
AcDbEntity
  8
LAY-1
  6
CONTINUOUS
 62
     7
100
AcDbLine
 10
834.511509
 20
469.378965
 30
0.0
 11
834.511509
 21
455.111015
 31
0.0
  0
ARC
  5
54C
100
AcDbEntity
  8
LAY-1
  6
CONTINUOUS
 62
     7
100
AcDbCircle
 10
866.211509
 20
455.011015
 30
0.0
 40
31.700158
100
AcDbArc
 50
165.569224
 51
179.819257
  0
LINE
  5
54D
100
AcDbEntity
  8
LAY-1
  6
CONTINUOUS
 62
     7
100
AcDbLine
 10
844.511509
 20
471.111015
 30
0.0
 11
835.511509
 21
471.111015
 31
0.0
  0
LINE
  5
54E
100
AcDbEntity
  8
LAY-1
  6
CONTINUOUS
 62
     7
100
AcDbLine
 10
844.511509
 20
462.911015
 30
0.0
 11
835.511509
 21
462.911015
 31
0.0
  0
LINE
  5
54F
100
AcDbEntity
  8
LAY-1
  6
CONTINUOUS
 62
     7
100
AcDbLine
 10
845.511509
 20
469.270527
 30
0.0
 11
845.511509
 21
455.002578
 31
0.0
  0
LINE
  5
550
100
AcDbEntity
  8
LAY-1
  6
CONTINUOUS
 62
     7
100
AcDbLine
 10
848.511509
 20
468.394015
 30
0.0
 11
848.511509
 21
455.111015
 31
0.0
  0
LINE
  5
551
100
AcDbEntity
  8
LAY-1
  6
CONTINUOUS
 62
     7
100
AcDbLine
 10
831.511509
 20
468.394015
 30
0.0
 11
831.511509
 21
455.111015
 31
0.0
  0
LINE
  5
552
100
AcDbEntity
  8
LAY-1
  6
CONTINUOUS
 62
     7
100
AcDbLine
 10
829.511509
 20
468.331515
 30
0.0
 11
834.511509
 21
468.487765
 31
0.0
  0
LINE
  5
553
100
AcDbEntity
  8
LAY-1
  6
CONTINUOUS
 62
     7
100
AcDbLine
 10
844.511509
 20
439.111015
 30
0.0
 11
845.511509
 21
440.843066
 31
0.0
  0
ARC
  5
554
100
AcDbEntity
  8
LAY-1
  6
CONTINUOUS
 62
     7
100
AcDbCircle
 10
836.642959
 20
443.211015
 30
0.0
 40
8.872659
100
AcDbArc
 50
332.477706
 51
27.522294
  0
LINE
  5
555
100
AcDbEntity
  8
LAY-1
  6
CONTINUOUS
 62
     7
100
AcDbLine
 10
845.511509
 20
440.843066
 30
0.0
 11
845.511509
 21
455.111015
 31
0.0
  0
ARC
  5
556
100
AcDbEntity
  8
LAY-1
  6
CONTINUOUS
 62
     7
100
AcDbCircle
 10
813.811509
 20
455.211015
 30
0.0
 40
31.700158
100
AcDbArc
 50
345.569224
 51
359.819257
  0
LINE
  5
557
100
AcDbEntity
  8
LAY-1
  6
CONTINUOUS
 62
     7
100
AcDbLine
 10
835.511509
 20
439.111015
 30
0.0
 11
834.511509
 21
440.843066
 31
0.0
  0
ARC
  5
558
100
AcDbEntity
  8
LAY-1
  6
CONTINUOUS
 62
     7
100
AcDbCircle
 10
843.380059
 20
443.211015
 30
0.0
 40
8.872659
100
AcDbArc
 50
152.477706
 51
207.522294
  0
LINE
  5
559
100
AcDbEntity
  8
LAY-1
  6
CONTINUOUS
 62
     7
100
AcDbLine
 10
834.511509
 20
440.843066
 30
0.0
 11
834.511509
 21
455.111015
 31
0.0
  0
ARC
  5
55A
100
AcDbEntity
  8
LAY-1
  6
CONTINUOUS
 62
     7
100
AcDbCircle
 10
866.211509
 20
455.211015
 30
0.0
 40
31.700158
100
AcDbArc
 50
180.180743
 51
194.430776
  0
LINE
  5
55B
100
AcDbEntity
  8
LAY-1
  6
CONTINUOUS
 62
     7
100
AcDbLine
 10
844.511509
 20
439.111015
 30
0.0
 11
835.511509
 21
439.111015
 31
0.0
  0
LINE
  5
55C
100
AcDbEntity
  8
LAY-1
  6
CONTINUOUS
 62
     7
100
AcDbLine
 10
844.511509
 20
447.311015
 30
0.0
 11
835.511509
 21
447.311015
 31
0.0
  0
LINE
  5
55D
100
AcDbEntity
  8
LAY-1
  6
CONTINUOUS
 62
     7
100
AcDbLine
 10
845.511509
 20
440.951504
 30
0.0
 11
845.511509
 21
455.219453
 31
0.0
  0
LINE
  5
55E
100
AcDbEntity
  8
LAY-1
  6
CONTINUOUS
 62
     7
100
AcDbLine
 10
848.511509
 20
441.828015
 30
0.0
 11
848.511509
 21
455.111015
 31
0.0
  0
LINE
  5
55F
100
AcDbEntity
  8
LAY-1
  6
CONTINUOUS
 62
     7
100
AcDbLine
 10
831.511509
 20
441.828015
 30
0.0
 11
831.511509
 21
455.111015
 31
0.0
  0
LINE
  5
560
100
AcDbEntity
  8
LAY-1
  6
CONTINUOUS
 62
     7
100
AcDbLine
 10
829.511509
 20
441.890515
 30
0.0
 11
834.511509
 21
441.734265
 31
0.0
  0
LINE
  5
561
100
AcDbEntity
  8
LAY-1
  6
CONTINUOUS
 62
     7
100
AcDbLine
 10
850.932474
 20
441.903671
 30
0.0
 11
845.511509
 21
441.734265
 31
0.0
  0
LINE
  5
562
100
AcDbEntity
  8
LAY-1
  6
CONTINUOUS
 62
     7
100
AcDbLine
 10
852.290012
 20
468.275937
 30
0.0
 11
845.511509
 21
468.487765
 31
0.0
  0
LINE
  5
563
100
AcDbEntity
  8
LAY-1
  6
CONTINUOUS
 62
     7
100
AcDbLine
 10
895.00001
 20
302.110995
 30
0.0
 11
895.00001
 21
332.111035
 31
0.0
  0
LINE
  5
564
100
AcDbEntity
  8
LAY-1
  6
CONTINUOUS
 62
     7
100
AcDbLine
 10
895.00001
 20
332.111035
 30
0.0
 11
901.89485
 21
333.326915
 31
0.0
  0
LINE
  5
565
100
AcDbEntity
  8
LAY-1
  6
CONTINUOUS
 62
     7
100
AcDbLine
 10
895.00001
 20
302.110995
 30
0.0
 11
901.89485
 21
300.895115
 31
0.0
  0
LINE
  5
566
100
AcDbEntity
  8
LAY-1
  6
CONTINUOUS
 62
     7
100
AcDbLine
 10
896.0
 20
332.28738
 30
0.0
 11
896.0
 21
364.943234
 31
0.0
  0
LINE
  5
567
100
AcDbEntity
  8
LAY-1
  6
CONTINUOUS
 62
     7
100
AcDbLine
 10
896.0
 20
261.511015
 30
0.0
 11
896.0
 21
301.934651
 31
0.0
  0
LINE
  5
568
100
AcDbEntity
  8
LAY-1
  6
CONTINUOUS
 62
     7
100
AcDbLine
 10
1098.3235
 20
252.411015
 30
0.0
 11
1091.6765
 21
252.411015
 31
0.0
  0
LINE
  5
569
100
AcDbEntity
  8
LAY-1
  6
CONTINUOUS
 62
     7
100
AcDbLine
 10
1099.0
 20
251.734515
 30
0.0
 11
1098.3235
 21
252.411015
 31
0.0
  0
LINE
  5
56A
100
AcDbEntity
  8
LAY-1
  6
CONTINUOUS
 62
     7
100
AcDbLine
 10
1099.0
 20
251.511015
 30
0.0
 11
1099.0
 21
251.734515
 31
0.0
  0
LINE
  5
56B
100
AcDbEntity
  8
LAY-1
  6
CONTINUOUS
 62
     7
100
AcDbLine
 10
1091.6765
 20
252.411015
 30
0.0
 11
1091.0
 21
251.734515
 31
0.0
  0
LINE
  5
56C
100
AcDbEntity
  8
LAY-1
  6
CONTINUOUS
 62
     7
100
AcDbLine
 10
1091.0
 20
251.511015
 30
0.0
 11
1091.0
 21
251.734515
 31
0.0
  0
LINE
  5
56D
100
AcDbEntity
  8
LAY-1
  6
CONTINUOUS
 62
     7
100
AcDbLine
 10
1091.0
 20
251.734515
 30
0.0
 11
1099.0
 21
251.734515
 31
0.0
  0
LINE
  5
56E
100
AcDbEntity
  8
LAY-1
  6
CONTINUOUS
 62
     7
100
AcDbLine
 10
881.6765
 20
252.411015
 30
0.0
 11
888.3235
 21
252.411015
 31
0.0
  0
LINE
  5
56F
100
AcDbEntity
  8
LAY-1
  6
CONTINUOUS
 62
     7
100
AcDbLine
 10
881.0
 20
251.734515
 30
0.0
 11
881.6765
 21
252.411015
 31
0.0
  0
LINE
  5
570
100
AcDbEntity
  8
LAY-1
  6
CONTINUOUS
 62
     7
100
AcDbLine
 10
881.0
 20
251.511015
 30
0.0
 11
881.0
 21
251.734515
 31
0.0
  0
LINE
  5
571
100
AcDbEntity
  8
LAY-1
  6
CONTINUOUS
 62
     7
100
AcDbLine
 10
888.3235
 20
252.411015
 30
0.0
 11
889.0
 21
251.734515
 31
0.0
  0
LINE
  5
572
100
AcDbEntity
  8
LAY-1
  6
CONTINUOUS
 62
     7
100
AcDbLine
 10
889.0
 20
251.511015
 30
0.0
 11
889.0
 21
251.734515
 31
0.0
  0
LINE
  5
573
100
AcDbEntity
  8
LAY-1
  6
CONTINUOUS
 62
     7
100
AcDbLine
 10
889.0
 20
251.734515
 30
0.0
 11
881.0
 21
251.734515
 31
0.0
  0
ARC
  5
574
100
AcDbEntity
  8
LAY-1
  6
CONTINUOUS
 62
     7
100
AcDbCircle
 10
1094.0
 20
261.511015
 30
0.0
 40
10.0
100
AcDbArc
 50
180.0
 51
253.631267
  0
LINE
  5
575
100
AcDbEntity
  8
LAY-1
  6
CONTINUOUS
 62
     7
100
AcDbLine
 10
1045.8235
 20
252.411015
 30
0.0
 11
1039.1765
 21
252.411015
 31
0.0
  0
LINE
  5
576
100
AcDbEntity
  8
LAY-1
  6
CONTINUOUS
 62
     7
100
AcDbLine
 10
1046.5
 20
251.734515
 30
0.0
 11
1045.8235
 21
252.411015
 31
0.0
  0
LINE
  5
577
100
AcDbEntity
  8
LAY-1
  6
CONTINUOUS
 62
     7
100
AcDbLine
 10
1046.5
 20
251.511015
 30
0.0
 11
1046.5
 21
251.734515
 31
0.0
  0
LINE
  5
578
100
AcDbEntity
  8
LAY-1
  6
CONTINUOUS
 62
     7
100
AcDbLine
 10
1039.1765
 20
252.411015
 30
0.0
 11
1038.5
 21
251.734515
 31
0.0
  0
LINE
  5
579
100
AcDbEntity
  8
LAY-1
  6
CONTINUOUS
 62
     7
100
AcDbLine
 10
1038.5
 20
251.511015
 30
0.0
 11
1038.5
 21
251.734515
 31
0.0
  0
LINE
  5
57A
100
AcDbEntity
  8
LAY-1
  6
CONTINUOUS
 62
     7
100
AcDbLine
 10
1038.5
 20
251.734515
 30
0.0
 11
1046.5
 21
251.734515
 31
0.0
  0
LINE
  5
57B
100
AcDbEntity
  8
LAY-1
  6
CONTINUOUS
 62
     7
100
AcDbLine
 10
934.1765
 20
252.411015
 30
0.0
 11
940.8235
 21
252.411015
 31
0.0
  0
LINE
  5
57C
100
AcDbEntity
  8
LAY-1
  6
CONTINUOUS
 62
     7
100
AcDbLine
 10
933.5
 20
251.734515
 30
0.0
 11
934.1765
 21
252.411015
 31
0.0
  0
LINE
  5
57D
100
AcDbEntity
  8
LAY-1
  6
CONTINUOUS
 62
     7
100
AcDbLine
 10
933.5
 20
251.511015
 30
0.0
 11
933.5
 21
251.734515
 31
0.0
  0
LINE
  5
57E
100
AcDbEntity
  8
LAY-1
  6
CONTINUOUS
 62
     7
100
AcDbLine
 10
940.8235
 20
252.411015
 30
0.0
 11
941.5
 21
251.734515
 31
0.0
  0
LINE
  5
57F
100
AcDbEntity
  8
LAY-1
  6
CONTINUOUS
 62
     7
100
AcDbLine
 10
941.5
 20
251.511015
 30
0.0
 11
941.5
 21
251.734515
 31
0.0
  0
LINE
  5
580
100
AcDbEntity
  8
LAY-1
  6
CONTINUOUS
 62
     7
100
AcDbLine
 10
941.5
 20
251.734515
 30
0.0
 11
933.5
 21
251.734515
 31
0.0
  0
LINE
  5
581
100
AcDbEntity
  8
LAY-1
  6
CONTINUOUS
 62
     7
100
AcDbLine
 10
988.553074
 20
522.871366
 30
0.0
 11
988.553074
 21
513.871366
 31
0.0
  0
LINE
  5
582
100
AcDbEntity
  8
LAY-1
  6
CONTINUOUS
 62
     7
100
AcDbLine
 10
991.446926
 20
522.871366
 30
0.0
 11
991.446926
 21
513.871366
 31
0.0
  0
LINE
  5
583
100
AcDbEntity
  8
LAY-1
  6
CONTINUOUS
 62
     7
100
AcDbLine
 10
1008.710377
 20
513.871366
 30
0.0
 11
1008.710377
 21
522.871366
 31
0.0
  0
LINE
  5
584
100
AcDbEntity
  8
LAY-1
  6
CONTINUOUS
 62
     7
100
AcDbLine
 10
971.289623
 20
513.871366
 30
0.0
 11
971.289623
 21
522.871366
 31
0.0
  0
LINE
  5
585
100
AcDbEntity
  8
LAY-1
  6
CONTINUOUS
 62
     7
100
AcDbLine
 10
1130.0
 20
1184.522501
 30
0.0
 11
1130.0
 21
1223.056491
 31
0.0
  0
ARC
  5
586
100
AcDbEntity
  8
LAY-1
  6
CONTINUOUS
 62
     7
100
AcDbCircle
 10
1128.0
 20
1223.056491
 30
0.0
 40
2.0
100
AcDbArc
 50
353.734191
 51
88.00105
  0
LINE
  5
587
100
AcDbEntity
  8
LAY-1
  6
CONTINUOUS
 62
     7
100
AcDbLine
 10
1128.06976
 20
1225.055261
 30
0.0
 11
1112.354385
 21
1225.604064
 31
0.0
  0
LINE
  5
588
100
AcDbEntity
  8
LAY-1
  6
CONTINUOUS
 62
     7
100
AcDbLine
 10
1128.06976
 20
383.578215
 30
0.0
 11
1112.354385
 21
383.029413
 31
0.0
  0
ARC
  5
589
100
AcDbEntity
  8
LAY-1
  6
CONTINUOUS
 62
     7
100
AcDbCircle
 10
1128.0
 20
385.576985
 30
0.0
 40
2.0
100
AcDbArc
 50
271.99895
 51
6.265809
  0
LINE
  5
58A
100
AcDbEntity
  8
LAY-1
  6
CONTINUOUS
 62
     7
100
AcDbLine
 10
1130.0
 20
424.111015
 30
0.0
 11
1130.0
 21
385.795268
 31
0.0
  0
LINE
  5
58B
100
AcDbEntity
  8
LAY-1
  6
EXLTYPE3
 62
     1
100
AcDbLine
 10
990.0
 20
1470.4
 30
0.0
 11
990.0
 21
1061.4933
 31
0.0
  0
LINE
  5
58C
100
AcDbEntity
  8
LAY-1
  6
EXLTYPE3
 62
     1
100
AcDbLine
 10
990.0
 20
130.5
 30
0.0
 11
990.0
 21
547.140217
 31
0.0
  0
LINE
  5
58D
100
AcDbEntity
  8
LAY-1
  6
EXLTYPE3
 62
     1
100
AcDbLine
 10
242.2
 20
805.816758
 30
0.0
 11
643.933242
 21
805.816758
 31
0.0
  0
LINE
  5
58E
100
AcDbEntity
  8
LAY-1
  6
EXLTYPE3
 62
     1
100
AcDbLine
 10
1634.0
 20
805.816758
 30
0.0
 11
1235.066758
 21
805.816758
 31
0.0
  0
TEXT
  5
58F
100
AcDbEntity
  8
LAY-1
  6
CONTINUOUS
 62
     3
100
AcDbText
 10
1590.904
 20
179.816
 30
0.0
 40
19.0
  1
自動復帰型昇圧遮断装置付中間圧ハウスレギュレータ（リリーフ弁内蔵）
 41
0.401914
  7
EXCADSTD
 72
     5
 11
1890.904
 21
179.816
 31
0.0
100
AcDbText
  0
LINE
  5
590
100
AcDbEntity
  8
LAY-1
  6
EXLTYPE3
 62
     1
100
AcDbLine
 10
319.343022
 20
791.185079
 30
0.0
 11
319.343022
 21
805.816758
 31
0.0
  0
LINE
  5
591
100
AcDbEntity
  8
LAY-1
  6
EXLTYPE3
 62
     1
100
AcDbLine
 10
319.343022
 20
820.448438
 30
0.0
 11
319.343022
 21
805.816758
 31
0.0
  0
ARC
  5
592
100
AcDbEntity
  8
LAY-1
  6
CONTINUOUS
 62
     7
100
AcDbCircle
 10
878.0
 20
1372.522501
 30
0.0
 40
2.0
100
AcDbArc
 50
90.0
 51
180.0
  0
LINE
  5
593
100
AcDbEntity
  8
LAY-1
  6
CONTINUOUS
 62
     7
100
AcDbLine
 10
878.0
 20
1374.522501
 30
0.0
 11
990.0
 21
1374.522501
 31
0.0
  0
ARC
  5
594
100
AcDbEntity
  8
LAY-1
  6
CONTINUOUS
 62
     7
100
AcDbCircle
 10
1102.0
 20
1372.522501
 30
0.0
 40
2.0
100
AcDbArc
 50
0.0
 51
90.0
  0
LINE
  5
595
100
AcDbEntity
  8
LAY-1
  6
CONTINUOUS
 62
     7
100
AcDbLine
 10
1102.0
 20
1374.522501
 30
0.0
 11
990.0
 21
1374.522501
 31
0.0
  0
LINE
  5
596
100
AcDbEntity
  8
LAY-1
  6
CONTINUOUS
 62
     7
100
AcDbLine
 10
1101.928203
 20
1374.522501
 30
0.0
 11
1101.928203
 21
1376.122501
 31
0.0
  0
LINE
  5
597
100
AcDbEntity
  8
LAY-1
  6
CONTINUOUS
 62
     7
100
AcDbLine
 10
1101.928203
 20
1376.122501
 30
0.0
 11
1088.071797
 21
1376.122501
 31
0.0
  0
LINE
  5
598
100
AcDbEntity
  8
LAY-1
  6
CONTINUOUS
 62
     7
100
AcDbLine
 10
1088.071797
 20
1376.122501
 30
0.0
 11
1088.071797
 21
1374.522501
 31
0.0
  0
LINE
  5
599
100
AcDbEntity
  8
LAY-1
  6
CONTINUOUS
 62
     7
100
AcDbLine
 10
1101.75
 20
1376.122501
 30
0.0
 11
1101.75
 21
1379.622501
 31
0.0
  0
ARC
  5
59A
100
AcDbEntity
  8
LAY-1
  6
CONTINUOUS
 62
     7
100
AcDbCircle
 10
1099.25
 20
1379.622501
 30
0.0
 40
2.5
100
AcDbArc
 50
0.0
 51
90.0
  0
LINE
  5
59B
100
AcDbEntity
  8
LAY-1
  6
CONTINUOUS
 62
     7
100
AcDbLine
 10
1090.75
 20
1382.122501
 30
0.0
 11
1099.25
 21
1382.122501
 31
0.0
  0
ARC
  5
59C
100
AcDbEntity
  8
LAY-1
  6
CONTINUOUS
 62
     7
100
AcDbCircle
 10
1090.75
 20
1379.622501
 30
0.0
 40
2.5
100
AcDbArc
 50
90.0
 51
180.0
  0
LINE
  5
59D
100
AcDbEntity
  8
LAY-1
  6
CONTINUOUS
 62
     7
100
AcDbLine
 10
1088.25
 20
1376.122501
 30
0.0
 11
1088.25
 21
1379.622501
 31
0.0
  0
LINE
  5
59E
100
AcDbEntity
  8
LAY-1
  6
CONTINUOUS
 62
     7
100
AcDbLine
 10
878.071797
 20
1374.522501
 30
0.0
 11
878.071797
 21
1376.122501
 31
0.0
  0
LINE
  5
59F
100
AcDbEntity
  8
LAY-1
  6
CONTINUOUS
 62
     7
100
AcDbLine
 10
878.071797
 20
1376.122501
 30
0.0
 11
891.928203
 21
1376.122501
 31
0.0
  0
LINE
  5
5A0
100
AcDbEntity
  8
LAY-1
  6
CONTINUOUS
 62
     7
100
AcDbLine
 10
891.928203
 20
1376.122501
 30
0.0
 11
891.928203
 21
1374.522501
 31
0.0
  0
LINE
  5
5A1
100
AcDbEntity
  8
LAY-1
  6
CONTINUOUS
 62
     7
100
AcDbLine
 10
878.25
 20
1376.122501
 30
0.0
 11
878.25
 21
1379.622501
 31
0.0
  0
ARC
  5
5A2
100
AcDbEntity
  8
LAY-1
  6
CONTINUOUS
 62
     7
100
AcDbCircle
 10
880.75
 20
1379.622501
 30
0.0
 40
2.5
100
AcDbArc
 50
90.0
 51
180.0
  0
LINE
  5
5A3
100
AcDbEntity
  8
LAY-1
  6
CONTINUOUS
 62
     7
100
AcDbLine
 10
889.25
 20
1382.122501
 30
0.0
 11
880.75
 21
1382.122501
 31
0.0
  0
ARC
  5
5A4
100
AcDbEntity
  8
LAY-1
  6
CONTINUOUS
 62
     7
100
AcDbCircle
 10
889.25
 20
1379.622501
 30
0.0
 40
2.5
100
AcDbArc
 50
0.0
 51
90.0
  0
LINE
  5
5A5
100
AcDbEntity
  8
LAY-1
  6
CONTINUOUS
 62
     7
100
AcDbLine
 10
891.75
 20
1376.122501
 30
0.0
 11
891.75
 21
1379.622501
 31
0.0
  0
LINE
  5
5A6
100
AcDbEntity
  8
LAY-1
  6
CONTINUOUS
 62
     7
100
AcDbLine
 10
1049.428203
 20
1374.522501
 30
0.0
 11
1049.428203
 21
1376.122501
 31
0.0
  0
LINE
  5
5A7
100
AcDbEntity
  8
LAY-1
  6
CONTINUOUS
 62
     7
100
AcDbLine
 10
1049.428203
 20
1376.122501
 30
0.0
 11
1035.571797
 21
1376.122501
 31
0.0
  0
LINE
  5
5A8
100
AcDbEntity
  8
LAY-1
  6
CONTINUOUS
 62
     7
100
AcDbLine
 10
1035.571797
 20
1376.122501
 30
0.0
 11
1035.571797
 21
1374.522501
 31
0.0
  0
LINE
  5
5A9
100
AcDbEntity
  8
LAY-1
  6
CONTINUOUS
 62
     7
100
AcDbLine
 10
1049.25
 20
1376.122501
 30
0.0
 11
1049.25
 21
1379.622501
 31
0.0
  0
ARC
  5
5AA
100
AcDbEntity
  8
LAY-1
  6
CONTINUOUS
 62
     7
100
AcDbCircle
 10
1046.75
 20
1379.622501
 30
0.0
 40
2.5
100
AcDbArc
 50
0.0
 51
90.0
  0
LINE
  5
5AB
100
AcDbEntity
  8
LAY-1
  6
CONTINUOUS
 62
     7
100
AcDbLine
 10
1038.25
 20
1382.122501
 30
0.0
 11
1046.75
 21
1382.122501
 31
0.0
  0
ARC
  5
5AC
100
AcDbEntity
  8
LAY-1
  6
CONTINUOUS
 62
     7
100
AcDbCircle
 10
1038.25
 20
1379.622501
 30
0.0
 40
2.5
100
AcDbArc
 50
90.0
 51
180.0
  0
LINE
  5
5AD
100
AcDbEntity
  8
LAY-1
  6
CONTINUOUS
 62
     7
100
AcDbLine
 10
1035.75
 20
1376.122501
 30
0.0
 11
1035.75
 21
1379.622501
 31
0.0
  0
LINE
  5
5AE
100
AcDbEntity
  8
LAY-1
  6
CONTINUOUS
 62
     7
100
AcDbLine
 10
930.571797
 20
1374.522501
 30
0.0
 11
930.571797
 21
1376.122501
 31
0.0
  0
LINE
  5
5AF
100
AcDbEntity
  8
LAY-1
  6
CONTINUOUS
 62
     7
100
AcDbLine
 10
930.571797
 20
1376.122501
 30
0.0
 11
944.428203
 21
1376.122501
 31
0.0
  0
LINE
  5
5B0
100
AcDbEntity
  8
LAY-1
  6
CONTINUOUS
 62
     7
100
AcDbLine
 10
944.428203
 20
1376.122501
 30
0.0
 11
944.428203
 21
1374.522501
 31
0.0
  0
LINE
  5
5B1
100
AcDbEntity
  8
LAY-1
  6
CONTINUOUS
 62
     7
100
AcDbLine
 10
930.75
 20
1376.122501
 30
0.0
 11
930.75
 21
1379.622501
 31
0.0
  0
ARC
  5
5B2
100
AcDbEntity
  8
LAY-1
  6
CONTINUOUS
 62
     7
100
AcDbCircle
 10
933.25
 20
1379.622501
 30
0.0
 40
2.5
100
AcDbArc
 50
90.0
 51
180.0
  0
LINE
  5
5B3
100
AcDbEntity
  8
LAY-1
  6
CONTINUOUS
 62
     7
100
AcDbLine
 10
941.75
 20
1382.122501
 30
0.0
 11
933.25
 21
1382.122501
 31
0.0
  0
ARC
  5
5B4
100
AcDbEntity
  8
LAY-1
  6
CONTINUOUS
 62
     7
100
AcDbCircle
 10
941.75
 20
1379.622501
 30
0.0
 40
2.5
100
AcDbArc
 50
0.0
 51
90.0
  0
LINE
  5
5B5
100
AcDbEntity
  8
LAY-1
  6
CONTINUOUS
 62
     7
100
AcDbLine
 10
944.25
 20
1376.122501
 30
0.0
 11
944.25
 21
1379.622501
 31
0.0
  0
LINE
  5
5B6
100
AcDbEntity
  8
LAY-1
  6
EXLTYPE3
 62
     1
100
AcDbLine
 10
908.9
 20
1403.522501
 30
0.0
 11
943.000044
 21
1403.522501
 31
0.0
  0
ARC
  5
5B7
100
AcDbEntity
  8
LAY-1
  6
CONTINUOUS
 62
     7
100
AcDbCircle
 10
878.0
 20
236.111015
 30
0.0
 40
2.0
100
AcDbArc
 50
180.0
 51
270.0
  0
LINE
  5
5B8
100
AcDbEntity
  8
LAY-1
  6
CONTINUOUS
 62
     7
100
AcDbLine
 10
878.0
 20
234.111015
 30
0.0
 11
990.0
 21
234.111015
 31
0.0
  0
ARC
  5
5B9
100
AcDbEntity
  8
LAY-1
  6
CONTINUOUS
 62
     7
100
AcDbCircle
 10
1102.0
 20
236.111015
 30
0.0
 40
2.0
100
AcDbArc
 50
270.0
 51
0.0
  0
LINE
  5
5BA
100
AcDbEntity
  8
LAY-1
  6
CONTINUOUS
 62
     7
100
AcDbLine
 10
1102.0
 20
234.111015
 30
0.0
 11
990.0
 21
234.111015
 31
0.0
  0
LINE
  5
5BB
100
AcDbEntity
  8
LAY-1
  6
CONTINUOUS
 62
     7
100
AcDbLine
 10
1101.928203
 20
234.111015
 30
0.0
 11
1101.928203
 21
232.511015
 31
0.0
  0
LINE
  5
5BC
100
AcDbEntity
  8
LAY-1
  6
CONTINUOUS
 62
     7
100
AcDbLine
 10
1101.928203
 20
232.511015
 30
0.0
 11
1088.071797
 21
232.511015
 31
0.0
  0
LINE
  5
5BD
100
AcDbEntity
  8
LAY-1
  6
CONTINUOUS
 62
     7
100
AcDbLine
 10
1088.071797
 20
232.511015
 30
0.0
 11
1088.071797
 21
234.111015
 31
0.0
  0
LINE
  5
5BE
100
AcDbEntity
  8
LAY-1
  6
CONTINUOUS
 62
     7
100
AcDbLine
 10
1101.75
 20
232.511015
 30
0.0
 11
1101.75
 21
229.011015
 31
0.0
  0
ARC
  5
5BF
100
AcDbEntity
  8
LAY-1
  6
CONTINUOUS
 62
     7
100
AcDbCircle
 10
1099.25
 20
229.011015
 30
0.0
 40
2.5
100
AcDbArc
 50
270.0
 51
0.0
  0
LINE
  5
5C0
100
AcDbEntity
  8
LAY-1
  6
CONTINUOUS
 62
     7
100
AcDbLine
 10
1090.75
 20
226.511015
 30
0.0
 11
1099.25
 21
226.511015
 31
0.0
  0
ARC
  5
5C1
100
AcDbEntity
  8
LAY-1
  6
CONTINUOUS
 62
     7
100
AcDbCircle
 10
1090.75
 20
229.011015
 30
0.0
 40
2.5
100
AcDbArc
 50
180.0
 51
270.0
  0
LINE
  5
5C2
100
AcDbEntity
  8
LAY-1
  6
CONTINUOUS
 62
     7
100
AcDbLine
 10
1088.25
 20
232.511015
 30
0.0
 11
1088.25
 21
229.011015
 31
0.0
  0
LINE
  5
5C3
100
AcDbEntity
  8
LAY-1
  6
CONTINUOUS
 62
     7
100
AcDbLine
 10
878.071797
 20
234.111015
 30
0.0
 11
878.071797
 21
232.511015
 31
0.0
  0
LINE
  5
5C4
100
AcDbEntity
  8
LAY-1
  6
CONTINUOUS
 62
     7
100
AcDbLine
 10
878.071797
 20
232.511015
 30
0.0
 11
891.928203
 21
232.511015
 31
0.0
  0
LINE
  5
5C5
100
AcDbEntity
  8
LAY-1
  6
CONTINUOUS
 62
     7
100
AcDbLine
 10
891.928203
 20
232.511015
 30
0.0
 11
891.928203
 21
234.111015
 31
0.0
  0
LINE
  5
5C6
100
AcDbEntity
  8
LAY-1
  6
CONTINUOUS
 62
     7
100
AcDbLine
 10
878.25
 20
232.511015
 30
0.0
 11
878.25
 21
229.011015
 31
0.0
  0
ARC
  5
5C7
100
AcDbEntity
  8
LAY-1
  6
CONTINUOUS
 62
     7
100
AcDbCircle
 10
880.75
 20
229.011015
 30
0.0
 40
2.5
100
AcDbArc
 50
180.0
 51
270.0
  0
LINE
  5
5C8
100
AcDbEntity
  8
LAY-1
  6
CONTINUOUS
 62
     7
100
AcDbLine
 10
889.25
 20
226.511015
 30
0.0
 11
880.75
 21
226.511015
 31
0.0
  0
ARC
  5
5C9
100
AcDbEntity
  8
LAY-1
  6
CONTINUOUS
 62
     7
100
AcDbCircle
 10
889.25
 20
229.011015
 30
0.0
 40
2.5
100
AcDbArc
 50
270.0
 51
0.0
  0
LINE
  5
5CA
100
AcDbEntity
  8
LAY-1
  6
CONTINUOUS
 62
     7
100
AcDbLine
 10
891.75
 20
232.511015
 30
0.0
 11
891.75
 21
229.011015
 31
0.0
  0
LINE
  5
5CB
100
AcDbEntity
  8
LAY-1
  6
CONTINUOUS
 62
     7
100
AcDbLine
 10
930.571797
 20
234.111015
 30
0.0
 11
930.571797
 21
232.511015
 31
0.0
  0
LINE
  5
5CC
100
AcDbEntity
  8
LAY-1
  6
CONTINUOUS
 62
     7
100
AcDbLine
 10
930.571797
 20
232.511015
 30
0.0
 11
944.428203
 21
232.511015
 31
0.0
  0
LINE
  5
5CD
100
AcDbEntity
  8
LAY-1
  6
CONTINUOUS
 62
     7
100
AcDbLine
 10
944.428203
 20
232.511015
 30
0.0
 11
944.428203
 21
234.111015
 31
0.0
  0
LINE
  5
5CE
100
AcDbEntity
  8
LAY-1
  6
CONTINUOUS
 62
     7
100
AcDbLine
 10
930.75
 20
232.511015
 30
0.0
 11
930.75
 21
229.011015
 31
0.0
  0
ARC
  5
5CF
100
AcDbEntity
  8
LAY-1
  6
CONTINUOUS
 62
     7
100
AcDbCircle
 10
933.25
 20
229.011015
 30
0.0
 40
2.5
100
AcDbArc
 50
180.0
 51
270.0
  0
LINE
  5
5D0
100
AcDbEntity
  8
LAY-1
  6
CONTINUOUS
 62
     7
100
AcDbLine
 10
941.75
 20
226.511015
 30
0.0
 11
933.25
 21
226.511015
 31
0.0
  0
ARC
  5
5D1
100
AcDbEntity
  8
LAY-1
  6
CONTINUOUS
 62
     7
100
AcDbCircle
 10
941.75
 20
229.011015
 30
0.0
 40
2.5
100
AcDbArc
 50
270.0
 51
0.0
  0
LINE
  5
5D2
100
AcDbEntity
  8
LAY-1
  6
CONTINUOUS
 62
     7
100
AcDbLine
 10
944.25
 20
232.511015
 30
0.0
 11
944.25
 21
229.011015
 31
0.0
  0
LINE
  5
5D3
100
AcDbEntity
  8
LAY-1
  6
CONTINUOUS
 62
     7
100
AcDbLine
 10
1049.428203
 20
234.111015
 30
0.0
 11
1049.428203
 21
232.511015
 31
0.0
  0
LINE
  5
5D4
100
AcDbEntity
  8
LAY-1
  6
CONTINUOUS
 62
     7
100
AcDbLine
 10
1049.428203
 20
232.511015
 30
0.0
 11
1035.571797
 21
232.511015
 31
0.0
  0
LINE
  5
5D5
100
AcDbEntity
  8
LAY-1
  6
CONTINUOUS
 62
     7
100
AcDbLine
 10
1035.571797
 20
232.511015
 30
0.0
 11
1035.571797
 21
234.111015
 31
0.0
  0
LINE
  5
5D6
100
AcDbEntity
  8
LAY-1
  6
CONTINUOUS
 62
     7
100
AcDbLine
 10
1049.25
 20
232.511015
 30
0.0
 11
1049.25
 21
229.011015
 31
0.0
  0
ARC
  5
5D7
100
AcDbEntity
  8
LAY-1
  6
CONTINUOUS
 62
     7
100
AcDbCircle
 10
1046.75
 20
229.011015
 30
0.0
 40
2.5
100
AcDbArc
 50
270.0
 51
0.0
  0
LINE
  5
5D8
100
AcDbEntity
  8
LAY-1
  6
CONTINUOUS
 62
     7
100
AcDbLine
 10
1038.25
 20
226.511015
 30
0.0
 11
1046.75
 21
226.511015
 31
0.0
  0
ARC
  5
5D9
100
AcDbEntity
  8
LAY-1
  6
CONTINUOUS
 62
     7
100
AcDbCircle
 10
1038.25
 20
229.011015
 30
0.0
 40
2.5
100
AcDbArc
 50
180.0
 51
270.0
  0
LINE
  5
5DA
100
AcDbEntity
  8
LAY-1
  6
CONTINUOUS
 62
     7
100
AcDbLine
 10
1035.75
 20
232.511015
 30
0.0
 11
1035.75
 21
229.011015
 31
0.0
  0
LINE
  5
5DB
100
AcDbEntity
  8
LAY-1
  6
CONTINUOUS
 62
     7
100
AcDbLine
 10
876.0
 20
241.511015
 30
0.0
 11
876.0
 21
236.111015
 31
0.0
  0
LINE
  5
5DC
100
AcDbEntity
  8
LAY-1
  6
CONTINUOUS
 62
     7
100
AcDbLine
 10
1104.0
 20
241.511015
 30
0.0
 11
1104.0
 21
236.111015
 31
0.0
  0
LINE
  5
5DD
100
AcDbEntity
  8
LAY-1
  6
EXLTYPE3
 62
     1
100
AcDbLine
 10
908.9
 20
205.111015
 30
0.0
 11
943.000044
 21
205.111015
 31
0.0
  0
LINE
  5
5DE
100
AcDbEntity
  8
LAY-1
  6
CONTINUOUS
 62
     7
100
AcDbLine
 10
1054.0
 20
215.611015
 30
0.0
 11
1054.0
 21
211.611015
 31
0.0
  0
ARC
  5
5DF
100
AcDbEntity
  8
LAY-1
  6
CONTINUOUS
 62
     7
100
AcDbCircle
 10
990.0
 20
178.061433
 30
0.0
 40
36.950417
100
AcDbArc
 50
255.638488
 51
284.361512
  0
ARC
  5
5E0
100
AcDbEntity
  8
LAY-1
  6
CONTINUOUS
 62
     7
100
AcDbCircle
 10
1024.0
 20
215.611015
 30
0.0
 40
19.0
100
AcDbArc
 50
270.0
 51
337.9856
  0
ARC
  5
5E1
100
AcDbEntity
  8
LAY-1
  6
CONTINUOUS
 62
     7
100
AcDbCircle
 10
1044.508892
 20
217.011015
 30
0.0
 40
9.0
100
AcDbArc
 50
254.11915
 51
285.88085
  0
ARC
  5
5E2
100
AcDbEntity
  8
LAY-1
  6
CONTINUOUS
 62
     7
100
AcDbCircle
 10
1046.615903
 20
209.604903
 30
0.0
 40
1.3
100
AcDbArc
 50
285.88085
 51
355.0
  0
LINE
  5
5E3
100
AcDbEntity
  8
LAY-1
  6
CONTINUOUS
 62
     7
100
AcDbLine
 10
1047.910956
 20
209.4916
 30
0.0
 11
1048.008892
 21
210.611015
 31
0.0
  0
ARC
  5
5E4
100
AcDbEntity
  8
LAY-1
  6
CONTINUOUS
 62
     7
100
AcDbCircle
 10
1042.401882
 20
209.604903
 30
0.0
 40
1.3
100
AcDbArc
 50
185.0
 51
254.11915
  0
LINE
  5
5E5
100
AcDbEntity
  8
LAY-1
  6
CONTINUOUS
 62
     7
100
AcDbLine
 10
1041.008892
 20
210.611015
 30
0.0
 11
1041.106829
 21
209.4916
 31
0.0
  0
LINE
  5
5E6
100
AcDbEntity
  8
LAY-1
  6
CONTINUOUS
 62
     7
100
AcDbLine
 10
1041.008892
 20
210.611015
 30
0.0
 11
1048.008892
 21
210.611015
 31
0.0
  0
ARC
  5
5E7
100
AcDbEntity
  8
LAY-1
  6
CONTINUOUS
 62
     7
100
AcDbCircle
 10
1012.593313
 20
217.011015
 30
0.0
 40
9.0
100
AcDbArc
 50
254.11915
 51
285.88085
  0
ARC
  5
5E8
100
AcDbEntity
  8
LAY-1
  6
CONTINUOUS
 62
     7
100
AcDbCircle
 10
1014.700324
 20
209.604903
 30
0.0
 40
1.3
100
AcDbArc
 50
285.88085
 51
355.0
  0
LINE
  5
5E9
100
AcDbEntity
  8
LAY-1
  6
CONTINUOUS
 62
     7
100
AcDbLine
 10
1015.995377
 20
209.4916
 30
0.0
 11
1016.093313
 21
210.611015
 31
0.0
  0
ARC
  5
5EA
100
AcDbEntity
  8
LAY-1
  6
CONTINUOUS
 62
     7
100
AcDbCircle
 10
1010.486303
 20
209.604903
 30
0.0
 40
1.3
100
AcDbArc
 50
185.0
 51
254.11915
  0
LINE
  5
5EB
100
AcDbEntity
  8
LAY-1
  6
CONTINUOUS
 62
     7
100
AcDbLine
 10
1009.093313
 20
210.611015
 30
0.0
 11
1009.19125
 21
209.4916
 31
0.0
  0
LINE
  5
5EC
100
AcDbEntity
  8
LAY-1
  6
CONTINUOUS
 62
     7
100
AcDbLine
 10
1009.093313
 20
210.611015
 30
0.0
 11
1016.093313
 21
210.611015
 31
0.0
  0
ARC
  5
5ED
100
AcDbEntity
  8
LAY-1
  6
CONTINUOUS
 62
     7
100
AcDbCircle
 10
967.436668
 20
217.011015
 30
0.0
 40
9.0
100
AcDbArc
 50
254.11915
 51
285.88085
  0
ARC
  5
5EE
100
AcDbEntity
  8
LAY-1
  6
CONTINUOUS
 62
     7
100
AcDbCircle
 10
969.543679
 20
209.604903
 30
0.0
 40
1.3
100
AcDbArc
 50
285.88085
 51
355.0
  0
LINE
  5
5EF
100
AcDbEntity
  8
LAY-1
  6
CONTINUOUS
 62
     7
100
AcDbLine
 10
970.838732
 20
209.4916
 30
0.0
 11
970.936668
 21
210.611015
 31
0.0
  0
ARC
  5
5F0
100
AcDbEntity
  8
LAY-1
  6
CONTINUOUS
 62
     7
100
AcDbCircle
 10
965.329658
 20
209.604903
 30
0.0
 40
1.3
100
AcDbArc
 50
185.0
 51
254.11915
  0
LINE
  5
5F1
100
AcDbEntity
  8
LAY-1
  6
CONTINUOUS
 62
     7
100
AcDbLine
 10
963.936668
 20
210.611015
 30
0.0
 11
964.034605
 21
209.4916
 31
0.0
  0
LINE
  5
5F2
100
AcDbEntity
  8
LAY-1
  6
CONTINUOUS
 62
     7
100
AcDbLine
 10
963.936668
 20
210.611015
 30
0.0
 11
970.936668
 21
210.611015
 31
0.0
  0
ARC
  5
5F3
100
AcDbEntity
  8
LAY-1
  6
CONTINUOUS
 62
     7
100
AcDbCircle
 10
956.0
 20
215.611015
 30
0.0
 40
19.0
100
AcDbArc
 50
201.838052
 51
270.0
  0
ARC
  5
5F4
100
AcDbEntity
  8
LAY-1
  6
CONTINUOUS
 62
     7
100
AcDbCircle
 10
935.506098
 20
217.011015
 30
0.0
 40
9.0
100
AcDbArc
 50
254.11915
 51
285.88085
  0
ARC
  5
5F5
100
AcDbEntity
  8
LAY-1
  6
CONTINUOUS
 62
     7
100
AcDbCircle
 10
937.613109
 20
209.604903
 30
0.0
 40
1.3
100
AcDbArc
 50
285.88085
 51
355.0
  0
LINE
  5
5F6
100
AcDbEntity
  8
LAY-1
  6
CONTINUOUS
 62
     7
100
AcDbLine
 10
938.908162
 20
209.4916
 30
0.0
 11
939.006098
 21
210.611015
 31
0.0
  0
LINE
  5
5F7
100
AcDbEntity
  8
LAY-1
  6
CONTINUOUS
 62
     7
100
AcDbLine
 10
932.006098
 20
210.611015
 30
0.0
 11
939.006098
 21
210.611015
 31
0.0
  0
ARC
  5
5F8
100
AcDbEntity
  8
LAY-1
  6
CONTINUOUS
 62
     7
100
AcDbCircle
 10
1053.0
 20
211.611015
 30
0.0
 40
1.0
100
AcDbArc
 50
270.0
 51
0.0
  0
LINE
  5
5F9
100
AcDbEntity
  8
LAY-1
  6
CONTINUOUS
 62
     7
100
AcDbLine
 10
990.0
 20
210.611015
 30
0.0
 11
1053.0
 21
210.611015
 31
0.0
  0
LINE
  5
5FA
100
AcDbEntity
  8
LAY-1
  6
CONTINUOUS
 62
     7
100
AcDbLine
 10
990.0
 20
210.611015
 30
0.0
 11
927.0
 21
210.611015
 31
0.0
  0
ARC
  5
5FB
100
AcDbEntity
  8
LAY-1
  6
CONTINUOUS
 62
     7
100
AcDbCircle
 10
1015.399269
 20
192.611015
 30
0.0
 40
4.0
100
AcDbArc
 50
90.0
 51
178.0
  0
ARC
  5
5FC
100
AcDbEntity
  8
LAY-1
  6
CONTINUOUS
 62
     7
100
AcDbCircle
 10
964.600731
 20
192.611015
 30
0.0
 40
4.0
100
AcDbArc
 50
2.0
 51
90.0
  0
LINE
  5
5FD
100
AcDbEntity
  8
LAY-1
  6
CONTINUOUS
 62
     7
100
AcDbLine
 10
1010.0
 20
152.611015
 30
0.0
 11
1011.401706
 21
192.750613
 31
0.0
  0
LINE
  5
5FE
100
AcDbEntity
  8
LAY-1
  6
CONTINUOUS
 62
     7
100
AcDbLine
 10
956.0
 20
196.611015
 30
0.0
 11
964.600731
 21
196.611015
 31
0.0
  0
LINE
  5
5FF
100
AcDbEntity
  8
LAY-1
  6
CONTINUOUS
 62
     7
100
AcDbLine
 10
943.69132
 20
196.611015
 30
0.0
 11
956.0
 21
196.611015
 31
0.0
  0
LINE
  5
600
100
AcDbEntity
  8
LAY-1
  6
CONTINUOUS
 62
     7
100
AcDbLine
 10
941.948679
 20
195.696802
 30
0.0
 11
942.277106
 21
196.025229
 31
0.0
  0
ARC
  5
601
100
AcDbEntity
  8
LAY-1
  6
CONTINUOUS
 62
     7
100
AcDbCircle
 10
943.69132
 20
194.611015
 30
0.0
 40
2.0
100
AcDbArc
 50
90.0
 51
135.0
  0
ARC
  5
602
100
AcDbEntity
  8
LAY-1
  6
CONTINUOUS
 62
     7
100
AcDbCircle
 10
940.534465
 20
197.111015
 30
0.0
 40
2.0
100
AcDbArc
 50
270.0
 51
315.0
  0
LINE
  5
603
100
AcDbEntity
  8
LAY-1
  6
CONTINUOUS
 62
     7
100
AcDbLine
 10
926.0
 20
195.111015
 30
0.0
 11
940.534465
 21
195.111015
 31
0.0
  0
LINE
  5
604
100
AcDbEntity
  8
LAY-1
  6
CONTINUOUS
 62
     7
100
AcDbLine
 10
970.0
 20
152.611015
 30
0.0
 11
968.598294
 21
192.750613
 31
0.0
  0
LINE
  5
605
100
AcDbEntity
  8
LAY-1
  6
CONTINUOUS
 62
     7
100
AcDbLine
 10
1024.0
 20
196.611015
 30
0.0
 11
964.600731
 21
196.611015
 31
0.0
  0
LINE
  5
606
100
AcDbEntity
  8
LAY-1
  6
CONTINUOUS
 62
     7
100
AcDbLine
 10
1010.0
 20
151.611015
 30
0.0
 11
1010.0
 21
152.611015
 31
0.0
  0
LINE
  5
607
100
AcDbEntity
  8
LAY-1
  6
CONTINUOUS
 62
     7
100
AcDbLine
 10
990.0
 20
152.611015
 30
0.0
 11
1010.0
 21
152.611015
 31
0.0
  0
LINE
  5
608
100
AcDbEntity
  8
LAY-1
  6
CONTINUOUS
 62
     7
100
AcDbLine
 10
979.895475
 20
151.611015
 30
0.0
 11
1010.0
 21
151.611015
 31
0.0
  0
LINE
  5
609
100
AcDbEntity
  8
LAY-1
  6
CONTINUOUS
 62
     7
100
AcDbLine
 10
1012.0
 20
142.265716
 30
0.0
 11
1010.0
 21
141.111015
 31
0.0
  0
LINE
  5
60A
100
AcDbEntity
  8
LAY-1
  6
CONTINUOUS
 62
     7
100
AcDbLine
 10
1012.0
 20
150.456315
 30
0.0
 11
1010.0
 21
151.611015
 31
0.0
  0
LINE
  5
60B
100
AcDbEntity
  8
LAY-1
  6
CONTINUOUS
 62
     7
100
AcDbLine
 10
1012.0
 20
150.456315
 30
0.0
 11
1012.0
 21
142.254877
 31
0.0
  0
LINE
  5
60C
100
AcDbEntity
  8
LAY-1
  6
CONTINUOUS
 62
     7
100
AcDbLine
 10
990.0
 20
141.111015
 30
0.0
 11
1010.0
 21
141.111015
 31
0.0
  0
ARC
  5
60D
100
AcDbEntity
  8
LAY-1
  6
CONTINUOUS
 62
     7
100
AcDbCircle
 10
990.0
 20
114.660598
 30
0.0
 40
36.950417
100
AcDbArc
 50
75.638488
 51
104.361512
  0
ARC
  5
60E
100
AcDbEntity
  8
LAY-1
  6
CONTINUOUS
 62
     7
100
AcDbCircle
 10
1007.368966
 20
150.974961
 30
0.0
 40
9.863946
100
AcDbArc
 50
241.998739
 51
298.001261
  0
ARC
  5
60F
100
AcDbEntity
  8
LAY-1
  6
CONTINUOUS
 62
     7
100
AcDbCircle
 10
1007.368966
 20
141.747069
 30
0.0
 40
9.863946
100
AcDbArc
 50
61.998739
 51
118.001261
  0
LINE
  5
610
100
AcDbEntity
  8
LAY-1
  6
CONTINUOUS
 62
     7
100
AcDbLine
 10
999.165151
 20
150.456315
 30
0.0
 11
1002.737932
 21
150.456315
 31
0.0
  0
LINE
  5
611
100
AcDbEntity
  8
LAY-1
  6
CONTINUOUS
 62
     7
100
AcDbLine
 10
990.0
 20
151.611015
 30
0.0
 11
1010.0
 21
151.611015
 31
0.0
  0
LINE
  5
612
100
AcDbEntity
  8
LAY-1
  6
CONTINUOUS
 62
     7
100
AcDbLine
 10
999.165151
 20
150.456315
 30
0.0
 11
999.165151
 21
142.265716
 31
0.0
  0
LINE
  5
613
100
AcDbEntity
  8
LAY-1
  6
CONTINUOUS
 62
     7
100
AcDbLine
 10
1002.737932
 20
150.456315
 30
0.0
 11
1002.737932
 21
142.265716
 31
0.0
  0
LINE
  5
614
100
AcDbEntity
  8
LAY-1
  6
CONTINUOUS
 62
     7
100
AcDbLine
 10
999.165151
 20
142.265716
 30
0.0
 11
1002.737932
 21
142.265716
 31
0.0
  0
LINE
  5
615
100
AcDbEntity
  8
LAY-1
  6
CONTINUOUS
 62
     7
100
AcDbLine
 10
970.0
 20
151.611015
 30
0.0
 11
970.0
 21
152.611015
 31
0.0
  0
LINE
  5
616
100
AcDbEntity
  8
LAY-1
  6
CONTINUOUS
 62
     7
100
AcDbLine
 10
990.0
 20
152.611015
 30
0.0
 11
970.0
 21
152.611015
 31
0.0
  0
LINE
  5
617
100
AcDbEntity
  8
LAY-1
  6
CONTINUOUS
 62
     7
100
AcDbLine
 10
968.0
 20
142.265716
 30
0.0
 11
970.0
 21
141.111015
 31
0.0
  0
LINE
  5
618
100
AcDbEntity
  8
LAY-1
  6
CONTINUOUS
 62
     7
100
AcDbLine
 10
968.0
 20
150.456315
 30
0.0
 11
970.0
 21
151.611015
 31
0.0
  0
LINE
  5
619
100
AcDbEntity
  8
LAY-1
  6
CONTINUOUS
 62
     7
100
AcDbLine
 10
968.0
 20
150.456315
 30
0.0
 11
968.0
 21
142.254877
 31
0.0
  0
LINE
  5
61A
100
AcDbEntity
  8
LAY-1
  6
CONTINUOUS
 62
     7
100
AcDbLine
 10
990.0
 20
141.111015
 30
0.0
 11
970.0
 21
141.111015
 31
0.0
  0
ARC
  5
61B
100
AcDbEntity
  8
LAY-1
  6
CONTINUOUS
 62
     7
100
AcDbCircle
 10
972.631034
 20
150.974961
 30
0.0
 40
9.863946
100
AcDbArc
 50
241.998739
 51
298.001261
  0
ARC
  5
61C
100
AcDbEntity
  8
LAY-1
  6
CONTINUOUS
 62
     7
100
AcDbCircle
 10
972.631034
 20
141.747069
 30
0.0
 40
9.863946
100
AcDbArc
 50
61.998739
 51
118.001261
  0
LINE
  5
61D
100
AcDbEntity
  8
LAY-1
  6
CONTINUOUS
 62
     7
100
AcDbLine
 10
980.834849
 20
150.456315
 30
0.0
 11
977.262068
 21
150.456315
 31
0.0
  0
LINE
  5
61E
100
AcDbEntity
  8
LAY-1
  6
CONTINUOUS
 62
     7
100
AcDbLine
 10
990.0
 20
151.611015
 30
0.0
 11
970.0
 21
151.611015
 31
0.0
  0
LINE
  5
61F
100
AcDbEntity
  8
LAY-1
  6
CONTINUOUS
 62
     7
100
AcDbLine
 10
980.834849
 20
150.456315
 30
0.0
 11
980.834849
 21
142.265716
 31
0.0
  0
LINE
  5
620
100
AcDbEntity
  8
LAY-1
  6
CONTINUOUS
 62
     7
100
AcDbLine
 10
977.262068
 20
150.456315
 30
0.0
 11
977.262068
 21
142.265716
 31
0.0
  0
LINE
  5
621
100
AcDbEntity
  8
LAY-1
  6
CONTINUOUS
 62
     7
100
AcDbLine
 10
980.834849
 20
142.265716
 30
0.0
 11
977.262068
 21
142.265716
 31
0.0
  0
LINE
  5
622
100
AcDbEntity
  8
LAY-1
  6
CONTINUOUS
 62
     7
100
AcDbLine
 10
1054.606802
 20
220.546794
 30
0.0
 11
1054.174977
 21
215.611015
 31
0.0
  0
LINE
  5
623
100
AcDbEntity
  8
LAY-1
  6
CONTINUOUS
 62
     7
100
AcDbLine
 10
990.0
 20
215.611015
 30
0.0
 11
1054.174977
 21
215.611015
 31
0.0
  0
LINE
  5
624
100
AcDbEntity
  8
LAY-1
  6
CONTINUOUS
 62
     7
100
AcDbLine
 10
925.825023
 20
215.611015
 30
0.0
 11
990.0
 21
215.611015
 31
0.0
  0
LINE
  5
625
100
AcDbEntity
  8
LAY-1
  6
CONTINUOUS
 62
     7
100
AcDbLine
 10
925.393198
 20
220.546794
 30
0.0
 11
925.825023
 21
215.611015
 31
0.0
  0
ARC
  5
626
100
AcDbEntity
  8
LAY-1
  6
CONTINUOUS
 62
     7
100
AcDbCircle
 10
1059.587776
 20
220.111015
 30
0.0
 40
5.0
100
AcDbArc
 50
90.0
 51
175.0
  0
ARC
  5
627
100
AcDbEntity
  8
LAY-1
  6
CONTINUOUS
 62
     7
100
AcDbCircle
 10
920.412224
 20
220.111015
 30
0.0
 40
5.0
100
AcDbArc
 50
5.0
 51
90.0
  0
LINE
  5
628
100
AcDbEntity
  8
LAY-1
  6
CONTINUOUS
 62
     7
100
AcDbLine
 10
990.0
 20
225.111015
 30
0.0
 11
904.0
 21
225.111015
 31
0.0
  0
ARC
  5
629
100
AcDbEntity
  8
LAY-1
  6
CONTINUOUS
 62
     7
100
AcDbCircle
 10
904.0
 20
229.111015
 30
0.0
 40
4.0
100
AcDbArc
 50
180.0
 51
270.0
  0
LINE
  5
62A
100
AcDbEntity
  8
LAY-1
  6
CONTINUOUS
 62
     7
100
AcDbLine
 10
900.0
 20
230.111015
 30
0.0
 11
900.0
 21
229.111015
 31
0.0
  0
ARC
  5
62B
100
AcDbEntity
  8
LAY-1
  6
CONTINUOUS
 62
     7
100
AcDbCircle
 10
1076.0
 20
229.111015
 30
0.0
 40
4.0
100
AcDbArc
 50
270.0
 51
0.0
  0
LINE
  5
62C
100
AcDbEntity
  8
LAY-1
  6
CONTINUOUS
 62
     7
100
AcDbLine
 10
1080.0
 20
230.111015
 30
0.0
 11
1080.0
 21
229.111015
 31
0.0
  0
ARC
  5
62D
100
AcDbEntity
  8
LAY-1
  6
CONTINUOUS
 62
     7
100
AcDbCircle
 10
1084.0
 20
230.111015
 30
0.0
 40
4.0
100
AcDbArc
 50
90.0
 51
180.0
  0
LINE
  5
62E
100
AcDbEntity
  8
LAY-1
  6
CONTINUOUS
 62
     7
100
AcDbLine
 10
990.0
 20
225.111015
 30
0.0
 11
1076.0
 21
225.111015
 31
0.0
  0
ARC
  5
62F
100
AcDbEntity
  8
LAY-1
  6
CONTINUOUS
 62
     7
100
AcDbCircle
 10
896.0
 20
230.111015
 30
0.0
 40
4.0
100
AcDbArc
 50
0.0
 51
90.0
  0
LINE
  5
630
100
AcDbEntity
  8
LAY-1
  6
CONTINUOUS
 62
     7
100
AcDbLine
 10
1054.0
 20
1393.022501
 30
0.0
 11
1054.0
 21
1397.022501
 31
0.0
  0
ARC
  5
631
100
AcDbEntity
  8
LAY-1
  6
CONTINUOUS
 62
     7
100
AcDbCircle
 10
990.0
 20
1430.572084
 30
0.0
 40
36.950417
100
AcDbArc
 50
75.638488
 51
104.361512
  0
LINE
  5
632
100
AcDbEntity
  8
LAY-1
  6
CONTINUOUS
 62
     7
100
AcDbLine
 10
980.834849
 20
1466.367801
 30
0.0
 11
977.262068
 21
1466.367801
 31
0.0
  0
LINE
  5
633
100
AcDbEntity
  8
LAY-1
  6
CONTINUOUS
 62
     7
100
AcDbLine
 10
977.262068
 20
1458.177202
 30
0.0
 11
977.262068
 21
1466.367801
 31
0.0
  0
LINE
  5
634
100
AcDbEntity
  8
LAY-1
  6
CONTINUOUS
 62
     7
100
AcDbLine
 10
980.834849
 20
1458.177202
 30
0.0
 11
980.834849
 21
1466.367801
 31
0.0
  0
LINE
  5
635
100
AcDbEntity
  8
LAY-1
  6
CONTINUOUS
 62
     7
100
AcDbLine
 10
990.0
 20
1457.022501
 30
0.0
 11
970.0
 21
1457.022501
 31
0.0
  0
LINE
  5
636
100
AcDbEntity
  8
LAY-1
  6
CONTINUOUS
 62
     7
100
AcDbLine
 10
980.834849
 20
1458.177202
 30
0.0
 11
977.262068
 21
1458.177202
 31
0.0
  0
ARC
  5
637
100
AcDbEntity
  8
LAY-1
  6
CONTINUOUS
 62
     7
100
AcDbCircle
 10
972.631034
 20
1466.886447
 30
0.0
 40
9.863946
100
AcDbArc
 50
241.998739
 51
298.001261
  0
ARC
  5
638
100
AcDbEntity
  8
LAY-1
  6
CONTINUOUS
 62
     7
100
AcDbCircle
 10
972.631034
 20
1457.658555
 30
0.0
 40
9.863946
100
AcDbArc
 50
61.998739
 51
118.001261
  0
LINE
  5
639
100
AcDbEntity
  8
LAY-1
  6
CONTINUOUS
 62
     7
100
AcDbLine
 10
990.0
 20
1467.522501
 30
0.0
 11
970.0
 21
1467.522501
 31
0.0
  0
LINE
  5
63A
100
AcDbEntity
  8
LAY-1
  6
CONTINUOUS
 62
     7
100
AcDbLine
 10
968.0
 20
1458.177202
 30
0.0
 11
968.0
 21
1466.378639
 31
0.0
  0
LINE
  5
63B
100
AcDbEntity
  8
LAY-1
  6
CONTINUOUS
 62
     7
100
AcDbLine
 10
968.0
 20
1458.177202
 30
0.0
 11
970.0
 21
1457.022501
 31
0.0
  0
LINE
  5
63C
100
AcDbEntity
  8
LAY-1
  6
CONTINUOUS
 62
     7
100
AcDbLine
 10
968.0
 20
1466.367801
 30
0.0
 11
970.0
 21
1467.522501
 31
0.0
  0
LINE
  5
63D
100
AcDbEntity
  8
LAY-1
  6
CONTINUOUS
 62
     7
100
AcDbLine
 10
990.0
 20
1456.022501
 30
0.0
 11
970.0
 21
1456.022501
 31
0.0
  0
LINE
  5
63E
100
AcDbEntity
  8
LAY-1
  6
CONTINUOUS
 62
     7
100
AcDbLine
 10
970.0
 20
1457.022501
 30
0.0
 11
970.0
 21
1456.022501
 31
0.0
  0
LINE
  5
63F
100
AcDbEntity
  8
LAY-1
  6
CONTINUOUS
 62
     7
100
AcDbLine
 10
999.165151
 20
1466.367801
 30
0.0
 11
1002.737932
 21
1466.367801
 31
0.0
  0
LINE
  5
640
100
AcDbEntity
  8
LAY-1
  6
CONTINUOUS
 62
     7
100
AcDbLine
 10
1002.737932
 20
1458.177202
 30
0.0
 11
1002.737932
 21
1466.367801
 31
0.0
  0
LINE
  5
641
100
AcDbEntity
  8
LAY-1
  6
CONTINUOUS
 62
     7
100
AcDbLine
 10
999.165151
 20
1458.177202
 30
0.0
 11
999.165151
 21
1466.367801
 31
0.0
  0
LINE
  5
642
100
AcDbEntity
  8
LAY-1
  6
CONTINUOUS
 62
     7
100
AcDbLine
 10
990.0
 20
1457.022501
 30
0.0
 11
1010.0
 21
1457.022501
 31
0.0
  0
LINE
  5
643
100
AcDbEntity
  8
LAY-1
  6
CONTINUOUS
 62
     7
100
AcDbLine
 10
999.165151
 20
1458.177202
 30
0.0
 11
1002.737932
 21
1458.177202
 31
0.0
  0
ARC
  5
644
100
AcDbEntity
  8
LAY-1
  6
CONTINUOUS
 62
     7
100
AcDbCircle
 10
1007.368966
 20
1466.886447
 30
0.0
 40
9.863946
100
AcDbArc
 50
241.998739
 51
298.001261
  0
ARC
  5
645
100
AcDbEntity
  8
LAY-1
  6
CONTINUOUS
 62
     7
100
AcDbCircle
 10
1007.368966
 20
1457.658555
 30
0.0
 40
9.863946
100
AcDbArc
 50
61.998739
 51
118.001261
  0
ARC
  5
646
100
AcDbEntity
  8
LAY-1
  6
CONTINUOUS
 62
     7
100
AcDbCircle
 10
990.0
 20
1493.972919
 30
0.0
 40
36.950417
100
AcDbArc
 50
255.638488
 51
284.361512
  0
LINE
  5
647
100
AcDbEntity
  8
LAY-1
  6
CONTINUOUS
 62
     7
100
AcDbLine
 10
990.0
 20
1467.522501
 30
0.0
 11
1010.0
 21
1467.522501
 31
0.0
  0
LINE
  5
648
100
AcDbEntity
  8
LAY-1
  6
CONTINUOUS
 62
     7
100
AcDbLine
 10
1012.0
 20
1458.177202
 30
0.0
 11
1012.0
 21
1466.378639
 31
0.0
  0
LINE
  5
649
100
AcDbEntity
  8
LAY-1
  6
CONTINUOUS
 62
     7
100
AcDbLine
 10
1012.0
 20
1458.177202
 30
0.0
 11
1010.0
 21
1457.022501
 31
0.0
  0
LINE
  5
64A
100
AcDbEntity
  8
LAY-1
  6
CONTINUOUS
 62
     7
100
AcDbLine
 10
1012.0
 20
1466.367801
 30
0.0
 11
1010.0
 21
1467.522501
 31
0.0
  0
LINE
  5
64B
100
AcDbEntity
  8
LAY-1
  6
CONTINUOUS
 62
     7
100
AcDbLine
 10
979.895475
 20
1457.022501
 30
0.0
 11
1010.0
 21
1457.022501
 31
0.0
  0
LINE
  5
64C
100
AcDbEntity
  8
LAY-1
  6
CONTINUOUS
 62
     7
100
AcDbLine
 10
990.0
 20
1456.022501
 30
0.0
 11
1010.0
 21
1456.022501
 31
0.0
  0
LINE
  5
64D
100
AcDbEntity
  8
LAY-1
  6
CONTINUOUS
 62
     7
100
AcDbLine
 10
1010.0
 20
1457.022501
 30
0.0
 11
1010.0
 21
1456.022501
 31
0.0
  0
LINE
  5
64E
100
AcDbEntity
  8
LAY-1
  6
CONTINUOUS
 62
     7
100
AcDbLine
 10
1024.0
 20
1412.022501
 30
0.0
 11
964.600731
 21
1412.022501
 31
0.0
  0
LINE
  5
64F
100
AcDbEntity
  8
LAY-1
  6
CONTINUOUS
 62
     7
100
AcDbLine
 10
970.0
 20
1456.022501
 30
0.0
 11
968.598294
 21
1415.882903
 31
0.0
  0
LINE
  5
650
100
AcDbEntity
  8
LAY-1
  6
CONTINUOUS
 62
     7
100
AcDbLine
 10
926.0
 20
1413.522501
 30
0.0
 11
940.534465
 21
1413.522501
 31
0.0
  0
ARC
  5
651
100
AcDbEntity
  8
LAY-1
  6
CONTINUOUS
 62
     7
100
AcDbCircle
 10
940.534465
 20
1411.522501
 30
0.0
 40
2.0
100
AcDbArc
 50
45.0
 51
90.0
  0
ARC
  5
652
100
AcDbEntity
  8
LAY-1
  6
CONTINUOUS
 62
     7
100
AcDbCircle
 10
943.69132
 20
1414.022501
 30
0.0
 40
2.0
100
AcDbArc
 50
225.0
 51
270.0
  0
LINE
  5
653
100
AcDbEntity
  8
LAY-1
  6
CONTINUOUS
 62
     7
100
AcDbLine
 10
941.948679
 20
1412.936715
 30
0.0
 11
942.277106
 21
1412.608288
 31
0.0
  0
LINE
  5
654
100
AcDbEntity
  8
LAY-1
  6
CONTINUOUS
 62
     7
100
AcDbLine
 10
943.69132
 20
1412.022501
 30
0.0
 11
956.0
 21
1412.022501
 31
0.0
  0
LINE
  5
655
100
AcDbEntity
  8
LAY-1
  6
CONTINUOUS
 62
     7
100
AcDbLine
 10
956.0
 20
1412.022501
 30
0.0
 11
964.600731
 21
1412.022501
 31
0.0
  0
LINE
  5
656
100
AcDbEntity
  8
LAY-1
  6
CONTINUOUS
 62
     7
100
AcDbLine
 10
1010.0
 20
1456.022501
 30
0.0
 11
1011.401706
 21
1415.882903
 31
0.0
  0
ARC
  5
657
100
AcDbEntity
  8
LAY-1
  6
CONTINUOUS
 62
     7
100
AcDbCircle
 10
964.600731
 20
1416.022501
 30
0.0
 40
4.0
100
AcDbArc
 50
270.0
 51
358.0
  0
ARC
  5
658
100
AcDbEntity
  8
LAY-1
  6
CONTINUOUS
 62
     7
100
AcDbCircle
 10
1015.399269
 20
1416.022501
 30
0.0
 40
4.0
100
AcDbArc
 50
182.0
 51
270.0
  0
LINE
  5
659
100
AcDbEntity
  8
LAY-1
  6
CONTINUOUS
 62
     7
100
AcDbLine
 10
990.0
 20
1398.022501
 30
0.0
 11
927.0
 21
1398.022501
 31
0.0
  0
LINE
  5
65A
100
AcDbEntity
  8
LAY-1
  6
CONTINUOUS
 62
     7
100
AcDbLine
 10
990.0
 20
1398.022501
 30
0.0
 11
1053.0
 21
1398.022501
 31
0.0
  0
ARC
  5
65B
100
AcDbEntity
  8
LAY-1
  6
CONTINUOUS
 62
     7
100
AcDbCircle
 10
1053.0
 20
1397.022501
 30
0.0
 40
1.0
100
AcDbArc
 50
0.0
 51
90.0
  0
LINE
  5
65C
100
AcDbEntity
  8
LAY-1
  6
CONTINUOUS
 62
     7
100
AcDbLine
 10
932.006098
 20
1398.022501
 30
0.0
 11
939.006098
 21
1398.022501
 31
0.0
  0
LINE
  5
65D
100
AcDbEntity
  8
LAY-1
  6
CONTINUOUS
 62
     7
100
AcDbLine
 10
932.006098
 20
1398.022501
 30
0.0
 11
932.104035
 21
1399.141917
 31
0.0
  0
ARC
  5
65E
100
AcDbEntity
  8
LAY-1
  6
CONTINUOUS
 62
     7
100
AcDbCircle
 10
933.399088
 20
1399.028614
 30
0.0
 40
1.3
100
AcDbArc
 50
105.88085
 51
175.0
  0
LINE
  5
65F
100
AcDbEntity
  8
LAY-1
  6
CONTINUOUS
 62
     7
100
AcDbLine
 10
938.908162
 20
1399.141917
 30
0.0
 11
939.006098
 21
1398.022501
 31
0.0
  0
ARC
  5
660
100
AcDbEntity
  8
LAY-1
  6
CONTINUOUS
 62
     7
100
AcDbCircle
 10
937.613109
 20
1399.028614
 30
0.0
 40
1.3
100
AcDbArc
 50
5.0
 51
74.11915
  0
ARC
  5
661
100
AcDbEntity
  8
LAY-1
  6
CONTINUOUS
 62
     7
100
AcDbCircle
 10
935.506098
 20
1391.622501
 30
0.0
 40
9.0
100
AcDbArc
 50
74.11915
 51
105.88085
  0
ARC
  5
662
100
AcDbEntity
  8
LAY-1
  6
CONTINUOUS
 62
     7
100
AcDbCircle
 10
956.0
 20
1393.022501
 30
0.0
 40
19.0
100
AcDbArc
 50
90.0
 51
158.161948
  0
LINE
  5
663
100
AcDbEntity
  8
LAY-1
  6
CONTINUOUS
 62
     7
100
AcDbLine
 10
963.936668
 20
1398.022501
 30
0.0
 11
970.936668
 21
1398.022501
 31
0.0
  0
LINE
  5
664
100
AcDbEntity
  8
LAY-1
  6
CONTINUOUS
 62
     7
100
AcDbLine
 10
963.936668
 20
1398.022501
 30
0.0
 11
964.034605
 21
1399.141917
 31
0.0
  0
ARC
  5
665
100
AcDbEntity
  8
LAY-1
  6
CONTINUOUS
 62
     7
100
AcDbCircle
 10
965.329658
 20
1399.028614
 30
0.0
 40
1.3
100
AcDbArc
 50
105.88085
 51
175.0
  0
LINE
  5
666
100
AcDbEntity
  8
LAY-1
  6
CONTINUOUS
 62
     7
100
AcDbLine
 10
970.838732
 20
1399.141917
 30
0.0
 11
970.936668
 21
1398.022501
 31
0.0
  0
ARC
  5
667
100
AcDbEntity
  8
LAY-1
  6
CONTINUOUS
 62
     7
100
AcDbCircle
 10
969.543679
 20
1399.028614
 30
0.0
 40
1.3
100
AcDbArc
 50
5.0
 51
74.11915
  0
ARC
  5
668
100
AcDbEntity
  8
LAY-1
  6
CONTINUOUS
 62
     7
100
AcDbCircle
 10
967.436668
 20
1391.622501
 30
0.0
 40
9.0
100
AcDbArc
 50
74.11915
 51
105.88085
  0
LINE
  5
669
100
AcDbEntity
  8
LAY-1
  6
CONTINUOUS
 62
     7
100
AcDbLine
 10
1009.093313
 20
1398.022501
 30
0.0
 11
1016.093313
 21
1398.022501
 31
0.0
  0
LINE
  5
66A
100
AcDbEntity
  8
LAY-1
  6
CONTINUOUS
 62
     7
100
AcDbLine
 10
1009.093313
 20
1398.022501
 30
0.0
 11
1009.19125
 21
1399.141917
 31
0.0
  0
ARC
  5
66B
100
AcDbEntity
  8
LAY-1
  6
CONTINUOUS
 62
     7
100
AcDbCircle
 10
1010.486303
 20
1399.028614
 30
0.0
 40
1.3
100
AcDbArc
 50
105.88085
 51
175.0
  0
LINE
  5
66C
100
AcDbEntity
  8
LAY-1
  6
CONTINUOUS
 62
     7
100
AcDbLine
 10
1015.995377
 20
1399.141917
 30
0.0
 11
1016.093313
 21
1398.022501
 31
0.0
  0
ARC
  5
66D
100
AcDbEntity
  8
LAY-1
  6
CONTINUOUS
 62
     7
100
AcDbCircle
 10
1014.700324
 20
1399.028614
 30
0.0
 40
1.3
100
AcDbArc
 50
5.0
 51
74.11915
  0
ARC
  5
66E
100
AcDbEntity
  8
LAY-1
  6
CONTINUOUS
 62
     7
100
AcDbCircle
 10
1012.593313
 20
1391.622501
 30
0.0
 40
9.0
100
AcDbArc
 50
74.11915
 51
105.88085
  0
LINE
  5
66F
100
AcDbEntity
  8
LAY-1
  6
CONTINUOUS
 62
     7
100
AcDbLine
 10
1041.008892
 20
1398.022501
 30
0.0
 11
1048.008892
 21
1398.022501
 31
0.0
  0
LINE
  5
670
100
AcDbEntity
  8
LAY-1
  6
CONTINUOUS
 62
     7
100
AcDbLine
 10
1041.008892
 20
1398.022501
 30
0.0
 11
1041.106829
 21
1399.141917
 31
0.0
  0
ARC
  5
671
100
AcDbEntity
  8
LAY-1
  6
CONTINUOUS
 62
     7
100
AcDbCircle
 10
1042.401882
 20
1399.028614
 30
0.0
 40
1.3
100
AcDbArc
 50
105.88085
 51
175.0
  0
LINE
  5
672
100
AcDbEntity
  8
LAY-1
  6
CONTINUOUS
 62
     7
100
AcDbLine
 10
1047.910956
 20
1399.141917
 30
0.0
 11
1048.008892
 21
1398.022501
 31
0.0
  0
ARC
  5
673
100
AcDbEntity
  8
LAY-1
  6
CONTINUOUS
 62
     7
100
AcDbCircle
 10
1046.615903
 20
1399.028614
 30
0.0
 40
1.3
100
AcDbArc
 50
5.0
 51
74.11915
  0
ARC
  5
674
100
AcDbEntity
  8
LAY-1
  6
CONTINUOUS
 62
     7
100
AcDbCircle
 10
1044.508892
 20
1391.622501
 30
0.0
 40
9.0
100
AcDbArc
 50
74.11915
 51
105.88085
  0
ARC
  5
675
100
AcDbEntity
  8
LAY-1
  6
CONTINUOUS
 62
     7
100
AcDbCircle
 10
1024.0
 20
1393.022501
 30
0.0
 40
19.0
100
AcDbArc
 50
22.0144
 51
90.0
  0
LINE
  5
676
100
AcDbEntity
  8
LAY-1
  6
CONTINUOUS
 62
     7
100
AcDbLine
 10
925.825023
 20
1393.022501
 30
0.0
 11
990.0
 21
1393.022501
 31
0.0
  0
LINE
  5
677
100
AcDbEntity
  8
LAY-1
  6
CONTINUOUS
 62
     7
100
AcDbLine
 10
925.393198
 20
1388.086723
 30
0.0
 11
925.825023
 21
1393.022501
 31
0.0
  0
LINE
  5
678
100
AcDbEntity
  8
LAY-1
  6
CONTINUOUS
 62
     7
100
AcDbLine
 10
990.0
 20
1393.022501
 30
0.0
 11
1054.174977
 21
1393.022501
 31
0.0
  0
LINE
  5
679
100
AcDbEntity
  8
LAY-1
  6
CONTINUOUS
 62
     7
100
AcDbLine
 10
1054.606802
 20
1388.086723
 30
0.0
 11
1054.174977
 21
1393.022501
 31
0.0
  0
ARC
  5
67A
100
AcDbEntity
  8
LAY-1
  6
CONTINUOUS
 62
     7
100
AcDbCircle
 10
1059.587776
 20
1388.522501
 30
0.0
 40
5.0
100
AcDbArc
 50
185.0
 51
270.0
  0
ARC
  5
67B
100
AcDbEntity
  8
LAY-1
  6
CONTINUOUS
 62
     7
100
AcDbCircle
 10
920.412224
 20
1388.522501
 30
0.0
 40
5.0
100
AcDbArc
 50
270.0
 51
355.0
  0
LINE
  5
67C
100
AcDbEntity
  8
LAY-1
  6
CONTINUOUS
 62
     7
100
AcDbLine
 10
990.0
 20
1383.522501
 30
0.0
 11
904.0
 21
1383.522501
 31
0.0
  0
ARC
  5
67D
100
AcDbEntity
  8
LAY-1
  6
CONTINUOUS
 62
     7
100
AcDbCircle
 10
904.0
 20
1379.522501
 30
0.0
 40
4.0
100
AcDbArc
 50
90.0
 51
180.0
  0
LINE
  5
67E
100
AcDbEntity
  8
LAY-1
  6
CONTINUOUS
 62
     7
100
AcDbLine
 10
900.0
 20
1378.522501
 30
0.0
 11
900.0
 21
1379.522501
 31
0.0
  0
ARC
  5
67F
100
AcDbEntity
  8
LAY-1
  6
CONTINUOUS
 62
     7
100
AcDbCircle
 10
1076.0
 20
1379.522501
 30
0.0
 40
4.0
100
AcDbArc
 50
0.0
 51
90.0
  0
LINE
  5
680
100
AcDbEntity
  8
LAY-1
  6
CONTINUOUS
 62
     7
100
AcDbLine
 10
1080.0
 20
1378.522501
 30
0.0
 11
1080.0
 21
1379.522501
 31
0.0
  0
ARC
  5
681
100
AcDbEntity
  8
LAY-1
  6
CONTINUOUS
 62
     7
100
AcDbCircle
 10
1084.0
 20
1378.522501
 30
0.0
 40
4.0
100
AcDbArc
 50
180.0
 51
270.0
  0
LINE
  5
682
100
AcDbEntity
  8
LAY-1
  6
CONTINUOUS
 62
     7
100
AcDbLine
 10
990.0
 20
1383.522501
 30
0.0
 11
1076.0
 21
1383.522501
 31
0.0
  0
ARC
  5
683
100
AcDbEntity
  8
LAY-1
  6
CONTINUOUS
 62
     7
100
AcDbCircle
 10
896.0
 20
1378.522501
 30
0.0
 40
4.0
100
AcDbArc
 50
270.0
 51
0.0
  0
LINE
  5
684
100
AcDbEntity
  8
LAY-1
  6
CONTINUOUS
 62
     7
100
AcDbLine
 10
329.90404
 20
869.816758
 30
0.0
 11
325.90404
 21
869.816758
 31
0.0
  0
LINE
  5
685
100
AcDbEntity
  8
LAY-1
  6
CONTINUOUS
 62
     7
100
AcDbLine
 10
329.90404
 20
741.816758
 30
0.0
 11
325.90404
 21
741.816758
 31
0.0
  0
LINE
  5
686
100
AcDbEntity
  8
LAY-1
  6
CONTINUOUS
 62
     7
100
AcDbLine
 10
1549.09596
 20
741.816758
 30
0.0
 11
1553.09596
 21
741.816758
 31
0.0
  0
LINE
  5
687
100
AcDbEntity
  8
LAY-1
  6
CONTINUOUS
 62
     7
100
AcDbLine
 10
1549.09596
 20
869.816758
 30
0.0
 11
1553.09596
 21
869.816758
 31
0.0
  0
LINE
  5
688
100
AcDbEntity
  8
LAY-1
  6
CONTINUOUS
 62
     7
100
AcDbLine
 10
1568.09596
 20
762.291241
 30
0.0
 11
1568.09596
 21
805.816758
 31
0.0
  0
LINE
  5
689
100
AcDbEntity
  8
LAY-1
  6
CONTINUOUS
 62
     7
100
AcDbLine
 10
1554.09596
 20
805.816758
 30
0.0
 11
1554.09596
 21
742.816758
 31
0.0
  0
LINE
  5
68A
100
AcDbEntity
  8
LAY-1
  6
CONTINUOUS
 62
     7
100
AcDbLine
 10
1554.09596
 20
805.816758
 30
0.0
 11
1554.09596
 21
868.816758
 31
0.0
  0
ARC
  5
68B
100
AcDbEntity
  8
LAY-1
  6
CONTINUOUS
 62
     7
100
AcDbCircle
 10
1567.59596
 20
762.291241
 30
0.0
 40
0.5
100
AcDbArc
 50
273.0
 51
0.0
  0
LINE
  5
68C
100
AcDbEntity
  8
LAY-1
  6
CONTINUOUS
 62
     7
100
AcDbLine
 10
1567.622127
 20
761.791926
 30
0.0
 11
1565.663169
 21
761.689261
 31
0.0
  0
ARC
  5
68D
100
AcDbEntity
  8
LAY-1
  6
CONTINUOUS
 62
     7
100
AcDbCircle
 10
1565.715505
 20
760.690632
 30
0.0
 40
1.0
100
AcDbArc
 50
93.0
 51
146.199261
  0
LINE
  5
68E
100
AcDbEntity
  8
LAY-1
  6
CONTINUOUS
 62
     7
100
AcDbLine
 10
1568.09596
 20
839.816758
 30
0.0
 11
1568.09596
 21
805.816758
 31
0.0
  0
ARC
  5
68F
100
AcDbEntity
  8
LAY-1
  6
CONTINUOUS
 62
     7
100
AcDbCircle
 10
1641.911193
 20
815.678581
 30
0.0
 40
28.815233
100
AcDbArc
 50
163.724951
 51
196.275049
  0
ARC
  5
690
100
AcDbEntity
  8
LAY-1
  6
CONTINUOUS
 62
     7
100
AcDbCircle
 10
1641.911193
 20
795.954936
 30
0.0
 40
28.815233
100
AcDbArc
 50
163.724951
 51
196.275049
  0
LINE
  5
691
100
AcDbEntity
  8
LAY-1
  6
CONTINUOUS
 62
     7
100
AcDbLine
 10
1614.25066
 20
823.754012
 30
0.0
 11
1614.25066
 21
825.816758
 31
0.0
  0
LINE
  5
692
100
AcDbEntity
  8
LAY-1
  6
CONTINUOUS
 62
     7
100
AcDbLine
 10
1622.441259
 20
823.754012
 30
0.0
 11
1622.441259
 21
825.816758
 31
0.0
  0
LINE
  5
693
100
AcDbEntity
  8
LAY-1
  6
CONTINUOUS
 62
     7
100
AcDbLine
 10
1614.25066
 20
787.879504
 30
0.0
 11
1614.25066
 21
785.816758
 31
0.0
  0
LINE
  5
694
100
AcDbEntity
  8
LAY-1
  6
CONTINUOUS
 62
     7
100
AcDbLine
 10
1622.441259
 20
787.879504
 30
0.0
 11
1622.441259
 21
785.816758
 31
0.0
  0
LINE
  5
695
100
AcDbEntity
  8
LAY-1
  6
CONTINUOUS
 62
     7
100
AcDbLine
 10
1622.441259
 20
823.754012
 30
0.0
 11
1614.25066
 21
823.754012
 31
0.0
  0
ARC
  5
696
100
AcDbEntity
  8
LAY-1
  6
CONTINUOUS
 62
     7
100
AcDbCircle
 10
1594.780726
 20
815.678581
 30
0.0
 40
28.815233
100
AcDbArc
 50
343.724951
 51
16.275049
  0
ARC
  5
697
100
AcDbEntity
  8
LAY-1
  6
CONTINUOUS
 62
     7
100
AcDbCircle
 10
1594.780726
 20
795.954936
 30
0.0
 40
28.815233
100
AcDbArc
 50
343.724951
 51
16.275049
  0
LINE
  5
698
100
AcDbEntity
  8
LAY-1
  6
CONTINUOUS
 62
     7
100
AcDbLine
 10
1622.441259
 20
787.879504
 30
0.0
 11
1614.25066
 21
787.879504
 31
0.0
  0
LINE
  5
699
100
AcDbEntity
  8
LAY-1
  6
CONTINUOUS
 62
     7
100
AcDbLine
 10
1623.59596
 20
785.816758
 30
0.0
 11
1613.09596
 21
785.816758
 31
0.0
  0
LINE
  5
69A
100
AcDbEntity
  8
LAY-1
  6
CONTINUOUS
 62
     7
100
AcDbLine
 10
1623.59596
 20
825.816758
 30
0.0
 11
1613.09596
 21
825.816758
 31
0.0
  0
LINE
  5
69B
100
AcDbEntity
  8
LAY-1
  6
CONTINUOUS
 62
     7
100
AcDbLine
 10
1622.441259
 20
827.816758
 30
0.0
 11
1622.452098
 21
827.816758
 31
0.0
  0
LINE
  5
69C
100
AcDbEntity
  8
LAY-1
  6
CONTINUOUS
 62
     7
100
AcDbLine
 10
1614.25066
 20
804.030368
 30
0.0
 11
1614.25066
 21
807.603149
 31
0.0
  0
LINE
  5
69D
100
AcDbEntity
  8
LAY-1
  6
CONTINUOUS
 62
     7
100
AcDbLine
 10
1614.25066
 20
804.030368
 30
0.0
 11
1622.441259
 21
804.030368
 31
0.0
  0
LINE
  5
69E
100
AcDbEntity
  8
LAY-1
  6
CONTINUOUS
 62
     7
100
AcDbLine
 10
1614.25066
 20
807.603149
 30
0.0
 11
1622.441259
 21
807.603149
 31
0.0
  0
LINE
  5
69F
100
AcDbEntity
  8
LAY-1
  6
CONTINUOUS
 62
     7
100
AcDbLine
 10
1622.441259
 20
804.030368
 30
0.0
 11
1622.441259
 21
807.603149
 31
0.0
  0
LINE
  5
6A0
100
AcDbEntity
  8
LAY-1
  6
CONTINUOUS
 62
     7
100
AcDbLine
 10
1613.09596
 20
785.816758
 30
0.0
 11
1612.09596
 21
785.816758
 31
0.0
  0
LINE
  5
6A1
100
AcDbEntity
  8
LAY-1
  6
CONTINUOUS
 62
     7
100
AcDbLine
 10
1612.09596
 20
805.816758
 30
0.0
 11
1612.09596
 21
785.816758
 31
0.0
  0
LINE
  5
6A2
100
AcDbEntity
  8
LAY-1
  6
CONTINUOUS
 62
     7
100
AcDbLine
 10
1613.09596
 20
815.921283
 30
0.0
 11
1613.09596
 21
785.816758
 31
0.0
  0
LINE
  5
6A3
100
AcDbEntity
  8
LAY-1
  6
CONTINUOUS
 62
     7
100
AcDbLine
 10
1623.59596
 20
805.816758
 30
0.0
 11
1623.59596
 21
785.816758
 31
0.0
  0
LINE
  5
6A4
100
AcDbEntity
  8
LAY-1
  6
CONTINUOUS
 62
     7
100
AcDbLine
 10
1613.09596
 20
805.816758
 30
0.0
 11
1613.09596
 21
785.816758
 31
0.0
  0
LINE
  5
6A5
100
AcDbEntity
  8
LAY-1
  6
CONTINUOUS
 62
     7
100
AcDbLine
 10
1613.09596
 20
825.816758
 30
0.0
 11
1612.09596
 21
825.816758
 31
0.0
  0
LINE
  5
6A6
100
AcDbEntity
  8
LAY-1
  6
CONTINUOUS
 62
     7
100
AcDbLine
 10
1612.09596
 20
805.816758
 30
0.0
 11
1612.09596
 21
825.816758
 31
0.0
  0
LINE
  5
6A7
100
AcDbEntity
  8
LAY-1
  6
CONTINUOUS
 62
     7
100
AcDbLine
 10
1623.59596
 20
805.816758
 30
0.0
 11
1623.59596
 21
825.816758
 31
0.0
  0
LINE
  5
6A8
100
AcDbEntity
  8
LAY-1
  6
CONTINUOUS
 62
     7
100
AcDbLine
 10
1613.09596
 20
805.816758
 30
0.0
 11
1613.09596
 21
825.816758
 31
0.0
  0
LINE
  5
6A9
100
AcDbEntity
  8
LAY-1
  6
CONTINUOUS
 62
     7
100
AcDbLine
 10
1612.156978
 20
825.814628
 30
0.0
 11
1571.956362
 21
827.218464
 31
0.0
  0
ARC
  5
6AA
100
AcDbEntity
  8
LAY-1
  6
CONTINUOUS
 62
     7
100
AcDbCircle
 10
1557.09596
 20
860.31066
 30
0.0
 40
3.0
100
AcDbArc
 50
180.0
 51
248.676314
  0
ARC
  5
6AB
100
AcDbEntity
  8
LAY-1
  6
CONTINUOUS
 62
     7
100
AcDbCircle
 10
1549.09596
 20
839.816758
 30
0.0
 40
19.0
100
AcDbArc
 50
0.0
 51
68.676314
  0
LINE
  5
6AC
100
AcDbEntity
  8
LAY-1
  6
CONTINUOUS
 62
     7
100
AcDbLine
 10
1553.01746
 20
869.816758
 30
0.0
 11
1553.09596
 21
869.816758
 31
0.0
  0
ARC
  5
6AD
100
AcDbEntity
  8
LAY-1
  6
CONTINUOUS
 62
     7
100
AcDbCircle
 10
1553.09596
 20
868.816758
 30
0.0
 40
1.0
100
AcDbArc
 50
0.0
 51
90.0
  0
ARC
  5
6AE
100
AcDbEntity
  8
LAY-1
  6
CONTINUOUS
 62
     7
100
AcDbCircle
 10
1572.09596
 20
831.216027
 30
0.0
 40
4.0
100
AcDbArc
 50
180.0
 51
268.0
  0
LINE
  5
6AF
100
AcDbEntity
  8
LAY-1
  6
CONTINUOUS
 62
     7
100
AcDbLine
 10
1612.156978
 20
785.818889
 30
0.0
 11
1571.956362
 21
784.415053
 31
0.0
  0
ARC
  5
6B0
100
AcDbEntity
  8
LAY-1
  6
CONTINUOUS
 62
     7
100
AcDbCircle
 10
1557.09596
 20
751.322857
 30
0.0
 40
3.0
100
AcDbArc
 50
111.323686
 51
180.0
  0
ARC
  5
6B1
100
AcDbEntity
  8
LAY-1
  6
CONTINUOUS
 62
     7
100
AcDbCircle
 10
1549.09596
 20
771.816758
 30
0.0
 40
19.0
100
AcDbArc
 50
291.323686
 51
0.0
  0
LINE
  5
6B2
100
AcDbEntity
  8
LAY-1
  6
CONTINUOUS
 62
     7
100
AcDbLine
 10
1553.01746
 20
741.816758
 30
0.0
 11
1553.09596
 21
741.816758
 31
0.0
  0
ARC
  5
6B3
100
AcDbEntity
  8
LAY-1
  6
CONTINUOUS
 62
     7
100
AcDbCircle
 10
1553.09596
 20
742.816758
 30
0.0
 40
1.0
100
AcDbArc
 50
270.0
 51
0.0
  0
ARC
  5
6B4
100
AcDbEntity
  8
LAY-1
  6
CONTINUOUS
 62
     7
100
AcDbCircle
 10
1572.09596
 20
780.417489
 30
0.0
 40
4.0
100
AcDbArc
 50
92.0
 51
180.0
  0
ARC
  5
6B5
100
AcDbEntity
  8
LAY-1
  6
CONTINUOUS
 62
     7
100
AcDbCircle
 10
237.088807
 20
815.678581
 30
0.0
 40
28.815233
100
AcDbArc
 50
343.724951
 51
16.275049
  0
ARC
  5
6B6
100
AcDbEntity
  8
LAY-1
  6
CONTINUOUS
 62
     7
100
AcDbCircle
 10
237.088807
 20
795.954936
 30
0.0
 40
28.815233
100
AcDbArc
 50
343.724951
 51
16.275049
  0
LINE
  5
6B7
100
AcDbEntity
  8
LAY-1
  6
CONTINUOUS
 62
     7
100
AcDbLine
 10
264.74934
 20
823.754012
 30
0.0
 11
264.74934
 21
825.816758
 31
0.0
  0
LINE
  5
6B8
100
AcDbEntity
  8
LAY-1
  6
CONTINUOUS
 62
     7
100
AcDbLine
 10
256.558741
 20
823.754012
 30
0.0
 11
256.558741
 21
825.816758
 31
0.0
  0
LINE
  5
6B9
100
AcDbEntity
  8
LAY-1
  6
CONTINUOUS
 62
     7
100
AcDbLine
 10
264.74934
 20
787.879504
 30
0.0
 11
264.74934
 21
785.816758
 31
0.0
  0
LINE
  5
6BA
100
AcDbEntity
  8
LAY-1
  6
CONTINUOUS
 62
     7
100
AcDbLine
 10
256.558741
 20
787.879504
 30
0.0
 11
256.558741
 21
785.816758
 31
0.0
  0
LINE
  5
6BB
100
AcDbEntity
  8
LAY-1
  6
CONTINUOUS
 62
     7
100
AcDbLine
 10
256.558741
 20
823.754012
 30
0.0
 11
264.74934
 21
823.754012
 31
0.0
  0
ARC
  5
6BC
100
AcDbEntity
  8
LAY-1
  6
CONTINUOUS
 62
     7
100
AcDbCircle
 10
284.219274
 20
815.678581
 30
0.0
 40
28.815233
100
AcDbArc
 50
163.724951
 51
196.275049
  0
ARC
  5
6BD
100
AcDbEntity
  8
LAY-1
  6
CONTINUOUS
 62
     7
100
AcDbCircle
 10
284.219274
 20
795.954936
 30
0.0
 40
28.815233
100
AcDbArc
 50
163.724951
 51
196.275049
  0
LINE
  5
6BE
100
AcDbEntity
  8
LAY-1
  6
CONTINUOUS
 62
     7
100
AcDbLine
 10
256.558741
 20
787.879504
 30
0.0
 11
264.74934
 21
787.879504
 31
0.0
  0
LINE
  5
6BF
100
AcDbEntity
  8
LAY-1
  6
CONTINUOUS
 62
     7
100
AcDbLine
 10
255.404041
 20
785.816758
 30
0.0
 11
265.904041
 21
785.816758
 31
0.0
  0
LINE
  5
6C0
100
AcDbEntity
  8
LAY-1
  6
CONTINUOUS
 62
     7
100
AcDbLine
 10
255.404041
 20
825.816758
 30
0.0
 11
265.904041
 21
825.816758
 31
0.0
  0
LINE
  5
6C1
100
AcDbEntity
  8
LAY-1
  6
CONTINUOUS
 62
     7
100
AcDbLine
 10
256.558741
 20
827.816758
 30
0.0
 11
256.547902
 21
827.816758
 31
0.0
  0
LINE
  5
6C2
100
AcDbEntity
  8
LAY-1
  6
CONTINUOUS
 62
     7
100
AcDbLine
 10
264.74934
 20
804.030368
 30
0.0
 11
264.74934
 21
807.603149
 31
0.0
  0
LINE
  5
6C3
100
AcDbEntity
  8
LAY-1
  6
CONTINUOUS
 62
     7
100
AcDbLine
 10
264.74934
 20
804.030368
 30
0.0
 11
256.558741
 21
804.030368
 31
0.0
  0
LINE
  5
6C4
100
AcDbEntity
  8
LAY-1
  6
CONTINUOUS
 62
     7
100
AcDbLine
 10
264.74934
 20
807.603149
 30
0.0
 11
256.558741
 21
807.603149
 31
0.0
  0
LINE
  5
6C5
100
AcDbEntity
  8
LAY-1
  6
CONTINUOUS
 62
     7
100
AcDbLine
 10
256.558741
 20
804.030368
 30
0.0
 11
256.558741
 21
807.603149
 31
0.0
  0
LINE
  5
6C6
100
AcDbEntity
  8
LAY-1
  6
CONTINUOUS
 62
     7
100
AcDbLine
 10
265.904041
 20
785.816758
 30
0.0
 11
266.904041
 21
785.816758
 31
0.0
  0
LINE
  5
6C7
100
AcDbEntity
  8
LAY-1
  6
CONTINUOUS
 62
     7
100
AcDbLine
 10
266.904041
 20
805.816758
 30
0.0
 11
266.904041
 21
785.816758
 31
0.0
  0
LINE
  5
6C8
100
AcDbEntity
  8
LAY-1
  6
CONTINUOUS
 62
     7
100
AcDbLine
 10
265.904041
 20
815.921283
 30
0.0
 11
265.904041
 21
785.816758
 31
0.0
  0
LINE
  5
6C9
100
AcDbEntity
  8
LAY-1
  6
CONTINUOUS
 62
     7
100
AcDbLine
 10
255.404041
 20
805.816758
 30
0.0
 11
255.404041
 21
785.816758
 31
0.0
  0
LINE
  5
6CA
100
AcDbEntity
  8
LAY-1
  6
CONTINUOUS
 62
     7
100
AcDbLine
 10
265.904041
 20
805.816758
 30
0.0
 11
265.904041
 21
785.816758
 31
0.0
  0
LINE
  5
6CB
100
AcDbEntity
  8
LAY-1
  6
CONTINUOUS
 62
     7
100
AcDbLine
 10
265.904041
 20
825.816758
 30
0.0
 11
266.904041
 21
825.816758
 31
0.0
  0
LINE
  5
6CC
100
AcDbEntity
  8
LAY-1
  6
CONTINUOUS
 62
     7
100
AcDbLine
 10
266.904041
 20
805.816758
 30
0.0
 11
266.904041
 21
825.816758
 31
0.0
  0
LINE
  5
6CD
100
AcDbEntity
  8
LAY-1
  6
CONTINUOUS
 62
     7
100
AcDbLine
 10
255.404041
 20
805.816758
 30
0.0
 11
255.404041
 21
825.816758
 31
0.0
  0
LINE
  5
6CE
100
AcDbEntity
  8
LAY-1
  6
CONTINUOUS
 62
     7
100
AcDbLine
 10
265.904041
 20
805.816758
 30
0.0
 11
265.904041
 21
825.816758
 31
0.0
  0
CIRCLE
  5
6CF
100
AcDbEntity
  8
LAY-1
  6
CONTINUOUS
 62
     7
100
AcDbCircle
 10
319.343022
 20
805.816758
 30
0.0
 40
8.5
  0
POLYLINE
  5
6D0
100
AcDbEntity
  8
LAY-1
  6
CONTINUOUS
 62
     7
100
AcDb2dPolyline
 66
     1
 10
0.0
 20
0.0
 30
0.0
 70
   128
  0
VERTEX
  5
6D1
100
AcDbEntity
  8
LAY-1
  6
CONTINUOUS
 62
     7
100
AcDbVertex
100
AcDb2dVertex
 10
309.528068
 20
805.816758
 30
0.0
  0
VERTEX
  5
6D2
100
AcDbEntity
  8
LAY-1
  6
CONTINUOUS
 62
     7
100
AcDbVertex
100
AcDb2dVertex
 10
314.435545
 20
797.316758
 30
0.0
  0
VERTEX
  5
6D3
100
AcDbEntity
  8
LAY-1
  6
CONTINUOUS
 62
     7
100
AcDbVertex
100
AcDb2dVertex
 10
324.250499
 20
797.316758
 30
0.0
  0
VERTEX
  5
6D4
100
AcDbEntity
  8
LAY-1
  6
CONTINUOUS
 62
     7
100
AcDbVertex
100
AcDb2dVertex
 10
329.157977
 20
805.816758
 30
0.0
  0
VERTEX
  5
6D5
100
AcDbEntity
  8
LAY-1
  6
CONTINUOUS
 62
     7
100
AcDbVertex
100
AcDb2dVertex
 10
324.250499
 20
814.316758
 30
0.0
  0
VERTEX
  5
6D6
100
AcDbEntity
  8
LAY-1
  6
CONTINUOUS
 62
     7
100
AcDbVertex
100
AcDb2dVertex
 10
314.435545
 20
814.316758
 30
0.0
  0
VERTEX
  5
6D7
100
AcDbEntity
  8
LAY-1
  6
CONTINUOUS
 62
     7
100
AcDbVertex
100
AcDb2dVertex
 10
309.528068
 20
805.816758
 30
0.0
  0
SEQEND
  5
6D8
100
AcDbEntity
  8
LAY-1
  6
CONTINUOUS
 62
     7
  0
LINE
  5
6D9
100
AcDbEntity
  8
LAY-1
  6
CONTINUOUS
 62
     7
100
AcDbLine
 10
319.343022
 20
815.816758
 30
0.0
 11
323.008712
 21
816.008869
 31
0.0
  0
ARC
  5
6DA
100
AcDbEntity
  8
LAY-1
  6
CONTINUOUS
 62
     7
100
AcDbCircle
 10
319.343022
 20
805.816758
 30
0.0
 40
10.0
100
AcDbArc
 50
90.0
 51
180.0
  0
LINE
  5
6DB
100
AcDbEntity
  8
LAY-1
  6
CONTINUOUS
 62
     7
100
AcDbLine
 10
319.343022
 20
795.816758
 30
0.0
 11
323.008712
 21
795.624648
 31
0.0
  0
ARC
  5
6DC
100
AcDbEntity
  8
LAY-1
  6
CONTINUOUS
 62
     7
100
AcDbCircle
 10
319.343022
 20
805.816758
 30
0.0
 40
10.0
100
AcDbArc
 50
180.0
 51
270.0
  0
LINE
  5
6DD
100
AcDbEntity
  8
LAY-1
  6
CONTINUOUS
 62
     7
100
AcDbLine
 10
310.904041
 20
839.816758
 30
0.0
 11
310.904041
 21
811.084585
 31
0.0
  0
ARC
  5
6DE
100
AcDbEntity
  8
LAY-1
  6
CONTINUOUS
 62
     7
100
AcDbCircle
 10
322.90404
 20
818.006128
 30
0.0
 40
2.0
100
AcDbArc
 50
273.0
 51
0.0
  0
LINE
  5
6DF
100
AcDbEntity
  8
LAY-1
  6
CONTINUOUS
 62
     7
100
AcDbLine
 10
324.90404
 20
818.006128
 30
0.0
 11
324.90404
 21
868.816758
 31
0.0
  0
LINE
  5
6E0
100
AcDbEntity
  8
LAY-1
  6
CONTINUOUS
 62
     7
100
AcDbLine
 10
266.843022
 20
825.814628
 30
0.0
 11
307.043638
 21
827.218464
 31
0.0
  0
ARC
  5
6E1
100
AcDbEntity
  8
LAY-1
  6
CONTINUOUS
 62
     7
100
AcDbCircle
 10
321.90404
 20
860.31066
 30
0.0
 40
3.0
100
AcDbArc
 50
291.323686
 51
0.0
  0
ARC
  5
6E2
100
AcDbEntity
  8
LAY-1
  6
CONTINUOUS
 62
     7
100
AcDbCircle
 10
329.904041
 20
839.816758
 30
0.0
 40
19.0
100
AcDbArc
 50
111.323686
 51
180.0
  0
LINE
  5
6E3
100
AcDbEntity
  8
LAY-1
  6
CONTINUOUS
 62
     7
100
AcDbLine
 10
325.982541
 20
869.816758
 30
0.0
 11
325.90404
 21
869.816758
 31
0.0
  0
ARC
  5
6E4
100
AcDbEntity
  8
LAY-1
  6
CONTINUOUS
 62
     7
100
AcDbCircle
 10
325.90404
 20
868.816758
 30
0.0
 40
1.0
100
AcDbArc
 50
90.0
 51
180.0
  0
ARC
  5
6E5
100
AcDbEntity
  8
LAY-1
  6
CONTINUOUS
 62
     7
100
AcDbCircle
 10
306.904041
 20
831.216027
 30
0.0
 40
4.0
100
AcDbArc
 50
272.0
 51
0.0
  0
ARC
  5
6E6
100
AcDbEntity
  8
LAY-1
  6
CONTINUOUS
 62
     7
100
AcDbCircle
 10
313.284495
 20
760.690632
 30
0.0
 40
1.0
100
AcDbArc
 50
33.800739
 51
87.0
  0
LINE
  5
6E7
100
AcDbEntity
  8
LAY-1
  6
CONTINUOUS
 62
     7
100
AcDbLine
 10
311.377873
 20
761.791926
 30
0.0
 11
313.336831
 21
761.689261
 31
0.0
  0
ARC
  5
6E8
100
AcDbEntity
  8
LAY-1
  6
CONTINUOUS
 62
     7
100
AcDbCircle
 10
311.404041
 20
762.291241
 30
0.0
 40
0.5
100
AcDbArc
 50
180.0
 51
267.0
  0
LINE
  5
6E9
100
AcDbEntity
  8
LAY-1
  6
CONTINUOUS
 62
     7
100
AcDbLine
 10
310.904041
 20
762.291241
 30
0.0
 11
310.904041
 21
800.548931
 31
0.0
  0
ARC
  5
6EA
100
AcDbEntity
  8
LAY-1
  6
CONTINUOUS
 62
     7
100
AcDbCircle
 10
322.90404
 20
793.627389
 30
0.0
 40
2.0
100
AcDbArc
 50
0.0
 51
87.0
  0
LINE
  5
6EB
100
AcDbEntity
  8
LAY-1
  6
CONTINUOUS
 62
     7
100
AcDbLine
 10
324.90404
 20
793.627389
 30
0.0
 11
324.90404
 21
742.816758
 31
0.0
  0
LINE
  5
6EC
100
AcDbEntity
  8
LAY-1
  6
CONTINUOUS
 62
     7
100
AcDbLine
 10
266.843022
 20
785.818889
 30
0.0
 11
307.043638
 21
784.415053
 31
0.0
  0
ARC
  5
6ED
100
AcDbEntity
  8
LAY-1
  6
CONTINUOUS
 62
     7
100
AcDbCircle
 10
321.90404
 20
751.322857
 30
0.0
 40
3.0
100
AcDbArc
 50
0.0
 51
68.676314
  0
ARC
  5
6EE
100
AcDbEntity
  8
LAY-1
  6
CONTINUOUS
 62
     7
100
AcDbCircle
 10
329.904041
 20
771.816758
 30
0.0
 40
19.0
100
AcDbArc
 50
180.0
 51
248.676314
  0
LINE
  5
6EF
100
AcDbEntity
  8
LAY-1
  6
CONTINUOUS
 62
     7
100
AcDbLine
 10
325.982541
 20
741.816758
 30
0.0
 11
325.90404
 21
741.816758
 31
0.0
  0
ARC
  5
6F0
100
AcDbEntity
  8
LAY-1
  6
CONTINUOUS
 62
     7
100
AcDbCircle
 10
325.90404
 20
742.816758
 30
0.0
 40
1.0
100
AcDbArc
 50
180.0
 51
270.0
  0
ARC
  5
6F1
100
AcDbEntity
  8
LAY-1
  6
CONTINUOUS
 62
     7
100
AcDbCircle
 10
306.904041
 20
780.417489
 30
0.0
 40
4.0
100
AcDbArc
 50
0.0
 51
88.0
  0
LINE
  5
6F2
100
AcDbEntity
  8
LAY-1
  6
CONTINUOUS
 62
     7
100
AcDbLine
 10
329.90404
 20
805.816758
 30
0.0
 11
329.904041
 21
741.641781
 31
0.0
  0
LINE
  5
6F3
100
AcDbEntity
  8
LAY-1
  6
CONTINUOUS
 62
     7
100
AcDbLine
 10
334.839819
 20
741.209956
 30
0.0
 11
329.904041
 21
741.641781
 31
0.0
  0
LINE
  5
6F4
100
AcDbEntity
  8
LAY-1
  6
CONTINUOUS
 62
     7
100
AcDbLine
 10
329.90404
 20
869.991736
 30
0.0
 11
329.90404
 21
805.816758
 31
0.0
  0
LINE
  5
6F5
100
AcDbEntity
  8
LAY-1
  6
CONTINUOUS
 62
     7
100
AcDbLine
 10
334.839819
 20
870.42356
 30
0.0
 11
329.90404
 21
869.991736
 31
0.0
  0
LINE
  5
6F6
100
AcDbEntity
  8
LAY-1
  6
CONTINUOUS
 62
     7
100
AcDbLine
 10
329.90404
 20
805.816758
 30
0.0
 11
329.90404
 21
869.816758
 31
0.0
  0
LINE
  5
6F7
100
AcDbEntity
  8
LAY-1
  6
CONTINUOUS
 62
     7
100
AcDbLine
 10
329.90404
 20
805.816758
 30
0.0
 11
329.90404
 21
741.816758
 31
0.0
  0
LINE
  5
6F8
100
AcDbEntity
  8
LAY-1
  6
CONTINUOUS
 62
     7
100
AcDbLine
 10
1549.09596
 20
805.816758
 30
0.0
 11
1549.09596
 21
741.641781
 31
0.0
  0
LINE
  5
6F9
100
AcDbEntity
  8
LAY-1
  6
CONTINUOUS
 62
     7
100
AcDbLine
 10
1544.160181
 20
741.209956
 30
0.0
 11
1549.09596
 21
741.641781
 31
0.0
  0
LINE
  5
6FA
100
AcDbEntity
  8
LAY-1
  6
CONTINUOUS
 62
     7
100
AcDbLine
 10
1549.09596
 20
869.991736
 30
0.0
 11
1549.09596
 21
805.816758
 31
0.0
  0
LINE
  5
6FB
100
AcDbEntity
  8
LAY-1
  6
CONTINUOUS
 62
     7
100
AcDbLine
 10
1544.160181
 20
870.42356
 30
0.0
 11
1549.09596
 21
869.991736
 31
0.0
  0
LINE
  5
6FC
100
AcDbEntity
  8
LAY-1
  6
CONTINUOUS
 62
     7
100
AcDbLine
 10
1549.09596
 20
805.816758
 30
0.0
 11
1549.09596
 21
869.816758
 31
0.0
  0
LINE
  5
6FD
100
AcDbEntity
  8
LAY-1
  6
CONTINUOUS
 62
     7
100
AcDbLine
 10
1549.09596
 20
805.816758
 30
0.0
 11
1549.095959
 21
741.738452
 31
0.0
  0
ARC
  5
6FE
100
AcDbEntity
  8
LAY-1
  6
CONTINUOUS
 62
     7
100
AcDbCircle
 10
1544.59596
 20
736.228983
 30
0.0
 40
5.0
100
AcDbArc
 50
95.0
 51
180.0
  0
ARC
  5
6FF
100
AcDbEntity
  8
LAY-1
  6
CONTINUOUS
 62
     7
100
AcDbCircle
 10
1544.59596
 20
875.404534
 30
0.0
 40
5.0
100
AcDbArc
 50
180.0
 51
265.0
  0
ARC
  5
700
100
AcDbEntity
  8
LAY-1
  6
CONTINUOUS
 62
     7
100
AcDbCircle
 10
334.40404
 20
736.228983
 30
0.0
 40
5.0
100
AcDbArc
 50
0.0
 51
85.0
  0
ARC
  5
701
100
AcDbEntity
  8
LAY-1
  6
CONTINUOUS
 62
     7
100
AcDbCircle
 10
334.40404
 20
875.404534
 30
0.0
 40
5.0
100
AcDbArc
 50
275.0
 51
0.0
  0
LINE
  5
702
100
AcDbEntity
  8
LAY-1
  6
CONTINUOUS
 62
     7
100
AcDbLine
 10
431.404041
 20
1016.842595
 30
0.0
 11
416.404041
 21
1031.842595
 31
0.0
  0
LINE
  5
703
100
AcDbEntity
  8
LAY-1
  6
CONTINUOUS
 62
     7
100
AcDbLine
 10
416.404041
 20
1031.842595
 30
0.0
 11
423.904041
 21
1031.842595
 31
0.0
  0
LINE
  5
704
100
AcDbEntity
  8
LAY-1
  6
CONTINUOUS
 62
     7
100
AcDbLine
 10
431.404041
 20
1016.842595
 30
0.0
 11
446.404041
 21
1031.842595
 31
0.0
  0
LINE
  5
705
100
AcDbEntity
  8
LAY-1
  6
CONTINUOUS
 62
     7
100
AcDbLine
 10
446.404041
 20
1031.842595
 30
0.0
 11
438.904041
 21
1031.842595
 31
0.0
  0
LINE
  5
706
100
AcDbEntity
  8
LAY-1
  6
CONTINUOUS
 62
     7
100
AcDbLine
 10
423.904041
 20
1046.842595
 30
0.0
 11
423.904041
 21
1031.842595
 31
0.0
  0
LINE
  5
707
100
AcDbEntity
  8
LAY-1
  6
CONTINUOUS
 62
     7
100
AcDbLine
 10
431.404041
 20
1046.842595
 30
0.0
 11
438.904041
 21
1046.842595
 31
0.0
  0
LINE
  5
708
100
AcDbEntity
  8
LAY-1
  6
CONTINUOUS
 62
     7
100
AcDbLine
 10
438.904041
 20
1046.842595
 30
0.0
 11
438.904041
 21
1031.842595
 31
0.0
  0
LINE
  5
709
100
AcDbEntity
  8
LAY-1
  6
CONTINUOUS
 62
     7
100
AcDbLine
 10
431.40404
 20
1046.842595
 30
0.0
 11
423.90404
 21
1046.842595
 31
0.0
  0
LINE
  5
70A
100
AcDbEntity
  8
LAY-1
  6
CONTINUOUS
 62
     7
100
AcDbLine
 10
924.0
 20
1397.737919
 30
0.0
 11
922.431757
 21
1396.832494
 31
0.0
  0
LINE
  5
70B
100
AcDbEntity
  8
LAY-1
  6
CONTINUOUS
 62
     7
100
AcDbLine
 10
924.0
 20
1403.522501
 30
0.0
 11
924.0
 21
1403.460314
 31
0.0
  0
LINE
  5
70C
100
AcDbEntity
  8
LAY-1
  6
CONTINUOUS
 62
     7
100
AcDbLine
 10
924.0
 20
1396.881501
 30
0.0
 11
924.0
 21
1403.522501
 31
0.0
  0
LINE
  5
70D
100
AcDbEntity
  8
LAY-1
  6
CONTINUOUS
 62
     7
100
AcDbLine
 10
926.0
 20
1397.800419
 30
0.0
 11
924.0
 21
1397.737919
 31
0.0
  0
LINE
  5
70E
100
AcDbEntity
  8
LAY-1
  6
CONTINUOUS
 62
     7
100
AcDbLine
 10
922.0
 20
1396.819001
 30
0.0
 11
926.0
 21
1396.944001
 31
0.0
  0
LINE
  5
70F
100
AcDbEntity
  8
LAY-1
  6
CONTINUOUS
 62
     7
100
AcDbLine
 10
924.0
 20
1409.307083
 30
0.0
 11
922.431757
 21
1410.212509
 31
0.0
  0
LINE
  5
710
100
AcDbEntity
  8
LAY-1
  6
CONTINUOUS
 62
     7
100
AcDbLine
 10
924.0
 20
1403.522501
 30
0.0
 11
924.0
 21
1403.584689
 31
0.0
  0
LINE
  5
711
100
AcDbEntity
  8
LAY-1
  6
CONTINUOUS
 62
     7
100
AcDbLine
 10
924.0
 20
1410.163501
 30
0.0
 11
924.0
 21
1403.522501
 31
0.0
  0
LINE
  5
712
100
AcDbEntity
  8
LAY-1
  6
CONTINUOUS
 62
     7
100
AcDbLine
 10
926.0
 20
1409.244583
 30
0.0
 11
924.0
 21
1409.307083
 31
0.0
  0
LINE
  5
713
100
AcDbEntity
  8
LAY-1
  6
CONTINUOUS
 62
     7
100
AcDbLine
 10
922.0
 20
1410.226001
 30
0.0
 11
926.0
 21
1410.101001
 31
0.0
  0
LINE
  5
714
100
AcDbEntity
  8
LAY-1
  6
CONTINUOUS
 62
     7
100
AcDbLine
 10
921.0
 20
1393.707547
 30
0.0
 11
922.0
 21
1395.439598
 31
0.0
  0
ARC
  5
715
100
AcDbEntity
  8
LAY-1
  6
CONTINUOUS
 62
     7
100
AcDbCircle
 10
918.633009
 20
1396.387018
 30
0.0
 40
3.396207
100
AcDbArc
 50
326.428181
 51
45.817085
  0
LINE
  5
716
100
AcDbEntity
  8
LAY-1
  6
CONTINUOUS
 62
     7
100
AcDbLine
 10
922.0
 20
1403.522501
 30
0.0
 11
922.0
 21
1395.439598
 31
0.0
  0
ARC
  5
717
100
AcDbEntity
  8
LAY-1
  6
CONTINUOUS
 62
     7
100
AcDbCircle
 10
910.559307
 20
1403.500308
 30
0.0
 40
11.440715
100
AcDbArc
 50
335.865899
 51
0.111144
  0
LINE
  5
718
100
AcDbEntity
  8
LAY-1
  6
CONTINUOUS
 62
     7
100
AcDbLine
 10
921.0
 20
1413.337456
 30
0.0
 11
922.0
 21
1411.605405
 31
0.0
  0
ARC
  5
719
100
AcDbEntity
  8
LAY-1
  6
CONTINUOUS
 62
     7
100
AcDbCircle
 10
918.633009
 20
1410.657984
 30
0.0
 40
3.396207
100
AcDbArc
 50
314.182915
 51
33.571819
  0
LINE
  5
71A
100
AcDbEntity
  8
LAY-1
  6
CONTINUOUS
 62
     7
100
AcDbLine
 10
917.0
 20
1413.337456
 30
0.0
 11
921.0
 21
1413.337456
 31
0.0
  0
LINE
  5
71B
100
AcDbEntity
  8
LAY-1
  6
CONTINUOUS
 62
     7
100
AcDbLine
 10
917.0
 20
1413.337456
 30
0.0
 11
913.0
 21
1413.337456
 31
0.0
  0
LINE
  5
71C
100
AcDbEntity
  8
LAY-1
  6
CONTINUOUS
 62
     7
100
AcDbLine
 10
922.0
 20
1403.522501
 30
0.0
 11
922.0
 21
1411.605405
 31
0.0
  0
ARC
  5
71D
100
AcDbEntity
  8
LAY-1
  6
CONTINUOUS
 62
     7
100
AcDbCircle
 10
910.559307
 20
1403.544694
 30
0.0
 40
11.440715
100
AcDbArc
 50
359.888856
 51
24.134101
  0
LINE
  5
71E
100
AcDbEntity
  8
LAY-1
  6
CONTINUOUS
 62
     7
100
AcDbLine
 10
913.0
 20
1413.337456
 30
0.0
 11
912.818161
 21
1413.022501
 31
0.0
  0
LINE
  5
71F
100
AcDbEntity
  8
LAY-1
  6
CONTINUOUS
 62
     7
100
AcDbLine
 10
913.0
 20
1393.707547
 30
0.0
 11
912.0
 21
1395.439598
 31
0.0
  0
ARC
  5
720
100
AcDbEntity
  8
LAY-1
  6
CONTINUOUS
 62
     7
100
AcDbCircle
 10
915.366991
 20
1396.387018
 30
0.0
 40
3.396207
100
AcDbArc
 50
134.182915
 51
213.571819
  0
LINE
  5
721
100
AcDbEntity
  8
LAY-1
  6
CONTINUOUS
 62
     7
100
AcDbLine
 10
912.0
 20
1403.522501
 30
0.0
 11
912.0
 21
1395.439598
 31
0.0
  0
ARC
  5
722
100
AcDbEntity
  8
LAY-1
  6
CONTINUOUS
 62
     7
100
AcDbCircle
 10
923.440693
 20
1403.500308
 30
0.0
 40
11.440715
100
AcDbArc
 50
179.888856
 51
204.134101
  0
LINE
  5
723
100
AcDbEntity
  8
LAY-1
  6
CONTINUOUS
 62
     7
100
AcDbLine
 10
913.0
 20
1413.337456
 30
0.0
 11
912.0
 21
1411.605405
 31
0.0
  0
ARC
  5
724
100
AcDbEntity
  8
LAY-1
  6
CONTINUOUS
 62
     7
100
AcDbCircle
 10
915.366991
 20
1410.657984
 30
0.0
 40
3.396207
100
AcDbArc
 50
146.428181
 51
225.817085
  0
LINE
  5
725
100
AcDbEntity
  8
LAY-1
  6
CONTINUOUS
 62
     7
100
AcDbLine
 10
912.0
 20
1403.522501
 30
0.0
 11
912.0
 21
1411.605405
 31
0.0
  0
ARC
  5
726
100
AcDbEntity
  8
LAY-1
  6
CONTINUOUS
 62
     7
100
AcDbCircle
 10
923.440693
 20
1403.544694
 30
0.0
 40
11.440715
100
AcDbArc
 50
155.865899
 51
180.111144
  0
LINE
  5
727
100
AcDbEntity
  8
LAY-1
  6
CONTINUOUS
 62
     7
100
AcDbLine
 10
921.0
 20
1408.222501
 30
0.0
 11
913.0
 21
1408.222501
 31
0.0
  0
LINE
  5
728
100
AcDbEntity
  8
LAY-1
  6
CONTINUOUS
 62
     7
100
AcDbLine
 10
921.0
 20
1398.822501
 30
0.0
 11
913.0
 21
1398.822501
 31
0.0
  0
LINE
  5
729
100
AcDbEntity
  8
LAY-1
  6
CONTINUOUS
 62
     7
100
AcDbLine
 10
913.0
 20
1393.707547
 30
0.0
 11
921.0
 21
1393.707547
 31
0.0
  0
LINE
  5
72A
100
AcDbEntity
  8
LAY-1
  6
CONTINUOUS
 62
     7
100
AcDbLine
 10
926.0
 20
1393.022501
 30
0.0
 11
926.0
 21
1397.022501
 31
0.0
  0
LINE
  5
72B
100
AcDbEntity
  8
LAY-1
  6
CONTINUOUS
 62
     7
100
AcDbLine
 10
926.0
 20
1396.944001
 30
0.0
 11
926.0
 21
1413.522501
 31
0.0
  0
ARC
  5
72C
100
AcDbEntity
  8
LAY-1
  6
CONTINUOUS
 62
     7
100
AcDbCircle
 10
927.0
 20
1397.022501
 30
0.0
 40
1.0
100
AcDbArc
 50
90.0
 51
180.0
  0
ARC
  5
72D
100
AcDbEntity
  8
LAY-1
  6
CONTINUOUS
 62
     7
100
AcDbCircle
 10
927.0
 20
1397.022501
 30
0.0
 40
1.0
100
AcDbArc
 50
90.0
 51
180.0
  0
LINE
  5
72E
100
AcDbEntity
  8
LAY-1
  6
CONTINUOUS
 62
     7
100
AcDbLine
 10
913.0
 20
214.92597
 30
0.0
 11
921.0
 21
214.92597
 31
0.0
  0
LINE
  5
72F
100
AcDbEntity
  8
LAY-1
  6
CONTINUOUS
 62
     7
100
AcDbLine
 10
921.0
 20
209.811015
 30
0.0
 11
913.0
 21
209.811015
 31
0.0
  0
LINE
  5
730
100
AcDbEntity
  8
LAY-1
  6
CONTINUOUS
 62
     7
100
AcDbLine
 10
921.0
 20
200.411015
 30
0.0
 11
913.0
 21
200.411015
 31
0.0
  0
ARC
  5
731
100
AcDbEntity
  8
LAY-1
  6
CONTINUOUS
 62
     7
100
AcDbCircle
 10
923.440693
 20
205.088822
 30
0.0
 40
11.440715
100
AcDbArc
 50
179.888856
 51
204.134101
  0
LINE
  5
732
100
AcDbEntity
  8
LAY-1
  6
CONTINUOUS
 62
     7
100
AcDbLine
 10
912.0
 20
205.111015
 30
0.0
 11
912.0
 21
197.028112
 31
0.0
  0
ARC
  5
733
100
AcDbEntity
  8
LAY-1
  6
CONTINUOUS
 62
     7
100
AcDbCircle
 10
915.366991
 20
197.975532
 30
0.0
 40
3.396207
100
AcDbArc
 50
134.182915
 51
213.571819
  0
LINE
  5
734
100
AcDbEntity
  8
LAY-1
  6
CONTINUOUS
 62
     7
100
AcDbLine
 10
913.0
 20
195.296061
 30
0.0
 11
912.0
 21
197.028112
 31
0.0
  0
ARC
  5
735
100
AcDbEntity
  8
LAY-1
  6
CONTINUOUS
 62
     7
100
AcDbCircle
 10
923.440693
 20
205.133208
 30
0.0
 40
11.440715
100
AcDbArc
 50
155.865899
 51
180.111144
  0
LINE
  5
736
100
AcDbEntity
  8
LAY-1
  6
CONTINUOUS
 62
     7
100
AcDbLine
 10
912.0
 20
205.111015
 30
0.0
 11
912.0
 21
213.193919
 31
0.0
  0
ARC
  5
737
100
AcDbEntity
  8
LAY-1
  6
CONTINUOUS
 62
     7
100
AcDbCircle
 10
915.366991
 20
212.246498
 30
0.0
 40
3.396207
100
AcDbArc
 50
146.428181
 51
225.817085
  0
LINE
  5
738
100
AcDbEntity
  8
LAY-1
  6
CONTINUOUS
 62
     7
100
AcDbLine
 10
913.0
 20
214.92597
 30
0.0
 11
912.0
 21
213.193919
 31
0.0
  0
LINE
  5
739
100
AcDbEntity
  8
LAY-1
  6
CONTINUOUS
 62
     7
100
AcDbLine
 10
913.0
 20
195.296061
 30
0.0
 11
912.818161
 21
195.611015
 31
0.0
  0
ARC
  5
73A
100
AcDbEntity
  8
LAY-1
  6
CONTINUOUS
 62
     7
100
AcDbCircle
 10
910.559307
 20
205.088822
 30
0.0
 40
11.440715
100
AcDbArc
 50
335.865899
 51
0.111144
  0
LINE
  5
73B
100
AcDbEntity
  8
LAY-1
  6
CONTINUOUS
 62
     7
100
AcDbLine
 10
922.0
 20
205.111015
 30
0.0
 11
922.0
 21
197.028112
 31
0.0
  0
LINE
  5
73C
100
AcDbEntity
  8
LAY-1
  6
CONTINUOUS
 62
     7
100
AcDbLine
 10
917.0
 20
195.296061
 30
0.0
 11
913.0
 21
195.296061
 31
0.0
  0
LINE
  5
73D
100
AcDbEntity
  8
LAY-1
  6
CONTINUOUS
 62
     7
100
AcDbLine
 10
917.0
 20
195.296061
 30
0.0
 11
921.0
 21
195.296061
 31
0.0
  0
ARC
  5
73E
100
AcDbEntity
  8
LAY-1
  6
CONTINUOUS
 62
     7
100
AcDbCircle
 10
918.633009
 20
197.975532
 30
0.0
 40
3.396207
100
AcDbArc
 50
326.428181
 51
45.817085
  0
LINE
  5
73F
100
AcDbEntity
  8
LAY-1
  6
CONTINUOUS
 62
     7
100
AcDbLine
 10
921.0
 20
195.296061
 30
0.0
 11
922.0
 21
197.028112
 31
0.0
  0
ARC
  5
740
100
AcDbEntity
  8
LAY-1
  6
CONTINUOUS
 62
     7
100
AcDbCircle
 10
910.559307
 20
205.133208
 30
0.0
 40
11.440715
100
AcDbArc
 50
359.888856
 51
24.134101
  0
LINE
  5
741
100
AcDbEntity
  8
LAY-1
  6
CONTINUOUS
 62
     7
100
AcDbLine
 10
922.0
 20
205.111015
 30
0.0
 11
922.0
 21
213.193919
 31
0.0
  0
ARC
  5
742
100
AcDbEntity
  8
LAY-1
  6
CONTINUOUS
 62
     7
100
AcDbCircle
 10
918.633009
 20
212.246498
 30
0.0
 40
3.396207
100
AcDbArc
 50
314.182915
 51
33.571819
  0
LINE
  5
743
100
AcDbEntity
  8
LAY-1
  6
CONTINUOUS
 62
     7
100
AcDbLine
 10
921.0
 20
214.92597
 30
0.0
 11
922.0
 21
213.193919
 31
0.0
  0
LINE
  5
744
100
AcDbEntity
  8
LAY-1
  6
CONTINUOUS
 62
     7
100
AcDbLine
 10
922.0
 20
198.407515
 30
0.0
 11
926.0
 21
198.532515
 31
0.0
  0
LINE
  5
745
100
AcDbEntity
  8
LAY-1
  6
CONTINUOUS
 62
     7
100
AcDbLine
 10
926.0
 20
199.388933
 30
0.0
 11
924.0
 21
199.326433
 31
0.0
  0
LINE
  5
746
100
AcDbEntity
  8
LAY-1
  6
CONTINUOUS
 62
     7
100
AcDbLine
 10
924.0
 20
198.470015
 30
0.0
 11
924.0
 21
205.111015
 31
0.0
  0
LINE
  5
747
100
AcDbEntity
  8
LAY-1
  6
CONTINUOUS
 62
     7
100
AcDbLine
 10
924.0
 20
205.111015
 30
0.0
 11
924.0
 21
205.048828
 31
0.0
  0
LINE
  5
748
100
AcDbEntity
  8
LAY-1
  6
CONTINUOUS
 62
     7
100
AcDbLine
 10
924.0
 20
199.326433
 30
0.0
 11
922.431757
 21
198.421008
 31
0.0
  0
LINE
  5
749
100
AcDbEntity
  8
LAY-1
  6
CONTINUOUS
 62
     7
100
AcDbLine
 10
922.0
 20
211.814515
 30
0.0
 11
926.0
 21
211.689515
 31
0.0
  0
LINE
  5
74A
100
AcDbEntity
  8
LAY-1
  6
CONTINUOUS
 62
     7
100
AcDbLine
 10
926.0
 20
210.833098
 30
0.0
 11
924.0
 21
210.895598
 31
0.0
  0
LINE
  5
74B
100
AcDbEntity
  8
LAY-1
  6
CONTINUOUS
 62
     7
100
AcDbLine
 10
924.0
 20
211.752015
 30
0.0
 11
924.0
 21
205.111015
 31
0.0
  0
LINE
  5
74C
100
AcDbEntity
  8
LAY-1
  6
CONTINUOUS
 62
     7
100
AcDbLine
 10
924.0
 20
205.111015
 30
0.0
 11
924.0
 21
205.173203
 31
0.0
  0
LINE
  5
74D
100
AcDbEntity
  8
LAY-1
  6
CONTINUOUS
 62
     7
100
AcDbLine
 10
924.0
 20
210.895598
 30
0.0
 11
922.431757
 21
211.801023
 31
0.0
  0
LINE
  5
74E
100
AcDbEntity
  8
LAY-1
  6
CONTINUOUS
 62
     7
100
AcDbLine
 10
926.0
 20
215.611015
 30
0.0
 11
926.0
 21
211.611015
 31
0.0
  0
ARC
  5
74F
100
AcDbEntity
  8
LAY-1
  6
CONTINUOUS
 62
     7
100
AcDbCircle
 10
933.399088
 20
209.604903
 30
0.0
 40
1.3
100
AcDbArc
 50
185.0
 51
254.11915
  0
LINE
  5
750
100
AcDbEntity
  8
LAY-1
  6
CONTINUOUS
 62
     7
100
AcDbLine
 10
932.006098
 20
210.611015
 30
0.0
 11
932.104035
 21
209.4916
 31
0.0
  0
ARC
  5
751
100
AcDbEntity
  8
LAY-1
  6
CONTINUOUS
 62
     7
100
AcDbCircle
 10
927.0
 20
211.611015
 30
0.0
 40
1.0
100
AcDbArc
 50
180.0
 51
270.0
  0
ARC
  5
752
100
AcDbEntity
  8
LAY-1
  6
CONTINUOUS
 62
     7
100
AcDbCircle
 10
927.0
 20
211.611015
 30
0.0
 40
1.0
100
AcDbArc
 50
180.0
 51
270.0
  0
LINE
  5
753
100
AcDbEntity
  8
LAY-1
  6
CONTINUOUS
 62
     7
100
AcDbLine
 10
926.0
 20
211.689515
 30
0.0
 11
926.0
 21
195.111015
 31
0.0
  0
TEXT
  5
754
100
AcDbEntity
  8
LAY-1
  6
CONTINUOUS
 62
     3
100
AcDbText
 10
1600.936
 20
207.72
 30
0.0
 40
20.0
  1
ＩＧＬ－５０Ｓ－Ｆ
 41
0.84
  7
EXCADSTD
 72
     5
 11
1780.936
 21
207.72
 31
0.0
100
AcDbText
  0
INSERT
  5
755
100
AcDbEntity
  8
LAY-2
  6
CONTINUOUS
 62
     0
100
AcDbBlockReference
  2
SYM-1
 10
1705.715069
 20
139.52125
 30
0.0
 41
2.925
 42
2.925
  0
TEXT
  5
756
100
AcDbEntity
  8
LAY-2
  6
CONTINUOUS
 62
     3
100
AcDbText
 10
1601.23
 20
235.32
 30
0.0
 40
20.0
  1
２０１６年１０月２４日
 41
0.84
  7
EXCADSTD
 72
     5
 11
1821.23
 21
235.32
 31
0.0
100
AcDbText
  0
LINE
  5
757
100
AcDbEntity
  8
LAY-5
  6
CONTINUOUS
 62
     1
100
AcDbLine
 10
536.904041
 20
665.816758
 30
0.0
 11
698.5
 21
665.816758
 31
0.0
  0
LINE
  5
758
100
AcDbEntity
  8
LAY-5
  6
CONTINUOUS
 62
     1
100
AcDbLine
 10
536.904041
 20
945.816758
 30
0.0
 11
698.5
 21
945.816758
 31
0.0
  0
TEXT
  5
759
100
AcDbEntity
  8
LAY-5
  6
CONTINUOUS
 62
     3
100
AcDbText
 10
697.0
 20
755.816758
 30
0.0
 40
25.0
  1
φ
 50
90.0
 41
0.84
  7
EXCADSTD
 72
     5
 11
697.0
 21
775.816758
 31
0.0
100
AcDbText
  0
TEXT
  5
75A
100
AcDbEntity
  8
LAY-5
  6
CONTINUOUS
 62
     3
100
AcDbText
 10
697.0
 20
780.816758
 30
0.0
 40
25.0
  1
２８０
 50
90.0
 41
0.84
  7
EXCADSTD
 72
     5
 11
697.0
 21
855.816758
 31
0.0
100
AcDbText
  0
LINE
  5
75B
100
AcDbEntity
  8
LAY-5
  6
CONTINUOUS
 62
     1
100
AcDbLine
 10
698.0
 20
665.816758
 30
0.0
 11
698.0
 21
945.816758
 31
0.0
  0
LINE
  5
75C
100
AcDbEntity
  8
LAY-5
  6
CONTINUOUS
 62
     1
100
AcDbLine
 10
697.666667
 20
667.816758
 30
0.0
 11
698.0
 21
665.816758
 31
0.0
  0
LINE
  5
75D
100
AcDbEntity
  8
LAY-5
  6
CONTINUOUS
 62
     1
100
AcDbLine
 10
698.0
 20
665.816758
 30
0.0
 11
698.333333
 21
667.816758
 31
0.0
  0
LINE
  5
75E
100
AcDbEntity
  8
LAY-5
  6
CONTINUOUS
 62
     1
100
AcDbLine
 10
698.333333
 20
943.816758
 30
0.0
 11
698.0
 21
945.816758
 31
0.0
  0
LINE
  5
75F
100
AcDbEntity
  8
LAY-5
  6
CONTINUOUS
 62
     1
100
AcDbLine
 10
698.0
 20
945.816758
 30
0.0
 11
697.666667
 21
943.816758
 31
0.0
  0
LINE
  5
760
100
AcDbEntity
  8
LAY-5
  6
CONTINUOUS
 62
     1
100
AcDbLine
 10
638.404041
 20
797.331477
 30
0.0
 11
638.404041
 21
602.5
 31
0.0
  0
TEXT
  5
761
100
AcDbEntity
  8
LAY-5
  6
CONTINUOUS
 62
     3
100
AcDbText
 10
497.404041
 20
604.0
 30
0.0
 40
25.0
  1
２０７
 41
0.84
  7
EXCADSTD
 72
     5
 11
572.404041
 21
604.0
 31
0.0
100
AcDbText
  0
LINE
  5
762
100
AcDbEntity
  8
LAY-5
  6
CONTINUOUS
 62
     1
100
AcDbLine
 10
431.40404
 20
603.0
 30
0.0
 11
638.404041
 21
603.0
 31
0.0
  0
LINE
  5
763
100
AcDbEntity
  8
LAY-5
  6
CONTINUOUS
 62
     1
100
AcDbLine
 10
433.40404
 20
603.333333
 30
0.0
 11
431.40404
 21
603.0
 31
0.0
  0
LINE
  5
764
100
AcDbEntity
  8
LAY-5
  6
CONTINUOUS
 62
     1
100
AcDbLine
 10
431.40404
 20
603.0
 30
0.0
 11
433.40404
 21
602.666667
 31
0.0
  0
LINE
  5
765
100
AcDbEntity
  8
LAY-5
  6
CONTINUOUS
 62
     1
100
AcDbLine
 10
636.404041
 20
602.666667
 30
0.0
 11
638.404041
 21
603.0
 31
0.0
  0
LINE
  5
766
100
AcDbEntity
  8
LAY-5
  6
CONTINUOUS
 62
     1
100
AcDbLine
 10
638.404041
 20
603.0
 30
0.0
 11
636.404041
 21
603.333333
 31
0.0
  0
LINE
  5
767
100
AcDbEntity
  8
LAY-5
  6
CONTINUOUS
 62
     1
100
AcDbLine
 10
255.404041
 20
785.816758
 30
0.0
 11
255.404041
 21
602.5
 31
0.0
  0
LINE
  5
768
100
AcDbEntity
  8
LAY-5
  6
CONTINUOUS
 62
     1
100
AcDbLine
 10
431.404041
 20
635.454218
 30
0.0
 11
431.40404
 21
602.5
 31
0.0
  0
LINE
  5
769
100
AcDbEntity
  8
LAY-5
  6
CONTINUOUS
 62
     1
100
AcDbLine
 10
255.404041
 20
603.0
 30
0.0
 11
431.40404
 21
603.0
 31
0.0
  0
LINE
  5
76A
100
AcDbEntity
  8
LAY-5
  6
CONTINUOUS
 62
     1
100
AcDbLine
 10
257.404041
 20
603.333333
 30
0.0
 11
255.404041
 21
603.0
 31
0.0
  0
LINE
  5
76B
100
AcDbEntity
  8
LAY-5
  6
CONTINUOUS
 62
     1
100
AcDbLine
 10
255.404041
 20
603.0
 30
0.0
 11
257.404041
 21
602.666667
 31
0.0
  0
LINE
  5
76C
100
AcDbEntity
  8
LAY-5
  6
CONTINUOUS
 62
     1
100
AcDbLine
 10
429.40404
 20
602.666667
 30
0.0
 11
431.40404
 21
603.0
 31
0.0
  0
LINE
  5
76D
100
AcDbEntity
  8
LAY-5
  6
CONTINUOUS
 62
     1
100
AcDbLine
 10
431.40404
 20
603.0
 30
0.0
 11
429.40404
 21
603.333333
 31
0.0
  0
TEXT
  5
76E
100
AcDbEntity
  8
LAY-5
  6
CONTINUOUS
 62
     3
100
AcDbText
 10
305.904041
 20
604.0
 30
0.0
 40
25.0
  1
１７６
 41
0.84
  7
EXCADSTD
 72
     5
 11
380.904041
 21
604.0
 31
0.0
100
AcDbText
  0
LINE
  5
76F
100
AcDbEntity
  8
LAY-5
  6
CONTINUOUS
 62
     1
100
AcDbLine
 10
386.40404
 20
660.816758
 30
0.0
 11
220.5
 21
660.816758
 31
0.0
  0
LINE
  5
770
100
AcDbEntity
  8
LAY-5
  6
CONTINUOUS
 62
     1
100
AcDbLine
 10
386.40404
 20
950.816758
 30
0.0
 11
220.5
 21
950.816758
 31
0.0
  0
LINE
  5
771
100
AcDbEntity
  8
LAY-5
  6
CONTINUOUS
 62
     1
100
AcDbLine
 10
221.0
 20
660.816758
 30
0.0
 11
221.0
 21
950.816758
 31
0.0
  0
LINE
  5
772
100
AcDbEntity
  8
LAY-5
  6
CONTINUOUS
 62
     1
100
AcDbLine
 10
220.666667
 20
662.816758
 30
0.0
 11
221.0
 21
660.816758
 31
0.0
  0
LINE
  5
773
100
AcDbEntity
  8
LAY-5
  6
CONTINUOUS
 62
     1
100
AcDbLine
 10
221.0
 20
660.816758
 30
0.0
 11
221.333333
 21
662.816758
 31
0.0
  0
LINE
  5
774
100
AcDbEntity
  8
LAY-5
  6
CONTINUOUS
 62
     1
100
AcDbLine
 10
221.333333
 20
948.816758
 30
0.0
 11
221.0
 21
950.816758
 31
0.0
  0
LINE
  5
775
100
AcDbEntity
  8
LAY-5
  6
CONTINUOUS
 62
     1
100
AcDbLine
 10
221.0
 20
950.816758
 30
0.0
 11
220.666667
 21
948.816758
 31
0.0
  0
TEXT
  5
776
100
AcDbEntity
  8
LAY-5
  6
CONTINUOUS
 62
     3
100
AcDbText
 10
220.0
 20
768.316758
 30
0.0
 40
25.0
  1
２９０
 50
90.0
 41
0.84
  7
EXCADSTD
 72
     5
 11
220.0
 21
843.316758
 31
0.0
100
AcDbText
  0
ENDSEC
  0
SECTION
  2
OBJECTS
  0
DICTIONARY
  5
19
100
AcDbDictionary
  3
ACAD_GROUP
350
1A
  3
ACAD_MLINESTYLE
350
1B
  0
DICTIONARY
  5
1A
102
{ACAD_REACTORS
330
19
102
}
100
AcDbDictionary
  0
DICTIONARY
  5
1B
102
{ACAD_REACTORS
330
19
102
}
100
AcDbDictionary
  3
STANDARD
350
1C
  0
MLINESTYLE
  5
1C
102
{ACAD_REACTORS
330
1B
102
}
100
AcDbMlineStyle
  2
Standard
 70
     0
  3

 62
     0
 51
90.0
 52
90.0
 71
     2
 49
0.5
 62
   256
  6
ByLayer
 49
-0.5
 62
   256
  6
ByLayer
  0
ENDSEC
  0
EOF
