  0
SECTION
  2
HEADER
  9
$ACADVER
  1
AC1014
  9
$ACADMAINTVER
 70
     0
  9
$DWGCODEPAGE
  3
ANSI_932
  9
$INSBASE
 10
0.0
 20
0.0
 30
0.0
  9
$EXTMIN
 10
44.1
 20
23.0
 30
0.0
  9
$EXTMAX
 10
379.88
 20
279.357618
 30
0.0
  9
$LIMMIN
 10
0.0
 20
0.0
  9
$LIMMAX
 10
420.0
 20
297.0
  9
$ORTHOMODE
 70
     0
  9
$REGENMODE
 70
     1
  9
$FILLMODE
 70
     1
  9
$QTEXTMODE
 70
     0
  9
$MIRRTEXT
 70
     1
  9
$DRAGMODE
 70
     2
  9
$LTSCALE
 40
1.0
  9
$OSMODE
 70
     0
  9
$ATTMODE
 70
     1
  9
$TEXTSIZE
 40
0.2
  9
$TRACEWID
 40
0.05
  9
$TEXTSTYLE
  7
STANDARD
  9
$CLAYER
  8
LAY-1
  9
$CELTYPE
  6
CONTINUOUS
  9
$CECOLOR
 62
   256
  9
$CELTSCALE
 40
1.0
  9
$DELOBJ
 70
     1
  9
$DISPSILH
 70
     0
  9
$DIMSCALE
 40
1.0
  9
$DIMASZ
 40
0.18
  9
$DIMEXO
 40
0.0625
  9
$DIMDLI
 40
0.38
  9
$DIMRND
 40
0.0
  9
$DIMDLE
 40
0.0
  9
$DIMEXE
 40
0.18
  9
$DIMTP
 40
0.0
  9
$DIMTM
 40
0.0
  9
$DIMTXT
 40
0.18
  9
$DIMCEN
 40
0.09
  9
$DIMTSZ
 40
0.0
  9
$DIMTOL
 70
     0
  9
$DIMLIM
 70
     0
  9
$DIMTIH
 70
     1
  9
$DIMTOH
 70
     1
  9
$DIMSE1
 70
     0
  9
$DIMSE2
 70
     0
  9
$DIMTAD
 70
     0
  9
$DIMZIN
 70
     0
  9
$DIMBLK
  1

  9
$DIMASO
 70
     1
  9
$DIMSHO
 70
     1
  9
$DIMPOST
  1

  9
$DIMAPOST
  1

  9
$DIMALT
 70
     0
  9
$DIMALTD
 70
     2
  9
$DIMALTF
 40
25.4
  9
$DIMLFAC
 40
1.0
  9
$DIMTOFL
 70
     0
  9
$DIMTVP
 40
0.0
  9
$DIMTIX
 70
     0
  9
$DIMSOXD
 70
     0
  9
$DIMSAH
 70
     0
  9
$DIMBLK1
  1

  9
$DIMBLK2
  1

  9
$DIMSTYLE
  2
STANDARD
  9
$DIMCLRD
 70
     0
  9
$DIMCLRE
 70
     0
  9
$DIMCLRT
 70
     0
  9
$DIMTFAC
 40
1.0
  9
$DIMGAP
 40
0.09
  9
$DIMJUST
 70
     0
  9
$DIMSD1
 70
     0
  9
$DIMSD2
 70
     0
  9
$DIMTOLJ
 70
     1
  9
$DIMTZIN
 70
     0
  9
$DIMALTZ
 70
     0
  9
$DIMALTTZ
 70
     0
  9
$DIMFIT
 70
     3
  9
$DIMUPT
 70
     0
  9
$DIMUNIT
 70
     2
  9
$DIMDEC
 70
     4
  9
$DIMTDEC
 70
     4
  9
$DIMALTU
 70
     2
  9
$DIMALTTD
 70
     2
  9
$DIMTXSTY
  7
STANDARD
  9
$DIMAUNIT
 70
     0
  9
$LUNITS
 70
     2
  9
$LUPREC
 70
     4
  9
$SKETCHINC
 40
0.1
  9
$FILLETRAD
 40
0.0
  9
$AUNITS
 70
     0
  9
$AUPREC
 70
     0
  9
$MENU
  1
acad
  9
$ELEVATION
 40
0.0
  9
$PELEVATION
 40
0.0
  9
$THICKNESS
 40
0.0
  9
$LIMCHECK
 70
     0
  9
$BLIPMODE
 70
     1
  9
$CHAMFERA
 40
0.0
  9
$CHAMFERB
 40
0.0
  9
$CHAMFERC
 40
0.0
  9
$CHAMFERD
 40
0.0
  9
$SKPOLY
 70
     0
  9
$TDCREATE
 40
2457501.144865185
  9
$TDUPDATE
 40
2457501.144865185
  9
$TDINDWG
 40
0.0000000000
  9
$TDUSRTIMER
 40
0.0000000000
  9
$USRTIMER
 70
     1
  9
$ANGBASE
 50
0.0
  9
$ANGDIR
 70
     0
  9
$PDMODE
 70
     0
  9
$PDSIZE
 40
0.0
  9
$PLINEWID
 40
0.0
  9
$COORDS
 70
     1
  9
$SPLFRAME
 70
     0
  9
$SPLINETYPE
 70
     6
  9
$SPLINESEGS
 70
     8
  9
$ATTDIA
 70
     0
  9
$ATTREQ
 70
     1
  9
$HANDLING
 70
     1
  9
$HANDSEED
  5
416
  9
$SURFTAB1
 70
     6
  9
$SURFTAB2
 70
     6
  9
$SURFTYPE
 70
     6
  9
$SURFU
 70
     6
  9
$SURFV
 70
     6
  9
$UCSNAME
  2

  9
$UCSORG
 10
0.0
 20
0.0
 30
0.0
  9
$UCSXDIR
 10
1.0
 20
0.0
 30
0.0
  9
$UCSYDIR
 10
0.0
 20
1.0
 30
0.0
  9
$PUCSNAME
  2

  9
$PUCSORG
 10
0.0
 20
0.0
 30
0.0
  9
$PUCSXDIR
 10
1.0
 20
0.0
 30
0.0
  9
$PUCSYDIR
 10
0.0
 20
1.0
 30
0.0
  9
$USERI1
 70
     0
  9
$USERI2
 70
     0
  9
$USERI3
 70
     0
  9
$USERI4
 70
     0
  9
$USERI5
 70
     0
  9
$USERR1
 40
0.0
  9
$USERR2
 40
0.0
  9
$USERR3
 40
0.0
  9
$USERR4
 40
0.0
  9
$USERR5
 40
0.0
  9
$WORLDVIEW
 70
     1
  9
$SHADEDGE
 70
     3
  9
$SHADEDIF
 70
    70
  9
$TILEMODE
 70
     1
  9
$MAXACTVP
 70
    16
  9
$PINSBASE
 10
0.0
 20
0.0
 30
0.0
  9
$PLIMCHECK
 70
     0
  9
$PEXTMIN
 10
1.000000E+20
 20
1.000000E+20
 30
1.000000E+20
  9
$PEXTMAX
 10
-1.000000E+20
 20
-1.000000E+20
 30
-1.000000E+20
  9
$PLIMMIN
 10
0.0
 20
0.0
  9
$PLIMMAX
 10
12.0
 20
9.0
  9
$UNITMODE
 70
     0
  9
$VISRETAIN
 70
     0
  9
$PLINEGEN
 70
     1
  9
$PSLTSCALE
 70
     0
  9
$TREEDEPTH
 70
  3020
  9
$PICKSTYLE
 70
     1
  9
$CMLSTYLE
  2
Standard
  9
$CMLJUST
 70
     0
  9
$CMLSCALE
 40
1.0
  9
$PROXYGRAPHICS
 70
     0
  9
$MEASUREMENT
 70
     0
  0
ENDSEC
  0
SECTION
  2
CLASSES
  0
CLASS
  1
LWPOLYLINE
  2
AcDbPolyline
  3
"AutoCAD"
 90
        0
280
     0
281
     1
  0
CLASS
  1
IMAGE
  2
AcDbRasterImage
  3
ISM
 90
      127
280
     0
281
     1
  0
CLASS
  1
OLE2FRAME
  2
AcDbOle2Frame
  3
""
 90
        0
280
     0
281
     1
  0
CLASS
  1
HATCH
  2
AcDbHatch
  3
"ACAD_SEDONA"
 90
        0
280
     0
281
     1
  0
CLASS
  1
DICTIONARYVAR
  2
AcDbDictionaryVar
  3
"AutoCAD"
 90
        0
280
     0
281
     0
  0
CLASS
  1
RASTERVARIABLES
  2
AcDbRasterVariables
  3
ISM
 90
        0
280
     0
281
     0
  0
CLASS
  1
IMAGEDEF
  2
AcDbRasterImageDef
  3
ISM
 90
        0
280
     0
281
     0
  0
CLASS
  1
IMAGEDEF_REACTOR
  2
AcDbRasterImageDefReactor
  3
ISM
 90
        1
280
     0
281
     0
  0
CLASS
  1
IDBUFFER
  2
AcDbIdBuffer
  3
"Acad"
 90
        0
280
     0
281
     0
  0
CLASS
  1
SPATIAL_FILTER
  2
AcDbSpatialFilter
  3
"Acad"
 90
        0
280
     0
281
     0
  0
CLASS
  1
XRECORD
  2
AcDbXrecord
  3
"<Built In>"
 90
        0
280
     0
281
     0
  0
CLASS
  1
SORTENTSTABLE
  2
AcDbSortentsTable
  3
"AutoCAD"
 90
        0
280
     0
281
     0
  0
CLASS
  1
LAYER_INDEX
  2
AcDbLayerIndex
  3
"Acad"
 90
        0
280
     0
281
     0
  0
CLASS
  1
SPATIAL_INDEX
  2
AcDbSpatialIndex
  3
"Acad"
 90
        0
280
     0
281
     0
  0
CLASS
  1
OBJECT_PTR
  2
CAseDLPNTableRecord
  3
"ASE-LPNTableRecord"
 90
        1
280
     0
281
     0
  0
CLASS
  1
LAYOUT
  2
AcDbLayout
  3
"AutoCAD 2000"
 90
        0
280
     0
281
     0
  0
CLASS
  1
PLOTSETTINGS
  2
AcDbPlotSettings
  3
"AutoCAD 2000"
 90
        0
280
     0
281
     0
  0
CLASS
  1
ACDBDICTIONARYWDFLT
  2
AcDbDictionaryWithDefault
  3
"AutoCAD 2000"
 90
        0
280
     0
281
     0
  0
CLASS
  1
ACDBPLACEHOLDER
  2
AcDbPlaceHolder
  3
"AutoCAD 2000"
 90
        0
280
     0
281
     0
  0
CLASS
  1
VBA_PROJECT
  2
AcDbVbaProject
  3
"acadvba"
 90
        0
280
     0
281
     0
  0
CLASS
  1
WIPEOUT
  2
AcDbWipeout
  3
WipeOut|AutoCAD Express Tool|expresstools@autodesk.com
 90
      127
280
     0
281
     1
  0
CLASS
  1
WIPEOUTVARIABLES
  2
AcDbWipeoutVariables
  3
WipeOut|AutoCAD Express Tool|expresstools@autodesk.com
 90
        0
280
     0
281
     0
  0
CLASS
  1
RTEXT
  2
RText
  3
RText|AutoCAD Express Tool|expresstools@autodesk.com
 90
        0
280
     0
281
     1
  0
CLASS
  1
ARCALIGNEDTEXT
  2
AcDbArcAlignedText
  3
ATEXT|AutoCAD Express Tool|expresstools@autodesk.com
 90
        0
280
     0
281
     1
  0
ENDSEC
  0
SECTION
  2
TABLES
  0
TABLE
  2
VPORT
  5
7
100
AcDbSymbolTable
 70
     1
  0
VPORT
  5
15
100
AcDbSymbolTableRecord
100
AcDbViewportTableRecord
  2
*ACTIVE
 70
     0
 10
0.0
 20
0.0
 11
1.0
 21
1.0
 12
211.99
 22
151.178809
 13
0.0
 23
0.0
 14
1.0
 24
1.0
 15
0.0
 25
0.0
 16
0.0
 26
0.0
 36
1.0
 17
0.0
 27
0.0
 37
0.0
 40
256.357618
 41
1.722533
 42
50.0
 43
0.0
 44
0.0
 50
0.0
 51
0.0
 71
     0
 72
  1000
 73
     1
 74
     1
 75
     0
 76
     0
 77
     0
 78
     0
  0
ENDTAB
  0
TABLE
  2
LTYPE
  5
4
100
AcDbSymbolTable
 70
     9
  0
LTYPE
  5
11
100
AcDbSymbolTableRecord
100
AcDbLinetypeTableRecord
  2
BYBLOCK
 70
    64
  3

 72
    65
 73
     0
 40
0.0
  0
LTYPE
  5
12
100
AcDbSymbolTableRecord
100
AcDbLinetypeTableRecord
  2
BYLAYER
 70
    64
  3

 72
    65
 73
     0
 40
0.0
  0
LTYPE
  5
13
100
AcDbSymbolTableRecord
100
AcDbLinetypeTableRecord
  2
CONTINUOUS
 70
    64
  3
実線
 72
    65
 73
     0
 40
0.0
  0
LTYPE
  5
1D
100
AcDbSymbolTableRecord
100
AcDbLinetypeTableRecord
  2
EXLTYPE1
 70
    64
  3
破線
 72
    65
 73
     2
 40
4.0
 49
3.0
 74
     0
 49
-1.0
 74
     0
  0
LTYPE
  5
1E
100
AcDbSymbolTableRecord
100
AcDbLinetypeTableRecord
  2
EXLTYPE2
 70
    64
  3
点線
 72
    65
 73
     2
 40
2.0
 49
1.0
 74
     0
 49
-1.0
 74
     0
  0
LTYPE
  5
1F
100
AcDbSymbolTableRecord
100
AcDbLinetypeTableRecord
  2
EXLTYPE3
 70
    64
  3
一点鎖線
 72
    65
 73
     4
 40
33.0
 49
30.0
 74
     0
 49
-1.0
 74
     0
 49
1.0
 74
     0
 49
-1.0
 74
     0
  0
LTYPE
  5
20
100
AcDbSymbolTableRecord
100
AcDbLinetypeTableRecord
  2
EXLTYPE4
 70
    64
  3
二点鎖線
 72
    65
 73
     6
 40
35.0
 49
30.0
 74
     0
 49
-1.0
 74
     0
 49
1.0
 74
     0
 49
-1.0
 74
     0
 49
1.0
 74
     0
 49
-1.0
 74
     0
  0
LTYPE
  5
21
100
AcDbSymbolTableRecord
100
AcDbLinetypeTableRecord
  2
EXLTYPE5
 70
    64
  3
三点鎖線
 72
    65
 73
     8
 40
37.0
 49
30.0
 74
     0
 49
-1.0
 74
     0
 49
1.0
 74
     0
 49
-1.0
 74
     0
 49
1.0
 74
     0
 49
-1.0
 74
     0
 49
1.0
 74
     0
 49
-1.0
 74
     0
  0
LTYPE
  5
22
100
AcDbSymbolTableRecord
100
AcDbLinetypeTableRecord
  2
EXLTYPE6
 70
    64
  3
四点鎖線
 72
    65
 73
    10
 40
39.0
 49
30.0
 74
     0
 49
-1.0
 74
     0
 49
1.0
 74
     0
 49
-1.0
 74
     0
 49
1.0
 74
     0
 49
-1.0
 74
     0
 49
1.0
 74
     0
 49
-1.0
 74
     0
 49
1.0
 74
     0
 49
-1.0
 74
     0
  0
ENDTAB
  0
TABLE
  2
LAYER
  5
2
100
AcDbSymbolTable
 70
     4
  0
LAYER
  5
14
100
AcDbSymbolTableRecord
100
AcDbLayerTableRecord
  2
0
 70
     0
 62
     7
  6
CONTINUOUS
  0
LAYER
  5
25
100
AcDbSymbolTableRecord
100
AcDbLayerTableRecord
  2
LAY-1
 70
    64
 62
     3
  6
CONTINUOUS
  0
LAYER
  5
26
100
AcDbSymbolTableRecord
100
AcDbLayerTableRecord
  2
LAY-2
 70
    64
 62
     7
  6
CONTINUOUS
  0
LAYER
  5
27
100
AcDbSymbolTableRecord
100
AcDbLayerTableRecord
  2
LAY-5
 70
    64
 62
     1
  6
CONTINUOUS
  0
ENDTAB
  0
TABLE
  2
STYLE
  5
3
100
AcDbSymbolTable
 70
     3
  0
STYLE
  5
17
100
AcDbSymbolTableRecord
100
AcDbTextStyleTableRecord
  2
STANDARD
 70
     0
 40
0.0
 41
1.0
 50
0.0
 71
     0
 42
0.0
  3
monotxt
  4
extfont
  0
STYLE
  5
23
100
AcDbSymbolTableRecord
100
AcDbTextStyleTableRecord
  2
EXCADSTD
 70
    64
 40
0.0
 41
1.0
 50
0.0
 71
     0
 42
0.2
  3
monotxt
  4
extfont
  0
STYLE
  5
24
100
AcDbSymbolTableRecord
100
AcDbTextStyleTableRecord
  2
EXCADVERT
 70
    68
 40
0.0
 41
1.0
 50
0.0
 71
     0
 42
0.286885
  3
monotxt
  4
extfont
  0
ENDTAB
  0
TABLE
  2
VIEW
  5
5
100
AcDbSymbolTable
 70
     0
  0
ENDTAB
  0
TABLE
  2
UCS
  5
6
100
AcDbSymbolTable
 70
     0
  0
ENDTAB
  0
TABLE
  2
APPID
  5
8
100
AcDbSymbolTable
 70
     1
  0
APPID
  5
16
100
AcDbSymbolTableRecord
100
AcDbRegAppTableRecord
  2
ACAD
 70
     0
  0
ENDTAB
  0
TABLE
  2
DIMSTYLE
  5
9
100
AcDbSymbolTable
 70
     1
  0
DIMSTYLE
105
18
100
AcDbSymbolTableRecord
100
AcDbDimStyleTableRecord
  2
STANDARD
 70
     0
  3

  4

  5

  6

  7

 40
1.0
 41
0.18
 42
0.0625
 43
0.38
 44
0.18
 45
0.0
 46
0.0
 47
0.0
 48
0.0
 71
     0
 72
     0
 73
     1
 74
     1
 75
     0
 76
     0
 77
     0
 78
     0
140
0.18
141
0.09
142
0.0
143
25.4
144
1.0
145
0.0
146
1.0
147
0.09
170
     0
171
     2
172
     1
173
     0
174
     0
175
     0
176
     0
177
     0
178
     0
270
     2
271
     4
272
     4
273
     2
274
     2
275
     0
280
     0
281
     0
282
     0
283
     1
284
     0
285
     0
286
     0
287
     3
288
     0
340
17
  0
ENDTAB
  0
TABLE
  2
BLOCK_RECORD
  5
1
100
AcDbSymbolTable
 70
    15
  0
BLOCK_RECORD
  5
A
100
AcDbSymbolTableRecord
100
AcDbBlockTableRecord
  2
*MODEL_SPACE
  0
BLOCK_RECORD
  5
B
100
AcDbSymbolTableRecord
100
AcDbBlockTableRecord
  2
*PAPER_SPACE
  0
BLOCK_RECORD
  5
28
100
AcDbSymbolTableRecord
100
AcDbBlockTableRecord
  2
_EX_NORM
  0
BLOCK_RECORD
  5
29
100
AcDbSymbolTableRecord
100
AcDbBlockTableRecord
  2
_EX_BNORM
  0
BLOCK_RECORD
  5
2A
100
AcDbSymbolTableRecord
100
AcDbBlockTableRecord
  2
_EX_BCIR
  0
BLOCK_RECORD
  5
2B
100
AcDbSymbolTableRecord
100
AcDbBlockTableRecord
  2
_EX_RCIVIL
  0
BLOCK_RECORD
  5
2C
100
AcDbSymbolTableRecord
100
AcDbBlockTableRecord
  2
_EX_SLANT
  0
BLOCK_RECORD
  5
2D
100
AcDbSymbolTableRecord
100
AcDbBlockTableRecord
  2
_EX_NONE
  0
BLOCK_RECORD
  5
2E
100
AcDbSymbolTableRecord
100
AcDbBlockTableRecord
  2
_EX_CIVIL
  0
BLOCK_RECORD
  5
2F
100
AcDbSymbolTableRecord
100
AcDbBlockTableRecord
  2
_EX_WCIR
  0
BLOCK_RECORD
  5
30
100
AcDbSymbolTableRecord
100
AcDbBlockTableRecord
  2
_EX_WCIR2
  0
BLOCK_RECORD
  5
31
100
AcDbSymbolTableRecord
100
AcDbBlockTableRecord
  2
_EX_WNORM
  0
BLOCK_RECORD
  5
32
100
AcDbSymbolTableRecord
100
AcDbBlockTableRecord
  2
_EX_NNORM
  0
BLOCK_RECORD
  5
33
100
AcDbSymbolTableRecord
100
AcDbBlockTableRecord
  2
_EX_BBOX
  0
BLOCK_RECORD
  5
34
100
AcDbSymbolTableRecord
100
AcDbBlockTableRecord
  2
_EX_WBOX
  0
BLOCK_RECORD
  5
35
100
AcDbSymbolTableRecord
100
AcDbBlockTableRecord
  2
_EX_INTEGRAL
  0
BLOCK_RECORD
  5
36
100
AcDbSymbolTableRecord
100
AcDbBlockTableRecord
  2
SYM-1
  0
ENDTAB
  0
ENDSEC
  0
SECTION
  2
BLOCKS
  0
BLOCK
  5
D
100
AcDbEntity
  8
0
100
AcDbBlockBegin
  2
*MODEL_SPACE
 70
     0
 10
0.0
 20
0.0
 30
0.0
  3
*MODEL_SPACE
  1

  0
ENDBLK
  5
E
100
AcDbEntity
  8
0
100
AcDbBlockEnd
  0
BLOCK
  5
F
100
AcDbEntity
 67
     1
  8
0
100
AcDbBlockBegin
  2
*PAPER_SPACE
 70
     0
 10
0.0
 20
0.0
 30
0.0
  3
*PAPER_SPACE
  1

  0
ENDBLK
  5
10
100
AcDbEntity
 67
     1
  8
0
100
AcDbBlockEnd
  0
BLOCK
  5
37
100
AcDbEntity
  8
0
100
AcDbBlockBegin
  2
_EX_NORM
 70
     0
 10
0.0
 20
0.0
 30
0.0
  3
_EX_NORM
  1

  0
LINE
  5
38
100
AcDbEntity
  8
0
  6
CONTINUOUS
 62
     0
100
AcDbLine
 10
0.0
 20
0.0
 30
0.0
 11
-1.0
 21
0.0
 31
0.0
  0
LINE
  5
39
100
AcDbEntity
  8
0
  6
CONTINUOUS
 62
     0
100
AcDbLine
 10
0.0
 20
0.0
 30
0.0
 11
-1.0
 21
0.166667
 31
0.0
  0
LINE
  5
3A
100
AcDbEntity
  8
0
  6
CONTINUOUS
 62
     0
100
AcDbLine
 10
0.0
 20
0.0
 30
0.0
 11
-1.0
 21
-0.166667
 31
0.0
  0
ENDBLK
  5
3B
100
AcDbEntity
  8
0
100
AcDbBlockEnd
  0
BLOCK
  5
3C
100
AcDbEntity
  8
0
100
AcDbBlockBegin
  2
_EX_BNORM
 70
     0
 10
0.0
 20
0.0
 30
0.0
  3
_EX_BNORM
  1

  0
LINE
  5
3D
100
AcDbEntity
  8
0
  6
CONTINUOUS
 62
     0
100
AcDbLine
 10
0.0
 20
0.0
 30
0.0
 11
-1.0
 21
0.0
 31
0.0
  0
LINE
  5
3E
100
AcDbEntity
  8
0
  6
CONTINUOUS
 62
     0
100
AcDbLine
 10
0.0
 20
0.0
 30
0.0
 11
-1.0
 21
0.166667
 31
0.0
  0
LINE
  5
3F
100
AcDbEntity
  8
0
  6
CONTINUOUS
 62
     0
100
AcDbLine
 10
0.0
 20
0.0
 30
0.0
 11
-1.0
 21
-0.166667
 31
0.0
  0
LINE
  5
40
100
AcDbEntity
  8
0
  6
CONTINUOUS
 62
     0
100
AcDbLine
 10
0.0
 20
0.0
 30
0.0
 11
-1.0
 21
0.083333
 31
0.0
  0
LINE
  5
41
100
AcDbEntity
  8
0
  6
CONTINUOUS
 62
     0
100
AcDbLine
 10
0.0
 20
0.0
 30
0.0
 11
-1.0
 21
-0.083333
 31
0.0
  0
LINE
  5
42
100
AcDbEntity
  8
0
  6
CONTINUOUS
 62
     0
100
AcDbLine
 10
-1.0
 20
0.166667
 30
0.0
 11
-1.0
 21
-0.166667
 31
0.0
  0
ENDBLK
  5
43
100
AcDbEntity
  8
0
100
AcDbBlockEnd
  0
BLOCK
  5
44
100
AcDbEntity
  8
0
100
AcDbBlockBegin
  2
_EX_BCIR
 70
     0
 10
0.0
 20
0.0
 30
0.0
  3
_EX_BCIR
  1

  0
LINE
  5
45
100
AcDbEntity
  8
0
  6
CONTINUOUS
 62
     0
100
AcDbLine
 10
0.0
 20
0.0
 30
0.0
 11
-1.0
 21
0.0
 31
0.0
  0
CIRCLE
  5
46
100
AcDbEntity
  8
0
  6
CONTINUOUS
 62
     0
100
AcDbCircle
 10
0.0
 20
0.0
 30
0.0
 40
0.5
  0
CIRCLE
  5
47
100
AcDbEntity
  8
0
  6
CONTINUOUS
 62
     0
100
AcDbCircle
 10
0.0
 20
0.0
 30
0.0
 40
0.25
  0
ENDBLK
  5
48
100
AcDbEntity
  8
0
100
AcDbBlockEnd
  0
BLOCK
  5
49
100
AcDbEntity
  8
0
100
AcDbBlockBegin
  2
_EX_RCIVIL
 70
     0
 10
0.0
 20
0.0
 30
0.0
  3
_EX_RCIVIL
  1

  0
LINE
  5
4A
100
AcDbEntity
  8
0
  6
CONTINUOUS
 62
     0
100
AcDbLine
 10
0.0
 20
0.0
 30
0.0
 11
-1.0
 21
0.0
 31
0.0
  0
LINE
  5
4B
100
AcDbEntity
  8
0
  6
CONTINUOUS
 62
     0
100
AcDbLine
 10
-1.0
 20
-0.25
 30
0.0
 11
0.0
 21
-0.25
 31
0.0
  0
LINE
  5
4C
100
AcDbEntity
  8
0
  6
CONTINUOUS
 62
     0
100
AcDbLine
 10
-1.0
 20
-0.125
 30
0.0
 11
0.0
 21
-0.125
 31
0.0
  0
ENDBLK
  5
4D
100
AcDbEntity
  8
0
100
AcDbBlockEnd
  0
BLOCK
  5
4E
100
AcDbEntity
  8
0
100
AcDbBlockBegin
  2
_EX_SLANT
 70
     0
 10
0.0
 20
0.0
 30
0.0
  3
_EX_SLANT
  1

  0
LINE
  5
4F
100
AcDbEntity
  8
0
  6
CONTINUOUS
 62
     0
100
AcDbLine
 10
0.0
 20
0.0
 30
0.0
 11
-1.0
 21
0.0
 31
0.0
  0
LINE
  5
50
100
AcDbEntity
  8
0
  6
CONTINUOUS
 62
     0
100
AcDbLine
 10
0.707107
 20
0.707107
 30
0.0
 11
-0.707107
 21
-0.707107
 31
0.0
  0
ENDBLK
  5
51
100
AcDbEntity
  8
0
100
AcDbBlockEnd
  0
BLOCK
  5
52
100
AcDbEntity
  8
0
100
AcDbBlockBegin
  2
_EX_NONE
 70
     0
 10
0.0
 20
0.0
 30
0.0
  3
_EX_NONE
  1

  0
LINE
  5
53
100
AcDbEntity
  8
0
  6
CONTINUOUS
 62
     0
100
AcDbLine
 10
0.0
 20
0.0
 30
0.0
 11
-1.0
 21
0.0
 31
0.0
  0
ENDBLK
  5
54
100
AcDbEntity
  8
0
100
AcDbBlockEnd
  0
BLOCK
  5
55
100
AcDbEntity
  8
0
100
AcDbBlockBegin
  2
_EX_CIVIL
 70
     0
 10
0.0
 20
0.0
 30
0.0
  3
_EX_CIVIL
  1

  0
LINE
  5
56
100
AcDbEntity
  8
0
  6
CONTINUOUS
 62
     0
100
AcDbLine
 10
0.0
 20
0.0
 30
0.0
 11
-1.0
 21
0.0
 31
0.0
  0
LINE
  5
57
100
AcDbEntity
  8
0
  6
CONTINUOUS
 62
     0
100
AcDbLine
 10
-1.0
 20
0.25
 30
0.0
 11
0.0
 21
0.25
 31
0.0
  0
LINE
  5
58
100
AcDbEntity
  8
0
  6
CONTINUOUS
 62
     0
100
AcDbLine
 10
-1.0
 20
0.125
 30
0.0
 11
0.0
 21
0.125
 31
0.0
  0
ENDBLK
  5
59
100
AcDbEntity
  8
0
100
AcDbBlockEnd
  0
BLOCK
  5
5A
100
AcDbEntity
  8
0
100
AcDbBlockBegin
  2
_EX_WCIR
 70
     0
 10
0.0
 20
0.0
 30
0.0
  3
_EX_WCIR
  1

  0
LINE
  5
5B
100
AcDbEntity
  8
0
  6
CONTINUOUS
 62
     0
100
AcDbLine
 10
0.0
 20
0.0
 30
0.0
 11
-1.0
 21
0.0
 31
0.0
  0
CIRCLE
  5
5C
100
AcDbEntity
  8
0
  6
CONTINUOUS
 62
     0
100
AcDbCircle
 10
0.0
 20
0.0
 30
0.0
 40
0.5
  0
ENDBLK
  5
5D
100
AcDbEntity
  8
0
100
AcDbBlockEnd
  0
BLOCK
  5
5E
100
AcDbEntity
  8
0
100
AcDbBlockBegin
  2
_EX_WCIR2
 70
     0
 10
0.0
 20
0.0
 30
0.0
  3
_EX_WCIR2
  1

  0
LINE
  5
5F
100
AcDbEntity
  8
0
  6
CONTINUOUS
 62
     0
100
AcDbLine
 10
-0.5
 20
0.0
 30
0.0
 11
-1.0
 21
0.0
 31
0.0
  0
CIRCLE
  5
60
100
AcDbEntity
  8
0
  6
CONTINUOUS
 62
     0
100
AcDbCircle
 10
0.0
 20
0.0
 30
0.0
 40
0.5
  0
ENDBLK
  5
61
100
AcDbEntity
  8
0
100
AcDbBlockEnd
  0
BLOCK
  5
62
100
AcDbEntity
  8
0
100
AcDbBlockBegin
  2
_EX_WNORM
 70
     0
 10
0.0
 20
0.0
 30
0.0
  3
_EX_WNORM
  1

  0
LINE
  5
63
100
AcDbEntity
  8
0
  6
CONTINUOUS
 62
     0
100
AcDbLine
 10
-1.0
 20
0.0
 30
0.0
 11
-1.0
 21
0.0
 31
0.0
  0
LINE
  5
64
100
AcDbEntity
  8
0
  6
CONTINUOUS
 62
     0
100
AcDbLine
 10
0.0
 20
0.0
 30
0.0
 11
-1.0
 21
0.166667
 31
0.0
  0
LINE
  5
65
100
AcDbEntity
  8
0
  6
CONTINUOUS
 62
     0
100
AcDbLine
 10
0.0
 20
0.0
 30
0.0
 11
-1.0
 21
-0.166667
 31
0.0
  0
LINE
  5
66
100
AcDbEntity
  8
0
  6
CONTINUOUS
 62
     0
100
AcDbLine
 10
-1.0
 20
0.166667
 30
0.0
 11
-1.0
 21
-0.166667
 31
0.0
  0
ENDBLK
  5
67
100
AcDbEntity
  8
0
100
AcDbBlockEnd
  0
BLOCK
  5
68
100
AcDbEntity
  8
0
100
AcDbBlockBegin
  2
_EX_NNORM
 70
     0
 10
0.0
 20
0.0
 30
0.0
  3
_EX_NNORM
  1

  0
LINE
  5
69
100
AcDbEntity
  8
0
  6
CONTINUOUS
 62
     0
100
AcDbLine
 10
0.0
 20
0.0
 30
0.0
 11
-1.0
 21
0.0
 31
0.0
  0
LINE
  5
6A
100
AcDbEntity
  8
0
  6
CONTINUOUS
 62
     0
100
AcDbLine
 10
0.0
 20
0.0
 30
0.0
 11
-1.0
 21
0.166667
 31
0.0
  0
LINE
  5
6B
100
AcDbEntity
  8
0
  6
CONTINUOUS
 62
     0
100
AcDbLine
 10
0.0
 20
0.0
 30
0.0
 11
-1.0
 21
-0.166667
 31
0.0
  0
LINE
  5
6C
100
AcDbEntity
  8
0
  6
CONTINUOUS
 62
     0
100
AcDbLine
 10
-1.0
 20
0.166667
 30
0.0
 11
-1.0
 21
-0.166667
 31
0.0
  0
ENDBLK
  5
6D
100
AcDbEntity
  8
0
100
AcDbBlockEnd
  0
BLOCK
  5
6E
100
AcDbEntity
  8
0
100
AcDbBlockBegin
  2
_EX_BBOX
 70
     0
 10
0.0
 20
0.0
 30
0.0
  3
_EX_BBOX
  1

  0
LINE
  5
6F
100
AcDbEntity
  8
0
  6
CONTINUOUS
 62
     0
100
AcDbLine
 10
0.0
 20
0.0
 30
0.0
 11
-1.0
 21
0.0
 31
0.0
  0
LINE
  5
70
100
AcDbEntity
  8
0
  6
CONTINUOUS
 62
     0
100
AcDbLine
 10
-0.5
 20
0.5
 30
0.0
 11
0.5
 21
0.5
 31
0.0
  0
LINE
  5
71
100
AcDbEntity
  8
0
  6
CONTINUOUS
 62
     0
100
AcDbLine
 10
0.5
 20
0.5
 30
0.0
 11
0.5
 21
-0.5
 31
0.0
  0
LINE
  5
72
100
AcDbEntity
  8
0
  6
CONTINUOUS
 62
     0
100
AcDbLine
 10
0.5
 20
-0.5
 30
0.0
 11
-0.5
 21
-0.5
 31
0.0
  0
LINE
  5
73
100
AcDbEntity
  8
0
  6
CONTINUOUS
 62
     0
100
AcDbLine
 10
-0.5
 20
-0.5
 30
0.0
 11
-0.5
 21
0.5
 31
0.0
  0
LINE
  5
74
100
AcDbEntity
  8
0
  6
CONTINUOUS
 62
     0
100
AcDbLine
 10
-0.25
 20
0.25
 30
0.0
 11
0.25
 21
0.25
 31
0.0
  0
LINE
  5
75
100
AcDbEntity
  8
0
  6
CONTINUOUS
 62
     0
100
AcDbLine
 10
0.25
 20
0.25
 30
0.0
 11
0.25
 21
-0.25
 31
0.0
  0
LINE
  5
76
100
AcDbEntity
  8
0
  6
CONTINUOUS
 62
     0
100
AcDbLine
 10
0.25
 20
-0.25
 30
0.0
 11
-0.25
 21
-0.25
 31
0.0
  0
LINE
  5
77
100
AcDbEntity
  8
0
  6
CONTINUOUS
 62
     0
100
AcDbLine
 10
-0.25
 20
-0.25
 30
0.0
 11
-0.25
 21
0.25
 31
0.0
  0
ENDBLK
  5
78
100
AcDbEntity
  8
0
100
AcDbBlockEnd
  0
BLOCK
  5
79
100
AcDbEntity
  8
0
100
AcDbBlockBegin
  2
_EX_WBOX
 70
     0
 10
0.0
 20
0.0
 30
0.0
  3
_EX_WBOX
  1

  0
LINE
  5
7A
100
AcDbEntity
  8
0
  6
CONTINUOUS
 62
     0
100
AcDbLine
 10
-0.5
 20
0.0
 30
0.0
 11
-1.0
 21
0.0
 31
0.0
  0
LINE
  5
7B
100
AcDbEntity
  8
0
  6
CONTINUOUS
 62
     0
100
AcDbLine
 10
-0.5
 20
0.5
 30
0.0
 11
0.5
 21
0.5
 31
0.0
  0
LINE
  5
7C
100
AcDbEntity
  8
0
  6
CONTINUOUS
 62
     0
100
AcDbLine
 10
0.5
 20
0.5
 30
0.0
 11
0.5
 21
-0.5
 31
0.0
  0
LINE
  5
7D
100
AcDbEntity
  8
0
  6
CONTINUOUS
 62
     0
100
AcDbLine
 10
0.5
 20
-0.5
 30
0.0
 11
-0.5
 21
-0.5
 31
0.0
  0
LINE
  5
7E
100
AcDbEntity
  8
0
  6
CONTINUOUS
 62
     0
100
AcDbLine
 10
-0.5
 20
-0.5
 30
0.0
 11
-0.5
 21
0.5
 31
0.0
  0
ENDBLK
  5
7F
100
AcDbEntity
  8
0
100
AcDbBlockEnd
  0
BLOCK
  5
80
100
AcDbEntity
  8
0
100
AcDbBlockBegin
  2
_EX_INTEGRAL
 70
     0
 10
0.0
 20
0.0
 30
0.0
  3
_EX_INTEGRAL
  1

  0
LINE
  5
81
100
AcDbEntity
  8
0
  6
CONTINUOUS
 62
     0
100
AcDbLine
 10
0.0
 20
0.0
 30
0.0
 11
-1.0
 21
0.0
 31
0.0
  0
ARC
  5
82
100
AcDbEntity
  8
0
  6
CONTINUOUS
 62
     0
100
AcDbCircle
 10
0.542115
 20
0.164992
 30
0.0
 40
0.56667
100
AcDbArc
 50
73.07249
 51
196.927513
  0
ARC
  5
83
100
AcDbEntity
  8
0
  6
CONTINUOUS
 62
     0
100
AcDbCircle
 10
-0.542115
 20
-0.164992
 30
0.0
 40
0.56667
100
AcDbArc
 50
253.072487
 51
16.927513
  0
ENDBLK
  5
84
100
AcDbEntity
  8
0
100
AcDbBlockEnd
  0
BLOCK
  5
85
100
AcDbEntity
  8
0
100
AcDbBlockBegin
  2
SYM-1
 70
     0
 10
0.0
 20
0.0
 30
0.0
  3
SYM-1
  1

  0
LINE
  5
86
100
AcDbEntity
  8
0
  6
CONTINUOUS
 62
     1
100
AcDbLine
 10
-0.925
 20
-8.775
 30
0.0
 11
3.775
 21
-8.775
 31
0.0
  0
LINE
  5
87
100
AcDbEntity
  8
0
  6
CONTINUOUS
 62
     1
100
AcDbLine
 10
3.775
 20
-8.775
 30
0.0
 11
2.95
 21
-8.05
 31
0.0
  0
LINE
  5
88
100
AcDbEntity
  8
0
  6
CONTINUOUS
 62
     1
100
AcDbLine
 10
2.95
 20
0.0
 30
0.0
 11
5.711955
 21
0.0
 31
0.0
  0
LINE
  5
89
100
AcDbEntity
  8
0
  6
CONTINUOUS
 62
     1
100
AcDbLine
 10
5.711955
 20
0.0
 30
0.0
 11
6.770448
 21
-0.611122
 31
0.0
  0
LINE
  5
8A
100
AcDbEntity
  8
0
  6
CONTINUOUS
 62
     1
100
AcDbLine
 10
6.770448
 20
-0.611122
 30
0.0
 11
4.7
 21
2.975
 31
0.0
  0
LINE
  5
8B
100
AcDbEntity
  8
0
  6
CONTINUOUS
 62
     1
100
AcDbLine
 10
4.7
 20
2.975
 30
0.0
 11
4.1
 21
2.375
 31
0.0
  0
LINE
  5
8C
100
AcDbEntity
  8
0
  6
CONTINUOUS
 62
     1
100
AcDbLine
 10
4.1
 20
2.375
 30
0.0
 11
-1.2
 21
2.375
 31
0.0
  0
LINE
  5
8D
100
AcDbEntity
  8
0
  6
CONTINUOUS
 62
     1
100
AcDbLine
 10
-1.2
 20
2.375
 30
0.0
 11
-1.2
 21
7.618706
 31
0.0
  0
LINE
  5
8E
100
AcDbEntity
  8
0
  6
CONTINUOUS
 62
     1
100
AcDbLine
 10
-4.1
 20
2.375
 30
0.0
 11
-4.7
 21
2.975
 31
0.0
  0
LINE
  5
8F
100
AcDbEntity
  8
0
  6
CONTINUOUS
 62
     1
100
AcDbLine
 10
-4.7
 20
2.975
 30
0.0
 11
-6.770448
 21
-0.611122
 31
0.0
  0
LINE
  5
90
100
AcDbEntity
  8
0
  6
CONTINUOUS
 62
     1
100
AcDbLine
 10
-6.770448
 20
-0.611122
 30
0.0
 11
-5.711955
 21
0.0
 31
0.0
  0
LINE
  5
91
100
AcDbEntity
  8
0
  6
CONTINUOUS
 62
     1
100
AcDbLine
 10
-5.711955
 20
0.0
 30
0.0
 11
-3.8
 21
0.0
 31
0.0
  0
LINE
  5
92
100
AcDbEntity
  8
0
  6
CONTINUOUS
 62
     1
100
AcDbLine
 10
-3.8
 20
0.0
 30
0.0
 11
-3.8
 21
-3.125
 31
0.0
  0
LINE
  5
93
100
AcDbEntity
  8
0
  6
CONTINUOUS
 62
     1
100
AcDbLine
 10
-3.8
 20
-3.125
 30
0.0
 11
-4.85
 21
-3.65
 31
0.0
  0
LINE
  5
94
100
AcDbEntity
  8
0
  6
CONTINUOUS
 62
     1
100
AcDbLine
 10
-4.85
 20
-3.65
 30
0.0
 11
0.0
 21
-3.65
 31
0.0
  0
LINE
  5
95
100
AcDbEntity
  8
0
  6
CONTINUOUS
 62
     1
100
AcDbLine
 10
0.0
 20
-3.65
 30
0.0
 11
-1.2
 21
-3.125
 31
0.0
  0
LINE
  5
96
100
AcDbEntity
  8
0
  6
CONTINUOUS
 62
     1
100
AcDbLine
 10
-1.2
 20
-3.125
 30
0.0
 11
-1.2
 21
0.0
 31
0.0
  0
LINE
  5
97
100
AcDbEntity
  8
0
  6
CONTINUOUS
 62
     1
100
AcDbLine
 10
-1.2
 20
0.0
 30
0.0
 11
0.0
 21
0.0
 31
0.0
  0
ELLIPSE
  5
98
100
AcDbEntity
  8
0
  6
CONTINUOUS
 62
     1
100
AcDbEllipse
 10
0.0
 20
0.0
 30
0.0
 11
-0.2271076736246198
 21
7.7216609032371322
 31
0.0
210
0.0
220
0.0
230
1.0
 40
0.912621
 41
0.5369857443297313
 42
3.1093760194933928
  0
ARC
  5
99
100
AcDbEntity
  8
0
  6
CONTINUOUS
 62
     1
100
AcDbCircle
 10
0.0
 20
0.0
 30
0.0
 40
7.997695
100
AcDbArc
 50
118.368264
 51
270.0
  0
LINE
  5
9A
100
AcDbEntity
  8
0
  6
CONTINUOUS
 62
     1
100
AcDbLine
 10
-6.156163
 20
5.105368
 30
0.0
 11
-5.105368
 21
6.156163
 31
0.0
  0
LINE
  5
9B
100
AcDbEntity
  8
0
  6
CONTINUOUS
 62
     1
100
AcDbLine
 10
-7.037267
 20
3.8
 30
0.0
 11
-3.8
 21
7.037267
 31
0.0
  0
LINE
  5
9C
100
AcDbEntity
  8
0
  6
CONTINUOUS
 62
     1
100
AcDbLine
 10
-7.414194
 20
2.998809
 30
0.0
 11
-5.348454
 21
5.064549
 31
0.0
  0
LINE
  5
9D
100
AcDbEntity
  8
0
  6
CONTINUOUS
 62
     1
100
AcDbLine
 10
-4.121782
 20
6.291221
 30
0.0
 11
-3.8
 21
6.613003
 31
0.0
  0
LINE
  5
9E
100
AcDbEntity
  8
0
  6
CONTINUOUS
 62
     1
100
AcDbLine
 10
-7.647262
 20
2.341477
 30
0.0
 11
-6.123111
 21
3.865628
 31
0.0
  0
LINE
  5
9F
100
AcDbEntity
  8
0
  6
CONTINUOUS
 62
     1
100
AcDbLine
 10
-7.800808
 20
1.763667
 30
0.0
 11
-6.478615
 21
3.08586
 31
0.0
  0
LINE
  5
A0
100
AcDbEntity
  8
0
  6
CONTINUOUS
 62
     1
100
AcDbLine
 10
-7.901126
 20
1.239084
 30
0.0
 11
-6.702051
 21
2.43816
 31
0.0
  0
LINE
  5
A1
100
AcDbEntity
  8
0
  6
CONTINUOUS
 62
     1
100
AcDbLine
 10
-7.962086
 20
0.75386
 30
0.0
 11
-6.851122
 21
1.864824
 31
0.0
  0
LINE
  5
A2
100
AcDbEntity
  8
0
  6
CONTINUOUS
 62
     1
100
AcDbLine
 10
-7.992081
 20
0.299601
 30
0.0
 11
-6.949917
 21
1.341765
 31
0.0
  0
LINE
  5
A3
100
AcDbEntity
  8
0
  6
CONTINUOUS
 62
     1
100
AcDbLine
 10
-7.996651
 20
-0.129232
 30
0.0
 11
-7.011274
 21
0.856144
 31
0.0
  0
LINE
  5
A4
100
AcDbEntity
  8
0
  6
CONTINUOUS
 62
     1
100
AcDbLine
 10
-7.979678
 20
-0.536524
 30
0.0
 11
-7.043008
 21
0.400146
 31
0.0
  0
LINE
  5
A5
100
AcDbEntity
  8
0
  6
CONTINUOUS
 62
     1
100
AcDbLine
 10
-7.944009
 20
-0.925119
 30
0.0
 11
-7.050297
 21
-0.031406
 31
0.0
  0
LINE
  5
A6
100
AcDbEntity
  8
0
  6
CONTINUOUS
 62
     1
100
AcDbLine
 10
-7.891798
 20
-1.297172
 30
0.0
 11
-7.036778
 21
-0.442151
 31
0.0
  0
LINE
  5
A7
100
AcDbEntity
  8
0
  6
CONTINUOUS
 62
     1
100
AcDbLine
 10
-7.824719
 20
-1.654357
 30
0.0
 11
-7.005119
 21
-0.834757
 31
0.0
  0
LINE
  5
A8
100
AcDbEntity
  8
0
  6
CONTINUOUS
 62
     1
100
AcDbLine
 10
-7.744101
 20
-1.998003
 30
0.0
 11
-6.95734
 21
-1.211242
 31
0.0
  0
LINE
  5
A9
100
AcDbEntity
  8
0
  6
CONTINUOUS
 62
     1
100
AcDbLine
 10
-7.651016
 20
-2.329182
 30
0.0
 11
-6.895012
 21
-1.573178
 31
0.0
  0
LINE
  5
AA
100
AcDbEntity
  8
0
  6
CONTINUOUS
 62
     1
100
AcDbLine
 10
-7.546335
 20
-2.648765
 30
0.0
 11
-6.819374
 21
-1.921804
 31
0.0
  0
LINE
  5
AB
100
AcDbEntity
  8
0
  6
CONTINUOUS
 62
     1
100
AcDbLine
 10
-7.430779
 20
-2.957473
 30
0.0
 11
-6.731425
 21
-2.258119
 31
0.0
  0
LINE
  5
AC
100
AcDbEntity
  8
0
  6
CONTINUOUS
 62
     1
100
AcDbLine
 10
-7.304945
 20
-3.255903
 30
0.0
 11
-6.631973
 21
-2.582931
 31
0.0
  0
LINE
  5
AD
100
AcDbEntity
  8
0
  6
CONTINUOUS
 62
     1
100
AcDbLine
 10
-7.169329
 20
-3.544551
 30
0.0
 11
-6.52168
 21
-2.896903
 31
0.0
  0
LINE
  5
AE
100
AcDbEntity
  8
0
  6
CONTINUOUS
 62
     1
100
AcDbLine
 10
-7.024346
 20
-3.823832
 30
0.0
 11
-6.401091
 21
-3.200577
 31
0.0
  0
LINE
  5
AF
100
AcDbEntity
  8
0
  6
CONTINUOUS
 62
     1
100
AcDbLine
 10
-6.870339
 20
-4.094089
 30
0.0
 11
-6.27065
 21
-3.494401
 31
0.0
  0
LINE
  5
B0
100
AcDbEntity
  8
0
  6
CONTINUOUS
 62
     1
100
AcDbLine
 10
-6.707593
 20
-4.355608
 30
0.0
 11
-6.130724
 21
-3.778738
 31
0.0
  0
LINE
  5
B1
100
AcDbEntity
  8
0
  6
CONTINUOUS
 62
     1
100
AcDbLine
 10
-6.536341
 20
-4.608619
 30
0.0
 11
-5.981607
 21
-4.053885
 31
0.0
  0
LINE
  5
B2
100
AcDbEntity
  8
0
  6
CONTINUOUS
 62
     1
100
AcDbLine
 10
-6.356768
 20
-4.853311
 30
0.0
 11
-5.823534
 21
-4.320076
 31
0.0
  0
LINE
  5
B3
100
AcDbEntity
  8
0
  6
CONTINUOUS
 62
     1
100
AcDbLine
 10
-6.169019
 20
-5.089826
 30
0.0
 11
-5.656687
 21
-4.577493
 31
0.0
  0
LINE
  5
B4
100
AcDbEntity
  8
0
  6
CONTINUOUS
 62
     1
100
AcDbLine
 10
-5.9732
 20
-5.318271
 30
0.0
 11
-5.481198
 21
-4.826269
 31
0.0
  0
LINE
  5
B5
100
AcDbEntity
  8
0
  6
CONTINUOUS
 62
     1
100
AcDbLine
 10
-5.769381
 20
-5.538716
 30
0.0
 11
-5.297154
 21
-5.066489
 31
0.0
  0
LINE
  5
B6
100
AcDbEntity
  8
0
  6
CONTINUOUS
 62
     1
100
AcDbLine
 10
-5.557596
 20
-5.751195
 30
0.0
 11
-5.104599
 21
-5.298198
 31
0.0
  0
LINE
  5
B7
100
AcDbEntity
  8
0
  6
CONTINUOUS
 62
     1
100
AcDbLine
 10
-5.337848
 20
-5.955711
 30
0.0
 11
-4.903535
 21
-5.521398
 31
0.0
  0
LINE
  5
B8
100
AcDbEntity
  8
0
  6
CONTINUOUS
 62
     1
100
AcDbLine
 10
-5.110105
 20
-6.152232
 30
0.0
 11
-4.693922
 21
-5.736049
 31
0.0
  0
LINE
  5
B9
100
AcDbEntity
  8
0
  6
CONTINUOUS
 62
     1
100
AcDbLine
 10
-4.874298
 20
-6.340689
 30
0.0
 11
-4.475677
 21
-5.942068
 31
0.0
  0
LINE
  5
BA
100
AcDbEntity
  8
0
  6
CONTINUOUS
 62
     1
100
AcDbLine
 10
-4.630326
 20
-6.520982
 30
0.0
 11
-4.24867
 21
-6.139326
 31
0.0
  0
LINE
  5
BB
100
AcDbEntity
  8
0
  6
CONTINUOUS
 62
     1
100
AcDbLine
 10
-4.378048
 20
-6.692968
 30
0.0
 11
-4.012726
 21
-6.327646
 31
0.0
  0
LINE
  5
BC
100
AcDbEntity
  8
0
  6
CONTINUOUS
 62
     1
100
AcDbLine
 10
-4.117282
 20
-6.856465
 30
0.0
 11
-3.767614
 21
-6.506798
 31
0.0
  0
LINE
  5
BD
100
AcDbEntity
  8
0
  6
CONTINUOUS
 62
     1
100
AcDbLine
 10
-3.847799
 20
-7.011246
 30
0.0
 11
-3.513045
 21
-6.676492
 31
0.0
  0
LINE
  5
BE
100
AcDbEntity
  8
0
  6
CONTINUOUS
 62
     1
100
AcDbLine
 10
-3.569319
 20
-7.157031
 30
0.0
 11
-3.248659
 21
-6.836371
 31
0.0
  0
LINE
  5
BF
100
AcDbEntity
  8
0
  6
CONTINUOUS
 62
     1
100
AcDbLine
 10
-3.281505
 20
-7.29348
 30
0.0
 11
-2.974019
 21
-6.985995
 31
0.0
  0
LINE
  5
C0
100
AcDbEntity
  8
0
  6
CONTINUOUS
 62
     1
100
AcDbLine
 10
-2.983948
 20
-7.420187
 30
0.0
 11
-2.68859
 21
-7.12483
 31
0.0
  0
LINE
  5
C1
100
AcDbEntity
  8
0
  6
CONTINUOUS
 62
     1
100
AcDbLine
 10
-2.67616
 20
-7.536663
 30
0.0
 11
-2.391722
 21
-7.252226
 31
0.0
  0
LINE
  5
C2
100
AcDbEntity
  8
0
  6
CONTINUOUS
 62
     1
100
AcDbLine
 10
-2.357553
 20
-7.642321
 30
0.0
 11
-2.08262
 21
-7.367388
 31
0.0
  0
LINE
  5
C3
100
AcDbEntity
  8
0
  6
CONTINUOUS
 62
     1
100
AcDbLine
 10
-2.02742
 20
-7.736452
 30
0.0
 11
-1.760305
 21
-7.469336
 31
0.0
  0
LINE
  5
C4
100
AcDbEntity
  8
0
  6
CONTINUOUS
 62
     1
100
AcDbLine
 10
-1.684903
 20
-7.818199
 30
0.0
 11
-1.423559
 21
-7.556855
 31
0.0
  0
LINE
  5
C5
100
AcDbEntity
  8
0
  6
CONTINUOUS
 62
     1
100
AcDbLine
 10
-1.328949
 20
-7.886509
 30
0.0
 11
-1.070847
 21
-7.628407
 31
0.0
  0
LINE
  5
C6
100
AcDbEntity
  8
0
  6
CONTINUOUS
 62
     1
100
AcDbLine
 10
-0.958256
 20
-7.94008
 30
0.0
 11
-0.700194
 21
-7.682018
 31
0.0
  0
LINE
  5
C7
100
AcDbEntity
  8
0
  6
CONTINUOUS
 62
     1
100
AcDbLine
 10
-0.571184
 20
-7.977272
 30
0.0
 11
-0.308999
 21
-7.715087
 31
0.0
  0
LINE
  5
C8
100
AcDbEntity
  8
0
  6
CONTINUOUS
 62
     1
100
AcDbLine
 10
-0.165628
 20
-7.99598
 30
0.0
 11
0.0
 21
-7.830352
 31
0.0
  0
LINE
  5
C9
100
AcDbEntity
  8
0
  6
CONTINUOUS
 62
     1
100
AcDbLine
 10
-4.6
 20
9.575
 30
0.0
 11
-3.8
 21
7.037267
 31
0.0
  0
LINE
  5
CA
100
AcDbEntity
  8
0
  6
CONTINUOUS
 62
     1
100
AcDbLine
 10
0.0
 20
-7.997695
 30
0.0
 11
-0.925
 21
-8.775
 31
0.0
  0
LINE
  5
CB
100
AcDbEntity
  8
0
  6
CONTINUOUS
 62
     1
100
AcDbLine
 10
-3.8
 20
2.375
 30
0.0
 11
-4.1
 21
2.375
 31
0.0
  0
LINE
  5
CC
100
AcDbEntity
  8
0
  6
CONTINUOUS
 62
     1
100
AcDbLine
 10
-4.511824
 20
9.295291
 30
0.0
 11
-4.366479
 21
9.440636
 31
0.0
  0
LINE
  5
CD
100
AcDbEntity
  8
0
  6
CONTINUOUS
 62
     1
100
AcDbLine
 10
-4.410135
 20
8.972716
 30
0.0
 11
-4.09717
 21
9.285681
 31
0.0
  0
LINE
  5
CE
100
AcDbEntity
  8
0
  6
CONTINUOUS
 62
     1
100
AcDbLine
 10
-4.308446
 20
8.650141
 30
0.0
 11
-3.827861
 21
9.130726
 31
0.0
  0
LINE
  5
CF
100
AcDbEntity
  8
0
  6
CONTINUOUS
 62
     1
100
AcDbLine
 10
-4.206757
 20
8.327567
 30
0.0
 11
-3.558552
 21
8.975771
 31
0.0
  0
LINE
  5
D0
100
AcDbEntity
  8
0
  6
CONTINUOUS
 62
     1
100
AcDbLine
 10
-4.105067
 20
8.004992
 30
0.0
 11
-3.289243
 21
8.820816
 31
0.0
  0
LINE
  5
D1
100
AcDbEntity
  8
0
  6
CONTINUOUS
 62
     1
100
AcDbLine
 10
-4.003378
 20
7.682417
 30
0.0
 11
-3.019934
 21
8.665861
 31
0.0
  0
LINE
  5
D2
100
AcDbEntity
  8
0
  6
CONTINUOUS
 62
     1
100
AcDbLine
 10
-3.901689
 20
7.359842
 30
0.0
 11
-2.750625
 21
8.510906
 31
0.0
  0
LINE
  5
D3
100
AcDbEntity
  8
0
  6
CONTINUOUS
 62
     1
100
AcDbLine
 10
-3.8
 20
7.037267
 30
0.0
 11
-2.481316
 21
8.355951
 31
0.0
  0
LINE
  5
D4
100
AcDbEntity
  8
0
  6
CONTINUOUS
 62
     1
100
AcDbLine
 10
-3.8
 20
6.613003
 30
0.0
 11
-2.212007
 21
8.200995
 31
0.0
  0
LINE
  5
D5
100
AcDbEntity
  8
0
  6
CONTINUOUS
 62
     1
100
AcDbLine
 10
-3.8
 20
6.188739
 30
0.0
 11
-1.942698
 21
8.04604
 31
0.0
  0
LINE
  5
D6
100
AcDbEntity
  8
0
  6
CONTINUOUS
 62
     1
100
AcDbLine
 10
-3.8
 20
5.764475
 30
0.0
 11
-1.67339
 21
7.891085
 31
0.0
  0
LINE
  5
D7
100
AcDbEntity
  8
0
  6
CONTINUOUS
 62
     1
100
AcDbLine
 10
-3.8
 20
5.340211
 30
0.0
 11
-1.239084
 21
7.901126
 31
0.0
  0
LINE
  5
D8
100
AcDbEntity
  8
0
  6
CONTINUOUS
 62
     1
100
AcDbLine
 10
-3.8
 20
4.915947
 30
0.0
 11
-1.2
 21
7.515947
 31
0.0
  0
LINE
  5
D9
100
AcDbEntity
  8
0
  6
CONTINUOUS
 62
     1
100
AcDbLine
 10
-3.8
 20
4.491682
 30
0.0
 11
-1.2
 21
7.091682
 31
0.0
  0
LINE
  5
DA
100
AcDbEntity
  8
0
  6
CONTINUOUS
 62
     1
100
AcDbLine
 10
-3.8
 20
4.067418
 30
0.0
 11
-1.2
 21
6.667418
 31
0.0
  0
LINE
  5
DB
100
AcDbEntity
  8
0
  6
CONTINUOUS
 62
     1
100
AcDbLine
 10
-5.016707
 20
2.426447
 30
0.0
 11
-4.584077
 21
2.859077
 31
0.0
  0
LINE
  5
DC
100
AcDbEntity
  8
0
  6
CONTINUOUS
 62
     1
100
AcDbLine
 10
-3.8
 20
3.643154
 30
0.0
 11
-1.2
 21
6.243154
 31
0.0
  0
LINE
  5
DD
100
AcDbEntity
  8
0
  6
CONTINUOUS
 62
     1
100
AcDbLine
 10
-5.596263
 20
1.422628
 30
0.0
 11
-4.371945
 21
2.646945
 31
0.0
  0
LINE
  5
DE
100
AcDbEntity
  8
0
  6
CONTINUOUS
 62
     1
100
AcDbLine
 10
-3.8
 20
3.21889
 30
0.0
 11
-1.2
 21
5.81889
 31
0.0
  0
LINE
  5
DF
100
AcDbEntity
  8
0
  6
CONTINUOUS
 62
     1
100
AcDbLine
 10
-6.175818
 20
0.418808
 30
0.0
 11
-4.159813
 21
2.434813
 31
0.0
  0
LINE
  5
E0
100
AcDbEntity
  8
0
  6
CONTINUOUS
 62
     1
100
AcDbLine
 10
-3.8
 20
2.794626
 30
0.0
 11
-1.2
 21
5.394626
 31
0.0
  0
LINE
  5
E1
100
AcDbEntity
  8
0
  6
CONTINUOUS
 62
     1
100
AcDbLine
 10
-6.755374
 20
-0.585011
 30
0.0
 11
-1.2
 21
4.970362
 31
0.0
  0
LINE
  5
E2
100
AcDbEntity
  8
0
  6
CONTINUOUS
 62
     1
100
AcDbLine
 10
-5.792739
 20
-0.046641
 30
0.0
 11
-1.2
 21
4.546098
 31
0.0
  0
LINE
  5
E3
100
AcDbEntity
  8
0
  6
CONTINUOUS
 62
     1
100
AcDbLine
 10
-5.321834
 20
0.0
 30
0.0
 11
-1.2
 21
4.121834
 31
0.0
  0
LINE
  5
E4
100
AcDbEntity
  8
0
  6
CONTINUOUS
 62
     1
100
AcDbLine
 10
-4.89757
 20
0.0
 30
0.0
 11
-1.2
 21
3.69757
 31
0.0
  0
LINE
  5
E5
100
AcDbEntity
  8
0
  6
CONTINUOUS
 62
     1
100
AcDbLine
 10
-4.473306
 20
0.0
 30
0.0
 11
-1.2
 21
3.273306
 31
0.0
  0
LINE
  5
E6
100
AcDbEntity
  8
0
  6
CONTINUOUS
 62
     1
100
AcDbLine
 10
-4.049042
 20
0.0
 30
0.0
 11
-1.2
 21
2.849042
 31
0.0
  0
LINE
  5
E7
100
AcDbEntity
  8
0
  6
CONTINUOUS
 62
     1
100
AcDbLine
 10
-3.8
 20
-0.175222
 30
0.0
 11
-1.2
 21
2.424778
 31
0.0
  0
LINE
  5
E8
100
AcDbEntity
  8
0
  6
CONTINUOUS
 62
     1
100
AcDbLine
 10
-3.8
 20
-0.599486
 30
0.0
 11
-0.825514
 21
2.375
 31
0.0
  0
LINE
  5
E9
100
AcDbEntity
  8
0
  6
CONTINUOUS
 62
     1
100
AcDbLine
 10
-3.8
 20
-1.02375
 30
0.0
 11
-0.40125
 21
2.375
 31
0.0
  0
LINE
  5
EA
100
AcDbEntity
  8
0
  6
CONTINUOUS
 62
     1
100
AcDbLine
 10
-3.8
 20
-1.448015
 30
0.0
 11
0.023015
 21
2.375
 31
0.0
  0
LINE
  5
EB
100
AcDbEntity
  8
0
  6
CONTINUOUS
 62
     1
100
AcDbLine
 10
-3.8
 20
-1.872279
 30
0.0
 11
0.447279
 21
2.375
 31
0.0
  0
LINE
  5
EC
100
AcDbEntity
  8
0
  6
CONTINUOUS
 62
     1
100
AcDbLine
 10
-3.8
 20
-2.296543
 30
0.0
 11
0.871543
 21
2.375
 31
0.0
  0
LINE
  5
ED
100
AcDbEntity
  8
0
  6
CONTINUOUS
 62
     1
100
AcDbLine
 10
-4.729193
 20
-3.65
 30
0.0
 11
-4.608387
 21
-3.529193
 31
0.0
  0
LINE
  5
EE
100
AcDbEntity
  8
0
  6
CONTINUOUS
 62
     1
100
AcDbLine
 10
-3.8
 20
-2.720807
 30
0.0
 11
-1.2
 21
-0.120807
 31
0.0
  0
LINE
  5
EF
100
AcDbEntity
  8
0
  6
CONTINUOUS
 62
     1
100
AcDbLine
 10
-1.079193
 20
0.0
 30
0.0
 11
1.295807
 21
2.375
 31
0.0
  0
LINE
  5
F0
100
AcDbEntity
  8
0
  6
CONTINUOUS
 62
     1
100
AcDbLine
 10
-4.304929
 20
-3.65
 30
0.0
 11
-1.2
 21
-0.545071
 31
0.0
  0
LINE
  5
F1
100
AcDbEntity
  8
0
  6
CONTINUOUS
 62
     1
100
AcDbLine
 10
-0.654929
 20
0.0
 30
0.0
 11
1.720071
 21
2.375
 31
0.0
  0
LINE
  5
F2
100
AcDbEntity
  8
0
  6
CONTINUOUS
 62
     1
100
AcDbLine
 10
-3.880665
 20
-3.65
 30
0.0
 11
-1.2
 21
-0.969335
 31
0.0
  0
LINE
  5
F3
100
AcDbEntity
  8
0
  6
CONTINUOUS
 62
     1
100
AcDbLine
 10
-0.230665
 20
0.0
 30
0.0
 11
2.144335
 21
2.375
 31
0.0
  0
LINE
  5
F4
100
AcDbEntity
  8
0
  6
CONTINUOUS
 62
     1
100
AcDbLine
 10
-3.456401
 20
-3.65
 30
0.0
 11
-1.2
 21
-1.393599
 31
0.0
  0
LINE
  5
F5
100
AcDbEntity
  8
0
  6
CONTINUOUS
 62
     1
100
AcDbLine
 10
0.0
 20
-0.193599
 30
0.0
 11
2.568599
 21
2.375
 31
0.0
  0
LINE
  5
F6
100
AcDbEntity
  8
0
  6
CONTINUOUS
 62
     1
100
AcDbLine
 10
-3.032137
 20
-3.65
 30
0.0
 11
-1.2
 21
-1.817863
 31
0.0
  0
LINE
  5
F7
100
AcDbEntity
  8
0
  6
CONTINUOUS
 62
     1
100
AcDbLine
 10
0.0
 20
-0.617863
 30
0.0
 11
2.992863
 21
2.375
 31
0.0
  0
LINE
  5
F8
100
AcDbEntity
  8
0
  6
CONTINUOUS
 62
     1
100
AcDbLine
 10
-2.607873
 20
-3.65
 30
0.0
 11
-1.2
 21
-2.242127
 31
0.0
  0
LINE
  5
F9
100
AcDbEntity
  8
0
  6
CONTINUOUS
 62
     1
100
AcDbLine
 10
0.0
 20
-1.042127
 30
0.0
 11
3.417127
 21
2.375
 31
0.0
  0
LINE
  5
FA
100
AcDbEntity
  8
0
  6
CONTINUOUS
 62
     1
100
AcDbLine
 10
-2.183609
 20
-3.65
 30
0.0
 11
-1.2
 21
-2.666391
 31
0.0
  0
LINE
  5
FB
100
AcDbEntity
  8
0
  6
CONTINUOUS
 62
     1
100
AcDbLine
 10
0.0
 20
-1.466391
 30
0.0
 11
3.841391
 21
2.375
 31
0.0
  0
LINE
  5
FC
100
AcDbEntity
  8
0
  6
CONTINUOUS
 62
     1
100
AcDbLine
 10
-1.759345
 20
-3.65
 30
0.0
 11
-1.2
 21
-3.090655
 31
0.0
  0
LINE
  5
FD
100
AcDbEntity
  8
0
  6
CONTINUOUS
 62
     1
100
AcDbLine
 10
0.0
 20
-1.890655
 30
0.0
 11
4.760634
 21
2.869979
 31
0.0
  0
LINE
  5
FE
100
AcDbEntity
  8
0
  6
CONTINUOUS
 62
     1
100
AcDbLine
 10
-1.335081
 20
-3.65
 30
0.0
 11
-0.928752
 21
-3.243671
 31
0.0
  0
LINE
  5
FF
100
AcDbEntity
  8
0
  6
CONTINUOUS
 62
     1
100
AcDbLine
 10
0.0
 20
-2.314919
 30
0.0
 11
4.915925
 21
2.601006
 31
0.0
  0
LINE
  5
100
100
AcDbEntity
  8
0
  6
CONTINUOUS
 62
     1
100
AcDbLine
 10
-0.910817
 20
-3.65
 30
0.0
 11
-0.633612
 21
-3.372795
 31
0.0
  0
LINE
  5
101
100
AcDbEntity
  8
0
  6
CONTINUOUS
 62
     1
100
AcDbLine
 10
0.0
 20
-2.739183
 30
0.0
 11
5.071217
 21
2.332034
 31
0.0
  0
LINE
  5
102
100
AcDbEntity
  8
0
  6
CONTINUOUS
 62
     1
100
AcDbLine
 10
-0.486553
 20
-3.65
 30
0.0
 11
-0.338471
 21
-3.501919
 31
0.0
  0
LINE
  5
103
100
AcDbEntity
  8
0
  6
CONTINUOUS
 62
     1
100
AcDbLine
 10
0.0
 20
-3.163447
 30
0.0
 11
2.95
 21
-0.213447
 31
0.0
  0
LINE
  5
104
100
AcDbEntity
  8
0
  6
CONTINUOUS
 62
     1
100
AcDbLine
 10
3.163447
 20
0.0
 30
0.0
 11
5.226508
 21
2.063061
 31
0.0
  0
LINE
  5
105
100
AcDbEntity
  8
0
  6
CONTINUOUS
 62
     1
100
AcDbLine
 10
-0.062289
 20
-3.65
 30
0.0
 11
-0.043331
 21
-3.631043
 31
0.0
  0
LINE
  5
106
100
AcDbEntity
  8
0
  6
CONTINUOUS
 62
     1
100
AcDbLine
 10
0.0
 20
-3.587711
 30
0.0
 11
2.95
 21
-0.637711
 31
0.0
  0
LINE
  5
107
100
AcDbEntity
  8
0
  6
CONTINUOUS
 62
     1
100
AcDbLine
 10
3.587711
 20
0.0
 30
0.0
 11
5.3818
 21
1.794088
 31
0.0
  0
LINE
  5
108
100
AcDbEntity
  8
0
  6
CONTINUOUS
 62
     1
100
AcDbLine
 10
0.0
 20
-4.011976
 30
0.0
 11
2.95
 21
-1.061976
 31
0.0
  0
LINE
  5
109
100
AcDbEntity
  8
0
  6
CONTINUOUS
 62
     1
100
AcDbLine
 10
4.011976
 20
0.0
 30
0.0
 11
5.537091
 21
1.525116
 31
0.0
  0
LINE
  5
10A
100
AcDbEntity
  8
0
  6
CONTINUOUS
 62
     1
100
AcDbLine
 10
0.0
 20
-4.43624
 30
0.0
 11
2.95
 21
-1.48624
 31
0.0
  0
LINE
  5
10B
100
AcDbEntity
  8
0
  6
CONTINUOUS
 62
     1
100
AcDbLine
 10
4.43624
 20
0.0
 30
0.0
 11
5.692383
 21
1.256143
 31
0.0
  0
LINE
  5
10C
100
AcDbEntity
  8
0
  6
CONTINUOUS
 62
     1
100
AcDbLine
 10
0.0
 20
-4.860504
 30
0.0
 11
2.95
 21
-1.910504
 31
0.0
  0
LINE
  5
10D
100
AcDbEntity
  8
0
  6
CONTINUOUS
 62
     1
100
AcDbLine
 10
4.860504
 20
0.0
 30
0.0
 11
5.847674
 21
0.98717
 31
0.0
  0
LINE
  5
10E
100
AcDbEntity
  8
0
  6
CONTINUOUS
 62
     1
100
AcDbLine
 10
0.0
 20
-5.284768
 30
0.0
 11
2.95
 21
-2.334768
 31
0.0
  0
LINE
  5
10F
100
AcDbEntity
  8
0
  6
CONTINUOUS
 62
     1
100
AcDbLine
 10
5.284768
 20
0.0
 30
0.0
 11
6.002965
 21
0.718198
 31
0.0
  0
LINE
  5
110
100
AcDbEntity
  8
0
  6
CONTINUOUS
 62
     1
100
AcDbLine
 10
0.0
 20
-5.709032
 30
0.0
 11
2.95
 21
-2.759032
 31
0.0
  0
LINE
  5
111
100
AcDbEntity
  8
0
  6
CONTINUOUS
 62
     1
100
AcDbLine
 10
5.709032
 20
0.0
 30
0.0
 11
6.158257
 21
0.449225
 31
0.0
  0
LINE
  5
112
100
AcDbEntity
  8
0
  6
CONTINUOUS
 62
     1
100
AcDbLine
 10
0.0
 20
-6.133296
 30
0.0
 11
2.95
 21
-3.183296
 31
0.0
  0
LINE
  5
113
100
AcDbEntity
  8
0
  6
CONTINUOUS
 62
     1
100
AcDbLine
 10
5.979074
 20
-0.154222
 30
0.0
 11
6.313548
 21
0.180252
 31
0.0
  0
LINE
  5
114
100
AcDbEntity
  8
0
  6
CONTINUOUS
 62
     1
100
AcDbLine
 10
0.0
 20
-6.55756
 30
0.0
 11
2.95
 21
-3.60756
 31
0.0
  0
LINE
  5
115
100
AcDbEntity
  8
0
  6
CONTINUOUS
 62
     1
100
AcDbLine
 10
6.248047
 20
-0.309513
 30
0.0
 11
6.46884
 21
-0.08872
 31
0.0
  0
LINE
  5
116
100
AcDbEntity
  8
0
  6
CONTINUOUS
 62
     1
100
AcDbLine
 10
0.0
 20
-6.981824
 30
0.0
 11
2.95
 21
-4.031824
 31
0.0
  0
LINE
  5
117
100
AcDbEntity
  8
0
  6
CONTINUOUS
 62
     1
100
AcDbLine
 10
6.51702
 20
-0.464804
 30
0.0
 11
6.624131
 21
-0.357693
 31
0.0
  0
LINE
  5
118
100
AcDbEntity
  8
0
  6
CONTINUOUS
 62
     1
100
AcDbLine
 10
0.0
 20
-7.406088
 30
0.0
 11
2.95
 21
-4.456088
 31
0.0
  0
LINE
  5
119
100
AcDbEntity
  8
0
  6
CONTINUOUS
 62
     1
100
AcDbLine
 10
0.0
 20
-7.830352
 30
0.0
 11
2.95
 21
-4.880352
 31
0.0
  0
LINE
  5
11A
100
AcDbEntity
  8
0
  6
CONTINUOUS
 62
     1
100
AcDbLine
 10
-0.520384
 20
-8.775
 30
0.0
 11
2.95
 21
-5.304616
 31
0.0
  0
LINE
  5
11B
100
AcDbEntity
  8
0
  6
CONTINUOUS
 62
     1
100
AcDbLine
 10
-0.09612
 20
-8.775
 30
0.0
 11
2.95
 21
-5.72888
 31
0.0
  0
LINE
  5
11C
100
AcDbEntity
  8
0
  6
CONTINUOUS
 62
     1
100
AcDbLine
 10
0.328144
 20
-8.775
 30
0.0
 11
2.95
 21
-6.153144
 31
0.0
  0
LINE
  5
11D
100
AcDbEntity
  8
0
  6
CONTINUOUS
 62
     1
100
AcDbLine
 10
0.752408
 20
-8.775
 30
0.0
 11
2.95
 21
-6.577408
 31
0.0
  0
LINE
  5
11E
100
AcDbEntity
  8
0
  6
CONTINUOUS
 62
     1
100
AcDbLine
 10
1.176672
 20
-8.775
 30
0.0
 11
2.95
 21
-7.001672
 31
0.0
  0
LINE
  5
11F
100
AcDbEntity
  8
0
  6
CONTINUOUS
 62
     1
100
AcDbLine
 10
1.600937
 20
-8.775
 30
0.0
 11
2.95
 21
-7.425937
 31
0.0
  0
LINE
  5
120
100
AcDbEntity
  8
0
  6
CONTINUOUS
 62
     1
100
AcDbLine
 10
2.025201
 20
-8.775
 30
0.0
 11
2.95
 21
-7.850201
 31
0.0
  0
LINE
  5
121
100
AcDbEntity
  8
0
  6
CONTINUOUS
 62
     1
100
AcDbLine
 10
2.449465
 20
-8.775
 30
0.0
 11
3.069473
 21
-8.154992
 31
0.0
  0
LINE
  5
122
100
AcDbEntity
  8
0
  6
CONTINUOUS
 62
     1
100
AcDbLine
 10
2.873729
 20
-8.775
 30
0.0
 11
3.295291
 21
-8.353438
 31
0.0
  0
LINE
  5
123
100
AcDbEntity
  8
0
  6
CONTINUOUS
 62
     1
100
AcDbLine
 10
3.297993
 20
-8.775
 30
0.0
 11
3.521109
 21
-8.551884
 31
0.0
  0
LINE
  5
124
100
AcDbEntity
  8
0
  6
CONTINUOUS
 62
     1
100
AcDbLine
 10
3.722257
 20
-8.775
 30
0.0
 11
3.746927
 21
-8.75033
 31
0.0
  0
LINE
  5
125
100
AcDbEntity
  8
0
  6
CONTINUOUS
 62
     1
100
AcDbLine
 10
-1.244898
 20
7.895312
 30
0.0
 11
-1.239084
 21
7.901126
 31
0.0
  0
LINE
  5
126
100
AcDbEntity
  8
0
  6
CONTINUOUS
 62
     1
100
AcDbLine
 10
-1.067674
 20
7.648273
 30
0.0
 11
-0.75386
 21
7.962086
 31
0.0
  0
LINE
  5
127
100
AcDbEntity
  8
0
  6
CONTINUOUS
 62
     1
100
AcDbLine
 10
-0.591057
 20
7.700625
 30
0.0
 11
-0.299601
 21
7.992081
 31
0.0
  0
LINE
  5
128
100
AcDbEntity
  8
0
  6
CONTINUOUS
 62
     1
100
AcDbLine
 10
-0.143848
 20
7.72357
 30
0.0
 11
0.129232
 21
7.996651
 31
0.0
  0
LINE
  5
129
100
AcDbEntity
  8
0
  6
CONTINUOUS
 62
     1
100
AcDbLine
 10
0.273738
 20
7.716893
 30
0.0
 11
0.536524
 21
7.979678
 31
0.0
  0
LINE
  5
12A
100
AcDbEntity
  8
0
  6
CONTINUOUS
 62
     1
100
AcDbLine
 10
0.666879
 20
7.685769
 30
0.0
 11
0.925119
 21
7.944009
 31
0.0
  0
LINE
  5
12B
100
AcDbEntity
  8
0
  6
CONTINUOUS
 62
     1
100
AcDbLine
 10
1.039212
 20
7.633838
 30
0.0
 11
1.297172
 21
7.891798
 31
0.0
  0
LINE
  5
12C
100
AcDbEntity
  8
0
  6
CONTINUOUS
 62
     1
100
AcDbLine
 10
1.393405
 20
7.563767
 30
0.0
 11
1.654357
 21
7.824719
 31
0.0
  0
LINE
  5
12D
100
AcDbEntity
  8
0
  6
CONTINUOUS
 62
     1
100
AcDbLine
 10
1.731479
 20
7.477578
 30
0.0
 11
1.998003
 21
7.744101
 31
0.0
  0
LINE
  5
12E
100
AcDbEntity
  8
0
  6
CONTINUOUS
 62
     1
100
AcDbLine
 10
2.055003
 20
7.376837
 30
0.0
 11
2.329182
 21
7.651016
 31
0.0
  0
LINE
  5
12F
100
AcDbEntity
  8
0
  6
CONTINUOUS
 62
     1
100
AcDbLine
 10
2.365218
 20
7.262788
 30
0.0
 11
2.648765
 21
7.546335
 31
0.0
  0
LINE
  5
130
100
AcDbEntity
  8
0
  6
CONTINUOUS
 62
     1
100
AcDbLine
 10
2.663121
 20
7.136426
 30
0.0
 11
2.957473
 21
7.430779
 31
0.0
  0
LINE
  5
131
100
AcDbEntity
  8
0
  6
CONTINUOUS
 62
     1
100
AcDbLine
 10
2.949521
 20
6.998563
 30
0.0
 11
3.255903
 21
7.304945
 31
0.0
  0
LINE
  5
132
100
AcDbEntity
  8
0
  6
CONTINUOUS
 62
     1
100
AcDbLine
 10
3.225081
 20
6.849859
 30
0.0
 11
3.544551
 21
7.169329
 31
0.0
  0
LINE
  5
133
100
AcDbEntity
  8
0
  6
CONTINUOUS
 62
     1
100
AcDbLine
 10
3.490344
 20
6.690857
 30
0.0
 11
3.823832
 21
7.024346
 31
0.0
  0
LINE
  5
134
100
AcDbEntity
  8
0
  6
CONTINUOUS
 62
     1
100
AcDbLine
 10
3.745755
 20
6.522005
 30
0.0
 11
4.094089
 21
6.870339
 31
0.0
  0
LINE
  5
135
100
AcDbEntity
  8
0
  6
CONTINUOUS
 62
     1
100
AcDbLine
 10
3.991681
 20
6.343667
 30
0.0
 11
4.355608
 21
6.707593
 31
0.0
  0
LINE
  5
136
100
AcDbEntity
  8
0
  6
CONTINUOUS
 62
     1
100
AcDbLine
 10
4.228416
 20
6.156138
 30
0.0
 11
4.608619
 21
6.536341
 31
0.0
  0
LINE
  5
137
100
AcDbEntity
  8
0
  6
CONTINUOUS
 62
     1
100
AcDbLine
 10
4.456196
 20
5.959653
 30
0.0
 11
4.853311
 21
6.356768
 31
0.0
  0
LINE
  5
138
100
AcDbEntity
  8
0
  6
CONTINUOUS
 62
     1
100
AcDbLine
 10
4.675201
 20
5.754394
 30
0.0
 11
5.089826
 21
6.169019
 31
0.0
  0
LINE
  5
139
100
AcDbEntity
  8
0
  6
CONTINUOUS
 62
     1
100
AcDbLine
 10
4.885564
 20
5.540493
 30
0.0
 11
5.318271
 21
5.9732
 31
0.0
  0
LINE
  5
13A
100
AcDbEntity
  8
0
  6
CONTINUOUS
 62
     1
100
AcDbLine
 10
5.087373
 20
5.318038
 30
0.0
 11
5.538716
 21
5.769381
 31
0.0
  0
LINE
  5
13B
100
AcDbEntity
  8
0
  6
CONTINUOUS
 62
     1
100
AcDbLine
 10
5.28067
 20
5.087071
 30
0.0
 11
5.751195
 21
5.557596
 31
0.0
  0
LINE
  5
13C
100
AcDbEntity
  8
0
  6
CONTINUOUS
 62
     1
100
AcDbLine
 10
5.465459
 20
4.847596
 30
0.0
 11
5.955711
 21
5.337848
 31
0.0
  0
LINE
  5
13D
100
AcDbEntity
  8
0
  6
CONTINUOUS
 62
     1
100
AcDbLine
 10
5.641698
 20
4.599571
 30
0.0
 11
6.152232
 21
5.110105
 31
0.0
  0
LINE
  5
13E
100
AcDbEntity
  8
0
  6
CONTINUOUS
 62
     1
100
AcDbLine
 10
5.809305
 20
4.342914
 30
0.0
 11
6.340689
 21
4.874298
 31
0.0
  0
LINE
  5
13F
100
AcDbEntity
  8
0
  6
CONTINUOUS
 62
     1
100
AcDbLine
 10
5.96815
 20
4.077495
 30
0.0
 11
6.520982
 21
4.630326
 31
0.0
  0
LINE
  5
140
100
AcDbEntity
  8
0
  6
CONTINUOUS
 62
     1
100
AcDbLine
 10
6.118059
 20
3.803139
 30
0.0
 11
6.692968
 21
4.378048
 31
0.0
  0
LINE
  5
141
100
AcDbEntity
  8
0
  6
CONTINUOUS
 62
     1
100
AcDbLine
 10
6.258799
 20
3.519616
 30
0.0
 11
6.856465
 21
4.117282
 31
0.0
  0
LINE
  5
142
100
AcDbEntity
  8
0
  6
CONTINUOUS
 62
     1
100
AcDbLine
 10
6.390082
 20
3.226634
 30
0.0
 11
7.011246
 21
3.847799
 31
0.0
  0
LINE
  5
143
100
AcDbEntity
  8
0
  6
CONTINUOUS
 62
     1
100
AcDbLine
 10
6.511548
 20
2.923837
 30
0.0
 11
7.157031
 21
3.569319
 31
0.0
  0
LINE
  5
144
100
AcDbEntity
  8
0
  6
CONTINUOUS
 62
     1
100
AcDbLine
 10
6.622761
 20
2.610785
 30
0.0
 11
7.29348
 21
3.281505
 31
0.0
  0
LINE
  5
145
100
AcDbEntity
  8
0
  6
CONTINUOUS
 62
     1
100
AcDbLine
 10
6.723184
 20
2.286945
 30
0.0
 11
7.420187
 21
2.983948
 31
0.0
  0
LINE
  5
146
100
AcDbEntity
  8
0
  6
CONTINUOUS
 62
     1
100
AcDbLine
 10
6.812168
 20
1.951665
 30
0.0
 11
7.536663
 21
2.67616
 31
0.0
  0
LINE
  5
147
100
AcDbEntity
  8
0
  6
CONTINUOUS
 62
     1
100
AcDbLine
 10
6.888918
 20
1.604151
 30
0.0
 11
7.642321
 21
2.357553
 31
0.0
  0
LINE
  5
148
100
AcDbEntity
  8
0
  6
CONTINUOUS
 62
     1
100
AcDbLine
 10
6.952455
 20
1.243423
 30
0.0
 11
7.736452
 21
2.02742
 31
0.0
  0
LINE
  5
149
100
AcDbEntity
  8
0
  6
CONTINUOUS
 62
     1
100
AcDbLine
 10
7.001562
 20
0.868266
 30
0.0
 11
7.818199
 21
1.684903
 31
0.0
  0
LINE
  5
14A
100
AcDbEntity
  8
0
  6
CONTINUOUS
 62
     1
100
AcDbLine
 10
7.034702
 20
0.477142
 30
0.0
 11
7.886509
 21
1.328949
 31
0.0
  0
LINE
  5
14B
100
AcDbEntity
  8
0
  6
CONTINUOUS
 62
     1
100
AcDbLine
 10
7.049901
 20
0.068077
 30
0.0
 11
7.94008
 21
0.958256
 31
0.0
  0
LINE
  5
14C
100
AcDbEntity
  8
0
  6
CONTINUOUS
 62
     1
100
AcDbLine
 10
7.044559
 20
-0.36153
 30
0.0
 11
7.977272
 21
0.571184
 31
0.0
  0
LINE
  5
14D
100
AcDbEntity
  8
0
  6
CONTINUOUS
 62
     1
100
AcDbLine
 10
7.015139
 20
-0.815213
 30
0.0
 11
7.99598
 21
0.165628
 31
0.0
  0
LINE
  5
14E
100
AcDbEntity
  8
0
  6
CONTINUOUS
 62
     1
100
AcDbLine
 10
6.956633
 20
-1.297984
 30
0.0
 11
7.993429
 21
-0.261187
 31
0.0
  0
LINE
  5
14F
100
AcDbEntity
  8
0
  6
CONTINUOUS
 62
     1
100
AcDbLine
 10
6.861522
 20
-1.817358
 30
0.0
 11
7.965846
 21
-0.713034
 31
0.0
  0
LINE
  5
150
100
AcDbEntity
  8
0
  6
CONTINUOUS
 62
     1
100
AcDbLine
 10
6.717567
 20
-2.385577
 30
0.0
 11
7.907873
 21
-1.195272
 31
0.0
  0
LINE
  5
151
100
AcDbEntity
  8
0
  6
CONTINUOUS
 62
     1
100
AcDbLine
 10
6.502136
 20
-3.025273
 30
0.0
 11
7.811439
 21
-1.71597
 31
0.0
  0
LINE
  5
152
100
AcDbEntity
  8
0
  6
CONTINUOUS
 62
     1
100
AcDbLine
 10
6.162591
 20
-3.789082
 30
0.0
 11
7.663329
 21
-2.288344
 31
0.0
  0
LINE
  5
153
100
AcDbEntity
  8
0
  6
CONTINUOUS
 62
     1
100
AcDbLine
 10
2.95
 20
-7.425937
 30
0.0
 11
3.966472
 21
-6.409465
 31
0.0
  0
LINE
  5
154
100
AcDbEntity
  8
0
  6
CONTINUOUS
 62
     1
100
AcDbLine
 10
5.470054
 20
-4.905882
 30
0.0
 11
7.438868
 21
-2.937069
 31
0.0
  0
LINE
  5
155
100
AcDbEntity
  8
0
  6
CONTINUOUS
 62
     1
100
AcDbLine
 10
3.720672
 20
-7.079529
 30
0.0
 11
7.079529
 21
-3.720672
 31
0.0
  0
LINE
  5
156
100
AcDbEntity
  8
0
  6
CONTINUOUS
 62
     1
100
AcDbLine
 10
4.916236
 20
-6.308228
 30
0.0
 11
6.308228
 21
-4.916236
 31
0.0
  0
LINE
  5
157
100
AcDbEntity
  8
0
  6
CONTINUOUS
 62
     1
100
AcDbLine
 10
2.95
 20
-8.05
 30
0.0
 11
2.95
 21
-7.425937
 31
0.0
  0
LINE
  5
158
100
AcDbEntity
  8
0
  6
CONTINUOUS
 62
     1
100
AcDbLine
 10
2.95
 20
-7.001672
 30
0.0
 11
2.95
 21
0.0
 31
0.0
  0
LINE
  5
159
100
AcDbEntity
  8
0
  6
CONTINUOUS
 62
     1
100
AcDbLine
 10
0.0
 20
0.0
 30
0.0
 11
0.0
 21
-7.72433
 31
0.0
  0
ARC
  5
15A
100
AcDbEntity
  8
0
  6
CONTINUOUS
 62
     1
100
AcDbCircle
 10
0.0
 20
0.0
 30
0.0
 40
7.997695
100
AcDbArc
 50
291.645098
 51
101.419721
  0
ELLIPSE
  5
15B
100
AcDbEntity
  8
0
  6
CONTINUOUS
 62
     1
100
AcDbEllipse
 10
0.0
 20
0.0
 30
0.0
 11
-0.2271076736246198
 21
7.7216609032371322
 31
0.0
210
0.0
220
0.0
230
1.0
 40
0.912621
 41
3.5427715523045507
 42
0.1388139713137163
  0
LINE
  5
15C
100
AcDbEntity
  8
0
  6
CONTINUOUS
 62
     1
100
AcDbLine
 10
-1.583501
 20
7.839365
 30
0.0
 11
-4.6
 21
9.575
 31
0.0
  0
LINE
  5
15D
100
AcDbEntity
  8
0
  6
CONTINUOUS
 62
     1
100
AcDbLine
 10
-3.8
 20
2.375
 30
0.0
 11
-3.8
 21
6.528847
 31
0.0
  0
ENDBLK
  5
15E
100
AcDbEntity
  8
0
100
AcDbBlockEnd
  0
ENDSEC
  0
SECTION
  2
ENTITIES
  0
INSERT
  5
15F
100
AcDbEntity
  8
LAY-1
  6
CONTINUOUS
 62
     0
100
AcDbBlockReference
  2
SYM-1
 10
306.046683
 20
143.928809
 30
0.0
 41
0.31
 42
0.31
 50
90.0
  0
CIRCLE
  5
160
100
AcDbEntity
  8
LAY-1
  6
CONTINUOUS
 62
     2
100
AcDbCircle
 10
199.3
 20
143.928809
 30
0.0
 40
16.0
  0
ARC
  5
161
100
AcDbEntity
  8
LAY-1
  6
CONTINUOUS
 62
     2
100
AcDbCircle
 10
211.714555
 20
113.957423
 30
0.0
 40
10.0
100
AcDbArc
 50
72.531865
 51
152.468135
  0
ARC
  5
162
100
AcDbEntity
  8
LAY-1
  6
CONTINUOUS
 62
     2
100
AcDbCircle
 10
229.271386
 20
131.514255
 30
0.0
 40
10.0
100
AcDbArc
 50
117.531865
 51
197.468135
  0
ARC
  5
163
100
AcDbEntity
  8
LAY-1
  6
CONTINUOUS
 62
     2
100
AcDbCircle
 10
229.271386
 20
156.343364
 30
0.0
 40
10.0
100
AcDbArc
 50
162.531865
 51
242.468135
  0
ARC
  5
164
100
AcDbEntity
  8
LAY-1
  6
CONTINUOUS
 62
     2
100
AcDbCircle
 10
211.714555
 20
173.900195
 30
0.0
 40
10.0
100
AcDbArc
 50
207.531865
 51
287.468135
  0
ARC
  5
165
100
AcDbEntity
  8
LAY-1
  6
CONTINUOUS
 62
     2
100
AcDbCircle
 10
215.917009
 20
160.545818
 30
0.0
 40
4.0
100
AcDbArc
 50
342.531865
 51
107.468135
  0
ARC
  5
166
100
AcDbEntity
  8
LAY-1
  6
CONTINUOUS
 62
     2
100
AcDbCircle
 10
222.8
 20
143.928809
 30
0.0
 40
4.0
100
AcDbArc
 50
297.531865
 51
62.468135
  0
ARC
  5
167
100
AcDbEntity
  8
LAY-1
  6
CONTINUOUS
 62
     2
100
AcDbCircle
 10
215.917009
 20
127.3118
 30
0.0
 40
4.0
100
AcDbArc
 50
252.531865
 51
17.468135
  0
ARC
  5
168
100
AcDbEntity
  8
LAY-1
  6
CONTINUOUS
 62
     2
100
AcDbCircle
 10
199.3
 20
120.428809
 30
0.0
 40
4.0
100
AcDbArc
 50
270.0
 51
332.468135
  0
ARC
  5
169
100
AcDbEntity
  8
LAY-1
  6
CONTINUOUS
 62
     2
100
AcDbCircle
 10
199.3
 20
167.428809
 30
0.0
 40
4.0
100
AcDbArc
 50
27.531865
 51
90.0
  0
ARC
  5
16A
100
AcDbEntity
  8
LAY-1
  6
CONTINUOUS
 62
     2
100
AcDbCircle
 10
207.8
 20
152.428809
 30
0.0
 40
5.0
100
AcDbArc
 50
180.0
 51
270.0
  0
LINE
  5
16B
100
AcDbEntity
  8
LAY-1
  6
CONTINUOUS
 62
     2
100
AcDbLine
 10
207.8
 20
147.428809
 30
0.0
 11
210.55833
 21
147.428809
 31
0.0
  0
ARC
  5
16C
100
AcDbEntity
  8
LAY-1
  6
CONTINUOUS
 62
     2
100
AcDbCircle
 10
210.55833
 20
150.428809
 30
0.0
 40
3.0
100
AcDbArc
 50
270.0
 51
30.0
  0
LINE
  5
16D
100
AcDbEntity
  8
LAY-1
  6
CONTINUOUS
 62
     2
100
AcDbLine
 10
202.8
 20
155.187139
 30
0.0
 11
202.8
 21
152.428809
 31
0.0
  0
ARC
  5
16E
100
AcDbEntity
  8
LAY-1
  6
CONTINUOUS
 62
     2
100
AcDbCircle
 10
205.8
 20
155.187139
 30
0.0
 40
3.0
100
AcDbArc
 50
60.0
 51
180.0
  0
CIRCLE
  5
16F
100
AcDbEntity
  8
LAY-1
  6
CONTINUOUS
 62
     2
100
AcDbCircle
 10
199.3
 20
143.928809
 30
0.0
 40
2.25
  0
ARC
  5
170
100
AcDbEntity
  8
LAY-1
  6
CONTINUOUS
 62
     2
100
AcDbCircle
 10
207.8
 20
135.428809
 30
0.0
 40
5.0
100
AcDbArc
 50
90.0
 51
180.0
  0
LINE
  5
171
100
AcDbEntity
  8
LAY-1
  6
CONTINUOUS
 62
     2
100
AcDbLine
 10
207.8
 20
140.428809
 30
0.0
 11
210.55833
 21
140.428809
 31
0.0
  0
ARC
  5
172
100
AcDbEntity
  8
LAY-1
  6
CONTINUOUS
 62
     2
100
AcDbCircle
 10
210.55833
 20
137.428809
 30
0.0
 40
3.0
100
AcDbArc
 50
330.0
 51
90.0
  0
LINE
  5
173
100
AcDbEntity
  8
LAY-1
  6
CONTINUOUS
 62
     2
100
AcDbLine
 10
202.8
 20
132.670479
 30
0.0
 11
202.8
 21
135.428809
 31
0.0
  0
ARC
  5
174
100
AcDbEntity
  8
LAY-1
  6
CONTINUOUS
 62
     2
100
AcDbCircle
 10
205.8
 20
132.670479
 30
0.0
 40
3.0
100
AcDbArc
 50
180.0
 51
300.0
  0
ARC
  5
175
100
AcDbEntity
  8
LAY-1
  6
CONTINUOUS
 62
     2
100
AcDbCircle
 10
186.885445
 20
113.957423
 30
0.0
 40
10.0
100
AcDbArc
 50
27.531865
 51
107.468135
  0
ARC
  5
176
100
AcDbEntity
  8
LAY-1
  6
CONTINUOUS
 62
     2
100
AcDbCircle
 10
169.328614
 20
131.514255
 30
0.0
 40
10.0
100
AcDbArc
 50
342.531865
 51
62.468135
  0
ARC
  5
177
100
AcDbEntity
  8
LAY-1
  6
CONTINUOUS
 62
     2
100
AcDbCircle
 10
169.328614
 20
156.343364
 30
0.0
 40
10.0
100
AcDbArc
 50
297.531865
 51
17.468135
  0
ARC
  5
178
100
AcDbEntity
  8
LAY-1
  6
CONTINUOUS
 62
     2
100
AcDbCircle
 10
186.885445
 20
173.900195
 30
0.0
 40
10.0
100
AcDbArc
 50
252.531865
 51
332.468135
  0
ARC
  5
179
100
AcDbEntity
  8
LAY-1
  6
CONTINUOUS
 62
     2
100
AcDbCircle
 10
182.682991
 20
160.545818
 30
0.0
 40
4.0
100
AcDbArc
 50
72.531865
 51
197.468135
  0
ARC
  5
17A
100
AcDbEntity
  8
LAY-1
  6
CONTINUOUS
 62
     2
100
AcDbCircle
 10
175.8
 20
143.928809
 30
0.0
 40
4.0
100
AcDbArc
 50
117.531865
 51
242.468135
  0
ARC
  5
17B
100
AcDbEntity
  8
LAY-1
  6
CONTINUOUS
 62
     2
100
AcDbCircle
 10
182.682991
 20
127.3118
 30
0.0
 40
4.0
100
AcDbArc
 50
162.531865
 51
287.468135
  0
ARC
  5
17C
100
AcDbEntity
  8
LAY-1
  6
CONTINUOUS
 62
     2
100
AcDbCircle
 10
199.3
 20
120.428809
 30
0.0
 40
4.0
100
AcDbArc
 50
207.531865
 51
270.0
  0
ARC
  5
17D
100
AcDbEntity
  8
LAY-1
  6
CONTINUOUS
 62
     2
100
AcDbCircle
 10
199.3
 20
167.428809
 30
0.0
 40
4.0
100
AcDbArc
 50
90.0
 51
152.468135
  0
ARC
  5
17E
100
AcDbEntity
  8
LAY-1
  6
CONTINUOUS
 62
     2
100
AcDbCircle
 10
190.8
 20
152.428809
 30
0.0
 40
5.0
100
AcDbArc
 50
270.0
 51
0.0
  0
LINE
  5
17F
100
AcDbEntity
  8
LAY-1
  6
CONTINUOUS
 62
     2
100
AcDbLine
 10
190.8
 20
147.428809
 30
0.0
 11
188.04167
 21
147.428809
 31
0.0
  0
ARC
  5
180
100
AcDbEntity
  8
LAY-1
  6
CONTINUOUS
 62
     2
100
AcDbCircle
 10
188.04167
 20
150.428809
 30
0.0
 40
3.0
100
AcDbArc
 50
150.0
 51
270.0
  0
LINE
  5
181
100
AcDbEntity
  8
LAY-1
  6
CONTINUOUS
 62
     2
100
AcDbLine
 10
195.8
 20
155.187139
 30
0.0
 11
195.8
 21
152.428809
 31
0.0
  0
ARC
  5
182
100
AcDbEntity
  8
LAY-1
  6
CONTINUOUS
 62
     2
100
AcDbCircle
 10
192.8
 20
155.187139
 30
0.0
 40
3.0
100
AcDbArc
 50
0.0
 51
120.0
  0
ARC
  5
183
100
AcDbEntity
  8
LAY-1
  6
CONTINUOUS
 62
     2
100
AcDbCircle
 10
190.8
 20
135.428809
 30
0.0
 40
5.0
100
AcDbArc
 50
0.0
 51
90.0
  0
LINE
  5
184
100
AcDbEntity
  8
LAY-1
  6
CONTINUOUS
 62
     2
100
AcDbLine
 10
190.8
 20
140.428809
 30
0.0
 11
188.04167
 21
140.428809
 31
0.0
  0
ARC
  5
185
100
AcDbEntity
  8
LAY-1
  6
CONTINUOUS
 62
     2
100
AcDbCircle
 10
188.04167
 20
137.428809
 30
0.0
 40
3.0
100
AcDbArc
 50
90.0
 51
210.0
  0
LINE
  5
186
100
AcDbEntity
  8
LAY-1
  6
CONTINUOUS
 62
     2
100
AcDbLine
 10
195.8
 20
132.670479
 30
0.0
 11
195.8
 21
135.428809
 31
0.0
  0
ARC
  5
187
100
AcDbEntity
  8
LAY-1
  6
CONTINUOUS
 62
     2
100
AcDbCircle
 10
192.8
 20
132.670479
 30
0.0
 40
3.0
100
AcDbArc
 50
240.0
 51
0.0
  0
LINE
  5
188
100
AcDbEntity
  8
LAY-1
  6
CONTINUOUS
 62
     2
100
AcDbLine
 10
205.580262
 20
162.17842
 30
0.0
 11
204.25
 21
163.148809
 31
0.0
  0
LINE
  5
189
100
AcDbEntity
  8
LAY-1
  6
CONTINUOUS
 62
     2
100
AcDbLine
 10
205.580262
 20
162.17842
 30
0.0
 11
203.934551
 21
162.232157
 31
0.0
  0
LINE
  5
18A
100
AcDbEntity
  8
LAY-1
  6
CONTINUOUS
 62
     2
100
AcDbLine
 10
193.019738
 20
162.17842
 30
0.0
 11
194.35
 21
163.148809
 31
0.0
  0
LINE
  5
18B
100
AcDbEntity
  8
LAY-1
  6
CONTINUOUS
 62
     2
100
AcDbLine
 10
193.019738
 20
162.17842
 30
0.0
 11
194.665449
 21
162.232157
 31
0.0
  0
ARC
  5
18C
100
AcDbEntity
  8
LAY-1
  6
CONTINUOUS
 62
     2
100
AcDbCircle
 10
199.3
 20
143.928809
 30
0.0
 40
19.3
100
AcDbArc
 50
71.010059
 51
108.989941
  0
LINE
  5
18D
100
AcDbEntity
  8
LAY-1
  6
CONTINUOUS
 62
     2
100
AcDbLine
 10
188.933975
 20
166.428809
 30
0.0
 11
193.46
 21
166.428809
 31
0.0
  0
LINE
  5
18E
100
AcDbEntity
  8
LAY-1
  6
CONTINUOUS
 62
     2
100
AcDbLine
 10
205.067872
 20
166.428809
 30
0.0
 11
209.666025
 21
166.428809
 31
0.0
  0
ARC
  5
18F
100
AcDbEntity
  8
LAY-1
  6
CONTINUOUS
 62
     2
100
AcDbCircle
 10
208.8
 20
165.928809
 30
0.0
 40
1.0
100
AcDbArc
 50
0.0
 51
30.0
  0
ARC
  5
190
100
AcDbEntity
  8
LAY-1
  6
CONTINUOUS
 62
     2
100
AcDbCircle
 10
189.8
 20
165.928809
 30
0.0
 40
1.0
100
AcDbArc
 50
150.0
 51
180.0
  0
LINE
  5
191
100
AcDbEntity
  8
LAY-1
  6
CONTINUOUS
 62
     2
100
AcDbLine
 10
209.8
 20
164.085182
 30
0.0
 11
209.8
 21
165.928809
 31
0.0
  0
LINE
  5
192
100
AcDbEntity
  8
LAY-1
  6
CONTINUOUS
 62
     2
100
AcDbLine
 10
188.8
 20
164.085182
 30
0.0
 11
188.8
 21
165.928809
 31
0.0
  0
LINE
  5
193
100
AcDbEntity
  8
LAY-1
  6
CONTINUOUS
 62
     2
100
AcDbLine
 10
192.303848
 20
166.428809
 30
0.0
 11
192.303848
 21
165.49538
 31
0.0
  0
LINE
  5
194
100
AcDbEntity
  8
LAY-1
  6
CONTINUOUS
 62
     2
100
AcDbLine
 10
206.296152
 20
166.428809
 30
0.0
 11
206.296152
 21
165.49538
 31
0.0
  0
LINE
  5
195
100
AcDbEntity
  8
LAY-1
  6
CONTINUOUS
 62
     2
100
AcDbLine
 10
188.933975
 20
121.428809
 30
0.0
 11
193.55
 21
121.428809
 31
0.0
  0
LINE
  5
196
100
AcDbEntity
  8
LAY-1
  6
CONTINUOUS
 62
     2
100
AcDbLine
 10
205.067872
 20
121.428809
 30
0.0
 11
209.666025
 21
121.428809
 31
0.0
  0
ARC
  5
197
100
AcDbEntity
  8
LAY-1
  6
CONTINUOUS
 62
     2
100
AcDbCircle
 10
208.8
 20
121.928809
 30
0.0
 40
1.0
100
AcDbArc
 50
330.0
 51
0.0
  0
ARC
  5
198
100
AcDbEntity
  8
LAY-1
  6
CONTINUOUS
 62
     2
100
AcDbCircle
 10
189.8
 20
121.928809
 30
0.0
 40
1.0
100
AcDbArc
 50
180.0
 51
210.0
  0
LINE
  5
199
100
AcDbEntity
  8
LAY-1
  6
CONTINUOUS
 62
     2
100
AcDbLine
 10
209.8
 20
123.772436
 30
0.0
 11
209.8
 21
121.928809
 31
0.0
  0
LINE
  5
19A
100
AcDbEntity
  8
LAY-1
  6
CONTINUOUS
 62
     2
100
AcDbLine
 10
188.8
 20
123.772436
 30
0.0
 11
188.8
 21
121.928809
 31
0.0
  0
ARC
  5
19B
100
AcDbEntity
  8
LAY-1
  6
CONTINUOUS
 62
     2
100
AcDbCircle
 10
210.8
 20
251.227618
 30
0.0
 40
2.0
100
AcDbArc
 50
180.0
 51
252.834054
  0
ARC
  5
19C
100
AcDbEntity
  8
LAY-1
  6
CONTINUOUS
 62
     2
100
AcDbCircle
 10
187.8
 20
251.227618
 30
0.0
 40
2.0
100
AcDbArc
 50
287.165946
 51
0.0
  0
ARC
  5
19D
100
AcDbEntity
  8
LAY-1
  6
CONTINUOUS
 62
     2
100
AcDbCircle
 10
209.3
 20
246.457618
 30
0.0
 40
3.0
100
AcDbArc
 50
0.0
 51
72.349722
  0
ARC
  5
19E
100
AcDbEntity
  8
LAY-1
  6
CONTINUOUS
 62
     2
100
AcDbCircle
 10
189.3
 20
246.457618
 30
0.0
 40
3.0
100
AcDbArc
 50
107.650278
 51
180.0
  0
LINE
  5
19F
100
AcDbEntity
  8
LAY-1
  6
CONTINUOUS
 62
     2
100
AcDbLine
 10
209.868818
 20
249.457618
 30
0.0
 11
189.3
 21
249.457618
 31
0.0
  0
CIRCLE
  5
1A0
100
AcDbEntity
  8
LAY-1
  6
CONTINUOUS
 62
     2
100
AcDbCircle
 10
199.3
 20
264.457618
 30
0.0
 40
10.5
  0
ARC
  5
1A1
100
AcDbEntity
  8
LAY-1
  6
CONTINUOUS
 62
     2
100
AcDbCircle
 10
190.3
 20
274.457618
 30
0.0
 40
0.5
100
AcDbArc
 50
90.0
 51
180.0
  0
LINE
  5
1A2
100
AcDbEntity
  8
LAY-1
  6
CONTINUOUS
 62
     2
100
AcDbLine
 10
190.3
 20
274.957618
 30
0.0
 11
208.3
 21
274.957618
 31
0.0
  0
ARC
  5
1A3
100
AcDbEntity
  8
LAY-1
  6
CONTINUOUS
 62
     2
100
AcDbCircle
 10
208.3
 20
274.457618
 30
0.0
 40
0.5
100
AcDbArc
 50
0.0
 51
90.0
  0
LINE
  5
1A4
100
AcDbEntity
  8
LAY-1
  6
CONTINUOUS
 62
     2
100
AcDbLine
 10
208.8
 20
251.227618
 30
0.0
 11
208.8
 21
259.985482
 31
0.0
  0
LINE
  5
1A5
100
AcDbEntity
  8
LAY-1
  6
CONTINUOUS
 62
     2
100
AcDbLine
 10
208.8
 20
268.929754
 30
0.0
 11
208.8
 21
274.457618
 31
0.0
  0
LINE
  5
1A6
100
AcDbEntity
  8
LAY-1
  6
CONTINUOUS
 62
     2
100
AcDbLine
 10
189.8
 20
268.929754
 30
0.0
 11
189.8
 21
274.457618
 31
0.0
  0
LINE
  5
1A7
100
AcDbEntity
  8
LAY-1
  6
CONTINUOUS
 62
     2
100
AcDbLine
 10
189.8
 20
251.227618
 30
0.0
 11
189.8
 21
259.985482
 31
0.0
  0
ARC
  5
1A8
100
AcDbEntity
  8
LAY-1
  6
CONTINUOUS
 62
     2
100
AcDbCircle
 10
187.3
 20
234.957618
 30
0.0
 40
1.0
100
AcDbArc
 50
180.0
 51
270.0
  0
LINE
  5
1A9
100
AcDbEntity
  8
LAY-1
  6
CONTINUOUS
 62
     2
100
AcDbLine
 10
195.3
 20
225.657618
 30
0.0
 11
194.3
 21
226.657618
 31
0.0
  0
LINE
  5
1AA
100
AcDbEntity
  8
LAY-1
  6
CONTINUOUS
 62
     2
100
AcDbLine
 10
195.3
 20
225.157618
 30
0.0
 11
195.3
 21
225.657618
 31
0.0
  0
LINE
  5
1AB
100
AcDbEntity
  8
LAY-1
  6
CONTINUOUS
 62
     2
100
AcDbLine
 10
194.3
 20
226.657618
 30
0.0
 11
194.3
 21
227.457618
 31
0.0
  0
LINE
  5
1AC
100
AcDbEntity
  8
LAY-1
  6
CONTINUOUS
 62
     2
100
AcDbLine
 10
187.3
 20
233.957618
 30
0.0
 11
199.3
 21
233.957618
 31
0.0
  0
LINE
  5
1AD
100
AcDbEntity
  8
LAY-1
  6
CONTINUOUS
 62
     2
100
AcDbLine
 10
187.752995
 20
228.350782
 30
0.0
 11
187.752995
 21
230.457618
 31
0.0
  0
LINE
  5
1AE
100
AcDbEntity
  8
LAY-1
  6
CONTINUOUS
 62
     2
100
AcDbLine
 10
187.752995
 20
231.457618
 30
0.0
 11
187.752995
 21
232.957618
 31
0.0
  0
LINE
  5
1AF
100
AcDbEntity
  8
LAY-1
  6
CONTINUOUS
 62
     2
100
AcDbLine
 10
188.61902
 20
230.957618
 30
0.0
 11
187.752995
 21
231.457618
 31
0.0
  0
LINE
  5
1B0
100
AcDbEntity
  8
LAY-1
  6
CONTINUOUS
 62
     2
100
AcDbLine
 10
188.61902
 20
230.957618
 30
0.0
 11
187.752995
 21
230.457618
 31
0.0
  0
LINE
  5
1B1
100
AcDbEntity
  8
LAY-1
  6
CONTINUOUS
 62
     2
100
AcDbLine
 10
187.752995
 20
228.350782
 30
0.0
 11
189.3
 21
227.457618
 31
0.0
  0
LINE
  5
1B2
100
AcDbEntity
  8
LAY-1
  6
CONTINUOUS
 62
     2
100
AcDbLine
 10
199.3
 20
225.157618
 30
0.0
 11
172.8
 21
225.157618
 31
0.0
  0
ARC
  5
1B3
100
AcDbEntity
  8
LAY-1
  6
CONTINUOUS
 62
     2
100
AcDbCircle
 10
176.933931
 20
220.157618
 30
0.0
 40
5.0
100
AcDbArc
 50
187.662256
 51
270.0
  0
LINE
  5
1B4
100
AcDbEntity
  8
LAY-1
  6
CONTINUOUS
 62
     2
100
AcDbLine
 10
199.3
 20
215.157618
 30
0.0
 11
176.933931
 21
215.157618
 31
0.0
  0
ARC
  5
1B5
100
AcDbEntity
  8
LAY-1
  6
CONTINUOUS
 62
     2
100
AcDbCircle
 10
191.8
 20
222.157618
 30
0.0
 40
20.0
100
AcDbArc
 50
180.0
 51
187.662256
  0
LINE
  5
1B6
100
AcDbEntity
  8
LAY-1
  6
CONTINUOUS
 62
     2
100
AcDbLine
 10
171.8
 20
222.157618
 30
0.0
 11
171.8
 21
224.477618
 31
0.0
  0
ARC
  5
1B7
100
AcDbEntity
  8
LAY-1
  6
CONTINUOUS
 62
     2
100
AcDbCircle
 10
172.8
 20
224.157618
 30
0.0
 40
1.0
100
AcDbArc
 50
90.0
 51
180.0
  0
ARC
  5
1B8
100
AcDbEntity
  8
LAY-1
  6
CONTINUOUS
 62
     2
100
AcDbCircle
 10
193.188304
 20
222.157618
 30
0.0
 40
3.0
100
AcDbArc
 50
0.0
 51
90.0
  0
LINE
  5
1B9
100
AcDbEntity
  8
LAY-1
  6
CONTINUOUS
 62
     2
100
AcDbLine
 10
196.188304
 20
220.157618
 30
0.0
 11
196.188304
 21
222.157618
 31
0.0
  0
ARC
  5
1BA
100
AcDbEntity
  8
LAY-1
  6
CONTINUOUS
 62
     2
100
AcDbCircle
 10
191.188304
 20
220.157618
 30
0.0
 40
5.0
100
AcDbArc
 50
270.0
 51
0.0
  0
ARC
  5
1BB
100
AcDbEntity
  8
LAY-1
  6
CONTINUOUS
 62
     2
100
AcDbCircle
 10
175.682991
 20
222.157618
 30
0.0
 40
3.0
100
AcDbArc
 50
0.0
 51
90.0
  0
LINE
  5
1BC
100
AcDbEntity
  8
LAY-1
  6
CONTINUOUS
 62
     2
100
AcDbLine
 10
178.682991
 20
222.157618
 30
0.0
 11
178.682991
 21
217.157618
 31
0.0
  0
ARC
  5
1BD
100
AcDbEntity
  8
LAY-1
  6
CONTINUOUS
 62
     2
100
AcDbCircle
 10
176.682991
 20
217.157618
 30
0.0
 40
2.0
100
AcDbArc
 50
270.0
 51
0.0
  0
ARC
  5
1BE
100
AcDbEntity
  8
LAY-1
  6
CONTINUOUS
 62
     2
100
AcDbCircle
 10
184.984472
 20
219.157618
 30
0.0
 40
4.0
100
AcDbArc
 50
180.0
 51
270.0
  0
LINE
  5
1BF
100
AcDbEntity
  8
LAY-1
  6
CONTINUOUS
 62
     2
100
AcDbLine
 10
180.984472
 20
219.157618
 30
0.0
 11
180.984472
 21
222.157618
 31
0.0
  0
ARC
  5
1C0
100
AcDbEntity
  8
LAY-1
  6
CONTINUOUS
 62
     2
100
AcDbCircle
 10
183.984472
 20
222.157618
 30
0.0
 40
3.0
100
AcDbArc
 50
90.0
 51
180.0
  0
LINE
  5
1C1
100
AcDbEntity
  8
LAY-1
  6
CONTINUOUS
 62
     2
100
AcDbLine
 10
199.3
 20
227.457618
 30
0.0
 11
189.3
 21
227.457618
 31
0.0
  0
LINE
  5
1C2
100
AcDbEntity
  8
LAY-1
  6
CONTINUOUS
 62
     2
100
AcDbLine
 10
187.752995
 20
232.957618
 30
0.0
 11
199.3
 21
232.957618
 31
0.0
  0
LINE
  5
1C3
100
AcDbEntity
  8
LAY-1
  6
CONTINUOUS
 62
     2
100
AcDbLine
 10
190.112
 20
233.957618
 30
0.0
 11
190.112
 21
232.957618
 31
0.0
  0
ARC
  5
1C4
100
AcDbEntity
  8
LAY-1
  6
CONTINUOUS
 62
     2
100
AcDbCircle
 10
199.3
 20
246.644206
 30
0.0
 40
19.186588
100
AcDbArc
 50
252.448927
 51
270.0
  0
ARC
  5
1C5
100
AcDbEntity
  8
LAY-1
  6
CONTINUOUS
 62
     2
100
AcDbCircle
 10
190.633584
 20
232.490753
 30
0.0
 40
5.043526
100
AcDbArc
 50
266.321477
 51
304.830173
  0
LINE
  5
1C6
100
AcDbEntity
  8
LAY-1
  6
CONTINUOUS
 62
     2
100
AcDbLine
 10
192.516134
 20
230.957618
 30
0.0
 11
193.514173
 21
230.457618
 31
0.0
  0
LINE
  5
1C7
100
AcDbEntity
  8
LAY-1
  6
CONTINUOUS
 62
     2
100
AcDbLine
 10
193.514173
 20
230.457618
 30
0.0
 11
195.547223
 21
230.957618
 31
0.0
  0
LINE
  5
1C8
100
AcDbEntity
  8
LAY-1
  6
CONTINUOUS
 62
     2
100
AcDbLine
 10
195.547223
 20
230.957618
 30
0.0
 11
193.514173
 21
231.457618
 31
0.0
  0
LINE
  5
1C9
100
AcDbEntity
  8
LAY-1
  6
CONTINUOUS
 62
     2
100
AcDbLine
 10
193.514173
 20
231.457618
 30
0.0
 11
192.516134
 21
230.957618
 31
0.0
  0
LINE
  5
1CA
100
AcDbEntity
  8
LAY-1
  6
CONTINUOUS
 62
     2
100
AcDbLine
 10
193.514173
 20
232.957618
 30
0.0
 11
193.514173
 21
231.457618
 31
0.0
  0
LINE
  5
1CB
100
AcDbEntity
  8
LAY-1
  6
CONTINUOUS
 62
     2
100
AcDbLine
 10
193.514173
 20
230.457618
 30
0.0
 11
193.514173
 21
228.350782
 31
0.0
  0
LINE
  5
1CC
100
AcDbEntity
  8
LAY-1
  6
CONTINUOUS
 62
     2
100
AcDbLine
 10
195.3
 20
225.657618
 30
0.0
 11
199.3
 21
225.657618
 31
0.0
  0
LINE
  5
1CD
100
AcDbEntity
  8
LAY-1
  6
CONTINUOUS
 62
     2
100
AcDbLine
 10
194.3
 20
226.657618
 30
0.0
 11
199.3
 21
226.657618
 31
0.0
  0
ARC
  5
1CE
100
AcDbEntity
  8
LAY-1
  6
CONTINUOUS
 62
     2
100
AcDbCircle
 10
196.8
 20
215.427491
 30
0.0
 40
1.5
100
AcDbArc
 50
190.364828
 51
240.0
  0
ARC
  5
1CF
100
AcDbEntity
  8
LAY-1
  6
CONTINUOUS
 62
     2
100
AcDbCircle
 10
211.3
 20
234.957618
 30
0.0
 40
1.0
100
AcDbArc
 50
270.0
 51
0.0
  0
LINE
  5
1D0
100
AcDbEntity
  8
LAY-1
  6
CONTINUOUS
 62
     2
100
AcDbLine
 10
203.3
 20
225.657618
 30
0.0
 11
204.3
 21
226.657618
 31
0.0
  0
LINE
  5
1D1
100
AcDbEntity
  8
LAY-1
  6
CONTINUOUS
 62
     2
100
AcDbLine
 10
203.3
 20
225.157618
 30
0.0
 11
203.3
 21
225.657618
 31
0.0
  0
LINE
  5
1D2
100
AcDbEntity
  8
LAY-1
  6
CONTINUOUS
 62
     2
100
AcDbLine
 10
204.3
 20
226.657618
 30
0.0
 11
204.3
 21
227.457618
 31
0.0
  0
LINE
  5
1D3
100
AcDbEntity
  8
LAY-1
  6
CONTINUOUS
 62
     2
100
AcDbLine
 10
211.3
 20
233.957618
 30
0.0
 11
199.3
 21
233.957618
 31
0.0
  0
LINE
  5
1D4
100
AcDbEntity
  8
LAY-1
  6
CONTINUOUS
 62
     2
100
AcDbLine
 10
210.847005
 20
228.350782
 30
0.0
 11
210.847005
 21
230.457618
 31
0.0
  0
LINE
  5
1D5
100
AcDbEntity
  8
LAY-1
  6
CONTINUOUS
 62
     2
100
AcDbLine
 10
210.847005
 20
231.457618
 30
0.0
 11
210.847005
 21
232.957618
 31
0.0
  0
LINE
  5
1D6
100
AcDbEntity
  8
LAY-1
  6
CONTINUOUS
 62
     2
100
AcDbLine
 10
209.98098
 20
230.957618
 30
0.0
 11
210.847005
 21
231.457618
 31
0.0
  0
LINE
  5
1D7
100
AcDbEntity
  8
LAY-1
  6
CONTINUOUS
 62
     2
100
AcDbLine
 10
209.98098
 20
230.957618
 30
0.0
 11
210.847005
 21
230.457618
 31
0.0
  0
LINE
  5
1D8
100
AcDbEntity
  8
LAY-1
  6
CONTINUOUS
 62
     2
100
AcDbLine
 10
210.847005
 20
228.350782
 30
0.0
 11
209.3
 21
227.457618
 31
0.0
  0
LINE
  5
1D9
100
AcDbEntity
  8
LAY-1
  6
CONTINUOUS
 62
     2
100
AcDbLine
 10
199.3
 20
225.157618
 30
0.0
 11
225.8
 21
225.157618
 31
0.0
  0
ARC
  5
1DA
100
AcDbEntity
  8
LAY-1
  6
CONTINUOUS
 62
     2
100
AcDbCircle
 10
221.666069
 20
220.157618
 30
0.0
 40
5.0
100
AcDbArc
 50
270.0
 51
352.337744
  0
LINE
  5
1DB
100
AcDbEntity
  8
LAY-1
  6
CONTINUOUS
 62
     2
100
AcDbLine
 10
199.3
 20
215.157618
 30
0.0
 11
221.666069
 21
215.157618
 31
0.0
  0
ARC
  5
1DC
100
AcDbEntity
  8
LAY-1
  6
CONTINUOUS
 62
     2
100
AcDbCircle
 10
206.8
 20
222.157618
 30
0.0
 40
20.0
100
AcDbArc
 50
352.337744
 51
0.0
  0
LINE
  5
1DD
100
AcDbEntity
  8
LAY-1
  6
CONTINUOUS
 62
     2
100
AcDbLine
 10
226.8
 20
222.157618
 30
0.0
 11
226.8
 21
224.477618
 31
0.0
  0
ARC
  5
1DE
100
AcDbEntity
  8
LAY-1
  6
CONTINUOUS
 62
     2
100
AcDbCircle
 10
225.8
 20
224.157618
 30
0.0
 40
1.0
100
AcDbArc
 50
0.0
 51
90.0
  0
ARC
  5
1DF
100
AcDbEntity
  8
LAY-1
  6
CONTINUOUS
 62
     2
100
AcDbCircle
 10
205.411696
 20
222.157618
 30
0.0
 40
3.0
100
AcDbArc
 50
90.0
 51
180.0
  0
LINE
  5
1E0
100
AcDbEntity
  8
LAY-1
  6
CONTINUOUS
 62
     2
100
AcDbLine
 10
202.411696
 20
220.157618
 30
0.0
 11
202.411696
 21
222.157618
 31
0.0
  0
ARC
  5
1E1
100
AcDbEntity
  8
LAY-1
  6
CONTINUOUS
 62
     2
100
AcDbCircle
 10
207.411696
 20
220.157618
 30
0.0
 40
5.0
100
AcDbArc
 50
180.0
 51
270.0
  0
ARC
  5
1E2
100
AcDbEntity
  8
LAY-1
  6
CONTINUOUS
 62
     2
100
AcDbCircle
 10
222.917009
 20
222.157618
 30
0.0
 40
3.0
100
AcDbArc
 50
90.0
 51
180.0
  0
LINE
  5
1E3
100
AcDbEntity
  8
LAY-1
  6
CONTINUOUS
 62
     2
100
AcDbLine
 10
219.917009
 20
222.157618
 30
0.0
 11
219.917009
 21
217.157618
 31
0.0
  0
ARC
  5
1E4
100
AcDbEntity
  8
LAY-1
  6
CONTINUOUS
 62
     2
100
AcDbCircle
 10
221.917009
 20
217.157618
 30
0.0
 40
2.0
100
AcDbArc
 50
180.0
 51
270.0
  0
ARC
  5
1E5
100
AcDbEntity
  8
LAY-1
  6
CONTINUOUS
 62
     2
100
AcDbCircle
 10
213.615528
 20
219.157618
 30
0.0
 40
4.0
100
AcDbArc
 50
270.0
 51
0.0
  0
LINE
  5
1E6
100
AcDbEntity
  8
LAY-1
  6
CONTINUOUS
 62
     2
100
AcDbLine
 10
217.615528
 20
219.157618
 30
0.0
 11
217.615528
 21
222.157618
 31
0.0
  0
ARC
  5
1E7
100
AcDbEntity
  8
LAY-1
  6
CONTINUOUS
 62
     2
100
AcDbCircle
 10
214.615528
 20
222.157618
 30
0.0
 40
3.0
100
AcDbArc
 50
0.0
 51
90.0
  0
LINE
  5
1E8
100
AcDbEntity
  8
LAY-1
  6
CONTINUOUS
 62
     2
100
AcDbLine
 10
199.3
 20
227.457618
 30
0.0
 11
209.3
 21
227.457618
 31
0.0
  0
LINE
  5
1E9
100
AcDbEntity
  8
LAY-1
  6
CONTINUOUS
 62
     2
100
AcDbLine
 10
210.847005
 20
232.957618
 30
0.0
 11
199.3
 21
232.957618
 31
0.0
  0
LINE
  5
1EA
100
AcDbEntity
  8
LAY-1
  6
CONTINUOUS
 62
     2
100
AcDbLine
 10
208.488
 20
233.957618
 30
0.0
 11
208.488
 21
232.957618
 31
0.0
  0
ARC
  5
1EB
100
AcDbEntity
  8
LAY-1
  6
CONTINUOUS
 62
     2
100
AcDbCircle
 10
199.3
 20
246.644206
 30
0.0
 40
19.186588
100
AcDbArc
 50
270.0
 51
287.551073
  0
ARC
  5
1EC
100
AcDbEntity
  8
LAY-1
  6
CONTINUOUS
 62
     2
100
AcDbCircle
 10
207.966416
 20
232.490753
 30
0.0
 40
5.043526
100
AcDbArc
 50
235.169827
 51
273.678523
  0
LINE
  5
1ED
100
AcDbEntity
  8
LAY-1
  6
CONTINUOUS
 62
     2
100
AcDbLine
 10
206.083866
 20
230.957618
 30
0.0
 11
205.085827
 21
230.457618
 31
0.0
  0
LINE
  5
1EE
100
AcDbEntity
  8
LAY-1
  6
CONTINUOUS
 62
     2
100
AcDbLine
 10
205.085827
 20
230.457618
 30
0.0
 11
203.052777
 21
230.957618
 31
0.0
  0
LINE
  5
1EF
100
AcDbEntity
  8
LAY-1
  6
CONTINUOUS
 62
     2
100
AcDbLine
 10
203.052777
 20
230.957618
 30
0.0
 11
205.085827
 21
231.457618
 31
0.0
  0
LINE
  5
1F0
100
AcDbEntity
  8
LAY-1
  6
CONTINUOUS
 62
     2
100
AcDbLine
 10
205.085827
 20
231.457618
 30
0.0
 11
206.083866
 21
230.957618
 31
0.0
  0
LINE
  5
1F1
100
AcDbEntity
  8
LAY-1
  6
CONTINUOUS
 62
     2
100
AcDbLine
 10
205.085827
 20
232.957618
 30
0.0
 11
205.085827
 21
231.457618
 31
0.0
  0
LINE
  5
1F2
100
AcDbEntity
  8
LAY-1
  6
CONTINUOUS
 62
     2
100
AcDbLine
 10
205.085827
 20
230.457618
 30
0.0
 11
205.085827
 21
228.350782
 31
0.0
  0
LINE
  5
1F3
100
AcDbEntity
  8
LAY-1
  6
CONTINUOUS
 62
     2
100
AcDbLine
 10
203.3
 20
225.657618
 30
0.0
 11
199.3
 21
225.657618
 31
0.0
  0
LINE
  5
1F4
100
AcDbEntity
  8
LAY-1
  6
CONTINUOUS
 62
     2
100
AcDbLine
 10
204.3
 20
226.657618
 30
0.0
 11
199.3
 21
226.657618
 31
0.0
  0
ARC
  5
1F5
100
AcDbEntity
  8
LAY-1
  6
CONTINUOUS
 62
     2
100
AcDbCircle
 10
199.3
 20
219.757618
 30
0.0
 40
6.5
100
AcDbArc
 50
240.0
 51
270.0
  0
ARC
  5
1F6
100
AcDbEntity
  8
LAY-1
  6
CONTINUOUS
 62
     2
100
AcDbCircle
 10
199.3
 20
219.757618
 30
0.0
 40
6.5
100
AcDbArc
 50
270.0
 51
300.0
  0
ARC
  5
1F7
100
AcDbEntity
  8
LAY-1
  6
CONTINUOUS
 62
     2
100
AcDbCircle
 10
201.8
 20
215.427491
 30
0.0
 40
1.5
100
AcDbArc
 50
300.0
 51
349.635172
  0
LINE
  5
1F8
100
AcDbEntity
  8
LAY-1
  6
CONTINUOUS
 62
     2
100
AcDbLine
 10
212.3
 20
234.957618
 30
0.0
 11
212.3
 21
246.457618
 31
0.0
  0
LINE
  5
1F9
100
AcDbEntity
  8
LAY-1
  6
CONTINUOUS
 62
     2
100
AcDbLine
 10
186.3
 20
234.957618
 30
0.0
 11
186.3
 21
246.457618
 31
0.0
  0
LINE
  5
1FA
100
AcDbEntity
  8
LAY-1
  6
CONTINUOUS
 62
     2
100
AcDbLine
 10
70.253317
 20
146.028809
 30
0.0
 11
70.253317
 21
141.828809
 31
0.0
  0
LINE
  5
1FB
100
AcDbEntity
  8
LAY-1
  6
CONTINUOUS
 62
     2
100
AcDbLine
 10
71.253317
 20
140.553809
 30
0.0
 11
70.253317
 21
141.828809
 31
0.0
  0
LINE
  5
1FC
100
AcDbEntity
  8
LAY-1
  6
CONTINUOUS
 62
     2
100
AcDbLine
 10
71.253317
 20
147.303809
 30
0.0
 11
70.253317
 21
146.028809
 31
0.0
  0
LINE
  5
1FD
100
AcDbEntity
  8
LAY-1
  6
CONTINUOUS
 62
     2
100
AcDbLine
 10
70.253317
 20
127.928809
 30
0.0
 11
70.253317
 21
121.928809
 31
0.0
  0
LINE
  5
1FE
100
AcDbEntity
  8
LAY-1
  6
CONTINUOUS
 62
     2
100
AcDbLine
 10
91.253317
 20
127.928809
 30
0.0
 11
91.253317
 21
121.928809
 31
0.0
  0
ARC
  5
1FF
100
AcDbEntity
  8
LAY-1
  6
CONTINUOUS
 62
     2
100
AcDbCircle
 10
93.983317
 20
132.428809
 30
0.0
 40
2.0
100
AcDbArc
 50
17.165946
 51
90.0
  0
LINE
  5
200
100
AcDbEntity
  8
LAY-1
  6
CONTINUOUS
 62
     2
100
AcDbLine
 10
93.983317
 20
134.428809
 30
0.0
 11
92.253317
 21
134.428809
 31
0.0
  0
ARC
  5
201
100
AcDbEntity
  8
LAY-1
  6
CONTINUOUS
 62
     2
100
AcDbCircle
 10
92.253317
 20
132.428809
 30
0.0
 40
2.0
100
AcDbArc
 50
90.0
 51
180.0
  0
ARC
  5
202
100
AcDbEntity
  8
LAY-1
  6
CONTINUOUS
 62
     2
100
AcDbCircle
 10
91.253317
 20
129.660855
 30
0.0
 40
1.0
100
AcDbArc
 50
180.0
 51
239.999929
  0
ARC
  5
203
100
AcDbEntity
  8
LAY-1
  6
CONTINUOUS
 62
     2
100
AcDbCircle
 10
70.253317
 20
129.660855
 30
0.0
 40
1.0
100
AcDbArc
 50
300.000071
 51
0.0
  0
LINE
  5
204
100
AcDbEntity
  8
LAY-1
  6
CONTINUOUS
 62
     2
100
AcDbLine
 10
90.253317
 20
132.428809
 30
0.0
 11
90.253317
 21
129.660855
 31
0.0
  0
LINE
  5
205
100
AcDbEntity
  8
LAY-1
  6
CONTINUOUS
 62
     2
100
AcDbLine
 10
71.253317
 20
140.553809
 30
0.0
 11
71.253317
 21
129.660855
 31
0.0
  0
LINE
  5
206
100
AcDbEntity
  8
LAY-1
  6
CONTINUOUS
 62
     2
100
AcDbLine
 10
71.253317
 20
158.196763
 30
0.0
 11
71.253317
 21
147.303809
 31
0.0
  0
ARC
  5
207
100
AcDbEntity
  8
LAY-1
  6
CONTINUOUS
 62
     2
100
AcDbCircle
 10
90.253317
 20
127.928809
 30
0.0
 40
1.0
100
AcDbArc
 50
0.0
 51
59.999929
  0
ARC
  5
208
100
AcDbEntity
  8
LAY-1
  6
CONTINUOUS
 62
     2
100
AcDbCircle
 10
71.253317
 20
127.928809
 30
0.0
 40
1.0
100
AcDbArc
 50
120.000071
 51
180.0
  0
ARC
  5
209
100
AcDbEntity
  8
LAY-1
  6
CONTINUOUS
 62
     2
100
AcDbCircle
 10
110.253317
 20
155.928809
 30
0.0
 40
1.0
100
AcDbArc
 50
0.0
 51
90.0
  0
ARC
  5
20A
100
AcDbEntity
  8
LAY-1
  6
CONTINUOUS
 62
     2
100
AcDbCircle
 10
90.253317
 20
121.928809
 30
0.0
 40
1.0
100
AcDbArc
 50
330.0
 51
0.0
  0
LINE
  5
20B
100
AcDbEntity
  8
LAY-1
  6
CONTINUOUS
 62
     2
100
AcDbLine
 10
91.119342
 20
121.428809
 30
0.0
 11
70.387292
 21
121.428809
 31
0.0
  0
ARC
  5
20C
100
AcDbEntity
  8
LAY-1
  6
CONTINUOUS
 62
     2
100
AcDbCircle
 10
71.253317
 20
121.928809
 30
0.0
 40
1.0
100
AcDbArc
 50
180.0
 51
210.0
  0
LINE
  5
20D
100
AcDbEntity
  8
LAY-1
  6
CONTINUOUS
 62
     2
100
AcDbLine
 10
91.119342
 20
166.428809
 30
0.0
 11
70.387292
 21
166.428809
 31
0.0
  0
ARC
  5
20E
100
AcDbEntity
  8
LAY-1
  6
CONTINUOUS
 62
     2
100
AcDbCircle
 10
71.253317
 20
165.928809
 30
0.0
 40
1.0
100
AcDbArc
 50
150.0
 51
180.0
  0
ARC
  5
20F
100
AcDbEntity
  8
LAY-1
  6
CONTINUOUS
 62
     2
100
AcDbCircle
 10
90.253317
 20
165.928809
 30
0.0
 40
1.0
100
AcDbArc
 50
0.0
 51
30.0
  0
LINE
  5
210
100
AcDbEntity
  8
LAY-1
  6
CONTINUOUS
 62
     2
100
AcDbLine
 10
119.553317
 20
147.928809
 30
0.0
 11
118.553317
 21
148.928809
 31
0.0
  0
LINE
  5
211
100
AcDbEntity
  8
LAY-1
  6
CONTINUOUS
 62
     2
100
AcDbLine
 10
120.053317
 20
147.928809
 30
0.0
 11
119.553317
 21
147.928809
 31
0.0
  0
LINE
  5
212
100
AcDbEntity
  8
LAY-1
  6
CONTINUOUS
 62
     2
100
AcDbLine
 10
118.553317
 20
148.928809
 30
0.0
 11
117.753317
 21
148.928809
 31
0.0
  0
LINE
  5
213
100
AcDbEntity
  8
LAY-1
  6
CONTINUOUS
 62
     2
100
AcDbLine
 10
111.253317
 20
155.928809
 30
0.0
 11
111.253317
 21
143.928809
 31
0.0
  0
ARC
  5
214
100
AcDbEntity
  8
LAY-1
  6
CONTINUOUS
 62
     2
100
AcDbCircle
 10
93.983317
 20
155.428809
 30
0.0
 40
2.0
100
AcDbArc
 50
270.0
 51
342.834054
  0
LINE
  5
215
100
AcDbEntity
  8
LAY-1
  6
CONTINUOUS
 62
     2
100
AcDbLine
 10
93.983317
 20
153.428809
 30
0.0
 11
92.253317
 21
153.428809
 31
0.0
  0
ARC
  5
216
100
AcDbEntity
  8
LAY-1
  6
CONTINUOUS
 62
     2
100
AcDbCircle
 10
98.753317
 20
153.928809
 30
0.0
 40
3.0
100
AcDbArc
 50
90.0
 51
162.349722
  0
ARC
  5
217
100
AcDbEntity
  8
LAY-1
  6
CONTINUOUS
 62
     2
100
AcDbCircle
 10
92.253317
 20
155.428809
 30
0.0
 40
2.0
100
AcDbArc
 50
180.0
 51
270.0
  0
ARC
  5
218
100
AcDbEntity
  8
LAY-1
  6
CONTINUOUS
 62
     2
100
AcDbCircle
 10
91.253317
 20
158.196763
 30
0.0
 40
1.0
100
AcDbArc
 50
120.000071
 51
180.0
  0
ARC
  5
219
100
AcDbEntity
  8
LAY-1
  6
CONTINUOUS
 62
     2
100
AcDbCircle
 10
70.253317
 20
158.196763
 30
0.0
 40
1.0
100
AcDbArc
 50
0.0
 51
59.999929
  0
LINE
  5
21A
100
AcDbEntity
  8
LAY-1
  6
CONTINUOUS
 62
     2
100
AcDbLine
 10
90.253317
 20
155.428809
 30
0.0
 11
90.253317
 21
158.196763
 31
0.0
  0
ARC
  5
21B
100
AcDbEntity
  8
LAY-1
  6
CONTINUOUS
 62
     2
100
AcDbCircle
 10
90.253317
 20
159.928809
 30
0.0
 40
1.0
100
AcDbArc
 50
300.000071
 51
0.0
  0
ARC
  5
21C
100
AcDbEntity
  8
LAY-1
  6
CONTINUOUS
 62
     2
100
AcDbCircle
 10
71.253317
 20
159.928809
 30
0.0
 40
1.0
100
AcDbArc
 50
180.0
 51
239.999929
  0
LINE
  5
21D
100
AcDbEntity
  8
LAY-1
  6
CONTINUOUS
 62
     2
100
AcDbLine
 10
70.253317
 20
159.928809
 30
0.0
 11
70.253317
 21
165.928809
 31
0.0
  0
LINE
  5
21E
100
AcDbEntity
  8
LAY-1
  6
CONTINUOUS
 62
     2
100
AcDbLine
 10
91.253317
 20
159.928809
 30
0.0
 11
91.253317
 21
165.928809
 31
0.0
  0
LINE
  5
21F
100
AcDbEntity
  8
LAY-1
  6
CONTINUOUS
 62
     2
100
AcDbLine
 10
79.565317
 20
165.328809
 30
0.0
 11
79.565317
 21
159.328809
 31
0.0
  0
LINE
  5
220
100
AcDbEntity
  8
LAY-1
  6
CONTINUOUS
 62
     2
100
AcDbLine
 10
81.941317
 20
165.328809
 30
0.0
 11
81.941317
 21
159.238809
 31
0.0
  0
LINE
  5
221
100
AcDbEntity
  8
LAY-1
  6
CONTINUOUS
 62
     2
100
AcDbLine
 10
110.253317
 20
156.928809
 30
0.0
 11
98.753317
 21
156.928809
 31
0.0
  0
LINE
  5
222
100
AcDbEntity
  8
LAY-1
  6
CONTINUOUS
 62
     2
100
AcDbLine
 10
116.860153
 20
155.475815
 30
0.0
 11
114.753317
 21
155.475815
 31
0.0
  0
LINE
  5
223
100
AcDbEntity
  8
LAY-1
  6
CONTINUOUS
 62
     2
100
AcDbLine
 10
113.753317
 20
155.475815
 30
0.0
 11
112.253317
 21
155.475815
 31
0.0
  0
LINE
  5
224
100
AcDbEntity
  8
LAY-1
  6
CONTINUOUS
 62
     2
100
AcDbLine
 10
114.253317
 20
154.609789
 30
0.0
 11
113.753317
 21
155.475815
 31
0.0
  0
LINE
  5
225
100
AcDbEntity
  8
LAY-1
  6
CONTINUOUS
 62
     2
100
AcDbLine
 10
114.253317
 20
154.609789
 30
0.0
 11
114.753317
 21
155.475815
 31
0.0
  0
LINE
  5
226
100
AcDbEntity
  8
LAY-1
  6
CONTINUOUS
 62
     2
100
AcDbLine
 10
116.860153
 20
155.475815
 30
0.0
 11
117.753317
 21
153.928809
 31
0.0
  0
LINE
  5
227
100
AcDbEntity
  8
LAY-1
  6
CONTINUOUS
 62
     2
100
AcDbLine
 10
120.053317
 20
143.928809
 30
0.0
 11
120.053317
 21
170.428809
 31
0.0
  0
ARC
  5
228
100
AcDbEntity
  8
LAY-1
  6
CONTINUOUS
 62
     2
100
AcDbCircle
 10
125.053317
 20
166.294878
 30
0.0
 40
5.0
100
AcDbArc
 50
0.0
 51
82.337744
  0
LINE
  5
229
100
AcDbEntity
  8
LAY-1
  6
CONTINUOUS
 62
     2
100
AcDbLine
 10
130.053317
 20
143.928809
 30
0.0
 11
130.053317
 21
166.294878
 31
0.0
  0
ARC
  5
22A
100
AcDbEntity
  8
LAY-1
  6
CONTINUOUS
 62
     2
100
AcDbCircle
 10
123.053317
 20
151.428809
 30
0.0
 40
20.0
100
AcDbArc
 50
82.337744
 51
90.0
  0
LINE
  5
22B
100
AcDbEntity
  8
LAY-1
  6
CONTINUOUS
 62
     2
100
AcDbLine
 10
123.053317
 20
171.428809
 30
0.0
 11
120.733317
 21
171.428809
 31
0.0
  0
ARC
  5
22C
100
AcDbEntity
  8
LAY-1
  6
CONTINUOUS
 62
     2
100
AcDbCircle
 10
121.053317
 20
170.428809
 30
0.0
 40
1.0
100
AcDbArc
 50
90.0
 51
180.0
  0
ARC
  5
22D
100
AcDbEntity
  8
LAY-1
  6
CONTINUOUS
 62
     2
100
AcDbCircle
 10
123.053317
 20
150.040505
 30
0.0
 40
3.0
100
AcDbArc
 50
180.0
 51
270.0
  0
LINE
  5
22E
100
AcDbEntity
  8
LAY-1
  6
CONTINUOUS
 62
     2
100
AcDbLine
 10
125.053317
 20
147.040505
 30
0.0
 11
123.053317
 21
147.040505
 31
0.0
  0
ARC
  5
22F
100
AcDbEntity
  8
LAY-1
  6
CONTINUOUS
 62
     2
100
AcDbCircle
 10
125.053317
 20
152.040505
 30
0.0
 40
5.0
100
AcDbArc
 50
270.0
 51
0.0
  0
ARC
  5
230
100
AcDbEntity
  8
LAY-1
  6
CONTINUOUS
 62
     2
100
AcDbCircle
 10
123.053317
 20
167.545818
 30
0.0
 40
3.0
100
AcDbArc
 50
180.0
 51
270.0
  0
LINE
  5
231
100
AcDbEntity
  8
LAY-1
  6
CONTINUOUS
 62
     2
100
AcDbLine
 10
123.053317
 20
164.545818
 30
0.0
 11
128.053317
 21
164.545818
 31
0.0
  0
ARC
  5
232
100
AcDbEntity
  8
LAY-1
  6
CONTINUOUS
 62
     2
100
AcDbCircle
 10
128.053317
 20
166.545818
 30
0.0
 40
2.0
100
AcDbArc
 50
270.0
 51
0.0
  0
ARC
  5
233
100
AcDbEntity
  8
LAY-1
  6
CONTINUOUS
 62
     2
100
AcDbCircle
 10
126.053317
 20
158.244337
 30
0.0
 40
4.0
100
AcDbArc
 50
0.0
 51
90.0
  0
LINE
  5
234
100
AcDbEntity
  8
LAY-1
  6
CONTINUOUS
 62
     2
100
AcDbLine
 10
126.053317
 20
162.244337
 30
0.0
 11
123.053317
 21
162.244337
 31
0.0
  0
ARC
  5
235
100
AcDbEntity
  8
LAY-1
  6
CONTINUOUS
 62
     2
100
AcDbCircle
 10
123.053317
 20
159.244337
 30
0.0
 40
3.0
100
AcDbArc
 50
90.0
 51
180.0
  0
LINE
  5
236
100
AcDbEntity
  8
LAY-1
  6
CONTINUOUS
 62
     2
100
AcDbLine
 10
117.753317
 20
143.928809
 30
0.0
 11
117.753317
 21
153.928809
 31
0.0
  0
LINE
  5
237
100
AcDbEntity
  8
LAY-1
  6
CONTINUOUS
 62
     2
100
AcDbLine
 10
112.253317
 20
155.475815
 30
0.0
 11
112.253317
 21
143.928809
 31
0.0
  0
LINE
  5
238
100
AcDbEntity
  8
LAY-1
  6
CONTINUOUS
 62
     2
100
AcDbLine
 10
111.253317
 20
153.116809
 30
0.0
 11
112.253317
 21
153.116809
 31
0.0
  0
LINE
  5
239
100
AcDbEntity
  8
LAY-1
  6
CONTINUOUS
 62
     2
100
AcDbLine
 10
95.894542
 20
153.028809
 30
0.0
 11
95.894542
 21
143.928809
 31
0.0
  0
LINE
  5
23A
100
AcDbEntity
  8
LAY-1
  6
CONTINUOUS
 62
     2
100
AcDbLine
 10
89.353317
 20
158.828809
 30
0.0
 11
71.753317
 21
158.828809
 31
0.0
  0
ARC
  5
23B
100
AcDbEntity
  8
LAY-1
  6
CONTINUOUS
 62
     2
100
AcDbCircle
 10
98.566729
 20
143.928809
 30
0.0
 40
19.186588
100
AcDbArc
 50
0.0
 51
17.551073
  0
ARC
  5
23C
100
AcDbEntity
  8
LAY-1
  6
CONTINUOUS
 62
     2
100
AcDbCircle
 10
112.720182
 20
152.595225
 30
0.0
 40
5.043526
100
AcDbArc
 50
325.169827
 51
3.678523
  0
LINE
  5
23D
100
AcDbEntity
  8
LAY-1
  6
CONTINUOUS
 62
     2
100
AcDbLine
 10
114.253317
 20
150.712675
 30
0.0
 11
114.753317
 21
149.714636
 31
0.0
  0
LINE
  5
23E
100
AcDbEntity
  8
LAY-1
  6
CONTINUOUS
 62
     2
100
AcDbLine
 10
114.753317
 20
149.714636
 30
0.0
 11
114.253317
 21
147.681586
 31
0.0
  0
LINE
  5
23F
100
AcDbEntity
  8
LAY-1
  6
CONTINUOUS
 62
     2
100
AcDbLine
 10
114.253317
 20
147.681586
 30
0.0
 11
113.753317
 21
149.714636
 31
0.0
  0
LINE
  5
240
100
AcDbEntity
  8
LAY-1
  6
CONTINUOUS
 62
     2
100
AcDbLine
 10
113.753317
 20
149.714636
 30
0.0
 11
114.253317
 21
150.712675
 31
0.0
  0
LINE
  5
241
100
AcDbEntity
  8
LAY-1
  6
CONTINUOUS
 62
     2
100
AcDbLine
 10
112.253317
 20
149.714636
 30
0.0
 11
113.753317
 21
149.714636
 31
0.0
  0
LINE
  5
242
100
AcDbEntity
  8
LAY-1
  6
CONTINUOUS
 62
     2
100
AcDbLine
 10
114.753317
 20
149.714636
 30
0.0
 11
116.860153
 21
149.714636
 31
0.0
  0
LINE
  5
243
100
AcDbEntity
  8
LAY-1
  6
CONTINUOUS
 62
     2
100
AcDbLine
 10
119.553317
 20
147.928809
 30
0.0
 11
119.553317
 21
143.928809
 31
0.0
  0
LINE
  5
244
100
AcDbEntity
  8
LAY-1
  6
CONTINUOUS
 62
     2
100
AcDbLine
 10
118.553317
 20
148.928809
 30
0.0
 11
118.553317
 21
143.928809
 31
0.0
  0
ARC
  5
245
100
AcDbEntity
  8
LAY-1
  6
CONTINUOUS
 62
     2
100
AcDbCircle
 10
129.783444
 20
146.428809
 30
0.0
 40
1.5
100
AcDbArc
 50
30.0
 51
79.635172
  0
ARC
  5
246
100
AcDbEntity
  8
LAY-1
  6
CONTINUOUS
 62
     2
100
AcDbCircle
 10
110.253317
 20
131.928809
 30
0.0
 40
1.0
100
AcDbArc
 50
270.0
 51
0.0
  0
LINE
  5
247
100
AcDbEntity
  8
LAY-1
  6
CONTINUOUS
 62
     2
100
AcDbLine
 10
119.553317
 20
139.928809
 30
0.0
 11
118.553317
 21
138.928809
 31
0.0
  0
LINE
  5
248
100
AcDbEntity
  8
LAY-1
  6
CONTINUOUS
 62
     2
100
AcDbLine
 10
120.053317
 20
139.928809
 30
0.0
 11
119.553317
 21
139.928809
 31
0.0
  0
LINE
  5
249
100
AcDbEntity
  8
LAY-1
  6
CONTINUOUS
 62
     2
100
AcDbLine
 10
118.553317
 20
138.928809
 30
0.0
 11
117.753317
 21
138.928809
 31
0.0
  0
LINE
  5
24A
100
AcDbEntity
  8
LAY-1
  6
CONTINUOUS
 62
     2
100
AcDbLine
 10
111.253317
 20
131.928809
 30
0.0
 11
111.253317
 21
143.928809
 31
0.0
  0
ARC
  5
24B
100
AcDbEntity
  8
LAY-1
  6
CONTINUOUS
 62
     2
100
AcDbCircle
 10
98.753317
 20
133.928809
 30
0.0
 40
3.0
100
AcDbArc
 50
197.650278
 51
270.0
  0
LINE
  5
24C
100
AcDbEntity
  8
LAY-1
  6
CONTINUOUS
 62
     2
100
AcDbLine
 10
110.253317
 20
130.928809
 30
0.0
 11
98.753317
 21
130.928809
 31
0.0
  0
LINE
  5
24D
100
AcDbEntity
  8
LAY-1
  6
CONTINUOUS
 62
     2
100
AcDbLine
 10
116.860153
 20
132.381804
 30
0.0
 11
114.753317
 21
132.381804
 31
0.0
  0
LINE
  5
24E
100
AcDbEntity
  8
LAY-1
  6
CONTINUOUS
 62
     2
100
AcDbLine
 10
113.753317
 20
132.381804
 30
0.0
 11
112.253317
 21
132.381804
 31
0.0
  0
LINE
  5
24F
100
AcDbEntity
  8
LAY-1
  6
CONTINUOUS
 62
     2
100
AcDbLine
 10
114.253317
 20
133.247829
 30
0.0
 11
113.753317
 21
132.381804
 31
0.0
  0
LINE
  5
250
100
AcDbEntity
  8
LAY-1
  6
CONTINUOUS
 62
     2
100
AcDbLine
 10
114.253317
 20
133.247829
 30
0.0
 11
114.753317
 21
132.381804
 31
0.0
  0
LINE
  5
251
100
AcDbEntity
  8
LAY-1
  6
CONTINUOUS
 62
     2
100
AcDbLine
 10
116.860153
 20
132.381804
 30
0.0
 11
117.753317
 21
133.928809
 31
0.0
  0
LINE
  5
252
100
AcDbEntity
  8
LAY-1
  6
CONTINUOUS
 62
     2
100
AcDbLine
 10
120.053317
 20
143.928809
 30
0.0
 11
120.053317
 21
117.428809
 31
0.0
  0
ARC
  5
253
100
AcDbEntity
  8
LAY-1
  6
CONTINUOUS
 62
     2
100
AcDbCircle
 10
125.053317
 20
121.56274
 30
0.0
 40
5.0
100
AcDbArc
 50
277.662256
 51
0.0
  0
LINE
  5
254
100
AcDbEntity
  8
LAY-1
  6
CONTINUOUS
 62
     2
100
AcDbLine
 10
130.053317
 20
143.928809
 30
0.0
 11
130.053317
 21
121.56274
 31
0.0
  0
ARC
  5
255
100
AcDbEntity
  8
LAY-1
  6
CONTINUOUS
 62
     2
100
AcDbCircle
 10
123.053317
 20
136.428809
 30
0.0
 40
20.0
100
AcDbArc
 50
270.0
 51
277.662256
  0
LINE
  5
256
100
AcDbEntity
  8
LAY-1
  6
CONTINUOUS
 62
     2
100
AcDbLine
 10
123.053317
 20
116.428809
 30
0.0
 11
120.733317
 21
116.428809
 31
0.0
  0
ARC
  5
257
100
AcDbEntity
  8
LAY-1
  6
CONTINUOUS
 62
     2
100
AcDbCircle
 10
121.053317
 20
117.428809
 30
0.0
 40
1.0
100
AcDbArc
 50
180.0
 51
270.0
  0
ARC
  5
258
100
AcDbEntity
  8
LAY-1
  6
CONTINUOUS
 62
     2
100
AcDbCircle
 10
123.053317
 20
137.817114
 30
0.0
 40
3.0
100
AcDbArc
 50
90.0
 51
180.0
  0
LINE
  5
259
100
AcDbEntity
  8
LAY-1
  6
CONTINUOUS
 62
     2
100
AcDbLine
 10
125.053317
 20
140.817114
 30
0.0
 11
123.053317
 21
140.817114
 31
0.0
  0
ARC
  5
25A
100
AcDbEntity
  8
LAY-1
  6
CONTINUOUS
 62
     2
100
AcDbCircle
 10
125.053317
 20
135.817114
 30
0.0
 40
5.0
100
AcDbArc
 50
0.0
 51
90.0
  0
ARC
  5
25B
100
AcDbEntity
  8
LAY-1
  6
CONTINUOUS
 62
     2
100
AcDbCircle
 10
123.053317
 20
120.3118
 30
0.0
 40
3.0
100
AcDbArc
 50
90.0
 51
180.0
  0
LINE
  5
25C
100
AcDbEntity
  8
LAY-1
  6
CONTINUOUS
 62
     2
100
AcDbLine
 10
123.053317
 20
123.3118
 30
0.0
 11
128.053317
 21
123.3118
 31
0.0
  0
ARC
  5
25D
100
AcDbEntity
  8
LAY-1
  6
CONTINUOUS
 62
     2
100
AcDbCircle
 10
128.053317
 20
121.3118
 30
0.0
 40
2.0
100
AcDbArc
 50
0.0
 51
90.0
  0
ARC
  5
25E
100
AcDbEntity
  8
LAY-1
  6
CONTINUOUS
 62
     2
100
AcDbCircle
 10
126.053317
 20
129.613281
 30
0.0
 40
4.0
100
AcDbArc
 50
270.0
 51
0.0
  0
LINE
  5
25F
100
AcDbEntity
  8
LAY-1
  6
CONTINUOUS
 62
     2
100
AcDbLine
 10
126.053317
 20
125.613281
 30
0.0
 11
123.053317
 21
125.613281
 31
0.0
  0
ARC
  5
260
100
AcDbEntity
  8
LAY-1
  6
CONTINUOUS
 62
     2
100
AcDbCircle
 10
123.053317
 20
128.613281
 30
0.0
 40
3.0
100
AcDbArc
 50
180.0
 51
270.0
  0
LINE
  5
261
100
AcDbEntity
  8
LAY-1
  6
CONTINUOUS
 62
     2
100
AcDbLine
 10
117.753317
 20
143.928809
 30
0.0
 11
117.753317
 21
133.928809
 31
0.0
  0
LINE
  5
262
100
AcDbEntity
  8
LAY-1
  6
CONTINUOUS
 62
     2
100
AcDbLine
 10
112.253317
 20
132.381804
 30
0.0
 11
112.253317
 21
143.928809
 31
0.0
  0
LINE
  5
263
100
AcDbEntity
  8
LAY-1
  6
CONTINUOUS
 62
     2
100
AcDbLine
 10
111.253317
 20
134.740809
 30
0.0
 11
112.253317
 21
134.740809
 31
0.0
  0
LINE
  5
264
100
AcDbEntity
  8
LAY-1
  6
CONTINUOUS
 62
     2
100
AcDbLine
 10
95.894542
 20
134.828809
 30
0.0
 11
95.894542
 21
143.928809
 31
0.0
  0
ARC
  5
265
100
AcDbEntity
  8
LAY-1
  6
CONTINUOUS
 62
     2
100
AcDbCircle
 10
98.566729
 20
143.928809
 30
0.0
 40
19.186588
100
AcDbArc
 50
342.448927
 51
0.0
  0
ARC
  5
266
100
AcDbEntity
  8
LAY-1
  6
CONTINUOUS
 62
     2
100
AcDbCircle
 10
112.720182
 20
135.262393
 30
0.0
 40
5.043526
100
AcDbArc
 50
356.321477
 51
34.830173
  0
LINE
  5
267
100
AcDbEntity
  8
LAY-1
  6
CONTINUOUS
 62
     2
100
AcDbLine
 10
114.253317
 20
137.144943
 30
0.0
 11
114.753317
 21
138.142982
 31
0.0
  0
LINE
  5
268
100
AcDbEntity
  8
LAY-1
  6
CONTINUOUS
 62
     2
100
AcDbLine
 10
114.753317
 20
138.142982
 30
0.0
 11
114.253317
 21
140.176032
 31
0.0
  0
LINE
  5
269
100
AcDbEntity
  8
LAY-1
  6
CONTINUOUS
 62
     2
100
AcDbLine
 10
114.253317
 20
140.176032
 30
0.0
 11
113.753317
 21
138.142982
 31
0.0
  0
LINE
  5
26A
100
AcDbEntity
  8
LAY-1
  6
CONTINUOUS
 62
     2
100
AcDbLine
 10
113.753317
 20
138.142982
 30
0.0
 11
114.253317
 21
137.144943
 31
0.0
  0
LINE
  5
26B
100
AcDbEntity
  8
LAY-1
  6
CONTINUOUS
 62
     2
100
AcDbLine
 10
112.253317
 20
138.142982
 30
0.0
 11
113.753317
 21
138.142982
 31
0.0
  0
LINE
  5
26C
100
AcDbEntity
  8
LAY-1
  6
CONTINUOUS
 62
     2
100
AcDbLine
 10
114.753317
 20
138.142982
 30
0.0
 11
116.860153
 21
138.142982
 31
0.0
  0
LINE
  5
26D
100
AcDbEntity
  8
LAY-1
  6
CONTINUOUS
 62
     2
100
AcDbLine
 10
119.553317
 20
139.928809
 30
0.0
 11
119.553317
 21
143.928809
 31
0.0
  0
LINE
  5
26E
100
AcDbEntity
  8
LAY-1
  6
CONTINUOUS
 62
     2
100
AcDbLine
 10
118.553317
 20
138.928809
 30
0.0
 11
118.553317
 21
143.928809
 31
0.0
  0
ARC
  5
26F
100
AcDbEntity
  8
LAY-1
  6
CONTINUOUS
 62
     2
100
AcDbCircle
 10
125.453317
 20
143.928809
 30
0.0
 40
6.5
100
AcDbArc
 50
0.0
 51
30.0
  0
ARC
  5
270
100
AcDbEntity
  8
LAY-1
  6
CONTINUOUS
 62
     2
100
AcDbCircle
 10
125.453317
 20
143.928809
 30
0.0
 40
6.5
100
AcDbArc
 50
330.0
 51
0.0
  0
ARC
  5
271
100
AcDbEntity
  8
LAY-1
  6
CONTINUOUS
 62
     2
100
AcDbCircle
 10
129.783444
 20
141.428809
 30
0.0
 40
1.5
100
AcDbArc
 50
280.364828
 51
330.0
  0
ARC
  5
272
100
AcDbEntity
  8
LAY-1
  6
CONTINUOUS
 62
     2
100
AcDbCircle
 10
74.253317
 20
140.538421
 30
0.0
 40
0.5
100
AcDbArc
 50
0.0
 51
75.963757
  0
LINE
  5
273
100
AcDbEntity
  8
LAY-1
  6
CONTINUOUS
 62
     2
100
AcDbLine
 10
74.753317
 20
133.428809
 30
0.0
 11
74.753317
 21
140.538421
 31
0.0
  0
LINE
  5
274
100
AcDbEntity
  8
LAY-1
  6
CONTINUOUS
 62
     2
100
AcDbLine
 10
85.753317
 20
132.928809
 30
0.0
 11
75.253317
 21
132.928809
 31
0.0
  0
ARC
  5
275
100
AcDbEntity
  8
LAY-1
  6
CONTINUOUS
 62
     2
100
AcDbCircle
 10
75.253317
 20
133.428809
 30
0.0
 40
0.5
100
AcDbArc
 50
180.0
 51
270.0
  0
LINE
  5
276
100
AcDbEntity
  8
LAY-1
  6
CONTINUOUS
 62
     2
100
AcDbLine
 10
71.253317
 20
140.553809
 30
0.0
 11
73.374585
 21
140.023492
 31
0.0
  0
ARC
  5
277
100
AcDbEntity
  8
LAY-1
  6
CONTINUOUS
 62
     2
100
AcDbCircle
 10
73.253317
 20
139.538421
 30
0.0
 40
0.5
100
AcDbArc
 50
0.0
 51
75.963757
  0
LINE
  5
278
100
AcDbEntity
  8
LAY-1
  6
CONTINUOUS
 62
     2
100
AcDbLine
 10
70.753317
 20
143.928809
 30
0.0
 11
70.753317
 21
142.319197
 31
0.0
  0
LINE
  5
279
100
AcDbEntity
  8
LAY-1
  6
CONTINUOUS
 62
     2
100
AcDbLine
 10
71.132049
 20
141.834126
 30
0.0
 11
74.374585
 21
141.023492
 31
0.0
  0
ARC
  5
27A
100
AcDbEntity
  8
LAY-1
  6
CONTINUOUS
 62
     2
100
AcDbCircle
 10
71.253317
 20
142.319197
 30
0.0
 40
0.5
100
AcDbArc
 50
180.0
 51
255.963757
  0
ARC
  5
27B
100
AcDbEntity
  8
LAY-1
  6
CONTINUOUS
 62
     2
100
AcDbCircle
 10
74.253317
 20
132.428809
 30
0.0
 40
0.5
100
AcDbArc
 50
180.0
 51
278.130102
  0
ARC
  5
27C
100
AcDbEntity
  8
LAY-1
  6
CONTINUOUS
 62
     2
100
AcDbCircle
 10
86.253317
 20
132.428809
 30
0.0
 40
0.5
100
AcDbArc
 50
260.537678
 51
0.0
  0
LINE
  5
27D
100
AcDbEntity
  8
LAY-1
  6
CONTINUOUS
 62
     2
100
AcDbLine
 10
86.163153
 20
131.937006
 30
0.0
 11
80.753317
 21
132.928809
 31
0.0
  0
LINE
  5
27E
100
AcDbEntity
  8
LAY-1
  6
CONTINUOUS
 62
     2
100
AcDbLine
 10
74.329788
 20
131.934691
 30
0.0
 11
80.753317
 21
132.928809
 31
0.0
  0
LINE
  5
27F
100
AcDbEntity
  8
LAY-1
  6
CONTINUOUS
 62
     2
100
AcDbLine
 10
73.753317
 20
139.538421
 30
0.0
 11
73.753317
 21
132.428809
 31
0.0
  0
LINE
  5
280
100
AcDbEntity
  8
LAY-1
  6
CONTINUOUS
 62
     2
100
AcDbLine
 10
86.753317
 20
132.428809
 30
0.0
 11
86.753317
 21
143.928809
 31
0.0
  0
ARC
  5
281
100
AcDbEntity
  8
LAY-1
  6
CONTINUOUS
 62
     2
100
AcDbCircle
 10
70.753317
 20
140.38112
 30
0.0
 40
0.5
100
AcDbArc
 50
0.0
 51
38.107577
  0
LINE
  5
282
100
AcDbEntity
  8
LAY-1
  6
CONTINUOUS
 62
     2
100
AcDbLine
 10
85.753317
 20
143.928809
 30
0.0
 11
85.753317
 21
154.928809
 31
0.0
  0
ARC
  5
283
100
AcDbEntity
  8
LAY-1
  6
CONTINUOUS
 62
     2
100
AcDbCircle
 10
74.253317
 20
147.319197
 30
0.0
 40
0.5
100
AcDbArc
 50
284.036243
 51
0.0
  0
LINE
  5
284
100
AcDbEntity
  8
LAY-1
  6
CONTINUOUS
 62
     2
100
AcDbLine
 10
85.753317
 20
154.928809
 30
0.0
 11
75.253317
 21
154.928809
 31
0.0
  0
ARC
  5
285
100
AcDbEntity
  8
LAY-1
  6
CONTINUOUS
 62
     2
100
AcDbCircle
 10
75.253317
 20
154.428809
 30
0.0
 40
0.5
100
AcDbArc
 50
90.0
 51
180.0
  0
ARC
  5
286
100
AcDbEntity
  8
LAY-1
  6
CONTINUOUS
 62
     2
100
AcDbCircle
 10
73.253317
 20
148.319197
 30
0.0
 40
0.5
100
AcDbArc
 50
284.036243
 51
0.0
  0
LINE
  5
287
100
AcDbEntity
  8
LAY-1
  6
CONTINUOUS
 62
     2
100
AcDbLine
 10
70.753317
 20
143.928809
 30
0.0
 11
70.753317
 21
145.538421
 31
0.0
  0
ARC
  5
288
100
AcDbEntity
  8
LAY-1
  6
CONTINUOUS
 62
     2
100
AcDbCircle
 10
71.253317
 20
145.538421
 30
0.0
 40
0.5
100
AcDbArc
 50
104.036243
 51
180.0
  0
ARC
  5
289
100
AcDbEntity
  8
LAY-1
  6
CONTINUOUS
 62
     2
100
AcDbCircle
 10
74.253317
 20
155.428809
 30
0.0
 40
0.5
100
AcDbArc
 50
81.869898
 51
180.0
  0
ARC
  5
28A
100
AcDbEntity
  8
LAY-1
  6
CONTINUOUS
 62
     2
100
AcDbCircle
 10
86.253317
 20
155.428809
 30
0.0
 40
0.5
100
AcDbArc
 50
0.0
 51
99.462322
  0
LINE
  5
28B
100
AcDbEntity
  8
LAY-1
  6
CONTINUOUS
 62
     2
100
AcDbLine
 10
86.163153
 20
155.920612
 30
0.0
 11
80.753317
 21
154.928809
 31
0.0
  0
LINE
  5
28C
100
AcDbEntity
  8
LAY-1
  6
CONTINUOUS
 62
     2
100
AcDbLine
 10
74.329788
 20
155.922927
 30
0.0
 11
80.753317
 21
154.928809
 31
0.0
  0
LINE
  5
28D
100
AcDbEntity
  8
LAY-1
  6
CONTINUOUS
 62
     2
100
AcDbLine
 10
86.753317
 20
155.428809
 30
0.0
 11
86.753317
 21
143.928809
 31
0.0
  0
ARC
  5
28E
100
AcDbEntity
  8
LAY-1
  6
CONTINUOUS
 62
     2
100
AcDbCircle
 10
70.753317
 20
147.476498
 30
0.0
 40
0.5
100
AcDbArc
 50
321.892423
 51
0.0
  0
LINE
  5
28F
100
AcDbEntity
  8
LAY-1
  6
CONTINUOUS
 62
     2
100
AcDbLine
 10
85.753317
 20
143.928809
 30
0.0
 11
85.753317
 21
132.928809
 31
0.0
  0
LINE
  5
290
100
AcDbEntity
  8
LAY-1
  6
CONTINUOUS
 62
     2
100
AcDbLine
 10
76.253317
 20
136.428809
 30
0.0
 11
76.253317
 21
151.428809
 31
0.0
  0
LINE
  5
291
100
AcDbEntity
  8
LAY-1
  6
CONTINUOUS
 62
     2
100
AcDbLine
 10
84.753317
 20
135.928809
 30
0.0
 11
76.753317
 21
135.928809
 31
0.0
  0
LINE
  5
292
100
AcDbEntity
  8
LAY-1
  6
CONTINUOUS
 62
     2
100
AcDbLine
 10
85.253317
 20
151.428809
 30
0.0
 11
85.253317
 21
136.428809
 31
0.0
  0
LINE
  5
293
100
AcDbEntity
  8
LAY-1
  6
CONTINUOUS
 62
     2
100
AcDbLine
 10
84.753317
 20
151.928809
 30
0.0
 11
76.753317
 21
151.928809
 31
0.0
  0
ARC
  5
294
100
AcDbEntity
  8
LAY-1
  6
CONTINUOUS
 62
     2
100
AcDbCircle
 10
84.753317
 20
151.428809
 30
0.0
 40
0.5
100
AcDbArc
 50
0.0
 51
90.0
  0
ARC
  5
295
100
AcDbEntity
  8
LAY-1
  6
CONTINUOUS
 62
     2
100
AcDbCircle
 10
84.753317
 20
136.428809
 30
0.0
 40
0.5
100
AcDbArc
 50
270.0
 51
0.0
  0
ARC
  5
296
100
AcDbEntity
  8
LAY-1
  6
CONTINUOUS
 62
     2
100
AcDbCircle
 10
76.753317
 20
136.428809
 30
0.0
 40
0.5
100
AcDbArc
 50
180.0
 51
270.0
  0
ARC
  5
297
100
AcDbEntity
  8
LAY-1
  6
CONTINUOUS
 62
     2
100
AcDbCircle
 10
76.753317
 20
151.428809
 30
0.0
 40
0.5
100
AcDbArc
 50
90.0
 51
180.0
  0
LINE
  5
298
100
AcDbEntity
  8
LAY-1
  6
CONTINUOUS
 62
     2
100
AcDbLine
 10
73.753317
 20
148.319197
 30
0.0
 11
73.753317
 21
155.428809
 31
0.0
  0
LINE
  5
299
100
AcDbEntity
  8
LAY-1
  6
CONTINUOUS
 62
     2
100
AcDbLine
 10
71.253317
 20
147.303809
 30
0.0
 11
73.374585
 21
147.834126
 31
0.0
  0
LINE
  5
29A
100
AcDbEntity
  8
LAY-1
  6
CONTINUOUS
 62
     2
100
AcDbLine
 10
71.132049
 20
146.023492
 30
0.0
 11
74.374585
 21
146.834126
 31
0.0
  0
LINE
  5
29B
100
AcDbEntity
  8
LAY-1
  6
CONTINUOUS
 62
     2
100
AcDbLine
 10
74.753317
 20
154.428809
 30
0.0
 11
74.753317
 21
147.319197
 31
0.0
  0
LINE
  5
29C
100
AcDbEntity
  8
LAY-1
  6
CONTINUOUS
 62
     2
100
AcDbLine
 10
91.753317
 20
148.928809
 30
0.0
 11
92.753317
 21
149.928809
 31
0.0
  0
LINE
  5
29D
100
AcDbEntity
  8
LAY-1
  6
CONTINUOUS
 62
     2
100
AcDbLine
 10
92.753317
 20
144.428809
 30
0.0
 11
92.253317
 21
143.928809
 31
0.0
  0
LINE
  5
29E
100
AcDbEntity
  8
LAY-1
  6
CONTINUOUS
 62
     2
100
AcDbLine
 10
92.753317
 20
149.928809
 30
0.0
 11
92.753317
 21
144.428809
 31
0.0
  0
LINE
  5
29F
100
AcDbEntity
  8
LAY-1
  6
CONTINUOUS
 62
     2
100
AcDbLine
 10
91.753317
 20
148.928809
 30
0.0
 11
90.753317
 21
149.928809
 31
0.0
  0
LINE
  5
2A0
100
AcDbEntity
  8
LAY-1
  6
CONTINUOUS
 62
     2
100
AcDbLine
 10
90.753317
 20
144.428809
 30
0.0
 11
91.253317
 21
143.928809
 31
0.0
  0
LINE
  5
2A1
100
AcDbEntity
  8
LAY-1
  6
CONTINUOUS
 62
     2
100
AcDbLine
 10
90.753317
 20
149.928809
 30
0.0
 11
90.753317
 21
144.428809
 31
0.0
  0
LINE
  5
2A2
100
AcDbEntity
  8
LAY-1
  6
CONTINUOUS
 62
     2
100
AcDbLine
 10
92.753317
 20
139.66086
 30
0.0
 11
91.753317
 21
137.928809
 31
0.0
  0
LINE
  5
2A3
100
AcDbEntity
  8
LAY-1
  6
CONTINUOUS
 62
     2
100
AcDbLine
 10
92.753317
 20
139.66086
 30
0.0
 11
92.253317
 21
139.66086
 31
0.0
  0
LINE
  5
2A4
100
AcDbEntity
  8
LAY-1
  6
CONTINUOUS
 62
     2
100
AcDbLine
 10
90.753317
 20
139.66086
 30
0.0
 11
91.753317
 21
137.928809
 31
0.0
  0
LINE
  5
2A5
100
AcDbEntity
  8
LAY-1
  6
CONTINUOUS
 62
     2
100
AcDbLine
 10
90.753317
 20
139.66086
 30
0.0
 11
91.253317
 21
139.66086
 31
0.0
  0
LINE
  5
2A6
100
AcDbEntity
  8
LAY-1
  6
CONTINUOUS
 62
     2
100
AcDbLine
 10
92.253317
 20
143.928809
 30
0.0
 11
92.253317
 21
139.66086
 31
0.0
  0
LINE
  5
2A7
100
AcDbEntity
  8
LAY-1
  6
CONTINUOUS
 62
     2
100
AcDbLine
 10
91.253317
 20
143.928809
 30
0.0
 11
91.253317
 21
139.66086
 31
0.0
  0
LINE
  5
2A8
100
AcDbEntity
  8
LAY-1
  6
CONTINUOUS
 62
     2
100
AcDbLine
 10
327.546683
 20
146.028809
 30
0.0
 11
327.546683
 21
141.828809
 31
0.0
  0
LINE
  5
2A9
100
AcDbEntity
  8
LAY-1
  6
CONTINUOUS
 62
     2
100
AcDbLine
 10
326.546683
 20
140.553809
 30
0.0
 11
327.546683
 21
141.828809
 31
0.0
  0
LINE
  5
2AA
100
AcDbEntity
  8
LAY-1
  6
CONTINUOUS
 62
     2
100
AcDbLine
 10
326.546683
 20
147.303809
 30
0.0
 11
327.546683
 21
146.028809
 31
0.0
  0
LINE
  5
2AB
100
AcDbEntity
  8
LAY-1
  6
CONTINUOUS
 62
     2
100
AcDbLine
 10
327.546683
 20
127.928809
 30
0.0
 11
327.546683
 21
121.928809
 31
0.0
  0
LINE
  5
2AC
100
AcDbEntity
  8
LAY-1
  6
CONTINUOUS
 62
     2
100
AcDbLine
 10
306.546683
 20
127.928809
 30
0.0
 11
306.546683
 21
121.928809
 31
0.0
  0
ARC
  5
2AD
100
AcDbEntity
  8
LAY-1
  6
CONTINUOUS
 62
     2
100
AcDbCircle
 10
303.816683
 20
132.428809
 30
0.0
 40
2.0
100
AcDbArc
 50
90.0
 51
162.834054
  0
LINE
  5
2AE
100
AcDbEntity
  8
LAY-1
  6
CONTINUOUS
 62
     2
100
AcDbLine
 10
303.816683
 20
134.428809
 30
0.0
 11
305.546683
 21
134.428809
 31
0.0
  0
ARC
  5
2AF
100
AcDbEntity
  8
LAY-1
  6
CONTINUOUS
 62
     2
100
AcDbCircle
 10
305.546683
 20
132.428809
 30
0.0
 40
2.0
100
AcDbArc
 50
0.0
 51
90.0
  0
ARC
  5
2B0
100
AcDbEntity
  8
LAY-1
  6
CONTINUOUS
 62
     2
100
AcDbCircle
 10
306.546683
 20
129.660855
 30
0.0
 40
1.0
100
AcDbArc
 50
300.000071
 51
0.0
  0
ARC
  5
2B1
100
AcDbEntity
  8
LAY-1
  6
CONTINUOUS
 62
     2
100
AcDbCircle
 10
327.546683
 20
129.660855
 30
0.0
 40
1.0
100
AcDbArc
 50
180.0
 51
239.999929
  0
LINE
  5
2B2
100
AcDbEntity
  8
LAY-1
  6
CONTINUOUS
 62
     2
100
AcDbLine
 10
307.546683
 20
132.428809
 30
0.0
 11
307.546683
 21
129.660855
 31
0.0
  0
LINE
  5
2B3
100
AcDbEntity
  8
LAY-1
  6
CONTINUOUS
 62
     2
100
AcDbLine
 10
326.546683
 20
140.553809
 30
0.0
 11
326.546683
 21
129.660855
 31
0.0
  0
LINE
  5
2B4
100
AcDbEntity
  8
LAY-1
  6
CONTINUOUS
 62
     2
100
AcDbLine
 10
326.546683
 20
158.196763
 30
0.0
 11
326.546683
 21
147.303809
 31
0.0
  0
ARC
  5
2B5
100
AcDbEntity
  8
LAY-1
  6
CONTINUOUS
 62
     2
100
AcDbCircle
 10
307.546683
 20
127.928809
 30
0.0
 40
1.0
100
AcDbArc
 50
120.000071
 51
180.0
  0
ARC
  5
2B6
100
AcDbEntity
  8
LAY-1
  6
CONTINUOUS
 62
     2
100
AcDbCircle
 10
326.546683
 20
127.928809
 30
0.0
 40
1.0
100
AcDbArc
 50
0.0
 51
59.999929
  0
ARC
  5
2B7
100
AcDbEntity
  8
LAY-1
  6
CONTINUOUS
 62
     2
100
AcDbCircle
 10
287.546683
 20
155.928809
 30
0.0
 40
1.0
100
AcDbArc
 50
90.0
 51
180.0
  0
ARC
  5
2B8
100
AcDbEntity
  8
LAY-1
  6
CONTINUOUS
 62
     2
100
AcDbCircle
 10
307.546683
 20
121.928809
 30
0.0
 40
1.0
100
AcDbArc
 50
180.0
 51
210.0
  0
LINE
  5
2B9
100
AcDbEntity
  8
LAY-1
  6
CONTINUOUS
 62
     2
100
AcDbLine
 10
306.680658
 20
121.428809
 30
0.0
 11
327.412708
 21
121.428809
 31
0.0
  0
ARC
  5
2BA
100
AcDbEntity
  8
LAY-1
  6
CONTINUOUS
 62
     2
100
AcDbCircle
 10
326.546683
 20
121.928809
 30
0.0
 40
1.0
100
AcDbArc
 50
330.0
 51
0.0
  0
LINE
  5
2BB
100
AcDbEntity
  8
LAY-1
  6
CONTINUOUS
 62
     2
100
AcDbLine
 10
306.680658
 20
166.428809
 30
0.0
 11
327.412708
 21
166.428809
 31
0.0
  0
ARC
  5
2BC
100
AcDbEntity
  8
LAY-1
  6
CONTINUOUS
 62
     2
100
AcDbCircle
 10
326.546683
 20
165.928809
 30
0.0
 40
1.0
100
AcDbArc
 50
0.0
 51
30.0
  0
ARC
  5
2BD
100
AcDbEntity
  8
LAY-1
  6
CONTINUOUS
 62
     2
100
AcDbCircle
 10
307.546683
 20
165.928809
 30
0.0
 40
1.0
100
AcDbArc
 50
150.0
 51
180.0
  0
LINE
  5
2BE
100
AcDbEntity
  8
LAY-1
  6
CONTINUOUS
 62
     2
100
AcDbLine
 10
278.246683
 20
147.928809
 30
0.0
 11
279.246683
 21
148.928809
 31
0.0
  0
LINE
  5
2BF
100
AcDbEntity
  8
LAY-1
  6
CONTINUOUS
 62
     2
100
AcDbLine
 10
277.746683
 20
147.928809
 30
0.0
 11
278.246683
 21
147.928809
 31
0.0
  0
LINE
  5
2C0
100
AcDbEntity
  8
LAY-1
  6
CONTINUOUS
 62
     2
100
AcDbLine
 10
279.246683
 20
148.928809
 30
0.0
 11
280.046683
 21
148.928809
 31
0.0
  0
LINE
  5
2C1
100
AcDbEntity
  8
LAY-1
  6
CONTINUOUS
 62
     2
100
AcDbLine
 10
286.546683
 20
155.928809
 30
0.0
 11
286.546683
 21
143.928809
 31
0.0
  0
ARC
  5
2C2
100
AcDbEntity
  8
LAY-1
  6
CONTINUOUS
 62
     2
100
AcDbCircle
 10
303.816683
 20
155.428809
 30
0.0
 40
2.0
100
AcDbArc
 50
197.165946
 51
270.0
  0
LINE
  5
2C3
100
AcDbEntity
  8
LAY-1
  6
CONTINUOUS
 62
     2
100
AcDbLine
 10
303.816683
 20
153.428809
 30
0.0
 11
305.546683
 21
153.428809
 31
0.0
  0
ARC
  5
2C4
100
AcDbEntity
  8
LAY-1
  6
CONTINUOUS
 62
     2
100
AcDbCircle
 10
299.046683
 20
153.928809
 30
0.0
 40
3.0
100
AcDbArc
 50
17.650278
 51
90.0
  0
ARC
  5
2C5
100
AcDbEntity
  8
LAY-1
  6
CONTINUOUS
 62
     2
100
AcDbCircle
 10
305.546683
 20
155.428809
 30
0.0
 40
2.0
100
AcDbArc
 50
270.0
 51
0.0
  0
ARC
  5
2C6
100
AcDbEntity
  8
LAY-1
  6
CONTINUOUS
 62
     2
100
AcDbCircle
 10
306.546683
 20
158.196763
 30
0.0
 40
1.0
100
AcDbArc
 50
0.0
 51
59.999929
  0
ARC
  5
2C7
100
AcDbEntity
  8
LAY-1
  6
CONTINUOUS
 62
     2
100
AcDbCircle
 10
327.546683
 20
158.196763
 30
0.0
 40
1.0
100
AcDbArc
 50
120.000071
 51
180.0
  0
LINE
  5
2C8
100
AcDbEntity
  8
LAY-1
  6
CONTINUOUS
 62
     2
100
AcDbLine
 10
307.546683
 20
155.428809
 30
0.0
 11
307.546683
 21
158.196763
 31
0.0
  0
ARC
  5
2C9
100
AcDbEntity
  8
LAY-1
  6
CONTINUOUS
 62
     2
100
AcDbCircle
 10
307.546683
 20
159.928809
 30
0.0
 40
1.0
100
AcDbArc
 50
180.0
 51
239.999929
  0
ARC
  5
2CA
100
AcDbEntity
  8
LAY-1
  6
CONTINUOUS
 62
     2
100
AcDbCircle
 10
326.546683
 20
159.928809
 30
0.0
 40
1.0
100
AcDbArc
 50
300.000071
 51
0.0
  0
LINE
  5
2CB
100
AcDbEntity
  8
LAY-1
  6
CONTINUOUS
 62
     2
100
AcDbLine
 10
327.546683
 20
159.928809
 30
0.0
 11
327.546683
 21
165.928809
 31
0.0
  0
LINE
  5
2CC
100
AcDbEntity
  8
LAY-1
  6
CONTINUOUS
 62
     2
100
AcDbLine
 10
306.546683
 20
159.928809
 30
0.0
 11
306.546683
 21
165.928809
 31
0.0
  0
LINE
  5
2CD
100
AcDbEntity
  8
LAY-1
  6
CONTINUOUS
 62
     2
100
AcDbLine
 10
318.234683
 20
165.328809
 30
0.0
 11
318.234683
 21
159.328809
 31
0.0
  0
LINE
  5
2CE
100
AcDbEntity
  8
LAY-1
  6
CONTINUOUS
 62
     2
100
AcDbLine
 10
315.858683
 20
165.328809
 30
0.0
 11
315.858683
 21
159.238809
 31
0.0
  0
LINE
  5
2CF
100
AcDbEntity
  8
LAY-1
  6
CONTINUOUS
 62
     2
100
AcDbLine
 10
287.546683
 20
156.928809
 30
0.0
 11
299.046683
 21
156.928809
 31
0.0
  0
LINE
  5
2D0
100
AcDbEntity
  8
LAY-1
  6
CONTINUOUS
 62
     2
100
AcDbLine
 10
280.939847
 20
155.475815
 30
0.0
 11
283.046683
 21
155.475815
 31
0.0
  0
LINE
  5
2D1
100
AcDbEntity
  8
LAY-1
  6
CONTINUOUS
 62
     2
100
AcDbLine
 10
284.046683
 20
155.475815
 30
0.0
 11
285.546683
 21
155.475815
 31
0.0
  0
LINE
  5
2D2
100
AcDbEntity
  8
LAY-1
  6
CONTINUOUS
 62
     2
100
AcDbLine
 10
283.546683
 20
154.609789
 30
0.0
 11
284.046683
 21
155.475815
 31
0.0
  0
LINE
  5
2D3
100
AcDbEntity
  8
LAY-1
  6
CONTINUOUS
 62
     2
100
AcDbLine
 10
283.546683
 20
154.609789
 30
0.0
 11
283.046683
 21
155.475815
 31
0.0
  0
LINE
  5
2D4
100
AcDbEntity
  8
LAY-1
  6
CONTINUOUS
 62
     2
100
AcDbLine
 10
280.939847
 20
155.475815
 30
0.0
 11
280.046683
 21
153.928809
 31
0.0
  0
LINE
  5
2D5
100
AcDbEntity
  8
LAY-1
  6
CONTINUOUS
 62
     2
100
AcDbLine
 10
277.746683
 20
143.928809
 30
0.0
 11
277.746683
 21
170.428809
 31
0.0
  0
ARC
  5
2D6
100
AcDbEntity
  8
LAY-1
  6
CONTINUOUS
 62
     2
100
AcDbCircle
 10
272.746683
 20
166.294878
 30
0.0
 40
5.0
100
AcDbArc
 50
97.662256
 51
180.0
  0
LINE
  5
2D7
100
AcDbEntity
  8
LAY-1
  6
CONTINUOUS
 62
     2
100
AcDbLine
 10
267.746683
 20
143.928809
 30
0.0
 11
267.746683
 21
166.294878
 31
0.0
  0
ARC
  5
2D8
100
AcDbEntity
  8
LAY-1
  6
CONTINUOUS
 62
     2
100
AcDbCircle
 10
274.746683
 20
151.428809
 30
0.0
 40
20.0
100
AcDbArc
 50
90.0
 51
97.662256
  0
LINE
  5
2D9
100
AcDbEntity
  8
LAY-1
  6
CONTINUOUS
 62
     2
100
AcDbLine
 10
274.746683
 20
171.428809
 30
0.0
 11
277.066683
 21
171.428809
 31
0.0
  0
ARC
  5
2DA
100
AcDbEntity
  8
LAY-1
  6
CONTINUOUS
 62
     2
100
AcDbCircle
 10
276.746683
 20
170.428809
 30
0.0
 40
1.0
100
AcDbArc
 50
0.0
 51
90.0
  0
ARC
  5
2DB
100
AcDbEntity
  8
LAY-1
  6
CONTINUOUS
 62
     2
100
AcDbCircle
 10
274.746683
 20
150.040505
 30
0.0
 40
3.0
100
AcDbArc
 50
270.0
 51
0.0
  0
LINE
  5
2DC
100
AcDbEntity
  8
LAY-1
  6
CONTINUOUS
 62
     2
100
AcDbLine
 10
272.746683
 20
147.040505
 30
0.0
 11
274.746683
 21
147.040505
 31
0.0
  0
ARC
  5
2DD
100
AcDbEntity
  8
LAY-1
  6
CONTINUOUS
 62
     2
100
AcDbCircle
 10
272.746683
 20
152.040505
 30
0.0
 40
5.0
100
AcDbArc
 50
180.0
 51
270.0
  0
ARC
  5
2DE
100
AcDbEntity
  8
LAY-1
  6
CONTINUOUS
 62
     2
100
AcDbCircle
 10
274.746683
 20
167.545818
 30
0.0
 40
3.0
100
AcDbArc
 50
270.0
 51
0.0
  0
LINE
  5
2DF
100
AcDbEntity
  8
LAY-1
  6
CONTINUOUS
 62
     2
100
AcDbLine
 10
274.746683
 20
164.545818
 30
0.0
 11
269.746683
 21
164.545818
 31
0.0
  0
ARC
  5
2E0
100
AcDbEntity
  8
LAY-1
  6
CONTINUOUS
 62
     2
100
AcDbCircle
 10
269.746683
 20
166.545818
 30
0.0
 40
2.0
100
AcDbArc
 50
180.0
 51
270.0
  0
ARC
  5
2E1
100
AcDbEntity
  8
LAY-1
  6
CONTINUOUS
 62
     2
100
AcDbCircle
 10
271.746683
 20
158.244337
 30
0.0
 40
4.0
100
AcDbArc
 50
90.0
 51
180.0
  0
LINE
  5
2E2
100
AcDbEntity
  8
LAY-1
  6
CONTINUOUS
 62
     2
100
AcDbLine
 10
271.746683
 20
162.244337
 30
0.0
 11
274.746683
 21
162.244337
 31
0.0
  0
ARC
  5
2E3
100
AcDbEntity
  8
LAY-1
  6
CONTINUOUS
 62
     2
100
AcDbCircle
 10
274.746683
 20
159.244337
 30
0.0
 40
3.0
100
AcDbArc
 50
0.0
 51
90.0
  0
LINE
  5
2E4
100
AcDbEntity
  8
LAY-1
  6
CONTINUOUS
 62
     2
100
AcDbLine
 10
280.046683
 20
143.928809
 30
0.0
 11
280.046683
 21
153.928809
 31
0.0
  0
LINE
  5
2E5
100
AcDbEntity
  8
LAY-1
  6
CONTINUOUS
 62
     2
100
AcDbLine
 10
285.546683
 20
155.475815
 30
0.0
 11
285.546683
 21
143.928809
 31
0.0
  0
LINE
  5
2E6
100
AcDbEntity
  8
LAY-1
  6
CONTINUOUS
 62
     2
100
AcDbLine
 10
286.546683
 20
153.116809
 30
0.0
 11
285.546683
 21
153.116809
 31
0.0
  0
LINE
  5
2E7
100
AcDbEntity
  8
LAY-1
  6
CONTINUOUS
 62
     2
100
AcDbLine
 10
301.905458
 20
153.028809
 30
0.0
 11
301.905458
 21
143.928809
 31
0.0
  0
LINE
  5
2E8
100
AcDbEntity
  8
LAY-1
  6
CONTINUOUS
 62
     2
100
AcDbLine
 10
308.446683
 20
158.828809
 30
0.0
 11
326.046683
 21
158.828809
 31
0.0
  0
ARC
  5
2E9
100
AcDbEntity
  8
LAY-1
  6
CONTINUOUS
 62
     2
100
AcDbCircle
 10
299.233271
 20
143.928809
 30
0.0
 40
19.186588
100
AcDbArc
 50
162.448927
 51
180.0
  0
ARC
  5
2EA
100
AcDbEntity
  8
LAY-1
  6
CONTINUOUS
 62
     2
100
AcDbCircle
 10
285.079818
 20
152.595225
 30
0.0
 40
5.043526
100
AcDbArc
 50
176.321477
 51
214.830173
  0
LINE
  5
2EB
100
AcDbEntity
  8
LAY-1
  6
CONTINUOUS
 62
     2
100
AcDbLine
 10
283.546683
 20
150.712675
 30
0.0
 11
283.046683
 21
149.714636
 31
0.0
  0
LINE
  5
2EC
100
AcDbEntity
  8
LAY-1
  6
CONTINUOUS
 62
     2
100
AcDbLine
 10
283.046683
 20
149.714636
 30
0.0
 11
283.546683
 21
147.681586
 31
0.0
  0
LINE
  5
2ED
100
AcDbEntity
  8
LAY-1
  6
CONTINUOUS
 62
     2
100
AcDbLine
 10
283.546683
 20
147.681586
 30
0.0
 11
284.046683
 21
149.714636
 31
0.0
  0
LINE
  5
2EE
100
AcDbEntity
  8
LAY-1
  6
CONTINUOUS
 62
     2
100
AcDbLine
 10
284.046683
 20
149.714636
 30
0.0
 11
283.546683
 21
150.712675
 31
0.0
  0
LINE
  5
2EF
100
AcDbEntity
  8
LAY-1
  6
CONTINUOUS
 62
     2
100
AcDbLine
 10
285.546683
 20
149.714636
 30
0.0
 11
284.046683
 21
149.714636
 31
0.0
  0
LINE
  5
2F0
100
AcDbEntity
  8
LAY-1
  6
CONTINUOUS
 62
     2
100
AcDbLine
 10
283.046683
 20
149.714636
 30
0.0
 11
280.939847
 21
149.714636
 31
0.0
  0
LINE
  5
2F1
100
AcDbEntity
  8
LAY-1
  6
CONTINUOUS
 62
     2
100
AcDbLine
 10
278.246683
 20
147.928809
 30
0.0
 11
278.246683
 21
143.928809
 31
0.0
  0
LINE
  5
2F2
100
AcDbEntity
  8
LAY-1
  6
CONTINUOUS
 62
     2
100
AcDbLine
 10
279.246683
 20
148.928809
 30
0.0
 11
279.246683
 21
143.928809
 31
0.0
  0
ARC
  5
2F3
100
AcDbEntity
  8
LAY-1
  6
CONTINUOUS
 62
     2
100
AcDbCircle
 10
268.016556
 20
146.428809
 30
0.0
 40
1.5
100
AcDbArc
 50
100.364828
 51
150.0
  0
ARC
  5
2F4
100
AcDbEntity
  8
LAY-1
  6
CONTINUOUS
 62
     2
100
AcDbCircle
 10
287.546683
 20
131.928809
 30
0.0
 40
1.0
100
AcDbArc
 50
180.0
 51
270.0
  0
LINE
  5
2F5
100
AcDbEntity
  8
LAY-1
  6
CONTINUOUS
 62
     2
100
AcDbLine
 10
278.246683
 20
139.928809
 30
0.0
 11
279.246683
 21
138.928809
 31
0.0
  0
LINE
  5
2F6
100
AcDbEntity
  8
LAY-1
  6
CONTINUOUS
 62
     2
100
AcDbLine
 10
277.746683
 20
139.928809
 30
0.0
 11
278.246683
 21
139.928809
 31
0.0
  0
LINE
  5
2F7
100
AcDbEntity
  8
LAY-1
  6
CONTINUOUS
 62
     2
100
AcDbLine
 10
279.246683
 20
138.928809
 30
0.0
 11
280.046683
 21
138.928809
 31
0.0
  0
LINE
  5
2F8
100
AcDbEntity
  8
LAY-1
  6
CONTINUOUS
 62
     2
100
AcDbLine
 10
286.546683
 20
131.928809
 30
0.0
 11
286.546683
 21
143.928809
 31
0.0
  0
ARC
  5
2F9
100
AcDbEntity
  8
LAY-1
  6
CONTINUOUS
 62
     2
100
AcDbCircle
 10
299.046683
 20
133.928809
 30
0.0
 40
3.0
100
AcDbArc
 50
270.0
 51
342.349722
  0
LINE
  5
2FA
100
AcDbEntity
  8
LAY-1
  6
CONTINUOUS
 62
     2
100
AcDbLine
 10
287.546683
 20
130.928809
 30
0.0
 11
299.046683
 21
130.928809
 31
0.0
  0
LINE
  5
2FB
100
AcDbEntity
  8
LAY-1
  6
CONTINUOUS
 62
     2
100
AcDbLine
 10
280.939847
 20
132.381804
 30
0.0
 11
283.046683
 21
132.381804
 31
0.0
  0
LINE
  5
2FC
100
AcDbEntity
  8
LAY-1
  6
CONTINUOUS
 62
     2
100
AcDbLine
 10
284.046683
 20
132.381804
 30
0.0
 11
285.546683
 21
132.381804
 31
0.0
  0
LINE
  5
2FD
100
AcDbEntity
  8
LAY-1
  6
CONTINUOUS
 62
     2
100
AcDbLine
 10
283.546683
 20
133.247829
 30
0.0
 11
284.046683
 21
132.381804
 31
0.0
  0
LINE
  5
2FE
100
AcDbEntity
  8
LAY-1
  6
CONTINUOUS
 62
     2
100
AcDbLine
 10
283.546683
 20
133.247829
 30
0.0
 11
283.046683
 21
132.381804
 31
0.0
  0
LINE
  5
2FF
100
AcDbEntity
  8
LAY-1
  6
CONTINUOUS
 62
     2
100
AcDbLine
 10
280.939847
 20
132.381804
 30
0.0
 11
280.046683
 21
133.928809
 31
0.0
  0
LINE
  5
300
100
AcDbEntity
  8
LAY-1
  6
CONTINUOUS
 62
     2
100
AcDbLine
 10
277.746683
 20
143.928809
 30
0.0
 11
277.746683
 21
117.428809
 31
0.0
  0
ARC
  5
301
100
AcDbEntity
  8
LAY-1
  6
CONTINUOUS
 62
     2
100
AcDbCircle
 10
272.746683
 20
121.56274
 30
0.0
 40
5.0
100
AcDbArc
 50
180.0
 51
262.337744
  0
LINE
  5
302
100
AcDbEntity
  8
LAY-1
  6
CONTINUOUS
 62
     2
100
AcDbLine
 10
267.746683
 20
143.928809
 30
0.0
 11
267.746683
 21
121.56274
 31
0.0
  0
ARC
  5
303
100
AcDbEntity
  8
LAY-1
  6
CONTINUOUS
 62
     2
100
AcDbCircle
 10
274.746683
 20
136.428809
 30
0.0
 40
20.0
100
AcDbArc
 50
262.337744
 51
270.0
  0
LINE
  5
304
100
AcDbEntity
  8
LAY-1
  6
CONTINUOUS
 62
     2
100
AcDbLine
 10
274.746683
 20
116.428809
 30
0.0
 11
277.066683
 21
116.428809
 31
0.0
  0
ARC
  5
305
100
AcDbEntity
  8
LAY-1
  6
CONTINUOUS
 62
     2
100
AcDbCircle
 10
276.746683
 20
117.428809
 30
0.0
 40
1.0
100
AcDbArc
 50
270.0
 51
0.0
  0
ARC
  5
306
100
AcDbEntity
  8
LAY-1
  6
CONTINUOUS
 62
     2
100
AcDbCircle
 10
274.746683
 20
137.817114
 30
0.0
 40
3.0
100
AcDbArc
 50
0.0
 51
90.0
  0
LINE
  5
307
100
AcDbEntity
  8
LAY-1
  6
CONTINUOUS
 62
     2
100
AcDbLine
 10
272.746683
 20
140.817114
 30
0.0
 11
274.746683
 21
140.817114
 31
0.0
  0
ARC
  5
308
100
AcDbEntity
  8
LAY-1
  6
CONTINUOUS
 62
     2
100
AcDbCircle
 10
272.746683
 20
135.817114
 30
0.0
 40
5.0
100
AcDbArc
 50
90.0
 51
180.0
  0
ARC
  5
309
100
AcDbEntity
  8
LAY-1
  6
CONTINUOUS
 62
     2
100
AcDbCircle
 10
274.746683
 20
120.3118
 30
0.0
 40
3.0
100
AcDbArc
 50
0.0
 51
90.0
  0
LINE
  5
30A
100
AcDbEntity
  8
LAY-1
  6
CONTINUOUS
 62
     2
100
AcDbLine
 10
274.746683
 20
123.3118
 30
0.0
 11
269.746683
 21
123.3118
 31
0.0
  0
ARC
  5
30B
100
AcDbEntity
  8
LAY-1
  6
CONTINUOUS
 62
     2
100
AcDbCircle
 10
269.746683
 20
121.3118
 30
0.0
 40
2.0
100
AcDbArc
 50
90.0
 51
180.0
  0
ARC
  5
30C
100
AcDbEntity
  8
LAY-1
  6
CONTINUOUS
 62
     2
100
AcDbCircle
 10
271.746683
 20
129.613281
 30
0.0
 40
4.0
100
AcDbArc
 50
180.0
 51
270.0
  0
LINE
  5
30D
100
AcDbEntity
  8
LAY-1
  6
CONTINUOUS
 62
     2
100
AcDbLine
 10
271.746683
 20
125.613281
 30
0.0
 11
274.746683
 21
125.613281
 31
0.0
  0
ARC
  5
30E
100
AcDbEntity
  8
LAY-1
  6
CONTINUOUS
 62
     2
100
AcDbCircle
 10
274.746683
 20
128.613281
 30
0.0
 40
3.0
100
AcDbArc
 50
270.0
 51
0.0
  0
LINE
  5
30F
100
AcDbEntity
  8
LAY-1
  6
CONTINUOUS
 62
     2
100
AcDbLine
 10
280.046683
 20
143.928809
 30
0.0
 11
280.046683
 21
133.928809
 31
0.0
  0
LINE
  5
310
100
AcDbEntity
  8
LAY-1
  6
CONTINUOUS
 62
     2
100
AcDbLine
 10
285.546683
 20
132.381804
 30
0.0
 11
285.546683
 21
143.928809
 31
0.0
  0
LINE
  5
311
100
AcDbEntity
  8
LAY-1
  6
CONTINUOUS
 62
     2
100
AcDbLine
 10
286.546683
 20
134.740809
 30
0.0
 11
285.546683
 21
134.740809
 31
0.0
  0
LINE
  5
312
100
AcDbEntity
  8
LAY-1
  6
CONTINUOUS
 62
     2
100
AcDbLine
 10
301.905458
 20
134.828809
 30
0.0
 11
301.905458
 21
143.928809
 31
0.0
  0
ARC
  5
313
100
AcDbEntity
  8
LAY-1
  6
CONTINUOUS
 62
     2
100
AcDbCircle
 10
299.233271
 20
143.928809
 30
0.0
 40
19.186588
100
AcDbArc
 50
180.0
 51
197.551073
  0
ARC
  5
314
100
AcDbEntity
  8
LAY-1
  6
CONTINUOUS
 62
     2
100
AcDbCircle
 10
285.079818
 20
135.262393
 30
0.0
 40
5.043526
100
AcDbArc
 50
145.169827
 51
183.678523
  0
LINE
  5
315
100
AcDbEntity
  8
LAY-1
  6
CONTINUOUS
 62
     2
100
AcDbLine
 10
283.546683
 20
137.144943
 30
0.0
 11
283.046683
 21
138.142982
 31
0.0
  0
LINE
  5
316
100
AcDbEntity
  8
LAY-1
  6
CONTINUOUS
 62
     2
100
AcDbLine
 10
283.046683
 20
138.142982
 30
0.0
 11
283.546683
 21
140.176032
 31
0.0
  0
LINE
  5
317
100
AcDbEntity
  8
LAY-1
  6
CONTINUOUS
 62
     2
100
AcDbLine
 10
283.546683
 20
140.176032
 30
0.0
 11
284.046683
 21
138.142982
 31
0.0
  0
LINE
  5
318
100
AcDbEntity
  8
LAY-1
  6
CONTINUOUS
 62
     2
100
AcDbLine
 10
284.046683
 20
138.142982
 30
0.0
 11
283.546683
 21
137.144943
 31
0.0
  0
LINE
  5
319
100
AcDbEntity
  8
LAY-1
  6
CONTINUOUS
 62
     2
100
AcDbLine
 10
285.546683
 20
138.142982
 30
0.0
 11
284.046683
 21
138.142982
 31
0.0
  0
LINE
  5
31A
100
AcDbEntity
  8
LAY-1
  6
CONTINUOUS
 62
     2
100
AcDbLine
 10
283.046683
 20
138.142982
 30
0.0
 11
280.939847
 21
138.142982
 31
0.0
  0
LINE
  5
31B
100
AcDbEntity
  8
LAY-1
  6
CONTINUOUS
 62
     2
100
AcDbLine
 10
278.246683
 20
139.928809
 30
0.0
 11
278.246683
 21
143.928809
 31
0.0
  0
LINE
  5
31C
100
AcDbEntity
  8
LAY-1
  6
CONTINUOUS
 62
     2
100
AcDbLine
 10
279.246683
 20
138.928809
 30
0.0
 11
279.246683
 21
143.928809
 31
0.0
  0
ARC
  5
31D
100
AcDbEntity
  8
LAY-1
  6
CONTINUOUS
 62
     2
100
AcDbCircle
 10
272.346683
 20
143.928809
 30
0.0
 40
6.5
100
AcDbArc
 50
150.0
 51
180.0
  0
ARC
  5
31E
100
AcDbEntity
  8
LAY-1
  6
CONTINUOUS
 62
     2
100
AcDbCircle
 10
272.346683
 20
143.928809
 30
0.0
 40
6.5
100
AcDbArc
 50
180.0
 51
210.0
  0
ARC
  5
31F
100
AcDbEntity
  8
LAY-1
  6
CONTINUOUS
 62
     2
100
AcDbCircle
 10
268.016556
 20
141.428809
 30
0.0
 40
1.5
100
AcDbArc
 50
210.0
 51
259.635172
  0
ARC
  5
320
100
AcDbEntity
  8
LAY-1
  6
CONTINUOUS
 62
     2
100
AcDbCircle
 10
323.546683
 20
140.538421
 30
0.0
 40
0.5
100
AcDbArc
 50
104.036243
 51
180.0
  0
LINE
  5
321
100
AcDbEntity
  8
LAY-1
  6
CONTINUOUS
 62
     2
100
AcDbLine
 10
323.046683
 20
133.428809
 30
0.0
 11
323.046683
 21
140.538421
 31
0.0
  0
LINE
  5
322
100
AcDbEntity
  8
LAY-1
  6
CONTINUOUS
 62
     2
100
AcDbLine
 10
312.046683
 20
132.928809
 30
0.0
 11
322.546683
 21
132.928809
 31
0.0
  0
ARC
  5
323
100
AcDbEntity
  8
LAY-1
  6
CONTINUOUS
 62
     2
100
AcDbCircle
 10
322.546683
 20
133.428809
 30
0.0
 40
0.5
100
AcDbArc
 50
270.0
 51
0.0
  0
LINE
  5
324
100
AcDbEntity
  8
LAY-1
  6
CONTINUOUS
 62
     2
100
AcDbLine
 10
326.546683
 20
140.553809
 30
0.0
 11
324.425415
 21
140.023492
 31
0.0
  0
ARC
  5
325
100
AcDbEntity
  8
LAY-1
  6
CONTINUOUS
 62
     2
100
AcDbCircle
 10
324.546683
 20
139.538421
 30
0.0
 40
0.5
100
AcDbArc
 50
104.036243
 51
180.0
  0
LINE
  5
326
100
AcDbEntity
  8
LAY-1
  6
CONTINUOUS
 62
     2
100
AcDbLine
 10
327.046683
 20
143.928809
 30
0.0
 11
327.046683
 21
142.319197
 31
0.0
  0
LINE
  5
327
100
AcDbEntity
  8
LAY-1
  6
CONTINUOUS
 62
     2
100
AcDbLine
 10
326.667951
 20
141.834126
 30
0.0
 11
323.425415
 21
141.023492
 31
0.0
  0
ARC
  5
328
100
AcDbEntity
  8
LAY-1
  6
CONTINUOUS
 62
     2
100
AcDbCircle
 10
326.546683
 20
142.319197
 30
0.0
 40
0.5
100
AcDbArc
 50
284.036243
 51
0.0
  0
ARC
  5
329
100
AcDbEntity
  8
LAY-1
  6
CONTINUOUS
 62
     2
100
AcDbCircle
 10
323.546683
 20
132.428809
 30
0.0
 40
0.5
100
AcDbArc
 50
261.869898
 51
0.0
  0
ARC
  5
32A
100
AcDbEntity
  8
LAY-1
  6
CONTINUOUS
 62
     2
100
AcDbCircle
 10
311.546683
 20
132.428809
 30
0.0
 40
0.5
100
AcDbArc
 50
180.0
 51
279.462322
  0
LINE
  5
32B
100
AcDbEntity
  8
LAY-1
  6
CONTINUOUS
 62
     2
100
AcDbLine
 10
311.636847
 20
131.937006
 30
0.0
 11
317.046683
 21
132.928809
 31
0.0
  0
LINE
  5
32C
100
AcDbEntity
  8
LAY-1
  6
CONTINUOUS
 62
     2
100
AcDbLine
 10
323.470212
 20
131.934691
 30
0.0
 11
317.046683
 21
132.928809
 31
0.0
  0
LINE
  5
32D
100
AcDbEntity
  8
LAY-1
  6
CONTINUOUS
 62
     2
100
AcDbLine
 10
324.046683
 20
139.538421
 30
0.0
 11
324.046683
 21
132.428809
 31
0.0
  0
LINE
  5
32E
100
AcDbEntity
  8
LAY-1
  6
CONTINUOUS
 62
     2
100
AcDbLine
 10
311.046683
 20
132.428809
 30
0.0
 11
311.046683
 21
143.928809
 31
0.0
  0
ARC
  5
32F
100
AcDbEntity
  8
LAY-1
  6
CONTINUOUS
 62
     2
100
AcDbCircle
 10
327.046683
 20
140.38112
 30
0.0
 40
0.5
100
AcDbArc
 50
141.892423
 51
180.0
  0
LINE
  5
330
100
AcDbEntity
  8
LAY-1
  6
CONTINUOUS
 62
     2
100
AcDbLine
 10
312.046683
 20
143.928809
 30
0.0
 11
312.046683
 21
154.928809
 31
0.0
  0
ARC
  5
331
100
AcDbEntity
  8
LAY-1
  6
CONTINUOUS
 62
     2
100
AcDbCircle
 10
323.546683
 20
147.319197
 30
0.0
 40
0.5
100
AcDbArc
 50
180.0
 51
255.963757
  0
LINE
  5
332
100
AcDbEntity
  8
LAY-1
  6
CONTINUOUS
 62
     2
100
AcDbLine
 10
312.046683
 20
154.928809
 30
0.0
 11
322.546683
 21
154.928809
 31
0.0
  0
ARC
  5
333
100
AcDbEntity
  8
LAY-1
  6
CONTINUOUS
 62
     2
100
AcDbCircle
 10
322.546683
 20
154.428809
 30
0.0
 40
0.5
100
AcDbArc
 50
0.0
 51
90.0
  0
ARC
  5
334
100
AcDbEntity
  8
LAY-1
  6
CONTINUOUS
 62
     2
100
AcDbCircle
 10
324.546683
 20
148.319197
 30
0.0
 40
0.5
100
AcDbArc
 50
180.0
 51
255.963757
  0
LINE
  5
335
100
AcDbEntity
  8
LAY-1
  6
CONTINUOUS
 62
     2
100
AcDbLine
 10
327.046683
 20
143.928809
 30
0.0
 11
327.046683
 21
145.538421
 31
0.0
  0
ARC
  5
336
100
AcDbEntity
  8
LAY-1
  6
CONTINUOUS
 62
     2
100
AcDbCircle
 10
326.546683
 20
145.538421
 30
0.0
 40
0.5
100
AcDbArc
 50
0.0
 51
75.963757
  0
ARC
  5
337
100
AcDbEntity
  8
LAY-1
  6
CONTINUOUS
 62
     2
100
AcDbCircle
 10
323.546683
 20
155.428809
 30
0.0
 40
0.5
100
AcDbArc
 50
0.0
 51
98.130102
  0
ARC
  5
338
100
AcDbEntity
  8
LAY-1
  6
CONTINUOUS
 62
     2
100
AcDbCircle
 10
311.546683
 20
155.428809
 30
0.0
 40
0.5
100
AcDbArc
 50
80.537678
 51
180.0
  0
LINE
  5
339
100
AcDbEntity
  8
LAY-1
  6
CONTINUOUS
 62
     2
100
AcDbLine
 10
311.636847
 20
155.920612
 30
0.0
 11
317.046683
 21
154.928809
 31
0.0
  0
LINE
  5
33A
100
AcDbEntity
  8
LAY-1
  6
CONTINUOUS
 62
     2
100
AcDbLine
 10
323.470212
 20
155.922927
 30
0.0
 11
317.046683
 21
154.928809
 31
0.0
  0
LINE
  5
33B
100
AcDbEntity
  8
LAY-1
  6
CONTINUOUS
 62
     2
100
AcDbLine
 10
311.046683
 20
155.428809
 30
0.0
 11
311.046683
 21
143.928809
 31
0.0
  0
ARC
  5
33C
100
AcDbEntity
  8
LAY-1
  6
CONTINUOUS
 62
     2
100
AcDbCircle
 10
327.046683
 20
147.476498
 30
0.0
 40
0.5
100
AcDbArc
 50
180.0
 51
218.107577
  0
LINE
  5
33D
100
AcDbEntity
  8
LAY-1
  6
CONTINUOUS
 62
     2
100
AcDbLine
 10
312.046683
 20
143.928809
 30
0.0
 11
312.046683
 21
132.928809
 31
0.0
  0
LINE
  5
33E
100
AcDbEntity
  8
LAY-1
  6
CONTINUOUS
 62
     2
100
AcDbLine
 10
321.546683
 20
136.428809
 30
0.0
 11
321.546683
 21
151.428809
 31
0.0
  0
LINE
  5
33F
100
AcDbEntity
  8
LAY-1
  6
CONTINUOUS
 62
     2
100
AcDbLine
 10
313.046683
 20
135.928809
 30
0.0
 11
321.046683
 21
135.928809
 31
0.0
  0
LINE
  5
340
100
AcDbEntity
  8
LAY-1
  6
CONTINUOUS
 62
     2
100
AcDbLine
 10
312.546683
 20
151.428809
 30
0.0
 11
312.546683
 21
136.428809
 31
0.0
  0
LINE
  5
341
100
AcDbEntity
  8
LAY-1
  6
CONTINUOUS
 62
     2
100
AcDbLine
 10
313.046683
 20
151.928809
 30
0.0
 11
321.046683
 21
151.928809
 31
0.0
  0
ARC
  5
342
100
AcDbEntity
  8
LAY-1
  6
CONTINUOUS
 62
     2
100
AcDbCircle
 10
313.046683
 20
151.428809
 30
0.0
 40
0.5
100
AcDbArc
 50
90.0
 51
180.0
  0
ARC
  5
343
100
AcDbEntity
  8
LAY-1
  6
CONTINUOUS
 62
     2
100
AcDbCircle
 10
313.046683
 20
136.428809
 30
0.0
 40
0.5
100
AcDbArc
 50
180.0
 51
270.0
  0
ARC
  5
344
100
AcDbEntity
  8
LAY-1
  6
CONTINUOUS
 62
     2
100
AcDbCircle
 10
321.046683
 20
136.428809
 30
0.0
 40
0.5
100
AcDbArc
 50
270.0
 51
0.0
  0
ARC
  5
345
100
AcDbEntity
  8
LAY-1
  6
CONTINUOUS
 62
     2
100
AcDbCircle
 10
321.046683
 20
151.428809
 30
0.0
 40
0.5
100
AcDbArc
 50
0.0
 51
90.0
  0
LINE
  5
346
100
AcDbEntity
  8
LAY-1
  6
CONTINUOUS
 62
     2
100
AcDbLine
 10
324.046683
 20
148.319197
 30
0.0
 11
324.046683
 21
155.428809
 31
0.0
  0
LINE
  5
347
100
AcDbEntity
  8
LAY-1
  6
CONTINUOUS
 62
     2
100
AcDbLine
 10
326.546683
 20
147.303809
 30
0.0
 11
324.425415
 21
147.834126
 31
0.0
  0
LINE
  5
348
100
AcDbEntity
  8
LAY-1
  6
CONTINUOUS
 62
     2
100
AcDbLine
 10
326.667951
 20
146.023492
 30
0.0
 11
323.425415
 21
146.834126
 31
0.0
  0
LINE
  5
349
100
AcDbEntity
  8
LAY-1
  6
CONTINUOUS
 62
     2
100
AcDbLine
 10
323.046683
 20
154.428809
 30
0.0
 11
323.046683
 21
147.319197
 31
0.0
  0
ARC
  5
34A
100
AcDbEntity
  8
LAY-1
  6
CONTINUOUS
 62
     2
100
AcDbCircle
 10
210.8
 20
51.13
 30
0.0
 40
2.0
100
AcDbArc
 50
107.165946
 51
180.0
  0
ARC
  5
34B
100
AcDbEntity
  8
LAY-1
  6
CONTINUOUS
 62
     2
100
AcDbCircle
 10
187.8
 20
51.13
 30
0.0
 40
2.0
100
AcDbArc
 50
0.0
 51
72.834054
  0
ARC
  5
34C
100
AcDbEntity
  8
LAY-1
  6
CONTINUOUS
 62
     2
100
AcDbCircle
 10
209.3
 20
55.9
 30
0.0
 40
3.0
100
AcDbArc
 50
287.650278
 51
0.0
  0
ARC
  5
34D
100
AcDbEntity
  8
LAY-1
  6
CONTINUOUS
 62
     2
100
AcDbCircle
 10
189.3
 20
55.9
 30
0.0
 40
3.0
100
AcDbArc
 50
180.0
 51
252.349722
  0
LINE
  5
34E
100
AcDbEntity
  8
LAY-1
  6
CONTINUOUS
 62
     2
100
AcDbLine
 10
209.868818
 20
52.9
 30
0.0
 11
189.3
 21
52.9
 31
0.0
  0
CIRCLE
  5
34F
100
AcDbEntity
  8
LAY-1
  6
CONTINUOUS
 62
     2
100
AcDbCircle
 10
199.3
 20
37.9
 30
0.0
 40
10.5
  0
ARC
  5
350
100
AcDbEntity
  8
LAY-1
  6
CONTINUOUS
 62
     2
100
AcDbCircle
 10
190.3
 20
27.9
 30
0.0
 40
0.5
100
AcDbArc
 50
180.0
 51
270.0
  0
LINE
  5
351
100
AcDbEntity
  8
LAY-1
  6
CONTINUOUS
 62
     2
100
AcDbLine
 10
190.3
 20
27.4
 30
0.0
 11
208.3
 21
27.4
 31
0.0
  0
ARC
  5
352
100
AcDbEntity
  8
LAY-1
  6
CONTINUOUS
 62
     2
100
AcDbCircle
 10
208.3
 20
27.9
 30
0.0
 40
0.5
100
AcDbArc
 50
270.0
 51
0.0
  0
LINE
  5
353
100
AcDbEntity
  8
LAY-1
  6
CONTINUOUS
 62
     2
100
AcDbLine
 10
208.8
 20
51.13
 30
0.0
 11
208.8
 21
42.372136
 31
0.0
  0
LINE
  5
354
100
AcDbEntity
  8
LAY-1
  6
CONTINUOUS
 62
     2
100
AcDbLine
 10
208.8
 20
33.427864
 30
0.0
 11
208.8
 21
27.9
 31
0.0
  0
LINE
  5
355
100
AcDbEntity
  8
LAY-1
  6
CONTINUOUS
 62
     2
100
AcDbLine
 10
189.8
 20
33.427864
 30
0.0
 11
189.8
 21
27.9
 31
0.0
  0
LINE
  5
356
100
AcDbEntity
  8
LAY-1
  6
CONTINUOUS
 62
     2
100
AcDbLine
 10
189.8
 20
51.13
 30
0.0
 11
189.8
 21
42.372136
 31
0.0
  0
ARC
  5
357
100
AcDbEntity
  8
LAY-1
  6
CONTINUOUS
 62
     2
100
AcDbCircle
 10
187.3
 20
67.4
 30
0.0
 40
1.0
100
AcDbArc
 50
90.0
 51
180.0
  0
LINE
  5
358
100
AcDbEntity
  8
LAY-1
  6
CONTINUOUS
 62
     2
100
AcDbLine
 10
195.3
 20
76.7
 30
0.0
 11
194.3
 21
75.7
 31
0.0
  0
LINE
  5
359
100
AcDbEntity
  8
LAY-1
  6
CONTINUOUS
 62
     2
100
AcDbLine
 10
195.3
 20
77.2
 30
0.0
 11
195.3
 21
76.7
 31
0.0
  0
LINE
  5
35A
100
AcDbEntity
  8
LAY-1
  6
CONTINUOUS
 62
     2
100
AcDbLine
 10
194.3
 20
75.7
 30
0.0
 11
194.3
 21
74.9
 31
0.0
  0
LINE
  5
35B
100
AcDbEntity
  8
LAY-1
  6
CONTINUOUS
 62
     2
100
AcDbLine
 10
187.3
 20
68.4
 30
0.0
 11
199.3
 21
68.4
 31
0.0
  0
LINE
  5
35C
100
AcDbEntity
  8
LAY-1
  6
CONTINUOUS
 62
     2
100
AcDbLine
 10
187.752995
 20
74.006836
 30
0.0
 11
187.752995
 21
71.9
 31
0.0
  0
LINE
  5
35D
100
AcDbEntity
  8
LAY-1
  6
CONTINUOUS
 62
     2
100
AcDbLine
 10
187.752995
 20
70.9
 30
0.0
 11
187.752995
 21
69.4
 31
0.0
  0
LINE
  5
35E
100
AcDbEntity
  8
LAY-1
  6
CONTINUOUS
 62
     2
100
AcDbLine
 10
188.61902
 20
71.4
 30
0.0
 11
187.752995
 21
70.9
 31
0.0
  0
LINE
  5
35F
100
AcDbEntity
  8
LAY-1
  6
CONTINUOUS
 62
     2
100
AcDbLine
 10
188.61902
 20
71.4
 30
0.0
 11
187.752995
 21
71.9
 31
0.0
  0
LINE
  5
360
100
AcDbEntity
  8
LAY-1
  6
CONTINUOUS
 62
     2
100
AcDbLine
 10
187.752995
 20
74.006836
 30
0.0
 11
189.3
 21
74.9
 31
0.0
  0
LINE
  5
361
100
AcDbEntity
  8
LAY-1
  6
CONTINUOUS
 62
     2
100
AcDbLine
 10
199.3
 20
77.2
 30
0.0
 11
172.8
 21
77.2
 31
0.0
  0
ARC
  5
362
100
AcDbEntity
  8
LAY-1
  6
CONTINUOUS
 62
     2
100
AcDbCircle
 10
176.933931
 20
82.2
 30
0.0
 40
5.0
100
AcDbArc
 50
90.0
 51
172.337744
  0
LINE
  5
363
100
AcDbEntity
  8
LAY-1
  6
CONTINUOUS
 62
     2
100
AcDbLine
 10
199.3
 20
87.2
 30
0.0
 11
176.933931
 21
87.2
 31
0.0
  0
ARC
  5
364
100
AcDbEntity
  8
LAY-1
  6
CONTINUOUS
 62
     2
100
AcDbCircle
 10
191.8
 20
80.2
 30
0.0
 40
20.0
100
AcDbArc
 50
172.337744
 51
180.0
  0
LINE
  5
365
100
AcDbEntity
  8
LAY-1
  6
CONTINUOUS
 62
     2
100
AcDbLine
 10
171.8
 20
80.2
 30
0.0
 11
171.8
 21
77.88
 31
0.0
  0
ARC
  5
366
100
AcDbEntity
  8
LAY-1
  6
CONTINUOUS
 62
     2
100
AcDbCircle
 10
172.8
 20
78.2
 30
0.0
 40
1.0
100
AcDbArc
 50
180.0
 51
270.0
  0
ARC
  5
367
100
AcDbEntity
  8
LAY-1
  6
CONTINUOUS
 62
     2
100
AcDbCircle
 10
193.188304
 20
80.2
 30
0.0
 40
3.0
100
AcDbArc
 50
270.0
 51
0.0
  0
LINE
  5
368
100
AcDbEntity
  8
LAY-1
  6
CONTINUOUS
 62
     2
100
AcDbLine
 10
196.188304
 20
82.2
 30
0.0
 11
196.188304
 21
80.2
 31
0.0
  0
ARC
  5
369
100
AcDbEntity
  8
LAY-1
  6
CONTINUOUS
 62
     2
100
AcDbCircle
 10
191.188304
 20
82.2
 30
0.0
 40
5.0
100
AcDbArc
 50
0.0
 51
90.0
  0
ARC
  5
36A
100
AcDbEntity
  8
LAY-1
  6
CONTINUOUS
 62
     2
100
AcDbCircle
 10
175.682991
 20
80.2
 30
0.0
 40
3.0
100
AcDbArc
 50
270.0
 51
0.0
  0
LINE
  5
36B
100
AcDbEntity
  8
LAY-1
  6
CONTINUOUS
 62
     2
100
AcDbLine
 10
178.682991
 20
80.2
 30
0.0
 11
178.682991
 21
85.2
 31
0.0
  0
ARC
  5
36C
100
AcDbEntity
  8
LAY-1
  6
CONTINUOUS
 62
     2
100
AcDbCircle
 10
176.682991
 20
85.2
 30
0.0
 40
2.0
100
AcDbArc
 50
0.0
 51
90.0
  0
ARC
  5
36D
100
AcDbEntity
  8
LAY-1
  6
CONTINUOUS
 62
     2
100
AcDbCircle
 10
184.984472
 20
83.2
 30
0.0
 40
4.0
100
AcDbArc
 50
90.0
 51
180.0
  0
LINE
  5
36E
100
AcDbEntity
  8
LAY-1
  6
CONTINUOUS
 62
     2
100
AcDbLine
 10
180.984472
 20
83.2
 30
0.0
 11
180.984472
 21
80.2
 31
0.0
  0
ARC
  5
36F
100
AcDbEntity
  8
LAY-1
  6
CONTINUOUS
 62
     2
100
AcDbCircle
 10
183.984472
 20
80.2
 30
0.0
 40
3.0
100
AcDbArc
 50
180.0
 51
270.0
  0
LINE
  5
370
100
AcDbEntity
  8
LAY-1
  6
CONTINUOUS
 62
     2
100
AcDbLine
 10
199.3
 20
74.9
 30
0.0
 11
189.3
 21
74.9
 31
0.0
  0
LINE
  5
371
100
AcDbEntity
  8
LAY-1
  6
CONTINUOUS
 62
     2
100
AcDbLine
 10
187.752995
 20
69.4
 30
0.0
 11
199.3
 21
69.4
 31
0.0
  0
LINE
  5
372
100
AcDbEntity
  8
LAY-1
  6
CONTINUOUS
 62
     2
100
AcDbLine
 10
190.112
 20
68.4
 30
0.0
 11
190.112
 21
69.4
 31
0.0
  0
ARC
  5
373
100
AcDbEntity
  8
LAY-1
  6
CONTINUOUS
 62
     2
100
AcDbCircle
 10
199.3
 20
55.713412
 30
0.0
 40
19.186588
100
AcDbArc
 50
90.0
 51
107.551073
  0
ARC
  5
374
100
AcDbEntity
  8
LAY-1
  6
CONTINUOUS
 62
     2
100
AcDbCircle
 10
190.633584
 20
69.866865
 30
0.0
 40
5.043526
100
AcDbArc
 50
55.169827
 51
93.678523
  0
LINE
  5
375
100
AcDbEntity
  8
LAY-1
  6
CONTINUOUS
 62
     2
100
AcDbLine
 10
192.516134
 20
71.4
 30
0.0
 11
193.514173
 21
71.9
 31
0.0
  0
LINE
  5
376
100
AcDbEntity
  8
LAY-1
  6
CONTINUOUS
 62
     2
100
AcDbLine
 10
193.514173
 20
71.9
 30
0.0
 11
195.547223
 21
71.4
 31
0.0
  0
LINE
  5
377
100
AcDbEntity
  8
LAY-1
  6
CONTINUOUS
 62
     2
100
AcDbLine
 10
195.547223
 20
71.4
 30
0.0
 11
193.514173
 21
70.9
 31
0.0
  0
LINE
  5
378
100
AcDbEntity
  8
LAY-1
  6
CONTINUOUS
 62
     2
100
AcDbLine
 10
193.514173
 20
70.9
 30
0.0
 11
192.516134
 21
71.4
 31
0.0
  0
LINE
  5
379
100
AcDbEntity
  8
LAY-1
  6
CONTINUOUS
 62
     2
100
AcDbLine
 10
193.514173
 20
69.4
 30
0.0
 11
193.514173
 21
70.9
 31
0.0
  0
LINE
  5
37A
100
AcDbEntity
  8
LAY-1
  6
CONTINUOUS
 62
     2
100
AcDbLine
 10
193.514173
 20
71.9
 30
0.0
 11
193.514173
 21
74.006836
 31
0.0
  0
LINE
  5
37B
100
AcDbEntity
  8
LAY-1
  6
CONTINUOUS
 62
     2
100
AcDbLine
 10
195.3
 20
76.7
 30
0.0
 11
199.3
 21
76.7
 31
0.0
  0
LINE
  5
37C
100
AcDbEntity
  8
LAY-1
  6
CONTINUOUS
 62
     2
100
AcDbLine
 10
194.3
 20
75.7
 30
0.0
 11
199.3
 21
75.7
 31
0.0
  0
ARC
  5
37D
100
AcDbEntity
  8
LAY-1
  6
CONTINUOUS
 62
     2
100
AcDbCircle
 10
196.8
 20
86.930127
 30
0.0
 40
1.5
100
AcDbArc
 50
120.0
 51
169.635172
  0
ARC
  5
37E
100
AcDbEntity
  8
LAY-1
  6
CONTINUOUS
 62
     2
100
AcDbCircle
 10
211.3
 20
67.4
 30
0.0
 40
1.0
100
AcDbArc
 50
0.0
 51
90.0
  0
LINE
  5
37F
100
AcDbEntity
  8
LAY-1
  6
CONTINUOUS
 62
     2
100
AcDbLine
 10
203.3
 20
76.7
 30
0.0
 11
204.3
 21
75.7
 31
0.0
  0
LINE
  5
380
100
AcDbEntity
  8
LAY-1
  6
CONTINUOUS
 62
     2
100
AcDbLine
 10
203.3
 20
77.2
 30
0.0
 11
203.3
 21
76.7
 31
0.0
  0
LINE
  5
381
100
AcDbEntity
  8
LAY-1
  6
CONTINUOUS
 62
     2
100
AcDbLine
 10
204.3
 20
75.7
 30
0.0
 11
204.3
 21
74.9
 31
0.0
  0
LINE
  5
382
100
AcDbEntity
  8
LAY-1
  6
CONTINUOUS
 62
     2
100
AcDbLine
 10
211.3
 20
68.4
 30
0.0
 11
199.3
 21
68.4
 31
0.0
  0
LINE
  5
383
100
AcDbEntity
  8
LAY-1
  6
CONTINUOUS
 62
     2
100
AcDbLine
 10
210.847005
 20
74.006836
 30
0.0
 11
210.847005
 21
71.9
 31
0.0
  0
LINE
  5
384
100
AcDbEntity
  8
LAY-1
  6
CONTINUOUS
 62
     2
100
AcDbLine
 10
210.847005
 20
70.9
 30
0.0
 11
210.847005
 21
69.4
 31
0.0
  0
LINE
  5
385
100
AcDbEntity
  8
LAY-1
  6
CONTINUOUS
 62
     2
100
AcDbLine
 10
209.98098
 20
71.4
 30
0.0
 11
210.847005
 21
70.9
 31
0.0
  0
LINE
  5
386
100
AcDbEntity
  8
LAY-1
  6
CONTINUOUS
 62
     2
100
AcDbLine
 10
209.98098
 20
71.4
 30
0.0
 11
210.847005
 21
71.9
 31
0.0
  0
LINE
  5
387
100
AcDbEntity
  8
LAY-1
  6
CONTINUOUS
 62
     2
100
AcDbLine
 10
210.847005
 20
74.006836
 30
0.0
 11
209.3
 21
74.9
 31
0.0
  0
LINE
  5
388
100
AcDbEntity
  8
LAY-1
  6
CONTINUOUS
 62
     2
100
AcDbLine
 10
199.3
 20
77.2
 30
0.0
 11
225.8
 21
77.2
 31
0.0
  0
ARC
  5
389
100
AcDbEntity
  8
LAY-1
  6
CONTINUOUS
 62
     2
100
AcDbCircle
 10
221.666069
 20
82.2
 30
0.0
 40
5.0
100
AcDbArc
 50
7.662256
 51
90.0
  0
LINE
  5
38A
100
AcDbEntity
  8
LAY-1
  6
CONTINUOUS
 62
     2
100
AcDbLine
 10
199.3
 20
87.2
 30
0.0
 11
221.666069
 21
87.2
 31
0.0
  0
ARC
  5
38B
100
AcDbEntity
  8
LAY-1
  6
CONTINUOUS
 62
     2
100
AcDbCircle
 10
206.8
 20
80.2
 30
0.0
 40
20.0
100
AcDbArc
 50
0.0
 51
7.662256
  0
LINE
  5
38C
100
AcDbEntity
  8
LAY-1
  6
CONTINUOUS
 62
     2
100
AcDbLine
 10
226.8
 20
80.2
 30
0.0
 11
226.8
 21
77.88
 31
0.0
  0
ARC
  5
38D
100
AcDbEntity
  8
LAY-1
  6
CONTINUOUS
 62
     2
100
AcDbCircle
 10
225.8
 20
78.2
 30
0.0
 40
1.0
100
AcDbArc
 50
270.0
 51
0.0
  0
ARC
  5
38E
100
AcDbEntity
  8
LAY-1
  6
CONTINUOUS
 62
     2
100
AcDbCircle
 10
205.411696
 20
80.2
 30
0.0
 40
3.0
100
AcDbArc
 50
180.0
 51
270.0
  0
LINE
  5
38F
100
AcDbEntity
  8
LAY-1
  6
CONTINUOUS
 62
     2
100
AcDbLine
 10
202.411696
 20
82.2
 30
0.0
 11
202.411696
 21
80.2
 31
0.0
  0
ARC
  5
390
100
AcDbEntity
  8
LAY-1
  6
CONTINUOUS
 62
     2
100
AcDbCircle
 10
207.411696
 20
82.2
 30
0.0
 40
5.0
100
AcDbArc
 50
90.0
 51
180.0
  0
ARC
  5
391
100
AcDbEntity
  8
LAY-1
  6
CONTINUOUS
 62
     2
100
AcDbCircle
 10
222.917009
 20
80.2
 30
0.0
 40
3.0
100
AcDbArc
 50
180.0
 51
270.0
  0
LINE
  5
392
100
AcDbEntity
  8
LAY-1
  6
CONTINUOUS
 62
     2
100
AcDbLine
 10
219.917009
 20
80.2
 30
0.0
 11
219.917009
 21
85.2
 31
0.0
  0
ARC
  5
393
100
AcDbEntity
  8
LAY-1
  6
CONTINUOUS
 62
     2
100
AcDbCircle
 10
221.917009
 20
85.2
 30
0.0
 40
2.0
100
AcDbArc
 50
90.0
 51
180.0
  0
ARC
  5
394
100
AcDbEntity
  8
LAY-1
  6
CONTINUOUS
 62
     2
100
AcDbCircle
 10
213.615528
 20
83.2
 30
0.0
 40
4.0
100
AcDbArc
 50
0.0
 51
90.0
  0
LINE
  5
395
100
AcDbEntity
  8
LAY-1
  6
CONTINUOUS
 62
     2
100
AcDbLine
 10
217.615528
 20
83.2
 30
0.0
 11
217.615528
 21
80.2
 31
0.0
  0
ARC
  5
396
100
AcDbEntity
  8
LAY-1
  6
CONTINUOUS
 62
     2
100
AcDbCircle
 10
214.615528
 20
80.2
 30
0.0
 40
3.0
100
AcDbArc
 50
270.0
 51
0.0
  0
LINE
  5
397
100
AcDbEntity
  8
LAY-1
  6
CONTINUOUS
 62
     2
100
AcDbLine
 10
199.3
 20
74.9
 30
0.0
 11
209.3
 21
74.9
 31
0.0
  0
LINE
  5
398
100
AcDbEntity
  8
LAY-1
  6
CONTINUOUS
 62
     2
100
AcDbLine
 10
210.847005
 20
69.4
 30
0.0
 11
199.3
 21
69.4
 31
0.0
  0
LINE
  5
399
100
AcDbEntity
  8
LAY-1
  6
CONTINUOUS
 62
     2
100
AcDbLine
 10
208.488
 20
68.4
 30
0.0
 11
208.488
 21
69.4
 31
0.0
  0
ARC
  5
39A
100
AcDbEntity
  8
LAY-1
  6
CONTINUOUS
 62
     2
100
AcDbCircle
 10
199.3
 20
55.713412
 30
0.0
 40
19.186588
100
AcDbArc
 50
72.448927
 51
90.0
  0
ARC
  5
39B
100
AcDbEntity
  8
LAY-1
  6
CONTINUOUS
 62
     2
100
AcDbCircle
 10
207.966416
 20
69.866865
 30
0.0
 40
5.043526
100
AcDbArc
 50
86.321477
 51
124.830173
  0
LINE
  5
39C
100
AcDbEntity
  8
LAY-1
  6
CONTINUOUS
 62
     2
100
AcDbLine
 10
206.083866
 20
71.4
 30
0.0
 11
205.085827
 21
71.9
 31
0.0
  0
LINE
  5
39D
100
AcDbEntity
  8
LAY-1
  6
CONTINUOUS
 62
     2
100
AcDbLine
 10
205.085827
 20
71.9
 30
0.0
 11
203.052777
 21
71.4
 31
0.0
  0
LINE
  5
39E
100
AcDbEntity
  8
LAY-1
  6
CONTINUOUS
 62
     2
100
AcDbLine
 10
203.052777
 20
71.4
 30
0.0
 11
205.085827
 21
70.9
 31
0.0
  0
LINE
  5
39F
100
AcDbEntity
  8
LAY-1
  6
CONTINUOUS
 62
     2
100
AcDbLine
 10
205.085827
 20
70.9
 30
0.0
 11
206.083866
 21
71.4
 31
0.0
  0
LINE
  5
3A0
100
AcDbEntity
  8
LAY-1
  6
CONTINUOUS
 62
     2
100
AcDbLine
 10
205.085827
 20
69.4
 30
0.0
 11
205.085827
 21
70.9
 31
0.0
  0
LINE
  5
3A1
100
AcDbEntity
  8
LAY-1
  6
CONTINUOUS
 62
     2
100
AcDbLine
 10
205.085827
 20
71.9
 30
0.0
 11
205.085827
 21
74.006836
 31
0.0
  0
LINE
  5
3A2
100
AcDbEntity
  8
LAY-1
  6
CONTINUOUS
 62
     2
100
AcDbLine
 10
203.3
 20
76.7
 30
0.0
 11
199.3
 21
76.7
 31
0.0
  0
LINE
  5
3A3
100
AcDbEntity
  8
LAY-1
  6
CONTINUOUS
 62
     2
100
AcDbLine
 10
204.3
 20
75.7
 30
0.0
 11
199.3
 21
75.7
 31
0.0
  0
ARC
  5
3A4
100
AcDbEntity
  8
LAY-1
  6
CONTINUOUS
 62
     2
100
AcDbCircle
 10
199.3
 20
82.6
 30
0.0
 40
6.5
100
AcDbArc
 50
90.0
 51
120.0
  0
ARC
  5
3A5
100
AcDbEntity
  8
LAY-1
  6
CONTINUOUS
 62
     2
100
AcDbCircle
 10
199.3
 20
82.6
 30
0.0
 40
6.5
100
AcDbArc
 50
60.0
 51
90.0
  0
ARC
  5
3A6
100
AcDbEntity
  8
LAY-1
  6
CONTINUOUS
 62
     2
100
AcDbCircle
 10
201.8
 20
86.930127
 30
0.0
 40
1.5
100
AcDbArc
 50
10.364828
 51
60.0
  0
LINE
  5
3A7
100
AcDbEntity
  8
LAY-1
  6
CONTINUOUS
 62
     2
100
AcDbLine
 10
212.3
 20
67.4
 30
0.0
 11
212.3
 21
55.9
 31
0.0
  0
LINE
  5
3A8
100
AcDbEntity
  8
LAY-1
  6
CONTINUOUS
 62
     2
100
AcDbLine
 10
186.3
 20
67.4
 30
0.0
 11
186.3
 21
55.9
 31
0.0
  0
LINE
  5
3A9
100
AcDbEntity
  8
LAY-1
  6
CONTINUOUS
 62
     2
100
AcDbLine
 10
192.551941
 20
273.769637
 30
0.0
 11
187.861525
 21
265.645599
 31
0.0
  0
ARC
  5
3AA
100
AcDbEntity
  8
LAY-1
  6
CONTINUOUS
 62
     2
100
AcDbCircle
 10
199.3
 20
264.457618
 30
0.0
 40
11.5
100
AcDbArc
 50
114.070615
 51
125.929385
  0
ARC
  5
3AB
100
AcDbEntity
  8
LAY-1
  6
CONTINUOUS
 62
     2
100
AcDbCircle
 10
199.3
 20
264.457618
 30
0.0
 40
11.5
100
AcDbArc
 50
54.070615
 51
65.929385
  0
LINE
  5
3AC
100
AcDbEntity
  8
LAY-1
  6
CONTINUOUS
 62
     2
100
AcDbLine
 10
210.738475
 20
265.645599
 30
0.0
 11
206.048059
 21
273.769637
 31
0.0
  0
ARC
  5
3AD
100
AcDbEntity
  8
LAY-1
  6
CONTINUOUS
 62
     2
100
AcDbCircle
 10
199.3
 20
264.457618
 30
0.0
 40
11.5
100
AcDbArc
 50
354.070615
 51
5.929385
  0
LINE
  5
3AE
100
AcDbEntity
  8
LAY-1
  6
CONTINUOUS
 62
     2
100
AcDbLine
 10
206.048059
 20
255.145599
 30
0.0
 11
210.738475
 21
263.269637
 31
0.0
  0
ARC
  5
3AF
100
AcDbEntity
  8
LAY-1
  6
CONTINUOUS
 62
     2
100
AcDbCircle
 10
199.3
 20
264.457618
 30
0.0
 40
11.5
100
AcDbArc
 50
294.070615
 51
305.929385
  0
LINE
  5
3B0
100
AcDbEntity
  8
LAY-1
  6
CONTINUOUS
 62
     2
100
AcDbLine
 10
194.609584
 20
253.957618
 30
0.0
 11
203.990416
 21
253.957618
 31
0.0
  0
ARC
  5
3B1
100
AcDbEntity
  8
LAY-1
  6
CONTINUOUS
 62
     2
100
AcDbCircle
 10
199.3
 20
264.457618
 30
0.0
 40
11.5
100
AcDbArc
 50
174.070615
 51
185.929385
  0
ARC
  5
3B2
100
AcDbEntity
  8
LAY-1
  6
CONTINUOUS
 62
     2
100
AcDbCircle
 10
199.3
 20
264.457618
 30
0.0
 40
11.5
100
AcDbArc
 50
234.070615
 51
245.929385
  0
LINE
  5
3B3
100
AcDbEntity
  8
LAY-1
  6
CONTINUOUS
 62
     2
100
AcDbLine
 10
187.861525
 20
263.269637
 30
0.0
 11
192.551941
 21
255.145599
 31
0.0
  0
CIRCLE
  5
3B4
100
AcDbEntity
  8
LAY-1
  6
CONTINUOUS
 62
     2
100
AcDbCircle
 10
199.3
 20
264.457618
 30
0.0
 40
5.694886
  0
CIRCLE
  5
3B5
100
AcDbEntity
  8
LAY-1
  6
CONTINUOUS
 62
     2
100
AcDbCircle
 10
199.3
 20
37.9
 30
0.0
 40
5.694886
  0
LINE
  5
3B6
100
AcDbEntity
  8
LAY-1
  6
EXLTYPE3
 62
     1
100
AcDbLine
 10
168.2
 20
143.928809
 30
0.0
 11
234.5
 21
143.928809
 31
0.0
  0
LINE
  5
3B7
100
AcDbEntity
  8
LAY-1
  6
EXLTYPE3
 62
     1
100
AcDbLine
 10
184.5
 20
264.457618
 30
0.0
 11
212.0
 21
264.457618
 31
0.0
  0
LINE
  5
3B8
100
AcDbEntity
  8
LAY-1
  6
CONTINUOUS
 62
     1
100
AcDbLine
 10
194.963
 20
225.994618
 30
0.0
 11
194.963
 21
227.457618
 31
0.0
  0
LINE
  5
3B9
100
AcDbEntity
  8
LAY-1
  6
CONTINUOUS
 62
     1
100
AcDbLine
 10
203.637
 20
225.994618
 30
0.0
 11
203.637
 21
227.457618
 31
0.0
  0
LINE
  5
3BA
100
AcDbEntity
  8
LAY-1
  6
CONTINUOUS
 62
     1
100
AcDbLine
 10
119.216317
 20
148.265809
 30
0.0
 11
117.753317
 21
148.265809
 31
0.0
  0
LINE
  5
3BB
100
AcDbEntity
  8
LAY-1
  6
CONTINUOUS
 62
     1
100
AcDbLine
 10
119.216317
 20
139.591809
 30
0.0
 11
117.753317
 21
139.591809
 31
0.0
  0
LINE
  5
3BC
100
AcDbEntity
  8
LAY-1
  6
CONTINUOUS
 62
     1
100
AcDbLine
 10
278.583683
 20
148.265809
 30
0.0
 11
280.046683
 21
148.265809
 31
0.0
  0
LINE
  5
3BD
100
AcDbEntity
  8
LAY-1
  6
CONTINUOUS
 62
     1
100
AcDbLine
 10
278.583683
 20
139.591809
 30
0.0
 11
280.046683
 21
139.591809
 31
0.0
  0
LINE
  5
3BE
100
AcDbEntity
  8
LAY-1
  6
EXLTYPE3
 62
     1
100
AcDbLine
 10
184.5
 20
37.9
 30
0.0
 11
212.0
 21
37.9
 31
0.0
  0
LINE
  5
3BF
100
AcDbEntity
  8
LAY-1
  6
CONTINUOUS
 62
     1
100
AcDbLine
 10
194.963
 20
76.363
 30
0.0
 11
194.963
 21
74.9
 31
0.0
  0
LINE
  5
3C0
100
AcDbEntity
  8
LAY-1
  6
CONTINUOUS
 62
     1
100
AcDbLine
 10
203.637
 20
76.363
 30
0.0
 11
203.637
 21
74.9
 31
0.0
  0
CIRCLE
  5
3C1
100
AcDbEntity
  8
LAY-1
  6
CONTINUOUS
 62
     1
100
AcDbCircle
 10
199.3
 20
264.457618
 30
0.0
 40
6.5785
  0
CIRCLE
  5
3C2
100
AcDbEntity
  8
LAY-1
  6
CONTINUOUS
 62
     1
100
AcDbCircle
 10
199.3
 20
37.9
 30
0.0
 40
6.5785
  0
LINE
  5
3C3
100
AcDbEntity
  8
LAY-1
  6
EXLTYPE3
 62
     1
100
AcDbLine
 10
199.3
 20
176.4
 30
0.0
 11
199.3
 21
112.8
 31
0.0
  0
LINE
  5
3C4
100
AcDbEntity
  8
LAY-1
  6
EXLTYPE3
 62
     1
100
AcDbLine
 10
317.046683
 20
169.528809
 30
0.0
 11
317.046683
 21
115.728809
 31
0.0
  0
LINE
  5
3C5
100
AcDbEntity
  8
LAY-1
  6
EXLTYPE3
 62
     1
100
AcDbLine
 10
263.6
 20
143.928809
 30
0.0
 11
332.446683
 21
143.928809
 31
0.0
  0
LINE
  5
3C6
100
AcDbEntity
  8
LAY-1
  6
EXLTYPE3
 62
     1
100
AcDbLine
 10
199.3
 20
91.8
 30
0.0
 11
199.3
 21
23.0
 31
0.0
  0
LINE
  5
3C7
100
AcDbEntity
  8
LAY-1
  6
EXLTYPE3
 62
     1
100
AcDbLine
 10
80.753317
 20
167.8
 30
0.0
 11
80.753317
 21
118.8
 31
0.0
  0
LINE
  5
3C8
100
AcDbEntity
  8
LAY-1
  6
EXLTYPE3
 62
     1
100
AcDbLine
 10
135.4
 20
143.928809
 30
0.0
 11
65.353317
 21
143.928809
 31
0.0
  0
LINE
  5
3C9
100
AcDbEntity
  8
LAY-1
  6
EXLTYPE3
 62
     1
100
AcDbLine
 10
199.3
 20
210.2
 30
0.0
 11
199.3
 21
279.357618
 31
0.0
  0
TEXT
  5
3CA
100
AcDbEntity
  8
LAY-2
  6
CONTINUOUS
 62
     3
100
AcDbText
 10
310.088
 20
44.592
 30
0.0
 40
4.0
  1
型式
 41
0.984714
  7
EXCADSTD
 72
     5
 11
318.684081
 21
44.592
 31
0.0
100
AcDbText
  0
TEXT
  5
3CB
100
AcDbEntity
  8
LAY-2
  6
CONTINUOUS
 62
     3
100
AcDbText
 10
309.992
 20
38.96
 30
0.0
 40
4.0
  1
品名
 41
0.984714
  7
EXCADSTD
 72
     5
 11
318.588081
 21
38.96
 31
0.0
100
AcDbText
  0
LINE
  5
3CC
100
AcDbEntity
  8
LAY-2
  6
CONTINUOUS
 62
     4
100
AcDbLine
 10
308.2
 20
33.28
 30
0.0
 11
379.88
 21
33.28
 31
0.0
  0
TEXT
  5
3CD
100
AcDbEntity
  8
LAY-2
  6
CONTINUOUS
 62
     3
100
AcDbText
 10
333.672
 20
33.808
 30
0.0
 40
4.0
  1
外観図
 41
1.47392
  7
EXCADSTD
 72
     5
 11
354.728
 21
33.808
 31
0.0
100
AcDbText
  0
LINE
  5
3CE
100
AcDbEntity
  8
LAY-2
  6
CONTINUOUS
 62
     4
100
AcDbLine
 10
308.2
 20
54.96
 30
0.0
 11
379.88
 21
54.96
 31
0.0
  0
LINE
  5
3CF
100
AcDbEntity
  8
LAY-2
  6
CONTINUOUS
 62
     4
100
AcDbLine
 10
308.2
 20
28.4
 30
0.0
 11
379.88
 21
28.4
 31
0.0
  0
LINE
  5
3D0
100
AcDbEntity
  8
LAY-2
  6
CONTINUOUS
 62
     4
100
AcDbLine
 10
379.88
 20
28.4
 30
0.0
 11
379.88
 21
54.96
 31
0.0
  0
LINE
  5
3D1
100
AcDbEntity
  8
LAY-2
  6
CONTINUOUS
 62
     4
100
AcDbLine
 10
308.2
 20
28.4
 30
0.0
 11
308.2
 21
54.96
 31
0.0
  0
TEXT
  5
3D2
100
AcDbEntity
  8
LAY-2
  6
CONTINUOUS
 62
     3
100
AcDbText
 10
308.712
 20
50.064
 30
0.0
 40
4.0
  1
作成日
 41
0.84
  7
EXCADSTD
 72
     5
 11
320.712
 21
50.064
 31
0.0
100
AcDbText
  0
HATCH
  5
3D3
100
AcDbEntity
  8
LAY-2
  6
CONTINUOUS
 62
     3
100
AcDbHatch
 10
0.0
 20
0.0
 30
0.0
210
0.0
220
0.0
230
1.0
  2
SOLID
 70
     1
 71
     1
 91
        1
 92
        1
 93
       16
 72
     1
 10
358.65197987224883
 20
29.61917142857132
 11
359.4092655865345
 21
29.61917142857132
 72
     1
 10
359.4092655865345
 20
29.61917142857132
 11
359.4092655865345
 21
29.130599999999887
 72
     1
 10
359.4092655865345
 20
29.130599999999887
 11
357.38169415796312
 21
29.130599999999887
 72
     1
 10
357.38169415796312
 20
29.130599999999887
 11
357.38169415796312
 21
29.61917142857132
 72
     1
 10
357.38169415796312
 20
29.61917142857132
 11
358.16340844367744
 21
29.61917142857132
 72
     1
 10
358.16340844367744
 20
29.61917142857132
 11
358.16340844367744
 21
31.036028571428467
 72
     1
 10
358.16340844367744
 20
31.036028571428467
 11
357.55269415796312
 21
31.036028571428467
 72
     1
 10
357.55269415796312
 20
31.036028571428467
 11
357.55269415796312
 21
31.5245999999999
 72
     1
 10
357.55269415796312
 20
31.5245999999999
 11
358.16340844367744
 21
31.5245999999999
 72
     1
 10
358.16340844367744
 20
31.5245999999999
 11
358.16340844367744
 21
32.550599999999896
 72
     1
 10
358.16340844367744
 20
32.550599999999896
 11
358.65197987224883
 21
32.550599999999896
 72
     1
 10
358.65197987224883
 20
32.550599999999896
 11
358.65197987224883
 21
31.5245999999999
 72
     1
 10
358.65197987224883
 20
31.5245999999999
 11
359.36040844367744
 21
31.5245999999999
 72
     1
 10
359.36040844367744
 20
31.5245999999999
 11
359.36040844367744
 21
31.036028571428467
 72
     1
 10
359.36040844367744
 20
31.036028571428467
 11
358.65197987224883
 21
31.036028571428467
 72
     1
 10
358.65197987224883
 20
31.036028571428467
 11
358.65197987224883
 21
29.61917142857132
 97
        0
 75
     0
 76
     1
 98
        1
 10
0.0
 20
0.0
  0
HATCH
  5
3D4
100
AcDbEntity
  8
LAY-2
  6
CONTINUOUS
 62
     3
100
AcDbHatch
 10
0.0
 20
0.0
 30
0.0
210
0.0
220
0.0
230
1.0
  2
SOLID
 70
     1
 71
     1
 91
        1
 92
        1
 93
       17
 72
     2
 10
353.51906027677359
 20
33.498825358471905
 40
4.3971428571428728
 50
44.165469
 51
51.472792
 73
     0
 72
     1
 10
356.25797987224882
 20
30.058885714285623
 11
356.01061544909965
 21
30.487333463164852
 72
     2
 10
353.51906027677359
 20
33.498825358471905
 40
3.9085714285714417
 50
309.602625
 51
331.307968
 73
     1
 72
     1
 10
356.9477096910565
 20
31.622314285714189
 11
356.13583701510595
 21
31.622314285714189
 72
     1
 10
356.13583701510595
 20
31.622314285714189
 11
356.13583701510595
 21
32.062028571428463
 72
     1
 10
356.13583701510595
 20
32.062028571428463
 11
356.67326558653451
 21
32.062028571428463
 72
     1
 10
356.67326558653451
 20
32.062028571428463
 11
356.67326558653451
 21
32.550599999999896
 72
     1
 10
356.67326558653451
 20
32.550599999999896
 11
357.11297987224884
 21
32.550599999999896
 72
     1
 10
357.11297987224884
 20
32.550599999999896
 11
357.11297987224884
 21
32.062028571428463
 72
     1
 10
357.11297987224884
 20
32.062028571428463
 11
357.67483701510594
 21
32.062028571428463
 72
     2
 10
353.51906027677359
 20
33.498825358471905
 40
4.3971428571428728
 50
19.072051
 51
32.871988
 73
     0
 72
     1
 10
357.21215602014064
 20
31.11221497207729
 11
357.79697987224881
 21
30.547457142857041
 72
     1
 10
357.79697987224881
 20
30.547457142857041
 11
357.451455076912
 21
30.201932347520248
 72
     1
 10
357.451455076912
 20
30.201932347520248
 11
357.11297987224884
 21
30.528794053214035
 72
     1
 10
357.11297987224884
 20
30.528794053214035
 11
357.11297987224884
 21
29.130599999999887
 72
     1
 10
357.11297987224884
 20
29.130599999999887
 11
356.67326558653451
 21
29.130599999999887
 72
     1
 10
356.67326558653451
 20
29.130599999999887
 11
356.67326558653451
 21
30.435191214191882
 97
        0
 75
     0
 76
     1
 98
        1
 10
0.0
 20
0.0
  0
HATCH
  5
3D5
100
AcDbEntity
  8
LAY-2
  6
CONTINUOUS
 62
     3
100
AcDbHatch
 10
0.0
 20
0.0
 30
0.0
210
0.0
220
0.0
230
1.0
  2
SOLID
 70
     1
 71
     1
 91
        1
 92
        1
 93
       12
 72
     2
 10
359.69808132770663
 20
26.904342255975386
 40
6.8888571428571659
 50
150.903074
 51
156.790773
 73
     1
 72
     1
 10
353.36672639386217
 20
29.619171428571285
 11
354.87092494641479
 21
29.619171428571342
 72
     2
 10
350.59808099350255
 20
28.390464566027632
 40
4.4460000000000148
 50
16.043216
 51
21.362935
 73
     1
 72
     1
 10
354.73860371803994
 20
30.010028571428464
 11
355.20755130082023
 21
30.010028571428464
 72
     2
 10
350.59808099350255
 20
28.390464566027632
 40
4.8857142857143021
 50
340.64078
 51
351.286733
 73
     0
 72
     1
 10
355.42740844367734
 20
29.130599999999887
 11
352.71583701510588
 21
29.130599999999887
 72
     2
 10
359.69808132770663
 20
26.904342255975386
 40
7.3285714285714523
 50
197.684652
 51
207.200855
 73
     0
 72
     1
 10
353.17997987224874
 20
30.254314285714187
 11
352.49597987224882
 21
30.254314285714187
 72
     1
 10
352.49597987224882
 20
30.254314285714187
 11
352.49597987224882
 21
30.74288571428562
 72
     1
 10
352.49597987224882
 20
30.74288571428562
 11
355.62283701510603
 21
30.74288571428562
 72
     1
 10
355.62283701510603
 20
30.74288571428562
 11
355.62283701510603
 21
30.254314285714187
 72
     1
 10
355.62283701510603
 20
30.254314285714187
 11
353.67860957890161
 21
30.254314285714187
 97
        0
 75
     0
 76
     1
 98
        1
 10
0.0
 20
0.0
  0
HATCH
  5
3D6
100
AcDbEntity
  8
LAY-2
  6
CONTINUOUS
 62
     3
100
AcDbHatch
 10
0.0
 20
0.0
 30
0.0
210
0.0
220
0.0
230
1.0
  2
SOLID
 70
     1
 71
     1
 91
        1
 92
        1
 93
       10
 72
     2
 10
359.72738353924706
 20
37.479246130431839
 40
7.8171428571428834
 50
129.545698
 51
136.474664
 73
     0
 72
     1
 10
354.05940844367751
 20
32.095773202573525
 11
354.05940844367751
 21
32.550599999999896
 72
     1
 10
354.05940844367751
 20
32.550599999999896
 11
354.30369415796315
 21
32.550599999999896
 72
     2
 10
359.72738353924706
 20
37.479246130431839
 40
7.3285714285714523
 50
222.262231
 51
237.763996
 73
     1
 72
     1
 10
355.81826558653455
 20
31.280314285714191
 11
355.50149630613646
 21
30.902803357776321
 72
     2
 10
359.72738353924706
 20
37.479246130431839
 40
7.8171428571428834
 50
122.723968
 51
128.230009
 73
     0
 72
     1
 10
354.88997987224883
 20
31.338623343491427
 11
354.88997987224883
 21
30.96274285714275
 72
     1
 10
354.88997987224883
 20
30.96274285714275
 11
354.05940844367751
 21
30.96274285714275
 72
     1
 10
354.05940844367751
 20
30.96274285714275
 11
354.05940844367751
 21
31.451314285714183
 72
     1
 10
354.05940844367751
 20
31.451314285714183
 11
354.75025985940761
 21
31.451314285714183
 97
        0
 75
     0
 76
     1
 98
        1
 10
0.0
 20
0.0
  0
HATCH
  5
3D7
100
AcDbEntity
  8
LAY-2
  6
CONTINUOUS
 62
     3
100
AcDbHatch
 10
0.0
 20
0.0
 30
0.0
210
0.0
220
0.0
230
1.0
  2
SOLID
 70
     1
 71
     1
 91
        1
 92
        1
 93
       10
 72
     2
 10
348.39143334810774
 20
37.479246130431839
 40
7.8171428571428834
 50
51.769991
 51
57.276032
 73
     0
 72
     1
 10
352.61732058121828
 20
30.902803357776307
 11
352.30055130082019
 21
31.280314285714184
 72
     2
 10
348.39143334810774
 20
37.479246130431839
 40
7.3285714285714523
 50
302.236004
 51
317.737769
 73
     1
 72
     1
 10
353.81512272939165
 20
32.550599999999896
 11
354.05940844367751
 21
32.550599999999896
 72
     1
 10
354.05940844367751
 20
32.550599999999896
 11
354.05940844367751
 21
32.095773202573817
 72
     2
 10
348.39143334810774
 20
37.479246130431839
 40
7.8171428571428834
 50
43.525336
 51
50.454302
 73
     0
 72
     1
 10
353.36855702794719
 20
31.451314285714183
 11
354.05940844367751
 21
31.451314285714183
 72
     1
 10
354.05940844367751
 20
31.451314285714183
 11
354.05940844367751
 21
30.96274285714275
 72
     1
 10
354.05940844367751
 20
30.96274285714275
 11
353.22883701510597
 21
30.96274285714275
 72
     1
 10
353.22883701510597
 20
30.96274285714275
 11
353.22883701510597
 21
31.33862334349142
 97
        0
 75
     0
 76
     1
 98
        1
 10
0.0
 20
0.0
  0
HATCH
  5
3D8
100
AcDbEntity
  8
LAY-2
  6
CONTINUOUS
 62
     3
100
AcDbHatch
 10
0.0
 20
0.0
 30
0.0
210
0.0
220
0.0
230
1.0
  2
SOLID
 70
     1
 71
     1
 91
        1
 92
        1
 93
       18
 72
     2
 10
344.79560464184135
 20
30.355004157940719
 40
6.8400000000000221
 50
14.02954
 51
18.723021
 73
     1
 72
     1
 10
351.2736412964407
 20
32.550599999999896
 11
351.78755130082021
 21
32.550599999999896
 72
     2
 10
344.79560464184135
 20
30.355004157940719
 40
7.3285714285714523
 50
342.566782
 51
346.922981
 73
     0
 72
     1
 10
351.93412272939167
 20
32.013171428571333
 11
352.12955130082025
 21
32.013171428571333
 72
     1
 10
352.12955130082025
 20
32.013171428571333
 11
352.12955130082025
 21
31.524599999999893
 72
     1
 10
352.12955130082025
 20
31.524599999999893
 11
351.21614416969032
 21
31.5245999999999
 72
     2
 10
356.28240844367735
 20
32.330742857142759
 40
5.1300000000000177
 50
189.041096
 51
204.65198
 73
     1
 72
     2
 10
352.64173419950748
 20
30.659915146419294
 40
1.1242323842884963
 50
204.65198
 51
242.897449
 73
     1
 72
     1
 10
352.12955130082025
 20
29.659131887079241
 11
352.12955130082025
 21
29.130599999999887
 72
     2
 10
352.64173419950748
 20
30.659915146419294
 40
1.6128038128599262
 50
108.516212
 51
155.34802
 73
     0
 72
     2
 10
356.28240844367735
 20
32.330742857142759
 40
5.6185714285714461
 50
155.34802
 51
171.750831
 73
     0
 72
     1
 10
350.72196973869757
 20
31.5245999999999
 11
348.8561227293917
 21
31.524599999999893
 72
     1
 10
348.8561227293917
 20
31.524599999999893
 11
348.8561227293917
 21
32.013171428571333
 72
     1
 10
348.8561227293917
 20
32.013171428571333
 11
350.67150208557842
 21
32.013171428571333
 72
     1
 10
350.67150208557842
 20
32.013171428571333
 11
350.65273466631731
 21
32.550599999999896
 72
     1
 10
350.65273466631731
 20
32.550599999999896
 11
351.14160390081759
 21
32.550599999999896
 72
     1
 10
351.14160390081759
 20
32.550599999999896
 11
351.1603713200787
 21
32.013171428571333
 72
     1
 10
351.1603713200787
 20
32.013171428571333
 11
351.43157339573168
 21
32.013171428571333
 97
        0
 75
     0
 76
     1
 98
        1
 10
0.0
 20
0.0
  0
HATCH
  5
3D9
100
AcDbEntity
  8
LAY-2
  6
CONTINUOUS
 62
     3
100
AcDbHatch
 10
0.0
 20
0.0
 30
0.0
210
0.0
220
0.0
230
1.0
  2
SOLID
 70
     1
 71
     1
 91
        1
 92
        1
 93
       12
 72
     2
 10
347.31833374739682
 20
53.65729257444908
 40
23.940000000000079
 50
276.500664
 51
278.269357
 73
     1
 72
     1
 10
350.76155130082026
 20
29.966200305838896
 11
350.76155130082026
 21
29.4725999999999
 72
     2
 10
347.31833374739682
 20
53.65729257444908
 40
24.428571428571509
 50
81.897153
 51
86.39082
 73
     0
 72
     1
 10
348.8561227293917
 20
29.277171428571322
 11
348.8561227293917
 21
29.766733664141867
 72
     2
 10
347.31833374739682
 20
53.65729257444908
 40
23.940000000000079
 50
273.682937
 51
275.325087
 73
     1
 72
     1
 10
349.54012272939167
 20
29.820613826781852
 11
349.54012272939167
 21
30.596314285714172
 72
     1
 10
349.54012272939167
 20
30.596314285714172
 11
348.8561227293917
 21
30.596314285714172
 72
     1
 10
348.8561227293917
 20
30.596314285714172
 11
348.8561227293917
 21
31.084885714285605
 72
     1
 10
348.8561227293917
 20
31.084885714285605
 11
350.6149798722488
 21
31.084885714285605
 72
     1
 10
350.6149798722488
 20
31.084885714285605
 11
350.6149798722488
 21
30.596314285714172
 72
     1
 10
350.6149798722488
 20
30.596314285714172
 11
350.02869415796312
 21
30.596314285714172
 72
     1
 10
350.02869415796312
 20
30.596314285714172
 11
350.02869415796306
 21
29.871213737346928
 97
        0
 75
     0
 76
     1
 98
        1
 10
0.0
 20
0.0
  0
HATCH
  5
3DA
100
AcDbEntity
  8
LAY-2
  6
CONTINUOUS
 62
     3
100
AcDbHatch
 10
0.0
 20
0.0
 30
0.0
210
0.0
220
0.0
230
1.0
  2
SOLID
 70
     1
 71
     1
 91
        1
 92
        1
 93
       30
 72
     2
 10
342.90253316290546
 20
33.331747823515371
 40
5.34985714285716
 50
37.940537
 51
46.713808
 73
     0
 72
     1
 10
346.57062498682097
 20
29.437383456856281
 11
346.24226558653447
 21
29.765742857142769
 72
     2
 10
342.90253316290546
 20
33.331747823515371
 40
4.8857142857143048
 50
313.123325
 51
325.95222
 73
     1
 72
     1
 10
346.95069415796303
 20
30.596314285714186
 11
346.36440844367735
 21
30.596314285714186
 72
     1
 10
346.36440844367735
 20
30.596314285714186
 11
346.36440844367735
 21
31.084885714285612
 72
     1
 10
346.36440844367735
 20
31.084885714285612
 11
347.12169415796313
 21
31.084885714285612
 72
     1
 10
347.12169415796313
 20
31.084885714285612
 11
347.12169415796313
 21
31.573457142857038
 72
     1
 10
347.12169415796313
 20
31.573457142857038
 11
346.87810272137472
 21
31.573457142857038
 72
     2
 10
341.65390727104415
 20
32.606884143730184
 40
5.3254285714285912
 50
11.189535
 51
14.746058
 73
     0
 72
     1
 10
346.80393461506378
 20
31.251373972157033
 11
346.38883701510588
 21
31.402457142857031
 72
     2
 10
341.65390727104415
 20
32.606884143730184
 40
4.8857142857143048
 50
345.728313
 51
357.620387
 73
     1
 72
     1
 10
346.5354084436774
 20
32.404028571429926
 11
346.97197854104104
 21
32.3270494842942
 72
     2
 10
341.65390727104415
 20
32.606884143730184
 40
5.3254285714285912
 50
3.012102
 51
6.401006
 73
     0
 72
     1
 10
346.94613692226363
 20
32.013171428571333
 11
347.12169415796313
 21
32.013171428571333
 72
     1
 10
347.12169415796313
 20
32.013171428571333
 11
347.12169415796313
 21
32.550599999999896
 72
     1
 10
347.12169415796313
 20
32.550599999999896
 11
347.61026558653452
 21
32.550599999999896
 72
     1
 10
347.61026558653452
 20
32.550599999999896
 11
347.61026558653452
 21
32.013171428571333
 72
     1
 10
347.61026558653452
 20
32.013171428571333
 11
348.26983701510596
 21
32.013171428571333
 72
     1
 10
348.26983701510596
 20
32.013171428571333
 11
348.26983701510596
 21
31.573457142857038
 72
     1
 10
348.26983701510596
 20
31.573457142857038
 11
347.61026558653452
 21
31.573457142857038
 72
     1
 10
347.61026558653452
 20
31.573457142857038
 11
347.61026558653452
 21
31.084885714285612
 72
     1
 10
347.61026558653452
 20
31.084885714285612
 11
348.3675513008202
 21
31.084885714285612
 72
     1
 10
348.3675513008202
 20
31.084885714285612
 11
348.3675513008202
 21
30.596314285714186
 72
     1
 10
348.3675513008202
 20
30.596314285714186
 11
347.78126558653446
 21
30.596314285714186
 72
     2
 10
351.82942658159203
 20
33.331747823515364
 40
4.8857142857143048
 50
214.04778
 51
226.876675
 73
     1
 72
     1
 10
348.48969415796302
 20
29.765742857142769
 11
348.16133475767651
 21
29.437383456856281
 72
     2
 10
351.82942658159203
 20
33.331747823515364
 40
5.34985714285716
 50
133.286192
 51
142.059463
 73
     0
 72
     1
 10
347.61026558653452
 20
30.042423888910406
 11
347.61026558653452
 21
29.130599999999887
 72
     1
 10
347.61026558653452
 20
29.130599999999887
 11
347.12169415796313
 21
29.130599999999887
 72
     1
 10
347.12169415796313
 20
29.130599999999887
 11
347.12169415796313
 21
30.042423888910541
 97
        0
 75
     0
 76
     1
 98
        1
 10
0.0
 20
0.0
  0
HATCH
  5
3DB
100
AcDbEntity
  8
LAY-2
  6
CONTINUOUS
 62
     3
100
AcDbHatch
 10
0.0
 20
0.0
 30
0.0
210
0.0
220
0.0
230
1.0
  2
SOLID
 70
     1
 71
     1
 91
        1
 92
        1
 93
       19
 72
     2
 10
340.89130661813545
 20
32.679673838038148
 40
5.3254285714285894
 50
27.683433
 51
32.280505
 73
     0
 72
     1
 10
345.39365611744768
 20
29.835550342929231
 11
345.04526558653447
 21
30.107742857142746
 72
     2
 10
340.89130661813545
 20
32.679673838038148
 40
4.8857142857143021
 50
328.236207
 51
344.845745
 73
     1
 72
     1
 10
345.60712272939156
 20
31.402457142857038
 11
345.16740844367735
 21
31.402457142857038
 72
     1
 10
345.16740844367735
 20
31.402457142857038
 11
345.16740844367735
 21
31.891028571428471
 72
     1
 10
345.16740844367735
 20
31.891028571428471
 11
345.60712272939168
 21
31.891028571428471
 72
     1
 10
345.60712272939168
 20
31.891028571428471
 11
345.60712272939168
 21
32.550599999999896
 72
     1
 10
345.60712272939168
 20
32.550599999999896
 11
346.09569415796307
 21
32.550599999999896
 72
     1
 10
346.09569415796307
 20
32.550599999999896
 11
346.09569415796307
 21
31.891028571428471
 72
     1
 10
346.09569415796307
 20
31.891028571428471
 11
346.31555130082023
 21
31.891028571428471
 72
     1
 10
346.31555130082023
 20
31.891028571428471
 11
346.31555130082023
 21
31.402457142857038
 72
     1
 10
346.31555130082023
 20
31.402457142857038
 11
346.09569415796307
 21
31.402457142857038
 72
     1
 10
346.09569415796307
 20
31.402457142857038
 11
346.36440844367735
 21
31.01869337133099
 72
     1
 10
346.36440844367735
 20
31.01869337133099
 11
346.36440844367735
 21
30.721257458202452
 72
     1
 10
346.36440844367735
 20
30.721257458202452
 11
346.21783701510594
 21
30.546580431630751
 72
     1
 10
346.21783701510594
 20
30.546580431630751
 11
346.09569415796307
 21
30.72101850959708
 72
     1
 10
346.09569415796307
 20
30.72101850959708
 11
346.09569415796307
 21
29.130599999999887
 72
     1
 10
346.09569415796307
 20
29.130599999999887
 11
345.60712272939168
 21
29.130599999999887
 72
     1
 10
345.60712272939168
 20
29.130599999999887
 11
345.60712272939168
 21
30.20555422205274
 97
        0
 75
     0
 76
     1
 98
        1
 10
0.0
 20
0.0
  0
HATCH
  5
3DC
100
AcDbEntity
  8
LAY-2
  6
CONTINUOUS
 62
     3
100
AcDbHatch
 10
0.0
 20
0.0
 30
0.0
210
0.0
220
0.0
230
1.0
  2
SOLID
 70
     1
 71
     1
 91
        1
 92
        1
 93
        8
 72
     2
 10
342.94335998905166
 20
30.566999999999823
 40
0.9576000000000078
 50
270.0
 51
330.0
 73
     1
 72
     2
 10
342.46947088810077
 20
30.840599999999824
 40
1.5048000000000072
 50
330.0
 51
30.0
 73
     1
 72
     2
 10
342.94335998905166
 20
31.114199999999826
 40
0.9576000000000072
 50
30.0
 51
90.0
 73
     1
 72
     1
 10
342.94335998905194
 20
32.071799999999833
 11
342.94335998905194
 21
32.618999999999943
 72
     2
 10
342.9433599890516
 20
31.11419999999994
 40
1.5048000000000048
 50
270.0
 51
330.0
 73
     0
 72
     2
 10
342.46947088810089
 20
30.840599999999917
 40
2.0520000000000094
 50
330.0
 51
30.0
 73
     0
 72
     2
 10
342.94335998905171
 20
30.566999999999766
 40
1.504800000000003
 50
30.0
 51
90.0
 73
     0
 72
     1
 10
342.94335998905194
 20
29.062199999999763
 11
342.94335998905194
 21
29.609399999999816
 97
        0
 75
     0
 76
     1
 98
        1
 10
0.0
 20
0.0
  0
HATCH
  5
3DD
100
AcDbEntity
  8
LAY-2
  6
CONTINUOUS
 62
     3
100
AcDbHatch
 10
0.0
 20
0.0
 30
0.0
210
0.0
220
0.0
230
1.0
  2
SOLID
 70
     1
 71
     1
 91
        1
 92
        1
 93
        8
 72
     2
 10
342.94335998905171
 20
30.566999999999766
 40
1.504800000000003
 50
90.0
 51
150.0
 73
     0
 72
     2
 10
343.41724909000243
 20
30.840599999999803
 40
2.0520000000000111
 50
150.0
 51
210.0
 73
     0
 72
     2
 10
342.9433599890516
 20
31.11419999999994
 40
1.5048000000000048
 50
210.0
 51
270.0
 73
     0
 72
     1
 10
342.94335998905194
 20
32.618999999999943
 11
342.94335998905194
 21
32.071799999999833
 72
     2
 10
342.94335998905166
 20
31.114199999999826
 40
0.9576000000000072
 50
90.0
 51
150.0
 73
     1
 72
     2
 10
343.41724909000254
 20
30.840599999999824
 40
1.5048000000000079
 50
150.0
 51
210.0
 73
     1
 72
     2
 10
342.94335998905166
 20
30.566999999999823
 40
0.9576000000000078
 50
210.0
 51
270.0
 73
     1
 72
     1
 10
342.94335998905194
 20
29.609399999999816
 11
342.94335998905194
 21
29.062199999999763
 97
        0
 75
     0
 76
     1
 98
        1
 10
0.0
 20
0.0
  0
HATCH
  5
3DE
100
AcDbEntity
  8
LAY-2
  6
CONTINUOUS
 62
     3
100
AcDbHatch
 10
0.0
 20
0.0
 30
0.0
210
0.0
220
0.0
230
1.0
  2
SOLID
 70
     1
 71
     1
 91
        1
 92
        1
 93
        4
 72
     1
 10
340.8229599890517
 20
30.224999999999824
 11
340.27575998905166
 21
30.224999999999824
 72
     1
 10
340.27575998905166
 20
30.224999999999824
 11
340.27575998905166
 21
30.77219999999982
 72
     1
 10
340.27575998905166
 20
30.77219999999982
 11
340.8229599890517
 21
30.77219999999982
 72
     1
 10
340.8229599890517
 20
30.77219999999982
 11
340.8229599890517
 21
30.224999999999788
 97
        0
 75
     0
 76
     1
 98
        1
 10
0.0
 20
0.0
  0
HATCH
  5
3DF
100
AcDbEntity
  8
LAY-2
  6
CONTINUOUS
 62
     3
100
AcDbHatch
 10
0.0
 20
0.0
 30
0.0
210
0.0
220
0.0
230
1.0
  2
SOLID
 70
     1
 71
     1
 91
        1
 92
        1
 93
       16
 72
     1
 10
338.22375998905164
 20
32.003399999999829
 11
337.47135998905162
 21
32.003399999999829
 72
     1
 10
337.47135998905162
 20
32.003399999999829
 11
337.33455998905163
 21
31.250999999999827
 72
     1
 10
337.33455998905163
 20
31.250999999999827
 11
336.92415998905165
 21
31.250999999999827
 72
     1
 10
336.92415998905165
 20
31.250999999999827
 11
336.92415998905165
 21
32.550599999999832
 72
     1
 10
336.92415998905165
 20
32.550599999999832
 11
340.07055998905167
 21
32.550599999999832
 72
     1
 10
340.07055998905167
 20
32.550599999999832
 11
340.07055998905167
 21
31.250999999999827
 72
     1
 10
340.07055998905167
 20
31.250999999999827
 11
339.66015998905169
 21
31.250999999999827
 72
     1
 10
339.66015998905169
 20
31.250999999999827
 11
339.52335998905164
 21
32.003399999999829
 72
     1
 10
339.52335998905164
 20
32.003399999999829
 11
338.77095998905168
 21
32.003399999999829
 72
     1
 10
338.77095998905168
 20
32.003399999999829
 11
338.77095998905168
 21
29.67779999999982
 72
     1
 10
338.77095998905168
 20
29.67779999999982
 11
339.31815998905165
 21
29.540999999999819
 72
     1
 10
339.31815998905165
 20
29.540999999999819
 11
339.31815998905165
 21
29.130599999999816
 72
     1
 10
339.31815998905165
 20
29.130599999999816
 11
337.67655998905167
 21
29.130599999999816
 72
     1
 10
337.67655998905167
 20
29.130599999999816
 11
337.67655998905167
 21
29.540999999999819
 72
     1
 10
337.67655998905167
 20
29.540999999999819
 11
338.22375998905164
 21
29.67779999999982
 72
     1
 10
338.22375998905164
 20
29.67779999999982
 11
338.22375998905164
 21
32.003399999999829
 97
        0
 75
     0
 76
     1
 98
        1
 10
0.0
 20
0.0
  0
HATCH
  5
3E0
100
AcDbEntity
  8
LAY-2
  6
CONTINUOUS
 62
     3
100
AcDbHatch
 10
0.0
 20
0.0
 30
0.0
210
0.0
220
0.0
230
1.0
  2
SOLID
 70
     1
 71
     1
 91
        1
 92
        1
 93
        4
 72
     1
 10
336.17175998905168
 20
30.224999999999824
 11
336.17175998905168
 21
30.772199999999856
 72
     1
 10
336.17175998905168
 20
30.772199999999856
 11
336.71895998905165
 21
30.77219999999982
 72
     1
 10
336.71895998905165
 20
30.77219999999982
 11
336.71895998905165
 21
30.224999999999824
 72
     1
 10
336.71895998905165
 20
30.224999999999824
 11
336.17175998905168
 21
30.224999999999824
 97
        0
 75
     0
 76
     1
 98
        1
 10
0.0
 20
0.0
  0
HATCH
  5
3E1
100
AcDbEntity
  8
LAY-2
  6
CONTINUOUS
 62
     3
100
AcDbHatch
 10
0.0
 20
0.0
 30
0.0
210
0.0
220
0.0
230
1.0
  2
SOLID
 70
     1
 71
     1
 91
        1
 92
        1
 93
       12
 72
     1
 10
335.55615998905165
 20
32.550599999999832
 11
335.55615998905165
 21
32.14019999999983
 72
     1
 10
335.55615998905165
 20
32.14019999999983
 11
335.00895998905168
 21
32.003399999999829
 72
     1
 10
335.00895998905168
 20
32.003399999999829
 11
335.00895998905168
 21
29.67779999999982
 72
     1
 10
335.00895998905168
 20
29.67779999999982
 11
335.55615998905165
 21
29.540999999999819
 72
     1
 10
335.55615998905165
 20
29.540999999999819
 11
335.55615998905165
 21
29.130599999999816
 72
     1
 10
335.55615998905165
 20
29.130599999999816
 11
333.91455998905167
 21
29.130599999999816
 72
     1
 10
333.91455998905167
 20
29.130599999999816
 11
333.91455998905167
 21
29.540999999999819
 72
     1
 10
333.91455998905167
 20
29.540999999999819
 11
334.46175998905164
 21
29.67779999999982
 72
     1
 10
334.46175998905164
 20
29.67779999999982
 11
334.46175998905164
 21
32.003399999999829
 72
     1
 10
334.46175998905164
 20
32.003399999999829
 11
333.91455998905167
 21
32.14019999999983
 72
     1
 10
333.91455998905167
 20
32.14019999999983
 11
333.91455998905167
 21
32.550599999999832
 72
     1
 10
333.91455998905167
 20
32.550599999999832
 11
335.55615998905165
 21
32.550599999999832
 97
        0
 75
     0
 76
     1
 98
        1
 10
0.0
 20
0.0
  0
HATCH
  5
3E2
100
AcDbEntity
  8
LAY-2
  6
CONTINUOUS
 62
     3
100
AcDbHatch
 10
0.0
 20
0.0
 30
0.0
210
0.0
220
0.0
230
1.0
  2
SOLID
 70
     1
 71
     1
 91
        1
 92
        1
 93
       15
 72
     2
 10
330.19194333433609
 20
30.840599999999895
 40
1.5186318631863209
 50
124.301153
 51
180.0
 73
     0
 72
     1
 10
328.67331147114976
 20
30.840599999999988
 11
329.24634797132501
 21
30.840599999999988
 72
     2
 10
330.72393573010083
 20
30.84059999999991
 40
1.4775877587758821
 50
180.0
 51
199.464384
 73
     1
 72
     2
 10
329.30688257282566
 20
31.004507188899673
 40
0.6567056705670725
 50
272.086657
 51
294.619977
 73
     1
 72
     2
 10
329.49497028811811
 20
30.594066144795249
 40
0.2052205220522064
 50
294.619977
 51
0.0
 73
     1
 72
     1
 10
329.7001908101704
 20
30.594066144795249
 11
329.7001908101704
 21
30.840599999999988
 72
     1
 10
329.7001908101704
 20
30.840599999999988
 11
330.19272006309563
 21
30.840599999999988
 72
     1
 10
330.19272006309563
 20
30.840599999999988
 11
330.19272006309563
 21
30.593630683516693
 72
     2
 10
330.39794058514786
 20
30.593630683516693
 40
0.205220522052198
 50
180.0
 51
245.380023
 73
     1
 72
     2
 10
330.58602830044038
 20
31.004071727621188
 40
0.6567056705671447
 50
245.380023
 51
267.913343
 73
     1
 72
     1
 10
330.56211700278965
 20
30.347801518332588
 11
330.56211700278965
 21
30.224669205101279
 72
     1
 10
330.56211700278965
 20
30.224669205101279
 11
329.38084420649579
 21
30.224669205101272
 72
     2
 10
330.72393573010095
 20
30.84059999999991
 40
1.4775877587758801
 50
204.635803
 51
268.19864
 73
     1
 72
     1
 10
330.67748852884256
 20
29.363742443436109
 11
330.67748852884256
 21
29.158229771202606
 72
     2
 10
330.72393573010083
 20
31.620437983798361
 40
2.462646264626474
 50
91.080702
 51
124.301153
 73
     0
 97
        0
 75
     0
 76
     1
 98
        1
 10
0.0
 20
0.0
  0
HATCH
  5
3E3
100
AcDbEntity
  8
LAY-2
  6
CONTINUOUS
 62
     3
100
AcDbHatch
 10
0.0
 20
0.0
 30
0.0
210
0.0
220
0.0
230
1.0
  2
SOLID
 70
     1
 71
     1
 91
        1
 92
        1
 93
       24
 72
     2
 10
330.43895485566031
 20
31.045820522052111
 40
0.2052205220522082
 50
90.0
 51
157.380135
 73
     1
 72
     2
 10
330.93148410858555
 20
30.840599999999924
 40
0.7387938793879422
 50
157.380135
 51
180.0
 73
     1
 72
     1
 10
330.19269022919764
 20
30.840599999999988
 11
329.7001908101704
 21
30.840599999999988
 72
     1
 10
329.7001908101704
 20
30.840599999999988
 11
329.7001908101704
 21
31.906063243758602
 72
     2
 10
330.72393573010083
 20
30.84059999999991
 40
1.4775877587758821
 50
133.856042
 51
180.0
 73
     1
 72
     1
 10
329.24634797132501
 20
30.840599999999988
 11
328.67331147114976
 21
30.840599999999988
 72
     2
 10
330.19194333433609
 20
30.840599999999895
 40
1.5186318631863209
 50
180.0
 51
235.698847
 73
     0
 72
     2
 10
330.72393573010095
 20
30.060762016201437
 40
2.4626462646264793
 50
235.698847
 51
245.436008
 73
     0
 72
     1
 10
329.7001908101704
 20
32.300532755271661
 11
329.7001908101704
 21
32.523574513364537
 72
     2
 10
329.49497028811811
 20
32.523574513364537
 40
0.2052205220522053
 50
0.0
 51
65.380023
 73
     1
 72
     2
 10
329.30688257282566
 20
32.11313346926012
 40
0.6567056705670576
 50
65.380023
 51
87.913343
 73
     1
 72
     1
 10
329.33079387047638
 20
32.769403678548635
 11
329.33079387047638
 21
32.892535991779951
 72
     1
 10
329.33079387047638
 20
32.892535991779951
 11
330.56211700278965
 21
32.892535991779951
 72
     1
 10
330.56211700278965
 20
32.892535991779951
 11
330.56211700278965
 21
32.769403678548635
 72
     2
 10
330.58602830044038
 20
32.11313346926012
 40
0.6567056705670606
 50
92.086657
 51
114.619977
 73
     1
 72
     2
 10
330.39794058514792
 20
32.523574513364544
 40
0.2052205220522082
 50
114.619977
 51
180.0
 73
     1
 72
     1
 10
330.19272006309563
 20
32.523574513364537
 11
330.19272006309563
 21
32.465431752320505
 72
     2
 10
330.72393573010083
 20
30.060762016201437
 40
2.4626462646264731
 50
257.542857
 51
268.919298
 73
     0
 72
     1
 10
330.67748852884256
 20
32.522970228797192
 11
330.67748852884256
 21
32.31745755656371
 72
     2
 10
330.72393573010095
 20
30.84059999999991
 40
1.4775877587758821
 50
91.80136
 51
111.070443
 73
     1
 72
     1
 10
330.19272006309563
 20
32.219394944874772
 11
330.19272006309563
 21
31.45626156615652
 72
     1
 10
330.19272006309563
 20
31.45626156615652
 11
330.67748852884256
 21
31.45626156615652
 72
     1
 10
330.67748852884256
 20
31.45626156615652
 11
330.67748852884256
 21
31.251041044104312
 72
     1
 10
330.67748852884256
 20
31.251041044104312
 11
330.43895485566031
 21
31.251041044104312
 97
        0
 75
     0
 76
     1
 98
        1
 10
0.0
 20
0.0
  0
HATCH
  5
3E4
100
AcDbEntity
  8
LAY-2
  6
CONTINUOUS
 62
     3
100
AcDbHatch
 10
0.0
 20
0.0
 30
0.0
210
0.0
220
0.0
230
1.0
  2
SOLID
 70
     1
 71
     1
 91
        1
 92
        1
 93
       14
 72
     2
 10
330.72393573010083
 20
30.84059999999991
 40
1.477587758775885
 50
0.0
 51
9.281799
 73
     1
 72
     2
 10
331.97964386594151
 20
31.045820522052111
 40
0.205220522052204
 50
9.281799
 51
90.0
 73
     1
 72
     1
 10
331.97964386594151
 20
31.251041044104312
 11
331.5448178183097
 21
31.251041044104312
 72
     1
 10
331.5448178183097
 20
31.251041044104312
 11
331.5448178183097
 21
30.840599999999988
 72
     1
 10
331.5448178183097
 20
30.840599999999988
 11
331.0522885653844
 21
30.840599999999988
 72
     1
 10
331.0522885653844
 20
30.840599999999988
 11
331.0522885653844
 21
31.251041044104312
 72
     1
 10
331.0522885653844
 20
31.251041044104312
 11
330.67748852884256
 21
31.251041044104312
 72
     1
 10
330.67748852884256
 20
31.251041044104312
 11
330.67748852884256
 21
31.45626156615652
 72
     1
 10
330.67748852884256
 20
31.45626156615652
 11
332.06715068715056
 21
31.456261566156506
 72
     2
 10
330.72393573010095
 20
30.84059999999991
 40
1.4775877587758821
 50
24.624318
 51
91.80136
 73
     1
 72
     1
 10
330.67748852884256
 20
32.31745755656371
 11
330.67748852884256
 21
32.522970228797192
 72
     2
 10
330.72393573010083
 20
30.060762016201437
 40
2.4626462646264731
 50
268.919298
 51
304.301153
 73
     0
 72
     2
 10
331.25592812586569
 20
30.840599999999895
 40
1.5186318631863223
 50
304.301153
 51
0.0
 73
     0
 72
     1
 10
332.77455998905202
 20
30.840599999999988
 11
332.20152348887677
 21
30.840599999999988
 97
        0
 75
     0
 76
     1
 98
        1
 10
0.0
 20
0.0
  0
HATCH
  5
3E5
100
AcDbEntity
  8
LAY-2
  6
CONTINUOUS
 62
     3
100
AcDbHatch
 10
0.0
 20
0.0
 30
0.0
210
0.0
220
0.0
230
1.0
  2
SOLID
 70
     1
 71
     1
 91
        1
 92
        1
 93
       19
 72
     2
 10
330.72393573010083
 20
30.84059999999991
 40
1.477587758775885
 50
303.748989
 51
0.0
 73
     1
 72
     1
 10
332.20152348887677
 20
30.840599999999988
 11
332.77455998905202
 21
30.840599999999988
 72
     2
 10
331.25592812586569
 20
30.840599999999895
 40
1.5186318631863223
 50
0.0
 51
55.698847
 73
     0
 72
     2
 10
330.72393573010095
 20
31.620437983798368
 40
2.4626462646264775
 50
55.698847
 51
70.528779
 73
     0
 72
     1
 10
331.5448178183097
 20
29.298632819290219
 11
331.5448178183097
 21
29.157356257893262
 72
     2
 10
331.75003834036193
 20
29.157356257893262
 40
0.2052205220522064
 50
180.0
 51
245.380023
 73
     1
 72
     2
 10
331.93812605565438
 20
29.567797301997679
 40
0.6567056705670594
 50
245.380023
 51
267.913343
 73
     1
 72
     1
 10
331.91421475800371
 20
28.911527092709164
 11
331.91421475800371
 21
28.788394779477841
 72
     1
 10
331.91421475800371
 20
28.788394779477841
 11
330.68289162569044
 21
28.788394779477841
 72
     1
 10
330.68289162569044
 20
28.788394779477841
 11
330.68289162569044
 21
28.911527092709164
 72
     2
 10
330.65898032803966
 20
29.567797301997679
 40
0.6567056705670594
 50
272.086657
 51
294.619977
 73
     1
 72
     2
 10
330.84706804333217
 20
29.157356257893262
 40
0.2052205220522064
 50
294.619977
 51
0.0
 73
     1
 72
     1
 10
331.0522885653844
 20
29.157356257893262
 11
331.0522885653844
 21
29.179780072447407
 72
     2
 10
330.72393573010083
 20
31.620437983798361
 40
2.462646264626474
 50
82.337744
 51
91.080702
 73
     0
 72
     1
 10
330.67748852884256
 20
29.158229771202606
 11
330.67748852884256
 21
29.363742443436109
 72
     2
 10
330.72393573010095
 20
30.84059999999991
 40
1.4775877587758801
 50
268.19864
 51
282.839588
 73
     1
 72
     1
 10
331.0522885653844
 20
29.399957781943804
 11
331.0522885653844
 21
30.840599999999988
 72
     1
 10
331.0522885653844
 20
30.840599999999988
 11
331.5448178183097
 21
30.840599999999988
 72
     1
 10
331.5448178183097
 20
30.840599999999988
 11
331.5448178183097
 21
29.61201618839312
 97
        0
 75
     0
 76
     1
 98
        1
 10
0.0
 20
0.0
  0
TEXT
  5
3E6
100
AcDbEntity
  8
LAY-2
  6
CONTINUOUS
 62
     3
100
AcDbText
 10
322.1872
 20
44.544
 30
0.0
 40
4.0
  1
ＩＶ－２０６Ｃ
 41
0.84
  7
EXCADSTD
 72
     5
 11
350.1872
 21
44.544
 31
0.0
100
AcDbText
  0
TEXT
  5
3E7
100
AcDbEntity
  8
LAY-2
  6
CONTINUOUS
 62
     3
100
AcDbText
 10
322.1808
 20
38.9632
 30
0.0
 40
4.0
  1
ストップバルブ
 41
0.84
  7
EXCADSTD
 72
     5
 11
350.1808
 21
38.9632
 31
0.0
100
AcDbText
  0
LINE
  5
3E8
100
AcDbEntity
  8
LAY-2
  6
CONTINUOUS
 62
     1
100
AcDbLine
 10
308.2
 20
38.16
 30
0.0
 11
379.88
 21
38.16
 31
0.0
  0
LINE
  5
3E9
100
AcDbEntity
  8
LAY-2
  6
CONTINUOUS
 62
     1
100
AcDbLine
 10
308.2
 20
43.76
 30
0.0
 11
379.88
 21
43.76
 31
0.0
  0
LINE
  5
3EA
100
AcDbEntity
  8
LAY-2
  6
CONTINUOUS
 62
     1
100
AcDbLine
 10
308.2
 20
49.36
 30
0.0
 11
379.88
 21
49.36
 31
0.0
  0
LINE
  5
3EB
100
AcDbEntity
  8
LAY-2
  6
CONTINUOUS
 62
     1
100
AcDbLine
 10
320.2
 20
54.96
 30
0.0
 11
320.2
 21
38.16
 31
0.0
  0
TEXT
  5
3EC
100
AcDbEntity
  8
LAY-2
  6
CONTINUOUS
 62
     3
100
AcDbText
 10
324.296
 20
50.064
 30
0.0
 40
4.0
  1
２０１６年　５月　１７日
 41
0.84
  7
EXCADSTD
 72
     5
 11
372.296
 21
50.064
 31
0.0
100
AcDbText
  0
LINE
  5
3ED
100
AcDbEntity
  8
LAY-5
  6
CONTINUOUS
 62
     1
100
AcDbLine
 10
80.753317
 20
166.428809
 30
0.0
 11
49.6
 21
166.428809
 31
0.0
  0
LINE
  5
3EE
100
AcDbEntity
  8
LAY-5
  6
CONTINUOUS
 62
     1
100
AcDbLine
 10
80.753317
 20
121.428809
 30
0.0
 11
49.6
 21
121.428809
 31
0.0
  0
LINE
  5
3EF
100
AcDbEntity
  8
LAY-5
  6
CONTINUOUS
 62
     1
100
AcDbLine
 10
50.1
 20
166.428809
 30
0.0
 11
50.1
 21
121.428809
 31
0.0
  0
LINE
  5
3F0
100
AcDbEntity
  8
LAY-5
  6
CONTINUOUS
 62
     1
100
AcDbLine
 10
50.433333
 20
164.428809
 30
0.0
 11
50.1
 21
166.428809
 31
0.0
  0
LINE
  5
3F1
100
AcDbEntity
  8
LAY-5
  6
CONTINUOUS
 62
     1
100
AcDbLine
 10
50.1
 20
166.428809
 30
0.0
 11
49.766667
 21
164.428809
 31
0.0
  0
LINE
  5
3F2
100
AcDbEntity
  8
LAY-5
  6
CONTINUOUS
 62
     1
100
AcDbLine
 10
49.766667
 20
123.428809
 30
0.0
 11
50.1
 21
121.428809
 31
0.0
  0
LINE
  5
3F3
100
AcDbEntity
  8
LAY-5
  6
CONTINUOUS
 62
     1
100
AcDbLine
 10
50.1
 20
121.428809
 30
0.0
 11
50.433333
 21
123.428809
 31
0.0
  0
TEXT
  5
3F4
100
AcDbEntity
  8
LAY-5
  6
CONTINUOUS
 62
     3
100
AcDbText
 10
49.1
 20
138.928809
 30
0.0
 40
5.0
  1
４５
 50
90.0
 41
0.84
  7
EXCADSTD
 72
     5
 11
49.1
 21
148.094809
 31
0.0
100
AcDbText
  0
LINE
  5
3F5
100
AcDbEntity
  8
LAY-5
  6
CONTINUOUS
 62
     1
100
AcDbLine
 10
80.753317
 20
118.8
 30
0.0
 11
80.753317
 21
90.9
 31
0.0
  0
LINE
  5
3F6
100
AcDbEntity
  8
LAY-5
  6
CONTINUOUS
 62
     1
100
AcDbLine
 10
131.953317
 20
143.928809
 30
0.0
 11
131.953317
 21
90.9
 31
0.0
  0
LINE
  5
3F7
100
AcDbEntity
  8
LAY-5
  6
CONTINUOUS
 62
     1
100
AcDbLine
 10
80.753317
 20
91.4
 30
0.0
 11
131.953317
 21
91.4
 31
0.0
  0
LINE
  5
3F8
100
AcDbEntity
  8
LAY-5
  6
CONTINUOUS
 62
     1
100
AcDbLine
 10
82.753317
 20
91.733333
 30
0.0
 11
80.753317
 21
91.4
 31
0.0
  0
LINE
  5
3F9
100
AcDbEntity
  8
LAY-5
  6
CONTINUOUS
 62
     1
100
AcDbLine
 10
80.753317
 20
91.4
 30
0.0
 11
82.753317
 21
91.066667
 31
0.0
  0
LINE
  5
3FA
100
AcDbEntity
  8
LAY-5
  6
CONTINUOUS
 62
     1
100
AcDbLine
 10
129.953317
 20
91.066667
 30
0.0
 11
131.953317
 21
91.4
 31
0.0
  0
LINE
  5
3FB
100
AcDbEntity
  8
LAY-5
  6
CONTINUOUS
 62
     1
100
AcDbLine
 10
131.953317
 20
91.4
 30
0.0
 11
129.953317
 21
91.733333
 31
0.0
  0
TEXT
  5
3FC
100
AcDbEntity
  8
LAY-5
  6
CONTINUOUS
 62
     3
100
AcDbText
 10
92.603317
 20
92.4
 30
0.0
 40
5.0
  1
（５１.２）
 41
0.794444
  7
EXCADSTD
 72
     5
 11
120.103317
 21
92.4
 31
0.0
100
AcDbText
  0
LINE
  5
3FD
100
AcDbEntity
  8
LAY-5
  6
CONTINUOUS
 62
     1
100
AcDbLine
 10
121.053317
 20
171.428809
 30
0.0
 11
149.2
 21
171.428809
 31
0.0
  0
LINE
  5
3FE
100
AcDbEntity
  8
LAY-5
  6
CONTINUOUS
 62
     1
100
AcDbLine
 10
121.053317
 20
116.428809
 30
0.0
 11
149.2
 21
116.428809
 31
0.0
  0
LINE
  5
3FF
100
AcDbEntity
  8
LAY-5
  6
CONTINUOUS
 62
     1
100
AcDbLine
 10
148.7
 20
171.428809
 30
0.0
 11
148.7
 21
116.428809
 31
0.0
  0
LINE
  5
400
100
AcDbEntity
  8
LAY-5
  6
CONTINUOUS
 62
     1
100
AcDbLine
 10
149.033333
 20
169.428809
 30
0.0
 11
148.7
 21
171.428809
 31
0.0
  0
LINE
  5
401
100
AcDbEntity
  8
LAY-5
  6
CONTINUOUS
 62
     1
100
AcDbLine
 10
148.7
 20
171.428809
 30
0.0
 11
148.366667
 21
169.428809
 31
0.0
  0
LINE
  5
402
100
AcDbEntity
  8
LAY-5
  6
CONTINUOUS
 62
     1
100
AcDbLine
 10
148.366667
 20
118.428809
 30
0.0
 11
148.7
 21
116.428809
 31
0.0
  0
LINE
  5
403
100
AcDbEntity
  8
LAY-5
  6
CONTINUOUS
 62
     1
100
AcDbLine
 10
148.7
 20
116.428809
 30
0.0
 11
149.033333
 21
118.428809
 31
0.0
  0
TEXT
  5
404
100
AcDbEntity
  8
LAY-5
  6
CONTINUOUS
 62
     3
100
AcDbText
 10
147.7
 20
136.428809
 30
0.0
 40
5.0
  1
φ
 50
90.0
 41
0.84
  7
EXCADSTD
 72
     5
 11
147.7
 21
140.428809
 31
0.0
100
AcDbText
  0
TEXT
  5
405
100
AcDbEntity
  8
LAY-5
  6
CONTINUOUS
 62
     3
100
AcDbText
 10
147.7
 20
141.428809
 30
0.0
 40
5.0
  1
５５
 50
90.0
 41
0.84
  7
EXCADSTD
 72
     5
 11
147.7
 21
150.594809
 31
0.0
100
AcDbText
  0
TEXT
  5
406
100
AcDbEntity
  8
LAY-5
  6
CONTINUOUS
 62
     3
100
AcDbText
 10
55.59
 20
178.99
 30
0.0
 40
3.2
  1
Ｒｃ１／４
 41
0.84
  7
EXCADSTD
 72
     5
 11
71.59
 21
178.99
 31
0.0
100
AcDbText
  0
POLYLINE
  5
407
100
AcDbEntity
  8
LAY-5
  6
CONTINUOUS
 62
     1
100
AcDb2dPolyline
 66
     1
 10
0.0
 20
0.0
 30
0.0
 70
   128
  0
VERTEX
  5
408
100
AcDbEntity
  8
LAY-5
  6
CONTINUOUS
 62
     1
100
AcDbVertex
100
AcDb2dVertex
 10
80.753317
 20
166.428809
 30
0.0
  0
VERTEX
  5
409
100
AcDbEntity
  8
LAY-5
  6
CONTINUOUS
 62
     1
100
AcDbVertex
100
AcDb2dVertex
 10
71.14
 20
178.69
 30
0.0
  0
VERTEX
  5
40A
100
AcDbEntity
  8
LAY-5
  6
CONTINUOUS
 62
     1
100
AcDbVertex
100
AcDb2dVertex
 10
56.04
 20
178.69
 30
0.0
  0
SEQEND
  5
40B
100
AcDbEntity
  8
LAY-5
  6
CONTINUOUS
 62
     1
  0
LINE
  5
40C
100
AcDbEntity
  8
LAY-5
  6
CONTINUOUS
 62
     1
100
AcDbLine
 10
79.256981
 20
167.797052
 30
0.0
 11
80.753317
 21
166.428809
 31
0.0
  0
LINE
  5
40D
100
AcDbEntity
  8
LAY-5
  6
CONTINUOUS
 62
     1
100
AcDbLine
 10
80.753317
 20
166.428809
 30
0.0
 11
79.781619
 21
168.208391
 31
0.0
  0
TEXT
  5
40E
100
AcDbEntity
  8
LAY-5
  6
CONTINUOUS
 62
     3
100
AcDbText
 10
48.006127
 20
104.987746
 30
0.0
 40
3.2
  1
Ｒｃ１／４
 41
0.84
  7
EXCADSTD
 72
     5
 11
64.006127
 21
104.987746
 31
0.0
100
AcDbText
  0
POLYLINE
  5
40F
100
AcDbEntity
  8
LAY-5
  6
CONTINUOUS
 62
     1
100
AcDb2dPolyline
 66
     1
 10
0.0
 20
0.0
 30
0.0
 70
   128
  0
VERTEX
  5
410
100
AcDbEntity
  8
LAY-5
  6
CONTINUOUS
 62
     1
100
AcDbVertex
100
AcDb2dVertex
 10
80.753317
 20
121.428809
 30
0.0
  0
VERTEX
  5
411
100
AcDbEntity
  8
LAY-5
  6
CONTINUOUS
 62
     1
100
AcDbVertex
100
AcDb2dVertex
 10
64.012254
 20
104.687746
 30
0.0
  0
VERTEX
  5
412
100
AcDbEntity
  8
LAY-5
  6
CONTINUOUS
 62
     1
100
AcDbVertex
100
AcDb2dVertex
 10
48.0
 20
104.687746
 30
0.0
  0
SEQEND
  5
413
100
AcDbEntity
  8
LAY-5
  6
CONTINUOUS
 62
     1
  0
LINE
  5
414
100
AcDbEntity
  8
LAY-5
  6
CONTINUOUS
 62
     1
100
AcDbLine
 10
79.574806
 20
119.778893
 30
0.0
 11
80.753317
 21
121.428809
 31
0.0
  0
LINE
  5
415
100
AcDbEntity
  8
LAY-5
  6
CONTINUOUS
 62
     1
100
AcDbLine
 10
80.753317
 20
121.428809
 30
0.0
 11
79.103401
 21
120.250298
 31
0.0
  0
ENDSEC
  0
SECTION
  2
OBJECTS
  0
DICTIONARY
  5
19
100
AcDbDictionary
  3
ACAD_GROUP
350
1A
  3
ACAD_MLINESTYLE
350
1B
  0
DICTIONARY
  5
1A
102
{ACAD_REACTORS
330
19
102
}
100
AcDbDictionary
  0
DICTIONARY
  5
1B
102
{ACAD_REACTORS
330
19
102
}
100
AcDbDictionary
  3
STANDARD
350
1C
  0
MLINESTYLE
  5
1C
102
{ACAD_REACTORS
330
1B
102
}
100
AcDbMlineStyle
  2
Standard
 70
     0
  3

 62
     0
 51
90.0
 52
90.0
 71
     2
 49
0.5
 62
   256
  6
ByLayer
 49
-0.5
 62
   256
  6
ByLayer
  0
ENDSEC
  0
EOF
