  0
SECTION
  2
HEADER
  9
$ACADVER
  1
AC1014
  9
$ACADMAINTVER
 70
     0
  9
$DWGCODEPAGE
  3
ANSI_932
  9
$INSBASE
 10
0.0
 20
0.0
 30
0.0
  9
$EXTMIN
 10
385.362878
 20
160.484331
 30
0.0
  9
$EXTMAX
 10
1649.72
 20
1289.515669
 30
0.0
  9
$LIMMIN
 10
0.0
 20
0.0
  9
$LIMMAX
 10
420.0
 20
297.0
  9
$ORTHOMODE
 70
     0
  9
$REGENMODE
 70
     1
  9
$FILLMODE
 70
     1
  9
$QTEXTMODE
 70
     0
  9
$MIRRTEXT
 70
     1
  9
$DRAGMODE
 70
     2
  9
$LTSCALE
 40
1.0
  9
$OSMODE
 70
     0
  9
$ATTMODE
 70
     1
  9
$TEXTSIZE
 40
0.2
  9
$TRACEWID
 40
0.05
  9
$TEXTSTYLE
  7
STANDARD
  9
$CLAYER
  8
LAY-1
  9
$CELTYPE
  6
CONTINUOUS
  9
$CECOLOR
 62
   256
  9
$CELTSCALE
 40
1.0
  9
$DELOBJ
 70
     1
  9
$DISPSILH
 70
     0
  9
$DIMSCALE
 40
1.0
  9
$DIMASZ
 40
0.18
  9
$DIMEXO
 40
0.0625
  9
$DIMDLI
 40
0.38
  9
$DIMRND
 40
0.0
  9
$DIMDLE
 40
0.0
  9
$DIMEXE
 40
0.18
  9
$DIMTP
 40
0.0
  9
$DIMTM
 40
0.0
  9
$DIMTXT
 40
0.18
  9
$DIMCEN
 40
0.09
  9
$DIMTSZ
 40
0.0
  9
$DIMTOL
 70
     0
  9
$DIMLIM
 70
     0
  9
$DIMTIH
 70
     1
  9
$DIMTOH
 70
     1
  9
$DIMSE1
 70
     0
  9
$DIMSE2
 70
     0
  9
$DIMTAD
 70
     0
  9
$DIMZIN
 70
     0
  9
$DIMBLK
  1

  9
$DIMASO
 70
     1
  9
$DIMSHO
 70
     1
  9
$DIMPOST
  1

  9
$DIMAPOST
  1

  9
$DIMALT
 70
     0
  9
$DIMALTD
 70
     2
  9
$DIMALTF
 40
25.4
  9
$DIMLFAC
 40
1.0
  9
$DIMTOFL
 70
     0
  9
$DIMTVP
 40
0.0
  9
$DIMTIX
 70
     0
  9
$DIMSOXD
 70
     0
  9
$DIMSAH
 70
     0
  9
$DIMBLK1
  1

  9
$DIMBLK2
  1

  9
$DIMSTYLE
  2
STANDARD
  9
$DIMCLRD
 70
     0
  9
$DIMCLRE
 70
     0
  9
$DIMCLRT
 70
     0
  9
$DIMTFAC
 40
1.0
  9
$DIMGAP
 40
0.09
  9
$DIMJUST
 70
     0
  9
$DIMSD1
 70
     0
  9
$DIMSD2
 70
     0
  9
$DIMTOLJ
 70
     1
  9
$DIMTZIN
 70
     0
  9
$DIMALTZ
 70
     0
  9
$DIMALTTZ
 70
     0
  9
$DIMFIT
 70
     3
  9
$DIMUPT
 70
     0
  9
$DIMUNIT
 70
     2
  9
$DIMDEC
 70
     4
  9
$DIMTDEC
 70
     4
  9
$DIMALTU
 70
     2
  9
$DIMALTTD
 70
     2
  9
$DIMTXSTY
  7
STANDARD
  9
$DIMAUNIT
 70
     0
  9
$LUNITS
 70
     2
  9
$LUPREC
 70
     4
  9
$SKETCHINC
 40
0.1
  9
$FILLETRAD
 40
0.0
  9
$AUNITS
 70
     0
  9
$AUPREC
 70
     0
  9
$MENU
  1
acad
  9
$ELEVATION
 40
0.0
  9
$PELEVATION
 40
0.0
  9
$THICKNESS
 40
0.0
  9
$LIMCHECK
 70
     0
  9
$BLIPMODE
 70
     1
  9
$CHAMFERA
 40
0.0
  9
$CHAMFERB
 40
0.0
  9
$CHAMFERC
 40
0.0
  9
$CHAMFERD
 40
0.0
  9
$SKPOLY
 70
     0
  9
$TDCREATE
 40
2456803.144865185
  9
$TDUPDATE
 40
2456803.144865185
  9
$TDINDWG
 40
0.0000000000
  9
$TDUSRTIMER
 40
0.0000000000
  9
$USRTIMER
 70
     1
  9
$ANGBASE
 50
0.0
  9
$ANGDIR
 70
     0
  9
$PDMODE
 70
     0
  9
$PDSIZE
 40
0.0
  9
$PLINEWID
 40
0.0
  9
$COORDS
 70
     1
  9
$SPLFRAME
 70
     0
  9
$SPLINETYPE
 70
     6
  9
$SPLINESEGS
 70
     8
  9
$ATTDIA
 70
     0
  9
$ATTREQ
 70
     1
  9
$HANDLING
 70
     1
  9
$HANDSEED
  5
5F2
  9
$SURFTAB1
 70
     6
  9
$SURFTAB2
 70
     6
  9
$SURFTYPE
 70
     6
  9
$SURFU
 70
     6
  9
$SURFV
 70
     6
  9
$UCSNAME
  2

  9
$UCSORG
 10
0.0
 20
0.0
 30
0.0
  9
$UCSXDIR
 10
1.0
 20
0.0
 30
0.0
  9
$UCSYDIR
 10
0.0
 20
1.0
 30
0.0
  9
$PUCSNAME
  2

  9
$PUCSORG
 10
0.0
 20
0.0
 30
0.0
  9
$PUCSXDIR
 10
1.0
 20
0.0
 30
0.0
  9
$PUCSYDIR
 10
0.0
 20
1.0
 30
0.0
  9
$USERI1
 70
     0
  9
$USERI2
 70
     0
  9
$USERI3
 70
     0
  9
$USERI4
 70
     0
  9
$USERI5
 70
     0
  9
$USERR1
 40
0.0
  9
$USERR2
 40
0.0
  9
$USERR3
 40
0.0
  9
$USERR4
 40
0.0
  9
$USERR5
 40
0.0
  9
$WORLDVIEW
 70
     1
  9
$SHADEDGE
 70
     3
  9
$SHADEDIF
 70
    70
  9
$TILEMODE
 70
     1
  9
$MAXACTVP
 70
    16
  9
$PINSBASE
 10
0.0
 20
0.0
 30
0.0
  9
$PLIMCHECK
 70
     0
  9
$PEXTMIN
 10
1.000000E+20
 20
1.000000E+20
 30
1.000000E+20
  9
$PEXTMAX
 10
-1.000000E+20
 20
-1.000000E+20
 30
-1.000000E+20
  9
$PLIMMIN
 10
0.0
 20
0.0
  9
$PLIMMAX
 10
12.0
 20
9.0
  9
$UNITMODE
 70
     0
  9
$VISRETAIN
 70
     0
  9
$PLINEGEN
 70
     1
  9
$PSLTSCALE
 70
     0
  9
$TREEDEPTH
 70
  3020
  9
$PICKSTYLE
 70
     1
  9
$CMLSTYLE
  2
Standard
  9
$CMLJUST
 70
     0
  9
$CMLSCALE
 40
1.0
  9
$PROXYGRAPHICS
 70
     0
  9
$MEASUREMENT
 70
     0
  0
ENDSEC
  0
SECTION
  2
CLASSES
  0
CLASS
  1
LWPOLYLINE
  2
AcDbPolyline
  3
"AutoCAD"
 90
        0
280
     0
281
     1
  0
CLASS
  1
IMAGE
  2
AcDbRasterImage
  3
ISM
 90
      127
280
     0
281
     1
  0
CLASS
  1
OLE2FRAME
  2
AcDbOle2Frame
  3
""
 90
        0
280
     0
281
     1
  0
CLASS
  1
HATCH
  2
AcDbHatch
  3
"ACAD_SEDONA"
 90
        0
280
     0
281
     1
  0
CLASS
  1
DICTIONARYVAR
  2
AcDbDictionaryVar
  3
"AutoCAD"
 90
        0
280
     0
281
     0
  0
CLASS
  1
RASTERVARIABLES
  2
AcDbRasterVariables
  3
ISM
 90
        0
280
     0
281
     0
  0
CLASS
  1
IMAGEDEF
  2
AcDbRasterImageDef
  3
ISM
 90
        0
280
     0
281
     0
  0
CLASS
  1
IMAGEDEF_REACTOR
  2
AcDbRasterImageDefReactor
  3
ISM
 90
        1
280
     0
281
     0
  0
CLASS
  1
IDBUFFER
  2
AcDbIdBuffer
  3
"Acad"
 90
        0
280
     0
281
     0
  0
CLASS
  1
SPATIAL_FILTER
  2
AcDbSpatialFilter
  3
"Acad"
 90
        0
280
     0
281
     0
  0
CLASS
  1
XRECORD
  2
AcDbXrecord
  3
"<Built In>"
 90
        0
280
     0
281
     0
  0
CLASS
  1
SORTENTSTABLE
  2
AcDbSortentsTable
  3
"AutoCAD"
 90
        0
280
     0
281
     0
  0
CLASS
  1
LAYER_INDEX
  2
AcDbLayerIndex
  3
"Acad"
 90
        0
280
     0
281
     0
  0
CLASS
  1
SPATIAL_INDEX
  2
AcDbSpatialIndex
  3
"Acad"
 90
        0
280
     0
281
     0
  0
CLASS
  1
OBJECT_PTR
  2
CAseDLPNTableRecord
  3
"ASE-LPNTableRecord"
 90
        1
280
     0
281
     0
  0
CLASS
  1
LAYOUT
  2
AcDbLayout
  3
"AutoCAD 2000"
 90
        0
280
     0
281
     0
  0
CLASS
  1
PLOTSETTINGS
  2
AcDbPlotSettings
  3
"AutoCAD 2000"
 90
        0
280
     0
281
     0
  0
CLASS
  1
ACDBDICTIONARYWDFLT
  2
AcDbDictionaryWithDefault
  3
"AutoCAD 2000"
 90
        0
280
     0
281
     0
  0
CLASS
  1
ACDBPLACEHOLDER
  2
AcDbPlaceHolder
  3
"AutoCAD 2000"
 90
        0
280
     0
281
     0
  0
CLASS
  1
VBA_PROJECT
  2
AcDbVbaProject
  3
"acadvba"
 90
        0
280
     0
281
     0
  0
CLASS
  1
WIPEOUT
  2
AcDbWipeout
  3
WipeOut|AutoCAD Express Tool|expresstools@autodesk.com
 90
      127
280
     0
281
     1
  0
CLASS
  1
WIPEOUTVARIABLES
  2
AcDbWipeoutVariables
  3
WipeOut|AutoCAD Express Tool|expresstools@autodesk.com
 90
        0
280
     0
281
     0
  0
CLASS
  1
RTEXT
  2
RText
  3
RText|AutoCAD Express Tool|expresstools@autodesk.com
 90
        0
280
     0
281
     1
  0
CLASS
  1
ARCALIGNEDTEXT
  2
AcDbArcAlignedText
  3
ATEXT|AutoCAD Express Tool|expresstools@autodesk.com
 90
        0
280
     0
281
     1
  0
ENDSEC
  0
SECTION
  2
TABLES
  0
TABLE
  2
VPORT
  5
7
100
AcDbSymbolTable
 70
     1
  0
VPORT
  5
15
100
AcDbSymbolTableRecord
100
AcDbViewportTableRecord
  2
*ACTIVE
 70
     0
 10
0.0
 20
0.0
 11
1.0
 21
1.0
 12
1017.541439
 22
725.0
 13
0.0
 23
0.0
 14
1.0
 24
1.0
 15
0.0
 25
0.0
 16
0.0
 26
0.0
 36
1.0
 17
0.0
 27
0.0
 37
0.0
 40
1129.031337
 41
1.722533
 42
50.0
 43
0.0
 44
0.0
 50
0.0
 51
0.0
 71
     0
 72
  1000
 73
     1
 74
     1
 75
     0
 76
     0
 77
     0
 78
     0
  0
ENDTAB
  0
TABLE
  2
LTYPE
  5
4
100
AcDbSymbolTable
 70
     9
  0
LTYPE
  5
11
100
AcDbSymbolTableRecord
100
AcDbLinetypeTableRecord
  2
BYBLOCK
 70
    64
  3

 72
    65
 73
     0
 40
0.0
  0
LTYPE
  5
12
100
AcDbSymbolTableRecord
100
AcDbLinetypeTableRecord
  2
BYLAYER
 70
    64
  3

 72
    65
 73
     0
 40
0.0
  0
LTYPE
  5
13
100
AcDbSymbolTableRecord
100
AcDbLinetypeTableRecord
  2
CONTINUOUS
 70
    64
  3
実線
 72
    65
 73
     0
 40
0.0
  0
LTYPE
  5
1D
100
AcDbSymbolTableRecord
100
AcDbLinetypeTableRecord
  2
EXLTYPE1
 70
    64
  3
破線
 72
    65
 73
     2
 40
4.0
 49
3.0
 74
     0
 49
-1.0
 74
     0
  0
LTYPE
  5
1E
100
AcDbSymbolTableRecord
100
AcDbLinetypeTableRecord
  2
EXLTYPE2
 70
    64
  3
点線
 72
    65
 73
     2
 40
2.0
 49
1.0
 74
     0
 49
-1.0
 74
     0
  0
LTYPE
  5
1F
100
AcDbSymbolTableRecord
100
AcDbLinetypeTableRecord
  2
EXLTYPE3
 70
    64
  3
一点鎖線
 72
    65
 73
     4
 40
33.0
 49
30.0
 74
     0
 49
-1.0
 74
     0
 49
1.0
 74
     0
 49
-1.0
 74
     0
  0
LTYPE
  5
20
100
AcDbSymbolTableRecord
100
AcDbLinetypeTableRecord
  2
EXLTYPE4
 70
    64
  3
二点鎖線
 72
    65
 73
     6
 40
35.0
 49
30.0
 74
     0
 49
-1.0
 74
     0
 49
1.0
 74
     0
 49
-1.0
 74
     0
 49
1.0
 74
     0
 49
-1.0
 74
     0
  0
LTYPE
  5
21
100
AcDbSymbolTableRecord
100
AcDbLinetypeTableRecord
  2
EXLTYPE5
 70
    64
  3
三点鎖線
 72
    65
 73
     8
 40
37.0
 49
30.0
 74
     0
 49
-1.0
 74
     0
 49
1.0
 74
     0
 49
-1.0
 74
     0
 49
1.0
 74
     0
 49
-1.0
 74
     0
 49
1.0
 74
     0
 49
-1.0
 74
     0
  0
LTYPE
  5
22
100
AcDbSymbolTableRecord
100
AcDbLinetypeTableRecord
  2
EXLTYPE6
 70
    64
  3
四点鎖線
 72
    65
 73
    10
 40
39.0
 49
30.0
 74
     0
 49
-1.0
 74
     0
 49
1.0
 74
     0
 49
-1.0
 74
     0
 49
1.0
 74
     0
 49
-1.0
 74
     0
 49
1.0
 74
     0
 49
-1.0
 74
     0
 49
1.0
 74
     0
 49
-1.0
 74
     0
  0
ENDTAB
  0
TABLE
  2
LAYER
  5
2
100
AcDbSymbolTable
 70
     4
  0
LAYER
  5
14
100
AcDbSymbolTableRecord
100
AcDbLayerTableRecord
  2
0
 70
     0
 62
     7
  6
CONTINUOUS
  0
LAYER
  5
25
100
AcDbSymbolTableRecord
100
AcDbLayerTableRecord
  2
LAY-1
 70
    64
 62
     7
  6
CONTINUOUS
  0
LAYER
  5
26
100
AcDbSymbolTableRecord
100
AcDbLayerTableRecord
  2
LAY-2
 70
    64
 62
     7
  6
CONTINUOUS
  0
LAYER
  5
27
100
AcDbSymbolTableRecord
100
AcDbLayerTableRecord
  2
LAY-3
 70
    64
 62
     1
  6
CONTINUOUS
  0
ENDTAB
  0
TABLE
  2
STYLE
  5
3
100
AcDbSymbolTable
 70
     3
  0
STYLE
  5
17
100
AcDbSymbolTableRecord
100
AcDbTextStyleTableRecord
  2
STANDARD
 70
     0
 40
0.0
 41
1.0
 50
0.0
 71
     0
 42
0.0
  3
monotxt
  4
extfont
  0
STYLE
  5
23
100
AcDbSymbolTableRecord
100
AcDbTextStyleTableRecord
  2
EXCADSTD
 70
    64
 40
0.0
 41
1.0
 50
0.0
 71
     0
 42
0.2
  3
monotxt
  4
extfont
  0
STYLE
  5
24
100
AcDbSymbolTableRecord
100
AcDbTextStyleTableRecord
  2
EXCADVERT
 70
    68
 40
0.0
 41
1.0
 50
0.0
 71
     0
 42
0.286885
  3
monotxt
  4
extfont
  0
ENDTAB
  0
TABLE
  2
VIEW
  5
5
100
AcDbSymbolTable
 70
     0
  0
ENDTAB
  0
TABLE
  2
UCS
  5
6
100
AcDbSymbolTable
 70
     0
  0
ENDTAB
  0
TABLE
  2
APPID
  5
8
100
AcDbSymbolTable
 70
     1
  0
APPID
  5
16
100
AcDbSymbolTableRecord
100
AcDbRegAppTableRecord
  2
ACAD
 70
     0
  0
ENDTAB
  0
TABLE
  2
DIMSTYLE
  5
9
100
AcDbSymbolTable
 70
     1
  0
DIMSTYLE
105
18
100
AcDbSymbolTableRecord
100
AcDbDimStyleTableRecord
  2
STANDARD
 70
     0
  3

  4

  5

  6

  7

 40
1.0
 41
0.18
 42
0.0625
 43
0.38
 44
0.18
 45
0.0
 46
0.0
 47
0.0
 48
0.0
 71
     0
 72
     0
 73
     1
 74
     1
 75
     0
 76
     0
 77
     0
 78
     0
140
0.18
141
0.09
142
0.0
143
25.4
144
1.0
145
0.0
146
1.0
147
0.09
170
     0
171
     2
172
     1
173
     0
174
     0
175
     0
176
     0
177
     0
178
     0
270
     2
271
     4
272
     4
273
     2
274
     2
275
     0
280
     0
281
     0
282
     0
283
     1
284
     0
285
     0
286
     0
287
     3
288
     0
340
17
  0
ENDTAB
  0
TABLE
  2
BLOCK_RECORD
  5
1
100
AcDbSymbolTable
 70
    15
  0
BLOCK_RECORD
  5
A
100
AcDbSymbolTableRecord
100
AcDbBlockTableRecord
  2
*MODEL_SPACE
  0
BLOCK_RECORD
  5
B
100
AcDbSymbolTableRecord
100
AcDbBlockTableRecord
  2
*PAPER_SPACE
  0
BLOCK_RECORD
  5
28
100
AcDbSymbolTableRecord
100
AcDbBlockTableRecord
  2
_EX_NORM
  0
BLOCK_RECORD
  5
29
100
AcDbSymbolTableRecord
100
AcDbBlockTableRecord
  2
_EX_BNORM
  0
BLOCK_RECORD
  5
2A
100
AcDbSymbolTableRecord
100
AcDbBlockTableRecord
  2
_EX_BCIR
  0
BLOCK_RECORD
  5
2B
100
AcDbSymbolTableRecord
100
AcDbBlockTableRecord
  2
_EX_RCIVIL
  0
BLOCK_RECORD
  5
2C
100
AcDbSymbolTableRecord
100
AcDbBlockTableRecord
  2
_EX_SLANT
  0
BLOCK_RECORD
  5
2D
100
AcDbSymbolTableRecord
100
AcDbBlockTableRecord
  2
_EX_NONE
  0
BLOCK_RECORD
  5
2E
100
AcDbSymbolTableRecord
100
AcDbBlockTableRecord
  2
_EX_CIVIL
  0
BLOCK_RECORD
  5
2F
100
AcDbSymbolTableRecord
100
AcDbBlockTableRecord
  2
_EX_WCIR
  0
BLOCK_RECORD
  5
30
100
AcDbSymbolTableRecord
100
AcDbBlockTableRecord
  2
_EX_WCIR2
  0
BLOCK_RECORD
  5
31
100
AcDbSymbolTableRecord
100
AcDbBlockTableRecord
  2
_EX_WNORM
  0
BLOCK_RECORD
  5
32
100
AcDbSymbolTableRecord
100
AcDbBlockTableRecord
  2
_EX_NNORM
  0
BLOCK_RECORD
  5
33
100
AcDbSymbolTableRecord
100
AcDbBlockTableRecord
  2
_EX_BBOX
  0
BLOCK_RECORD
  5
34
100
AcDbSymbolTableRecord
100
AcDbBlockTableRecord
  2
_EX_WBOX
  0
BLOCK_RECORD
  5
35
100
AcDbSymbolTableRecord
100
AcDbBlockTableRecord
  2
_EX_INTEGRAL
  0
BLOCK_RECORD
  5
36
100
AcDbSymbolTableRecord
100
AcDbBlockTableRecord
  2
SYM-1
  0
ENDTAB
  0
ENDSEC
  0
SECTION
  2
BLOCKS
  0
BLOCK
  5
D
100
AcDbEntity
  8
0
100
AcDbBlockBegin
  2
*MODEL_SPACE
 70
     0
 10
0.0
 20
0.0
 30
0.0
  3
*MODEL_SPACE
  1

  0
ENDBLK
  5
E
100
AcDbEntity
  8
0
100
AcDbBlockEnd
  0
BLOCK
  5
F
100
AcDbEntity
 67
     1
  8
0
100
AcDbBlockBegin
  2
*PAPER_SPACE
 70
     0
 10
0.0
 20
0.0
 30
0.0
  3
*PAPER_SPACE
  1

  0
ENDBLK
  5
10
100
AcDbEntity
 67
     1
  8
0
100
AcDbBlockEnd
  0
BLOCK
  5
37
100
AcDbEntity
  8
0
100
AcDbBlockBegin
  2
_EX_NORM
 70
     0
 10
0.0
 20
0.0
 30
0.0
  3
_EX_NORM
  1

  0
LINE
  5
38
100
AcDbEntity
  8
0
  6
CONTINUOUS
 62
     0
100
AcDbLine
 10
0.0
 20
0.0
 30
0.0
 11
-1.0
 21
0.0
 31
0.0
  0
LINE
  5
39
100
AcDbEntity
  8
0
  6
CONTINUOUS
 62
     0
100
AcDbLine
 10
0.0
 20
0.0
 30
0.0
 11
-1.0
 21
0.166667
 31
0.0
  0
LINE
  5
3A
100
AcDbEntity
  8
0
  6
CONTINUOUS
 62
     0
100
AcDbLine
 10
0.0
 20
0.0
 30
0.0
 11
-1.0
 21
-0.166667
 31
0.0
  0
ENDBLK
  5
3B
100
AcDbEntity
  8
0
100
AcDbBlockEnd
  0
BLOCK
  5
3C
100
AcDbEntity
  8
0
100
AcDbBlockBegin
  2
_EX_BNORM
 70
     0
 10
0.0
 20
0.0
 30
0.0
  3
_EX_BNORM
  1

  0
LINE
  5
3D
100
AcDbEntity
  8
0
  6
CONTINUOUS
 62
     0
100
AcDbLine
 10
0.0
 20
0.0
 30
0.0
 11
-1.0
 21
0.0
 31
0.0
  0
LINE
  5
3E
100
AcDbEntity
  8
0
  6
CONTINUOUS
 62
     0
100
AcDbLine
 10
0.0
 20
0.0
 30
0.0
 11
-1.0
 21
0.166667
 31
0.0
  0
LINE
  5
3F
100
AcDbEntity
  8
0
  6
CONTINUOUS
 62
     0
100
AcDbLine
 10
0.0
 20
0.0
 30
0.0
 11
-1.0
 21
-0.166667
 31
0.0
  0
LINE
  5
40
100
AcDbEntity
  8
0
  6
CONTINUOUS
 62
     0
100
AcDbLine
 10
0.0
 20
0.0
 30
0.0
 11
-1.0
 21
0.083333
 31
0.0
  0
LINE
  5
41
100
AcDbEntity
  8
0
  6
CONTINUOUS
 62
     0
100
AcDbLine
 10
0.0
 20
0.0
 30
0.0
 11
-1.0
 21
-0.083333
 31
0.0
  0
LINE
  5
42
100
AcDbEntity
  8
0
  6
CONTINUOUS
 62
     0
100
AcDbLine
 10
-1.0
 20
0.166667
 30
0.0
 11
-1.0
 21
-0.166667
 31
0.0
  0
ENDBLK
  5
43
100
AcDbEntity
  8
0
100
AcDbBlockEnd
  0
BLOCK
  5
44
100
AcDbEntity
  8
0
100
AcDbBlockBegin
  2
_EX_BCIR
 70
     0
 10
0.0
 20
0.0
 30
0.0
  3
_EX_BCIR
  1

  0
LINE
  5
45
100
AcDbEntity
  8
0
  6
CONTINUOUS
 62
     0
100
AcDbLine
 10
0.0
 20
0.0
 30
0.0
 11
-1.0
 21
0.0
 31
0.0
  0
CIRCLE
  5
46
100
AcDbEntity
  8
0
  6
CONTINUOUS
 62
     0
100
AcDbCircle
 10
0.0
 20
0.0
 30
0.0
 40
0.5
  0
CIRCLE
  5
47
100
AcDbEntity
  8
0
  6
CONTINUOUS
 62
     0
100
AcDbCircle
 10
0.0
 20
0.0
 30
0.0
 40
0.25
  0
ENDBLK
  5
48
100
AcDbEntity
  8
0
100
AcDbBlockEnd
  0
BLOCK
  5
49
100
AcDbEntity
  8
0
100
AcDbBlockBegin
  2
_EX_RCIVIL
 70
     0
 10
0.0
 20
0.0
 30
0.0
  3
_EX_RCIVIL
  1

  0
LINE
  5
4A
100
AcDbEntity
  8
0
  6
CONTINUOUS
 62
     0
100
AcDbLine
 10
0.0
 20
0.0
 30
0.0
 11
-1.0
 21
0.0
 31
0.0
  0
LINE
  5
4B
100
AcDbEntity
  8
0
  6
CONTINUOUS
 62
     0
100
AcDbLine
 10
-1.0
 20
-0.25
 30
0.0
 11
0.0
 21
-0.25
 31
0.0
  0
LINE
  5
4C
100
AcDbEntity
  8
0
  6
CONTINUOUS
 62
     0
100
AcDbLine
 10
-1.0
 20
-0.125
 30
0.0
 11
0.0
 21
-0.125
 31
0.0
  0
ENDBLK
  5
4D
100
AcDbEntity
  8
0
100
AcDbBlockEnd
  0
BLOCK
  5
4E
100
AcDbEntity
  8
0
100
AcDbBlockBegin
  2
_EX_SLANT
 70
     0
 10
0.0
 20
0.0
 30
0.0
  3
_EX_SLANT
  1

  0
LINE
  5
4F
100
AcDbEntity
  8
0
  6
CONTINUOUS
 62
     0
100
AcDbLine
 10
0.0
 20
0.0
 30
0.0
 11
-1.0
 21
0.0
 31
0.0
  0
LINE
  5
50
100
AcDbEntity
  8
0
  6
CONTINUOUS
 62
     0
100
AcDbLine
 10
0.707107
 20
0.707107
 30
0.0
 11
-0.707107
 21
-0.707107
 31
0.0
  0
ENDBLK
  5
51
100
AcDbEntity
  8
0
100
AcDbBlockEnd
  0
BLOCK
  5
52
100
AcDbEntity
  8
0
100
AcDbBlockBegin
  2
_EX_NONE
 70
     0
 10
0.0
 20
0.0
 30
0.0
  3
_EX_NONE
  1

  0
LINE
  5
53
100
AcDbEntity
  8
0
  6
CONTINUOUS
 62
     0
100
AcDbLine
 10
0.0
 20
0.0
 30
0.0
 11
-1.0
 21
0.0
 31
0.0
  0
ENDBLK
  5
54
100
AcDbEntity
  8
0
100
AcDbBlockEnd
  0
BLOCK
  5
55
100
AcDbEntity
  8
0
100
AcDbBlockBegin
  2
_EX_CIVIL
 70
     0
 10
0.0
 20
0.0
 30
0.0
  3
_EX_CIVIL
  1

  0
LINE
  5
56
100
AcDbEntity
  8
0
  6
CONTINUOUS
 62
     0
100
AcDbLine
 10
0.0
 20
0.0
 30
0.0
 11
-1.0
 21
0.0
 31
0.0
  0
LINE
  5
57
100
AcDbEntity
  8
0
  6
CONTINUOUS
 62
     0
100
AcDbLine
 10
-1.0
 20
0.25
 30
0.0
 11
0.0
 21
0.25
 31
0.0
  0
LINE
  5
58
100
AcDbEntity
  8
0
  6
CONTINUOUS
 62
     0
100
AcDbLine
 10
-1.0
 20
0.125
 30
0.0
 11
0.0
 21
0.125
 31
0.0
  0
ENDBLK
  5
59
100
AcDbEntity
  8
0
100
AcDbBlockEnd
  0
BLOCK
  5
5A
100
AcDbEntity
  8
0
100
AcDbBlockBegin
  2
_EX_WCIR
 70
     0
 10
0.0
 20
0.0
 30
0.0
  3
_EX_WCIR
  1

  0
LINE
  5
5B
100
AcDbEntity
  8
0
  6
CONTINUOUS
 62
     0
100
AcDbLine
 10
0.0
 20
0.0
 30
0.0
 11
-1.0
 21
0.0
 31
0.0
  0
CIRCLE
  5
5C
100
AcDbEntity
  8
0
  6
CONTINUOUS
 62
     0
100
AcDbCircle
 10
0.0
 20
0.0
 30
0.0
 40
0.5
  0
ENDBLK
  5
5D
100
AcDbEntity
  8
0
100
AcDbBlockEnd
  0
BLOCK
  5
5E
100
AcDbEntity
  8
0
100
AcDbBlockBegin
  2
_EX_WCIR2
 70
     0
 10
0.0
 20
0.0
 30
0.0
  3
_EX_WCIR2
  1

  0
LINE
  5
5F
100
AcDbEntity
  8
0
  6
CONTINUOUS
 62
     0
100
AcDbLine
 10
-0.5
 20
0.0
 30
0.0
 11
-1.0
 21
0.0
 31
0.0
  0
CIRCLE
  5
60
100
AcDbEntity
  8
0
  6
CONTINUOUS
 62
     0
100
AcDbCircle
 10
0.0
 20
0.0
 30
0.0
 40
0.5
  0
ENDBLK
  5
61
100
AcDbEntity
  8
0
100
AcDbBlockEnd
  0
BLOCK
  5
62
100
AcDbEntity
  8
0
100
AcDbBlockBegin
  2
_EX_WNORM
 70
     0
 10
0.0
 20
0.0
 30
0.0
  3
_EX_WNORM
  1

  0
LINE
  5
63
100
AcDbEntity
  8
0
  6
CONTINUOUS
 62
     0
100
AcDbLine
 10
-1.0
 20
0.0
 30
0.0
 11
-1.0
 21
0.0
 31
0.0
  0
LINE
  5
64
100
AcDbEntity
  8
0
  6
CONTINUOUS
 62
     0
100
AcDbLine
 10
0.0
 20
0.0
 30
0.0
 11
-1.0
 21
0.166667
 31
0.0
  0
LINE
  5
65
100
AcDbEntity
  8
0
  6
CONTINUOUS
 62
     0
100
AcDbLine
 10
0.0
 20
0.0
 30
0.0
 11
-1.0
 21
-0.166667
 31
0.0
  0
LINE
  5
66
100
AcDbEntity
  8
0
  6
CONTINUOUS
 62
     0
100
AcDbLine
 10
-1.0
 20
0.166667
 30
0.0
 11
-1.0
 21
-0.166667
 31
0.0
  0
ENDBLK
  5
67
100
AcDbEntity
  8
0
100
AcDbBlockEnd
  0
BLOCK
  5
68
100
AcDbEntity
  8
0
100
AcDbBlockBegin
  2
_EX_NNORM
 70
     0
 10
0.0
 20
0.0
 30
0.0
  3
_EX_NNORM
  1

  0
LINE
  5
69
100
AcDbEntity
  8
0
  6
CONTINUOUS
 62
     0
100
AcDbLine
 10
0.0
 20
0.0
 30
0.0
 11
-1.0
 21
0.0
 31
0.0
  0
LINE
  5
6A
100
AcDbEntity
  8
0
  6
CONTINUOUS
 62
     0
100
AcDbLine
 10
0.0
 20
0.0
 30
0.0
 11
-1.0
 21
0.166667
 31
0.0
  0
LINE
  5
6B
100
AcDbEntity
  8
0
  6
CONTINUOUS
 62
     0
100
AcDbLine
 10
0.0
 20
0.0
 30
0.0
 11
-1.0
 21
-0.166667
 31
0.0
  0
LINE
  5
6C
100
AcDbEntity
  8
0
  6
CONTINUOUS
 62
     0
100
AcDbLine
 10
-1.0
 20
0.166667
 30
0.0
 11
-1.0
 21
-0.166667
 31
0.0
  0
ENDBLK
  5
6D
100
AcDbEntity
  8
0
100
AcDbBlockEnd
  0
BLOCK
  5
6E
100
AcDbEntity
  8
0
100
AcDbBlockBegin
  2
_EX_BBOX
 70
     0
 10
0.0
 20
0.0
 30
0.0
  3
_EX_BBOX
  1

  0
LINE
  5
6F
100
AcDbEntity
  8
0
  6
CONTINUOUS
 62
     0
100
AcDbLine
 10
0.0
 20
0.0
 30
0.0
 11
-1.0
 21
0.0
 31
0.0
  0
LINE
  5
70
100
AcDbEntity
  8
0
  6
CONTINUOUS
 62
     0
100
AcDbLine
 10
-0.5
 20
0.5
 30
0.0
 11
0.5
 21
0.5
 31
0.0
  0
LINE
  5
71
100
AcDbEntity
  8
0
  6
CONTINUOUS
 62
     0
100
AcDbLine
 10
0.5
 20
0.5
 30
0.0
 11
0.5
 21
-0.5
 31
0.0
  0
LINE
  5
72
100
AcDbEntity
  8
0
  6
CONTINUOUS
 62
     0
100
AcDbLine
 10
0.5
 20
-0.5
 30
0.0
 11
-0.5
 21
-0.5
 31
0.0
  0
LINE
  5
73
100
AcDbEntity
  8
0
  6
CONTINUOUS
 62
     0
100
AcDbLine
 10
-0.5
 20
-0.5
 30
0.0
 11
-0.5
 21
0.5
 31
0.0
  0
LINE
  5
74
100
AcDbEntity
  8
0
  6
CONTINUOUS
 62
     0
100
AcDbLine
 10
-0.25
 20
0.25
 30
0.0
 11
0.25
 21
0.25
 31
0.0
  0
LINE
  5
75
100
AcDbEntity
  8
0
  6
CONTINUOUS
 62
     0
100
AcDbLine
 10
0.25
 20
0.25
 30
0.0
 11
0.25
 21
-0.25
 31
0.0
  0
LINE
  5
76
100
AcDbEntity
  8
0
  6
CONTINUOUS
 62
     0
100
AcDbLine
 10
0.25
 20
-0.25
 30
0.0
 11
-0.25
 21
-0.25
 31
0.0
  0
LINE
  5
77
100
AcDbEntity
  8
0
  6
CONTINUOUS
 62
     0
100
AcDbLine
 10
-0.25
 20
-0.25
 30
0.0
 11
-0.25
 21
0.25
 31
0.0
  0
ENDBLK
  5
78
100
AcDbEntity
  8
0
100
AcDbBlockEnd
  0
BLOCK
  5
79
100
AcDbEntity
  8
0
100
AcDbBlockBegin
  2
_EX_WBOX
 70
     0
 10
0.0
 20
0.0
 30
0.0
  3
_EX_WBOX
  1

  0
LINE
  5
7A
100
AcDbEntity
  8
0
  6
CONTINUOUS
 62
     0
100
AcDbLine
 10
-0.5
 20
0.0
 30
0.0
 11
-1.0
 21
0.0
 31
0.0
  0
LINE
  5
7B
100
AcDbEntity
  8
0
  6
CONTINUOUS
 62
     0
100
AcDbLine
 10
-0.5
 20
0.5
 30
0.0
 11
0.5
 21
0.5
 31
0.0
  0
LINE
  5
7C
100
AcDbEntity
  8
0
  6
CONTINUOUS
 62
     0
100
AcDbLine
 10
0.5
 20
0.5
 30
0.0
 11
0.5
 21
-0.5
 31
0.0
  0
LINE
  5
7D
100
AcDbEntity
  8
0
  6
CONTINUOUS
 62
     0
100
AcDbLine
 10
0.5
 20
-0.5
 30
0.0
 11
-0.5
 21
-0.5
 31
0.0
  0
LINE
  5
7E
100
AcDbEntity
  8
0
  6
CONTINUOUS
 62
     0
100
AcDbLine
 10
-0.5
 20
-0.5
 30
0.0
 11
-0.5
 21
0.5
 31
0.0
  0
ENDBLK
  5
7F
100
AcDbEntity
  8
0
100
AcDbBlockEnd
  0
BLOCK
  5
80
100
AcDbEntity
  8
0
100
AcDbBlockBegin
  2
_EX_INTEGRAL
 70
     0
 10
0.0
 20
0.0
 30
0.0
  3
_EX_INTEGRAL
  1

  0
LINE
  5
81
100
AcDbEntity
  8
0
  6
CONTINUOUS
 62
     0
100
AcDbLine
 10
0.0
 20
0.0
 30
0.0
 11
-1.0
 21
0.0
 31
0.0
  0
ARC
  5
82
100
AcDbEntity
  8
0
  6
CONTINUOUS
 62
     0
100
AcDbCircle
 10
0.542115
 20
0.164992
 30
0.0
 40
0.56667
100
AcDbArc
 50
73.07249
 51
196.927513
  0
ARC
  5
83
100
AcDbEntity
  8
0
  6
CONTINUOUS
 62
     0
100
AcDbCircle
 10
-0.542115
 20
-0.164992
 30
0.0
 40
0.56667
100
AcDbArc
 50
253.072487
 51
16.927513
  0
ENDBLK
  5
84
100
AcDbEntity
  8
0
100
AcDbBlockEnd
  0
BLOCK
  5
85
100
AcDbEntity
  8
0
100
AcDbBlockBegin
  2
SYM-1
 70
     0
 10
0.0
 20
0.0
 30
0.0
  3
SYM-1
  1

  0
HATCH
  5
86
100
AcDbEntity
  8
0
  6
CONTINUOUS
 62
     3
100
AcDbHatch
 10
0.0
 20
0.0
 30
0.0
210
0.0
220
0.0
230
1.0
  2
SOLID
 70
     1
 71
     1
 91
        1
 92
        1
 93
       16
 72
     1
 10
24.351152239011505
 20
-2.0357142857144446
 11
25.613295096154353
 21
-2.0357142857144446
 72
     1
 10
25.613295096154353
 20
-2.0357142857144446
 11
25.613295096154353
 21
-2.8500000000001648
 72
     1
 10
25.613295096154353
 20
-2.8500000000001648
 11
22.23400938186861
 21
-2.8500000000001648
 72
     1
 10
22.23400938186861
 20
-2.8500000000001648
 11
22.23400938186861
 21
-2.0357142857144446
 72
     1
 10
22.23400938186861
 20
-2.0357142857144446
 11
23.536866524725802
 21
-2.0357142857144446
 72
     1
 10
23.536866524725802
 20
-2.0357142857144446
 11
23.536866524725802
 21
0.3257142857141346
 72
     1
 10
23.536866524725802
 20
0.3257142857141346
 11
22.519009381868621
 21
0.3257142857141346
 72
     1
 10
22.519009381868621
 20
0.3257142857141346
 11
22.519009381868621
 21
1.1399999999998514
 72
     1
 10
22.519009381868621
 20
1.1399999999998514
 11
23.536866524725802
 21
1.1399999999998514
 72
     1
 10
23.536866524725802
 20
1.1399999999998514
 11
23.536866524725802
 21
2.8499999999998487
 72
     1
 10
23.536866524725802
 20
2.8499999999998487
 11
24.351152239011505
 21
2.8499999999998487
 72
     1
 10
24.351152239011505
 20
2.8499999999998487
 11
24.351152239011505
 21
1.1399999999998514
 72
     1
 10
24.351152239011505
 20
1.1399999999998514
 11
25.531866524725821
 21
1.1399999999998514
 72
     1
 10
25.531866524725821
 20
1.1399999999998514
 11
25.531866524725821
 21
0.3257142857141346
 72
     1
 10
25.531866524725821
 20
0.3257142857141346
 11
24.351152239011505
 21
0.3257142857141346
 72
     1
 10
24.351152239011505
 20
0.3257142857141346
 11
24.351152239011505
 21
-2.0357142857144446
 97
        0
 75
     0
 76
     1
 98
        1
 10
0.0
 20
0.0
  0
HATCH
  5
87
100
AcDbEntity
  8
0
  6
CONTINUOUS
 62
     3
100
AcDbHatch
 10
0.0
 20
0.0
 30
0.0
210
0.0
220
0.0
230
1.0
  2
SOLID
 70
     1
 71
     1
 91
        1
 92
        1
 93
       17
 72
     2
 10
15.796286246552746
 20
4.4303755974531924
 40
7.328571428571454
 50
44.165469
 51
51.472792
 73
     0
 72
     1
 10
20.361152239011439
 20
-1.3028571428572775
 11
19.948878200429583
 21
-0.5887775613918898
 72
     2
 10
15.796286246552746
 20
4.4303755974531924
 40
6.5142857142857364
 50
309.602625
 51
331.307968
 73
     1
 72
     1
 10
21.510701937024301
 20
1.3028571428570004
 11
20.157580810440017
 21
1.3028571428570004
 72
     1
 10
20.157580810440017
 20
1.3028571428570004
 11
20.157580810440017
 21
2.0357142857141319
 72
     1
 10
20.157580810440017
 20
2.0357142857141319
 11
21.053295096154336
 21
2.0357142857141319
 72
     1
 10
21.053295096154336
 20
2.0357142857141319
 11
21.053295096154336
 21
2.8499999999998487
 72
     1
 10
21.053295096154336
 20
2.8499999999998487
 11
21.786152239011507
 21
2.8499999999998487
 72
     1
 10
21.786152239011507
 20
2.8499999999998487
 11
21.786152239011507
 21
2.0357142857141319
 72
     1
 10
21.786152239011507
 20
2.0357142857141319
 11
22.722580810439986
 21
2.0357142857141319
 72
     2
 10
15.796286246552746
 20
4.4303755974531924
 40
7.328571428571454
 50
19.072051
 51
32.871988
 73
     0
 72
     1
 10
21.951445818831196
 20
0.4526916201288422
 11
22.926152239011437
 21
-0.4885714285715821
 72
     1
 10
22.926152239011437
 20
-0.4885714285715821
 11
22.350277580116831
 21
-1.0644460874662265
 72
     1
 10
22.350277580116831
 20
-1.0644460874662265
 11
21.786152239011507
 21
-0.5196765779765897
 72
     1
 10
21.786152239011507
 20
-0.5196765779765897
 11
21.786152239011507
 21
-2.8500000000001648
 72
     1
 10
21.786152239011507
 20
-2.8500000000001648
 11
21.053295096154336
 21
-2.8500000000001648
 72
     1
 10
21.053295096154336
 20
-2.8500000000001648
 11
21.053295096154336
 21
-0.6756813096801793
 97
        0
 75
     0
 76
     1
 98
        1
 10
0.0
 20
0.0
  0
HATCH
  5
88
100
AcDbEntity
  8
0
  6
CONTINUOUS
 62
     3
100
AcDbHatch
 10
0.0
 20
0.0
 30
0.0
210
0.0
220
0.0
230
1.0
  2
SOLID
 70
     1
 71
     1
 91
        1
 92
        1
 93
       12
 72
     2
 10
26.09465466477446
 20
-6.5604295733743392
 40
11.481428571428609
 50
150.903074
 51
156.790773
 73
     1
 72
     1
 10
15.542396441700383
 20
-2.035714285714505
 11
18.049394029288031
 21
-2.0357142857144055
 72
     2
 10
10.927987441101074
 20
-4.0835590566205937
 40
7.4100000000000241
 50
16.043216
 51
21.362935
 73
     1
 72
     1
 10
17.828858648663306
 20
-1.3842857142858769
 11
18.610437953297115
 21
-1.3842857142858769
 72
     2
 10
10.927987441101074
 20
-4.0835590566205937
 40
8.1428571428571708
 50
340.64078
 51
351.286733
 73
     0
 72
     1
 10
18.976866524725686
 20
-2.8500000000001648
 11
14.457580810439971
 21
-2.8500000000001648
 72
     2
 10
26.09465466477446
 20
-6.5604295733743392
 40
12.214285714285754
 50
197.684652
 51
207.200855
 73
     0
 72
     1
 10
15.231152239011401
 20
-0.9771428571430043
 11
14.091152239011485
 21
-0.9771428571430043
 72
     1
 10
14.091152239011485
 20
-0.9771428571430043
 11
14.091152239011485
 21
-0.162857142857284
 72
     1
 10
14.091152239011485
 20
-0.162857142857284
 11
19.302580810440098
 21
-0.162857142857284
 72
     1
 10
19.302580810440098
 20
-0.162857142857284
 11
19.302580810440098
 21
-0.9771428571430043
 72
     1
 10
19.302580810440098
 20
-0.9771428571430043
 11
16.062201750099412
 21
-0.9771428571430043
 97
        0
 75
     0
 76
     1
 98
        1
 10
0.0
 20
0.0
  0
HATCH
  5
89
100
AcDbEntity
  8
0
  6
CONTINUOUS
 62
     3
100
AcDbHatch
 10
0.0
 20
0.0
 30
0.0
210
0.0
220
0.0
230
1.0
  2
SOLID
 70
     1
 71
     1
 91
        1
 92
        1
 93
       10
 72
     2
 10
26.143491684008573
 20
11.064410217386417
 40
13.028571428571473
 50
129.545698
 51
136.474664
 73
     0
 72
     1
 10
16.696866524725998
 20
2.0919553376225579
 11
16.696866524725998
 21
2.8499999999998487
 72
     1
 10
16.696866524725998
 20
2.8499999999998487
 11
17.104009381868686
 21
2.8499999999998487
 72
     2
 10
26.143491684008573
 20
11.064410217386417
 40
12.214285714285754
 50
222.262231
 51
237.763996
 73
     1
 72
     1
 10
19.628295096154382
 20
0.7328571428570001
 11
19.100346295490944
 21
0.1036722629605507
 72
     2
 10
26.143491684008573
 20
11.064410217386417
 40
13.028571428571473
 50
122.723968
 51
128.230009
 73
     0
 72
     1
 10
18.08115223901148
 20
0.830038905819066
 11
18.08115223901148
 21
0.2035714285712729
 72
     1
 10
18.08115223901148
 20
0.2035714285712729
 11
16.696866524725998
 21
0.2035714285712729
 72
     1
 10
16.696866524725998
 20
0.2035714285712729
 11
16.696866524725998
 21
1.0178571428569896
 72
     1
 10
16.696866524725998
 20
1.0178571428569896
 11
17.848285550942784
 21
1.0178571428569896
 97
        0
 75
     0
 76
     1
 98
        1
 10
0.0
 20
0.0
  0
HATCH
  5
8A
100
AcDbEntity
  8
0
  6
CONTINUOUS
 62
     3
100
AcDbHatch
 10
0.0
 20
0.0
 30
0.0
210
0.0
220
0.0
230
1.0
  2
SOLID
 70
     1
 71
     1
 91
        1
 92
        1
 93
       10
 72
     2
 10
7.2502413654429532
 20
11.064410217386417
 40
13.028571428571473
 50
51.769991
 51
57.276032
 73
     0
 72
     1
 10
14.293386753960569
 20
0.1036722629605329
 11
13.76543795329713
 21
0.7328571428569894
 72
     2
 10
7.2502413654429532
 20
11.064410217386417
 40
12.214285714285754
 50
302.236004
 51
317.737769
 73
     1
 72
     1
 10
16.289723667582841
 20
2.8499999999998487
 11
16.696866524725998
 21
2.8499999999998487
 72
     1
 10
16.696866524725998
 20
2.8499999999998487
 11
16.696866524725998
 21
2.0919553376230482
 72
     2
 10
7.2502413654429532
 20
11.064410217386417
 40
13.028571428571473
 50
43.525336
 51
50.454302
 73
     0
 72
     1
 10
15.545447498508743
 20
1.0178571428569896
 11
16.696866524725998
 21
1.0178571428569896
 72
     1
 10
16.696866524725998
 20
1.0178571428569896
 11
16.696866524725998
 21
0.2035714285712729
 72
     1
 10
16.696866524725998
 20
0.2035714285712729
 11
15.312580810440046
 21
0.2035714285712729
 72
     1
 10
15.312580810440046
 20
0.2035714285712729
 11
15.312580810440046
 21
0.8300389058190589
 97
        0
 75
     0
 76
     1
 98
        1
 10
0.0
 20
0.0
  0
HATCH
  5
8B
100
AcDbEntity
  8
0
  6
CONTINUOUS
 62
     3
100
AcDbHatch
 10
0.0
 20
0.0
 30
0.0
210
0.0
220
0.0
230
1.0
  2
SOLID
 70
     1
 71
     1
 91
        1
 92
        1
 93
       18
 72
     2
 10
1.2571935216656343
 20
-0.8093264034321166
 40
11.400000000000038
 50
14.02954
 51
18.723021
 73
     1
 72
     1
 10
12.053921279331213
 20
2.8499999999998487
 11
12.910437953297141
 21
2.8499999999998487
 72
     2
 10
1.2571935216656343
 20
-0.8093264034321166
 40
12.214285714285754
 50
342.566782
 51
346.922981
 73
     0
 72
     1
 10
13.15472366758285
 20
1.9542857142855716
 11
13.480437953297177
 21
1.9542857142855716
 72
     1
 10
13.480437953297177
 20
1.9542857142855716
 11
13.480437953297177
 21
1.1399999999998407
 72
     1
 10
13.480437953297177
 20
1.1399999999998407
 11
11.958092734747289
 21
1.1399999999998514
 72
     2
 10
20.401866524725683
 20
2.4835714285712918
 40
8.5500000000000291
 50
189.041096
 51
204.65198
 73
     1
 72
     2
 10
14.334076117775972
 20
-0.301141422634494
 40
1.8737206404808271
 50
204.65198
 51
242.897449
 73
     1
 72
     1
 10
13.480437953297177
 20
-1.9691135215345774
 11
13.480437953297177
 21
-2.8500000000001648
 72
     2
 10
14.334076117775972
 20
-0.301141422634494
 40
2.6880063547665438
 50
108.516212
 51
155.34802
 73
     0
 72
     2
 10
20.401866524725683
 20
2.4835714285712918
 40
9.3642857142857441
 50
155.34802
 51
171.750831
 73
     0
 72
     1
 10
11.134468683092756
 20
1.1399999999998549
 11
8.0247236675828972
 21
1.1399999999998407
 72
     1
 10
8.0247236675828972
 20
1.1399999999998407
 11
8.0247236675828972
 21
1.9542857142855716
 72
     1
 10
8.0247236675828972
 20
1.9542857142855716
 11
11.050355927894167
 21
1.9542857142855716
 72
     1
 10
11.050355927894167
 20
1.9542857142855716
 11
11.019076895792274
 21
2.8499999999998487
 72
     1
 10
11.019076895792274
 20
2.8499999999998487
 11
11.833858953292697
 21
2.8499999999998487
 72
     1
 10
11.833858953292697
 20
2.8499999999998487
 11
11.865137985394604
 21
1.9542857142855716
 72
     1
 10
11.865137985394604
 20
1.9542857142855716
 11
12.317141444816265
 21
1.9542857142855716
 97
        0
 75
     0
 76
     1
 98
        1
 10
0.0
 20
0.0
  0
HATCH
  5
8C
100
AcDbEntity
  8
0
  6
CONTINUOUS
 62
     3
100
AcDbHatch
 10
0.0
 20
0.0
 30
0.0
210
0.0
220
0.0
230
1.0
  2
SOLID
 70
     1
 71
     1
 91
        1
 92
        1
 93
       12
 72
     2
 10
5.4617420309248317
 20
38.027820957415145
 40
39.900000000000134
 50
276.500664
 51
278.269357
 73
     1
 72
     1
 10
11.200437953297204
 20
-1.457332823601817
 11
11.20043795329719
 21
-2.2800000000001504
 72
     2
 10
5.4617420309248317
 20
38.027820957415145
 40
40.71428571428585
 50
81.897153
 51
86.39082
 73
     0
 72
     1
 10
8.024723667582883
 20
-2.6057142857144413
 11
8.024723667582883
 21
-1.7897772264302034
 72
     2
 10
5.4617420309248317
 20
38.027820957415145
 40
39.900000000000134
 50
273.682937
 51
275.325087
 73
     1
 72
     1
 10
9.1647236675828836
 20
-1.6999769553635602
 11
9.1647236675828836
 21
-0.4071428571430218
 72
     1
 10
9.1647236675828836
 20
-0.4071428571430218
 11
8.0247236675828972
 21
-0.4071428571430218
 72
     1
 10
8.0247236675828972
 20
-0.4071428571430218
 11
8.0247236675828972
 21
0.4071428571426949
 72
     1
 10
8.0247236675828972
 20
0.4071428571426949
 11
10.95615223901148
 21
0.4071428571426949
 72
     1
 10
10.95615223901148
 20
0.4071428571426949
 11
10.95615223901148
 21
-0.4071428571430218
 72
     1
 10
10.95615223901148
 20
-0.4071428571430218
 11
9.9790093818686287
 21
-0.4071428571430218
 72
     1
 10
9.9790093818686287
 20
-0.4071428571430218
 11
9.9790093818685861
 21
-1.6156437710884397
 97
        0
 75
     0
 76
     1
 98
        1
 10
0.0
 20
0.0
  0
HATCH
  5
8D
100
AcDbEntity
  8
0
  6
CONTINUOUS
 62
     3
100
AcDbHatch
 10
0.0
 20
0.0
 30
0.0
210
0.0
220
0.0
230
1.0
  2
SOLID
 70
     1
 71
     1
 91
        1
 92
        1
 93
       30
 72
     2
 10
-1.8979256098940809
 20
4.1519130391923014
 40
8.9164285714286002
 50
37.940537
 51
46.713808
 73
     0
 72
     1
 10
4.21556076329842
 20
-2.3386942385728418
 11
3.6682950961542744
 21
-1.7914285714286962
 72
     2
 10
-1.8979256098940809
 20
4.1519130391923014
 40
8.1428571428571743
 50
313.123325
 51
325.95222
 73
     1
 72
     1
 10
4.8490093818684983
 20
-0.4071428571430076
 11
3.8718665247257533
 21
-0.4071428571430076
 72
     1
 10
3.8718665247257533
 20
-0.4071428571430076
 11
3.8718665247257533
 21
0.4071428571427092
 72
     1
 10
3.8718665247257533
 20
0.4071428571427092
 11
5.1340093818686157
 21
0.4071428571427092
 72
     1
 10
5.1340093818686157
 20
0.4071428571427092
 11
5.1340093818686157
 21
1.2214285714284152
 72
     1
 10
5.1340093818686157
 20
1.2214285714284152
 11
4.7280236542212677
 21
1.2214285714284152
 72
     2
 10
-3.9789687629962955
 20
2.9438069062169916
 40
8.8757142857143183
 50
11.189535
 51
14.746058
 73
     0
 72
     1
 10
4.6044101437030562
 20
0.6846232869284066
 11
3.9125808104399411
 21
0.9364285714284044
 72
     2
 10
-3.9789687629962955
 20
2.9438069062169916
 40
8.1428571428571743
 50
345.728313
 51
357.620387
 73
     1
 72
     1
 10
4.1568665247257641
 20
2.6057142857165694
 11
4.8844833536651819
 21
2.4774158071570227
 72
     2
 10
-3.9789687629962955
 20
2.9438069062169916
 40
8.8757142857143183
 50
3.012102
 51
6.401006
 73
     0
 72
     1
 10
4.8414139890361767
 20
1.9542857142855716
 11
5.1340093818686157
 21
1.9542857142855716
 72
     1
 10
5.1340093818686157
 20
1.9542857142855716
 11
5.1340093818686157
 21
2.8499999999998487
 72
     1
 10
5.1340093818686157
 20
2.8499999999998487
 11
5.948295096154304
 21
2.8499999999998487
 72
     1
 10
5.948295096154304
 20
2.8499999999998487
 11
5.948295096154304
 21
1.9542857142855716
 72
     1
 10
5.948295096154304
 20
1.9542857142855716
 11
7.0475808104400599
 21
1.9542857142855716
 72
     1
 10
7.0475808104400599
 20
1.9542857142855716
 11
7.0475808104400599
 21
1.2214285714284152
 72
     1
 10
7.0475808104400599
 20
1.2214285714284152
 11
5.948295096154304
 21
1.2214285714284152
 72
     1
 10
5.948295096154304
 20
1.2214285714284152
 11
5.948295096154304
 21
0.4071428571427092
 72
     1
 10
5.948295096154304
 20
0.4071428571427092
 11
7.2104379532971521
 21
0.4071428571427092
 72
     1
 10
7.2104379532971521
 20
0.4071428571427092
 11
7.2104379532971521
 21
-0.4071428571430076
 72
     1
 10
7.2104379532971521
 20
-0.4071428571430076
 11
6.2332950961542579
 21
-0.4071428571430076
 72
     2
 10
12.98023008791683
 20
4.1519130391922907
 40
8.1428571428571743
 50
214.04778
 51
226.876675
 73
     1
 72
     1
 10
7.4140093818684889
 20
-1.7914285714286962
 11
6.866743714724322
 21
-2.3386942385728453
 72
     2
 10
12.98023008791683
 20
4.1519130391922907
 40
8.9164285714286002
 50
133.286192
 51
142.059463
 73
     0
 72
     1
 10
5.948295096154304
 20
-1.330293518482641
 11
5.948295096154304
 21
-2.8500000000001648
 72
     1
 10
5.948295096154304
 20
-2.8500000000001648
 11
5.1340093818686157
 21
-2.8500000000001648
 72
     1
 10
5.1340093818686157
 20
-2.8500000000001648
 11
5.1340093818686157
 21
-1.3302935184824136
 97
        0
 75
     0
 76
     1
 98
        1
 10
0.0
 20
0.0
  0
HATCH
  5
8E
100
AcDbEntity
  8
0
  6
CONTINUOUS
 62
     3
100
AcDbHatch
 10
0.0
 20
0.0
 30
0.0
210
0.0
220
0.0
230
1.0
  2
SOLID
 70
     1
 71
     1
 91
        1
 92
        1
 93
       19
 72
     2
 10
-5.2499698511775321
 20
3.0651230633969284
 40
8.8757142857143165
 50
27.683433
 51
32.280505
 73
     0
 72
     1
 10
2.2539459810095721
 20
-1.6750827617845943
 11
1.6732950961542841
 21
-1.2214285714287314
 72
     2
 10
-5.2499698511775321
 20
3.0651230633969284
 40
8.1428571428571708
 50
328.236207
 51
344.845745
 73
     1
 72
     1
 10
2.6097236675827773
 20
0.9364285714284151
 11
1.8768665247257346
 21
0.9364285714284151
 72
     1
 10
1.8768665247257346
 20
0.9364285714284151
 11
1.8768665247257346
 21
1.7507142857141353
 72
     1
 10
1.8768665247257346
 20
1.7507142857141353
 11
2.6097236675829052
 21
1.7507142857141353
 72
     1
 10
2.6097236675829052
 20
1.7507142857141353
 11
2.6097236675829052
 21
2.8499999999998487
 72
     1
 10
2.6097236675829052
 20
2.8499999999998487
 11
3.4240093818685935
 21
2.8499999999998487
 72
     1
 10
3.4240093818685935
 20
2.8499999999998487
 11
3.4240093818685935
 21
1.7507142857141353
 72
     1
 10
3.4240093818685935
 20
1.7507142857141353
 11
3.7904379532971788
 21
1.7507142857141353
 72
     1
 10
3.7904379532971788
 20
1.7507142857141353
 11
3.7904379532971788
 21
0.9364285714284151
 72
     1
 10
3.7904379532971788
 20
0.9364285714284151
 11
3.4240093818685367
 21
0.9364285714284151
 72
     1
 10
3.4240093818685367
 20
0.9364285714284151
 11
3.8718665247257533
 21
0.2968222855516665
 72
     1
 10
3.8718665247257533
 20
0.2968222855516665
 11
3.8718665247257533
 21
-0.1989042363292235
 72
     1
 10
3.8718665247257533
 20
-0.1989042363292235
 11
3.6275808104399871
 21
-0.4900326139487277
 72
     1
 10
3.6275808104399871
 20
-0.4900326139487277
 11
3.4240093818685935
 21
-0.1993024840048498
 72
     1
 10
3.4240093818685935
 20
-0.1993024840048498
 11
3.4240093818685935
 21
-2.8500000000001648
 72
     1
 10
3.4240093818685935
 20
-2.8500000000001648
 11
2.6097236675829052
 21
-2.8500000000001648
 72
     1
 10
2.6097236675829052
 20
-2.8500000000001648
 11
2.6097236675829052
 21
-1.0584096299120844
 97
        0
 75
     0
 76
     1
 98
        1
 10
0.0
 20
0.0
  0
HATCH
  5
8F
100
AcDbEntity
  8
0
  6
CONTINUOUS
 62
     3
100
AcDbHatch
 10
0.0
 20
0.0
 30
0.0
210
0.0
220
0.0
230
1.0
  2
SOLID
 70
     1
 71
     1
 91
        1
 92
        1
 93
        8
 72
     2
 10
-1.8298808996504405
 20
-0.4560000000002766
 40
1.596000000000013
 50
270.0
 51
330.0
 73
     1
 72
     2
 10
-2.619696067901863
 20
-0.00000000000027
 40
2.508000000000012
 50
330.0
 51
30.0
 73
     1
 72
     2
 10
-1.8298808996504405
 20
0.4559999999997331
 40
1.5960000000000121
 50
30.0
 51
90.0
 73
     1
 72
     1
 10
-1.82988089965
 20
2.0519999999997438
 11
-1.82988089965
 21
2.9639999999999276
 72
     2
 10
-1.8298808996504974
 20
0.4559999999999214
 40
2.508000000000008
 50
270.0
 51
330.0
 73
     0
 72
     2
 10
-2.6196960679017494
 20
-0.0000000000001243
 40
3.420000000000015
 50
330.0
 51
30.0
 73
     0
 72
     2
 10
-1.8298808996503837
 20
-0.456000000000369
 40
2.5080000000000053
 50
30.0
 51
90.0
 73
     0
 72
     1
 10
-1.82988089965
 20
-2.9640000000003752
 11
-1.82988089965
 21
-2.0520000000002909
 97
        0
 75
     0
 76
     1
 98
        1
 10
0.0
 20
0.0
  0
HATCH
  5
90
100
AcDbEntity
  8
0
  6
CONTINUOUS
 62
     3
100
AcDbHatch
 10
0.0
 20
0.0
 30
0.0
210
0.0
220
0.0
230
1.0
  2
SOLID
 70
     1
 71
     1
 91
        1
 92
        1
 93
        8
 72
     2
 10
-1.8298808996503837
 20
-0.456000000000369
 40
2.5080000000000053
 50
90.0
 51
150.0
 73
     0
 72
     2
 10
-1.0400657313991175
 20
-0.0000000000003126
 40
3.4200000000000181
 50
150.0
 51
210.0
 73
     0
 72
     2
 10
-1.8298808996504974
 20
0.4559999999999214
 40
2.508000000000008
 50
210.0
 51
270.0
 73
     0
 72
     1
 10
-1.82988089965
 20
2.9639999999999276
 11
-1.82988089965
 21
2.0519999999997438
 72
     2
 10
-1.8298808996504405
 20
0.4559999999997331
 40
1.5960000000000121
 50
90.0
 51
150.0
 73
     1
 72
     2
 10
-1.040065731399018
 20
-0.00000000000027
 40
2.5080000000000129
 50
150.0
 51
210.0
 73
     1
 72
     2
 10
-1.8298808996504405
 20
-0.4560000000002766
 40
1.596000000000013
 50
210.0
 51
270.0
 73
     1
 72
     1
 10
-1.82988089965
 20
-2.0520000000002909
 11
-1.82988089965
 21
-2.9640000000003752
 97
        0
 75
     0
 76
     1
 98
        1
 10
0.0
 20
0.0
  0
HATCH
  5
91
100
AcDbEntity
  8
0
  6
CONTINUOUS
 62
     3
100
AcDbHatch
 10
0.0
 20
0.0
 30
0.0
210
0.0
220
0.0
230
1.0
  2
SOLID
 70
     1
 71
     1
 91
        1
 92
        1
 93
        4
 72
     1
 10
-5.3638808996504608
 20
-1.0260000000002698
 11
-6.2758808996504385
 21
-1.0260000000002698
 72
     1
 10
-6.2758808996504385
 20
-1.0260000000002698
 11
-6.2758808996504385
 21
-0.1140000000002743
 72
     1
 10
-6.2758808996504385
 20
-0.1140000000002743
 11
-5.3638808996504608
 21
-0.1140000000002743
 72
     1
 10
-5.3638808996504608
 20
-0.1140000000002743
 11
-5.3638808996504608
 21
-1.0260000000003267
 97
        0
 75
     0
 76
     1
 98
        1
 10
0.0
 20
0.0
  0
HATCH
  5
92
100
AcDbEntity
  8
0
  6
CONTINUOUS
 62
     3
100
AcDbHatch
 10
0.0
 20
0.0
 30
0.0
210
0.0
220
0.0
230
1.0
  2
SOLID
 70
     1
 71
     1
 91
        1
 92
        1
 93
       16
 72
     1
 10
-9.6958808996504686
 20
1.9379999999997324
 11
-10.949880899650459
 21
1.9379999999997324
 72
     1
 10
-10.949880899650459
 20
1.9379999999997324
 11
-11.177880899650468
 21
0.6839999999997275
 72
     1
 10
-11.177880899650468
 20
0.6839999999997275
 11
-11.861880899650437
 21
0.6839999999997275
 72
     1
 10
-11.861880899650437
 20
0.6839999999997275
 11
-11.861880899650437
 21
2.8499999999997421
 72
     1
 10
-11.861880899650437
 20
2.8499999999997421
 11
-6.6178808996504515
 21
2.8499999999997421
 72
     1
 10
-6.6178808996504515
 20
2.8499999999997421
 11
-6.6178808996504515
 21
0.6839999999997275
 72
     1
 10
-6.6178808996504515
 20
0.6839999999997275
 11
-7.3018808996504205
 21
0.6839999999997275
 72
     1
 10
-7.3018808996504205
 20
0.6839999999997275
 11
-7.5298808996504292
 21
1.9379999999997324
 72
     1
 10
-7.5298808996504292
 20
1.9379999999997324
 11
-8.7838808996504767
 21
1.9379999999997324
 72
     1
 10
-8.7838808996504767
 20
1.9379999999997324
 11
-8.7838808996504341
 21
-1.9380000000002759
 72
     1
 10
-8.7838808996504341
 20
-1.9380000000002759
 11
-7.8718808996504421
 21
-2.1660000000002846
 72
     1
 10
-7.8718808996504421
 20
-2.1660000000002846
 11
-7.8718808996504421
 21
-2.8500000000002856
 72
     1
 10
-7.8718808996504421
 20
-2.8500000000002856
 11
-10.607880899650446
 21
-2.8500000000002856
 72
     1
 10
-10.607880899650446
 20
-2.8500000000002856
 11
-10.607880899650446
 21
-2.1660000000002846
 72
     1
 10
-10.607880899650446
 20
-2.1660000000002846
 11
-9.6958808996504686
 21
-1.9380000000002759
 72
     1
 10
-9.6958808996504686
 20
-1.9380000000002759
 11
-9.6958808996504686
 21
1.9379999999997324
 97
        0
 75
     0
 76
     1
 98
        1
 10
0.0
 20
0.0
  0
HATCH
  5
93
100
AcDbEntity
  8
0
  6
CONTINUOUS
 62
     3
100
AcDbHatch
 10
0.0
 20
0.0
 30
0.0
210
0.0
220
0.0
230
1.0
  2
SOLID
 70
     1
 71
     1
 91
        1
 92
        1
 93
        4
 72
     1
 10
-13.115880899650485
 20
-1.0260000000002698
 11
-13.115880899650428
 21
-0.1140000000002175
 72
     1
 10
-13.115880899650428
 20
-0.1140000000002175
 11
-12.20388089965045
 21
-0.1140000000002743
 72
     1
 10
-12.20388089965045
 20
-0.1140000000002743
 11
-12.20388089965045
 21
-1.0260000000002698
 72
     1
 10
-12.20388089965045
 20
-1.0260000000002698
 11
-13.115880899650428
 21
-1.0260000000002698
 97
        0
 75
     0
 76
     1
 98
        1
 10
0.0
 20
0.0
  0
HATCH
  5
94
100
AcDbEntity
  8
0
  6
CONTINUOUS
 62
     3
100
AcDbHatch
 10
0.0
 20
0.0
 30
0.0
210
0.0
220
0.0
230
1.0
  2
SOLID
 70
     1
 71
     1
 91
        1
 92
        1
 93
       12
 72
     1
 10
-14.141880899650467
 20
2.8499999999997421
 11
-14.141880899650467
 21
2.1659999999997304
 72
     1
 10
-14.141880899650467
 20
2.1659999999997304
 11
-15.053880899650444
 21
1.9379999999997324
 72
     1
 10
-15.053880899650444
 20
1.9379999999997324
 11
-15.053880899650444
 21
-1.9380000000002759
 72
     1
 10
-15.053880899650444
 20
-1.9380000000002759
 11
-14.141880899650467
 21
-2.1660000000002846
 72
     1
 10
-14.141880899650467
 20
-2.1660000000002846
 11
-14.141880899650467
 21
-2.8500000000002856
 72
     1
 10
-14.141880899650467
 20
-2.8500000000002856
 11
-16.877880899650467
 21
-2.8500000000002856
 72
     1
 10
-16.877880899650467
 20
-2.8500000000002856
 11
-16.877880899650467
 21
-2.1660000000002846
 72
     1
 10
-16.877880899650467
 20
-2.1660000000002846
 11
-15.965880899650482
 21
-1.9380000000002759
 72
     1
 10
-15.965880899650482
 20
-1.9380000000002759
 11
-15.965880899650482
 21
1.9379999999997324
 72
     1
 10
-15.965880899650482
 20
1.9379999999997324
 11
-16.877880899650467
 21
2.165999999999741
 72
     1
 10
-16.877880899650467
 20
2.165999999999741
 11
-16.877880899650467
 21
2.8499999999997421
 72
     1
 10
-16.877880899650467
 20
2.8499999999997421
 11
-14.141880899650467
 21
2.8499999999997421
 97
        0
 75
     0
 76
     1
 98
        1
 10
0.0
 20
0.0
  0
HATCH
  5
95
100
AcDbEntity
  8
0
  6
CONTINUOUS
 62
     3
100
AcDbHatch
 10
0.0
 20
0.0
 30
0.0
210
0.0
220
0.0
230
1.0
  2
SOLID
 70
     1
 71
     1
 91
        1
 92
        1
 93
       15
 72
     2
 10
-23.082241990843084
 20
-0.0000000000001492
 40
2.531053105310535
 50
124.301153
 51
180.0
 73
     0
 72
     1
 10
-25.613295096153617
 20
0.0
 11
-24.658234262528236
 21
0.0
 72
     2
 10
-22.195587997901765
 20
-0.000000000000135
 40
2.46264626462647
 50
180.0
 51
199.464384
 73
     1
 72
     2
 10
-24.557343260027135
 20
0.2731786481661374
 40
1.094509450945121
 50
272.086657
 51
294.619977
 73
     1
 72
     2
 10
-24.243863734539655
 20
-0.4108897586745677
 40
0.342034203420344
 50
294.619977
 51
0.0
 73
     1
 72
     1
 10
-23.901829531119287
 20
-0.4108897586745677
 11
-23.901829531119287
 21
0.0
 72
     1
 10
-23.901829531119287
 20
0.0
 11
-23.080947442910482
 21
0.0
 72
     1
 10
-23.080947442910482
 20
0.0
 11
-23.080947442910482
 21
-0.4116155274721614
 72
     2
 10
-22.73891323949012
 20
-0.4116155274721614
 40
0.34203420342033
 50
180.0
 51
245.380023
 73
     1
 72
     2
 10
-22.425433714002583
 20
0.2724528793686645
 40
1.0945094509452411
 50
245.380023
 51
267.913343
 73
     1
 72
     1
 10
-22.465285876753814
 20
-0.8213308027789985
 11
-22.465285876753814
 21
-1.0265513248311819
 72
     1
 10
-22.465285876753814
 20
-1.0265513248311819
 11
-24.434073870576871
 21
-1.0265513248311962
 72
     2
 10
-22.195587997901708
 20
-0.000000000000135
 40
2.4626462646264669
 50
204.635803
 51
268.19864
 73
     1
 72
     1
 10
-22.272999999999005
 20
-2.4614292609397985
 11
-22.272999999999005
 21
-2.8039503813289706
 72
     2
 10
-22.195587997901765
 20
1.2997299729972909
 40
4.1044104410441236
 50
91.080702
 51
124.301153
 73
     0
 97
        0
 75
     0
 76
     1
 98
        1
 10
0.0
 20
0.0
  0
HATCH
  5
96
100
AcDbEntity
  8
0
  6
CONTINUOUS
 62
     3
100
AcDbHatch
 10
0.0
 20
0.0
 30
0.0
210
0.0
220
0.0
230
1.0
  2
SOLID
 70
     1
 71
     1
 91
        1
 92
        1
 93
       24
 72
     2
 10
-22.67055612196938
 20
0.3420342034202015
 40
0.342034203420347
 50
90.0
 51
157.380135
 73
     1
 72
     2
 10
-21.849674033760575
 20
-0.0000000000001101
 40
1.231323132313237
 50
157.380135
 51
180.0
 73
     1
 72
     1
 10
-23.080997166073811
 20
0.0
 11
-23.901829531119287
 21
0.0
 72
     1
 10
-23.901829531119287
 20
0.0
 11
-23.901829531119287
 21
1.7757720729310194
 72
     2
 10
-22.195587997901765
 20
-0.000000000000135
 40
2.46264626462647
 50
133.856042
 51
180.0
 73
     1
 72
     1
 10
-24.658234262528236
 20
0.0
 11
-25.613295096153617
 21
0.0
 72
     2
 10
-23.082241990843084
 20
-0.0000000000001492
 40
2.531053105310535
 50
180.0
 51
235.698847
 73
     0
 72
     2
 10
-22.195587997901708
 20
-1.2997299729975893
 40
4.1044104410441324
 50
235.698847
 51
245.436008
 73
     0
 72
     1
 10
-23.901829531119287
 20
2.4332212587861193
 11
-23.901829531119287
 21
2.8049575222742433
 72
     2
 10
-24.243863734539655
 20
2.8049575222742433
 40
0.3420342034203421
 50
0.0
 51
65.380023
 73
     1
 72
     2
 10
-24.557343260027135
 20
2.1208891154335525
 40
1.0945094509450961
 50
65.380023
 51
87.913343
 73
     1
 72
     1
 10
-24.517491097275904
 20
3.2146727975810734
 11
-24.517491097275904
 21
3.4198933196332746
 72
     1
 10
-24.517491097275904
 20
3.4198933196332746
 11
-22.465285876753814
 21
3.4198933196332746
 72
     1
 10
-22.465285876753814
 20
3.4198933196332746
 11
-22.465285876753814
 21
3.2146727975810769
 72
     2
 10
-22.425433714002583
 20
2.1208891154335525
 40
1.094509450945101
 50
92.086657
 51
114.619977
 73
     1
 72
     2
 10
-22.738913239490063
 20
2.8049575222742575
 40
0.342034203420347
 50
114.619977
 51
180.0
 73
     1
 72
     1
 10
-23.080947442910432
 20
2.8049575222742433
 11
-23.080947442910432
 21
2.7080529205341897
 72
     2
 10
-22.195587997901765
 20
-1.2997299729975893
 40
4.1044104410441218
 50
257.542857
 51
268.919298
 73
     0
 72
     1
 10
-22.272999999999005
 20
2.8039503813286721
 11
-22.272999999999005
 21
2.4614292609395321
 72
     2
 10
-22.195587997901708
 20
-0.000000000000135
 40
2.46264626462647
 50
91.80136
 51
111.070443
 73
     1
 72
     1
 10
-23.080947442910482
 20
2.2979915747913111
 11
-23.080947442910482
 21
1.0261026102608923
 72
     1
 10
-23.080947442910482
 20
1.0261026102608923
 11
-22.272999999998969
 21
1.0261026102608923
 72
     1
 10
-22.272999999998969
 20
1.0261026102608923
 11
-22.272999999999005
 21
0.6840684068405416
 72
     1
 10
-22.272999999999005
 20
0.6840684068405416
 11
-22.67055612196938
 21
0.6840684068405416
 97
        0
 75
     0
 76
     1
 98
        1
 10
0.0
 20
0.0
  0
HATCH
  5
97
100
AcDbEntity
  8
0
  6
CONTINUOUS
 62
     3
100
AcDbHatch
 10
0.0
 20
0.0
 30
0.0
210
0.0
220
0.0
230
1.0
  2
SOLID
 70
     1
 71
     1
 91
        1
 92
        1
 93
       14
 72
     2
 10
-22.195587997901765
 20
-0.000000000000135
 40
2.4626462646264748
 50
0.0
 51
9.281799
 73
     1
 72
     2
 10
-20.102741104833992
 20
0.3420342034202015
 40
0.34203420342034
 50
9.281799
 51
90.0
 73
     1
 72
     1
 10
-20.102741104833992
 20
0.6840684068405416
 11
-20.827451184220411
 21
0.6840684068405416
 72
     1
 10
-20.827451184220411
 20
0.6840684068405416
 11
-20.827451184220411
 21
0.0
 72
     1
 10
-20.827451184220411
 20
0.0
 11
-21.648333272429209
 21
0.0
 72
     1
 10
-21.648333272429209
 20
0.0
 11
-21.648333272429209
 21
0.6840684068405416
 72
     1
 10
-21.648333272429209
 20
0.6840684068405416
 11
-22.272999999999005
 21
0.6840684068405416
 72
     1
 10
-22.272999999999005
 20
0.6840684068405416
 11
-22.272999999999005
 21
1.0261026102608923
 72
     1
 10
-22.272999999999005
 20
1.0261026102608923
 11
-19.956896402818945
 21
1.0261026102608675
 72
     2
 10
-22.195587997901708
 20
-0.000000000000135
 40
2.46264626462647
 50
24.624318
 51
91.80136
 73
     1
 72
     1
 10
-22.272999999999005
 20
2.4614292609395321
 11
-22.272999999999005
 21
2.8039503813286721
 72
     2
 10
-22.195587997901765
 20
-1.2997299729975893
 40
4.1044104410441218
 50
268.919298
 51
304.301153
 73
     0
 72
     2
 10
-21.308934004960445
 20
-0.0000000000001492
 40
2.5310531053105372
 50
304.301153
 51
0.0
 73
     0
 72
     1
 10
-18.777880899649912
 20
0.0
 11
-19.732941733275293
 21
0.0
 97
        0
 75
     0
 76
     1
 98
        1
 10
0.0
 20
0.0
  0
HATCH
  5
98
100
AcDbEntity
  8
0
  6
CONTINUOUS
 62
     3
100
AcDbHatch
 10
0.0
 20
0.0
 30
0.0
210
0.0
220
0.0
230
1.0
  2
SOLID
 70
     1
 71
     1
 91
        1
 92
        1
 93
       19
 72
     2
 10
-22.195587997901765
 20
-0.000000000000135
 40
2.4626462646264748
 50
303.748989
 51
0.0
 73
     1
 72
     1
 10
-19.732941733275293
 20
0.0
 11
-18.777880899649912
 21
0.0
 72
     2
 10
-21.308934004960445
 20
-0.0000000000001492
 40
2.5310531053105372
 50
0.0
 51
55.698847
 73
     0
 72
     2
 10
-22.195587997901708
 20
1.2997299729973051
 40
4.1044104410441289
 50
55.698847
 51
70.528779
 73
     0
 72
     1
 10
-20.827451184220411
 20
-2.5699453011829512
 11
-20.827451184220411
 21
-2.8054062368445436
 72
     2
 10
-20.485416980800043
 20
-2.8054062368445436
 40
0.342034203420344
 50
180.0
 51
245.380023
 73
     1
 72
     2
 10
-20.171937455312563
 20
-2.1213378300038528
 40
1.094509450945099
 50
245.380023
 51
267.913343
 73
     1
 72
     1
 10
-20.211789618063744
 20
-3.2151215121513772
 11
-20.211789618063744
 21
-3.4203420342035784
 72
     1
 10
-20.211789618063744
 20
-3.4203420342035784
 11
-22.263994838585827
 21
-3.4203420342035784
 72
     1
 10
-22.263994838585827
 20
-3.4203420342035784
 11
-22.263994838585827
 21
-3.2151215121513737
 72
     2
 10
-22.303847001337058
 20
-2.1213378300038528
 40
1.094509450945099
 50
272.086657
 51
294.619977
 73
     1
 72
     2
 10
-21.990367475849578
 20
-2.8054062368445436
 40
0.342034203420344
 50
294.619977
 51
0.0
 73
     1
 72
     1
 10
-21.648333272429209
 20
-2.8054062368445436
 11
-21.648333272429209
 21
-2.7680332125876284
 72
     2
 10
-22.195587997901765
 20
1.2997299729972909
 40
4.1044104410441236
 50
82.337744
 51
91.080702
 73
     0
 72
     1
 10
-22.272999999999005
 20
-2.8039503813289706
 11
-22.272999999999005
 21
-2.4614292609397985
 72
     2
 10
-22.195587997901708
 20
-0.000000000000135
 40
2.4626462646264669
 50
268.19864
 51
282.839588
 73
     1
 72
     1
 10
-21.648333272429209
 20
-2.4010703634269781
 11
-21.648333272429209
 21
0.0
 72
     1
 10
-21.648333272429209
 20
0.0
 11
-20.827451184220411
 21
0.0
 72
     1
 10
-20.827451184220411
 20
0.0
 11
-20.827451184220411
 21
-2.047639686011447
 97
        0
 75
     0
 76
     1
 98
        1
 10
0.0
 20
0.0
  0
ENDBLK
  5
99
100
AcDbEntity
  8
0
100
AcDbBlockEnd
  0
ENDSEC
  0
SECTION
  2
ENTITIES
  0
ARC
  5
9A
100
AcDbEntity
  8
LAY-1
  6
CONTINUOUS
 62
     2
100
AcDbCircle
 10
1467.915955
 20
700.634216
 30
0.0
 40
5.009003
100
AcDbArc
 50
180.0
 51
210.565895
  0
ARC
  5
9B
100
AcDbEntity
  8
LAY-1
  6
CONTINUOUS
 62
     2
100
AcDbCircle
 10
1467.915955
 20
688.034216
 30
0.0
 40
5.009003
100
AcDbArc
 50
149.434105
 51
180.0
  0
LINE
  5
9C
100
AcDbEntity
  8
LAY-1
  6
CONTINUOUS
 62
     2
100
AcDbLine
 10
1469.406952
 20
690.581439
 30
0.0
 11
1463.602979
 21
690.581439
 31
0.0
  0
LINE
  5
9D
100
AcDbEntity
  8
LAY-1
  6
CONTINUOUS
 62
     2
100
AcDbLine
 10
1463.602979
 20
686.828662
 30
0.0
 11
1469.406952
 21
686.828662
 31
0.0
  0
LINE
  5
9E
100
AcDbEntity
  8
LAY-1
  6
CONTINUOUS
 62
     2
100
AcDbLine
 10
1469.406952
 20
698.086993
 30
0.0
 11
1463.602979
 21
698.086993
 31
0.0
  0
LINE
  5
9F
100
AcDbEntity
  8
LAY-1
  6
CONTINUOUS
 62
     2
100
AcDbLine
 10
1469.406952
 20
701.839769
 30
0.0
 11
1463.602979
 21
701.839769
 31
0.0
  0
LINE
  5
A0
100
AcDbEntity
  8
LAY-1
  6
CONTINUOUS
 62
     2
100
AcDbLine
 10
1463.602979
 20
686.828662
 30
0.0
 11
1462.906952
 21
688.034216
 31
0.0
  0
LINE
  5
A1
100
AcDbEntity
  8
LAY-1
  6
CONTINUOUS
 62
     2
100
AcDbLine
 10
1496.406952
 20
701.839769
 30
0.0
 11
1501.210925
 21
701.839769
 31
0.0
  0
LINE
  5
A2
100
AcDbEntity
  8
LAY-1
  6
CONTINUOUS
 62
     2
100
AcDbLine
 10
1462.906952
 20
700.634216
 30
0.0
 11
1462.906952
 21
688.034216
 31
0.0
  0
ARC
  5
A3
100
AcDbEntity
  8
LAY-1
  6
CONTINUOUS
 62
     2
100
AcDbCircle
 10
1473.371915
 20
694.334216
 30
0.0
 40
10.464963
100
AcDbArc
 50
158.985518
 51
201.014482
  0
LINE
  5
A4
100
AcDbEntity
  8
LAY-1
  6
CONTINUOUS
 62
     2
100
AcDbLine
 10
1501.906952
 20
700.634216
 30
0.0
 11
1501.906952
 21
688.034216
 31
0.0
  0
LINE
  5
A5
100
AcDbEntity
  8
LAY-1
  6
CONTINUOUS
 62
     2
100
AcDbLine
 10
1501.210925
 20
686.828662
 30
0.0
 11
1496.406952
 21
686.828662
 31
0.0
  0
LINE
  5
A6
100
AcDbEntity
  8
LAY-1
  6
CONTINUOUS
 62
     2
100
AcDbLine
 10
1501.210925
 20
701.839769
 30
0.0
 11
1501.906952
 21
700.634216
 31
0.0
  0
ARC
  5
A7
100
AcDbEntity
  8
LAY-1
  6
CONTINUOUS
 62
     2
100
AcDbCircle
 10
1491.441989
 20
694.334216
 30
0.0
 40
10.464963
100
AcDbArc
 50
338.985518
 51
21.014482
  0
LINE
  5
A8
100
AcDbEntity
  8
LAY-1
  6
CONTINUOUS
 62
     2
100
AcDbLine
 10
1501.210925
 20
686.828662
 30
0.0
 11
1501.906952
 21
688.034216
 31
0.0
  0
LINE
  5
A9
100
AcDbEntity
  8
LAY-1
  6
CONTINUOUS
 62
     2
100
AcDbLine
 10
1463.602979
 20
701.839769
 30
0.0
 11
1462.906952
 21
700.634216
 31
0.0
  0
ARC
  5
AA
100
AcDbEntity
  8
LAY-1
  6
CONTINUOUS
 62
     2
100
AcDbCircle
 10
1496.897949
 20
700.634216
 30
0.0
 40
5.009003
100
AcDbArc
 50
329.434105
 51
0.0
  0
ARC
  5
AB
100
AcDbEntity
  8
LAY-1
  6
CONTINUOUS
 62
     2
100
AcDbCircle
 10
1496.897949
 20
688.034216
 30
0.0
 40
5.009003
100
AcDbArc
 50
0.0
 51
30.565895
  0
LINE
  5
AC
100
AcDbEntity
  8
LAY-1
  6
CONTINUOUS
 62
     2
100
AcDbLine
 10
1496.406952
 20
698.086993
 30
0.0
 11
1501.210925
 21
698.086993
 31
0.0
  0
LINE
  5
AD
100
AcDbEntity
  8
LAY-1
  6
CONTINUOUS
 62
     2
100
AcDbLine
 10
1496.406952
 20
690.581439
 30
0.0
 11
1501.210925
 21
690.581439
 31
0.0
  0
LINE
  5
AE
100
AcDbEntity
  8
LAY-1
  6
CONTINUOUS
 62
     2
100
AcDbLine
 10
1470.406952
 20
703.06815
 30
0.0
 11
1469.406952
 21
701.839769
 31
0.0
  0
LINE
  5
AF
100
AcDbEntity
  8
LAY-1
  6
CONTINUOUS
 62
     2
100
AcDbLine
 10
1469.406952
 20
701.839769
 30
0.0
 11
1469.406952
 21
686.828662
 31
0.0
  0
LINE
  5
B0
100
AcDbEntity
  8
LAY-1
  6
CONTINUOUS
 62
     2
100
AcDbLine
 10
1469.406952
 20
686.828662
 30
0.0
 11
1470.406952
 21
685.646093
 31
0.0
  0
ARC
  5
B1
100
AcDbEntity
  8
LAY-1
  6
CONTINUOUS
 62
     2
100
AcDbCircle
 10
1467.915955
 20
657.266248
 30
0.0
 40
5.009003
100
AcDbArc
 50
180.0
 51
210.565895
  0
ARC
  5
B2
100
AcDbEntity
  8
LAY-1
  6
CONTINUOUS
 62
     2
100
AcDbCircle
 10
1467.915955
 20
644.666248
 30
0.0
 40
5.009003
100
AcDbArc
 50
149.434105
 51
180.0
  0
LINE
  5
B3
100
AcDbEntity
  8
LAY-1
  6
CONTINUOUS
 62
     2
100
AcDbLine
 10
1469.406952
 20
647.213471
 30
0.0
 11
1463.602979
 21
647.213471
 31
0.0
  0
LINE
  5
B4
100
AcDbEntity
  8
LAY-1
  6
CONTINUOUS
 62
     2
100
AcDbLine
 10
1463.602979
 20
643.460694
 30
0.0
 11
1469.406952
 21
643.460694
 31
0.0
  0
LINE
  5
B5
100
AcDbEntity
  8
LAY-1
  6
CONTINUOUS
 62
     2
100
AcDbLine
 10
1469.406952
 20
654.719025
 30
0.0
 11
1463.602979
 21
654.719025
 31
0.0
  0
LINE
  5
B6
100
AcDbEntity
  8
LAY-1
  6
CONTINUOUS
 62
     2
100
AcDbLine
 10
1469.406952
 20
658.471801
 30
0.0
 11
1463.602979
 21
658.471801
 31
0.0
  0
LINE
  5
B7
100
AcDbEntity
  8
LAY-1
  6
CONTINUOUS
 62
     2
100
AcDbLine
 10
1463.602979
 20
643.460694
 30
0.0
 11
1462.906952
 21
644.666248
 31
0.0
  0
LINE
  5
B8
100
AcDbEntity
  8
LAY-1
  6
CONTINUOUS
 62
     2
100
AcDbLine
 10
1496.406952
 20
658.471801
 30
0.0
 11
1501.210925
 21
658.471801
 31
0.0
  0
LINE
  5
B9
100
AcDbEntity
  8
LAY-1
  6
CONTINUOUS
 62
     2
100
AcDbLine
 10
1462.906952
 20
657.266248
 30
0.0
 11
1462.906952
 21
644.666248
 31
0.0
  0
ARC
  5
BA
100
AcDbEntity
  8
LAY-1
  6
CONTINUOUS
 62
     2
100
AcDbCircle
 10
1473.371915
 20
650.966248
 30
0.0
 40
10.464963
100
AcDbArc
 50
158.985518
 51
201.014482
  0
LINE
  5
BB
100
AcDbEntity
  8
LAY-1
  6
CONTINUOUS
 62
     2
100
AcDbLine
 10
1501.906952
 20
657.266248
 30
0.0
 11
1501.906952
 21
644.666248
 31
0.0
  0
LINE
  5
BC
100
AcDbEntity
  8
LAY-1
  6
CONTINUOUS
 62
     2
100
AcDbLine
 10
1501.210925
 20
643.460694
 30
0.0
 11
1496.406952
 21
643.460694
 31
0.0
  0
LINE
  5
BD
100
AcDbEntity
  8
LAY-1
  6
CONTINUOUS
 62
     2
100
AcDbLine
 10
1501.210925
 20
658.471801
 30
0.0
 11
1501.906952
 21
657.266248
 31
0.0
  0
ARC
  5
BE
100
AcDbEntity
  8
LAY-1
  6
CONTINUOUS
 62
     2
100
AcDbCircle
 10
1491.441989
 20
650.966248
 30
0.0
 40
10.464963
100
AcDbArc
 50
338.985518
 51
21.014482
  0
LINE
  5
BF
100
AcDbEntity
  8
LAY-1
  6
CONTINUOUS
 62
     2
100
AcDbLine
 10
1501.210925
 20
643.460694
 30
0.0
 11
1501.906952
 21
644.666248
 31
0.0
  0
LINE
  5
C0
100
AcDbEntity
  8
LAY-1
  6
CONTINUOUS
 62
     2
100
AcDbLine
 10
1463.602979
 20
658.471801
 30
0.0
 11
1462.906952
 21
657.266248
 31
0.0
  0
ARC
  5
C1
100
AcDbEntity
  8
LAY-1
  6
CONTINUOUS
 62
     2
100
AcDbCircle
 10
1496.897949
 20
657.266248
 30
0.0
 40
5.009003
100
AcDbArc
 50
329.434105
 51
0.0
  0
ARC
  5
C2
100
AcDbEntity
  8
LAY-1
  6
CONTINUOUS
 62
     2
100
AcDbCircle
 10
1496.897949
 20
644.666248
 30
0.0
 40
5.009003
100
AcDbArc
 50
0.0
 51
30.565895
  0
LINE
  5
C3
100
AcDbEntity
  8
LAY-1
  6
CONTINUOUS
 62
     2
100
AcDbLine
 10
1496.406952
 20
654.719025
 30
0.0
 11
1501.210925
 21
654.719025
 31
0.0
  0
LINE
  5
C4
100
AcDbEntity
  8
LAY-1
  6
CONTINUOUS
 62
     2
100
AcDbLine
 10
1496.406952
 20
647.213471
 30
0.0
 11
1501.210925
 21
647.213471
 31
0.0
  0
LINE
  5
C5
100
AcDbEntity
  8
LAY-1
  6
CONTINUOUS
 62
     2
100
AcDbLine
 10
1470.406952
 20
659.700182
 30
0.0
 11
1469.406952
 21
658.471801
 31
0.0
  0
LINE
  5
C6
100
AcDbEntity
  8
LAY-1
  6
CONTINUOUS
 62
     2
100
AcDbLine
 10
1469.406952
 20
658.471801
 30
0.0
 11
1469.406952
 21
643.460694
 31
0.0
  0
LINE
  5
C7
100
AcDbEntity
  8
LAY-1
  6
CONTINUOUS
 62
     2
100
AcDbLine
 10
1469.406952
 20
643.460694
 30
0.0
 11
1470.406952
 21
642.278125
 31
0.0
  0
ARC
  5
C8
100
AcDbEntity
  8
LAY-1
  6
CONTINUOUS
 62
     2
100
AcDbCircle
 10
1467.915955
 20
761.965784
 30
0.0
 40
5.009003
100
AcDbArc
 50
180.0
 51
210.565895
  0
ARC
  5
C9
100
AcDbEntity
  8
LAY-1
  6
CONTINUOUS
 62
     2
100
AcDbCircle
 10
1467.915955
 20
749.365784
 30
0.0
 40
5.009003
100
AcDbArc
 50
149.434105
 51
180.0
  0
LINE
  5
CA
100
AcDbEntity
  8
LAY-1
  6
CONTINUOUS
 62
     2
100
AcDbLine
 10
1469.406952
 20
751.913007
 30
0.0
 11
1463.602979
 21
751.913007
 31
0.0
  0
LINE
  5
CB
100
AcDbEntity
  8
LAY-1
  6
CONTINUOUS
 62
     2
100
AcDbLine
 10
1463.602979
 20
748.160231
 30
0.0
 11
1469.406952
 21
748.160231
 31
0.0
  0
LINE
  5
CC
100
AcDbEntity
  8
LAY-1
  6
CONTINUOUS
 62
     2
100
AcDbLine
 10
1469.406952
 20
759.418561
 30
0.0
 11
1463.602979
 21
759.418561
 31
0.0
  0
LINE
  5
CD
100
AcDbEntity
  8
LAY-1
  6
CONTINUOUS
 62
     2
100
AcDbLine
 10
1469.406952
 20
763.171338
 30
0.0
 11
1463.602979
 21
763.171338
 31
0.0
  0
LINE
  5
CE
100
AcDbEntity
  8
LAY-1
  6
CONTINUOUS
 62
     2
100
AcDbLine
 10
1463.602979
 20
748.160231
 30
0.0
 11
1462.906952
 21
749.365784
 31
0.0
  0
LINE
  5
CF
100
AcDbEntity
  8
LAY-1
  6
CONTINUOUS
 62
     2
100
AcDbLine
 10
1496.406952
 20
763.171338
 30
0.0
 11
1501.210925
 21
763.171338
 31
0.0
  0
LINE
  5
D0
100
AcDbEntity
  8
LAY-1
  6
CONTINUOUS
 62
     2
100
AcDbLine
 10
1462.906952
 20
761.965784
 30
0.0
 11
1462.906952
 21
749.365784
 31
0.0
  0
ARC
  5
D1
100
AcDbEntity
  8
LAY-1
  6
CONTINUOUS
 62
     2
100
AcDbCircle
 10
1473.371915
 20
755.665784
 30
0.0
 40
10.464963
100
AcDbArc
 50
158.985518
 51
201.014482
  0
LINE
  5
D2
100
AcDbEntity
  8
LAY-1
  6
CONTINUOUS
 62
     2
100
AcDbLine
 10
1501.906952
 20
761.965784
 30
0.0
 11
1501.906952
 21
749.365784
 31
0.0
  0
LINE
  5
D3
100
AcDbEntity
  8
LAY-1
  6
CONTINUOUS
 62
     2
100
AcDbLine
 10
1501.210925
 20
748.160231
 30
0.0
 11
1496.406952
 21
748.160231
 31
0.0
  0
LINE
  5
D4
100
AcDbEntity
  8
LAY-1
  6
CONTINUOUS
 62
     2
100
AcDbLine
 10
1501.210925
 20
763.171338
 30
0.0
 11
1501.906952
 21
761.965784
 31
0.0
  0
ARC
  5
D5
100
AcDbEntity
  8
LAY-1
  6
CONTINUOUS
 62
     2
100
AcDbCircle
 10
1491.441989
 20
755.665784
 30
0.0
 40
10.464963
100
AcDbArc
 50
338.985518
 51
21.014482
  0
LINE
  5
D6
100
AcDbEntity
  8
LAY-1
  6
CONTINUOUS
 62
     2
100
AcDbLine
 10
1501.210925
 20
748.160231
 30
0.0
 11
1501.906952
 21
749.365784
 31
0.0
  0
LINE
  5
D7
100
AcDbEntity
  8
LAY-1
  6
CONTINUOUS
 62
     2
100
AcDbLine
 10
1463.602979
 20
763.171338
 30
0.0
 11
1462.906952
 21
761.965784
 31
0.0
  0
ARC
  5
D8
100
AcDbEntity
  8
LAY-1
  6
CONTINUOUS
 62
     2
100
AcDbCircle
 10
1496.897949
 20
761.965784
 30
0.0
 40
5.009003
100
AcDbArc
 50
329.434105
 51
0.0
  0
ARC
  5
D9
100
AcDbEntity
  8
LAY-1
  6
CONTINUOUS
 62
     2
100
AcDbCircle
 10
1496.897949
 20
749.365784
 30
0.0
 40
5.009003
100
AcDbArc
 50
0.0
 51
30.565895
  0
LINE
  5
DA
100
AcDbEntity
  8
LAY-1
  6
CONTINUOUS
 62
     2
100
AcDbLine
 10
1496.406952
 20
759.418561
 30
0.0
 11
1501.210925
 21
759.418561
 31
0.0
  0
LINE
  5
DB
100
AcDbEntity
  8
LAY-1
  6
CONTINUOUS
 62
     2
100
AcDbLine
 10
1496.406952
 20
751.913007
 30
0.0
 11
1501.210925
 21
751.913007
 31
0.0
  0
LINE
  5
DC
100
AcDbEntity
  8
LAY-1
  6
CONTINUOUS
 62
     2
100
AcDbLine
 10
1470.406952
 20
764.399718
 30
0.0
 11
1469.406952
 21
763.171338
 31
0.0
  0
LINE
  5
DD
100
AcDbEntity
  8
LAY-1
  6
CONTINUOUS
 62
     2
100
AcDbLine
 10
1469.406952
 20
763.171338
 30
0.0
 11
1469.406952
 21
748.160231
 31
0.0
  0
LINE
  5
DE
100
AcDbEntity
  8
LAY-1
  6
CONTINUOUS
 62
     2
100
AcDbLine
 10
1469.406952
 20
748.160231
 30
0.0
 11
1470.406952
 21
746.977662
 31
0.0
  0
ARC
  5
DF
100
AcDbEntity
  8
LAY-1
  6
CONTINUOUS
 62
     2
100
AcDbCircle
 10
1467.915955
 20
792.733752
 30
0.0
 40
5.009003
100
AcDbArc
 50
149.434105
 51
180.0
  0
ARC
  5
E0
100
AcDbEntity
  8
LAY-1
  6
CONTINUOUS
 62
     2
100
AcDbCircle
 10
1467.915955
 20
805.333752
 30
0.0
 40
5.009003
100
AcDbArc
 50
180.0
 51
210.565895
  0
LINE
  5
E1
100
AcDbEntity
  8
LAY-1
  6
CONTINUOUS
 62
     2
100
AcDbLine
 10
1469.406952
 20
802.786529
 30
0.0
 11
1463.602979
 21
802.786529
 31
0.0
  0
LINE
  5
E2
100
AcDbEntity
  8
LAY-1
  6
CONTINUOUS
 62
     2
100
AcDbLine
 10
1463.602979
 20
806.539306
 30
0.0
 11
1469.406952
 21
806.539306
 31
0.0
  0
LINE
  5
E3
100
AcDbEntity
  8
LAY-1
  6
CONTINUOUS
 62
     2
100
AcDbLine
 10
1469.406952
 20
795.280975
 30
0.0
 11
1463.602979
 21
795.280975
 31
0.0
  0
LINE
  5
E4
100
AcDbEntity
  8
LAY-1
  6
CONTINUOUS
 62
     2
100
AcDbLine
 10
1469.406952
 20
791.528199
 30
0.0
 11
1463.602979
 21
791.528199
 31
0.0
  0
LINE
  5
E5
100
AcDbEntity
  8
LAY-1
  6
CONTINUOUS
 62
     2
100
AcDbLine
 10
1463.602979
 20
806.539306
 30
0.0
 11
1462.906952
 21
805.333752
 31
0.0
  0
LINE
  5
E6
100
AcDbEntity
  8
LAY-1
  6
CONTINUOUS
 62
     2
100
AcDbLine
 10
1496.406952
 20
791.528199
 30
0.0
 11
1501.210925
 21
791.528199
 31
0.0
  0
LINE
  5
E7
100
AcDbEntity
  8
LAY-1
  6
CONTINUOUS
 62
     2
100
AcDbLine
 10
1462.906952
 20
792.733752
 30
0.0
 11
1462.906952
 21
805.333752
 31
0.0
  0
ARC
  5
E8
100
AcDbEntity
  8
LAY-1
  6
CONTINUOUS
 62
     2
100
AcDbCircle
 10
1473.371915
 20
799.033752
 30
0.0
 40
10.464963
100
AcDbArc
 50
158.985518
 51
201.014482
  0
LINE
  5
E9
100
AcDbEntity
  8
LAY-1
  6
CONTINUOUS
 62
     2
100
AcDbLine
 10
1501.906952
 20
792.733752
 30
0.0
 11
1501.906952
 21
805.333752
 31
0.0
  0
LINE
  5
EA
100
AcDbEntity
  8
LAY-1
  6
CONTINUOUS
 62
     2
100
AcDbLine
 10
1501.210925
 20
806.539306
 30
0.0
 11
1496.406952
 21
806.539306
 31
0.0
  0
LINE
  5
EB
100
AcDbEntity
  8
LAY-1
  6
CONTINUOUS
 62
     2
100
AcDbLine
 10
1501.210925
 20
791.528199
 30
0.0
 11
1501.906952
 21
792.733752
 31
0.0
  0
ARC
  5
EC
100
AcDbEntity
  8
LAY-1
  6
CONTINUOUS
 62
     2
100
AcDbCircle
 10
1491.441989
 20
799.033752
 30
0.0
 40
10.464963
100
AcDbArc
 50
338.985518
 51
21.014482
  0
LINE
  5
ED
100
AcDbEntity
  8
LAY-1
  6
CONTINUOUS
 62
     2
100
AcDbLine
 10
1501.210925
 20
806.539306
 30
0.0
 11
1501.906952
 21
805.333752
 31
0.0
  0
LINE
  5
EE
100
AcDbEntity
  8
LAY-1
  6
CONTINUOUS
 62
     2
100
AcDbLine
 10
1463.602979
 20
791.528199
 30
0.0
 11
1462.906952
 21
792.733752
 31
0.0
  0
ARC
  5
EF
100
AcDbEntity
  8
LAY-1
  6
CONTINUOUS
 62
     2
100
AcDbCircle
 10
1496.897949
 20
792.733752
 30
0.0
 40
5.009003
100
AcDbArc
 50
0.0
 51
30.565895
  0
ARC
  5
F0
100
AcDbEntity
  8
LAY-1
  6
CONTINUOUS
 62
     2
100
AcDbCircle
 10
1496.897949
 20
805.333752
 30
0.0
 40
5.009003
100
AcDbArc
 50
329.434105
 51
0.0
  0
LINE
  5
F1
100
AcDbEntity
  8
LAY-1
  6
CONTINUOUS
 62
     2
100
AcDbLine
 10
1496.406952
 20
795.280975
 30
0.0
 11
1501.210925
 21
795.280975
 31
0.0
  0
LINE
  5
F2
100
AcDbEntity
  8
LAY-1
  6
CONTINUOUS
 62
     2
100
AcDbLine
 10
1496.406952
 20
802.786529
 30
0.0
 11
1501.210925
 21
802.786529
 31
0.0
  0
LINE
  5
F3
100
AcDbEntity
  8
LAY-1
  6
CONTINUOUS
 62
     2
100
AcDbLine
 10
1470.406952
 20
790.299818
 30
0.0
 11
1469.406952
 21
791.528199
 31
0.0
  0
LINE
  5
F4
100
AcDbEntity
  8
LAY-1
  6
CONTINUOUS
 62
     2
100
AcDbLine
 10
1469.406952
 20
791.528199
 30
0.0
 11
1469.406952
 21
806.539306
 31
0.0
  0
LINE
  5
F5
100
AcDbEntity
  8
LAY-1
  6
CONTINUOUS
 62
     2
100
AcDbLine
 10
1469.406952
 20
806.539306
 30
0.0
 11
1470.406952
 21
807.721875
 31
0.0
  0
LINE
  5
F6
100
AcDbEntity
  8
LAY-1
  6
CONTINUOUS
 62
     2
100
AcDbLine
 10
1001.828662
 20
299.5
 30
0.0
 11
1001.828662
 21
294.696027
 31
0.0
  0
LINE
  5
F7
100
AcDbEntity
  8
LAY-1
  6
CONTINUOUS
 62
     2
100
AcDbLine
 10
1003.034216
 20
294.0
 30
0.0
 11
1015.634216
 21
294.0
 31
0.0
  0
LINE
  5
F8
100
AcDbEntity
  8
LAY-1
  6
CONTINUOUS
 62
     2
100
AcDbLine
 10
1016.839769
 20
294.696027
 30
0.0
 11
1016.839769
 21
299.5
 31
0.0
  0
LINE
  5
F9
100
AcDbEntity
  8
LAY-1
  6
CONTINUOUS
 62
     2
100
AcDbLine
 10
1001.828662
 20
294.696027
 30
0.0
 11
1003.034216
 21
294.0
 31
0.0
  0
ARC
  5
FA
100
AcDbEntity
  8
LAY-1
  6
CONTINUOUS
 62
     2
100
AcDbCircle
 10
1009.334216
 20
304.464963
 30
0.0
 40
10.464963
100
AcDbArc
 50
248.985518
 51
291.014482
  0
LINE
  5
FB
100
AcDbEntity
  8
LAY-1
  6
CONTINUOUS
 62
     2
100
AcDbLine
 10
1016.839769
 20
294.696027
 30
0.0
 11
1015.634216
 21
294.0
 31
0.0
  0
ARC
  5
FC
100
AcDbEntity
  8
LAY-1
  6
CONTINUOUS
 62
     2
100
AcDbCircle
 10
1003.034216
 20
299.009003
 30
0.0
 40
5.009003
100
AcDbArc
 50
270.0
 51
300.565895
  0
ARC
  5
FD
100
AcDbEntity
  8
LAY-1
  6
CONTINUOUS
 62
     2
100
AcDbCircle
 10
1015.634216
 20
299.009003
 30
0.0
 40
5.009003
100
AcDbArc
 50
239.434105
 51
270.0
  0
LINE
  5
FE
100
AcDbEntity
  8
LAY-1
  6
CONTINUOUS
 62
     2
100
AcDbLine
 10
1005.581439
 20
299.5
 30
0.0
 11
1005.581439
 21
294.696027
 31
0.0
  0
LINE
  5
FF
100
AcDbEntity
  8
LAY-1
  6
CONTINUOUS
 62
     2
100
AcDbLine
 10
1013.086993
 20
299.5
 30
0.0
 11
1013.086993
 21
294.696027
 31
0.0
  0
LINE
  5
100
100
AcDbEntity
  8
LAY-1
  6
CONTINUOUS
 62
     2
100
AcDbLine
 10
973.471801
 20
299.5
 30
0.0
 11
973.471801
 21
294.696027
 31
0.0
  0
LINE
  5
101
100
AcDbEntity
  8
LAY-1
  6
CONTINUOUS
 62
     2
100
AcDbLine
 10
972.266248
 20
294.0
 30
0.0
 11
959.666248
 21
294.0
 31
0.0
  0
LINE
  5
102
100
AcDbEntity
  8
LAY-1
  6
CONTINUOUS
 62
     2
100
AcDbLine
 10
958.460694
 20
294.696027
 30
0.0
 11
958.460694
 21
299.5
 31
0.0
  0
LINE
  5
103
100
AcDbEntity
  8
LAY-1
  6
CONTINUOUS
 62
     2
100
AcDbLine
 10
973.471801
 20
294.696027
 30
0.0
 11
972.266248
 21
294.0
 31
0.0
  0
ARC
  5
104
100
AcDbEntity
  8
LAY-1
  6
CONTINUOUS
 62
     2
100
AcDbCircle
 10
965.966248
 20
304.464963
 30
0.0
 40
10.464963
100
AcDbArc
 50
248.985518
 51
291.014482
  0
LINE
  5
105
100
AcDbEntity
  8
LAY-1
  6
CONTINUOUS
 62
     2
100
AcDbLine
 10
958.460694
 20
294.696027
 30
0.0
 11
959.666248
 21
294.0
 31
0.0
  0
ARC
  5
106
100
AcDbEntity
  8
LAY-1
  6
CONTINUOUS
 62
     2
100
AcDbCircle
 10
972.266248
 20
299.009003
 30
0.0
 40
5.009003
100
AcDbArc
 50
239.434105
 51
270.0
  0
ARC
  5
107
100
AcDbEntity
  8
LAY-1
  6
CONTINUOUS
 62
     2
100
AcDbCircle
 10
959.666248
 20
299.009003
 30
0.0
 40
5.009003
100
AcDbArc
 50
270.0
 51
300.565895
  0
LINE
  5
108
100
AcDbEntity
  8
LAY-1
  6
CONTINUOUS
 62
     2
100
AcDbLine
 10
969.719025
 20
299.5
 30
0.0
 11
969.719025
 21
294.696027
 31
0.0
  0
LINE
  5
109
100
AcDbEntity
  8
LAY-1
  6
CONTINUOUS
 62
     2
100
AcDbLine
 10
962.213471
 20
299.5
 30
0.0
 11
962.213471
 21
294.696027
 31
0.0
  0
ARC
  5
10A
100
AcDbEntity
  8
LAY-1
  6
CONTINUOUS
 62
     2
100
AcDbCircle
 10
1003.034216
 20
328.084045
 30
0.0
 40
5.009003
100
AcDbArc
 50
59.434105
 51
90.0
  0
ARC
  5
10B
100
AcDbEntity
  8
LAY-1
  6
CONTINUOUS
 62
     2
100
AcDbCircle
 10
1015.634216
 20
328.084045
 30
0.0
 40
5.009003
100
AcDbArc
 50
90.0
 51
120.565895
  0
LINE
  5
10C
100
AcDbEntity
  8
LAY-1
  6
CONTINUOUS
 62
     2
100
AcDbLine
 10
1013.086993
 20
326.593048
 30
0.0
 11
1013.086993
 21
332.397021
 31
0.0
  0
LINE
  5
10D
100
AcDbEntity
  8
LAY-1
  6
CONTINUOUS
 62
     2
100
AcDbLine
 10
1016.839769
 20
332.397021
 30
0.0
 11
1016.839769
 21
326.593048
 31
0.0
  0
LINE
  5
10E
100
AcDbEntity
  8
LAY-1
  6
CONTINUOUS
 62
     2
100
AcDbLine
 10
1005.581439
 20
326.593048
 30
0.0
 11
1005.581439
 21
332.397021
 31
0.0
  0
LINE
  5
10F
100
AcDbEntity
  8
LAY-1
  6
CONTINUOUS
 62
     2
100
AcDbLine
 10
1001.828662
 20
326.593048
 30
0.0
 11
1001.828662
 21
332.397021
 31
0.0
  0
LINE
  5
110
100
AcDbEntity
  8
LAY-1
  6
CONTINUOUS
 62
     2
100
AcDbLine
 10
1016.839769
 20
332.397021
 30
0.0
 11
1015.634216
 21
333.093048
 31
0.0
  0
LINE
  5
111
100
AcDbEntity
  8
LAY-1
  6
CONTINUOUS
 62
     2
100
AcDbLine
 10
1003.034216
 20
333.093048
 30
0.0
 11
1015.634216
 21
333.093048
 31
0.0
  0
ARC
  5
112
100
AcDbEntity
  8
LAY-1
  6
CONTINUOUS
 62
     2
100
AcDbCircle
 10
1009.334216
 20
322.628085
 30
0.0
 40
10.464963
100
AcDbArc
 50
68.985518
 51
111.014482
  0
LINE
  5
113
100
AcDbEntity
  8
LAY-1
  6
CONTINUOUS
 62
     2
100
AcDbLine
 10
1001.828662
 20
332.397021
 30
0.0
 11
1003.034216
 21
333.093048
 31
0.0
  0
LINE
  5
114
100
AcDbEntity
  8
LAY-1
  6
CONTINUOUS
 62
     2
100
AcDbLine
 10
1000.600282
 20
325.593048
 30
0.0
 11
1001.828662
 21
326.593048
 31
0.0
  0
LINE
  5
115
100
AcDbEntity
  8
LAY-1
  6
CONTINUOUS
 62
     2
100
AcDbLine
 10
1001.828662
 20
326.593048
 30
0.0
 11
1016.839769
 21
326.593048
 31
0.0
  0
LINE
  5
116
100
AcDbEntity
  8
LAY-1
  6
CONTINUOUS
 62
     2
100
AcDbLine
 10
1016.839769
 20
326.593048
 30
0.0
 11
1018.022338
 21
325.593048
 31
0.0
  0
ARC
  5
117
100
AcDbEntity
  8
LAY-1
  6
CONTINUOUS
 62
     2
100
AcDbCircle
 10
972.266248
 20
328.084045
 30
0.0
 40
5.009003
100
AcDbArc
 50
90.0
 51
120.565895
  0
ARC
  5
118
100
AcDbEntity
  8
LAY-1
  6
CONTINUOUS
 62
     2
100
AcDbCircle
 10
959.666248
 20
328.084045
 30
0.0
 40
5.009003
100
AcDbArc
 50
59.434105
 51
90.0
  0
LINE
  5
119
100
AcDbEntity
  8
LAY-1
  6
CONTINUOUS
 62
     2
100
AcDbLine
 10
962.213471
 20
326.593048
 30
0.0
 11
962.213471
 21
332.397021
 31
0.0
  0
LINE
  5
11A
100
AcDbEntity
  8
LAY-1
  6
CONTINUOUS
 62
     2
100
AcDbLine
 10
958.460694
 20
332.397021
 30
0.0
 11
958.460694
 21
326.593048
 31
0.0
  0
LINE
  5
11B
100
AcDbEntity
  8
LAY-1
  6
CONTINUOUS
 62
     2
100
AcDbLine
 10
969.719025
 20
326.593048
 30
0.0
 11
969.719025
 21
332.397021
 31
0.0
  0
LINE
  5
11C
100
AcDbEntity
  8
LAY-1
  6
CONTINUOUS
 62
     2
100
AcDbLine
 10
973.471801
 20
326.593048
 30
0.0
 11
973.471801
 21
332.397021
 31
0.0
  0
LINE
  5
11D
100
AcDbEntity
  8
LAY-1
  6
CONTINUOUS
 62
     2
100
AcDbLine
 10
958.460694
 20
332.397021
 30
0.0
 11
959.666248
 21
333.093048
 31
0.0
  0
LINE
  5
11E
100
AcDbEntity
  8
LAY-1
  6
CONTINUOUS
 62
     2
100
AcDbLine
 10
972.266248
 20
333.093048
 30
0.0
 11
959.666248
 21
333.093048
 31
0.0
  0
ARC
  5
11F
100
AcDbEntity
  8
LAY-1
  6
CONTINUOUS
 62
     2
100
AcDbCircle
 10
965.966248
 20
322.628085
 30
0.0
 40
10.464963
100
AcDbArc
 50
68.985518
 51
111.014482
  0
LINE
  5
120
100
AcDbEntity
  8
LAY-1
  6
CONTINUOUS
 62
     2
100
AcDbLine
 10
973.471801
 20
332.397021
 30
0.0
 11
972.266248
 21
333.093048
 31
0.0
  0
LINE
  5
121
100
AcDbEntity
  8
LAY-1
  6
CONTINUOUS
 62
     2
100
AcDbLine
 10
974.700182
 20
325.593048
 30
0.0
 11
973.471801
 21
326.593048
 31
0.0
  0
LINE
  5
122
100
AcDbEntity
  8
LAY-1
  6
CONTINUOUS
 62
     2
100
AcDbLine
 10
973.471801
 20
326.593048
 30
0.0
 11
958.460694
 21
326.593048
 31
0.0
  0
LINE
  5
123
100
AcDbEntity
  8
LAY-1
  6
CONTINUOUS
 62
     2
100
AcDbLine
 10
958.460694
 20
326.593048
 30
0.0
 11
957.278125
 21
325.593048
 31
0.0
  0
LINE
  5
124
100
AcDbEntity
  8
LAY-1
  6
CONTINUOUS
 62
     2
100
AcDbLine
 10
1106.528199
 20
299.5
 30
0.0
 11
1106.528199
 21
294.696027
 31
0.0
  0
LINE
  5
125
100
AcDbEntity
  8
LAY-1
  6
CONTINUOUS
 62
     2
100
AcDbLine
 10
1107.733752
 20
294.0
 30
0.0
 11
1120.333752
 21
294.0
 31
0.0
  0
LINE
  5
126
100
AcDbEntity
  8
LAY-1
  6
CONTINUOUS
 62
     2
100
AcDbLine
 10
1121.539306
 20
294.696027
 30
0.0
 11
1121.539306
 21
299.5
 31
0.0
  0
LINE
  5
127
100
AcDbEntity
  8
LAY-1
  6
CONTINUOUS
 62
     2
100
AcDbLine
 10
1106.528199
 20
294.696027
 30
0.0
 11
1107.733752
 21
294.0
 31
0.0
  0
ARC
  5
128
100
AcDbEntity
  8
LAY-1
  6
CONTINUOUS
 62
     2
100
AcDbCircle
 10
1114.033752
 20
304.464963
 30
0.0
 40
10.464963
100
AcDbArc
 50
248.985518
 51
291.014482
  0
LINE
  5
129
100
AcDbEntity
  8
LAY-1
  6
CONTINUOUS
 62
     2
100
AcDbLine
 10
1121.539306
 20
294.696027
 30
0.0
 11
1120.333752
 21
294.0
 31
0.0
  0
ARC
  5
12A
100
AcDbEntity
  8
LAY-1
  6
CONTINUOUS
 62
     2
100
AcDbCircle
 10
1107.733752
 20
299.009003
 30
0.0
 40
5.009003
100
AcDbArc
 50
270.0
 51
300.565895
  0
ARC
  5
12B
100
AcDbEntity
  8
LAY-1
  6
CONTINUOUS
 62
     2
100
AcDbCircle
 10
1120.333752
 20
299.009003
 30
0.0
 40
5.009003
100
AcDbArc
 50
239.434105
 51
270.0
  0
LINE
  5
12C
100
AcDbEntity
  8
LAY-1
  6
CONTINUOUS
 62
     2
100
AcDbLine
 10
1110.280975
 20
299.5
 30
0.0
 11
1110.280975
 21
294.696027
 31
0.0
  0
LINE
  5
12D
100
AcDbEntity
  8
LAY-1
  6
CONTINUOUS
 62
     2
100
AcDbLine
 10
1117.786529
 20
299.5
 30
0.0
 11
1117.786529
 21
294.696027
 31
0.0
  0
LINE
  5
12E
100
AcDbEntity
  8
LAY-1
  6
CONTINUOUS
 62
     2
100
AcDbLine
 10
1063.160231
 20
299.5
 30
0.0
 11
1063.160231
 21
294.696027
 31
0.0
  0
LINE
  5
12F
100
AcDbEntity
  8
LAY-1
  6
CONTINUOUS
 62
     2
100
AcDbLine
 10
1064.365784
 20
294.0
 30
0.0
 11
1076.965784
 21
294.0
 31
0.0
  0
LINE
  5
130
100
AcDbEntity
  8
LAY-1
  6
CONTINUOUS
 62
     2
100
AcDbLine
 10
1078.171338
 20
294.696027
 30
0.0
 11
1078.171338
 21
299.5
 31
0.0
  0
LINE
  5
131
100
AcDbEntity
  8
LAY-1
  6
CONTINUOUS
 62
     2
100
AcDbLine
 10
1063.160231
 20
294.696027
 30
0.0
 11
1064.365784
 21
294.0
 31
0.0
  0
ARC
  5
132
100
AcDbEntity
  8
LAY-1
  6
CONTINUOUS
 62
     2
100
AcDbCircle
 10
1070.665784
 20
304.464963
 30
0.0
 40
10.464963
100
AcDbArc
 50
248.985518
 51
291.014482
  0
LINE
  5
133
100
AcDbEntity
  8
LAY-1
  6
CONTINUOUS
 62
     2
100
AcDbLine
 10
1078.171338
 20
294.696027
 30
0.0
 11
1076.965784
 21
294.0
 31
0.0
  0
ARC
  5
134
100
AcDbEntity
  8
LAY-1
  6
CONTINUOUS
 62
     2
100
AcDbCircle
 10
1064.365784
 20
299.009003
 30
0.0
 40
5.009003
100
AcDbArc
 50
270.0
 51
300.565895
  0
ARC
  5
135
100
AcDbEntity
  8
LAY-1
  6
CONTINUOUS
 62
     2
100
AcDbCircle
 10
1076.965784
 20
299.009003
 30
0.0
 40
5.009003
100
AcDbArc
 50
239.434105
 51
270.0
  0
LINE
  5
136
100
AcDbEntity
  8
LAY-1
  6
CONTINUOUS
 62
     2
100
AcDbLine
 10
1066.913007
 20
299.5
 30
0.0
 11
1066.913007
 21
294.696027
 31
0.0
  0
LINE
  5
137
100
AcDbEntity
  8
LAY-1
  6
CONTINUOUS
 62
     2
100
AcDbLine
 10
1074.418561
 20
299.5
 30
0.0
 11
1074.418561
 21
294.696027
 31
0.0
  0
ARC
  5
138
100
AcDbEntity
  8
LAY-1
  6
CONTINUOUS
 62
     2
100
AcDbCircle
 10
1064.365784
 20
328.084045
 30
0.0
 40
5.009003
100
AcDbArc
 50
59.434105
 51
90.0
  0
ARC
  5
139
100
AcDbEntity
  8
LAY-1
  6
CONTINUOUS
 62
     2
100
AcDbCircle
 10
1076.965784
 20
328.084045
 30
0.0
 40
5.009003
100
AcDbArc
 50
90.0
 51
120.565895
  0
LINE
  5
13A
100
AcDbEntity
  8
LAY-1
  6
CONTINUOUS
 62
     2
100
AcDbLine
 10
1074.418561
 20
326.593048
 30
0.0
 11
1074.418561
 21
332.397021
 31
0.0
  0
LINE
  5
13B
100
AcDbEntity
  8
LAY-1
  6
CONTINUOUS
 62
     2
100
AcDbLine
 10
1078.171338
 20
332.397021
 30
0.0
 11
1078.171338
 21
326.593048
 31
0.0
  0
LINE
  5
13C
100
AcDbEntity
  8
LAY-1
  6
CONTINUOUS
 62
     2
100
AcDbLine
 10
1066.913007
 20
326.593048
 30
0.0
 11
1066.913007
 21
332.397021
 31
0.0
  0
LINE
  5
13D
100
AcDbEntity
  8
LAY-1
  6
CONTINUOUS
 62
     2
100
AcDbLine
 10
1063.160231
 20
326.593048
 30
0.0
 11
1063.160231
 21
332.397021
 31
0.0
  0
LINE
  5
13E
100
AcDbEntity
  8
LAY-1
  6
CONTINUOUS
 62
     2
100
AcDbLine
 10
1078.171338
 20
332.397021
 30
0.0
 11
1076.965784
 21
333.093048
 31
0.0
  0
LINE
  5
13F
100
AcDbEntity
  8
LAY-1
  6
CONTINUOUS
 62
     2
100
AcDbLine
 10
1064.365784
 20
333.093048
 30
0.0
 11
1076.965784
 21
333.093048
 31
0.0
  0
ARC
  5
140
100
AcDbEntity
  8
LAY-1
  6
CONTINUOUS
 62
     2
100
AcDbCircle
 10
1070.665784
 20
322.628085
 30
0.0
 40
10.464963
100
AcDbArc
 50
68.985518
 51
111.014482
  0
LINE
  5
141
100
AcDbEntity
  8
LAY-1
  6
CONTINUOUS
 62
     2
100
AcDbLine
 10
1063.160231
 20
332.397021
 30
0.0
 11
1064.365784
 21
333.093048
 31
0.0
  0
LINE
  5
142
100
AcDbEntity
  8
LAY-1
  6
CONTINUOUS
 62
     2
100
AcDbLine
 10
1061.93185
 20
325.593048
 30
0.0
 11
1063.160231
 21
326.593048
 31
0.0
  0
LINE
  5
143
100
AcDbEntity
  8
LAY-1
  6
CONTINUOUS
 62
     2
100
AcDbLine
 10
1063.160231
 20
326.593048
 30
0.0
 11
1078.171338
 21
326.593048
 31
0.0
  0
LINE
  5
144
100
AcDbEntity
  8
LAY-1
  6
CONTINUOUS
 62
     2
100
AcDbLine
 10
1078.171338
 20
326.593048
 30
0.0
 11
1079.353907
 21
325.593048
 31
0.0
  0
ARC
  5
145
100
AcDbEntity
  8
LAY-1
  6
CONTINUOUS
 62
     2
100
AcDbCircle
 10
1107.733752
 20
328.084045
 30
0.0
 40
5.009003
100
AcDbArc
 50
59.434105
 51
90.0
  0
ARC
  5
146
100
AcDbEntity
  8
LAY-1
  6
CONTINUOUS
 62
     2
100
AcDbCircle
 10
1120.333752
 20
328.084045
 30
0.0
 40
5.009003
100
AcDbArc
 50
90.0
 51
120.565895
  0
LINE
  5
147
100
AcDbEntity
  8
LAY-1
  6
CONTINUOUS
 62
     2
100
AcDbLine
 10
1117.786529
 20
326.593048
 30
0.0
 11
1117.786529
 21
332.397021
 31
0.0
  0
LINE
  5
148
100
AcDbEntity
  8
LAY-1
  6
CONTINUOUS
 62
     2
100
AcDbLine
 10
1121.539306
 20
332.397021
 30
0.0
 11
1121.539306
 21
326.593048
 31
0.0
  0
LINE
  5
149
100
AcDbEntity
  8
LAY-1
  6
CONTINUOUS
 62
     2
100
AcDbLine
 10
1110.280975
 20
326.593048
 30
0.0
 11
1110.280975
 21
332.397021
 31
0.0
  0
LINE
  5
14A
100
AcDbEntity
  8
LAY-1
  6
CONTINUOUS
 62
     2
100
AcDbLine
 10
1106.528199
 20
326.593048
 30
0.0
 11
1106.528199
 21
332.397021
 31
0.0
  0
LINE
  5
14B
100
AcDbEntity
  8
LAY-1
  6
CONTINUOUS
 62
     2
100
AcDbLine
 10
1121.539306
 20
332.397021
 30
0.0
 11
1120.333752
 21
333.093048
 31
0.0
  0
LINE
  5
14C
100
AcDbEntity
  8
LAY-1
  6
CONTINUOUS
 62
     2
100
AcDbLine
 10
1107.733752
 20
333.093048
 30
0.0
 11
1120.333752
 21
333.093048
 31
0.0
  0
ARC
  5
14D
100
AcDbEntity
  8
LAY-1
  6
CONTINUOUS
 62
     2
100
AcDbCircle
 10
1114.033752
 20
322.628085
 30
0.0
 40
10.464963
100
AcDbArc
 50
68.985518
 51
111.014482
  0
LINE
  5
14E
100
AcDbEntity
  8
LAY-1
  6
CONTINUOUS
 62
     2
100
AcDbLine
 10
1106.528199
 20
332.397021
 30
0.0
 11
1107.733752
 21
333.093048
 31
0.0
  0
LINE
  5
14F
100
AcDbEntity
  8
LAY-1
  6
CONTINUOUS
 62
     2
100
AcDbLine
 10
1105.299818
 20
325.593048
 30
0.0
 11
1106.528199
 21
326.593048
 31
0.0
  0
LINE
  5
150
100
AcDbEntity
  8
LAY-1
  6
CONTINUOUS
 62
     2
100
AcDbLine
 10
1106.528199
 20
326.593048
 30
0.0
 11
1121.539306
 21
326.593048
 31
0.0
  0
LINE
  5
151
100
AcDbEntity
  8
LAY-1
  6
CONTINUOUS
 62
     2
100
AcDbLine
 10
1121.539306
 20
326.593048
 30
0.0
 11
1122.721875
 21
325.593048
 31
0.0
  0
ARC
  5
152
100
AcDbEntity
  8
LAY-1
  6
CONTINUOUS
 62
     2
100
AcDbCircle
 10
612.084045
 20
700.634216
 30
0.0
 40
5.009003
100
AcDbArc
 50
329.434105
 51
0.0
  0
ARC
  5
153
100
AcDbEntity
  8
LAY-1
  6
CONTINUOUS
 62
     2
100
AcDbCircle
 10
612.084045
 20
688.034216
 30
0.0
 40
5.009003
100
AcDbArc
 50
0.0
 51
30.565895
  0
LINE
  5
154
100
AcDbEntity
  8
LAY-1
  6
CONTINUOUS
 62
     2
100
AcDbLine
 10
610.593048
 20
690.581439
 30
0.0
 11
616.397021
 21
690.581439
 31
0.0
  0
LINE
  5
155
100
AcDbEntity
  8
LAY-1
  6
CONTINUOUS
 62
     2
100
AcDbLine
 10
616.397021
 20
686.828662
 30
0.0
 11
610.593048
 21
686.828662
 31
0.0
  0
LINE
  5
156
100
AcDbEntity
  8
LAY-1
  6
CONTINUOUS
 62
     2
100
AcDbLine
 10
610.593048
 20
698.086993
 30
0.0
 11
616.397021
 21
698.086993
 31
0.0
  0
LINE
  5
157
100
AcDbEntity
  8
LAY-1
  6
CONTINUOUS
 62
     2
100
AcDbLine
 10
610.593048
 20
701.839769
 30
0.0
 11
616.397021
 21
701.839769
 31
0.0
  0
LINE
  5
158
100
AcDbEntity
  8
LAY-1
  6
CONTINUOUS
 62
     2
100
AcDbLine
 10
616.397021
 20
686.828662
 30
0.0
 11
617.093048
 21
688.034216
 31
0.0
  0
LINE
  5
159
100
AcDbEntity
  8
LAY-1
  6
CONTINUOUS
 62
     2
100
AcDbLine
 10
583.593048
 20
701.839769
 30
0.0
 11
578.789075
 21
701.839769
 31
0.0
  0
LINE
  5
15A
100
AcDbEntity
  8
LAY-1
  6
CONTINUOUS
 62
     2
100
AcDbLine
 10
617.093048
 20
700.634216
 30
0.0
 11
617.093048
 21
688.034216
 31
0.0
  0
ARC
  5
15B
100
AcDbEntity
  8
LAY-1
  6
CONTINUOUS
 62
     2
100
AcDbCircle
 10
606.628085
 20
694.334216
 30
0.0
 40
10.464963
100
AcDbArc
 50
338.985518
 51
21.014482
  0
LINE
  5
15C
100
AcDbEntity
  8
LAY-1
  6
CONTINUOUS
 62
     2
100
AcDbLine
 10
578.093048
 20
700.634216
 30
0.0
 11
578.093048
 21
688.034216
 31
0.0
  0
LINE
  5
15D
100
AcDbEntity
  8
LAY-1
  6
CONTINUOUS
 62
     2
100
AcDbLine
 10
578.789075
 20
686.828662
 30
0.0
 11
583.593048
 21
686.828662
 31
0.0
  0
LINE
  5
15E
100
AcDbEntity
  8
LAY-1
  6
CONTINUOUS
 62
     2
100
AcDbLine
 10
578.789075
 20
701.839769
 30
0.0
 11
578.093048
 21
700.634216
 31
0.0
  0
ARC
  5
15F
100
AcDbEntity
  8
LAY-1
  6
CONTINUOUS
 62
     2
100
AcDbCircle
 10
588.558011
 20
694.334216
 30
0.0
 40
10.464963
100
AcDbArc
 50
158.985518
 51
201.014482
  0
LINE
  5
160
100
AcDbEntity
  8
LAY-1
  6
CONTINUOUS
 62
     2
100
AcDbLine
 10
578.789075
 20
686.828662
 30
0.0
 11
578.093048
 21
688.034216
 31
0.0
  0
LINE
  5
161
100
AcDbEntity
  8
LAY-1
  6
CONTINUOUS
 62
     2
100
AcDbLine
 10
616.397021
 20
701.839769
 30
0.0
 11
617.093048
 21
700.634216
 31
0.0
  0
ARC
  5
162
100
AcDbEntity
  8
LAY-1
  6
CONTINUOUS
 62
     2
100
AcDbCircle
 10
583.102051
 20
700.634216
 30
0.0
 40
5.009003
100
AcDbArc
 50
180.0
 51
210.565895
  0
ARC
  5
163
100
AcDbEntity
  8
LAY-1
  6
CONTINUOUS
 62
     2
100
AcDbCircle
 10
583.102051
 20
688.034216
 30
0.0
 40
5.009003
100
AcDbArc
 50
149.434105
 51
180.0
  0
LINE
  5
164
100
AcDbEntity
  8
LAY-1
  6
CONTINUOUS
 62
     2
100
AcDbLine
 10
583.593048
 20
698.086993
 30
0.0
 11
578.789075
 21
698.086993
 31
0.0
  0
LINE
  5
165
100
AcDbEntity
  8
LAY-1
  6
CONTINUOUS
 62
     2
100
AcDbLine
 10
583.593048
 20
690.581439
 30
0.0
 11
578.789075
 21
690.581439
 31
0.0
  0
LINE
  5
166
100
AcDbEntity
  8
LAY-1
  6
CONTINUOUS
 62
     2
100
AcDbLine
 10
609.593048
 20
703.06815
 30
0.0
 11
610.593048
 21
701.839769
 31
0.0
  0
LINE
  5
167
100
AcDbEntity
  8
LAY-1
  6
CONTINUOUS
 62
     2
100
AcDbLine
 10
610.593048
 20
701.839769
 30
0.0
 11
610.593048
 21
686.828662
 31
0.0
  0
LINE
  5
168
100
AcDbEntity
  8
LAY-1
  6
CONTINUOUS
 62
     2
100
AcDbLine
 10
610.593048
 20
686.828662
 30
0.0
 11
609.593048
 21
685.646093
 31
0.0
  0
ARC
  5
169
100
AcDbEntity
  8
LAY-1
  6
CONTINUOUS
 62
     2
100
AcDbCircle
 10
612.084045
 20
657.266248
 30
0.0
 40
5.009003
100
AcDbArc
 50
329.434105
 51
0.0
  0
ARC
  5
16A
100
AcDbEntity
  8
LAY-1
  6
CONTINUOUS
 62
     2
100
AcDbCircle
 10
612.084045
 20
644.666248
 30
0.0
 40
5.009003
100
AcDbArc
 50
0.0
 51
30.565895
  0
LINE
  5
16B
100
AcDbEntity
  8
LAY-1
  6
CONTINUOUS
 62
     2
100
AcDbLine
 10
610.593048
 20
647.213471
 30
0.0
 11
616.397021
 21
647.213471
 31
0.0
  0
LINE
  5
16C
100
AcDbEntity
  8
LAY-1
  6
CONTINUOUS
 62
     2
100
AcDbLine
 10
616.397021
 20
643.460694
 30
0.0
 11
610.593048
 21
643.460694
 31
0.0
  0
LINE
  5
16D
100
AcDbEntity
  8
LAY-1
  6
CONTINUOUS
 62
     2
100
AcDbLine
 10
610.593048
 20
654.719025
 30
0.0
 11
616.397021
 21
654.719025
 31
0.0
  0
LINE
  5
16E
100
AcDbEntity
  8
LAY-1
  6
CONTINUOUS
 62
     2
100
AcDbLine
 10
610.593048
 20
658.471801
 30
0.0
 11
616.397021
 21
658.471801
 31
0.0
  0
LINE
  5
16F
100
AcDbEntity
  8
LAY-1
  6
CONTINUOUS
 62
     2
100
AcDbLine
 10
616.397021
 20
643.460694
 30
0.0
 11
617.093048
 21
644.666248
 31
0.0
  0
LINE
  5
170
100
AcDbEntity
  8
LAY-1
  6
CONTINUOUS
 62
     2
100
AcDbLine
 10
583.593048
 20
658.471801
 30
0.0
 11
578.789075
 21
658.471801
 31
0.0
  0
LINE
  5
171
100
AcDbEntity
  8
LAY-1
  6
CONTINUOUS
 62
     2
100
AcDbLine
 10
617.093048
 20
657.266248
 30
0.0
 11
617.093048
 21
644.666248
 31
0.0
  0
ARC
  5
172
100
AcDbEntity
  8
LAY-1
  6
CONTINUOUS
 62
     2
100
AcDbCircle
 10
606.628085
 20
650.966248
 30
0.0
 40
10.464963
100
AcDbArc
 50
338.985518
 51
21.014482
  0
LINE
  5
173
100
AcDbEntity
  8
LAY-1
  6
CONTINUOUS
 62
     2
100
AcDbLine
 10
578.093048
 20
657.266248
 30
0.0
 11
578.093048
 21
644.666248
 31
0.0
  0
LINE
  5
174
100
AcDbEntity
  8
LAY-1
  6
CONTINUOUS
 62
     2
100
AcDbLine
 10
578.789075
 20
643.460694
 30
0.0
 11
583.593048
 21
643.460694
 31
0.0
  0
LINE
  5
175
100
AcDbEntity
  8
LAY-1
  6
CONTINUOUS
 62
     2
100
AcDbLine
 10
578.789075
 20
658.471801
 30
0.0
 11
578.093048
 21
657.266248
 31
0.0
  0
ARC
  5
176
100
AcDbEntity
  8
LAY-1
  6
CONTINUOUS
 62
     2
100
AcDbCircle
 10
588.558011
 20
650.966248
 30
0.0
 40
10.464963
100
AcDbArc
 50
158.985518
 51
201.014482
  0
LINE
  5
177
100
AcDbEntity
  8
LAY-1
  6
CONTINUOUS
 62
     2
100
AcDbLine
 10
578.789075
 20
643.460694
 30
0.0
 11
578.093048
 21
644.666248
 31
0.0
  0
LINE
  5
178
100
AcDbEntity
  8
LAY-1
  6
CONTINUOUS
 62
     2
100
AcDbLine
 10
616.397021
 20
658.471801
 30
0.0
 11
617.093048
 21
657.266248
 31
0.0
  0
ARC
  5
179
100
AcDbEntity
  8
LAY-1
  6
CONTINUOUS
 62
     2
100
AcDbCircle
 10
583.102051
 20
657.266248
 30
0.0
 40
5.009003
100
AcDbArc
 50
180.0
 51
210.565895
  0
ARC
  5
17A
100
AcDbEntity
  8
LAY-1
  6
CONTINUOUS
 62
     2
100
AcDbCircle
 10
583.102051
 20
644.666248
 30
0.0
 40
5.009003
100
AcDbArc
 50
149.434105
 51
180.0
  0
LINE
  5
17B
100
AcDbEntity
  8
LAY-1
  6
CONTINUOUS
 62
     2
100
AcDbLine
 10
583.593048
 20
654.719025
 30
0.0
 11
578.789075
 21
654.719025
 31
0.0
  0
LINE
  5
17C
100
AcDbEntity
  8
LAY-1
  6
CONTINUOUS
 62
     2
100
AcDbLine
 10
583.593048
 20
647.213471
 30
0.0
 11
578.789075
 21
647.213471
 31
0.0
  0
LINE
  5
17D
100
AcDbEntity
  8
LAY-1
  6
CONTINUOUS
 62
     2
100
AcDbLine
 10
609.593048
 20
659.700182
 30
0.0
 11
610.593048
 21
658.471801
 31
0.0
  0
LINE
  5
17E
100
AcDbEntity
  8
LAY-1
  6
CONTINUOUS
 62
     2
100
AcDbLine
 10
610.593048
 20
658.471801
 30
0.0
 11
610.593048
 21
643.460694
 31
0.0
  0
LINE
  5
17F
100
AcDbEntity
  8
LAY-1
  6
CONTINUOUS
 62
     2
100
AcDbLine
 10
610.593048
 20
643.460694
 30
0.0
 11
609.593048
 21
642.278125
 31
0.0
  0
ARC
  5
180
100
AcDbEntity
  8
LAY-1
  6
CONTINUOUS
 62
     2
100
AcDbCircle
 10
612.084045
 20
761.965784
 30
0.0
 40
5.009003
100
AcDbArc
 50
329.434105
 51
0.0
  0
ARC
  5
181
100
AcDbEntity
  8
LAY-1
  6
CONTINUOUS
 62
     2
100
AcDbCircle
 10
612.084045
 20
749.365784
 30
0.0
 40
5.009003
100
AcDbArc
 50
0.0
 51
30.565895
  0
LINE
  5
182
100
AcDbEntity
  8
LAY-1
  6
CONTINUOUS
 62
     2
100
AcDbLine
 10
610.593048
 20
751.913007
 30
0.0
 11
616.397021
 21
751.913007
 31
0.0
  0
LINE
  5
183
100
AcDbEntity
  8
LAY-1
  6
CONTINUOUS
 62
     2
100
AcDbLine
 10
616.397021
 20
748.160231
 30
0.0
 11
610.593048
 21
748.160231
 31
0.0
  0
LINE
  5
184
100
AcDbEntity
  8
LAY-1
  6
CONTINUOUS
 62
     2
100
AcDbLine
 10
610.593048
 20
759.418561
 30
0.0
 11
616.397021
 21
759.418561
 31
0.0
  0
LINE
  5
185
100
AcDbEntity
  8
LAY-1
  6
CONTINUOUS
 62
     2
100
AcDbLine
 10
610.593048
 20
763.171338
 30
0.0
 11
616.397021
 21
763.171338
 31
0.0
  0
LINE
  5
186
100
AcDbEntity
  8
LAY-1
  6
CONTINUOUS
 62
     2
100
AcDbLine
 10
616.397021
 20
748.160231
 30
0.0
 11
617.093048
 21
749.365784
 31
0.0
  0
LINE
  5
187
100
AcDbEntity
  8
LAY-1
  6
CONTINUOUS
 62
     2
100
AcDbLine
 10
583.593048
 20
763.171338
 30
0.0
 11
578.789075
 21
763.171338
 31
0.0
  0
LINE
  5
188
100
AcDbEntity
  8
LAY-1
  6
CONTINUOUS
 62
     2
100
AcDbLine
 10
617.093048
 20
761.965784
 30
0.0
 11
617.093048
 21
749.365784
 31
0.0
  0
ARC
  5
189
100
AcDbEntity
  8
LAY-1
  6
CONTINUOUS
 62
     2
100
AcDbCircle
 10
606.628085
 20
755.665784
 30
0.0
 40
10.464963
100
AcDbArc
 50
338.985518
 51
21.014482
  0
LINE
  5
18A
100
AcDbEntity
  8
LAY-1
  6
CONTINUOUS
 62
     2
100
AcDbLine
 10
578.093048
 20
761.965784
 30
0.0
 11
578.093048
 21
749.365784
 31
0.0
  0
LINE
  5
18B
100
AcDbEntity
  8
LAY-1
  6
CONTINUOUS
 62
     2
100
AcDbLine
 10
578.789075
 20
748.160231
 30
0.0
 11
583.593048
 21
748.160231
 31
0.0
  0
LINE
  5
18C
100
AcDbEntity
  8
LAY-1
  6
CONTINUOUS
 62
     2
100
AcDbLine
 10
578.789075
 20
763.171338
 30
0.0
 11
578.093048
 21
761.965784
 31
0.0
  0
ARC
  5
18D
100
AcDbEntity
  8
LAY-1
  6
CONTINUOUS
 62
     2
100
AcDbCircle
 10
588.558011
 20
755.665784
 30
0.0
 40
10.464963
100
AcDbArc
 50
158.985518
 51
201.014482
  0
LINE
  5
18E
100
AcDbEntity
  8
LAY-1
  6
CONTINUOUS
 62
     2
100
AcDbLine
 10
578.789075
 20
748.160231
 30
0.0
 11
578.093048
 21
749.365784
 31
0.0
  0
LINE
  5
18F
100
AcDbEntity
  8
LAY-1
  6
CONTINUOUS
 62
     2
100
AcDbLine
 10
616.397021
 20
763.171338
 30
0.0
 11
617.093048
 21
761.965784
 31
0.0
  0
ARC
  5
190
100
AcDbEntity
  8
LAY-1
  6
CONTINUOUS
 62
     2
100
AcDbCircle
 10
583.102051
 20
761.965784
 30
0.0
 40
5.009003
100
AcDbArc
 50
180.0
 51
210.565895
  0
ARC
  5
191
100
AcDbEntity
  8
LAY-1
  6
CONTINUOUS
 62
     2
100
AcDbCircle
 10
583.102051
 20
749.365784
 30
0.0
 40
5.009003
100
AcDbArc
 50
149.434105
 51
180.0
  0
LINE
  5
192
100
AcDbEntity
  8
LAY-1
  6
CONTINUOUS
 62
     2
100
AcDbLine
 10
583.593048
 20
759.418561
 30
0.0
 11
578.789075
 21
759.418561
 31
0.0
  0
LINE
  5
193
100
AcDbEntity
  8
LAY-1
  6
CONTINUOUS
 62
     2
100
AcDbLine
 10
583.593048
 20
751.913007
 30
0.0
 11
578.789075
 21
751.913007
 31
0.0
  0
LINE
  5
194
100
AcDbEntity
  8
LAY-1
  6
CONTINUOUS
 62
     2
100
AcDbLine
 10
609.593048
 20
764.399718
 30
0.0
 11
610.593048
 21
763.171338
 31
0.0
  0
LINE
  5
195
100
AcDbEntity
  8
LAY-1
  6
CONTINUOUS
 62
     2
100
AcDbLine
 10
610.593048
 20
763.171338
 30
0.0
 11
610.593048
 21
748.160231
 31
0.0
  0
LINE
  5
196
100
AcDbEntity
  8
LAY-1
  6
CONTINUOUS
 62
     2
100
AcDbLine
 10
610.593048
 20
748.160231
 30
0.0
 11
609.593048
 21
746.977662
 31
0.0
  0
ARC
  5
197
100
AcDbEntity
  8
LAY-1
  6
CONTINUOUS
 62
     2
100
AcDbCircle
 10
612.084045
 20
792.733752
 30
0.0
 40
5.009003
100
AcDbArc
 50
0.0
 51
30.565895
  0
ARC
  5
198
100
AcDbEntity
  8
LAY-1
  6
CONTINUOUS
 62
     2
100
AcDbCircle
 10
612.084045
 20
805.333752
 30
0.0
 40
5.009003
100
AcDbArc
 50
329.434105
 51
0.0
  0
LINE
  5
199
100
AcDbEntity
  8
LAY-1
  6
CONTINUOUS
 62
     2
100
AcDbLine
 10
610.593048
 20
802.786529
 30
0.0
 11
616.397021
 21
802.786529
 31
0.0
  0
LINE
  5
19A
100
AcDbEntity
  8
LAY-1
  6
CONTINUOUS
 62
     2
100
AcDbLine
 10
616.397021
 20
806.539306
 30
0.0
 11
610.593048
 21
806.539306
 31
0.0
  0
LINE
  5
19B
100
AcDbEntity
  8
LAY-1
  6
CONTINUOUS
 62
     2
100
AcDbLine
 10
610.593048
 20
795.280975
 30
0.0
 11
616.397021
 21
795.280975
 31
0.0
  0
LINE
  5
19C
100
AcDbEntity
  8
LAY-1
  6
CONTINUOUS
 62
     2
100
AcDbLine
 10
610.593048
 20
791.528199
 30
0.0
 11
616.397021
 21
791.528199
 31
0.0
  0
LINE
  5
19D
100
AcDbEntity
  8
LAY-1
  6
CONTINUOUS
 62
     2
100
AcDbLine
 10
616.397021
 20
806.539306
 30
0.0
 11
617.093048
 21
805.333752
 31
0.0
  0
LINE
  5
19E
100
AcDbEntity
  8
LAY-1
  6
CONTINUOUS
 62
     2
100
AcDbLine
 10
583.593048
 20
791.528199
 30
0.0
 11
578.789075
 21
791.528199
 31
0.0
  0
LINE
  5
19F
100
AcDbEntity
  8
LAY-1
  6
CONTINUOUS
 62
     2
100
AcDbLine
 10
617.093048
 20
792.733752
 30
0.0
 11
617.093048
 21
805.333752
 31
0.0
  0
ARC
  5
1A0
100
AcDbEntity
  8
LAY-1
  6
CONTINUOUS
 62
     2
100
AcDbCircle
 10
606.628085
 20
799.033752
 30
0.0
 40
10.464963
100
AcDbArc
 50
338.985518
 51
21.014482
  0
LINE
  5
1A1
100
AcDbEntity
  8
LAY-1
  6
CONTINUOUS
 62
     2
100
AcDbLine
 10
578.093048
 20
792.733752
 30
0.0
 11
578.093048
 21
805.333752
 31
0.0
  0
LINE
  5
1A2
100
AcDbEntity
  8
LAY-1
  6
CONTINUOUS
 62
     2
100
AcDbLine
 10
578.789075
 20
806.539306
 30
0.0
 11
583.593048
 21
806.539306
 31
0.0
  0
LINE
  5
1A3
100
AcDbEntity
  8
LAY-1
  6
CONTINUOUS
 62
     2
100
AcDbLine
 10
578.789075
 20
791.528199
 30
0.0
 11
578.093048
 21
792.733752
 31
0.0
  0
ARC
  5
1A4
100
AcDbEntity
  8
LAY-1
  6
CONTINUOUS
 62
     2
100
AcDbCircle
 10
588.558011
 20
799.033752
 30
0.0
 40
10.464963
100
AcDbArc
 50
158.985518
 51
201.014482
  0
LINE
  5
1A5
100
AcDbEntity
  8
LAY-1
  6
CONTINUOUS
 62
     2
100
AcDbLine
 10
578.789075
 20
806.539306
 30
0.0
 11
578.093048
 21
805.333752
 31
0.0
  0
LINE
  5
1A6
100
AcDbEntity
  8
LAY-1
  6
CONTINUOUS
 62
     2
100
AcDbLine
 10
616.397021
 20
791.528199
 30
0.0
 11
617.093048
 21
792.733752
 31
0.0
  0
ARC
  5
1A7
100
AcDbEntity
  8
LAY-1
  6
CONTINUOUS
 62
     2
100
AcDbCircle
 10
583.102051
 20
792.733752
 30
0.0
 40
5.009003
100
AcDbArc
 50
149.434105
 51
180.0
  0
ARC
  5
1A8
100
AcDbEntity
  8
LAY-1
  6
CONTINUOUS
 62
     2
100
AcDbCircle
 10
583.102051
 20
805.333752
 30
0.0
 40
5.009003
100
AcDbArc
 50
180.0
 51
210.565895
  0
LINE
  5
1A9
100
AcDbEntity
  8
LAY-1
  6
CONTINUOUS
 62
     2
100
AcDbLine
 10
583.593048
 20
795.280975
 30
0.0
 11
578.789075
 21
795.280975
 31
0.0
  0
LINE
  5
1AA
100
AcDbEntity
  8
LAY-1
  6
CONTINUOUS
 62
     2
100
AcDbLine
 10
583.593048
 20
802.786529
 30
0.0
 11
578.789075
 21
802.786529
 31
0.0
  0
LINE
  5
1AB
100
AcDbEntity
  8
LAY-1
  6
CONTINUOUS
 62
     2
100
AcDbLine
 10
609.593048
 20
790.299818
 30
0.0
 11
610.593048
 21
791.528199
 31
0.0
  0
LINE
  5
1AC
100
AcDbEntity
  8
LAY-1
  6
CONTINUOUS
 62
     2
100
AcDbLine
 10
610.593048
 20
791.528199
 30
0.0
 11
610.593048
 21
806.539306
 31
0.0
  0
LINE
  5
1AD
100
AcDbEntity
  8
LAY-1
  6
CONTINUOUS
 62
     2
100
AcDbLine
 10
610.593048
 20
806.539306
 30
0.0
 11
609.593048
 21
807.721875
 31
0.0
  0
LINE
  5
1AE
100
AcDbEntity
  8
LAY-1
  6
CONTINUOUS
 62
     2
100
AcDbLine
 10
1106.528199
 20
1150.5
 30
0.0
 11
1106.528199
 21
1155.303973
 31
0.0
  0
LINE
  5
1AF
100
AcDbEntity
  8
LAY-1
  6
CONTINUOUS
 62
     2
100
AcDbLine
 10
1107.733752
 20
1156.0
 30
0.0
 11
1120.333752
 21
1156.0
 31
0.0
  0
LINE
  5
1B0
100
AcDbEntity
  8
LAY-1
  6
CONTINUOUS
 62
     2
100
AcDbLine
 10
1121.539306
 20
1155.303973
 30
0.0
 11
1121.539306
 21
1150.5
 31
0.0
  0
LINE
  5
1B1
100
AcDbEntity
  8
LAY-1
  6
CONTINUOUS
 62
     2
100
AcDbLine
 10
1106.528199
 20
1155.303973
 30
0.0
 11
1107.733752
 21
1156.0
 31
0.0
  0
ARC
  5
1B2
100
AcDbEntity
  8
LAY-1
  6
CONTINUOUS
 62
     2
100
AcDbCircle
 10
1114.033752
 20
1145.535037
 30
0.0
 40
10.464963
100
AcDbArc
 50
68.985518
 51
111.014482
  0
LINE
  5
1B3
100
AcDbEntity
  8
LAY-1
  6
CONTINUOUS
 62
     2
100
AcDbLine
 10
1121.539306
 20
1155.303973
 30
0.0
 11
1120.333752
 21
1156.0
 31
0.0
  0
ARC
  5
1B4
100
AcDbEntity
  8
LAY-1
  6
CONTINUOUS
 62
     2
100
AcDbCircle
 10
1107.733752
 20
1150.990997
 30
0.0
 40
5.009003
100
AcDbArc
 50
59.434105
 51
90.0
  0
ARC
  5
1B5
100
AcDbEntity
  8
LAY-1
  6
CONTINUOUS
 62
     2
100
AcDbCircle
 10
1120.333752
 20
1150.990997
 30
0.0
 40
5.009003
100
AcDbArc
 50
90.0
 51
120.565895
  0
LINE
  5
1B6
100
AcDbEntity
  8
LAY-1
  6
CONTINUOUS
 62
     2
100
AcDbLine
 10
1110.280975
 20
1150.5
 30
0.0
 11
1110.280975
 21
1155.303973
 31
0.0
  0
LINE
  5
1B7
100
AcDbEntity
  8
LAY-1
  6
CONTINUOUS
 62
     2
100
AcDbLine
 10
1117.786529
 20
1150.5
 30
0.0
 11
1117.786529
 21
1155.303973
 31
0.0
  0
LINE
  5
1B8
100
AcDbEntity
  8
LAY-1
  6
CONTINUOUS
 62
     2
100
AcDbLine
 10
1078.171338
 20
1150.5
 30
0.0
 11
1078.171338
 21
1155.303973
 31
0.0
  0
LINE
  5
1B9
100
AcDbEntity
  8
LAY-1
  6
CONTINUOUS
 62
     2
100
AcDbLine
 10
1076.965784
 20
1156.0
 30
0.0
 11
1064.365784
 21
1156.0
 31
0.0
  0
LINE
  5
1BA
100
AcDbEntity
  8
LAY-1
  6
CONTINUOUS
 62
     2
100
AcDbLine
 10
1063.160231
 20
1155.303973
 30
0.0
 11
1063.160231
 21
1150.5
 31
0.0
  0
LINE
  5
1BB
100
AcDbEntity
  8
LAY-1
  6
CONTINUOUS
 62
     2
100
AcDbLine
 10
1078.171338
 20
1155.303973
 30
0.0
 11
1076.965784
 21
1156.0
 31
0.0
  0
ARC
  5
1BC
100
AcDbEntity
  8
LAY-1
  6
CONTINUOUS
 62
     2
100
AcDbCircle
 10
1070.665784
 20
1145.535037
 30
0.0
 40
10.464963
100
AcDbArc
 50
68.985518
 51
111.014482
  0
LINE
  5
1BD
100
AcDbEntity
  8
LAY-1
  6
CONTINUOUS
 62
     2
100
AcDbLine
 10
1063.160231
 20
1155.303973
 30
0.0
 11
1064.365784
 21
1156.0
 31
0.0
  0
ARC
  5
1BE
100
AcDbEntity
  8
LAY-1
  6
CONTINUOUS
 62
     2
100
AcDbCircle
 10
1076.965784
 20
1150.990997
 30
0.0
 40
5.009003
100
AcDbArc
 50
90.0
 51
120.565895
  0
ARC
  5
1BF
100
AcDbEntity
  8
LAY-1
  6
CONTINUOUS
 62
     2
100
AcDbCircle
 10
1064.365784
 20
1150.990997
 30
0.0
 40
5.009003
100
AcDbArc
 50
59.434105
 51
90.0
  0
LINE
  5
1C0
100
AcDbEntity
  8
LAY-1
  6
CONTINUOUS
 62
     2
100
AcDbLine
 10
1074.418561
 20
1150.5
 30
0.0
 11
1074.418561
 21
1155.303973
 31
0.0
  0
LINE
  5
1C1
100
AcDbEntity
  8
LAY-1
  6
CONTINUOUS
 62
     2
100
AcDbLine
 10
1066.913007
 20
1150.5
 30
0.0
 11
1066.913007
 21
1155.303973
 31
0.0
  0
LINE
  5
1C2
100
AcDbEntity
  8
LAY-1
  6
CONTINUOUS
 62
     2
100
AcDbLine
 10
1016.839769
 20
1150.5
 30
0.0
 11
1016.839769
 21
1155.303973
 31
0.0
  0
LINE
  5
1C3
100
AcDbEntity
  8
LAY-1
  6
CONTINUOUS
 62
     2
100
AcDbLine
 10
1015.634216
 20
1156.0
 30
0.0
 11
1003.034216
 21
1156.0
 31
0.0
  0
LINE
  5
1C4
100
AcDbEntity
  8
LAY-1
  6
CONTINUOUS
 62
     2
100
AcDbLine
 10
1001.828662
 20
1155.303973
 30
0.0
 11
1001.828662
 21
1150.5
 31
0.0
  0
LINE
  5
1C5
100
AcDbEntity
  8
LAY-1
  6
CONTINUOUS
 62
     2
100
AcDbLine
 10
1016.839769
 20
1155.303973
 30
0.0
 11
1015.634216
 21
1156.0
 31
0.0
  0
ARC
  5
1C6
100
AcDbEntity
  8
LAY-1
  6
CONTINUOUS
 62
     2
100
AcDbCircle
 10
1009.334216
 20
1145.535037
 30
0.0
 40
10.464963
100
AcDbArc
 50
68.985518
 51
111.014482
  0
LINE
  5
1C7
100
AcDbEntity
  8
LAY-1
  6
CONTINUOUS
 62
     2
100
AcDbLine
 10
1001.828662
 20
1155.303973
 30
0.0
 11
1003.034216
 21
1156.0
 31
0.0
  0
ARC
  5
1C8
100
AcDbEntity
  8
LAY-1
  6
CONTINUOUS
 62
     2
100
AcDbCircle
 10
1015.634216
 20
1150.990997
 30
0.0
 40
5.009003
100
AcDbArc
 50
90.0
 51
120.565895
  0
ARC
  5
1C9
100
AcDbEntity
  8
LAY-1
  6
CONTINUOUS
 62
     2
100
AcDbCircle
 10
1003.034216
 20
1150.990997
 30
0.0
 40
5.009003
100
AcDbArc
 50
59.434105
 51
90.0
  0
LINE
  5
1CA
100
AcDbEntity
  8
LAY-1
  6
CONTINUOUS
 62
     2
100
AcDbLine
 10
1013.086993
 20
1150.5
 30
0.0
 11
1013.086993
 21
1155.303973
 31
0.0
  0
LINE
  5
1CB
100
AcDbEntity
  8
LAY-1
  6
CONTINUOUS
 62
     2
100
AcDbLine
 10
1005.581439
 20
1150.5
 30
0.0
 11
1005.581439
 21
1155.303973
 31
0.0
  0
LINE
  5
1CC
100
AcDbEntity
  8
LAY-1
  6
CONTINUOUS
 62
     2
100
AcDbLine
 10
973.471801
 20
1150.5
 30
0.0
 11
973.471801
 21
1155.303973
 31
0.0
  0
LINE
  5
1CD
100
AcDbEntity
  8
LAY-1
  6
CONTINUOUS
 62
     2
100
AcDbLine
 10
972.266248
 20
1156.0
 30
0.0
 11
959.666248
 21
1156.0
 31
0.0
  0
LINE
  5
1CE
100
AcDbEntity
  8
LAY-1
  6
CONTINUOUS
 62
     2
100
AcDbLine
 10
958.460694
 20
1155.303973
 30
0.0
 11
958.460694
 21
1150.5
 31
0.0
  0
LINE
  5
1CF
100
AcDbEntity
  8
LAY-1
  6
CONTINUOUS
 62
     2
100
AcDbLine
 10
973.471801
 20
1155.303973
 30
0.0
 11
972.266248
 21
1156.0
 31
0.0
  0
ARC
  5
1D0
100
AcDbEntity
  8
LAY-1
  6
CONTINUOUS
 62
     2
100
AcDbCircle
 10
965.966248
 20
1145.535037
 30
0.0
 40
10.464963
100
AcDbArc
 50
68.985518
 51
111.014482
  0
LINE
  5
1D1
100
AcDbEntity
  8
LAY-1
  6
CONTINUOUS
 62
     2
100
AcDbLine
 10
958.460694
 20
1155.303973
 30
0.0
 11
959.666248
 21
1156.0
 31
0.0
  0
ARC
  5
1D2
100
AcDbEntity
  8
LAY-1
  6
CONTINUOUS
 62
     2
100
AcDbCircle
 10
972.266248
 20
1150.990997
 30
0.0
 40
5.009003
100
AcDbArc
 50
90.0
 51
120.565895
  0
ARC
  5
1D3
100
AcDbEntity
  8
LAY-1
  6
CONTINUOUS
 62
     2
100
AcDbCircle
 10
959.666248
 20
1150.990997
 30
0.0
 40
5.009003
100
AcDbArc
 50
59.434105
 51
90.0
  0
LINE
  5
1D4
100
AcDbEntity
  8
LAY-1
  6
CONTINUOUS
 62
     2
100
AcDbLine
 10
969.719025
 20
1150.5
 30
0.0
 11
969.719025
 21
1155.303973
 31
0.0
  0
LINE
  5
1D5
100
AcDbEntity
  8
LAY-1
  6
CONTINUOUS
 62
     2
100
AcDbLine
 10
962.213471
 20
1150.5
 30
0.0
 11
962.213471
 21
1155.303973
 31
0.0
  0
ARC
  5
1D6
100
AcDbEntity
  8
LAY-1
  6
CONTINUOUS
 62
     2
100
AcDbCircle
 10
1076.965784
 20
1121.915955
 30
0.0
 40
5.009003
100
AcDbArc
 50
239.434105
 51
270.0
  0
ARC
  5
1D7
100
AcDbEntity
  8
LAY-1
  6
CONTINUOUS
 62
     2
100
AcDbCircle
 10
1064.365784
 20
1121.915955
 30
0.0
 40
5.009003
100
AcDbArc
 50
270.0
 51
300.565895
  0
LINE
  5
1D8
100
AcDbEntity
  8
LAY-1
  6
CONTINUOUS
 62
     2
100
AcDbLine
 10
1066.913007
 20
1123.406952
 30
0.0
 11
1066.913007
 21
1117.602979
 31
0.0
  0
LINE
  5
1D9
100
AcDbEntity
  8
LAY-1
  6
CONTINUOUS
 62
     2
100
AcDbLine
 10
1063.160231
 20
1117.602979
 30
0.0
 11
1063.160231
 21
1123.406952
 31
0.0
  0
LINE
  5
1DA
100
AcDbEntity
  8
LAY-1
  6
CONTINUOUS
 62
     2
100
AcDbLine
 10
1074.418561
 20
1123.406952
 30
0.0
 11
1074.418561
 21
1117.602979
 31
0.0
  0
LINE
  5
1DB
100
AcDbEntity
  8
LAY-1
  6
CONTINUOUS
 62
     2
100
AcDbLine
 10
1078.171338
 20
1123.406952
 30
0.0
 11
1078.171338
 21
1117.602979
 31
0.0
  0
LINE
  5
1DC
100
AcDbEntity
  8
LAY-1
  6
CONTINUOUS
 62
     2
100
AcDbLine
 10
1063.160231
 20
1117.602979
 30
0.0
 11
1064.365784
 21
1116.906952
 31
0.0
  0
LINE
  5
1DD
100
AcDbEntity
  8
LAY-1
  6
CONTINUOUS
 62
     2
100
AcDbLine
 10
1076.965784
 20
1116.906952
 30
0.0
 11
1064.365784
 21
1116.906952
 31
0.0
  0
ARC
  5
1DE
100
AcDbEntity
  8
LAY-1
  6
CONTINUOUS
 62
     2
100
AcDbCircle
 10
1070.665784
 20
1127.371915
 30
0.0
 40
10.464963
100
AcDbArc
 50
248.985518
 51
291.014482
  0
LINE
  5
1DF
100
AcDbEntity
  8
LAY-1
  6
CONTINUOUS
 62
     2
100
AcDbLine
 10
1078.171338
 20
1117.602979
 30
0.0
 11
1076.965784
 21
1116.906952
 31
0.0
  0
LINE
  5
1E0
100
AcDbEntity
  8
LAY-1
  6
CONTINUOUS
 62
     2
100
AcDbLine
 10
1079.399718
 20
1124.406952
 30
0.0
 11
1078.171338
 21
1123.406952
 31
0.0
  0
LINE
  5
1E1
100
AcDbEntity
  8
LAY-1
  6
CONTINUOUS
 62
     2
100
AcDbLine
 10
1078.171338
 20
1123.406952
 30
0.0
 11
1063.160231
 21
1123.406952
 31
0.0
  0
LINE
  5
1E2
100
AcDbEntity
  8
LAY-1
  6
CONTINUOUS
 62
     2
100
AcDbLine
 10
1063.160231
 20
1123.406952
 30
0.0
 11
1061.977662
 21
1124.406952
 31
0.0
  0
ARC
  5
1E3
100
AcDbEntity
  8
LAY-1
  6
CONTINUOUS
 62
     2
100
AcDbCircle
 10
1015.634216
 20
1121.915955
 30
0.0
 40
5.009003
100
AcDbArc
 50
239.434105
 51
270.0
  0
ARC
  5
1E4
100
AcDbEntity
  8
LAY-1
  6
CONTINUOUS
 62
     2
100
AcDbCircle
 10
1003.034216
 20
1121.915955
 30
0.0
 40
5.009003
100
AcDbArc
 50
270.0
 51
300.565895
  0
LINE
  5
1E5
100
AcDbEntity
  8
LAY-1
  6
CONTINUOUS
 62
     2
100
AcDbLine
 10
1005.581439
 20
1123.406952
 30
0.0
 11
1005.581439
 21
1117.602979
 31
0.0
  0
LINE
  5
1E6
100
AcDbEntity
  8
LAY-1
  6
CONTINUOUS
 62
     2
100
AcDbLine
 10
1001.828662
 20
1117.602979
 30
0.0
 11
1001.828662
 21
1123.406952
 31
0.0
  0
LINE
  5
1E7
100
AcDbEntity
  8
LAY-1
  6
CONTINUOUS
 62
     2
100
AcDbLine
 10
1013.086993
 20
1123.406952
 30
0.0
 11
1013.086993
 21
1117.602979
 31
0.0
  0
LINE
  5
1E8
100
AcDbEntity
  8
LAY-1
  6
CONTINUOUS
 62
     2
100
AcDbLine
 10
1016.839769
 20
1123.406952
 30
0.0
 11
1016.839769
 21
1117.602979
 31
0.0
  0
LINE
  5
1E9
100
AcDbEntity
  8
LAY-1
  6
CONTINUOUS
 62
     2
100
AcDbLine
 10
1001.828662
 20
1117.602979
 30
0.0
 11
1003.034216
 21
1116.906952
 31
0.0
  0
LINE
  5
1EA
100
AcDbEntity
  8
LAY-1
  6
CONTINUOUS
 62
     2
100
AcDbLine
 10
1015.634216
 20
1116.906952
 30
0.0
 11
1003.034216
 21
1116.906952
 31
0.0
  0
ARC
  5
1EB
100
AcDbEntity
  8
LAY-1
  6
CONTINUOUS
 62
     2
100
AcDbCircle
 10
1009.334216
 20
1127.371915
 30
0.0
 40
10.464963
100
AcDbArc
 50
248.985518
 51
291.014482
  0
LINE
  5
1EC
100
AcDbEntity
  8
LAY-1
  6
CONTINUOUS
 62
     2
100
AcDbLine
 10
1016.839769
 20
1117.602979
 30
0.0
 11
1015.634216
 21
1116.906952
 31
0.0
  0
LINE
  5
1ED
100
AcDbEntity
  8
LAY-1
  6
CONTINUOUS
 62
     2
100
AcDbLine
 10
1018.06815
 20
1124.406952
 30
0.0
 11
1016.839769
 21
1123.406952
 31
0.0
  0
LINE
  5
1EE
100
AcDbEntity
  8
LAY-1
  6
CONTINUOUS
 62
     2
100
AcDbLine
 10
1016.839769
 20
1123.406952
 30
0.0
 11
1001.828662
 21
1123.406952
 31
0.0
  0
LINE
  5
1EF
100
AcDbEntity
  8
LAY-1
  6
CONTINUOUS
 62
     2
100
AcDbLine
 10
1001.828662
 20
1123.406952
 30
0.0
 11
1000.646093
 21
1124.406952
 31
0.0
  0
ARC
  5
1F0
100
AcDbEntity
  8
LAY-1
  6
CONTINUOUS
 62
     2
100
AcDbCircle
 10
1107.733752
 20
1121.915955
 30
0.0
 40
5.009003
100
AcDbArc
 50
270.0
 51
300.565895
  0
ARC
  5
1F1
100
AcDbEntity
  8
LAY-1
  6
CONTINUOUS
 62
     2
100
AcDbCircle
 10
1120.333752
 20
1121.915955
 30
0.0
 40
5.009003
100
AcDbArc
 50
239.434105
 51
270.0
  0
LINE
  5
1F2
100
AcDbEntity
  8
LAY-1
  6
CONTINUOUS
 62
     2
100
AcDbLine
 10
1117.786529
 20
1123.406952
 30
0.0
 11
1117.786529
 21
1117.602979
 31
0.0
  0
LINE
  5
1F3
100
AcDbEntity
  8
LAY-1
  6
CONTINUOUS
 62
     2
100
AcDbLine
 10
1121.539306
 20
1117.602979
 30
0.0
 11
1121.539306
 21
1123.406952
 31
0.0
  0
LINE
  5
1F4
100
AcDbEntity
  8
LAY-1
  6
CONTINUOUS
 62
     2
100
AcDbLine
 10
1110.280975
 20
1123.406952
 30
0.0
 11
1110.280975
 21
1117.602979
 31
0.0
  0
LINE
  5
1F5
100
AcDbEntity
  8
LAY-1
  6
CONTINUOUS
 62
     2
100
AcDbLine
 10
1106.528199
 20
1123.406952
 30
0.0
 11
1106.528199
 21
1117.602979
 31
0.0
  0
LINE
  5
1F6
100
AcDbEntity
  8
LAY-1
  6
CONTINUOUS
 62
     2
100
AcDbLine
 10
1121.539306
 20
1117.602979
 30
0.0
 11
1120.333752
 21
1116.906952
 31
0.0
  0
LINE
  5
1F7
100
AcDbEntity
  8
LAY-1
  6
CONTINUOUS
 62
     2
100
AcDbLine
 10
1107.733752
 20
1116.906952
 30
0.0
 11
1120.333752
 21
1116.906952
 31
0.0
  0
ARC
  5
1F8
100
AcDbEntity
  8
LAY-1
  6
CONTINUOUS
 62
     2
100
AcDbCircle
 10
1114.033752
 20
1127.371915
 30
0.0
 40
10.464963
100
AcDbArc
 50
248.985518
 51
291.014482
  0
LINE
  5
1F9
100
AcDbEntity
  8
LAY-1
  6
CONTINUOUS
 62
     2
100
AcDbLine
 10
1106.528199
 20
1117.602979
 30
0.0
 11
1107.733752
 21
1116.906952
 31
0.0
  0
LINE
  5
1FA
100
AcDbEntity
  8
LAY-1
  6
CONTINUOUS
 62
     2
100
AcDbLine
 10
1105.299818
 20
1124.406952
 30
0.0
 11
1106.528199
 21
1123.406952
 31
0.0
  0
LINE
  5
1FB
100
AcDbEntity
  8
LAY-1
  6
CONTINUOUS
 62
     2
100
AcDbLine
 10
1106.528199
 20
1123.406952
 30
0.0
 11
1121.539306
 21
1123.406952
 31
0.0
  0
LINE
  5
1FC
100
AcDbEntity
  8
LAY-1
  6
CONTINUOUS
 62
     2
100
AcDbLine
 10
1121.539306
 20
1123.406952
 30
0.0
 11
1122.721875
 21
1124.406952
 31
0.0
  0
ARC
  5
1FD
100
AcDbEntity
  8
LAY-1
  6
CONTINUOUS
 62
     2
100
AcDbCircle
 10
972.266248
 20
1121.915955
 30
0.0
 40
5.009003
100
AcDbArc
 50
239.434105
 51
270.0
  0
ARC
  5
1FE
100
AcDbEntity
  8
LAY-1
  6
CONTINUOUS
 62
     2
100
AcDbCircle
 10
959.666248
 20
1121.915955
 30
0.0
 40
5.009003
100
AcDbArc
 50
270.0
 51
300.565895
  0
LINE
  5
1FF
100
AcDbEntity
  8
LAY-1
  6
CONTINUOUS
 62
     2
100
AcDbLine
 10
962.213471
 20
1123.406952
 30
0.0
 11
962.213471
 21
1117.602979
 31
0.0
  0
LINE
  5
200
100
AcDbEntity
  8
LAY-1
  6
CONTINUOUS
 62
     2
100
AcDbLine
 10
958.460694
 20
1117.602979
 30
0.0
 11
958.460694
 21
1123.406952
 31
0.0
  0
LINE
  5
201
100
AcDbEntity
  8
LAY-1
  6
CONTINUOUS
 62
     2
100
AcDbLine
 10
969.719025
 20
1123.406952
 30
0.0
 11
969.719025
 21
1117.602979
 31
0.0
  0
LINE
  5
202
100
AcDbEntity
  8
LAY-1
  6
CONTINUOUS
 62
     2
100
AcDbLine
 10
973.471801
 20
1123.406952
 30
0.0
 11
973.471801
 21
1117.602979
 31
0.0
  0
LINE
  5
203
100
AcDbEntity
  8
LAY-1
  6
CONTINUOUS
 62
     2
100
AcDbLine
 10
958.460694
 20
1117.602979
 30
0.0
 11
959.666248
 21
1116.906952
 31
0.0
  0
LINE
  5
204
100
AcDbEntity
  8
LAY-1
  6
CONTINUOUS
 62
     2
100
AcDbLine
 10
972.266248
 20
1116.906952
 30
0.0
 11
959.666248
 21
1116.906952
 31
0.0
  0
ARC
  5
205
100
AcDbEntity
  8
LAY-1
  6
CONTINUOUS
 62
     2
100
AcDbCircle
 10
965.966248
 20
1127.371915
 30
0.0
 40
10.464963
100
AcDbArc
 50
248.985518
 51
291.014482
  0
LINE
  5
206
100
AcDbEntity
  8
LAY-1
  6
CONTINUOUS
 62
     2
100
AcDbLine
 10
973.471801
 20
1117.602979
 30
0.0
 11
972.266248
 21
1116.906952
 31
0.0
  0
LINE
  5
207
100
AcDbEntity
  8
LAY-1
  6
CONTINUOUS
 62
     2
100
AcDbLine
 10
974.700182
 20
1124.406952
 30
0.0
 11
973.471801
 21
1123.406952
 31
0.0
  0
LINE
  5
208
100
AcDbEntity
  8
LAY-1
  6
CONTINUOUS
 62
     2
100
AcDbLine
 10
973.471801
 20
1123.406952
 30
0.0
 11
958.460694
 21
1123.406952
 31
0.0
  0
LINE
  5
209
100
AcDbEntity
  8
LAY-1
  6
CONTINUOUS
 62
     2
100
AcDbLine
 10
958.460694
 20
1123.406952
 30
0.0
 11
957.278125
 21
1124.406952
 31
0.0
  0
CIRCLE
  5
20A
100
AcDbEntity
  8
LAY-1
  6
CONTINUOUS
 62
     2
100
AcDbCircle
 10
612.093048
 20
725.0
 30
0.0
 40
2.0
  0
LINE
  5
20B
100
AcDbEntity
  8
LAY-1
  6
CONTINUOUS
 62
     2
100
AcDbLine
 10
950.0
 20
313.393048
 30
0.0
 11
950.0
 21
338.45
 31
0.0
  0
ARC
  5
20C
100
AcDbEntity
  8
LAY-1
  6
CONTINUOUS
 62
     2
100
AcDbCircle
 10
967.171573
 20
337.093048
 30
0.0
 40
2.0
100
AcDbArc
 50
45.0
 51
90.0
  0
ARC
  5
20D
100
AcDbEntity
  8
LAY-1
  6
CONTINUOUS
 62
     2
100
AcDbCircle
 10
972.828427
 20
337.093048
 30
0.0
 40
2.0
100
AcDbArc
 50
225.0
 51
270.0
  0
LINE
  5
20E
100
AcDbEntity
  8
LAY-1
  6
CONTINUOUS
 62
     2
100
AcDbLine
 10
968.585786
 20
338.507262
 30
0.0
 11
971.414214
 21
335.678834
 31
0.0
  0
LINE
  5
20F
100
AcDbEntity
  8
LAY-1
  6
CONTINUOUS
 62
     2
100
AcDbLine
 10
972.978427
 20
335.093048
 30
0.0
 11
979.5
 21
335.093048
 31
0.0
  0
ARC
  5
210
100
AcDbEntity
  8
LAY-1
  6
CONTINUOUS
 62
     2
100
AcDbCircle
 10
979.5
 20
337.093048
 30
0.0
 40
2.0
100
AcDbArc
 50
270.0
 51
0.0
  0
LINE
  5
211
100
AcDbEntity
  8
LAY-1
  6
CONTINUOUS
 62
     2
100
AcDbLine
 10
981.5
 20
337.093048
 30
0.0
 11
981.5
 21
338.093048
 31
0.0
  0
ARC
  5
212
100
AcDbEntity
  8
LAY-1
  6
CONTINUOUS
 62
     2
100
AcDbCircle
 10
982.5
 20
338.093048
 30
0.0
 40
1.0
100
AcDbArc
 50
90.0
 51
180.0
  0
ARC
  5
213
100
AcDbEntity
  8
LAY-1
  6
CONTINUOUS
 62
     2
100
AcDbCircle
 10
950.5
 20
338.593048
 30
0.0
 40
0.5
100
AcDbArc
 50
90.0
 51
180.0
  0
LINE
  5
214
100
AcDbEntity
  8
LAY-1
  6
CONTINUOUS
 62
     2
100
AcDbLine
 10
950.5
 20
339.093048
 30
0.0
 11
967.171573
 21
339.093048
 31
0.0
  0
LINE
  5
215
100
AcDbEntity
  8
LAY-1
  6
CONTINUOUS
 62
     2
100
AcDbLine
 10
982.5
 20
339.093048
 30
0.0
 11
997.053098
 21
339.093048
 31
0.0
  0
LINE
  5
216
100
AcDbEntity
  8
LAY-1
  6
CONTINUOUS
 62
     2
100
AcDbLine
 10
950.0
 20
1136.606952
 30
0.0
 11
950.0
 21
1111.55
 31
0.0
  0
ARC
  5
217
100
AcDbEntity
  8
LAY-1
  6
CONTINUOUS
 62
     2
100
AcDbCircle
 10
967.171573
 20
1112.906952
 30
0.0
 40
2.0
100
AcDbArc
 50
270.0
 51
315.0
  0
ARC
  5
218
100
AcDbEntity
  8
LAY-1
  6
CONTINUOUS
 62
     2
100
AcDbCircle
 10
972.828427
 20
1112.906952
 30
0.0
 40
2.0
100
AcDbArc
 50
90.0
 51
135.0
  0
LINE
  5
219
100
AcDbEntity
  8
LAY-1
  6
CONTINUOUS
 62
     2
100
AcDbLine
 10
968.585786
 20
1111.492738
 30
0.0
 11
971.414214
 21
1114.321166
 31
0.0
  0
LINE
  5
21A
100
AcDbEntity
  8
LAY-1
  6
CONTINUOUS
 62
     2
100
AcDbLine
 10
972.978427
 20
1114.906952
 30
0.0
 11
979.5
 21
1114.906952
 31
0.0
  0
ARC
  5
21B
100
AcDbEntity
  8
LAY-1
  6
CONTINUOUS
 62
     2
100
AcDbCircle
 10
979.5
 20
1112.906952
 30
0.0
 40
2.0
100
AcDbArc
 50
0.0
 51
90.0
  0
LINE
  5
21C
100
AcDbEntity
  8
LAY-1
  6
CONTINUOUS
 62
     2
100
AcDbLine
 10
981.5
 20
1112.906952
 30
0.0
 11
981.5
 21
1111.906952
 31
0.0
  0
ARC
  5
21D
100
AcDbEntity
  8
LAY-1
  6
CONTINUOUS
 62
     2
100
AcDbCircle
 10
982.5
 20
1111.906952
 30
0.0
 40
1.0
100
AcDbArc
 50
180.0
 51
270.0
  0
ARC
  5
21E
100
AcDbEntity
  8
LAY-1
  6
CONTINUOUS
 62
     2
100
AcDbCircle
 10
950.5
 20
1111.406952
 30
0.0
 40
0.5
100
AcDbArc
 50
180.0
 51
270.0
  0
LINE
  5
21F
100
AcDbEntity
  8
LAY-1
  6
CONTINUOUS
 62
     2
100
AcDbLine
 10
950.5
 20
1110.906952
 30
0.0
 11
967.171573
 21
1110.906952
 31
0.0
  0
LINE
  5
220
100
AcDbEntity
  8
LAY-1
  6
CONTINUOUS
 62
     2
100
AcDbLine
 10
982.5
 20
1110.906952
 30
0.0
 11
997.053098
 21
1110.906952
 31
0.0
  0
ARC
  5
221
100
AcDbEntity
  8
LAY-1
  6
CONTINUOUS
 62
     2
100
AcDbCircle
 10
1471.406952
 20
814.0
 30
0.0
 40
1.0
100
AcDbArc
 50
90.0
 51
180.0
  0
LINE
  5
222
100
AcDbEntity
  8
LAY-1
  6
CONTINUOUS
 62
     2
100
AcDbLine
 10
1464.906952
 20
748.160231
 30
0.0
 11
1464.906952
 21
701.839769
 31
0.0
  0
LINE
  5
223
100
AcDbEntity
  8
LAY-1
  6
CONTINUOUS
 62
     2
100
AcDbLine
 10
1464.906952
 20
780.727057
 30
0.0
 11
1464.906952
 21
763.171338
 31
0.0
  0
LINE
  5
224
100
AcDbEntity
  8
LAY-1
  6
CONTINUOUS
 62
     2
100
AcDbLine
 10
1464.906952
 20
669.272943
 30
0.0
 11
1464.906952
 21
686.828662
 31
0.0
  0
ARC
  5
225
100
AcDbEntity
  8
LAY-1
  6
CONTINUOUS
 62
     2
100
AcDbCircle
 10
1471.906952
 20
669.272943
 30
0.0
 40
7.0
100
AcDbArc
 50
180.0
 51
240.005968
  0
LINE
  5
226
100
AcDbEntity
  8
LAY-1
  6
CONTINUOUS
 62
     2
100
AcDbLine
 10
1468.407583
 20
663.210401
 30
0.0
 11
1469.406772
 21
662.633658
 31
0.0
  0
ARC
  5
227
100
AcDbEntity
  8
LAY-1
  6
CONTINUOUS
 62
     2
100
AcDbCircle
 10
1468.406952
 20
660.901503
 30
0.0
 40
2.0
100
AcDbArc
 50
0.0
 51
60.005968
  0
ARC
  5
228
100
AcDbEntity
  8
LAY-1
  6
CONTINUOUS
 62
     2
100
AcDbCircle
 10
1456.906952
 20
674.945563
 30
0.0
 40
8.0
100
AcDbArc
 50
0.0
 51
88.356383
  0
LINE
  5
229
100
AcDbEntity
  8
LAY-1
  6
CONTINUOUS
 62
     2
100
AcDbLine
 10
1340.217569
 20
686.297188
 30
0.0
 11
1457.136413
 21
682.942272
 31
0.0
  0
LINE
  5
22A
100
AcDbEntity
  8
LAY-1
  6
CONTINUOUS
 62
     2
100
AcDbLine
 10
1063.160231
 20
1118.906952
 30
0.0
 11
1016.839769
 21
1118.906952
 31
0.0
  0
LINE
  5
22B
100
AcDbEntity
  8
LAY-1
  6
CONTINUOUS
 62
     2
100
AcDbLine
 10
1099.943657
 20
1118.906952
 30
0.0
 11
1078.171338
 21
1118.906952
 31
0.0
  0
LINE
  5
22C
100
AcDbEntity
  8
LAY-1
  6
CONTINUOUS
 62
     2
100
AcDbLine
 10
980.056343
 20
1118.906952
 30
0.0
 11
1001.828662
 21
1118.906952
 31
0.0
  0
LINE
  5
22D
100
AcDbEntity
  8
LAY-1
  6
CONTINUOUS
 62
     2
100
AcDbLine
 10
1001.250926
 20
455.447601
 30
0.0
 11
997.053098
 21
338.805323
 31
0.0
  0
LINE
  5
22E
100
AcDbEntity
  8
LAY-1
  6
CONTINUOUS
 62
     2
100
AcDbLine
 10
980.056343
 20
331.093048
 30
0.0
 11
1001.828662
 21
331.093048
 31
0.0
  0
LINE
  5
22F
100
AcDbEntity
  8
LAY-1
  6
CONTINUOUS
 62
     2
100
AcDbLine
 10
1016.839769
 20
331.093048
 30
0.0
 11
1020.0
 21
331.093048
 31
0.0
  0
LINE
  5
230
100
AcDbEntity
  8
LAY-1
  6
CONTINUOUS
 62
     2
100
AcDbLine
 10
1063.160231
 20
331.093048
 30
0.0
 11
1060.0
 21
331.093048
 31
0.0
  0
LINE
  5
231
100
AcDbEntity
  8
LAY-1
  6
CONTINUOUS
 62
     2
100
AcDbLine
 10
1099.943657
 20
331.093048
 30
0.0
 11
1078.171338
 21
331.093048
 31
0.0
  0
LINE
  5
232
100
AcDbEntity
  8
LAY-1
  6
CONTINUOUS
 62
     2
100
AcDbLine
 10
1482.906952
 20
635.0
 30
0.0
 11
1471.406952
 21
635.0
 31
0.0
  0
LINE
  5
233
100
AcDbEntity
  8
LAY-1
  6
CONTINUOUS
 62
     2
100
AcDbLine
 10
1482.906952
 20
635.0
 30
0.0
 11
1482.906952
 21
815.0
 31
0.0
  0
LINE
  5
234
100
AcDbEntity
  8
LAY-1
  6
CONTINUOUS
 62
     2
100
AcDbLine
 10
1482.906952
 20
815.0
 30
0.0
 11
1471.406952
 21
815.0
 31
0.0
  0
LINE
  5
235
100
AcDbEntity
  8
LAY-1
  6
CONTINUOUS
 62
     2
100
AcDbLine
 10
597.093048
 20
635.0
 30
0.0
 11
597.093048
 21
815.0
 31
0.0
  0
LINE
  5
236
100
AcDbEntity
  8
LAY-1
  6
CONTINUOUS
 62
     2
100
AcDbLine
 10
597.093048
 20
635.0
 30
0.0
 11
608.593048
 21
635.0
 31
0.0
  0
LINE
  5
237
100
AcDbEntity
  8
LAY-1
  6
CONTINUOUS
 62
     2
100
AcDbLine
 10
597.093048
 20
815.0
 30
0.0
 11
608.593048
 21
815.0
 31
0.0
  0
LINE
  5
238
100
AcDbEntity
  8
LAY-1
  6
CONTINUOUS
 62
     2
100
AcDbLine
 10
615.093048
 20
701.839769
 30
0.0
 11
615.093048
 21
714.416995
 31
0.0
  0
LINE
  5
239
100
AcDbEntity
  8
LAY-1
  6
CONTINUOUS
 62
     2
100
AcDbLine
 10
615.093048
 20
669.272943
 30
0.0
 11
615.093048
 21
686.828662
 31
0.0
  0
LINE
  5
23A
100
AcDbEntity
  8
LAY-1
  6
CONTINUOUS
 62
     2
100
AcDbLine
 10
615.093048
 20
748.160231
 30
0.0
 11
615.093048
 21
735.583005
 31
0.0
  0
LINE
  5
23B
100
AcDbEntity
  8
LAY-1
  6
CONTINUOUS
 62
     2
100
AcDbLine
 10
615.093048
 20
780.727057
 30
0.0
 11
615.093048
 21
763.171338
 31
0.0
  0
ARC
  5
23C
100
AcDbEntity
  8
LAY-1
  6
CONTINUOUS
 62
     2
100
AcDbCircle
 10
608.093048
 20
669.272943
 30
0.0
 40
7.0
100
AcDbArc
 50
299.994032
 51
0.0
  0
LINE
  5
23D
100
AcDbEntity
  8
LAY-1
  6
CONTINUOUS
 62
     2
100
AcDbLine
 10
611.592417
 20
663.210401
 30
0.0
 11
610.593228
 21
662.633658
 31
0.0
  0
ARC
  5
23E
100
AcDbEntity
  8
LAY-1
  6
CONTINUOUS
 62
     2
100
AcDbCircle
 10
611.593048
 20
660.901503
 30
0.0
 40
2.0
100
AcDbArc
 50
119.994032
 51
180.0
  0
ARC
  5
23F
100
AcDbEntity
  8
LAY-1
  6
CONTINUOUS
 62
     2
100
AcDbCircle
 10
623.093048
 20
674.945563
 30
0.0
 40
8.0
100
AcDbArc
 50
91.643617
 51
180.0
  0
LINE
  5
240
100
AcDbEntity
  8
LAY-1
  6
CONTINUOUS
 62
     2
100
AcDbLine
 10
739.782431
 20
686.297188
 30
0.0
 11
622.863587
 21
682.942272
 31
0.0
  0
ARC
  5
241
100
AcDbEntity
  8
LAY-1
  6
CONTINUOUS
 62
     2
100
AcDbCircle
 10
975.056343
 20
327.593048
 30
0.0
 40
2.0
100
AcDbArc
 50
270.0
 51
0.0
  0
LINE
  5
242
100
AcDbEntity
  8
LAY-1
  6
CONTINUOUS
 62
     2
100
AcDbLine
 10
977.056343
 20
328.093048
 30
0.0
 11
977.056343
 21
327.593048
 31
0.0
  0
ARC
  5
243
100
AcDbEntity
  8
LAY-1
  6
CONTINUOUS
 62
     2
100
AcDbCircle
 10
980.056343
 20
328.093048
 30
0.0
 40
3.0
100
AcDbArc
 50
90.0
 51
180.0
  0
ARC
  5
244
100
AcDbEntity
  8
LAY-1
  6
CONTINUOUS
 62
     2
100
AcDbCircle
 10
989.058273
 20
339.093048
 30
0.0
 40
8.0
100
AcDbArc
 50
270.0
 51
357.938877
  0
ARC
  5
245
100
AcDbEntity
  8
LAY-1
  6
CONTINUOUS
 62
     2
100
AcDbCircle
 10
989.058273
 20
1110.906952
 30
0.0
 40
8.0
100
AcDbArc
 50
2.061123
 51
90.0
  0
ARC
  5
246
100
AcDbEntity
  8
LAY-1
  6
CONTINUOUS
 62
     2
100
AcDbCircle
 10
975.056343
 20
1122.406952
 30
0.0
 40
2.0
100
AcDbArc
 50
0.0
 51
90.0
  0
LINE
  5
247
100
AcDbEntity
  8
LAY-1
  6
CONTINUOUS
 62
     2
100
AcDbLine
 10
977.056343
 20
1121.906952
 30
0.0
 11
977.056343
 21
1122.406952
 31
0.0
  0
ARC
  5
248
100
AcDbEntity
  8
LAY-1
  6
CONTINUOUS
 62
     2
100
AcDbCircle
 10
980.056343
 20
1121.906952
 30
0.0
 40
3.0
100
AcDbArc
 50
180.0
 51
270.0
  0
ARC
  5
249
100
AcDbEntity
  8
LAY-1
  6
CONTINUOUS
 62
     2
100
AcDbCircle
 10
992.9789
 20
305.635903
 30
0.0
 40
22.0
100
AcDbArc
 50
207.540243
 51
258.870811
  0
LINE
  5
24A
100
AcDbEntity
  8
LAY-1
  6
CONTINUOUS
 62
     2
100
AcDbLine
 10
951.965095
 20
299.465699
 30
0.0
 11
958.460694
 21
299.352318
 31
0.0
  0
ARC
  5
24B
100
AcDbEntity
  8
LAY-1
  6
CONTINUOUS
 62
     2
100
AcDbCircle
 10
1087.0211
 20
305.635903
 30
0.0
 40
22.0
100
AcDbArc
 50
281.129189
 51
332.459757
  0
LINE
  5
24C
100
AcDbEntity
  8
LAY-1
  6
CONTINUOUS
 62
     2
100
AcDbLine
 10
1128.034905
 20
299.465699
 30
0.0
 11
1121.539306
 21
299.352318
 31
0.0
  0
LINE
  5
24D
100
AcDbEntity
  8
LAY-1
  6
CONTINUOUS
 62
     2
100
AcDbLine
 10
968.15
 20
337.2
 30
0.0
 11
968.15
 21
333.093048
 31
0.0
  0
LINE
  5
24E
100
AcDbEntity
  8
LAY-1
  6
CONTINUOUS
 62
     2
100
AcDbLine
 10
969.910759
 20
334.4
 30
0.0
 11
969.910759
 21
333.093048
 31
0.0
  0
LINE
  5
24F
100
AcDbEntity
  8
LAY-1
  6
CONTINUOUS
 62
     2
100
AcDbLine
 10
950.0
 20
325.593048
 30
0.0
 11
1130.0
 21
325.593048
 31
0.0
  0
ARC
  5
250
100
AcDbEntity
  8
LAY-1
  6
CONTINUOUS
 62
     2
100
AcDbCircle
 10
1087.0211
 20
1144.364097
 30
0.0
 40
22.0
100
AcDbArc
 50
27.540243
 51
78.870811
  0
LINE
  5
251
100
AcDbEntity
  8
LAY-1
  6
CONTINUOUS
 62
     2
100
AcDbLine
 10
1128.034905
 20
1150.534301
 30
0.0
 11
1121.539306
 21
1150.647682
 31
0.0
  0
ARC
  5
252
100
AcDbEntity
  8
LAY-1
  6
CONTINUOUS
 62
     2
100
AcDbCircle
 10
992.9789
 20
1144.364097
 30
0.0
 40
22.0
100
AcDbArc
 50
101.129189
 51
152.459757
  0
LINE
  5
253
100
AcDbEntity
  8
LAY-1
  6
CONTINUOUS
 62
     2
100
AcDbLine
 10
951.965095
 20
1150.534301
 30
0.0
 11
958.460694
 21
1150.647682
 31
0.0
  0
LINE
  5
254
100
AcDbEntity
  8
LAY-1
  6
CONTINUOUS
 62
     2
100
AcDbLine
 10
950.0
 20
1124.406952
 30
0.0
 11
1129.0
 21
1124.406952
 31
0.0
  0
LINE
  5
255
100
AcDbEntity
  8
LAY-1
  6
CONTINUOUS
 62
     2
100
AcDbLine
 10
968.15
 20
1112.8
 30
0.0
 11
968.15
 21
1116.906952
 31
0.0
  0
LINE
  5
256
100
AcDbEntity
  8
LAY-1
  6
CONTINUOUS
 62
     2
100
AcDbLine
 10
969.910759
 20
1115.6
 30
0.0
 11
969.910759
 21
1116.906952
 31
0.0
  0
ARC
  5
257
100
AcDbEntity
  8
LAY-1
  6
CONTINUOUS
 62
     2
100
AcDbCircle
 10
1490.271049
 20
772.0211
 30
0.0
 40
22.0
100
AcDbArc
 50
11.129189
 51
62.459757
  0
ARC
  5
258
100
AcDbEntity
  8
LAY-1
  6
CONTINUOUS
 62
     2
100
AcDbCircle
 10
1490.271049
 20
677.9789
 30
0.0
 40
22.0
100
AcDbArc
 50
297.540243
 51
348.870811
  0
LINE
  5
259
100
AcDbEntity
  8
LAY-1
  6
CONTINUOUS
 62
     2
100
AcDbLine
 10
1459.633748
 20
678.563263
 30
0.0
 11
1463.276212
 21
657.905824
 31
0.0
  0
LINE
  5
25A
100
AcDbEntity
  8
LAY-1
  6
CONTINUOUS
 62
     2
100
AcDbLine
 10
1465.823278
 20
643.460694
 30
0.0
 11
1466.239298
 21
641.101327
 31
0.0
  0
ARC
  5
25B
100
AcDbEntity
  8
LAY-1
  6
CONTINUOUS
 62
     2
100
AcDbCircle
 10
589.728951
 20
677.9789
 30
0.0
 40
22.0
100
AcDbArc
 50
191.129189
 51
242.459757
  0
ARC
  5
25C
100
AcDbEntity
  8
LAY-1
  6
CONTINUOUS
 62
     2
100
AcDbCircle
 10
589.728951
 20
772.0211
 30
0.0
 40
22.0
100
AcDbArc
 50
117.540243
 51
168.870811
  0
LINE
  5
25D
100
AcDbEntity
  8
LAY-1
  6
CONTINUOUS
 62
     2
100
AcDbLine
 10
620.366252
 20
678.563263
 30
0.0
 11
616.723788
 21
657.905824
 31
0.0
  0
LINE
  5
25E
100
AcDbEntity
  8
LAY-1
  6
CONTINUOUS
 62
     2
100
AcDbLine
 10
614.176722
 20
643.460694
 30
0.0
 11
613.760702
 21
641.101327
 31
0.0
  0
ARC
  5
25F
100
AcDbEntity
  8
LAY-1
  6
CONTINUOUS
 62
     2
100
AcDbCircle
 10
607.0
 20
725.0
 30
0.0
 40
127.0
100
AcDbArc
 50
153.342035
 51
165.522488
  0
CIRCLE
  5
260
100
AcDbEntity
  8
LAY-1
  6
CONTINUOUS
 62
     2
100
AcDbCircle
 10
1040.0
 20
1223.0
 30
0.0
 40
50.0
  0
CIRCLE
  5
261
100
AcDbEntity
  8
LAY-1
  6
CONTINUOUS
 62
     2
100
AcDbCircle
 10
1013.483496
 20
1196.483496
 30
0.0
 40
7.5
  0
CIRCLE
  5
262
100
AcDbEntity
  8
LAY-1
  6
CONTINUOUS
 62
     2
100
AcDbCircle
 10
1066.516504
 20
1196.483496
 30
0.0
 40
7.5
  0
CIRCLE
  5
263
100
AcDbEntity
  8
LAY-1
  6
CONTINUOUS
 62
     2
100
AcDbCircle
 10
1066.516504
 20
1249.516504
 30
0.0
 40
7.5
  0
CIRCLE
  5
264
100
AcDbEntity
  8
LAY-1
  6
CONTINUOUS
 62
     2
100
AcDbCircle
 10
1013.483496
 20
1249.516504
 30
0.0
 40
7.5
  0
CIRCLE
  5
265
100
AcDbEntity
  8
LAY-1
  6
CONTINUOUS
 62
     2
100
AcDbCircle
 10
1040.0
 20
1223.0
 30
0.0
 40
10.7
  0
CIRCLE
  5
266
100
AcDbEntity
  8
LAY-1
  6
CONTINUOUS
 62
     2
100
AcDbCircle
 10
1040.0
 20
1223.0
 30
0.0
 40
13.6
  0
CIRCLE
  5
267
100
AcDbEntity
  8
LAY-1
  6
CONTINUOUS
 62
     2
100
AcDbCircle
 10
1040.0
 20
227.0
 30
0.0
 40
50.0
  0
CIRCLE
  5
268
100
AcDbEntity
  8
LAY-1
  6
CONTINUOUS
 62
     2
100
AcDbCircle
 10
1013.483496
 20
200.483496
 30
0.0
 40
7.5
  0
CIRCLE
  5
269
100
AcDbEntity
  8
LAY-1
  6
CONTINUOUS
 62
     2
100
AcDbCircle
 10
1066.516504
 20
200.483496
 30
0.0
 40
7.5
  0
CIRCLE
  5
26A
100
AcDbEntity
  8
LAY-1
  6
CONTINUOUS
 62
     2
100
AcDbCircle
 10
1066.516504
 20
253.516504
 30
0.0
 40
7.5
  0
CIRCLE
  5
26B
100
AcDbEntity
  8
LAY-1
  6
CONTINUOUS
 62
     2
100
AcDbCircle
 10
1013.483496
 20
253.516504
 30
0.0
 40
7.5
  0
CIRCLE
  5
26C
100
AcDbEntity
  8
LAY-1
  6
CONTINUOUS
 62
     2
100
AcDbCircle
 10
1040.0
 20
227.0
 30
0.0
 40
10.7
  0
CIRCLE
  5
26D
100
AcDbEntity
  8
LAY-1
  6
CONTINUOUS
 62
     2
100
AcDbCircle
 10
1040.0
 20
227.0
 30
0.0
 40
13.6
  0
ARC
  5
26E
100
AcDbEntity
  8
LAY-1
  6
CONTINUOUS
 62
     2
100
AcDbCircle
 10
952.0
 20
301.465395
 30
0.0
 40
2.0
100
AcDbArc
 50
180.0
 51
269.0
  0
LINE
  5
26F
100
AcDbEntity
  8
LAY-1
  6
CONTINUOUS
 62
     2
100
AcDbLine
 10
950.0
 20
312.0
 30
0.0
 11
950.0
 21
301.465395
 31
0.0
  0
LINE
  5
270
100
AcDbEntity
  8
LAY-1
  6
CONTINUOUS
 62
     2
100
AcDbLine
 10
964.5
 20
313.093048
 30
0.0
 11
964.5
 21
313.393048
 31
0.0
  0
LINE
  5
271
100
AcDbEntity
  8
LAY-1
  6
CONTINUOUS
 62
     2
100
AcDbLine
 10
1001.250926
 20
994.552399
 30
0.0
 11
997.063453
 21
1110.906952
 31
0.0
  0
LINE
  5
272
100
AcDbEntity
  8
LAY-1
  6
CONTINUOUS
 62
     2
100
AcDbLine
 10
597.093048
 20
814.866309
 30
0.0
 11
585.593048
 21
814.866309
 31
0.0
  0
ARC
  5
273
100
AcDbEntity
  8
LAY-1
  6
EXLTYPE4
 62
     2
100
AcDbCircle
 10
608.593048
 20
814.0
 30
0.0
 40
1.0
100
AcDbArc
 50
0.0
 51
90.0
  0
ARC
  5
274
100
AcDbEntity
  8
LAY-1
  6
CONTINUOUS
 62
     2
100
AcDbCircle
 10
611.593048
 20
737.990381
 30
0.0
 40
2.0
100
AcDbArc
 50
180.0
 51
272.204228
  0
ARC
  5
275
100
AcDbEntity
  8
LAY-1
  6
CONTINUOUS
 62
     2
100
AcDbCircle
 10
611.593048
 20
712.009619
 30
0.0
 40
2.0
100
AcDbArc
 50
87.795772
 51
180.0
  0
ARC
  5
276
100
AcDbEntity
  8
LAY-1
  6
CONTINUOUS
 62
     2
100
AcDbCircle
 10
612.093048
 20
725.0
 30
0.0
 40
11.0
100
AcDbArc
 50
267.795772
 51
92.204228
  0
CIRCLE
  5
277
100
AcDbEntity
  8
LAY-1
  6
CONTINUOUS
 62
     2
100
AcDbCircle
 10
612.093048
 20
725.0
 30
0.0
 40
8.5
  0
CIRCLE
  5
278
100
AcDbEntity
  8
LAY-1
  6
CONTINUOUS
 62
     2
100
AcDbCircle
 10
612.093048
 20
725.0
 30
0.0
 40
5.6
  0
LINE
  5
279
100
AcDbEntity
  8
LAY-1
  6
CONTINUOUS
 62
     2
100
AcDbLine
 10
609.593048
 20
814.0
 30
0.0
 11
609.593048
 21
737.990381
 31
0.0
  0
LINE
  5
27A
100
AcDbEntity
  8
LAY-1
  6
CONTINUOUS
 62
     2
100
AcDbLine
 10
609.593048
 20
712.009619
 30
0.0
 11
609.593048
 21
636.0
 31
0.0
  0
LINE
  5
27B
100
AcDbEntity
  8
LAY-1
  6
CONTINUOUS
 62
     2
100
AcDbLine
 10
1013.75
 20
984.315994
 30
0.0
 11
1009.507974
 21
985.063978
 31
0.0
  0
LINE
  5
27C
100
AcDbEntity
  8
LAY-1
  6
CONTINUOUS
 62
     2
100
AcDbLine
 10
1066.25
 20
984.315994
 30
0.0
 11
1070.492026
 21
985.063978
 31
0.0
  0
ARC
  5
27D
100
AcDbEntity
  8
LAY-1
  6
CONTINUOUS
 62
     2
100
AcDbCircle
 10
1027.702439
 20
918.156686
 30
0.0
 40
2.0
100
AcDbArc
 50
180.0
 51
252.974393
  0
LINE
  5
27E
100
AcDbEntity
  8
LAY-1
  6
CONTINUOUS
 62
     2
100
AcDbLine
 10
1025.702439
 20
918.156686
 30
0.0
 11
1025.702439
 21
954.754629
 31
0.0
  0
ARC
  5
27F
100
AcDbEntity
  8
LAY-1
  6
CONTINUOUS
 62
     2
100
AcDbCircle
 10
1025.2
 20
957.931464
 30
0.0
 40
2.0
100
AcDbArc
 50
180.0
 51
240.0
  0
LINE
  5
280
100
AcDbEntity
  8
LAY-1
  6
CONTINUOUS
 62
     2
100
AcDbLine
 10
1024.2
 20
956.199413
 30
0.0
 11
1025.202439
 21
955.620655
 31
0.0
  0
ARC
  5
281
100
AcDbEntity
  8
LAY-1
  6
CONTINUOUS
 62
     2
100
AcDbCircle
 10
1024.702439
 20
954.754629
 30
0.0
 40
1.0
100
AcDbArc
 50
0.0
 51
60.0
  0
LINE
  5
282
100
AcDbEntity
  8
LAY-1
  6
CONTINUOUS
 62
     2
100
AcDbLine
 10
1023.2
 20
965.786086
 30
0.0
 11
1023.2
 21
957.931464
 31
0.0
  0
LINE
  5
283
100
AcDbEntity
  8
LAY-1
  6
CONTINUOUS
 62
     2
100
AcDbLine
 10
1019.774039
 20
968.341416
 30
0.0
 11
1022.7
 21
966.652112
 31
0.0
  0
ARC
  5
284
100
AcDbEntity
  8
LAY-1
  6
CONTINUOUS
 62
     2
100
AcDbCircle
 10
1021.424039
 20
971.1993
 30
0.0
 40
3.3
100
AcDbArc
 50
182.0
 51
240.0
  0
ARC
  5
285
100
AcDbEntity
  8
LAY-1
  6
CONTINUOUS
 62
     2
100
AcDbCircle
 10
1022.2
 20
965.786086
 30
0.0
 40
1.0
100
AcDbArc
 50
0.0
 51
60.0
  0
LINE
  5
286
100
AcDbEntity
  8
LAY-1
  6
CONTINUOUS
 62
     2
100
AcDbLine
 10
1017.794582
 20
980.576115
 30
0.0
 11
1018.126049
 21
971.084132
 31
0.0
  0
ARC
  5
287
100
AcDbEntity
  8
LAY-1
  6
CONTINUOUS
 62
     2
100
AcDbCircle
 10
1015.75
 20
984.17117
 30
0.0
 40
2.0
100
AcDbArc
 50
180.0
 51
260.134193
  0
LINE
  5
288
100
AcDbEntity
  8
LAY-1
  6
CONTINUOUS
 62
     2
100
AcDbLine
 10
1015.407318
 20
982.200746
 30
0.0
 11
1016.552507
 21
982.001583
 31
0.0
  0
ARC
  5
289
100
AcDbEntity
  8
LAY-1
  6
CONTINUOUS
 62
     2
100
AcDbCircle
 10
1016.295495
 20
980.523765
 30
0.0
 40
1.5
100
AcDbArc
 50
2.0
 51
80.134193
  0
ARC
  5
28A
100
AcDbEntity
  8
LAY-1
  6
CONTINUOUS
 62
     2
100
AcDbCircle
 10
1063.704505
 20
980.523765
 30
0.0
 40
1.5
100
AcDbArc
 50
99.865807
 51
178.0
  0
LINE
  5
28B
100
AcDbEntity
  8
LAY-1
  6
CONTINUOUS
 62
     2
100
AcDbLine
 10
1064.592682
 20
982.200746
 30
0.0
 11
1063.447493
 21
982.001583
 31
0.0
  0
ARC
  5
28C
100
AcDbEntity
  8
LAY-1
  6
CONTINUOUS
 62
     2
100
AcDbCircle
 10
1064.25
 20
984.17117
 30
0.0
 40
2.0
100
AcDbArc
 50
279.865807
 51
0.0
  0
LINE
  5
28D
100
AcDbEntity
  8
LAY-1
  6
CONTINUOUS
 62
     2
100
AcDbLine
 10
1066.25
 20
984.17117
 30
0.0
 11
1066.25
 21
984.315994
 31
0.0
  0
ARC
  5
28E
100
AcDbEntity
  8
LAY-1
  6
CONTINUOUS
 62
     2
100
AcDbCircle
 10
1058.379952
 20
971.317074
 30
0.0
 40
3.5
100
AcDbArc
 50
300.0
 51
358.0
  0
LINE
  5
28F
100
AcDbEntity
  8
LAY-1
  6
CONTINUOUS
 62
     2
100
AcDbLine
 10
1062.205418
 20
980.576115
 30
0.0
 11
1061.87782
 21
971.194926
 31
0.0
  0
ARC
  5
290
100
AcDbEntity
  8
LAY-1
  6
CONTINUOUS
 62
     2
100
AcDbCircle
 10
1057.8
 20
965.786086
 30
0.0
 40
1.0
100
AcDbArc
 50
120.0
 51
180.0
  0
LINE
  5
291
100
AcDbEntity
  8
LAY-1
  6
CONTINUOUS
 62
     2
100
AcDbLine
 10
1060.129952
 20
968.285986
 30
0.0
 11
1057.3
 21
966.652112
 31
0.0
  0
LINE
  5
292
100
AcDbEntity
  8
LAY-1
  6
CONTINUOUS
 62
     2
100
AcDbLine
 10
1056.8
 20
965.786086
 30
0.0
 11
1056.8
 21
957.931464
 31
0.0
  0
ARC
  5
293
100
AcDbEntity
  8
LAY-1
  6
CONTINUOUS
 62
     2
100
AcDbCircle
 10
1054.8
 20
957.931464
 30
0.0
 40
2.0
100
AcDbArc
 50
300.0
 51
0.0
  0
LINE
  5
294
100
AcDbEntity
  8
LAY-1
  6
CONTINUOUS
 62
     2
100
AcDbLine
 10
1055.8
 20
956.199413
 30
0.0
 11
1054.797561
 21
955.620655
 31
0.0
  0
ARC
  5
295
100
AcDbEntity
  8
LAY-1
  6
CONTINUOUS
 62
     2
100
AcDbCircle
 10
1055.297561
 20
954.754629
 30
0.0
 40
1.0
100
AcDbArc
 50
120.0
 51
180.0
  0
LINE
  5
296
100
AcDbEntity
  8
LAY-1
  6
CONTINUOUS
 62
     2
100
AcDbLine
 10
1054.297561
 20
918.156686
 30
0.0
 11
1054.297561
 21
954.754629
 31
0.0
  0
ARC
  5
297
100
AcDbEntity
  8
LAY-1
  6
CONTINUOUS
 62
     2
100
AcDbCircle
 10
1052.297561
 20
918.156686
 30
0.0
 40
2.0
100
AcDbArc
 50
287.025607
 51
0.0
  0
ARC
  5
298
100
AcDbEntity
  8
LAY-1
  6
CONTINUOUS
 62
     2
100
AcDbCircle
 10
1040.0
 20
958.315994
 30
0.0
 40
44.0
100
AcDbArc
 50
252.974393
 51
287.025607
  0
LINE
  5
299
100
AcDbEntity
  8
LAY-1
  6
CONTINUOUS
 62
     2
100
AcDbLine
 10
1130.0
 20
1136.606952
 30
0.0
 11
950.15
 21
1136.606952
 31
0.0
  0
LINE
  5
29A
100
AcDbEntity
  8
LAY-1
  6
CONTINUOUS
 62
     2
100
AcDbLine
 10
950.0
 20
1138.0
 30
0.0
 11
1130.0
 21
1138.0
 31
0.0
  0
LINE
  5
29B
100
AcDbEntity
  8
LAY-1
  6
CONTINUOUS
 62
     2
100
AcDbLine
 10
1065.0
 20
1179.342215
 30
0.0
 11
1065.0
 21
1179.69873
 31
0.0
  0
ARC
  5
29C
100
AcDbEntity
  8
LAY-1
  6
CONTINUOUS
 62
     2
100
AcDbCircle
 10
1075.0
 20
1179.342215
 30
0.0
 40
10.0
100
AcDbArc
 50
180.0
 51
258.870811
  0
LINE
  5
29D
100
AcDbEntity
  8
LAY-1
  6
CONTINUOUS
 62
     2
100
AcDbLine
 10
1091.267581
 20
1165.950375
 30
0.0
 11
1073.069781
 21
1169.53027
 31
0.0
  0
LINE
  5
29E
100
AcDbEntity
  8
LAY-1
  6
CONTINUOUS
 62
     2
100
AcDbLine
 10
1130.0
 20
1138.0
 30
0.0
 11
1130.0
 21
1148.534605
 31
0.0
  0
ARC
  5
29F
100
AcDbEntity
  8
LAY-1
  6
CONTINUOUS
 62
     2
100
AcDbCircle
 10
1128.0
 20
1148.534605
 30
0.0
 40
2.0
100
AcDbArc
 50
0.0
 51
89.0
  0
ARC
  5
2A0
100
AcDbEntity
  8
LAY-1
  6
CONTINUOUS
 62
     2
100
AcDbCircle
 10
1011.244456
 20
994.912055
 30
0.0
 40
10.0
100
AcDbArc
 50
182.061123
 51
260.0
  0
ARC
  5
2A1
100
AcDbEntity
  8
LAY-1
  6
CONTINUOUS
 62
     2
100
AcDbCircle
 10
1068.755544
 20
994.912055
 30
0.0
 40
10.0
100
AcDbArc
 50
280.0
 51
357.938877
  0
LINE
  5
2A2
100
AcDbEntity
  8
LAY-1
  6
CONTINUOUS
 62
     2
100
AcDbLine
 10
1078.749074
 20
994.552399
 30
0.0
 11
1082.946902
 21
1111.194677
 31
0.0
  0
ARC
  5
2A3
100
AcDbEntity
  8
LAY-1
  6
CONTINUOUS
 62
     2
100
AcDbCircle
 10
1090.941727
 20
1110.906952
 30
0.0
 40
8.0
100
AcDbArc
 50
90.0
 51
177.938877
  0
ARC
  5
2A4
100
AcDbEntity
  8
LAY-1
  6
CONTINUOUS
 62
     2
100
AcDbCircle
 10
1104.943657
 20
1122.406952
 30
0.0
 40
2.0
100
AcDbArc
 50
90.0
 51
180.0
  0
LINE
  5
2A5
100
AcDbEntity
  8
LAY-1
  6
CONTINUOUS
 62
     2
100
AcDbLine
 10
1102.943657
 20
1121.906952
 30
0.0
 11
1102.943657
 21
1122.406952
 31
0.0
  0
ARC
  5
2A6
100
AcDbEntity
  8
LAY-1
  6
CONTINUOUS
 62
     2
100
AcDbCircle
 10
1099.943657
 20
1121.906952
 30
0.0
 40
3.0
100
AcDbArc
 50
270.0
 51
0.0
  0
ARC
  5
2A7
100
AcDbEntity
  8
LAY-1
  6
CONTINUOUS
 62
     2
100
AcDbCircle
 10
1129.0
 20
1125.406952
 30
0.0
 40
1.0
100
AcDbArc
 50
270.0
 51
0.0
  0
LINE
  5
2A8
100
AcDbEntity
  8
LAY-1
  6
CONTINUOUS
 62
     2
100
AcDbLine
 10
1130.0
 20
1136.606952
 30
0.0
 11
1130.0
 21
1125.406952
 31
0.0
  0
LINE
  5
2A9
100
AcDbEntity
  8
LAY-1
  6
CONTINUOUS
 62
     2
100
AcDbLine
 10
1115.5
 20
1136.906952
 30
0.0
 11
1115.5
 21
1136.606952
 31
0.0
  0
LINE
  5
2AA
100
AcDbEntity
  8
LAY-1
  6
CONTINUOUS
 62
     2
100
AcDbLine
 10
1115.5
 20
1136.906952
 30
0.0
 11
1040.0
 21
1136.906952
 31
0.0
  0
LINE
  5
2AB
100
AcDbEntity
  8
LAY-1
  6
CONTINUOUS
 62
     2
100
AcDbLine
 10
964.5
 20
1136.906952
 30
0.0
 11
1040.0
 21
1136.906952
 31
0.0
  0
LINE
  5
2AC
100
AcDbEntity
  8
LAY-1
  6
CONTINUOUS
 62
     2
100
AcDbLine
 10
964.5
 20
1136.906952
 30
0.0
 11
964.5
 21
1136.606952
 31
0.0
  0
LINE
  5
2AD
100
AcDbEntity
  8
LAY-1
  6
CONTINUOUS
 62
     2
100
AcDbLine
 10
952.0
 20
1150.5
 30
0.0
 11
1127.7
 21
1150.5
 31
0.0
  0
LINE
  5
2AE
100
AcDbEntity
  8
LAY-1
  6
CONTINUOUS
 62
     2
100
AcDbLine
 10
1015.0
 20
1179.342215
 30
0.0
 11
1015.0
 21
1179.69873
 31
0.0
  0
LINE
  5
2AF
100
AcDbEntity
  8
LAY-1
  6
CONTINUOUS
 62
     2
100
AcDbLine
 10
950.0
 20
1138.0
 30
0.0
 11
950.0
 21
1148.534605
 31
0.0
  0
ARC
  5
2B0
100
AcDbEntity
  8
LAY-1
  6
CONTINUOUS
 62
     2
100
AcDbCircle
 10
952.0
 20
1148.534605
 30
0.0
 40
2.0
100
AcDbArc
 50
91.0
 51
180.0
  0
ARC
  5
2B1
100
AcDbEntity
  8
LAY-1
  6
CONTINUOUS
 62
     2
100
AcDbCircle
 10
1005.0
 20
1179.342215
 30
0.0
 40
10.0
100
AcDbArc
 50
281.129189
 51
0.0
  0
LINE
  5
2B2
100
AcDbEntity
  8
LAY-1
  6
CONTINUOUS
 62
     2
100
AcDbLine
 10
988.732419
 20
1165.950375
 30
0.0
 11
1006.930219
 21
1169.53027
 31
0.0
  0
LINE
  5
2B3
100
AcDbEntity
  8
LAY-1
  6
CONTINUOUS
 62
     2
100
AcDbLine
 10
1579.0
 20
687.0
 30
0.0
 11
1579.0
 21
763.0
 31
0.0
  0
LINE
  5
2B4
100
AcDbEntity
  8
LAY-1
  6
CONTINUOUS
 62
     2
100
AcDbLine
 10
1549.0
 20
687.0
 30
0.0
 11
1549.0
 21
763.0
 31
0.0
  0
ARC
  5
2B5
100
AcDbEntity
  8
LAY-1
  6
CONTINUOUS
 62
     2
100
AcDbCircle
 10
1577.0
 20
687.0
 30
0.0
 40
2.0
100
AcDbArc
 50
270.0
 51
0.0
  0
LINE
  5
2B6
100
AcDbEntity
  8
LAY-1
  6
CONTINUOUS
 62
     2
100
AcDbLine
 10
1551.0
 20
685.0
 30
0.0
 11
1577.0
 21
685.0
 31
0.0
  0
ARC
  5
2B7
100
AcDbEntity
  8
LAY-1
  6
CONTINUOUS
 62
     2
100
AcDbCircle
 10
1551.0
 20
687.0
 30
0.0
 40
2.0
100
AcDbArc
 50
180.0
 51
270.0
  0
ARC
  5
2B8
100
AcDbEntity
  8
LAY-1
  6
CONTINUOUS
 62
     2
100
AcDbCircle
 10
1577.0
 20
763.0
 30
0.0
 40
2.0
100
AcDbArc
 50
0.0
 51
90.0
  0
LINE
  5
2B9
100
AcDbEntity
  8
LAY-1
  6
CONTINUOUS
 62
     2
100
AcDbLine
 10
1551.0
 20
765.0
 30
0.0
 11
1577.0
 21
765.0
 31
0.0
  0
ARC
  5
2BA
100
AcDbEntity
  8
LAY-1
  6
CONTINUOUS
 62
     2
100
AcDbCircle
 10
1551.0
 20
763.0
 30
0.0
 40
2.0
100
AcDbArc
 50
90.0
 51
180.0
  0
LINE
  5
2BB
100
AcDbEntity
  8
LAY-1
  6
CONTINUOUS
 62
     2
100
AcDbLine
 10
1586.0
 20
734.0
 30
0.0
 11
1586.0
 21
720.0
 31
0.0
  0
LINE
  5
2BC
100
AcDbEntity
  8
LAY-1
  6
CONTINUOUS
 62
     2
100
AcDbLine
 10
1592.0
 20
734.0
 30
0.0
 11
1592.0
 21
720.0
 31
0.0
  0
LINE
  5
2BD
100
AcDbEntity
  8
LAY-1
  6
CONTINUOUS
 62
     2
100
AcDbLine
 10
1583.0
 20
720.0
 30
0.0
 11
1589.0
 21
714.0
 31
0.0
  0
LINE
  5
2BE
100
AcDbEntity
  8
LAY-1
  6
CONTINUOUS
 62
     2
100
AcDbLine
 10
1586.0
 20
720.0
 30
0.0
 11
1583.0
 21
720.0
 31
0.0
  0
LINE
  5
2BF
100
AcDbEntity
  8
LAY-1
  6
CONTINUOUS
 62
     2
100
AcDbLine
 10
1595.0
 20
720.0
 30
0.0
 11
1589.0
 21
714.0
 31
0.0
  0
LINE
  5
2C0
100
AcDbEntity
  8
LAY-1
  6
CONTINUOUS
 62
     2
100
AcDbLine
 10
1595.0
 20
720.0
 30
0.0
 11
1592.0
 21
720.0
 31
0.0
  0
LINE
  5
2C1
100
AcDbEntity
  8
LAY-1
  6
CONTINUOUS
 62
     2
100
AcDbLine
 10
1592.0
 20
734.0
 30
0.0
 11
1586.0
 21
734.0
 31
0.0
  0
ARC
  5
2C2
100
AcDbEntity
  8
LAY-1
  6
CONTINUOUS
 62
     2
100
AcDbCircle
 10
1577.0
 20
703.0
 30
0.0
 40
2.0
100
AcDbArc
 50
0.0
 51
90.0
  0
LINE
  5
2C3
100
AcDbEntity
  8
LAY-1
  6
CONTINUOUS
 62
     2
100
AcDbLine
 10
1551.0
 20
705.0
 30
0.0
 11
1577.0
 21
705.0
 31
0.0
  0
ARC
  5
2C4
100
AcDbEntity
  8
LAY-1
  6
CONTINUOUS
 62
     2
100
AcDbCircle
 10
1551.0
 20
703.0
 30
0.0
 40
2.0
100
AcDbArc
 50
90.0
 51
180.0
  0
ARC
  5
2C5
100
AcDbEntity
  8
LAY-1
  6
CONTINUOUS
 62
     2
100
AcDbCircle
 10
1577.0
 20
747.0
 30
0.0
 40
2.0
100
AcDbArc
 50
270.0
 51
0.0
  0
LINE
  5
2C6
100
AcDbEntity
  8
LAY-1
  6
CONTINUOUS
 62
     2
100
AcDbLine
 10
1551.0
 20
745.0
 30
0.0
 11
1577.0
 21
745.0
 31
0.0
  0
ARC
  5
2C7
100
AcDbEntity
  8
LAY-1
  6
CONTINUOUS
 62
     2
100
AcDbCircle
 10
1551.0
 20
747.0
 30
0.0
 40
2.0
100
AcDbArc
 50
180.0
 51
270.0
  0
LINE
  5
2C8
100
AcDbEntity
  8
LAY-1
  6
CONTINUOUS
 62
     2
100
AcDbLine
 10
1565.5
 20
770.519684
 30
0.0
 11
1572.5
 21
770.519684
 31
0.0
  0
LINE
  5
2C9
100
AcDbEntity
  8
LAY-1
  6
CONTINUOUS
 62
     2
100
AcDbLine
 10
1572.5
 20
770.519684
 30
0.0
 11
1572.5
 21
808.842904
 31
0.0
  0
LINE
  5
2CA
100
AcDbEntity
  8
LAY-1
  6
CONTINUOUS
 62
     2
100
AcDbLine
 10
1565.5
 20
770.519684
 30
0.0
 11
1565.5
 21
808.842904
 31
0.0
  0
LINE
  5
2CB
100
AcDbEntity
  8
LAY-1
  6
CONTINUOUS
 62
     2
100
AcDbLine
 10
1565.5
 20
677.480316
 30
0.0
 11
1572.5
 21
677.480316
 31
0.0
  0
LINE
  5
2CC
100
AcDbEntity
  8
LAY-1
  6
CONTINUOUS
 62
     2
100
AcDbLine
 10
1572.5
 20
677.480316
 30
0.0
 11
1572.5
 21
639.157096
 31
0.0
  0
LINE
  5
2CD
100
AcDbEntity
  8
LAY-1
  6
CONTINUOUS
 62
     2
100
AcDbLine
 10
1565.5
 20
677.480316
 30
0.0
 11
1565.5
 21
639.157096
 31
0.0
  0
LINE
  5
2CE
100
AcDbEntity
  8
LAY-1
  6
CONTINUOUS
 62
     2
100
AcDbLine
 10
1330.315994
 20
751.25
 30
0.0
 11
1331.058874
 21
755.463084
 31
0.0
  0
LINE
  5
2CF
100
AcDbEntity
  8
LAY-1
  6
CONTINUOUS
 62
     2
100
AcDbLine
 10
1330.315994
 20
698.75
 30
0.0
 11
1331.058874
 21
694.536916
 31
0.0
  0
ARC
  5
2D0
100
AcDbEntity
  8
LAY-1
  6
CONTINUOUS
 62
     2
100
AcDbCircle
 10
1340.906952
 20
753.726603
 30
0.0
 40
10.0
100
AcDbArc
 50
93.953009
 51
170.0
  0
ARC
  5
2D1
100
AcDbEntity
  8
LAY-1
  6
CONTINUOUS
 62
     2
100
AcDbCircle
 10
1340.906952
 20
696.273397
 30
0.0
 40
10.0
100
AcDbArc
 50
190.0
 51
266.046991
  0
LINE
  5
2D2
100
AcDbEntity
  8
LAY-1
  6
CONTINUOUS
 62
     2
100
AcDbLine
 10
1340.217569
 20
763.702812
 30
0.0
 11
1457.136413
 21
767.057728
 31
0.0
  0
LINE
  5
2D3
100
AcDbEntity
  8
LAY-1
  6
CONTINUOUS
 62
     2
100
AcDbLine
 10
1470.406952
 20
814.0
 30
0.0
 11
1470.406952
 21
636.0
 31
0.0
  0
LINE
  5
2D4
100
AcDbEntity
  8
LAY-1
  6
CONTINUOUS
 62
     2
100
AcDbLine
 10
1496.406952
 20
812.866309
 30
0.0
 11
1496.406952
 21
637.166309
 31
0.0
  0
LINE
  5
2D5
100
AcDbEntity
  8
LAY-1
  6
CONTINUOUS
 62
     2
100
AcDbLine
 10
1483.906952
 20
635.166309
 30
0.0
 11
1483.906952
 21
775.016309
 31
0.0
  0
LINE
  5
2D6
100
AcDbEntity
  8
LAY-1
  6
CONTINUOUS
 62
     2
100
AcDbLine
 10
1611.0
 20
751.5
 30
0.0
 11
1611.0
 21
698.5
 31
0.0
  0
LINE
  5
2D7
100
AcDbEntity
  8
LAY-1
  6
CONTINUOUS
 62
     2
100
AcDbLine
 10
1605.0
 20
698.0
 30
0.0
 11
1605.0
 21
752.0
 31
0.0
  0
LINE
  5
2D8
100
AcDbEntity
  8
LAY-1
  6
CONTINUOUS
 62
     2
100
AcDbLine
 10
1619.0
 20
639.0
 30
0.0
 11
1519.0
 21
639.0
 31
0.0
  0
LINE
  5
2D9
100
AcDbEntity
  8
LAY-1
  6
CONTINUOUS
 62
     2
100
AcDbLine
 10
1569.0
 20
625.0
 30
0.0
 11
1619.0
 21
625.0
 31
0.0
  0
LINE
  5
2DA
100
AcDbEntity
  8
LAY-1
  6
CONTINUOUS
 62
     2
100
AcDbLine
 10
1569.0
 20
625.0
 30
0.0
 11
1519.0
 21
625.0
 31
0.0
  0
LINE
  5
2DB
100
AcDbEntity
  8
LAY-1
  6
CONTINUOUS
 62
     2
100
AcDbLine
 10
1519.0
 20
639.0
 30
0.0
 11
1519.0
 21
625.0
 31
0.0
  0
LINE
  5
2DC
100
AcDbEntity
  8
LAY-1
  6
CONTINUOUS
 62
     2
100
AcDbLine
 10
1619.0
 20
639.0
 30
0.0
 11
1619.0
 21
625.0
 31
0.0
  0
LINE
  5
2DD
100
AcDbEntity
  8
LAY-1
  6
CONTINUOUS
 62
     2
100
AcDbLine
 10
1589.5
 20
674.435685
 30
0.0
 11
1589.5
 21
644.0
 31
0.0
  0
ARC
  5
2DE
100
AcDbEntity
  8
LAY-1
  6
CONTINUOUS
 62
     2
100
AcDbCircle
 10
1594.5
 20
644.0
 30
0.0
 40
5.0
100
AcDbArc
 50
180.0
 51
270.0
  0
ARC
  5
2DF
100
AcDbEntity
  8
LAY-1
  6
CONTINUOUS
 62
     2
100
AcDbCircle
 10
1543.5
 20
644.0
 30
0.0
 40
5.0
100
AcDbArc
 50
270.0
 51
0.0
  0
LINE
  5
2E0
100
AcDbEntity
  8
LAY-1
  6
CONTINUOUS
 62
     2
100
AcDbLine
 10
1548.5
 20
672.400095
 30
0.0
 11
1548.5
 21
644.0
 31
0.0
  0
ARC
  5
2E1
100
AcDbEntity
  8
LAY-1
  6
CONTINUOUS
 62
     2
100
AcDbCircle
 10
1541.5
 20
784.302192
 30
0.0
 40
10.0
100
AcDbArc
 50
334.350627
 51
0.0
  0
ARC
  5
2E2
100
AcDbEntity
  8
LAY-1
  6
CONTINUOUS
 62
     2
100
AcDbCircle
 10
1665.0
 20
725.0
 30
0.0
 40
127.0
100
AcDbArc
 50
154.350627
 51
158.450885
  0
ARC
  5
2E3
100
AcDbEntity
  8
LAY-1
  6
CONTINUOUS
 62
     2
100
AcDbCircle
 10
1537.45001
 20
775.0
 30
0.0
 40
10.0
100
AcDbArc
 50
270.0
 51
338.594663
  0
ARC
  5
2E4
100
AcDbEntity
  8
LAY-1
  6
CONTINUOUS
 62
     2
100
AcDbCircle
 10
1494.406952
 20
812.866309
 30
0.0
 40
2.0
100
AcDbArc
 50
0.0
 51
90.0
  0
LINE
  5
2E5
100
AcDbEntity
  8
LAY-1
  6
CONTINUOUS
 62
     2
100
AcDbLine
 10
1482.906952
 20
814.866309
 30
0.0
 11
1494.406952
 21
814.866309
 31
0.0
  0
ARC
  5
2E6
100
AcDbEntity
  8
LAY-1
  6
CONTINUOUS
 62
     2
100
AcDbCircle
 10
1538.5
 20
672.400095
 30
0.0
 40
10.0
100
AcDbArc
 50
0.0
 51
22.578007
  0
ARC
  5
2E7
100
AcDbEntity
  8
LAY-1
  6
CONTINUOUS
 62
     2
100
AcDbCircle
 10
1665.0
 20
725.0
 30
0.0
 40
127.0
100
AcDbArc
 50
201.549115
 51
202.578007
  0
ARC
  5
2E8
100
AcDbEntity
  8
LAY-1
  6
CONTINUOUS
 62
     2
100
AcDbCircle
 10
1537.45001
 20
675.0
 30
0.0
 40
10.0
100
AcDbArc
 50
21.405337
 51
90.0
  0
ARC
  5
2E9
100
AcDbEntity
  8
LAY-1
  6
CONTINUOUS
 62
     2
100
AcDbCircle
 10
1494.406952
 20
637.166309
 30
0.0
 40
2.0
100
AcDbArc
 50
270.0
 51
0.0
  0
LINE
  5
2EA
100
AcDbEntity
  8
LAY-1
  6
CONTINUOUS
 62
     2
100
AcDbLine
 10
1482.906952
 20
635.166309
 30
0.0
 11
1494.406952
 21
635.166309
 31
0.0
  0
ARC
  5
2EB
100
AcDbEntity
  8
LAY-1
  6
CONTINUOUS
 62
     2
100
AcDbCircle
 10
1471.406952
 20
636.0
 30
0.0
 40
1.0
100
AcDbArc
 50
180.0
 51
270.0
  0
ARC
  5
2EC
100
AcDbEntity
  8
LAY-1
  6
CONTINUOUS
 62
     2
100
AcDbCircle
 10
1456.906952
 20
775.054437
 30
0.0
 40
8.0
100
AcDbArc
 50
271.643617
 51
0.0
  0
ARC
  5
2ED
100
AcDbEntity
  8
LAY-1
  6
CONTINUOUS
 62
     2
100
AcDbCircle
 10
1471.906952
 20
780.727057
 30
0.0
 40
7.0
100
AcDbArc
 50
119.994032
 51
180.0
  0
LINE
  5
2EE
100
AcDbEntity
  8
LAY-1
  6
CONTINUOUS
 62
     2
100
AcDbLine
 10
1468.407583
 20
786.789599
 30
0.0
 11
1469.406772
 21
787.366342
 31
0.0
  0
ARC
  5
2EF
100
AcDbEntity
  8
LAY-1
  6
CONTINUOUS
 62
     2
100
AcDbCircle
 10
1468.406952
 20
789.098497
 30
0.0
 40
2.0
100
AcDbArc
 50
299.994032
 51
0.0
  0
LINE
  5
2F0
100
AcDbEntity
  8
LAY-1
  6
CONTINUOUS
 62
     2
100
AcDbLine
 10
1467.189206
 20
640.275584
 30
0.0
 11
1469.441851
 21
640.19692
 31
0.0
  0
LINE
  5
2F1
100
AcDbEntity
  8
LAY-1
  6
CONTINUOUS
 62
     2
100
AcDbLine
 10
1460.583656
 20
679.736302
 30
0.0
 11
1460.861293
 21
679.745998
 31
0.0
  0
ARC
  5
2F2
100
AcDbEntity
  8
LAY-1
  6
CONTINUOUS
 62
     2
100
AcDbCircle
 10
1460.826394
 20
680.745388
 30
0.0
 40
1.0
100
AcDbArc
 50
272.0
 51
55.949717
  0
ARC
  5
2F3
100
AcDbEntity
  8
LAY-1
  6
CONTINUOUS
 62
     2
100
AcDbCircle
 10
1460.618556
 20
678.736912
 30
0.0
 40
1.0
100
AcDbArc
 50
92.0
 51
190.0
  0
ARC
  5
2F4
100
AcDbEntity
  8
LAY-1
  6
CONTINUOUS
 62
     2
100
AcDbCircle
 10
1467.224106
 20
641.274975
 30
0.0
 40
1.0
100
AcDbArc
 50
190.0
 51
268.0
  0
ARC
  5
2F5
100
AcDbEntity
  8
LAY-1
  6
CONTINUOUS
 62
     2
100
AcDbCircle
 10
1469.406952
 20
639.197529
 30
0.0
 40
1.0
100
AcDbArc
 50
0.0
 51
88.0
  0
LINE
  5
2F6
100
AcDbEntity
  8
LAY-1
  6
CONTINUOUS
 62
     2
100
AcDbLine
 10
1483.906952
 20
775.016309
 30
0.0
 11
1483.906952
 21
814.866309
 31
0.0
  0
ARC
  5
2F7
100
AcDbEntity
  8
LAY-1
  6
CONTINUOUS
 62
     2
100
AcDbCircle
 10
1317.1993
 20
743.575961
 30
0.0
 40
3.3
100
AcDbArc
 50
92.0
 51
150.0
  0
ARC
  5
2F8
100
AcDbEntity
  8
LAY-1
  6
CONTINUOUS
 62
     2
100
AcDbCircle
 10
1330.17117
 20
749.25
 30
0.0
 40
2.0
100
AcDbArc
 50
90.0
 51
170.134193
  0
LINE
  5
2F9
100
AcDbEntity
  8
LAY-1
  6
CONTINUOUS
 62
     2
100
AcDbLine
 10
1330.17117
 20
751.25
 30
0.0
 11
1330.315994
 21
751.25
 31
0.0
  0
LINE
  5
2FA
100
AcDbEntity
  8
LAY-1
  6
CONTINUOUS
 62
     2
100
AcDbLine
 10
1326.576115
 20
747.205418
 30
0.0
 11
1317.084132
 21
746.873951
 31
0.0
  0
LINE
  5
2FB
100
AcDbEntity
  8
LAY-1
  6
CONTINUOUS
 62
     2
100
AcDbLine
 10
1328.200746
 20
749.592682
 30
0.0
 11
1328.001583
 21
748.447493
 31
0.0
  0
ARC
  5
2FC
100
AcDbEntity
  8
LAY-1
  6
CONTINUOUS
 62
     2
100
AcDbCircle
 10
1326.523765
 20
748.704505
 30
0.0
 40
1.5
100
AcDbArc
 50
272.0
 51
350.134193
  0
LINE
  5
2FD
100
AcDbEntity
  8
LAY-1
  6
CONTINUOUS
 62
     2
100
AcDbLine
 10
1314.341416
 20
745.225961
 30
0.0
 11
1312.652112
 21
742.3
 31
0.0
  0
ARC
  5
2FE
100
AcDbEntity
  8
LAY-1
  6
CONTINUOUS
 62
     2
100
AcDbCircle
 10
1311.786086
 20
742.8
 30
0.0
 40
1.0
100
AcDbArc
 50
270.0
 51
330.0
  0
LINE
  5
2FF
100
AcDbEntity
  8
LAY-1
  6
CONTINUOUS
 62
     2
100
AcDbLine
 10
1311.786086
 20
741.8
 30
0.0
 11
1303.931464
 21
741.8
 31
0.0
  0
ARC
  5
300
100
AcDbEntity
  8
LAY-1
  6
CONTINUOUS
 62
     2
100
AcDbCircle
 10
1303.931464
 20
739.8
 30
0.0
 40
2.0
100
AcDbArc
 50
90.0
 51
150.0
  0
LINE
  5
301
100
AcDbEntity
  8
LAY-1
  6
CONTINUOUS
 62
     2
100
AcDbLine
 10
1302.199413
 20
740.8
 30
0.0
 11
1301.620655
 21
739.797561
 31
0.0
  0
ARC
  5
302
100
AcDbEntity
  8
LAY-1
  6
CONTINUOUS
 62
     2
100
AcDbCircle
 10
1300.754629
 20
740.297561
 30
0.0
 40
1.0
100
AcDbArc
 50
270.0
 51
330.0
  0
ARC
  5
303
100
AcDbEntity
  8
LAY-1
  6
CONTINUOUS
 62
     2
100
AcDbCircle
 10
1330.17117
 20
700.75
 30
0.0
 40
2.0
100
AcDbArc
 50
189.865807
 51
270.0
  0
LINE
  5
304
100
AcDbEntity
  8
LAY-1
  6
CONTINUOUS
 62
     2
100
AcDbLine
 10
1330.17117
 20
698.75
 30
0.0
 11
1330.315994
 21
698.75
 31
0.0
  0
LINE
  5
305
100
AcDbEntity
  8
LAY-1
  6
CONTINUOUS
 62
     2
100
AcDbLine
 10
1328.200746
 20
700.407318
 30
0.0
 11
1328.001583
 21
701.552507
 31
0.0
  0
ARC
  5
306
100
AcDbEntity
  8
LAY-1
  6
CONTINUOUS
 62
     2
100
AcDbCircle
 10
1326.523765
 20
701.295495
 30
0.0
 40
1.5
100
AcDbArc
 50
9.865807
 51
88.0
  0
ARC
  5
307
100
AcDbEntity
  8
LAY-1
  6
CONTINUOUS
 62
     2
100
AcDbCircle
 10
1311.786086
 20
707.2
 30
0.0
 40
1.0
100
AcDbArc
 50
30.0
 51
90.0
  0
LINE
  5
308
100
AcDbEntity
  8
LAY-1
  6
CONTINUOUS
 62
     2
100
AcDbLine
 10
1311.786086
 20
708.2
 30
0.0
 11
1303.931464
 21
708.2
 31
0.0
  0
ARC
  5
309
100
AcDbEntity
  8
LAY-1
  6
CONTINUOUS
 62
     2
100
AcDbCircle
 10
1303.931464
 20
710.2
 30
0.0
 40
2.0
100
AcDbArc
 50
210.0
 51
270.0
  0
LINE
  5
30A
100
AcDbEntity
  8
LAY-1
  6
CONTINUOUS
 62
     2
100
AcDbLine
 10
1302.199413
 20
709.2
 30
0.0
 11
1301.620655
 21
710.202439
 31
0.0
  0
ARC
  5
30B
100
AcDbEntity
  8
LAY-1
  6
CONTINUOUS
 62
     2
100
AcDbCircle
 10
1300.754629
 20
709.702439
 30
0.0
 40
1.0
100
AcDbArc
 50
30.0
 51
90.0
  0
LINE
  5
30C
100
AcDbEntity
  8
LAY-1
  6
CONTINUOUS
 62
     2
100
AcDbLine
 10
1314.285986
 20
704.870048
 30
0.0
 11
1312.652112
 21
707.7
 31
0.0
  0
LINE
  5
30D
100
AcDbEntity
  8
LAY-1
  6
CONTINUOUS
 62
     2
100
AcDbLine
 10
1326.576115
 20
702.794582
 30
0.0
 11
1317.194926
 21
703.12218
 31
0.0
  0
ARC
  5
30E
100
AcDbEntity
  8
LAY-1
  6
CONTINUOUS
 62
     2
100
AcDbCircle
 10
1317.317074
 20
706.620048
 30
0.0
 40
3.5
100
AcDbArc
 50
210.0
 51
268.0
  0
LINE
  5
30F
100
AcDbEntity
  8
LAY-1
  6
CONTINUOUS
 62
     2
100
AcDbLine
 10
1264.156686
 20
710.702439
 30
0.0
 11
1300.754629
 21
710.702439
 31
0.0
  0
ARC
  5
310
100
AcDbEntity
  8
LAY-1
  6
CONTINUOUS
 62
     2
100
AcDbCircle
 10
1264.156686
 20
712.702439
 30
0.0
 40
2.0
100
AcDbArc
 50
197.025607
 51
270.0
  0
ARC
  5
311
100
AcDbEntity
  8
LAY-1
  6
CONTINUOUS
 62
     2
100
AcDbCircle
 10
1304.315994
 20
725.0
 30
0.0
 40
44.0
100
AcDbArc
 50
162.974393
 51
197.025607
  0
LINE
  5
312
100
AcDbEntity
  8
LAY-1
  6
CONTINUOUS
 62
     2
100
AcDbLine
 10
1264.156686
 20
739.297561
 30
0.0
 11
1300.754629
 21
739.297561
 31
0.0
  0
ARC
  5
313
100
AcDbEntity
  8
LAY-1
  6
CONTINUOUS
 62
     2
100
AcDbCircle
 10
1264.156686
 20
737.297561
 30
0.0
 40
2.0
100
AcDbArc
 50
90.0
 51
162.974393
  0
LINE
  5
314
100
AcDbEntity
  8
LAY-1
  6
CONTINUOUS
 62
     2
100
AcDbLine
 10
1605.0
 20
752.0
 30
0.0
 11
1604.0
 21
753.0
 31
0.0
  0
LINE
  5
315
100
AcDbEntity
  8
LAY-1
  6
CONTINUOUS
 62
     2
100
AcDbLine
 10
1604.0
 20
753.0
 30
0.0
 11
1600.80845
 21
753.0
 31
0.0
  0
ARC
  5
316
100
AcDbEntity
  8
LAY-1
  6
CONTINUOUS
 62
     2
100
AcDbCircle
 10
1600.80845
 20
758.0
 30
0.0
 40
5.0
100
AcDbArc
 50
194.477512
 51
270.0
  0
ARC
  5
317
100
AcDbEntity
  8
LAY-1
  6
CONTINUOUS
 62
     2
100
AcDbCircle
 10
1473.0
 20
725.0
 30
0.0
 40
127.0
100
AcDbArc
 50
14.477512
 51
26.809531
  0
LINE
  5
318
100
AcDbEntity
  8
LAY-1
  6
CONTINUOUS
 62
     2
100
AcDbLine
 10
1600.80845
 20
697.0
 30
0.0
 11
1604.0
 21
697.0
 31
0.0
  0
LINE
  5
319
100
AcDbEntity
  8
LAY-1
  6
CONTINUOUS
 62
     2
100
AcDbLine
 10
1604.0
 20
697.0
 30
0.0
 11
1605.0
 21
698.0
 31
0.0
  0
ARC
  5
31A
100
AcDbEntity
  8
LAY-1
  6
CONTINUOUS
 62
     2
100
AcDbCircle
 10
1600.80845
 20
692.0
 30
0.0
 40
5.0
100
AcDbArc
 50
90.0
 51
165.522488
  0
ARC
  5
31B
100
AcDbEntity
  8
LAY-1
  6
CONTINUOUS
 62
     2
100
AcDbCircle
 10
1473.0
 20
725.0
 30
0.0
 40
127.0
100
AcDbArc
 50
336.537784
 51
345.522488
  0
ARC
  5
31C
100
AcDbEntity
  8
LAY-1
  6
CONTINUOUS
 62
     2
100
AcDbCircle
 10
1600.424118
 20
674.680082
 30
0.0
 40
10.0
100
AcDbArc
 50
158.450885
 51
195.0
  0
ARC
  5
31D
100
AcDbEntity
  8
LAY-1
  6
CONTINUOUS
 62
     2
100
AcDbCircle
 10
1607.305075
 20
649.0
 30
0.0
 40
10.0
100
AcDbArc
 50
195.0
 51
270.0
  0
LINE
  5
31E
100
AcDbEntity
  8
LAY-1
  6
CONTINUOUS
 62
     2
100
AcDbLine
 10
1590.76486
 20
672.091892
 30
0.0
 11
1597.645817
 21
646.41181
 31
0.0
  0
ARC
  5
31F
100
AcDbEntity
  8
LAY-1
  6
CONTINUOUS
 62
     2
100
AcDbCircle
 10
1530.694925
 20
649.0
 30
0.0
 40
10.0
100
AcDbArc
 50
270.0
 51
345.0
  0
LINE
  5
320
100
AcDbEntity
  8
LAY-1
  6
CONTINUOUS
 62
     2
100
AcDbLine
 10
1547.23514
 20
672.091892
 30
0.0
 11
1540.354183
 21
646.41181
 31
0.0
  0
ARC
  5
321
100
AcDbEntity
  8
LAY-1
  6
CONTINUOUS
 62
     2
100
AcDbCircle
 10
1537.575882
 20
674.680082
 30
0.0
 40
10.0
100
AcDbArc
 50
345.0
 51
21.549115
  0
ARC
  5
322
100
AcDbEntity
  8
LAY-1
  6
CONTINUOUS
 62
     2
100
AcDbCircle
 10
1537.575882
 20
775.319918
 30
0.0
 40
10.0
100
AcDbArc
 50
338.450885
 51
15.0
  0
ARC
  5
323
100
AcDbEntity
  8
LAY-1
  6
CONTINUOUS
 62
     2
100
AcDbCircle
 10
1600.424118
 20
775.319918
 30
0.0
 40
10.0
100
AcDbArc
 50
165.0
 51
201.549115
  0
LINE
  5
324
100
AcDbEntity
  8
LAY-1
  6
CONTINUOUS
 62
     2
100
AcDbLine
 10
1611.0
 20
745.8
 30
0.0
 11
1619.4
 21
745.8
 31
0.0
  0
LINE
  5
325
100
AcDbEntity
  8
LAY-1
  6
CONTINUOUS
 62
     2
100
AcDbLine
 10
1605.0
 20
751.5
 30
0.0
 11
1611.0
 21
751.5
 31
0.0
  0
LINE
  5
326
100
AcDbEntity
  8
LAY-1
  6
CONTINUOUS
 62
     2
100
AcDbLine
 10
1621.0
 20
743.0
 30
0.0
 11
1621.0
 21
707.0
 31
0.0
  0
LINE
  5
327
100
AcDbEntity
  8
LAY-1
  6
CONTINUOUS
 62
     2
100
AcDbLine
 10
1621.0
 20
743.0
 30
0.0
 11
1619.4
 21
745.8
 31
0.0
  0
LINE
  5
328
100
AcDbEntity
  8
LAY-1
  6
CONTINUOUS
 62
     2
100
AcDbLine
 10
1619.4
 20
704.2
 30
0.0
 11
1621.0
 21
707.0
 31
0.0
  0
LINE
  5
329
100
AcDbEntity
  8
LAY-1
  6
CONTINUOUS
 62
     2
100
AcDbLine
 10
1619.4
 20
704.2
 30
0.0
 11
1611.0
 21
704.2
 31
0.0
  0
LINE
  5
32A
100
AcDbEntity
  8
LAY-1
  6
CONTINUOUS
 62
     2
100
AcDbLine
 10
1611.0
 20
698.5
 30
0.0
 11
1605.0
 21
698.5
 31
0.0
  0
LINE
  5
32B
100
AcDbEntity
  8
LAY-1
  6
CONTINUOUS
 62
     2
100
AcDbLine
 10
514.5
 20
770.519684
 30
0.0
 11
507.5
 21
770.519684
 31
0.0
  0
LINE
  5
32C
100
AcDbEntity
  8
LAY-1
  6
CONTINUOUS
 62
     2
100
AcDbLine
 10
514.5
 20
677.480316
 30
0.0
 11
507.5
 21
677.480316
 31
0.0
  0
LINE
  5
32D
100
AcDbEntity
  8
LAY-1
  6
CONTINUOUS
 62
     2
100
AcDbLine
 10
507.5
 20
677.480316
 30
0.0
 11
507.5
 21
639.157096
 31
0.0
  0
LINE
  5
32E
100
AcDbEntity
  8
LAY-1
  6
CONTINUOUS
 62
     2
100
AcDbLine
 10
514.5
 20
677.480316
 30
0.0
 11
514.5
 21
639.157096
 31
0.0
  0
ARC
  5
32F
100
AcDbEntity
  8
LAY-1
  6
CONTINUOUS
 62
     2
100
AcDbCircle
 10
523.0
 20
763.0
 30
0.0
 40
2.0
100
AcDbArc
 50
0.0
 51
90.0
  0
ARC
  5
330
100
AcDbEntity
  8
LAY-1
  6
CONTINUOUS
 62
     2
100
AcDbCircle
 10
497.0
 20
763.0
 30
0.0
 40
2.0
100
AcDbArc
 50
90.0
 51
180.0
  0
LINE
  5
331
100
AcDbEntity
  8
LAY-1
  6
CONTINUOUS
 62
     2
100
AcDbLine
 10
523.0
 20
765.0
 30
0.0
 11
497.0
 21
765.0
 31
0.0
  0
ARC
  5
332
100
AcDbEntity
  8
LAY-1
  6
CONTINUOUS
 62
     2
100
AcDbCircle
 10
497.0
 20
747.0
 30
0.0
 40
2.0
100
AcDbArc
 50
180.0
 51
270.0
  0
ARC
  5
333
100
AcDbEntity
  8
LAY-1
  6
CONTINUOUS
 62
     2
100
AcDbCircle
 10
497.0
 20
703.0
 30
0.0
 40
2.0
100
AcDbArc
 50
90.0
 51
180.0
  0
ARC
  5
334
100
AcDbEntity
  8
LAY-1
  6
CONTINUOUS
 62
     2
100
AcDbCircle
 10
523.0
 20
703.0
 30
0.0
 40
2.0
100
AcDbArc
 50
0.0
 51
90.0
  0
LINE
  5
335
100
AcDbEntity
  8
LAY-1
  6
CONTINUOUS
 62
     2
100
AcDbLine
 10
523.0
 20
705.0
 30
0.0
 11
497.0
 21
705.0
 31
0.0
  0
LINE
  5
336
100
AcDbEntity
  8
LAY-1
  6
CONTINUOUS
 62
     2
100
AcDbLine
 10
523.0
 20
745.0
 30
0.0
 11
497.0
 21
745.0
 31
0.0
  0
ARC
  5
337
100
AcDbEntity
  8
LAY-1
  6
CONTINUOUS
 62
     2
100
AcDbCircle
 10
523.0
 20
747.0
 30
0.0
 40
2.0
100
AcDbArc
 50
270.0
 51
0.0
  0
LINE
  5
338
100
AcDbEntity
  8
LAY-1
  6
CONTINUOUS
 62
     2
100
AcDbLine
 10
488.0
 20
734.0
 30
0.0
 11
482.0
 21
734.0
 31
0.0
  0
LINE
  5
339
100
AcDbEntity
  8
LAY-1
  6
CONTINUOUS
 62
     2
100
AcDbLine
 10
482.0
 20
720.0
 30
0.0
 11
479.0
 21
720.0
 31
0.0
  0
LINE
  5
33A
100
AcDbEntity
  8
LAY-1
  6
CONTINUOUS
 62
     2
100
AcDbLine
 10
491.0
 20
720.0
 30
0.0
 11
488.0
 21
720.0
 31
0.0
  0
LINE
  5
33B
100
AcDbEntity
  8
LAY-1
  6
CONTINUOUS
 62
     2
100
AcDbLine
 10
488.0
 20
734.0
 30
0.0
 11
488.0
 21
720.0
 31
0.0
  0
LINE
  5
33C
100
AcDbEntity
  8
LAY-1
  6
CONTINUOUS
 62
     2
100
AcDbLine
 10
482.0
 20
734.0
 30
0.0
 11
482.0
 21
720.0
 31
0.0
  0
LINE
  5
33D
100
AcDbEntity
  8
LAY-1
  6
CONTINUOUS
 62
     2
100
AcDbLine
 10
479.0
 20
720.0
 30
0.0
 11
485.0
 21
714.0
 31
0.0
  0
LINE
  5
33E
100
AcDbEntity
  8
LAY-1
  6
CONTINUOUS
 62
     2
100
AcDbLine
 10
491.0
 20
720.0
 30
0.0
 11
485.0
 21
714.0
 31
0.0
  0
LINE
  5
33F
100
AcDbEntity
  8
LAY-1
  6
CONTINUOUS
 62
     2
100
AcDbLine
 10
495.0
 20
763.0
 30
0.0
 11
495.0
 21
687.0
 31
0.0
  0
ARC
  5
340
100
AcDbEntity
  8
LAY-1
  6
CONTINUOUS
 62
     2
100
AcDbCircle
 10
497.0
 20
687.0
 30
0.0
 40
2.0
100
AcDbArc
 50
180.0
 51
270.0
  0
LINE
  5
341
100
AcDbEntity
  8
LAY-1
  6
CONTINUOUS
 62
     2
100
AcDbLine
 10
523.0
 20
685.0
 30
0.0
 11
497.0
 21
685.0
 31
0.0
  0
LINE
  5
342
100
AcDbEntity
  8
LAY-1
  6
CONTINUOUS
 62
     2
100
AcDbLine
 10
525.0
 20
763.0
 30
0.0
 11
525.0
 21
687.0
 31
0.0
  0
ARC
  5
343
100
AcDbEntity
  8
LAY-1
  6
CONTINUOUS
 62
     2
100
AcDbCircle
 10
523.0
 20
687.0
 30
0.0
 40
2.0
100
AcDbArc
 50
270.0
 51
0.0
  0
LINE
  5
344
100
AcDbEntity
  8
LAY-1
  6
CONTINUOUS
 62
     2
100
AcDbLine
 10
749.684006
 20
751.25
 30
0.0
 11
748.941126
 21
755.463084
 31
0.0
  0
LINE
  5
345
100
AcDbEntity
  8
LAY-1
  6
CONTINUOUS
 62
     2
100
AcDbLine
 10
749.684006
 20
698.75
 30
0.0
 11
748.941126
 21
694.536916
 31
0.0
  0
ARC
  5
346
100
AcDbEntity
  8
LAY-1
  6
CONTINUOUS
 62
     2
100
AcDbCircle
 10
739.093048
 20
753.726603
 30
0.0
 40
10.0
100
AcDbArc
 50
10.0
 51
86.046991
  0
ARC
  5
347
100
AcDbEntity
  8
LAY-1
  6
CONTINUOUS
 62
     2
100
AcDbCircle
 10
739.093048
 20
696.273397
 30
0.0
 40
10.0
100
AcDbArc
 50
273.953009
 51
350.0
  0
LINE
  5
348
100
AcDbEntity
  8
LAY-1
  6
CONTINUOUS
 62
     2
100
AcDbLine
 10
739.782431
 20
763.702812
 30
0.0
 11
622.863587
 21
767.057728
 31
0.0
  0
LINE
  5
349
100
AcDbEntity
  8
LAY-1
  6
CONTINUOUS
 62
     2
100
AcDbLine
 10
583.593048
 20
812.866309
 30
0.0
 11
583.593048
 21
637.166309
 31
0.0
  0
LINE
  5
34A
100
AcDbEntity
  8
LAY-1
  6
CONTINUOUS
 62
     2
100
AcDbLine
 10
596.093048
 20
635.166309
 30
0.0
 11
596.093048
 21
775.016309
 31
0.0
  0
LINE
  5
34B
100
AcDbEntity
  8
LAY-1
  6
CONTINUOUS
 62
     2
100
AcDbLine
 10
469.0
 20
751.5
 30
0.0
 11
469.0
 21
698.5
 31
0.0
  0
LINE
  5
34C
100
AcDbEntity
  8
LAY-1
  6
CONTINUOUS
 62
     2
100
AcDbLine
 10
475.0
 20
698.0
 30
0.0
 11
475.0
 21
752.0
 31
0.0
  0
LINE
  5
34D
100
AcDbEntity
  8
LAY-1
  6
CONTINUOUS
 62
     2
100
AcDbLine
 10
461.0
 20
639.0
 30
0.0
 11
561.0
 21
639.0
 31
0.0
  0
LINE
  5
34E
100
AcDbEntity
  8
LAY-1
  6
CONTINUOUS
 62
     2
100
AcDbLine
 10
511.0
 20
625.0
 30
0.0
 11
461.0
 21
625.0
 31
0.0
  0
LINE
  5
34F
100
AcDbEntity
  8
LAY-1
  6
CONTINUOUS
 62
     2
100
AcDbLine
 10
511.0
 20
625.0
 30
0.0
 11
561.0
 21
625.0
 31
0.0
  0
LINE
  5
350
100
AcDbEntity
  8
LAY-1
  6
CONTINUOUS
 62
     2
100
AcDbLine
 10
561.0
 20
639.0
 30
0.0
 11
561.0
 21
625.0
 31
0.0
  0
LINE
  5
351
100
AcDbEntity
  8
LAY-1
  6
CONTINUOUS
 62
     2
100
AcDbLine
 10
461.0
 20
639.0
 30
0.0
 11
461.0
 21
625.0
 31
0.0
  0
LINE
  5
352
100
AcDbEntity
  8
LAY-1
  6
CONTINUOUS
 62
     2
100
AcDbLine
 10
490.5
 20
674.435685
 30
0.0
 11
490.5
 21
644.0
 31
0.0
  0
ARC
  5
353
100
AcDbEntity
  8
LAY-1
  6
CONTINUOUS
 62
     2
100
AcDbCircle
 10
485.5
 20
644.0
 30
0.0
 40
5.0
100
AcDbArc
 50
270.0
 51
0.0
  0
ARC
  5
354
100
AcDbEntity
  8
LAY-1
  6
CONTINUOUS
 62
     2
100
AcDbCircle
 10
536.5
 20
644.0
 30
0.0
 40
5.0
100
AcDbArc
 50
180.0
 51
270.0
  0
LINE
  5
355
100
AcDbEntity
  8
LAY-1
  6
CONTINUOUS
 62
     2
100
AcDbLine
 10
531.5
 20
672.400095
 30
0.0
 11
531.5
 21
644.0
 31
0.0
  0
ARC
  5
356
100
AcDbEntity
  8
LAY-1
  6
CONTINUOUS
 62
     2
100
AcDbCircle
 10
538.5
 20
784.302192
 30
0.0
 40
10.0
100
AcDbArc
 50
180.0
 51
205.649373
  0
ARC
  5
357
100
AcDbEntity
  8
LAY-1
  6
CONTINUOUS
 62
     2
100
AcDbCircle
 10
415.0
 20
725.0
 30
0.0
 40
127.0
100
AcDbArc
 50
21.549115
 51
25.649373
  0
ARC
  5
358
100
AcDbEntity
  8
LAY-1
  6
CONTINUOUS
 62
     2
100
AcDbCircle
 10
585.593048
 20
812.866309
 30
0.0
 40
2.0
100
AcDbArc
 50
90.0
 51
180.0
  0
ARC
  5
359
100
AcDbEntity
  8
LAY-1
  6
CONTINUOUS
 62
     2
100
AcDbCircle
 10
541.5
 20
672.400095
 30
0.0
 40
10.0
100
AcDbArc
 50
157.421993
 51
180.0
  0
ARC
  5
35A
100
AcDbEntity
  8
LAY-1
  6
CONTINUOUS
 62
     2
100
AcDbCircle
 10
585.593048
 20
637.166309
 30
0.0
 40
2.0
100
AcDbArc
 50
180.0
 51
270.0
  0
LINE
  5
35B
100
AcDbEntity
  8
LAY-1
  6
CONTINUOUS
 62
     2
100
AcDbLine
 10
597.093048
 20
635.166309
 30
0.0
 11
585.593048
 21
635.166309
 31
0.0
  0
ARC
  5
35C
100
AcDbEntity
  8
LAY-1
  6
CONTINUOUS
 62
     2
100
AcDbCircle
 10
608.593048
 20
636.0
 30
0.0
 40
1.0
100
AcDbArc
 50
270.0
 51
0.0
  0
ARC
  5
35D
100
AcDbEntity
  8
LAY-1
  6
CONTINUOUS
 62
     2
100
AcDbCircle
 10
623.093048
 20
775.054437
 30
0.0
 40
8.0
100
AcDbArc
 50
180.0
 51
268.356383
  0
ARC
  5
35E
100
AcDbEntity
  8
LAY-1
  6
CONTINUOUS
 62
     2
100
AcDbCircle
 10
608.093048
 20
780.727057
 30
0.0
 40
7.0
100
AcDbArc
 50
0.0
 51
60.005968
  0
LINE
  5
35F
100
AcDbEntity
  8
LAY-1
  6
CONTINUOUS
 62
     2
100
AcDbLine
 10
611.592417
 20
786.789599
 30
0.0
 11
610.593228
 21
787.366342
 31
0.0
  0
ARC
  5
360
100
AcDbEntity
  8
LAY-1
  6
CONTINUOUS
 62
     2
100
AcDbCircle
 10
611.593048
 20
789.098497
 30
0.0
 40
2.0
100
AcDbArc
 50
180.0
 51
240.005968
  0
LINE
  5
361
100
AcDbEntity
  8
LAY-1
  6
CONTINUOUS
 62
     2
100
AcDbLine
 10
612.810794
 20
640.275584
 30
0.0
 11
610.558149
 21
640.19692
 31
0.0
  0
LINE
  5
362
100
AcDbEntity
  8
LAY-1
  6
CONTINUOUS
 62
     2
100
AcDbLine
 10
619.416344
 20
679.736302
 30
0.0
 11
619.138707
 21
679.745998
 31
0.0
  0
ARC
  5
363
100
AcDbEntity
  8
LAY-1
  6
CONTINUOUS
 62
     2
100
AcDbCircle
 10
619.173606
 20
680.745388
 30
0.0
 40
1.0
100
AcDbArc
 50
124.050283
 51
268.0
  0
ARC
  5
364
100
AcDbEntity
  8
LAY-1
  6
CONTINUOUS
 62
     2
100
AcDbCircle
 10
619.381444
 20
678.736912
 30
0.0
 40
1.0
100
AcDbArc
 50
350.0
 51
88.0
  0
ARC
  5
365
100
AcDbEntity
  8
LAY-1
  6
CONTINUOUS
 62
     2
100
AcDbCircle
 10
612.775894
 20
641.274975
 30
0.0
 40
1.0
100
AcDbArc
 50
272.0
 51
350.0
  0
ARC
  5
366
100
AcDbEntity
  8
LAY-1
  6
CONTINUOUS
 62
     2
100
AcDbCircle
 10
610.593048
 20
639.197529
 30
0.0
 40
1.0
100
AcDbArc
 50
92.0
 51
180.0
  0
LINE
  5
367
100
AcDbEntity
  8
LAY-1
  6
CONTINUOUS
 62
     2
100
AcDbLine
 10
596.093048
 20
775.016309
 30
0.0
 11
596.093048
 21
814.866309
 31
0.0
  0
ARC
  5
368
100
AcDbEntity
  8
LAY-1
  6
CONTINUOUS
 62
     2
100
AcDbCircle
 10
762.8007
 20
743.575961
 30
0.0
 40
3.3
100
AcDbArc
 50
30.0
 51
88.0
  0
ARC
  5
369
100
AcDbEntity
  8
LAY-1
  6
CONTINUOUS
 62
     2
100
AcDbCircle
 10
749.82883
 20
749.25
 30
0.0
 40
2.0
100
AcDbArc
 50
9.865807
 51
90.0
  0
LINE
  5
36A
100
AcDbEntity
  8
LAY-1
  6
CONTINUOUS
 62
     2
100
AcDbLine
 10
749.82883
 20
751.25
 30
0.0
 11
749.684006
 21
751.25
 31
0.0
  0
LINE
  5
36B
100
AcDbEntity
  8
LAY-1
  6
CONTINUOUS
 62
     2
100
AcDbLine
 10
753.423885
 20
747.205418
 30
0.0
 11
762.915868
 21
746.873951
 31
0.0
  0
LINE
  5
36C
100
AcDbEntity
  8
LAY-1
  6
CONTINUOUS
 62
     2
100
AcDbLine
 10
751.799254
 20
749.592682
 30
0.0
 11
751.998417
 21
748.447493
 31
0.0
  0
ARC
  5
36D
100
AcDbEntity
  8
LAY-1
  6
CONTINUOUS
 62
     2
100
AcDbCircle
 10
753.476235
 20
748.704505
 30
0.0
 40
1.5
100
AcDbArc
 50
189.865807
 51
268.0
  0
LINE
  5
36E
100
AcDbEntity
  8
LAY-1
  6
CONTINUOUS
 62
     2
100
AcDbLine
 10
765.658584
 20
745.225961
 30
0.0
 11
767.347888
 21
742.3
 31
0.0
  0
ARC
  5
36F
100
AcDbEntity
  8
LAY-1
  6
CONTINUOUS
 62
     2
100
AcDbCircle
 10
768.213914
 20
742.8
 30
0.0
 40
1.0
100
AcDbArc
 50
210.0
 51
270.0
  0
LINE
  5
370
100
AcDbEntity
  8
LAY-1
  6
CONTINUOUS
 62
     2
100
AcDbLine
 10
768.213914
 20
741.8
 30
0.0
 11
776.068536
 21
741.8
 31
0.0
  0
ARC
  5
371
100
AcDbEntity
  8
LAY-1
  6
CONTINUOUS
 62
     2
100
AcDbCircle
 10
776.068536
 20
739.8
 30
0.0
 40
2.0
100
AcDbArc
 50
30.0
 51
90.0
  0
LINE
  5
372
100
AcDbEntity
  8
LAY-1
  6
CONTINUOUS
 62
     2
100
AcDbLine
 10
777.800587
 20
740.8
 30
0.0
 11
778.379345
 21
739.797561
 31
0.0
  0
ARC
  5
373
100
AcDbEntity
  8
LAY-1
  6
CONTINUOUS
 62
     2
100
AcDbCircle
 10
779.245371
 20
740.297561
 30
0.0
 40
1.0
100
AcDbArc
 50
210.0
 51
270.0
  0
ARC
  5
374
100
AcDbEntity
  8
LAY-1
  6
CONTINUOUS
 62
     2
100
AcDbCircle
 10
749.82883
 20
700.75
 30
0.0
 40
2.0
100
AcDbArc
 50
270.0
 51
350.134193
  0
LINE
  5
375
100
AcDbEntity
  8
LAY-1
  6
CONTINUOUS
 62
     2
100
AcDbLine
 10
749.82883
 20
698.75
 30
0.0
 11
749.684006
 21
698.75
 31
0.0
  0
LINE
  5
376
100
AcDbEntity
  8
LAY-1
  6
CONTINUOUS
 62
     2
100
AcDbLine
 10
751.799254
 20
700.407318
 30
0.0
 11
751.998417
 21
701.552507
 31
0.0
  0
ARC
  5
377
100
AcDbEntity
  8
LAY-1
  6
CONTINUOUS
 62
     2
100
AcDbCircle
 10
753.476235
 20
701.295495
 30
0.0
 40
1.5
100
AcDbArc
 50
92.0
 51
170.134193
  0
ARC
  5
378
100
AcDbEntity
  8
LAY-1
  6
CONTINUOUS
 62
     2
100
AcDbCircle
 10
768.213914
 20
707.2
 30
0.0
 40
1.0
100
AcDbArc
 50
90.0
 51
150.0
  0
LINE
  5
379
100
AcDbEntity
  8
LAY-1
  6
CONTINUOUS
 62
     2
100
AcDbLine
 10
768.213914
 20
708.2
 30
0.0
 11
776.068536
 21
708.2
 31
0.0
  0
ARC
  5
37A
100
AcDbEntity
  8
LAY-1
  6
CONTINUOUS
 62
     2
100
AcDbCircle
 10
776.068536
 20
710.2
 30
0.0
 40
2.0
100
AcDbArc
 50
270.0
 51
330.0
  0
LINE
  5
37B
100
AcDbEntity
  8
LAY-1
  6
CONTINUOUS
 62
     2
100
AcDbLine
 10
777.800587
 20
709.2
 30
0.0
 11
778.379345
 21
710.202439
 31
0.0
  0
ARC
  5
37C
100
AcDbEntity
  8
LAY-1
  6
CONTINUOUS
 62
     2
100
AcDbCircle
 10
779.245371
 20
709.702439
 30
0.0
 40
1.0
100
AcDbArc
 50
90.0
 51
150.0
  0
LINE
  5
37D
100
AcDbEntity
  8
LAY-1
  6
CONTINUOUS
 62
     2
100
AcDbLine
 10
765.714014
 20
704.870048
 30
0.0
 11
767.347888
 21
707.7
 31
0.0
  0
LINE
  5
37E
100
AcDbEntity
  8
LAY-1
  6
CONTINUOUS
 62
     2
100
AcDbLine
 10
753.423885
 20
702.794582
 30
0.0
 11
762.805074
 21
703.12218
 31
0.0
  0
ARC
  5
37F
100
AcDbEntity
  8
LAY-1
  6
CONTINUOUS
 62
     2
100
AcDbCircle
 10
762.682926
 20
706.620048
 30
0.0
 40
3.5
100
AcDbArc
 50
272.0
 51
330.0
  0
LINE
  5
380
100
AcDbEntity
  8
LAY-1
  6
CONTINUOUS
 62
     2
100
AcDbLine
 10
815.843314
 20
710.702439
 30
0.0
 11
779.245371
 21
710.702439
 31
0.0
  0
ARC
  5
381
100
AcDbEntity
  8
LAY-1
  6
CONTINUOUS
 62
     2
100
AcDbCircle
 10
815.843314
 20
712.702439
 30
0.0
 40
2.0
100
AcDbArc
 50
270.0
 51
342.974393
  0
ARC
  5
382
100
AcDbEntity
  8
LAY-1
  6
CONTINUOUS
 62
     2
100
AcDbCircle
 10
775.684006
 20
725.0
 30
0.0
 40
44.0
100
AcDbArc
 50
342.974393
 51
17.025607
  0
LINE
  5
383
100
AcDbEntity
  8
LAY-1
  6
CONTINUOUS
 62
     2
100
AcDbLine
 10
815.843314
 20
739.297561
 30
0.0
 11
779.245371
 21
739.297561
 31
0.0
  0
ARC
  5
384
100
AcDbEntity
  8
LAY-1
  6
CONTINUOUS
 62
     2
100
AcDbCircle
 10
815.843314
 20
737.297561
 30
0.0
 40
2.0
100
AcDbArc
 50
17.025607
 51
90.0
  0
LINE
  5
385
100
AcDbEntity
  8
LAY-1
  6
CONTINUOUS
 62
     2
100
AcDbLine
 10
475.0
 20
752.0
 30
0.0
 11
476.0
 21
753.0
 31
0.0
  0
LINE
  5
386
100
AcDbEntity
  8
LAY-1
  6
CONTINUOUS
 62
     2
100
AcDbLine
 10
476.0
 20
753.0
 30
0.0
 11
479.19155
 21
753.0
 31
0.0
  0
ARC
  5
387
100
AcDbEntity
  8
LAY-1
  6
CONTINUOUS
 62
     2
100
AcDbCircle
 10
479.19155
 20
758.0
 30
0.0
 40
5.0
100
AcDbArc
 50
270.0
 51
345.522488
  0
LINE
  5
388
100
AcDbEntity
  8
LAY-1
  6
CONTINUOUS
 62
     2
100
AcDbLine
 10
479.19155
 20
697.0
 30
0.0
 11
476.0
 21
697.0
 31
0.0
  0
LINE
  5
389
100
AcDbEntity
  8
LAY-1
  6
CONTINUOUS
 62
     2
100
AcDbLine
 10
476.0
 20
697.0
 30
0.0
 11
475.0
 21
698.0
 31
0.0
  0
ARC
  5
38A
100
AcDbEntity
  8
LAY-1
  6
CONTINUOUS
 62
     2
100
AcDbCircle
 10
479.19155
 20
692.0
 30
0.0
 40
5.0
100
AcDbArc
 50
14.477512
 51
90.0
  0
ARC
  5
38B
100
AcDbEntity
  8
LAY-1
  6
CONTINUOUS
 62
     2
100
AcDbCircle
 10
607.0
 20
725.0
 30
0.0
 40
127.0
100
AcDbArc
 50
194.477512
 51
203.462216
  0
ARC
  5
38C
100
AcDbEntity
  8
LAY-1
  6
CONTINUOUS
 62
     2
100
AcDbCircle
 10
479.575882
 20
674.680082
 30
0.0
 40
10.0
100
AcDbArc
 50
345.0
 51
21.549115
  0
ARC
  5
38D
100
AcDbEntity
  8
LAY-1
  6
CONTINUOUS
 62
     2
100
AcDbCircle
 10
472.694925
 20
649.0
 30
0.0
 40
10.0
100
AcDbArc
 50
270.0
 51
345.0
  0
LINE
  5
38E
100
AcDbEntity
  8
LAY-1
  6
CONTINUOUS
 62
     2
100
AcDbLine
 10
489.23514
 20
672.091892
 30
0.0
 11
482.354183
 21
646.41181
 31
0.0
  0
ARC
  5
38F
100
AcDbEntity
  8
LAY-1
  6
CONTINUOUS
 62
     2
100
AcDbCircle
 10
549.305075
 20
649.0
 30
0.0
 40
10.0
100
AcDbArc
 50
195.0
 51
270.0
  0
LINE
  5
390
100
AcDbEntity
  8
LAY-1
  6
CONTINUOUS
 62
     2
100
AcDbLine
 10
532.76486
 20
672.091892
 30
0.0
 11
539.645817
 21
646.41181
 31
0.0
  0
ARC
  5
391
100
AcDbEntity
  8
LAY-1
  6
CONTINUOUS
 62
     2
100
AcDbCircle
 10
542.424118
 20
674.680082
 30
0.0
 40
10.0
100
AcDbArc
 50
158.450885
 51
195.0
  0
ARC
  5
392
100
AcDbEntity
  8
LAY-1
  6
CONTINUOUS
 62
     2
100
AcDbCircle
 10
542.424118
 20
775.319918
 30
0.0
 40
10.0
100
AcDbArc
 50
165.0
 51
201.549115
  0
ARC
  5
393
100
AcDbEntity
  8
LAY-1
  6
CONTINUOUS
 62
     2
100
AcDbCircle
 10
479.575882
 20
775.319918
 30
0.0
 40
10.0
100
AcDbArc
 50
338.450885
 51
15.0
  0
LINE
  5
394
100
AcDbEntity
  8
LAY-1
  6
CONTINUOUS
 62
     2
100
AcDbLine
 10
469.0
 20
745.8
 30
0.0
 11
460.6
 21
745.8
 31
0.0
  0
LINE
  5
395
100
AcDbEntity
  8
LAY-1
  6
CONTINUOUS
 62
     2
100
AcDbLine
 10
475.0
 20
751.5
 30
0.0
 11
469.0
 21
751.5
 31
0.0
  0
LINE
  5
396
100
AcDbEntity
  8
LAY-1
  6
CONTINUOUS
 62
     2
100
AcDbLine
 10
459.0
 20
743.0
 30
0.0
 11
459.0
 21
707.0
 31
0.0
  0
LINE
  5
397
100
AcDbEntity
  8
LAY-1
  6
CONTINUOUS
 62
     2
100
AcDbLine
 10
459.0
 20
743.0
 30
0.0
 11
460.6
 21
745.8
 31
0.0
  0
LINE
  5
398
100
AcDbEntity
  8
LAY-1
  6
CONTINUOUS
 62
     2
100
AcDbLine
 10
460.6
 20
704.2
 30
0.0
 11
459.0
 21
707.0
 31
0.0
  0
LINE
  5
399
100
AcDbEntity
  8
LAY-1
  6
CONTINUOUS
 62
     2
100
AcDbLine
 10
460.6
 20
704.2
 30
0.0
 11
469.0
 21
704.2
 31
0.0
  0
LINE
  5
39A
100
AcDbEntity
  8
LAY-1
  6
CONTINUOUS
 62
     2
100
AcDbLine
 10
469.0
 20
698.5
 30
0.0
 11
475.0
 21
698.5
 31
0.0
  0
LINE
  5
39B
100
AcDbEntity
  8
LAY-1
  6
CONTINUOUS
 62
     2
100
AcDbLine
 10
1020.0
 20
333.188523
 30
0.0
 11
1020.0
 21
325.593048
 31
0.0
  0
LINE
  5
39C
100
AcDbEntity
  8
LAY-1
  6
CONTINUOUS
 62
     2
100
AcDbLine
 10
1060.0
 20
333.188523
 30
0.0
 11
1060.0
 21
325.593048
 31
0.0
  0
ELLIPSE
  5
39D
100
AcDbEntity
  8
LAY-1
  6
CONTINUOUS
 62
     2
100
AcDbEllipse
 10
1040.0
 20
333.188523
 30
0.0
 11
19.999999998359968
 21
0.0
 31
0.0
210
0.0
220
0.0
230
1.0
 40
0.158886
 41
0.0
 42
6.2831853071796004
  0
LINE
  5
39E
100
AcDbEntity
  8
LAY-1
  6
CONTINUOUS
 62
     2
100
AcDbLine
 10
1013.75
 20
465.684006
 30
0.0
 11
1009.507974
 21
464.936022
 31
0.0
  0
LINE
  5
39F
100
AcDbEntity
  8
LAY-1
  6
CONTINUOUS
 62
     2
100
AcDbLine
 10
1066.25
 20
465.684006
 30
0.0
 11
1070.492026
 21
464.936022
 31
0.0
  0
ARC
  5
3A0
100
AcDbEntity
  8
LAY-1
  6
CONTINUOUS
 62
     2
100
AcDbCircle
 10
1027.702439
 20
531.843314
 30
0.0
 40
2.0
100
AcDbArc
 50
107.025607
 51
180.0
  0
LINE
  5
3A1
100
AcDbEntity
  8
LAY-1
  6
CONTINUOUS
 62
     2
100
AcDbLine
 10
1025.702439
 20
531.843314
 30
0.0
 11
1025.702439
 21
495.245371
 31
0.0
  0
ARC
  5
3A2
100
AcDbEntity
  8
LAY-1
  6
CONTINUOUS
 62
     2
100
AcDbCircle
 10
1025.2
 20
492.068536
 30
0.0
 40
2.0
100
AcDbArc
 50
120.0
 51
180.0
  0
LINE
  5
3A3
100
AcDbEntity
  8
LAY-1
  6
CONTINUOUS
 62
     2
100
AcDbLine
 10
1024.2
 20
493.800587
 30
0.0
 11
1025.202439
 21
494.379345
 31
0.0
  0
ARC
  5
3A4
100
AcDbEntity
  8
LAY-1
  6
CONTINUOUS
 62
     2
100
AcDbCircle
 10
1024.702439
 20
495.245371
 30
0.0
 40
1.0
100
AcDbArc
 50
300.0
 51
0.0
  0
LINE
  5
3A5
100
AcDbEntity
  8
LAY-1
  6
CONTINUOUS
 62
     2
100
AcDbLine
 10
1023.2
 20
484.213914
 30
0.0
 11
1023.2
 21
492.068536
 31
0.0
  0
LINE
  5
3A6
100
AcDbEntity
  8
LAY-1
  6
CONTINUOUS
 62
     2
100
AcDbLine
 10
1019.774039
 20
481.658584
 30
0.0
 11
1022.7
 21
483.347888
 31
0.0
  0
ARC
  5
3A7
100
AcDbEntity
  8
LAY-1
  6
CONTINUOUS
 62
     2
100
AcDbCircle
 10
1021.424039
 20
478.8007
 30
0.0
 40
3.3
100
AcDbArc
 50
120.0
 51
178.0
  0
ARC
  5
3A8
100
AcDbEntity
  8
LAY-1
  6
CONTINUOUS
 62
     2
100
AcDbCircle
 10
1022.2
 20
484.213914
 30
0.0
 40
1.0
100
AcDbArc
 50
300.0
 51
0.0
  0
LINE
  5
3A9
100
AcDbEntity
  8
LAY-1
  6
CONTINUOUS
 62
     2
100
AcDbLine
 10
1017.794582
 20
469.423885
 30
0.0
 11
1018.126049
 21
478.915868
 31
0.0
  0
ARC
  5
3AA
100
AcDbEntity
  8
LAY-1
  6
CONTINUOUS
 62
     2
100
AcDbCircle
 10
1015.75
 20
465.82883
 30
0.0
 40
2.0
100
AcDbArc
 50
99.865807
 51
180.0
  0
LINE
  5
3AB
100
AcDbEntity
  8
LAY-1
  6
CONTINUOUS
 62
     2
100
AcDbLine
 10
1015.407318
 20
467.799254
 30
0.0
 11
1016.552507
 21
467.998417
 31
0.0
  0
ARC
  5
3AC
100
AcDbEntity
  8
LAY-1
  6
CONTINUOUS
 62
     2
100
AcDbCircle
 10
1016.295495
 20
469.476235
 30
0.0
 40
1.5
100
AcDbArc
 50
279.865807
 51
358.0
  0
ARC
  5
3AD
100
AcDbEntity
  8
LAY-1
  6
CONTINUOUS
 62
     2
100
AcDbCircle
 10
1063.704505
 20
469.476235
 30
0.0
 40
1.5
100
AcDbArc
 50
182.0
 51
260.134193
  0
LINE
  5
3AE
100
AcDbEntity
  8
LAY-1
  6
CONTINUOUS
 62
     2
100
AcDbLine
 10
1064.592682
 20
467.799254
 30
0.0
 11
1063.447493
 21
467.998417
 31
0.0
  0
ARC
  5
3AF
100
AcDbEntity
  8
LAY-1
  6
CONTINUOUS
 62
     2
100
AcDbCircle
 10
1064.25
 20
465.82883
 30
0.0
 40
2.0
100
AcDbArc
 50
0.0
 51
80.134193
  0
LINE
  5
3B0
100
AcDbEntity
  8
LAY-1
  6
CONTINUOUS
 62
     2
100
AcDbLine
 10
1066.25
 20
465.82883
 30
0.0
 11
1066.25
 21
465.684006
 31
0.0
  0
ARC
  5
3B1
100
AcDbEntity
  8
LAY-1
  6
CONTINUOUS
 62
     2
100
AcDbCircle
 10
1058.379952
 20
478.682926
 30
0.0
 40
3.5
100
AcDbArc
 50
2.0
 51
60.0
  0
LINE
  5
3B2
100
AcDbEntity
  8
LAY-1
  6
CONTINUOUS
 62
     2
100
AcDbLine
 10
1062.205418
 20
469.423885
 30
0.0
 11
1061.87782
 21
478.805074
 31
0.0
  0
ARC
  5
3B3
100
AcDbEntity
  8
LAY-1
  6
CONTINUOUS
 62
     2
100
AcDbCircle
 10
1057.8
 20
484.213914
 30
0.0
 40
1.0
100
AcDbArc
 50
180.0
 51
240.0
  0
LINE
  5
3B4
100
AcDbEntity
  8
LAY-1
  6
CONTINUOUS
 62
     2
100
AcDbLine
 10
1060.129952
 20
481.714014
 30
0.0
 11
1057.3
 21
483.347888
 31
0.0
  0
LINE
  5
3B5
100
AcDbEntity
  8
LAY-1
  6
CONTINUOUS
 62
     2
100
AcDbLine
 10
1056.8
 20
484.213914
 30
0.0
 11
1056.8
 21
492.068536
 31
0.0
  0
ARC
  5
3B6
100
AcDbEntity
  8
LAY-1
  6
CONTINUOUS
 62
     2
100
AcDbCircle
 10
1054.8
 20
492.068536
 30
0.0
 40
2.0
100
AcDbArc
 50
0.0
 51
60.0
  0
LINE
  5
3B7
100
AcDbEntity
  8
LAY-1
  6
CONTINUOUS
 62
     2
100
AcDbLine
 10
1055.8
 20
493.800587
 30
0.0
 11
1054.797561
 21
494.379345
 31
0.0
  0
ARC
  5
3B8
100
AcDbEntity
  8
LAY-1
  6
CONTINUOUS
 62
     2
100
AcDbCircle
 10
1055.297561
 20
495.245371
 30
0.0
 40
1.0
100
AcDbArc
 50
180.0
 51
240.0
  0
LINE
  5
3B9
100
AcDbEntity
  8
LAY-1
  6
CONTINUOUS
 62
     2
100
AcDbLine
 10
1054.297561
 20
531.843314
 30
0.0
 11
1054.297561
 21
495.245371
 31
0.0
  0
ARC
  5
3BA
100
AcDbEntity
  8
LAY-1
  6
CONTINUOUS
 62
     2
100
AcDbCircle
 10
1052.297561
 20
531.843314
 30
0.0
 40
2.0
100
AcDbArc
 50
0.0
 51
72.974393
  0
ARC
  5
3BB
100
AcDbEntity
  8
LAY-1
  6
CONTINUOUS
 62
     2
100
AcDbCircle
 10
1040.0
 20
491.684006
 30
0.0
 40
44.0
100
AcDbArc
 50
72.974393
 51
107.025607
  0
LINE
  5
3BC
100
AcDbEntity
  8
LAY-1
  6
CONTINUOUS
 62
     2
100
AcDbLine
 10
1130.0
 20
313.393048
 30
0.0
 11
950.15
 21
313.393048
 31
0.0
  0
LINE
  5
3BD
100
AcDbEntity
  8
LAY-1
  6
CONTINUOUS
 62
     2
100
AcDbLine
 10
950.0
 20
312.0
 30
0.0
 11
1130.0
 21
312.0
 31
0.0
  0
LINE
  5
3BE
100
AcDbEntity
  8
LAY-1
  6
CONTINUOUS
 62
     2
100
AcDbLine
 10
1065.0
 20
270.657785
 30
0.0
 11
1065.0
 21
270.30127
 31
0.0
  0
ARC
  5
3BF
100
AcDbEntity
  8
LAY-1
  6
CONTINUOUS
 62
     2
100
AcDbCircle
 10
1075.0
 20
270.657785
 30
0.0
 40
10.0
100
AcDbArc
 50
101.129189
 51
180.0
  0
LINE
  5
3C0
100
AcDbEntity
  8
LAY-1
  6
CONTINUOUS
 62
     2
100
AcDbLine
 10
1091.267581
 20
284.049625
 30
0.0
 11
1073.069781
 21
280.46973
 31
0.0
  0
LINE
  5
3C1
100
AcDbEntity
  8
LAY-1
  6
CONTINUOUS
 62
     2
100
AcDbLine
 10
1130.0
 20
312.0
 30
0.0
 11
1130.0
 21
301.465395
 31
0.0
  0
ARC
  5
3C2
100
AcDbEntity
  8
LAY-1
  6
CONTINUOUS
 62
     2
100
AcDbCircle
 10
1128.0
 20
301.465395
 30
0.0
 40
2.0
100
AcDbArc
 50
271.0
 51
0.0
  0
ARC
  5
3C3
100
AcDbEntity
  8
LAY-1
  6
CONTINUOUS
 62
     2
100
AcDbCircle
 10
1011.244456
 20
455.087945
 30
0.0
 40
10.0
100
AcDbArc
 50
100.0
 51
177.938877
  0
ARC
  5
3C4
100
AcDbEntity
  8
LAY-1
  6
CONTINUOUS
 62
     2
100
AcDbCircle
 10
1068.755544
 20
455.087945
 30
0.0
 40
10.0
100
AcDbArc
 50
2.061123
 51
80.0
  0
LINE
  5
3C5
100
AcDbEntity
  8
LAY-1
  6
CONTINUOUS
 62
     2
100
AcDbLine
 10
1078.749074
 20
455.447601
 30
0.0
 11
1082.946902
 21
338.805323
 31
0.0
  0
LINE
  5
3C6
100
AcDbEntity
  8
LAY-1
  6
CONTINUOUS
 62
     2
100
AcDbLine
 10
1089.5
 20
327.093048
 30
0.0
 11
1089.5
 21
327.17997
 31
0.0
  0
ARC
  5
3C7
100
AcDbEntity
  8
LAY-1
  6
CONTINUOUS
 62
     2
100
AcDbCircle
 10
1090.941727
 20
339.093048
 30
0.0
 40
8.0
100
AcDbArc
 50
182.061123
 51
270.0
  0
ARC
  5
3C8
100
AcDbEntity
  8
LAY-1
  6
CONTINUOUS
 62
     2
100
AcDbCircle
 10
1104.943657
 20
327.593048
 30
0.0
 40
2.0
100
AcDbArc
 50
180.0
 51
270.0
  0
LINE
  5
3C9
100
AcDbEntity
  8
LAY-1
  6
CONTINUOUS
 62
     2
100
AcDbLine
 10
1102.943657
 20
328.093048
 30
0.0
 11
1102.943657
 21
327.593048
 31
0.0
  0
ARC
  5
3CA
100
AcDbEntity
  8
LAY-1
  6
CONTINUOUS
 62
     2
100
AcDbCircle
 10
1099.943657
 20
328.093048
 30
0.0
 40
3.0
100
AcDbArc
 50
0.0
 51
90.0
  0
ARC
  5
3CB
100
AcDbEntity
  8
LAY-1
  6
CONTINUOUS
 62
     2
100
AcDbCircle
 10
1129.0
 20
324.593048
 30
0.0
 40
1.0
100
AcDbArc
 50
0.0
 51
90.0
  0
LINE
  5
3CC
100
AcDbEntity
  8
LAY-1
  6
CONTINUOUS
 62
     2
100
AcDbLine
 10
1130.0
 20
313.393048
 30
0.0
 11
1130.0
 21
324.593048
 31
0.0
  0
LINE
  5
3CD
100
AcDbEntity
  8
LAY-1
  6
CONTINUOUS
 62
     2
100
AcDbLine
 10
1115.5
 20
313.093048
 30
0.0
 11
1115.5
 21
313.393048
 31
0.0
  0
LINE
  5
3CE
100
AcDbEntity
  8
LAY-1
  6
CONTINUOUS
 62
     2
100
AcDbLine
 10
1115.5
 20
313.093048
 30
0.0
 11
1040.0
 21
313.093048
 31
0.0
  0
LINE
  5
3CF
100
AcDbEntity
  8
LAY-1
  6
CONTINUOUS
 62
     2
100
AcDbLine
 10
964.5
 20
313.093048
 30
0.0
 11
1040.0
 21
313.093048
 31
0.0
  0
LINE
  5
3D0
100
AcDbEntity
  8
LAY-1
  6
CONTINUOUS
 62
     2
100
AcDbLine
 10
952.0
 20
299.5
 30
0.0
 11
1127.7
 21
299.5
 31
0.0
  0
LINE
  5
3D1
100
AcDbEntity
  8
LAY-1
  6
CONTINUOUS
 62
     2
100
AcDbLine
 10
1015.0
 20
270.657785
 30
0.0
 11
1015.0
 21
270.30127
 31
0.0
  0
ARC
  5
3D2
100
AcDbEntity
  8
LAY-1
  6
CONTINUOUS
 62
     2
100
AcDbCircle
 10
1005.0
 20
270.657785
 30
0.0
 40
10.0
100
AcDbArc
 50
0.0
 51
78.870811
  0
LINE
  5
3D3
100
AcDbEntity
  8
LAY-1
  6
CONTINUOUS
 62
     2
100
AcDbLine
 10
988.732419
 20
284.049625
 30
0.0
 11
1006.930219
 21
280.46973
 31
0.0
  0
LINE
  5
3D4
100
AcDbEntity
  8
LAY-1
  6
CONTINUOUS
 62
     2
100
AcDbLine
 10
996.5
 20
639.000415
 30
0.0
 11
996.5
 21
639.0
 31
0.0
  0
LINE
  5
3D5
100
AcDbEntity
  8
LAY-1
  6
CONTINUOUS
 62
     2
100
AcDbLine
 10
1040.0
 20
625.0
 30
0.0
 11
990.0
 21
625.0
 31
0.0
  0
LINE
  5
3D6
100
AcDbEntity
  8
LAY-1
  6
CONTINUOUS
 62
     2
100
AcDbLine
 10
990.0
 20
639.0
 30
0.0
 11
1013.467002
 21
639.0
 31
0.0
  0
LINE
  5
3D7
100
AcDbEntity
  8
LAY-1
  6
CONTINUOUS
 62
     2
100
AcDbLine
 10
990.0
 20
639.0
 30
0.0
 11
1013.467002
 21
639.0
 31
0.0
  0
LINE
  5
3D8
100
AcDbEntity
  8
LAY-1
  6
CONTINUOUS
 62
     2
100
AcDbLine
 10
1071.5
 20
639.0
 30
0.0
 11
1071.5
 21
639.001337
 31
0.0
  0
LINE
  5
3D9
100
AcDbEntity
  8
LAY-1
  6
CONTINUOUS
 62
     2
100
AcDbLine
 10
1040.0
 20
625.0
 30
0.0
 11
1090.0
 21
625.0
 31
0.0
  0
LINE
  5
3DA
100
AcDbEntity
  8
LAY-1
  6
CONTINUOUS
 62
     2
100
AcDbLine
 10
1083.5
 20
639.000415
 30
0.0
 11
1083.5
 21
639.0
 31
0.0
  0
LINE
  5
3DB
100
AcDbEntity
  8
LAY-1
  6
CONTINUOUS
 62
     2
100
AcDbLine
 10
1090.0
 20
639.0
 30
0.0
 11
1066.532998
 21
639.0
 31
0.0
  0
LINE
  5
3DC
100
AcDbEntity
  8
LAY-1
  6
CONTINUOUS
 62
     2
100
AcDbLine
 10
1066.543553
 20
639.003257
 30
0.0
 11
1077.5
 21
639.003257
 31
0.0
  0
LINE
  5
3DD
100
AcDbEntity
  8
LAY-1
  6
CONTINUOUS
 62
     2
100
AcDbLine
 10
990.5
 20
639.003257
 30
0.0
 11
1002.5
 21
639.003257
 31
0.0
  0
LINE
  5
3DE
100
AcDbEntity
  8
LAY-1
  6
CONTINUOUS
 62
     2
100
AcDbLine
 10
1013.469655
 20
639.003257
 30
0.0
 11
991.530345
 21
639.003257
 31
0.0
  0
LINE
  5
3DF
100
AcDbEntity
  8
LAY-1
  6
CONTINUOUS
 62
     2
100
AcDbLine
 10
1089.5
 20
639.003257
 30
0.0
 11
1077.5
 21
639.003257
 31
0.0
  0
LINE
  5
3E0
100
AcDbEntity
  8
LAY-1
  6
CONTINUOUS
 62
     2
100
AcDbLine
 10
1066.530345
 20
639.003257
 30
0.0
 11
1088.469655
 21
639.003257
 31
0.0
  0
LINE
  5
3E1
100
AcDbEntity
  8
LAY-1
  6
CONTINUOUS
 62
     2
100
AcDbLine
 10
1090.0
 20
639.0
 30
0.0
 11
1090.0
 21
625.0
 31
0.0
  0
LINE
  5
3E2
100
AcDbEntity
  8
LAY-1
  6
CONTINUOUS
 62
     2
100
AcDbLine
 10
990.0
 20
639.0
 30
0.0
 11
990.0
 21
625.0
 31
0.0
  0
ARC
  5
3E3
100
AcDbEntity
  8
LAY-1
  6
CONTINUOUS
 62
     2
100
AcDbCircle
 10
1057.75
 20
660.0
 30
0.0
 40
0.8
100
AcDbArc
 50
91.291327
 51
268.708673
  0
ARC
  5
3E4
100
AcDbEntity
  8
LAY-1
  6
CONTINUOUS
 62
     2
100
AcDbCircle
 10
1040.0
 20
660.0
 30
0.0
 40
17.75
100
AcDbArc
 50
2.582654
 51
357.417346
  0
CIRCLE
  5
3E5
100
AcDbEntity
  8
LAY-1
  6
CONTINUOUS
 62
     2
100
AcDbCircle
 10
1040.0
 20
660.0
 30
0.0
 40
20.0
  0
ARC
  5
3E6
100
AcDbEntity
  8
LAY-1
  6
CONTINUOUS
 62
     2
100
AcDbCircle
 10
1040.0
 20
725.0
 30
0.0
 40
62.610759
100
AcDbArc
 50
189.747122
 51
252.035681
  0
ARC
  5
3E7
100
AcDbEntity
  8
LAY-1
  6
CONTINUOUS
 62
     2
100
AcDbCircle
 10
1040.0
 20
725.0
 30
0.0
 40
62.610759
100
AcDbArc
 50
289.260349
 51
170.258348
  0
CIRCLE
  5
3E8
100
AcDbEntity
  8
LAY-1
  6
CONTINUOUS
 62
     2
100
AcDbCircle
 10
1040.0
 20
725.0
 30
0.0
 40
20.0
  0
CIRCLE
  5
3E9
100
AcDbEntity
  8
LAY-1
  6
CONTINUOUS
 62
     2
100
AcDbCircle
 10
1040.0
 20
725.0
 30
0.0
 40
39.028662
  0
ARC
  5
3EA
100
AcDbEntity
  8
LAY-1
  6
CONTINUOUS
 62
     2
100
AcDbCircle
 10
996.126822
 20
737.0
 30
0.0
 40
2.0
100
AcDbArc
 50
270.0
 51
344.767608
  0
ARC
  5
3EB
100
AcDbEntity
  8
LAY-1
  6
CONTINUOUS
 62
     2
100
AcDbCircle
 10
986.704168
 20
714.0
 30
0.0
 40
2.0
100
AcDbArc
 50
66.443536
 51
90.0
  0
ARC
  5
3EC
100
AcDbEntity
  8
LAY-1
  6
CONTINUOUS
 62
     2
100
AcDbCircle
 10
986.704168
 20
736.0
 30
0.0
 40
2.0
100
AcDbArc
 50
270.0
 51
293.556464
  0
LINE
  5
3ED
100
AcDbEntity
  8
LAY-1
  6
CONTINUOUS
 62
     2
100
AcDbLine
 10
991.5
 20
735.0
 30
0.0
 11
996.126822
 21
735.0
 31
0.0
  0
ARC
  5
3EE
100
AcDbEntity
  8
LAY-1
  6
CONTINUOUS
 62
     2
100
AcDbCircle
 10
996.126822
 20
713.0
 30
0.0
 40
2.0
100
AcDbArc
 50
15.232392
 51
90.0
  0
LINE
  5
3EF
100
AcDbEntity
  8
LAY-1
  6
CONTINUOUS
 62
     2
100
AcDbLine
 10
991.5
 20
715.0
 30
0.0
 11
996.126822
 21
715.0
 31
0.0
  0
ARC
  5
3F0
100
AcDbEntity
  8
LAY-1
  6
CONTINUOUS
 62
     2
100
AcDbCircle
 10
991.5
 20
725.0
 30
0.0
 40
10.0
100
AcDbArc
 50
90.0
 51
270.0
  0
LINE
  5
3F1
100
AcDbEntity
  8
LAY-1
  6
CONTINUOUS
 62
     2
100
AcDbLine
 10
986.704168
 20
734.0
 30
0.0
 11
970.978427
 21
734.0
 31
0.0
  0
LINE
  5
3F2
100
AcDbEntity
  8
LAY-1
  6
CONTINUOUS
 62
     2
100
AcDbLine
 10
986.704168
 20
716.0
 30
0.0
 11
970.978427
 21
716.0
 31
0.0
  0
ARC
  5
3F3
100
AcDbEntity
  8
LAY-1
  6
CONTINUOUS
 62
     2
100
AcDbCircle
 10
970.978427
 20
714.0
 30
0.0
 40
2.0
100
AcDbArc
 50
90.0
 51
135.0
  0
LINE
  5
3F4
100
AcDbEntity
  8
LAY-1
  6
CONTINUOUS
 62
     2
100
AcDbLine
 10
968.735786
 20
714.585786
 30
0.0
 11
969.564214
 21
715.414214
 31
0.0
  0
LINE
  5
3F5
100
AcDbEntity
  8
LAY-1
  6
CONTINUOUS
 62
     2
100
AcDbLine
 10
969.910759
 20
725.0
 30
0.0
 11
969.910759
 21
732.239241
 31
0.0
  0
LINE
  5
3F6
100
AcDbEntity
  8
LAY-1
  6
CONTINUOUS
 62
     2
100
AcDbLine
 10
969.910759
 20
725.0
 30
0.0
 11
969.910759
 21
717.760759
 31
0.0
  0
LINE
  5
3F7
100
AcDbEntity
  8
LAY-1
  6
CONTINUOUS
 62
     2
100
AcDbLine
 10
968.15
 20
725.0
 30
0.0
 11
968.15
 21
716.0
 31
0.0
  0
LINE
  5
3F8
100
AcDbEntity
  8
LAY-1
  6
CONTINUOUS
 62
     2
100
AcDbLine
 10
968.735786
 20
735.414214
 30
0.0
 11
969.564214
 21
734.585786
 31
0.0
  0
ARC
  5
3F9
100
AcDbEntity
  8
LAY-1
  6
CONTINUOUS
 62
     2
100
AcDbCircle
 10
970.978427
 20
736.0
 30
0.0
 40
2.0
100
AcDbArc
 50
225.0
 51
270.0
  0
LINE
  5
3FA
100
AcDbEntity
  8
LAY-1
  6
CONTINUOUS
 62
     2
100
AcDbLine
 10
950.825887
 20
714.0
 30
0.0
 11
967.321573
 21
714.0
 31
0.0
  0
ARC
  5
3FB
100
AcDbEntity
  8
LAY-1
  6
CONTINUOUS
 62
     2
100
AcDbCircle
 10
967.321573
 20
716.0
 30
0.0
 40
2.0
100
AcDbArc
 50
270.0
 51
315.0
  0
ARC
  5
3FC
100
AcDbEntity
  8
LAY-1
  6
CONTINUOUS
 62
     2
100
AcDbCircle
 10
967.321573
 20
734.0
 30
0.0
 40
2.0
100
AcDbArc
 50
45.0
 51
90.0
  0
LINE
  5
3FD
100
AcDbEntity
  8
LAY-1
  6
CONTINUOUS
 62
     2
100
AcDbLine
 10
950.825887
 20
736.0
 30
0.0
 11
967.321573
 21
736.0
 31
0.0
  0
LINE
  5
3FE
100
AcDbEntity
  8
LAY-1
  6
CONTINUOUS
 62
     2
100
AcDbLine
 10
968.15
 20
734.0
 30
0.0
 11
968.15
 21
725.0
 31
0.0
  0
LINE
  5
3FF
100
AcDbEntity
  8
LAY-1
  6
CONTINUOUS
 62
     2
100
AcDbLine
 10
1033.349388
 20
713.480801
 30
0.0
 11
1046.650612
 21
713.480801
 31
0.0
  0
LINE
  5
400
100
AcDbEntity
  8
LAY-1
  6
CONTINUOUS
 62
     2
100
AcDbLine
 10
1046.650612
 20
713.480801
 30
0.0
 11
1053.301225
 21
725.0
 31
0.0
  0
LINE
  5
401
100
AcDbEntity
  8
LAY-1
  6
CONTINUOUS
 62
     2
100
AcDbLine
 10
1053.301225
 20
725.0
 30
0.0
 11
1046.650612
 21
736.519199
 31
0.0
  0
LINE
  5
402
100
AcDbEntity
  8
LAY-1
  6
CONTINUOUS
 62
     2
100
AcDbLine
 10
1046.650612
 20
736.519199
 30
0.0
 11
1033.349388
 21
736.519199
 31
0.0
  0
LINE
  5
403
100
AcDbEntity
  8
LAY-1
  6
CONTINUOUS
 62
     2
100
AcDbLine
 10
1033.349388
 20
736.519199
 30
0.0
 11
1026.698775
 21
725.0
 31
0.0
  0
CIRCLE
  5
404
100
AcDbEntity
  8
LAY-1
  6
CONTINUOUS
 62
     2
100
AcDbCircle
 10
1040.0
 20
725.0
 30
0.0
 40
90.0
  0
CIRCLE
  5
405
100
AcDbEntity
  8
LAY-1
  6
CONTINUOUS
 62
     2
100
AcDbCircle
 10
1040.0
 20
725.0
 30
0.0
 40
11.519199
  0
LINE
  5
406
100
AcDbEntity
  8
LAY-1
  6
CONTINUOUS
 62
     2
100
AcDbLine
 10
1026.698775
 20
725.0
 30
0.0
 11
1033.349388
 21
713.480801
 31
0.0
  0
LINE
  5
407
100
AcDbEntity
  8
LAY-1
  6
CONTINUOUS
 62
     2
100
AcDbLine
 10
1035.0
 20
823.49
 30
0.0
 11
1045.0
 21
823.49
 31
0.0
  0
LINE
  5
408
100
AcDbEntity
  8
LAY-1
  6
CONTINUOUS
 62
     2
100
AcDbLine
 10
1035.0
 20
822.49
 30
0.0
 11
1045.0
 21
822.49
 31
0.0
  0
ARC
  5
409
100
AcDbEntity
  8
LAY-1
  6
CONTINUOUS
 62
     2
100
AcDbCircle
 10
1045.0
 20
818.49
 30
0.0
 40
5.0
100
AcDbArc
 50
309.428275
 51
90.0
  0
ARC
  5
40A
100
AcDbEntity
  8
LAY-1
  6
CONTINUOUS
 62
     2
100
AcDbCircle
 10
1045.0
 20
818.49
 30
0.0
 40
4.0
100
AcDbArc
 50
291.470125
 51
90.0
  0
ARC
  5
40B
100
AcDbEntity
  8
LAY-1
  6
CONTINUOUS
 62
     2
100
AcDbCircle
 10
1035.0
 20
818.49
 30
0.0
 40
5.0
100
AcDbArc
 50
90.0
 51
230.571725
  0
ARC
  5
40C
100
AcDbEntity
  8
LAY-1
  6
CONTINUOUS
 62
     2
100
AcDbCircle
 10
1035.0
 20
818.49
 30
0.0
 40
4.0
100
AcDbArc
 50
90.0
 51
248.529875
  0
LINE
  5
40D
100
AcDbEntity
  8
LAY-1
  6
CONTINUOUS
 62
     1
100
AcDbLine
 10
1082.5
 20
639.0
 30
0.0
 11
1082.5
 21
639.000569
 31
0.0
  0
LINE
  5
40E
100
AcDbEntity
  8
LAY-1
  6
CONTINUOUS
 62
     1
100
AcDbLine
 10
1072.5
 20
639.001337
 30
0.0
 11
1072.5
 21
639.0
 31
0.0
  0
LINE
  5
40F
100
AcDbEntity
  8
LAY-1
  6
EXLTYPE2
 62
     1
100
AcDbLine
 10
1061.957121
 20
466.190956
 30
0.0
 11
1066.25
 21
465.434006
 31
0.0
  0
LINE
  5
410
100
AcDbEntity
  8
LAY-1
  6
EXLTYPE2
 62
     1
100
AcDbLine
 10
1060.033702
 20
475.877948
 30
0.0
 11
1060.305636
 21
468.090773
 31
0.0
  0
ARC
  5
411
100
AcDbEntity
  8
LAY-1
  6
EXLTYPE2
 62
     1
100
AcDbCircle
 10
1062.304418
 20
468.160572
 30
0.0
 40
2.0
100
AcDbArc
 50
182.0
 51
260.0
  0
ARC
  5
412
100
AcDbEntity
  8
LAY-1
  6
EXLTYPE2
 62
     1
100
AcDbCircle
 10
1020.965689
 20
475.843048
 30
0.0
 40
1.0
100
AcDbArc
 50
90.0
 51
178.0
  0
LINE
  5
413
100
AcDbEntity
  8
LAY-1
  6
EXLTYPE2
 62
     1
100
AcDbLine
 10
1040.0
 20
476.843048
 30
0.0
 11
1020.965685
 21
476.843048
 31
0.0
  0
ARC
  5
414
100
AcDbEntity
  8
LAY-1
  6
EXLTYPE2
 62
     1
100
AcDbCircle
 10
1059.034311
 20
475.843048
 30
0.0
 40
1.0
100
AcDbArc
 50
2.0
 51
90.0
  0
LINE
  5
415
100
AcDbEntity
  8
LAY-1
  6
EXLTYPE2
 62
     1
100
AcDbLine
 10
1040.0
 20
476.843048
 30
0.0
 11
1059.034315
 21
476.843048
 31
0.0
  0
LINE
  5
416
100
AcDbEntity
  8
LAY-1
  6
EXLTYPE2
 62
     1
100
AcDbLine
 10
1019.966298
 20
475.877948
 30
0.0
 11
1019.694364
 21
468.090773
 31
0.0
  0
ARC
  5
417
100
AcDbEntity
  8
LAY-1
  6
EXLTYPE2
 62
     1
100
AcDbCircle
 10
1017.695582
 20
468.160572
 30
0.0
 40
2.0
100
AcDbArc
 50
280.0
 51
358.0
  0
LINE
  5
418
100
AcDbEntity
  8
LAY-1
  6
EXLTYPE2
 62
     1
100
AcDbLine
 10
1018.042879
 20
466.190956
 30
0.0
 11
1013.75
 21
465.434006
 31
0.0
  0
LINE
  5
419
100
AcDbEntity
  8
LAY-1
  6
EXLTYPE2
 62
     1
100
AcDbLine
 10
1027.3
 20
476.843048
 30
0.0
 11
1027.3
 21
486.572877
 31
0.0
  0
LINE
  5
41A
100
AcDbEntity
  8
LAY-1
  6
EXLTYPE2
 62
     1
100
AcDbLine
 10
1029.5
 20
487.843048
 30
0.0
 11
1050.5
 21
487.843048
 31
0.0
  0
LINE
  5
41B
100
AcDbEntity
  8
LAY-1
  6
EXLTYPE2
 62
     1
100
AcDbLine
 10
1052.7
 20
486.572877
 30
0.0
 11
1052.7
 21
476.843048
 31
0.0
  0
LINE
  5
41C
100
AcDbEntity
  8
LAY-1
  6
EXLTYPE2
 62
     1
100
AcDbLine
 10
1033.649147
 20
486.572877
 30
0.0
 11
1033.649147
 21
476.843048
 31
0.0
  0
ARC
  5
41D
100
AcDbEntity
  8
LAY-1
  6
EXLTYPE2
 62
     1
100
AcDbCircle
 10
1040.0
 20
471.33083
 30
0.0
 40
16.512218
100
AcDbArc
 50
67.380135
 51
112.619865
  0
LINE
  5
41E
100
AcDbEntity
  8
LAY-1
  6
EXLTYPE2
 62
     1
100
AcDbLine
 10
1050.5
 20
487.843048
 30
0.0
 11
1052.7
 21
486.572877
 31
0.0
  0
LINE
  5
41F
100
AcDbEntity
  8
LAY-1
  6
EXLTYPE2
 62
     1
100
AcDbLine
 10
1046.350853
 20
486.572877
 30
0.0
 11
1046.350853
 21
476.843048
 31
0.0
  0
LINE
  5
420
100
AcDbEntity
  8
LAY-1
  6
EXLTYPE2
 62
     1
100
AcDbLine
 10
1029.5
 20
487.843048
 30
0.0
 11
1027.3
 21
486.572877
 31
0.0
  0
ARC
  5
421
100
AcDbEntity
  8
LAY-1
  6
EXLTYPE2
 62
     1
100
AcDbCircle
 10
1029.5
 20
480.422338
 30
0.0
 40
7.419201
100
AcDbArc
 50
55.996439
 51
90.0
  0
ARC
  5
422
100
AcDbEntity
  8
LAY-1
  6
EXLTYPE2
 62
     1
100
AcDbCircle
 10
1050.5
 20
480.422338
 30
0.0
 40
7.419201
100
AcDbArc
 50
90.0
 51
124.003561
  0
LINE
  5
423
100
AcDbEntity
  8
LAY-1
  6
EXLTYPE2
 62
     1
100
AcDbLine
 10
1047.0
 20
487.865313
 30
0.0
 11
1047.0
 21
512.75
 31
0.0
  0
LINE
  5
424
100
AcDbEntity
  8
LAY-1
  6
EXLTYPE2
 62
     1
100
AcDbLine
 10
1033.0
 20
512.75
 30
0.0
 11
1033.0
 21
487.924284
 31
0.0
  0
LINE
  5
425
100
AcDbEntity
  8
LAY-1
  6
EXLTYPE2
 62
     1
100
AcDbLine
 10
1027.971499
 20
513.185026
 30
0.0
 11
1027.971499
 21
513.194418
 31
0.0
  0
LINE
  5
426
100
AcDbEntity
  8
LAY-1
  6
EXLTYPE2
 62
     1
100
AcDbLine
 10
1029.0
 20
512.75
 30
0.0
 11
1027.3
 21
513.469051
 31
0.0
  0
ARC
  5
427
100
AcDbEntity
  8
LAY-1
  6
EXLTYPE2
 62
     1
100
AcDbCircle
 10
1030.475
 20
520.023581
 30
0.0
 40
7.273581
100
AcDbArc
 50
247.07303
 51
295.881497
  0
LINE
  5
428
100
AcDbEntity
  8
LAY-1
  6
EXLTYPE2
 62
     1
100
AcDbLine
 10
1027.971499
 20
513.185026
 30
0.0
 11
1027.971499
 21
513.194418
 31
0.0
  0
LINE
  5
429
100
AcDbEntity
  8
LAY-1
  6
EXLTYPE2
 62
     1
100
AcDbLine
 10
1027.971499
 20
513.194418
 30
0.0
 11
1027.971499
 21
513.185026
 31
0.0
  0
ARC
  5
42A
100
AcDbEntity
  8
LAY-1
  6
EXLTYPE2
 62
     1
100
AcDbCircle
 10
1049.525
 20
520.023581
 30
0.0
 40
7.273581
100
AcDbArc
 50
244.118503
 51
295.881497
  0
LINE
  5
42B
100
AcDbEntity
  8
LAY-1
  6
EXLTYPE2
 62
     1
100
AcDbLine
 10
1051.0
 20
512.75
 30
0.0
 11
1052.7
 21
513.469051
 31
0.0
  0
LINE
  5
42C
100
AcDbEntity
  8
LAY-1
  6
EXLTYPE2
 62
     1
100
AcDbLine
 10
1052.028501
 20
513.185026
 30
0.0
 11
1052.028501
 21
513.194418
 31
0.0
  0
LINE
  5
42D
100
AcDbEntity
  8
LAY-1
  6
EXLTYPE2
 62
     1
100
AcDbLine
 10
1052.028501
 20
513.194418
 30
0.0
 11
1052.028501
 21
513.185026
 31
0.0
  0
LINE
  5
42E
100
AcDbEntity
  8
LAY-1
  6
EXLTYPE2
 62
     1
100
AcDbLine
 10
1052.7
 20
521.030949
 30
0.0
 11
1052.7
 21
513.469051
 31
0.0
  0
LINE
  5
42F
100
AcDbEntity
  8
LAY-1
  6
EXLTYPE2
 62
     1
100
AcDbLine
 10
1051.0
 20
521.75
 30
0.0
 11
1052.7
 21
521.030949
 31
0.0
  0
ARC
  5
430
100
AcDbEntity
  8
LAY-1
  6
EXLTYPE2
 62
     1
100
AcDbCircle
 10
1049.525
 20
514.476419
 30
0.0
 40
7.273581
100
AcDbArc
 50
64.118503
 51
115.881497
  0
LINE
  5
431
100
AcDbEntity
  8
LAY-1
  6
EXLTYPE2
 62
     1
100
AcDbLine
 10
1051.0
 20
512.75
 30
0.0
 11
1029.0
 21
512.75
 31
0.0
  0
LINE
  5
432
100
AcDbEntity
  8
LAY-1
  6
EXLTYPE2
 62
     1
100
AcDbLine
 10
1029.0
 20
521.75
 30
0.0
 11
1051.0
 21
521.75
 31
0.0
  0
LINE
  5
433
100
AcDbEntity
  8
LAY-1
  6
EXLTYPE2
 62
     1
100
AcDbLine
 10
1027.3
 20
513.492845
 30
0.0
 11
1027.3
 21
521.030949
 31
0.0
  0
ARC
  5
434
100
AcDbEntity
  8
LAY-1
  6
EXLTYPE2
 62
     1
100
AcDbCircle
 10
1040.0
 20
493.75
 30
0.0
 40
28.0
100
AcDbArc
 50
76.892093
 51
103.107907
  0
LINE
  5
435
100
AcDbEntity
  8
LAY-1
  6
EXLTYPE2
 62
     1
100
AcDbLine
 10
1029.0
 20
521.75
 30
0.0
 11
1027.275181
 21
521.020451
 31
0.0
  0
ARC
  5
436
100
AcDbEntity
  8
LAY-1
  6
EXLTYPE2
 62
     1
100
AcDbCircle
 10
1030.475
 20
514.476419
 30
0.0
 40
7.273581
100
AcDbArc
 50
64.118503
 51
116.120405
  0
LINE
  5
437
100
AcDbEntity
  8
LAY-1
  6
EXLTYPE2
 62
     1
100
AcDbLine
 10
1046.35
 20
521.020451
 30
0.0
 11
1046.35
 21
513.479549
 31
0.0
  0
LINE
  5
438
100
AcDbEntity
  8
LAY-1
  6
EXLTYPE2
 62
     1
100
AcDbLine
 10
1033.65
 20
521.020451
 30
0.0
 11
1033.65
 21
513.479549
 31
0.0
  0
LINE
  5
439
100
AcDbEntity
  8
LAY-1
  6
EXLTYPE2
 62
     1
100
AcDbLine
 10
1029.0
 20
512.75
 30
0.0
 11
1051.0
 21
512.75
 31
0.0
  0
ARC
  5
43A
100
AcDbEntity
  8
LAY-1
  6
EXLTYPE2
 62
     1
100
AcDbCircle
 10
1040.0
 20
540.75
 30
0.0
 40
28.0
100
AcDbArc
 50
256.892093
 51
283.107907
  0
ARC
  5
43B
100
AcDbEntity
  8
LAY-1
  6
EXLTYPE2
 62
     1
100
AcDbCircle
 10
825.0
 20
725.0
 30
0.0
 40
28.0
100
AcDbArc
 50
166.892093
 51
193.107907
  0
LINE
  5
43C
100
AcDbEntity
  8
LAY-1
  6
EXLTYPE2
 62
     1
100
AcDbLine
 10
797.0
 20
736.0
 30
0.0
 11
797.0
 21
714.0
 31
0.0
  0
LINE
  5
43D
100
AcDbEntity
  8
LAY-1
  6
EXLTYPE2
 62
     1
100
AcDbLine
 10
805.270451
 20
731.35
 30
0.0
 11
797.729549
 21
731.35
 31
0.0
  0
LINE
  5
43E
100
AcDbEntity
  8
LAY-1
  6
EXLTYPE2
 62
     1
100
AcDbLine
 10
805.270451
 20
718.65
 30
0.0
 11
797.729549
 21
718.65
 31
0.0
  0
ARC
  5
43F
100
AcDbEntity
  8
LAY-1
  6
EXLTYPE2
 62
     1
100
AcDbCircle
 10
798.726419
 20
734.525
 30
0.0
 40
7.273581
100
AcDbArc
 50
334.118503
 51
26.120405
  0
LINE
  5
440
100
AcDbEntity
  8
LAY-1
  6
EXLTYPE2
 62
     1
100
AcDbLine
 10
806.0
 20
736.0
 30
0.0
 11
805.270451
 21
737.724819
 31
0.0
  0
ARC
  5
441
100
AcDbEntity
  8
LAY-1
  6
EXLTYPE2
 62
     1
100
AcDbCircle
 10
778.0
 20
725.0
 30
0.0
 40
28.0
100
AcDbArc
 50
346.892093
 51
13.107907
  0
LINE
  5
442
100
AcDbEntity
  8
LAY-1
  6
EXLTYPE2
 62
     1
100
AcDbLine
 10
797.742845
 20
737.7
 30
0.0
 11
805.280949
 21
737.7
 31
0.0
  0
LINE
  5
443
100
AcDbEntity
  8
LAY-1
  6
EXLTYPE2
 62
     1
100
AcDbLine
 10
806.0
 20
736.0
 30
0.0
 11
806.0
 21
714.0
 31
0.0
  0
LINE
  5
444
100
AcDbEntity
  8
LAY-1
  6
EXLTYPE2
 62
     1
100
AcDbLine
 10
797.0
 20
714.0
 30
0.0
 11
797.0
 21
736.0
 31
0.0
  0
ARC
  5
445
100
AcDbEntity
  8
LAY-1
  6
EXLTYPE2
 62
     1
100
AcDbCircle
 10
798.726419
 20
715.475
 30
0.0
 40
7.273581
100
AcDbArc
 50
334.118503
 51
25.881497
  0
LINE
  5
446
100
AcDbEntity
  8
LAY-1
  6
EXLTYPE2
 62
     1
100
AcDbLine
 10
806.0
 20
714.0
 30
0.0
 11
805.280949
 21
712.3
 31
0.0
  0
LINE
  5
447
100
AcDbEntity
  8
LAY-1
  6
EXLTYPE2
 62
     1
100
AcDbLine
 10
805.280949
 20
712.3
 30
0.0
 11
797.719051
 21
712.3
 31
0.0
  0
LINE
  5
448
100
AcDbEntity
  8
LAY-1
  6
EXLTYPE2
 62
     1
100
AcDbLine
 10
797.444418
 20
712.971499
 30
0.0
 11
797.435026
 21
712.971499
 31
0.0
  0
LINE
  5
449
100
AcDbEntity
  8
LAY-1
  6
EXLTYPE2
 62
     1
100
AcDbLine
 10
797.435026
 20
712.971499
 30
0.0
 11
797.444418
 21
712.971499
 31
0.0
  0
LINE
  5
44A
100
AcDbEntity
  8
LAY-1
  6
EXLTYPE2
 62
     1
100
AcDbLine
 10
797.0
 20
714.0
 30
0.0
 11
797.719051
 21
712.3
 31
0.0
  0
ARC
  5
44B
100
AcDbEntity
  8
LAY-1
  6
EXLTYPE2
 62
     1
100
AcDbCircle
 10
804.273581
 20
715.475
 30
0.0
 40
7.273581
100
AcDbArc
 50
154.118503
 51
205.881497
  0
LINE
  5
44C
100
AcDbEntity
  8
LAY-1
  6
EXLTYPE2
 62
     1
100
AcDbLine
 10
797.444418
 20
737.028501
 30
0.0
 11
797.435026
 21
737.028501
 31
0.0
  0
LINE
  5
44D
100
AcDbEntity
  8
LAY-1
  6
EXLTYPE2
 62
     1
100
AcDbLine
 10
797.435026
 20
737.028501
 30
0.0
 11
797.444418
 21
737.028501
 31
0.0
  0
ARC
  5
44E
100
AcDbEntity
  8
LAY-1
  6
EXLTYPE2
 62
     1
100
AcDbCircle
 10
804.273581
 20
734.525
 30
0.0
 40
7.273581
100
AcDbArc
 50
157.07303
 51
205.881497
  0
LINE
  5
44F
100
AcDbEntity
  8
LAY-1
  6
EXLTYPE2
 62
     1
100
AcDbLine
 10
797.0
 20
736.0
 30
0.0
 11
797.719051
 21
737.7
 31
0.0
  0
LINE
  5
450
100
AcDbEntity
  8
LAY-1
  6
EXLTYPE2
 62
     1
100
AcDbLine
 10
797.435026
 20
737.028501
 30
0.0
 11
797.444418
 21
737.028501
 31
0.0
  0
LINE
  5
451
100
AcDbEntity
  8
LAY-1
  6
EXLTYPE2
 62
     1
100
AcDbLine
 10
797.0
 20
732.0
 30
0.0
 11
772.174284
 21
732.0
 31
0.0
  0
LINE
  5
452
100
AcDbEntity
  8
LAY-1
  6
EXLTYPE2
 62
     1
100
AcDbLine
 10
772.115313
 20
718.0
 30
0.0
 11
797.0
 21
718.0
 31
0.0
  0
ARC
  5
453
100
AcDbEntity
  8
LAY-1
  6
EXLTYPE2
 62
     1
100
AcDbCircle
 10
764.672338
 20
714.5
 30
0.0
 40
7.419201
100
AcDbArc
 50
0.0
 51
34.003561
  0
ARC
  5
454
100
AcDbEntity
  8
LAY-1
  6
EXLTYPE2
 62
     1
100
AcDbCircle
 10
764.672338
 20
735.5
 30
0.0
 40
7.419201
100
AcDbArc
 50
325.996439
 51
0.0
  0
LINE
  5
455
100
AcDbEntity
  8
LAY-1
  6
EXLTYPE2
 62
     1
100
AcDbLine
 10
772.093048
 20
735.5
 30
0.0
 11
770.822877
 21
737.7
 31
0.0
  0
LINE
  5
456
100
AcDbEntity
  8
LAY-1
  6
EXLTYPE2
 62
     1
100
AcDbLine
 10
770.822877
 20
718.649147
 30
0.0
 11
761.093048
 21
718.649147
 31
0.0
  0
LINE
  5
457
100
AcDbEntity
  8
LAY-1
  6
EXLTYPE2
 62
     1
100
AcDbLine
 10
772.093048
 20
714.5
 30
0.0
 11
770.822877
 21
712.3
 31
0.0
  0
ARC
  5
458
100
AcDbEntity
  8
LAY-1
  6
EXLTYPE2
 62
     1
100
AcDbCircle
 10
755.58083
 20
725.0
 30
0.0
 40
16.512218
100
AcDbArc
 50
337.380135
 51
22.619865
  0
LINE
  5
459
100
AcDbEntity
  8
LAY-1
  6
EXLTYPE2
 62
     1
100
AcDbLine
 10
770.822877
 20
731.350853
 30
0.0
 11
761.093048
 21
731.350853
 31
0.0
  0
LINE
  5
45A
100
AcDbEntity
  8
LAY-1
  6
EXLTYPE2
 62
     1
100
AcDbLine
 10
770.822877
 20
712.3
 30
0.0
 11
761.093048
 21
712.3
 31
0.0
  0
LINE
  5
45B
100
AcDbEntity
  8
LAY-1
  6
EXLTYPE2
 62
     1
100
AcDbLine
 10
772.093048
 20
735.5
 30
0.0
 11
772.093048
 21
714.5
 31
0.0
  0
LINE
  5
45C
100
AcDbEntity
  8
LAY-1
  6
EXLTYPE2
 62
     1
100
AcDbLine
 10
761.093048
 20
737.7
 30
0.0
 11
770.822877
 21
737.7
 31
0.0
  0
LINE
  5
45D
100
AcDbEntity
  8
LAY-1
  6
EXLTYPE2
 62
     1
100
AcDbLine
 10
750.440956
 20
746.957121
 30
0.0
 11
749.684006
 21
751.25
 31
0.0
  0
ARC
  5
45E
100
AcDbEntity
  8
LAY-1
  6
EXLTYPE2
 62
     1
100
AcDbCircle
 10
752.410572
 20
747.304418
 30
0.0
 40
2.0
100
AcDbArc
 50
190.0
 51
268.0
  0
LINE
  5
45F
100
AcDbEntity
  8
LAY-1
  6
EXLTYPE2
 62
     1
100
AcDbLine
 10
760.127948
 20
745.033702
 30
0.0
 11
752.340773
 21
745.305636
 31
0.0
  0
LINE
  5
460
100
AcDbEntity
  8
LAY-1
  6
EXLTYPE2
 62
     1
100
AcDbLine
 10
761.093048
 20
725.0
 30
0.0
 11
761.093048
 21
705.965685
 31
0.0
  0
ARC
  5
461
100
AcDbEntity
  8
LAY-1
  6
EXLTYPE2
 62
     1
100
AcDbCircle
 10
760.093048
 20
705.965689
 30
0.0
 40
1.0
100
AcDbArc
 50
272.0
 51
0.0
  0
LINE
  5
462
100
AcDbEntity
  8
LAY-1
  6
EXLTYPE2
 62
     1
100
AcDbLine
 10
761.093048
 20
725.0
 30
0.0
 11
761.093048
 21
744.034315
 31
0.0
  0
ARC
  5
463
100
AcDbEntity
  8
LAY-1
  6
EXLTYPE2
 62
     1
100
AcDbCircle
 10
760.093048
 20
744.034311
 30
0.0
 40
1.0
100
AcDbArc
 50
0.0
 51
88.0
  0
ARC
  5
464
100
AcDbEntity
  8
LAY-1
  6
EXLTYPE2
 62
     1
100
AcDbCircle
 10
752.410572
 20
702.695582
 30
0.0
 40
2.0
100
AcDbArc
 50
92.0
 51
170.0
  0
LINE
  5
465
100
AcDbEntity
  8
LAY-1
  6
EXLTYPE2
 62
     1
100
AcDbLine
 10
760.127948
 20
704.966298
 30
0.0
 11
752.340773
 21
704.694364
 31
0.0
  0
LINE
  5
466
100
AcDbEntity
  8
LAY-1
  6
EXLTYPE2
 62
     1
100
AcDbLine
 10
750.440956
 20
703.042879
 30
0.0
 11
749.684006
 21
698.75
 31
0.0
  0
LINE
  5
467
100
AcDbEntity
  8
LAY-1
  6
EXLTYPE3
 62
     1
100
AcDbLine
 10
511.0
 20
613.9
 30
0.0
 11
511.0
 21
684.9
 31
0.0
  0
LINE
  5
468
100
AcDbEntity
  8
LAY-1
  6
EXLTYPE3
 62
     1
100
AcDbLine
 10
511.0
 20
844.5
 30
0.0
 11
511.0
 21
617.041467
 31
0.0
  0
ARC
  5
469
100
AcDbEntity
  8
LAY-1
  6
EXLTYPE2
 62
     1
100
AcDbCircle
 10
1255.0
 20
725.0
 30
0.0
 40
28.0
100
AcDbArc
 50
346.892093
 51
13.107907
  0
LINE
  5
46A
100
AcDbEntity
  8
LAY-1
  6
EXLTYPE2
 62
     1
100
AcDbLine
 10
1283.0
 20
736.0
 30
0.0
 11
1283.0
 21
714.0
 31
0.0
  0
LINE
  5
46B
100
AcDbEntity
  8
LAY-1
  6
EXLTYPE2
 62
     1
100
AcDbLine
 10
1274.729549
 20
731.35
 30
0.0
 11
1282.270451
 21
731.35
 31
0.0
  0
LINE
  5
46C
100
AcDbEntity
  8
LAY-1
  6
EXLTYPE2
 62
     1
100
AcDbLine
 10
1274.729549
 20
718.65
 30
0.0
 11
1282.270451
 21
718.65
 31
0.0
  0
ARC
  5
46D
100
AcDbEntity
  8
LAY-1
  6
EXLTYPE2
 62
     1
100
AcDbCircle
 10
1281.273581
 20
734.525
 30
0.0
 40
7.273581
100
AcDbArc
 50
153.879595
 51
205.881497
  0
LINE
  5
46E
100
AcDbEntity
  8
LAY-1
  6
EXLTYPE2
 62
     1
100
AcDbLine
 10
1274.0
 20
736.0
 30
0.0
 11
1274.729549
 21
737.724819
 31
0.0
  0
ARC
  5
46F
100
AcDbEntity
  8
LAY-1
  6
EXLTYPE2
 62
     1
100
AcDbCircle
 10
1302.0
 20
725.0
 30
0.0
 40
28.0
100
AcDbArc
 50
166.892093
 51
193.107907
  0
LINE
  5
470
100
AcDbEntity
  8
LAY-1
  6
EXLTYPE2
 62
     1
100
AcDbLine
 10
1282.257155
 20
737.7
 30
0.0
 11
1274.719051
 21
737.7
 31
0.0
  0
LINE
  5
471
100
AcDbEntity
  8
LAY-1
  6
EXLTYPE2
 62
     1
100
AcDbLine
 10
1274.0
 20
736.0
 30
0.0
 11
1274.0
 21
714.0
 31
0.0
  0
LINE
  5
472
100
AcDbEntity
  8
LAY-1
  6
EXLTYPE2
 62
     1
100
AcDbLine
 10
1283.0
 20
714.0
 30
0.0
 11
1283.0
 21
736.0
 31
0.0
  0
ARC
  5
473
100
AcDbEntity
  8
LAY-1
  6
EXLTYPE2
 62
     1
100
AcDbCircle
 10
1281.273581
 20
715.475
 30
0.0
 40
7.273581
100
AcDbArc
 50
154.118503
 51
205.881497
  0
LINE
  5
474
100
AcDbEntity
  8
LAY-1
  6
EXLTYPE2
 62
     1
100
AcDbLine
 10
1274.0
 20
714.0
 30
0.0
 11
1274.719051
 21
712.3
 31
0.0
  0
LINE
  5
475
100
AcDbEntity
  8
LAY-1
  6
EXLTYPE2
 62
     1
100
AcDbLine
 10
1274.719051
 20
712.3
 30
0.0
 11
1282.280949
 21
712.3
 31
0.0
  0
LINE
  5
476
100
AcDbEntity
  8
LAY-1
  6
EXLTYPE2
 62
     1
100
AcDbLine
 10
1282.555582
 20
712.971499
 30
0.0
 11
1282.564974
 21
712.971499
 31
0.0
  0
LINE
  5
477
100
AcDbEntity
  8
LAY-1
  6
EXLTYPE2
 62
     1
100
AcDbLine
 10
1282.564974
 20
712.971499
 30
0.0
 11
1282.555582
 21
712.971499
 31
0.0
  0
LINE
  5
478
100
AcDbEntity
  8
LAY-1
  6
EXLTYPE2
 62
     1
100
AcDbLine
 10
1283.0
 20
714.0
 30
0.0
 11
1282.280949
 21
712.3
 31
0.0
  0
ARC
  5
479
100
AcDbEntity
  8
LAY-1
  6
EXLTYPE2
 62
     1
100
AcDbCircle
 10
1275.726419
 20
715.475
 30
0.0
 40
7.273581
100
AcDbArc
 50
334.118503
 51
25.881497
  0
LINE
  5
47A
100
AcDbEntity
  8
LAY-1
  6
EXLTYPE2
 62
     1
100
AcDbLine
 10
1282.555582
 20
737.028501
 30
0.0
 11
1282.564974
 21
737.028501
 31
0.0
  0
LINE
  5
47B
100
AcDbEntity
  8
LAY-1
  6
EXLTYPE2
 62
     1
100
AcDbLine
 10
1282.564974
 20
737.028501
 30
0.0
 11
1282.555582
 21
737.028501
 31
0.0
  0
ARC
  5
47C
100
AcDbEntity
  8
LAY-1
  6
EXLTYPE2
 62
     1
100
AcDbCircle
 10
1275.726419
 20
734.525
 30
0.0
 40
7.273581
100
AcDbArc
 50
334.118503
 51
22.92697
  0
LINE
  5
47D
100
AcDbEntity
  8
LAY-1
  6
EXLTYPE2
 62
     1
100
AcDbLine
 10
1283.0
 20
736.0
 30
0.0
 11
1282.280949
 21
737.7
 31
0.0
  0
LINE
  5
47E
100
AcDbEntity
  8
LAY-1
  6
EXLTYPE2
 62
     1
100
AcDbLine
 10
1282.564974
 20
737.028501
 30
0.0
 11
1282.555582
 21
737.028501
 31
0.0
  0
LINE
  5
47F
100
AcDbEntity
  8
LAY-1
  6
EXLTYPE2
 62
     1
100
AcDbLine
 10
1283.0
 20
732.0
 30
0.0
 11
1307.825716
 21
732.0
 31
0.0
  0
LINE
  5
480
100
AcDbEntity
  8
LAY-1
  6
EXLTYPE2
 62
     1
100
AcDbLine
 10
1307.884687
 20
718.0
 30
0.0
 11
1283.0
 21
718.0
 31
0.0
  0
ARC
  5
481
100
AcDbEntity
  8
LAY-1
  6
EXLTYPE2
 62
     1
100
AcDbCircle
 10
1315.327662
 20
714.5
 30
0.0
 40
7.419201
100
AcDbArc
 50
145.996439
 51
180.0
  0
ARC
  5
482
100
AcDbEntity
  8
LAY-1
  6
EXLTYPE2
 62
     1
100
AcDbCircle
 10
1315.327662
 20
735.5
 30
0.0
 40
7.419201
100
AcDbArc
 50
180.0
 51
214.003561
  0
LINE
  5
483
100
AcDbEntity
  8
LAY-1
  6
EXLTYPE2
 62
     1
100
AcDbLine
 10
1307.906952
 20
735.5
 30
0.0
 11
1309.177123
 21
737.7
 31
0.0
  0
LINE
  5
484
100
AcDbEntity
  8
LAY-1
  6
EXLTYPE2
 62
     1
100
AcDbLine
 10
1309.177123
 20
718.649147
 30
0.0
 11
1318.906952
 21
718.649147
 31
0.0
  0
LINE
  5
485
100
AcDbEntity
  8
LAY-1
  6
EXLTYPE2
 62
     1
100
AcDbLine
 10
1307.906952
 20
714.5
 30
0.0
 11
1309.177123
 21
712.3
 31
0.0
  0
ARC
  5
486
100
AcDbEntity
  8
LAY-1
  6
EXLTYPE2
 62
     1
100
AcDbCircle
 10
1324.41917
 20
725.0
 30
0.0
 40
16.512218
100
AcDbArc
 50
157.380135
 51
202.619865
  0
LINE
  5
487
100
AcDbEntity
  8
LAY-1
  6
EXLTYPE2
 62
     1
100
AcDbLine
 10
1309.177123
 20
731.350853
 30
0.0
 11
1318.906952
 21
731.350853
 31
0.0
  0
LINE
  5
488
100
AcDbEntity
  8
LAY-1
  6
EXLTYPE2
 62
     1
100
AcDbLine
 10
1309.177123
 20
712.3
 30
0.0
 11
1318.906952
 21
712.3
 31
0.0
  0
LINE
  5
489
100
AcDbEntity
  8
LAY-1
  6
EXLTYPE2
 62
     1
100
AcDbLine
 10
1307.906952
 20
735.5
 30
0.0
 11
1307.906952
 21
714.5
 31
0.0
  0
LINE
  5
48A
100
AcDbEntity
  8
LAY-1
  6
EXLTYPE2
 62
     1
100
AcDbLine
 10
1318.906952
 20
737.7
 30
0.0
 11
1309.177123
 21
737.7
 31
0.0
  0
LINE
  5
48B
100
AcDbEntity
  8
LAY-1
  6
EXLTYPE2
 62
     1
100
AcDbLine
 10
1329.559044
 20
746.957121
 30
0.0
 11
1330.315994
 21
751.25
 31
0.0
  0
ARC
  5
48C
100
AcDbEntity
  8
LAY-1
  6
EXLTYPE2
 62
     1
100
AcDbCircle
 10
1327.589428
 20
747.304418
 30
0.0
 40
2.0
100
AcDbArc
 50
272.0
 51
350.0
  0
LINE
  5
48D
100
AcDbEntity
  8
LAY-1
  6
EXLTYPE2
 62
     1
100
AcDbLine
 10
1319.872052
 20
745.033702
 30
0.0
 11
1327.659227
 21
745.305636
 31
0.0
  0
LINE
  5
48E
100
AcDbEntity
  8
LAY-1
  6
EXLTYPE2
 62
     1
100
AcDbLine
 10
1318.906952
 20
725.0
 30
0.0
 11
1318.906952
 21
705.965685
 31
0.0
  0
ARC
  5
48F
100
AcDbEntity
  8
LAY-1
  6
EXLTYPE2
 62
     1
100
AcDbCircle
 10
1319.906952
 20
705.965689
 30
0.0
 40
1.0
100
AcDbArc
 50
180.0
 51
268.0
  0
LINE
  5
490
100
AcDbEntity
  8
LAY-1
  6
EXLTYPE2
 62
     1
100
AcDbLine
 10
1318.906952
 20
725.0
 30
0.0
 11
1318.906952
 21
744.034315
 31
0.0
  0
ARC
  5
491
100
AcDbEntity
  8
LAY-1
  6
EXLTYPE2
 62
     1
100
AcDbCircle
 10
1319.906952
 20
744.034311
 30
0.0
 40
1.0
100
AcDbArc
 50
92.0
 51
180.0
  0
ARC
  5
492
100
AcDbEntity
  8
LAY-1
  6
EXLTYPE2
 62
     1
100
AcDbCircle
 10
1327.589428
 20
702.695582
 30
0.0
 40
2.0
100
AcDbArc
 50
10.0
 51
88.0
  0
LINE
  5
493
100
AcDbEntity
  8
LAY-1
  6
EXLTYPE2
 62
     1
100
AcDbLine
 10
1319.872052
 20
704.966298
 30
0.0
 11
1327.659227
 21
704.694364
 31
0.0
  0
LINE
  5
494
100
AcDbEntity
  8
LAY-1
  6
EXLTYPE2
 62
     1
100
AcDbLine
 10
1329.559044
 20
703.042879
 30
0.0
 11
1330.315994
 21
698.75
 31
0.0
  0
LINE
  5
495
100
AcDbEntity
  8
LAY-1
  6
EXLTYPE3
 62
     1
100
AcDbLine
 10
1569.0
 20
613.9
 30
0.0
 11
1569.0
 21
684.9
 31
0.0
  0
LINE
  5
496
100
AcDbEntity
  8
LAY-1
  6
EXLTYPE3
 62
     1
100
AcDbLine
 10
1569.0
 20
844.5
 30
0.0
 11
1569.0
 21
617.041467
 31
0.0
  0
LINE
  5
497
100
AcDbEntity
  8
LAY-1
  6
EXLTYPE2
 62
     1
100
AcDbLine
 10
1060.033702
 20
974.122052
 30
0.0
 11
1060.305636
 21
981.909227
 31
0.0
  0
ARC
  5
498
100
AcDbEntity
  8
LAY-1
  6
EXLTYPE2
 62
     1
100
AcDbCircle
 10
1020.965689
 20
974.156952
 30
0.0
 40
1.0
100
AcDbArc
 50
182.0
 51
270.0
  0
LINE
  5
499
100
AcDbEntity
  8
LAY-1
  6
EXLTYPE2
 62
     1
100
AcDbLine
 10
1040.0
 20
973.156952
 30
0.0
 11
1020.965685
 21
973.156952
 31
0.0
  0
ARC
  5
49A
100
AcDbEntity
  8
LAY-1
  6
EXLTYPE2
 62
     1
100
AcDbCircle
 10
1059.034311
 20
974.156952
 30
0.0
 40
1.0
100
AcDbArc
 50
270.0
 51
358.0
  0
LINE
  5
49B
100
AcDbEntity
  8
LAY-1
  6
EXLTYPE2
 62
     1
100
AcDbLine
 10
1040.0
 20
973.156952
 30
0.0
 11
1059.034315
 21
973.156952
 31
0.0
  0
LINE
  5
49C
100
AcDbEntity
  8
LAY-1
  6
EXLTYPE2
 62
     1
100
AcDbLine
 10
1019.966298
 20
974.122052
 30
0.0
 11
1019.694364
 21
981.909227
 31
0.0
  0
LINE
  5
49D
100
AcDbEntity
  8
LAY-1
  6
EXLTYPE2
 62
     1
100
AcDbLine
 10
1027.3
 20
973.156952
 30
0.0
 11
1027.3
 21
963.427123
 31
0.0
  0
LINE
  5
49E
100
AcDbEntity
  8
LAY-1
  6
EXLTYPE2
 62
     1
100
AcDbLine
 10
1029.5
 20
962.156952
 30
0.0
 11
1050.5
 21
962.156952
 31
0.0
  0
LINE
  5
49F
100
AcDbEntity
  8
LAY-1
  6
EXLTYPE2
 62
     1
100
AcDbLine
 10
1052.7
 20
963.427123
 30
0.0
 11
1052.7
 21
973.156952
 31
0.0
  0
LINE
  5
4A0
100
AcDbEntity
  8
LAY-1
  6
EXLTYPE2
 62
     1
100
AcDbLine
 10
1033.649147
 20
963.427123
 30
0.0
 11
1033.649147
 21
973.156952
 31
0.0
  0
ARC
  5
4A1
100
AcDbEntity
  8
LAY-1
  6
EXLTYPE2
 62
     1
100
AcDbCircle
 10
1040.0
 20
978.66917
 30
0.0
 40
16.512218
100
AcDbArc
 50
247.380135
 51
292.619865
  0
LINE
  5
4A2
100
AcDbEntity
  8
LAY-1
  6
EXLTYPE2
 62
     1
100
AcDbLine
 10
1050.5
 20
962.156952
 30
0.0
 11
1052.7
 21
963.427123
 31
0.0
  0
LINE
  5
4A3
100
AcDbEntity
  8
LAY-1
  6
EXLTYPE2
 62
     1
100
AcDbLine
 10
1046.350853
 20
963.427123
 30
0.0
 11
1046.350853
 21
973.156952
 31
0.0
  0
LINE
  5
4A4
100
AcDbEntity
  8
LAY-1
  6
EXLTYPE2
 62
     1
100
AcDbLine
 10
1029.5
 20
962.156952
 30
0.0
 11
1027.3
 21
963.427123
 31
0.0
  0
ARC
  5
4A5
100
AcDbEntity
  8
LAY-1
  6
EXLTYPE2
 62
     1
100
AcDbCircle
 10
1029.5
 20
969.577662
 30
0.0
 40
7.419201
100
AcDbArc
 50
270.0
 51
304.003561
  0
ARC
  5
4A6
100
AcDbEntity
  8
LAY-1
  6
EXLTYPE2
 62
     1
100
AcDbCircle
 10
1050.5
 20
969.577662
 30
0.0
 40
7.419201
100
AcDbArc
 50
235.996439
 51
270.0
  0
LINE
  5
4A7
100
AcDbEntity
  8
LAY-1
  6
EXLTYPE2
 62
     1
100
AcDbLine
 10
1047.0
 20
962.134687
 30
0.0
 11
1047.0
 21
937.25
 31
0.0
  0
LINE
  5
4A8
100
AcDbEntity
  8
LAY-1
  6
EXLTYPE2
 62
     1
100
AcDbLine
 10
1033.0
 20
937.25
 30
0.0
 11
1033.0
 21
962.075716
 31
0.0
  0
LINE
  5
4A9
100
AcDbEntity
  8
LAY-1
  6
EXLTYPE2
 62
     1
100
AcDbLine
 10
1027.971499
 20
936.814974
 30
0.0
 11
1027.971499
 21
936.805582
 31
0.0
  0
LINE
  5
4AA
100
AcDbEntity
  8
LAY-1
  6
EXLTYPE2
 62
     1
100
AcDbLine
 10
1029.0
 20
937.25
 30
0.0
 11
1027.3
 21
936.530949
 31
0.0
  0
ARC
  5
4AB
100
AcDbEntity
  8
LAY-1
  6
EXLTYPE2
 62
     1
100
AcDbCircle
 10
1030.475
 20
929.976419
 30
0.0
 40
7.273581
100
AcDbArc
 50
64.118503
 51
112.92697
  0
LINE
  5
4AC
100
AcDbEntity
  8
LAY-1
  6
EXLTYPE2
 62
     1
100
AcDbLine
 10
1027.971499
 20
936.814974
 30
0.0
 11
1027.971499
 21
936.805582
 31
0.0
  0
LINE
  5
4AD
100
AcDbEntity
  8
LAY-1
  6
EXLTYPE2
 62
     1
100
AcDbLine
 10
1027.971499
 20
936.805582
 30
0.0
 11
1027.971499
 21
936.814974
 31
0.0
  0
ARC
  5
4AE
100
AcDbEntity
  8
LAY-1
  6
EXLTYPE2
 62
     1
100
AcDbCircle
 10
1049.525
 20
929.976419
 30
0.0
 40
7.273581
100
AcDbArc
 50
64.118503
 51
115.881497
  0
LINE
  5
4AF
100
AcDbEntity
  8
LAY-1
  6
EXLTYPE2
 62
     1
100
AcDbLine
 10
1051.0
 20
937.25
 30
0.0
 11
1052.7
 21
936.530949
 31
0.0
  0
LINE
  5
4B0
100
AcDbEntity
  8
LAY-1
  6
EXLTYPE2
 62
     1
100
AcDbLine
 10
1052.028501
 20
936.814974
 30
0.0
 11
1052.028501
 21
936.805582
 31
0.0
  0
LINE
  5
4B1
100
AcDbEntity
  8
LAY-1
  6
EXLTYPE2
 62
     1
100
AcDbLine
 10
1052.028501
 20
936.805582
 30
0.0
 11
1052.028501
 21
936.814974
 31
0.0
  0
LINE
  5
4B2
100
AcDbEntity
  8
LAY-1
  6
EXLTYPE2
 62
     1
100
AcDbLine
 10
1052.7
 20
928.969051
 30
0.0
 11
1052.7
 21
936.530949
 31
0.0
  0
LINE
  5
4B3
100
AcDbEntity
  8
LAY-1
  6
EXLTYPE2
 62
     1
100
AcDbLine
 10
1051.0
 20
928.25
 30
0.0
 11
1052.7
 21
928.969051
 31
0.0
  0
ARC
  5
4B4
100
AcDbEntity
  8
LAY-1
  6
EXLTYPE2
 62
     1
100
AcDbCircle
 10
1049.525
 20
935.523581
 30
0.0
 40
7.273581
100
AcDbArc
 50
244.118503
 51
295.881497
  0
LINE
  5
4B5
100
AcDbEntity
  8
LAY-1
  6
EXLTYPE2
 62
     1
100
AcDbLine
 10
1051.0
 20
937.25
 30
0.0
 11
1029.0
 21
937.25
 31
0.0
  0
LINE
  5
4B6
100
AcDbEntity
  8
LAY-1
  6
EXLTYPE2
 62
     1
100
AcDbLine
 10
1029.0
 20
928.25
 30
0.0
 11
1051.0
 21
928.25
 31
0.0
  0
LINE
  5
4B7
100
AcDbEntity
  8
LAY-1
  6
EXLTYPE2
 62
     1
100
AcDbLine
 10
1027.3
 20
936.507155
 30
0.0
 11
1027.3
 21
928.969051
 31
0.0
  0
ARC
  5
4B8
100
AcDbEntity
  8
LAY-1
  6
EXLTYPE2
 62
     1
100
AcDbCircle
 10
1040.0
 20
956.25
 30
0.0
 40
28.0
100
AcDbArc
 50
256.892093
 51
283.107907
  0
LINE
  5
4B9
100
AcDbEntity
  8
LAY-1
  6
EXLTYPE2
 62
     1
100
AcDbLine
 10
1029.0
 20
928.25
 30
0.0
 11
1027.275181
 21
928.979549
 31
0.0
  0
ARC
  5
4BA
100
AcDbEntity
  8
LAY-1
  6
EXLTYPE2
 62
     1
100
AcDbCircle
 10
1030.475
 20
935.523581
 30
0.0
 40
7.273581
100
AcDbArc
 50
243.879595
 51
295.881497
  0
LINE
  5
4BB
100
AcDbEntity
  8
LAY-1
  6
EXLTYPE2
 62
     1
100
AcDbLine
 10
1046.35
 20
928.979549
 30
0.0
 11
1046.35
 21
936.520451
 31
0.0
  0
LINE
  5
4BC
100
AcDbEntity
  8
LAY-1
  6
EXLTYPE2
 62
     1
100
AcDbLine
 10
1033.65
 20
928.979549
 30
0.0
 11
1033.65
 21
936.520451
 31
0.0
  0
LINE
  5
4BD
100
AcDbEntity
  8
LAY-1
  6
EXLTYPE2
 62
     1
100
AcDbLine
 10
1029.0
 20
937.25
 30
0.0
 11
1051.0
 21
937.25
 31
0.0
  0
ARC
  5
4BE
100
AcDbEntity
  8
LAY-1
  6
EXLTYPE2
 62
     1
100
AcDbCircle
 10
1040.0
 20
909.25
 30
0.0
 40
28.0
100
AcDbArc
 50
76.892093
 51
103.107907
  0
LINE
  5
4BF
100
AcDbEntity
  8
LAY-1
  6
EXLTYPE3
 62
     1
100
AcDbLine
 10
838.0
 20
725.0
 30
0.0
 11
452.486793
 21
725.0
 31
0.0
  0
LINE
  5
4C0
100
AcDbEntity
  8
LAY-1
  6
EXLTYPE3
 62
     1
100
AcDbLine
 10
1246.5
 20
725.0
 30
0.0
 11
1627.513207
 21
725.0
 31
0.0
  0
LINE
  5
4C1
100
AcDbEntity
  8
LAY-1
  6
EXLTYPE2
 62
     1
100
AcDbLine
 10
1018.042879
 20
983.559044
 30
0.0
 11
1013.75
 21
984.315994
 31
0.0
  0
ARC
  5
4C2
100
AcDbEntity
  8
LAY-1
  6
EXLTYPE2
 62
     1
100
AcDbCircle
 10
1017.695582
 20
981.589428
 30
0.0
 40
2.0
100
AcDbArc
 50
2.0
 51
80.0
  0
LINE
  5
4C3
100
AcDbEntity
  8
LAY-1
  6
EXLTYPE2
 62
     1
100
AcDbLine
 10
1019.966298
 20
973.872052
 30
0.0
 11
1019.694364
 21
981.659227
 31
0.0
  0
LINE
  5
4C4
100
AcDbEntity
  8
LAY-1
  6
EXLTYPE2
 62
     1
100
AcDbLine
 10
1061.957121
 20
983.559044
 30
0.0
 11
1066.25
 21
984.315994
 31
0.0
  0
ARC
  5
4C5
100
AcDbEntity
  8
LAY-1
  6
EXLTYPE2
 62
     1
100
AcDbCircle
 10
1062.304418
 20
981.589428
 30
0.0
 40
2.0
100
AcDbArc
 50
100.0
 51
178.0
  0
LINE
  5
4C6
100
AcDbEntity
  8
LAY-1
  6
EXLTYPE2
 62
     1
100
AcDbLine
 10
1060.033702
 20
973.872052
 30
0.0
 11
1060.305636
 21
981.659227
 31
0.0
  0
LINE
  5
4C7
100
AcDbEntity
  8
LAY-1
  6
EXLTYPE2
 62
     1
100
AcDbLine
 10
1061.957121
 20
466.440956
 30
0.0
 11
1066.25
 21
465.684006
 31
0.0
  0
ARC
  5
4C8
100
AcDbEntity
  8
LAY-1
  6
EXLTYPE2
 62
     1
100
AcDbCircle
 10
1062.304418
 20
468.410572
 30
0.0
 40
2.0
100
AcDbArc
 50
182.0
 51
260.0
  0
LINE
  5
4C9
100
AcDbEntity
  8
LAY-1
  6
EXLTYPE2
 62
     1
100
AcDbLine
 10
1060.033702
 20
476.127948
 30
0.0
 11
1060.305636
 21
468.340773
 31
0.0
  0
LINE
  5
4CA
100
AcDbEntity
  8
LAY-1
  6
EXLTYPE2
 62
     1
100
AcDbLine
 10
1018.042879
 20
466.440956
 30
0.0
 11
1013.75
 21
465.684006
 31
0.0
  0
ARC
  5
4CB
100
AcDbEntity
  8
LAY-1
  6
EXLTYPE2
 62
     1
100
AcDbCircle
 10
1017.695582
 20
468.410572
 30
0.0
 40
2.0
100
AcDbArc
 50
280.0
 51
358.0
  0
LINE
  5
4CC
100
AcDbEntity
  8
LAY-1
  6
EXLTYPE2
 62
     1
100
AcDbLine
 10
1019.966298
 20
476.127948
 30
0.0
 11
1019.694364
 21
468.340773
 31
0.0
  0
LINE
  5
4CD
100
AcDbEntity
  8
LAY-1
  6
EXLTYPE3
 62
     1
100
AcDbLine
 10
1040.0
 20
844.5
 30
0.0
 11
1040.0
 21
611.0
 31
0.0
  0
LINE
  5
4CE
100
AcDbEntity
  8
LAY-1
  6
EXLTYPE3
 62
     1
100
AcDbLine
 10
1147.87784
 20
725.0
 30
0.0
 11
932.12216
 21
725.0
 31
0.0
  0
LINE
  5
4CF
100
AcDbEntity
  8
LAY-1
  6
EXLTYPE3
 62
     1
100
AcDbLine
 10
1040.0
 20
1289.515669
 30
0.0
 11
1040.0
 21
893.515669
 31
0.0
  0
LINE
  5
4D0
100
AcDbEntity
  8
LAY-1
  6
EXLTYPE3
 62
     1
100
AcDbLine
 10
1123.120359
 20
1223.0
 30
0.0
 11
956.879641
 21
1223.0
 31
0.0
  0
LINE
  5
4D1
100
AcDbEntity
  8
LAY-1
  6
EXLTYPE3
 62
     1
100
AcDbLine
 10
1040.0
 20
160.484331
 30
0.0
 11
1040.0
 21
556.484331
 31
0.0
  0
LINE
  5
4D2
100
AcDbEntity
  8
LAY-1
  6
EXLTYPE3
 62
     1
100
AcDbLine
 10
1123.120359
 20
227.0
 30
0.0
 11
956.879641
 21
227.0
 31
0.0
  0
LINE
  5
4D3
100
AcDbEntity
  8
LAY-1
  6
EXLTYPE3
 62
     1
100
AcDbLine
 10
612.093048
 20
738.015669
 30
0.0
 11
612.093048
 21
711.715669
 31
0.0
  0
CIRCLE
  5
4D4
100
AcDbEntity
  8
LAY-1
  6
CONTINUOUS
 62
     1
100
AcDbCircle
 10
612.093048
 20
725.0
 30
0.0
 40
6.6
  0
LINE
  5
4D5
100
AcDbEntity
  8
LAY-1
  6
CONTINUOUS
 62
     2
100
AcDbLine
 10
461.0
 20
811.0
 30
0.0
 11
561.0
 21
811.0
 31
0.0
  0
LINE
  5
4D6
100
AcDbEntity
  8
LAY-1
  6
CONTINUOUS
 62
     2
100
AcDbLine
 10
511.0
 20
825.0
 30
0.0
 11
461.0
 21
825.0
 31
0.0
  0
LINE
  5
4D7
100
AcDbEntity
  8
LAY-1
  6
CONTINUOUS
 62
     2
100
AcDbLine
 10
511.0
 20
825.0
 30
0.0
 11
561.0
 21
825.0
 31
0.0
  0
LINE
  5
4D8
100
AcDbEntity
  8
LAY-1
  6
CONTINUOUS
 62
     2
100
AcDbLine
 10
561.0
 20
811.0
 30
0.0
 11
561.0
 21
825.0
 31
0.0
  0
LINE
  5
4D9
100
AcDbEntity
  8
LAY-1
  6
CONTINUOUS
 62
     2
100
AcDbLine
 10
461.0
 20
811.0
 30
0.0
 11
461.0
 21
825.0
 31
0.0
  0
ARC
  5
4DA
100
AcDbEntity
  8
LAY-1
  6
CONTINUOUS
 62
     2
100
AcDbCircle
 10
483.5
 20
801.0
 30
0.0
 40
10.0
100
AcDbArc
 50
0.0
 51
90.0
  0
ARC
  5
4DB
100
AcDbEntity
  8
LAY-1
  6
CONTINUOUS
 62
     2
100
AcDbCircle
 10
538.5
 20
801.0
 30
0.0
 40
10.0
100
AcDbArc
 50
90.0
 51
180.0
  0
LINE
  5
4DC
100
AcDbEntity
  8
LAY-1
  6
CONTINUOUS
 62
     2
100
AcDbLine
 10
528.5
 20
801.0
 30
0.0
 11
528.5
 21
784.302192
 31
0.0
  0
LINE
  5
4DD
100
AcDbEntity
  8
LAY-1
  6
CONTINUOUS
 62
     2
100
AcDbLine
 10
493.5
 20
801.0
 30
0.0
 11
493.5
 21
781.98026
 31
0.0
  0
LINE
  5
4DE
100
AcDbEntity
  8
LAY-1
  6
CONTINUOUS
 62
     2
100
AcDbLine
 10
489.23514
 20
777.908108
 30
0.0
 11
481.56816
 21
806.521667
 31
0.0
  0
LINE
  5
4DF
100
AcDbEntity
  8
LAY-1
  6
CONTINUOUS
 62
     2
100
AcDbLine
 10
532.76486
 20
777.908108
 30
0.0
 11
540.43184
 21
806.521667
 31
0.0
  0
ARC
  5
4E0
100
AcDbEntity
  8
LAY-1
  6
CONTINUOUS
 62
     2
100
AcDbCircle
 10
548.769177
 20
801.0
 30
0.0
 40
10.0
100
AcDbArc
 50
90.0
 51
146.484213
  0
ARC
  5
4E1
100
AcDbEntity
  8
LAY-1
  6
CONTINUOUS
 62
     2
100
AcDbCircle
 10
473.230823
 20
801.0
 30
0.0
 40
10.0
100
AcDbArc
 50
33.515787
 51
90.0
  0
LINE
  5
4E2
100
AcDbEntity
  8
LAY-1
  6
CONTINUOUS
 62
     2
100
AcDbLine
 10
1619.0
 20
811.0
 30
0.0
 11
1519.0
 21
811.0
 31
0.0
  0
LINE
  5
4E3
100
AcDbEntity
  8
LAY-1
  6
CONTINUOUS
 62
     2
100
AcDbLine
 10
1569.0
 20
825.0
 30
0.0
 11
1619.0
 21
825.0
 31
0.0
  0
LINE
  5
4E4
100
AcDbEntity
  8
LAY-1
  6
CONTINUOUS
 62
     2
100
AcDbLine
 10
1569.0
 20
825.0
 30
0.0
 11
1519.0
 21
825.0
 31
0.0
  0
LINE
  5
4E5
100
AcDbEntity
  8
LAY-1
  6
CONTINUOUS
 62
     2
100
AcDbLine
 10
1519.0
 20
811.0
 30
0.0
 11
1519.0
 21
825.0
 31
0.0
  0
LINE
  5
4E6
100
AcDbEntity
  8
LAY-1
  6
CONTINUOUS
 62
     2
100
AcDbLine
 10
1619.0
 20
811.0
 30
0.0
 11
1619.0
 21
825.0
 31
0.0
  0
ARC
  5
4E7
100
AcDbEntity
  8
LAY-1
  6
CONTINUOUS
 62
     2
100
AcDbCircle
 10
1596.5
 20
801.0
 30
0.0
 40
10.0
100
AcDbArc
 50
90.0
 51
180.0
  0
ARC
  5
4E8
100
AcDbEntity
  8
LAY-1
  6
CONTINUOUS
 62
     2
100
AcDbCircle
 10
1541.5
 20
801.0
 30
0.0
 40
10.0
100
AcDbArc
 50
0.0
 51
90.0
  0
LINE
  5
4E9
100
AcDbEntity
  8
LAY-1
  6
CONTINUOUS
 62
     2
100
AcDbLine
 10
1551.5
 20
801.0
 30
0.0
 11
1551.5
 21
784.302192
 31
0.0
  0
ARC
  5
4EA
100
AcDbEntity
  8
LAY-1
  6
CONTINUOUS
 62
     2
100
AcDbCircle
 10
1531.230823
 20
801.0
 30
0.0
 40
10.0
100
AcDbArc
 50
33.515787
 51
90.0
  0
ARC
  5
4EB
100
AcDbEntity
  8
LAY-1
  6
CONTINUOUS
 62
     2
100
AcDbCircle
 10
1606.769177
 20
801.0
 30
0.0
 40
10.0
100
AcDbArc
 50
90.0
 51
146.484213
  0
LINE
  5
4EC
100
AcDbEntity
  8
LAY-1
  6
CONTINUOUS
 62
     2
100
AcDbLine
 10
1547.23514
 20
777.908108
 30
0.0
 11
1539.56816
 21
806.521667
 31
0.0
  0
LINE
  5
4ED
100
AcDbEntity
  8
LAY-1
  6
CONTINUOUS
 62
     2
100
AcDbLine
 10
1551.5
 20
801.0
 30
0.0
 11
1551.5
 21
784.302192
 31
0.0
  0
LINE
  5
4EE
100
AcDbEntity
  8
LAY-1
  6
CONTINUOUS
 62
     2
100
AcDbLine
 10
1586.5
 20
801.0
 30
0.0
 11
1586.5
 21
781.98026
 31
0.0
  0
LINE
  5
4EF
100
AcDbEntity
  8
LAY-1
  6
CONTINUOUS
 62
     2
100
AcDbLine
 10
1590.76486
 20
777.908108
 30
0.0
 11
1598.43184
 21
806.521667
 31
0.0
  0
LINE
  5
4F0
100
AcDbEntity
  8
LAY-1
  6
CONTINUOUS
 62
     2
100
AcDbLine
 10
1090.0
 20
811.0
 30
0.0
 11
1066.532998
 21
811.0
 31
0.0
  0
LINE
  5
4F1
100
AcDbEntity
  8
LAY-1
  6
CONTINUOUS
 62
     2
100
AcDbLine
 10
1090.0
 20
811.0
 30
0.0
 11
1090.0
 21
825.0
 31
0.0
  0
LINE
  5
4F2
100
AcDbEntity
  8
LAY-1
  6
CONTINUOUS
 62
     2
100
AcDbLine
 10
1040.0
 20
825.0
 30
0.0
 11
1090.0
 21
825.0
 31
0.0
  0
LINE
  5
4F3
100
AcDbEntity
  8
LAY-1
  6
CONTINUOUS
 62
     2
100
AcDbLine
 10
990.0
 20
811.0
 30
0.0
 11
990.0
 21
825.0
 31
0.0
  0
LINE
  5
4F4
100
AcDbEntity
  8
LAY-1
  6
CONTINUOUS
 62
     1
100
AcDbLine
 10
997.5
 20
811.0
 30
0.0
 11
997.5
 21
810.999431
 31
0.0
  0
LINE
  5
4F5
100
AcDbEntity
  8
LAY-1
  6
CONTINUOUS
 62
     2
100
AcDbLine
 10
1040.0
 20
825.0
 30
0.0
 11
990.0
 21
825.0
 31
0.0
  0
LINE
  5
4F6
100
AcDbEntity
  8
LAY-1
  6
CONTINUOUS
 62
     2
100
AcDbLine
 10
996.5
 20
810.999585
 30
0.0
 11
996.5
 21
811.0
 31
0.0
  0
LINE
  5
4F7
100
AcDbEntity
  8
LAY-1
  6
CONTINUOUS
 62
     2
100
AcDbLine
 10
1008.5
 20
811.0
 30
0.0
 11
1008.5
 21
810.998663
 31
0.0
  0
LINE
  5
4F8
100
AcDbEntity
  8
LAY-1
  6
CONTINUOUS
 62
     2
100
AcDbLine
 10
990.0
 20
811.0
 30
0.0
 11
1013.467002
 21
811.0
 31
0.0
  0
LINE
  5
4F9
100
AcDbEntity
  8
LAY-1
  6
CONTINUOUS
 62
     2
100
AcDbLine
 10
990.0
 20
811.0
 30
0.0
 11
1013.467002
 21
811.0
 31
0.0
  0
LINE
  5
4FA
100
AcDbEntity
  8
LAY-1
  6
CONTINUOUS
 62
     2
100
AcDbLine
 10
1013.456447
 20
810.996743
 30
0.0
 11
1002.5
 21
810.996743
 31
0.0
  0
LINE
  5
4FB
100
AcDbEntity
  8
LAY-1
  6
CONTINUOUS
 62
     2
100
AcDbLine
 10
990.5
 20
810.996743
 30
0.0
 11
1002.5
 21
810.996743
 31
0.0
  0
LINE
  5
4FC
100
AcDbEntity
  8
LAY-1
  6
CONTINUOUS
 62
     2
100
AcDbLine
 10
1013.469655
 20
810.996743
 30
0.0
 11
991.530345
 21
810.996743
 31
0.0
  0
LINE
  5
4FD
100
AcDbEntity
  8
LAY-1
  6
CONTINUOUS
 62
     1
100
AcDbLine
 10
1007.5
 20
810.998663
 30
0.0
 11
1007.5
 21
811.0
 31
0.0
  0
LINE
  5
4FE
100
AcDbEntity
  8
LAY-1
  6
CONTINUOUS
 62
     1
100
AcDbLine
 10
997.5
 20
811.0
 30
0.0
 11
997.5
 21
810.999431
 31
0.0
  0
LINE
  5
4FF
100
AcDbEntity
  8
LAY-1
  6
CONTINUOUS
 62
     2
100
AcDbLine
 10
749.684006
 20
698.75
 30
0.0
 11
749.684006
 21
751.25
 31
0.0
  0
LINE
  5
500
100
AcDbEntity
  8
LAY-1
  6
CONTINUOUS
 62
     2
100
AcDbLine
 10
514.5
 20
770.519684
 30
0.0
 11
514.5
 21
811.0
 31
0.0
  0
LINE
  5
501
100
AcDbEntity
  8
LAY-1
  6
CONTINUOUS
 62
     2
100
AcDbLine
 10
507.5
 20
770.519684
 30
0.0
 11
507.5
 21
811.0
 31
0.0
  0
LINE
  5
502
100
AcDbEntity
  8
LAY-1
  6
CONTINUOUS
 62
     2
100
AcDbLine
 10
558.15
 20
685.0
 30
0.0
 11
542.54999
 21
685.0
 31
0.0
  0
LINE
  5
503
100
AcDbEntity
  8
LAY-1
  6
CONTINUOUS
 62
     2
100
AcDbLine
 10
568.142673
 20
673.732419
 30
0.0
 11
567.513597
 21
676.930219
 31
0.0
  0
ARC
  5
504
100
AcDbEntity
  8
LAY-1
  6
CONTINUOUS
 62
     2
100
AcDbCircle
 10
557.701653
 20
675.0
 30
0.0
 40
10.0
100
AcDbArc
 50
11.129189
 51
90.0
  0
ARC
  5
505
100
AcDbEntity
  8
LAY-1
  6
CONTINUOUS
 62
     2
100
AcDbCircle
 10
415.0
 20
725.0
 30
0.0
 40
127.0
100
AcDbArc
 50
337.421993
 51
338.450885
  0
ARC
  5
506
100
AcDbEntity
  8
LAY-1
  6
CONTINUOUS
 62
     2
100
AcDbCircle
 10
542.54999
 20
675.0
 30
0.0
 40
10.0
100
AcDbArc
 50
90.0
 51
158.594663
  0
LINE
  5
507
100
AcDbEntity
  8
LAY-1
  6
EXLTYPE4
 62
     2
100
AcDbLine
 10
567.513597
 20
676.930219
 30
0.0
 11
564.562778
 21
691.930219
 31
0.0
  0
ARC
  5
508
100
AcDbEntity
  8
LAY-1
  6
EXLTYPE4
 62
     2
100
AcDbCircle
 10
415.0
 20
725.0
 30
0.0
 40
127.0
100
AcDbArc
 50
338.450885
 51
345.198299
  0
ARC
  5
509
100
AcDbEntity
  8
LAY-1
  6
EXLTYPE4
 62
     2
100
AcDbCircle
 10
547.453766
 20
690.0
 30
0.0
 40
10.0
100
AcDbArc
 50
90.0
 51
165.198299
  0
LINE
  5
50A
100
AcDbEntity
  8
LAY-1
  6
EXLTYPE4
 62
     2
100
AcDbLine
 10
554.750833
 20
700.0
 30
0.0
 11
547.453766
 21
700.0
 31
0.0
  0
ARC
  5
50B
100
AcDbEntity
  8
LAY-1
  6
EXLTYPE4
 62
     2
100
AcDbCircle
 10
554.750833
 20
690.0
 30
0.0
 40
10.0
100
AcDbArc
 50
11.129189
 51
90.0
  0
LINE
  5
50C
100
AcDbEntity
  8
LAY-1
  6
CONTINUOUS
 62
     2
100
AcDbLine
 10
557.701653
 20
765.0
 30
0.0
 11
542.54999
 21
765.0
 31
0.0
  0
ARC
  5
50D
100
AcDbEntity
  8
LAY-1
  6
CONTINUOUS
 62
     2
100
AcDbCircle
 10
557.701653
 20
775.0
 30
0.0
 40
10.0
100
AcDbArc
 50
270.0
 51
348.870811
  0
LINE
  5
50E
100
AcDbEntity
  8
LAY-1
  6
CONTINUOUS
 62
     2
100
AcDbLine
 10
568.142673
 20
776.267581
 30
0.0
 11
567.513597
 21
773.069781
 31
0.0
  0
ARC
  5
50F
100
AcDbEntity
  8
LAY-1
  6
CONTINUOUS
 62
     2
100
AcDbCircle
 10
542.54999
 20
775.0
 30
0.0
 40
10.0
100
AcDbArc
 50
201.405337
 51
270.0
  0
ARC
  5
510
100
AcDbEntity
  8
LAY-1
  6
EXLTYPE4
 62
     2
100
AcDbCircle
 10
415.0
 20
725.0
 30
0.0
 40
127.0
100
AcDbArc
 50
14.801701
 51
21.549115
  0
LINE
  5
511
100
AcDbEntity
  8
LAY-1
  6
EXLTYPE4
 62
     2
100
AcDbLine
 10
554.750833
 20
750.0
 30
0.0
 11
547.453766
 21
750.0
 31
0.0
  0
ARC
  5
512
100
AcDbEntity
  8
LAY-1
  6
EXLTYPE4
 62
     2
100
AcDbCircle
 10
547.453766
 20
760.0
 30
0.0
 40
10.0
100
AcDbArc
 50
194.801701
 51
270.0
  0
ARC
  5
513
100
AcDbEntity
  8
LAY-1
  6
EXLTYPE4
 62
     2
100
AcDbCircle
 10
554.750833
 20
760.0
 30
0.0
 40
10.0
100
AcDbArc
 50
270.0
 51
348.870811
  0
LINE
  5
514
100
AcDbEntity
  8
LAY-1
  6
EXLTYPE4
 62
     2
100
AcDbLine
 10
567.513597
 20
773.069781
 30
0.0
 11
564.562778
 21
758.069781
 31
0.0
  0
LINE
  5
515
100
AcDbEntity
  8
LAY-1
  6
EXLTYPE4
 62
     2
100
AcDbLine
 10
1525.249167
 20
750.0
 30
0.0
 11
1532.546234
 21
750.0
 31
0.0
  0
LINE
  5
516
100
AcDbEntity
  8
LAY-1
  6
CONTINUOUS
 62
     2
100
AcDbLine
 10
1521.153264
 20
765.0
 30
0.0
 11
1537.45001
 21
765.0
 31
0.0
  0
LINE
  5
517
100
AcDbEntity
  8
LAY-1
  6
EXLTYPE4
 62
     2
100
AcDbLine
 10
1512.486403
 20
773.069781
 30
0.0
 11
1515.437222
 21
758.069781
 31
0.0
  0
ARC
  5
518
100
AcDbEntity
  8
LAY-1
  6
EXLTYPE4
 62
     2
100
AcDbCircle
 10
1525.249167
 20
760.0
 30
0.0
 40
10.0
100
AcDbArc
 50
191.129189
 51
270.0
  0
ARC
  5
519
100
AcDbEntity
  8
LAY-1
  6
EXLTYPE4
 62
     2
100
AcDbCircle
 10
1532.546234
 20
760.0
 30
0.0
 40
10.0
100
AcDbArc
 50
270.0
 51
345.198299
  0
ARC
  5
51A
100
AcDbEntity
  8
LAY-1
  6
EXLTYPE4
 62
     2
100
AcDbCircle
 10
1665.0
 20
725.0
 30
0.0
 40
127.0
100
AcDbArc
 50
158.450885
 51
165.198299
  0
ARC
  5
51B
100
AcDbEntity
  8
LAY-1
  6
CONTINUOUS
 62
     2
100
AcDbCircle
 10
1522.298347
 20
775.0
 30
0.0
 40
10.0
100
AcDbArc
 50
191.129189
 51
270.0
  0
LINE
  5
51C
100
AcDbEntity
  8
LAY-1
  6
CONTINUOUS
 62
     2
100
AcDbLine
 10
1511.857327
 20
776.267581
 30
0.0
 11
1512.486403
 21
773.069781
 31
0.0
  0
LINE
  5
51D
100
AcDbEntity
  8
LAY-1
  6
CONTINUOUS
 62
     2
100
AcDbLine
 10
1511.857327
 20
673.732419
 30
0.0
 11
1512.486403
 21
676.930219
 31
0.0
  0
ARC
  5
51E
100
AcDbEntity
  8
LAY-1
  6
CONTINUOUS
 62
     2
100
AcDbCircle
 10
1522.298347
 20
675.0
 30
0.0
 40
10.0
100
AcDbArc
 50
90.0
 51
168.870811
  0
LINE
  5
51F
100
AcDbEntity
  8
LAY-1
  6
CONTINUOUS
 62
     2
100
AcDbLine
 10
1521.153264
 20
685.0
 30
0.0
 11
1537.45001
 21
685.0
 31
0.0
  0
LINE
  5
520
100
AcDbEntity
  8
LAY-1
  6
EXLTYPE4
 62
     2
100
AcDbLine
 10
1512.486403
 20
676.930219
 30
0.0
 11
1515.437222
 21
691.930219
 31
0.0
  0
ARC
  5
521
100
AcDbEntity
  8
LAY-1
  6
EXLTYPE4
 62
     2
100
AcDbCircle
 10
1532.546234
 20
690.0
 30
0.0
 40
10.0
100
AcDbArc
 50
14.801701
 51
90.0
  0
LINE
  5
522
100
AcDbEntity
  8
LAY-1
  6
EXLTYPE4
 62
     2
100
AcDbLine
 10
1525.249167
 20
700.0
 30
0.0
 11
1532.546234
 21
700.0
 31
0.0
  0
ARC
  5
523
100
AcDbEntity
  8
LAY-1
  6
EXLTYPE4
 62
     2
100
AcDbCircle
 10
1525.249167
 20
690.0
 30
0.0
 40
10.0
100
AcDbArc
 50
90.0
 51
168.870811
  0
ARC
  5
524
100
AcDbEntity
  8
LAY-1
  6
EXLTYPE4
 62
     2
100
AcDbCircle
 10
1665.0
 20
725.0
 30
0.0
 40
127.0
100
AcDbArc
 50
194.801701
 51
201.549115
  0
LINE
  5
525
100
AcDbEntity
  8
LAY-1
  6
CONTINUOUS
 62
     2
100
AcDbLine
 10
1330.315994
 20
698.75
 30
0.0
 11
1330.315994
 21
751.25
 31
0.0
  0
LINE
  5
526
100
AcDbEntity
  8
LAY-1
  6
CONTINUOUS
 62
     2
100
AcDbLine
 10
1066.25
 20
465.684006
 30
0.0
 11
1013.75
 21
465.684006
 31
0.0
  0
CIRCLE
  5
527
100
AcDbEntity
  8
LAY-1
  6
CONTINUOUS
 62
     2
100
AcDbCircle
 10
1114.033752
 20
694.334216
 30
0.0
 40
5.759599
  0
LINE
  5
528
100
AcDbEntity
  8
LAY-1
  6
CONTINUOUS
 62
     2
100
AcDbLine
 10
1120.544604
 20
698.093258
 30
0.0
 11
1120.544604
 21
690.575174
 31
0.0
  0
LINE
  5
529
100
AcDbEntity
  8
LAY-1
  6
CONTINUOUS
 62
     2
100
AcDbLine
 10
1120.544604
 20
690.575174
 30
0.0
 11
1114.033752
 21
686.816132
 31
0.0
  0
LINE
  5
52A
100
AcDbEntity
  8
LAY-1
  6
CONTINUOUS
 62
     2
100
AcDbLine
 10
1114.033752
 20
686.816132
 30
0.0
 11
1107.522901
 21
690.575174
 31
0.0
  0
LINE
  5
52B
100
AcDbEntity
  8
LAY-1
  6
CONTINUOUS
 62
     2
100
AcDbLine
 10
1107.522901
 20
690.575174
 30
0.0
 11
1107.522901
 21
698.093258
 31
0.0
  0
LINE
  5
52C
100
AcDbEntity
  8
LAY-1
  6
CONTINUOUS
 62
     2
100
AcDbLine
 10
1107.522901
 20
698.093258
 30
0.0
 11
1114.033752
 21
701.852299
 31
0.0
  0
LINE
  5
52D
100
AcDbEntity
  8
LAY-1
  6
CONTINUOUS
 62
     2
100
AcDbLine
 10
1114.033752
 20
701.852299
 30
0.0
 11
1120.544604
 21
698.093258
 31
0.0
  0
CIRCLE
  5
52E
100
AcDbEntity
  8
LAY-1
  6
CONTINUOUS
 62
     2
100
AcDbCircle
 10
1114.033752
 20
755.665784
 30
0.0
 40
5.759599
  0
LINE
  5
52F
100
AcDbEntity
  8
LAY-1
  6
CONTINUOUS
 62
     2
100
AcDbLine
 10
1120.544604
 20
751.906742
 30
0.0
 11
1120.544604
 21
759.424826
 31
0.0
  0
LINE
  5
530
100
AcDbEntity
  8
LAY-1
  6
CONTINUOUS
 62
     2
100
AcDbLine
 10
1120.544604
 20
759.424826
 30
0.0
 11
1114.033752
 21
763.183868
 31
0.0
  0
LINE
  5
531
100
AcDbEntity
  8
LAY-1
  6
CONTINUOUS
 62
     2
100
AcDbLine
 10
1114.033752
 20
763.183868
 30
0.0
 11
1107.522901
 21
759.424826
 31
0.0
  0
LINE
  5
532
100
AcDbEntity
  8
LAY-1
  6
CONTINUOUS
 62
     2
100
AcDbLine
 10
1107.522901
 20
759.424826
 30
0.0
 11
1107.522901
 21
751.906742
 31
0.0
  0
LINE
  5
533
100
AcDbEntity
  8
LAY-1
  6
CONTINUOUS
 62
     2
100
AcDbLine
 10
1107.522901
 20
751.906742
 30
0.0
 11
1114.033752
 21
748.147701
 31
0.0
  0
LINE
  5
534
100
AcDbEntity
  8
LAY-1
  6
CONTINUOUS
 62
     2
100
AcDbLine
 10
1114.033752
 20
748.147701
 30
0.0
 11
1120.544604
 21
751.906742
 31
0.0
  0
CIRCLE
  5
535
100
AcDbEntity
  8
LAY-1
  6
CONTINUOUS
 62
     2
100
AcDbCircle
 10
1070.665784
 20
799.033752
 30
0.0
 40
5.759599
  0
LINE
  5
536
100
AcDbEntity
  8
LAY-1
  6
CONTINUOUS
 62
     2
100
AcDbLine
 10
1077.176636
 20
795.27471
 30
0.0
 11
1077.176636
 21
802.792794
 31
0.0
  0
LINE
  5
537
100
AcDbEntity
  8
LAY-1
  6
CONTINUOUS
 62
     2
100
AcDbLine
 10
1077.176636
 20
802.792794
 30
0.0
 11
1070.665784
 21
806.551836
 31
0.0
  0
LINE
  5
538
100
AcDbEntity
  8
LAY-1
  6
CONTINUOUS
 62
     2
100
AcDbLine
 10
1070.665784
 20
806.551836
 30
0.0
 11
1064.154933
 21
802.792794
 31
0.0
  0
LINE
  5
539
100
AcDbEntity
  8
LAY-1
  6
CONTINUOUS
 62
     2
100
AcDbLine
 10
1064.154933
 20
802.792794
 30
0.0
 11
1064.154933
 21
795.27471
 31
0.0
  0
LINE
  5
53A
100
AcDbEntity
  8
LAY-1
  6
CONTINUOUS
 62
     2
100
AcDbLine
 10
1064.154933
 20
795.27471
 30
0.0
 11
1070.665784
 21
791.515669
 31
0.0
  0
LINE
  5
53B
100
AcDbEntity
  8
LAY-1
  6
CONTINUOUS
 62
     2
100
AcDbLine
 10
1070.665784
 20
791.515669
 30
0.0
 11
1077.176636
 21
795.27471
 31
0.0
  0
CIRCLE
  5
53C
100
AcDbEntity
  8
LAY-1
  6
CONTINUOUS
 62
     2
100
AcDbCircle
 10
1009.334216
 20
799.033752
 30
0.0
 40
5.759599
  0
LINE
  5
53D
100
AcDbEntity
  8
LAY-1
  6
CONTINUOUS
 62
     2
100
AcDbLine
 10
1002.823364
 20
795.27471
 30
0.0
 11
1002.823364
 21
802.792794
 31
0.0
  0
LINE
  5
53E
100
AcDbEntity
  8
LAY-1
  6
CONTINUOUS
 62
     2
100
AcDbLine
 10
1002.823364
 20
802.792794
 30
0.0
 11
1009.334216
 21
806.551836
 31
0.0
  0
LINE
  5
53F
100
AcDbEntity
  8
LAY-1
  6
CONTINUOUS
 62
     2
100
AcDbLine
 10
1009.334216
 20
806.551836
 30
0.0
 11
1015.845067
 21
802.792794
 31
0.0
  0
LINE
  5
540
100
AcDbEntity
  8
LAY-1
  6
CONTINUOUS
 62
     2
100
AcDbLine
 10
1015.845067
 20
802.792794
 30
0.0
 11
1015.845067
 21
795.27471
 31
0.0
  0
LINE
  5
541
100
AcDbEntity
  8
LAY-1
  6
CONTINUOUS
 62
     2
100
AcDbLine
 10
1015.845067
 20
795.27471
 30
0.0
 11
1009.334216
 21
791.515669
 31
0.0
  0
LINE
  5
542
100
AcDbEntity
  8
LAY-1
  6
CONTINUOUS
 62
     2
100
AcDbLine
 10
1009.334216
 20
791.515669
 30
0.0
 11
1002.823364
 21
795.27471
 31
0.0
  0
CIRCLE
  5
543
100
AcDbEntity
  8
LAY-1
  6
CONTINUOUS
 62
     2
100
AcDbCircle
 10
965.966248
 20
755.665784
 30
0.0
 40
5.759599
  0
LINE
  5
544
100
AcDbEntity
  8
LAY-1
  6
CONTINUOUS
 62
     2
100
AcDbLine
 10
959.455396
 20
751.906742
 30
0.0
 11
959.455396
 21
759.424826
 31
0.0
  0
LINE
  5
545
100
AcDbEntity
  8
LAY-1
  6
CONTINUOUS
 62
     2
100
AcDbLine
 10
959.455396
 20
759.424826
 30
0.0
 11
965.966248
 21
763.183868
 31
0.0
  0
LINE
  5
546
100
AcDbEntity
  8
LAY-1
  6
CONTINUOUS
 62
     2
100
AcDbLine
 10
965.966248
 20
763.183868
 30
0.0
 11
972.477099
 21
759.424826
 31
0.0
  0
LINE
  5
547
100
AcDbEntity
  8
LAY-1
  6
CONTINUOUS
 62
     2
100
AcDbLine
 10
972.477099
 20
759.424826
 30
0.0
 11
972.477099
 21
751.906742
 31
0.0
  0
LINE
  5
548
100
AcDbEntity
  8
LAY-1
  6
CONTINUOUS
 62
     2
100
AcDbLine
 10
972.477099
 20
751.906742
 30
0.0
 11
965.966248
 21
748.147701
 31
0.0
  0
LINE
  5
549
100
AcDbEntity
  8
LAY-1
  6
CONTINUOUS
 62
     2
100
AcDbLine
 10
965.966248
 20
748.147701
 30
0.0
 11
959.455396
 21
751.906742
 31
0.0
  0
LINE
  5
54A
100
AcDbEntity
  8
LAY-1
  6
CONTINUOUS
 62
     2
100
AcDbLine
 10
965.966248
 20
701.852299
 30
0.0
 11
959.455396
 21
698.093258
 31
0.0
  0
LINE
  5
54B
100
AcDbEntity
  8
LAY-1
  6
CONTINUOUS
 62
     2
100
AcDbLine
 10
972.477099
 20
698.093258
 30
0.0
 11
965.966248
 21
701.852299
 31
0.0
  0
LINE
  5
54C
100
AcDbEntity
  8
LAY-1
  6
CONTINUOUS
 62
     2
100
AcDbLine
 10
972.477099
 20
690.575174
 30
0.0
 11
972.477099
 21
698.093258
 31
0.0
  0
LINE
  5
54D
100
AcDbEntity
  8
LAY-1
  6
CONTINUOUS
 62
     2
100
AcDbLine
 10
965.966248
 20
686.816132
 30
0.0
 11
972.477099
 21
690.575174
 31
0.0
  0
LINE
  5
54E
100
AcDbEntity
  8
LAY-1
  6
CONTINUOUS
 62
     2
100
AcDbLine
 10
959.455396
 20
690.575174
 30
0.0
 11
965.966248
 21
686.816132
 31
0.0
  0
LINE
  5
54F
100
AcDbEntity
  8
LAY-1
  6
CONTINUOUS
 62
     2
100
AcDbLine
 10
959.455396
 20
698.093258
 30
0.0
 11
959.455396
 21
690.575174
 31
0.0
  0
CIRCLE
  5
550
100
AcDbEntity
  8
LAY-1
  6
CONTINUOUS
 62
     2
100
AcDbCircle
 10
965.966248
 20
694.334216
 30
0.0
 40
5.759599
  0
LINE
  5
551
100
AcDbEntity
  8
LAY-1
  6
CONTINUOUS
 62
     2
100
AcDbLine
 10
1008.5
 20
639.0
 30
0.0
 11
1008.5
 21
639.001337
 31
0.0
  0
LINE
  5
552
100
AcDbEntity
  8
LAY-1
  6
CONTINUOUS
 62
     2
100
AcDbLine
 10
1013.456447
 20
639.003257
 30
0.0
 11
1002.5
 21
639.003257
 31
0.0
  0
LINE
  5
553
100
AcDbEntity
  8
LAY-1
  6
CONTINUOUS
 62
     2
100
AcDbLine
 10
1007.5
 20
639.001337
 30
0.0
 11
1007.5
 21
639.0
 31
0.0
  0
LINE
  5
554
100
AcDbEntity
  8
LAY-1
  6
CONTINUOUS
 62
     2
100
AcDbLine
 10
997.5
 20
639.0
 30
0.0
 11
997.5
 21
639.000569
 31
0.0
  0
LINE
  5
555
100
AcDbEntity
  8
LAY-1
  6
CONTINUOUS
 62
     2
100
AcDbLine
 10
1009.334216
 20
658.484331
 30
0.0
 11
1002.823364
 21
654.72529
 31
0.0
  0
LINE
  5
556
100
AcDbEntity
  8
LAY-1
  6
CONTINUOUS
 62
     2
100
AcDbLine
 10
1015.845067
 20
654.72529
 30
0.0
 11
1009.334216
 21
658.484331
 31
0.0
  0
LINE
  5
557
100
AcDbEntity
  8
LAY-1
  6
CONTINUOUS
 62
     2
100
AcDbLine
 10
1015.845067
 20
647.207206
 30
0.0
 11
1015.845067
 21
654.72529
 31
0.0
  0
LINE
  5
558
100
AcDbEntity
  8
LAY-1
  6
CONTINUOUS
 62
     2
100
AcDbLine
 10
1002.823364
 20
654.72529
 30
0.0
 11
1002.823364
 21
647.207206
 31
0.0
  0
CIRCLE
  5
559
100
AcDbEntity
  8
LAY-1
  6
CONTINUOUS
 62
     2
100
AcDbCircle
 10
1009.334216
 20
650.966248
 30
0.0
 40
5.759599
  0
LINE
  5
55A
100
AcDbEntity
  8
LAY-1
  6
CONTINUOUS
 62
     2
100
AcDbLine
 10
1009.334216
 20
643.448164
 30
0.0
 11
1015.845067
 21
647.207206
 31
0.0
  0
LINE
  5
55B
100
AcDbEntity
  8
LAY-1
  6
CONTINUOUS
 62
     2
100
AcDbLine
 10
1002.823364
 20
647.207206
 30
0.0
 11
1009.334216
 21
643.448164
 31
0.0
  0
LINE
  5
55C
100
AcDbEntity
  8
LAY-1
  6
CONTINUOUS
 62
     2
100
AcDbLine
 10
1009.334216
 20
643.448164
 30
0.0
 11
1015.845067
 21
647.207206
 31
0.0
  0
LINE
  5
55D
100
AcDbEntity
  8
LAY-1
  6
CONTINUOUS
 62
     2
100
AcDbLine
 10
1002.823364
 20
647.207206
 30
0.0
 11
1009.334216
 21
643.448164
 31
0.0
  0
CIRCLE
  5
55E
100
AcDbEntity
  8
LAY-1
  6
CONTINUOUS
 62
     2
100
AcDbCircle
 10
1070.665784
 20
650.966248
 30
0.0
 40
5.759599
  0
LINE
  5
55F
100
AcDbEntity
  8
LAY-1
  6
CONTINUOUS
 62
     2
100
AcDbLine
 10
1077.176636
 20
654.72529
 30
0.0
 11
1077.176636
 21
647.207206
 31
0.0
  0
LINE
  5
560
100
AcDbEntity
  8
LAY-1
  6
CONTINUOUS
 62
     2
100
AcDbLine
 10
1064.154933
 20
647.207206
 30
0.0
 11
1064.154933
 21
654.72529
 31
0.0
  0
LINE
  5
561
100
AcDbEntity
  8
LAY-1
  6
CONTINUOUS
 62
     2
100
AcDbLine
 10
1064.154933
 20
654.72529
 30
0.0
 11
1070.665784
 21
658.484331
 31
0.0
  0
LINE
  5
562
100
AcDbEntity
  8
LAY-1
  6
CONTINUOUS
 62
     2
100
AcDbLine
 10
1070.665784
 20
658.484331
 30
0.0
 11
1077.176636
 21
654.72529
 31
0.0
  0
LINE
  5
563
100
AcDbEntity
  8
LAY-1
  6
CONTINUOUS
 62
     2
100
AcDbLine
 10
1070.665784
 20
643.448164
 30
0.0
 11
1064.154933
 21
647.207206
 31
0.0
  0
LINE
  5
564
100
AcDbEntity
  8
LAY-1
  6
CONTINUOUS
 62
     2
100
AcDbLine
 10
1077.176636
 20
647.207206
 30
0.0
 11
1070.665784
 21
643.448164
 31
0.0
  0
LINE
  5
565
100
AcDbEntity
  8
LAY-1
  6
CONTINUOUS
 62
     2
100
AcDbLine
 10
1077.176636
 20
647.207206
 30
0.0
 11
1070.665784
 21
643.448164
 31
0.0
  0
LINE
  5
566
100
AcDbEntity
  8
LAY-1
  6
CONTINUOUS
 62
     2
100
AcDbLine
 10
1070.665784
 20
643.448164
 30
0.0
 11
1064.154933
 21
647.207206
 31
0.0
  0
LINE
  5
567
100
AcDbEntity
  8
LAY-1
  6
CONTINUOUS
 62
     2
100
AcDbLine
 10
1013.75
 20
984.315994
 30
0.0
 11
1066.25
 21
984.315994
 31
0.0
  0
ELLIPSE
  5
568
100
AcDbEntity
  8
LAY-1
  6
CONTINUOUS
 62
     3
100
AcDbEllipse
 10
1093.800776
 20
733.57708
 30
0.0
 11
2.5447158500361247
 21
-0.2793228285960503
 31
0.0
210
0.0
220
0.0
230
1.0
 40
0.3125
 41
0.0
 42
6.2831853071796004
  0
ELLIPSE
  5
569
100
AcDbEntity
  8
LAY-1
  6
CONTINUOUS
 62
     3
100
AcDbEllipse
 10
1093.800776
 20
733.57708
 30
0.0
 11
4.1351632563086804
 21
-0.4538995964687131
 31
0.0
210
0.0
220
0.0
230
1.0
 40
0.576923
 41
0.0
 42
6.2831853071796004
  0
ELLIPSE
  5
56A
100
AcDbEntity
  8
LAY-1
  6
CONTINUOUS
 62
     3
100
AcDbEllipse
 10
1093.970907
 20
717.424371
 30
0.0
 11
2.3594626861142012
 21
-0.993245102094481
 31
0.0
210
0.0
220
0.0
230
1.0
 40
0.3125
 41
0.0
 42
6.2831853071796004
  0
ELLIPSE
  5
56B
100
AcDbEntity
  8
LAY-1
  6
CONTINUOUS
 62
     3
100
AcDbEllipse
 10
1093.970907
 20
717.424371
 30
0.0
 11
3.8341268649355298
 21
-1.6140232909036918
 31
0.0
210
0.0
220
0.0
230
1.0
 40
0.576923
 41
0.0
 42
6.2831853071796004
  0
LINE
  5
56C
100
AcDbEntity
  8
LAY-1
  6
CONTINUOUS
 62
     3
100
AcDbLine
 10
1089.537702
 20
715.188474
 30
0.0
 11
1089.149086
 21
713.578264
 31
0.0
  0
LINE
  5
56D
100
AcDbEntity
  8
LAY-1
  6
CONTINUOUS
 62
     3
100
AcDbLine
 10
1094.084102
 20
702.661833
 30
0.0
 11
1094.658568
 21
704.21547
 31
0.0
  0
LINE
  5
56E
100
AcDbEntity
  8
LAY-1
  6
CONTINUOUS
 62
     3
100
AcDbLine
 10
1094.658568
 20
704.21547
 30
0.0
 11
1087.898491
 21
709.000483
 31
0.0
  0
LINE
  5
56F
100
AcDbEntity
  8
LAY-1
  6
CONTINUOUS
 62
     3
100
AcDbLine
 10
1087.324025
 20
707.446846
 30
0.0
 11
1094.084102
 21
702.661833
 31
0.0
  0
LINE
  5
570
100
AcDbEntity
  8
LAY-1
  6
CONTINUOUS
 62
     3
100
AcDbLine
 10
1087.898491
 20
709.000483
 30
0.0
 11
1087.324025
 21
707.446846
 31
0.0
  0
LINE
  5
571
100
AcDbEntity
  8
LAY-1
  6
CONTINUOUS
 62
     3
100
AcDbLine
 10
1095.660266
 20
743.285133
 30
0.0
 11
1095.056955
 21
744.827798
 31
0.0
  0
LINE
  5
572
100
AcDbEntity
  8
LAY-1
  6
CONTINUOUS
 62
     3
100
AcDbLine
 10
1086.825713
 20
743.910384
 30
0.0
 11
1087.429024
 21
742.367719
 31
0.0
  0
LINE
  5
573
100
AcDbEntity
  8
LAY-1
  6
CONTINUOUS
 62
     3
100
AcDbLine
 10
1095.056955
 20
744.827798
 30
0.0
 11
1086.825713
 21
743.910384
 31
0.0
  0
LINE
  5
574
100
AcDbEntity
  8
LAY-1
  6
CONTINUOUS
 62
     3
100
AcDbLine
 10
1087.429024
 20
742.367719
 30
0.0
 11
1095.660266
 21
743.285133
 31
0.0
  0
LINE
  5
575
100
AcDbEntity
  8
LAY-1
  6
CONTINUOUS
 62
     3
100
AcDbLine
 10
1097.496439
 20
736.765387
 30
0.0
 11
1095.919842
 21
742.17443
 31
0.0
  0
LINE
  5
576
100
AcDbEntity
  8
LAY-1
  6
CONTINUOUS
 62
     3
100
AcDbLine
 10
1095.840391
 20
736.729251
 30
0.0
 11
1097.496439
 21
736.765387
 31
0.0
  0
LINE
  5
577
100
AcDbEntity
  8
LAY-1
  6
CONTINUOUS
 62
     3
100
AcDbLine
 10
1095.306718
 20
738.560194
 30
0.0
 11
1095.840391
 21
736.729251
 31
0.0
  0
LINE
  5
578
100
AcDbEntity
  8
LAY-1
  6
CONTINUOUS
 62
     3
100
AcDbLine
 10
1094.263794
 20
742.138293
 30
0.0
 11
1094.843197
 21
740.15046
 31
0.0
  0
LINE
  5
579
100
AcDbEntity
  8
LAY-1
  6
CONTINUOUS
 62
     3
100
AcDbLine
 10
1095.919842
 20
742.17443
 30
0.0
 11
1094.263794
 21
742.138293
 31
0.0
  0
LINE
  5
57A
100
AcDbEntity
  8
LAY-1
  6
CONTINUOUS
 62
     3
100
AcDbLine
 10
1088.219006
 20
740.005915
 30
0.0
 11
1088.682528
 21
738.415648
 31
0.0
  0
LINE
  5
57B
100
AcDbEntity
  8
LAY-1
  6
CONTINUOUS
 62
     3
100
AcDbLine
 10
1094.843197
 20
740.15046
 30
0.0
 11
1088.219006
 21
740.005915
 31
0.0
  0
LINE
  5
57C
100
AcDbEntity
  8
LAY-1
  6
CONTINUOUS
 62
     3
100
AcDbLine
 10
1088.682528
 20
738.415648
 30
0.0
 11
1095.306718
 21
738.560194
 31
0.0
  0
LINE
  5
57D
100
AcDbEntity
  8
LAY-1
  6
CONTINUOUS
 62
     3
100
AcDbLine
 10
1096.422899
 20
709.617627
 30
0.0
 11
1096.811515
 21
711.227838
 31
0.0
  0
LINE
  5
57E
100
AcDbEntity
  8
LAY-1
  6
CONTINUOUS
 62
     3
100
AcDbLine
 10
1096.013179
 20
707.919972
 30
0.0
 11
1095.545936
 21
705.983976
 31
0.0
  0
LINE
  5
57F
100
AcDbEntity
  8
LAY-1
  6
CONTINUOUS
 62
     3
100
AcDbLine
 10
1093.149683
 20
711.399914
 30
0.0
 11
1096.422899
 21
709.617627
 31
0.0
  0
LINE
  5
580
100
AcDbEntity
  8
LAY-1
  6
CONTINUOUS
 62
     3
100
AcDbLine
 10
1093.149683
 20
711.399914
 30
0.0
 11
1096.013179
 21
707.919972
 31
0.0
  0
LINE
  5
581
100
AcDbEntity
  8
LAY-1
  6
CONTINUOUS
 62
     3
100
AcDbLine
 10
1095.545936
 20
705.983976
 30
0.0
 11
1092.240157
 21
709.987748
 31
0.0
  0
LINE
  5
582
100
AcDbEntity
  8
LAY-1
  6
CONTINUOUS
 62
     3
100
AcDbLine
 10
1088.26461
 20
709.913483
 30
0.0
 11
1092.239856
 21
709.9875
 31
0.0
  0
LINE
  5
583
100
AcDbEntity
  8
LAY-1
  6
CONTINUOUS
 62
     3
100
AcDbLine
 10
1092.785993
 20
711.597946
 30
0.0
 11
1088.652573
 21
711.520984
 31
0.0
  0
LINE
  5
584
100
AcDbEntity
  8
LAY-1
  6
CONTINUOUS
 62
     3
100
AcDbLine
 10
1088.652573
 20
711.520984
 30
0.0
 11
1088.26461
 21
709.913483
 31
0.0
  0
LINE
  5
585
100
AcDbEntity
  8
LAY-1
  6
CONTINUOUS
 62
     3
100
AcDbLine
 10
1089.149086
 20
713.578264
 30
0.0
 11
1092.785993
 21
711.597946
 31
0.0
  0
LINE
  5
586
100
AcDbEntity
  8
LAY-1
  6
CONTINUOUS
 62
     3
100
AcDbLine
 10
1096.811515
 20
711.227838
 30
0.0
 11
1089.537702
 21
715.188474
 31
0.0
  0
LINE
  5
587
100
AcDbEntity
  8
LAY-1
  6
CONTINUOUS
 62
     3
100
AcDbLine
 10
1094.9
 20
724.739496
 30
0.0
 11
1098.5
 21
723.774879
 31
0.0
  0
LINE
  5
588
100
AcDbEntity
  8
LAY-1
  6
CONTINUOUS
 62
     3
100
AcDbLine
 10
1090.5
 20
727.574914
 30
0.0
 11
1090.5
 21
725.918473
 31
0.0
  0
LINE
  5
589
100
AcDbEntity
  8
LAY-1
  6
CONTINUOUS
 62
     3
100
AcDbLine
 10
1090.5
 20
722.14847
 30
0.0
 11
1094.346931
 21
723.153049
 31
0.0
  0
LINE
  5
58A
100
AcDbEntity
  8
LAY-1
  6
CONTINUOUS
 62
     3
100
AcDbLine
 10
1094.5
 20
724.846676
 30
0.0
 11
1090.5
 21
723.802125
 31
0.0
  0
LINE
  5
58B
100
AcDbEntity
  8
LAY-1
  6
CONTINUOUS
 62
     3
100
AcDbLine
 10
1094.9
 20
724.739496
 30
0.0
 11
1098.5
 21
722.028481
 31
0.0
  0
LINE
  5
58C
100
AcDbEntity
  8
LAY-1
  6
CONTINUOUS
 62
     3
100
AcDbLine
 10
1098.5
 20
725.431321
 30
0.0
 11
1090.5
 21
727.574914
 31
0.0
  0
LINE
  5
58D
100
AcDbEntity
  8
LAY-1
  6
CONTINUOUS
 62
     3
100
AcDbLine
 10
1098.5
 20
723.774879
 30
0.0
 11
1098.5
 21
725.431321
 31
0.0
  0
LINE
  5
58E
100
AcDbEntity
  8
LAY-1
  6
CONTINUOUS
 62
     3
100
AcDbLine
 10
1098.5
 20
722.028481
 30
0.0
 11
1098.5
 21
720.0369
 31
0.0
  0
LINE
  5
58F
100
AcDbEntity
  8
LAY-1
  6
CONTINUOUS
 62
     3
100
AcDbLine
 10
1090.5
 20
723.802125
 30
0.0
 11
1090.5
 21
722.14847
 31
0.0
  0
LINE
  5
590
100
AcDbEntity
  8
LAY-1
  6
CONTINUOUS
 62
     3
100
AcDbLine
 10
1098.5
 20
720.0369
 30
0.0
 11
1094.347165
 21
723.153361
 31
0.0
  0
LINE
  5
591
100
AcDbEntity
  8
LAY-1
  6
CONTINUOUS
 62
     3
100
AcDbLine
 10
1090.5
 20
725.918473
 30
0.0
 11
1094.5
 21
724.846676
 31
0.0
  0
TEXT
  5
592
100
AcDbEntity
  8
LAY-2
  6
CONTINUOUS
 62
     3
100
AcDbText
 10
1443.084
 20
375.216
 30
0.0
 40
16.0
  1
’１４年　６月１０日
 41
0.84
  7
EXCADSTD
 72
     5
 11
1603.084
 21
375.216
 31
0.0
100
AcDbText
  0
TEXT
  5
593
100
AcDbEntity
  8
LAY-2
  6
CONTINUOUS
 62
     3
100
AcDbText
 10
1418.9232
 20
330.8128
 30
0.0
 40
16.0
  1
ＡＢガバナ
 41
0.84
  7
EXCADSTD
 72
     5
 11
1498.9232
 21
330.8128
 31
0.0
100
AcDbText
  0
TEXT
  5
594
100
AcDbEntity
  8
LAY-2
  6
CONTINUOUS
 62
     3
100
AcDbText
 10
1418.9488
 20
353.136
 30
0.0
 40
16.0
  1
ＮＭＦ－２０
 41
0.84
  7
EXCADSTD
 72
     5
 11
1514.9488
 21
353.136
 31
0.0
100
AcDbText
  0
INSERT
  5
595
100
AcDbEntity
  8
LAY-2
  6
CONTINUOUS
 62
     0
100
AcDbBlockReference
  2
SYM-1
 10
1502.772055
 20
298.577
 30
0.0
 41
2.34
 42
2.34
  0
LINE
  5
596
100
AcDbEntity
  8
LAY-2
  6
CONTINUOUS
 62
     1
100
AcDbLine
 10
1411.0
 20
394.8
 30
0.0
 11
1411.0
 21
327.6
 31
0.0
  0
LINE
  5
597
100
AcDbEntity
  8
LAY-2
  6
CONTINUOUS
 62
     1
100
AcDbLine
 10
1363.0
 20
372.4
 30
0.0
 11
1649.72
 21
372.4
 31
0.0
  0
LINE
  5
598
100
AcDbEntity
  8
LAY-2
  6
CONTINUOUS
 62
     1
100
AcDbLine
 10
1363.0
 20
350.0
 30
0.0
 11
1649.72
 21
350.0
 31
0.0
  0
LINE
  5
599
100
AcDbEntity
  8
LAY-2
  6
CONTINUOUS
 62
     1
100
AcDbLine
 10
1363.0
 20
327.6
 30
0.0
 11
1649.72
 21
327.6
 31
0.0
  0
TEXT
  5
59A
100
AcDbEntity
  8
LAY-2
  6
CONTINUOUS
 62
     3
100
AcDbText
 10
1365.048
 20
375.216
 30
0.0
 40
16.0
  1
作成日
 41
0.84
  7
EXCADSTD
 72
     5
 11
1413.048
 21
375.216
 31
0.0
100
AcDbText
  0
LINE
  5
59B
100
AcDbEntity
  8
LAY-2
  6
CONTINUOUS
 62
     4
100
AcDbLine
 10
1363.0
 20
288.56
 30
0.0
 11
1363.0
 21
394.8
 31
0.0
  0
LINE
  5
59C
100
AcDbEntity
  8
LAY-2
  6
CONTINUOUS
 62
     4
100
AcDbLine
 10
1649.72
 20
288.56
 30
0.0
 11
1649.72
 21
394.8
 31
0.0
  0
LINE
  5
59D
100
AcDbEntity
  8
LAY-2
  6
CONTINUOUS
 62
     4
100
AcDbLine
 10
1363.0
 20
288.56
 30
0.0
 11
1649.72
 21
288.56
 31
0.0
  0
LINE
  5
59E
100
AcDbEntity
  8
LAY-2
  6
CONTINUOUS
 62
     4
100
AcDbLine
 10
1363.0
 20
394.8
 30
0.0
 11
1649.72
 21
394.8
 31
0.0
  0
TEXT
  5
59F
100
AcDbEntity
  8
LAY-2
  6
CONTINUOUS
 62
     3
100
AcDbText
 10
1464.888
 20
310.192
 30
0.0
 40
16.0
  1
外観図
 41
1.47392
  7
EXCADSTD
 72
     5
 11
1549.111999
 21
310.192
 31
0.0
100
AcDbText
  0
LINE
  5
5A0
100
AcDbEntity
  8
LAY-2
  6
CONTINUOUS
 62
     4
100
AcDbLine
 10
1363.0
 20
308.08
 30
0.0
 11
1649.72
 21
308.08
 31
0.0
  0
TEXT
  5
5A1
100
AcDbEntity
  8
LAY-2
  6
CONTINUOUS
 62
     3
100
AcDbText
 10
1370.168
 20
330.8
 30
0.0
 40
16.0
  1
品名
 41
0.984714
  7
EXCADSTD
 72
     5
 11
1404.552325
 21
330.8
 31
0.0
100
AcDbText
  0
TEXT
  5
5A2
100
AcDbEntity
  8
LAY-2
  6
CONTINUOUS
 62
     3
100
AcDbText
 10
1370.552
 20
353.328
 30
0.0
 40
16.0
  1
型式
 41
0.984714
  7
EXCADSTD
 72
     5
 11
1404.936325
 21
353.328
 31
0.0
100
AcDbText
  0
LINE
  5
5A3
100
AcDbEntity
  8
LAY-3
  6
CONTINUOUS
 62
     1
100
AcDbLine
 10
608.593048
 20
815.0
 30
0.0
 11
858.662878
 21
815.0
 31
0.0
  0
LINE
  5
5A4
100
AcDbEntity
  8
LAY-3
  6
CONTINUOUS
 62
     1
100
AcDbLine
 10
608.593048
 20
635.0
 30
0.0
 11
858.662878
 21
635.0
 31
0.0
  0
TEXT
  5
5A5
100
AcDbEntity
  8
LAY-3
  6
CONTINUOUS
 62
     3
100
AcDbText
 10
857.162878
 20
685.0
 30
0.0
 40
20.0
  1
φ
 50
90.0
 41
0.84
  7
EXCADSTD
 72
     5
 11
857.162878
 21
701.0
 31
0.0
100
AcDbText
  0
TEXT
  5
5A6
100
AcDbEntity
  8
LAY-3
  6
CONTINUOUS
 62
     3
100
AcDbText
 10
857.162878
 20
705.0
 30
0.0
 40
20.0
  1
１８０
 50
90.0
 41
0.84
  7
EXCADSTD
 72
     5
 11
857.162878
 21
765.0
 31
0.0
100
AcDbText
  0
LINE
  5
5A7
100
AcDbEntity
  8
LAY-3
  6
CONTINUOUS
 62
     1
100
AcDbLine
 10
858.162878
 20
815.0
 30
0.0
 11
858.162878
 21
635.0
 31
0.0
  0
LINE
  5
5A8
100
AcDbEntity
  8
LAY-3
  6
CONTINUOUS
 62
     1
100
AcDbLine
 10
859.829544
 20
805.0
 30
0.0
 11
858.162878
 21
815.0
 31
0.0
  0
LINE
  5
5A9
100
AcDbEntity
  8
LAY-3
  6
CONTINUOUS
 62
     1
100
AcDbLine
 10
858.162878
 20
815.0
 30
0.0
 11
856.496211
 21
805.0
 31
0.0
  0
LINE
  5
5AA
100
AcDbEntity
  8
LAY-3
  6
CONTINUOUS
 62
     1
100
AcDbLine
 10
856.496211
 20
645.0
 30
0.0
 11
858.162878
 21
635.0
 31
0.0
  0
LINE
  5
5AB
100
AcDbEntity
  8
LAY-3
  6
CONTINUOUS
 62
     1
100
AcDbLine
 10
858.162878
 20
635.0
 30
0.0
 11
859.829544
 21
645.0
 31
0.0
  0
LINE
  5
5AC
100
AcDbEntity
  8
LAY-3
  6
CONTINUOUS
 62
     1
100
AcDbLine
 10
459.0
 20
707.0
 30
0.0
 11
459.0
 21
561.015669
 31
0.0
  0
LINE
  5
5AD
100
AcDbEntity
  8
LAY-3
  6
CONTINUOUS
 62
     1
100
AcDbLine
 10
511.0
 20
625.0
 30
0.0
 11
511.0
 21
561.015669
 31
0.0
  0
TEXT
  5
5AE
100
AcDbEntity
  8
LAY-3
  6
CONTINUOUS
 62
     3
100
AcDbText
 10
465.0
 20
562.515669
 30
0.0
 40
20.0
  1
５２
 41
0.84
  7
EXCADSTD
 72
     5
 11
501.664
 21
562.515669
 31
0.0
100
AcDbText
  0
LINE
  5
5AF
100
AcDbEntity
  8
LAY-3
  6
CONTINUOUS
 62
     1
100
AcDbLine
 10
459.0
 20
561.515669
 30
0.0
 11
511.0
 21
561.515669
 31
0.0
  0
LINE
  5
5B0
100
AcDbEntity
  8
LAY-3
  6
CONTINUOUS
 62
     1
100
AcDbLine
 10
469.0
 20
563.182335
 30
0.0
 11
459.0
 21
561.515669
 31
0.0
  0
LINE
  5
5B1
100
AcDbEntity
  8
LAY-3
  6
CONTINUOUS
 62
     1
100
AcDbLine
 10
459.0
 20
561.515669
 30
0.0
 11
469.0
 21
559.849002
 31
0.0
  0
LINE
  5
5B2
100
AcDbEntity
  8
LAY-3
  6
CONTINUOUS
 62
     1
100
AcDbLine
 10
501.0
 20
559.849002
 30
0.0
 11
511.0
 21
561.515669
 31
0.0
  0
LINE
  5
5B3
100
AcDbEntity
  8
LAY-3
  6
CONTINUOUS
 62
     1
100
AcDbLine
 10
511.0
 20
561.515669
 30
0.0
 11
501.0
 21
563.182335
 31
0.0
  0
LINE
  5
5B4
100
AcDbEntity
  8
LAY-3
  6
CONTINUOUS
 62
     1
100
AcDbLine
 10
461.0
 20
625.0
 30
0.0
 11
405.862878
 21
625.0
 31
0.0
  0
TEXT
  5
5B5
100
AcDbEntity
  8
LAY-3
  6
CONTINUOUS
 62
     3
100
AcDbText
 10
405.362878
 20
695.0
 30
0.0
 40
20.0
  1
２００
 50
90.0
 41
0.84
  7
EXCADSTD
 72
     5
 11
405.362878
 21
755.0
 31
0.0
100
AcDbText
  0
LINE
  5
5B6
100
AcDbEntity
  8
LAY-3
  6
CONTINUOUS
 62
     1
100
AcDbLine
 10
406.362878
 20
625.0
 30
0.0
 11
406.362878
 21
825.0
 31
0.0
  0
LINE
  5
5B7
100
AcDbEntity
  8
LAY-3
  6
CONTINUOUS
 62
     1
100
AcDbLine
 10
404.696211
 20
635.0
 30
0.0
 11
406.362878
 21
625.0
 31
0.0
  0
LINE
  5
5B8
100
AcDbEntity
  8
LAY-3
  6
CONTINUOUS
 62
     1
100
AcDbLine
 10
406.362878
 20
625.0
 30
0.0
 11
408.029544
 21
635.0
 31
0.0
  0
LINE
  5
5B9
100
AcDbEntity
  8
LAY-3
  6
CONTINUOUS
 62
     1
100
AcDbLine
 10
408.029544
 20
815.0
 30
0.0
 11
406.362878
 21
825.0
 31
0.0
  0
LINE
  5
5BA
100
AcDbEntity
  8
LAY-3
  6
CONTINUOUS
 62
     1
100
AcDbLine
 10
406.362878
 20
825.0
 30
0.0
 11
404.696211
 21
815.0
 31
0.0
  0
LINE
  5
5BB
100
AcDbEntity
  8
LAY-3
  6
CONTINUOUS
 62
     1
100
AcDbLine
 10
511.0
 20
561.015669
 30
0.0
 11
511.0
 21
562.015669
 31
0.0
  0
LINE
  5
5BC
100
AcDbEntity
  8
LAY-3
  6
CONTINUOUS
 62
     1
100
AcDbLine
 10
819.684006
 20
725.0
 30
0.0
 11
819.684006
 21
561.015669
 31
0.0
  0
TEXT
  5
5BD
100
AcDbEntity
  8
LAY-3
  6
CONTINUOUS
 62
     3
100
AcDbText
 10
615.342003
 20
562.515669
 30
0.0
 40
20.0
  1
（３０９）
 41
0.84
  7
EXCADSTD
 72
     5
 11
715.342003
 21
562.515669
 31
0.0
100
AcDbText
  0
LINE
  5
5BE
100
AcDbEntity
  8
LAY-3
  6
CONTINUOUS
 62
     1
100
AcDbLine
 10
511.0
 20
561.515669
 30
0.0
 11
819.684006
 21
561.515669
 31
0.0
  0
LINE
  5
5BF
100
AcDbEntity
  8
LAY-3
  6
CONTINUOUS
 62
     1
100
AcDbLine
 10
521.0
 20
563.182335
 30
0.0
 11
511.0
 21
561.515669
 31
0.0
  0
LINE
  5
5C0
100
AcDbEntity
  8
LAY-3
  6
CONTINUOUS
 62
     1
100
AcDbLine
 10
511.0
 20
561.515669
 30
0.0
 11
521.0
 21
559.849002
 31
0.0
  0
LINE
  5
5C1
100
AcDbEntity
  8
LAY-3
  6
CONTINUOUS
 62
     1
100
AcDbLine
 10
809.684006
 20
559.849002
 30
0.0
 11
819.684006
 21
561.515669
 31
0.0
  0
LINE
  5
5C2
100
AcDbEntity
  8
LAY-3
  6
CONTINUOUS
 62
     1
100
AcDbLine
 10
819.684006
 20
561.515669
 30
0.0
 11
809.684006
 21
563.182335
 31
0.0
  0
LINE
  5
5C3
100
AcDbEntity
  8
LAY-3
  6
CONTINUOUS
 62
     1
100
AcDbLine
 10
819.684006
 20
725.0
 30
0.0
 11
819.684006
 21
528.315669
 31
0.0
  0
LINE
  5
5C4
100
AcDbEntity
  8
LAY-3
  6
CONTINUOUS
 62
     1
100
AcDbLine
 10
459.0
 20
725.0
 30
0.0
 11
459.0
 21
528.315669
 31
0.0
  0
TEXT
  5
5C5
100
AcDbEntity
  8
LAY-3
  6
CONTINUOUS
 62
     3
100
AcDbText
 10
589.342003
 20
529.815669
 30
0.0
 40
20.0
  1
（３６１）
 41
0.84
  7
EXCADSTD
 72
     5
 11
689.342003
 21
529.815669
 31
0.0
100
AcDbText
  0
LINE
  5
5C6
100
AcDbEntity
  8
LAY-3
  6
CONTINUOUS
 62
     1
100
AcDbLine
 10
819.684006
 20
528.815669
 30
0.0
 11
459.0
 21
528.815669
 31
0.0
  0
LINE
  5
5C7
100
AcDbEntity
  8
LAY-3
  6
CONTINUOUS
 62
     1
100
AcDbLine
 10
809.684006
 20
527.149002
 30
0.0
 11
819.684006
 21
528.815669
 31
0.0
  0
LINE
  5
5C8
100
AcDbEntity
  8
LAY-3
  6
CONTINUOUS
 62
     1
100
AcDbLine
 10
819.684006
 20
528.815669
 30
0.0
 11
809.684006
 21
530.482335
 31
0.0
  0
LINE
  5
5C9
100
AcDbEntity
  8
LAY-3
  6
CONTINUOUS
 62
     1
100
AcDbLine
 10
469.0
 20
530.482335
 30
0.0
 11
459.0
 21
528.815669
 31
0.0
  0
LINE
  5
5CA
100
AcDbEntity
  8
LAY-3
  6
CONTINUOUS
 62
     1
100
AcDbLine
 10
459.0
 20
528.815669
 30
0.0
 11
469.0
 21
527.149002
 31
0.0
  0
POLYLINE
  5
5CB
100
AcDbEntity
  8
LAY-3
  6
CONTINUOUS
 62
     1
100
AcDb2dPolyline
 66
     1
 10
0.0
 20
0.0
 30
0.0
 70
   128
  0
VERTEX
  5
5CC
100
AcDbEntity
  8
LAY-3
  6
CONTINUOUS
 62
     1
100
AcDbVertex
100
AcDb2dVertex
 10
528.362878
 20
625.0
 30
0.0
  0
VERTEX
  5
5CD
100
AcDbEntity
  8
LAY-3
  6
CONTINUOUS
 62
     1
100
AcDbVertex
100
AcDb2dVertex
 10
537.362878
 20
598.015669
 30
0.0
  0
VERTEX
  5
5CE
100
AcDbEntity
  8
LAY-3
  6
CONTINUOUS
 62
     1
100
AcDbVertex
100
AcDb2dVertex
 10
775.062878
 20
598.015669
 30
0.0
  0
SEQEND
  5
5CF
100
AcDbEntity
  8
LAY-3
  6
CONTINUOUS
 62
     1
  0
LINE
  5
5D0
100
AcDbEntity
  8
LAY-3
  6
CONTINUOUS
 62
     1
100
AcDbLine
 10
533.107855
 20
616.04104
 30
0.0
 11
528.362878
 21
625.0
 31
0.0
  0
LINE
  5
5D1
100
AcDbEntity
  8
LAY-3
  6
CONTINUOUS
 62
     1
100
AcDbLine
 10
528.362878
 20
625.0
 30
0.0
 11
529.945761
 21
614.986396
 31
0.0
  0
POLYLINE
  5
5D2
100
AcDbEntity
  8
LAY-3
  6
CONTINUOUS
 62
     1
100
AcDb2dPolyline
 66
     1
 10
0.0
 20
0.0
 30
0.0
 70
   128
  0
VERTEX
  5
5D3
100
AcDbEntity
  8
LAY-3
  6
CONTINUOUS
 62
     1
100
AcDbVertex
100
AcDb2dVertex
 10
616.027686
 20
730.298927
 30
0.0
  0
VERTEX
  5
5D4
100
AcDbEntity
  8
LAY-3
  6
CONTINUOUS
 62
     1
100
AcDbVertex
100
AcDb2dVertex
 10
646.662878
 20
779.315669
 30
0.0
  0
VERTEX
  5
5D5
100
AcDbEntity
  8
LAY-3
  6
CONTINUOUS
 62
     1
100
AcDbVertex
100
AcDb2dVertex
 10
746.062878
 20
779.315669
 30
0.0
  0
SEQEND
  5
5D6
100
AcDbEntity
  8
LAY-3
  6
CONTINUOUS
 62
     1
  0
LINE
  5
5D7
100
AcDbEntity
  8
LAY-3
  6
CONTINUOUS
 62
     1
100
AcDbLine
 10
619.914307
 20
739.662257
 30
0.0
 11
616.027686
 21
730.298927
 31
0.0
  0
LINE
  5
5D8
100
AcDbEntity
  8
LAY-3
  6
CONTINUOUS
 62
     1
100
AcDbLine
 10
616.027686
 20
730.298927
 30
0.0
 11
622.740976
 21
737.895605
 31
0.0
  0
POLYLINE
  5
5D9
100
AcDbEntity
  8
LAY-3
  6
CONTINUOUS
 62
     1
100
AcDb2dPolyline
 66
     1
 10
0.0
 20
0.0
 30
0.0
 70
   128
  0
VERTEX
  5
5DA
100
AcDbEntity
  8
LAY-3
  6
CONTINUOUS
 62
     1
100
AcDbVertex
100
AcDb2dVertex
 10
524.262878
 20
825.0
 30
0.0
  0
VERTEX
  5
5DB
100
AcDbEntity
  8
LAY-3
  6
CONTINUOUS
 62
     1
100
AcDbVertex
100
AcDb2dVertex
 10
537.362878
 20
846.215669
 30
0.0
  0
VERTEX
  5
5DC
100
AcDbEntity
  8
LAY-3
  6
CONTINUOUS
 62
     1
100
AcDbVertex
100
AcDb2dVertex
 10
777.062878
 20
846.215669
 30
0.0
  0
SEQEND
  5
5DD
100
AcDbEntity
  8
LAY-3
  6
CONTINUOUS
 62
     1
  0
LINE
  5
5DE
100
AcDbEntity
  8
LAY-3
  6
CONTINUOUS
 62
     1
100
AcDbLine
 10
528.098595
 20
834.384298
 30
0.0
 11
524.262878
 21
825.0
 31
0.0
  0
LINE
  5
5DF
100
AcDbEntity
  8
LAY-3
  6
CONTINUOUS
 62
     1
100
AcDbLine
 10
524.262878
 20
825.0
 30
0.0
 11
530.934815
 21
832.633023
 31
0.0
  0
LINE
  5
5E0
100
AcDbEntity
  8
LAY-3
  6
CONTINUOUS
 62
     1
100
AcDbLine
 10
461.0
 20
825.0
 30
0.0
 11
405.862878
 21
825.0
 31
0.0
  0
TEXT
  5
5E1
100
AcDbEntity
  8
LAY-3
  6
CONTINUOUS
 62
     3
100
AcDbText
 10
537.462878
 20
847.715669
 30
0.0
 40
20.0
  1
ＪＩＳ１０Ｋ　２０Ａフランジ
 41
0.684
  7
EXCADSTD
 72
     5
 11
765.462878
 21
847.715669
 31
0.0
100
AcDbText
  0
LINE
  5
5E2
100
AcDbEntity
  8
LAY-3
  6
CONTINUOUS
 62
     2
100
AcDbLine
 10
1558.710926
 20
904.373821
 30
0.0
 11
1558.710926
 21
894.373821
 31
0.0
  0
LINE
  5
5E3
100
AcDbEntity
  8
LAY-3
  6
CONTINUOUS
 62
     2
100
AcDbLine
 10
1558.710926
 20
894.373821
 30
0.0
 11
1548.710926
 21
894.373821
 31
0.0
  0
LINE
  5
5E4
100
AcDbEntity
  8
LAY-3
  6
CONTINUOUS
 62
     2
100
AcDbLine
 10
1548.710926
 20
894.373821
 30
0.0
 11
1569.051433
 21
874.409198
 31
0.0
  0
LINE
  5
5E5
100
AcDbEntity
  8
LAY-3
  6
CONTINUOUS
 62
     2
100
AcDbLine
 10
1569.051433
 20
874.409198
 30
0.0
 11
1589.016056
 21
894.373821
 31
0.0
  0
LINE
  5
5E6
100
AcDbEntity
  8
LAY-3
  6
CONTINUOUS
 62
     2
100
AcDbLine
 10
1589.016056
 20
894.373821
 30
0.0
 11
1578.710926
 21
894.373821
 31
0.0
  0
LINE
  5
5E7
100
AcDbEntity
  8
LAY-3
  6
CONTINUOUS
 62
     2
100
AcDbLine
 10
1578.710926
 20
894.373821
 30
0.0
 11
1578.710926
 21
904.033314
 31
0.0
  0
LINE
  5
5E8
100
AcDbEntity
  8
LAY-3
  6
CONTINUOUS
 62
     2
100
AcDbLine
 10
1578.710926
 20
904.033314
 30
0.0
 11
1558.710926
 21
904.033314
 31
0.0
  0
LINE
  5
5E9
100
AcDbEntity
  8
LAY-3
  6
CONTINUOUS
 62
     2
100
AcDbLine
 10
521.289074
 20
904.373821
 30
0.0
 11
521.289074
 21
894.373821
 31
0.0
  0
LINE
  5
5EA
100
AcDbEntity
  8
LAY-3
  6
CONTINUOUS
 62
     2
100
AcDbLine
 10
521.289074
 20
894.373821
 30
0.0
 11
531.289074
 21
894.373821
 31
0.0
  0
LINE
  5
5EB
100
AcDbEntity
  8
LAY-3
  6
CONTINUOUS
 62
     2
100
AcDbLine
 10
531.289074
 20
894.373821
 30
0.0
 11
510.948567
 21
874.409198
 31
0.0
  0
LINE
  5
5EC
100
AcDbEntity
  8
LAY-3
  6
CONTINUOUS
 62
     2
100
AcDbLine
 10
510.948567
 20
874.409198
 30
0.0
 11
490.983944
 21
894.373821
 31
0.0
  0
LINE
  5
5ED
100
AcDbEntity
  8
LAY-3
  6
CONTINUOUS
 62
     2
100
AcDbLine
 10
490.983944
 20
894.373821
 30
0.0
 11
501.289074
 21
894.373821
 31
0.0
  0
LINE
  5
5EE
100
AcDbEntity
  8
LAY-3
  6
CONTINUOUS
 62
     2
100
AcDbLine
 10
501.289074
 20
894.373821
 30
0.0
 11
501.289074
 21
904.033314
 31
0.0
  0
LINE
  5
5EF
100
AcDbEntity
  8
LAY-3
  6
CONTINUOUS
 62
     2
100
AcDbLine
 10
501.289074
 20
904.033314
 30
0.0
 11
521.289074
 21
904.033314
 31
0.0
  0
TEXT
  5
5F0
100
AcDbEntity
  8
LAY-3
  6
CONTINUOUS
 62
     3
100
AcDbText
 10
537.462878
 20
599.515669
 30
0.0
 40
20.0
  1
ＪＩＳ１０Ｋ　２０Ａフランジ
 41
0.684
  7
EXCADSTD
 72
     5
 11
765.462878
 21
599.515669
 31
0.0
100
AcDbText
  0
TEXT
  5
5F1
100
AcDbEntity
  8
LAY-3
  6
CONTINUOUS
 62
     3
100
AcDbText
 10
648.462878
 20
779.915669
 30
0.0
 40
20.0
  1
Ｒｃ１／４
 41
0.84
  7
EXCADSTD
 72
     5
 11
748.462878
 21
779.915669
 31
0.0
100
AcDbText
  0
ENDSEC
  0
SECTION
  2
OBJECTS
  0
DICTIONARY
  5
19
100
AcDbDictionary
  3
ACAD_GROUP
350
1A
  3
ACAD_MLINESTYLE
350
1B
  0
DICTIONARY
  5
1A
102
{ACAD_REACTORS
330
19
102
}
100
AcDbDictionary
  0
DICTIONARY
  5
1B
102
{ACAD_REACTORS
330
19
102
}
100
AcDbDictionary
  3
STANDARD
350
1C
  0
MLINESTYLE
  5
1C
102
{ACAD_REACTORS
330
1B
102
}
100
AcDbMlineStyle
  2
Standard
 70
     0
  3

 62
     0
 51
90.0
 52
90.0
 71
     2
 49
0.5
 62
   256
  6
ByLayer
 49
-0.5
 62
   256
  6
ByLayer
  0
ENDSEC
  0
EOF
