  0
SECTION
  2
HEADER
  9
$ACADVER
  1
AC1014
  9
$ACADMAINTVER
 70
     0
  9
$DWGCODEPAGE
  3
ANSI_932
  9
$INSBASE
 10
0.0
 20
0.0
 30
0.0
  9
$EXTMIN
 10
35.25833
 20
24.967437
 30
0.0
  9
$EXTMAX
 10
1803.967949
 20
1431.967437
 30
0.0
  9
$LIMMIN
 10
0.0
 20
0.0
  9
$LIMMAX
 10
420.0
 20
297.0
  9
$ORTHOMODE
 70
     0
  9
$REGENMODE
 70
     1
  9
$FILLMODE
 70
     1
  9
$QTEXTMODE
 70
     0
  9
$MIRRTEXT
 70
     1
  9
$DRAGMODE
 70
     2
  9
$LTSCALE
 40
1.0
  9
$OSMODE
 70
     0
  9
$ATTMODE
 70
     1
  9
$TEXTSIZE
 40
0.2
  9
$TRACEWID
 40
0.05
  9
$TEXTSTYLE
  7
STANDARD
  9
$CLAYER
  8
LAY-1
  9
$CELTYPE
  6
CONTINUOUS
  9
$CECOLOR
 62
   256
  9
$CELTSCALE
 40
1.0
  9
$DELOBJ
 70
     1
  9
$DISPSILH
 70
     0
  9
$DIMSCALE
 40
1.0
  9
$DIMASZ
 40
0.18
  9
$DIMEXO
 40
0.0625
  9
$DIMDLI
 40
0.38
  9
$DIMRND
 40
0.0
  9
$DIMDLE
 40
0.0
  9
$DIMEXE
 40
0.18
  9
$DIMTP
 40
0.0
  9
$DIMTM
 40
0.0
  9
$DIMTXT
 40
0.18
  9
$DIMCEN
 40
0.09
  9
$DIMTSZ
 40
0.0
  9
$DIMTOL
 70
     0
  9
$DIMLIM
 70
     0
  9
$DIMTIH
 70
     1
  9
$DIMTOH
 70
     1
  9
$DIMSE1
 70
     0
  9
$DIMSE2
 70
     0
  9
$DIMTAD
 70
     0
  9
$DIMZIN
 70
     0
  9
$DIMBLK
  1

  9
$DIMASO
 70
     1
  9
$DIMSHO
 70
     1
  9
$DIMPOST
  1

  9
$DIMAPOST
  1

  9
$DIMALT
 70
     0
  9
$DIMALTD
 70
     2
  9
$DIMALTF
 40
25.4
  9
$DIMLFAC
 40
1.0
  9
$DIMTOFL
 70
     0
  9
$DIMTVP
 40
0.0
  9
$DIMTIX
 70
     0
  9
$DIMSOXD
 70
     0
  9
$DIMSAH
 70
     0
  9
$DIMBLK1
  1

  9
$DIMBLK2
  1

  9
$DIMSTYLE
  2
STANDARD
  9
$DIMCLRD
 70
     0
  9
$DIMCLRE
 70
     0
  9
$DIMCLRT
 70
     0
  9
$DIMTFAC
 40
1.0
  9
$DIMGAP
 40
0.09
  9
$DIMJUST
 70
     0
  9
$DIMSD1
 70
     0
  9
$DIMSD2
 70
     0
  9
$DIMTOLJ
 70
     1
  9
$DIMTZIN
 70
     0
  9
$DIMALTZ
 70
     0
  9
$DIMALTTZ
 70
     0
  9
$DIMFIT
 70
     3
  9
$DIMUPT
 70
     0
  9
$DIMUNIT
 70
     2
  9
$DIMDEC
 70
     4
  9
$DIMTDEC
 70
     4
  9
$DIMALTU
 70
     2
  9
$DIMALTTD
 70
     2
  9
$DIMTXSTY
  7
STANDARD
  9
$DIMAUNIT
 70
     0
  9
$LUNITS
 70
     2
  9
$LUPREC
 70
     4
  9
$SKETCHINC
 40
0.1
  9
$FILLETRAD
 40
0.0
  9
$AUNITS
 70
     0
  9
$AUPREC
 70
     0
  9
$MENU
  1
acad
  9
$ELEVATION
 40
0.0
  9
$PELEVATION
 40
0.0
  9
$THICKNESS
 40
0.0
  9
$LIMCHECK
 70
     0
  9
$BLIPMODE
 70
     1
  9
$CHAMFERA
 40
0.0
  9
$CHAMFERB
 40
0.0
  9
$CHAMFERC
 40
0.0
  9
$CHAMFERD
 40
0.0
  9
$SKPOLY
 70
     0
  9
$TDCREATE
 40
2456803.144865185
  9
$TDUPDATE
 40
2456803.144865185
  9
$TDINDWG
 40
0.0000000000
  9
$TDUSRTIMER
 40
0.0000000000
  9
$USRTIMER
 70
     1
  9
$ANGBASE
 50
0.0
  9
$ANGDIR
 70
     0
  9
$PDMODE
 70
     0
  9
$PDSIZE
 40
0.0
  9
$PLINEWID
 40
0.0
  9
$COORDS
 70
     1
  9
$SPLFRAME
 70
     0
  9
$SPLINETYPE
 70
     6
  9
$SPLINESEGS
 70
     8
  9
$ATTDIA
 70
     0
  9
$ATTREQ
 70
     1
  9
$HANDLING
 70
     1
  9
$HANDSEED
  5
765
  9
$SURFTAB1
 70
     6
  9
$SURFTAB2
 70
     6
  9
$SURFTYPE
 70
     6
  9
$SURFU
 70
     6
  9
$SURFV
 70
     6
  9
$UCSNAME
  2

  9
$UCSORG
 10
0.0
 20
0.0
 30
0.0
  9
$UCSXDIR
 10
1.0
 20
0.0
 30
0.0
  9
$UCSYDIR
 10
0.0
 20
1.0
 30
0.0
  9
$PUCSNAME
  2

  9
$PUCSORG
 10
0.0
 20
0.0
 30
0.0
  9
$PUCSXDIR
 10
1.0
 20
0.0
 30
0.0
  9
$PUCSYDIR
 10
0.0
 20
1.0
 30
0.0
  9
$USERI1
 70
     0
  9
$USERI2
 70
     0
  9
$USERI3
 70
     0
  9
$USERI4
 70
     0
  9
$USERI5
 70
     0
  9
$USERR1
 40
0.0
  9
$USERR2
 40
0.0
  9
$USERR3
 40
0.0
  9
$USERR4
 40
0.0
  9
$USERR5
 40
0.0
  9
$WORLDVIEW
 70
     1
  9
$SHADEDGE
 70
     3
  9
$SHADEDIF
 70
    70
  9
$TILEMODE
 70
     1
  9
$MAXACTVP
 70
    16
  9
$PINSBASE
 10
0.0
 20
0.0
 30
0.0
  9
$PLIMCHECK
 70
     0
  9
$PEXTMIN
 10
1.000000E+20
 20
1.000000E+20
 30
1.000000E+20
  9
$PEXTMAX
 10
-1.000000E+20
 20
-1.000000E+20
 30
-1.000000E+20
  9
$PLIMMIN
 10
0.0
 20
0.0
  9
$PLIMMAX
 10
12.0
 20
9.0
  9
$UNITMODE
 70
     0
  9
$VISRETAIN
 70
     0
  9
$PLINEGEN
 70
     1
  9
$PSLTSCALE
 70
     0
  9
$TREEDEPTH
 70
  3020
  9
$PICKSTYLE
 70
     1
  9
$CMLSTYLE
  2
Standard
  9
$CMLJUST
 70
     0
  9
$CMLSCALE
 40
1.0
  9
$PROXYGRAPHICS
 70
     0
  9
$MEASUREMENT
 70
     0
  0
ENDSEC
  0
SECTION
  2
CLASSES
  0
CLASS
  1
LWPOLYLINE
  2
AcDbPolyline
  3
"AutoCAD"
 90
        0
280
     0
281
     1
  0
CLASS
  1
IMAGE
  2
AcDbRasterImage
  3
ISM
 90
      127
280
     0
281
     1
  0
CLASS
  1
OLE2FRAME
  2
AcDbOle2Frame
  3
""
 90
        0
280
     0
281
     1
  0
CLASS
  1
HATCH
  2
AcDbHatch
  3
"ACAD_SEDONA"
 90
        0
280
     0
281
     1
  0
CLASS
  1
DICTIONARYVAR
  2
AcDbDictionaryVar
  3
"AutoCAD"
 90
        0
280
     0
281
     0
  0
CLASS
  1
RASTERVARIABLES
  2
AcDbRasterVariables
  3
ISM
 90
        0
280
     0
281
     0
  0
CLASS
  1
IMAGEDEF
  2
AcDbRasterImageDef
  3
ISM
 90
        0
280
     0
281
     0
  0
CLASS
  1
IMAGEDEF_REACTOR
  2
AcDbRasterImageDefReactor
  3
ISM
 90
        1
280
     0
281
     0
  0
CLASS
  1
IDBUFFER
  2
AcDbIdBuffer
  3
"Acad"
 90
        0
280
     0
281
     0
  0
CLASS
  1
SPATIAL_FILTER
  2
AcDbSpatialFilter
  3
"Acad"
 90
        0
280
     0
281
     0
  0
CLASS
  1
XRECORD
  2
AcDbXrecord
  3
"<Built In>"
 90
        0
280
     0
281
     0
  0
CLASS
  1
SORTENTSTABLE
  2
AcDbSortentsTable
  3
"AutoCAD"
 90
        0
280
     0
281
     0
  0
CLASS
  1
LAYER_INDEX
  2
AcDbLayerIndex
  3
"Acad"
 90
        0
280
     0
281
     0
  0
CLASS
  1
SPATIAL_INDEX
  2
AcDbSpatialIndex
  3
"Acad"
 90
        0
280
     0
281
     0
  0
CLASS
  1
OBJECT_PTR
  2
CAseDLPNTableRecord
  3
"ASE-LPNTableRecord"
 90
        1
280
     0
281
     0
  0
CLASS
  1
LAYOUT
  2
AcDbLayout
  3
"AutoCAD 2000"
 90
        0
280
     0
281
     0
  0
CLASS
  1
PLOTSETTINGS
  2
AcDbPlotSettings
  3
"AutoCAD 2000"
 90
        0
280
     0
281
     0
  0
CLASS
  1
ACDBDICTIONARYWDFLT
  2
AcDbDictionaryWithDefault
  3
"AutoCAD 2000"
 90
        0
280
     0
281
     0
  0
CLASS
  1
ACDBPLACEHOLDER
  2
AcDbPlaceHolder
  3
"AutoCAD 2000"
 90
        0
280
     0
281
     0
  0
CLASS
  1
VBA_PROJECT
  2
AcDbVbaProject
  3
"acadvba"
 90
        0
280
     0
281
     0
  0
CLASS
  1
WIPEOUT
  2
AcDbWipeout
  3
WipeOut|AutoCAD Express Tool|expresstools@autodesk.com
 90
      127
280
     0
281
     1
  0
CLASS
  1
WIPEOUTVARIABLES
  2
AcDbWipeoutVariables
  3
WipeOut|AutoCAD Express Tool|expresstools@autodesk.com
 90
        0
280
     0
281
     0
  0
CLASS
  1
RTEXT
  2
RText
  3
RText|AutoCAD Express Tool|expresstools@autodesk.com
 90
        0
280
     0
281
     1
  0
CLASS
  1
ARCALIGNEDTEXT
  2
AcDbArcAlignedText
  3
ATEXT|AutoCAD Express Tool|expresstools@autodesk.com
 90
        0
280
     0
281
     1
  0
ENDSEC
  0
SECTION
  2
TABLES
  0
TABLE
  2
VPORT
  5
7
100
AcDbSymbolTable
 70
     1
  0
VPORT
  5
15
100
AcDbSymbolTableRecord
100
AcDbViewportTableRecord
  2
*ACTIVE
 70
     0
 10
0.0
 20
0.0
 11
1.0
 21
1.0
 12
919.61314
 22
728.467437
 13
0.0
 23
0.0
 14
1.0
 24
1.0
 15
0.0
 25
0.0
 16
0.0
 26
0.0
 36
1.0
 17
0.0
 27
0.0
 37
0.0
 40
1407.0
 41
1.722533
 42
50.0
 43
0.0
 44
0.0
 50
0.0
 51
0.0
 71
     0
 72
  1000
 73
     1
 74
     1
 75
     0
 76
     0
 77
     0
 78
     0
  0
ENDTAB
  0
TABLE
  2
LTYPE
  5
4
100
AcDbSymbolTable
 70
     9
  0
LTYPE
  5
11
100
AcDbSymbolTableRecord
100
AcDbLinetypeTableRecord
  2
BYBLOCK
 70
    64
  3

 72
    65
 73
     0
 40
0.0
  0
LTYPE
  5
12
100
AcDbSymbolTableRecord
100
AcDbLinetypeTableRecord
  2
BYLAYER
 70
    64
  3

 72
    65
 73
     0
 40
0.0
  0
LTYPE
  5
13
100
AcDbSymbolTableRecord
100
AcDbLinetypeTableRecord
  2
CONTINUOUS
 70
    64
  3
実線
 72
    65
 73
     0
 40
0.0
  0
LTYPE
  5
1D
100
AcDbSymbolTableRecord
100
AcDbLinetypeTableRecord
  2
EXLTYPE1
 70
    64
  3
破線
 72
    65
 73
     2
 40
4.0
 49
3.0
 74
     0
 49
-1.0
 74
     0
  0
LTYPE
  5
1E
100
AcDbSymbolTableRecord
100
AcDbLinetypeTableRecord
  2
EXLTYPE2
 70
    64
  3
点線
 72
    65
 73
     2
 40
2.0
 49
1.0
 74
     0
 49
-1.0
 74
     0
  0
LTYPE
  5
1F
100
AcDbSymbolTableRecord
100
AcDbLinetypeTableRecord
  2
EXLTYPE3
 70
    64
  3
一点鎖線
 72
    65
 73
     4
 40
33.0
 49
30.0
 74
     0
 49
-1.0
 74
     0
 49
1.0
 74
     0
 49
-1.0
 74
     0
  0
LTYPE
  5
20
100
AcDbSymbolTableRecord
100
AcDbLinetypeTableRecord
  2
EXLTYPE4
 70
    64
  3
二点鎖線
 72
    65
 73
     6
 40
20.0
 49
10.0
 74
     0
 49
-2.0
 74
     0
 49
2.0
 74
     0
 49
-2.0
 74
     0
 49
2.0
 74
     0
 49
-2.0
 74
     0
  0
LTYPE
  5
21
100
AcDbSymbolTableRecord
100
AcDbLinetypeTableRecord
  2
EXLTYPE5
 70
    64
  3
三点鎖線
 72
    65
 73
     8
 40
37.0
 49
30.0
 74
     0
 49
-1.0
 74
     0
 49
1.0
 74
     0
 49
-1.0
 74
     0
 49
1.0
 74
     0
 49
-1.0
 74
     0
 49
1.0
 74
     0
 49
-1.0
 74
     0
  0
LTYPE
  5
22
100
AcDbSymbolTableRecord
100
AcDbLinetypeTableRecord
  2
EXLTYPE6
 70
    64
  3
四点鎖線
 72
    65
 73
    10
 40
39.0
 49
30.0
 74
     0
 49
-1.0
 74
     0
 49
1.0
 74
     0
 49
-1.0
 74
     0
 49
1.0
 74
     0
 49
-1.0
 74
     0
 49
1.0
 74
     0
 49
-1.0
 74
     0
 49
1.0
 74
     0
 49
-1.0
 74
     0
  0
ENDTAB
  0
TABLE
  2
LAYER
  5
2
100
AcDbSymbolTable
 70
     4
  0
LAYER
  5
14
100
AcDbSymbolTableRecord
100
AcDbLayerTableRecord
  2
0
 70
     0
 62
     7
  6
CONTINUOUS
  0
LAYER
  5
25
100
AcDbSymbolTableRecord
100
AcDbLayerTableRecord
  2
LAY-1
 70
    64
 62
     7
  6
CONTINUOUS
  0
LAYER
  5
26
100
AcDbSymbolTableRecord
100
AcDbLayerTableRecord
  2
LAY-3
 70
    64
 62
     1
  6
CONTINUOUS
  0
LAYER
  5
27
100
AcDbSymbolTableRecord
100
AcDbLayerTableRecord
  2
LAY-5
 70
    64
 62
     7
  6
CONTINUOUS
  0
ENDTAB
  0
TABLE
  2
STYLE
  5
3
100
AcDbSymbolTable
 70
     3
  0
STYLE
  5
17
100
AcDbSymbolTableRecord
100
AcDbTextStyleTableRecord
  2
STANDARD
 70
     0
 40
0.0
 41
1.0
 50
0.0
 71
     0
 42
0.0
  3
monotxt
  4
extfont
  0
STYLE
  5
23
100
AcDbSymbolTableRecord
100
AcDbTextStyleTableRecord
  2
EXCADSTD
 70
    64
 40
0.0
 41
1.0
 50
0.0
 71
     0
 42
0.2
  3
monotxt
  4
extfont
  0
STYLE
  5
24
100
AcDbSymbolTableRecord
100
AcDbTextStyleTableRecord
  2
EXCADVERT
 70
    68
 40
0.0
 41
1.0
 50
0.0
 71
     0
 42
0.286885
  3
monotxt
  4
extfont
  0
ENDTAB
  0
TABLE
  2
VIEW
  5
5
100
AcDbSymbolTable
 70
     0
  0
ENDTAB
  0
TABLE
  2
UCS
  5
6
100
AcDbSymbolTable
 70
     0
  0
ENDTAB
  0
TABLE
  2
APPID
  5
8
100
AcDbSymbolTable
 70
     1
  0
APPID
  5
16
100
AcDbSymbolTableRecord
100
AcDbRegAppTableRecord
  2
ACAD
 70
     0
  0
ENDTAB
  0
TABLE
  2
DIMSTYLE
  5
9
100
AcDbSymbolTable
 70
     1
  0
DIMSTYLE
105
18
100
AcDbSymbolTableRecord
100
AcDbDimStyleTableRecord
  2
STANDARD
 70
     0
  3

  4

  5

  6

  7

 40
1.0
 41
0.18
 42
0.0625
 43
0.38
 44
0.18
 45
0.0
 46
0.0
 47
0.0
 48
0.0
 71
     0
 72
     0
 73
     1
 74
     1
 75
     0
 76
     0
 77
     0
 78
     0
140
0.18
141
0.09
142
0.0
143
25.4
144
1.0
145
0.0
146
1.0
147
0.09
170
     0
171
     2
172
     1
173
     0
174
     0
175
     0
176
     0
177
     0
178
     0
270
     2
271
     4
272
     4
273
     2
274
     2
275
     0
280
     0
281
     0
282
     0
283
     1
284
     0
285
     0
286
     0
287
     3
288
     0
340
17
  0
ENDTAB
  0
TABLE
  2
BLOCK_RECORD
  5
1
100
AcDbSymbolTable
 70
    15
  0
BLOCK_RECORD
  5
A
100
AcDbSymbolTableRecord
100
AcDbBlockTableRecord
  2
*MODEL_SPACE
  0
BLOCK_RECORD
  5
B
100
AcDbSymbolTableRecord
100
AcDbBlockTableRecord
  2
*PAPER_SPACE
  0
BLOCK_RECORD
  5
28
100
AcDbSymbolTableRecord
100
AcDbBlockTableRecord
  2
_EX_NORM
  0
BLOCK_RECORD
  5
29
100
AcDbSymbolTableRecord
100
AcDbBlockTableRecord
  2
_EX_BNORM
  0
BLOCK_RECORD
  5
2A
100
AcDbSymbolTableRecord
100
AcDbBlockTableRecord
  2
_EX_BCIR
  0
BLOCK_RECORD
  5
2B
100
AcDbSymbolTableRecord
100
AcDbBlockTableRecord
  2
_EX_RCIVIL
  0
BLOCK_RECORD
  5
2C
100
AcDbSymbolTableRecord
100
AcDbBlockTableRecord
  2
_EX_SLANT
  0
BLOCK_RECORD
  5
2D
100
AcDbSymbolTableRecord
100
AcDbBlockTableRecord
  2
_EX_NONE
  0
BLOCK_RECORD
  5
2E
100
AcDbSymbolTableRecord
100
AcDbBlockTableRecord
  2
_EX_CIVIL
  0
BLOCK_RECORD
  5
2F
100
AcDbSymbolTableRecord
100
AcDbBlockTableRecord
  2
_EX_WCIR
  0
BLOCK_RECORD
  5
30
100
AcDbSymbolTableRecord
100
AcDbBlockTableRecord
  2
_EX_WCIR2
  0
BLOCK_RECORD
  5
31
100
AcDbSymbolTableRecord
100
AcDbBlockTableRecord
  2
_EX_WNORM
  0
BLOCK_RECORD
  5
32
100
AcDbSymbolTableRecord
100
AcDbBlockTableRecord
  2
_EX_NNORM
  0
BLOCK_RECORD
  5
33
100
AcDbSymbolTableRecord
100
AcDbBlockTableRecord
  2
_EX_BBOX
  0
BLOCK_RECORD
  5
34
100
AcDbSymbolTableRecord
100
AcDbBlockTableRecord
  2
_EX_WBOX
  0
BLOCK_RECORD
  5
35
100
AcDbSymbolTableRecord
100
AcDbBlockTableRecord
  2
_EX_INTEGRAL
  0
BLOCK_RECORD
  5
36
100
AcDbSymbolTableRecord
100
AcDbBlockTableRecord
  2
SYM-1
  0
ENDTAB
  0
ENDSEC
  0
SECTION
  2
BLOCKS
  0
BLOCK
  5
D
100
AcDbEntity
  8
0
100
AcDbBlockBegin
  2
*MODEL_SPACE
 70
     0
 10
0.0
 20
0.0
 30
0.0
  3
*MODEL_SPACE
  1

  0
ENDBLK
  5
E
100
AcDbEntity
  8
0
100
AcDbBlockEnd
  0
BLOCK
  5
F
100
AcDbEntity
 67
     1
  8
0
100
AcDbBlockBegin
  2
*PAPER_SPACE
 70
     0
 10
0.0
 20
0.0
 30
0.0
  3
*PAPER_SPACE
  1

  0
ENDBLK
  5
10
100
AcDbEntity
 67
     1
  8
0
100
AcDbBlockEnd
  0
BLOCK
  5
37
100
AcDbEntity
  8
0
100
AcDbBlockBegin
  2
_EX_NORM
 70
     0
 10
0.0
 20
0.0
 30
0.0
  3
_EX_NORM
  1

  0
LINE
  5
38
100
AcDbEntity
  8
0
  6
CONTINUOUS
 62
     0
100
AcDbLine
 10
0.0
 20
0.0
 30
0.0
 11
-1.0
 21
0.0
 31
0.0
  0
LINE
  5
39
100
AcDbEntity
  8
0
  6
CONTINUOUS
 62
     0
100
AcDbLine
 10
0.0
 20
0.0
 30
0.0
 11
-1.0
 21
0.166667
 31
0.0
  0
LINE
  5
3A
100
AcDbEntity
  8
0
  6
CONTINUOUS
 62
     0
100
AcDbLine
 10
0.0
 20
0.0
 30
0.0
 11
-1.0
 21
-0.166667
 31
0.0
  0
ENDBLK
  5
3B
100
AcDbEntity
  8
0
100
AcDbBlockEnd
  0
BLOCK
  5
3C
100
AcDbEntity
  8
0
100
AcDbBlockBegin
  2
_EX_BNORM
 70
     0
 10
0.0
 20
0.0
 30
0.0
  3
_EX_BNORM
  1

  0
LINE
  5
3D
100
AcDbEntity
  8
0
  6
CONTINUOUS
 62
     0
100
AcDbLine
 10
0.0
 20
0.0
 30
0.0
 11
-1.0
 21
0.0
 31
0.0
  0
LINE
  5
3E
100
AcDbEntity
  8
0
  6
CONTINUOUS
 62
     0
100
AcDbLine
 10
0.0
 20
0.0
 30
0.0
 11
-1.0
 21
0.166667
 31
0.0
  0
LINE
  5
3F
100
AcDbEntity
  8
0
  6
CONTINUOUS
 62
     0
100
AcDbLine
 10
0.0
 20
0.0
 30
0.0
 11
-1.0
 21
-0.166667
 31
0.0
  0
LINE
  5
40
100
AcDbEntity
  8
0
  6
CONTINUOUS
 62
     0
100
AcDbLine
 10
0.0
 20
0.0
 30
0.0
 11
-1.0
 21
0.083333
 31
0.0
  0
LINE
  5
41
100
AcDbEntity
  8
0
  6
CONTINUOUS
 62
     0
100
AcDbLine
 10
0.0
 20
0.0
 30
0.0
 11
-1.0
 21
-0.083333
 31
0.0
  0
LINE
  5
42
100
AcDbEntity
  8
0
  6
CONTINUOUS
 62
     0
100
AcDbLine
 10
-1.0
 20
0.166667
 30
0.0
 11
-1.0
 21
-0.166667
 31
0.0
  0
ENDBLK
  5
43
100
AcDbEntity
  8
0
100
AcDbBlockEnd
  0
BLOCK
  5
44
100
AcDbEntity
  8
0
100
AcDbBlockBegin
  2
_EX_BCIR
 70
     0
 10
0.0
 20
0.0
 30
0.0
  3
_EX_BCIR
  1

  0
LINE
  5
45
100
AcDbEntity
  8
0
  6
CONTINUOUS
 62
     0
100
AcDbLine
 10
0.0
 20
0.0
 30
0.0
 11
-1.0
 21
0.0
 31
0.0
  0
CIRCLE
  5
46
100
AcDbEntity
  8
0
  6
CONTINUOUS
 62
     0
100
AcDbCircle
 10
0.0
 20
0.0
 30
0.0
 40
0.5
  0
CIRCLE
  5
47
100
AcDbEntity
  8
0
  6
CONTINUOUS
 62
     0
100
AcDbCircle
 10
0.0
 20
0.0
 30
0.0
 40
0.25
  0
ENDBLK
  5
48
100
AcDbEntity
  8
0
100
AcDbBlockEnd
  0
BLOCK
  5
49
100
AcDbEntity
  8
0
100
AcDbBlockBegin
  2
_EX_RCIVIL
 70
     0
 10
0.0
 20
0.0
 30
0.0
  3
_EX_RCIVIL
  1

  0
LINE
  5
4A
100
AcDbEntity
  8
0
  6
CONTINUOUS
 62
     0
100
AcDbLine
 10
0.0
 20
0.0
 30
0.0
 11
-1.0
 21
0.0
 31
0.0
  0
LINE
  5
4B
100
AcDbEntity
  8
0
  6
CONTINUOUS
 62
     0
100
AcDbLine
 10
-1.0
 20
-0.25
 30
0.0
 11
0.0
 21
-0.25
 31
0.0
  0
LINE
  5
4C
100
AcDbEntity
  8
0
  6
CONTINUOUS
 62
     0
100
AcDbLine
 10
-1.0
 20
-0.125
 30
0.0
 11
0.0
 21
-0.125
 31
0.0
  0
ENDBLK
  5
4D
100
AcDbEntity
  8
0
100
AcDbBlockEnd
  0
BLOCK
  5
4E
100
AcDbEntity
  8
0
100
AcDbBlockBegin
  2
_EX_SLANT
 70
     0
 10
0.0
 20
0.0
 30
0.0
  3
_EX_SLANT
  1

  0
LINE
  5
4F
100
AcDbEntity
  8
0
  6
CONTINUOUS
 62
     0
100
AcDbLine
 10
0.0
 20
0.0
 30
0.0
 11
-1.0
 21
0.0
 31
0.0
  0
LINE
  5
50
100
AcDbEntity
  8
0
  6
CONTINUOUS
 62
     0
100
AcDbLine
 10
0.707107
 20
0.707107
 30
0.0
 11
-0.707107
 21
-0.707107
 31
0.0
  0
ENDBLK
  5
51
100
AcDbEntity
  8
0
100
AcDbBlockEnd
  0
BLOCK
  5
52
100
AcDbEntity
  8
0
100
AcDbBlockBegin
  2
_EX_NONE
 70
     0
 10
0.0
 20
0.0
 30
0.0
  3
_EX_NONE
  1

  0
LINE
  5
53
100
AcDbEntity
  8
0
  6
CONTINUOUS
 62
     0
100
AcDbLine
 10
0.0
 20
0.0
 30
0.0
 11
-1.0
 21
0.0
 31
0.0
  0
ENDBLK
  5
54
100
AcDbEntity
  8
0
100
AcDbBlockEnd
  0
BLOCK
  5
55
100
AcDbEntity
  8
0
100
AcDbBlockBegin
  2
_EX_CIVIL
 70
     0
 10
0.0
 20
0.0
 30
0.0
  3
_EX_CIVIL
  1

  0
LINE
  5
56
100
AcDbEntity
  8
0
  6
CONTINUOUS
 62
     0
100
AcDbLine
 10
0.0
 20
0.0
 30
0.0
 11
-1.0
 21
0.0
 31
0.0
  0
LINE
  5
57
100
AcDbEntity
  8
0
  6
CONTINUOUS
 62
     0
100
AcDbLine
 10
-1.0
 20
0.25
 30
0.0
 11
0.0
 21
0.25
 31
0.0
  0
LINE
  5
58
100
AcDbEntity
  8
0
  6
CONTINUOUS
 62
     0
100
AcDbLine
 10
-1.0
 20
0.125
 30
0.0
 11
0.0
 21
0.125
 31
0.0
  0
ENDBLK
  5
59
100
AcDbEntity
  8
0
100
AcDbBlockEnd
  0
BLOCK
  5
5A
100
AcDbEntity
  8
0
100
AcDbBlockBegin
  2
_EX_WCIR
 70
     0
 10
0.0
 20
0.0
 30
0.0
  3
_EX_WCIR
  1

  0
LINE
  5
5B
100
AcDbEntity
  8
0
  6
CONTINUOUS
 62
     0
100
AcDbLine
 10
0.0
 20
0.0
 30
0.0
 11
-1.0
 21
0.0
 31
0.0
  0
CIRCLE
  5
5C
100
AcDbEntity
  8
0
  6
CONTINUOUS
 62
     0
100
AcDbCircle
 10
0.0
 20
0.0
 30
0.0
 40
0.5
  0
ENDBLK
  5
5D
100
AcDbEntity
  8
0
100
AcDbBlockEnd
  0
BLOCK
  5
5E
100
AcDbEntity
  8
0
100
AcDbBlockBegin
  2
_EX_WCIR2
 70
     0
 10
0.0
 20
0.0
 30
0.0
  3
_EX_WCIR2
  1

  0
LINE
  5
5F
100
AcDbEntity
  8
0
  6
CONTINUOUS
 62
     0
100
AcDbLine
 10
-0.5
 20
0.0
 30
0.0
 11
-1.0
 21
0.0
 31
0.0
  0
CIRCLE
  5
60
100
AcDbEntity
  8
0
  6
CONTINUOUS
 62
     0
100
AcDbCircle
 10
0.0
 20
0.0
 30
0.0
 40
0.5
  0
ENDBLK
  5
61
100
AcDbEntity
  8
0
100
AcDbBlockEnd
  0
BLOCK
  5
62
100
AcDbEntity
  8
0
100
AcDbBlockBegin
  2
_EX_WNORM
 70
     0
 10
0.0
 20
0.0
 30
0.0
  3
_EX_WNORM
  1

  0
LINE
  5
63
100
AcDbEntity
  8
0
  6
CONTINUOUS
 62
     0
100
AcDbLine
 10
-1.0
 20
0.0
 30
0.0
 11
-1.0
 21
0.0
 31
0.0
  0
LINE
  5
64
100
AcDbEntity
  8
0
  6
CONTINUOUS
 62
     0
100
AcDbLine
 10
0.0
 20
0.0
 30
0.0
 11
-1.0
 21
0.166667
 31
0.0
  0
LINE
  5
65
100
AcDbEntity
  8
0
  6
CONTINUOUS
 62
     0
100
AcDbLine
 10
0.0
 20
0.0
 30
0.0
 11
-1.0
 21
-0.166667
 31
0.0
  0
LINE
  5
66
100
AcDbEntity
  8
0
  6
CONTINUOUS
 62
     0
100
AcDbLine
 10
-1.0
 20
0.166667
 30
0.0
 11
-1.0
 21
-0.166667
 31
0.0
  0
ENDBLK
  5
67
100
AcDbEntity
  8
0
100
AcDbBlockEnd
  0
BLOCK
  5
68
100
AcDbEntity
  8
0
100
AcDbBlockBegin
  2
_EX_NNORM
 70
     0
 10
0.0
 20
0.0
 30
0.0
  3
_EX_NNORM
  1

  0
LINE
  5
69
100
AcDbEntity
  8
0
  6
CONTINUOUS
 62
     0
100
AcDbLine
 10
0.0
 20
0.0
 30
0.0
 11
-1.0
 21
0.0
 31
0.0
  0
LINE
  5
6A
100
AcDbEntity
  8
0
  6
CONTINUOUS
 62
     0
100
AcDbLine
 10
0.0
 20
0.0
 30
0.0
 11
-1.0
 21
0.166667
 31
0.0
  0
LINE
  5
6B
100
AcDbEntity
  8
0
  6
CONTINUOUS
 62
     0
100
AcDbLine
 10
0.0
 20
0.0
 30
0.0
 11
-1.0
 21
-0.166667
 31
0.0
  0
LINE
  5
6C
100
AcDbEntity
  8
0
  6
CONTINUOUS
 62
     0
100
AcDbLine
 10
-1.0
 20
0.166667
 30
0.0
 11
-1.0
 21
-0.166667
 31
0.0
  0
ENDBLK
  5
6D
100
AcDbEntity
  8
0
100
AcDbBlockEnd
  0
BLOCK
  5
6E
100
AcDbEntity
  8
0
100
AcDbBlockBegin
  2
_EX_BBOX
 70
     0
 10
0.0
 20
0.0
 30
0.0
  3
_EX_BBOX
  1

  0
LINE
  5
6F
100
AcDbEntity
  8
0
  6
CONTINUOUS
 62
     0
100
AcDbLine
 10
0.0
 20
0.0
 30
0.0
 11
-1.0
 21
0.0
 31
0.0
  0
LINE
  5
70
100
AcDbEntity
  8
0
  6
CONTINUOUS
 62
     0
100
AcDbLine
 10
-0.5
 20
0.5
 30
0.0
 11
0.5
 21
0.5
 31
0.0
  0
LINE
  5
71
100
AcDbEntity
  8
0
  6
CONTINUOUS
 62
     0
100
AcDbLine
 10
0.5
 20
0.5
 30
0.0
 11
0.5
 21
-0.5
 31
0.0
  0
LINE
  5
72
100
AcDbEntity
  8
0
  6
CONTINUOUS
 62
     0
100
AcDbLine
 10
0.5
 20
-0.5
 30
0.0
 11
-0.5
 21
-0.5
 31
0.0
  0
LINE
  5
73
100
AcDbEntity
  8
0
  6
CONTINUOUS
 62
     0
100
AcDbLine
 10
-0.5
 20
-0.5
 30
0.0
 11
-0.5
 21
0.5
 31
0.0
  0
LINE
  5
74
100
AcDbEntity
  8
0
  6
CONTINUOUS
 62
     0
100
AcDbLine
 10
-0.25
 20
0.25
 30
0.0
 11
0.25
 21
0.25
 31
0.0
  0
LINE
  5
75
100
AcDbEntity
  8
0
  6
CONTINUOUS
 62
     0
100
AcDbLine
 10
0.25
 20
0.25
 30
0.0
 11
0.25
 21
-0.25
 31
0.0
  0
LINE
  5
76
100
AcDbEntity
  8
0
  6
CONTINUOUS
 62
     0
100
AcDbLine
 10
0.25
 20
-0.25
 30
0.0
 11
-0.25
 21
-0.25
 31
0.0
  0
LINE
  5
77
100
AcDbEntity
  8
0
  6
CONTINUOUS
 62
     0
100
AcDbLine
 10
-0.25
 20
-0.25
 30
0.0
 11
-0.25
 21
0.25
 31
0.0
  0
ENDBLK
  5
78
100
AcDbEntity
  8
0
100
AcDbBlockEnd
  0
BLOCK
  5
79
100
AcDbEntity
  8
0
100
AcDbBlockBegin
  2
_EX_WBOX
 70
     0
 10
0.0
 20
0.0
 30
0.0
  3
_EX_WBOX
  1

  0
LINE
  5
7A
100
AcDbEntity
  8
0
  6
CONTINUOUS
 62
     0
100
AcDbLine
 10
-0.5
 20
0.0
 30
0.0
 11
-1.0
 21
0.0
 31
0.0
  0
LINE
  5
7B
100
AcDbEntity
  8
0
  6
CONTINUOUS
 62
     0
100
AcDbLine
 10
-0.5
 20
0.5
 30
0.0
 11
0.5
 21
0.5
 31
0.0
  0
LINE
  5
7C
100
AcDbEntity
  8
0
  6
CONTINUOUS
 62
     0
100
AcDbLine
 10
0.5
 20
0.5
 30
0.0
 11
0.5
 21
-0.5
 31
0.0
  0
LINE
  5
7D
100
AcDbEntity
  8
0
  6
CONTINUOUS
 62
     0
100
AcDbLine
 10
0.5
 20
-0.5
 30
0.0
 11
-0.5
 21
-0.5
 31
0.0
  0
LINE
  5
7E
100
AcDbEntity
  8
0
  6
CONTINUOUS
 62
     0
100
AcDbLine
 10
-0.5
 20
-0.5
 30
0.0
 11
-0.5
 21
0.5
 31
0.0
  0
ENDBLK
  5
7F
100
AcDbEntity
  8
0
100
AcDbBlockEnd
  0
BLOCK
  5
80
100
AcDbEntity
  8
0
100
AcDbBlockBegin
  2
_EX_INTEGRAL
 70
     0
 10
0.0
 20
0.0
 30
0.0
  3
_EX_INTEGRAL
  1

  0
LINE
  5
81
100
AcDbEntity
  8
0
  6
CONTINUOUS
 62
     0
100
AcDbLine
 10
0.0
 20
0.0
 30
0.0
 11
-1.0
 21
0.0
 31
0.0
  0
ARC
  5
82
100
AcDbEntity
  8
0
  6
CONTINUOUS
 62
     0
100
AcDbCircle
 10
0.542115
 20
0.164992
 30
0.0
 40
0.56667
100
AcDbArc
 50
73.07249
 51
196.927513
  0
ARC
  5
83
100
AcDbEntity
  8
0
  6
CONTINUOUS
 62
     0
100
AcDbCircle
 10
-0.542115
 20
-0.164992
 30
0.0
 40
0.56667
100
AcDbArc
 50
253.072487
 51
16.927513
  0
ENDBLK
  5
84
100
AcDbEntity
  8
0
100
AcDbBlockEnd
  0
BLOCK
  5
85
100
AcDbEntity
  8
0
100
AcDbBlockBegin
  2
SYM-1
 70
     0
 10
0.0
 20
0.0
 30
0.0
  3
SYM-1
  1

  0
HATCH
  5
86
100
AcDbEntity
  8
0
  6
CONTINUOUS
 62
     3
100
AcDbHatch
 10
0.0
 20
0.0
 30
0.0
210
0.0
220
0.0
230
1.0
  2
SOLID
 70
     1
 71
     1
 91
        1
 92
        1
 93
       16
 72
     1
 10
24.351152239011505
 20
-2.0357142857144446
 11
25.613295096154353
 21
-2.0357142857144446
 72
     1
 10
25.613295096154353
 20
-2.0357142857144446
 11
25.613295096154353
 21
-2.8500000000001648
 72
     1
 10
25.613295096154353
 20
-2.8500000000001648
 11
22.23400938186861
 21
-2.8500000000001648
 72
     1
 10
22.23400938186861
 20
-2.8500000000001648
 11
22.23400938186861
 21
-2.0357142857144446
 72
     1
 10
22.23400938186861
 20
-2.0357142857144446
 11
23.536866524725802
 21
-2.0357142857144446
 72
     1
 10
23.536866524725802
 20
-2.0357142857144446
 11
23.536866524725802
 21
0.3257142857141346
 72
     1
 10
23.536866524725802
 20
0.3257142857141346
 11
22.519009381868621
 21
0.3257142857141346
 72
     1
 10
22.519009381868621
 20
0.3257142857141346
 11
22.519009381868621
 21
1.1399999999998514
 72
     1
 10
22.519009381868621
 20
1.1399999999998514
 11
23.536866524725802
 21
1.1399999999998514
 72
     1
 10
23.536866524725802
 20
1.1399999999998514
 11
23.536866524725802
 21
2.8499999999998487
 72
     1
 10
23.536866524725802
 20
2.8499999999998487
 11
24.351152239011505
 21
2.8499999999998487
 72
     1
 10
24.351152239011505
 20
2.8499999999998487
 11
24.351152239011505
 21
1.1399999999998514
 72
     1
 10
24.351152239011505
 20
1.1399999999998514
 11
25.531866524725821
 21
1.1399999999998514
 72
     1
 10
25.531866524725821
 20
1.1399999999998514
 11
25.531866524725821
 21
0.3257142857141346
 72
     1
 10
25.531866524725821
 20
0.3257142857141346
 11
24.351152239011505
 21
0.3257142857141346
 72
     1
 10
24.351152239011505
 20
0.3257142857141346
 11
24.351152239011505
 21
-2.0357142857144446
 97
        0
 75
     0
 76
     1
 98
        1
 10
0.0
 20
0.0
  0
HATCH
  5
87
100
AcDbEntity
  8
0
  6
CONTINUOUS
 62
     3
100
AcDbHatch
 10
0.0
 20
0.0
 30
0.0
210
0.0
220
0.0
230
1.0
  2
SOLID
 70
     1
 71
     1
 91
        1
 92
        1
 93
       17
 72
     2
 10
15.796286246552746
 20
4.4303755974531924
 40
7.328571428571454
 50
44.165469
 51
51.472792
 73
     0
 72
     1
 10
20.361152239011439
 20
-1.3028571428572775
 11
19.948878200429583
 21
-0.5887775613918898
 72
     2
 10
15.796286246552746
 20
4.4303755974531924
 40
6.5142857142857364
 50
309.602625
 51
331.307968
 73
     1
 72
     1
 10
21.510701937024301
 20
1.3028571428570004
 11
20.157580810440017
 21
1.3028571428570004
 72
     1
 10
20.157580810440017
 20
1.3028571428570004
 11
20.157580810440017
 21
2.0357142857141319
 72
     1
 10
20.157580810440017
 20
2.0357142857141319
 11
21.053295096154336
 21
2.0357142857141319
 72
     1
 10
21.053295096154336
 20
2.0357142857141319
 11
21.053295096154336
 21
2.8499999999998487
 72
     1
 10
21.053295096154336
 20
2.8499999999998487
 11
21.786152239011507
 21
2.8499999999998487
 72
     1
 10
21.786152239011507
 20
2.8499999999998487
 11
21.786152239011507
 21
2.0357142857141319
 72
     1
 10
21.786152239011507
 20
2.0357142857141319
 11
22.722580810439986
 21
2.0357142857141319
 72
     2
 10
15.796286246552746
 20
4.4303755974531924
 40
7.328571428571454
 50
19.072051
 51
32.871988
 73
     0
 72
     1
 10
21.951445818831196
 20
0.4526916201288422
 11
22.926152239011437
 21
-0.4885714285715821
 72
     1
 10
22.926152239011437
 20
-0.4885714285715821
 11
22.350277580116831
 21
-1.0644460874662265
 72
     1
 10
22.350277580116831
 20
-1.0644460874662265
 11
21.786152239011507
 21
-0.5196765779765897
 72
     1
 10
21.786152239011507
 20
-0.5196765779765897
 11
21.786152239011507
 21
-2.8500000000001648
 72
     1
 10
21.786152239011507
 20
-2.8500000000001648
 11
21.053295096154336
 21
-2.8500000000001648
 72
     1
 10
21.053295096154336
 20
-2.8500000000001648
 11
21.053295096154336
 21
-0.6756813096801793
 97
        0
 75
     0
 76
     1
 98
        1
 10
0.0
 20
0.0
  0
HATCH
  5
88
100
AcDbEntity
  8
0
  6
CONTINUOUS
 62
     3
100
AcDbHatch
 10
0.0
 20
0.0
 30
0.0
210
0.0
220
0.0
230
1.0
  2
SOLID
 70
     1
 71
     1
 91
        1
 92
        1
 93
       12
 72
     2
 10
26.09465466477446
 20
-6.5604295733743392
 40
11.481428571428609
 50
150.903074
 51
156.790773
 73
     1
 72
     1
 10
15.542396441700383
 20
-2.035714285714505
 11
18.049394029288031
 21
-2.0357142857144055
 72
     2
 10
10.927987441101074
 20
-4.0835590566205937
 40
7.4100000000000241
 50
16.043216
 51
21.362935
 73
     1
 72
     1
 10
17.828858648663306
 20
-1.3842857142858769
 11
18.610437953297115
 21
-1.3842857142858769
 72
     2
 10
10.927987441101074
 20
-4.0835590566205937
 40
8.1428571428571708
 50
340.64078
 51
351.286733
 73
     0
 72
     1
 10
18.976866524725686
 20
-2.8500000000001648
 11
14.457580810439971
 21
-2.8500000000001648
 72
     2
 10
26.09465466477446
 20
-6.5604295733743392
 40
12.214285714285754
 50
197.684652
 51
207.200855
 73
     0
 72
     1
 10
15.231152239011401
 20
-0.9771428571430043
 11
14.091152239011485
 21
-0.9771428571430043
 72
     1
 10
14.091152239011485
 20
-0.9771428571430043
 11
14.091152239011485
 21
-0.162857142857284
 72
     1
 10
14.091152239011485
 20
-0.162857142857284
 11
19.302580810440098
 21
-0.162857142857284
 72
     1
 10
19.302580810440098
 20
-0.162857142857284
 11
19.302580810440098
 21
-0.9771428571430043
 72
     1
 10
19.302580810440098
 20
-0.9771428571430043
 11
16.062201750099412
 21
-0.9771428571430043
 97
        0
 75
     0
 76
     1
 98
        1
 10
0.0
 20
0.0
  0
HATCH
  5
89
100
AcDbEntity
  8
0
  6
CONTINUOUS
 62
     3
100
AcDbHatch
 10
0.0
 20
0.0
 30
0.0
210
0.0
220
0.0
230
1.0
  2
SOLID
 70
     1
 71
     1
 91
        1
 92
        1
 93
       10
 72
     2
 10
26.143491684008573
 20
11.064410217386417
 40
13.028571428571473
 50
129.545698
 51
136.474664
 73
     0
 72
     1
 10
16.696866524725998
 20
2.0919553376225579
 11
16.696866524725998
 21
2.8499999999998487
 72
     1
 10
16.696866524725998
 20
2.8499999999998487
 11
17.104009381868686
 21
2.8499999999998487
 72
     2
 10
26.143491684008573
 20
11.064410217386417
 40
12.214285714285754
 50
222.262231
 51
237.763996
 73
     1
 72
     1
 10
19.628295096154382
 20
0.7328571428570001
 11
19.100346295490944
 21
0.1036722629605507
 72
     2
 10
26.143491684008573
 20
11.064410217386417
 40
13.028571428571473
 50
122.723968
 51
128.230009
 73
     0
 72
     1
 10
18.08115223901148
 20
0.830038905819066
 11
18.08115223901148
 21
0.2035714285712729
 72
     1
 10
18.08115223901148
 20
0.2035714285712729
 11
16.696866524725998
 21
0.2035714285712729
 72
     1
 10
16.696866524725998
 20
0.2035714285712729
 11
16.696866524725998
 21
1.0178571428569896
 72
     1
 10
16.696866524725998
 20
1.0178571428569896
 11
17.848285550942784
 21
1.0178571428569896
 97
        0
 75
     0
 76
     1
 98
        1
 10
0.0
 20
0.0
  0
HATCH
  5
8A
100
AcDbEntity
  8
0
  6
CONTINUOUS
 62
     3
100
AcDbHatch
 10
0.0
 20
0.0
 30
0.0
210
0.0
220
0.0
230
1.0
  2
SOLID
 70
     1
 71
     1
 91
        1
 92
        1
 93
       10
 72
     2
 10
7.2502413654429532
 20
11.064410217386417
 40
13.028571428571473
 50
51.769991
 51
57.276032
 73
     0
 72
     1
 10
14.293386753960569
 20
0.1036722629605329
 11
13.76543795329713
 21
0.7328571428569894
 72
     2
 10
7.2502413654429532
 20
11.064410217386417
 40
12.214285714285754
 50
302.236004
 51
317.737769
 73
     1
 72
     1
 10
16.289723667582841
 20
2.8499999999998487
 11
16.696866524725998
 21
2.8499999999998487
 72
     1
 10
16.696866524725998
 20
2.8499999999998487
 11
16.696866524725998
 21
2.0919553376230482
 72
     2
 10
7.2502413654429532
 20
11.064410217386417
 40
13.028571428571473
 50
43.525336
 51
50.454302
 73
     0
 72
     1
 10
15.545447498508743
 20
1.0178571428569896
 11
16.696866524725998
 21
1.0178571428569896
 72
     1
 10
16.696866524725998
 20
1.0178571428569896
 11
16.696866524725998
 21
0.2035714285712729
 72
     1
 10
16.696866524725998
 20
0.2035714285712729
 11
15.312580810440046
 21
0.2035714285712729
 72
     1
 10
15.312580810440046
 20
0.2035714285712729
 11
15.312580810440046
 21
0.8300389058190589
 97
        0
 75
     0
 76
     1
 98
        1
 10
0.0
 20
0.0
  0
HATCH
  5
8B
100
AcDbEntity
  8
0
  6
CONTINUOUS
 62
     3
100
AcDbHatch
 10
0.0
 20
0.0
 30
0.0
210
0.0
220
0.0
230
1.0
  2
SOLID
 70
     1
 71
     1
 91
        1
 92
        1
 93
       18
 72
     2
 10
1.2571935216656343
 20
-0.8093264034321166
 40
11.400000000000038
 50
14.02954
 51
18.723021
 73
     1
 72
     1
 10
12.053921279331213
 20
2.8499999999998487
 11
12.910437953297141
 21
2.8499999999998487
 72
     2
 10
1.2571935216656343
 20
-0.8093264034321166
 40
12.214285714285754
 50
342.566782
 51
346.922981
 73
     0
 72
     1
 10
13.15472366758285
 20
1.9542857142855716
 11
13.480437953297177
 21
1.9542857142855716
 72
     1
 10
13.480437953297177
 20
1.9542857142855716
 11
13.480437953297177
 21
1.1399999999998407
 72
     1
 10
13.480437953297177
 20
1.1399999999998407
 11
11.958092734747289
 21
1.1399999999998514
 72
     2
 10
20.401866524725683
 20
2.4835714285712918
 40
8.5500000000000291
 50
189.041096
 51
204.65198
 73
     1
 72
     2
 10
14.334076117775972
 20
-0.301141422634494
 40
1.8737206404808271
 50
204.65198
 51
242.897449
 73
     1
 72
     1
 10
13.480437953297177
 20
-1.9691135215345774
 11
13.480437953297177
 21
-2.8500000000001648
 72
     2
 10
14.334076117775972
 20
-0.301141422634494
 40
2.6880063547665438
 50
108.516212
 51
155.34802
 73
     0
 72
     2
 10
20.401866524725683
 20
2.4835714285712918
 40
9.3642857142857441
 50
155.34802
 51
171.750831
 73
     0
 72
     1
 10
11.134468683092756
 20
1.1399999999998549
 11
8.0247236675828972
 21
1.1399999999998407
 72
     1
 10
8.0247236675828972
 20
1.1399999999998407
 11
8.0247236675828972
 21
1.9542857142855716
 72
     1
 10
8.0247236675828972
 20
1.9542857142855716
 11
11.050355927894167
 21
1.9542857142855716
 72
     1
 10
11.050355927894167
 20
1.9542857142855716
 11
11.019076895792274
 21
2.8499999999998487
 72
     1
 10
11.019076895792274
 20
2.8499999999998487
 11
11.833858953292697
 21
2.8499999999998487
 72
     1
 10
11.833858953292697
 20
2.8499999999998487
 11
11.865137985394604
 21
1.9542857142855716
 72
     1
 10
11.865137985394604
 20
1.9542857142855716
 11
12.317141444816265
 21
1.9542857142855716
 97
        0
 75
     0
 76
     1
 98
        1
 10
0.0
 20
0.0
  0
HATCH
  5
8C
100
AcDbEntity
  8
0
  6
CONTINUOUS
 62
     3
100
AcDbHatch
 10
0.0
 20
0.0
 30
0.0
210
0.0
220
0.0
230
1.0
  2
SOLID
 70
     1
 71
     1
 91
        1
 92
        1
 93
       12
 72
     2
 10
5.4617420309248317
 20
38.027820957415145
 40
39.900000000000134
 50
276.500664
 51
278.269357
 73
     1
 72
     1
 10
11.200437953297204
 20
-1.457332823601817
 11
11.20043795329719
 21
-2.2800000000001504
 72
     2
 10
5.4617420309248317
 20
38.027820957415145
 40
40.71428571428585
 50
81.897153
 51
86.39082
 73
     0
 72
     1
 10
8.024723667582883
 20
-2.6057142857144413
 11
8.024723667582883
 21
-1.7897772264302034
 72
     2
 10
5.4617420309248317
 20
38.027820957415145
 40
39.900000000000134
 50
273.682937
 51
275.325087
 73
     1
 72
     1
 10
9.1647236675828836
 20
-1.6999769553635602
 11
9.1647236675828836
 21
-0.4071428571430218
 72
     1
 10
9.1647236675828836
 20
-0.4071428571430218
 11
8.0247236675828972
 21
-0.4071428571430218
 72
     1
 10
8.0247236675828972
 20
-0.4071428571430218
 11
8.0247236675828972
 21
0.4071428571426949
 72
     1
 10
8.0247236675828972
 20
0.4071428571426949
 11
10.95615223901148
 21
0.4071428571426949
 72
     1
 10
10.95615223901148
 20
0.4071428571426949
 11
10.95615223901148
 21
-0.4071428571430218
 72
     1
 10
10.95615223901148
 20
-0.4071428571430218
 11
9.9790093818686287
 21
-0.4071428571430218
 72
     1
 10
9.9790093818686287
 20
-0.4071428571430218
 11
9.9790093818685861
 21
-1.6156437710884397
 97
        0
 75
     0
 76
     1
 98
        1
 10
0.0
 20
0.0
  0
HATCH
  5
8D
100
AcDbEntity
  8
0
  6
CONTINUOUS
 62
     3
100
AcDbHatch
 10
0.0
 20
0.0
 30
0.0
210
0.0
220
0.0
230
1.0
  2
SOLID
 70
     1
 71
     1
 91
        1
 92
        1
 93
       30
 72
     2
 10
-1.8979256098940809
 20
4.1519130391923014
 40
8.9164285714286002
 50
37.940537
 51
46.713808
 73
     0
 72
     1
 10
4.21556076329842
 20
-2.3386942385728418
 11
3.6682950961542744
 21
-1.7914285714286962
 72
     2
 10
-1.8979256098940809
 20
4.1519130391923014
 40
8.1428571428571743
 50
313.123325
 51
325.95222
 73
     1
 72
     1
 10
4.8490093818684983
 20
-0.4071428571430076
 11
3.8718665247257533
 21
-0.4071428571430076
 72
     1
 10
3.8718665247257533
 20
-0.4071428571430076
 11
3.8718665247257533
 21
0.4071428571427092
 72
     1
 10
3.8718665247257533
 20
0.4071428571427092
 11
5.1340093818686157
 21
0.4071428571427092
 72
     1
 10
5.1340093818686157
 20
0.4071428571427092
 11
5.1340093818686157
 21
1.2214285714284152
 72
     1
 10
5.1340093818686157
 20
1.2214285714284152
 11
4.7280236542212677
 21
1.2214285714284152
 72
     2
 10
-3.9789687629962955
 20
2.9438069062169916
 40
8.8757142857143183
 50
11.189535
 51
14.746058
 73
     0
 72
     1
 10
4.6044101437030562
 20
0.6846232869284066
 11
3.9125808104399411
 21
0.9364285714284044
 72
     2
 10
-3.9789687629962955
 20
2.9438069062169916
 40
8.1428571428571743
 50
345.728313
 51
357.620387
 73
     1
 72
     1
 10
4.1568665247257641
 20
2.6057142857165694
 11
4.8844833536651819
 21
2.4774158071570227
 72
     2
 10
-3.9789687629962955
 20
2.9438069062169916
 40
8.8757142857143183
 50
3.012102
 51
6.401006
 73
     0
 72
     1
 10
4.8414139890361767
 20
1.9542857142855716
 11
5.1340093818686157
 21
1.9542857142855716
 72
     1
 10
5.1340093818686157
 20
1.9542857142855716
 11
5.1340093818686157
 21
2.8499999999998487
 72
     1
 10
5.1340093818686157
 20
2.8499999999998487
 11
5.948295096154304
 21
2.8499999999998487
 72
     1
 10
5.948295096154304
 20
2.8499999999998487
 11
5.948295096154304
 21
1.9542857142855716
 72
     1
 10
5.948295096154304
 20
1.9542857142855716
 11
7.0475808104400599
 21
1.9542857142855716
 72
     1
 10
7.0475808104400599
 20
1.9542857142855716
 11
7.0475808104400599
 21
1.2214285714284152
 72
     1
 10
7.0475808104400599
 20
1.2214285714284152
 11
5.948295096154304
 21
1.2214285714284152
 72
     1
 10
5.948295096154304
 20
1.2214285714284152
 11
5.948295096154304
 21
0.4071428571427092
 72
     1
 10
5.948295096154304
 20
0.4071428571427092
 11
7.2104379532971521
 21
0.4071428571427092
 72
     1
 10
7.2104379532971521
 20
0.4071428571427092
 11
7.2104379532971521
 21
-0.4071428571430076
 72
     1
 10
7.2104379532971521
 20
-0.4071428571430076
 11
6.2332950961542579
 21
-0.4071428571430076
 72
     2
 10
12.98023008791683
 20
4.1519130391922907
 40
8.1428571428571743
 50
214.04778
 51
226.876675
 73
     1
 72
     1
 10
7.4140093818684889
 20
-1.7914285714286962
 11
6.866743714724322
 21
-2.3386942385728453
 72
     2
 10
12.98023008791683
 20
4.1519130391922907
 40
8.9164285714286002
 50
133.286192
 51
142.059463
 73
     0
 72
     1
 10
5.948295096154304
 20
-1.330293518482641
 11
5.948295096154304
 21
-2.8500000000001648
 72
     1
 10
5.948295096154304
 20
-2.8500000000001648
 11
5.1340093818686157
 21
-2.8500000000001648
 72
     1
 10
5.1340093818686157
 20
-2.8500000000001648
 11
5.1340093818686157
 21
-1.3302935184824136
 97
        0
 75
     0
 76
     1
 98
        1
 10
0.0
 20
0.0
  0
HATCH
  5
8E
100
AcDbEntity
  8
0
  6
CONTINUOUS
 62
     3
100
AcDbHatch
 10
0.0
 20
0.0
 30
0.0
210
0.0
220
0.0
230
1.0
  2
SOLID
 70
     1
 71
     1
 91
        1
 92
        1
 93
       19
 72
     2
 10
-5.2499698511775321
 20
3.0651230633969284
 40
8.8757142857143165
 50
27.683433
 51
32.280505
 73
     0
 72
     1
 10
2.2539459810095721
 20
-1.6750827617845943
 11
1.6732950961542841
 21
-1.2214285714287314
 72
     2
 10
-5.2499698511775321
 20
3.0651230633969284
 40
8.1428571428571708
 50
328.236207
 51
344.845745
 73
     1
 72
     1
 10
2.6097236675827773
 20
0.9364285714284151
 11
1.8768665247257346
 21
0.9364285714284151
 72
     1
 10
1.8768665247257346
 20
0.9364285714284151
 11
1.8768665247257346
 21
1.7507142857141353
 72
     1
 10
1.8768665247257346
 20
1.7507142857141353
 11
2.6097236675829052
 21
1.7507142857141353
 72
     1
 10
2.6097236675829052
 20
1.7507142857141353
 11
2.6097236675829052
 21
2.8499999999998487
 72
     1
 10
2.6097236675829052
 20
2.8499999999998487
 11
3.4240093818685935
 21
2.8499999999998487
 72
     1
 10
3.4240093818685935
 20
2.8499999999998487
 11
3.4240093818685935
 21
1.7507142857141353
 72
     1
 10
3.4240093818685935
 20
1.7507142857141353
 11
3.7904379532971788
 21
1.7507142857141353
 72
     1
 10
3.7904379532971788
 20
1.7507142857141353
 11
3.7904379532971788
 21
0.9364285714284151
 72
     1
 10
3.7904379532971788
 20
0.9364285714284151
 11
3.4240093818685367
 21
0.9364285714284151
 72
     1
 10
3.4240093818685367
 20
0.9364285714284151
 11
3.8718665247257533
 21
0.2968222855516665
 72
     1
 10
3.8718665247257533
 20
0.2968222855516665
 11
3.8718665247257533
 21
-0.1989042363292235
 72
     1
 10
3.8718665247257533
 20
-0.1989042363292235
 11
3.6275808104399871
 21
-0.4900326139487277
 72
     1
 10
3.6275808104399871
 20
-0.4900326139487277
 11
3.4240093818685935
 21
-0.1993024840048498
 72
     1
 10
3.4240093818685935
 20
-0.1993024840048498
 11
3.4240093818685935
 21
-2.8500000000001648
 72
     1
 10
3.4240093818685935
 20
-2.8500000000001648
 11
2.6097236675829052
 21
-2.8500000000001648
 72
     1
 10
2.6097236675829052
 20
-2.8500000000001648
 11
2.6097236675829052
 21
-1.0584096299120844
 97
        0
 75
     0
 76
     1
 98
        1
 10
0.0
 20
0.0
  0
HATCH
  5
8F
100
AcDbEntity
  8
0
  6
CONTINUOUS
 62
     3
100
AcDbHatch
 10
0.0
 20
0.0
 30
0.0
210
0.0
220
0.0
230
1.0
  2
SOLID
 70
     1
 71
     1
 91
        1
 92
        1
 93
        8
 72
     2
 10
-1.8298808996504405
 20
-0.4560000000002766
 40
1.596000000000013
 50
270.0
 51
330.0
 73
     1
 72
     2
 10
-2.619696067901863
 20
-0.00000000000027
 40
2.508000000000012
 50
330.0
 51
30.0
 73
     1
 72
     2
 10
-1.8298808996504405
 20
0.4559999999997331
 40
1.5960000000000121
 50
30.0
 51
90.0
 73
     1
 72
     1
 10
-1.82988089965
 20
2.0519999999997438
 11
-1.82988089965
 21
2.9639999999999276
 72
     2
 10
-1.8298808996504974
 20
0.4559999999999214
 40
2.508000000000008
 50
270.0
 51
330.0
 73
     0
 72
     2
 10
-2.6196960679017494
 20
-0.0000000000001243
 40
3.420000000000015
 50
330.0
 51
30.0
 73
     0
 72
     2
 10
-1.8298808996503837
 20
-0.456000000000369
 40
2.5080000000000053
 50
30.0
 51
90.0
 73
     0
 72
     1
 10
-1.82988089965
 20
-2.9640000000003752
 11
-1.82988089965
 21
-2.0520000000002909
 97
        0
 75
     0
 76
     1
 98
        1
 10
0.0
 20
0.0
  0
HATCH
  5
90
100
AcDbEntity
  8
0
  6
CONTINUOUS
 62
     3
100
AcDbHatch
 10
0.0
 20
0.0
 30
0.0
210
0.0
220
0.0
230
1.0
  2
SOLID
 70
     1
 71
     1
 91
        1
 92
        1
 93
        8
 72
     2
 10
-1.8298808996503837
 20
-0.456000000000369
 40
2.5080000000000053
 50
90.0
 51
150.0
 73
     0
 72
     2
 10
-1.0400657313991175
 20
-0.0000000000003126
 40
3.4200000000000181
 50
150.0
 51
210.0
 73
     0
 72
     2
 10
-1.8298808996504974
 20
0.4559999999999214
 40
2.508000000000008
 50
210.0
 51
270.0
 73
     0
 72
     1
 10
-1.82988089965
 20
2.9639999999999276
 11
-1.82988089965
 21
2.0519999999997438
 72
     2
 10
-1.8298808996504405
 20
0.4559999999997331
 40
1.5960000000000121
 50
90.0
 51
150.0
 73
     1
 72
     2
 10
-1.040065731399018
 20
-0.00000000000027
 40
2.5080000000000129
 50
150.0
 51
210.0
 73
     1
 72
     2
 10
-1.8298808996504405
 20
-0.4560000000002766
 40
1.596000000000013
 50
210.0
 51
270.0
 73
     1
 72
     1
 10
-1.82988089965
 20
-2.0520000000002909
 11
-1.82988089965
 21
-2.9640000000003752
 97
        0
 75
     0
 76
     1
 98
        1
 10
0.0
 20
0.0
  0
HATCH
  5
91
100
AcDbEntity
  8
0
  6
CONTINUOUS
 62
     3
100
AcDbHatch
 10
0.0
 20
0.0
 30
0.0
210
0.0
220
0.0
230
1.0
  2
SOLID
 70
     1
 71
     1
 91
        1
 92
        1
 93
        4
 72
     1
 10
-5.3638808996504608
 20
-1.0260000000002698
 11
-6.2758808996504385
 21
-1.0260000000002698
 72
     1
 10
-6.2758808996504385
 20
-1.0260000000002698
 11
-6.2758808996504385
 21
-0.1140000000002743
 72
     1
 10
-6.2758808996504385
 20
-0.1140000000002743
 11
-5.3638808996504608
 21
-0.1140000000002743
 72
     1
 10
-5.3638808996504608
 20
-0.1140000000002743
 11
-5.3638808996504608
 21
-1.0260000000003267
 97
        0
 75
     0
 76
     1
 98
        1
 10
0.0
 20
0.0
  0
HATCH
  5
92
100
AcDbEntity
  8
0
  6
CONTINUOUS
 62
     3
100
AcDbHatch
 10
0.0
 20
0.0
 30
0.0
210
0.0
220
0.0
230
1.0
  2
SOLID
 70
     1
 71
     1
 91
        1
 92
        1
 93
       16
 72
     1
 10
-9.6958808996504686
 20
1.9379999999997324
 11
-10.949880899650459
 21
1.9379999999997324
 72
     1
 10
-10.949880899650459
 20
1.9379999999997324
 11
-11.177880899650468
 21
0.6839999999997275
 72
     1
 10
-11.177880899650468
 20
0.6839999999997275
 11
-11.861880899650437
 21
0.6839999999997275
 72
     1
 10
-11.861880899650437
 20
0.6839999999997275
 11
-11.861880899650437
 21
2.8499999999997421
 72
     1
 10
-11.861880899650437
 20
2.8499999999997421
 11
-6.6178808996504515
 21
2.8499999999997421
 72
     1
 10
-6.6178808996504515
 20
2.8499999999997421
 11
-6.6178808996504515
 21
0.6839999999997275
 72
     1
 10
-6.6178808996504515
 20
0.6839999999997275
 11
-7.3018808996504205
 21
0.6839999999997275
 72
     1
 10
-7.3018808996504205
 20
0.6839999999997275
 11
-7.5298808996504292
 21
1.9379999999997324
 72
     1
 10
-7.5298808996504292
 20
1.9379999999997324
 11
-8.7838808996504767
 21
1.9379999999997324
 72
     1
 10
-8.7838808996504767
 20
1.9379999999997324
 11
-8.7838808996504341
 21
-1.9380000000002759
 72
     1
 10
-8.7838808996504341
 20
-1.9380000000002759
 11
-7.8718808996504421
 21
-2.1660000000002846
 72
     1
 10
-7.8718808996504421
 20
-2.1660000000002846
 11
-7.8718808996504421
 21
-2.8500000000002856
 72
     1
 10
-7.8718808996504421
 20
-2.8500000000002856
 11
-10.607880899650446
 21
-2.8500000000002856
 72
     1
 10
-10.607880899650446
 20
-2.8500000000002856
 11
-10.607880899650446
 21
-2.1660000000002846
 72
     1
 10
-10.607880899650446
 20
-2.1660000000002846
 11
-9.6958808996504686
 21
-1.9380000000002759
 72
     1
 10
-9.6958808996504686
 20
-1.9380000000002759
 11
-9.6958808996504686
 21
1.9379999999997324
 97
        0
 75
     0
 76
     1
 98
        1
 10
0.0
 20
0.0
  0
HATCH
  5
93
100
AcDbEntity
  8
0
  6
CONTINUOUS
 62
     3
100
AcDbHatch
 10
0.0
 20
0.0
 30
0.0
210
0.0
220
0.0
230
1.0
  2
SOLID
 70
     1
 71
     1
 91
        1
 92
        1
 93
        4
 72
     1
 10
-13.115880899650485
 20
-1.0260000000002698
 11
-13.115880899650428
 21
-0.1140000000002175
 72
     1
 10
-13.115880899650428
 20
-0.1140000000002175
 11
-12.20388089965045
 21
-0.1140000000002743
 72
     1
 10
-12.20388089965045
 20
-0.1140000000002743
 11
-12.20388089965045
 21
-1.0260000000002698
 72
     1
 10
-12.20388089965045
 20
-1.0260000000002698
 11
-13.115880899650428
 21
-1.0260000000002698
 97
        0
 75
     0
 76
     1
 98
        1
 10
0.0
 20
0.0
  0
HATCH
  5
94
100
AcDbEntity
  8
0
  6
CONTINUOUS
 62
     3
100
AcDbHatch
 10
0.0
 20
0.0
 30
0.0
210
0.0
220
0.0
230
1.0
  2
SOLID
 70
     1
 71
     1
 91
        1
 92
        1
 93
       12
 72
     1
 10
-14.141880899650467
 20
2.8499999999997421
 11
-14.141880899650467
 21
2.1659999999997304
 72
     1
 10
-14.141880899650467
 20
2.1659999999997304
 11
-15.053880899650444
 21
1.9379999999997324
 72
     1
 10
-15.053880899650444
 20
1.9379999999997324
 11
-15.053880899650444
 21
-1.9380000000002759
 72
     1
 10
-15.053880899650444
 20
-1.9380000000002759
 11
-14.141880899650467
 21
-2.1660000000002846
 72
     1
 10
-14.141880899650467
 20
-2.1660000000002846
 11
-14.141880899650467
 21
-2.8500000000002856
 72
     1
 10
-14.141880899650467
 20
-2.8500000000002856
 11
-16.877880899650467
 21
-2.8500000000002856
 72
     1
 10
-16.877880899650467
 20
-2.8500000000002856
 11
-16.877880899650467
 21
-2.1660000000002846
 72
     1
 10
-16.877880899650467
 20
-2.1660000000002846
 11
-15.965880899650482
 21
-1.9380000000002759
 72
     1
 10
-15.965880899650482
 20
-1.9380000000002759
 11
-15.965880899650482
 21
1.9379999999997324
 72
     1
 10
-15.965880899650482
 20
1.9379999999997324
 11
-16.877880899650467
 21
2.165999999999741
 72
     1
 10
-16.877880899650467
 20
2.165999999999741
 11
-16.877880899650467
 21
2.8499999999997421
 72
     1
 10
-16.877880899650467
 20
2.8499999999997421
 11
-14.141880899650467
 21
2.8499999999997421
 97
        0
 75
     0
 76
     1
 98
        1
 10
0.0
 20
0.0
  0
HATCH
  5
95
100
AcDbEntity
  8
0
  6
CONTINUOUS
 62
     3
100
AcDbHatch
 10
0.0
 20
0.0
 30
0.0
210
0.0
220
0.0
230
1.0
  2
SOLID
 70
     1
 71
     1
 91
        1
 92
        1
 93
       15
 72
     2
 10
-23.082241990843084
 20
-0.0000000000001492
 40
2.531053105310535
 50
124.301153
 51
180.0
 73
     0
 72
     1
 10
-25.613295096153617
 20
0.0
 11
-24.658234262528236
 21
0.0
 72
     2
 10
-22.195587997901765
 20
-0.000000000000135
 40
2.46264626462647
 50
180.0
 51
199.464384
 73
     1
 72
     2
 10
-24.557343260027135
 20
0.2731786481661374
 40
1.094509450945121
 50
272.086657
 51
294.619977
 73
     1
 72
     2
 10
-24.243863734539655
 20
-0.4108897586745677
 40
0.342034203420344
 50
294.619977
 51
0.0
 73
     1
 72
     1
 10
-23.901829531119287
 20
-0.4108897586745677
 11
-23.901829531119287
 21
0.0
 72
     1
 10
-23.901829531119287
 20
0.0
 11
-23.080947442910482
 21
0.0
 72
     1
 10
-23.080947442910482
 20
0.0
 11
-23.080947442910482
 21
-0.4116155274721614
 72
     2
 10
-22.73891323949012
 20
-0.4116155274721614
 40
0.34203420342033
 50
180.0
 51
245.380023
 73
     1
 72
     2
 10
-22.425433714002583
 20
0.2724528793686645
 40
1.0945094509452411
 50
245.380023
 51
267.913343
 73
     1
 72
     1
 10
-22.465285876753814
 20
-0.8213308027789985
 11
-22.465285876753814
 21
-1.0265513248311819
 72
     1
 10
-22.465285876753814
 20
-1.0265513248311819
 11
-24.434073870576871
 21
-1.0265513248311962
 72
     2
 10
-22.195587997901708
 20
-0.000000000000135
 40
2.4626462646264669
 50
204.635803
 51
268.19864
 73
     1
 72
     1
 10
-22.272999999999005
 20
-2.4614292609397985
 11
-22.272999999999005
 21
-2.8039503813289706
 72
     2
 10
-22.195587997901765
 20
1.2997299729972909
 40
4.1044104410441236
 50
91.080702
 51
124.301153
 73
     0
 97
        0
 75
     0
 76
     1
 98
        1
 10
0.0
 20
0.0
  0
HATCH
  5
96
100
AcDbEntity
  8
0
  6
CONTINUOUS
 62
     3
100
AcDbHatch
 10
0.0
 20
0.0
 30
0.0
210
0.0
220
0.0
230
1.0
  2
SOLID
 70
     1
 71
     1
 91
        1
 92
        1
 93
       24
 72
     2
 10
-22.67055612196938
 20
0.3420342034202015
 40
0.342034203420347
 50
90.0
 51
157.380135
 73
     1
 72
     2
 10
-21.849674033760575
 20
-0.0000000000001101
 40
1.231323132313237
 50
157.380135
 51
180.0
 73
     1
 72
     1
 10
-23.080997166073811
 20
0.0
 11
-23.901829531119287
 21
0.0
 72
     1
 10
-23.901829531119287
 20
0.0
 11
-23.901829531119287
 21
1.7757720729310194
 72
     2
 10
-22.195587997901765
 20
-0.000000000000135
 40
2.46264626462647
 50
133.856042
 51
180.0
 73
     1
 72
     1
 10
-24.658234262528236
 20
0.0
 11
-25.613295096153617
 21
0.0
 72
     2
 10
-23.082241990843084
 20
-0.0000000000001492
 40
2.531053105310535
 50
180.0
 51
235.698847
 73
     0
 72
     2
 10
-22.195587997901708
 20
-1.2997299729975893
 40
4.1044104410441324
 50
235.698847
 51
245.436008
 73
     0
 72
     1
 10
-23.901829531119287
 20
2.4332212587861193
 11
-23.901829531119287
 21
2.8049575222742433
 72
     2
 10
-24.243863734539655
 20
2.8049575222742433
 40
0.3420342034203421
 50
0.0
 51
65.380023
 73
     1
 72
     2
 10
-24.557343260027135
 20
2.1208891154335525
 40
1.0945094509450961
 50
65.380023
 51
87.913343
 73
     1
 72
     1
 10
-24.517491097275904
 20
3.2146727975810734
 11
-24.517491097275904
 21
3.4198933196332746
 72
     1
 10
-24.517491097275904
 20
3.4198933196332746
 11
-22.465285876753814
 21
3.4198933196332746
 72
     1
 10
-22.465285876753814
 20
3.4198933196332746
 11
-22.465285876753814
 21
3.2146727975810769
 72
     2
 10
-22.425433714002583
 20
2.1208891154335525
 40
1.094509450945101
 50
92.086657
 51
114.619977
 73
     1
 72
     2
 10
-22.738913239490063
 20
2.8049575222742575
 40
0.342034203420347
 50
114.619977
 51
180.0
 73
     1
 72
     1
 10
-23.080947442910432
 20
2.8049575222742433
 11
-23.080947442910432
 21
2.7080529205341897
 72
     2
 10
-22.195587997901765
 20
-1.2997299729975893
 40
4.1044104410441218
 50
257.542857
 51
268.919298
 73
     0
 72
     1
 10
-22.272999999999005
 20
2.8039503813286721
 11
-22.272999999999005
 21
2.4614292609395321
 72
     2
 10
-22.195587997901708
 20
-0.000000000000135
 40
2.46264626462647
 50
91.80136
 51
111.070443
 73
     1
 72
     1
 10
-23.080947442910482
 20
2.2979915747913111
 11
-23.080947442910482
 21
1.0261026102608923
 72
     1
 10
-23.080947442910482
 20
1.0261026102608923
 11
-22.272999999998969
 21
1.0261026102608923
 72
     1
 10
-22.272999999998969
 20
1.0261026102608923
 11
-22.272999999999005
 21
0.6840684068405416
 72
     1
 10
-22.272999999999005
 20
0.6840684068405416
 11
-22.67055612196938
 21
0.6840684068405416
 97
        0
 75
     0
 76
     1
 98
        1
 10
0.0
 20
0.0
  0
HATCH
  5
97
100
AcDbEntity
  8
0
  6
CONTINUOUS
 62
     3
100
AcDbHatch
 10
0.0
 20
0.0
 30
0.0
210
0.0
220
0.0
230
1.0
  2
SOLID
 70
     1
 71
     1
 91
        1
 92
        1
 93
       14
 72
     2
 10
-22.195587997901765
 20
-0.000000000000135
 40
2.4626462646264748
 50
0.0
 51
9.281799
 73
     1
 72
     2
 10
-20.102741104833992
 20
0.3420342034202015
 40
0.34203420342034
 50
9.281799
 51
90.0
 73
     1
 72
     1
 10
-20.102741104833992
 20
0.6840684068405416
 11
-20.827451184220411
 21
0.6840684068405416
 72
     1
 10
-20.827451184220411
 20
0.6840684068405416
 11
-20.827451184220411
 21
0.0
 72
     1
 10
-20.827451184220411
 20
0.0
 11
-21.648333272429209
 21
0.0
 72
     1
 10
-21.648333272429209
 20
0.0
 11
-21.648333272429209
 21
0.6840684068405416
 72
     1
 10
-21.648333272429209
 20
0.6840684068405416
 11
-22.272999999999005
 21
0.6840684068405416
 72
     1
 10
-22.272999999999005
 20
0.6840684068405416
 11
-22.272999999999005
 21
1.0261026102608923
 72
     1
 10
-22.272999999999005
 20
1.0261026102608923
 11
-19.956896402818945
 21
1.0261026102608675
 72
     2
 10
-22.195587997901708
 20
-0.000000000000135
 40
2.46264626462647
 50
24.624318
 51
91.80136
 73
     1
 72
     1
 10
-22.272999999999005
 20
2.4614292609395321
 11
-22.272999999999005
 21
2.8039503813286721
 72
     2
 10
-22.195587997901765
 20
-1.2997299729975893
 40
4.1044104410441218
 50
268.919298
 51
304.301153
 73
     0
 72
     2
 10
-21.308934004960445
 20
-0.0000000000001492
 40
2.5310531053105372
 50
304.301153
 51
0.0
 73
     0
 72
     1
 10
-18.777880899649912
 20
0.0
 11
-19.732941733275293
 21
0.0
 97
        0
 75
     0
 76
     1
 98
        1
 10
0.0
 20
0.0
  0
HATCH
  5
98
100
AcDbEntity
  8
0
  6
CONTINUOUS
 62
     3
100
AcDbHatch
 10
0.0
 20
0.0
 30
0.0
210
0.0
220
0.0
230
1.0
  2
SOLID
 70
     1
 71
     1
 91
        1
 92
        1
 93
       19
 72
     2
 10
-22.195587997901765
 20
-0.000000000000135
 40
2.4626462646264748
 50
303.748989
 51
0.0
 73
     1
 72
     1
 10
-19.732941733275293
 20
0.0
 11
-18.777880899649912
 21
0.0
 72
     2
 10
-21.308934004960445
 20
-0.0000000000001492
 40
2.5310531053105372
 50
0.0
 51
55.698847
 73
     0
 72
     2
 10
-22.195587997901708
 20
1.2997299729973051
 40
4.1044104410441289
 50
55.698847
 51
70.528779
 73
     0
 72
     1
 10
-20.827451184220411
 20
-2.5699453011829512
 11
-20.827451184220411
 21
-2.8054062368445436
 72
     2
 10
-20.485416980800043
 20
-2.8054062368445436
 40
0.342034203420344
 50
180.0
 51
245.380023
 73
     1
 72
     2
 10
-20.171937455312563
 20
-2.1213378300038528
 40
1.094509450945099
 50
245.380023
 51
267.913343
 73
     1
 72
     1
 10
-20.211789618063744
 20
-3.2151215121513772
 11
-20.211789618063744
 21
-3.4203420342035784
 72
     1
 10
-20.211789618063744
 20
-3.4203420342035784
 11
-22.263994838585827
 21
-3.4203420342035784
 72
     1
 10
-22.263994838585827
 20
-3.4203420342035784
 11
-22.263994838585827
 21
-3.2151215121513737
 72
     2
 10
-22.303847001337058
 20
-2.1213378300038528
 40
1.094509450945099
 50
272.086657
 51
294.619977
 73
     1
 72
     2
 10
-21.990367475849578
 20
-2.8054062368445436
 40
0.342034203420344
 50
294.619977
 51
0.0
 73
     1
 72
     1
 10
-21.648333272429209
 20
-2.8054062368445436
 11
-21.648333272429209
 21
-2.7680332125876284
 72
     2
 10
-22.195587997901765
 20
1.2997299729972909
 40
4.1044104410441236
 50
82.337744
 51
91.080702
 73
     0
 72
     1
 10
-22.272999999999005
 20
-2.8039503813289706
 11
-22.272999999999005
 21
-2.4614292609397985
 72
     2
 10
-22.195587997901708
 20
-0.000000000000135
 40
2.4626462646264669
 50
268.19864
 51
282.839588
 73
     1
 72
     1
 10
-21.648333272429209
 20
-2.4010703634269781
 11
-21.648333272429209
 21
0.0
 72
     1
 10
-21.648333272429209
 20
0.0
 11
-20.827451184220411
 21
0.0
 72
     1
 10
-20.827451184220411
 20
0.0
 11
-20.827451184220411
 21
-2.047639686011447
 97
        0
 75
     0
 76
     1
 98
        1
 10
0.0
 20
0.0
  0
ENDBLK
  5
99
100
AcDbEntity
  8
0
100
AcDbBlockEnd
  0
ENDSEC
  0
SECTION
  2
ENTITIES
  0
LINE
  5
9A
100
AcDbEntity
  8
LAY-1
  6
CONTINUOUS
 62
     1
100
AcDbLine
 10
1126.787665
 20
771.240507
 30
0.0
 11
1127.77307
 21
770.255102
 31
0.0
  0
LINE
  5
9B
100
AcDbEntity
  8
LAY-1
  6
CONTINUOUS
 62
     1
100
AcDbLine
 10
1125.563529
 20
772.066781
 30
0.0
 11
1128.599343
 21
769.030966
 31
0.0
  0
LINE
  5
9C
100
AcDbEntity
  8
LAY-1
  6
CONTINUOUS
 62
     1
100
AcDbLine
 10
1124.812195
 20
772.420252
 30
0.0
 11
1126.749386
 21
770.483061
 31
0.0
  0
LINE
  5
9D
100
AcDbEntity
  8
LAY-1
  6
CONTINUOUS
 62
     1
100
AcDbLine
 10
1127.899723
 20
769.332724
 30
0.0
 11
1128.201481
 21
769.030966
 31
0.0
  0
LINE
  5
9E
100
AcDbEntity
  8
LAY-1
  6
CONTINUOUS
 62
     1
100
AcDbLine
 10
1124.195769
 20
772.638816
 30
0.0
 11
1125.625073
 21
771.209512
 31
0.0
  0
LINE
  5
9F
100
AcDbEntity
  8
LAY-1
  6
CONTINUOUS
 62
     1
100
AcDbLine
 10
1123.653915
 20
772.782807
 30
0.0
 11
1124.893829
 21
771.542893
 31
0.0
  0
LINE
  5
A0
100
AcDbEntity
  8
LAY-1
  6
CONTINUOUS
 62
     1
100
AcDbLine
 10
1123.161977
 20
772.876883
 30
0.0
 11
1124.286435
 21
771.752425
 31
0.0
  0
LINE
  5
A1
100
AcDbEntity
  8
LAY-1
  6
CONTINUOUS
 62
     1
100
AcDbLine
 10
1122.706948
 20
772.934049
 30
0.0
 11
1123.748778
 21
771.89222
 31
0.0
  0
LINE
  5
A2
100
AcDbEntity
  8
LAY-1
  6
CONTINUOUS
 62
     1
100
AcDbLine
 10
1122.280957
 20
772.962178
 30
0.0
 11
1123.258268
 21
771.984867
 31
0.0
  0
LINE
  5
A3
100
AcDbEntity
  8
LAY-1
  6
CONTINUOUS
 62
     1
100
AcDbLine
 10
1121.87881
 20
772.966463
 30
0.0
 11
1122.802867
 21
772.042406
 31
0.0
  0
LINE
  5
A4
100
AcDbEntity
  8
LAY-1
  6
CONTINUOUS
 62
     1
100
AcDbLine
 10
1121.496863
 20
772.950547
 30
0.0
 11
1122.375245
 21
772.072165
 31
0.0
  0
LINE
  5
A5
100
AcDbEntity
  8
LAY-1
  6
CONTINUOUS
 62
     1
100
AcDbLine
 10
1121.132451
 20
772.917097
 30
0.0
 11
1121.970548
 21
772.079
 31
0.0
  0
LINE
  5
A6
100
AcDbEntity
  8
LAY-1
  6
CONTINUOUS
 62
     1
100
AcDbLine
 10
1120.78355
 20
772.868135
 30
0.0
 11
1121.585363
 21
772.066322
 31
0.0
  0
LINE
  5
A7
100
AcDbEntity
  8
LAY-1
  6
CONTINUOUS
 62
     1
100
AcDbLine
 10
1120.448592
 20
772.80523
 30
0.0
 11
1121.21719
 21
772.036633
 31
0.0
  0
LINE
  5
A8
100
AcDbEntity
  8
LAY-1
  6
CONTINUOUS
 62
     1
100
AcDbLine
 10
1120.126331
 20
772.729629
 30
0.0
 11
1120.864132
 21
771.991828
 31
0.0
  0
LINE
  5
A9
100
AcDbEntity
  8
LAY-1
  6
CONTINUOUS
 62
     1
100
AcDbLine
 10
1119.815762
 20
772.642336
 30
0.0
 11
1120.52472
 21
771.933378
 31
0.0
  0
LINE
  5
AA
100
AcDbEntity
  8
LAY-1
  6
CONTINUOUS
 62
     1
100
AcDbLine
 10
1119.516066
 20
772.54417
 30
0.0
 11
1120.197788
 21
771.862447
 31
0.0
  0
LINE
  5
AB
100
AcDbEntity
  8
LAY-1
  6
CONTINUOUS
 62
     1
100
AcDbLine
 10
1119.226568
 20
772.435805
 30
0.0
 11
1119.882402
 21
771.779971
 31
0.0
  0
LINE
  5
AC
100
AcDbEntity
  8
LAY-1
  6
CONTINUOUS
 62
     1
100
AcDbLine
 10
1118.946709
 20
772.317801
 30
0.0
 11
1119.577803
 21
771.686708
 31
0.0
  0
LINE
  5
AD
100
AcDbEntity
  8
LAY-1
  6
CONTINUOUS
 62
     1
100
AcDbLine
 10
1118.676023
 20
772.190625
 30
0.0
 11
1119.283369
 21
771.583279
 31
0.0
  0
LINE
  5
AE
100
AcDbEntity
  8
LAY-1
  6
CONTINUOUS
 62
     1
100
AcDbLine
 10
1118.414122
 20
772.054664
 30
0.0
 11
1118.998592
 21
771.470193
 31
0.0
  0
LINE
  5
AF
100
AcDbEntity
  8
LAY-1
  6
CONTINUOUS
 62
     1
100
AcDbLine
 10
1118.160683
 20
771.910241
 30
0.0
 11
1118.723053
 21
771.34787
 31
0.0
  0
LINE
  5
B0
100
AcDbEntity
  8
LAY-1
  6
CONTINUOUS
 62
     1
100
AcDbLine
 10
1117.915438
 20
771.757622
 30
0.0
 11
1118.45641
 21
771.216651
 31
0.0
  0
LINE
  5
B1
100
AcDbEntity
  8
LAY-1
  6
CONTINUOUS
 62
     1
100
AcDbLine
 10
1117.678171
 20
771.597027
 30
0.0
 11
1118.198385
 21
771.076813
 31
0.0
  0
LINE
  5
B2
100
AcDbEntity
  8
LAY-1
  6
CONTINUOUS
 62
     1
100
AcDbLine
 10
1117.448707
 20
771.428629
 30
0.0
 11
1117.948759
 21
770.928577
 31
0.0
  0
LINE
  5
B3
100
AcDbEntity
  8
LAY-1
  6
CONTINUOUS
 62
     1
100
AcDbLine
 10
1117.22691
 20
771.252563
 30
0.0
 11
1117.70736
 21
770.772113
 31
0.0
  0
LINE
  5
B4
100
AcDbEntity
  8
LAY-1
  6
CONTINUOUS
 62
     1
100
AcDbLine
 10
1117.012681
 20
771.06893
 30
0.0
 11
1117.474066
 21
770.607545
 31
0.0
  0
LINE
  5
B5
100
AcDbEntity
  8
LAY-1
  6
CONTINUOUS
 62
     1
100
AcDbLine
 10
1116.805954
 20
770.877794
 30
0.0
 11
1117.248795
 21
770.434954
 31
0.0
  0
LINE
  5
B6
100
AcDbEntity
  8
LAY-1
  6
CONTINUOUS
 62
     1
100
AcDbLine
 10
1116.606697
 20
770.679189
 30
0.0
 11
1117.031505
 21
770.254381
 31
0.0
  0
LINE
  5
B7
100
AcDbEntity
  8
LAY-1
  6
CONTINUOUS
 62
     1
100
AcDbLine
 10
1116.414908
 20
770.473116
 30
0.0
 11
1116.822194
 21
770.06583
 31
0.0
  0
LINE
  5
B8
100
AcDbEntity
  8
LAY-1
  6
CONTINUOUS
 62
     1
100
AcDbLine
 10
1116.230617
 20
770.259544
 30
0.0
 11
1116.6209
 21
769.869261
 31
0.0
  0
LINE
  5
B9
100
AcDbEntity
  8
LAY-1
  6
CONTINUOUS
 62
     1
100
AcDbLine
 10
1116.053887
 20
770.038412
 30
0.0
 11
1116.427702
 21
769.664596
 31
0.0
  0
LINE
  5
BA
100
AcDbEntity
  8
LAY-1
  6
CONTINUOUS
 62
     1
100
AcDbLine
 10
1115.884814
 20
769.809622
 30
0.0
 11
1116.24272
 21
769.451716
 31
0.0
  0
LINE
  5
BB
100
AcDbEntity
  8
LAY-1
  6
CONTINUOUS
 62
     1
100
AcDbLine
 10
1115.72353
 20
769.573043
 30
0.0
 11
1116.066119
 21
769.230455
 31
0.0
  0
LINE
  5
BC
100
AcDbEntity
  8
LAY-1
  6
CONTINUOUS
 62
     1
100
AcDbLine
 10
1115.570207
 20
769.328504
 30
0.0
 11
1115.898115
 21
769.000596
 31
0.0
  0
LINE
  5
BD
100
AcDbEntity
  8
LAY-1
  6
CONTINUOUS
 62
     1
100
AcDbLine
 10
1115.425058
 20
769.075791
 30
0.0
 11
1115.738981
 21
768.761868
 31
0.0
  0
LINE
  5
BE
100
AcDbEntity
  8
LAY-1
  6
CONTINUOUS
 62
     1
100
AcDbLine
 10
1115.288346
 20
768.814641
 30
0.0
 11
1115.589051
 21
768.513935
 31
0.0
  0
LINE
  5
BF
100
AcDbEntity
  8
LAY-1
  6
CONTINUOUS
 62
     1
100
AcDbLine
 10
1115.160387
 20
768.544737
 30
0.0
 11
1115.448738
 21
768.256386
 31
0.0
  0
LINE
  5
C0
100
AcDbEntity
  8
LAY-1
  6
CONTINUOUS
 62
     1
100
AcDbLine
 10
1115.041565
 20
768.265696
 30
0.0
 11
1115.318543
 21
767.988719
 31
0.0
  0
LINE
  5
C1
100
AcDbEntity
  8
LAY-1
  6
CONTINUOUS
 62
     1
100
AcDbLine
 10
1114.932337
 20
767.977062
 30
0.0
 11
1115.199074
 21
767.710325
 31
0.0
  0
LINE
  5
C2
100
AcDbEntity
  8
LAY-1
  6
CONTINUOUS
 62
     1
100
AcDbLine
 10
1114.833255
 20
767.678282
 30
0.0
 11
1115.091079
 21
767.420458
 31
0.0
  0
LINE
  5
C3
100
AcDbEntity
  8
LAY-1
  6
CONTINUOUS
 62
     1
100
AcDbLine
 10
1114.744981
 20
767.368693
 30
0.0
 11
1114.995475
 21
767.1182
 31
0.0
  0
LINE
  5
C4
100
AcDbEntity
  8
LAY-1
  6
CONTINUOUS
 62
     1
100
AcDbLine
 10
1114.668322
 20
767.04749
 30
0.0
 11
1114.913402
 21
766.802409
 31
0.0
  0
LINE
  5
C5
100
AcDbEntity
  8
LAY-1
  6
CONTINUOUS
 62
     1
100
AcDbLine
 10
1114.604263
 20
766.713687
 30
0.0
 11
1114.846303
 21
766.471646
 31
0.0
  0
LINE
  5
C6
100
AcDbEntity
  8
LAY-1
  6
CONTINUOUS
 62
     1
100
AcDbLine
 10
1114.554025
 20
766.366062
 30
0.0
 11
1114.796028
 21
766.124058
 31
0.0
  0
LINE
  5
C7
100
AcDbEntity
  8
LAY-1
  6
CONTINUOUS
 62
     1
100
AcDbLine
 10
1114.519147
 20
766.003077
 30
0.0
 11
1114.765017
 21
765.757207
 31
0.0
  0
LINE
  5
C8
100
AcDbEntity
  8
LAY-1
  6
CONTINUOUS
 62
     1
100
AcDbLine
 10
1114.501604
 20
765.622758
 30
0.0
 11
1114.656925
 21
765.467437
 31
0.0
  0
LINE
  5
C9
100
AcDbEntity
  8
LAY-1
  6
CONTINUOUS
 62
     1
100
AcDbLine
 10
1130.716853
 20
769.698494
 30
0.0
 11
1130.853153
 21
769.562194
 31
0.0
  0
LINE
  5
CA
100
AcDbEntity
  8
LAY-1
  6
CONTINUOUS
 62
     1
100
AcDbLine
 10
1130.414351
 20
769.603133
 30
0.0
 11
1130.707841
 21
769.309644
 31
0.0
  0
LINE
  5
CB
100
AcDbEntity
  8
LAY-1
  6
CONTINUOUS
 62
     1
100
AcDbLine
 10
1130.11185
 20
769.507772
 30
0.0
 11
1130.562528
 21
769.057094
 31
0.0
  0
LINE
  5
CC
100
AcDbEntity
  8
LAY-1
  6
CONTINUOUS
 62
     1
100
AcDbLine
 10
1129.809349
 20
769.412411
 30
0.0
 11
1130.417216
 21
768.804544
 31
0.0
  0
LINE
  5
CD
100
AcDbEntity
  8
LAY-1
  6
CONTINUOUS
 62
     1
100
AcDbLine
 10
1129.506847
 20
769.31705
 30
0.0
 11
1130.271903
 21
768.551994
 31
0.0
  0
LINE
  5
CE
100
AcDbEntity
  8
LAY-1
  6
CONTINUOUS
 62
     1
100
AcDbLine
 10
1129.204346
 20
769.221689
 30
0.0
 11
1130.126591
 21
768.299443
 31
0.0
  0
LINE
  5
CF
100
AcDbEntity
  8
LAY-1
  6
CONTINUOUS
 62
     1
100
AcDbLine
 10
1128.901845
 20
769.126327
 30
0.0
 11
1129.981279
 21
768.046893
 31
0.0
  0
LINE
  5
D0
100
AcDbEntity
  8
LAY-1
  6
CONTINUOUS
 62
     1
100
AcDbLine
 10
1128.599343
 20
769.030966
 30
0.0
 11
1129.835966
 21
767.794343
 31
0.0
  0
LINE
  5
D1
100
AcDbEntity
  8
LAY-1
  6
CONTINUOUS
 62
     1
100
AcDbLine
 10
1128.201481
 20
769.030966
 30
0.0
 11
1129.690654
 21
767.541793
 31
0.0
  0
LINE
  5
D2
100
AcDbEntity
  8
LAY-1
  6
CONTINUOUS
 62
     1
100
AcDbLine
 10
1127.803618
 20
769.030966
 30
0.0
 11
1129.545341
 21
767.289243
 31
0.0
  0
LINE
  5
D3
100
AcDbEntity
  8
LAY-1
  6
CONTINUOUS
 62
     1
100
AcDbLine
 10
1127.405756
 20
769.030966
 30
0.0
 11
1129.400029
 21
767.036693
 31
0.0
  0
LINE
  5
D4
100
AcDbEntity
  8
LAY-1
  6
CONTINUOUS
 62
     1
100
AcDbLine
 10
1127.007893
 20
769.030966
 30
0.0
 11
1129.409445
 21
766.629415
 31
0.0
  0
LINE
  5
D5
100
AcDbEntity
  8
LAY-1
  6
CONTINUOUS
 62
     1
100
AcDbLine
 10
1126.610031
 20
769.030966
 30
0.0
 11
1129.048235
 21
766.592762
 31
0.0
  0
LINE
  5
D6
100
AcDbEntity
  8
LAY-1
  6
CONTINUOUS
 62
     1
100
AcDbLine
 10
1126.212169
 20
769.030966
 30
0.0
 11
1128.650373
 21
766.592762
 31
0.0
  0
LINE
  5
D7
100
AcDbEntity
  8
LAY-1
  6
CONTINUOUS
 62
     1
100
AcDbLine
 10
1125.814306
 20
769.030966
 30
0.0
 11
1128.25251
 21
766.592762
 31
0.0
  0
LINE
  5
D8
100
AcDbEntity
  8
LAY-1
  6
CONTINUOUS
 62
     1
100
AcDbLine
 10
1124.275451
 20
770.171959
 30
0.0
 11
1124.681159
 21
769.766251
 31
0.0
  0
LINE
  5
D9
100
AcDbEntity
  8
LAY-1
  6
CONTINUOUS
 62
     1
100
AcDbLine
 10
1125.416444
 20
769.030966
 30
0.0
 11
1127.854648
 21
766.592762
 31
0.0
  0
LINE
  5
DA
100
AcDbEntity
  8
LAY-1
  6
CONTINUOUS
 62
     1
100
AcDbLine
 10
1123.334099
 20
770.715449
 30
0.0
 11
1124.482228
 21
769.56732
 31
0.0
  0
LINE
  5
DB
100
AcDbEntity
  8
LAY-1
  6
CONTINUOUS
 62
     1
100
AcDbLine
 10
1125.018581
 20
769.030966
 30
0.0
 11
1127.456785
 21
766.592762
 31
0.0
  0
LINE
  5
DC
100
AcDbEntity
  8
LAY-1
  6
CONTINUOUS
 62
     1
100
AcDbLine
 10
1122.392746
 20
771.258939
 30
0.0
 11
1124.283297
 21
769.368389
 31
0.0
  0
LINE
  5
DD
100
AcDbEntity
  8
LAY-1
  6
CONTINUOUS
 62
     1
100
AcDbLine
 10
1124.620719
 20
769.030966
 30
0.0
 11
1127.058923
 21
766.592762
 31
0.0
  0
LINE
  5
DE
100
AcDbEntity
  8
LAY-1
  6
CONTINUOUS
 62
     1
100
AcDbLine
 10
1121.451393
 20
771.802429
 30
0.0
 11
1126.66106
 21
766.592762
 31
0.0
  0
LINE
  5
DF
100
AcDbEntity
  8
LAY-1
  6
CONTINUOUS
 62
     1
100
AcDbLine
 10
1121.956262
 20
770.899699
 30
0.0
 11
1126.263198
 21
766.592762
 31
0.0
  0
LINE
  5
E0
100
AcDbEntity
  8
LAY-1
  6
CONTINUOUS
 62
     1
100
AcDbLine
 10
1122.0
 20
770.458098
 30
0.0
 11
1125.865335
 21
766.592762
 31
0.0
  0
LINE
  5
E1
100
AcDbEntity
  8
LAY-1
  6
CONTINUOUS
 62
     1
100
AcDbLine
 10
1122.0
 20
770.060235
 30
0.0
 11
1125.467473
 21
766.592762
 31
0.0
  0
LINE
  5
E2
100
AcDbEntity
  8
LAY-1
  6
CONTINUOUS
 62
     1
100
AcDbLine
 10
1122.0
 20
769.662373
 30
0.0
 11
1125.069611
 21
766.592762
 31
0.0
  0
LINE
  5
E3
100
AcDbEntity
  8
LAY-1
  6
CONTINUOUS
 62
     1
100
AcDbLine
 10
1122.0
 20
769.26451
 30
0.0
 11
1124.671748
 21
766.592762
 31
0.0
  0
LINE
  5
E4
100
AcDbEntity
  8
LAY-1
  6
CONTINUOUS
 62
     1
100
AcDbLine
 10
1121.835682
 20
769.030966
 30
0.0
 11
1124.273886
 21
766.592762
 31
0.0
  0
LINE
  5
E5
100
AcDbEntity
  8
LAY-1
  6
CONTINUOUS
 62
     1
100
AcDbLine
 10
1121.437819
 20
769.030966
 30
0.0
 11
1124.227206
 21
766.24158
 31
0.0
  0
LINE
  5
E6
100
AcDbEntity
  8
LAY-1
  6
CONTINUOUS
 62
     1
100
AcDbLine
 10
1121.039957
 20
769.030966
 30
0.0
 11
1124.227206
 21
765.843718
 31
0.0
  0
LINE
  5
E7
100
AcDbEntity
  8
LAY-1
  6
CONTINUOUS
 62
     1
100
AcDbLine
 10
1120.642094
 20
769.030966
 30
0.0
 11
1124.227206
 21
765.445855
 31
0.0
  0
LINE
  5
E8
100
AcDbEntity
  8
LAY-1
  6
CONTINUOUS
 62
     1
100
AcDbLine
 10
1120.244232
 20
769.030966
 30
0.0
 11
1124.227206
 21
765.047993
 31
0.0
  0
LINE
  5
E9
100
AcDbEntity
  8
LAY-1
  6
CONTINUOUS
 62
     1
100
AcDbLine
 10
1119.846369
 20
769.030966
 30
0.0
 11
1124.227206
 21
764.65013
 31
0.0
  0
LINE
  5
EA
100
AcDbEntity
  8
LAY-1
  6
CONTINUOUS
 62
     1
100
AcDbLine
 10
1118.577137
 20
769.902337
 30
0.0
 11
1118.690426
 21
769.789048
 31
0.0
  0
LINE
  5
EB
100
AcDbEntity
  8
LAY-1
  6
CONTINUOUS
 62
     1
100
AcDbLine
 10
1119.448507
 20
769.030966
 30
0.0
 11
1121.886711
 21
766.592762
 31
0.0
  0
LINE
  5
EC
100
AcDbEntity
  8
LAY-1
  6
CONTINUOUS
 62
     1
100
AcDbLine
 10
1122.0
 20
766.479473
 30
0.0
 11
1124.227206
 21
764.252268
 31
0.0
  0
LINE
  5
ED
100
AcDbEntity
  8
LAY-1
  6
CONTINUOUS
 62
     1
100
AcDbLine
 10
1118.577137
 20
769.504474
 30
0.0
 11
1121.488849
 21
766.592762
 31
0.0
  0
LINE
  5
EE
100
AcDbEntity
  8
LAY-1
  6
CONTINUOUS
 62
     1
100
AcDbLine
 10
1122.0
 20
766.081611
 30
0.0
 11
1124.227206
 21
763.854405
 31
0.0
  0
LINE
  5
EF
100
AcDbEntity
  8
LAY-1
  6
CONTINUOUS
 62
     1
100
AcDbLine
 10
1118.577137
 20
769.106612
 30
0.0
 11
1121.090986
 21
766.592762
 31
0.0
  0
LINE
  5
F0
100
AcDbEntity
  8
LAY-1
  6
CONTINUOUS
 62
     1
100
AcDbLine
 10
1122.0
 20
765.683748
 30
0.0
 11
1124.227206
 21
763.456543
 31
0.0
  0
LINE
  5
F1
100
AcDbEntity
  8
LAY-1
  6
CONTINUOUS
 62
     1
100
AcDbLine
 10
1118.577137
 20
768.708749
 30
0.0
 11
1120.693124
 21
766.592762
 31
0.0
  0
LINE
  5
F2
100
AcDbEntity
  8
LAY-1
  6
CONTINUOUS
 62
     1
100
AcDbLine
 10
1121.818449
 20
765.467437
 30
0.0
 11
1124.227206
 21
763.05868
 31
0.0
  0
LINE
  5
F3
100
AcDbEntity
  8
LAY-1
  6
CONTINUOUS
 62
     1
100
AcDbLine
 10
1118.577137
 20
768.310887
 30
0.0
 11
1120.295261
 21
766.592762
 31
0.0
  0
LINE
  5
F4
100
AcDbEntity
  8
LAY-1
  6
CONTINUOUS
 62
     1
100
AcDbLine
 10
1121.420586
 20
765.467437
 30
0.0
 11
1124.227206
 21
762.660818
 31
0.0
  0
LINE
  5
F5
100
AcDbEntity
  8
LAY-1
  6
CONTINUOUS
 62
     1
100
AcDbLine
 10
1118.577137
 20
767.913024
 30
0.0
 11
1119.897399
 21
766.592762
 31
0.0
  0
LINE
  5
F6
100
AcDbEntity
  8
LAY-1
  6
CONTINUOUS
 62
     1
100
AcDbLine
 10
1121.022724
 20
765.467437
 30
0.0
 11
1124.227206
 21
762.262955
 31
0.0
  0
LINE
  5
F7
100
AcDbEntity
  8
LAY-1
  6
CONTINUOUS
 62
     1
100
AcDbLine
 10
1118.577137
 20
767.515162
 30
0.0
 11
1119.499536
 21
766.592762
 31
0.0
  0
LINE
  5
F8
100
AcDbEntity
  8
LAY-1
  6
CONTINUOUS
 62
     1
100
AcDbLine
 10
1120.624861
 20
765.467437
 30
0.0
 11
1124.227206
 21
761.865093
 31
0.0
  0
LINE
  5
F9
100
AcDbEntity
  8
LAY-1
  6
CONTINUOUS
 62
     1
100
AcDbLine
 10
1118.577137
 20
767.1173
 30
0.0
 11
1119.101674
 21
766.592762
 31
0.0
  0
LINE
  5
FA
100
AcDbEntity
  8
LAY-1
  6
CONTINUOUS
 62
     1
100
AcDbLine
 10
1120.226999
 20
765.467437
 30
0.0
 11
1124.691382
 21
761.003054
 31
0.0
  0
LINE
  5
FB
100
AcDbEntity
  8
LAY-1
  6
CONTINUOUS
 62
     1
100
AcDbLine
 10
1118.577137
 20
766.719437
 30
0.0
 11
1118.95818
 21
766.338394
 31
0.0
  0
LINE
  5
FC
100
AcDbEntity
  8
LAY-1
  6
CONTINUOUS
 62
     1
100
AcDbLine
 10
1119.829136
 20
765.467437
 30
0.0
 11
1124.439148
 21
760.857426
 31
0.0
  0
LINE
  5
FD
100
AcDbEntity
  8
LAY-1
  6
CONTINUOUS
 62
     1
100
AcDbLine
 10
1118.577137
 20
766.321575
 30
0.0
 11
1118.837091
 21
766.06162
 31
0.0
  0
LINE
  5
FE
100
AcDbEntity
  8
LAY-1
  6
CONTINUOUS
 62
     1
100
AcDbLine
 10
1119.431274
 20
765.467437
 30
0.0
 11
1124.186913
 21
760.711798
 31
0.0
  0
LINE
  5
FF
100
AcDbEntity
  8
LAY-1
  6
CONTINUOUS
 62
     1
100
AcDbLine
 10
1118.577137
 20
765.923712
 30
0.0
 11
1118.716003
 21
765.784846
 31
0.0
  0
LINE
  5
100
100
AcDbEntity
  8
LAY-1
  6
CONTINUOUS
 62
     1
100
AcDbLine
 10
1119.033411
 20
765.467437
 30
0.0
 11
1121.799835
 21
762.701014
 31
0.0
  0
LINE
  5
101
100
AcDbEntity
  8
LAY-1
  6
CONTINUOUS
 62
     1
100
AcDbLine
 10
1122.0
 20
762.500849
 30
0.0
 11
1123.934678
 21
760.566171
 31
0.0
  0
LINE
  5
102
100
AcDbEntity
  8
LAY-1
  6
CONTINUOUS
 62
     1
100
AcDbLine
 10
1118.577137
 20
765.52585
 30
0.0
 11
1118.594914
 21
765.508072
 31
0.0
  0
LINE
  5
103
100
AcDbEntity
  8
LAY-1
  6
CONTINUOUS
 62
     1
100
AcDbLine
 10
1118.635549
 20
765.467437
 30
0.0
 11
1121.401973
 21
762.701014
 31
0.0
  0
LINE
  5
104
100
AcDbEntity
  8
LAY-1
  6
CONTINUOUS
 62
     1
100
AcDbLine
 10
1122.0
 20
762.102986
 30
0.0
 11
1123.682444
 21
760.420543
 31
0.0
  0
LINE
  5
105
100
AcDbEntity
  8
LAY-1
  6
CONTINUOUS
 62
     1
100
AcDbLine
 10
1118.237687
 20
765.467437
 30
0.0
 11
1121.00411
 21
762.701014
 31
0.0
  0
LINE
  5
106
100
AcDbEntity
  8
LAY-1
  6
CONTINUOUS
 62
     1
100
AcDbLine
 10
1122.0
 20
761.705124
 30
0.0
 11
1123.430209
 21
760.274915
 31
0.0
  0
LINE
  5
107
100
AcDbEntity
  8
LAY-1
  6
CONTINUOUS
 62
     1
100
AcDbLine
 10
1117.839824
 20
765.467437
 30
0.0
 11
1120.606248
 21
762.701014
 31
0.0
  0
LINE
  5
108
100
AcDbEntity
  8
LAY-1
  6
CONTINUOUS
 62
     1
100
AcDbLine
 10
1122.0
 20
761.307262
 30
0.0
 11
1123.177974
 21
760.129287
 31
0.0
  0
LINE
  5
109
100
AcDbEntity
  8
LAY-1
  6
CONTINUOUS
 62
     1
100
AcDbLine
 10
1117.441962
 20
765.467437
 30
0.0
 11
1120.208385
 21
762.701014
 31
0.0
  0
LINE
  5
10A
100
AcDbEntity
  8
LAY-1
  6
CONTINUOUS
 62
     1
100
AcDbLine
 10
1122.0
 20
760.909399
 30
0.0
 11
1122.925739
 21
759.98366
 31
0.0
  0
LINE
  5
10B
100
AcDbEntity
  8
LAY-1
  6
CONTINUOUS
 62
     1
100
AcDbLine
 10
1117.044099
 20
765.467437
 30
0.0
 11
1119.810523
 21
762.701014
 31
0.0
  0
LINE
  5
10C
100
AcDbEntity
  8
LAY-1
  6
CONTINUOUS
 62
     1
100
AcDbLine
 10
1122.0
 20
760.511537
 30
0.0
 11
1122.673505
 21
759.838032
 31
0.0
  0
LINE
  5
10D
100
AcDbEntity
  8
LAY-1
  6
CONTINUOUS
 62
     1
100
AcDbLine
 10
1116.646237
 20
765.467437
 30
0.0
 11
1119.412661
 21
762.701014
 31
0.0
  0
LINE
  5
10E
100
AcDbEntity
  8
LAY-1
  6
CONTINUOUS
 62
     1
100
AcDbLine
 10
1122.0
 20
760.113674
 30
0.0
 11
1122.42127
 21
759.692404
 31
0.0
  0
LINE
  5
10F
100
AcDbEntity
  8
LAY-1
  6
CONTINUOUS
 62
     1
100
AcDbLine
 10
1116.248374
 20
765.467437
 30
0.0
 11
1119.014798
 21
762.701014
 31
0.0
  0
LINE
  5
110
100
AcDbEntity
  8
LAY-1
  6
CONTINUOUS
 62
     1
100
AcDbLine
 10
1121.855375
 20
759.860436
 30
0.0
 11
1122.169035
 21
759.546776
 31
0.0
  0
LINE
  5
111
100
AcDbEntity
  8
LAY-1
  6
CONTINUOUS
 62
     1
100
AcDbLine
 10
1115.850512
 20
765.467437
 30
0.0
 11
1118.616936
 21
762.701014
 31
0.0
  0
LINE
  5
112
100
AcDbEntity
  8
LAY-1
  6
CONTINUOUS
 62
     1
100
AcDbLine
 10
1121.709748
 20
759.608202
 30
0.0
 11
1121.916801
 21
759.401149
 31
0.0
  0
LINE
  5
113
100
AcDbEntity
  8
LAY-1
  6
CONTINUOUS
 62
     1
100
AcDbLine
 10
1115.452649
 20
765.467437
 30
0.0
 11
1118.219073
 21
762.701014
 31
0.0
  0
LINE
  5
114
100
AcDbEntity
  8
LAY-1
  6
CONTINUOUS
 62
     1
100
AcDbLine
 10
1121.56412
 20
759.355967
 30
0.0
 11
1121.664566
 21
759.255521
 31
0.0
  0
LINE
  5
115
100
AcDbEntity
  8
LAY-1
  6
CONTINUOUS
 62
     1
100
AcDbLine
 10
1115.054787
 20
765.467437
 30
0.0
 11
1117.821211
 21
762.701014
 31
0.0
  0
LINE
  5
116
100
AcDbEntity
  8
LAY-1
  6
CONTINUOUS
 62
     1
100
AcDbLine
 10
1114.656925
 20
765.467437
 30
0.0
 11
1117.423348
 21
762.701014
 31
0.0
  0
LINE
  5
117
100
AcDbEntity
  8
LAY-1
  6
CONTINUOUS
 62
     1
100
AcDbLine
 10
1113.771061
 20
765.955438
 30
0.0
 11
1117.025486
 21
762.701014
 31
0.0
  0
LINE
  5
118
100
AcDbEntity
  8
LAY-1
  6
CONTINUOUS
 62
     1
100
AcDbLine
 10
1113.771061
 20
765.557576
 30
0.0
 11
1116.627623
 21
762.701014
 31
0.0
  0
LINE
  5
119
100
AcDbEntity
  8
LAY-1
  6
CONTINUOUS
 62
     1
100
AcDbLine
 10
1113.771061
 20
765.159713
 30
0.0
 11
1116.229761
 21
762.701014
 31
0.0
  0
LINE
  5
11A
100
AcDbEntity
  8
LAY-1
  6
CONTINUOUS
 62
     1
100
AcDbLine
 10
1113.771061
 20
764.761851
 30
0.0
 11
1115.831899
 21
762.701014
 31
0.0
  0
LINE
  5
11B
100
AcDbEntity
  8
LAY-1
  6
CONTINUOUS
 62
     1
100
AcDbLine
 10
1113.771061
 20
764.363988
 30
0.0
 11
1115.434036
 21
762.701014
 31
0.0
  0
LINE
  5
11C
100
AcDbEntity
  8
LAY-1
  6
CONTINUOUS
 62
     1
100
AcDbLine
 10
1113.771061
 20
763.966126
 30
0.0
 11
1115.036174
 21
762.701014
 31
0.0
  0
LINE
  5
11D
100
AcDbEntity
  8
LAY-1
  6
CONTINUOUS
 62
     1
100
AcDbLine
 10
1113.771061
 20
763.568263
 30
0.0
 11
1114.638311
 21
762.701014
 31
0.0
  0
LINE
  5
11E
100
AcDbEntity
  8
LAY-1
  6
CONTINUOUS
 62
     1
100
AcDbLine
 10
1113.771061
 20
763.170401
 30
0.0
 11
1114.352487
 21
762.588975
 31
0.0
  0
LINE
  5
11F
100
AcDbEntity
  8
LAY-1
  6
CONTINUOUS
 62
     1
100
AcDbLine
 10
1113.771061
 20
762.772539
 30
0.0
 11
1114.16639
 21
762.37721
 31
0.0
  0
LINE
  5
120
100
AcDbEntity
  8
LAY-1
  6
CONTINUOUS
 62
     1
100
AcDbLine
 10
1113.771061
 20
762.374676
 30
0.0
 11
1113.980293
 21
762.165444
 31
0.0
  0
LINE
  5
121
100
AcDbEntity
  8
LAY-1
  6
CONTINUOUS
 62
     1
100
AcDbLine
 10
1113.771061
 20
761.976814
 30
0.0
 11
1113.794196
 21
761.953679
 31
0.0
  0
LINE
  5
122
100
AcDbEntity
  8
LAY-1
  6
CONTINUOUS
 62
     1
100
AcDbLine
 10
1129.403993
 20
766.634866
 30
0.0
 11
1129.409445
 21
766.629415
 31
0.0
  0
LINE
  5
123
100
AcDbEntity
  8
LAY-1
  6
CONTINUOUS
 62
     1
100
AcDbLine
 10
1129.172327
 20
766.468671
 30
0.0
 11
1129.466612
 21
766.174385
 31
0.0
  0
LINE
  5
124
100
AcDbEntity
  8
LAY-1
  6
CONTINUOUS
 62
     1
100
AcDbLine
 10
1129.221421
 20
766.021714
 30
0.0
 11
1129.49474
 21
765.748395
 31
0.0
  0
LINE
  5
125
100
AcDbEntity
  8
LAY-1
  6
CONTINUOUS
 62
     1
100
AcDbLine
 10
1129.242939
 20
765.602334
 30
0.0
 11
1129.499025
 21
765.346247
 31
0.0
  0
LINE
  5
126
100
AcDbEntity
  8
LAY-1
  6
CONTINUOUS
 62
     1
100
AcDbLine
 10
1129.236676
 20
765.210734
 30
0.0
 11
1129.483109
 21
764.964301
 31
0.0
  0
LINE
  5
127
100
AcDbEntity
  8
LAY-1
  6
CONTINUOUS
 62
     1
100
AcDbLine
 10
1129.20749
 20
764.842058
 30
0.0
 11
1129.44966
 21
764.599888
 31
0.0
  0
LINE
  5
128
100
AcDbEntity
  8
LAY-1
  6
CONTINUOUS
 62
     1
100
AcDbLine
 10
1129.15879
 20
764.492895
 30
0.0
 11
1129.400697
 21
764.250988
 31
0.0
  0
LINE
  5
129
100
AcDbEntity
  8
LAY-1
  6
CONTINUOUS
 62
     1
100
AcDbLine
 10
1129.09308
 20
764.160743
 30
0.0
 11
1129.337793
 21
763.91603
 31
0.0
  0
LINE
  5
12A
100
AcDbEntity
  8
LAY-1
  6
CONTINUOUS
 62
     1
100
AcDbLine
 10
1129.012254
 20
763.843707
 30
0.0
 11
1129.262192
 21
763.593768
 31
0.0
  0
LINE
  5
12B
100
AcDbEntity
  8
LAY-1
  6
CONTINUOUS
 62
     1
100
AcDbLine
 10
1128.917782
 20
763.540316
 30
0.0
 11
1129.174899
 21
763.283199
 31
0.0
  0
LINE
  5
12C
100
AcDbEntity
  8
LAY-1
  6
CONTINUOUS
 62
     1
100
AcDbLine
 10
1128.81083
 20
763.249405
 30
0.0
 11
1129.076732
 21
762.983503
 31
0.0
  0
LINE
  5
12D
100
AcDbEntity
  8
LAY-1
  6
CONTINUOUS
 62
     1
100
AcDbLine
 10
1128.692332
 20
762.970041
 30
0.0
 11
1128.968367
 21
762.694005
 31
0.0
  0
LINE
  5
12E
100
AcDbEntity
  8
LAY-1
  6
CONTINUOUS
 62
     1
100
AcDbLine
 10
1128.563048
 20
762.701463
 30
0.0
 11
1128.850364
 21
762.414147
 31
0.0
  0
LINE
  5
12F
100
AcDbEntity
  8
LAY-1
  6
CONTINUOUS
 62
     1
100
AcDbLine
 10
1128.423597
 20
762.443051
 30
0.0
 11
1128.723187
 21
762.143461
 31
0.0
  0
LINE
  5
130
100
AcDbEntity
  8
LAY-1
  6
CONTINUOUS
 62
     1
100
AcDbLine
 10
1128.27449
 20
762.194295
 30
0.0
 11
1128.587226
 21
761.881559
 31
0.0
  0
LINE
  5
131
100
AcDbEntity
  8
LAY-1
  6
CONTINUOUS
 62
     1
100
AcDbLine
 10
1128.116146
 20
761.954777
 30
0.0
 11
1128.442803
 21
761.62812
 31
0.0
  0
LINE
  5
132
100
AcDbEntity
  8
LAY-1
  6
CONTINUOUS
 62
     1
100
AcDbLine
 10
1127.948905
 20
761.724156
 30
0.0
 11
1128.290185
 21
761.382876
 31
0.0
  0
LINE
  5
133
100
AcDbEntity
  8
LAY-1
  6
CONTINUOUS
 62
     1
100
AcDbLine
 10
1127.773046
 20
761.502152
 30
0.0
 11
1128.129589
 21
761.145609
 31
0.0
  0
LINE
  5
134
100
AcDbEntity
  8
LAY-1
  6
CONTINUOUS
 62
     1
100
AcDbLine
 10
1127.588788
 20
761.288547
 30
0.0
 11
1127.961191
 21
760.916144
 31
0.0
  0
LINE
  5
135
100
AcDbEntity
  8
LAY-1
  6
CONTINUOUS
 62
     1
100
AcDbLine
 10
1127.396303
 20
761.083171
 30
0.0
 11
1127.785126
 21
760.694347
 31
0.0
  0
LINE
  5
136
100
AcDbEntity
  8
LAY-1
  6
CONTINUOUS
 62
     1
100
AcDbLine
 10
1127.195713
 20
760.885898
 30
0.0
 11
1127.601493
 21
760.480118
 31
0.0
  0
LINE
  5
137
100
AcDbEntity
  8
LAY-1
  6
CONTINUOUS
 62
     1
100
AcDbLine
 10
1126.9871
 20
760.696648
 30
0.0
 11
1127.410357
 21
760.273392
 31
0.0
  0
LINE
  5
138
100
AcDbEntity
  8
LAY-1
  6
CONTINUOUS
 62
     1
100
AcDbLine
 10
1126.770507
 20
760.515379
 30
0.0
 11
1127.211752
 21
760.074134
 31
0.0
  0
LINE
  5
139
100
AcDbEntity
  8
LAY-1
  6
CONTINUOUS
 62
     1
100
AcDbLine
 10
1126.545934
 20
760.34209
 30
0.0
 11
1127.005678
 21
759.882345
 31
0.0
  0
LINE
  5
13A
100
AcDbEntity
  8
LAY-1
  6
CONTINUOUS
 62
     1
100
AcDbLine
 10
1126.313343
 20
760.176818
 30
0.0
 11
1126.792107
 21
759.698054
 31
0.0
  0
LINE
  5
13B
100
AcDbEntity
  8
LAY-1
  6
CONTINUOUS
 62
     1
100
AcDbLine
 10
1126.072657
 20
760.019641
 30
0.0
 11
1126.570974
 21
759.521324
 31
0.0
  0
LINE
  5
13C
100
AcDbEntity
  8
LAY-1
  6
CONTINUOUS
 62
     1
100
AcDbLine
 10
1125.823756
 20
759.87068
 30
0.0
 11
1126.342185
 21
759.352251
 31
0.0
  0
LINE
  5
13D
100
AcDbEntity
  8
LAY-1
  6
CONTINUOUS
 62
     1
100
AcDbLine
 10
1125.566473
 20
759.730101
 30
0.0
 11
1126.105606
 21
759.190968
 31
0.0
  0
LINE
  5
13E
100
AcDbEntity
  8
LAY-1
  6
CONTINUOUS
 62
     1
100
AcDbLine
 10
1125.300593
 20
759.598119
 30
0.0
 11
1125.861067
 21
759.037645
 31
0.0
  0
LINE
  5
13F
100
AcDbEntity
  8
LAY-1
  6
CONTINUOUS
 62
     1
100
AcDbLine
 10
1125.025843
 20
759.475005
 30
0.0
 11
1125.608353
 21
758.892496
 31
0.0
  0
LINE
  5
140
100
AcDbEntity
  8
LAY-1
  6
CONTINUOUS
 62
     1
100
AcDbLine
 10
1124.741889
 20
759.361098
 30
0.0
 11
1125.347203
 21
758.755783
 31
0.0
  0
LINE
  5
141
100
AcDbEntity
  8
LAY-1
  6
CONTINUOUS
 62
     1
100
AcDbLine
 10
1124.448318
 20
759.256806
 30
0.0
 11
1125.077299
 21
758.627825
 31
0.0
  0
LINE
  5
142
100
AcDbEntity
  8
LAY-1
  6
CONTINUOUS
 62
     1
100
AcDbLine
 10
1124.14463
 20
759.162632
 30
0.0
 11
1124.798259
 21
758.509002
 31
0.0
  0
LINE
  5
143
100
AcDbEntity
  8
LAY-1
  6
CONTINUOUS
 62
     1
100
AcDbLine
 10
1123.830214
 20
759.079185
 30
0.0
 11
1124.509624
 21
758.399775
 31
0.0
  0
LINE
  5
144
100
AcDbEntity
  8
LAY-1
  6
CONTINUOUS
 62
     1
100
AcDbLine
 10
1123.504326
 20
759.007211
 30
0.0
 11
1124.210844
 21
758.300692
 31
0.0
  0
LINE
  5
145
100
AcDbEntity
  8
LAY-1
  6
CONTINUOUS
 62
     1
100
AcDbLine
 10
1123.166046
 20
758.947628
 30
0.0
 11
1123.901256
 21
758.212419
 31
0.0
  0
LINE
  5
146
100
AcDbEntity
  8
LAY-1
  6
CONTINUOUS
 62
     1
100
AcDbLine
 10
1122.814234
 20
758.901577
 30
0.0
 11
1123.580052
 21
758.135759
 31
0.0
  0
LINE
  5
147
100
AcDbEntity
  8
LAY-1
  6
CONTINUOUS
 62
     1
100
AcDbLine
 10
1122.44745
 20
758.8705
 30
0.0
 11
1123.246249
 21
758.0717
 31
0.0
  0
LINE
  5
148
100
AcDbEntity
  8
LAY-1
  6
CONTINUOUS
 62
     1
100
AcDbLine
 10
1122.063841
 20
758.856246
 30
0.0
 11
1122.898624
 21
758.021462
 31
0.0
  0
LINE
  5
149
100
AcDbEntity
  8
LAY-1
  6
CONTINUOUS
 62
     1
100
AcDbLine
 10
1121.660968
 20
758.861256
 30
0.0
 11
1122.53564
 21
757.986585
 31
0.0
  0
LINE
  5
14A
100
AcDbEntity
  8
LAY-1
  6
CONTINUOUS
 62
     1
100
AcDbLine
 10
1121.235517
 20
758.888845
 30
0.0
 11
1122.155321
 21
757.969041
 31
0.0
  0
LINE
  5
14B
100
AcDbEntity
  8
LAY-1
  6
CONTINUOUS
 62
     1
100
AcDbLine
 10
1120.782789
 20
758.943711
 30
0.0
 11
1121.755066
 21
757.971433
 31
0.0
  0
LINE
  5
14C
100
AcDbEntity
  8
LAY-1
  6
CONTINUOUS
 62
     1
100
AcDbLine
 10
1120.295734
 20
759.032903
 30
0.0
 11
1121.331338
 21
757.997299
 31
0.0
  0
LINE
  5
14D
100
AcDbEntity
  8
LAY-1
  6
CONTINUOUS
 62
     1
100
AcDbLine
 10
1119.762876
 20
759.167899
 30
0.0
 11
1120.879109
 21
758.051665
 31
0.0
  0
LINE
  5
14E
100
AcDbEntity
  8
LAY-1
  6
CONTINUOUS
 62
     1
100
AcDbLine
 10
1119.162988
 20
759.369924
 30
0.0
 11
1120.390814
 21
758.142099
 31
0.0
  0
LINE
  5
14F
100
AcDbEntity
  8
LAY-1
  6
CONTINUOUS
 62
     1
100
AcDbLine
 10
1118.44671
 20
759.68834
 30
0.0
 11
1119.854058
 21
758.280992
 31
0.0
  0
LINE
  5
150
100
AcDbEntity
  8
LAY-1
  6
CONTINUOUS
 62
     1
100
AcDbLine
 10
1115.036174
 20
762.701014
 30
0.0
 11
1115.989391
 21
761.747796
 31
0.0
  0
LINE
  5
151
100
AcDbEntity
  8
LAY-1
  6
CONTINUOUS
 62
     1
100
AcDbLine
 10
1117.399407
 20
760.33778
 30
0.0
 11
1119.245703
 21
758.491485
 31
0.0
  0
LINE
  5
152
100
AcDbEntity
  8
LAY-1
  6
CONTINUOUS
 62
     1
100
AcDbLine
 10
1115.361025
 20
761.9783
 30
0.0
 11
1118.510862
 21
758.828462
 31
0.0
  0
LINE
  5
153
100
AcDbEntity
  8
LAY-1
  6
CONTINUOUS
 62
     1
100
AcDbLine
 10
1116.084328
 20
760.857135
 30
0.0
 11
1117.389697
 21
759.551765
 31
0.0
  0
LINE
  5
154
100
AcDbEntity
  8
LAY-1
  6
CONTINUOUS
 62
     2
100
AcDbLine
 10
792.884317
 20
712.016287
 30
0.0
 11
867.095384
 21
712.016287
 31
0.0
  0
ARC
  5
155
100
AcDbEntity
  8
LAY-1
  6
CONTINUOUS
 62
     2
100
AcDbCircle
 10
867.095384
 20
717.016287
 30
0.0
 40
5.0
100
AcDbArc
 50
270.0
 51
320.492811
  0
ARC
  5
156
100
AcDbEntity
  8
LAY-1
  6
CONTINUOUS
 62
     2
100
AcDbCircle
 10
853.207578
 20
728.467438
 30
0.0
 40
23.0
100
AcDbArc
 50
320.492811
 51
0.0
  0
ARC
  5
157
100
AcDbEntity
  8
LAY-1
  6
CONTINUOUS
 62
     2
100
AcDbCircle
 10
853.207578
 20
728.467438
 30
0.0
 40
23.0
100
AcDbArc
 50
0.0
 51
39.507189
  0
ARC
  5
158
100
AcDbEntity
  8
LAY-1
  6
CONTINUOUS
 62
     2
100
AcDbCircle
 10
867.095384
 20
739.918588
 30
0.0
 40
5.0
100
AcDbArc
 50
39.507189
 51
90.0
  0
LINE
  5
159
100
AcDbEntity
  8
LAY-1
  6
CONTINUOUS
 62
     2
100
AcDbLine
 10
792.884317
 20
744.918588
 30
0.0
 11
867.095384
 21
744.918588
 31
0.0
  0
LINE
  5
15A
100
AcDbEntity
  8
LAY-1
  6
CONTINUOUS
 62
     2
100
AcDbLine
 10
760.201923
 20
700.543608
 30
0.0
 11
758.310361
 21
682.546598
 31
0.0
  0
ARC
  5
15B
100
AcDbEntity
  8
LAY-1
  6
CONTINUOUS
 62
     2
100
AcDbCircle
 10
743.392689
 20
772.818858
 30
0.0
 40
15.0
100
AcDbArc
 50
6.0
 51
87.5304
  0
LINE
  5
15C
100
AcDbEntity
  8
LAY-1
  6
CONTINUOUS
 62
     2
100
AcDbLine
 10
764.48757
 20
751.967438
 30
0.0
 11
769.84116
 21
751.967438
 31
0.0
  0
ARC
  5
15D
100
AcDbEntity
  8
LAY-1
  6
CONTINUOUS
 62
     2
100
AcDbCircle
 10
769.84116
 20
746.967438
 30
0.0
 40
5.0
100
AcDbArc
 50
30.0
 51
90.0
  0
ARC
  5
15E
100
AcDbEntity
  8
LAY-1
  6
CONTINUOUS
 62
     2
100
AcDbCircle
 10
776.769363
 20
750.967438
 30
0.0
 40
3.0
100
AcDbArc
 50
210.0
 51
270.0
  0
LINE
  5
15F
100
AcDbEntity
  8
LAY-1
  6
CONTINUOUS
 62
     2
100
AcDbLine
 10
776.769363
 20
747.967438
 30
0.0
 11
785.459962
 21
747.967438
 31
0.0
  0
ARC
  5
160
100
AcDbEntity
  8
LAY-1
  6
CONTINUOUS
 62
     2
100
AcDbCircle
 10
785.459962
 20
742.967438
 30
0.0
 40
5.0
100
AcDbArc
 50
60.0
 51
90.0
  0
LINE
  5
161
100
AcDbEntity
  8
LAY-1
  6
CONTINUOUS
 62
     2
100
AcDbLine
 10
787.959962
 20
747.297565
 30
0.0
 11
791.384317
 21
745.320512
 31
0.0
  0
ARC
  5
162
100
AcDbEntity
  8
LAY-1
  6
CONTINUOUS
 62
     2
100
AcDbCircle
 10
792.884317
 20
747.918588
 30
0.0
 40
3.0
100
AcDbArc
 50
240.0
 51
270.0
  0
ARC
  5
163
100
AcDbEntity
  8
LAY-1
  6
CONTINUOUS
 62
     2
100
AcDbCircle
 10
792.884317
 20
709.016287
 30
0.0
 40
3.0
100
AcDbArc
 50
90.0
 51
120.0
  0
LINE
  5
164
100
AcDbEntity
  8
LAY-1
  6
CONTINUOUS
 62
     2
100
AcDbLine
 10
787.959962
 20
709.637311
 30
0.0
 11
791.384317
 21
711.614363
 31
0.0
  0
ARC
  5
165
100
AcDbEntity
  8
LAY-1
  6
CONTINUOUS
 62
     2
100
AcDbCircle
 10
785.459962
 20
713.967438
 30
0.0
 40
5.0
100
AcDbArc
 50
270.0
 51
300.0
  0
LINE
  5
166
100
AcDbEntity
  8
LAY-1
  6
CONTINUOUS
 62
     2
100
AcDbLine
 10
776.769363
 20
708.967438
 30
0.0
 11
785.459962
 21
708.967438
 31
0.0
  0
ARC
  5
167
100
AcDbEntity
  8
LAY-1
  6
CONTINUOUS
 62
     2
100
AcDbCircle
 10
776.769363
 20
705.967438
 30
0.0
 40
3.0
100
AcDbArc
 50
90.0
 51
150.0
  0
ARC
  5
168
100
AcDbEntity
  8
LAY-1
  6
CONTINUOUS
 62
     2
100
AcDbCircle
 10
769.84116
 20
709.967438
 30
0.0
 40
5.0
100
AcDbArc
 50
270.0
 51
330.0
  0
LINE
  5
169
100
AcDbEntity
  8
LAY-1
  6
CONTINUOUS
 62
     2
100
AcDbLine
 10
764.48757
 20
704.967438
 30
0.0
 11
769.84116
 21
704.967438
 31
0.0
  0
ARC
  5
16A
100
AcDbEntity
  8
LAY-1
  6
CONTINUOUS
 62
     2
100
AcDbCircle
 10
636.482199
 20
798.449362
 30
0.0
 40
6.0
100
AcDbArc
 50
180.0
 51
267.5304
  0
LINE
  5
16B
100
AcDbEntity
  8
LAY-1
  6
CONTINUOUS
 62
     2
100
AcDbLine
 10
650.852931
 20
791.823984
 30
0.0
 11
636.223663
 21
792.454935
 31
0.0
  0
LINE
  5
16C
100
AcDbEntity
  8
LAY-1
  6
CONTINUOUS
 62
     2
100
AcDbLine
 10
744.039029
 20
787.804926
 30
0.0
 11
650.852931
 21
791.823984
 31
0.0
  0
LINE
  5
16D
100
AcDbEntity
  8
LAY-1
  6
CONTINUOUS
 62
     2
100
AcDbLine
 10
744.039029
 20
669.129949
 30
0.0
 11
636.223663
 21
664.479941
 31
0.0
  0
ARC
  5
16E
100
AcDbEntity
  8
LAY-1
  6
CONTINUOUS
 62
     2
100
AcDbCircle
 10
743.392689
 20
684.116018
 30
0.0
 40
15.0
100
AcDbArc
 50
272.4696
 51
354.0
  0
LINE
  5
16F
100
AcDbEntity
  8
LAY-1
  6
CONTINUOUS
 62
     2
100
AcDbLine
 10
760.201923
 20
756.391268
 30
0.0
 11
758.310518
 21
774.386785
 31
0.0
  0
LINE
  5
170
100
AcDbEntity
  8
LAY-1
  6
CONTINUOUS
 62
     2
100
AcDbLine
 10
1451.115683
 20
712.016287
 30
0.0
 11
1376.904616
 21
712.016287
 31
0.0
  0
ARC
  5
171
100
AcDbEntity
  8
LAY-1
  6
CONTINUOUS
 62
     2
100
AcDbCircle
 10
1376.904616
 20
717.016287
 30
0.0
 40
5.0
100
AcDbArc
 50
219.507189
 51
270.0
  0
ARC
  5
172
100
AcDbEntity
  8
LAY-1
  6
CONTINUOUS
 62
     2
100
AcDbCircle
 10
1390.792422
 20
728.467438
 30
0.0
 40
23.0
100
AcDbArc
 50
180.0
 51
219.507189
  0
ARC
  5
173
100
AcDbEntity
  8
LAY-1
  6
CONTINUOUS
 62
     2
100
AcDbCircle
 10
1390.792422
 20
728.467438
 30
0.0
 40
23.0
100
AcDbArc
 50
140.492811
 51
180.0
  0
ARC
  5
174
100
AcDbEntity
  8
LAY-1
  6
CONTINUOUS
 62
     2
100
AcDbCircle
 10
1376.904616
 20
739.918588
 30
0.0
 40
5.0
100
AcDbArc
 50
90.0
 51
140.492811
  0
LINE
  5
175
100
AcDbEntity
  8
LAY-1
  6
CONTINUOUS
 62
     2
100
AcDbLine
 10
1451.115683
 20
744.918588
 30
0.0
 11
1376.904616
 21
744.918588
 31
0.0
  0
LINE
  5
176
100
AcDbEntity
  8
LAY-1
  6
CONTINUOUS
 62
     2
100
AcDbLine
 10
1483.798077
 20
700.543608
 30
0.0
 11
1485.689639
 21
682.546598
 31
0.0
  0
LINE
  5
177
100
AcDbEntity
  8
LAY-1
  6
CONTINUOUS
 62
     2
100
AcDbLine
 10
1483.798077
 20
756.391268
 30
0.0
 11
1485.429706
 21
771.915174
 31
0.0
  0
LINE
  5
178
100
AcDbEntity
  8
LAY-1
  6
CONTINUOUS
 62
     2
100
AcDbLine
 10
1485.429706
 20
771.915174
 30
0.0
 11
1485.689639
 21
774.388278
 31
0.0
  0
LINE
  5
179
100
AcDbEntity
  8
LAY-1
  6
CONTINUOUS
 62
     2
100
AcDbLine
 10
1485.429706
 20
771.915174
 30
0.0
 11
1485.689482
 21
774.386785
 31
0.0
  0
ARC
  5
17A
100
AcDbEntity
  8
LAY-1
  6
CONTINUOUS
 62
     2
100
AcDbCircle
 10
1500.607311
 20
772.818858
 30
0.0
 40
15.0
100
AcDbArc
 50
92.4696
 51
174.0
  0
ARC
  5
17B
100
AcDbEntity
  8
LAY-1
  6
CONTINUOUS
 62
     2
100
AcDbCircle
 10
1483.643828
 20
754.440974
 30
0.0
 40
2.0
100
AcDbArc
 50
85.73917
 51
170.0
  0
ARC
  5
17C
100
AcDbEntity
  8
LAY-1
  6
CONTINUOUS
 62
     2
100
AcDbCircle
 10
1479.51243
 20
753.967438
 30
0.0
 40
2.0
100
AcDbArc
 50
270.0
 51
350.664557
  0
LINE
  5
17D
100
AcDbEntity
  8
LAY-1
  6
CONTINUOUS
 62
     2
100
AcDbLine
 10
1481.674212
 20
754.78827
 30
0.0
 11
1481.485941
 21
753.643009
 31
0.0
  0
LINE
  5
17E
100
AcDbEntity
  8
LAY-1
  6
CONTINUOUS
 62
     2
100
AcDbLine
 10
1483.249144
 20
756.435446
 30
0.0
 11
1483.258251
 21
756.435446
 31
0.0
  0
LINE
  5
17F
100
AcDbEntity
  8
LAY-1
  6
CONTINUOUS
 62
     2
100
AcDbLine
 10
1479.51243
 20
751.967438
 30
0.0
 11
1474.15884
 21
751.967438
 31
0.0
  0
ARC
  5
180
100
AcDbEntity
  8
LAY-1
  6
CONTINUOUS
 62
     2
100
AcDbCircle
 10
1474.15884
 20
746.967438
 30
0.0
 40
5.0
100
AcDbArc
 50
90.0
 51
150.0
  0
ARC
  5
181
100
AcDbEntity
  8
LAY-1
  6
CONTINUOUS
 62
     2
100
AcDbCircle
 10
1467.230637
 20
750.967438
 30
0.0
 40
3.0
100
AcDbArc
 50
270.0
 51
330.0
  0
LINE
  5
182
100
AcDbEntity
  8
LAY-1
  6
CONTINUOUS
 62
     2
100
AcDbLine
 10
1467.230637
 20
747.967438
 30
0.0
 11
1458.540038
 21
747.967438
 31
0.0
  0
ARC
  5
183
100
AcDbEntity
  8
LAY-1
  6
CONTINUOUS
 62
     2
100
AcDbCircle
 10
1458.540038
 20
742.967438
 30
0.0
 40
5.0
100
AcDbArc
 50
90.0
 51
120.0
  0
LINE
  5
184
100
AcDbEntity
  8
LAY-1
  6
CONTINUOUS
 62
     2
100
AcDbLine
 10
1456.040038
 20
747.297565
 30
0.0
 11
1452.615683
 21
745.320512
 31
0.0
  0
ARC
  5
185
100
AcDbEntity
  8
LAY-1
  6
CONTINUOUS
 62
     2
100
AcDbCircle
 10
1451.115683
 20
747.918588
 30
0.0
 40
3.0
100
AcDbArc
 50
270.0
 51
300.0
  0
ARC
  5
186
100
AcDbEntity
  8
LAY-1
  6
CONTINUOUS
 62
     2
100
AcDbCircle
 10
1451.115683
 20
709.016287
 30
0.0
 40
3.0
100
AcDbArc
 50
60.0
 51
90.0
  0
LINE
  5
187
100
AcDbEntity
  8
LAY-1
  6
CONTINUOUS
 62
     2
100
AcDbLine
 10
1456.040038
 20
709.637311
 30
0.0
 11
1452.615683
 21
711.614363
 31
0.0
  0
ARC
  5
188
100
AcDbEntity
  8
LAY-1
  6
CONTINUOUS
 62
     2
100
AcDbCircle
 10
1458.540038
 20
713.967438
 30
0.0
 40
5.0
100
AcDbArc
 50
240.0
 51
270.0
  0
LINE
  5
189
100
AcDbEntity
  8
LAY-1
  6
CONTINUOUS
 62
     2
100
AcDbLine
 10
1467.230637
 20
708.967438
 30
0.0
 11
1458.540038
 21
708.967438
 31
0.0
  0
ARC
  5
18A
100
AcDbEntity
  8
LAY-1
  6
CONTINUOUS
 62
     2
100
AcDbCircle
 10
1467.230637
 20
705.967438
 30
0.0
 40
3.0
100
AcDbArc
 50
30.0
 51
90.0
  0
ARC
  5
18B
100
AcDbEntity
  8
LAY-1
  6
CONTINUOUS
 62
     2
100
AcDbCircle
 10
1474.15884
 20
709.967438
 30
0.0
 40
5.0
100
AcDbArc
 50
210.0
 51
270.0
  0
LINE
  5
18C
100
AcDbEntity
  8
LAY-1
  6
CONTINUOUS
 62
     2
100
AcDbLine
 10
1479.51243
 20
704.967438
 30
0.0
 11
1474.15884
 21
704.967438
 31
0.0
  0
ARC
  5
18D
100
AcDbEntity
  8
LAY-1
  6
CONTINUOUS
 62
     2
100
AcDbCircle
 10
1479.51243
 20
702.967438
 30
0.0
 40
2.0
100
AcDbArc
 50
9.335443
 51
90.0
  0
LINE
  5
18E
100
AcDbEntity
  8
LAY-1
  6
CONTINUOUS
 62
     2
100
AcDbLine
 10
1481.674212
 20
702.146605
 30
0.0
 11
1481.485941
 21
703.291866
 31
0.0
  0
ARC
  5
18F
100
AcDbEntity
  8
LAY-1
  6
CONTINUOUS
 62
     2
100
AcDbCircle
 10
1483.643828
 20
702.493902
 30
0.0
 40
2.0
100
AcDbArc
 50
190.0
 51
274.26083
  0
LINE
  5
190
100
AcDbEntity
  8
LAY-1
  6
CONTINUOUS
 62
     2
100
AcDbLine
 10
1483.249144
 20
700.499429
 30
0.0
 11
1483.258251
 21
700.499429
 31
0.0
  0
LINE
  5
191
100
AcDbEntity
  8
LAY-1
  6
CONTINUOUS
 62
     2
100
AcDbLine
 10
1499.960971
 20
787.804926
 30
0.0
 11
1593.147069
 21
791.823984
 31
0.0
  0
LINE
  5
192
100
AcDbEntity
  8
LAY-1
  6
CONTINUOUS
 62
     2
100
AcDbLine
 10
1499.960971
 20
669.129949
 30
0.0
 11
1607.776337
 21
664.479941
 31
0.0
  0
ARC
  5
193
100
AcDbEntity
  8
LAY-1
  6
CONTINUOUS
 62
     2
100
AcDbCircle
 10
1500.607311
 20
684.116018
 30
0.0
 40
15.0
100
AcDbArc
 50
186.0
 51
267.5304
  0
LINE
  5
194
100
AcDbEntity
  8
LAY-1
  6
CONTINUOUS
 62
     2
100
AcDbLine
 10
1122.0
 20
603.189292
 30
0.0
 11
1053.965095
 21
602.001738
 31
0.0
  0
LINE
  5
195
100
AcDbEntity
  8
LAY-1
  6
CONTINUOUS
 62
     2
100
AcDbLine
 10
1091.153735
 20
606.273233
 30
0.0
 11
1094.525658
 21
618.857424
 31
0.0
  0
ARC
  5
196
100
AcDbEntity
  8
LAY-1
  6
CONTINUOUS
 62
     2
100
AcDbCircle
 10
1054.0
 20
600.002043
 30
0.0
 40
2.0
100
AcDbArc
 50
91.0
 51
180.0
  0
LINE
  5
197
100
AcDbEntity
  8
LAY-1
  6
CONTINUOUS
 62
     2
100
AcDbLine
 10
1052.0
 20
600.002043
 30
0.0
 11
1052.0
 21
585.967437
 31
0.0
  0
LINE
  5
198
100
AcDbEntity
  8
LAY-1
  6
CONTINUOUS
 62
     2
100
AcDbLine
 10
1122.0
 20
841.147869
 30
0.0
 11
1102.0
 21
841.147869
 31
0.0
  0
ARC
  5
199
100
AcDbEntity
  8
LAY-1
  6
CONTINUOUS
 62
     2
100
AcDbCircle
 10
1086.324105
 20
607.567329
 30
0.0
 40
5.0
100
AcDbArc
 50
271.0
 51
345.0
  0
LINE
  5
19A
100
AcDbEntity
  8
LAY-1
  6
CONTINUOUS
 62
     2
100
AcDbLine
 10
1052.0
 20
585.967437
 30
0.0
 11
1122.0
 21
585.967437
 31
0.0
  0
LINE
  5
19B
100
AcDbEntity
  8
LAY-1
  6
CONTINUOUS
 62
     2
100
AcDbLine
 10
1152.846265
 20
606.273233
 30
0.0
 11
1149.474342
 21
618.857424
 31
0.0
  0
LINE
  5
19C
100
AcDbEntity
  8
LAY-1
  6
CONTINUOUS
 62
     2
100
AcDbLine
 10
1122.0
 20
603.189292
 30
0.0
 11
1190.034905
 21
602.001738
 31
0.0
  0
ARC
  5
19D
100
AcDbEntity
  8
LAY-1
  6
CONTINUOUS
 62
     2
100
AcDbCircle
 10
1190.0
 20
600.002043
 30
0.0
 40
2.0
100
AcDbArc
 50
0.0
 51
89.0
  0
LINE
  5
19E
100
AcDbEntity
  8
LAY-1
  6
CONTINUOUS
 62
     2
100
AcDbLine
 10
1192.0
 20
600.002043
 30
0.0
 11
1192.0
 21
585.967437
 31
0.0
  0
LINE
  5
19F
100
AcDbEntity
  8
LAY-1
  6
CONTINUOUS
 62
     2
100
AcDbLine
 10
1122.0
 20
841.147869
 30
0.0
 11
1142.0
 21
841.147869
 31
0.0
  0
ARC
  5
1A0
100
AcDbEntity
  8
LAY-1
  6
CONTINUOUS
 62
     2
100
AcDbCircle
 10
1157.675895
 20
607.567329
 30
0.0
 40
5.0
100
AcDbArc
 50
195.0
 51
269.0
  0
LINE
  5
1A1
100
AcDbEntity
  8
LAY-1
  6
CONTINUOUS
 62
     2
100
AcDbLine
 10
1192.0
 20
585.967437
 30
0.0
 11
1122.0
 21
585.967437
 31
0.0
  0
ARC
  5
1A2
100
AcDbEntity
  8
LAY-1
  6
CONTINUOUS
 62
     2
100
AcDbCircle
 10
1214.75
 20
728.467437
 30
0.0
 40
0.8
100
AcDbArc
 50
91.79781
 51
268.20219
  0
ARC
  5
1A3
100
AcDbEntity
  8
LAY-1
  6
CONTINUOUS
 62
     2
100
AcDbCircle
 10
1202.0
 20
728.467437
 30
0.0
 40
12.75
100
AcDbArc
 50
3.595619
 51
356.404381
  0
ARC
  5
1A4
100
AcDbEntity
  8
LAY-1
  6
CONTINUOUS
 62
     2
100
AcDbCircle
 10
1188.348727
 20
717.517882
 30
0.0
 40
3.0
100
AcDbArc
 50
38.732766
 51
170.628921
  0
ARC
  5
1A5
100
AcDbEntity
  8
LAY-1
  6
CONTINUOUS
 62
     2
100
AcDbCircle
 10
1188.348727
 20
739.416992
 30
0.0
 40
3.0
100
AcDbArc
 50
189.371079
 51
321.267234
  0
ARC
  5
1A6
100
AcDbEntity
  8
LAY-1
  6
CONTINUOUS
 62
     2
100
AcDbCircle
 10
1202.0
 20
728.467437
 30
0.0
 40
14.5
100
AcDbArc
 50
218.732766
 51
141.267234
  0
ARC
  5
1A7
100
AcDbEntity
  8
LAY-1
  6
CONTINUOUS
 62
     2
100
AcDbCircle
 10
1122.0
 20
728.467437
 30
0.0
 40
64.246163
100
AcDbArc
 50
191.836775
 51
350.628921
  0
ARC
  5
1A8
100
AcDbEntity
  8
LAY-1
  6
CONTINUOUS
 62
     2
100
AcDbCircle
 10
1122.0
 20
728.467437
 30
0.0
 40
64.246163
100
AcDbArc
 50
9.371079
 51
168.163225
  0
CIRCLE
  5
1A9
100
AcDbEntity
  8
LAY-1
  6
CONTINUOUS
 62
     2
100
AcDbCircle
 10
1121.5
 20
727.467437
 30
0.0
 40
57.900272
  0
CIRCLE
  5
1AA
100
AcDbEntity
  8
LAY-1
  6
CONTINUOUS
 62
     2
100
AcDbCircle
 10
1122.0
 20
728.467437
 30
0.0
 40
20.5
  0
LINE
  5
1AB
100
AcDbEntity
  8
LAY-1
  6
CONTINUOUS
 62
     2
100
AcDbLine
 10
1134.678548
 20
755.656671
 30
0.0
 11
1145.120765
 21
767.669067
 31
0.0
  0
LINE
  5
1AC
100
AcDbEntity
  8
LAY-1
  6
CONTINUOUS
 62
     2
100
AcDbLine
 10
1145.120765
 20
767.669067
 30
0.0
 11
1149.363506
 21
765.690645
 31
0.0
  0
LINE
  5
1AD
100
AcDbEntity
  8
LAY-1
  6
CONTINUOUS
 62
     2
100
AcDbLine
 10
1134.678548
 20
755.656671
 30
0.0
 11
1138.92129
 21
753.678248
 31
0.0
  0
LINE
  5
1AE
100
AcDbEntity
  8
LAY-1
  6
CONTINUOUS
 62
     2
100
AcDbLine
 10
1149.363506
 20
765.690645
 30
0.0
 11
1138.92129
 21
753.678248
 31
0.0
  0
LINE
  5
1AF
100
AcDbEntity
  8
LAY-1
  6
CONTINUOUS
 62
     2
100
AcDbLine
 10
1161.174152
 20
752.733932
 30
0.0
 11
1158.618824
 21
751.411638
 31
0.0
  0
LINE
  5
1B0
100
AcDbEntity
  8
LAY-1
  6
CONTINUOUS
 62
     2
100
AcDbLine
 10
1156.297169
 20
753.887228
 30
0.0
 11
1158.629654
 21
751.417242
 31
0.0
  0
LINE
  5
1B1
100
AcDbEntity
  8
LAY-1
  6
CONTINUOUS
 62
     2
100
AcDbLine
 10
1151.066288
 20
759.426471
 30
0.0
 11
1153.174213
 21
757.194283
 31
0.0
  0
LINE
  5
1B2
100
AcDbEntity
  8
LAY-1
  6
CONTINUOUS
 62
     2
100
AcDbLine
 10
1153.628245
 20
760.752195
 30
0.0
 11
1151.066288
 21
759.426471
 31
0.0
  0
LINE
  5
1B3
100
AcDbEntity
  8
LAY-1
  6
CONTINUOUS
 62
     2
100
AcDbLine
 10
1153.659754
 20
760.691305
 30
0.0
 11
1161.174152
 21
752.733932
 31
0.0
  0
LINE
  5
1B4
100
AcDbEntity
  8
LAY-1
  6
CONTINUOUS
 62
     2
100
AcDbLine
 10
1156.318626
 20
753.864507
 30
0.0
 11
1144.727027
 21
747.866256
 31
0.0
  0
LINE
  5
1B5
100
AcDbEntity
  8
LAY-1
  6
CONTINUOUS
 62
     2
100
AcDbLine
 10
1141.590186
 20
751.188014
 30
0.0
 11
1144.727027
 21
747.866256
 31
0.0
  0
LINE
  5
1B6
100
AcDbEntity
  8
LAY-1
  6
CONTINUOUS
 62
     2
100
AcDbLine
 10
1153.179085
 20
757.184868
 30
0.0
 11
1141.590186
 21
751.188014
 31
0.0
  0
ELLIPSE
  5
1B7
100
AcDbEntity
  8
LAY-1
  6
CONTINUOUS
 62
     2
100
AcDbEllipse
 10
1156.774721
 20
742.716781
 30
0.0
 11
7.9446102896612416
 21
0.466431090174918
 31
0.0
210
0.0
220
0.0
230
1.0
 40
0.66547
 41
0.0
 42
6.2831853071796004
  0
ELLIPSE
  5
1B8
100
AcDbEntity
  8
LAY-1
  6
CONTINUOUS
 62
     2
100
AcDbEllipse
 10
1156.708974
 20
742.793348
 30
0.0
 11
-4.7779196695278268
 21
-1.0687841837768552
 31
0.0
210
0.0
220
0.0
230
1.0
 40
0.1875
 41
0.0
 42
6.2831853071796004
  0
LINE
  5
1B9
100
AcDbEntity
  8
LAY-1
  6
CONTINUOUS
 62
     2
100
AcDbLine
 10
1167.354649
 20
725.668252
 30
0.0
 11
1152.071607
 21
730.114172
 31
0.0
  0
LINE
  5
1BA
100
AcDbEntity
  8
LAY-1
  6
CONTINUOUS
 62
     2
100
AcDbLine
 10
1167.371098
 20
729.95222
 30
0.0
 11
1152.088056
 21
734.39814
 31
0.0
  0
LINE
  5
1BB
100
AcDbEntity
  8
LAY-1
  6
CONTINUOUS
 62
     2
100
AcDbLine
 10
1167.347599
 20
723.832265
 30
0.0
 11
1160.596787
 21
727.63415
 31
0.0
  0
LINE
  5
1BC
100
AcDbEntity
  8
LAY-1
  6
CONTINUOUS
 62
     2
100
AcDbLine
 10
1152.062207
 20
727.66619
 30
0.0
 11
1160.596787
 21
727.63415
 31
0.0
  0
LINE
  5
1BD
100
AcDbEntity
  8
LAY-1
  6
CONTINUOUS
 62
     2
100
AcDbLine
 10
1167.33115
 20
719.548297
 30
0.0
 11
1159.518703
 21
723.948068
 31
0.0
  0
LINE
  5
1BE
100
AcDbEntity
  8
LAY-1
  6
CONTINUOUS
 62
     2
100
AcDbLine
 10
1167.371098
 20
729.95222
 30
0.0
 11
1167.354649
 21
725.668252
 31
0.0
  0
LINE
  5
1BF
100
AcDbEntity
  8
LAY-1
  6
CONTINUOUS
 62
     2
100
AcDbLine
 10
1159.518703
 20
723.948068
 30
0.0
 11
1152.048038
 21
723.976113
 31
0.0
  0
LINE
  5
1C0
100
AcDbEntity
  8
LAY-1
  6
CONTINUOUS
 62
     2
100
AcDbLine
 10
1167.347599
 20
723.832265
 30
0.0
 11
1167.33115
 21
719.548297
 31
0.0
  0
LINE
  5
1C1
100
AcDbEntity
  8
LAY-1
  6
CONTINUOUS
 62
     2
100
AcDbLine
 10
1152.088056
 20
734.39814
 30
0.0
 11
1152.071607
 21
730.114172
 31
0.0
  0
LINE
  5
1C2
100
AcDbEntity
  8
LAY-1
  6
CONTINUOUS
 62
     2
100
AcDbLine
 10
1152.062207
 20
727.66619
 30
0.0
 11
1152.048038
 21
723.976113
 31
0.0
  0
ELLIPSE
  5
1C3
100
AcDbEntity
  8
LAY-1
  6
CONTINUOUS
 62
     2
100
AcDbEllipse
 10
1157.458316
 20
715.892004
 30
0.0
 11
-3.9749161294069939
 21
2.8584712284957803
 31
0.0
210
0.0
220
0.0
230
1.0
 40
0.1875
 41
0.0
 42
6.2831853071796004
  0
ELLIPSE
  5
1C4
100
AcDbEntity
  8
LAY-1
  6
CONTINUOUS
 62
     2
100
AcDbEllipse
 10
1157.444833
 20
715.791987
 30
0.0
 11
5.6303070175143697
 21
-5.6244140588005145
 31
0.0
210
0.0
220
0.0
230
1.0
 40
0.66547
 41
0.0
 42
6.2831853071796004
  0
LINE
  5
1C5
100
AcDbEntity
  8
LAY-1
  6
CONTINUOUS
 62
     2
100
AcDbLine
 10
1144.871312
 20
709.700632
 30
0.0
 11
1142.379739
 21
706.978698
 31
0.0
  0
LINE
  5
1C6
100
AcDbEntity
  8
LAY-1
  6
CONTINUOUS
 62
     2
100
AcDbLine
 10
1147.890804
 20
701.934911
 30
0.0
 11
1142.379739
 21
706.978698
 31
0.0
  0
LINE
  5
1C7
100
AcDbEntity
  8
LAY-1
  6
CONTINUOUS
 62
     2
100
AcDbLine
 10
1149.416786
 20
714.666364
 30
0.0
 11
1146.524212
 21
711.506353
 31
0.0
  0
LINE
  5
1C8
100
AcDbEntity
  8
LAY-1
  6
CONTINUOUS
 62
     2
100
AcDbLine
 10
1154.847708
 20
697.939593
 30
0.0
 11
1146.524212
 21
711.506353
 31
0.0
  0
LINE
  5
1C9
100
AcDbEntity
  8
LAY-1
  6
CONTINUOUS
 62
     2
100
AcDbLine
 10
1144.871312
 20
709.700632
 30
0.0
 11
1151.167221
 21
703.938548
 31
0.0
  0
LINE
  5
1CA
100
AcDbEntity
  8
LAY-1
  6
CONTINUOUS
 62
     2
100
AcDbLine
 10
1157.740282
 20
701.099604
 30
0.0
 11
1149.416786
 21
714.666364
 31
0.0
  0
LINE
  5
1CB
100
AcDbEntity
  8
LAY-1
  6
CONTINUOUS
 62
     2
100
AcDbLine
 10
1141.93435
 20
705.163638
 30
0.0
 11
1145.243593
 21
689.594873
 31
0.0
  0
LINE
  5
1CC
100
AcDbEntity
  8
LAY-1
  6
CONTINUOUS
 62
     2
100
AcDbLine
 10
1141.93435
 20
705.163638
 30
0.0
 11
1137.800966
 21
702.965879
 31
0.0
  0
ARC
  5
1CD
100
AcDbEntity
  8
LAY-1
  6
CONTINUOUS
 62
     2
100
AcDbCircle
 10
1122.0
 20
728.467437
 30
0.0
 40
83.453064
100
AcDbArc
 50
188.844814
 51
349.660662
  0
CIRCLE
  5
1CE
100
AcDbEntity
  8
LAY-1
  6
CONTINUOUS
 62
     2
100
AcDbCircle
 10
1121.5
 20
728.467437
 30
0.0
 40
112.0
  0
ARC
  5
1CF
100
AcDbEntity
  8
LAY-1
  6
CONTINUOUS
 62
     2
100
AcDbCircle
 10
1122.0
 20
728.467437
 30
0.0
 40
83.453064
100
AcDbArc
 50
10.833445
 51
171.150742
  0
LINE
  5
1D0
100
AcDbEntity
  8
LAY-1
  6
CONTINUOUS
 62
     2
100
AcDbLine
 10
1089.5
 20
749.967437
 30
0.0
 11
1081.5
 21
749.967437
 31
0.0
  0
ARC
  5
1D1
100
AcDbEntity
  8
LAY-1
  6
CONTINUOUS
 62
     2
100
AcDbCircle
 10
1090.0
 20
708.967437
 30
0.0
 40
2.0
100
AcDbArc
 50
270.0
 51
0.0
  0
LINE
  5
1D2
100
AcDbEntity
  8
LAY-1
  6
CONTINUOUS
 62
     2
100
AcDbLine
 10
1081.0
 20
706.967437
 30
0.0
 11
1090.0
 21
706.967437
 31
0.0
  0
ARC
  5
1D3
100
AcDbEntity
  8
LAY-1
  6
CONTINUOUS
 62
     2
100
AcDbCircle
 10
1081.0
 20
708.967437
 30
0.0
 40
2.0
100
AcDbArc
 50
180.0
 51
270.0
  0
LINE
  5
1D4
100
AcDbEntity
  8
LAY-1
  6
CONTINUOUS
 62
     2
100
AcDbLine
 10
1081.0
 20
749.967437
 30
0.0
 11
1090.0
 21
749.967437
 31
0.0
  0
LINE
  5
1D5
100
AcDbEntity
  8
LAY-1
  6
CONTINUOUS
 62
     2
100
AcDbLine
 10
1092.0
 20
708.967437
 30
0.0
 11
1092.0
 21
747.967437
 31
0.0
  0
ARC
  5
1D6
100
AcDbEntity
  8
LAY-1
  6
CONTINUOUS
 62
     2
100
AcDbCircle
 10
1090.0
 20
747.967437
 30
0.0
 40
2.0
100
AcDbArc
 50
0.0
 51
90.0
  0
CIRCLE
  5
1D7
100
AcDbEntity
  8
LAY-1
  6
CONTINUOUS
 62
     2
100
AcDbCircle
 10
1085.5
 20
711.717437
 30
0.0
 40
1.0
  0
ARC
  5
1D8
100
AcDbEntity
  8
LAY-1
  6
CONTINUOUS
 62
     2
100
AcDbCircle
 10
1081.226453
 20
747.752257
 30
0.0
 40
2.226725
100
AcDbArc
 50
95.836941
 51
180.89598
  0
CIRCLE
  5
1D9
100
AcDbEntity
  8
LAY-1
  6
CONTINUOUS
 62
     2
100
AcDbCircle
 10
1085.5
 20
745.217437
 30
0.0
 40
1.0
  0
LINE
  5
1DA
100
AcDbEntity
  8
LAY-1
  6
CONTINUOUS
 62
     2
100
AcDbLine
 10
1079.0
 20
747.717437
 30
0.0
 11
1079.0
 21
708.967437
 31
0.0
  0
ARC
  5
1DB
100
AcDbEntity
  8
LAY-1
  6
CONTINUOUS
 62
     2
100
AcDbCircle
 10
1060.059893
 20
739.467437
 30
0.0
 40
2.0
100
AcDbArc
 50
262.664274
 51
310.722759
  0
ARC
  5
1DC
100
AcDbEntity
  8
LAY-1
  6
CONTINUOUS
 62
     2
100
AcDbCircle
 10
1060.059893
 20
717.467437
 30
0.0
 40
2.0
100
AcDbArc
 50
49.277241
 51
97.335726
  0
ARC
  5
1DD
100
AcDbEntity
  8
LAY-1
  6
CONTINUOUS
 62
     2
100
AcDbCircle
 10
1037.171573
 20
737.467437
 30
0.0
 40
2.0
100
AcDbArc
 50
45.0
 51
90.0
  0
LINE
  5
1DE
100
AcDbEntity
  8
LAY-1
  6
CONTINUOUS
 62
     2
100
AcDbLine
 10
1038.585786
 20
738.881651
 30
0.0
 11
1039.414214
 21
738.053224
 31
0.0
  0
ARC
  5
1DF
100
AcDbEntity
  8
LAY-1
  6
CONTINUOUS
 62
     2
100
AcDbCircle
 10
1040.828427
 20
739.467437
 30
0.0
 40
2.0
100
AcDbArc
 50
225.0
 51
270.0
  0
LINE
  5
1E0
100
AcDbEntity
  8
LAY-1
  6
CONTINUOUS
 62
     2
100
AcDbLine
 10
1022.0
 20
739.467437
 30
0.0
 11
1037.171573
 21
739.467437
 31
0.0
  0
ARC
  5
1E1
100
AcDbEntity
  8
LAY-1
  6
CONTINUOUS
 62
     2
100
AcDbCircle
 10
1022.0
 20
737.467437
 30
0.0
 40
2.0
100
AcDbArc
 50
90.0
 51
180.0
  0
LINE
  5
1E2
100
AcDbEntity
  8
LAY-1
  6
CONTINUOUS
 62
     2
100
AcDbLine
 10
1020.0
 20
728.467437
 30
0.0
 11
1020.0
 21
737.467437
 31
0.0
  0
ARC
  5
1E3
100
AcDbEntity
  8
LAY-1
  6
CONTINUOUS
 62
     2
100
AcDbCircle
 10
1037.171573
 20
719.467437
 30
0.0
 40
2.0
100
AcDbArc
 50
270.0
 51
315.0
  0
LINE
  5
1E4
100
AcDbEntity
  8
LAY-1
  6
CONTINUOUS
 62
     2
100
AcDbLine
 10
1038.585786
 20
718.053224
 30
0.0
 11
1039.414214
 21
718.881651
 31
0.0
  0
ARC
  5
1E5
100
AcDbEntity
  8
LAY-1
  6
CONTINUOUS
 62
     2
100
AcDbCircle
 10
1040.828427
 20
717.467437
 30
0.0
 40
2.0
100
AcDbArc
 50
90.0
 51
135.0
  0
LINE
  5
1E6
100
AcDbEntity
  8
LAY-1
  6
CONTINUOUS
 62
     2
100
AcDbLine
 10
1022.0
 20
717.467437
 30
0.0
 11
1037.171573
 21
717.467437
 31
0.0
  0
ARC
  5
1E7
100
AcDbEntity
  8
LAY-1
  6
CONTINUOUS
 62
     2
100
AcDbCircle
 10
1022.0
 20
719.467437
 30
0.0
 40
2.0
100
AcDbArc
 50
180.0
 51
270.0
  0
LINE
  5
1E8
100
AcDbEntity
  8
LAY-1
  6
CONTINUOUS
 62
     2
100
AcDbLine
 10
1020.0
 20
728.467437
 30
0.0
 11
1020.0
 21
719.467437
 31
0.0
  0
LINE
  5
1E9
100
AcDbEntity
  8
LAY-1
  6
CONTINUOUS
 62
     2
100
AcDbLine
 10
1037.8
 20
737.667437
 30
0.0
 11
1037.8
 21
718.867437
 31
0.0
  0
LINE
  5
1EA
100
AcDbEntity
  8
LAY-1
  6
CONTINUOUS
 62
     2
100
AcDbLine
 10
1040.1
 20
736.167437
 30
0.0
 11
1040.1
 21
720.867437
 31
0.0
  0
LINE
  5
1EB
100
AcDbEntity
  8
LAY-1
  6
CONTINUOUS
 62
     2
100
AcDbLine
 10
1060.059893
 20
719.467437
 30
0.0
 11
1040.828427
 21
719.467437
 31
0.0
  0
LINE
  5
1EC
100
AcDbEntity
  8
LAY-1
  6
CONTINUOUS
 62
     2
100
AcDbLine
 10
1060.059893
 20
737.467437
 30
0.0
 11
1040.828427
 21
737.467437
 31
0.0
  0
CIRCLE
  5
1ED
100
AcDbEntity
  8
LAY-1
  6
CONTINUOUS
 62
     2
100
AcDbCircle
 10
1122.0
 20
728.467437
 30
0.0
 40
13.0
  0
LINE
  5
1EE
100
AcDbEntity
  8
LAY-1
  6
CONTINUOUS
 62
     2
100
AcDbLine
 10
1114.494447
 20
715.467437
 30
0.0
 11
1129.505553
 21
715.467437
 31
0.0
  0
LINE
  5
1EF
100
AcDbEntity
  8
LAY-1
  6
CONTINUOUS
 62
     2
100
AcDbLine
 10
1129.505553
 20
715.467437
 30
0.0
 11
1137.011107
 21
728.467437
 31
0.0
  0
LINE
  5
1F0
100
AcDbEntity
  8
LAY-1
  6
CONTINUOUS
 62
     2
100
AcDbLine
 10
1137.011107
 20
728.467437
 30
0.0
 11
1129.505553
 21
741.467437
 31
0.0
  0
LINE
  5
1F1
100
AcDbEntity
  8
LAY-1
  6
CONTINUOUS
 62
     2
100
AcDbLine
 10
1129.505553
 20
741.467437
 30
0.0
 11
1114.494447
 21
741.467437
 31
0.0
  0
LINE
  5
1F2
100
AcDbEntity
  8
LAY-1
  6
CONTINUOUS
 62
     2
100
AcDbLine
 10
1114.494447
 20
741.467437
 30
0.0
 11
1106.988893
 21
728.467437
 31
0.0
  0
LINE
  5
1F3
100
AcDbEntity
  8
LAY-1
  6
CONTINUOUS
 62
     2
100
AcDbLine
 10
1106.988893
 20
728.467437
 30
0.0
 11
1114.494447
 21
715.467437
 31
0.0
  0
ARC
  5
1F4
100
AcDbEntity
  8
LAY-1
  6
CONTINUOUS
 62
     2
100
AcDbCircle
 10
501.0
 20
701.467437
 30
0.0
 40
2.0
100
AcDbArc
 50
90.0
 51
180.0
  0
LINE
  5
1F5
100
AcDbEntity
  8
LAY-1
  6
CONTINUOUS
 62
     2
100
AcDbLine
 10
527.0
 20
703.467437
 30
0.0
 11
501.0
 21
703.467437
 31
0.0
  0
ARC
  5
1F6
100
AcDbEntity
  8
LAY-1
  6
CONTINUOUS
 62
     2
100
AcDbCircle
 10
527.0
 20
701.467437
 30
0.0
 40
2.0
100
AcDbArc
 50
0.0
 51
90.0
  0
ARC
  5
1F7
100
AcDbEntity
  8
LAY-1
  6
CONTINUOUS
 62
     2
100
AcDbCircle
 10
501.0
 20
755.467437
 30
0.0
 40
2.0
100
AcDbArc
 50
180.0
 51
270.0
  0
LINE
  5
1F8
100
AcDbEntity
  8
LAY-1
  6
CONTINUOUS
 62
     2
100
AcDbLine
 10
527.0
 20
753.467437
 30
0.0
 11
501.0
 21
753.467437
 31
0.0
  0
ARC
  5
1F9
100
AcDbEntity
  8
LAY-1
  6
CONTINUOUS
 62
     2
100
AcDbCircle
 10
527.0
 20
755.467437
 30
0.0
 40
2.0
100
AcDbArc
 50
270.0
 51
0.0
  0
LINE
  5
1FA
100
AcDbEntity
  8
LAY-1
  6
CONTINUOUS
 62
     2
100
AcDbLine
 10
508.0
 20
743.467437
 30
0.0
 11
511.0
 21
748.467437
 31
0.0
  0
LINE
  5
1FB
100
AcDbEntity
  8
LAY-1
  6
CONTINUOUS
 62
     2
100
AcDbLine
 10
508.0
 20
738.467437
 30
0.0
 11
508.0
 21
718.467437
 31
0.0
  0
LINE
  5
1FC
100
AcDbEntity
  8
LAY-1
  6
CONTINUOUS
 62
     2
100
AcDbLine
 10
511.0
 20
738.467437
 30
0.0
 11
508.0
 21
738.467437
 31
0.0
  0
LINE
  5
1FD
100
AcDbEntity
  8
LAY-1
  6
CONTINUOUS
 62
     2
100
AcDbLine
 10
508.0
 20
743.467437
 30
0.0
 11
505.0
 21
748.467437
 31
0.0
  0
LINE
  5
1FE
100
AcDbEntity
  8
LAY-1
  6
CONTINUOUS
 62
     2
100
AcDbLine
 10
511.0
 20
748.467437
 30
0.0
 11
511.0
 21
738.467437
 31
0.0
  0
LINE
  5
1FF
100
AcDbEntity
  8
LAY-1
  6
CONTINUOUS
 62
     2
100
AcDbLine
 10
505.0
 20
708.467437
 30
0.0
 11
505.0
 21
748.467437
 31
0.0
  0
LINE
  5
200
100
AcDbEntity
  8
LAY-1
  6
CONTINUOUS
 62
     2
100
AcDbLine
 10
511.0
 20
718.467437
 30
0.0
 11
505.0
 21
708.467437
 31
0.0
  0
LINE
  5
201
100
AcDbEntity
  8
LAY-1
  6
CONTINUOUS
 62
     2
100
AcDbLine
 10
511.0
 20
718.467437
 30
0.0
 11
508.0
 21
718.467437
 31
0.0
  0
LINE
  5
202
100
AcDbEntity
  8
LAY-1
  6
CONTINUOUS
 62
     2
100
AcDbLine
 10
499.0
 20
728.467437
 30
0.0
 11
499.0
 21
778.467437
 31
0.0
  0
LINE
  5
203
100
AcDbEntity
  8
LAY-1
  6
CONTINUOUS
 62
     2
100
AcDbLine
 10
529.0
 20
778.467437
 30
0.0
 11
529.0
 21
728.467437
 31
0.0
  0
ARC
  5
204
100
AcDbEntity
  8
LAY-1
  6
CONTINUOUS
 62
     2
100
AcDbCircle
 10
514.0
 20
778.467437
 30
0.0
 40
15.0
100
AcDbArc
 50
0.0
 51
180.0
  0
ARC
  5
205
100
AcDbEntity
  8
LAY-1
  6
CONTINUOUS
 62
     2
100
AcDbCircle
 10
514.0
 20
678.467437
 30
0.0
 40
15.0
100
AcDbArc
 50
180.0
 51
0.0
  0
LINE
  5
206
100
AcDbEntity
  8
LAY-1
  6
CONTINUOUS
 62
     2
100
AcDbLine
 10
529.0
 20
678.467437
 30
0.0
 11
529.0
 21
728.467437
 31
0.0
  0
LINE
  5
207
100
AcDbEntity
  8
LAY-1
  6
CONTINUOUS
 62
     2
100
AcDbLine
 10
499.0
 20
728.467437
 30
0.0
 11
499.0
 21
678.467437
 31
0.0
  0
LINE
  5
208
100
AcDbEntity
  8
LAY-1
  6
CONTINUOUS
 62
     2
100
AcDbLine
 10
449.0
 20
746.467437
 30
0.0
 11
449.0
 21
710.467437
 31
0.0
  0
LINE
  5
209
100
AcDbEntity
  8
LAY-1
  6
CONTINUOUS
 62
     2
100
AcDbLine
 10
459.0
 20
754.967437
 30
0.0
 11
459.0
 21
701.967437
 31
0.0
  0
LINE
  5
20A
100
AcDbEntity
  8
LAY-1
  6
CONTINUOUS
 62
     2
100
AcDbLine
 10
459.0
 20
701.967437
 30
0.0
 11
465.0
 21
701.967437
 31
0.0
  0
LINE
  5
20B
100
AcDbEntity
  8
LAY-1
  6
CONTINUOUS
 62
     2
100
AcDbLine
 10
459.0
 20
754.967437
 30
0.0
 11
465.0
 21
754.967437
 31
0.0
  0
LINE
  5
20C
100
AcDbEntity
  8
LAY-1
  6
CONTINUOUS
 62
     2
100
AcDbLine
 10
450.6
 20
749.267437
 30
0.0
 11
449.0
 21
746.467437
 31
0.0
  0
LINE
  5
20D
100
AcDbEntity
  8
LAY-1
  6
CONTINUOUS
 62
     2
100
AcDbLine
 10
450.6
 20
749.267437
 30
0.0
 11
459.0
 21
749.267437
 31
0.0
  0
LINE
  5
20E
100
AcDbEntity
  8
LAY-1
  6
CONTINUOUS
 62
     2
100
AcDbLine
 10
450.6
 20
707.667437
 30
0.0
 11
459.0
 21
707.667437
 31
0.0
  0
LINE
  5
20F
100
AcDbEntity
  8
LAY-1
  6
CONTINUOUS
 62
     2
100
AcDbLine
 10
450.6
 20
707.667437
 30
0.0
 11
449.0
 21
710.467437
 31
0.0
  0
LINE
  5
210
100
AcDbEntity
  8
LAY-1
  6
CONTINUOUS
 62
     2
100
AcDbLine
 10
582.0
 20
603.189292
 30
0.0
 11
446.0
 21
603.189292
 31
0.0
  0
LINE
  5
211
100
AcDbEntity
  8
LAY-1
  6
CONTINUOUS
 62
     2
100
AcDbLine
 10
444.0
 20
601.189292
 30
0.0
 11
444.0
 21
585.967437
 31
0.0
  0
ARC
  5
212
100
AcDbEntity
  8
LAY-1
  6
CONTINUOUS
 62
     2
100
AcDbCircle
 10
446.0
 20
601.189292
 30
0.0
 40
2.0
100
AcDbArc
 50
90.0
 51
180.0
  0
ARC
  5
213
100
AcDbEntity
  8
LAY-1
  6
CONTINUOUS
 62
     2
100
AcDbCircle
 10
467.207142
 20
624.033805
 30
0.0
 40
20.0
100
AcDbArc
 50
345.0
 51
16.081969
  0
ARC
  5
214
100
AcDbEntity
  8
LAY-1
  6
CONTINUOUS
 62
     2
100
AcDbCircle
 10
478.49076
 20
608.189292
 30
0.0
 40
5.0
100
AcDbArc
 50
270.0
 51
345.0
  0
LINE
  5
215
100
AcDbEntity
  8
LAY-1
  6
CONTINUOUS
 62
     2
100
AcDbLine
 10
486.525658
 20
618.857424
 30
0.0
 11
483.320389
 21
606.895197
 31
0.0
  0
LINE
  5
216
100
AcDbEntity
  8
LAY-1
  6
CONTINUOUS
 62
     2
100
AcDbLine
 10
465.0
 20
758.467437
 30
0.0
 11
465.0
 21
698.467437
 31
0.0
  0
LINE
  5
217
100
AcDbEntity
  8
LAY-1
  6
CONTINUOUS
 62
     2
100
AcDbLine
 10
469.149727
 20
758.467437
 30
0.0
 11
465.0
 21
758.467437
 31
0.0
  0
LINE
  5
218
100
AcDbEntity
  8
LAY-1
  6
CONTINUOUS
 62
     2
100
AcDbLine
 10
469.149727
 20
698.467437
 30
0.0
 11
465.0
 21
698.467437
 31
0.0
  0
ARC
  5
219
100
AcDbEntity
  8
LAY-1
  6
CONTINUOUS
 62
     2
100
AcDbCircle
 10
469.149727
 20
763.467437
 30
0.0
 40
5.0
100
AcDbArc
 50
270.0
 51
354.451686
  0
ARC
  5
21A
100
AcDbEntity
  8
LAY-1
  6
CONTINUOUS
 62
     2
100
AcDbCircle
 10
469.149727
 20
693.467437
 30
0.0
 40
5.0
100
AcDbArc
 50
5.548314
 51
90.0
  0
ARC
  5
21B
100
AcDbEntity
  8
LAY-1
  6
CONTINUOUS
 62
     2
100
AcDbCircle
 10
829.453766
 20
728.467437
 30
0.0
 40
357.0
100
AcDbArc
 50
185.548314
 51
196.081969
  0
LINE
  5
21C
100
AcDbEntity
  8
LAY-1
  6
CONTINUOUS
 62
     2
100
AcDbLine
 10
584.0
 20
585.967437
 30
0.0
 11
444.0
 21
585.967437
 31
0.0
  0
ARC
  5
21D
100
AcDbEntity
  8
LAY-1
  6
CONTINUOUS
 62
     2
100
AcDbCircle
 10
1414.546234
 20
728.467437
 30
0.0
 40
357.0
100
AcDbArc
 50
343.918031
 51
354.451686
  0
ARC
  5
21E
100
AcDbEntity
  8
LAY-1
  6
CONTINUOUS
 62
     2
100
AcDbCircle
 10
1774.850273
 20
693.467437
 30
0.0
 40
5.0
100
AcDbArc
 50
90.0
 51
174.451686
  0
ARC
  5
21F
100
AcDbEntity
  8
LAY-1
  6
CONTINUOUS
 62
     2
100
AcDbCircle
 10
1774.850273
 20
763.467437
 30
0.0
 40
5.0
100
AcDbArc
 50
185.548314
 51
270.0
  0
LINE
  5
220
100
AcDbEntity
  8
LAY-1
  6
CONTINUOUS
 62
     2
100
AcDbLine
 10
1774.850273
 20
758.467437
 30
0.0
 11
1779.0
 21
758.467437
 31
0.0
  0
LINE
  5
221
100
AcDbEntity
  8
LAY-1
  6
CONTINUOUS
 62
     2
100
AcDbLine
 10
1795.0
 20
728.467437
 30
0.0
 11
1795.0
 21
710.467437
 31
0.0
  0
LINE
  5
222
100
AcDbEntity
  8
LAY-1
  6
CONTINUOUS
 62
     2
100
AcDbLine
 10
1793.4
 20
707.667437
 30
0.0
 11
1795.0
 21
710.467437
 31
0.0
  0
LINE
  5
223
100
AcDbEntity
  8
LAY-1
  6
CONTINUOUS
 62
     2
100
AcDbLine
 10
1793.4
 20
707.667437
 30
0.0
 11
1785.0
 21
707.667437
 31
0.0
  0
LINE
  5
224
100
AcDbEntity
  8
LAY-1
  6
CONTINUOUS
 62
     2
100
AcDbLine
 10
1785.0
 20
701.967437
 30
0.0
 11
1779.0
 21
701.967437
 31
0.0
  0
LINE
  5
225
100
AcDbEntity
  8
LAY-1
  6
CONTINUOUS
 62
     2
100
AcDbLine
 10
1785.0
 20
737.217437
 30
0.0
 11
1785.0
 21
741.467437
 31
0.0
  0
LINE
  5
226
100
AcDbEntity
  8
LAY-1
  6
CONTINUOUS
 62
     2
100
AcDbLine
 10
1795.0
 20
728.467437
 30
0.0
 11
1795.0
 21
746.467437
 31
0.0
  0
LINE
  5
227
100
AcDbEntity
  8
LAY-1
  6
CONTINUOUS
 62
     2
100
AcDbLine
 10
1793.4
 20
749.267437
 30
0.0
 11
1795.0
 21
746.467437
 31
0.0
  0
LINE
  5
228
100
AcDbEntity
  8
LAY-1
  6
CONTINUOUS
 62
     2
100
AcDbLine
 10
1793.4
 20
749.267437
 30
0.0
 11
1785.0
 21
749.267437
 31
0.0
  0
LINE
  5
229
100
AcDbEntity
  8
LAY-1
  6
CONTINUOUS
 62
     2
100
AcDbLine
 10
1785.0
 20
754.967437
 30
0.0
 11
1779.0
 21
754.967437
 31
0.0
  0
LINE
  5
22A
100
AcDbEntity
  8
LAY-1
  6
CONTINUOUS
 62
     2
100
AcDbLine
 10
1785.0
 20
701.967437
 30
0.0
 11
1785.0
 21
754.967437
 31
0.0
  0
LINE
  5
22B
100
AcDbEntity
  8
LAY-1
  6
CONTINUOUS
 62
     2
100
AcDbLine
 10
1779.0
 20
758.467437
 30
0.0
 11
1779.0
 21
698.467437
 31
0.0
  0
LINE
  5
22C
100
AcDbEntity
  8
LAY-1
  6
CONTINUOUS
 62
     2
100
AcDbLine
 10
1774.850273
 20
698.467437
 30
0.0
 11
1779.0
 21
698.467437
 31
0.0
  0
LINE
  5
22D
100
AcDbEntity
  8
LAY-1
  6
CONTINUOUS
 62
     2
100
AcDbLine
 10
1779.0
 20
758.467437
 30
0.0
 11
1774.850273
 21
758.467437
 31
0.0
  0
LINE
  5
22E
100
AcDbEntity
  8
LAY-1
  6
CONTINUOUS
 62
     2
100
AcDbLine
 10
1779.0
 20
698.467437
 30
0.0
 11
1774.850273
 21
698.467437
 31
0.0
  0
LINE
  5
22F
100
AcDbEntity
  8
LAY-1
  6
CONTINUOUS
 62
     2
100
AcDbLine
 10
1745.0
 20
728.467437
 30
0.0
 11
1745.0
 21
678.467437
 31
0.0
  0
ARC
  5
230
100
AcDbEntity
  8
LAY-1
  6
CONTINUOUS
 62
     2
100
AcDbCircle
 10
1730.0
 20
678.467437
 30
0.0
 40
15.0
100
AcDbArc
 50
180.0
 51
0.0
  0
ARC
  5
231
100
AcDbEntity
  8
LAY-1
  6
CONTINUOUS
 62
     2
100
AcDbCircle
 10
1730.0
 20
778.467437
 30
0.0
 40
15.0
100
AcDbArc
 50
0.0
 51
180.0
  0
LINE
  5
232
100
AcDbEntity
  8
LAY-1
  6
CONTINUOUS
 62
     2
100
AcDbLine
 10
1745.0
 20
728.467437
 30
0.0
 11
1745.0
 21
778.467437
 31
0.0
  0
ARC
  5
233
100
AcDbEntity
  8
LAY-1
  6
CONTINUOUS
 62
     2
100
AcDbCircle
 10
1717.0
 20
755.467437
 30
0.0
 40
2.0
100
AcDbArc
 50
180.0
 51
270.0
  0
LINE
  5
234
100
AcDbEntity
  8
LAY-1
  6
CONTINUOUS
 62
     2
100
AcDbLine
 10
1717.0
 20
753.467437
 30
0.0
 11
1743.0
 21
753.467437
 31
0.0
  0
ARC
  5
235
100
AcDbEntity
  8
LAY-1
  6
CONTINUOUS
 62
     2
100
AcDbCircle
 10
1743.0
 20
755.467437
 30
0.0
 40
2.0
100
AcDbArc
 50
270.0
 51
0.0
  0
ARC
  5
236
100
AcDbEntity
  8
LAY-1
  6
CONTINUOUS
 62
     2
100
AcDbCircle
 10
1717.0
 20
701.467437
 30
0.0
 40
2.0
100
AcDbArc
 50
90.0
 51
180.0
  0
LINE
  5
237
100
AcDbEntity
  8
LAY-1
  6
CONTINUOUS
 62
     2
100
AcDbLine
 10
1717.0
 20
703.467437
 30
0.0
 11
1743.0
 21
703.467437
 31
0.0
  0
ARC
  5
238
100
AcDbEntity
  8
LAY-1
  6
CONTINUOUS
 62
     2
100
AcDbCircle
 10
1743.0
 20
701.467437
 30
0.0
 40
2.0
100
AcDbArc
 50
0.0
 51
90.0
  0
LINE
  5
239
100
AcDbEntity
  8
LAY-1
  6
CONTINUOUS
 62
     2
100
AcDbLine
 10
1149.966938
 20
1088.746642
 30
0.0
 11
1167.92084
 21
1090.633673
 31
0.0
  0
LINE
  5
23A
100
AcDbEntity
  8
LAY-1
  6
CONTINUOUS
 62
     2
100
AcDbLine
 10
1094.07617
 20
1088.742111
 30
0.0
 11
1076.080653
 21
1090.633516
 31
0.0
  0
LINE
  5
23B
100
AcDbEntity
  8
LAY-1
  6
CONTINUOUS
 62
     2
100
AcDbLine
 10
1094.031992
 20
1088.193178
 30
0.0
 11
1094.031992
 21
1088.202284
 31
0.0
  0
ARC
  5
23C
100
AcDbEntity
  8
LAY-1
  6
CONTINUOUS
 62
     2
100
AcDbCircle
 10
1096.026464
 20
1088.587861
 30
0.0
 40
2.0
100
AcDbArc
 50
175.73917
 51
260.0
  0
LINE
  5
23D
100
AcDbEntity
  8
LAY-1
  6
CONTINUOUS
 62
     2
100
AcDbLine
 10
1095.679168
 20
1086.618246
 30
0.0
 11
1096.824429
 21
1086.429974
 31
0.0
  0
ARC
  5
23E
100
AcDbEntity
  8
LAY-1
  6
CONTINUOUS
 62
     2
100
AcDbCircle
 10
1096.5
 20
1084.456463
 30
0.0
 40
2.0
100
AcDbArc
 50
0.0
 51
80.664557
  0
LINE
  5
23F
100
AcDbEntity
  8
LAY-1
  6
CONTINUOUS
 62
     2
100
AcDbLine
 10
1098.5
 20
1084.456463
 30
0.0
 11
1098.5
 21
1079.102874
 31
0.0
  0
ARC
  5
240
100
AcDbEntity
  8
LAY-1
  6
CONTINUOUS
 62
     2
100
AcDbCircle
 10
1103.5
 20
1079.102874
 30
0.0
 40
5.0
100
AcDbArc
 50
180.0
 51
240.0
  0
ARC
  5
241
100
AcDbEntity
  8
LAY-1
  6
CONTINUOUS
 62
     2
100
AcDbCircle
 10
1099.5
 20
1072.174671
 30
0.0
 40
3.0
100
AcDbArc
 50
0.0
 51
60.0
  0
LINE
  5
242
100
AcDbEntity
  8
LAY-1
  6
CONTINUOUS
 62
     2
100
AcDbLine
 10
1102.5
 20
1072.174671
 30
0.0
 11
1102.5
 21
1063.484072
 31
0.0
  0
ARC
  5
243
100
AcDbEntity
  8
LAY-1
  6
CONTINUOUS
 62
     2
100
AcDbCircle
 10
1107.5
 20
1063.484072
 30
0.0
 40
5.0
100
AcDbArc
 50
180.0
 51
210.0
  0
LINE
  5
244
100
AcDbEntity
  8
LAY-1
  6
CONTINUOUS
 62
     2
100
AcDbLine
 10
1103.169873
 20
1060.984072
 30
0.0
 11
1105.146926
 21
1057.559716
 31
0.0
  0
ARC
  5
245
100
AcDbEntity
  8
LAY-1
  6
CONTINUOUS
 62
     2
100
AcDbCircle
 10
1102.54885
 20
1056.059716
 30
0.0
 40
3.0
100
AcDbArc
 50
0.0
 51
30.0
  0
ARC
  5
246
100
AcDbEntity
  8
LAY-1
  6
CONTINUOUS
 62
     2
100
AcDbCircle
 10
1141.451151
 20
1056.059716
 30
0.0
 40
3.0
100
AcDbArc
 50
150.0
 51
180.0
  0
LINE
  5
247
100
AcDbEntity
  8
LAY-1
  6
CONTINUOUS
 62
     2
100
AcDbLine
 10
1140.830127
 20
1060.984072
 30
0.0
 11
1138.853075
 21
1057.559716
 31
0.0
  0
ARC
  5
248
100
AcDbEntity
  8
LAY-1
  6
CONTINUOUS
 62
     2
100
AcDbCircle
 10
1136.5
 20
1063.484072
 30
0.0
 40
5.0
100
AcDbArc
 50
330.0
 51
0.0
  0
LINE
  5
249
100
AcDbEntity
  8
LAY-1
  6
CONTINUOUS
 62
     2
100
AcDbLine
 10
1141.5
 20
1072.174671
 30
0.0
 11
1141.5
 21
1063.484072
 31
0.0
  0
ARC
  5
24A
100
AcDbEntity
  8
LAY-1
  6
CONTINUOUS
 62
     2
100
AcDbCircle
 10
1144.5
 20
1072.174671
 30
0.0
 40
3.0
100
AcDbArc
 50
120.0
 51
180.0
  0
ARC
  5
24B
100
AcDbEntity
  8
LAY-1
  6
CONTINUOUS
 62
     2
100
AcDbCircle
 10
1140.5
 20
1079.102874
 30
0.0
 40
5.0
100
AcDbArc
 50
300.0
 51
0.0
  0
LINE
  5
24C
100
AcDbEntity
  8
LAY-1
  6
CONTINUOUS
 62
     2
100
AcDbLine
 10
1145.5
 20
1084.456463
 30
0.0
 11
1145.5
 21
1079.102874
 31
0.0
  0
LINE
  5
24D
100
AcDbEntity
  8
LAY-1
  6
CONTINUOUS
 62
     2
100
AcDbLine
 10
1149.968009
 20
1088.193178
 30
0.0
 11
1149.968009
 21
1088.202284
 31
0.0
  0
LINE
  5
24E
100
AcDbEntity
  8
LAY-1
  6
CONTINUOUS
 62
     2
100
AcDbLine
 10
1148.320833
 20
1086.618246
 30
0.0
 11
1147.175572
 21
1086.429974
 31
0.0
  0
ARC
  5
24F
100
AcDbEntity
  8
LAY-1
  6
CONTINUOUS
 62
     2
100
AcDbCircle
 10
1147.5
 20
1084.456463
 30
0.0
 40
2.0
100
AcDbArc
 50
99.335443
 51
180.0
  0
ARC
  5
250
100
AcDbEntity
  8
LAY-1
  6
CONTINUOUS
 62
     2
100
AcDbCircle
 10
1147.973536
 20
1088.587861
 30
0.0
 40
2.0
100
AcDbArc
 50
280.0
 51
4.26083
  0
LINE
  5
251
100
AcDbEntity
  8
LAY-1
  6
CONTINUOUS
 62
     2
100
AcDbLine
 10
1138.451151
 20
1056.059716
 30
0.0
 11
1138.451151
 21
981.848649
 31
0.0
  0
ARC
  5
252
100
AcDbEntity
  8
LAY-1
  6
CONTINUOUS
 62
     2
100
AcDbCircle
 10
1133.451151
 20
981.848649
 30
0.0
 40
5.0
100
AcDbArc
 50
309.507189
 51
0.0
  0
ARC
  5
253
100
AcDbEntity
  8
LAY-1
  6
CONTINUOUS
 62
     2
100
AcDbCircle
 10
1122.0
 20
995.736455
 30
0.0
 40
23.0
100
AcDbArc
 50
270.0
 51
309.507189
  0
ARC
  5
254
100
AcDbEntity
  8
LAY-1
  6
CONTINUOUS
 62
     2
100
AcDbCircle
 10
1122.0
 20
995.736455
 30
0.0
 40
23.0
100
AcDbArc
 50
230.492811
 51
270.0
  0
ARC
  5
255
100
AcDbEntity
  8
LAY-1
  6
CONTINUOUS
 62
     2
100
AcDbCircle
 10
1110.54885
 20
981.848649
 30
0.0
 40
5.0
100
AcDbArc
 50
180.0
 51
230.492811
  0
LINE
  5
256
100
AcDbEntity
  8
LAY-1
  6
CONTINUOUS
 62
     2
100
AcDbLine
 10
1105.54885
 20
1056.059716
 30
0.0
 11
1105.54885
 21
981.848649
 31
0.0
  0
LINE
  5
257
100
AcDbEntity
  8
LAY-1
  6
CONTINUOUS
 62
     2
100
AcDbLine
 10
1078.552264
 20
1090.373739
 30
0.0
 11
1076.080653
 21
1090.633516
 31
0.0
  0
LINE
  5
258
100
AcDbEntity
  8
LAY-1
  6
CONTINUOUS
 62
     2
100
AcDbLine
 10
1078.552264
 20
1090.373739
 30
0.0
 11
1076.07916
 21
1090.633673
 31
0.0
  0
LINE
  5
259
100
AcDbEntity
  8
LAY-1
  6
CONTINUOUS
 62
     2
100
AcDbLine
 10
1022.0
 20
1198.961835
 30
0.0
 11
1037.171573
 21
1198.961835
 31
0.0
  0
ARC
  5
25A
100
AcDbEntity
  8
LAY-1
  6
CONTINUOUS
 62
     2
100
AcDbCircle
 10
1055.64624
 20
1197.961835
 30
0.0
 40
3.0
100
AcDbArc
 50
2.4696
 51
90.0
  0
ARC
  5
25B
100
AcDbEntity
  8
LAY-1
  6
CONTINUOUS
 62
     2
100
AcDbCircle
 10
1077.64858
 20
1105.551344
 30
0.0
 40
15.0
100
AcDbArc
 50
182.4696
 51
264.0
  0
ARC
  5
25C
100
AcDbEntity
  8
LAY-1
  6
CONTINUOUS
 62
     2
100
AcDbCircle
 10
1166.35142
 20
1105.551344
 30
0.0
 40
15.0
100
AcDbArc
 50
276.0
 51
357.5304
  0
ARC
  5
25D
100
AcDbEntity
  8
LAY-1
  6
CONTINUOUS
 62
     2
100
AcDbCircle
 10
1022.0
 20
1200.961835
 30
0.0
 40
2.0
100
AcDbArc
 50
180.0
 51
270.0
  0
ARC
  5
25E
100
AcDbEntity
  8
LAY-1
  6
CONTINUOUS
 62
     2
100
AcDbCircle
 10
1037.171573
 20
1200.961835
 30
0.0
 40
2.0
100
AcDbArc
 50
270.0
 51
315.0
  0
ARC
  5
25F
100
AcDbEntity
  8
LAY-1
  6
CONTINUOUS
 62
     2
100
AcDbCircle
 10
1162.0
 20
1280.563168
 30
0.0
 40
10.0
100
AcDbArc
 50
182.507894
 51
268.0
  0
CIRCLE
  5
260
100
AcDbEntity
  8
LAY-1
  6
CONTINUOUS
 62
     2
100
AcDbCircle
 10
1122.0
 20
1334.949636
 30
0.0
 40
62.5
  0
CIRCLE
  5
261
100
AcDbEntity
  8
LAY-1
  6
CONTINUOUS
 62
     2
100
AcDbCircle
 10
1090.180195
 20
1303.129831
 30
0.0
 40
9.5
  0
CIRCLE
  5
262
100
AcDbEntity
  8
LAY-1
  6
CONTINUOUS
 62
     2
100
AcDbCircle
 10
1153.819805
 20
1303.129831
 30
0.0
 40
9.5
  0
CIRCLE
  5
263
100
AcDbEntity
  8
LAY-1
  6
CONTINUOUS
 62
     2
100
AcDbCircle
 10
1090.180195
 20
1366.769441
 30
0.0
 40
9.5
  0
CIRCLE
  5
264
100
AcDbEntity
  8
LAY-1
  6
CONTINUOUS
 62
     2
100
AcDbCircle
 10
1153.819805
 20
1366.769441
 30
0.0
 40
9.5
  0
ARC
  5
265
100
AcDbEntity
  8
LAY-1
  6
CONTINUOUS
 62
     2
100
AcDbCircle
 10
1082.0
 20
1280.563168
 30
0.0
 40
10.0
100
AcDbArc
 50
272.0
 51
357.492106
  0
LINE
  5
266
100
AcDbEntity
  8
LAY-1
  6
CONTINUOUS
 62
     2
100
AcDbLine
 10
1149.966938
 20
368.188233
 30
0.0
 11
1167.92084
 21
366.301202
 31
0.0
  0
ARC
  5
267
100
AcDbEntity
  8
LAY-1
  6
CONTINUOUS
 62
     2
100
AcDbCircle
 10
1096.5
 20
372.478412
 30
0.0
 40
2.0
100
AcDbArc
 50
279.335443
 51
0.0
  0
LINE
  5
268
100
AcDbEntity
  8
LAY-1
  6
CONTINUOUS
 62
     2
100
AcDbLine
 10
1098.5
 20
372.478412
 30
0.0
 11
1098.5
 21
377.832001
 31
0.0
  0
ARC
  5
269
100
AcDbEntity
  8
LAY-1
  6
CONTINUOUS
 62
     2
100
AcDbCircle
 10
1103.5
 20
377.832001
 30
0.0
 40
5.0
100
AcDbArc
 50
120.0
 51
180.0
  0
ARC
  5
26A
100
AcDbEntity
  8
LAY-1
  6
CONTINUOUS
 62
     2
100
AcDbCircle
 10
1099.5
 20
384.760204
 30
0.0
 40
3.0
100
AcDbArc
 50
300.0
 51
0.0
  0
LINE
  5
26B
100
AcDbEntity
  8
LAY-1
  6
CONTINUOUS
 62
     2
100
AcDbLine
 10
1102.5
 20
384.760204
 30
0.0
 11
1102.5
 21
393.450803
 31
0.0
  0
ARC
  5
26C
100
AcDbEntity
  8
LAY-1
  6
CONTINUOUS
 62
     2
100
AcDbCircle
 10
1107.5
 20
393.450803
 30
0.0
 40
5.0
100
AcDbArc
 50
150.0
 51
180.0
  0
LINE
  5
26D
100
AcDbEntity
  8
LAY-1
  6
CONTINUOUS
 62
     2
100
AcDbLine
 10
1103.169873
 20
395.950803
 30
0.0
 11
1105.146926
 21
399.375159
 31
0.0
  0
ARC
  5
26E
100
AcDbEntity
  8
LAY-1
  6
CONTINUOUS
 62
     2
100
AcDbCircle
 10
1102.54885
 20
400.875159
 30
0.0
 40
3.0
100
AcDbArc
 50
330.0
 51
0.0
  0
ARC
  5
26F
100
AcDbEntity
  8
LAY-1
  6
CONTINUOUS
 62
     2
100
AcDbCircle
 10
1141.451151
 20
400.875159
 30
0.0
 40
3.0
100
AcDbArc
 50
180.0
 51
210.0
  0
LINE
  5
270
100
AcDbEntity
  8
LAY-1
  6
CONTINUOUS
 62
     2
100
AcDbLine
 10
1140.830127
 20
395.950803
 30
0.0
 11
1138.853075
 21
399.375159
 31
0.0
  0
ARC
  5
271
100
AcDbEntity
  8
LAY-1
  6
CONTINUOUS
 62
     2
100
AcDbCircle
 10
1136.5
 20
393.450803
 30
0.0
 40
5.0
100
AcDbArc
 50
0.0
 51
30.0
  0
LINE
  5
272
100
AcDbEntity
  8
LAY-1
  6
CONTINUOUS
 62
     2
100
AcDbLine
 10
1141.5
 20
384.760204
 30
0.0
 11
1141.5
 21
393.450803
 31
0.0
  0
ARC
  5
273
100
AcDbEntity
  8
LAY-1
  6
CONTINUOUS
 62
     2
100
AcDbCircle
 10
1144.5
 20
384.760204
 30
0.0
 40
3.0
100
AcDbArc
 50
180.0
 51
240.0
  0
ARC
  5
274
100
AcDbEntity
  8
LAY-1
  6
CONTINUOUS
 62
     2
100
AcDbCircle
 10
1140.5
 20
377.832001
 30
0.0
 40
5.0
100
AcDbArc
 50
0.0
 51
60.0
  0
LINE
  5
275
100
AcDbEntity
  8
LAY-1
  6
CONTINUOUS
 62
     2
100
AcDbLine
 10
1145.5
 20
372.478412
 30
0.0
 11
1145.5
 21
377.832001
 31
0.0
  0
LINE
  5
276
100
AcDbEntity
  8
LAY-1
  6
CONTINUOUS
 62
     2
100
AcDbLine
 10
1149.968009
 20
368.741697
 30
0.0
 11
1149.968009
 21
368.73259
 31
0.0
  0
LINE
  5
277
100
AcDbEntity
  8
LAY-1
  6
CONTINUOUS
 62
     2
100
AcDbLine
 10
1148.320833
 20
370.316629
 30
0.0
 11
1147.175572
 21
370.5049
 31
0.0
  0
ARC
  5
278
100
AcDbEntity
  8
LAY-1
  6
CONTINUOUS
 62
     2
100
AcDbCircle
 10
1147.5
 20
372.478412
 30
0.0
 40
2.0
100
AcDbArc
 50
180.0
 51
260.664557
  0
ARC
  5
279
100
AcDbEntity
  8
LAY-1
  6
CONTINUOUS
 62
     2
100
AcDbCircle
 10
1147.973536
 20
368.347014
 30
0.0
 40
2.0
100
AcDbArc
 50
355.73917
 51
80.0
  0
LINE
  5
27A
100
AcDbEntity
  8
LAY-1
  6
CONTINUOUS
 62
     2
100
AcDbLine
 10
1138.451151
 20
400.875159
 30
0.0
 11
1138.451151
 21
475.086226
 31
0.0
  0
ARC
  5
27B
100
AcDbEntity
  8
LAY-1
  6
CONTINUOUS
 62
     2
100
AcDbCircle
 10
1133.451151
 20
475.086226
 30
0.0
 40
5.0
100
AcDbArc
 50
0.0
 51
50.492811
  0
ARC
  5
27C
100
AcDbEntity
  8
LAY-1
  6
CONTINUOUS
 62
     2
100
AcDbCircle
 10
1122.0
 20
461.19842
 30
0.0
 40
23.0
100
AcDbArc
 50
50.492811
 51
90.0
  0
ARC
  5
27D
100
AcDbEntity
  8
LAY-1
  6
CONTINUOUS
 62
     2
100
AcDbCircle
 10
1122.0
 20
461.19842
 30
0.0
 40
23.0
100
AcDbArc
 50
90.0
 51
129.507189
  0
ARC
  5
27E
100
AcDbEntity
  8
LAY-1
  6
CONTINUOUS
 62
     2
100
AcDbCircle
 10
1110.54885
 20
475.086226
 30
0.0
 40
5.0
100
AcDbArc
 50
129.507189
 51
180.0
  0
LINE
  5
27F
100
AcDbEntity
  8
LAY-1
  6
CONTINUOUS
 62
     2
100
AcDbLine
 10
1105.54885
 20
400.875159
 30
0.0
 11
1105.54885
 21
475.086226
 31
0.0
  0
LINE
  5
280
100
AcDbEntity
  8
LAY-1
  6
CONTINUOUS
 62
     2
100
AcDbLine
 10
1078.552264
 20
366.561136
 30
0.0
 11
1076.080653
 21
366.301359
 31
0.0
  0
LINE
  5
281
100
AcDbEntity
  8
LAY-1
  6
CONTINUOUS
 62
     2
100
AcDbLine
 10
1078.552264
 20
366.561136
 30
0.0
 11
1076.07916
 21
366.301202
 31
0.0
  0
LINE
  5
282
100
AcDbEntity
  8
LAY-1
  6
CONTINUOUS
 62
     2
100
AcDbLine
 10
1181.337489
 20
352.02987
 30
0.0
 11
1185.987497
 21
244.214504
 31
0.0
  0
ARC
  5
283
100
AcDbEntity
  8
LAY-1
  6
CONTINUOUS
 62
     2
100
AcDbCircle
 10
1166.35142
 20
351.383531
 30
0.0
 40
15.0
100
AcDbArc
 50
2.4696
 51
84.0
  0
CIRCLE
  5
284
100
AcDbEntity
  8
LAY-1
  6
CONTINUOUS
 62
     2
100
AcDbCircle
 10
1122.0
 20
121.985239
 30
0.0
 40
70.0
  0
CIRCLE
  5
285
100
AcDbEntity
  8
LAY-1
  6
CONTINUOUS
 62
     2
100
AcDbCircle
 10
1084.876894
 20
84.862133
 30
0.0
 40
9.5
  0
CIRCLE
  5
286
100
AcDbEntity
  8
LAY-1
  6
CONTINUOUS
 62
     2
100
AcDbCircle
 10
1159.123106
 20
84.862133
 30
0.0
 40
9.5
  0
CIRCLE
  5
287
100
AcDbEntity
  8
LAY-1
  6
CONTINUOUS
 62
     2
100
AcDbCircle
 10
1084.876894
 20
159.108345
 30
0.0
 40
9.5
  0
CIRCLE
  5
288
100
AcDbEntity
  8
LAY-1
  6
CONTINUOUS
 62
     2
100
AcDbCircle
 10
1159.123106
 20
159.108345
 30
0.0
 40
9.5
  0
CIRCLE
  5
289
100
AcDbEntity
  8
LAY-1
  6
CONTINUOUS
 62
     2
100
AcDbCircle
 10
1122.0
 20
121.985239
 30
0.0
 40
24.3
  0
CIRCLE
  5
28A
100
AcDbEntity
  8
LAY-1
  6
CONTINUOUS
 62
     2
100
AcDbCircle
 10
1122.0
 20
121.985239
 30
0.0
 40
20.6
  0
LINE
  5
28B
100
AcDbEntity
  8
LAY-1
  6
CONTINUOUS
 62
     2
100
AcDbLine
 10
1062.662511
 20
1104.905005
 30
0.0
 11
1057.996513
 21
1213.091103
 31
0.0
  0
LINE
  5
28C
100
AcDbEntity
  8
LAY-1
  6
CONTINUOUS
 62
     2
100
AcDbLine
 10
1037.8
 20
1198.961835
 30
0.0
 11
1037.8
 21
1215.267437
 31
0.0
  0
LINE
  5
28D
100
AcDbEntity
  8
LAY-1
  6
CONTINUOUS
 62
     2
100
AcDbLine
 10
1181.337489
 20
1104.905005
 30
0.0
 11
1186.003487
 21
1213.091103
 31
0.0
  0
LINE
  5
28E
100
AcDbEntity
  8
LAY-1
  6
CONTINUOUS
 62
     2
100
AcDbLine
 10
630.482199
 20
777.705436
 30
0.0
 11
630.482199
 21
803.883566
 31
0.0
  0
LINE
  5
28F
100
AcDbEntity
  8
LAY-1
  6
CONTINUOUS
 62
     2
100
AcDbLine
 10
1062.662511
 20
352.02987
 30
0.0
 11
1057.996513
 21
243.843772
 31
0.0
  0
LINE
  5
290
100
AcDbEntity
  8
LAY-1
  6
CONTINUOUS
 62
     2
100
AcDbLine
 10
1715.0
 20
678.467437
 30
0.0
 11
1715.0
 21
728.467437
 31
0.0
  0
LINE
  5
291
100
AcDbEntity
  8
LAY-1
  6
CONTINUOUS
 62
     2
100
AcDbLine
 10
1715.0
 20
778.467437
 30
0.0
 11
1715.0
 21
728.467437
 31
0.0
  0
LINE
  5
292
100
AcDbEntity
  8
LAY-1
  6
CONTINUOUS
 62
     2
100
AcDbLine
 10
605.982199
 20
840.467437
 30
0.0
 11
605.982199
 21
616.467438
 31
0.0
  0
LINE
  5
293
100
AcDbEntity
  8
LAY-1
  6
CONTINUOUS
 62
     2
100
AcDbLine
 10
605.982199
 20
840.467438
 30
0.0
 11
618.982199
 21
840.467438
 31
0.0
  0
ARC
  5
294
100
AcDbEntity
  8
LAY-1
  6
CONTINUOUS
 62
     2
100
AcDbCircle
 10
618.982199
 20
838.467438
 30
0.0
 40
2.0
100
AcDbArc
 50
0.0
 51
90.0
  0
LINE
  5
295
100
AcDbEntity
  8
LAY-1
  6
CONTINUOUS
 62
     2
100
AcDbLine
 10
604.0
 20
728.467437
 30
0.0
 11
604.0
 21
840.467437
 31
0.0
  0
ARC
  5
296
100
AcDbEntity
  8
LAY-1
  6
CONTINUOUS
 62
     2
100
AcDbCircle
 10
572.05
 20
728.467437
 30
0.0
 40
35.0
100
AcDbArc
 50
121.002719
 51
238.997281
  0
ARC
  5
297
100
AcDbEntity
  8
LAY-1
  6
CONTINUOUS
 62
     2
100
AcDbCircle
 10
591.0
 20
838.467437
 30
0.0
 40
2.0
100
AcDbArc
 50
90.0
 51
180.0
  0
ARC
  5
298
100
AcDbEntity
  8
LAY-1
  6
CONTINUOUS
 62
     2
100
AcDbCircle
 10
591.0
 20
838.467437
 30
0.0
 40
2.0
100
AcDbArc
 50
90.0
 51
180.0
  0
ARC
  5
299
100
AcDbEntity
  8
LAY-1
  6
CONTINUOUS
 62
     2
100
AcDbCircle
 10
569.599242
 20
648.467437
 30
0.0
 40
10.0
100
AcDbArc
 50
24.443335
 51
90.0
  0
LINE
  5
29A
100
AcDbEntity
  8
LAY-1
  6
CONTINUOUS
 62
     2
100
AcDbLine
 10
584.0
 20
601.189292
 30
0.0
 11
584.0
 21
585.967437
 31
0.0
  0
ARC
  5
29B
100
AcDbEntity
  8
LAY-1
  6
CONTINUOUS
 62
     2
100
AcDbCircle
 10
560.792858
 20
624.033805
 30
0.0
 40
20.0
100
AcDbArc
 50
163.918031
 51
195.0
  0
ARC
  5
29C
100
AcDbEntity
  8
LAY-1
  6
CONTINUOUS
 62
     2
100
AcDbCircle
 10
549.50924
 20
608.189292
 30
0.0
 40
5.0
100
AcDbArc
 50
195.0
 51
270.0
  0
ARC
  5
29D
100
AcDbEntity
  8
LAY-1
  6
CONTINUOUS
 62
     2
100
AcDbCircle
 10
582.0
 20
601.189292
 30
0.0
 40
2.0
100
AcDbArc
 50
0.0
 51
90.0
  0
ARC
  5
29E
100
AcDbEntity
  8
LAY-1
  6
CONTINUOUS
 62
     2
100
AcDbCircle
 10
198.546234
 20
728.467437
 30
0.0
 40
357.0
100
AcDbArc
 50
343.918031
 51
347.409918
  0
LINE
  5
29F
100
AcDbEntity
  8
LAY-1
  6
CONTINUOUS
 62
     2
100
AcDbLine
 10
544.679611
 20
606.895197
 30
0.0
 11
541.474342
 21
618.857424
 31
0.0
  0
LINE
  5
2A0
100
AcDbEntity
  8
LAY-1
  6
CONTINUOUS
 62
     2
100
AcDbLine
 10
604.0
 20
840.467437
 30
0.0
 11
591.0
 21
840.467437
 31
0.0
  0
LINE
  5
2A1
100
AcDbEntity
  8
LAY-1
  6
CONTINUOUS
 62
     2
100
AcDbLine
 10
604.0
 20
840.467437
 30
0.0
 11
591.0
 21
840.467437
 31
0.0
  0
LINE
  5
2A2
100
AcDbEntity
  8
LAY-1
  6
CONTINUOUS
 62
     2
100
AcDbLine
 10
554.022244
 20
698.467437
 30
0.0
 11
580.993868
 21
698.467437
 31
0.0
  0
LINE
  5
2A3
100
AcDbEntity
  8
LAY-1
  6
CONTINUOUS
 62
     2
100
AcDbLine
 10
589.0
 20
838.467437
 30
0.0
 11
589.0
 21
740.0
 31
0.0
  0
LINE
  5
2A4
100
AcDbEntity
  8
LAY-1
  6
CONTINUOUS
 62
     2
100
AcDbLine
 10
620.982199
 20
838.467438
 30
0.0
 11
620.982199
 21
742.027389
 31
0.0
  0
LINE
  5
2A5
100
AcDbEntity
  8
LAY-1
  6
CONTINUOUS
 62
     2
100
AcDbLine
 10
1662.0
 20
603.189292
 30
0.0
 11
1798.0
 21
603.189292
 31
0.0
  0
LINE
  5
2A6
100
AcDbEntity
  8
LAY-1
  6
CONTINUOUS
 62
     2
100
AcDbLine
 10
1800.0
 20
601.189292
 30
0.0
 11
1800.0
 21
585.967437
 31
0.0
  0
ARC
  5
2A7
100
AcDbEntity
  8
LAY-1
  6
CONTINUOUS
 62
     2
100
AcDbCircle
 10
1798.0
 20
601.189292
 30
0.0
 40
2.0
100
AcDbArc
 50
0.0
 51
90.0
  0
ARC
  5
2A8
100
AcDbEntity
  8
LAY-1
  6
CONTINUOUS
 62
     2
100
AcDbCircle
 10
1765.50924
 20
608.189292
 30
0.0
 40
5.0
100
AcDbArc
 50
195.0
 51
270.0
  0
LINE
  5
2A9
100
AcDbEntity
  8
LAY-1
  6
CONTINUOUS
 62
     2
100
AcDbLine
 10
1660.0
 20
585.967437
 30
0.0
 11
1800.0
 21
585.967437
 31
0.0
  0
ARC
  5
2AA
100
AcDbEntity
  8
LAY-1
  6
CONTINUOUS
 62
     2
100
AcDbCircle
 10
1776.792858
 20
624.033805
 30
0.0
 40
20.0
100
AcDbArc
 50
163.918031
 51
195.0
  0
LINE
  5
2AB
100
AcDbEntity
  8
LAY-1
  6
CONTINUOUS
 62
     2
100
AcDbLine
 10
1757.474342
 20
618.857424
 30
0.0
 11
1760.679611
 21
606.895197
 31
0.0
  0
LINE
  5
2AC
100
AcDbEntity
  8
LAY-1
  6
EXLTYPE2
 62
     1
100
AcDbLine
 10
820.982199
 20
728.467436
 30
0.0
 11
820.982199
 21
714.617436
 31
0.0
  0
LINE
  5
2AD
100
AcDbEntity
  8
LAY-1
  6
EXLTYPE2
 62
     1
100
AcDbLine
 10
830.982199
 20
716.467436
 30
0.0
 11
829.914101
 21
714.617436
 31
0.0
  0
LINE
  5
2AE
100
AcDbEntity
  8
LAY-1
  6
EXLTYPE2
 62
     1
100
AcDbLine
 10
820.982199
 20
714.617436
 30
0.0
 11
829.914101
 21
714.617436
 31
0.0
  0
LINE
  5
2AF
100
AcDbEntity
  8
LAY-1
  6
EXLTYPE2
 62
     1
100
AcDbLine
 10
830.982199
 20
728.467436
 30
0.0
 11
830.982199
 21
716.467436
 31
0.0
  0
LINE
  5
2B0
100
AcDbEntity
  8
LAY-1
  6
EXLTYPE2
 62
     1
100
AcDbLine
 10
829.914101
 20
721.539233
 30
0.0
 11
820.982199
 21
721.539233
 31
0.0
  0
ARC
  5
2B1
100
AcDbEntity
  8
LAY-1
  6
EXLTYPE2
 62
     1
100
AcDbCircle
 10
824.841072
 20
718.078334
 30
0.0
 40
6.141127
100
AcDbArc
 50
325.697591
 51
34.302409
  0
LINE
  5
2B2
100
AcDbEntity
  8
LAY-1
  6
EXLTYPE2
 62
     1
100
AcDbLine
 10
820.982199
 20
728.467436
 30
0.0
 11
820.982199
 21
742.317436
 31
0.0
  0
LINE
  5
2B3
100
AcDbEntity
  8
LAY-1
  6
EXLTYPE2
 62
     1
100
AcDbLine
 10
830.982199
 20
740.467436
 30
0.0
 11
829.914101
 21
742.317436
 31
0.0
  0
LINE
  5
2B4
100
AcDbEntity
  8
LAY-1
  6
EXLTYPE2
 62
     1
100
AcDbLine
 10
820.982199
 20
742.317436
 30
0.0
 11
829.914101
 21
742.317436
 31
0.0
  0
LINE
  5
2B5
100
AcDbEntity
  8
LAY-1
  6
EXLTYPE2
 62
     1
100
AcDbLine
 10
830.982199
 20
728.467436
 30
0.0
 11
830.982199
 21
740.467436
 31
0.0
  0
LINE
  5
2B6
100
AcDbEntity
  8
LAY-1
  6
EXLTYPE2
 62
     1
100
AcDbLine
 10
829.914101
 20
735.395639
 30
0.0
 11
820.982199
 21
735.395639
 31
0.0
  0
ARC
  5
2B7
100
AcDbEntity
  8
LAY-1
  6
EXLTYPE2
 62
     1
100
AcDbCircle
 10
824.841072
 20
738.856537
 30
0.0
 40
6.141127
100
AcDbArc
 50
325.697591
 51
34.302409
  0
ARC
  5
2B8
100
AcDbEntity
  8
LAY-1
  6
EXLTYPE2
 62
     1
100
AcDbCircle
 10
807.978301
 20
728.467436
 30
0.0
 40
23.003897
100
AcDbArc
 50
342.471798
 51
17.528202
  0
LINE
  5
2B9
100
AcDbEntity
  8
LAY-1
  6
EXLTYPE2
 62
     1
100
AcDbLine
 10
783.982199
 20
720.467438
 30
0.0
 11
820.982199
 21
720.467438
 31
0.0
  0
LINE
  5
2BA
100
AcDbEntity
  8
LAY-1
  6
EXLTYPE2
 62
     1
100
AcDbLine
 10
820.982199
 20
736.467438
 30
0.0
 11
783.982199
 21
736.467438
 31
0.0
  0
LINE
  5
2BB
100
AcDbEntity
  8
LAY-1
  6
EXLTYPE2
 62
     1
100
AcDbLine
 10
782.914101
 20
735.395642
 30
0.0
 11
770.982199
 21
735.395642
 31
0.0
  0
LINE
  5
2BC
100
AcDbEntity
  8
LAY-1
  6
EXLTYPE2
 62
     1
100
AcDbLine
 10
770.982199
 20
742.317439
 30
0.0
 11
782.914101
 21
742.317439
 31
0.0
  0
LINE
  5
2BD
100
AcDbEntity
  8
LAY-1
  6
EXLTYPE2
 62
     1
100
AcDbLine
 10
782.914101
 20
721.539235
 30
0.0
 11
770.982199
 21
721.539235
 31
0.0
  0
LINE
  5
2BE
100
AcDbEntity
  8
LAY-1
  6
EXLTYPE2
 62
     1
100
AcDbLine
 10
770.982199
 20
714.617439
 30
0.0
 11
782.914101
 21
714.617439
 31
0.0
  0
ARC
  5
2BF
100
AcDbEntity
  8
LAY-1
  6
EXLTYPE2
 62
     1
100
AcDbCircle
 10
760.978301
 20
728.467439
 30
0.0
 40
23.003897
100
AcDbArc
 50
342.471798
 51
17.528202
  0
ARC
  5
2C0
100
AcDbEntity
  8
LAY-1
  6
EXLTYPE2
 62
     1
100
AcDbCircle
 10
777.841072
 20
738.85654
 30
0.0
 40
6.141127
100
AcDbArc
 50
325.697591
 51
34.302409
  0
LINE
  5
2C1
100
AcDbEntity
  8
LAY-1
  6
EXLTYPE2
 62
     1
100
AcDbLine
 10
783.982199
 20
728.467439
 30
0.0
 11
783.982199
 21
740.467439
 31
0.0
  0
LINE
  5
2C2
100
AcDbEntity
  8
LAY-1
  6
EXLTYPE2
 62
     1
100
AcDbLine
 10
783.982199
 20
740.467439
 30
0.0
 11
782.914101
 21
742.317439
 31
0.0
  0
ARC
  5
2C3
100
AcDbEntity
  8
LAY-1
  6
EXLTYPE2
 62
     1
100
AcDbCircle
 10
777.841072
 20
718.078337
 30
0.0
 40
6.141127
100
AcDbArc
 50
325.697591
 51
34.302409
  0
LINE
  5
2C4
100
AcDbEntity
  8
LAY-1
  6
EXLTYPE2
 62
     1
100
AcDbLine
 10
783.982199
 20
728.467439
 30
0.0
 11
783.982199
 21
716.467439
 31
0.0
  0
LINE
  5
2C5
100
AcDbEntity
  8
LAY-1
  6
EXLTYPE2
 62
     1
100
AcDbLine
 10
783.982199
 20
716.467439
 30
0.0
 11
782.914101
 21
714.617439
 31
0.0
  0
LINE
  5
2C6
100
AcDbEntity
  8
LAY-1
  6
EXLTYPE2
 62
     1
100
AcDbLine
 10
1423.017801
 20
728.467436
 30
0.0
 11
1423.017801
 21
714.617436
 31
0.0
  0
LINE
  5
2C7
100
AcDbEntity
  8
LAY-1
  6
EXLTYPE2
 62
     1
100
AcDbLine
 10
1413.017801
 20
716.467436
 30
0.0
 11
1414.085899
 21
714.617436
 31
0.0
  0
LINE
  5
2C8
100
AcDbEntity
  8
LAY-1
  6
EXLTYPE2
 62
     1
100
AcDbLine
 10
1423.017801
 20
714.617436
 30
0.0
 11
1414.085899
 21
714.617436
 31
0.0
  0
LINE
  5
2C9
100
AcDbEntity
  8
LAY-1
  6
EXLTYPE2
 62
     1
100
AcDbLine
 10
1413.017801
 20
728.467436
 30
0.0
 11
1413.017801
 21
716.467436
 31
0.0
  0
LINE
  5
2CA
100
AcDbEntity
  8
LAY-1
  6
EXLTYPE2
 62
     1
100
AcDbLine
 10
1414.085899
 20
721.539233
 30
0.0
 11
1423.017801
 21
721.539233
 31
0.0
  0
ARC
  5
2CB
100
AcDbEntity
  8
LAY-1
  6
EXLTYPE2
 62
     1
100
AcDbCircle
 10
1419.158928
 20
718.078334
 30
0.0
 40
6.141127
100
AcDbArc
 50
145.697591
 51
214.302409
  0
LINE
  5
2CC
100
AcDbEntity
  8
LAY-1
  6
EXLTYPE2
 62
     1
100
AcDbLine
 10
1423.017801
 20
728.467436
 30
0.0
 11
1423.017801
 21
742.317436
 31
0.0
  0
LINE
  5
2CD
100
AcDbEntity
  8
LAY-1
  6
EXLTYPE2
 62
     1
100
AcDbLine
 10
1413.017801
 20
740.467436
 30
0.0
 11
1414.085899
 21
742.317436
 31
0.0
  0
LINE
  5
2CE
100
AcDbEntity
  8
LAY-1
  6
EXLTYPE2
 62
     1
100
AcDbLine
 10
1423.017801
 20
742.317436
 30
0.0
 11
1414.085899
 21
742.317436
 31
0.0
  0
LINE
  5
2CF
100
AcDbEntity
  8
LAY-1
  6
EXLTYPE2
 62
     1
100
AcDbLine
 10
1413.017801
 20
728.467436
 30
0.0
 11
1413.017801
 21
740.467436
 31
0.0
  0
LINE
  5
2D0
100
AcDbEntity
  8
LAY-1
  6
EXLTYPE2
 62
     1
100
AcDbLine
 10
1414.085899
 20
735.395639
 30
0.0
 11
1423.017801
 21
735.395639
 31
0.0
  0
ARC
  5
2D1
100
AcDbEntity
  8
LAY-1
  6
EXLTYPE2
 62
     1
100
AcDbCircle
 10
1419.158928
 20
738.856537
 30
0.0
 40
6.141127
100
AcDbArc
 50
145.697591
 51
214.302409
  0
ARC
  5
2D2
100
AcDbEntity
  8
LAY-1
  6
EXLTYPE2
 62
     1
100
AcDbCircle
 10
1436.021699
 20
728.467436
 30
0.0
 40
23.003897
100
AcDbArc
 50
162.471798
 51
197.528202
  0
LINE
  5
2D3
100
AcDbEntity
  8
LAY-1
  6
EXLTYPE2
 62
     1
100
AcDbLine
 10
1460.017801
 20
720.467438
 30
0.0
 11
1423.017801
 21
720.467438
 31
0.0
  0
LINE
  5
2D4
100
AcDbEntity
  8
LAY-1
  6
EXLTYPE2
 62
     1
100
AcDbLine
 10
1423.017801
 20
736.467438
 30
0.0
 11
1460.017801
 21
736.467438
 31
0.0
  0
ARC
  5
2D5
100
AcDbEntity
  8
LAY-1
  6
EXLTYPE2
 62
     1
100
AcDbCircle
 10
1481.216993
 20
705.967438
 30
0.0
 40
2.0
100
AcDbArc
 50
6.0
 51
90.0
  0
LINE
  5
2D6
100
AcDbEntity
  8
LAY-1
  6
EXLTYPE2
 62
     1
100
AcDbLine
 10
1475.017801
 20
707.967438
 30
0.0
 11
1481.216993
 21
707.967438
 31
0.0
  0
ARC
  5
2D7
100
AcDbEntity
  8
LAY-1
  6
EXLTYPE2
 62
     1
100
AcDbCircle
 10
1475.017801
 20
709.967438
 30
0.0
 40
2.0
100
AcDbArc
 50
180.0
 51
270.0
  0
ARC
  5
2D8
100
AcDbEntity
  8
LAY-1
  6
EXLTYPE2
 62
     1
100
AcDbCircle
 10
1480.797411
 20
750.967438
 30
0.0
 40
2.0
100
AcDbArc
 50
270.0
 51
350.0
  0
LINE
  5
2D9
100
AcDbEntity
  8
LAY-1
  6
EXLTYPE2
 62
     1
100
AcDbLine
 10
1475.017801
 20
748.967438
 30
0.0
 11
1480.797411
 21
748.967438
 31
0.0
  0
ARC
  5
2DA
100
AcDbEntity
  8
LAY-1
  6
EXLTYPE2
 62
     1
100
AcDbCircle
 10
1475.017801
 20
746.967438
 30
0.0
 40
2.0
100
AcDbArc
 50
90.0
 51
180.0
  0
LINE
  5
2DB
100
AcDbEntity
  8
LAY-1
  6
EXLTYPE2
 62
     1
100
AcDbLine
 10
1473.017801
 20
709.967438
 30
0.0
 11
1473.017801
 21
746.967438
 31
0.0
  0
LINE
  5
2DC
100
AcDbEntity
  8
LAY-1
  6
EXLTYPE2
 62
     1
100
AcDbLine
 10
1461.085899
 20
735.395642
 30
0.0
 11
1473.017801
 21
735.395642
 31
0.0
  0
LINE
  5
2DD
100
AcDbEntity
  8
LAY-1
  6
EXLTYPE2
 62
     1
100
AcDbLine
 10
1473.017801
 20
742.317439
 30
0.0
 11
1461.085899
 21
742.317439
 31
0.0
  0
LINE
  5
2DE
100
AcDbEntity
  8
LAY-1
  6
EXLTYPE2
 62
     1
100
AcDbLine
 10
1461.085899
 20
721.539235
 30
0.0
 11
1473.017801
 21
721.539235
 31
0.0
  0
LINE
  5
2DF
100
AcDbEntity
  8
LAY-1
  6
EXLTYPE2
 62
     1
100
AcDbLine
 10
1473.017801
 20
714.617439
 30
0.0
 11
1461.085899
 21
714.617439
 31
0.0
  0
ARC
  5
2E0
100
AcDbEntity
  8
LAY-1
  6
EXLTYPE2
 62
     1
100
AcDbCircle
 10
1483.021699
 20
728.467439
 30
0.0
 40
23.003897
100
AcDbArc
 50
162.471798
 51
197.528202
  0
ARC
  5
2E1
100
AcDbEntity
  8
LAY-1
  6
EXLTYPE2
 62
     1
100
AcDbCircle
 10
1466.158928
 20
738.85654
 30
0.0
 40
6.141127
100
AcDbArc
 50
145.697591
 51
214.302409
  0
LINE
  5
2E2
100
AcDbEntity
  8
LAY-1
  6
EXLTYPE2
 62
     1
100
AcDbLine
 10
1460.017801
 20
728.467439
 30
0.0
 11
1460.017801
 21
740.467439
 31
0.0
  0
LINE
  5
2E3
100
AcDbEntity
  8
LAY-1
  6
EXLTYPE2
 62
     1
100
AcDbLine
 10
1460.017801
 20
740.467439
 30
0.0
 11
1461.085899
 21
742.317439
 31
0.0
  0
ARC
  5
2E4
100
AcDbEntity
  8
LAY-1
  6
EXLTYPE2
 62
     1
100
AcDbCircle
 10
1466.158928
 20
718.078337
 30
0.0
 40
6.141127
100
AcDbArc
 50
145.697591
 51
214.302409
  0
LINE
  5
2E5
100
AcDbEntity
  8
LAY-1
  6
EXLTYPE2
 62
     1
100
AcDbLine
 10
1460.017801
 20
728.467439
 30
0.0
 11
1460.017801
 21
716.467439
 31
0.0
  0
LINE
  5
2E6
100
AcDbEntity
  8
LAY-1
  6
EXLTYPE2
 62
     1
100
AcDbLine
 10
1460.017801
 20
716.467439
 30
0.0
 11
1461.085899
 21
714.617439
 31
0.0
  0
LINE
  5
2E7
100
AcDbEntity
  8
LAY-1
  6
EXLTYPE2
 62
     1
100
AcDbLine
 10
1483.792422
 20
700.499429
 30
0.0
 11
1483.206037
 21
706.176495
 31
0.0
  0
LINE
  5
2E8
100
AcDbEntity
  8
LAY-1
  6
EXLTYPE2
 62
     1
100
AcDbLine
 10
1483.792422
 20
756.435446
 30
0.0
 11
1482.767027
 21
750.620141
 31
0.0
  0
LINE
  5
2E9
100
AcDbEntity
  8
LAY-1
  6
CONTINUOUS
 62
     1
100
AcDbLine
 10
1122.0
 20
765.467437
 30
0.0
 11
1114.756349
 21
765.467437
 31
0.0
  0
LINE
  5
2EA
100
AcDbEntity
  8
LAY-1
  6
CONTINUOUS
 62
     1
100
AcDbLine
 10
1113.771061
 20
766.334875
 30
0.0
 11
1113.771061
 21
761.927353
 31
0.0
  0
LINE
  5
2EB
100
AcDbEntity
  8
LAY-1
  6
CONTINUOUS
 62
     1
100
AcDbLine
 10
1113.771061
 20
761.927353
 30
0.0
 11
1114.450945
 21
762.701014
 31
0.0
  0
LINE
  5
2EC
100
AcDbEntity
  8
LAY-1
  6
CONTINUOUS
 62
     1
100
AcDbLine
 10
1122.0
 20
762.701014
 30
0.0
 11
1122.0
 21
760.110933
 31
0.0
  0
LINE
  5
2ED
100
AcDbEntity
  8
LAY-1
  6
CONTINUOUS
 62
     1
100
AcDbLine
 10
1122.0
 20
760.110933
 30
0.0
 11
1121.426908
 21
759.118309
 31
0.0
  0
LINE
  5
2EE
100
AcDbEntity
  8
LAY-1
  6
CONTINUOUS
 62
     1
100
AcDbLine
 10
1121.426908
 20
759.118309
 30
0.0
 11
1124.789868
 21
761.059915
 31
0.0
  0
LINE
  5
2EF
100
AcDbEntity
  8
LAY-1
  6
CONTINUOUS
 62
     1
100
AcDbLine
 10
1124.789868
 20
761.059915
 30
0.0
 11
1124.227206
 21
761.622577
 31
0.0
  0
LINE
  5
2F0
100
AcDbEntity
  8
LAY-1
  6
CONTINUOUS
 62
     1
100
AcDbLine
 10
1124.227206
 20
761.622577
 30
0.0
 11
1124.227206
 21
766.592762
 31
0.0
  0
LINE
  5
2F1
100
AcDbEntity
  8
LAY-1
  6
CONTINUOUS
 62
     1
100
AcDbLine
 10
1124.227206
 20
766.592762
 30
0.0
 11
1129.1446
 21
766.592762
 31
0.0
  0
LINE
  5
2F2
100
AcDbEntity
  8
LAY-1
  6
CONTINUOUS
 62
     1
100
AcDbLine
 10
1124.227206
 20
769.312298
 30
0.0
 11
1124.789868
 21
769.87496
 31
0.0
  0
LINE
  5
2F3
100
AcDbEntity
  8
LAY-1
  6
CONTINUOUS
 62
     1
100
AcDbLine
 10
1124.789868
 20
769.87496
 30
0.0
 11
1121.426908
 21
771.816566
 31
0.0
  0
LINE
  5
2F4
100
AcDbEntity
  8
LAY-1
  6
CONTINUOUS
 62
     1
100
AcDbLine
 10
1121.426908
 20
771.816566
 30
0.0
 11
1122.0
 21
770.823942
 31
0.0
  0
LINE
  5
2F5
100
AcDbEntity
  8
LAY-1
  6
CONTINUOUS
 62
     1
100
AcDbLine
 10
1122.0
 20
770.823942
 30
0.0
 11
1122.0
 21
769.030966
 31
0.0
  0
LINE
  5
2F6
100
AcDbEntity
  8
LAY-1
  6
CONTINUOUS
 62
     1
100
AcDbLine
 10
1122.0
 20
769.030966
 30
0.0
 11
1119.069466
 21
769.030966
 31
0.0
  0
LINE
  5
2F7
100
AcDbEntity
  8
LAY-1
  6
CONTINUOUS
 62
     1
100
AcDbLine
 10
1119.069466
 20
769.030966
 30
0.0
 11
1118.577137
 21
770.015626
 31
0.0
  0
LINE
  5
2F8
100
AcDbEntity
  8
LAY-1
  6
CONTINUOUS
 62
     1
100
AcDbLine
 10
1118.577137
 20
770.015626
 30
0.0
 11
1118.577137
 21
765.467437
 31
0.0
  0
LINE
  5
2F9
100
AcDbEntity
  8
LAY-1
  6
CONTINUOUS
 62
     1
100
AcDbLine
 10
1118.577137
 20
765.467437
 30
0.0
 11
1119.069466
 21
766.592762
 31
0.0
  0
LINE
  5
2FA
100
AcDbEntity
  8
LAY-1
  6
CONTINUOUS
 62
     1
100
AcDbLine
 10
1119.069466
 20
766.592762
 30
0.0
 11
1122.0
 21
766.592762
 31
0.0
  0
LINE
  5
2FB
100
AcDbEntity
  8
LAY-1
  6
CONTINUOUS
 62
     1
100
AcDbLine
 10
1122.0
 20
766.592762
 30
0.0
 11
1122.0
 21
765.467437
 31
0.0
  0
ELLIPSE
  5
2FC
100
AcDbEntity
  8
LAY-1
  6
CONTINUOUS
 62
     1
100
AcDbEllipse
 10
1122.0
 20
765.467437
 30
0.0
 11
7.2411479782635171
 21
0.2129749405371851
 31
0.0
210
0.0
220
0.0
230
1.0
 40
0.912621
 41
0.5369857443297676
 42
3.109376019493407
  0
ARC
  5
2FD
100
AcDbEntity
  8
LAY-1
  6
CONTINUOUS
 62
     1
100
AcDbCircle
 10
1122.0
 20
765.467437
 30
0.0
 40
7.500005
100
AcDbArc
 50
28.368264
 51
180.0
  0
LINE
  5
2FE
100
AcDbEntity
  8
LAY-1
  6
CONTINUOUS
 62
     1
100
AcDbLine
 10
1130.979155
 20
769.781183
 30
0.0
 11
1128.599343
 21
769.030966
 31
0.0
  0
LINE
  5
2FF
100
AcDbEntity
  8
LAY-1
  6
CONTINUOUS
 62
     1
100
AcDbLine
 10
1114.499995
 20
765.467437
 30
0.0
 11
1113.771061
 21
766.334875
 31
0.0
  0
LINE
  5
300
100
AcDbEntity
  8
LAY-1
  6
CONTINUOUS
 62
     1
100
AcDbLine
 10
1124.227206
 20
769.030966
 30
0.0
 11
1124.227206
 21
769.312298
 31
0.0
  0
LINE
  5
301
100
AcDbEntity
  8
LAY-1
  6
CONTINUOUS
 62
     1
100
AcDbLine
 10
1114.450945
 20
762.701014
 30
0.0
 11
1115.036174
 21
762.701014
 31
0.0
  0
LINE
  5
302
100
AcDbEntity
  8
LAY-1
  6
CONTINUOUS
 62
     1
100
AcDbLine
 10
1115.434036
 20
762.701014
 30
0.0
 11
1122.0
 21
762.701014
 31
0.0
  0
ARC
  5
303
100
AcDbEntity
  8
LAY-1
  6
CONTINUOUS
 62
     1
100
AcDbCircle
 10
1122.0
 20
765.467437
 30
0.0
 40
7.500005
100
AcDbArc
 50
201.645098
 51
11.419721
  0
ELLIPSE
  5
304
100
AcDbEntity
  8
LAY-1
  6
CONTINUOUS
 62
     1
100
AcDbEllipse
 10
1122.0
 20
765.467437
 30
0.0
 11
7.2411479782635171
 21
0.2129749405371851
 31
0.0
210
0.0
220
0.0
230
1.0
 40
0.912621
 41
3.5427715523045551
 42
0.1388139713137062
  0
LINE
  5
305
100
AcDbEntity
  8
LAY-1
  6
CONTINUOUS
 62
     1
100
AcDbLine
 10
1129.351528
 20
766.952399
 30
0.0
 11
1130.979155
 21
769.781183
 31
0.0
  0
LINE
  5
306
100
AcDbEntity
  8
LAY-1
  6
CONTINUOUS
 62
     1
100
AcDbLine
 10
1124.227206
 20
769.030966
 30
0.0
 11
1128.122562
 21
769.030966
 31
0.0
  0
LINE
  5
307
100
AcDbEntity
  8
LAY-1
  6
EXLTYPE3
 62
     1
100
AcDbLine
 10
1089.0
 20
711.717437
 30
0.0
 11
1082.45
 21
711.717437
 31
0.0
  0
LINE
  5
308
100
AcDbEntity
  8
LAY-1
  6
EXLTYPE3
 62
     1
100
AcDbLine
 10
1089.0
 20
745.217437
 30
0.0
 11
1082.45
 21
745.217437
 31
0.0
  0
LINE
  5
309
100
AcDbEntity
  8
LAY-1
  6
EXLTYPE3
 62
     1
100
AcDbLine
 10
1085.5
 20
708.967437
 30
0.0
 11
1085.5
 21
714.067437
 31
0.0
  0
LINE
  5
30A
100
AcDbEntity
  8
LAY-1
  6
EXLTYPE3
 62
     1
100
AcDbLine
 10
1085.5
 20
743.067437
 30
0.0
 11
1085.5
 21
748.017437
 31
0.0
  0
LINE
  5
30B
100
AcDbEntity
  8
LAY-1
  6
EXLTYPE3
 62
     1
100
AcDbLine
 10
889.032051
 20
728.467437
 30
0.0
 11
440.032051
 21
728.467437
 31
0.0
  0
LINE
  5
30C
100
AcDbEntity
  8
LAY-1
  6
EXLTYPE3
 62
     1
100
AcDbLine
 10
1710.0
 20
728.467437
 30
0.0
 11
1750.0
 21
728.467437
 31
0.0
  0
LINE
  5
30D
100
AcDbEntity
  8
LAY-1
  6
EXLTYPE3
 62
     1
100
AcDbLine
 10
1357.967949
 20
728.467437
 30
0.0
 11
1803.967949
 21
728.467437
 31
0.0
  0
LINE
  5
30E
100
AcDbEntity
  8
LAY-1
  6
EXLTYPE3
 62
     1
100
AcDbLine
 10
1730.0
 20
658.467437
 30
0.0
 11
1730.0
 21
798.467437
 31
0.0
  0
LINE
  5
30F
100
AcDbEntity
  8
LAY-1
  6
EXLTYPE3
 62
     1
100
AcDbLine
 10
1730.0
 20
889.967437
 30
0.0
 11
1730.0
 21
566.967437
 31
0.0
  0
LINE
  5
310
100
AcDbEntity
  8
LAY-1
  6
EXLTYPE3
 62
     1
100
AcDbLine
 10
514.0
 20
889.967437
 30
0.0
 11
514.0
 21
566.967437
 31
0.0
  0
LINE
  5
311
100
AcDbEntity
  8
LAY-1
  6
EXLTYPE3
 62
     1
100
AcDbLine
 10
1252.072348
 20
728.467437
 30
0.0
 11
991.927652
 21
728.467437
 31
0.0
  0
LINE
  5
312
100
AcDbEntity
  8
LAY-1
  6
EXLTYPE3
 62
     1
100
AcDbLine
 10
1122.0
 20
894.967437
 30
0.0
 11
1122.0
 21
561.967437
 31
0.0
  0
LINE
  5
313
100
AcDbEntity
  8
LAY-1
  6
EXLTYPE2
 62
     1
100
AcDbLine
 10
1149.968009
 20
1088.736455
 30
0.0
 11
1144.152704
 21
1087.71106
 31
0.0
  0
LINE
  5
314
100
AcDbEntity
  8
LAY-1
  6
EXLTYPE2
 62
     1
100
AcDbLine
 10
1094.031992
 20
1088.736455
 30
0.0
 11
1099.709057
 21
1088.15007
 31
0.0
  0
LINE
  5
315
100
AcDbEntity
  8
LAY-1
  6
EXLTYPE2
 62
     1
100
AcDbLine
 10
1110.000001
 20
1064.961835
 30
0.0
 11
1108.150001
 21
1066.029933
 31
0.0
  0
LINE
  5
316
100
AcDbEntity
  8
LAY-1
  6
EXLTYPE2
 62
     1
100
AcDbLine
 10
1122.000001
 20
1064.961835
 30
0.0
 11
1110.000001
 21
1064.961835
 31
0.0
  0
ARC
  5
317
100
AcDbEntity
  8
LAY-1
  6
EXLTYPE2
 62
     1
100
AcDbCircle
 10
1111.610899
 20
1071.102962
 30
0.0
 40
6.141127
100
AcDbArc
 50
235.697591
 51
304.302409
  0
LINE
  5
318
100
AcDbEntity
  8
LAY-1
  6
EXLTYPE2
 62
     1
100
AcDbLine
 10
1134.000001
 20
1064.961835
 30
0.0
 11
1135.850001
 21
1066.029933
 31
0.0
  0
LINE
  5
319
100
AcDbEntity
  8
LAY-1
  6
EXLTYPE2
 62
     1
100
AcDbLine
 10
1122.000001
 20
1064.961835
 30
0.0
 11
1134.000001
 21
1064.961835
 31
0.0
  0
ARC
  5
31A
100
AcDbEntity
  8
LAY-1
  6
EXLTYPE2
 62
     1
100
AcDbCircle
 10
1132.389103
 20
1071.102962
 30
0.0
 40
6.141127
100
AcDbArc
 50
235.697591
 51
304.302409
  0
ARC
  5
31B
100
AcDbEntity
  8
LAY-1
  6
EXLTYPE2
 62
     1
100
AcDbCircle
 10
1122.000001
 20
1087.965732
 30
0.0
 40
23.003897
100
AcDbArc
 50
252.471798
 51
287.528202
  0
LINE
  5
31C
100
AcDbEntity
  8
LAY-1
  6
EXLTYPE2
 62
     1
100
AcDbLine
 10
1108.150001
 20
1077.961835
 30
0.0
 11
1108.150001
 21
1066.029933
 31
0.0
  0
LINE
  5
31D
100
AcDbEntity
  8
LAY-1
  6
EXLTYPE2
 62
     1
100
AcDbLine
 10
1115.071798
 20
1066.029933
 30
0.0
 11
1115.071798
 21
1077.961835
 31
0.0
  0
LINE
  5
31E
100
AcDbEntity
  8
LAY-1
  6
EXLTYPE2
 62
     1
100
AcDbLine
 10
1135.850001
 20
1077.961835
 30
0.0
 11
1135.850001
 21
1066.029933
 31
0.0
  0
LINE
  5
31F
100
AcDbEntity
  8
LAY-1
  6
EXLTYPE2
 62
     1
100
AcDbLine
 10
1128.928204
 20
1066.029933
 30
0.0
 11
1128.928204
 21
1077.961835
 31
0.0
  0
LINE
  5
320
100
AcDbEntity
  8
LAY-1
  6
EXLTYPE2
 62
     1
100
AcDbLine
 10
1103.5
 20
1077.961835
 30
0.0
 11
1140.5
 21
1077.961835
 31
0.0
  0
ARC
  5
321
100
AcDbEntity
  8
LAY-1
  6
EXLTYPE2
 62
     1
100
AcDbCircle
 10
1140.5
 20
1079.961835
 30
0.0
 40
2.0
100
AcDbArc
 50
270.0
 51
0.0
  0
LINE
  5
322
100
AcDbEntity
  8
LAY-1
  6
EXLTYPE2
 62
     1
100
AcDbLine
 10
1142.5
 20
1079.961835
 30
0.0
 11
1142.5
 21
1085.741444
 31
0.0
  0
ARC
  5
323
100
AcDbEntity
  8
LAY-1
  6
EXLTYPE2
 62
     1
100
AcDbCircle
 10
1144.5
 20
1085.741444
 30
0.0
 40
2.0
100
AcDbArc
 50
100.0
 51
180.0
  0
ARC
  5
324
100
AcDbEntity
  8
LAY-1
  6
EXLTYPE2
 62
     1
100
AcDbCircle
 10
1103.5
 20
1079.961835
 30
0.0
 40
2.0
100
AcDbArc
 50
180.0
 51
270.0
  0
LINE
  5
325
100
AcDbEntity
  8
LAY-1
  6
EXLTYPE2
 62
     1
100
AcDbLine
 10
1101.5
 20
1079.961835
 30
0.0
 11
1101.5
 21
1086.161027
 31
0.0
  0
ARC
  5
326
100
AcDbEntity
  8
LAY-1
  6
EXLTYPE2
 62
     1
100
AcDbCircle
 10
1099.5
 20
1086.161027
 30
0.0
 40
2.0
100
AcDbArc
 50
0.0
 51
84.0
  0
LINE
  5
327
100
AcDbEntity
  8
LAY-1
  6
EXLTYPE2
 62
     1
100
AcDbLine
 10
1130.0
 20
1027.961835
 30
0.0
 11
1130.0
 21
1064.961835
 31
0.0
  0
LINE
  5
328
100
AcDbEntity
  8
LAY-1
  6
EXLTYPE2
 62
     1
100
AcDbLine
 10
1114.0
 20
1064.961835
 30
0.0
 11
1114.0
 21
1027.961835
 31
0.0
  0
ARC
  5
329
100
AcDbEntity
  8
LAY-1
  6
EXLTYPE2
 62
     1
100
AcDbCircle
 10
1121.999998
 20
1040.965732
 30
0.0
 40
23.003897
100
AcDbArc
 50
252.471798
 51
287.528202
  0
ARC
  5
32A
100
AcDbEntity
  8
LAY-1
  6
EXLTYPE2
 62
     1
100
AcDbCircle
 10
1132.3891
 20
1024.102962
 30
0.0
 40
6.141127
100
AcDbArc
 50
235.697591
 51
304.302409
  0
LINE
  5
32B
100
AcDbEntity
  8
LAY-1
  6
EXLTYPE2
 62
     1
100
AcDbLine
 10
1128.928202
 20
1019.029933
 30
0.0
 11
1128.928202
 21
1027.961835
 31
0.0
  0
LINE
  5
32C
100
AcDbEntity
  8
LAY-1
  6
EXLTYPE2
 62
     1
100
AcDbLine
 10
1121.999998
 20
1017.961835
 30
0.0
 11
1133.999998
 21
1017.961835
 31
0.0
  0
LINE
  5
32D
100
AcDbEntity
  8
LAY-1
  6
EXLTYPE2
 62
     1
100
AcDbLine
 10
1135.849998
 20
1027.961835
 30
0.0
 11
1135.849998
 21
1019.029933
 31
0.0
  0
LINE
  5
32E
100
AcDbEntity
  8
LAY-1
  6
EXLTYPE2
 62
     1
100
AcDbLine
 10
1133.999998
 20
1017.961835
 30
0.0
 11
1135.849998
 21
1019.029933
 31
0.0
  0
LINE
  5
32F
100
AcDbEntity
  8
LAY-1
  6
EXLTYPE2
 62
     1
100
AcDbLine
 10
1121.999998
 20
1027.961835
 30
0.0
 11
1135.849998
 21
1027.961835
 31
0.0
  0
ARC
  5
330
100
AcDbEntity
  8
LAY-1
  6
EXLTYPE2
 62
     1
100
AcDbCircle
 10
1111.610897
 20
1024.102962
 30
0.0
 40
6.141127
100
AcDbArc
 50
235.697591
 51
304.302409
  0
LINE
  5
331
100
AcDbEntity
  8
LAY-1
  6
EXLTYPE2
 62
     1
100
AcDbLine
 10
1115.071795
 20
1019.029933
 30
0.0
 11
1115.071795
 21
1027.961835
 31
0.0
  0
LINE
  5
332
100
AcDbEntity
  8
LAY-1
  6
EXLTYPE2
 62
     1
100
AcDbLine
 10
1121.999998
 20
1017.961835
 30
0.0
 11
1109.999998
 21
1017.961835
 31
0.0
  0
LINE
  5
333
100
AcDbEntity
  8
LAY-1
  6
EXLTYPE2
 62
     1
100
AcDbLine
 10
1108.149998
 20
1027.961835
 30
0.0
 11
1108.149998
 21
1019.029933
 31
0.0
  0
LINE
  5
334
100
AcDbEntity
  8
LAY-1
  6
EXLTYPE2
 62
     1
100
AcDbLine
 10
1109.999998
 20
1017.961835
 30
0.0
 11
1108.149998
 21
1019.029933
 31
0.0
  0
LINE
  5
335
100
AcDbEntity
  8
LAY-1
  6
EXLTYPE2
 62
     1
100
AcDbLine
 10
1121.999998
 20
1027.961835
 30
0.0
 11
1108.149998
 21
1027.961835
 31
0.0
  0
LINE
  5
336
100
AcDbEntity
  8
LAY-1
  6
EXLTYPE4
 62
     1
100
AcDbLine
 10
1079.5
 20
1086.965185
 30
0.0
 11
1091.5
 21
1086.965185
 31
0.0
  0
LINE
  5
337
100
AcDbEntity
  8
LAY-1
  6
EXLTYPE3
 62
     1
100
AcDbLine
 10
1215.25
 20
1334.949636
 30
0.0
 11
1028.75
 21
1334.949636
 31
0.0
  0
LINE
  5
338
100
AcDbEntity
  8
LAY-1
  6
EXLTYPE2
 62
     1
100
AcDbLine
 10
1149.968009
 20
368.19842
 30
0.0
 11
1144.152704
 21
369.223815
 31
0.0
  0
LINE
  5
339
100
AcDbEntity
  8
LAY-1
  6
EXLTYPE2
 62
     1
100
AcDbLine
 10
1094.031992
 20
368.19842
 30
0.0
 11
1099.709057
 21
368.784804
 31
0.0
  0
LINE
  5
33A
100
AcDbEntity
  8
LAY-1
  6
EXLTYPE2
 62
     1
100
AcDbLine
 10
1110.000001
 20
391.97304
 30
0.0
 11
1108.150001
 21
390.904942
 31
0.0
  0
LINE
  5
33B
100
AcDbEntity
  8
LAY-1
  6
EXLTYPE2
 62
     1
100
AcDbLine
 10
1122.000001
 20
391.97304
 30
0.0
 11
1110.000001
 21
391.97304
 31
0.0
  0
ARC
  5
33C
100
AcDbEntity
  8
LAY-1
  6
EXLTYPE2
 62
     1
100
AcDbCircle
 10
1111.610899
 20
385.831913
 30
0.0
 40
6.141127
100
AcDbArc
 50
55.697591
 51
124.302409
  0
LINE
  5
33D
100
AcDbEntity
  8
LAY-1
  6
EXLTYPE2
 62
     1
100
AcDbLine
 10
1134.000001
 20
391.97304
 30
0.0
 11
1135.850001
 21
390.904942
 31
0.0
  0
LINE
  5
33E
100
AcDbEntity
  8
LAY-1
  6
EXLTYPE2
 62
     1
100
AcDbLine
 10
1122.000001
 20
391.97304
 30
0.0
 11
1134.000001
 21
391.97304
 31
0.0
  0
ARC
  5
33F
100
AcDbEntity
  8
LAY-1
  6
EXLTYPE2
 62
     1
100
AcDbCircle
 10
1132.389103
 20
385.831913
 30
0.0
 40
6.141127
100
AcDbArc
 50
55.697591
 51
124.302409
  0
ARC
  5
340
100
AcDbEntity
  8
LAY-1
  6
EXLTYPE2
 62
     1
100
AcDbCircle
 10
1122.000001
 20
368.969143
 30
0.0
 40
23.003897
100
AcDbArc
 50
72.471798
 51
107.528202
  0
LINE
  5
341
100
AcDbEntity
  8
LAY-1
  6
EXLTYPE2
 62
     1
100
AcDbLine
 10
1108.150001
 20
378.97304
 30
0.0
 11
1108.150001
 21
390.904942
 31
0.0
  0
LINE
  5
342
100
AcDbEntity
  8
LAY-1
  6
EXLTYPE2
 62
     1
100
AcDbLine
 10
1115.071798
 20
390.904942
 30
0.0
 11
1115.071798
 21
378.97304
 31
0.0
  0
LINE
  5
343
100
AcDbEntity
  8
LAY-1
  6
EXLTYPE2
 62
     1
100
AcDbLine
 10
1135.850001
 20
378.97304
 30
0.0
 11
1135.850001
 21
390.904942
 31
0.0
  0
LINE
  5
344
100
AcDbEntity
  8
LAY-1
  6
EXLTYPE2
 62
     1
100
AcDbLine
 10
1128.928204
 20
390.904942
 30
0.0
 11
1128.928204
 21
378.97304
 31
0.0
  0
LINE
  5
345
100
AcDbEntity
  8
LAY-1
  6
EXLTYPE2
 62
     1
100
AcDbLine
 10
1103.5
 20
378.97304
 30
0.0
 11
1140.5
 21
378.97304
 31
0.0
  0
ARC
  5
346
100
AcDbEntity
  8
LAY-1
  6
EXLTYPE2
 62
     1
100
AcDbCircle
 10
1140.5
 20
376.97304
 30
0.0
 40
2.0
100
AcDbArc
 50
0.0
 51
90.0
  0
LINE
  5
347
100
AcDbEntity
  8
LAY-1
  6
EXLTYPE2
 62
     1
100
AcDbLine
 10
1142.5
 20
376.97304
 30
0.0
 11
1142.5
 21
371.19343
 31
0.0
  0
ARC
  5
348
100
AcDbEntity
  8
LAY-1
  6
EXLTYPE2
 62
     1
100
AcDbCircle
 10
1144.5
 20
371.19343
 30
0.0
 40
2.0
100
AcDbArc
 50
180.0
 51
260.0
  0
ARC
  5
349
100
AcDbEntity
  8
LAY-1
  6
EXLTYPE2
 62
     1
100
AcDbCircle
 10
1103.5
 20
376.97304
 30
0.0
 40
2.0
100
AcDbArc
 50
90.0
 51
180.0
  0
LINE
  5
34A
100
AcDbEntity
  8
LAY-1
  6
EXLTYPE2
 62
     1
100
AcDbLine
 10
1101.5
 20
376.97304
 30
0.0
 11
1101.5
 21
370.773848
 31
0.0
  0
ARC
  5
34B
100
AcDbEntity
  8
LAY-1
  6
EXLTYPE2
 62
     1
100
AcDbCircle
 10
1099.5
 20
370.773848
 30
0.0
 40
2.0
100
AcDbArc
 50
276.0
 51
0.0
  0
LINE
  5
34C
100
AcDbEntity
  8
LAY-1
  6
EXLTYPE2
 62
     1
100
AcDbLine
 10
1130.0
 20
428.97304
 30
0.0
 11
1130.0
 21
391.97304
 31
0.0
  0
LINE
  5
34D
100
AcDbEntity
  8
LAY-1
  6
EXLTYPE2
 62
     1
100
AcDbLine
 10
1114.0
 20
391.97304
 30
0.0
 11
1114.0
 21
428.97304
 31
0.0
  0
ARC
  5
34E
100
AcDbEntity
  8
LAY-1
  6
EXLTYPE2
 62
     1
100
AcDbCircle
 10
1121.999998
 20
415.969143
 30
0.0
 40
23.003897
100
AcDbArc
 50
72.471798
 51
107.528202
  0
ARC
  5
34F
100
AcDbEntity
  8
LAY-1
  6
EXLTYPE2
 62
     1
100
AcDbCircle
 10
1132.3891
 20
432.831913
 30
0.0
 40
6.141127
100
AcDbArc
 50
55.697591
 51
124.302409
  0
LINE
  5
350
100
AcDbEntity
  8
LAY-1
  6
EXLTYPE2
 62
     1
100
AcDbLine
 10
1128.928202
 20
437.904942
 30
0.0
 11
1128.928202
 21
428.97304
 31
0.0
  0
LINE
  5
351
100
AcDbEntity
  8
LAY-1
  6
EXLTYPE2
 62
     1
100
AcDbLine
 10
1121.999998
 20
438.97304
 30
0.0
 11
1133.999998
 21
438.97304
 31
0.0
  0
LINE
  5
352
100
AcDbEntity
  8
LAY-1
  6
EXLTYPE2
 62
     1
100
AcDbLine
 10
1135.849998
 20
428.97304
 30
0.0
 11
1135.849998
 21
437.904942
 31
0.0
  0
LINE
  5
353
100
AcDbEntity
  8
LAY-1
  6
EXLTYPE2
 62
     1
100
AcDbLine
 10
1133.999998
 20
438.97304
 30
0.0
 11
1135.849998
 21
437.904942
 31
0.0
  0
LINE
  5
354
100
AcDbEntity
  8
LAY-1
  6
EXLTYPE2
 62
     1
100
AcDbLine
 10
1121.999998
 20
428.97304
 30
0.0
 11
1135.849998
 21
428.97304
 31
0.0
  0
ARC
  5
355
100
AcDbEntity
  8
LAY-1
  6
EXLTYPE2
 62
     1
100
AcDbCircle
 10
1111.610897
 20
432.831913
 30
0.0
 40
6.141127
100
AcDbArc
 50
55.697591
 51
124.302409
  0
LINE
  5
356
100
AcDbEntity
  8
LAY-1
  6
EXLTYPE2
 62
     1
100
AcDbLine
 10
1115.071795
 20
437.904942
 30
0.0
 11
1115.071795
 21
428.97304
 31
0.0
  0
LINE
  5
357
100
AcDbEntity
  8
LAY-1
  6
EXLTYPE2
 62
     1
100
AcDbLine
 10
1121.999998
 20
438.97304
 30
0.0
 11
1109.999998
 21
438.97304
 31
0.0
  0
LINE
  5
358
100
AcDbEntity
  8
LAY-1
  6
EXLTYPE2
 62
     1
100
AcDbLine
 10
1108.149998
 20
428.97304
 30
0.0
 11
1108.149998
 21
437.904942
 31
0.0
  0
LINE
  5
359
100
AcDbEntity
  8
LAY-1
  6
EXLTYPE2
 62
     1
100
AcDbLine
 10
1109.999998
 20
438.97304
 30
0.0
 11
1108.149998
 21
437.904942
 31
0.0
  0
LINE
  5
35A
100
AcDbEntity
  8
LAY-1
  6
EXLTYPE2
 62
     1
100
AcDbLine
 10
1121.999998
 20
428.97304
 30
0.0
 11
1108.149998
 21
428.97304
 31
0.0
  0
LINE
  5
35B
100
AcDbEntity
  8
LAY-1
  6
EXLTYPE4
 62
     1
100
AcDbLine
 10
1079.5
 20
369.969689
 30
0.0
 11
1091.5
 21
369.969689
 31
0.0
  0
LINE
  5
35C
100
AcDbEntity
  8
LAY-1
  6
EXLTYPE3
 62
     1
100
AcDbLine
 10
1215.25
 20
121.985239
 30
0.0
 11
1028.75
 21
121.985239
 31
0.0
  0
LINE
  5
35D
100
AcDbEntity
  8
LAY-1
  6
CONTINUOUS
 62
     1
100
AcDbLine
 10
580.991099
 20
776.112913
 30
0.0
 11
580.991099
 21
757.112913
 31
0.0
  0
ARC
  5
35E
100
AcDbEntity
  8
LAY-1
  6
CONTINUOUS
 62
     1
100
AcDbCircle
 10
1092.5
 20
1088.408369
 30
0.0
 40
0.5
100
AcDbArc
 50
84.0
 51
180.0
  0
ARC
  5
35F
100
AcDbEntity
  8
LAY-1
  6
CONTINUOUS
 62
     1
100
AcDbCircle
 10
1079.5
 20
1087.465185
 30
0.0
 40
0.5
100
AcDbArc
 50
180.0
 51
270.0
  0
ARC
  5
360
100
AcDbEntity
  8
LAY-1
  6
CONTINUOUS
 62
     1
100
AcDbCircle
 10
1091.5
 20
1087.465185
 30
0.0
 40
0.5
100
AcDbArc
 50
270.0
 51
0.0
  0
LINE
  5
361
100
AcDbEntity
  8
LAY-1
  6
CONTINUOUS
 62
     1
100
AcDbLine
 10
1092.0
 20
1087.465185
 30
0.0
 11
1092.0
 21
1088.408369
 31
0.0
  0
ARC
  5
362
100
AcDbEntity
  8
LAY-1
  6
CONTINUOUS
 62
     1
100
AcDbCircle
 10
1092.5
 20
1088.408369
 30
0.0
 40
0.5
100
AcDbArc
 50
84.0
 51
180.0
  0
LINE
  5
363
100
AcDbEntity
  8
LAY-1
  6
CONTINUOUS
 62
     1
100
AcDbLine
 10
1079.0
 20
1087.465185
 30
0.0
 11
1079.0
 21
1089.879829
 31
0.0
  0
ARC
  5
364
100
AcDbEntity
  8
LAY-1
  6
CONTINUOUS
 62
     1
100
AcDbCircle
 10
1078.5
 20
1089.879829
 30
0.0
 40
0.5
100
AcDbArc
 50
0.0
 51
84.0
  0
ARC
  5
365
100
AcDbEntity
  8
LAY-1
  6
CONTINUOUS
 62
     1
100
AcDbCircle
 10
1087.4
 20
1085.565185
 30
0.0
 40
0.9
100
AcDbArc
 50
270.0
 51
0.0
  0
ARC
  5
366
100
AcDbEntity
  8
LAY-1
  6
CONTINUOUS
 62
     1
100
AcDbCircle
 10
1083.6
 20
1085.565185
 30
0.0
 40
0.9
100
AcDbArc
 50
180.0
 51
270.0
  0
LINE
  5
367
100
AcDbEntity
  8
LAY-1
  6
CONTINUOUS
 62
     1
100
AcDbLine
 10
1083.6
 20
1084.665185
 30
0.0
 11
1087.4
 21
1084.665185
 31
0.0
  0
LINE
  5
368
100
AcDbEntity
  8
LAY-1
  6
CONTINUOUS
 62
     1
100
AcDbLine
 10
1088.3
 20
1085.565185
 30
0.0
 11
1088.3
 21
1086.465185
 31
0.0
  0
LINE
  5
369
100
AcDbEntity
  8
LAY-1
  6
CONTINUOUS
 62
     1
100
AcDbLine
 10
1082.7
 20
1085.565185
 30
0.0
 11
1082.7
 21
1086.465185
 31
0.0
  0
LINE
  5
36A
100
AcDbEntity
  8
LAY-1
  6
CONTINUOUS
 62
     1
100
AcDbLine
 10
1080.5
 20
1086.965185
 30
0.0
 11
1080.5
 21
1086.465185
 31
0.0
  0
LINE
  5
36B
100
AcDbEntity
  8
LAY-1
  6
CONTINUOUS
 62
     1
100
AcDbLine
 10
1080.5
 20
1086.465185
 30
0.0
 11
1090.5
 21
1086.465185
 31
0.0
  0
LINE
  5
36C
100
AcDbEntity
  8
LAY-1
  6
CONTINUOUS
 62
     1
100
AcDbLine
 10
1090.5
 20
1086.465185
 30
0.0
 11
1090.5
 21
1086.965185
 31
0.0
  0
ARC
  5
36D
100
AcDbEntity
  8
LAY-1
  6
CONTINUOUS
 62
     1
100
AcDbCircle
 10
1092.5
 20
368.526505
 30
0.0
 40
0.5
100
AcDbArc
 50
180.0
 51
276.0
  0
ARC
  5
36E
100
AcDbEntity
  8
LAY-1
  6
CONTINUOUS
 62
     1
100
AcDbCircle
 10
1079.5
 20
369.469689
 30
0.0
 40
0.5
100
AcDbArc
 50
90.0
 51
180.0
  0
ARC
  5
36F
100
AcDbEntity
  8
LAY-1
  6
CONTINUOUS
 62
     1
100
AcDbCircle
 10
1091.5
 20
369.469689
 30
0.0
 40
0.5
100
AcDbArc
 50
0.0
 51
90.0
  0
LINE
  5
370
100
AcDbEntity
  8
LAY-1
  6
CONTINUOUS
 62
     1
100
AcDbLine
 10
1092.0
 20
369.469689
 30
0.0
 11
1092.0
 21
368.526505
 31
0.0
  0
ARC
  5
371
100
AcDbEntity
  8
LAY-1
  6
CONTINUOUS
 62
     1
100
AcDbCircle
 10
1092.5
 20
368.526505
 30
0.0
 40
0.5
100
AcDbArc
 50
180.0
 51
276.0
  0
LINE
  5
372
100
AcDbEntity
  8
LAY-1
  6
CONTINUOUS
 62
     1
100
AcDbLine
 10
1079.0
 20
369.469689
 30
0.0
 11
1079.0
 21
367.055046
 31
0.0
  0
ARC
  5
373
100
AcDbEntity
  8
LAY-1
  6
CONTINUOUS
 62
     1
100
AcDbCircle
 10
1078.5
 20
367.055046
 30
0.0
 40
0.5
100
AcDbArc
 50
276.0
 51
0.0
  0
ARC
  5
374
100
AcDbEntity
  8
LAY-1
  6
CONTINUOUS
 62
     1
100
AcDbCircle
 10
1087.4
 20
371.369689
 30
0.0
 40
0.9
100
AcDbArc
 50
0.0
 51
90.0
  0
ARC
  5
375
100
AcDbEntity
  8
LAY-1
  6
CONTINUOUS
 62
     1
100
AcDbCircle
 10
1083.6
 20
371.369689
 30
0.0
 40
0.9
100
AcDbArc
 50
90.0
 51
180.0
  0
LINE
  5
376
100
AcDbEntity
  8
LAY-1
  6
CONTINUOUS
 62
     1
100
AcDbLine
 10
1083.6
 20
372.269689
 30
0.0
 11
1087.4
 21
372.269689
 31
0.0
  0
LINE
  5
377
100
AcDbEntity
  8
LAY-1
  6
CONTINUOUS
 62
     1
100
AcDbLine
 10
1088.3
 20
371.369689
 30
0.0
 11
1088.3
 21
370.469689
 31
0.0
  0
LINE
  5
378
100
AcDbEntity
  8
LAY-1
  6
CONTINUOUS
 62
     1
100
AcDbLine
 10
1082.7
 20
371.369689
 30
0.0
 11
1082.7
 21
370.469689
 31
0.0
  0
LINE
  5
379
100
AcDbEntity
  8
LAY-1
  6
CONTINUOUS
 62
     1
100
AcDbLine
 10
1080.5
 20
369.969689
 30
0.0
 11
1080.5
 21
370.469689
 31
0.0
  0
LINE
  5
37A
100
AcDbEntity
  8
LAY-1
  6
CONTINUOUS
 62
     1
100
AcDbLine
 10
1080.5
 20
370.469689
 30
0.0
 11
1090.5
 21
370.469689
 31
0.0
  0
LINE
  5
37B
100
AcDbEntity
  8
LAY-1
  6
CONTINUOUS
 62
     1
100
AcDbLine
 10
1090.5
 20
370.469689
 30
0.0
 11
1090.5
 21
369.969689
 31
0.0
  0
LINE
  5
37C
100
AcDbEntity
  8
LAY-1
  6
EXLTYPE3
 62
     1
100
AcDbLine
 10
1122.0
 20
954.967437
 30
0.0
 11
1122.0
 21
1431.967437
 31
0.0
  0
LINE
  5
37D
100
AcDbEntity
  8
LAY-1
  6
EXLTYPE3
 62
     1
100
AcDbLine
 10
1122.0
 20
501.967437
 30
0.0
 11
1122.0
 21
24.967437
 31
0.0
  0
ARC
  5
37E
100
AcDbEntity
  8
LAY-1
  6
CONTINUOUS
 62
     2
100
AcDbCircle
 10
1790.5
 20
857.876496
 30
0.0
 40
2.0
100
AcDbArc
 50
270.0
 51
0.0
  0
LINE
  5
37F
100
AcDbEntity
  8
LAY-1
  6
CONTINUOUS
 62
     2
100
AcDbLine
 10
1792.5
 20
857.876496
 30
0.0
 11
1792.5
 21
870.967437
 31
0.0
  0
LINE
  5
380
100
AcDbEntity
  8
LAY-1
  6
CONTINUOUS
 62
     2
100
AcDbLine
 10
1792.5
 20
870.967437
 30
0.0
 11
1667.5
 21
870.967437
 31
0.0
  0
LINE
  5
381
100
AcDbEntity
  8
LAY-1
  6
CONTINUOUS
 62
     2
100
AcDbLine
 10
1790.5
 20
855.876496
 30
0.0
 11
1669.5
 21
855.876496
 31
0.0
  0
LINE
  5
382
100
AcDbEntity
  8
LAY-1
  6
CONTINUOUS
 62
     2
100
AcDbLine
 10
1755.714778
 20
852.170591
 30
0.0
 11
1754.826984
 21
848.8573
 31
0.0
  0
ARC
  5
383
100
AcDbEntity
  8
LAY-1
  6
CONTINUOUS
 62
     2
100
AcDbCircle
 10
1774.145501
 20
843.680919
 30
0.0
 40
20.0
100
AcDbArc
 50
165.0
 51
197.475736
  0
ARC
  5
384
100
AcDbEntity
  8
LAY-1
  6
CONTINUOUS
 62
     2
100
AcDbCircle
 10
1774.145501
 20
843.681251
 30
0.0
 40
20.0
100
AcDbArc
 50
165.0
 51
197.475736
  0
ARC
  5
385
100
AcDbEntity
  8
LAY-1
  6
CONTINUOUS
 62
     2
100
AcDbCircle
 10
1760.544407
 20
850.876828
 30
0.0
 40
5.0
100
AcDbArc
 50
90.0
 51
165.0
  0
LINE
  5
386
100
AcDbEntity
  8
LAY-1
  6
CONTINUOUS
 62
     2
100
AcDbLine
 10
1755.714778
 20
852.170923
 30
0.0
 11
1754.826984
 21
848.857632
 31
0.0
  0
ARC
  5
387
100
AcDbEntity
  8
LAY-1
  6
CONTINUOUS
 62
     2
100
AcDbCircle
 10
574.5
 20
857.876496
 30
0.0
 40
2.0
100
AcDbArc
 50
270.0
 51
0.0
  0
LINE
  5
388
100
AcDbEntity
  8
LAY-1
  6
CONTINUOUS
 62
     2
100
AcDbLine
 10
576.5
 20
857.876496
 30
0.0
 11
576.5
 21
870.967437
 31
0.0
  0
LINE
  5
389
100
AcDbEntity
  8
LAY-1
  6
CONTINUOUS
 62
     2
100
AcDbLine
 10
576.5
 20
870.967437
 30
0.0
 11
451.5
 21
870.967437
 31
0.0
  0
ARC
  5
38A
100
AcDbEntity
  8
LAY-1
  6
CONTINUOUS
 62
     2
100
AcDbCircle
 10
453.5
 20
857.876496
 30
0.0
 40
2.0
100
AcDbArc
 50
180.0
 51
270.0
  0
LINE
  5
38B
100
AcDbEntity
  8
LAY-1
  6
CONTINUOUS
 62
     2
100
AcDbLine
 10
451.5
 20
857.876496
 30
0.0
 11
451.5
 21
870.967437
 31
0.0
  0
LINE
  5
38C
100
AcDbEntity
  8
LAY-1
  6
CONTINUOUS
 62
     2
100
AcDbLine
 10
574.5
 20
855.876496
 30
0.0
 11
453.5
 21
855.876496
 31
0.0
  0
ARC
  5
38D
100
AcDbEntity
  8
LAY-1
  6
CONTINUOUS
 62
     2
100
AcDbCircle
 10
483.455593
 20
850.876496
 30
0.0
 40
5.0
100
AcDbArc
 50
15.0
 51
90.0
  0
LINE
  5
38E
100
AcDbEntity
  8
LAY-1
  6
CONTINUOUS
 62
     2
100
AcDbLine
 10
489.173016
 20
848.8573
 30
0.0
 11
488.285222
 21
852.170591
 31
0.0
  0
LINE
  5
38F
100
AcDbEntity
  8
LAY-1
  6
CONTINUOUS
 62
     2
100
AcDbLine
 10
539.714778
 20
852.170591
 30
0.0
 11
538.826984
 21
848.8573
 31
0.0
  0
ARC
  5
390
100
AcDbEntity
  8
LAY-1
  6
CONTINUOUS
 62
     2
100
AcDbCircle
 10
558.145501
 20
843.680919
 30
0.0
 40
20.0
100
AcDbArc
 50
165.0
 51
197.475736
  0
ARC
  5
391
100
AcDbEntity
  8
LAY-1
  6
CONTINUOUS
 62
     2
100
AcDbCircle
 10
469.854499
 20
843.680919
 30
0.0
 40
20.0
100
AcDbArc
 50
342.524264
 51
15.0
  0
ARC
  5
392
100
AcDbEntity
  8
LAY-1
  6
CONTINUOUS
 62
     2
100
AcDbCircle
 10
558.145501
 20
843.681251
 30
0.0
 40
20.0
100
AcDbArc
 50
165.0
 51
197.475736
  0
ARC
  5
393
100
AcDbEntity
  8
LAY-1
  6
CONTINUOUS
 62
     2
100
AcDbCircle
 10
544.544407
 20
850.876828
 30
0.0
 40
5.0
100
AcDbArc
 50
90.0
 51
165.0
  0
LINE
  5
394
100
AcDbEntity
  8
LAY-1
  6
CONTINUOUS
 62
     2
100
AcDbLine
 10
539.714778
 20
852.170923
 30
0.0
 11
538.826984
 21
848.857632
 31
0.0
  0
ARC
  5
395
100
AcDbEntity
  8
LAY-1
  6
CONTINUOUS
 62
     2
100
AcDbCircle
 10
1182.5
 20
857.876496
 30
0.0
 40
2.0
100
AcDbArc
 50
270.0
 51
0.0
  0
LINE
  5
396
100
AcDbEntity
  8
LAY-1
  6
CONTINUOUS
 62
     2
100
AcDbLine
 10
1184.5
 20
857.876496
 30
0.0
 11
1184.5
 21
870.967437
 31
0.0
  0
LINE
  5
397
100
AcDbEntity
  8
LAY-1
  6
CONTINUOUS
 62
     2
100
AcDbLine
 10
1184.5
 20
870.967437
 30
0.0
 11
1059.5
 21
870.967437
 31
0.0
  0
ARC
  5
398
100
AcDbEntity
  8
LAY-1
  6
CONTINUOUS
 62
     2
100
AcDbCircle
 10
1061.5
 20
857.876496
 30
0.0
 40
2.0
100
AcDbArc
 50
180.0
 51
270.0
  0
LINE
  5
399
100
AcDbEntity
  8
LAY-1
  6
CONTINUOUS
 62
     2
100
AcDbLine
 10
1059.5
 20
857.876496
 30
0.0
 11
1059.5
 21
870.967437
 31
0.0
  0
LINE
  5
39A
100
AcDbEntity
  8
LAY-1
  6
CONTINUOUS
 62
     2
100
AcDbLine
 10
1182.5
 20
855.876496
 30
0.0
 11
1061.5
 21
855.876496
 31
0.0
  0
ARC
  5
39B
100
AcDbEntity
  8
LAY-1
  6
CONTINUOUS
 62
     2
100
AcDbCircle
 10
1091.455593
 20
850.876496
 30
0.0
 40
5.0
100
AcDbArc
 50
15.0
 51
90.0
  0
LINE
  5
39C
100
AcDbEntity
  8
LAY-1
  6
CONTINUOUS
 62
     2
100
AcDbLine
 10
1097.173016
 20
848.8573
 30
0.0
 11
1096.285222
 21
852.170591
 31
0.0
  0
LINE
  5
39D
100
AcDbEntity
  8
LAY-1
  6
CONTINUOUS
 62
     2
100
AcDbLine
 10
1147.714778
 20
852.170591
 30
0.0
 11
1146.826984
 21
848.8573
 31
0.0
  0
ARC
  5
39E
100
AcDbEntity
  8
LAY-1
  6
CONTINUOUS
 62
     2
100
AcDbCircle
 10
1166.145501
 20
843.680919
 30
0.0
 40
20.0
100
AcDbArc
 50
165.0
 51
197.475736
  0
ARC
  5
39F
100
AcDbEntity
  8
LAY-1
  6
CONTINUOUS
 62
     2
100
AcDbCircle
 10
1077.854499
 20
843.680919
 30
0.0
 40
20.0
100
AcDbArc
 50
342.524264
 51
15.0
  0
ARC
  5
3A0
100
AcDbEntity
  8
LAY-1
  6
CONTINUOUS
 62
     2
100
AcDbCircle
 10
1166.145501
 20
843.681251
 30
0.0
 40
20.0
100
AcDbArc
 50
165.0
 51
197.475736
  0
ARC
  5
3A1
100
AcDbEntity
  8
LAY-1
  6
CONTINUOUS
 62
     2
100
AcDbCircle
 10
1152.544407
 20
850.876828
 30
0.0
 40
5.0
100
AcDbArc
 50
90.0
 51
165.0
  0
LINE
  5
3A2
100
AcDbEntity
  8
LAY-1
  6
CONTINUOUS
 62
     2
100
AcDbLine
 10
1147.714778
 20
852.170923
 30
0.0
 11
1146.826984
 21
848.857632
 31
0.0
  0
ARC
  5
3A3
100
AcDbEntity
  8
LAY-1
  6
CONTINUOUS
 62
     2
100
AcDbCircle
 10
1414.546234
 20
730.467437
 30
0.0
 40
357.0
100
AcDbArc
 50
5.228664
 51
17.475736
  0
ARC
  5
3A4
100
AcDbEntity
  8
LAY-1
  6
CONTINUOUS
 62
     2
100
AcDbCircle
 10
829.453766
 20
730.467437
 30
0.0
 40
357.0
100
AcDbArc
 50
162.524264
 51
174.983383
  0
ARC
  5
3A5
100
AcDbEntity
  8
LAY-1
  6
CONTINUOUS
 62
     2
100
AcDbCircle
 10
198.546234
 20
730.467437
 30
0.0
 40
357.0
100
AcDbArc
 50
11.826225
 51
17.475736
  0
CIRCLE
  5
3A6
100
AcDbEntity
  8
LAY-1
  6
CONTINUOUS
 62
     2
100
AcDbCircle
 10
1122.0
 20
1334.949636
 30
0.0
 40
17.0
  0
CIRCLE
  5
3A7
100
AcDbEntity
  8
LAY-1
  6
CONTINUOUS
 62
     2
100
AcDbCircle
 10
1122.0
 20
1334.949636
 30
0.0
 40
15.0
  0
ARC
  5
3A8
100
AcDbEntity
  8
LAY-1
  6
CONTINUOUS
 62
     2
100
AcDbCircle
 10
620.982199
 20
803.883566
 30
0.0
 40
9.5
100
AcDbArc
 50
0.0
 51
39.183587
  0
ARC
  5
3A9
100
AcDbEntity
  8
LAY-1
  6
CONTINUOUS
 62
     2
100
AcDbCircle
 10
596.0
 20
796.467437
 30
0.0
 40
19.0
100
AcDbArc
 50
135.592288
 51
155.556665
  0
LINE
  5
3AA
100
AcDbEntity
  8
LAY-1
  6
CONTINUOUS
 62
     2
100
AcDbLine
 10
623.416272
 20
813.066446
 30
0.0
 11
623.342095
 21
813.086108
 31
0.0
  0
ARC
  5
3AB
100
AcDbEntity
  8
LAY-1
  6
CONTINUOUS
 62
     2
100
AcDbCircle
 10
620.982199
 20
803.883566
 30
0.0
 40
9.5
100
AcDbArc
 50
73.488336
 51
75.154214
  0
LINE
  5
3AC
100
AcDbEntity
  8
LAY-1
  6
CONTINUOUS
 62
     2
100
AcDbLine
 10
632.833693
 20
809.885735
 30
0.0
 11
623.682199
 21
809.885735
 31
0.0
  0
LINE
  5
3AD
100
AcDbEntity
  8
LAY-1
  6
CONTINUOUS
 62
     2
100
AcDbLine
 10
633.682199
 20
811.35539
 30
0.0
 11
632.833693
 21
809.885735
 31
0.0
  0
LINE
  5
3AE
100
AcDbEntity
  8
LAY-1
  6
CONTINUOUS
 62
     2
100
AcDbLine
 10
632.833693
 20
815.370563
 30
0.0
 11
623.682199
 21
815.370563
 31
0.0
  0
ARC
  5
3AF
100
AcDbEntity
  8
LAY-1
  6
CONTINUOUS
 62
     2
100
AcDbCircle
 10
628.826135
 20
812.628149
 30
0.0
 40
4.856063
100
AcDbArc
 50
325.615753
 51
34.384247
  0
LINE
  5
3B0
100
AcDbEntity
  8
LAY-1
  6
CONTINUOUS
 62
     2
100
AcDbLine
 10
633.682199
 20
820.85539
 30
0.0
 11
633.682199
 21
811.35539
 31
0.0
  0
ARC
  5
3B1
100
AcDbEntity
  8
LAY-1
  6
CONTINUOUS
 62
     2
100
AcDbCircle
 10
615.530704
 20
820.85539
 30
0.0
 40
18.151494
100
AcDbArc
 50
342.412046
 51
0.0
  0
ARC
  5
3B2
100
AcDbEntity
  8
LAY-1
  6
CONTINUOUS
 62
     2
100
AcDbCircle
 10
615.530704
 20
820.855391
 30
0.0
 40
18.151494
100
AcDbArc
 50
0.0
 51
17.587954
  0
LINE
  5
3B3
100
AcDbEntity
  8
LAY-1
  6
CONTINUOUS
 62
     2
100
AcDbLine
 10
633.682199
 20
830.355391
 30
0.0
 11
632.833693
 21
831.825046
 31
0.0
  0
LINE
  5
3B4
100
AcDbEntity
  8
LAY-1
  6
CONTINUOUS
 62
     2
100
AcDbLine
 10
633.682199
 20
820.855391
 30
0.0
 11
633.682199
 21
830.355391
 31
0.0
  0
ARC
  5
3B5
100
AcDbEntity
  8
LAY-1
  6
CONTINUOUS
 62
     2
100
AcDbCircle
 10
628.826135
 20
829.082632
 30
0.0
 40
4.856063
100
AcDbArc
 50
325.615753
 51
34.384247
  0
LINE
  5
3B6
100
AcDbEntity
  8
LAY-1
  6
CONTINUOUS
 62
     2
100
AcDbLine
 10
632.833693
 20
831.825046
 30
0.0
 11
623.682199
 21
831.825046
 31
0.0
  0
LINE
  5
3B7
100
AcDbEntity
  8
LAY-1
  6
CONTINUOUS
 62
     2
100
AcDbLine
 10
638.482199
 20
826.855391
 30
0.0
 11
638.982199
 21
826.355391
 31
0.0
  0
LINE
  5
3B8
100
AcDbEntity
  8
LAY-1
  6
CONTINUOUS
 62
     2
100
AcDbLine
 10
638.482199
 20
814.855391
 30
0.0
 11
638.982199
 21
815.355391
 31
0.0
  0
LINE
  5
3B9
100
AcDbEntity
  8
LAY-1
  6
CONTINUOUS
 62
     2
100
AcDbLine
 10
638.982199
 20
815.355391
 30
0.0
 11
638.982199
 21
826.355391
 31
0.0
  0
LINE
  5
3BA
100
AcDbEntity
  8
LAY-1
  6
CONTINUOUS
 62
     2
100
AcDbLine
 10
638.482199
 20
826.855391
 30
0.0
 11
633.682199
 21
826.855391
 31
0.0
  0
LINE
  5
3BB
100
AcDbEntity
  8
LAY-1
  6
CONTINUOUS
 62
     2
100
AcDbLine
 10
638.482199
 20
814.855391
 30
0.0
 11
633.682199
 21
814.855391
 31
0.0
  0
LINE
  5
3BC
100
AcDbEntity
  8
LAY-1
  6
CONTINUOUS
 62
     2
100
AcDbLine
 10
632.833693
 20
826.340219
 30
0.0
 11
623.682199
 21
826.340219
 31
0.0
  0
LINE
  5
3BD
100
AcDbEntity
  8
LAY-1
  6
CONTINUOUS
 62
     2
100
AcDbLine
 10
622.208478
 20
808.85539
 30
0.0
 11
620.982199
 21
808.85539
 31
0.0
  0
LINE
  5
3BE
100
AcDbEntity
  8
LAY-1
  6
CONTINUOUS
 62
     2
100
AcDbLine
 10
622.208478
 20
820.85539
 30
0.0
 11
622.208478
 21
808.85539
 31
0.0
  0
LINE
  5
3BF
100
AcDbEntity
  8
LAY-1
  6
CONTINUOUS
 62
     2
100
AcDbLine
 10
622.208478
 20
808.85539
 30
0.0
 11
623.682199
 21
814.35539
 31
0.0
  0
LINE
  5
3C0
100
AcDbEntity
  8
LAY-1
  6
CONTINUOUS
 62
     2
100
AcDbLine
 10
623.682199
 20
809.885735
 30
0.0
 11
623.682199
 21
820.85539
 31
0.0
  0
LINE
  5
3C1
100
AcDbEntity
  8
LAY-1
  6
CONTINUOUS
 62
     2
100
AcDbLine
 10
623.682199
 20
831.825046
 30
0.0
 11
623.682199
 21
820.855391
 31
0.0
  0
LINE
  5
3C2
100
AcDbEntity
  8
LAY-1
  6
CONTINUOUS
 62
     2
100
AcDbLine
 10
622.208478
 20
832.855391
 30
0.0
 11
623.682199
 21
827.355391
 31
0.0
  0
LINE
  5
3C3
100
AcDbEntity
  8
LAY-1
  6
CONTINUOUS
 62
     2
100
AcDbLine
 10
622.208478
 20
832.855391
 30
0.0
 11
620.982199
 21
832.855391
 31
0.0
  0
LINE
  5
3C4
100
AcDbEntity
  8
LAY-1
  6
CONTINUOUS
 62
     2
100
AcDbLine
 10
622.208478
 20
820.855391
 30
0.0
 11
622.208478
 21
832.855391
 31
0.0
  0
LINE
  5
3C5
100
AcDbEntity
  8
LAY-1
  6
CONTINUOUS
 62
     2
100
AcDbLine
 10
588.991099
 20
831.702178
 30
0.0
 11
581.839605
 21
831.702178
 31
0.0
  0
LINE
  5
3C6
100
AcDbEntity
  8
LAY-1
  6
CONTINUOUS
 62
     2
100
AcDbLine
 10
581.839605
 20
826.217351
 30
0.0
 11
588.991099
 21
826.217351
 31
0.0
  0
LINE
  5
3C7
100
AcDbEntity
  8
LAY-1
  6
CONTINUOUS
 62
     2
100
AcDbLine
 10
588.991099
 20
815.247696
 30
0.0
 11
581.839605
 21
815.247696
 31
0.0
  0
LINE
  5
3C8
100
AcDbEntity
  8
LAY-1
  6
CONTINUOUS
 62
     2
100
AcDbLine
 10
581.839605
 20
809.762868
 30
0.0
 11
588.991099
 21
809.762868
 31
0.0
  0
LINE
  5
3C9
100
AcDbEntity
  8
LAY-1
  6
CONTINUOUS
 62
     2
100
AcDbLine
 10
581.839605
 20
831.702178
 30
0.0
 11
580.991099
 21
830.232523
 31
0.0
  0
ARC
  5
3CA
100
AcDbEntity
  8
LAY-1
  6
CONTINUOUS
 62
     2
100
AcDbCircle
 10
585.847163
 20
828.959764
 30
0.0
 40
4.856063
100
AcDbArc
 50
145.615753
 51
214.384247
  0
ARC
  5
3CB
100
AcDbEntity
  8
LAY-1
  6
CONTINUOUS
 62
     2
100
AcDbCircle
 10
599.142594
 20
820.732523
 30
0.0
 40
18.151494
100
AcDbArc
 50
162.412046
 51
197.587954
  0
LINE
  5
3CC
100
AcDbEntity
  8
LAY-1
  6
CONTINUOUS
 62
     2
100
AcDbLine
 10
580.991099
 20
811.232523
 30
0.0
 11
581.839605
 21
809.762868
 31
0.0
  0
ARC
  5
3CD
100
AcDbEntity
  8
LAY-1
  6
CONTINUOUS
 62
     2
100
AcDbCircle
 10
585.847163
 20
812.505282
 30
0.0
 40
4.856063
100
AcDbArc
 50
145.615753
 51
214.384247
  0
LINE
  5
3CE
100
AcDbEntity
  8
LAY-1
  6
CONTINUOUS
 62
     2
100
AcDbLine
 10
580.991099
 20
830.232523
 30
0.0
 11
580.991099
 21
811.232523
 31
0.0
  0
ARC
  5
3CF
100
AcDbEntity
  8
LAY-1
  6
CONTINUOUS
 62
     2
100
AcDbCircle
 10
569.599242
 20
808.467437
 30
0.0
 40
10.0
100
AcDbArc
 50
270.0
 51
335.556665
  0
ARC
  5
3D0
100
AcDbEntity
  8
LAY-1
  6
CONTINUOUS
 62
     2
100
AcDbCircle
 10
569.599242
 20
808.467437
 30
0.0
 40
10.0
100
AcDbArc
 50
270.0
 51
335.556665
  0
LINE
  5
3D1
100
AcDbEntity
  8
LAY-1
  6
CONTINUOUS
 62
     2
100
AcDbLine
 10
569.800182
 20
798.467437
 30
0.0
 11
556.720006
 21
798.467437
 31
0.0
  0
LINE
  5
3D2
100
AcDbEntity
  8
LAY-1
  6
CONTINUOUS
 62
     2
100
AcDbLine
 10
554.022244
 20
758.467437
 30
0.0
 11
580.991788
 21
758.467437
 31
0.0
  0
ARC
  5
3D3
100
AcDbEntity
  8
LAY-1
  6
CONTINUOUS
 62
     2
100
AcDbCircle
 10
563.359886
 20
768.470869
 30
0.0
 40
10.0
100
AcDbArc
 50
186.257202
 51
270.0
  0
LINE
  5
3D4
100
AcDbEntity
  8
LAY-1
  6
CONTINUOUS
 62
     2
100
AcDbLine
 10
567.0
 20
758.467437
 30
0.0
 11
563.359886
 21
758.467437
 31
0.0
  0
ARC
  5
3D5
100
AcDbEntity
  8
LAY-1
  6
CONTINUOUS
 62
     2
100
AcDbCircle
 10
567.0
 20
768.467437
 30
0.0
 40
10.0
100
AcDbArc
 50
270.0
 51
0.0
  0
LINE
  5
3D6
100
AcDbEntity
  8
LAY-1
  6
CONTINUOUS
 62
     2
100
AcDbLine
 10
577.0
 20
796.467437
 30
0.0
 11
577.0
 21
768.467437
 31
0.0
  0
ARC
  5
3D7
100
AcDbEntity
  8
LAY-1
  6
CONTINUOUS
 62
     2
100
AcDbCircle
 10
596.0
 20
796.467437
 30
0.0
 40
19.0
100
AcDbArc
 50
155.556665
 51
180.0
  0
ARC
  5
3D8
100
AcDbEntity
  8
LAY-1
  6
CONTINUOUS
 62
     2
100
AcDbCircle
 10
556.720006
 20
808.470869
 30
0.0
 40
10.0
100
AcDbArc
 50
192.59118
 51
193.281902
  0
ARC
  5
3D9
100
AcDbEntity
  8
LAY-1
  6
CONTINUOUS
 62
     2
100
AcDbCircle
 10
556.720006
 20
808.470869
 30
0.0
 40
10.0
100
AcDbArc
 50
208.93648
 51
270.0
  0
ARC
  5
3DA
100
AcDbEntity
  8
LAY-1
  6
CONTINUOUS
 62
     2
100
AcDbCircle
 10
198.546234
 20
728.470869
 30
0.0
 40
357.0
100
AcDbArc
 50
6.257202
 51
12.571295
  0
LINE
  5
3DB
100
AcDbEntity
  8
LAY-1
  6
CONTINUOUS
 62
     2
100
AcDbLine
 10
638.982199
 20
739.467437
 30
0.0
 11
622.9124
 21
740.028607
 31
0.0
  0
LINE
  5
3DC
100
AcDbEntity
  8
LAY-1
  6
CONTINUOUS
 62
     2
100
AcDbLine
 10
638.982199
 20
717.467437
 30
0.0
 11
622.9124
 21
716.906268
 31
0.0
  0
ARC
  5
3DD
100
AcDbEntity
  8
LAY-1
  6
CONTINUOUS
 62
     2
100
AcDbCircle
 10
638.982199
 20
728.467437
 30
0.0
 40
11.0
100
AcDbArc
 50
270.0
 51
90.0
  0
CIRCLE
  5
3DE
100
AcDbEntity
  8
LAY-1
  6
CONTINUOUS
 62
     2
100
AcDbCircle
 10
638.982199
 20
728.467437
 30
0.0
 40
8.5
  0
ARC
  5
3DF
100
AcDbEntity
  8
LAY-1
  6
CONTINUOUS
 62
     2
100
AcDbCircle
 10
636.482199
 20
658.485513
 30
0.0
 40
6.0
100
AcDbArc
 50
92.4696
 51
180.0
  0
ARC
  5
3E0
100
AcDbEntity
  8
LAY-1
  6
CONTINUOUS
 62
     2
100
AcDbCircle
 10
620.982199
 20
653.05131
 30
0.0
 40
9.5
100
AcDbArc
 50
320.816407
 51
0.0
  0
LINE
  5
3E1
100
AcDbEntity
  8
LAY-1
  6
CONTINUOUS
 62
     2
100
AcDbLine
 10
630.482199
 20
739.764264
 30
0.0
 11
630.482199
 21
755.766125
 31
0.0
  0
LINE
  5
3E2
100
AcDbEntity
  8
LAY-1
  6
CONTINUOUS
 62
     2
100
AcDbLine
 10
630.482199
 20
717.170611
 30
0.0
 11
630.482199
 21
701.16875
 31
0.0
  0
LINE
  5
3E3
100
AcDbEntity
  8
LAY-1
  6
CONTINUOUS
 62
     2
100
AcDbLine
 10
630.482199
 20
679.229439
 30
0.0
 11
630.482199
 21
653.05131
 31
0.0
  0
ARC
  5
3E4
100
AcDbEntity
  8
LAY-1
  6
CONTINUOUS
 62
     2
100
AcDbCircle
 10
622.982199
 20
742.027389
 30
0.0
 40
2.0
100
AcDbArc
 50
180.0
 51
268.0
  0
ARC
  5
3E5
100
AcDbEntity
  8
LAY-1
  6
CONTINUOUS
 62
     2
100
AcDbCircle
 10
622.982199
 20
714.907486
 30
0.0
 40
2.0
100
AcDbArc
 50
92.0
 51
180.0
  0
LINE
  5
3E6
100
AcDbEntity
  8
LAY-1
  6
CONTINUOUS
 62
     2
100
AcDbLine
 10
605.982199
 20
616.467438
 30
0.0
 11
618.982199
 21
616.467438
 31
0.0
  0
ARC
  5
3E7
100
AcDbEntity
  8
LAY-1
  6
CONTINUOUS
 62
     2
100
AcDbCircle
 10
618.982199
 20
618.467438
 30
0.0
 40
2.0
100
AcDbArc
 50
270.0
 51
0.0
  0
LINE
  5
3E8
100
AcDbEntity
  8
LAY-1
  6
CONTINUOUS
 62
     2
100
AcDbLine
 10
604.0
 20
728.467437
 30
0.0
 11
604.0
 21
616.467437
 31
0.0
  0
ARC
  5
3E9
100
AcDbEntity
  8
LAY-1
  6
CONTINUOUS
 62
     2
100
AcDbCircle
 10
591.0
 20
618.467437
 30
0.0
 40
2.0
100
AcDbArc
 50
180.0
 51
270.0
  0
LINE
  5
3EA
100
AcDbEntity
  8
LAY-1
  6
CONTINUOUS
 62
     2
100
AcDbLine
 10
604.0
 20
616.467437
 30
0.0
 11
591.0
 21
616.467437
 31
0.0
  0
ARC
  5
3EB
100
AcDbEntity
  8
LAY-1
  6
CONTINUOUS
 62
     2
100
AcDbCircle
 10
593.0
 20
728.467437
 30
0.0
 40
11.0
100
AcDbArc
 50
117.486426
 51
242.513574
  0
ARC
  5
3EC
100
AcDbEntity
  8
LAY-1
  6
CONTINUOUS
 62
     2
100
AcDbCircle
 10
587.0
 20
740.0
 30
0.0
 40
2.0
100
AcDbArc
 50
297.486426
 51
0.0
  0
ARC
  5
3ED
100
AcDbEntity
  8
LAY-1
  6
CONTINUOUS
 62
     2
100
AcDbCircle
 10
587.0
 20
716.934875
 30
0.0
 40
2.0
100
AcDbArc
 50
0.0
 51
62.513574
  0
LINE
  5
3EE
100
AcDbEntity
  8
LAY-1
  6
CONTINUOUS
 62
     2
100
AcDbLine
 10
623.416272
 20
643.86843
 30
0.0
 11
623.342095
 21
643.848768
 31
0.0
  0
ARC
  5
3EF
100
AcDbEntity
  8
LAY-1
  6
CONTINUOUS
 62
     2
100
AcDbCircle
 10
620.982199
 20
653.05131
 30
0.0
 40
9.5
100
AcDbArc
 50
284.845786
 51
286.511664
  0
ARC
  5
3F0
100
AcDbEntity
  8
LAY-1
  6
CONTINUOUS
 62
     2
100
AcDbCircle
 10
596.0
 20
660.467437
 30
0.0
 40
19.0
100
AcDbArc
 50
204.443335
 51
225.454444
  0
LINE
  5
3F1
100
AcDbEntity
  8
LAY-1
  6
CONTINUOUS
 62
     2
100
AcDbLine
 10
589.0
 20
716.934875
 30
0.0
 11
589.0
 21
618.467437
 31
0.0
  0
LINE
  5
3F2
100
AcDbEntity
  8
LAY-1
  6
CONTINUOUS
 62
     2
100
AcDbLine
 10
620.982199
 20
714.907486
 30
0.0
 11
620.982199
 21
618.467438
 31
0.0
  0
LINE
  5
3F3
100
AcDbEntity
  8
LAY-1
  6
EXLTYPE3
 62
     2
100
AcDbLine
 10
638.982199
 20
715.367437
 30
0.0
 11
638.982199
 21
741.767437
 31
0.0
  0
LINE
  5
3F4
100
AcDbEntity
  8
LAY-1
  6
CONTINUOUS
 62
     2
100
AcDbLine
 10
632.833693
 20
625.109829
 30
0.0
 11
623.682199
 21
625.109829
 31
0.0
  0
LINE
  5
3F5
100
AcDbEntity
  8
LAY-1
  6
CONTINUOUS
 62
     2
100
AcDbLine
 10
633.682199
 20
626.579484
 30
0.0
 11
632.833693
 21
625.109829
 31
0.0
  0
LINE
  5
3F6
100
AcDbEntity
  8
LAY-1
  6
CONTINUOUS
 62
     2
100
AcDbLine
 10
632.833693
 20
630.594656
 30
0.0
 11
623.682199
 21
630.594656
 31
0.0
  0
ARC
  5
3F7
100
AcDbEntity
  8
LAY-1
  6
CONTINUOUS
 62
     2
100
AcDbCircle
 10
628.826135
 20
627.852242
 30
0.0
 40
4.856063
100
AcDbArc
 50
325.615753
 51
34.384247
  0
LINE
  5
3F8
100
AcDbEntity
  8
LAY-1
  6
CONTINUOUS
 62
     2
100
AcDbLine
 10
633.682199
 20
636.079484
 30
0.0
 11
633.682199
 21
626.579484
 31
0.0
  0
ARC
  5
3F9
100
AcDbEntity
  8
LAY-1
  6
CONTINUOUS
 62
     2
100
AcDbCircle
 10
615.530704
 20
636.079484
 30
0.0
 40
18.151494
100
AcDbArc
 50
342.412046
 51
0.0
  0
ARC
  5
3FA
100
AcDbEntity
  8
LAY-1
  6
CONTINUOUS
 62
     2
100
AcDbCircle
 10
615.530704
 20
636.079485
 30
0.0
 40
18.151494
100
AcDbArc
 50
0.0
 51
17.587954
  0
LINE
  5
3FB
100
AcDbEntity
  8
LAY-1
  6
CONTINUOUS
 62
     2
100
AcDbLine
 10
633.682199
 20
645.579485
 30
0.0
 11
632.833693
 21
647.04914
 31
0.0
  0
LINE
  5
3FC
100
AcDbEntity
  8
LAY-1
  6
CONTINUOUS
 62
     2
100
AcDbLine
 10
633.682199
 20
636.079485
 30
0.0
 11
633.682199
 21
645.579485
 31
0.0
  0
ARC
  5
3FD
100
AcDbEntity
  8
LAY-1
  6
CONTINUOUS
 62
     2
100
AcDbCircle
 10
628.826135
 20
644.306726
 30
0.0
 40
4.856063
100
AcDbArc
 50
325.615753
 51
34.384247
  0
LINE
  5
3FE
100
AcDbEntity
  8
LAY-1
  6
CONTINUOUS
 62
     2
100
AcDbLine
 10
632.833693
 20
647.04914
 30
0.0
 11
623.682199
 21
647.04914
 31
0.0
  0
LINE
  5
3FF
100
AcDbEntity
  8
LAY-1
  6
CONTINUOUS
 62
     2
100
AcDbLine
 10
638.482199
 20
642.079484
 30
0.0
 11
638.982199
 21
641.579484
 31
0.0
  0
LINE
  5
400
100
AcDbEntity
  8
LAY-1
  6
CONTINUOUS
 62
     2
100
AcDbLine
 10
638.482199
 20
630.079484
 30
0.0
 11
638.982199
 21
630.579484
 31
0.0
  0
LINE
  5
401
100
AcDbEntity
  8
LAY-1
  6
CONTINUOUS
 62
     2
100
AcDbLine
 10
638.982199
 20
630.579484
 30
0.0
 11
638.982199
 21
641.579484
 31
0.0
  0
LINE
  5
402
100
AcDbEntity
  8
LAY-1
  6
CONTINUOUS
 62
     2
100
AcDbLine
 10
638.482199
 20
642.079484
 30
0.0
 11
633.682199
 21
642.079484
 31
0.0
  0
LINE
  5
403
100
AcDbEntity
  8
LAY-1
  6
CONTINUOUS
 62
     2
100
AcDbLine
 10
638.482199
 20
630.079484
 30
0.0
 11
633.682199
 21
630.079484
 31
0.0
  0
LINE
  5
404
100
AcDbEntity
  8
LAY-1
  6
CONTINUOUS
 62
     2
100
AcDbLine
 10
632.833693
 20
641.564312
 30
0.0
 11
623.682199
 21
641.564312
 31
0.0
  0
LINE
  5
405
100
AcDbEntity
  8
LAY-1
  6
CONTINUOUS
 62
     2
100
AcDbLine
 10
632.833693
 20
679.229439
 30
0.0
 11
623.682199
 21
679.229439
 31
0.0
  0
LINE
  5
406
100
AcDbEntity
  8
LAY-1
  6
CONTINUOUS
 62
     2
100
AcDbLine
 10
633.682199
 20
680.699094
 30
0.0
 11
632.833693
 21
679.229439
 31
0.0
  0
LINE
  5
407
100
AcDbEntity
  8
LAY-1
  6
CONTINUOUS
 62
     2
100
AcDbLine
 10
632.833693
 20
684.714266
 30
0.0
 11
623.682199
 21
684.714266
 31
0.0
  0
ARC
  5
408
100
AcDbEntity
  8
LAY-1
  6
CONTINUOUS
 62
     2
100
AcDbCircle
 10
628.826135
 20
681.971852
 30
0.0
 40
4.856063
100
AcDbArc
 50
325.615753
 51
34.384247
  0
LINE
  5
409
100
AcDbEntity
  8
LAY-1
  6
CONTINUOUS
 62
     2
100
AcDbLine
 10
633.682199
 20
690.199094
 30
0.0
 11
633.682199
 21
680.699094
 31
0.0
  0
ARC
  5
40A
100
AcDbEntity
  8
LAY-1
  6
CONTINUOUS
 62
     2
100
AcDbCircle
 10
615.530704
 20
690.199094
 30
0.0
 40
18.151494
100
AcDbArc
 50
342.412046
 51
0.0
  0
ARC
  5
40B
100
AcDbEntity
  8
LAY-1
  6
CONTINUOUS
 62
     2
100
AcDbCircle
 10
615.530704
 20
690.199095
 30
0.0
 40
18.151494
100
AcDbArc
 50
0.0
 51
17.587954
  0
LINE
  5
40C
100
AcDbEntity
  8
LAY-1
  6
CONTINUOUS
 62
     2
100
AcDbLine
 10
633.682199
 20
699.699095
 30
0.0
 11
632.833693
 21
701.16875
 31
0.0
  0
LINE
  5
40D
100
AcDbEntity
  8
LAY-1
  6
CONTINUOUS
 62
     2
100
AcDbLine
 10
633.682199
 20
690.199095
 30
0.0
 11
633.682199
 21
699.699095
 31
0.0
  0
ARC
  5
40E
100
AcDbEntity
  8
LAY-1
  6
CONTINUOUS
 62
     2
100
AcDbCircle
 10
628.826135
 20
698.426336
 30
0.0
 40
4.856063
100
AcDbArc
 50
325.615753
 51
34.384247
  0
LINE
  5
40F
100
AcDbEntity
  8
LAY-1
  6
CONTINUOUS
 62
     2
100
AcDbLine
 10
632.833693
 20
701.16875
 30
0.0
 11
623.682199
 21
701.16875
 31
0.0
  0
LINE
  5
410
100
AcDbEntity
  8
LAY-1
  6
CONTINUOUS
 62
     2
100
AcDbLine
 10
638.482199
 20
696.199094
 30
0.0
 11
638.982199
 21
695.699094
 31
0.0
  0
LINE
  5
411
100
AcDbEntity
  8
LAY-1
  6
CONTINUOUS
 62
     2
100
AcDbLine
 10
638.482199
 20
684.199094
 30
0.0
 11
638.982199
 21
684.699094
 31
0.0
  0
LINE
  5
412
100
AcDbEntity
  8
LAY-1
  6
CONTINUOUS
 62
     2
100
AcDbLine
 10
638.982199
 20
684.699094
 30
0.0
 11
638.982199
 21
695.699094
 31
0.0
  0
LINE
  5
413
100
AcDbEntity
  8
LAY-1
  6
CONTINUOUS
 62
     2
100
AcDbLine
 10
638.482199
 20
696.199094
 30
0.0
 11
633.682199
 21
696.199094
 31
0.0
  0
LINE
  5
414
100
AcDbEntity
  8
LAY-1
  6
CONTINUOUS
 62
     2
100
AcDbLine
 10
638.482199
 20
684.199094
 30
0.0
 11
633.682199
 21
684.199094
 31
0.0
  0
LINE
  5
415
100
AcDbEntity
  8
LAY-1
  6
CONTINUOUS
 62
     2
100
AcDbLine
 10
632.833693
 20
695.683922
 30
0.0
 11
623.682199
 21
695.683922
 31
0.0
  0
LINE
  5
416
100
AcDbEntity
  8
LAY-1
  6
CONTINUOUS
 62
     2
100
AcDbLine
 10
632.833693
 20
755.766125
 30
0.0
 11
623.682199
 21
755.766125
 31
0.0
  0
LINE
  5
417
100
AcDbEntity
  8
LAY-1
  6
CONTINUOUS
 62
     2
100
AcDbLine
 10
633.682199
 20
757.23578
 30
0.0
 11
632.833693
 21
755.766125
 31
0.0
  0
LINE
  5
418
100
AcDbEntity
  8
LAY-1
  6
CONTINUOUS
 62
     2
100
AcDbLine
 10
632.833693
 20
761.250953
 30
0.0
 11
623.682199
 21
761.250953
 31
0.0
  0
ARC
  5
419
100
AcDbEntity
  8
LAY-1
  6
CONTINUOUS
 62
     2
100
AcDbCircle
 10
628.826135
 20
758.508539
 30
0.0
 40
4.856063
100
AcDbArc
 50
325.615753
 51
34.384247
  0
LINE
  5
41A
100
AcDbEntity
  8
LAY-1
  6
CONTINUOUS
 62
     2
100
AcDbLine
 10
633.682199
 20
766.73578
 30
0.0
 11
633.682199
 21
757.23578
 31
0.0
  0
ARC
  5
41B
100
AcDbEntity
  8
LAY-1
  6
CONTINUOUS
 62
     2
100
AcDbCircle
 10
615.530704
 20
766.73578
 30
0.0
 40
18.151494
100
AcDbArc
 50
342.412046
 51
0.0
  0
ARC
  5
41C
100
AcDbEntity
  8
LAY-1
  6
CONTINUOUS
 62
     2
100
AcDbCircle
 10
615.530704
 20
766.735781
 30
0.0
 40
18.151494
100
AcDbArc
 50
0.0
 51
17.587954
  0
LINE
  5
41D
100
AcDbEntity
  8
LAY-1
  6
CONTINUOUS
 62
     2
100
AcDbLine
 10
633.682199
 20
776.235781
 30
0.0
 11
632.833693
 21
777.705436
 31
0.0
  0
LINE
  5
41E
100
AcDbEntity
  8
LAY-1
  6
CONTINUOUS
 62
     2
100
AcDbLine
 10
633.682199
 20
766.735781
 30
0.0
 11
633.682199
 21
776.235781
 31
0.0
  0
ARC
  5
41F
100
AcDbEntity
  8
LAY-1
  6
CONTINUOUS
 62
     2
100
AcDbCircle
 10
628.826135
 20
774.963022
 30
0.0
 40
4.856063
100
AcDbArc
 50
325.615753
 51
34.384247
  0
LINE
  5
420
100
AcDbEntity
  8
LAY-1
  6
CONTINUOUS
 62
     2
100
AcDbLine
 10
632.833693
 20
777.705436
 30
0.0
 11
623.682199
 21
777.705436
 31
0.0
  0
LINE
  5
421
100
AcDbEntity
  8
LAY-1
  6
CONTINUOUS
 62
     2
100
AcDbLine
 10
638.482199
 20
772.735781
 30
0.0
 11
638.982199
 21
772.235781
 31
0.0
  0
LINE
  5
422
100
AcDbEntity
  8
LAY-1
  6
CONTINUOUS
 62
     2
100
AcDbLine
 10
638.482199
 20
760.735781
 30
0.0
 11
638.982199
 21
761.235781
 31
0.0
  0
LINE
  5
423
100
AcDbEntity
  8
LAY-1
  6
CONTINUOUS
 62
     2
100
AcDbLine
 10
638.982199
 20
761.235781
 30
0.0
 11
638.982199
 21
772.235781
 31
0.0
  0
LINE
  5
424
100
AcDbEntity
  8
LAY-1
  6
CONTINUOUS
 62
     2
100
AcDbLine
 10
638.482199
 20
772.735781
 30
0.0
 11
633.682199
 21
772.735781
 31
0.0
  0
LINE
  5
425
100
AcDbEntity
  8
LAY-1
  6
CONTINUOUS
 62
     2
100
AcDbLine
 10
638.482199
 20
760.735781
 30
0.0
 11
633.682199
 21
760.735781
 31
0.0
  0
LINE
  5
426
100
AcDbEntity
  8
LAY-1
  6
CONTINUOUS
 62
     2
100
AcDbLine
 10
632.833693
 20
772.220609
 30
0.0
 11
623.682199
 21
772.220609
 31
0.0
  0
LINE
  5
427
100
AcDbEntity
  8
LAY-1
  6
CONTINUOUS
 62
     2
100
AcDbLine
 10
577.0
 20
660.467437
 30
0.0
 11
577.0
 21
688.467437
 31
0.0
  0
ARC
  5
428
100
AcDbEntity
  8
LAY-1
  6
CONTINUOUS
 62
     2
100
AcDbCircle
 10
596.0
 20
660.467437
 30
0.0
 40
19.0
100
AcDbArc
 50
180.0
 51
204.443335
  0
LINE
  5
429
100
AcDbEntity
  8
LAY-1
  6
CONTINUOUS
 62
     2
100
AcDbLine
 10
622.208478
 20
624.079484
 30
0.0
 11
620.982199
 21
624.079484
 31
0.0
  0
LINE
  5
42A
100
AcDbEntity
  8
LAY-1
  6
CONTINUOUS
 62
     2
100
AcDbLine
 10
622.208478
 20
636.079484
 30
0.0
 11
622.208478
 21
624.079484
 31
0.0
  0
LINE
  5
42B
100
AcDbEntity
  8
LAY-1
  6
CONTINUOUS
 62
     2
100
AcDbLine
 10
622.208478
 20
624.079484
 30
0.0
 11
623.682199
 21
629.579484
 31
0.0
  0
LINE
  5
42C
100
AcDbEntity
  8
LAY-1
  6
CONTINUOUS
 62
     2
100
AcDbLine
 10
623.682199
 20
625.109829
 30
0.0
 11
623.682199
 21
636.079484
 31
0.0
  0
LINE
  5
42D
100
AcDbEntity
  8
LAY-1
  6
CONTINUOUS
 62
     2
100
AcDbLine
 10
623.682199
 20
647.04914
 30
0.0
 11
623.682199
 21
636.079485
 31
0.0
  0
LINE
  5
42E
100
AcDbEntity
  8
LAY-1
  6
CONTINUOUS
 62
     2
100
AcDbLine
 10
622.208478
 20
648.079485
 30
0.0
 11
623.682199
 21
642.579485
 31
0.0
  0
LINE
  5
42F
100
AcDbEntity
  8
LAY-1
  6
CONTINUOUS
 62
     2
100
AcDbLine
 10
622.208478
 20
648.079485
 30
0.0
 11
620.982199
 21
648.079485
 31
0.0
  0
LINE
  5
430
100
AcDbEntity
  8
LAY-1
  6
CONTINUOUS
 62
     2
100
AcDbLine
 10
622.208478
 20
636.079485
 30
0.0
 11
622.208478
 21
648.079485
 31
0.0
  0
LINE
  5
431
100
AcDbEntity
  8
LAY-1
  6
CONTINUOUS
 62
     2
100
AcDbLine
 10
588.991099
 20
646.926272
 30
0.0
 11
581.839605
 21
646.926272
 31
0.0
  0
LINE
  5
432
100
AcDbEntity
  8
LAY-1
  6
CONTINUOUS
 62
     2
100
AcDbLine
 10
581.839605
 20
641.441444
 30
0.0
 11
588.991099
 21
641.441444
 31
0.0
  0
LINE
  5
433
100
AcDbEntity
  8
LAY-1
  6
CONTINUOUS
 62
     2
100
AcDbLine
 10
588.991099
 20
630.471789
 30
0.0
 11
581.839605
 21
630.471789
 31
0.0
  0
LINE
  5
434
100
AcDbEntity
  8
LAY-1
  6
CONTINUOUS
 62
     2
100
AcDbLine
 10
581.839605
 20
624.986961
 30
0.0
 11
588.991099
 21
624.986961
 31
0.0
  0
LINE
  5
435
100
AcDbEntity
  8
LAY-1
  6
CONTINUOUS
 62
     2
100
AcDbLine
 10
581.839605
 20
646.926272
 30
0.0
 11
580.991099
 21
645.456617
 31
0.0
  0
ARC
  5
436
100
AcDbEntity
  8
LAY-1
  6
CONTINUOUS
 62
     2
100
AcDbCircle
 10
585.847163
 20
644.183858
 30
0.0
 40
4.856063
100
AcDbArc
 50
145.615753
 51
214.384247
  0
ARC
  5
437
100
AcDbEntity
  8
LAY-1
  6
CONTINUOUS
 62
     2
100
AcDbCircle
 10
599.142594
 20
635.956617
 30
0.0
 40
18.151494
100
AcDbArc
 50
162.412046
 51
197.587954
  0
LINE
  5
438
100
AcDbEntity
  8
LAY-1
  6
CONTINUOUS
 62
     2
100
AcDbLine
 10
580.991099
 20
626.456617
 30
0.0
 11
581.839605
 21
624.986961
 31
0.0
  0
ARC
  5
439
100
AcDbEntity
  8
LAY-1
  6
CONTINUOUS
 62
     2
100
AcDbCircle
 10
585.847163
 20
627.729375
 30
0.0
 40
4.856063
100
AcDbArc
 50
145.615753
 51
214.384247
  0
LINE
  5
43A
100
AcDbEntity
  8
LAY-1
  6
CONTINUOUS
 62
     2
100
AcDbLine
 10
580.991099
 20
645.456617
 30
0.0
 11
580.991099
 21
626.456617
 31
0.0
  0
LINE
  5
43B
100
AcDbEntity
  8
LAY-1
  6
CONTINUOUS
 62
     2
100
AcDbLine
 10
622.208478
 20
678.199094
 30
0.0
 11
620.982199
 21
678.199094
 31
0.0
  0
LINE
  5
43C
100
AcDbEntity
  8
LAY-1
  6
CONTINUOUS
 62
     2
100
AcDbLine
 10
622.208478
 20
690.199094
 30
0.0
 11
622.208478
 21
678.199094
 31
0.0
  0
LINE
  5
43D
100
AcDbEntity
  8
LAY-1
  6
CONTINUOUS
 62
     2
100
AcDbLine
 10
622.208478
 20
678.199094
 30
0.0
 11
623.682199
 21
683.699094
 31
0.0
  0
LINE
  5
43E
100
AcDbEntity
  8
LAY-1
  6
CONTINUOUS
 62
     2
100
AcDbLine
 10
623.682199
 20
679.229439
 30
0.0
 11
623.682199
 21
690.199094
 31
0.0
  0
LINE
  5
43F
100
AcDbEntity
  8
LAY-1
  6
CONTINUOUS
 62
     2
100
AcDbLine
 10
623.682199
 20
701.16875
 30
0.0
 11
623.682199
 21
690.199095
 31
0.0
  0
LINE
  5
440
100
AcDbEntity
  8
LAY-1
  6
CONTINUOUS
 62
     2
100
AcDbLine
 10
622.208478
 20
702.199095
 30
0.0
 11
623.682199
 21
696.699095
 31
0.0
  0
LINE
  5
441
100
AcDbEntity
  8
LAY-1
  6
CONTINUOUS
 62
     2
100
AcDbLine
 10
622.208478
 20
702.199095
 30
0.0
 11
620.982199
 21
702.199095
 31
0.0
  0
LINE
  5
442
100
AcDbEntity
  8
LAY-1
  6
CONTINUOUS
 62
     2
100
AcDbLine
 10
622.208478
 20
690.199095
 30
0.0
 11
622.208478
 21
702.199095
 31
0.0
  0
LINE
  5
443
100
AcDbEntity
  8
LAY-1
  6
CONTINUOUS
 62
     2
100
AcDbLine
 10
588.991099
 20
701.045882
 30
0.0
 11
581.839605
 21
701.045882
 31
0.0
  0
LINE
  5
444
100
AcDbEntity
  8
LAY-1
  6
CONTINUOUS
 62
     2
100
AcDbLine
 10
581.839605
 20
695.561054
 30
0.0
 11
588.991099
 21
695.561054
 31
0.0
  0
LINE
  5
445
100
AcDbEntity
  8
LAY-1
  6
CONTINUOUS
 62
     2
100
AcDbLine
 10
588.991099
 20
684.591399
 30
0.0
 11
581.839605
 21
684.591399
 31
0.0
  0
LINE
  5
446
100
AcDbEntity
  8
LAY-1
  6
CONTINUOUS
 62
     2
100
AcDbLine
 10
581.839605
 20
679.106571
 30
0.0
 11
588.991099
 21
679.106571
 31
0.0
  0
LINE
  5
447
100
AcDbEntity
  8
LAY-1
  6
CONTINUOUS
 62
     2
100
AcDbLine
 10
581.839605
 20
701.045882
 30
0.0
 11
580.991099
 21
699.576227
 31
0.0
  0
ARC
  5
448
100
AcDbEntity
  8
LAY-1
  6
CONTINUOUS
 62
     2
100
AcDbCircle
 10
585.847163
 20
698.303468
 30
0.0
 40
4.856063
100
AcDbArc
 50
145.615753
 51
214.384247
  0
ARC
  5
449
100
AcDbEntity
  8
LAY-1
  6
CONTINUOUS
 62
     2
100
AcDbCircle
 10
599.142594
 20
690.076227
 30
0.0
 40
18.151494
100
AcDbArc
 50
162.412046
 51
197.587954
  0
LINE
  5
44A
100
AcDbEntity
  8
LAY-1
  6
CONTINUOUS
 62
     2
100
AcDbLine
 10
580.991099
 20
680.576227
 30
0.0
 11
581.839605
 21
679.106571
 31
0.0
  0
ARC
  5
44B
100
AcDbEntity
  8
LAY-1
  6
CONTINUOUS
 62
     2
100
AcDbCircle
 10
585.847163
 20
681.848985
 30
0.0
 40
4.856063
100
AcDbArc
 50
145.615753
 51
214.384247
  0
LINE
  5
44C
100
AcDbEntity
  8
LAY-1
  6
CONTINUOUS
 62
     2
100
AcDbLine
 10
580.991099
 20
699.576227
 30
0.0
 11
580.991099
 21
680.576227
 31
0.0
  0
LINE
  5
44D
100
AcDbEntity
  8
LAY-1
  6
CONTINUOUS
 62
     2
100
AcDbLine
 10
622.208478
 20
754.73578
 30
0.0
 11
620.982199
 21
754.73578
 31
0.0
  0
LINE
  5
44E
100
AcDbEntity
  8
LAY-1
  6
CONTINUOUS
 62
     2
100
AcDbLine
 10
622.208478
 20
766.73578
 30
0.0
 11
622.208478
 21
754.73578
 31
0.0
  0
LINE
  5
44F
100
AcDbEntity
  8
LAY-1
  6
CONTINUOUS
 62
     2
100
AcDbLine
 10
622.208478
 20
754.73578
 30
0.0
 11
623.682199
 21
760.23578
 31
0.0
  0
LINE
  5
450
100
AcDbEntity
  8
LAY-1
  6
CONTINUOUS
 62
     2
100
AcDbLine
 10
623.682199
 20
755.766125
 30
0.0
 11
623.682199
 21
766.73578
 31
0.0
  0
LINE
  5
451
100
AcDbEntity
  8
LAY-1
  6
CONTINUOUS
 62
     2
100
AcDbLine
 10
623.682199
 20
777.705436
 30
0.0
 11
623.682199
 21
766.735781
 31
0.0
  0
LINE
  5
452
100
AcDbEntity
  8
LAY-1
  6
CONTINUOUS
 62
     2
100
AcDbLine
 10
622.208478
 20
778.735781
 30
0.0
 11
623.682199
 21
773.235781
 31
0.0
  0
LINE
  5
453
100
AcDbEntity
  8
LAY-1
  6
CONTINUOUS
 62
     2
100
AcDbLine
 10
622.208478
 20
778.735781
 30
0.0
 11
620.982199
 21
778.735781
 31
0.0
  0
LINE
  5
454
100
AcDbEntity
  8
LAY-1
  6
CONTINUOUS
 62
     2
100
AcDbLine
 10
622.208478
 20
766.735781
 30
0.0
 11
622.208478
 21
778.735781
 31
0.0
  0
LINE
  5
455
100
AcDbEntity
  8
LAY-1
  6
CONTINUOUS
 62
     2
100
AcDbLine
 10
588.991099
 20
777.582568
 30
0.0
 11
581.839605
 21
777.582568
 31
0.0
  0
LINE
  5
456
100
AcDbEntity
  8
LAY-1
  6
CONTINUOUS
 62
     2
100
AcDbLine
 10
581.839605
 20
772.097741
 30
0.0
 11
588.991099
 21
772.097741
 31
0.0
  0
LINE
  5
457
100
AcDbEntity
  8
LAY-1
  6
CONTINUOUS
 62
     2
100
AcDbLine
 10
588.991099
 20
761.128085
 30
0.0
 11
581.839605
 21
761.128085
 31
0.0
  0
LINE
  5
458
100
AcDbEntity
  8
LAY-1
  6
CONTINUOUS
 62
     2
100
AcDbLine
 10
581.839605
 20
755.643258
 30
0.0
 11
588.991099
 21
755.643258
 31
0.0
  0
LINE
  5
459
100
AcDbEntity
  8
LAY-1
  6
CONTINUOUS
 62
     2
100
AcDbLine
 10
581.839605
 20
777.582568
 30
0.0
 11
580.991099
 21
776.112913
 31
0.0
  0
ARC
  5
45A
100
AcDbEntity
  8
LAY-1
  6
CONTINUOUS
 62
     2
100
AcDbCircle
 10
585.847163
 20
774.840154
 30
0.0
 40
4.856063
100
AcDbArc
 50
145.615753
 51
214.384247
  0
ARC
  5
45B
100
AcDbEntity
  8
LAY-1
  6
CONTINUOUS
 62
     2
100
AcDbCircle
 10
599.142594
 20
766.612913
 30
0.0
 40
18.151494
100
AcDbArc
 50
162.412046
 51
197.587954
  0
LINE
  5
45C
100
AcDbEntity
  8
LAY-1
  6
CONTINUOUS
 62
     2
100
AcDbLine
 10
580.991099
 20
757.112913
 30
0.0
 11
581.839605
 21
755.643258
 31
0.0
  0
ARC
  5
45D
100
AcDbEntity
  8
LAY-1
  6
CONTINUOUS
 62
     2
100
AcDbCircle
 10
585.847163
 20
758.385672
 30
0.0
 40
4.856063
100
AcDbArc
 50
145.615753
 51
214.384247
  0
LINE
  5
45E
100
AcDbEntity
  8
LAY-1
  6
CONTINUOUS
 62
     2
100
AcDbLine
 10
569.800182
 20
658.467437
 30
0.0
 11
556.720006
 21
658.467437
 31
0.0
  0
ARC
  5
45F
100
AcDbEntity
  8
LAY-1
  6
CONTINUOUS
 62
     2
100
AcDbCircle
 10
556.721539
 20
648.470869
 30
0.0
 40
10.0
100
AcDbArc
 50
90.0
 51
167.409918
  0
ARC
  5
460
100
AcDbEntity
  8
LAY-1
  6
CONTINUOUS
 62
     2
100
AcDbCircle
 10
198.546234
 20
728.464005
 30
0.0
 40
357.0
100
AcDbArc
 50
347.409369
 51
353.742798
  0
LINE
  5
461
100
AcDbEntity
  8
LAY-1
  6
CONTINUOUS
 62
     2
100
AcDbLine
 10
567.0
 20
698.467437
 30
0.0
 11
563.359886
 21
698.467437
 31
0.0
  0
ARC
  5
462
100
AcDbEntity
  8
LAY-1
  6
CONTINUOUS
 62
     2
100
AcDbCircle
 10
563.359886
 20
688.464005
 30
0.0
 40
10.0
100
AcDbArc
 50
90.0
 51
173.742798
  0
ARC
  5
463
100
AcDbEntity
  8
LAY-1
  6
CONTINUOUS
 62
     2
100
AcDbCircle
 10
567.0
 20
688.467437
 30
0.0
 40
10.0
100
AcDbArc
 50
0.0
 51
90.0
  0
LINE
  5
464
100
AcDbEntity
  8
LAY-1
  6
CONTINUOUS
 62
     2
100
AcDbLine
 10
1157.740282
 20
701.099604
 30
0.0
 11
1154.847708
 21
697.939593
 31
0.0
  0
LINE
  5
465
100
AcDbEntity
  8
LAY-1
  6
CONTINUOUS
 62
     2
100
AcDbLine
 10
1153.608033
 20
696.585302
 30
0.0
 11
1151.167221
 21
703.938548
 31
0.0
  0
LINE
  5
466
100
AcDbEntity
  8
LAY-1
  6
CONTINUOUS
 62
     2
100
AcDbLine
 10
1150.715459
 20
693.425291
 30
0.0
 11
1147.890804
 21
701.934911
 31
0.0
  0
LINE
  5
467
100
AcDbEntity
  8
LAY-1
  6
CONTINUOUS
 62
     2
100
AcDbLine
 10
1153.608033
 20
696.585302
 30
0.0
 11
1150.715459
 21
693.425291
 31
0.0
  0
LINE
  5
468
100
AcDbEntity
  8
LAY-1
  6
CONTINUOUS
 62
     2
100
AcDbLine
 10
1145.243593
 20
689.594873
 30
0.0
 11
1141.110209
 21
687.397113
 31
0.0
  0
LINE
  5
469
100
AcDbEntity
  8
LAY-1
  6
CONTINUOUS
 62
     2
100
AcDbLine
 10
1141.110209
 20
687.397113
 30
0.0
 11
1137.800966
 21
702.965879
 31
0.0
  0
LINE
  5
46A
100
AcDbEntity
  8
LAY-1
  6
CONTINUOUS
 62
     2
100
AcDbLine
 10
1031.043874
 20
701.074902
 30
0.0
 11
1020.909234
 21
696.876997
 31
0.0
  0
LINE
  5
46B
100
AcDbEntity
  8
LAY-1
  6
CONTINUOUS
 62
     2
100
AcDbLine
 10
1020.909234
 20
696.876997
 30
0.0
 11
1019.477407
 21
686.001189
 31
0.0
  0
LINE
  5
46C
100
AcDbEntity
  8
LAY-1
  6
CONTINUOUS
 62
     2
100
AcDbLine
 10
1019.477407
 20
686.001189
 30
0.0
 11
1028.180219
 21
679.323286
 31
0.0
  0
LINE
  5
46D
100
AcDbEntity
  8
LAY-1
  6
CONTINUOUS
 62
     2
100
AcDbLine
 10
1028.180219
 20
679.323286
 30
0.0
 11
1038.314859
 21
683.521191
 31
0.0
  0
LINE
  5
46E
100
AcDbEntity
  8
LAY-1
  6
CONTINUOUS
 62
     2
100
AcDbLine
 10
1038.314859
 20
683.521191
 30
0.0
 11
1039.746687
 21
694.396999
 31
0.0
  0
LINE
  5
46F
100
AcDbEntity
  8
LAY-1
  6
CONTINUOUS
 62
     2
100
AcDbLine
 10
1039.746687
 20
694.396999
 30
0.0
 11
1031.043874
 21
701.074902
 31
0.0
  0
CIRCLE
  5
470
100
AcDbEntity
  8
LAY-1
  6
CONTINUOUS
 62
     2
100
AcDbCircle
 10
1029.612047
 20
690.199094
 30
0.0
 40
9.5
  0
LINE
  5
471
100
AcDbEntity
  8
LAY-1
  6
CONTINUOUS
 62
     2
100
AcDbLine
 10
1212.956126
 20
701.074902
 30
0.0
 11
1223.090766
 21
696.876997
 31
0.0
  0
LINE
  5
472
100
AcDbEntity
  8
LAY-1
  6
CONTINUOUS
 62
     2
100
AcDbLine
 10
1223.090766
 20
696.876997
 30
0.0
 11
1224.522593
 21
686.001189
 31
0.0
  0
LINE
  5
473
100
AcDbEntity
  8
LAY-1
  6
CONTINUOUS
 62
     2
100
AcDbLine
 10
1224.522593
 20
686.001189
 30
0.0
 11
1215.819781
 21
679.323286
 31
0.0
  0
LINE
  5
474
100
AcDbEntity
  8
LAY-1
  6
CONTINUOUS
 62
     2
100
AcDbLine
 10
1215.819781
 20
679.323286
 30
0.0
 11
1205.685141
 21
683.521191
 31
0.0
  0
LINE
  5
475
100
AcDbEntity
  8
LAY-1
  6
CONTINUOUS
 62
     2
100
AcDbLine
 10
1205.685141
 20
683.521191
 30
0.0
 11
1204.253313
 21
694.396999
 31
0.0
  0
LINE
  5
476
100
AcDbEntity
  8
LAY-1
  6
CONTINUOUS
 62
     2
100
AcDbLine
 10
1204.253313
 20
694.396999
 30
0.0
 11
1212.956126
 21
701.074902
 31
0.0
  0
CIRCLE
  5
477
100
AcDbEntity
  8
LAY-1
  6
CONTINUOUS
 62
     2
100
AcDbCircle
 10
1214.387953
 20
690.199094
 30
0.0
 40
9.5
  0
LINE
  5
478
100
AcDbEntity
  8
LAY-1
  6
CONTINUOUS
 62
     2
100
AcDbLine
 10
1166.946246
 20
644.782297
 30
0.0
 11
1171.144151
 21
634.647657
 31
0.0
  0
LINE
  5
479
100
AcDbEntity
  8
LAY-1
  6
CONTINUOUS
 62
     2
100
AcDbLine
 10
1171.144151
 20
634.647657
 30
0.0
 11
1164.466249
 21
625.944844
 31
0.0
  0
LINE
  5
47A
100
AcDbEntity
  8
LAY-1
  6
CONTINUOUS
 62
     2
100
AcDbLine
 10
1164.466249
 20
625.944844
 30
0.0
 11
1153.59044
 21
627.376672
 31
0.0
  0
LINE
  5
47B
100
AcDbEntity
  8
LAY-1
  6
CONTINUOUS
 62
     2
100
AcDbLine
 10
1153.59044
 20
627.376672
 30
0.0
 11
1149.392535
 21
637.511311
 31
0.0
  0
LINE
  5
47C
100
AcDbEntity
  8
LAY-1
  6
CONTINUOUS
 62
     2
100
AcDbLine
 10
1149.392535
 20
637.511311
 30
0.0
 11
1156.070438
 21
646.214124
 31
0.0
  0
LINE
  5
47D
100
AcDbEntity
  8
LAY-1
  6
CONTINUOUS
 62
     2
100
AcDbLine
 10
1156.070438
 20
646.214124
 30
0.0
 11
1166.946246
 21
644.782297
 31
0.0
  0
LINE
  5
47E
100
AcDbEntity
  8
LAY-1
  6
CONTINUOUS
 62
     2
100
AcDbLine
 10
1077.053754
 20
644.782297
 30
0.0
 11
1072.855849
 21
634.647657
 31
0.0
  0
LINE
  5
47F
100
AcDbEntity
  8
LAY-1
  6
CONTINUOUS
 62
     2
100
AcDbLine
 10
1072.855849
 20
634.647657
 30
0.0
 11
1079.533751
 21
625.944844
 31
0.0
  0
LINE
  5
480
100
AcDbEntity
  8
LAY-1
  6
CONTINUOUS
 62
     2
100
AcDbLine
 10
1079.533751
 20
625.944844
 30
0.0
 11
1090.40956
 21
627.376672
 31
0.0
  0
LINE
  5
481
100
AcDbEntity
  8
LAY-1
  6
CONTINUOUS
 62
     2
100
AcDbLine
 10
1090.40956
 20
627.376672
 30
0.0
 11
1094.607465
 21
637.511311
 31
0.0
  0
LINE
  5
482
100
AcDbEntity
  8
LAY-1
  6
CONTINUOUS
 62
     2
100
AcDbLine
 10
1094.607465
 20
637.511311
 30
0.0
 11
1087.929562
 21
646.214124
 31
0.0
  0
LINE
  5
483
100
AcDbEntity
  8
LAY-1
  6
CONTINUOUS
 62
     2
100
AcDbLine
 10
1087.929562
 20
646.214124
 30
0.0
 11
1077.053754
 21
644.782297
 31
0.0
  0
CIRCLE
  5
484
100
AcDbEntity
  8
LAY-1
  6
CONTINUOUS
 62
     2
100
AcDbCircle
 10
1083.731657
 20
636.079484
 30
0.0
 40
9.5
  0
CIRCLE
  5
485
100
AcDbEntity
  8
LAY-1
  6
CONTINUOUS
 62
     2
100
AcDbCircle
 10
1160.268343
 20
636.079484
 30
0.0
 40
9.5
  0
LINE
  5
486
100
AcDbEntity
  8
LAY-1
  6
CONTINUOUS
 62
     2
100
AcDbLine
 10
1077.053754
 20
812.152578
 30
0.0
 11
1072.855849
 21
822.287218
 31
0.0
  0
LINE
  5
487
100
AcDbEntity
  8
LAY-1
  6
CONTINUOUS
 62
     2
100
AcDbLine
 10
1072.855849
 20
822.287218
 30
0.0
 11
1079.533751
 21
830.99003
 31
0.0
  0
LINE
  5
488
100
AcDbEntity
  8
LAY-1
  6
CONTINUOUS
 62
     2
100
AcDbLine
 10
1079.533751
 20
830.99003
 30
0.0
 11
1090.40956
 21
829.558203
 31
0.0
  0
LINE
  5
489
100
AcDbEntity
  8
LAY-1
  6
CONTINUOUS
 62
     2
100
AcDbLine
 10
1090.40956
 20
829.558203
 30
0.0
 11
1094.607465
 21
819.423563
 31
0.0
  0
LINE
  5
48A
100
AcDbEntity
  8
LAY-1
  6
CONTINUOUS
 62
     2
100
AcDbLine
 10
1094.607465
 20
819.423563
 30
0.0
 11
1087.929562
 21
810.720751
 31
0.0
  0
LINE
  5
48B
100
AcDbEntity
  8
LAY-1
  6
CONTINUOUS
 62
     2
100
AcDbLine
 10
1087.929562
 20
810.720751
 30
0.0
 11
1077.053754
 21
812.152578
 31
0.0
  0
CIRCLE
  5
48C
100
AcDbEntity
  8
LAY-1
  6
CONTINUOUS
 62
     2
100
AcDbCircle
 10
1083.731657
 20
820.855391
 30
0.0
 40
9.5
  0
LINE
  5
48D
100
AcDbEntity
  8
LAY-1
  6
CONTINUOUS
 62
     2
100
AcDbLine
 10
1031.043874
 20
755.859972
 30
0.0
 11
1020.909234
 21
760.057878
 31
0.0
  0
LINE
  5
48E
100
AcDbEntity
  8
LAY-1
  6
CONTINUOUS
 62
     2
100
AcDbLine
 10
1020.909234
 20
760.057878
 30
0.0
 11
1019.477407
 21
770.933686
 31
0.0
  0
LINE
  5
48F
100
AcDbEntity
  8
LAY-1
  6
CONTINUOUS
 62
     2
100
AcDbLine
 10
1019.477407
 20
770.933686
 30
0.0
 11
1028.180219
 21
777.611589
 31
0.0
  0
LINE
  5
490
100
AcDbEntity
  8
LAY-1
  6
CONTINUOUS
 62
     2
100
AcDbLine
 10
1028.180219
 20
777.611589
 30
0.0
 11
1038.314859
 21
773.413684
 31
0.0
  0
LINE
  5
491
100
AcDbEntity
  8
LAY-1
  6
CONTINUOUS
 62
     2
100
AcDbLine
 10
1038.314859
 20
773.413684
 30
0.0
 11
1039.746687
 21
762.537875
 31
0.0
  0
LINE
  5
492
100
AcDbEntity
  8
LAY-1
  6
CONTINUOUS
 62
     2
100
AcDbLine
 10
1039.746687
 20
762.537875
 30
0.0
 11
1031.043874
 21
755.859972
 31
0.0
  0
CIRCLE
  5
493
100
AcDbEntity
  8
LAY-1
  6
CONTINUOUS
 62
     2
100
AcDbCircle
 10
1029.612047
 20
766.735781
 30
0.0
 40
9.5
  0
ARC
  5
494
100
AcDbEntity
  8
LAY-1
  6
CONTINUOUS
 62
     2
100
AcDbCircle
 10
1437.453766
 20
730.467437
 30
0.0
 40
357.0
100
AcDbArc
 50
162.524264
 51
162.524312
  0
LINE
  5
495
100
AcDbEntity
  8
LAY-1
  6
CONTINUOUS
 62
     2
100
AcDbLine
 10
1166.946246
 20
812.152578
 30
0.0
 11
1171.144151
 21
822.287218
 31
0.0
  0
LINE
  5
496
100
AcDbEntity
  8
LAY-1
  6
CONTINUOUS
 62
     2
100
AcDbLine
 10
1171.144151
 20
822.287218
 30
0.0
 11
1164.466249
 21
830.99003
 31
0.0
  0
LINE
  5
497
100
AcDbEntity
  8
LAY-1
  6
CONTINUOUS
 62
     2
100
AcDbLine
 10
1164.466249
 20
830.99003
 30
0.0
 11
1153.59044
 21
829.558203
 31
0.0
  0
LINE
  5
498
100
AcDbEntity
  8
LAY-1
  6
CONTINUOUS
 62
     2
100
AcDbLine
 10
1153.59044
 20
829.558203
 30
0.0
 11
1149.392535
 21
819.423563
 31
0.0
  0
LINE
  5
499
100
AcDbEntity
  8
LAY-1
  6
CONTINUOUS
 62
     2
100
AcDbLine
 10
1149.392535
 20
819.423563
 30
0.0
 11
1156.070438
 21
810.720751
 31
0.0
  0
LINE
  5
49A
100
AcDbEntity
  8
LAY-1
  6
CONTINUOUS
 62
     2
100
AcDbLine
 10
1156.070438
 20
810.720751
 30
0.0
 11
1166.946246
 21
812.152578
 31
0.0
  0
CIRCLE
  5
49B
100
AcDbEntity
  8
LAY-1
  6
CONTINUOUS
 62
     2
100
AcDbCircle
 10
1160.268343
 20
820.855391
 30
0.0
 40
9.5
  0
ARC
  5
49C
100
AcDbEntity
  8
LAY-1
  6
CONTINUOUS
 62
     2
100
AcDbCircle
 10
806.546234
 20
730.467437
 30
0.0
 40
357.0
100
AcDbArc
 50
17.445695
 51
17.475736
  0
LINE
  5
49D
100
AcDbEntity
  8
LAY-1
  6
CONTINUOUS
 62
     2
100
AcDbLine
 10
1212.956126
 20
755.859972
 30
0.0
 11
1223.090766
 21
760.057878
 31
0.0
  0
LINE
  5
49E
100
AcDbEntity
  8
LAY-1
  6
CONTINUOUS
 62
     2
100
AcDbLine
 10
1223.090766
 20
760.057878
 30
0.0
 11
1224.522593
 21
770.933686
 31
0.0
  0
LINE
  5
49F
100
AcDbEntity
  8
LAY-1
  6
CONTINUOUS
 62
     2
100
AcDbLine
 10
1224.522593
 20
770.933686
 30
0.0
 11
1215.819781
 21
777.611589
 31
0.0
  0
LINE
  5
4A0
100
AcDbEntity
  8
LAY-1
  6
CONTINUOUS
 62
     2
100
AcDbLine
 10
1215.819781
 20
777.611589
 30
0.0
 11
1205.685141
 21
773.413684
 31
0.0
  0
LINE
  5
4A1
100
AcDbEntity
  8
LAY-1
  6
CONTINUOUS
 62
     2
100
AcDbLine
 10
1205.685141
 20
773.413684
 30
0.0
 11
1204.253313
 21
762.537875
 31
0.0
  0
LINE
  5
4A2
100
AcDbEntity
  8
LAY-1
  6
CONTINUOUS
 62
     2
100
AcDbLine
 10
1204.253313
 20
762.537875
 30
0.0
 11
1212.956126
 21
755.859972
 31
0.0
  0
CIRCLE
  5
4A3
100
AcDbEntity
  8
LAY-1
  6
CONTINUOUS
 62
     2
100
AcDbCircle
 10
1214.387953
 20
766.735781
 30
0.0
 40
9.5
  0
LINE
  5
4A4
100
AcDbEntity
  8
LAY-1
  6
CONTINUOUS
 62
     2
100
AcDbLine
 10
1621.791522
 20
828.467437
 30
0.0
 11
1621.791522
 21
816.467437
 31
0.0
  0
LINE
  5
4A5
100
AcDbEntity
  8
LAY-1
  6
CONTINUOUS
 62
     2
100
AcDbLine
 10
1638.017801
 20
616.467438
 30
0.0
 11
1625.017801
 21
616.467438
 31
0.0
  0
ARC
  5
4A6
100
AcDbEntity
  8
LAY-1
  6
CONTINUOUS
 62
     2
100
AcDbCircle
 10
1625.017801
 20
618.467438
 30
0.0
 40
2.0
100
AcDbArc
 50
180.0
 51
270.0
  0
ARC
  5
4A7
100
AcDbEntity
  8
LAY-1
  6
CONTINUOUS
 62
     2
100
AcDbCircle
 10
1607.517801
 20
658.485513
 30
0.0
 40
6.0
100
AcDbArc
 50
0.0
 51
87.5304
  0
LINE
  5
4A8
100
AcDbEntity
  8
LAY-1
  6
CONTINUOUS
 62
     2
100
AcDbLine
 10
1640.0
 20
616.467438
 30
0.0
 11
1625.039392
 21
616.467438
 31
0.0
  0
ARC
  5
4A9
100
AcDbEntity
  8
LAY-1
  6
CONTINUOUS
 62
     2
100
AcDbCircle
 10
1607.517801
 20
798.449362
 30
0.0
 40
6.0
100
AcDbArc
 50
272.4696
 51
0.0
  0
LINE
  5
4AA
100
AcDbEntity
  8
LAY-1
  6
CONTINUOUS
 62
     2
100
AcDbLine
 10
1593.147069
 20
791.823984
 30
0.0
 11
1607.776337
 21
792.454935
 31
0.0
  0
LINE
  5
4AB
100
AcDbEntity
  8
LAY-1
  6
CONTINUOUS
 62
     2
100
AcDbLine
 10
1638.017801
 20
840.467438
 30
0.0
 11
1625.017801
 21
840.467438
 31
0.0
  0
ARC
  5
4AC
100
AcDbEntity
  8
LAY-1
  6
CONTINUOUS
 62
     2
100
AcDbCircle
 10
1625.017801
 20
838.467438
 30
0.0
 40
2.0
100
AcDbArc
 50
90.0
 51
180.0
  0
ARC
  5
4AD
100
AcDbEntity
  8
LAY-1
  6
EXLTYPE4
 62
     2
100
AcDbCircle
 10
1612.017801
 20
714.967437
 30
0.0
 40
1.0
100
AcDbArc
 50
180.0
 51
270.0
  0
ARC
  5
4AE
100
AcDbEntity
  8
LAY-1
  6
EXLTYPE4
 62
     2
100
AcDbCircle
 10
1612.017801
 20
741.967437
 30
0.0
 40
1.0
100
AcDbArc
 50
90.0
 51
180.0
  0
LINE
  5
4AF
100
AcDbEntity
  8
LAY-1
  6
CONTINUOUS
 62
     2
100
AcDbLine
 10
1611.017801
 20
714.967437
 30
0.0
 11
1611.017801
 21
741.967437
 31
0.0
  0
ARC
  5
4B0
100
AcDbEntity
  8
LAY-1
  6
CONTINUOUS
 62
     2
100
AcDbCircle
 10
1620.017801
 20
745.967437
 30
0.0
 40
3.0
100
AcDbArc
 50
270.0
 51
0.0
  0
ARC
  5
4B1
100
AcDbEntity
  8
LAY-1
  6
CONTINUOUS
 62
     2
100
AcDbCircle
 10
1620.017801
 20
710.967437
 30
0.0
 40
3.0
100
AcDbArc
 50
0.0
 51
90.0
  0
LINE
  5
4B2
100
AcDbEntity
  8
LAY-1
  6
CONTINUOUS
 62
     2
100
AcDbLine
 10
1623.017801
 20
838.467438
 30
0.0
 11
1623.017801
 21
618.467438
 31
0.0
  0
ARC
  5
4B3
100
AcDbEntity
  8
LAY-1
  6
CONTINUOUS
 62
     2
100
AcDbCircle
 10
1623.017801
 20
803.883566
 30
0.0
 40
9.5
100
AcDbArc
 50
104.845786
 51
106.511664
  0
ARC
  5
4B4
100
AcDbEntity
  8
LAY-1
  6
CONTINUOUS
 62
     2
100
AcDbCircle
 10
1623.017801
 20
803.883566
 30
0.0
 40
9.5
100
AcDbArc
 50
140.816413
 51
180.0
  0
LINE
  5
4B5
100
AcDbEntity
  8
LAY-1
  6
CONTINUOUS
 62
     2
100
AcDbLine
 10
1620.583728
 20
813.066446
 30
0.0
 11
1620.657905
 21
813.086108
 31
0.0
  0
LINE
  5
4B6
100
AcDbEntity
  8
LAY-1
  6
CONTINUOUS
 62
     2
100
AcDbLine
 10
1620.583728
 20
643.86843
 30
0.0
 11
1620.657905
 21
643.848768
 31
0.0
  0
ARC
  5
4B7
100
AcDbEntity
  8
LAY-1
  6
CONTINUOUS
 62
     2
100
AcDbCircle
 10
1623.017801
 20
653.05131
 30
0.0
 40
9.5
100
AcDbArc
 50
180.0
 51
219.183593
  0
ARC
  5
4B8
100
AcDbEntity
  8
LAY-1
  6
CONTINUOUS
 62
     2
100
AcDbCircle
 10
1623.017801
 20
653.05131
 30
0.0
 40
9.5
100
AcDbArc
 50
253.488336
 51
255.154214
  0
LINE
  5
4B9
100
AcDbEntity
  8
LAY-1
  6
CONTINUOUS
 62
     2
100
AcDbLine
 10
1613.517801
 20
777.705436
 30
0.0
 11
1613.517801
 21
803.883566
 31
0.0
  0
LINE
  5
4BA
100
AcDbEntity
  8
LAY-1
  6
CONTINUOUS
 62
     2
100
AcDbLine
 10
1613.517801
 20
742.967437
 30
0.0
 11
1613.517801
 21
755.766125
 31
0.0
  0
LINE
  5
4BB
100
AcDbEntity
  8
LAY-1
  6
CONTINUOUS
 62
     2
100
AcDbLine
 10
1613.517801
 20
713.967437
 30
0.0
 11
1613.517801
 21
701.16875
 31
0.0
  0
LINE
  5
4BC
100
AcDbEntity
  8
LAY-1
  6
CONTINUOUS
 62
     2
100
AcDbLine
 10
1613.517801
 20
679.229439
 30
0.0
 11
1613.517801
 21
653.05131
 31
0.0
  0
LINE
  5
4BD
100
AcDbEntity
  8
LAY-1
  6
CONTINUOUS
 62
     2
100
AcDbLine
 10
1638.017801
 20
840.467437
 30
0.0
 11
1638.017801
 21
616.467438
 31
0.0
  0
LINE
  5
4BE
100
AcDbEntity
  8
LAY-1
  6
CONTINUOUS
 62
     2
100
AcDbLine
 10
1640.0
 20
840.467437
 30
0.0
 11
1640.0
 21
616.467437
 31
0.0
  0
ARC
  5
4BF
100
AcDbEntity
  8
LAY-1
  6
CONTINUOUS
 62
     2
100
AcDbCircle
 10
1687.278461
 20
648.470869
 30
0.0
 40
10.0
100
AcDbArc
 50
12.590082
 51
90.0
  0
ARC
  5
4C0
100
AcDbEntity
  8
LAY-1
  6
CONTINUOUS
 62
     2
100
AcDbCircle
 10
2045.453766
 20
728.467437
 30
0.0
 40
357.0
100
AcDbArc
 50
192.590082
 51
196.081969
  0
LINE
  5
4C1
100
AcDbEntity
  8
LAY-1
  6
CONTINUOUS
 62
     2
100
AcDbLine
 10
1674.199818
 20
798.467437
 30
0.0
 11
1687.279994
 21
798.467437
 31
0.0
  0
LINE
  5
4C2
100
AcDbEntity
  8
LAY-1
  6
CONTINUOUS
 62
     2
100
AcDbLine
 10
1674.199818
 20
658.467437
 30
0.0
 11
1687.279994
 21
658.467437
 31
0.0
  0
ARC
  5
4C3
100
AcDbEntity
  8
LAY-1
  6
CONTINUOUS
 62
     2
100
AcDbCircle
 10
1674.400758
 20
648.467437
 30
0.0
 40
10.0
100
AcDbArc
 50
90.0
 51
155.556665
  0
ARC
  5
4C4
100
AcDbEntity
  8
LAY-1
  6
CONTINUOUS
 62
     2
100
AcDbCircle
 10
1653.0
 20
838.467437
 30
0.0
 40
2.0
100
AcDbArc
 50
0.0
 51
90.0
  0
ARC
  5
4C5
100
AcDbEntity
  8
LAY-1
  6
CONTINUOUS
 62
     2
100
AcDbCircle
 10
1674.400758
 20
808.467437
 30
0.0
 40
10.0
100
AcDbArc
 50
204.443335
 51
270.0
  0
ARC
  5
4C6
100
AcDbEntity
  8
LAY-1
  6
CONTINUOUS
 62
     2
100
AcDbCircle
 10
1671.95
 20
728.467437
 30
0.0
 40
35.0
100
AcDbArc
 50
301.002719
 51
58.997281
  0
LINE
  5
4C7
100
AcDbEntity
  8
LAY-1
  6
CONTINUOUS
 62
     2
100
AcDbLine
 10
1638.017801
 20
840.467437
 30
0.0
 11
1653.0
 21
840.467437
 31
0.0
  0
ARC
  5
4C8
100
AcDbEntity
  8
LAY-1
  6
CONTINUOUS
 62
     2
100
AcDbCircle
 10
1651.0
 20
728.467437
 30
0.0
 40
11.0
100
AcDbArc
 50
297.486426
 51
62.513574
  0
ARC
  5
4C9
100
AcDbEntity
  8
LAY-1
  6
CONTINUOUS
 62
     2
100
AcDbCircle
 10
1657.0
 20
740.0
 30
0.0
 40
2.0
100
AcDbArc
 50
180.0
 51
242.513574
  0
ARC
  5
4CA
100
AcDbEntity
  8
LAY-1
  6
CONTINUOUS
 62
     2
100
AcDbCircle
 10
1657.0
 20
716.934875
 30
0.0
 40
2.0
100
AcDbArc
 50
117.486426
 51
180.0
  0
LINE
  5
4CB
100
AcDbEntity
  8
LAY-1
  6
CONTINUOUS
 62
     2
100
AcDbLine
 10
1640.0
 20
616.467437
 30
0.0
 11
1653.0
 21
616.467437
 31
0.0
  0
ARC
  5
4CC
100
AcDbEntity
  8
LAY-1
  6
CONTINUOUS
 62
     2
100
AcDbCircle
 10
1653.0
 20
618.467437
 30
0.0
 40
2.0
100
AcDbArc
 50
270.0
 51
0.0
  0
ARC
  5
4CD
100
AcDbEntity
  8
LAY-1
  6
CONTINUOUS
 62
     2
100
AcDbCircle
 10
1648.0
 20
796.467437
 30
0.0
 40
19.0
100
AcDbArc
 50
24.443335
 51
44.407712
  0
ARC
  5
4CE
100
AcDbEntity
  8
LAY-1
  6
CONTINUOUS
 62
     2
100
AcDbCircle
 10
1648.0
 20
660.467437
 30
0.0
 40
19.0
100
AcDbArc
 50
314.545556
 51
335.556665
  0
LINE
  5
4CF
100
AcDbEntity
  8
LAY-1
  6
CONTINUOUS
 62
     2
100
AcDbLine
 10
1689.977756
 20
698.467437
 30
0.0
 11
1663.006132
 21
698.467437
 31
0.0
  0
LINE
  5
4D0
100
AcDbEntity
  8
LAY-1
  6
CONTINUOUS
 62
     2
100
AcDbLine
 10
1689.977756
 20
758.467437
 30
0.0
 11
1663.008212
 21
758.467437
 31
0.0
  0
LINE
  5
4D1
100
AcDbEntity
  8
LAY-1
  6
CONTINUOUS
 62
     2
100
AcDbLine
 10
1655.0
 20
716.934875
 30
0.0
 11
1655.0
 21
618.467437
 31
0.0
  0
LINE
  5
4D2
100
AcDbEntity
  8
LAY-1
  6
CONTINUOUS
 62
     2
100
AcDbLine
 10
1655.0
 20
838.467437
 30
0.0
 11
1655.0
 21
740.0
 31
0.0
  0
LINE
  5
4D3
100
AcDbEntity
  8
LAY-1
  6
CONTINUOUS
 62
     2
100
AcDbLine
 10
1660.0
 20
601.189292
 30
0.0
 11
1660.0
 21
585.967437
 31
0.0
  0
ARC
  5
4D4
100
AcDbEntity
  8
LAY-1
  6
CONTINUOUS
 62
     2
100
AcDbCircle
 10
1694.49076
 20
608.189292
 30
0.0
 40
5.0
100
AcDbArc
 50
270.0
 51
345.0
  0
ARC
  5
4D5
100
AcDbEntity
  8
LAY-1
  6
CONTINUOUS
 62
     2
100
AcDbCircle
 10
1662.0
 20
601.189292
 30
0.0
 40
2.0
100
AcDbArc
 50
90.0
 51
180.0
  0
ARC
  5
4D6
100
AcDbEntity
  8
LAY-1
  6
CONTINUOUS
 62
     2
100
AcDbCircle
 10
1683.207142
 20
624.033805
 30
0.0
 40
20.0
100
AcDbArc
 50
345.0
 51
16.081969
  0
LINE
  5
4D7
100
AcDbEntity
  8
LAY-1
  6
CONTINUOUS
 62
     2
100
AcDbLine
 10
1699.320389
 20
606.895197
 30
0.0
 11
1702.525658
 21
618.857424
 31
0.0
  0
LINE
  5
4D8
100
AcDbEntity
  8
LAY-1
  6
CONTINUOUS
 62
     2
100
AcDbLine
 10
1612.017801
 20
742.967437
 30
0.0
 11
1620.017801
 21
742.967437
 31
0.0
  0
LINE
  5
4D9
100
AcDbEntity
  8
LAY-1
  6
CONTINUOUS
 62
     2
100
AcDbLine
 10
1612.017801
 20
713.967437
 30
0.0
 11
1620.017801
 21
713.967437
 31
0.0
  0
LINE
  5
4DA
100
AcDbEntity
  8
LAY-1
  6
CONTINUOUS
 62
     2
100
AcDbLine
 10
1621.791522
 20
624.079484
 30
0.0
 11
1623.017801
 21
624.079484
 31
0.0
  0
LINE
  5
4DB
100
AcDbEntity
  8
LAY-1
  6
CONTINUOUS
 62
     2
100
AcDbLine
 10
1621.791522
 20
636.079484
 30
0.0
 11
1621.791522
 21
624.079484
 31
0.0
  0
LINE
  5
4DC
100
AcDbEntity
  8
LAY-1
  6
CONTINUOUS
 62
     2
100
AcDbLine
 10
1621.791522
 20
624.079484
 30
0.0
 11
1620.317801
 21
629.579484
 31
0.0
  0
LINE
  5
4DD
100
AcDbEntity
  8
LAY-1
  6
CONTINUOUS
 62
     2
100
AcDbLine
 10
1620.317801
 20
625.109829
 30
0.0
 11
1620.317801
 21
636.079484
 31
0.0
  0
LINE
  5
4DE
100
AcDbEntity
  8
LAY-1
  6
CONTINUOUS
 62
     2
100
AcDbLine
 10
1611.166307
 20
625.109829
 30
0.0
 11
1620.317801
 21
625.109829
 31
0.0
  0
LINE
  5
4DF
100
AcDbEntity
  8
LAY-1
  6
CONTINUOUS
 62
     2
100
AcDbLine
 10
1610.317801
 20
626.579484
 30
0.0
 11
1611.166307
 21
625.109829
 31
0.0
  0
LINE
  5
4E0
100
AcDbEntity
  8
LAY-1
  6
CONTINUOUS
 62
     2
100
AcDbLine
 10
1611.166307
 20
630.594656
 30
0.0
 11
1620.317801
 21
630.594656
 31
0.0
  0
ARC
  5
4E1
100
AcDbEntity
  8
LAY-1
  6
CONTINUOUS
 62
     2
100
AcDbCircle
 10
1615.173865
 20
627.852242
 30
0.0
 40
4.856063
100
AcDbArc
 50
145.615753
 51
214.384247
  0
LINE
  5
4E2
100
AcDbEntity
  8
LAY-1
  6
CONTINUOUS
 62
     2
100
AcDbLine
 10
1610.317801
 20
636.079484
 30
0.0
 11
1610.317801
 21
626.579484
 31
0.0
  0
ARC
  5
4E3
100
AcDbEntity
  8
LAY-1
  6
CONTINUOUS
 62
     2
100
AcDbCircle
 10
1628.469296
 20
636.079484
 30
0.0
 40
18.151494
100
AcDbArc
 50
180.0
 51
197.587954
  0
ARC
  5
4E4
100
AcDbEntity
  8
LAY-1
  6
CONTINUOUS
 62
     2
100
AcDbCircle
 10
1628.469296
 20
636.079485
 30
0.0
 40
18.151494
100
AcDbArc
 50
162.412046
 51
180.0
  0
LINE
  5
4E5
100
AcDbEntity
  8
LAY-1
  6
CONTINUOUS
 62
     2
100
AcDbLine
 10
1610.317801
 20
645.579485
 30
0.0
 11
1611.166307
 21
647.04914
 31
0.0
  0
LINE
  5
4E6
100
AcDbEntity
  8
LAY-1
  6
CONTINUOUS
 62
     2
100
AcDbLine
 10
1610.317801
 20
636.079485
 30
0.0
 11
1610.317801
 21
645.579485
 31
0.0
  0
ARC
  5
4E7
100
AcDbEntity
  8
LAY-1
  6
CONTINUOUS
 62
     2
100
AcDbCircle
 10
1615.173865
 20
644.306726
 30
0.0
 40
4.856063
100
AcDbArc
 50
145.615753
 51
214.384247
  0
LINE
  5
4E8
100
AcDbEntity
  8
LAY-1
  6
CONTINUOUS
 62
     2
100
AcDbLine
 10
1611.166307
 20
647.04914
 30
0.0
 11
1620.317801
 21
647.04914
 31
0.0
  0
LINE
  5
4E9
100
AcDbEntity
  8
LAY-1
  6
CONTINUOUS
 62
     2
100
AcDbLine
 10
1620.317801
 20
647.04914
 30
0.0
 11
1620.317801
 21
636.079485
 31
0.0
  0
LINE
  5
4EA
100
AcDbEntity
  8
LAY-1
  6
CONTINUOUS
 62
     2
100
AcDbLine
 10
1621.791522
 20
648.079485
 30
0.0
 11
1620.317801
 21
642.579485
 31
0.0
  0
LINE
  5
4EB
100
AcDbEntity
  8
LAY-1
  6
CONTINUOUS
 62
     2
100
AcDbLine
 10
1621.791522
 20
648.079485
 30
0.0
 11
1623.017801
 21
648.079485
 31
0.0
  0
LINE
  5
4EC
100
AcDbEntity
  8
LAY-1
  6
CONTINUOUS
 62
     2
100
AcDbLine
 10
1621.791522
 20
636.079485
 30
0.0
 11
1621.791522
 21
648.079485
 31
0.0
  0
LINE
  5
4ED
100
AcDbEntity
  8
LAY-1
  6
CONTINUOUS
 62
     2
100
AcDbLine
 10
1605.517801
 20
642.079484
 30
0.0
 11
1605.017801
 21
641.579484
 31
0.0
  0
LINE
  5
4EE
100
AcDbEntity
  8
LAY-1
  6
CONTINUOUS
 62
     2
100
AcDbLine
 10
1605.517801
 20
630.079484
 30
0.0
 11
1605.017801
 21
630.579484
 31
0.0
  0
LINE
  5
4EF
100
AcDbEntity
  8
LAY-1
  6
CONTINUOUS
 62
     2
100
AcDbLine
 10
1605.017801
 20
630.579484
 30
0.0
 11
1605.017801
 21
641.579484
 31
0.0
  0
LINE
  5
4F0
100
AcDbEntity
  8
LAY-1
  6
CONTINUOUS
 62
     2
100
AcDbLine
 10
1605.517801
 20
642.079484
 30
0.0
 11
1610.317801
 21
642.079484
 31
0.0
  0
LINE
  5
4F1
100
AcDbEntity
  8
LAY-1
  6
CONTINUOUS
 62
     2
100
AcDbLine
 10
1605.517801
 20
630.079484
 30
0.0
 11
1610.317801
 21
630.079484
 31
0.0
  0
LINE
  5
4F2
100
AcDbEntity
  8
LAY-1
  6
CONTINUOUS
 62
     2
100
AcDbLine
 10
1611.166307
 20
641.564312
 30
0.0
 11
1620.317801
 21
641.564312
 31
0.0
  0
LINE
  5
4F3
100
AcDbEntity
  8
LAY-1
  6
CONTINUOUS
 62
     2
100
AcDbLine
 10
1621.791522
 20
678.199094
 30
0.0
 11
1623.017801
 21
678.199094
 31
0.0
  0
LINE
  5
4F4
100
AcDbEntity
  8
LAY-1
  6
CONTINUOUS
 62
     2
100
AcDbLine
 10
1621.791522
 20
690.199094
 30
0.0
 11
1621.791522
 21
678.199094
 31
0.0
  0
LINE
  5
4F5
100
AcDbEntity
  8
LAY-1
  6
CONTINUOUS
 62
     2
100
AcDbLine
 10
1621.791522
 20
678.199094
 30
0.0
 11
1620.317801
 21
683.699094
 31
0.0
  0
LINE
  5
4F6
100
AcDbEntity
  8
LAY-1
  6
CONTINUOUS
 62
     2
100
AcDbLine
 10
1620.317801
 20
679.229439
 30
0.0
 11
1620.317801
 21
690.199094
 31
0.0
  0
LINE
  5
4F7
100
AcDbEntity
  8
LAY-1
  6
CONTINUOUS
 62
     2
100
AcDbLine
 10
1611.166307
 20
679.229439
 30
0.0
 11
1620.317801
 21
679.229439
 31
0.0
  0
LINE
  5
4F8
100
AcDbEntity
  8
LAY-1
  6
CONTINUOUS
 62
     2
100
AcDbLine
 10
1610.317801
 20
680.699094
 30
0.0
 11
1611.166307
 21
679.229439
 31
0.0
  0
LINE
  5
4F9
100
AcDbEntity
  8
LAY-1
  6
CONTINUOUS
 62
     2
100
AcDbLine
 10
1611.166307
 20
684.714266
 30
0.0
 11
1620.317801
 21
684.714266
 31
0.0
  0
ARC
  5
4FA
100
AcDbEntity
  8
LAY-1
  6
CONTINUOUS
 62
     2
100
AcDbCircle
 10
1615.173865
 20
681.971852
 30
0.0
 40
4.856063
100
AcDbArc
 50
145.615753
 51
214.384247
  0
LINE
  5
4FB
100
AcDbEntity
  8
LAY-1
  6
CONTINUOUS
 62
     2
100
AcDbLine
 10
1610.317801
 20
690.199094
 30
0.0
 11
1610.317801
 21
680.699094
 31
0.0
  0
ARC
  5
4FC
100
AcDbEntity
  8
LAY-1
  6
CONTINUOUS
 62
     2
100
AcDbCircle
 10
1628.469296
 20
690.199094
 30
0.0
 40
18.151494
100
AcDbArc
 50
180.0
 51
197.587954
  0
ARC
  5
4FD
100
AcDbEntity
  8
LAY-1
  6
CONTINUOUS
 62
     2
100
AcDbCircle
 10
1628.469296
 20
690.199095
 30
0.0
 40
18.151494
100
AcDbArc
 50
162.412046
 51
180.0
  0
LINE
  5
4FE
100
AcDbEntity
  8
LAY-1
  6
CONTINUOUS
 62
     2
100
AcDbLine
 10
1610.317801
 20
699.699095
 30
0.0
 11
1611.166307
 21
701.16875
 31
0.0
  0
LINE
  5
4FF
100
AcDbEntity
  8
LAY-1
  6
CONTINUOUS
 62
     2
100
AcDbLine
 10
1610.317801
 20
690.199095
 30
0.0
 11
1610.317801
 21
699.699095
 31
0.0
  0
ARC
  5
500
100
AcDbEntity
  8
LAY-1
  6
CONTINUOUS
 62
     2
100
AcDbCircle
 10
1615.173865
 20
698.426336
 30
0.0
 40
4.856063
100
AcDbArc
 50
145.615753
 51
214.384247
  0
LINE
  5
501
100
AcDbEntity
  8
LAY-1
  6
CONTINUOUS
 62
     2
100
AcDbLine
 10
1611.166307
 20
701.16875
 30
0.0
 11
1620.317801
 21
701.16875
 31
0.0
  0
LINE
  5
502
100
AcDbEntity
  8
LAY-1
  6
CONTINUOUS
 62
     2
100
AcDbLine
 10
1620.317801
 20
701.16875
 30
0.0
 11
1620.317801
 21
690.199095
 31
0.0
  0
LINE
  5
503
100
AcDbEntity
  8
LAY-1
  6
CONTINUOUS
 62
     2
100
AcDbLine
 10
1621.791522
 20
702.199095
 30
0.0
 11
1620.317801
 21
696.699095
 31
0.0
  0
LINE
  5
504
100
AcDbEntity
  8
LAY-1
  6
CONTINUOUS
 62
     2
100
AcDbLine
 10
1621.791522
 20
702.199095
 30
0.0
 11
1623.017801
 21
702.199095
 31
0.0
  0
LINE
  5
505
100
AcDbEntity
  8
LAY-1
  6
CONTINUOUS
 62
     2
100
AcDbLine
 10
1621.791522
 20
690.199095
 30
0.0
 11
1621.791522
 21
702.199095
 31
0.0
  0
LINE
  5
506
100
AcDbEntity
  8
LAY-1
  6
CONTINUOUS
 62
     2
100
AcDbLine
 10
1605.517801
 20
696.199094
 30
0.0
 11
1605.017801
 21
695.699094
 31
0.0
  0
LINE
  5
507
100
AcDbEntity
  8
LAY-1
  6
CONTINUOUS
 62
     2
100
AcDbLine
 10
1605.517801
 20
684.199094
 30
0.0
 11
1605.017801
 21
684.699094
 31
0.0
  0
LINE
  5
508
100
AcDbEntity
  8
LAY-1
  6
CONTINUOUS
 62
     2
100
AcDbLine
 10
1605.017801
 20
684.699094
 30
0.0
 11
1605.017801
 21
695.699094
 31
0.0
  0
LINE
  5
509
100
AcDbEntity
  8
LAY-1
  6
CONTINUOUS
 62
     2
100
AcDbLine
 10
1605.517801
 20
696.199094
 30
0.0
 11
1610.317801
 21
696.199094
 31
0.0
  0
LINE
  5
50A
100
AcDbEntity
  8
LAY-1
  6
CONTINUOUS
 62
     2
100
AcDbLine
 10
1605.517801
 20
684.199094
 30
0.0
 11
1610.317801
 21
684.199094
 31
0.0
  0
LINE
  5
50B
100
AcDbEntity
  8
LAY-1
  6
CONTINUOUS
 62
     2
100
AcDbLine
 10
1611.166307
 20
695.683922
 30
0.0
 11
1620.317801
 21
695.683922
 31
0.0
  0
LINE
  5
50C
100
AcDbEntity
  8
LAY-1
  6
CONTINUOUS
 62
     2
100
AcDbLine
 10
1621.791522
 20
754.73578
 30
0.0
 11
1623.017801
 21
754.73578
 31
0.0
  0
LINE
  5
50D
100
AcDbEntity
  8
LAY-1
  6
CONTINUOUS
 62
     2
100
AcDbLine
 10
1621.791522
 20
766.73578
 30
0.0
 11
1621.791522
 21
754.73578
 31
0.0
  0
LINE
  5
50E
100
AcDbEntity
  8
LAY-1
  6
CONTINUOUS
 62
     2
100
AcDbLine
 10
1621.791522
 20
754.73578
 30
0.0
 11
1620.317801
 21
760.23578
 31
0.0
  0
LINE
  5
50F
100
AcDbEntity
  8
LAY-1
  6
CONTINUOUS
 62
     2
100
AcDbLine
 10
1620.317801
 20
755.766125
 30
0.0
 11
1620.317801
 21
766.73578
 31
0.0
  0
LINE
  5
510
100
AcDbEntity
  8
LAY-1
  6
CONTINUOUS
 62
     2
100
AcDbLine
 10
1611.166307
 20
755.766125
 30
0.0
 11
1620.317801
 21
755.766125
 31
0.0
  0
LINE
  5
511
100
AcDbEntity
  8
LAY-1
  6
CONTINUOUS
 62
     2
100
AcDbLine
 10
1610.317801
 20
757.23578
 30
0.0
 11
1611.166307
 21
755.766125
 31
0.0
  0
LINE
  5
512
100
AcDbEntity
  8
LAY-1
  6
CONTINUOUS
 62
     2
100
AcDbLine
 10
1611.166307
 20
761.250953
 30
0.0
 11
1620.317801
 21
761.250953
 31
0.0
  0
ARC
  5
513
100
AcDbEntity
  8
LAY-1
  6
CONTINUOUS
 62
     2
100
AcDbCircle
 10
1615.173865
 20
758.508539
 30
0.0
 40
4.856063
100
AcDbArc
 50
145.615753
 51
214.384247
  0
LINE
  5
514
100
AcDbEntity
  8
LAY-1
  6
CONTINUOUS
 62
     2
100
AcDbLine
 10
1610.317801
 20
766.73578
 30
0.0
 11
1610.317801
 21
757.23578
 31
0.0
  0
ARC
  5
515
100
AcDbEntity
  8
LAY-1
  6
CONTINUOUS
 62
     2
100
AcDbCircle
 10
1628.469296
 20
766.73578
 30
0.0
 40
18.151494
100
AcDbArc
 50
180.0
 51
197.587954
  0
ARC
  5
516
100
AcDbEntity
  8
LAY-1
  6
CONTINUOUS
 62
     2
100
AcDbCircle
 10
1628.469296
 20
766.735781
 30
0.0
 40
18.151494
100
AcDbArc
 50
162.412046
 51
180.0
  0
LINE
  5
517
100
AcDbEntity
  8
LAY-1
  6
CONTINUOUS
 62
     2
100
AcDbLine
 10
1610.317801
 20
776.235781
 30
0.0
 11
1611.166307
 21
777.705436
 31
0.0
  0
LINE
  5
518
100
AcDbEntity
  8
LAY-1
  6
CONTINUOUS
 62
     2
100
AcDbLine
 10
1610.317801
 20
766.735781
 30
0.0
 11
1610.317801
 21
776.235781
 31
0.0
  0
ARC
  5
519
100
AcDbEntity
  8
LAY-1
  6
CONTINUOUS
 62
     2
100
AcDbCircle
 10
1615.173865
 20
774.963022
 30
0.0
 40
4.856063
100
AcDbArc
 50
145.615753
 51
214.384247
  0
LINE
  5
51A
100
AcDbEntity
  8
LAY-1
  6
CONTINUOUS
 62
     2
100
AcDbLine
 10
1611.166307
 20
777.705436
 30
0.0
 11
1620.317801
 21
777.705436
 31
0.0
  0
LINE
  5
51B
100
AcDbEntity
  8
LAY-1
  6
CONTINUOUS
 62
     2
100
AcDbLine
 10
1620.317801
 20
777.705436
 30
0.0
 11
1620.317801
 21
766.735781
 31
0.0
  0
LINE
  5
51C
100
AcDbEntity
  8
LAY-1
  6
CONTINUOUS
 62
     2
100
AcDbLine
 10
1621.791522
 20
778.735781
 30
0.0
 11
1620.317801
 21
773.235781
 31
0.0
  0
LINE
  5
51D
100
AcDbEntity
  8
LAY-1
  6
CONTINUOUS
 62
     2
100
AcDbLine
 10
1621.791522
 20
778.735781
 30
0.0
 11
1623.017801
 21
778.735781
 31
0.0
  0
LINE
  5
51E
100
AcDbEntity
  8
LAY-1
  6
CONTINUOUS
 62
     2
100
AcDbLine
 10
1621.791522
 20
766.735781
 30
0.0
 11
1621.791522
 21
778.735781
 31
0.0
  0
LINE
  5
51F
100
AcDbEntity
  8
LAY-1
  6
CONTINUOUS
 62
     2
100
AcDbLine
 10
1605.517801
 20
772.735781
 30
0.0
 11
1605.017801
 21
772.235781
 31
0.0
  0
LINE
  5
520
100
AcDbEntity
  8
LAY-1
  6
CONTINUOUS
 62
     2
100
AcDbLine
 10
1605.517801
 20
760.735781
 30
0.0
 11
1605.017801
 21
761.235781
 31
0.0
  0
LINE
  5
521
100
AcDbEntity
  8
LAY-1
  6
CONTINUOUS
 62
     2
100
AcDbLine
 10
1605.017801
 20
761.235781
 30
0.0
 11
1605.017801
 21
772.235781
 31
0.0
  0
LINE
  5
522
100
AcDbEntity
  8
LAY-1
  6
CONTINUOUS
 62
     2
100
AcDbLine
 10
1605.517801
 20
772.735781
 30
0.0
 11
1610.317801
 21
772.735781
 31
0.0
  0
LINE
  5
523
100
AcDbEntity
  8
LAY-1
  6
CONTINUOUS
 62
     2
100
AcDbLine
 10
1605.517801
 20
760.735781
 30
0.0
 11
1610.317801
 21
760.735781
 31
0.0
  0
LINE
  5
524
100
AcDbEntity
  8
LAY-1
  6
CONTINUOUS
 62
     2
100
AcDbLine
 10
1611.166307
 20
772.220609
 30
0.0
 11
1620.317801
 21
772.220609
 31
0.0
  0
LINE
  5
525
100
AcDbEntity
  8
LAY-1
  6
CONTINUOUS
 62
     2
100
AcDbLine
 10
1621.791522
 20
808.85539
 30
0.0
 11
1623.017801
 21
808.85539
 31
0.0
  0
LINE
  5
526
100
AcDbEntity
  8
LAY-1
  6
CONTINUOUS
 62
     2
100
AcDbLine
 10
1621.791522
 20
820.85539
 30
0.0
 11
1621.791522
 21
808.85539
 31
0.0
  0
LINE
  5
527
100
AcDbEntity
  8
LAY-1
  6
CONTINUOUS
 62
     2
100
AcDbLine
 10
1621.791522
 20
808.85539
 30
0.0
 11
1620.317801
 21
814.35539
 31
0.0
  0
LINE
  5
528
100
AcDbEntity
  8
LAY-1
  6
CONTINUOUS
 62
     2
100
AcDbLine
 10
1620.317801
 20
809.885735
 30
0.0
 11
1620.317801
 21
820.85539
 31
0.0
  0
LINE
  5
529
100
AcDbEntity
  8
LAY-1
  6
CONTINUOUS
 62
     2
100
AcDbLine
 10
1611.166307
 20
809.885735
 30
0.0
 11
1620.317801
 21
809.885735
 31
0.0
  0
LINE
  5
52A
100
AcDbEntity
  8
LAY-1
  6
CONTINUOUS
 62
     2
100
AcDbLine
 10
1610.317801
 20
811.35539
 30
0.0
 11
1611.166307
 21
809.885735
 31
0.0
  0
LINE
  5
52B
100
AcDbEntity
  8
LAY-1
  6
CONTINUOUS
 62
     2
100
AcDbLine
 10
1611.166307
 20
815.370563
 30
0.0
 11
1620.317801
 21
815.370563
 31
0.0
  0
ARC
  5
52C
100
AcDbEntity
  8
LAY-1
  6
CONTINUOUS
 62
     2
100
AcDbCircle
 10
1615.173865
 20
812.628149
 30
0.0
 40
4.856063
100
AcDbArc
 50
145.615753
 51
214.384247
  0
LINE
  5
52D
100
AcDbEntity
  8
LAY-1
  6
CONTINUOUS
 62
     2
100
AcDbLine
 10
1610.317801
 20
820.85539
 30
0.0
 11
1610.317801
 21
811.35539
 31
0.0
  0
ARC
  5
52E
100
AcDbEntity
  8
LAY-1
  6
CONTINUOUS
 62
     2
100
AcDbCircle
 10
1628.469296
 20
820.85539
 30
0.0
 40
18.151494
100
AcDbArc
 50
180.0
 51
197.587954
  0
ARC
  5
52F
100
AcDbEntity
  8
LAY-1
  6
CONTINUOUS
 62
     2
100
AcDbCircle
 10
1628.469296
 20
820.855391
 30
0.0
 40
18.151494
100
AcDbArc
 50
162.412046
 51
180.0
  0
LINE
  5
530
100
AcDbEntity
  8
LAY-1
  6
CONTINUOUS
 62
     2
100
AcDbLine
 10
1610.317801
 20
830.355391
 30
0.0
 11
1611.166307
 21
831.825046
 31
0.0
  0
LINE
  5
531
100
AcDbEntity
  8
LAY-1
  6
CONTINUOUS
 62
     2
100
AcDbLine
 10
1610.317801
 20
820.855391
 30
0.0
 11
1610.317801
 21
830.355391
 31
0.0
  0
ARC
  5
532
100
AcDbEntity
  8
LAY-1
  6
CONTINUOUS
 62
     2
100
AcDbCircle
 10
1615.173865
 20
829.082632
 30
0.0
 40
4.856063
100
AcDbArc
 50
145.615753
 51
214.384247
  0
LINE
  5
533
100
AcDbEntity
  8
LAY-1
  6
CONTINUOUS
 62
     2
100
AcDbLine
 10
1611.166307
 20
831.825046
 30
0.0
 11
1620.317801
 21
831.825046
 31
0.0
  0
LINE
  5
534
100
AcDbEntity
  8
LAY-1
  6
CONTINUOUS
 62
     2
100
AcDbLine
 10
1620.317801
 20
831.825046
 30
0.0
 11
1620.317801
 21
820.855391
 31
0.0
  0
LINE
  5
535
100
AcDbEntity
  8
LAY-1
  6
CONTINUOUS
 62
     2
100
AcDbLine
 10
1621.791522
 20
832.855391
 30
0.0
 11
1620.317801
 21
827.355391
 31
0.0
  0
LINE
  5
536
100
AcDbEntity
  8
LAY-1
  6
CONTINUOUS
 62
     2
100
AcDbLine
 10
1621.791522
 20
832.855391
 30
0.0
 11
1623.017801
 21
832.855391
 31
0.0
  0
LINE
  5
537
100
AcDbEntity
  8
LAY-1
  6
CONTINUOUS
 62
     2
100
AcDbLine
 10
1621.791522
 20
820.855391
 30
0.0
 11
1621.791522
 21
832.855391
 31
0.0
  0
LINE
  5
538
100
AcDbEntity
  8
LAY-1
  6
CONTINUOUS
 62
     2
100
AcDbLine
 10
1605.517801
 20
826.855391
 30
0.0
 11
1605.017801
 21
826.355391
 31
0.0
  0
LINE
  5
539
100
AcDbEntity
  8
LAY-1
  6
CONTINUOUS
 62
     2
100
AcDbLine
 10
1605.517801
 20
814.855391
 30
0.0
 11
1605.017801
 21
815.355391
 31
0.0
  0
LINE
  5
53A
100
AcDbEntity
  8
LAY-1
  6
CONTINUOUS
 62
     2
100
AcDbLine
 10
1605.017801
 20
815.355391
 30
0.0
 11
1605.017801
 21
826.355391
 31
0.0
  0
LINE
  5
53B
100
AcDbEntity
  8
LAY-1
  6
CONTINUOUS
 62
     2
100
AcDbLine
 10
1605.517801
 20
826.855391
 30
0.0
 11
1610.317801
 21
826.855391
 31
0.0
  0
LINE
  5
53C
100
AcDbEntity
  8
LAY-1
  6
CONTINUOUS
 62
     2
100
AcDbLine
 10
1605.517801
 20
814.855391
 30
0.0
 11
1610.317801
 21
814.855391
 31
0.0
  0
LINE
  5
53D
100
AcDbEntity
  8
LAY-1
  6
CONTINUOUS
 62
     2
100
AcDbLine
 10
1611.166307
 20
826.340219
 30
0.0
 11
1620.317801
 21
826.340219
 31
0.0
  0
ARC
  5
53E
100
AcDbEntity
  8
LAY-1
  6
CONTINUOUS
 62
     2
100
AcDbCircle
 10
1680.640114
 20
768.470869
 30
0.0
 40
10.0
100
AcDbArc
 50
270.0
 51
353.742798
  0
ARC
  5
53F
100
AcDbEntity
  8
LAY-1
  6
CONTINUOUS
 62
     2
100
AcDbCircle
 10
1680.640114
 20
688.464005
 30
0.0
 40
10.0
100
AcDbArc
 50
6.257202
 51
90.0
  0
LINE
  5
540
100
AcDbEntity
  8
LAY-1
  6
CONTINUOUS
 62
     2
100
AcDbLine
 10
1677.0
 20
758.467437
 30
0.0
 11
1680.640114
 21
758.467437
 31
0.0
  0
LINE
  5
541
100
AcDbEntity
  8
LAY-1
  6
CONTINUOUS
 62
     2
100
AcDbLine
 10
1667.0
 20
660.467437
 30
0.0
 11
1667.0
 21
688.467437
 31
0.0
  0
ARC
  5
542
100
AcDbEntity
  8
LAY-1
  6
CONTINUOUS
 62
     2
100
AcDbCircle
 10
1648.0
 20
660.467437
 30
0.0
 40
19.0
100
AcDbArc
 50
335.556665
 51
0.0
  0
ARC
  5
543
100
AcDbEntity
  8
LAY-1
  6
CONTINUOUS
 62
     2
100
AcDbCircle
 10
1677.0
 20
688.467437
 30
0.0
 40
10.0
100
AcDbArc
 50
90.0
 51
180.0
  0
LINE
  5
544
100
AcDbEntity
  8
LAY-1
  6
CONTINUOUS
 62
     2
100
AcDbLine
 10
1667.0
 20
796.467437
 30
0.0
 11
1667.0
 21
768.467437
 31
0.0
  0
ARC
  5
545
100
AcDbEntity
  8
LAY-1
  6
CONTINUOUS
 62
     2
100
AcDbCircle
 10
1677.0
 20
768.467437
 30
0.0
 40
10.0
100
AcDbArc
 50
180.0
 51
270.0
  0
ARC
  5
546
100
AcDbEntity
  8
LAY-1
  6
CONTINUOUS
 62
     2
100
AcDbCircle
 10
1648.0
 20
796.467437
 30
0.0
 40
19.0
100
AcDbArc
 50
0.0
 51
24.443335
  0
ARC
  5
547
100
AcDbEntity
  8
LAY-1
  6
CONTINUOUS
 62
     2
100
AcDbCircle
 10
2045.453766
 20
728.464005
 30
0.0
 40
357.0
100
AcDbArc
 50
186.257202
 51
192.590631
  0
ARC
  5
548
100
AcDbEntity
  8
LAY-1
  6
CONTINUOUS
 62
     2
100
AcDbCircle
 10
2045.453766
 20
728.470869
 30
0.0
 40
357.0
100
AcDbArc
 50
167.409369
 51
173.742798
  0
LINE
  5
549
100
AcDbEntity
  8
LAY-1
  6
CONTINUOUS
 62
     2
100
AcDbLine
 10
1655.008901
 20
646.926272
 30
0.0
 11
1662.160395
 21
646.926272
 31
0.0
  0
LINE
  5
54A
100
AcDbEntity
  8
LAY-1
  6
CONTINUOUS
 62
     2
100
AcDbLine
 10
1662.160395
 20
641.441444
 30
0.0
 11
1655.008901
 21
641.441444
 31
0.0
  0
LINE
  5
54B
100
AcDbEntity
  8
LAY-1
  6
CONTINUOUS
 62
     2
100
AcDbLine
 10
1655.008901
 20
630.471789
 30
0.0
 11
1662.160395
 21
630.471789
 31
0.0
  0
LINE
  5
54C
100
AcDbEntity
  8
LAY-1
  6
CONTINUOUS
 62
     2
100
AcDbLine
 10
1662.160395
 20
624.986961
 30
0.0
 11
1655.008901
 21
624.986961
 31
0.0
  0
LINE
  5
54D
100
AcDbEntity
  8
LAY-1
  6
CONTINUOUS
 62
     2
100
AcDbLine
 10
1662.160395
 20
646.926272
 30
0.0
 11
1663.008901
 21
645.456617
 31
0.0
  0
ARC
  5
54E
100
AcDbEntity
  8
LAY-1
  6
CONTINUOUS
 62
     2
100
AcDbCircle
 10
1658.152837
 20
644.183858
 30
0.0
 40
4.856063
100
AcDbArc
 50
325.615753
 51
34.384247
  0
ARC
  5
54F
100
AcDbEntity
  8
LAY-1
  6
CONTINUOUS
 62
     2
100
AcDbCircle
 10
1644.857406
 20
635.956617
 30
0.0
 40
18.151494
100
AcDbArc
 50
342.412046
 51
17.587954
  0
LINE
  5
550
100
AcDbEntity
  8
LAY-1
  6
CONTINUOUS
 62
     2
100
AcDbLine
 10
1663.008901
 20
626.456617
 30
0.0
 11
1662.160395
 21
624.986961
 31
0.0
  0
ARC
  5
551
100
AcDbEntity
  8
LAY-1
  6
CONTINUOUS
 62
     2
100
AcDbCircle
 10
1658.152837
 20
627.729375
 30
0.0
 40
4.856063
100
AcDbArc
 50
325.615753
 51
34.384247
  0
LINE
  5
552
100
AcDbEntity
  8
LAY-1
  6
CONTINUOUS
 62
     2
100
AcDbLine
 10
1663.008901
 20
645.456617
 30
0.0
 11
1663.008901
 21
626.456617
 31
0.0
  0
LINE
  5
553
100
AcDbEntity
  8
LAY-1
  6
CONTINUOUS
 62
     2
100
AcDbLine
 10
1655.008901
 20
701.045882
 30
0.0
 11
1662.160395
 21
701.045882
 31
0.0
  0
LINE
  5
554
100
AcDbEntity
  8
LAY-1
  6
CONTINUOUS
 62
     2
100
AcDbLine
 10
1662.160395
 20
695.561054
 30
0.0
 11
1655.008901
 21
695.561054
 31
0.0
  0
LINE
  5
555
100
AcDbEntity
  8
LAY-1
  6
CONTINUOUS
 62
     2
100
AcDbLine
 10
1655.008901
 20
684.591399
 30
0.0
 11
1662.160395
 21
684.591399
 31
0.0
  0
LINE
  5
556
100
AcDbEntity
  8
LAY-1
  6
CONTINUOUS
 62
     2
100
AcDbLine
 10
1662.160395
 20
679.106571
 30
0.0
 11
1655.008901
 21
679.106571
 31
0.0
  0
LINE
  5
557
100
AcDbEntity
  8
LAY-1
  6
CONTINUOUS
 62
     2
100
AcDbLine
 10
1662.160395
 20
701.045882
 30
0.0
 11
1663.008901
 21
699.576227
 31
0.0
  0
ARC
  5
558
100
AcDbEntity
  8
LAY-1
  6
CONTINUOUS
 62
     2
100
AcDbCircle
 10
1658.152837
 20
698.303468
 30
0.0
 40
4.856063
100
AcDbArc
 50
325.615753
 51
34.384247
  0
ARC
  5
559
100
AcDbEntity
  8
LAY-1
  6
CONTINUOUS
 62
     2
100
AcDbCircle
 10
1644.857406
 20
690.076227
 30
0.0
 40
18.151494
100
AcDbArc
 50
342.412046
 51
17.587954
  0
LINE
  5
55A
100
AcDbEntity
  8
LAY-1
  6
CONTINUOUS
 62
     2
100
AcDbLine
 10
1663.008901
 20
680.576227
 30
0.0
 11
1662.160395
 21
679.106571
 31
0.0
  0
ARC
  5
55B
100
AcDbEntity
  8
LAY-1
  6
CONTINUOUS
 62
     2
100
AcDbCircle
 10
1658.152837
 20
681.848985
 30
0.0
 40
4.856063
100
AcDbArc
 50
325.615753
 51
34.384247
  0
LINE
  5
55C
100
AcDbEntity
  8
LAY-1
  6
CONTINUOUS
 62
     2
100
AcDbLine
 10
1663.008901
 20
699.576227
 30
0.0
 11
1663.008901
 21
680.576227
 31
0.0
  0
LINE
  5
55D
100
AcDbEntity
  8
LAY-1
  6
CONTINUOUS
 62
     2
100
AcDbLine
 10
1655.008901
 20
777.582568
 30
0.0
 11
1662.160395
 21
777.582568
 31
0.0
  0
LINE
  5
55E
100
AcDbEntity
  8
LAY-1
  6
CONTINUOUS
 62
     2
100
AcDbLine
 10
1662.160395
 20
772.097741
 30
0.0
 11
1655.008901
 21
772.097741
 31
0.0
  0
LINE
  5
55F
100
AcDbEntity
  8
LAY-1
  6
CONTINUOUS
 62
     2
100
AcDbLine
 10
1655.008901
 20
761.128085
 30
0.0
 11
1662.160395
 21
761.128085
 31
0.0
  0
LINE
  5
560
100
AcDbEntity
  8
LAY-1
  6
CONTINUOUS
 62
     2
100
AcDbLine
 10
1662.160395
 20
755.643258
 30
0.0
 11
1655.008901
 21
755.643258
 31
0.0
  0
LINE
  5
561
100
AcDbEntity
  8
LAY-1
  6
CONTINUOUS
 62
     2
100
AcDbLine
 10
1662.160395
 20
777.582568
 30
0.0
 11
1663.008901
 21
776.112913
 31
0.0
  0
ARC
  5
562
100
AcDbEntity
  8
LAY-1
  6
CONTINUOUS
 62
     2
100
AcDbCircle
 10
1658.152837
 20
774.840154
 30
0.0
 40
4.856063
100
AcDbArc
 50
325.615753
 51
34.384247
  0
ARC
  5
563
100
AcDbEntity
  8
LAY-1
  6
CONTINUOUS
 62
     2
100
AcDbCircle
 10
1644.857406
 20
766.612913
 30
0.0
 40
18.151494
100
AcDbArc
 50
342.412046
 51
17.587954
  0
LINE
  5
564
100
AcDbEntity
  8
LAY-1
  6
CONTINUOUS
 62
     2
100
AcDbLine
 10
1663.008901
 20
757.112913
 30
0.0
 11
1662.160395
 21
755.643258
 31
0.0
  0
ARC
  5
565
100
AcDbEntity
  8
LAY-1
  6
CONTINUOUS
 62
     2
100
AcDbCircle
 10
1658.152837
 20
758.385672
 30
0.0
 40
4.856063
100
AcDbArc
 50
325.615753
 51
34.384247
  0
LINE
  5
566
100
AcDbEntity
  8
LAY-1
  6
CONTINUOUS
 62
     2
100
AcDbLine
 10
1663.008901
 20
776.112913
 30
0.0
 11
1663.008901
 21
757.112913
 31
0.0
  0
LINE
  5
567
100
AcDbEntity
  8
LAY-1
  6
CONTINUOUS
 62
     2
100
AcDbLine
 10
1655.008901
 20
831.702178
 30
0.0
 11
1662.160395
 21
831.702178
 31
0.0
  0
LINE
  5
568
100
AcDbEntity
  8
LAY-1
  6
CONTINUOUS
 62
     2
100
AcDbLine
 10
1662.160395
 20
826.217351
 30
0.0
 11
1655.008901
 21
826.217351
 31
0.0
  0
LINE
  5
569
100
AcDbEntity
  8
LAY-1
  6
CONTINUOUS
 62
     2
100
AcDbLine
 10
1655.008901
 20
815.247696
 30
0.0
 11
1662.160395
 21
815.247696
 31
0.0
  0
LINE
  5
56A
100
AcDbEntity
  8
LAY-1
  6
CONTINUOUS
 62
     2
100
AcDbLine
 10
1662.160395
 20
809.762868
 30
0.0
 11
1655.008901
 21
809.762868
 31
0.0
  0
LINE
  5
56B
100
AcDbEntity
  8
LAY-1
  6
CONTINUOUS
 62
     2
100
AcDbLine
 10
1662.160395
 20
831.702178
 30
0.0
 11
1663.008901
 21
830.232523
 31
0.0
  0
ARC
  5
56C
100
AcDbEntity
  8
LAY-1
  6
CONTINUOUS
 62
     2
100
AcDbCircle
 10
1658.152837
 20
828.959764
 30
0.0
 40
4.856063
100
AcDbArc
 50
325.615753
 51
34.384247
  0
ARC
  5
56D
100
AcDbEntity
  8
LAY-1
  6
CONTINUOUS
 62
     2
100
AcDbCircle
 10
1644.857406
 20
820.732523
 30
0.0
 40
18.151494
100
AcDbArc
 50
342.412046
 51
17.587954
  0
LINE
  5
56E
100
AcDbEntity
  8
LAY-1
  6
CONTINUOUS
 62
     2
100
AcDbLine
 10
1663.008901
 20
811.232523
 30
0.0
 11
1662.160395
 21
809.762868
 31
0.0
  0
ARC
  5
56F
100
AcDbEntity
  8
LAY-1
  6
CONTINUOUS
 62
     2
100
AcDbCircle
 10
1658.152837
 20
812.505282
 30
0.0
 40
4.856063
100
AcDbArc
 50
325.615753
 51
34.384247
  0
LINE
  5
570
100
AcDbEntity
  8
LAY-1
  6
CONTINUOUS
 62
     2
100
AcDbLine
 10
1663.008901
 20
830.232523
 30
0.0
 11
1663.008901
 21
811.232523
 31
0.0
  0
ARC
  5
571
100
AcDbEntity
  8
LAY-1
  6
CONTINUOUS
 62
     2
100
AcDbCircle
 10
1669.5
 20
857.876496
 30
0.0
 40
2.0
100
AcDbArc
 50
180.0
 51
270.0
  0
LINE
  5
572
100
AcDbEntity
  8
LAY-1
  6
CONTINUOUS
 62
     2
100
AcDbLine
 10
1667.5
 20
857.876496
 30
0.0
 11
1667.5
 21
870.967437
 31
0.0
  0
ARC
  5
573
100
AcDbEntity
  8
LAY-1
  6
CONTINUOUS
 62
     2
100
AcDbCircle
 10
1699.455593
 20
850.876496
 30
0.0
 40
5.0
100
AcDbArc
 50
15.0
 51
90.0
  0
LINE
  5
574
100
AcDbEntity
  8
LAY-1
  6
CONTINUOUS
 62
     2
100
AcDbLine
 10
1705.173016
 20
848.8573
 30
0.0
 11
1704.285222
 21
852.170591
 31
0.0
  0
ARC
  5
575
100
AcDbEntity
  8
LAY-1
  6
CONTINUOUS
 62
     2
100
AcDbCircle
 10
1685.854499
 20
843.680919
 30
0.0
 40
20.0
100
AcDbArc
 50
342.524264
 51
15.0
  0
ARC
  5
576
100
AcDbEntity
  8
LAY-1
  6
CONTINUOUS
 62
     2
100
AcDbCircle
 10
2045.453766
 20
730.467437
 30
0.0
 40
357.0
100
AcDbArc
 50
162.524264
 51
168.173775
  0
ARC
  5
577
100
AcDbEntity
  8
LAY-1
  6
CONTINUOUS
 62
     2
100
AcDbCircle
 10
1687.279994
 20
808.470869
 30
0.0
 40
10.0
100
AcDbArc
 50
270.0
 51
331.06352
  0
ARC
  5
578
100
AcDbEntity
  8
LAY-1
  6
CONTINUOUS
 62
     2
100
AcDbCircle
 10
1265.5
 20
728.467437
 30
0.0
 40
220.076784
100
AcDbArc
 50
0.0
 51
7.30106
  0
ARC
  5
579
100
AcDbEntity
  8
LAY-1
  6
CONTINUOUS
 62
     2
100
AcDbCircle
 10
1265.5
 20
728.467437
 30
0.0
 40
220.076784
100
AcDbArc
 50
352.69894
 51
0.0
  0
ARC
  5
57A
100
AcDbEntity
  8
LAY-1
  6
CONTINUOUS
 62
     2
100
AcDbCircle
 10
764.48757
 20
702.967438
 30
0.0
 40
2.0
100
AcDbArc
 50
90.0
 51
170.664557
  0
LINE
  5
57B
100
AcDbEntity
  8
LAY-1
  6
CONTINUOUS
 62
     2
100
AcDbLine
 10
762.325788
 20
702.146605
 30
0.0
 11
762.514059
 21
703.291866
 31
0.0
  0
ARC
  5
57C
100
AcDbEntity
  8
LAY-1
  6
CONTINUOUS
 62
     2
100
AcDbCircle
 10
760.356172
 20
702.493902
 30
0.0
 40
2.0
100
AcDbArc
 50
265.73917
 51
350.0
  0
LINE
  5
57D
100
AcDbEntity
  8
LAY-1
  6
CONTINUOUS
 62
     2
100
AcDbLine
 10
760.750856
 20
700.499429
 30
0.0
 11
760.741749
 21
700.499429
 31
0.0
  0
ARC
  5
57E
100
AcDbEntity
  8
LAY-1
  6
CONTINUOUS
 62
     2
100
AcDbCircle
 10
1122.0
 20
1334.949636
 30
0.0
 40
70.0
100
AcDbArc
 50
298.25443
 51
241.74557
  0
LINE
  5
57F
100
AcDbEntity
  8
LAY-1
  6
CONTINUOUS
 62
     2
100
AcDbLine
 10
1234.0
 20
1242.961835
 30
0.0
 11
1010.0
 21
1242.961835
 31
0.0
  0
LINE
  5
580
100
AcDbEntity
  8
LAY-1
  6
CONTINUOUS
 62
     2
100
AcDbLine
 10
1232.0
 20
1227.961835
 30
0.0
 11
1012.0
 21
1227.961835
 31
0.0
  0
LINE
  5
581
100
AcDbEntity
  8
LAY-1
  6
CONTINUOUS
 62
     2
100
AcDbLine
 10
1055.64624
 20
1200.961835
 30
0.0
 11
1040.828427
 21
1200.961835
 31
0.0
  0
LINE
  5
582
100
AcDbEntity
  8
LAY-1
  6
CONTINUOUS
 62
     2
100
AcDbLine
 10
1039.414214
 20
1200.376048
 30
0.0
 11
1038.585786
 21
1199.547621
 31
0.0
  0
ARC
  5
583
100
AcDbEntity
  8
LAY-1
  6
CONTINUOUS
 62
     2
100
AcDbCircle
 10
1189.0007
 20
1212.961835
 30
0.0
 40
3.0
100
AcDbArc
 50
90.0
 51
177.5304
  0
ARC
  5
584
100
AcDbEntity
  8
LAY-1
  6
CONTINUOUS
 62
     2
100
AcDbCircle
 10
1040.828427
 20
1198.961835
 30
0.0
 40
2.0
100
AcDbArc
 50
90.0
 51
135.0
  0
LINE
  5
585
100
AcDbEntity
  8
LAY-1
  6
CONTINUOUS
 62
     2
100
AcDbLine
 10
1234.0
 20
1244.949636
 30
0.0
 11
1234.0
 21
1229.961835
 31
0.0
  0
ARC
  5
586
100
AcDbEntity
  8
LAY-1
  6
CONTINUOUS
 62
     2
100
AcDbCircle
 10
1232.0
 20
1229.961835
 30
0.0
 40
2.0
100
AcDbArc
 50
270.0
 51
0.0
  0
LINE
  5
587
100
AcDbEntity
  8
LAY-1
  6
CONTINUOUS
 62
     2
100
AcDbLine
 10
1010.0
 20
1244.949636
 30
0.0
 11
1010.0
 21
1229.961835
 31
0.0
  0
ARC
  5
588
100
AcDbEntity
  8
LAY-1
  6
CONTINUOUS
 62
     2
100
AcDbCircle
 10
1012.0
 20
1229.961835
 30
0.0
 40
2.0
100
AcDbArc
 50
180.0
 51
270.0
  0
LINE
  5
589
100
AcDbEntity
  8
LAY-1
  6
CONTINUOUS
 62
     2
100
AcDbLine
 10
1234.0
 20
1244.949636
 30
0.0
 11
1010.0
 21
1244.949636
 31
0.0
  0
ARC
  5
58A
100
AcDbEntity
  8
LAY-1
  6
CONTINUOUS
 62
     2
100
AcDbCircle
 10
1012.0
 20
1264.949636
 30
0.0
 40
2.0
100
AcDbArc
 50
90.0
 51
180.0
  0
LINE
  5
58B
100
AcDbEntity
  8
LAY-1
  6
CONTINUOUS
 62
     2
100
AcDbLine
 10
1010.0
 20
1244.949636
 30
0.0
 11
1010.0
 21
1264.949636
 31
0.0
  0
ARC
  5
58C
100
AcDbEntity
  8
LAY-1
  6
CONTINUOUS
 62
     2
100
AcDbCircle
 10
1232.0
 20
1264.949636
 30
0.0
 40
2.0
100
AcDbArc
 50
0.0
 51
90.0
  0
LINE
  5
58D
100
AcDbEntity
  8
LAY-1
  6
CONTINUOUS
 62
     2
100
AcDbLine
 10
1234.0
 20
1244.949636
 30
0.0
 11
1234.0
 21
1264.949636
 31
0.0
  0
LINE
  5
58E
100
AcDbEntity
  8
LAY-1
  6
CONTINUOUS
 62
     2
100
AcDbLine
 10
1190.66309
 20
1269.556135
 30
0.0
 11
1161.651005
 21
1270.569259
 31
0.0
  0
LINE
  5
58F
100
AcDbEntity
  8
LAY-1
  6
CONTINUOUS
 62
     2
100
AcDbLine
 10
1053.33691
 20
1269.556135
 30
0.0
 11
1082.348995
 21
1270.569259
 31
0.0
  0
ARC
  5
590
100
AcDbEntity
  8
LAY-1
  6
CONTINUOUS
 62
     2
100
AcDbCircle
 10
1054.9993
 20
1212.961835
 30
0.0
 40
3.0
100
AcDbArc
 50
2.4696
 51
90.0
  0
LINE
  5
591
100
AcDbEntity
  8
LAY-1
  6
CONTINUOUS
 62
     2
100
AcDbLine
 10
1234.0
 20
1259.949636
 30
0.0
 11
1010.0
 21
1259.949636
 31
0.0
  0
ARC
  5
592
100
AcDbEntity
  8
LAY-1
  6
CONTINUOUS
 62
     2
100
AcDbCircle
 10
1054.0
 20
1250.567709
 30
0.0
 40
19.0
100
AcDbArc
 50
92.0
 51
135.454444
  0
ARC
  5
593
100
AcDbEntity
  8
LAY-1
  6
CONTINUOUS
 62
     2
100
AcDbCircle
 10
1190.0
 20
1250.567709
 30
0.0
 40
19.0
100
AcDbArc
 50
45.592288
 51
88.0
  0
LINE
  5
594
100
AcDbEntity
  8
LAY-1
  6
CONTINUOUS
 62
     2
100
AcDbLine
 10
1044.375424
 20
1266.949636
 30
0.0
 11
1040.458834
 21
1266.949636
 31
0.0
  0
LINE
  5
595
100
AcDbEntity
  8
LAY-1
  6
CONTINUOUS
 62
     2
100
AcDbLine
 10
1018.519524
 20
1266.949636
 30
0.0
 11
1012.0
 21
1266.949636
 31
0.0
  0
LINE
  5
596
100
AcDbEntity
  8
LAY-1
  6
CONTINUOUS
 62
     2
100
AcDbLine
 10
1203.295431
 20
1266.949636
 30
0.0
 11
1199.624576
 21
1266.949636
 31
0.0
  0
LINE
  5
597
100
AcDbEntity
  8
LAY-1
  6
CONTINUOUS
 62
     2
100
AcDbLine
 10
1232.0
 20
1266.949636
 30
0.0
 11
1225.234741
 21
1266.949636
 31
0.0
  0
LINE
  5
598
100
AcDbEntity
  8
LAY-1
  6
CONTINUOUS
 62
     2
100
AcDbLine
 10
1040.1
 20
1200.824466
 30
0.0
 11
1040.1
 21
1215.825765
 31
0.0
  0
LINE
  5
599
100
AcDbEntity
  8
LAY-1
  6
CONTINUOUS
 62
     2
100
AcDbLine
 10
1020.0
 20
1226.101308
 30
0.0
 11
1020.0
 21
1225.267437
 31
0.0
  0
LINE
  5
59A
100
AcDbEntity
  8
LAY-1
  6
CONTINUOUS
 62
     2
100
AcDbLine
 10
1020.0
 20
1215.332127
 30
0.0
 11
1020.0
 21
1200.961835
 31
0.0
  0
LINE
  5
59B
100
AcDbEntity
  8
LAY-1
  6
CONTINUOUS
 62
     2
100
AcDbLine
 10
1040.341665
 20
1215.961835
 30
0.0
 11
1073.002039
 21
1215.961835
 31
0.0
  0
LINE
  5
59C
100
AcDbEntity
  8
LAY-1
  6
CONTINUOUS
 62
     2
100
AcDbLine
 10
1149.565611
 20
1215.961835
 30
0.0
 11
1094.461275
 21
1215.961835
 31
0.0
  0
LINE
  5
59D
100
AcDbEntity
  8
LAY-1
  6
CONTINUOUS
 62
     2
100
AcDbLine
 10
1203.658335
 20
1215.961835
 30
0.0
 11
1170.997961
 21
1215.961835
 31
0.0
  0
LINE
  5
59E
100
AcDbEntity
  8
LAY-1
  6
CONTINUOUS
 62
     2
100
AcDbLine
 10
1017.612046
 20
1226.741158
 30
0.0
 11
1017.612046
 21
1227.967437
 31
0.0
  0
LINE
  5
59F
100
AcDbEntity
  8
LAY-1
  6
CONTINUOUS
 62
     2
100
AcDbLine
 10
1029.612046
 20
1226.741158
 30
0.0
 11
1017.612046
 21
1226.741158
 31
0.0
  0
LINE
  5
5A0
100
AcDbEntity
  8
LAY-1
  6
CONTINUOUS
 62
     2
100
AcDbLine
 10
1017.612046
 20
1226.741158
 30
0.0
 11
1023.112046
 21
1225.267437
 31
0.0
  0
LINE
  5
5A1
100
AcDbEntity
  8
LAY-1
  6
CONTINUOUS
 62
     2
100
AcDbLine
 10
1018.642391
 20
1225.267437
 30
0.0
 11
1029.612046
 21
1225.267437
 31
0.0
  0
LINE
  5
5A2
100
AcDbEntity
  8
LAY-1
  6
CONTINUOUS
 62
     2
100
AcDbLine
 10
1018.642391
 20
1216.115943
 30
0.0
 11
1018.642391
 21
1225.267437
 31
0.0
  0
LINE
  5
5A3
100
AcDbEntity
  8
LAY-1
  6
CONTINUOUS
 62
     2
100
AcDbLine
 10
1020.112046
 20
1215.267437
 30
0.0
 11
1018.642391
 21
1216.115943
 31
0.0
  0
LINE
  5
5A4
100
AcDbEntity
  8
LAY-1
  6
CONTINUOUS
 62
     2
100
AcDbLine
 10
1024.127219
 20
1216.115943
 30
0.0
 11
1024.127219
 21
1225.267437
 31
0.0
  0
ARC
  5
5A5
100
AcDbEntity
  8
LAY-1
  6
CONTINUOUS
 62
     2
100
AcDbCircle
 10
1021.384805
 20
1220.123501
 30
0.0
 40
4.856063
100
AcDbArc
 50
235.615753
 51
304.384247
  0
LINE
  5
5A6
100
AcDbEntity
  8
LAY-1
  6
CONTINUOUS
 62
     2
100
AcDbLine
 10
1029.612046
 20
1215.267437
 30
0.0
 11
1020.112046
 21
1215.267437
 31
0.0
  0
ARC
  5
5A7
100
AcDbEntity
  8
LAY-1
  6
CONTINUOUS
 62
     2
100
AcDbCircle
 10
1029.612046
 20
1233.418932
 30
0.0
 40
18.151494
100
AcDbArc
 50
252.412046
 51
270.0
  0
ARC
  5
5A8
100
AcDbEntity
  8
LAY-1
  6
CONTINUOUS
 62
     2
100
AcDbCircle
 10
1029.612047
 20
1233.418932
 30
0.0
 40
18.151494
100
AcDbArc
 50
270.0
 51
287.587954
  0
LINE
  5
5A9
100
AcDbEntity
  8
LAY-1
  6
CONTINUOUS
 62
     2
100
AcDbLine
 10
1039.112047
 20
1215.267437
 30
0.0
 11
1040.581702
 21
1216.115943
 31
0.0
  0
LINE
  5
5AA
100
AcDbEntity
  8
LAY-1
  6
CONTINUOUS
 62
     2
100
AcDbLine
 10
1029.612047
 20
1215.267437
 30
0.0
 11
1039.112047
 21
1215.267437
 31
0.0
  0
ARC
  5
5AB
100
AcDbEntity
  8
LAY-1
  6
CONTINUOUS
 62
     2
100
AcDbCircle
 10
1037.839288
 20
1220.123501
 30
0.0
 40
4.856063
100
AcDbArc
 50
235.615753
 51
304.384247
  0
LINE
  5
5AC
100
AcDbEntity
  8
LAY-1
  6
CONTINUOUS
 62
     2
100
AcDbLine
 10
1040.581702
 20
1216.115943
 30
0.0
 11
1040.581702
 21
1225.267437
 31
0.0
  0
LINE
  5
5AD
100
AcDbEntity
  8
LAY-1
  6
CONTINUOUS
 62
     2
100
AcDbLine
 10
1040.581702
 20
1225.267437
 30
0.0
 11
1029.612047
 21
1225.267437
 31
0.0
  0
LINE
  5
5AE
100
AcDbEntity
  8
LAY-1
  6
CONTINUOUS
 62
     2
100
AcDbLine
 10
1041.612047
 20
1226.741158
 30
0.0
 11
1036.112047
 21
1225.267437
 31
0.0
  0
LINE
  5
5AF
100
AcDbEntity
  8
LAY-1
  6
CONTINUOUS
 62
     2
100
AcDbLine
 10
1041.612047
 20
1226.741158
 30
0.0
 11
1041.612047
 21
1227.967437
 31
0.0
  0
LINE
  5
5B0
100
AcDbEntity
  8
LAY-1
  6
CONTINUOUS
 62
     2
100
AcDbLine
 10
1029.612047
 20
1226.741158
 30
0.0
 11
1041.612047
 21
1226.741158
 31
0.0
  0
LINE
  5
5B1
100
AcDbEntity
  8
LAY-1
  6
CONTINUOUS
 62
     2
100
AcDbLine
 10
1035.612047
 20
1210.467437
 30
0.0
 11
1035.112047
 21
1209.967437
 31
0.0
  0
LINE
  5
5B2
100
AcDbEntity
  8
LAY-1
  6
CONTINUOUS
 62
     2
100
AcDbLine
 10
1023.612047
 20
1210.467437
 30
0.0
 11
1024.112047
 21
1209.967437
 31
0.0
  0
LINE
  5
5B3
100
AcDbEntity
  8
LAY-1
  6
CONTINUOUS
 62
     2
100
AcDbLine
 10
1024.112047
 20
1209.967437
 30
0.0
 11
1035.112047
 21
1209.967437
 31
0.0
  0
LINE
  5
5B4
100
AcDbEntity
  8
LAY-1
  6
CONTINUOUS
 62
     2
100
AcDbLine
 10
1035.612047
 20
1210.467437
 30
0.0
 11
1035.612047
 21
1215.267437
 31
0.0
  0
LINE
  5
5B5
100
AcDbEntity
  8
LAY-1
  6
CONTINUOUS
 62
     2
100
AcDbLine
 10
1023.612047
 20
1210.467437
 30
0.0
 11
1023.612047
 21
1215.267437
 31
0.0
  0
LINE
  5
5B6
100
AcDbEntity
  8
LAY-1
  6
CONTINUOUS
 62
     2
100
AcDbLine
 10
1035.096875
 20
1216.115943
 30
0.0
 11
1035.096875
 21
1225.267437
 31
0.0
  0
LINE
  5
5B7
100
AcDbEntity
  8
LAY-1
  6
CONTINUOUS
 62
     2
100
AcDbLine
 10
1040.458834
 20
1259.958537
 30
0.0
 11
1040.458834
 21
1267.110031
 31
0.0
  0
LINE
  5
5B8
100
AcDbEntity
  8
LAY-1
  6
CONTINUOUS
 62
     2
100
AcDbLine
 10
1034.974007
 20
1267.110031
 30
0.0
 11
1034.974007
 21
1259.958537
 31
0.0
  0
LINE
  5
5B9
100
AcDbEntity
  8
LAY-1
  6
CONTINUOUS
 62
     2
100
AcDbLine
 10
1024.004352
 20
1259.958537
 30
0.0
 11
1024.004352
 21
1267.110031
 31
0.0
  0
LINE
  5
5BA
100
AcDbEntity
  8
LAY-1
  6
CONTINUOUS
 62
     2
100
AcDbLine
 10
1018.519524
 20
1267.110031
 30
0.0
 11
1018.519524
 21
1259.958537
 31
0.0
  0
LINE
  5
5BB
100
AcDbEntity
  8
LAY-1
  6
CONTINUOUS
 62
     2
100
AcDbLine
 10
1040.458834
 20
1267.110031
 30
0.0
 11
1038.989179
 21
1267.958537
 31
0.0
  0
ARC
  5
5BC
100
AcDbEntity
  8
LAY-1
  6
CONTINUOUS
 62
     2
100
AcDbCircle
 10
1037.71642
 20
1263.102474
 30
0.0
 40
4.856063
100
AcDbArc
 50
55.615753
 51
124.384247
  0
ARC
  5
5BD
100
AcDbEntity
  8
LAY-1
  6
CONTINUOUS
 62
     2
100
AcDbCircle
 10
1029.489179
 20
1249.807043
 30
0.0
 40
18.151494
100
AcDbArc
 50
72.412046
 51
107.587954
  0
LINE
  5
5BE
100
AcDbEntity
  8
LAY-1
  6
CONTINUOUS
 62
     2
100
AcDbLine
 10
1019.989179
 20
1267.958537
 30
0.0
 11
1018.519524
 21
1267.110031
 31
0.0
  0
ARC
  5
5BF
100
AcDbEntity
  8
LAY-1
  6
CONTINUOUS
 62
     2
100
AcDbCircle
 10
1021.261938
 20
1263.102474
 30
0.0
 40
4.856063
100
AcDbArc
 50
55.615753
 51
124.384247
  0
LINE
  5
5C0
100
AcDbEntity
  8
LAY-1
  6
CONTINUOUS
 62
     2
100
AcDbLine
 10
1038.989179
 20
1267.958537
 30
0.0
 11
1019.989179
 21
1267.958537
 31
0.0
  0
LINE
  5
5C1
100
AcDbEntity
  8
LAY-1
  6
CONTINUOUS
 62
     2
100
AcDbLine
 10
1071.731656
 20
1226.741158
 30
0.0
 11
1071.731656
 21
1227.967437
 31
0.0
  0
LINE
  5
5C2
100
AcDbEntity
  8
LAY-1
  6
CONTINUOUS
 62
     2
100
AcDbLine
 10
1083.731656
 20
1226.741158
 30
0.0
 11
1071.731656
 21
1226.741158
 31
0.0
  0
LINE
  5
5C3
100
AcDbEntity
  8
LAY-1
  6
CONTINUOUS
 62
     2
100
AcDbLine
 10
1071.731656
 20
1226.741158
 30
0.0
 11
1077.231656
 21
1225.267437
 31
0.0
  0
LINE
  5
5C4
100
AcDbEntity
  8
LAY-1
  6
CONTINUOUS
 62
     2
100
AcDbLine
 10
1072.762001
 20
1225.267437
 30
0.0
 11
1083.731656
 21
1225.267437
 31
0.0
  0
LINE
  5
5C5
100
AcDbEntity
  8
LAY-1
  6
CONTINUOUS
 62
     2
100
AcDbLine
 10
1072.762001
 20
1216.115943
 30
0.0
 11
1072.762001
 21
1225.267437
 31
0.0
  0
LINE
  5
5C6
100
AcDbEntity
  8
LAY-1
  6
CONTINUOUS
 62
     2
100
AcDbLine
 10
1074.231656
 20
1215.267437
 30
0.0
 11
1072.762001
 21
1216.115943
 31
0.0
  0
LINE
  5
5C7
100
AcDbEntity
  8
LAY-1
  6
CONTINUOUS
 62
     2
100
AcDbLine
 10
1078.246829
 20
1216.115943
 30
0.0
 11
1078.246829
 21
1225.267437
 31
0.0
  0
ARC
  5
5C8
100
AcDbEntity
  8
LAY-1
  6
CONTINUOUS
 62
     2
100
AcDbCircle
 10
1075.504415
 20
1220.123501
 30
0.0
 40
4.856063
100
AcDbArc
 50
235.615753
 51
304.384247
  0
LINE
  5
5C9
100
AcDbEntity
  8
LAY-1
  6
CONTINUOUS
 62
     2
100
AcDbLine
 10
1083.731656
 20
1215.267437
 30
0.0
 11
1074.231656
 21
1215.267437
 31
0.0
  0
ARC
  5
5CA
100
AcDbEntity
  8
LAY-1
  6
CONTINUOUS
 62
     2
100
AcDbCircle
 10
1083.731656
 20
1233.418932
 30
0.0
 40
18.151494
100
AcDbArc
 50
252.412046
 51
270.0
  0
ARC
  5
5CB
100
AcDbEntity
  8
LAY-1
  6
CONTINUOUS
 62
     2
100
AcDbCircle
 10
1083.731657
 20
1233.418932
 30
0.0
 40
18.151494
100
AcDbArc
 50
270.0
 51
287.587954
  0
LINE
  5
5CC
100
AcDbEntity
  8
LAY-1
  6
CONTINUOUS
 62
     2
100
AcDbLine
 10
1093.231657
 20
1215.267437
 30
0.0
 11
1094.701312
 21
1216.115943
 31
0.0
  0
LINE
  5
5CD
100
AcDbEntity
  8
LAY-1
  6
CONTINUOUS
 62
     2
100
AcDbLine
 10
1083.731657
 20
1215.267437
 30
0.0
 11
1093.231657
 21
1215.267437
 31
0.0
  0
ARC
  5
5CE
100
AcDbEntity
  8
LAY-1
  6
CONTINUOUS
 62
     2
100
AcDbCircle
 10
1091.958898
 20
1220.123501
 30
0.0
 40
4.856063
100
AcDbArc
 50
235.615753
 51
304.384247
  0
LINE
  5
5CF
100
AcDbEntity
  8
LAY-1
  6
CONTINUOUS
 62
     2
100
AcDbLine
 10
1094.701312
 20
1216.115943
 30
0.0
 11
1094.701312
 21
1225.267437
 31
0.0
  0
LINE
  5
5D0
100
AcDbEntity
  8
LAY-1
  6
CONTINUOUS
 62
     2
100
AcDbLine
 10
1094.701312
 20
1225.267437
 30
0.0
 11
1083.731657
 21
1225.267437
 31
0.0
  0
LINE
  5
5D1
100
AcDbEntity
  8
LAY-1
  6
CONTINUOUS
 62
     2
100
AcDbLine
 10
1095.731657
 20
1226.741158
 30
0.0
 11
1090.231657
 21
1225.267437
 31
0.0
  0
LINE
  5
5D2
100
AcDbEntity
  8
LAY-1
  6
CONTINUOUS
 62
     2
100
AcDbLine
 10
1095.731657
 20
1226.741158
 30
0.0
 11
1095.731657
 21
1227.967437
 31
0.0
  0
LINE
  5
5D3
100
AcDbEntity
  8
LAY-1
  6
CONTINUOUS
 62
     2
100
AcDbLine
 10
1083.731657
 20
1226.741158
 30
0.0
 11
1095.731657
 21
1226.741158
 31
0.0
  0
LINE
  5
5D4
100
AcDbEntity
  8
LAY-1
  6
CONTINUOUS
 62
     2
100
AcDbLine
 10
1089.731657
 20
1210.467437
 30
0.0
 11
1089.231657
 21
1209.967437
 31
0.0
  0
LINE
  5
5D5
100
AcDbEntity
  8
LAY-1
  6
CONTINUOUS
 62
     2
100
AcDbLine
 10
1077.731657
 20
1210.467437
 30
0.0
 11
1078.231657
 21
1209.967437
 31
0.0
  0
LINE
  5
5D6
100
AcDbEntity
  8
LAY-1
  6
CONTINUOUS
 62
     2
100
AcDbLine
 10
1078.231657
 20
1209.967437
 30
0.0
 11
1089.231657
 21
1209.967437
 31
0.0
  0
LINE
  5
5D7
100
AcDbEntity
  8
LAY-1
  6
CONTINUOUS
 62
     2
100
AcDbLine
 10
1089.731657
 20
1210.467437
 30
0.0
 11
1089.731657
 21
1215.267437
 31
0.0
  0
LINE
  5
5D8
100
AcDbEntity
  8
LAY-1
  6
CONTINUOUS
 62
     2
100
AcDbLine
 10
1077.731657
 20
1210.467437
 30
0.0
 11
1077.731657
 21
1215.267437
 31
0.0
  0
LINE
  5
5D9
100
AcDbEntity
  8
LAY-1
  6
CONTINUOUS
 62
     2
100
AcDbLine
 10
1089.216485
 20
1216.115943
 30
0.0
 11
1089.216485
 21
1225.267437
 31
0.0
  0
LINE
  5
5DA
100
AcDbEntity
  8
LAY-1
  6
CONTINUOUS
 62
     2
100
AcDbLine
 10
1094.578444
 20
1259.958537
 30
0.0
 11
1094.578444
 21
1267.110031
 31
0.0
  0
LINE
  5
5DB
100
AcDbEntity
  8
LAY-1
  6
CONTINUOUS
 62
     2
100
AcDbLine
 10
1089.093617
 20
1267.110031
 30
0.0
 11
1089.093617
 21
1259.958537
 31
0.0
  0
LINE
  5
5DC
100
AcDbEntity
  8
LAY-1
  6
CONTINUOUS
 62
     2
100
AcDbLine
 10
1078.123962
 20
1259.958537
 30
0.0
 11
1078.123962
 21
1267.110031
 31
0.0
  0
LINE
  5
5DD
100
AcDbEntity
  8
LAY-1
  6
CONTINUOUS
 62
     2
100
AcDbLine
 10
1072.639134
 20
1267.110031
 30
0.0
 11
1072.639134
 21
1259.958537
 31
0.0
  0
LINE
  5
5DE
100
AcDbEntity
  8
LAY-1
  6
CONTINUOUS
 62
     2
100
AcDbLine
 10
1094.578444
 20
1267.110031
 30
0.0
 11
1093.108789
 21
1267.958537
 31
0.0
  0
ARC
  5
5DF
100
AcDbEntity
  8
LAY-1
  6
CONTINUOUS
 62
     2
100
AcDbCircle
 10
1091.836031
 20
1263.102474
 30
0.0
 40
4.856063
100
AcDbArc
 50
55.615753
 51
124.384247
  0
ARC
  5
5E0
100
AcDbEntity
  8
LAY-1
  6
CONTINUOUS
 62
     2
100
AcDbCircle
 10
1083.608789
 20
1249.807043
 30
0.0
 40
18.151494
100
AcDbArc
 50
72.412046
 51
107.587954
  0
LINE
  5
5E1
100
AcDbEntity
  8
LAY-1
  6
CONTINUOUS
 62
     2
100
AcDbLine
 10
1074.108789
 20
1267.958537
 30
0.0
 11
1072.639134
 21
1267.110031
 31
0.0
  0
ARC
  5
5E2
100
AcDbEntity
  8
LAY-1
  6
CONTINUOUS
 62
     2
100
AcDbCircle
 10
1075.381548
 20
1263.102474
 30
0.0
 40
4.856063
100
AcDbArc
 50
55.615753
 51
124.384247
  0
LINE
  5
5E3
100
AcDbEntity
  8
LAY-1
  6
CONTINUOUS
 62
     2
100
AcDbLine
 10
1093.108789
 20
1267.958537
 30
0.0
 11
1074.108789
 21
1267.958537
 31
0.0
  0
LINE
  5
5E4
100
AcDbEntity
  8
LAY-1
  6
CONTINUOUS
 62
     2
100
AcDbLine
 10
1148.268343
 20
1226.741158
 30
0.0
 11
1148.268343
 21
1227.967437
 31
0.0
  0
LINE
  5
5E5
100
AcDbEntity
  8
LAY-1
  6
CONTINUOUS
 62
     2
100
AcDbLine
 10
1160.268343
 20
1226.741158
 30
0.0
 11
1148.268343
 21
1226.741158
 31
0.0
  0
LINE
  5
5E6
100
AcDbEntity
  8
LAY-1
  6
CONTINUOUS
 62
     2
100
AcDbLine
 10
1148.268343
 20
1226.741158
 30
0.0
 11
1153.768343
 21
1225.267437
 31
0.0
  0
LINE
  5
5E7
100
AcDbEntity
  8
LAY-1
  6
CONTINUOUS
 62
     2
100
AcDbLine
 10
1149.298688
 20
1225.267437
 30
0.0
 11
1160.268343
 21
1225.267437
 31
0.0
  0
LINE
  5
5E8
100
AcDbEntity
  8
LAY-1
  6
CONTINUOUS
 62
     2
100
AcDbLine
 10
1149.298688
 20
1216.115943
 30
0.0
 11
1149.298688
 21
1225.267437
 31
0.0
  0
LINE
  5
5E9
100
AcDbEntity
  8
LAY-1
  6
CONTINUOUS
 62
     2
100
AcDbLine
 10
1150.768343
 20
1215.267437
 30
0.0
 11
1149.298688
 21
1216.115943
 31
0.0
  0
LINE
  5
5EA
100
AcDbEntity
  8
LAY-1
  6
CONTINUOUS
 62
     2
100
AcDbLine
 10
1154.783515
 20
1216.115943
 30
0.0
 11
1154.783515
 21
1225.267437
 31
0.0
  0
ARC
  5
5EB
100
AcDbEntity
  8
LAY-1
  6
CONTINUOUS
 62
     2
100
AcDbCircle
 10
1152.041102
 20
1220.123501
 30
0.0
 40
4.856063
100
AcDbArc
 50
235.615753
 51
304.384247
  0
LINE
  5
5EC
100
AcDbEntity
  8
LAY-1
  6
CONTINUOUS
 62
     2
100
AcDbLine
 10
1160.268343
 20
1215.267437
 30
0.0
 11
1150.768343
 21
1215.267437
 31
0.0
  0
ARC
  5
5ED
100
AcDbEntity
  8
LAY-1
  6
CONTINUOUS
 62
     2
100
AcDbCircle
 10
1160.268343
 20
1233.418932
 30
0.0
 40
18.151494
100
AcDbArc
 50
252.412046
 51
270.0
  0
ARC
  5
5EE
100
AcDbEntity
  8
LAY-1
  6
CONTINUOUS
 62
     2
100
AcDbCircle
 10
1160.268344
 20
1233.418932
 30
0.0
 40
18.151494
100
AcDbArc
 50
270.0
 51
287.587954
  0
LINE
  5
5EF
100
AcDbEntity
  8
LAY-1
  6
CONTINUOUS
 62
     2
100
AcDbLine
 10
1169.768344
 20
1215.267437
 30
0.0
 11
1171.237999
 21
1216.115943
 31
0.0
  0
LINE
  5
5F0
100
AcDbEntity
  8
LAY-1
  6
CONTINUOUS
 62
     2
100
AcDbLine
 10
1160.268344
 20
1215.267437
 30
0.0
 11
1169.768344
 21
1215.267437
 31
0.0
  0
ARC
  5
5F1
100
AcDbEntity
  8
LAY-1
  6
CONTINUOUS
 62
     2
100
AcDbCircle
 10
1168.495585
 20
1220.123501
 30
0.0
 40
4.856063
100
AcDbArc
 50
235.615753
 51
304.384247
  0
LINE
  5
5F2
100
AcDbEntity
  8
LAY-1
  6
CONTINUOUS
 62
     2
100
AcDbLine
 10
1171.237999
 20
1216.115943
 30
0.0
 11
1171.237999
 21
1225.267437
 31
0.0
  0
LINE
  5
5F3
100
AcDbEntity
  8
LAY-1
  6
CONTINUOUS
 62
     2
100
AcDbLine
 10
1171.237999
 20
1225.267437
 30
0.0
 11
1160.268344
 21
1225.267437
 31
0.0
  0
LINE
  5
5F4
100
AcDbEntity
  8
LAY-1
  6
CONTINUOUS
 62
     2
100
AcDbLine
 10
1172.268344
 20
1226.741158
 30
0.0
 11
1166.768344
 21
1225.267437
 31
0.0
  0
LINE
  5
5F5
100
AcDbEntity
  8
LAY-1
  6
CONTINUOUS
 62
     2
100
AcDbLine
 10
1172.268344
 20
1226.741158
 30
0.0
 11
1172.268344
 21
1227.967437
 31
0.0
  0
LINE
  5
5F6
100
AcDbEntity
  8
LAY-1
  6
CONTINUOUS
 62
     2
100
AcDbLine
 10
1160.268344
 20
1226.741158
 30
0.0
 11
1172.268344
 21
1226.741158
 31
0.0
  0
LINE
  5
5F7
100
AcDbEntity
  8
LAY-1
  6
CONTINUOUS
 62
     2
100
AcDbLine
 10
1166.268343
 20
1210.467437
 30
0.0
 11
1165.768343
 21
1209.967437
 31
0.0
  0
LINE
  5
5F8
100
AcDbEntity
  8
LAY-1
  6
CONTINUOUS
 62
     2
100
AcDbLine
 10
1154.268343
 20
1210.467437
 30
0.0
 11
1154.768343
 21
1209.967437
 31
0.0
  0
LINE
  5
5F9
100
AcDbEntity
  8
LAY-1
  6
CONTINUOUS
 62
     2
100
AcDbLine
 10
1154.768343
 20
1209.967437
 30
0.0
 11
1165.768343
 21
1209.967437
 31
0.0
  0
LINE
  5
5FA
100
AcDbEntity
  8
LAY-1
  6
CONTINUOUS
 62
     2
100
AcDbLine
 10
1166.268343
 20
1210.467437
 30
0.0
 11
1166.268343
 21
1215.267437
 31
0.0
  0
LINE
  5
5FB
100
AcDbEntity
  8
LAY-1
  6
CONTINUOUS
 62
     2
100
AcDbLine
 10
1154.268343
 20
1210.467437
 30
0.0
 11
1154.268343
 21
1215.267437
 31
0.0
  0
LINE
  5
5FC
100
AcDbEntity
  8
LAY-1
  6
CONTINUOUS
 62
     2
100
AcDbLine
 10
1165.753171
 20
1216.115943
 30
0.0
 11
1165.753171
 21
1225.267437
 31
0.0
  0
LINE
  5
5FD
100
AcDbEntity
  8
LAY-1
  6
CONTINUOUS
 62
     2
100
AcDbLine
 10
1171.115131
 20
1259.958537
 30
0.0
 11
1171.115131
 21
1267.110031
 31
0.0
  0
LINE
  5
5FE
100
AcDbEntity
  8
LAY-1
  6
CONTINUOUS
 62
     2
100
AcDbLine
 10
1165.630303
 20
1267.110031
 30
0.0
 11
1165.630303
 21
1259.958537
 31
0.0
  0
LINE
  5
5FF
100
AcDbEntity
  8
LAY-1
  6
CONTINUOUS
 62
     2
100
AcDbLine
 10
1154.660648
 20
1259.958537
 30
0.0
 11
1154.660648
 21
1267.110031
 31
0.0
  0
LINE
  5
600
100
AcDbEntity
  8
LAY-1
  6
CONTINUOUS
 62
     2
100
AcDbLine
 10
1149.175821
 20
1267.110031
 30
0.0
 11
1149.175821
 21
1259.958537
 31
0.0
  0
LINE
  5
601
100
AcDbEntity
  8
LAY-1
  6
CONTINUOUS
 62
     2
100
AcDbLine
 10
1171.115131
 20
1267.110031
 30
0.0
 11
1169.645476
 21
1267.958537
 31
0.0
  0
ARC
  5
602
100
AcDbEntity
  8
LAY-1
  6
CONTINUOUS
 62
     2
100
AcDbCircle
 10
1168.372717
 20
1263.102474
 30
0.0
 40
4.856063
100
AcDbArc
 50
55.615753
 51
124.384247
  0
ARC
  5
603
100
AcDbEntity
  8
LAY-1
  6
CONTINUOUS
 62
     2
100
AcDbCircle
 10
1160.145476
 20
1249.807043
 30
0.0
 40
18.151494
100
AcDbArc
 50
72.412046
 51
107.587954
  0
LINE
  5
604
100
AcDbEntity
  8
LAY-1
  6
CONTINUOUS
 62
     2
100
AcDbLine
 10
1150.645476
 20
1267.958537
 30
0.0
 11
1149.175821
 21
1267.110031
 31
0.0
  0
ARC
  5
605
100
AcDbEntity
  8
LAY-1
  6
CONTINUOUS
 62
     2
100
AcDbCircle
 10
1151.918234
 20
1263.102474
 30
0.0
 40
4.856063
100
AcDbArc
 50
55.615753
 51
124.384247
  0
LINE
  5
606
100
AcDbEntity
  8
LAY-1
  6
CONTINUOUS
 62
     2
100
AcDbLine
 10
1169.645476
 20
1267.958537
 30
0.0
 11
1150.645476
 21
1267.958537
 31
0.0
  0
LINE
  5
607
100
AcDbEntity
  8
LAY-1
  6
CONTINUOUS
 62
     2
100
AcDbLine
 10
1202.387953
 20
1226.741158
 30
0.0
 11
1202.387953
 21
1227.967437
 31
0.0
  0
LINE
  5
608
100
AcDbEntity
  8
LAY-1
  6
CONTINUOUS
 62
     2
100
AcDbLine
 10
1214.387953
 20
1226.741158
 30
0.0
 11
1202.387953
 21
1226.741158
 31
0.0
  0
LINE
  5
609
100
AcDbEntity
  8
LAY-1
  6
CONTINUOUS
 62
     2
100
AcDbLine
 10
1202.387953
 20
1226.741158
 30
0.0
 11
1207.887953
 21
1225.267437
 31
0.0
  0
LINE
  5
60A
100
AcDbEntity
  8
LAY-1
  6
CONTINUOUS
 62
     2
100
AcDbLine
 10
1203.418298
 20
1225.267437
 30
0.0
 11
1214.387953
 21
1225.267437
 31
0.0
  0
LINE
  5
60B
100
AcDbEntity
  8
LAY-1
  6
CONTINUOUS
 62
     2
100
AcDbLine
 10
1203.418298
 20
1216.115943
 30
0.0
 11
1203.418298
 21
1225.267437
 31
0.0
  0
LINE
  5
60C
100
AcDbEntity
  8
LAY-1
  6
CONTINUOUS
 62
     2
100
AcDbLine
 10
1204.887953
 20
1215.267437
 30
0.0
 11
1203.418298
 21
1216.115943
 31
0.0
  0
LINE
  5
60D
100
AcDbEntity
  8
LAY-1
  6
CONTINUOUS
 62
     2
100
AcDbLine
 10
1208.903125
 20
1216.115943
 30
0.0
 11
1208.903125
 21
1225.267437
 31
0.0
  0
ARC
  5
60E
100
AcDbEntity
  8
LAY-1
  6
CONTINUOUS
 62
     2
100
AcDbCircle
 10
1206.160712
 20
1220.123501
 30
0.0
 40
4.856063
100
AcDbArc
 50
235.615753
 51
304.384247
  0
LINE
  5
60F
100
AcDbEntity
  8
LAY-1
  6
CONTINUOUS
 62
     2
100
AcDbLine
 10
1214.387953
 20
1215.267437
 30
0.0
 11
1204.887953
 21
1215.267437
 31
0.0
  0
ARC
  5
610
100
AcDbEntity
  8
LAY-1
  6
CONTINUOUS
 62
     2
100
AcDbCircle
 10
1214.387953
 20
1233.418932
 30
0.0
 40
18.151494
100
AcDbArc
 50
252.412046
 51
270.0
  0
ARC
  5
611
100
AcDbEntity
  8
LAY-1
  6
CONTINUOUS
 62
     2
100
AcDbCircle
 10
1214.387954
 20
1233.418932
 30
0.0
 40
18.151494
100
AcDbArc
 50
270.0
 51
287.587954
  0
LINE
  5
612
100
AcDbEntity
  8
LAY-1
  6
CONTINUOUS
 62
     2
100
AcDbLine
 10
1223.887954
 20
1215.267437
 30
0.0
 11
1225.357609
 21
1216.115943
 31
0.0
  0
LINE
  5
613
100
AcDbEntity
  8
LAY-1
  6
CONTINUOUS
 62
     2
100
AcDbLine
 10
1214.387954
 20
1215.267437
 30
0.0
 11
1223.887954
 21
1215.267437
 31
0.0
  0
ARC
  5
614
100
AcDbEntity
  8
LAY-1
  6
CONTINUOUS
 62
     2
100
AcDbCircle
 10
1222.615195
 20
1220.123501
 30
0.0
 40
4.856063
100
AcDbArc
 50
235.615753
 51
304.384247
  0
LINE
  5
615
100
AcDbEntity
  8
LAY-1
  6
CONTINUOUS
 62
     2
100
AcDbLine
 10
1225.357609
 20
1216.115943
 30
0.0
 11
1225.357609
 21
1225.267437
 31
0.0
  0
LINE
  5
616
100
AcDbEntity
  8
LAY-1
  6
CONTINUOUS
 62
     2
100
AcDbLine
 10
1225.357609
 20
1225.267437
 30
0.0
 11
1214.387954
 21
1225.267437
 31
0.0
  0
LINE
  5
617
100
AcDbEntity
  8
LAY-1
  6
CONTINUOUS
 62
     2
100
AcDbLine
 10
1226.387954
 20
1226.741158
 30
0.0
 11
1220.887954
 21
1225.267437
 31
0.0
  0
LINE
  5
618
100
AcDbEntity
  8
LAY-1
  6
CONTINUOUS
 62
     2
100
AcDbLine
 10
1226.387954
 20
1226.741158
 30
0.0
 11
1226.387954
 21
1227.967437
 31
0.0
  0
LINE
  5
619
100
AcDbEntity
  8
LAY-1
  6
CONTINUOUS
 62
     2
100
AcDbLine
 10
1214.387954
 20
1226.741158
 30
0.0
 11
1226.387954
 21
1226.741158
 31
0.0
  0
LINE
  5
61A
100
AcDbEntity
  8
LAY-1
  6
CONTINUOUS
 62
     2
100
AcDbLine
 10
1220.387953
 20
1210.467437
 30
0.0
 11
1219.887953
 21
1209.967437
 31
0.0
  0
LINE
  5
61B
100
AcDbEntity
  8
LAY-1
  6
CONTINUOUS
 62
     2
100
AcDbLine
 10
1208.387953
 20
1210.467437
 30
0.0
 11
1208.887953
 21
1209.967437
 31
0.0
  0
LINE
  5
61C
100
AcDbEntity
  8
LAY-1
  6
CONTINUOUS
 62
     2
100
AcDbLine
 10
1208.887953
 20
1209.967437
 30
0.0
 11
1219.887953
 21
1209.967437
 31
0.0
  0
LINE
  5
61D
100
AcDbEntity
  8
LAY-1
  6
CONTINUOUS
 62
     2
100
AcDbLine
 10
1220.387953
 20
1210.467437
 30
0.0
 11
1220.387953
 21
1215.267437
 31
0.0
  0
LINE
  5
61E
100
AcDbEntity
  8
LAY-1
  6
CONTINUOUS
 62
     2
100
AcDbLine
 10
1208.387953
 20
1210.467437
 30
0.0
 11
1208.387953
 21
1215.267437
 31
0.0
  0
LINE
  5
61F
100
AcDbEntity
  8
LAY-1
  6
CONTINUOUS
 62
     2
100
AcDbLine
 10
1219.872781
 20
1216.115943
 30
0.0
 11
1219.872781
 21
1225.267437
 31
0.0
  0
LINE
  5
620
100
AcDbEntity
  8
LAY-1
  6
CONTINUOUS
 62
     2
100
AcDbLine
 10
1225.234741
 20
1259.958537
 30
0.0
 11
1225.234741
 21
1267.110031
 31
0.0
  0
LINE
  5
621
100
AcDbEntity
  8
LAY-1
  6
CONTINUOUS
 62
     2
100
AcDbLine
 10
1219.749913
 20
1267.110031
 30
0.0
 11
1219.749913
 21
1259.958537
 31
0.0
  0
LINE
  5
622
100
AcDbEntity
  8
LAY-1
  6
CONTINUOUS
 62
     2
100
AcDbLine
 10
1208.780258
 20
1259.958537
 30
0.0
 11
1208.780258
 21
1267.110031
 31
0.0
  0
LINE
  5
623
100
AcDbEntity
  8
LAY-1
  6
CONTINUOUS
 62
     2
100
AcDbLine
 10
1203.295431
 20
1267.110031
 30
0.0
 11
1203.295431
 21
1259.958537
 31
0.0
  0
LINE
  5
624
100
AcDbEntity
  8
LAY-1
  6
CONTINUOUS
 62
     2
100
AcDbLine
 10
1225.234741
 20
1267.110031
 30
0.0
 11
1223.765086
 21
1267.958537
 31
0.0
  0
ARC
  5
625
100
AcDbEntity
  8
LAY-1
  6
CONTINUOUS
 62
     2
100
AcDbCircle
 10
1222.492327
 20
1263.102474
 30
0.0
 40
4.856063
100
AcDbArc
 50
55.615753
 51
124.384247
  0
ARC
  5
626
100
AcDbEntity
  8
LAY-1
  6
CONTINUOUS
 62
     2
100
AcDbCircle
 10
1214.265086
 20
1249.807043
 30
0.0
 40
18.151494
100
AcDbArc
 50
72.412046
 51
107.587954
  0
LINE
  5
627
100
AcDbEntity
  8
LAY-1
  6
CONTINUOUS
 62
     2
100
AcDbLine
 10
1204.765086
 20
1267.958537
 30
0.0
 11
1203.295431
 21
1267.110031
 31
0.0
  0
ARC
  5
628
100
AcDbEntity
  8
LAY-1
  6
CONTINUOUS
 62
     2
100
AcDbCircle
 10
1206.037844
 20
1263.102474
 30
0.0
 40
4.856063
100
AcDbArc
 50
55.615753
 51
124.384247
  0
LINE
  5
629
100
AcDbEntity
  8
LAY-1
  6
CONTINUOUS
 62
     2
100
AcDbLine
 10
1223.765086
 20
1267.958537
 30
0.0
 11
1204.765086
 21
1267.958537
 31
0.0
  0
ARC
  5
62A
100
AcDbEntity
  8
LAY-1
  6
CONTINUOUS
 62
     2
100
AcDbCircle
 10
1122.0
 20
870.444033
 30
0.0
 40
220.076784
100
AcDbArc
 50
82.69894
 51
97.30106
  0
ARC
  5
62B
100
AcDbEntity
  8
LAY-1
  6
CONTINUOUS
 62
     2
100
AcDbCircle
 10
1122.0
 20
586.490841
 30
0.0
 40
220.076784
100
AcDbArc
 50
262.69894
 51
277.30106
  0
LINE
  5
62C
100
AcDbEntity
  8
LAY-1
  6
CONTINUOUS
 62
     2
100
AcDbLine
 10
1234.0
 20
213.97304
 30
0.0
 11
1010.0
 21
213.97304
 31
0.0
  0
LINE
  5
62D
100
AcDbEntity
  8
LAY-1
  6
CONTINUOUS
 62
     2
100
AcDbLine
 10
1232.0
 20
228.97304
 30
0.0
 11
1012.0
 21
228.97304
 31
0.0
  0
LINE
  5
62E
100
AcDbEntity
  8
LAY-1
  6
CONTINUOUS
 62
     2
100
AcDbLine
 10
1055.64624
 20
255.97304
 30
0.0
 11
1040.828427
 21
255.97304
 31
0.0
  0
LINE
  5
62F
100
AcDbEntity
  8
LAY-1
  6
CONTINUOUS
 62
     2
100
AcDbLine
 10
1039.414214
 20
256.558827
 30
0.0
 11
1038.585786
 21
257.387254
 31
0.0
  0
LINE
  5
630
100
AcDbEntity
  8
LAY-1
  6
CONTINUOUS
 62
     2
100
AcDbLine
 10
1022.0
 20
257.97304
 30
0.0
 11
1037.171573
 21
257.97304
 31
0.0
  0
ARC
  5
631
100
AcDbEntity
  8
LAY-1
  6
CONTINUOUS
 62
     2
100
AcDbCircle
 10
1055.64624
 20
258.97304
 30
0.0
 40
3.0
100
AcDbArc
 50
270.0
 51
357.5304
  0
ARC
  5
632
100
AcDbEntity
  8
LAY-1
  6
CONTINUOUS
 62
     2
100
AcDbCircle
 10
1189.0007
 20
243.97304
 30
0.0
 40
3.0
100
AcDbArc
 50
182.4696
 51
270.0
  0
ARC
  5
633
100
AcDbEntity
  8
LAY-1
  6
CONTINUOUS
 62
     2
100
AcDbCircle
 10
1022.0
 20
255.97304
 30
0.0
 40
2.0
100
AcDbArc
 50
90.0
 51
180.0
  0
ARC
  5
634
100
AcDbEntity
  8
LAY-1
  6
CONTINUOUS
 62
     2
100
AcDbCircle
 10
1040.828427
 20
257.97304
 30
0.0
 40
2.0
100
AcDbArc
 50
225.0
 51
270.0
  0
ARC
  5
635
100
AcDbEntity
  8
LAY-1
  6
CONTINUOUS
 62
     2
100
AcDbCircle
 10
1037.171573
 20
255.97304
 30
0.0
 40
2.0
100
AcDbArc
 50
45.0
 51
90.0
  0
LINE
  5
636
100
AcDbEntity
  8
LAY-1
  6
CONTINUOUS
 62
     2
100
AcDbLine
 10
1234.0
 20
211.985239
 30
0.0
 11
1234.0
 21
226.97304
 31
0.0
  0
ARC
  5
637
100
AcDbEntity
  8
LAY-1
  6
CONTINUOUS
 62
     2
100
AcDbCircle
 10
1232.0
 20
226.97304
 30
0.0
 40
2.0
100
AcDbArc
 50
0.0
 51
90.0
  0
LINE
  5
638
100
AcDbEntity
  8
LAY-1
  6
CONTINUOUS
 62
     2
100
AcDbLine
 10
1010.0
 20
211.985239
 30
0.0
 11
1010.0
 21
226.97304
 31
0.0
  0
ARC
  5
639
100
AcDbEntity
  8
LAY-1
  6
CONTINUOUS
 62
     2
100
AcDbCircle
 10
1012.0
 20
226.97304
 30
0.0
 40
2.0
100
AcDbArc
 50
90.0
 51
180.0
  0
LINE
  5
63A
100
AcDbEntity
  8
LAY-1
  6
CONTINUOUS
 62
     2
100
AcDbLine
 10
1234.0
 20
211.985239
 30
0.0
 11
1010.0
 21
211.985239
 31
0.0
  0
ARC
  5
63B
100
AcDbEntity
  8
LAY-1
  6
CONTINUOUS
 62
     2
100
AcDbCircle
 10
1012.0
 20
191.985239
 30
0.0
 40
2.0
100
AcDbArc
 50
180.0
 51
270.0
  0
LINE
  5
63C
100
AcDbEntity
  8
LAY-1
  6
CONTINUOUS
 62
     2
100
AcDbLine
 10
1010.0
 20
211.985239
 30
0.0
 11
1010.0
 21
191.985239
 31
0.0
  0
ARC
  5
63D
100
AcDbEntity
  8
LAY-1
  6
CONTINUOUS
 62
     2
100
AcDbCircle
 10
1232.0
 20
191.985239
 30
0.0
 40
2.0
100
AcDbArc
 50
270.0
 51
0.0
  0
LINE
  5
63E
100
AcDbEntity
  8
LAY-1
  6
CONTINUOUS
 62
     2
100
AcDbLine
 10
1234.0
 20
211.985239
 30
0.0
 11
1234.0
 21
191.985239
 31
0.0
  0
LINE
  5
63F
100
AcDbEntity
  8
LAY-1
  6
CONTINUOUS
 62
     2
100
AcDbLine
 10
1190.66309
 20
187.37874
 30
0.0
 11
1161.651005
 21
186.365616
 31
0.0
  0
LINE
  5
640
100
AcDbEntity
  8
LAY-1
  6
CONTINUOUS
 62
     2
100
AcDbLine
 10
1053.33691
 20
187.37874
 30
0.0
 11
1082.348995
 21
186.365616
 31
0.0
  0
ARC
  5
641
100
AcDbEntity
  8
LAY-1
  6
CONTINUOUS
 62
     2
100
AcDbCircle
 10
1082.0
 20
176.371707
 30
0.0
 40
10.0
100
AcDbArc
 50
46.663202
 51
88.0
  0
ARC
  5
642
100
AcDbEntity
  8
LAY-1
  6
CONTINUOUS
 62
     2
100
AcDbCircle
 10
1162.0
 20
176.371707
 30
0.0
 40
10.0
100
AcDbArc
 50
92.0
 51
133.336798
  0
LINE
  5
643
100
AcDbEntity
  8
LAY-1
  6
CONTINUOUS
 62
     2
100
AcDbLine
 10
1010.0
 20
196.985239
 30
0.0
 11
1234.0
 21
196.985239
 31
0.0
  0
ARC
  5
644
100
AcDbEntity
  8
LAY-1
  6
CONTINUOUS
 62
     2
100
AcDbCircle
 10
1190.0
 20
206.367166
 30
0.0
 40
19.0
100
AcDbArc
 50
272.0
 51
315.454444
  0
ARC
  5
645
100
AcDbEntity
  8
LAY-1
  6
CONTINUOUS
 62
     2
100
AcDbCircle
 10
1054.0
 20
206.367166
 30
0.0
 40
19.0
100
AcDbArc
 50
225.592288
 51
268.0
  0
LINE
  5
646
100
AcDbEntity
  8
LAY-1
  6
CONTINUOUS
 62
     2
100
AcDbLine
 10
1044.375424
 20
189.985239
 30
0.0
 11
1040.704569
 21
189.985239
 31
0.0
  0
LINE
  5
647
100
AcDbEntity
  8
LAY-1
  6
CONTINUOUS
 62
     2
100
AcDbLine
 10
1018.765259
 20
189.985239
 30
0.0
 11
1012.0
 21
189.985239
 31
0.0
  0
LINE
  5
648
100
AcDbEntity
  8
LAY-1
  6
CONTINUOUS
 62
     2
100
AcDbLine
 10
1203.541166
 20
189.985239
 30
0.0
 11
1199.624576
 21
189.985239
 31
0.0
  0
LINE
  5
649
100
AcDbEntity
  8
LAY-1
  6
CONTINUOUS
 62
     2
100
AcDbLine
 10
1232.0
 20
189.985239
 30
0.0
 11
1225.480476
 21
189.985239
 31
0.0
  0
LINE
  5
64A
100
AcDbEntity
  8
LAY-1
  6
CONTINUOUS
 62
     2
100
AcDbLine
 10
1020.0
 20
230.833567
 30
0.0
 11
1020.0
 21
231.667437
 31
0.0
  0
LINE
  5
64B
100
AcDbEntity
  8
LAY-1
  6
CONTINUOUS
 62
     2
100
AcDbLine
 10
1037.8
 20
257.97304
 30
0.0
 11
1037.8
 21
241.667278
 31
0.0
  0
LINE
  5
64C
100
AcDbEntity
  8
LAY-1
  6
CONTINUOUS
 62
     2
100
AcDbLine
 10
1020.0
 20
241.602747
 30
0.0
 11
1020.0
 21
255.97304
 31
0.0
  0
LINE
  5
64D
100
AcDbEntity
  8
LAY-1
  6
CONTINUOUS
 62
     2
100
AcDbLine
 10
1040.1
 20
256.110409
 30
0.0
 11
1040.1
 21
241.10911
 31
0.0
  0
ARC
  5
64E
100
AcDbEntity
  8
LAY-1
  6
CONTINUOUS
 62
     2
100
AcDbCircle
 10
1054.9993
 20
243.97304
 30
0.0
 40
3.0
100
AcDbArc
 50
270.0
 51
357.5304
  0
LINE
  5
64F
100
AcDbEntity
  8
LAY-1
  6
CONTINUOUS
 62
     2
100
AcDbLine
 10
1040.581702
 20
240.97304
 30
0.0
 11
1073.028925
 21
240.97304
 31
0.0
  0
LINE
  5
650
100
AcDbEntity
  8
LAY-1
  6
CONTINUOUS
 62
     2
100
AcDbLine
 10
1149.565611
 20
240.97304
 30
0.0
 11
1094.461275
 21
240.97304
 31
0.0
  0
LINE
  5
651
100
AcDbEntity
  8
LAY-1
  6
CONTINUOUS
 62
     2
100
AcDbLine
 10
1203.685221
 20
240.97304
 30
0.0
 11
1170.971075
 21
240.97304
 31
0.0
  0
LINE
  5
652
100
AcDbEntity
  8
LAY-1
  6
CONTINUOUS
 62
     2
100
AcDbLine
 10
1226.387954
 20
230.193717
 30
0.0
 11
1226.387954
 21
228.967437
 31
0.0
  0
LINE
  5
653
100
AcDbEntity
  8
LAY-1
  6
CONTINUOUS
 62
     2
100
AcDbLine
 10
1214.387954
 20
230.193717
 30
0.0
 11
1226.387954
 21
230.193717
 31
0.0
  0
LINE
  5
654
100
AcDbEntity
  8
LAY-1
  6
CONTINUOUS
 62
     2
100
AcDbLine
 10
1226.387954
 20
230.193717
 30
0.0
 11
1220.887954
 21
231.667437
 31
0.0
  0
LINE
  5
655
100
AcDbEntity
  8
LAY-1
  6
CONTINUOUS
 62
     2
100
AcDbLine
 10
1225.357609
 20
231.667437
 30
0.0
 11
1214.387954
 21
231.667437
 31
0.0
  0
LINE
  5
656
100
AcDbEntity
  8
LAY-1
  6
CONTINUOUS
 62
     2
100
AcDbLine
 10
1225.357609
 20
240.818932
 30
0.0
 11
1225.357609
 21
231.667437
 31
0.0
  0
LINE
  5
657
100
AcDbEntity
  8
LAY-1
  6
CONTINUOUS
 62
     2
100
AcDbLine
 10
1223.887954
 20
241.667437
 30
0.0
 11
1225.357609
 21
240.818932
 31
0.0
  0
LINE
  5
658
100
AcDbEntity
  8
LAY-1
  6
CONTINUOUS
 62
     2
100
AcDbLine
 10
1219.872781
 20
240.818932
 30
0.0
 11
1219.872781
 21
231.667437
 31
0.0
  0
ARC
  5
659
100
AcDbEntity
  8
LAY-1
  6
CONTINUOUS
 62
     2
100
AcDbCircle
 10
1222.615195
 20
236.811374
 30
0.0
 40
4.856063
100
AcDbArc
 50
55.615753
 51
124.384247
  0
LINE
  5
65A
100
AcDbEntity
  8
LAY-1
  6
CONTINUOUS
 62
     2
100
AcDbLine
 10
1214.387954
 20
241.667437
 30
0.0
 11
1223.887954
 21
241.667437
 31
0.0
  0
ARC
  5
65B
100
AcDbEntity
  8
LAY-1
  6
CONTINUOUS
 62
     2
100
AcDbCircle
 10
1214.387954
 20
223.515943
 30
0.0
 40
18.151494
100
AcDbArc
 50
72.412046
 51
90.0
  0
ARC
  5
65C
100
AcDbEntity
  8
LAY-1
  6
CONTINUOUS
 62
     2
100
AcDbCircle
 10
1214.387953
 20
223.515943
 30
0.0
 40
18.151494
100
AcDbArc
 50
90.0
 51
107.587954
  0
LINE
  5
65D
100
AcDbEntity
  8
LAY-1
  6
CONTINUOUS
 62
     2
100
AcDbLine
 10
1204.887953
 20
241.667437
 30
0.0
 11
1203.418298
 21
240.818932
 31
0.0
  0
LINE
  5
65E
100
AcDbEntity
  8
LAY-1
  6
CONTINUOUS
 62
     2
100
AcDbLine
 10
1214.387953
 20
241.667437
 30
0.0
 11
1204.887953
 21
241.667437
 31
0.0
  0
ARC
  5
65F
100
AcDbEntity
  8
LAY-1
  6
CONTINUOUS
 62
     2
100
AcDbCircle
 10
1206.160712
 20
236.811374
 30
0.0
 40
4.856063
100
AcDbArc
 50
55.615753
 51
124.384247
  0
LINE
  5
660
100
AcDbEntity
  8
LAY-1
  6
CONTINUOUS
 62
     2
100
AcDbLine
 10
1203.418298
 20
240.818932
 30
0.0
 11
1203.418298
 21
231.667437
 31
0.0
  0
LINE
  5
661
100
AcDbEntity
  8
LAY-1
  6
CONTINUOUS
 62
     2
100
AcDbLine
 10
1203.418298
 20
231.667437
 30
0.0
 11
1214.387953
 21
231.667437
 31
0.0
  0
LINE
  5
662
100
AcDbEntity
  8
LAY-1
  6
CONTINUOUS
 62
     2
100
AcDbLine
 10
1202.387953
 20
230.193717
 30
0.0
 11
1207.887953
 21
231.667437
 31
0.0
  0
LINE
  5
663
100
AcDbEntity
  8
LAY-1
  6
CONTINUOUS
 62
     2
100
AcDbLine
 10
1202.387953
 20
230.193717
 30
0.0
 11
1202.387953
 21
228.967437
 31
0.0
  0
LINE
  5
664
100
AcDbEntity
  8
LAY-1
  6
CONTINUOUS
 62
     2
100
AcDbLine
 10
1214.387953
 20
230.193717
 30
0.0
 11
1202.387953
 21
230.193717
 31
0.0
  0
LINE
  5
665
100
AcDbEntity
  8
LAY-1
  6
CONTINUOUS
 62
     2
100
AcDbLine
 10
1208.387953
 20
246.467437
 30
0.0
 11
1208.887953
 21
246.967437
 31
0.0
  0
LINE
  5
666
100
AcDbEntity
  8
LAY-1
  6
CONTINUOUS
 62
     2
100
AcDbLine
 10
1220.387953
 20
246.467437
 30
0.0
 11
1219.887953
 21
246.967437
 31
0.0
  0
LINE
  5
667
100
AcDbEntity
  8
LAY-1
  6
CONTINUOUS
 62
     2
100
AcDbLine
 10
1219.887953
 20
246.967437
 30
0.0
 11
1208.887953
 21
246.967437
 31
0.0
  0
LINE
  5
668
100
AcDbEntity
  8
LAY-1
  6
CONTINUOUS
 62
     2
100
AcDbLine
 10
1208.387953
 20
246.467437
 30
0.0
 11
1208.387953
 21
241.667437
 31
0.0
  0
LINE
  5
669
100
AcDbEntity
  8
LAY-1
  6
CONTINUOUS
 62
     2
100
AcDbLine
 10
1220.387953
 20
246.467437
 30
0.0
 11
1220.387953
 21
241.667437
 31
0.0
  0
LINE
  5
66A
100
AcDbEntity
  8
LAY-1
  6
CONTINUOUS
 62
     2
100
AcDbLine
 10
1208.903125
 20
240.818932
 30
0.0
 11
1208.903125
 21
231.667437
 31
0.0
  0
LINE
  5
66B
100
AcDbEntity
  8
LAY-1
  6
CONTINUOUS
 62
     2
100
AcDbLine
 10
1203.541166
 20
196.976338
 30
0.0
 11
1203.541166
 21
189.824844
 31
0.0
  0
LINE
  5
66C
100
AcDbEntity
  8
LAY-1
  6
CONTINUOUS
 62
     2
100
AcDbLine
 10
1209.025993
 20
189.824844
 30
0.0
 11
1209.025993
 21
196.976338
 31
0.0
  0
LINE
  5
66D
100
AcDbEntity
  8
LAY-1
  6
CONTINUOUS
 62
     2
100
AcDbLine
 10
1219.995648
 20
196.976338
 30
0.0
 11
1219.995648
 21
189.824844
 31
0.0
  0
LINE
  5
66E
100
AcDbEntity
  8
LAY-1
  6
CONTINUOUS
 62
     2
100
AcDbLine
 10
1225.480476
 20
189.824844
 30
0.0
 11
1225.480476
 21
196.976338
 31
0.0
  0
LINE
  5
66F
100
AcDbEntity
  8
LAY-1
  6
CONTINUOUS
 62
     2
100
AcDbLine
 10
1203.541166
 20
189.824844
 30
0.0
 11
1205.010821
 21
188.976338
 31
0.0
  0
ARC
  5
670
100
AcDbEntity
  8
LAY-1
  6
CONTINUOUS
 62
     2
100
AcDbCircle
 10
1206.28358
 20
193.832401
 30
0.0
 40
4.856063
100
AcDbArc
 50
235.615753
 51
304.384247
  0
ARC
  5
671
100
AcDbEntity
  8
LAY-1
  6
CONTINUOUS
 62
     2
100
AcDbCircle
 10
1214.510821
 20
207.127832
 30
0.0
 40
18.151494
100
AcDbArc
 50
252.412046
 51
287.587954
  0
LINE
  5
672
100
AcDbEntity
  8
LAY-1
  6
CONTINUOUS
 62
     2
100
AcDbLine
 10
1224.010821
 20
188.976338
 30
0.0
 11
1225.480476
 21
189.824844
 31
0.0
  0
ARC
  5
673
100
AcDbEntity
  8
LAY-1
  6
CONTINUOUS
 62
     2
100
AcDbCircle
 10
1222.738062
 20
193.832401
 30
0.0
 40
4.856063
100
AcDbArc
 50
235.615753
 51
304.384247
  0
LINE
  5
674
100
AcDbEntity
  8
LAY-1
  6
CONTINUOUS
 62
     2
100
AcDbLine
 10
1205.010821
 20
188.976338
 30
0.0
 11
1224.010821
 21
188.976338
 31
0.0
  0
LINE
  5
675
100
AcDbEntity
  8
LAY-1
  6
CONTINUOUS
 62
     2
100
AcDbLine
 10
1172.268344
 20
230.193717
 30
0.0
 11
1172.268344
 21
228.967437
 31
0.0
  0
LINE
  5
676
100
AcDbEntity
  8
LAY-1
  6
CONTINUOUS
 62
     2
100
AcDbLine
 10
1160.268344
 20
230.193717
 30
0.0
 11
1172.268344
 21
230.193717
 31
0.0
  0
LINE
  5
677
100
AcDbEntity
  8
LAY-1
  6
CONTINUOUS
 62
     2
100
AcDbLine
 10
1172.268344
 20
230.193717
 30
0.0
 11
1166.768344
 21
231.667437
 31
0.0
  0
LINE
  5
678
100
AcDbEntity
  8
LAY-1
  6
CONTINUOUS
 62
     2
100
AcDbLine
 10
1171.237999
 20
231.667437
 30
0.0
 11
1160.268344
 21
231.667437
 31
0.0
  0
LINE
  5
679
100
AcDbEntity
  8
LAY-1
  6
CONTINUOUS
 62
     2
100
AcDbLine
 10
1171.237999
 20
240.818932
 30
0.0
 11
1171.237999
 21
231.667437
 31
0.0
  0
LINE
  5
67A
100
AcDbEntity
  8
LAY-1
  6
CONTINUOUS
 62
     2
100
AcDbLine
 10
1169.768344
 20
241.667437
 30
0.0
 11
1171.237999
 21
240.818932
 31
0.0
  0
LINE
  5
67B
100
AcDbEntity
  8
LAY-1
  6
CONTINUOUS
 62
     2
100
AcDbLine
 10
1165.753171
 20
240.818932
 30
0.0
 11
1165.753171
 21
231.667437
 31
0.0
  0
ARC
  5
67C
100
AcDbEntity
  8
LAY-1
  6
CONTINUOUS
 62
     2
100
AcDbCircle
 10
1168.495585
 20
236.811374
 30
0.0
 40
4.856063
100
AcDbArc
 50
55.615753
 51
124.384247
  0
LINE
  5
67D
100
AcDbEntity
  8
LAY-1
  6
CONTINUOUS
 62
     2
100
AcDbLine
 10
1160.268344
 20
241.667437
 30
0.0
 11
1169.768344
 21
241.667437
 31
0.0
  0
ARC
  5
67E
100
AcDbEntity
  8
LAY-1
  6
CONTINUOUS
 62
     2
100
AcDbCircle
 10
1160.268344
 20
223.515943
 30
0.0
 40
18.151494
100
AcDbArc
 50
72.412046
 51
90.0
  0
ARC
  5
67F
100
AcDbEntity
  8
LAY-1
  6
CONTINUOUS
 62
     2
100
AcDbCircle
 10
1160.268343
 20
223.515943
 30
0.0
 40
18.151494
100
AcDbArc
 50
90.0
 51
107.587954
  0
LINE
  5
680
100
AcDbEntity
  8
LAY-1
  6
CONTINUOUS
 62
     2
100
AcDbLine
 10
1150.768343
 20
241.667437
 30
0.0
 11
1149.298688
 21
240.818932
 31
0.0
  0
LINE
  5
681
100
AcDbEntity
  8
LAY-1
  6
CONTINUOUS
 62
     2
100
AcDbLine
 10
1160.268343
 20
241.667437
 30
0.0
 11
1150.768343
 21
241.667437
 31
0.0
  0
ARC
  5
682
100
AcDbEntity
  8
LAY-1
  6
CONTINUOUS
 62
     2
100
AcDbCircle
 10
1152.041102
 20
236.811374
 30
0.0
 40
4.856063
100
AcDbArc
 50
55.615753
 51
124.384247
  0
LINE
  5
683
100
AcDbEntity
  8
LAY-1
  6
CONTINUOUS
 62
     2
100
AcDbLine
 10
1149.298688
 20
240.818932
 30
0.0
 11
1149.298688
 21
231.667437
 31
0.0
  0
LINE
  5
684
100
AcDbEntity
  8
LAY-1
  6
CONTINUOUS
 62
     2
100
AcDbLine
 10
1149.298688
 20
231.667437
 30
0.0
 11
1160.268343
 21
231.667437
 31
0.0
  0
LINE
  5
685
100
AcDbEntity
  8
LAY-1
  6
CONTINUOUS
 62
     2
100
AcDbLine
 10
1148.268343
 20
230.193717
 30
0.0
 11
1153.768343
 21
231.667437
 31
0.0
  0
LINE
  5
686
100
AcDbEntity
  8
LAY-1
  6
CONTINUOUS
 62
     2
100
AcDbLine
 10
1148.268343
 20
230.193717
 30
0.0
 11
1148.268343
 21
228.967437
 31
0.0
  0
LINE
  5
687
100
AcDbEntity
  8
LAY-1
  6
CONTINUOUS
 62
     2
100
AcDbLine
 10
1160.268343
 20
230.193717
 30
0.0
 11
1148.268343
 21
230.193717
 31
0.0
  0
LINE
  5
688
100
AcDbEntity
  8
LAY-1
  6
CONTINUOUS
 62
     2
100
AcDbLine
 10
1154.268343
 20
246.467437
 30
0.0
 11
1154.768343
 21
246.967437
 31
0.0
  0
LINE
  5
689
100
AcDbEntity
  8
LAY-1
  6
CONTINUOUS
 62
     2
100
AcDbLine
 10
1166.268343
 20
246.467437
 30
0.0
 11
1165.768343
 21
246.967437
 31
0.0
  0
LINE
  5
68A
100
AcDbEntity
  8
LAY-1
  6
CONTINUOUS
 62
     2
100
AcDbLine
 10
1165.768343
 20
246.967437
 30
0.0
 11
1154.768343
 21
246.967437
 31
0.0
  0
LINE
  5
68B
100
AcDbEntity
  8
LAY-1
  6
CONTINUOUS
 62
     2
100
AcDbLine
 10
1154.268343
 20
246.467437
 30
0.0
 11
1154.268343
 21
241.667437
 31
0.0
  0
LINE
  5
68C
100
AcDbEntity
  8
LAY-1
  6
CONTINUOUS
 62
     2
100
AcDbLine
 10
1166.268343
 20
246.467437
 30
0.0
 11
1166.268343
 21
241.667437
 31
0.0
  0
LINE
  5
68D
100
AcDbEntity
  8
LAY-1
  6
CONTINUOUS
 62
     2
100
AcDbLine
 10
1154.783515
 20
240.818932
 30
0.0
 11
1154.783515
 21
231.667437
 31
0.0
  0
LINE
  5
68E
100
AcDbEntity
  8
LAY-1
  6
CONTINUOUS
 62
     2
100
AcDbLine
 10
1149.421556
 20
196.976338
 30
0.0
 11
1149.421556
 21
189.824844
 31
0.0
  0
LINE
  5
68F
100
AcDbEntity
  8
LAY-1
  6
CONTINUOUS
 62
     2
100
AcDbLine
 10
1154.906383
 20
189.824844
 30
0.0
 11
1154.906383
 21
196.976338
 31
0.0
  0
LINE
  5
690
100
AcDbEntity
  8
LAY-1
  6
CONTINUOUS
 62
     2
100
AcDbLine
 10
1165.876038
 20
196.976338
 30
0.0
 11
1165.876038
 21
189.824844
 31
0.0
  0
LINE
  5
691
100
AcDbEntity
  8
LAY-1
  6
CONTINUOUS
 62
     2
100
AcDbLine
 10
1171.360866
 20
189.824844
 30
0.0
 11
1171.360866
 21
196.976338
 31
0.0
  0
LINE
  5
692
100
AcDbEntity
  8
LAY-1
  6
CONTINUOUS
 62
     2
100
AcDbLine
 10
1149.421556
 20
189.824844
 30
0.0
 11
1150.891211
 21
188.976338
 31
0.0
  0
ARC
  5
693
100
AcDbEntity
  8
LAY-1
  6
CONTINUOUS
 62
     2
100
AcDbCircle
 10
1152.163969
 20
193.832401
 30
0.0
 40
4.856063
100
AcDbArc
 50
235.615753
 51
304.384247
  0
ARC
  5
694
100
AcDbEntity
  8
LAY-1
  6
CONTINUOUS
 62
     2
100
AcDbCircle
 10
1160.391211
 20
207.127832
 30
0.0
 40
18.151494
100
AcDbArc
 50
252.412046
 51
287.587954
  0
LINE
  5
695
100
AcDbEntity
  8
LAY-1
  6
CONTINUOUS
 62
     2
100
AcDbLine
 10
1169.891211
 20
188.976338
 30
0.0
 11
1171.360866
 21
189.824844
 31
0.0
  0
ARC
  5
696
100
AcDbEntity
  8
LAY-1
  6
CONTINUOUS
 62
     2
100
AcDbCircle
 10
1168.618452
 20
193.832401
 30
0.0
 40
4.856063
100
AcDbArc
 50
235.615753
 51
304.384247
  0
LINE
  5
697
100
AcDbEntity
  8
LAY-1
  6
CONTINUOUS
 62
     2
100
AcDbLine
 10
1150.891211
 20
188.976338
 30
0.0
 11
1169.891211
 21
188.976338
 31
0.0
  0
LINE
  5
698
100
AcDbEntity
  8
LAY-1
  6
CONTINUOUS
 62
     2
100
AcDbLine
 10
1095.731657
 20
230.193717
 30
0.0
 11
1095.731657
 21
228.967437
 31
0.0
  0
LINE
  5
699
100
AcDbEntity
  8
LAY-1
  6
CONTINUOUS
 62
     2
100
AcDbLine
 10
1083.731657
 20
230.193717
 30
0.0
 11
1095.731657
 21
230.193717
 31
0.0
  0
LINE
  5
69A
100
AcDbEntity
  8
LAY-1
  6
CONTINUOUS
 62
     2
100
AcDbLine
 10
1095.731657
 20
230.193717
 30
0.0
 11
1090.231657
 21
231.667437
 31
0.0
  0
LINE
  5
69B
100
AcDbEntity
  8
LAY-1
  6
CONTINUOUS
 62
     2
100
AcDbLine
 10
1094.701312
 20
231.667437
 30
0.0
 11
1083.731657
 21
231.667437
 31
0.0
  0
LINE
  5
69C
100
AcDbEntity
  8
LAY-1
  6
CONTINUOUS
 62
     2
100
AcDbLine
 10
1094.701312
 20
240.818932
 30
0.0
 11
1094.701312
 21
231.667437
 31
0.0
  0
LINE
  5
69D
100
AcDbEntity
  8
LAY-1
  6
CONTINUOUS
 62
     2
100
AcDbLine
 10
1093.231657
 20
241.667437
 30
0.0
 11
1094.701312
 21
240.818932
 31
0.0
  0
LINE
  5
69E
100
AcDbEntity
  8
LAY-1
  6
CONTINUOUS
 62
     2
100
AcDbLine
 10
1089.216485
 20
240.818932
 30
0.0
 11
1089.216485
 21
231.667437
 31
0.0
  0
ARC
  5
69F
100
AcDbEntity
  8
LAY-1
  6
CONTINUOUS
 62
     2
100
AcDbCircle
 10
1091.958898
 20
236.811374
 30
0.0
 40
4.856063
100
AcDbArc
 50
55.615753
 51
124.384247
  0
LINE
  5
6A0
100
AcDbEntity
  8
LAY-1
  6
CONTINUOUS
 62
     2
100
AcDbLine
 10
1083.731657
 20
241.667437
 30
0.0
 11
1093.231657
 21
241.667437
 31
0.0
  0
ARC
  5
6A1
100
AcDbEntity
  8
LAY-1
  6
CONTINUOUS
 62
     2
100
AcDbCircle
 10
1083.731657
 20
223.515943
 30
0.0
 40
18.151494
100
AcDbArc
 50
72.412046
 51
90.0
  0
ARC
  5
6A2
100
AcDbEntity
  8
LAY-1
  6
CONTINUOUS
 62
     2
100
AcDbCircle
 10
1083.731656
 20
223.515943
 30
0.0
 40
18.151494
100
AcDbArc
 50
90.0
 51
107.587954
  0
LINE
  5
6A3
100
AcDbEntity
  8
LAY-1
  6
CONTINUOUS
 62
     2
100
AcDbLine
 10
1074.231656
 20
241.667437
 30
0.0
 11
1072.762001
 21
240.818932
 31
0.0
  0
LINE
  5
6A4
100
AcDbEntity
  8
LAY-1
  6
CONTINUOUS
 62
     2
100
AcDbLine
 10
1083.731656
 20
241.667437
 30
0.0
 11
1074.231656
 21
241.667437
 31
0.0
  0
ARC
  5
6A5
100
AcDbEntity
  8
LAY-1
  6
CONTINUOUS
 62
     2
100
AcDbCircle
 10
1075.504415
 20
236.811374
 30
0.0
 40
4.856063
100
AcDbArc
 50
55.615753
 51
124.384247
  0
LINE
  5
6A6
100
AcDbEntity
  8
LAY-1
  6
CONTINUOUS
 62
     2
100
AcDbLine
 10
1072.762001
 20
240.818932
 30
0.0
 11
1072.762001
 21
231.667437
 31
0.0
  0
LINE
  5
6A7
100
AcDbEntity
  8
LAY-1
  6
CONTINUOUS
 62
     2
100
AcDbLine
 10
1072.762001
 20
231.667437
 30
0.0
 11
1083.731656
 21
231.667437
 31
0.0
  0
LINE
  5
6A8
100
AcDbEntity
  8
LAY-1
  6
CONTINUOUS
 62
     2
100
AcDbLine
 10
1071.731656
 20
230.193717
 30
0.0
 11
1077.231656
 21
231.667437
 31
0.0
  0
LINE
  5
6A9
100
AcDbEntity
  8
LAY-1
  6
CONTINUOUS
 62
     2
100
AcDbLine
 10
1071.731656
 20
230.193717
 30
0.0
 11
1071.731656
 21
228.967437
 31
0.0
  0
LINE
  5
6AA
100
AcDbEntity
  8
LAY-1
  6
CONTINUOUS
 62
     2
100
AcDbLine
 10
1083.731656
 20
230.193717
 30
0.0
 11
1071.731656
 21
230.193717
 31
0.0
  0
LINE
  5
6AB
100
AcDbEntity
  8
LAY-1
  6
CONTINUOUS
 62
     2
100
AcDbLine
 10
1077.731657
 20
246.467437
 30
0.0
 11
1078.231657
 21
246.967437
 31
0.0
  0
LINE
  5
6AC
100
AcDbEntity
  8
LAY-1
  6
CONTINUOUS
 62
     2
100
AcDbLine
 10
1089.731657
 20
246.467437
 30
0.0
 11
1089.231657
 21
246.967437
 31
0.0
  0
LINE
  5
6AD
100
AcDbEntity
  8
LAY-1
  6
CONTINUOUS
 62
     2
100
AcDbLine
 10
1089.231657
 20
246.967437
 30
0.0
 11
1078.231657
 21
246.967437
 31
0.0
  0
LINE
  5
6AE
100
AcDbEntity
  8
LAY-1
  6
CONTINUOUS
 62
     2
100
AcDbLine
 10
1077.731657
 20
246.467437
 30
0.0
 11
1077.731657
 21
241.667437
 31
0.0
  0
LINE
  5
6AF
100
AcDbEntity
  8
LAY-1
  6
CONTINUOUS
 62
     2
100
AcDbLine
 10
1089.731657
 20
246.467437
 30
0.0
 11
1089.731657
 21
241.667437
 31
0.0
  0
LINE
  5
6B0
100
AcDbEntity
  8
LAY-1
  6
CONTINUOUS
 62
     2
100
AcDbLine
 10
1078.246829
 20
240.818932
 30
0.0
 11
1078.246829
 21
231.667437
 31
0.0
  0
LINE
  5
6B1
100
AcDbEntity
  8
LAY-1
  6
CONTINUOUS
 62
     2
100
AcDbLine
 10
1072.884869
 20
196.976338
 30
0.0
 11
1072.884869
 21
189.824844
 31
0.0
  0
LINE
  5
6B2
100
AcDbEntity
  8
LAY-1
  6
CONTINUOUS
 62
     2
100
AcDbLine
 10
1078.369697
 20
189.824844
 30
0.0
 11
1078.369697
 21
196.976338
 31
0.0
  0
LINE
  5
6B3
100
AcDbEntity
  8
LAY-1
  6
CONTINUOUS
 62
     2
100
AcDbLine
 10
1089.339352
 20
196.976338
 30
0.0
 11
1089.339352
 21
189.824844
 31
0.0
  0
LINE
  5
6B4
100
AcDbEntity
  8
LAY-1
  6
CONTINUOUS
 62
     2
100
AcDbLine
 10
1094.824179
 20
189.824844
 30
0.0
 11
1094.824179
 21
196.976338
 31
0.0
  0
LINE
  5
6B5
100
AcDbEntity
  8
LAY-1
  6
CONTINUOUS
 62
     2
100
AcDbLine
 10
1072.884869
 20
189.824844
 30
0.0
 11
1074.354524
 21
188.976338
 31
0.0
  0
ARC
  5
6B6
100
AcDbEntity
  8
LAY-1
  6
CONTINUOUS
 62
     2
100
AcDbCircle
 10
1075.627283
 20
193.832401
 30
0.0
 40
4.856063
100
AcDbArc
 50
235.615753
 51
304.384247
  0
ARC
  5
6B7
100
AcDbEntity
  8
LAY-1
  6
CONTINUOUS
 62
     2
100
AcDbCircle
 10
1083.854524
 20
207.127832
 30
0.0
 40
18.151494
100
AcDbArc
 50
252.412046
 51
287.587954
  0
LINE
  5
6B8
100
AcDbEntity
  8
LAY-1
  6
CONTINUOUS
 62
     2
100
AcDbLine
 10
1093.354524
 20
188.976338
 30
0.0
 11
1094.824179
 21
189.824844
 31
0.0
  0
ARC
  5
6B9
100
AcDbEntity
  8
LAY-1
  6
CONTINUOUS
 62
     2
100
AcDbCircle
 10
1092.081766
 20
193.832401
 30
0.0
 40
4.856063
100
AcDbArc
 50
235.615753
 51
304.384247
  0
LINE
  5
6BA
100
AcDbEntity
  8
LAY-1
  6
CONTINUOUS
 62
     2
100
AcDbLine
 10
1074.354524
 20
188.976338
 30
0.0
 11
1093.354524
 21
188.976338
 31
0.0
  0
LINE
  5
6BB
100
AcDbEntity
  8
LAY-1
  6
CONTINUOUS
 62
     2
100
AcDbLine
 10
1041.612047
 20
230.193717
 30
0.0
 11
1041.612047
 21
228.967437
 31
0.0
  0
LINE
  5
6BC
100
AcDbEntity
  8
LAY-1
  6
CONTINUOUS
 62
     2
100
AcDbLine
 10
1029.612047
 20
230.193717
 30
0.0
 11
1041.612047
 21
230.193717
 31
0.0
  0
LINE
  5
6BD
100
AcDbEntity
  8
LAY-1
  6
CONTINUOUS
 62
     2
100
AcDbLine
 10
1041.612047
 20
230.193717
 30
0.0
 11
1036.112047
 21
231.667437
 31
0.0
  0
LINE
  5
6BE
100
AcDbEntity
  8
LAY-1
  6
CONTINUOUS
 62
     2
100
AcDbLine
 10
1040.581702
 20
231.667437
 30
0.0
 11
1029.612047
 21
231.667437
 31
0.0
  0
LINE
  5
6BF
100
AcDbEntity
  8
LAY-1
  6
CONTINUOUS
 62
     2
100
AcDbLine
 10
1040.581702
 20
240.818932
 30
0.0
 11
1040.581702
 21
231.667437
 31
0.0
  0
LINE
  5
6C0
100
AcDbEntity
  8
LAY-1
  6
CONTINUOUS
 62
     2
100
AcDbLine
 10
1039.112047
 20
241.667437
 30
0.0
 11
1040.581702
 21
240.818932
 31
0.0
  0
LINE
  5
6C1
100
AcDbEntity
  8
LAY-1
  6
CONTINUOUS
 62
     2
100
AcDbLine
 10
1035.096875
 20
240.818932
 30
0.0
 11
1035.096875
 21
231.667437
 31
0.0
  0
ARC
  5
6C2
100
AcDbEntity
  8
LAY-1
  6
CONTINUOUS
 62
     2
100
AcDbCircle
 10
1037.839288
 20
236.811374
 30
0.0
 40
4.856063
100
AcDbArc
 50
55.615753
 51
124.384247
  0
LINE
  5
6C3
100
AcDbEntity
  8
LAY-1
  6
CONTINUOUS
 62
     2
100
AcDbLine
 10
1029.612047
 20
241.667437
 30
0.0
 11
1039.112047
 21
241.667437
 31
0.0
  0
ARC
  5
6C4
100
AcDbEntity
  8
LAY-1
  6
CONTINUOUS
 62
     2
100
AcDbCircle
 10
1029.612047
 20
223.515943
 30
0.0
 40
18.151494
100
AcDbArc
 50
72.412046
 51
90.0
  0
ARC
  5
6C5
100
AcDbEntity
  8
LAY-1
  6
CONTINUOUS
 62
     2
100
AcDbCircle
 10
1029.612046
 20
223.515943
 30
0.0
 40
18.151494
100
AcDbArc
 50
90.0
 51
107.587954
  0
LINE
  5
6C6
100
AcDbEntity
  8
LAY-1
  6
CONTINUOUS
 62
     2
100
AcDbLine
 10
1020.112046
 20
241.667437
 30
0.0
 11
1018.642391
 21
240.818932
 31
0.0
  0
LINE
  5
6C7
100
AcDbEntity
  8
LAY-1
  6
CONTINUOUS
 62
     2
100
AcDbLine
 10
1029.612046
 20
241.667437
 30
0.0
 11
1020.112046
 21
241.667437
 31
0.0
  0
ARC
  5
6C8
100
AcDbEntity
  8
LAY-1
  6
CONTINUOUS
 62
     2
100
AcDbCircle
 10
1021.384805
 20
236.811374
 30
0.0
 40
4.856063
100
AcDbArc
 50
55.615753
 51
124.384247
  0
LINE
  5
6C9
100
AcDbEntity
  8
LAY-1
  6
CONTINUOUS
 62
     2
100
AcDbLine
 10
1018.642391
 20
240.818932
 30
0.0
 11
1018.642391
 21
231.667437
 31
0.0
  0
LINE
  5
6CA
100
AcDbEntity
  8
LAY-1
  6
CONTINUOUS
 62
     2
100
AcDbLine
 10
1018.642391
 20
231.667437
 30
0.0
 11
1029.612046
 21
231.667437
 31
0.0
  0
LINE
  5
6CB
100
AcDbEntity
  8
LAY-1
  6
CONTINUOUS
 62
     2
100
AcDbLine
 10
1017.612046
 20
230.193717
 30
0.0
 11
1023.112046
 21
231.667437
 31
0.0
  0
LINE
  5
6CC
100
AcDbEntity
  8
LAY-1
  6
CONTINUOUS
 62
     2
100
AcDbLine
 10
1017.612046
 20
230.193717
 30
0.0
 11
1017.612046
 21
228.967437
 31
0.0
  0
LINE
  5
6CD
100
AcDbEntity
  8
LAY-1
  6
CONTINUOUS
 62
     2
100
AcDbLine
 10
1029.612046
 20
230.193717
 30
0.0
 11
1017.612046
 21
230.193717
 31
0.0
  0
LINE
  5
6CE
100
AcDbEntity
  8
LAY-1
  6
CONTINUOUS
 62
     2
100
AcDbLine
 10
1023.612047
 20
246.467437
 30
0.0
 11
1024.112047
 21
246.967437
 31
0.0
  0
LINE
  5
6CF
100
AcDbEntity
  8
LAY-1
  6
CONTINUOUS
 62
     2
100
AcDbLine
 10
1035.612047
 20
246.467437
 30
0.0
 11
1035.112047
 21
246.967437
 31
0.0
  0
LINE
  5
6D0
100
AcDbEntity
  8
LAY-1
  6
CONTINUOUS
 62
     2
100
AcDbLine
 10
1035.112047
 20
246.967437
 30
0.0
 11
1024.112047
 21
246.967437
 31
0.0
  0
LINE
  5
6D1
100
AcDbEntity
  8
LAY-1
  6
CONTINUOUS
 62
     2
100
AcDbLine
 10
1023.612047
 20
246.467437
 30
0.0
 11
1023.612047
 21
241.667437
 31
0.0
  0
LINE
  5
6D2
100
AcDbEntity
  8
LAY-1
  6
CONTINUOUS
 62
     2
100
AcDbLine
 10
1035.612047
 20
246.467437
 30
0.0
 11
1035.612047
 21
241.667437
 31
0.0
  0
LINE
  5
6D3
100
AcDbEntity
  8
LAY-1
  6
CONTINUOUS
 62
     2
100
AcDbLine
 10
1024.127219
 20
240.818932
 30
0.0
 11
1024.127219
 21
231.667437
 31
0.0
  0
LINE
  5
6D4
100
AcDbEntity
  8
LAY-1
  6
CONTINUOUS
 62
     2
100
AcDbLine
 10
1018.765259
 20
196.976338
 30
0.0
 11
1018.765259
 21
189.824844
 31
0.0
  0
LINE
  5
6D5
100
AcDbEntity
  8
LAY-1
  6
CONTINUOUS
 62
     2
100
AcDbLine
 10
1024.250087
 20
189.824844
 30
0.0
 11
1024.250087
 21
196.976338
 31
0.0
  0
LINE
  5
6D6
100
AcDbEntity
  8
LAY-1
  6
CONTINUOUS
 62
     2
100
AcDbLine
 10
1035.219742
 20
196.976338
 30
0.0
 11
1035.219742
 21
189.824844
 31
0.0
  0
LINE
  5
6D7
100
AcDbEntity
  8
LAY-1
  6
CONTINUOUS
 62
     2
100
AcDbLine
 10
1040.704569
 20
189.824844
 30
0.0
 11
1040.704569
 21
196.976338
 31
0.0
  0
LINE
  5
6D8
100
AcDbEntity
  8
LAY-1
  6
CONTINUOUS
 62
     2
100
AcDbLine
 10
1018.765259
 20
189.824844
 30
0.0
 11
1020.234914
 21
188.976338
 31
0.0
  0
ARC
  5
6D9
100
AcDbEntity
  8
LAY-1
  6
CONTINUOUS
 62
     2
100
AcDbCircle
 10
1021.507673
 20
193.832401
 30
0.0
 40
4.856063
100
AcDbArc
 50
235.615753
 51
304.384247
  0
ARC
  5
6DA
100
AcDbEntity
  8
LAY-1
  6
CONTINUOUS
 62
     2
100
AcDbCircle
 10
1029.734914
 20
207.127832
 30
0.0
 40
18.151494
100
AcDbArc
 50
252.412046
 51
287.587954
  0
LINE
  5
6DB
100
AcDbEntity
  8
LAY-1
  6
CONTINUOUS
 62
     2
100
AcDbLine
 10
1039.234914
 20
188.976338
 30
0.0
 11
1040.704569
 21
189.824844
 31
0.0
  0
ARC
  5
6DC
100
AcDbEntity
  8
LAY-1
  6
CONTINUOUS
 62
     2
100
AcDbCircle
 10
1037.962156
 20
193.832401
 30
0.0
 40
4.856063
100
AcDbArc
 50
235.615753
 51
304.384247
  0
LINE
  5
6DD
100
AcDbEntity
  8
LAY-1
  6
CONTINUOUS
 62
     2
100
AcDbLine
 10
1020.234914
 20
188.976338
 30
0.0
 11
1039.234914
 21
188.976338
 31
0.0
  0
LINE
  5
6DE
100
AcDbEntity
  8
LAY-1
  6
CONTINUOUS
 62
     2
100
AcDbLine
 10
1094.07617
 20
368.192764
 30
0.0
 11
1076.080653
 21
366.301359
 31
0.0
  0
LINE
  5
6DF
100
AcDbEntity
  8
LAY-1
  6
CONTINUOUS
 62
     2
100
AcDbLine
 10
1094.031992
 20
368.741697
 30
0.0
 11
1094.031992
 21
368.73259
 31
0.0
  0
ARC
  5
6E0
100
AcDbEntity
  8
LAY-1
  6
CONTINUOUS
 62
     2
100
AcDbCircle
 10
1096.026464
 20
368.347014
 30
0.0
 40
2.0
100
AcDbArc
 50
100.0
 51
184.26083
  0
LINE
  5
6E1
100
AcDbEntity
  8
LAY-1
  6
CONTINUOUS
 62
     2
100
AcDbLine
 10
1095.679168
 20
370.316629
 30
0.0
 11
1096.824429
 21
370.5049
 31
0.0
  0
ARC
  5
6E2
100
AcDbEntity
  8
LAY-1
  6
CONTINUOUS
 62
     2
100
AcDbCircle
 10
1077.64858
 20
351.383531
 30
0.0
 40
15.0
100
AcDbArc
 50
96.0
 51
177.5304
  0
ARC
  5
6E3
100
AcDbEntity
  8
LAY-1
  6
CONTINUOUS
 62
     2
100
AcDbCircle
 10
764.487571
 20
753.967437
 30
0.0
 40
2.0
100
AcDbArc
 50
189.335443
 51
270.0
  0
LINE
  5
6E4
100
AcDbEntity
  8
LAY-1
  6
CONTINUOUS
 62
     2
100
AcDbLine
 10
762.325789
 20
754.78827
 30
0.0
 11
762.51406
 21
753.643009
 31
0.0
  0
LINE
  5
6E5
100
AcDbEntity
  8
LAY-1
  6
CONTINUOUS
 62
     2
100
AcDbLine
 10
760.750856
 20
756.435446
 30
0.0
 11
760.74175
 21
756.435446
 31
0.0
  0
ARC
  5
6E6
100
AcDbEntity
  8
LAY-1
  6
CONTINUOUS
 62
     2
100
AcDbCircle
 10
760.356173
 20
754.440973
 30
0.0
 40
2.0
100
AcDbArc
 50
10.0
 51
94.26083
  0
LINE
  5
6E7
100
AcDbEntity
  8
LAY-1
  6
CONTINUOUS
 62
     2
100
AcDbLine
 10
760.207579
 20
756.435446
 30
0.0
 11
761.232974
 21
750.620141
 31
0.0
  0
ARC
  5
6E8
100
AcDbEntity
  8
LAY-1
  6
CONTINUOUS
 62
     2
100
AcDbCircle
 10
978.500001
 20
728.467437
 30
0.0
 40
220.076784
100
AcDbArc
 50
172.69894
 51
174.57674
  0
ARC
  5
6E9
100
AcDbEntity
  8
LAY-1
  6
CONTINUOUS
 62
     2
100
AcDbCircle
 10
763.20259
 20
750.967437
 30
0.0
 40
2.0
100
AcDbArc
 50
190.0
 51
270.0
  0
LINE
  5
6EA
100
AcDbEntity
  8
LAY-1
  6
CONTINUOUS
 62
     2
100
AcDbLine
 10
768.982199
 20
748.967437
 30
0.0
 11
763.20259
 21
748.967437
 31
0.0
  0
ARC
  5
6EB
100
AcDbEntity
  8
LAY-1
  6
CONTINUOUS
 62
     2
100
AcDbCircle
 10
768.982199
 20
746.967437
 30
0.0
 40
2.0
100
AcDbArc
 50
0.0
 51
90.0
  0
LINE
  5
6EC
100
AcDbEntity
  8
LAY-1
  6
CONTINUOUS
 62
     2
100
AcDbLine
 10
770.982199
 20
709.967437
 30
0.0
 11
770.982199
 21
746.967437
 31
0.0
  0
ARC
  5
6ED
100
AcDbEntity
  8
LAY-1
  6
CONTINUOUS
 62
     2
100
AcDbCircle
 10
768.982199
 20
709.967437
 30
0.0
 40
2.0
100
AcDbArc
 50
270.0
 51
0.0
  0
LINE
  5
6EE
100
AcDbEntity
  8
LAY-1
  6
CONTINUOUS
 62
     2
100
AcDbLine
 10
768.982199
 20
707.967437
 30
0.0
 11
762.783007
 21
707.967437
 31
0.0
  0
ARC
  5
6EF
100
AcDbEntity
  8
LAY-1
  6
CONTINUOUS
 62
     2
100
AcDbCircle
 10
978.500001
 20
728.467437
 30
0.0
 40
220.076784
100
AcDbArc
 50
185.42326
 51
187.30106
  0
ARC
  5
6F0
100
AcDbEntity
  8
LAY-1
  6
CONTINUOUS
 62
     2
100
AcDbCircle
 10
761.484451
 20
708.167437
 30
0.0
 40
0.5
100
AcDbArc
 50
270.0
 51
0.0
  0
LINE
  5
6F1
100
AcDbEntity
  8
LAY-1
  6
CONTINUOUS
 62
     2
100
AcDbLine
 10
758.576091
 20
749.71472
 30
0.0
 11
758.576091
 21
707.220154
 31
0.0
  0
ARC
  5
6F2
100
AcDbEntity
  8
LAY-1
  6
CONTINUOUS
 62
     2
100
AcDbCircle
 10
759.073352
 20
707.16789
 30
0.0
 40
0.5
100
AcDbArc
 50
90.0
 51
174.0
  0
LINE
  5
6F3
100
AcDbEntity
  8
LAY-1
  6
CONTINUOUS
 62
     2
100
AcDbLine
 10
761.484451
 20
707.667437
 30
0.0
 11
759.073352
 21
707.667437
 31
0.0
  0
LINE
  5
6F4
100
AcDbEntity
  8
LAY-1
  6
CONTINUOUS
 62
     2
100
AcDbLine
 10
761.984451
 20
708.167437
 30
0.0
 11
761.984451
 21
748.767437
 31
0.0
  0
ARC
  5
6F5
100
AcDbEntity
  8
LAY-1
  6
CONTINUOUS
 62
     2
100
AcDbCircle
 10
761.484451
 20
748.767437
 30
0.0
 40
0.5
100
AcDbArc
 50
0.0
 51
90.0
  0
LINE
  5
6F6
100
AcDbEntity
  8
LAY-1
  6
CONTINUOUS
 62
     2
100
AcDbLine
 10
761.484451
 20
749.267437
 30
0.0
 11
759.073352
 21
749.267437
 31
0.0
  0
ARC
  5
6F7
100
AcDbEntity
  8
LAY-1
  6
CONTINUOUS
 62
     2
100
AcDbCircle
 10
759.073352
 20
749.766984
 30
0.0
 40
0.5
100
AcDbArc
 50
186.0
 51
270.0
  0
LINE
  5
6F8
100
AcDbEntity
  8
LAY-1
  6
CONTINUOUS
 62
     2
100
AcDbLine
 10
762.484451
 20
715.467437
 30
0.0
 11
761.984451
 21
715.467437
 31
0.0
  0
LINE
  5
6F9
100
AcDbEntity
  8
LAY-1
  6
CONTINUOUS
 62
     2
100
AcDbLine
 10
761.984451
 20
741.467437
 30
0.0
 11
762.484451
 21
741.467437
 31
0.0
  0
LINE
  5
6FA
100
AcDbEntity
  8
LAY-1
  6
CONTINUOUS
 62
     2
100
AcDbLine
 10
762.484451
 20
715.467437
 30
0.0
 11
762.484451
 21
741.467437
 31
0.0
  0
ARC
  5
6FB
100
AcDbEntity
  8
LAY-1
  6
CONTINUOUS
 62
     2
100
AcDbCircle
 10
762.783007
 20
705.967437
 30
0.0
 40
2.0
100
AcDbArc
 50
90.0
 51
174.0
  0
LINE
  5
6FC
100
AcDbEntity
  8
LAY-1
  6
CONTINUOUS
 62
     2
100
AcDbLine
 10
760.207579
 20
700.499429
 30
0.0
 11
760.793964
 21
706.176494
 31
0.0
  0
LINE
  5
6FD
100
AcDbEntity
  8
LAY-1
  6
CONTINUOUS
 62
     2
100
AcDbLine
 10
764.284451
 20
710.017437
 30
0.0
 11
764.284451
 21
713.417437
 31
0.0
  0
ARC
  5
6FE
100
AcDbEntity
  8
LAY-1
  6
CONTINUOUS
 62
     2
100
AcDbCircle
 10
763.384451
 20
710.017437
 30
0.0
 40
0.9
100
AcDbArc
 50
270.0
 51
0.0
  0
ARC
  5
6FF
100
AcDbEntity
  8
LAY-1
  6
CONTINUOUS
 62
     2
100
AcDbCircle
 10
763.384451
 20
713.417437
 30
0.0
 40
0.9
100
AcDbArc
 50
0.0
 51
90.0
  0
LINE
  5
700
100
AcDbEntity
  8
LAY-1
  6
CONTINUOUS
 62
     2
100
AcDbLine
 10
763.384451
 20
714.317437
 30
0.0
 11
761.984451
 21
714.317437
 31
0.0
  0
LINE
  5
701
100
AcDbEntity
  8
LAY-1
  6
CONTINUOUS
 62
     2
100
AcDbLine
 10
763.384451
 20
709.117437
 30
0.0
 11
761.984451
 21
709.117437
 31
0.0
  0
ARC
  5
702
100
AcDbEntity
  8
LAY-1
  6
CONTINUOUS
 62
     2
100
AcDbCircle
 10
763.384451
 20
743.517437
 30
0.0
 40
0.9
100
AcDbArc
 50
270.0
 51
0.0
  0
ARC
  5
703
100
AcDbEntity
  8
LAY-1
  6
CONTINUOUS
 62
     2
100
AcDbCircle
 10
763.384451
 20
746.917437
 30
0.0
 40
0.9
100
AcDbArc
 50
0.0
 51
90.0
  0
LINE
  5
704
100
AcDbEntity
  8
LAY-1
  6
CONTINUOUS
 62
     2
100
AcDbLine
 10
764.284451
 20
743.517437
 30
0.0
 11
764.284451
 21
746.917437
 31
0.0
  0
LINE
  5
705
100
AcDbEntity
  8
LAY-1
  6
CONTINUOUS
 62
     2
100
AcDbLine
 10
763.384451
 20
747.817437
 30
0.0
 11
761.984451
 21
747.817437
 31
0.0
  0
LINE
  5
706
100
AcDbEntity
  8
LAY-1
  6
CONTINUOUS
 62
     2
100
AcDbLine
 10
763.384451
 20
742.617437
 30
0.0
 11
761.984451
 21
742.617437
 31
0.0
  0
TEXT
  5
707
100
AcDbEntity
  8
LAY-3
  6
CONTINUOUS
 62
     3
100
AcDbText
 10
456.5
 20
493.967437
 30
0.0
 40
25.0
  1
６５
 41
0.84
  7
EXCADSTD
 72
     5
 11
502.33
 21
493.967437
 31
0.0
100
AcDbText
  0
LINE
  5
708
100
AcDbEntity
  8
LAY-3
  6
CONTINUOUS
 62
     1
100
AcDbLine
 10
449.0
 20
492.967437
 30
0.0
 11
514.0
 21
492.967437
 31
0.0
  0
LINE
  5
709
100
AcDbEntity
  8
LAY-3
  6
CONTINUOUS
 62
     1
100
AcDbLine
 10
459.0
 20
494.634104
 30
0.0
 11
449.0
 21
492.967437
 31
0.0
  0
LINE
  5
70A
100
AcDbEntity
  8
LAY-3
  6
CONTINUOUS
 62
     1
100
AcDbLine
 10
449.0
 20
492.967437
 30
0.0
 11
459.0
 21
491.300771
 31
0.0
  0
LINE
  5
70B
100
AcDbEntity
  8
LAY-3
  6
CONTINUOUS
 62
     1
100
AcDbLine
 10
504.0
 20
491.300771
 30
0.0
 11
514.0
 21
492.967437
 31
0.0
  0
LINE
  5
70C
100
AcDbEntity
  8
LAY-3
  6
CONTINUOUS
 62
     1
100
AcDbLine
 10
514.0
 20
492.967437
 30
0.0
 11
504.0
 21
494.634104
 31
0.0
  0
LINE
  5
70D
100
AcDbEntity
  8
LAY-3
  6
CONTINUOUS
 62
     1
100
AcDbLine
 10
480.5
 20
870.967437
 30
0.0
 11
379.75833
 21
870.967437
 31
0.0
  0
LINE
  5
70E
100
AcDbEntity
  8
LAY-3
  6
CONTINUOUS
 62
     1
100
AcDbLine
 10
444.0
 20
585.967437
 30
0.0
 11
379.75833
 21
585.967437
 31
0.0
  0
TEXT
  5
70F
100
AcDbEntity
  8
LAY-3
  6
CONTINUOUS
 62
     3
100
AcDbText
 10
379.25833
 20
690.967437
 30
0.0
 40
25.0
  1
２８５
 50
90.0
 41
0.84
  7
EXCADSTD
 72
     5
 11
379.25833
 21
765.967437
 31
0.0
100
AcDbText
  0
LINE
  5
710
100
AcDbEntity
  8
LAY-3
  6
CONTINUOUS
 62
     1
100
AcDbLine
 10
380.25833
 20
870.967437
 30
0.0
 11
380.25833
 21
585.967437
 31
0.0
  0
LINE
  5
711
100
AcDbEntity
  8
LAY-3
  6
CONTINUOUS
 62
     1
100
AcDbLine
 10
381.924997
 20
860.967437
 30
0.0
 11
380.25833
 21
870.967437
 31
0.0
  0
LINE
  5
712
100
AcDbEntity
  8
LAY-3
  6
CONTINUOUS
 62
     1
100
AcDbLine
 10
380.25833
 20
870.967437
 30
0.0
 11
378.591664
 21
860.967437
 31
0.0
  0
LINE
  5
713
100
AcDbEntity
  8
LAY-3
  6
CONTINUOUS
 62
     1
100
AcDbLine
 10
378.591664
 20
595.967437
 30
0.0
 11
380.25833
 21
585.967437
 31
0.0
  0
LINE
  5
714
100
AcDbEntity
  8
LAY-3
  6
CONTINUOUS
 62
     1
100
AcDbLine
 10
380.25833
 20
585.967437
 30
0.0
 11
381.924997
 21
595.967437
 31
0.0
  0
LINE
  5
715
100
AcDbEntity
  8
LAY-3
  6
CONTINUOUS
 62
     1
100
AcDbLine
 10
618.982199
 20
840.467438
 30
0.0
 11
918.75833
 21
840.467438
 31
0.0
  0
LINE
  5
716
100
AcDbEntity
  8
LAY-3
  6
CONTINUOUS
 62
     1
100
AcDbLine
 10
618.982199
 20
616.467438
 30
0.0
 11
918.75833
 21
616.467438
 31
0.0
  0
TEXT
  5
717
100
AcDbEntity
  8
LAY-3
  6
CONTINUOUS
 62
     3
100
AcDbText
 10
917.25833
 20
678.467438
 30
0.0
 40
25.0
  1
φ
 50
90.0
 41
0.84
  7
EXCADSTD
 72
     5
 11
917.25833
 21
698.467438
 31
0.0
100
AcDbText
  0
TEXT
  5
718
100
AcDbEntity
  8
LAY-3
  6
CONTINUOUS
 62
     3
100
AcDbText
 10
917.25833
 20
703.467438
 30
0.0
 40
25.0
  1
２２４
 50
90.0
 41
0.84
  7
EXCADSTD
 72
     5
 11
917.25833
 21
778.467438
 31
0.0
100
AcDbText
  0
LINE
  5
719
100
AcDbEntity
  8
LAY-3
  6
CONTINUOUS
 62
     1
100
AcDbLine
 10
918.25833
 20
840.467438
 30
0.0
 11
918.25833
 21
616.467438
 31
0.0
  0
LINE
  5
71A
100
AcDbEntity
  8
LAY-3
  6
CONTINUOUS
 62
     1
100
AcDbLine
 10
919.924997
 20
830.467438
 30
0.0
 11
918.25833
 21
840.467438
 31
0.0
  0
LINE
  5
71B
100
AcDbEntity
  8
LAY-3
  6
CONTINUOUS
 62
     1
100
AcDbLine
 10
918.25833
 20
840.467438
 30
0.0
 11
916.591664
 21
830.467438
 31
0.0
  0
LINE
  5
71C
100
AcDbEntity
  8
LAY-3
  6
CONTINUOUS
 62
     1
100
AcDbLine
 10
916.591664
 20
626.467438
 30
0.0
 11
918.25833
 21
616.467438
 31
0.0
  0
LINE
  5
71D
100
AcDbEntity
  8
LAY-3
  6
CONTINUOUS
 62
     1
100
AcDbLine
 10
918.25833
 20
616.467438
 30
0.0
 11
919.924997
 21
626.467438
 31
0.0
  0
POLYLINE
  5
71E
100
AcDbEntity
  8
LAY-3
  6
CONTINUOUS
 62
     1
100
AcDb2dPolyline
 66
     1
 10
0.0
 20
0.0
 30
0.0
 70
   128
  0
VERTEX
  5
71F
100
AcDbEntity
  8
LAY-3
  6
CONTINUOUS
 62
     1
100
AcDbVertex
100
AcDb2dVertex
 10
567.5
 20
869.967437
 30
0.0
  0
VERTEX
  5
720
100
AcDbEntity
  8
LAY-3
  6
CONTINUOUS
 62
     1
100
AcDbVertex
100
AcDb2dVertex
 10
602.375
 20
904.842437
 30
0.0
  0
VERTEX
  5
721
100
AcDbEntity
  8
LAY-3
  6
CONTINUOUS
 62
     1
100
AcDbVertex
100
AcDb2dVertex
 10
973.25833
 20
904.842437
 30
0.0
  0
SEQEND
  5
722
100
AcDbEntity
  8
LAY-3
  6
CONTINUOUS
 62
     1
  0
LINE
  5
723
100
AcDbEntity
  8
LAY-3
  6
CONTINUOUS
 62
     1
100
AcDbLine
 10
573.392557
 20
878.217017
 30
0.0
 11
567.5
 21
869.967437
 31
0.0
  0
LINE
  5
724
100
AcDbEntity
  8
LAY-3
  6
CONTINUOUS
 62
     1
100
AcDbLine
 10
567.5
 20
869.967437
 30
0.0
 11
575.749579
 21
875.859994
 31
0.0
  0
TEXT
  5
725
100
AcDbEntity
  8
LAY-3
  6
CONTINUOUS
 62
     3
100
AcDbText
 10
609.9375
 20
905.142437
 30
0.0
 40
25.0
  1
ＪＩＳ２０Ｋ　２５Ａフランジ
 41
0.84
  7
EXCADSTD
 72
     5
 11
959.9375
 21
905.142437
 31
0.0
100
AcDbText
  0
POLYLINE
  5
726
100
AcDbEntity
  8
LAY-3
  6
CONTINUOUS
 62
     1
100
AcDb2dPolyline
 66
     1
 10
0.0
 20
0.0
 30
0.0
 70
   128
  0
VERTEX
  5
727
100
AcDbEntity
  8
LAY-3
  6
CONTINUOUS
 62
     1
100
AcDbVertex
100
AcDb2dVertex
 10
469.25833
 20
585.967437
 30
0.0
  0
VERTEX
  5
728
100
AcDbEntity
  8
LAY-3
  6
CONTINUOUS
 62
     1
100
AcDbVertex
100
AcDb2dVertex
 10
411.25833
 20
537.222569
 30
0.0
  0
VERTEX
  5
729
100
AcDbEntity
  8
LAY-3
  6
CONTINUOUS
 62
     1
100
AcDbVertex
100
AcDb2dVertex
 10
35.25833
 20
537.222569
 30
0.0
  0
SEQEND
  5
72A
100
AcDbEntity
  8
LAY-3
  6
CONTINUOUS
 62
     1
  0
LINE
  5
72B
100
AcDbEntity
  8
LAY-3
  6
CONTINUOUS
 62
     1
100
AcDbLine
 10
462.675206
 20
578.257687
 30
0.0
 11
469.25833
 21
585.967437
 31
0.0
  0
LINE
  5
72C
100
AcDbEntity
  8
LAY-3
  6
CONTINUOUS
 62
     1
100
AcDbLine
 10
469.25833
 20
585.967437
 30
0.0
 11
460.530591
 21
580.809498
 31
0.0
  0
TEXT
  5
72D
100
AcDbEntity
  8
LAY-3
  6
CONTINUOUS
 62
     3
100
AcDbText
 10
47.829762
 20
537.522569
 30
0.0
 40
25.0
  1
ＪＩＳ１０Ｋ　４０Ａフランジ
 41
0.84
  7
EXCADSTD
 72
     5
 11
397.829762
 21
537.522569
 31
0.0
100
AcDbText
  0
POLYLINE
  5
72E
100
AcDbEntity
  8
LAY-3
  6
CONTINUOUS
 62
     1
100
AcDb2dPolyline
 66
     1
 10
0.0
 20
0.0
 30
0.0
 70
   128
  0
VERTEX
  5
72F
100
AcDbEntity
  8
LAY-3
  6
CONTINUOUS
 62
     1
100
AcDbVertex
100
AcDb2dVertex
 10
644.840181
 20
722.308376
 30
0.0
  0
VERTEX
  5
730
100
AcDbEntity
  8
LAY-3
  6
CONTINUOUS
 62
     1
100
AcDbVertex
100
AcDb2dVertex
 10
678.5
 20
585.717437
 30
0.0
  0
VERTEX
  5
731
100
AcDbEntity
  8
LAY-3
  6
CONTINUOUS
 62
     1
100
AcDbVertex
100
AcDb2dVertex
 10
821.5
 20
585.717437
 30
0.0
  0
SEQEND
  5
732
100
AcDbEntity
  8
LAY-3
  6
CONTINUOUS
 62
     1
  0
LINE
  5
733
100
AcDbEntity
  8
LAY-3
  6
CONTINUOUS
 62
     1
100
AcDbLine
 10
648.851136
 20
712.997628
 30
0.0
 11
644.840181
 21
722.308376
 31
0.0
  0
LINE
  5
734
100
AcDbEntity
  8
LAY-3
  6
CONTINUOUS
 62
     1
100
AcDbLine
 10
644.840181
 20
722.308376
 30
0.0
 11
645.614625
 21
712.200062
 31
0.0
  0
TEXT
  5
735
100
AcDbEntity
  8
LAY-3
  6
CONTINUOUS
 62
     3
100
AcDbText
 10
687.5
 20
585.777437
 30
0.0
 40
25.0
  1
Ｒｃ１／４
 41
0.84
  7
EXCADSTD
 72
     5
 11
812.5
 21
585.777437
 31
0.0
100
AcDbText
  0
LINE
  5
736
100
AcDbEntity
  8
LAY-3
  6
CONTINUOUS
 62
     1
100
AcDbLine
 10
514.0
 20
585.967437
 30
0.0
 11
514.0
 21
492.467437
 31
0.0
  0
LINE
  5
737
100
AcDbEntity
  8
LAY-3
  6
CONTINUOUS
 62
     1
100
AcDbLine
 10
876.207578
 20
728.467437
 30
0.0
 11
876.207578
 21
492.467437
 31
0.0
  0
TEXT
  5
738
100
AcDbEntity
  8
LAY-3
  6
CONTINUOUS
 62
     3
100
AcDbText
 10
632.603789
 20
493.967437
 30
0.0
 40
25.0
  1
（３６３）
 41
0.84
  7
EXCADSTD
 72
     5
 11
757.603789
 21
493.967437
 31
0.0
100
AcDbText
  0
LINE
  5
739
100
AcDbEntity
  8
LAY-3
  6
CONTINUOUS
 62
     1
100
AcDbLine
 10
514.0
 20
492.967437
 30
0.0
 11
876.207578
 21
492.967437
 31
0.0
  0
LINE
  5
73A
100
AcDbEntity
  8
LAY-3
  6
CONTINUOUS
 62
     1
100
AcDbLine
 10
524.0
 20
494.634104
 30
0.0
 11
514.0
 21
492.967437
 31
0.0
  0
LINE
  5
73B
100
AcDbEntity
  8
LAY-3
  6
CONTINUOUS
 62
     1
100
AcDbLine
 10
514.0
 20
492.967437
 30
0.0
 11
524.0
 21
491.300771
 31
0.0
  0
LINE
  5
73C
100
AcDbEntity
  8
LAY-3
  6
CONTINUOUS
 62
     1
100
AcDbLine
 10
866.207578
 20
491.300771
 30
0.0
 11
876.207578
 21
492.967437
 31
0.0
  0
LINE
  5
73D
100
AcDbEntity
  8
LAY-3
  6
CONTINUOUS
 62
     1
100
AcDbLine
 10
876.207578
 20
492.967437
 30
0.0
 11
866.207578
 21
494.634104
 31
0.0
  0
LINE
  5
73E
100
AcDbEntity
  8
LAY-3
  6
CONTINUOUS
 62
     1
100
AcDbLine
 10
449.0
 20
728.467437
 30
0.0
 11
449.0
 21
446.467437
 31
0.0
  0
LINE
  5
73F
100
AcDbEntity
  8
LAY-3
  6
CONTINUOUS
 62
     1
100
AcDbLine
 10
876.207578
 20
728.467437
 30
0.0
 11
876.207578
 21
446.467437
 31
0.0
  0
TEXT
  5
740
100
AcDbEntity
  8
LAY-3
  6
CONTINUOUS
 62
     3
100
AcDbText
 10
600.103789
 20
447.967437
 30
0.0
 40
25.0
  1
（４２８）
 41
0.84
  7
EXCADSTD
 72
     5
 11
725.103789
 21
447.967437
 31
0.0
100
AcDbText
  0
LINE
  5
741
100
AcDbEntity
  8
LAY-3
  6
CONTINUOUS
 62
     1
100
AcDbLine
 10
449.0
 20
446.967437
 30
0.0
 11
876.207578
 21
446.967437
 31
0.0
  0
LINE
  5
742
100
AcDbEntity
  8
LAY-3
  6
CONTINUOUS
 62
     1
100
AcDbLine
 10
459.0
 20
448.634104
 30
0.0
 11
449.0
 21
446.967437
 31
0.0
  0
LINE
  5
743
100
AcDbEntity
  8
LAY-3
  6
CONTINUOUS
 62
     1
100
AcDbLine
 10
449.0
 20
446.967437
 30
0.0
 11
459.0
 21
445.300771
 31
0.0
  0
LINE
  5
744
100
AcDbEntity
  8
LAY-3
  6
CONTINUOUS
 62
     1
100
AcDbLine
 10
866.207578
 20
445.300771
 30
0.0
 11
876.207578
 21
446.967437
 31
0.0
  0
LINE
  5
745
100
AcDbEntity
  8
LAY-3
  6
CONTINUOUS
 62
     1
100
AcDbLine
 10
876.207578
 20
446.967437
 30
0.0
 11
866.207578
 21
448.634104
 31
0.0
  0
LINE
  5
746
100
AcDbEntity
  8
LAY-3
  6
CONTINUOUS
 62
     2
100
AcDbLine
 10
524.289074
 20
947.341258
 30
0.0
 11
524.289074
 21
937.341258
 31
0.0
  0
LINE
  5
747
100
AcDbEntity
  8
LAY-3
  6
CONTINUOUS
 62
     2
100
AcDbLine
 10
524.289074
 20
937.341258
 30
0.0
 11
534.289074
 21
937.341258
 31
0.0
  0
LINE
  5
748
100
AcDbEntity
  8
LAY-3
  6
CONTINUOUS
 62
     2
100
AcDbLine
 10
534.289074
 20
937.341258
 30
0.0
 11
513.948567
 21
917.376636
 31
0.0
  0
LINE
  5
749
100
AcDbEntity
  8
LAY-3
  6
CONTINUOUS
 62
     2
100
AcDbLine
 10
513.948567
 20
917.376636
 30
0.0
 11
493.983944
 21
937.341258
 31
0.0
  0
LINE
  5
74A
100
AcDbEntity
  8
LAY-3
  6
CONTINUOUS
 62
     2
100
AcDbLine
 10
493.983944
 20
937.341258
 30
0.0
 11
504.289074
 21
937.341258
 31
0.0
  0
LINE
  5
74B
100
AcDbEntity
  8
LAY-3
  6
CONTINUOUS
 62
     2
100
AcDbLine
 10
504.289074
 20
937.341258
 30
0.0
 11
504.289074
 21
947.000751
 31
0.0
  0
LINE
  5
74C
100
AcDbEntity
  8
LAY-3
  6
CONTINUOUS
 62
     2
100
AcDbLine
 10
504.289074
 20
947.000751
 30
0.0
 11
524.289074
 21
947.000751
 31
0.0
  0
LINE
  5
74D
100
AcDbEntity
  8
LAY-3
  6
CONTINUOUS
 62
     2
100
AcDbLine
 10
1719.710926
 20
947.341258
 30
0.0
 11
1719.710926
 21
937.341258
 31
0.0
  0
LINE
  5
74E
100
AcDbEntity
  8
LAY-3
  6
CONTINUOUS
 62
     2
100
AcDbLine
 10
1719.710926
 20
937.341258
 30
0.0
 11
1709.710926
 21
937.341258
 31
0.0
  0
LINE
  5
74F
100
AcDbEntity
  8
LAY-3
  6
CONTINUOUS
 62
     2
100
AcDbLine
 10
1709.710926
 20
937.341258
 30
0.0
 11
1730.051433
 21
917.376636
 31
0.0
  0
LINE
  5
750
100
AcDbEntity
  8
LAY-3
  6
CONTINUOUS
 62
     2
100
AcDbLine
 10
1730.051433
 20
917.376636
 30
0.0
 11
1750.016056
 21
937.341258
 31
0.0
  0
LINE
  5
751
100
AcDbEntity
  8
LAY-3
  6
CONTINUOUS
 62
     2
100
AcDbLine
 10
1750.016056
 20
937.341258
 30
0.0
 11
1739.710926
 21
937.341258
 31
0.0
  0
LINE
  5
752
100
AcDbEntity
  8
LAY-3
  6
CONTINUOUS
 62
     2
100
AcDbLine
 10
1739.710926
 20
937.341258
 30
0.0
 11
1739.710926
 21
947.000751
 31
0.0
  0
LINE
  5
753
100
AcDbEntity
  8
LAY-3
  6
CONTINUOUS
 62
     2
100
AcDbLine
 10
1739.710926
 20
947.000751
 30
0.0
 11
1719.710926
 21
947.000751
 31
0.0
  0
TEXT
  5
754
100
AcDbEntity
  8
LAY-5
  6
CONTINUOUS
 62
     3
100
AcDbText
 10
1419.69833
 20
305.927437
 30
0.0
 40
20.0
  1
型式
 41
0.984714
  7
EXCADSTD
 72
     5
 11
1462.678736
 21
305.927437
 31
0.0
100
AcDbText
  0
TEXT
  5
755
100
AcDbEntity
  8
LAY-5
  6
CONTINUOUS
 62
     3
100
AcDbText
 10
1419.21833
 20
277.767437
 30
0.0
 40
20.0
  1
品名
 41
0.984714
  7
EXCADSTD
 72
     5
 11
1462.198736
 21
277.767437
 31
0.0
100
AcDbText
  0
LINE
  5
756
100
AcDbEntity
  8
LAY-5
  6
CONTINUOUS
 62
     4
100
AcDbLine
 10
1410.25833
 20
249.367437
 30
0.0
 11
1768.65833
 21
249.367437
 31
0.0
  0
LINE
  5
757
100
AcDbEntity
  8
LAY-5
  6
CONTINUOUS
 62
     1
100
AcDbLine
 10
1410.25833
 20
273.767437
 30
0.0
 11
1768.65833
 21
273.767437
 31
0.0
  0
TEXT
  5
758
100
AcDbEntity
  8
LAY-5
  6
CONTINUOUS
 62
     3
100
AcDbText
 10
1537.61833
 20
252.007437
 30
0.0
 40
20.0
  1
外観図
 41
1.47392
  7
EXCADSTD
 72
     5
 11
1642.898329
 21
252.007437
 31
0.0
100
AcDbText
  0
LINE
  5
759
100
AcDbEntity
  8
LAY-5
  6
CONTINUOUS
 62
     4
100
AcDbLine
 10
1410.25833
 20
357.767437
 30
0.0
 11
1768.65833
 21
357.767437
 31
0.0
  0
LINE
  5
75A
100
AcDbEntity
  8
LAY-5
  6
CONTINUOUS
 62
     1
100
AcDbLine
 10
1410.25833
 20
301.767437
 30
0.0
 11
1768.65833
 21
301.767437
 31
0.0
  0
LINE
  5
75B
100
AcDbEntity
  8
LAY-5
  6
CONTINUOUS
 62
     1
100
AcDbLine
 10
1410.25833
 20
329.767437
 30
0.0
 11
1768.65833
 21
329.767437
 31
0.0
  0
LINE
  5
75C
100
AcDbEntity
  8
LAY-5
  6
CONTINUOUS
 62
     1
100
AcDbLine
 10
1470.25833
 20
357.767437
 30
0.0
 11
1470.25833
 21
273.767437
 31
0.0
  0
LINE
  5
75D
100
AcDbEntity
  8
LAY-5
  6
CONTINUOUS
 62
     4
100
AcDbLine
 10
1410.25833
 20
224.967437
 30
0.0
 11
1768.65833
 21
224.967437
 31
0.0
  0
LINE
  5
75E
100
AcDbEntity
  8
LAY-5
  6
CONTINUOUS
 62
     4
100
AcDbLine
 10
1768.65833
 20
224.967437
 30
0.0
 11
1768.65833
 21
357.767437
 31
0.0
  0
LINE
  5
75F
100
AcDbEntity
  8
LAY-5
  6
CONTINUOUS
 62
     4
100
AcDbLine
 10
1410.25833
 20
224.967437
 30
0.0
 11
1410.25833
 21
357.767437
 31
0.0
  0
TEXT
  5
760
100
AcDbEntity
  8
LAY-5
  6
CONTINUOUS
 62
     3
100
AcDbText
 10
1412.81833
 20
333.287437
 30
0.0
 40
20.0
  1
作成日
 41
0.84
  7
EXCADSTD
 72
     5
 11
1472.81833
 21
333.287437
 31
0.0
100
AcDbText
  0
INSERT
  5
761
100
AcDbEntity
  8
LAY-5
  6
CONTINUOUS
 62
     0
100
AcDbBlockReference
  2
SYM-1
 10
1593.037172
 20
236.940437
 30
0.0
 41
3.06
 42
3.06
  0
TEXT
  5
762
100
AcDbEntity
  8
LAY-5
  6
CONTINUOUS
 62
     3
100
AcDbText
 10
1480.19433
 20
305.687437
 30
0.0
 40
20.0
  1
ＮＭＦ－２５－４０
 41
0.84
  7
EXCADSTD
 72
     5
 11
1660.19433
 21
305.687437
 31
0.0
100
AcDbText
  0
TEXT
  5
763
100
AcDbEntity
  8
LAY-5
  6
CONTINUOUS
 62
     3
100
AcDbText
 10
1480.16233
 20
277.783437
 30
0.0
 40
20.0
  1
ＡＢガバナ
 41
0.84
  7
EXCADSTD
 72
     5
 11
1580.16233
 21
277.783437
 31
0.0
100
AcDbText
  0
TEXT
  5
764
100
AcDbEntity
  8
LAY-5
  6
CONTINUOUS
 62
     3
100
AcDbText
 10
1490.73833
 20
333.287437
 30
0.0
 40
20.0
  1
’１４年　６月１０日
 41
0.84
  7
EXCADSTD
 72
     5
 11
1690.73833
 21
333.287437
 31
0.0
100
AcDbText
  0
ENDSEC
  0
SECTION
  2
OBJECTS
  0
DICTIONARY
  5
19
100
AcDbDictionary
  3
ACAD_GROUP
350
1A
  3
ACAD_MLINESTYLE
350
1B
  0
DICTIONARY
  5
1A
102
{ACAD_REACTORS
330
19
102
}
100
AcDbDictionary
  0
DICTIONARY
  5
1B
102
{ACAD_REACTORS
330
19
102
}
100
AcDbDictionary
  3
STANDARD
350
1C
  0
MLINESTYLE
  5
1C
102
{ACAD_REACTORS
330
1B
102
}
100
AcDbMlineStyle
  2
Standard
 70
     0
  3

 62
     0
 51
90.0
 52
90.0
 71
     2
 49
0.5
 62
   256
  6
ByLayer
 49
-0.5
 62
   256
  6
ByLayer
  0
ENDSEC
  0
EOF
