  0
SECTION
  2
HEADER
  9
$ACADVER
  1
AC1014
  9
$ACADMAINTVER
 70
     0
  9
$DWGCODEPAGE
  3
ANSI_932
  9
$INSBASE
 10
0.0
 20
0.0
 30
0.0
  9
$EXTMIN
 10
35.0
 20
29.0
 30
0.0
  9
$EXTMAX
 10
1807.92
 20
1448.5
 30
0.0
  9
$LIMMIN
 10
0.0
 20
0.0
  9
$LIMMAX
 10
420.0
 20
297.0
  9
$ORTHOMODE
 70
     0
  9
$REGENMODE
 70
     1
  9
$FILLMODE
 70
     1
  9
$QTEXTMODE
 70
     0
  9
$MIRRTEXT
 70
     1
  9
$DRAGMODE
 70
     2
  9
$LTSCALE
 40
1.0
  9
$OSMODE
 70
     0
  9
$ATTMODE
 70
     1
  9
$TEXTSIZE
 40
0.2
  9
$TRACEWID
 40
0.05
  9
$TEXTSTYLE
  7
STANDARD
  9
$CLAYER
  8
LAY-1
  9
$CELTYPE
  6
CONTINUOUS
  9
$CECOLOR
 62
   256
  9
$CELTSCALE
 40
1.0
  9
$DELOBJ
 70
     1
  9
$DISPSILH
 70
     0
  9
$DIMSCALE
 40
1.0
  9
$DIMASZ
 40
0.18
  9
$DIMEXO
 40
0.0625
  9
$DIMDLI
 40
0.38
  9
$DIMRND
 40
0.0
  9
$DIMDLE
 40
0.0
  9
$DIMEXE
 40
0.18
  9
$DIMTP
 40
0.0
  9
$DIMTM
 40
0.0
  9
$DIMTXT
 40
0.18
  9
$DIMCEN
 40
0.09
  9
$DIMTSZ
 40
0.0
  9
$DIMTOL
 70
     0
  9
$DIMLIM
 70
     0
  9
$DIMTIH
 70
     1
  9
$DIMTOH
 70
     1
  9
$DIMSE1
 70
     0
  9
$DIMSE2
 70
     0
  9
$DIMTAD
 70
     0
  9
$DIMZIN
 70
     0
  9
$DIMBLK
  1

  9
$DIMASO
 70
     1
  9
$DIMSHO
 70
     1
  9
$DIMPOST
  1

  9
$DIMAPOST
  1

  9
$DIMALT
 70
     0
  9
$DIMALTD
 70
     2
  9
$DIMALTF
 40
25.4
  9
$DIMLFAC
 40
1.0
  9
$DIMTOFL
 70
     0
  9
$DIMTVP
 40
0.0
  9
$DIMTIX
 70
     0
  9
$DIMSOXD
 70
     0
  9
$DIMSAH
 70
     0
  9
$DIMBLK1
  1

  9
$DIMBLK2
  1

  9
$DIMSTYLE
  2
STANDARD
  9
$DIMCLRD
 70
     0
  9
$DIMCLRE
 70
     0
  9
$DIMCLRT
 70
     0
  9
$DIMTFAC
 40
1.0
  9
$DIMGAP
 40
0.09
  9
$DIMJUST
 70
     0
  9
$DIMSD1
 70
     0
  9
$DIMSD2
 70
     0
  9
$DIMTOLJ
 70
     1
  9
$DIMTZIN
 70
     0
  9
$DIMALTZ
 70
     0
  9
$DIMALTTZ
 70
     0
  9
$DIMFIT
 70
     3
  9
$DIMUPT
 70
     0
  9
$DIMUNIT
 70
     2
  9
$DIMDEC
 70
     4
  9
$DIMTDEC
 70
     4
  9
$DIMALTU
 70
     2
  9
$DIMALTTD
 70
     2
  9
$DIMTXSTY
  7
STANDARD
  9
$DIMAUNIT
 70
     0
  9
$LUNITS
 70
     2
  9
$LUPREC
 70
     4
  9
$SKETCHINC
 40
0.1
  9
$FILLETRAD
 40
0.0
  9
$AUNITS
 70
     0
  9
$AUPREC
 70
     0
  9
$MENU
  1
acad
  9
$ELEVATION
 40
0.0
  9
$PELEVATION
 40
0.0
  9
$THICKNESS
 40
0.0
  9
$LIMCHECK
 70
     0
  9
$BLIPMODE
 70
     1
  9
$CHAMFERA
 40
0.0
  9
$CHAMFERB
 40
0.0
  9
$CHAMFERC
 40
0.0
  9
$CHAMFERD
 40
0.0
  9
$SKPOLY
 70
     0
  9
$TDCREATE
 40
2456803.144865185
  9
$TDUPDATE
 40
2456803.144865185
  9
$TDINDWG
 40
0.0000000000
  9
$TDUSRTIMER
 40
0.0000000000
  9
$USRTIMER
 70
     1
  9
$ANGBASE
 50
0.0
  9
$ANGDIR
 70
     0
  9
$PDMODE
 70
     0
  9
$PDSIZE
 40
0.0
  9
$PLINEWID
 40
0.0
  9
$COORDS
 70
     1
  9
$SPLFRAME
 70
     0
  9
$SPLINETYPE
 70
     6
  9
$SPLINESEGS
 70
     8
  9
$ATTDIA
 70
     0
  9
$ATTREQ
 70
     1
  9
$HANDLING
 70
     1
  9
$HANDSEED
  5
771
  9
$SURFTAB1
 70
     6
  9
$SURFTAB2
 70
     6
  9
$SURFTYPE
 70
     6
  9
$SURFU
 70
     6
  9
$SURFV
 70
     6
  9
$UCSNAME
  2

  9
$UCSORG
 10
0.0
 20
0.0
 30
0.0
  9
$UCSXDIR
 10
1.0
 20
0.0
 30
0.0
  9
$UCSYDIR
 10
0.0
 20
1.0
 30
0.0
  9
$PUCSNAME
  2

  9
$PUCSORG
 10
0.0
 20
0.0
 30
0.0
  9
$PUCSXDIR
 10
1.0
 20
0.0
 30
0.0
  9
$PUCSYDIR
 10
0.0
 20
1.0
 30
0.0
  9
$USERI1
 70
     0
  9
$USERI2
 70
     0
  9
$USERI3
 70
     0
  9
$USERI4
 70
     0
  9
$USERI5
 70
     0
  9
$USERR1
 40
0.0
  9
$USERR2
 40
0.0
  9
$USERR3
 40
0.0
  9
$USERR4
 40
0.0
  9
$USERR5
 40
0.0
  9
$WORLDVIEW
 70
     1
  9
$SHADEDGE
 70
     3
  9
$SHADEDIF
 70
    70
  9
$TILEMODE
 70
     1
  9
$MAXACTVP
 70
    16
  9
$PINSBASE
 10
0.0
 20
0.0
 30
0.0
  9
$PLIMCHECK
 70
     0
  9
$PEXTMIN
 10
1.000000E+20
 20
1.000000E+20
 30
1.000000E+20
  9
$PEXTMAX
 10
-1.000000E+20
 20
-1.000000E+20
 30
-1.000000E+20
  9
$PLIMMIN
 10
0.0
 20
0.0
  9
$PLIMMAX
 10
12.0
 20
9.0
  9
$UNITMODE
 70
     0
  9
$VISRETAIN
 70
     0
  9
$PLINEGEN
 70
     1
  9
$PSLTSCALE
 70
     0
  9
$TREEDEPTH
 70
  3020
  9
$PICKSTYLE
 70
     1
  9
$CMLSTYLE
  2
Standard
  9
$CMLJUST
 70
     0
  9
$CMLSCALE
 40
1.0
  9
$PROXYGRAPHICS
 70
     0
  9
$MEASUREMENT
 70
     0
  0
ENDSEC
  0
SECTION
  2
CLASSES
  0
CLASS
  1
LWPOLYLINE
  2
AcDbPolyline
  3
"AutoCAD"
 90
        0
280
     0
281
     1
  0
CLASS
  1
IMAGE
  2
AcDbRasterImage
  3
ISM
 90
      127
280
     0
281
     1
  0
CLASS
  1
OLE2FRAME
  2
AcDbOle2Frame
  3
""
 90
        0
280
     0
281
     1
  0
CLASS
  1
HATCH
  2
AcDbHatch
  3
"ACAD_SEDONA"
 90
        0
280
     0
281
     1
  0
CLASS
  1
DICTIONARYVAR
  2
AcDbDictionaryVar
  3
"AutoCAD"
 90
        0
280
     0
281
     0
  0
CLASS
  1
RASTERVARIABLES
  2
AcDbRasterVariables
  3
ISM
 90
        0
280
     0
281
     0
  0
CLASS
  1
IMAGEDEF
  2
AcDbRasterImageDef
  3
ISM
 90
        0
280
     0
281
     0
  0
CLASS
  1
IMAGEDEF_REACTOR
  2
AcDbRasterImageDefReactor
  3
ISM
 90
        1
280
     0
281
     0
  0
CLASS
  1
IDBUFFER
  2
AcDbIdBuffer
  3
"Acad"
 90
        0
280
     0
281
     0
  0
CLASS
  1
SPATIAL_FILTER
  2
AcDbSpatialFilter
  3
"Acad"
 90
        0
280
     0
281
     0
  0
CLASS
  1
XRECORD
  2
AcDbXrecord
  3
"<Built In>"
 90
        0
280
     0
281
     0
  0
CLASS
  1
SORTENTSTABLE
  2
AcDbSortentsTable
  3
"AutoCAD"
 90
        0
280
     0
281
     0
  0
CLASS
  1
LAYER_INDEX
  2
AcDbLayerIndex
  3
"Acad"
 90
        0
280
     0
281
     0
  0
CLASS
  1
SPATIAL_INDEX
  2
AcDbSpatialIndex
  3
"Acad"
 90
        0
280
     0
281
     0
  0
CLASS
  1
OBJECT_PTR
  2
CAseDLPNTableRecord
  3
"ASE-LPNTableRecord"
 90
        1
280
     0
281
     0
  0
CLASS
  1
LAYOUT
  2
AcDbLayout
  3
"AutoCAD 2000"
 90
        0
280
     0
281
     0
  0
CLASS
  1
PLOTSETTINGS
  2
AcDbPlotSettings
  3
"AutoCAD 2000"
 90
        0
280
     0
281
     0
  0
CLASS
  1
ACDBDICTIONARYWDFLT
  2
AcDbDictionaryWithDefault
  3
"AutoCAD 2000"
 90
        0
280
     0
281
     0
  0
CLASS
  1
ACDBPLACEHOLDER
  2
AcDbPlaceHolder
  3
"AutoCAD 2000"
 90
        0
280
     0
281
     0
  0
CLASS
  1
VBA_PROJECT
  2
AcDbVbaProject
  3
"acadvba"
 90
        0
280
     0
281
     0
  0
CLASS
  1
WIPEOUT
  2
AcDbWipeout
  3
WipeOut|AutoCAD Express Tool|expresstools@autodesk.com
 90
      127
280
     0
281
     1
  0
CLASS
  1
WIPEOUTVARIABLES
  2
AcDbWipeoutVariables
  3
WipeOut|AutoCAD Express Tool|expresstools@autodesk.com
 90
        0
280
     0
281
     0
  0
CLASS
  1
RTEXT
  2
RText
  3
RText|AutoCAD Express Tool|expresstools@autodesk.com
 90
        0
280
     0
281
     1
  0
CLASS
  1
ARCALIGNEDTEXT
  2
AcDbArcAlignedText
  3
ATEXT|AutoCAD Express Tool|expresstools@autodesk.com
 90
        0
280
     0
281
     1
  0
ENDSEC
  0
SECTION
  2
TABLES
  0
TABLE
  2
VPORT
  5
7
100
AcDbSymbolTable
 70
     1
  0
VPORT
  5
15
100
AcDbSymbolTableRecord
100
AcDbViewportTableRecord
  2
*ACTIVE
 70
     0
 10
0.0
 20
0.0
 11
1.0
 21
1.0
 12
921.46
 22
738.75
 13
0.0
 23
0.0
 14
1.0
 24
1.0
 15
0.0
 25
0.0
 16
0.0
 26
0.0
 36
1.0
 17
0.0
 27
0.0
 37
0.0
 40
1419.5
 41
1.722533
 42
50.0
 43
0.0
 44
0.0
 50
0.0
 51
0.0
 71
     0
 72
  1000
 73
     1
 74
     1
 75
     0
 76
     0
 77
     0
 78
     0
  0
ENDTAB
  0
TABLE
  2
LTYPE
  5
4
100
AcDbSymbolTable
 70
    10
  0
LTYPE
  5
11
100
AcDbSymbolTableRecord
100
AcDbLinetypeTableRecord
  2
BYBLOCK
 70
    64
  3

 72
    65
 73
     0
 40
0.0
  0
LTYPE
  5
12
100
AcDbSymbolTableRecord
100
AcDbLinetypeTableRecord
  2
BYLAYER
 70
    64
  3

 72
    65
 73
     0
 40
0.0
  0
LTYPE
  5
13
100
AcDbSymbolTableRecord
100
AcDbLinetypeTableRecord
  2
CONTINUOUS
 70
    64
  3
実線
 72
    65
 73
     0
 40
0.0
  0
LTYPE
  5
1D
100
AcDbSymbolTableRecord
100
AcDbLinetypeTableRecord
  2
EXLTYPE1
 70
    64
  3
破線
 72
    65
 73
     2
 40
4.0
 49
3.0
 74
     0
 49
-1.0
 74
     0
  0
LTYPE
  5
1E
100
AcDbSymbolTableRecord
100
AcDbLinetypeTableRecord
  2
EXLTYPE2
 70
    64
  3
点線
 72
    65
 73
     2
 40
2.0
 49
1.0
 74
     0
 49
-1.0
 74
     0
  0
LTYPE
  5
1F
100
AcDbSymbolTableRecord
100
AcDbLinetypeTableRecord
  2
EXLTYPE3
 70
    64
  3
一点鎖線
 72
    65
 73
     4
 40
33.0
 49
30.0
 74
     0
 49
-1.0
 74
     0
 49
1.0
 74
     0
 49
-1.0
 74
     0
  0
LTYPE
  5
20
100
AcDbSymbolTableRecord
100
AcDbLinetypeTableRecord
  2
EXLTYPE4
 70
    64
  3
二点鎖線
 72
    65
 73
     6
 40
20.0
 49
10.0
 74
     0
 49
-2.0
 74
     0
 49
2.0
 74
     0
 49
-2.0
 74
     0
 49
2.0
 74
     0
 49
-2.0
 74
     0
  0
LTYPE
  5
21
100
AcDbSymbolTableRecord
100
AcDbLinetypeTableRecord
  2
EXLTYPE5
 70
    64
  3
三点鎖線
 72
    65
 73
     8
 40
37.0
 49
30.0
 74
     0
 49
-1.0
 74
     0
 49
1.0
 74
     0
 49
-1.0
 74
     0
 49
1.0
 74
     0
 49
-1.0
 74
     0
 49
1.0
 74
     0
 49
-1.0
 74
     0
  0
LTYPE
  5
22
100
AcDbSymbolTableRecord
100
AcDbLinetypeTableRecord
  2
EXLTYPE6
 70
    64
  3
四点鎖線
 72
    65
 73
    10
 40
39.0
 49
30.0
 74
     0
 49
-1.0
 74
     0
 49
1.0
 74
     0
 49
-1.0
 74
     0
 49
1.0
 74
     0
 49
-1.0
 74
     0
 49
1.0
 74
     0
 49
-1.0
 74
     0
 49
1.0
 74
     0
 49
-1.0
 74
     0
  0
LTYPE
  5
23
100
AcDbSymbolTableRecord
100
AcDbLinetypeTableRecord
  2
EXLTYPE7
 70
    64
  3
破線2
 72
    65
 73
     2
 40
0.4
 49
0.2
 74
     0
 49
-0.2
 74
     0
  0
ENDTAB
  0
TABLE
  2
LAYER
  5
2
100
AcDbSymbolTable
 70
     4
  0
LAYER
  5
14
100
AcDbSymbolTableRecord
100
AcDbLayerTableRecord
  2
0
 70
     0
 62
     7
  6
CONTINUOUS
  0
LAYER
  5
26
100
AcDbSymbolTableRecord
100
AcDbLayerTableRecord
  2
LAY-1
 70
    64
 62
     7
  6
CONTINUOUS
  0
LAYER
  5
27
100
AcDbSymbolTableRecord
100
AcDbLayerTableRecord
  2
LAY-3
 70
    64
 62
     1
  6
CONTINUOUS
  0
LAYER
  5
28
100
AcDbSymbolTableRecord
100
AcDbLayerTableRecord
  2
LAY-5
 70
    64
 62
     7
  6
CONTINUOUS
  0
ENDTAB
  0
TABLE
  2
STYLE
  5
3
100
AcDbSymbolTable
 70
     3
  0
STYLE
  5
17
100
AcDbSymbolTableRecord
100
AcDbTextStyleTableRecord
  2
STANDARD
 70
     0
 40
0.0
 41
1.0
 50
0.0
 71
     0
 42
0.0
  3
monotxt
  4
extfont
  0
STYLE
  5
24
100
AcDbSymbolTableRecord
100
AcDbTextStyleTableRecord
  2
EXCADSTD
 70
    64
 40
0.0
 41
1.0
 50
0.0
 71
     0
 42
0.2
  3
monotxt
  4
extfont
  0
STYLE
  5
25
100
AcDbSymbolTableRecord
100
AcDbTextStyleTableRecord
  2
EXCADVERT
 70
    68
 40
0.0
 41
1.0
 50
0.0
 71
     0
 42
0.286885
  3
monotxt
  4
extfont
  0
ENDTAB
  0
TABLE
  2
VIEW
  5
5
100
AcDbSymbolTable
 70
     0
  0
ENDTAB
  0
TABLE
  2
UCS
  5
6
100
AcDbSymbolTable
 70
     0
  0
ENDTAB
  0
TABLE
  2
APPID
  5
8
100
AcDbSymbolTable
 70
     1
  0
APPID
  5
16
100
AcDbSymbolTableRecord
100
AcDbRegAppTableRecord
  2
ACAD
 70
     0
  0
ENDTAB
  0
TABLE
  2
DIMSTYLE
  5
9
100
AcDbSymbolTable
 70
     1
  0
DIMSTYLE
105
18
100
AcDbSymbolTableRecord
100
AcDbDimStyleTableRecord
  2
STANDARD
 70
     0
  3

  4

  5

  6

  7

 40
1.0
 41
0.18
 42
0.0625
 43
0.38
 44
0.18
 45
0.0
 46
0.0
 47
0.0
 48
0.0
 71
     0
 72
     0
 73
     1
 74
     1
 75
     0
 76
     0
 77
     0
 78
     0
140
0.18
141
0.09
142
0.0
143
25.4
144
1.0
145
0.0
146
1.0
147
0.09
170
     0
171
     2
172
     1
173
     0
174
     0
175
     0
176
     0
177
     0
178
     0
270
     2
271
     4
272
     4
273
     2
274
     2
275
     0
280
     0
281
     0
282
     0
283
     1
284
     0
285
     0
286
     0
287
     3
288
     0
340
17
  0
ENDTAB
  0
TABLE
  2
BLOCK_RECORD
  5
1
100
AcDbSymbolTable
 70
    15
  0
BLOCK_RECORD
  5
A
100
AcDbSymbolTableRecord
100
AcDbBlockTableRecord
  2
*MODEL_SPACE
  0
BLOCK_RECORD
  5
B
100
AcDbSymbolTableRecord
100
AcDbBlockTableRecord
  2
*PAPER_SPACE
  0
BLOCK_RECORD
  5
29
100
AcDbSymbolTableRecord
100
AcDbBlockTableRecord
  2
_EX_NORM
  0
BLOCK_RECORD
  5
2A
100
AcDbSymbolTableRecord
100
AcDbBlockTableRecord
  2
_EX_BNORM
  0
BLOCK_RECORD
  5
2B
100
AcDbSymbolTableRecord
100
AcDbBlockTableRecord
  2
_EX_BCIR
  0
BLOCK_RECORD
  5
2C
100
AcDbSymbolTableRecord
100
AcDbBlockTableRecord
  2
_EX_RCIVIL
  0
BLOCK_RECORD
  5
2D
100
AcDbSymbolTableRecord
100
AcDbBlockTableRecord
  2
_EX_SLANT
  0
BLOCK_RECORD
  5
2E
100
AcDbSymbolTableRecord
100
AcDbBlockTableRecord
  2
_EX_NONE
  0
BLOCK_RECORD
  5
2F
100
AcDbSymbolTableRecord
100
AcDbBlockTableRecord
  2
_EX_CIVIL
  0
BLOCK_RECORD
  5
30
100
AcDbSymbolTableRecord
100
AcDbBlockTableRecord
  2
_EX_WCIR
  0
BLOCK_RECORD
  5
31
100
AcDbSymbolTableRecord
100
AcDbBlockTableRecord
  2
_EX_WCIR2
  0
BLOCK_RECORD
  5
32
100
AcDbSymbolTableRecord
100
AcDbBlockTableRecord
  2
_EX_WNORM
  0
BLOCK_RECORD
  5
33
100
AcDbSymbolTableRecord
100
AcDbBlockTableRecord
  2
_EX_NNORM
  0
BLOCK_RECORD
  5
34
100
AcDbSymbolTableRecord
100
AcDbBlockTableRecord
  2
_EX_BBOX
  0
BLOCK_RECORD
  5
35
100
AcDbSymbolTableRecord
100
AcDbBlockTableRecord
  2
_EX_WBOX
  0
BLOCK_RECORD
  5
36
100
AcDbSymbolTableRecord
100
AcDbBlockTableRecord
  2
_EX_INTEGRAL
  0
BLOCK_RECORD
  5
37
100
AcDbSymbolTableRecord
100
AcDbBlockTableRecord
  2
SYM-1
  0
ENDTAB
  0
ENDSEC
  0
SECTION
  2
BLOCKS
  0
BLOCK
  5
D
100
AcDbEntity
  8
0
100
AcDbBlockBegin
  2
*MODEL_SPACE
 70
     0
 10
0.0
 20
0.0
 30
0.0
  3
*MODEL_SPACE
  1

  0
ENDBLK
  5
E
100
AcDbEntity
  8
0
100
AcDbBlockEnd
  0
BLOCK
  5
F
100
AcDbEntity
 67
     1
  8
0
100
AcDbBlockBegin
  2
*PAPER_SPACE
 70
     0
 10
0.0
 20
0.0
 30
0.0
  3
*PAPER_SPACE
  1

  0
ENDBLK
  5
10
100
AcDbEntity
 67
     1
  8
0
100
AcDbBlockEnd
  0
BLOCK
  5
38
100
AcDbEntity
  8
0
100
AcDbBlockBegin
  2
_EX_NORM
 70
     0
 10
0.0
 20
0.0
 30
0.0
  3
_EX_NORM
  1

  0
LINE
  5
39
100
AcDbEntity
  8
0
  6
CONTINUOUS
 62
     0
100
AcDbLine
 10
0.0
 20
0.0
 30
0.0
 11
-1.0
 21
0.0
 31
0.0
  0
LINE
  5
3A
100
AcDbEntity
  8
0
  6
CONTINUOUS
 62
     0
100
AcDbLine
 10
0.0
 20
0.0
 30
0.0
 11
-1.0
 21
0.166667
 31
0.0
  0
LINE
  5
3B
100
AcDbEntity
  8
0
  6
CONTINUOUS
 62
     0
100
AcDbLine
 10
0.0
 20
0.0
 30
0.0
 11
-1.0
 21
-0.166667
 31
0.0
  0
ENDBLK
  5
3C
100
AcDbEntity
  8
0
100
AcDbBlockEnd
  0
BLOCK
  5
3D
100
AcDbEntity
  8
0
100
AcDbBlockBegin
  2
_EX_BNORM
 70
     0
 10
0.0
 20
0.0
 30
0.0
  3
_EX_BNORM
  1

  0
LINE
  5
3E
100
AcDbEntity
  8
0
  6
CONTINUOUS
 62
     0
100
AcDbLine
 10
0.0
 20
0.0
 30
0.0
 11
-1.0
 21
0.0
 31
0.0
  0
LINE
  5
3F
100
AcDbEntity
  8
0
  6
CONTINUOUS
 62
     0
100
AcDbLine
 10
0.0
 20
0.0
 30
0.0
 11
-1.0
 21
0.166667
 31
0.0
  0
LINE
  5
40
100
AcDbEntity
  8
0
  6
CONTINUOUS
 62
     0
100
AcDbLine
 10
0.0
 20
0.0
 30
0.0
 11
-1.0
 21
-0.166667
 31
0.0
  0
LINE
  5
41
100
AcDbEntity
  8
0
  6
CONTINUOUS
 62
     0
100
AcDbLine
 10
0.0
 20
0.0
 30
0.0
 11
-1.0
 21
0.083333
 31
0.0
  0
LINE
  5
42
100
AcDbEntity
  8
0
  6
CONTINUOUS
 62
     0
100
AcDbLine
 10
0.0
 20
0.0
 30
0.0
 11
-1.0
 21
-0.083333
 31
0.0
  0
LINE
  5
43
100
AcDbEntity
  8
0
  6
CONTINUOUS
 62
     0
100
AcDbLine
 10
-1.0
 20
0.166667
 30
0.0
 11
-1.0
 21
-0.166667
 31
0.0
  0
ENDBLK
  5
44
100
AcDbEntity
  8
0
100
AcDbBlockEnd
  0
BLOCK
  5
45
100
AcDbEntity
  8
0
100
AcDbBlockBegin
  2
_EX_BCIR
 70
     0
 10
0.0
 20
0.0
 30
0.0
  3
_EX_BCIR
  1

  0
LINE
  5
46
100
AcDbEntity
  8
0
  6
CONTINUOUS
 62
     0
100
AcDbLine
 10
0.0
 20
0.0
 30
0.0
 11
-1.0
 21
0.0
 31
0.0
  0
CIRCLE
  5
47
100
AcDbEntity
  8
0
  6
CONTINUOUS
 62
     0
100
AcDbCircle
 10
0.0
 20
0.0
 30
0.0
 40
0.5
  0
CIRCLE
  5
48
100
AcDbEntity
  8
0
  6
CONTINUOUS
 62
     0
100
AcDbCircle
 10
0.0
 20
0.0
 30
0.0
 40
0.25
  0
ENDBLK
  5
49
100
AcDbEntity
  8
0
100
AcDbBlockEnd
  0
BLOCK
  5
4A
100
AcDbEntity
  8
0
100
AcDbBlockBegin
  2
_EX_RCIVIL
 70
     0
 10
0.0
 20
0.0
 30
0.0
  3
_EX_RCIVIL
  1

  0
LINE
  5
4B
100
AcDbEntity
  8
0
  6
CONTINUOUS
 62
     0
100
AcDbLine
 10
0.0
 20
0.0
 30
0.0
 11
-1.0
 21
0.0
 31
0.0
  0
LINE
  5
4C
100
AcDbEntity
  8
0
  6
CONTINUOUS
 62
     0
100
AcDbLine
 10
-1.0
 20
-0.25
 30
0.0
 11
0.0
 21
-0.25
 31
0.0
  0
LINE
  5
4D
100
AcDbEntity
  8
0
  6
CONTINUOUS
 62
     0
100
AcDbLine
 10
-1.0
 20
-0.125
 30
0.0
 11
0.0
 21
-0.125
 31
0.0
  0
ENDBLK
  5
4E
100
AcDbEntity
  8
0
100
AcDbBlockEnd
  0
BLOCK
  5
4F
100
AcDbEntity
  8
0
100
AcDbBlockBegin
  2
_EX_SLANT
 70
     0
 10
0.0
 20
0.0
 30
0.0
  3
_EX_SLANT
  1

  0
LINE
  5
50
100
AcDbEntity
  8
0
  6
CONTINUOUS
 62
     0
100
AcDbLine
 10
0.0
 20
0.0
 30
0.0
 11
-1.0
 21
0.0
 31
0.0
  0
LINE
  5
51
100
AcDbEntity
  8
0
  6
CONTINUOUS
 62
     0
100
AcDbLine
 10
0.707107
 20
0.707107
 30
0.0
 11
-0.707107
 21
-0.707107
 31
0.0
  0
ENDBLK
  5
52
100
AcDbEntity
  8
0
100
AcDbBlockEnd
  0
BLOCK
  5
53
100
AcDbEntity
  8
0
100
AcDbBlockBegin
  2
_EX_NONE
 70
     0
 10
0.0
 20
0.0
 30
0.0
  3
_EX_NONE
  1

  0
LINE
  5
54
100
AcDbEntity
  8
0
  6
CONTINUOUS
 62
     0
100
AcDbLine
 10
0.0
 20
0.0
 30
0.0
 11
-1.0
 21
0.0
 31
0.0
  0
ENDBLK
  5
55
100
AcDbEntity
  8
0
100
AcDbBlockEnd
  0
BLOCK
  5
56
100
AcDbEntity
  8
0
100
AcDbBlockBegin
  2
_EX_CIVIL
 70
     0
 10
0.0
 20
0.0
 30
0.0
  3
_EX_CIVIL
  1

  0
LINE
  5
57
100
AcDbEntity
  8
0
  6
CONTINUOUS
 62
     0
100
AcDbLine
 10
0.0
 20
0.0
 30
0.0
 11
-1.0
 21
0.0
 31
0.0
  0
LINE
  5
58
100
AcDbEntity
  8
0
  6
CONTINUOUS
 62
     0
100
AcDbLine
 10
-1.0
 20
0.25
 30
0.0
 11
0.0
 21
0.25
 31
0.0
  0
LINE
  5
59
100
AcDbEntity
  8
0
  6
CONTINUOUS
 62
     0
100
AcDbLine
 10
-1.0
 20
0.125
 30
0.0
 11
0.0
 21
0.125
 31
0.0
  0
ENDBLK
  5
5A
100
AcDbEntity
  8
0
100
AcDbBlockEnd
  0
BLOCK
  5
5B
100
AcDbEntity
  8
0
100
AcDbBlockBegin
  2
_EX_WCIR
 70
     0
 10
0.0
 20
0.0
 30
0.0
  3
_EX_WCIR
  1

  0
LINE
  5
5C
100
AcDbEntity
  8
0
  6
CONTINUOUS
 62
     0
100
AcDbLine
 10
0.0
 20
0.0
 30
0.0
 11
-1.0
 21
0.0
 31
0.0
  0
CIRCLE
  5
5D
100
AcDbEntity
  8
0
  6
CONTINUOUS
 62
     0
100
AcDbCircle
 10
0.0
 20
0.0
 30
0.0
 40
0.5
  0
ENDBLK
  5
5E
100
AcDbEntity
  8
0
100
AcDbBlockEnd
  0
BLOCK
  5
5F
100
AcDbEntity
  8
0
100
AcDbBlockBegin
  2
_EX_WCIR2
 70
     0
 10
0.0
 20
0.0
 30
0.0
  3
_EX_WCIR2
  1

  0
LINE
  5
60
100
AcDbEntity
  8
0
  6
CONTINUOUS
 62
     0
100
AcDbLine
 10
-0.5
 20
0.0
 30
0.0
 11
-1.0
 21
0.0
 31
0.0
  0
CIRCLE
  5
61
100
AcDbEntity
  8
0
  6
CONTINUOUS
 62
     0
100
AcDbCircle
 10
0.0
 20
0.0
 30
0.0
 40
0.5
  0
ENDBLK
  5
62
100
AcDbEntity
  8
0
100
AcDbBlockEnd
  0
BLOCK
  5
63
100
AcDbEntity
  8
0
100
AcDbBlockBegin
  2
_EX_WNORM
 70
     0
 10
0.0
 20
0.0
 30
0.0
  3
_EX_WNORM
  1

  0
LINE
  5
64
100
AcDbEntity
  8
0
  6
CONTINUOUS
 62
     0
100
AcDbLine
 10
-1.0
 20
0.0
 30
0.0
 11
-1.0
 21
0.0
 31
0.0
  0
LINE
  5
65
100
AcDbEntity
  8
0
  6
CONTINUOUS
 62
     0
100
AcDbLine
 10
0.0
 20
0.0
 30
0.0
 11
-1.0
 21
0.166667
 31
0.0
  0
LINE
  5
66
100
AcDbEntity
  8
0
  6
CONTINUOUS
 62
     0
100
AcDbLine
 10
0.0
 20
0.0
 30
0.0
 11
-1.0
 21
-0.166667
 31
0.0
  0
LINE
  5
67
100
AcDbEntity
  8
0
  6
CONTINUOUS
 62
     0
100
AcDbLine
 10
-1.0
 20
0.166667
 30
0.0
 11
-1.0
 21
-0.166667
 31
0.0
  0
ENDBLK
  5
68
100
AcDbEntity
  8
0
100
AcDbBlockEnd
  0
BLOCK
  5
69
100
AcDbEntity
  8
0
100
AcDbBlockBegin
  2
_EX_NNORM
 70
     0
 10
0.0
 20
0.0
 30
0.0
  3
_EX_NNORM
  1

  0
LINE
  5
6A
100
AcDbEntity
  8
0
  6
CONTINUOUS
 62
     0
100
AcDbLine
 10
0.0
 20
0.0
 30
0.0
 11
-1.0
 21
0.0
 31
0.0
  0
LINE
  5
6B
100
AcDbEntity
  8
0
  6
CONTINUOUS
 62
     0
100
AcDbLine
 10
0.0
 20
0.0
 30
0.0
 11
-1.0
 21
0.166667
 31
0.0
  0
LINE
  5
6C
100
AcDbEntity
  8
0
  6
CONTINUOUS
 62
     0
100
AcDbLine
 10
0.0
 20
0.0
 30
0.0
 11
-1.0
 21
-0.166667
 31
0.0
  0
LINE
  5
6D
100
AcDbEntity
  8
0
  6
CONTINUOUS
 62
     0
100
AcDbLine
 10
-1.0
 20
0.166667
 30
0.0
 11
-1.0
 21
-0.166667
 31
0.0
  0
ENDBLK
  5
6E
100
AcDbEntity
  8
0
100
AcDbBlockEnd
  0
BLOCK
  5
6F
100
AcDbEntity
  8
0
100
AcDbBlockBegin
  2
_EX_BBOX
 70
     0
 10
0.0
 20
0.0
 30
0.0
  3
_EX_BBOX
  1

  0
LINE
  5
70
100
AcDbEntity
  8
0
  6
CONTINUOUS
 62
     0
100
AcDbLine
 10
0.0
 20
0.0
 30
0.0
 11
-1.0
 21
0.0
 31
0.0
  0
LINE
  5
71
100
AcDbEntity
  8
0
  6
CONTINUOUS
 62
     0
100
AcDbLine
 10
-0.5
 20
0.5
 30
0.0
 11
0.5
 21
0.5
 31
0.0
  0
LINE
  5
72
100
AcDbEntity
  8
0
  6
CONTINUOUS
 62
     0
100
AcDbLine
 10
0.5
 20
0.5
 30
0.0
 11
0.5
 21
-0.5
 31
0.0
  0
LINE
  5
73
100
AcDbEntity
  8
0
  6
CONTINUOUS
 62
     0
100
AcDbLine
 10
0.5
 20
-0.5
 30
0.0
 11
-0.5
 21
-0.5
 31
0.0
  0
LINE
  5
74
100
AcDbEntity
  8
0
  6
CONTINUOUS
 62
     0
100
AcDbLine
 10
-0.5
 20
-0.5
 30
0.0
 11
-0.5
 21
0.5
 31
0.0
  0
LINE
  5
75
100
AcDbEntity
  8
0
  6
CONTINUOUS
 62
     0
100
AcDbLine
 10
-0.25
 20
0.25
 30
0.0
 11
0.25
 21
0.25
 31
0.0
  0
LINE
  5
76
100
AcDbEntity
  8
0
  6
CONTINUOUS
 62
     0
100
AcDbLine
 10
0.25
 20
0.25
 30
0.0
 11
0.25
 21
-0.25
 31
0.0
  0
LINE
  5
77
100
AcDbEntity
  8
0
  6
CONTINUOUS
 62
     0
100
AcDbLine
 10
0.25
 20
-0.25
 30
0.0
 11
-0.25
 21
-0.25
 31
0.0
  0
LINE
  5
78
100
AcDbEntity
  8
0
  6
CONTINUOUS
 62
     0
100
AcDbLine
 10
-0.25
 20
-0.25
 30
0.0
 11
-0.25
 21
0.25
 31
0.0
  0
ENDBLK
  5
79
100
AcDbEntity
  8
0
100
AcDbBlockEnd
  0
BLOCK
  5
7A
100
AcDbEntity
  8
0
100
AcDbBlockBegin
  2
_EX_WBOX
 70
     0
 10
0.0
 20
0.0
 30
0.0
  3
_EX_WBOX
  1

  0
LINE
  5
7B
100
AcDbEntity
  8
0
  6
CONTINUOUS
 62
     0
100
AcDbLine
 10
-0.5
 20
0.0
 30
0.0
 11
-1.0
 21
0.0
 31
0.0
  0
LINE
  5
7C
100
AcDbEntity
  8
0
  6
CONTINUOUS
 62
     0
100
AcDbLine
 10
-0.5
 20
0.5
 30
0.0
 11
0.5
 21
0.5
 31
0.0
  0
LINE
  5
7D
100
AcDbEntity
  8
0
  6
CONTINUOUS
 62
     0
100
AcDbLine
 10
0.5
 20
0.5
 30
0.0
 11
0.5
 21
-0.5
 31
0.0
  0
LINE
  5
7E
100
AcDbEntity
  8
0
  6
CONTINUOUS
 62
     0
100
AcDbLine
 10
0.5
 20
-0.5
 30
0.0
 11
-0.5
 21
-0.5
 31
0.0
  0
LINE
  5
7F
100
AcDbEntity
  8
0
  6
CONTINUOUS
 62
     0
100
AcDbLine
 10
-0.5
 20
-0.5
 30
0.0
 11
-0.5
 21
0.5
 31
0.0
  0
ENDBLK
  5
80
100
AcDbEntity
  8
0
100
AcDbBlockEnd
  0
BLOCK
  5
81
100
AcDbEntity
  8
0
100
AcDbBlockBegin
  2
_EX_INTEGRAL
 70
     0
 10
0.0
 20
0.0
 30
0.0
  3
_EX_INTEGRAL
  1

  0
LINE
  5
82
100
AcDbEntity
  8
0
  6
CONTINUOUS
 62
     0
100
AcDbLine
 10
0.0
 20
0.0
 30
0.0
 11
-1.0
 21
0.0
 31
0.0
  0
ARC
  5
83
100
AcDbEntity
  8
0
  6
CONTINUOUS
 62
     0
100
AcDbCircle
 10
0.542115
 20
0.164992
 30
0.0
 40
0.56667
100
AcDbArc
 50
73.07249
 51
196.927513
  0
ARC
  5
84
100
AcDbEntity
  8
0
  6
CONTINUOUS
 62
     0
100
AcDbCircle
 10
-0.542115
 20
-0.164992
 30
0.0
 40
0.56667
100
AcDbArc
 50
253.072487
 51
16.927513
  0
ENDBLK
  5
85
100
AcDbEntity
  8
0
100
AcDbBlockEnd
  0
BLOCK
  5
86
100
AcDbEntity
  8
0
100
AcDbBlockBegin
  2
SYM-1
 70
     0
 10
0.0
 20
0.0
 30
0.0
  3
SYM-1
  1

  0
HATCH
  5
87
100
AcDbEntity
  8
0
  6
CONTINUOUS
 62
     3
100
AcDbHatch
 10
0.0
 20
0.0
 30
0.0
210
0.0
220
0.0
230
1.0
  2
SOLID
 70
     1
 71
     1
 91
        1
 92
        1
 93
       16
 72
     1
 10
24.351152239011505
 20
-2.0357142857144446
 11
25.613295096154353
 21
-2.0357142857144446
 72
     1
 10
25.613295096154353
 20
-2.0357142857144446
 11
25.613295096154353
 21
-2.8500000000001648
 72
     1
 10
25.613295096154353
 20
-2.8500000000001648
 11
22.23400938186861
 21
-2.8500000000001648
 72
     1
 10
22.23400938186861
 20
-2.8500000000001648
 11
22.23400938186861
 21
-2.0357142857144446
 72
     1
 10
22.23400938186861
 20
-2.0357142857144446
 11
23.536866524725802
 21
-2.0357142857144446
 72
     1
 10
23.536866524725802
 20
-2.0357142857144446
 11
23.536866524725802
 21
0.3257142857141346
 72
     1
 10
23.536866524725802
 20
0.3257142857141346
 11
22.519009381868621
 21
0.3257142857141346
 72
     1
 10
22.519009381868621
 20
0.3257142857141346
 11
22.519009381868621
 21
1.1399999999998514
 72
     1
 10
22.519009381868621
 20
1.1399999999998514
 11
23.536866524725802
 21
1.1399999999998514
 72
     1
 10
23.536866524725802
 20
1.1399999999998514
 11
23.536866524725802
 21
2.8499999999998487
 72
     1
 10
23.536866524725802
 20
2.8499999999998487
 11
24.351152239011505
 21
2.8499999999998487
 72
     1
 10
24.351152239011505
 20
2.8499999999998487
 11
24.351152239011505
 21
1.1399999999998514
 72
     1
 10
24.351152239011505
 20
1.1399999999998514
 11
25.531866524725821
 21
1.1399999999998514
 72
     1
 10
25.531866524725821
 20
1.1399999999998514
 11
25.531866524725821
 21
0.3257142857141346
 72
     1
 10
25.531866524725821
 20
0.3257142857141346
 11
24.351152239011505
 21
0.3257142857141346
 72
     1
 10
24.351152239011505
 20
0.3257142857141346
 11
24.351152239011505
 21
-2.0357142857144446
 97
        0
 75
     0
 76
     1
 98
        1
 10
0.0
 20
0.0
  0
HATCH
  5
88
100
AcDbEntity
  8
0
  6
CONTINUOUS
 62
     3
100
AcDbHatch
 10
0.0
 20
0.0
 30
0.0
210
0.0
220
0.0
230
1.0
  2
SOLID
 70
     1
 71
     1
 91
        1
 92
        1
 93
       17
 72
     2
 10
15.796286246552746
 20
4.4303755974531924
 40
7.328571428571454
 50
44.165469
 51
51.472792
 73
     0
 72
     1
 10
20.361152239011439
 20
-1.3028571428572775
 11
19.948878200429583
 21
-0.5887775613918898
 72
     2
 10
15.796286246552746
 20
4.4303755974531924
 40
6.5142857142857364
 50
309.602625
 51
331.307968
 73
     1
 72
     1
 10
21.510701937024301
 20
1.3028571428570004
 11
20.157580810440017
 21
1.3028571428570004
 72
     1
 10
20.157580810440017
 20
1.3028571428570004
 11
20.157580810440017
 21
2.0357142857141319
 72
     1
 10
20.157580810440017
 20
2.0357142857141319
 11
21.053295096154336
 21
2.0357142857141319
 72
     1
 10
21.053295096154336
 20
2.0357142857141319
 11
21.053295096154336
 21
2.8499999999998487
 72
     1
 10
21.053295096154336
 20
2.8499999999998487
 11
21.786152239011507
 21
2.8499999999998487
 72
     1
 10
21.786152239011507
 20
2.8499999999998487
 11
21.786152239011507
 21
2.0357142857141319
 72
     1
 10
21.786152239011507
 20
2.0357142857141319
 11
22.722580810439986
 21
2.0357142857141319
 72
     2
 10
15.796286246552746
 20
4.4303755974531924
 40
7.328571428571454
 50
19.072051
 51
32.871988
 73
     0
 72
     1
 10
21.951445818831196
 20
0.4526916201288422
 11
22.926152239011437
 21
-0.4885714285715821
 72
     1
 10
22.926152239011437
 20
-0.4885714285715821
 11
22.350277580116831
 21
-1.0644460874662265
 72
     1
 10
22.350277580116831
 20
-1.0644460874662265
 11
21.786152239011507
 21
-0.5196765779765897
 72
     1
 10
21.786152239011507
 20
-0.5196765779765897
 11
21.786152239011507
 21
-2.8500000000001648
 72
     1
 10
21.786152239011507
 20
-2.8500000000001648
 11
21.053295096154336
 21
-2.8500000000001648
 72
     1
 10
21.053295096154336
 20
-2.8500000000001648
 11
21.053295096154336
 21
-0.6756813096801793
 97
        0
 75
     0
 76
     1
 98
        1
 10
0.0
 20
0.0
  0
HATCH
  5
89
100
AcDbEntity
  8
0
  6
CONTINUOUS
 62
     3
100
AcDbHatch
 10
0.0
 20
0.0
 30
0.0
210
0.0
220
0.0
230
1.0
  2
SOLID
 70
     1
 71
     1
 91
        1
 92
        1
 93
       12
 72
     2
 10
26.09465466477446
 20
-6.5604295733743392
 40
11.481428571428609
 50
150.903074
 51
156.790773
 73
     1
 72
     1
 10
15.542396441700383
 20
-2.035714285714505
 11
18.049394029288031
 21
-2.0357142857144055
 72
     2
 10
10.927987441101074
 20
-4.0835590566205937
 40
7.4100000000000241
 50
16.043216
 51
21.362935
 73
     1
 72
     1
 10
17.828858648663306
 20
-1.3842857142858769
 11
18.610437953297115
 21
-1.3842857142858769
 72
     2
 10
10.927987441101074
 20
-4.0835590566205937
 40
8.1428571428571708
 50
340.64078
 51
351.286733
 73
     0
 72
     1
 10
18.976866524725686
 20
-2.8500000000001648
 11
14.457580810439971
 21
-2.8500000000001648
 72
     2
 10
26.09465466477446
 20
-6.5604295733743392
 40
12.214285714285754
 50
197.684652
 51
207.200855
 73
     0
 72
     1
 10
15.231152239011401
 20
-0.9771428571430043
 11
14.091152239011485
 21
-0.9771428571430043
 72
     1
 10
14.091152239011485
 20
-0.9771428571430043
 11
14.091152239011485
 21
-0.162857142857284
 72
     1
 10
14.091152239011485
 20
-0.162857142857284
 11
19.302580810440098
 21
-0.162857142857284
 72
     1
 10
19.302580810440098
 20
-0.162857142857284
 11
19.302580810440098
 21
-0.9771428571430043
 72
     1
 10
19.302580810440098
 20
-0.9771428571430043
 11
16.062201750099412
 21
-0.9771428571430043
 97
        0
 75
     0
 76
     1
 98
        1
 10
0.0
 20
0.0
  0
HATCH
  5
8A
100
AcDbEntity
  8
0
  6
CONTINUOUS
 62
     3
100
AcDbHatch
 10
0.0
 20
0.0
 30
0.0
210
0.0
220
0.0
230
1.0
  2
SOLID
 70
     1
 71
     1
 91
        1
 92
        1
 93
       10
 72
     2
 10
26.143491684008573
 20
11.064410217386417
 40
13.028571428571473
 50
129.545698
 51
136.474664
 73
     0
 72
     1
 10
16.696866524725998
 20
2.0919553376225579
 11
16.696866524725998
 21
2.8499999999998487
 72
     1
 10
16.696866524725998
 20
2.8499999999998487
 11
17.104009381868686
 21
2.8499999999998487
 72
     2
 10
26.143491684008573
 20
11.064410217386417
 40
12.214285714285754
 50
222.262231
 51
237.763996
 73
     1
 72
     1
 10
19.628295096154382
 20
0.7328571428570001
 11
19.100346295490944
 21
0.1036722629605507
 72
     2
 10
26.143491684008573
 20
11.064410217386417
 40
13.028571428571473
 50
122.723968
 51
128.230009
 73
     0
 72
     1
 10
18.08115223901148
 20
0.830038905819066
 11
18.08115223901148
 21
0.2035714285712729
 72
     1
 10
18.08115223901148
 20
0.2035714285712729
 11
16.696866524725998
 21
0.2035714285712729
 72
     1
 10
16.696866524725998
 20
0.2035714285712729
 11
16.696866524725998
 21
1.0178571428569896
 72
     1
 10
16.696866524725998
 20
1.0178571428569896
 11
17.848285550942784
 21
1.0178571428569896
 97
        0
 75
     0
 76
     1
 98
        1
 10
0.0
 20
0.0
  0
HATCH
  5
8B
100
AcDbEntity
  8
0
  6
CONTINUOUS
 62
     3
100
AcDbHatch
 10
0.0
 20
0.0
 30
0.0
210
0.0
220
0.0
230
1.0
  2
SOLID
 70
     1
 71
     1
 91
        1
 92
        1
 93
       10
 72
     2
 10
7.2502413654429532
 20
11.064410217386417
 40
13.028571428571473
 50
51.769991
 51
57.276032
 73
     0
 72
     1
 10
14.293386753960569
 20
0.1036722629605329
 11
13.76543795329713
 21
0.7328571428569894
 72
     2
 10
7.2502413654429532
 20
11.064410217386417
 40
12.214285714285754
 50
302.236004
 51
317.737769
 73
     1
 72
     1
 10
16.289723667582841
 20
2.8499999999998487
 11
16.696866524725998
 21
2.8499999999998487
 72
     1
 10
16.696866524725998
 20
2.8499999999998487
 11
16.696866524725998
 21
2.0919553376230482
 72
     2
 10
7.2502413654429532
 20
11.064410217386417
 40
13.028571428571473
 50
43.525336
 51
50.454302
 73
     0
 72
     1
 10
15.545447498508743
 20
1.0178571428569896
 11
16.696866524725998
 21
1.0178571428569896
 72
     1
 10
16.696866524725998
 20
1.0178571428569896
 11
16.696866524725998
 21
0.2035714285712729
 72
     1
 10
16.696866524725998
 20
0.2035714285712729
 11
15.312580810440046
 21
0.2035714285712729
 72
     1
 10
15.312580810440046
 20
0.2035714285712729
 11
15.312580810440046
 21
0.8300389058190589
 97
        0
 75
     0
 76
     1
 98
        1
 10
0.0
 20
0.0
  0
HATCH
  5
8C
100
AcDbEntity
  8
0
  6
CONTINUOUS
 62
     3
100
AcDbHatch
 10
0.0
 20
0.0
 30
0.0
210
0.0
220
0.0
230
1.0
  2
SOLID
 70
     1
 71
     1
 91
        1
 92
        1
 93
       18
 72
     2
 10
1.2571935216656343
 20
-0.8093264034321166
 40
11.400000000000038
 50
14.02954
 51
18.723021
 73
     1
 72
     1
 10
12.053921279331213
 20
2.8499999999998487
 11
12.910437953297141
 21
2.8499999999998487
 72
     2
 10
1.2571935216656343
 20
-0.8093264034321166
 40
12.214285714285754
 50
342.566782
 51
346.922981
 73
     0
 72
     1
 10
13.15472366758285
 20
1.9542857142855716
 11
13.480437953297177
 21
1.9542857142855716
 72
     1
 10
13.480437953297177
 20
1.9542857142855716
 11
13.480437953297177
 21
1.1399999999998407
 72
     1
 10
13.480437953297177
 20
1.1399999999998407
 11
11.958092734747289
 21
1.1399999999998514
 72
     2
 10
20.401866524725683
 20
2.4835714285712918
 40
8.5500000000000291
 50
189.041096
 51
204.65198
 73
     1
 72
     2
 10
14.334076117775972
 20
-0.301141422634494
 40
1.8737206404808271
 50
204.65198
 51
242.897449
 73
     1
 72
     1
 10
13.480437953297177
 20
-1.9691135215345774
 11
13.480437953297177
 21
-2.8500000000001648
 72
     2
 10
14.334076117775972
 20
-0.301141422634494
 40
2.6880063547665438
 50
108.516212
 51
155.34802
 73
     0
 72
     2
 10
20.401866524725683
 20
2.4835714285712918
 40
9.3642857142857441
 50
155.34802
 51
171.750831
 73
     0
 72
     1
 10
11.134468683092756
 20
1.1399999999998549
 11
8.0247236675828972
 21
1.1399999999998407
 72
     1
 10
8.0247236675828972
 20
1.1399999999998407
 11
8.0247236675828972
 21
1.9542857142855716
 72
     1
 10
8.0247236675828972
 20
1.9542857142855716
 11
11.050355927894167
 21
1.9542857142855716
 72
     1
 10
11.050355927894167
 20
1.9542857142855716
 11
11.019076895792274
 21
2.8499999999998487
 72
     1
 10
11.019076895792274
 20
2.8499999999998487
 11
11.833858953292697
 21
2.8499999999998487
 72
     1
 10
11.833858953292697
 20
2.8499999999998487
 11
11.865137985394604
 21
1.9542857142855716
 72
     1
 10
11.865137985394604
 20
1.9542857142855716
 11
12.317141444816265
 21
1.9542857142855716
 97
        0
 75
     0
 76
     1
 98
        1
 10
0.0
 20
0.0
  0
HATCH
  5
8D
100
AcDbEntity
  8
0
  6
CONTINUOUS
 62
     3
100
AcDbHatch
 10
0.0
 20
0.0
 30
0.0
210
0.0
220
0.0
230
1.0
  2
SOLID
 70
     1
 71
     1
 91
        1
 92
        1
 93
       12
 72
     2
 10
5.4617420309248317
 20
38.027820957415145
 40
39.900000000000134
 50
276.500664
 51
278.269357
 73
     1
 72
     1
 10
11.200437953297204
 20
-1.457332823601817
 11
11.20043795329719
 21
-2.2800000000001504
 72
     2
 10
5.4617420309248317
 20
38.027820957415145
 40
40.71428571428585
 50
81.897153
 51
86.39082
 73
     0
 72
     1
 10
8.024723667582883
 20
-2.6057142857144413
 11
8.024723667582883
 21
-1.7897772264302034
 72
     2
 10
5.4617420309248317
 20
38.027820957415145
 40
39.900000000000134
 50
273.682937
 51
275.325087
 73
     1
 72
     1
 10
9.1647236675828836
 20
-1.6999769553635602
 11
9.1647236675828836
 21
-0.4071428571430218
 72
     1
 10
9.1647236675828836
 20
-0.4071428571430218
 11
8.0247236675828972
 21
-0.4071428571430218
 72
     1
 10
8.0247236675828972
 20
-0.4071428571430218
 11
8.0247236675828972
 21
0.4071428571426949
 72
     1
 10
8.0247236675828972
 20
0.4071428571426949
 11
10.95615223901148
 21
0.4071428571426949
 72
     1
 10
10.95615223901148
 20
0.4071428571426949
 11
10.95615223901148
 21
-0.4071428571430218
 72
     1
 10
10.95615223901148
 20
-0.4071428571430218
 11
9.9790093818686287
 21
-0.4071428571430218
 72
     1
 10
9.9790093818686287
 20
-0.4071428571430218
 11
9.9790093818685861
 21
-1.6156437710884397
 97
        0
 75
     0
 76
     1
 98
        1
 10
0.0
 20
0.0
  0
HATCH
  5
8E
100
AcDbEntity
  8
0
  6
CONTINUOUS
 62
     3
100
AcDbHatch
 10
0.0
 20
0.0
 30
0.0
210
0.0
220
0.0
230
1.0
  2
SOLID
 70
     1
 71
     1
 91
        1
 92
        1
 93
       30
 72
     2
 10
-1.8979256098940809
 20
4.1519130391923014
 40
8.9164285714286002
 50
37.940537
 51
46.713808
 73
     0
 72
     1
 10
4.21556076329842
 20
-2.3386942385728418
 11
3.6682950961542744
 21
-1.7914285714286962
 72
     2
 10
-1.8979256098940809
 20
4.1519130391923014
 40
8.1428571428571743
 50
313.123325
 51
325.95222
 73
     1
 72
     1
 10
4.8490093818684983
 20
-0.4071428571430076
 11
3.8718665247257533
 21
-0.4071428571430076
 72
     1
 10
3.8718665247257533
 20
-0.4071428571430076
 11
3.8718665247257533
 21
0.4071428571427092
 72
     1
 10
3.8718665247257533
 20
0.4071428571427092
 11
5.1340093818686157
 21
0.4071428571427092
 72
     1
 10
5.1340093818686157
 20
0.4071428571427092
 11
5.1340093818686157
 21
1.2214285714284152
 72
     1
 10
5.1340093818686157
 20
1.2214285714284152
 11
4.7280236542212677
 21
1.2214285714284152
 72
     2
 10
-3.9789687629962955
 20
2.9438069062169916
 40
8.8757142857143183
 50
11.189535
 51
14.746058
 73
     0
 72
     1
 10
4.6044101437030562
 20
0.6846232869284066
 11
3.9125808104399411
 21
0.9364285714284044
 72
     2
 10
-3.9789687629962955
 20
2.9438069062169916
 40
8.1428571428571743
 50
345.728313
 51
357.620387
 73
     1
 72
     1
 10
4.1568665247257641
 20
2.6057142857165694
 11
4.8844833536651819
 21
2.4774158071570227
 72
     2
 10
-3.9789687629962955
 20
2.9438069062169916
 40
8.8757142857143183
 50
3.012102
 51
6.401006
 73
     0
 72
     1
 10
4.8414139890361767
 20
1.9542857142855716
 11
5.1340093818686157
 21
1.9542857142855716
 72
     1
 10
5.1340093818686157
 20
1.9542857142855716
 11
5.1340093818686157
 21
2.8499999999998487
 72
     1
 10
5.1340093818686157
 20
2.8499999999998487
 11
5.948295096154304
 21
2.8499999999998487
 72
     1
 10
5.948295096154304
 20
2.8499999999998487
 11
5.948295096154304
 21
1.9542857142855716
 72
     1
 10
5.948295096154304
 20
1.9542857142855716
 11
7.0475808104400599
 21
1.9542857142855716
 72
     1
 10
7.0475808104400599
 20
1.9542857142855716
 11
7.0475808104400599
 21
1.2214285714284152
 72
     1
 10
7.0475808104400599
 20
1.2214285714284152
 11
5.948295096154304
 21
1.2214285714284152
 72
     1
 10
5.948295096154304
 20
1.2214285714284152
 11
5.948295096154304
 21
0.4071428571427092
 72
     1
 10
5.948295096154304
 20
0.4071428571427092
 11
7.2104379532971521
 21
0.4071428571427092
 72
     1
 10
7.2104379532971521
 20
0.4071428571427092
 11
7.2104379532971521
 21
-0.4071428571430076
 72
     1
 10
7.2104379532971521
 20
-0.4071428571430076
 11
6.2332950961542579
 21
-0.4071428571430076
 72
     2
 10
12.98023008791683
 20
4.1519130391922907
 40
8.1428571428571743
 50
214.04778
 51
226.876675
 73
     1
 72
     1
 10
7.4140093818684889
 20
-1.7914285714286962
 11
6.866743714724322
 21
-2.3386942385728453
 72
     2
 10
12.98023008791683
 20
4.1519130391922907
 40
8.9164285714286002
 50
133.286192
 51
142.059463
 73
     0
 72
     1
 10
5.948295096154304
 20
-1.330293518482641
 11
5.948295096154304
 21
-2.8500000000001648
 72
     1
 10
5.948295096154304
 20
-2.8500000000001648
 11
5.1340093818686157
 21
-2.8500000000001648
 72
     1
 10
5.1340093818686157
 20
-2.8500000000001648
 11
5.1340093818686157
 21
-1.3302935184824136
 97
        0
 75
     0
 76
     1
 98
        1
 10
0.0
 20
0.0
  0
HATCH
  5
8F
100
AcDbEntity
  8
0
  6
CONTINUOUS
 62
     3
100
AcDbHatch
 10
0.0
 20
0.0
 30
0.0
210
0.0
220
0.0
230
1.0
  2
SOLID
 70
     1
 71
     1
 91
        1
 92
        1
 93
       19
 72
     2
 10
-5.2499698511775321
 20
3.0651230633969284
 40
8.8757142857143165
 50
27.683433
 51
32.280505
 73
     0
 72
     1
 10
2.2539459810095721
 20
-1.6750827617845943
 11
1.6732950961542841
 21
-1.2214285714287314
 72
     2
 10
-5.2499698511775321
 20
3.0651230633969284
 40
8.1428571428571708
 50
328.236207
 51
344.845745
 73
     1
 72
     1
 10
2.6097236675827773
 20
0.9364285714284151
 11
1.8768665247257346
 21
0.9364285714284151
 72
     1
 10
1.8768665247257346
 20
0.9364285714284151
 11
1.8768665247257346
 21
1.7507142857141353
 72
     1
 10
1.8768665247257346
 20
1.7507142857141353
 11
2.6097236675829052
 21
1.7507142857141353
 72
     1
 10
2.6097236675829052
 20
1.7507142857141353
 11
2.6097236675829052
 21
2.8499999999998487
 72
     1
 10
2.6097236675829052
 20
2.8499999999998487
 11
3.4240093818685935
 21
2.8499999999998487
 72
     1
 10
3.4240093818685935
 20
2.8499999999998487
 11
3.4240093818685935
 21
1.7507142857141353
 72
     1
 10
3.4240093818685935
 20
1.7507142857141353
 11
3.7904379532971788
 21
1.7507142857141353
 72
     1
 10
3.7904379532971788
 20
1.7507142857141353
 11
3.7904379532971788
 21
0.9364285714284151
 72
     1
 10
3.7904379532971788
 20
0.9364285714284151
 11
3.4240093818685367
 21
0.9364285714284151
 72
     1
 10
3.4240093818685367
 20
0.9364285714284151
 11
3.8718665247257533
 21
0.2968222855516665
 72
     1
 10
3.8718665247257533
 20
0.2968222855516665
 11
3.8718665247257533
 21
-0.1989042363292235
 72
     1
 10
3.8718665247257533
 20
-0.1989042363292235
 11
3.6275808104399871
 21
-0.4900326139487277
 72
     1
 10
3.6275808104399871
 20
-0.4900326139487277
 11
3.4240093818685935
 21
-0.1993024840048498
 72
     1
 10
3.4240093818685935
 20
-0.1993024840048498
 11
3.4240093818685935
 21
-2.8500000000001648
 72
     1
 10
3.4240093818685935
 20
-2.8500000000001648
 11
2.6097236675829052
 21
-2.8500000000001648
 72
     1
 10
2.6097236675829052
 20
-2.8500000000001648
 11
2.6097236675829052
 21
-1.0584096299120844
 97
        0
 75
     0
 76
     1
 98
        1
 10
0.0
 20
0.0
  0
HATCH
  5
90
100
AcDbEntity
  8
0
  6
CONTINUOUS
 62
     3
100
AcDbHatch
 10
0.0
 20
0.0
 30
0.0
210
0.0
220
0.0
230
1.0
  2
SOLID
 70
     1
 71
     1
 91
        1
 92
        1
 93
        8
 72
     2
 10
-1.8298808996504405
 20
-0.4560000000002766
 40
1.596000000000013
 50
270.0
 51
330.0
 73
     1
 72
     2
 10
-2.619696067901863
 20
-0.00000000000027
 40
2.508000000000012
 50
330.0
 51
30.0
 73
     1
 72
     2
 10
-1.8298808996504405
 20
0.4559999999997331
 40
1.5960000000000121
 50
30.0
 51
90.0
 73
     1
 72
     1
 10
-1.82988089965
 20
2.0519999999997438
 11
-1.82988089965
 21
2.9639999999999276
 72
     2
 10
-1.8298808996504974
 20
0.4559999999999214
 40
2.508000000000008
 50
270.0
 51
330.0
 73
     0
 72
     2
 10
-2.6196960679017494
 20
-0.0000000000001243
 40
3.420000000000015
 50
330.0
 51
30.0
 73
     0
 72
     2
 10
-1.8298808996503837
 20
-0.456000000000369
 40
2.5080000000000053
 50
30.0
 51
90.0
 73
     0
 72
     1
 10
-1.82988089965
 20
-2.9640000000003752
 11
-1.82988089965
 21
-2.0520000000002909
 97
        0
 75
     0
 76
     1
 98
        1
 10
0.0
 20
0.0
  0
HATCH
  5
91
100
AcDbEntity
  8
0
  6
CONTINUOUS
 62
     3
100
AcDbHatch
 10
0.0
 20
0.0
 30
0.0
210
0.0
220
0.0
230
1.0
  2
SOLID
 70
     1
 71
     1
 91
        1
 92
        1
 93
        8
 72
     2
 10
-1.8298808996503837
 20
-0.456000000000369
 40
2.5080000000000053
 50
90.0
 51
150.0
 73
     0
 72
     2
 10
-1.0400657313991175
 20
-0.0000000000003126
 40
3.4200000000000181
 50
150.0
 51
210.0
 73
     0
 72
     2
 10
-1.8298808996504974
 20
0.4559999999999214
 40
2.508000000000008
 50
210.0
 51
270.0
 73
     0
 72
     1
 10
-1.82988089965
 20
2.9639999999999276
 11
-1.82988089965
 21
2.0519999999997438
 72
     2
 10
-1.8298808996504405
 20
0.4559999999997331
 40
1.5960000000000121
 50
90.0
 51
150.0
 73
     1
 72
     2
 10
-1.040065731399018
 20
-0.00000000000027
 40
2.5080000000000129
 50
150.0
 51
210.0
 73
     1
 72
     2
 10
-1.8298808996504405
 20
-0.4560000000002766
 40
1.596000000000013
 50
210.0
 51
270.0
 73
     1
 72
     1
 10
-1.82988089965
 20
-2.0520000000002909
 11
-1.82988089965
 21
-2.9640000000003752
 97
        0
 75
     0
 76
     1
 98
        1
 10
0.0
 20
0.0
  0
HATCH
  5
92
100
AcDbEntity
  8
0
  6
CONTINUOUS
 62
     3
100
AcDbHatch
 10
0.0
 20
0.0
 30
0.0
210
0.0
220
0.0
230
1.0
  2
SOLID
 70
     1
 71
     1
 91
        1
 92
        1
 93
        4
 72
     1
 10
-5.3638808996504608
 20
-1.0260000000002698
 11
-6.2758808996504385
 21
-1.0260000000002698
 72
     1
 10
-6.2758808996504385
 20
-1.0260000000002698
 11
-6.2758808996504385
 21
-0.1140000000002743
 72
     1
 10
-6.2758808996504385
 20
-0.1140000000002743
 11
-5.3638808996504608
 21
-0.1140000000002743
 72
     1
 10
-5.3638808996504608
 20
-0.1140000000002743
 11
-5.3638808996504608
 21
-1.0260000000003267
 97
        0
 75
     0
 76
     1
 98
        1
 10
0.0
 20
0.0
  0
HATCH
  5
93
100
AcDbEntity
  8
0
  6
CONTINUOUS
 62
     3
100
AcDbHatch
 10
0.0
 20
0.0
 30
0.0
210
0.0
220
0.0
230
1.0
  2
SOLID
 70
     1
 71
     1
 91
        1
 92
        1
 93
       16
 72
     1
 10
-9.6958808996504686
 20
1.9379999999997324
 11
-10.949880899650459
 21
1.9379999999997324
 72
     1
 10
-10.949880899650459
 20
1.9379999999997324
 11
-11.177880899650468
 21
0.6839999999997275
 72
     1
 10
-11.177880899650468
 20
0.6839999999997275
 11
-11.861880899650437
 21
0.6839999999997275
 72
     1
 10
-11.861880899650437
 20
0.6839999999997275
 11
-11.861880899650437
 21
2.8499999999997421
 72
     1
 10
-11.861880899650437
 20
2.8499999999997421
 11
-6.6178808996504515
 21
2.8499999999997421
 72
     1
 10
-6.6178808996504515
 20
2.8499999999997421
 11
-6.6178808996504515
 21
0.6839999999997275
 72
     1
 10
-6.6178808996504515
 20
0.6839999999997275
 11
-7.3018808996504205
 21
0.6839999999997275
 72
     1
 10
-7.3018808996504205
 20
0.6839999999997275
 11
-7.5298808996504292
 21
1.9379999999997324
 72
     1
 10
-7.5298808996504292
 20
1.9379999999997324
 11
-8.7838808996504767
 21
1.9379999999997324
 72
     1
 10
-8.7838808996504767
 20
1.9379999999997324
 11
-8.7838808996504341
 21
-1.9380000000002759
 72
     1
 10
-8.7838808996504341
 20
-1.9380000000002759
 11
-7.8718808996504421
 21
-2.1660000000002846
 72
     1
 10
-7.8718808996504421
 20
-2.1660000000002846
 11
-7.8718808996504421
 21
-2.8500000000002856
 72
     1
 10
-7.8718808996504421
 20
-2.8500000000002856
 11
-10.607880899650446
 21
-2.8500000000002856
 72
     1
 10
-10.607880899650446
 20
-2.8500000000002856
 11
-10.607880899650446
 21
-2.1660000000002846
 72
     1
 10
-10.607880899650446
 20
-2.1660000000002846
 11
-9.6958808996504686
 21
-1.9380000000002759
 72
     1
 10
-9.6958808996504686
 20
-1.9380000000002759
 11
-9.6958808996504686
 21
1.9379999999997324
 97
        0
 75
     0
 76
     1
 98
        1
 10
0.0
 20
0.0
  0
HATCH
  5
94
100
AcDbEntity
  8
0
  6
CONTINUOUS
 62
     3
100
AcDbHatch
 10
0.0
 20
0.0
 30
0.0
210
0.0
220
0.0
230
1.0
  2
SOLID
 70
     1
 71
     1
 91
        1
 92
        1
 93
        4
 72
     1
 10
-13.115880899650485
 20
-1.0260000000002698
 11
-13.115880899650428
 21
-0.1140000000002175
 72
     1
 10
-13.115880899650428
 20
-0.1140000000002175
 11
-12.20388089965045
 21
-0.1140000000002743
 72
     1
 10
-12.20388089965045
 20
-0.1140000000002743
 11
-12.20388089965045
 21
-1.0260000000002698
 72
     1
 10
-12.20388089965045
 20
-1.0260000000002698
 11
-13.115880899650428
 21
-1.0260000000002698
 97
        0
 75
     0
 76
     1
 98
        1
 10
0.0
 20
0.0
  0
HATCH
  5
95
100
AcDbEntity
  8
0
  6
CONTINUOUS
 62
     3
100
AcDbHatch
 10
0.0
 20
0.0
 30
0.0
210
0.0
220
0.0
230
1.0
  2
SOLID
 70
     1
 71
     1
 91
        1
 92
        1
 93
       12
 72
     1
 10
-14.141880899650467
 20
2.8499999999997421
 11
-14.141880899650467
 21
2.1659999999997304
 72
     1
 10
-14.141880899650467
 20
2.1659999999997304
 11
-15.053880899650444
 21
1.9379999999997324
 72
     1
 10
-15.053880899650444
 20
1.9379999999997324
 11
-15.053880899650444
 21
-1.9380000000002759
 72
     1
 10
-15.053880899650444
 20
-1.9380000000002759
 11
-14.141880899650467
 21
-2.1660000000002846
 72
     1
 10
-14.141880899650467
 20
-2.1660000000002846
 11
-14.141880899650467
 21
-2.8500000000002856
 72
     1
 10
-14.141880899650467
 20
-2.8500000000002856
 11
-16.877880899650467
 21
-2.8500000000002856
 72
     1
 10
-16.877880899650467
 20
-2.8500000000002856
 11
-16.877880899650467
 21
-2.1660000000002846
 72
     1
 10
-16.877880899650467
 20
-2.1660000000002846
 11
-15.965880899650482
 21
-1.9380000000002759
 72
     1
 10
-15.965880899650482
 20
-1.9380000000002759
 11
-15.965880899650482
 21
1.9379999999997324
 72
     1
 10
-15.965880899650482
 20
1.9379999999997324
 11
-16.877880899650467
 21
2.165999999999741
 72
     1
 10
-16.877880899650467
 20
2.165999999999741
 11
-16.877880899650467
 21
2.8499999999997421
 72
     1
 10
-16.877880899650467
 20
2.8499999999997421
 11
-14.141880899650467
 21
2.8499999999997421
 97
        0
 75
     0
 76
     1
 98
        1
 10
0.0
 20
0.0
  0
HATCH
  5
96
100
AcDbEntity
  8
0
  6
CONTINUOUS
 62
     3
100
AcDbHatch
 10
0.0
 20
0.0
 30
0.0
210
0.0
220
0.0
230
1.0
  2
SOLID
 70
     1
 71
     1
 91
        1
 92
        1
 93
       15
 72
     2
 10
-23.082241990843084
 20
-0.0000000000001492
 40
2.531053105310535
 50
124.301153
 51
180.0
 73
     0
 72
     1
 10
-25.613295096153617
 20
0.0
 11
-24.658234262528236
 21
0.0
 72
     2
 10
-22.195587997901765
 20
-0.000000000000135
 40
2.46264626462647
 50
180.0
 51
199.464384
 73
     1
 72
     2
 10
-24.557343260027135
 20
0.2731786481661374
 40
1.094509450945121
 50
272.086657
 51
294.619977
 73
     1
 72
     2
 10
-24.243863734539655
 20
-0.4108897586745677
 40
0.342034203420344
 50
294.619977
 51
0.0
 73
     1
 72
     1
 10
-23.901829531119287
 20
-0.4108897586745677
 11
-23.901829531119287
 21
0.0
 72
     1
 10
-23.901829531119287
 20
0.0
 11
-23.080947442910482
 21
0.0
 72
     1
 10
-23.080947442910482
 20
0.0
 11
-23.080947442910482
 21
-0.4116155274721614
 72
     2
 10
-22.73891323949012
 20
-0.4116155274721614
 40
0.34203420342033
 50
180.0
 51
245.380023
 73
     1
 72
     2
 10
-22.425433714002583
 20
0.2724528793686645
 40
1.0945094509452411
 50
245.380023
 51
267.913343
 73
     1
 72
     1
 10
-22.465285876753814
 20
-0.8213308027789985
 11
-22.465285876753814
 21
-1.0265513248311819
 72
     1
 10
-22.465285876753814
 20
-1.0265513248311819
 11
-24.434073870576871
 21
-1.0265513248311962
 72
     2
 10
-22.195587997901708
 20
-0.000000000000135
 40
2.4626462646264669
 50
204.635803
 51
268.19864
 73
     1
 72
     1
 10
-22.272999999999005
 20
-2.4614292609397985
 11
-22.272999999999005
 21
-2.8039503813289706
 72
     2
 10
-22.195587997901765
 20
1.2997299729972909
 40
4.1044104410441236
 50
91.080702
 51
124.301153
 73
     0
 97
        0
 75
     0
 76
     1
 98
        1
 10
0.0
 20
0.0
  0
HATCH
  5
97
100
AcDbEntity
  8
0
  6
CONTINUOUS
 62
     3
100
AcDbHatch
 10
0.0
 20
0.0
 30
0.0
210
0.0
220
0.0
230
1.0
  2
SOLID
 70
     1
 71
     1
 91
        1
 92
        1
 93
       24
 72
     2
 10
-22.67055612196938
 20
0.3420342034202015
 40
0.342034203420347
 50
90.0
 51
157.380135
 73
     1
 72
     2
 10
-21.849674033760575
 20
-0.0000000000001101
 40
1.231323132313237
 50
157.380135
 51
180.0
 73
     1
 72
     1
 10
-23.080997166073811
 20
0.0
 11
-23.901829531119287
 21
0.0
 72
     1
 10
-23.901829531119287
 20
0.0
 11
-23.901829531119287
 21
1.7757720729310194
 72
     2
 10
-22.195587997901765
 20
-0.000000000000135
 40
2.46264626462647
 50
133.856042
 51
180.0
 73
     1
 72
     1
 10
-24.658234262528236
 20
0.0
 11
-25.613295096153617
 21
0.0
 72
     2
 10
-23.082241990843084
 20
-0.0000000000001492
 40
2.531053105310535
 50
180.0
 51
235.698847
 73
     0
 72
     2
 10
-22.195587997901708
 20
-1.2997299729975893
 40
4.1044104410441324
 50
235.698847
 51
245.436008
 73
     0
 72
     1
 10
-23.901829531119287
 20
2.4332212587861193
 11
-23.901829531119287
 21
2.8049575222742433
 72
     2
 10
-24.243863734539655
 20
2.8049575222742433
 40
0.3420342034203421
 50
0.0
 51
65.380023
 73
     1
 72
     2
 10
-24.557343260027135
 20
2.1208891154335525
 40
1.0945094509450961
 50
65.380023
 51
87.913343
 73
     1
 72
     1
 10
-24.517491097275904
 20
3.2146727975810734
 11
-24.517491097275904
 21
3.4198933196332746
 72
     1
 10
-24.517491097275904
 20
3.4198933196332746
 11
-22.465285876753814
 21
3.4198933196332746
 72
     1
 10
-22.465285876753814
 20
3.4198933196332746
 11
-22.465285876753814
 21
3.2146727975810769
 72
     2
 10
-22.425433714002583
 20
2.1208891154335525
 40
1.094509450945101
 50
92.086657
 51
114.619977
 73
     1
 72
     2
 10
-22.738913239490063
 20
2.8049575222742575
 40
0.342034203420347
 50
114.619977
 51
180.0
 73
     1
 72
     1
 10
-23.080947442910432
 20
2.8049575222742433
 11
-23.080947442910432
 21
2.7080529205341897
 72
     2
 10
-22.195587997901765
 20
-1.2997299729975893
 40
4.1044104410441218
 50
257.542857
 51
268.919298
 73
     0
 72
     1
 10
-22.272999999999005
 20
2.8039503813286721
 11
-22.272999999999005
 21
2.4614292609395321
 72
     2
 10
-22.195587997901708
 20
-0.000000000000135
 40
2.46264626462647
 50
91.80136
 51
111.070443
 73
     1
 72
     1
 10
-23.080947442910482
 20
2.2979915747913111
 11
-23.080947442910482
 21
1.0261026102608923
 72
     1
 10
-23.080947442910482
 20
1.0261026102608923
 11
-22.272999999998969
 21
1.0261026102608923
 72
     1
 10
-22.272999999998969
 20
1.0261026102608923
 11
-22.272999999999005
 21
0.6840684068405416
 72
     1
 10
-22.272999999999005
 20
0.6840684068405416
 11
-22.67055612196938
 21
0.6840684068405416
 97
        0
 75
     0
 76
     1
 98
        1
 10
0.0
 20
0.0
  0
HATCH
  5
98
100
AcDbEntity
  8
0
  6
CONTINUOUS
 62
     3
100
AcDbHatch
 10
0.0
 20
0.0
 30
0.0
210
0.0
220
0.0
230
1.0
  2
SOLID
 70
     1
 71
     1
 91
        1
 92
        1
 93
       14
 72
     2
 10
-22.195587997901765
 20
-0.000000000000135
 40
2.4626462646264748
 50
0.0
 51
9.281799
 73
     1
 72
     2
 10
-20.102741104833992
 20
0.3420342034202015
 40
0.34203420342034
 50
9.281799
 51
90.0
 73
     1
 72
     1
 10
-20.102741104833992
 20
0.6840684068405416
 11
-20.827451184220411
 21
0.6840684068405416
 72
     1
 10
-20.827451184220411
 20
0.6840684068405416
 11
-20.827451184220411
 21
0.0
 72
     1
 10
-20.827451184220411
 20
0.0
 11
-21.648333272429209
 21
0.0
 72
     1
 10
-21.648333272429209
 20
0.0
 11
-21.648333272429209
 21
0.6840684068405416
 72
     1
 10
-21.648333272429209
 20
0.6840684068405416
 11
-22.272999999999005
 21
0.6840684068405416
 72
     1
 10
-22.272999999999005
 20
0.6840684068405416
 11
-22.272999999999005
 21
1.0261026102608923
 72
     1
 10
-22.272999999999005
 20
1.0261026102608923
 11
-19.956896402818945
 21
1.0261026102608675
 72
     2
 10
-22.195587997901708
 20
-0.000000000000135
 40
2.46264626462647
 50
24.624318
 51
91.80136
 73
     1
 72
     1
 10
-22.272999999999005
 20
2.4614292609395321
 11
-22.272999999999005
 21
2.8039503813286721
 72
     2
 10
-22.195587997901765
 20
-1.2997299729975893
 40
4.1044104410441218
 50
268.919298
 51
304.301153
 73
     0
 72
     2
 10
-21.308934004960445
 20
-0.0000000000001492
 40
2.5310531053105372
 50
304.301153
 51
0.0
 73
     0
 72
     1
 10
-18.777880899649912
 20
0.0
 11
-19.732941733275293
 21
0.0
 97
        0
 75
     0
 76
     1
 98
        1
 10
0.0
 20
0.0
  0
HATCH
  5
99
100
AcDbEntity
  8
0
  6
CONTINUOUS
 62
     3
100
AcDbHatch
 10
0.0
 20
0.0
 30
0.0
210
0.0
220
0.0
230
1.0
  2
SOLID
 70
     1
 71
     1
 91
        1
 92
        1
 93
       19
 72
     2
 10
-22.195587997901765
 20
-0.000000000000135
 40
2.4626462646264748
 50
303.748989
 51
0.0
 73
     1
 72
     1
 10
-19.732941733275293
 20
0.0
 11
-18.777880899649912
 21
0.0
 72
     2
 10
-21.308934004960445
 20
-0.0000000000001492
 40
2.5310531053105372
 50
0.0
 51
55.698847
 73
     0
 72
     2
 10
-22.195587997901708
 20
1.2997299729973051
 40
4.1044104410441289
 50
55.698847
 51
70.528779
 73
     0
 72
     1
 10
-20.827451184220411
 20
-2.5699453011829512
 11
-20.827451184220411
 21
-2.8054062368445436
 72
     2
 10
-20.485416980800043
 20
-2.8054062368445436
 40
0.342034203420344
 50
180.0
 51
245.380023
 73
     1
 72
     2
 10
-20.171937455312563
 20
-2.1213378300038528
 40
1.094509450945099
 50
245.380023
 51
267.913343
 73
     1
 72
     1
 10
-20.211789618063744
 20
-3.2151215121513772
 11
-20.211789618063744
 21
-3.4203420342035784
 72
     1
 10
-20.211789618063744
 20
-3.4203420342035784
 11
-22.263994838585827
 21
-3.4203420342035784
 72
     1
 10
-22.263994838585827
 20
-3.4203420342035784
 11
-22.263994838585827
 21
-3.2151215121513737
 72
     2
 10
-22.303847001337058
 20
-2.1213378300038528
 40
1.094509450945099
 50
272.086657
 51
294.619977
 73
     1
 72
     2
 10
-21.990367475849578
 20
-2.8054062368445436
 40
0.342034203420344
 50
294.619977
 51
0.0
 73
     1
 72
     1
 10
-21.648333272429209
 20
-2.8054062368445436
 11
-21.648333272429209
 21
-2.7680332125876284
 72
     2
 10
-22.195587997901765
 20
1.2997299729972909
 40
4.1044104410441236
 50
82.337744
 51
91.080702
 73
     0
 72
     1
 10
-22.272999999999005
 20
-2.8039503813289706
 11
-22.272999999999005
 21
-2.4614292609397985
 72
     2
 10
-22.195587997901708
 20
-0.000000000000135
 40
2.4626462646264669
 50
268.19864
 51
282.839588
 73
     1
 72
     1
 10
-21.648333272429209
 20
-2.4010703634269781
 11
-21.648333272429209
 21
0.0
 72
     1
 10
-21.648333272429209
 20
0.0
 11
-20.827451184220411
 21
0.0
 72
     1
 10
-20.827451184220411
 20
0.0
 11
-20.827451184220411
 21
-2.047639686011447
 97
        0
 75
     0
 76
     1
 98
        1
 10
0.0
 20
0.0
  0
ENDBLK
  5
9A
100
AcDbEntity
  8
0
100
AcDbBlockEnd
  0
ENDSEC
  0
SECTION
  2
ENTITIES
  0
LINE
  5
9B
100
AcDbEntity
  8
LAY-1
  6
CONTINUOUS
 62
     1
100
AcDbLine
 10
1117.287665
 20
781.52307
 30
0.0
 11
1118.27307
 21
780.537665
 31
0.0
  0
LINE
  5
9C
100
AcDbEntity
  8
LAY-1
  6
CONTINUOUS
 62
     1
100
AcDbLine
 10
1116.063529
 20
782.349343
 30
0.0
 11
1119.099343
 21
779.313529
 31
0.0
  0
LINE
  5
9D
100
AcDbEntity
  8
LAY-1
  6
CONTINUOUS
 62
     1
100
AcDbLine
 10
1115.312195
 20
782.702814
 30
0.0
 11
1117.249386
 21
780.765624
 31
0.0
  0
LINE
  5
9E
100
AcDbEntity
  8
LAY-1
  6
CONTINUOUS
 62
     1
100
AcDbLine
 10
1118.399723
 20
779.615287
 30
0.0
 11
1118.701481
 21
779.313529
 31
0.0
  0
LINE
  5
9F
100
AcDbEntity
  8
LAY-1
  6
CONTINUOUS
 62
     1
100
AcDbLine
 10
1114.695769
 20
782.921378
 30
0.0
 11
1116.125073
 21
781.492075
 31
0.0
  0
LINE
  5
A0
100
AcDbEntity
  8
LAY-1
  6
CONTINUOUS
 62
     1
100
AcDbLine
 10
1114.153915
 20
783.06537
 30
0.0
 11
1115.393829
 21
781.825456
 31
0.0
  0
LINE
  5
A1
100
AcDbEntity
  8
LAY-1
  6
CONTINUOUS
 62
     1
100
AcDbLine
 10
1113.661977
 20
783.159445
 30
0.0
 11
1114.786435
 21
782.034988
 31
0.0
  0
LINE
  5
A2
100
AcDbEntity
  8
LAY-1
  6
CONTINUOUS
 62
     1
100
AcDbLine
 10
1113.206948
 20
783.216612
 30
0.0
 11
1114.248778
 21
782.174782
 31
0.0
  0
LINE
  5
A3
100
AcDbEntity
  8
LAY-1
  6
CONTINUOUS
 62
     1
100
AcDbLine
 10
1112.780957
 20
783.24474
 30
0.0
 11
1113.758268
 21
782.26743
 31
0.0
  0
LINE
  5
A4
100
AcDbEntity
  8
LAY-1
  6
CONTINUOUS
 62
     1
100
AcDbLine
 10
1112.37881
 20
783.249025
 30
0.0
 11
1113.302867
 21
782.324968
 31
0.0
  0
LINE
  5
A5
100
AcDbEntity
  8
LAY-1
  6
CONTINUOUS
 62
     1
100
AcDbLine
 10
1111.996863
 20
783.233109
 30
0.0
 11
1112.875245
 21
782.354727
 31
0.0
  0
LINE
  5
A6
100
AcDbEntity
  8
LAY-1
  6
CONTINUOUS
 62
     1
100
AcDbLine
 10
1111.632451
 20
783.19966
 30
0.0
 11
1112.470548
 21
782.361562
 31
0.0
  0
LINE
  5
A7
100
AcDbEntity
  8
LAY-1
  6
CONTINUOUS
 62
     1
100
AcDbLine
 10
1111.28355
 20
783.150697
 30
0.0
 11
1112.085363
 21
782.348884
 31
0.0
  0
LINE
  5
A8
100
AcDbEntity
  8
LAY-1
  6
CONTINUOUS
 62
     1
100
AcDbLine
 10
1110.948592
 20
783.087793
 30
0.0
 11
1111.71719
 21
782.319196
 31
0.0
  0
LINE
  5
A9
100
AcDbEntity
  8
LAY-1
  6
CONTINUOUS
 62
     1
100
AcDbLine
 10
1110.626331
 20
783.012192
 30
0.0
 11
1111.364132
 21
782.274391
 31
0.0
  0
LINE
  5
AA
100
AcDbEntity
  8
LAY-1
  6
CONTINUOUS
 62
     1
100
AcDbLine
 10
1110.315762
 20
782.924899
 30
0.0
 11
1111.02472
 21
782.215941
 31
0.0
  0
LINE
  5
AB
100
AcDbEntity
  8
LAY-1
  6
CONTINUOUS
 62
     1
100
AcDbLine
 10
1110.016066
 20
782.826732
 30
0.0
 11
1110.697788
 21
782.14501
 31
0.0
  0
LINE
  5
AC
100
AcDbEntity
  8
LAY-1
  6
CONTINUOUS
 62
     1
100
AcDbLine
 10
1109.726568
 20
782.718367
 30
0.0
 11
1110.382402
 21
782.062533
 31
0.0
  0
LINE
  5
AD
100
AcDbEntity
  8
LAY-1
  6
CONTINUOUS
 62
     1
100
AcDbLine
 10
1109.446709
 20
782.600364
 30
0.0
 11
1110.077803
 21
781.96927
 31
0.0
  0
LINE
  5
AE
100
AcDbEntity
  8
LAY-1
  6
CONTINUOUS
 62
     1
100
AcDbLine
 10
1109.176023
 20
782.473187
 30
0.0
 11
1109.783369
 21
781.865841
 31
0.0
  0
LINE
  5
AF
100
AcDbEntity
  8
LAY-1
  6
CONTINUOUS
 62
     1
100
AcDbLine
 10
1108.914122
 20
782.337226
 30
0.0
 11
1109.498592
 21
781.752756
 31
0.0
  0
LINE
  5
B0
100
AcDbEntity
  8
LAY-1
  6
CONTINUOUS
 62
     1
100
AcDbLine
 10
1108.660683
 20
782.192803
 30
0.0
 11
1109.223053
 21
781.630433
 31
0.0
  0
LINE
  5
B1
100
AcDbEntity
  8
LAY-1
  6
CONTINUOUS
 62
     1
100
AcDbLine
 10
1108.415438
 20
782.040185
 30
0.0
 11
1108.95641
 21
781.499214
 31
0.0
  0
LINE
  5
B2
100
AcDbEntity
  8
LAY-1
  6
CONTINUOUS
 62
     1
100
AcDbLine
 10
1108.178171
 20
781.879589
 30
0.0
 11
1108.698385
 21
781.359376
 31
0.0
  0
LINE
  5
B3
100
AcDbEntity
  8
LAY-1
  6
CONTINUOUS
 62
     1
100
AcDbLine
 10
1107.948707
 20
781.711191
 30
0.0
 11
1108.448759
 21
781.21114
 31
0.0
  0
LINE
  5
B4
100
AcDbEntity
  8
LAY-1
  6
CONTINUOUS
 62
     1
100
AcDbLine
 10
1107.72691
 20
781.535126
 30
0.0
 11
1108.20736
 21
781.054676
 31
0.0
  0
LINE
  5
B5
100
AcDbEntity
  8
LAY-1
  6
CONTINUOUS
 62
     1
100
AcDbLine
 10
1107.512681
 20
781.351493
 30
0.0
 11
1107.974066
 21
780.890107
 31
0.0
  0
LINE
  5
B6
100
AcDbEntity
  8
LAY-1
  6
CONTINUOUS
 62
     1
100
AcDbLine
 10
1107.305954
 20
781.160357
 30
0.0
 11
1107.748795
 21
780.717516
 31
0.0
  0
LINE
  5
B7
100
AcDbEntity
  8
LAY-1
  6
CONTINUOUS
 62
     1
100
AcDbLine
 10
1107.106697
 20
780.961752
 30
0.0
 11
1107.531505
 21
780.536944
 31
0.0
  0
LINE
  5
B8
100
AcDbEntity
  8
LAY-1
  6
CONTINUOUS
 62
     1
100
AcDbLine
 10
1106.914908
 20
780.755678
 30
0.0
 11
1107.322194
 21
780.348392
 31
0.0
  0
LINE
  5
B9
100
AcDbEntity
  8
LAY-1
  6
CONTINUOUS
 62
     1
100
AcDbLine
 10
1106.730617
 20
780.542107
 30
0.0
 11
1107.1209
 21
780.151823
 31
0.0
  0
LINE
  5
BA
100
AcDbEntity
  8
LAY-1
  6
CONTINUOUS
 62
     1
100
AcDbLine
 10
1106.553887
 20
780.320974
 30
0.0
 11
1106.927702
 21
779.947159
 31
0.0
  0
LINE
  5
BB
100
AcDbEntity
  8
LAY-1
  6
CONTINUOUS
 62
     1
100
AcDbLine
 10
1106.384814
 20
780.092185
 30
0.0
 11
1106.74272
 21
779.734279
 31
0.0
  0
LINE
  5
BC
100
AcDbEntity
  8
LAY-1
  6
CONTINUOUS
 62
     1
100
AcDbLine
 10
1106.22353
 20
779.855606
 30
0.0
 11
1106.566119
 21
779.513017
 31
0.0
  0
LINE
  5
BD
100
AcDbEntity
  8
LAY-1
  6
CONTINUOUS
 62
     1
100
AcDbLine
 10
1106.070207
 20
779.611067
 30
0.0
 11
1106.398115
 21
779.283159
 31
0.0
  0
LINE
  5
BE
100
AcDbEntity
  8
LAY-1
  6
CONTINUOUS
 62
     1
100
AcDbLine
 10
1105.925058
 20
779.358353
 30
0.0
 11
1106.238981
 21
779.044431
 31
0.0
  0
LINE
  5
BF
100
AcDbEntity
  8
LAY-1
  6
CONTINUOUS
 62
     1
100
AcDbLine
 10
1105.788346
 20
779.097203
 30
0.0
 11
1106.089051
 21
778.796498
 31
0.0
  0
LINE
  5
C0
100
AcDbEntity
  8
LAY-1
  6
CONTINUOUS
 62
     1
100
AcDbLine
 10
1105.660387
 20
778.827299
 30
0.0
 11
1105.948738
 21
778.538948
 31
0.0
  0
LINE
  5
C1
100
AcDbEntity
  8
LAY-1
  6
CONTINUOUS
 62
     1
100
AcDbLine
 10
1105.541565
 20
778.548259
 30
0.0
 11
1105.818543
 21
778.271281
 31
0.0
  0
LINE
  5
C2
100
AcDbEntity
  8
LAY-1
  6
CONTINUOUS
 62
     1
100
AcDbLine
 10
1105.432337
 20
778.259624
 30
0.0
 11
1105.699074
 21
777.992887
 31
0.0
  0
LINE
  5
C3
100
AcDbEntity
  8
LAY-1
  6
CONTINUOUS
 62
     1
100
AcDbLine
 10
1105.333255
 20
777.960844
 30
0.0
 11
1105.591079
 21
777.70302
 31
0.0
  0
LINE
  5
C4
100
AcDbEntity
  8
LAY-1
  6
CONTINUOUS
 62
     1
100
AcDbLine
 10
1105.244981
 20
777.651256
 30
0.0
 11
1105.495475
 21
777.400762
 31
0.0
  0
LINE
  5
C5
100
AcDbEntity
  8
LAY-1
  6
CONTINUOUS
 62
     1
100
AcDbLine
 10
1105.168322
 20
777.330052
 30
0.0
 11
1105.413402
 21
777.084972
 31
0.0
  0
LINE
  5
C6
100
AcDbEntity
  8
LAY-1
  6
CONTINUOUS
 62
     1
100
AcDbLine
 10
1105.104263
 20
776.996249
 30
0.0
 11
1105.346303
 21
776.754209
 31
0.0
  0
LINE
  5
C7
100
AcDbEntity
  8
LAY-1
  6
CONTINUOUS
 62
     1
100
AcDbLine
 10
1105.054025
 20
776.648624
 30
0.0
 11
1105.296028
 21
776.406621
 31
0.0
  0
LINE
  5
C8
100
AcDbEntity
  8
LAY-1
  6
CONTINUOUS
 62
     1
100
AcDbLine
 10
1105.019147
 20
776.28564
 30
0.0
 11
1105.265017
 21
776.03977
 31
0.0
  0
LINE
  5
C9
100
AcDbEntity
  8
LAY-1
  6
CONTINUOUS
 62
     1
100
AcDbLine
 10
1105.001604
 20
775.905321
 30
0.0
 11
1105.156925
 21
775.75
 31
0.0
  0
LINE
  5
CA
100
AcDbEntity
  8
LAY-1
  6
CONTINUOUS
 62
     1
100
AcDbLine
 10
1121.216853
 20
779.981057
 30
0.0
 11
1121.353153
 21
779.844756
 31
0.0
  0
LINE
  5
CB
100
AcDbEntity
  8
LAY-1
  6
CONTINUOUS
 62
     1
100
AcDbLine
 10
1120.914351
 20
779.885696
 30
0.0
 11
1121.207841
 21
779.592206
 31
0.0
  0
LINE
  5
CC
100
AcDbEntity
  8
LAY-1
  6
CONTINUOUS
 62
     1
100
AcDbLine
 10
1120.61185
 20
779.790335
 30
0.0
 11
1121.062528
 21
779.339656
 31
0.0
  0
LINE
  5
CD
100
AcDbEntity
  8
LAY-1
  6
CONTINUOUS
 62
     1
100
AcDbLine
 10
1120.309349
 20
779.694973
 30
0.0
 11
1120.917216
 21
779.087106
 31
0.0
  0
LINE
  5
CE
100
AcDbEntity
  8
LAY-1
  6
CONTINUOUS
 62
     1
100
AcDbLine
 10
1120.006847
 20
779.599612
 30
0.0
 11
1120.771903
 21
778.834556
 31
0.0
  0
LINE
  5
CF
100
AcDbEntity
  8
LAY-1
  6
CONTINUOUS
 62
     1
100
AcDbLine
 10
1119.704346
 20
779.504251
 30
0.0
 11
1120.626591
 21
778.582006
 31
0.0
  0
LINE
  5
D0
100
AcDbEntity
  8
LAY-1
  6
CONTINUOUS
 62
     1
100
AcDbLine
 10
1119.401845
 20
779.40889
 30
0.0
 11
1120.481279
 21
778.329456
 31
0.0
  0
LINE
  5
D1
100
AcDbEntity
  8
LAY-1
  6
CONTINUOUS
 62
     1
100
AcDbLine
 10
1119.099343
 20
779.313529
 30
0.0
 11
1120.335966
 21
778.076906
 31
0.0
  0
LINE
  5
D2
100
AcDbEntity
  8
LAY-1
  6
CONTINUOUS
 62
     1
100
AcDbLine
 10
1118.701481
 20
779.313529
 30
0.0
 11
1120.190654
 21
777.824356
 31
0.0
  0
LINE
  5
D3
100
AcDbEntity
  8
LAY-1
  6
CONTINUOUS
 62
     1
100
AcDbLine
 10
1118.303618
 20
779.313529
 30
0.0
 11
1120.045341
 21
777.571806
 31
0.0
  0
LINE
  5
D4
100
AcDbEntity
  8
LAY-1
  6
CONTINUOUS
 62
     1
100
AcDbLine
 10
1117.905756
 20
779.313529
 30
0.0
 11
1119.900029
 21
777.319256
 31
0.0
  0
LINE
  5
D5
100
AcDbEntity
  8
LAY-1
  6
CONTINUOUS
 62
     1
100
AcDbLine
 10
1117.507893
 20
779.313529
 30
0.0
 11
1119.909445
 21
776.911977
 31
0.0
  0
LINE
  5
D6
100
AcDbEntity
  8
LAY-1
  6
CONTINUOUS
 62
     1
100
AcDbLine
 10
1117.110031
 20
779.313529
 30
0.0
 11
1119.548235
 21
776.875325
 31
0.0
  0
LINE
  5
D7
100
AcDbEntity
  8
LAY-1
  6
CONTINUOUS
 62
     1
100
AcDbLine
 10
1116.712169
 20
779.313529
 30
0.0
 11
1119.150373
 21
776.875325
 31
0.0
  0
LINE
  5
D8
100
AcDbEntity
  8
LAY-1
  6
CONTINUOUS
 62
     1
100
AcDbLine
 10
1116.314306
 20
779.313529
 30
0.0
 11
1118.75251
 21
776.875325
 31
0.0
  0
LINE
  5
D9
100
AcDbEntity
  8
LAY-1
  6
CONTINUOUS
 62
     1
100
AcDbLine
 10
1114.775451
 20
780.454521
 30
0.0
 11
1115.181159
 21
780.048814
 31
0.0
  0
LINE
  5
DA
100
AcDbEntity
  8
LAY-1
  6
CONTINUOUS
 62
     1
100
AcDbLine
 10
1115.916444
 20
779.313529
 30
0.0
 11
1118.354648
 21
776.875325
 31
0.0
  0
LINE
  5
DB
100
AcDbEntity
  8
LAY-1
  6
CONTINUOUS
 62
     1
100
AcDbLine
 10
1113.834099
 20
780.998012
 30
0.0
 11
1114.982228
 21
779.849882
 31
0.0
  0
LINE
  5
DC
100
AcDbEntity
  8
LAY-1
  6
CONTINUOUS
 62
     1
100
AcDbLine
 10
1115.518581
 20
779.313529
 30
0.0
 11
1117.956785
 21
776.875325
 31
0.0
  0
LINE
  5
DD
100
AcDbEntity
  8
LAY-1
  6
CONTINUOUS
 62
     1
100
AcDbLine
 10
1112.892746
 20
781.541502
 30
0.0
 11
1114.783297
 21
779.650951
 31
0.0
  0
LINE
  5
DE
100
AcDbEntity
  8
LAY-1
  6
CONTINUOUS
 62
     1
100
AcDbLine
 10
1115.120719
 20
779.313529
 30
0.0
 11
1117.558923
 21
776.875325
 31
0.0
  0
LINE
  5
DF
100
AcDbEntity
  8
LAY-1
  6
CONTINUOUS
 62
     1
100
AcDbLine
 10
1111.951393
 20
782.084992
 30
0.0
 11
1117.16106
 21
776.875325
 31
0.0
  0
LINE
  5
E0
100
AcDbEntity
  8
LAY-1
  6
CONTINUOUS
 62
     1
100
AcDbLine
 10
1112.456262
 20
781.182261
 30
0.0
 11
1116.763198
 21
776.875325
 31
0.0
  0
LINE
  5
E1
100
AcDbEntity
  8
LAY-1
  6
CONTINUOUS
 62
     1
100
AcDbLine
 10
1112.5
 20
780.74066
 30
0.0
 11
1116.365335
 21
776.875325
 31
0.0
  0
LINE
  5
E2
100
AcDbEntity
  8
LAY-1
  6
CONTINUOUS
 62
     1
100
AcDbLine
 10
1112.5
 20
780.342798
 30
0.0
 11
1115.967473
 21
776.875325
 31
0.0
  0
LINE
  5
E3
100
AcDbEntity
  8
LAY-1
  6
CONTINUOUS
 62
     1
100
AcDbLine
 10
1112.5
 20
779.944936
 30
0.0
 11
1115.569611
 21
776.875325
 31
0.0
  0
LINE
  5
E4
100
AcDbEntity
  8
LAY-1
  6
CONTINUOUS
 62
     1
100
AcDbLine
 10
1112.5
 20
779.547073
 30
0.0
 11
1115.171748
 21
776.875325
 31
0.0
  0
LINE
  5
E5
100
AcDbEntity
  8
LAY-1
  6
CONTINUOUS
 62
     1
100
AcDbLine
 10
1112.335682
 20
779.313529
 30
0.0
 11
1114.773886
 21
776.875325
 31
0.0
  0
LINE
  5
E6
100
AcDbEntity
  8
LAY-1
  6
CONTINUOUS
 62
     1
100
AcDbLine
 10
1111.937819
 20
779.313529
 30
0.0
 11
1114.727206
 21
776.524143
 31
0.0
  0
LINE
  5
E7
100
AcDbEntity
  8
LAY-1
  6
CONTINUOUS
 62
     1
100
AcDbLine
 10
1111.539957
 20
779.313529
 30
0.0
 11
1114.727206
 21
776.12628
 31
0.0
  0
LINE
  5
E8
100
AcDbEntity
  8
LAY-1
  6
CONTINUOUS
 62
     1
100
AcDbLine
 10
1111.142094
 20
779.313529
 30
0.0
 11
1114.727206
 21
775.728418
 31
0.0
  0
LINE
  5
E9
100
AcDbEntity
  8
LAY-1
  6
CONTINUOUS
 62
     1
100
AcDbLine
 10
1110.744232
 20
779.313529
 30
0.0
 11
1114.727206
 21
775.330555
 31
0.0
  0
LINE
  5
EA
100
AcDbEntity
  8
LAY-1
  6
CONTINUOUS
 62
     1
100
AcDbLine
 10
1110.346369
 20
779.313529
 30
0.0
 11
1114.727206
 21
774.932693
 31
0.0
  0
LINE
  5
EB
100
AcDbEntity
  8
LAY-1
  6
CONTINUOUS
 62
     1
100
AcDbLine
 10
1109.077137
 20
780.184899
 30
0.0
 11
1109.190426
 21
780.07161
 31
0.0
  0
LINE
  5
EC
100
AcDbEntity
  8
LAY-1
  6
CONTINUOUS
 62
     1
100
AcDbLine
 10
1109.948507
 20
779.313529
 30
0.0
 11
1112.386711
 21
776.875325
 31
0.0
  0
LINE
  5
ED
100
AcDbEntity
  8
LAY-1
  6
CONTINUOUS
 62
     1
100
AcDbLine
 10
1112.5
 20
776.762036
 30
0.0
 11
1114.727206
 21
774.53483
 31
0.0
  0
LINE
  5
EE
100
AcDbEntity
  8
LAY-1
  6
CONTINUOUS
 62
     1
100
AcDbLine
 10
1109.077137
 20
779.787037
 30
0.0
 11
1111.988849
 21
776.875325
 31
0.0
  0
LINE
  5
EF
100
AcDbEntity
  8
LAY-1
  6
CONTINUOUS
 62
     1
100
AcDbLine
 10
1112.5
 20
776.364173
 30
0.0
 11
1114.727206
 21
774.136968
 31
0.0
  0
LINE
  5
F0
100
AcDbEntity
  8
LAY-1
  6
CONTINUOUS
 62
     1
100
AcDbLine
 10
1109.077137
 20
779.389174
 30
0.0
 11
1111.590986
 21
776.875325
 31
0.0
  0
LINE
  5
F1
100
AcDbEntity
  8
LAY-1
  6
CONTINUOUS
 62
     1
100
AcDbLine
 10
1112.5
 20
775.966311
 30
0.0
 11
1114.727206
 21
773.739105
 31
0.0
  0
LINE
  5
F2
100
AcDbEntity
  8
LAY-1
  6
CONTINUOUS
 62
     1
100
AcDbLine
 10
1109.077137
 20
778.991312
 30
0.0
 11
1111.193124
 21
776.875325
 31
0.0
  0
LINE
  5
F3
100
AcDbEntity
  8
LAY-1
  6
CONTINUOUS
 62
     1
100
AcDbLine
 10
1112.318449
 20
775.75
 30
0.0
 11
1114.727206
 21
773.341243
 31
0.0
  0
LINE
  5
F4
100
AcDbEntity
  8
LAY-1
  6
CONTINUOUS
 62
     1
100
AcDbLine
 10
1109.077137
 20
778.593449
 30
0.0
 11
1110.795261
 21
776.875325
 31
0.0
  0
LINE
  5
F5
100
AcDbEntity
  8
LAY-1
  6
CONTINUOUS
 62
     1
100
AcDbLine
 10
1111.920586
 20
775.75
 30
0.0
 11
1114.727206
 21
772.943381
 31
0.0
  0
LINE
  5
F6
100
AcDbEntity
  8
LAY-1
  6
CONTINUOUS
 62
     1
100
AcDbLine
 10
1109.077137
 20
778.195587
 30
0.0
 11
1110.397399
 21
776.875325
 31
0.0
  0
LINE
  5
F7
100
AcDbEntity
  8
LAY-1
  6
CONTINUOUS
 62
     1
100
AcDbLine
 10
1111.522724
 20
775.75
 30
0.0
 11
1114.727206
 21
772.545518
 31
0.0
  0
LINE
  5
F8
100
AcDbEntity
  8
LAY-1
  6
CONTINUOUS
 62
     1
100
AcDbLine
 10
1109.077137
 20
777.797725
 30
0.0
 11
1109.999536
 21
776.875325
 31
0.0
  0
LINE
  5
F9
100
AcDbEntity
  8
LAY-1
  6
CONTINUOUS
 62
     1
100
AcDbLine
 10
1111.124861
 20
775.75
 30
0.0
 11
1114.727206
 21
772.147656
 31
0.0
  0
LINE
  5
FA
100
AcDbEntity
  8
LAY-1
  6
CONTINUOUS
 62
     1
100
AcDbLine
 10
1109.077137
 20
777.399862
 30
0.0
 11
1109.601674
 21
776.875325
 31
0.0
  0
LINE
  5
FB
100
AcDbEntity
  8
LAY-1
  6
CONTINUOUS
 62
     1
100
AcDbLine
 10
1110.726999
 20
775.75
 30
0.0
 11
1115.191382
 21
771.285617
 31
0.0
  0
LINE
  5
FC
100
AcDbEntity
  8
LAY-1
  6
CONTINUOUS
 62
     1
100
AcDbLine
 10
1109.077137
 20
777.002
 30
0.0
 11
1109.45818
 21
776.620956
 31
0.0
  0
LINE
  5
FD
100
AcDbEntity
  8
LAY-1
  6
CONTINUOUS
 62
     1
100
AcDbLine
 10
1110.329136
 20
775.75
 30
0.0
 11
1114.939148
 21
771.139989
 31
0.0
  0
LINE
  5
FE
100
AcDbEntity
  8
LAY-1
  6
CONTINUOUS
 62
     1
100
AcDbLine
 10
1109.077137
 20
776.604137
 30
0.0
 11
1109.337091
 21
776.344182
 31
0.0
  0
LINE
  5
FF
100
AcDbEntity
  8
LAY-1
  6
CONTINUOUS
 62
     1
100
AcDbLine
 10
1109.931274
 20
775.75
 30
0.0
 11
1114.686913
 21
770.994361
 31
0.0
  0
LINE
  5
100
100
AcDbEntity
  8
LAY-1
  6
CONTINUOUS
 62
     1
100
AcDbLine
 10
1109.077137
 20
776.206275
 30
0.0
 11
1109.216003
 21
776.067409
 31
0.0
  0
LINE
  5
101
100
AcDbEntity
  8
LAY-1
  6
CONTINUOUS
 62
     1
100
AcDbLine
 10
1109.533411
 20
775.75
 30
0.0
 11
1112.299835
 21
772.983576
 31
0.0
  0
LINE
  5
102
100
AcDbEntity
  8
LAY-1
  6
CONTINUOUS
 62
     1
100
AcDbLine
 10
1112.5
 20
772.783411
 30
0.0
 11
1114.434678
 21
770.848733
 31
0.0
  0
LINE
  5
103
100
AcDbEntity
  8
LAY-1
  6
CONTINUOUS
 62
     1
100
AcDbLine
 10
1109.077137
 20
775.808412
 30
0.0
 11
1109.094914
 21
775.790635
 31
0.0
  0
LINE
  5
104
100
AcDbEntity
  8
LAY-1
  6
CONTINUOUS
 62
     1
100
AcDbLine
 10
1109.135549
 20
775.75
 30
0.0
 11
1111.901973
 21
772.983576
 31
0.0
  0
LINE
  5
105
100
AcDbEntity
  8
LAY-1
  6
CONTINUOUS
 62
     1
100
AcDbLine
 10
1112.5
 20
772.385549
 30
0.0
 11
1114.182444
 21
770.703105
 31
0.0
  0
LINE
  5
106
100
AcDbEntity
  8
LAY-1
  6
CONTINUOUS
 62
     1
100
AcDbLine
 10
1108.737687
 20
775.75
 30
0.0
 11
1111.50411
 21
772.983576
 31
0.0
  0
LINE
  5
107
100
AcDbEntity
  8
LAY-1
  6
CONTINUOUS
 62
     1
100
AcDbLine
 10
1112.5
 20
771.987687
 30
0.0
 11
1113.930209
 21
770.557478
 31
0.0
  0
LINE
  5
108
100
AcDbEntity
  8
LAY-1
  6
CONTINUOUS
 62
     1
100
AcDbLine
 10
1108.339824
 20
775.75
 30
0.0
 11
1111.106248
 21
772.983576
 31
0.0
  0
LINE
  5
109
100
AcDbEntity
  8
LAY-1
  6
CONTINUOUS
 62
     1
100
AcDbLine
 10
1112.5
 20
771.589824
 30
0.0
 11
1113.677974
 21
770.41185
 31
0.0
  0
LINE
  5
10A
100
AcDbEntity
  8
LAY-1
  6
CONTINUOUS
 62
     1
100
AcDbLine
 10
1107.941962
 20
775.75
 30
0.0
 11
1110.708385
 21
772.983576
 31
0.0
  0
LINE
  5
10B
100
AcDbEntity
  8
LAY-1
  6
CONTINUOUS
 62
     1
100
AcDbLine
 10
1112.5
 20
771.191962
 30
0.0
 11
1113.425739
 21
770.266222
 31
0.0
  0
LINE
  5
10C
100
AcDbEntity
  8
LAY-1
  6
CONTINUOUS
 62
     1
100
AcDbLine
 10
1107.544099
 20
775.75
 30
0.0
 11
1110.310523
 21
772.983576
 31
0.0
  0
LINE
  5
10D
100
AcDbEntity
  8
LAY-1
  6
CONTINUOUS
 62
     1
100
AcDbLine
 10
1112.5
 20
770.794099
 30
0.0
 11
1113.173505
 21
770.120594
 31
0.0
  0
LINE
  5
10E
100
AcDbEntity
  8
LAY-1
  6
CONTINUOUS
 62
     1
100
AcDbLine
 10
1107.146237
 20
775.75
 30
0.0
 11
1109.912661
 21
772.983576
 31
0.0
  0
LINE
  5
10F
100
AcDbEntity
  8
LAY-1
  6
CONTINUOUS
 62
     1
100
AcDbLine
 10
1112.5
 20
770.396237
 30
0.0
 11
1112.92127
 21
769.974967
 31
0.0
  0
LINE
  5
110
100
AcDbEntity
  8
LAY-1
  6
CONTINUOUS
 62
     1
100
AcDbLine
 10
1106.748374
 20
775.75
 30
0.0
 11
1109.514798
 21
772.983576
 31
0.0
  0
LINE
  5
111
100
AcDbEntity
  8
LAY-1
  6
CONTINUOUS
 62
     1
100
AcDbLine
 10
1112.355375
 20
770.142999
 30
0.0
 11
1112.669035
 21
769.829339
 31
0.0
  0
LINE
  5
112
100
AcDbEntity
  8
LAY-1
  6
CONTINUOUS
 62
     1
100
AcDbLine
 10
1106.350512
 20
775.75
 30
0.0
 11
1109.116936
 21
772.983576
 31
0.0
  0
LINE
  5
113
100
AcDbEntity
  8
LAY-1
  6
CONTINUOUS
 62
     1
100
AcDbLine
 10
1112.209748
 20
769.890764
 30
0.0
 11
1112.416801
 21
769.683711
 31
0.0
  0
LINE
  5
114
100
AcDbEntity
  8
LAY-1
  6
CONTINUOUS
 62
     1
100
AcDbLine
 10
1105.952649
 20
775.75
 30
0.0
 11
1108.719073
 21
772.983576
 31
0.0
  0
LINE
  5
115
100
AcDbEntity
  8
LAY-1
  6
CONTINUOUS
 62
     1
100
AcDbLine
 10
1112.06412
 20
769.638529
 30
0.0
 11
1112.164566
 21
769.538083
 31
0.0
  0
LINE
  5
116
100
AcDbEntity
  8
LAY-1
  6
CONTINUOUS
 62
     1
100
AcDbLine
 10
1105.554787
 20
775.75
 30
0.0
 11
1108.321211
 21
772.983576
 31
0.0
  0
LINE
  5
117
100
AcDbEntity
  8
LAY-1
  6
CONTINUOUS
 62
     1
100
AcDbLine
 10
1105.156925
 20
775.75
 30
0.0
 11
1107.923348
 21
772.983576
 31
0.0
  0
LINE
  5
118
100
AcDbEntity
  8
LAY-1
  6
CONTINUOUS
 62
     1
100
AcDbLine
 10
1104.271061
 20
776.238001
 30
0.0
 11
1107.525486
 21
772.983576
 31
0.0
  0
LINE
  5
119
100
AcDbEntity
  8
LAY-1
  6
CONTINUOUS
 62
     1
100
AcDbLine
 10
1104.271061
 20
775.840138
 30
0.0
 11
1107.127623
 21
772.983576
 31
0.0
  0
LINE
  5
11A
100
AcDbEntity
  8
LAY-1
  6
CONTINUOUS
 62
     1
100
AcDbLine
 10
1104.271061
 20
775.442276
 30
0.0
 11
1106.729761
 21
772.983576
 31
0.0
  0
LINE
  5
11B
100
AcDbEntity
  8
LAY-1
  6
CONTINUOUS
 62
     1
100
AcDbLine
 10
1104.271061
 20
775.044413
 30
0.0
 11
1106.331899
 21
772.983576
 31
0.0
  0
LINE
  5
11C
100
AcDbEntity
  8
LAY-1
  6
CONTINUOUS
 62
     1
100
AcDbLine
 10
1104.271061
 20
774.646551
 30
0.0
 11
1105.934036
 21
772.983576
 31
0.0
  0
LINE
  5
11D
100
AcDbEntity
  8
LAY-1
  6
CONTINUOUS
 62
     1
100
AcDbLine
 10
1104.271061
 20
774.248688
 30
0.0
 11
1105.536174
 21
772.983576
 31
0.0
  0
LINE
  5
11E
100
AcDbEntity
  8
LAY-1
  6
CONTINUOUS
 62
     1
100
AcDbLine
 10
1104.271061
 20
773.850826
 30
0.0
 11
1105.138311
 21
772.983576
 31
0.0
  0
LINE
  5
11F
100
AcDbEntity
  8
LAY-1
  6
CONTINUOUS
 62
     1
100
AcDbLine
 10
1104.271061
 20
773.452964
 30
0.0
 11
1104.852487
 21
772.871538
 31
0.0
  0
LINE
  5
120
100
AcDbEntity
  8
LAY-1
  6
CONTINUOUS
 62
     1
100
AcDbLine
 10
1104.271061
 20
773.055101
 30
0.0
 11
1104.66639
 21
772.659772
 31
0.0
  0
LINE
  5
121
100
AcDbEntity
  8
LAY-1
  6
CONTINUOUS
 62
     1
100
AcDbLine
 10
1104.271061
 20
772.657239
 30
0.0
 11
1104.480293
 21
772.448007
 31
0.0
  0
LINE
  5
122
100
AcDbEntity
  8
LAY-1
  6
CONTINUOUS
 62
     1
100
AcDbLine
 10
1104.271061
 20
772.259376
 30
0.0
 11
1104.294196
 21
772.236241
 31
0.0
  0
LINE
  5
123
100
AcDbEntity
  8
LAY-1
  6
CONTINUOUS
 62
     1
100
AcDbLine
 10
1119.903993
 20
776.917429
 30
0.0
 11
1119.909445
 21
776.911977
 31
0.0
  0
LINE
  5
124
100
AcDbEntity
  8
LAY-1
  6
CONTINUOUS
 62
     1
100
AcDbLine
 10
1119.672327
 20
776.751233
 30
0.0
 11
1119.966612
 21
776.456948
 31
0.0
  0
LINE
  5
125
100
AcDbEntity
  8
LAY-1
  6
CONTINUOUS
 62
     1
100
AcDbLine
 10
1119.721421
 20
776.304276
 30
0.0
 11
1119.99474
 21
776.030957
 31
0.0
  0
LINE
  5
126
100
AcDbEntity
  8
LAY-1
  6
CONTINUOUS
 62
     1
100
AcDbLine
 10
1119.742939
 20
775.884896
 30
0.0
 11
1119.999025
 21
775.62881
 31
0.0
  0
LINE
  5
127
100
AcDbEntity
  8
LAY-1
  6
CONTINUOUS
 62
     1
100
AcDbLine
 10
1119.736676
 20
775.493296
 30
0.0
 11
1119.983109
 21
775.246863
 31
0.0
  0
LINE
  5
128
100
AcDbEntity
  8
LAY-1
  6
CONTINUOUS
 62
     1
100
AcDbLine
 10
1119.70749
 20
775.12462
 30
0.0
 11
1119.94966
 21
774.882451
 31
0.0
  0
LINE
  5
129
100
AcDbEntity
  8
LAY-1
  6
CONTINUOUS
 62
     1
100
AcDbLine
 10
1119.65879
 20
774.775457
 30
0.0
 11
1119.900697
 21
774.53355
 31
0.0
  0
LINE
  5
12A
100
AcDbEntity
  8
LAY-1
  6
CONTINUOUS
 62
     1
100
AcDbLine
 10
1119.59308
 20
774.443305
 30
0.0
 11
1119.837793
 21
774.198592
 31
0.0
  0
LINE
  5
12B
100
AcDbEntity
  8
LAY-1
  6
CONTINUOUS
 62
     1
100
AcDbLine
 10
1119.512254
 20
774.126269
 30
0.0
 11
1119.762192
 21
773.876331
 31
0.0
  0
LINE
  5
12C
100
AcDbEntity
  8
LAY-1
  6
CONTINUOUS
 62
     1
100
AcDbLine
 10
1119.417782
 20
773.822878
 30
0.0
 11
1119.674899
 21
773.565762
 31
0.0
  0
LINE
  5
12D
100
AcDbEntity
  8
LAY-1
  6
CONTINUOUS
 62
     1
100
AcDbLine
 10
1119.31083
 20
773.531968
 30
0.0
 11
1119.576732
 21
773.266066
 31
0.0
  0
LINE
  5
12E
100
AcDbEntity
  8
LAY-1
  6
CONTINUOUS
 62
     1
100
AcDbLine
 10
1119.192332
 20
773.252603
 30
0.0
 11
1119.468367
 21
772.976568
 31
0.0
  0
LINE
  5
12F
100
AcDbEntity
  8
LAY-1
  6
CONTINUOUS
 62
     1
100
AcDbLine
 10
1119.063048
 20
772.984025
 30
0.0
 11
1119.350364
 21
772.696709
 31
0.0
  0
LINE
  5
130
100
AcDbEntity
  8
LAY-1
  6
CONTINUOUS
 62
     1
100
AcDbLine
 10
1118.923597
 20
772.725613
 30
0.0
 11
1119.223187
 21
772.426023
 31
0.0
  0
LINE
  5
131
100
AcDbEntity
  8
LAY-1
  6
CONTINUOUS
 62
     1
100
AcDbLine
 10
1118.77449
 20
772.476858
 30
0.0
 11
1119.087226
 21
772.164122
 31
0.0
  0
LINE
  5
132
100
AcDbEntity
  8
LAY-1
  6
CONTINUOUS
 62
     1
100
AcDbLine
 10
1118.616146
 20
772.23734
 30
0.0
 11
1118.942803
 21
771.910683
 31
0.0
  0
LINE
  5
133
100
AcDbEntity
  8
LAY-1
  6
CONTINUOUS
 62
     1
100
AcDbLine
 10
1118.448905
 20
772.006718
 30
0.0
 11
1118.790185
 21
771.665438
 31
0.0
  0
LINE
  5
134
100
AcDbEntity
  8
LAY-1
  6
CONTINUOUS
 62
     1
100
AcDbLine
 10
1118.273046
 20
771.784715
 30
0.0
 11
1118.629589
 21
771.428171
 31
0.0
  0
LINE
  5
135
100
AcDbEntity
  8
LAY-1
  6
CONTINUOUS
 62
     1
100
AcDbLine
 10
1118.088788
 20
771.57111
 30
0.0
 11
1118.461191
 21
771.198707
 31
0.0
  0
LINE
  5
136
100
AcDbEntity
  8
LAY-1
  6
CONTINUOUS
 62
     1
100
AcDbLine
 10
1117.896303
 20
771.365733
 30
0.0
 11
1118.285126
 21
770.97691
 31
0.0
  0
LINE
  5
137
100
AcDbEntity
  8
LAY-1
  6
CONTINUOUS
 62
     1
100
AcDbLine
 10
1117.695713
 20
771.168461
 30
0.0
 11
1118.101493
 21
770.762681
 31
0.0
  0
LINE
  5
138
100
AcDbEntity
  8
LAY-1
  6
CONTINUOUS
 62
     1
100
AcDbLine
 10
1117.4871
 20
770.979211
 30
0.0
 11
1117.910357
 21
770.555954
 31
0.0
  0
LINE
  5
139
100
AcDbEntity
  8
LAY-1
  6
CONTINUOUS
 62
     1
100
AcDbLine
 10
1117.270507
 20
770.797942
 30
0.0
 11
1117.711752
 21
770.356697
 31
0.0
  0
LINE
  5
13A
100
AcDbEntity
  8
LAY-1
  6
CONTINUOUS
 62
     1
100
AcDbLine
 10
1117.045934
 20
770.624652
 30
0.0
 11
1117.505678
 21
770.164908
 31
0.0
  0
LINE
  5
13B
100
AcDbEntity
  8
LAY-1
  6
CONTINUOUS
 62
     1
100
AcDbLine
 10
1116.813343
 20
770.459381
 30
0.0
 11
1117.292107
 21
769.980617
 31
0.0
  0
LINE
  5
13C
100
AcDbEntity
  8
LAY-1
  6
CONTINUOUS
 62
     1
100
AcDbLine
 10
1116.572657
 20
770.302204
 30
0.0
 11
1117.070974
 21
769.803887
 31
0.0
  0
LINE
  5
13D
100
AcDbEntity
  8
LAY-1
  6
CONTINUOUS
 62
     1
100
AcDbLine
 10
1116.323756
 20
770.153243
 30
0.0
 11
1116.842185
 21
769.634814
 31
0.0
  0
LINE
  5
13E
100
AcDbEntity
  8
LAY-1
  6
CONTINUOUS
 62
     1
100
AcDbLine
 10
1116.066473
 20
770.012663
 30
0.0
 11
1116.605606
 21
769.47353
 31
0.0
  0
LINE
  5
13F
100
AcDbEntity
  8
LAY-1
  6
CONTINUOUS
 62
     1
100
AcDbLine
 10
1115.800593
 20
769.880681
 30
0.0
 11
1116.361067
 21
769.320207
 31
0.0
  0
LINE
  5
140
100
AcDbEntity
  8
LAY-1
  6
CONTINUOUS
 62
     1
100
AcDbLine
 10
1115.525843
 20
769.757568
 30
0.0
 11
1116.108353
 21
769.175058
 31
0.0
  0
LINE
  5
141
100
AcDbEntity
  8
LAY-1
  6
CONTINUOUS
 62
     1
100
AcDbLine
 10
1115.241889
 20
769.64366
 30
0.0
 11
1115.847203
 21
769.038346
 31
0.0
  0
LINE
  5
142
100
AcDbEntity
  8
LAY-1
  6
CONTINUOUS
 62
     1
100
AcDbLine
 10
1114.948318
 20
769.539369
 30
0.0
 11
1115.577299
 21
768.910387
 31
0.0
  0
LINE
  5
143
100
AcDbEntity
  8
LAY-1
  6
CONTINUOUS
 62
     1
100
AcDbLine
 10
1114.64463
 20
769.445194
 30
0.0
 11
1115.298259
 21
768.791565
 31
0.0
  0
LINE
  5
144
100
AcDbEntity
  8
LAY-1
  6
CONTINUOUS
 62
     1
100
AcDbLine
 10
1114.330214
 20
769.361748
 30
0.0
 11
1115.009624
 21
768.682337
 31
0.0
  0
LINE
  5
145
100
AcDbEntity
  8
LAY-1
  6
CONTINUOUS
 62
     1
100
AcDbLine
 10
1114.004326
 20
769.289774
 30
0.0
 11
1114.710844
 21
768.583255
 31
0.0
  0
LINE
  5
146
100
AcDbEntity
  8
LAY-1
  6
CONTINUOUS
 62
     1
100
AcDbLine
 10
1113.666046
 20
769.230191
 30
0.0
 11
1114.401256
 21
768.494981
 31
0.0
  0
LINE
  5
147
100
AcDbEntity
  8
LAY-1
  6
CONTINUOUS
 62
     1
100
AcDbLine
 10
1113.314234
 20
769.18414
 30
0.0
 11
1114.080052
 21
768.418322
 31
0.0
  0
LINE
  5
148
100
AcDbEntity
  8
LAY-1
  6
CONTINUOUS
 62
     1
100
AcDbLine
 10
1112.94745
 20
769.153062
 30
0.0
 11
1113.746249
 21
768.354263
 31
0.0
  0
LINE
  5
149
100
AcDbEntity
  8
LAY-1
  6
CONTINUOUS
 62
     1
100
AcDbLine
 10
1112.563841
 20
769.138809
 30
0.0
 11
1113.398624
 21
768.304025
 31
0.0
  0
LINE
  5
14A
100
AcDbEntity
  8
LAY-1
  6
CONTINUOUS
 62
     1
100
AcDbLine
 10
1112.160968
 20
769.143819
 30
0.0
 11
1113.03564
 21
768.269147
 31
0.0
  0
LINE
  5
14B
100
AcDbEntity
  8
LAY-1
  6
CONTINUOUS
 62
     1
100
AcDbLine
 10
1111.735517
 20
769.171408
 30
0.0
 11
1112.655321
 21
768.251604
 31
0.0
  0
LINE
  5
14C
100
AcDbEntity
  8
LAY-1
  6
CONTINUOUS
 62
     1
100
AcDbLine
 10
1111.282789
 20
769.226273
 30
0.0
 11
1112.255066
 21
768.253996
 31
0.0
  0
LINE
  5
14D
100
AcDbEntity
  8
LAY-1
  6
CONTINUOUS
 62
     1
100
AcDbLine
 10
1110.795734
 20
769.315465
 30
0.0
 11
1111.831338
 21
768.279862
 31
0.0
  0
LINE
  5
14E
100
AcDbEntity
  8
LAY-1
  6
CONTINUOUS
 62
     1
100
AcDbLine
 10
1110.262876
 20
769.450462
 30
0.0
 11
1111.379109
 21
768.334228
 31
0.0
  0
LINE
  5
14F
100
AcDbEntity
  8
LAY-1
  6
CONTINUOUS
 62
     1
100
AcDbLine
 10
1109.662988
 20
769.652487
 30
0.0
 11
1110.890814
 21
768.424661
 31
0.0
  0
LINE
  5
150
100
AcDbEntity
  8
LAY-1
  6
CONTINUOUS
 62
     1
100
AcDbLine
 10
1108.94671
 20
769.970903
 30
0.0
 11
1110.354058
 21
768.563554
 31
0.0
  0
LINE
  5
151
100
AcDbEntity
  8
LAY-1
  6
CONTINUOUS
 62
     1
100
AcDbLine
 10
1105.536174
 20
772.983576
 30
0.0
 11
1106.489391
 21
772.030359
 31
0.0
  0
LINE
  5
152
100
AcDbEntity
  8
LAY-1
  6
CONTINUOUS
 62
     1
100
AcDbLine
 10
1107.899407
 20
770.620343
 30
0.0
 11
1109.745703
 21
768.774047
 31
0.0
  0
LINE
  5
153
100
AcDbEntity
  8
LAY-1
  6
CONTINUOUS
 62
     1
100
AcDbLine
 10
1105.861025
 20
772.260862
 30
0.0
 11
1109.010862
 21
769.111025
 31
0.0
  0
LINE
  5
154
100
AcDbEntity
  8
LAY-1
  6
CONTINUOUS
 62
     1
100
AcDbLine
 10
1106.584328
 20
771.139697
 30
0.0
 11
1107.889697
 21
769.834328
 31
0.0
  0
LINE
  5
155
100
AcDbEntity
  8
LAY-1
  6
CONTINUOUS
 62
     2
100
AcDbLine
 10
1175.0
 20
596.25
 30
0.0
 11
1175.0
 21
608.284605
 31
0.0
  0
LINE
  5
156
100
AcDbEntity
  8
LAY-1
  6
CONTINUOUS
 62
     2
100
AcDbLine
 10
1175.0
 20
596.25
 30
0.0
 11
1112.5
 21
596.25
 31
0.0
  0
LINE
  5
157
100
AcDbEntity
  8
LAY-1
  6
CONTINUOUS
 62
     2
100
AcDbLine
 10
1112.5
 20
611.340942
 30
0.0
 11
1173.034905
 21
610.284301
 31
0.0
  0
ARC
  5
158
100
AcDbEntity
  8
LAY-1
  6
CONTINUOUS
 62
     2
100
AcDbCircle
 10
1173.0
 20
608.284605
 30
0.0
 40
2.0
100
AcDbArc
 50
0.0
 51
89.0
  0
ARC
  5
159
100
AcDbEntity
  8
LAY-1
  6
CONTINUOUS
 62
     2
100
AcDbCircle
 10
1142.5
 20
613.817747
 30
0.0
 40
3.0
100
AcDbArc
 50
180.0
 51
269.0
  0
LINE
  5
15A
100
AcDbEntity
  8
LAY-1
  6
CONTINUOUS
 62
     2
100
AcDbLine
 10
1050.0
 20
596.25
 30
0.0
 11
1050.0
 21
608.284605
 31
0.0
  0
LINE
  5
15B
100
AcDbEntity
  8
LAY-1
  6
CONTINUOUS
 62
     2
100
AcDbLine
 10
1050.0
 20
596.25
 30
0.0
 11
1112.5
 21
596.25
 31
0.0
  0
LINE
  5
15C
100
AcDbEntity
  8
LAY-1
  6
CONTINUOUS
 62
     2
100
AcDbLine
 10
1112.5
 20
611.340942
 30
0.0
 11
1051.965095
 21
610.284301
 31
0.0
  0
ARC
  5
15D
100
AcDbEntity
  8
LAY-1
  6
CONTINUOUS
 62
     2
100
AcDbCircle
 10
1052.0
 20
608.284605
 30
0.0
 40
2.0
100
AcDbArc
 50
91.0
 51
180.0
  0
ARC
  5
15E
100
AcDbEntity
  8
LAY-1
  6
CONTINUOUS
 62
     2
100
AcDbCircle
 10
1082.5
 20
613.817747
 30
0.0
 40
3.0
100
AcDbArc
 50
271.0
 51
0.0
  0
ARC
  5
15F
100
AcDbEntity
  8
LAY-1
  6
CONTINUOUS
 62
     2
100
AcDbCircle
 10
1192.5
 20
738.75
 30
0.0
 40
12.75
100
AcDbArc
 50
3.595619
 51
356.404381
  0
ARC
  5
160
100
AcDbEntity
  8
LAY-1
  6
CONTINUOUS
 62
     2
100
AcDbCircle
 10
1178.848727
 20
727.800445
 30
0.0
 40
3.0
100
AcDbArc
 50
38.732766
 51
170.628921
  0
ARC
  5
161
100
AcDbEntity
  8
LAY-1
  6
CONTINUOUS
 62
     2
100
AcDbCircle
 10
1178.848727
 20
749.699555
 30
0.0
 40
3.0
100
AcDbArc
 50
189.371079
 51
321.267234
  0
ARC
  5
162
100
AcDbEntity
  8
LAY-1
  6
CONTINUOUS
 62
     2
100
AcDbCircle
 10
1192.5
 20
738.75
 30
0.0
 40
14.5
100
AcDbArc
 50
218.732766
 51
141.267234
  0
ARC
  5
163
100
AcDbEntity
  8
LAY-1
  6
CONTINUOUS
 62
     2
100
AcDbCircle
 10
1112.5
 20
738.75
 30
0.0
 40
64.246163
100
AcDbArc
 50
191.836775
 51
350.628921
  0
ARC
  5
164
100
AcDbEntity
  8
LAY-1
  6
CONTINUOUS
 62
     2
100
AcDbCircle
 10
1112.5
 20
738.75
 30
0.0
 40
64.246163
100
AcDbArc
 50
9.371079
 51
168.163225
  0
CIRCLE
  5
165
100
AcDbEntity
  8
LAY-1
  6
CONTINUOUS
 62
     2
100
AcDbCircle
 10
1112.5
 20
738.75
 30
0.0
 40
20.5
  0
ARC
  5
166
100
AcDbEntity
  8
LAY-1
  6
CONTINUOUS
 62
     2
100
AcDbCircle
 10
1112.5
 20
738.75
 30
0.0
 40
83.453064
100
AcDbArc
 50
188.844814
 51
349.660662
  0
ARC
  5
167
100
AcDbEntity
  8
LAY-1
  6
CONTINUOUS
 62
     2
100
AcDbCircle
 10
1112.5
 20
738.75
 30
0.0
 40
83.453064
100
AcDbArc
 50
10.833445
 51
171.150742
  0
LINE
  5
168
100
AcDbEntity
  8
LAY-1
  6
CONTINUOUS
 62
     2
100
AcDbLine
 10
1080.0
 20
760.25
 30
0.0
 11
1072.0
 21
760.25
 31
0.0
  0
ARC
  5
169
100
AcDbEntity
  8
LAY-1
  6
CONTINUOUS
 62
     2
100
AcDbCircle
 10
1080.5
 20
719.25
 30
0.0
 40
2.0
100
AcDbArc
 50
270.0
 51
0.0
  0
LINE
  5
16A
100
AcDbEntity
  8
LAY-1
  6
CONTINUOUS
 62
     2
100
AcDbLine
 10
1071.5
 20
717.25
 30
0.0
 11
1080.5
 21
717.25
 31
0.0
  0
ARC
  5
16B
100
AcDbEntity
  8
LAY-1
  6
CONTINUOUS
 62
     2
100
AcDbCircle
 10
1071.5
 20
719.25
 30
0.0
 40
2.0
100
AcDbArc
 50
180.0
 51
270.0
  0
LINE
  5
16C
100
AcDbEntity
  8
LAY-1
  6
CONTINUOUS
 62
     2
100
AcDbLine
 10
1071.5
 20
760.25
 30
0.0
 11
1080.5
 21
760.25
 31
0.0
  0
LINE
  5
16D
100
AcDbEntity
  8
LAY-1
  6
CONTINUOUS
 62
     2
100
AcDbLine
 10
1082.5
 20
719.25
 30
0.0
 11
1082.5
 21
758.25
 31
0.0
  0
ARC
  5
16E
100
AcDbEntity
  8
LAY-1
  6
CONTINUOUS
 62
     2
100
AcDbCircle
 10
1080.5
 20
758.25
 30
0.0
 40
2.0
100
AcDbArc
 50
0.0
 51
90.0
  0
CIRCLE
  5
16F
100
AcDbEntity
  8
LAY-1
  6
CONTINUOUS
 62
     2
100
AcDbCircle
 10
1076.0
 20
722.0
 30
0.0
 40
1.0
  0
ARC
  5
170
100
AcDbEntity
  8
LAY-1
  6
CONTINUOUS
 62
     2
100
AcDbCircle
 10
1071.726453
 20
758.03482
 30
0.0
 40
2.226725
100
AcDbArc
 50
95.836941
 51
180.89598
  0
CIRCLE
  5
171
100
AcDbEntity
  8
LAY-1
  6
CONTINUOUS
 62
     2
100
AcDbCircle
 10
1076.0
 20
755.5
 30
0.0
 40
1.0
  0
LINE
  5
172
100
AcDbEntity
  8
LAY-1
  6
CONTINUOUS
 62
     2
100
AcDbLine
 10
1069.5
 20
758.0
 30
0.0
 11
1069.5
 21
719.25
 31
0.0
  0
ARC
  5
173
100
AcDbEntity
  8
LAY-1
  6
CONTINUOUS
 62
     2
100
AcDbCircle
 10
1050.559893
 20
749.75
 30
0.0
 40
2.0
100
AcDbArc
 50
262.664274
 51
310.722759
  0
ARC
  5
174
100
AcDbEntity
  8
LAY-1
  6
CONTINUOUS
 62
     2
100
AcDbCircle
 10
1050.559893
 20
727.75
 30
0.0
 40
2.0
100
AcDbArc
 50
49.277241
 51
97.335726
  0
LINE
  5
175
100
AcDbEntity
  8
LAY-1
  6
CONTINUOUS
 62
     2
100
AcDbLine
 10
1050.559893
 20
729.75
 30
0.0
 11
1031.328427
 21
729.75
 31
0.0
  0
LINE
  5
176
100
AcDbEntity
  8
LAY-1
  6
CONTINUOUS
 62
     2
100
AcDbLine
 10
1050.559893
 20
747.75
 30
0.0
 11
1031.328427
 21
747.75
 31
0.0
  0
CIRCLE
  5
177
100
AcDbEntity
  8
LAY-1
  6
CONTINUOUS
 62
     2
100
AcDbCircle
 10
1112.5
 20
738.75
 30
0.0
 40
13.0
  0
LINE
  5
178
100
AcDbEntity
  8
LAY-1
  6
CONTINUOUS
 62
     2
100
AcDbLine
 10
1104.994447
 20
725.75
 30
0.0
 11
1120.005553
 21
725.75
 31
0.0
  0
LINE
  5
179
100
AcDbEntity
  8
LAY-1
  6
CONTINUOUS
 62
     2
100
AcDbLine
 10
1120.005553
 20
725.75
 30
0.0
 11
1127.511107
 21
738.75
 31
0.0
  0
LINE
  5
17A
100
AcDbEntity
  8
LAY-1
  6
CONTINUOUS
 62
     2
100
AcDbLine
 10
1127.511107
 20
738.75
 30
0.0
 11
1120.005553
 21
751.75
 31
0.0
  0
LINE
  5
17B
100
AcDbEntity
  8
LAY-1
  6
CONTINUOUS
 62
     2
100
AcDbLine
 10
1120.005553
 20
751.75
 30
0.0
 11
1104.994447
 21
751.75
 31
0.0
  0
LINE
  5
17C
100
AcDbEntity
  8
LAY-1
  6
CONTINUOUS
 62
     2
100
AcDbLine
 10
1104.994447
 20
751.75
 30
0.0
 11
1097.488893
 21
738.75
 31
0.0
  0
LINE
  5
17D
100
AcDbEntity
  8
LAY-1
  6
CONTINUOUS
 62
     2
100
AcDbLine
 10
1097.488893
 20
738.75
 30
0.0
 11
1104.994447
 21
725.75
 31
0.0
  0
LINE
  5
17E
100
AcDbEntity
  8
LAY-1
  6
CONTINUOUS
 62
     2
100
AcDbLine
 10
783.384317
 20
722.29885
 30
0.0
 11
857.595384
 21
722.29885
 31
0.0
  0
ARC
  5
17F
100
AcDbEntity
  8
LAY-1
  6
CONTINUOUS
 62
     2
100
AcDbCircle
 10
857.595384
 20
727.29885
 30
0.0
 40
5.0
100
AcDbArc
 50
270.0
 51
320.492811
  0
ARC
  5
180
100
AcDbEntity
  8
LAY-1
  6
CONTINUOUS
 62
     2
100
AcDbCircle
 10
843.707578
 20
738.75
 30
0.0
 40
23.0
100
AcDbArc
 50
320.492811
 51
0.0
  0
ARC
  5
181
100
AcDbEntity
  8
LAY-1
  6
CONTINUOUS
 62
     2
100
AcDbCircle
 10
843.707578
 20
738.75
 30
0.0
 40
23.0
100
AcDbArc
 50
0.0
 51
39.507189
  0
ARC
  5
182
100
AcDbEntity
  8
LAY-1
  6
CONTINUOUS
 62
     2
100
AcDbCircle
 10
857.595384
 20
750.201151
 30
0.0
 40
5.0
100
AcDbArc
 50
39.507189
 51
90.0
  0
LINE
  5
183
100
AcDbEntity
  8
LAY-1
  6
CONTINUOUS
 62
     2
100
AcDbLine
 10
783.384317
 20
755.201151
 30
0.0
 11
857.595384
 21
755.201151
 31
0.0
  0
ARC
  5
184
100
AcDbEntity
  8
LAY-1
  6
CONTINUOUS
 62
     2
100
AcDbCircle
 10
613.482199
 20
752.309951
 30
0.0
 40
2.0
100
AcDbArc
 50
180.0
 51
268.0
  0
LINE
  5
185
100
AcDbEntity
  8
LAY-1
  6
CONTINUOUS
 62
     2
100
AcDbLine
 10
629.482199
 20
749.75
 30
0.0
 11
613.4124
 21
750.31117
 31
0.0
  0
ARC
  5
186
100
AcDbEntity
  8
LAY-1
  6
CONTINUOUS
 62
     2
100
AcDbCircle
 10
613.482199
 20
725.190049
 30
0.0
 40
2.0
100
AcDbArc
 50
92.0
 51
180.0
  0
LINE
  5
187
100
AcDbEntity
  8
LAY-1
  6
CONTINUOUS
 62
     2
100
AcDbLine
 10
629.482199
 20
727.75
 30
0.0
 11
613.4124
 21
727.18883
 31
0.0
  0
ARC
  5
188
100
AcDbEntity
  8
LAY-1
  6
CONTINUOUS
 62
     2
100
AcDbCircle
 10
629.482199
 20
738.75
 30
0.0
 40
11.0
100
AcDbArc
 50
270.0
 51
90.0
  0
CIRCLE
  5
189
100
AcDbEntity
  8
LAY-1
  6
CONTINUOUS
 62
     2
100
AcDbCircle
 10
629.482199
 20
738.75
 30
0.0
 40
8.5
  0
LINE
  5
18A
100
AcDbEntity
  8
LAY-1
  6
CONTINUOUS
 62
     2
100
AcDbLine
 10
596.482199
 20
850.75
 30
0.0
 11
596.482199
 21
626.75
 31
0.0
  0
LINE
  5
18B
100
AcDbEntity
  8
LAY-1
  6
CONTINUOUS
 62
     2
100
AcDbLine
 10
594.5
 20
850.75
 30
0.0
 11
594.5
 21
626.75
 31
0.0
  0
LINE
  5
18C
100
AcDbEntity
  8
LAY-1
  6
CONTINUOUS
 62
     2
100
AcDbLine
 10
750.701923
 20
710.82617
 30
0.0
 11
748.810361
 21
692.829161
 31
0.0
  0
ARC
  5
18D
100
AcDbEntity
  8
LAY-1
  6
CONTINUOUS
 62
     2
100
AcDbCircle
 10
733.892689
 20
783.101421
 30
0.0
 40
15.0
100
AcDbArc
 50
6.0
 51
87.5304
  0
ARC
  5
18E
100
AcDbEntity
  8
LAY-1
  6
CONTINUOUS
 62
     2
100
AcDbCircle
 10
750.856172
 20
764.723536
 30
0.0
 40
2.0
100
AcDbArc
 50
10.0
 51
94.26083
  0
ARC
  5
18F
100
AcDbEntity
  8
LAY-1
  6
CONTINUOUS
 62
     2
100
AcDbCircle
 10
754.98757
 20
764.25
 30
0.0
 40
2.0
100
AcDbArc
 50
189.335443
 51
270.0
  0
LINE
  5
190
100
AcDbEntity
  8
LAY-1
  6
CONTINUOUS
 62
     2
100
AcDbLine
 10
752.825788
 20
765.070833
 30
0.0
 11
753.014059
 21
763.925572
 31
0.0
  0
LINE
  5
191
100
AcDbEntity
  8
LAY-1
  6
CONTINUOUS
 62
     2
100
AcDbLine
 10
751.250856
 20
766.718009
 30
0.0
 11
751.241749
 21
766.718009
 31
0.0
  0
LINE
  5
192
100
AcDbEntity
  8
LAY-1
  6
CONTINUOUS
 62
     2
100
AcDbLine
 10
754.98757
 20
762.25
 30
0.0
 11
760.34116
 21
762.25
 31
0.0
  0
ARC
  5
193
100
AcDbEntity
  8
LAY-1
  6
CONTINUOUS
 62
     2
100
AcDbCircle
 10
760.34116
 20
757.25
 30
0.0
 40
5.0
100
AcDbArc
 50
30.0
 51
90.0
  0
ARC
  5
194
100
AcDbEntity
  8
LAY-1
  6
CONTINUOUS
 62
     2
100
AcDbCircle
 10
767.269363
 20
761.25
 30
0.0
 40
3.0
100
AcDbArc
 50
210.0
 51
270.0
  0
LINE
  5
195
100
AcDbEntity
  8
LAY-1
  6
CONTINUOUS
 62
     2
100
AcDbLine
 10
767.269363
 20
758.25
 30
0.0
 11
775.959962
 21
758.25
 31
0.0
  0
ARC
  5
196
100
AcDbEntity
  8
LAY-1
  6
CONTINUOUS
 62
     2
100
AcDbCircle
 10
775.959962
 20
753.25
 30
0.0
 40
5.0
100
AcDbArc
 50
60.0
 51
90.0
  0
LINE
  5
197
100
AcDbEntity
  8
LAY-1
  6
CONTINUOUS
 62
     2
100
AcDbLine
 10
778.459962
 20
757.580127
 30
0.0
 11
781.884317
 21
755.603075
 31
0.0
  0
ARC
  5
198
100
AcDbEntity
  8
LAY-1
  6
CONTINUOUS
 62
     2
100
AcDbCircle
 10
783.384317
 20
758.201151
 30
0.0
 40
3.0
100
AcDbArc
 50
240.0
 51
270.0
  0
ARC
  5
199
100
AcDbEntity
  8
LAY-1
  6
CONTINUOUS
 62
     2
100
AcDbCircle
 10
783.384317
 20
719.29885
 30
0.0
 40
3.0
100
AcDbArc
 50
90.0
 51
120.0
  0
LINE
  5
19A
100
AcDbEntity
  8
LAY-1
  6
CONTINUOUS
 62
     2
100
AcDbLine
 10
778.459962
 20
719.919873
 30
0.0
 11
781.884317
 21
721.896926
 31
0.0
  0
ARC
  5
19B
100
AcDbEntity
  8
LAY-1
  6
CONTINUOUS
 62
     2
100
AcDbCircle
 10
775.959962
 20
724.25
 30
0.0
 40
5.0
100
AcDbArc
 50
270.0
 51
300.0
  0
LINE
  5
19C
100
AcDbEntity
  8
LAY-1
  6
CONTINUOUS
 62
     2
100
AcDbLine
 10
767.269363
 20
719.25
 30
0.0
 11
775.959962
 21
719.25
 31
0.0
  0
ARC
  5
19D
100
AcDbEntity
  8
LAY-1
  6
CONTINUOUS
 62
     2
100
AcDbCircle
 10
767.269363
 20
716.25
 30
0.0
 40
3.0
100
AcDbArc
 50
90.0
 51
150.0
  0
ARC
  5
19E
100
AcDbEntity
  8
LAY-1
  6
CONTINUOUS
 62
     2
100
AcDbCircle
 10
760.34116
 20
720.25
 30
0.0
 40
5.0
100
AcDbArc
 50
270.0
 51
330.0
  0
LINE
  5
19F
100
AcDbEntity
  8
LAY-1
  6
CONTINUOUS
 62
     2
100
AcDbLine
 10
754.98757
 20
715.25
 30
0.0
 11
760.34116
 21
715.25
 31
0.0
  0
ARC
  5
1A0
100
AcDbEntity
  8
LAY-1
  6
CONTINUOUS
 62
     2
100
AcDbCircle
 10
754.98757
 20
713.25
 30
0.0
 40
2.0
100
AcDbArc
 50
90.0
 51
170.664557
  0
LINE
  5
1A1
100
AcDbEntity
  8
LAY-1
  6
CONTINUOUS
 62
     2
100
AcDbLine
 10
752.825788
 20
712.429168
 30
0.0
 11
753.014059
 21
713.574429
 31
0.0
  0
ARC
  5
1A2
100
AcDbEntity
  8
LAY-1
  6
CONTINUOUS
 62
     2
100
AcDbCircle
 10
750.856172
 20
712.776464
 30
0.0
 40
2.0
100
AcDbArc
 50
265.73917
 51
350.0
  0
LINE
  5
1A3
100
AcDbEntity
  8
LAY-1
  6
CONTINUOUS
 62
     2
100
AcDbLine
 10
751.250856
 20
710.781992
 30
0.0
 11
751.241749
 21
710.781992
 31
0.0
  0
LINE
  5
1A4
100
AcDbEntity
  8
LAY-1
  6
CONTINUOUS
 62
     2
100
AcDbLine
 10
596.482199
 20
626.75
 30
0.0
 11
609.482199
 21
626.75
 31
0.0
  0
ARC
  5
1A5
100
AcDbEntity
  8
LAY-1
  6
CONTINUOUS
 62
     2
100
AcDbCircle
 10
609.482199
 20
628.75
 30
0.0
 40
2.0
100
AcDbArc
 50
270.0
 51
0.0
  0
ARC
  5
1A6
100
AcDbEntity
  8
LAY-1
  6
CONTINUOUS
 62
     2
100
AcDbCircle
 10
626.982199
 20
668.768076
 30
0.0
 40
6.0
100
AcDbArc
 50
92.4696
 51
180.0
  0
LINE
  5
1A7
100
AcDbEntity
  8
LAY-1
  6
CONTINUOUS
 62
     2
100
AcDbLine
 10
594.5
 20
626.75
 30
0.0
 11
609.460608
 21
626.75
 31
0.0
  0
ARC
  5
1A8
100
AcDbEntity
  8
LAY-1
  6
CONTINUOUS
 62
     2
100
AcDbCircle
 10
626.982199
 20
808.731925
 30
0.0
 40
6.0
100
AcDbArc
 50
180.0
 51
267.5304
  0
LINE
  5
1A9
100
AcDbEntity
  8
LAY-1
  6
CONTINUOUS
 62
     2
100
AcDbLine
 10
641.352931
 20
802.106546
 30
0.0
 11
626.723663
 21
802.737498
 31
0.0
  0
LINE
  5
1AA
100
AcDbEntity
  8
LAY-1
  6
CONTINUOUS
 62
     2
100
AcDbLine
 10
596.482199
 20
850.75
 30
0.0
 11
609.482199
 21
850.75
 31
0.0
  0
ARC
  5
1AB
100
AcDbEntity
  8
LAY-1
  6
CONTINUOUS
 62
     2
100
AcDbCircle
 10
609.482199
 20
848.75
 30
0.0
 40
2.0
100
AcDbArc
 50
0.0
 51
90.0
  0
LINE
  5
1AC
100
AcDbEntity
  8
LAY-1
  6
CONTINUOUS
 62
     2
100
AcDbLine
 10
734.539029
 20
798.087489
 30
0.0
 11
641.352931
 21
802.106546
 31
0.0
  0
LINE
  5
1AD
100
AcDbEntity
  8
LAY-1
  6
CONTINUOUS
 62
     2
100
AcDbLine
 10
734.539029
 20
679.412512
 30
0.0
 11
626.723663
 21
674.762503
 31
0.0
  0
ARC
  5
1AE
100
AcDbEntity
  8
LAY-1
  6
CONTINUOUS
 62
     2
100
AcDbCircle
 10
733.892689
 20
694.39858
 30
0.0
 40
15.0
100
AcDbArc
 50
272.4696
 51
354.0
  0
LINE
  5
1AF
100
AcDbEntity
  8
LAY-1
  6
CONTINUOUS
 62
     2
100
AcDbLine
 10
750.701923
 20
766.67383
 30
0.0
 11
748.810518
 21
784.669347
 31
0.0
  0
LINE
  5
1B0
100
AcDbEntity
  8
LAY-1
  6
CONTINUOUS
 62
     2
100
AcDbLine
 10
1441.615683
 20
722.29885
 30
0.0
 11
1367.404616
 21
722.29885
 31
0.0
  0
ARC
  5
1B1
100
AcDbEntity
  8
LAY-1
  6
CONTINUOUS
 62
     2
100
AcDbCircle
 10
1367.404616
 20
727.29885
 30
0.0
 40
5.0
100
AcDbArc
 50
219.507189
 51
270.0
  0
ARC
  5
1B2
100
AcDbEntity
  8
LAY-1
  6
CONTINUOUS
 62
     2
100
AcDbCircle
 10
1381.292422
 20
738.75
 30
0.0
 40
23.0
100
AcDbArc
 50
180.0
 51
219.507189
  0
ARC
  5
1B3
100
AcDbEntity
  8
LAY-1
  6
CONTINUOUS
 62
     2
100
AcDbCircle
 10
1381.292422
 20
738.75
 30
0.0
 40
23.0
100
AcDbArc
 50
140.492811
 51
180.0
  0
ARC
  5
1B4
100
AcDbEntity
  8
LAY-1
  6
CONTINUOUS
 62
     2
100
AcDbCircle
 10
1367.404616
 20
750.201151
 30
0.0
 40
5.0
100
AcDbArc
 50
90.0
 51
140.492811
  0
LINE
  5
1B5
100
AcDbEntity
  8
LAY-1
  6
CONTINUOUS
 62
     2
100
AcDbLine
 10
1441.615683
 20
755.201151
 30
0.0
 11
1367.404616
 21
755.201151
 31
0.0
  0
LINE
  5
1B6
100
AcDbEntity
  8
LAY-1
  6
CONTINUOUS
 62
     2
100
AcDbLine
 10
1474.298077
 20
710.82617
 30
0.0
 11
1476.189639
 21
692.829161
 31
0.0
  0
LINE
  5
1B7
100
AcDbEntity
  8
LAY-1
  6
CONTINUOUS
 62
     2
100
AcDbLine
 10
1474.298077
 20
766.67383
 30
0.0
 11
1475.929706
 21
782.197736
 31
0.0
  0
LINE
  5
1B8
100
AcDbEntity
  8
LAY-1
  6
CONTINUOUS
 62
     2
100
AcDbLine
 10
1475.929706
 20
782.197736
 30
0.0
 11
1476.189639
 21
784.67084
 31
0.0
  0
LINE
  5
1B9
100
AcDbEntity
  8
LAY-1
  6
CONTINUOUS
 62
     2
100
AcDbLine
 10
1475.929706
 20
782.197736
 30
0.0
 11
1476.189482
 21
784.669347
 31
0.0
  0
ARC
  5
1BA
100
AcDbEntity
  8
LAY-1
  6
CONTINUOUS
 62
     2
100
AcDbCircle
 10
1491.107311
 20
783.101421
 30
0.0
 40
15.0
100
AcDbArc
 50
92.4696
 51
174.0
  0
ARC
  5
1BB
100
AcDbEntity
  8
LAY-1
  6
CONTINUOUS
 62
     2
100
AcDbCircle
 10
1474.143828
 20
764.723536
 30
0.0
 40
2.0
100
AcDbArc
 50
85.73917
 51
170.0
  0
ARC
  5
1BC
100
AcDbEntity
  8
LAY-1
  6
CONTINUOUS
 62
     2
100
AcDbCircle
 10
1470.01243
 20
764.25
 30
0.0
 40
2.0
100
AcDbArc
 50
270.0
 51
350.664557
  0
LINE
  5
1BD
100
AcDbEntity
  8
LAY-1
  6
CONTINUOUS
 62
     2
100
AcDbLine
 10
1472.174212
 20
765.070833
 30
0.0
 11
1471.985941
 21
763.925572
 31
0.0
  0
LINE
  5
1BE
100
AcDbEntity
  8
LAY-1
  6
CONTINUOUS
 62
     2
100
AcDbLine
 10
1473.749144
 20
766.718009
 30
0.0
 11
1473.758251
 21
766.718009
 31
0.0
  0
LINE
  5
1BF
100
AcDbEntity
  8
LAY-1
  6
CONTINUOUS
 62
     2
100
AcDbLine
 10
1470.01243
 20
762.25
 30
0.0
 11
1464.65884
 21
762.25
 31
0.0
  0
ARC
  5
1C0
100
AcDbEntity
  8
LAY-1
  6
CONTINUOUS
 62
     2
100
AcDbCircle
 10
1464.65884
 20
757.25
 30
0.0
 40
5.0
100
AcDbArc
 50
90.0
 51
150.0
  0
ARC
  5
1C1
100
AcDbEntity
  8
LAY-1
  6
CONTINUOUS
 62
     2
100
AcDbCircle
 10
1457.730637
 20
761.25
 30
0.0
 40
3.0
100
AcDbArc
 50
270.0
 51
330.0
  0
LINE
  5
1C2
100
AcDbEntity
  8
LAY-1
  6
CONTINUOUS
 62
     2
100
AcDbLine
 10
1457.730637
 20
758.25
 30
0.0
 11
1449.040038
 21
758.25
 31
0.0
  0
ARC
  5
1C3
100
AcDbEntity
  8
LAY-1
  6
CONTINUOUS
 62
     2
100
AcDbCircle
 10
1449.040038
 20
753.25
 30
0.0
 40
5.0
100
AcDbArc
 50
90.0
 51
120.0
  0
LINE
  5
1C4
100
AcDbEntity
  8
LAY-1
  6
CONTINUOUS
 62
     2
100
AcDbLine
 10
1446.540038
 20
757.580127
 30
0.0
 11
1443.115683
 21
755.603075
 31
0.0
  0
ARC
  5
1C5
100
AcDbEntity
  8
LAY-1
  6
CONTINUOUS
 62
     2
100
AcDbCircle
 10
1441.615683
 20
758.201151
 30
0.0
 40
3.0
100
AcDbArc
 50
270.0
 51
300.0
  0
ARC
  5
1C6
100
AcDbEntity
  8
LAY-1
  6
CONTINUOUS
 62
     2
100
AcDbCircle
 10
1441.615683
 20
719.29885
 30
0.0
 40
3.0
100
AcDbArc
 50
60.0
 51
90.0
  0
LINE
  5
1C7
100
AcDbEntity
  8
LAY-1
  6
CONTINUOUS
 62
     2
100
AcDbLine
 10
1446.540038
 20
719.919873
 30
0.0
 11
1443.115683
 21
721.896926
 31
0.0
  0
ARC
  5
1C8
100
AcDbEntity
  8
LAY-1
  6
CONTINUOUS
 62
     2
100
AcDbCircle
 10
1449.040038
 20
724.25
 30
0.0
 40
5.0
100
AcDbArc
 50
240.0
 51
270.0
  0
LINE
  5
1C9
100
AcDbEntity
  8
LAY-1
  6
CONTINUOUS
 62
     2
100
AcDbLine
 10
1457.730637
 20
719.25
 30
0.0
 11
1449.040038
 21
719.25
 31
0.0
  0
ARC
  5
1CA
100
AcDbEntity
  8
LAY-1
  6
CONTINUOUS
 62
     2
100
AcDbCircle
 10
1457.730637
 20
716.25
 30
0.0
 40
3.0
100
AcDbArc
 50
30.0
 51
90.0
  0
ARC
  5
1CB
100
AcDbEntity
  8
LAY-1
  6
CONTINUOUS
 62
     2
100
AcDbCircle
 10
1464.65884
 20
720.25
 30
0.0
 40
5.0
100
AcDbArc
 50
210.0
 51
270.0
  0
LINE
  5
1CC
100
AcDbEntity
  8
LAY-1
  6
CONTINUOUS
 62
     2
100
AcDbLine
 10
1470.01243
 20
715.25
 30
0.0
 11
1464.65884
 21
715.25
 31
0.0
  0
ARC
  5
1CD
100
AcDbEntity
  8
LAY-1
  6
CONTINUOUS
 62
     2
100
AcDbCircle
 10
1470.01243
 20
713.25
 30
0.0
 40
2.0
100
AcDbArc
 50
9.335443
 51
90.0
  0
LINE
  5
1CE
100
AcDbEntity
  8
LAY-1
  6
CONTINUOUS
 62
     2
100
AcDbLine
 10
1472.174212
 20
712.429168
 30
0.0
 11
1471.985941
 21
713.574429
 31
0.0
  0
ARC
  5
1CF
100
AcDbEntity
  8
LAY-1
  6
CONTINUOUS
 62
     2
100
AcDbCircle
 10
1474.143828
 20
712.776464
 30
0.0
 40
2.0
100
AcDbArc
 50
190.0
 51
274.26083
  0
LINE
  5
1D0
100
AcDbEntity
  8
LAY-1
  6
CONTINUOUS
 62
     2
100
AcDbLine
 10
1473.749144
 20
710.781992
 30
0.0
 11
1473.758251
 21
710.781992
 31
0.0
  0
LINE
  5
1D1
100
AcDbEntity
  8
LAY-1
  6
CONTINUOUS
 62
     2
100
AcDbLine
 10
1490.460971
 20
798.087489
 30
0.0
 11
1583.647069
 21
802.106546
 31
0.0
  0
LINE
  5
1D2
100
AcDbEntity
  8
LAY-1
  6
CONTINUOUS
 62
     2
100
AcDbLine
 10
1490.460971
 20
679.412512
 30
0.0
 11
1598.276337
 21
674.762503
 31
0.0
  0
ARC
  5
1D3
100
AcDbEntity
  8
LAY-1
  6
CONTINUOUS
 62
     2
100
AcDbCircle
 10
1491.107311
 20
694.39858
 30
0.0
 40
15.0
100
AcDbArc
 50
186.0
 51
267.5304
  0
LINE
  5
1D4
100
AcDbEntity
  8
LAY-1
  6
CONTINUOUS
 62
     2
100
AcDbLine
 10
1140.466938
 20
1109.029204
 30
0.0
 11
1158.42084
 21
1110.916235
 31
0.0
  0
ARC
  5
1D5
100
AcDbEntity
  8
LAY-1
  6
CONTINUOUS
 62
     2
100
AcDbCircle
 10
1087.0
 20
1104.739026
 30
0.0
 40
2.0
100
AcDbArc
 50
0.0
 51
80.664557
  0
LINE
  5
1D6
100
AcDbEntity
  8
LAY-1
  6
CONTINUOUS
 62
     2
100
AcDbLine
 10
1089.0
 20
1104.739026
 30
0.0
 11
1089.0
 21
1099.385436
 31
0.0
  0
ARC
  5
1D7
100
AcDbEntity
  8
LAY-1
  6
CONTINUOUS
 62
     2
100
AcDbCircle
 10
1094.0
 20
1099.385436
 30
0.0
 40
5.0
100
AcDbArc
 50
180.0
 51
240.0
  0
ARC
  5
1D8
100
AcDbEntity
  8
LAY-1
  6
CONTINUOUS
 62
     2
100
AcDbCircle
 10
1090.0
 20
1092.457233
 30
0.0
 40
3.0
100
AcDbArc
 50
0.0
 51
60.0
  0
LINE
  5
1D9
100
AcDbEntity
  8
LAY-1
  6
CONTINUOUS
 62
     2
100
AcDbLine
 10
1093.0
 20
1092.457233
 30
0.0
 11
1093.0
 21
1083.766634
 31
0.0
  0
ARC
  5
1DA
100
AcDbEntity
  8
LAY-1
  6
CONTINUOUS
 62
     2
100
AcDbCircle
 10
1098.0
 20
1083.766634
 30
0.0
 40
5.0
100
AcDbArc
 50
180.0
 51
210.0
  0
LINE
  5
1DB
100
AcDbEntity
  8
LAY-1
  6
CONTINUOUS
 62
     2
100
AcDbLine
 10
1093.669873
 20
1081.266634
 30
0.0
 11
1095.646926
 21
1077.842279
 31
0.0
  0
ARC
  5
1DC
100
AcDbEntity
  8
LAY-1
  6
CONTINUOUS
 62
     2
100
AcDbCircle
 10
1093.04885
 20
1076.342279
 30
0.0
 40
3.0
100
AcDbArc
 50
0.0
 51
30.0
  0
ARC
  5
1DD
100
AcDbEntity
  8
LAY-1
  6
CONTINUOUS
 62
     2
100
AcDbCircle
 10
1131.951151
 20
1076.342279
 30
0.0
 40
3.0
100
AcDbArc
 50
150.0
 51
180.0
  0
LINE
  5
1DE
100
AcDbEntity
  8
LAY-1
  6
CONTINUOUS
 62
     2
100
AcDbLine
 10
1131.330127
 20
1081.266634
 30
0.0
 11
1129.353075
 21
1077.842279
 31
0.0
  0
ARC
  5
1DF
100
AcDbEntity
  8
LAY-1
  6
CONTINUOUS
 62
     2
100
AcDbCircle
 10
1127.0
 20
1083.766634
 30
0.0
 40
5.0
100
AcDbArc
 50
330.0
 51
0.0
  0
LINE
  5
1E0
100
AcDbEntity
  8
LAY-1
  6
CONTINUOUS
 62
     2
100
AcDbLine
 10
1132.0
 20
1092.457233
 30
0.0
 11
1132.0
 21
1083.766634
 31
0.0
  0
ARC
  5
1E1
100
AcDbEntity
  8
LAY-1
  6
CONTINUOUS
 62
     2
100
AcDbCircle
 10
1135.0
 20
1092.457233
 30
0.0
 40
3.0
100
AcDbArc
 50
120.0
 51
180.0
  0
ARC
  5
1E2
100
AcDbEntity
  8
LAY-1
  6
CONTINUOUS
 62
     2
100
AcDbCircle
 10
1131.0
 20
1099.385436
 30
0.0
 40
5.0
100
AcDbArc
 50
300.0
 51
0.0
  0
LINE
  5
1E3
100
AcDbEntity
  8
LAY-1
  6
CONTINUOUS
 62
     2
100
AcDbLine
 10
1136.0
 20
1104.739026
 30
0.0
 11
1136.0
 21
1099.385436
 31
0.0
  0
LINE
  5
1E4
100
AcDbEntity
  8
LAY-1
  6
CONTINUOUS
 62
     2
100
AcDbLine
 10
1140.468009
 20
1108.47574
 30
0.0
 11
1140.468009
 21
1108.484847
 31
0.0
  0
LINE
  5
1E5
100
AcDbEntity
  8
LAY-1
  6
CONTINUOUS
 62
     2
100
AcDbLine
 10
1138.820833
 20
1106.900808
 30
0.0
 11
1137.675572
 21
1106.712537
 31
0.0
  0
ARC
  5
1E6
100
AcDbEntity
  8
LAY-1
  6
CONTINUOUS
 62
     2
100
AcDbCircle
 10
1138.0
 20
1104.739026
 30
0.0
 40
2.0
100
AcDbArc
 50
99.335443
 51
180.0
  0
ARC
  5
1E7
100
AcDbEntity
  8
LAY-1
  6
CONTINUOUS
 62
     2
100
AcDbCircle
 10
1138.473536
 20
1108.870424
 30
0.0
 40
2.0
100
AcDbArc
 50
280.0
 51
4.26083
  0
LINE
  5
1E8
100
AcDbEntity
  8
LAY-1
  6
CONTINUOUS
 62
     2
100
AcDbLine
 10
1128.951151
 20
1076.342279
 30
0.0
 11
1128.951151
 21
1002.131212
 31
0.0
  0
ARC
  5
1E9
100
AcDbEntity
  8
LAY-1
  6
CONTINUOUS
 62
     2
100
AcDbCircle
 10
1123.951151
 20
1002.131212
 30
0.0
 40
5.0
100
AcDbArc
 50
309.507189
 51
0.0
  0
ARC
  5
1EA
100
AcDbEntity
  8
LAY-1
  6
CONTINUOUS
 62
     2
100
AcDbCircle
 10
1112.5
 20
1016.019018
 30
0.0
 40
23.0
100
AcDbArc
 50
270.0
 51
309.507189
  0
ARC
  5
1EB
100
AcDbEntity
  8
LAY-1
  6
CONTINUOUS
 62
     2
100
AcDbCircle
 10
1112.5
 20
1016.019018
 30
0.0
 40
23.0
100
AcDbArc
 50
230.492811
 51
270.0
  0
ARC
  5
1EC
100
AcDbEntity
  8
LAY-1
  6
CONTINUOUS
 62
     2
100
AcDbCircle
 10
1101.04885
 20
1002.131212
 30
0.0
 40
5.0
100
AcDbArc
 50
180.0
 51
230.492811
  0
LINE
  5
1ED
100
AcDbEntity
  8
LAY-1
  6
CONTINUOUS
 62
     2
100
AcDbLine
 10
1096.04885
 20
1076.342279
 30
0.0
 11
1096.04885
 21
1002.131212
 31
0.0
  0
ARC
  5
1EE
100
AcDbEntity
  8
LAY-1
  6
CONTINUOUS
 62
     2
100
AcDbCircle
 10
1156.85142
 20
1125.833907
 30
0.0
 40
15.0
100
AcDbArc
 50
276.0
 51
357.5304
  0
LINE
  5
1EF
100
AcDbEntity
  8
LAY-1
  6
CONTINUOUS
 62
     2
100
AcDbLine
 10
1140.466938
 20
368.470796
 30
0.0
 11
1158.42084
 21
366.583765
 31
0.0
  0
ARC
  5
1F0
100
AcDbEntity
  8
LAY-1
  6
CONTINUOUS
 62
     2
100
AcDbCircle
 10
1086.526464
 20
368.629576
 30
0.0
 40
2.0
100
AcDbArc
 50
100.0
 51
184.26083
  0
LINE
  5
1F1
100
AcDbEntity
  8
LAY-1
  6
CONTINUOUS
 62
     2
100
AcDbLine
 10
1086.179168
 20
370.599192
 30
0.0
 11
1087.324429
 21
370.787463
 31
0.0
  0
ARC
  5
1F2
100
AcDbEntity
  8
LAY-1
  6
CONTINUOUS
 62
     2
100
AcDbCircle
 10
1087.0
 20
372.760974
 30
0.0
 40
2.0
100
AcDbArc
 50
279.335443
 51
0.0
  0
LINE
  5
1F3
100
AcDbEntity
  8
LAY-1
  6
CONTINUOUS
 62
     2
100
AcDbLine
 10
1089.0
 20
372.760974
 30
0.0
 11
1089.0
 21
378.114564
 31
0.0
  0
ARC
  5
1F4
100
AcDbEntity
  8
LAY-1
  6
CONTINUOUS
 62
     2
100
AcDbCircle
 10
1094.0
 20
378.114564
 30
0.0
 40
5.0
100
AcDbArc
 50
120.0
 51
180.0
  0
ARC
  5
1F5
100
AcDbEntity
  8
LAY-1
  6
CONTINUOUS
 62
     2
100
AcDbCircle
 10
1090.0
 20
385.042767
 30
0.0
 40
3.0
100
AcDbArc
 50
300.0
 51
0.0
  0
LINE
  5
1F6
100
AcDbEntity
  8
LAY-1
  6
CONTINUOUS
 62
     2
100
AcDbLine
 10
1093.0
 20
385.042767
 30
0.0
 11
1093.0
 21
393.733366
 31
0.0
  0
ARC
  5
1F7
100
AcDbEntity
  8
LAY-1
  6
CONTINUOUS
 62
     2
100
AcDbCircle
 10
1098.0
 20
393.733366
 30
0.0
 40
5.0
100
AcDbArc
 50
150.0
 51
180.0
  0
LINE
  5
1F8
100
AcDbEntity
  8
LAY-1
  6
CONTINUOUS
 62
     2
100
AcDbLine
 10
1093.669873
 20
396.233366
 30
0.0
 11
1095.646926
 21
399.657721
 31
0.0
  0
ARC
  5
1F9
100
AcDbEntity
  8
LAY-1
  6
CONTINUOUS
 62
     2
100
AcDbCircle
 10
1093.04885
 20
401.157721
 30
0.0
 40
3.0
100
AcDbArc
 50
330.0
 51
0.0
  0
ARC
  5
1FA
100
AcDbEntity
  8
LAY-1
  6
CONTINUOUS
 62
     2
100
AcDbCircle
 10
1131.951151
 20
401.157721
 30
0.0
 40
3.0
100
AcDbArc
 50
180.0
 51
210.0
  0
LINE
  5
1FB
100
AcDbEntity
  8
LAY-1
  6
CONTINUOUS
 62
     2
100
AcDbLine
 10
1131.330127
 20
396.233366
 30
0.0
 11
1129.353075
 21
399.657721
 31
0.0
  0
ARC
  5
1FC
100
AcDbEntity
  8
LAY-1
  6
CONTINUOUS
 62
     2
100
AcDbCircle
 10
1127.0
 20
393.733366
 30
0.0
 40
5.0
100
AcDbArc
 50
0.0
 51
30.0
  0
LINE
  5
1FD
100
AcDbEntity
  8
LAY-1
  6
CONTINUOUS
 62
     2
100
AcDbLine
 10
1132.0
 20
385.042767
 30
0.0
 11
1132.0
 21
393.733366
 31
0.0
  0
ARC
  5
1FE
100
AcDbEntity
  8
LAY-1
  6
CONTINUOUS
 62
     2
100
AcDbCircle
 10
1135.0
 20
385.042767
 30
0.0
 40
3.0
100
AcDbArc
 50
180.0
 51
240.0
  0
ARC
  5
1FF
100
AcDbEntity
  8
LAY-1
  6
CONTINUOUS
 62
     2
100
AcDbCircle
 10
1131.0
 20
378.114564
 30
0.0
 40
5.0
100
AcDbArc
 50
0.0
 51
60.0
  0
LINE
  5
200
100
AcDbEntity
  8
LAY-1
  6
CONTINUOUS
 62
     2
100
AcDbLine
 10
1136.0
 20
372.760974
 30
0.0
 11
1136.0
 21
378.114564
 31
0.0
  0
LINE
  5
201
100
AcDbEntity
  8
LAY-1
  6
CONTINUOUS
 62
     2
100
AcDbLine
 10
1140.468009
 20
369.02426
 30
0.0
 11
1140.468009
 21
369.015153
 31
0.0
  0
LINE
  5
202
100
AcDbEntity
  8
LAY-1
  6
CONTINUOUS
 62
     2
100
AcDbLine
 10
1138.820833
 20
370.599192
 30
0.0
 11
1137.675572
 21
370.787463
 31
0.0
  0
ARC
  5
203
100
AcDbEntity
  8
LAY-1
  6
CONTINUOUS
 62
     2
100
AcDbCircle
 10
1138.0
 20
372.760974
 30
0.0
 40
2.0
100
AcDbArc
 50
180.0
 51
260.664557
  0
ARC
  5
204
100
AcDbEntity
  8
LAY-1
  6
CONTINUOUS
 62
     2
100
AcDbCircle
 10
1138.473536
 20
368.629576
 30
0.0
 40
2.0
100
AcDbArc
 50
355.73917
 51
80.0
  0
LINE
  5
205
100
AcDbEntity
  8
LAY-1
  6
CONTINUOUS
 62
     2
100
AcDbLine
 10
1128.951151
 20
401.157721
 30
0.0
 11
1128.951151
 21
475.368788
 31
0.0
  0
ARC
  5
206
100
AcDbEntity
  8
LAY-1
  6
CONTINUOUS
 62
     2
100
AcDbCircle
 10
1123.951151
 20
475.368788
 30
0.0
 40
5.0
100
AcDbArc
 50
0.0
 51
50.492811
  0
ARC
  5
207
100
AcDbEntity
  8
LAY-1
  6
CONTINUOUS
 62
     2
100
AcDbCircle
 10
1112.5
 20
461.480982
 30
0.0
 40
23.0
100
AcDbArc
 50
50.492811
 51
90.0
  0
ARC
  5
208
100
AcDbEntity
  8
LAY-1
  6
CONTINUOUS
 62
     2
100
AcDbCircle
 10
1112.5
 20
461.480982
 30
0.0
 40
23.0
100
AcDbArc
 50
90.0
 51
129.507189
  0
ARC
  5
209
100
AcDbEntity
  8
LAY-1
  6
CONTINUOUS
 62
     2
100
AcDbCircle
 10
1101.04885
 20
475.368788
 30
0.0
 40
5.0
100
AcDbArc
 50
129.507189
 51
180.0
  0
LINE
  5
20A
100
AcDbEntity
  8
LAY-1
  6
CONTINUOUS
 62
     2
100
AcDbLine
 10
1096.04885
 20
401.157721
 30
0.0
 11
1096.04885
 21
475.368788
 31
0.0
  0
ARC
  5
20B
100
AcDbEntity
  8
LAY-1
  6
CONTINUOUS
 62
     2
100
AcDbCircle
 10
1156.85142
 20
351.666093
 30
0.0
 40
15.0
100
AcDbArc
 50
2.4696
 51
84.0
  0
ARC
  5
20C
100
AcDbEntity
  8
LAY-1
  6
CONTINUOUS
 62
     2
100
AcDbCircle
 10
459.649727
 20
703.75
 30
0.0
 40
5.0
100
AcDbArc
 50
5.548314
 51
90.0
  0
ARC
  5
20D
100
AcDbEntity
  8
LAY-1
  6
CONTINUOUS
 62
     2
100
AcDbCircle
 10
581.5
 20
848.75
 30
0.0
 40
2.0
100
AcDbArc
 50
90.0
 51
180.0
  0
ARC
  5
20E
100
AcDbEntity
  8
LAY-1
  6
CONTINUOUS
 62
     2
100
AcDbCircle
 10
459.649727
 20
773.75
 30
0.0
 40
5.0
100
AcDbArc
 50
270.0
 51
354.451686
  0
LINE
  5
20F
100
AcDbEntity
  8
LAY-1
  6
CONTINUOUS
 62
     2
100
AcDbLine
 10
459.649727
 20
768.75
 30
0.0
 11
455.5
 21
768.75
 31
0.0
  0
LINE
  5
210
100
AcDbEntity
  8
LAY-1
  6
CONTINUOUS
 62
     2
100
AcDbLine
 10
439.5
 20
738.75
 30
0.0
 11
439.5
 21
720.75
 31
0.0
  0
LINE
  5
211
100
AcDbEntity
  8
LAY-1
  6
CONTINUOUS
 62
     2
100
AcDbLine
 10
441.1
 20
717.95
 30
0.0
 11
439.5
 21
720.75
 31
0.0
  0
LINE
  5
212
100
AcDbEntity
  8
LAY-1
  6
CONTINUOUS
 62
     2
100
AcDbLine
 10
441.1
 20
717.95
 30
0.0
 11
449.5
 21
717.95
 31
0.0
  0
LINE
  5
213
100
AcDbEntity
  8
LAY-1
  6
CONTINUOUS
 62
     2
100
AcDbLine
 10
449.5
 20
712.25
 30
0.0
 11
455.5
 21
712.25
 31
0.0
  0
LINE
  5
214
100
AcDbEntity
  8
LAY-1
  6
CONTINUOUS
 62
     2
100
AcDbLine
 10
449.5
 20
747.5
 30
0.0
 11
449.5
 21
751.75
 31
0.0
  0
LINE
  5
215
100
AcDbEntity
  8
LAY-1
  6
CONTINUOUS
 62
     2
100
AcDbLine
 10
439.5
 20
738.75
 30
0.0
 11
439.5
 21
756.75
 31
0.0
  0
LINE
  5
216
100
AcDbEntity
  8
LAY-1
  6
CONTINUOUS
 62
     2
100
AcDbLine
 10
441.1
 20
759.55
 30
0.0
 11
439.5
 21
756.75
 31
0.0
  0
LINE
  5
217
100
AcDbEntity
  8
LAY-1
  6
CONTINUOUS
 62
     2
100
AcDbLine
 10
441.1
 20
759.55
 30
0.0
 11
449.5
 21
759.55
 31
0.0
  0
LINE
  5
218
100
AcDbEntity
  8
LAY-1
  6
CONTINUOUS
 62
     2
100
AcDbLine
 10
449.5
 20
765.25
 30
0.0
 11
455.5
 21
765.25
 31
0.0
  0
ARC
  5
219
100
AcDbEntity
  8
LAY-1
  6
CONTINUOUS
 62
     2
100
AcDbCircle
 10
565.0
 20
609.340942
 30
0.0
 40
2.0
100
AcDbArc
 50
0.0
 51
90.0
  0
LINE
  5
21A
100
AcDbEntity
  8
LAY-1
  6
CONTINUOUS
 62
     2
100
AcDbLine
 10
567.0
 20
609.340942
 30
0.0
 11
567.0
 21
596.25
 31
0.0
  0
LINE
  5
21B
100
AcDbEntity
  8
LAY-1
  6
CONTINUOUS
 62
     2
100
AcDbLine
 10
567.0
 20
596.25
 30
0.0
 11
442.0
 21
596.25
 31
0.0
  0
LINE
  5
21C
100
AcDbEntity
  8
LAY-1
  6
CONTINUOUS
 62
     2
100
AcDbLine
 10
531.5
 20
635.037571
 30
0.0
 11
531.5
 21
614.340942
 31
0.0
  0
ARC
  5
21D
100
AcDbEntity
  8
LAY-1
  6
CONTINUOUS
 62
     2
100
AcDbCircle
 10
551.5
 20
635.037571
 30
0.0
 40
20.0
100
AcDbArc
 50
164.032069
 51
180.0
  0
ARC
  5
21E
100
AcDbEntity
  8
LAY-1
  6
CONTINUOUS
 62
     2
100
AcDbCircle
 10
457.5
 20
635.037571
 30
0.0
 40
20.0
100
AcDbArc
 50
0.0
 51
15.967931
  0
LINE
  5
21F
100
AcDbEntity
  8
LAY-1
  6
CONTINUOUS
 62
     2
100
AcDbLine
 10
477.5
 20
635.037571
 30
0.0
 11
477.5
 21
614.340942
 31
0.0
  0
ARC
  5
220
100
AcDbEntity
  8
LAY-1
  6
CONTINUOUS
 62
     2
100
AcDbCircle
 10
474.5
 20
614.340942
 30
0.0
 40
3.0
100
AcDbArc
 50
270.0
 51
0.0
  0
ARC
  5
221
100
AcDbEntity
  8
LAY-1
  6
CONTINUOUS
 62
     2
100
AcDbCircle
 10
444.0
 20
609.340942
 30
0.0
 40
2.0
100
AcDbArc
 50
90.0
 51
180.0
  0
LINE
  5
222
100
AcDbEntity
  8
LAY-1
  6
CONTINUOUS
 62
     2
100
AcDbLine
 10
442.0
 20
609.340942
 30
0.0
 11
442.0
 21
596.25
 31
0.0
  0
ARC
  5
223
100
AcDbEntity
  8
LAY-1
  6
CONTINUOUS
 62
     2
100
AcDbCircle
 10
534.5
 20
614.340942
 30
0.0
 40
3.0
100
AcDbArc
 50
180.0
 51
270.0
  0
LINE
  5
224
100
AcDbEntity
  8
LAY-1
  6
CONTINUOUS
 62
     2
100
AcDbLine
 10
565.0
 20
611.340942
 30
0.0
 11
444.0
 21
611.340942
 31
0.0
  0
LINE
  5
225
100
AcDbEntity
  8
LAY-1
  6
CONTINUOUS
 62
     2
100
AcDbLine
 10
449.5
 20
712.25
 30
0.0
 11
449.5
 21
765.25
 31
0.0
  0
LINE
  5
226
100
AcDbEntity
  8
LAY-1
  6
CONTINUOUS
 62
     2
100
AcDbLine
 10
455.5
 20
768.75
 30
0.0
 11
455.5
 21
708.75
 31
0.0
  0
LINE
  5
227
100
AcDbEntity
  8
LAY-1
  6
CONTINUOUS
 62
     2
100
AcDbLine
 10
459.649727
 20
708.75
 30
0.0
 11
455.5
 21
708.75
 31
0.0
  0
LINE
  5
228
100
AcDbEntity
  8
LAY-1
  6
CONTINUOUS
 62
     2
100
AcDbLine
 10
455.5
 20
768.75
 30
0.0
 11
459.649727
 21
768.75
 31
0.0
  0
LINE
  5
229
100
AcDbEntity
  8
LAY-1
  6
CONTINUOUS
 62
     2
100
AcDbLine
 10
455.5
 20
708.75
 30
0.0
 11
459.649727
 21
708.75
 31
0.0
  0
ARC
  5
22A
100
AcDbEntity
  8
LAY-1
  6
CONTINUOUS
 62
     2
100
AcDbCircle
 10
562.55
 20
738.75
 30
0.0
 40
35.0
100
AcDbArc
 50
121.002719
 51
238.997281
  0
ARC
  5
22B
100
AcDbEntity
  8
LAY-1
  6
CONTINUOUS
 62
     2
100
AcDbCircle
 10
577.5
 20
727.217437
 30
0.0
 40
2.0
100
AcDbArc
 50
0.0
 51
62.513574
  0
ARC
  5
22C
100
AcDbEntity
  8
LAY-1
  6
CONTINUOUS
 62
     2
100
AcDbCircle
 10
577.5
 20
750.282563
 30
0.0
 40
2.0
100
AcDbArc
 50
297.486426
 51
0.0
  0
LINE
  5
22D
100
AcDbEntity
  8
LAY-1
  6
CONTINUOUS
 62
     2
100
AcDbLine
 10
579.5
 20
727.217437
 30
0.0
 11
579.5
 21
723.75
 31
0.0
  0
LINE
  5
22E
100
AcDbEntity
  8
LAY-1
  6
CONTINUOUS
 62
     2
100
AcDbLine
 10
579.5
 20
753.75
 30
0.0
 11
579.5
 21
750.282563
 31
0.0
  0
ARC
  5
22F
100
AcDbEntity
  8
LAY-1
  6
CONTINUOUS
 62
     2
100
AcDbCircle
 10
583.5
 20
738.75
 30
0.0
 40
11.0
100
AcDbArc
 50
117.486426
 51
242.513574
  0
LINE
  5
230
100
AcDbEntity
  8
LAY-1
  6
CONTINUOUS
 62
     2
100
AcDbLine
 10
596.482199
 20
850.75
 30
0.0
 11
581.5
 21
850.75
 31
0.0
  0
LINE
  5
231
100
AcDbEntity
  8
LAY-1
  6
CONTINUOUS
 62
     2
100
AcDbLine
 10
489.5
 20
738.75
 30
0.0
 11
489.5
 21
688.75
 31
0.0
  0
ARC
  5
232
100
AcDbEntity
  8
LAY-1
  6
CONTINUOUS
 62
     2
100
AcDbCircle
 10
504.5
 20
688.75
 30
0.0
 40
15.0
100
AcDbArc
 50
180.0
 51
0.0
  0
ARC
  5
233
100
AcDbEntity
  8
LAY-1
  6
CONTINUOUS
 62
     2
100
AcDbCircle
 10
504.5
 20
788.75
 30
0.0
 40
15.0
100
AcDbArc
 50
0.0
 51
180.0
  0
LINE
  5
234
100
AcDbEntity
  8
LAY-1
  6
CONTINUOUS
 62
     2
100
AcDbLine
 10
489.5
 20
738.75
 30
0.0
 11
489.5
 21
788.75
 31
0.0
  0
LINE
  5
235
100
AcDbEntity
  8
LAY-1
  6
CONTINUOUS
 62
     2
100
AcDbLine
 10
501.5
 20
728.75
 30
0.0
 11
498.5
 21
728.75
 31
0.0
  0
LINE
  5
236
100
AcDbEntity
  8
LAY-1
  6
CONTINUOUS
 62
     2
100
AcDbLine
 10
501.5
 20
728.75
 30
0.0
 11
495.5
 21
718.75
 31
0.0
  0
LINE
  5
237
100
AcDbEntity
  8
LAY-1
  6
CONTINUOUS
 62
     2
100
AcDbLine
 10
495.5
 20
718.75
 30
0.0
 11
495.5
 21
758.75
 31
0.0
  0
LINE
  5
238
100
AcDbEntity
  8
LAY-1
  6
CONTINUOUS
 62
     2
100
AcDbLine
 10
501.5
 20
758.75
 30
0.0
 11
501.5
 21
748.75
 31
0.0
  0
LINE
  5
239
100
AcDbEntity
  8
LAY-1
  6
CONTINUOUS
 62
     2
100
AcDbLine
 10
498.5
 20
753.75
 30
0.0
 11
495.5
 21
758.75
 31
0.0
  0
LINE
  5
23A
100
AcDbEntity
  8
LAY-1
  6
CONTINUOUS
 62
     2
100
AcDbLine
 10
501.5
 20
748.75
 30
0.0
 11
498.5
 21
748.75
 31
0.0
  0
LINE
  5
23B
100
AcDbEntity
  8
LAY-1
  6
CONTINUOUS
 62
     2
100
AcDbLine
 10
498.5
 20
748.75
 30
0.0
 11
498.5
 21
728.75
 31
0.0
  0
LINE
  5
23C
100
AcDbEntity
  8
LAY-1
  6
CONTINUOUS
 62
     2
100
AcDbLine
 10
498.5
 20
753.75
 30
0.0
 11
501.5
 21
758.75
 31
0.0
  0
ARC
  5
23D
100
AcDbEntity
  8
LAY-1
  6
CONTINUOUS
 62
     2
100
AcDbCircle
 10
517.5
 20
765.75
 30
0.0
 40
2.0
100
AcDbArc
 50
270.0
 51
0.0
  0
LINE
  5
23E
100
AcDbEntity
  8
LAY-1
  6
CONTINUOUS
 62
     2
100
AcDbLine
 10
517.5
 20
763.75
 30
0.0
 11
491.5
 21
763.75
 31
0.0
  0
ARC
  5
23F
100
AcDbEntity
  8
LAY-1
  6
CONTINUOUS
 62
     2
100
AcDbCircle
 10
491.5
 20
765.75
 30
0.0
 40
2.0
100
AcDbArc
 50
180.0
 51
270.0
  0
ARC
  5
240
100
AcDbEntity
  8
LAY-1
  6
CONTINUOUS
 62
     2
100
AcDbCircle
 10
517.5
 20
711.75
 30
0.0
 40
2.0
100
AcDbArc
 50
0.0
 51
90.0
  0
LINE
  5
241
100
AcDbEntity
  8
LAY-1
  6
CONTINUOUS
 62
     2
100
AcDbLine
 10
517.5
 20
713.75
 30
0.0
 11
491.5
 21
713.75
 31
0.0
  0
ARC
  5
242
100
AcDbEntity
  8
LAY-1
  6
CONTINUOUS
 62
     2
100
AcDbCircle
 10
491.5
 20
711.75
 30
0.0
 40
2.0
100
AcDbArc
 50
90.0
 51
180.0
  0
ARC
  5
243
100
AcDbEntity
  8
LAY-1
  6
CONTINUOUS
 62
     2
100
AcDbCircle
 10
1765.350273
 20
703.75
 30
0.0
 40
5.0
100
AcDbArc
 50
90.0
 51
174.451686
  0
ARC
  5
244
100
AcDbEntity
  8
LAY-1
  6
CONTINUOUS
 62
     2
100
AcDbCircle
 10
1765.350273
 20
773.75
 30
0.0
 40
5.0
100
AcDbArc
 50
185.548314
 51
270.0
  0
LINE
  5
245
100
AcDbEntity
  8
LAY-1
  6
CONTINUOUS
 62
     2
100
AcDbLine
 10
1765.350273
 20
768.75
 30
0.0
 11
1769.5
 21
768.75
 31
0.0
  0
LINE
  5
246
100
AcDbEntity
  8
LAY-1
  6
CONTINUOUS
 62
     2
100
AcDbLine
 10
1785.5
 20
738.75
 30
0.0
 11
1785.5
 21
720.75
 31
0.0
  0
LINE
  5
247
100
AcDbEntity
  8
LAY-1
  6
CONTINUOUS
 62
     2
100
AcDbLine
 10
1783.9
 20
717.95
 30
0.0
 11
1785.5
 21
720.75
 31
0.0
  0
LINE
  5
248
100
AcDbEntity
  8
LAY-1
  6
CONTINUOUS
 62
     2
100
AcDbLine
 10
1783.9
 20
717.95
 30
0.0
 11
1775.5
 21
717.95
 31
0.0
  0
LINE
  5
249
100
AcDbEntity
  8
LAY-1
  6
CONTINUOUS
 62
     2
100
AcDbLine
 10
1775.5
 20
712.25
 30
0.0
 11
1769.5
 21
712.25
 31
0.0
  0
LINE
  5
24A
100
AcDbEntity
  8
LAY-1
  6
CONTINUOUS
 62
     2
100
AcDbLine
 10
1775.5
 20
747.5
 30
0.0
 11
1775.5
 21
751.75
 31
0.0
  0
LINE
  5
24B
100
AcDbEntity
  8
LAY-1
  6
CONTINUOUS
 62
     2
100
AcDbLine
 10
1785.5
 20
738.75
 30
0.0
 11
1785.5
 21
756.75
 31
0.0
  0
LINE
  5
24C
100
AcDbEntity
  8
LAY-1
  6
CONTINUOUS
 62
     2
100
AcDbLine
 10
1783.9
 20
759.55
 30
0.0
 11
1785.5
 21
756.75
 31
0.0
  0
LINE
  5
24D
100
AcDbEntity
  8
LAY-1
  6
CONTINUOUS
 62
     2
100
AcDbLine
 10
1783.9
 20
759.55
 30
0.0
 11
1775.5
 21
759.55
 31
0.0
  0
LINE
  5
24E
100
AcDbEntity
  8
LAY-1
  6
CONTINUOUS
 62
     2
100
AcDbLine
 10
1775.5
 20
765.25
 30
0.0
 11
1769.5
 21
765.25
 31
0.0
  0
LINE
  5
24F
100
AcDbEntity
  8
LAY-1
  6
CONTINUOUS
 62
     2
100
AcDbLine
 10
1658.0
 20
596.25
 30
0.0
 11
1783.0
 21
596.25
 31
0.0
  0
ARC
  5
250
100
AcDbEntity
  8
LAY-1
  6
CONTINUOUS
 62
     2
100
AcDbCircle
 10
1767.5
 20
635.037571
 30
0.0
 40
20.0
100
AcDbArc
 50
164.032069
 51
180.0
  0
LINE
  5
251
100
AcDbEntity
  8
LAY-1
  6
CONTINUOUS
 62
     2
100
AcDbLine
 10
1747.5
 20
635.037571
 30
0.0
 11
1747.5
 21
614.340942
 31
0.0
  0
ARC
  5
252
100
AcDbEntity
  8
LAY-1
  6
CONTINUOUS
 62
     2
100
AcDbCircle
 10
1750.5
 20
614.340942
 30
0.0
 40
3.0
100
AcDbArc
 50
180.0
 51
270.0
  0
ARC
  5
253
100
AcDbEntity
  8
LAY-1
  6
CONTINUOUS
 62
     2
100
AcDbCircle
 10
1781.0
 20
609.340942
 30
0.0
 40
2.0
100
AcDbArc
 50
0.0
 51
90.0
  0
LINE
  5
254
100
AcDbEntity
  8
LAY-1
  6
CONTINUOUS
 62
     2
100
AcDbLine
 10
1783.0
 20
609.340942
 30
0.0
 11
1783.0
 21
596.25
 31
0.0
  0
LINE
  5
255
100
AcDbEntity
  8
LAY-1
  6
CONTINUOUS
 62
     2
100
AcDbLine
 10
1660.0
 20
611.340942
 30
0.0
 11
1781.0
 21
611.340942
 31
0.0
  0
LINE
  5
256
100
AcDbEntity
  8
LAY-1
  6
CONTINUOUS
 62
     2
100
AcDbLine
 10
1775.5
 20
712.25
 30
0.0
 11
1775.5
 21
765.25
 31
0.0
  0
LINE
  5
257
100
AcDbEntity
  8
LAY-1
  6
CONTINUOUS
 62
     2
100
AcDbLine
 10
1769.5
 20
768.75
 30
0.0
 11
1769.5
 21
708.75
 31
0.0
  0
LINE
  5
258
100
AcDbEntity
  8
LAY-1
  6
CONTINUOUS
 62
     2
100
AcDbLine
 10
1765.350273
 20
708.75
 30
0.0
 11
1769.5
 21
708.75
 31
0.0
  0
LINE
  5
259
100
AcDbEntity
  8
LAY-1
  6
CONTINUOUS
 62
     2
100
AcDbLine
 10
1769.5
 20
768.75
 30
0.0
 11
1765.350273
 21
768.75
 31
0.0
  0
LINE
  5
25A
100
AcDbEntity
  8
LAY-1
  6
CONTINUOUS
 62
     2
100
AcDbLine
 10
1769.5
 20
708.75
 30
0.0
 11
1765.350273
 21
708.75
 31
0.0
  0
LINE
  5
25B
100
AcDbEntity
  8
LAY-1
  6
CONTINUOUS
 62
     2
100
AcDbLine
 10
1735.5
 20
738.75
 30
0.0
 11
1735.5
 21
688.75
 31
0.0
  0
ARC
  5
25C
100
AcDbEntity
  8
LAY-1
  6
CONTINUOUS
 62
     2
100
AcDbCircle
 10
1720.5
 20
688.75
 30
0.0
 40
15.0
100
AcDbArc
 50
180.0
 51
0.0
  0
ARC
  5
25D
100
AcDbEntity
  8
LAY-1
  6
CONTINUOUS
 62
     2
100
AcDbCircle
 10
1720.5
 20
788.75
 30
0.0
 40
15.0
100
AcDbArc
 50
0.0
 51
180.0
  0
LINE
  5
25E
100
AcDbEntity
  8
LAY-1
  6
CONTINUOUS
 62
     2
100
AcDbLine
 10
1735.5
 20
738.75
 30
0.0
 11
1735.5
 21
788.75
 31
0.0
  0
LINE
  5
25F
100
AcDbEntity
  8
LAY-1
  6
CONTINUOUS
 62
     2
100
AcDbLine
 10
1707.5
 20
763.75
 30
0.0
 11
1733.5
 21
763.75
 31
0.0
  0
ARC
  5
260
100
AcDbEntity
  8
LAY-1
  6
CONTINUOUS
 62
     2
100
AcDbCircle
 10
1733.5
 20
765.75
 30
0.0
 40
2.0
100
AcDbArc
 50
270.0
 51
0.0
  0
LINE
  5
261
100
AcDbEntity
  8
LAY-1
  6
CONTINUOUS
 62
     2
100
AcDbLine
 10
1707.5
 20
713.75
 30
0.0
 11
1733.5
 21
713.75
 31
0.0
  0
ARC
  5
262
100
AcDbEntity
  8
LAY-1
  6
CONTINUOUS
 62
     2
100
AcDbCircle
 10
1733.5
 20
711.75
 30
0.0
 40
2.0
100
AcDbArc
 50
0.0
 51
90.0
  0
CIRCLE
  5
263
100
AcDbEntity
  8
LAY-1
  6
CONTINUOUS
 62
     2
100
AcDbCircle
 10
1112.5
 20
1355.232199
 30
0.0
 40
62.5
  0
CIRCLE
  5
264
100
AcDbEntity
  8
LAY-1
  6
CONTINUOUS
 62
     2
100
AcDbCircle
 10
1080.680195
 20
1323.412393
 30
0.0
 40
9.5
  0
CIRCLE
  5
265
100
AcDbEntity
  8
LAY-1
  6
CONTINUOUS
 62
     2
100
AcDbCircle
 10
1144.319805
 20
1323.412393
 30
0.0
 40
9.5
  0
CIRCLE
  5
266
100
AcDbEntity
  8
LAY-1
  6
CONTINUOUS
 62
     2
100
AcDbCircle
 10
1080.680195
 20
1387.052004
 30
0.0
 40
9.5
  0
CIRCLE
  5
267
100
AcDbEntity
  8
LAY-1
  6
CONTINUOUS
 62
     2
100
AcDbCircle
 10
1144.319805
 20
1387.052004
 30
0.0
 40
9.5
  0
CIRCLE
  5
268
100
AcDbEntity
  8
LAY-1
  6
CONTINUOUS
 62
     2
100
AcDbCircle
 10
1112.5
 20
122.267801
 30
0.0
 40
62.5
  0
CIRCLE
  5
269
100
AcDbEntity
  8
LAY-1
  6
CONTINUOUS
 62
     2
100
AcDbCircle
 10
1080.680195
 20
90.447996
 30
0.0
 40
9.5
  0
CIRCLE
  5
26A
100
AcDbEntity
  8
LAY-1
  6
CONTINUOUS
 62
     2
100
AcDbCircle
 10
1144.319805
 20
90.447996
 30
0.0
 40
9.5
  0
CIRCLE
  5
26B
100
AcDbEntity
  8
LAY-1
  6
CONTINUOUS
 62
     2
100
AcDbCircle
 10
1080.680195
 20
154.087607
 30
0.0
 40
9.5
  0
CIRCLE
  5
26C
100
AcDbEntity
  8
LAY-1
  6
CONTINUOUS
 62
     2
100
AcDbCircle
 10
1144.319805
 20
154.087607
 30
0.0
 40
9.5
  0
CIRCLE
  5
26D
100
AcDbEntity
  8
LAY-1
  6
CONTINUOUS
 62
     2
100
AcDbCircle
 10
1112.5
 20
122.267801
 30
0.0
 40
17.0
  0
CIRCLE
  5
26E
100
AcDbEntity
  8
LAY-1
  6
CONTINUOUS
 62
     2
100
AcDbCircle
 10
1112.5
 20
122.267801
 30
0.0
 40
21.808326
  0
LINE
  5
26F
100
AcDbEntity
  8
LAY-1
  6
CONTINUOUS
 62
     2
100
AcDbLine
 10
594.5
 20
626.75
 30
0.0
 11
581.5
 21
626.75
 31
0.0
  0
ARC
  5
270
100
AcDbEntity
  8
LAY-1
  6
CONTINUOUS
 62
     2
100
AcDbCircle
 10
581.5
 20
628.75
 30
0.0
 40
2.0
100
AcDbArc
 50
180.0
 51
270.0
  0
ARC
  5
271
100
AcDbEntity
  8
LAY-1
  6
CONTINUOUS
 62
     2
100
AcDbCircle
 10
611.482199
 20
814.166129
 30
0.0
 40
9.5
100
AcDbArc
 50
0.0
 51
39.183587
  0
ARC
  5
272
100
AcDbEntity
  8
LAY-1
  6
CONTINUOUS
 62
     2
100
AcDbCircle
 10
586.5
 20
670.75
 30
0.0
 40
19.0
100
AcDbArc
 50
204.443335
 51
224.928694
  0
ARC
  5
273
100
AcDbEntity
  8
LAY-1
  6
CONTINUOUS
 62
     2
100
AcDbCircle
 10
611.482199
 20
663.333872
 30
0.0
 40
9.5
100
AcDbArc
 50
320.816407
 51
0.0
  0
LINE
  5
274
100
AcDbEntity
  8
LAY-1
  6
CONTINUOUS
 62
     2
100
AcDbLine
 10
544.522244
 20
708.75
 30
0.0
 11
571.500174
 21
708.75
 31
0.0
  0
LINE
  5
275
100
AcDbEntity
  8
LAY-1
  6
CONTINUOUS
 62
     2
100
AcDbLine
 10
544.522244
 20
768.75
 30
0.0
 11
571.500174
 21
768.75
 31
0.0
  0
LINE
  5
276
100
AcDbEntity
  8
LAY-1
  6
CONTINUOUS
 62
     2
100
AcDbLine
 10
1053.162511
 20
1125.187567
 30
0.0
 11
1048.496513
 21
1233.373665
 31
0.0
  0
LINE
  5
277
100
AcDbEntity
  8
LAY-1
  6
CONTINUOUS
 62
     2
100
AcDbLine
 10
1053.162511
 20
352.312433
 30
0.0
 11
1048.496513
 21
244.126335
 31
0.0
  0
LINE
  5
278
100
AcDbEntity
  8
LAY-1
  6
CONTINUOUS
 62
     2
100
AcDbLine
 10
519.5
 20
788.75
 30
0.0
 11
519.5
 21
688.75
 31
0.0
  0
LINE
  5
279
100
AcDbEntity
  8
LAY-1
  6
CONTINUOUS
 62
     2
100
AcDbLine
 10
514.840507
 20
958.214623
 30
0.0
 11
514.840507
 21
948.214623
 31
0.0
  0
LINE
  5
27A
100
AcDbEntity
  8
LAY-1
  6
CONTINUOUS
 62
     2
100
AcDbLine
 10
514.840507
 20
948.214623
 30
0.0
 11
524.840507
 21
948.214623
 31
0.0
  0
LINE
  5
27B
100
AcDbEntity
  8
LAY-1
  6
CONTINUOUS
 62
     2
100
AcDbLine
 10
524.840507
 20
948.214623
 30
0.0
 11
504.5
 21
928.25
 31
0.0
  0
LINE
  5
27C
100
AcDbEntity
  8
LAY-1
  6
CONTINUOUS
 62
     2
100
AcDbLine
 10
504.5
 20
928.25
 30
0.0
 11
484.535377
 21
948.214623
 31
0.0
  0
LINE
  5
27D
100
AcDbEntity
  8
LAY-1
  6
CONTINUOUS
 62
     2
100
AcDbLine
 10
484.535377
 20
948.214623
 30
0.0
 11
494.840507
 21
948.214623
 31
0.0
  0
LINE
  5
27E
100
AcDbEntity
  8
LAY-1
  6
CONTINUOUS
 62
     2
100
AcDbLine
 10
494.840507
 20
948.214623
 30
0.0
 11
494.840507
 21
957.874116
 31
0.0
  0
LINE
  5
27F
100
AcDbEntity
  8
LAY-1
  6
CONTINUOUS
 62
     2
100
AcDbLine
 10
494.840507
 20
957.874116
 30
0.0
 11
514.840507
 21
957.874116
 31
0.0
  0
LINE
  5
280
100
AcDbEntity
  8
LAY-1
  6
CONTINUOUS
 62
     2
100
AcDbLine
 10
1720.5
 20
928.25
 30
0.0
 11
1740.464623
 21
948.214623
 31
0.0
  0
LINE
  5
281
100
AcDbEntity
  8
LAY-1
  6
CONTINUOUS
 62
     2
100
AcDbLine
 10
1740.464623
 20
948.214623
 30
0.0
 11
1730.159493
 21
948.214623
 31
0.0
  0
LINE
  5
282
100
AcDbEntity
  8
LAY-1
  6
CONTINUOUS
 62
     2
100
AcDbLine
 10
1730.159493
 20
948.214623
 30
0.0
 11
1730.159493
 21
957.874116
 31
0.0
  0
LINE
  5
283
100
AcDbEntity
  8
LAY-1
  6
CONTINUOUS
 62
     2
100
AcDbLine
 10
1730.159493
 20
957.874116
 30
0.0
 11
1710.159493
 21
957.874116
 31
0.0
  0
LINE
  5
284
100
AcDbEntity
  8
LAY-1
  6
CONTINUOUS
 62
     2
100
AcDbLine
 10
1171.837489
 20
1125.187567
 30
0.0
 11
1176.503487
 21
1233.373665
 31
0.0
  0
LINE
  5
285
100
AcDbEntity
  8
LAY-1
  6
CONTINUOUS
 62
     2
100
AcDbLine
 10
579.5
 20
727.217437
 30
0.0
 11
579.5
 21
628.75
 31
0.0
  0
LINE
  5
286
100
AcDbEntity
  8
LAY-1
  6
CONTINUOUS
 62
     2
100
AcDbLine
 10
579.5
 20
848.75
 30
0.0
 11
579.5
 21
750.282563
 31
0.0
  0
LINE
  5
287
100
AcDbEntity
  8
LAY-1
  6
CONTINUOUS
 62
     2
100
AcDbLine
 10
611.482199
 20
725.190049
 30
0.0
 11
611.482199
 21
626.75
 31
0.0
  0
LINE
  5
288
100
AcDbEntity
  8
LAY-1
  6
CONTINUOUS
 62
     2
100
AcDbLine
 10
611.482199
 20
848.75
 30
0.0
 11
611.482199
 21
752.309951
 31
0.0
  0
LINE
  5
289
100
AcDbEntity
  8
LAY-1
  6
CONTINUOUS
 62
     2
100
AcDbLine
 10
1171.837489
 20
352.312433
 30
0.0
 11
1176.503487
 21
244.126335
 31
0.0
  0
LINE
  5
28A
100
AcDbEntity
  8
LAY-1
  6
CONTINUOUS
 62
     2
100
AcDbLine
 10
620.982199
 20
787.987999
 30
0.0
 11
620.982199
 21
814.166129
 31
0.0
  0
LINE
  5
28B
100
AcDbEntity
  8
LAY-1
  6
CONTINUOUS
 62
     2
100
AcDbLine
 10
620.982199
 20
750.046827
 30
0.0
 11
620.982199
 21
766.048688
 31
0.0
  0
LINE
  5
28C
100
AcDbEntity
  8
LAY-1
  6
CONTINUOUS
 62
     2
100
AcDbLine
 10
620.982199
 20
727.453173
 30
0.0
 11
620.982199
 21
711.451312
 31
0.0
  0
LINE
  5
28D
100
AcDbEntity
  8
LAY-1
  6
CONTINUOUS
 62
     2
100
AcDbLine
 10
620.982199
 20
689.512001
 30
0.0
 11
620.982199
 21
663.333872
 31
0.0
  0
CIRCLE
  5
28E
100
AcDbEntity
  8
LAY-1
  6
CONTINUOUS
 62
     2
100
AcDbCircle
 10
1112.5
 20
738.75
 30
0.0
 40
57.900272
  0
CIRCLE
  5
28F
100
AcDbEntity
  8
LAY-1
  6
CONTINUOUS
 62
     2
100
AcDbCircle
 10
1112.5
 20
738.75
 30
0.0
 40
112.0
  0
LINE
  5
290
100
AcDbEntity
  8
LAY-1
  6
CONTINUOUS
 62
     3
100
AcDbLine
 10
1135.620765
 20
777.95163
 30
0.0
 11
1139.863506
 21
775.973207
 31
0.0
  0
LINE
  5
291
100
AcDbEntity
  8
LAY-1
  6
CONTINUOUS
 62
     3
100
AcDbLine
 10
1139.863506
 20
775.973207
 30
0.0
 11
1129.42129
 21
763.960811
 31
0.0
  0
LINE
  5
292
100
AcDbEntity
  8
LAY-1
  6
CONTINUOUS
 62
     3
100
AcDbLine
 10
1151.674152
 20
763.016494
 30
0.0
 11
1149.118824
 21
761.694201
 31
0.0
  0
LINE
  5
293
100
AcDbEntity
  8
LAY-1
  6
CONTINUOUS
 62
     3
100
AcDbLine
 10
1146.797169
 20
764.169791
 30
0.0
 11
1149.129654
 21
761.699805
 31
0.0
  0
LINE
  5
294
100
AcDbEntity
  8
LAY-1
  6
CONTINUOUS
 62
     3
100
AcDbLine
 10
1141.566288
 20
769.709034
 30
0.0
 11
1143.674213
 21
767.476846
 31
0.0
  0
LINE
  5
295
100
AcDbEntity
  8
LAY-1
  6
CONTINUOUS
 62
     3
100
AcDbLine
 10
1144.128245
 20
771.034758
 30
0.0
 11
1141.566288
 21
769.709034
 31
0.0
  0
LINE
  5
296
100
AcDbEntity
  8
LAY-1
  6
CONTINUOUS
 62
     3
100
AcDbLine
 10
1144.159754
 20
770.973867
 30
0.0
 11
1151.674152
 21
763.016494
 31
0.0
  0
LINE
  5
297
100
AcDbEntity
  8
LAY-1
  6
CONTINUOUS
 62
     3
100
AcDbLine
 10
1146.818626
 20
764.147069
 30
0.0
 11
1135.227027
 21
758.148818
 31
0.0
  0
LINE
  5
298
100
AcDbEntity
  8
LAY-1
  6
CONTINUOUS
 62
     3
100
AcDbLine
 10
1132.090186
 20
761.470577
 30
0.0
 11
1135.227027
 21
758.148818
 31
0.0
  0
LINE
  5
299
100
AcDbEntity
  8
LAY-1
  6
CONTINUOUS
 62
     3
100
AcDbLine
 10
1143.679085
 20
767.467431
 30
0.0
 11
1132.090186
 21
761.470577
 31
0.0
  0
ELLIPSE
  5
29A
100
AcDbEntity
  8
LAY-1
  6
CONTINUOUS
 62
     3
100
AcDbEllipse
 10
1147.274721
 20
752.999344
 30
0.0
 11
7.9446102896612301
 21
0.4664310901749094
 31
0.0
210
0.0
220
0.0
230
1.0
 40
0.66547
 41
0.0
 42
6.2831853071796004
  0
ELLIPSE
  5
29B
100
AcDbEntity
  8
LAY-1
  6
CONTINUOUS
 62
     3
100
AcDbEllipse
 10
1147.208974
 20
753.075911
 30
0.0
 11
-4.7779196695278134
 21
-1.0687841837768477
 31
0.0
210
0.0
220
0.0
230
1.0
 40
0.1875
 41
0.0
 42
6.2831853071796004
  0
LINE
  5
29C
100
AcDbEntity
  8
LAY-1
  6
CONTINUOUS
 62
     3
100
AcDbLine
 10
1157.854649
 20
735.950814
 30
0.0
 11
1142.571607
 21
740.396734
 31
0.0
  0
LINE
  5
29D
100
AcDbEntity
  8
LAY-1
  6
CONTINUOUS
 62
     3
100
AcDbLine
 10
1157.871098
 20
740.234783
 30
0.0
 11
1142.588056
 21
744.680703
 31
0.0
  0
LINE
  5
29E
100
AcDbEntity
  8
LAY-1
  6
CONTINUOUS
 62
     3
100
AcDbLine
 10
1157.847599
 20
734.114828
 30
0.0
 11
1151.096787
 21
737.916713
 31
0.0
  0
LINE
  5
29F
100
AcDbEntity
  8
LAY-1
  6
CONTINUOUS
 62
     3
100
AcDbLine
 10
1142.562207
 20
737.948752
 30
0.0
 11
1151.096787
 21
737.916713
 31
0.0
  0
LINE
  5
2A0
100
AcDbEntity
  8
LAY-1
  6
CONTINUOUS
 62
     3
100
AcDbLine
 10
1157.83115
 20
729.83086
 30
0.0
 11
1150.018703
 21
734.230631
 31
0.0
  0
LINE
  5
2A1
100
AcDbEntity
  8
LAY-1
  6
CONTINUOUS
 62
     3
100
AcDbLine
 10
1157.871098
 20
740.234783
 30
0.0
 11
1157.854649
 21
735.950814
 31
0.0
  0
LINE
  5
2A2
100
AcDbEntity
  8
LAY-1
  6
CONTINUOUS
 62
     3
100
AcDbLine
 10
1150.018703
 20
734.230631
 30
0.0
 11
1142.548038
 21
734.258676
 31
0.0
  0
LINE
  5
2A3
100
AcDbEntity
  8
LAY-1
  6
CONTINUOUS
 62
     3
100
AcDbLine
 10
1157.847599
 20
734.114828
 30
0.0
 11
1157.83115
 21
729.83086
 31
0.0
  0
LINE
  5
2A4
100
AcDbEntity
  8
LAY-1
  6
CONTINUOUS
 62
     3
100
AcDbLine
 10
1142.588056
 20
744.680703
 30
0.0
 11
1142.571607
 21
740.396734
 31
0.0
  0
LINE
  5
2A5
100
AcDbEntity
  8
LAY-1
  6
CONTINUOUS
 62
     3
100
AcDbLine
 10
1142.562207
 20
737.948752
 30
0.0
 11
1142.548038
 21
734.258676
 31
0.0
  0
ELLIPSE
  5
2A6
100
AcDbEntity
  8
LAY-1
  6
CONTINUOUS
 62
     3
100
AcDbEllipse
 10
1147.958316
 20
726.174566
 30
0.0
 11
-3.974916129407291
 21
2.8584712284959939
 31
0.0
210
0.0
220
0.0
230
1.0
 40
0.1875
 41
0.0
 42
6.2831853071796004
  0
ELLIPSE
  5
2A7
100
AcDbEntity
  8
LAY-1
  6
CONTINUOUS
 62
     3
100
AcDbEllipse
 10
1147.944833
 20
726.07455
 30
0.0
 11
5.6303070175116421
 21
-5.6244140587978393
 31
0.0
210
0.0
220
0.0
230
1.0
 40
0.66547
 41
0.0
 42
6.2831853071796004
  0
LINE
  5
2A8
100
AcDbEntity
  8
LAY-1
  6
CONTINUOUS
 62
     3
100
AcDbLine
 10
1135.371312
 20
719.983195
 30
0.0
 11
1132.879739
 21
717.26126
 31
0.0
  0
LINE
  5
2A9
100
AcDbEntity
  8
LAY-1
  6
CONTINUOUS
 62
     3
100
AcDbLine
 10
1138.390804
 20
712.217474
 30
0.0
 11
1132.879739
 21
717.26126
 31
0.0
  0
LINE
  5
2AA
100
AcDbEntity
  8
LAY-1
  6
CONTINUOUS
 62
     3
100
AcDbLine
 10
1139.916786
 20
724.948927
 30
0.0
 11
1137.024212
 21
721.788916
 31
0.0
  0
LINE
  5
2AB
100
AcDbEntity
  8
LAY-1
  6
CONTINUOUS
 62
     3
100
AcDbLine
 10
1148.240282
 20
711.382166
 30
0.0
 11
1145.347708
 21
708.222155
 31
0.0
  0
LINE
  5
2AC
100
AcDbEntity
  8
LAY-1
  6
CONTINUOUS
 62
     3
100
AcDbLine
 10
1145.347708
 20
708.222155
 30
0.0
 11
1137.024212
 21
721.788916
 31
0.0
  0
LINE
  5
2AD
100
AcDbEntity
  8
LAY-1
  6
CONTINUOUS
 62
     3
100
AcDbLine
 10
1135.371312
 20
719.983195
 30
0.0
 11
1141.667221
 21
714.22111
 31
0.0
  0
LINE
  5
2AE
100
AcDbEntity
  8
LAY-1
  6
CONTINUOUS
 62
     3
100
AcDbLine
 10
1144.108033
 20
706.867865
 30
0.0
 11
1141.667221
 21
714.22111
 31
0.0
  0
LINE
  5
2AF
100
AcDbEntity
  8
LAY-1
  6
CONTINUOUS
 62
     3
100
AcDbLine
 10
1141.215459
 20
703.707854
 30
0.0
 11
1138.390804
 21
712.217474
 31
0.0
  0
LINE
  5
2B0
100
AcDbEntity
  8
LAY-1
  6
CONTINUOUS
 62
     3
100
AcDbLine
 10
1144.108033
 20
706.867865
 30
0.0
 11
1141.215459
 21
703.707854
 31
0.0
  0
LINE
  5
2B1
100
AcDbEntity
  8
LAY-1
  6
CONTINUOUS
 62
     3
100
AcDbLine
 10
1148.240282
 20
711.382166
 30
0.0
 11
1139.916786
 21
724.948927
 31
0.0
  0
LINE
  5
2B2
100
AcDbEntity
  8
LAY-1
  6
CONTINUOUS
 62
     3
100
AcDbLine
 10
1132.43435
 20
715.446201
 30
0.0
 11
1135.743593
 21
699.877435
 31
0.0
  0
LINE
  5
2B3
100
AcDbEntity
  8
LAY-1
  6
CONTINUOUS
 62
     3
100
AcDbLine
 10
1135.743593
 20
699.877435
 30
0.0
 11
1131.610209
 21
697.679676
 31
0.0
  0
LINE
  5
2B4
100
AcDbEntity
  8
LAY-1
  6
CONTINUOUS
 62
     3
100
AcDbLine
 10
1132.43435
 20
715.446201
 30
0.0
 11
1128.300966
 21
713.248442
 31
0.0
  0
LINE
  5
2B5
100
AcDbEntity
  8
LAY-1
  6
CONTINUOUS
 62
     3
100
AcDbLine
 10
1131.610209
 20
697.679676
 30
0.0
 11
1128.300966
 21
713.248442
 31
0.0
  0
LINE
  5
2B6
100
AcDbEntity
  8
LAY-1
  6
CONTINUOUS
 62
     3
100
AcDbLine
 10
1125.178548
 20
765.939234
 30
0.0
 11
1135.620765
 21
777.95163
 31
0.0
  0
LINE
  5
2B7
100
AcDbEntity
  8
LAY-1
  6
CONTINUOUS
 62
     3
100
AcDbLine
 10
1125.178548
 20
765.939234
 30
0.0
 11
1129.42129
 21
763.960811
 31
0.0
  0
LINE
  5
2B8
100
AcDbEntity
  8
LAY-1
  6
CONTINUOUS
 62
     1
100
AcDbLine
 10
1112.5
 20
775.75
 30
0.0
 11
1105.256349
 21
775.75
 31
0.0
  0
LINE
  5
2B9
100
AcDbEntity
  8
LAY-1
  6
CONTINUOUS
 62
     1
100
AcDbLine
 10
1104.271061
 20
776.617438
 30
0.0
 11
1104.271061
 21
772.209915
 31
0.0
  0
LINE
  5
2BA
100
AcDbEntity
  8
LAY-1
  6
CONTINUOUS
 62
     1
100
AcDbLine
 10
1104.271061
 20
772.209915
 30
0.0
 11
1104.950945
 21
772.983576
 31
0.0
  0
LINE
  5
2BB
100
AcDbEntity
  8
LAY-1
  6
CONTINUOUS
 62
     1
100
AcDbLine
 10
1112.5
 20
772.983576
 30
0.0
 11
1112.5
 21
770.393496
 31
0.0
  0
LINE
  5
2BC
100
AcDbEntity
  8
LAY-1
  6
CONTINUOUS
 62
     1
100
AcDbLine
 10
1112.5
 20
770.393496
 30
0.0
 11
1111.926908
 21
769.400871
 31
0.0
  0
LINE
  5
2BD
100
AcDbEntity
  8
LAY-1
  6
CONTINUOUS
 62
     1
100
AcDbLine
 10
1111.926908
 20
769.400871
 30
0.0
 11
1115.289868
 21
771.342477
 31
0.0
  0
LINE
  5
2BE
100
AcDbEntity
  8
LAY-1
  6
CONTINUOUS
 62
     1
100
AcDbLine
 10
1115.289868
 20
771.342477
 30
0.0
 11
1114.727206
 21
771.90514
 31
0.0
  0
LINE
  5
2BF
100
AcDbEntity
  8
LAY-1
  6
CONTINUOUS
 62
     1
100
AcDbLine
 10
1114.727206
 20
771.90514
 30
0.0
 11
1114.727206
 21
776.875325
 31
0.0
  0
LINE
  5
2C0
100
AcDbEntity
  8
LAY-1
  6
CONTINUOUS
 62
     1
100
AcDbLine
 10
1114.727206
 20
776.875325
 30
0.0
 11
1119.6446
 21
776.875325
 31
0.0
  0
LINE
  5
2C1
100
AcDbEntity
  8
LAY-1
  6
CONTINUOUS
 62
     1
100
AcDbLine
 10
1114.727206
 20
779.59486
 30
0.0
 11
1115.289868
 21
780.157523
 31
0.0
  0
LINE
  5
2C2
100
AcDbEntity
  8
LAY-1
  6
CONTINUOUS
 62
     1
100
AcDbLine
 10
1115.289868
 20
780.157523
 30
0.0
 11
1111.926908
 21
782.099129
 31
0.0
  0
LINE
  5
2C3
100
AcDbEntity
  8
LAY-1
  6
CONTINUOUS
 62
     1
100
AcDbLine
 10
1111.926908
 20
782.099129
 30
0.0
 11
1112.5
 21
781.106504
 31
0.0
  0
LINE
  5
2C4
100
AcDbEntity
  8
LAY-1
  6
CONTINUOUS
 62
     1
100
AcDbLine
 10
1112.5
 20
781.106504
 30
0.0
 11
1112.5
 21
779.313529
 31
0.0
  0
LINE
  5
2C5
100
AcDbEntity
  8
LAY-1
  6
CONTINUOUS
 62
     1
100
AcDbLine
 10
1112.5
 20
779.313529
 30
0.0
 11
1109.569466
 21
779.313529
 31
0.0
  0
LINE
  5
2C6
100
AcDbEntity
  8
LAY-1
  6
CONTINUOUS
 62
     1
100
AcDbLine
 10
1109.569466
 20
779.313529
 30
0.0
 11
1109.077137
 21
780.298188
 31
0.0
  0
LINE
  5
2C7
100
AcDbEntity
  8
LAY-1
  6
CONTINUOUS
 62
     1
100
AcDbLine
 10
1109.077137
 20
780.298188
 30
0.0
 11
1109.077137
 21
775.75
 31
0.0
  0
LINE
  5
2C8
100
AcDbEntity
  8
LAY-1
  6
CONTINUOUS
 62
     1
100
AcDbLine
 10
1109.077137
 20
775.75
 30
0.0
 11
1109.569466
 21
776.875325
 31
0.0
  0
LINE
  5
2C9
100
AcDbEntity
  8
LAY-1
  6
CONTINUOUS
 62
     1
100
AcDbLine
 10
1109.569466
 20
776.875325
 30
0.0
 11
1112.5
 21
776.875325
 31
0.0
  0
LINE
  5
2CA
100
AcDbEntity
  8
LAY-1
  6
CONTINUOUS
 62
     1
100
AcDbLine
 10
1112.5
 20
776.875325
 30
0.0
 11
1112.5
 21
775.75
 31
0.0
  0
ELLIPSE
  5
2CB
100
AcDbEntity
  8
LAY-1
  6
CONTINUOUS
 62
     1
100
AcDbEllipse
 10
1112.5
 20
775.75
 30
0.0
 11
7.2411479782635171
 21
0.2129749405371851
 31
0.0
210
0.0
220
0.0
230
1.0
 40
0.912621
 41
0.5369857443297822
 42
3.109376019493407
  0
ARC
  5
2CC
100
AcDbEntity
  8
LAY-1
  6
CONTINUOUS
 62
     1
100
AcDbCircle
 10
1112.5
 20
775.75
 30
0.0
 40
7.500005
100
AcDbArc
 50
28.368264
 51
180.0
  0
LINE
  5
2CD
100
AcDbEntity
  8
LAY-1
  6
CONTINUOUS
 62
     1
100
AcDbLine
 10
1121.479155
 20
780.063746
 30
0.0
 11
1119.099343
 21
779.313529
 31
0.0
  0
LINE
  5
2CE
100
AcDbEntity
  8
LAY-1
  6
CONTINUOUS
 62
     1
100
AcDbLine
 10
1104.999995
 20
775.75
 30
0.0
 11
1104.271061
 21
776.617438
 31
0.0
  0
LINE
  5
2CF
100
AcDbEntity
  8
LAY-1
  6
CONTINUOUS
 62
     1
100
AcDbLine
 10
1114.727206
 20
779.313529
 30
0.0
 11
1114.727206
 21
779.59486
 31
0.0
  0
LINE
  5
2D0
100
AcDbEntity
  8
LAY-1
  6
CONTINUOUS
 62
     1
100
AcDbLine
 10
1104.950945
 20
772.983576
 30
0.0
 11
1105.536174
 21
772.983576
 31
0.0
  0
LINE
  5
2D1
100
AcDbEntity
  8
LAY-1
  6
CONTINUOUS
 62
     1
100
AcDbLine
 10
1105.934036
 20
772.983576
 30
0.0
 11
1112.5
 21
772.983576
 31
0.0
  0
ARC
  5
2D2
100
AcDbEntity
  8
LAY-1
  6
CONTINUOUS
 62
     1
100
AcDbCircle
 10
1112.5
 20
775.75
 30
0.0
 40
7.500005
100
AcDbArc
 50
201.645098
 51
11.419721
  0
ELLIPSE
  5
2D3
100
AcDbEntity
  8
LAY-1
  6
CONTINUOUS
 62
     1
100
AcDbEllipse
 10
1112.5
 20
775.75
 30
0.0
 11
7.2411479782635171
 21
0.2129749405371851
 31
0.0
210
0.0
220
0.0
230
1.0
 40
0.912621
 41
3.5427715523045551
 42
0.1388139713137096
  0
LINE
  5
2D4
100
AcDbEntity
  8
LAY-1
  6
CONTINUOUS
 62
     1
100
AcDbLine
 10
1119.851528
 20
777.234961
 30
0.0
 11
1121.479155
 21
780.063746
 31
0.0
  0
LINE
  5
2D5
100
AcDbEntity
  8
LAY-1
  6
CONTINUOUS
 62
     1
100
AcDbLine
 10
1114.727206
 20
779.313529
 30
0.0
 11
1118.622562
 21
779.313529
 31
0.0
  0
LINE
  5
2D6
100
AcDbEntity
  8
LAY-1
  6
EXLTYPE3
 62
     1
100
AcDbLine
 10
1112.5
 20
898.75
 30
0.0
 11
1112.5
 21
578.75
 31
0.0
  0
LINE
  5
2D7
100
AcDbEntity
  8
LAY-1
  6
EXLTYPE2
 62
     1
100
AcDbLine
 10
811.482199
 20
738.749998
 30
0.0
 11
811.482199
 21
724.899998
 31
0.0
  0
LINE
  5
2D8
100
AcDbEntity
  8
LAY-1
  6
EXLTYPE2
 62
     1
100
AcDbLine
 10
821.482199
 20
726.749998
 30
0.0
 11
820.414101
 21
724.899998
 31
0.0
  0
LINE
  5
2D9
100
AcDbEntity
  8
LAY-1
  6
EXLTYPE2
 62
     1
100
AcDbLine
 10
811.482199
 20
724.899998
 30
0.0
 11
820.414101
 21
724.899998
 31
0.0
  0
LINE
  5
2DA
100
AcDbEntity
  8
LAY-1
  6
EXLTYPE2
 62
     1
100
AcDbLine
 10
821.482199
 20
738.749998
 30
0.0
 11
821.482199
 21
726.749998
 31
0.0
  0
LINE
  5
2DB
100
AcDbEntity
  8
LAY-1
  6
EXLTYPE2
 62
     1
100
AcDbLine
 10
820.414101
 20
731.821795
 30
0.0
 11
811.482199
 21
731.821795
 31
0.0
  0
ARC
  5
2DC
100
AcDbEntity
  8
LAY-1
  6
EXLTYPE2
 62
     1
100
AcDbCircle
 10
815.341072
 20
728.360897
 30
0.0
 40
6.141127
100
AcDbArc
 50
325.697591
 51
34.302409
  0
LINE
  5
2DD
100
AcDbEntity
  8
LAY-1
  6
EXLTYPE2
 62
     1
100
AcDbLine
 10
811.482199
 20
738.749998
 30
0.0
 11
811.482199
 21
752.599998
 31
0.0
  0
LINE
  5
2DE
100
AcDbEntity
  8
LAY-1
  6
EXLTYPE2
 62
     1
100
AcDbLine
 10
821.482199
 20
750.749998
 30
0.0
 11
820.414101
 21
752.599998
 31
0.0
  0
LINE
  5
2DF
100
AcDbEntity
  8
LAY-1
  6
EXLTYPE2
 62
     1
100
AcDbLine
 10
811.482199
 20
752.599998
 30
0.0
 11
820.414101
 21
752.599998
 31
0.0
  0
LINE
  5
2E0
100
AcDbEntity
  8
LAY-1
  6
EXLTYPE2
 62
     1
100
AcDbLine
 10
821.482199
 20
738.749998
 30
0.0
 11
821.482199
 21
750.749998
 31
0.0
  0
LINE
  5
2E1
100
AcDbEntity
  8
LAY-1
  6
EXLTYPE2
 62
     1
100
AcDbLine
 10
820.414101
 20
745.678202
 30
0.0
 11
811.482199
 21
745.678202
 31
0.0
  0
ARC
  5
2E2
100
AcDbEntity
  8
LAY-1
  6
EXLTYPE2
 62
     1
100
AcDbCircle
 10
815.341072
 20
749.1391
 30
0.0
 40
6.141127
100
AcDbArc
 50
325.697591
 51
34.302409
  0
ARC
  5
2E3
100
AcDbEntity
  8
LAY-1
  6
EXLTYPE2
 62
     1
100
AcDbCircle
 10
798.478301
 20
738.749998
 30
0.0
 40
23.003897
100
AcDbArc
 50
342.471798
 51
17.528202
  0
LINE
  5
2E4
100
AcDbEntity
  8
LAY-1
  6
EXLTYPE2
 62
     1
100
AcDbLine
 10
774.482199
 20
730.75
 30
0.0
 11
811.482199
 21
730.75
 31
0.0
  0
LINE
  5
2E5
100
AcDbEntity
  8
LAY-1
  6
EXLTYPE2
 62
     1
100
AcDbLine
 10
811.482199
 20
746.75
 30
0.0
 11
774.482199
 21
746.75
 31
0.0
  0
ARC
  5
2E6
100
AcDbEntity
  8
LAY-1
  6
EXLTYPE2
 62
     1
100
AcDbCircle
 10
753.283007
 20
716.25
 30
0.0
 40
2.0
100
AcDbArc
 50
90.0
 51
174.0
  0
LINE
  5
2E7
100
AcDbEntity
  8
LAY-1
  6
EXLTYPE2
 62
     1
100
AcDbLine
 10
759.482199
 20
718.25
 30
0.0
 11
753.283007
 21
718.25
 31
0.0
  0
ARC
  5
2E8
100
AcDbEntity
  8
LAY-1
  6
EXLTYPE2
 62
     1
100
AcDbCircle
 10
759.482199
 20
720.25
 30
0.0
 40
2.0
100
AcDbArc
 50
270.0
 51
0.0
  0
ARC
  5
2E9
100
AcDbEntity
  8
LAY-1
  6
EXLTYPE2
 62
     1
100
AcDbCircle
 10
753.702589
 20
761.25
 30
0.0
 40
2.0
100
AcDbArc
 50
190.0
 51
270.0
  0
LINE
  5
2EA
100
AcDbEntity
  8
LAY-1
  6
EXLTYPE2
 62
     1
100
AcDbLine
 10
759.482199
 20
759.25
 30
0.0
 11
753.702589
 21
759.25
 31
0.0
  0
ARC
  5
2EB
100
AcDbEntity
  8
LAY-1
  6
EXLTYPE2
 62
     1
100
AcDbCircle
 10
759.482199
 20
757.25
 30
0.0
 40
2.0
100
AcDbArc
 50
0.0
 51
90.0
  0
LINE
  5
2EC
100
AcDbEntity
  8
LAY-1
  6
EXLTYPE2
 62
     1
100
AcDbLine
 10
761.482199
 20
720.25
 30
0.0
 11
761.482199
 21
757.25
 31
0.0
  0
LINE
  5
2ED
100
AcDbEntity
  8
LAY-1
  6
EXLTYPE2
 62
     1
100
AcDbLine
 10
773.414101
 20
745.678204
 30
0.0
 11
761.482199
 21
745.678204
 31
0.0
  0
LINE
  5
2EE
100
AcDbEntity
  8
LAY-1
  6
EXLTYPE2
 62
     1
100
AcDbLine
 10
761.482199
 20
752.600001
 30
0.0
 11
773.414101
 21
752.600001
 31
0.0
  0
LINE
  5
2EF
100
AcDbEntity
  8
LAY-1
  6
EXLTYPE2
 62
     1
100
AcDbLine
 10
773.414101
 20
731.821798
 30
0.0
 11
761.482199
 21
731.821798
 31
0.0
  0
LINE
  5
2F0
100
AcDbEntity
  8
LAY-1
  6
EXLTYPE2
 62
     1
100
AcDbLine
 10
761.482199
 20
724.900001
 30
0.0
 11
773.414101
 21
724.900001
 31
0.0
  0
ARC
  5
2F1
100
AcDbEntity
  8
LAY-1
  6
EXLTYPE2
 62
     1
100
AcDbCircle
 10
751.478301
 20
738.750001
 30
0.0
 40
23.003897
100
AcDbArc
 50
342.471798
 51
17.528202
  0
ARC
  5
2F2
100
AcDbEntity
  8
LAY-1
  6
EXLTYPE2
 62
     1
100
AcDbCircle
 10
768.341072
 20
749.139103
 30
0.0
 40
6.141127
100
AcDbArc
 50
325.697591
 51
34.302409
  0
LINE
  5
2F3
100
AcDbEntity
  8
LAY-1
  6
EXLTYPE2
 62
     1
100
AcDbLine
 10
774.482199
 20
738.750001
 30
0.0
 11
774.482199
 21
750.750001
 31
0.0
  0
LINE
  5
2F4
100
AcDbEntity
  8
LAY-1
  6
EXLTYPE2
 62
     1
100
AcDbLine
 10
774.482199
 20
750.750001
 30
0.0
 11
773.414101
 21
752.600001
 31
0.0
  0
ARC
  5
2F5
100
AcDbEntity
  8
LAY-1
  6
EXLTYPE2
 62
     1
100
AcDbCircle
 10
768.341072
 20
728.360899
 30
0.0
 40
6.141127
100
AcDbArc
 50
325.697591
 51
34.302409
  0
LINE
  5
2F6
100
AcDbEntity
  8
LAY-1
  6
EXLTYPE2
 62
     1
100
AcDbLine
 10
774.482199
 20
738.750001
 30
0.0
 11
774.482199
 21
726.750001
 31
0.0
  0
LINE
  5
2F7
100
AcDbEntity
  8
LAY-1
  6
EXLTYPE2
 62
     1
100
AcDbLine
 10
774.482199
 20
726.750001
 30
0.0
 11
773.414101
 21
724.900001
 31
0.0
  0
LINE
  5
2F8
100
AcDbEntity
  8
LAY-1
  6
EXLTYPE2
 62
     1
100
AcDbLine
 10
750.707578
 20
710.781992
 30
0.0
 11
751.293963
 21
716.459057
 31
0.0
  0
LINE
  5
2F9
100
AcDbEntity
  8
LAY-1
  6
EXLTYPE2
 62
     1
100
AcDbLine
 10
1413.517801
 20
738.749998
 30
0.0
 11
1413.517801
 21
724.899998
 31
0.0
  0
LINE
  5
2FA
100
AcDbEntity
  8
LAY-1
  6
EXLTYPE2
 62
     1
100
AcDbLine
 10
1403.517801
 20
726.749998
 30
0.0
 11
1404.585899
 21
724.899998
 31
0.0
  0
LINE
  5
2FB
100
AcDbEntity
  8
LAY-1
  6
EXLTYPE2
 62
     1
100
AcDbLine
 10
1413.517801
 20
724.899998
 30
0.0
 11
1404.585899
 21
724.899998
 31
0.0
  0
LINE
  5
2FC
100
AcDbEntity
  8
LAY-1
  6
EXLTYPE2
 62
     1
100
AcDbLine
 10
1403.517801
 20
738.749998
 30
0.0
 11
1403.517801
 21
726.749998
 31
0.0
  0
LINE
  5
2FD
100
AcDbEntity
  8
LAY-1
  6
EXLTYPE2
 62
     1
100
AcDbLine
 10
1404.585899
 20
731.821795
 30
0.0
 11
1413.517801
 21
731.821795
 31
0.0
  0
ARC
  5
2FE
100
AcDbEntity
  8
LAY-1
  6
EXLTYPE2
 62
     1
100
AcDbCircle
 10
1409.658928
 20
728.360897
 30
0.0
 40
6.141127
100
AcDbArc
 50
145.697591
 51
214.302409
  0
LINE
  5
2FF
100
AcDbEntity
  8
LAY-1
  6
EXLTYPE2
 62
     1
100
AcDbLine
 10
1413.517801
 20
738.749998
 30
0.0
 11
1413.517801
 21
752.599998
 31
0.0
  0
LINE
  5
300
100
AcDbEntity
  8
LAY-1
  6
EXLTYPE2
 62
     1
100
AcDbLine
 10
1403.517801
 20
750.749998
 30
0.0
 11
1404.585899
 21
752.599998
 31
0.0
  0
LINE
  5
301
100
AcDbEntity
  8
LAY-1
  6
EXLTYPE2
 62
     1
100
AcDbLine
 10
1413.517801
 20
752.599998
 30
0.0
 11
1404.585899
 21
752.599998
 31
0.0
  0
LINE
  5
302
100
AcDbEntity
  8
LAY-1
  6
EXLTYPE2
 62
     1
100
AcDbLine
 10
1403.517801
 20
738.749998
 30
0.0
 11
1403.517801
 21
750.749998
 31
0.0
  0
LINE
  5
303
100
AcDbEntity
  8
LAY-1
  6
EXLTYPE2
 62
     1
100
AcDbLine
 10
1404.585899
 20
745.678202
 30
0.0
 11
1413.517801
 21
745.678202
 31
0.0
  0
ARC
  5
304
100
AcDbEntity
  8
LAY-1
  6
EXLTYPE2
 62
     1
100
AcDbCircle
 10
1409.658928
 20
749.1391
 30
0.0
 40
6.141127
100
AcDbArc
 50
145.697591
 51
214.302409
  0
ARC
  5
305
100
AcDbEntity
  8
LAY-1
  6
EXLTYPE2
 62
     1
100
AcDbCircle
 10
1426.521699
 20
738.749998
 30
0.0
 40
23.003897
100
AcDbArc
 50
162.471798
 51
197.528202
  0
LINE
  5
306
100
AcDbEntity
  8
LAY-1
  6
EXLTYPE2
 62
     1
100
AcDbLine
 10
1450.517801
 20
730.75
 30
0.0
 11
1413.517801
 21
730.75
 31
0.0
  0
LINE
  5
307
100
AcDbEntity
  8
LAY-1
  6
EXLTYPE2
 62
     1
100
AcDbLine
 10
1413.517801
 20
746.75
 30
0.0
 11
1450.517801
 21
746.75
 31
0.0
  0
LINE
  5
308
100
AcDbEntity
  8
LAY-1
  6
EXLTYPE2
 62
     1
100
AcDbLine
 10
1465.517801
 20
718.25
 30
0.0
 11
1471.716993
 21
718.25
 31
0.0
  0
ARC
  5
309
100
AcDbEntity
  8
LAY-1
  6
EXLTYPE2
 62
     1
100
AcDbCircle
 10
1465.517801
 20
720.25
 30
0.0
 40
2.0
100
AcDbArc
 50
180.0
 51
270.0
  0
ARC
  5
30A
100
AcDbEntity
  8
LAY-1
  6
EXLTYPE2
 62
     1
100
AcDbCircle
 10
1471.297411
 20
761.25
 30
0.0
 40
2.0
100
AcDbArc
 50
270.0
 51
350.0
  0
LINE
  5
30B
100
AcDbEntity
  8
LAY-1
  6
EXLTYPE2
 62
     1
100
AcDbLine
 10
1465.517801
 20
759.25
 30
0.0
 11
1471.297411
 21
759.25
 31
0.0
  0
ARC
  5
30C
100
AcDbEntity
  8
LAY-1
  6
EXLTYPE2
 62
     1
100
AcDbCircle
 10
1465.517801
 20
757.25
 30
0.0
 40
2.0
100
AcDbArc
 50
90.0
 51
180.0
  0
LINE
  5
30D
100
AcDbEntity
  8
LAY-1
  6
EXLTYPE2
 62
     1
100
AcDbLine
 10
1463.517801
 20
720.25
 30
0.0
 11
1463.517801
 21
757.25
 31
0.0
  0
LINE
  5
30E
100
AcDbEntity
  8
LAY-1
  6
EXLTYPE2
 62
     1
100
AcDbLine
 10
1451.585899
 20
745.678204
 30
0.0
 11
1463.517801
 21
745.678204
 31
0.0
  0
LINE
  5
30F
100
AcDbEntity
  8
LAY-1
  6
EXLTYPE2
 62
     1
100
AcDbLine
 10
1463.517801
 20
752.600001
 30
0.0
 11
1451.585899
 21
752.600001
 31
0.0
  0
LINE
  5
310
100
AcDbEntity
  8
LAY-1
  6
EXLTYPE2
 62
     1
100
AcDbLine
 10
1451.585899
 20
731.821798
 30
0.0
 11
1463.517801
 21
731.821798
 31
0.0
  0
LINE
  5
311
100
AcDbEntity
  8
LAY-1
  6
EXLTYPE2
 62
     1
100
AcDbLine
 10
1463.517801
 20
724.900001
 30
0.0
 11
1451.585899
 21
724.900001
 31
0.0
  0
ARC
  5
312
100
AcDbEntity
  8
LAY-1
  6
EXLTYPE2
 62
     1
100
AcDbCircle
 10
1473.521699
 20
738.750001
 30
0.0
 40
23.003897
100
AcDbArc
 50
162.471798
 51
197.528202
  0
ARC
  5
313
100
AcDbEntity
  8
LAY-1
  6
EXLTYPE2
 62
     1
100
AcDbCircle
 10
1456.658928
 20
749.139103
 30
0.0
 40
6.141127
100
AcDbArc
 50
145.697591
 51
214.302409
  0
LINE
  5
314
100
AcDbEntity
  8
LAY-1
  6
EXLTYPE2
 62
     1
100
AcDbLine
 10
1450.517801
 20
738.750001
 30
0.0
 11
1450.517801
 21
750.750001
 31
0.0
  0
LINE
  5
315
100
AcDbEntity
  8
LAY-1
  6
EXLTYPE2
 62
     1
100
AcDbLine
 10
1450.517801
 20
750.750001
 30
0.0
 11
1451.585899
 21
752.600001
 31
0.0
  0
ARC
  5
316
100
AcDbEntity
  8
LAY-1
  6
EXLTYPE2
 62
     1
100
AcDbCircle
 10
1456.658928
 20
728.360899
 30
0.0
 40
6.141127
100
AcDbArc
 50
145.697591
 51
214.302409
  0
LINE
  5
317
100
AcDbEntity
  8
LAY-1
  6
EXLTYPE2
 62
     1
100
AcDbLine
 10
1450.517801
 20
738.750001
 30
0.0
 11
1450.517801
 21
726.750001
 31
0.0
  0
LINE
  5
318
100
AcDbEntity
  8
LAY-1
  6
EXLTYPE2
 62
     1
100
AcDbLine
 10
1450.517801
 20
726.750001
 30
0.0
 11
1451.585899
 21
724.900001
 31
0.0
  0
LINE
  5
319
100
AcDbEntity
  8
LAY-1
  6
EXLTYPE2
 62
     1
100
AcDbLine
 10
1474.292422
 20
710.781992
 30
0.0
 11
1473.706037
 21
716.459057
 31
0.0
  0
LINE
  5
31A
100
AcDbEntity
  8
LAY-1
  6
EXLTYPE2
 62
     1
100
AcDbLine
 10
1474.292422
 20
766.718009
 30
0.0
 11
1473.267027
 21
760.902704
 31
0.0
  0
LINE
  5
31B
100
AcDbEntity
  8
LAY-1
  6
EXLTYPE2
 62
     1
100
AcDbLine
 10
1140.468009
 20
1109.019018
 30
0.0
 11
1134.652704
 21
1107.993623
 31
0.0
  0
LINE
  5
31C
100
AcDbEntity
  8
LAY-1
  6
EXLTYPE2
 62
     1
100
AcDbLine
 10
1084.531992
 20
1109.019018
 30
0.0
 11
1090.209057
 21
1108.432633
 31
0.0
  0
LINE
  5
31D
100
AcDbEntity
  8
LAY-1
  6
EXLTYPE2
 62
     1
100
AcDbLine
 10
1100.500001
 20
1085.244397
 30
0.0
 11
1098.650001
 21
1086.312495
 31
0.0
  0
LINE
  5
31E
100
AcDbEntity
  8
LAY-1
  6
EXLTYPE2
 62
     1
100
AcDbLine
 10
1112.500001
 20
1085.244397
 30
0.0
 11
1100.500001
 21
1085.244397
 31
0.0
  0
ARC
  5
31F
100
AcDbEntity
  8
LAY-1
  6
EXLTYPE2
 62
     1
100
AcDbCircle
 10
1102.110899
 20
1091.385524
 30
0.0
 40
6.141127
100
AcDbArc
 50
235.697591
 51
304.302409
  0
LINE
  5
320
100
AcDbEntity
  8
LAY-1
  6
EXLTYPE2
 62
     1
100
AcDbLine
 10
1124.500001
 20
1085.244397
 30
0.0
 11
1126.350001
 21
1086.312495
 31
0.0
  0
LINE
  5
321
100
AcDbEntity
  8
LAY-1
  6
EXLTYPE2
 62
     1
100
AcDbLine
 10
1112.500001
 20
1085.244397
 30
0.0
 11
1124.500001
 21
1085.244397
 31
0.0
  0
ARC
  5
322
100
AcDbEntity
  8
LAY-1
  6
EXLTYPE2
 62
     1
100
AcDbCircle
 10
1122.889103
 20
1091.385524
 30
0.0
 40
6.141127
100
AcDbArc
 50
235.697591
 51
304.302409
  0
ARC
  5
323
100
AcDbEntity
  8
LAY-1
  6
EXLTYPE2
 62
     1
100
AcDbCircle
 10
1112.500001
 20
1108.248295
 30
0.0
 40
23.003897
100
AcDbArc
 50
252.471798
 51
287.528202
  0
LINE
  5
324
100
AcDbEntity
  8
LAY-1
  6
EXLTYPE2
 62
     1
100
AcDbLine
 10
1098.650001
 20
1098.244397
 30
0.0
 11
1098.650001
 21
1086.312495
 31
0.0
  0
LINE
  5
325
100
AcDbEntity
  8
LAY-1
  6
EXLTYPE2
 62
     1
100
AcDbLine
 10
1105.571798
 20
1086.312495
 30
0.0
 11
1105.571798
 21
1098.244397
 31
0.0
  0
LINE
  5
326
100
AcDbEntity
  8
LAY-1
  6
EXLTYPE2
 62
     1
100
AcDbLine
 10
1126.350001
 20
1098.244397
 30
0.0
 11
1126.350001
 21
1086.312495
 31
0.0
  0
LINE
  5
327
100
AcDbEntity
  8
LAY-1
  6
EXLTYPE2
 62
     1
100
AcDbLine
 10
1119.428204
 20
1086.312495
 30
0.0
 11
1119.428204
 21
1098.244397
 31
0.0
  0
LINE
  5
328
100
AcDbEntity
  8
LAY-1
  6
EXLTYPE2
 62
     1
100
AcDbLine
 10
1094.0
 20
1098.244397
 30
0.0
 11
1131.0
 21
1098.244397
 31
0.0
  0
ARC
  5
329
100
AcDbEntity
  8
LAY-1
  6
EXLTYPE2
 62
     1
100
AcDbCircle
 10
1131.0
 20
1100.244397
 30
0.0
 40
2.0
100
AcDbArc
 50
270.0
 51
0.0
  0
LINE
  5
32A
100
AcDbEntity
  8
LAY-1
  6
EXLTYPE2
 62
     1
100
AcDbLine
 10
1133.0
 20
1100.244397
 30
0.0
 11
1133.0
 21
1106.024007
 31
0.0
  0
ARC
  5
32B
100
AcDbEntity
  8
LAY-1
  6
EXLTYPE2
 62
     1
100
AcDbCircle
 10
1135.0
 20
1106.024007
 30
0.0
 40
2.0
100
AcDbArc
 50
100.0
 51
180.0
  0
ARC
  5
32C
100
AcDbEntity
  8
LAY-1
  6
EXLTYPE2
 62
     1
100
AcDbCircle
 10
1094.0
 20
1100.244397
 30
0.0
 40
2.0
100
AcDbArc
 50
180.0
 51
270.0
  0
LINE
  5
32D
100
AcDbEntity
  8
LAY-1
  6
EXLTYPE2
 62
     1
100
AcDbLine
 10
1092.0
 20
1100.244397
 30
0.0
 11
1092.0
 21
1106.443589
 31
0.0
  0
ARC
  5
32E
100
AcDbEntity
  8
LAY-1
  6
EXLTYPE2
 62
     1
100
AcDbCircle
 10
1090.0
 20
1106.443589
 30
0.0
 40
2.0
100
AcDbArc
 50
0.0
 51
84.0
  0
LINE
  5
32F
100
AcDbEntity
  8
LAY-1
  6
EXLTYPE2
 62
     1
100
AcDbLine
 10
1120.5
 20
1048.244397
 30
0.0
 11
1120.5
 21
1085.244397
 31
0.0
  0
LINE
  5
330
100
AcDbEntity
  8
LAY-1
  6
EXLTYPE2
 62
     1
100
AcDbLine
 10
1104.5
 20
1085.244397
 30
0.0
 11
1104.5
 21
1048.244397
 31
0.0
  0
ARC
  5
331
100
AcDbEntity
  8
LAY-1
  6
EXLTYPE2
 62
     1
100
AcDbCircle
 10
1112.499998
 20
1061.248295
 30
0.0
 40
23.003897
100
AcDbArc
 50
252.471798
 51
287.528202
  0
ARC
  5
332
100
AcDbEntity
  8
LAY-1
  6
EXLTYPE2
 62
     1
100
AcDbCircle
 10
1122.8891
 20
1044.385524
 30
0.0
 40
6.141127
100
AcDbArc
 50
235.697591
 51
304.302409
  0
LINE
  5
333
100
AcDbEntity
  8
LAY-1
  6
EXLTYPE2
 62
     1
100
AcDbLine
 10
1119.428202
 20
1039.312495
 30
0.0
 11
1119.428202
 21
1048.244397
 31
0.0
  0
LINE
  5
334
100
AcDbEntity
  8
LAY-1
  6
EXLTYPE2
 62
     1
100
AcDbLine
 10
1112.499998
 20
1038.244397
 30
0.0
 11
1124.499998
 21
1038.244397
 31
0.0
  0
LINE
  5
335
100
AcDbEntity
  8
LAY-1
  6
EXLTYPE2
 62
     1
100
AcDbLine
 10
1126.349998
 20
1048.244397
 30
0.0
 11
1126.349998
 21
1039.312495
 31
0.0
  0
LINE
  5
336
100
AcDbEntity
  8
LAY-1
  6
EXLTYPE2
 62
     1
100
AcDbLine
 10
1124.499998
 20
1038.244397
 30
0.0
 11
1126.349998
 21
1039.312495
 31
0.0
  0
LINE
  5
337
100
AcDbEntity
  8
LAY-1
  6
EXLTYPE2
 62
     1
100
AcDbLine
 10
1112.499998
 20
1048.244397
 30
0.0
 11
1126.349998
 21
1048.244397
 31
0.0
  0
ARC
  5
338
100
AcDbEntity
  8
LAY-1
  6
EXLTYPE2
 62
     1
100
AcDbCircle
 10
1102.110897
 20
1044.385524
 30
0.0
 40
6.141127
100
AcDbArc
 50
235.697591
 51
304.302409
  0
LINE
  5
339
100
AcDbEntity
  8
LAY-1
  6
EXLTYPE2
 62
     1
100
AcDbLine
 10
1105.571795
 20
1039.312495
 30
0.0
 11
1105.571795
 21
1048.244397
 31
0.0
  0
LINE
  5
33A
100
AcDbEntity
  8
LAY-1
  6
EXLTYPE2
 62
     1
100
AcDbLine
 10
1112.499998
 20
1038.244397
 30
0.0
 11
1100.499998
 21
1038.244397
 31
0.0
  0
LINE
  5
33B
100
AcDbEntity
  8
LAY-1
  6
EXLTYPE2
 62
     1
100
AcDbLine
 10
1098.649998
 20
1048.244397
 30
0.0
 11
1098.649998
 21
1039.312495
 31
0.0
  0
LINE
  5
33C
100
AcDbEntity
  8
LAY-1
  6
EXLTYPE2
 62
     1
100
AcDbLine
 10
1100.499998
 20
1038.244397
 30
0.0
 11
1098.649998
 21
1039.312495
 31
0.0
  0
LINE
  5
33D
100
AcDbEntity
  8
LAY-1
  6
EXLTYPE2
 62
     1
100
AcDbLine
 10
1112.499998
 20
1048.244397
 30
0.0
 11
1098.649998
 21
1048.244397
 31
0.0
  0
LINE
  5
33E
100
AcDbEntity
  8
LAY-1
  6
EXLTYPE2
 62
     1
100
AcDbLine
 10
1140.468009
 20
368.480982
 30
0.0
 11
1134.652704
 21
369.506377
 31
0.0
  0
LINE
  5
33F
100
AcDbEntity
  8
LAY-1
  6
EXLTYPE2
 62
     1
100
AcDbLine
 10
1084.531992
 20
368.480982
 30
0.0
 11
1090.209057
 21
369.067367
 31
0.0
  0
LINE
  5
340
100
AcDbEntity
  8
LAY-1
  6
EXLTYPE2
 62
     1
100
AcDbLine
 10
1100.500001
 20
392.255603
 30
0.0
 11
1098.650001
 21
391.187505
 31
0.0
  0
LINE
  5
341
100
AcDbEntity
  8
LAY-1
  6
EXLTYPE2
 62
     1
100
AcDbLine
 10
1112.500001
 20
392.255603
 30
0.0
 11
1100.500001
 21
392.255603
 31
0.0
  0
ARC
  5
342
100
AcDbEntity
  8
LAY-1
  6
EXLTYPE2
 62
     1
100
AcDbCircle
 10
1102.110899
 20
386.114476
 30
0.0
 40
6.141127
100
AcDbArc
 50
55.697591
 51
124.302409
  0
LINE
  5
343
100
AcDbEntity
  8
LAY-1
  6
EXLTYPE2
 62
     1
100
AcDbLine
 10
1124.500001
 20
392.255603
 30
0.0
 11
1126.350001
 21
391.187505
 31
0.0
  0
LINE
  5
344
100
AcDbEntity
  8
LAY-1
  6
EXLTYPE2
 62
     1
100
AcDbLine
 10
1112.500001
 20
392.255603
 30
0.0
 11
1124.500001
 21
392.255603
 31
0.0
  0
ARC
  5
345
100
AcDbEntity
  8
LAY-1
  6
EXLTYPE2
 62
     1
100
AcDbCircle
 10
1122.889103
 20
386.114476
 30
0.0
 40
6.141127
100
AcDbArc
 50
55.697591
 51
124.302409
  0
ARC
  5
346
100
AcDbEntity
  8
LAY-1
  6
EXLTYPE2
 62
     1
100
AcDbCircle
 10
1112.500001
 20
369.251705
 30
0.0
 40
23.003897
100
AcDbArc
 50
72.471798
 51
107.528202
  0
LINE
  5
347
100
AcDbEntity
  8
LAY-1
  6
EXLTYPE2
 62
     1
100
AcDbLine
 10
1098.650001
 20
379.255603
 30
0.0
 11
1098.650001
 21
391.187505
 31
0.0
  0
LINE
  5
348
100
AcDbEntity
  8
LAY-1
  6
EXLTYPE2
 62
     1
100
AcDbLine
 10
1105.571798
 20
391.187505
 30
0.0
 11
1105.571798
 21
379.255603
 31
0.0
  0
LINE
  5
349
100
AcDbEntity
  8
LAY-1
  6
EXLTYPE2
 62
     1
100
AcDbLine
 10
1126.350001
 20
379.255603
 30
0.0
 11
1126.350001
 21
391.187505
 31
0.0
  0
LINE
  5
34A
100
AcDbEntity
  8
LAY-1
  6
EXLTYPE2
 62
     1
100
AcDbLine
 10
1119.428204
 20
391.187505
 30
0.0
 11
1119.428204
 21
379.255603
 31
0.0
  0
LINE
  5
34B
100
AcDbEntity
  8
LAY-1
  6
EXLTYPE2
 62
     1
100
AcDbLine
 10
1094.0
 20
379.255603
 30
0.0
 11
1131.0
 21
379.255603
 31
0.0
  0
ARC
  5
34C
100
AcDbEntity
  8
LAY-1
  6
EXLTYPE2
 62
     1
100
AcDbCircle
 10
1131.0
 20
377.255603
 30
0.0
 40
2.0
100
AcDbArc
 50
0.0
 51
90.0
  0
LINE
  5
34D
100
AcDbEntity
  8
LAY-1
  6
EXLTYPE2
 62
     1
100
AcDbLine
 10
1133.0
 20
377.255603
 30
0.0
 11
1133.0
 21
371.475993
 31
0.0
  0
ARC
  5
34E
100
AcDbEntity
  8
LAY-1
  6
EXLTYPE2
 62
     1
100
AcDbCircle
 10
1135.0
 20
371.475993
 30
0.0
 40
2.0
100
AcDbArc
 50
180.0
 51
260.0
  0
ARC
  5
34F
100
AcDbEntity
  8
LAY-1
  6
EXLTYPE2
 62
     1
100
AcDbCircle
 10
1094.0
 20
377.255603
 30
0.0
 40
2.0
100
AcDbArc
 50
90.0
 51
180.0
  0
LINE
  5
350
100
AcDbEntity
  8
LAY-1
  6
EXLTYPE2
 62
     1
100
AcDbLine
 10
1092.0
 20
377.255603
 30
0.0
 11
1092.0
 21
371.056411
 31
0.0
  0
ARC
  5
351
100
AcDbEntity
  8
LAY-1
  6
EXLTYPE2
 62
     1
100
AcDbCircle
 10
1090.0
 20
371.056411
 30
0.0
 40
2.0
100
AcDbArc
 50
276.0
 51
0.0
  0
LINE
  5
352
100
AcDbEntity
  8
LAY-1
  6
EXLTYPE2
 62
     1
100
AcDbLine
 10
1120.5
 20
429.255603
 30
0.0
 11
1120.5
 21
392.255603
 31
0.0
  0
LINE
  5
353
100
AcDbEntity
  8
LAY-1
  6
EXLTYPE2
 62
     1
100
AcDbLine
 10
1104.5
 20
392.255603
 30
0.0
 11
1104.5
 21
429.255603
 31
0.0
  0
ARC
  5
354
100
AcDbEntity
  8
LAY-1
  6
EXLTYPE2
 62
     1
100
AcDbCircle
 10
1112.499998
 20
416.251705
 30
0.0
 40
23.003897
100
AcDbArc
 50
72.471798
 51
107.528202
  0
ARC
  5
355
100
AcDbEntity
  8
LAY-1
  6
EXLTYPE2
 62
     1
100
AcDbCircle
 10
1122.8891
 20
433.114476
 30
0.0
 40
6.141127
100
AcDbArc
 50
55.697591
 51
124.302409
  0
LINE
  5
356
100
AcDbEntity
  8
LAY-1
  6
EXLTYPE2
 62
     1
100
AcDbLine
 10
1119.428202
 20
438.187505
 30
0.0
 11
1119.428202
 21
429.255603
 31
0.0
  0
LINE
  5
357
100
AcDbEntity
  8
LAY-1
  6
EXLTYPE2
 62
     1
100
AcDbLine
 10
1112.499998
 20
439.255603
 30
0.0
 11
1124.499998
 21
439.255603
 31
0.0
  0
LINE
  5
358
100
AcDbEntity
  8
LAY-1
  6
EXLTYPE2
 62
     1
100
AcDbLine
 10
1126.349998
 20
429.255603
 30
0.0
 11
1126.349998
 21
438.187505
 31
0.0
  0
LINE
  5
359
100
AcDbEntity
  8
LAY-1
  6
EXLTYPE2
 62
     1
100
AcDbLine
 10
1124.499998
 20
439.255603
 30
0.0
 11
1126.349998
 21
438.187505
 31
0.0
  0
LINE
  5
35A
100
AcDbEntity
  8
LAY-1
  6
EXLTYPE2
 62
     1
100
AcDbLine
 10
1112.499998
 20
429.255603
 30
0.0
 11
1126.349998
 21
429.255603
 31
0.0
  0
ARC
  5
35B
100
AcDbEntity
  8
LAY-1
  6
EXLTYPE2
 62
     1
100
AcDbCircle
 10
1102.110897
 20
433.114476
 30
0.0
 40
6.141127
100
AcDbArc
 50
55.697591
 51
124.302409
  0
LINE
  5
35C
100
AcDbEntity
  8
LAY-1
  6
EXLTYPE2
 62
     1
100
AcDbLine
 10
1105.571795
 20
438.187505
 30
0.0
 11
1105.571795
 21
429.255603
 31
0.0
  0
LINE
  5
35D
100
AcDbEntity
  8
LAY-1
  6
EXLTYPE2
 62
     1
100
AcDbLine
 10
1112.499998
 20
439.255603
 30
0.0
 11
1100.499998
 21
439.255603
 31
0.0
  0
LINE
  5
35E
100
AcDbEntity
  8
LAY-1
  6
EXLTYPE2
 62
     1
100
AcDbLine
 10
1098.649998
 20
429.255603
 30
0.0
 11
1098.649998
 21
438.187505
 31
0.0
  0
LINE
  5
35F
100
AcDbEntity
  8
LAY-1
  6
EXLTYPE2
 62
     1
100
AcDbLine
 10
1100.499998
 20
439.255603
 30
0.0
 11
1098.649998
 21
438.187505
 31
0.0
  0
LINE
  5
360
100
AcDbEntity
  8
LAY-1
  6
EXLTYPE2
 62
     1
100
AcDbLine
 10
1112.499998
 20
429.255603
 30
0.0
 11
1098.649998
 21
429.255603
 31
0.0
  0
LINE
  5
361
100
AcDbEntity
  8
LAY-1
  6
EXLTYPE3
 62
     1
100
AcDbLine
 10
524.5
 20
738.75
 30
0.0
 11
484.5
 21
738.75
 31
0.0
  0
LINE
  5
362
100
AcDbEntity
  8
LAY-1
  6
EXLTYPE3
 62
     1
100
AcDbLine
 10
504.5
 20
897.75
 30
0.0
 11
504.5
 21
574.75
 31
0.0
  0
LINE
  5
363
100
AcDbEntity
  8
LAY-1
  6
EXLTYPE3
 62
     1
100
AcDbLine
 10
879.532051
 20
738.75
 30
0.0
 11
430.532051
 21
738.75
 31
0.0
  0
LINE
  5
364
100
AcDbEntity
  8
LAY-1
  6
EXLTYPE3
 62
     1
100
AcDbLine
 10
588.582199
 20
738.75
 30
0.0
 11
643.982199
 21
738.75
 31
0.0
  0
LINE
  5
365
100
AcDbEntity
  8
LAY-1
  6
EXLTYPE3
 62
     1
100
AcDbLine
 10
524.5
 20
738.75
 30
0.0
 11
484.5
 21
738.75
 31
0.0
  0
LINE
  5
366
100
AcDbEntity
  8
LAY-1
  6
EXLTYPE3
 62
     1
100
AcDbLine
 10
504.5
 20
668.75
 30
0.0
 11
504.5
 21
808.75
 31
0.0
  0
LINE
  5
367
100
AcDbEntity
  8
LAY-1
  6
EXLTYPE3
 62
     1
100
AcDbLine
 10
1348.467949
 20
738.75
 30
0.0
 11
1794.467949
 21
738.75
 31
0.0
  0
LINE
  5
368
100
AcDbEntity
  8
LAY-1
  6
EXLTYPE3
 62
     1
100
AcDbLine
 10
1201.5
 20
1355.232199
 30
0.0
 11
1021.0
 21
1355.232199
 31
0.0
  0
CIRCLE
  5
369
100
AcDbEntity
  8
LAY-1
  6
EXLTYPE4
 62
     1
100
AcDbCircle
 10
1112.5
 20
122.267801
 30
0.0
 40
13.6
  0
LINE
  5
36A
100
AcDbEntity
  8
LAY-1
  6
EXLTYPE3
 62
     1
100
AcDbLine
 10
1201.5
 20
122.267801
 30
0.0
 11
1021.0
 21
122.267801
 31
0.0
  0
LINE
  5
36B
100
AcDbEntity
  8
LAY-1
  6
EXLTYPE3
 62
     1
100
AcDbLine
 10
726.45
 20
738.75
 30
0.0
 11
739.65
 21
738.75
 31
0.0
  0
LINE
  5
36C
100
AcDbEntity
  8
LAY-1
  6
EXLTYPE3
 62
     1
100
AcDbLine
 10
746.984451
 20
738.75
 30
0.0
 11
757.284451
 21
738.75
 31
0.0
  0
LINE
  5
36D
100
AcDbEntity
  8
LAY-1
  6
EXLTYPE2
 62
     1
100
AcDbLine
 10
750.707578
 20
766.718009
 30
0.0
 11
751.732973
 21
760.902704
 31
0.0
  0
LINE
  5
36E
100
AcDbEntity
  8
LAY-1
  6
EXLTYPE3
 62
     1
100
AcDbLine
 10
1112.5
 20
900.25
 30
0.0
 11
1112.5
 21
577.25
 31
0.0
  0
LINE
  5
36F
100
AcDbEntity
  8
LAY-1
  6
EXLTYPE3
 62
     1
100
AcDbLine
 10
1112.5
 20
500.0
 30
0.0
 11
1112.5
 21
29.0
 31
0.0
  0
LINE
  5
370
100
AcDbEntity
  8
LAY-1
  6
EXLTYPE3
 62
     1
100
AcDbLine
 10
1251.0
 20
738.75
 30
0.0
 11
974.0
 21
738.75
 31
0.0
  0
LINE
  5
371
100
AcDbEntity
  8
LAY-1
  6
EXLTYPE3
 62
     1
100
AcDbLine
 10
1112.5
 20
977.5
 30
0.0
 11
1112.5
 21
1448.5
 31
0.0
  0
ARC
  5
372
100
AcDbEntity
  8
LAY-1
  6
CONTINUOUS
 62
     2
100
AcDbCircle
 10
189.046234
 20
738.75
 30
0.0
 40
357.0
100
AcDbArc
 50
344.032069
 51
347.409918
  0
ARC
  5
373
100
AcDbEntity
  8
LAY-1
  6
CONTINUOUS
 62
     2
100
AcDbCircle
 10
819.953766
 20
738.75
 30
0.0
 40
357.0
100
AcDbArc
 50
185.548314
 51
195.967931
  0
ARC
  5
374
100
AcDbEntity
  8
LAY-1
  6
CONTINUOUS
 62
     2
100
AcDbCircle
 10
1405.046234
 20
738.75
 30
0.0
 40
357.0
100
AcDbArc
 50
344.032069
 51
354.451686
  0
ARC
  5
375
100
AcDbEntity
  8
LAY-1
  6
CONTINUOUS
 62
     2
100
AcDbCircle
 10
565.0
 20
868.159058
 30
0.0
 40
2.0
100
AcDbArc
 50
270.0
 51
0.0
  0
LINE
  5
376
100
AcDbEntity
  8
LAY-1
  6
CONTINUOUS
 62
     2
100
AcDbLine
 10
567.0
 20
868.159058
 30
0.0
 11
567.0
 21
881.25
 31
0.0
  0
LINE
  5
377
100
AcDbEntity
  8
LAY-1
  6
CONTINUOUS
 62
     2
100
AcDbLine
 10
567.0
 20
881.25
 30
0.0
 11
442.0
 21
881.25
 31
0.0
  0
ARC
  5
378
100
AcDbEntity
  8
LAY-1
  6
CONTINUOUS
 62
     2
100
AcDbCircle
 10
444.0
 20
868.159058
 30
0.0
 40
2.0
100
AcDbArc
 50
180.0
 51
270.0
  0
LINE
  5
379
100
AcDbEntity
  8
LAY-1
  6
CONTINUOUS
 62
     2
100
AcDbLine
 10
442.0
 20
868.159058
 30
0.0
 11
442.0
 21
881.25
 31
0.0
  0
LINE
  5
37A
100
AcDbEntity
  8
LAY-1
  6
CONTINUOUS
 62
     2
100
AcDbLine
 10
565.0
 20
866.159058
 30
0.0
 11
444.0
 21
866.159058
 31
0.0
  0
ARC
  5
37B
100
AcDbEntity
  8
LAY-1
  6
CONTINUOUS
 62
     2
100
AcDbCircle
 10
473.955593
 20
861.159058
 30
0.0
 40
5.0
100
AcDbArc
 50
15.0
 51
90.0
  0
LINE
  5
37C
100
AcDbEntity
  8
LAY-1
  6
CONTINUOUS
 62
     2
100
AcDbLine
 10
479.673016
 20
859.139863
 30
0.0
 11
478.785222
 21
862.453154
 31
0.0
  0
LINE
  5
37D
100
AcDbEntity
  8
LAY-1
  6
CONTINUOUS
 62
     2
100
AcDbLine
 10
530.214778
 20
862.453154
 30
0.0
 11
529.326984
 21
859.139863
 31
0.0
  0
ARC
  5
37E
100
AcDbEntity
  8
LAY-1
  6
CONTINUOUS
 62
     2
100
AcDbCircle
 10
548.645501
 20
853.963482
 30
0.0
 40
20.0
100
AcDbArc
 50
165.0
 51
197.475736
  0
ARC
  5
37F
100
AcDbEntity
  8
LAY-1
  6
CONTINUOUS
 62
     2
100
AcDbCircle
 10
460.354499
 20
853.963482
 30
0.0
 40
20.0
100
AcDbArc
 50
342.524264
 51
15.0
  0
ARC
  5
380
100
AcDbEntity
  8
LAY-1
  6
CONTINUOUS
 62
     2
100
AcDbCircle
 10
548.645501
 20
853.963814
 30
0.0
 40
20.0
100
AcDbArc
 50
165.0
 51
197.475736
  0
ARC
  5
381
100
AcDbEntity
  8
LAY-1
  6
CONTINUOUS
 62
     2
100
AcDbCircle
 10
535.044407
 20
861.159391
 30
0.0
 40
5.0
100
AcDbArc
 50
90.0
 51
165.0
  0
LINE
  5
382
100
AcDbEntity
  8
LAY-1
  6
CONTINUOUS
 62
     2
100
AcDbLine
 10
530.214778
 20
862.453486
 30
0.0
 11
529.326984
 21
859.140195
 31
0.0
  0
ARC
  5
383
100
AcDbEntity
  8
LAY-1
  6
CONTINUOUS
 62
     2
100
AcDbCircle
 10
189.046234
 20
740.75
 30
0.0
 40
357.0
100
AcDbArc
 50
11.826225
 51
17.475736
  0
ARC
  5
384
100
AcDbEntity
  8
LAY-1
  6
CONTINUOUS
 62
     2
100
AcDbCircle
 10
756.474523
 20
751.678873
 30
0.0
 40
292.645541
100
AcDbArc
 50
167.529526
 51
175.769597
  0
ARC
  5
385
100
AcDbEntity
  8
LAY-1
  6
CONTINUOUS
 62
     2
100
AcDbCircle
 10
819.953766
 20
740.75
 30
0.0
 40
357.0
100
AcDbArc
 50
162.524264
 51
168.016859
  0
ARC
  5
386
100
AcDbEntity
  8
LAY-1
  6
CONTINUOUS
 62
     2
100
AcDbCircle
 10
1173.0
 20
868.159058
 30
0.0
 40
2.0
100
AcDbArc
 50
270.0
 51
0.0
  0
LINE
  5
387
100
AcDbEntity
  8
LAY-1
  6
CONTINUOUS
 62
     2
100
AcDbLine
 10
1175.0
 20
868.159058
 30
0.0
 11
1175.0
 21
881.25
 31
0.0
  0
LINE
  5
388
100
AcDbEntity
  8
LAY-1
  6
CONTINUOUS
 62
     2
100
AcDbLine
 10
1175.0
 20
881.25
 30
0.0
 11
1050.0
 21
881.25
 31
0.0
  0
ARC
  5
389
100
AcDbEntity
  8
LAY-1
  6
CONTINUOUS
 62
     2
100
AcDbCircle
 10
1052.0
 20
868.159058
 30
0.0
 40
2.0
100
AcDbArc
 50
180.0
 51
270.0
  0
LINE
  5
38A
100
AcDbEntity
  8
LAY-1
  6
CONTINUOUS
 62
     2
100
AcDbLine
 10
1050.0
 20
868.159058
 30
0.0
 11
1050.0
 21
881.25
 31
0.0
  0
LINE
  5
38B
100
AcDbEntity
  8
LAY-1
  6
CONTINUOUS
 62
     2
100
AcDbLine
 10
1173.0
 20
866.159058
 30
0.0
 11
1052.0
 21
866.159058
 31
0.0
  0
ARC
  5
38C
100
AcDbEntity
  8
LAY-1
  6
CONTINUOUS
 62
     2
100
AcDbCircle
 10
1081.955593
 20
861.159058
 30
0.0
 40
5.0
100
AcDbArc
 50
15.0
 51
90.0
  0
LINE
  5
38D
100
AcDbEntity
  8
LAY-1
  6
CONTINUOUS
 62
     2
100
AcDbLine
 10
1087.673016
 20
859.139863
 30
0.0
 11
1086.785222
 21
862.453154
 31
0.0
  0
LINE
  5
38E
100
AcDbEntity
  8
LAY-1
  6
CONTINUOUS
 62
     2
100
AcDbLine
 10
1138.214778
 20
862.453154
 30
0.0
 11
1137.326984
 21
859.139863
 31
0.0
  0
ARC
  5
38F
100
AcDbEntity
  8
LAY-1
  6
CONTINUOUS
 62
     2
100
AcDbCircle
 10
1068.354499
 20
853.963482
 30
0.0
 40
20.0
100
AcDbArc
 50
342.524264
 51
15.0
  0
ARC
  5
390
100
AcDbEntity
  8
LAY-1
  6
CONTINUOUS
 62
     2
100
AcDbCircle
 10
1156.645501
 20
853.963482
 30
0.0
 40
20.0
100
AcDbArc
 50
165.0
 51
197.475736
  0
ARC
  5
391
100
AcDbEntity
  8
LAY-1
  6
CONTINUOUS
 62
     2
100
AcDbCircle
 10
1156.645501
 20
853.963814
 30
0.0
 40
20.0
100
AcDbArc
 50
165.0
 51
197.475736
  0
ARC
  5
392
100
AcDbEntity
  8
LAY-1
  6
CONTINUOUS
 62
     2
100
AcDbCircle
 10
1143.044407
 20
861.159391
 30
0.0
 40
5.0
100
AcDbArc
 50
90.0
 51
165.0
  0
LINE
  5
393
100
AcDbEntity
  8
LAY-1
  6
CONTINUOUS
 62
     2
100
AcDbLine
 10
1138.214778
 20
862.453486
 30
0.0
 11
1137.326984
 21
859.140195
 31
0.0
  0
LINE
  5
394
100
AcDbEntity
  8
LAY-1
  6
CONTINUOUS
 62
     2
100
AcDbLine
 10
1658.0
 20
881.25
 30
0.0
 11
1783.0
 21
881.25
 31
0.0
  0
ARC
  5
395
100
AcDbEntity
  8
LAY-1
  6
CONTINUOUS
 62
     2
100
AcDbCircle
 10
1781.0
 20
868.159058
 30
0.0
 40
2.0
100
AcDbArc
 50
270.0
 51
0.0
  0
LINE
  5
396
100
AcDbEntity
  8
LAY-1
  6
CONTINUOUS
 62
     2
100
AcDbLine
 10
1783.0
 20
868.159058
 30
0.0
 11
1783.0
 21
881.25
 31
0.0
  0
LINE
  5
397
100
AcDbEntity
  8
LAY-1
  6
CONTINUOUS
 62
     2
100
AcDbLine
 10
1660.0
 20
866.159058
 30
0.0
 11
1781.0
 21
866.159058
 31
0.0
  0
ARC
  5
398
100
AcDbEntity
  8
LAY-1
  6
CONTINUOUS
 62
     2
100
AcDbCircle
 10
1751.044407
 20
861.159058
 30
0.0
 40
5.0
100
AcDbArc
 50
90.0
 51
165.0
  0
LINE
  5
399
100
AcDbEntity
  8
LAY-1
  6
CONTINUOUS
 62
     2
100
AcDbLine
 10
1745.326984
 20
859.139863
 30
0.0
 11
1746.214778
 21
862.453154
 31
0.0
  0
ARC
  5
39A
100
AcDbEntity
  8
LAY-1
  6
CONTINUOUS
 62
     2
100
AcDbCircle
 10
1764.645501
 20
853.963482
 30
0.0
 40
20.0
100
AcDbArc
 50
165.0
 51
197.475736
  0
ARC
  5
39B
100
AcDbEntity
  8
LAY-1
  6
CONTINUOUS
 62
     2
100
AcDbCircle
 10
1405.046234
 20
740.75
 30
0.0
 40
357.0
100
AcDbArc
 50
11.983141
 51
17.475736
  0
ARC
  5
39C
100
AcDbEntity
  8
LAY-1
  6
CONTINUOUS
 62
     2
100
AcDbCircle
 10
1468.525477
 20
751.678873
 30
0.0
 40
292.645541
100
AcDbArc
 50
4.230403
 51
12.470474
  0
CIRCLE
  5
39D
100
AcDbEntity
  8
LAY-1
  6
CONTINUOUS
 62
     2
100
AcDbCircle
 10
1112.5
 20
1355.232199
 30
0.0
 40
17.0
  0
CIRCLE
  5
39E
100
AcDbEntity
  8
LAY-1
  6
CONTINUOUS
 62
     2
100
AcDbCircle
 10
1112.5
 20
1355.232199
 30
0.0
 40
15.0
  0
ARC
  5
39F
100
AcDbEntity
  8
LAY-1
  6
CONTINUOUS
 62
     2
100
AcDbCircle
 10
586.5
 20
806.75
 30
0.0
 40
19.0
100
AcDbArc
 50
135.071306
 51
155.556665
  0
LINE
  5
3A0
100
AcDbEntity
  8
LAY-1
  6
CONTINUOUS
 62
     2
100
AcDbLine
 10
612.708478
 20
819.137953
 30
0.0
 11
611.482199
 21
819.137953
 31
0.0
  0
LINE
  5
3A1
100
AcDbEntity
  8
LAY-1
  6
CONTINUOUS
 62
     2
100
AcDbLine
 10
612.708478
 20
831.137953
 30
0.0
 11
612.708478
 21
819.137953
 31
0.0
  0
LINE
  5
3A2
100
AcDbEntity
  8
LAY-1
  6
CONTINUOUS
 62
     2
100
AcDbLine
 10
612.708478
 20
819.137953
 30
0.0
 11
614.182199
 21
824.637953
 31
0.0
  0
LINE
  5
3A3
100
AcDbEntity
  8
LAY-1
  6
CONTINUOUS
 62
     2
100
AcDbLine
 10
614.182199
 20
820.168298
 30
0.0
 11
614.182199
 21
831.137953
 31
0.0
  0
LINE
  5
3A4
100
AcDbEntity
  8
LAY-1
  6
CONTINUOUS
 62
     2
100
AcDbLine
 10
623.333693
 20
820.168298
 30
0.0
 11
614.182199
 21
820.168298
 31
0.0
  0
LINE
  5
3A5
100
AcDbEntity
  8
LAY-1
  6
CONTINUOUS
 62
     2
100
AcDbLine
 10
624.182199
 20
821.637953
 30
0.0
 11
623.333693
 21
820.168298
 31
0.0
  0
LINE
  5
3A6
100
AcDbEntity
  8
LAY-1
  6
CONTINUOUS
 62
     2
100
AcDbLine
 10
623.333693
 20
825.653125
 30
0.0
 11
614.182199
 21
825.653125
 31
0.0
  0
ARC
  5
3A7
100
AcDbEntity
  8
LAY-1
  6
CONTINUOUS
 62
     2
100
AcDbCircle
 10
619.326135
 20
822.910712
 30
0.0
 40
4.856063
100
AcDbArc
 50
325.615753
 51
34.384247
  0
LINE
  5
3A8
100
AcDbEntity
  8
LAY-1
  6
CONTINUOUS
 62
     2
100
AcDbLine
 10
624.182199
 20
831.137953
 30
0.0
 11
624.182199
 21
821.637953
 31
0.0
  0
ARC
  5
3A9
100
AcDbEntity
  8
LAY-1
  6
CONTINUOUS
 62
     2
100
AcDbCircle
 10
606.030704
 20
831.137953
 30
0.0
 40
18.151494
100
AcDbArc
 50
342.412046
 51
0.0
  0
ARC
  5
3AA
100
AcDbEntity
  8
LAY-1
  6
CONTINUOUS
 62
     2
100
AcDbCircle
 10
606.030704
 20
831.137954
 30
0.0
 40
18.151494
100
AcDbArc
 50
0.0
 51
17.587954
  0
LINE
  5
3AB
100
AcDbEntity
  8
LAY-1
  6
CONTINUOUS
 62
     2
100
AcDbLine
 10
624.182199
 20
840.637954
 30
0.0
 11
623.333693
 21
842.107609
 31
0.0
  0
LINE
  5
3AC
100
AcDbEntity
  8
LAY-1
  6
CONTINUOUS
 62
     2
100
AcDbLine
 10
624.182199
 20
831.137954
 30
0.0
 11
624.182199
 21
840.637954
 31
0.0
  0
ARC
  5
3AD
100
AcDbEntity
  8
LAY-1
  6
CONTINUOUS
 62
     2
100
AcDbCircle
 10
619.326135
 20
839.365195
 30
0.0
 40
4.856063
100
AcDbArc
 50
325.615753
 51
34.384247
  0
LINE
  5
3AE
100
AcDbEntity
  8
LAY-1
  6
CONTINUOUS
 62
     2
100
AcDbLine
 10
623.333693
 20
842.107609
 30
0.0
 11
614.182199
 21
842.107609
 31
0.0
  0
LINE
  5
3AF
100
AcDbEntity
  8
LAY-1
  6
CONTINUOUS
 62
     2
100
AcDbLine
 10
614.182199
 20
842.107609
 30
0.0
 11
614.182199
 21
831.137954
 31
0.0
  0
LINE
  5
3B0
100
AcDbEntity
  8
LAY-1
  6
CONTINUOUS
 62
     2
100
AcDbLine
 10
612.708478
 20
843.137954
 30
0.0
 11
614.182199
 21
837.637954
 31
0.0
  0
LINE
  5
3B1
100
AcDbEntity
  8
LAY-1
  6
CONTINUOUS
 62
     2
100
AcDbLine
 10
612.708478
 20
843.137954
 30
0.0
 11
611.482199
 21
843.137954
 31
0.0
  0
LINE
  5
3B2
100
AcDbEntity
  8
LAY-1
  6
CONTINUOUS
 62
     2
100
AcDbLine
 10
612.708478
 20
831.137954
 30
0.0
 11
612.708478
 21
843.137954
 31
0.0
  0
LINE
  5
3B3
100
AcDbEntity
  8
LAY-1
  6
CONTINUOUS
 62
     2
100
AcDbLine
 10
628.982199
 20
837.137953
 30
0.0
 11
629.482199
 21
836.637953
 31
0.0
  0
LINE
  5
3B4
100
AcDbEntity
  8
LAY-1
  6
CONTINUOUS
 62
     2
100
AcDbLine
 10
628.982199
 20
825.137953
 30
0.0
 11
629.482199
 21
825.637953
 31
0.0
  0
LINE
  5
3B5
100
AcDbEntity
  8
LAY-1
  6
CONTINUOUS
 62
     2
100
AcDbLine
 10
629.482199
 20
825.637953
 30
0.0
 11
629.482199
 21
836.637953
 31
0.0
  0
LINE
  5
3B6
100
AcDbEntity
  8
LAY-1
  6
CONTINUOUS
 62
     2
100
AcDbLine
 10
628.982199
 20
837.137953
 30
0.0
 11
624.182199
 21
837.137953
 31
0.0
  0
LINE
  5
3B7
100
AcDbEntity
  8
LAY-1
  6
CONTINUOUS
 62
     2
100
AcDbLine
 10
628.982199
 20
825.137953
 30
0.0
 11
624.182199
 21
825.137953
 31
0.0
  0
LINE
  5
3B8
100
AcDbEntity
  8
LAY-1
  6
CONTINUOUS
 62
     2
100
AcDbLine
 10
623.333693
 20
836.622781
 30
0.0
 11
614.182199
 21
836.622781
 31
0.0
  0
LINE
  5
3B9
100
AcDbEntity
  8
LAY-1
  6
CONTINUOUS
 62
     2
100
AcDbLine
 10
571.5
 20
840.637953
 30
0.0
 11
571.5
 21
821.637953
 31
0.0
  0
ARC
  5
3BA
100
AcDbEntity
  8
LAY-1
  6
CONTINUOUS
 62
     2
100
AcDbCircle
 10
576.356063
 20
822.910712
 30
0.0
 40
4.856063
100
AcDbArc
 50
145.615753
 51
214.384247
  0
LINE
  5
3BB
100
AcDbEntity
  8
LAY-1
  6
CONTINUOUS
 62
     2
100
AcDbLine
 10
579.5
 20
825.653126
 30
0.0
 11
572.348506
 21
825.653126
 31
0.0
  0
LINE
  5
3BC
100
AcDbEntity
  8
LAY-1
  6
CONTINUOUS
 62
     2
100
AcDbLine
 10
571.5
 20
821.637953
 30
0.0
 11
572.348506
 21
820.168298
 31
0.0
  0
LINE
  5
3BD
100
AcDbEntity
  8
LAY-1
  6
CONTINUOUS
 62
     2
100
AcDbLine
 10
572.348506
 20
820.168298
 30
0.0
 11
579.5
 21
820.168298
 31
0.0
  0
ARC
  5
3BE
100
AcDbEntity
  8
LAY-1
  6
CONTINUOUS
 62
     2
100
AcDbCircle
 10
589.651494
 20
831.137953
 30
0.0
 40
18.151494
100
AcDbArc
 50
162.412046
 51
197.587954
  0
ARC
  5
3BF
100
AcDbEntity
  8
LAY-1
  6
CONTINUOUS
 62
     2
100
AcDbCircle
 10
576.356063
 20
839.365195
 30
0.0
 40
4.856063
100
AcDbArc
 50
145.615753
 51
214.384247
  0
LINE
  5
3C0
100
AcDbEntity
  8
LAY-1
  6
CONTINUOUS
 62
     2
100
AcDbLine
 10
572.348506
 20
836.622781
 30
0.0
 11
579.5
 21
836.622781
 31
0.0
  0
LINE
  5
3C1
100
AcDbEntity
  8
LAY-1
  6
CONTINUOUS
 62
     2
100
AcDbLine
 10
572.348506
 20
842.107608
 30
0.0
 11
571.5
 21
840.637953
 31
0.0
  0
LINE
  5
3C2
100
AcDbEntity
  8
LAY-1
  6
CONTINUOUS
 62
     2
100
AcDbLine
 10
579.5
 20
842.107608
 30
0.0
 11
572.348506
 21
842.107608
 31
0.0
  0
LINE
  5
3C3
100
AcDbEntity
  8
LAY-1
  6
CONTINUOUS
 62
     2
100
AcDbLine
 10
560.300182
 20
808.75
 30
0.0
 11
547.220006
 21
808.75
 31
0.0
  0
ARC
  5
3C4
100
AcDbEntity
  8
LAY-1
  6
CONTINUOUS
 62
     2
100
AcDbCircle
 10
560.099242
 20
818.75
 30
0.0
 40
10.0
100
AcDbArc
 50
270.0
 51
335.556665
  0
ARC
  5
3C5
100
AcDbEntity
  8
LAY-1
  6
EXLTYPE4
 62
     2
100
AcDbCircle
 10
553.859886
 20
778.753432
 30
0.0
 40
10.0
100
AcDbArc
 50
186.257202
 51
270.0
  0
LINE
  5
3C6
100
AcDbEntity
  8
LAY-1
  6
EXLTYPE4
 62
     2
100
AcDbLine
 10
557.5
 20
768.75
 30
0.0
 11
553.859886
 21
768.75
 31
0.0
  0
LINE
  5
3C7
100
AcDbEntity
  8
LAY-1
  6
EXLTYPE4
 62
     2
100
AcDbLine
 10
567.5
 20
806.75
 30
0.0
 11
567.5
 21
778.75
 31
0.0
  0
ARC
  5
3C8
100
AcDbEntity
  8
LAY-1
  6
EXLTYPE4
 62
     2
100
AcDbCircle
 10
557.5
 20
778.75
 30
0.0
 40
10.0
100
AcDbArc
 50
270.0
 51
0.0
  0
ARC
  5
3C9
100
AcDbEntity
  8
LAY-1
  6
EXLTYPE4
 62
     2
100
AcDbCircle
 10
586.5
 20
806.75
 30
0.0
 40
19.0
100
AcDbArc
 50
155.556665
 51
180.0
  0
ARC
  5
3CA
100
AcDbEntity
  8
LAY-1
  6
EXLTYPE4
 62
     2
100
AcDbCircle
 10
189.046234
 20
738.753432
 30
0.0
 40
357.0
100
AcDbArc
 50
6.257202
 51
12.590631
  0
ARC
  5
3CB
100
AcDbEntity
  8
LAY-1
  6
CONTINUOUS
 62
     2
100
AcDbCircle
 10
547.220006
 20
818.753432
 30
0.0
 40
10.0
100
AcDbArc
 50
208.93648
 51
270.0
  0
LINE
  5
3CC
100
AcDbEntity
  8
LAY-1
  6
CONTINUOUS
 62
     2
100
AcDbLine
 10
612.708478
 20
765.018343
 30
0.0
 11
611.482199
 21
765.018343
 31
0.0
  0
LINE
  5
3CD
100
AcDbEntity
  8
LAY-1
  6
CONTINUOUS
 62
     2
100
AcDbLine
 10
612.708478
 20
777.018343
 30
0.0
 11
612.708478
 21
765.018343
 31
0.0
  0
LINE
  5
3CE
100
AcDbEntity
  8
LAY-1
  6
CONTINUOUS
 62
     2
100
AcDbLine
 10
612.708478
 20
765.018343
 30
0.0
 11
614.182199
 21
770.518343
 31
0.0
  0
LINE
  5
3CF
100
AcDbEntity
  8
LAY-1
  6
CONTINUOUS
 62
     2
100
AcDbLine
 10
614.182199
 20
766.048688
 30
0.0
 11
614.182199
 21
777.018343
 31
0.0
  0
LINE
  5
3D0
100
AcDbEntity
  8
LAY-1
  6
CONTINUOUS
 62
     2
100
AcDbLine
 10
623.333693
 20
766.048688
 30
0.0
 11
614.182199
 21
766.048688
 31
0.0
  0
LINE
  5
3D1
100
AcDbEntity
  8
LAY-1
  6
CONTINUOUS
 62
     2
100
AcDbLine
 10
624.182199
 20
767.518343
 30
0.0
 11
623.333693
 21
766.048688
 31
0.0
  0
LINE
  5
3D2
100
AcDbEntity
  8
LAY-1
  6
CONTINUOUS
 62
     2
100
AcDbLine
 10
623.333693
 20
771.533515
 30
0.0
 11
614.182199
 21
771.533515
 31
0.0
  0
ARC
  5
3D3
100
AcDbEntity
  8
LAY-1
  6
CONTINUOUS
 62
     2
100
AcDbCircle
 10
619.326135
 20
768.791102
 30
0.0
 40
4.856063
100
AcDbArc
 50
325.615753
 51
34.384247
  0
LINE
  5
3D4
100
AcDbEntity
  8
LAY-1
  6
CONTINUOUS
 62
     2
100
AcDbLine
 10
624.182199
 20
777.018343
 30
0.0
 11
624.182199
 21
767.518343
 31
0.0
  0
ARC
  5
3D5
100
AcDbEntity
  8
LAY-1
  6
CONTINUOUS
 62
     2
100
AcDbCircle
 10
606.030704
 20
777.018343
 30
0.0
 40
18.151494
100
AcDbArc
 50
342.412046
 51
0.0
  0
ARC
  5
3D6
100
AcDbEntity
  8
LAY-1
  6
CONTINUOUS
 62
     2
100
AcDbCircle
 10
606.030704
 20
777.018344
 30
0.0
 40
18.151494
100
AcDbArc
 50
0.0
 51
17.587954
  0
LINE
  5
3D7
100
AcDbEntity
  8
LAY-1
  6
CONTINUOUS
 62
     2
100
AcDbLine
 10
624.182199
 20
786.518344
 30
0.0
 11
623.333693
 21
787.987999
 31
0.0
  0
LINE
  5
3D8
100
AcDbEntity
  8
LAY-1
  6
CONTINUOUS
 62
     2
100
AcDbLine
 10
624.182199
 20
777.018344
 30
0.0
 11
624.182199
 21
786.518344
 31
0.0
  0
ARC
  5
3D9
100
AcDbEntity
  8
LAY-1
  6
CONTINUOUS
 62
     2
100
AcDbCircle
 10
619.326135
 20
785.245585
 30
0.0
 40
4.856063
100
AcDbArc
 50
325.615753
 51
34.384247
  0
LINE
  5
3DA
100
AcDbEntity
  8
LAY-1
  6
CONTINUOUS
 62
     2
100
AcDbLine
 10
623.333693
 20
787.987999
 30
0.0
 11
614.182199
 21
787.987999
 31
0.0
  0
LINE
  5
3DB
100
AcDbEntity
  8
LAY-1
  6
CONTINUOUS
 62
     2
100
AcDbLine
 10
614.182199
 20
787.987999
 30
0.0
 11
614.182199
 21
777.018344
 31
0.0
  0
LINE
  5
3DC
100
AcDbEntity
  8
LAY-1
  6
CONTINUOUS
 62
     2
100
AcDbLine
 10
612.708478
 20
789.018344
 30
0.0
 11
614.182199
 21
783.518344
 31
0.0
  0
LINE
  5
3DD
100
AcDbEntity
  8
LAY-1
  6
CONTINUOUS
 62
     2
100
AcDbLine
 10
612.708478
 20
789.018344
 30
0.0
 11
611.482199
 21
789.018344
 31
0.0
  0
LINE
  5
3DE
100
AcDbEntity
  8
LAY-1
  6
CONTINUOUS
 62
     2
100
AcDbLine
 10
612.708478
 20
777.018344
 30
0.0
 11
612.708478
 21
789.018344
 31
0.0
  0
LINE
  5
3DF
100
AcDbEntity
  8
LAY-1
  6
CONTINUOUS
 62
     2
100
AcDbLine
 10
628.982199
 20
783.018343
 30
0.0
 11
629.482199
 21
782.518343
 31
0.0
  0
LINE
  5
3E0
100
AcDbEntity
  8
LAY-1
  6
CONTINUOUS
 62
     2
100
AcDbLine
 10
628.982199
 20
771.018343
 30
0.0
 11
629.482199
 21
771.518343
 31
0.0
  0
LINE
  5
3E1
100
AcDbEntity
  8
LAY-1
  6
CONTINUOUS
 62
     2
100
AcDbLine
 10
629.482199
 20
771.518343
 30
0.0
 11
629.482199
 21
782.518343
 31
0.0
  0
LINE
  5
3E2
100
AcDbEntity
  8
LAY-1
  6
CONTINUOUS
 62
     2
100
AcDbLine
 10
628.982199
 20
783.018343
 30
0.0
 11
624.182199
 21
783.018343
 31
0.0
  0
LINE
  5
3E3
100
AcDbEntity
  8
LAY-1
  6
CONTINUOUS
 62
     2
100
AcDbLine
 10
628.982199
 20
771.018343
 30
0.0
 11
624.182199
 21
771.018343
 31
0.0
  0
LINE
  5
3E4
100
AcDbEntity
  8
LAY-1
  6
CONTINUOUS
 62
     2
100
AcDbLine
 10
623.333693
 20
782.503171
 30
0.0
 11
614.182199
 21
782.503171
 31
0.0
  0
LINE
  5
3E5
100
AcDbEntity
  8
LAY-1
  6
CONTINUOUS
 62
     2
100
AcDbLine
 10
571.5
 20
786.518343
 30
0.0
 11
571.5
 21
767.518343
 31
0.0
  0
ARC
  5
3E6
100
AcDbEntity
  8
LAY-1
  6
CONTINUOUS
 62
     2
100
AcDbCircle
 10
576.356063
 20
768.791102
 30
0.0
 40
4.856063
100
AcDbArc
 50
145.615753
 51
214.384247
  0
LINE
  5
3E7
100
AcDbEntity
  8
LAY-1
  6
CONTINUOUS
 62
     2
100
AcDbLine
 10
579.5
 20
771.533516
 30
0.0
 11
572.348506
 21
771.533516
 31
0.0
  0
LINE
  5
3E8
100
AcDbEntity
  8
LAY-1
  6
CONTINUOUS
 62
     2
100
AcDbLine
 10
571.5
 20
767.518343
 30
0.0
 11
572.348506
 21
766.048688
 31
0.0
  0
LINE
  5
3E9
100
AcDbEntity
  8
LAY-1
  6
CONTINUOUS
 62
     2
100
AcDbLine
 10
572.348506
 20
766.048688
 30
0.0
 11
579.5
 21
766.048688
 31
0.0
  0
ARC
  5
3EA
100
AcDbEntity
  8
LAY-1
  6
CONTINUOUS
 62
     2
100
AcDbCircle
 10
589.651494
 20
777.018343
 30
0.0
 40
18.151494
100
AcDbArc
 50
162.412046
 51
197.587954
  0
ARC
  5
3EB
100
AcDbEntity
  8
LAY-1
  6
CONTINUOUS
 62
     2
100
AcDbCircle
 10
576.356063
 20
785.245585
 30
0.0
 40
4.856063
100
AcDbArc
 50
145.615753
 51
214.384247
  0
LINE
  5
3EC
100
AcDbEntity
  8
LAY-1
  6
CONTINUOUS
 62
     2
100
AcDbLine
 10
572.348506
 20
782.503171
 30
0.0
 11
579.5
 21
782.503171
 31
0.0
  0
LINE
  5
3ED
100
AcDbEntity
  8
LAY-1
  6
CONTINUOUS
 62
     2
100
AcDbLine
 10
572.348506
 20
787.987998
 30
0.0
 11
571.5
 21
786.518343
 31
0.0
  0
LINE
  5
3EE
100
AcDbEntity
  8
LAY-1
  6
CONTINUOUS
 62
     2
100
AcDbLine
 10
579.5
 20
787.987998
 30
0.0
 11
572.348506
 21
787.987998
 31
0.0
  0
LINE
  5
3EF
100
AcDbEntity
  8
LAY-1
  6
CONTINUOUS
 62
     2
100
AcDbLine
 10
612.708478
 20
688.481656
 30
0.0
 11
611.482199
 21
688.481656
 31
0.0
  0
LINE
  5
3F0
100
AcDbEntity
  8
LAY-1
  6
CONTINUOUS
 62
     2
100
AcDbLine
 10
612.708478
 20
700.481656
 30
0.0
 11
612.708478
 21
688.481656
 31
0.0
  0
LINE
  5
3F1
100
AcDbEntity
  8
LAY-1
  6
CONTINUOUS
 62
     2
100
AcDbLine
 10
612.708478
 20
688.481656
 30
0.0
 11
614.182199
 21
693.981656
 31
0.0
  0
LINE
  5
3F2
100
AcDbEntity
  8
LAY-1
  6
CONTINUOUS
 62
     2
100
AcDbLine
 10
614.182199
 20
689.512001
 30
0.0
 11
614.182199
 21
700.481656
 31
0.0
  0
LINE
  5
3F3
100
AcDbEntity
  8
LAY-1
  6
CONTINUOUS
 62
     2
100
AcDbLine
 10
623.333693
 20
689.512001
 30
0.0
 11
614.182199
 21
689.512001
 31
0.0
  0
LINE
  5
3F4
100
AcDbEntity
  8
LAY-1
  6
CONTINUOUS
 62
     2
100
AcDbLine
 10
624.182199
 20
690.981656
 30
0.0
 11
623.333693
 21
689.512001
 31
0.0
  0
LINE
  5
3F5
100
AcDbEntity
  8
LAY-1
  6
CONTINUOUS
 62
     2
100
AcDbLine
 10
623.333693
 20
694.996829
 30
0.0
 11
614.182199
 21
694.996829
 31
0.0
  0
ARC
  5
3F6
100
AcDbEntity
  8
LAY-1
  6
CONTINUOUS
 62
     2
100
AcDbCircle
 10
619.326135
 20
692.254415
 30
0.0
 40
4.856063
100
AcDbArc
 50
325.615753
 51
34.384247
  0
LINE
  5
3F7
100
AcDbEntity
  8
LAY-1
  6
CONTINUOUS
 62
     2
100
AcDbLine
 10
624.182199
 20
700.481656
 30
0.0
 11
624.182199
 21
690.981656
 31
0.0
  0
ARC
  5
3F8
100
AcDbEntity
  8
LAY-1
  6
CONTINUOUS
 62
     2
100
AcDbCircle
 10
606.030704
 20
700.481656
 30
0.0
 40
18.151494
100
AcDbArc
 50
342.412046
 51
0.0
  0
ARC
  5
3F9
100
AcDbEntity
  8
LAY-1
  6
CONTINUOUS
 62
     2
100
AcDbCircle
 10
606.030704
 20
700.481657
 30
0.0
 40
18.151494
100
AcDbArc
 50
0.0
 51
17.587954
  0
LINE
  5
3FA
100
AcDbEntity
  8
LAY-1
  6
CONTINUOUS
 62
     2
100
AcDbLine
 10
624.182199
 20
709.981657
 30
0.0
 11
623.333693
 21
711.451312
 31
0.0
  0
LINE
  5
3FB
100
AcDbEntity
  8
LAY-1
  6
CONTINUOUS
 62
     2
100
AcDbLine
 10
624.182199
 20
700.481657
 30
0.0
 11
624.182199
 21
709.981657
 31
0.0
  0
ARC
  5
3FC
100
AcDbEntity
  8
LAY-1
  6
CONTINUOUS
 62
     2
100
AcDbCircle
 10
619.326135
 20
708.708898
 30
0.0
 40
4.856063
100
AcDbArc
 50
325.615753
 51
34.384247
  0
LINE
  5
3FD
100
AcDbEntity
  8
LAY-1
  6
CONTINUOUS
 62
     2
100
AcDbLine
 10
623.333693
 20
711.451312
 30
0.0
 11
614.182199
 21
711.451312
 31
0.0
  0
LINE
  5
3FE
100
AcDbEntity
  8
LAY-1
  6
CONTINUOUS
 62
     2
100
AcDbLine
 10
614.182199
 20
711.451312
 30
0.0
 11
614.182199
 21
700.481657
 31
0.0
  0
LINE
  5
3FF
100
AcDbEntity
  8
LAY-1
  6
CONTINUOUS
 62
     2
100
AcDbLine
 10
612.708478
 20
712.481657
 30
0.0
 11
614.182199
 21
706.981657
 31
0.0
  0
LINE
  5
400
100
AcDbEntity
  8
LAY-1
  6
CONTINUOUS
 62
     2
100
AcDbLine
 10
612.708478
 20
712.481657
 30
0.0
 11
611.482199
 21
712.481657
 31
0.0
  0
LINE
  5
401
100
AcDbEntity
  8
LAY-1
  6
CONTINUOUS
 62
     2
100
AcDbLine
 10
612.708478
 20
700.481657
 30
0.0
 11
612.708478
 21
712.481657
 31
0.0
  0
LINE
  5
402
100
AcDbEntity
  8
LAY-1
  6
CONTINUOUS
 62
     2
100
AcDbLine
 10
628.982199
 20
706.481657
 30
0.0
 11
629.482199
 21
705.981657
 31
0.0
  0
LINE
  5
403
100
AcDbEntity
  8
LAY-1
  6
CONTINUOUS
 62
     2
100
AcDbLine
 10
628.982199
 20
694.481657
 30
0.0
 11
629.482199
 21
694.981657
 31
0.0
  0
LINE
  5
404
100
AcDbEntity
  8
LAY-1
  6
CONTINUOUS
 62
     2
100
AcDbLine
 10
629.482199
 20
694.981657
 30
0.0
 11
629.482199
 21
705.981657
 31
0.0
  0
LINE
  5
405
100
AcDbEntity
  8
LAY-1
  6
CONTINUOUS
 62
     2
100
AcDbLine
 10
628.982199
 20
706.481657
 30
0.0
 11
624.182199
 21
706.481657
 31
0.0
  0
LINE
  5
406
100
AcDbEntity
  8
LAY-1
  6
CONTINUOUS
 62
     2
100
AcDbLine
 10
628.982199
 20
694.481657
 30
0.0
 11
624.182199
 21
694.481657
 31
0.0
  0
LINE
  5
407
100
AcDbEntity
  8
LAY-1
  6
CONTINUOUS
 62
     2
100
AcDbLine
 10
623.333693
 20
705.966485
 30
0.0
 11
614.182199
 21
705.966485
 31
0.0
  0
LINE
  5
408
100
AcDbEntity
  8
LAY-1
  6
CONTINUOUS
 62
     2
100
AcDbLine
 10
571.5
 20
709.981657
 30
0.0
 11
571.5
 21
690.981657
 31
0.0
  0
ARC
  5
409
100
AcDbEntity
  8
LAY-1
  6
CONTINUOUS
 62
     2
100
AcDbCircle
 10
576.356063
 20
692.254415
 30
0.0
 40
4.856063
100
AcDbArc
 50
145.615753
 51
214.384247
  0
LINE
  5
40A
100
AcDbEntity
  8
LAY-1
  6
CONTINUOUS
 62
     2
100
AcDbLine
 10
579.5
 20
694.996829
 30
0.0
 11
572.348506
 21
694.996829
 31
0.0
  0
LINE
  5
40B
100
AcDbEntity
  8
LAY-1
  6
CONTINUOUS
 62
     2
100
AcDbLine
 10
571.5
 20
690.981657
 30
0.0
 11
572.348506
 21
689.512002
 31
0.0
  0
LINE
  5
40C
100
AcDbEntity
  8
LAY-1
  6
CONTINUOUS
 62
     2
100
AcDbLine
 10
572.348506
 20
689.512002
 30
0.0
 11
579.5
 21
689.512002
 31
0.0
  0
ARC
  5
40D
100
AcDbEntity
  8
LAY-1
  6
CONTINUOUS
 62
     2
100
AcDbCircle
 10
589.651494
 20
700.481657
 30
0.0
 40
18.151494
100
AcDbArc
 50
162.412046
 51
197.587954
  0
ARC
  5
40E
100
AcDbEntity
  8
LAY-1
  6
CONTINUOUS
 62
     2
100
AcDbCircle
 10
576.356063
 20
708.708898
 30
0.0
 40
4.856063
100
AcDbArc
 50
145.615753
 51
214.384247
  0
LINE
  5
40F
100
AcDbEntity
  8
LAY-1
  6
CONTINUOUS
 62
     2
100
AcDbLine
 10
572.348506
 20
705.966484
 30
0.0
 11
579.5
 21
705.966484
 31
0.0
  0
LINE
  5
410
100
AcDbEntity
  8
LAY-1
  6
CONTINUOUS
 62
     2
100
AcDbLine
 10
572.348506
 20
711.451312
 30
0.0
 11
571.5
 21
709.981657
 31
0.0
  0
LINE
  5
411
100
AcDbEntity
  8
LAY-1
  6
CONTINUOUS
 62
     2
100
AcDbLine
 10
579.5
 20
711.451312
 30
0.0
 11
572.348506
 21
711.451312
 31
0.0
  0
ARC
  5
412
100
AcDbEntity
  8
LAY-1
  6
CONTINUOUS
 62
     2
100
AcDbCircle
 10
547.221539
 20
658.753432
 30
0.0
 40
10.0
100
AcDbArc
 50
90.0
 51
167.409918
  0
LINE
  5
413
100
AcDbEntity
  8
LAY-1
  6
CONTINUOUS
 62
     2
100
AcDbLine
 10
560.300182
 20
668.75
 30
0.0
 11
547.220006
 21
668.75
 31
0.0
  0
ARC
  5
414
100
AcDbEntity
  8
LAY-1
  6
CONTINUOUS
 62
     2
100
AcDbCircle
 10
560.099242
 20
658.75
 30
0.0
 40
10.0
100
AcDbArc
 50
24.443335
 51
90.0
  0
ARC
  5
415
100
AcDbEntity
  8
LAY-1
  6
EXLTYPE4
 62
     2
100
AcDbCircle
 10
553.859886
 20
698.746568
 30
0.0
 40
10.0
100
AcDbArc
 50
90.0
 51
173.742798
  0
LINE
  5
416
100
AcDbEntity
  8
LAY-1
  6
EXLTYPE4
 62
     2
100
AcDbLine
 10
567.5
 20
670.75
 30
0.0
 11
567.5
 21
698.75
 31
0.0
  0
ARC
  5
417
100
AcDbEntity
  8
LAY-1
  6
EXLTYPE4
 62
     2
100
AcDbCircle
 10
586.5
 20
670.75
 30
0.0
 40
19.0
100
AcDbArc
 50
180.0
 51
204.443335
  0
ARC
  5
418
100
AcDbEntity
  8
LAY-1
  6
EXLTYPE4
 62
     2
100
AcDbCircle
 10
557.5
 20
698.75
 30
0.0
 40
10.0
100
AcDbArc
 50
0.0
 51
90.0
  0
ARC
  5
419
100
AcDbEntity
  8
LAY-1
  6
EXLTYPE4
 62
     2
100
AcDbCircle
 10
189.046234
 20
738.746568
 30
0.0
 40
357.0
100
AcDbArc
 50
347.409369
 51
353.684272
  0
LINE
  5
41A
100
AcDbEntity
  8
LAY-1
  6
CONTINUOUS
 62
     2
100
AcDbLine
 10
613.916272
 20
654.150992
 30
0.0
 11
613.842095
 21
654.13133
 31
0.0
  0
ARC
  5
41B
100
AcDbEntity
  8
LAY-1
  6
CONTINUOUS
 62
     2
100
AcDbCircle
 10
611.482199
 20
663.333872
 30
0.0
 40
9.5
100
AcDbArc
 50
284.845786
 51
286.511664
  0
LINE
  5
41C
100
AcDbEntity
  8
LAY-1
  6
CONTINUOUS
 62
     2
100
AcDbLine
 10
611.482199
 20
634.362046
 30
0.0
 11
611.482199
 21
658.362047
 31
0.0
  0
LINE
  5
41D
100
AcDbEntity
  8
LAY-1
  6
CONTINUOUS
 62
     2
100
AcDbLine
 10
612.708478
 20
634.362046
 30
0.0
 11
611.482199
 21
634.362046
 31
0.0
  0
LINE
  5
41E
100
AcDbEntity
  8
LAY-1
  6
CONTINUOUS
 62
     2
100
AcDbLine
 10
612.708478
 20
646.362046
 30
0.0
 11
612.708478
 21
634.362046
 31
0.0
  0
LINE
  5
41F
100
AcDbEntity
  8
LAY-1
  6
CONTINUOUS
 62
     2
100
AcDbLine
 10
612.708478
 20
634.362046
 30
0.0
 11
614.182199
 21
639.862046
 31
0.0
  0
LINE
  5
420
100
AcDbEntity
  8
LAY-1
  6
CONTINUOUS
 62
     2
100
AcDbLine
 10
614.182199
 20
635.392391
 30
0.0
 11
614.182199
 21
646.362046
 31
0.0
  0
LINE
  5
421
100
AcDbEntity
  8
LAY-1
  6
CONTINUOUS
 62
     2
100
AcDbLine
 10
623.333693
 20
635.392391
 30
0.0
 11
614.182199
 21
635.392391
 31
0.0
  0
LINE
  5
422
100
AcDbEntity
  8
LAY-1
  6
CONTINUOUS
 62
     2
100
AcDbLine
 10
624.182199
 20
636.862046
 30
0.0
 11
623.333693
 21
635.392391
 31
0.0
  0
LINE
  5
423
100
AcDbEntity
  8
LAY-1
  6
CONTINUOUS
 62
     2
100
AcDbLine
 10
623.333693
 20
640.877219
 30
0.0
 11
614.182199
 21
640.877219
 31
0.0
  0
ARC
  5
424
100
AcDbEntity
  8
LAY-1
  6
CONTINUOUS
 62
     2
100
AcDbCircle
 10
619.326135
 20
638.134805
 30
0.0
 40
4.856063
100
AcDbArc
 50
325.615753
 51
34.384247
  0
LINE
  5
425
100
AcDbEntity
  8
LAY-1
  6
CONTINUOUS
 62
     2
100
AcDbLine
 10
624.182199
 20
646.362046
 30
0.0
 11
624.182199
 21
636.862046
 31
0.0
  0
ARC
  5
426
100
AcDbEntity
  8
LAY-1
  6
CONTINUOUS
 62
     2
100
AcDbCircle
 10
606.030704
 20
646.362046
 30
0.0
 40
18.151494
100
AcDbArc
 50
342.412046
 51
0.0
  0
ARC
  5
427
100
AcDbEntity
  8
LAY-1
  6
CONTINUOUS
 62
     2
100
AcDbCircle
 10
606.030704
 20
646.362047
 30
0.0
 40
18.151494
100
AcDbArc
 50
0.0
 51
17.587954
  0
LINE
  5
428
100
AcDbEntity
  8
LAY-1
  6
CONTINUOUS
 62
     2
100
AcDbLine
 10
624.182199
 20
655.862047
 30
0.0
 11
623.333693
 21
657.331702
 31
0.0
  0
LINE
  5
429
100
AcDbEntity
  8
LAY-1
  6
CONTINUOUS
 62
     2
100
AcDbLine
 10
624.182199
 20
646.362047
 30
0.0
 11
624.182199
 21
655.862047
 31
0.0
  0
ARC
  5
42A
100
AcDbEntity
  8
LAY-1
  6
CONTINUOUS
 62
     2
100
AcDbCircle
 10
619.326135
 20
654.589288
 30
0.0
 40
4.856063
100
AcDbArc
 50
325.615753
 51
34.384247
  0
LINE
  5
42B
100
AcDbEntity
  8
LAY-1
  6
CONTINUOUS
 62
     2
100
AcDbLine
 10
623.333693
 20
657.331702
 30
0.0
 11
614.182199
 21
657.331702
 31
0.0
  0
LINE
  5
42C
100
AcDbEntity
  8
LAY-1
  6
CONTINUOUS
 62
     2
100
AcDbLine
 10
614.182199
 20
657.331702
 30
0.0
 11
614.182199
 21
646.362047
 31
0.0
  0
LINE
  5
42D
100
AcDbEntity
  8
LAY-1
  6
CONTINUOUS
 62
     2
100
AcDbLine
 10
612.708478
 20
658.362047
 30
0.0
 11
614.182199
 21
652.862047
 31
0.0
  0
LINE
  5
42E
100
AcDbEntity
  8
LAY-1
  6
CONTINUOUS
 62
     2
100
AcDbLine
 10
612.708478
 20
658.362047
 30
0.0
 11
611.482199
 21
658.362047
 31
0.0
  0
LINE
  5
42F
100
AcDbEntity
  8
LAY-1
  6
CONTINUOUS
 62
     2
100
AcDbLine
 10
612.708478
 20
646.362047
 30
0.0
 11
612.708478
 21
658.362047
 31
0.0
  0
LINE
  5
430
100
AcDbEntity
  8
LAY-1
  6
CONTINUOUS
 62
     2
100
AcDbLine
 10
628.982199
 20
652.362047
 30
0.0
 11
629.482199
 21
651.862047
 31
0.0
  0
LINE
  5
431
100
AcDbEntity
  8
LAY-1
  6
CONTINUOUS
 62
     2
100
AcDbLine
 10
628.982199
 20
640.362047
 30
0.0
 11
629.482199
 21
640.862047
 31
0.0
  0
LINE
  5
432
100
AcDbEntity
  8
LAY-1
  6
CONTINUOUS
 62
     2
100
AcDbLine
 10
629.482199
 20
640.862047
 30
0.0
 11
629.482199
 21
651.862047
 31
0.0
  0
LINE
  5
433
100
AcDbEntity
  8
LAY-1
  6
CONTINUOUS
 62
     2
100
AcDbLine
 10
628.982199
 20
652.362047
 30
0.0
 11
624.182199
 21
652.362047
 31
0.0
  0
LINE
  5
434
100
AcDbEntity
  8
LAY-1
  6
CONTINUOUS
 62
     2
100
AcDbLine
 10
628.982199
 20
640.362047
 30
0.0
 11
624.182199
 21
640.362047
 31
0.0
  0
LINE
  5
435
100
AcDbEntity
  8
LAY-1
  6
CONTINUOUS
 62
     2
100
AcDbLine
 10
623.333693
 20
651.846875
 30
0.0
 11
614.182199
 21
651.846875
 31
0.0
  0
LINE
  5
436
100
AcDbEntity
  8
LAY-1
  6
CONTINUOUS
 62
     2
100
AcDbLine
 10
571.5
 20
655.862047
 30
0.0
 11
571.5
 21
636.862047
 31
0.0
  0
ARC
  5
437
100
AcDbEntity
  8
LAY-1
  6
CONTINUOUS
 62
     2
100
AcDbCircle
 10
576.356063
 20
638.134805
 30
0.0
 40
4.856063
100
AcDbArc
 50
145.615753
 51
214.384247
  0
LINE
  5
438
100
AcDbEntity
  8
LAY-1
  6
CONTINUOUS
 62
     2
100
AcDbLine
 10
579.5
 20
640.877219
 30
0.0
 11
572.348506
 21
640.877219
 31
0.0
  0
LINE
  5
439
100
AcDbEntity
  8
LAY-1
  6
CONTINUOUS
 62
     2
100
AcDbLine
 10
571.5
 20
636.862047
 30
0.0
 11
572.348506
 21
635.392392
 31
0.0
  0
LINE
  5
43A
100
AcDbEntity
  8
LAY-1
  6
CONTINUOUS
 62
     2
100
AcDbLine
 10
572.348506
 20
635.392392
 30
0.0
 11
579.5
 21
635.392392
 31
0.0
  0
ARC
  5
43B
100
AcDbEntity
  8
LAY-1
  6
CONTINUOUS
 62
     2
100
AcDbCircle
 10
589.651494
 20
646.362047
 30
0.0
 40
18.151494
100
AcDbArc
 50
162.412046
 51
197.587954
  0
ARC
  5
43C
100
AcDbEntity
  8
LAY-1
  6
CONTINUOUS
 62
     2
100
AcDbCircle
 10
576.356063
 20
654.589288
 30
0.0
 40
4.856063
100
AcDbArc
 50
145.615753
 51
214.384247
  0
LINE
  5
43D
100
AcDbEntity
  8
LAY-1
  6
CONTINUOUS
 62
     2
100
AcDbLine
 10
572.348506
 20
651.846874
 30
0.0
 11
579.5
 21
651.846874
 31
0.0
  0
LINE
  5
43E
100
AcDbEntity
  8
LAY-1
  6
CONTINUOUS
 62
     2
100
AcDbLine
 10
572.348506
 20
657.331702
 30
0.0
 11
571.5
 21
655.862047
 31
0.0
  0
LINE
  5
43F
100
AcDbEntity
  8
LAY-1
  6
CONTINUOUS
 62
     2
100
AcDbLine
 10
579.5
 20
657.331702
 30
0.0
 11
572.348506
 21
657.331702
 31
0.0
  0
ARC
  5
440
100
AcDbEntity
  8
LAY-1
  6
CONTINUOUS
 62
     2
100
AcDbCircle
 10
1027.671573
 20
747.75
 30
0.0
 40
2.0
100
AcDbArc
 50
45.0
 51
90.0
  0
LINE
  5
441
100
AcDbEntity
  8
LAY-1
  6
CONTINUOUS
 62
     2
100
AcDbLine
 10
1029.085786
 20
749.164214
 30
0.0
 11
1029.914214
 21
748.335786
 31
0.0
  0
ARC
  5
442
100
AcDbEntity
  8
LAY-1
  6
CONTINUOUS
 62
     2
100
AcDbCircle
 10
1031.328427
 20
749.75
 30
0.0
 40
2.0
100
AcDbArc
 50
225.0
 51
270.0
  0
LINE
  5
443
100
AcDbEntity
  8
LAY-1
  6
CONTINUOUS
 62
     2
100
AcDbLine
 10
1012.5
 20
749.75
 30
0.0
 11
1027.671573
 21
749.75
 31
0.0
  0
ARC
  5
444
100
AcDbEntity
  8
LAY-1
  6
CONTINUOUS
 62
     2
100
AcDbCircle
 10
1012.5
 20
747.75
 30
0.0
 40
2.0
100
AcDbArc
 50
90.0
 51
180.0
  0
LINE
  5
445
100
AcDbEntity
  8
LAY-1
  6
CONTINUOUS
 62
     2
100
AcDbLine
 10
1010.5
 20
738.75
 30
0.0
 11
1010.5
 21
747.75
 31
0.0
  0
ARC
  5
446
100
AcDbEntity
  8
LAY-1
  6
CONTINUOUS
 62
     2
100
AcDbCircle
 10
1027.671573
 20
729.75
 30
0.0
 40
2.0
100
AcDbArc
 50
270.0
 51
315.0
  0
LINE
  5
447
100
AcDbEntity
  8
LAY-1
  6
CONTINUOUS
 62
     2
100
AcDbLine
 10
1029.085786
 20
728.335786
 30
0.0
 11
1029.914214
 21
729.164214
 31
0.0
  0
ARC
  5
448
100
AcDbEntity
  8
LAY-1
  6
CONTINUOUS
 62
     2
100
AcDbCircle
 10
1031.328427
 20
727.75
 30
0.0
 40
2.0
100
AcDbArc
 50
90.0
 51
135.0
  0
LINE
  5
449
100
AcDbEntity
  8
LAY-1
  6
CONTINUOUS
 62
     2
100
AcDbLine
 10
1012.5
 20
727.75
 30
0.0
 11
1027.671573
 21
727.75
 31
0.0
  0
ARC
  5
44A
100
AcDbEntity
  8
LAY-1
  6
CONTINUOUS
 62
     2
100
AcDbCircle
 10
1012.5
 20
729.75
 30
0.0
 40
2.0
100
AcDbArc
 50
180.0
 51
270.0
  0
LINE
  5
44B
100
AcDbEntity
  8
LAY-1
  6
CONTINUOUS
 62
     2
100
AcDbLine
 10
1010.5
 20
738.75
 30
0.0
 11
1010.5
 21
729.75
 31
0.0
  0
LINE
  5
44C
100
AcDbEntity
  8
LAY-1
  6
CONTINUOUS
 62
     2
100
AcDbLine
 10
1028.3
 20
747.95
 30
0.0
 11
1028.3
 21
729.15
 31
0.0
  0
LINE
  5
44D
100
AcDbEntity
  8
LAY-1
  6
CONTINUOUS
 62
     2
100
AcDbLine
 10
1030.6
 20
746.45
 30
0.0
 11
1030.6
 21
731.15
 31
0.0
  0
LINE
  5
44E
100
AcDbEntity
  8
LAY-1
  6
CONTINUOUS
 62
     2
100
AcDbLine
 10
1021.543874
 20
711.357465
 30
0.0
 11
1011.409234
 21
707.15956
 31
0.0
  0
LINE
  5
44F
100
AcDbEntity
  8
LAY-1
  6
CONTINUOUS
 62
     2
100
AcDbLine
 10
1011.409234
 20
707.15956
 30
0.0
 11
1009.977407
 21
696.283751
 31
0.0
  0
LINE
  5
450
100
AcDbEntity
  8
LAY-1
  6
CONTINUOUS
 62
     2
100
AcDbLine
 10
1009.977407
 20
696.283751
 30
0.0
 11
1018.680219
 21
689.605849
 31
0.0
  0
LINE
  5
451
100
AcDbEntity
  8
LAY-1
  6
CONTINUOUS
 62
     2
100
AcDbLine
 10
1018.680219
 20
689.605849
 30
0.0
 11
1028.814859
 21
693.803754
 31
0.0
  0
LINE
  5
452
100
AcDbEntity
  8
LAY-1
  6
CONTINUOUS
 62
     2
100
AcDbLine
 10
1028.814859
 20
693.803754
 30
0.0
 11
1030.246687
 21
704.679562
 31
0.0
  0
LINE
  5
453
100
AcDbEntity
  8
LAY-1
  6
CONTINUOUS
 62
     2
100
AcDbLine
 10
1030.246687
 20
704.679562
 30
0.0
 11
1021.543874
 21
711.357465
 31
0.0
  0
CIRCLE
  5
454
100
AcDbEntity
  8
LAY-1
  6
CONTINUOUS
 62
     2
100
AcDbCircle
 10
1020.112047
 20
700.481657
 30
0.0
 40
9.5
  0
LINE
  5
455
100
AcDbEntity
  8
LAY-1
  6
CONTINUOUS
 62
     2
100
AcDbLine
 10
1021.543874
 20
766.142535
 30
0.0
 11
1011.409234
 21
770.34044
 31
0.0
  0
LINE
  5
456
100
AcDbEntity
  8
LAY-1
  6
CONTINUOUS
 62
     2
100
AcDbLine
 10
1011.409234
 20
770.34044
 30
0.0
 11
1009.977407
 21
781.216249
 31
0.0
  0
LINE
  5
457
100
AcDbEntity
  8
LAY-1
  6
CONTINUOUS
 62
     2
100
AcDbLine
 10
1009.977407
 20
781.216249
 30
0.0
 11
1018.680219
 21
787.894151
 31
0.0
  0
LINE
  5
458
100
AcDbEntity
  8
LAY-1
  6
CONTINUOUS
 62
     2
100
AcDbLine
 10
1018.680219
 20
787.894151
 30
0.0
 11
1028.814859
 21
783.696246
 31
0.0
  0
LINE
  5
459
100
AcDbEntity
  8
LAY-1
  6
CONTINUOUS
 62
     2
100
AcDbLine
 10
1028.814859
 20
783.696246
 30
0.0
 11
1030.246687
 21
772.820438
 31
0.0
  0
LINE
  5
45A
100
AcDbEntity
  8
LAY-1
  6
CONTINUOUS
 62
     2
100
AcDbLine
 10
1030.246687
 20
772.820438
 30
0.0
 11
1021.543874
 21
766.142535
 31
0.0
  0
CIRCLE
  5
45B
100
AcDbEntity
  8
LAY-1
  6
CONTINUOUS
 62
     2
100
AcDbCircle
 10
1020.112047
 20
777.018343
 30
0.0
 40
9.5
  0
LINE
  5
45C
100
AcDbEntity
  8
LAY-1
  6
CONTINUOUS
 62
     2
100
AcDbLine
 10
1139.5
 20
630.053174
 30
0.0
 11
1139.5
 21
613.817747
 31
0.0
  0
LINE
  5
45D
100
AcDbEntity
  8
LAY-1
  6
CONTINUOUS
 62
     2
100
AcDbLine
 10
1085.5
 20
630.053174
 30
0.0
 11
1085.5
 21
613.817747
 31
0.0
  0
LINE
  5
45E
100
AcDbEntity
  8
LAY-1
  6
CONTINUOUS
 62
     2
100
AcDbLine
 10
1157.446246
 20
655.064859
 30
0.0
 11
1161.644151
 21
644.930219
 31
0.0
  0
LINE
  5
45F
100
AcDbEntity
  8
LAY-1
  6
CONTINUOUS
 62
     2
100
AcDbLine
 10
1161.644151
 20
644.930219
 30
0.0
 11
1154.966249
 21
636.227407
 31
0.0
  0
LINE
  5
460
100
AcDbEntity
  8
LAY-1
  6
CONTINUOUS
 62
     2
100
AcDbLine
 10
1154.966249
 20
636.227407
 30
0.0
 11
1144.09044
 21
637.659234
 31
0.0
  0
LINE
  5
461
100
AcDbEntity
  8
LAY-1
  6
CONTINUOUS
 62
     2
100
AcDbLine
 10
1144.09044
 20
637.659234
 30
0.0
 11
1139.892535
 21
647.793874
 31
0.0
  0
LINE
  5
462
100
AcDbEntity
  8
LAY-1
  6
CONTINUOUS
 62
     2
100
AcDbLine
 10
1139.892535
 20
647.793874
 30
0.0
 11
1146.570438
 21
656.496687
 31
0.0
  0
LINE
  5
463
100
AcDbEntity
  8
LAY-1
  6
CONTINUOUS
 62
     2
100
AcDbLine
 10
1146.570438
 20
656.496687
 30
0.0
 11
1157.446246
 21
655.064859
 31
0.0
  0
CIRCLE
  5
464
100
AcDbEntity
  8
LAY-1
  6
CONTINUOUS
 62
     2
100
AcDbCircle
 10
1150.768343
 20
646.362047
 30
0.0
 40
9.5
  0
LINE
  5
465
100
AcDbEntity
  8
LAY-1
  6
CONTINUOUS
 62
     2
100
AcDbLine
 10
1067.553754
 20
655.064859
 30
0.0
 11
1063.355849
 21
644.930219
 31
0.0
  0
LINE
  5
466
100
AcDbEntity
  8
LAY-1
  6
CONTINUOUS
 62
     2
100
AcDbLine
 10
1063.355849
 20
644.930219
 30
0.0
 11
1070.033751
 21
636.227407
 31
0.0
  0
LINE
  5
467
100
AcDbEntity
  8
LAY-1
  6
CONTINUOUS
 62
     2
100
AcDbLine
 10
1070.033751
 20
636.227407
 30
0.0
 11
1080.90956
 21
637.659234
 31
0.0
  0
LINE
  5
468
100
AcDbEntity
  8
LAY-1
  6
CONTINUOUS
 62
     2
100
AcDbLine
 10
1080.90956
 20
637.659234
 30
0.0
 11
1085.107465
 21
647.793874
 31
0.0
  0
LINE
  5
469
100
AcDbEntity
  8
LAY-1
  6
CONTINUOUS
 62
     2
100
AcDbLine
 10
1085.107465
 20
647.793874
 30
0.0
 11
1078.429562
 21
656.496687
 31
0.0
  0
LINE
  5
46A
100
AcDbEntity
  8
LAY-1
  6
CONTINUOUS
 62
     2
100
AcDbLine
 10
1078.429562
 20
656.496687
 30
0.0
 11
1067.553754
 21
655.064859
 31
0.0
  0
CIRCLE
  5
46B
100
AcDbEntity
  8
LAY-1
  6
CONTINUOUS
 62
     2
100
AcDbCircle
 10
1074.231657
 20
646.362047
 30
0.0
 40
9.5
  0
ARC
  5
46C
100
AcDbEntity
  8
LAY-1
  6
CONTINUOUS
 62
     2
100
AcDbCircle
 10
1205.25
 20
738.75
 30
0.0
 40
0.8
100
AcDbArc
 50
91.79781
 51
268.20219
  0
LINE
  5
46D
100
AcDbEntity
  8
LAY-1
  6
CONTINUOUS
 62
     2
100
AcDbLine
 10
1203.456126
 20
766.142535
 30
0.0
 11
1213.590766
 21
770.34044
 31
0.0
  0
LINE
  5
46E
100
AcDbEntity
  8
LAY-1
  6
CONTINUOUS
 62
     2
100
AcDbLine
 10
1213.590766
 20
770.34044
 30
0.0
 11
1215.022593
 21
781.216249
 31
0.0
  0
LINE
  5
46F
100
AcDbEntity
  8
LAY-1
  6
CONTINUOUS
 62
     2
100
AcDbLine
 10
1215.022593
 20
781.216249
 30
0.0
 11
1206.319781
 21
787.894151
 31
0.0
  0
LINE
  5
470
100
AcDbEntity
  8
LAY-1
  6
CONTINUOUS
 62
     2
100
AcDbLine
 10
1206.319781
 20
787.894151
 30
0.0
 11
1196.185141
 21
783.696246
 31
0.0
  0
LINE
  5
471
100
AcDbEntity
  8
LAY-1
  6
CONTINUOUS
 62
     2
100
AcDbLine
 10
1196.185141
 20
783.696246
 30
0.0
 11
1194.753313
 21
772.820438
 31
0.0
  0
LINE
  5
472
100
AcDbEntity
  8
LAY-1
  6
CONTINUOUS
 62
     2
100
AcDbLine
 10
1194.753313
 20
772.820438
 30
0.0
 11
1203.456126
 21
766.142535
 31
0.0
  0
CIRCLE
  5
473
100
AcDbEntity
  8
LAY-1
  6
CONTINUOUS
 62
     2
100
AcDbCircle
 10
1204.887953
 20
777.018343
 30
0.0
 40
9.5
  0
LINE
  5
474
100
AcDbEntity
  8
LAY-1
  6
CONTINUOUS
 62
     2
100
AcDbLine
 10
1203.456126
 20
711.357465
 30
0.0
 11
1213.590766
 21
707.15956
 31
0.0
  0
LINE
  5
475
100
AcDbEntity
  8
LAY-1
  6
CONTINUOUS
 62
     2
100
AcDbLine
 10
1213.590766
 20
707.15956
 30
0.0
 11
1215.022593
 21
696.283751
 31
0.0
  0
LINE
  5
476
100
AcDbEntity
  8
LAY-1
  6
CONTINUOUS
 62
     2
100
AcDbLine
 10
1215.022593
 20
696.283751
 30
0.0
 11
1206.319781
 21
689.605849
 31
0.0
  0
LINE
  5
477
100
AcDbEntity
  8
LAY-1
  6
CONTINUOUS
 62
     2
100
AcDbLine
 10
1206.319781
 20
689.605849
 30
0.0
 11
1196.185141
 21
693.803754
 31
0.0
  0
LINE
  5
478
100
AcDbEntity
  8
LAY-1
  6
CONTINUOUS
 62
     2
100
AcDbLine
 10
1196.185141
 20
693.803754
 30
0.0
 11
1194.753313
 21
704.679562
 31
0.0
  0
LINE
  5
479
100
AcDbEntity
  8
LAY-1
  6
CONTINUOUS
 62
     2
100
AcDbLine
 10
1194.753313
 20
704.679562
 30
0.0
 11
1203.456126
 21
711.357465
 31
0.0
  0
CIRCLE
  5
47A
100
AcDbEntity
  8
LAY-1
  6
CONTINUOUS
 62
     2
100
AcDbCircle
 10
1204.887953
 20
700.481657
 30
0.0
 40
9.5
  0
LINE
  5
47B
100
AcDbEntity
  8
LAY-1
  6
CONTINUOUS
 62
     2
100
AcDbLine
 10
1112.5
 20
851.430432
 30
0.0
 11
1092.5
 21
851.430432
 31
0.0
  0
LINE
  5
47C
100
AcDbEntity
  8
LAY-1
  6
CONTINUOUS
 62
     2
100
AcDbLine
 10
1112.5
 20
851.430432
 30
0.0
 11
1132.5
 21
851.430432
 31
0.0
  0
LINE
  5
47D
100
AcDbEntity
  8
LAY-1
  6
CONTINUOUS
 62
     2
100
AcDbLine
 10
1157.446246
 20
822.435141
 30
0.0
 11
1161.644151
 21
832.569781
 31
0.0
  0
LINE
  5
47E
100
AcDbEntity
  8
LAY-1
  6
CONTINUOUS
 62
     2
100
AcDbLine
 10
1161.644151
 20
832.569781
 30
0.0
 11
1154.966249
 21
841.272593
 31
0.0
  0
LINE
  5
47F
100
AcDbEntity
  8
LAY-1
  6
CONTINUOUS
 62
     2
100
AcDbLine
 10
1154.966249
 20
841.272593
 30
0.0
 11
1144.09044
 21
839.840766
 31
0.0
  0
LINE
  5
480
100
AcDbEntity
  8
LAY-1
  6
CONTINUOUS
 62
     2
100
AcDbLine
 10
1144.09044
 20
839.840766
 30
0.0
 11
1139.892535
 21
829.706126
 31
0.0
  0
LINE
  5
481
100
AcDbEntity
  8
LAY-1
  6
CONTINUOUS
 62
     2
100
AcDbLine
 10
1139.892535
 20
829.706126
 30
0.0
 11
1146.570438
 21
821.003313
 31
0.0
  0
LINE
  5
482
100
AcDbEntity
  8
LAY-1
  6
CONTINUOUS
 62
     2
100
AcDbLine
 10
1146.570438
 20
821.003313
 30
0.0
 11
1157.446246
 21
822.435141
 31
0.0
  0
LINE
  5
483
100
AcDbEntity
  8
LAY-1
  6
CONTINUOUS
 62
     2
100
AcDbLine
 10
1067.553754
 20
822.435141
 30
0.0
 11
1063.355849
 21
832.569781
 31
0.0
  0
LINE
  5
484
100
AcDbEntity
  8
LAY-1
  6
CONTINUOUS
 62
     2
100
AcDbLine
 10
1063.355849
 20
832.569781
 30
0.0
 11
1070.033751
 21
841.272593
 31
0.0
  0
LINE
  5
485
100
AcDbEntity
  8
LAY-1
  6
CONTINUOUS
 62
     2
100
AcDbLine
 10
1070.033751
 20
841.272593
 30
0.0
 11
1080.90956
 21
839.840766
 31
0.0
  0
LINE
  5
486
100
AcDbEntity
  8
LAY-1
  6
CONTINUOUS
 62
     2
100
AcDbLine
 10
1080.90956
 20
839.840766
 30
0.0
 11
1085.107465
 21
829.706126
 31
0.0
  0
LINE
  5
487
100
AcDbEntity
  8
LAY-1
  6
CONTINUOUS
 62
     2
100
AcDbLine
 10
1085.107465
 20
829.706126
 30
0.0
 11
1078.429562
 21
821.003313
 31
0.0
  0
LINE
  5
488
100
AcDbEntity
  8
LAY-1
  6
CONTINUOUS
 62
     2
100
AcDbLine
 10
1078.429562
 20
821.003313
 30
0.0
 11
1067.553754
 21
822.435141
 31
0.0
  0
CIRCLE
  5
489
100
AcDbEntity
  8
LAY-1
  6
CONTINUOUS
 62
     2
100
AcDbCircle
 10
1150.768343
 20
831.137953
 30
0.0
 40
9.5
  0
CIRCLE
  5
48A
100
AcDbEntity
  8
LAY-1
  6
CONTINUOUS
 62
     2
100
AcDbCircle
 10
1074.231657
 20
831.137953
 30
0.0
 40
9.5
  0
ARC
  5
48B
100
AcDbEntity
  8
LAY-1
  6
CONTINUOUS
 62
     2
100
AcDbCircle
 10
1427.953766
 20
740.75
 30
0.0
 40
357.0
100
AcDbArc
 50
162.524264
 51
162.533212
  0
ARC
  5
48C
100
AcDbEntity
  8
LAY-1
  6
CONTINUOUS
 62
     2
100
AcDbCircle
 10
797.046234
 20
740.75
 30
0.0
 40
357.0
100
AcDbArc
 50
17.466788
 51
17.475736
  0
LINE
  5
48D
100
AcDbEntity
  8
LAY-1
  6
CONTINUOUS
 62
     2
100
AcDbLine
 10
1112.5
 20
1265.232199
 30
0.0
 11
1224.5
 21
1265.232199
 31
0.0
  0
LINE
  5
48E
100
AcDbEntity
  8
LAY-1
  6
CONTINUOUS
 62
     2
100
AcDbLine
 10
1112.5
 20
1265.232199
 30
0.0
 11
1000.5
 21
1265.232199
 31
0.0
  0
LINE
  5
48F
100
AcDbEntity
  8
LAY-1
  6
CONTINUOUS
 62
     2
100
AcDbLine
 10
1224.5
 20
1263.244397
 30
0.0
 11
1000.5
 21
1263.244397
 31
0.0
  0
LINE
  5
490
100
AcDbEntity
  8
LAY-1
  6
CONTINUOUS
 62
     2
100
AcDbLine
 10
1222.5
 20
1248.244397
 30
0.0
 11
1002.5
 21
1248.244397
 31
0.0
  0
LINE
  5
491
100
AcDbEntity
  8
LAY-1
  6
CONTINUOUS
 62
     2
100
AcDbLine
 10
1046.14624
 20
1221.244397
 30
0.0
 11
1031.328427
 21
1221.244397
 31
0.0
  0
LINE
  5
492
100
AcDbEntity
  8
LAY-1
  6
CONTINUOUS
 62
     2
100
AcDbLine
 10
1029.914214
 20
1220.658611
 30
0.0
 11
1029.085786
 21
1219.830184
 31
0.0
  0
LINE
  5
493
100
AcDbEntity
  8
LAY-1
  6
CONTINUOUS
 62
     2
100
AcDbLine
 10
1012.5
 20
1219.244397
 30
0.0
 11
1027.671573
 21
1219.244397
 31
0.0
  0
ARC
  5
494
100
AcDbEntity
  8
LAY-1
  6
CONTINUOUS
 62
     2
100
AcDbCircle
 10
1046.14624
 20
1218.244397
 30
0.0
 40
3.0
100
AcDbArc
 50
2.4696
 51
90.0
  0
ARC
  5
495
100
AcDbEntity
  8
LAY-1
  6
CONTINUOUS
 62
     2
100
AcDbCircle
 10
1179.5007
 20
1233.244397
 30
0.0
 40
3.0
100
AcDbArc
 50
90.0
 51
177.5304
  0
ARC
  5
496
100
AcDbEntity
  8
LAY-1
  6
CONTINUOUS
 62
     2
100
AcDbCircle
 10
1012.5
 20
1221.244397
 30
0.0
 40
2.0
100
AcDbArc
 50
180.0
 51
270.0
  0
ARC
  5
497
100
AcDbEntity
  8
LAY-1
  6
CONTINUOUS
 62
     2
100
AcDbCircle
 10
1031.328427
 20
1219.244397
 30
0.0
 40
2.0
100
AcDbArc
 50
90.0
 51
135.0
  0
ARC
  5
498
100
AcDbEntity
  8
LAY-1
  6
CONTINUOUS
 62
     2
100
AcDbCircle
 10
1027.671573
 20
1221.244397
 30
0.0
 40
2.0
100
AcDbArc
 50
270.0
 51
315.0
  0
LINE
  5
499
100
AcDbEntity
  8
LAY-1
  6
CONTINUOUS
 62
     2
100
AcDbLine
 10
1224.5
 20
1265.232199
 30
0.0
 11
1224.5
 21
1250.244397
 31
0.0
  0
ARC
  5
49A
100
AcDbEntity
  8
LAY-1
  6
CONTINUOUS
 62
     2
100
AcDbCircle
 10
1222.5
 20
1250.244397
 30
0.0
 40
2.0
100
AcDbArc
 50
270.0
 51
0.0
  0
LINE
  5
49B
100
AcDbEntity
  8
LAY-1
  6
CONTINUOUS
 62
     2
100
AcDbLine
 10
1000.5
 20
1265.232199
 30
0.0
 11
1000.5
 21
1250.244397
 31
0.0
  0
ARC
  5
49C
100
AcDbEntity
  8
LAY-1
  6
CONTINUOUS
 62
     2
100
AcDbCircle
 10
1002.5
 20
1250.244397
 30
0.0
 40
2.0
100
AcDbArc
 50
180.0
 51
270.0
  0
ARC
  5
49D
100
AcDbEntity
  8
LAY-1
  6
CONTINUOUS
 62
     2
100
AcDbCircle
 10
1002.5
 20
1285.232199
 30
0.0
 40
2.0
100
AcDbArc
 50
90.0
 51
180.0
  0
ARC
  5
49E
100
AcDbEntity
  8
LAY-1
  6
CONTINUOUS
 62
     2
100
AcDbCircle
 10
1222.5
 20
1285.232199
 30
0.0
 40
2.0
100
AcDbArc
 50
0.0
 51
90.0
  0
LINE
  5
49F
100
AcDbEntity
  8
LAY-1
  6
CONTINUOUS
 62
     2
100
AcDbLine
 10
1000.5
 20
1263.244397
 30
0.0
 11
1000.5
 21
1285.232199
 31
0.0
  0
LINE
  5
4A0
100
AcDbEntity
  8
LAY-1
  6
CONTINUOUS
 62
     2
100
AcDbLine
 10
1224.5
 20
1263.244397
 30
0.0
 11
1224.5
 21
1285.232199
 31
0.0
  0
ARC
  5
4A1
100
AcDbEntity
  8
LAY-1
  6
CONTINUOUS
 62
     2
100
AcDbCircle
 10
1045.4993
 20
1233.244397
 30
0.0
 40
3.0
100
AcDbArc
 50
2.4696
 51
90.0
  0
ARC
  5
4A2
100
AcDbEntity
  8
LAY-1
  6
CONTINUOUS
 62
     2
100
AcDbCircle
 10
1044.5
 20
1270.850272
 30
0.0
 40
19.0
100
AcDbArc
 50
92.0
 51
134.928694
  0
LINE
  5
4A3
100
AcDbEntity
  8
LAY-1
  6
CONTINUOUS
 62
     2
100
AcDbLine
 10
1034.875424
 20
1287.232199
 30
0.0
 11
1031.081702
 21
1287.232199
 31
0.0
  0
LINE
  5
4A4
100
AcDbEntity
  8
LAY-1
  6
CONTINUOUS
 62
     2
100
AcDbLine
 10
1009.142392
 20
1287.232199
 30
0.0
 11
1002.5
 21
1287.232199
 31
0.0
  0
LINE
  5
4A5
100
AcDbEntity
  8
LAY-1
  6
CONTINUOUS
 62
     2
100
AcDbLine
 10
1224.5
 20
1280.232199
 30
0.0
 11
1000.5
 21
1280.232199
 31
0.0
  0
LINE
  5
4A6
100
AcDbEntity
  8
LAY-1
  6
CONTINUOUS
 62
     2
100
AcDbLine
 10
1193.918298
 20
1287.232199
 30
0.0
 11
1190.124576
 21
1287.232199
 31
0.0
  0
LINE
  5
4A7
100
AcDbEntity
  8
LAY-1
  6
CONTINUOUS
 62
     2
100
AcDbLine
 10
1222.5
 20
1287.232199
 30
0.0
 11
1215.857608
 21
1287.232199
 31
0.0
  0
ARC
  5
4A8
100
AcDbEntity
  8
LAY-1
  6
CONTINUOUS
 62
     2
100
AcDbCircle
 10
1180.5
 20
1270.850272
 30
0.0
 40
19.0
100
AcDbArc
 50
45.071306
 51
88.0
  0
LINE
  5
4A9
100
AcDbEntity
  8
LAY-1
  6
CONTINUOUS
 62
     2
100
AcDbLine
 10
1030.6
 20
1221.107028
 30
0.0
 11
1030.6
 21
1236.120395
 31
0.0
  0
LINE
  5
4AA
100
AcDbEntity
  8
LAY-1
  6
CONTINUOUS
 62
     2
100
AcDbLine
 10
1028.3
 20
1219.244397
 30
0.0
 11
1028.3
 21
1235.550159
 31
0.0
  0
LINE
  5
4AB
100
AcDbEntity
  8
LAY-1
  6
CONTINUOUS
 62
     2
100
AcDbLine
 10
1010.5
 20
1235.61469
 30
0.0
 11
1010.5
 21
1221.244397
 31
0.0
  0
ARC
  5
4AC
100
AcDbEntity
  8
LAY-1
  6
CONTINUOUS
 62
     2
100
AcDbCircle
 10
1008.5
 20
1246.244397
 30
0.0
 40
2.0
100
AcDbArc
 50
0.0
 51
4.03704
  0
ARC
  5
4AD
100
AcDbEntity
  8
LAY-1
  6
CONTINUOUS
 62
     2
100
AcDbCircle
 10
1072.5
 20
1300.84573
 30
0.0
 40
10.0
100
AcDbArc
 50
272.0
 51
357.492106
  0
ARC
  5
4AE
100
AcDbEntity
  8
LAY-1
  6
CONTINUOUS
 62
     2
100
AcDbCircle
 10
1152.5
 20
1300.84573
 30
0.0
 40
10.0
100
AcDbArc
 50
182.507894
 51
268.0
  0
LINE
  5
4AF
100
AcDbEntity
  8
LAY-1
  6
CONTINUOUS
 62
     2
100
AcDbLine
 10
1194.185221
 20
1236.244397
 30
0.0
 11
1161.471075
 21
1236.244397
 31
0.0
  0
LINE
  5
4B0
100
AcDbEntity
  8
LAY-1
  6
CONTINUOUS
 62
     2
100
AcDbLine
 10
1140.065611
 20
1236.244397
 30
0.0
 11
1084.934389
 21
1236.244397
 31
0.0
  0
LINE
  5
4B1
100
AcDbEntity
  8
LAY-1
  6
CONTINUOUS
 62
     2
100
AcDbLine
 10
1030.814779
 20
1236.244397
 30
0.0
 11
1063.502039
 21
1236.244397
 31
0.0
  0
LINE
  5
4B2
100
AcDbEntity
  8
LAY-1
  6
CONTINUOUS
 62
     2
100
AcDbLine
 10
1062.231656
 20
1247.023721
 30
0.0
 11
1062.231656
 21
1248.25
 31
0.0
  0
LINE
  5
4B3
100
AcDbEntity
  8
LAY-1
  6
CONTINUOUS
 62
     2
100
AcDbLine
 10
1074.231656
 20
1247.023721
 30
0.0
 11
1062.231656
 21
1247.023721
 31
0.0
  0
LINE
  5
4B4
100
AcDbEntity
  8
LAY-1
  6
CONTINUOUS
 62
     2
100
AcDbLine
 10
1062.231656
 20
1247.023721
 30
0.0
 11
1067.731656
 21
1245.55
 31
0.0
  0
LINE
  5
4B5
100
AcDbEntity
  8
LAY-1
  6
CONTINUOUS
 62
     2
100
AcDbLine
 10
1063.262001
 20
1245.55
 30
0.0
 11
1074.231656
 21
1245.55
 31
0.0
  0
LINE
  5
4B6
100
AcDbEntity
  8
LAY-1
  6
CONTINUOUS
 62
     2
100
AcDbLine
 10
1063.262001
 20
1236.398506
 30
0.0
 11
1063.262001
 21
1245.55
 31
0.0
  0
LINE
  5
4B7
100
AcDbEntity
  8
LAY-1
  6
CONTINUOUS
 62
     2
100
AcDbLine
 10
1064.731656
 20
1235.55
 30
0.0
 11
1063.262001
 21
1236.398506
 31
0.0
  0
LINE
  5
4B8
100
AcDbEntity
  8
LAY-1
  6
CONTINUOUS
 62
     2
100
AcDbLine
 10
1068.746829
 20
1236.398506
 30
0.0
 11
1068.746829
 21
1245.55
 31
0.0
  0
ARC
  5
4B9
100
AcDbEntity
  8
LAY-1
  6
CONTINUOUS
 62
     2
100
AcDbCircle
 10
1066.004415
 20
1240.406063
 30
0.0
 40
4.856063
100
AcDbArc
 50
235.615753
 51
304.384247
  0
LINE
  5
4BA
100
AcDbEntity
  8
LAY-1
  6
CONTINUOUS
 62
     2
100
AcDbLine
 10
1074.231656
 20
1235.55
 30
0.0
 11
1064.731656
 21
1235.55
 31
0.0
  0
ARC
  5
4BB
100
AcDbEntity
  8
LAY-1
  6
CONTINUOUS
 62
     2
100
AcDbCircle
 10
1074.231656
 20
1253.701494
 30
0.0
 40
18.151494
100
AcDbArc
 50
252.412046
 51
270.0
  0
ARC
  5
4BC
100
AcDbEntity
  8
LAY-1
  6
CONTINUOUS
 62
     2
100
AcDbCircle
 10
1074.231657
 20
1253.701494
 30
0.0
 40
18.151494
100
AcDbArc
 50
270.0
 51
287.587954
  0
LINE
  5
4BD
100
AcDbEntity
  8
LAY-1
  6
CONTINUOUS
 62
     2
100
AcDbLine
 10
1083.731657
 20
1235.55
 30
0.0
 11
1085.201312
 21
1236.398506
 31
0.0
  0
LINE
  5
4BE
100
AcDbEntity
  8
LAY-1
  6
CONTINUOUS
 62
     2
100
AcDbLine
 10
1074.231657
 20
1235.55
 30
0.0
 11
1083.731657
 21
1235.55
 31
0.0
  0
ARC
  5
4BF
100
AcDbEntity
  8
LAY-1
  6
CONTINUOUS
 62
     2
100
AcDbCircle
 10
1082.458898
 20
1240.406063
 30
0.0
 40
4.856063
100
AcDbArc
 50
235.615753
 51
304.384247
  0
LINE
  5
4C0
100
AcDbEntity
  8
LAY-1
  6
CONTINUOUS
 62
     2
100
AcDbLine
 10
1085.201312
 20
1236.398506
 30
0.0
 11
1085.201312
 21
1245.55
 31
0.0
  0
LINE
  5
4C1
100
AcDbEntity
  8
LAY-1
  6
CONTINUOUS
 62
     2
100
AcDbLine
 10
1085.201312
 20
1245.55
 30
0.0
 11
1074.231657
 21
1245.55
 31
0.0
  0
LINE
  5
4C2
100
AcDbEntity
  8
LAY-1
  6
CONTINUOUS
 62
     2
100
AcDbLine
 10
1086.231657
 20
1247.023721
 30
0.0
 11
1080.731657
 21
1245.55
 31
0.0
  0
LINE
  5
4C3
100
AcDbEntity
  8
LAY-1
  6
CONTINUOUS
 62
     2
100
AcDbLine
 10
1086.231657
 20
1247.023721
 30
0.0
 11
1086.231657
 21
1248.25
 31
0.0
  0
LINE
  5
4C4
100
AcDbEntity
  8
LAY-1
  6
CONTINUOUS
 62
     2
100
AcDbLine
 10
1074.231657
 20
1247.023721
 30
0.0
 11
1086.231657
 21
1247.023721
 31
0.0
  0
LINE
  5
4C5
100
AcDbEntity
  8
LAY-1
  6
CONTINUOUS
 62
     2
100
AcDbLine
 10
1080.231657
 20
1230.75
 30
0.0
 11
1079.731657
 21
1230.25
 31
0.0
  0
LINE
  5
4C6
100
AcDbEntity
  8
LAY-1
  6
CONTINUOUS
 62
     2
100
AcDbLine
 10
1068.231657
 20
1230.75
 30
0.0
 11
1068.731657
 21
1230.25
 31
0.0
  0
LINE
  5
4C7
100
AcDbEntity
  8
LAY-1
  6
CONTINUOUS
 62
     2
100
AcDbLine
 10
1068.731657
 20
1230.25
 30
0.0
 11
1079.731657
 21
1230.25
 31
0.0
  0
LINE
  5
4C8
100
AcDbEntity
  8
LAY-1
  6
CONTINUOUS
 62
     2
100
AcDbLine
 10
1080.231657
 20
1230.75
 30
0.0
 11
1080.231657
 21
1235.55
 31
0.0
  0
LINE
  5
4C9
100
AcDbEntity
  8
LAY-1
  6
CONTINUOUS
 62
     2
100
AcDbLine
 10
1068.231657
 20
1230.75
 30
0.0
 11
1068.231657
 21
1235.55
 31
0.0
  0
LINE
  5
4CA
100
AcDbEntity
  8
LAY-1
  6
CONTINUOUS
 62
     2
100
AcDbLine
 10
1079.716485
 20
1236.398506
 30
0.0
 11
1079.716485
 21
1245.55
 31
0.0
  0
LINE
  5
4CB
100
AcDbEntity
  8
LAY-1
  6
CONTINUOUS
 62
     2
100
AcDbLine
 10
1083.731657
 20
1288.232199
 30
0.0
 11
1064.731657
 21
1288.232199
 31
0.0
  0
ARC
  5
4CC
100
AcDbEntity
  8
LAY-1
  6
CONTINUOUS
 62
     2
100
AcDbCircle
 10
1066.004415
 20
1283.376135
 30
0.0
 40
4.856063
100
AcDbArc
 50
55.615753
 51
124.384247
  0
LINE
  5
4CD
100
AcDbEntity
  8
LAY-1
  6
CONTINUOUS
 62
     2
100
AcDbLine
 10
1068.746829
 20
1280.232199
 30
0.0
 11
1068.746829
 21
1287.383693
 31
0.0
  0
LINE
  5
4CE
100
AcDbEntity
  8
LAY-1
  6
CONTINUOUS
 62
     2
100
AcDbLine
 10
1064.731657
 20
1288.232199
 30
0.0
 11
1063.262002
 21
1287.383693
 31
0.0
  0
LINE
  5
4CF
100
AcDbEntity
  8
LAY-1
  6
CONTINUOUS
 62
     2
100
AcDbLine
 10
1063.262002
 20
1287.383693
 30
0.0
 11
1063.262002
 21
1280.232199
 31
0.0
  0
ARC
  5
4D0
100
AcDbEntity
  8
LAY-1
  6
CONTINUOUS
 62
     2
100
AcDbCircle
 10
1074.231657
 20
1270.080704
 30
0.0
 40
18.151494
100
AcDbArc
 50
72.412046
 51
107.587954
  0
ARC
  5
4D1
100
AcDbEntity
  8
LAY-1
  6
CONTINUOUS
 62
     2
100
AcDbCircle
 10
1082.458898
 20
1283.376135
 30
0.0
 40
4.856063
100
AcDbArc
 50
55.615753
 51
124.384247
  0
LINE
  5
4D2
100
AcDbEntity
  8
LAY-1
  6
CONTINUOUS
 62
     2
100
AcDbLine
 10
1079.716484
 20
1287.383693
 30
0.0
 11
1079.716484
 21
1280.232199
 31
0.0
  0
LINE
  5
4D3
100
AcDbEntity
  8
LAY-1
  6
CONTINUOUS
 62
     2
100
AcDbLine
 10
1085.201312
 20
1287.383693
 30
0.0
 11
1083.731657
 21
1288.232199
 31
0.0
  0
LINE
  5
4D4
100
AcDbEntity
  8
LAY-1
  6
CONTINUOUS
 62
     2
100
AcDbLine
 10
1085.201312
 20
1280.232199
 30
0.0
 11
1085.201312
 21
1287.383693
 31
0.0
  0
LINE
  5
4D5
100
AcDbEntity
  8
LAY-1
  6
CONTINUOUS
 62
     2
100
AcDbLine
 10
1138.768343
 20
1247.023721
 30
0.0
 11
1138.768343
 21
1248.25
 31
0.0
  0
LINE
  5
4D6
100
AcDbEntity
  8
LAY-1
  6
CONTINUOUS
 62
     2
100
AcDbLine
 10
1150.768343
 20
1247.023721
 30
0.0
 11
1138.768343
 21
1247.023721
 31
0.0
  0
LINE
  5
4D7
100
AcDbEntity
  8
LAY-1
  6
CONTINUOUS
 62
     2
100
AcDbLine
 10
1138.768343
 20
1247.023721
 30
0.0
 11
1144.268343
 21
1245.55
 31
0.0
  0
LINE
  5
4D8
100
AcDbEntity
  8
LAY-1
  6
CONTINUOUS
 62
     2
100
AcDbLine
 10
1139.798688
 20
1245.55
 30
0.0
 11
1150.768343
 21
1245.55
 31
0.0
  0
LINE
  5
4D9
100
AcDbEntity
  8
LAY-1
  6
CONTINUOUS
 62
     2
100
AcDbLine
 10
1139.798688
 20
1236.398506
 30
0.0
 11
1139.798688
 21
1245.55
 31
0.0
  0
LINE
  5
4DA
100
AcDbEntity
  8
LAY-1
  6
CONTINUOUS
 62
     2
100
AcDbLine
 10
1141.268343
 20
1235.55
 30
0.0
 11
1139.798688
 21
1236.398506
 31
0.0
  0
LINE
  5
4DB
100
AcDbEntity
  8
LAY-1
  6
CONTINUOUS
 62
     2
100
AcDbLine
 10
1145.283515
 20
1236.398506
 30
0.0
 11
1145.283515
 21
1245.55
 31
0.0
  0
ARC
  5
4DC
100
AcDbEntity
  8
LAY-1
  6
CONTINUOUS
 62
     2
100
AcDbCircle
 10
1142.541102
 20
1240.406063
 30
0.0
 40
4.856063
100
AcDbArc
 50
235.615753
 51
304.384247
  0
LINE
  5
4DD
100
AcDbEntity
  8
LAY-1
  6
CONTINUOUS
 62
     2
100
AcDbLine
 10
1150.768343
 20
1235.55
 30
0.0
 11
1141.268343
 21
1235.55
 31
0.0
  0
ARC
  5
4DE
100
AcDbEntity
  8
LAY-1
  6
CONTINUOUS
 62
     2
100
AcDbCircle
 10
1150.768343
 20
1253.701494
 30
0.0
 40
18.151494
100
AcDbArc
 50
252.412046
 51
270.0
  0
ARC
  5
4DF
100
AcDbEntity
  8
LAY-1
  6
CONTINUOUS
 62
     2
100
AcDbCircle
 10
1150.768344
 20
1253.701494
 30
0.0
 40
18.151494
100
AcDbArc
 50
270.0
 51
287.587954
  0
LINE
  5
4E0
100
AcDbEntity
  8
LAY-1
  6
CONTINUOUS
 62
     2
100
AcDbLine
 10
1160.268344
 20
1235.55
 30
0.0
 11
1161.737999
 21
1236.398506
 31
0.0
  0
LINE
  5
4E1
100
AcDbEntity
  8
LAY-1
  6
CONTINUOUS
 62
     2
100
AcDbLine
 10
1150.768344
 20
1235.55
 30
0.0
 11
1160.268344
 21
1235.55
 31
0.0
  0
ARC
  5
4E2
100
AcDbEntity
  8
LAY-1
  6
CONTINUOUS
 62
     2
100
AcDbCircle
 10
1158.995585
 20
1240.406063
 30
0.0
 40
4.856063
100
AcDbArc
 50
235.615753
 51
304.384247
  0
LINE
  5
4E3
100
AcDbEntity
  8
LAY-1
  6
CONTINUOUS
 62
     2
100
AcDbLine
 10
1161.737999
 20
1236.398506
 30
0.0
 11
1161.737999
 21
1245.55
 31
0.0
  0
LINE
  5
4E4
100
AcDbEntity
  8
LAY-1
  6
CONTINUOUS
 62
     2
100
AcDbLine
 10
1161.737999
 20
1245.55
 30
0.0
 11
1150.768344
 21
1245.55
 31
0.0
  0
LINE
  5
4E5
100
AcDbEntity
  8
LAY-1
  6
CONTINUOUS
 62
     2
100
AcDbLine
 10
1162.768344
 20
1247.023721
 30
0.0
 11
1157.268344
 21
1245.55
 31
0.0
  0
LINE
  5
4E6
100
AcDbEntity
  8
LAY-1
  6
CONTINUOUS
 62
     2
100
AcDbLine
 10
1162.768344
 20
1247.023721
 30
0.0
 11
1162.768344
 21
1248.25
 31
0.0
  0
LINE
  5
4E7
100
AcDbEntity
  8
LAY-1
  6
CONTINUOUS
 62
     2
100
AcDbLine
 10
1150.768344
 20
1247.023721
 30
0.0
 11
1162.768344
 21
1247.023721
 31
0.0
  0
LINE
  5
4E8
100
AcDbEntity
  8
LAY-1
  6
CONTINUOUS
 62
     2
100
AcDbLine
 10
1156.768343
 20
1230.75
 30
0.0
 11
1156.268343
 21
1230.25
 31
0.0
  0
LINE
  5
4E9
100
AcDbEntity
  8
LAY-1
  6
CONTINUOUS
 62
     2
100
AcDbLine
 10
1144.768343
 20
1230.75
 30
0.0
 11
1145.268343
 21
1230.25
 31
0.0
  0
LINE
  5
4EA
100
AcDbEntity
  8
LAY-1
  6
CONTINUOUS
 62
     2
100
AcDbLine
 10
1145.268343
 20
1230.25
 30
0.0
 11
1156.268343
 21
1230.25
 31
0.0
  0
LINE
  5
4EB
100
AcDbEntity
  8
LAY-1
  6
CONTINUOUS
 62
     2
100
AcDbLine
 10
1156.768343
 20
1230.75
 30
0.0
 11
1156.768343
 21
1235.55
 31
0.0
  0
LINE
  5
4EC
100
AcDbEntity
  8
LAY-1
  6
CONTINUOUS
 62
     2
100
AcDbLine
 10
1144.768343
 20
1230.75
 30
0.0
 11
1144.768343
 21
1235.55
 31
0.0
  0
LINE
  5
4ED
100
AcDbEntity
  8
LAY-1
  6
CONTINUOUS
 62
     2
100
AcDbLine
 10
1156.253171
 20
1236.398506
 30
0.0
 11
1156.253171
 21
1245.55
 31
0.0
  0
LINE
  5
4EE
100
AcDbEntity
  8
LAY-1
  6
CONTINUOUS
 62
     2
100
AcDbLine
 10
1160.268343
 20
1288.232199
 30
0.0
 11
1141.268343
 21
1288.232199
 31
0.0
  0
ARC
  5
4EF
100
AcDbEntity
  8
LAY-1
  6
CONTINUOUS
 62
     2
100
AcDbCircle
 10
1142.541102
 20
1283.376135
 30
0.0
 40
4.856063
100
AcDbArc
 50
55.615753
 51
124.384247
  0
LINE
  5
4F0
100
AcDbEntity
  8
LAY-1
  6
CONTINUOUS
 62
     2
100
AcDbLine
 10
1145.283516
 20
1280.232199
 30
0.0
 11
1145.283516
 21
1287.383693
 31
0.0
  0
LINE
  5
4F1
100
AcDbEntity
  8
LAY-1
  6
CONTINUOUS
 62
     2
100
AcDbLine
 10
1141.268343
 20
1288.232199
 30
0.0
 11
1139.798688
 21
1287.383693
 31
0.0
  0
LINE
  5
4F2
100
AcDbEntity
  8
LAY-1
  6
CONTINUOUS
 62
     2
100
AcDbLine
 10
1139.798688
 20
1287.383693
 30
0.0
 11
1139.798688
 21
1280.232199
 31
0.0
  0
ARC
  5
4F3
100
AcDbEntity
  8
LAY-1
  6
CONTINUOUS
 62
     2
100
AcDbCircle
 10
1150.768343
 20
1270.080704
 30
0.0
 40
18.151494
100
AcDbArc
 50
72.412046
 51
107.587954
  0
ARC
  5
4F4
100
AcDbEntity
  8
LAY-1
  6
CONTINUOUS
 62
     2
100
AcDbCircle
 10
1158.995585
 20
1283.376135
 30
0.0
 40
4.856063
100
AcDbArc
 50
55.615753
 51
124.384247
  0
LINE
  5
4F5
100
AcDbEntity
  8
LAY-1
  6
CONTINUOUS
 62
     2
100
AcDbLine
 10
1156.253171
 20
1287.383693
 30
0.0
 11
1156.253171
 21
1280.232199
 31
0.0
  0
LINE
  5
4F6
100
AcDbEntity
  8
LAY-1
  6
CONTINUOUS
 62
     2
100
AcDbLine
 10
1161.737998
 20
1287.383693
 30
0.0
 11
1160.268343
 21
1288.232199
 31
0.0
  0
LINE
  5
4F7
100
AcDbEntity
  8
LAY-1
  6
CONTINUOUS
 62
     2
100
AcDbLine
 10
1161.737998
 20
1280.232199
 30
0.0
 11
1161.737998
 21
1287.383693
 31
0.0
  0
LINE
  5
4F8
100
AcDbEntity
  8
LAY-1
  6
CONTINUOUS
 62
     2
100
AcDbLine
 10
1192.887953
 20
1247.023721
 30
0.0
 11
1192.887953
 21
1248.25
 31
0.0
  0
LINE
  5
4F9
100
AcDbEntity
  8
LAY-1
  6
CONTINUOUS
 62
     2
100
AcDbLine
 10
1204.887953
 20
1247.023721
 30
0.0
 11
1192.887953
 21
1247.023721
 31
0.0
  0
LINE
  5
4FA
100
AcDbEntity
  8
LAY-1
  6
CONTINUOUS
 62
     2
100
AcDbLine
 10
1192.887953
 20
1247.023721
 30
0.0
 11
1198.387953
 21
1245.55
 31
0.0
  0
LINE
  5
4FB
100
AcDbEntity
  8
LAY-1
  6
CONTINUOUS
 62
     2
100
AcDbLine
 10
1193.918298
 20
1245.55
 30
0.0
 11
1204.887953
 21
1245.55
 31
0.0
  0
LINE
  5
4FC
100
AcDbEntity
  8
LAY-1
  6
CONTINUOUS
 62
     2
100
AcDbLine
 10
1193.918298
 20
1236.398506
 30
0.0
 11
1193.918298
 21
1245.55
 31
0.0
  0
LINE
  5
4FD
100
AcDbEntity
  8
LAY-1
  6
CONTINUOUS
 62
     2
100
AcDbLine
 10
1195.387953
 20
1235.55
 30
0.0
 11
1193.918298
 21
1236.398506
 31
0.0
  0
LINE
  5
4FE
100
AcDbEntity
  8
LAY-1
  6
CONTINUOUS
 62
     2
100
AcDbLine
 10
1199.403125
 20
1236.398506
 30
0.0
 11
1199.403125
 21
1245.55
 31
0.0
  0
ARC
  5
4FF
100
AcDbEntity
  8
LAY-1
  6
CONTINUOUS
 62
     2
100
AcDbCircle
 10
1196.660712
 20
1240.406063
 30
0.0
 40
4.856063
100
AcDbArc
 50
235.615753
 51
304.384247
  0
LINE
  5
500
100
AcDbEntity
  8
LAY-1
  6
CONTINUOUS
 62
     2
100
AcDbLine
 10
1204.887953
 20
1235.55
 30
0.0
 11
1195.387953
 21
1235.55
 31
0.0
  0
ARC
  5
501
100
AcDbEntity
  8
LAY-1
  6
CONTINUOUS
 62
     2
100
AcDbCircle
 10
1204.887953
 20
1253.701494
 30
0.0
 40
18.151494
100
AcDbArc
 50
252.412046
 51
270.0
  0
ARC
  5
502
100
AcDbEntity
  8
LAY-1
  6
CONTINUOUS
 62
     2
100
AcDbCircle
 10
1204.887954
 20
1253.701494
 30
0.0
 40
18.151494
100
AcDbArc
 50
270.0
 51
287.587954
  0
LINE
  5
503
100
AcDbEntity
  8
LAY-1
  6
CONTINUOUS
 62
     2
100
AcDbLine
 10
1214.387954
 20
1235.55
 30
0.0
 11
1215.857609
 21
1236.398506
 31
0.0
  0
LINE
  5
504
100
AcDbEntity
  8
LAY-1
  6
CONTINUOUS
 62
     2
100
AcDbLine
 10
1204.887954
 20
1235.55
 30
0.0
 11
1214.387954
 21
1235.55
 31
0.0
  0
ARC
  5
505
100
AcDbEntity
  8
LAY-1
  6
CONTINUOUS
 62
     2
100
AcDbCircle
 10
1213.115195
 20
1240.406063
 30
0.0
 40
4.856063
100
AcDbArc
 50
235.615753
 51
304.384247
  0
LINE
  5
506
100
AcDbEntity
  8
LAY-1
  6
CONTINUOUS
 62
     2
100
AcDbLine
 10
1215.857609
 20
1236.398506
 30
0.0
 11
1215.857609
 21
1245.55
 31
0.0
  0
LINE
  5
507
100
AcDbEntity
  8
LAY-1
  6
CONTINUOUS
 62
     2
100
AcDbLine
 10
1215.857609
 20
1245.55
 30
0.0
 11
1204.887954
 21
1245.55
 31
0.0
  0
LINE
  5
508
100
AcDbEntity
  8
LAY-1
  6
CONTINUOUS
 62
     2
100
AcDbLine
 10
1216.887954
 20
1247.023721
 30
0.0
 11
1211.387954
 21
1245.55
 31
0.0
  0
LINE
  5
509
100
AcDbEntity
  8
LAY-1
  6
CONTINUOUS
 62
     2
100
AcDbLine
 10
1216.887954
 20
1247.023721
 30
0.0
 11
1216.887954
 21
1248.25
 31
0.0
  0
LINE
  5
50A
100
AcDbEntity
  8
LAY-1
  6
CONTINUOUS
 62
     2
100
AcDbLine
 10
1204.887954
 20
1247.023721
 30
0.0
 11
1216.887954
 21
1247.023721
 31
0.0
  0
LINE
  5
50B
100
AcDbEntity
  8
LAY-1
  6
CONTINUOUS
 62
     2
100
AcDbLine
 10
1210.887953
 20
1230.75
 30
0.0
 11
1210.387953
 21
1230.25
 31
0.0
  0
LINE
  5
50C
100
AcDbEntity
  8
LAY-1
  6
CONTINUOUS
 62
     2
100
AcDbLine
 10
1198.887953
 20
1230.75
 30
0.0
 11
1199.387953
 21
1230.25
 31
0.0
  0
LINE
  5
50D
100
AcDbEntity
  8
LAY-1
  6
CONTINUOUS
 62
     2
100
AcDbLine
 10
1199.387953
 20
1230.25
 30
0.0
 11
1210.387953
 21
1230.25
 31
0.0
  0
LINE
  5
50E
100
AcDbEntity
  8
LAY-1
  6
CONTINUOUS
 62
     2
100
AcDbLine
 10
1210.887953
 20
1230.75
 30
0.0
 11
1210.887953
 21
1235.55
 31
0.0
  0
LINE
  5
50F
100
AcDbEntity
  8
LAY-1
  6
CONTINUOUS
 62
     2
100
AcDbLine
 10
1198.887953
 20
1230.75
 30
0.0
 11
1198.887953
 21
1235.55
 31
0.0
  0
LINE
  5
510
100
AcDbEntity
  8
LAY-1
  6
CONTINUOUS
 62
     2
100
AcDbLine
 10
1210.372781
 20
1236.398506
 30
0.0
 11
1210.372781
 21
1245.55
 31
0.0
  0
LINE
  5
511
100
AcDbEntity
  8
LAY-1
  6
CONTINUOUS
 62
     2
100
AcDbLine
 10
1214.387953
 20
1288.232199
 30
0.0
 11
1195.387953
 21
1288.232199
 31
0.0
  0
ARC
  5
512
100
AcDbEntity
  8
LAY-1
  6
CONTINUOUS
 62
     2
100
AcDbCircle
 10
1196.660712
 20
1283.376135
 30
0.0
 40
4.856063
100
AcDbArc
 50
55.615753
 51
124.384247
  0
LINE
  5
513
100
AcDbEntity
  8
LAY-1
  6
CONTINUOUS
 62
     2
100
AcDbLine
 10
1199.403126
 20
1280.232199
 30
0.0
 11
1199.403126
 21
1287.383693
 31
0.0
  0
LINE
  5
514
100
AcDbEntity
  8
LAY-1
  6
CONTINUOUS
 62
     2
100
AcDbLine
 10
1195.387953
 20
1288.232199
 30
0.0
 11
1193.918298
 21
1287.383693
 31
0.0
  0
LINE
  5
515
100
AcDbEntity
  8
LAY-1
  6
CONTINUOUS
 62
     2
100
AcDbLine
 10
1193.918298
 20
1287.383693
 30
0.0
 11
1193.918298
 21
1280.232199
 31
0.0
  0
ARC
  5
516
100
AcDbEntity
  8
LAY-1
  6
CONTINUOUS
 62
     2
100
AcDbCircle
 10
1204.887953
 20
1270.080704
 30
0.0
 40
18.151494
100
AcDbArc
 50
72.412046
 51
107.587954
  0
ARC
  5
517
100
AcDbEntity
  8
LAY-1
  6
CONTINUOUS
 62
     2
100
AcDbCircle
 10
1213.115195
 20
1283.376135
 30
0.0
 40
4.856063
100
AcDbArc
 50
55.615753
 51
124.384247
  0
LINE
  5
518
100
AcDbEntity
  8
LAY-1
  6
CONTINUOUS
 62
     2
100
AcDbLine
 10
1210.372781
 20
1287.383693
 30
0.0
 11
1210.372781
 21
1280.232199
 31
0.0
  0
LINE
  5
519
100
AcDbEntity
  8
LAY-1
  6
CONTINUOUS
 62
     2
100
AcDbLine
 10
1215.857608
 20
1287.383693
 30
0.0
 11
1214.387953
 21
1288.232199
 31
0.0
  0
LINE
  5
51A
100
AcDbEntity
  8
LAY-1
  6
CONTINUOUS
 62
     2
100
AcDbLine
 10
1215.857608
 20
1280.232199
 30
0.0
 11
1215.857608
 21
1287.383693
 31
0.0
  0
LINE
  5
51B
100
AcDbEntity
  8
LAY-1
  6
CONTINUOUS
 62
     2
100
AcDbLine
 10
1008.112046
 20
1248.25
 30
0.0
 11
1032.112047
 21
1248.25
 31
0.0
  0
LINE
  5
51C
100
AcDbEntity
  8
LAY-1
  6
CONTINUOUS
 62
     2
100
AcDbLine
 10
1008.112046
 20
1247.023721
 30
0.0
 11
1008.112046
 21
1248.25
 31
0.0
  0
LINE
  5
51D
100
AcDbEntity
  8
LAY-1
  6
CONTINUOUS
 62
     2
100
AcDbLine
 10
1020.112046
 20
1247.023721
 30
0.0
 11
1008.112046
 21
1247.023721
 31
0.0
  0
LINE
  5
51E
100
AcDbEntity
  8
LAY-1
  6
CONTINUOUS
 62
     2
100
AcDbLine
 10
1008.112046
 20
1247.023721
 30
0.0
 11
1013.612046
 21
1245.55
 31
0.0
  0
LINE
  5
51F
100
AcDbEntity
  8
LAY-1
  6
CONTINUOUS
 62
     2
100
AcDbLine
 10
1009.142391
 20
1245.55
 30
0.0
 11
1020.112046
 21
1245.55
 31
0.0
  0
LINE
  5
520
100
AcDbEntity
  8
LAY-1
  6
CONTINUOUS
 62
     2
100
AcDbLine
 10
1009.142391
 20
1236.398506
 30
0.0
 11
1009.142391
 21
1245.55
 31
0.0
  0
LINE
  5
521
100
AcDbEntity
  8
LAY-1
  6
CONTINUOUS
 62
     2
100
AcDbLine
 10
1010.612046
 20
1235.55
 30
0.0
 11
1009.142391
 21
1236.398506
 31
0.0
  0
LINE
  5
522
100
AcDbEntity
  8
LAY-1
  6
CONTINUOUS
 62
     2
100
AcDbLine
 10
1014.627219
 20
1236.398506
 30
0.0
 11
1014.627219
 21
1245.55
 31
0.0
  0
ARC
  5
523
100
AcDbEntity
  8
LAY-1
  6
CONTINUOUS
 62
     2
100
AcDbCircle
 10
1011.884805
 20
1240.406063
 30
0.0
 40
4.856063
100
AcDbArc
 50
235.615753
 51
304.384247
  0
LINE
  5
524
100
AcDbEntity
  8
LAY-1
  6
CONTINUOUS
 62
     2
100
AcDbLine
 10
1020.112046
 20
1235.55
 30
0.0
 11
1010.612046
 21
1235.55
 31
0.0
  0
ARC
  5
525
100
AcDbEntity
  8
LAY-1
  6
CONTINUOUS
 62
     2
100
AcDbCircle
 10
1020.112046
 20
1253.701494
 30
0.0
 40
18.151494
100
AcDbArc
 50
252.412046
 51
270.0
  0
ARC
  5
526
100
AcDbEntity
  8
LAY-1
  6
CONTINUOUS
 62
     2
100
AcDbCircle
 10
1020.112047
 20
1253.701494
 30
0.0
 40
18.151494
100
AcDbArc
 50
270.0
 51
287.587954
  0
LINE
  5
527
100
AcDbEntity
  8
LAY-1
  6
CONTINUOUS
 62
     2
100
AcDbLine
 10
1029.612047
 20
1235.55
 30
0.0
 11
1031.081702
 21
1236.398506
 31
0.0
  0
LINE
  5
528
100
AcDbEntity
  8
LAY-1
  6
CONTINUOUS
 62
     2
100
AcDbLine
 10
1020.112047
 20
1235.55
 30
0.0
 11
1029.612047
 21
1235.55
 31
0.0
  0
ARC
  5
529
100
AcDbEntity
  8
LAY-1
  6
CONTINUOUS
 62
     2
100
AcDbCircle
 10
1028.339288
 20
1240.406063
 30
0.0
 40
4.856063
100
AcDbArc
 50
235.615753
 51
304.384247
  0
LINE
  5
52A
100
AcDbEntity
  8
LAY-1
  6
CONTINUOUS
 62
     2
100
AcDbLine
 10
1031.081702
 20
1236.398506
 30
0.0
 11
1031.081702
 21
1245.55
 31
0.0
  0
LINE
  5
52B
100
AcDbEntity
  8
LAY-1
  6
CONTINUOUS
 62
     2
100
AcDbLine
 10
1031.081702
 20
1245.55
 30
0.0
 11
1020.112047
 21
1245.55
 31
0.0
  0
LINE
  5
52C
100
AcDbEntity
  8
LAY-1
  6
CONTINUOUS
 62
     2
100
AcDbLine
 10
1032.112047
 20
1247.023721
 30
0.0
 11
1026.612047
 21
1245.55
 31
0.0
  0
LINE
  5
52D
100
AcDbEntity
  8
LAY-1
  6
CONTINUOUS
 62
     2
100
AcDbLine
 10
1032.112047
 20
1247.023721
 30
0.0
 11
1032.112047
 21
1248.25
 31
0.0
  0
LINE
  5
52E
100
AcDbEntity
  8
LAY-1
  6
CONTINUOUS
 62
     2
100
AcDbLine
 10
1020.112047
 20
1247.023721
 30
0.0
 11
1032.112047
 21
1247.023721
 31
0.0
  0
LINE
  5
52F
100
AcDbEntity
  8
LAY-1
  6
CONTINUOUS
 62
     2
100
AcDbLine
 10
1026.112047
 20
1230.75
 30
0.0
 11
1025.612047
 21
1230.25
 31
0.0
  0
LINE
  5
530
100
AcDbEntity
  8
LAY-1
  6
CONTINUOUS
 62
     2
100
AcDbLine
 10
1014.112047
 20
1230.75
 30
0.0
 11
1014.612047
 21
1230.25
 31
0.0
  0
LINE
  5
531
100
AcDbEntity
  8
LAY-1
  6
CONTINUOUS
 62
     2
100
AcDbLine
 10
1014.612047
 20
1230.25
 30
0.0
 11
1025.612047
 21
1230.25
 31
0.0
  0
LINE
  5
532
100
AcDbEntity
  8
LAY-1
  6
CONTINUOUS
 62
     2
100
AcDbLine
 10
1026.112047
 20
1230.75
 30
0.0
 11
1026.112047
 21
1235.55
 31
0.0
  0
LINE
  5
533
100
AcDbEntity
  8
LAY-1
  6
CONTINUOUS
 62
     2
100
AcDbLine
 10
1014.112047
 20
1230.75
 30
0.0
 11
1014.112047
 21
1235.55
 31
0.0
  0
LINE
  5
534
100
AcDbEntity
  8
LAY-1
  6
CONTINUOUS
 62
     2
100
AcDbLine
 10
1025.596875
 20
1236.398506
 30
0.0
 11
1025.596875
 21
1245.55
 31
0.0
  0
LINE
  5
535
100
AcDbEntity
  8
LAY-1
  6
CONTINUOUS
 62
     2
100
AcDbLine
 10
1029.612047
 20
1288.232199
 30
0.0
 11
1010.612047
 21
1288.232199
 31
0.0
  0
ARC
  5
536
100
AcDbEntity
  8
LAY-1
  6
CONTINUOUS
 62
     2
100
AcDbCircle
 10
1011.884805
 20
1283.376135
 30
0.0
 40
4.856063
100
AcDbArc
 50
55.615753
 51
124.384247
  0
LINE
  5
537
100
AcDbEntity
  8
LAY-1
  6
CONTINUOUS
 62
     2
100
AcDbLine
 10
1014.627219
 20
1280.232199
 30
0.0
 11
1014.627219
 21
1287.383693
 31
0.0
  0
LINE
  5
538
100
AcDbEntity
  8
LAY-1
  6
CONTINUOUS
 62
     2
100
AcDbLine
 10
1010.612047
 20
1288.232199
 30
0.0
 11
1009.142392
 21
1287.383693
 31
0.0
  0
LINE
  5
539
100
AcDbEntity
  8
LAY-1
  6
CONTINUOUS
 62
     2
100
AcDbLine
 10
1009.142392
 20
1287.383693
 30
0.0
 11
1009.142392
 21
1280.232199
 31
0.0
  0
ARC
  5
53A
100
AcDbEntity
  8
LAY-1
  6
CONTINUOUS
 62
     2
100
AcDbCircle
 10
1020.112047
 20
1270.080704
 30
0.0
 40
18.151494
100
AcDbArc
 50
72.412046
 51
107.587954
  0
ARC
  5
53B
100
AcDbEntity
  8
LAY-1
  6
CONTINUOUS
 62
     2
100
AcDbCircle
 10
1028.339288
 20
1283.376135
 30
0.0
 40
4.856063
100
AcDbArc
 50
55.615753
 51
124.384247
  0
LINE
  5
53C
100
AcDbEntity
  8
LAY-1
  6
CONTINUOUS
 62
     2
100
AcDbLine
 10
1025.596874
 20
1287.383693
 30
0.0
 11
1025.596874
 21
1280.232199
 31
0.0
  0
LINE
  5
53D
100
AcDbEntity
  8
LAY-1
  6
CONTINUOUS
 62
     2
100
AcDbLine
 10
1031.081702
 20
1287.383693
 30
0.0
 11
1029.612047
 21
1288.232199
 31
0.0
  0
LINE
  5
53E
100
AcDbEntity
  8
LAY-1
  6
CONTINUOUS
 62
     2
100
AcDbLine
 10
1031.081702
 20
1280.232199
 30
0.0
 11
1031.081702
 21
1287.383693
 31
0.0
  0
LINE
  5
53F
100
AcDbEntity
  8
LAY-1
  6
CONTINUOUS
 62
     2
100
AcDbLine
 10
1140.598437
 20
1291.255246
 30
0.0
 11
1084.401563
 21
1291.255246
 31
0.0
  0
LINE
  5
540
100
AcDbEntity
  8
LAY-1
  6
CONTINUOUS
 62
     2
100
AcDbLine
 10
1140.598437
 20
1291.255246
 30
0.0
 11
1084.401563
 21
1291.255246
 31
0.0
  0
LINE
  5
541
100
AcDbEntity
  8
LAY-1
  6
CONTINUOUS
 62
     2
100
AcDbLine
 10
1181.16309
 20
1289.838698
 30
0.0
 11
1140.598437
 21
1291.255246
 31
0.0
  0
LINE
  5
542
100
AcDbEntity
  8
LAY-1
  6
CONTINUOUS
 62
     2
100
AcDbLine
 10
1043.83691
 20
1289.838698
 30
0.0
 11
1084.401563
 21
1291.255246
 31
0.0
  0
LINE
  5
543
100
AcDbEntity
  8
LAY-1
  6
CONTINUOUS
 62
     2
100
AcDbLine
 10
1628.517801
 20
850.75
 30
0.0
 11
1628.517801
 21
626.75
 31
0.0
  0
LINE
  5
544
100
AcDbEntity
  8
LAY-1
  6
CONTINUOUS
 62
     2
100
AcDbLine
 10
1630.5
 20
850.75
 30
0.0
 11
1630.5
 21
626.75
 31
0.0
  0
LINE
  5
545
100
AcDbEntity
  8
LAY-1
  6
CONTINUOUS
 62
     2
100
AcDbLine
 10
1628.517801
 20
626.75
 30
0.0
 11
1615.517801
 21
626.75
 31
0.0
  0
ARC
  5
546
100
AcDbEntity
  8
LAY-1
  6
CONTINUOUS
 62
     2
100
AcDbCircle
 10
1615.517801
 20
628.75
 30
0.0
 40
2.0
100
AcDbArc
 50
180.0
 51
270.0
  0
ARC
  5
547
100
AcDbEntity
  8
LAY-1
  6
CONTINUOUS
 62
     2
100
AcDbCircle
 10
1598.017801
 20
668.768076
 30
0.0
 40
6.0
100
AcDbArc
 50
0.0
 51
87.5304
  0
LINE
  5
548
100
AcDbEntity
  8
LAY-1
  6
CONTINUOUS
 62
     2
100
AcDbLine
 10
1630.5
 20
626.75
 30
0.0
 11
1615.539392
 21
626.75
 31
0.0
  0
ARC
  5
549
100
AcDbEntity
  8
LAY-1
  6
CONTINUOUS
 62
     2
100
AcDbCircle
 10
1598.017801
 20
808.731925
 30
0.0
 40
6.0
100
AcDbArc
 50
272.4696
 51
0.0
  0
LINE
  5
54A
100
AcDbEntity
  8
LAY-1
  6
CONTINUOUS
 62
     2
100
AcDbLine
 10
1583.647069
 20
802.106546
 30
0.0
 11
1598.276337
 21
802.737498
 31
0.0
  0
LINE
  5
54B
100
AcDbEntity
  8
LAY-1
  6
CONTINUOUS
 62
     2
100
AcDbLine
 10
1628.517801
 20
850.75
 30
0.0
 11
1615.517801
 21
850.75
 31
0.0
  0
ARC
  5
54C
100
AcDbEntity
  8
LAY-1
  6
CONTINUOUS
 62
     2
100
AcDbCircle
 10
1615.517801
 20
848.75
 30
0.0
 40
2.0
100
AcDbArc
 50
90.0
 51
180.0
  0
LINE
  5
54D
100
AcDbEntity
  8
LAY-1
  6
CONTINUOUS
 62
     2
100
AcDbLine
 10
1613.517801
 20
801.75
 30
0.0
 11
1613.517801
 21
789.25
 31
0.0
  0
LINE
  5
54E
100
AcDbEntity
  8
LAY-1
  6
CONTINUOUS
 62
     2
100
AcDbLine
 10
1601.517801
 20
725.25
 30
0.0
 11
1601.517801
 21
752.25
 31
0.0
  0
ARC
  5
54F
100
AcDbEntity
  8
LAY-1
  6
CONTINUOUS
 62
     2
100
AcDbCircle
 10
1610.517801
 20
756.25
 30
0.0
 40
3.0
100
AcDbArc
 50
270.0
 51
0.0
  0
ARC
  5
550
100
AcDbEntity
  8
LAY-1
  6
CONTINUOUS
 62
     2
100
AcDbCircle
 10
1610.517801
 20
721.25
 30
0.0
 40
3.0
100
AcDbArc
 50
0.0
 51
90.0
  0
ARC
  5
551
100
AcDbEntity
  8
LAY-1
  6
CONTINUOUS
 62
     2
100
AcDbCircle
 10
1677.778461
 20
658.753432
 30
0.0
 40
10.0
100
AcDbArc
 50
12.590082
 51
90.0
  0
LINE
  5
552
100
AcDbEntity
  8
LAY-1
  6
CONTINUOUS
 62
     2
100
AcDbLine
 10
1664.699818
 20
808.75
 30
0.0
 11
1677.779994
 21
808.75
 31
0.0
  0
LINE
  5
553
100
AcDbEntity
  8
LAY-1
  6
CONTINUOUS
 62
     2
100
AcDbLine
 10
1664.699818
 20
668.75
 30
0.0
 11
1677.779994
 21
668.75
 31
0.0
  0
ARC
  5
554
100
AcDbEntity
  8
LAY-1
  6
CONTINUOUS
 62
     2
100
AcDbCircle
 10
1664.900758
 20
658.75
 30
0.0
 40
10.0
100
AcDbArc
 50
90.0
 51
155.556665
  0
ARC
  5
555
100
AcDbEntity
  8
LAY-1
  6
CONTINUOUS
 62
     2
100
AcDbCircle
 10
1643.5
 20
848.75
 30
0.0
 40
2.0
100
AcDbArc
 50
0.0
 51
90.0
  0
ARC
  5
556
100
AcDbEntity
  8
LAY-1
  6
CONTINUOUS
 62
     2
100
AcDbCircle
 10
1664.900758
 20
818.75
 30
0.0
 40
10.0
100
AcDbArc
 50
204.443335
 51
270.0
  0
ARC
  5
557
100
AcDbEntity
  8
LAY-1
  6
CONTINUOUS
 62
     2
100
AcDbCircle
 10
1660.0
 20
609.340942
 30
0.0
 40
2.0
100
AcDbArc
 50
90.0
 51
180.0
  0
LINE
  5
558
100
AcDbEntity
  8
LAY-1
  6
CONTINUOUS
 62
     2
100
AcDbLine
 10
1658.0
 20
609.340942
 30
0.0
 11
1658.0
 21
596.25
 31
0.0
  0
LINE
  5
559
100
AcDbEntity
  8
LAY-1
  6
CONTINUOUS
 62
     2
100
AcDbLine
 10
1693.5
 20
635.037571
 30
0.0
 11
1693.5
 21
614.340942
 31
0.0
  0
ARC
  5
55A
100
AcDbEntity
  8
LAY-1
  6
CONTINUOUS
 62
     2
100
AcDbCircle
 10
1673.5
 20
635.037571
 30
0.0
 40
20.0
100
AcDbArc
 50
0.0
 51
15.967931
  0
ARC
  5
55B
100
AcDbEntity
  8
LAY-1
  6
CONTINUOUS
 62
     2
100
AcDbCircle
 10
1690.5
 20
614.340942
 30
0.0
 40
3.0
100
AcDbArc
 50
270.0
 51
0.0
  0
ARC
  5
55C
100
AcDbEntity
  8
LAY-1
  6
CONTINUOUS
 62
     2
100
AcDbCircle
 10
1662.45
 20
738.75
 30
0.0
 40
35.0
100
AcDbArc
 50
301.002719
 51
58.997281
  0
LINE
  5
55D
100
AcDbEntity
  8
LAY-1
  6
CONTINUOUS
 62
     2
100
AcDbLine
 10
1628.517801
 20
850.75
 30
0.0
 11
1643.5
 21
850.75
 31
0.0
  0
LINE
  5
55E
100
AcDbEntity
  8
LAY-1
  6
CONTINUOUS
 62
     2
100
AcDbLine
 10
1705.5
 20
688.75
 30
0.0
 11
1705.5
 21
738.75
 31
0.0
  0
LINE
  5
55F
100
AcDbEntity
  8
LAY-1
  6
CONTINUOUS
 62
     2
100
AcDbLine
 10
1705.5
 20
788.75
 30
0.0
 11
1705.5
 21
738.75
 31
0.0
  0
ARC
  5
560
100
AcDbEntity
  8
LAY-1
  6
CONTINUOUS
 62
     2
100
AcDbCircle
 10
1707.5
 20
765.75
 30
0.0
 40
2.0
100
AcDbArc
 50
180.0
 51
270.0
  0
ARC
  5
561
100
AcDbEntity
  8
LAY-1
  6
CONTINUOUS
 62
     2
100
AcDbCircle
 10
1707.5
 20
711.75
 30
0.0
 40
2.0
100
AcDbArc
 50
90.0
 51
180.0
  0
ARC
  5
562
100
AcDbEntity
  8
LAY-1
  6
CONTINUOUS
 62
     2
100
AcDbCircle
 10
1647.5
 20
727.217437
 30
0.0
 40
2.0
100
AcDbArc
 50
117.486426
 51
180.0
  0
ARC
  5
563
100
AcDbEntity
  8
LAY-1
  6
CONTINUOUS
 62
     2
100
AcDbCircle
 10
1647.5
 20
750.282563
 30
0.0
 40
2.0
100
AcDbArc
 50
180.0
 51
242.513574
  0
LINE
  5
564
100
AcDbEntity
  8
LAY-1
  6
CONTINUOUS
 62
     2
100
AcDbLine
 10
1645.5
 20
727.217437
 30
0.0
 11
1645.5
 21
723.75
 31
0.0
  0
LINE
  5
565
100
AcDbEntity
  8
LAY-1
  6
CONTINUOUS
 62
     2
100
AcDbLine
 10
1645.5
 20
753.75
 30
0.0
 11
1645.5
 21
750.282563
 31
0.0
  0
ARC
  5
566
100
AcDbEntity
  8
LAY-1
  6
CONTINUOUS
 62
     2
100
AcDbCircle
 10
1641.5
 20
738.75
 30
0.0
 40
11.0
100
AcDbArc
 50
297.486426
 51
62.513574
  0
LINE
  5
567
100
AcDbEntity
  8
LAY-1
  6
CONTINUOUS
 62
     2
100
AcDbLine
 10
1630.5
 20
626.75
 30
0.0
 11
1643.5
 21
626.75
 31
0.0
  0
ARC
  5
568
100
AcDbEntity
  8
LAY-1
  6
CONTINUOUS
 62
     2
100
AcDbCircle
 10
1643.5
 20
628.75
 30
0.0
 40
2.0
100
AcDbArc
 50
270.0
 51
0.0
  0
LINE
  5
569
100
AcDbEntity
  8
LAY-1
  6
CONTINUOUS
 62
     2
100
AcDbLine
 10
1613.517801
 20
848.75
 30
0.0
 11
1613.517801
 21
628.75
 31
0.0
  0
ARC
  5
56A
100
AcDbEntity
  8
LAY-1
  6
CONTINUOUS
 62
     2
100
AcDbCircle
 10
1613.517801
 20
663.333872
 30
0.0
 40
9.5
100
AcDbArc
 50
180.0
 51
219.183593
  0
ARC
  5
56B
100
AcDbEntity
  8
LAY-1
  6
CONTINUOUS
 62
     2
100
AcDbCircle
 10
1638.5
 20
670.75
 30
0.0
 40
19.0
100
AcDbArc
 50
315.071306
 51
335.556665
  0
LINE
  5
56C
100
AcDbEntity
  8
LAY-1
  6
CONTINUOUS
 62
     2
100
AcDbLine
 10
1611.083728
 20
823.349009
 30
0.0
 11
1611.157905
 21
823.36867
 31
0.0
  0
ARC
  5
56D
100
AcDbEntity
  8
LAY-1
  6
CONTINUOUS
 62
     2
100
AcDbCircle
 10
1613.517801
 20
814.166129
 30
0.0
 40
9.5
100
AcDbArc
 50
104.845786
 51
106.511664
  0
ARC
  5
56E
100
AcDbEntity
  8
LAY-1
  6
CONTINUOUS
 62
     2
100
AcDbCircle
 10
1613.517801
 20
814.166129
 30
0.0
 40
9.5
100
AcDbArc
 50
140.816413
 51
180.0
  0
ARC
  5
56F
100
AcDbEntity
  8
LAY-1
  6
CONTINUOUS
 62
     2
100
AcDbCircle
 10
1638.5
 20
806.75
 30
0.0
 40
19.0
100
AcDbArc
 50
24.443335
 51
44.928694
  0
LINE
  5
570
100
AcDbEntity
  8
LAY-1
  6
CONTINUOUS
 62
     2
100
AcDbLine
 10
1680.477756
 20
708.75
 30
0.0
 11
1653.499826
 21
708.75
 31
0.0
  0
LINE
  5
571
100
AcDbEntity
  8
LAY-1
  6
CONTINUOUS
 62
     2
100
AcDbLine
 10
1680.477756
 20
768.75
 30
0.0
 11
1653.499826
 21
768.75
 31
0.0
  0
LINE
  5
572
100
AcDbEntity
  8
LAY-1
  6
CONTINUOUS
 62
     2
100
AcDbLine
 10
1710.159493
 20
958.214623
 30
0.0
 11
1710.159493
 21
948.214623
 31
0.0
  0
LINE
  5
573
100
AcDbEntity
  8
LAY-1
  6
CONTINUOUS
 62
     2
100
AcDbLine
 10
1710.159493
 20
948.214623
 30
0.0
 11
1700.159493
 21
948.214623
 31
0.0
  0
LINE
  5
574
100
AcDbEntity
  8
LAY-1
  6
CONTINUOUS
 62
     2
100
AcDbLine
 10
1700.159493
 20
948.214623
 30
0.0
 11
1720.5
 21
928.25
 31
0.0
  0
LINE
  5
575
100
AcDbEntity
  8
LAY-1
  6
CONTINUOUS
 62
     2
100
AcDbLine
 10
1645.5
 20
727.217437
 30
0.0
 11
1645.5
 21
628.75
 31
0.0
  0
LINE
  5
576
100
AcDbEntity
  8
LAY-1
  6
CONTINUOUS
 62
     2
100
AcDbLine
 10
1645.5
 20
848.75
 30
0.0
 11
1645.5
 21
750.282563
 31
0.0
  0
LINE
  5
577
100
AcDbEntity
  8
LAY-1
  6
CONTINUOUS
 62
     2
100
AcDbLine
 10
1604.017801
 20
787.987999
 30
0.0
 11
1604.017801
 21
814.166129
 31
0.0
  0
LINE
  5
578
100
AcDbEntity
  8
LAY-1
  6
CONTINUOUS
 62
     2
100
AcDbLine
 10
1604.017801
 20
753.25
 30
0.0
 11
1604.017801
 21
766.048688
 31
0.0
  0
LINE
  5
579
100
AcDbEntity
  8
LAY-1
  6
CONTINUOUS
 62
     2
100
AcDbLine
 10
1604.017801
 20
689.512001
 30
0.0
 11
1604.017801
 21
663.333872
 31
0.0
  0
LINE
  5
57A
100
AcDbEntity
  8
LAY-1
  6
CONTINUOUS
 62
     2
100
AcDbLine
 10
1604.017801
 20
724.25
 30
0.0
 11
1604.017801
 21
711.451312
 31
0.0
  0
ARC
  5
57B
100
AcDbEntity
  8
LAY-1
  6
CONTINUOUS
 62
     2
100
AcDbCircle
 10
1602.517801
 20
725.25
 30
0.0
 40
1.0
100
AcDbArc
 50
180.0
 51
270.0
  0
LINE
  5
57C
100
AcDbEntity
  8
LAY-1
  6
CONTINUOUS
 62
     2
100
AcDbLine
 10
1602.517801
 20
724.25
 30
0.0
 11
1610.517801
 21
724.25
 31
0.0
  0
ARC
  5
57D
100
AcDbEntity
  8
LAY-1
  6
CONTINUOUS
 62
     2
100
AcDbCircle
 10
1602.517801
 20
752.25
 30
0.0
 40
1.0
100
AcDbArc
 50
90.0
 51
180.0
  0
LINE
  5
57E
100
AcDbEntity
  8
LAY-1
  6
CONTINUOUS
 62
     2
100
AcDbLine
 10
1602.517801
 20
753.25
 30
0.0
 11
1610.517801
 21
753.25
 31
0.0
  0
ARC
  5
57F
100
AcDbEntity
  8
LAY-1
  6
EXLTYPE4
 62
     2
100
AcDbCircle
 10
1671.140114
 20
778.753432
 30
0.0
 40
10.0
100
AcDbArc
 50
270.0
 51
353.742798
  0
ARC
  5
580
100
AcDbEntity
  8
LAY-1
  6
EXLTYPE4
 62
     2
100
AcDbCircle
 10
1671.140114
 20
698.746568
 30
0.0
 40
10.0
100
AcDbArc
 50
6.257202
 51
90.0
  0
LINE
  5
581
100
AcDbEntity
  8
LAY-1
  6
EXLTYPE4
 62
     2
100
AcDbLine
 10
1667.5
 20
768.75
 30
0.0
 11
1671.140114
 21
768.75
 31
0.0
  0
LINE
  5
582
100
AcDbEntity
  8
LAY-1
  6
EXLTYPE4
 62
     2
100
AcDbLine
 10
1657.5
 20
670.75
 30
0.0
 11
1657.5
 21
698.75
 31
0.0
  0
ARC
  5
583
100
AcDbEntity
  8
LAY-1
  6
EXLTYPE4
 62
     2
100
AcDbCircle
 10
1638.5
 20
670.75
 30
0.0
 40
19.0
100
AcDbArc
 50
335.556665
 51
0.0
  0
ARC
  5
584
100
AcDbEntity
  8
LAY-1
  6
EXLTYPE4
 62
     2
100
AcDbCircle
 10
1667.5
 20
698.75
 30
0.0
 40
10.0
100
AcDbArc
 50
90.0
 51
180.0
  0
LINE
  5
585
100
AcDbEntity
  8
LAY-1
  6
EXLTYPE4
 62
     2
100
AcDbLine
 10
1657.5
 20
806.75
 30
0.0
 11
1657.5
 21
778.75
 31
0.0
  0
ARC
  5
586
100
AcDbEntity
  8
LAY-1
  6
EXLTYPE4
 62
     2
100
AcDbCircle
 10
1667.5
 20
778.75
 30
0.0
 40
10.0
100
AcDbArc
 50
180.0
 51
270.0
  0
ARC
  5
587
100
AcDbEntity
  8
LAY-1
  6
EXLTYPE4
 62
     2
100
AcDbCircle
 10
1638.5
 20
806.75
 30
0.0
 40
19.0
100
AcDbArc
 50
0.0
 51
24.443335
  0
ARC
  5
588
100
AcDbEntity
  8
LAY-1
  6
EXLTYPE4
 62
     2
100
AcDbCircle
 10
2035.953766
 20
738.746568
 30
0.0
 40
357.0
100
AcDbArc
 50
186.257202
 51
192.590631
  0
ARC
  5
589
100
AcDbEntity
  8
LAY-1
  6
EXLTYPE4
 62
     2
100
AcDbCircle
 10
2035.953766
 20
738.753432
 30
0.0
 40
357.0
100
AcDbArc
 50
167.409369
 51
173.742798
  0
LINE
  5
58A
100
AcDbEntity
  8
LAY-1
  6
EXLTYPE3
 62
     2
100
AcDbLine
 10
1720.5
 20
668.75
 30
0.0
 11
1720.5
 21
808.75
 31
0.0
  0
LINE
  5
58B
100
AcDbEntity
  8
LAY-1
  6
CONTINUOUS
 62
     2
100
AcDbLine
 10
1612.291522
 20
688.481656
 30
0.0
 11
1613.517801
 21
688.481656
 31
0.0
  0
LINE
  5
58C
100
AcDbEntity
  8
LAY-1
  6
CONTINUOUS
 62
     2
100
AcDbLine
 10
1612.291522
 20
700.481656
 30
0.0
 11
1612.291522
 21
688.481656
 31
0.0
  0
LINE
  5
58D
100
AcDbEntity
  8
LAY-1
  6
CONTINUOUS
 62
     2
100
AcDbLine
 10
1612.291522
 20
688.481656
 30
0.0
 11
1610.817801
 21
693.981656
 31
0.0
  0
LINE
  5
58E
100
AcDbEntity
  8
LAY-1
  6
CONTINUOUS
 62
     2
100
AcDbLine
 10
1610.817801
 20
689.512001
 30
0.0
 11
1610.817801
 21
700.481656
 31
0.0
  0
LINE
  5
58F
100
AcDbEntity
  8
LAY-1
  6
CONTINUOUS
 62
     2
100
AcDbLine
 10
1601.666307
 20
689.512001
 30
0.0
 11
1610.817801
 21
689.512001
 31
0.0
  0
LINE
  5
590
100
AcDbEntity
  8
LAY-1
  6
CONTINUOUS
 62
     2
100
AcDbLine
 10
1600.817801
 20
690.981656
 30
0.0
 11
1601.666307
 21
689.512001
 31
0.0
  0
LINE
  5
591
100
AcDbEntity
  8
LAY-1
  6
CONTINUOUS
 62
     2
100
AcDbLine
 10
1601.666307
 20
694.996829
 30
0.0
 11
1610.817801
 21
694.996829
 31
0.0
  0
ARC
  5
592
100
AcDbEntity
  8
LAY-1
  6
CONTINUOUS
 62
     2
100
AcDbCircle
 10
1605.673865
 20
692.254415
 30
0.0
 40
4.856063
100
AcDbArc
 50
145.615753
 51
214.384247
  0
LINE
  5
593
100
AcDbEntity
  8
LAY-1
  6
CONTINUOUS
 62
     2
100
AcDbLine
 10
1600.817801
 20
700.481656
 30
0.0
 11
1600.817801
 21
690.981656
 31
0.0
  0
ARC
  5
594
100
AcDbEntity
  8
LAY-1
  6
CONTINUOUS
 62
     2
100
AcDbCircle
 10
1618.969296
 20
700.481656
 30
0.0
 40
18.151494
100
AcDbArc
 50
180.0
 51
197.587954
  0
ARC
  5
595
100
AcDbEntity
  8
LAY-1
  6
CONTINUOUS
 62
     2
100
AcDbCircle
 10
1618.969296
 20
700.481657
 30
0.0
 40
18.151494
100
AcDbArc
 50
162.412046
 51
180.0
  0
LINE
  5
596
100
AcDbEntity
  8
LAY-1
  6
CONTINUOUS
 62
     2
100
AcDbLine
 10
1600.817801
 20
709.981657
 30
0.0
 11
1601.666307
 21
711.451312
 31
0.0
  0
LINE
  5
597
100
AcDbEntity
  8
LAY-1
  6
CONTINUOUS
 62
     2
100
AcDbLine
 10
1600.817801
 20
700.481657
 30
0.0
 11
1600.817801
 21
709.981657
 31
0.0
  0
ARC
  5
598
100
AcDbEntity
  8
LAY-1
  6
CONTINUOUS
 62
     2
100
AcDbCircle
 10
1605.673865
 20
708.708898
 30
0.0
 40
4.856063
100
AcDbArc
 50
145.615753
 51
214.384247
  0
LINE
  5
599
100
AcDbEntity
  8
LAY-1
  6
CONTINUOUS
 62
     2
100
AcDbLine
 10
1601.666307
 20
711.451312
 30
0.0
 11
1610.817801
 21
711.451312
 31
0.0
  0
LINE
  5
59A
100
AcDbEntity
  8
LAY-1
  6
CONTINUOUS
 62
     2
100
AcDbLine
 10
1610.817801
 20
711.451312
 30
0.0
 11
1610.817801
 21
700.481657
 31
0.0
  0
LINE
  5
59B
100
AcDbEntity
  8
LAY-1
  6
CONTINUOUS
 62
     2
100
AcDbLine
 10
1612.291522
 20
712.481657
 30
0.0
 11
1610.817801
 21
706.981657
 31
0.0
  0
LINE
  5
59C
100
AcDbEntity
  8
LAY-1
  6
CONTINUOUS
 62
     2
100
AcDbLine
 10
1612.291522
 20
712.481657
 30
0.0
 11
1613.517801
 21
712.481657
 31
0.0
  0
LINE
  5
59D
100
AcDbEntity
  8
LAY-1
  6
CONTINUOUS
 62
     2
100
AcDbLine
 10
1612.291522
 20
700.481657
 30
0.0
 11
1612.291522
 21
712.481657
 31
0.0
  0
LINE
  5
59E
100
AcDbEntity
  8
LAY-1
  6
CONTINUOUS
 62
     2
100
AcDbLine
 10
1596.017801
 20
706.481657
 30
0.0
 11
1595.517801
 21
705.981657
 31
0.0
  0
LINE
  5
59F
100
AcDbEntity
  8
LAY-1
  6
CONTINUOUS
 62
     2
100
AcDbLine
 10
1596.017801
 20
694.481657
 30
0.0
 11
1595.517801
 21
694.981657
 31
0.0
  0
LINE
  5
5A0
100
AcDbEntity
  8
LAY-1
  6
CONTINUOUS
 62
     2
100
AcDbLine
 10
1595.517801
 20
694.981657
 30
0.0
 11
1595.517801
 21
705.981657
 31
0.0
  0
LINE
  5
5A1
100
AcDbEntity
  8
LAY-1
  6
CONTINUOUS
 62
     2
100
AcDbLine
 10
1596.017801
 20
706.481657
 30
0.0
 11
1600.817801
 21
706.481657
 31
0.0
  0
LINE
  5
5A2
100
AcDbEntity
  8
LAY-1
  6
CONTINUOUS
 62
     2
100
AcDbLine
 10
1596.017801
 20
694.481657
 30
0.0
 11
1600.817801
 21
694.481657
 31
0.0
  0
LINE
  5
5A3
100
AcDbEntity
  8
LAY-1
  6
CONTINUOUS
 62
     2
100
AcDbLine
 10
1601.666307
 20
705.966485
 30
0.0
 11
1610.817801
 21
705.966485
 31
0.0
  0
LINE
  5
5A4
100
AcDbEntity
  8
LAY-1
  6
CONTINUOUS
 62
     2
100
AcDbLine
 10
1653.5
 20
709.981657
 30
0.0
 11
1653.5
 21
690.981657
 31
0.0
  0
ARC
  5
5A5
100
AcDbEntity
  8
LAY-1
  6
CONTINUOUS
 62
     2
100
AcDbCircle
 10
1648.643937
 20
692.254415
 30
0.0
 40
4.856063
100
AcDbArc
 50
325.615753
 51
34.384247
  0
LINE
  5
5A6
100
AcDbEntity
  8
LAY-1
  6
CONTINUOUS
 62
     2
100
AcDbLine
 10
1645.5
 20
694.996829
 30
0.0
 11
1652.651494
 21
694.996829
 31
0.0
  0
LINE
  5
5A7
100
AcDbEntity
  8
LAY-1
  6
CONTINUOUS
 62
     2
100
AcDbLine
 10
1653.5
 20
690.981657
 30
0.0
 11
1652.651494
 21
689.512002
 31
0.0
  0
LINE
  5
5A8
100
AcDbEntity
  8
LAY-1
  6
CONTINUOUS
 62
     2
100
AcDbLine
 10
1652.651494
 20
689.512002
 30
0.0
 11
1645.5
 21
689.512002
 31
0.0
  0
ARC
  5
5A9
100
AcDbEntity
  8
LAY-1
  6
CONTINUOUS
 62
     2
100
AcDbCircle
 10
1635.348506
 20
700.481657
 30
0.0
 40
18.151494
100
AcDbArc
 50
342.412046
 51
17.587954
  0
ARC
  5
5AA
100
AcDbEntity
  8
LAY-1
  6
CONTINUOUS
 62
     2
100
AcDbCircle
 10
1648.643937
 20
708.708898
 30
0.0
 40
4.856063
100
AcDbArc
 50
325.615753
 51
34.384247
  0
LINE
  5
5AB
100
AcDbEntity
  8
LAY-1
  6
CONTINUOUS
 62
     2
100
AcDbLine
 10
1652.651494
 20
705.966484
 30
0.0
 11
1645.5
 21
705.966484
 31
0.0
  0
LINE
  5
5AC
100
AcDbEntity
  8
LAY-1
  6
CONTINUOUS
 62
     2
100
AcDbLine
 10
1652.651494
 20
711.451312
 30
0.0
 11
1653.5
 21
709.981657
 31
0.0
  0
LINE
  5
5AD
100
AcDbEntity
  8
LAY-1
  6
CONTINUOUS
 62
     2
100
AcDbLine
 10
1645.5
 20
711.451312
 30
0.0
 11
1652.651494
 21
711.451312
 31
0.0
  0
LINE
  5
5AE
100
AcDbEntity
  8
LAY-1
  6
CONTINUOUS
 62
     2
100
AcDbLine
 10
1612.291522
 20
765.018343
 30
0.0
 11
1613.517801
 21
765.018343
 31
0.0
  0
LINE
  5
5AF
100
AcDbEntity
  8
LAY-1
  6
CONTINUOUS
 62
     2
100
AcDbLine
 10
1612.291522
 20
777.018343
 30
0.0
 11
1612.291522
 21
765.018343
 31
0.0
  0
LINE
  5
5B0
100
AcDbEntity
  8
LAY-1
  6
CONTINUOUS
 62
     2
100
AcDbLine
 10
1612.291522
 20
765.018343
 30
0.0
 11
1610.817801
 21
770.518343
 31
0.0
  0
LINE
  5
5B1
100
AcDbEntity
  8
LAY-1
  6
CONTINUOUS
 62
     2
100
AcDbLine
 10
1610.817801
 20
766.048688
 30
0.0
 11
1610.817801
 21
777.018343
 31
0.0
  0
LINE
  5
5B2
100
AcDbEntity
  8
LAY-1
  6
CONTINUOUS
 62
     2
100
AcDbLine
 10
1601.666307
 20
766.048688
 30
0.0
 11
1610.817801
 21
766.048688
 31
0.0
  0
LINE
  5
5B3
100
AcDbEntity
  8
LAY-1
  6
CONTINUOUS
 62
     2
100
AcDbLine
 10
1600.817801
 20
767.518343
 30
0.0
 11
1601.666307
 21
766.048688
 31
0.0
  0
LINE
  5
5B4
100
AcDbEntity
  8
LAY-1
  6
CONTINUOUS
 62
     2
100
AcDbLine
 10
1601.666307
 20
771.533515
 30
0.0
 11
1610.817801
 21
771.533515
 31
0.0
  0
ARC
  5
5B5
100
AcDbEntity
  8
LAY-1
  6
CONTINUOUS
 62
     2
100
AcDbCircle
 10
1605.673865
 20
768.791102
 30
0.0
 40
4.856063
100
AcDbArc
 50
145.615753
 51
214.384247
  0
LINE
  5
5B6
100
AcDbEntity
  8
LAY-1
  6
CONTINUOUS
 62
     2
100
AcDbLine
 10
1600.817801
 20
777.018343
 30
0.0
 11
1600.817801
 21
767.518343
 31
0.0
  0
ARC
  5
5B7
100
AcDbEntity
  8
LAY-1
  6
CONTINUOUS
 62
     2
100
AcDbCircle
 10
1618.969296
 20
777.018343
 30
0.0
 40
18.151494
100
AcDbArc
 50
180.0
 51
197.587954
  0
ARC
  5
5B8
100
AcDbEntity
  8
LAY-1
  6
CONTINUOUS
 62
     2
100
AcDbCircle
 10
1618.969296
 20
777.018344
 30
0.0
 40
18.151494
100
AcDbArc
 50
162.412046
 51
180.0
  0
LINE
  5
5B9
100
AcDbEntity
  8
LAY-1
  6
CONTINUOUS
 62
     2
100
AcDbLine
 10
1600.817801
 20
786.518344
 30
0.0
 11
1601.666307
 21
787.987999
 31
0.0
  0
LINE
  5
5BA
100
AcDbEntity
  8
LAY-1
  6
CONTINUOUS
 62
     2
100
AcDbLine
 10
1600.817801
 20
777.018344
 30
0.0
 11
1600.817801
 21
786.518344
 31
0.0
  0
ARC
  5
5BB
100
AcDbEntity
  8
LAY-1
  6
CONTINUOUS
 62
     2
100
AcDbCircle
 10
1605.673865
 20
785.245585
 30
0.0
 40
4.856063
100
AcDbArc
 50
145.615753
 51
214.384247
  0
LINE
  5
5BC
100
AcDbEntity
  8
LAY-1
  6
CONTINUOUS
 62
     2
100
AcDbLine
 10
1601.666307
 20
787.987999
 30
0.0
 11
1610.817801
 21
787.987999
 31
0.0
  0
LINE
  5
5BD
100
AcDbEntity
  8
LAY-1
  6
CONTINUOUS
 62
     2
100
AcDbLine
 10
1610.817801
 20
787.987999
 30
0.0
 11
1610.817801
 21
777.018344
 31
0.0
  0
LINE
  5
5BE
100
AcDbEntity
  8
LAY-1
  6
CONTINUOUS
 62
     2
100
AcDbLine
 10
1612.291522
 20
789.018344
 30
0.0
 11
1610.817801
 21
783.518344
 31
0.0
  0
LINE
  5
5BF
100
AcDbEntity
  8
LAY-1
  6
CONTINUOUS
 62
     2
100
AcDbLine
 10
1612.291522
 20
789.018344
 30
0.0
 11
1613.517801
 21
789.018344
 31
0.0
  0
LINE
  5
5C0
100
AcDbEntity
  8
LAY-1
  6
CONTINUOUS
 62
     2
100
AcDbLine
 10
1612.291522
 20
777.018344
 30
0.0
 11
1612.291522
 21
789.018344
 31
0.0
  0
LINE
  5
5C1
100
AcDbEntity
  8
LAY-1
  6
CONTINUOUS
 62
     2
100
AcDbLine
 10
1596.017801
 20
783.018343
 30
0.0
 11
1595.517801
 21
782.518343
 31
0.0
  0
LINE
  5
5C2
100
AcDbEntity
  8
LAY-1
  6
CONTINUOUS
 62
     2
100
AcDbLine
 10
1596.017801
 20
771.018343
 30
0.0
 11
1595.517801
 21
771.518343
 31
0.0
  0
LINE
  5
5C3
100
AcDbEntity
  8
LAY-1
  6
CONTINUOUS
 62
     2
100
AcDbLine
 10
1595.517801
 20
771.518343
 30
0.0
 11
1595.517801
 21
782.518343
 31
0.0
  0
LINE
  5
5C4
100
AcDbEntity
  8
LAY-1
  6
CONTINUOUS
 62
     2
100
AcDbLine
 10
1596.017801
 20
783.018343
 30
0.0
 11
1600.817801
 21
783.018343
 31
0.0
  0
LINE
  5
5C5
100
AcDbEntity
  8
LAY-1
  6
CONTINUOUS
 62
     2
100
AcDbLine
 10
1596.017801
 20
771.018343
 30
0.0
 11
1600.817801
 21
771.018343
 31
0.0
  0
LINE
  5
5C6
100
AcDbEntity
  8
LAY-1
  6
CONTINUOUS
 62
     2
100
AcDbLine
 10
1601.666307
 20
782.503171
 30
0.0
 11
1610.817801
 21
782.503171
 31
0.0
  0
LINE
  5
5C7
100
AcDbEntity
  8
LAY-1
  6
CONTINUOUS
 62
     2
100
AcDbLine
 10
1653.5
 20
786.518343
 30
0.0
 11
1653.5
 21
767.518343
 31
0.0
  0
ARC
  5
5C8
100
AcDbEntity
  8
LAY-1
  6
CONTINUOUS
 62
     2
100
AcDbCircle
 10
1648.643937
 20
768.791102
 30
0.0
 40
4.856063
100
AcDbArc
 50
325.615753
 51
34.384247
  0
LINE
  5
5C9
100
AcDbEntity
  8
LAY-1
  6
CONTINUOUS
 62
     2
100
AcDbLine
 10
1645.5
 20
771.533516
 30
0.0
 11
1652.651494
 21
771.533516
 31
0.0
  0
LINE
  5
5CA
100
AcDbEntity
  8
LAY-1
  6
CONTINUOUS
 62
     2
100
AcDbLine
 10
1653.5
 20
767.518343
 30
0.0
 11
1652.651494
 21
766.048688
 31
0.0
  0
LINE
  5
5CB
100
AcDbEntity
  8
LAY-1
  6
CONTINUOUS
 62
     2
100
AcDbLine
 10
1652.651494
 20
766.048688
 30
0.0
 11
1645.5
 21
766.048688
 31
0.0
  0
ARC
  5
5CC
100
AcDbEntity
  8
LAY-1
  6
CONTINUOUS
 62
     2
100
AcDbCircle
 10
1635.348506
 20
777.018343
 30
0.0
 40
18.151494
100
AcDbArc
 50
342.412046
 51
17.587954
  0
ARC
  5
5CD
100
AcDbEntity
  8
LAY-1
  6
CONTINUOUS
 62
     2
100
AcDbCircle
 10
1648.643937
 20
785.245585
 30
0.0
 40
4.856063
100
AcDbArc
 50
325.615753
 51
34.384247
  0
LINE
  5
5CE
100
AcDbEntity
  8
LAY-1
  6
CONTINUOUS
 62
     2
100
AcDbLine
 10
1652.651494
 20
782.503171
 30
0.0
 11
1645.5
 21
782.503171
 31
0.0
  0
LINE
  5
5CF
100
AcDbEntity
  8
LAY-1
  6
CONTINUOUS
 62
     2
100
AcDbLine
 10
1652.651494
 20
787.987998
 30
0.0
 11
1653.5
 21
786.518343
 31
0.0
  0
LINE
  5
5D0
100
AcDbEntity
  8
LAY-1
  6
CONTINUOUS
 62
     2
100
AcDbLine
 10
1645.5
 20
787.987998
 30
0.0
 11
1652.651494
 21
787.987998
 31
0.0
  0
LINE
  5
5D1
100
AcDbEntity
  8
LAY-1
  6
CONTINUOUS
 62
     2
100
AcDbLine
 10
1612.291522
 20
819.137953
 30
0.0
 11
1613.517801
 21
819.137953
 31
0.0
  0
LINE
  5
5D2
100
AcDbEntity
  8
LAY-1
  6
CONTINUOUS
 62
     2
100
AcDbLine
 10
1612.291522
 20
831.137953
 30
0.0
 11
1612.291522
 21
819.137953
 31
0.0
  0
LINE
  5
5D3
100
AcDbEntity
  8
LAY-1
  6
CONTINUOUS
 62
     2
100
AcDbLine
 10
1612.291522
 20
819.137953
 30
0.0
 11
1610.817801
 21
824.637953
 31
0.0
  0
LINE
  5
5D4
100
AcDbEntity
  8
LAY-1
  6
CONTINUOUS
 62
     2
100
AcDbLine
 10
1610.817801
 20
820.168298
 30
0.0
 11
1610.817801
 21
831.137953
 31
0.0
  0
LINE
  5
5D5
100
AcDbEntity
  8
LAY-1
  6
CONTINUOUS
 62
     2
100
AcDbLine
 10
1601.666307
 20
820.168298
 30
0.0
 11
1610.817801
 21
820.168298
 31
0.0
  0
LINE
  5
5D6
100
AcDbEntity
  8
LAY-1
  6
CONTINUOUS
 62
     2
100
AcDbLine
 10
1600.817801
 20
821.637953
 30
0.0
 11
1601.666307
 21
820.168298
 31
0.0
  0
LINE
  5
5D7
100
AcDbEntity
  8
LAY-1
  6
CONTINUOUS
 62
     2
100
AcDbLine
 10
1601.666307
 20
825.653125
 30
0.0
 11
1610.817801
 21
825.653125
 31
0.0
  0
ARC
  5
5D8
100
AcDbEntity
  8
LAY-1
  6
CONTINUOUS
 62
     2
100
AcDbCircle
 10
1605.673865
 20
822.910712
 30
0.0
 40
4.856063
100
AcDbArc
 50
145.615753
 51
214.384247
  0
LINE
  5
5D9
100
AcDbEntity
  8
LAY-1
  6
CONTINUOUS
 62
     2
100
AcDbLine
 10
1600.817801
 20
831.137953
 30
0.0
 11
1600.817801
 21
821.637953
 31
0.0
  0
ARC
  5
5DA
100
AcDbEntity
  8
LAY-1
  6
CONTINUOUS
 62
     2
100
AcDbCircle
 10
1618.969296
 20
831.137953
 30
0.0
 40
18.151494
100
AcDbArc
 50
180.0
 51
197.587954
  0
ARC
  5
5DB
100
AcDbEntity
  8
LAY-1
  6
CONTINUOUS
 62
     2
100
AcDbCircle
 10
1618.969296
 20
831.137954
 30
0.0
 40
18.151494
100
AcDbArc
 50
162.412046
 51
180.0
  0
LINE
  5
5DC
100
AcDbEntity
  8
LAY-1
  6
CONTINUOUS
 62
     2
100
AcDbLine
 10
1600.817801
 20
840.637954
 30
0.0
 11
1601.666307
 21
842.107609
 31
0.0
  0
LINE
  5
5DD
100
AcDbEntity
  8
LAY-1
  6
CONTINUOUS
 62
     2
100
AcDbLine
 10
1600.817801
 20
831.137954
 30
0.0
 11
1600.817801
 21
840.637954
 31
0.0
  0
ARC
  5
5DE
100
AcDbEntity
  8
LAY-1
  6
CONTINUOUS
 62
     2
100
AcDbCircle
 10
1605.673865
 20
839.365195
 30
0.0
 40
4.856063
100
AcDbArc
 50
145.615753
 51
214.384247
  0
LINE
  5
5DF
100
AcDbEntity
  8
LAY-1
  6
CONTINUOUS
 62
     2
100
AcDbLine
 10
1601.666307
 20
842.107609
 30
0.0
 11
1610.817801
 21
842.107609
 31
0.0
  0
LINE
  5
5E0
100
AcDbEntity
  8
LAY-1
  6
CONTINUOUS
 62
     2
100
AcDbLine
 10
1610.817801
 20
842.107609
 30
0.0
 11
1610.817801
 21
831.137954
 31
0.0
  0
LINE
  5
5E1
100
AcDbEntity
  8
LAY-1
  6
CONTINUOUS
 62
     2
100
AcDbLine
 10
1612.291522
 20
843.137954
 30
0.0
 11
1610.817801
 21
837.637954
 31
0.0
  0
LINE
  5
5E2
100
AcDbEntity
  8
LAY-1
  6
CONTINUOUS
 62
     2
100
AcDbLine
 10
1612.291522
 20
843.137954
 30
0.0
 11
1613.517801
 21
843.137954
 31
0.0
  0
LINE
  5
5E3
100
AcDbEntity
  8
LAY-1
  6
CONTINUOUS
 62
     2
100
AcDbLine
 10
1612.291522
 20
831.137954
 30
0.0
 11
1612.291522
 21
843.137954
 31
0.0
  0
LINE
  5
5E4
100
AcDbEntity
  8
LAY-1
  6
CONTINUOUS
 62
     2
100
AcDbLine
 10
1596.017801
 20
837.137953
 30
0.0
 11
1595.517801
 21
836.637953
 31
0.0
  0
LINE
  5
5E5
100
AcDbEntity
  8
LAY-1
  6
CONTINUOUS
 62
     2
100
AcDbLine
 10
1596.017801
 20
825.137953
 30
0.0
 11
1595.517801
 21
825.637953
 31
0.0
  0
LINE
  5
5E6
100
AcDbEntity
  8
LAY-1
  6
CONTINUOUS
 62
     2
100
AcDbLine
 10
1595.517801
 20
825.637953
 30
0.0
 11
1595.517801
 21
836.637953
 31
0.0
  0
LINE
  5
5E7
100
AcDbEntity
  8
LAY-1
  6
CONTINUOUS
 62
     2
100
AcDbLine
 10
1596.017801
 20
837.137953
 30
0.0
 11
1600.817801
 21
837.137953
 31
0.0
  0
LINE
  5
5E8
100
AcDbEntity
  8
LAY-1
  6
CONTINUOUS
 62
     2
100
AcDbLine
 10
1596.017801
 20
825.137953
 30
0.0
 11
1600.817801
 21
825.137953
 31
0.0
  0
LINE
  5
5E9
100
AcDbEntity
  8
LAY-1
  6
CONTINUOUS
 62
     2
100
AcDbLine
 10
1601.666307
 20
836.622781
 30
0.0
 11
1610.817801
 21
836.622781
 31
0.0
  0
LINE
  5
5EA
100
AcDbEntity
  8
LAY-1
  6
CONTINUOUS
 62
     2
100
AcDbLine
 10
1653.5
 20
840.637953
 30
0.0
 11
1653.5
 21
821.637953
 31
0.0
  0
ARC
  5
5EB
100
AcDbEntity
  8
LAY-1
  6
CONTINUOUS
 62
     2
100
AcDbCircle
 10
1648.643937
 20
822.910712
 30
0.0
 40
4.856063
100
AcDbArc
 50
325.615753
 51
34.384247
  0
LINE
  5
5EC
100
AcDbEntity
  8
LAY-1
  6
CONTINUOUS
 62
     2
100
AcDbLine
 10
1645.5
 20
825.653126
 30
0.0
 11
1652.651494
 21
825.653126
 31
0.0
  0
LINE
  5
5ED
100
AcDbEntity
  8
LAY-1
  6
CONTINUOUS
 62
     2
100
AcDbLine
 10
1653.5
 20
821.637953
 30
0.0
 11
1652.651494
 21
820.168298
 31
0.0
  0
LINE
  5
5EE
100
AcDbEntity
  8
LAY-1
  6
CONTINUOUS
 62
     2
100
AcDbLine
 10
1652.651494
 20
820.168298
 30
0.0
 11
1645.5
 21
820.168298
 31
0.0
  0
ARC
  5
5EF
100
AcDbEntity
  8
LAY-1
  6
CONTINUOUS
 62
     2
100
AcDbCircle
 10
1635.348506
 20
831.137953
 30
0.0
 40
18.151494
100
AcDbArc
 50
342.412046
 51
17.587954
  0
ARC
  5
5F0
100
AcDbEntity
  8
LAY-1
  6
CONTINUOUS
 62
     2
100
AcDbCircle
 10
1648.643937
 20
839.365195
 30
0.0
 40
4.856063
100
AcDbArc
 50
325.615753
 51
34.384247
  0
LINE
  5
5F1
100
AcDbEntity
  8
LAY-1
  6
CONTINUOUS
 62
     2
100
AcDbLine
 10
1652.651494
 20
836.622781
 30
0.0
 11
1645.5
 21
836.622781
 31
0.0
  0
LINE
  5
5F2
100
AcDbEntity
  8
LAY-1
  6
CONTINUOUS
 62
     2
100
AcDbLine
 10
1652.651494
 20
842.107608
 30
0.0
 11
1653.5
 21
840.637953
 31
0.0
  0
LINE
  5
5F3
100
AcDbEntity
  8
LAY-1
  6
CONTINUOUS
 62
     2
100
AcDbLine
 10
1645.5
 20
842.107608
 30
0.0
 11
1652.651494
 21
842.107608
 31
0.0
  0
LINE
  5
5F4
100
AcDbEntity
  8
LAY-1
  6
CONTINUOUS
 62
     2
100
AcDbLine
 10
1613.517801
 20
634.362046
 30
0.0
 11
1613.517801
 21
658.362047
 31
0.0
  0
LINE
  5
5F5
100
AcDbEntity
  8
LAY-1
  6
CONTINUOUS
 62
     2
100
AcDbLine
 10
1612.291522
 20
634.362046
 30
0.0
 11
1613.517801
 21
634.362046
 31
0.0
  0
LINE
  5
5F6
100
AcDbEntity
  8
LAY-1
  6
CONTINUOUS
 62
     2
100
AcDbLine
 10
1612.291522
 20
646.362046
 30
0.0
 11
1612.291522
 21
634.362046
 31
0.0
  0
LINE
  5
5F7
100
AcDbEntity
  8
LAY-1
  6
CONTINUOUS
 62
     2
100
AcDbLine
 10
1612.291522
 20
634.362046
 30
0.0
 11
1610.817801
 21
639.862046
 31
0.0
  0
LINE
  5
5F8
100
AcDbEntity
  8
LAY-1
  6
CONTINUOUS
 62
     2
100
AcDbLine
 10
1610.817801
 20
635.392391
 30
0.0
 11
1610.817801
 21
646.362046
 31
0.0
  0
LINE
  5
5F9
100
AcDbEntity
  8
LAY-1
  6
CONTINUOUS
 62
     2
100
AcDbLine
 10
1601.666307
 20
635.392391
 30
0.0
 11
1610.817801
 21
635.392391
 31
0.0
  0
LINE
  5
5FA
100
AcDbEntity
  8
LAY-1
  6
CONTINUOUS
 62
     2
100
AcDbLine
 10
1600.817801
 20
636.862046
 30
0.0
 11
1601.666307
 21
635.392391
 31
0.0
  0
LINE
  5
5FB
100
AcDbEntity
  8
LAY-1
  6
CONTINUOUS
 62
     2
100
AcDbLine
 10
1601.666307
 20
640.877219
 30
0.0
 11
1610.817801
 21
640.877219
 31
0.0
  0
ARC
  5
5FC
100
AcDbEntity
  8
LAY-1
  6
CONTINUOUS
 62
     2
100
AcDbCircle
 10
1605.673865
 20
638.134805
 30
0.0
 40
4.856063
100
AcDbArc
 50
145.615753
 51
214.384247
  0
LINE
  5
5FD
100
AcDbEntity
  8
LAY-1
  6
CONTINUOUS
 62
     2
100
AcDbLine
 10
1600.817801
 20
646.362046
 30
0.0
 11
1600.817801
 21
636.862046
 31
0.0
  0
ARC
  5
5FE
100
AcDbEntity
  8
LAY-1
  6
CONTINUOUS
 62
     2
100
AcDbCircle
 10
1618.969296
 20
646.362046
 30
0.0
 40
18.151494
100
AcDbArc
 50
180.0
 51
197.587954
  0
ARC
  5
5FF
100
AcDbEntity
  8
LAY-1
  6
CONTINUOUS
 62
     2
100
AcDbCircle
 10
1618.969296
 20
646.362047
 30
0.0
 40
18.151494
100
AcDbArc
 50
162.412046
 51
180.0
  0
LINE
  5
600
100
AcDbEntity
  8
LAY-1
  6
CONTINUOUS
 62
     2
100
AcDbLine
 10
1600.817801
 20
655.862047
 30
0.0
 11
1601.666307
 21
657.331702
 31
0.0
  0
LINE
  5
601
100
AcDbEntity
  8
LAY-1
  6
CONTINUOUS
 62
     2
100
AcDbLine
 10
1600.817801
 20
646.362047
 30
0.0
 11
1600.817801
 21
655.862047
 31
0.0
  0
ARC
  5
602
100
AcDbEntity
  8
LAY-1
  6
CONTINUOUS
 62
     2
100
AcDbCircle
 10
1605.673865
 20
654.589288
 30
0.0
 40
4.856063
100
AcDbArc
 50
145.615753
 51
214.384247
  0
LINE
  5
603
100
AcDbEntity
  8
LAY-1
  6
CONTINUOUS
 62
     2
100
AcDbLine
 10
1601.666307
 20
657.331702
 30
0.0
 11
1610.817801
 21
657.331702
 31
0.0
  0
LINE
  5
604
100
AcDbEntity
  8
LAY-1
  6
CONTINUOUS
 62
     2
100
AcDbLine
 10
1610.817801
 20
657.331702
 30
0.0
 11
1610.817801
 21
646.362047
 31
0.0
  0
LINE
  5
605
100
AcDbEntity
  8
LAY-1
  6
CONTINUOUS
 62
     2
100
AcDbLine
 10
1612.291522
 20
658.362047
 30
0.0
 11
1610.817801
 21
652.862047
 31
0.0
  0
LINE
  5
606
100
AcDbEntity
  8
LAY-1
  6
CONTINUOUS
 62
     2
100
AcDbLine
 10
1612.291522
 20
658.362047
 30
0.0
 11
1613.517801
 21
658.362047
 31
0.0
  0
LINE
  5
607
100
AcDbEntity
  8
LAY-1
  6
CONTINUOUS
 62
     2
100
AcDbLine
 10
1612.291522
 20
646.362047
 30
0.0
 11
1612.291522
 21
658.362047
 31
0.0
  0
LINE
  5
608
100
AcDbEntity
  8
LAY-1
  6
CONTINUOUS
 62
     2
100
AcDbLine
 10
1596.017801
 20
652.362047
 30
0.0
 11
1595.517801
 21
651.862047
 31
0.0
  0
LINE
  5
609
100
AcDbEntity
  8
LAY-1
  6
CONTINUOUS
 62
     2
100
AcDbLine
 10
1596.017801
 20
640.362047
 30
0.0
 11
1595.517801
 21
640.862047
 31
0.0
  0
LINE
  5
60A
100
AcDbEntity
  8
LAY-1
  6
CONTINUOUS
 62
     2
100
AcDbLine
 10
1595.517801
 20
640.862047
 30
0.0
 11
1595.517801
 21
651.862047
 31
0.0
  0
LINE
  5
60B
100
AcDbEntity
  8
LAY-1
  6
CONTINUOUS
 62
     2
100
AcDbLine
 10
1596.017801
 20
652.362047
 30
0.0
 11
1600.817801
 21
652.362047
 31
0.0
  0
LINE
  5
60C
100
AcDbEntity
  8
LAY-1
  6
CONTINUOUS
 62
     2
100
AcDbLine
 10
1596.017801
 20
640.362047
 30
0.0
 11
1600.817801
 21
640.362047
 31
0.0
  0
LINE
  5
60D
100
AcDbEntity
  8
LAY-1
  6
CONTINUOUS
 62
     2
100
AcDbLine
 10
1601.666307
 20
651.846875
 30
0.0
 11
1610.817801
 21
651.846875
 31
0.0
  0
LINE
  5
60E
100
AcDbEntity
  8
LAY-1
  6
CONTINUOUS
 62
     2
100
AcDbLine
 10
1653.5
 20
655.862047
 30
0.0
 11
1653.5
 21
636.862047
 31
0.0
  0
ARC
  5
60F
100
AcDbEntity
  8
LAY-1
  6
CONTINUOUS
 62
     2
100
AcDbCircle
 10
1648.643937
 20
638.134805
 30
0.0
 40
4.856063
100
AcDbArc
 50
325.615753
 51
34.384247
  0
LINE
  5
610
100
AcDbEntity
  8
LAY-1
  6
CONTINUOUS
 62
     2
100
AcDbLine
 10
1645.5
 20
640.877219
 30
0.0
 11
1652.651494
 21
640.877219
 31
0.0
  0
LINE
  5
611
100
AcDbEntity
  8
LAY-1
  6
CONTINUOUS
 62
     2
100
AcDbLine
 10
1653.5
 20
636.862047
 30
0.0
 11
1652.651494
 21
635.392392
 31
0.0
  0
LINE
  5
612
100
AcDbEntity
  8
LAY-1
  6
CONTINUOUS
 62
     2
100
AcDbLine
 10
1652.651494
 20
635.392392
 30
0.0
 11
1645.5
 21
635.392392
 31
0.0
  0
ARC
  5
613
100
AcDbEntity
  8
LAY-1
  6
CONTINUOUS
 62
     2
100
AcDbCircle
 10
1635.348506
 20
646.362047
 30
0.0
 40
18.151494
100
AcDbArc
 50
342.412046
 51
17.587954
  0
ARC
  5
614
100
AcDbEntity
  8
LAY-1
  6
CONTINUOUS
 62
     2
100
AcDbCircle
 10
1648.643937
 20
654.589288
 30
0.0
 40
4.856063
100
AcDbArc
 50
325.615753
 51
34.384247
  0
LINE
  5
615
100
AcDbEntity
  8
LAY-1
  6
CONTINUOUS
 62
     2
100
AcDbLine
 10
1652.651494
 20
651.846874
 30
0.0
 11
1645.5
 21
651.846874
 31
0.0
  0
LINE
  5
616
100
AcDbEntity
  8
LAY-1
  6
CONTINUOUS
 62
     2
100
AcDbLine
 10
1652.651494
 20
657.331702
 30
0.0
 11
1653.5
 21
655.862047
 31
0.0
  0
LINE
  5
617
100
AcDbEntity
  8
LAY-1
  6
CONTINUOUS
 62
     2
100
AcDbLine
 10
1645.5
 20
657.331702
 30
0.0
 11
1652.651494
 21
657.331702
 31
0.0
  0
ARC
  5
618
100
AcDbEntity
  8
LAY-1
  6
CONTINUOUS
 62
     2
100
AcDbCircle
 10
2035.953766
 20
738.75
 30
0.0
 40
357.0
100
AcDbArc
 50
192.590082
 51
195.967931
  0
ARC
  5
619
100
AcDbEntity
  8
LAY-1
  6
CONTINUOUS
 62
     2
100
AcDbCircle
 10
1660.0
 20
868.159058
 30
0.0
 40
2.0
100
AcDbArc
 50
180.0
 51
270.0
  0
LINE
  5
61A
100
AcDbEntity
  8
LAY-1
  6
CONTINUOUS
 62
     2
100
AcDbLine
 10
1658.0
 20
868.159058
 30
0.0
 11
1658.0
 21
881.25
 31
0.0
  0
LINE
  5
61B
100
AcDbEntity
  8
LAY-1
  6
CONTINUOUS
 62
     2
100
AcDbLine
 10
1694.785222
 20
862.453154
 30
0.0
 11
1695.673016
 21
859.139863
 31
0.0
  0
ARC
  5
61C
100
AcDbEntity
  8
LAY-1
  6
CONTINUOUS
 62
     2
100
AcDbCircle
 10
1689.955593
 20
861.159391
 30
0.0
 40
5.0
100
AcDbArc
 50
15.0
 51
90.0
  0
LINE
  5
61D
100
AcDbEntity
  8
LAY-1
  6
CONTINUOUS
 62
     2
100
AcDbLine
 10
1694.785222
 20
862.453486
 30
0.0
 11
1695.673016
 21
859.140195
 31
0.0
  0
ARC
  5
61E
100
AcDbEntity
  8
LAY-1
  6
CONTINUOUS
 62
     2
100
AcDbCircle
 10
1676.354499
 20
853.963482
 30
0.0
 40
20.0
100
AcDbArc
 50
342.524264
 51
15.0
  0
ARC
  5
61F
100
AcDbEntity
  8
LAY-1
  6
CONTINUOUS
 62
     2
100
AcDbCircle
 10
1676.354499
 20
853.963814
 30
0.0
 40
20.0
100
AcDbArc
 50
342.524264
 51
15.0
  0
ARC
  5
620
100
AcDbEntity
  8
LAY-1
  6
CONTINUOUS
 62
     2
100
AcDbCircle
 10
2035.953766
 20
740.75
 30
0.0
 40
357.0
100
AcDbArc
 50
162.524264
 51
168.173775
  0
ARC
  5
621
100
AcDbEntity
  8
LAY-1
  6
CONTINUOUS
 62
     2
100
AcDbCircle
 10
1677.779994
 20
818.753432
 30
0.0
 40
10.0
100
AcDbArc
 50
270.0
 51
331.06352
  0
LINE
  5
622
100
AcDbEntity
  8
LAY-1
  6
CONTINUOUS
 62
     2
100
AcDbLine
 10
1112.5
 20
212.267801
 30
0.0
 11
1224.5
 21
212.267801
 31
0.0
  0
LINE
  5
623
100
AcDbEntity
  8
LAY-1
  6
CONTINUOUS
 62
     2
100
AcDbLine
 10
1112.5
 20
212.267801
 30
0.0
 11
1000.5
 21
212.267801
 31
0.0
  0
LINE
  5
624
100
AcDbEntity
  8
LAY-1
  6
CONTINUOUS
 62
     2
100
AcDbLine
 10
1224.5
 20
214.255603
 30
0.0
 11
1000.5
 21
214.255603
 31
0.0
  0
LINE
  5
625
100
AcDbEntity
  8
LAY-1
  6
CONTINUOUS
 62
     2
100
AcDbLine
 10
1222.5
 20
229.255603
 30
0.0
 11
1002.5
 21
229.255603
 31
0.0
  0
LINE
  5
626
100
AcDbEntity
  8
LAY-1
  6
CONTINUOUS
 62
     2
100
AcDbLine
 10
1046.14624
 20
256.255603
 30
0.0
 11
1031.328427
 21
256.255603
 31
0.0
  0
LINE
  5
627
100
AcDbEntity
  8
LAY-1
  6
CONTINUOUS
 62
     2
100
AcDbLine
 10
1029.914214
 20
256.841389
 30
0.0
 11
1029.085786
 21
257.669816
 31
0.0
  0
LINE
  5
628
100
AcDbEntity
  8
LAY-1
  6
CONTINUOUS
 62
     2
100
AcDbLine
 10
1012.5
 20
258.255603
 30
0.0
 11
1027.671573
 21
258.255603
 31
0.0
  0
ARC
  5
629
100
AcDbEntity
  8
LAY-1
  6
CONTINUOUS
 62
     2
100
AcDbCircle
 10
1046.14624
 20
259.255603
 30
0.0
 40
3.0
100
AcDbArc
 50
270.0
 51
357.5304
  0
ARC
  5
62A
100
AcDbEntity
  8
LAY-1
  6
CONTINUOUS
 62
     2
100
AcDbCircle
 10
1179.5007
 20
244.255603
 30
0.0
 40
3.0
100
AcDbArc
 50
182.4696
 51
270.0
  0
ARC
  5
62B
100
AcDbEntity
  8
LAY-1
  6
CONTINUOUS
 62
     2
100
AcDbCircle
 10
1012.5
 20
256.255603
 30
0.0
 40
2.0
100
AcDbArc
 50
90.0
 51
180.0
  0
ARC
  5
62C
100
AcDbEntity
  8
LAY-1
  6
CONTINUOUS
 62
     2
100
AcDbCircle
 10
1031.328427
 20
258.255603
 30
0.0
 40
2.0
100
AcDbArc
 50
225.0
 51
270.0
  0
ARC
  5
62D
100
AcDbEntity
  8
LAY-1
  6
CONTINUOUS
 62
     2
100
AcDbCircle
 10
1027.671573
 20
256.255603
 30
0.0
 40
2.0
100
AcDbArc
 50
45.0
 51
90.0
  0
LINE
  5
62E
100
AcDbEntity
  8
LAY-1
  6
CONTINUOUS
 62
     2
100
AcDbLine
 10
1224.5
 20
212.267801
 30
0.0
 11
1224.5
 21
227.255603
 31
0.0
  0
ARC
  5
62F
100
AcDbEntity
  8
LAY-1
  6
CONTINUOUS
 62
     2
100
AcDbCircle
 10
1222.5
 20
227.255603
 30
0.0
 40
2.0
100
AcDbArc
 50
0.0
 51
90.0
  0
LINE
  5
630
100
AcDbEntity
  8
LAY-1
  6
CONTINUOUS
 62
     2
100
AcDbLine
 10
1000.5
 20
212.267801
 30
0.0
 11
1000.5
 21
227.255603
 31
0.0
  0
ARC
  5
631
100
AcDbEntity
  8
LAY-1
  6
CONTINUOUS
 62
     2
100
AcDbCircle
 10
1002.5
 20
227.255603
 30
0.0
 40
2.0
100
AcDbArc
 50
90.0
 51
180.0
  0
ARC
  5
632
100
AcDbEntity
  8
LAY-1
  6
CONTINUOUS
 62
     2
100
AcDbCircle
 10
1002.5
 20
192.267801
 30
0.0
 40
2.0
100
AcDbArc
 50
180.0
 51
270.0
  0
ARC
  5
633
100
AcDbEntity
  8
LAY-1
  6
CONTINUOUS
 62
     2
100
AcDbCircle
 10
1222.5
 20
192.267801
 30
0.0
 40
2.0
100
AcDbArc
 50
270.0
 51
0.0
  0
LINE
  5
634
100
AcDbEntity
  8
LAY-1
  6
CONTINUOUS
 62
     2
100
AcDbLine
 10
1000.5
 20
214.255603
 30
0.0
 11
1000.5
 21
192.267801
 31
0.0
  0
LINE
  5
635
100
AcDbEntity
  8
LAY-1
  6
CONTINUOUS
 62
     2
100
AcDbLine
 10
1224.5
 20
214.255603
 30
0.0
 11
1224.5
 21
192.267801
 31
0.0
  0
ARC
  5
636
100
AcDbEntity
  8
LAY-1
  6
CONTINUOUS
 62
     2
100
AcDbCircle
 10
1045.4993
 20
244.255603
 30
0.0
 40
3.0
100
AcDbArc
 50
270.0
 51
357.5304
  0
LINE
  5
637
100
AcDbEntity
  8
LAY-1
  6
CONTINUOUS
 62
     2
100
AcDbLine
 10
1224.5
 20
197.267801
 30
0.0
 11
1000.5
 21
197.267801
 31
0.0
  0
ARC
  5
638
100
AcDbEntity
  8
LAY-1
  6
CONTINUOUS
 62
     2
100
AcDbCircle
 10
1180.5
 20
206.649728
 30
0.0
 40
19.0
100
AcDbArc
 50
272.0
 51
314.928694
  0
ARC
  5
639
100
AcDbEntity
  8
LAY-1
  6
CONTINUOUS
 62
     2
100
AcDbCircle
 10
1044.5
 20
206.649728
 30
0.0
 40
19.0
100
AcDbArc
 50
225.071306
 51
268.0
  0
LINE
  5
63A
100
AcDbEntity
  8
LAY-1
  6
CONTINUOUS
 62
     2
100
AcDbLine
 10
1193.918298
 20
190.267801
 30
0.0
 11
1190.124576
 21
190.267801
 31
0.0
  0
LINE
  5
63B
100
AcDbEntity
  8
LAY-1
  6
CONTINUOUS
 62
     2
100
AcDbLine
 10
1222.5
 20
190.267801
 30
0.0
 11
1215.857608
 21
190.267801
 31
0.0
  0
LINE
  5
63C
100
AcDbEntity
  8
LAY-1
  6
CONTINUOUS
 62
     2
100
AcDbLine
 10
1034.875424
 20
190.267801
 30
0.0
 11
1031.081702
 21
190.267801
 31
0.0
  0
LINE
  5
63D
100
AcDbEntity
  8
LAY-1
  6
CONTINUOUS
 62
     2
100
AcDbLine
 10
1009.142392
 20
190.267801
 30
0.0
 11
1002.5
 21
190.267801
 31
0.0
  0
LINE
  5
63E
100
AcDbEntity
  8
LAY-1
  6
CONTINUOUS
 62
     2
100
AcDbLine
 10
1010.5
 20
241.95
 30
0.0
 11
1010.5
 21
256.255603
 31
0.0
  0
LINE
  5
63F
100
AcDbEntity
  8
LAY-1
  6
CONTINUOUS
 62
     2
100
AcDbLine
 10
1028.3
 20
258.255603
 30
0.0
 11
1028.3
 21
241.95
 31
0.0
  0
LINE
  5
640
100
AcDbEntity
  8
LAY-1
  6
CONTINUOUS
 62
     2
100
AcDbLine
 10
1030.6
 20
256.392972
 30
0.0
 11
1030.6
 21
241.391673
 31
0.0
  0
LINE
  5
641
100
AcDbEntity
  8
LAY-1
  6
CONTINUOUS
 62
     2
100
AcDbLine
 10
1194.158335
 20
241.255603
 30
0.0
 11
1161.497961
 21
241.255603
 31
0.0
  0
LINE
  5
642
100
AcDbEntity
  8
LAY-1
  6
CONTINUOUS
 62
     2
100
AcDbLine
 10
1084.934389
 20
241.255603
 30
0.0
 11
1140.038725
 21
241.255603
 31
0.0
  0
LINE
  5
643
100
AcDbEntity
  8
LAY-1
  6
CONTINUOUS
 62
     2
100
AcDbLine
 10
1030.841665
 20
241.255603
 30
0.0
 11
1063.502039
 21
241.255603
 31
0.0
  0
LINE
  5
644
100
AcDbEntity
  8
LAY-1
  6
CONTINUOUS
 62
     2
100
AcDbLine
 10
1162.768344
 20
230.476279
 30
0.0
 11
1162.768344
 21
229.25
 31
0.0
  0
LINE
  5
645
100
AcDbEntity
  8
LAY-1
  6
CONTINUOUS
 62
     2
100
AcDbLine
 10
1150.768344
 20
230.476279
 30
0.0
 11
1162.768344
 21
230.476279
 31
0.0
  0
LINE
  5
646
100
AcDbEntity
  8
LAY-1
  6
CONTINUOUS
 62
     2
100
AcDbLine
 10
1162.768344
 20
230.476279
 30
0.0
 11
1157.268344
 21
231.95
 31
0.0
  0
LINE
  5
647
100
AcDbEntity
  8
LAY-1
  6
CONTINUOUS
 62
     2
100
AcDbLine
 10
1161.737999
 20
231.95
 30
0.0
 11
1150.768344
 21
231.95
 31
0.0
  0
LINE
  5
648
100
AcDbEntity
  8
LAY-1
  6
CONTINUOUS
 62
     2
100
AcDbLine
 10
1161.737999
 20
241.101494
 30
0.0
 11
1161.737999
 21
231.95
 31
0.0
  0
LINE
  5
649
100
AcDbEntity
  8
LAY-1
  6
CONTINUOUS
 62
     2
100
AcDbLine
 10
1160.268344
 20
241.95
 30
0.0
 11
1161.737999
 21
241.101494
 31
0.0
  0
LINE
  5
64A
100
AcDbEntity
  8
LAY-1
  6
CONTINUOUS
 62
     2
100
AcDbLine
 10
1156.253171
 20
241.101494
 30
0.0
 11
1156.253171
 21
231.95
 31
0.0
  0
ARC
  5
64B
100
AcDbEntity
  8
LAY-1
  6
CONTINUOUS
 62
     2
100
AcDbCircle
 10
1158.995585
 20
237.093937
 30
0.0
 40
4.856063
100
AcDbArc
 50
55.615753
 51
124.384247
  0
LINE
  5
64C
100
AcDbEntity
  8
LAY-1
  6
CONTINUOUS
 62
     2
100
AcDbLine
 10
1150.768344
 20
241.95
 30
0.0
 11
1160.268344
 21
241.95
 31
0.0
  0
ARC
  5
64D
100
AcDbEntity
  8
LAY-1
  6
CONTINUOUS
 62
     2
100
AcDbCircle
 10
1150.768344
 20
223.798506
 30
0.0
 40
18.151494
100
AcDbArc
 50
72.412046
 51
90.0
  0
ARC
  5
64E
100
AcDbEntity
  8
LAY-1
  6
CONTINUOUS
 62
     2
100
AcDbCircle
 10
1150.768343
 20
223.798506
 30
0.0
 40
18.151494
100
AcDbArc
 50
90.0
 51
107.587954
  0
LINE
  5
64F
100
AcDbEntity
  8
LAY-1
  6
CONTINUOUS
 62
     2
100
AcDbLine
 10
1141.268343
 20
241.95
 30
0.0
 11
1139.798688
 21
241.101494
 31
0.0
  0
LINE
  5
650
100
AcDbEntity
  8
LAY-1
  6
CONTINUOUS
 62
     2
100
AcDbLine
 10
1150.768343
 20
241.95
 30
0.0
 11
1141.268343
 21
241.95
 31
0.0
  0
ARC
  5
651
100
AcDbEntity
  8
LAY-1
  6
CONTINUOUS
 62
     2
100
AcDbCircle
 10
1142.541102
 20
237.093937
 30
0.0
 40
4.856063
100
AcDbArc
 50
55.615753
 51
124.384247
  0
LINE
  5
652
100
AcDbEntity
  8
LAY-1
  6
CONTINUOUS
 62
     2
100
AcDbLine
 10
1139.798688
 20
241.101494
 30
0.0
 11
1139.798688
 21
231.95
 31
0.0
  0
LINE
  5
653
100
AcDbEntity
  8
LAY-1
  6
CONTINUOUS
 62
     2
100
AcDbLine
 10
1139.798688
 20
231.95
 30
0.0
 11
1150.768343
 21
231.95
 31
0.0
  0
LINE
  5
654
100
AcDbEntity
  8
LAY-1
  6
CONTINUOUS
 62
     2
100
AcDbLine
 10
1138.768343
 20
230.476279
 30
0.0
 11
1144.268343
 21
231.95
 31
0.0
  0
LINE
  5
655
100
AcDbEntity
  8
LAY-1
  6
CONTINUOUS
 62
     2
100
AcDbLine
 10
1138.768343
 20
230.476279
 30
0.0
 11
1138.768343
 21
229.25
 31
0.0
  0
LINE
  5
656
100
AcDbEntity
  8
LAY-1
  6
CONTINUOUS
 62
     2
100
AcDbLine
 10
1150.768343
 20
230.476279
 30
0.0
 11
1138.768343
 21
230.476279
 31
0.0
  0
LINE
  5
657
100
AcDbEntity
  8
LAY-1
  6
CONTINUOUS
 62
     2
100
AcDbLine
 10
1144.768343
 20
246.75
 30
0.0
 11
1145.268343
 21
247.25
 31
0.0
  0
LINE
  5
658
100
AcDbEntity
  8
LAY-1
  6
CONTINUOUS
 62
     2
100
AcDbLine
 10
1156.768343
 20
246.75
 30
0.0
 11
1156.268343
 21
247.25
 31
0.0
  0
LINE
  5
659
100
AcDbEntity
  8
LAY-1
  6
CONTINUOUS
 62
     2
100
AcDbLine
 10
1156.268343
 20
247.25
 30
0.0
 11
1145.268343
 21
247.25
 31
0.0
  0
LINE
  5
65A
100
AcDbEntity
  8
LAY-1
  6
CONTINUOUS
 62
     2
100
AcDbLine
 10
1144.768343
 20
246.75
 30
0.0
 11
1144.768343
 21
241.95
 31
0.0
  0
LINE
  5
65B
100
AcDbEntity
  8
LAY-1
  6
CONTINUOUS
 62
     2
100
AcDbLine
 10
1156.768343
 20
246.75
 30
0.0
 11
1156.768343
 21
241.95
 31
0.0
  0
LINE
  5
65C
100
AcDbEntity
  8
LAY-1
  6
CONTINUOUS
 62
     2
100
AcDbLine
 10
1145.283515
 20
241.101494
 30
0.0
 11
1145.283515
 21
231.95
 31
0.0
  0
LINE
  5
65D
100
AcDbEntity
  8
LAY-1
  6
CONTINUOUS
 62
     2
100
AcDbLine
 10
1141.268343
 20
189.267801
 30
0.0
 11
1160.268343
 21
189.267801
 31
0.0
  0
ARC
  5
65E
100
AcDbEntity
  8
LAY-1
  6
CONTINUOUS
 62
     2
100
AcDbCircle
 10
1158.995585
 20
194.123865
 30
0.0
 40
4.856063
100
AcDbArc
 50
235.615753
 51
304.384247
  0
LINE
  5
65F
100
AcDbEntity
  8
LAY-1
  6
CONTINUOUS
 62
     2
100
AcDbLine
 10
1156.253171
 20
197.267801
 30
0.0
 11
1156.253171
 21
190.116307
 31
0.0
  0
LINE
  5
660
100
AcDbEntity
  8
LAY-1
  6
CONTINUOUS
 62
     2
100
AcDbLine
 10
1160.268343
 20
189.267801
 30
0.0
 11
1161.737998
 21
190.116307
 31
0.0
  0
LINE
  5
661
100
AcDbEntity
  8
LAY-1
  6
CONTINUOUS
 62
     2
100
AcDbLine
 10
1161.737998
 20
190.116307
 30
0.0
 11
1161.737998
 21
197.267801
 31
0.0
  0
ARC
  5
662
100
AcDbEntity
  8
LAY-1
  6
CONTINUOUS
 62
     2
100
AcDbCircle
 10
1150.768343
 20
207.419296
 30
0.0
 40
18.151494
100
AcDbArc
 50
252.412046
 51
287.587954
  0
ARC
  5
663
100
AcDbEntity
  8
LAY-1
  6
CONTINUOUS
 62
     2
100
AcDbCircle
 10
1142.541102
 20
194.123865
 30
0.0
 40
4.856063
100
AcDbArc
 50
235.615753
 51
304.384247
  0
LINE
  5
664
100
AcDbEntity
  8
LAY-1
  6
CONTINUOUS
 62
     2
100
AcDbLine
 10
1145.283516
 20
190.116307
 30
0.0
 11
1145.283516
 21
197.267801
 31
0.0
  0
LINE
  5
665
100
AcDbEntity
  8
LAY-1
  6
CONTINUOUS
 62
     2
100
AcDbLine
 10
1139.798688
 20
190.116307
 30
0.0
 11
1141.268343
 21
189.267801
 31
0.0
  0
LINE
  5
666
100
AcDbEntity
  8
LAY-1
  6
CONTINUOUS
 62
     2
100
AcDbLine
 10
1139.798688
 20
197.267801
 30
0.0
 11
1139.798688
 21
190.116307
 31
0.0
  0
LINE
  5
667
100
AcDbEntity
  8
LAY-1
  6
CONTINUOUS
 62
     2
100
AcDbLine
 10
1086.231657
 20
230.476279
 30
0.0
 11
1086.231657
 21
229.25
 31
0.0
  0
LINE
  5
668
100
AcDbEntity
  8
LAY-1
  6
CONTINUOUS
 62
     2
100
AcDbLine
 10
1074.231657
 20
230.476279
 30
0.0
 11
1086.231657
 21
230.476279
 31
0.0
  0
LINE
  5
669
100
AcDbEntity
  8
LAY-1
  6
CONTINUOUS
 62
     2
100
AcDbLine
 10
1086.231657
 20
230.476279
 30
0.0
 11
1080.731657
 21
231.95
 31
0.0
  0
LINE
  5
66A
100
AcDbEntity
  8
LAY-1
  6
CONTINUOUS
 62
     2
100
AcDbLine
 10
1085.201312
 20
231.95
 30
0.0
 11
1074.231657
 21
231.95
 31
0.0
  0
LINE
  5
66B
100
AcDbEntity
  8
LAY-1
  6
CONTINUOUS
 62
     2
100
AcDbLine
 10
1085.201312
 20
241.101494
 30
0.0
 11
1085.201312
 21
231.95
 31
0.0
  0
LINE
  5
66C
100
AcDbEntity
  8
LAY-1
  6
CONTINUOUS
 62
     2
100
AcDbLine
 10
1083.731657
 20
241.95
 30
0.0
 11
1085.201312
 21
241.101494
 31
0.0
  0
LINE
  5
66D
100
AcDbEntity
  8
LAY-1
  6
CONTINUOUS
 62
     2
100
AcDbLine
 10
1079.716485
 20
241.101494
 30
0.0
 11
1079.716485
 21
231.95
 31
0.0
  0
ARC
  5
66E
100
AcDbEntity
  8
LAY-1
  6
CONTINUOUS
 62
     2
100
AcDbCircle
 10
1082.458898
 20
237.093937
 30
0.0
 40
4.856063
100
AcDbArc
 50
55.615753
 51
124.384247
  0
LINE
  5
66F
100
AcDbEntity
  8
LAY-1
  6
CONTINUOUS
 62
     2
100
AcDbLine
 10
1074.231657
 20
241.95
 30
0.0
 11
1083.731657
 21
241.95
 31
0.0
  0
ARC
  5
670
100
AcDbEntity
  8
LAY-1
  6
CONTINUOUS
 62
     2
100
AcDbCircle
 10
1074.231657
 20
223.798506
 30
0.0
 40
18.151494
100
AcDbArc
 50
72.412046
 51
90.0
  0
ARC
  5
671
100
AcDbEntity
  8
LAY-1
  6
CONTINUOUS
 62
     2
100
AcDbCircle
 10
1074.231656
 20
223.798506
 30
0.0
 40
18.151494
100
AcDbArc
 50
90.0
 51
107.587954
  0
LINE
  5
672
100
AcDbEntity
  8
LAY-1
  6
CONTINUOUS
 62
     2
100
AcDbLine
 10
1064.731656
 20
241.95
 30
0.0
 11
1063.262001
 21
241.101494
 31
0.0
  0
LINE
  5
673
100
AcDbEntity
  8
LAY-1
  6
CONTINUOUS
 62
     2
100
AcDbLine
 10
1074.231656
 20
241.95
 30
0.0
 11
1064.731656
 21
241.95
 31
0.0
  0
ARC
  5
674
100
AcDbEntity
  8
LAY-1
  6
CONTINUOUS
 62
     2
100
AcDbCircle
 10
1066.004415
 20
237.093937
 30
0.0
 40
4.856063
100
AcDbArc
 50
55.615753
 51
124.384247
  0
LINE
  5
675
100
AcDbEntity
  8
LAY-1
  6
CONTINUOUS
 62
     2
100
AcDbLine
 10
1063.262001
 20
241.101494
 30
0.0
 11
1063.262001
 21
231.95
 31
0.0
  0
LINE
  5
676
100
AcDbEntity
  8
LAY-1
  6
CONTINUOUS
 62
     2
100
AcDbLine
 10
1063.262001
 20
231.95
 30
0.0
 11
1074.231656
 21
231.95
 31
0.0
  0
LINE
  5
677
100
AcDbEntity
  8
LAY-1
  6
CONTINUOUS
 62
     2
100
AcDbLine
 10
1062.231656
 20
230.476279
 30
0.0
 11
1067.731656
 21
231.95
 31
0.0
  0
LINE
  5
678
100
AcDbEntity
  8
LAY-1
  6
CONTINUOUS
 62
     2
100
AcDbLine
 10
1062.231656
 20
230.476279
 30
0.0
 11
1062.231656
 21
229.25
 31
0.0
  0
LINE
  5
679
100
AcDbEntity
  8
LAY-1
  6
CONTINUOUS
 62
     2
100
AcDbLine
 10
1074.231656
 20
230.476279
 30
0.0
 11
1062.231656
 21
230.476279
 31
0.0
  0
LINE
  5
67A
100
AcDbEntity
  8
LAY-1
  6
CONTINUOUS
 62
     2
100
AcDbLine
 10
1068.231657
 20
246.75
 30
0.0
 11
1068.731657
 21
247.25
 31
0.0
  0
LINE
  5
67B
100
AcDbEntity
  8
LAY-1
  6
CONTINUOUS
 62
     2
100
AcDbLine
 10
1080.231657
 20
246.75
 30
0.0
 11
1079.731657
 21
247.25
 31
0.0
  0
LINE
  5
67C
100
AcDbEntity
  8
LAY-1
  6
CONTINUOUS
 62
     2
100
AcDbLine
 10
1079.731657
 20
247.25
 30
0.0
 11
1068.731657
 21
247.25
 31
0.0
  0
LINE
  5
67D
100
AcDbEntity
  8
LAY-1
  6
CONTINUOUS
 62
     2
100
AcDbLine
 10
1068.231657
 20
246.75
 30
0.0
 11
1068.231657
 21
241.95
 31
0.0
  0
LINE
  5
67E
100
AcDbEntity
  8
LAY-1
  6
CONTINUOUS
 62
     2
100
AcDbLine
 10
1080.231657
 20
246.75
 30
0.0
 11
1080.231657
 21
241.95
 31
0.0
  0
LINE
  5
67F
100
AcDbEntity
  8
LAY-1
  6
CONTINUOUS
 62
     2
100
AcDbLine
 10
1068.746829
 20
241.101494
 30
0.0
 11
1068.746829
 21
231.95
 31
0.0
  0
LINE
  5
680
100
AcDbEntity
  8
LAY-1
  6
CONTINUOUS
 62
     2
100
AcDbLine
 10
1064.731657
 20
189.267801
 30
0.0
 11
1083.731657
 21
189.267801
 31
0.0
  0
ARC
  5
681
100
AcDbEntity
  8
LAY-1
  6
CONTINUOUS
 62
     2
100
AcDbCircle
 10
1082.458898
 20
194.123865
 30
0.0
 40
4.856063
100
AcDbArc
 50
235.615753
 51
304.384247
  0
LINE
  5
682
100
AcDbEntity
  8
LAY-1
  6
CONTINUOUS
 62
     2
100
AcDbLine
 10
1079.716484
 20
197.267801
 30
0.0
 11
1079.716484
 21
190.116307
 31
0.0
  0
LINE
  5
683
100
AcDbEntity
  8
LAY-1
  6
CONTINUOUS
 62
     2
100
AcDbLine
 10
1083.731657
 20
189.267801
 30
0.0
 11
1085.201312
 21
190.116307
 31
0.0
  0
LINE
  5
684
100
AcDbEntity
  8
LAY-1
  6
CONTINUOUS
 62
     2
100
AcDbLine
 10
1085.201312
 20
190.116307
 30
0.0
 11
1085.201312
 21
197.267801
 31
0.0
  0
ARC
  5
685
100
AcDbEntity
  8
LAY-1
  6
CONTINUOUS
 62
     2
100
AcDbCircle
 10
1074.231657
 20
207.419296
 30
0.0
 40
18.151494
100
AcDbArc
 50
252.412046
 51
287.587954
  0
ARC
  5
686
100
AcDbEntity
  8
LAY-1
  6
CONTINUOUS
 62
     2
100
AcDbCircle
 10
1066.004415
 20
194.123865
 30
0.0
 40
4.856063
100
AcDbArc
 50
235.615753
 51
304.384247
  0
LINE
  5
687
100
AcDbEntity
  8
LAY-1
  6
CONTINUOUS
 62
     2
100
AcDbLine
 10
1068.746829
 20
190.116307
 30
0.0
 11
1068.746829
 21
197.267801
 31
0.0
  0
LINE
  5
688
100
AcDbEntity
  8
LAY-1
  6
CONTINUOUS
 62
     2
100
AcDbLine
 10
1063.262002
 20
190.116307
 30
0.0
 11
1064.731657
 21
189.267801
 31
0.0
  0
LINE
  5
689
100
AcDbEntity
  8
LAY-1
  6
CONTINUOUS
 62
     2
100
AcDbLine
 10
1063.262002
 20
197.267801
 30
0.0
 11
1063.262002
 21
190.116307
 31
0.0
  0
LINE
  5
68A
100
AcDbEntity
  8
LAY-1
  6
CONTINUOUS
 62
     2
100
AcDbLine
 10
1032.112047
 20
230.476279
 30
0.0
 11
1032.112047
 21
229.25
 31
0.0
  0
LINE
  5
68B
100
AcDbEntity
  8
LAY-1
  6
CONTINUOUS
 62
     2
100
AcDbLine
 10
1020.112047
 20
230.476279
 30
0.0
 11
1032.112047
 21
230.476279
 31
0.0
  0
LINE
  5
68C
100
AcDbEntity
  8
LAY-1
  6
CONTINUOUS
 62
     2
100
AcDbLine
 10
1032.112047
 20
230.476279
 30
0.0
 11
1026.612047
 21
231.95
 31
0.0
  0
LINE
  5
68D
100
AcDbEntity
  8
LAY-1
  6
CONTINUOUS
 62
     2
100
AcDbLine
 10
1031.081702
 20
231.95
 30
0.0
 11
1020.112047
 21
231.95
 31
0.0
  0
LINE
  5
68E
100
AcDbEntity
  8
LAY-1
  6
CONTINUOUS
 62
     2
100
AcDbLine
 10
1031.081702
 20
241.101494
 30
0.0
 11
1031.081702
 21
231.95
 31
0.0
  0
LINE
  5
68F
100
AcDbEntity
  8
LAY-1
  6
CONTINUOUS
 62
     2
100
AcDbLine
 10
1029.612047
 20
241.95
 30
0.0
 11
1031.081702
 21
241.101494
 31
0.0
  0
LINE
  5
690
100
AcDbEntity
  8
LAY-1
  6
CONTINUOUS
 62
     2
100
AcDbLine
 10
1025.596875
 20
241.101494
 30
0.0
 11
1025.596875
 21
231.95
 31
0.0
  0
ARC
  5
691
100
AcDbEntity
  8
LAY-1
  6
CONTINUOUS
 62
     2
100
AcDbCircle
 10
1028.339288
 20
237.093937
 30
0.0
 40
4.856063
100
AcDbArc
 50
55.615753
 51
124.384247
  0
LINE
  5
692
100
AcDbEntity
  8
LAY-1
  6
CONTINUOUS
 62
     2
100
AcDbLine
 10
1020.112047
 20
241.95
 30
0.0
 11
1029.612047
 21
241.95
 31
0.0
  0
ARC
  5
693
100
AcDbEntity
  8
LAY-1
  6
CONTINUOUS
 62
     2
100
AcDbCircle
 10
1020.112047
 20
223.798506
 30
0.0
 40
18.151494
100
AcDbArc
 50
72.412046
 51
90.0
  0
ARC
  5
694
100
AcDbEntity
  8
LAY-1
  6
CONTINUOUS
 62
     2
100
AcDbCircle
 10
1020.112046
 20
223.798506
 30
0.0
 40
18.151494
100
AcDbArc
 50
90.0
 51
107.587954
  0
LINE
  5
695
100
AcDbEntity
  8
LAY-1
  6
CONTINUOUS
 62
     2
100
AcDbLine
 10
1010.612046
 20
241.95
 30
0.0
 11
1009.142391
 21
241.101494
 31
0.0
  0
LINE
  5
696
100
AcDbEntity
  8
LAY-1
  6
CONTINUOUS
 62
     2
100
AcDbLine
 10
1020.112046
 20
241.95
 30
0.0
 11
1010.612046
 21
241.95
 31
0.0
  0
ARC
  5
697
100
AcDbEntity
  8
LAY-1
  6
CONTINUOUS
 62
     2
100
AcDbCircle
 10
1011.884805
 20
237.093937
 30
0.0
 40
4.856063
100
AcDbArc
 50
55.615753
 51
124.384247
  0
LINE
  5
698
100
AcDbEntity
  8
LAY-1
  6
CONTINUOUS
 62
     2
100
AcDbLine
 10
1009.142391
 20
241.101494
 30
0.0
 11
1009.142391
 21
231.95
 31
0.0
  0
LINE
  5
699
100
AcDbEntity
  8
LAY-1
  6
CONTINUOUS
 62
     2
100
AcDbLine
 10
1009.142391
 20
231.95
 30
0.0
 11
1020.112046
 21
231.95
 31
0.0
  0
LINE
  5
69A
100
AcDbEntity
  8
LAY-1
  6
CONTINUOUS
 62
     2
100
AcDbLine
 10
1008.112046
 20
230.476279
 30
0.0
 11
1013.612046
 21
231.95
 31
0.0
  0
LINE
  5
69B
100
AcDbEntity
  8
LAY-1
  6
CONTINUOUS
 62
     2
100
AcDbLine
 10
1008.112046
 20
230.476279
 30
0.0
 11
1008.112046
 21
229.25
 31
0.0
  0
LINE
  5
69C
100
AcDbEntity
  8
LAY-1
  6
CONTINUOUS
 62
     2
100
AcDbLine
 10
1020.112046
 20
230.476279
 30
0.0
 11
1008.112046
 21
230.476279
 31
0.0
  0
LINE
  5
69D
100
AcDbEntity
  8
LAY-1
  6
CONTINUOUS
 62
     2
100
AcDbLine
 10
1014.112047
 20
246.75
 30
0.0
 11
1014.612047
 21
247.25
 31
0.0
  0
LINE
  5
69E
100
AcDbEntity
  8
LAY-1
  6
CONTINUOUS
 62
     2
100
AcDbLine
 10
1026.112047
 20
246.75
 30
0.0
 11
1025.612047
 21
247.25
 31
0.0
  0
LINE
  5
69F
100
AcDbEntity
  8
LAY-1
  6
CONTINUOUS
 62
     2
100
AcDbLine
 10
1025.612047
 20
247.25
 30
0.0
 11
1014.612047
 21
247.25
 31
0.0
  0
LINE
  5
6A0
100
AcDbEntity
  8
LAY-1
  6
CONTINUOUS
 62
     2
100
AcDbLine
 10
1014.112047
 20
246.75
 30
0.0
 11
1014.112047
 21
241.95
 31
0.0
  0
LINE
  5
6A1
100
AcDbEntity
  8
LAY-1
  6
CONTINUOUS
 62
     2
100
AcDbLine
 10
1026.112047
 20
246.75
 30
0.0
 11
1026.112047
 21
241.95
 31
0.0
  0
LINE
  5
6A2
100
AcDbEntity
  8
LAY-1
  6
CONTINUOUS
 62
     2
100
AcDbLine
 10
1014.627219
 20
241.101494
 30
0.0
 11
1014.627219
 21
231.95
 31
0.0
  0
LINE
  5
6A3
100
AcDbEntity
  8
LAY-1
  6
CONTINUOUS
 62
     2
100
AcDbLine
 10
1010.612047
 20
189.267801
 30
0.0
 11
1029.612047
 21
189.267801
 31
0.0
  0
ARC
  5
6A4
100
AcDbEntity
  8
LAY-1
  6
CONTINUOUS
 62
     2
100
AcDbCircle
 10
1028.339288
 20
194.123865
 30
0.0
 40
4.856063
100
AcDbArc
 50
235.615753
 51
304.384247
  0
LINE
  5
6A5
100
AcDbEntity
  8
LAY-1
  6
CONTINUOUS
 62
     2
100
AcDbLine
 10
1025.596874
 20
197.267801
 30
0.0
 11
1025.596874
 21
190.116307
 31
0.0
  0
LINE
  5
6A6
100
AcDbEntity
  8
LAY-1
  6
CONTINUOUS
 62
     2
100
AcDbLine
 10
1029.612047
 20
189.267801
 30
0.0
 11
1031.081702
 21
190.116307
 31
0.0
  0
LINE
  5
6A7
100
AcDbEntity
  8
LAY-1
  6
CONTINUOUS
 62
     2
100
AcDbLine
 10
1031.081702
 20
190.116307
 30
0.0
 11
1031.081702
 21
197.267801
 31
0.0
  0
ARC
  5
6A8
100
AcDbEntity
  8
LAY-1
  6
CONTINUOUS
 62
     2
100
AcDbCircle
 10
1020.112047
 20
207.419296
 30
0.0
 40
18.151494
100
AcDbArc
 50
252.412046
 51
287.587954
  0
ARC
  5
6A9
100
AcDbEntity
  8
LAY-1
  6
CONTINUOUS
 62
     2
100
AcDbCircle
 10
1011.884805
 20
194.123865
 30
0.0
 40
4.856063
100
AcDbArc
 50
235.615753
 51
304.384247
  0
LINE
  5
6AA
100
AcDbEntity
  8
LAY-1
  6
CONTINUOUS
 62
     2
100
AcDbLine
 10
1014.627219
 20
190.116307
 30
0.0
 11
1014.627219
 21
197.267801
 31
0.0
  0
LINE
  5
6AB
100
AcDbEntity
  8
LAY-1
  6
CONTINUOUS
 62
     2
100
AcDbLine
 10
1009.142392
 20
190.116307
 30
0.0
 11
1010.612047
 21
189.267801
 31
0.0
  0
LINE
  5
6AC
100
AcDbEntity
  8
LAY-1
  6
CONTINUOUS
 62
     2
100
AcDbLine
 10
1009.142392
 20
197.267801
 30
0.0
 11
1009.142392
 21
190.116307
 31
0.0
  0
LINE
  5
6AD
100
AcDbEntity
  8
LAY-1
  6
CONTINUOUS
 62
     2
100
AcDbLine
 10
1216.887954
 20
229.25
 30
0.0
 11
1192.887953
 21
229.25
 31
0.0
  0
LINE
  5
6AE
100
AcDbEntity
  8
LAY-1
  6
CONTINUOUS
 62
     2
100
AcDbLine
 10
1216.887954
 20
230.476279
 30
0.0
 11
1216.887954
 21
229.25
 31
0.0
  0
LINE
  5
6AF
100
AcDbEntity
  8
LAY-1
  6
CONTINUOUS
 62
     2
100
AcDbLine
 10
1204.887954
 20
230.476279
 30
0.0
 11
1216.887954
 21
230.476279
 31
0.0
  0
LINE
  5
6B0
100
AcDbEntity
  8
LAY-1
  6
CONTINUOUS
 62
     2
100
AcDbLine
 10
1216.887954
 20
230.476279
 30
0.0
 11
1211.387954
 21
231.95
 31
0.0
  0
LINE
  5
6B1
100
AcDbEntity
  8
LAY-1
  6
CONTINUOUS
 62
     2
100
AcDbLine
 10
1215.857609
 20
231.95
 30
0.0
 11
1204.887954
 21
231.95
 31
0.0
  0
LINE
  5
6B2
100
AcDbEntity
  8
LAY-1
  6
CONTINUOUS
 62
     2
100
AcDbLine
 10
1215.857609
 20
241.101494
 30
0.0
 11
1215.857609
 21
231.95
 31
0.0
  0
LINE
  5
6B3
100
AcDbEntity
  8
LAY-1
  6
CONTINUOUS
 62
     2
100
AcDbLine
 10
1214.387954
 20
241.95
 30
0.0
 11
1215.857609
 21
241.101494
 31
0.0
  0
LINE
  5
6B4
100
AcDbEntity
  8
LAY-1
  6
CONTINUOUS
 62
     2
100
AcDbLine
 10
1210.372781
 20
241.101494
 30
0.0
 11
1210.372781
 21
231.95
 31
0.0
  0
ARC
  5
6B5
100
AcDbEntity
  8
LAY-1
  6
CONTINUOUS
 62
     2
100
AcDbCircle
 10
1213.115195
 20
237.093937
 30
0.0
 40
4.856063
100
AcDbArc
 50
55.615753
 51
124.384247
  0
LINE
  5
6B6
100
AcDbEntity
  8
LAY-1
  6
CONTINUOUS
 62
     2
100
AcDbLine
 10
1204.887954
 20
241.95
 30
0.0
 11
1214.387954
 21
241.95
 31
0.0
  0
ARC
  5
6B7
100
AcDbEntity
  8
LAY-1
  6
CONTINUOUS
 62
     2
100
AcDbCircle
 10
1204.887954
 20
223.798506
 30
0.0
 40
18.151494
100
AcDbArc
 50
72.412046
 51
90.0
  0
ARC
  5
6B8
100
AcDbEntity
  8
LAY-1
  6
CONTINUOUS
 62
     2
100
AcDbCircle
 10
1204.887953
 20
223.798506
 30
0.0
 40
18.151494
100
AcDbArc
 50
90.0
 51
107.587954
  0
LINE
  5
6B9
100
AcDbEntity
  8
LAY-1
  6
CONTINUOUS
 62
     2
100
AcDbLine
 10
1195.387953
 20
241.95
 30
0.0
 11
1193.918298
 21
241.101494
 31
0.0
  0
LINE
  5
6BA
100
AcDbEntity
  8
LAY-1
  6
CONTINUOUS
 62
     2
100
AcDbLine
 10
1204.887953
 20
241.95
 30
0.0
 11
1195.387953
 21
241.95
 31
0.0
  0
ARC
  5
6BB
100
AcDbEntity
  8
LAY-1
  6
CONTINUOUS
 62
     2
100
AcDbCircle
 10
1196.660712
 20
237.093937
 30
0.0
 40
4.856063
100
AcDbArc
 50
55.615753
 51
124.384247
  0
LINE
  5
6BC
100
AcDbEntity
  8
LAY-1
  6
CONTINUOUS
 62
     2
100
AcDbLine
 10
1193.918298
 20
241.101494
 30
0.0
 11
1193.918298
 21
231.95
 31
0.0
  0
LINE
  5
6BD
100
AcDbEntity
  8
LAY-1
  6
CONTINUOUS
 62
     2
100
AcDbLine
 10
1193.918298
 20
231.95
 30
0.0
 11
1204.887953
 21
231.95
 31
0.0
  0
LINE
  5
6BE
100
AcDbEntity
  8
LAY-1
  6
CONTINUOUS
 62
     2
100
AcDbLine
 10
1192.887953
 20
230.476279
 30
0.0
 11
1198.387953
 21
231.95
 31
0.0
  0
LINE
  5
6BF
100
AcDbEntity
  8
LAY-1
  6
CONTINUOUS
 62
     2
100
AcDbLine
 10
1192.887953
 20
230.476279
 30
0.0
 11
1192.887953
 21
229.25
 31
0.0
  0
LINE
  5
6C0
100
AcDbEntity
  8
LAY-1
  6
CONTINUOUS
 62
     2
100
AcDbLine
 10
1204.887953
 20
230.476279
 30
0.0
 11
1192.887953
 21
230.476279
 31
0.0
  0
LINE
  5
6C1
100
AcDbEntity
  8
LAY-1
  6
CONTINUOUS
 62
     2
100
AcDbLine
 10
1198.887953
 20
246.75
 30
0.0
 11
1199.387953
 21
247.25
 31
0.0
  0
LINE
  5
6C2
100
AcDbEntity
  8
LAY-1
  6
CONTINUOUS
 62
     2
100
AcDbLine
 10
1210.887953
 20
246.75
 30
0.0
 11
1210.387953
 21
247.25
 31
0.0
  0
LINE
  5
6C3
100
AcDbEntity
  8
LAY-1
  6
CONTINUOUS
 62
     2
100
AcDbLine
 10
1210.387953
 20
247.25
 30
0.0
 11
1199.387953
 21
247.25
 31
0.0
  0
LINE
  5
6C4
100
AcDbEntity
  8
LAY-1
  6
CONTINUOUS
 62
     2
100
AcDbLine
 10
1198.887953
 20
246.75
 30
0.0
 11
1198.887953
 21
241.95
 31
0.0
  0
LINE
  5
6C5
100
AcDbEntity
  8
LAY-1
  6
CONTINUOUS
 62
     2
100
AcDbLine
 10
1210.887953
 20
246.75
 30
0.0
 11
1210.887953
 21
241.95
 31
0.0
  0
LINE
  5
6C6
100
AcDbEntity
  8
LAY-1
  6
CONTINUOUS
 62
     2
100
AcDbLine
 10
1199.403125
 20
241.101494
 30
0.0
 11
1199.403125
 21
231.95
 31
0.0
  0
LINE
  5
6C7
100
AcDbEntity
  8
LAY-1
  6
CONTINUOUS
 62
     2
100
AcDbLine
 10
1195.387953
 20
189.267801
 30
0.0
 11
1214.387953
 21
189.267801
 31
0.0
  0
ARC
  5
6C8
100
AcDbEntity
  8
LAY-1
  6
CONTINUOUS
 62
     2
100
AcDbCircle
 10
1213.115195
 20
194.123865
 30
0.0
 40
4.856063
100
AcDbArc
 50
235.615753
 51
304.384247
  0
LINE
  5
6C9
100
AcDbEntity
  8
LAY-1
  6
CONTINUOUS
 62
     2
100
AcDbLine
 10
1210.372781
 20
197.267801
 30
0.0
 11
1210.372781
 21
190.116307
 31
0.0
  0
LINE
  5
6CA
100
AcDbEntity
  8
LAY-1
  6
CONTINUOUS
 62
     2
100
AcDbLine
 10
1214.387953
 20
189.267801
 30
0.0
 11
1215.857608
 21
190.116307
 31
0.0
  0
LINE
  5
6CB
100
AcDbEntity
  8
LAY-1
  6
CONTINUOUS
 62
     2
100
AcDbLine
 10
1215.857608
 20
190.116307
 30
0.0
 11
1215.857608
 21
197.267801
 31
0.0
  0
ARC
  5
6CC
100
AcDbEntity
  8
LAY-1
  6
CONTINUOUS
 62
     2
100
AcDbCircle
 10
1204.887953
 20
207.419296
 30
0.0
 40
18.151494
100
AcDbArc
 50
252.412046
 51
287.587954
  0
ARC
  5
6CD
100
AcDbEntity
  8
LAY-1
  6
CONTINUOUS
 62
     2
100
AcDbCircle
 10
1196.660712
 20
194.123865
 30
0.0
 40
4.856063
100
AcDbArc
 50
235.615753
 51
304.384247
  0
LINE
  5
6CE
100
AcDbEntity
  8
LAY-1
  6
CONTINUOUS
 62
     2
100
AcDbLine
 10
1199.403126
 20
190.116307
 30
0.0
 11
1199.403126
 21
197.267801
 31
0.0
  0
LINE
  5
6CF
100
AcDbEntity
  8
LAY-1
  6
CONTINUOUS
 62
     2
100
AcDbLine
 10
1193.918298
 20
190.116307
 30
0.0
 11
1195.387953
 21
189.267801
 31
0.0
  0
LINE
  5
6D0
100
AcDbEntity
  8
LAY-1
  6
CONTINUOUS
 62
     2
100
AcDbLine
 10
1193.918298
 20
197.267801
 30
0.0
 11
1193.918298
 21
190.116307
 31
0.0
  0
LINE
  5
6D1
100
AcDbEntity
  8
LAY-1
  6
CONTINUOUS
 62
     2
100
AcDbLine
 10
1181.16309
 20
187.661302
 30
0.0
 11
1140.598437
 21
186.244754
 31
0.0
  0
LINE
  5
6D2
100
AcDbEntity
  8
LAY-1
  6
CONTINUOUS
 62
     2
100
AcDbLine
 10
1043.83691
 20
187.661302
 30
0.0
 11
1084.401563
 21
186.244754
 31
0.0
  0
LINE
  5
6D3
100
AcDbEntity
  8
LAY-1
  6
CONTINUOUS
 62
     2
100
AcDbLine
 10
1140.598437
 20
186.244754
 30
0.0
 11
1084.401563
 21
186.244754
 31
0.0
  0
ARC
  5
6D4
100
AcDbEntity
  8
LAY-1
  6
CONTINUOUS
 62
     2
100
AcDbCircle
 10
1152.5
 20
176.65427
 30
0.0
 40
10.0
100
AcDbArc
 50
92.0
 51
177.492106
  0
ARC
  5
6D5
100
AcDbEntity
  8
LAY-1
  6
CONTINUOUS
 62
     2
100
AcDbCircle
 10
1072.5
 20
176.65427
 30
0.0
 40
10.0
100
AcDbArc
 50
2.507894
 51
88.0
  0
LINE
  5
6D6
100
AcDbEntity
  8
LAY-1
  6
CONTINUOUS
 62
     2
100
AcDbLine
 10
1084.57617
 20
368.475327
 30
0.0
 11
1066.580653
 21
366.583922
 31
0.0
  0
LINE
  5
6D7
100
AcDbEntity
  8
LAY-1
  6
CONTINUOUS
 62
     2
100
AcDbLine
 10
1084.531992
 20
369.02426
 30
0.0
 11
1084.531992
 21
369.015153
 31
0.0
  0
LINE
  5
6D8
100
AcDbEntity
  8
LAY-1
  6
CONTINUOUS
 62
     2
100
AcDbLine
 10
1069.052264
 20
366.843698
 30
0.0
 11
1066.580653
 21
366.583922
 31
0.0
  0
LINE
  5
6D9
100
AcDbEntity
  8
LAY-1
  6
CONTINUOUS
 62
     2
100
AcDbLine
 10
1069.052264
 20
366.843698
 30
0.0
 11
1066.57916
 21
366.583765
 31
0.0
  0
ARC
  5
6DA
100
AcDbEntity
  8
LAY-1
  6
CONTINUOUS
 62
     2
100
AcDbCircle
 10
1068.14858
 20
351.666093
 30
0.0
 40
15.0
100
AcDbArc
 50
96.0
 51
177.5304
  0
ARC
  5
6DB
100
AcDbEntity
  8
LAY-1
  6
EXLTYPE4
 62
     2
100
AcDbCircle
 10
1083.0
 20
368.809068
 30
0.0
 40
0.5
100
AcDbArc
 50
180.0
 51
276.0
  0
ARC
  5
6DC
100
AcDbEntity
  8
LAY-1
  6
EXLTYPE4
 62
     2
100
AcDbCircle
 10
1070.0
 20
369.752252
 30
0.0
 40
0.5
100
AcDbArc
 50
90.0
 51
180.0
  0
LINE
  5
6DD
100
AcDbEntity
  8
LAY-1
  6
EXLTYPE4
 62
     2
100
AcDbLine
 10
1070.0
 20
370.252252
 30
0.0
 11
1082.0
 21
370.252252
 31
0.0
  0
ARC
  5
6DE
100
AcDbEntity
  8
LAY-1
  6
EXLTYPE4
 62
     2
100
AcDbCircle
 10
1082.0
 20
369.752252
 30
0.0
 40
0.5
100
AcDbArc
 50
0.0
 51
90.0
  0
LINE
  5
6DF
100
AcDbEntity
  8
LAY-1
  6
EXLTYPE4
 62
     2
100
AcDbLine
 10
1082.5
 20
369.752252
 30
0.0
 11
1082.5
 21
368.809068
 31
0.0
  0
ARC
  5
6E0
100
AcDbEntity
  8
LAY-1
  6
EXLTYPE4
 62
     2
100
AcDbCircle
 10
1083.0
 20
368.809068
 30
0.0
 40
0.5
100
AcDbArc
 50
180.0
 51
276.0
  0
LINE
  5
6E1
100
AcDbEntity
  8
LAY-1
  6
EXLTYPE4
 62
     2
100
AcDbLine
 10
1069.5
 20
369.752252
 30
0.0
 11
1069.5
 21
367.337609
 31
0.0
  0
ARC
  5
6E2
100
AcDbEntity
  8
LAY-1
  6
EXLTYPE4
 62
     2
100
AcDbCircle
 10
1069.0
 20
367.337609
 30
0.0
 40
0.5
100
AcDbArc
 50
276.0
 51
0.0
  0
ARC
  5
6E3
100
AcDbEntity
  8
LAY-1
  6
EXLTYPE4
 62
     2
100
AcDbCircle
 10
1077.9
 20
371.652252
 30
0.0
 40
0.9
100
AcDbArc
 50
0.0
 51
90.0
  0
ARC
  5
6E4
100
AcDbEntity
  8
LAY-1
  6
EXLTYPE4
 62
     2
100
AcDbCircle
 10
1074.1
 20
371.652252
 30
0.0
 40
0.9
100
AcDbArc
 50
90.0
 51
180.0
  0
LINE
  5
6E5
100
AcDbEntity
  8
LAY-1
  6
EXLTYPE4
 62
     2
100
AcDbLine
 10
1074.1
 20
372.552252
 30
0.0
 11
1077.9
 21
372.552252
 31
0.0
  0
LINE
  5
6E6
100
AcDbEntity
  8
LAY-1
  6
EXLTYPE4
 62
     2
100
AcDbLine
 10
1078.8
 20
371.652252
 30
0.0
 11
1078.8
 21
370.752252
 31
0.0
  0
LINE
  5
6E7
100
AcDbEntity
  8
LAY-1
  6
EXLTYPE4
 62
     2
100
AcDbLine
 10
1073.2
 20
371.652252
 30
0.0
 11
1073.2
 21
370.752252
 31
0.0
  0
LINE
  5
6E8
100
AcDbEntity
  8
LAY-1
  6
EXLTYPE4
 62
     2
100
AcDbLine
 10
1071.0
 20
370.252252
 30
0.0
 11
1071.0
 21
370.752252
 31
0.0
  0
LINE
  5
6E9
100
AcDbEntity
  8
LAY-1
  6
EXLTYPE4
 62
     2
100
AcDbLine
 10
1071.0
 20
370.752252
 30
0.0
 11
1081.0
 21
370.752252
 31
0.0
  0
LINE
  5
6EA
100
AcDbEntity
  8
LAY-1
  6
EXLTYPE4
 62
     2
100
AcDbLine
 10
1081.0
 20
370.752252
 30
0.0
 11
1081.0
 21
370.252252
 31
0.0
  0
LINE
  5
6EB
100
AcDbEntity
  8
LAY-1
  6
CONTINUOUS
 62
     2
100
AcDbLine
 10
1084.57617
 20
1109.024673
 30
0.0
 11
1066.580653
 21
1110.916078
 31
0.0
  0
LINE
  5
6EC
100
AcDbEntity
  8
LAY-1
  6
CONTINUOUS
 62
     2
100
AcDbLine
 10
1084.531992
 20
1108.47574
 30
0.0
 11
1084.531992
 21
1108.484847
 31
0.0
  0
ARC
  5
6ED
100
AcDbEntity
  8
LAY-1
  6
CONTINUOUS
 62
     2
100
AcDbCircle
 10
1086.526464
 20
1108.870424
 30
0.0
 40
2.0
100
AcDbArc
 50
175.73917
 51
260.0
  0
LINE
  5
6EE
100
AcDbEntity
  8
LAY-1
  6
CONTINUOUS
 62
     2
100
AcDbLine
 10
1086.179168
 20
1106.900808
 30
0.0
 11
1087.324429
 21
1106.712537
 31
0.0
  0
LINE
  5
6EF
100
AcDbEntity
  8
LAY-1
  6
CONTINUOUS
 62
     2
100
AcDbLine
 10
1069.052264
 20
1110.656302
 30
0.0
 11
1066.580653
 21
1110.916078
 31
0.0
  0
LINE
  5
6F0
100
AcDbEntity
  8
LAY-1
  6
CONTINUOUS
 62
     2
100
AcDbLine
 10
1069.052264
 20
1110.656302
 30
0.0
 11
1066.57916
 21
1110.916235
 31
0.0
  0
ARC
  5
6F1
100
AcDbEntity
  8
LAY-1
  6
CONTINUOUS
 62
     2
100
AcDbCircle
 10
1068.14858
 20
1125.833907
 30
0.0
 40
15.0
100
AcDbArc
 50
182.4696
 51
264.0
  0
ARC
  5
6F2
100
AcDbEntity
  8
LAY-1
  6
EXLTYPE4
 62
     2
100
AcDbCircle
 10
1083.0
 20
1108.690932
 30
0.0
 40
0.5
100
AcDbArc
 50
84.0
 51
180.0
  0
ARC
  5
6F3
100
AcDbEntity
  8
LAY-1
  6
EXLTYPE4
 62
     2
100
AcDbCircle
 10
1070.0
 20
1107.747748
 30
0.0
 40
0.5
100
AcDbArc
 50
180.0
 51
270.0
  0
LINE
  5
6F4
100
AcDbEntity
  8
LAY-1
  6
EXLTYPE4
 62
     2
100
AcDbLine
 10
1070.0
 20
1107.247748
 30
0.0
 11
1082.0
 21
1107.247748
 31
0.0
  0
ARC
  5
6F5
100
AcDbEntity
  8
LAY-1
  6
EXLTYPE4
 62
     2
100
AcDbCircle
 10
1082.0
 20
1107.747748
 30
0.0
 40
0.5
100
AcDbArc
 50
270.0
 51
0.0
  0
LINE
  5
6F6
100
AcDbEntity
  8
LAY-1
  6
EXLTYPE4
 62
     2
100
AcDbLine
 10
1082.5
 20
1107.747748
 30
0.0
 11
1082.5
 21
1108.690932
 31
0.0
  0
ARC
  5
6F7
100
AcDbEntity
  8
LAY-1
  6
EXLTYPE4
 62
     2
100
AcDbCircle
 10
1083.0
 20
1108.690932
 30
0.0
 40
0.5
100
AcDbArc
 50
84.0
 51
180.0
  0
LINE
  5
6F8
100
AcDbEntity
  8
LAY-1
  6
EXLTYPE4
 62
     2
100
AcDbLine
 10
1069.5
 20
1107.747748
 30
0.0
 11
1069.5
 21
1110.162391
 31
0.0
  0
ARC
  5
6F9
100
AcDbEntity
  8
LAY-1
  6
EXLTYPE4
 62
     2
100
AcDbCircle
 10
1069.0
 20
1110.162391
 30
0.0
 40
0.5
100
AcDbArc
 50
0.0
 51
84.0
  0
ARC
  5
6FA
100
AcDbEntity
  8
LAY-1
  6
EXLTYPE4
 62
     2
100
AcDbCircle
 10
1077.9
 20
1105.847748
 30
0.0
 40
0.9
100
AcDbArc
 50
270.0
 51
0.0
  0
ARC
  5
6FB
100
AcDbEntity
  8
LAY-1
  6
EXLTYPE4
 62
     2
100
AcDbCircle
 10
1074.1
 20
1105.847748
 30
0.0
 40
0.9
100
AcDbArc
 50
180.0
 51
270.0
  0
LINE
  5
6FC
100
AcDbEntity
  8
LAY-1
  6
EXLTYPE4
 62
     2
100
AcDbLine
 10
1074.1
 20
1104.947748
 30
0.0
 11
1077.9
 21
1104.947748
 31
0.0
  0
LINE
  5
6FD
100
AcDbEntity
  8
LAY-1
  6
EXLTYPE4
 62
     2
100
AcDbLine
 10
1078.8
 20
1105.847748
 30
0.0
 11
1078.8
 21
1106.747748
 31
0.0
  0
LINE
  5
6FE
100
AcDbEntity
  8
LAY-1
  6
EXLTYPE4
 62
     2
100
AcDbLine
 10
1073.2
 20
1105.847748
 30
0.0
 11
1073.2
 21
1106.747748
 31
0.0
  0
LINE
  5
6FF
100
AcDbEntity
  8
LAY-1
  6
EXLTYPE4
 62
     2
100
AcDbLine
 10
1071.0
 20
1107.247748
 30
0.0
 11
1071.0
 21
1106.747748
 31
0.0
  0
LINE
  5
700
100
AcDbEntity
  8
LAY-1
  6
EXLTYPE4
 62
     2
100
AcDbLine
 10
1071.0
 20
1106.747748
 30
0.0
 11
1081.0
 21
1106.747748
 31
0.0
  0
LINE
  5
701
100
AcDbEntity
  8
LAY-1
  6
EXLTYPE4
 62
     2
100
AcDbLine
 10
1081.0
 20
1106.747748
 30
0.0
 11
1081.0
 21
1107.247748
 31
0.0
  0
ARC
  5
702
100
AcDbEntity
  8
LAY-1
  6
EXLTYPE7
 62
     1
100
AcDbCircle
 10
753.702589
 20
761.25
 30
0.0
 40
2.0
100
AcDbArc
 50
190.0
 51
270.0
  0
ARC
  5
703
100
AcDbEntity
  8
LAY-1
  6
CONTINUOUS
 62
     2
100
AcDbCircle
 10
1256.0
 20
738.75
 30
0.0
 40
220.076784
100
AcDbArc
 50
352.69894
 51
0.0
  0
ARC
  5
704
100
AcDbEntity
  8
LAY-1
  6
CONTINUOUS
 62
     2
100
AcDbCircle
 10
1256.0
 20
738.75
 30
0.0
 40
220.076784
100
AcDbArc
 50
0.0
 51
7.30106
  0
ARC
  5
705
100
AcDbEntity
  8
LAY-1
  6
CONTINUOUS
 62
     2
100
AcDbCircle
 10
1112.5
 20
586.773404
 30
0.0
 40
220.076784
100
AcDbArc
 50
262.69894
 51
277.30106
  0
ARC
  5
706
100
AcDbEntity
  8
LAY-1
  6
CONTINUOUS
 62
     2
100
AcDbCircle
 10
969.0
 20
738.75
 30
0.0
 40
220.076784
100
AcDbArc
 50
172.69894
 51
174.57674
  0
LINE
  5
707
100
AcDbEntity
  8
LAY-1
  6
CONTINUOUS
 62
     2
100
AcDbLine
 10
749.07609
 20
759.997283
 30
0.0
 11
749.07609
 21
717.502717
 31
0.0
  0
LINE
  5
708
100
AcDbEntity
  8
LAY-1
  6
EXLTYPE4
 62
     2
100
AcDbLine
 10
751.984451
 20
759.55
 30
0.0
 11
749.573351
 21
759.55
 31
0.0
  0
ARC
  5
709
100
AcDbEntity
  8
LAY-1
  6
EXLTYPE4
 62
     2
100
AcDbCircle
 10
751.984451
 20
759.05
 30
0.0
 40
0.5
100
AcDbArc
 50
0.0
 51
90.0
  0
ARC
  5
70A
100
AcDbEntity
  8
LAY-1
  6
EXLTYPE4
 62
     2
100
AcDbCircle
 10
753.884451
 20
753.8
 30
0.0
 40
0.9
100
AcDbArc
 50
270.0
 51
0.0
  0
ARC
  5
70B
100
AcDbEntity
  8
LAY-1
  6
EXLTYPE4
 62
     2
100
AcDbCircle
 10
753.884451
 20
757.2
 30
0.0
 40
0.9
100
AcDbArc
 50
0.0
 51
90.0
  0
LINE
  5
70C
100
AcDbEntity
  8
LAY-1
  6
EXLTYPE4
 62
     2
100
AcDbLine
 10
754.784451
 20
753.8
 30
0.0
 11
754.784451
 21
757.2
 31
0.0
  0
LINE
  5
70D
100
AcDbEntity
  8
LAY-1
  6
EXLTYPE4
 62
     2
100
AcDbLine
 10
753.884451
 20
758.1
 30
0.0
 11
752.484451
 21
758.1
 31
0.0
  0
LINE
  5
70E
100
AcDbEntity
  8
LAY-1
  6
EXLTYPE4
 62
     2
100
AcDbLine
 10
753.884451
 20
752.9
 30
0.0
 11
752.484451
 21
752.9
 31
0.0
  0
ARC
  5
70F
100
AcDbEntity
  8
LAY-1
  6
EXLTYPE4
 62
     2
100
AcDbCircle
 10
749.573351
 20
760.049547
 30
0.0
 40
0.5
100
AcDbArc
 50
186.0
 51
270.0
  0
LINE
  5
710
100
AcDbEntity
  8
LAY-1
  6
CONTINUOUS
 62
     2
100
AcDbLine
 10
752.484451
 20
751.75
 30
0.0
 11
752.984451
 21
751.75
 31
0.0
  0
ARC
  5
711
100
AcDbEntity
  8
LAY-1
  6
EXLTYPE4
 62
     2
100
AcDbCircle
 10
753.884451
 20
720.3
 30
0.0
 40
0.9
100
AcDbArc
 50
270.0
 51
0.0
  0
ARC
  5
712
100
AcDbEntity
  8
LAY-1
  6
EXLTYPE4
 62
     2
100
AcDbCircle
 10
753.884451
 20
723.7
 30
0.0
 40
0.9
100
AcDbArc
 50
0.0
 51
90.0
  0
LINE
  5
713
100
AcDbEntity
  8
LAY-1
  6
EXLTYPE4
 62
     2
100
AcDbLine
 10
754.784451
 20
720.3
 30
0.0
 11
754.784451
 21
723.7
 31
0.0
  0
LINE
  5
714
100
AcDbEntity
  8
LAY-1
  6
EXLTYPE4
 62
     2
100
AcDbLine
 10
753.884451
 20
724.6
 30
0.0
 11
752.484451
 21
724.6
 31
0.0
  0
LINE
  5
715
100
AcDbEntity
  8
LAY-1
  6
EXLTYPE4
 62
     2
100
AcDbLine
 10
753.884451
 20
719.4
 30
0.0
 11
752.484451
 21
719.4
 31
0.0
  0
LINE
  5
716
100
AcDbEntity
  8
LAY-1
  6
CONTINUOUS
 62
     2
100
AcDbLine
 10
752.984451
 20
725.75
 30
0.0
 11
752.484451
 21
725.75
 31
0.0
  0
ARC
  5
717
100
AcDbEntity
  8
LAY-1
  6
CONTINUOUS
 62
     2
100
AcDbCircle
 10
969.0
 20
738.75
 30
0.0
 40
220.076784
100
AcDbArc
 50
185.42326
 51
187.30106
  0
ARC
  5
718
100
AcDbEntity
  8
LAY-1
  6
EXLTYPE4
 62
     2
100
AcDbCircle
 10
751.984451
 20
718.45
 30
0.0
 40
0.5
100
AcDbArc
 50
270.0
 51
0.0
  0
LINE
  5
719
100
AcDbEntity
  8
LAY-1
  6
EXLTYPE4
 62
     2
100
AcDbLine
 10
751.984451
 20
717.95
 30
0.0
 11
749.573351
 21
717.95
 31
0.0
  0
ARC
  5
71A
100
AcDbEntity
  8
LAY-1
  6
EXLTYPE4
 62
     2
100
AcDbCircle
 10
749.573351
 20
717.450453
 30
0.0
 40
0.5
100
AcDbArc
 50
90.0
 51
174.0
  0
ARC
  5
71B
100
AcDbEntity
  8
LAY-1
  6
CONTINUOUS
 62
     2
100
AcDbCircle
 10
1112.5
 20
890.726596
 30
0.0
 40
220.076784
100
AcDbArc
 50
82.69894
 51
97.30106
  0
LINE
  5
71C
100
AcDbEntity
  8
LAY-1
  6
CONTINUOUS
 62
     2
100
AcDbLine
 10
752.484451
 20
718.45
 30
0.0
 11
752.484451
 21
759.05
 31
0.0
  0
LINE
  5
71D
100
AcDbEntity
  8
LAY-1
  6
CONTINUOUS
 62
     2
100
AcDbLine
 10
752.984451
 20
725.75
 30
0.0
 11
752.984451
 21
751.75
 31
0.0
  0
LINE
  5
71E
100
AcDbEntity
  8
LAY-1
  6
EXLTYPE3
 62
     1
100
AcDbLine
 10
1720.5
 20
897.75
 30
0.0
 11
1720.5
 21
574.75
 31
0.0
  0
LINE
  5
71F
100
AcDbEntity
  8
LAY-3
  6
CONTINUOUS
 62
     1
100
AcDbLine
 10
442.0
 20
881.25
 30
0.0
 11
394.3
 21
881.25
 31
0.0
  0
LINE
  5
720
100
AcDbEntity
  8
LAY-3
  6
CONTINUOUS
 62
     1
100
AcDbLine
 10
442.0
 20
596.25
 30
0.0
 11
394.3
 21
596.25
 31
0.0
  0
TEXT
  5
721
100
AcDbEntity
  8
LAY-3
  6
CONTINUOUS
 62
     3
100
AcDbText
 10
393.8
 20
701.25
 30
0.0
 40
25.0
  1
２８５
 50
90.0
 41
0.84
  7
EXCADSTD
 72
     5
 11
393.8
 21
776.25
 31
0.0
100
AcDbText
  0
LINE
  5
722
100
AcDbEntity
  8
LAY-3
  6
CONTINUOUS
 62
     1
100
AcDbLine
 10
394.8
 20
881.25
 30
0.0
 11
394.8
 21
596.25
 31
0.0
  0
LINE
  5
723
100
AcDbEntity
  8
LAY-3
  6
CONTINUOUS
 62
     1
100
AcDbLine
 10
396.466667
 20
871.25
 30
0.0
 11
394.8
 21
881.25
 31
0.0
  0
LINE
  5
724
100
AcDbEntity
  8
LAY-3
  6
CONTINUOUS
 62
     1
100
AcDbLine
 10
394.8
 20
881.25
 30
0.0
 11
393.133333
 21
871.25
 31
0.0
  0
LINE
  5
725
100
AcDbEntity
  8
LAY-3
  6
CONTINUOUS
 62
     1
100
AcDbLine
 10
393.133333
 20
606.25
 30
0.0
 11
394.8
 21
596.25
 31
0.0
  0
LINE
  5
726
100
AcDbEntity
  8
LAY-3
  6
CONTINUOUS
 62
     1
100
AcDbLine
 10
394.8
 20
596.25
 30
0.0
 11
396.466667
 21
606.25
 31
0.0
  0
LINE
  5
727
100
AcDbEntity
  8
LAY-3
  6
CONTINUOUS
 62
     1
100
AcDbLine
 10
439.5
 20
720.75
 30
0.0
 11
439.5
 21
469.5
 31
0.0
  0
LINE
  5
728
100
AcDbEntity
  8
LAY-3
  6
CONTINUOUS
 62
     1
100
AcDbLine
 10
504.5
 20
574.75
 30
0.0
 11
504.5
 21
469.5
 31
0.0
  0
TEXT
  5
729
100
AcDbEntity
  8
LAY-3
  6
CONTINUOUS
 62
     3
100
AcDbText
 10
447.0
 20
471.0
 30
0.0
 40
25.0
  1
６５
 41
0.84
  7
EXCADSTD
 72
     5
 11
492.83
 21
471.0
 31
0.0
100
AcDbText
  0
LINE
  5
72A
100
AcDbEntity
  8
LAY-3
  6
CONTINUOUS
 62
     1
100
AcDbLine
 10
439.5
 20
470.0
 30
0.0
 11
504.5
 21
470.0
 31
0.0
  0
LINE
  5
72B
100
AcDbEntity
  8
LAY-3
  6
CONTINUOUS
 62
     1
100
AcDbLine
 10
449.5
 20
471.666667
 30
0.0
 11
439.5
 21
470.0
 31
0.0
  0
LINE
  5
72C
100
AcDbEntity
  8
LAY-3
  6
CONTINUOUS
 62
     1
100
AcDbLine
 10
439.5
 20
470.0
 30
0.0
 11
449.5
 21
468.333333
 31
0.0
  0
LINE
  5
72D
100
AcDbEntity
  8
LAY-3
  6
CONTINUOUS
 62
     1
100
AcDbLine
 10
494.5
 20
468.333333
 30
0.0
 11
504.5
 21
470.0
 31
0.0
  0
LINE
  5
72E
100
AcDbEntity
  8
LAY-3
  6
CONTINUOUS
 62
     1
100
AcDbLine
 10
504.5
 20
470.0
 30
0.0
 11
494.5
 21
471.666667
 31
0.0
  0
LINE
  5
72F
100
AcDbEntity
  8
LAY-3
  6
CONTINUOUS
 62
     1
100
AcDbLine
 10
609.482199
 20
850.75
 30
0.0
 11
918.5
 21
850.75
 31
0.0
  0
LINE
  5
730
100
AcDbEntity
  8
LAY-3
  6
CONTINUOUS
 62
     1
100
AcDbLine
 10
609.482199
 20
626.75
 30
0.0
 11
918.5
 21
626.75
 31
0.0
  0
TEXT
  5
731
100
AcDbEntity
  8
LAY-3
  6
CONTINUOUS
 62
     3
100
AcDbText
 10
917.0
 20
688.75
 30
0.0
 40
25.0
  1
φ
 50
90.0
 41
0.84
  7
EXCADSTD
 72
     5
 11
917.0
 21
708.75
 31
0.0
100
AcDbText
  0
TEXT
  5
732
100
AcDbEntity
  8
LAY-3
  6
CONTINUOUS
 62
     3
100
AcDbText
 10
917.0
 20
713.75
 30
0.0
 40
25.0
  1
２２４
 50
90.0
 41
0.84
  7
EXCADSTD
 72
     5
 11
917.0
 21
788.75
 31
0.0
100
AcDbText
  0
LINE
  5
733
100
AcDbEntity
  8
LAY-3
  6
CONTINUOUS
 62
     1
100
AcDbLine
 10
918.0
 20
850.75
 30
0.0
 11
918.0
 21
626.75
 31
0.0
  0
LINE
  5
734
100
AcDbEntity
  8
LAY-3
  6
CONTINUOUS
 62
     1
100
AcDbLine
 10
919.666667
 20
840.75
 30
0.0
 11
918.0
 21
850.75
 31
0.0
  0
LINE
  5
735
100
AcDbEntity
  8
LAY-3
  6
CONTINUOUS
 62
     1
100
AcDbLine
 10
918.0
 20
850.75
 30
0.0
 11
916.333333
 21
840.75
 31
0.0
  0
LINE
  5
736
100
AcDbEntity
  8
LAY-3
  6
CONTINUOUS
 62
     1
100
AcDbLine
 10
916.333333
 20
636.75
 30
0.0
 11
918.0
 21
626.75
 31
0.0
  0
LINE
  5
737
100
AcDbEntity
  8
LAY-3
  6
CONTINUOUS
 62
     1
100
AcDbLine
 10
918.0
 20
626.75
 30
0.0
 11
919.666667
 21
636.75
 31
0.0
  0
POLYLINE
  5
738
100
AcDbEntity
  8
LAY-3
  6
CONTINUOUS
 62
     1
100
AcDb2dPolyline
 66
     1
 10
0.0
 20
0.0
 30
0.0
 70
   128
  0
VERTEX
  5
739
100
AcDbEntity
  8
LAY-3
  6
CONTINUOUS
 62
     1
100
AcDbVertex
100
AcDb2dVertex
 10
635.340181
 20
732.590938
 30
0.0
  0
VERTEX
  5
73A
100
AcDbEntity
  8
LAY-3
  6
CONTINUOUS
 62
     1
100
AcDbVertex
100
AcDb2dVertex
 10
669.0
 20
596.0
 30
0.0
  0
VERTEX
  5
73B
100
AcDbEntity
  8
LAY-3
  6
CONTINUOUS
 62
     1
100
AcDbVertex
100
AcDb2dVertex
 10
812.0
 20
596.0
 30
0.0
  0
SEQEND
  5
73C
100
AcDbEntity
  8
LAY-3
  6
CONTINUOUS
 62
     1
  0
LINE
  5
73D
100
AcDbEntity
  8
LAY-3
  6
CONTINUOUS
 62
     1
100
AcDbLine
 10
639.351136
 20
723.280191
 30
0.0
 11
635.340181
 21
732.590938
 31
0.0
  0
LINE
  5
73E
100
AcDbEntity
  8
LAY-3
  6
CONTINUOUS
 62
     1
100
AcDbLine
 10
635.340181
 20
732.590938
 30
0.0
 11
636.114625
 21
722.482624
 31
0.0
  0
TEXT
  5
73F
100
AcDbEntity
  8
LAY-3
  6
CONTINUOUS
 62
     3
100
AcDbText
 10
678.0
 20
596.06
 30
0.0
 40
25.0
  1
Ｒｃ１／４
 41
0.84
  7
EXCADSTD
 72
     5
 11
803.0
 21
596.06
 31
0.0
100
AcDbText
  0
POLYLINE
  5
740
100
AcDbEntity
  8
LAY-3
  6
CONTINUOUS
 62
     1
100
AcDb2dPolyline
 66
     1
 10
0.0
 20
0.0
 30
0.0
 70
   128
  0
VERTEX
  5
741
100
AcDbEntity
  8
LAY-3
  6
CONTINUOUS
 62
     1
100
AcDbVertex
100
AcDb2dVertex
 10
558.0
 20
880.25
 30
0.0
  0
VERTEX
  5
742
100
AcDbEntity
  8
LAY-3
  6
CONTINUOUS
 62
     1
100
AcDbVertex
100
AcDb2dVertex
 10
592.875
 20
915.125
 30
0.0
  0
VERTEX
  5
743
100
AcDbEntity
  8
LAY-3
  6
CONTINUOUS
 62
     1
100
AcDbVertex
100
AcDb2dVertex
 10
890.0
 20
915.125
 30
0.0
  0
SEQEND
  5
744
100
AcDbEntity
  8
LAY-3
  6
CONTINUOUS
 62
     1
  0
LINE
  5
745
100
AcDbEntity
  8
LAY-3
  6
CONTINUOUS
 62
     1
100
AcDbLine
 10
563.892557
 20
888.499579
 30
0.0
 11
558.0
 21
880.25
 31
0.0
  0
LINE
  5
746
100
AcDbEntity
  8
LAY-3
  6
CONTINUOUS
 62
     1
100
AcDbLine
 10
558.0
 20
880.25
 30
0.0
 11
566.249579
 21
886.142557
 31
0.0
  0
TEXT
  5
747
100
AcDbEntity
  8
LAY-3
  6
CONTINUOUS
 62
     3
100
AcDbText
 10
563.4375
 20
915.425
 30
0.0
 40
25.0
  1
ＪＩＳ１０Ｋ　２５Ａフランジ
 41
0.84
  7
EXCADSTD
 72
     5
 11
913.4375
 21
915.425
 31
0.0
100
AcDbText
  0
POLYLINE
  5
748
100
AcDbEntity
  8
LAY-3
  6
CONTINUOUS
 62
     1
100
AcDb2dPolyline
 66
     1
 10
0.0
 20
0.0
 30
0.0
 70
   128
  0
VERTEX
  5
749
100
AcDbEntity
  8
LAY-3
  6
CONTINUOUS
 62
     1
100
AcDbVertex
100
AcDb2dVertex
 10
492.0
 20
596.25
 30
0.0
  0
VERTEX
  5
74A
100
AcDbEntity
  8
LAY-3
  6
CONTINUOUS
 62
     1
100
AcDbVertex
100
AcDb2dVertex
 10
408.0
 20
547.505132
 30
0.0
  0
VERTEX
  5
74B
100
AcDbEntity
  8
LAY-3
  6
CONTINUOUS
 62
     1
100
AcDbVertex
100
AcDb2dVertex
 10
35.0
 20
547.505132
 30
0.0
  0
SEQEND
  5
74C
100
AcDbEntity
  8
LAY-3
  6
CONTINUOUS
 62
     1
  0
LINE
  5
74D
100
AcDbEntity
  8
LAY-3
  6
CONTINUOUS
 62
     1
100
AcDbLine
 10
484.187316
 20
589.78937
 30
0.0
 11
492.0
 21
596.25
 31
0.0
  0
LINE
  5
74E
100
AcDbEntity
  8
LAY-3
  6
CONTINUOUS
 62
     1
100
AcDbLine
 10
492.0
 20
596.25
 30
0.0
 11
482.514283
 21
592.672437
 31
0.0
  0
TEXT
  5
74F
100
AcDbEntity
  8
LAY-3
  6
CONTINUOUS
 62
     3
100
AcDbText
 10
51.571431
 20
547.805132
 30
0.0
 40
25.0
  1
ＪＩＳ１０Ｋ　２５Ａフランジ
 41
0.84
  7
EXCADSTD
 72
     5
 11
401.571431
 21
547.805132
 31
0.0
100
AcDbText
  0
LINE
  5
750
100
AcDbEntity
  8
LAY-3
  6
CONTINUOUS
 62
     1
100
AcDbLine
 10
504.5
 20
596.25
 30
0.0
 11
504.5
 21
469.5
 31
0.0
  0
LINE
  5
751
100
AcDbEntity
  8
LAY-3
  6
CONTINUOUS
 62
     1
100
AcDbLine
 10
866.707578
 20
738.75
 30
0.0
 11
866.707578
 21
469.5
 31
0.0
  0
TEXT
  5
752
100
AcDbEntity
  8
LAY-3
  6
CONTINUOUS
 62
     3
100
AcDbText
 10
623.103789
 20
471.0
 30
0.0
 40
25.0
  1
（３６３）
 41
0.84
  7
EXCADSTD
 72
     5
 11
748.103789
 21
471.0
 31
0.0
100
AcDbText
  0
LINE
  5
753
100
AcDbEntity
  8
LAY-3
  6
CONTINUOUS
 62
     1
100
AcDbLine
 10
504.5
 20
470.0
 30
0.0
 11
866.707578
 21
470.0
 31
0.0
  0
LINE
  5
754
100
AcDbEntity
  8
LAY-3
  6
CONTINUOUS
 62
     1
100
AcDbLine
 10
514.5
 20
471.666667
 30
0.0
 11
504.5
 21
470.0
 31
0.0
  0
LINE
  5
755
100
AcDbEntity
  8
LAY-3
  6
CONTINUOUS
 62
     1
100
AcDbLine
 10
504.5
 20
470.0
 30
0.0
 11
514.5
 21
468.333333
 31
0.0
  0
LINE
  5
756
100
AcDbEntity
  8
LAY-3
  6
CONTINUOUS
 62
     1
100
AcDbLine
 10
856.707578
 20
468.333333
 30
0.0
 11
866.707578
 21
470.0
 31
0.0
  0
LINE
  5
757
100
AcDbEntity
  8
LAY-3
  6
CONTINUOUS
 62
     1
100
AcDbLine
 10
866.707578
 20
470.0
 30
0.0
 11
856.707578
 21
471.666667
 31
0.0
  0
LINE
  5
758
100
AcDbEntity
  8
LAY-3
  6
CONTINUOUS
 62
     1
100
AcDbLine
 10
866.707578
 20
738.75
 30
0.0
 11
866.707578
 21
418.5
 31
0.0
  0
LINE
  5
759
100
AcDbEntity
  8
LAY-3
  6
CONTINUOUS
 62
     1
100
AcDbLine
 10
439.5
 20
720.75
 30
0.0
 11
439.5
 21
418.5
 31
0.0
  0
TEXT
  5
75A
100
AcDbEntity
  8
LAY-3
  6
CONTINUOUS
 62
     3
100
AcDbText
 10
590.603789
 20
420.0
 30
0.0
 40
25.0
  1
（４２８）
 41
0.84
  7
EXCADSTD
 72
     5
 11
715.603789
 21
420.0
 31
0.0
100
AcDbText
  0
LINE
  5
75B
100
AcDbEntity
  8
LAY-3
  6
CONTINUOUS
 62
     1
100
AcDbLine
 10
866.707578
 20
419.0
 30
0.0
 11
439.5
 21
419.0
 31
0.0
  0
LINE
  5
75C
100
AcDbEntity
  8
LAY-3
  6
CONTINUOUS
 62
     1
100
AcDbLine
 10
856.707578
 20
417.333333
 30
0.0
 11
866.707578
 21
419.0
 31
0.0
  0
LINE
  5
75D
100
AcDbEntity
  8
LAY-3
  6
CONTINUOUS
 62
     1
100
AcDbLine
 10
866.707578
 20
419.0
 30
0.0
 11
856.707578
 21
420.666667
 31
0.0
  0
LINE
  5
75E
100
AcDbEntity
  8
LAY-3
  6
CONTINUOUS
 62
     1
100
AcDbLine
 10
449.5
 20
420.666667
 30
0.0
 11
439.5
 21
419.0
 31
0.0
  0
LINE
  5
75F
100
AcDbEntity
  8
LAY-3
  6
CONTINUOUS
 62
     1
100
AcDbLine
 10
439.5
 20
419.0
 30
0.0
 11
449.5
 21
417.333333
 31
0.0
  0
TEXT
  5
760
100
AcDbEntity
  8
LAY-5
  6
CONTINUOUS
 62
     3
100
AcDbText
 10
1458.96
 20
225.64
 30
0.0
 40
20.0
  1
型式
 41
0.984714
  7
EXCADSTD
 72
     5
 11
1501.940406
 21
225.64
 31
0.0
100
AcDbText
  0
TEXT
  5
761
100
AcDbEntity
  8
LAY-5
  6
CONTINUOUS
 62
     3
100
AcDbText
 10
1458.48
 20
197.48
 30
0.0
 40
20.0
  1
品名
 41
0.984714
  7
EXCADSTD
 72
     5
 11
1501.460406
 21
197.48
 31
0.0
100
AcDbText
  0
LINE
  5
762
100
AcDbEntity
  8
LAY-5
  6
CONTINUOUS
 62
     4
100
AcDbLine
 10
1449.52
 20
169.08
 30
0.0
 11
1807.92
 21
169.08
 31
0.0
  0
LINE
  5
763
100
AcDbEntity
  8
LAY-5
  6
CONTINUOUS
 62
     1
100
AcDbLine
 10
1449.52
 20
193.48
 30
0.0
 11
1807.92
 21
193.48
 31
0.0
  0
TEXT
  5
764
100
AcDbEntity
  8
LAY-5
  6
CONTINUOUS
 62
     3
100
AcDbText
 10
1576.88
 20
171.72
 30
0.0
 40
20.0
  1
外観図
 41
1.47392
  7
EXCADSTD
 72
     5
 11
1682.159999
 21
171.72
 31
0.0
100
AcDbText
  0
LINE
  5
765
100
AcDbEntity
  8
LAY-5
  6
CONTINUOUS
 62
     4
100
AcDbLine
 10
1449.52
 20
277.48
 30
0.0
 11
1807.92
 21
277.48
 31
0.0
  0
LINE
  5
766
100
AcDbEntity
  8
LAY-5
  6
CONTINUOUS
 62
     1
100
AcDbLine
 10
1449.52
 20
221.48
 30
0.0
 11
1807.92
 21
221.48
 31
0.0
  0
LINE
  5
767
100
AcDbEntity
  8
LAY-5
  6
CONTINUOUS
 62
     1
100
AcDbLine
 10
1449.52
 20
249.48
 30
0.0
 11
1807.92
 21
249.48
 31
0.0
  0
LINE
  5
768
100
AcDbEntity
  8
LAY-5
  6
CONTINUOUS
 62
     1
100
AcDbLine
 10
1509.52
 20
277.48
 30
0.0
 11
1509.52
 21
193.48
 31
0.0
  0
LINE
  5
769
100
AcDbEntity
  8
LAY-5
  6
CONTINUOUS
 62
     4
100
AcDbLine
 10
1449.52
 20
144.68
 30
0.0
 11
1807.92
 21
144.68
 31
0.0
  0
LINE
  5
76A
100
AcDbEntity
  8
LAY-5
  6
CONTINUOUS
 62
     4
100
AcDbLine
 10
1807.92
 20
144.68
 30
0.0
 11
1807.92
 21
277.48
 31
0.0
  0
LINE
  5
76B
100
AcDbEntity
  8
LAY-5
  6
CONTINUOUS
 62
     4
100
AcDbLine
 10
1449.52
 20
144.68
 30
0.0
 11
1449.52
 21
277.48
 31
0.0
  0
TEXT
  5
76C
100
AcDbEntity
  8
LAY-5
  6
CONTINUOUS
 62
     3
100
AcDbText
 10
1452.08
 20
253.0
 30
0.0
 40
20.0
  1
作成日
 41
0.84
  7
EXCADSTD
 72
     5
 11
1512.08
 21
253.0
 31
0.0
100
AcDbText
  0
INSERT
  5
76D
100
AcDbEntity
  8
LAY-5
  6
CONTINUOUS
 62
     0
100
AcDbBlockReference
  2
SYM-1
 10
1632.298841
 20
156.653
 30
0.0
 41
3.06
 42
3.06
  0
TEXT
  5
76E
100
AcDbEntity
  8
LAY-5
  6
CONTINUOUS
 62
     3
100
AcDbText
 10
1519.456
 20
225.4
 30
0.0
 40
20.0
  1
ＮＭＦ－２５
 41
0.84
  7
EXCADSTD
 72
     5
 11
1639.456
 21
225.4
 31
0.0
100
AcDbText
  0
TEXT
  5
76F
100
AcDbEntity
  8
LAY-5
  6
CONTINUOUS
 62
     3
100
AcDbText
 10
1519.424
 20
197.496
 30
0.0
 40
20.0
  1
ＡＢガバナ
 41
0.84
  7
EXCADSTD
 72
     5
 11
1619.424
 21
197.496
 31
0.0
100
AcDbText
  0
TEXT
  5
770
100
AcDbEntity
  8
LAY-5
  6
CONTINUOUS
 62
     3
100
AcDbText
 10
1530.0
 20
253.0
 30
0.0
 40
20.0
  1
’１４年　６月１０日
 41
0.84
  7
EXCADSTD
 72
     5
 11
1730.0
 21
253.0
 31
0.0
100
AcDbText
  0
ENDSEC
  0
SECTION
  2
OBJECTS
  0
DICTIONARY
  5
19
100
AcDbDictionary
  3
ACAD_GROUP
350
1A
  3
ACAD_MLINESTYLE
350
1B
  0
DICTIONARY
  5
1A
102
{ACAD_REACTORS
330
19
102
}
100
AcDbDictionary
  0
DICTIONARY
  5
1B
102
{ACAD_REACTORS
330
19
102
}
100
AcDbDictionary
  3
STANDARD
350
1C
  0
MLINESTYLE
  5
1C
102
{ACAD_REACTORS
330
1B
102
}
100
AcDbMlineStyle
  2
Standard
 70
     0
  3

 62
     0
 51
90.0
 52
90.0
 71
     2
 49
0.5
 62
   256
  6
ByLayer
 49
-0.5
 62
   256
  6
ByLayer
  0
ENDSEC
  0
EOF
