  0
SECTION
  2
HEADER
  9
$ACADVER
  1
AC1014
  9
$ACADMAINTVER
 70
     0
  9
$DWGCODEPAGE
  3
ANSI_932
  9
$INSBASE
 10
0.0
 20
0.0
 30
0.0
  9
$EXTMIN
 10
26.954329
 20
6.802936
 30
0.0
  9
$EXTMAX
 10
579.054329
 20
403.920973
 30
0.0
  9
$LIMMIN
 10
0.0
 20
0.0
  9
$LIMMAX
 10
420.0
 20
297.0
  9
$ORTHOMODE
 70
     0
  9
$REGENMODE
 70
     1
  9
$FILLMODE
 70
     1
  9
$QTEXTMODE
 70
     0
  9
$MIRRTEXT
 70
     1
  9
$DRAGMODE
 70
     2
  9
$LTSCALE
 40
1.0
  9
$OSMODE
 70
     0
  9
$ATTMODE
 70
     1
  9
$TEXTSIZE
 40
0.2
  9
$TRACEWID
 40
0.05
  9
$TEXTSTYLE
  7
STANDARD
  9
$CLAYER
  8
LAY-1
  9
$CELTYPE
  6
CONTINUOUS
  9
$CECOLOR
 62
   256
  9
$CELTSCALE
 40
1.0
  9
$DELOBJ
 70
     1
  9
$DISPSILH
 70
     0
  9
$DIMSCALE
 40
1.0
  9
$DIMASZ
 40
0.18
  9
$DIMEXO
 40
0.0625
  9
$DIMDLI
 40
0.38
  9
$DIMRND
 40
0.0
  9
$DIMDLE
 40
0.0
  9
$DIMEXE
 40
0.18
  9
$DIMTP
 40
0.0
  9
$DIMTM
 40
0.0
  9
$DIMTXT
 40
0.18
  9
$DIMCEN
 40
0.09
  9
$DIMTSZ
 40
0.0
  9
$DIMTOL
 70
     0
  9
$DIMLIM
 70
     0
  9
$DIMTIH
 70
     1
  9
$DIMTOH
 70
     1
  9
$DIMSE1
 70
     0
  9
$DIMSE2
 70
     0
  9
$DIMTAD
 70
     0
  9
$DIMZIN
 70
     0
  9
$DIMBLK
  1

  9
$DIMASO
 70
     1
  9
$DIMSHO
 70
     1
  9
$DIMPOST
  1

  9
$DIMAPOST
  1

  9
$DIMALT
 70
     0
  9
$DIMALTD
 70
     2
  9
$DIMALTF
 40
25.4
  9
$DIMLFAC
 40
1.0
  9
$DIMTOFL
 70
     0
  9
$DIMTVP
 40
0.0
  9
$DIMTIX
 70
     0
  9
$DIMSOXD
 70
     0
  9
$DIMSAH
 70
     0
  9
$DIMBLK1
  1

  9
$DIMBLK2
  1

  9
$DIMSTYLE
  2
STANDARD
  9
$DIMCLRD
 70
     0
  9
$DIMCLRE
 70
     0
  9
$DIMCLRT
 70
     0
  9
$DIMTFAC
 40
1.0
  9
$DIMGAP
 40
0.09
  9
$DIMJUST
 70
     0
  9
$DIMSD1
 70
     0
  9
$DIMSD2
 70
     0
  9
$DIMTOLJ
 70
     1
  9
$DIMTZIN
 70
     0
  9
$DIMALTZ
 70
     0
  9
$DIMALTTZ
 70
     0
  9
$DIMFIT
 70
     3
  9
$DIMUPT
 70
     0
  9
$DIMUNIT
 70
     2
  9
$DIMDEC
 70
     4
  9
$DIMTDEC
 70
     4
  9
$DIMALTU
 70
     2
  9
$DIMALTTD
 70
     2
  9
$DIMTXSTY
  7
STANDARD
  9
$DIMAUNIT
 70
     0
  9
$LUNITS
 70
     2
  9
$LUPREC
 70
     4
  9
$SKETCHINC
 40
0.1
  9
$FILLETRAD
 40
0.0
  9
$AUNITS
 70
     0
  9
$AUPREC
 70
     0
  9
$MENU
  1
acad
  9
$ELEVATION
 40
0.0
  9
$PELEVATION
 40
0.0
  9
$THICKNESS
 40
0.0
  9
$LIMCHECK
 70
     0
  9
$BLIPMODE
 70
     1
  9
$CHAMFERA
 40
0.0
  9
$CHAMFERB
 40
0.0
  9
$CHAMFERC
 40
0.0
  9
$CHAMFERD
 40
0.0
  9
$SKPOLY
 70
     0
  9
$TDCREATE
 40
2456744.144865185
  9
$TDUPDATE
 40
2456744.144865185
  9
$TDINDWG
 40
0.0000000000
  9
$TDUSRTIMER
 40
0.0000000000
  9
$USRTIMER
 70
     1
  9
$ANGBASE
 50
0.0
  9
$ANGDIR
 70
     0
  9
$PDMODE
 70
     0
  9
$PDSIZE
 40
0.0
  9
$PLINEWID
 40
0.0
  9
$COORDS
 70
     1
  9
$SPLFRAME
 70
     0
  9
$SPLINETYPE
 70
     6
  9
$SPLINESEGS
 70
     8
  9
$ATTDIA
 70
     0
  9
$ATTREQ
 70
     1
  9
$HANDLING
 70
     1
  9
$HANDSEED
  5
3D8
  9
$SURFTAB1
 70
     6
  9
$SURFTAB2
 70
     6
  9
$SURFTYPE
 70
     6
  9
$SURFU
 70
     6
  9
$SURFV
 70
     6
  9
$UCSNAME
  2

  9
$UCSORG
 10
0.0
 20
0.0
 30
0.0
  9
$UCSXDIR
 10
1.0
 20
0.0
 30
0.0
  9
$UCSYDIR
 10
0.0
 20
1.0
 30
0.0
  9
$PUCSNAME
  2

  9
$PUCSORG
 10
0.0
 20
0.0
 30
0.0
  9
$PUCSXDIR
 10
1.0
 20
0.0
 30
0.0
  9
$PUCSYDIR
 10
0.0
 20
1.0
 30
0.0
  9
$USERI1
 70
     0
  9
$USERI2
 70
     0
  9
$USERI3
 70
     0
  9
$USERI4
 70
     0
  9
$USERI5
 70
     0
  9
$USERR1
 40
0.0
  9
$USERR2
 40
0.0
  9
$USERR3
 40
0.0
  9
$USERR4
 40
0.0
  9
$USERR5
 40
0.0
  9
$WORLDVIEW
 70
     1
  9
$SHADEDGE
 70
     3
  9
$SHADEDIF
 70
    70
  9
$TILEMODE
 70
     1
  9
$MAXACTVP
 70
    16
  9
$PINSBASE
 10
0.0
 20
0.0
 30
0.0
  9
$PLIMCHECK
 70
     0
  9
$PEXTMIN
 10
1.000000E+20
 20
1.000000E+20
 30
1.000000E+20
  9
$PEXTMAX
 10
-1.000000E+20
 20
-1.000000E+20
 30
-1.000000E+20
  9
$PLIMMIN
 10
0.0
 20
0.0
  9
$PLIMMAX
 10
12.0
 20
9.0
  9
$UNITMODE
 70
     0
  9
$VISRETAIN
 70
     0
  9
$PLINEGEN
 70
     1
  9
$PSLTSCALE
 70
     0
  9
$TREEDEPTH
 70
  3020
  9
$PICKSTYLE
 70
     1
  9
$CMLSTYLE
  2
Standard
  9
$CMLJUST
 70
     0
  9
$CMLSCALE
 40
1.0
  9
$PROXYGRAPHICS
 70
     0
  9
$MEASUREMENT
 70
     0
  0
ENDSEC
  0
SECTION
  2
CLASSES
  0
CLASS
  1
LWPOLYLINE
  2
AcDbPolyline
  3
"AutoCAD"
 90
        0
280
     0
281
     1
  0
CLASS
  1
IMAGE
  2
AcDbRasterImage
  3
ISM
 90
      127
280
     0
281
     1
  0
CLASS
  1
OLE2FRAME
  2
AcDbOle2Frame
  3
""
 90
        0
280
     0
281
     1
  0
CLASS
  1
HATCH
  2
AcDbHatch
  3
"ACAD_SEDONA"
 90
        0
280
     0
281
     1
  0
CLASS
  1
DICTIONARYVAR
  2
AcDbDictionaryVar
  3
"AutoCAD"
 90
        0
280
     0
281
     0
  0
CLASS
  1
RASTERVARIABLES
  2
AcDbRasterVariables
  3
ISM
 90
        0
280
     0
281
     0
  0
CLASS
  1
IMAGEDEF
  2
AcDbRasterImageDef
  3
ISM
 90
        0
280
     0
281
     0
  0
CLASS
  1
IMAGEDEF_REACTOR
  2
AcDbRasterImageDefReactor
  3
ISM
 90
        1
280
     0
281
     0
  0
CLASS
  1
IDBUFFER
  2
AcDbIdBuffer
  3
"Acad"
 90
        0
280
     0
281
     0
  0
CLASS
  1
SPATIAL_FILTER
  2
AcDbSpatialFilter
  3
"Acad"
 90
        0
280
     0
281
     0
  0
CLASS
  1
XRECORD
  2
AcDbXrecord
  3
"<Built In>"
 90
        0
280
     0
281
     0
  0
CLASS
  1
SORTENTSTABLE
  2
AcDbSortentsTable
  3
"AutoCAD"
 90
        0
280
     0
281
     0
  0
CLASS
  1
LAYER_INDEX
  2
AcDbLayerIndex
  3
"Acad"
 90
        0
280
     0
281
     0
  0
CLASS
  1
SPATIAL_INDEX
  2
AcDbSpatialIndex
  3
"Acad"
 90
        0
280
     0
281
     0
  0
CLASS
  1
OBJECT_PTR
  2
CAseDLPNTableRecord
  3
"ASE-LPNTableRecord"
 90
        1
280
     0
281
     0
  0
CLASS
  1
LAYOUT
  2
AcDbLayout
  3
"AutoCAD 2000"
 90
        0
280
     0
281
     0
  0
CLASS
  1
PLOTSETTINGS
  2
AcDbPlotSettings
  3
"AutoCAD 2000"
 90
        0
280
     0
281
     0
  0
CLASS
  1
ACDBDICTIONARYWDFLT
  2
AcDbDictionaryWithDefault
  3
"AutoCAD 2000"
 90
        0
280
     0
281
     0
  0
CLASS
  1
ACDBPLACEHOLDER
  2
AcDbPlaceHolder
  3
"AutoCAD 2000"
 90
        0
280
     0
281
     0
  0
CLASS
  1
VBA_PROJECT
  2
AcDbVbaProject
  3
"acadvba"
 90
        0
280
     0
281
     0
  0
CLASS
  1
WIPEOUT
  2
AcDbWipeout
  3
WipeOut|AutoCAD Express Tool|expresstools@autodesk.com
 90
      127
280
     0
281
     1
  0
CLASS
  1
WIPEOUTVARIABLES
  2
AcDbWipeoutVariables
  3
WipeOut|AutoCAD Express Tool|expresstools@autodesk.com
 90
        0
280
     0
281
     0
  0
CLASS
  1
RTEXT
  2
RText
  3
RText|AutoCAD Express Tool|expresstools@autodesk.com
 90
        0
280
     0
281
     1
  0
CLASS
  1
ARCALIGNEDTEXT
  2
AcDbArcAlignedText
  3
ATEXT|AutoCAD Express Tool|expresstools@autodesk.com
 90
        0
280
     0
281
     1
  0
ENDSEC
  0
SECTION
  2
TABLES
  0
TABLE
  2
VPORT
  5
7
100
AcDbSymbolTable
 70
     1
  0
VPORT
  5
15
100
AcDbSymbolTableRecord
100
AcDbViewportTableRecord
  2
*ACTIVE
 70
     0
 10
0.0
 20
0.0
 11
1.0
 21
1.0
 12
303.004329
 22
205.361954
 13
0.0
 23
0.0
 14
1.0
 24
1.0
 15
0.0
 25
0.0
 16
0.0
 26
0.0
 36
1.0
 17
0.0
 27
0.0
 37
0.0
 40
397.118038
 41
1.722533
 42
50.0
 43
0.0
 44
0.0
 50
0.0
 51
0.0
 71
     0
 72
  1000
 73
     1
 74
     1
 75
     0
 76
     0
 77
     0
 78
     0
  0
ENDTAB
  0
TABLE
  2
LTYPE
  5
4
100
AcDbSymbolTable
 70
     9
  0
LTYPE
  5
11
100
AcDbSymbolTableRecord
100
AcDbLinetypeTableRecord
  2
BYBLOCK
 70
    64
  3

 72
    65
 73
     0
 40
0.0
  0
LTYPE
  5
12
100
AcDbSymbolTableRecord
100
AcDbLinetypeTableRecord
  2
BYLAYER
 70
    64
  3

 72
    65
 73
     0
 40
0.0
  0
LTYPE
  5
13
100
AcDbSymbolTableRecord
100
AcDbLinetypeTableRecord
  2
CONTINUOUS
 70
    64
  3
実線
 72
    65
 73
     0
 40
0.0
  0
LTYPE
  5
1D
100
AcDbSymbolTableRecord
100
AcDbLinetypeTableRecord
  2
EXLTYPE1
 70
    64
  3
破線
 72
    65
 73
     2
 40
4.0
 49
2.0
 74
     0
 49
-2.0
 74
     0
  0
LTYPE
  5
1E
100
AcDbSymbolTableRecord
100
AcDbLinetypeTableRecord
  2
EXLTYPE2
 70
    64
  3
点線
 72
    65
 73
     2
 40
2.0
 49
1.0
 74
     0
 49
-1.0
 74
     0
  0
LTYPE
  5
1F
100
AcDbSymbolTableRecord
100
AcDbLinetypeTableRecord
  2
EXLTYPE3
 70
    64
  3
一点鎖線
 72
    65
 73
     4
 40
7.0
 49
4.0
 74
     0
 49
-1.0
 74
     0
 49
1.0
 74
     0
 49
-1.0
 74
     0
  0
LTYPE
  5
20
100
AcDbSymbolTableRecord
100
AcDbLinetypeTableRecord
  2
EXLTYPE4
 70
    64
  3
二点鎖線
 72
    65
 73
     6
 40
9.0
 49
4.0
 74
     0
 49
-1.0
 74
     0
 49
1.0
 74
     0
 49
-1.0
 74
     0
 49
1.0
 74
     0
 49
-1.0
 74
     0
  0
LTYPE
  5
21
100
AcDbSymbolTableRecord
100
AcDbLinetypeTableRecord
  2
EXLTYPE5
 70
    64
  3
三点鎖線
 72
    65
 73
     8
 40
37.0
 49
30.0
 74
     0
 49
-1.0
 74
     0
 49
1.0
 74
     0
 49
-1.0
 74
     0
 49
1.0
 74
     0
 49
-1.0
 74
     0
 49
1.0
 74
     0
 49
-1.0
 74
     0
  0
LTYPE
  5
22
100
AcDbSymbolTableRecord
100
AcDbLinetypeTableRecord
  2
EXLTYPE6
 70
    64
  3
四点鎖線
 72
    65
 73
    10
 40
39.0
 49
30.0
 74
     0
 49
-1.0
 74
     0
 49
1.0
 74
     0
 49
-1.0
 74
     0
 49
1.0
 74
     0
 49
-1.0
 74
     0
 49
1.0
 74
     0
 49
-1.0
 74
     0
 49
1.0
 74
     0
 49
-1.0
 74
     0
  0
ENDTAB
  0
TABLE
  2
LAYER
  5
2
100
AcDbSymbolTable
 70
     3
  0
LAYER
  5
14
100
AcDbSymbolTableRecord
100
AcDbLayerTableRecord
  2
0
 70
     0
 62
     7
  6
CONTINUOUS
  0
LAYER
  5
25
100
AcDbSymbolTableRecord
100
AcDbLayerTableRecord
  2
LAY-1
 70
    64
 62
     7
  6
CONTINUOUS
  0
LAYER
  5
26
100
AcDbSymbolTableRecord
100
AcDbLayerTableRecord
  2
LAY-3
 70
    64
 62
     1
  6
CONTINUOUS
  0
ENDTAB
  0
TABLE
  2
STYLE
  5
3
100
AcDbSymbolTable
 70
     3
  0
STYLE
  5
17
100
AcDbSymbolTableRecord
100
AcDbTextStyleTableRecord
  2
STANDARD
 70
     0
 40
0.0
 41
1.0
 50
0.0
 71
     0
 42
0.0
  3
monotxt
  4
extfont
  0
STYLE
  5
23
100
AcDbSymbolTableRecord
100
AcDbTextStyleTableRecord
  2
EXCADSTD
 70
    64
 40
0.0
 41
1.0
 50
0.0
 71
     0
 42
0.2
  3
monotxt
  4
extfont
  0
STYLE
  5
24
100
AcDbSymbolTableRecord
100
AcDbTextStyleTableRecord
  2
EXCADVERT
 70
    68
 40
0.0
 41
1.0
 50
0.0
 71
     0
 42
0.286885
  3
monotxt
  4
extfont
  0
ENDTAB
  0
TABLE
  2
VIEW
  5
5
100
AcDbSymbolTable
 70
     0
  0
ENDTAB
  0
TABLE
  2
UCS
  5
6
100
AcDbSymbolTable
 70
     0
  0
ENDTAB
  0
TABLE
  2
APPID
  5
8
100
AcDbSymbolTable
 70
     1
  0
APPID
  5
16
100
AcDbSymbolTableRecord
100
AcDbRegAppTableRecord
  2
ACAD
 70
     0
  0
ENDTAB
  0
TABLE
  2
DIMSTYLE
  5
9
100
AcDbSymbolTable
 70
     1
  0
DIMSTYLE
105
18
100
AcDbSymbolTableRecord
100
AcDbDimStyleTableRecord
  2
STANDARD
 70
     0
  3

  4

  5

  6

  7

 40
1.0
 41
0.18
 42
0.0625
 43
0.38
 44
0.18
 45
0.0
 46
0.0
 47
0.0
 48
0.0
 71
     0
 72
     0
 73
     1
 74
     1
 75
     0
 76
     0
 77
     0
 78
     0
140
0.18
141
0.09
142
0.0
143
25.4
144
1.0
145
0.0
146
1.0
147
0.09
170
     0
171
     2
172
     1
173
     0
174
     0
175
     0
176
     0
177
     0
178
     0
270
     2
271
     4
272
     4
273
     2
274
     2
275
     0
280
     0
281
     0
282
     0
283
     1
284
     0
285
     0
286
     0
287
     3
288
     0
340
17
  0
ENDTAB
  0
TABLE
  2
BLOCK_RECORD
  5
1
100
AcDbSymbolTable
 70
    14
  0
BLOCK_RECORD
  5
A
100
AcDbSymbolTableRecord
100
AcDbBlockTableRecord
  2
*MODEL_SPACE
  0
BLOCK_RECORD
  5
B
100
AcDbSymbolTableRecord
100
AcDbBlockTableRecord
  2
*PAPER_SPACE
  0
BLOCK_RECORD
  5
27
100
AcDbSymbolTableRecord
100
AcDbBlockTableRecord
  2
_EX_NORM
  0
BLOCK_RECORD
  5
28
100
AcDbSymbolTableRecord
100
AcDbBlockTableRecord
  2
_EX_BNORM
  0
BLOCK_RECORD
  5
29
100
AcDbSymbolTableRecord
100
AcDbBlockTableRecord
  2
_EX_BCIR
  0
BLOCK_RECORD
  5
2A
100
AcDbSymbolTableRecord
100
AcDbBlockTableRecord
  2
_EX_RCIVIL
  0
BLOCK_RECORD
  5
2B
100
AcDbSymbolTableRecord
100
AcDbBlockTableRecord
  2
_EX_SLANT
  0
BLOCK_RECORD
  5
2C
100
AcDbSymbolTableRecord
100
AcDbBlockTableRecord
  2
_EX_NONE
  0
BLOCK_RECORD
  5
2D
100
AcDbSymbolTableRecord
100
AcDbBlockTableRecord
  2
_EX_CIVIL
  0
BLOCK_RECORD
  5
2E
100
AcDbSymbolTableRecord
100
AcDbBlockTableRecord
  2
_EX_WCIR
  0
BLOCK_RECORD
  5
2F
100
AcDbSymbolTableRecord
100
AcDbBlockTableRecord
  2
_EX_WCIR2
  0
BLOCK_RECORD
  5
30
100
AcDbSymbolTableRecord
100
AcDbBlockTableRecord
  2
_EX_WNORM
  0
BLOCK_RECORD
  5
31
100
AcDbSymbolTableRecord
100
AcDbBlockTableRecord
  2
_EX_NNORM
  0
BLOCK_RECORD
  5
32
100
AcDbSymbolTableRecord
100
AcDbBlockTableRecord
  2
_EX_BBOX
  0
BLOCK_RECORD
  5
33
100
AcDbSymbolTableRecord
100
AcDbBlockTableRecord
  2
_EX_WBOX
  0
BLOCK_RECORD
  5
34
100
AcDbSymbolTableRecord
100
AcDbBlockTableRecord
  2
_EX_INTEGRAL
  0
ENDTAB
  0
ENDSEC
  0
SECTION
  2
BLOCKS
  0
BLOCK
  5
D
100
AcDbEntity
  8
0
100
AcDbBlockBegin
  2
*MODEL_SPACE
 70
     0
 10
0.0
 20
0.0
 30
0.0
  3
*MODEL_SPACE
  1

  0
ENDBLK
  5
E
100
AcDbEntity
  8
0
100
AcDbBlockEnd
  0
BLOCK
  5
F
100
AcDbEntity
 67
     1
  8
0
100
AcDbBlockBegin
  2
*PAPER_SPACE
 70
     0
 10
0.0
 20
0.0
 30
0.0
  3
*PAPER_SPACE
  1

  0
ENDBLK
  5
10
100
AcDbEntity
 67
     1
  8
0
100
AcDbBlockEnd
  0
BLOCK
  5
35
100
AcDbEntity
  8
0
100
AcDbBlockBegin
  2
_EX_NORM
 70
     0
 10
0.0
 20
0.0
 30
0.0
  3
_EX_NORM
  1

  0
LINE
  5
36
100
AcDbEntity
  8
0
  6
CONTINUOUS
 62
     0
100
AcDbLine
 10
0.0
 20
0.0
 30
0.0
 11
-1.0
 21
0.0
 31
0.0
  0
LINE
  5
37
100
AcDbEntity
  8
0
  6
CONTINUOUS
 62
     0
100
AcDbLine
 10
0.0
 20
0.0
 30
0.0
 11
-1.0
 21
0.166667
 31
0.0
  0
LINE
  5
38
100
AcDbEntity
  8
0
  6
CONTINUOUS
 62
     0
100
AcDbLine
 10
0.0
 20
0.0
 30
0.0
 11
-1.0
 21
-0.166667
 31
0.0
  0
ENDBLK
  5
39
100
AcDbEntity
  8
0
100
AcDbBlockEnd
  0
BLOCK
  5
3A
100
AcDbEntity
  8
0
100
AcDbBlockBegin
  2
_EX_BNORM
 70
     0
 10
0.0
 20
0.0
 30
0.0
  3
_EX_BNORM
  1

  0
LINE
  5
3B
100
AcDbEntity
  8
0
  6
CONTINUOUS
 62
     0
100
AcDbLine
 10
0.0
 20
0.0
 30
0.0
 11
-1.0
 21
0.0
 31
0.0
  0
LINE
  5
3C
100
AcDbEntity
  8
0
  6
CONTINUOUS
 62
     0
100
AcDbLine
 10
0.0
 20
0.0
 30
0.0
 11
-1.0
 21
0.166667
 31
0.0
  0
LINE
  5
3D
100
AcDbEntity
  8
0
  6
CONTINUOUS
 62
     0
100
AcDbLine
 10
0.0
 20
0.0
 30
0.0
 11
-1.0
 21
-0.166667
 31
0.0
  0
LINE
  5
3E
100
AcDbEntity
  8
0
  6
CONTINUOUS
 62
     0
100
AcDbLine
 10
0.0
 20
0.0
 30
0.0
 11
-1.0
 21
0.083333
 31
0.0
  0
LINE
  5
3F
100
AcDbEntity
  8
0
  6
CONTINUOUS
 62
     0
100
AcDbLine
 10
0.0
 20
0.0
 30
0.0
 11
-1.0
 21
-0.083333
 31
0.0
  0
LINE
  5
40
100
AcDbEntity
  8
0
  6
CONTINUOUS
 62
     0
100
AcDbLine
 10
-1.0
 20
0.166667
 30
0.0
 11
-1.0
 21
-0.166667
 31
0.0
  0
ENDBLK
  5
41
100
AcDbEntity
  8
0
100
AcDbBlockEnd
  0
BLOCK
  5
42
100
AcDbEntity
  8
0
100
AcDbBlockBegin
  2
_EX_BCIR
 70
     0
 10
0.0
 20
0.0
 30
0.0
  3
_EX_BCIR
  1

  0
LINE
  5
43
100
AcDbEntity
  8
0
  6
CONTINUOUS
 62
     0
100
AcDbLine
 10
0.0
 20
0.0
 30
0.0
 11
-1.0
 21
0.0
 31
0.0
  0
CIRCLE
  5
44
100
AcDbEntity
  8
0
  6
CONTINUOUS
 62
     0
100
AcDbCircle
 10
0.0
 20
0.0
 30
0.0
 40
0.5
  0
CIRCLE
  5
45
100
AcDbEntity
  8
0
  6
CONTINUOUS
 62
     0
100
AcDbCircle
 10
0.0
 20
0.0
 30
0.0
 40
0.25
  0
ENDBLK
  5
46
100
AcDbEntity
  8
0
100
AcDbBlockEnd
  0
BLOCK
  5
47
100
AcDbEntity
  8
0
100
AcDbBlockBegin
  2
_EX_RCIVIL
 70
     0
 10
0.0
 20
0.0
 30
0.0
  3
_EX_RCIVIL
  1

  0
LINE
  5
48
100
AcDbEntity
  8
0
  6
CONTINUOUS
 62
     0
100
AcDbLine
 10
0.0
 20
0.0
 30
0.0
 11
-1.0
 21
0.0
 31
0.0
  0
LINE
  5
49
100
AcDbEntity
  8
0
  6
CONTINUOUS
 62
     0
100
AcDbLine
 10
-1.0
 20
-0.25
 30
0.0
 11
0.0
 21
-0.25
 31
0.0
  0
LINE
  5
4A
100
AcDbEntity
  8
0
  6
CONTINUOUS
 62
     0
100
AcDbLine
 10
-1.0
 20
-0.125
 30
0.0
 11
0.0
 21
-0.125
 31
0.0
  0
ENDBLK
  5
4B
100
AcDbEntity
  8
0
100
AcDbBlockEnd
  0
BLOCK
  5
4C
100
AcDbEntity
  8
0
100
AcDbBlockBegin
  2
_EX_SLANT
 70
     0
 10
0.0
 20
0.0
 30
0.0
  3
_EX_SLANT
  1

  0
LINE
  5
4D
100
AcDbEntity
  8
0
  6
CONTINUOUS
 62
     0
100
AcDbLine
 10
0.0
 20
0.0
 30
0.0
 11
-1.0
 21
0.0
 31
0.0
  0
LINE
  5
4E
100
AcDbEntity
  8
0
  6
CONTINUOUS
 62
     0
100
AcDbLine
 10
0.707107
 20
0.707107
 30
0.0
 11
-0.707107
 21
-0.707107
 31
0.0
  0
ENDBLK
  5
4F
100
AcDbEntity
  8
0
100
AcDbBlockEnd
  0
BLOCK
  5
50
100
AcDbEntity
  8
0
100
AcDbBlockBegin
  2
_EX_NONE
 70
     0
 10
0.0
 20
0.0
 30
0.0
  3
_EX_NONE
  1

  0
LINE
  5
51
100
AcDbEntity
  8
0
  6
CONTINUOUS
 62
     0
100
AcDbLine
 10
0.0
 20
0.0
 30
0.0
 11
-1.0
 21
0.0
 31
0.0
  0
ENDBLK
  5
52
100
AcDbEntity
  8
0
100
AcDbBlockEnd
  0
BLOCK
  5
53
100
AcDbEntity
  8
0
100
AcDbBlockBegin
  2
_EX_CIVIL
 70
     0
 10
0.0
 20
0.0
 30
0.0
  3
_EX_CIVIL
  1

  0
LINE
  5
54
100
AcDbEntity
  8
0
  6
CONTINUOUS
 62
     0
100
AcDbLine
 10
0.0
 20
0.0
 30
0.0
 11
-1.0
 21
0.0
 31
0.0
  0
LINE
  5
55
100
AcDbEntity
  8
0
  6
CONTINUOUS
 62
     0
100
AcDbLine
 10
-1.0
 20
0.25
 30
0.0
 11
0.0
 21
0.25
 31
0.0
  0
LINE
  5
56
100
AcDbEntity
  8
0
  6
CONTINUOUS
 62
     0
100
AcDbLine
 10
-1.0
 20
0.125
 30
0.0
 11
0.0
 21
0.125
 31
0.0
  0
ENDBLK
  5
57
100
AcDbEntity
  8
0
100
AcDbBlockEnd
  0
BLOCK
  5
58
100
AcDbEntity
  8
0
100
AcDbBlockBegin
  2
_EX_WCIR
 70
     0
 10
0.0
 20
0.0
 30
0.0
  3
_EX_WCIR
  1

  0
LINE
  5
59
100
AcDbEntity
  8
0
  6
CONTINUOUS
 62
     0
100
AcDbLine
 10
0.0
 20
0.0
 30
0.0
 11
-1.0
 21
0.0
 31
0.0
  0
CIRCLE
  5
5A
100
AcDbEntity
  8
0
  6
CONTINUOUS
 62
     0
100
AcDbCircle
 10
0.0
 20
0.0
 30
0.0
 40
0.5
  0
ENDBLK
  5
5B
100
AcDbEntity
  8
0
100
AcDbBlockEnd
  0
BLOCK
  5
5C
100
AcDbEntity
  8
0
100
AcDbBlockBegin
  2
_EX_WCIR2
 70
     0
 10
0.0
 20
0.0
 30
0.0
  3
_EX_WCIR2
  1

  0
LINE
  5
5D
100
AcDbEntity
  8
0
  6
CONTINUOUS
 62
     0
100
AcDbLine
 10
-0.5
 20
0.0
 30
0.0
 11
-1.0
 21
0.0
 31
0.0
  0
CIRCLE
  5
5E
100
AcDbEntity
  8
0
  6
CONTINUOUS
 62
     0
100
AcDbCircle
 10
0.0
 20
0.0
 30
0.0
 40
0.5
  0
ENDBLK
  5
5F
100
AcDbEntity
  8
0
100
AcDbBlockEnd
  0
BLOCK
  5
60
100
AcDbEntity
  8
0
100
AcDbBlockBegin
  2
_EX_WNORM
 70
     0
 10
0.0
 20
0.0
 30
0.0
  3
_EX_WNORM
  1

  0
LINE
  5
61
100
AcDbEntity
  8
0
  6
CONTINUOUS
 62
     0
100
AcDbLine
 10
-1.0
 20
0.0
 30
0.0
 11
-1.0
 21
0.0
 31
0.0
  0
LINE
  5
62
100
AcDbEntity
  8
0
  6
CONTINUOUS
 62
     0
100
AcDbLine
 10
0.0
 20
0.0
 30
0.0
 11
-1.0
 21
0.166667
 31
0.0
  0
LINE
  5
63
100
AcDbEntity
  8
0
  6
CONTINUOUS
 62
     0
100
AcDbLine
 10
0.0
 20
0.0
 30
0.0
 11
-1.0
 21
-0.166667
 31
0.0
  0
LINE
  5
64
100
AcDbEntity
  8
0
  6
CONTINUOUS
 62
     0
100
AcDbLine
 10
-1.0
 20
0.166667
 30
0.0
 11
-1.0
 21
-0.166667
 31
0.0
  0
ENDBLK
  5
65
100
AcDbEntity
  8
0
100
AcDbBlockEnd
  0
BLOCK
  5
66
100
AcDbEntity
  8
0
100
AcDbBlockBegin
  2
_EX_NNORM
 70
     0
 10
0.0
 20
0.0
 30
0.0
  3
_EX_NNORM
  1

  0
LINE
  5
67
100
AcDbEntity
  8
0
  6
CONTINUOUS
 62
     0
100
AcDbLine
 10
0.0
 20
0.0
 30
0.0
 11
-1.0
 21
0.0
 31
0.0
  0
LINE
  5
68
100
AcDbEntity
  8
0
  6
CONTINUOUS
 62
     0
100
AcDbLine
 10
0.0
 20
0.0
 30
0.0
 11
-1.0
 21
0.166667
 31
0.0
  0
LINE
  5
69
100
AcDbEntity
  8
0
  6
CONTINUOUS
 62
     0
100
AcDbLine
 10
0.0
 20
0.0
 30
0.0
 11
-1.0
 21
-0.166667
 31
0.0
  0
LINE
  5
6A
100
AcDbEntity
  8
0
  6
CONTINUOUS
 62
     0
100
AcDbLine
 10
-1.0
 20
0.166667
 30
0.0
 11
-1.0
 21
-0.166667
 31
0.0
  0
ENDBLK
  5
6B
100
AcDbEntity
  8
0
100
AcDbBlockEnd
  0
BLOCK
  5
6C
100
AcDbEntity
  8
0
100
AcDbBlockBegin
  2
_EX_BBOX
 70
     0
 10
0.0
 20
0.0
 30
0.0
  3
_EX_BBOX
  1

  0
LINE
  5
6D
100
AcDbEntity
  8
0
  6
CONTINUOUS
 62
     0
100
AcDbLine
 10
0.0
 20
0.0
 30
0.0
 11
-1.0
 21
0.0
 31
0.0
  0
LINE
  5
6E
100
AcDbEntity
  8
0
  6
CONTINUOUS
 62
     0
100
AcDbLine
 10
-0.5
 20
0.5
 30
0.0
 11
0.5
 21
0.5
 31
0.0
  0
LINE
  5
6F
100
AcDbEntity
  8
0
  6
CONTINUOUS
 62
     0
100
AcDbLine
 10
0.5
 20
0.5
 30
0.0
 11
0.5
 21
-0.5
 31
0.0
  0
LINE
  5
70
100
AcDbEntity
  8
0
  6
CONTINUOUS
 62
     0
100
AcDbLine
 10
0.5
 20
-0.5
 30
0.0
 11
-0.5
 21
-0.5
 31
0.0
  0
LINE
  5
71
100
AcDbEntity
  8
0
  6
CONTINUOUS
 62
     0
100
AcDbLine
 10
-0.5
 20
-0.5
 30
0.0
 11
-0.5
 21
0.5
 31
0.0
  0
LINE
  5
72
100
AcDbEntity
  8
0
  6
CONTINUOUS
 62
     0
100
AcDbLine
 10
-0.25
 20
0.25
 30
0.0
 11
0.25
 21
0.25
 31
0.0
  0
LINE
  5
73
100
AcDbEntity
  8
0
  6
CONTINUOUS
 62
     0
100
AcDbLine
 10
0.25
 20
0.25
 30
0.0
 11
0.25
 21
-0.25
 31
0.0
  0
LINE
  5
74
100
AcDbEntity
  8
0
  6
CONTINUOUS
 62
     0
100
AcDbLine
 10
0.25
 20
-0.25
 30
0.0
 11
-0.25
 21
-0.25
 31
0.0
  0
LINE
  5
75
100
AcDbEntity
  8
0
  6
CONTINUOUS
 62
     0
100
AcDbLine
 10
-0.25
 20
-0.25
 30
0.0
 11
-0.25
 21
0.25
 31
0.0
  0
ENDBLK
  5
76
100
AcDbEntity
  8
0
100
AcDbBlockEnd
  0
BLOCK
  5
77
100
AcDbEntity
  8
0
100
AcDbBlockBegin
  2
_EX_WBOX
 70
     0
 10
0.0
 20
0.0
 30
0.0
  3
_EX_WBOX
  1

  0
LINE
  5
78
100
AcDbEntity
  8
0
  6
CONTINUOUS
 62
     0
100
AcDbLine
 10
-0.5
 20
0.0
 30
0.0
 11
-1.0
 21
0.0
 31
0.0
  0
LINE
  5
79
100
AcDbEntity
  8
0
  6
CONTINUOUS
 62
     0
100
AcDbLine
 10
-0.5
 20
0.5
 30
0.0
 11
0.5
 21
0.5
 31
0.0
  0
LINE
  5
7A
100
AcDbEntity
  8
0
  6
CONTINUOUS
 62
     0
100
AcDbLine
 10
0.5
 20
0.5
 30
0.0
 11
0.5
 21
-0.5
 31
0.0
  0
LINE
  5
7B
100
AcDbEntity
  8
0
  6
CONTINUOUS
 62
     0
100
AcDbLine
 10
0.5
 20
-0.5
 30
0.0
 11
-0.5
 21
-0.5
 31
0.0
  0
LINE
  5
7C
100
AcDbEntity
  8
0
  6
CONTINUOUS
 62
     0
100
AcDbLine
 10
-0.5
 20
-0.5
 30
0.0
 11
-0.5
 21
0.5
 31
0.0
  0
ENDBLK
  5
7D
100
AcDbEntity
  8
0
100
AcDbBlockEnd
  0
BLOCK
  5
7E
100
AcDbEntity
  8
0
100
AcDbBlockBegin
  2
_EX_INTEGRAL
 70
     0
 10
0.0
 20
0.0
 30
0.0
  3
_EX_INTEGRAL
  1

  0
LINE
  5
7F
100
AcDbEntity
  8
0
  6
CONTINUOUS
 62
     0
100
AcDbLine
 10
0.0
 20
0.0
 30
0.0
 11
-1.0
 21
0.0
 31
0.0
  0
ARC
  5
80
100
AcDbEntity
  8
0
  6
CONTINUOUS
 62
     0
100
AcDbCircle
 10
0.542115
 20
0.164992
 30
0.0
 40
0.56667
100
AcDbArc
 50
73.07249
 51
196.927513
  0
ARC
  5
81
100
AcDbEntity
  8
0
  6
CONTINUOUS
 62
     0
100
AcDbCircle
 10
-0.542115
 20
-0.164992
 30
0.0
 40
0.56667
100
AcDbArc
 50
253.072487
 51
16.927513
  0
ENDBLK
  5
82
100
AcDbEntity
  8
0
100
AcDbBlockEnd
  0
ENDSEC
  0
SECTION
  2
ENTITIES
  0
TEXT
  5
83
100
AcDbEntity
  8
LAY-1
  6
CONTINUOUS
 62
     3
100
AcDbText
 10
33.954329
 20
200.861954
 30
0.0
 40
7.0
  1
６７
 50
90.0
 41
0.84
  7
EXCADSTD
 72
     5
 11
33.954329
 21
213.694354
 31
0.0
100
AcDbText
  0
LINE
  5
84
100
AcDbEntity
  8
LAY-1
  6
CONTINUOUS
 62
     1
100
AcDbLine
 10
81.494974
 20
174.361954
 30
0.0
 11
34.454329
 21
174.361954
 31
0.0
  0
LINE
  5
85
100
AcDbEntity
  8
LAY-1
  6
CONTINUOUS
 62
     1
100
AcDbLine
 10
81.494974
 20
241.361954
 30
0.0
 11
34.454329
 21
241.361954
 31
0.0
  0
LINE
  5
86
100
AcDbEntity
  8
LAY-1
  6
CONTINUOUS
 62
     1
100
AcDbLine
 10
34.954329
 20
174.361954
 30
0.0
 11
34.954329
 21
241.361954
 31
0.0
  0
LINE
  5
87
100
AcDbEntity
  8
LAY-1
  6
CONTINUOUS
 62
     1
100
AcDbLine
 10
34.620996
 20
176.361954
 30
0.0
 11
34.954329
 21
174.361954
 31
0.0
  0
LINE
  5
88
100
AcDbEntity
  8
LAY-1
  6
CONTINUOUS
 62
     1
100
AcDbLine
 10
34.954329
 20
174.361954
 30
0.0
 11
35.287662
 21
176.361954
 31
0.0
  0
LINE
  5
89
100
AcDbEntity
  8
LAY-1
  6
CONTINUOUS
 62
     1
100
AcDbLine
 10
35.287662
 20
239.361954
 30
0.0
 11
34.954329
 21
241.361954
 31
0.0
  0
LINE
  5
8A
100
AcDbEntity
  8
LAY-1
  6
CONTINUOUS
 62
     1
100
AcDbLine
 10
34.954329
 20
241.361954
 30
0.0
 11
34.620996
 21
239.361954
 31
0.0
  0
POLYLINE
  5
8B
100
AcDbEntity
  8
LAY-1
  6
CONTINUOUS
 62
     1
100
AcDb2dPolyline
 66
     1
 10
0.0
 20
0.0
 30
0.0
 70
   128
  0
VERTEX
  5
8C
100
AcDbEntity
  8
LAY-1
  6
CONTINUOUS
 62
     1
100
AcDbVertex
100
AcDb2dVertex
 10
249.732982
 20
37.601761
 30
0.0
  0
VERTEX
  5
8D
100
AcDbEntity
  8
LAY-1
  6
CONTINUOUS
 62
     1
100
AcDbVertex
100
AcDb2dVertex
 10
225.154329
 20
14.705488
 30
0.0
  0
VERTEX
  5
8E
100
AcDbEntity
  8
LAY-1
  6
CONTINUOUS
 62
     1
100
AcDbVertex
100
AcDb2dVertex
 10
180.5
 20
14.705488
 30
0.0
  0
SEQEND
  5
8F
100
AcDbEntity
  8
LAY-1
  6
CONTINUOUS
 62
     1
  0
LINE
  5
90
100
AcDbEntity
  8
LAY-1
  6
CONTINUOUS
 62
     1
100
AcDbLine
 10
248.496778
 20
35.994618
 30
0.0
 11
249.732982
 21
37.601761
 31
0.0
  0
LINE
  5
91
100
AcDbEntity
  8
LAY-1
  6
CONTINUOUS
 62
     1
100
AcDbLine
 10
249.732982
 20
37.601761
 30
0.0
 11
248.042364
 21
36.482421
 31
0.0
  0
TEXT
  5
92
100
AcDbEntity
  8
LAY-1
  6
CONTINUOUS
 62
     3
100
AcDbText
 10
187.445671
 20
16.494512
 30
0.0
 40
7.0
  1
Ｒｃ１／４
 41
0.84
  7
EXCADSTD
 72
     5
 11
222.445671
 21
16.494512
 31
0.0
100
AcDbText
  0
TEXT
  5
93
100
AcDbEntity
  8
LAY-1
  6
CONTINUOUS
 62
     3
100
AcDbText
 10
53.994974
 20
275.810678
 30
0.0
 40
7.0
  1
（
 41
0.84
  7
EXCADSTD
 72
     5
 11
59.594974
 21
275.810678
 31
0.0
100
AcDbText
  0
TEXT
  5
94
100
AcDbEntity
  8
LAY-1
  6
CONTINUOUS
 62
     3
100
AcDbText
 10
60.994974
 20
275.810678
 30
0.0
 40
7.0
  1
３８.５
 41
0.77
  7
EXCADSTD
 72
     5
 11
85.494974
 21
275.810678
 31
0.0
100
AcDbText
  0
TEXT
  5
95
100
AcDbEntity
  8
LAY-1
  6
CONTINUOUS
 62
     3
100
AcDbText
 10
85.494974
 20
275.810678
 30
0.0
 40
7.0
  1
）
 41
0.84
  7
EXCADSTD
 72
     5
 11
91.094974
 21
275.810678
 31
0.0
100
AcDbText
  0
LINE
  5
96
100
AcDbEntity
  8
LAY-1
  6
CONTINUOUS
 62
     1
100
AcDbLine
 10
53.994974
 20
211.185454
 30
0.0
 11
53.994974
 21
275.310678
 31
0.0
  0
LINE
  5
97
100
AcDbEntity
  8
LAY-1
  6
CONTINUOUS
 62
     1
100
AcDbLine
 10
92.494974
 20
257.710678
 30
0.0
 11
92.494974
 21
275.310678
 31
0.0
  0
LINE
  5
98
100
AcDbEntity
  8
LAY-1
  6
CONTINUOUS
 62
     1
100
AcDbLine
 10
53.994974
 20
274.810678
 30
0.0
 11
92.494974
 21
274.810678
 31
0.0
  0
LINE
  5
99
100
AcDbEntity
  8
LAY-1
  6
CONTINUOUS
 62
     1
100
AcDbLine
 10
55.994974
 20
275.144011
 30
0.0
 11
53.994974
 21
274.810678
 31
0.0
  0
LINE
  5
9A
100
AcDbEntity
  8
LAY-1
  6
CONTINUOUS
 62
     1
100
AcDbLine
 10
53.994974
 20
274.810678
 30
0.0
 11
55.994974
 21
274.477345
 31
0.0
  0
LINE
  5
9B
100
AcDbEntity
  8
LAY-1
  6
CONTINUOUS
 62
     1
100
AcDbLine
 10
90.494974
 20
274.477345
 30
0.0
 11
92.494974
 21
274.810678
 31
0.0
  0
LINE
  5
9C
100
AcDbEntity
  8
LAY-1
  6
CONTINUOUS
 62
     1
100
AcDbLine
 10
92.494974
 20
274.810678
 30
0.0
 11
90.494974
 21
275.144011
 31
0.0
  0
TEXT
  5
9D
100
AcDbEntity
  8
LAY-1
  6
CONTINUOUS
 62
     3
100
AcDbText
 10
125.994974
 20
275.810678
 30
0.0
 40
7.0
  1
８１
 41
0.84
  7
EXCADSTD
 72
     5
 11
138.827374
 21
275.810678
 31
0.0
100
AcDbText
  0
LINE
  5
9E
100
AcDbEntity
  8
LAY-1
  6
CONTINUOUS
 62
     1
100
AcDbLine
 10
92.494974
 20
257.710678
 30
0.0
 11
92.494974
 21
275.310678
 31
0.0
  0
LINE
  5
9F
100
AcDbEntity
  8
LAY-1
  6
CONTINUOUS
 62
     1
100
AcDbLine
 10
173.494974
 20
222.372309
 30
0.0
 11
173.494974
 21
275.310678
 31
0.0
  0
LINE
  5
A0
100
AcDbEntity
  8
LAY-1
  6
CONTINUOUS
 62
     1
100
AcDbLine
 10
92.494974
 20
274.810678
 30
0.0
 11
173.494974
 21
274.810678
 31
0.0
  0
LINE
  5
A1
100
AcDbEntity
  8
LAY-1
  6
CONTINUOUS
 62
     1
100
AcDbLine
 10
94.494974
 20
275.144011
 30
0.0
 11
92.494974
 21
274.810678
 31
0.0
  0
LINE
  5
A2
100
AcDbEntity
  8
LAY-1
  6
CONTINUOUS
 62
     1
100
AcDbLine
 10
92.494974
 20
274.810678
 30
0.0
 11
94.494974
 21
274.477345
 31
0.0
  0
LINE
  5
A3
100
AcDbEntity
  8
LAY-1
  6
CONTINUOUS
 62
     1
100
AcDbLine
 10
171.494974
 20
274.477345
 30
0.0
 11
173.494974
 21
274.810678
 31
0.0
  0
LINE
  5
A4
100
AcDbEntity
  8
LAY-1
  6
CONTINUOUS
 62
     1
100
AcDbLine
 10
173.494974
 20
274.810678
 30
0.0
 11
171.494974
 21
275.144011
 31
0.0
  0
LINE
  5
A5
100
AcDbEntity
  8
LAY-1
  6
CONTINUOUS
 62
     1
100
AcDbLine
 10
250.089813
 20
241.361954
 30
0.0
 11
250.058563
 21
242.361954
 31
0.0
  0
LINE
  5
A6
100
AcDbEntity
  8
LAY-1
  6
EXLTYPE3
 62
     1
100
AcDbLine
 10
284.110289
 20
236.246493
 30
0.0
 11
277.94744
 21
230.083645
 31
0.0
  0
LINE
  5
A7
100
AcDbEntity
  8
LAY-1
  6
EXLTYPE3
 62
     1
100
AcDbLine
 10
227.341211
 20
236.246493
 30
0.0
 11
233.504059
 21
230.083645
 31
0.0
  0
LINE
  5
A8
100
AcDbEntity
  8
LAY-1
  6
EXLTYPE3
 62
     1
100
AcDbLine
 10
227.341211
 20
179.477416
 30
0.0
 11
233.504059
 21
185.640264
 31
0.0
  0
LINE
  5
A9
100
AcDbEntity
  8
LAY-1
  6
EXLTYPE3
 62
     1
100
AcDbLine
 10
284.110289
 20
179.477416
 30
0.0
 11
277.94744
 21
185.640264
 31
0.0
  0
LINE
  5
AA
100
AcDbEntity
  8
LAY-1
  6
CONTINUOUS
 62
     1
100
AcDbLine
 10
250.058563
 20
242.361954
 30
0.0
 11
248.9445
 21
244.235659
 31
0.0
  0
LINE
  5
AB
100
AcDbEntity
  8
LAY-1
  6
CONTINUOUS
 62
     1
100
AcDbLine
 10
261.392937
 20
242.361954
 30
0.0
 11
262.507
 21
244.235659
 31
0.0
  0
LINE
  5
AC
100
AcDbEntity
  8
LAY-1
  6
CONTINUOUS
 62
     1
100
AcDbLine
 10
261.361687
 20
241.361954
 30
0.0
 11
261.392937
 21
242.361954
 31
0.0
  0
LINE
  5
AD
100
AcDbEntity
  8
LAY-1
  6
EXLTYPE3
 62
     1
100
AcDbLine
 10
255.72575
 20
262.583827
 30
0.0
 11
255.72575
 21
152.79767
 31
0.0
  0
POLYLINE
  5
AE
100
AcDbEntity
  8
LAY-1
  6
CONTINUOUS
 62
     1
100
AcDb2dPolyline
 66
     1
 10
0.0
 20
0.0
 30
0.0
 70
   128
  0
VERTEX
  5
AF
100
AcDbEntity
  8
LAY-1
  6
CONTINUOUS
 62
     1
100
AcDbVertex
100
AcDb2dVertex
 10
226.601226
 20
177.403982
 30
0.0
  0
VERTEX
  5
B0
100
AcDbEntity
  8
LAY-1
  6
CONTINUOUS
 62
     1
100
AcDbVertex
100
AcDb2dVertex
 10
227.105545
 20
179.362467
 30
0.0
  0
VERTEX
  5
B1
100
AcDbEntity
  8
LAY-1
  6
CONTINUOUS
 62
     1
100
AcDbVertex
100
AcDb2dVertex
 10
226.048805
 20
177.638141
 30
0.0
  0
VERTEX
  5
B2
100
AcDbEntity
  8
LAY-1
  6
CONTINUOUS
 62
     1
100
AcDbVertex
100
AcDb2dVertex
 10
226.601226
 20
177.403982
 30
0.0
  0
SEQEND
  5
B3
100
AcDbEntity
  8
LAY-1
  6
CONTINUOUS
 62
     1
  0
POLYLINE
  5
B4
100
AcDbEntity
  8
LAY-1
  6
CONTINUOUS
 62
     1
100
AcDb2dPolyline
 66
     1
 10
0.0
 20
0.0
 30
0.0
 70
   128
  0
VERTEX
  5
B5
100
AcDbEntity
  8
LAY-1
  6
CONTINUOUS
 62
     1
100
AcDbVertex
100
AcDb2dVertex
 10
226.509156
 20
177.443009
 30
0.0
  0
VERTEX
  5
B6
100
AcDbEntity
  8
LAY-1
  6
CONTINUOUS
 62
     1
100
AcDbVertex
100
AcDb2dVertex
 10
227.105545
 20
179.362467
 30
0.0
  0
VERTEX
  5
B7
100
AcDbEntity
  8
LAY-1
  6
CONTINUOUS
 62
     1
100
AcDbVertex
100
AcDb2dVertex
 10
226.417086
 20
177.482035
 30
0.0
  0
SEQEND
  5
B8
100
AcDbEntity
  8
LAY-1
  6
CONTINUOUS
 62
     1
  0
POLYLINE
  5
B9
100
AcDbEntity
  8
LAY-1
  6
CONTINUOUS
 62
     1
100
AcDb2dPolyline
 66
     1
 10
0.0
 20
0.0
 30
0.0
 70
   128
  0
VERTEX
  5
BA
100
AcDbEntity
  8
LAY-1
  6
CONTINUOUS
 62
     1
100
AcDbVertex
100
AcDb2dVertex
 10
226.232945
 20
177.560088
 30
0.0
  0
VERTEX
  5
BB
100
AcDbEntity
  8
LAY-1
  6
CONTINUOUS
 62
     1
100
AcDbVertex
100
AcDb2dVertex
 10
227.105545
 20
179.362467
 30
0.0
  0
VERTEX
  5
BC
100
AcDbEntity
  8
LAY-1
  6
CONTINUOUS
 62
     1
100
AcDbVertex
100
AcDb2dVertex
 10
226.140875
 20
177.599115
 30
0.0
  0
SEQEND
  5
BD
100
AcDbEntity
  8
LAY-1
  6
CONTINUOUS
 62
     1
  0
LINE
  5
BE
100
AcDbEntity
  8
LAY-1
  6
CONTINUOUS
 62
     2
100
AcDbLine
 10
251.72575
 20
244.939305
 30
0.0
 11
251.72575
 21
250.284604
 31
0.0
  0
LINE
  5
BF
100
AcDbEntity
  8
LAY-1
  6
CONTINUOUS
 62
     2
100
AcDbLine
 10
259.72575
 20
250.284604
 30
0.0
 11
259.72575
 21
244.939305
 31
0.0
  0
LINE
  5
C0
100
AcDbEntity
  8
LAY-1
  6
CONTINUOUS
 62
     2
100
AcDbLine
 10
289.22575
 20
207.861954
 30
0.0
 11
289.22575
 21
189.861954
 31
0.0
  0
LINE
  5
C1
100
AcDbEntity
  8
LAY-1
  6
CONTINUOUS
 62
     2
100
AcDbLine
 10
248.97575
 20
241.361954
 30
0.0
 11
248.9445
 21
242.361954
 31
0.0
  0
LINE
  5
C2
100
AcDbEntity
  8
LAY-1
  6
CONTINUOUS
 62
     2
100
AcDbLine
 10
289.22575
 20
189.861954
 30
0.0
 11
287.183533
 21
189.861954
 31
0.0
  0
ARC
  5
C3
100
AcDbEntity
  8
LAY-1
  6
CONTINUOUS
 62
     2
100
AcDbCircle
 10
255.72575
 20
207.861954
 30
0.0
 40
29.869599
100
AcDbArc
 50
293.297301
 51
246.702699
  0
ARC
  5
C4
100
AcDbEntity
  8
LAY-1
  6
CONTINUOUS
 62
     2
100
AcDbCircle
 10
255.72575
 20
207.861954
 30
0.0
 40
28.229077
100
AcDbArc
 50
292.365522
 51
247.634478
  0
LINE
  5
C5
100
AcDbEntity
  8
LAY-1
  6
CONTINUOUS
 62
     2
100
AcDbLine
 10
244.72575
 20
203.861954
 30
0.0
 11
244.72575
 21
210.861954
 31
0.0
  0
LINE
  5
C6
100
AcDbEntity
  8
LAY-1
  6
CONTINUOUS
 62
     2
100
AcDbLine
 10
245.22575
 20
211.361954
 30
0.0
 11
266.22575
 21
211.361954
 31
0.0
  0
LINE
  5
C7
100
AcDbEntity
  8
LAY-1
  6
CONTINUOUS
 62
     2
100
AcDbLine
 10
266.72575
 20
210.861954
 30
0.0
 11
266.72575
 21
203.861954
 31
0.0
  0
CIRCLE
  5
C8
100
AcDbEntity
  8
LAY-1
  6
CONTINUOUS
 62
     2
100
AcDbCircle
 10
230.269906
 20
182.40611
 30
0.0
 40
4.5
  0
LINE
  5
C9
100
AcDbEntity
  8
LAY-1
  6
CONTINUOUS
 62
     2
100
AcDbLine
 10
228.325362
 20
181.168673
 30
0.0
 11
229.032469
 21
180.461567
 31
0.0
  0
LINE
  5
CA
100
AcDbEntity
  8
LAY-1
  6
CONTINUOUS
 62
     2
100
AcDbLine
 10
266.22575
 20
203.361954
 30
0.0
 11
245.22575
 21
203.361954
 31
0.0
  0
ARC
  5
CB
100
AcDbEntity
  8
LAY-1
  6
CONTINUOUS
 62
     2
100
AcDbCircle
 10
245.22575
 20
210.861954
 30
0.0
 40
0.5
100
AcDbArc
 50
90.0
 51
180.0
  0
ARC
  5
CC
100
AcDbEntity
  8
LAY-1
  6
CONTINUOUS
 62
     2
100
AcDbCircle
 10
245.22575
 20
203.861954
 30
0.0
 40
0.5
100
AcDbArc
 50
180.0
 51
270.0
  0
ARC
  5
CD
100
AcDbEntity
  8
LAY-1
  6
CONTINUOUS
 62
     2
100
AcDbCircle
 10
266.22575
 20
203.861954
 30
0.0
 40
0.5
100
AcDbArc
 50
270.0
 51
0.0
  0
ARC
  5
CE
100
AcDbEntity
  8
LAY-1
  6
CONTINUOUS
 62
     2
100
AcDbCircle
 10
281.181594
 20
180.991897
 30
0.0
 40
0.5
100
AcDbArc
 50
45.0
 51
135.0
  0
LINE
  5
CF
100
AcDbEntity
  8
LAY-1
  6
CONTINUOUS
 62
     2
100
AcDbLine
 10
245.72575
 20
174.861954
 30
0.0
 11
245.72575
 21
177.672378
 31
0.0
  0
LINE
  5
D0
100
AcDbEntity
  8
LAY-1
  6
CONTINUOUS
 62
     2
100
AcDbLine
 10
255.72575
 20
174.861954
 30
0.0
 11
245.72575
 21
174.861954
 31
0.0
  0
ARC
  5
D1
100
AcDbEntity
  8
LAY-1
  6
CONTINUOUS
 62
     2
100
AcDbCircle
 10
221.23539
 20
227.861954
 30
0.0
 40
10.0
100
AcDbArc
 50
270.0
 51
329.891748
  0
ARC
  5
D2
100
AcDbEntity
  8
LAY-1
  6
CONTINUOUS
 62
     2
100
AcDbCircle
 10
221.23539
 20
187.861954
 30
0.0
 40
10.0
100
AcDbArc
 50
30.108252
 51
90.0
  0
ARC
  5
D3
100
AcDbEntity
  8
LAY-1
  6
CONTINUOUS
 62
     2
100
AcDbCircle
 10
228.855692
 20
182.40611
 30
0.0
 40
0.5
100
AcDbArc
 50
315.0
 51
45.0
  0
ARC
  5
D4
100
AcDbEntity
  8
LAY-1
  6
CONTINUOUS
 62
     2
100
AcDbCircle
 10
230.269906
 20
180.991897
 30
0.0
 40
0.5
100
AcDbArc
 50
45.0
 51
135.0
  0
ARC
  5
D5
100
AcDbEntity
  8
LAY-1
  6
CONTINUOUS
 62
     2
100
AcDbCircle
 10
231.684119
 20
182.40611
 30
0.0
 40
0.5
100
AcDbArc
 50
135.0
 51
225.0
  0
ARC
  5
D6
100
AcDbEntity
  8
LAY-1
  6
CONTINUOUS
 62
     2
100
AcDbCircle
 10
230.269906
 20
183.820324
 30
0.0
 40
0.5
100
AcDbArc
 50
225.0
 51
315.0
  0
LINE
  5
D7
100
AcDbEntity
  8
LAY-1
  6
CONTINUOUS
 62
     2
100
AcDbLine
 10
229.630987
 20
177.4471
 30
0.0
 11
245.72575
 21
175.373452
 31
0.0
  0
ARC
  5
D8
100
AcDbEntity
  8
LAY-1
  6
CONTINUOUS
 62
     2
100
AcDbCircle
 10
255.72575
 20
207.861954
 30
0.0
 40
33.5
100
AcDbArc
 50
262.658462
 51
264.862152
  0
ARC
  5
D9
100
AcDbEntity
  8
LAY-1
  6
CONTINUOUS
 62
     2
100
AcDbCircle
 10
230.269906
 20
182.40611
 30
0.0
 40
5.0
100
AcDbArc
 50
187.341538
 51
262.658462
  0
LINE
  5
DA
100
AcDbEntity
  8
LAY-1
  6
CONTINUOUS
 62
     2
100
AcDbLine
 10
282.419031
 20
184.350654
 30
0.0
 11
281.535147
 21
183.46677
 31
0.0
  0
LINE
  5
DB
100
AcDbEntity
  8
LAY-1
  6
CONTINUOUS
 62
     2
100
AcDbLine
 10
283.126138
 20
183.643547
 30
0.0
 11
282.419031
 21
184.350654
 31
0.0
  0
LINE
  5
DC
100
AcDbEntity
  8
LAY-1
  6
CONTINUOUS
 62
     2
100
AcDbLine
 10
281.820512
 20
177.4471
 30
0.0
 11
265.72575
 21
175.373452
 31
0.0
  0
ARC
  5
DD
100
AcDbEntity
  8
LAY-1
  6
CONTINUOUS
 62
     2
100
AcDbCircle
 10
255.72575
 20
207.861954
 30
0.0
 40
33.5
100
AcDbArc
 50
275.137848
 51
277.341538
  0
ARC
  5
DE
100
AcDbEntity
  8
LAY-1
  6
CONTINUOUS
 62
     2
100
AcDbCircle
 10
266.22575
 20
210.861954
 30
0.0
 40
0.5
100
AcDbArc
 50
0.0
 51
90.0
  0
ARC
  5
DF
100
AcDbEntity
  8
LAY-1
  6
CONTINUOUS
 62
     2
100
AcDbCircle
 10
255.72575
 20
130.166129
 30
0.0
 40
51.590276
100
AcDbArc
 50
78.823326
 51
101.176674
  0
CIRCLE
  5
E0
100
AcDbEntity
  8
LAY-1
  6
CONTINUOUS
 62
     2
100
AcDbCircle
 10
255.72575
 20
207.861954
 30
0.0
 40
24.0
  0
LINE
  5
E1
100
AcDbEntity
  8
LAY-1
  6
CONTINUOUS
 62
     2
100
AcDbLine
 10
230.623459
 20
181.34545
 30
0.0
 11
231.507343
 21
180.461567
 31
0.0
  0
LINE
  5
E2
100
AcDbEntity
  8
LAY-1
  6
CONTINUOUS
 62
     2
100
AcDbLine
 10
229.032469
 20
180.461567
 30
0.0
 11
229.916352
 21
181.34545
 31
0.0
  0
LINE
  5
E3
100
AcDbEntity
  8
LAY-1
  6
CONTINUOUS
 62
     2
100
AcDbLine
 10
231.330566
 20
182.759664
 30
0.0
 11
232.214449
 21
183.643547
 31
0.0
  0
LINE
  5
E4
100
AcDbEntity
  8
LAY-1
  6
CONTINUOUS
 62
     2
100
AcDbLine
 10
232.214449
 20
181.168673
 30
0.0
 11
231.330566
 21
182.052557
 31
0.0
  0
LINE
  5
E5
100
AcDbEntity
  8
LAY-1
  6
CONTINUOUS
 62
     2
100
AcDbLine
 10
231.507343
 20
180.461567
 30
0.0
 11
232.214449
 21
181.168673
 31
0.0
  0
LINE
  5
E6
100
AcDbEntity
  8
LAY-1
  6
CONTINUOUS
 62
     2
100
AcDbLine
 10
279.944157
 20
184.350654
 30
0.0
 11
279.23705
 21
183.643547
 31
0.0
  0
ARC
  5
E7
100
AcDbEntity
  8
LAY-1
  6
CONTINUOUS
 62
     2
100
AcDbCircle
 10
281.181594
 20
183.820324
 30
0.0
 40
0.5
100
AcDbArc
 50
225.0
 51
315.0
  0
ARC
  5
E8
100
AcDbEntity
  8
LAY-1
  6
CONTINUOUS
 62
     2
100
AcDbCircle
 10
282.595808
 20
182.40611
 30
0.0
 40
0.5
100
AcDbArc
 50
135.0
 51
225.0
  0
ARC
  5
E9
100
AcDbEntity
  8
LAY-1
  6
CONTINUOUS
 62
     2
100
AcDbCircle
 10
279.76738
 20
182.40611
 30
0.0
 40
0.5
100
AcDbArc
 50
315.0
 51
45.0
  0
LINE
  5
EA
100
AcDbEntity
  8
LAY-1
  6
CONTINUOUS
 62
     2
100
AcDbLine
 10
280.120934
 20
182.052557
 30
0.0
 11
279.23705
 21
181.168673
 31
0.0
  0
ARC
  5
EB
100
AcDbEntity
  8
LAY-1
  6
CONTINUOUS
 62
     2
100
AcDbCircle
 10
281.181594
 20
182.40611
 30
0.0
 40
5.0
100
AcDbArc
 50
277.341538
 51
352.658462
  0
ARC
  5
EC
100
AcDbEntity
  8
LAY-1
  6
CONTINUOUS
 62
     2
100
AcDbCircle
 10
230.269906
 20
231.903585
 30
0.0
 40
0.5
100
AcDbArc
 50
45.0
 51
135.0
  0
ARC
  5
ED
100
AcDbEntity
  8
LAY-1
  6
CONTINUOUS
 62
     2
100
AcDbCircle
 10
231.684119
 20
233.317799
 30
0.0
 40
0.5
100
AcDbArc
 50
135.0
 51
225.0
  0
ARC
  5
EE
100
AcDbEntity
  8
LAY-1
  6
CONTINUOUS
 62
     2
100
AcDbCircle
 10
230.269906
 20
234.732012
 30
0.0
 40
0.5
100
AcDbArc
 50
225.0
 51
315.0
  0
ARC
  5
EF
100
AcDbEntity
  8
LAY-1
  6
CONTINUOUS
 62
     2
100
AcDbCircle
 10
228.855692
 20
233.317799
 30
0.0
 40
0.5
100
AcDbArc
 50
315.0
 51
45.0
  0
LINE
  5
F0
100
AcDbEntity
  8
LAY-1
  6
CONTINUOUS
 62
     2
100
AcDbLine
 10
229.209246
 20
233.671352
 30
0.0
 11
228.325362
 21
234.555235
 31
0.0
  0
LINE
  5
F1
100
AcDbEntity
  8
LAY-1
  6
CONTINUOUS
 62
     2
100
AcDbLine
 10
228.325362
 20
232.080362
 30
0.0
 11
229.209246
 21
232.964245
 31
0.0
  0
LINE
  5
F2
100
AcDbEntity
  8
LAY-1
  6
CONTINUOUS
 62
     2
100
AcDbLine
 10
229.032469
 20
231.373255
 30
0.0
 11
228.325362
 21
232.080362
 31
0.0
  0
LINE
  5
F3
100
AcDbEntity
  8
LAY-1
  6
CONTINUOUS
 62
     2
100
AcDbLine
 10
279.23705
 20
181.168673
 30
0.0
 11
279.944157
 21
180.461567
 31
0.0
  0
LINE
  5
F4
100
AcDbEntity
  8
LAY-1
  6
CONTINUOUS
 62
     2
100
AcDbLine
 10
281.535147
 20
181.34545
 30
0.0
 11
282.419031
 21
180.461567
 31
0.0
  0
LINE
  5
F5
100
AcDbEntity
  8
LAY-1
  6
CONTINUOUS
 62
     2
100
AcDbLine
 10
279.944157
 20
180.461567
 30
0.0
 11
280.828041
 21
181.34545
 31
0.0
  0
LINE
  5
F6
100
AcDbEntity
  8
LAY-1
  6
CONTINUOUS
 62
     2
100
AcDbLine
 10
282.242254
 20
182.759664
 30
0.0
 11
283.126138
 21
183.643547
 31
0.0
  0
LINE
  5
F7
100
AcDbEntity
  8
LAY-1
  6
CONTINUOUS
 62
     2
100
AcDbLine
 10
283.126138
 20
181.168673
 30
0.0
 11
282.242254
 21
182.052557
 31
0.0
  0
LINE
  5
F8
100
AcDbEntity
  8
LAY-1
  6
CONTINUOUS
 62
     2
100
AcDbLine
 10
255.72575
 20
250.861954
 30
0.0
 11
248.72575
 21
250.861954
 31
0.0
  0
LINE
  5
F9
100
AcDbEntity
  8
LAY-1
  6
CONTINUOUS
 62
     2
100
AcDbLine
 10
282.419031
 20
180.461567
 30
0.0
 11
283.126138
 21
181.168673
 31
0.0
  0
LINE
  5
FA
100
AcDbEntity
  8
LAY-1
  6
CONTINUOUS
 62
     2
100
AcDbLine
 10
286.140604
 20
181.767192
 30
0.0
 11
288.951119
 21
203.581201
 31
0.0
  0
ARC
  5
FB
100
AcDbEntity
  8
LAY-1
  6
CONTINUOUS
 62
     2
100
AcDbCircle
 10
255.72575
 20
207.861954
 30
0.0
 40
33.5
100
AcDbArc
 50
0.0
 51
7.341538
  0
LINE
  5
FC
100
AcDbEntity
  8
LAY-1
  6
CONTINUOUS
 62
     2
100
AcDbLine
 10
286.140604
 20
233.956717
 30
0.0
 11
288.951119
 21
212.142707
 31
0.0
  0
LINE
  5
FD
100
AcDbEntity
  8
LAY-1
  6
CONTINUOUS
 62
     2
100
AcDbLine
 10
261.755721
 20
174.861954
 30
0.0
 11
260.006503
 21
174.636585
 31
0.0
  0
LINE
  5
FE
100
AcDbEntity
  8
LAY-1
  6
CONTINUOUS
 62
     2
100
AcDbLine
 10
249.695778
 20
174.861954
 30
0.0
 11
251.444997
 21
174.636585
 31
0.0
  0
LINE
  5
FF
100
AcDbEntity
  8
LAY-1
  6
CONTINUOUS
 62
     2
100
AcDbLine
 10
229.032469
 20
184.350654
 30
0.0
 11
228.325362
 21
183.643547
 31
0.0
  0
ARC
  5
100
100
AcDbEntity
  8
LAY-1
  6
CONTINUOUS
 62
     2
100
AcDbCircle
 10
255.72575
 20
207.861954
 30
0.0
 40
33.5
100
AcDbArc
 50
352.658462
 51
0.0
  0
CIRCLE
  5
101
100
AcDbEntity
  8
LAY-1
  6
CONTINUOUS
 62
     2
100
AcDbCircle
 10
281.181594
 20
182.40611
 30
0.0
 40
4.5
  0
LINE
  5
102
100
AcDbEntity
  8
LAY-1
  6
CONTINUOUS
 62
     2
100
AcDbLine
 10
282.419031
 20
235.262342
 30
0.0
 11
283.126138
 21
234.555235
 31
0.0
  0
LINE
  5
103
100
AcDbEntity
  8
LAY-1
  6
CONTINUOUS
 62
     2
100
AcDbLine
 10
283.126138
 20
234.555235
 30
0.0
 11
282.242254
 21
233.671352
 31
0.0
  0
LINE
  5
104
100
AcDbEntity
  8
LAY-1
  6
CONTINUOUS
 62
     2
100
AcDbLine
 10
282.242254
 20
232.964245
 30
0.0
 11
283.126138
 21
232.080362
 31
0.0
  0
LINE
  5
105
100
AcDbEntity
  8
LAY-1
  6
CONTINUOUS
 62
     2
100
AcDbLine
 10
279.944157
 20
235.262342
 30
0.0
 11
280.828041
 21
234.378459
 31
0.0
  0
LINE
  5
106
100
AcDbEntity
  8
LAY-1
  6
CONTINUOUS
 62
     2
100
AcDbLine
 10
281.535147
 20
234.378459
 30
0.0
 11
282.419031
 21
235.262342
 31
0.0
  0
LINE
  5
107
100
AcDbEntity
  8
LAY-1
  6
CONTINUOUS
 62
     2
100
AcDbLine
 10
279.23705
 20
234.555235
 30
0.0
 11
279.944157
 21
235.262342
 31
0.0
  0
CIRCLE
  5
108
100
AcDbEntity
  8
LAY-1
  6
CONTINUOUS
 62
     2
100
AcDbCircle
 10
281.181594
 20
233.317799
 30
0.0
 40
4.5
  0
LINE
  5
109
100
AcDbEntity
  8
LAY-1
  6
CONTINUOUS
 62
     2
100
AcDbLine
 10
283.126138
 20
232.080362
 30
0.0
 11
282.419031
 21
231.373255
 31
0.0
  0
LINE
  5
10A
100
AcDbEntity
  8
LAY-1
  6
CONTINUOUS
 62
     2
100
AcDbLine
 10
282.419031
 20
231.373255
 30
0.0
 11
281.535147
 21
232.257138
 31
0.0
  0
LINE
  5
10B
100
AcDbEntity
  8
LAY-1
  6
CONTINUOUS
 62
     2
100
AcDbLine
 10
267.18014
 20
241.361954
 30
0.0
 11
282.207555
 21
238.211407
 31
0.0
  0
LINE
  5
10C
100
AcDbEntity
  8
LAY-1
  6
CONTINUOUS
 62
     2
100
AcDbLine
 10
280.828041
 20
232.257138
 30
0.0
 11
279.944157
 21
231.373255
 31
0.0
  0
LINE
  5
10D
100
AcDbEntity
  8
LAY-1
  6
CONTINUOUS
 62
     2
100
AcDbLine
 10
279.23705
 20
232.080362
 30
0.0
 11
280.120934
 21
232.964245
 31
0.0
  0
LINE
  5
10E
100
AcDbEntity
  8
LAY-1
  6
CONTINUOUS
 62
     2
100
AcDbLine
 10
280.120934
 20
233.671352
 30
0.0
 11
279.23705
 21
234.555235
 31
0.0
  0
ARC
  5
10F
100
AcDbEntity
  8
LAY-1
  6
CONTINUOUS
 62
     2
100
AcDbCircle
 10
279.76738
 20
233.317799
 30
0.0
 40
0.5
100
AcDbArc
 50
315.0
 51
45.0
  0
ARC
  5
110
100
AcDbEntity
  8
LAY-1
  6
CONTINUOUS
 62
     2
100
AcDbCircle
 10
281.181594
 20
234.732012
 30
0.0
 40
0.5
100
AcDbArc
 50
225.0
 51
315.0
  0
ARC
  5
111
100
AcDbEntity
  8
LAY-1
  6
CONTINUOUS
 62
     2
100
AcDbCircle
 10
282.595808
 20
233.317799
 30
0.0
 40
0.5
100
AcDbArc
 50
135.0
 51
225.0
  0
ARC
  5
112
100
AcDbEntity
  8
LAY-1
  6
CONTINUOUS
 62
     2
100
AcDbCircle
 10
281.181594
 20
231.903585
 30
0.0
 40
0.5
100
AcDbArc
 50
45.0
 51
135.0
  0
LINE
  5
113
100
AcDbEntity
  8
LAY-1
  6
CONTINUOUS
 62
     2
100
AcDbLine
 10
279.944157
 20
231.373255
 30
0.0
 11
279.23705
 21
232.080362
 31
0.0
  0
LINE
  5
114
100
AcDbEntity
  8
LAY-1
  6
CONTINUOUS
 62
     2
100
AcDbLine
 10
231.507343
 20
235.262342
 30
0.0
 11
232.214449
 21
234.555235
 31
0.0
  0
LINE
  5
115
100
AcDbEntity
  8
LAY-1
  6
CONTINUOUS
 62
     2
100
AcDbLine
 10
232.214449
 20
234.555235
 30
0.0
 11
231.330566
 21
233.671352
 31
0.0
  0
LINE
  5
116
100
AcDbEntity
  8
LAY-1
  6
CONTINUOUS
 62
     2
100
AcDbLine
 10
231.330566
 20
232.964245
 30
0.0
 11
232.214449
 21
232.080362
 31
0.0
  0
LINE
  5
117
100
AcDbEntity
  8
LAY-1
  6
CONTINUOUS
 62
     2
100
AcDbLine
 10
229.032469
 20
235.262342
 30
0.0
 11
229.916352
 21
234.378459
 31
0.0
  0
LINE
  5
118
100
AcDbEntity
  8
LAY-1
  6
CONTINUOUS
 62
     2
100
AcDbLine
 10
230.623459
 20
234.378459
 30
0.0
 11
231.507343
 21
235.262342
 31
0.0
  0
LINE
  5
119
100
AcDbEntity
  8
LAY-1
  6
CONTINUOUS
 62
     2
100
AcDbLine
 10
228.325362
 20
234.555235
 30
0.0
 11
229.032469
 21
235.262342
 31
0.0
  0
CIRCLE
  5
11A
100
AcDbEntity
  8
LAY-1
  6
CONTINUOUS
 62
     2
100
AcDbCircle
 10
230.269906
 20
233.317799
 30
0.0
 40
4.5
  0
LINE
  5
11B
100
AcDbEntity
  8
LAY-1
  6
CONTINUOUS
 62
     2
100
AcDbLine
 10
232.214449
 20
232.080362
 30
0.0
 11
231.507343
 21
231.373255
 31
0.0
  0
LINE
  5
11C
100
AcDbEntity
  8
LAY-1
  6
CONTINUOUS
 62
     2
100
AcDbLine
 10
231.507343
 20
231.373255
 30
0.0
 11
230.623459
 21
232.257138
 31
0.0
  0
LINE
  5
11D
100
AcDbEntity
  8
LAY-1
  6
CONTINUOUS
 62
     2
100
AcDbLine
 10
229.916352
 20
232.257138
 30
0.0
 11
229.032469
 21
231.373255
 31
0.0
  0
LINE
  5
11E
100
AcDbEntity
  8
LAY-1
  6
CONTINUOUS
 62
     2
100
AcDbLine
 10
258.72575
 20
174.861954
 30
0.0
 11
258.72575
 21
166.323923
 31
0.0
  0
LINE
  5
11F
100
AcDbEntity
  8
LAY-1
  6
CONTINUOUS
 62
     2
100
AcDbLine
 10
252.72575
 20
166.280907
 30
0.0
 11
252.72575
 21
174.861954
 31
0.0
  0
ARC
  5
120
100
AcDbEntity
  8
LAY-1
  6
CONTINUOUS
 62
     2
100
AcDbCircle
 10
281.181594
 20
233.317799
 30
0.0
 40
5.0
100
AcDbArc
 50
7.341538
 51
82.658462
  0
ARC
  5
121
100
AcDbEntity
  8
LAY-1
  6
CONTINUOUS
 62
     2
100
AcDbCircle
 10
255.72575
 20
207.861954
 30
0.0
 40
33.5
100
AcDbArc
 50
82.658462
 51
90.0
  0
LINE
  5
122
100
AcDbEntity
  8
LAY-1
  6
CONTINUOUS
 62
     2
100
AcDbLine
 10
281.820512
 20
238.276809
 30
0.0
 11
260.006503
 21
241.087324
 31
0.0
  0
LINE
  5
123
100
AcDbEntity
  8
LAY-1
  6
CONTINUOUS
 62
     2
100
AcDbLine
 10
289.22575
 20
225.861954
 30
0.0
 11
287.183533
 21
225.861954
 31
0.0
  0
ARC
  5
124
100
AcDbEntity
  8
LAY-1
  6
CONTINUOUS
 62
     2
100
AcDbCircle
 10
230.269906
 20
233.317799
 30
0.0
 40
5.0
100
AcDbArc
 50
97.341538
 51
172.658462
  0
ARC
  5
125
100
AcDbEntity
  8
LAY-1
  6
CONTINUOUS
 62
     2
100
AcDbCircle
 10
255.72575
 20
207.861954
 30
0.0
 40
33.5
100
AcDbArc
 50
90.0
 51
97.341538
  0
LINE
  5
126
100
AcDbEntity
  8
LAY-1
  6
CONTINUOUS
 62
     2
100
AcDbLine
 10
229.630987
 20
238.276809
 30
0.0
 11
251.444997
 21
241.087324
 31
0.0
  0
LINE
  5
127
100
AcDbEntity
  8
LAY-1
  6
CONTINUOUS
 62
     2
100
AcDbLine
 10
225.310895
 20
233.956717
 30
0.0
 11
223.237248
 21
217.861954
 31
0.0
  0
LINE
  5
128
100
AcDbEntity
  8
LAY-1
  6
CONTINUOUS
 62
     2
100
AcDbLine
 10
228.325362
 20
183.643547
 30
0.0
 11
229.209246
 21
182.759664
 31
0.0
  0
LINE
  5
129
100
AcDbEntity
  8
LAY-1
  6
CONTINUOUS
 62
     2
100
AcDbLine
 10
229.209246
 20
182.052557
 30
0.0
 11
228.325362
 21
181.168673
 31
0.0
  0
LINE
  5
12A
100
AcDbEntity
  8
LAY-1
  6
CONTINUOUS
 62
     2
100
AcDbLine
 10
225.310895
 20
181.767192
 30
0.0
 11
223.237248
 21
197.861954
 31
0.0
  0
LINE
  5
12B
100
AcDbEntity
  8
LAY-1
  6
CONTINUOUS
 62
     2
100
AcDbLine
 10
279.23705
 20
183.643547
 30
0.0
 11
280.120934
 21
182.759664
 31
0.0
  0
LINE
  5
12C
100
AcDbEntity
  8
LAY-1
  6
CONTINUOUS
 62
     2
100
AcDbLine
 10
280.828041
 20
183.46677
 30
0.0
 11
279.944157
 21
184.350654
 31
0.0
  0
ARC
  5
12D
100
AcDbEntity
  8
LAY-1
  6
CONTINUOUS
 62
     2
100
AcDbCircle
 10
242.72575
 20
177.672378
 30
0.0
 40
3.0
100
AcDbArc
 50
0.0
 51
66.702699
  0
LINE
  5
12E
100
AcDbEntity
  8
LAY-1
  6
CONTINUOUS
 62
     2
100
AcDbLine
 10
231.507343
 20
184.350654
 30
0.0
 11
230.623459
 21
183.46677
 31
0.0
  0
LINE
  5
12F
100
AcDbEntity
  8
LAY-1
  6
CONTINUOUS
 62
     2
100
AcDbLine
 10
229.916352
 20
183.46677
 30
0.0
 11
229.032469
 21
184.350654
 31
0.0
  0
LINE
  5
130
100
AcDbEntity
  8
LAY-1
  6
CONTINUOUS
 62
     2
100
AcDbLine
 10
232.214449
 20
183.643547
 30
0.0
 11
231.507343
 21
184.350654
 31
0.0
  0
ARC
  5
131
100
AcDbEntity
  8
LAY-1
  6
CONTINUOUS
 62
     2
100
AcDbCircle
 10
268.72575
 20
177.672378
 30
0.0
 40
3.0
100
AcDbArc
 50
113.297301
 51
180.0
  0
LINE
  5
132
100
AcDbEntity
  8
LAY-1
  6
CONTINUOUS
 62
     2
100
AcDbLine
 10
265.72575
 20
174.861954
 30
0.0
 11
265.72575
 21
177.672378
 31
0.0
  0
LINE
  5
133
100
AcDbEntity
  8
LAY-1
  6
CONTINUOUS
 62
     2
100
AcDbLine
 10
255.72575
 20
174.861954
 30
0.0
 11
265.72575
 21
174.861954
 31
0.0
  0
LINE
  5
134
100
AcDbEntity
  8
LAY-1
  6
CONTINUOUS
 62
     2
100
AcDbLine
 10
289.22575
 20
207.861954
 30
0.0
 11
289.22575
 21
225.861954
 31
0.0
  0
LINE
  5
135
100
AcDbEntity
  8
LAY-1
  6
CONTINUOUS
 62
     2
100
AcDbLine
 10
248.72575
 20
250.861954
 30
0.0
 11
247.72575
 21
250.284604
 31
0.0
  0
LINE
  5
136
100
AcDbEntity
  8
LAY-1
  6
CONTINUOUS
 62
     2
100
AcDbLine
 10
247.72575
 20
250.284604
 30
0.0
 11
247.72575
 21
244.939305
 31
0.0
  0
LINE
  5
137
100
AcDbEntity
  8
LAY-1
  6
CONTINUOUS
 62
     2
100
AcDbLine
 10
247.72575
 20
244.939305
 30
0.0
 11
248.72575
 21
244.361954
 31
0.0
  0
LINE
  5
138
100
AcDbEntity
  8
LAY-1
  6
CONTINUOUS
 62
     2
100
AcDbLine
 10
248.72575
 20
244.361954
 30
0.0
 11
255.72575
 21
244.361954
 31
0.0
  0
LINE
  5
139
100
AcDbEntity
  8
LAY-1
  6
CONTINUOUS
 62
     2
100
AcDbLine
 10
255.72575
 20
242.361954
 30
0.0
 11
248.9445
 21
242.361954
 31
0.0
  0
LINE
  5
13A
100
AcDbEntity
  8
LAY-1
  6
CONTINUOUS
 62
     2
100
AcDbLine
 10
248.9445
 20
242.361954
 30
0.0
 11
248.9445
 21
244.361954
 31
0.0
  0
ARC
  5
13B
100
AcDbEntity
  8
LAY-1
  6
CONTINUOUS
 62
     2
100
AcDbCircle
 10
249.72575
 20
247.109178
 30
0.0
 40
3.752777
100
AcDbArc
 50
57.795772
 51
122.204228
  0
ARC
  5
13C
100
AcDbEntity
  8
LAY-1
  6
CONTINUOUS
 62
     2
100
AcDbCircle
 10
255.72575
 20
236.716873
 30
0.0
 40
14.145082
100
AcDbArc
 50
90.0
 51
106.426421
  0
ARC
  5
13D
100
AcDbEntity
  8
LAY-1
  6
CONTINUOUS
 62
     2
100
AcDbCircle
 10
255.72575
 20
258.507036
 30
0.0
 40
14.145082
100
AcDbArc
 50
253.573579
 51
270.0
  0
ARC
  5
13E
100
AcDbEntity
  8
LAY-1
  6
CONTINUOUS
 62
     2
100
AcDbCircle
 10
249.72575
 20
248.114731
 30
0.0
 40
3.752777
100
AcDbArc
 50
237.795772
 51
302.204228
  0
ARC
  5
13F
100
AcDbEntity
  8
LAY-1
  6
CONTINUOUS
 62
     2
100
AcDbCircle
 10
261.72575
 20
248.114731
 30
0.0
 40
3.752777
100
AcDbArc
 50
237.795772
 51
302.204228
  0
ARC
  5
140
100
AcDbEntity
  8
LAY-1
  6
CONTINUOUS
 62
     2
100
AcDbCircle
 10
255.72575
 20
258.507036
 30
0.0
 40
14.145082
100
AcDbArc
 50
270.0
 51
286.426421
  0
LINE
  5
141
100
AcDbEntity
  8
LAY-1
  6
CONTINUOUS
 62
     2
100
AcDbLine
 10
244.271564
 20
174.361954
 30
0.0
 11
252.72575
 21
174.361954
 31
0.0
  0
ARC
  5
142
100
AcDbEntity
  8
LAY-1
  6
CONTINUOUS
 62
     2
100
AcDbCircle
 10
255.72575
 20
236.716873
 30
0.0
 40
14.145082
100
AcDbArc
 50
73.573579
 51
90.0
  0
LINE
  5
143
100
AcDbEntity
  8
LAY-1
  6
CONTINUOUS
 62
     2
100
AcDbLine
 10
244.271564
 20
241.361954
 30
0.0
 11
267.18014
 21
241.361954
 31
0.0
  0
LINE
  5
144
100
AcDbEntity
  8
LAY-1
  6
CONTINUOUS
 62
     2
100
AcDbLine
 10
282.207555
 20
177.512502
 30
0.0
 11
267.18014
 21
174.361954
 31
0.0
  0
LINE
  5
145
100
AcDbEntity
  8
LAY-1
  6
CONTINUOUS
 62
     2
100
AcDbLine
 10
229.243958
 20
177.512499
 30
0.0
 11
244.271564
 21
174.361954
 31
0.0
  0
LINE
  5
146
100
AcDbEntity
  8
LAY-1
  6
CONTINUOUS
 62
     2
100
AcDbLine
 10
229.243958
 20
238.21141
 30
0.0
 11
244.271564
 21
241.361954
 31
0.0
  0
LINE
  5
147
100
AcDbEntity
  8
LAY-1
  6
CONTINUOUS
 62
     2
100
AcDbLine
 10
258.72575
 20
174.361954
 30
0.0
 11
267.18014
 21
174.361954
 31
0.0
  0
ARC
  5
148
100
AcDbEntity
  8
LAY-1
  6
CONTINUOUS
 62
     2
100
AcDbCircle
 10
261.72575
 20
247.109178
 30
0.0
 40
3.752777
100
AcDbArc
 50
57.795772
 51
122.204228
  0
LINE
  5
149
100
AcDbEntity
  8
LAY-1
  6
CONTINUOUS
 62
     2
100
AcDbLine
 10
255.72575
 20
250.861954
 30
0.0
 11
262.72575
 21
250.861954
 31
0.0
  0
LINE
  5
14A
100
AcDbEntity
  8
LAY-1
  6
CONTINUOUS
 62
     2
100
AcDbLine
 10
262.47575
 20
241.361954
 30
0.0
 11
262.507
 21
242.361954
 31
0.0
  0
LINE
  5
14B
100
AcDbEntity
  8
LAY-1
  6
CONTINUOUS
 62
     2
100
AcDbLine
 10
263.72575
 20
244.939305
 30
0.0
 11
262.72575
 21
244.361954
 31
0.0
  0
LINE
  5
14C
100
AcDbEntity
  8
LAY-1
  6
CONTINUOUS
 62
     2
100
AcDbLine
 10
262.72575
 20
250.861954
 30
0.0
 11
263.72575
 21
250.284604
 31
0.0
  0
LINE
  5
14D
100
AcDbEntity
  8
LAY-1
  6
CONTINUOUS
 62
     2
100
AcDbLine
 10
262.507
 20
242.361954
 30
0.0
 11
262.507
 21
244.361954
 31
0.0
  0
LINE
  5
14E
100
AcDbEntity
  8
LAY-1
  6
CONTINUOUS
 62
     2
100
AcDbLine
 10
255.72575
 20
242.361954
 30
0.0
 11
262.507
 21
242.361954
 31
0.0
  0
LINE
  5
14F
100
AcDbEntity
  8
LAY-1
  6
CONTINUOUS
 62
     2
100
AcDbLine
 10
262.72575
 20
244.361954
 30
0.0
 11
255.72575
 21
244.361954
 31
0.0
  0
LINE
  5
150
100
AcDbEntity
  8
LAY-1
  6
CONTINUOUS
 62
     2
100
AcDbLine
 10
263.72575
 20
250.284604
 30
0.0
 11
263.72575
 21
244.939305
 31
0.0
  0
LINE
  5
151
100
AcDbEntity
  8
LAY-1
  6
CONTINUOUS
 62
     2
100
AcDbLine
 10
223.72575
 20
202.861954
 30
0.0
 11
223.72575
 21
212.861954
 31
0.0
  0
ARC
  5
152
100
AcDbEntity
  8
LAY-1
  6
CONTINUOUS
 62
     2
100
AcDbCircle
 10
218.72575
 20
202.861954
 30
0.0
 40
5.0
100
AcDbArc
 50
270.0
 51
0.0
  0
ARC
  5
153
100
AcDbEntity
  8
LAY-1
  6
CONTINUOUS
 62
     2
100
AcDbCircle
 10
218.72575
 20
212.861954
 30
0.0
 40
5.0
100
AcDbArc
 50
0.0
 51
90.0
  0
ARC
  5
154
100
AcDbEntity
  8
LAY-1
  6
CONTINUOUS
 62
     2
100
AcDbCircle
 10
212.72575
 20
202.861954
 30
0.0
 40
5.0
100
AcDbArc
 50
180.0
 51
270.0
  0
LINE
  5
155
100
AcDbEntity
  8
LAY-1
  6
CONTINUOUS
 62
     2
100
AcDbLine
 10
207.72575
 20
212.861954
 30
0.0
 11
207.72575
 21
202.861954
 31
0.0
  0
ARC
  5
156
100
AcDbEntity
  8
LAY-1
  6
CONTINUOUS
 62
     2
100
AcDbCircle
 10
212.72575
 20
212.861954
 30
0.0
 40
5.0
100
AcDbArc
 50
90.0
 51
180.0
  0
LINE
  5
157
100
AcDbEntity
  8
LAY-1
  6
CONTINUOUS
 62
     2
100
AcDbLine
 10
212.22575
 20
207.861954
 30
0.0
 11
215.22575
 21
210.861954
 31
0.0
  0
LINE
  5
158
100
AcDbEntity
  8
LAY-1
  6
CONTINUOUS
 62
     2
100
AcDbLine
 10
215.22575
 20
210.861954
 30
0.0
 11
215.22575
 21
209.861954
 31
0.0
  0
LINE
  5
159
100
AcDbEntity
  8
LAY-1
  6
CONTINUOUS
 62
     2
100
AcDbLine
 10
215.22575
 20
209.861954
 30
0.0
 11
219.22575
 21
209.861954
 31
0.0
  0
LINE
  5
15A
100
AcDbEntity
  8
LAY-1
  6
CONTINUOUS
 62
     2
100
AcDbLine
 10
219.22575
 20
209.861954
 30
0.0
 11
219.22575
 21
205.861954
 31
0.0
  0
LINE
  5
15B
100
AcDbEntity
  8
LAY-1
  6
CONTINUOUS
 62
     2
100
AcDbLine
 10
219.22575
 20
205.861954
 30
0.0
 11
215.22575
 21
205.861954
 31
0.0
  0
LINE
  5
15C
100
AcDbEntity
  8
LAY-1
  6
CONTINUOUS
 62
     2
100
AcDbLine
 10
215.22575
 20
205.861954
 30
0.0
 11
215.22575
 21
204.861954
 31
0.0
  0
LINE
  5
15D
100
AcDbEntity
  8
LAY-1
  6
CONTINUOUS
 62
     2
100
AcDbLine
 10
215.22575
 20
204.861954
 30
0.0
 11
212.22575
 21
207.861954
 31
0.0
  0
LINE
  5
15E
100
AcDbEntity
  8
LAY-1
  6
CONTINUOUS
 62
     2
100
AcDbLine
 10
212.72575
 20
217.861954
 30
0.0
 11
221.23539
 21
217.861954
 31
0.0
  0
LINE
  5
15F
100
AcDbEntity
  8
LAY-1
  6
CONTINUOUS
 62
     2
100
AcDbLine
 10
212.72575
 20
197.861954
 30
0.0
 11
221.23539
 21
197.861954
 31
0.0
  0
LINE
  5
160
100
AcDbEntity
  8
LAY-1
  6
CONTINUOUS
 62
     2
100
AcDbLine
 10
246.533362
 20
217.054343
 30
0.0
 11
247.240468
 21
216.347236
 31
0.0
  0
ARC
  5
161
100
AcDbEntity
  8
LAY-1
  6
CONTINUOUS
 62
     2
100
AcDbCircle
 10
255.72575
 20
207.861954
 30
0.0
 40
15.0
100
AcDbArc
 50
45.0
 51
135.0
  0
ARC
  5
162
100
AcDbEntity
  8
LAY-1
  6
CONTINUOUS
 62
     2
100
AcDbCircle
 10
255.72575
 20
207.861954
 30
0.0
 40
13.0
100
AcDbArc
 50
45.0
 51
135.0
  0
LINE
  5
163
100
AcDbEntity
  8
LAY-1
  6
CONTINUOUS
 62
     2
100
AcDbLine
 10
245.119148
 20
218.468556
 30
0.0
 11
244.412041
 21
219.175663
 31
0.0
  0
LINE
  5
164
100
AcDbEntity
  8
LAY-1
  6
CONTINUOUS
 62
     2
100
AcDbLine
 10
266.332352
 20
218.468556
 30
0.0
 11
267.039458
 21
219.175663
 31
0.0
  0
LINE
  5
165
100
AcDbEntity
  8
LAY-1
  6
CONTINUOUS
 62
     2
100
AcDbLine
 10
264.211031
 20
216.347236
 30
0.0
 11
264.918138
 21
217.054343
 31
0.0
  0
LINE
  5
166
100
AcDbEntity
  8
LAY-1
  6
CONTINUOUS
 62
     2
100
AcDbLine
 10
264.211031
 20
216.347236
 30
0.0
 11
267.477122
 21
215.370686
 31
0.0
  0
LINE
  5
167
100
AcDbEntity
  8
LAY-1
  6
CONTINUOUS
 62
     2
100
AcDbLine
 10
267.039458
 20
219.175663
 30
0.0
 11
267.477122
 21
215.370686
 31
0.0
  0
LINE
  5
168
100
AcDbEntity
  8
LAY-1
  6
CONTINUOUS
 62
     2
100
AcDbLine
 10
244.412041
 20
219.175663
 30
0.0
 11
243.974378
 21
215.370686
 31
0.0
  0
LINE
  5
169
100
AcDbEntity
  8
LAY-1
  6
CONTINUOUS
 62
     2
100
AcDbLine
 10
247.240468
 20
216.347236
 30
0.0
 11
243.974378
 21
215.370686
 31
0.0
  0
LINE
  5
16A
100
AcDbEntity
  8
LAY-1
  6
CONTINUOUS
 62
     2
100
AcDbLine
 10
248.22575
 20
203.361954
 30
0.0
 11
248.22575
 21
188.861954
 31
0.0
  0
ARC
  5
16B
100
AcDbEntity
  8
LAY-1
  6
CONTINUOUS
 62
     2
100
AcDbCircle
 10
248.72575
 20
188.861954
 30
0.0
 40
0.5
100
AcDbArc
 50
180.0
 51
270.0
  0
LINE
  5
16C
100
AcDbEntity
  8
LAY-1
  6
CONTINUOUS
 62
     2
100
AcDbLine
 10
248.72575
 20
188.361954
 30
0.0
 11
262.72575
 21
188.361954
 31
0.0
  0
ARC
  5
16D
100
AcDbEntity
  8
LAY-1
  6
CONTINUOUS
 62
     2
100
AcDbCircle
 10
262.72575
 20
188.861954
 30
0.0
 40
0.5
100
AcDbArc
 50
270.0
 51
0.0
  0
LINE
  5
16E
100
AcDbEntity
  8
LAY-1
  6
CONTINUOUS
 62
     2
100
AcDbLine
 10
263.22575
 20
203.361954
 30
0.0
 11
263.22575
 21
188.861954
 31
0.0
  0
POLYLINE
  5
16F
100
AcDbEntity
  8
LAY-1
  6
CONTINUOUS
 62
     2
100
AcDb2dPolyline
 66
     1
 10
0.0
 20
0.0
 30
0.0
 70
   128
  0
VERTEX
  5
170
100
AcDbEntity
  8
LAY-1
  6
CONTINUOUS
 62
     2
100
AcDbVertex
100
AcDb2dVertex
 10
252.72575
 20
166.280907
 30
0.0
  0
VERTEX
  5
171
100
AcDbEntity
  8
LAY-1
  6
CONTINUOUS
 62
     2
100
AcDbVertex
100
AcDb2dVertex
 10
253.111065
 20
166.412963
 30
0.0
  0
SEQEND
  5
172
100
AcDbEntity
  8
LAY-1
  6
CONTINUOUS
 62
     2
  0
ARC
  5
173
100
AcDbEntity
  8
LAY-1
  6
CONTINUOUS
 62
     2
100
AcDbCircle
 10
267.999449
 20
114.144569
 30
0.0
 40
54.347483
100
AcDbArc
 50
105.061144
 51
105.899331
  0
ARC
  5
174
100
AcDbEntity
  8
LAY-1
  6
CONTINUOUS
 62
     2
100
AcDbCircle
 10
254.972962
 20
157.065703
 30
0.0
 40
9.622052
100
AcDbArc
 50
92.041407
 51
96.538622
  0
ARC
  5
175
100
AcDbEntity
  8
LAY-1
  6
CONTINUOUS
 62
     2
100
AcDbCircle
 10
253.824053
 20
161.899698
 30
0.0
 40
4.849426
100
AcDbArc
 50
71.500375
 51
80.430882
  0
ARC
  5
176
100
AcDbEntity
  8
LAY-1
  6
CONTINUOUS
 62
     2
100
AcDbCircle
 10
253.08871
 20
160.180064
 30
0.0
 40
6.715235
100
AcDbArc
 50
63.499498
 51
70.205867
  0
ARC
  5
177
100
AcDbEntity
  8
LAY-1
  6
CONTINUOUS
 62
     2
100
AcDbCircle
 10
264.145501
 20
193.190102
 30
0.0
 40
28.177832
100
AcDbArc
 50
253.378068
 51
254.925439
  0
ARC
  5
178
100
AcDbEntity
  8
LAY-1
  6
CONTINUOUS
 62
     2
100
AcDbCircle
 10
257.026522
 20
170.250177
 30
0.0
 40
4.27339
100
AcDbArc
 50
267.191422
 51
277.317764
  0
ARC
  5
179
100
AcDbEntity
  8
LAY-1
  6
CONTINUOUS
 62
     2
100
AcDbCircle
 10
256.381669
 20
172.456783
 30
0.0
 40
6.553974
100
AcDbArc
 50
280.453745
 51
287.377824
  0
ARC
  5
17A
100
AcDbEntity
  8
LAY-1
  6
CONTINUOUS
 62
     2
100
AcDbCircle
 10
255.940689
 20
174.478187
 30
0.0
 40
8.616763
100
AcDbArc
 50
286.161675
 51
288.857427
  0
LINE
  5
17B
100
AcDbEntity
  8
LAY-1
  6
EXLTYPE3
 62
     1
100
AcDbLine
 10
403.956526
 20
165.864532
 30
0.0
 11
403.956526
 21
258.693733
 31
0.0
  0
LINE
  5
17C
100
AcDbEntity
  8
LAY-1
  6
CONTINUOUS
 62
     2
100
AcDbLine
 10
332.956526
 20
180.702489
 30
0.0
 11
332.956526
 21
175.85968
 31
0.0
  0
ARC
  5
17D
100
AcDbEntity
  8
LAY-1
  6
CONTINUOUS
 62
     2
100
AcDbCircle
 10
367.456526
 20
234.529844
 30
0.0
 40
1.0
100
AcDbArc
 50
0.0
 51
93.0
  0
ARC
  5
17E
100
AcDbEntity
  8
LAY-1
  6
CONTINUOUS
 62
     2
100
AcDbCircle
 10
382.956526
 20
235.974287
 30
0.0
 40
2.0
100
AcDbArc
 50
272.0
 51
0.0
  0
LINE
  5
17F
100
AcDbEntity
  8
LAY-1
  6
CONTINUOUS
 62
     2
100
AcDbLine
 10
390.956526
 20
241.361954
 30
0.0
 11
385.456526
 21
241.361954
 31
0.0
  0
ARC
  5
180
100
AcDbEntity
  8
LAY-1
  6
CONTINUOUS
 62
     2
100
AcDbCircle
 10
360.956526
 20
236.737809
 30
0.0
 40
0.5
100
AcDbArc
 50
0.0
 51
93.0
  0
ARC
  5
181
100
AcDbEntity
  8
LAY-1
  6
CONTINUOUS
 62
     2
100
AcDbCircle
 10
400.456526
 20
255.259441
 30
0.0
 40
10.897486
100
AcDbArc
 50
251.266002
 51
288.733998
  0
ARC
  5
182
100
AcDbEntity
  8
LAY-1
  6
CONTINUOUS
 62
     2
100
AcDbCircle
 10
400.456526
 20
239.964468
 30
0.0
 40
10.897486
100
AcDbArc
 50
71.266002
 51
108.733998
  0
LINE
  5
183
100
AcDbEntity
  8
LAY-1
  6
CONTINUOUS
 62
     2
100
AcDbLine
 10
396.956526
 20
244.361954
 30
0.0
 11
403.956526
 21
244.361954
 31
0.0
  0
LINE
  5
184
100
AcDbEntity
  8
LAY-1
  6
CONTINUOUS
 62
     2
100
AcDbLine
 10
396.956526
 20
250.861954
 30
0.0
 11
396.956526
 21
244.361954
 31
0.0
  0
LINE
  5
185
100
AcDbEntity
  8
LAY-1
  6
CONTINUOUS
 62
     2
100
AcDbLine
 10
403.956526
 20
250.861954
 30
0.0
 11
396.956526
 21
250.861954
 31
0.0
  0
LINE
  5
186
100
AcDbEntity
  8
LAY-1
  6
CONTINUOUS
 62
     2
100
AcDbLine
 10
432.533876
 20
204.109178
 30
0.0
 11
436.379176
 21
204.109178
 31
0.0
  0
ARC
  5
187
100
AcDbEntity
  8
LAY-1
  6
CONTINUOUS
 62
     2
100
AcDbCircle
 10
433.627737
 20
202.235566
 30
0.0
 40
3.328788
100
AcDbArc
 50
325.746813
 51
34.253187
  0
ARC
  5
188
100
AcDbEntity
  8
LAY-1
  6
CONTINUOUS
 62
     2
100
AcDbCircle
 10
424.471326
 20
207.861954
 30
0.0
 40
12.4852
100
AcDbArc
 50
342.507675
 51
0.0
  0
ARC
  5
189
100
AcDbEntity
  8
LAY-1
  6
CONTINUOUS
 62
     2
100
AcDbCircle
 10
444.441725
 20
207.861954
 30
0.0
 40
12.4852
100
AcDbArc
 50
180.0
 51
197.492325
  0
ARC
  5
18A
100
AcDbEntity
  8
LAY-1
  6
CONTINUOUS
 62
     2
100
AcDbCircle
 10
435.285314
 20
202.235566
 30
0.0
 40
3.328788
100
AcDbArc
 50
145.746813
 51
214.253187
  0
LINE
  5
18B
100
AcDbEntity
  8
LAY-1
  6
CONTINUOUS
 62
     2
100
AcDbLine
 10
436.956526
 20
201.361954
 30
0.0
 11
436.956526
 21
207.861954
 31
0.0
  0
LINE
  5
18C
100
AcDbEntity
  8
LAY-1
  6
CONTINUOUS
 62
     2
100
AcDbLine
 10
436.379176
 20
200.361954
 30
0.0
 11
436.956526
 21
201.361954
 31
0.0
  0
LINE
  5
18D
100
AcDbEntity
  8
LAY-1
  6
CONTINUOUS
 62
     2
100
AcDbLine
 10
432.533876
 20
200.361954
 30
0.0
 11
436.379176
 21
200.361954
 31
0.0
  0
LINE
  5
18E
100
AcDbEntity
  8
LAY-1
  6
CONTINUOUS
 62
     2
100
AcDbLine
 10
431.956526
 20
207.861954
 30
0.0
 11
431.956526
 21
214.361954
 31
0.0
  0
LINE
  5
18F
100
AcDbEntity
  8
LAY-1
  6
CONTINUOUS
 62
     2
100
AcDbLine
 10
431.956526
 20
214.361954
 30
0.0
 11
432.533876
 21
215.361954
 31
0.0
  0
LINE
  5
190
100
AcDbEntity
  8
LAY-1
  6
CONTINUOUS
 62
     2
100
AcDbLine
 10
442.456526
 20
204.538454
 30
0.0
 11
442.456526
 21
206.861954
 31
0.0
  0
LINE
  5
191
100
AcDbEntity
  8
LAY-1
  6
CONTINUOUS
 62
     2
100
AcDbLine
 10
442.456526
 20
204.538454
 30
0.0
 11
441.780026
 21
203.861954
 31
0.0
  0
LINE
  5
192
100
AcDbEntity
  8
LAY-1
  6
CONTINUOUS
 62
     2
100
AcDbLine
 10
436.956526
 20
214.361954
 30
0.0
 11
436.956526
 21
207.861954
 31
0.0
  0
LINE
  5
193
100
AcDbEntity
  8
LAY-1
  6
CONTINUOUS
 62
     2
100
AcDbLine
 10
442.456526
 20
206.861954
 30
0.0
 11
440.456526
 21
206.861954
 31
0.0
  0
LINE
  5
194
100
AcDbEntity
  8
LAY-1
  6
CONTINUOUS
 62
     2
100
AcDbLine
 10
436.956526
 20
211.861954
 30
0.0
 11
441.780026
 21
211.861954
 31
0.0
  0
LINE
  5
195
100
AcDbEntity
  8
LAY-1
  6
CONTINUOUS
 62
     2
100
AcDbLine
 10
440.456526
 20
206.861954
 30
0.0
 11
440.456526
 21
207.861954
 31
0.0
  0
LINE
  5
196
100
AcDbEntity
  8
LAY-1
  6
CONTINUOUS
 62
     2
100
AcDbLine
 10
414.956526
 20
241.361954
 30
0.0
 11
414.956526
 21
220.386985
 31
0.0
  0
LINE
  5
197
100
AcDbEntity
  8
LAY-1
  6
CONTINUOUS
 62
     2
100
AcDbLine
 10
431.956526
 20
215.930577
 30
0.0
 11
431.956526
 21
211.861954
 31
0.0
  0
ARC
  5
198
100
AcDbEntity
  8
LAY-1
  6
CONTINUOUS
 62
     2
100
AcDbCircle
 10
416.956526
 20
220.386985
 30
0.0
 40
2.0
100
AcDbArc
 50
180.0
 51
268.0
  0
LINE
  5
199
100
AcDbEntity
  8
LAY-1
  6
CONTINUOUS
 62
     2
100
AcDbLine
 10
430.026325
 20
217.929359
 30
0.0
 11
416.886727
 21
218.388203
 31
0.0
  0
ARC
  5
19A
100
AcDbEntity
  8
LAY-1
  6
CONTINUOUS
 62
     2
100
AcDbCircle
 10
429.956526
 20
215.930577
 30
0.0
 40
2.0
100
AcDbArc
 50
0.0
 51
88.0
  0
LINE
  5
19B
100
AcDbEntity
  8
LAY-1
  6
CONTINUOUS
 62
     2
100
AcDbLine
 10
440.456526
 20
208.861954
 30
0.0
 11
440.456526
 21
207.861954
 31
0.0
  0
LINE
  5
19C
100
AcDbEntity
  8
LAY-1
  6
CONTINUOUS
 62
     2
100
AcDbLine
 10
442.456526
 20
208.861954
 30
0.0
 11
440.456526
 21
208.861954
 31
0.0
  0
LINE
  5
19D
100
AcDbEntity
  8
LAY-1
  6
CONTINUOUS
 62
     2
100
AcDbLine
 10
414.956526
 20
174.361954
 30
0.0
 11
414.956526
 21
195.336924
 31
0.0
  0
LINE
  5
19E
100
AcDbEntity
  8
LAY-1
  6
CONTINUOUS
 62
     2
100
AcDbLine
 10
431.956526
 20
199.793332
 30
0.0
 11
431.956526
 21
203.861954
 31
0.0
  0
ARC
  5
19F
100
AcDbEntity
  8
LAY-1
  6
CONTINUOUS
 62
     2
100
AcDbCircle
 10
416.956526
 20
195.336924
 30
0.0
 40
2.0
100
AcDbArc
 50
92.0
 51
180.0
  0
LINE
  5
1A0
100
AcDbEntity
  8
LAY-1
  6
CONTINUOUS
 62
     2
100
AcDbLine
 10
430.026325
 20
197.79455
 30
0.0
 11
416.886727
 21
197.335705
 31
0.0
  0
ARC
  5
1A1
100
AcDbEntity
  8
LAY-1
  6
CONTINUOUS
 62
     2
100
AcDbCircle
 10
429.956526
 20
199.793332
 30
0.0
 40
2.0
100
AcDbArc
 50
272.0
 51
0.0
  0
LINE
  5
1A2
100
AcDbEntity
  8
LAY-1
  6
CONTINUOUS
 62
     2
100
AcDbLine
 10
360.930358
 20
237.237124
 30
0.0
 11
346.278251
 21
236.469239
 31
0.0
  0
ARC
  5
1A3
100
AcDbEntity
  8
LAY-1
  6
CONTINUOUS
 62
     2
100
AcDbCircle
 10
360.956526
 20
175.379765
 30
0.0
 40
0.5
100
AcDbArc
 50
267.995013
 51
0.0
  0
ARC
  5
1A4
100
AcDbEntity
  8
LAY-1
  6
CONTINUOUS
 62
     2
100
AcDbCircle
 10
329.956526
 20
180.702489
 30
0.0
 40
3.0
100
AcDbArc
 50
0.0
 51
76.657636
  0
ARC
  5
1A5
100
AcDbEntity
  8
LAY-1
  6
CONTINUOUS
 62
     2
100
AcDbCircle
 10
332.956526
 20
193.3516
 30
0.0
 40
10.0
100
AcDbArc
 50
180.0
 51
256.657636
  0
ARC
  5
1A6
100
AcDbEntity
  8
LAY-1
  6
CONTINUOUS
 62
     2
100
AcDbCircle
 10
332.956526
 20
222.372309
 30
0.0
 40
10.0
100
AcDbArc
 50
93.0
 51
180.0
  0
ARC
  5
1A7
100
AcDbEntity
  8
LAY-1
  6
CONTINUOUS
 62
     2
100
AcDbCircle
 10
342.456526
 20
233.885278
 30
0.0
 40
1.0
100
AcDbArc
 50
273.0
 51
354.089092
  0
ARC
  5
1A8
100
AcDbEntity
  8
LAY-1
  6
CONTINUOUS
 62
     2
100
AcDbCircle
 10
346.435259
 20
233.473351
 30
0.0
 40
3.0
100
AcDbArc
 50
93.0
 51
174.089092
  0
LINE
  5
1A9
100
AcDbEntity
  8
LAY-1
  6
CONTINUOUS
 62
     2
100
AcDbLine
 10
332.433166
 20
232.358604
 30
0.0
 11
342.508862
 21
232.886649
 31
0.0
  0
LINE
  5
1AA
100
AcDbEntity
  8
LAY-1
  6
CONTINUOUS
 62
     2
100
AcDbLine
 10
322.956526
 20
222.372309
 30
0.0
 11
322.956526
 21
207.861954
 31
0.0
  0
LINE
  5
1AB
100
AcDbEntity
  8
LAY-1
  6
CONTINUOUS
 62
     2
100
AcDbLine
 10
432.533876
 20
215.361954
 30
0.0
 11
436.379176
 21
215.361954
 31
0.0
  0
LINE
  5
1AC
100
AcDbEntity
  8
LAY-1
  6
CONTINUOUS
 62
     2
100
AcDbLine
 10
436.379176
 20
215.361954
 30
0.0
 11
436.956526
 21
214.361954
 31
0.0
  0
LINE
  5
1AD
100
AcDbEntity
  8
LAY-1
  6
CONTINUOUS
 62
     2
100
AcDbLine
 10
403.956526
 20
250.861954
 30
0.0
 11
410.956526
 21
250.861954
 31
0.0
  0
LINE
  5
1AE
100
AcDbEntity
  8
LAY-1
  6
CONTINUOUS
 62
     2
100
AcDbLine
 10
410.956526
 20
250.861954
 30
0.0
 11
410.956526
 21
244.361954
 31
0.0
  0
LINE
  5
1AF
100
AcDbEntity
  8
LAY-1
  6
CONTINUOUS
 62
     2
100
AcDbLine
 10
410.956526
 20
244.361954
 30
0.0
 11
403.956526
 21
244.361954
 31
0.0
  0
LINE
  5
1B0
100
AcDbEntity
  8
LAY-1
  6
CONTINUOUS
 62
     2
100
AcDbLine
 10
403.956526
 20
242.361954
 30
0.0
 11
410.737776
 21
242.361954
 31
0.0
  0
LINE
  5
1B1
100
AcDbEntity
  8
LAY-1
  6
CONTINUOUS
 62
     2
100
AcDbLine
 10
410.737776
 20
242.361954
 30
0.0
 11
410.737776
 21
244.361954
 31
0.0
  0
LINE
  5
1B2
100
AcDbEntity
  8
LAY-1
  6
CONTINUOUS
 62
     2
100
AcDbLine
 10
436.956526
 20
203.861954
 30
0.0
 11
441.780026
 21
203.861954
 31
0.0
  0
LINE
  5
1B3
100
AcDbEntity
  8
LAY-1
  6
CONTINUOUS
 62
     2
100
AcDbLine
 10
397.175276
 20
242.361954
 30
0.0
 11
397.175276
 21
244.361954
 31
0.0
  0
ARC
  5
1B4
100
AcDbEntity
  8
LAY-1
  6
CONTINUOUS
 62
     2
100
AcDbCircle
 10
407.456526
 20
255.259441
 30
0.0
 40
10.897486
100
AcDbArc
 50
251.266002
 51
288.733998
  0
ARC
  5
1B5
100
AcDbEntity
  8
LAY-1
  6
CONTINUOUS
 62
     2
100
AcDbCircle
 10
435.285314
 20
213.488343
 30
0.0
 40
3.328788
100
AcDbArc
 50
145.746813
 51
214.253187
  0
ARC
  5
1B6
100
AcDbEntity
  8
LAY-1
  6
CONTINUOUS
 62
     2
100
AcDbCircle
 10
444.441725
 20
207.861954
 30
0.0
 40
12.4852
100
AcDbArc
 50
162.507675
 51
180.0
  0
ARC
  5
1B7
100
AcDbEntity
  8
LAY-1
  6
CONTINUOUS
 62
     2
100
AcDbCircle
 10
424.471326
 20
207.861954
 30
0.0
 40
12.4852
100
AcDbArc
 50
0.0
 51
17.492325
  0
ARC
  5
1B8
100
AcDbEntity
  8
LAY-1
  6
CONTINUOUS
 62
     2
100
AcDbCircle
 10
433.627737
 20
213.488343
 30
0.0
 40
3.328788
100
AcDbArc
 50
325.746813
 51
34.253187
  0
LINE
  5
1B9
100
AcDbEntity
  8
LAY-1
  6
CONTINUOUS
 62
     2
100
AcDbLine
 10
432.533876
 20
211.614731
 30
0.0
 11
436.379176
 21
211.614731
 31
0.0
  0
LINE
  5
1BA
100
AcDbEntity
  8
LAY-1
  6
CONTINUOUS
 62
     2
100
AcDbLine
 10
431.956526
 20
201.361954
 30
0.0
 11
432.533876
 21
200.361954
 31
0.0
  0
LINE
  5
1BB
100
AcDbEntity
  8
LAY-1
  6
CONTINUOUS
 62
     2
100
AcDbLine
 10
442.456526
 20
211.185454
 30
0.0
 11
441.780026
 21
211.861954
 31
0.0
  0
LINE
  5
1BC
100
AcDbEntity
  8
LAY-1
  6
CONTINUOUS
 62
     2
100
AcDbLine
 10
442.456526
 20
211.185454
 30
0.0
 11
442.456526
 21
208.861954
 31
0.0
  0
ARC
  5
1BD
100
AcDbEntity
  8
LAY-1
  6
CONTINUOUS
 62
     2
100
AcDbCircle
 10
407.456526
 20
239.964468
 30
0.0
 40
10.897486
100
AcDbArc
 50
71.266002
 51
108.733998
  0
LINE
  5
1BE
100
AcDbEntity
  8
LAY-1
  6
CONTINUOUS
 62
     2
100
AcDbLine
 10
403.956526
 20
242.361954
 30
0.0
 11
397.175276
 21
242.361954
 31
0.0
  0
ARC
  5
1BF
100
AcDbEntity
  8
LAY-1
  6
CONTINUOUS
 62
     2
100
AcDbCircle
 10
385.456526
 20
240.861954
 30
0.0
 40
0.5
100
AcDbArc
 50
90.0
 51
180.0
  0
LINE
  5
1C0
100
AcDbEntity
  8
LAY-1
  6
CONTINUOUS
 62
     1
100
AcDbLine
 10
409.623713
 20
242.361954
 30
0.0
 11
410.737776
 21
244.235659
 31
0.0
  0
LINE
  5
1C1
100
AcDbEntity
  8
LAY-1
  6
CONTINUOUS
 62
     1
100
AcDbLine
 10
436.956526
 20
204.538454
 30
0.0
 11
442.456526
 21
204.538454
 31
0.0
  0
LINE
  5
1C2
100
AcDbEntity
  8
LAY-1
  6
CONTINUOUS
 62
     1
100
AcDbLine
 10
436.956526
 20
211.185454
 30
0.0
 11
442.456526
 21
211.185454
 31
0.0
  0
LINE
  5
1C3
100
AcDbEntity
  8
LAY-1
  6
CONTINUOUS
 62
     1
100
AcDbLine
 10
398.289339
 20
242.361954
 30
0.0
 11
397.175276
 21
244.235659
 31
0.0
  0
LINE
  5
1C4
100
AcDbEntity
  8
LAY-1
  6
CONTINUOUS
 62
     2
100
AcDbLine
 10
390.956526
 20
174.361954
 30
0.0
 11
414.956526
 21
174.361954
 31
0.0
  0
LINE
  5
1C5
100
AcDbEntity
  8
LAY-1
  6
CONTINUOUS
 62
     2
100
AcDbLine
 10
390.956526
 20
241.361954
 30
0.0
 11
414.956526
 21
241.361954
 31
0.0
  0
LINE
  5
1C6
100
AcDbEntity
  8
LAY-1
  6
CONTINUOUS
 62
     2
100
AcDbLine
 10
410.706526
 20
241.361954
 30
0.0
 11
410.737776
 21
242.361954
 31
0.0
  0
LINE
  5
1C7
100
AcDbEntity
  8
LAY-1
  6
CONTINUOUS
 62
     1
100
AcDbLine
 10
409.592463
 20
241.361954
 30
0.0
 11
409.623713
 21
242.361954
 31
0.0
  0
LINE
  5
1C8
100
AcDbEntity
  8
LAY-1
  6
CONTINUOUS
 62
     1
100
AcDbLine
 10
398.320589
 20
241.361954
 30
0.0
 11
398.289339
 21
242.361954
 31
0.0
  0
LINE
  5
1C9
100
AcDbEntity
  8
LAY-1
  6
CONTINUOUS
 62
     2
100
AcDbLine
 10
397.206526
 20
241.361954
 30
0.0
 11
397.175276
 21
242.361954
 31
0.0
  0
LINE
  5
1CA
100
AcDbEntity
  8
LAY-1
  6
CONTINUOUS
 62
     2
100
AcDbLine
 10
368.456526
 20
207.861954
 30
0.0
 11
368.456526
 21
234.529844
 31
0.0
  0
LINE
  5
1CB
100
AcDbEntity
  8
LAY-1
  6
CONTINUOUS
 62
     2
100
AcDbLine
 10
368.456526
 20
207.861954
 30
0.0
 11
368.456526
 21
181.194065
 31
0.0
  0
LINE
  5
1CC
100
AcDbEntity
  8
LAY-1
  6
CONTINUOUS
 62
     2
100
AcDbLine
 10
361.456526
 20
207.861954
 30
0.0
 11
361.456526
 21
175.379765
 31
0.0
  0
LINE
  5
1CD
100
AcDbEntity
  8
LAY-1
  6
CONTINUOUS
 62
     2
100
AcDbLine
 10
361.456526
 20
207.861954
 30
0.0
 11
361.456526
 21
236.737809
 31
0.0
  0
LINE
  5
1CE
100
AcDbEntity
  8
LAY-1
  6
CONTINUOUS
 62
     2
100
AcDbLine
 10
367.40419
 20
235.528474
 30
0.0
 11
361.456526
 21
235.21677
 31
0.0
  0
LINE
  5
1CF
100
AcDbEntity
  8
LAY-1
  6
CONTINUOUS
 62
     2
100
AcDbLine
 10
383.026325
 20
233.975505
 30
0.0
 11
368.456526
 21
233.466717
 31
0.0
  0
LINE
  5
1D0
100
AcDbEntity
  8
LAY-1
  6
CONTINUOUS
 62
     2
100
AcDbLine
 10
367.40419
 20
180.195435
 30
0.0
 11
361.456526
 21
180.507139
 31
0.0
  0
LINE
  5
1D1
100
AcDbEntity
  8
LAY-1
  6
CONTINUOUS
 62
     2
100
AcDbLine
 10
361.438421
 20
174.862588
 30
0.0
 11
332.95643
 21
175.859683
 31
0.0
  0
LINE
  5
1D2
100
AcDbEntity
  8
LAY-1
  6
CONTINUOUS
 62
     2
100
AcDbLine
 10
345.956526
 20
175.404577
 30
0.0
 11
345.956526
 21
166.323923
 31
0.0
  0
LINE
  5
1D3
100
AcDbEntity
  8
LAY-1
  6
CONTINUOUS
 62
     2
100
AcDbLine
 10
339.956526
 20
166.280907
 30
0.0
 11
339.956526
 21
175.404577
 31
0.0
  0
ARC
  5
1D4
100
AcDbEntity
  8
LAY-1
  6
CONTINUOUS
 62
     2
100
AcDbCircle
 10
398.956526
 20
228.125079
 30
0.0
 40
2.0
100
AcDbArc
 50
180.0
 51
268.0
  0
LINE
  5
1D5
100
AcDbEntity
  8
LAY-1
  6
CONTINUOUS
 62
     2
100
AcDbLine
 10
406.456526
 20
225.861954
 30
0.0
 11
390.956526
 21
226.403226
 31
0.0
  0
LINE
  5
1D6
100
AcDbEntity
  8
LAY-1
  6
CONTINUOUS
 62
     2
100
AcDbLine
 10
406.456526
 20
189.861954
 30
0.0
 11
390.956526
 21
189.320682
 31
0.0
  0
ARC
  5
1D7
100
AcDbEntity
  8
LAY-1
  6
CONTINUOUS
 62
     2
100
AcDbCircle
 10
398.956526
 20
187.59883
 30
0.0
 40
2.0
100
AcDbArc
 50
92.0
 51
180.0
  0
LINE
  5
1D8
100
AcDbEntity
  8
LAY-1
  6
CONTINUOUS
 62
     2
100
AcDbLine
 10
396.956526
 20
241.361954
 30
0.0
 11
396.956526
 21
228.095035
 31
0.0
  0
LINE
  5
1D9
100
AcDbEntity
  8
LAY-1
  6
CONTINUOUS
 62
     2
100
AcDbLine
 10
408.544455
 20
241.361954
 30
0.0
 11
408.544455
 21
225.584684
 31
0.0
  0
LINE
  5
1DA
100
AcDbEntity
  8
LAY-1
  6
CONTINUOUS
 62
     2
100
AcDbLine
 10
408.544455
 20
174.361954
 30
0.0
 11
408.544455
 21
190.139225
 31
0.0
  0
ARC
  5
1DB
100
AcDbEntity
  8
LAY-1
  6
CONTINUOUS
 62
     2
100
AcDbCircle
 10
406.456526
 20
217.861954
 30
0.0
 40
8.0
100
AcDbArc
 50
0.0
 51
90.0
  0
LINE
  5
1DC
100
AcDbEntity
  8
LAY-1
  6
CONTINUOUS
 62
     2
100
AcDbLine
 10
414.456526
 20
197.861954
 30
0.0
 11
414.456526
 21
207.861954
 31
0.0
  0
ARC
  5
1DD
100
AcDbEntity
  8
LAY-1
  6
CONTINUOUS
 62
     2
100
AcDbCircle
 10
406.456526
 20
197.861954
 30
0.0
 40
8.0
100
AcDbArc
 50
269.959539
 51
0.0
  0
LINE
  5
1DE
100
AcDbEntity
  8
LAY-1
  6
CONTINUOUS
 62
     2
100
AcDbLine
 10
414.456526
 20
217.861954
 30
0.0
 11
414.456526
 21
207.861954
 31
0.0
  0
LINE
  5
1DF
100
AcDbEntity
  8
LAY-1
  6
CONTINUOUS
 62
     2
100
AcDbLine
 10
390.956526
 20
241.361954
 30
0.0
 11
390.956526
 21
174.361954
 31
0.0
  0
ARC
  5
1E0
100
AcDbEntity
  8
LAY-1
  6
CONTINUOUS
 62
     2
100
AcDbCircle
 10
360.956526
 20
180.2861
 30
0.0
 40
0.5
100
AcDbArc
 50
267.0
 51
0.0
  0
LINE
  5
1E1
100
AcDbEntity
  8
LAY-1
  6
CONTINUOUS
 62
     2
100
AcDbLine
 10
360.930358
 20
179.786785
 30
0.0
 11
346.278251
 21
180.554669
 31
0.0
  0
ARC
  5
1E2
100
AcDbEntity
  8
LAY-1
  6
CONTINUOUS
 62
     2
100
AcDbCircle
 10
346.435259
 20
183.550558
 30
0.0
 40
3.0
100
AcDbArc
 50
180.0
 51
267.0
  0
LINE
  5
1E3
100
AcDbEntity
  8
LAY-1
  6
CONTINUOUS
 62
     2
100
AcDbLine
 10
322.956526
 20
207.861954
 30
0.0
 11
322.956526
 21
188.856022
 31
0.0
  0
LINE
  5
1E4
100
AcDbEntity
  8
LAY-1
  6
EXLTYPE3
 62
     1
100
AcDbLine
 10
342.956526
 20
178.710678
 30
0.0
 11
342.956526
 21
164.204813
 31
0.0
  0
LINE
  5
1E5
100
AcDbEntity
  8
LAY-1
  6
CONTINUOUS
 62
     2
100
AcDbLine
 10
384.956526
 20
240.861954
 30
0.0
 11
384.956526
 21
174.861954
 31
0.0
  0
LINE
  5
1E6
100
AcDbEntity
  8
LAY-1
  6
CONTINUOUS
 62
     2
100
AcDbLine
 10
396.956526
 20
174.361954
 30
0.0
 11
396.956526
 21
187.628874
 31
0.0
  0
LINE
  5
1E7
100
AcDbEntity
  8
LAY-1
  6
CONTINUOUS
 62
     2
100
AcDbLine
 10
343.435259
 20
183.550558
 30
0.0
 11
343.435259
 21
233.782297
 31
0.0
  0
LINE
  5
1E8
100
AcDbEntity
  8
LAY-1
  6
CONTINUOUS
 62
     2
100
AcDbLine
 10
343.490471
 20
182.977651
 30
0.0
 11
331.259483
 21
183.404767
 31
0.0
  0
LINE
  5
1E9
100
AcDbEntity
  8
LAY-1
  6
CONTINUOUS
 62
     2
100
AcDbLine
 10
322.956526
 20
188.364673
 30
0.0
 11
322.956526
 21
188.360245
 31
0.0
  0
LINE
  5
1EA
100
AcDbEntity
  8
LAY-1
  6
CONTINUOUS
 62
     2
100
AcDbLine
 10
324.302295
 20
188.341183
 30
0.0
 11
323.4478
 21
188.356098
 31
0.0
  0
ARC
  5
1EB
100
AcDbEntity
  8
LAY-1
  6
CONTINUOUS
 62
     2
100
AcDbCircle
 10
323.456526
 20
188.856022
 30
0.0
 40
0.5
100
AcDbArc
 50
180.0
 51
269.0
  0
POLYLINE
  5
1EC
100
AcDbEntity
  8
LAY-1
  6
CONTINUOUS
 62
     2
100
AcDb2dPolyline
 66
     1
 10
0.0
 20
0.0
 30
0.0
 70
   128
  0
VERTEX
  5
1ED
100
AcDbEntity
  8
LAY-1
  6
CONTINUOUS
 62
     2
100
AcDbVertex
100
AcDb2dVertex
 10
339.956526
 20
166.280907
 30
0.0
  0
VERTEX
  5
1EE
100
AcDbEntity
  8
LAY-1
  6
CONTINUOUS
 62
     2
100
AcDbVertex
100
AcDb2dVertex
 10
340.341841
 20
166.412963
 30
0.0
  0
SEQEND
  5
1EF
100
AcDbEntity
  8
LAY-1
  6
CONTINUOUS
 62
     2
  0
ARC
  5
1F0
100
AcDbEntity
  8
LAY-1
  6
CONTINUOUS
 62
     2
100
AcDbCircle
 10
355.230224
 20
114.14457
 30
0.0
 40
54.347482
100
AcDbArc
 50
105.061144
 51
105.899331
  0
ARC
  5
1F1
100
AcDbEntity
  8
LAY-1
  6
CONTINUOUS
 62
     2
100
AcDbCircle
 10
342.203739
 20
157.065703
 30
0.0
 40
9.622052
100
AcDbArc
 50
92.041407
 51
96.538622
  0
ARC
  5
1F2
100
AcDbEntity
  8
LAY-1
  6
CONTINUOUS
 62
     2
100
AcDbCircle
 10
341.054829
 20
161.899698
 30
0.0
 40
4.849426
100
AcDbArc
 50
71.500375
 51
80.430882
  0
ARC
  5
1F3
100
AcDbEntity
  8
LAY-1
  6
CONTINUOUS
 62
     2
100
AcDbCircle
 10
340.319487
 20
160.180064
 30
0.0
 40
6.715235
100
AcDbArc
 50
63.499498
 51
70.205867
  0
ARC
  5
1F4
100
AcDbEntity
  8
LAY-1
  6
CONTINUOUS
 62
     2
100
AcDbCircle
 10
351.376277
 20
193.190102
 30
0.0
 40
28.177832
100
AcDbArc
 50
253.378068
 51
254.925439
  0
ARC
  5
1F5
100
AcDbEntity
  8
LAY-1
  6
CONTINUOUS
 62
     2
100
AcDbCircle
 10
344.257298
 20
170.250177
 30
0.0
 40
4.27339
100
AcDbArc
 50
267.191422
 51
277.317764
  0
ARC
  5
1F6
100
AcDbEntity
  8
LAY-1
  6
CONTINUOUS
 62
     2
100
AcDbCircle
 10
343.612445
 20
172.456783
 30
0.0
 40
6.553974
100
AcDbArc
 50
280.453745
 51
287.377824
  0
ARC
  5
1F7
100
AcDbEntity
  8
LAY-1
  6
CONTINUOUS
 62
     2
100
AcDbCircle
 10
343.171465
 20
174.478187
 30
0.0
 40
8.616763
100
AcDbArc
 50
286.161675
 51
288.857427
  0
ARC
  5
1F8
100
AcDbEntity
  8
LAY-1
  6
CONTINUOUS
 62
     2
100
AcDbCircle
 10
385.456526
 20
174.861954
 30
0.0
 40
0.5
100
AcDbArc
 50
180.0
 51
270.0
  0
LINE
  5
1F9
100
AcDbEntity
  8
LAY-1
  6
CONTINUOUS
 62
     2
100
AcDbLine
 10
390.956526
 20
174.361954
 30
0.0
 11
385.456526
 21
174.361954
 31
0.0
  0
ARC
  5
1FA
100
AcDbEntity
  8
LAY-1
  6
CONTINUOUS
 62
     2
100
AcDbCircle
 10
367.456526
 20
181.194065
 30
0.0
 40
1.0
100
AcDbArc
 50
267.0
 51
0.0
  0
ARC
  5
1FB
100
AcDbEntity
  8
LAY-1
  6
CONTINUOUS
 62
     2
100
AcDbCircle
 10
382.956526
 20
179.749622
 30
0.0
 40
2.0
100
AcDbArc
 50
0.0
 51
88.0
  0
LINE
  5
1FC
100
AcDbEntity
  8
LAY-1
  6
CONTINUOUS
 62
     2
100
AcDbLine
 10
383.026325
 20
181.748404
 30
0.0
 11
368.456526
 21
182.257192
 31
0.0
  0
CIRCLE
  5
1FD
100
AcDbEntity
  8
LAY-1
  6
CONTINUOUS
 62
     1
100
AcDbCircle
 10
520.44534
 20
207.861954
 30
0.0
 40
4.0
  0
LINE
  5
1FE
100
AcDbEntity
  8
LAY-1
  6
CONTINUOUS
 62
     1
100
AcDbLine
 10
526.081277
 20
241.361954
 30
0.0
 11
526.112527
 21
242.361954
 31
0.0
  0
LINE
  5
1FF
100
AcDbEntity
  8
LAY-1
  6
CONTINUOUS
 62
     1
100
AcDbLine
 10
526.112527
 20
242.361954
 30
0.0
 11
527.226589
 21
244.235659
 31
0.0
  0
LINE
  5
200
100
AcDbEntity
  8
LAY-1
  6
CONTINUOUS
 62
     1
100
AcDbLine
 10
514.778153
 20
242.361954
 30
0.0
 11
513.66409
 21
244.235659
 31
0.0
  0
LINE
  5
201
100
AcDbEntity
  8
LAY-1
  6
CONTINUOUS
 62
     1
100
AcDbLine
 10
514.809402
 20
241.361954
 30
0.0
 11
514.778153
 21
242.361954
 31
0.0
  0
LINE
  5
202
100
AcDbEntity
  8
LAY-1
  6
CONTINUOUS
 62
     2
100
AcDbLine
 10
524.44534
 20
244.939305
 30
0.0
 11
524.44534
 21
250.284604
 31
0.0
  0
LINE
  5
203
100
AcDbEntity
  8
LAY-1
  6
CONTINUOUS
 62
     2
100
AcDbLine
 10
516.44534
 20
250.284604
 30
0.0
 11
516.44534
 21
244.939305
 31
0.0
  0
LINE
  5
204
100
AcDbEntity
  8
LAY-1
  6
CONTINUOUS
 62
     2
100
AcDbLine
 10
527.19534
 20
241.361954
 30
0.0
 11
527.226589
 21
242.361954
 31
0.0
  0
LINE
  5
205
100
AcDbEntity
  8
LAY-1
  6
CONTINUOUS
 62
     2
100
AcDbLine
 10
520.44534
 20
250.861954
 30
0.0
 11
527.44534
 21
250.861954
 31
0.0
  0
LINE
  5
206
100
AcDbEntity
  8
LAY-1
  6
CONTINUOUS
 62
     2
100
AcDbLine
 10
527.44534
 20
250.861954
 30
0.0
 11
528.44534
 21
250.284604
 31
0.0
  0
LINE
  5
207
100
AcDbEntity
  8
LAY-1
  6
CONTINUOUS
 62
     2
100
AcDbLine
 10
528.44534
 20
250.284604
 30
0.0
 11
528.44534
 21
244.939305
 31
0.0
  0
LINE
  5
208
100
AcDbEntity
  8
LAY-1
  6
CONTINUOUS
 62
     2
100
AcDbLine
 10
528.44534
 20
244.939305
 30
0.0
 11
527.44534
 21
244.361954
 31
0.0
  0
LINE
  5
209
100
AcDbEntity
  8
LAY-1
  6
CONTINUOUS
 62
     2
100
AcDbLine
 10
527.44534
 20
244.361954
 30
0.0
 11
520.44534
 21
244.361954
 31
0.0
  0
LINE
  5
20A
100
AcDbEntity
  8
LAY-1
  6
CONTINUOUS
 62
     2
100
AcDbLine
 10
520.44534
 20
242.361954
 30
0.0
 11
527.226589
 21
242.361954
 31
0.0
  0
LINE
  5
20B
100
AcDbEntity
  8
LAY-1
  6
CONTINUOUS
 62
     2
100
AcDbLine
 10
527.226589
 20
242.361954
 30
0.0
 11
527.226589
 21
244.361954
 31
0.0
  0
ARC
  5
20C
100
AcDbEntity
  8
LAY-1
  6
CONTINUOUS
 62
     2
100
AcDbCircle
 10
526.44534
 20
247.109178
 30
0.0
 40
3.752777
100
AcDbArc
 50
57.795772
 51
122.204228
  0
ARC
  5
20D
100
AcDbEntity
  8
LAY-1
  6
CONTINUOUS
 62
     2
100
AcDbCircle
 10
520.44534
 20
236.716873
 30
0.0
 40
14.145082
100
AcDbArc
 50
73.573579
 51
90.0
  0
ARC
  5
20E
100
AcDbEntity
  8
LAY-1
  6
CONTINUOUS
 62
     2
100
AcDbCircle
 10
520.44534
 20
258.507036
 30
0.0
 40
14.145082
100
AcDbArc
 50
270.0
 51
286.426421
  0
ARC
  5
20F
100
AcDbEntity
  8
LAY-1
  6
CONTINUOUS
 62
     2
100
AcDbCircle
 10
526.44534
 20
248.114731
 30
0.0
 40
3.752777
100
AcDbArc
 50
237.795772
 51
302.204228
  0
ARC
  5
210
100
AcDbEntity
  8
LAY-1
  6
CONTINUOUS
 62
     2
100
AcDbCircle
 10
514.44534
 20
248.114731
 30
0.0
 40
3.752777
100
AcDbArc
 50
237.795772
 51
302.204228
  0
ARC
  5
211
100
AcDbEntity
  8
LAY-1
  6
CONTINUOUS
 62
     2
100
AcDbCircle
 10
520.44534
 20
258.507036
 30
0.0
 40
14.145082
100
AcDbArc
 50
253.573579
 51
270.0
  0
ARC
  5
212
100
AcDbEntity
  8
LAY-1
  6
CONTINUOUS
 62
     2
100
AcDbCircle
 10
520.44534
 20
236.716873
 30
0.0
 40
14.145082
100
AcDbArc
 50
90.0
 51
106.426421
  0
ARC
  5
213
100
AcDbEntity
  8
LAY-1
  6
CONTINUOUS
 62
     2
100
AcDbCircle
 10
514.44534
 20
247.109178
 30
0.0
 40
3.752777
100
AcDbArc
 50
57.795772
 51
122.204228
  0
LINE
  5
214
100
AcDbEntity
  8
LAY-1
  6
CONTINUOUS
 62
     2
100
AcDbLine
 10
520.44534
 20
250.861954
 30
0.0
 11
513.44534
 21
250.861954
 31
0.0
  0
LINE
  5
215
100
AcDbEntity
  8
LAY-1
  6
CONTINUOUS
 62
     2
100
AcDbLine
 10
513.69534
 20
241.361954
 30
0.0
 11
513.66409
 21
242.361954
 31
0.0
  0
LINE
  5
216
100
AcDbEntity
  8
LAY-1
  6
CONTINUOUS
 62
     2
100
AcDbLine
 10
512.44534
 20
244.939305
 30
0.0
 11
513.44534
 21
244.361954
 31
0.0
  0
LINE
  5
217
100
AcDbEntity
  8
LAY-1
  6
CONTINUOUS
 62
     2
100
AcDbLine
 10
513.44534
 20
250.861954
 30
0.0
 11
512.44534
 21
250.284604
 31
0.0
  0
LINE
  5
218
100
AcDbEntity
  8
LAY-1
  6
CONTINUOUS
 62
     2
100
AcDbLine
 10
513.66409
 20
242.361954
 30
0.0
 11
513.66409
 21
244.361954
 31
0.0
  0
LINE
  5
219
100
AcDbEntity
  8
LAY-1
  6
CONTINUOUS
 62
     2
100
AcDbLine
 10
520.44534
 20
242.361954
 30
0.0
 11
513.66409
 21
242.361954
 31
0.0
  0
LINE
  5
21A
100
AcDbEntity
  8
LAY-1
  6
CONTINUOUS
 62
     2
100
AcDbLine
 10
513.44534
 20
244.361954
 30
0.0
 11
520.44534
 21
244.361954
 31
0.0
  0
LINE
  5
21B
100
AcDbEntity
  8
LAY-1
  6
CONTINUOUS
 62
     2
100
AcDbLine
 10
512.44534
 20
250.284604
 30
0.0
 11
512.44534
 21
244.939305
 31
0.0
  0
ARC
  5
21C
100
AcDbEntity
  8
LAY-1
  6
CONTINUOUS
 62
     2
100
AcDbCircle
 10
555.62152
 20
206.361954
 30
0.0
 40
0.5
100
AcDbArc
 50
90.0
 51
180.0
  0
ARC
  5
21D
100
AcDbEntity
  8
LAY-1
  6
CONTINUOUS
 62
     2
100
AcDbCircle
 10
555.62152
 20
209.361954
 30
0.0
 40
0.5
100
AcDbArc
 50
180.0
 51
270.0
  0
ARC
  5
21E
100
AcDbEntity
  8
LAY-1
  6
CONTINUOUS
 62
     2
100
AcDbCircle
 10
558.12152
 20
212.861954
 30
0.0
 40
3.0
100
AcDbArc
 50
90.0
 51
180.0
  0
ARC
  5
21F
100
AcDbEntity
  8
LAY-1
  6
CONTINUOUS
 62
     2
100
AcDbCircle
 10
558.12152
 20
202.861954
 30
0.0
 40
3.0
100
AcDbArc
 50
180.0
 51
270.0
  0
LINE
  5
220
100
AcDbEntity
  8
LAY-1
  6
CONTINUOUS
 62
     2
100
AcDbLine
 10
555.12152
 20
209.361954
 30
0.0
 11
555.12152
 21
212.861954
 31
0.0
  0
LINE
  5
221
100
AcDbEntity
  8
LAY-1
  6
CONTINUOUS
 62
     2
100
AcDbLine
 10
555.12152
 20
206.361954
 30
0.0
 11
555.12152
 21
202.861954
 31
0.0
  0
LINE
  5
222
100
AcDbEntity
  8
LAY-1
  6
CONTINUOUS
 62
     2
100
AcDbLine
 10
568.44534
 20
202.861954
 30
0.0
 11
568.44534
 21
212.861954
 31
0.0
  0
ARC
  5
223
100
AcDbEntity
  8
LAY-1
  6
CONTINUOUS
 62
     2
100
AcDbCircle
 10
563.44534
 20
202.861954
 30
0.0
 40
5.0
100
AcDbArc
 50
270.0
 51
0.0
  0
LINE
  5
224
100
AcDbEntity
  8
LAY-1
  6
CONTINUOUS
 62
     2
100
AcDbLine
 10
566.44534
 20
202.861954
 30
0.0
 11
566.44534
 21
206.111954
 31
0.0
  0
ARC
  5
225
100
AcDbEntity
  8
LAY-1
  6
CONTINUOUS
 62
     2
100
AcDbCircle
 10
563.44534
 20
212.861954
 30
0.0
 40
3.0
100
AcDbArc
 50
0.0
 51
90.0
  0
ARC
  5
226
100
AcDbEntity
  8
LAY-1
  6
CONTINUOUS
 62
     2
100
AcDbCircle
 10
563.44534
 20
202.861954
 30
0.0
 40
3.0
100
AcDbArc
 50
270.0
 51
0.0
  0
ARC
  5
227
100
AcDbEntity
  8
LAY-1
  6
CONTINUOUS
 62
     2
100
AcDbCircle
 10
565.44534
 20
205.861954
 30
0.0
 40
1.0
100
AcDbArc
 50
0.0
 51
90.0
  0
LINE
  5
228
100
AcDbEntity
  8
LAY-1
  6
CONTINUOUS
 62
     2
100
AcDbLine
 10
566.44534
 20
209.861954
 30
0.0
 11
566.44534
 21
212.861954
 31
0.0
  0
ARC
  5
229
100
AcDbEntity
  8
LAY-1
  6
CONTINUOUS
 62
     2
100
AcDbCircle
 10
565.44534
 20
209.861954
 30
0.0
 40
1.0
100
AcDbArc
 50
270.0
 51
0.0
  0
ARC
  5
22A
100
AcDbEntity
  8
LAY-1
  6
CONTINUOUS
 62
     2
100
AcDbCircle
 10
563.44534
 20
212.861954
 30
0.0
 40
5.0
100
AcDbArc
 50
0.0
 51
90.0
  0
LINE
  5
22B
100
AcDbEntity
  8
LAY-1
  6
CONTINUOUS
 62
     2
100
AcDbLine
 10
563.44534
 20
217.861954
 30
0.0
 11
552.933842
 21
217.861954
 31
0.0
  0
LINE
  5
22C
100
AcDbEntity
  8
LAY-1
  6
CONTINUOUS
 62
     2
100
AcDbLine
 10
563.44534
 20
215.861954
 30
0.0
 11
553.191521
 21
215.861954
 31
0.0
  0
LINE
  5
22D
100
AcDbEntity
  8
LAY-1
  6
CONTINUOUS
 62
     2
100
AcDbLine
 10
553.930411
 20
208.861954
 30
0.0
 11
565.44534
 21
208.861954
 31
0.0
  0
LINE
  5
22E
100
AcDbEntity
  8
LAY-1
  6
CONTINUOUS
 62
     2
100
AcDbLine
 10
565.44534
 20
206.861954
 30
0.0
 11
553.930411
 21
206.861954
 31
0.0
  0
LINE
  5
22F
100
AcDbEntity
  8
LAY-1
  6
CONTINUOUS
 62
     2
100
AcDbLine
 10
563.44534
 20
199.861954
 30
0.0
 11
553.191521
 21
199.861954
 31
0.0
  0
LINE
  5
230
100
AcDbEntity
  8
LAY-1
  6
CONTINUOUS
 62
     2
100
AcDbLine
 10
563.44534
 20
197.861954
 30
0.0
 11
552.933842
 21
197.861954
 31
0.0
  0
LINE
  5
231
100
AcDbEntity
  8
LAY-1
  6
CONTINUOUS
 62
     2
100
AcDbLine
 10
163.494974
 20
180.702489
 30
0.0
 11
163.494974
 21
175.85968
 31
0.0
  0
ARC
  5
232
100
AcDbEntity
  8
LAY-1
  6
CONTINUOUS
 62
     2
100
AcDbCircle
 10
128.994974
 20
234.529844
 30
0.0
 40
1.0
100
AcDbArc
 50
87.0
 51
180.0
  0
ARC
  5
233
100
AcDbEntity
  8
LAY-1
  6
CONTINUOUS
 62
     2
100
AcDbCircle
 10
113.494974
 20
235.974287
 30
0.0
 40
2.0
100
AcDbArc
 50
180.0
 51
268.0
  0
LINE
  5
234
100
AcDbEntity
  8
LAY-1
  6
CONTINUOUS
 62
     2
100
AcDbLine
 10
105.494974
 20
241.361954
 30
0.0
 11
110.994974
 21
241.361954
 31
0.0
  0
ARC
  5
235
100
AcDbEntity
  8
LAY-1
  6
CONTINUOUS
 62
     2
100
AcDbCircle
 10
135.494974
 20
236.737809
 30
0.0
 40
0.5
100
AcDbArc
 50
87.0
 51
180.0
  0
ARC
  5
236
100
AcDbEntity
  8
LAY-1
  6
CONTINUOUS
 62
     2
100
AcDbCircle
 10
95.994974
 20
255.259441
 30
0.0
 40
10.897486
100
AcDbArc
 50
251.266002
 51
288.733998
  0
ARC
  5
237
100
AcDbEntity
  8
LAY-1
  6
CONTINUOUS
 62
     2
100
AcDbCircle
 10
95.994974
 20
239.964468
 30
0.0
 40
10.897486
100
AcDbArc
 50
71.266002
 51
108.733998
  0
LINE
  5
238
100
AcDbEntity
  8
LAY-1
  6
CONTINUOUS
 62
     2
100
AcDbLine
 10
99.494974
 20
244.361954
 30
0.0
 11
92.494974
 21
244.361954
 31
0.0
  0
LINE
  5
239
100
AcDbEntity
  8
LAY-1
  6
CONTINUOUS
 62
     2
100
AcDbLine
 10
99.494974
 20
250.861954
 30
0.0
 11
99.494974
 21
244.361954
 31
0.0
  0
LINE
  5
23A
100
AcDbEntity
  8
LAY-1
  6
CONTINUOUS
 62
     2
100
AcDbLine
 10
92.494974
 20
250.861954
 30
0.0
 11
99.494974
 21
250.861954
 31
0.0
  0
LINE
  5
23B
100
AcDbEntity
  8
LAY-1
  6
CONTINUOUS
 62
     2
100
AcDbLine
 10
63.917623
 20
204.109178
 30
0.0
 11
60.072324
 21
204.109178
 31
0.0
  0
ARC
  5
23C
100
AcDbEntity
  8
LAY-1
  6
CONTINUOUS
 62
     2
100
AcDbCircle
 10
62.823762
 20
202.235566
 30
0.0
 40
3.328788
100
AcDbArc
 50
145.746813
 51
214.253187
  0
ARC
  5
23D
100
AcDbEntity
  8
LAY-1
  6
CONTINUOUS
 62
     2
100
AcDbCircle
 10
71.980173
 20
207.861954
 30
0.0
 40
12.4852
100
AcDbArc
 50
180.0
 51
197.492325
  0
ARC
  5
23E
100
AcDbEntity
  8
LAY-1
  6
CONTINUOUS
 62
     2
100
AcDbCircle
 10
52.009774
 20
207.861954
 30
0.0
 40
12.4852
100
AcDbArc
 50
342.507675
 51
0.0
  0
ARC
  5
23F
100
AcDbEntity
  8
LAY-1
  6
CONTINUOUS
 62
     2
100
AcDbCircle
 10
61.166185
 20
202.235566
 30
0.0
 40
3.328788
100
AcDbArc
 50
325.746813
 51
34.253187
  0
LINE
  5
240
100
AcDbEntity
  8
LAY-1
  6
CONTINUOUS
 62
     2
100
AcDbLine
 10
59.494974
 20
201.361954
 30
0.0
 11
59.494974
 21
207.861954
 31
0.0
  0
LINE
  5
241
100
AcDbEntity
  8
LAY-1
  6
CONTINUOUS
 62
     2
100
AcDbLine
 10
60.072324
 20
200.361954
 30
0.0
 11
59.494974
 21
201.361954
 31
0.0
  0
LINE
  5
242
100
AcDbEntity
  8
LAY-1
  6
CONTINUOUS
 62
     2
100
AcDbLine
 10
63.917623
 20
200.361954
 30
0.0
 11
60.072324
 21
200.361954
 31
0.0
  0
LINE
  5
243
100
AcDbEntity
  8
LAY-1
  6
CONTINUOUS
 62
     2
100
AcDbLine
 10
64.494974
 20
207.861954
 30
0.0
 11
64.494974
 21
214.361954
 31
0.0
  0
LINE
  5
244
100
AcDbEntity
  8
LAY-1
  6
CONTINUOUS
 62
     2
100
AcDbLine
 10
64.494974
 20
214.361954
 30
0.0
 11
63.917623
 21
215.361954
 31
0.0
  0
LINE
  5
245
100
AcDbEntity
  8
LAY-1
  6
CONTINUOUS
 62
     2
100
AcDbLine
 10
53.994974
 20
204.538454
 30
0.0
 11
53.994974
 21
206.861954
 31
0.0
  0
LINE
  5
246
100
AcDbEntity
  8
LAY-1
  6
CONTINUOUS
 62
     2
100
AcDbLine
 10
53.994974
 20
204.538454
 30
0.0
 11
54.671474
 21
203.861954
 31
0.0
  0
LINE
  5
247
100
AcDbEntity
  8
LAY-1
  6
CONTINUOUS
 62
     2
100
AcDbLine
 10
59.494974
 20
214.361954
 30
0.0
 11
59.494974
 21
207.861954
 31
0.0
  0
LINE
  5
248
100
AcDbEntity
  8
LAY-1
  6
CONTINUOUS
 62
     2
100
AcDbLine
 10
53.994974
 20
206.861954
 30
0.0
 11
55.994974
 21
206.861954
 31
0.0
  0
LINE
  5
249
100
AcDbEntity
  8
LAY-1
  6
CONTINUOUS
 62
     2
100
AcDbLine
 10
59.494974
 20
211.861954
 30
0.0
 11
54.671474
 21
211.861954
 31
0.0
  0
LINE
  5
24A
100
AcDbEntity
  8
LAY-1
  6
CONTINUOUS
 62
     2
100
AcDbLine
 10
55.994974
 20
206.861954
 30
0.0
 11
55.994974
 21
207.861954
 31
0.0
  0
LINE
  5
24B
100
AcDbEntity
  8
LAY-1
  6
CONTINUOUS
 62
     2
100
AcDbLine
 10
81.494974
 20
241.361954
 30
0.0
 11
81.494974
 21
220.386985
 31
0.0
  0
LINE
  5
24C
100
AcDbEntity
  8
LAY-1
  6
CONTINUOUS
 62
     2
100
AcDbLine
 10
64.494974
 20
215.930577
 30
0.0
 11
64.494974
 21
211.861954
 31
0.0
  0
ARC
  5
24D
100
AcDbEntity
  8
LAY-1
  6
CONTINUOUS
 62
     2
100
AcDbCircle
 10
79.494974
 20
220.386985
 30
0.0
 40
2.0
100
AcDbArc
 50
272.0
 51
0.0
  0
LINE
  5
24E
100
AcDbEntity
  8
LAY-1
  6
CONTINUOUS
 62
     2
100
AcDbLine
 10
66.425175
 20
217.929359
 30
0.0
 11
79.564773
 21
218.388203
 31
0.0
  0
ARC
  5
24F
100
AcDbEntity
  8
LAY-1
  6
CONTINUOUS
 62
     2
100
AcDbCircle
 10
66.494974
 20
215.930577
 30
0.0
 40
2.0
100
AcDbArc
 50
92.0
 51
180.0
  0
LINE
  5
250
100
AcDbEntity
  8
LAY-1
  6
CONTINUOUS
 62
     2
100
AcDbLine
 10
55.994974
 20
208.861954
 30
0.0
 11
55.994974
 21
207.861954
 31
0.0
  0
LINE
  5
251
100
AcDbEntity
  8
LAY-1
  6
CONTINUOUS
 62
     2
100
AcDbLine
 10
53.994974
 20
208.861954
 30
0.0
 11
55.994974
 21
208.861954
 31
0.0
  0
LINE
  5
252
100
AcDbEntity
  8
LAY-1
  6
CONTINUOUS
 62
     2
100
AcDbLine
 10
81.494974
 20
174.361954
 30
0.0
 11
81.494974
 21
195.336924
 31
0.0
  0
LINE
  5
253
100
AcDbEntity
  8
LAY-1
  6
CONTINUOUS
 62
     2
100
AcDbLine
 10
64.494974
 20
199.793332
 30
0.0
 11
64.494974
 21
203.861954
 31
0.0
  0
ARC
  5
254
100
AcDbEntity
  8
LAY-1
  6
CONTINUOUS
 62
     2
100
AcDbCircle
 10
79.494974
 20
195.336924
 30
0.0
 40
2.0
100
AcDbArc
 50
0.0
 51
88.0
  0
LINE
  5
255
100
AcDbEntity
  8
LAY-1
  6
CONTINUOUS
 62
     2
100
AcDbLine
 10
66.425175
 20
197.79455
 30
0.0
 11
79.564773
 21
197.335705
 31
0.0
  0
ARC
  5
256
100
AcDbEntity
  8
LAY-1
  6
CONTINUOUS
 62
     2
100
AcDbCircle
 10
66.494974
 20
199.793332
 30
0.0
 40
2.0
100
AcDbArc
 50
180.0
 51
268.0
  0
LINE
  5
257
100
AcDbEntity
  8
LAY-1
  6
CONTINUOUS
 62
     2
100
AcDbLine
 10
135.521142
 20
237.237124
 30
0.0
 11
150.173249
 21
236.469239
 31
0.0
  0
ARC
  5
258
100
AcDbEntity
  8
LAY-1
  6
CONTINUOUS
 62
     2
100
AcDbCircle
 10
135.494974
 20
175.379765
 30
0.0
 40
0.5
100
AcDbArc
 50
180.0
 51
272.004987
  0
ARC
  5
259
100
AcDbEntity
  8
LAY-1
  6
CONTINUOUS
 62
     2
100
AcDbCircle
 10
166.494974
 20
180.702489
 30
0.0
 40
3.0
100
AcDbArc
 50
103.342364
 51
180.0
  0
ARC
  5
25A
100
AcDbEntity
  8
LAY-1
  6
CONTINUOUS
 62
     2
100
AcDbCircle
 10
163.494974
 20
193.3516
 30
0.0
 40
10.0
100
AcDbArc
 50
283.342364
 51
0.0
  0
ARC
  5
25B
100
AcDbEntity
  8
LAY-1
  6
CONTINUOUS
 62
     2
100
AcDbCircle
 10
163.494974
 20
222.372309
 30
0.0
 40
10.0
100
AcDbArc
 50
0.0
 51
87.0
  0
ARC
  5
25C
100
AcDbEntity
  8
LAY-1
  6
CONTINUOUS
 62
     2
100
AcDbCircle
 10
153.994974
 20
233.885278
 30
0.0
 40
1.0
100
AcDbArc
 50
185.910908
 51
267.0
  0
ARC
  5
25D
100
AcDbEntity
  8
LAY-1
  6
CONTINUOUS
 62
     2
100
AcDbCircle
 10
150.016241
 20
233.473351
 30
0.0
 40
3.0
100
AcDbArc
 50
5.910908
 51
87.0
  0
LINE
  5
25E
100
AcDbEntity
  8
LAY-1
  6
CONTINUOUS
 62
     2
100
AcDbLine
 10
164.018333
 20
232.358604
 30
0.0
 11
153.942638
 21
232.886649
 31
0.0
  0
LINE
  5
25F
100
AcDbEntity
  8
LAY-1
  6
CONTINUOUS
 62
     2
100
AcDbLine
 10
173.494974
 20
222.372309
 30
0.0
 11
173.494974
 21
207.861954
 31
0.0
  0
LINE
  5
260
100
AcDbEntity
  8
LAY-1
  6
CONTINUOUS
 62
     2
100
AcDbLine
 10
63.917623
 20
215.361954
 30
0.0
 11
60.072324
 21
215.361954
 31
0.0
  0
LINE
  5
261
100
AcDbEntity
  8
LAY-1
  6
CONTINUOUS
 62
     2
100
AcDbLine
 10
60.072324
 20
215.361954
 30
0.0
 11
59.494974
 21
214.361954
 31
0.0
  0
LINE
  5
262
100
AcDbEntity
  8
LAY-1
  6
CONTINUOUS
 62
     2
100
AcDbLine
 10
92.494974
 20
250.861954
 30
0.0
 11
85.494974
 21
250.861954
 31
0.0
  0
LINE
  5
263
100
AcDbEntity
  8
LAY-1
  6
CONTINUOUS
 62
     2
100
AcDbLine
 10
85.494974
 20
250.861954
 30
0.0
 11
85.494974
 21
244.361954
 31
0.0
  0
LINE
  5
264
100
AcDbEntity
  8
LAY-1
  6
CONTINUOUS
 62
     2
100
AcDbLine
 10
85.494974
 20
244.361954
 30
0.0
 11
92.494974
 21
244.361954
 31
0.0
  0
LINE
  5
265
100
AcDbEntity
  8
LAY-1
  6
CONTINUOUS
 62
     2
100
AcDbLine
 10
92.494974
 20
242.361954
 30
0.0
 11
85.713724
 21
242.361954
 31
0.0
  0
LINE
  5
266
100
AcDbEntity
  8
LAY-1
  6
CONTINUOUS
 62
     2
100
AcDbLine
 10
85.713724
 20
242.361954
 30
0.0
 11
85.713724
 21
244.361954
 31
0.0
  0
LINE
  5
267
100
AcDbEntity
  8
LAY-1
  6
CONTINUOUS
 62
     2
100
AcDbLine
 10
59.494974
 20
203.861954
 30
0.0
 11
54.671474
 21
203.861954
 31
0.0
  0
LINE
  5
268
100
AcDbEntity
  8
LAY-1
  6
CONTINUOUS
 62
     2
100
AcDbLine
 10
99.276224
 20
242.361954
 30
0.0
 11
99.276224
 21
244.361954
 31
0.0
  0
ARC
  5
269
100
AcDbEntity
  8
LAY-1
  6
CONTINUOUS
 62
     2
100
AcDbCircle
 10
88.994974
 20
255.259441
 30
0.0
 40
10.897486
100
AcDbArc
 50
251.266002
 51
288.733998
  0
ARC
  5
26A
100
AcDbEntity
  8
LAY-1
  6
CONTINUOUS
 62
     2
100
AcDbCircle
 10
61.166185
 20
213.488343
 30
0.0
 40
3.328788
100
AcDbArc
 50
325.746813
 51
34.253187
  0
ARC
  5
26B
100
AcDbEntity
  8
LAY-1
  6
CONTINUOUS
 62
     2
100
AcDbCircle
 10
52.009774
 20
207.861954
 30
0.0
 40
12.4852
100
AcDbArc
 50
0.0
 51
17.492325
  0
ARC
  5
26C
100
AcDbEntity
  8
LAY-1
  6
CONTINUOUS
 62
     2
100
AcDbCircle
 10
71.980173
 20
207.861954
 30
0.0
 40
12.4852
100
AcDbArc
 50
162.507675
 51
180.0
  0
ARC
  5
26D
100
AcDbEntity
  8
LAY-1
  6
CONTINUOUS
 62
     2
100
AcDbCircle
 10
62.823762
 20
213.488343
 30
0.0
 40
3.328788
100
AcDbArc
 50
145.746813
 51
214.253187
  0
LINE
  5
26E
100
AcDbEntity
  8
LAY-1
  6
CONTINUOUS
 62
     2
100
AcDbLine
 10
63.917623
 20
211.614731
 30
0.0
 11
60.072324
 21
211.614731
 31
0.0
  0
LINE
  5
26F
100
AcDbEntity
  8
LAY-1
  6
CONTINUOUS
 62
     2
100
AcDbLine
 10
64.494974
 20
201.361954
 30
0.0
 11
63.917623
 21
200.361954
 31
0.0
  0
LINE
  5
270
100
AcDbEntity
  8
LAY-1
  6
CONTINUOUS
 62
     2
100
AcDbLine
 10
53.994974
 20
211.185454
 30
0.0
 11
54.671474
 21
211.861954
 31
0.0
  0
LINE
  5
271
100
AcDbEntity
  8
LAY-1
  6
CONTINUOUS
 62
     2
100
AcDbLine
 10
53.994974
 20
211.185454
 30
0.0
 11
53.994974
 21
208.861954
 31
0.0
  0
ARC
  5
272
100
AcDbEntity
  8
LAY-1
  6
CONTINUOUS
 62
     2
100
AcDbCircle
 10
88.994974
 20
239.964468
 30
0.0
 40
10.897486
100
AcDbArc
 50
71.266002
 51
108.733998
  0
LINE
  5
273
100
AcDbEntity
  8
LAY-1
  6
CONTINUOUS
 62
     2
100
AcDbLine
 10
92.494974
 20
242.361954
 30
0.0
 11
99.276224
 21
242.361954
 31
0.0
  0
ARC
  5
274
100
AcDbEntity
  8
LAY-1
  6
CONTINUOUS
 62
     2
100
AcDbCircle
 10
110.994974
 20
240.861954
 30
0.0
 40
0.5
100
AcDbArc
 50
0.0
 51
90.0
  0
LINE
  5
275
100
AcDbEntity
  8
LAY-1
  6
CONTINUOUS
 62
     1
100
AcDbLine
 10
86.827787
 20
242.361954
 30
0.0
 11
85.713724
 21
244.235659
 31
0.0
  0
LINE
  5
276
100
AcDbEntity
  8
LAY-1
  6
CONTINUOUS
 62
     1
100
AcDbLine
 10
59.494974
 20
204.538454
 30
0.0
 11
53.994974
 21
204.538454
 31
0.0
  0
LINE
  5
277
100
AcDbEntity
  8
LAY-1
  6
CONTINUOUS
 62
     1
100
AcDbLine
 10
59.494974
 20
211.185454
 30
0.0
 11
53.994974
 21
211.185454
 31
0.0
  0
LINE
  5
278
100
AcDbEntity
  8
LAY-1
  6
CONTINUOUS
 62
     1
100
AcDbLine
 10
98.162161
 20
242.361954
 30
0.0
 11
99.276224
 21
244.235659
 31
0.0
  0
LINE
  5
279
100
AcDbEntity
  8
LAY-1
  6
CONTINUOUS
 62
     2
100
AcDbLine
 10
105.494974
 20
174.361954
 30
0.0
 11
81.494974
 21
174.361954
 31
0.0
  0
LINE
  5
27A
100
AcDbEntity
  8
LAY-1
  6
CONTINUOUS
 62
     2
100
AcDbLine
 10
105.494974
 20
241.361954
 30
0.0
 11
81.494974
 21
241.361954
 31
0.0
  0
LINE
  5
27B
100
AcDbEntity
  8
LAY-1
  6
CONTINUOUS
 62
     2
100
AcDbLine
 10
85.744974
 20
241.361954
 30
0.0
 11
85.713724
 21
242.361954
 31
0.0
  0
LINE
  5
27C
100
AcDbEntity
  8
LAY-1
  6
CONTINUOUS
 62
     1
100
AcDbLine
 10
86.859036
 20
241.361954
 30
0.0
 11
86.827787
 21
242.361954
 31
0.0
  0
LINE
  5
27D
100
AcDbEntity
  8
LAY-1
  6
CONTINUOUS
 62
     1
100
AcDbLine
 10
98.130911
 20
241.361954
 30
0.0
 11
98.162161
 21
242.361954
 31
0.0
  0
LINE
  5
27E
100
AcDbEntity
  8
LAY-1
  6
CONTINUOUS
 62
     2
100
AcDbLine
 10
99.244974
 20
241.361954
 30
0.0
 11
99.276224
 21
242.361954
 31
0.0
  0
LINE
  5
27F
100
AcDbEntity
  8
LAY-1
  6
CONTINUOUS
 62
     2
100
AcDbLine
 10
127.994974
 20
207.861954
 30
0.0
 11
127.994974
 21
234.529844
 31
0.0
  0
LINE
  5
280
100
AcDbEntity
  8
LAY-1
  6
CONTINUOUS
 62
     2
100
AcDbLine
 10
129.04731
 20
235.528474
 30
0.0
 11
134.994974
 21
235.21677
 31
0.0
  0
LINE
  5
281
100
AcDbEntity
  8
LAY-1
  6
CONTINUOUS
 62
     2
100
AcDbLine
 10
113.425175
 20
233.975505
 30
0.0
 11
127.994974
 21
233.466717
 31
0.0
  0
LINE
  5
282
100
AcDbEntity
  8
LAY-1
  6
CONTINUOUS
 62
     2
100
AcDbLine
 10
129.04731
 20
180.195435
 30
0.0
 11
134.994974
 21
180.507139
 31
0.0
  0
LINE
  5
283
100
AcDbEntity
  8
LAY-1
  6
CONTINUOUS
 62
     2
100
AcDbLine
 10
135.013079
 20
174.862588
 30
0.0
 11
163.49507
 21
175.859683
 31
0.0
  0
LINE
  5
284
100
AcDbEntity
  8
LAY-1
  6
CONTINUOUS
 62
     2
100
AcDbLine
 10
150.494974
 20
175.404577
 30
0.0
 11
150.494974
 21
166.323923
 31
0.0
  0
LINE
  5
285
100
AcDbEntity
  8
LAY-1
  6
CONTINUOUS
 62
     2
100
AcDbLine
 10
156.494974
 20
166.280907
 30
0.0
 11
156.494974
 21
175.404577
 31
0.0
  0
LINE
  5
286
100
AcDbEntity
  8
LAY-1
  6
CONTINUOUS
 62
     2
100
AcDbLine
 10
105.494974
 20
241.361954
 30
0.0
 11
105.494974
 21
174.361954
 31
0.0
  0
ARC
  5
287
100
AcDbEntity
  8
LAY-1
  6
CONTINUOUS
 62
     2
100
AcDbCircle
 10
135.494974
 20
180.2861
 30
0.0
 40
0.5
100
AcDbArc
 50
180.0
 51
273.0
  0
LINE
  5
288
100
AcDbEntity
  8
LAY-1
  6
CONTINUOUS
 62
     2
100
AcDbLine
 10
135.521142
 20
179.786785
 30
0.0
 11
150.173249
 21
180.554669
 31
0.0
  0
ARC
  5
289
100
AcDbEntity
  8
LAY-1
  6
CONTINUOUS
 62
     2
100
AcDbCircle
 10
150.016241
 20
183.550558
 30
0.0
 40
3.0
100
AcDbArc
 50
273.0
 51
0.0
  0
LINE
  5
28A
100
AcDbEntity
  8
LAY-1
  6
CONTINUOUS
 62
     2
100
AcDbLine
 10
173.494974
 20
207.861954
 30
0.0
 11
173.494974
 21
188.856022
 31
0.0
  0
LINE
  5
28B
100
AcDbEntity
  8
LAY-1
  6
EXLTYPE3
 62
     1
100
AcDbLine
 10
153.494974
 20
178.710678
 30
0.0
 11
153.494974
 21
164.204813
 31
0.0
  0
LINE
  5
28C
100
AcDbEntity
  8
LAY-1
  6
CONTINUOUS
 62
     2
100
AcDbLine
 10
111.494974
 20
240.861954
 30
0.0
 11
111.494974
 21
174.861954
 31
0.0
  0
LINE
  5
28D
100
AcDbEntity
  8
LAY-1
  6
CONTINUOUS
 62
     2
100
AcDbLine
 10
153.016241
 20
183.550558
 30
0.0
 11
153.016241
 21
233.782297
 31
0.0
  0
LINE
  5
28E
100
AcDbEntity
  8
LAY-1
  6
CONTINUOUS
 62
     2
100
AcDbLine
 10
152.961029
 20
182.977651
 30
0.0
 11
165.192016
 21
183.404767
 31
0.0
  0
LINE
  5
28F
100
AcDbEntity
  8
LAY-1
  6
CONTINUOUS
 62
     2
100
AcDbLine
 10
173.494974
 20
188.364673
 30
0.0
 11
173.494974
 21
188.360245
 31
0.0
  0
LINE
  5
290
100
AcDbEntity
  8
LAY-1
  6
CONTINUOUS
 62
     2
100
AcDbLine
 10
172.149205
 20
188.341183
 30
0.0
 11
173.0037
 21
188.356098
 31
0.0
  0
ARC
  5
291
100
AcDbEntity
  8
LAY-1
  6
CONTINUOUS
 62
     2
100
AcDbCircle
 10
172.994974
 20
188.856022
 30
0.0
 40
0.5
100
AcDbArc
 50
271.0
 51
0.0
  0
POLYLINE
  5
292
100
AcDbEntity
  8
LAY-1
  6
CONTINUOUS
 62
     2
100
AcDb2dPolyline
 66
     1
 10
0.0
 20
0.0
 30
0.0
 70
   128
  0
VERTEX
  5
293
100
AcDbEntity
  8
LAY-1
  6
CONTINUOUS
 62
     2
100
AcDbVertex
100
AcDb2dVertex
 10
156.494974
 20
166.280907
 30
0.0
  0
VERTEX
  5
294
100
AcDbEntity
  8
LAY-1
  6
CONTINUOUS
 62
     2
100
AcDbVertex
100
AcDb2dVertex
 10
156.109659
 20
166.412963
 30
0.0
  0
SEQEND
  5
295
100
AcDbEntity
  8
LAY-1
  6
CONTINUOUS
 62
     2
  0
ARC
  5
296
100
AcDbEntity
  8
LAY-1
  6
CONTINUOUS
 62
     2
100
AcDbCircle
 10
141.221275
 20
114.14457
 30
0.0
 40
54.347482
100
AcDbArc
 50
74.100669
 51
74.938856
  0
ARC
  5
297
100
AcDbEntity
  8
LAY-1
  6
CONTINUOUS
 62
     2
100
AcDbCircle
 10
154.247761
 20
157.065703
 30
0.0
 40
9.622052
100
AcDbArc
 50
83.461378
 51
87.958593
  0
ARC
  5
298
100
AcDbEntity
  8
LAY-1
  6
CONTINUOUS
 62
     2
100
AcDbCircle
 10
155.396671
 20
161.899698
 30
0.0
 40
4.849426
100
AcDbArc
 50
99.569118
 51
108.499625
  0
ARC
  5
299
100
AcDbEntity
  8
LAY-1
  6
CONTINUOUS
 62
     2
100
AcDbCircle
 10
156.132013
 20
160.180064
 30
0.0
 40
6.715235
100
AcDbArc
 50
109.794133
 51
116.500502
  0
ARC
  5
29A
100
AcDbEntity
  8
LAY-1
  6
CONTINUOUS
 62
     2
100
AcDbCircle
 10
145.075222
 20
193.190102
 30
0.0
 40
28.177832
100
AcDbArc
 50
285.074561
 51
286.621932
  0
ARC
  5
29B
100
AcDbEntity
  8
LAY-1
  6
CONTINUOUS
 62
     2
100
AcDbCircle
 10
152.194202
 20
170.250177
 30
0.0
 40
4.27339
100
AcDbArc
 50
262.682236
 51
272.808578
  0
ARC
  5
29C
100
AcDbEntity
  8
LAY-1
  6
CONTINUOUS
 62
     2
100
AcDbCircle
 10
152.839055
 20
172.456783
 30
0.0
 40
6.553974
100
AcDbArc
 50
252.622176
 51
259.546255
  0
ARC
  5
29D
100
AcDbEntity
  8
LAY-1
  6
CONTINUOUS
 62
     2
100
AcDbCircle
 10
153.280035
 20
174.478187
 30
0.0
 40
8.616763
100
AcDbArc
 50
251.142573
 51
253.838325
  0
ARC
  5
29E
100
AcDbEntity
  8
LAY-1
  6
CONTINUOUS
 62
     2
100
AcDbCircle
 10
110.994974
 20
174.861954
 30
0.0
 40
0.5
100
AcDbArc
 50
270.0
 51
0.0
  0
LINE
  5
29F
100
AcDbEntity
  8
LAY-1
  6
CONTINUOUS
 62
     2
100
AcDbLine
 10
105.494974
 20
174.361954
 30
0.0
 11
110.994974
 21
174.361954
 31
0.0
  0
ARC
  5
2A0
100
AcDbEntity
  8
LAY-1
  6
CONTINUOUS
 62
     2
100
AcDbCircle
 10
128.994974
 20
181.194065
 30
0.0
 40
1.0
100
AcDbArc
 50
180.0
 51
273.0
  0
ARC
  5
2A1
100
AcDbEntity
  8
LAY-1
  6
CONTINUOUS
 62
     2
100
AcDbCircle
 10
113.494974
 20
179.749622
 30
0.0
 40
2.0
100
AcDbArc
 50
92.0
 51
180.0
  0
LINE
  5
2A2
100
AcDbEntity
  8
LAY-1
  6
CONTINUOUS
 62
     2
100
AcDbLine
 10
113.425175
 20
181.748404
 30
0.0
 11
127.994974
 21
182.257192
 31
0.0
  0
LINE
  5
2A3
100
AcDbEntity
  8
LAY-1
  6
CONTINUOUS
 62
     2
100
AcDbLine
 10
99.494974
 20
241.361954
 30
0.0
 11
99.494974
 21
207.861954
 31
0.0
  0
LINE
  5
2A4
100
AcDbEntity
  8
LAY-1
  6
CONTINUOUS
 62
     2
100
AcDbLine
 10
87.907045
 20
241.361954
 30
0.0
 11
87.907045
 21
207.861954
 31
0.0
  0
LINE
  5
2A5
100
AcDbEntity
  8
LAY-1
  6
CONTINUOUS
 62
     2
100
AcDbLine
 10
99.494974
 20
174.361954
 30
0.0
 11
99.494974
 21
207.861954
 31
0.0
  0
LINE
  5
2A6
100
AcDbEntity
  8
LAY-1
  6
CONTINUOUS
 62
     2
100
AcDbLine
 10
87.907045
 20
174.361954
 30
0.0
 11
87.907045
 21
207.861954
 31
0.0
  0
LINE
  5
2A7
100
AcDbEntity
  8
LAY-1
  6
CONTINUOUS
 62
     2
100
AcDbLine
 10
140.151982
 20
217.224833
 30
0.0
 11
129.04731
 21
217.806804
 31
0.0
  0
LINE
  5
2A8
100
AcDbEntity
  8
LAY-1
  6
CONTINUOUS
 62
     2
100
AcDbLine
 10
142.994974
 20
201.494965
 30
0.0
 11
142.994974
 21
214.228944
 31
0.0
  0
LINE
  5
2A9
100
AcDbEntity
  8
LAY-1
  6
CONTINUOUS
 62
     2
100
AcDbLine
 10
129.04731
 20
197.917105
 30
0.0
 11
140.151982
 21
198.499076
 31
0.0
  0
ARC
  5
2AA
100
AcDbEntity
  8
LAY-1
  6
CONTINUOUS
 62
     2
100
AcDbCircle
 10
139.994974
 20
201.494965
 30
0.0
 40
3.0
100
AcDbArc
 50
273.0
 51
0.0
  0
ARC
  5
2AB
100
AcDbEntity
  8
LAY-1
  6
CONTINUOUS
 62
     2
100
AcDbCircle
 10
128.994974
 20
216.808174
 30
0.0
 40
1.0
100
AcDbArc
 50
87.0
 51
180.0
  0
ARC
  5
2AC
100
AcDbEntity
  8
LAY-1
  6
CONTINUOUS
 62
     2
100
AcDbCircle
 10
128.994974
 20
198.915735
 30
0.0
 40
1.0
100
AcDbArc
 50
180.0
 51
273.0
  0
ARC
  5
2AD
100
AcDbEntity
  8
LAY-1
  6
CONTINUOUS
 62
     2
100
AcDbCircle
 10
139.994974
 20
214.228944
 30
0.0
 40
3.0
100
AcDbArc
 50
0.0
 51
87.0
  0
LINE
  5
2AE
100
AcDbEntity
  8
LAY-1
  6
CONTINUOUS
 62
     2
100
AcDbLine
 10
127.994974
 20
207.861954
 30
0.0
 11
127.994974
 21
181.194065
 31
0.0
  0
LINE
  5
2AF
100
AcDbEntity
  8
LAY-1
  6
CONTINUOUS
 62
     2
100
AcDbLine
 10
134.994974
 20
198.228809
 30
0.0
 11
134.994974
 21
175.379765
 31
0.0
  0
LINE
  5
2B0
100
AcDbEntity
  8
LAY-1
  6
CONTINUOUS
 62
     2
100
AcDbLine
 10
134.994974
 20
217.4951
 30
0.0
 11
134.994974
 21
236.737809
 31
0.0
  0
LINE
  5
2B1
100
AcDbEntity
  8
LAY-1
  6
EXLTYPE3
 62
     1
100
AcDbLine
 10
314.754329
 20
207.861954
 30
0.0
 11
444.354329
 21
207.861954
 31
0.0
  0
LINE
  5
2B2
100
AcDbEntity
  8
LAY-1
  6
EXLTYPE3
 62
     1
100
AcDbLine
 10
183.954329
 20
207.861954
 30
0.0
 11
52.097171
 21
207.861954
 31
0.0
  0
LINE
  5
2B3
100
AcDbEntity
  8
LAY-1
  6
EXLTYPE3
 62
     1
100
AcDbLine
 10
203.454329
 20
207.861954
 30
0.0
 11
292.604543
 21
207.861954
 31
0.0
  0
LINE
  5
2B4
100
AcDbEntity
  8
LAY-1
  6
EXLTYPE3
 62
     1
100
AcDbLine
 10
579.054329
 20
207.861954
 30
0.0
 11
477.381125
 21
207.861954
 31
0.0
  0
LINE
  5
2B5
100
AcDbEntity
  8
LAY-1
  6
EXLTYPE3
 62
     1
100
AcDbLine
 10
520.44534
 20
169.226827
 30
0.0
 11
520.44534
 21
254.810678
 31
0.0
  0
ARC
  5
2B6
100
AcDbEntity
  8
LAY-1
  6
CONTINUOUS
 62
     2
100
AcDbCircle
 10
398.956526
 20
237.56911
 30
0.0
 40
2.0
100
AcDbArc
 50
180.0
 51
226.567463
  0
ARC
  5
2B7
100
AcDbEntity
  8
LAY-1
  6
CONTINUOUS
 62
     2
100
AcDbCircle
 10
393.456526
 20
231.759635
 30
0.0
 40
6.0
100
AcDbArc
 50
0.0
 51
46.567463
  0
ARC
  5
2B8
100
AcDbEntity
  8
LAY-1
  6
CONTINUOUS
 62
     2
100
AcDbCircle
 10
398.956526
 20
178.154799
 30
0.0
 40
2.0
100
AcDbArc
 50
133.432537
 51
180.0
  0
ARC
  5
2B9
100
AcDbEntity
  8
LAY-1
  6
CONTINUOUS
 62
     2
100
AcDbCircle
 10
393.456526
 20
183.964274
 30
0.0
 40
6.0
100
AcDbArc
 50
313.432537
 51
0.0
  0
LINE
  5
2BA
100
AcDbEntity
  8
LAY-1
  6
CONTINUOUS
 62
     2
100
AcDbLine
 10
399.456526
 20
183.964274
 30
0.0
 11
399.456526
 21
189.617509
 31
0.0
  0
LINE
  5
2BB
100
AcDbEntity
  8
LAY-1
  6
CONTINUOUS
 62
     2
100
AcDbLine
 10
399.456526
 20
231.759635
 30
0.0
 11
399.456526
 21
226.1064
 31
0.0
  0
ARC
  5
2BC
100
AcDbEntity
  8
LAY-1
  6
CONTINUOUS
 62
     2
100
AcDbCircle
 10
494.94534
 20
223.861954
 30
0.0
 40
2.0
100
AcDbArc
 50
0.0
 51
90.0
  0
LINE
  5
2BD
100
AcDbEntity
  8
LAY-1
  6
CONTINUOUS
 62
     2
100
AcDbLine
 10
496.94534
 20
223.861954
 30
0.0
 11
496.94534
 21
207.861954
 31
0.0
  0
CIRCLE
  5
2BE
100
AcDbEntity
  8
LAY-1
  6
CONTINUOUS
 62
     2
100
AcDbCircle
 10
520.44534
 20
207.861954
 30
0.0
 40
10.0
  0
LINE
  5
2BF
100
AcDbEntity
  8
LAY-1
  6
CONTINUOUS
 62
     2
100
AcDbLine
 10
531.899526
 20
241.361954
 30
0.0
 11
531.899526
 21
174.361954
 31
0.0
  0
ARC
  5
2C0
100
AcDbEntity
  8
LAY-1
  6
CONTINUOUS
 62
     2
100
AcDbCircle
 10
520.44534
 20
207.861954
 30
0.0
 40
29.194492
100
AcDbArc
 50
222.173227
 51
242.576553
  0
ARC
  5
2C1
100
AcDbEntity
  8
LAY-1
  6
CONTINUOUS
 62
     2
100
AcDbCircle
 10
520.44534
 20
207.861954
 30
0.0
 40
29.194492
100
AcDbArc
 50
117.329574
 51
137.826773
  0
ARC
  5
2C2
100
AcDbEntity
  8
LAY-1
  6
CONTINUOUS
 62
     2
100
AcDbCircle
 10
520.44534
 20
207.861954
 30
0.0
 40
29.194492
100
AcDbArc
 50
297.563453
 51
62.67078
  0
ARC
  5
2C3
100
AcDbEntity
  8
LAY-1
  6
CONTINUOUS
 62
     2
100
AcDbCircle
 10
520.44534
 20
207.861954
 30
0.0
 40
18.5
100
AcDbArc
 50
316.656621
 51
43.343379
  0
ARC
  5
2C4
100
AcDbEntity
  8
LAY-1
  6
CONTINUOUS
 62
     2
100
AcDbCircle
 10
520.44534
 20
207.861954
 30
0.0
 40
18.5
100
AcDbArc
 50
136.657541
 51
223.342459
  0
LINE
  5
2C5
100
AcDbEntity
  8
LAY-1
  6
CONTINUOUS
 62
     2
100
AcDbLine
 10
515.976561
 20
174.361954
 30
0.0
 11
515.976561
 21
197.861954
 31
0.0
  0
LINE
  5
2C6
100
AcDbEntity
  8
LAY-1
  6
CONTINUOUS
 62
     2
100
AcDbLine
 10
515.976561
 20
241.361954
 30
0.0
 11
515.976561
 21
217.861954
 31
0.0
  0
LINE
  5
2C7
100
AcDbEntity
  8
LAY-1
  6
CONTINUOUS
 62
     2
100
AcDbLine
 10
524.914118
 20
241.361954
 30
0.0
 11
524.914118
 21
217.861954
 31
0.0
  0
LINE
  5
2C8
100
AcDbEntity
  8
LAY-1
  6
CONTINUOUS
 62
     2
100
AcDbLine
 10
524.914118
 20
174.361954
 30
0.0
 11
524.914118
 21
197.861954
 31
0.0
  0
LINE
  5
2C9
100
AcDbEntity
  8
LAY-1
  6
CONTINUOUS
 62
     2
100
AcDbLine
 10
490.030485
 20
233.956717
 30
0.0
 11
488.987557
 21
225.861954
 31
0.0
  0
LINE
  5
2CA
100
AcDbEntity
  8
LAY-1
  6
CONTINUOUS
 62
     2
100
AcDbLine
 10
488.987557
 20
189.861954
 30
0.0
 11
490.030485
 21
181.767192
 31
0.0
  0
LINE
  5
2CB
100
AcDbEntity
  8
LAY-1
  6
CONTINUOUS
 62
     2
100
AcDbLine
 10
550.860194
 20
181.767192
 30
0.0
 11
553.670709
 21
203.581201
 31
0.0
  0
ARC
  5
2CC
100
AcDbEntity
  8
LAY-1
  6
CONTINUOUS
 62
     2
100
AcDbCircle
 10
520.44534
 20
207.861954
 30
0.0
 40
33.5
100
AcDbArc
 50
352.658462
 51
7.341538
  0
LINE
  5
2CD
100
AcDbEntity
  8
LAY-1
  6
CONTINUOUS
 62
     2
100
AcDbLine
 10
553.670709
 20
212.142707
 30
0.0
 11
550.860194
 21
233.956717
 31
0.0
  0
LINE
  5
2CE
100
AcDbEntity
  8
LAY-1
  6
CONTINUOUS
 62
     2
100
AcDbLine
 10
546.927132
 20
177.512499
 30
0.0
 11
531.899526
 21
174.361954
 31
0.0
  0
LINE
  5
2CF
100
AcDbEntity
  8
LAY-1
  6
CONTINUOUS
 62
     2
100
AcDbLine
 10
546.927132
 20
238.21141
 30
0.0
 11
531.899526
 21
241.361954
 31
0.0
  0
LINE
  5
2D0
100
AcDbEntity
  8
LAY-1
  6
CONTINUOUS
 62
     2
100
AcDbLine
 10
493.963534
 20
238.211407
 30
0.0
 11
508.990949
 21
241.361954
 31
0.0
  0
LINE
  5
2D1
100
AcDbEntity
  8
LAY-1
  6
CONTINUOUS
 62
     2
100
AcDbLine
 10
531.899526
 20
174.361954
 30
0.0
 11
508.990949
 21
174.361954
 31
0.0
  0
LINE
  5
2D2
100
AcDbEntity
  8
LAY-1
  6
CONTINUOUS
 62
     2
100
AcDbLine
 10
531.899526
 20
241.361954
 30
0.0
 11
508.990949
 21
241.361954
 31
0.0
  0
LINE
  5
2D3
100
AcDbEntity
  8
LAY-1
  6
CONTINUOUS
 62
     2
100
AcDbLine
 10
486.94534
 20
207.861954
 30
0.0
 11
486.94534
 21
189.861954
 31
0.0
  0
LINE
  5
2D4
100
AcDbEntity
  8
LAY-1
  6
CONTINUOUS
 62
     2
100
AcDbLine
 10
486.94534
 20
189.861954
 30
0.0
 11
494.94534
 21
189.861954
 31
0.0
  0
ARC
  5
2D5
100
AcDbEntity
  8
LAY-1
  6
CONTINUOUS
 62
     2
100
AcDbCircle
 10
494.989496
 20
182.40611
 30
0.0
 40
5.0
100
AcDbArc
 50
187.341538
 51
258.159247
  0
LINE
  5
2D6
100
AcDbEntity
  8
LAY-1
  6
CONTINUOUS
 62
     2
100
AcDbLine
 10
508.990949
 20
174.361954
 30
0.0
 11
493.963534
 21
177.512502
 31
0.0
  0
ARC
  5
2D7
100
AcDbEntity
  8
LAY-1
  6
CONTINUOUS
 62
     2
100
AcDbCircle
 10
545.901184
 20
182.40611
 30
0.0
 40
5.0
100
AcDbArc
 50
281.840597
 51
352.658462
  0
CIRCLE
  5
2D8
100
AcDbEntity
  8
LAY-1
  6
CONTINUOUS
 62
     2
100
AcDbCircle
 10
520.44534
 20
207.861954
 30
0.0
 40
3.45
  0
ARC
  5
2D9
100
AcDbEntity
  8
LAY-1
  6
CONTINUOUS
 62
     2
100
AcDbCircle
 10
545.901184
 20
233.317799
 30
0.0
 40
5.0
100
AcDbArc
 50
7.341538
 51
78.159403
  0
ARC
  5
2DA
100
AcDbEntity
  8
LAY-1
  6
CONTINUOUS
 62
     2
100
AcDbCircle
 10
494.989496
 20
233.317799
 30
0.0
 40
5.0
100
AcDbArc
 50
101.840753
 51
172.658462
  0
LINE
  5
2DB
100
AcDbEntity
  8
LAY-1
  6
CONTINUOUS
 62
     2
100
AcDbLine
 10
486.94534
 20
225.861954
 30
0.0
 11
494.94534
 21
225.861954
 31
0.0
  0
LINE
  5
2DC
100
AcDbEntity
  8
LAY-1
  6
CONTINUOUS
 62
     2
100
AcDbLine
 10
486.94534
 20
207.861954
 30
0.0
 11
486.94534
 21
225.861954
 31
0.0
  0
LINE
  5
2DD
100
AcDbEntity
  8
LAY-1
  6
CONTINUOUS
 62
     2
100
AcDbLine
 10
508.990949
 20
174.361954
 30
0.0
 11
508.990949
 21
241.361954
 31
0.0
  0
LINE
  5
2DE
100
AcDbEntity
  8
LAY-1
  6
CONTINUOUS
 62
     2
100
AcDbLine
 10
496.94534
 20
191.861954
 30
0.0
 11
496.94534
 21
207.861954
 31
0.0
  0
ARC
  5
2DF
100
AcDbEntity
  8
LAY-1
  6
CONTINUOUS
 62
     2
100
AcDbCircle
 10
494.94534
 20
191.861954
 30
0.0
 40
2.0
100
AcDbArc
 50
270.0
 51
0.0
  0
ARC
  5
2E0
100
AcDbEntity
  8
LAY-1
  6
CONTINUOUS
 62
     2
100
AcDbCircle
 10
97.494974
 20
237.56911
 30
0.0
 40
2.0
100
AcDbArc
 50
313.432537
 51
0.0
  0
ARC
  5
2E1
100
AcDbEntity
  8
LAY-1
  6
CONTINUOUS
 62
     2
100
AcDbCircle
 10
95.994974
 20
227.319994
 30
0.0
 40
1.0
100
AcDbArc
 50
279.594068
 51
0.0
  0
ARC
  5
2E2
100
AcDbEntity
  8
LAY-1
  6
CONTINUOUS
 62
     2
100
AcDbCircle
 10
96.494974
 20
224.361954
 30
0.0
 40
2.0
100
AcDbArc
 50
99.594068
 51
180.0
  0
ARC
  5
2E3
100
AcDbEntity
  8
LAY-1
  6
CONTINUOUS
 62
     2
100
AcDbCircle
 10
102.994974
 20
231.759635
 30
0.0
 40
6.0
100
AcDbArc
 50
133.432537
 51
180.0
  0
LINE
  5
2E4
100
AcDbEntity
  8
LAY-1
  6
CONTINUOUS
 62
     2
100
AcDbLine
 10
96.994974
 20
231.759635
 30
0.0
 11
96.994974
 21
207.861954
 31
0.0
  0
LINE
  5
2E5
100
AcDbEntity
  8
LAY-1
  6
CONTINUOUS
 62
     2
100
AcDbLine
 10
94.494974
 20
224.361954
 30
0.0
 11
94.494974
 21
207.861954
 31
0.0
  0
ARC
  5
2E6
100
AcDbEntity
  8
LAY-1
  6
CONTINUOUS
 62
     2
100
AcDbCircle
 10
97.494974
 20
178.154799
 30
0.0
 40
2.0
100
AcDbArc
 50
0.0
 51
46.567463
  0
ARC
  5
2E7
100
AcDbEntity
  8
LAY-1
  6
CONTINUOUS
 62
     2
100
AcDbCircle
 10
95.994974
 20
188.403915
 30
0.0
 40
1.0
100
AcDbArc
 50
0.0
 51
80.405932
  0
ARC
  5
2E8
100
AcDbEntity
  8
LAY-1
  6
CONTINUOUS
 62
     2
100
AcDbCircle
 10
96.494974
 20
191.361954
 30
0.0
 40
2.0
100
AcDbArc
 50
180.0
 51
260.405932
  0
ARC
  5
2E9
100
AcDbEntity
  8
LAY-1
  6
CONTINUOUS
 62
     2
100
AcDbCircle
 10
102.994974
 20
183.964274
 30
0.0
 40
6.0
100
AcDbArc
 50
180.0
 51
226.567463
  0
LINE
  5
2EA
100
AcDbEntity
  8
LAY-1
  6
CONTINUOUS
 62
     2
100
AcDbLine
 10
96.994974
 20
183.964274
 30
0.0
 11
96.994974
 21
207.861954
 31
0.0
  0
LINE
  5
2EB
100
AcDbEntity
  8
LAY-1
  6
CONTINUOUS
 62
     2
100
AcDbLine
 10
94.494974
 20
191.361954
 30
0.0
 11
94.494974
 21
207.861954
 31
0.0
  0
ARC
  5
2EC
100
AcDbEntity
  8
LAY-1
  6
CONTINUOUS
 62
     2
100
AcDbCircle
 10
75.653081
 20
207.861954
 30
0.0
 40
12.097652
100
AcDbArc
 50
298.874633
 51
61.125367
  0
LINE
  5
2ED
100
AcDbEntity
  8
LAY-1
  6
CONTINUOUS
 62
     2
100
AcDbLine
 10
89.914974
 20
158.844532
 30
0.0
 11
85.474974
 21
158.844532
 31
0.0
  0
LINE
  5
2EE
100
AcDbEntity
  8
LAY-1
  6
CONTINUOUS
 62
     2
100
AcDbLine
 10
85.474974
 20
158.844532
 30
0.0
 11
92.494974
 21
165.864532
 31
0.0
  0
LINE
  5
2EF
100
AcDbEntity
  8
LAY-1
  6
CONTINUOUS
 62
     2
100
AcDbLine
 10
95.074974
 20
158.844532
 30
0.0
 11
99.514974
 21
158.844532
 31
0.0
  0
LINE
  5
2F0
100
AcDbEntity
  8
LAY-1
  6
CONTINUOUS
 62
     2
100
AcDbLine
 10
99.514974
 20
158.844532
 30
0.0
 11
92.494974
 21
165.864532
 31
0.0
  0
LINE
  5
2F1
100
AcDbEntity
  8
LAY-1
  6
CONTINUOUS
 62
     2
100
AcDbLine
 10
89.914974
 20
149.844532
 30
0.0
 11
89.914974
 21
158.844532
 31
0.0
  0
LINE
  5
2F2
100
AcDbEntity
  8
LAY-1
  6
CONTINUOUS
 62
     2
100
AcDbLine
 10
95.074974
 20
149.844532
 30
0.0
 11
95.074974
 21
158.844532
 31
0.0
  0
LINE
  5
2F3
100
AcDbEntity
  8
LAY-1
  6
CONTINUOUS
 62
     2
100
AcDbLine
 10
89.914974
 20
149.844532
 30
0.0
 11
95.074974
 21
149.844532
 31
0.0
  0
LINE
  5
2F4
100
AcDbEntity
  8
LAY-1
  6
EXLTYPE3
 62
     1
100
AcDbLine
 10
92.494974
 20
168.810678
 30
0.0
 11
92.494974
 21
258.693733
 31
0.0
  0
TEXT
  5
2F5
100
AcDbEntity
  8
LAY-1
  6
CONTINUOUS
 62
     3
100
AcDbText
 10
364.869632
 20
80.795488
 30
0.0
 40
5.656
  1
型式
 41
0.984714
  7
EXCADSTD
 72
     5
 11
377.024491
 21
80.795488
 31
0.0
100
AcDbText
  0
TEXT
  5
2F6
100
AcDbEntity
  8
LAY-1
  6
CONTINUOUS
 62
     3
100
AcDbText
 10
364.733888
 20
72.83184
 30
0.0
 40
5.656
  1
品名
 41
0.984714
  7
EXCADSTD
 72
     5
 11
376.888747
 21
72.83184
 31
0.0
100
AcDbText
  0
LINE
  5
2F7
100
AcDbEntity
  8
LAY-1
  6
CONTINUOUS
 62
     4
100
AcDbLine
 10
362.2
 20
64.80032
 30
0.0
 11
463.55552
 21
64.80032
 31
0.0
  0
LINE
  5
2F8
100
AcDbEntity
  8
LAY-1
  6
CONTINUOUS
 62
     1
100
AcDbLine
 10
362.2
 20
71.70064
 30
0.0
 11
463.55552
 21
71.70064
 31
0.0
  0
TEXT
  5
2F9
100
AcDbEntity
  8
LAY-1
  6
CONTINUOUS
 62
     3
100
AcDbText
 10
398.217408
 20
65.546912
 30
0.0
 40
5.656
  1
外観図
 41
1.47392
  7
EXCADSTD
 72
     5
 11
427.990593
 21
65.546912
 31
0.0
100
AcDbText
  0
LINE
  5
2FA
100
AcDbEntity
  8
LAY-1
  6
CONTINUOUS
 62
     4
100
AcDbLine
 10
362.2
 20
95.45584
 30
0.0
 11
463.55552
 21
95.45584
 31
0.0
  0
LINE
  5
2FB
100
AcDbEntity
  8
LAY-1
  6
CONTINUOUS
 62
     1
100
AcDbLine
 10
362.2
 20
79.61904
 30
0.0
 11
463.55552
 21
79.61904
 31
0.0
  0
LINE
  5
2FC
100
AcDbEntity
  8
LAY-1
  6
CONTINUOUS
 62
     1
100
AcDbLine
 10
362.2
 20
87.53744
 30
0.0
 11
463.55552
 21
87.53744
 31
0.0
  0
LINE
  5
2FD
100
AcDbEntity
  8
LAY-1
  6
CONTINUOUS
 62
     1
100
AcDbLine
 10
379.168
 20
95.45584
 30
0.0
 11
379.168
 21
71.70064
 31
0.0
  0
LINE
  5
2FE
100
AcDbEntity
  8
LAY-1
  6
CONTINUOUS
 62
     4
100
AcDbLine
 10
362.2
 20
57.9
 30
0.0
 11
463.55552
 21
57.9
 31
0.0
  0
LINE
  5
2FF
100
AcDbEntity
  8
LAY-1
  6
CONTINUOUS
 62
     4
100
AcDbLine
 10
463.55552
 20
57.9
 30
0.0
 11
463.55552
 21
95.45584
 31
0.0
  0
LINE
  5
300
100
AcDbEntity
  8
LAY-1
  6
CONTINUOUS
 62
     4
100
AcDbLine
 10
362.2
 20
57.9
 30
0.0
 11
362.2
 21
95.45584
 31
0.0
  0
TEXT
  5
301
100
AcDbEntity
  8
LAY-1
  6
CONTINUOUS
 62
     3
100
AcDbText
 10
384.959744
 20
88.532896
 30
0.0
 40
5.656
  1
　　　年　　月　　日
 41
0.84
  7
EXCADSTD
 72
     5
 11
441.519745
 21
88.532896
 31
0.0
100
AcDbText
  0
TEXT
  5
302
100
AcDbEntity
  8
LAY-1
  6
CONTINUOUS
 62
     3
100
AcDbText
 10
362.923968
 20
88.532896
 30
0.0
 40
5.656
  1
作成日
 41
0.84
  7
EXCADSTD
 72
     5
 11
379.891968
 21
88.532896
 31
0.0
100
AcDbText
  0
HATCH
  5
303
100
AcDbEntity
  8
LAY-1
  6
CONTINUOUS
 62
     3
100
AcDbHatch
 10
0.0
 20
0.0
 30
0.0
210
0.0
220
0.0
230
1.0
  2
SOLID
 70
     1
 71
     1
 91
        1
 92
        1
 93
       16
 72
     1
 10
433.53909953935988
 20
59.623908399999856
 11
434.60990153935984
 21
59.623908399999856
 72
     1
 10
434.60990153935984
 20
59.623908399999856
 11
434.60990153935984
 21
58.933068399999854
 72
     1
 10
434.60990153935984
 20
58.933068399999854
 11
431.74291553935984
 21
58.933068399999854
 72
     1
 10
431.74291553935984
 20
58.933068399999854
 11
431.74291553935984
 21
59.623908399999856
 72
     1
 10
431.74291553935984
 20
59.623908399999856
 11
432.84825953935984
 21
59.623908399999856
 72
     1
 10
432.84825953935984
 20
59.623908399999856
 11
432.84825953935984
 21
61.627344399999863
 72
     1
 10
432.84825953935984
 20
61.627344399999863
 11
431.98470953935987
 21
61.627344399999863
 72
     1
 10
431.98470953935987
 20
61.627344399999863
 11
431.98470953935987
 21
62.318184399999872
 72
     1
 10
431.98470953935987
 20
62.318184399999872
 11
432.84825953935984
 21
62.318184399999872
 72
     1
 10
432.84825953935984
 20
62.318184399999872
 11
432.84825953935984
 21
63.768948399999864
 72
     1
 10
432.84825953935984
 20
63.768948399999864
 11
433.53909953935988
 21
63.768948399999864
 72
     1
 10
433.53909953935988
 20
63.768948399999864
 11
433.53909953935988
 21
62.318184399999872
 72
     1
 10
433.53909953935988
 20
62.318184399999872
 11
434.54081753935986
 21
62.318184399999872
 72
     1
 10
434.54081753935986
 20
62.318184399999872
 11
434.54081753935986
 21
61.627344399999863
 72
     1
 10
434.54081753935986
 20
61.627344399999863
 11
433.53909953935988
 21
61.627344399999863
 72
     1
 10
433.53909953935988
 20
61.627344399999863
 11
433.53909953935988
 21
59.623908399999856
 97
        0
 75
     0
 76
     1
 98
        1
 10
0.0
 20
0.0
  0
HATCH
  5
304
100
AcDbEntity
  8
LAY-1
  6
CONTINUOUS
 62
     3
100
AcDbHatch
 10
0.0
 20
0.0
 30
0.0
210
0.0
220
0.0
230
1.0
  2
SOLID
 70
     1
 71
     1
 91
        1
 92
        1
 93
       17
 72
     2
 10
426.28115123135785
 20
65.109739056879278
 40
6.217560000000022
 50
44.165469
 51
51.472792
 73
     0
 72
     1
 10
430.15398353935979
 20
60.245664399999882
 11
429.80421024502692
 21
60.851489516915109
 72
     2
 10
426.28115123135785
 20
65.109739056879278
 40
5.5267200000000178
 50
309.602625
 51
331.307968
 73
     1
 72
     1
 10
431.12926150315388
 20
62.456352399999872
 11
429.98127353935979
 21
62.456352399999872
 72
     1
 10
429.98127353935979
 20
62.456352399999872
 11
429.98127353935979
 21
63.078108399999856
 72
     1
 10
429.98127353935979
 20
63.078108399999856
 11
430.74119753935986
 21
63.078108399999856
 72
     1
 10
430.74119753935986
 20
63.078108399999856
 11
430.74119753935986
 21
63.768948399999864
 72
     1
 10
430.74119753935986
 20
63.768948399999864
 11
431.36295353935986
 21
63.768948399999864
 72
     1
 10
431.36295353935986
 20
63.768948399999864
 11
431.36295353935986
 21
63.078108399999856
 72
     1
 10
431.36295353935986
 20
63.078108399999856
 11
432.15741953935981
 21
63.078108399999856
 72
     2
 10
426.28115123135785
 20
65.109739056879278
 40
6.217560000000022
 50
19.072051
 51
32.871988
 73
     0
 72
     1
 10
431.50318861247888
 20
61.735071970517296
 11
432.33012953935975
 21
60.936504399999869
 72
     1
 10
432.33012953935975
 20
60.936504399999869
 11
431.8415574787536
 21
60.447932339393645
 72
     1
 10
431.8415574787536
 20
60.447932339393645
 11
431.36295353935986
 21
60.910114791244659
 72
     1
 10
431.36295353935986
 20
60.910114791244659
 11
431.36295353935986
 21
58.933068399999854
 72
     1
 10
431.36295353935986
 20
58.933068399999854
 11
430.74119753935986
 21
58.933068399999854
 72
     1
 10
430.74119753935986
 20
58.933068399999854
 11
430.74119753935986
 21
60.777760376867334
 97
        0
 75
     0
 76
     1
 98
        1
 10
0.0
 20
0.0
  0
HATCH
  5
305
100
AcDbEntity
  8
LAY-1
  6
CONTINUOUS
 62
     3
100
AcDbHatch
 10
0.0
 20
0.0
 30
0.0
210
0.0
220
0.0
230
1.0
  2
SOLID
 70
     1
 71
     1
 91
        1
 92
        1
 93
       12
 72
     2
 10
435.01828699737712
 20
55.785139949949205
 40
9.7408440000000311
 50
150.903074
 51
156.790773
 73
     1
 72
     1
 10
426.06575112092111
 20
59.623908399999806
 11
428.1926878742305
 21
59.623908399999891
 72
     2
 10
422.15088652481268
 20
57.886516896363084
 40
6.2866440000000212
 50
16.043216
 51
21.362935
 73
     1
 72
     1
 10
428.00558565730842
 20
60.176580399999857
 11
428.66867753935975
 21
60.176580399999857
 72
     2
 10
422.15088652481268
 20
57.886516896363084
 40
6.9084000000000225
 50
340.64078
 51
351.286733
 73
     0
 72
     1
 10
428.97955553935975
 20
58.933068399999854
 11
425.14539353935976
 21
58.933068399999854
 72
     2
 10
435.01828699737712
 20
55.785139949949205
 40
10.362600000000032
 50
197.684652
 51
207.200855
 73
     0
 72
     1
 10
425.80169153935975
 20
60.522000399999868
 11
424.83451553935981
 21
60.522000399999868
 72
     1
 10
424.83451553935981
 20
60.522000399999868
 11
424.83451553935981
 21
61.212840399999877
 72
     1
 10
424.83451553935981
 20
61.212840399999877
 11
429.25589153935988
 21
61.212840399999877
 72
     1
 10
429.25589153935988
 20
61.212840399999877
 11
429.25589153935988
 21
60.522000399999868
 72
     1
 10
429.25589153935988
 20
60.522000399999868
 11
426.50675394456687
 21
60.522000399999868
 97
        0
 75
     0
 76
     1
 98
        1
 10
0.0
 20
0.0
  0
HATCH
  5
306
100
AcDbEntity
  8
LAY-1
  6
CONTINUOUS
 62
     3
100
AcDbHatch
 10
0.0
 20
0.0
 30
0.0
210
0.0
220
0.0
230
1.0
  2
SOLID
 70
     1
 71
     1
 91
        1
 92
        1
 93
       10
 72
     2
 10
435.0597203244954
 20
70.738054028430625
 40
11.053440000000036
 50
129.545698
 51
136.474664
 73
     0
 72
     1
 10
427.04520353936005
 20
63.125823308438974
 11
427.04520353936005
 21
63.768948399999864
 72
     1
 10
427.04520353936005
 20
63.768948399999864
 11
427.39062353935992
 21
63.768948399999864
 72
     2
 10
435.0597203244954
 20
70.738054028430625
 40
10.362600000000032
 50
222.262231
 51
237.763996
 73
     1
 72
     1
 10
429.53222753935984
 20
61.972764399999875
 11
429.08431577687702
 21
61.438963947895729
 72
     2
 10
435.0597203244954
 20
70.738054028430625
 40
11.053440000000036
 50
122.723968
 51
128.230009
 73
     0
 72
     1
 10
428.21963153935985
 20
62.05521340769689
 11
428.21963153935985
 21
61.523718399999858
 72
     1
 10
428.21963153935985
 20
61.523718399999858
 11
427.04520353936005
 21
61.523718399999858
 72
     1
 10
427.04520353936005
 20
61.523718399999858
 11
427.04520353936005
 21
62.214558399999866
 72
     1
 10
427.04520353936005
 20
62.214558399999866
 11
428.02206744120235
 21
62.214558399999866
 97
        0
 75
     0
 76
     1
 98
        1
 10
0.0
 20
0.0
  0
HATCH
  5
307
100
AcDbEntity
  8
LAY-1
  6
CONTINUOUS
 62
     3
100
AcDbHatch
 10
0.0
 20
0.0
 30
0.0
210
0.0
220
0.0
230
1.0
  2
SOLID
 70
     1
 71
     1
 91
        1
 92
        1
 93
       10
 72
     2
 10
419.03068675422429
 20
70.738054028430625
 40
11.053440000000036
 50
51.769991
 51
57.276032
 73
     0
 72
     1
 10
425.00609130184267
 20
61.438963947895708
 11
424.5581795393598
 21
61.972764399999868
 72
     2
 10
419.03068675422429
 20
70.738054028430625
 40
10.362600000000032
 50
302.236004
 51
317.737769
 73
     1
 72
     1
 10
426.69978353935977
 20
63.768948399999864
 11
427.04520353936005
 21
63.768948399999864
 72
     1
 10
427.04520353936005
 20
63.768948399999864
 11
427.04520353936005
 21
63.125823308439386
 72
     2
 10
419.03068675422429
 20
70.738054028430625
 40
11.053440000000036
 50
43.525336
 51
50.454302
 73
     0
 72
     1
 10
426.06833963751734
 20
62.214558399999866
 11
427.04520353936005
 21
62.214558399999866
 72
     1
 10
427.04520353936005
 20
62.214558399999866
 11
427.04520353936005
 21
61.523718399999858
 72
     1
 10
427.04520353936005
 20
61.523718399999858
 11
425.87077553935984
 21
61.523718399999858
 72
     1
 10
425.87077553935984
 20
61.523718399999858
 11
425.87077553935984
 21
62.055213407696883
 97
        0
 75
     0
 76
     1
 98
        1
 10
0.0
 20
0.0
  0
HATCH
  5
308
100
AcDbEntity
  8
LAY-1
  6
CONTINUOUS
 62
     3
100
AcDbHatch
 10
0.0
 20
0.0
 30
0.0
210
0.0
220
0.0
230
1.0
  2
SOLID
 70
     1
 71
     1
 91
        1
 92
        1
 93
       18
 72
     2
 10
413.94618496356361
 20
60.66437587932819
 40
9.671760000000031
 50
14.02954
 51
18.723021
 73
     1
 72
     1
 10
423.1061287931671
 20
63.768948399999864
 11
423.83279753935977
 21
63.768948399999864
 72
     2
 10
413.94618496356361
 20
60.66437587932819
 40
10.362600000000032
 50
342.566782
 51
346.922981
 73
     0
 72
     1
 10
424.04004953935981
 20
63.009024399999873
 11
424.31638553935977
 21
63.009024399999873
 72
     1
 10
424.31638553935977
 20
63.009024399999873
 11
424.31638553935977
 21
62.318184399999858
 72
     1
 10
424.31638553935977
 20
62.318184399999858
 11
423.02482785594208
 21
62.318184399999872
 72
     2
 10
430.18852553935977
 20
63.458070399999869
 40
7.2538200000000241
 50
189.041096
 51
204.65198
 73
     1
 72
     2
 10
425.04061215810361
 20
61.09552001703689
 40
1.5896645913839336
 50
204.65198
 51
242.897449
 73
     1
 72
     1
 10
424.31638553935977
 20
59.680412488330056
 11
424.31638553935977
 21
58.933068399999854
 72
     2
 10
425.04061215810361
 20
61.09552001703689
 40
2.2805045913839357
 50
108.516212
 51
155.34802
 73
     0
 72
     2
 10
430.18852553935977
 20
63.458070399999869
 40
7.9446600000000238
 50
155.34802
 51
171.750831
 73
     0
 72
     1
 10
422.32606521051838
 20
62.318184399999872
 11
419.68775753935984
 21
62.318184399999858
 72
     1
 10
419.68775753935984
 20
62.318184399999858
 11
419.68775753935984
 21
63.009024399999873
 72
     1
 10
419.68775753935984
 20
63.009024399999873
 11
422.25470394900788
 21
63.009024399999873
 72
     1
 10
422.25470394900788
 20
63.009024399999873
 11
422.22816681817267
 21
63.768948399999864
 72
     1
 10
422.22816681817267
 20
63.768948399999864
 11
422.91942791575605
 21
63.768948399999864
 72
     1
 10
422.91942791575605
 20
63.768948399999864
 11
422.94596504659125
 21
63.009024399999873
 72
     1
 10
422.94596504659125
 20
63.009024399999873
 11
423.32944478156463
 21
63.009024399999873
 97
        0
 75
     0
 76
     1
 98
        1
 10
0.0
 20
0.0
  0
HATCH
  5
309
100
AcDbEntity
  8
LAY-1
  6
CONTINUOUS
 62
     3
100
AcDbHatch
 10
0.0
 20
0.0
 30
0.0
210
0.0
220
0.0
230
1.0
  2
SOLID
 70
     1
 71
     1
 91
        1
 92
        1
 93
       12
 72
     2
 10
417.51332391881908
 20
93.613811700271015
 40
33.851160000000107
 50
276.500664
 51
278.269357
 73
     1
 72
     1
 10
422.38203353935984
 20
60.114607232456208
 11
422.38203353935984
 21
59.416656399999873
 72
     2
 10
417.51332391881908
 20
93.613811700271015
 40
34.542000000000108
 50
81.897153
 51
86.39082
 73
     0
 72
     1
 10
419.68775753935984
 20
59.140320399999858
 11
419.68775753935984
 21
59.832561401096612
 72
     2
 10
417.51332391881908
 20
93.613811700271015
 40
33.851160000000107
 50
273.682937
 51
275.325087
 73
     1
 72
     1
 10
420.65493353935983
 20
59.90874795106955
 11
420.65493353935983
 21
61.005588399999851
 72
     1
 10
420.65493353935983
 20
61.005588399999851
 11
419.68775753935984
 21
61.005588399999851
 72
     1
 10
419.68775753935984
 20
61.005588399999851
 11
419.68775753935984
 21
61.696428399999853
 72
     1
 10
419.68775753935984
 20
61.696428399999853
 11
422.17478153935986
 21
61.696428399999853
 72
     1
 10
422.17478153935986
 20
61.696428399999853
 11
422.17478153935986
 21
61.005588399999851
 72
     1
 10
422.17478153935986
 20
61.005588399999851
 11
421.34577353935987
 21
61.005588399999851
 72
     1
 10
421.34577353935987
 20
61.005588399999851
 11
421.34577353935981
 21
59.980296224608566
 97
        0
 75
     0
 76
     1
 98
        1
 10
0.0
 20
0.0
  0
HATCH
  5
30A
100
AcDbEntity
  8
LAY-1
  6
CONTINUOUS
 62
     3
100
AcDbHatch
 10
0.0
 20
0.0
 30
0.0
210
0.0
220
0.0
230
1.0
  2
SOLID
 70
     1
 71
     1
 91
        1
 92
        1
 93
       30
 72
     2
 10
411.26938189234835
 20
64.873491422450741
 40
7.5646980000000239
 50
37.940537
 51
46.713808
 73
     0
 72
     1
 10
416.45606373136485
 20
59.36686020799479
 11
415.99176353935979
 21
59.831160399999888
 72
     2
 10
411.26938189234835
 20
64.873491422450741
 40
6.9084000000000261
 50
313.123325
 51
325.95222
 73
     1
 72
     1
 10
416.99348153935972
 20
61.005588399999873
 11
416.16447353935979
 21
61.005588399999873
 72
     1
 10
416.16447353935979
 20
61.005588399999873
 11
416.16447353935979
 21
61.696428399999867
 72
     1
 10
416.16447353935979
 20
61.696428399999867
 11
417.2352755393598
 21
61.696428399999867
 72
     1
 10
417.2352755393598
 20
61.696428399999867
 11
417.2352755393598
 21
62.387268399999861
 72
     1
 10
417.2352755393598
 20
62.387268399999861
 11
416.89083724802379
 21
62.387268399999861
 72
     2
 10
409.50382488125643
 20
63.848534179234491
 40
7.5301560000000274
 50
11.189535
 51
14.746058
 73
     0
 72
     1
 10
416.78596354570016
 20
61.931842796630058
 11
416.19901553935978
 21
62.145474399999856
 72
     2
 10
409.50382488125643
 20
63.848534179234491
 40
6.9084000000000261
 50
345.728313
 51
357.620387
 73
     1
 72
     1
 10
416.40626753935982
 20
63.561696400001928
 11
417.02357765703204
 21
63.452847970792007
 72
     2
 10
409.50382488125643
 20
63.848534179234491
 40
7.5301560000000274
 50
3.012102
 51
6.401006
 73
     0
 72
     1
 10
416.98703760808075
 20
63.009024399999873
 11
417.2352755393598
 21
63.009024399999873
 72
     1
 10
417.2352755393598
 20
63.009024399999873
 11
417.2352755393598
 21
63.768948399999864
 72
     1
 10
417.2352755393598
 20
63.768948399999864
 11
417.92611553935984
 21
63.768948399999864
 72
     1
 10
417.92611553935984
 20
63.768948399999864
 11
417.92611553935984
 21
63.009024399999873
 72
     1
 10
417.92611553935984
 20
63.009024399999873
 11
418.85874953935985
 21
63.009024399999873
 72
     1
 10
418.85874953935985
 20
63.009024399999873
 11
418.85874953935985
 21
62.387268399999861
 72
     1
 10
418.85874953935985
 20
62.387268399999861
 11
417.92611553935984
 21
62.387268399999861
 72
     1
 10
417.92611553935984
 20
62.387268399999861
 11
417.92611553935984
 21
61.696428399999867
 72
     1
 10
417.92611553935984
 20
61.696428399999867
 11
418.9969175393598
 21
61.696428399999867
 72
     1
 10
418.9969175393598
 20
61.696428399999867
 11
418.9969175393598
 21
61.005588399999873
 72
     1
 10
418.9969175393598
 20
61.005588399999873
 11
418.16790953935975
 21
61.005588399999873
 72
     2
 10
423.89200918637113
 20
64.873491422450741
 40
6.9084000000000261
 50
214.04778
 51
226.876675
 73
     1
 72
     1
 10
419.16962753935968
 20
59.831160399999888
 11
418.70532734735457
 21
59.36686020799479
 72
     2
 10
423.89200918637113
 20
64.873491422450741
 40
7.5646980000000239
 50
133.286192
 51
142.059463
 73
     0
 72
     1
 10
417.92611553935984
 20
60.222387378919322
 11
417.92611553935984
 21
58.933068399999854
 72
     1
 10
417.92611553935984
 20
58.933068399999854
 11
417.2352755393598
 21
58.933068399999854
 72
     1
 10
417.2352755393598
 20
58.933068399999854
 11
417.2352755393598
 21
60.222387378919514
 97
        0
 75
     0
 76
     1
 98
        1
 10
0.0
 20
0.0
  0
HATCH
  5
30B
100
AcDbEntity
  8
LAY-1
  6
CONTINUOUS
 62
     3
100
AcDbHatch
 10
0.0
 20
0.0
 30
0.0
210
0.0
220
0.0
230
1.0
  2
SOLID
 70
     1
 71
     1
 91
        1
 92
        1
 93
       19
 72
     2
 10
408.42550755804348
 20
63.951458806985954
 40
7.5301560000000247
 50
27.683433
 51
32.280505
 73
     0
 72
     1
 10
414.79182975007103
 20
59.929868184901942
 11
414.29920553935978
 21
60.314748399999857
 72
     2
 10
408.42550755804348
 20
63.951458806985954
 40
6.9084000000000225
 50
328.236207
 51
344.845745
 73
     1
 72
     1
 10
415.09367153935972
 20
62.145474399999863
 11
414.47191553935983
 21
62.145474399999863
 72
     1
 10
414.47191553935983
 20
62.145474399999863
 11
414.47191553935983
 21
62.836314399999871
 72
     1
 10
414.47191553935983
 20
62.836314399999871
 11
415.09367153935983
 21
62.836314399999871
 72
     1
 10
415.09367153935983
 20
62.836314399999871
 11
415.09367153935983
 21
63.768948399999864
 72
     1
 10
415.09367153935983
 20
63.768948399999864
 11
415.78451153935981
 21
63.768948399999864
 72
     1
 10
415.78451153935981
 20
63.768948399999864
 11
415.78451153935981
 21
62.836314399999871
 72
     1
 10
415.78451153935981
 20
62.836314399999871
 11
416.09538953935981
 21
62.836314399999871
 72
     1
 10
416.09538953935981
 20
62.836314399999871
 11
416.09538953935981
 21
62.145474399999863
 72
     1
 10
416.09538953935981
 20
62.145474399999863
 11
415.78451153935976
 21
62.145474399999863
 72
     1
 10
415.78451153935976
 20
62.145474399999863
 11
416.16447353935979
 21
61.602832427062033
 72
     1
 10
416.16447353935979
 20
61.602832427062033
 11
416.16447353935979
 21
61.18225804589828
 72
     1
 10
416.16447353935979
 20
61.18225804589828
 11
415.95722153935975
 21
60.935264730325891
 72
     1
 10
415.95722153935975
 20
60.935264730325891
 11
415.78451153935981
 21
61.18192017257028
 72
     1
 10
415.78451153935981
 20
61.18192017257028
 11
415.78451153935981
 21
58.933068399999854
 72
     1
 10
415.78451153935981
 20
58.933068399999854
 11
415.09367153935983
 21
58.933068399999854
 72
     1
 10
415.09367153935983
 20
58.933068399999854
 11
415.09367153935983
 21
60.453053669982587
 97
        0
 75
     0
 76
     1
 98
        1
 10
0.0
 20
0.0
  0
HATCH
  5
30C
100
AcDbEntity
  8
LAY-1
  6
CONTINUOUS
 62
     3
100
AcDbHatch
 10
0.0
 20
0.0
 30
0.0
210
0.0
220
0.0
230
1.0
  2
SOLID
 70
     1
 71
     1
 91
        1
 92
        1
 93
        8
 72
     2
 10
411.32711102451907
 20
60.964137999999757
 40
1.3540464000000108
 50
270.0
 51
330.0
 73
     1
 72
     2
 10
410.65703183577455
 20
61.351008399999763
 40
2.12778720000001
 50
330.0
 51
30.0
 73
     1
 72
     2
 10
411.32711102451907
 20
61.737878799999763
 40
1.3540464000000101
 50
30.0
 51
90.0
 73
     1
 72
     1
 10
411.32711102451947
 20
63.091925199999771
 11
411.32711102451947
 21
63.865665999999933
 72
     2
 10
411.32711102451901
 20
61.737878799999926
 40
2.1277872000000064
 50
270.0
 51
330.0
 73
     0
 72
     2
 10
410.65703183577466
 20
61.351008399999891
 40
2.9015280000000132
 50
330.0
 51
30.0
 73
     0
 72
     2
 10
411.32711102451913
 20
60.964137999999679
 40
2.1277872000000042
 50
30.0
 51
90.0
 73
     0
 72
     1
 10
411.32711102451947
 20
58.836350799999678
 11
411.32711102451947
 21
59.610091599999748
 97
        0
 75
     0
 76
     1
 98
        1
 10
0.0
 20
0.0
  0
HATCH
  5
30D
100
AcDbEntity
  8
LAY-1
  6
CONTINUOUS
 62
     3
100
AcDbHatch
 10
0.0
 20
0.0
 30
0.0
210
0.0
220
0.0
230
1.0
  2
SOLID
 70
     1
 71
     1
 91
        1
 92
        1
 93
        8
 72
     2
 10
411.32711102451913
 20
60.964137999999679
 40
2.1277872000000042
 50
90.0
 51
150.0
 73
     0
 72
     2
 10
411.99719021326348
 20
61.351008399999735
 40
2.9015280000000154
 50
150.0
 51
210.0
 73
     0
 72
     2
 10
411.32711102451901
 20
61.737878799999926
 40
2.1277872000000064
 50
210.0
 51
270.0
 73
     0
 72
     1
 10
411.32711102451947
 20
63.865665999999933
 11
411.32711102451947
 21
63.091925199999771
 72
     2
 10
411.32711102451907
 20
61.737878799999763
 40
1.3540464000000101
 50
90.0
 51
150.0
 73
     1
 72
     2
 10
411.99719021326354
 20
61.351008399999763
 40
2.1277872000000109
 50
150.0
 51
210.0
 73
     1
 72
     2
 10
411.32711102451907
 20
60.964137999999757
 40
1.3540464000000108
 50
210.0
 51
270.0
 73
     1
 72
     1
 10
411.32711102451947
 20
59.610091599999748
 11
411.32711102451947
 21
58.836350799999678
 97
        0
 75
     0
 76
     1
 98
        1
 10
0.0
 20
0.0
  0
HATCH
  5
30E
100
AcDbEntity
  8
LAY-1
  6
CONTINUOUS
 62
     3
100
AcDbHatch
 10
0.0
 20
0.0
 30
0.0
210
0.0
220
0.0
230
1.0
  2
SOLID
 70
     1
 71
     1
 91
        1
 92
        1
 93
        4
 72
     1
 10
408.32886542451905
 20
60.480549999999759
 11
407.55512462451907
 21
60.480549999999759
 72
     1
 10
407.55512462451907
 20
60.480549999999759
 11
407.55512462451907
 21
61.254290799999758
 72
     1
 10
407.55512462451907
 20
61.254290799999758
 11
408.32886542451905
 21
61.254290799999758
 72
     1
 10
408.32886542451905
 20
61.254290799999758
 11
408.32886542451905
 21
60.48054999999971
 97
        0
 75
     0
 76
     1
 98
        1
 10
0.0
 20
0.0
  0
HATCH
  5
30F
100
AcDbEntity
  8
LAY-1
  6
CONTINUOUS
 62
     3
100
AcDbHatch
 10
0.0
 20
0.0
 30
0.0
210
0.0
220
0.0
230
1.0
  2
SOLID
 70
     1
 71
     1
 91
        1
 92
        1
 93
       16
 72
     1
 10
404.65359662451903
 20
62.995207599999766
 11
403.58970302451905
 21
62.995207599999766
 72
     1
 10
403.58970302451905
 20
62.995207599999766
 11
403.39626782451904
 21
61.931313999999766
 72
     1
 10
403.39626782451904
 20
61.931313999999766
 11
402.81596222451907
 21
61.931313999999766
 72
     1
 10
402.81596222451907
 20
61.931313999999766
 11
402.81596222451907
 21
63.768948399999772
 72
     1
 10
402.81596222451907
 20
63.768948399999772
 11
407.26497182451908
 21
63.768948399999772
 72
     1
 10
407.26497182451908
 20
63.768948399999772
 11
407.26497182451908
 21
61.931313999999766
 72
     1
 10
407.26497182451908
 20
61.931313999999766
 11
406.68466622451911
 21
61.931313999999766
 72
     1
 10
406.68466622451911
 20
61.931313999999766
 11
406.49123102451904
 21
62.995207599999766
 72
     1
 10
406.49123102451904
 20
62.995207599999766
 11
405.42733742451901
 21
62.995207599999766
 72
     1
 10
405.42733742451901
 20
62.995207599999766
 11
405.42733742451907
 21
59.706809199999753
 72
     1
 10
405.42733742451907
 20
59.706809199999753
 11
406.20107822451905
 21
59.513373999999757
 72
     1
 10
406.20107822451905
 20
59.513373999999757
 11
406.20107822451905
 21
58.933068399999748
 72
     1
 10
406.20107822451905
 20
58.933068399999748
 11
403.87985582451904
 21
58.933068399999748
 72
     1
 10
403.87985582451904
 20
58.933068399999748
 11
403.87985582451904
 21
59.513373999999757
 72
     1
 10
403.87985582451904
 20
59.513373999999757
 11
404.65359662451903
 21
59.706809199999753
 72
     1
 10
404.65359662451903
 20
59.706809199999753
 11
404.65359662451903
 21
62.995207599999766
 97
        0
 75
     0
 76
     1
 98
        1
 10
0.0
 20
0.0
  0
HATCH
  5
310
100
AcDbEntity
  8
LAY-1
  6
CONTINUOUS
 62
     3
100
AcDbHatch
 10
0.0
 20
0.0
 30
0.0
210
0.0
220
0.0
230
1.0
  2
SOLID
 70
     1
 71
     1
 91
        1
 92
        1
 93
        4
 72
     1
 10
401.75206862451904
 20
60.480549999999759
 11
401.7520686245191
 21
61.254290799999808
 72
     1
 10
401.7520686245191
 20
61.254290799999808
 11
402.52580942451903
 21
61.254290799999758
 72
     1
 10
402.52580942451903
 20
61.254290799999758
 11
402.52580942451903
 21
60.480549999999759
 72
     1
 10
402.52580942451903
 20
60.480549999999759
 11
401.7520686245191
 21
60.480549999999759
 97
        0
 75
     0
 76
     1
 98
        1
 10
0.0
 20
0.0
  0
HATCH
  5
311
100
AcDbEntity
  8
LAY-1
  6
CONTINUOUS
 62
     3
100
AcDbHatch
 10
0.0
 20
0.0
 30
0.0
210
0.0
220
0.0
230
1.0
  2
SOLID
 70
     1
 71
     1
 91
        1
 92
        1
 93
       12
 72
     1
 10
400.88161022451902
 20
63.768948399999772
 11
400.88161022451902
 21
63.188642799999769
 72
     1
 10
400.88161022451902
 20
63.188642799999769
 11
400.10786942451909
 21
62.995207599999766
 72
     1
 10
400.10786942451909
 20
62.995207599999766
 11
400.10786942451909
 21
59.706809199999753
 72
     1
 10
400.10786942451909
 20
59.706809199999753
 11
400.88161022451902
 21
59.513373999999757
 72
     1
 10
400.88161022451902
 20
59.513373999999757
 11
400.88161022451902
 21
58.933068399999748
 72
     1
 10
400.88161022451902
 20
58.933068399999748
 11
398.56038782451901
 21
58.933068399999748
 72
     1
 10
398.56038782451901
 20
58.933068399999748
 11
398.56038782451901
 21
59.513373999999757
 72
     1
 10
398.56038782451901
 20
59.513373999999757
 11
399.33412862451905
 21
59.706809199999753
 72
     1
 10
399.33412862451905
 20
59.706809199999753
 11
399.33412862451905
 21
62.995207599999766
 72
     1
 10
399.33412862451905
 20
62.995207599999766
 11
398.56038782451901
 21
63.188642799999769
 72
     1
 10
398.56038782451901
 20
63.188642799999769
 11
398.56038782451901
 21
63.768948399999772
 72
     1
 10
398.56038782451901
 20
63.768948399999772
 11
400.88161022451902
 21
63.768948399999772
 97
        0
 75
     0
 76
     1
 98
        1
 10
0.0
 20
0.0
  0
HATCH
  5
312
100
AcDbEntity
  8
LAY-1
  6
CONTINUOUS
 62
     3
100
AcDbHatch
 10
0.0
 20
0.0
 30
0.0
210
0.0
220
0.0
230
1.0
  2
SOLID
 70
     1
 71
     1
 91
        1
 92
        1
 93
       15
 72
     2
 10
393.2966078747512
 20
61.351008399999863
 40
2.1473454545454578
 50
124.301153
 51
180.0
 73
     0
 72
     1
 10
391.14926242020579
 20
61.351008399999991
 11
391.95953603145352
 21
61.351008399999991
 72
     2
 10
394.04884512236265
 20
61.351008399999884
 40
2.0893090909090972
 50
180.0
 51
199.464384
 73
     1
 72
     2
 10
392.04513195797546
 20
61.58277316510415
 40
0.9285818181818405
 50
272.086657
 51
294.619977
 73
     1
 72
     2
 10
392.31108798739905
 20
61.002409528740493
 40
0.2901818181818199
 50
294.619977
 51
0.0
 73
     1
 72
     1
 10
392.6012698055809
 20
61.002409528740493
 11
392.6012698055809
 21
61.351008399999991
 72
     1
 10
392.6012698055809
 20
61.351008399999991
 11
393.29770616921724
 21
61.351008399999991
 72
     1
 10
393.29770616921724
 20
61.351008399999991
 11
393.29770616921724
 21
61.001793786492613
 72
     2
 10
393.58788798739909
 20
61.001793786492613
 40
0.2901818181818079
 50
180.0
 51
245.380023
 73
     1
 72
     2
 10
393.85384401682268
 20
61.582157422856369
 40
0.9285818181819425
 50
245.380023
 51
267.913343
 73
     1
 72
     1
 10
393.82003344194459
 20
60.654191346922289
 11
393.82003344194459
 21
60.480082256013219
 72
     1
 10
393.82003344194459
 20
60.480082256013219
 11
392.14971370798509
 21
60.480082256013205
 72
     2
 10
394.04884512236271
 20
61.351008399999884
 40
2.0893090909090941
 50
204.635803
 51
268.19864
 73
     1
 72
     1
 10
393.98316877978334
 20
59.262731815018668
 11
393.98316877978334
 21
58.972136896480492
 72
     2
 10
394.04884512236265
 20
62.453699309090894
 40
3.4821818181818336
 50
91.080702
 51
124.301153
 73
     0
 97
        0
 75
     0
 76
     1
 98
        1
 10
0.0
 20
0.0
  0
HATCH
  5
313
100
AcDbEntity
  8
LAY-1
  6
CONTINUOUS
 62
     3
100
AcDbHatch
 10
0.0
 20
0.0
 30
0.0
210
0.0
220
0.0
230
1.0
  2
SOLID
 70
     1
 71
     1
 91
        1
 92
        1
 93
       24
 72
     2
 10
393.64588216590369
 20
61.641190218181698
 40
0.2901818181818224
 50
90.0
 51
157.380135
 73
     1
 72
     2
 10
394.34231852954002
 20
61.351008399999905
 40
1.0446545454545502
 50
157.380135
 51
180.0
 73
     1
 72
     1
 10
393.29766398408549
 20
61.351008399999991
 11
392.6012698055809
 21
61.351008399999991
 72
     1
 10
392.6012698055809
 20
61.351008399999991
 11
392.6012698055809
 21
62.857573426674676
 72
     2
 10
394.04884512236265
 20
61.351008399999884
 40
2.0893090909090972
 50
133.856042
 51
180.0
 73
     1
 72
     1
 10
391.95953603145352
 20
61.351008399999991
 11
391.14926242020579
 21
61.351008399999991
 72
     2
 10
393.2966078747512
 20
61.351008399999863
 40
2.1473454545454578
 50
180.0
 51
235.698847
 73
     0
 72
     2
 10
394.04884512236271
 20
60.248317490908846
 40
3.4821818181818411
 50
235.698847
 51
245.436008
 73
     0
 72
     1
 10
392.6012698055809
 20
63.415353315954135
 11
392.6012698055809
 21
63.730734361897461
 72
     2
 10
392.31108798739905
 20
63.730734361897461
 40
0.2901818181818182
 50
0.0
 51
65.380023
 73
     1
 72
     2
 10
392.04513195797546
 20
63.150370725533818
 40
0.9285818181818195
 50
65.380023
 51
87.913343
 73
     1
 72
     1
 10
392.0789425328536
 20
64.078336801467785
 11
392.0789425328536
 21
64.252445892376855
 72
     1
 10
392.0789425328536
 20
64.252445892376855
 11
393.82003344194459
 21
64.252445892376855
 72
     1
 10
393.82003344194459
 20
64.252445892376855
 11
393.82003344194459
 21
64.078336801467785
 72
     2
 10
393.85384401682268
 20
63.150370725533818
 40
0.9285818181818237
 50
92.086657
 51
114.619977
 73
     1
 72
     2
 10
393.58788798739914
 20
63.730734361897476
 40
0.2901818181818224
 50
114.619977
 51
180.0
 73
     1
 72
     1
 10
393.29770616921729
 20
63.730734361897461
 11
393.29770616921729
 21
63.648520497781206
 72
     2
 10
394.04884512236265
 20
60.248317490908846
 40
3.4821818181818323
 50
257.542857
 51
268.919298
 73
     0
 72
     1
 10
393.98316877978334
 20
63.72987990351924
 11
393.98316877978334
 21
63.4392849849811
 72
     2
 10
394.04884512236271
 20
61.351008399999884
 40
2.0893090909090972
 50
91.80136
 51
111.070443
 73
     1
 72
     1
 10
393.29770616921724
 20
63.300624452052936
 11
393.29770616921724
 21
62.221553854545334
 72
     1
 10
393.29770616921724
 20
62.221553854545334
 11
393.9831687797834
 21
62.221553854545334
 72
     1
 10
393.9831687797834
 20
62.221553854545334
 11
393.98316877978334
 21
61.931372036363506
 72
     1
 10
393.98316877978334
 20
61.931372036363506
 11
393.64588216590369
 21
61.931372036363506
 97
        0
 75
     0
 76
     1
 98
        1
 10
0.0
 20
0.0
  0
HATCH
  5
314
100
AcDbEntity
  8
LAY-1
  6
CONTINUOUS
 62
     3
100
AcDbHatch
 10
0.0
 20
0.0
 30
0.0
210
0.0
220
0.0
230
1.0
  2
SOLID
 70
     1
 71
     1
 91
        1
 92
        1
 93
       14
 72
     2
 10
394.04884512236265
 20
61.351008399999884
 40
2.0893090909091012
 50
0.0
 51
9.281799
 73
     1
 72
     2
 10
395.82441642644136
 20
61.641190218181698
 40
0.2901818181818164
 50
9.281799
 51
90.0
 73
     1
 72
     1
 10
395.82441642644136
 20
61.931372036363506
 11
395.20957239508994
 21
61.931372036363506
 72
     1
 10
395.20957239508994
 20
61.931372036363506
 11
395.20957239508994
 21
61.351008399999991
 72
     1
 10
395.20957239508994
 20
61.351008399999991
 11
394.51313603145354
 21
61.351008399999991
 72
     1
 10
394.51313603145354
 20
61.351008399999991
 11
394.51313603145354
 21
61.931372036363506
 72
     1
 10
394.51313603145354
 20
61.931372036363506
 11
393.98316877978334
 21
61.931372036363506
 72
     1
 10
393.98316877978334
 20
61.931372036363506
 11
393.98316877978334
 21
62.221553854545334
 72
     1
 10
393.98316877978334
 20
62.221553854545334
 11
395.94815107163089
 21
62.221553854545313
 72
     2
 10
394.04884512236271
 20
61.351008399999884
 40
2.0893090909090972
 50
24.624318
 51
91.80136
 73
     1
 72
     1
 10
393.98316877978334
 20
63.4392849849811
 11
393.98316877978334
 21
63.72987990351924
 72
     2
 10
394.04884512236265
 20
60.248317490908846
 40
3.4821818181818323
 50
268.919298
 51
304.301153
 73
     0
 72
     2
 10
394.80108236997404
 20
61.351008399999863
 40
2.1473454545454596
 50
304.301153
 51
0.0
 73
     0
 72
     1
 10
396.94842782451951
 20
61.351008399999991
 11
396.13815421327172
 21
61.351008399999991
 97
        0
 75
     0
 76
     1
 98
        1
 10
0.0
 20
0.0
  0
HATCH
  5
315
100
AcDbEntity
  8
LAY-1
  6
CONTINUOUS
 62
     3
100
AcDbHatch
 10
0.0
 20
0.0
 30
0.0
210
0.0
220
0.0
230
1.0
  2
SOLID
 70
     1
 71
     1
 91
        1
 92
        1
 93
       19
 72
     2
 10
394.04884512236265
 20
61.351008399999884
 40
2.0893090909091012
 50
303.748989
 51
0.0
 73
     1
 72
     1
 10
396.13815421327172
 20
61.351008399999991
 11
396.94842782451951
 21
61.351008399999991
 72
     2
 10
394.80108236997404
 20
61.351008399999863
 40
2.1473454545454596
 50
0.0
 51
55.698847
 73
     0
 72
     2
 10
394.04884512236271
 20
62.453699309090901
 40
3.4821818181818389
 50
55.698847
 51
70.528779
 73
     0
 72
     1
 10
395.20957239508994
 20
59.170666806476383
 11
395.20957239508994
 21
58.970901748661085
 72
     2
 10
395.49975421327173
 20
58.970901748661085
 40
0.2901818181818199
 50
180.0
 51
245.380023
 73
     1
 72
     2
 10
395.76571024269532
 20
59.551265385024728
 40
0.928581818181822
 50
245.380023
 51
267.913343
 73
     1
 72
     1
 10
395.73189966781723
 20
58.623299309090768
 11
395.73189966781723
 21
58.449190218181677
 72
     1
 10
395.73189966781723
 20
58.449190218181677
 11
393.9908087587263
 21
58.449190218181677
 72
     1
 10
393.9908087587263
 20
58.449190218181677
 11
393.9908087587263
 21
58.623299309090768
 72
     2
 10
393.9569981838481
 20
59.551265385024728
 40
0.928581818181822
 50
272.086657
 51
294.619977
 73
     1
 72
     2
 10
394.22295421327169
 20
58.970901748661085
 40
0.2901818181818199
 50
294.619977
 51
0.0
 73
     1
 72
     1
 10
394.51313603145354
 20
58.970901748661085
 11
394.51313603145354
 21
59.002609022440645
 72
     2
 10
394.04884512236265
 20
62.453699309090894
 40
3.4821818181818336
 50
82.337744
 51
91.080702
 73
     0
 72
     1
 10
393.98316877978334
 20
58.972136896480492
 11
393.98316877978334
 21
59.262731815018668
 72
     2
 10
394.04884512236271
 20
61.351008399999884
 40
2.0893090909090941
 50
268.19864
 51
282.839588
 73
     1
 72
     1
 10
394.51313603145354
 20
59.313940303668552
 11
394.51313603145354
 21
61.351008399999991
 72
     1
 10
394.51313603145354
 20
61.351008399999991
 11
395.20957239508994
 21
61.351008399999991
 72
     1
 10
395.20957239508994
 20
61.351008399999991
 11
395.20957239508994
 21
59.613790890387882
 97
        0
 75
     0
 76
     1
 98
        1
 10
0.0
 20
0.0
  0
TEXT
  5
316
100
AcDbEntity
  8
LAY-1
  6
CONTINUOUS
 62
     3
100
AcDbText
 10
381.977901
 20
80.727616
 30
0.0
 40
5.656
  1
ＰＳ－０５Ｋ
 41
0.84
  7
EXCADSTD
 72
     5
 11
415.913902
 21
80.727616
 31
0.0
100
AcDbText
  0
TEXT
  5
317
100
AcDbEntity
  8
LAY-1
  6
CONTINUOUS
 62
     3
100
AcDbText
 10
381.968851
 20
72.836365
 30
0.0
 40
5.656
  1
発信機能付シグナル
 41
0.84
  7
EXCADSTD
 72
     5
 11
432.872852
 21
72.836365
 31
0.0
100
AcDbText
  0
LINE
  5
318
100
AcDbEntity
  8
LAY-1
  6
EXLTYPE3
 62
     1
100
AcDbLine
 10
241.0558
 20
40.708083
 30
0.0
 11
268.726969
 21
40.708083
 31
0.0
  0
LINE
  5
319
100
AcDbEntity
  8
LAY-1
  6
CONTINUOUS
 62
     2
100
AcDbLine
 10
280.2224
 20
112.231443
 30
0.0
 11
280.750444
 21
102.155747
 31
0.0
  0
ARC
  5
31A
100
AcDbEntity
  8
LAY-1
  6
CONTINUOUS
 62
     2
100
AcDbCircle
 10
282.89364
 20
77.208083
 30
0.0
 40
1.0
100
AcDbArc
 50
270.0
 51
3.0
  0
LINE
  5
31B
100
AcDbEntity
  8
LAY-1
  6
CONTINUOUS
 62
     2
100
AcDbLine
 10
222.874745
 20
88.365091
 30
0.0
 11
223.150498
 21
83.103411
 31
0.0
  0
ARC
  5
31C
100
AcDbEntity
  8
LAY-1
  6
CONTINUOUS
 62
     2
100
AcDbCircle
 10
225.147757
 20
83.208083
 30
0.0
 40
2.0
100
AcDbArc
 50
183.0
 51
270.0
  0
ARC
  5
31D
100
AcDbEntity
  8
LAY-1
  6
CONTINUOUS
 62
     2
100
AcDbCircle
 10
219.878856
 20
88.208083
 30
0.0
 40
3.0
100
AcDbArc
 50
3.0
 51
90.0
  0
LINE
  5
31E
100
AcDbEntity
  8
LAY-1
  6
CONTINUOUS
 62
     2
100
AcDbLine
 10
225.147757
 20
81.208083
 30
0.0
 11
225.929892
 21
81.208083
 31
0.0
  0
ARC
  5
31F
100
AcDbEntity
  8
LAY-1
  6
CONTINUOUS
 62
     2
100
AcDbCircle
 10
241.215395
 20
111.708083
 30
0.0
 40
10.0
100
AcDbArc
 50
90.0
 51
177.0
  0
ARC
  5
320
100
AcDbEntity
  8
LAY-1
  6
CONTINUOUS
 62
     2
100
AcDbCircle
 10
229.613239
 20
98.208083
 30
0.0
 40
3.0
100
AcDbArc
 50
90.0
 51
177.0
  0
ARC
  5
321
100
AcDbEntity
  8
LAY-1
  6
CONTINUOUS
 62
     2
100
AcDbCircle
 10
229.702426
 20
102.208083
 30
0.0
 40
1.0
100
AcDbArc
 50
270.0
 51
357.0
  0
ARC
  5
322
100
AcDbEntity
  8
LAY-1
  6
CONTINUOUS
 62
     2
100
AcDbCircle
 10
281.749074
 20
102.208083
 30
0.0
 40
1.0
100
AcDbArc
 50
183.0
 51
270.0
  0
ARC
  5
323
100
AcDbEntity
  8
LAY-1
  6
CONTINUOUS
 62
     2
100
AcDbCircle
 10
281.838261
 20
98.208083
 30
0.0
 40
3.0
100
AcDbArc
 50
3.0
 51
90.0
  0
ARC
  5
324
100
AcDbEntity
  8
LAY-1
  6
CONTINUOUS
 62
     2
100
AcDbCircle
 10
270.236104
 20
111.708083
 30
0.0
 40
10.0
100
AcDbArc
 50
3.0
 51
90.0
  0
LINE
  5
325
100
AcDbEntity
  8
LAY-1
  6
CONTINUOUS
 62
     2
100
AcDbLine
 10
210.896775
 20
91.208083
 30
0.0
 11
219.878856
 21
91.208083
 31
0.0
  0
LINE
  5
326
100
AcDbEntity
  8
LAY-1
  6
CONTINUOUS
 62
     2
100
AcDbLine
 10
285.628495
 20
83.208083
 30
0.0
 11
284.834149
 21
98.365091
 31
0.0
  0
LINE
  5
327
100
AcDbEntity
  8
LAY-1
  6
CONTINUOUS
 62
     2
100
AcDbLine
 10
270.236104
 20
121.708083
 30
0.0
 11
255.72575
 21
121.708083
 31
0.0
  0
LINE
  5
328
100
AcDbEntity
  8
LAY-1
  6
CONTINUOUS
 62
     2
100
AcDbLine
 10
241.215395
 20
121.708083
 30
0.0
 11
255.72575
 21
121.708083
 31
0.0
  0
LINE
  5
329
100
AcDbEntity
  8
LAY-1
  6
CONTINUOUS
 62
     2
100
AcDbLine
 10
231.2291
 20
112.231443
 30
0.0
 11
230.701055
 21
102.155747
 31
0.0
  0
LINE
  5
32A
100
AcDbEntity
  8
LAY-1
  6
CONTINUOUS
 62
     2
100
AcDbLine
 10
225.823005
 20
83.208083
 30
0.0
 11
226.61735
 21
98.365091
 31
0.0
  0
ARC
  5
32B
100
AcDbEntity
  8
LAY-1
  6
CONTINUOUS
 62
     2
100
AcDbCircle
 10
225.929892
 20
83.208083
 30
0.0
 40
2.0
100
AcDbArc
 50
270.0
 51
357.0
  0
LINE
  5
32C
100
AcDbEntity
  8
LAY-1
  6
CONTINUOUS
 62
     2
100
AcDbLine
 10
207.318915
 20
77.260419
 30
0.0
 11
207.900886
 21
88.365091
 31
0.0
  0
ARC
  5
32D
100
AcDbEntity
  8
LAY-1
  6
CONTINUOUS
 62
     2
100
AcDbCircle
 10
210.896775
 20
88.208083
 30
0.0
 40
3.0
100
AcDbArc
 50
90.0
 51
177.0
  0
ARC
  5
32E
100
AcDbEntity
  8
LAY-1
  6
CONTINUOUS
 62
     2
100
AcDbCircle
 10
208.317544
 20
77.208083
 30
0.0
 40
1.0
100
AcDbArc
 50
177.0
 51
270.0
  0
LINE
  5
32F
100
AcDbEntity
  8
LAY-1
  6
CONTINUOUS
 62
     2
100
AcDbLine
 10
255.72575
 20
83.208083
 30
0.0
 11
225.823005
 21
83.208083
 31
0.0
  0
LINE
  5
330
100
AcDbEntity
  8
LAY-1
  6
CONTINUOUS
 62
     2
100
AcDbLine
 10
255.72575
 20
83.208083
 30
0.0
 11
285.628495
 21
83.208083
 31
0.0
  0
LINE
  5
331
100
AcDbEntity
  8
LAY-1
  6
CONTINUOUS
 62
     2
100
AcDbLine
 10
208.317544
 20
76.208083
 30
0.0
 11
255.72575
 21
76.208083
 31
0.0
  0
LINE
  5
332
100
AcDbEntity
  8
LAY-1
  6
CONTINUOUS
 62
     2
100
AcDbLine
 10
255.72575
 20
76.208083
 30
0.0
 11
282.89364
 21
76.208083
 31
0.0
  0
LINE
  5
333
100
AcDbEntity
  8
LAY-1
  6
CONTINUOUS
 62
     2
100
AcDbLine
 10
283.580565
 20
83.208083
 30
0.0
 11
283.892269
 21
77.260419
 31
0.0
  0
LINE
  5
334
100
AcDbEntity
  8
LAY-1
  6
CONTINUOUS
 62
     2
100
AcDbLine
 10
289.22575
 20
53.708083
 30
0.0
 11
289.22575
 21
59.208083
 31
0.0
  0
ARC
  5
335
100
AcDbEntity
  8
LAY-1
  6
CONTINUOUS
 62
     2
100
AcDbCircle
 10
288.72575
 20
59.208083
 30
0.0
 40
0.5
100
AcDbArc
 50
0.0
 51
90.0
  0
LINE
  5
336
100
AcDbEntity
  8
LAY-1
  6
CONTINUOUS
 62
     2
100
AcDbLine
 10
289.22575
 20
53.708083
 30
0.0
 11
222.22575
 21
53.708083
 31
0.0
  0
ARC
  5
337
100
AcDbEntity
  8
LAY-1
  6
CONTINUOUS
 62
     2
100
AcDbCircle
 10
222.72575
 20
59.208083
 30
0.0
 40
0.5
100
AcDbArc
 50
90.0
 51
180.0
  0
LINE
  5
338
100
AcDbEntity
  8
LAY-1
  6
CONTINUOUS
 62
     2
100
AcDbLine
 10
222.22575
 20
53.708083
 30
0.0
 11
222.22575
 21
59.208083
 31
0.0
  0
LINE
  5
339
100
AcDbEntity
  8
LAY-1
  6
CONTINUOUS
 62
     2
100
AcDbLine
 10
288.72575
 20
59.708083
 30
0.0
 11
222.72575
 21
59.708083
 31
0.0
  0
CIRCLE
  5
33A
100
AcDbEntity
  8
LAY-1
  6
CONTINUOUS
 62
     1
100
AcDbCircle
 10
255.72575
 20
40.708083
 30
0.0
 40
6.75
  0
LINE
  5
33B
100
AcDbEntity
  8
LAY-1
  6
EXLTYPE3
 62
     1
100
AcDbLine
 10
255.72575
 20
6.802936
 30
0.0
 11
255.72575
 21
132.705488
 31
0.0
  0
LINE
  5
33C
100
AcDbEntity
  8
LAY-1
  6
EXLTYPE3
 62
     1
100
AcDbLine
 10
268.354329
 20
101.708083
 30
0.0
 11
240.654329
 21
101.708083
 31
0.0
  0
ARC
  5
33D
100
AcDbEntity
  8
LAY-1
  6
CONTINUOUS
 62
     2
100
AcDbCircle
 10
281.157127
 20
32.208083
 30
0.0
 40
2.0
100
AcDbArc
 50
182.0
 51
270.0
  0
LINE
  5
33E
100
AcDbEntity
  8
LAY-1
  6
CONTINUOUS
 62
     2
100
AcDbLine
 10
279.158346
 20
32.138284
 30
0.0
 11
278.73564
 21
44.242983
 31
0.0
  0
ARC
  5
33F
100
AcDbEntity
  8
LAY-1
  6
CONTINUOUS
 62
     2
100
AcDbCircle
 10
277.73625
 20
44.208083
 30
0.0
 40
1.0
100
AcDbArc
 50
2.0
 51
90.0
  0
ARC
  5
340
100
AcDbEntity
  8
LAY-1
  6
CONTINUOUS
 62
     2
100
AcDbCircle
 10
226.018594
 20
45.708083
 30
0.0
 40
2.0
100
AcDbArc
 50
43.432537
 51
90.0
  0
ARC
  5
341
100
AcDbEntity
  8
LAY-1
  6
CONTINUOUS
 62
     2
100
AcDbCircle
 10
285.432905
 20
45.708083
 30
0.0
 40
2.0
100
AcDbArc
 50
90.0
 51
136.567463
  0
ARC
  5
342
100
AcDbEntity
  8
LAY-1
  6
CONTINUOUS
 62
     2
100
AcDbCircle
 10
247.657127
 20
14.708083
 30
0.0
 40
2.0
100
AcDbArc
 50
182.0
 51
270.0
  0
LINE
  5
343
100
AcDbEntity
  8
LAY-1
  6
CONTINUOUS
 62
     2
100
AcDbLine
 10
287.18575
 20
47.708083
 30
0.0
 11
268.901573
 21
47.708083
 31
0.0
  0
ARC
  5
344
100
AcDbEntity
  8
LAY-1
  6
CONTINUOUS
 62
     2
100
AcDbCircle
 10
279.62343
 20
51.208083
 30
0.0
 40
6.0
100
AcDbArc
 50
270.0
 51
316.567463
  0
ARC
  5
345
100
AcDbEntity
  8
LAY-1
  6
CONTINUOUS
 62
     2
100
AcDbCircle
 10
251.997828
 20
31.708083
 30
0.0
 40
2.0
100
AcDbArc
 50
225.0
 51
270.0
  0
ARC
  5
346
100
AcDbEntity
  8
LAY-1
  6
CONTINUOUS
 62
     2
100
AcDbCircle
 10
246.861905
 20
36.844005
 30
0.0
 40
2.0
100
AcDbArc
 50
182.0
 51
225.0
  0
LINE
  5
347
100
AcDbEntity
  8
LAY-1
  6
CONTINUOUS
 62
     2
100
AcDbLine
 10
279.62343
 20
45.208083
 30
0.0
 11
268.814271
 21
45.208083
 31
0.0
  0
LINE
  5
348
100
AcDbEntity
  8
LAY-1
  6
CONTINUOUS
 62
     2
100
AcDbLine
 10
251.997828
 20
29.708083
 30
0.0
 11
255.72575
 21
29.708083
 31
0.0
  0
LINE
  5
349
100
AcDbEntity
  8
LAY-1
  6
CONTINUOUS
 62
     2
100
AcDbLine
 10
245.447692
 20
35.429792
 30
0.0
 11
250.583614
 21
30.29387
 31
0.0
  0
ARC
  5
34A
100
AcDbEntity
  8
LAY-1
  6
CONTINUOUS
 62
     2
100
AcDbCircle
 10
236.26771
 20
44.208083
 30
0.0
 40
1.0
100
AcDbArc
 50
9.594068
 51
90.0
  0
ARC
  5
34B
100
AcDbEntity
  8
LAY-1
  6
CONTINUOUS
 62
     2
100
AcDbCircle
 10
275.18379
 20
44.208083
 30
0.0
 40
1.0
100
AcDbArc
 50
90.0
 51
170.405932
  0
LINE
  5
34C
100
AcDbEntity
  8
LAY-1
  6
CONTINUOUS
 62
     2
100
AcDbLine
 10
267.18014
 20
53.720117
 30
0.0
 11
266.588376
 21
36.774206
 31
0.0
  0
LINE
  5
34D
100
AcDbEntity
  8
LAY-1
  6
CONTINUOUS
 62
     2
100
AcDbLine
 10
239.22575
 20
42.708083
 30
0.0
 11
242.724531
 21
42.708083
 31
0.0
  0
ARC
  5
34E
100
AcDbEntity
  8
LAY-1
  6
CONTINUOUS
 62
     2
100
AcDbCircle
 10
268.726969
 20
40.708083
 30
0.0
 40
2.0
100
AcDbArc
 50
90.0
 51
178.0
  0
LINE
  5
34F
100
AcDbEntity
  8
LAY-1
  6
CONTINUOUS
 62
     2
100
AcDbLine
 10
272.22575
 20
42.708083
 30
0.0
 11
268.726969
 21
42.708083
 31
0.0
  0
ARC
  5
350
100
AcDbEntity
  8
LAY-1
  6
CONTINUOUS
 62
     2
100
AcDbCircle
 10
242.724531
 20
40.708083
 30
0.0
 40
2.0
100
AcDbArc
 50
2.0
 51
90.0
  0
ARC
  5
351
100
AcDbEntity
  8
LAY-1
  6
CONTINUOUS
 62
     2
100
AcDbCircle
 10
272.22575
 20
44.708083
 30
0.0
 40
2.0
100
AcDbArc
 50
270.0
 51
350.405932
  0
LINE
  5
352
100
AcDbEntity
  8
LAY-1
  6
CONTINUOUS
 62
     2
100
AcDbLine
 10
244.271564
 20
53.714276
 30
0.0
 11
244.863124
 21
36.774206
 31
0.0
  0
ARC
  5
353
100
AcDbEntity
  8
LAY-1
  6
CONTINUOUS
 62
     2
100
AcDbCircle
 10
239.22575
 20
44.708083
 30
0.0
 40
2.0
100
AcDbArc
 50
189.594068
 51
270.0
  0
LINE
  5
354
100
AcDbEntity
  8
LAY-1
  6
CONTINUOUS
 62
     2
100
AcDbLine
 10
231.828069
 20
45.208083
 30
0.0
 11
242.637229
 21
45.208083
 31
0.0
  0
ARC
  5
355
100
AcDbEntity
  8
LAY-1
  6
CONTINUOUS
 62
     2
100
AcDbCircle
 10
231.828069
 20
51.208083
 30
0.0
 40
6.0
100
AcDbArc
 50
223.432537
 51
270.0
  0
LINE
  5
356
100
AcDbEntity
  8
LAY-1
  6
CONTINUOUS
 62
     2
100
AcDbLine
 10
222.22575
 20
47.708083
 30
0.0
 11
242.549927
 21
47.708083
 31
0.0
  0
LINE
  5
357
100
AcDbEntity
  8
LAY-1
  6
CONTINUOUS
 62
     2
100
AcDbLine
 10
222.22575
 20
53.708083
 30
0.0
 11
222.22575
 21
47.708083
 31
0.0
  0
LINE
  5
358
100
AcDbEntity
  8
LAY-1
  6
CONTINUOUS
 62
     2
100
AcDbLine
 10
266.003808
 20
35.429792
 30
0.0
 11
260.867885
 21
30.29387
 31
0.0
  0
LINE
  5
359
100
AcDbEntity
  8
LAY-1
  6
CONTINUOUS
 62
     2
100
AcDbLine
 10
259.453672
 20
29.708083
 30
0.0
 11
255.72575
 21
29.708083
 31
0.0
  0
ARC
  5
35A
100
AcDbEntity
  8
LAY-1
  6
CONTINUOUS
 62
     2
100
AcDbCircle
 10
264.589594
 20
36.844005
 30
0.0
 40
2.0
100
AcDbArc
 50
315.0
 51
358.0
  0
ARC
  5
35B
100
AcDbEntity
  8
LAY-1
  6
CONTINUOUS
 62
     2
100
AcDbCircle
 10
259.453672
 20
31.708083
 30
0.0
 40
2.0
100
AcDbArc
 50
270.0
 51
315.0
  0
ARC
  5
35C
100
AcDbEntity
  8
LAY-1
  6
CONTINUOUS
 62
     2
100
AcDbCircle
 10
263.794372
 20
14.708083
 30
0.0
 40
2.0
100
AcDbArc
 50
270.0
 51
358.0
  0
LINE
  5
35D
100
AcDbEntity
  8
LAY-1
  6
CONTINUOUS
 62
     2
100
AcDbLine
 10
281.157127
 20
30.208083
 30
0.0
 11
289.22575
 21
30.208083
 31
0.0
  0
LINE
  5
35E
100
AcDbEntity
  8
LAY-1
  6
CONTINUOUS
 62
     2
100
AcDbLine
 10
289.22575
 20
53.708083
 30
0.0
 11
289.22575
 21
30.208083
 31
0.0
  0
LINE
  5
35F
100
AcDbEntity
  8
LAY-1
  6
CONTINUOUS
 62
     2
100
AcDbLine
 10
287.18575
 20
47.708083
 30
0.0
 11
287.18575
 21
53.708083
 31
0.0
  0
CIRCLE
  5
360
100
AcDbEntity
  8
LAY-1
  6
CONTINUOUS
 62
     2
100
AcDbCircle
 10
255.72575
 20
40.708083
 30
0.0
 40
1.0
  0
CIRCLE
  5
361
100
AcDbEntity
  8
LAY-1
  6
CONTINUOUS
 62
     2
100
AcDbCircle
 10
255.72575
 20
40.708083
 30
0.0
 40
5.6
  0
ARC
  5
362
100
AcDbEntity
  8
LAY-1
  6
CONTINUOUS
 62
     2
100
AcDbCircle
 10
242.549927
 20
45.708083
 30
0.0
 40
2.0
100
AcDbArc
 50
2.0
 51
90.0
  0
ARC
  5
363
100
AcDbEntity
  8
LAY-1
  6
CONTINUOUS
 62
     2
100
AcDbCircle
 10
268.901573
 20
45.708083
 30
0.0
 40
2.0
100
AcDbArc
 50
90.0
 51
178.0
  0
ARC
  5
364
100
AcDbEntity
  8
LAY-1
  6
CONTINUOUS
 62
     2
100
AcDbCircle
 10
242.637229
 20
43.208083
 30
0.0
 40
2.0
100
AcDbArc
 50
2.0
 51
90.0
  0
ARC
  5
365
100
AcDbEntity
  8
LAY-1
  6
CONTINUOUS
 62
     2
100
AcDbCircle
 10
268.814271
 20
43.208083
 30
0.0
 40
2.0
100
AcDbArc
 50
90.0
 51
178.0
  0
LINE
  5
366
100
AcDbEntity
  8
LAY-1
  6
CONTINUOUS
 62
     2
100
AcDbLine
 10
245.658346
 20
14.638284
 30
0.0
 11
244.895687
 21
36.477964
 31
0.0
  0
LINE
  5
367
100
AcDbEntity
  8
LAY-1
  6
CONTINUOUS
 62
     2
100
AcDbLine
 10
247.657127
 20
12.708083
 30
0.0
 11
255.72575
 21
12.708083
 31
0.0
  0
LINE
  5
368
100
AcDbEntity
  8
LAY-1
  6
CONTINUOUS
 62
     2
100
AcDbLine
 10
264.237923
 20
12.708083
 30
0.0
 11
255.72575
 21
12.708083
 31
0.0
  0
LINE
  5
369
100
AcDbEntity
  8
LAY-1
  6
CONTINUOUS
 62
     2
100
AcDbLine
 10
265.783602
 20
14.364767
 30
0.0
 11
266.555812
 21
36.477964
 31
0.0
  0
ARC
  5
36A
100
AcDbEntity
  8
LAY-1
  6
CONTINUOUS
 62
     2
100
AcDbCircle
 10
283.838082
 20
61.708083
 30
0.0
 40
2.0
100
AcDbArc
 50
182.0
 51
270.0
  0
ARC
  5
36B
100
AcDbEntity
  8
LAY-1
  6
CONTINUOUS
 62
     2
100
AcDbCircle
 10
227.613417
 20
61.708083
 30
0.0
 40
2.0
100
AcDbArc
 50
270.0
 51
358.0
  0
LINE
  5
36C
100
AcDbEntity
  8
LAY-1
  6
CONTINUOUS
 62
     2
100
AcDbLine
 10
281.839301
 20
61.638284
 30
0.0
 11
281.330512
 21
76.208083
 31
0.0
  0
LINE
  5
36D
100
AcDbEntity
  8
LAY-1
  6
CONTINUOUS
 62
     2
100
AcDbLine
 10
229.612199
 20
61.638284
 30
0.0
 11
230.120988
 21
76.208083
 31
0.0
  0
ARC
  5
36E
100
AcDbEntity
  8
LAY-1
  6
CONTINUOUS
 62
     2
100
AcDbCircle
 10
255.72575
 20
101.708083
 30
0.0
 40
8.0
100
AcDbArc
 50
0.0
 51
180.0
  0
ARC
  5
36F
100
AcDbEntity
  8
LAY-1
  6
CONTINUOUS
 62
     2
100
AcDbCircle
 10
255.72575
 20
101.708083
 30
0.0
 40
10.0
100
AcDbArc
 50
0.0
 51
180.0
  0
LINE
  5
370
100
AcDbEntity
  8
LAY-1
  6
CONTINUOUS
 62
     2
100
AcDbLine
 10
244.756206
 20
83.208083
 30
0.0
 11
245.72575
 21
101.708083
 31
0.0
  0
LINE
  5
371
100
AcDbEntity
  8
LAY-1
  6
CONTINUOUS
 62
     2
100
AcDbLine
 10
247.72575
 20
101.708083
 30
0.0
 11
246.756206
 21
83.208083
 31
0.0
  0
LINE
  5
372
100
AcDbEntity
  8
LAY-1
  6
CONTINUOUS
 62
     2
100
AcDbLine
 10
264.695294
 20
83.208083
 30
0.0
 11
263.72575
 21
101.708083
 31
0.0
  0
LINE
  5
373
100
AcDbEntity
  8
LAY-1
  6
CONTINUOUS
 62
     2
100
AcDbLine
 10
265.72575
 20
101.708083
 30
0.0
 11
266.695294
 21
83.208083
 31
0.0
  0
LINE
  5
374
100
AcDbEntity
  8
LAY-1
  6
CONTINUOUS
 62
     2
100
AcDbLine
 10
264.328439
 20
90.208083
 30
0.0
 11
259.328439
 21
90.208083
 31
0.0
  0
LINE
  5
375
100
AcDbEntity
  8
LAY-1
  6
CONTINUOUS
 62
     2
100
AcDbLine
 10
252.12306
 20
90.208083
 30
0.0
 11
247.12306
 21
90.208083
 31
0.0
  0
LINE
  5
376
100
AcDbEntity
  8
LAY-1
  6
CONTINUOUS
 62
     2
100
AcDbLine
 10
252.72575
 20
101.708083
 30
0.0
 11
252.12306
 21
90.208083
 31
0.0
  0
LINE
  5
377
100
AcDbEntity
  8
LAY-1
  6
CONTINUOUS
 62
     2
100
AcDbLine
 10
259.328439
 20
90.208083
 30
0.0
 11
258.72575
 21
101.708083
 31
0.0
  0
ARC
  5
378
100
AcDbEntity
  8
LAY-1
  6
CONTINUOUS
 62
     2
100
AcDbCircle
 10
255.72575
 20
101.708083
 30
0.0
 40
3.0
100
AcDbArc
 50
0.0
 51
180.0
  0
LINE
  5
379
100
AcDbEntity
  8
LAY-1
  6
CONTINUOUS
 62
     2
100
AcDbLine
 10
281.838261
 20
101.208083
 30
0.0
 11
267.354329
 21
101.208083
 31
0.0
  0
LINE
  5
37A
100
AcDbEntity
  8
LAY-1
  6
CONTINUOUS
 62
     2
100
AcDbLine
 10
243.854329
 20
101.208083
 30
0.0
 11
229.613239
 21
101.208083
 31
0.0
  0
LINE
  5
37B
100
AcDbEntity
  8
LAY-1
  6
EXLTYPE3
 62
     1
100
AcDbLine
 10
241.0558
 20
370.015826
 30
0.0
 11
268.726969
 21
370.015826
 31
0.0
  0
LINE
  5
37C
100
AcDbEntity
  8
LAY-1
  6
CONTINUOUS
 62
     2
100
AcDbLine
 10
280.2224
 20
298.492466
 30
0.0
 11
280.750444
 21
308.568162
 31
0.0
  0
ARC
  5
37D
100
AcDbEntity
  8
LAY-1
  6
CONTINUOUS
 62
     2
100
AcDbCircle
 10
282.89364
 20
333.515826
 30
0.0
 40
1.0
100
AcDbArc
 50
357.0
 51
90.0
  0
LINE
  5
37E
100
AcDbEntity
  8
LAY-1
  6
CONTINUOUS
 62
     2
100
AcDbLine
 10
222.874745
 20
322.358818
 30
0.0
 11
223.150498
 21
327.620498
 31
0.0
  0
ARC
  5
37F
100
AcDbEntity
  8
LAY-1
  6
CONTINUOUS
 62
     2
100
AcDbCircle
 10
225.147757
 20
327.515826
 30
0.0
 40
2.0
100
AcDbArc
 50
90.0
 51
177.0
  0
ARC
  5
380
100
AcDbEntity
  8
LAY-1
  6
CONTINUOUS
 62
     2
100
AcDbCircle
 10
219.878856
 20
322.515826
 30
0.0
 40
3.0
100
AcDbArc
 50
270.0
 51
357.0
  0
LINE
  5
381
100
AcDbEntity
  8
LAY-1
  6
CONTINUOUS
 62
     2
100
AcDbLine
 10
225.147757
 20
329.515826
 30
0.0
 11
225.929892
 21
329.515826
 31
0.0
  0
ARC
  5
382
100
AcDbEntity
  8
LAY-1
  6
CONTINUOUS
 62
     2
100
AcDbCircle
 10
241.215395
 20
299.015826
 30
0.0
 40
10.0
100
AcDbArc
 50
183.0
 51
270.0
  0
ARC
  5
383
100
AcDbEntity
  8
LAY-1
  6
CONTINUOUS
 62
     2
100
AcDbCircle
 10
229.613239
 20
312.515826
 30
0.0
 40
3.0
100
AcDbArc
 50
183.0
 51
270.0
  0
ARC
  5
384
100
AcDbEntity
  8
LAY-1
  6
CONTINUOUS
 62
     2
100
AcDbCircle
 10
229.702426
 20
308.515826
 30
0.0
 40
1.0
100
AcDbArc
 50
3.0
 51
90.0
  0
ARC
  5
385
100
AcDbEntity
  8
LAY-1
  6
CONTINUOUS
 62
     2
100
AcDbCircle
 10
281.749074
 20
308.515826
 30
0.0
 40
1.0
100
AcDbArc
 50
90.0
 51
177.0
  0
ARC
  5
386
100
AcDbEntity
  8
LAY-1
  6
CONTINUOUS
 62
     2
100
AcDbCircle
 10
281.838261
 20
312.515826
 30
0.0
 40
3.0
100
AcDbArc
 50
270.0
 51
357.0
  0
ARC
  5
387
100
AcDbEntity
  8
LAY-1
  6
CONTINUOUS
 62
     2
100
AcDbCircle
 10
270.236104
 20
299.015826
 30
0.0
 40
10.0
100
AcDbArc
 50
270.0
 51
357.0
  0
LINE
  5
388
100
AcDbEntity
  8
LAY-1
  6
CONTINUOUS
 62
     2
100
AcDbLine
 10
210.896775
 20
319.515826
 30
0.0
 11
219.878856
 21
319.515826
 31
0.0
  0
LINE
  5
389
100
AcDbEntity
  8
LAY-1
  6
CONTINUOUS
 62
     2
100
AcDbLine
 10
285.628495
 20
327.515826
 30
0.0
 11
284.834149
 21
312.358818
 31
0.0
  0
LINE
  5
38A
100
AcDbEntity
  8
LAY-1
  6
CONTINUOUS
 62
     2
100
AcDbLine
 10
270.236104
 20
289.015826
 30
0.0
 11
255.72575
 21
289.015826
 31
0.0
  0
LINE
  5
38B
100
AcDbEntity
  8
LAY-1
  6
CONTINUOUS
 62
     2
100
AcDbLine
 10
241.215395
 20
289.015826
 30
0.0
 11
255.72575
 21
289.015826
 31
0.0
  0
LINE
  5
38C
100
AcDbEntity
  8
LAY-1
  6
CONTINUOUS
 62
     2
100
AcDbLine
 10
231.2291
 20
298.492466
 30
0.0
 11
230.701055
 21
308.568162
 31
0.0
  0
LINE
  5
38D
100
AcDbEntity
  8
LAY-1
  6
CONTINUOUS
 62
     2
100
AcDbLine
 10
225.823005
 20
327.515826
 30
0.0
 11
226.61735
 21
312.358818
 31
0.0
  0
ARC
  5
38E
100
AcDbEntity
  8
LAY-1
  6
CONTINUOUS
 62
     2
100
AcDbCircle
 10
225.929892
 20
327.515826
 30
0.0
 40
2.0
100
AcDbArc
 50
3.0
 51
90.0
  0
LINE
  5
38F
100
AcDbEntity
  8
LAY-1
  6
CONTINUOUS
 62
     2
100
AcDbLine
 10
207.318915
 20
333.46349
 30
0.0
 11
207.900886
 21
322.358818
 31
0.0
  0
ARC
  5
390
100
AcDbEntity
  8
LAY-1
  6
CONTINUOUS
 62
     2
100
AcDbCircle
 10
210.896775
 20
322.515826
 30
0.0
 40
3.0
100
AcDbArc
 50
183.0
 51
270.0
  0
ARC
  5
391
100
AcDbEntity
  8
LAY-1
  6
CONTINUOUS
 62
     2
100
AcDbCircle
 10
208.317544
 20
333.515826
 30
0.0
 40
1.0
100
AcDbArc
 50
90.0
 51
183.0
  0
LINE
  5
392
100
AcDbEntity
  8
LAY-1
  6
CONTINUOUS
 62
     2
100
AcDbLine
 10
255.72575
 20
327.515826
 30
0.0
 11
225.823005
 21
327.515826
 31
0.0
  0
LINE
  5
393
100
AcDbEntity
  8
LAY-1
  6
CONTINUOUS
 62
     2
100
AcDbLine
 10
255.72575
 20
327.515826
 30
0.0
 11
285.628495
 21
327.515826
 31
0.0
  0
LINE
  5
394
100
AcDbEntity
  8
LAY-1
  6
CONTINUOUS
 62
     2
100
AcDbLine
 10
208.317544
 20
334.515826
 30
0.0
 11
255.72575
 21
334.515826
 31
0.0
  0
LINE
  5
395
100
AcDbEntity
  8
LAY-1
  6
CONTINUOUS
 62
     2
100
AcDbLine
 10
255.72575
 20
334.515826
 30
0.0
 11
282.89364
 21
334.515826
 31
0.0
  0
LINE
  5
396
100
AcDbEntity
  8
LAY-1
  6
CONTINUOUS
 62
     2
100
AcDbLine
 10
283.580565
 20
327.515826
 30
0.0
 11
283.892269
 21
333.46349
 31
0.0
  0
LINE
  5
397
100
AcDbEntity
  8
LAY-1
  6
CONTINUOUS
 62
     2
100
AcDbLine
 10
289.22575
 20
357.015826
 30
0.0
 11
289.22575
 21
351.515826
 31
0.0
  0
ARC
  5
398
100
AcDbEntity
  8
LAY-1
  6
CONTINUOUS
 62
     2
100
AcDbCircle
 10
288.72575
 20
351.515826
 30
0.0
 40
0.5
100
AcDbArc
 50
270.0
 51
0.0
  0
LINE
  5
399
100
AcDbEntity
  8
LAY-1
  6
CONTINUOUS
 62
     2
100
AcDbLine
 10
289.22575
 20
357.015826
 30
0.0
 11
222.22575
 21
357.015826
 31
0.0
  0
ARC
  5
39A
100
AcDbEntity
  8
LAY-1
  6
CONTINUOUS
 62
     2
100
AcDbCircle
 10
222.72575
 20
351.515826
 30
0.0
 40
0.5
100
AcDbArc
 50
180.0
 51
270.0
  0
LINE
  5
39B
100
AcDbEntity
  8
LAY-1
  6
CONTINUOUS
 62
     2
100
AcDbLine
 10
222.22575
 20
357.015826
 30
0.0
 11
222.22575
 21
351.515826
 31
0.0
  0
LINE
  5
39C
100
AcDbEntity
  8
LAY-1
  6
CONTINUOUS
 62
     2
100
AcDbLine
 10
288.72575
 20
351.015826
 30
0.0
 11
222.72575
 21
351.015826
 31
0.0
  0
POLYLINE
  5
39D
100
AcDbEntity
  8
LAY-1
  6
CONTINUOUS
 62
     2
100
AcDb2dPolyline
 66
     1
 10
0.0
 20
0.0
 30
0.0
 70
   128
  0
VERTEX
  5
39E
100
AcDbEntity
  8
LAY-1
  6
CONTINUOUS
 62
     2
100
AcDbVertex
100
AcDb2dVertex
 10
251.684298
 20
363.015826
 30
0.0
  0
VERTEX
  5
39F
100
AcDbEntity
  8
LAY-1
  6
CONTINUOUS
 62
     2
100
AcDbVertex
100
AcDb2dVertex
 10
247.642846
 20
370.015826
 30
0.0
  0
VERTEX
  5
3A0
100
AcDbEntity
  8
LAY-1
  6
CONTINUOUS
 62
     2
100
AcDbVertex
100
AcDb2dVertex
 10
251.684298
 20
377.015826
 30
0.0
  0
VERTEX
  5
3A1
100
AcDbEntity
  8
LAY-1
  6
CONTINUOUS
 62
     2
100
AcDbVertex
100
AcDb2dVertex
 10
259.767202
 20
377.015826
 30
0.0
  0
VERTEX
  5
3A2
100
AcDbEntity
  8
LAY-1
  6
CONTINUOUS
 62
     2
100
AcDbVertex
100
AcDb2dVertex
 10
263.808654
 20
370.015826
 30
0.0
  0
VERTEX
  5
3A3
100
AcDbEntity
  8
LAY-1
  6
CONTINUOUS
 62
     2
100
AcDbVertex
100
AcDb2dVertex
 10
259.767202
 20
363.015826
 30
0.0
  0
VERTEX
  5
3A4
100
AcDbEntity
  8
LAY-1
  6
CONTINUOUS
 62
     2
100
AcDbVertex
100
AcDb2dVertex
 10
251.684298
 20
363.015826
 30
0.0
  0
SEQEND
  5
3A5
100
AcDbEntity
  8
LAY-1
  6
CONTINUOUS
 62
     2
  0
CIRCLE
  5
3A6
100
AcDbEntity
  8
LAY-1
  6
CONTINUOUS
 62
     2
100
AcDbCircle
 10
255.72575
 20
370.015826
 30
0.0
 40
7.0
  0
LINE
  5
3A7
100
AcDbEntity
  8
LAY-1
  6
EXLTYPE3
 62
     1
100
AcDbLine
 10
255.72575
 20
403.920973
 30
0.0
 11
255.72575
 21
283.720973
 31
0.0
  0
ARC
  5
3A8
100
AcDbEntity
  8
LAY-1
  6
CONTINUOUS
 62
     2
100
AcDbCircle
 10
281.157127
 20
378.515826
 30
0.0
 40
2.0
100
AcDbArc
 50
90.0
 51
178.0
  0
LINE
  5
3A9
100
AcDbEntity
  8
LAY-1
  6
CONTINUOUS
 62
     2
100
AcDbLine
 10
279.158346
 20
378.585625
 30
0.0
 11
278.73564
 21
366.480926
 31
0.0
  0
ARC
  5
3AA
100
AcDbEntity
  8
LAY-1
  6
CONTINUOUS
 62
     2
100
AcDbCircle
 10
277.73625
 20
366.515826
 30
0.0
 40
1.0
100
AcDbArc
 50
270.0
 51
358.0
  0
ARC
  5
3AB
100
AcDbEntity
  8
LAY-1
  6
CONTINUOUS
 62
     2
100
AcDbCircle
 10
226.018594
 20
365.015826
 30
0.0
 40
2.0
100
AcDbArc
 50
270.0
 51
316.567463
  0
ARC
  5
3AC
100
AcDbEntity
  8
LAY-1
  6
CONTINUOUS
 62
     2
100
AcDbCircle
 10
285.432905
 20
365.015826
 30
0.0
 40
2.0
100
AcDbArc
 50
223.432537
 51
270.0
  0
ARC
  5
3AD
100
AcDbEntity
  8
LAY-1
  6
CONTINUOUS
 62
     2
100
AcDbCircle
 10
247.657127
 20
396.015826
 30
0.0
 40
2.0
100
AcDbArc
 50
90.0
 51
178.0
  0
LINE
  5
3AE
100
AcDbEntity
  8
LAY-1
  6
CONTINUOUS
 62
     2
100
AcDbLine
 10
287.18575
 20
363.015826
 30
0.0
 11
268.901573
 21
363.015826
 31
0.0
  0
ARC
  5
3AF
100
AcDbEntity
  8
LAY-1
  6
CONTINUOUS
 62
     2
100
AcDbCircle
 10
279.62343
 20
359.515826
 30
0.0
 40
6.0
100
AcDbArc
 50
43.432537
 51
90.0
  0
ARC
  5
3B0
100
AcDbEntity
  8
LAY-1
  6
CONTINUOUS
 62
     2
100
AcDbCircle
 10
251.997828
 20
379.015826
 30
0.0
 40
2.0
100
AcDbArc
 50
90.0
 51
135.0
  0
ARC
  5
3B1
100
AcDbEntity
  8
LAY-1
  6
CONTINUOUS
 62
     2
100
AcDbCircle
 10
246.861905
 20
373.879903
 30
0.0
 40
2.0
100
AcDbArc
 50
135.0
 51
178.0
  0
LINE
  5
3B2
100
AcDbEntity
  8
LAY-1
  6
CONTINUOUS
 62
     2
100
AcDbLine
 10
279.62343
 20
365.515826
 30
0.0
 11
268.814271
 21
365.515826
 31
0.0
  0
LINE
  5
3B3
100
AcDbEntity
  8
LAY-1
  6
CONTINUOUS
 62
     2
100
AcDbLine
 10
251.997828
 20
381.015826
 30
0.0
 11
255.72575
 21
381.015826
 31
0.0
  0
LINE
  5
3B4
100
AcDbEntity
  8
LAY-1
  6
CONTINUOUS
 62
     2
100
AcDbLine
 10
245.447692
 20
375.294117
 30
0.0
 11
250.583614
 21
380.430039
 31
0.0
  0
ARC
  5
3B5
100
AcDbEntity
  8
LAY-1
  6
CONTINUOUS
 62
     2
100
AcDbCircle
 10
236.26771
 20
366.515826
 30
0.0
 40
1.0
100
AcDbArc
 50
270.0
 51
350.405932
  0
ARC
  5
3B6
100
AcDbEntity
  8
LAY-1
  6
CONTINUOUS
 62
     2
100
AcDbCircle
 10
275.18379
 20
366.515826
 30
0.0
 40
1.0
100
AcDbArc
 50
189.594068
 51
270.0
  0
LINE
  5
3B7
100
AcDbEntity
  8
LAY-1
  6
CONTINUOUS
 62
     2
100
AcDbLine
 10
267.18014
 20
357.003792
 30
0.0
 11
266.588376
 21
373.949702
 31
0.0
  0
LINE
  5
3B8
100
AcDbEntity
  8
LAY-1
  6
CONTINUOUS
 62
     2
100
AcDbLine
 10
239.22575
 20
368.015826
 30
0.0
 11
242.724531
 21
368.015826
 31
0.0
  0
ARC
  5
3B9
100
AcDbEntity
  8
LAY-1
  6
CONTINUOUS
 62
     2
100
AcDbCircle
 10
268.726969
 20
370.015826
 30
0.0
 40
2.0
100
AcDbArc
 50
182.0
 51
270.0
  0
LINE
  5
3BA
100
AcDbEntity
  8
LAY-1
  6
CONTINUOUS
 62
     2
100
AcDbLine
 10
272.22575
 20
368.015826
 30
0.0
 11
268.726969
 21
368.015826
 31
0.0
  0
ARC
  5
3BB
100
AcDbEntity
  8
LAY-1
  6
CONTINUOUS
 62
     2
100
AcDbCircle
 10
242.724531
 20
370.015826
 30
0.0
 40
2.0
100
AcDbArc
 50
270.0
 51
358.0
  0
ARC
  5
3BC
100
AcDbEntity
  8
LAY-1
  6
CONTINUOUS
 62
     2
100
AcDbCircle
 10
272.22575
 20
366.015826
 30
0.0
 40
2.0
100
AcDbArc
 50
9.594068
 51
90.0
  0
LINE
  5
3BD
100
AcDbEntity
  8
LAY-1
  6
CONTINUOUS
 62
     2
100
AcDbLine
 10
244.271564
 20
357.009633
 30
0.0
 11
244.863124
 21
373.949702
 31
0.0
  0
ARC
  5
3BE
100
AcDbEntity
  8
LAY-1
  6
CONTINUOUS
 62
     2
100
AcDbCircle
 10
239.22575
 20
366.015826
 30
0.0
 40
2.0
100
AcDbArc
 50
90.0
 51
170.405932
  0
LINE
  5
3BF
100
AcDbEntity
  8
LAY-1
  6
CONTINUOUS
 62
     2
100
AcDbLine
 10
231.828069
 20
365.515826
 30
0.0
 11
242.637229
 21
365.515826
 31
0.0
  0
ARC
  5
3C0
100
AcDbEntity
  8
LAY-1
  6
CONTINUOUS
 62
     2
100
AcDbCircle
 10
231.828069
 20
359.515826
 30
0.0
 40
6.0
100
AcDbArc
 50
90.0
 51
136.567463
  0
LINE
  5
3C1
100
AcDbEntity
  8
LAY-1
  6
CONTINUOUS
 62
     2
100
AcDbLine
 10
222.22575
 20
363.015826
 30
0.0
 11
242.549927
 21
363.015826
 31
0.0
  0
LINE
  5
3C2
100
AcDbEntity
  8
LAY-1
  6
CONTINUOUS
 62
     2
100
AcDbLine
 10
222.22575
 20
357.015826
 30
0.0
 11
222.22575
 21
363.015826
 31
0.0
  0
LINE
  5
3C3
100
AcDbEntity
  8
LAY-1
  6
CONTINUOUS
 62
     2
100
AcDbLine
 10
266.003808
 20
375.294117
 30
0.0
 11
260.867885
 21
380.430039
 31
0.0
  0
LINE
  5
3C4
100
AcDbEntity
  8
LAY-1
  6
CONTINUOUS
 62
     2
100
AcDbLine
 10
259.453672
 20
381.015826
 30
0.0
 11
255.72575
 21
381.015826
 31
0.0
  0
ARC
  5
3C5
100
AcDbEntity
  8
LAY-1
  6
CONTINUOUS
 62
     2
100
AcDbCircle
 10
264.589594
 20
373.879903
 30
0.0
 40
2.0
100
AcDbArc
 50
2.0
 51
45.0
  0
ARC
  5
3C6
100
AcDbEntity
  8
LAY-1
  6
CONTINUOUS
 62
     2
100
AcDbCircle
 10
259.453672
 20
379.015826
 30
0.0
 40
2.0
100
AcDbArc
 50
45.0
 51
90.0
  0
ARC
  5
3C7
100
AcDbEntity
  8
LAY-1
  6
CONTINUOUS
 62
     2
100
AcDbCircle
 10
263.794372
 20
396.015826
 30
0.0
 40
2.0
100
AcDbArc
 50
2.0
 51
90.0
  0
LINE
  5
3C8
100
AcDbEntity
  8
LAY-1
  6
CONTINUOUS
 62
     2
100
AcDbLine
 10
281.157127
 20
380.515826
 30
0.0
 11
289.22575
 21
380.515826
 31
0.0
  0
LINE
  5
3C9
100
AcDbEntity
  8
LAY-1
  6
CONTINUOUS
 62
     2
100
AcDbLine
 10
289.22575
 20
357.015826
 30
0.0
 11
289.22575
 21
380.515826
 31
0.0
  0
LINE
  5
3CA
100
AcDbEntity
  8
LAY-1
  6
CONTINUOUS
 62
     2
100
AcDbLine
 10
287.18575
 20
363.015826
 30
0.0
 11
287.18575
 21
357.015826
 31
0.0
  0
ARC
  5
3CB
100
AcDbEntity
  8
LAY-1
  6
CONTINUOUS
 62
     2
100
AcDbCircle
 10
242.549927
 20
365.015826
 30
0.0
 40
2.0
100
AcDbArc
 50
270.0
 51
358.0
  0
ARC
  5
3CC
100
AcDbEntity
  8
LAY-1
  6
CONTINUOUS
 62
     2
100
AcDbCircle
 10
268.901573
 20
365.015826
 30
0.0
 40
2.0
100
AcDbArc
 50
182.0
 51
270.0
  0
ARC
  5
3CD
100
AcDbEntity
  8
LAY-1
  6
CONTINUOUS
 62
     2
100
AcDbCircle
 10
242.637229
 20
367.515826
 30
0.0
 40
2.0
100
AcDbArc
 50
270.0
 51
358.0
  0
ARC
  5
3CE
100
AcDbEntity
  8
LAY-1
  6
CONTINUOUS
 62
     2
100
AcDbCircle
 10
268.814271
 20
367.515826
 30
0.0
 40
2.0
100
AcDbArc
 50
182.0
 51
270.0
  0
LINE
  5
3CF
100
AcDbEntity
  8
LAY-1
  6
CONTINUOUS
 62
     2
100
AcDbLine
 10
245.658346
 20
396.085625
 30
0.0
 11
244.895687
 21
374.245944
 31
0.0
  0
LINE
  5
3D0
100
AcDbEntity
  8
LAY-1
  6
CONTINUOUS
 62
     2
100
AcDbLine
 10
247.657127
 20
398.015826
 30
0.0
 11
255.72575
 21
398.015826
 31
0.0
  0
LINE
  5
3D1
100
AcDbEntity
  8
LAY-1
  6
CONTINUOUS
 62
     2
100
AcDbLine
 10
264.237923
 20
398.015826
 30
0.0
 11
255.72575
 21
398.015826
 31
0.0
  0
LINE
  5
3D2
100
AcDbEntity
  8
LAY-1
  6
CONTINUOUS
 62
     2
100
AcDbLine
 10
265.783602
 20
396.359142
 30
0.0
 11
266.555812
 21
374.245944
 31
0.0
  0
LINE
  5
3D3
100
AcDbEntity
  8
LAY-1
  6
CONTINUOUS
 62
     2
100
AcDbLine
 10
281.838261
 20
309.515826
 30
0.0
 11
229.613239
 21
309.515826
 31
0.0
  0
ARC
  5
3D4
100
AcDbEntity
  8
LAY-1
  6
CONTINUOUS
 62
     2
100
AcDbCircle
 10
283.838082
 20
349.015826
 30
0.0
 40
2.0
100
AcDbArc
 50
90.0
 51
178.0
  0
ARC
  5
3D5
100
AcDbEntity
  8
LAY-1
  6
CONTINUOUS
 62
     2
100
AcDbCircle
 10
227.613417
 20
349.015826
 30
0.0
 40
2.0
100
AcDbArc
 50
2.0
 51
90.0
  0
LINE
  5
3D6
100
AcDbEntity
  8
LAY-1
  6
CONTINUOUS
 62
     2
100
AcDbLine
 10
281.839301
 20
349.085625
 30
0.0
 11
281.330512
 21
334.515826
 31
0.0
  0
LINE
  5
3D7
100
AcDbEntity
  8
LAY-1
  6
CONTINUOUS
 62
     2
100
AcDbLine
 10
229.612199
 20
349.085625
 30
0.0
 11
230.120988
 21
334.515826
 31
0.0
  0
ENDSEC
  0
SECTION
  2
OBJECTS
  0
DICTIONARY
  5
19
100
AcDbDictionary
  3
ACAD_GROUP
350
1A
  3
ACAD_MLINESTYLE
350
1B
  0
DICTIONARY
  5
1A
102
{ACAD_REACTORS
330
19
102
}
100
AcDbDictionary
  0
DICTIONARY
  5
1B
102
{ACAD_REACTORS
330
19
102
}
100
AcDbDictionary
  3
STANDARD
350
1C
  0
MLINESTYLE
  5
1C
102
{ACAD_REACTORS
330
1B
102
}
100
AcDbMlineStyle
  2
Standard
 70
     0
  3

 62
     0
 51
90.0
 52
90.0
 71
     2
 49
0.5
 62
   256
  6
ByLayer
 49
-0.5
 62
   256
  6
ByLayer
  0
ENDSEC
  0
EOF
