  0
SECTION
  2
HEADER
  9
$ACADVER
  1
AC1014
  9
$ACADMAINTVER
 70
     0
  9
$DWGCODEPAGE
  3
ANSI_932
  9
$INSBASE
 10
0.0
 20
0.0
 30
0.0
  9
$EXTMIN
 10
370.25
 20
195.24
 30
0.0
  9
$EXTMAX
 10
1723.973453
 20
1260.553581
 30
0.0
  9
$LIMMIN
 10
0.0
 20
0.0
  9
$LIMMAX
 10
420.0
 20
297.0
  9
$ORTHOMODE
 70
     0
  9
$REGENMODE
 70
     1
  9
$FILLMODE
 70
     1
  9
$QTEXTMODE
 70
     0
  9
$MIRRTEXT
 70
     1
  9
$DRAGMODE
 70
     2
  9
$LTSCALE
 40
1.0
  9
$OSMODE
 70
     0
  9
$ATTMODE
 70
     1
  9
$TEXTSIZE
 40
0.2
  9
$TRACEWID
 40
0.05
  9
$TEXTSTYLE
  7
STANDARD
  9
$CLAYER
  8
LAY-1
  9
$CELTYPE
  6
CONTINUOUS
  9
$CECOLOR
 62
   256
  9
$CELTSCALE
 40
1.0
  9
$DELOBJ
 70
     1
  9
$DISPSILH
 70
     0
  9
$DIMSCALE
 40
1.0
  9
$DIMASZ
 40
0.18
  9
$DIMEXO
 40
0.0625
  9
$DIMDLI
 40
0.38
  9
$DIMRND
 40
0.0
  9
$DIMDLE
 40
0.0
  9
$DIMEXE
 40
0.18
  9
$DIMTP
 40
0.0
  9
$DIMTM
 40
0.0
  9
$DIMTXT
 40
0.18
  9
$DIMCEN
 40
0.09
  9
$DIMTSZ
 40
0.0
  9
$DIMTOL
 70
     0
  9
$DIMLIM
 70
     0
  9
$DIMTIH
 70
     1
  9
$DIMTOH
 70
     1
  9
$DIMSE1
 70
     0
  9
$DIMSE2
 70
     0
  9
$DIMTAD
 70
     0
  9
$DIMZIN
 70
     0
  9
$DIMBLK
  1

  9
$DIMASO
 70
     1
  9
$DIMSHO
 70
     1
  9
$DIMPOST
  1

  9
$DIMAPOST
  1

  9
$DIMALT
 70
     0
  9
$DIMALTD
 70
     2
  9
$DIMALTF
 40
25.4
  9
$DIMLFAC
 40
1.0
  9
$DIMTOFL
 70
     0
  9
$DIMTVP
 40
0.0
  9
$DIMTIX
 70
     0
  9
$DIMSOXD
 70
     0
  9
$DIMSAH
 70
     0
  9
$DIMBLK1
  1

  9
$DIMBLK2
  1

  9
$DIMSTYLE
  2
STANDARD
  9
$DIMCLRD
 70
     0
  9
$DIMCLRE
 70
     0
  9
$DIMCLRT
 70
     0
  9
$DIMTFAC
 40
1.0
  9
$DIMGAP
 40
0.09
  9
$DIMJUST
 70
     0
  9
$DIMSD1
 70
     0
  9
$DIMSD2
 70
     0
  9
$DIMTOLJ
 70
     1
  9
$DIMTZIN
 70
     0
  9
$DIMALTZ
 70
     0
  9
$DIMALTTZ
 70
     0
  9
$DIMFIT
 70
     3
  9
$DIMUPT
 70
     0
  9
$DIMUNIT
 70
     2
  9
$DIMDEC
 70
     4
  9
$DIMTDEC
 70
     4
  9
$DIMALTU
 70
     2
  9
$DIMALTTD
 70
     2
  9
$DIMTXSTY
  7
STANDARD
  9
$DIMAUNIT
 70
     0
  9
$LUNITS
 70
     2
  9
$LUPREC
 70
     4
  9
$SKETCHINC
 40
0.1
  9
$FILLETRAD
 40
0.0
  9
$AUNITS
 70
     0
  9
$AUPREC
 70
     0
  9
$MENU
  1
acad
  9
$ELEVATION
 40
0.0
  9
$PELEVATION
 40
0.0
  9
$THICKNESS
 40
0.0
  9
$LIMCHECK
 70
     0
  9
$BLIPMODE
 70
     1
  9
$CHAMFERA
 40
0.0
  9
$CHAMFERB
 40
0.0
  9
$CHAMFERC
 40
0.0
  9
$CHAMFERD
 40
0.0
  9
$SKPOLY
 70
     0
  9
$TDCREATE
 40
2456797.144865185
  9
$TDUPDATE
 40
2456797.144865185
  9
$TDINDWG
 40
0.0000000000
  9
$TDUSRTIMER
 40
0.0000000000
  9
$USRTIMER
 70
     1
  9
$ANGBASE
 50
0.0
  9
$ANGDIR
 70
     0
  9
$PDMODE
 70
     0
  9
$PDSIZE
 40
0.0
  9
$PLINEWID
 40
0.0
  9
$COORDS
 70
     1
  9
$SPLFRAME
 70
     0
  9
$SPLINETYPE
 70
     6
  9
$SPLINESEGS
 70
     8
  9
$ATTDIA
 70
     0
  9
$ATTREQ
 70
     1
  9
$HANDLING
 70
     1
  9
$HANDSEED
  5
789
  9
$SURFTAB1
 70
     6
  9
$SURFTAB2
 70
     6
  9
$SURFTYPE
 70
     6
  9
$SURFU
 70
     6
  9
$SURFV
 70
     6
  9
$UCSNAME
  2

  9
$UCSORG
 10
0.0
 20
0.0
 30
0.0
  9
$UCSXDIR
 10
1.0
 20
0.0
 30
0.0
  9
$UCSYDIR
 10
0.0
 20
1.0
 30
0.0
  9
$PUCSNAME
  2

  9
$PUCSORG
 10
0.0
 20
0.0
 30
0.0
  9
$PUCSXDIR
 10
1.0
 20
0.0
 30
0.0
  9
$PUCSYDIR
 10
0.0
 20
1.0
 30
0.0
  9
$USERI1
 70
     0
  9
$USERI2
 70
     0
  9
$USERI3
 70
     0
  9
$USERI4
 70
     0
  9
$USERI5
 70
     0
  9
$USERR1
 40
0.0
  9
$USERR2
 40
0.0
  9
$USERR3
 40
0.0
  9
$USERR4
 40
0.0
  9
$USERR5
 40
0.0
  9
$WORLDVIEW
 70
     1
  9
$SHADEDGE
 70
     3
  9
$SHADEDIF
 70
    70
  9
$TILEMODE
 70
     1
  9
$MAXACTVP
 70
    16
  9
$PINSBASE
 10
0.0
 20
0.0
 30
0.0
  9
$PLIMCHECK
 70
     0
  9
$PEXTMIN
 10
1.000000E+20
 20
1.000000E+20
 30
1.000000E+20
  9
$PEXTMAX
 10
-1.000000E+20
 20
-1.000000E+20
 30
-1.000000E+20
  9
$PLIMMIN
 10
0.0
 20
0.0
  9
$PLIMMAX
 10
12.0
 20
9.0
  9
$UNITMODE
 70
     0
  9
$VISRETAIN
 70
     0
  9
$PLINEGEN
 70
     1
  9
$PSLTSCALE
 70
     0
  9
$TREEDEPTH
 70
  3020
  9
$PICKSTYLE
 70
     1
  9
$CMLSTYLE
  2
Standard
  9
$CMLJUST
 70
     0
  9
$CMLSCALE
 40
1.0
  9
$PROXYGRAPHICS
 70
     0
  9
$MEASUREMENT
 70
     0
  0
ENDSEC
  0
SECTION
  2
CLASSES
  0
CLASS
  1
LWPOLYLINE
  2
AcDbPolyline
  3
"AutoCAD"
 90
        0
280
     0
281
     1
  0
CLASS
  1
IMAGE
  2
AcDbRasterImage
  3
ISM
 90
      127
280
     0
281
     1
  0
CLASS
  1
OLE2FRAME
  2
AcDbOle2Frame
  3
""
 90
        0
280
     0
281
     1
  0
CLASS
  1
HATCH
  2
AcDbHatch
  3
"ACAD_SEDONA"
 90
        0
280
     0
281
     1
  0
CLASS
  1
DICTIONARYVAR
  2
AcDbDictionaryVar
  3
"AutoCAD"
 90
        0
280
     0
281
     0
  0
CLASS
  1
RASTERVARIABLES
  2
AcDbRasterVariables
  3
ISM
 90
        0
280
     0
281
     0
  0
CLASS
  1
IMAGEDEF
  2
AcDbRasterImageDef
  3
ISM
 90
        0
280
     0
281
     0
  0
CLASS
  1
IMAGEDEF_REACTOR
  2
AcDbRasterImageDefReactor
  3
ISM
 90
        1
280
     0
281
     0
  0
CLASS
  1
IDBUFFER
  2
AcDbIdBuffer
  3
"Acad"
 90
        0
280
     0
281
     0
  0
CLASS
  1
SPATIAL_FILTER
  2
AcDbSpatialFilter
  3
"Acad"
 90
        0
280
     0
281
     0
  0
CLASS
  1
XRECORD
  2
AcDbXrecord
  3
"<Built In>"
 90
        0
280
     0
281
     0
  0
CLASS
  1
SORTENTSTABLE
  2
AcDbSortentsTable
  3
"AutoCAD"
 90
        0
280
     0
281
     0
  0
CLASS
  1
LAYER_INDEX
  2
AcDbLayerIndex
  3
"Acad"
 90
        0
280
     0
281
     0
  0
CLASS
  1
SPATIAL_INDEX
  2
AcDbSpatialIndex
  3
"Acad"
 90
        0
280
     0
281
     0
  0
CLASS
  1
OBJECT_PTR
  2
CAseDLPNTableRecord
  3
"ASE-LPNTableRecord"
 90
        1
280
     0
281
     0
  0
CLASS
  1
LAYOUT
  2
AcDbLayout
  3
"AutoCAD 2000"
 90
        0
280
     0
281
     0
  0
CLASS
  1
PLOTSETTINGS
  2
AcDbPlotSettings
  3
"AutoCAD 2000"
 90
        0
280
     0
281
     0
  0
CLASS
  1
ACDBDICTIONARYWDFLT
  2
AcDbDictionaryWithDefault
  3
"AutoCAD 2000"
 90
        0
280
     0
281
     0
  0
CLASS
  1
ACDBPLACEHOLDER
  2
AcDbPlaceHolder
  3
"AutoCAD 2000"
 90
        0
280
     0
281
     0
  0
CLASS
  1
VBA_PROJECT
  2
AcDbVbaProject
  3
"acadvba"
 90
        0
280
     0
281
     0
  0
CLASS
  1
WIPEOUT
  2
AcDbWipeout
  3
WipeOut|AutoCAD Express Tool|expresstools@autodesk.com
 90
      127
280
     0
281
     1
  0
CLASS
  1
WIPEOUTVARIABLES
  2
AcDbWipeoutVariables
  3
WipeOut|AutoCAD Express Tool|expresstools@autodesk.com
 90
        0
280
     0
281
     0
  0
CLASS
  1
RTEXT
  2
RText
  3
RText|AutoCAD Express Tool|expresstools@autodesk.com
 90
        0
280
     0
281
     1
  0
CLASS
  1
ARCALIGNEDTEXT
  2
AcDbArcAlignedText
  3
ATEXT|AutoCAD Express Tool|expresstools@autodesk.com
 90
        0
280
     0
281
     1
  0
ENDSEC
  0
SECTION
  2
TABLES
  0
TABLE
  2
VPORT
  5
7
100
AcDbSymbolTable
 70
     1
  0
VPORT
  5
15
100
AcDbSymbolTableRecord
100
AcDbViewportTableRecord
  2
*ACTIVE
 70
     0
 10
0.0
 20
0.0
 11
1.0
 21
1.0
 12
1047.111726
 22
727.89679
 13
0.0
 23
0.0
 14
1.0
 24
1.0
 15
0.0
 25
0.0
 16
0.0
 26
0.0
 36
1.0
 17
0.0
 27
0.0
 37
0.0
 40
1065.313581
 41
1.722533
 42
50.0
 43
0.0
 44
0.0
 50
0.0
 51
0.0
 71
     0
 72
  1000
 73
     1
 74
     1
 75
     0
 76
     0
 77
     0
 78
     0
  0
ENDTAB
  0
TABLE
  2
LTYPE
  5
4
100
AcDbSymbolTable
 70
     9
  0
LTYPE
  5
11
100
AcDbSymbolTableRecord
100
AcDbLinetypeTableRecord
  2
BYBLOCK
 70
    64
  3

 72
    65
 73
     0
 40
0.0
  0
LTYPE
  5
12
100
AcDbSymbolTableRecord
100
AcDbLinetypeTableRecord
  2
BYLAYER
 70
    64
  3

 72
    65
 73
     0
 40
0.0
  0
LTYPE
  5
13
100
AcDbSymbolTableRecord
100
AcDbLinetypeTableRecord
  2
CONTINUOUS
 70
    64
  3
実線
 72
    65
 73
     0
 40
0.0
  0
LTYPE
  5
1D
100
AcDbSymbolTableRecord
100
AcDbLinetypeTableRecord
  2
EXLTYPE1
 70
    64
  3
破線
 72
    65
 73
     2
 40
4.0
 49
3.0
 74
     0
 49
-1.0
 74
     0
  0
LTYPE
  5
1E
100
AcDbSymbolTableRecord
100
AcDbLinetypeTableRecord
  2
EXLTYPE2
 70
    64
  3
点線
 72
    65
 73
     2
 40
2.0
 49
1.0
 74
     0
 49
-1.0
 74
     0
  0
LTYPE
  5
1F
100
AcDbSymbolTableRecord
100
AcDbLinetypeTableRecord
  2
EXLTYPE3
 70
    64
  3
一点鎖線
 72
    65
 73
     4
 40
33.0
 49
30.0
 74
     0
 49
-1.0
 74
     0
 49
1.0
 74
     0
 49
-1.0
 74
     0
  0
LTYPE
  5
20
100
AcDbSymbolTableRecord
100
AcDbLinetypeTableRecord
  2
EXLTYPE4
 70
    64
  3
二点鎖線
 72
    65
 73
     6
 40
35.0
 49
30.0
 74
     0
 49
-1.0
 74
     0
 49
1.0
 74
     0
 49
-1.0
 74
     0
 49
1.0
 74
     0
 49
-1.0
 74
     0
  0
LTYPE
  5
21
100
AcDbSymbolTableRecord
100
AcDbLinetypeTableRecord
  2
EXLTYPE5
 70
    64
  3
三点鎖線
 72
    65
 73
     8
 40
37.0
 49
30.0
 74
     0
 49
-1.0
 74
     0
 49
1.0
 74
     0
 49
-1.0
 74
     0
 49
1.0
 74
     0
 49
-1.0
 74
     0
 49
1.0
 74
     0
 49
-1.0
 74
     0
  0
LTYPE
  5
22
100
AcDbSymbolTableRecord
100
AcDbLinetypeTableRecord
  2
EXLTYPE6
 70
    64
  3
四点鎖線
 72
    65
 73
    10
 40
39.0
 49
30.0
 74
     0
 49
-1.0
 74
     0
 49
1.0
 74
     0
 49
-1.0
 74
     0
 49
1.0
 74
     0
 49
-1.0
 74
     0
 49
1.0
 74
     0
 49
-1.0
 74
     0
 49
1.0
 74
     0
 49
-1.0
 74
     0
  0
ENDTAB
  0
TABLE
  2
LAYER
  5
2
100
AcDbSymbolTable
 70
     4
  0
LAYER
  5
14
100
AcDbSymbolTableRecord
100
AcDbLayerTableRecord
  2
0
 70
     0
 62
     7
  6
CONTINUOUS
  0
LAYER
  5
25
100
AcDbSymbolTableRecord
100
AcDbLayerTableRecord
  2
LAY-1
 70
    64
 62
     3
  6
CONTINUOUS
  0
LAYER
  5
26
100
AcDbSymbolTableRecord
100
AcDbLayerTableRecord
  2
LAY-2
 70
    64
 62
     7
  6
CONTINUOUS
  0
LAYER
  5
27
100
AcDbSymbolTableRecord
100
AcDbLayerTableRecord
  2
LAY-5
 70
    64
 62
     1
  6
CONTINUOUS
  0
ENDTAB
  0
TABLE
  2
STYLE
  5
3
100
AcDbSymbolTable
 70
     3
  0
STYLE
  5
17
100
AcDbSymbolTableRecord
100
AcDbTextStyleTableRecord
  2
STANDARD
 70
     0
 40
0.0
 41
1.0
 50
0.0
 71
     0
 42
0.0
  3
monotxt
  4
extfont
  0
STYLE
  5
23
100
AcDbSymbolTableRecord
100
AcDbTextStyleTableRecord
  2
EXCADSTD
 70
    64
 40
0.0
 41
1.0
 50
0.0
 71
     0
 42
0.2
  3
monotxt
  4
extfont
  0
STYLE
  5
24
100
AcDbSymbolTableRecord
100
AcDbTextStyleTableRecord
  2
EXCADVERT
 70
    68
 40
0.0
 41
1.0
 50
0.0
 71
     0
 42
0.286885
  3
monotxt
  4
extfont
  0
ENDTAB
  0
TABLE
  2
VIEW
  5
5
100
AcDbSymbolTable
 70
     0
  0
ENDTAB
  0
TABLE
  2
UCS
  5
6
100
AcDbSymbolTable
 70
     0
  0
ENDTAB
  0
TABLE
  2
APPID
  5
8
100
AcDbSymbolTable
 70
     1
  0
APPID
  5
16
100
AcDbSymbolTableRecord
100
AcDbRegAppTableRecord
  2
ACAD
 70
     0
  0
ENDTAB
  0
TABLE
  2
DIMSTYLE
  5
9
100
AcDbSymbolTable
 70
     1
  0
DIMSTYLE
105
18
100
AcDbSymbolTableRecord
100
AcDbDimStyleTableRecord
  2
STANDARD
 70
     0
  3

  4

  5

  6

  7

 40
1.0
 41
0.18
 42
0.0625
 43
0.38
 44
0.18
 45
0.0
 46
0.0
 47
0.0
 48
0.0
 71
     0
 72
     0
 73
     1
 74
     1
 75
     0
 76
     0
 77
     0
 78
     0
140
0.18
141
0.09
142
0.0
143
25.4
144
1.0
145
0.0
146
1.0
147
0.09
170
     0
171
     2
172
     1
173
     0
174
     0
175
     0
176
     0
177
     0
178
     0
270
     2
271
     4
272
     4
273
     2
274
     2
275
     0
280
     0
281
     0
282
     0
283
     1
284
     0
285
     0
286
     0
287
     3
288
     0
340
17
  0
ENDTAB
  0
TABLE
  2
BLOCK_RECORD
  5
1
100
AcDbSymbolTable
 70
    15
  0
BLOCK_RECORD
  5
A
100
AcDbSymbolTableRecord
100
AcDbBlockTableRecord
  2
*MODEL_SPACE
  0
BLOCK_RECORD
  5
B
100
AcDbSymbolTableRecord
100
AcDbBlockTableRecord
  2
*PAPER_SPACE
  0
BLOCK_RECORD
  5
28
100
AcDbSymbolTableRecord
100
AcDbBlockTableRecord
  2
_EX_NORM
  0
BLOCK_RECORD
  5
29
100
AcDbSymbolTableRecord
100
AcDbBlockTableRecord
  2
_EX_BNORM
  0
BLOCK_RECORD
  5
2A
100
AcDbSymbolTableRecord
100
AcDbBlockTableRecord
  2
_EX_BCIR
  0
BLOCK_RECORD
  5
2B
100
AcDbSymbolTableRecord
100
AcDbBlockTableRecord
  2
_EX_RCIVIL
  0
BLOCK_RECORD
  5
2C
100
AcDbSymbolTableRecord
100
AcDbBlockTableRecord
  2
_EX_SLANT
  0
BLOCK_RECORD
  5
2D
100
AcDbSymbolTableRecord
100
AcDbBlockTableRecord
  2
_EX_NONE
  0
BLOCK_RECORD
  5
2E
100
AcDbSymbolTableRecord
100
AcDbBlockTableRecord
  2
_EX_CIVIL
  0
BLOCK_RECORD
  5
2F
100
AcDbSymbolTableRecord
100
AcDbBlockTableRecord
  2
_EX_WCIR
  0
BLOCK_RECORD
  5
30
100
AcDbSymbolTableRecord
100
AcDbBlockTableRecord
  2
_EX_WCIR2
  0
BLOCK_RECORD
  5
31
100
AcDbSymbolTableRecord
100
AcDbBlockTableRecord
  2
_EX_WNORM
  0
BLOCK_RECORD
  5
32
100
AcDbSymbolTableRecord
100
AcDbBlockTableRecord
  2
_EX_NNORM
  0
BLOCK_RECORD
  5
33
100
AcDbSymbolTableRecord
100
AcDbBlockTableRecord
  2
_EX_BBOX
  0
BLOCK_RECORD
  5
34
100
AcDbSymbolTableRecord
100
AcDbBlockTableRecord
  2
_EX_WBOX
  0
BLOCK_RECORD
  5
35
100
AcDbSymbolTableRecord
100
AcDbBlockTableRecord
  2
_EX_INTEGRAL
  0
BLOCK_RECORD
  5
36
100
AcDbSymbolTableRecord
100
AcDbBlockTableRecord
  2
SYM-1
  0
ENDTAB
  0
ENDSEC
  0
SECTION
  2
BLOCKS
  0
BLOCK
  5
D
100
AcDbEntity
  8
0
100
AcDbBlockBegin
  2
*MODEL_SPACE
 70
     0
 10
0.0
 20
0.0
 30
0.0
  3
*MODEL_SPACE
  1

  0
ENDBLK
  5
E
100
AcDbEntity
  8
0
100
AcDbBlockEnd
  0
BLOCK
  5
F
100
AcDbEntity
 67
     1
  8
0
100
AcDbBlockBegin
  2
*PAPER_SPACE
 70
     0
 10
0.0
 20
0.0
 30
0.0
  3
*PAPER_SPACE
  1

  0
ENDBLK
  5
10
100
AcDbEntity
 67
     1
  8
0
100
AcDbBlockEnd
  0
BLOCK
  5
37
100
AcDbEntity
  8
0
100
AcDbBlockBegin
  2
_EX_NORM
 70
     0
 10
0.0
 20
0.0
 30
0.0
  3
_EX_NORM
  1

  0
LINE
  5
38
100
AcDbEntity
  8
0
  6
CONTINUOUS
 62
     0
100
AcDbLine
 10
0.0
 20
0.0
 30
0.0
 11
-1.0
 21
0.0
 31
0.0
  0
LINE
  5
39
100
AcDbEntity
  8
0
  6
CONTINUOUS
 62
     0
100
AcDbLine
 10
0.0
 20
0.0
 30
0.0
 11
-1.0
 21
0.166667
 31
0.0
  0
LINE
  5
3A
100
AcDbEntity
  8
0
  6
CONTINUOUS
 62
     0
100
AcDbLine
 10
0.0
 20
0.0
 30
0.0
 11
-1.0
 21
-0.166667
 31
0.0
  0
ENDBLK
  5
3B
100
AcDbEntity
  8
0
100
AcDbBlockEnd
  0
BLOCK
  5
3C
100
AcDbEntity
  8
0
100
AcDbBlockBegin
  2
_EX_BNORM
 70
     0
 10
0.0
 20
0.0
 30
0.0
  3
_EX_BNORM
  1

  0
LINE
  5
3D
100
AcDbEntity
  8
0
  6
CONTINUOUS
 62
     0
100
AcDbLine
 10
0.0
 20
0.0
 30
0.0
 11
-1.0
 21
0.0
 31
0.0
  0
LINE
  5
3E
100
AcDbEntity
  8
0
  6
CONTINUOUS
 62
     0
100
AcDbLine
 10
0.0
 20
0.0
 30
0.0
 11
-1.0
 21
0.166667
 31
0.0
  0
LINE
  5
3F
100
AcDbEntity
  8
0
  6
CONTINUOUS
 62
     0
100
AcDbLine
 10
0.0
 20
0.0
 30
0.0
 11
-1.0
 21
-0.166667
 31
0.0
  0
LINE
  5
40
100
AcDbEntity
  8
0
  6
CONTINUOUS
 62
     0
100
AcDbLine
 10
0.0
 20
0.0
 30
0.0
 11
-1.0
 21
0.083333
 31
0.0
  0
LINE
  5
41
100
AcDbEntity
  8
0
  6
CONTINUOUS
 62
     0
100
AcDbLine
 10
0.0
 20
0.0
 30
0.0
 11
-1.0
 21
-0.083333
 31
0.0
  0
LINE
  5
42
100
AcDbEntity
  8
0
  6
CONTINUOUS
 62
     0
100
AcDbLine
 10
-1.0
 20
0.166667
 30
0.0
 11
-1.0
 21
-0.166667
 31
0.0
  0
ENDBLK
  5
43
100
AcDbEntity
  8
0
100
AcDbBlockEnd
  0
BLOCK
  5
44
100
AcDbEntity
  8
0
100
AcDbBlockBegin
  2
_EX_BCIR
 70
     0
 10
0.0
 20
0.0
 30
0.0
  3
_EX_BCIR
  1

  0
LINE
  5
45
100
AcDbEntity
  8
0
  6
CONTINUOUS
 62
     0
100
AcDbLine
 10
0.0
 20
0.0
 30
0.0
 11
-1.0
 21
0.0
 31
0.0
  0
CIRCLE
  5
46
100
AcDbEntity
  8
0
  6
CONTINUOUS
 62
     0
100
AcDbCircle
 10
0.0
 20
0.0
 30
0.0
 40
0.5
  0
CIRCLE
  5
47
100
AcDbEntity
  8
0
  6
CONTINUOUS
 62
     0
100
AcDbCircle
 10
0.0
 20
0.0
 30
0.0
 40
0.25
  0
ENDBLK
  5
48
100
AcDbEntity
  8
0
100
AcDbBlockEnd
  0
BLOCK
  5
49
100
AcDbEntity
  8
0
100
AcDbBlockBegin
  2
_EX_RCIVIL
 70
     0
 10
0.0
 20
0.0
 30
0.0
  3
_EX_RCIVIL
  1

  0
LINE
  5
4A
100
AcDbEntity
  8
0
  6
CONTINUOUS
 62
     0
100
AcDbLine
 10
0.0
 20
0.0
 30
0.0
 11
-1.0
 21
0.0
 31
0.0
  0
LINE
  5
4B
100
AcDbEntity
  8
0
  6
CONTINUOUS
 62
     0
100
AcDbLine
 10
-1.0
 20
-0.25
 30
0.0
 11
0.0
 21
-0.25
 31
0.0
  0
LINE
  5
4C
100
AcDbEntity
  8
0
  6
CONTINUOUS
 62
     0
100
AcDbLine
 10
-1.0
 20
-0.125
 30
0.0
 11
0.0
 21
-0.125
 31
0.0
  0
ENDBLK
  5
4D
100
AcDbEntity
  8
0
100
AcDbBlockEnd
  0
BLOCK
  5
4E
100
AcDbEntity
  8
0
100
AcDbBlockBegin
  2
_EX_SLANT
 70
     0
 10
0.0
 20
0.0
 30
0.0
  3
_EX_SLANT
  1

  0
LINE
  5
4F
100
AcDbEntity
  8
0
  6
CONTINUOUS
 62
     0
100
AcDbLine
 10
0.0
 20
0.0
 30
0.0
 11
-1.0
 21
0.0
 31
0.0
  0
LINE
  5
50
100
AcDbEntity
  8
0
  6
CONTINUOUS
 62
     0
100
AcDbLine
 10
0.707107
 20
0.707107
 30
0.0
 11
-0.707107
 21
-0.707107
 31
0.0
  0
ENDBLK
  5
51
100
AcDbEntity
  8
0
100
AcDbBlockEnd
  0
BLOCK
  5
52
100
AcDbEntity
  8
0
100
AcDbBlockBegin
  2
_EX_NONE
 70
     0
 10
0.0
 20
0.0
 30
0.0
  3
_EX_NONE
  1

  0
LINE
  5
53
100
AcDbEntity
  8
0
  6
CONTINUOUS
 62
     0
100
AcDbLine
 10
0.0
 20
0.0
 30
0.0
 11
-1.0
 21
0.0
 31
0.0
  0
ENDBLK
  5
54
100
AcDbEntity
  8
0
100
AcDbBlockEnd
  0
BLOCK
  5
55
100
AcDbEntity
  8
0
100
AcDbBlockBegin
  2
_EX_CIVIL
 70
     0
 10
0.0
 20
0.0
 30
0.0
  3
_EX_CIVIL
  1

  0
LINE
  5
56
100
AcDbEntity
  8
0
  6
CONTINUOUS
 62
     0
100
AcDbLine
 10
0.0
 20
0.0
 30
0.0
 11
-1.0
 21
0.0
 31
0.0
  0
LINE
  5
57
100
AcDbEntity
  8
0
  6
CONTINUOUS
 62
     0
100
AcDbLine
 10
-1.0
 20
0.25
 30
0.0
 11
0.0
 21
0.25
 31
0.0
  0
LINE
  5
58
100
AcDbEntity
  8
0
  6
CONTINUOUS
 62
     0
100
AcDbLine
 10
-1.0
 20
0.125
 30
0.0
 11
0.0
 21
0.125
 31
0.0
  0
ENDBLK
  5
59
100
AcDbEntity
  8
0
100
AcDbBlockEnd
  0
BLOCK
  5
5A
100
AcDbEntity
  8
0
100
AcDbBlockBegin
  2
_EX_WCIR
 70
     0
 10
0.0
 20
0.0
 30
0.0
  3
_EX_WCIR
  1

  0
LINE
  5
5B
100
AcDbEntity
  8
0
  6
CONTINUOUS
 62
     0
100
AcDbLine
 10
0.0
 20
0.0
 30
0.0
 11
-1.0
 21
0.0
 31
0.0
  0
CIRCLE
  5
5C
100
AcDbEntity
  8
0
  6
CONTINUOUS
 62
     0
100
AcDbCircle
 10
0.0
 20
0.0
 30
0.0
 40
0.5
  0
ENDBLK
  5
5D
100
AcDbEntity
  8
0
100
AcDbBlockEnd
  0
BLOCK
  5
5E
100
AcDbEntity
  8
0
100
AcDbBlockBegin
  2
_EX_WCIR2
 70
     0
 10
0.0
 20
0.0
 30
0.0
  3
_EX_WCIR2
  1

  0
LINE
  5
5F
100
AcDbEntity
  8
0
  6
CONTINUOUS
 62
     0
100
AcDbLine
 10
-0.5
 20
0.0
 30
0.0
 11
-1.0
 21
0.0
 31
0.0
  0
CIRCLE
  5
60
100
AcDbEntity
  8
0
  6
CONTINUOUS
 62
     0
100
AcDbCircle
 10
0.0
 20
0.0
 30
0.0
 40
0.5
  0
ENDBLK
  5
61
100
AcDbEntity
  8
0
100
AcDbBlockEnd
  0
BLOCK
  5
62
100
AcDbEntity
  8
0
100
AcDbBlockBegin
  2
_EX_WNORM
 70
     0
 10
0.0
 20
0.0
 30
0.0
  3
_EX_WNORM
  1

  0
LINE
  5
63
100
AcDbEntity
  8
0
  6
CONTINUOUS
 62
     0
100
AcDbLine
 10
-1.0
 20
0.0
 30
0.0
 11
-1.0
 21
0.0
 31
0.0
  0
LINE
  5
64
100
AcDbEntity
  8
0
  6
CONTINUOUS
 62
     0
100
AcDbLine
 10
0.0
 20
0.0
 30
0.0
 11
-1.0
 21
0.166667
 31
0.0
  0
LINE
  5
65
100
AcDbEntity
  8
0
  6
CONTINUOUS
 62
     0
100
AcDbLine
 10
0.0
 20
0.0
 30
0.0
 11
-1.0
 21
-0.166667
 31
0.0
  0
LINE
  5
66
100
AcDbEntity
  8
0
  6
CONTINUOUS
 62
     0
100
AcDbLine
 10
-1.0
 20
0.166667
 30
0.0
 11
-1.0
 21
-0.166667
 31
0.0
  0
ENDBLK
  5
67
100
AcDbEntity
  8
0
100
AcDbBlockEnd
  0
BLOCK
  5
68
100
AcDbEntity
  8
0
100
AcDbBlockBegin
  2
_EX_NNORM
 70
     0
 10
0.0
 20
0.0
 30
0.0
  3
_EX_NNORM
  1

  0
LINE
  5
69
100
AcDbEntity
  8
0
  6
CONTINUOUS
 62
     0
100
AcDbLine
 10
0.0
 20
0.0
 30
0.0
 11
-1.0
 21
0.0
 31
0.0
  0
LINE
  5
6A
100
AcDbEntity
  8
0
  6
CONTINUOUS
 62
     0
100
AcDbLine
 10
0.0
 20
0.0
 30
0.0
 11
-1.0
 21
0.166667
 31
0.0
  0
LINE
  5
6B
100
AcDbEntity
  8
0
  6
CONTINUOUS
 62
     0
100
AcDbLine
 10
0.0
 20
0.0
 30
0.0
 11
-1.0
 21
-0.166667
 31
0.0
  0
LINE
  5
6C
100
AcDbEntity
  8
0
  6
CONTINUOUS
 62
     0
100
AcDbLine
 10
-1.0
 20
0.166667
 30
0.0
 11
-1.0
 21
-0.166667
 31
0.0
  0
ENDBLK
  5
6D
100
AcDbEntity
  8
0
100
AcDbBlockEnd
  0
BLOCK
  5
6E
100
AcDbEntity
  8
0
100
AcDbBlockBegin
  2
_EX_BBOX
 70
     0
 10
0.0
 20
0.0
 30
0.0
  3
_EX_BBOX
  1

  0
LINE
  5
6F
100
AcDbEntity
  8
0
  6
CONTINUOUS
 62
     0
100
AcDbLine
 10
0.0
 20
0.0
 30
0.0
 11
-1.0
 21
0.0
 31
0.0
  0
LINE
  5
70
100
AcDbEntity
  8
0
  6
CONTINUOUS
 62
     0
100
AcDbLine
 10
-0.5
 20
0.5
 30
0.0
 11
0.5
 21
0.5
 31
0.0
  0
LINE
  5
71
100
AcDbEntity
  8
0
  6
CONTINUOUS
 62
     0
100
AcDbLine
 10
0.5
 20
0.5
 30
0.0
 11
0.5
 21
-0.5
 31
0.0
  0
LINE
  5
72
100
AcDbEntity
  8
0
  6
CONTINUOUS
 62
     0
100
AcDbLine
 10
0.5
 20
-0.5
 30
0.0
 11
-0.5
 21
-0.5
 31
0.0
  0
LINE
  5
73
100
AcDbEntity
  8
0
  6
CONTINUOUS
 62
     0
100
AcDbLine
 10
-0.5
 20
-0.5
 30
0.0
 11
-0.5
 21
0.5
 31
0.0
  0
LINE
  5
74
100
AcDbEntity
  8
0
  6
CONTINUOUS
 62
     0
100
AcDbLine
 10
-0.25
 20
0.25
 30
0.0
 11
0.25
 21
0.25
 31
0.0
  0
LINE
  5
75
100
AcDbEntity
  8
0
  6
CONTINUOUS
 62
     0
100
AcDbLine
 10
0.25
 20
0.25
 30
0.0
 11
0.25
 21
-0.25
 31
0.0
  0
LINE
  5
76
100
AcDbEntity
  8
0
  6
CONTINUOUS
 62
     0
100
AcDbLine
 10
0.25
 20
-0.25
 30
0.0
 11
-0.25
 21
-0.25
 31
0.0
  0
LINE
  5
77
100
AcDbEntity
  8
0
  6
CONTINUOUS
 62
     0
100
AcDbLine
 10
-0.25
 20
-0.25
 30
0.0
 11
-0.25
 21
0.25
 31
0.0
  0
ENDBLK
  5
78
100
AcDbEntity
  8
0
100
AcDbBlockEnd
  0
BLOCK
  5
79
100
AcDbEntity
  8
0
100
AcDbBlockBegin
  2
_EX_WBOX
 70
     0
 10
0.0
 20
0.0
 30
0.0
  3
_EX_WBOX
  1

  0
LINE
  5
7A
100
AcDbEntity
  8
0
  6
CONTINUOUS
 62
     0
100
AcDbLine
 10
-0.5
 20
0.0
 30
0.0
 11
-1.0
 21
0.0
 31
0.0
  0
LINE
  5
7B
100
AcDbEntity
  8
0
  6
CONTINUOUS
 62
     0
100
AcDbLine
 10
-0.5
 20
0.5
 30
0.0
 11
0.5
 21
0.5
 31
0.0
  0
LINE
  5
7C
100
AcDbEntity
  8
0
  6
CONTINUOUS
 62
     0
100
AcDbLine
 10
0.5
 20
0.5
 30
0.0
 11
0.5
 21
-0.5
 31
0.0
  0
LINE
  5
7D
100
AcDbEntity
  8
0
  6
CONTINUOUS
 62
     0
100
AcDbLine
 10
0.5
 20
-0.5
 30
0.0
 11
-0.5
 21
-0.5
 31
0.0
  0
LINE
  5
7E
100
AcDbEntity
  8
0
  6
CONTINUOUS
 62
     0
100
AcDbLine
 10
-0.5
 20
-0.5
 30
0.0
 11
-0.5
 21
0.5
 31
0.0
  0
ENDBLK
  5
7F
100
AcDbEntity
  8
0
100
AcDbBlockEnd
  0
BLOCK
  5
80
100
AcDbEntity
  8
0
100
AcDbBlockBegin
  2
_EX_INTEGRAL
 70
     0
 10
0.0
 20
0.0
 30
0.0
  3
_EX_INTEGRAL
  1

  0
LINE
  5
81
100
AcDbEntity
  8
0
  6
CONTINUOUS
 62
     0
100
AcDbLine
 10
0.0
 20
0.0
 30
0.0
 11
-1.0
 21
0.0
 31
0.0
  0
ARC
  5
82
100
AcDbEntity
  8
0
  6
CONTINUOUS
 62
     0
100
AcDbCircle
 10
0.542115
 20
0.164992
 30
0.0
 40
0.56667
100
AcDbArc
 50
73.07249
 51
196.927513
  0
ARC
  5
83
100
AcDbEntity
  8
0
  6
CONTINUOUS
 62
     0
100
AcDbCircle
 10
-0.542115
 20
-0.164992
 30
0.0
 40
0.56667
100
AcDbArc
 50
253.072487
 51
16.927513
  0
ENDBLK
  5
84
100
AcDbEntity
  8
0
100
AcDbBlockEnd
  0
BLOCK
  5
85
100
AcDbEntity
  8
0
100
AcDbBlockBegin
  2
SYM-1
 70
     0
 10
0.0
 20
0.0
 30
0.0
  3
SYM-1
  1

  0
HATCH
  5
86
100
AcDbEntity
  8
0
  6
CONTINUOUS
 62
     3
100
AcDbHatch
 10
0.0
 20
0.0
 30
0.0
210
0.0
220
0.0
230
1.0
  2
SOLID
 70
     1
 71
     1
 91
        1
 92
        1
 93
       16
 72
     1
 10
24.351152239011505
 20
-2.0357142857144446
 11
25.613295096154353
 21
-2.0357142857144446
 72
     1
 10
25.613295096154353
 20
-2.0357142857144446
 11
25.613295096154353
 21
-2.8500000000001648
 72
     1
 10
25.613295096154353
 20
-2.8500000000001648
 11
22.23400938186861
 21
-2.8500000000001648
 72
     1
 10
22.23400938186861
 20
-2.8500000000001648
 11
22.23400938186861
 21
-2.0357142857144446
 72
     1
 10
22.23400938186861
 20
-2.0357142857144446
 11
23.536866524725802
 21
-2.0357142857144446
 72
     1
 10
23.536866524725802
 20
-2.0357142857144446
 11
23.536866524725802
 21
0.3257142857141346
 72
     1
 10
23.536866524725802
 20
0.3257142857141346
 11
22.519009381868621
 21
0.3257142857141346
 72
     1
 10
22.519009381868621
 20
0.3257142857141346
 11
22.519009381868621
 21
1.1399999999998514
 72
     1
 10
22.519009381868621
 20
1.1399999999998514
 11
23.536866524725802
 21
1.1399999999998514
 72
     1
 10
23.536866524725802
 20
1.1399999999998514
 11
23.536866524725802
 21
2.8499999999998487
 72
     1
 10
23.536866524725802
 20
2.8499999999998487
 11
24.351152239011505
 21
2.8499999999998487
 72
     1
 10
24.351152239011505
 20
2.8499999999998487
 11
24.351152239011505
 21
1.1399999999998514
 72
     1
 10
24.351152239011505
 20
1.1399999999998514
 11
25.531866524725821
 21
1.1399999999998514
 72
     1
 10
25.531866524725821
 20
1.1399999999998514
 11
25.531866524725821
 21
0.3257142857141346
 72
     1
 10
25.531866524725821
 20
0.3257142857141346
 11
24.351152239011505
 21
0.3257142857141346
 72
     1
 10
24.351152239011505
 20
0.3257142857141346
 11
24.351152239011505
 21
-2.0357142857144446
 97
        0
 75
     0
 76
     1
 98
        1
 10
0.0
 20
0.0
  0
HATCH
  5
87
100
AcDbEntity
  8
0
  6
CONTINUOUS
 62
     3
100
AcDbHatch
 10
0.0
 20
0.0
 30
0.0
210
0.0
220
0.0
230
1.0
  2
SOLID
 70
     1
 71
     1
 91
        1
 92
        1
 93
       17
 72
     2
 10
15.796286246552746
 20
4.4303755974531924
 40
7.328571428571454
 50
44.165469
 51
51.472792
 73
     0
 72
     1
 10
20.361152239011439
 20
-1.3028571428572775
 11
19.948878200429583
 21
-0.5887775613918898
 72
     2
 10
15.796286246552746
 20
4.4303755974531924
 40
6.5142857142857364
 50
309.602625
 51
331.307968
 73
     1
 72
     1
 10
21.510701937024301
 20
1.3028571428570004
 11
20.157580810440017
 21
1.3028571428570004
 72
     1
 10
20.157580810440017
 20
1.3028571428570004
 11
20.157580810440017
 21
2.0357142857141319
 72
     1
 10
20.157580810440017
 20
2.0357142857141319
 11
21.053295096154336
 21
2.0357142857141319
 72
     1
 10
21.053295096154336
 20
2.0357142857141319
 11
21.053295096154336
 21
2.8499999999998487
 72
     1
 10
21.053295096154336
 20
2.8499999999998487
 11
21.786152239011507
 21
2.8499999999998487
 72
     1
 10
21.786152239011507
 20
2.8499999999998487
 11
21.786152239011507
 21
2.0357142857141319
 72
     1
 10
21.786152239011507
 20
2.0357142857141319
 11
22.722580810439986
 21
2.0357142857141319
 72
     2
 10
15.796286246552746
 20
4.4303755974531924
 40
7.328571428571454
 50
19.072051
 51
32.871988
 73
     0
 72
     1
 10
21.951445818831196
 20
0.4526916201288422
 11
22.926152239011437
 21
-0.4885714285715821
 72
     1
 10
22.926152239011437
 20
-0.4885714285715821
 11
22.350277580116831
 21
-1.0644460874662265
 72
     1
 10
22.350277580116831
 20
-1.0644460874662265
 11
21.786152239011507
 21
-0.5196765779765897
 72
     1
 10
21.786152239011507
 20
-0.5196765779765897
 11
21.786152239011507
 21
-2.8500000000001648
 72
     1
 10
21.786152239011507
 20
-2.8500000000001648
 11
21.053295096154336
 21
-2.8500000000001648
 72
     1
 10
21.053295096154336
 20
-2.8500000000001648
 11
21.053295096154336
 21
-0.6756813096801793
 97
        0
 75
     0
 76
     1
 98
        1
 10
0.0
 20
0.0
  0
HATCH
  5
88
100
AcDbEntity
  8
0
  6
CONTINUOUS
 62
     3
100
AcDbHatch
 10
0.0
 20
0.0
 30
0.0
210
0.0
220
0.0
230
1.0
  2
SOLID
 70
     1
 71
     1
 91
        1
 92
        1
 93
       12
 72
     2
 10
26.09465466477446
 20
-6.5604295733743392
 40
11.481428571428609
 50
150.903074
 51
156.790773
 73
     1
 72
     1
 10
15.542396441700383
 20
-2.035714285714505
 11
18.049394029288031
 21
-2.0357142857144055
 72
     2
 10
10.927987441101074
 20
-4.0835590566205937
 40
7.4100000000000241
 50
16.043216
 51
21.362935
 73
     1
 72
     1
 10
17.828858648663306
 20
-1.3842857142858769
 11
18.610437953297115
 21
-1.3842857142858769
 72
     2
 10
10.927987441101074
 20
-4.0835590566205937
 40
8.1428571428571708
 50
340.64078
 51
351.286733
 73
     0
 72
     1
 10
18.976866524725686
 20
-2.8500000000001648
 11
14.457580810439971
 21
-2.8500000000001648
 72
     2
 10
26.09465466477446
 20
-6.5604295733743392
 40
12.214285714285754
 50
197.684652
 51
207.200855
 73
     0
 72
     1
 10
15.231152239011401
 20
-0.9771428571430043
 11
14.091152239011485
 21
-0.9771428571430043
 72
     1
 10
14.091152239011485
 20
-0.9771428571430043
 11
14.091152239011485
 21
-0.162857142857284
 72
     1
 10
14.091152239011485
 20
-0.162857142857284
 11
19.302580810440098
 21
-0.162857142857284
 72
     1
 10
19.302580810440098
 20
-0.162857142857284
 11
19.302580810440098
 21
-0.9771428571430043
 72
     1
 10
19.302580810440098
 20
-0.9771428571430043
 11
16.062201750099412
 21
-0.9771428571430043
 97
        0
 75
     0
 76
     1
 98
        1
 10
0.0
 20
0.0
  0
HATCH
  5
89
100
AcDbEntity
  8
0
  6
CONTINUOUS
 62
     3
100
AcDbHatch
 10
0.0
 20
0.0
 30
0.0
210
0.0
220
0.0
230
1.0
  2
SOLID
 70
     1
 71
     1
 91
        1
 92
        1
 93
       10
 72
     2
 10
26.143491684008573
 20
11.064410217386417
 40
13.028571428571473
 50
129.545698
 51
136.474664
 73
     0
 72
     1
 10
16.696866524725998
 20
2.0919553376225579
 11
16.696866524725998
 21
2.8499999999998487
 72
     1
 10
16.696866524725998
 20
2.8499999999998487
 11
17.104009381868686
 21
2.8499999999998487
 72
     2
 10
26.143491684008573
 20
11.064410217386417
 40
12.214285714285754
 50
222.262231
 51
237.763996
 73
     1
 72
     1
 10
19.628295096154382
 20
0.7328571428570001
 11
19.100346295490944
 21
0.1036722629605507
 72
     2
 10
26.143491684008573
 20
11.064410217386417
 40
13.028571428571473
 50
122.723968
 51
128.230009
 73
     0
 72
     1
 10
18.08115223901148
 20
0.830038905819066
 11
18.08115223901148
 21
0.2035714285712729
 72
     1
 10
18.08115223901148
 20
0.2035714285712729
 11
16.696866524725998
 21
0.2035714285712729
 72
     1
 10
16.696866524725998
 20
0.2035714285712729
 11
16.696866524725998
 21
1.0178571428569896
 72
     1
 10
16.696866524725998
 20
1.0178571428569896
 11
17.848285550942784
 21
1.0178571428569896
 97
        0
 75
     0
 76
     1
 98
        1
 10
0.0
 20
0.0
  0
HATCH
  5
8A
100
AcDbEntity
  8
0
  6
CONTINUOUS
 62
     3
100
AcDbHatch
 10
0.0
 20
0.0
 30
0.0
210
0.0
220
0.0
230
1.0
  2
SOLID
 70
     1
 71
     1
 91
        1
 92
        1
 93
       10
 72
     2
 10
7.2502413654429532
 20
11.064410217386417
 40
13.028571428571473
 50
51.769991
 51
57.276032
 73
     0
 72
     1
 10
14.293386753960569
 20
0.1036722629605329
 11
13.76543795329713
 21
0.7328571428569894
 72
     2
 10
7.2502413654429532
 20
11.064410217386417
 40
12.214285714285754
 50
302.236004
 51
317.737769
 73
     1
 72
     1
 10
16.289723667582841
 20
2.8499999999998487
 11
16.696866524725998
 21
2.8499999999998487
 72
     1
 10
16.696866524725998
 20
2.8499999999998487
 11
16.696866524725998
 21
2.0919553376230482
 72
     2
 10
7.2502413654429532
 20
11.064410217386417
 40
13.028571428571473
 50
43.525336
 51
50.454302
 73
     0
 72
     1
 10
15.545447498508743
 20
1.0178571428569896
 11
16.696866524725998
 21
1.0178571428569896
 72
     1
 10
16.696866524725998
 20
1.0178571428569896
 11
16.696866524725998
 21
0.2035714285712729
 72
     1
 10
16.696866524725998
 20
0.2035714285712729
 11
15.312580810440046
 21
0.2035714285712729
 72
     1
 10
15.312580810440046
 20
0.2035714285712729
 11
15.312580810440046
 21
0.8300389058190589
 97
        0
 75
     0
 76
     1
 98
        1
 10
0.0
 20
0.0
  0
HATCH
  5
8B
100
AcDbEntity
  8
0
  6
CONTINUOUS
 62
     3
100
AcDbHatch
 10
0.0
 20
0.0
 30
0.0
210
0.0
220
0.0
230
1.0
  2
SOLID
 70
     1
 71
     1
 91
        1
 92
        1
 93
       18
 72
     2
 10
1.2571935216656343
 20
-0.8093264034321166
 40
11.400000000000038
 50
14.02954
 51
18.723021
 73
     1
 72
     1
 10
12.053921279331213
 20
2.8499999999998487
 11
12.910437953297141
 21
2.8499999999998487
 72
     2
 10
1.2571935216656343
 20
-0.8093264034321166
 40
12.214285714285754
 50
342.566782
 51
346.922981
 73
     0
 72
     1
 10
13.15472366758285
 20
1.9542857142855716
 11
13.480437953297177
 21
1.9542857142855716
 72
     1
 10
13.480437953297177
 20
1.9542857142855716
 11
13.480437953297177
 21
1.1399999999998407
 72
     1
 10
13.480437953297177
 20
1.1399999999998407
 11
11.958092734747289
 21
1.1399999999998514
 72
     2
 10
20.401866524725683
 20
2.4835714285712918
 40
8.5500000000000291
 50
189.041096
 51
204.65198
 73
     1
 72
     2
 10
14.334076117775972
 20
-0.301141422634494
 40
1.8737206404808271
 50
204.65198
 51
242.897449
 73
     1
 72
     1
 10
13.480437953297177
 20
-1.9691135215345774
 11
13.480437953297177
 21
-2.8500000000001648
 72
     2
 10
14.334076117775972
 20
-0.301141422634494
 40
2.6880063547665438
 50
108.516212
 51
155.34802
 73
     0
 72
     2
 10
20.401866524725683
 20
2.4835714285712918
 40
9.3642857142857441
 50
155.34802
 51
171.750831
 73
     0
 72
     1
 10
11.134468683092756
 20
1.1399999999998549
 11
8.0247236675828972
 21
1.1399999999998407
 72
     1
 10
8.0247236675828972
 20
1.1399999999998407
 11
8.0247236675828972
 21
1.9542857142855716
 72
     1
 10
8.0247236675828972
 20
1.9542857142855716
 11
11.050355927894167
 21
1.9542857142855716
 72
     1
 10
11.050355927894167
 20
1.9542857142855716
 11
11.019076895792274
 21
2.8499999999998487
 72
     1
 10
11.019076895792274
 20
2.8499999999998487
 11
11.833858953292697
 21
2.8499999999998487
 72
     1
 10
11.833858953292697
 20
2.8499999999998487
 11
11.865137985394604
 21
1.9542857142855716
 72
     1
 10
11.865137985394604
 20
1.9542857142855716
 11
12.317141444816265
 21
1.9542857142855716
 97
        0
 75
     0
 76
     1
 98
        1
 10
0.0
 20
0.0
  0
HATCH
  5
8C
100
AcDbEntity
  8
0
  6
CONTINUOUS
 62
     3
100
AcDbHatch
 10
0.0
 20
0.0
 30
0.0
210
0.0
220
0.0
230
1.0
  2
SOLID
 70
     1
 71
     1
 91
        1
 92
        1
 93
       12
 72
     2
 10
5.4617420309248317
 20
38.027820957415145
 40
39.900000000000134
 50
276.500664
 51
278.269357
 73
     1
 72
     1
 10
11.200437953297204
 20
-1.457332823601817
 11
11.20043795329719
 21
-2.2800000000001504
 72
     2
 10
5.4617420309248317
 20
38.027820957415145
 40
40.71428571428585
 50
81.897153
 51
86.39082
 73
     0
 72
     1
 10
8.024723667582883
 20
-2.6057142857144413
 11
8.024723667582883
 21
-1.7897772264302034
 72
     2
 10
5.4617420309248317
 20
38.027820957415145
 40
39.900000000000134
 50
273.682937
 51
275.325087
 73
     1
 72
     1
 10
9.1647236675828836
 20
-1.6999769553635602
 11
9.1647236675828836
 21
-0.4071428571430218
 72
     1
 10
9.1647236675828836
 20
-0.4071428571430218
 11
8.0247236675828972
 21
-0.4071428571430218
 72
     1
 10
8.0247236675828972
 20
-0.4071428571430218
 11
8.0247236675828972
 21
0.4071428571426949
 72
     1
 10
8.0247236675828972
 20
0.4071428571426949
 11
10.95615223901148
 21
0.4071428571426949
 72
     1
 10
10.95615223901148
 20
0.4071428571426949
 11
10.95615223901148
 21
-0.4071428571430218
 72
     1
 10
10.95615223901148
 20
-0.4071428571430218
 11
9.9790093818686287
 21
-0.4071428571430218
 72
     1
 10
9.9790093818686287
 20
-0.4071428571430218
 11
9.9790093818685861
 21
-1.6156437710884397
 97
        0
 75
     0
 76
     1
 98
        1
 10
0.0
 20
0.0
  0
HATCH
  5
8D
100
AcDbEntity
  8
0
  6
CONTINUOUS
 62
     3
100
AcDbHatch
 10
0.0
 20
0.0
 30
0.0
210
0.0
220
0.0
230
1.0
  2
SOLID
 70
     1
 71
     1
 91
        1
 92
        1
 93
       30
 72
     2
 10
-1.8979256098940809
 20
4.1519130391923014
 40
8.9164285714286002
 50
37.940537
 51
46.713808
 73
     0
 72
     1
 10
4.21556076329842
 20
-2.3386942385728418
 11
3.6682950961542744
 21
-1.7914285714286962
 72
     2
 10
-1.8979256098940809
 20
4.1519130391923014
 40
8.1428571428571743
 50
313.123325
 51
325.95222
 73
     1
 72
     1
 10
4.8490093818684983
 20
-0.4071428571430076
 11
3.8718665247257533
 21
-0.4071428571430076
 72
     1
 10
3.8718665247257533
 20
-0.4071428571430076
 11
3.8718665247257533
 21
0.4071428571427092
 72
     1
 10
3.8718665247257533
 20
0.4071428571427092
 11
5.1340093818686157
 21
0.4071428571427092
 72
     1
 10
5.1340093818686157
 20
0.4071428571427092
 11
5.1340093818686157
 21
1.2214285714284152
 72
     1
 10
5.1340093818686157
 20
1.2214285714284152
 11
4.7280236542212677
 21
1.2214285714284152
 72
     2
 10
-3.9789687629962955
 20
2.9438069062169916
 40
8.8757142857143183
 50
11.189535
 51
14.746058
 73
     0
 72
     1
 10
4.6044101437030562
 20
0.6846232869284066
 11
3.9125808104399411
 21
0.9364285714284044
 72
     2
 10
-3.9789687629962955
 20
2.9438069062169916
 40
8.1428571428571743
 50
345.728313
 51
357.620387
 73
     1
 72
     1
 10
4.1568665247257641
 20
2.6057142857165694
 11
4.8844833536651819
 21
2.4774158071570227
 72
     2
 10
-3.9789687629962955
 20
2.9438069062169916
 40
8.8757142857143183
 50
3.012102
 51
6.401006
 73
     0
 72
     1
 10
4.8414139890361767
 20
1.9542857142855716
 11
5.1340093818686157
 21
1.9542857142855716
 72
     1
 10
5.1340093818686157
 20
1.9542857142855716
 11
5.1340093818686157
 21
2.8499999999998487
 72
     1
 10
5.1340093818686157
 20
2.8499999999998487
 11
5.948295096154304
 21
2.8499999999998487
 72
     1
 10
5.948295096154304
 20
2.8499999999998487
 11
5.948295096154304
 21
1.9542857142855716
 72
     1
 10
5.948295096154304
 20
1.9542857142855716
 11
7.0475808104400599
 21
1.9542857142855716
 72
     1
 10
7.0475808104400599
 20
1.9542857142855716
 11
7.0475808104400599
 21
1.2214285714284152
 72
     1
 10
7.0475808104400599
 20
1.2214285714284152
 11
5.948295096154304
 21
1.2214285714284152
 72
     1
 10
5.948295096154304
 20
1.2214285714284152
 11
5.948295096154304
 21
0.4071428571427092
 72
     1
 10
5.948295096154304
 20
0.4071428571427092
 11
7.2104379532971521
 21
0.4071428571427092
 72
     1
 10
7.2104379532971521
 20
0.4071428571427092
 11
7.2104379532971521
 21
-0.4071428571430076
 72
     1
 10
7.2104379532971521
 20
-0.4071428571430076
 11
6.2332950961542579
 21
-0.4071428571430076
 72
     2
 10
12.98023008791683
 20
4.1519130391922907
 40
8.1428571428571743
 50
214.04778
 51
226.876675
 73
     1
 72
     1
 10
7.4140093818684889
 20
-1.7914285714286962
 11
6.866743714724322
 21
-2.3386942385728453
 72
     2
 10
12.98023008791683
 20
4.1519130391922907
 40
8.9164285714286002
 50
133.286192
 51
142.059463
 73
     0
 72
     1
 10
5.948295096154304
 20
-1.330293518482641
 11
5.948295096154304
 21
-2.8500000000001648
 72
     1
 10
5.948295096154304
 20
-2.8500000000001648
 11
5.1340093818686157
 21
-2.8500000000001648
 72
     1
 10
5.1340093818686157
 20
-2.8500000000001648
 11
5.1340093818686157
 21
-1.3302935184824136
 97
        0
 75
     0
 76
     1
 98
        1
 10
0.0
 20
0.0
  0
HATCH
  5
8E
100
AcDbEntity
  8
0
  6
CONTINUOUS
 62
     3
100
AcDbHatch
 10
0.0
 20
0.0
 30
0.0
210
0.0
220
0.0
230
1.0
  2
SOLID
 70
     1
 71
     1
 91
        1
 92
        1
 93
       19
 72
     2
 10
-5.2499698511775321
 20
3.0651230633969284
 40
8.8757142857143165
 50
27.683433
 51
32.280505
 73
     0
 72
     1
 10
2.2539459810095721
 20
-1.6750827617845943
 11
1.6732950961542841
 21
-1.2214285714287314
 72
     2
 10
-5.2499698511775321
 20
3.0651230633969284
 40
8.1428571428571708
 50
328.236207
 51
344.845745
 73
     1
 72
     1
 10
2.6097236675827773
 20
0.9364285714284151
 11
1.8768665247257346
 21
0.9364285714284151
 72
     1
 10
1.8768665247257346
 20
0.9364285714284151
 11
1.8768665247257346
 21
1.7507142857141353
 72
     1
 10
1.8768665247257346
 20
1.7507142857141353
 11
2.6097236675829052
 21
1.7507142857141353
 72
     1
 10
2.6097236675829052
 20
1.7507142857141353
 11
2.6097236675829052
 21
2.8499999999998487
 72
     1
 10
2.6097236675829052
 20
2.8499999999998487
 11
3.4240093818685935
 21
2.8499999999998487
 72
     1
 10
3.4240093818685935
 20
2.8499999999998487
 11
3.4240093818685935
 21
1.7507142857141353
 72
     1
 10
3.4240093818685935
 20
1.7507142857141353
 11
3.7904379532971788
 21
1.7507142857141353
 72
     1
 10
3.7904379532971788
 20
1.7507142857141353
 11
3.7904379532971788
 21
0.9364285714284151
 72
     1
 10
3.7904379532971788
 20
0.9364285714284151
 11
3.4240093818685367
 21
0.9364285714284151
 72
     1
 10
3.4240093818685367
 20
0.9364285714284151
 11
3.8718665247257533
 21
0.2968222855516665
 72
     1
 10
3.8718665247257533
 20
0.2968222855516665
 11
3.8718665247257533
 21
-0.1989042363292235
 72
     1
 10
3.8718665247257533
 20
-0.1989042363292235
 11
3.6275808104399871
 21
-0.4900326139487277
 72
     1
 10
3.6275808104399871
 20
-0.4900326139487277
 11
3.4240093818685935
 21
-0.1993024840048498
 72
     1
 10
3.4240093818685935
 20
-0.1993024840048498
 11
3.4240093818685935
 21
-2.8500000000001648
 72
     1
 10
3.4240093818685935
 20
-2.8500000000001648
 11
2.6097236675829052
 21
-2.8500000000001648
 72
     1
 10
2.6097236675829052
 20
-2.8500000000001648
 11
2.6097236675829052
 21
-1.0584096299120844
 97
        0
 75
     0
 76
     1
 98
        1
 10
0.0
 20
0.0
  0
HATCH
  5
8F
100
AcDbEntity
  8
0
  6
CONTINUOUS
 62
     3
100
AcDbHatch
 10
0.0
 20
0.0
 30
0.0
210
0.0
220
0.0
230
1.0
  2
SOLID
 70
     1
 71
     1
 91
        1
 92
        1
 93
        8
 72
     2
 10
-1.8298808996504405
 20
-0.4560000000002766
 40
1.596000000000013
 50
270.0
 51
330.0
 73
     1
 72
     2
 10
-2.619696067901863
 20
-0.00000000000027
 40
2.508000000000012
 50
330.0
 51
30.0
 73
     1
 72
     2
 10
-1.8298808996504405
 20
0.4559999999997331
 40
1.5960000000000121
 50
30.0
 51
90.0
 73
     1
 72
     1
 10
-1.82988089965
 20
2.0519999999997438
 11
-1.82988089965
 21
2.9639999999999276
 72
     2
 10
-1.8298808996504974
 20
0.4559999999999214
 40
2.508000000000008
 50
270.0
 51
330.0
 73
     0
 72
     2
 10
-2.6196960679017494
 20
-0.0000000000001243
 40
3.420000000000015
 50
330.0
 51
30.0
 73
     0
 72
     2
 10
-1.8298808996503837
 20
-0.456000000000369
 40
2.5080000000000053
 50
30.0
 51
90.0
 73
     0
 72
     1
 10
-1.82988089965
 20
-2.9640000000003752
 11
-1.82988089965
 21
-2.0520000000002909
 97
        0
 75
     0
 76
     1
 98
        1
 10
0.0
 20
0.0
  0
HATCH
  5
90
100
AcDbEntity
  8
0
  6
CONTINUOUS
 62
     3
100
AcDbHatch
 10
0.0
 20
0.0
 30
0.0
210
0.0
220
0.0
230
1.0
  2
SOLID
 70
     1
 71
     1
 91
        1
 92
        1
 93
        8
 72
     2
 10
-1.8298808996503837
 20
-0.456000000000369
 40
2.5080000000000053
 50
90.0
 51
150.0
 73
     0
 72
     2
 10
-1.0400657313991175
 20
-0.0000000000003126
 40
3.4200000000000181
 50
150.0
 51
210.0
 73
     0
 72
     2
 10
-1.8298808996504974
 20
0.4559999999999214
 40
2.508000000000008
 50
210.0
 51
270.0
 73
     0
 72
     1
 10
-1.82988089965
 20
2.9639999999999276
 11
-1.82988089965
 21
2.0519999999997438
 72
     2
 10
-1.8298808996504405
 20
0.4559999999997331
 40
1.5960000000000121
 50
90.0
 51
150.0
 73
     1
 72
     2
 10
-1.040065731399018
 20
-0.00000000000027
 40
2.5080000000000129
 50
150.0
 51
210.0
 73
     1
 72
     2
 10
-1.8298808996504405
 20
-0.4560000000002766
 40
1.596000000000013
 50
210.0
 51
270.0
 73
     1
 72
     1
 10
-1.82988089965
 20
-2.0520000000002909
 11
-1.82988089965
 21
-2.9640000000003752
 97
        0
 75
     0
 76
     1
 98
        1
 10
0.0
 20
0.0
  0
HATCH
  5
91
100
AcDbEntity
  8
0
  6
CONTINUOUS
 62
     3
100
AcDbHatch
 10
0.0
 20
0.0
 30
0.0
210
0.0
220
0.0
230
1.0
  2
SOLID
 70
     1
 71
     1
 91
        1
 92
        1
 93
        4
 72
     1
 10
-5.3638808996504608
 20
-1.0260000000002698
 11
-6.2758808996504385
 21
-1.0260000000002698
 72
     1
 10
-6.2758808996504385
 20
-1.0260000000002698
 11
-6.2758808996504385
 21
-0.1140000000002743
 72
     1
 10
-6.2758808996504385
 20
-0.1140000000002743
 11
-5.3638808996504608
 21
-0.1140000000002743
 72
     1
 10
-5.3638808996504608
 20
-0.1140000000002743
 11
-5.3638808996504608
 21
-1.0260000000003267
 97
        0
 75
     0
 76
     1
 98
        1
 10
0.0
 20
0.0
  0
HATCH
  5
92
100
AcDbEntity
  8
0
  6
CONTINUOUS
 62
     3
100
AcDbHatch
 10
0.0
 20
0.0
 30
0.0
210
0.0
220
0.0
230
1.0
  2
SOLID
 70
     1
 71
     1
 91
        1
 92
        1
 93
       16
 72
     1
 10
-9.6958808996504686
 20
1.9379999999997324
 11
-10.949880899650459
 21
1.9379999999997324
 72
     1
 10
-10.949880899650459
 20
1.9379999999997324
 11
-11.177880899650468
 21
0.6839999999997275
 72
     1
 10
-11.177880899650468
 20
0.6839999999997275
 11
-11.861880899650437
 21
0.6839999999997275
 72
     1
 10
-11.861880899650437
 20
0.6839999999997275
 11
-11.861880899650437
 21
2.8499999999997421
 72
     1
 10
-11.861880899650437
 20
2.8499999999997421
 11
-6.6178808996504515
 21
2.8499999999997421
 72
     1
 10
-6.6178808996504515
 20
2.8499999999997421
 11
-6.6178808996504515
 21
0.6839999999997275
 72
     1
 10
-6.6178808996504515
 20
0.6839999999997275
 11
-7.3018808996504205
 21
0.6839999999997275
 72
     1
 10
-7.3018808996504205
 20
0.6839999999997275
 11
-7.5298808996504292
 21
1.9379999999997324
 72
     1
 10
-7.5298808996504292
 20
1.9379999999997324
 11
-8.7838808996504767
 21
1.9379999999997324
 72
     1
 10
-8.7838808996504767
 20
1.9379999999997324
 11
-8.7838808996504341
 21
-1.9380000000002759
 72
     1
 10
-8.7838808996504341
 20
-1.9380000000002759
 11
-7.8718808996504421
 21
-2.1660000000002846
 72
     1
 10
-7.8718808996504421
 20
-2.1660000000002846
 11
-7.8718808996504421
 21
-2.8500000000002856
 72
     1
 10
-7.8718808996504421
 20
-2.8500000000002856
 11
-10.607880899650446
 21
-2.8500000000002856
 72
     1
 10
-10.607880899650446
 20
-2.8500000000002856
 11
-10.607880899650446
 21
-2.1660000000002846
 72
     1
 10
-10.607880899650446
 20
-2.1660000000002846
 11
-9.6958808996504686
 21
-1.9380000000002759
 72
     1
 10
-9.6958808996504686
 20
-1.9380000000002759
 11
-9.6958808996504686
 21
1.9379999999997324
 97
        0
 75
     0
 76
     1
 98
        1
 10
0.0
 20
0.0
  0
HATCH
  5
93
100
AcDbEntity
  8
0
  6
CONTINUOUS
 62
     3
100
AcDbHatch
 10
0.0
 20
0.0
 30
0.0
210
0.0
220
0.0
230
1.0
  2
SOLID
 70
     1
 71
     1
 91
        1
 92
        1
 93
        4
 72
     1
 10
-13.115880899650485
 20
-1.0260000000002698
 11
-13.115880899650428
 21
-0.1140000000002175
 72
     1
 10
-13.115880899650428
 20
-0.1140000000002175
 11
-12.20388089965045
 21
-0.1140000000002743
 72
     1
 10
-12.20388089965045
 20
-0.1140000000002743
 11
-12.20388089965045
 21
-1.0260000000002698
 72
     1
 10
-12.20388089965045
 20
-1.0260000000002698
 11
-13.115880899650428
 21
-1.0260000000002698
 97
        0
 75
     0
 76
     1
 98
        1
 10
0.0
 20
0.0
  0
HATCH
  5
94
100
AcDbEntity
  8
0
  6
CONTINUOUS
 62
     3
100
AcDbHatch
 10
0.0
 20
0.0
 30
0.0
210
0.0
220
0.0
230
1.0
  2
SOLID
 70
     1
 71
     1
 91
        1
 92
        1
 93
       12
 72
     1
 10
-14.141880899650467
 20
2.8499999999997421
 11
-14.141880899650467
 21
2.1659999999997304
 72
     1
 10
-14.141880899650467
 20
2.1659999999997304
 11
-15.053880899650444
 21
1.9379999999997324
 72
     1
 10
-15.053880899650444
 20
1.9379999999997324
 11
-15.053880899650444
 21
-1.9380000000002759
 72
     1
 10
-15.053880899650444
 20
-1.9380000000002759
 11
-14.141880899650467
 21
-2.1660000000002846
 72
     1
 10
-14.141880899650467
 20
-2.1660000000002846
 11
-14.141880899650467
 21
-2.8500000000002856
 72
     1
 10
-14.141880899650467
 20
-2.8500000000002856
 11
-16.877880899650467
 21
-2.8500000000002856
 72
     1
 10
-16.877880899650467
 20
-2.8500000000002856
 11
-16.877880899650467
 21
-2.1660000000002846
 72
     1
 10
-16.877880899650467
 20
-2.1660000000002846
 11
-15.965880899650482
 21
-1.9380000000002759
 72
     1
 10
-15.965880899650482
 20
-1.9380000000002759
 11
-15.965880899650482
 21
1.9379999999997324
 72
     1
 10
-15.965880899650482
 20
1.9379999999997324
 11
-16.877880899650467
 21
2.165999999999741
 72
     1
 10
-16.877880899650467
 20
2.165999999999741
 11
-16.877880899650467
 21
2.8499999999997421
 72
     1
 10
-16.877880899650467
 20
2.8499999999997421
 11
-14.141880899650467
 21
2.8499999999997421
 97
        0
 75
     0
 76
     1
 98
        1
 10
0.0
 20
0.0
  0
HATCH
  5
95
100
AcDbEntity
  8
0
  6
CONTINUOUS
 62
     3
100
AcDbHatch
 10
0.0
 20
0.0
 30
0.0
210
0.0
220
0.0
230
1.0
  2
SOLID
 70
     1
 71
     1
 91
        1
 92
        1
 93
       15
 72
     2
 10
-23.082241990843084
 20
-0.0000000000001492
 40
2.531053105310535
 50
124.301153
 51
180.0
 73
     0
 72
     1
 10
-25.613295096153617
 20
0.0
 11
-24.658234262528236
 21
0.0
 72
     2
 10
-22.195587997901765
 20
-0.000000000000135
 40
2.46264626462647
 50
180.0
 51
199.464384
 73
     1
 72
     2
 10
-24.557343260027135
 20
0.2731786481661374
 40
1.094509450945121
 50
272.086657
 51
294.619977
 73
     1
 72
     2
 10
-24.243863734539655
 20
-0.4108897586745677
 40
0.342034203420344
 50
294.619977
 51
0.0
 73
     1
 72
     1
 10
-23.901829531119287
 20
-0.4108897586745677
 11
-23.901829531119287
 21
0.0
 72
     1
 10
-23.901829531119287
 20
0.0
 11
-23.080947442910482
 21
0.0
 72
     1
 10
-23.080947442910482
 20
0.0
 11
-23.080947442910482
 21
-0.4116155274721614
 72
     2
 10
-22.73891323949012
 20
-0.4116155274721614
 40
0.34203420342033
 50
180.0
 51
245.380023
 73
     1
 72
     2
 10
-22.425433714002583
 20
0.2724528793686645
 40
1.0945094509452411
 50
245.380023
 51
267.913343
 73
     1
 72
     1
 10
-22.465285876753814
 20
-0.8213308027789985
 11
-22.465285876753814
 21
-1.0265513248311819
 72
     1
 10
-22.465285876753814
 20
-1.0265513248311819
 11
-24.434073870576871
 21
-1.0265513248311962
 72
     2
 10
-22.195587997901708
 20
-0.000000000000135
 40
2.4626462646264669
 50
204.635803
 51
268.19864
 73
     1
 72
     1
 10
-22.272999999999005
 20
-2.4614292609397985
 11
-22.272999999999005
 21
-2.8039503813289706
 72
     2
 10
-22.195587997901765
 20
1.2997299729972909
 40
4.1044104410441236
 50
91.080702
 51
124.301153
 73
     0
 97
        0
 75
     0
 76
     1
 98
        1
 10
0.0
 20
0.0
  0
HATCH
  5
96
100
AcDbEntity
  8
0
  6
CONTINUOUS
 62
     3
100
AcDbHatch
 10
0.0
 20
0.0
 30
0.0
210
0.0
220
0.0
230
1.0
  2
SOLID
 70
     1
 71
     1
 91
        1
 92
        1
 93
       24
 72
     2
 10
-22.67055612196938
 20
0.3420342034202015
 40
0.342034203420347
 50
90.0
 51
157.380135
 73
     1
 72
     2
 10
-21.849674033760575
 20
-0.0000000000001101
 40
1.231323132313237
 50
157.380135
 51
180.0
 73
     1
 72
     1
 10
-23.080997166073811
 20
0.0
 11
-23.901829531119287
 21
0.0
 72
     1
 10
-23.901829531119287
 20
0.0
 11
-23.901829531119287
 21
1.7757720729310194
 72
     2
 10
-22.195587997901765
 20
-0.000000000000135
 40
2.46264626462647
 50
133.856042
 51
180.0
 73
     1
 72
     1
 10
-24.658234262528236
 20
0.0
 11
-25.613295096153617
 21
0.0
 72
     2
 10
-23.082241990843084
 20
-0.0000000000001492
 40
2.531053105310535
 50
180.0
 51
235.698847
 73
     0
 72
     2
 10
-22.195587997901708
 20
-1.2997299729975893
 40
4.1044104410441324
 50
235.698847
 51
245.436008
 73
     0
 72
     1
 10
-23.901829531119287
 20
2.4332212587861193
 11
-23.901829531119287
 21
2.8049575222742433
 72
     2
 10
-24.243863734539655
 20
2.8049575222742433
 40
0.3420342034203421
 50
0.0
 51
65.380023
 73
     1
 72
     2
 10
-24.557343260027135
 20
2.1208891154335525
 40
1.0945094509450961
 50
65.380023
 51
87.913343
 73
     1
 72
     1
 10
-24.517491097275904
 20
3.2146727975810734
 11
-24.517491097275904
 21
3.4198933196332746
 72
     1
 10
-24.517491097275904
 20
3.4198933196332746
 11
-22.465285876753814
 21
3.4198933196332746
 72
     1
 10
-22.465285876753814
 20
3.4198933196332746
 11
-22.465285876753814
 21
3.2146727975810769
 72
     2
 10
-22.425433714002583
 20
2.1208891154335525
 40
1.094509450945101
 50
92.086657
 51
114.619977
 73
     1
 72
     2
 10
-22.738913239490063
 20
2.8049575222742575
 40
0.342034203420347
 50
114.619977
 51
180.0
 73
     1
 72
     1
 10
-23.080947442910432
 20
2.8049575222742433
 11
-23.080947442910432
 21
2.7080529205341897
 72
     2
 10
-22.195587997901765
 20
-1.2997299729975893
 40
4.1044104410441218
 50
257.542857
 51
268.919298
 73
     0
 72
     1
 10
-22.272999999999005
 20
2.8039503813286721
 11
-22.272999999999005
 21
2.4614292609395321
 72
     2
 10
-22.195587997901708
 20
-0.000000000000135
 40
2.46264626462647
 50
91.80136
 51
111.070443
 73
     1
 72
     1
 10
-23.080947442910482
 20
2.2979915747913111
 11
-23.080947442910482
 21
1.0261026102608923
 72
     1
 10
-23.080947442910482
 20
1.0261026102608923
 11
-22.272999999998969
 21
1.0261026102608923
 72
     1
 10
-22.272999999998969
 20
1.0261026102608923
 11
-22.272999999999005
 21
0.6840684068405416
 72
     1
 10
-22.272999999999005
 20
0.6840684068405416
 11
-22.67055612196938
 21
0.6840684068405416
 97
        0
 75
     0
 76
     1
 98
        1
 10
0.0
 20
0.0
  0
HATCH
  5
97
100
AcDbEntity
  8
0
  6
CONTINUOUS
 62
     3
100
AcDbHatch
 10
0.0
 20
0.0
 30
0.0
210
0.0
220
0.0
230
1.0
  2
SOLID
 70
     1
 71
     1
 91
        1
 92
        1
 93
       14
 72
     2
 10
-22.195587997901765
 20
-0.000000000000135
 40
2.4626462646264748
 50
0.0
 51
9.281799
 73
     1
 72
     2
 10
-20.102741104833992
 20
0.3420342034202015
 40
0.34203420342034
 50
9.281799
 51
90.0
 73
     1
 72
     1
 10
-20.102741104833992
 20
0.6840684068405416
 11
-20.827451184220411
 21
0.6840684068405416
 72
     1
 10
-20.827451184220411
 20
0.6840684068405416
 11
-20.827451184220411
 21
0.0
 72
     1
 10
-20.827451184220411
 20
0.0
 11
-21.648333272429209
 21
0.0
 72
     1
 10
-21.648333272429209
 20
0.0
 11
-21.648333272429209
 21
0.6840684068405416
 72
     1
 10
-21.648333272429209
 20
0.6840684068405416
 11
-22.272999999999005
 21
0.6840684068405416
 72
     1
 10
-22.272999999999005
 20
0.6840684068405416
 11
-22.272999999999005
 21
1.0261026102608923
 72
     1
 10
-22.272999999999005
 20
1.0261026102608923
 11
-19.956896402818945
 21
1.0261026102608675
 72
     2
 10
-22.195587997901708
 20
-0.000000000000135
 40
2.46264626462647
 50
24.624318
 51
91.80136
 73
     1
 72
     1
 10
-22.272999999999005
 20
2.4614292609395321
 11
-22.272999999999005
 21
2.8039503813286721
 72
     2
 10
-22.195587997901765
 20
-1.2997299729975893
 40
4.1044104410441218
 50
268.919298
 51
304.301153
 73
     0
 72
     2
 10
-21.308934004960445
 20
-0.0000000000001492
 40
2.5310531053105372
 50
304.301153
 51
0.0
 73
     0
 72
     1
 10
-18.777880899649912
 20
0.0
 11
-19.732941733275293
 21
0.0
 97
        0
 75
     0
 76
     1
 98
        1
 10
0.0
 20
0.0
  0
HATCH
  5
98
100
AcDbEntity
  8
0
  6
CONTINUOUS
 62
     3
100
AcDbHatch
 10
0.0
 20
0.0
 30
0.0
210
0.0
220
0.0
230
1.0
  2
SOLID
 70
     1
 71
     1
 91
        1
 92
        1
 93
       19
 72
     2
 10
-22.195587997901765
 20
-0.000000000000135
 40
2.4626462646264748
 50
303.748989
 51
0.0
 73
     1
 72
     1
 10
-19.732941733275293
 20
0.0
 11
-18.777880899649912
 21
0.0
 72
     2
 10
-21.308934004960445
 20
-0.0000000000001492
 40
2.5310531053105372
 50
0.0
 51
55.698847
 73
     0
 72
     2
 10
-22.195587997901708
 20
1.2997299729973051
 40
4.1044104410441289
 50
55.698847
 51
70.528779
 73
     0
 72
     1
 10
-20.827451184220411
 20
-2.5699453011829512
 11
-20.827451184220411
 21
-2.8054062368445436
 72
     2
 10
-20.485416980800043
 20
-2.8054062368445436
 40
0.342034203420344
 50
180.0
 51
245.380023
 73
     1
 72
     2
 10
-20.171937455312563
 20
-2.1213378300038528
 40
1.094509450945099
 50
245.380023
 51
267.913343
 73
     1
 72
     1
 10
-20.211789618063744
 20
-3.2151215121513772
 11
-20.211789618063744
 21
-3.4203420342035784
 72
     1
 10
-20.211789618063744
 20
-3.4203420342035784
 11
-22.263994838585827
 21
-3.4203420342035784
 72
     1
 10
-22.263994838585827
 20
-3.4203420342035784
 11
-22.263994838585827
 21
-3.2151215121513737
 72
     2
 10
-22.303847001337058
 20
-2.1213378300038528
 40
1.094509450945099
 50
272.086657
 51
294.619977
 73
     1
 72
     2
 10
-21.990367475849578
 20
-2.8054062368445436
 40
0.342034203420344
 50
294.619977
 51
0.0
 73
     1
 72
     1
 10
-21.648333272429209
 20
-2.8054062368445436
 11
-21.648333272429209
 21
-2.7680332125876284
 72
     2
 10
-22.195587997901765
 20
1.2997299729972909
 40
4.1044104410441236
 50
82.337744
 51
91.080702
 73
     0
 72
     1
 10
-22.272999999999005
 20
-2.8039503813289706
 11
-22.272999999999005
 21
-2.4614292609397985
 72
     2
 10
-22.195587997901708
 20
-0.000000000000135
 40
2.4626462646264669
 50
268.19864
 51
282.839588
 73
     1
 72
     1
 10
-21.648333272429209
 20
-2.4010703634269781
 11
-21.648333272429209
 21
0.0
 72
     1
 10
-21.648333272429209
 20
0.0
 11
-20.827451184220411
 21
0.0
 72
     1
 10
-20.827451184220411
 20
0.0
 11
-20.827451184220411
 21
-2.047639686011447
 97
        0
 75
     0
 76
     1
 98
        1
 10
0.0
 20
0.0
  0
ENDBLK
  5
99
100
AcDbEntity
  8
0
100
AcDbBlockEnd
  0
ENDSEC
  0
SECTION
  2
ENTITIES
  0
LINE
  5
9A
100
AcDbEntity
  8
LAY-1
  6
EXLTYPE3
 62
     1
100
AcDbLine
 10
1156.0
 20
735.0
 30
0.0
 11
854.0
 21
735.0
 31
0.0
  0
ARC
  5
9B
100
AcDbEntity
  8
LAY-1
  6
CONTINUOUS
 62
     2
100
AcDbCircle
 10
874.578152
 20
741.062178
 30
0.0
 40
3.578152
100
AcDbArc
 50
145.615753
 51
214.384247
  0
ARC
  5
9C
100
AcDbEntity
  8
LAY-1
  6
CONTINUOUS
 62
     2
100
AcDbCircle
 10
884.374785
 20
735.0
 30
0.0
 40
13.374785
100
AcDbArc
 50
162.412046
 51
197.587954
  0
ARC
  5
9D
100
AcDbEntity
  8
LAY-1
  6
CONTINUOUS
 62
     2
100
AcDbCircle
 10
874.578152
 20
728.937822
 30
0.0
 40
3.578152
100
AcDbArc
 50
145.615753
 51
214.384247
  0
LINE
  5
9E
100
AcDbEntity
  8
LAY-1
  6
CONTINUOUS
 62
     2
100
AcDbLine
 10
871.0
 20
728.0
 30
0.0
 11
871.625215
 21
726.917096
 31
0.0
  0
LINE
  5
9F
100
AcDbEntity
  8
LAY-1
  6
CONTINUOUS
 62
     2
100
AcDbLine
 10
871.0
 20
735.0
 30
0.0
 11
871.0
 21
728.0
 31
0.0
  0
LINE
  5
A0
100
AcDbEntity
  8
LAY-1
  6
CONTINUOUS
 62
     2
100
AcDbLine
 10
871.625215
 20
726.917096
 30
0.0
 11
877.0
 21
726.917096
 31
0.0
  0
LINE
  5
A1
100
AcDbEntity
  8
LAY-1
  6
CONTINUOUS
 62
     2
100
AcDbLine
 10
871.625215
 20
739.041452
 30
0.0
 11
877.0
 21
739.041452
 31
0.0
  0
LINE
  5
A2
100
AcDbEntity
  8
LAY-1
  6
CONTINUOUS
 62
     2
100
AcDbLine
 10
877.0
 20
730.958548
 30
0.0
 11
871.625215
 21
730.958548
 31
0.0
  0
LINE
  5
A3
100
AcDbEntity
  8
LAY-1
  6
CONTINUOUS
 62
     2
100
AcDbLine
 10
871.625215
 20
743.082904
 30
0.0
 11
877.0
 21
743.082904
 31
0.0
  0
LINE
  5
A4
100
AcDbEntity
  8
LAY-1
  6
CONTINUOUS
 62
     2
100
AcDbLine
 10
871.0
 20
735.0
 30
0.0
 11
871.0
 21
742.0
 31
0.0
  0
LINE
  5
A5
100
AcDbEntity
  8
LAY-1
  6
CONTINUOUS
 62
     2
100
AcDbLine
 10
871.0
 20
742.0
 30
0.0
 11
871.625215
 21
743.082904
 31
0.0
  0
LINE
  5
A6
100
AcDbEntity
  8
LAY-1
  6
EXLTYPE3
 62
     1
100
AcDbLine
 10
1001.0
 20
531.2
 30
0.0
 11
1001.0
 21
205.446419
 31
0.0
  0
ARC
  5
A7
100
AcDbEntity
  8
LAY-1
  6
CONTINUOUS
 62
     2
100
AcDbCircle
 10
1001.0
 20
264.7
 30
0.0
 40
39.0
100
AcDbArc
 50
313.481331
 51
0.0
  0
ARC
  5
A8
100
AcDbEntity
  8
LAY-1
  6
CONTINUOUS
 62
     2
100
AcDbCircle
 10
1001.0
 20
264.7
 30
0.0
 40
39.0
100
AcDbArc
 50
133.478206
 51
226.495199
  0
ARC
  5
A9
100
AcDbEntity
  8
LAY-1
  6
CONTINUOUS
 62
     2
100
AcDbCircle
 10
1001.0
 20
264.7
 30
0.0
 40
39.0
100
AcDbArc
 50
0.0
 51
46.495735
  0
LINE
  5
AA
100
AcDbEntity
  8
LAY-1
  6
CONTINUOUS
 62
     2
100
AcDbLine
 10
979.3001
 20
295.782625
 30
0.0
 11
978.507117
 21
293.603922
 31
0.0
  0
ELLIPSE
  5
AB
100
AcDbEntity
  8
LAY-1
  6
CONTINUOUS
 62
     2
100
AcDbEllipse
 10
1028.549885
 20
293.7
 30
0.0
 11
-0.0000000000000002
 21
-1.0000000000000311
 31
0.0
210
0.0
220
0.0
230
1.0
 40
0.999999
 41
3.1417322846828983
 42
5.5074019598913457
  0
ARC
  5
AC
100
AcDbEntity
  8
LAY-1
  6
CONTINUOUS
 62
     2
100
AcDbCircle
 10
1028.549954
 20
235.7
 30
0.0
 40
1.0
100
AcDbArc
 50
135.892313
 51
269.944193
  0
ELLIPSE
  5
AD
100
AcDbEntity
  8
LAY-1
  6
CONTINUOUS
 62
     2
100
AcDbEllipse
 10
973.450115
 20
235.7
 30
0.0
 11
0.0000000000000001
 21
1.000000000000002
 31
0.0
210
0.0
220
0.0
230
1.0
 40
0.999999
 41
3.1417322846827846
 42
5.5074019598912658
  0
ARC
  5
AE
100
AcDbEntity
  8
LAY-1
  6
CONTINUOUS
 62
     2
100
AcDbCircle
 10
973.450046
 20
293.7
 30
0.0
 40
1.0
100
AcDbArc
 50
315.892313
 51
89.944193
  0
ARC
  5
AF
100
AcDbEntity
  8
LAY-1
  6
CONTINUOUS
 62
     2
100
AcDbCircle
 10
1029.0
 20
232.7
 30
0.0
 40
2.0
100
AcDbArc
 50
0.0
 51
90.0
  0
ARC
  5
B0
100
AcDbEntity
  8
LAY-1
  6
CONTINUOUS
 62
     2
100
AcDbCircle
 10
1029.0
 20
296.7
 30
0.0
 40
2.0
100
AcDbArc
 50
270.0
 51
0.0
  0
ARC
  5
B1
100
AcDbEntity
  8
LAY-1
  6
CONTINUOUS
 62
     2
100
AcDbCircle
 10
973.0
 20
232.7
 30
0.0
 40
2.0
100
AcDbArc
 50
90.0
 51
180.0
  0
ARC
  5
B2
100
AcDbEntity
  8
LAY-1
  6
CONTINUOUS
 62
     2
100
AcDbCircle
 10
973.0
 20
296.7
 30
0.0
 40
2.0
100
AcDbArc
 50
180.0
 51
270.0
  0
LINE
  5
B3
100
AcDbEntity
  8
LAY-1
  6
CONTINUOUS
 62
     2
100
AcDbLine
 10
974.164174
 20
236.425176
 30
0.0
 11
974.166484
 21
236.425192
 31
0.0
  0
LINE
  5
B4
100
AcDbEntity
  8
LAY-1
  6
CONTINUOUS
 62
     2
100
AcDbLine
 10
1027.835813
 20
292.974824
 30
0.0
 11
1027.833516
 21
292.974808
 31
0.0
  0
POLYLINE
  5
B5
100
AcDbEntity
  8
LAY-1
  6
CONTINUOUS
 62
     2
100
AcDb2dPolyline
 66
     1
 10
0.0
 20
0.0
 30
0.0
 70
   128
  0
VERTEX
  5
B6
100
AcDbEntity
  8
LAY-1
  6
CONTINUOUS
 62
     2
100
AcDbVertex
100
AcDb2dVertex
 10
986.687209
 20
294.098215
 30
0.0
  0
VERTEX
  5
B7
100
AcDbEntity
  8
LAY-1
  6
CONTINUOUS
 62
     2
100
AcDbVertex
100
AcDb2dVertex
 10
989.328413
 20
294.997654
 30
0.0
  0
VERTEX
  5
B8
100
AcDbEntity
  8
LAY-1
  6
CONTINUOUS
 62
     2
100
AcDbVertex
100
AcDb2dVertex
 10
992.07016
 20
295.716173
 30
0.0
  0
VERTEX
  5
B9
100
AcDbEntity
  8
LAY-1
  6
CONTINUOUS
 62
     2
100
AcDbVertex
100
AcDb2dVertex
 10
994.94102
 20
296.251558
 30
0.0
  0
VERTEX
  5
BA
100
AcDbEntity
  8
LAY-1
  6
CONTINUOUS
 62
     2
100
AcDbVertex
100
AcDb2dVertex
 10
997.884124
 20
296.582564
 30
0.0
  0
VERTEX
  5
BB
100
AcDbEntity
  8
LAY-1
  6
CONTINUOUS
 62
     2
100
AcDbVertex
100
AcDb2dVertex
 10
1000.534018
 20
296.698043
 30
0.0
  0
VERTEX
  5
BC
100
AcDbEntity
  8
LAY-1
  6
CONTINUOUS
 62
     2
100
AcDbVertex
100
AcDb2dVertex
 10
1003.205084
 20
296.641583
 30
0.0
  0
SEQEND
  5
BD
100
AcDbEntity
  8
LAY-1
  6
CONTINUOUS
 62
     2
  0
LINE
  5
BE
100
AcDbEntity
  8
LAY-1
  6
CONTINUOUS
 62
     2
100
AcDbLine
 10
1003.205084
 20
296.641583
 30
0.0
 11
1001.47897
 21
301.38404
 31
0.0
  0
LINE
  5
BF
100
AcDbEntity
  8
LAY-1
  6
CONTINUOUS
 62
     2
100
AcDbLine
 10
979.343469
 20
295.895962
 30
0.0
 11
979.30266
 21
295.781694
 31
0.0
  0
LINE
  5
C0
100
AcDbEntity
  8
LAY-1
  6
CONTINUOUS
 62
     2
100
AcDbLine
 10
988.457693
 20
302.7
 30
0.0
 11
1001.0
 21
302.7
 31
0.0
  0
POLYLINE
  5
C1
100
AcDbEntity
  8
LAY-1
  6
CONTINUOUS
 62
     2
100
AcDb2dPolyline
 66
     1
 10
0.0
 20
0.0
 30
0.0
 70
   128
  0
VERTEX
  5
C2
100
AcDbEntity
  8
LAY-1
  6
CONTINUOUS
 62
     2
100
AcDbVertex
100
AcDb2dVertex
 10
1001.0
 20
302.7
 30
0.0
  0
VERTEX
  5
C3
100
AcDbEntity
  8
LAY-1
  6
CONTINUOUS
 62
     2
100
AcDbVertex
100
AcDb2dVertex
 10
1001.037295
 20
302.597533
 30
0.0
  0
VERTEX
  5
C4
100
AcDbEntity
  8
LAY-1
  6
CONTINUOUS
 62
     2
100
AcDbVertex
100
AcDb2dVertex
 10
1001.143568
 20
302.30555
 30
0.0
  0
VERTEX
  5
C5
100
AcDbEntity
  8
LAY-1
  6
CONTINUOUS
 62
     2
100
AcDbVertex
100
AcDb2dVertex
 10
1001.309326
 20
301.850134
 30
0.0
  0
VERTEX
  5
C6
100
AcDbEntity
  8
LAY-1
  6
CONTINUOUS
 62
     2
100
AcDbVertex
100
AcDb2dVertex
 10
1001.47897
 20
301.38404
 30
0.0
  0
SEQEND
  5
C7
100
AcDbEntity
  8
LAY-1
  6
CONTINUOUS
 62
     2
  0
POLYLINE
  5
C8
100
AcDbEntity
  8
LAY-1
  6
CONTINUOUS
 62
     2
100
AcDb2dPolyline
 66
     1
 10
0.0
 20
0.0
 30
0.0
 70
   128
  0
VERTEX
  5
C9
100
AcDbEntity
  8
LAY-1
  6
CONTINUOUS
 62
     2
100
AcDbVertex
100
AcDb2dVertex
 10
1002.331067
 20
299.042923
 30
0.0
  0
VERTEX
  5
CA
100
AcDbEntity
  8
LAY-1
  6
CONTINUOUS
 62
     2
100
AcDbVertex
100
AcDb2dVertex
 10
1003.157903
 20
299.016782
 30
0.0
  0
VERTEX
  5
CB
100
AcDbEntity
  8
LAY-1
  6
CONTINUOUS
 62
     2
100
AcDbVertex
100
AcDb2dVertex
 10
1005.734146
 20
298.855343
 30
0.0
  0
VERTEX
  5
CC
100
AcDbEntity
  8
LAY-1
  6
CONTINUOUS
 62
     2
100
AcDbVertex
100
AcDb2dVertex
 10
1008.265759
 20
298.578518
 30
0.0
  0
VERTEX
  5
CD
100
AcDbEntity
  8
LAY-1
  6
CONTINUOUS
 62
     2
100
AcDbVertex
100
AcDb2dVertex
 10
1010.823932
 20
298.176728
 30
0.0
  0
VERTEX
  5
CE
100
AcDbEntity
  8
LAY-1
  6
CONTINUOUS
 62
     2
100
AcDbVertex
100
AcDb2dVertex
 10
1013.288656
 20
297.671414
 30
0.0
  0
VERTEX
  5
CF
100
AcDbEntity
  8
LAY-1
  6
CONTINUOUS
 62
     2
100
AcDbVertex
100
AcDb2dVertex
 10
1015.763561
 20
297.042372
 30
0.0
  0
VERTEX
  5
D0
100
AcDbEntity
  8
LAY-1
  6
CONTINUOUS
 62
     2
100
AcDbVertex
100
AcDb2dVertex
 10
1018.096872
 20
296.333521
 30
0.0
  0
VERTEX
  5
D1
100
AcDbEntity
  8
LAY-1
  6
CONTINUOUS
 62
     2
100
AcDbVertex
100
AcDb2dVertex
 10
1020.348485
 20
295.536525
 30
0.0
  0
VERTEX
  5
D2
100
AcDbEntity
  8
LAY-1
  6
CONTINUOUS
 62
     2
100
AcDbVertex
100
AcDb2dVertex
 10
1022.419511
 20
294.7
 30
0.0
  0
VERTEX
  5
D3
100
AcDbEntity
  8
LAY-1
  6
CONTINUOUS
 62
     2
100
AcDbVertex
100
AcDb2dVertex
 10
1024.282866
 20
293.856332
 30
0.0
  0
SEQEND
  5
D4
100
AcDbEntity
  8
LAY-1
  6
CONTINUOUS
 62
     2
  0
POLYLINE
  5
D5
100
AcDbEntity
  8
LAY-1
  6
CONTINUOUS
 62
     2
100
AcDb2dPolyline
 66
     1
 10
0.0
 20
0.0
 30
0.0
 70
   128
  0
VERTEX
  5
D6
100
AcDbEntity
  8
LAY-1
  6
CONTINUOUS
 62
     2
100
AcDbVertex
100
AcDb2dVertex
 10
1024.282866
 20
235.543668
 30
0.0
  0
VERTEX
  5
D7
100
AcDbEntity
  8
LAY-1
  6
CONTINUOUS
 62
     2
100
AcDbVertex
100
AcDb2dVertex
 10
1022.419511
 20
234.7
 30
0.0
  0
VERTEX
  5
D8
100
AcDbEntity
  8
LAY-1
  6
CONTINUOUS
 62
     2
100
AcDbVertex
100
AcDb2dVertex
 10
1020.067123
 20
233.75747
 30
0.0
  0
VERTEX
  5
D9
100
AcDbEntity
  8
LAY-1
  6
CONTINUOUS
 62
     2
100
AcDbVertex
100
AcDb2dVertex
 10
1018.291354
 20
233.13085
 30
0.0
  0
VERTEX
  5
DA
100
AcDbEntity
  8
LAY-1
  6
CONTINUOUS
 62
     2
100
AcDbVertex
100
AcDb2dVertex
 10
1016.400228
 20
232.53949
 30
0.0
  0
VERTEX
  5
DB
100
AcDbEntity
  8
LAY-1
  6
CONTINUOUS
 62
     2
100
AcDbVertex
100
AcDb2dVertex
 10
1014.374393
 20
231.989219
 30
0.0
  0
VERTEX
  5
DC
100
AcDbEntity
  8
LAY-1
  6
CONTINUOUS
 62
     2
100
AcDbVertex
100
AcDb2dVertex
 10
1012.242229
 20
231.499502
 30
0.0
  0
VERTEX
  5
DD
100
AcDbEntity
  8
LAY-1
  6
CONTINUOUS
 62
     2
100
AcDbVertex
100
AcDb2dVertex
 10
1010.09672
 20
231.096301
 30
0.0
  0
VERTEX
  5
DE
100
AcDbEntity
  8
LAY-1
  6
CONTINUOUS
 62
     2
100
AcDbVertex
100
AcDb2dVertex
 10
1007.870925
 20
230.770457
 30
0.0
  0
VERTEX
  5
DF
100
AcDbEntity
  8
LAY-1
  6
CONTINUOUS
 62
     2
100
AcDbVertex
100
AcDb2dVertex
 10
1005.5421
 20
230.528221
 30
0.0
  0
VERTEX
  5
E0
100
AcDbEntity
  8
LAY-1
  6
CONTINUOUS
 62
     2
100
AcDbVertex
100
AcDb2dVertex
 10
1003.157903
 20
230.383218
 30
0.0
  0
VERTEX
  5
E1
100
AcDbEntity
  8
LAY-1
  6
CONTINUOUS
 62
     2
100
AcDbVertex
100
AcDb2dVertex
 10
1000.583212
 20
230.342603
 30
0.0
  0
VERTEX
  5
E2
100
AcDbEntity
  8
LAY-1
  6
CONTINUOUS
 62
     2
100
AcDbVertex
100
AcDb2dVertex
 10
997.987657
 20
230.423276
 30
0.0
  0
VERTEX
  5
E3
100
AcDbEntity
  8
LAY-1
  6
CONTINUOUS
 62
     2
100
AcDbVertex
100
AcDb2dVertex
 10
995.433431
 20
230.622459
 30
0.0
  0
VERTEX
  5
E4
100
AcDbEntity
  8
LAY-1
  6
CONTINUOUS
 62
     2
100
AcDbVertex
100
AcDb2dVertex
 10
992.907918
 20
230.9377
 30
0.0
  0
VERTEX
  5
E5
100
AcDbEntity
  8
LAY-1
  6
CONTINUOUS
 62
     2
100
AcDbVertex
100
AcDb2dVertex
 10
990.388029
 20
231.371855
 30
0.0
  0
VERTEX
  5
E6
100
AcDbEntity
  8
LAY-1
  6
CONTINUOUS
 62
     2
100
AcDbVertex
100
AcDb2dVertex
 10
987.945726
 20
231.909922
 30
0.0
  0
VERTEX
  5
E7
100
AcDbEntity
  8
LAY-1
  6
CONTINUOUS
 62
     2
100
AcDbVertex
100
AcDb2dVertex
 10
985.690912
 20
232.512911
 30
0.0
  0
VERTEX
  5
E8
100
AcDbEntity
  8
LAY-1
  6
CONTINUOUS
 62
     2
100
AcDbVertex
100
AcDb2dVertex
 10
983.544848
 20
233.185707
 30
0.0
  0
VERTEX
  5
E9
100
AcDbEntity
  8
LAY-1
  6
CONTINUOUS
 62
     2
100
AcDbVertex
100
AcDb2dVertex
 10
981.492327
 20
233.924017
 30
0.0
  0
VERTEX
  5
EA
100
AcDbEntity
  8
LAY-1
  6
CONTINUOUS
 62
     2
100
AcDbVertex
100
AcDb2dVertex
 10
979.580489
 20
234.7
 30
0.0
  0
VERTEX
  5
EB
100
AcDbEntity
  8
LAY-1
  6
CONTINUOUS
 62
     2
100
AcDbVertex
100
AcDb2dVertex
 10
979.506666
 20
234.731745
 30
0.0
  0
VERTEX
  5
EC
100
AcDbEntity
  8
LAY-1
  6
CONTINUOUS
 62
     2
100
AcDbVertex
100
AcDb2dVertex
 10
977.717134
 20
235.543668
 30
0.0
  0
SEQEND
  5
ED
100
AcDbEntity
  8
LAY-1
  6
CONTINUOUS
 62
     2
  0
POLYLINE
  5
EE
100
AcDbEntity
  8
LAY-1
  6
CONTINUOUS
 62
     2
100
AcDb2dPolyline
 66
     1
 10
0.0
 20
0.0
 30
0.0
 70
   128
  0
VERTEX
  5
EF
100
AcDbEntity
  8
LAY-1
  6
CONTINUOUS
 62
     2
100
AcDbVertex
100
AcDb2dVertex
 10
987.109452
 20
302.7
 30
0.0
  0
VERTEX
  5
F0
100
AcDbEntity
  8
LAY-1
  6
CONTINUOUS
 62
     2
100
AcDbVertex
100
AcDb2dVertex
 10
985.409384
 20
302.687299
 30
0.0
  0
VERTEX
  5
F1
100
AcDbEntity
  8
LAY-1
  6
CONTINUOUS
 62
     2
100
AcDbVertex
100
AcDb2dVertex
 10
983.848218
 20
302.592001
 30
0.0
  0
VERTEX
  5
F2
100
AcDbEntity
  8
LAY-1
  6
CONTINUOUS
 62
     2
100
AcDbVertex
100
AcDb2dVertex
 10
983.209347
 20
302.485305
 30
0.0
  0
VERTEX
  5
F3
100
AcDbEntity
  8
LAY-1
  6
CONTINUOUS
 62
     2
100
AcDbVertex
100
AcDb2dVertex
 10
982.606077
 20
302.305095
 30
0.0
  0
VERTEX
  5
F4
100
AcDbEntity
  8
LAY-1
  6
CONTINUOUS
 62
     2
100
AcDbVertex
100
AcDb2dVertex
 10
982.2308
 20
302.124718
 30
0.0
  0
VERTEX
  5
F5
100
AcDbEntity
  8
LAY-1
  6
CONTINUOUS
 62
     2
100
AcDbVertex
100
AcDb2dVertex
 10
981.879365
 20
301.868927
 30
0.0
  0
VERTEX
  5
F6
100
AcDbEntity
  8
LAY-1
  6
CONTINUOUS
 62
     2
100
AcDbVertex
100
AcDb2dVertex
 10
981.5082
 20
301.38404
 30
0.0
  0
SEQEND
  5
F7
100
AcDbEntity
  8
LAY-1
  6
CONTINUOUS
 62
     2
  0
LINE
  5
F8
100
AcDbEntity
  8
LAY-1
  6
CONTINUOUS
 62
     2
100
AcDbLine
 10
987.109452
 20
302.7
 30
0.0
 11
988.457693
 21
302.7
 31
0.0
  0
LINE
  5
F9
100
AcDbEntity
  8
LAY-1
  6
CONTINUOUS
 62
     2
100
AcDbLine
 10
1031.0
 20
224.7
 30
0.0
 11
971.0
 21
224.7
 31
0.0
  0
ELLIPSE
  5
FA
100
AcDbEntity
  8
LAY-1
  6
CONTINUOUS
 62
     2
100
AcDbEllipse
 10
979.269325
 20
235.543668
 30
0.0
 11
1.9913031875871863
 21
-0.1863105340677941
 31
0.0
210
0.0
220
0.0
230
1.0
 40
0.1139
 41
3.466279343076998
 42
3.8292725961633653
  0
ELLIPSE
  5
FB
100
AcDbEntity
  8
LAY-1
  6
CONTINUOUS
 62
     2
100
AcDbEllipse
 10
1022.730675
 20
235.543668
 30
0.0
 11
-1.991303187587161
 21
-0.1863105340685296
 31
0.0
210
0.0
220
0.0
230
1.0
 40
0.1139
 41
2.4539127110221486
 42
2.8169059641084662
  0
ELLIPSE
  5
FC
100
AcDbEntity
  8
LAY-1
  6
CONTINUOUS
 62
     2
100
AcDbEllipse
 10
1022.730675
 20
293.856332
 30
0.0
 11
1.9913031875869347
 21
-0.1863105340714066
 31
0.0
210
0.0
220
0.0
230
1.0
 40
0.1139
 41
0.3246866894826876
 42
0.6876799426165022
  0
POLYLINE
  5
FD
100
AcDbEntity
  8
LAY-1
  6
CONTINUOUS
 62
     2
100
AcDb2dPolyline
 66
     1
 10
0.0
 20
0.0
 30
0.0
 70
   128
  0
VERTEX
  5
FE
100
AcDbEntity
  8
LAY-1
  6
CONTINUOUS
 62
     2
100
AcDbVertex
100
AcDb2dVertex
 10
978.517298
 20
293.619694
 30
0.0
  0
VERTEX
  5
FF
100
AcDbEntity
  8
LAY-1
  6
CONTINUOUS
 62
     2
100
AcDbVertex
100
AcDb2dVertex
 10
978.475857
 20
293.515379
 30
0.0
  0
VERTEX
  5
100
100
AcDbEntity
  8
LAY-1
  6
CONTINUOUS
 62
     2
100
AcDbVertex
100
AcDb2dVertex
 10
978.32025
 20
292.819433
 30
0.0
  0
VERTEX
  5
101
100
AcDbEntity
  8
LAY-1
  6
CONTINUOUS
 62
     2
100
AcDbVertex
100
AcDb2dVertex
 10
978.38911
 20
292.240393
 30
0.0
  0
VERTEX
  5
102
100
AcDbEntity
  8
LAY-1
  6
CONTINUOUS
 62
     2
100
AcDbVertex
100
AcDb2dVertex
 10
978.63053
 20
291.911442
 30
0.0
  0
VERTEX
  5
103
100
AcDbEntity
  8
LAY-1
  6
CONTINUOUS
 62
     2
100
AcDbVertex
100
AcDb2dVertex
 10
979.062591
 20
291.71807
 30
0.0
  0
VERTEX
  5
104
100
AcDbEntity
  8
LAY-1
  6
CONTINUOUS
 62
     2
100
AcDbVertex
100
AcDb2dVertex
 10
979.312695
 20
291.68276
 30
0.0
  0
VERTEX
  5
105
100
AcDbEntity
  8
LAY-1
  6
CONTINUOUS
 62
     2
100
AcDbVertex
100
AcDb2dVertex
 10
980.008567
 20
291.715956
 30
0.0
  0
VERTEX
  5
106
100
AcDbEntity
  8
LAY-1
  6
CONTINUOUS
 62
     2
100
AcDbVertex
100
AcDb2dVertex
 10
980.883344
 20
291.899655
 30
0.0
  0
VERTEX
  5
107
100
AcDbEntity
  8
LAY-1
  6
CONTINUOUS
 62
     2
100
AcDbVertex
100
AcDb2dVertex
 10
982.156478
 20
292.298994
 30
0.0
  0
VERTEX
  5
108
100
AcDbEntity
  8
LAY-1
  6
CONTINUOUS
 62
     2
100
AcDbVertex
100
AcDb2dVertex
 10
983.61662
 20
292.846455
 30
0.0
  0
VERTEX
  5
109
100
AcDbEntity
  8
LAY-1
  6
CONTINUOUS
 62
     2
100
AcDbVertex
100
AcDb2dVertex
 10
985.104174
 20
293.445733
 30
0.0
  0
VERTEX
  5
10A
100
AcDbEntity
  8
LAY-1
  6
CONTINUOUS
 62
     2
100
AcDbVertex
100
AcDb2dVertex
 10
986.687209
 20
294.098215
 30
0.0
  0
SEQEND
  5
10B
100
AcDbEntity
  8
LAY-1
  6
CONTINUOUS
 62
     2
  0
POLYLINE
  5
10C
100
AcDbEntity
  8
LAY-1
  6
CONTINUOUS
 62
     2
100
AcDb2dPolyline
 66
     1
 10
0.0
 20
0.0
 30
0.0
 70
   128
  0
VERTEX
  5
10D
100
AcDbEntity
  8
LAY-1
  6
CONTINUOUS
 62
     2
100
AcDbVertex
100
AcDb2dVertex
 10
981.5082
 20
301.38404
 30
0.0
  0
VERTEX
  5
10E
100
AcDbEntity
  8
LAY-1
  6
CONTINUOUS
 62
     2
100
AcDbVertex
100
AcDb2dVertex
 10
981.1357
 20
300.503157
 30
0.0
  0
VERTEX
  5
10F
100
AcDbEntity
  8
LAY-1
  6
CONTINUOUS
 62
     2
100
AcDbVertex
100
AcDb2dVertex
 10
980.243021
 20
298.286942
 30
0.0
  0
VERTEX
  5
110
100
AcDbEntity
  8
LAY-1
  6
CONTINUOUS
 62
     2
100
AcDbVertex
100
AcDb2dVertex
 10
979.424477
 20
296.122786
 30
0.0
  0
VERTEX
  5
111
100
AcDbEntity
  8
LAY-1
  6
CONTINUOUS
 62
     2
100
AcDbVertex
100
AcDb2dVertex
 10
979.343469
 20
295.895962
 30
0.0
  0
SEQEND
  5
112
100
AcDbEntity
  8
LAY-1
  6
CONTINUOUS
 62
     2
  0
LINE
  5
113
100
AcDbEntity
  8
LAY-1
  6
CONTINUOUS
 62
     2
100
AcDbLine
 10
973.450115
 20
234.7
 30
0.0
 11
973.0
 21
234.7
 31
0.0
  0
LINE
  5
114
100
AcDbEntity
  8
LAY-1
  6
CONTINUOUS
 62
     2
100
AcDbLine
 10
1028.549954
 20
234.7
 30
0.0
 11
1029.0
 21
234.7
 31
0.0
  0
LINE
  5
115
100
AcDbEntity
  8
LAY-1
  6
CONTINUOUS
 62
     2
100
AcDbLine
 10
978.0
 20
251.420944
 30
0.0
 11
1001.0
 21
238.141888
 31
0.0
  0
LINE
  5
116
100
AcDbEntity
  8
LAY-1
  6
CONTINUOUS
 62
     2
100
AcDbLine
 10
978.0
 20
277.979056
 30
0.0
 11
978.0
 21
251.420944
 31
0.0
  0
LINE
  5
117
100
AcDbEntity
  8
LAY-1
  6
CONTINUOUS
 62
     2
100
AcDbLine
 10
1001.0
 20
291.258112
 30
0.0
 11
978.0
 21
277.979056
 31
0.0
  0
LINE
  5
118
100
AcDbEntity
  8
LAY-1
  6
CONTINUOUS
 62
     2
100
AcDbLine
 10
1001.0
 20
291.258112
 30
0.0
 11
1024.0
 21
277.979056
 31
0.0
  0
LINE
  5
119
100
AcDbEntity
  8
LAY-1
  6
CONTINUOUS
 62
     2
100
AcDbLine
 10
1024.0
 20
277.979056
 30
0.0
 11
1024.0
 21
251.420944
 31
0.0
  0
LINE
  5
11A
100
AcDbEntity
  8
LAY-1
  6
CONTINUOUS
 62
     2
100
AcDbLine
 10
1024.0
 20
251.420944
 30
0.0
 11
1001.0
 21
238.141888
 31
0.0
  0
CIRCLE
  5
11B
100
AcDbEntity
  8
LAY-1
  6
CONTINUOUS
 62
     2
100
AcDbCircle
 10
1001.0
 20
264.7
 30
0.0
 40
15.1455
  0
CIRCLE
  5
11C
100
AcDbEntity
  8
LAY-1
  6
CONTINUOUS
 62
     2
100
AcDbCircle
 10
1001.0
 20
264.7
 30
0.0
 40
13.0
  0
CIRCLE
  5
11D
100
AcDbEntity
  8
LAY-1
  6
CONTINUOUS
 62
     2
100
AcDbCircle
 10
1001.0
 20
264.7
 30
0.0
 40
14.0
  0
LINE
  5
11E
100
AcDbEntity
  8
LAY-1
  6
CONTINUOUS
 62
     2
100
AcDbLine
 10
1013.649111
 20
267.7
 30
0.0
 11
988.350889
 21
267.7
 31
0.0
  0
POLYLINE
  5
11F
100
AcDbEntity
  8
LAY-1
  6
CONTINUOUS
 62
     2
100
AcDb2dPolyline
 66
     1
 10
0.0
 20
0.0
 30
0.0
 70
   128
  0
VERTEX
  5
120
100
AcDbEntity
  8
LAY-1
  6
CONTINUOUS
 62
     2
100
AcDbVertex
100
AcDb2dVertex
 10
1029.0
 20
294.7
 30
0.0
  0
VERTEX
  5
121
100
AcDbEntity
  8
LAY-1
  6
CONTINUOUS
 62
     2
100
AcDbVertex
100
AcDb2dVertex
 10
1028.549885
 20
294.7
 30
0.0
  0
SEQEND
  5
122
100
AcDbEntity
  8
LAY-1
  6
CONTINUOUS
 62
     2
  0
POLYLINE
  5
123
100
AcDbEntity
  8
LAY-1
  6
CONTINUOUS
 62
     2
100
AcDb2dPolyline
 66
     1
 10
0.0
 20
0.0
 30
0.0
 70
   128
  0
VERTEX
  5
124
100
AcDbEntity
  8
LAY-1
  6
CONTINUOUS
 62
     2
100
AcDbVertex
100
AcDb2dVertex
 10
1024.630001
 20
293.775291
 30
0.0
  0
VERTEX
  5
125
100
AcDbEntity
  8
LAY-1
  6
CONTINUOUS
 62
     2
100
AcDbVertex
100
AcDb2dVertex
 10
1024.624703
 20
293.752111
 30
0.0
  0
SEQEND
  5
126
100
AcDbEntity
  8
LAY-1
  6
CONTINUOUS
 62
     2
  0
LINE
  5
127
100
AcDbEntity
  8
LAY-1
  6
CONTINUOUS
 62
     2
100
AcDbLine
 10
973.450046
 20
294.7
 30
0.0
 11
973.0
 21
294.7
 31
0.0
  0
CIRCLE
  5
128
100
AcDbEntity
  8
LAY-1
  6
CONTINUOUS
 62
     1
100
AcDbCircle
 10
1001.0
 20
264.7
 30
0.0
 40
16.6245
  0
LINE
  5
129
100
AcDbEntity
  8
LAY-1
  6
CONTINUOUS
 62
     2
100
AcDbLine
 10
971.0
 20
223.7
 30
0.0
 11
1031.0
 21
223.7
 31
0.0
  0
LINE
  5
12A
100
AcDbEntity
  8
LAY-1
  6
CONTINUOUS
 62
     2
100
AcDbLine
 10
1001.0
 20
219.7
 30
0.0
 11
971.5
 21
219.7
 31
0.0
  0
LINE
  5
12B
100
AcDbEntity
  8
LAY-1
  6
CONTINUOUS
 62
     2
100
AcDbLine
 10
971.0
 20
220.2
 30
0.0
 11
971.0
 21
223.7
 31
0.0
  0
ARC
  5
12C
100
AcDbEntity
  8
LAY-1
  6
CONTINUOUS
 62
     2
100
AcDbCircle
 10
971.5
 20
220.2
 30
0.0
 40
0.5
100
AcDbArc
 50
180.0
 51
270.0
  0
LINE
  5
12D
100
AcDbEntity
  8
LAY-1
  6
CONTINUOUS
 62
     2
100
AcDbLine
 10
1001.0
 20
219.7
 30
0.0
 11
1030.5
 21
219.7
 31
0.0
  0
LINE
  5
12E
100
AcDbEntity
  8
LAY-1
  6
CONTINUOUS
 62
     2
100
AcDbLine
 10
1031.0
 20
220.2
 30
0.0
 11
1031.0
 21
223.7
 31
0.0
  0
LINE
  5
12F
100
AcDbEntity
  8
LAY-1
  6
CONTINUOUS
 62
     2
100
AcDbLine
 10
1001.0
 20
223.7
 30
0.0
 11
1031.0
 21
223.7
 31
0.0
  0
LINE
  5
130
100
AcDbEntity
  8
LAY-1
  6
CONTINUOUS
 62
     2
100
AcDbLine
 10
1001.0
 20
223.7
 30
0.0
 11
971.0
 21
223.7
 31
0.0
  0
ARC
  5
131
100
AcDbEntity
  8
LAY-1
  6
CONTINUOUS
 62
     2
100
AcDbCircle
 10
1030.5
 20
220.2
 30
0.0
 40
0.5
100
AcDbArc
 50
270.0
 51
0.0
  0
LINE
  5
132
100
AcDbEntity
  8
LAY-1
  6
CONTINUOUS
 62
     2
100
AcDbLine
 10
1031.0
 20
223.7
 30
0.0
 11
1031.0
 21
232.7
 31
0.0
  0
LINE
  5
133
100
AcDbEntity
  8
LAY-1
  6
CONTINUOUS
 62
     2
100
AcDbLine
 10
971.0
 20
232.7
 30
0.0
 11
971.0
 21
223.7
 31
0.0
  0
LINE
  5
134
100
AcDbEntity
  8
LAY-1
  6
CONTINUOUS
 62
     2
100
AcDbLine
 10
995.226497
 20
214.7
 30
0.0
 11
995.226497
 21
219.7
 31
0.0
  0
LINE
  5
135
100
AcDbEntity
  8
LAY-1
  6
CONTINUOUS
 62
     2
100
AcDbLine
 10
1006.773503
 20
214.7
 30
0.0
 11
1006.773503
 21
219.7
 31
0.0
  0
LINE
  5
136
100
AcDbEntity
  8
LAY-1
  6
CONTINUOUS
 62
     2
100
AcDbLine
 10
995.226497
 20
218.7
 30
0.0
 11
1001.0
 21
218.7
 31
0.0
  0
LINE
  5
137
100
AcDbEntity
  8
LAY-1
  6
CONTINUOUS
 62
     2
100
AcDbLine
 10
998.113249
 20
214.7
 30
0.0
 11
998.113249
 21
218.7
 31
0.0
  0
LINE
  5
138
100
AcDbEntity
  8
LAY-1
  6
CONTINUOUS
 62
     2
100
AcDbLine
 10
995.226497
 20
214.7
 30
0.0
 11
1006.773503
 21
214.7
 31
0.0
  0
LINE
  5
139
100
AcDbEntity
  8
LAY-1
  6
CONTINUOUS
 62
     2
100
AcDbLine
 10
1003.886751
 20
214.7
 30
0.0
 11
1003.886751
 21
218.7
 31
0.0
  0
LINE
  5
13A
100
AcDbEntity
  8
LAY-1
  6
CONTINUOUS
 62
     2
100
AcDbLine
 10
998.113249
 20
215.133013
 30
0.0
 11
998.113249
 21
218.7
 31
0.0
  0
LINE
  5
13B
100
AcDbEntity
  8
LAY-1
  6
CONTINUOUS
 62
     2
100
AcDbLine
 10
1003.886751
 20
215.133013
 30
0.0
 11
1003.886751
 21
218.7
 31
0.0
  0
LINE
  5
13C
100
AcDbEntity
  8
LAY-1
  6
CONTINUOUS
 62
     2
100
AcDbLine
 10
1006.773503
 20
218.7
 30
0.0
 11
1000.31
 21
218.7
 31
0.0
  0
LINE
  5
13D
100
AcDbEntity
  8
LAY-1
  6
CONTINUOUS
 62
     2
100
AcDbLine
 10
974.8749
 20
214.7
 30
0.0
 11
974.8749
 21
219.7
 31
0.0
  0
LINE
  5
13E
100
AcDbEntity
  8
LAY-1
  6
CONTINUOUS
 62
     2
100
AcDbLine
 10
986.421906
 20
214.7
 30
0.0
 11
986.421906
 21
219.7
 31
0.0
  0
LINE
  5
13F
100
AcDbEntity
  8
LAY-1
  6
CONTINUOUS
 62
     2
100
AcDbLine
 10
974.8749
 20
218.7
 30
0.0
 11
980.648403
 21
218.7
 31
0.0
  0
LINE
  5
140
100
AcDbEntity
  8
LAY-1
  6
CONTINUOUS
 62
     2
100
AcDbLine
 10
977.761652
 20
214.7
 30
0.0
 11
977.761652
 21
218.7
 31
0.0
  0
LINE
  5
141
100
AcDbEntity
  8
LAY-1
  6
CONTINUOUS
 62
     2
100
AcDbLine
 10
974.8749
 20
214.7
 30
0.0
 11
986.421906
 21
214.7
 31
0.0
  0
LINE
  5
142
100
AcDbEntity
  8
LAY-1
  6
CONTINUOUS
 62
     2
100
AcDbLine
 10
983.535154
 20
214.7
 30
0.0
 11
983.535154
 21
218.7
 31
0.0
  0
LINE
  5
143
100
AcDbEntity
  8
LAY-1
  6
CONTINUOUS
 62
     2
100
AcDbLine
 10
977.761652
 20
215.133013
 30
0.0
 11
977.761652
 21
218.7
 31
0.0
  0
LINE
  5
144
100
AcDbEntity
  8
LAY-1
  6
CONTINUOUS
 62
     2
100
AcDbLine
 10
983.535154
 20
215.133013
 30
0.0
 11
983.535154
 21
218.7
 31
0.0
  0
LINE
  5
145
100
AcDbEntity
  8
LAY-1
  6
CONTINUOUS
 62
     2
100
AcDbLine
 10
986.421906
 20
218.7
 30
0.0
 11
980.358403
 21
218.7
 31
0.0
  0
LINE
  5
146
100
AcDbEntity
  8
LAY-1
  6
CONTINUOUS
 62
     2
100
AcDbLine
 10
1027.1251
 20
214.7
 30
0.0
 11
1027.1251
 21
219.7
 31
0.0
  0
LINE
  5
147
100
AcDbEntity
  8
LAY-1
  6
CONTINUOUS
 62
     2
100
AcDbLine
 10
1015.578094
 20
214.7
 30
0.0
 11
1015.578094
 21
219.7
 31
0.0
  0
LINE
  5
148
100
AcDbEntity
  8
LAY-1
  6
CONTINUOUS
 62
     2
100
AcDbLine
 10
1027.1251
 20
218.7
 30
0.0
 11
1021.351597
 21
218.7
 31
0.0
  0
LINE
  5
149
100
AcDbEntity
  8
LAY-1
  6
CONTINUOUS
 62
     2
100
AcDbLine
 10
1024.238348
 20
214.7
 30
0.0
 11
1024.238348
 21
218.7
 31
0.0
  0
LINE
  5
14A
100
AcDbEntity
  8
LAY-1
  6
CONTINUOUS
 62
     2
100
AcDbLine
 10
1027.1251
 20
214.7
 30
0.0
 11
1015.578094
 21
214.7
 31
0.0
  0
LINE
  5
14B
100
AcDbEntity
  8
LAY-1
  6
CONTINUOUS
 62
     2
100
AcDbLine
 10
1018.464846
 20
214.7
 30
0.0
 11
1018.464846
 21
218.7
 31
0.0
  0
LINE
  5
14C
100
AcDbEntity
  8
LAY-1
  6
CONTINUOUS
 62
     2
100
AcDbLine
 10
1024.238348
 20
215.133013
 30
0.0
 11
1024.238348
 21
218.7
 31
0.0
  0
LINE
  5
14D
100
AcDbEntity
  8
LAY-1
  6
CONTINUOUS
 62
     2
100
AcDbLine
 10
1018.464846
 20
215.133013
 30
0.0
 11
1018.464846
 21
218.7
 31
0.0
  0
LINE
  5
14E
100
AcDbEntity
  8
LAY-1
  6
CONTINUOUS
 62
     2
100
AcDbLine
 10
1015.578094
 20
218.7
 30
0.0
 11
1021.641597
 21
218.7
 31
0.0
  0
LINE
  5
14F
100
AcDbEntity
  8
LAY-1
  6
EXLTYPE3
 62
     1
100
AcDbLine
 10
1001.0
 20
934.8
 30
0.0
 11
1001.0
 21
1260.553581
 31
0.0
  0
ARC
  5
150
100
AcDbEntity
  8
LAY-1
  6
CONTINUOUS
 62
     2
100
AcDbCircle
 10
1001.0
 20
1201.3
 30
0.0
 40
39.0
100
AcDbArc
 50
0.0
 51
46.518669
  0
ARC
  5
151
100
AcDbEntity
  8
LAY-1
  6
CONTINUOUS
 62
     2
100
AcDbCircle
 10
1001.0
 20
1201.3
 30
0.0
 40
39.0
100
AcDbArc
 50
133.504801
 51
226.521794
  0
ARC
  5
152
100
AcDbEntity
  8
LAY-1
  6
CONTINUOUS
 62
     2
100
AcDbCircle
 10
1001.0
 20
1201.3
 30
0.0
 40
39.0
100
AcDbArc
 50
313.504265
 51
0.0
  0
ELLIPSE
  5
153
100
AcDbEntity
  8
LAY-1
  6
CONTINUOUS
 62
     2
100
AcDbEllipse
 10
1028.549885
 20
1172.3
 30
0.0
 11
-0.0000000000000002
 21
-1.0000000000000311
 31
0.0
210
0.0
220
0.0
230
1.0
 40
0.999999
 41
3.9173760008779728
 42
6.2830456760864806
  0
ARC
  5
154
100
AcDbEntity
  8
LAY-1
  6
CONTINUOUS
 62
     2
100
AcDbCircle
 10
1028.549954
 20
1230.3
 30
0.0
 40
1.0
100
AcDbArc
 50
90.055807
 51
224.107687
  0
ELLIPSE
  5
155
100
AcDbEntity
  8
LAY-1
  6
CONTINUOUS
 62
     2
100
AcDbEllipse
 10
973.450115
 20
1230.3
 30
0.0
 11
0.0000000000000001
 21
1.000000000000002
 31
0.0
210
0.0
220
0.0
230
1.0
 40
0.999999
 41
3.9173760008781353
 42
6.2830456760865943
  0
ARC
  5
156
100
AcDbEntity
  8
LAY-1
  6
CONTINUOUS
 62
     2
100
AcDbCircle
 10
973.450046
 20
1172.3
 30
0.0
 40
1.0
100
AcDbArc
 50
270.055807
 51
44.107687
  0
ARC
  5
157
100
AcDbEntity
  8
LAY-1
  6
CONTINUOUS
 62
     2
100
AcDbCircle
 10
1029.0
 20
1233.3
 30
0.0
 40
2.0
100
AcDbArc
 50
270.0
 51
0.0
  0
ARC
  5
158
100
AcDbEntity
  8
LAY-1
  6
CONTINUOUS
 62
     2
100
AcDbCircle
 10
1029.0
 20
1169.3
 30
0.0
 40
2.0
100
AcDbArc
 50
0.0
 51
90.0
  0
ARC
  5
159
100
AcDbEntity
  8
LAY-1
  6
CONTINUOUS
 62
     2
100
AcDbCircle
 10
973.0
 20
1233.3
 30
0.0
 40
2.0
100
AcDbArc
 50
180.0
 51
270.0
  0
ARC
  5
15A
100
AcDbEntity
  8
LAY-1
  6
CONTINUOUS
 62
     2
100
AcDbCircle
 10
973.0
 20
1169.3
 30
0.0
 40
2.0
100
AcDbArc
 50
90.0
 51
180.0
  0
LINE
  5
15B
100
AcDbEntity
  8
LAY-1
  6
CONTINUOUS
 62
     2
100
AcDbLine
 10
974.164174
 20
1229.574824
 30
0.0
 11
974.166484
 21
1229.574808
 31
0.0
  0
LINE
  5
15C
100
AcDbEntity
  8
LAY-1
  6
CONTINUOUS
 62
     2
100
AcDbLine
 10
1027.835813
 20
1173.025176
 30
0.0
 11
1027.833516
 21
1173.025192
 31
0.0
  0
POLYLINE
  5
15D
100
AcDbEntity
  8
LAY-1
  6
CONTINUOUS
 62
     2
100
AcDb2dPolyline
 66
     1
 10
0.0
 20
0.0
 30
0.0
 70
   128
  0
VERTEX
  5
15E
100
AcDbEntity
  8
LAY-1
  6
CONTINUOUS
 62
     2
100
AcDbVertex
100
AcDb2dVertex
 10
1024.282866
 20
1230.456332
 30
0.0
  0
VERTEX
  5
15F
100
AcDbEntity
  8
LAY-1
  6
CONTINUOUS
 62
     2
100
AcDbVertex
100
AcDb2dVertex
 10
1022.419511
 20
1231.3
 30
0.0
  0
VERTEX
  5
160
100
AcDbEntity
  8
LAY-1
  6
CONTINUOUS
 62
     2
100
AcDbVertex
100
AcDb2dVertex
 10
1020.067123
 20
1232.24253
 30
0.0
  0
VERTEX
  5
161
100
AcDbEntity
  8
LAY-1
  6
CONTINUOUS
 62
     2
100
AcDbVertex
100
AcDb2dVertex
 10
1018.291354
 20
1232.86915
 30
0.0
  0
VERTEX
  5
162
100
AcDbEntity
  8
LAY-1
  6
CONTINUOUS
 62
     2
100
AcDbVertex
100
AcDb2dVertex
 10
1016.400228
 20
1233.46051
 30
0.0
  0
VERTEX
  5
163
100
AcDbEntity
  8
LAY-1
  6
CONTINUOUS
 62
     2
100
AcDbVertex
100
AcDb2dVertex
 10
1014.374393
 20
1234.010781
 30
0.0
  0
VERTEX
  5
164
100
AcDbEntity
  8
LAY-1
  6
CONTINUOUS
 62
     2
100
AcDbVertex
100
AcDb2dVertex
 10
1012.242229
 20
1234.500498
 30
0.0
  0
VERTEX
  5
165
100
AcDbEntity
  8
LAY-1
  6
CONTINUOUS
 62
     2
100
AcDbVertex
100
AcDb2dVertex
 10
1010.09672
 20
1234.903699
 30
0.0
  0
VERTEX
  5
166
100
AcDbEntity
  8
LAY-1
  6
CONTINUOUS
 62
     2
100
AcDbVertex
100
AcDb2dVertex
 10
1007.870925
 20
1235.229543
 30
0.0
  0
VERTEX
  5
167
100
AcDbEntity
  8
LAY-1
  6
CONTINUOUS
 62
     2
100
AcDbVertex
100
AcDb2dVertex
 10
1005.5421
 20
1235.471779
 30
0.0
  0
VERTEX
  5
168
100
AcDbEntity
  8
LAY-1
  6
CONTINUOUS
 62
     2
100
AcDbVertex
100
AcDb2dVertex
 10
1003.157903
 20
1235.616782
 30
0.0
  0
VERTEX
  5
169
100
AcDbEntity
  8
LAY-1
  6
CONTINUOUS
 62
     2
100
AcDbVertex
100
AcDb2dVertex
 10
1000.583212
 20
1235.657397
 30
0.0
  0
VERTEX
  5
16A
100
AcDbEntity
  8
LAY-1
  6
CONTINUOUS
 62
     2
100
AcDbVertex
100
AcDb2dVertex
 10
997.987657
 20
1235.576724
 30
0.0
  0
VERTEX
  5
16B
100
AcDbEntity
  8
LAY-1
  6
CONTINUOUS
 62
     2
100
AcDbVertex
100
AcDb2dVertex
 10
995.433431
 20
1235.377541
 30
0.0
  0
VERTEX
  5
16C
100
AcDbEntity
  8
LAY-1
  6
CONTINUOUS
 62
     2
100
AcDbVertex
100
AcDb2dVertex
 10
992.907918
 20
1235.0623
 30
0.0
  0
VERTEX
  5
16D
100
AcDbEntity
  8
LAY-1
  6
CONTINUOUS
 62
     2
100
AcDbVertex
100
AcDb2dVertex
 10
990.388029
 20
1234.628145
 30
0.0
  0
VERTEX
  5
16E
100
AcDbEntity
  8
LAY-1
  6
CONTINUOUS
 62
     2
100
AcDbVertex
100
AcDb2dVertex
 10
987.945726
 20
1234.090078
 30
0.0
  0
VERTEX
  5
16F
100
AcDbEntity
  8
LAY-1
  6
CONTINUOUS
 62
     2
100
AcDbVertex
100
AcDb2dVertex
 10
985.690912
 20
1233.487089
 30
0.0
  0
VERTEX
  5
170
100
AcDbEntity
  8
LAY-1
  6
CONTINUOUS
 62
     2
100
AcDbVertex
100
AcDb2dVertex
 10
983.544848
 20
1232.814293
 30
0.0
  0
VERTEX
  5
171
100
AcDbEntity
  8
LAY-1
  6
CONTINUOUS
 62
     2
100
AcDbVertex
100
AcDb2dVertex
 10
981.492327
 20
1232.075983
 30
0.0
  0
VERTEX
  5
172
100
AcDbEntity
  8
LAY-1
  6
CONTINUOUS
 62
     2
100
AcDbVertex
100
AcDb2dVertex
 10
979.580489
 20
1231.3
 30
0.0
  0
VERTEX
  5
173
100
AcDbEntity
  8
LAY-1
  6
CONTINUOUS
 62
     2
100
AcDbVertex
100
AcDb2dVertex
 10
979.506666
 20
1231.268255
 30
0.0
  0
VERTEX
  5
174
100
AcDbEntity
  8
LAY-1
  6
CONTINUOUS
 62
     2
100
AcDbVertex
100
AcDb2dVertex
 10
977.717134
 20
1230.456332
 30
0.0
  0
SEQEND
  5
175
100
AcDbEntity
  8
LAY-1
  6
CONTINUOUS
 62
     2
  0
LINE
  5
176
100
AcDbEntity
  8
LAY-1
  6
CONTINUOUS
 62
     2
100
AcDbLine
 10
1031.0
 20
1241.3
 30
0.0
 11
971.0
 21
1241.3
 31
0.0
  0
ELLIPSE
  5
177
100
AcDbEntity
  8
LAY-1
  6
CONTINUOUS
 62
     2
100
AcDbEllipse
 10
979.269325
 20
1230.456332
 30
0.0
 11
-1.9913031875871932
 21
-0.1863105340677985
 31
0.0
210
0.0
220
0.0
230
1.0
 40
0.1139
 41
5.5955053646059163
 42
5.9584986176926158
  0
ELLIPSE
  5
178
100
AcDbEntity
  8
LAY-1
  6
CONTINUOUS
 62
     2
100
AcDbEllipse
 10
1022.730675
 20
1230.456332
 30
0.0
 11
-1.9913031875871747
 21
0.1863105340685305
 31
0.0
210
0.0
220
0.0
230
1.0
 40
0.1139
 41
3.4662793430710401
 42
3.8292725961572973
  0
ELLIPSE
  5
179
100
AcDbEntity
  8
LAY-1
  6
CONTINUOUS
 62
     2
100
AcDbEllipse
 10
1022.730675
 20
1172.143668
 30
0.0
 11
-1.9913031875869269
 21
-0.1863105340714051
 31
0.0
210
0.0
220
0.0
230
1.0
 40
0.1139
 41
2.4539127109732952
 42
2.816905964106752
  0
LINE
  5
17A
100
AcDbEntity
  8
LAY-1
  6
CONTINUOUS
 62
     2
100
AcDbLine
 10
973.450115
 20
1231.3
 30
0.0
 11
973.0
 21
1231.3
 31
0.0
  0
LINE
  5
17B
100
AcDbEntity
  8
LAY-1
  6
CONTINUOUS
 62
     2
100
AcDbLine
 10
1028.549954
 20
1231.3
 30
0.0
 11
1029.0
 21
1231.3
 31
0.0
  0
LINE
  5
17C
100
AcDbEntity
  8
LAY-1
  6
CONTINUOUS
 62
     2
100
AcDbLine
 10
978.0
 20
1214.579056
 30
0.0
 11
1001.0
 21
1227.858112
 31
0.0
  0
LINE
  5
17D
100
AcDbEntity
  8
LAY-1
  6
CONTINUOUS
 62
     2
100
AcDbLine
 10
978.0
 20
1188.020944
 30
0.0
 11
978.0
 21
1214.579056
 31
0.0
  0
LINE
  5
17E
100
AcDbEntity
  8
LAY-1
  6
CONTINUOUS
 62
     2
100
AcDbLine
 10
1001.0
 20
1174.741888
 30
0.0
 11
978.0
 21
1188.020944
 31
0.0
  0
LINE
  5
17F
100
AcDbEntity
  8
LAY-1
  6
CONTINUOUS
 62
     2
100
AcDbLine
 10
1001.0
 20
1174.741888
 30
0.0
 11
1024.0
 21
1188.020944
 31
0.0
  0
LINE
  5
180
100
AcDbEntity
  8
LAY-1
  6
CONTINUOUS
 62
     2
100
AcDbLine
 10
1024.0
 20
1188.020944
 30
0.0
 11
1024.0
 21
1214.579056
 31
0.0
  0
LINE
  5
181
100
AcDbEntity
  8
LAY-1
  6
CONTINUOUS
 62
     2
100
AcDbLine
 10
1024.0
 20
1214.579056
 30
0.0
 11
1001.0
 21
1227.858112
 31
0.0
  0
CIRCLE
  5
182
100
AcDbEntity
  8
LAY-1
  6
CONTINUOUS
 62
     2
100
AcDbCircle
 10
1001.0
 20
1201.3
 30
0.0
 40
15.1455
  0
CIRCLE
  5
183
100
AcDbEntity
  8
LAY-1
  6
CONTINUOUS
 62
     2
100
AcDbCircle
 10
1001.0
 20
1201.3
 30
0.0
 40
13.0
  0
CIRCLE
  5
184
100
AcDbEntity
  8
LAY-1
  6
CONTINUOUS
 62
     2
100
AcDbCircle
 10
1001.0
 20
1201.3
 30
0.0
 40
14.0
  0
POLYLINE
  5
185
100
AcDbEntity
  8
LAY-1
  6
CONTINUOUS
 62
     2
100
AcDb2dPolyline
 66
     1
 10
0.0
 20
0.0
 30
0.0
 70
   128
  0
VERTEX
  5
186
100
AcDbEntity
  8
LAY-1
  6
CONTINUOUS
 62
     2
100
AcDbVertex
100
AcDb2dVertex
 10
1029.0
 20
1171.3
 30
0.0
  0
VERTEX
  5
187
100
AcDbEntity
  8
LAY-1
  6
CONTINUOUS
 62
     2
100
AcDbVertex
100
AcDb2dVertex
 10
1028.549885
 20
1171.3
 30
0.0
  0
SEQEND
  5
188
100
AcDbEntity
  8
LAY-1
  6
CONTINUOUS
 62
     2
  0
POLYLINE
  5
189
100
AcDbEntity
  8
LAY-1
  6
CONTINUOUS
 62
     2
100
AcDb2dPolyline
 66
     1
 10
0.0
 20
0.0
 30
0.0
 70
   128
  0
VERTEX
  5
18A
100
AcDbEntity
  8
LAY-1
  6
CONTINUOUS
 62
     2
100
AcDbVertex
100
AcDb2dVertex
 10
1024.630001
 20
1172.224709
 30
0.0
  0
VERTEX
  5
18B
100
AcDbEntity
  8
LAY-1
  6
CONTINUOUS
 62
     2
100
AcDbVertex
100
AcDb2dVertex
 10
1024.624703
 20
1172.247889
 30
0.0
  0
SEQEND
  5
18C
100
AcDbEntity
  8
LAY-1
  6
CONTINUOUS
 62
     2
  0
LINE
  5
18D
100
AcDbEntity
  8
LAY-1
  6
CONTINUOUS
 62
     2
100
AcDbLine
 10
973.450046
 20
1171.3
 30
0.0
 11
973.0
 21
1171.3
 31
0.0
  0
CIRCLE
  5
18E
100
AcDbEntity
  8
LAY-1
  6
CONTINUOUS
 62
     1
100
AcDbCircle
 10
1001.0
 20
1201.3
 30
0.0
 40
16.6245
  0
LINE
  5
18F
100
AcDbEntity
  8
LAY-1
  6
CONTINUOUS
 62
     2
100
AcDbLine
 10
971.0
 20
1242.3
 30
0.0
 11
1031.0
 21
1242.3
 31
0.0
  0
LINE
  5
190
100
AcDbEntity
  8
LAY-1
  6
CONTINUOUS
 62
     2
100
AcDbLine
 10
1001.0
 20
1246.3
 30
0.0
 11
971.5
 21
1246.3
 31
0.0
  0
LINE
  5
191
100
AcDbEntity
  8
LAY-1
  6
CONTINUOUS
 62
     2
100
AcDbLine
 10
971.0
 20
1245.8
 30
0.0
 11
971.0
 21
1242.3
 31
0.0
  0
ARC
  5
192
100
AcDbEntity
  8
LAY-1
  6
CONTINUOUS
 62
     2
100
AcDbCircle
 10
971.5
 20
1245.8
 30
0.0
 40
0.5
100
AcDbArc
 50
90.0
 51
180.0
  0
LINE
  5
193
100
AcDbEntity
  8
LAY-1
  6
CONTINUOUS
 62
     2
100
AcDbLine
 10
1001.0
 20
1246.3
 30
0.0
 11
1030.5
 21
1246.3
 31
0.0
  0
LINE
  5
194
100
AcDbEntity
  8
LAY-1
  6
CONTINUOUS
 62
     2
100
AcDbLine
 10
1031.0
 20
1245.8
 30
0.0
 11
1031.0
 21
1242.3
 31
0.0
  0
LINE
  5
195
100
AcDbEntity
  8
LAY-1
  6
CONTINUOUS
 62
     2
100
AcDbLine
 10
1001.0
 20
1242.3
 30
0.0
 11
1031.0
 21
1242.3
 31
0.0
  0
LINE
  5
196
100
AcDbEntity
  8
LAY-1
  6
CONTINUOUS
 62
     2
100
AcDbLine
 10
1001.0
 20
1242.3
 30
0.0
 11
971.0
 21
1242.3
 31
0.0
  0
ARC
  5
197
100
AcDbEntity
  8
LAY-1
  6
CONTINUOUS
 62
     2
100
AcDbCircle
 10
1030.5
 20
1245.8
 30
0.0
 40
0.5
100
AcDbArc
 50
0.0
 51
90.0
  0
LINE
  5
198
100
AcDbEntity
  8
LAY-1
  6
CONTINUOUS
 62
     2
100
AcDbLine
 10
1031.0
 20
1242.3
 30
0.0
 11
1031.0
 21
1233.3
 31
0.0
  0
LINE
  5
199
100
AcDbEntity
  8
LAY-1
  6
CONTINUOUS
 62
     2
100
AcDbLine
 10
971.0
 20
1233.3
 30
0.0
 11
971.0
 21
1242.3
 31
0.0
  0
LINE
  5
19A
100
AcDbEntity
  8
LAY-1
  6
CONTINUOUS
 62
     2
100
AcDbLine
 10
995.226497
 20
1251.3
 30
0.0
 11
995.226497
 21
1246.3
 31
0.0
  0
LINE
  5
19B
100
AcDbEntity
  8
LAY-1
  6
CONTINUOUS
 62
     2
100
AcDbLine
 10
1006.773503
 20
1251.3
 30
0.0
 11
1006.773503
 21
1246.3
 31
0.0
  0
LINE
  5
19C
100
AcDbEntity
  8
LAY-1
  6
CONTINUOUS
 62
     2
100
AcDbLine
 10
995.226497
 20
1247.3
 30
0.0
 11
1001.0
 21
1247.3
 31
0.0
  0
LINE
  5
19D
100
AcDbEntity
  8
LAY-1
  6
CONTINUOUS
 62
     2
100
AcDbLine
 10
998.113249
 20
1251.3
 30
0.0
 11
998.113249
 21
1247.3
 31
0.0
  0
LINE
  5
19E
100
AcDbEntity
  8
LAY-1
  6
CONTINUOUS
 62
     2
100
AcDbLine
 10
995.226497
 20
1251.3
 30
0.0
 11
1006.773503
 21
1251.3
 31
0.0
  0
LINE
  5
19F
100
AcDbEntity
  8
LAY-1
  6
CONTINUOUS
 62
     2
100
AcDbLine
 10
1003.886751
 20
1251.3
 30
0.0
 11
1003.886751
 21
1247.3
 31
0.0
  0
LINE
  5
1A0
100
AcDbEntity
  8
LAY-1
  6
CONTINUOUS
 62
     2
100
AcDbLine
 10
998.113249
 20
1250.866987
 30
0.0
 11
998.113249
 21
1247.3
 31
0.0
  0
LINE
  5
1A1
100
AcDbEntity
  8
LAY-1
  6
CONTINUOUS
 62
     2
100
AcDbLine
 10
1003.886751
 20
1250.866987
 30
0.0
 11
1003.886751
 21
1247.3
 31
0.0
  0
LINE
  5
1A2
100
AcDbEntity
  8
LAY-1
  6
CONTINUOUS
 62
     2
100
AcDbLine
 10
1006.773503
 20
1247.3
 30
0.0
 11
1000.31
 21
1247.3
 31
0.0
  0
LINE
  5
1A3
100
AcDbEntity
  8
LAY-1
  6
CONTINUOUS
 62
     2
100
AcDbLine
 10
974.8749
 20
1251.3
 30
0.0
 11
974.8749
 21
1246.3
 31
0.0
  0
LINE
  5
1A4
100
AcDbEntity
  8
LAY-1
  6
CONTINUOUS
 62
     2
100
AcDbLine
 10
986.421906
 20
1251.3
 30
0.0
 11
986.421906
 21
1246.3
 31
0.0
  0
LINE
  5
1A5
100
AcDbEntity
  8
LAY-1
  6
CONTINUOUS
 62
     2
100
AcDbLine
 10
974.8749
 20
1247.3
 30
0.0
 11
980.648403
 21
1247.3
 31
0.0
  0
LINE
  5
1A6
100
AcDbEntity
  8
LAY-1
  6
CONTINUOUS
 62
     2
100
AcDbLine
 10
977.761652
 20
1251.3
 30
0.0
 11
977.761652
 21
1247.3
 31
0.0
  0
LINE
  5
1A7
100
AcDbEntity
  8
LAY-1
  6
CONTINUOUS
 62
     2
100
AcDbLine
 10
974.8749
 20
1251.3
 30
0.0
 11
986.421906
 21
1251.3
 31
0.0
  0
LINE
  5
1A8
100
AcDbEntity
  8
LAY-1
  6
CONTINUOUS
 62
     2
100
AcDbLine
 10
983.535154
 20
1251.3
 30
0.0
 11
983.535154
 21
1247.3
 31
0.0
  0
LINE
  5
1A9
100
AcDbEntity
  8
LAY-1
  6
CONTINUOUS
 62
     2
100
AcDbLine
 10
977.761652
 20
1250.866987
 30
0.0
 11
977.761652
 21
1247.3
 31
0.0
  0
LINE
  5
1AA
100
AcDbEntity
  8
LAY-1
  6
CONTINUOUS
 62
     2
100
AcDbLine
 10
983.535154
 20
1250.866987
 30
0.0
 11
983.535154
 21
1247.3
 31
0.0
  0
LINE
  5
1AB
100
AcDbEntity
  8
LAY-1
  6
CONTINUOUS
 62
     2
100
AcDbLine
 10
986.421906
 20
1247.3
 30
0.0
 11
980.358403
 21
1247.3
 31
0.0
  0
LINE
  5
1AC
100
AcDbEntity
  8
LAY-1
  6
CONTINUOUS
 62
     2
100
AcDbLine
 10
1027.1251
 20
1251.3
 30
0.0
 11
1027.1251
 21
1246.3
 31
0.0
  0
LINE
  5
1AD
100
AcDbEntity
  8
LAY-1
  6
CONTINUOUS
 62
     2
100
AcDbLine
 10
1015.578094
 20
1251.3
 30
0.0
 11
1015.578094
 21
1246.3
 31
0.0
  0
LINE
  5
1AE
100
AcDbEntity
  8
LAY-1
  6
CONTINUOUS
 62
     2
100
AcDbLine
 10
1027.1251
 20
1247.3
 30
0.0
 11
1021.351597
 21
1247.3
 31
0.0
  0
LINE
  5
1AF
100
AcDbEntity
  8
LAY-1
  6
CONTINUOUS
 62
     2
100
AcDbLine
 10
1024.238348
 20
1251.3
 30
0.0
 11
1024.238348
 21
1247.3
 31
0.0
  0
LINE
  5
1B0
100
AcDbEntity
  8
LAY-1
  6
CONTINUOUS
 62
     2
100
AcDbLine
 10
1027.1251
 20
1251.3
 30
0.0
 11
1015.578094
 21
1251.3
 31
0.0
  0
LINE
  5
1B1
100
AcDbEntity
  8
LAY-1
  6
CONTINUOUS
 62
     2
100
AcDbLine
 10
1018.464846
 20
1251.3
 30
0.0
 11
1018.464846
 21
1247.3
 31
0.0
  0
LINE
  5
1B2
100
AcDbEntity
  8
LAY-1
  6
CONTINUOUS
 62
     2
100
AcDbLine
 10
1024.238348
 20
1250.866987
 30
0.0
 11
1024.238348
 21
1247.3
 31
0.0
  0
LINE
  5
1B3
100
AcDbEntity
  8
LAY-1
  6
CONTINUOUS
 62
     2
100
AcDbLine
 10
1018.464846
 20
1250.866987
 30
0.0
 11
1018.464846
 21
1247.3
 31
0.0
  0
LINE
  5
1B4
100
AcDbEntity
  8
LAY-1
  6
CONTINUOUS
 62
     2
100
AcDbLine
 10
1015.578094
 20
1247.3
 30
0.0
 11
1021.641597
 21
1247.3
 31
0.0
  0
LINE
  5
1B5
100
AcDbEntity
  8
LAY-1
  6
CONTINUOUS
 62
     2
100
AcDbLine
 10
1004.570714
 20
1188.8
 30
0.0
 11
997.429286
 21
1188.8
 31
0.0
  0
POLYLINE
  5
1B6
100
AcDbEntity
  8
LAY-1
  6
CONTINUOUS
 62
     2
100
AcDb2dPolyline
 66
     1
 10
0.0
 20
0.0
 30
0.0
 70
   128
  0
VERTEX
  5
1B7
100
AcDbEntity
  8
LAY-1
  6
CONTINUOUS
 62
     2
100
AcDbVertex
100
AcDb2dVertex
 10
1050.977861
 20
837.550628
 30
0.0
  0
VERTEX
  5
1B8
100
AcDbEntity
  8
LAY-1
  6
CONTINUOUS
 62
     2
100
AcDbVertex
100
AcDb2dVertex
 10
1047.227861
 20
844.045819
 30
0.0
  0
VERTEX
  5
1B9
100
AcDbEntity
  8
LAY-1
  6
CONTINUOUS
 62
     2
100
AcDbVertex
100
AcDb2dVertex
 10
1039.727861
 20
844.045819
 30
0.0
  0
VERTEX
  5
1BA
100
AcDbEntity
  8
LAY-1
  6
CONTINUOUS
 62
     2
100
AcDbVertex
100
AcDb2dVertex
 10
1035.977861
 20
837.550628
 30
0.0
  0
VERTEX
  5
1BB
100
AcDbEntity
  8
LAY-1
  6
CONTINUOUS
 62
     2
100
AcDbVertex
100
AcDb2dVertex
 10
1039.727861
 20
831.055438
 30
0.0
  0
VERTEX
  5
1BC
100
AcDbEntity
  8
LAY-1
  6
CONTINUOUS
 62
     2
100
AcDbVertex
100
AcDb2dVertex
 10
1047.227861
 20
831.055438
 30
0.0
  0
VERTEX
  5
1BD
100
AcDbEntity
  8
LAY-1
  6
CONTINUOUS
 62
     2
100
AcDbVertex
100
AcDb2dVertex
 10
1050.977861
 20
837.550628
 30
0.0
  0
SEQEND
  5
1BE
100
AcDbEntity
  8
LAY-1
  6
CONTINUOUS
 62
     2
  0
CIRCLE
  5
1BF
100
AcDbEntity
  8
LAY-1
  6
CONTINUOUS
 62
     2
100
AcDbCircle
 10
1043.477861
 20
837.550628
 30
0.0
 40
6.480741
  0
POLYLINE
  5
1C0
100
AcDbEntity
  8
LAY-1
  6
CONTINUOUS
 62
     2
100
AcDb2dPolyline
 66
     1
 10
0.0
 20
0.0
 30
0.0
 70
   128
  0
VERTEX
  5
1C1
100
AcDbEntity
  8
LAY-1
  6
CONTINUOUS
 62
     2
100
AcDbVertex
100
AcDb2dVertex
 10
1108.853929
 20
772.17456
 30
0.0
  0
VERTEX
  5
1C2
100
AcDbEntity
  8
LAY-1
  6
CONTINUOUS
 62
     2
100
AcDbVertex
100
AcDb2dVertex
 10
1110.795072
 20
779.419004
 30
0.0
  0
VERTEX
  5
1C3
100
AcDbEntity
  8
LAY-1
  6
CONTINUOUS
 62
     2
100
AcDbVertex
100
AcDb2dVertex
 10
1105.491771
 20
784.722305
 30
0.0
  0
VERTEX
  5
1C4
100
AcDbEntity
  8
LAY-1
  6
CONTINUOUS
 62
     2
100
AcDbVertex
100
AcDb2dVertex
 10
1098.247327
 20
782.781162
 30
0.0
  0
VERTEX
  5
1C5
100
AcDbEntity
  8
LAY-1
  6
CONTINUOUS
 62
     2
100
AcDbVertex
100
AcDb2dVertex
 10
1096.306184
 20
775.536718
 30
0.0
  0
VERTEX
  5
1C6
100
AcDbEntity
  8
LAY-1
  6
CONTINUOUS
 62
     2
100
AcDbVertex
100
AcDb2dVertex
 10
1101.609485
 20
770.233417
 30
0.0
  0
VERTEX
  5
1C7
100
AcDbEntity
  8
LAY-1
  6
CONTINUOUS
 62
     2
100
AcDbVertex
100
AcDb2dVertex
 10
1108.853929
 20
772.17456
 30
0.0
  0
SEQEND
  5
1C8
100
AcDbEntity
  8
LAY-1
  6
CONTINUOUS
 62
     2
  0
CIRCLE
  5
1C9
100
AcDbEntity
  8
LAY-1
  6
CONTINUOUS
 62
     2
100
AcDbCircle
 10
1103.550628
 20
777.477861
 30
0.0
 40
6.480741
  0
POLYLINE
  5
1CA
100
AcDbEntity
  8
LAY-1
  6
CONTINUOUS
 62
     2
100
AcDb2dPolyline
 66
     1
 10
0.0
 20
0.0
 30
0.0
 70
   128
  0
VERTEX
  5
1CB
100
AcDbEntity
  8
LAY-1
  6
CONTINUOUS
 62
     2
100
AcDbVertex
100
AcDb2dVertex
 10
1103.550628
 20
685.022139
 30
0.0
  0
VERTEX
  5
1CC
100
AcDbEntity
  8
LAY-1
  6
CONTINUOUS
 62
     2
100
AcDbVertex
100
AcDb2dVertex
 10
1110.045819
 20
688.772139
 30
0.0
  0
VERTEX
  5
1CD
100
AcDbEntity
  8
LAY-1
  6
CONTINUOUS
 62
     2
100
AcDbVertex
100
AcDb2dVertex
 10
1110.045819
 20
696.272139
 30
0.0
  0
VERTEX
  5
1CE
100
AcDbEntity
  8
LAY-1
  6
CONTINUOUS
 62
     2
100
AcDbVertex
100
AcDb2dVertex
 10
1103.550628
 20
700.022139
 30
0.0
  0
VERTEX
  5
1CF
100
AcDbEntity
  8
LAY-1
  6
CONTINUOUS
 62
     2
100
AcDbVertex
100
AcDb2dVertex
 10
1097.055438
 20
696.272139
 30
0.0
  0
VERTEX
  5
1D0
100
AcDbEntity
  8
LAY-1
  6
CONTINUOUS
 62
     2
100
AcDbVertex
100
AcDb2dVertex
 10
1097.055438
 20
688.772139
 30
0.0
  0
VERTEX
  5
1D1
100
AcDbEntity
  8
LAY-1
  6
CONTINUOUS
 62
     2
100
AcDbVertex
100
AcDb2dVertex
 10
1103.550628
 20
685.022139
 30
0.0
  0
SEQEND
  5
1D2
100
AcDbEntity
  8
LAY-1
  6
CONTINUOUS
 62
     2
  0
CIRCLE
  5
1D3
100
AcDbEntity
  8
LAY-1
  6
CONTINUOUS
 62
     2
100
AcDbCircle
 10
1103.550628
 20
692.522139
 30
0.0
 40
6.480741
  0
CIRCLE
  5
1D4
100
AcDbEntity
  8
LAY-1
  6
CONTINUOUS
 62
     2
100
AcDbCircle
 10
1043.477861
 20
632.449372
 30
0.0
 40
6.480741
  0
POLYLINE
  5
1D5
100
AcDbEntity
  8
LAY-1
  6
CONTINUOUS
 62
     2
100
AcDb2dPolyline
 66
     1
 10
0.0
 20
0.0
 30
0.0
 70
   128
  0
VERTEX
  5
1D6
100
AcDbEntity
  8
LAY-1
  6
CONTINUOUS
 62
     2
100
AcDbVertex
100
AcDb2dVertex
 10
1038.17456
 20
627.146071
 30
0.0
  0
VERTEX
  5
1D7
100
AcDbEntity
  8
LAY-1
  6
CONTINUOUS
 62
     2
100
AcDbVertex
100
AcDb2dVertex
 10
1045.419004
 20
625.204928
 30
0.0
  0
VERTEX
  5
1D8
100
AcDbEntity
  8
LAY-1
  6
CONTINUOUS
 62
     2
100
AcDbVertex
100
AcDb2dVertex
 10
1050.722305
 20
630.508229
 30
0.0
  0
VERTEX
  5
1D9
100
AcDbEntity
  8
LAY-1
  6
CONTINUOUS
 62
     2
100
AcDbVertex
100
AcDb2dVertex
 10
1048.781162
 20
637.752673
 30
0.0
  0
VERTEX
  5
1DA
100
AcDbEntity
  8
LAY-1
  6
CONTINUOUS
 62
     2
100
AcDbVertex
100
AcDb2dVertex
 10
1041.536718
 20
639.693816
 30
0.0
  0
VERTEX
  5
1DB
100
AcDbEntity
  8
LAY-1
  6
CONTINUOUS
 62
     2
100
AcDbVertex
100
AcDb2dVertex
 10
1036.233417
 20
634.390515
 30
0.0
  0
VERTEX
  5
1DC
100
AcDbEntity
  8
LAY-1
  6
CONTINUOUS
 62
     2
100
AcDbVertex
100
AcDb2dVertex
 10
1038.17456
 20
627.146071
 30
0.0
  0
SEQEND
  5
1DD
100
AcDbEntity
  8
LAY-1
  6
CONTINUOUS
 62
     2
  0
POLYLINE
  5
1DE
100
AcDbEntity
  8
LAY-1
  6
CONTINUOUS
 62
     2
100
AcDb2dPolyline
 66
     1
 10
0.0
 20
0.0
 30
0.0
 70
   128
  0
VERTEX
  5
1DF
100
AcDbEntity
  8
LAY-1
  6
CONTINUOUS
 62
     2
100
AcDbVertex
100
AcDb2dVertex
 10
951.022139
 20
632.449372
 30
0.0
  0
VERTEX
  5
1E0
100
AcDbEntity
  8
LAY-1
  6
CONTINUOUS
 62
     2
100
AcDbVertex
100
AcDb2dVertex
 10
954.772139
 20
625.954181
 30
0.0
  0
VERTEX
  5
1E1
100
AcDbEntity
  8
LAY-1
  6
CONTINUOUS
 62
     2
100
AcDbVertex
100
AcDb2dVertex
 10
962.272139
 20
625.954181
 30
0.0
  0
VERTEX
  5
1E2
100
AcDbEntity
  8
LAY-1
  6
CONTINUOUS
 62
     2
100
AcDbVertex
100
AcDb2dVertex
 10
966.022139
 20
632.449372
 30
0.0
  0
VERTEX
  5
1E3
100
AcDbEntity
  8
LAY-1
  6
CONTINUOUS
 62
     2
100
AcDbVertex
100
AcDb2dVertex
 10
962.272139
 20
638.944562
 30
0.0
  0
VERTEX
  5
1E4
100
AcDbEntity
  8
LAY-1
  6
CONTINUOUS
 62
     2
100
AcDbVertex
100
AcDb2dVertex
 10
954.772139
 20
638.944562
 30
0.0
  0
VERTEX
  5
1E5
100
AcDbEntity
  8
LAY-1
  6
CONTINUOUS
 62
     2
100
AcDbVertex
100
AcDb2dVertex
 10
951.022139
 20
632.449372
 30
0.0
  0
SEQEND
  5
1E6
100
AcDbEntity
  8
LAY-1
  6
CONTINUOUS
 62
     2
  0
CIRCLE
  5
1E7
100
AcDbEntity
  8
LAY-1
  6
CONTINUOUS
 62
     2
100
AcDbCircle
 10
958.522139
 20
632.449372
 30
0.0
 40
6.480741
  0
POLYLINE
  5
1E8
100
AcDbEntity
  8
LAY-1
  6
CONTINUOUS
 62
     2
100
AcDb2dPolyline
 66
     1
 10
0.0
 20
0.0
 30
0.0
 70
   128
  0
VERTEX
  5
1E9
100
AcDbEntity
  8
LAY-1
  6
CONTINUOUS
 62
     2
100
AcDbVertex
100
AcDb2dVertex
 10
893.146071
 20
697.82544
 30
0.0
  0
VERTEX
  5
1EA
100
AcDbEntity
  8
LAY-1
  6
CONTINUOUS
 62
     2
100
AcDbVertex
100
AcDb2dVertex
 10
891.204928
 20
690.580996
 30
0.0
  0
VERTEX
  5
1EB
100
AcDbEntity
  8
LAY-1
  6
CONTINUOUS
 62
     2
100
AcDbVertex
100
AcDb2dVertex
 10
896.508229
 20
685.277695
 30
0.0
  0
VERTEX
  5
1EC
100
AcDbEntity
  8
LAY-1
  6
CONTINUOUS
 62
     2
100
AcDbVertex
100
AcDb2dVertex
 10
903.752673
 20
687.218838
 30
0.0
  0
VERTEX
  5
1ED
100
AcDbEntity
  8
LAY-1
  6
CONTINUOUS
 62
     2
100
AcDbVertex
100
AcDb2dVertex
 10
905.693816
 20
694.463282
 30
0.0
  0
VERTEX
  5
1EE
100
AcDbEntity
  8
LAY-1
  6
CONTINUOUS
 62
     2
100
AcDbVertex
100
AcDb2dVertex
 10
900.390515
 20
699.766583
 30
0.0
  0
VERTEX
  5
1EF
100
AcDbEntity
  8
LAY-1
  6
CONTINUOUS
 62
     2
100
AcDbVertex
100
AcDb2dVertex
 10
893.146071
 20
697.82544
 30
0.0
  0
SEQEND
  5
1F0
100
AcDbEntity
  8
LAY-1
  6
CONTINUOUS
 62
     2
  0
CIRCLE
  5
1F1
100
AcDbEntity
  8
LAY-1
  6
CONTINUOUS
 62
     2
100
AcDbCircle
 10
898.449372
 20
692.522139
 30
0.0
 40
6.480741
  0
POLYLINE
  5
1F2
100
AcDbEntity
  8
LAY-1
  6
CONTINUOUS
 62
     2
100
AcDb2dPolyline
 66
     1
 10
0.0
 20
0.0
 30
0.0
 70
   128
  0
VERTEX
  5
1F3
100
AcDbEntity
  8
LAY-1
  6
CONTINUOUS
 62
     2
100
AcDbVertex
100
AcDb2dVertex
 10
963.82544
 20
842.853929
 30
0.0
  0
VERTEX
  5
1F4
100
AcDbEntity
  8
LAY-1
  6
CONTINUOUS
 62
     2
100
AcDbVertex
100
AcDb2dVertex
 10
956.580996
 20
844.795072
 30
0.0
  0
VERTEX
  5
1F5
100
AcDbEntity
  8
LAY-1
  6
CONTINUOUS
 62
     2
100
AcDbVertex
100
AcDb2dVertex
 10
951.277695
 20
839.491771
 30
0.0
  0
VERTEX
  5
1F6
100
AcDbEntity
  8
LAY-1
  6
CONTINUOUS
 62
     2
100
AcDbVertex
100
AcDb2dVertex
 10
953.218838
 20
832.247327
 30
0.0
  0
VERTEX
  5
1F7
100
AcDbEntity
  8
LAY-1
  6
CONTINUOUS
 62
     2
100
AcDbVertex
100
AcDb2dVertex
 10
960.463282
 20
830.306184
 30
0.0
  0
VERTEX
  5
1F8
100
AcDbEntity
  8
LAY-1
  6
CONTINUOUS
 62
     2
100
AcDbVertex
100
AcDb2dVertex
 10
965.766583
 20
835.609485
 30
0.0
  0
VERTEX
  5
1F9
100
AcDbEntity
  8
LAY-1
  6
CONTINUOUS
 62
     2
100
AcDbVertex
100
AcDb2dVertex
 10
963.82544
 20
842.853929
 30
0.0
  0
SEQEND
  5
1FA
100
AcDbEntity
  8
LAY-1
  6
CONTINUOUS
 62
     2
  0
CIRCLE
  5
1FB
100
AcDbEntity
  8
LAY-1
  6
CONTINUOUS
 62
     2
100
AcDbCircle
 10
958.522139
 20
837.550628
 30
0.0
 40
6.480741
  0
POLYLINE
  5
1FC
100
AcDbEntity
  8
LAY-1
  6
CONTINUOUS
 62
     2
100
AcDb2dPolyline
 66
     1
 10
0.0
 20
0.0
 30
0.0
 70
   128
  0
VERTEX
  5
1FD
100
AcDbEntity
  8
LAY-1
  6
CONTINUOUS
 62
     2
100
AcDbVertex
100
AcDb2dVertex
 10
898.449372
 20
784.977861
 30
0.0
  0
VERTEX
  5
1FE
100
AcDbEntity
  8
LAY-1
  6
CONTINUOUS
 62
     2
100
AcDbVertex
100
AcDb2dVertex
 10
891.954181
 20
781.227861
 30
0.0
  0
VERTEX
  5
1FF
100
AcDbEntity
  8
LAY-1
  6
CONTINUOUS
 62
     2
100
AcDbVertex
100
AcDb2dVertex
 10
891.954181
 20
773.727861
 30
0.0
  0
VERTEX
  5
200
100
AcDbEntity
  8
LAY-1
  6
CONTINUOUS
 62
     2
100
AcDbVertex
100
AcDb2dVertex
 10
898.449372
 20
769.977861
 30
0.0
  0
VERTEX
  5
201
100
AcDbEntity
  8
LAY-1
  6
CONTINUOUS
 62
     2
100
AcDbVertex
100
AcDb2dVertex
 10
904.944562
 20
773.727861
 30
0.0
  0
VERTEX
  5
202
100
AcDbEntity
  8
LAY-1
  6
CONTINUOUS
 62
     2
100
AcDbVertex
100
AcDb2dVertex
 10
904.944562
 20
781.227861
 30
0.0
  0
VERTEX
  5
203
100
AcDbEntity
  8
LAY-1
  6
CONTINUOUS
 62
     2
100
AcDbVertex
100
AcDb2dVertex
 10
898.449372
 20
784.977861
 30
0.0
  0
SEQEND
  5
204
100
AcDbEntity
  8
LAY-1
  6
CONTINUOUS
 62
     2
  0
CIRCLE
  5
205
100
AcDbEntity
  8
LAY-1
  6
CONTINUOUS
 62
     2
100
AcDbCircle
 10
898.449372
 20
777.477861
 30
0.0
 40
6.480741
  0
LINE
  5
206
100
AcDbEntity
  8
LAY-1
  6
CONTINUOUS
 62
     2
100
AcDbLine
 10
953.227984
 20
727.003249
 30
0.0
 11
900.652189
 21
725.504339
 31
0.0
  0
ARC
  5
207
100
AcDbEntity
  8
LAY-1
  6
CONTINUOUS
 62
     2
100
AcDbCircle
 10
953.0
 20
735.0
 30
0.0
 40
8.0
100
AcDbArc
 50
271.633033
 51
88.366968
  0
LINE
  5
208
100
AcDbEntity
  8
LAY-1
  6
CONTINUOUS
 62
     2
100
AcDbLine
 10
900.5
 20
725.5
 30
0.0
 11
898.0
 21
723.0
 31
0.0
  0
LINE
  5
209
100
AcDbEntity
  8
LAY-1
  6
CONTINUOUS
 62
     2
100
AcDbLine
 10
900.5
 20
744.5
 30
0.0
 11
900.5
 21
725.5
 31
0.0
  0
LINE
  5
20A
100
AcDbEntity
  8
LAY-1
  6
CONTINUOUS
 62
     2
100
AcDbLine
 10
898.0
 20
747.0
 30
0.0
 11
900.5
 21
744.5
 31
0.0
  0
LINE
  5
20B
100
AcDbEntity
  8
LAY-1
  6
CONTINUOUS
 62
     2
100
AcDbLine
 10
898.0
 20
723.0
 30
0.0
 11
881.601508
 21
723.0
 31
0.0
  0
LINE
  5
20C
100
AcDbEntity
  8
LAY-1
  6
CONTINUOUS
 62
     2
100
AcDbLine
 10
898.0
 20
747.0
 30
0.0
 11
898.0
 21
723.0
 31
0.0
  0
LINE
  5
20D
100
AcDbEntity
  8
LAY-1
  6
CONTINUOUS
 62
     2
100
AcDbLine
 10
881.601508
 20
747.0
 30
0.0
 11
898.0
 21
747.0
 31
0.0
  0
LINE
  5
20E
100
AcDbEntity
  8
LAY-1
  6
CONTINUOUS
 62
     2
100
AcDbLine
 10
900.5
 20
744.5
 30
0.0
 11
953.227983
 21
742.996751
 31
0.0
  0
ARC
  5
20F
100
AcDbEntity
  8
LAY-1
  6
CONTINUOUS
 62
     2
100
AcDbCircle
 10
1001.0
 20
735.0
 30
0.0
 40
100.796085
100
AcDbArc
 50
185.405659
 51
198.801834
  0
ARC
  5
210
100
AcDbEntity
  8
LAY-1
  6
CONTINUOUS
 62
     2
100
AcDbCircle
 10
1001.0
 20
735.0
 30
0.0
 40
100.796085
100
AcDbArc
 50
8.861963
 51
18.801834
  0
CIRCLE
  5
211
100
AcDbEntity
  8
LAY-1
  6
CONTINUOUS
 62
     2
100
AcDbCircle
 10
1081.0
 20
735.0
 30
0.0
 40
22.25
  0
CIRCLE
  5
212
100
AcDbEntity
  8
LAY-1
  6
CONTINUOUS
 62
     2
100
AcDbCircle
 10
1081.0
 20
735.0
 30
0.0
 40
25.0
  0
CIRCLE
  5
213
100
AcDbEntity
  8
LAY-1
  6
CONTINUOUS
 62
     2
100
AcDbCircle
 10
983.5
 20
668.0
 30
0.0
 40
1.0
  0
CIRCLE
  5
214
100
AcDbEntity
  8
LAY-1
  6
CONTINUOUS
 62
     2
100
AcDbCircle
 10
1018.5
 20
668.0
 30
0.0
 40
1.0
  0
LINE
  5
215
100
AcDbEntity
  8
LAY-1
  6
CONTINUOUS
 62
     2
100
AcDbLine
 10
976.5
 20
681.5
 30
0.0
 11
1025.5
 21
681.5
 31
0.0
  0
LINE
  5
216
100
AcDbEntity
  8
LAY-1
  6
CONTINUOUS
 62
     2
100
AcDbLine
 10
976.5
 20
654.5
 30
0.0
 11
976.5
 21
681.5
 31
0.0
  0
LINE
  5
217
100
AcDbEntity
  8
LAY-1
  6
CONTINUOUS
 62
     2
100
AcDbLine
 10
1025.5
 20
654.5
 30
0.0
 11
976.5
 21
654.5
 31
0.0
  0
LINE
  5
218
100
AcDbEntity
  8
LAY-1
  6
CONTINUOUS
 62
     2
100
AcDbLine
 10
1025.5
 20
681.5
 30
0.0
 11
1025.5
 21
654.5
 31
0.0
  0
ARC
  5
219
100
AcDbEntity
  8
LAY-1
  6
CONTINUOUS
 62
     2
100
AcDbCircle
 10
1001.0
 20
735.0
 30
0.0
 40
100.796085
100
AcDbArc
 50
161.198166
 51
174.594341
  0
ARC
  5
21A
100
AcDbEntity
  8
LAY-1
  6
CONTINUOUS
 62
     2
100
AcDbCircle
 10
1001.0
 20
735.0
 30
0.0
 40
100.796085
100
AcDbArc
 50
116.198166
 51
153.801834
  0
ARC
  5
21B
100
AcDbEntity
  8
LAY-1
  6
CONTINUOUS
 62
     2
100
AcDbCircle
 10
1001.0
 20
735.0
 30
0.0
 40
100.796085
100
AcDbArc
 50
71.198166
 51
108.801834
  0
ARC
  5
21C
100
AcDbEntity
  8
LAY-1
  6
CONTINUOUS
 62
     2
100
AcDbCircle
 10
1001.0
 20
735.0
 30
0.0
 40
100.796085
100
AcDbArc
 50
26.198166
 51
63.801834
  0
ARC
  5
21D
100
AcDbEntity
  8
LAY-1
  6
CONTINUOUS
 62
     2
100
AcDbCircle
 10
1001.0
 20
735.0
 30
0.0
 40
100.796085
100
AcDbArc
 50
341.198166
 51
351.138037
  0
ARC
  5
21E
100
AcDbEntity
  8
LAY-1
  6
CONTINUOUS
 62
     2
100
AcDbCircle
 10
1001.0
 20
735.0
 30
0.0
 40
100.796085
100
AcDbArc
 50
296.198166
 51
333.801834
  0
ARC
  5
21F
100
AcDbEntity
  8
LAY-1
  6
CONTINUOUS
 62
     2
100
AcDbCircle
 10
955.26933
 20
845.403604
 30
0.0
 40
20.0
100
AcDbArc
 50
273.530234
 51
311.469766
  0
ARC
  5
220
100
AcDbEntity
  8
LAY-1
  6
CONTINUOUS
 62
     2
100
AcDbCircle
 10
890.596396
 20
689.26933
 30
0.0
 40
20.0
100
AcDbArc
 50
3.530234
 51
41.469766
  0
ARC
  5
221
100
AcDbEntity
  8
LAY-1
  6
CONTINUOUS
 62
     2
100
AcDbCircle
 10
955.26933
 20
624.596396
 30
0.0
 40
20.0
100
AcDbArc
 50
48.530234
 51
86.469766
  0
ARC
  5
222
100
AcDbEntity
  8
LAY-1
  6
CONTINUOUS
 62
     2
100
AcDbCircle
 10
1001.0
 20
735.0
 30
0.0
 40
100.796085
100
AcDbArc
 50
206.198166
 51
243.801834
  0
ARC
  5
223
100
AcDbEntity
  8
LAY-1
  6
CONTINUOUS
 62
     2
100
AcDbCircle
 10
1046.73067
 20
845.403604
 30
0.0
 40
20.0
100
AcDbArc
 50
228.530234
 51
266.469766
  0
ARC
  5
224
100
AcDbEntity
  8
LAY-1
  6
CONTINUOUS
 62
     2
100
AcDbCircle
 10
1046.73067
 20
624.596396
 30
0.0
 40
20.0
100
AcDbArc
 50
93.530234
 51
131.469766
  0
ARC
  5
225
100
AcDbEntity
  8
LAY-1
  6
CONTINUOUS
 62
     2
100
AcDbCircle
 10
1111.403604
 20
780.73067
 30
0.0
 40
20.0
100
AcDbArc
 50
183.530234
 51
221.469766
  0
ARC
  5
226
100
AcDbEntity
  8
LAY-1
  6
CONTINUOUS
 62
     2
100
AcDbCircle
 10
1001.0
 20
735.0
 30
0.0
 40
100.796085
100
AcDbArc
 50
251.198166
 51
288.801834
  0
ARC
  5
227
100
AcDbEntity
  8
LAY-1
  6
CONTINUOUS
 62
     2
100
AcDbCircle
 10
1111.403604
 20
689.26933
 30
0.0
 40
20.0
100
AcDbArc
 50
138.530234
 51
176.469766
  0
ARC
  5
228
100
AcDbEntity
  8
LAY-1
  6
CONTINUOUS
 62
     2
100
AcDbCircle
 10
890.596396
 20
780.73067
 30
0.0
 40
20.0
100
AcDbArc
 50
318.530234
 51
356.469766
  0
CIRCLE
  5
229
100
AcDbEntity
  8
LAY-1
  6
CONTINUOUS
 62
     2
100
AcDbCircle
 10
1001.0
 20
735.0
 30
0.0
 40
120.0
  0
LINE
  5
22A
100
AcDbEntity
  8
LAY-1
  6
CONTINUOUS
 62
     2
100
AcDbLine
 10
1023.0
 20
728.596876
 30
0.0
 11
1023.0
 21
735.0
 31
0.0
  0
ARC
  5
22B
100
AcDbEntity
  8
LAY-1
  6
CONTINUOUS
 62
     2
100
AcDbCircle
 10
1021.0
 20
728.596876
 30
0.0
 40
2.0
100
AcDbArc
 50
342.24721
 51
0.0
  0
ARC
  5
22C
100
AcDbEntity
  8
LAY-1
  6
CONTINUOUS
 62
     2
100
AcDbCircle
 10
1001.0
 20
735.0
 30
0.0
 40
23.0
100
AcDbArc
 50
332.75279
 51
342.24721
  0
ARC
  5
22D
100
AcDbEntity
  8
LAY-1
  6
CONTINUOUS
 62
     2
100
AcDbCircle
 10
1019.669828
 20
725.385557
 30
0.0
 40
2.0
100
AcDbArc
 50
315.0
 51
332.75279
  0
LINE
  5
22E
100
AcDbEntity
  8
LAY-1
  6
CONTINUOUS
 62
     2
100
AcDbLine
 10
1012.028657
 20
714.915958
 30
0.0
 11
1021.084042
 21
723.971343
 31
0.0
  0
ARC
  5
22F
100
AcDbEntity
  8
LAY-1
  6
CONTINUOUS
 62
     2
100
AcDbCircle
 10
1010.614443
 20
716.330172
 30
0.0
 40
2.0
100
AcDbArc
 50
297.24721
 51
315.0
  0
ARC
  5
230
100
AcDbEntity
  8
LAY-1
  6
CONTINUOUS
 62
     2
100
AcDbCircle
 10
1007.403124
 20
715.0
 30
0.0
 40
2.0
100
AcDbArc
 50
270.0
 51
287.75279
  0
LINE
  5
231
100
AcDbEntity
  8
LAY-1
  6
CONTINUOUS
 62
     2
100
AcDbLine
 10
994.596876
 20
713.0
 30
0.0
 11
1007.403124
 21
713.0
 31
0.0
  0
ARC
  5
232
100
AcDbEntity
  8
LAY-1
  6
CONTINUOUS
 62
     2
100
AcDbCircle
 10
994.596876
 20
715.0
 30
0.0
 40
2.0
100
AcDbArc
 50
252.24721
 51
270.0
  0
ARC
  5
233
100
AcDbEntity
  8
LAY-1
  6
CONTINUOUS
 62
     2
100
AcDbCircle
 10
1001.0
 20
735.0
 30
0.0
 40
23.0
100
AcDbArc
 50
242.75279
 51
252.24721
  0
ARC
  5
234
100
AcDbEntity
  8
LAY-1
  6
CONTINUOUS
 62
     2
100
AcDbCircle
 10
991.385557
 20
716.330172
 30
0.0
 40
2.0
100
AcDbArc
 50
225.0
 51
242.75279
  0
LINE
  5
235
100
AcDbEntity
  8
LAY-1
  6
CONTINUOUS
 62
     2
100
AcDbLine
 10
980.915958
 20
723.971343
 30
0.0
 11
989.971343
 21
714.915958
 31
0.0
  0
ARC
  5
236
100
AcDbEntity
  8
LAY-1
  6
CONTINUOUS
 62
     2
100
AcDbCircle
 10
982.330172
 20
725.385557
 30
0.0
 40
2.0
100
AcDbArc
 50
207.24721
 51
225.0
  0
LINE
  5
237
100
AcDbEntity
  8
LAY-1
  6
CONTINUOUS
 62
     2
100
AcDbLine
 10
979.0
 20
735.0
 30
0.0
 11
979.0
 21
728.596876
 31
0.0
  0
ARC
  5
238
100
AcDbEntity
  8
LAY-1
  6
CONTINUOUS
 62
     2
100
AcDbCircle
 10
1001.0
 20
735.0
 30
0.0
 40
23.0
100
AcDbArc
 50
197.75279
 51
207.24721
  0
ARC
  5
239
100
AcDbEntity
  8
LAY-1
  6
CONTINUOUS
 62
     2
100
AcDbCircle
 10
981.0
 20
728.596876
 30
0.0
 40
2.0
100
AcDbArc
 50
180.0
 51
197.75279
  0
LINE
  5
23A
100
AcDbEntity
  8
LAY-1
  6
CONTINUOUS
 62
     2
100
AcDbLine
 10
1023.0
 20
741.403124
 30
0.0
 11
1023.0
 21
735.0
 31
0.0
  0
ARC
  5
23B
100
AcDbEntity
  8
LAY-1
  6
CONTINUOUS
 62
     2
100
AcDbCircle
 10
1021.0
 20
741.403124
 30
0.0
 40
2.0
100
AcDbArc
 50
0.0
 51
17.75279
  0
ARC
  5
23C
100
AcDbEntity
  8
LAY-1
  6
CONTINUOUS
 62
     2
100
AcDbCircle
 10
1001.0
 20
735.0
 30
0.0
 40
23.0
100
AcDbArc
 50
17.75279
 51
27.24721
  0
ARC
  5
23D
100
AcDbEntity
  8
LAY-1
  6
CONTINUOUS
 62
     2
100
AcDbCircle
 10
1019.669828
 20
744.614443
 30
0.0
 40
2.0
100
AcDbArc
 50
27.24721
 51
45.0
  0
LINE
  5
23E
100
AcDbEntity
  8
LAY-1
  6
CONTINUOUS
 62
     2
100
AcDbLine
 10
1012.028657
 20
755.084042
 30
0.0
 11
1021.084042
 21
746.028657
 31
0.0
  0
ARC
  5
23F
100
AcDbEntity
  8
LAY-1
  6
CONTINUOUS
 62
     2
100
AcDbCircle
 10
1010.614443
 20
753.669828
 30
0.0
 40
2.0
100
AcDbArc
 50
45.0
 51
62.75279
  0
ARC
  5
240
100
AcDbEntity
  8
LAY-1
  6
CONTINUOUS
 62
     2
100
AcDbCircle
 10
1001.0
 20
735.0
 30
0.0
 40
23.0
100
AcDbArc
 50
62.75279
 51
72.24721
  0
ARC
  5
241
100
AcDbEntity
  8
LAY-1
  6
CONTINUOUS
 62
     2
100
AcDbCircle
 10
1007.403124
 20
755.0
 30
0.0
 40
2.0
100
AcDbArc
 50
72.24721
 51
90.0
  0
LINE
  5
242
100
AcDbEntity
  8
LAY-1
  6
CONTINUOUS
 62
     2
100
AcDbLine
 10
994.596876
 20
757.0
 30
0.0
 11
1007.403124
 21
757.0
 31
0.0
  0
ARC
  5
243
100
AcDbEntity
  8
LAY-1
  6
CONTINUOUS
 62
     2
100
AcDbCircle
 10
994.596876
 20
755.0
 30
0.0
 40
2.0
100
AcDbArc
 50
90.0
 51
107.75279
  0
ARC
  5
244
100
AcDbEntity
  8
LAY-1
  6
CONTINUOUS
 62
     2
100
AcDbCircle
 10
1001.0
 20
735.0
 30
0.0
 40
23.0
100
AcDbArc
 50
107.75279
 51
117.24721
  0
ARC
  5
245
100
AcDbEntity
  8
LAY-1
  6
CONTINUOUS
 62
     2
100
AcDbCircle
 10
991.385557
 20
753.669828
 30
0.0
 40
2.0
100
AcDbArc
 50
117.24721
 51
135.0
  0
LINE
  5
246
100
AcDbEntity
  8
LAY-1
  6
CONTINUOUS
 62
     2
100
AcDbLine
 10
980.915958
 20
746.028657
 30
0.0
 11
989.971343
 21
755.084042
 31
0.0
  0
ARC
  5
247
100
AcDbEntity
  8
LAY-1
  6
CONTINUOUS
 62
     2
100
AcDbCircle
 10
982.330172
 20
744.614443
 30
0.0
 40
2.0
100
AcDbArc
 50
135.0
 51
152.75279
  0
LINE
  5
248
100
AcDbEntity
  8
LAY-1
  6
CONTINUOUS
 62
     2
100
AcDbLine
 10
979.0
 20
735.0
 30
0.0
 11
979.0
 21
741.403124
 31
0.0
  0
ARC
  5
249
100
AcDbEntity
  8
LAY-1
  6
CONTINUOUS
 62
     2
100
AcDbCircle
 10
1001.0
 20
735.0
 30
0.0
 40
23.0
100
AcDbArc
 50
152.75279
 51
162.24721
  0
ARC
  5
24A
100
AcDbEntity
  8
LAY-1
  6
CONTINUOUS
 62
     2
100
AcDbCircle
 10
981.0
 20
741.403124
 30
0.0
 40
2.0
100
AcDbArc
 50
162.24721
 51
180.0
  0
ARC
  5
24B
100
AcDbEntity
  8
LAY-1
  6
CONTINUOUS
 62
     2
100
AcDbCircle
 10
1001.0
 20
735.0
 30
0.0
 40
23.0
100
AcDbArc
 50
287.75279
 51
297.24721
  0
CIRCLE
  5
24C
100
AcDbEntity
  8
LAY-1
  6
CONTINUOUS
 62
     2
100
AcDbCircle
 10
1001.0
 20
735.0
 30
0.0
 40
28.0
  0
LINE
  5
24D
100
AcDbEntity
  8
LAY-1
  6
CONTINUOUS
 62
     2
100
AcDbLine
 10
877.0
 20
726.917096
 30
0.0
 11
877.0
 21
735.0
 31
0.0
  0
LINE
  5
24E
100
AcDbEntity
  8
LAY-1
  6
CONTINUOUS
 62
     2
100
AcDbLine
 10
877.0
 20
728.044385
 30
0.0
 11
881.194175
 21
728.176192
 31
0.0
  0
LINE
  5
24F
100
AcDbEntity
  8
LAY-1
  6
CONTINUOUS
 62
     2
100
AcDbLine
 10
879.0
 20
728.107237
 30
0.0
 11
879.0
 21
735.0
 31
0.0
  0
LINE
  5
250
100
AcDbEntity
  8
LAY-1
  6
CONTINUOUS
 62
     2
100
AcDbLine
 10
879.0
 20
741.892763
 30
0.0
 11
879.0
 21
735.0
 31
0.0
  0
LINE
  5
251
100
AcDbEntity
  8
LAY-1
  6
CONTINUOUS
 62
     2
100
AcDbLine
 10
877.0
 20
741.955615
 30
0.0
 11
881.194175
 21
741.823808
 31
0.0
  0
LINE
  5
252
100
AcDbEntity
  8
LAY-1
  6
CONTINUOUS
 62
     2
100
AcDbLine
 10
877.0
 20
743.082904
 30
0.0
 11
877.0
 21
735.0
 31
0.0
  0
LINE
  5
253
100
AcDbEntity
  8
LAY-1
  6
EXLTYPE3
 62
     1
100
AcDbLine
 10
1001.0
 20
598.0
 30
0.0
 11
1001.0
 21
869.0
 31
0.0
  0
LINE
  5
254
100
AcDbEntity
  8
LAY-1
  6
EXLTYPE3
 62
     1
100
AcDbLine
 10
952.0
 20
264.7
 30
0.0
 11
1050.0
 21
264.7
 31
0.0
  0
LINE
  5
255
100
AcDbEntity
  8
LAY-1
  6
EXLTYPE3
 62
     1
100
AcDbLine
 10
955.0
 20
1201.3
 30
0.0
 11
1045.0
 21
1201.3
 31
0.0
  0
LINE
  5
256
100
AcDbEntity
  8
LAY-1
  6
CONTINUOUS
 62
     2
100
AcDbLine
 10
973.5
 20
495.5
 30
0.0
 11
969.983891
 21
397.602671
 31
0.0
  0
ARC
  5
257
100
AcDbEntity
  8
LAY-1
  6
CONTINUOUS
 62
     2
100
AcDbCircle
 10
945.0
 20
398.5
 30
0.0
 40
25.0
100
AcDbArc
 50
275.858415
 51
357.943032
  0
ARC
  5
258
100
AcDbEntity
  8
LAY-1
  6
CONTINUOUS
 62
     2
100
AcDbCircle
 10
1120.5
 20
351.0
 30
0.0
 40
0.5
100
AcDbArc
 50
0.0
 51
90.0
  0
LINE
  5
259
100
AcDbEntity
  8
LAY-1
  6
CONTINUOUS
 62
     2
100
AcDbLine
 10
1028.5
 20
495.5
 30
0.0
 11
1032.016109
 21
397.602671
 31
0.0
  0
LINE
  5
25A
100
AcDbEntity
  8
LAY-1
  6
CONTINUOUS
 62
     2
100
AcDbLine
 10
1028.0
 20
496.7
 30
0.0
 11
1028.0
 21
495.5
 31
0.0
  0
LINE
  5
25B
100
AcDbEntity
  8
LAY-1
  6
CONTINUOUS
 62
     2
100
AcDbLine
 10
1001.0
 20
507.7
 30
0.0
 11
1021.0
 21
507.7
 31
0.0
  0
ARC
  5
25C
100
AcDbEntity
  8
LAY-1
  6
CONTINUOUS
 62
     2
100
AcDbCircle
 10
1021.0
 20
505.7
 30
0.0
 40
2.0
100
AcDbArc
 50
0.0
 51
90.0
  0
LINE
  5
25D
100
AcDbEntity
  8
LAY-1
  6
CONTINUOUS
 62
     2
100
AcDbLine
 10
1023.0
 20
505.7
 30
0.0
 11
1023.0
 21
500.7
 31
0.0
  0
ARC
  5
25E
100
AcDbEntity
  8
LAY-1
  6
CONTINUOUS
 62
     2
100
AcDbCircle
 10
1024.0
 20
500.7
 30
0.0
 40
1.0
100
AcDbArc
 50
180.0
 51
270.0
  0
LINE
  5
25F
100
AcDbEntity
  8
LAY-1
  6
CONTINUOUS
 62
     2
100
AcDbLine
 10
1001.0
 20
507.7
 30
0.0
 11
981.0
 21
507.7
 31
0.0
  0
ARC
  5
260
100
AcDbEntity
  8
LAY-1
  6
CONTINUOUS
 62
     2
100
AcDbCircle
 10
981.0
 20
505.7
 30
0.0
 40
2.0
100
AcDbArc
 50
90.0
 51
180.0
  0
LINE
  5
261
100
AcDbEntity
  8
LAY-1
  6
CONTINUOUS
 62
     2
100
AcDbLine
 10
979.0
 20
505.7
 30
0.0
 11
979.0
 21
500.7
 31
0.0
  0
ARC
  5
262
100
AcDbEntity
  8
LAY-1
  6
CONTINUOUS
 62
     2
100
AcDbCircle
 10
978.0
 20
500.7
 30
0.0
 40
1.0
100
AcDbArc
 50
270.0
 51
0.0
  0
LINE
  5
263
100
AcDbEntity
  8
LAY-1
  6
CONTINUOUS
 62
     2
100
AcDbLine
 10
1029.0
 20
499.7
 30
0.0
 11
1029.0
 21
496.7
 31
0.0
  0
LINE
  5
264
100
AcDbEntity
  8
LAY-1
  6
CONTINUOUS
 62
     2
100
AcDbLine
 10
973.0
 20
499.7
 30
0.0
 11
973.0
 21
496.7
 31
0.0
  0
LINE
  5
265
100
AcDbEntity
  8
LAY-1
  6
CONTINUOUS
 62
     2
100
AcDbLine
 10
1029.0
 20
496.7
 30
0.0
 11
1025.0
 21
496.7
 31
0.0
  0
LINE
  5
266
100
AcDbEntity
  8
LAY-1
  6
CONTINUOUS
 62
     2
100
AcDbLine
 10
974.0
 20
496.7
 30
0.0
 11
974.0
 21
495.5
 31
0.0
  0
LINE
  5
267
100
AcDbEntity
  8
LAY-1
  6
CONTINUOUS
 62
     2
100
AcDbLine
 10
1028.5
 20
496.7
 30
0.0
 11
1025.0
 21
496.7
 31
0.0
  0
LINE
  5
268
100
AcDbEntity
  8
LAY-1
  6
CONTINUOUS
 62
     2
100
AcDbLine
 10
1028.5
 20
496.7
 30
0.0
 11
1025.0
 21
496.7
 31
0.0
  0
LINE
  5
269
100
AcDbEntity
  8
LAY-1
  6
CONTINUOUS
 62
     2
100
AcDbLine
 10
973.0
 20
499.7
 30
0.0
 11
1029.0
 21
499.7
 31
0.0
  0
LINE
  5
26A
100
AcDbEntity
  8
LAY-1
  6
CONTINUOUS
 62
     2
100
AcDbLine
 10
1028.5
 20
496.7
 30
0.0
 11
973.0
 21
496.7
 31
0.0
  0
LINE
  5
26B
100
AcDbEntity
  8
LAY-1
  6
CONTINUOUS
 62
     2
100
AcDbLine
 10
973.5
 20
495.5
 30
0.0
 11
1028.5
 21
495.5
 31
0.0
  0
ARC
  5
26C
100
AcDbEntity
  8
LAY-1
  6
CONTINUOUS
 62
     2
100
AcDbCircle
 10
1057.0
 20
398.5
 30
0.0
 40
25.0
100
AcDbArc
 50
182.056968
 51
264.141585
  0
LINE
  5
26D
100
AcDbEntity
  8
LAY-1
  6
CONTINUOUS
 62
     2
100
AcDbLine
 10
881.0
 20
351.0
 30
0.0
 11
881.0
 21
340.5
 31
0.0
  0
LINE
  5
26E
100
AcDbEntity
  8
LAY-1
  6
CONTINUOUS
 62
     2
100
AcDbLine
 10
1121.0
 20
351.0
 30
0.0
 11
1121.0
 21
340.5
 31
0.0
  0
ARC
  5
26F
100
AcDbEntity
  8
LAY-1
  6
CONTINUOUS
 62
     2
100
AcDbCircle
 10
1081.811381
 20
350.71793
 30
0.0
 40
20.0
100
AcDbArc
 50
21.352421
 51
84.141585
  0
LINE
  5
270
100
AcDbEntity
  8
LAY-1
  6
CONTINUOUS
 62
     2
100
AcDbLine
 10
1096.050631
 20
351.5
 30
0.0
 11
1111.050631
 21
351.5
 31
0.0
  0
LINE
  5
271
100
AcDbEntity
  8
LAY-1
  6
CONTINUOUS
 62
     2
100
AcDbLine
 10
1097.06989
 20
358.0
 30
0.0
 11
1110.050631
 21
358.0
 31
0.0
  0
LINE
  5
272
100
AcDbEntity
  8
LAY-1
  6
CONTINUOUS
 62
     2
100
AcDbLine
 10
1111.050631
 20
357.42265
 30
0.0
 11
1111.050631
 21
351.5
 31
0.0
  0
ARC
  5
273
100
AcDbEntity
  8
LAY-1
  6
CONTINUOUS
 62
     2
100
AcDbCircle
 10
1103.550631
 20
345.5148
 30
0.0
 40
12.4852
100
AcDbArc
 50
72.507675
 51
107.492325
  0
LINE
  5
274
100
AcDbEntity
  8
LAY-1
  6
CONTINUOUS
 62
     2
100
AcDbLine
 10
1097.050631
 20
358.0
 30
0.0
 11
1096.050631
 21
357.42265
 31
0.0
  0
LINE
  5
275
100
AcDbEntity
  8
LAY-1
  6
CONTINUOUS
 62
     2
100
AcDbLine
 10
1110.050631
 20
358.0
 30
0.0
 11
1111.050631
 21
357.42265
 31
0.0
  0
ARC
  5
276
100
AcDbEntity
  8
LAY-1
  6
CONTINUOUS
 62
     2
100
AcDbCircle
 10
1109.1672
 20
354.702992
 30
0.0
 40
3.297008
100
AcDbArc
 50
55.296434
 51
124.423005
  0
LINE
  5
277
100
AcDbEntity
  8
LAY-1
  6
CONTINUOUS
 62
     2
100
AcDbLine
 10
1099.797854
 20
357.42265
 30
0.0
 11
1099.797854
 21
351.5
 31
0.0
  0
ARC
  5
278
100
AcDbEntity
  8
LAY-1
  6
CONTINUOUS
 62
     2
100
AcDbCircle
 10
1097.924242
 20
354.671212
 30
0.0
 40
3.328788
100
AcDbArc
 50
55.746813
 51
124.253187
  0
LINE
  5
279
100
AcDbEntity
  8
LAY-1
  6
CONTINUOUS
 62
     2
100
AcDbLine
 10
1107.303408
 20
351.5
 30
0.0
 11
1107.303408
 21
357.42265
 31
0.0
  0
LINE
  5
27A
100
AcDbEntity
  8
LAY-1
  6
CONTINUOUS
 62
     2
100
AcDbLine
 10
1096.050631
 20
351.5
 30
0.0
 11
1096.050631
 21
357.42265
 31
0.0
  0
LINE
  5
27B
100
AcDbEntity
  8
LAY-1
  6
CONTINUOUS
 62
     2
100
AcDbLine
 10
1035.977864
 20
351.5
 30
0.0
 11
1050.977864
 21
351.5
 31
0.0
  0
LINE
  5
27C
100
AcDbEntity
  8
LAY-1
  6
CONTINUOUS
 62
     2
100
AcDbLine
 10
1036.997123
 20
358.0
 30
0.0
 11
1049.977864
 21
358.0
 31
0.0
  0
LINE
  5
27D
100
AcDbEntity
  8
LAY-1
  6
CONTINUOUS
 62
     2
100
AcDbLine
 10
1050.977864
 20
357.42265
 30
0.0
 11
1050.977864
 21
351.5
 31
0.0
  0
ARC
  5
27E
100
AcDbEntity
  8
LAY-1
  6
CONTINUOUS
 62
     2
100
AcDbCircle
 10
1043.477864
 20
345.5148
 30
0.0
 40
12.4852
100
AcDbArc
 50
72.507675
 51
107.492325
  0
LINE
  5
27F
100
AcDbEntity
  8
LAY-1
  6
CONTINUOUS
 62
     2
100
AcDbLine
 10
1036.977864
 20
358.0
 30
0.0
 11
1035.977864
 21
357.42265
 31
0.0
  0
LINE
  5
280
100
AcDbEntity
  8
LAY-1
  6
CONTINUOUS
 62
     2
100
AcDbLine
 10
1049.977864
 20
358.0
 30
0.0
 11
1050.977864
 21
357.42265
 31
0.0
  0
ARC
  5
281
100
AcDbEntity
  8
LAY-1
  6
CONTINUOUS
 62
     2
100
AcDbCircle
 10
1049.094433
 20
354.702992
 30
0.0
 40
3.297008
100
AcDbArc
 50
55.296434
 51
124.423005
  0
LINE
  5
282
100
AcDbEntity
  8
LAY-1
  6
CONTINUOUS
 62
     2
100
AcDbLine
 10
1039.725087
 20
357.42265
 30
0.0
 11
1039.725087
 21
351.5
 31
0.0
  0
ARC
  5
283
100
AcDbEntity
  8
LAY-1
  6
CONTINUOUS
 62
     2
100
AcDbCircle
 10
1037.851475
 20
354.671212
 30
0.0
 40
3.328788
100
AcDbArc
 50
55.746813
 51
124.253187
  0
LINE
  5
284
100
AcDbEntity
  8
LAY-1
  6
CONTINUOUS
 62
     2
100
AcDbLine
 10
1047.23064
 20
351.5
 30
0.0
 11
1047.23064
 21
357.42265
 31
0.0
  0
LINE
  5
285
100
AcDbEntity
  8
LAY-1
  6
CONTINUOUS
 62
     2
100
AcDbLine
 10
1035.977864
 20
351.5
 30
0.0
 11
1035.977864
 21
357.42265
 31
0.0
  0
ARC
  5
286
100
AcDbEntity
  8
LAY-1
  6
CONTINUOUS
 62
     2
100
AcDbCircle
 10
1001.0
 20
611.651338
 30
0.0
 40
305.5
100
AcDbArc
 50
276.639114
 51
287.379499
  0
LINE
  5
287
100
AcDbEntity
  8
LAY-1
  6
CONTINUOUS
 62
     2
100
AcDbLine
 10
1121.0
 20
339.7
 30
0.0
 11
1001.0
 21
339.7
 31
0.0
  0
ARC
  5
288
100
AcDbEntity
  8
LAY-1
  6
CONTINUOUS
 62
     2
100
AcDbCircle
 10
1001.0
 20
611.651338
 30
0.0
 40
305.5
100
AcDbArc
 50
252.620501
 51
263.360886
  0
LINE
  5
289
100
AcDbEntity
  8
LAY-1
  6
CONTINUOUS
 62
     2
100
AcDbLine
 10
881.0
 20
339.7
 30
0.0
 11
1001.0
 21
339.7
 31
0.0
  0
LINE
  5
28A
100
AcDbEntity
  8
LAY-1
  6
CONTINUOUS
 62
     2
100
AcDbLine
 10
965.679535
 20
308.2
 30
0.0
 11
968.0
 21
308.2
 31
0.0
  0
ARC
  5
28B
100
AcDbEntity
  8
LAY-1
  6
CONTINUOUS
 62
     2
100
AcDbCircle
 10
968.0
 20
305.2
 30
0.0
 40
3.0
100
AcDbArc
 50
0.0
 51
90.0
  0
LINE
  5
28C
100
AcDbEntity
  8
LAY-1
  6
CONTINUOUS
 62
     2
100
AcDbLine
 10
1036.320465
 20
308.2
 30
0.0
 11
1034.0
 21
308.2
 31
0.0
  0
ARC
  5
28D
100
AcDbEntity
  8
LAY-1
  6
CONTINUOUS
 62
     2
100
AcDbCircle
 10
1034.0
 20
305.2
 30
0.0
 40
3.0
100
AcDbArc
 50
90.0
 51
180.0
  0
LINE
  5
28E
100
AcDbEntity
  8
LAY-1
  6
CONTINUOUS
 62
     2
100
AcDbLine
 10
881.0
 20
340.5
 30
0.0
 11
1121.0
 21
340.5
 31
0.0
  0
LINE
  5
28F
100
AcDbEntity
  8
LAY-1
  6
CONTINUOUS
 62
     2
100
AcDbLine
 10
1121.0
 20
340.5
 30
0.0
 11
1121.0
 21
329.7
 31
0.0
  0
LINE
  5
290
100
AcDbEntity
  8
LAY-1
  6
CONTINUOUS
 62
     2
100
AcDbLine
 10
1121.0
 20
340.5
 30
0.0
 11
881.0
 21
340.5
 31
0.0
  0
ARC
  5
291
100
AcDbEntity
  8
LAY-1
  6
CONTINUOUS
 62
     2
100
AcDbCircle
 10
1103.550631
 20
334.1852
 30
0.0
 40
12.4852
100
AcDbArc
 50
252.507675
 51
287.492325
  0
LINE
  5
292
100
AcDbEntity
  8
LAY-1
  6
CONTINUOUS
 62
     2
100
AcDbLine
 10
1111.050631
 20
322.27735
 30
0.0
 11
1111.050631
 21
328.2
 31
0.0
  0
LINE
  5
293
100
AcDbEntity
  8
LAY-1
  6
CONTINUOUS
 62
     2
100
AcDbLine
 10
1097.06989
 20
321.7
 30
0.0
 11
1110.050631
 21
321.7
 31
0.0
  0
LINE
  5
294
100
AcDbEntity
  8
LAY-1
  6
CONTINUOUS
 62
     2
100
AcDbLine
 10
1096.050631
 20
328.2
 30
0.0
 11
1096.050631
 21
329.7
 31
0.0
  0
LINE
  5
295
100
AcDbEntity
  8
LAY-1
  6
CONTINUOUS
 62
     2
100
AcDbLine
 10
1096.050631
 20
328.2
 30
0.0
 11
1096.050631
 21
322.27735
 31
0.0
  0
LINE
  5
296
100
AcDbEntity
  8
LAY-1
  6
CONTINUOUS
 62
     2
100
AcDbLine
 10
1096.050631
 20
328.2
 30
0.0
 11
1111.050631
 21
328.2
 31
0.0
  0
LINE
  5
297
100
AcDbEntity
  8
LAY-1
  6
CONTINUOUS
 62
     2
100
AcDbLine
 10
1097.050631
 20
321.7
 30
0.0
 11
1096.050631
 21
322.27735
 31
0.0
  0
LINE
  5
298
100
AcDbEntity
  8
LAY-1
  6
CONTINUOUS
 62
     2
100
AcDbLine
 10
1110.050631
 20
321.7
 30
0.0
 11
1111.050631
 21
322.27735
 31
0.0
  0
ARC
  5
299
100
AcDbEntity
  8
LAY-1
  6
CONTINUOUS
 62
     2
100
AcDbCircle
 10
1109.1672
 20
324.997008
 30
0.0
 40
3.297008
100
AcDbArc
 50
235.576995
 51
304.703566
  0
LINE
  5
29A
100
AcDbEntity
  8
LAY-1
  6
CONTINUOUS
 62
     2
100
AcDbLine
 10
1099.797854
 20
322.27735
 30
0.0
 11
1099.797854
 21
328.2
 31
0.0
  0
ARC
  5
29B
100
AcDbEntity
  8
LAY-1
  6
CONTINUOUS
 62
     2
100
AcDbCircle
 10
1097.924242
 20
325.028788
 30
0.0
 40
3.328788
100
AcDbArc
 50
235.746813
 51
304.253187
  0
LINE
  5
29C
100
AcDbEntity
  8
LAY-1
  6
CONTINUOUS
 62
     2
100
AcDbLine
 10
1107.303408
 20
328.2
 30
0.0
 11
1107.303408
 21
322.27735
 31
0.0
  0
LINE
  5
29D
100
AcDbEntity
  8
LAY-1
  6
CONTINUOUS
 62
     2
100
AcDbLine
 10
1111.050631
 20
329.7
 30
0.0
 11
1111.050631
 21
328.2
 31
0.0
  0
ARC
  5
29E
100
AcDbEntity
  8
LAY-1
  6
CONTINUOUS
 62
     2
100
AcDbCircle
 10
1087.025408
 20
336.799325
 30
0.0
 40
17.5
100
AcDbArc
 50
287.379499
 51
302.56204
  0
ARC
  5
29F
100
AcDbEntity
  8
LAY-1
  6
CONTINUOUS
 62
     2
100
AcDbCircle
 10
1043.477864
 20
334.1852
 30
0.0
 40
12.4852
100
AcDbArc
 50
252.507675
 51
287.492325
  0
LINE
  5
2A0
100
AcDbEntity
  8
LAY-1
  6
CONTINUOUS
 62
     2
100
AcDbLine
 10
1050.977864
 20
322.27735
 30
0.0
 11
1050.977864
 21
328.2
 31
0.0
  0
LINE
  5
2A1
100
AcDbEntity
  8
LAY-1
  6
CONTINUOUS
 62
     2
100
AcDbLine
 10
1036.997123
 20
321.7
 30
0.0
 11
1049.977864
 21
321.7
 31
0.0
  0
LINE
  5
2A2
100
AcDbEntity
  8
LAY-1
  6
CONTINUOUS
 62
     2
100
AcDbLine
 10
1035.977864
 20
328.2
 30
0.0
 11
1035.977864
 21
329.7
 31
0.0
  0
LINE
  5
2A3
100
AcDbEntity
  8
LAY-1
  6
CONTINUOUS
 62
     2
100
AcDbLine
 10
1035.977864
 20
328.2
 30
0.0
 11
1035.977864
 21
322.27735
 31
0.0
  0
LINE
  5
2A4
100
AcDbEntity
  8
LAY-1
  6
CONTINUOUS
 62
     2
100
AcDbLine
 10
1035.977864
 20
328.2
 30
0.0
 11
1050.977864
 21
328.2
 31
0.0
  0
LINE
  5
2A5
100
AcDbEntity
  8
LAY-1
  6
CONTINUOUS
 62
     2
100
AcDbLine
 10
1036.977864
 20
321.7
 30
0.0
 11
1035.977864
 21
322.27735
 31
0.0
  0
LINE
  5
2A6
100
AcDbEntity
  8
LAY-1
  6
CONTINUOUS
 62
     2
100
AcDbLine
 10
1049.977864
 20
321.7
 30
0.0
 11
1050.977864
 21
322.27735
 31
0.0
  0
ARC
  5
2A7
100
AcDbEntity
  8
LAY-1
  6
CONTINUOUS
 62
     2
100
AcDbCircle
 10
1049.094433
 20
324.997008
 30
0.0
 40
3.297008
100
AcDbArc
 50
235.576995
 51
304.703566
  0
LINE
  5
2A8
100
AcDbEntity
  8
LAY-1
  6
CONTINUOUS
 62
     2
100
AcDbLine
 10
1039.725087
 20
322.27735
 30
0.0
 11
1039.725087
 21
328.2
 31
0.0
  0
ARC
  5
2A9
100
AcDbEntity
  8
LAY-1
  6
CONTINUOUS
 62
     2
100
AcDbCircle
 10
1037.851475
 20
325.028788
 30
0.0
 40
3.328788
100
AcDbArc
 50
235.746813
 51
304.253187
  0
LINE
  5
2AA
100
AcDbEntity
  8
LAY-1
  6
CONTINUOUS
 62
     2
100
AcDbLine
 10
1047.23064
 20
328.2
 30
0.0
 11
1047.23064
 21
322.27735
 31
0.0
  0
LINE
  5
2AB
100
AcDbEntity
  8
LAY-1
  6
CONTINUOUS
 62
     2
100
AcDbLine
 10
1050.977864
 20
329.7
 30
0.0
 11
1050.977864
 21
328.2
 31
0.0
  0
ARC
  5
2AC
100
AcDbEntity
  8
LAY-1
  6
CONTINUOUS
 62
     2
100
AcDbCircle
 10
898.449369
 20
334.1852
 30
0.0
 40
12.4852
100
AcDbArc
 50
252.507675
 51
287.492325
  0
LINE
  5
2AD
100
AcDbEntity
  8
LAY-1
  6
CONTINUOUS
 62
     2
100
AcDbLine
 10
890.949369
 20
322.27735
 30
0.0
 11
890.949369
 21
328.2
 31
0.0
  0
LINE
  5
2AE
100
AcDbEntity
  8
LAY-1
  6
CONTINUOUS
 62
     2
100
AcDbLine
 10
904.93011
 20
321.7
 30
0.0
 11
891.949369
 21
321.7
 31
0.0
  0
LINE
  5
2AF
100
AcDbEntity
  8
LAY-1
  6
CONTINUOUS
 62
     2
100
AcDbLine
 10
905.949369
 20
328.2
 30
0.0
 11
905.949369
 21
329.7
 31
0.0
  0
LINE
  5
2B0
100
AcDbEntity
  8
LAY-1
  6
CONTINUOUS
 62
     2
100
AcDbLine
 10
905.949369
 20
328.2
 30
0.0
 11
905.949369
 21
322.27735
 31
0.0
  0
LINE
  5
2B1
100
AcDbEntity
  8
LAY-1
  6
CONTINUOUS
 62
     2
100
AcDbLine
 10
905.949369
 20
328.2
 30
0.0
 11
890.949369
 21
328.2
 31
0.0
  0
LINE
  5
2B2
100
AcDbEntity
  8
LAY-1
  6
CONTINUOUS
 62
     2
100
AcDbLine
 10
904.949369
 20
321.7
 30
0.0
 11
905.949369
 21
322.27735
 31
0.0
  0
LINE
  5
2B3
100
AcDbEntity
  8
LAY-1
  6
CONTINUOUS
 62
     2
100
AcDbLine
 10
891.949369
 20
321.7
 30
0.0
 11
890.949369
 21
322.27735
 31
0.0
  0
ARC
  5
2B4
100
AcDbEntity
  8
LAY-1
  6
CONTINUOUS
 62
     2
100
AcDbCircle
 10
892.8328
 20
324.997008
 30
0.0
 40
3.297008
100
AcDbArc
 50
235.296434
 51
304.423005
  0
LINE
  5
2B5
100
AcDbEntity
  8
LAY-1
  6
CONTINUOUS
 62
     2
100
AcDbLine
 10
902.202146
 20
322.27735
 30
0.0
 11
902.202146
 21
328.2
 31
0.0
  0
ARC
  5
2B6
100
AcDbEntity
  8
LAY-1
  6
CONTINUOUS
 62
     2
100
AcDbCircle
 10
904.075758
 20
325.028788
 30
0.0
 40
3.328788
100
AcDbArc
 50
235.746813
 51
304.253187
  0
LINE
  5
2B7
100
AcDbEntity
  8
LAY-1
  6
CONTINUOUS
 62
     2
100
AcDbLine
 10
894.696592
 20
328.2
 30
0.0
 11
894.696592
 21
322.27735
 31
0.0
  0
LINE
  5
2B8
100
AcDbEntity
  8
LAY-1
  6
CONTINUOUS
 62
     2
100
AcDbLine
 10
890.949369
 20
329.7
 30
0.0
 11
890.949369
 21
328.2
 31
0.0
  0
ARC
  5
2B9
100
AcDbEntity
  8
LAY-1
  6
CONTINUOUS
 62
     2
100
AcDbCircle
 10
958.522136
 20
334.1852
 30
0.0
 40
12.4852
100
AcDbArc
 50
252.507675
 51
287.492325
  0
LINE
  5
2BA
100
AcDbEntity
  8
LAY-1
  6
CONTINUOUS
 62
     2
100
AcDbLine
 10
951.022136
 20
322.27735
 30
0.0
 11
951.022136
 21
328.2
 31
0.0
  0
LINE
  5
2BB
100
AcDbEntity
  8
LAY-1
  6
CONTINUOUS
 62
     2
100
AcDbLine
 10
965.002877
 20
321.7
 30
0.0
 11
952.022136
 21
321.7
 31
0.0
  0
LINE
  5
2BC
100
AcDbEntity
  8
LAY-1
  6
CONTINUOUS
 62
     2
100
AcDbLine
 10
966.022136
 20
328.2
 30
0.0
 11
966.022136
 21
329.7
 31
0.0
  0
LINE
  5
2BD
100
AcDbEntity
  8
LAY-1
  6
CONTINUOUS
 62
     2
100
AcDbLine
 10
966.022136
 20
328.2
 30
0.0
 11
966.022136
 21
322.27735
 31
0.0
  0
LINE
  5
2BE
100
AcDbEntity
  8
LAY-1
  6
CONTINUOUS
 62
     2
100
AcDbLine
 10
966.022136
 20
328.2
 30
0.0
 11
951.022136
 21
328.2
 31
0.0
  0
LINE
  5
2BF
100
AcDbEntity
  8
LAY-1
  6
CONTINUOUS
 62
     2
100
AcDbLine
 10
965.022136
 20
321.7
 30
0.0
 11
966.022136
 21
322.27735
 31
0.0
  0
LINE
  5
2C0
100
AcDbEntity
  8
LAY-1
  6
CONTINUOUS
 62
     2
100
AcDbLine
 10
952.022136
 20
321.7
 30
0.0
 11
951.022136
 21
322.27735
 31
0.0
  0
ARC
  5
2C1
100
AcDbEntity
  8
LAY-1
  6
CONTINUOUS
 62
     2
100
AcDbCircle
 10
952.905567
 20
324.997008
 30
0.0
 40
3.297008
100
AcDbArc
 50
235.296434
 51
304.423005
  0
LINE
  5
2C2
100
AcDbEntity
  8
LAY-1
  6
CONTINUOUS
 62
     2
100
AcDbLine
 10
962.274913
 20
322.27735
 30
0.0
 11
962.274913
 21
328.2
 31
0.0
  0
ARC
  5
2C3
100
AcDbEntity
  8
LAY-1
  6
CONTINUOUS
 62
     2
100
AcDbCircle
 10
964.148525
 20
325.028788
 30
0.0
 40
3.328788
100
AcDbArc
 50
235.746813
 51
304.253187
  0
LINE
  5
2C4
100
AcDbEntity
  8
LAY-1
  6
CONTINUOUS
 62
     2
100
AcDbLine
 10
954.76936
 20
328.2
 30
0.0
 11
954.76936
 21
322.27735
 31
0.0
  0
LINE
  5
2C5
100
AcDbEntity
  8
LAY-1
  6
CONTINUOUS
 62
     2
100
AcDbLine
 10
951.022136
 20
329.7
 30
0.0
 11
951.022136
 21
328.2
 31
0.0
  0
ARC
  5
2C6
100
AcDbEntity
  8
LAY-1
  6
CONTINUOUS
 62
     2
100
AcDbCircle
 10
914.974592
 20
336.799325
 30
0.0
 40
17.5
100
AcDbArc
 50
237.448231
 51
252.620501
  0
LINE
  5
2C7
100
AcDbEntity
  8
LAY-1
  6
CONTINUOUS
 62
     2
100
AcDbLine
 10
971.0
 20
305.2
 30
0.0
 11
1001.0
 21
305.2
 31
0.0
  0
LINE
  5
2C8
100
AcDbEntity
  8
LAY-1
  6
CONTINUOUS
 62
     2
100
AcDbLine
 10
1031.0
 20
305.2
 30
0.0
 11
1001.0
 21
305.2
 31
0.0
  0
LINE
  5
2C9
100
AcDbEntity
  8
LAY-1
  6
CONTINUOUS
 62
     2
100
AcDbLine
 10
971.0
 20
305.2
 30
0.0
 11
1031.0
 21
305.2
 31
0.0
  0
LINE
  5
2CA
100
AcDbEntity
  8
LAY-1
  6
CONTINUOUS
 62
     2
100
AcDbLine
 10
987.977611
 20
305.2
 30
0.0
 11
1000.27206
 21
305.2
 31
0.0
  0
LINE
  5
2CB
100
AcDbEntity
  8
LAY-1
  6
CONTINUOUS
 62
     2
100
AcDbLine
 10
1000.27206
 20
305.2
 30
0.0
 11
1031.0
 21
305.2
 31
0.0
  0
LINE
  5
2CC
100
AcDbEntity
  8
LAY-1
  6
CONTINUOUS
 62
     2
100
AcDbLine
 10
971.0
 20
305.2
 30
0.0
 11
987.977611
 21
305.2
 31
0.0
  0
LINE
  5
2CD
100
AcDbEntity
  8
LAY-1
  6
CONTINUOUS
 62
     2
100
AcDbLine
 10
1121.0
 20
329.7
 30
0.0
 11
1001.0
 21
329.7
 31
0.0
  0
LINE
  5
2CE
100
AcDbEntity
  8
LAY-1
  6
CONTINUOUS
 62
     2
100
AcDbLine
 10
881.0
 20
329.7
 30
0.0
 11
1001.0
 21
329.7
 31
0.0
  0
LINE
  5
2CF
100
AcDbEntity
  8
LAY-1
  6
CONTINUOUS
 62
     2
100
AcDbLine
 10
1001.0
 20
351.5
 30
0.0
 11
1120.5
 21
351.5
 31
0.0
  0
LINE
  5
2D0
100
AcDbEntity
  8
LAY-1
  6
CONTINUOUS
 62
     2
100
AcDbLine
 10
881.5
 20
351.5
 30
0.0
 11
1001.0
 21
351.5
 31
0.0
  0
LINE
  5
2D1
100
AcDbEntity
  8
LAY-1
  6
CONTINUOUS
 62
     2
100
AcDbLine
 10
976.5
 20
375.5
 30
0.0
 11
1025.5
 21
375.5
 31
0.0
  0
ARC
  5
2D2
100
AcDbEntity
  8
LAY-1
  6
CONTINUOUS
 62
     2
100
AcDbCircle
 10
1027.758412
 20
372.633658
 30
0.0
 40
2.0
100
AcDbArc
 50
185.0
 51
264.141585
  0
LINE
  5
2D3
100
AcDbEntity
  8
LAY-1
  6
CONTINUOUS
 62
     2
100
AcDbLine
 10
1025.5
 20
375.5
 30
0.0
 11
1025.766023
 21
372.459346
 31
0.0
  0
LINE
  5
2D4
100
AcDbEntity
  8
LAY-1
  6
CONTINUOUS
 62
     2
100
AcDbLine
 10
1027.554271
 20
370.644104
 30
0.0
 11
1027.852793
 21
370.613473
 31
0.0
  0
LINE
  5
2D5
100
AcDbEntity
  8
LAY-1
  6
CONTINUOUS
 62
     2
100
AcDbLine
 10
974.445729
 20
370.644104
 30
0.0
 11
1027.554271
 21
370.644104
 31
0.0
  0
LINE
  5
2D6
100
AcDbEntity
  8
LAY-1
  6
CONTINUOUS
 62
     2
100
AcDbLine
 10
1083.554271
 20
370.644104
 30
0.0
 11
1083.852793
 21
370.613473
 31
0.0
  0
LINE
  5
2D7
100
AcDbEntity
  8
LAY-1
  6
CONTINUOUS
 62
     2
100
AcDbLine
 10
1054.448236
 20
373.630571
 30
0.0
 11
1083.852793
 21
370.613473
 31
0.0
  0
LINE
  5
2D8
100
AcDbEntity
  8
LAY-1
  6
CONTINUOUS
 62
     2
100
AcDbLine
 10
1106.0
 20
377.5
 30
0.0
 11
1056.0
 21
377.5
 31
0.0
  0
LINE
  5
2D9
100
AcDbEntity
  8
LAY-1
  6
CONTINUOUS
 62
     2
100
AcDbLine
 10
1056.0
 20
377.5
 30
0.0
 11
1055.650675
 21
373.507193
 31
0.0
  0
LINE
  5
2DA
100
AcDbEntity
  8
LAY-1
  6
CONTINUOUS
 62
     2
100
AcDbLine
 10
1107.706029
 20
358.0
 30
0.0
 11
1106.0
 21
377.5
 31
0.0
  0
ARC
  5
2DB
100
AcDbEntity
  8
LAY-1
  6
CONTINUOUS
 62
     2
100
AcDbCircle
 10
881.5
 20
351.0
 30
0.0
 40
0.5
100
AcDbArc
 50
90.0
 51
180.0
  0
LINE
  5
2DC
100
AcDbEntity
  8
LAY-1
  6
CONTINUOUS
 62
     2
100
AcDbLine
 10
947.551764
 20
373.630571
 30
0.0
 11
918.147207
 21
370.613473
 31
0.0
  0
LINE
  5
2DD
100
AcDbEntity
  8
LAY-1
  6
CONTINUOUS
 62
     2
100
AcDbLine
 10
966.022136
 20
351.5
 30
0.0
 11
951.022136
 21
351.5
 31
0.0
  0
LINE
  5
2DE
100
AcDbEntity
  8
LAY-1
  6
CONTINUOUS
 62
     2
100
AcDbLine
 10
965.002877
 20
358.0
 30
0.0
 11
952.022136
 21
358.0
 31
0.0
  0
LINE
  5
2DF
100
AcDbEntity
  8
LAY-1
  6
CONTINUOUS
 62
     2
100
AcDbLine
 10
951.022136
 20
357.42265
 30
0.0
 11
951.022136
 21
351.5
 31
0.0
  0
ARC
  5
2E0
100
AcDbEntity
  8
LAY-1
  6
CONTINUOUS
 62
     2
100
AcDbCircle
 10
958.522136
 20
345.5148
 30
0.0
 40
12.4852
100
AcDbArc
 50
72.507675
 51
107.492325
  0
LINE
  5
2E1
100
AcDbEntity
  8
LAY-1
  6
CONTINUOUS
 62
     2
100
AcDbLine
 10
965.022136
 20
358.0
 30
0.0
 11
966.022136
 21
357.42265
 31
0.0
  0
LINE
  5
2E2
100
AcDbEntity
  8
LAY-1
  6
CONTINUOUS
 62
     2
100
AcDbLine
 10
952.022136
 20
358.0
 30
0.0
 11
951.022136
 21
357.42265
 31
0.0
  0
ARC
  5
2E3
100
AcDbEntity
  8
LAY-1
  6
CONTINUOUS
 62
     2
100
AcDbCircle
 10
952.905567
 20
354.702992
 30
0.0
 40
3.297008
100
AcDbArc
 50
55.576995
 51
124.703566
  0
LINE
  5
2E4
100
AcDbEntity
  8
LAY-1
  6
CONTINUOUS
 62
     2
100
AcDbLine
 10
962.274913
 20
357.42265
 30
0.0
 11
962.274913
 21
351.5
 31
0.0
  0
ARC
  5
2E5
100
AcDbEntity
  8
LAY-1
  6
CONTINUOUS
 62
     2
100
AcDbCircle
 10
964.148525
 20
354.671212
 30
0.0
 40
3.328788
100
AcDbArc
 50
55.746813
 51
124.253187
  0
LINE
  5
2E6
100
AcDbEntity
  8
LAY-1
  6
CONTINUOUS
 62
     2
100
AcDbLine
 10
954.76936
 20
351.5
 30
0.0
 11
954.76936
 21
357.42265
 31
0.0
  0
LINE
  5
2E7
100
AcDbEntity
  8
LAY-1
  6
CONTINUOUS
 62
     2
100
AcDbLine
 10
966.022136
 20
351.5
 30
0.0
 11
966.022136
 21
357.42265
 31
0.0
  0
LINE
  5
2E8
100
AcDbEntity
  8
LAY-1
  6
CONTINUOUS
 62
     2
100
AcDbLine
 10
905.949369
 20
351.5
 30
0.0
 11
890.949369
 21
351.5
 31
0.0
  0
LINE
  5
2E9
100
AcDbEntity
  8
LAY-1
  6
CONTINUOUS
 62
     2
100
AcDbLine
 10
904.93011
 20
358.0
 30
0.0
 11
891.949369
 21
358.0
 31
0.0
  0
LINE
  5
2EA
100
AcDbEntity
  8
LAY-1
  6
CONTINUOUS
 62
     2
100
AcDbLine
 10
890.949369
 20
357.42265
 30
0.0
 11
890.949369
 21
351.5
 31
0.0
  0
ARC
  5
2EB
100
AcDbEntity
  8
LAY-1
  6
CONTINUOUS
 62
     2
100
AcDbCircle
 10
898.449369
 20
345.5148
 30
0.0
 40
12.4852
100
AcDbArc
 50
72.507675
 51
107.492325
  0
LINE
  5
2EC
100
AcDbEntity
  8
LAY-1
  6
CONTINUOUS
 62
     2
100
AcDbLine
 10
904.949369
 20
358.0
 30
0.0
 11
905.949369
 21
357.42265
 31
0.0
  0
LINE
  5
2ED
100
AcDbEntity
  8
LAY-1
  6
CONTINUOUS
 62
     2
100
AcDbLine
 10
891.949369
 20
358.0
 30
0.0
 11
890.949369
 21
357.42265
 31
0.0
  0
ARC
  5
2EE
100
AcDbEntity
  8
LAY-1
  6
CONTINUOUS
 62
     2
100
AcDbCircle
 10
892.8328
 20
354.702992
 30
0.0
 40
3.297008
100
AcDbArc
 50
55.576995
 51
124.703566
  0
LINE
  5
2EF
100
AcDbEntity
  8
LAY-1
  6
CONTINUOUS
 62
     2
100
AcDbLine
 10
902.202146
 20
357.42265
 30
0.0
 11
902.202146
 21
351.5
 31
0.0
  0
ARC
  5
2F0
100
AcDbEntity
  8
LAY-1
  6
CONTINUOUS
 62
     2
100
AcDbCircle
 10
904.075758
 20
354.671212
 30
0.0
 40
3.328788
100
AcDbArc
 50
55.746813
 51
124.253187
  0
LINE
  5
2F1
100
AcDbEntity
  8
LAY-1
  6
CONTINUOUS
 62
     2
100
AcDbLine
 10
894.696592
 20
351.5
 30
0.0
 11
894.696592
 21
357.42265
 31
0.0
  0
LINE
  5
2F2
100
AcDbEntity
  8
LAY-1
  6
CONTINUOUS
 62
     2
100
AcDbLine
 10
905.949369
 20
351.5
 30
0.0
 11
905.949369
 21
357.42265
 31
0.0
  0
ARC
  5
2F3
100
AcDbEntity
  8
LAY-1
  6
CONTINUOUS
 62
     2
100
AcDbCircle
 10
920.188619
 20
350.71793
 30
0.0
 40
20.0
100
AcDbArc
 50
95.858415
 51
158.647579
  0
ARC
  5
2F4
100
AcDbEntity
  8
LAY-1
  6
CONTINUOUS
 62
     2
100
AcDbCircle
 10
974.241588
 20
372.633658
 30
0.0
 40
2.0
100
AcDbArc
 50
275.858415
 51
355.0
  0
LINE
  5
2F5
100
AcDbEntity
  8
LAY-1
  6
CONTINUOUS
 62
     2
100
AcDbLine
 10
976.5
 20
375.5
 30
0.0
 11
976.233977
 21
372.459346
 31
0.0
  0
LINE
  5
2F6
100
AcDbEntity
  8
LAY-1
  6
CONTINUOUS
 62
     2
100
AcDbLine
 10
974.445729
 20
370.644104
 30
0.0
 11
974.147207
 21
370.613473
 31
0.0
  0
LINE
  5
2F7
100
AcDbEntity
  8
LAY-1
  6
CONTINUOUS
 62
     2
100
AcDbLine
 10
959.756355
 20
380.0
 30
0.0
 11
901.328427
 21
380.0
 31
0.0
  0
ARC
  5
2F8
100
AcDbEntity
  8
LAY-1
  6
CONTINUOUS
 62
     2
100
AcDbCircle
 10
959.756355
 20
385.0
 30
0.0
 40
5.0
100
AcDbArc
 50
270.0
 51
317.54585
  0
ARC
  5
2F9
100
AcDbEntity
  8
LAY-1
  6
CONTINUOUS
 62
     2
100
AcDbCircle
 10
897.171573
 20
380.5
 30
0.0
 40
2.0
100
AcDbArc
 50
45.0
 51
90.0
  0
ARC
  5
2FA
100
AcDbEntity
  8
LAY-1
  6
CONTINUOUS
 62
     2
100
AcDbCircle
 10
901.328427
 20
382.0
 30
0.0
 40
2.0
100
AcDbArc
 50
225.0
 51
270.0
  0
LINE
  5
2FB
100
AcDbEntity
  8
LAY-1
  6
CONTINUOUS
 62
     2
100
AcDbLine
 10
899.914214
 20
380.585786
 30
0.0
 11
898.585786
 21
381.914214
 31
0.0
  0
LINE
  5
2FC
100
AcDbEntity
  8
LAY-1
  6
CONTINUOUS
 62
     2
100
AcDbLine
 10
897.171573
 20
382.5
 30
0.0
 11
881.5
 21
382.5
 31
0.0
  0
ARC
  5
2FD
100
AcDbEntity
  8
LAY-1
  6
CONTINUOUS
 62
     2
100
AcDbCircle
 10
881.5
 20
382.0
 30
0.0
 40
0.5
100
AcDbArc
 50
90.0
 51
180.0
  0
LINE
  5
2FE
100
AcDbEntity
  8
LAY-1
  6
CONTINUOUS
 62
     2
100
AcDbLine
 10
881.0
 20
382.0
 30
0.0
 11
881.0
 21
351.0
 31
0.0
  0
LINE
  5
2FF
100
AcDbEntity
  8
LAY-1
  6
CONTINUOUS
 62
     2
100
AcDbLine
 10
897.8
 20
380.2
 30
0.0
 11
897.8
 21
358.0
 31
0.0
  0
LINE
  5
300
100
AcDbEntity
  8
LAY-1
  6
CONTINUOUS
 62
     2
100
AcDbLine
 10
900.8
 20
377.8
 30
0.0
 11
900.8
 21
358.0
 31
0.0
  0
LINE
  5
301
100
AcDbEntity
  8
LAY-1
  6
CONTINUOUS
 62
     2
100
AcDbLine
 10
881.0
 20
308.2
 30
0.0
 11
903.096876
 21
308.2
 31
0.0
  0
ARC
  5
302
100
AcDbEntity
  8
LAY-1
  6
CONTINUOUS
 62
     2
100
AcDbCircle
 10
903.096876
 20
312.2
 30
0.0
 40
4.0
100
AcDbArc
 50
270.0
 51
308.659808
  0
LINE
  5
303
100
AcDbEntity
  8
LAY-1
  6
CONTINUOUS
 62
     2
100
AcDbLine
 10
905.595656
 20
309.076525
 30
0.0
 11
908.404344
 21
311.323475
 31
0.0
  0
ARC
  5
304
100
AcDbEntity
  8
LAY-1
  6
CONTINUOUS
 62
     2
100
AcDbCircle
 10
910.903124
 20
308.2
 30
0.0
 40
4.0
100
AcDbArc
 50
90.0
 51
128.659808
  0
LINE
  5
305
100
AcDbEntity
  8
LAY-1
  6
CONTINUOUS
 62
     2
100
AcDbLine
 10
920.843146
 20
312.2
 30
0.0
 11
910.903124
 21
312.2
 31
0.0
  0
ARC
  5
306
100
AcDbEntity
  8
LAY-1
  6
CONTINUOUS
 62
     2
100
AcDbCircle
 10
920.843146
 20
316.2
 30
0.0
 40
4.0
100
AcDbArc
 50
270.0
 51
315.0
  0
ARC
  5
307
100
AcDbEntity
  8
LAY-1
  6
CONTINUOUS
 62
     2
100
AcDbCircle
 10
927.068131
 20
311.111277
 30
0.0
 40
4.0
100
AcDbArc
 50
76.179838
 51
135.0
  0
LINE
  5
308
100
AcDbEntity
  8
LAY-1
  6
CONTINUOUS
 62
     2
100
AcDbLine
 10
924.239704
 20
313.939704
 30
0.0
 11
923.671573
 21
313.371573
 31
0.0
  0
LINE
  5
309
100
AcDbEntity
  8
LAY-1
  6
CONTINUOUS
 62
     2
100
AcDbLine
 10
881.0
 20
340.5
 30
0.0
 11
881.0
 21
308.2
 31
0.0
  0
LINE
  5
30A
100
AcDbEntity
  8
LAY-1
  6
CONTINUOUS
 62
     2
100
AcDbLine
 10
904.3
 20
310.5
 30
0.0
 11
904.3
 21
321.7
 31
0.0
  0
LINE
  5
30B
100
AcDbEntity
  8
LAY-1
  6
CONTINUOUS
 62
     2
100
AcDbLine
 10
909.5
 20
313.2
 30
0.0
 11
909.5
 21
320.175782
 31
0.0
  0
ARC
  5
30C
100
AcDbEntity
  8
LAY-1
  6
CONTINUOUS
 62
     2
100
AcDbCircle
 10
874.578152
 20
325.762178
 30
0.0
 40
3.578152
100
AcDbArc
 50
145.615753
 51
214.384247
  0
ARC
  5
30D
100
AcDbEntity
  8
LAY-1
  6
CONTINUOUS
 62
     2
100
AcDbCircle
 10
884.374785
 20
319.7
 30
0.0
 40
13.374785
100
AcDbArc
 50
162.412046
 51
197.587954
  0
ARC
  5
30E
100
AcDbEntity
  8
LAY-1
  6
CONTINUOUS
 62
     2
100
AcDbCircle
 10
874.578152
 20
313.637822
 30
0.0
 40
3.578152
100
AcDbArc
 50
145.615753
 51
214.384247
  0
LINE
  5
30F
100
AcDbEntity
  8
LAY-1
  6
CONTINUOUS
 62
     2
100
AcDbLine
 10
871.0
 20
312.7
 30
0.0
 11
871.625215
 21
311.617096
 31
0.0
  0
LINE
  5
310
100
AcDbEntity
  8
LAY-1
  6
CONTINUOUS
 62
     2
100
AcDbLine
 10
871.0
 20
319.7
 30
0.0
 11
871.0
 21
312.7
 31
0.0
  0
LINE
  5
311
100
AcDbEntity
  8
LAY-1
  6
CONTINUOUS
 62
     2
100
AcDbLine
 10
871.625215
 20
311.617096
 30
0.0
 11
877.0
 21
311.617096
 31
0.0
  0
LINE
  5
312
100
AcDbEntity
  8
LAY-1
  6
CONTINUOUS
 62
     2
100
AcDbLine
 10
877.0
 20
311.617096
 30
0.0
 11
877.0
 21
319.7
 31
0.0
  0
LINE
  5
313
100
AcDbEntity
  8
LAY-1
  6
CONTINUOUS
 62
     2
100
AcDbLine
 10
879.0
 20
312.807237
 30
0.0
 11
879.0
 21
319.7
 31
0.0
  0
LINE
  5
314
100
AcDbEntity
  8
LAY-1
  6
CONTINUOUS
 62
     2
100
AcDbLine
 10
871.625215
 20
323.741452
 30
0.0
 11
877.0
 21
323.741452
 31
0.0
  0
LINE
  5
315
100
AcDbEntity
  8
LAY-1
  6
CONTINUOUS
 62
     2
100
AcDbLine
 10
877.0
 20
315.658548
 30
0.0
 11
871.625215
 21
315.658548
 31
0.0
  0
LINE
  5
316
100
AcDbEntity
  8
LAY-1
  6
CONTINUOUS
 62
     2
100
AcDbLine
 10
879.0
 20
326.592763
 30
0.0
 11
879.0
 21
319.7
 31
0.0
  0
LINE
  5
317
100
AcDbEntity
  8
LAY-1
  6
CONTINUOUS
 62
     2
100
AcDbLine
 10
877.0
 20
327.782904
 30
0.0
 11
877.0
 21
319.7
 31
0.0
  0
LINE
  5
318
100
AcDbEntity
  8
LAY-1
  6
CONTINUOUS
 62
     2
100
AcDbLine
 10
871.625215
 20
327.782904
 30
0.0
 11
877.0
 21
327.782904
 31
0.0
  0
LINE
  5
319
100
AcDbEntity
  8
LAY-1
  6
CONTINUOUS
 62
     2
100
AcDbLine
 10
871.0
 20
319.7
 30
0.0
 11
871.0
 21
326.7
 31
0.0
  0
LINE
  5
31A
100
AcDbEntity
  8
LAY-1
  6
CONTINUOUS
 62
     2
100
AcDbLine
 10
871.0
 20
326.7
 30
0.0
 11
871.625215
 21
327.782904
 31
0.0
  0
LINE
  5
31B
100
AcDbEntity
  8
LAY-1
  6
CONTINUOUS
 62
     2
100
AcDbLine
 10
877.0
 20
312.744385
 30
0.0
 11
881.0
 21
312.87009
 31
0.0
  0
LINE
  5
31C
100
AcDbEntity
  8
LAY-1
  6
CONTINUOUS
 62
     2
100
AcDbLine
 10
877.0
 20
326.655615
 30
0.0
 11
881.0
 21
326.52991
 31
0.0
  0
LINE
  5
31D
100
AcDbEntity
  8
LAY-1
  6
CONTINUOUS
 62
     2
100
AcDbLine
 10
1031.0
 20
304.7
 30
0.0
 11
971.0
 21
304.7
 31
0.0
  0
LINE
  5
31E
100
AcDbEntity
  8
LAY-1
  6
CONTINUOUS
 62
     2
100
AcDbLine
 10
971.0
 20
305.2
 30
0.0
 11
971.0
 21
296.7
 31
0.0
  0
LINE
  5
31F
100
AcDbEntity
  8
LAY-1
  6
CONTINUOUS
 62
     2
100
AcDbLine
 10
1031.0
 20
296.7
 30
0.0
 11
1031.0
 21
305.2
 31
0.0
  0
LINE
  5
320
100
AcDbEntity
  8
LAY-1
  6
CONTINUOUS
 62
     2
100
AcDbLine
 10
973.5
 20
970.5
 30
0.0
 11
969.983891
 21
1068.397329
 31
0.0
  0
ARC
  5
321
100
AcDbEntity
  8
LAY-1
  6
CONTINUOUS
 62
     2
100
AcDbCircle
 10
945.0
 20
1067.5
 30
0.0
 40
25.0
100
AcDbArc
 50
2.056968
 51
84.141585
  0
ARC
  5
322
100
AcDbEntity
  8
LAY-1
  6
CONTINUOUS
 62
     2
100
AcDbCircle
 10
1120.5
 20
1115.0
 30
0.0
 40
0.5
100
AcDbArc
 50
270.0
 51
0.0
  0
LINE
  5
323
100
AcDbEntity
  8
LAY-1
  6
CONTINUOUS
 62
     2
100
AcDbLine
 10
1028.5
 20
970.5
 30
0.0
 11
1032.016109
 21
1068.397329
 31
0.0
  0
LINE
  5
324
100
AcDbEntity
  8
LAY-1
  6
CONTINUOUS
 62
     2
100
AcDbLine
 10
1028.0
 20
969.3
 30
0.0
 11
1028.0
 21
970.5
 31
0.0
  0
LINE
  5
325
100
AcDbEntity
  8
LAY-1
  6
CONTINUOUS
 62
     2
100
AcDbLine
 10
1001.0
 20
958.3
 30
0.0
 11
1021.0
 21
958.3
 31
0.0
  0
ARC
  5
326
100
AcDbEntity
  8
LAY-1
  6
CONTINUOUS
 62
     2
100
AcDbCircle
 10
1021.0
 20
960.3
 30
0.0
 40
2.0
100
AcDbArc
 50
270.0
 51
0.0
  0
LINE
  5
327
100
AcDbEntity
  8
LAY-1
  6
CONTINUOUS
 62
     2
100
AcDbLine
 10
1023.0
 20
960.3
 30
0.0
 11
1023.0
 21
965.3
 31
0.0
  0
ARC
  5
328
100
AcDbEntity
  8
LAY-1
  6
CONTINUOUS
 62
     2
100
AcDbCircle
 10
1024.0
 20
965.3
 30
0.0
 40
1.0
100
AcDbArc
 50
90.0
 51
180.0
  0
LINE
  5
329
100
AcDbEntity
  8
LAY-1
  6
CONTINUOUS
 62
     2
100
AcDbLine
 10
1001.0
 20
958.3
 30
0.0
 11
981.0
 21
958.3
 31
0.0
  0
ARC
  5
32A
100
AcDbEntity
  8
LAY-1
  6
CONTINUOUS
 62
     2
100
AcDbCircle
 10
981.0
 20
960.3
 30
0.0
 40
2.0
100
AcDbArc
 50
180.0
 51
270.0
  0
LINE
  5
32B
100
AcDbEntity
  8
LAY-1
  6
CONTINUOUS
 62
     2
100
AcDbLine
 10
979.0
 20
960.3
 30
0.0
 11
979.0
 21
965.3
 31
0.0
  0
ARC
  5
32C
100
AcDbEntity
  8
LAY-1
  6
CONTINUOUS
 62
     2
100
AcDbCircle
 10
978.0
 20
965.3
 30
0.0
 40
1.0
100
AcDbArc
 50
0.0
 51
90.0
  0
LINE
  5
32D
100
AcDbEntity
  8
LAY-1
  6
CONTINUOUS
 62
     2
100
AcDbLine
 10
1029.0
 20
966.3
 30
0.0
 11
1029.0
 21
969.3
 31
0.0
  0
LINE
  5
32E
100
AcDbEntity
  8
LAY-1
  6
CONTINUOUS
 62
     2
100
AcDbLine
 10
973.0
 20
966.3
 30
0.0
 11
973.0
 21
969.3
 31
0.0
  0
LINE
  5
32F
100
AcDbEntity
  8
LAY-1
  6
CONTINUOUS
 62
     2
100
AcDbLine
 10
1029.0
 20
969.3
 30
0.0
 11
1025.0
 21
969.3
 31
0.0
  0
LINE
  5
330
100
AcDbEntity
  8
LAY-1
  6
CONTINUOUS
 62
     2
100
AcDbLine
 10
974.0
 20
969.3
 30
0.0
 11
974.0
 21
970.5
 31
0.0
  0
LINE
  5
331
100
AcDbEntity
  8
LAY-1
  6
CONTINUOUS
 62
     2
100
AcDbLine
 10
1028.5
 20
969.3
 30
0.0
 11
1025.0
 21
969.3
 31
0.0
  0
LINE
  5
332
100
AcDbEntity
  8
LAY-1
  6
CONTINUOUS
 62
     2
100
AcDbLine
 10
1028.5
 20
969.3
 30
0.0
 11
1025.0
 21
969.3
 31
0.0
  0
LINE
  5
333
100
AcDbEntity
  8
LAY-1
  6
CONTINUOUS
 62
     2
100
AcDbLine
 10
973.0
 20
966.3
 30
0.0
 11
1029.0
 21
966.3
 31
0.0
  0
LINE
  5
334
100
AcDbEntity
  8
LAY-1
  6
CONTINUOUS
 62
     2
100
AcDbLine
 10
1028.5
 20
969.3
 30
0.0
 11
973.0
 21
969.3
 31
0.0
  0
LINE
  5
335
100
AcDbEntity
  8
LAY-1
  6
CONTINUOUS
 62
     2
100
AcDbLine
 10
973.5
 20
970.5
 30
0.0
 11
1028.5
 21
970.5
 31
0.0
  0
ARC
  5
336
100
AcDbEntity
  8
LAY-1
  6
CONTINUOUS
 62
     2
100
AcDbCircle
 10
1057.0
 20
1067.5
 30
0.0
 40
25.0
100
AcDbArc
 50
95.858415
 51
177.943032
  0
LINE
  5
337
100
AcDbEntity
  8
LAY-1
  6
CONTINUOUS
 62
     2
100
AcDbLine
 10
881.0
 20
1115.0
 30
0.0
 11
881.0
 21
1125.5
 31
0.0
  0
LINE
  5
338
100
AcDbEntity
  8
LAY-1
  6
CONTINUOUS
 62
     2
100
AcDbLine
 10
1121.0
 20
1115.0
 30
0.0
 11
1121.0
 21
1125.5
 31
0.0
  0
ARC
  5
339
100
AcDbEntity
  8
LAY-1
  6
CONTINUOUS
 62
     2
100
AcDbCircle
 10
1081.811381
 20
1115.28207
 30
0.0
 40
20.0
100
AcDbArc
 50
275.858415
 51
338.647579
  0
LINE
  5
33A
100
AcDbEntity
  8
LAY-1
  6
CONTINUOUS
 62
     2
100
AcDbLine
 10
1096.050631
 20
1114.5
 30
0.0
 11
1111.050631
 21
1114.5
 31
0.0
  0
LINE
  5
33B
100
AcDbEntity
  8
LAY-1
  6
CONTINUOUS
 62
     2
100
AcDbLine
 10
1097.06989
 20
1108.0
 30
0.0
 11
1110.050631
 21
1108.0
 31
0.0
  0
LINE
  5
33C
100
AcDbEntity
  8
LAY-1
  6
CONTINUOUS
 62
     2
100
AcDbLine
 10
1111.050631
 20
1108.57735
 30
0.0
 11
1111.050631
 21
1114.5
 31
0.0
  0
ARC
  5
33D
100
AcDbEntity
  8
LAY-1
  6
CONTINUOUS
 62
     2
100
AcDbCircle
 10
1103.550631
 20
1120.4852
 30
0.0
 40
12.4852
100
AcDbArc
 50
252.507675
 51
287.492325
  0
LINE
  5
33E
100
AcDbEntity
  8
LAY-1
  6
CONTINUOUS
 62
     2
100
AcDbLine
 10
1097.050631
 20
1108.0
 30
0.0
 11
1096.050631
 21
1108.57735
 31
0.0
  0
LINE
  5
33F
100
AcDbEntity
  8
LAY-1
  6
CONTINUOUS
 62
     2
100
AcDbLine
 10
1110.050631
 20
1108.0
 30
0.0
 11
1111.050631
 21
1108.57735
 31
0.0
  0
ARC
  5
340
100
AcDbEntity
  8
LAY-1
  6
CONTINUOUS
 62
     2
100
AcDbCircle
 10
1109.1672
 20
1111.297008
 30
0.0
 40
3.297008
100
AcDbArc
 50
235.576995
 51
304.703566
  0
LINE
  5
341
100
AcDbEntity
  8
LAY-1
  6
CONTINUOUS
 62
     2
100
AcDbLine
 10
1099.797854
 20
1108.57735
 30
0.0
 11
1099.797854
 21
1114.5
 31
0.0
  0
ARC
  5
342
100
AcDbEntity
  8
LAY-1
  6
CONTINUOUS
 62
     2
100
AcDbCircle
 10
1097.924242
 20
1111.328788
 30
0.0
 40
3.328788
100
AcDbArc
 50
235.746813
 51
304.253187
  0
LINE
  5
343
100
AcDbEntity
  8
LAY-1
  6
CONTINUOUS
 62
     2
100
AcDbLine
 10
1107.303408
 20
1114.5
 30
0.0
 11
1107.303408
 21
1108.57735
 31
0.0
  0
LINE
  5
344
100
AcDbEntity
  8
LAY-1
  6
CONTINUOUS
 62
     2
100
AcDbLine
 10
1096.050631
 20
1114.5
 30
0.0
 11
1096.050631
 21
1108.57735
 31
0.0
  0
LINE
  5
345
100
AcDbEntity
  8
LAY-1
  6
CONTINUOUS
 62
     2
100
AcDbLine
 10
1035.977864
 20
1114.5
 30
0.0
 11
1050.977864
 21
1114.5
 31
0.0
  0
LINE
  5
346
100
AcDbEntity
  8
LAY-1
  6
CONTINUOUS
 62
     2
100
AcDbLine
 10
1036.997123
 20
1108.0
 30
0.0
 11
1049.977864
 21
1108.0
 31
0.0
  0
LINE
  5
347
100
AcDbEntity
  8
LAY-1
  6
CONTINUOUS
 62
     2
100
AcDbLine
 10
1050.977864
 20
1108.57735
 30
0.0
 11
1050.977864
 21
1114.5
 31
0.0
  0
ARC
  5
348
100
AcDbEntity
  8
LAY-1
  6
CONTINUOUS
 62
     2
100
AcDbCircle
 10
1043.477864
 20
1120.4852
 30
0.0
 40
12.4852
100
AcDbArc
 50
252.507675
 51
287.492325
  0
LINE
  5
349
100
AcDbEntity
  8
LAY-1
  6
CONTINUOUS
 62
     2
100
AcDbLine
 10
1036.977864
 20
1108.0
 30
0.0
 11
1035.977864
 21
1108.57735
 31
0.0
  0
LINE
  5
34A
100
AcDbEntity
  8
LAY-1
  6
CONTINUOUS
 62
     2
100
AcDbLine
 10
1049.977864
 20
1108.0
 30
0.0
 11
1050.977864
 21
1108.57735
 31
0.0
  0
ARC
  5
34B
100
AcDbEntity
  8
LAY-1
  6
CONTINUOUS
 62
     2
100
AcDbCircle
 10
1049.094433
 20
1111.297008
 30
0.0
 40
3.297008
100
AcDbArc
 50
235.576995
 51
304.703566
  0
LINE
  5
34C
100
AcDbEntity
  8
LAY-1
  6
CONTINUOUS
 62
     2
100
AcDbLine
 10
1039.725087
 20
1108.57735
 30
0.0
 11
1039.725087
 21
1114.5
 31
0.0
  0
ARC
  5
34D
100
AcDbEntity
  8
LAY-1
  6
CONTINUOUS
 62
     2
100
AcDbCircle
 10
1037.851475
 20
1111.328788
 30
0.0
 40
3.328788
100
AcDbArc
 50
235.746813
 51
304.253187
  0
LINE
  5
34E
100
AcDbEntity
  8
LAY-1
  6
CONTINUOUS
 62
     2
100
AcDbLine
 10
1047.23064
 20
1114.5
 30
0.0
 11
1047.23064
 21
1108.57735
 31
0.0
  0
LINE
  5
34F
100
AcDbEntity
  8
LAY-1
  6
CONTINUOUS
 62
     2
100
AcDbLine
 10
1035.977864
 20
1114.5
 30
0.0
 11
1035.977864
 21
1108.57735
 31
0.0
  0
ARC
  5
350
100
AcDbEntity
  8
LAY-1
  6
CONTINUOUS
 62
     2
100
AcDbCircle
 10
1001.0
 20
854.348662
 30
0.0
 40
305.5
100
AcDbArc
 50
72.620501
 51
83.360886
  0
LINE
  5
351
100
AcDbEntity
  8
LAY-1
  6
CONTINUOUS
 62
     2
100
AcDbLine
 10
1121.0
 20
1126.3
 30
0.0
 11
1001.0
 21
1126.3
 31
0.0
  0
ARC
  5
352
100
AcDbEntity
  8
LAY-1
  6
CONTINUOUS
 62
     2
100
AcDbCircle
 10
1001.0
 20
854.348662
 30
0.0
 40
305.5
100
AcDbArc
 50
96.639114
 51
107.379499
  0
LINE
  5
353
100
AcDbEntity
  8
LAY-1
  6
CONTINUOUS
 62
     2
100
AcDbLine
 10
881.0
 20
1126.3
 30
0.0
 11
1001.0
 21
1126.3
 31
0.0
  0
LINE
  5
354
100
AcDbEntity
  8
LAY-1
  6
CONTINUOUS
 62
     2
100
AcDbLine
 10
965.679535
 20
1157.8
 30
0.0
 11
968.0
 21
1157.8
 31
0.0
  0
ARC
  5
355
100
AcDbEntity
  8
LAY-1
  6
CONTINUOUS
 62
     2
100
AcDbCircle
 10
968.0
 20
1160.8
 30
0.0
 40
3.0
100
AcDbArc
 50
270.0
 51
0.0
  0
LINE
  5
356
100
AcDbEntity
  8
LAY-1
  6
CONTINUOUS
 62
     2
100
AcDbLine
 10
1036.320465
 20
1157.8
 30
0.0
 11
1034.0
 21
1157.8
 31
0.0
  0
ARC
  5
357
100
AcDbEntity
  8
LAY-1
  6
CONTINUOUS
 62
     2
100
AcDbCircle
 10
1034.0
 20
1160.8
 30
0.0
 40
3.0
100
AcDbArc
 50
180.0
 51
270.0
  0
LINE
  5
358
100
AcDbEntity
  8
LAY-1
  6
CONTINUOUS
 62
     2
100
AcDbLine
 10
881.0
 20
1125.5
 30
0.0
 11
1121.0
 21
1125.5
 31
0.0
  0
LINE
  5
359
100
AcDbEntity
  8
LAY-1
  6
CONTINUOUS
 62
     2
100
AcDbLine
 10
1121.0
 20
1125.5
 30
0.0
 11
1121.0
 21
1136.3
 31
0.0
  0
LINE
  5
35A
100
AcDbEntity
  8
LAY-1
  6
CONTINUOUS
 62
     2
100
AcDbLine
 10
1121.0
 20
1125.5
 30
0.0
 11
881.0
 21
1125.5
 31
0.0
  0
ARC
  5
35B
100
AcDbEntity
  8
LAY-1
  6
CONTINUOUS
 62
     2
100
AcDbCircle
 10
1103.550631
 20
1131.8148
 30
0.0
 40
12.4852
100
AcDbArc
 50
72.507675
 51
107.492325
  0
LINE
  5
35C
100
AcDbEntity
  8
LAY-1
  6
CONTINUOUS
 62
     2
100
AcDbLine
 10
1111.050631
 20
1143.72265
 30
0.0
 11
1111.050631
 21
1137.8
 31
0.0
  0
LINE
  5
35D
100
AcDbEntity
  8
LAY-1
  6
CONTINUOUS
 62
     2
100
AcDbLine
 10
1097.06989
 20
1144.3
 30
0.0
 11
1110.050631
 21
1144.3
 31
0.0
  0
LINE
  5
35E
100
AcDbEntity
  8
LAY-1
  6
CONTINUOUS
 62
     2
100
AcDbLine
 10
1096.050631
 20
1137.8
 30
0.0
 11
1096.050631
 21
1136.3
 31
0.0
  0
LINE
  5
35F
100
AcDbEntity
  8
LAY-1
  6
CONTINUOUS
 62
     2
100
AcDbLine
 10
1096.050631
 20
1137.8
 30
0.0
 11
1096.050631
 21
1143.72265
 31
0.0
  0
LINE
  5
360
100
AcDbEntity
  8
LAY-1
  6
CONTINUOUS
 62
     2
100
AcDbLine
 10
1096.050631
 20
1137.8
 30
0.0
 11
1111.050631
 21
1137.8
 31
0.0
  0
LINE
  5
361
100
AcDbEntity
  8
LAY-1
  6
CONTINUOUS
 62
     2
100
AcDbLine
 10
1097.050631
 20
1144.3
 30
0.0
 11
1096.050631
 21
1143.72265
 31
0.0
  0
LINE
  5
362
100
AcDbEntity
  8
LAY-1
  6
CONTINUOUS
 62
     2
100
AcDbLine
 10
1110.050631
 20
1144.3
 30
0.0
 11
1111.050631
 21
1143.72265
 31
0.0
  0
ARC
  5
363
100
AcDbEntity
  8
LAY-1
  6
CONTINUOUS
 62
     2
100
AcDbCircle
 10
1109.1672
 20
1141.002992
 30
0.0
 40
3.297008
100
AcDbArc
 50
55.296434
 51
124.423005
  0
LINE
  5
364
100
AcDbEntity
  8
LAY-1
  6
CONTINUOUS
 62
     2
100
AcDbLine
 10
1099.797854
 20
1143.72265
 30
0.0
 11
1099.797854
 21
1137.8
 31
0.0
  0
ARC
  5
365
100
AcDbEntity
  8
LAY-1
  6
CONTINUOUS
 62
     2
100
AcDbCircle
 10
1097.924242
 20
1140.971212
 30
0.0
 40
3.328788
100
AcDbArc
 50
55.746813
 51
124.253187
  0
LINE
  5
366
100
AcDbEntity
  8
LAY-1
  6
CONTINUOUS
 62
     2
100
AcDbLine
 10
1107.303408
 20
1137.8
 30
0.0
 11
1107.303408
 21
1143.72265
 31
0.0
  0
LINE
  5
367
100
AcDbEntity
  8
LAY-1
  6
CONTINUOUS
 62
     2
100
AcDbLine
 10
1111.050631
 20
1136.3
 30
0.0
 11
1111.050631
 21
1137.8
 31
0.0
  0
ARC
  5
368
100
AcDbEntity
  8
LAY-1
  6
CONTINUOUS
 62
     2
100
AcDbCircle
 10
1087.025408
 20
1129.200675
 30
0.0
 40
17.5
100
AcDbArc
 50
57.43796
 51
72.620501
  0
ARC
  5
369
100
AcDbEntity
  8
LAY-1
  6
CONTINUOUS
 62
     2
100
AcDbCircle
 10
1043.477864
 20
1131.8148
 30
0.0
 40
12.4852
100
AcDbArc
 50
72.507675
 51
107.492325
  0
LINE
  5
36A
100
AcDbEntity
  8
LAY-1
  6
CONTINUOUS
 62
     2
100
AcDbLine
 10
1050.977864
 20
1143.72265
 30
0.0
 11
1050.977864
 21
1137.8
 31
0.0
  0
LINE
  5
36B
100
AcDbEntity
  8
LAY-1
  6
CONTINUOUS
 62
     2
100
AcDbLine
 10
1036.997123
 20
1144.3
 30
0.0
 11
1049.977864
 21
1144.3
 31
0.0
  0
LINE
  5
36C
100
AcDbEntity
  8
LAY-1
  6
CONTINUOUS
 62
     2
100
AcDbLine
 10
1035.977864
 20
1137.8
 30
0.0
 11
1035.977864
 21
1136.3
 31
0.0
  0
LINE
  5
36D
100
AcDbEntity
  8
LAY-1
  6
CONTINUOUS
 62
     2
100
AcDbLine
 10
1035.977864
 20
1137.8
 30
0.0
 11
1035.977864
 21
1143.72265
 31
0.0
  0
LINE
  5
36E
100
AcDbEntity
  8
LAY-1
  6
CONTINUOUS
 62
     2
100
AcDbLine
 10
1035.977864
 20
1137.8
 30
0.0
 11
1050.977864
 21
1137.8
 31
0.0
  0
LINE
  5
36F
100
AcDbEntity
  8
LAY-1
  6
CONTINUOUS
 62
     2
100
AcDbLine
 10
1036.977864
 20
1144.3
 30
0.0
 11
1035.977864
 21
1143.72265
 31
0.0
  0
LINE
  5
370
100
AcDbEntity
  8
LAY-1
  6
CONTINUOUS
 62
     2
100
AcDbLine
 10
1049.977864
 20
1144.3
 30
0.0
 11
1050.977864
 21
1143.72265
 31
0.0
  0
ARC
  5
371
100
AcDbEntity
  8
LAY-1
  6
CONTINUOUS
 62
     2
100
AcDbCircle
 10
1049.094433
 20
1141.002992
 30
0.0
 40
3.297008
100
AcDbArc
 50
55.296434
 51
124.423005
  0
LINE
  5
372
100
AcDbEntity
  8
LAY-1
  6
CONTINUOUS
 62
     2
100
AcDbLine
 10
1039.725087
 20
1143.72265
 30
0.0
 11
1039.725087
 21
1137.8
 31
0.0
  0
ARC
  5
373
100
AcDbEntity
  8
LAY-1
  6
CONTINUOUS
 62
     2
100
AcDbCircle
 10
1037.851475
 20
1140.971212
 30
0.0
 40
3.328788
100
AcDbArc
 50
55.746813
 51
124.253187
  0
LINE
  5
374
100
AcDbEntity
  8
LAY-1
  6
CONTINUOUS
 62
     2
100
AcDbLine
 10
1047.23064
 20
1137.8
 30
0.0
 11
1047.23064
 21
1143.72265
 31
0.0
  0
LINE
  5
375
100
AcDbEntity
  8
LAY-1
  6
CONTINUOUS
 62
     2
100
AcDbLine
 10
1050.977864
 20
1136.3
 30
0.0
 11
1050.977864
 21
1137.8
 31
0.0
  0
ARC
  5
376
100
AcDbEntity
  8
LAY-1
  6
CONTINUOUS
 62
     2
100
AcDbCircle
 10
898.449369
 20
1131.8148
 30
0.0
 40
12.4852
100
AcDbArc
 50
72.507675
 51
107.492325
  0
LINE
  5
377
100
AcDbEntity
  8
LAY-1
  6
CONTINUOUS
 62
     2
100
AcDbLine
 10
890.949369
 20
1143.72265
 30
0.0
 11
890.949369
 21
1137.8
 31
0.0
  0
LINE
  5
378
100
AcDbEntity
  8
LAY-1
  6
CONTINUOUS
 62
     2
100
AcDbLine
 10
904.93011
 20
1144.3
 30
0.0
 11
891.949369
 21
1144.3
 31
0.0
  0
LINE
  5
379
100
AcDbEntity
  8
LAY-1
  6
CONTINUOUS
 62
     2
100
AcDbLine
 10
905.949369
 20
1137.8
 30
0.0
 11
905.949369
 21
1136.3
 31
0.0
  0
LINE
  5
37A
100
AcDbEntity
  8
LAY-1
  6
CONTINUOUS
 62
     2
100
AcDbLine
 10
905.949369
 20
1137.8
 30
0.0
 11
905.949369
 21
1143.72265
 31
0.0
  0
LINE
  5
37B
100
AcDbEntity
  8
LAY-1
  6
CONTINUOUS
 62
     2
100
AcDbLine
 10
905.949369
 20
1137.8
 30
0.0
 11
890.949369
 21
1137.8
 31
0.0
  0
LINE
  5
37C
100
AcDbEntity
  8
LAY-1
  6
CONTINUOUS
 62
     2
100
AcDbLine
 10
904.949369
 20
1144.3
 30
0.0
 11
905.949369
 21
1143.72265
 31
0.0
  0
LINE
  5
37D
100
AcDbEntity
  8
LAY-1
  6
CONTINUOUS
 62
     2
100
AcDbLine
 10
891.949369
 20
1144.3
 30
0.0
 11
890.949369
 21
1143.72265
 31
0.0
  0
ARC
  5
37E
100
AcDbEntity
  8
LAY-1
  6
CONTINUOUS
 62
     2
100
AcDbCircle
 10
892.8328
 20
1141.002992
 30
0.0
 40
3.297008
100
AcDbArc
 50
55.576995
 51
124.703566
  0
LINE
  5
37F
100
AcDbEntity
  8
LAY-1
  6
CONTINUOUS
 62
     2
100
AcDbLine
 10
902.202146
 20
1143.72265
 30
0.0
 11
902.202146
 21
1137.8
 31
0.0
  0
ARC
  5
380
100
AcDbEntity
  8
LAY-1
  6
CONTINUOUS
 62
     2
100
AcDbCircle
 10
904.075758
 20
1140.971212
 30
0.0
 40
3.328788
100
AcDbArc
 50
55.746813
 51
124.253187
  0
LINE
  5
381
100
AcDbEntity
  8
LAY-1
  6
CONTINUOUS
 62
     2
100
AcDbLine
 10
894.696592
 20
1137.8
 30
0.0
 11
894.696592
 21
1143.72265
 31
0.0
  0
LINE
  5
382
100
AcDbEntity
  8
LAY-1
  6
CONTINUOUS
 62
     2
100
AcDbLine
 10
890.949369
 20
1136.3
 30
0.0
 11
890.949369
 21
1137.8
 31
0.0
  0
ARC
  5
383
100
AcDbEntity
  8
LAY-1
  6
CONTINUOUS
 62
     2
100
AcDbCircle
 10
958.522136
 20
1131.8148
 30
0.0
 40
12.4852
100
AcDbArc
 50
72.507675
 51
107.492325
  0
LINE
  5
384
100
AcDbEntity
  8
LAY-1
  6
CONTINUOUS
 62
     2
100
AcDbLine
 10
951.022136
 20
1143.72265
 30
0.0
 11
951.022136
 21
1137.8
 31
0.0
  0
LINE
  5
385
100
AcDbEntity
  8
LAY-1
  6
CONTINUOUS
 62
     2
100
AcDbLine
 10
965.002877
 20
1144.3
 30
0.0
 11
952.022136
 21
1144.3
 31
0.0
  0
LINE
  5
386
100
AcDbEntity
  8
LAY-1
  6
CONTINUOUS
 62
     2
100
AcDbLine
 10
966.022136
 20
1137.8
 30
0.0
 11
966.022136
 21
1136.3
 31
0.0
  0
LINE
  5
387
100
AcDbEntity
  8
LAY-1
  6
CONTINUOUS
 62
     2
100
AcDbLine
 10
966.022136
 20
1137.8
 30
0.0
 11
966.022136
 21
1143.72265
 31
0.0
  0
LINE
  5
388
100
AcDbEntity
  8
LAY-1
  6
CONTINUOUS
 62
     2
100
AcDbLine
 10
966.022136
 20
1137.8
 30
0.0
 11
951.022136
 21
1137.8
 31
0.0
  0
LINE
  5
389
100
AcDbEntity
  8
LAY-1
  6
CONTINUOUS
 62
     2
100
AcDbLine
 10
965.022136
 20
1144.3
 30
0.0
 11
966.022136
 21
1143.72265
 31
0.0
  0
LINE
  5
38A
100
AcDbEntity
  8
LAY-1
  6
CONTINUOUS
 62
     2
100
AcDbLine
 10
952.022136
 20
1144.3
 30
0.0
 11
951.022136
 21
1143.72265
 31
0.0
  0
ARC
  5
38B
100
AcDbEntity
  8
LAY-1
  6
CONTINUOUS
 62
     2
100
AcDbCircle
 10
952.905567
 20
1141.002992
 30
0.0
 40
3.297008
100
AcDbArc
 50
55.576995
 51
124.703566
  0
LINE
  5
38C
100
AcDbEntity
  8
LAY-1
  6
CONTINUOUS
 62
     2
100
AcDbLine
 10
962.274913
 20
1143.72265
 30
0.0
 11
962.274913
 21
1137.8
 31
0.0
  0
ARC
  5
38D
100
AcDbEntity
  8
LAY-1
  6
CONTINUOUS
 62
     2
100
AcDbCircle
 10
964.148525
 20
1140.971212
 30
0.0
 40
3.328788
100
AcDbArc
 50
55.746813
 51
124.253187
  0
LINE
  5
38E
100
AcDbEntity
  8
LAY-1
  6
CONTINUOUS
 62
     2
100
AcDbLine
 10
954.76936
 20
1137.8
 30
0.0
 11
954.76936
 21
1143.72265
 31
0.0
  0
LINE
  5
38F
100
AcDbEntity
  8
LAY-1
  6
CONTINUOUS
 62
     2
100
AcDbLine
 10
951.022136
 20
1136.3
 30
0.0
 11
951.022136
 21
1137.8
 31
0.0
  0
ARC
  5
390
100
AcDbEntity
  8
LAY-1
  6
CONTINUOUS
 62
     2
100
AcDbCircle
 10
914.974592
 20
1129.200675
 30
0.0
 40
17.5
100
AcDbArc
 50
107.379499
 51
122.551769
  0
LINE
  5
391
100
AcDbEntity
  8
LAY-1
  6
CONTINUOUS
 62
     2
100
AcDbLine
 10
971.0
 20
1160.8
 30
0.0
 11
1001.0
 21
1160.8
 31
0.0
  0
LINE
  5
392
100
AcDbEntity
  8
LAY-1
  6
CONTINUOUS
 62
     2
100
AcDbLine
 10
1031.0
 20
1160.8
 30
0.0
 11
1001.0
 21
1160.8
 31
0.0
  0
LINE
  5
393
100
AcDbEntity
  8
LAY-1
  6
CONTINUOUS
 62
     2
100
AcDbLine
 10
971.0
 20
1160.8
 30
0.0
 11
1031.0
 21
1160.8
 31
0.0
  0
LINE
  5
394
100
AcDbEntity
  8
LAY-1
  6
CONTINUOUS
 62
     2
100
AcDbLine
 10
987.977611
 20
1160.8
 30
0.0
 11
1000.27206
 21
1160.8
 31
0.0
  0
LINE
  5
395
100
AcDbEntity
  8
LAY-1
  6
CONTINUOUS
 62
     2
100
AcDbLine
 10
1000.27206
 20
1160.8
 30
0.0
 11
1031.0
 21
1160.8
 31
0.0
  0
LINE
  5
396
100
AcDbEntity
  8
LAY-1
  6
CONTINUOUS
 62
     2
100
AcDbLine
 10
971.0
 20
1160.8
 30
0.0
 11
987.977611
 21
1160.8
 31
0.0
  0
LINE
  5
397
100
AcDbEntity
  8
LAY-1
  6
CONTINUOUS
 62
     2
100
AcDbLine
 10
1121.0
 20
1136.3
 30
0.0
 11
1001.0
 21
1136.3
 31
0.0
  0
LINE
  5
398
100
AcDbEntity
  8
LAY-1
  6
CONTINUOUS
 62
     2
100
AcDbLine
 10
881.0
 20
1136.3
 30
0.0
 11
1001.0
 21
1136.3
 31
0.0
  0
LINE
  5
399
100
AcDbEntity
  8
LAY-1
  6
CONTINUOUS
 62
     2
100
AcDbLine
 10
1001.0
 20
1114.5
 30
0.0
 11
1120.5
 21
1114.5
 31
0.0
  0
LINE
  5
39A
100
AcDbEntity
  8
LAY-1
  6
CONTINUOUS
 62
     2
100
AcDbLine
 10
881.5
 20
1114.5
 30
0.0
 11
1001.0
 21
1114.5
 31
0.0
  0
LINE
  5
39B
100
AcDbEntity
  8
LAY-1
  6
CONTINUOUS
 62
     2
100
AcDbLine
 10
1083.554271
 20
1095.355896
 30
0.0
 11
1083.852793
 21
1095.386527
 31
0.0
  0
LINE
  5
39C
100
AcDbEntity
  8
LAY-1
  6
CONTINUOUS
 62
     2
100
AcDbLine
 10
1054.448236
 20
1092.369429
 30
0.0
 11
1083.852793
 21
1095.386527
 31
0.0
  0
LINE
  5
39D
100
AcDbEntity
  8
LAY-1
  6
CONTINUOUS
 62
     2
100
AcDbLine
 10
1106.0
 20
1088.5
 30
0.0
 11
1056.0
 21
1088.5
 31
0.0
  0
LINE
  5
39E
100
AcDbEntity
  8
LAY-1
  6
CONTINUOUS
 62
     2
100
AcDbLine
 10
1056.0
 20
1088.5
 30
0.0
 11
1055.650675
 21
1092.492807
 31
0.0
  0
LINE
  5
39F
100
AcDbEntity
  8
LAY-1
  6
CONTINUOUS
 62
     2
100
AcDbLine
 10
1107.706029
 20
1108.0
 30
0.0
 11
1106.0
 21
1088.5
 31
0.0
  0
ARC
  5
3A0
100
AcDbEntity
  8
LAY-1
  6
CONTINUOUS
 62
     2
100
AcDbCircle
 10
881.5
 20
1115.0
 30
0.0
 40
0.5
100
AcDbArc
 50
180.0
 51
270.0
  0
LINE
  5
3A1
100
AcDbEntity
  8
LAY-1
  6
CONTINUOUS
 62
     2
100
AcDbLine
 10
947.551764
 20
1092.369429
 30
0.0
 11
918.147207
 21
1095.386527
 31
0.0
  0
LINE
  5
3A2
100
AcDbEntity
  8
LAY-1
  6
CONTINUOUS
 62
     2
100
AcDbLine
 10
966.022136
 20
1114.5
 30
0.0
 11
951.022136
 21
1114.5
 31
0.0
  0
LINE
  5
3A3
100
AcDbEntity
  8
LAY-1
  6
CONTINUOUS
 62
     2
100
AcDbLine
 10
965.002877
 20
1108.0
 30
0.0
 11
952.022136
 21
1108.0
 31
0.0
  0
LINE
  5
3A4
100
AcDbEntity
  8
LAY-1
  6
CONTINUOUS
 62
     2
100
AcDbLine
 10
951.022136
 20
1108.57735
 30
0.0
 11
951.022136
 21
1114.5
 31
0.0
  0
ARC
  5
3A5
100
AcDbEntity
  8
LAY-1
  6
CONTINUOUS
 62
     2
100
AcDbCircle
 10
958.522136
 20
1120.4852
 30
0.0
 40
12.4852
100
AcDbArc
 50
252.507675
 51
287.492325
  0
LINE
  5
3A6
100
AcDbEntity
  8
LAY-1
  6
CONTINUOUS
 62
     2
100
AcDbLine
 10
965.022136
 20
1108.0
 30
0.0
 11
966.022136
 21
1108.57735
 31
0.0
  0
LINE
  5
3A7
100
AcDbEntity
  8
LAY-1
  6
CONTINUOUS
 62
     2
100
AcDbLine
 10
952.022136
 20
1108.0
 30
0.0
 11
951.022136
 21
1108.57735
 31
0.0
  0
ARC
  5
3A8
100
AcDbEntity
  8
LAY-1
  6
CONTINUOUS
 62
     2
100
AcDbCircle
 10
952.905567
 20
1111.297008
 30
0.0
 40
3.297008
100
AcDbArc
 50
235.296434
 51
304.423005
  0
LINE
  5
3A9
100
AcDbEntity
  8
LAY-1
  6
CONTINUOUS
 62
     2
100
AcDbLine
 10
962.274913
 20
1108.57735
 30
0.0
 11
962.274913
 21
1114.5
 31
0.0
  0
ARC
  5
3AA
100
AcDbEntity
  8
LAY-1
  6
CONTINUOUS
 62
     2
100
AcDbCircle
 10
964.148525
 20
1111.328788
 30
0.0
 40
3.328788
100
AcDbArc
 50
235.746813
 51
304.253187
  0
LINE
  5
3AB
100
AcDbEntity
  8
LAY-1
  6
CONTINUOUS
 62
     2
100
AcDbLine
 10
954.76936
 20
1114.5
 30
0.0
 11
954.76936
 21
1108.57735
 31
0.0
  0
LINE
  5
3AC
100
AcDbEntity
  8
LAY-1
  6
CONTINUOUS
 62
     2
100
AcDbLine
 10
966.022136
 20
1114.5
 30
0.0
 11
966.022136
 21
1108.57735
 31
0.0
  0
LINE
  5
3AD
100
AcDbEntity
  8
LAY-1
  6
CONTINUOUS
 62
     2
100
AcDbLine
 10
905.949369
 20
1114.5
 30
0.0
 11
890.949369
 21
1114.5
 31
0.0
  0
LINE
  5
3AE
100
AcDbEntity
  8
LAY-1
  6
CONTINUOUS
 62
     2
100
AcDbLine
 10
904.93011
 20
1108.0
 30
0.0
 11
891.949369
 21
1108.0
 31
0.0
  0
LINE
  5
3AF
100
AcDbEntity
  8
LAY-1
  6
CONTINUOUS
 62
     2
100
AcDbLine
 10
890.949369
 20
1108.57735
 30
0.0
 11
890.949369
 21
1114.5
 31
0.0
  0
ARC
  5
3B0
100
AcDbEntity
  8
LAY-1
  6
CONTINUOUS
 62
     2
100
AcDbCircle
 10
898.449369
 20
1120.4852
 30
0.0
 40
12.4852
100
AcDbArc
 50
252.507675
 51
287.492325
  0
LINE
  5
3B1
100
AcDbEntity
  8
LAY-1
  6
CONTINUOUS
 62
     2
100
AcDbLine
 10
904.949369
 20
1108.0
 30
0.0
 11
905.949369
 21
1108.57735
 31
0.0
  0
LINE
  5
3B2
100
AcDbEntity
  8
LAY-1
  6
CONTINUOUS
 62
     2
100
AcDbLine
 10
891.949369
 20
1108.0
 30
0.0
 11
890.949369
 21
1108.57735
 31
0.0
  0
ARC
  5
3B3
100
AcDbEntity
  8
LAY-1
  6
CONTINUOUS
 62
     2
100
AcDbCircle
 10
892.8328
 20
1111.297008
 30
0.0
 40
3.297008
100
AcDbArc
 50
235.296434
 51
304.423005
  0
LINE
  5
3B4
100
AcDbEntity
  8
LAY-1
  6
CONTINUOUS
 62
     2
100
AcDbLine
 10
902.202146
 20
1108.57735
 30
0.0
 11
902.202146
 21
1114.5
 31
0.0
  0
ARC
  5
3B5
100
AcDbEntity
  8
LAY-1
  6
CONTINUOUS
 62
     2
100
AcDbCircle
 10
904.075758
 20
1111.328788
 30
0.0
 40
3.328788
100
AcDbArc
 50
235.746813
 51
304.253187
  0
LINE
  5
3B6
100
AcDbEntity
  8
LAY-1
  6
CONTINUOUS
 62
     2
100
AcDbLine
 10
894.696592
 20
1114.5
 30
0.0
 11
894.696592
 21
1108.57735
 31
0.0
  0
LINE
  5
3B7
100
AcDbEntity
  8
LAY-1
  6
CONTINUOUS
 62
     2
100
AcDbLine
 10
905.949369
 20
1114.5
 30
0.0
 11
905.949369
 21
1108.57735
 31
0.0
  0
ARC
  5
3B8
100
AcDbEntity
  8
LAY-1
  6
CONTINUOUS
 62
     2
100
AcDbCircle
 10
920.188619
 20
1115.28207
 30
0.0
 40
20.0
100
AcDbArc
 50
201.352421
 51
264.141585
  0
LINE
  5
3B9
100
AcDbEntity
  8
LAY-1
  6
CONTINUOUS
 62
     2
100
AcDbLine
 10
959.756355
 20
1086.0
 30
0.0
 11
901.328427
 21
1086.0
 31
0.0
  0
ARC
  5
3BA
100
AcDbEntity
  8
LAY-1
  6
CONTINUOUS
 62
     2
100
AcDbCircle
 10
959.756355
 20
1081.0
 30
0.0
 40
5.0
100
AcDbArc
 50
42.45415
 51
90.0
  0
ARC
  5
3BB
100
AcDbEntity
  8
LAY-1
  6
CONTINUOUS
 62
     2
100
AcDbCircle
 10
897.171573
 20
1085.5
 30
0.0
 40
2.0
100
AcDbArc
 50
270.0
 51
315.0
  0
ARC
  5
3BC
100
AcDbEntity
  8
LAY-1
  6
CONTINUOUS
 62
     2
100
AcDbCircle
 10
901.328427
 20
1084.0
 30
0.0
 40
2.0
100
AcDbArc
 50
90.0
 51
135.0
  0
LINE
  5
3BD
100
AcDbEntity
  8
LAY-1
  6
CONTINUOUS
 62
     2
100
AcDbLine
 10
899.914214
 20
1085.414214
 30
0.0
 11
898.585786
 21
1084.085786
 31
0.0
  0
LINE
  5
3BE
100
AcDbEntity
  8
LAY-1
  6
CONTINUOUS
 62
     2
100
AcDbLine
 10
897.171573
 20
1083.5
 30
0.0
 11
881.5
 21
1083.5
 31
0.0
  0
ARC
  5
3BF
100
AcDbEntity
  8
LAY-1
  6
CONTINUOUS
 62
     2
100
AcDbCircle
 10
881.5
 20
1084.0
 30
0.0
 40
0.5
100
AcDbArc
 50
180.0
 51
270.0
  0
LINE
  5
3C0
100
AcDbEntity
  8
LAY-1
  6
CONTINUOUS
 62
     2
100
AcDbLine
 10
881.0
 20
1084.0
 30
0.0
 11
881.0
 21
1115.0
 31
0.0
  0
LINE
  5
3C1
100
AcDbEntity
  8
LAY-1
  6
CONTINUOUS
 62
     2
100
AcDbLine
 10
897.8
 20
1085.8
 30
0.0
 11
897.8
 21
1108.0
 31
0.0
  0
LINE
  5
3C2
100
AcDbEntity
  8
LAY-1
  6
CONTINUOUS
 62
     2
100
AcDbLine
 10
900.8
 20
1088.2
 30
0.0
 11
900.8
 21
1108.0
 31
0.0
  0
LINE
  5
3C3
100
AcDbEntity
  8
LAY-1
  6
CONTINUOUS
 62
     2
100
AcDbLine
 10
881.0
 20
1157.8
 30
0.0
 11
903.096876
 21
1157.8
 31
0.0
  0
ARC
  5
3C4
100
AcDbEntity
  8
LAY-1
  6
CONTINUOUS
 62
     2
100
AcDbCircle
 10
903.096876
 20
1153.8
 30
0.0
 40
4.0
100
AcDbArc
 50
51.340192
 51
90.0
  0
LINE
  5
3C5
100
AcDbEntity
  8
LAY-1
  6
CONTINUOUS
 62
     2
100
AcDbLine
 10
905.595656
 20
1156.923475
 30
0.0
 11
908.404344
 21
1154.676525
 31
0.0
  0
ARC
  5
3C6
100
AcDbEntity
  8
LAY-1
  6
CONTINUOUS
 62
     2
100
AcDbCircle
 10
910.903124
 20
1157.8
 30
0.0
 40
4.0
100
AcDbArc
 50
231.340192
 51
270.0
  0
LINE
  5
3C7
100
AcDbEntity
  8
LAY-1
  6
CONTINUOUS
 62
     2
100
AcDbLine
 10
920.843146
 20
1153.8
 30
0.0
 11
910.903124
 21
1153.8
 31
0.0
  0
ARC
  5
3C8
100
AcDbEntity
  8
LAY-1
  6
CONTINUOUS
 62
     2
100
AcDbCircle
 10
920.843146
 20
1149.8
 30
0.0
 40
4.0
100
AcDbArc
 50
45.0
 51
90.0
  0
ARC
  5
3C9
100
AcDbEntity
  8
LAY-1
  6
CONTINUOUS
 62
     2
100
AcDbCircle
 10
927.068131
 20
1154.888723
 30
0.0
 40
4.0
100
AcDbArc
 50
225.0
 51
283.820162
  0
LINE
  5
3CA
100
AcDbEntity
  8
LAY-1
  6
CONTINUOUS
 62
     2
100
AcDbLine
 10
924.239704
 20
1152.060296
 30
0.0
 11
923.671573
 21
1152.628427
 31
0.0
  0
LINE
  5
3CB
100
AcDbEntity
  8
LAY-1
  6
CONTINUOUS
 62
     2
100
AcDbLine
 10
881.0
 20
1125.5
 30
0.0
 11
881.0
 21
1157.8
 31
0.0
  0
LINE
  5
3CC
100
AcDbEntity
  8
LAY-1
  6
CONTINUOUS
 62
     2
100
AcDbLine
 10
904.3
 20
1155.5
 30
0.0
 11
904.3
 21
1144.3
 31
0.0
  0
LINE
  5
3CD
100
AcDbEntity
  8
LAY-1
  6
CONTINUOUS
 62
     2
100
AcDbLine
 10
909.5
 20
1152.8
 30
0.0
 11
909.5
 21
1145.824218
 31
0.0
  0
ARC
  5
3CE
100
AcDbEntity
  8
LAY-1
  6
CONTINUOUS
 62
     2
100
AcDbCircle
 10
874.578152
 20
1140.237822
 30
0.0
 40
3.578152
100
AcDbArc
 50
145.615753
 51
214.384247
  0
ARC
  5
3CF
100
AcDbEntity
  8
LAY-1
  6
CONTINUOUS
 62
     2
100
AcDbCircle
 10
884.374785
 20
1146.3
 30
0.0
 40
13.374785
100
AcDbArc
 50
162.412046
 51
197.587954
  0
ARC
  5
3D0
100
AcDbEntity
  8
LAY-1
  6
CONTINUOUS
 62
     2
100
AcDbCircle
 10
874.578152
 20
1152.362178
 30
0.0
 40
3.578152
100
AcDbArc
 50
145.615753
 51
214.384247
  0
LINE
  5
3D1
100
AcDbEntity
  8
LAY-1
  6
CONTINUOUS
 62
     2
100
AcDbLine
 10
871.0
 20
1153.3
 30
0.0
 11
871.625215
 21
1154.382904
 31
0.0
  0
LINE
  5
3D2
100
AcDbEntity
  8
LAY-1
  6
CONTINUOUS
 62
     2
100
AcDbLine
 10
871.0
 20
1146.3
 30
0.0
 11
871.0
 21
1153.3
 31
0.0
  0
LINE
  5
3D3
100
AcDbEntity
  8
LAY-1
  6
CONTINUOUS
 62
     2
100
AcDbLine
 10
871.625215
 20
1154.382904
 30
0.0
 11
877.0
 21
1154.382904
 31
0.0
  0
LINE
  5
3D4
100
AcDbEntity
  8
LAY-1
  6
CONTINUOUS
 62
     2
100
AcDbLine
 10
877.0
 20
1154.382904
 30
0.0
 11
877.0
 21
1146.3
 31
0.0
  0
LINE
  5
3D5
100
AcDbEntity
  8
LAY-1
  6
CONTINUOUS
 62
     2
100
AcDbLine
 10
879.0
 20
1153.192763
 30
0.0
 11
879.0
 21
1146.3
 31
0.0
  0
LINE
  5
3D6
100
AcDbEntity
  8
LAY-1
  6
CONTINUOUS
 62
     2
100
AcDbLine
 10
871.625215
 20
1142.258548
 30
0.0
 11
877.0
 21
1142.258548
 31
0.0
  0
LINE
  5
3D7
100
AcDbEntity
  8
LAY-1
  6
CONTINUOUS
 62
     2
100
AcDbLine
 10
877.0
 20
1150.341452
 30
0.0
 11
871.625215
 21
1150.341452
 31
0.0
  0
LINE
  5
3D8
100
AcDbEntity
  8
LAY-1
  6
CONTINUOUS
 62
     2
100
AcDbLine
 10
879.0
 20
1139.407237
 30
0.0
 11
879.0
 21
1146.3
 31
0.0
  0
LINE
  5
3D9
100
AcDbEntity
  8
LAY-1
  6
CONTINUOUS
 62
     2
100
AcDbLine
 10
877.0
 20
1138.217096
 30
0.0
 11
877.0
 21
1146.3
 31
0.0
  0
LINE
  5
3DA
100
AcDbEntity
  8
LAY-1
  6
CONTINUOUS
 62
     2
100
AcDbLine
 10
871.625215
 20
1138.217096
 30
0.0
 11
877.0
 21
1138.217096
 31
0.0
  0
LINE
  5
3DB
100
AcDbEntity
  8
LAY-1
  6
CONTINUOUS
 62
     2
100
AcDbLine
 10
871.0
 20
1146.3
 30
0.0
 11
871.0
 21
1139.3
 31
0.0
  0
LINE
  5
3DC
100
AcDbEntity
  8
LAY-1
  6
CONTINUOUS
 62
     2
100
AcDbLine
 10
871.0
 20
1139.3
 30
0.0
 11
871.625215
 21
1138.217096
 31
0.0
  0
LINE
  5
3DD
100
AcDbEntity
  8
LAY-1
  6
CONTINUOUS
 62
     2
100
AcDbLine
 10
877.0
 20
1153.255615
 30
0.0
 11
881.0
 21
1153.12991
 31
0.0
  0
LINE
  5
3DE
100
AcDbEntity
  8
LAY-1
  6
CONTINUOUS
 62
     2
100
AcDbLine
 10
877.0
 20
1139.344385
 30
0.0
 11
881.0
 21
1139.47009
 31
0.0
  0
LINE
  5
3DF
100
AcDbEntity
  8
LAY-1
  6
CONTINUOUS
 62
     2
100
AcDbLine
 10
971.0
 20
1160.8
 30
0.0
 11
971.0
 21
1169.3
 31
0.0
  0
LINE
  5
3E0
100
AcDbEntity
  8
LAY-1
  6
CONTINUOUS
 62
     2
100
AcDbLine
 10
971.0
 20
1161.3
 30
0.0
 11
1031.0
 21
1161.3
 31
0.0
  0
LINE
  5
3E1
100
AcDbEntity
  8
LAY-1
  6
CONTINUOUS
 62
     2
100
AcDbLine
 10
1031.0
 20
1169.3
 30
0.0
 11
1031.0
 21
1160.8
 31
0.0
  0
LINE
  5
3E2
100
AcDbEntity
  8
LAY-1
  6
EXLTYPE3
 62
     1
100
AcDbLine
 10
775.2
 20
735.0
 30
0.0
 11
449.446419
 21
735.0
 31
0.0
  0
TEXT
  5
3E3
100
AcDbEntity
  8
LAY-1
  6
CONTINUOUS
 62
     4
100
AcDbText
 10
493.710447
 20
746.002801
 30
0.0
 40
6.0
  1
8D22
 50
270.0
 41
0.974788
  7
EXCADSTD
 72
     5
 11
493.710447
 21
724.559036
 31
0.0
100
AcDbText
  0
LINE
  5
3E4
100
AcDbEntity
  8
LAY-1
  6
CONTINUOUS
 62
     2
100
AcDbLine
 10
532.685952
 20
785.737548
 30
0.0
 11
535.258112
 21
787.222585
 31
0.0
  0
ARC
  5
3E5
100
AcDbEntity
  8
LAY-1
  6
CONTINUOUS
 62
     2
100
AcDbCircle
 10
484.2
 20
784.879786
 30
0.0
 40
1.0
100
AcDbArc
 50
324.103861
 51
60.933814
  0
ARC
  5
3E6
100
AcDbEntity
  8
LAY-1
  6
CONTINUOUS
 62
     2
100
AcDbCircle
 10
533.2
 20
784.879786
 30
0.0
 40
1.0
100
AcDbArc
 50
119.066186
 51
215.896139
  0
LINE
  5
3E7
100
AcDbEntity
  8
LAY-1
  6
CONTINUOUS
 62
     2
100
AcDbLine
 10
535.258112
 20
665.0
 30
0.0
 11
535.258112
 21
682.777415
 31
0.0
  0
LINE
  5
3E8
100
AcDbEntity
  8
LAY-1
  6
CONTINUOUS
 62
     2
100
AcDbLine
 10
482.141888
 20
682.777415
 30
0.0
 11
482.141888
 21
665.0
 31
0.0
  0
LINE
  5
3E9
100
AcDbEntity
  8
LAY-1
  6
CONTINUOUS
 62
     2
100
AcDbLine
 10
482.141888
 20
787.222585
 30
0.0
 11
482.141888
 21
805.0
 31
0.0
  0
LINE
  5
3EA
100
AcDbEntity
  8
LAY-1
  6
CONTINUOUS
 62
     2
100
AcDbLine
 10
535.258112
 20
805.0
 30
0.0
 11
535.258112
 21
787.222585
 31
0.0
  0
LINE
  5
3EB
100
AcDbEntity
  8
LAY-1
  6
CONTINUOUS
 62
     2
100
AcDbLine
 10
482.141888
 20
805.0
 30
0.0
 11
535.258112
 21
805.0
 31
0.0
  0
LINE
  5
3EC
100
AcDbEntity
  8
LAY-1
  6
CONTINUOUS
 62
     2
100
AcDbLine
 10
535.258112
 20
665.0
 30
0.0
 11
482.141888
 21
665.0
 31
0.0
  0
ARC
  5
3ED
100
AcDbEntity
  8
LAY-1
  6
CONTINUOUS
 62
     2
100
AcDbCircle
 10
556.7
 20
735.0
 30
0.0
 40
87.0
100
AcDbArc
 50
201.072597
 51
214.512131
  0
ARC
  5
3EE
100
AcDbEntity
  8
LAY-1
  6
CONTINUOUS
 62
     2
100
AcDbCircle
 10
460.7
 20
735.0
 30
0.0
 40
87.0
100
AcDbArc
 50
21.072597
 51
34.512131
  0
ARC
  5
3EF
100
AcDbEntity
  8
LAY-1
  6
CONTINUOUS
 62
     2
100
AcDbCircle
 10
556.7
 20
735.0
 30
0.0
 40
87.0
100
AcDbArc
 50
145.487869
 51
158.927403
  0
ARC
  5
3F0
100
AcDbEntity
  8
LAY-1
  6
CONTINUOUS
 62
     2
100
AcDbCircle
 10
473.651821
 20
703.0
 30
0.0
 40
2.0
100
AcDbArc
 50
21.072597
 51
90.0
  0
ARC
  5
3F1
100
AcDbEntity
  8
LAY-1
  6
CONTINUOUS
 62
     2
100
AcDbCircle
 10
543.748179
 20
767.0
 30
0.0
 40
2.0
100
AcDbArc
 50
201.072597
 51
270.0
  0
LINE
  5
3F2
100
AcDbEntity
  8
LAY-1
  6
CONTINUOUS
 62
     2
100
AcDbLine
 10
484.714048
 20
785.737548
 30
0.0
 11
482.141888
 21
787.222585
 31
0.0
  0
ARC
  5
3F3
100
AcDbEntity
  8
LAY-1
  6
CONTINUOUS
 62
     2
100
AcDbCircle
 10
484.2
 20
685.120214
 30
0.0
 40
1.0
100
AcDbArc
 50
299.066186
 51
35.896139
  0
ARC
  5
3F4
100
AcDbEntity
  8
LAY-1
  6
CONTINUOUS
 62
     2
100
AcDbCircle
 10
533.2
 20
685.120214
 30
0.0
 40
1.0
100
AcDbArc
 50
144.103861
 51
240.933814
  0
LINE
  5
3F5
100
AcDbEntity
  8
LAY-1
  6
CONTINUOUS
 62
     2
100
AcDbLine
 10
532.685952
 20
684.262452
 30
0.0
 11
535.258112
 21
682.777415
 31
0.0
  0
LINE
  5
3F6
100
AcDbEntity
  8
LAY-1
  6
CONTINUOUS
 62
     2
100
AcDbLine
 10
484.714048
 20
684.262452
 30
0.0
 11
482.141888
 21
682.777415
 31
0.0
  0
ARC
  5
3F7
100
AcDbEntity
  8
LAY-1
  6
CONTINUOUS
 62
     2
100
AcDbCircle
 10
473.651821
 20
767.0
 30
0.0
 40
2.0
100
AcDbArc
 50
270.0
 51
338.927403
  0
LINE
  5
3F8
100
AcDbEntity
  8
LAY-1
  6
CONTINUOUS
 62
     2
100
AcDbLine
 10
535.258112
 20
787.222585
 30
0.0
 11
482.141888
 21
787.222585
 31
0.0
  0
LINE
  5
3F9
100
AcDbEntity
  8
LAY-1
  6
CONTINUOUS
 62
     2
100
AcDbLine
 10
535.258112
 20
682.777415
 30
0.0
 11
482.141888
 21
682.777415
 31
0.0
  0
POLYLINE
  5
3FA
100
AcDbEntity
  8
LAY-1
  6
CONTINUOUS
 62
     2
100
AcDb2dPolyline
 66
     1
 10
0.0
 20
0.0
 30
0.0
 70
   128
  0
VERTEX
  5
3FB
100
AcDbEntity
  8
LAY-1
  6
CONTINUOUS
 62
     2
100
AcDbVertex
100
AcDb2dVertex
 10
478.7
 20
728.234978
 30
0.0
  0
VERTEX
  5
3FC
100
AcDbEntity
  8
LAY-1
  6
CONTINUOUS
 62
     2
100
AcDbVertex
100
AcDb2dVertex
 10
478.723066
 20
724.521381
 30
0.0
  0
VERTEX
  5
3FD
100
AcDbEntity
  8
LAY-1
  6
CONTINUOUS
 62
     2
100
AcDbVertex
100
AcDb2dVertex
 10
478.846745
 20
720.860829
 30
0.0
  0
VERTEX
  5
3FE
100
AcDbEntity
  8
LAY-1
  6
CONTINUOUS
 62
     2
100
AcDbVertex
100
AcDb2dVertex
 10
478.957628
 20
719.429076
 30
0.0
  0
VERTEX
  5
3FF
100
AcDbEntity
  8
LAY-1
  6
CONTINUOUS
 62
     2
100
AcDbVertex
100
AcDb2dVertex
 10
479.145891
 20
718.019742
 30
0.0
  0
VERTEX
  5
400
100
AcDbEntity
  8
LAY-1
  6
CONTINUOUS
 62
     2
100
AcDbVertex
100
AcDb2dVertex
 10
479.350871
 20
717.18097
 30
0.0
  0
VERTEX
  5
401
100
AcDbEntity
  8
LAY-1
  6
CONTINUOUS
 62
     2
100
AcDbVertex
100
AcDb2dVertex
 10
479.507072
 20
716.841024
 30
0.0
  0
VERTEX
  5
402
100
AcDbEntity
  8
LAY-1
  6
CONTINUOUS
 62
     2
100
AcDbVertex
100
AcDb2dVertex
 10
479.574723
 20
716.758187
 30
0.0
  0
VERTEX
  5
403
100
AcDbEntity
  8
LAY-1
  6
CONTINUOUS
 62
     2
100
AcDbVertex
100
AcDb2dVertex
 10
479.634577
 20
716.714814
 30
0.0
  0
VERTEX
  5
404
100
AcDbEntity
  8
LAY-1
  6
CONTINUOUS
 62
     2
100
AcDbVertex
100
AcDb2dVertex
 10
479.647889
 20
716.708898
 30
0.0
  0
SEQEND
  5
405
100
AcDbEntity
  8
LAY-1
  6
CONTINUOUS
 62
     2
  0
ELLIPSE
  5
406
100
AcDbEntity
  8
LAY-1
  6
CONTINUOUS
 62
     2
100
AcDbEllipse
 10
479.543668
 20
717.34277
 30
0.0
 11
-0.2287812713733996
 21
-1.9868716943650173
 31
0.0
210
0.0
220
0.0
230
1.0
 40
0.092549
 41
0.8937726761157194
 42
1.2567659292020461
  0
LINE
  5
407
100
AcDbEntity
  8
LAY-1
  6
CONTINUOUS
 62
     2
100
AcDbLine
 10
468.7
 20
735.0
 30
0.0
 11
468.7
 21
705.0
 31
0.0
  0
LINE
  5
408
100
AcDbEntity
  8
LAY-1
  6
CONTINUOUS
 62
     2
100
AcDbLine
 10
468.7
 20
765.0
 30
0.0
 11
468.7
 21
735.0
 31
0.0
  0
LINE
  5
409
100
AcDbEntity
  8
LAY-1
  6
CONTINUOUS
 62
     2
100
AcDbLine
 10
478.7
 20
741.765022
 30
0.0
 11
478.7
 21
728.234978
 31
0.0
  0
ELLIPSE
  5
40A
100
AcDbEntity
  8
LAY-1
  6
CONTINUOUS
 62
     2
100
AcDbEllipse
 10
479.543668
 20
752.65723
 30
0.0
 11
-0.2287812713758374
 21
1.9868716943647005
 31
0.0
210
0.0
220
0.0
230
1.0
 40
0.092549
 41
5.026419377973423
 42
5.3894126310642498
  0
POLYLINE
  5
40B
100
AcDbEntity
  8
LAY-1
  6
CONTINUOUS
 62
     2
100
AcDb2dPolyline
 66
     1
 10
0.0
 20
0.0
 30
0.0
 70
   128
  0
VERTEX
  5
40C
100
AcDbEntity
  8
LAY-1
  6
CONTINUOUS
 62
     2
100
AcDbVertex
100
AcDb2dVertex
 10
479.647889
 20
753.291102
 30
0.0
  0
VERTEX
  5
40D
100
AcDbEntity
  8
LAY-1
  6
CONTINUOUS
 62
     2
100
AcDbVertex
100
AcDb2dVertex
 10
479.578212
 20
753.245101
 30
0.0
  0
VERTEX
  5
40E
100
AcDbEntity
  8
LAY-1
  6
CONTINUOUS
 62
     2
100
AcDbVertex
100
AcDb2dVertex
 10
479.563613
 20
753.230706
 30
0.0
  0
VERTEX
  5
40F
100
AcDbEntity
  8
LAY-1
  6
CONTINUOUS
 62
     2
100
AcDbVertex
100
AcDb2dVertex
 10
479.431668
 20
753.022153
 30
0.0
  0
VERTEX
  5
410
100
AcDbEntity
  8
LAY-1
  6
CONTINUOUS
 62
     2
100
AcDbVertex
100
AcDb2dVertex
 10
479.23785
 20
752.42205
 30
0.0
  0
VERTEX
  5
411
100
AcDbEntity
  8
LAY-1
  6
CONTINUOUS
 62
     2
100
AcDbVertex
100
AcDb2dVertex
 10
479.101354
 20
751.718461
 30
0.0
  0
VERTEX
  5
412
100
AcDbEntity
  8
LAY-1
  6
CONTINUOUS
 62
     2
100
AcDbVertex
100
AcDb2dVertex
 10
478.87714
 20
749.607243
 30
0.0
  0
VERTEX
  5
413
100
AcDbEntity
  8
LAY-1
  6
CONTINUOUS
 62
     2
100
AcDbVertex
100
AcDb2dVertex
 10
478.774587
 20
747.590885
 30
0.0
  0
VERTEX
  5
414
100
AcDbEntity
  8
LAY-1
  6
CONTINUOUS
 62
     2
100
AcDbVertex
100
AcDb2dVertex
 10
478.713103
 20
744.709325
 30
0.0
  0
VERTEX
  5
415
100
AcDbEntity
  8
LAY-1
  6
CONTINUOUS
 62
     2
100
AcDbVertex
100
AcDb2dVertex
 10
478.7
 20
741.765022
 30
0.0
  0
SEQEND
  5
416
100
AcDbEntity
  8
LAY-1
  6
CONTINUOUS
 62
     2
  0
POLYLINE
  5
417
100
AcDbEntity
  8
LAY-1
  6
CONTINUOUS
 62
     2
100
AcDb2dPolyline
 66
     1
 10
0.0
 20
0.0
 30
0.0
 70
   128
  0
VERTEX
  5
418
100
AcDbEntity
  8
LAY-1
  6
CONTINUOUS
 62
     2
100
AcDbVertex
100
AcDb2dVertex
 10
474.9377
 20
706.111971
 30
0.0
  0
VERTEX
  5
419
100
AcDbEntity
  8
LAY-1
  6
CONTINUOUS
 62
     2
100
AcDbVertex
100
AcDb2dVertex
 10
475.371855
 20
706.9396
 30
0.0
  0
VERTEX
  5
41A
100
AcDbEntity
  8
LAY-1
  6
CONTINUOUS
 62
     2
100
AcDbVertex
100
AcDb2dVertex
 10
475.909922
 20
707.989152
 30
0.0
  0
VERTEX
  5
41B
100
AcDbEntity
  8
LAY-1
  6
CONTINUOUS
 62
     2
100
AcDbVertex
100
AcDb2dVertex
 10
476.512911
 20
709.200158
 30
0.0
  0
VERTEX
  5
41C
100
AcDbEntity
  8
LAY-1
  6
CONTINUOUS
 62
     2
100
AcDbVertex
100
AcDb2dVertex
 10
477.185707
 20
710.600867
 30
0.0
  0
VERTEX
  5
41D
100
AcDbEntity
  8
LAY-1
  6
CONTINUOUS
 62
     2
100
AcDbVertex
100
AcDb2dVertex
 10
477.924017
 20
712.208539
 30
0.0
  0
VERTEX
  5
41E
100
AcDbEntity
  8
LAY-1
  6
CONTINUOUS
 62
     2
100
AcDbVertex
100
AcDb2dVertex
 10
478.7
 20
713.995131
 30
0.0
  0
VERTEX
  5
41F
100
AcDbEntity
  8
LAY-1
  6
CONTINUOUS
 62
     2
100
AcDbVertex
100
AcDb2dVertex
 10
478.731745
 20
714.070676
 30
0.0
  0
VERTEX
  5
420
100
AcDbEntity
  8
LAY-1
  6
CONTINUOUS
 62
     2
100
AcDbVertex
100
AcDb2dVertex
 10
479.137273
 20
715.05511
 30
0.0
  0
VERTEX
  5
421
100
AcDbEntity
  8
LAY-1
  6
CONTINUOUS
 62
     2
100
AcDbVertex
100
AcDb2dVertex
 10
479.543668
 20
716.081539
 30
0.0
  0
SEQEND
  5
422
100
AcDbEntity
  8
LAY-1
  6
CONTINUOUS
 62
     2
  0
POLYLINE
  5
423
100
AcDbEntity
  8
LAY-1
  6
CONTINUOUS
 62
     2
100
AcDb2dPolyline
 66
     1
 10
0.0
 20
0.0
 30
0.0
 70
   128
  0
VERTEX
  5
424
100
AcDbEntity
  8
LAY-1
  6
CONTINUOUS
 62
     2
100
AcDbVertex
100
AcDb2dVertex
 10
479.543668
 20
753.918461
 30
0.0
  0
VERTEX
  5
425
100
AcDbEntity
  8
LAY-1
  6
CONTINUOUS
 62
     2
100
AcDbVertex
100
AcDb2dVertex
 10
479.122131
 20
754.982327
 30
0.0
  0
VERTEX
  5
426
100
AcDbEntity
  8
LAY-1
  6
CONTINUOUS
 62
     2
100
AcDbVertex
100
AcDb2dVertex
 10
478.7
 20
756.004869
 30
0.0
  0
VERTEX
  5
427
100
AcDbEntity
  8
LAY-1
  6
CONTINUOUS
 62
     2
100
AcDbVertex
100
AcDb2dVertex
 10
478.224757
 20
757.112038
 30
0.0
  0
VERTEX
  5
428
100
AcDbEntity
  8
LAY-1
  6
CONTINUOUS
 62
     2
100
AcDbVertex
100
AcDb2dVertex
 10
477.75747
 20
758.161279
 30
0.0
  0
VERTEX
  5
429
100
AcDbEntity
  8
LAY-1
  6
CONTINUOUS
 62
     2
100
AcDbVertex
100
AcDb2dVertex
 10
477.13085
 20
759.515486
 30
0.0
  0
VERTEX
  5
42A
100
AcDbEntity
  8
LAY-1
  6
CONTINUOUS
 62
     2
100
AcDbVertex
100
AcDb2dVertex
 10
476.53949
 20
760.745543
 30
0.0
  0
VERTEX
  5
42B
100
AcDbEntity
  8
LAY-1
  6
CONTINUOUS
 62
     2
100
AcDbVertex
100
AcDb2dVertex
 10
475.989219
 20
761.853782
 30
0.0
  0
VERTEX
  5
42C
100
AcDbEntity
  8
LAY-1
  6
CONTINUOUS
 62
     2
100
AcDbVertex
100
AcDb2dVertex
 10
475.499502
 20
762.813887
 30
0.0
  0
VERTEX
  5
42D
100
AcDbEntity
  8
LAY-1
  6
CONTINUOUS
 62
     2
100
AcDbVertex
100
AcDb2dVertex
 10
475.096301
 20
763.587579
 30
0.0
  0
SEQEND
  5
42E
100
AcDbEntity
  8
LAY-1
  6
CONTINUOUS
 62
     2
  0
POLYLINE
  5
42F
100
AcDbEntity
  8
LAY-1
  6
CONTINUOUS
 62
     2
100
AcDb2dPolyline
 66
     1
 10
0.0
 20
0.0
 30
0.0
 70
   128
  0
VERTEX
  5
430
100
AcDbEntity
  8
LAY-1
  6
CONTINUOUS
 62
     2
100
AcDbVertex
100
AcDb2dVertex
 10
537.949318
 20
713.996752
 30
0.0
  0
VERTEX
  5
431
100
AcDbEntity
  8
LAY-1
  6
CONTINUOUS
 62
     2
100
AcDbVertex
100
AcDb2dVertex
 10
537.515379
 20
713.19869
 30
0.0
  0
VERTEX
  5
432
100
AcDbEntity
  8
LAY-1
  6
CONTINUOUS
 62
     2
100
AcDbVertex
100
AcDb2dVertex
 10
536.819433
 20
711.724321
 30
0.0
  0
VERTEX
  5
433
100
AcDbEntity
  8
LAY-1
  6
CONTINUOUS
 62
     2
100
AcDbVertex
100
AcDb2dVertex
 10
536.240393
 20
710.149529
 30
0.0
  0
VERTEX
  5
434
100
AcDbEntity
  8
LAY-1
  6
CONTINUOUS
 62
     2
100
AcDbVertex
100
AcDb2dVertex
 10
535.911442
 20
708.881716
 30
0.0
  0
VERTEX
  5
435
100
AcDbEntity
  8
LAY-1
  6
CONTINUOUS
 62
     2
100
AcDbVertex
100
AcDb2dVertex
 10
535.71807
 20
707.595376
 30
0.0
  0
VERTEX
  5
436
100
AcDbEntity
  8
LAY-1
  6
CONTINUOUS
 62
     2
100
AcDbVertex
100
AcDb2dVertex
 10
535.68276
 20
707.042619
 30
0.0
  0
VERTEX
  5
437
100
AcDbEntity
  8
LAY-1
  6
CONTINUOUS
 62
     2
100
AcDbVertex
100
AcDb2dVertex
 10
535.715956
 20
705.843865
 30
0.0
  0
VERTEX
  5
438
100
AcDbEntity
  8
LAY-1
  6
CONTINUOUS
 62
     2
100
AcDbVertex
100
AcDb2dVertex
 10
535.899655
 20
704.727377
 30
0.0
  0
VERTEX
  5
439
100
AcDbEntity
  8
LAY-1
  6
CONTINUOUS
 62
     2
100
AcDbVertex
100
AcDb2dVertex
 10
536.298994
 20
703.525543
 30
0.0
  0
VERTEX
  5
43A
100
AcDbEntity
  8
LAY-1
  6
CONTINUOUS
 62
     2
100
AcDbVertex
100
AcDb2dVertex
 10
536.846455
 20
702.527381
 30
0.0
  0
VERTEX
  5
43B
100
AcDbEntity
  8
LAY-1
  6
CONTINUOUS
 62
     2
100
AcDbVertex
100
AcDb2dVertex
 10
537.445733
 20
701.79912
 30
0.0
  0
VERTEX
  5
43C
100
AcDbEntity
  8
LAY-1
  6
CONTINUOUS
 62
     2
100
AcDbVertex
100
AcDb2dVertex
 10
538.098215
 20
701.272344
 30
0.0
  0
SEQEND
  5
43D
100
AcDbEntity
  8
LAY-1
  6
CONTINUOUS
 62
     2
  0
POLYLINE
  5
43E
100
AcDbEntity
  8
LAY-1
  6
CONTINUOUS
 62
     2
100
AcDb2dPolyline
 66
     1
 10
0.0
 20
0.0
 30
0.0
 70
   128
  0
VERTEX
  5
43F
100
AcDbEntity
  8
LAY-1
  6
CONTINUOUS
 62
     2
100
AcDbVertex
100
AcDb2dVertex
 10
538.098215
 20
701.272344
 30
0.0
  0
VERTEX
  5
440
100
AcDbEntity
  8
LAY-1
  6
CONTINUOUS
 62
     2
100
AcDbVertex
100
AcDb2dVertex
 10
538.997654
 20
700.615119
 30
0.0
  0
VERTEX
  5
441
100
AcDbEntity
  8
LAY-1
  6
CONTINUOUS
 62
     2
100
AcDbVertex
100
AcDb2dVertex
 10
539.716173
 20
700.073022
 30
0.0
  0
VERTEX
  5
442
100
AcDbEntity
  8
LAY-1
  6
CONTINUOUS
 62
     2
100
AcDbVertex
100
AcDb2dVertex
 10
540.251558
 20
699.659891
 30
0.0
  0
VERTEX
  5
443
100
AcDbEntity
  8
LAY-1
  6
CONTINUOUS
 62
     2
100
AcDbVertex
100
AcDb2dVertex
 10
540.582564
 20
699.400737
 30
0.0
  0
VERTEX
  5
444
100
AcDbEntity
  8
LAY-1
  6
CONTINUOUS
 62
     2
100
AcDbVertex
100
AcDb2dVertex
 10
540.698043
 20
699.309676
 30
0.0
  0
VERTEX
  5
445
100
AcDbEntity
  8
LAY-1
  6
CONTINUOUS
 62
     2
100
AcDbVertex
100
AcDb2dVertex
 10
540.6882
 20
699.317445
 30
0.0
  0
SEQEND
  5
446
100
AcDbEntity
  8
LAY-1
  6
CONTINUOUS
 62
     2
  0
POLYLINE
  5
447
100
AcDbEntity
  8
LAY-1
  6
CONTINUOUS
 62
     2
100
AcDb2dPolyline
 66
     1
 10
0.0
 20
0.0
 30
0.0
 70
   128
  0
VERTEX
  5
448
100
AcDbEntity
  8
LAY-1
  6
CONTINUOUS
 62
     2
100
AcDbVertex
100
AcDb2dVertex
 10
545.38404
 20
711.482982
 30
0.0
  0
VERTEX
  5
449
100
AcDbEntity
  8
LAY-1
  6
CONTINUOUS
 62
     2
100
AcDbVertex
100
AcDb2dVertex
 10
544.503157
 20
711.770784
 30
0.0
  0
VERTEX
  5
44A
100
AcDbEntity
  8
LAY-1
  6
CONTINUOUS
 62
     2
100
AcDbVertex
100
AcDb2dVertex
 10
542.286942
 20
712.505814
 30
0.0
  0
VERTEX
  5
44B
100
AcDbEntity
  8
LAY-1
  6
CONTINUOUS
 62
     2
100
AcDbVertex
100
AcDb2dVertex
 10
540.122786
 20
713.240584
 30
0.0
  0
VERTEX
  5
44C
100
AcDbEntity
  8
LAY-1
  6
CONTINUOUS
 62
     2
100
AcDbVertex
100
AcDb2dVertex
 10
537.949318
 20
713.996752
 30
0.0
  0
SEQEND
  5
44D
100
AcDbEntity
  8
LAY-1
  6
CONTINUOUS
 62
     2
  0
POLYLINE
  5
44E
100
AcDbEntity
  8
LAY-1
  6
CONTINUOUS
 62
     2
100
AcDb2dPolyline
 66
     1
 10
0.0
 20
0.0
 30
0.0
 70
   128
  0
VERTEX
  5
44F
100
AcDbEntity
  8
LAY-1
  6
CONTINUOUS
 62
     2
100
AcDbVertex
100
AcDb2dVertex
 10
546.699111
 20
706.24226
 30
0.0
  0
VERTEX
  5
450
100
AcDbEntity
  8
LAY-1
  6
CONTINUOUS
 62
     2
100
AcDbVertex
100
AcDb2dVertex
 10
546.687299
 20
707.292509
 30
0.0
  0
VERTEX
  5
451
100
AcDbEntity
  8
LAY-1
  6
CONTINUOUS
 62
     2
100
AcDbVertex
100
AcDb2dVertex
 10
546.592001
 20
708.667887
 30
0.0
  0
VERTEX
  5
452
100
AcDbEntity
  8
LAY-1
  6
CONTINUOUS
 62
     2
100
AcDbVertex
100
AcDb2dVertex
 10
546.485305
 20
709.338771
 30
0.0
  0
VERTEX
  5
453
100
AcDbEntity
  8
LAY-1
  6
CONTINUOUS
 62
     2
100
AcDbVertex
100
AcDb2dVertex
 10
546.305095
 20
710.036355
 30
0.0
  0
VERTEX
  5
454
100
AcDbEntity
  8
LAY-1
  6
CONTINUOUS
 62
     2
100
AcDbVertex
100
AcDb2dVertex
 10
546.124718
 20
710.50389
 30
0.0
  0
VERTEX
  5
455
100
AcDbEntity
  8
LAY-1
  6
CONTINUOUS
 62
     2
100
AcDbVertex
100
AcDb2dVertex
 10
545.868927
 20
710.966583
 30
0.0
  0
VERTEX
  5
456
100
AcDbEntity
  8
LAY-1
  6
CONTINUOUS
 62
     2
100
AcDbVertex
100
AcDb2dVertex
 10
545.38404
 20
711.482982
 30
0.0
  0
SEQEND
  5
457
100
AcDbEntity
  8
LAY-1
  6
CONTINUOUS
 62
     2
  0
POLYLINE
  5
458
100
AcDbEntity
  8
LAY-1
  6
CONTINUOUS
 62
     2
100
AcDb2dPolyline
 66
     1
 10
0.0
 20
0.0
 30
0.0
 70
   128
  0
VERTEX
  5
459
100
AcDbEntity
  8
LAY-1
  6
CONTINUOUS
 62
     2
100
AcDbVertex
100
AcDb2dVertex
 10
548.7
 20
705.0
 30
0.0
  0
VERTEX
  5
45A
100
AcDbEntity
  8
LAY-1
  6
CONTINUOUS
 62
     2
100
AcDbVertex
100
AcDb2dVertex
 10
547.997531
 20
704.867444
 30
0.0
  0
VERTEX
  5
45B
100
AcDbEntity
  8
LAY-1
  6
CONTINUOUS
 62
     2
100
AcDbVertex
100
AcDb2dVertex
 10
547.376696
 20
704.491784
 30
0.0
  0
VERTEX
  5
45C
100
AcDbEntity
  8
LAY-1
  6
CONTINUOUS
 62
     2
100
AcDbVertex
100
AcDb2dVertex
 10
546.933627
 20
703.929328
 30
0.0
  0
VERTEX
  5
45D
100
AcDbEntity
  8
LAY-1
  6
CONTINUOUS
 62
     2
100
AcDbVertex
100
AcDb2dVertex
 10
546.7
 20
703.217834
 30
0.0
  0
SEQEND
  5
45E
100
AcDbEntity
  8
LAY-1
  6
CONTINUOUS
 62
     2
  0
ARC
  5
45F
100
AcDbEntity
  8
LAY-1
  6
CONTINUOUS
 62
     2
100
AcDbCircle
 10
544.7
 20
702.891582
 30
0.0
 40
2.0
100
AcDbArc
 50
290.0
 51
0.0
  0
POLYLINE
  5
460
100
AcDbEntity
  8
LAY-1
  6
CONTINUOUS
 62
     2
100
AcDb2dPolyline
 66
     1
 10
0.0
 20
0.0
 30
0.0
 70
   128
  0
VERTEX
  5
461
100
AcDbEntity
  8
LAY-1
  6
CONTINUOUS
 62
     2
100
AcDbVertex
100
AcDb2dVertex
 10
539.582058
 20
698.270184
 30
0.0
  0
VERTEX
  5
462
100
AcDbEntity
  8
LAY-1
  6
CONTINUOUS
 62
     2
100
AcDbVertex
100
AcDb2dVertex
 10
539.677434
 20
698.471985
 30
0.0
  0
VERTEX
  5
463
100
AcDbEntity
  8
LAY-1
  6
CONTINUOUS
 62
     2
100
AcDbVertex
100
AcDb2dVertex
 10
539.936776
 20
698.810364
 30
0.0
  0
VERTEX
  5
464
100
AcDbEntity
  8
LAY-1
  6
CONTINUOUS
 62
     2
100
AcDbVertex
100
AcDb2dVertex
 10
540.270908
 20
699.092137
 30
0.0
  0
VERTEX
  5
465
100
AcDbEntity
  8
LAY-1
  6
CONTINUOUS
 62
     2
100
AcDbVertex
100
AcDb2dVertex
 10
540.622702
 20
699.28032
 30
0.0
  0
VERTEX
  5
466
100
AcDbEntity
  8
LAY-1
  6
CONTINUOUS
 62
     2
100
AcDbVertex
100
AcDb2dVertex
 10
540.693231
 20
699.302073
 30
0.0
  0
SEQEND
  5
467
100
AcDbEntity
  8
LAY-1
  6
CONTINUOUS
 62
     2
  0
LINE
  5
468
100
AcDbEntity
  8
LAY-1
  6
CONTINUOUS
 62
     2
100
AcDbLine
 10
540.692826
 20
699.304735
 30
0.0
 11
545.38404
 21
701.012197
 31
0.0
  0
ARC
  5
469
100
AcDbEntity
  8
LAY-1
  6
CONTINUOUS
 62
     2
100
AcDbCircle
 10
460.7
 20
735.0
 30
0.0
 40
87.0
100
AcDbArc
 50
325.487895
 51
335.031923
  0
LINE
  5
46A
100
AcDbEntity
  8
LAY-1
  6
CONTINUOUS
 62
     2
100
AcDbLine
 10
546.7
 20
706.24226
 30
0.0
 11
546.7
 21
702.891582
 31
0.0
  0
POLYLINE
  5
46B
100
AcDbEntity
  8
LAY-1
  6
CONTINUOUS
 62
     2
100
AcDb2dPolyline
 66
     1
 10
0.0
 20
0.0
 30
0.0
 70
   128
  0
VERTEX
  5
46C
100
AcDbEntity
  8
LAY-1
  6
CONTINUOUS
 62
     2
100
AcDbVertex
100
AcDb2dVertex
 10
538.7
 20
728.234978
 30
0.0
  0
VERTEX
  5
46D
100
AcDbEntity
  8
LAY-1
  6
CONTINUOUS
 62
     2
100
AcDbVertex
100
AcDb2dVertex
 10
538.676934
 20
724.521381
 30
0.0
  0
VERTEX
  5
46E
100
AcDbEntity
  8
LAY-1
  6
CONTINUOUS
 62
     2
100
AcDbVertex
100
AcDb2dVertex
 10
538.553255
 20
720.860829
 30
0.0
  0
VERTEX
  5
46F
100
AcDbEntity
  8
LAY-1
  6
CONTINUOUS
 62
     2
100
AcDbVertex
100
AcDb2dVertex
 10
538.442372
 20
719.429076
 30
0.0
  0
VERTEX
  5
470
100
AcDbEntity
  8
LAY-1
  6
CONTINUOUS
 62
     2
100
AcDbVertex
100
AcDb2dVertex
 10
538.254109
 20
718.019742
 30
0.0
  0
VERTEX
  5
471
100
AcDbEntity
  8
LAY-1
  6
CONTINUOUS
 62
     2
100
AcDbVertex
100
AcDb2dVertex
 10
538.049129
 20
717.18097
 30
0.0
  0
VERTEX
  5
472
100
AcDbEntity
  8
LAY-1
  6
CONTINUOUS
 62
     2
100
AcDbVertex
100
AcDb2dVertex
 10
537.892928
 20
716.841024
 30
0.0
  0
VERTEX
  5
473
100
AcDbEntity
  8
LAY-1
  6
CONTINUOUS
 62
     2
100
AcDbVertex
100
AcDb2dVertex
 10
537.825277
 20
716.758187
 30
0.0
  0
VERTEX
  5
474
100
AcDbEntity
  8
LAY-1
  6
CONTINUOUS
 62
     2
100
AcDbVertex
100
AcDb2dVertex
 10
537.765423
 20
716.714814
 30
0.0
  0
VERTEX
  5
475
100
AcDbEntity
  8
LAY-1
  6
CONTINUOUS
 62
     2
100
AcDbVertex
100
AcDb2dVertex
 10
537.752111
 20
716.708898
 30
0.0
  0
SEQEND
  5
476
100
AcDbEntity
  8
LAY-1
  6
CONTINUOUS
 62
     2
  0
ELLIPSE
  5
477
100
AcDbEntity
  8
LAY-1
  6
CONTINUOUS
 62
     2
100
AcDbEllipse
 10
537.856332
 20
717.34277
 30
0.0
 11
0.2287812713733972
 21
-1.9868716943650022
 31
0.0
210
0.0
220
0.0
230
1.0
 40
0.092549
 41
5.0264193779775432
 42
5.3894126310638715
  0
LINE
  5
478
100
AcDbEntity
  8
LAY-1
  6
CONTINUOUS
 62
     2
100
AcDbLine
 10
538.7
 20
741.765022
 30
0.0
 11
538.7
 21
728.234978
 31
0.0
  0
ELLIPSE
  5
479
100
AcDbEntity
  8
LAY-1
  6
CONTINUOUS
 62
     2
100
AcDbEllipse
 10
537.856332
 20
752.65723
 30
0.0
 11
-0.2287812713758379
 21
-1.9868716943647002
 31
0.0
210
0.0
220
0.0
230
1.0
 40
0.092549
 41
4.0353653297051304
 42
4.3983585827959644
  0
POLYLINE
  5
47A
100
AcDbEntity
  8
LAY-1
  6
CONTINUOUS
 62
     2
100
AcDb2dPolyline
 66
     1
 10
0.0
 20
0.0
 30
0.0
 70
   128
  0
VERTEX
  5
47B
100
AcDbEntity
  8
LAY-1
  6
CONTINUOUS
 62
     2
100
AcDbVertex
100
AcDb2dVertex
 10
537.752111
 20
753.291102
 30
0.0
  0
VERTEX
  5
47C
100
AcDbEntity
  8
LAY-1
  6
CONTINUOUS
 62
     2
100
AcDbVertex
100
AcDb2dVertex
 10
537.821788
 20
753.245101
 30
0.0
  0
VERTEX
  5
47D
100
AcDbEntity
  8
LAY-1
  6
CONTINUOUS
 62
     2
100
AcDbVertex
100
AcDb2dVertex
 10
537.836387
 20
753.230706
 30
0.0
  0
VERTEX
  5
47E
100
AcDbEntity
  8
LAY-1
  6
CONTINUOUS
 62
     2
100
AcDbVertex
100
AcDb2dVertex
 10
537.968332
 20
753.022153
 30
0.0
  0
VERTEX
  5
47F
100
AcDbEntity
  8
LAY-1
  6
CONTINUOUS
 62
     2
100
AcDbVertex
100
AcDb2dVertex
 10
538.16215
 20
752.42205
 30
0.0
  0
VERTEX
  5
480
100
AcDbEntity
  8
LAY-1
  6
CONTINUOUS
 62
     2
100
AcDbVertex
100
AcDb2dVertex
 10
538.298646
 20
751.718461
 30
0.0
  0
VERTEX
  5
481
100
AcDbEntity
  8
LAY-1
  6
CONTINUOUS
 62
     2
100
AcDbVertex
100
AcDb2dVertex
 10
538.52286
 20
749.607243
 30
0.0
  0
VERTEX
  5
482
100
AcDbEntity
  8
LAY-1
  6
CONTINUOUS
 62
     2
100
AcDbVertex
100
AcDb2dVertex
 10
538.625413
 20
747.590885
 30
0.0
  0
VERTEX
  5
483
100
AcDbEntity
  8
LAY-1
  6
CONTINUOUS
 62
     2
100
AcDbVertex
100
AcDb2dVertex
 10
538.686897
 20
744.709325
 30
0.0
  0
VERTEX
  5
484
100
AcDbEntity
  8
LAY-1
  6
CONTINUOUS
 62
     2
100
AcDbVertex
100
AcDb2dVertex
 10
538.7
 20
741.765022
 30
0.0
  0
SEQEND
  5
485
100
AcDbEntity
  8
LAY-1
  6
CONTINUOUS
 62
     2
  0
POLYLINE
  5
486
100
AcDbEntity
  8
LAY-1
  6
CONTINUOUS
 62
     2
100
AcDb2dPolyline
 66
     1
 10
0.0
 20
0.0
 30
0.0
 70
   128
  0
VERTEX
  5
487
100
AcDbEntity
  8
LAY-1
  6
CONTINUOUS
 62
     2
100
AcDbVertex
100
AcDb2dVertex
 10
537.856332
 20
753.918461
 30
0.0
  0
VERTEX
  5
488
100
AcDbEntity
  8
LAY-1
  6
CONTINUOUS
 62
     2
100
AcDbVertex
100
AcDb2dVertex
 10
538.277869
 20
754.982327
 30
0.0
  0
VERTEX
  5
489
100
AcDbEntity
  8
LAY-1
  6
CONTINUOUS
 62
     2
100
AcDbVertex
100
AcDb2dVertex
 10
538.7
 20
756.004869
 30
0.0
  0
VERTEX
  5
48A
100
AcDbEntity
  8
LAY-1
  6
CONTINUOUS
 62
     2
100
AcDbVertex
100
AcDb2dVertex
 10
539.175243
 20
757.112038
 30
0.0
  0
VERTEX
  5
48B
100
AcDbEntity
  8
LAY-1
  6
CONTINUOUS
 62
     2
100
AcDbVertex
100
AcDb2dVertex
 10
539.64253
 20
758.161279
 30
0.0
  0
VERTEX
  5
48C
100
AcDbEntity
  8
LAY-1
  6
CONTINUOUS
 62
     2
100
AcDbVertex
100
AcDb2dVertex
 10
540.26915
 20
759.515486
 30
0.0
  0
VERTEX
  5
48D
100
AcDbEntity
  8
LAY-1
  6
CONTINUOUS
 62
     2
100
AcDbVertex
100
AcDb2dVertex
 10
540.86051
 20
760.745543
 30
0.0
  0
VERTEX
  5
48E
100
AcDbEntity
  8
LAY-1
  6
CONTINUOUS
 62
     2
100
AcDbVertex
100
AcDb2dVertex
 10
541.410781
 20
761.853782
 30
0.0
  0
VERTEX
  5
48F
100
AcDbEntity
  8
LAY-1
  6
CONTINUOUS
 62
     2
100
AcDbVertex
100
AcDb2dVertex
 10
541.900498
 20
762.813887
 30
0.0
  0
VERTEX
  5
490
100
AcDbEntity
  8
LAY-1
  6
CONTINUOUS
 62
     2
100
AcDbVertex
100
AcDb2dVertex
 10
542.303699
 20
763.587579
 30
0.0
  0
SEQEND
  5
491
100
AcDbEntity
  8
LAY-1
  6
CONTINUOUS
 62
     2
  0
POLYLINE
  5
492
100
AcDbEntity
  8
LAY-1
  6
CONTINUOUS
 62
     2
100
AcDb2dPolyline
 66
     1
 10
0.0
 20
0.0
 30
0.0
 70
   128
  0
VERTEX
  5
493
100
AcDbEntity
  8
LAY-1
  6
CONTINUOUS
 62
     2
100
AcDbVertex
100
AcDb2dVertex
 10
538.832798
 20
713.689382
 30
0.0
  0
VERTEX
  5
494
100
AcDbEntity
  8
LAY-1
  6
CONTINUOUS
 62
     2
100
AcDbVertex
100
AcDb2dVertex
 10
538.7
 20
713.995131
 30
0.0
  0
VERTEX
  5
495
100
AcDbEntity
  8
LAY-1
  6
CONTINUOUS
 62
     2
100
AcDbVertex
100
AcDb2dVertex
 10
538.668255
 20
714.070676
 30
0.0
  0
VERTEX
  5
496
100
AcDbEntity
  8
LAY-1
  6
CONTINUOUS
 62
     2
100
AcDbVertex
100
AcDb2dVertex
 10
538.262727
 20
715.05511
 30
0.0
  0
VERTEX
  5
497
100
AcDbEntity
  8
LAY-1
  6
CONTINUOUS
 62
     2
100
AcDbVertex
100
AcDb2dVertex
 10
537.856332
 20
716.081539
 30
0.0
  0
SEQEND
  5
498
100
AcDbEntity
  8
LAY-1
  6
CONTINUOUS
 62
     2
  0
LINE
  5
499
100
AcDbEntity
  8
LAY-1
  6
CONTINUOUS
 62
     2
100
AcDbLine
 10
507.7
 20
723.621778
 30
0.0
 11
506.288457
 21
724.0
 31
0.0
  0
LINE
  5
49A
100
AcDbEntity
  8
LAY-1
  6
CONTINUOUS
 62
     2
100
AcDbLine
 10
506.288457
 20
724.0
 30
0.0
 11
508.7
 21
715.0
 31
0.0
  0
LINE
  5
49B
100
AcDbEntity
  8
LAY-1
  6
CONTINUOUS
 62
     2
100
AcDbLine
 10
508.7
 20
715.0
 30
0.0
 11
511.111543
 21
724.0
 31
0.0
  0
LINE
  5
49C
100
AcDbEntity
  8
LAY-1
  6
CONTINUOUS
 62
     2
100
AcDbLine
 10
511.111543
 20
724.0
 30
0.0
 11
509.7
 21
723.621778
 31
0.0
  0
LINE
  5
49D
100
AcDbEntity
  8
LAY-1
  6
CONTINUOUS
 62
     2
100
AcDbLine
 10
509.7
 20
723.621778
 30
0.0
 11
509.7
 21
740.0
 31
0.0
  0
LINE
  5
49E
100
AcDbEntity
  8
LAY-1
  6
CONTINUOUS
 62
     2
100
AcDbLine
 10
507.7
 20
740.0
 30
0.0
 11
507.7
 21
723.621778
 31
0.0
  0
LINE
  5
49F
100
AcDbEntity
  8
LAY-1
  6
CONTINUOUS
 62
     2
100
AcDbLine
 10
509.7
 20
740.0
 30
0.0
 11
510.7
 21
741.732051
 31
0.0
  0
LINE
  5
4A0
100
AcDbEntity
  8
LAY-1
  6
CONTINUOUS
 62
     2
100
AcDbLine
 10
507.7
 20
740.0
 30
0.0
 11
506.7
 21
741.732051
 31
0.0
  0
LINE
  5
4A1
100
AcDbEntity
  8
LAY-1
  6
CONTINUOUS
 62
     2
100
AcDbLine
 10
510.7
 20
741.732051
 30
0.0
 11
512.7
 21
752.803848
 31
0.0
  0
LINE
  5
4A2
100
AcDbEntity
  8
LAY-1
  6
CONTINUOUS
 62
     2
100
AcDbLine
 10
512.7
 20
752.803848
 30
0.0
 11
509.7
 21
752.0
 31
0.0
  0
LINE
  5
4A3
100
AcDbEntity
  8
LAY-1
  6
CONTINUOUS
 62
     2
100
AcDbLine
 10
506.7
 20
741.732051
 30
0.0
 11
504.7
 21
752.803848
 31
0.0
  0
LINE
  5
4A4
100
AcDbEntity
  8
LAY-1
  6
CONTINUOUS
 62
     2
100
AcDbLine
 10
504.7
 20
752.803848
 30
0.0
 11
507.7
 21
752.0
 31
0.0
  0
LINE
  5
4A5
100
AcDbEntity
  8
LAY-1
  6
CONTINUOUS
 62
     2
100
AcDbLine
 10
507.7
 20
752.0
 30
0.0
 11
507.7
 21
755.0
 31
0.0
  0
LINE
  5
4A6
100
AcDbEntity
  8
LAY-1
  6
CONTINUOUS
 62
     2
100
AcDbLine
 10
507.7
 20
755.0
 30
0.0
 11
509.7
 21
755.0
 31
0.0
  0
LINE
  5
4A7
100
AcDbEntity
  8
LAY-1
  6
CONTINUOUS
 62
     2
100
AcDbLine
 10
509.7
 20
755.0
 30
0.0
 11
509.7
 21
752.0
 31
0.0
  0
LINE
  5
4A8
100
AcDbEntity
  8
LAY-1
  6
CONTINUOUS
 62
     2
100
AcDbLine
 10
467.7
 20
705.0
 30
0.0
 11
473.651821
 21
705.0
 31
0.0
  0
LINE
  5
4A9
100
AcDbEntity
  8
LAY-1
  6
CONTINUOUS
 62
     2
100
AcDbLine
 10
467.7
 20
765.0
 30
0.0
 11
467.7
 21
705.0
 31
0.0
  0
LINE
  5
4AA
100
AcDbEntity
  8
LAY-1
  6
CONTINUOUS
 62
     2
100
AcDbLine
 10
473.651821
 20
765.0
 30
0.0
 11
467.7
 21
765.0
 31
0.0
  0
LINE
  5
4AB
100
AcDbEntity
  8
LAY-1
  6
CONTINUOUS
 62
     2
100
AcDbLine
 10
463.7
 20
735.0
 30
0.0
 11
463.7
 21
764.5
 31
0.0
  0
LINE
  5
4AC
100
AcDbEntity
  8
LAY-1
  6
CONTINUOUS
 62
     2
100
AcDbLine
 10
464.2
 20
765.0
 30
0.0
 11
467.7
 21
765.0
 31
0.0
  0
ARC
  5
4AD
100
AcDbEntity
  8
LAY-1
  6
CONTINUOUS
 62
     2
100
AcDbCircle
 10
464.2
 20
764.5
 30
0.0
 40
0.5
100
AcDbArc
 50
90.0
 51
180.0
  0
LINE
  5
4AE
100
AcDbEntity
  8
LAY-1
  6
CONTINUOUS
 62
     2
100
AcDbLine
 10
463.7
 20
735.0
 30
0.0
 11
463.7
 21
705.5
 31
0.0
  0
LINE
  5
4AF
100
AcDbEntity
  8
LAY-1
  6
CONTINUOUS
 62
     2
100
AcDbLine
 10
464.2
 20
705.0
 30
0.0
 11
467.7
 21
705.0
 31
0.0
  0
LINE
  5
4B0
100
AcDbEntity
  8
LAY-1
  6
CONTINUOUS
 62
     2
100
AcDbLine
 10
467.7
 20
735.0
 30
0.0
 11
467.7
 21
705.0
 31
0.0
  0
LINE
  5
4B1
100
AcDbEntity
  8
LAY-1
  6
CONTINUOUS
 62
     2
100
AcDbLine
 10
467.7
 20
735.0
 30
0.0
 11
467.7
 21
765.0
 31
0.0
  0
ARC
  5
4B2
100
AcDbEntity
  8
LAY-1
  6
CONTINUOUS
 62
     2
100
AcDbCircle
 10
464.2
 20
705.5
 30
0.0
 40
0.5
100
AcDbArc
 50
180.0
 51
270.0
  0
LINE
  5
4B3
100
AcDbEntity
  8
LAY-1
  6
CONTINUOUS
 62
     2
100
AcDbLine
 10
458.7
 20
705.726497
 30
0.0
 11
463.7
 21
705.726497
 31
0.0
  0
LINE
  5
4B4
100
AcDbEntity
  8
LAY-1
  6
CONTINUOUS
 62
     2
100
AcDbLine
 10
458.7
 20
717.273503
 30
0.0
 11
463.7
 21
717.273503
 31
0.0
  0
LINE
  5
4B5
100
AcDbEntity
  8
LAY-1
  6
CONTINUOUS
 62
     2
100
AcDbLine
 10
462.7
 20
717.273503
 30
0.0
 11
462.7
 21
711.5
 31
0.0
  0
LINE
  5
4B6
100
AcDbEntity
  8
LAY-1
  6
CONTINUOUS
 62
     2
100
AcDbLine
 10
458.7
 20
708.613249
 30
0.0
 11
462.7
 21
708.613249
 31
0.0
  0
LINE
  5
4B7
100
AcDbEntity
  8
LAY-1
  6
CONTINUOUS
 62
     2
100
AcDbLine
 10
458.7
 20
705.726497
 30
0.0
 11
458.7
 21
717.273503
 31
0.0
  0
LINE
  5
4B8
100
AcDbEntity
  8
LAY-1
  6
CONTINUOUS
 62
     2
100
AcDbLine
 10
458.7
 20
714.386751
 30
0.0
 11
462.7
 21
714.386751
 31
0.0
  0
LINE
  5
4B9
100
AcDbEntity
  8
LAY-1
  6
CONTINUOUS
 62
     2
100
AcDbLine
 10
459.133013
 20
708.613249
 30
0.0
 11
462.7
 21
708.613249
 31
0.0
  0
LINE
  5
4BA
100
AcDbEntity
  8
LAY-1
  6
CONTINUOUS
 62
     2
100
AcDbLine
 10
459.133013
 20
714.386751
 30
0.0
 11
462.7
 21
714.386751
 31
0.0
  0
LINE
  5
4BB
100
AcDbEntity
  8
LAY-1
  6
CONTINUOUS
 62
     2
100
AcDbLine
 10
458.7
 20
717.476497
 30
0.0
 11
463.7
 21
717.476497
 31
0.0
  0
LINE
  5
4BC
100
AcDbEntity
  8
LAY-1
  6
CONTINUOUS
 62
     2
100
AcDbLine
 10
458.7
 20
729.023503
 30
0.0
 11
463.7
 21
729.023503
 31
0.0
  0
LINE
  5
4BD
100
AcDbEntity
  8
LAY-1
  6
CONTINUOUS
 62
     2
100
AcDbLine
 10
462.7
 20
729.023503
 30
0.0
 11
462.7
 21
723.25
 31
0.0
  0
LINE
  5
4BE
100
AcDbEntity
  8
LAY-1
  6
CONTINUOUS
 62
     2
100
AcDbLine
 10
458.7
 20
720.363249
 30
0.0
 11
462.7
 21
720.363249
 31
0.0
  0
LINE
  5
4BF
100
AcDbEntity
  8
LAY-1
  6
CONTINUOUS
 62
     2
100
AcDbLine
 10
458.7
 20
717.476497
 30
0.0
 11
458.7
 21
729.023503
 31
0.0
  0
LINE
  5
4C0
100
AcDbEntity
  8
LAY-1
  6
CONTINUOUS
 62
     2
100
AcDbLine
 10
458.7
 20
726.136751
 30
0.0
 11
462.7
 21
726.136751
 31
0.0
  0
LINE
  5
4C1
100
AcDbEntity
  8
LAY-1
  6
CONTINUOUS
 62
     2
100
AcDbLine
 10
459.133013
 20
720.363249
 30
0.0
 11
462.7
 21
720.363249
 31
0.0
  0
LINE
  5
4C2
100
AcDbEntity
  8
LAY-1
  6
CONTINUOUS
 62
     2
100
AcDbLine
 10
459.133013
 20
726.136751
 30
0.0
 11
462.7
 21
726.136751
 31
0.0
  0
LINE
  5
4C3
100
AcDbEntity
  8
LAY-1
  6
CONTINUOUS
 62
     2
100
AcDbLine
 10
458.7
 20
764.273503
 30
0.0
 11
463.7
 21
764.273503
 31
0.0
  0
LINE
  5
4C4
100
AcDbEntity
  8
LAY-1
  6
CONTINUOUS
 62
     2
100
AcDbLine
 10
458.7
 20
752.726497
 30
0.0
 11
463.7
 21
752.726497
 31
0.0
  0
LINE
  5
4C5
100
AcDbEntity
  8
LAY-1
  6
CONTINUOUS
 62
     2
100
AcDbLine
 10
462.7
 20
764.273503
 30
0.0
 11
462.7
 21
758.5
 31
0.0
  0
LINE
  5
4C6
100
AcDbEntity
  8
LAY-1
  6
CONTINUOUS
 62
     2
100
AcDbLine
 10
458.7
 20
761.386751
 30
0.0
 11
462.7
 21
761.386751
 31
0.0
  0
LINE
  5
4C7
100
AcDbEntity
  8
LAY-1
  6
CONTINUOUS
 62
     2
100
AcDbLine
 10
458.7
 20
764.273503
 30
0.0
 11
458.7
 21
752.726497
 31
0.0
  0
LINE
  5
4C8
100
AcDbEntity
  8
LAY-1
  6
CONTINUOUS
 62
     2
100
AcDbLine
 10
458.7
 20
755.613249
 30
0.0
 11
462.7
 21
755.613249
 31
0.0
  0
LINE
  5
4C9
100
AcDbEntity
  8
LAY-1
  6
CONTINUOUS
 62
     2
100
AcDbLine
 10
459.133013
 20
761.386751
 30
0.0
 11
462.7
 21
761.386751
 31
0.0
  0
LINE
  5
4CA
100
AcDbEntity
  8
LAY-1
  6
CONTINUOUS
 62
     2
100
AcDbLine
 10
459.133013
 20
755.613249
 30
0.0
 11
462.7
 21
755.613249
 31
0.0
  0
LINE
  5
4CB
100
AcDbEntity
  8
LAY-1
  6
CONTINUOUS
 62
     2
100
AcDbLine
 10
458.7
 20
752.523503
 30
0.0
 11
463.7
 21
752.523503
 31
0.0
  0
LINE
  5
4CC
100
AcDbEntity
  8
LAY-1
  6
CONTINUOUS
 62
     2
100
AcDbLine
 10
458.7
 20
740.976497
 30
0.0
 11
463.7
 21
740.976497
 31
0.0
  0
LINE
  5
4CD
100
AcDbEntity
  8
LAY-1
  6
CONTINUOUS
 62
     2
100
AcDbLine
 10
462.7
 20
752.523503
 30
0.0
 11
462.7
 21
746.75
 31
0.0
  0
LINE
  5
4CE
100
AcDbEntity
  8
LAY-1
  6
CONTINUOUS
 62
     2
100
AcDbLine
 10
458.7
 20
749.636751
 30
0.0
 11
462.7
 21
749.636751
 31
0.0
  0
LINE
  5
4CF
100
AcDbEntity
  8
LAY-1
  6
CONTINUOUS
 62
     2
100
AcDbLine
 10
458.7
 20
752.523503
 30
0.0
 11
458.7
 21
740.976497
 31
0.0
  0
LINE
  5
4D0
100
AcDbEntity
  8
LAY-1
  6
CONTINUOUS
 62
     2
100
AcDbLine
 10
458.7
 20
743.863249
 30
0.0
 11
462.7
 21
743.863249
 31
0.0
  0
LINE
  5
4D1
100
AcDbEntity
  8
LAY-1
  6
CONTINUOUS
 62
     2
100
AcDbLine
 10
459.133013
 20
749.636751
 30
0.0
 11
462.7
 21
749.636751
 31
0.0
  0
LINE
  5
4D2
100
AcDbEntity
  8
LAY-1
  6
CONTINUOUS
 62
     2
100
AcDbLine
 10
459.133013
 20
743.863249
 30
0.0
 11
462.7
 21
743.863249
 31
0.0
  0
LINE
  5
4D3
100
AcDbEntity
  8
LAY-1
  6
CONTINUOUS
 62
     2
100
AcDbLine
 10
462.7
 20
717.476497
 30
0.0
 11
462.7
 21
723.47
 31
0.0
  0
LINE
  5
4D4
100
AcDbEntity
  8
LAY-1
  6
CONTINUOUS
 62
     2
100
AcDbLine
 10
462.7
 20
705.726497
 30
0.0
 11
462.7
 21
711.7
 31
0.0
  0
LINE
  5
4D5
100
AcDbEntity
  8
LAY-1
  6
CONTINUOUS
 62
     2
100
AcDbLine
 10
462.7
 20
740.976497
 30
0.0
 11
462.7
 21
747.44
 31
0.0
  0
LINE
  5
4D6
100
AcDbEntity
  8
LAY-1
  6
CONTINUOUS
 62
     2
100
AcDbLine
 10
462.7
 20
752.726497
 30
0.0
 11
462.7
 21
758.79
 31
0.0
  0
LINE
  5
4D7
100
AcDbEntity
  8
LAY-1
  6
CONTINUOUS
 62
     1
100
AcDbLine
 10
614.5
 20
716.6
 30
0.0
 11
614.5
 21
754.1
 31
0.0
  0
CIRCLE
  5
4D8
100
AcDbEntity
  8
LAY-1
  6
CONTINUOUS
 62
     2
100
AcDbCircle
 10
614.5
 20
735.0
 30
0.0
 40
5.6
  0
CIRCLE
  5
4D9
100
AcDbEntity
  8
LAY-1
  6
CONTINUOUS
 62
     2
100
AcDbCircle
 10
614.5
 20
735.0
 30
0.0
 40
8.5
  0
ARC
  5
4DA
100
AcDbEntity
  8
LAY-1
  6
CONTINUOUS
 62
     2
100
AcDbCircle
 10
614.5
 20
735.0
 30
0.0
 40
14.0
100
AcDbArc
 50
270.0
 51
90.0
  0
LINE
  5
4DB
100
AcDbEntity
  8
LAY-1
  6
CONTINUOUS
 62
     2
100
AcDbLine
 10
614.5
 20
721.0
 30
0.0
 11
597.430201
 21
720.403909
 31
0.0
  0
ARC
  5
4DC
100
AcDbEntity
  8
LAY-1
  6
CONTINUOUS
 62
     2
100
AcDbCircle
 10
597.5
 20
718.405128
 30
0.0
 40
2.0
100
AcDbArc
 50
92.0
 51
180.0
  0
LINE
  5
4DD
100
AcDbEntity
  8
LAY-1
  6
CONTINUOUS
 62
     2
100
AcDbLine
 10
614.5
 20
749.0
 30
0.0
 11
597.430201
 21
749.596091
 31
0.0
  0
ARC
  5
4DE
100
AcDbEntity
  8
LAY-1
  6
CONTINUOUS
 62
     2
100
AcDbCircle
 10
597.5
 20
751.594872
 30
0.0
 40
2.0
100
AcDbArc
 50
180.0
 51
268.0
  0
LINE
  5
4DF
100
AcDbEntity
  8
LAY-1
  6
CONTINUOUS
 62
     2
100
AcDbLine
 10
739.5
 20
762.5
 30
0.0
 11
641.602671
 21
766.016109
 31
0.0
  0
ARC
  5
4E0
100
AcDbEntity
  8
LAY-1
  6
CONTINUOUS
 62
     2
100
AcDbCircle
 10
642.5
 20
791.0
 30
0.0
 40
25.0
100
AcDbArc
 50
185.858415
 51
267.943032
  0
ARC
  5
4E1
100
AcDbEntity
  8
LAY-1
  6
CONTINUOUS
 62
     2
100
AcDbCircle
 10
595.0
 20
854.5
 30
0.0
 40
0.5
100
AcDbArc
 50
0.0
 51
90.0
  0
ARC
  5
4E2
100
AcDbEntity
  8
LAY-1
  6
CONTINUOUS
 62
     2
100
AcDbCircle
 10
595.0
 20
615.5
 30
0.0
 40
0.5
100
AcDbArc
 50
270.0
 51
0.0
  0
LINE
  5
4E3
100
AcDbEntity
  8
LAY-1
  6
CONTINUOUS
 62
     2
100
AcDbLine
 10
739.5
 20
707.5
 30
0.0
 11
641.602671
 21
703.983891
 31
0.0
  0
ARC
  5
4E4
100
AcDbEntity
  8
LAY-1
  6
CONTINUOUS
 62
     2
100
AcDbCircle
 10
616.633658
 20
652.241588
 30
0.0
 40
2.0
100
AcDbArc
 50
95.0
 51
174.141585
  0
LINE
  5
4E5
100
AcDbEntity
  8
LAY-1
  6
CONTINUOUS
 62
     2
100
AcDbLine
 10
619.5
 20
654.5
 30
0.0
 11
616.459346
 21
654.233977
 31
0.0
  0
ARC
  5
4E6
100
AcDbEntity
  8
LAY-1
  6
CONTINUOUS
 62
     2
100
AcDbCircle
 10
619.938407
 20
683.469284
 30
0.0
 40
2.0
100
AcDbArc
 50
168.79519
 51
257.449351
  0
LINE
  5
4E7
100
AcDbEntity
  8
LAY-1
  6
CONTINUOUS
 62
     2
100
AcDbLine
 10
614.644104
 20
652.445729
 30
0.0
 11
614.613473
 21
652.147207
 31
0.0
  0
LINE
  5
4E8
100
AcDbEntity
  8
LAY-1
  6
CONTINUOUS
 62
     2
100
AcDbLine
 10
619.5
 20
681.5
 30
0.0
 11
619.5
 21
654.5
 31
0.0
  0
LINE
  5
4E9
100
AcDbEntity
  8
LAY-1
  6
CONTINUOUS
 62
     2
100
AcDbLine
 10
740.7
 20
708.0
 30
0.0
 11
739.5
 21
708.0
 31
0.0
  0
LINE
  5
4EA
100
AcDbEntity
  8
LAY-1
  6
CONTINUOUS
 62
     2
100
AcDbLine
 10
751.7
 20
735.0
 30
0.0
 11
751.7
 21
715.0
 31
0.0
  0
ARC
  5
4EB
100
AcDbEntity
  8
LAY-1
  6
CONTINUOUS
 62
     2
100
AcDbCircle
 10
749.7
 20
715.0
 30
0.0
 40
2.0
100
AcDbArc
 50
270.0
 51
0.0
  0
LINE
  5
4EC
100
AcDbEntity
  8
LAY-1
  6
CONTINUOUS
 62
     2
100
AcDbLine
 10
749.7
 20
713.0
 30
0.0
 11
744.7
 21
713.0
 31
0.0
  0
ARC
  5
4ED
100
AcDbEntity
  8
LAY-1
  6
CONTINUOUS
 62
     2
100
AcDbCircle
 10
744.7
 20
712.0
 30
0.0
 40
1.0
100
AcDbArc
 50
90.0
 51
180.0
  0
LINE
  5
4EE
100
AcDbEntity
  8
LAY-1
  6
CONTINUOUS
 62
     2
100
AcDbLine
 10
751.7
 20
735.0
 30
0.0
 11
751.7
 21
755.0
 31
0.0
  0
ARC
  5
4EF
100
AcDbEntity
  8
LAY-1
  6
CONTINUOUS
 62
     2
100
AcDbCircle
 10
749.7
 20
755.0
 30
0.0
 40
2.0
100
AcDbArc
 50
0.0
 51
90.0
  0
LINE
  5
4F0
100
AcDbEntity
  8
LAY-1
  6
CONTINUOUS
 62
     2
100
AcDbLine
 10
749.7
 20
757.0
 30
0.0
 11
744.7
 21
757.0
 31
0.0
  0
ARC
  5
4F1
100
AcDbEntity
  8
LAY-1
  6
CONTINUOUS
 62
     2
100
AcDbCircle
 10
744.7
 20
758.0
 30
0.0
 40
1.0
100
AcDbArc
 50
180.0
 51
270.0
  0
LINE
  5
4F2
100
AcDbEntity
  8
LAY-1
  6
CONTINUOUS
 62
     2
100
AcDbLine
 10
743.7
 20
707.0
 30
0.0
 11
740.7
 21
707.0
 31
0.0
  0
LINE
  5
4F3
100
AcDbEntity
  8
LAY-1
  6
CONTINUOUS
 62
     2
100
AcDbLine
 10
743.7
 20
763.0
 30
0.0
 11
740.7
 21
763.0
 31
0.0
  0
LINE
  5
4F4
100
AcDbEntity
  8
LAY-1
  6
CONTINUOUS
 62
     2
100
AcDbLine
 10
740.7
 20
707.0
 30
0.0
 11
740.7
 21
711.0
 31
0.0
  0
LINE
  5
4F5
100
AcDbEntity
  8
LAY-1
  6
CONTINUOUS
 62
     2
100
AcDbLine
 10
740.7
 20
762.0
 30
0.0
 11
739.5
 21
762.0
 31
0.0
  0
LINE
  5
4F6
100
AcDbEntity
  8
LAY-1
  6
CONTINUOUS
 62
     2
100
AcDbLine
 10
740.7
 20
707.5
 30
0.0
 11
740.7
 21
711.0
 31
0.0
  0
LINE
  5
4F7
100
AcDbEntity
  8
LAY-1
  6
CONTINUOUS
 62
     2
100
AcDbLine
 10
740.7
 20
707.5
 30
0.0
 11
740.7
 21
711.0
 31
0.0
  0
LINE
  5
4F8
100
AcDbEntity
  8
LAY-1
  6
CONTINUOUS
 62
     2
100
AcDbLine
 10
617.630571
 20
788.448236
 30
0.0
 11
614.613473
 21
817.852793
 31
0.0
  0
LINE
  5
4F9
100
AcDbEntity
  8
LAY-1
  6
CONTINUOUS
 62
     2
100
AcDbLine
 10
743.7
 20
763.0
 30
0.0
 11
743.7
 21
707.0
 31
0.0
  0
LINE
  5
4FA
100
AcDbEntity
  8
LAY-1
  6
CONTINUOUS
 62
     2
100
AcDbLine
 10
740.7
 20
707.5
 30
0.0
 11
740.7
 21
763.0
 31
0.0
  0
LINE
  5
4FB
100
AcDbEntity
  8
LAY-1
  6
CONTINUOUS
 62
     2
100
AcDbLine
 10
739.5
 20
762.5
 30
0.0
 11
739.5
 21
707.5
 31
0.0
  0
LINE
  5
4FC
100
AcDbEntity
  8
LAY-1
  6
CONTINUOUS
 62
     2
100
AcDbLine
 10
617.630571
 20
681.551764
 30
0.0
 11
614.613473
 21
652.147207
 31
0.0
  0
ARC
  5
4FD
100
AcDbEntity
  8
LAY-1
  6
CONTINUOUS
 62
     2
100
AcDbCircle
 10
642.5
 20
679.0
 30
0.0
 40
25.0
100
AcDbArc
 50
92.056968
 51
174.141585
  0
LINE
  5
4FE
100
AcDbEntity
  8
LAY-1
  6
CONTINUOUS
 62
     2
100
AcDbLine
 10
595.5
 20
718.405128
 30
0.0
 11
595.5
 21
615.5
 31
0.0
  0
LINE
  5
4FF
100
AcDbEntity
  8
LAY-1
  6
CONTINUOUS
 62
     2
100
AcDbLine
 10
595.5
 20
854.5
 30
0.0
 11
595.5
 21
751.594872
 31
0.0
  0
CIRCLE
  5
500
100
AcDbEntity
  8
LAY-1
  6
CONTINUOUS
 62
     2
100
AcDbCircle
 10
614.5
 20
735.0
 30
0.0
 40
4.5
  0
LINE
  5
501
100
AcDbEntity
  8
LAY-1
  6
CONTINUOUS
 62
     2
100
AcDbLine
 10
595.0
 20
855.0
 30
0.0
 11
584.5
 21
855.0
 31
0.0
  0
LINE
  5
502
100
AcDbEntity
  8
LAY-1
  6
CONTINUOUS
 62
     2
100
AcDbLine
 10
595.0
 20
615.0
 30
0.0
 11
584.5
 21
615.0
 31
0.0
  0
ARC
  5
503
100
AcDbEntity
  8
LAY-1
  6
CONTINUOUS
 62
     2
100
AcDbCircle
 10
594.71793
 20
654.188619
 30
0.0
 40
20.0
100
AcDbArc
 50
291.352421
 51
354.141585
  0
LINE
  5
504
100
AcDbEntity
  8
LAY-1
  6
CONTINUOUS
 62
     2
100
AcDbLine
 10
595.5
 20
639.949369
 30
0.0
 11
595.5
 21
624.949369
 31
0.0
  0
LINE
  5
505
100
AcDbEntity
  8
LAY-1
  6
CONTINUOUS
 62
     2
100
AcDbLine
 10
602.0
 20
638.93011
 30
0.0
 11
602.0
 21
625.949369
 31
0.0
  0
LINE
  5
506
100
AcDbEntity
  8
LAY-1
  6
CONTINUOUS
 62
     2
100
AcDbLine
 10
601.42265
 20
624.949369
 30
0.0
 11
595.5
 21
624.949369
 31
0.0
  0
ARC
  5
507
100
AcDbEntity
  8
LAY-1
  6
CONTINUOUS
 62
     2
100
AcDbCircle
 10
589.5148
 20
632.449369
 30
0.0
 40
12.4852
100
AcDbArc
 50
342.507675
 51
17.492325
  0
LINE
  5
508
100
AcDbEntity
  8
LAY-1
  6
CONTINUOUS
 62
     2
100
AcDbLine
 10
602.0
 20
638.949369
 30
0.0
 11
601.42265
 21
639.949369
 31
0.0
  0
LINE
  5
509
100
AcDbEntity
  8
LAY-1
  6
CONTINUOUS
 62
     2
100
AcDbLine
 10
602.0
 20
625.949369
 30
0.0
 11
601.42265
 21
624.949369
 31
0.0
  0
ARC
  5
50A
100
AcDbEntity
  8
LAY-1
  6
CONTINUOUS
 62
     2
100
AcDbCircle
 10
598.702992
 20
626.8328
 30
0.0
 40
3.297008
100
AcDbArc
 50
325.296434
 51
34.423005
  0
LINE
  5
50B
100
AcDbEntity
  8
LAY-1
  6
CONTINUOUS
 62
     2
100
AcDbLine
 10
601.42265
 20
636.202146
 30
0.0
 11
595.5
 21
636.202146
 31
0.0
  0
ARC
  5
50C
100
AcDbEntity
  8
LAY-1
  6
CONTINUOUS
 62
     2
100
AcDbCircle
 10
598.671212
 20
638.075758
 30
0.0
 40
3.328788
100
AcDbArc
 50
325.746813
 51
34.253187
  0
LINE
  5
50D
100
AcDbEntity
  8
LAY-1
  6
CONTINUOUS
 62
     2
100
AcDbLine
 10
595.5
 20
628.696592
 30
0.0
 11
601.42265
 21
628.696592
 31
0.0
  0
LINE
  5
50E
100
AcDbEntity
  8
LAY-1
  6
CONTINUOUS
 62
     2
100
AcDbLine
 10
595.5
 20
639.949369
 30
0.0
 11
601.42265
 21
639.949369
 31
0.0
  0
LINE
  5
50F
100
AcDbEntity
  8
LAY-1
  6
CONTINUOUS
 62
     2
100
AcDbLine
 10
595.5
 20
700.022136
 30
0.0
 11
595.5
 21
685.022136
 31
0.0
  0
LINE
  5
510
100
AcDbEntity
  8
LAY-1
  6
CONTINUOUS
 62
     2
100
AcDbLine
 10
602.0
 20
699.002877
 30
0.0
 11
602.0
 21
686.022136
 31
0.0
  0
LINE
  5
511
100
AcDbEntity
  8
LAY-1
  6
CONTINUOUS
 62
     2
100
AcDbLine
 10
601.42265
 20
685.022136
 30
0.0
 11
595.5
 21
685.022136
 31
0.0
  0
ARC
  5
512
100
AcDbEntity
  8
LAY-1
  6
CONTINUOUS
 62
     2
100
AcDbCircle
 10
589.5148
 20
692.522136
 30
0.0
 40
12.4852
100
AcDbArc
 50
342.507675
 51
17.492325
  0
LINE
  5
513
100
AcDbEntity
  8
LAY-1
  6
CONTINUOUS
 62
     2
100
AcDbLine
 10
602.0
 20
699.022136
 30
0.0
 11
601.42265
 21
700.022136
 31
0.0
  0
LINE
  5
514
100
AcDbEntity
  8
LAY-1
  6
CONTINUOUS
 62
     2
100
AcDbLine
 10
602.0
 20
686.022136
 30
0.0
 11
601.42265
 21
685.022136
 31
0.0
  0
ARC
  5
515
100
AcDbEntity
  8
LAY-1
  6
CONTINUOUS
 62
     2
100
AcDbCircle
 10
598.702992
 20
686.905567
 30
0.0
 40
3.297008
100
AcDbArc
 50
325.296434
 51
34.423005
  0
LINE
  5
516
100
AcDbEntity
  8
LAY-1
  6
CONTINUOUS
 62
     2
100
AcDbLine
 10
601.42265
 20
696.274913
 30
0.0
 11
595.5
 21
696.274913
 31
0.0
  0
ARC
  5
517
100
AcDbEntity
  8
LAY-1
  6
CONTINUOUS
 62
     2
100
AcDbCircle
 10
598.671212
 20
698.148525
 30
0.0
 40
3.328788
100
AcDbArc
 50
325.746813
 51
34.253187
  0
LINE
  5
518
100
AcDbEntity
  8
LAY-1
  6
CONTINUOUS
 62
     2
100
AcDbLine
 10
595.5
 20
688.76936
 30
0.0
 11
601.42265
 21
688.76936
 31
0.0
  0
LINE
  5
519
100
AcDbEntity
  8
LAY-1
  6
CONTINUOUS
 62
     2
100
AcDbLine
 10
595.5
 20
700.022136
 30
0.0
 11
601.42265
 21
700.022136
 31
0.0
  0
LINE
  5
51A
100
AcDbEntity
  8
LAY-1
  6
CONTINUOUS
 62
     2
100
AcDbLine
 10
595.5
 20
769.977864
 30
0.0
 11
595.5
 21
784.977864
 31
0.0
  0
LINE
  5
51B
100
AcDbEntity
  8
LAY-1
  6
CONTINUOUS
 62
     2
100
AcDbLine
 10
602.0
 20
770.997123
 30
0.0
 11
602.0
 21
783.977864
 31
0.0
  0
LINE
  5
51C
100
AcDbEntity
  8
LAY-1
  6
CONTINUOUS
 62
     2
100
AcDbLine
 10
601.42265
 20
784.977864
 30
0.0
 11
595.5
 21
784.977864
 31
0.0
  0
ARC
  5
51D
100
AcDbEntity
  8
LAY-1
  6
CONTINUOUS
 62
     2
100
AcDbCircle
 10
589.5148
 20
777.477864
 30
0.0
 40
12.4852
100
AcDbArc
 50
342.507675
 51
17.492325
  0
LINE
  5
51E
100
AcDbEntity
  8
LAY-1
  6
CONTINUOUS
 62
     2
100
AcDbLine
 10
602.0
 20
770.977864
 30
0.0
 11
601.42265
 21
769.977864
 31
0.0
  0
LINE
  5
51F
100
AcDbEntity
  8
LAY-1
  6
CONTINUOUS
 62
     2
100
AcDbLine
 10
602.0
 20
783.977864
 30
0.0
 11
601.42265
 21
784.977864
 31
0.0
  0
ARC
  5
520
100
AcDbEntity
  8
LAY-1
  6
CONTINUOUS
 62
     2
100
AcDbCircle
 10
598.702992
 20
783.094433
 30
0.0
 40
3.297008
100
AcDbArc
 50
325.576995
 51
34.703566
  0
LINE
  5
521
100
AcDbEntity
  8
LAY-1
  6
CONTINUOUS
 62
     2
100
AcDbLine
 10
601.42265
 20
773.725087
 30
0.0
 11
595.5
 21
773.725087
 31
0.0
  0
ARC
  5
522
100
AcDbEntity
  8
LAY-1
  6
CONTINUOUS
 62
     2
100
AcDbCircle
 10
598.671212
 20
771.851475
 30
0.0
 40
3.328788
100
AcDbArc
 50
325.746813
 51
34.253187
  0
LINE
  5
523
100
AcDbEntity
  8
LAY-1
  6
CONTINUOUS
 62
     2
100
AcDbLine
 10
595.5
 20
781.23064
 30
0.0
 11
601.42265
 21
781.23064
 31
0.0
  0
LINE
  5
524
100
AcDbEntity
  8
LAY-1
  6
CONTINUOUS
 62
     2
100
AcDbLine
 10
595.5
 20
769.977864
 30
0.0
 11
601.42265
 21
769.977864
 31
0.0
  0
LINE
  5
525
100
AcDbEntity
  8
LAY-1
  6
CONTINUOUS
 62
     2
100
AcDbLine
 10
595.5
 20
830.050631
 30
0.0
 11
595.5
 21
845.050631
 31
0.0
  0
LINE
  5
526
100
AcDbEntity
  8
LAY-1
  6
CONTINUOUS
 62
     2
100
AcDbLine
 10
602.0
 20
831.06989
 30
0.0
 11
602.0
 21
844.050631
 31
0.0
  0
LINE
  5
527
100
AcDbEntity
  8
LAY-1
  6
CONTINUOUS
 62
     2
100
AcDbLine
 10
601.42265
 20
845.050631
 30
0.0
 11
595.5
 21
845.050631
 31
0.0
  0
ARC
  5
528
100
AcDbEntity
  8
LAY-1
  6
CONTINUOUS
 62
     2
100
AcDbCircle
 10
589.5148
 20
837.550631
 30
0.0
 40
12.4852
100
AcDbArc
 50
342.507675
 51
17.492325
  0
LINE
  5
529
100
AcDbEntity
  8
LAY-1
  6
CONTINUOUS
 62
     2
100
AcDbLine
 10
602.0
 20
831.050631
 30
0.0
 11
601.42265
 21
830.050631
 31
0.0
  0
LINE
  5
52A
100
AcDbEntity
  8
LAY-1
  6
CONTINUOUS
 62
     2
100
AcDbLine
 10
602.0
 20
844.050631
 30
0.0
 11
601.42265
 21
845.050631
 31
0.0
  0
ARC
  5
52B
100
AcDbEntity
  8
LAY-1
  6
CONTINUOUS
 62
     2
100
AcDbCircle
 10
598.702992
 20
843.1672
 30
0.0
 40
3.297008
100
AcDbArc
 50
325.576995
 51
34.703566
  0
LINE
  5
52C
100
AcDbEntity
  8
LAY-1
  6
CONTINUOUS
 62
     2
100
AcDbLine
 10
601.42265
 20
833.797854
 30
0.0
 11
595.5
 21
833.797854
 31
0.0
  0
ARC
  5
52D
100
AcDbEntity
  8
LAY-1
  6
CONTINUOUS
 62
     2
100
AcDbCircle
 10
598.671212
 20
831.924242
 30
0.0
 40
3.328788
100
AcDbArc
 50
325.746813
 51
34.253187
  0
LINE
  5
52E
100
AcDbEntity
  8
LAY-1
  6
CONTINUOUS
 62
     2
100
AcDbLine
 10
595.5
 20
841.303408
 30
0.0
 11
601.42265
 21
841.303408
 31
0.0
  0
LINE
  5
52F
100
AcDbEntity
  8
LAY-1
  6
CONTINUOUS
 62
     2
100
AcDbLine
 10
595.5
 20
830.050631
 30
0.0
 11
601.42265
 21
830.050631
 31
0.0
  0
LINE
  5
530
100
AcDbEntity
  8
LAY-1
  6
CONTINUOUS
 62
     2
100
AcDbLine
 10
549.2
 20
765.0
 30
0.0
 11
549.2
 21
705.0
 31
0.0
  0
ARC
  5
531
100
AcDbEntity
  8
LAY-1
  6
CONTINUOUS
 62
     2
100
AcDbCircle
 10
855.651338
 20
735.0
 30
0.0
 40
305.5
100
AcDbArc
 50
186.639114
 51
197.379499
  0
LINE
  5
532
100
AcDbEntity
  8
LAY-1
  6
CONTINUOUS
 62
     2
100
AcDbLine
 10
583.7
 20
615.0
 30
0.0
 11
583.7
 21
735.0
 31
0.0
  0
ARC
  5
533
100
AcDbEntity
  8
LAY-1
  6
CONTINUOUS
 62
     2
100
AcDbCircle
 10
855.651338
 20
735.0
 30
0.0
 40
305.5
100
AcDbArc
 50
162.620501
 51
173.360886
  0
LINE
  5
534
100
AcDbEntity
  8
LAY-1
  6
CONTINUOUS
 62
     2
100
AcDbLine
 10
583.7
 20
855.0
 30
0.0
 11
583.7
 21
735.0
 31
0.0
  0
LINE
  5
535
100
AcDbEntity
  8
LAY-1
  6
CONTINUOUS
 62
     2
100
AcDbLine
 10
552.2
 20
770.320465
 30
0.0
 11
552.2
 21
768.0
 31
0.0
  0
ARC
  5
536
100
AcDbEntity
  8
LAY-1
  6
CONTINUOUS
 62
     2
100
AcDbCircle
 10
549.2
 20
768.0
 30
0.0
 40
3.0
100
AcDbArc
 50
270.0
 51
0.0
  0
LINE
  5
537
100
AcDbEntity
  8
LAY-1
  6
CONTINUOUS
 62
     2
100
AcDbLine
 10
552.2
 20
699.679535
 30
0.0
 11
552.2
 21
702.0
 31
0.0
  0
ARC
  5
538
100
AcDbEntity
  8
LAY-1
  6
CONTINUOUS
 62
     2
100
AcDbCircle
 10
549.2
 20
702.0
 30
0.0
 40
3.0
100
AcDbArc
 50
0.0
 51
90.0
  0
LINE
  5
539
100
AcDbEntity
  8
LAY-1
  6
CONTINUOUS
 62
     2
100
AcDbLine
 10
549.2
 20
705.0
 30
0.0
 11
549.2
 21
735.0
 31
0.0
  0
LINE
  5
53A
100
AcDbEntity
  8
LAY-1
  6
CONTINUOUS
 62
     2
100
AcDbLine
 10
549.2
 20
765.0
 30
0.0
 11
549.2
 21
735.0
 31
0.0
  0
LINE
  5
53B
100
AcDbEntity
  8
LAY-1
  6
CONTINUOUS
 62
     2
100
AcDbLine
 10
570.491304
 20
721.897561
 30
0.0
 11
561.425
 21
723.727273
 31
0.0
  0
ARC
  5
53C
100
AcDbEntity
  8
LAY-1
  6
CONTINUOUS
 62
     2
100
AcDbCircle
 10
569.7
 20
717.976613
 30
0.0
 40
4.0
100
AcDbArc
 50
0.0
 51
78.590138
  0
LINE
  5
53D
100
AcDbEntity
  8
LAY-1
  6
CONTINUOUS
 62
     2
100
AcDbLine
 10
570.516034
 20
748.167452
 30
0.0
 11
561.353902
 21
746.258145
 31
0.0
  0
ARC
  5
53E
100
AcDbEntity
  8
LAY-1
  6
CONTINUOUS
 62
     2
100
AcDbCircle
 10
569.7
 20
752.083328
 30
0.0
 40
4.0
100
AcDbArc
 50
281.771463
 51
0.0
  0
ARC
  5
53F
100
AcDbEntity
  8
LAY-1
  6
CONTINUOUS
 62
     2
100
AcDbCircle
 10
563.7
 20
735.0
 30
0.0
 40
11.5
100
AcDbArc
 50
101.771463
 51
258.590138
  0
LINE
  5
540
100
AcDbEntity
  8
LAY-1
  6
CONTINUOUS
 62
     2
100
AcDbLine
 10
573.7
 20
855.0
 30
0.0
 11
573.7
 21
752.083328
 31
0.0
  0
LINE
  5
541
100
AcDbEntity
  8
LAY-1
  6
CONTINUOUS
 62
     2
100
AcDbLine
 10
573.7
 20
615.0
 30
0.0
 11
573.7
 21
717.976613
 31
0.0
  0
LINE
  5
542
100
AcDbEntity
  8
LAY-1
  6
CONTINUOUS
 62
     2
100
AcDbLine
 10
584.5
 20
855.0
 30
0.0
 11
584.5
 21
615.0
 31
0.0
  0
LINE
  5
543
100
AcDbEntity
  8
LAY-1
  6
CONTINUOUS
 62
     2
100
AcDbLine
 10
584.5
 20
615.0
 30
0.0
 11
573.7
 21
615.0
 31
0.0
  0
LINE
  5
544
100
AcDbEntity
  8
LAY-1
  6
CONTINUOUS
 62
     2
100
AcDbLine
 10
584.5
 20
855.0
 30
0.0
 11
573.7
 21
855.0
 31
0.0
  0
LINE
  5
545
100
AcDbEntity
  8
LAY-1
  6
CONTINUOUS
 62
     2
100
AcDbLine
 10
584.5
 20
615.0
 30
0.0
 11
584.5
 21
855.0
 31
0.0
  0
POLYLINE
  5
546
100
AcDbEntity
  8
LAY-1
  6
CONTINUOUS
 62
     2
100
AcDb2dPolyline
 66
     1
 10
0.0
 20
0.0
 30
0.0
 70
   128
  0
VERTEX
  5
547
100
AcDbEntity
  8
LAY-1
  6
CONTINUOUS
 62
     2
100
AcDbVertex
100
AcDb2dVertex
 10
571.782904
 20
735.0
 30
0.0
  0
VERTEX
  5
548
100
AcDbEntity
  8
LAY-1
  6
CONTINUOUS
 62
     2
100
AcDbVertex
100
AcDb2dVertex
 10
567.741452
 20
742.0
 30
0.0
  0
VERTEX
  5
549
100
AcDbEntity
  8
LAY-1
  6
CONTINUOUS
 62
     2
100
AcDbVertex
100
AcDb2dVertex
 10
559.658548
 20
742.0
 30
0.0
  0
VERTEX
  5
54A
100
AcDbEntity
  8
LAY-1
  6
CONTINUOUS
 62
     2
100
AcDbVertex
100
AcDb2dVertex
 10
555.617096
 20
735.0
 30
0.0
  0
VERTEX
  5
54B
100
AcDbEntity
  8
LAY-1
  6
CONTINUOUS
 62
     2
100
AcDbVertex
100
AcDb2dVertex
 10
559.658548
 20
728.0
 30
0.0
  0
VERTEX
  5
54C
100
AcDbEntity
  8
LAY-1
  6
CONTINUOUS
 62
     2
100
AcDbVertex
100
AcDb2dVertex
 10
567.741452
 20
728.0
 30
0.0
  0
VERTEX
  5
54D
100
AcDbEntity
  8
LAY-1
  6
CONTINUOUS
 62
     2
100
AcDbVertex
100
AcDb2dVertex
 10
571.782904
 20
735.0
 30
0.0
  0
SEQEND
  5
54E
100
AcDbEntity
  8
LAY-1
  6
CONTINUOUS
 62
     2
  0
ARC
  5
54F
100
AcDbEntity
  8
LAY-1
  6
CONTINUOUS
 62
     2
100
AcDbCircle
 10
578.1852
 20
632.449369
 30
0.0
 40
12.4852
100
AcDbArc
 50
162.507675
 51
197.492325
  0
LINE
  5
550
100
AcDbEntity
  8
LAY-1
  6
CONTINUOUS
 62
     2
100
AcDbLine
 10
566.27735
 20
624.949369
 30
0.0
 11
572.2
 21
624.949369
 31
0.0
  0
LINE
  5
551
100
AcDbEntity
  8
LAY-1
  6
CONTINUOUS
 62
     2
100
AcDbLine
 10
565.7
 20
638.93011
 30
0.0
 11
565.7
 21
625.949369
 31
0.0
  0
LINE
  5
552
100
AcDbEntity
  8
LAY-1
  6
CONTINUOUS
 62
     2
100
AcDbLine
 10
572.2
 20
639.949369
 30
0.0
 11
573.7
 21
639.949369
 31
0.0
  0
LINE
  5
553
100
AcDbEntity
  8
LAY-1
  6
CONTINUOUS
 62
     2
100
AcDbLine
 10
572.2
 20
639.949369
 30
0.0
 11
566.27735
 21
639.949369
 31
0.0
  0
LINE
  5
554
100
AcDbEntity
  8
LAY-1
  6
CONTINUOUS
 62
     2
100
AcDbLine
 10
572.2
 20
639.949369
 30
0.0
 11
572.2
 21
624.949369
 31
0.0
  0
LINE
  5
555
100
AcDbEntity
  8
LAY-1
  6
CONTINUOUS
 62
     2
100
AcDbLine
 10
565.7
 20
638.949369
 30
0.0
 11
566.27735
 21
639.949369
 31
0.0
  0
LINE
  5
556
100
AcDbEntity
  8
LAY-1
  6
CONTINUOUS
 62
     2
100
AcDbLine
 10
565.7
 20
625.949369
 30
0.0
 11
566.27735
 21
624.949369
 31
0.0
  0
ARC
  5
557
100
AcDbEntity
  8
LAY-1
  6
CONTINUOUS
 62
     2
100
AcDbCircle
 10
568.997008
 20
626.8328
 30
0.0
 40
3.297008
100
AcDbArc
 50
145.576995
 51
214.703566
  0
LINE
  5
558
100
AcDbEntity
  8
LAY-1
  6
CONTINUOUS
 62
     2
100
AcDbLine
 10
566.27735
 20
636.202146
 30
0.0
 11
572.2
 21
636.202146
 31
0.0
  0
ARC
  5
559
100
AcDbEntity
  8
LAY-1
  6
CONTINUOUS
 62
     2
100
AcDbCircle
 10
569.028788
 20
638.075758
 30
0.0
 40
3.328788
100
AcDbArc
 50
145.746813
 51
214.253187
  0
LINE
  5
55A
100
AcDbEntity
  8
LAY-1
  6
CONTINUOUS
 62
     2
100
AcDbLine
 10
572.2
 20
628.696592
 30
0.0
 11
566.27735
 21
628.696592
 31
0.0
  0
LINE
  5
55B
100
AcDbEntity
  8
LAY-1
  6
CONTINUOUS
 62
     2
100
AcDbLine
 10
573.7
 20
624.949369
 30
0.0
 11
572.2
 21
624.949369
 31
0.0
  0
ARC
  5
55C
100
AcDbEntity
  8
LAY-1
  6
CONTINUOUS
 62
     2
100
AcDbCircle
 10
580.799325
 20
648.974592
 30
0.0
 40
17.5
100
AcDbArc
 50
197.379499
 51
212.56204
  0
ARC
  5
55D
100
AcDbEntity
  8
LAY-1
  6
CONTINUOUS
 62
     2
100
AcDbCircle
 10
578.1852
 20
692.522136
 30
0.0
 40
12.4852
100
AcDbArc
 50
162.507675
 51
197.492325
  0
LINE
  5
55E
100
AcDbEntity
  8
LAY-1
  6
CONTINUOUS
 62
     2
100
AcDbLine
 10
566.27735
 20
685.022136
 30
0.0
 11
572.2
 21
685.022136
 31
0.0
  0
LINE
  5
55F
100
AcDbEntity
  8
LAY-1
  6
CONTINUOUS
 62
     2
100
AcDbLine
 10
565.7
 20
699.002877
 30
0.0
 11
565.7
 21
686.022136
 31
0.0
  0
LINE
  5
560
100
AcDbEntity
  8
LAY-1
  6
CONTINUOUS
 62
     2
100
AcDbLine
 10
572.2
 20
700.022136
 30
0.0
 11
573.7
 21
700.022136
 31
0.0
  0
LINE
  5
561
100
AcDbEntity
  8
LAY-1
  6
CONTINUOUS
 62
     2
100
AcDbLine
 10
572.2
 20
700.022136
 30
0.0
 11
566.27735
 21
700.022136
 31
0.0
  0
LINE
  5
562
100
AcDbEntity
  8
LAY-1
  6
CONTINUOUS
 62
     2
100
AcDbLine
 10
572.2
 20
700.022136
 30
0.0
 11
572.2
 21
685.022136
 31
0.0
  0
LINE
  5
563
100
AcDbEntity
  8
LAY-1
  6
CONTINUOUS
 62
     2
100
AcDbLine
 10
565.7
 20
699.022136
 30
0.0
 11
566.27735
 21
700.022136
 31
0.0
  0
LINE
  5
564
100
AcDbEntity
  8
LAY-1
  6
CONTINUOUS
 62
     2
100
AcDbLine
 10
565.7
 20
686.022136
 30
0.0
 11
566.27735
 21
685.022136
 31
0.0
  0
ARC
  5
565
100
AcDbEntity
  8
LAY-1
  6
CONTINUOUS
 62
     2
100
AcDbCircle
 10
568.997008
 20
686.905567
 30
0.0
 40
3.297008
100
AcDbArc
 50
145.576995
 51
214.703566
  0
LINE
  5
566
100
AcDbEntity
  8
LAY-1
  6
CONTINUOUS
 62
     2
100
AcDbLine
 10
566.27735
 20
696.274913
 30
0.0
 11
572.2
 21
696.274913
 31
0.0
  0
ARC
  5
567
100
AcDbEntity
  8
LAY-1
  6
CONTINUOUS
 62
     2
100
AcDbCircle
 10
569.028788
 20
698.148525
 30
0.0
 40
3.328788
100
AcDbArc
 50
145.746813
 51
214.253187
  0
LINE
  5
568
100
AcDbEntity
  8
LAY-1
  6
CONTINUOUS
 62
     2
100
AcDbLine
 10
572.2
 20
688.76936
 30
0.0
 11
566.27735
 21
688.76936
 31
0.0
  0
LINE
  5
569
100
AcDbEntity
  8
LAY-1
  6
CONTINUOUS
 62
     2
100
AcDbLine
 10
573.7
 20
685.022136
 30
0.0
 11
572.2
 21
685.022136
 31
0.0
  0
ARC
  5
56A
100
AcDbEntity
  8
LAY-1
  6
CONTINUOUS
 62
     2
100
AcDbCircle
 10
578.1852
 20
837.550631
 30
0.0
 40
12.4852
100
AcDbArc
 50
162.507675
 51
197.492325
  0
LINE
  5
56B
100
AcDbEntity
  8
LAY-1
  6
CONTINUOUS
 62
     2
100
AcDbLine
 10
566.27735
 20
845.050631
 30
0.0
 11
572.2
 21
845.050631
 31
0.0
  0
LINE
  5
56C
100
AcDbEntity
  8
LAY-1
  6
CONTINUOUS
 62
     2
100
AcDbLine
 10
565.7
 20
831.06989
 30
0.0
 11
565.7
 21
844.050631
 31
0.0
  0
LINE
  5
56D
100
AcDbEntity
  8
LAY-1
  6
CONTINUOUS
 62
     2
100
AcDbLine
 10
572.2
 20
830.050631
 30
0.0
 11
573.7
 21
830.050631
 31
0.0
  0
LINE
  5
56E
100
AcDbEntity
  8
LAY-1
  6
CONTINUOUS
 62
     2
100
AcDbLine
 10
572.2
 20
830.050631
 30
0.0
 11
566.27735
 21
830.050631
 31
0.0
  0
LINE
  5
56F
100
AcDbEntity
  8
LAY-1
  6
CONTINUOUS
 62
     2
100
AcDbLine
 10
572.2
 20
830.050631
 30
0.0
 11
572.2
 21
845.050631
 31
0.0
  0
LINE
  5
570
100
AcDbEntity
  8
LAY-1
  6
CONTINUOUS
 62
     2
100
AcDbLine
 10
565.7
 20
831.050631
 30
0.0
 11
566.27735
 21
830.050631
 31
0.0
  0
LINE
  5
571
100
AcDbEntity
  8
LAY-1
  6
CONTINUOUS
 62
     2
100
AcDbLine
 10
565.7
 20
844.050631
 30
0.0
 11
566.27735
 21
845.050631
 31
0.0
  0
ARC
  5
572
100
AcDbEntity
  8
LAY-1
  6
CONTINUOUS
 62
     2
100
AcDbCircle
 10
568.997008
 20
843.1672
 30
0.0
 40
3.297008
100
AcDbArc
 50
145.296434
 51
214.423005
  0
LINE
  5
573
100
AcDbEntity
  8
LAY-1
  6
CONTINUOUS
 62
     2
100
AcDbLine
 10
566.27735
 20
833.797854
 30
0.0
 11
572.2
 21
833.797854
 31
0.0
  0
ARC
  5
574
100
AcDbEntity
  8
LAY-1
  6
CONTINUOUS
 62
     2
100
AcDbCircle
 10
569.028788
 20
831.924242
 30
0.0
 40
3.328788
100
AcDbArc
 50
145.746813
 51
214.253187
  0
LINE
  5
575
100
AcDbEntity
  8
LAY-1
  6
CONTINUOUS
 62
     2
100
AcDbLine
 10
572.2
 20
841.303408
 30
0.0
 11
566.27735
 21
841.303408
 31
0.0
  0
LINE
  5
576
100
AcDbEntity
  8
LAY-1
  6
CONTINUOUS
 62
     2
100
AcDbLine
 10
573.7
 20
845.050631
 30
0.0
 11
572.2
 21
845.050631
 31
0.0
  0
ARC
  5
577
100
AcDbEntity
  8
LAY-1
  6
CONTINUOUS
 62
     2
100
AcDbCircle
 10
578.1852
 20
777.477864
 30
0.0
 40
12.4852
100
AcDbArc
 50
162.507675
 51
197.492325
  0
LINE
  5
578
100
AcDbEntity
  8
LAY-1
  6
CONTINUOUS
 62
     2
100
AcDbLine
 10
566.27735
 20
784.977864
 30
0.0
 11
572.2
 21
784.977864
 31
0.0
  0
LINE
  5
579
100
AcDbEntity
  8
LAY-1
  6
CONTINUOUS
 62
     2
100
AcDbLine
 10
565.7
 20
770.997123
 30
0.0
 11
565.7
 21
783.977864
 31
0.0
  0
LINE
  5
57A
100
AcDbEntity
  8
LAY-1
  6
CONTINUOUS
 62
     2
100
AcDbLine
 10
572.2
 20
769.977864
 30
0.0
 11
573.7
 21
769.977864
 31
0.0
  0
LINE
  5
57B
100
AcDbEntity
  8
LAY-1
  6
CONTINUOUS
 62
     2
100
AcDbLine
 10
572.2
 20
769.977864
 30
0.0
 11
566.27735
 21
769.977864
 31
0.0
  0
LINE
  5
57C
100
AcDbEntity
  8
LAY-1
  6
CONTINUOUS
 62
     2
100
AcDbLine
 10
572.2
 20
769.977864
 30
0.0
 11
572.2
 21
784.977864
 31
0.0
  0
LINE
  5
57D
100
AcDbEntity
  8
LAY-1
  6
CONTINUOUS
 62
     2
100
AcDbLine
 10
565.7
 20
770.977864
 30
0.0
 11
566.27735
 21
769.977864
 31
0.0
  0
LINE
  5
57E
100
AcDbEntity
  8
LAY-1
  6
CONTINUOUS
 62
     2
100
AcDbLine
 10
565.7
 20
783.977864
 30
0.0
 11
566.27735
 21
784.977864
 31
0.0
  0
ARC
  5
57F
100
AcDbEntity
  8
LAY-1
  6
CONTINUOUS
 62
     2
100
AcDbCircle
 10
568.997008
 20
783.094433
 30
0.0
 40
3.297008
100
AcDbArc
 50
145.296434
 51
214.423005
  0
LINE
  5
580
100
AcDbEntity
  8
LAY-1
  6
CONTINUOUS
 62
     2
100
AcDbLine
 10
566.27735
 20
773.725087
 30
0.0
 11
572.2
 21
773.725087
 31
0.0
  0
ARC
  5
581
100
AcDbEntity
  8
LAY-1
  6
CONTINUOUS
 62
     2
100
AcDbCircle
 10
569.028788
 20
771.851475
 30
0.0
 40
3.328788
100
AcDbArc
 50
145.746813
 51
214.253187
  0
LINE
  5
582
100
AcDbEntity
  8
LAY-1
  6
CONTINUOUS
 62
     2
100
AcDbLine
 10
572.2
 20
781.23064
 30
0.0
 11
566.27735
 21
781.23064
 31
0.0
  0
LINE
  5
583
100
AcDbEntity
  8
LAY-1
  6
CONTINUOUS
 62
     2
100
AcDbLine
 10
573.7
 20
784.977864
 30
0.0
 11
572.2
 21
784.977864
 31
0.0
  0
LINE
  5
584
100
AcDbEntity
  8
LAY-1
  6
EXLTYPE3
 62
     1
100
AcDbLine
 10
563.7
 20
750.867361
 30
0.0
 11
563.7
 21
717.767361
 31
0.0
  0
ARC
  5
585
100
AcDbEntity
  8
LAY-1
  6
CONTINUOUS
 62
     2
100
AcDbCircle
 10
594.71793
 20
815.811381
 30
0.0
 40
20.0
100
AcDbArc
 50
5.858415
 51
68.647579
  0
ARC
  5
586
100
AcDbEntity
  8
LAY-1
  6
CONTINUOUS
 62
     2
100
AcDbCircle
 10
580.799325
 20
821.025408
 30
0.0
 40
17.5
100
AcDbArc
 50
147.448231
 51
162.620501
  0
LINE
  5
587
100
AcDbEntity
  8
LAY-1
  6
CONTINUOUS
 62
     2
100
AcDbLine
 10
546.7
 20
705.0
 30
0.0
 11
549.2
 21
705.0
 31
0.0
  0
LINE
  5
588
100
AcDbEntity
  8
LAY-1
  6
CONTINUOUS
 62
     2
100
AcDbLine
 10
549.2
 20
765.0
 30
0.0
 11
543.748179
 21
765.0
 31
0.0
  0
LINE
  5
589
100
AcDbEntity
  8
LAY-1
  6
CONTINUOUS
 62
     2
100
AcDbLine
 10
548.7
 20
705.0
 30
0.0
 11
548.7
 21
765.0
 31
0.0
  0
LINE
  5
58A
100
AcDbEntity
  8
LAY-1
  6
CONTINUOUS
 62
     2
100
AcDbLine
 10
519.040507
 20
868.664623
 30
0.0
 11
529.040507
 21
868.664623
 31
0.0
  0
LINE
  5
58B
100
AcDbEntity
  8
LAY-1
  6
CONTINUOUS
 62
     2
100
AcDbLine
 10
529.040507
 20
868.664623
 30
0.0
 11
508.7
 21
848.7
 31
0.0
  0
LINE
  5
58C
100
AcDbEntity
  8
LAY-1
  6
CONTINUOUS
 62
     2
100
AcDbLine
 10
508.7
 20
848.7
 30
0.0
 11
488.735377
 21
868.664623
 31
0.0
  0
LINE
  5
58D
100
AcDbEntity
  8
LAY-1
  6
CONTINUOUS
 62
     2
100
AcDbLine
 10
488.735377
 20
868.664623
 30
0.0
 11
499.040507
 21
868.664623
 31
0.0
  0
LINE
  5
58E
100
AcDbEntity
  8
LAY-1
  6
CONTINUOUS
 62
     2
100
AcDbLine
 10
499.040507
 20
868.664623
 30
0.0
 11
499.040507
 21
878.324116
 31
0.0
  0
LINE
  5
58F
100
AcDbEntity
  8
LAY-1
  6
CONTINUOUS
 62
     2
100
AcDbLine
 10
499.040507
 20
878.324116
 30
0.0
 11
519.040507
 21
878.324116
 31
0.0
  0
LINE
  5
590
100
AcDbEntity
  8
LAY-1
  6
CONTINUOUS
 62
     2
100
AcDbLine
 10
519.040507
 20
878.324116
 30
0.0
 11
519.040507
 21
868.664623
 31
0.0
  0
LINE
  5
591
100
AcDbEntity
  8
LAY-1
  6
EXLTYPE3
 62
     1
100
AcDbLine
 10
508.7
 20
845.8
 30
0.0
 11
508.7
 21
658.5
 31
0.0
  0
LINE
  5
592
100
AcDbEntity
  8
LAY-1
  6
CONTINUOUS
 62
     2
100
AcDbLine
 10
1433.314048
 20
785.737548
 30
0.0
 11
1430.741888
 21
787.222585
 31
0.0
  0
ARC
  5
593
100
AcDbEntity
  8
LAY-1
  6
CONTINUOUS
 62
     2
100
AcDbCircle
 10
1481.8
 20
784.879786
 30
0.0
 40
1.0
100
AcDbArc
 50
119.066186
 51
215.896139
  0
ARC
  5
594
100
AcDbEntity
  8
LAY-1
  6
CONTINUOUS
 62
     2
100
AcDbCircle
 10
1432.8
 20
784.879786
 30
0.0
 40
1.0
100
AcDbArc
 50
324.103861
 51
60.933814
  0
LINE
  5
595
100
AcDbEntity
  8
LAY-1
  6
CONTINUOUS
 62
     2
100
AcDbLine
 10
1430.741888
 20
665.0
 30
0.0
 11
1430.741888
 21
682.777415
 31
0.0
  0
LINE
  5
596
100
AcDbEntity
  8
LAY-1
  6
CONTINUOUS
 62
     2
100
AcDbLine
 10
1483.858112
 20
682.777415
 30
0.0
 11
1483.858112
 21
665.0
 31
0.0
  0
LINE
  5
597
100
AcDbEntity
  8
LAY-1
  6
CONTINUOUS
 62
     2
100
AcDbLine
 10
1483.858112
 20
787.222585
 30
0.0
 11
1483.858112
 21
805.0
 31
0.0
  0
LINE
  5
598
100
AcDbEntity
  8
LAY-1
  6
CONTINUOUS
 62
     2
100
AcDbLine
 10
1430.741888
 20
805.0
 30
0.0
 11
1430.741888
 21
787.222585
 31
0.0
  0
LINE
  5
599
100
AcDbEntity
  8
LAY-1
  6
CONTINUOUS
 62
     2
100
AcDbLine
 10
1483.858112
 20
805.0
 30
0.0
 11
1430.741888
 21
805.0
 31
0.0
  0
LINE
  5
59A
100
AcDbEntity
  8
LAY-1
  6
CONTINUOUS
 62
     2
100
AcDbLine
 10
1430.741888
 20
665.0
 30
0.0
 11
1483.858112
 21
665.0
 31
0.0
  0
LINE
  5
59B
100
AcDbEntity
  8
LAY-1
  6
CONTINUOUS
 62
     2
100
AcDbLine
 10
1417.3
 20
765.0
 30
0.0
 11
1422.251821
 21
765.0
 31
0.0
  0
ARC
  5
59C
100
AcDbEntity
  8
LAY-1
  6
CONTINUOUS
 62
     2
100
AcDbCircle
 10
1409.3
 20
735.0
 30
0.0
 40
87.0
100
AcDbArc
 50
325.487869
 51
338.927403
  0
ARC
  5
59D
100
AcDbEntity
  8
LAY-1
  6
CONTINUOUS
 62
     2
100
AcDbCircle
 10
1505.3
 20
735.0
 30
0.0
 40
87.0
100
AcDbArc
 50
145.487869
 51
158.927403
  0
ARC
  5
59E
100
AcDbEntity
  8
LAY-1
  6
CONTINUOUS
 62
     2
100
AcDbCircle
 10
1409.3
 20
735.0
 30
0.0
 40
87.0
100
AcDbArc
 50
21.072597
 51
34.512131
  0
ARC
  5
59F
100
AcDbEntity
  8
LAY-1
  6
CONTINUOUS
 62
     2
100
AcDbCircle
 10
1492.348179
 20
703.0
 30
0.0
 40
2.0
100
AcDbArc
 50
90.0
 51
158.927403
  0
ARC
  5
5A0
100
AcDbEntity
  8
LAY-1
  6
CONTINUOUS
 62
     2
100
AcDbCircle
 10
1422.251821
 20
767.0
 30
0.0
 40
2.0
100
AcDbArc
 50
270.0
 51
338.927403
  0
LINE
  5
5A1
100
AcDbEntity
  8
LAY-1
  6
CONTINUOUS
 62
     2
100
AcDbLine
 10
1481.285952
 20
785.737548
 30
0.0
 11
1483.858112
 21
787.222585
 31
0.0
  0
ARC
  5
5A2
100
AcDbEntity
  8
LAY-1
  6
CONTINUOUS
 62
     2
100
AcDbCircle
 10
1481.8
 20
685.120214
 30
0.0
 40
1.0
100
AcDbArc
 50
144.103861
 51
240.933814
  0
ARC
  5
5A3
100
AcDbEntity
  8
LAY-1
  6
CONTINUOUS
 62
     2
100
AcDbCircle
 10
1432.8
 20
685.120214
 30
0.0
 40
1.0
100
AcDbArc
 50
299.066186
 51
35.896139
  0
LINE
  5
5A4
100
AcDbEntity
  8
LAY-1
  6
CONTINUOUS
 62
     2
100
AcDbLine
 10
1433.314048
 20
684.262452
 30
0.0
 11
1430.741888
 21
682.777415
 31
0.0
  0
LINE
  5
5A5
100
AcDbEntity
  8
LAY-1
  6
CONTINUOUS
 62
     2
100
AcDbLine
 10
1481.285952
 20
684.262452
 30
0.0
 11
1483.858112
 21
682.777415
 31
0.0
  0
ARC
  5
5A6
100
AcDbEntity
  8
LAY-1
  6
CONTINUOUS
 62
     2
100
AcDbCircle
 10
1492.348179
 20
767.0
 30
0.0
 40
2.0
100
AcDbArc
 50
201.072597
 51
270.0
  0
LINE
  5
5A7
100
AcDbEntity
  8
LAY-1
  6
CONTINUOUS
 62
     2
100
AcDbLine
 10
1430.741888
 20
787.222585
 30
0.0
 11
1483.858112
 21
787.222585
 31
0.0
  0
LINE
  5
5A8
100
AcDbEntity
  8
LAY-1
  6
CONTINUOUS
 62
     2
100
AcDbLine
 10
1430.741888
 20
682.777415
 30
0.0
 11
1483.858112
 21
682.777415
 31
0.0
  0
POLYLINE
  5
5A9
100
AcDbEntity
  8
LAY-1
  6
CONTINUOUS
 62
     2
100
AcDb2dPolyline
 66
     1
 10
0.0
 20
0.0
 30
0.0
 70
   128
  0
VERTEX
  5
5AA
100
AcDbEntity
  8
LAY-1
  6
CONTINUOUS
 62
     2
100
AcDbVertex
100
AcDb2dVertex
 10
1487.3
 20
728.234978
 30
0.0
  0
VERTEX
  5
5AB
100
AcDbEntity
  8
LAY-1
  6
CONTINUOUS
 62
     2
100
AcDbVertex
100
AcDb2dVertex
 10
1487.276934
 20
724.521381
 30
0.0
  0
VERTEX
  5
5AC
100
AcDbEntity
  8
LAY-1
  6
CONTINUOUS
 62
     2
100
AcDbVertex
100
AcDb2dVertex
 10
1487.153255
 20
720.860829
 30
0.0
  0
VERTEX
  5
5AD
100
AcDbEntity
  8
LAY-1
  6
CONTINUOUS
 62
     2
100
AcDbVertex
100
AcDb2dVertex
 10
1487.042372
 20
719.429076
 30
0.0
  0
VERTEX
  5
5AE
100
AcDbEntity
  8
LAY-1
  6
CONTINUOUS
 62
     2
100
AcDbVertex
100
AcDb2dVertex
 10
1486.854109
 20
718.019742
 30
0.0
  0
VERTEX
  5
5AF
100
AcDbEntity
  8
LAY-1
  6
CONTINUOUS
 62
     2
100
AcDbVertex
100
AcDb2dVertex
 10
1486.649129
 20
717.18097
 30
0.0
  0
VERTEX
  5
5B0
100
AcDbEntity
  8
LAY-1
  6
CONTINUOUS
 62
     2
100
AcDbVertex
100
AcDb2dVertex
 10
1486.492928
 20
716.841024
 30
0.0
  0
VERTEX
  5
5B1
100
AcDbEntity
  8
LAY-1
  6
CONTINUOUS
 62
     2
100
AcDbVertex
100
AcDb2dVertex
 10
1486.425277
 20
716.758187
 30
0.0
  0
VERTEX
  5
5B2
100
AcDbEntity
  8
LAY-1
  6
CONTINUOUS
 62
     2
100
AcDbVertex
100
AcDb2dVertex
 10
1486.365423
 20
716.714814
 30
0.0
  0
VERTEX
  5
5B3
100
AcDbEntity
  8
LAY-1
  6
CONTINUOUS
 62
     2
100
AcDbVertex
100
AcDb2dVertex
 10
1486.352111
 20
716.708898
 30
0.0
  0
SEQEND
  5
5B4
100
AcDbEntity
  8
LAY-1
  6
CONTINUOUS
 62
     2
  0
ELLIPSE
  5
5B5
100
AcDbEntity
  8
LAY-1
  6
CONTINUOUS
 62
     2
100
AcDbEllipse
 10
1486.456332
 20
717.34277
 30
0.0
 11
0.2287812713733972
 21
-1.9868716943650022
 31
0.0
210
0.0
220
0.0
230
1.0
 40
0.092549
 41
5.0264193779774384
 42
5.3894126310639665
  0
LINE
  5
5B6
100
AcDbEntity
  8
LAY-1
  6
CONTINUOUS
 62
     2
100
AcDbLine
 10
1497.3
 20
735.0
 30
0.0
 11
1497.3
 21
705.0
 31
0.0
  0
LINE
  5
5B7
100
AcDbEntity
  8
LAY-1
  6
CONTINUOUS
 62
     2
100
AcDbLine
 10
1497.3
 20
765.0
 30
0.0
 11
1497.3
 21
735.0
 31
0.0
  0
LINE
  5
5B8
100
AcDbEntity
  8
LAY-1
  6
CONTINUOUS
 62
     2
100
AcDbLine
 10
1487.3
 20
741.765022
 30
0.0
 11
1487.3
 21
728.234978
 31
0.0
  0
ELLIPSE
  5
5B9
100
AcDbEntity
  8
LAY-1
  6
CONTINUOUS
 62
     2
100
AcDbEllipse
 10
1486.456332
 20
752.65723
 30
0.0
 11
-0.2287812713758379
 21
-1.9868716943647002
 31
0.0
210
0.0
220
0.0
230
1.0
 40
0.092549
 41
4.0353653297044048
 42
4.3983585827959724
  0
POLYLINE
  5
5BA
100
AcDbEntity
  8
LAY-1
  6
CONTINUOUS
 62
     2
100
AcDb2dPolyline
 66
     1
 10
0.0
 20
0.0
 30
0.0
 70
   128
  0
VERTEX
  5
5BB
100
AcDbEntity
  8
LAY-1
  6
CONTINUOUS
 62
     2
100
AcDbVertex
100
AcDb2dVertex
 10
1486.352111
 20
753.291102
 30
0.0
  0
VERTEX
  5
5BC
100
AcDbEntity
  8
LAY-1
  6
CONTINUOUS
 62
     2
100
AcDbVertex
100
AcDb2dVertex
 10
1486.421788
 20
753.245101
 30
0.0
  0
VERTEX
  5
5BD
100
AcDbEntity
  8
LAY-1
  6
CONTINUOUS
 62
     2
100
AcDbVertex
100
AcDb2dVertex
 10
1486.436387
 20
753.230706
 30
0.0
  0
VERTEX
  5
5BE
100
AcDbEntity
  8
LAY-1
  6
CONTINUOUS
 62
     2
100
AcDbVertex
100
AcDb2dVertex
 10
1486.568332
 20
753.022153
 30
0.0
  0
VERTEX
  5
5BF
100
AcDbEntity
  8
LAY-1
  6
CONTINUOUS
 62
     2
100
AcDbVertex
100
AcDb2dVertex
 10
1486.76215
 20
752.42205
 30
0.0
  0
VERTEX
  5
5C0
100
AcDbEntity
  8
LAY-1
  6
CONTINUOUS
 62
     2
100
AcDbVertex
100
AcDb2dVertex
 10
1486.898646
 20
751.718461
 30
0.0
  0
VERTEX
  5
5C1
100
AcDbEntity
  8
LAY-1
  6
CONTINUOUS
 62
     2
100
AcDbVertex
100
AcDb2dVertex
 10
1487.12286
 20
749.607243
 30
0.0
  0
VERTEX
  5
5C2
100
AcDbEntity
  8
LAY-1
  6
CONTINUOUS
 62
     2
100
AcDbVertex
100
AcDb2dVertex
 10
1487.225413
 20
747.590885
 30
0.0
  0
VERTEX
  5
5C3
100
AcDbEntity
  8
LAY-1
  6
CONTINUOUS
 62
     2
100
AcDbVertex
100
AcDb2dVertex
 10
1487.286897
 20
744.709325
 30
0.0
  0
VERTEX
  5
5C4
100
AcDbEntity
  8
LAY-1
  6
CONTINUOUS
 62
     2
100
AcDbVertex
100
AcDb2dVertex
 10
1487.3
 20
741.765022
 30
0.0
  0
SEQEND
  5
5C5
100
AcDbEntity
  8
LAY-1
  6
CONTINUOUS
 62
     2
  0
POLYLINE
  5
5C6
100
AcDbEntity
  8
LAY-1
  6
CONTINUOUS
 62
     2
100
AcDb2dPolyline
 66
     1
 10
0.0
 20
0.0
 30
0.0
 70
   128
  0
VERTEX
  5
5C7
100
AcDbEntity
  8
LAY-1
  6
CONTINUOUS
 62
     2
100
AcDbVertex
100
AcDb2dVertex
 10
1491.0623
 20
706.111971
 30
0.0
  0
VERTEX
  5
5C8
100
AcDbEntity
  8
LAY-1
  6
CONTINUOUS
 62
     2
100
AcDbVertex
100
AcDb2dVertex
 10
1490.628145
 20
706.9396
 30
0.0
  0
VERTEX
  5
5C9
100
AcDbEntity
  8
LAY-1
  6
CONTINUOUS
 62
     2
100
AcDbVertex
100
AcDb2dVertex
 10
1490.090078
 20
707.989152
 30
0.0
  0
VERTEX
  5
5CA
100
AcDbEntity
  8
LAY-1
  6
CONTINUOUS
 62
     2
100
AcDbVertex
100
AcDb2dVertex
 10
1489.487089
 20
709.200158
 30
0.0
  0
VERTEX
  5
5CB
100
AcDbEntity
  8
LAY-1
  6
CONTINUOUS
 62
     2
100
AcDbVertex
100
AcDb2dVertex
 10
1488.814293
 20
710.600867
 30
0.0
  0
VERTEX
  5
5CC
100
AcDbEntity
  8
LAY-1
  6
CONTINUOUS
 62
     2
100
AcDbVertex
100
AcDb2dVertex
 10
1488.075983
 20
712.208539
 30
0.0
  0
VERTEX
  5
5CD
100
AcDbEntity
  8
LAY-1
  6
CONTINUOUS
 62
     2
100
AcDbVertex
100
AcDb2dVertex
 10
1487.3
 20
713.995131
 30
0.0
  0
VERTEX
  5
5CE
100
AcDbEntity
  8
LAY-1
  6
CONTINUOUS
 62
     2
100
AcDbVertex
100
AcDb2dVertex
 10
1487.268255
 20
714.070676
 30
0.0
  0
VERTEX
  5
5CF
100
AcDbEntity
  8
LAY-1
  6
CONTINUOUS
 62
     2
100
AcDbVertex
100
AcDb2dVertex
 10
1486.862727
 20
715.05511
 30
0.0
  0
VERTEX
  5
5D0
100
AcDbEntity
  8
LAY-1
  6
CONTINUOUS
 62
     2
100
AcDbVertex
100
AcDb2dVertex
 10
1486.456332
 20
716.081539
 30
0.0
  0
SEQEND
  5
5D1
100
AcDbEntity
  8
LAY-1
  6
CONTINUOUS
 62
     2
  0
POLYLINE
  5
5D2
100
AcDbEntity
  8
LAY-1
  6
CONTINUOUS
 62
     2
100
AcDb2dPolyline
 66
     1
 10
0.0
 20
0.0
 30
0.0
 70
   128
  0
VERTEX
  5
5D3
100
AcDbEntity
  8
LAY-1
  6
CONTINUOUS
 62
     2
100
AcDbVertex
100
AcDb2dVertex
 10
1486.456332
 20
753.918461
 30
0.0
  0
VERTEX
  5
5D4
100
AcDbEntity
  8
LAY-1
  6
CONTINUOUS
 62
     2
100
AcDbVertex
100
AcDb2dVertex
 10
1486.877869
 20
754.982327
 30
0.0
  0
VERTEX
  5
5D5
100
AcDbEntity
  8
LAY-1
  6
CONTINUOUS
 62
     2
100
AcDbVertex
100
AcDb2dVertex
 10
1487.3
 20
756.004869
 30
0.0
  0
VERTEX
  5
5D6
100
AcDbEntity
  8
LAY-1
  6
CONTINUOUS
 62
     2
100
AcDbVertex
100
AcDb2dVertex
 10
1487.775243
 20
757.112038
 30
0.0
  0
VERTEX
  5
5D7
100
AcDbEntity
  8
LAY-1
  6
CONTINUOUS
 62
     2
100
AcDbVertex
100
AcDb2dVertex
 10
1488.24253
 20
758.161279
 30
0.0
  0
VERTEX
  5
5D8
100
AcDbEntity
  8
LAY-1
  6
CONTINUOUS
 62
     2
100
AcDbVertex
100
AcDb2dVertex
 10
1488.86915
 20
759.515486
 30
0.0
  0
VERTEX
  5
5D9
100
AcDbEntity
  8
LAY-1
  6
CONTINUOUS
 62
     2
100
AcDbVertex
100
AcDb2dVertex
 10
1489.46051
 20
760.745543
 30
0.0
  0
VERTEX
  5
5DA
100
AcDbEntity
  8
LAY-1
  6
CONTINUOUS
 62
     2
100
AcDbVertex
100
AcDb2dVertex
 10
1490.010781
 20
761.853782
 30
0.0
  0
VERTEX
  5
5DB
100
AcDbEntity
  8
LAY-1
  6
CONTINUOUS
 62
     2
100
AcDbVertex
100
AcDb2dVertex
 10
1490.500498
 20
762.813887
 30
0.0
  0
VERTEX
  5
5DC
100
AcDbEntity
  8
LAY-1
  6
CONTINUOUS
 62
     2
100
AcDbVertex
100
AcDb2dVertex
 10
1490.903699
 20
763.587579
 30
0.0
  0
SEQEND
  5
5DD
100
AcDbEntity
  8
LAY-1
  6
CONTINUOUS
 62
     2
  0
POLYLINE
  5
5DE
100
AcDbEntity
  8
LAY-1
  6
CONTINUOUS
 62
     2
100
AcDb2dPolyline
 66
     1
 10
0.0
 20
0.0
 30
0.0
 70
   128
  0
VERTEX
  5
5DF
100
AcDbEntity
  8
LAY-1
  6
CONTINUOUS
 62
     2
100
AcDbVertex
100
AcDb2dVertex
 10
1417.3
 20
705.0
 30
0.0
  0
VERTEX
  5
5E0
100
AcDbEntity
  8
LAY-1
  6
CONTINUOUS
 62
     2
100
AcDbVertex
100
AcDb2dVertex
 10
1418.002469
 20
704.867444
 30
0.0
  0
VERTEX
  5
5E1
100
AcDbEntity
  8
LAY-1
  6
CONTINUOUS
 62
     2
100
AcDbVertex
100
AcDb2dVertex
 10
1418.623304
 20
704.491784
 30
0.0
  0
VERTEX
  5
5E2
100
AcDbEntity
  8
LAY-1
  6
CONTINUOUS
 62
     2
100
AcDbVertex
100
AcDb2dVertex
 10
1419.066373
 20
703.929328
 30
0.0
  0
VERTEX
  5
5E3
100
AcDbEntity
  8
LAY-1
  6
CONTINUOUS
 62
     2
100
AcDbVertex
100
AcDb2dVertex
 10
1419.3
 20
703.217834
 30
0.0
  0
SEQEND
  5
5E4
100
AcDbEntity
  8
LAY-1
  6
CONTINUOUS
 62
     2
  0
ARC
  5
5E5
100
AcDbEntity
  8
LAY-1
  6
CONTINUOUS
 62
     2
100
AcDbCircle
 10
1421.3
 20
702.891582
 30
0.0
 40
2.0
100
AcDbArc
 50
180.0
 51
250.0
  0
POLYLINE
  5
5E6
100
AcDbEntity
  8
LAY-1
  6
CONTINUOUS
 62
     2
100
AcDb2dPolyline
 66
     1
 10
0.0
 20
0.0
 30
0.0
 70
   128
  0
VERTEX
  5
5E7
100
AcDbEntity
  8
LAY-1
  6
CONTINUOUS
 62
     2
100
AcDbVertex
100
AcDb2dVertex
 10
1426.417942
 20
698.270184
 30
0.0
  0
VERTEX
  5
5E8
100
AcDbEntity
  8
LAY-1
  6
CONTINUOUS
 62
     2
100
AcDbVertex
100
AcDb2dVertex
 10
1426.322566
 20
698.471985
 30
0.0
  0
VERTEX
  5
5E9
100
AcDbEntity
  8
LAY-1
  6
CONTINUOUS
 62
     2
100
AcDbVertex
100
AcDb2dVertex
 10
1426.063224
 20
698.810364
 30
0.0
  0
VERTEX
  5
5EA
100
AcDbEntity
  8
LAY-1
  6
CONTINUOUS
 62
     2
100
AcDbVertex
100
AcDb2dVertex
 10
1425.729092
 20
699.092137
 30
0.0
  0
VERTEX
  5
5EB
100
AcDbEntity
  8
LAY-1
  6
CONTINUOUS
 62
     2
100
AcDbVertex
100
AcDb2dVertex
 10
1425.377298
 20
699.28032
 30
0.0
  0
VERTEX
  5
5EC
100
AcDbEntity
  8
LAY-1
  6
CONTINUOUS
 62
     2
100
AcDbVertex
100
AcDb2dVertex
 10
1425.306769
 20
699.302073
 30
0.0
  0
SEQEND
  5
5ED
100
AcDbEntity
  8
LAY-1
  6
CONTINUOUS
 62
     2
  0
LINE
  5
5EE
100
AcDbEntity
  8
LAY-1
  6
CONTINUOUS
 62
     2
100
AcDbLine
 10
1425.307174
 20
699.304735
 30
0.0
 11
1420.61596
 21
701.012197
 31
0.0
  0
ARC
  5
5EF
100
AcDbEntity
  8
LAY-1
  6
CONTINUOUS
 62
     2
100
AcDbCircle
 10
1505.3
 20
735.0
 30
0.0
 40
87.0
100
AcDbArc
 50
204.968077
 51
214.512105
  0
POLYLINE
  5
5F0
100
AcDbEntity
  8
LAY-1
  6
CONTINUOUS
 62
     2
100
AcDb2dPolyline
 66
     1
 10
0.0
 20
0.0
 30
0.0
 70
   128
  0
VERTEX
  5
5F1
100
AcDbEntity
  8
LAY-1
  6
CONTINUOUS
 62
     2
100
AcDbVertex
100
AcDb2dVertex
 10
1427.3
 20
728.234978
 30
0.0
  0
VERTEX
  5
5F2
100
AcDbEntity
  8
LAY-1
  6
CONTINUOUS
 62
     2
100
AcDbVertex
100
AcDb2dVertex
 10
1427.323066
 20
724.521381
 30
0.0
  0
VERTEX
  5
5F3
100
AcDbEntity
  8
LAY-1
  6
CONTINUOUS
 62
     2
100
AcDbVertex
100
AcDb2dVertex
 10
1427.446745
 20
720.860829
 30
0.0
  0
VERTEX
  5
5F4
100
AcDbEntity
  8
LAY-1
  6
CONTINUOUS
 62
     2
100
AcDbVertex
100
AcDb2dVertex
 10
1427.557628
 20
719.429076
 30
0.0
  0
VERTEX
  5
5F5
100
AcDbEntity
  8
LAY-1
  6
CONTINUOUS
 62
     2
100
AcDbVertex
100
AcDb2dVertex
 10
1427.745891
 20
718.019742
 30
0.0
  0
VERTEX
  5
5F6
100
AcDbEntity
  8
LAY-1
  6
CONTINUOUS
 62
     2
100
AcDbVertex
100
AcDb2dVertex
 10
1427.950871
 20
717.18097
 30
0.0
  0
VERTEX
  5
5F7
100
AcDbEntity
  8
LAY-1
  6
CONTINUOUS
 62
     2
100
AcDbVertex
100
AcDb2dVertex
 10
1428.107072
 20
716.841024
 30
0.0
  0
VERTEX
  5
5F8
100
AcDbEntity
  8
LAY-1
  6
CONTINUOUS
 62
     2
100
AcDbVertex
100
AcDb2dVertex
 10
1428.174723
 20
716.758187
 30
0.0
  0
VERTEX
  5
5F9
100
AcDbEntity
  8
LAY-1
  6
CONTINUOUS
 62
     2
100
AcDbVertex
100
AcDb2dVertex
 10
1428.234577
 20
716.714814
 30
0.0
  0
VERTEX
  5
5FA
100
AcDbEntity
  8
LAY-1
  6
CONTINUOUS
 62
     2
100
AcDbVertex
100
AcDb2dVertex
 10
1428.247889
 20
716.708898
 30
0.0
  0
SEQEND
  5
5FB
100
AcDbEntity
  8
LAY-1
  6
CONTINUOUS
 62
     2
  0
ELLIPSE
  5
5FC
100
AcDbEntity
  8
LAY-1
  6
CONTINUOUS
 62
     2
100
AcDbEllipse
 10
1428.143668
 20
717.34277
 30
0.0
 11
-0.2287812713733996
 21
-1.9868716943650173
 31
0.0
210
0.0
220
0.0
230
1.0
 40
0.092549
 41
0.8937726761156201
 42
1.2567659292021498
  0
LINE
  5
5FD
100
AcDbEntity
  8
LAY-1
  6
CONTINUOUS
 62
     2
100
AcDbLine
 10
1427.3
 20
741.765022
 30
0.0
 11
1427.3
 21
728.234978
 31
0.0
  0
ELLIPSE
  5
5FE
100
AcDbEntity
  8
LAY-1
  6
CONTINUOUS
 62
     2
100
AcDbEllipse
 10
1428.143668
 20
752.65723
 30
0.0
 11
-0.2287812713758358
 21
1.9868716943646865
 31
0.0
210
0.0
220
0.0
230
1.0
 40
0.092549
 41
5.0264193779734079
 42
5.3894126310642037
  0
POLYLINE
  5
5FF
100
AcDbEntity
  8
LAY-1
  6
CONTINUOUS
 62
     2
100
AcDb2dPolyline
 66
     1
 10
0.0
 20
0.0
 30
0.0
 70
   128
  0
VERTEX
  5
600
100
AcDbEntity
  8
LAY-1
  6
CONTINUOUS
 62
     2
100
AcDbVertex
100
AcDb2dVertex
 10
1428.247889
 20
753.291102
 30
0.0
  0
VERTEX
  5
601
100
AcDbEntity
  8
LAY-1
  6
CONTINUOUS
 62
     2
100
AcDbVertex
100
AcDb2dVertex
 10
1428.178212
 20
753.245101
 30
0.0
  0
VERTEX
  5
602
100
AcDbEntity
  8
LAY-1
  6
CONTINUOUS
 62
     2
100
AcDbVertex
100
AcDb2dVertex
 10
1428.163613
 20
753.230706
 30
0.0
  0
VERTEX
  5
603
100
AcDbEntity
  8
LAY-1
  6
CONTINUOUS
 62
     2
100
AcDbVertex
100
AcDb2dVertex
 10
1428.031668
 20
753.022153
 30
0.0
  0
VERTEX
  5
604
100
AcDbEntity
  8
LAY-1
  6
CONTINUOUS
 62
     2
100
AcDbVertex
100
AcDb2dVertex
 10
1427.83785
 20
752.42205
 30
0.0
  0
VERTEX
  5
605
100
AcDbEntity
  8
LAY-1
  6
CONTINUOUS
 62
     2
100
AcDbVertex
100
AcDb2dVertex
 10
1427.701354
 20
751.718461
 30
0.0
  0
VERTEX
  5
606
100
AcDbEntity
  8
LAY-1
  6
CONTINUOUS
 62
     2
100
AcDbVertex
100
AcDb2dVertex
 10
1427.47714
 20
749.607243
 30
0.0
  0
VERTEX
  5
607
100
AcDbEntity
  8
LAY-1
  6
CONTINUOUS
 62
     2
100
AcDbVertex
100
AcDb2dVertex
 10
1427.374587
 20
747.590885
 30
0.0
  0
VERTEX
  5
608
100
AcDbEntity
  8
LAY-1
  6
CONTINUOUS
 62
     2
100
AcDbVertex
100
AcDb2dVertex
 10
1427.313103
 20
744.709325
 30
0.0
  0
VERTEX
  5
609
100
AcDbEntity
  8
LAY-1
  6
CONTINUOUS
 62
     2
100
AcDbVertex
100
AcDb2dVertex
 10
1427.3
 20
741.765022
 30
0.0
  0
SEQEND
  5
60A
100
AcDbEntity
  8
LAY-1
  6
CONTINUOUS
 62
     2
  0
POLYLINE
  5
60B
100
AcDbEntity
  8
LAY-1
  6
CONTINUOUS
 62
     2
100
AcDb2dPolyline
 66
     1
 10
0.0
 20
0.0
 30
0.0
 70
   128
  0
VERTEX
  5
60C
100
AcDbEntity
  8
LAY-1
  6
CONTINUOUS
 62
     2
100
AcDbVertex
100
AcDb2dVertex
 10
1428.143668
 20
753.918461
 30
0.0
  0
VERTEX
  5
60D
100
AcDbEntity
  8
LAY-1
  6
CONTINUOUS
 62
     2
100
AcDbVertex
100
AcDb2dVertex
 10
1427.722131
 20
754.982327
 30
0.0
  0
VERTEX
  5
60E
100
AcDbEntity
  8
LAY-1
  6
CONTINUOUS
 62
     2
100
AcDbVertex
100
AcDb2dVertex
 10
1427.3
 20
756.004869
 30
0.0
  0
VERTEX
  5
60F
100
AcDbEntity
  8
LAY-1
  6
CONTINUOUS
 62
     2
100
AcDbVertex
100
AcDb2dVertex
 10
1426.824757
 20
757.112038
 30
0.0
  0
VERTEX
  5
610
100
AcDbEntity
  8
LAY-1
  6
CONTINUOUS
 62
     2
100
AcDbVertex
100
AcDb2dVertex
 10
1426.35747
 20
758.161279
 30
0.0
  0
VERTEX
  5
611
100
AcDbEntity
  8
LAY-1
  6
CONTINUOUS
 62
     2
100
AcDbVertex
100
AcDb2dVertex
 10
1425.73085
 20
759.515486
 30
0.0
  0
VERTEX
  5
612
100
AcDbEntity
  8
LAY-1
  6
CONTINUOUS
 62
     2
100
AcDbVertex
100
AcDb2dVertex
 10
1425.13949
 20
760.745543
 30
0.0
  0
VERTEX
  5
613
100
AcDbEntity
  8
LAY-1
  6
CONTINUOUS
 62
     2
100
AcDbVertex
100
AcDb2dVertex
 10
1424.589219
 20
761.853782
 30
0.0
  0
VERTEX
  5
614
100
AcDbEntity
  8
LAY-1
  6
CONTINUOUS
 62
     2
100
AcDbVertex
100
AcDb2dVertex
 10
1424.099502
 20
762.813887
 30
0.0
  0
VERTEX
  5
615
100
AcDbEntity
  8
LAY-1
  6
CONTINUOUS
 62
     2
100
AcDbVertex
100
AcDb2dVertex
 10
1423.696301
 20
763.587579
 30
0.0
  0
SEQEND
  5
616
100
AcDbEntity
  8
LAY-1
  6
CONTINUOUS
 62
     2
  0
LINE
  5
617
100
AcDbEntity
  8
LAY-1
  6
CONTINUOUS
 62
     2
100
AcDbLine
 10
1419.3
 20
703.217834
 30
0.0
 11
1419.3
 21
702.891582
 31
0.0
  0
POLYLINE
  5
618
100
AcDbEntity
  8
LAY-1
  6
CONTINUOUS
 62
     2
100
AcDb2dPolyline
 66
     1
 10
0.0
 20
0.0
 30
0.0
 70
   128
  0
VERTEX
  5
619
100
AcDbEntity
  8
LAY-1
  6
CONTINUOUS
 62
     2
100
AcDbVertex
100
AcDb2dVertex
 10
1428.143668
 20
716.081539
 30
0.0
  0
VERTEX
  5
61A
100
AcDbEntity
  8
LAY-1
  6
CONTINUOUS
 62
     2
100
AcDbVertex
100
AcDb2dVertex
 10
1427.722131
 20
715.017673
 30
0.0
  0
VERTEX
  5
61B
100
AcDbEntity
  8
LAY-1
  6
CONTINUOUS
 62
     2
100
AcDbVertex
100
AcDb2dVertex
 10
1427.3
 20
713.995131
 30
0.0
  0
VERTEX
  5
61C
100
AcDbEntity
  8
LAY-1
  6
CONTINUOUS
 62
     2
100
AcDbVertex
100
AcDb2dVertex
 10
1426.824757
 20
712.887962
 30
0.0
  0
VERTEX
  5
61D
100
AcDbEntity
  8
LAY-1
  6
CONTINUOUS
 62
     2
100
AcDbVertex
100
AcDb2dVertex
 10
1426.35747
 20
711.838721
 30
0.0
  0
VERTEX
  5
61E
100
AcDbEntity
  8
LAY-1
  6
CONTINUOUS
 62
     2
100
AcDbVertex
100
AcDb2dVertex
 10
1425.73085
 20
710.484514
 30
0.0
  0
VERTEX
  5
61F
100
AcDbEntity
  8
LAY-1
  6
CONTINUOUS
 62
     2
100
AcDbVertex
100
AcDb2dVertex
 10
1425.13949
 20
709.254457
 30
0.0
  0
VERTEX
  5
620
100
AcDbEntity
  8
LAY-1
  6
CONTINUOUS
 62
     2
100
AcDbVertex
100
AcDb2dVertex
 10
1424.589219
 20
708.146218
 30
0.0
  0
VERTEX
  5
621
100
AcDbEntity
  8
LAY-1
  6
CONTINUOUS
 62
     2
100
AcDbVertex
100
AcDb2dVertex
 10
1424.099502
 20
707.186113
 30
0.0
  0
VERTEX
  5
622
100
AcDbEntity
  8
LAY-1
  6
CONTINUOUS
 62
     2
100
AcDbVertex
100
AcDb2dVertex
 10
1423.696301
 20
706.412421
 30
0.0
  0
SEQEND
  5
623
100
AcDbEntity
  8
LAY-1
  6
CONTINUOUS
 62
     2
  0
LINE
  5
624
100
AcDbEntity
  8
LAY-1
  6
CONTINUOUS
 62
     2
100
AcDbLine
 10
1470.290381
 20
738.75
 30
0.0
 11
1457.3
 21
738.75
 31
0.0
  0
LINE
  5
625
100
AcDbEntity
  8
LAY-1
  6
CONTINUOUS
 62
     2
100
AcDbLine
 10
1472.3
 20
735.0
 30
0.0
 11
1473.2375
 21
735.0
 31
0.0
  0
LINE
  5
626
100
AcDbEntity
  8
LAY-1
  6
CONTINUOUS
 62
     2
100
AcDbLine
 10
1457.3
 20
735.0
 30
0.0
 11
1471.415
 21
735.0
 31
0.0
  0
LINE
  5
627
100
AcDbEntity
  8
LAY-1
  6
CONTINUOUS
 62
     2
100
AcDbLine
 10
1473.2375
 20
735.0
 30
0.0
 11
1474.175
 21
733.125
 31
0.0
  0
LINE
  5
628
100
AcDbEntity
  8
LAY-1
  6
CONTINUOUS
 62
     2
100
AcDbLine
 10
1474.175
 20
733.125
 30
0.0
 11
1474.175
 21
740.625
 31
0.0
  0
LINE
  5
629
100
AcDbEntity
  8
LAY-1
  6
CONTINUOUS
 62
     2
100
AcDbLine
 10
1474.175
 20
740.625
 30
0.0
 11
1473.2375
 21
738.75
 31
0.0
  0
LINE
  5
62A
100
AcDbEntity
  8
LAY-1
  6
CONTINUOUS
 62
     2
100
AcDbLine
 10
1473.2375
 20
738.75
 30
0.0
 11
1471.823688
 21
738.75
 31
0.0
  0
LINE
  5
62B
100
AcDbEntity
  8
LAY-1
  6
CONTINUOUS
 62
     2
100
AcDbLine
 10
1457.3
 20
738.75
 30
0.0
 11
1457.3
 21
743.75
 31
0.0
  0
LINE
  5
62C
100
AcDbEntity
  8
LAY-1
  6
CONTINUOUS
 62
     2
100
AcDbLine
 10
1452.3
 20
742.5
 30
0.0
 11
1453.55
 21
742.5
 31
0.0
  0
LINE
  5
62D
100
AcDbEntity
  8
LAY-1
  6
CONTINUOUS
 62
     2
100
AcDbLine
 10
1453.55
 20
742.5
 30
0.0
 11
1453.55
 21
733.125
 31
0.0
  0
LINE
  5
62E
100
AcDbEntity
  8
LAY-1
  6
CONTINUOUS
 62
     2
100
AcDbLine
 10
1453.55
 20
733.125
 30
0.0
 11
1443.456294
 21
733.125
 31
0.0
  0
LINE
  5
62F
100
AcDbEntity
  8
LAY-1
  6
CONTINUOUS
 62
     2
100
AcDbLine
 10
1442.417649
 20
733.125
 30
0.0
 11
1440.425
 21
727.5
 31
0.0
  0
LINE
  5
630
100
AcDbEntity
  8
LAY-1
  6
CONTINUOUS
 62
     2
100
AcDbLine
 10
1440.425
 20
727.5
 30
0.0
 11
1443.394628
 21
729.375
 31
0.0
  0
LINE
  5
631
100
AcDbEntity
  8
LAY-1
  6
CONTINUOUS
 62
     2
100
AcDbLine
 10
1445.590629
 20
729.375
 30
0.0
 11
1453.55
 21
729.375
 31
0.0
  0
LINE
  5
632
100
AcDbEntity
  8
LAY-1
  6
CONTINUOUS
 62
     2
100
AcDbLine
 10
1453.55
 20
729.375
 30
0.0
 11
1453.55
 21
727.5
 31
0.0
  0
LINE
  5
633
100
AcDbEntity
  8
LAY-1
  6
CONTINUOUS
 62
     2
100
AcDbLine
 10
1453.55
 20
727.5
 30
0.0
 11
1452.3
 21
727.5
 31
0.0
  0
LINE
  5
634
100
AcDbEntity
  8
LAY-1
  6
CONTINUOUS
 62
     2
100
AcDbLine
 10
1457.3
 20
726.25
 30
0.0
 11
1457.3
 21
729.375
 31
0.0
  0
LINE
  5
635
100
AcDbEntity
  8
LAY-1
  6
CONTINUOUS
 62
     2
100
AcDbLine
 10
1457.3
 20
729.375
 30
0.0
 11
1461.9875
 21
729.375
 31
0.0
  0
LINE
  5
636
100
AcDbEntity
  8
LAY-1
  6
CONTINUOUS
 62
     2
100
AcDbLine
 10
1461.9875
 20
729.375
 30
0.0
 11
1462.925
 21
727.5
 31
0.0
  0
LINE
  5
637
100
AcDbEntity
  8
LAY-1
  6
CONTINUOUS
 62
     2
100
AcDbLine
 10
1462.925
 20
727.5
 30
0.0
 11
1462.925
 21
735.0
 31
0.0
  0
LINE
  5
638
100
AcDbEntity
  8
LAY-1
  6
CONTINUOUS
 62
     2
100
AcDbLine
 10
1462.925
 20
735.0
 30
0.0
 11
1461.9875
 21
733.125
 31
0.0
  0
LINE
  5
639
100
AcDbEntity
  8
LAY-1
  6
CONTINUOUS
 62
     2
100
AcDbLine
 10
1461.9875
 20
733.125
 30
0.0
 11
1457.3
 21
733.125
 31
0.0
  0
LINE
  5
63A
100
AcDbEntity
  8
LAY-1
  6
CONTINUOUS
 62
     2
100
AcDbLine
 10
1457.3
 20
733.125
 30
0.0
 11
1457.3
 21
735.0
 31
0.0
  0
LINE
  5
63B
100
AcDbEntity
  8
LAY-1
  6
CONTINUOUS
 62
     2
100
AcDbLine
 10
1452.3
 20
727.5
 30
0.0
 11
1459.175
 21
724.150737
 31
0.0
  0
LINE
  5
63C
100
AcDbEntity
  8
LAY-1
  6
CONTINUOUS
 62
     2
100
AcDbLine
 10
1452.3
 20
742.5
 30
0.0
 11
1459.175
 21
745.928244
 31
0.0
  0
LINE
  5
63D
100
AcDbEntity
  8
LAY-1
  6
CONTINUOUS
 62
     2
100
AcDbLine
 10
1457.3
 20
743.75
 30
0.0
 11
1459.175
 21
745.928244
 31
0.0
  0
LINE
  5
63E
100
AcDbEntity
  8
LAY-1
  6
CONTINUOUS
 62
     2
100
AcDbLine
 10
1457.3
 20
726.25
 30
0.0
 11
1459.175
 21
724.150737
 31
0.0
  0
ARC
  5
63F
100
AcDbEntity
  8
LAY-1
  6
CONTINUOUS
 62
     2
100
AcDbCircle
 10
1457.3
 20
735.0
 30
0.0
 40
15.0
100
AcDbArc
 50
202.024313
 51
0.0
  0
ARC
  5
640
100
AcDbEntity
  8
LAY-1
  6
CONTINUOUS
 62
     2
100
AcDbCircle
 10
1457.3
 20
738.75
 30
0.0
 40
15.0
100
AcDbArc
 50
218.682187
 51
333.731632
  0
ARC
  5
641
100
AcDbEntity
  8
LAY-1
  6
CONTINUOUS
 62
     2
100
AcDbCircle
 10
1457.3
 20
731.25
 30
0.0
 40
15.0
100
AcDbArc
 50
30.0
 51
152.485136
  0
ARC
  5
642
100
AcDbEntity
  8
LAY-1
  6
CONTINUOUS
 62
     2
100
AcDbCircle
 10
1449.8
 20
735.0
 30
0.0
 40
6.615
100
AcDbArc
 50
151.281536
 51
196.466023
  0
ARC
  5
643
100
AcDbEntity
  8
LAY-1
  6
CONTINUOUS
 62
     2
100
AcDbCircle
 10
1464.8
 20
735.0
 30
0.0
 40
6.615
100
AcDbArc
 50
332.762185
 51
0.0
  0
ARC
  5
644
100
AcDbEntity
  8
LAY-1
  6
CONTINUOUS
 62
     2
100
AcDbCircle
 10
1457.3
 20
735.0
 30
0.0
 40
15.0
100
AcDbArc
 50
14.477512
 51
187.180756
  0
LINE
  5
645
100
AcDbEntity
  8
LAY-1
  6
EXLTYPE3
 62
     1
100
AcDbLine
 10
1457.3
 20
657.4
 30
0.0
 11
1457.3
 21
813.5
 31
0.0
  0
LINE
  5
646
100
AcDbEntity
  8
LAY-1
  6
EXLTYPE3
 62
     1
100
AcDbLine
 10
1190.8
 20
735.0
 30
0.0
 11
1512.2
 21
735.0
 31
0.0
  0
LINE
  5
647
100
AcDbEntity
  8
LAY-1
  6
CONTINUOUS
 62
     2
100
AcDbLine
 10
1497.3
 20
735.0
 30
0.0
 11
1497.3
 21
705.0
 31
0.0
  0
LINE
  5
648
100
AcDbEntity
  8
LAY-1
  6
CONTINUOUS
 62
     2
100
AcDbLine
 10
1497.3
 20
765.0
 30
0.0
 11
1497.3
 21
735.0
 31
0.0
  0
LINE
  5
649
100
AcDbEntity
  8
LAY-1
  6
CONTINUOUS
 62
     2
100
AcDbLine
 10
1498.3
 20
765.0
 30
0.0
 11
1498.3
 21
705.0
 31
0.0
  0
LINE
  5
64A
100
AcDbEntity
  8
LAY-1
  6
CONTINUOUS
 62
     2
100
AcDbLine
 10
1502.3
 20
735.0
 30
0.0
 11
1502.3
 21
764.5
 31
0.0
  0
LINE
  5
64B
100
AcDbEntity
  8
LAY-1
  6
CONTINUOUS
 62
     2
100
AcDbLine
 10
1501.8
 20
765.0
 30
0.0
 11
1498.3
 21
765.0
 31
0.0
  0
ARC
  5
64C
100
AcDbEntity
  8
LAY-1
  6
CONTINUOUS
 62
     2
100
AcDbCircle
 10
1501.8
 20
764.5
 30
0.0
 40
0.5
100
AcDbArc
 50
0.0
 51
90.0
  0
LINE
  5
64D
100
AcDbEntity
  8
LAY-1
  6
CONTINUOUS
 62
     2
100
AcDbLine
 10
1502.3
 20
735.0
 30
0.0
 11
1502.3
 21
705.5
 31
0.0
  0
LINE
  5
64E
100
AcDbEntity
  8
LAY-1
  6
CONTINUOUS
 62
     2
100
AcDbLine
 10
1501.8
 20
705.0
 30
0.0
 11
1498.3
 21
705.0
 31
0.0
  0
LINE
  5
64F
100
AcDbEntity
  8
LAY-1
  6
CONTINUOUS
 62
     2
100
AcDbLine
 10
1498.3
 20
735.0
 30
0.0
 11
1498.3
 21
705.0
 31
0.0
  0
LINE
  5
650
100
AcDbEntity
  8
LAY-1
  6
CONTINUOUS
 62
     2
100
AcDbLine
 10
1498.3
 20
735.0
 30
0.0
 11
1498.3
 21
765.0
 31
0.0
  0
ARC
  5
651
100
AcDbEntity
  8
LAY-1
  6
CONTINUOUS
 62
     2
100
AcDbCircle
 10
1501.8
 20
705.5
 30
0.0
 40
0.5
100
AcDbArc
 50
270.0
 51
0.0
  0
LINE
  5
652
100
AcDbEntity
  8
LAY-1
  6
CONTINUOUS
 62
     2
100
AcDbLine
 10
1507.3
 20
705.726497
 30
0.0
 11
1502.3
 21
705.726497
 31
0.0
  0
LINE
  5
653
100
AcDbEntity
  8
LAY-1
  6
CONTINUOUS
 62
     2
100
AcDbLine
 10
1507.3
 20
717.273503
 30
0.0
 11
1502.3
 21
717.273503
 31
0.0
  0
LINE
  5
654
100
AcDbEntity
  8
LAY-1
  6
CONTINUOUS
 62
     2
100
AcDbLine
 10
1503.3
 20
717.273503
 30
0.0
 11
1503.3
 21
711.5
 31
0.0
  0
LINE
  5
655
100
AcDbEntity
  8
LAY-1
  6
CONTINUOUS
 62
     2
100
AcDbLine
 10
1507.3
 20
708.613249
 30
0.0
 11
1503.3
 21
708.613249
 31
0.0
  0
LINE
  5
656
100
AcDbEntity
  8
LAY-1
  6
CONTINUOUS
 62
     2
100
AcDbLine
 10
1507.3
 20
705.726497
 30
0.0
 11
1507.3
 21
717.273503
 31
0.0
  0
LINE
  5
657
100
AcDbEntity
  8
LAY-1
  6
CONTINUOUS
 62
     2
100
AcDbLine
 10
1507.3
 20
714.386751
 30
0.0
 11
1503.3
 21
714.386751
 31
0.0
  0
LINE
  5
658
100
AcDbEntity
  8
LAY-1
  6
CONTINUOUS
 62
     2
100
AcDbLine
 10
1506.866987
 20
708.613249
 30
0.0
 11
1503.3
 21
708.613249
 31
0.0
  0
LINE
  5
659
100
AcDbEntity
  8
LAY-1
  6
CONTINUOUS
 62
     2
100
AcDbLine
 10
1506.866987
 20
714.386751
 30
0.0
 11
1503.3
 21
714.386751
 31
0.0
  0
LINE
  5
65A
100
AcDbEntity
  8
LAY-1
  6
CONTINUOUS
 62
     2
100
AcDbLine
 10
1507.3
 20
717.476497
 30
0.0
 11
1502.3
 21
717.476497
 31
0.0
  0
LINE
  5
65B
100
AcDbEntity
  8
LAY-1
  6
CONTINUOUS
 62
     2
100
AcDbLine
 10
1507.3
 20
729.023503
 30
0.0
 11
1502.3
 21
729.023503
 31
0.0
  0
LINE
  5
65C
100
AcDbEntity
  8
LAY-1
  6
CONTINUOUS
 62
     2
100
AcDbLine
 10
1503.3
 20
729.023503
 30
0.0
 11
1503.3
 21
723.25
 31
0.0
  0
LINE
  5
65D
100
AcDbEntity
  8
LAY-1
  6
CONTINUOUS
 62
     2
100
AcDbLine
 10
1507.3
 20
720.363249
 30
0.0
 11
1503.3
 21
720.363249
 31
0.0
  0
LINE
  5
65E
100
AcDbEntity
  8
LAY-1
  6
CONTINUOUS
 62
     2
100
AcDbLine
 10
1507.3
 20
717.476497
 30
0.0
 11
1507.3
 21
729.023503
 31
0.0
  0
LINE
  5
65F
100
AcDbEntity
  8
LAY-1
  6
CONTINUOUS
 62
     2
100
AcDbLine
 10
1507.3
 20
726.136751
 30
0.0
 11
1503.3
 21
726.136751
 31
0.0
  0
LINE
  5
660
100
AcDbEntity
  8
LAY-1
  6
CONTINUOUS
 62
     2
100
AcDbLine
 10
1506.866987
 20
720.363249
 30
0.0
 11
1503.3
 21
720.363249
 31
0.0
  0
LINE
  5
661
100
AcDbEntity
  8
LAY-1
  6
CONTINUOUS
 62
     2
100
AcDbLine
 10
1506.866987
 20
726.136751
 30
0.0
 11
1503.3
 21
726.136751
 31
0.0
  0
LINE
  5
662
100
AcDbEntity
  8
LAY-1
  6
CONTINUOUS
 62
     2
100
AcDbLine
 10
1507.3
 20
764.273503
 30
0.0
 11
1502.3
 21
764.273503
 31
0.0
  0
LINE
  5
663
100
AcDbEntity
  8
LAY-1
  6
CONTINUOUS
 62
     2
100
AcDbLine
 10
1507.3
 20
752.726497
 30
0.0
 11
1502.3
 21
752.726497
 31
0.0
  0
LINE
  5
664
100
AcDbEntity
  8
LAY-1
  6
CONTINUOUS
 62
     2
100
AcDbLine
 10
1503.3
 20
764.273503
 30
0.0
 11
1503.3
 21
758.5
 31
0.0
  0
LINE
  5
665
100
AcDbEntity
  8
LAY-1
  6
CONTINUOUS
 62
     2
100
AcDbLine
 10
1507.3
 20
761.386751
 30
0.0
 11
1503.3
 21
761.386751
 31
0.0
  0
LINE
  5
666
100
AcDbEntity
  8
LAY-1
  6
CONTINUOUS
 62
     2
100
AcDbLine
 10
1507.3
 20
764.273503
 30
0.0
 11
1507.3
 21
752.726497
 31
0.0
  0
LINE
  5
667
100
AcDbEntity
  8
LAY-1
  6
CONTINUOUS
 62
     2
100
AcDbLine
 10
1507.3
 20
755.613249
 30
0.0
 11
1503.3
 21
755.613249
 31
0.0
  0
LINE
  5
668
100
AcDbEntity
  8
LAY-1
  6
CONTINUOUS
 62
     2
100
AcDbLine
 10
1506.866987
 20
761.386751
 30
0.0
 11
1503.3
 21
761.386751
 31
0.0
  0
LINE
  5
669
100
AcDbEntity
  8
LAY-1
  6
CONTINUOUS
 62
     2
100
AcDbLine
 10
1506.866987
 20
755.613249
 30
0.0
 11
1503.3
 21
755.613249
 31
0.0
  0
LINE
  5
66A
100
AcDbEntity
  8
LAY-1
  6
CONTINUOUS
 62
     2
100
AcDbLine
 10
1507.3
 20
752.523503
 30
0.0
 11
1502.3
 21
752.523503
 31
0.0
  0
LINE
  5
66B
100
AcDbEntity
  8
LAY-1
  6
CONTINUOUS
 62
     2
100
AcDbLine
 10
1507.3
 20
740.976497
 30
0.0
 11
1502.3
 21
740.976497
 31
0.0
  0
LINE
  5
66C
100
AcDbEntity
  8
LAY-1
  6
CONTINUOUS
 62
     2
100
AcDbLine
 10
1503.3
 20
752.523503
 30
0.0
 11
1503.3
 21
746.75
 31
0.0
  0
LINE
  5
66D
100
AcDbEntity
  8
LAY-1
  6
CONTINUOUS
 62
     2
100
AcDbLine
 10
1507.3
 20
749.636751
 30
0.0
 11
1503.3
 21
749.636751
 31
0.0
  0
LINE
  5
66E
100
AcDbEntity
  8
LAY-1
  6
CONTINUOUS
 62
     2
100
AcDbLine
 10
1507.3
 20
752.523503
 30
0.0
 11
1507.3
 21
740.976497
 31
0.0
  0
LINE
  5
66F
100
AcDbEntity
  8
LAY-1
  6
CONTINUOUS
 62
     2
100
AcDbLine
 10
1507.3
 20
743.863249
 30
0.0
 11
1503.3
 21
743.863249
 31
0.0
  0
LINE
  5
670
100
AcDbEntity
  8
LAY-1
  6
CONTINUOUS
 62
     2
100
AcDbLine
 10
1506.866987
 20
749.636751
 30
0.0
 11
1503.3
 21
749.636751
 31
0.0
  0
LINE
  5
671
100
AcDbEntity
  8
LAY-1
  6
CONTINUOUS
 62
     2
100
AcDbLine
 10
1506.866987
 20
743.863249
 30
0.0
 11
1503.3
 21
743.863249
 31
0.0
  0
LINE
  5
672
100
AcDbEntity
  8
LAY-1
  6
CONTINUOUS
 62
     2
100
AcDbLine
 10
1503.3
 20
717.476497
 30
0.0
 11
1503.3
 21
723.47
 31
0.0
  0
LINE
  5
673
100
AcDbEntity
  8
LAY-1
  6
CONTINUOUS
 62
     2
100
AcDbLine
 10
1503.3
 20
705.726497
 30
0.0
 11
1503.3
 21
711.7
 31
0.0
  0
LINE
  5
674
100
AcDbEntity
  8
LAY-1
  6
CONTINUOUS
 62
     2
100
AcDbLine
 10
1503.3
 20
740.976497
 30
0.0
 11
1503.3
 21
747.44
 31
0.0
  0
LINE
  5
675
100
AcDbEntity
  8
LAY-1
  6
CONTINUOUS
 62
     2
100
AcDbLine
 10
1503.3
 20
752.726497
 30
0.0
 11
1503.3
 21
758.79
 31
0.0
  0
LINE
  5
676
100
AcDbEntity
  8
LAY-1
  6
CONTINUOUS
 62
     2
100
AcDbLine
 10
1492.348179
 20
765.0
 30
0.0
 11
1498.3
 21
765.0
 31
0.0
  0
LINE
  5
677
100
AcDbEntity
  8
LAY-1
  6
CONTINUOUS
 62
     2
100
AcDbLine
 10
1498.3
 20
705.0
 30
0.0
 11
1492.348179
 21
705.0
 31
0.0
  0
LINE
  5
678
100
AcDbEntity
  8
LAY-1
  6
CONTINUOUS
 62
     2
100
AcDbLine
 10
1226.5
 20
762.5
 30
0.0
 11
1324.397329
 21
766.016109
 31
0.0
  0
ARC
  5
679
100
AcDbEntity
  8
LAY-1
  6
CONTINUOUS
 62
     2
100
AcDbCircle
 10
1323.5
 20
791.0
 30
0.0
 40
25.0
100
AcDbArc
 50
272.056968
 51
354.141585
  0
ARC
  5
67A
100
AcDbEntity
  8
LAY-1
  6
CONTINUOUS
 62
     2
100
AcDbCircle
 10
1371.0
 20
854.5
 30
0.0
 40
0.5
100
AcDbArc
 50
90.0
 51
180.0
  0
ARC
  5
67B
100
AcDbEntity
  8
LAY-1
  6
CONTINUOUS
 62
     2
100
AcDbCircle
 10
1371.0
 20
615.5
 30
0.0
 40
0.5
100
AcDbArc
 50
180.0
 51
270.0
  0
LINE
  5
67C
100
AcDbEntity
  8
LAY-1
  6
CONTINUOUS
 62
     2
100
AcDbLine
 10
1226.5
 20
707.5
 30
0.0
 11
1324.397329
 21
703.983891
 31
0.0
  0
ARC
  5
67D
100
AcDbEntity
  8
LAY-1
  6
CONTINUOUS
 62
     2
100
AcDbCircle
 10
1349.366342
 20
652.241588
 30
0.0
 40
2.0
100
AcDbArc
 50
5.858415
 51
85.0
  0
LINE
  5
67E
100
AcDbEntity
  8
LAY-1
  6
CONTINUOUS
 62
     2
100
AcDbLine
 10
1346.5
 20
654.5
 30
0.0
 11
1349.540654
 21
654.233977
 31
0.0
  0
ARC
  5
67F
100
AcDbEntity
  8
LAY-1
  6
CONTINUOUS
 62
     2
100
AcDbCircle
 10
1346.061593
 20
683.469284
 30
0.0
 40
2.0
100
AcDbArc
 50
282.550649
 51
11.20481
  0
LINE
  5
680
100
AcDbEntity
  8
LAY-1
  6
CONTINUOUS
 62
     2
100
AcDbLine
 10
1351.355896
 20
652.445729
 30
0.0
 11
1351.386527
 21
652.147207
 31
0.0
  0
LINE
  5
681
100
AcDbEntity
  8
LAY-1
  6
CONTINUOUS
 62
     2
100
AcDbLine
 10
1346.5
 20
681.5
 30
0.0
 11
1346.5
 21
654.5
 31
0.0
  0
LINE
  5
682
100
AcDbEntity
  8
LAY-1
  6
CONTINUOUS
 62
     2
100
AcDbLine
 10
1225.3
 20
708.0
 30
0.0
 11
1226.5
 21
708.0
 31
0.0
  0
LINE
  5
683
100
AcDbEntity
  8
LAY-1
  6
CONTINUOUS
 62
     2
100
AcDbLine
 10
1214.3
 20
735.0
 30
0.0
 11
1214.3
 21
715.0
 31
0.0
  0
ARC
  5
684
100
AcDbEntity
  8
LAY-1
  6
CONTINUOUS
 62
     2
100
AcDbCircle
 10
1216.3
 20
715.0
 30
0.0
 40
2.0
100
AcDbArc
 50
180.0
 51
270.0
  0
LINE
  5
685
100
AcDbEntity
  8
LAY-1
  6
CONTINUOUS
 62
     2
100
AcDbLine
 10
1216.3
 20
713.0
 30
0.0
 11
1221.3
 21
713.0
 31
0.0
  0
ARC
  5
686
100
AcDbEntity
  8
LAY-1
  6
CONTINUOUS
 62
     2
100
AcDbCircle
 10
1221.3
 20
712.0
 30
0.0
 40
1.0
100
AcDbArc
 50
0.0
 51
90.0
  0
LINE
  5
687
100
AcDbEntity
  8
LAY-1
  6
CONTINUOUS
 62
     2
100
AcDbLine
 10
1214.3
 20
735.0
 30
0.0
 11
1214.3
 21
755.0
 31
0.0
  0
ARC
  5
688
100
AcDbEntity
  8
LAY-1
  6
CONTINUOUS
 62
     2
100
AcDbCircle
 10
1216.3
 20
755.0
 30
0.0
 40
2.0
100
AcDbArc
 50
90.0
 51
180.0
  0
LINE
  5
689
100
AcDbEntity
  8
LAY-1
  6
CONTINUOUS
 62
     2
100
AcDbLine
 10
1216.3
 20
757.0
 30
0.0
 11
1221.3
 21
757.0
 31
0.0
  0
ARC
  5
68A
100
AcDbEntity
  8
LAY-1
  6
CONTINUOUS
 62
     2
100
AcDbCircle
 10
1221.3
 20
758.0
 30
0.0
 40
1.0
100
AcDbArc
 50
270.0
 51
0.0
  0
LINE
  5
68B
100
AcDbEntity
  8
LAY-1
  6
CONTINUOUS
 62
     2
100
AcDbLine
 10
1222.3
 20
707.0
 30
0.0
 11
1225.3
 21
707.0
 31
0.0
  0
LINE
  5
68C
100
AcDbEntity
  8
LAY-1
  6
CONTINUOUS
 62
     2
100
AcDbLine
 10
1222.3
 20
763.0
 30
0.0
 11
1225.3
 21
763.0
 31
0.0
  0
LINE
  5
68D
100
AcDbEntity
  8
LAY-1
  6
CONTINUOUS
 62
     2
100
AcDbLine
 10
1225.3
 20
707.0
 30
0.0
 11
1225.3
 21
711.0
 31
0.0
  0
LINE
  5
68E
100
AcDbEntity
  8
LAY-1
  6
CONTINUOUS
 62
     2
100
AcDbLine
 10
1225.3
 20
762.0
 30
0.0
 11
1226.5
 21
762.0
 31
0.0
  0
LINE
  5
68F
100
AcDbEntity
  8
LAY-1
  6
CONTINUOUS
 62
     2
100
AcDbLine
 10
1225.3
 20
707.5
 30
0.0
 11
1225.3
 21
711.0
 31
0.0
  0
LINE
  5
690
100
AcDbEntity
  8
LAY-1
  6
CONTINUOUS
 62
     2
100
AcDbLine
 10
1225.3
 20
707.5
 30
0.0
 11
1225.3
 21
711.0
 31
0.0
  0
LINE
  5
691
100
AcDbEntity
  8
LAY-1
  6
CONTINUOUS
 62
     2
100
AcDbLine
 10
1348.369429
 20
788.448236
 30
0.0
 11
1351.386527
 21
817.852793
 31
0.0
  0
LINE
  5
692
100
AcDbEntity
  8
LAY-1
  6
CONTINUOUS
 62
     2
100
AcDbLine
 10
1222.3
 20
763.0
 30
0.0
 11
1222.3
 21
707.0
 31
0.0
  0
LINE
  5
693
100
AcDbEntity
  8
LAY-1
  6
CONTINUOUS
 62
     2
100
AcDbLine
 10
1225.3
 20
707.5
 30
0.0
 11
1225.3
 21
763.0
 31
0.0
  0
LINE
  5
694
100
AcDbEntity
  8
LAY-1
  6
CONTINUOUS
 62
     2
100
AcDbLine
 10
1226.5
 20
762.5
 30
0.0
 11
1226.5
 21
707.5
 31
0.0
  0
LINE
  5
695
100
AcDbEntity
  8
LAY-1
  6
CONTINUOUS
 62
     2
100
AcDbLine
 10
1348.369429
 20
681.551764
 30
0.0
 11
1351.386527
 21
652.147207
 31
0.0
  0
ARC
  5
696
100
AcDbEntity
  8
LAY-1
  6
CONTINUOUS
 62
     2
100
AcDbCircle
 10
1323.5
 20
679.0
 30
0.0
 40
25.0
100
AcDbArc
 50
5.858415
 51
87.943032
  0
LINE
  5
697
100
AcDbEntity
  8
LAY-1
  6
CONTINUOUS
 62
     2
100
AcDbLine
 10
1371.0
 20
855.0
 30
0.0
 11
1381.5
 21
855.0
 31
0.0
  0
LINE
  5
698
100
AcDbEntity
  8
LAY-1
  6
CONTINUOUS
 62
     2
100
AcDbLine
 10
1371.0
 20
615.0
 30
0.0
 11
1381.5
 21
615.0
 31
0.0
  0
ARC
  5
699
100
AcDbEntity
  8
LAY-1
  6
CONTINUOUS
 62
     2
100
AcDbCircle
 10
1371.28207
 20
654.188619
 30
0.0
 40
20.0
100
AcDbArc
 50
185.858415
 51
248.647579
  0
LINE
  5
69A
100
AcDbEntity
  8
LAY-1
  6
CONTINUOUS
 62
     2
100
AcDbLine
 10
1370.5
 20
639.949369
 30
0.0
 11
1370.5
 21
624.949369
 31
0.0
  0
LINE
  5
69B
100
AcDbEntity
  8
LAY-1
  6
CONTINUOUS
 62
     2
100
AcDbLine
 10
1364.0
 20
638.93011
 30
0.0
 11
1364.0
 21
625.949369
 31
0.0
  0
LINE
  5
69C
100
AcDbEntity
  8
LAY-1
  6
CONTINUOUS
 62
     2
100
AcDbLine
 10
1364.57735
 20
624.949369
 30
0.0
 11
1370.5
 21
624.949369
 31
0.0
  0
ARC
  5
69D
100
AcDbEntity
  8
LAY-1
  6
CONTINUOUS
 62
     2
100
AcDbCircle
 10
1376.4852
 20
632.449369
 30
0.0
 40
12.4852
100
AcDbArc
 50
162.507675
 51
197.492325
  0
LINE
  5
69E
100
AcDbEntity
  8
LAY-1
  6
CONTINUOUS
 62
     2
100
AcDbLine
 10
1364.0
 20
638.949369
 30
0.0
 11
1364.57735
 21
639.949369
 31
0.0
  0
LINE
  5
69F
100
AcDbEntity
  8
LAY-1
  6
CONTINUOUS
 62
     2
100
AcDbLine
 10
1364.0
 20
625.949369
 30
0.0
 11
1364.57735
 21
624.949369
 31
0.0
  0
ARC
  5
6A0
100
AcDbEntity
  8
LAY-1
  6
CONTINUOUS
 62
     2
100
AcDbCircle
 10
1367.297008
 20
626.8328
 30
0.0
 40
3.297008
100
AcDbArc
 50
145.576995
 51
214.703566
  0
LINE
  5
6A1
100
AcDbEntity
  8
LAY-1
  6
CONTINUOUS
 62
     2
100
AcDbLine
 10
1364.57735
 20
636.202146
 30
0.0
 11
1370.5
 21
636.202146
 31
0.0
  0
ARC
  5
6A2
100
AcDbEntity
  8
LAY-1
  6
CONTINUOUS
 62
     2
100
AcDbCircle
 10
1367.328788
 20
638.075758
 30
0.0
 40
3.328788
100
AcDbArc
 50
145.746813
 51
214.253187
  0
LINE
  5
6A3
100
AcDbEntity
  8
LAY-1
  6
CONTINUOUS
 62
     2
100
AcDbLine
 10
1370.5
 20
628.696592
 30
0.0
 11
1364.57735
 21
628.696592
 31
0.0
  0
LINE
  5
6A4
100
AcDbEntity
  8
LAY-1
  6
CONTINUOUS
 62
     2
100
AcDbLine
 10
1370.5
 20
639.949369
 30
0.0
 11
1364.57735
 21
639.949369
 31
0.0
  0
LINE
  5
6A5
100
AcDbEntity
  8
LAY-1
  6
CONTINUOUS
 62
     2
100
AcDbLine
 10
1370.5
 20
700.022136
 30
0.0
 11
1370.5
 21
685.022136
 31
0.0
  0
LINE
  5
6A6
100
AcDbEntity
  8
LAY-1
  6
CONTINUOUS
 62
     2
100
AcDbLine
 10
1364.0
 20
699.002877
 30
0.0
 11
1364.0
 21
686.022136
 31
0.0
  0
LINE
  5
6A7
100
AcDbEntity
  8
LAY-1
  6
CONTINUOUS
 62
     2
100
AcDbLine
 10
1364.57735
 20
685.022136
 30
0.0
 11
1370.5
 21
685.022136
 31
0.0
  0
ARC
  5
6A8
100
AcDbEntity
  8
LAY-1
  6
CONTINUOUS
 62
     2
100
AcDbCircle
 10
1376.4852
 20
692.522136
 30
0.0
 40
12.4852
100
AcDbArc
 50
162.507675
 51
197.492325
  0
LINE
  5
6A9
100
AcDbEntity
  8
LAY-1
  6
CONTINUOUS
 62
     2
100
AcDbLine
 10
1364.0
 20
699.022136
 30
0.0
 11
1364.57735
 21
700.022136
 31
0.0
  0
LINE
  5
6AA
100
AcDbEntity
  8
LAY-1
  6
CONTINUOUS
 62
     2
100
AcDbLine
 10
1364.0
 20
686.022136
 30
0.0
 11
1364.57735
 21
685.022136
 31
0.0
  0
ARC
  5
6AB
100
AcDbEntity
  8
LAY-1
  6
CONTINUOUS
 62
     2
100
AcDbCircle
 10
1367.297008
 20
686.905567
 30
0.0
 40
3.297008
100
AcDbArc
 50
145.576995
 51
214.703566
  0
LINE
  5
6AC
100
AcDbEntity
  8
LAY-1
  6
CONTINUOUS
 62
     2
100
AcDbLine
 10
1364.57735
 20
696.274913
 30
0.0
 11
1370.5
 21
696.274913
 31
0.0
  0
ARC
  5
6AD
100
AcDbEntity
  8
LAY-1
  6
CONTINUOUS
 62
     2
100
AcDbCircle
 10
1367.328788
 20
698.148525
 30
0.0
 40
3.328788
100
AcDbArc
 50
145.746813
 51
214.253187
  0
LINE
  5
6AE
100
AcDbEntity
  8
LAY-1
  6
CONTINUOUS
 62
     2
100
AcDbLine
 10
1370.5
 20
688.76936
 30
0.0
 11
1364.57735
 21
688.76936
 31
0.0
  0
LINE
  5
6AF
100
AcDbEntity
  8
LAY-1
  6
CONTINUOUS
 62
     2
100
AcDbLine
 10
1370.5
 20
700.022136
 30
0.0
 11
1364.57735
 21
700.022136
 31
0.0
  0
LINE
  5
6B0
100
AcDbEntity
  8
LAY-1
  6
CONTINUOUS
 62
     2
100
AcDbLine
 10
1370.5
 20
769.977864
 30
0.0
 11
1370.5
 21
784.977864
 31
0.0
  0
LINE
  5
6B1
100
AcDbEntity
  8
LAY-1
  6
CONTINUOUS
 62
     2
100
AcDbLine
 10
1364.0
 20
770.997123
 30
0.0
 11
1364.0
 21
783.977864
 31
0.0
  0
LINE
  5
6B2
100
AcDbEntity
  8
LAY-1
  6
CONTINUOUS
 62
     2
100
AcDbLine
 10
1364.57735
 20
784.977864
 30
0.0
 11
1370.5
 21
784.977864
 31
0.0
  0
ARC
  5
6B3
100
AcDbEntity
  8
LAY-1
  6
CONTINUOUS
 62
     2
100
AcDbCircle
 10
1376.4852
 20
777.477864
 30
0.0
 40
12.4852
100
AcDbArc
 50
162.507675
 51
197.492325
  0
LINE
  5
6B4
100
AcDbEntity
  8
LAY-1
  6
CONTINUOUS
 62
     2
100
AcDbLine
 10
1364.0
 20
770.977864
 30
0.0
 11
1364.57735
 21
769.977864
 31
0.0
  0
LINE
  5
6B5
100
AcDbEntity
  8
LAY-1
  6
CONTINUOUS
 62
     2
100
AcDbLine
 10
1364.0
 20
783.977864
 30
0.0
 11
1364.57735
 21
784.977864
 31
0.0
  0
ARC
  5
6B6
100
AcDbEntity
  8
LAY-1
  6
CONTINUOUS
 62
     2
100
AcDbCircle
 10
1367.297008
 20
783.094433
 30
0.0
 40
3.297008
100
AcDbArc
 50
145.296434
 51
214.423005
  0
LINE
  5
6B7
100
AcDbEntity
  8
LAY-1
  6
CONTINUOUS
 62
     2
100
AcDbLine
 10
1364.57735
 20
773.725087
 30
0.0
 11
1370.5
 21
773.725087
 31
0.0
  0
ARC
  5
6B8
100
AcDbEntity
  8
LAY-1
  6
CONTINUOUS
 62
     2
100
AcDbCircle
 10
1367.328788
 20
771.851475
 30
0.0
 40
3.328788
100
AcDbArc
 50
145.746813
 51
214.253187
  0
LINE
  5
6B9
100
AcDbEntity
  8
LAY-1
  6
CONTINUOUS
 62
     2
100
AcDbLine
 10
1370.5
 20
781.23064
 30
0.0
 11
1364.57735
 21
781.23064
 31
0.0
  0
LINE
  5
6BA
100
AcDbEntity
  8
LAY-1
  6
CONTINUOUS
 62
     2
100
AcDbLine
 10
1370.5
 20
769.977864
 30
0.0
 11
1364.57735
 21
769.977864
 31
0.0
  0
LINE
  5
6BB
100
AcDbEntity
  8
LAY-1
  6
CONTINUOUS
 62
     2
100
AcDbLine
 10
1370.5
 20
830.050631
 30
0.0
 11
1370.5
 21
845.050631
 31
0.0
  0
LINE
  5
6BC
100
AcDbEntity
  8
LAY-1
  6
CONTINUOUS
 62
     2
100
AcDbLine
 10
1364.0
 20
831.06989
 30
0.0
 11
1364.0
 21
844.050631
 31
0.0
  0
LINE
  5
6BD
100
AcDbEntity
  8
LAY-1
  6
CONTINUOUS
 62
     2
100
AcDbLine
 10
1364.57735
 20
845.050631
 30
0.0
 11
1370.5
 21
845.050631
 31
0.0
  0
ARC
  5
6BE
100
AcDbEntity
  8
LAY-1
  6
CONTINUOUS
 62
     2
100
AcDbCircle
 10
1376.4852
 20
837.550631
 30
0.0
 40
12.4852
100
AcDbArc
 50
162.507675
 51
197.492325
  0
LINE
  5
6BF
100
AcDbEntity
  8
LAY-1
  6
CONTINUOUS
 62
     2
100
AcDbLine
 10
1364.0
 20
831.050631
 30
0.0
 11
1364.57735
 21
830.050631
 31
0.0
  0
LINE
  5
6C0
100
AcDbEntity
  8
LAY-1
  6
CONTINUOUS
 62
     2
100
AcDbLine
 10
1364.0
 20
844.050631
 30
0.0
 11
1364.57735
 21
845.050631
 31
0.0
  0
ARC
  5
6C1
100
AcDbEntity
  8
LAY-1
  6
CONTINUOUS
 62
     2
100
AcDbCircle
 10
1367.297008
 20
843.1672
 30
0.0
 40
3.297008
100
AcDbArc
 50
145.296434
 51
214.423005
  0
LINE
  5
6C2
100
AcDbEntity
  8
LAY-1
  6
CONTINUOUS
 62
     2
100
AcDbLine
 10
1364.57735
 20
833.797854
 30
0.0
 11
1370.5
 21
833.797854
 31
0.0
  0
ARC
  5
6C3
100
AcDbEntity
  8
LAY-1
  6
CONTINUOUS
 62
     2
100
AcDbCircle
 10
1367.328788
 20
831.924242
 30
0.0
 40
3.328788
100
AcDbArc
 50
145.746813
 51
214.253187
  0
LINE
  5
6C4
100
AcDbEntity
  8
LAY-1
  6
CONTINUOUS
 62
     2
100
AcDbLine
 10
1370.5
 20
841.303408
 30
0.0
 11
1364.57735
 21
841.303408
 31
0.0
  0
LINE
  5
6C5
100
AcDbEntity
  8
LAY-1
  6
CONTINUOUS
 62
     2
100
AcDbLine
 10
1370.5
 20
830.050631
 30
0.0
 11
1364.57735
 21
830.050631
 31
0.0
  0
LINE
  5
6C6
100
AcDbEntity
  8
LAY-1
  6
CONTINUOUS
 62
     2
100
AcDbLine
 10
1416.8
 20
765.0
 30
0.0
 11
1416.8
 21
705.0
 31
0.0
  0
ARC
  5
6C7
100
AcDbEntity
  8
LAY-1
  6
CONTINUOUS
 62
     2
100
AcDbCircle
 10
1110.348662
 20
735.0
 30
0.0
 40
305.5
100
AcDbArc
 50
342.620501
 51
353.360886
  0
LINE
  5
6C8
100
AcDbEntity
  8
LAY-1
  6
CONTINUOUS
 62
     2
100
AcDbLine
 10
1382.3
 20
615.0
 30
0.0
 11
1382.3
 21
735.0
 31
0.0
  0
ARC
  5
6C9
100
AcDbEntity
  8
LAY-1
  6
CONTINUOUS
 62
     2
100
AcDbCircle
 10
1110.348662
 20
735.0
 30
0.0
 40
305.5
100
AcDbArc
 50
6.639114
 51
17.379499
  0
LINE
  5
6CA
100
AcDbEntity
  8
LAY-1
  6
CONTINUOUS
 62
     2
100
AcDbLine
 10
1382.3
 20
855.0
 30
0.0
 11
1382.3
 21
735.0
 31
0.0
  0
LINE
  5
6CB
100
AcDbEntity
  8
LAY-1
  6
CONTINUOUS
 62
     2
100
AcDbLine
 10
1413.8
 20
770.320465
 30
0.0
 11
1413.8
 21
768.0
 31
0.0
  0
ARC
  5
6CC
100
AcDbEntity
  8
LAY-1
  6
CONTINUOUS
 62
     2
100
AcDbCircle
 10
1416.8
 20
768.0
 30
0.0
 40
3.0
100
AcDbArc
 50
180.0
 51
270.0
  0
LINE
  5
6CD
100
AcDbEntity
  8
LAY-1
  6
CONTINUOUS
 62
     2
100
AcDbLine
 10
1413.8
 20
699.679535
 30
0.0
 11
1413.8
 21
702.0
 31
0.0
  0
LINE
  5
6CE
100
AcDbEntity
  8
LAY-1
  6
CONTINUOUS
 62
     2
100
AcDbLine
 10
1416.8
 20
705.0
 30
0.0
 11
1416.8
 21
735.0
 31
0.0
  0
LINE
  5
6CF
100
AcDbEntity
  8
LAY-1
  6
CONTINUOUS
 62
     2
100
AcDbLine
 10
1416.8
 20
765.0
 30
0.0
 11
1416.8
 21
735.0
 31
0.0
  0
LINE
  5
6D0
100
AcDbEntity
  8
LAY-1
  6
CONTINUOUS
 62
     2
100
AcDbLine
 10
1381.5
 20
855.0
 30
0.0
 11
1381.5
 21
615.0
 31
0.0
  0
LINE
  5
6D1
100
AcDbEntity
  8
LAY-1
  6
CONTINUOUS
 62
     2
100
AcDbLine
 10
1381.5
 20
615.0
 30
0.0
 11
1392.3
 21
615.0
 31
0.0
  0
LINE
  5
6D2
100
AcDbEntity
  8
LAY-1
  6
CONTINUOUS
 62
     2
100
AcDbLine
 10
1381.5
 20
855.0
 30
0.0
 11
1392.3
 21
855.0
 31
0.0
  0
LINE
  5
6D3
100
AcDbEntity
  8
LAY-1
  6
CONTINUOUS
 62
     2
100
AcDbLine
 10
1381.5
 20
615.0
 30
0.0
 11
1381.5
 21
855.0
 31
0.0
  0
ARC
  5
6D4
100
AcDbEntity
  8
LAY-1
  6
CONTINUOUS
 62
     2
100
AcDbCircle
 10
1387.8148
 20
632.449369
 30
0.0
 40
12.4852
100
AcDbArc
 50
342.507675
 51
17.492325
  0
LINE
  5
6D5
100
AcDbEntity
  8
LAY-1
  6
CONTINUOUS
 62
     2
100
AcDbLine
 10
1399.72265
 20
624.949369
 30
0.0
 11
1393.8
 21
624.949369
 31
0.0
  0
LINE
  5
6D6
100
AcDbEntity
  8
LAY-1
  6
CONTINUOUS
 62
     2
100
AcDbLine
 10
1400.3
 20
638.93011
 30
0.0
 11
1400.3
 21
625.949369
 31
0.0
  0
LINE
  5
6D7
100
AcDbEntity
  8
LAY-1
  6
CONTINUOUS
 62
     2
100
AcDbLine
 10
1393.8
 20
639.949369
 30
0.0
 11
1392.3
 21
639.949369
 31
0.0
  0
LINE
  5
6D8
100
AcDbEntity
  8
LAY-1
  6
CONTINUOUS
 62
     2
100
AcDbLine
 10
1393.8
 20
639.949369
 30
0.0
 11
1399.72265
 21
639.949369
 31
0.0
  0
LINE
  5
6D9
100
AcDbEntity
  8
LAY-1
  6
CONTINUOUS
 62
     2
100
AcDbLine
 10
1393.8
 20
639.949369
 30
0.0
 11
1393.8
 21
624.949369
 31
0.0
  0
LINE
  5
6DA
100
AcDbEntity
  8
LAY-1
  6
CONTINUOUS
 62
     2
100
AcDbLine
 10
1400.3
 20
638.949369
 30
0.0
 11
1399.72265
 21
639.949369
 31
0.0
  0
LINE
  5
6DB
100
AcDbEntity
  8
LAY-1
  6
CONTINUOUS
 62
     2
100
AcDbLine
 10
1400.3
 20
625.949369
 30
0.0
 11
1399.72265
 21
624.949369
 31
0.0
  0
ARC
  5
6DC
100
AcDbEntity
  8
LAY-1
  6
CONTINUOUS
 62
     2
100
AcDbCircle
 10
1397.002992
 20
626.8328
 30
0.0
 40
3.297008
100
AcDbArc
 50
325.296434
 51
34.423005
  0
LINE
  5
6DD
100
AcDbEntity
  8
LAY-1
  6
CONTINUOUS
 62
     2
100
AcDbLine
 10
1399.72265
 20
636.202146
 30
0.0
 11
1393.8
 21
636.202146
 31
0.0
  0
ARC
  5
6DE
100
AcDbEntity
  8
LAY-1
  6
CONTINUOUS
 62
     2
100
AcDbCircle
 10
1396.971212
 20
638.075758
 30
0.0
 40
3.328788
100
AcDbArc
 50
325.746813
 51
34.253187
  0
LINE
  5
6DF
100
AcDbEntity
  8
LAY-1
  6
CONTINUOUS
 62
     2
100
AcDbLine
 10
1393.8
 20
628.696592
 30
0.0
 11
1399.72265
 21
628.696592
 31
0.0
  0
LINE
  5
6E0
100
AcDbEntity
  8
LAY-1
  6
CONTINUOUS
 62
     2
100
AcDbLine
 10
1392.3
 20
624.949369
 30
0.0
 11
1393.8
 21
624.949369
 31
0.0
  0
ARC
  5
6E1
100
AcDbEntity
  8
LAY-1
  6
CONTINUOUS
 62
     2
100
AcDbCircle
 10
1385.200675
 20
648.974592
 30
0.0
 40
17.5
100
AcDbArc
 50
327.43796
 51
342.620501
  0
ARC
  5
6E2
100
AcDbEntity
  8
LAY-1
  6
CONTINUOUS
 62
     2
100
AcDbCircle
 10
1387.8148
 20
692.522136
 30
0.0
 40
12.4852
100
AcDbArc
 50
342.507675
 51
17.492325
  0
LINE
  5
6E3
100
AcDbEntity
  8
LAY-1
  6
CONTINUOUS
 62
     2
100
AcDbLine
 10
1399.72265
 20
685.022136
 30
0.0
 11
1393.8
 21
685.022136
 31
0.0
  0
LINE
  5
6E4
100
AcDbEntity
  8
LAY-1
  6
CONTINUOUS
 62
     2
100
AcDbLine
 10
1400.3
 20
699.002877
 30
0.0
 11
1400.3
 21
686.022136
 31
0.0
  0
LINE
  5
6E5
100
AcDbEntity
  8
LAY-1
  6
CONTINUOUS
 62
     2
100
AcDbLine
 10
1393.8
 20
700.022136
 30
0.0
 11
1392.3
 21
700.022136
 31
0.0
  0
LINE
  5
6E6
100
AcDbEntity
  8
LAY-1
  6
CONTINUOUS
 62
     2
100
AcDbLine
 10
1393.8
 20
700.022136
 30
0.0
 11
1399.72265
 21
700.022136
 31
0.0
  0
LINE
  5
6E7
100
AcDbEntity
  8
LAY-1
  6
CONTINUOUS
 62
     2
100
AcDbLine
 10
1393.8
 20
700.022136
 30
0.0
 11
1393.8
 21
685.022136
 31
0.0
  0
LINE
  5
6E8
100
AcDbEntity
  8
LAY-1
  6
CONTINUOUS
 62
     2
100
AcDbLine
 10
1400.3
 20
699.022136
 30
0.0
 11
1399.72265
 21
700.022136
 31
0.0
  0
LINE
  5
6E9
100
AcDbEntity
  8
LAY-1
  6
CONTINUOUS
 62
     2
100
AcDbLine
 10
1400.3
 20
686.022136
 30
0.0
 11
1399.72265
 21
685.022136
 31
0.0
  0
ARC
  5
6EA
100
AcDbEntity
  8
LAY-1
  6
CONTINUOUS
 62
     2
100
AcDbCircle
 10
1397.002992
 20
686.905567
 30
0.0
 40
3.297008
100
AcDbArc
 50
325.296434
 51
34.423005
  0
LINE
  5
6EB
100
AcDbEntity
  8
LAY-1
  6
CONTINUOUS
 62
     2
100
AcDbLine
 10
1399.72265
 20
696.274913
 30
0.0
 11
1393.8
 21
696.274913
 31
0.0
  0
ARC
  5
6EC
100
AcDbEntity
  8
LAY-1
  6
CONTINUOUS
 62
     2
100
AcDbCircle
 10
1396.971212
 20
698.148525
 30
0.0
 40
3.328788
100
AcDbArc
 50
325.746813
 51
34.253187
  0
LINE
  5
6ED
100
AcDbEntity
  8
LAY-1
  6
CONTINUOUS
 62
     2
100
AcDbLine
 10
1393.8
 20
688.76936
 30
0.0
 11
1399.72265
 21
688.76936
 31
0.0
  0
LINE
  5
6EE
100
AcDbEntity
  8
LAY-1
  6
CONTINUOUS
 62
     2
100
AcDbLine
 10
1392.3
 20
685.022136
 30
0.0
 11
1393.8
 21
685.022136
 31
0.0
  0
ARC
  5
6EF
100
AcDbEntity
  8
LAY-1
  6
CONTINUOUS
 62
     2
100
AcDbCircle
 10
1387.8148
 20
837.550631
 30
0.0
 40
12.4852
100
AcDbArc
 50
342.507675
 51
17.492325
  0
LINE
  5
6F0
100
AcDbEntity
  8
LAY-1
  6
CONTINUOUS
 62
     2
100
AcDbLine
 10
1399.72265
 20
845.050631
 30
0.0
 11
1393.8
 21
845.050631
 31
0.0
  0
LINE
  5
6F1
100
AcDbEntity
  8
LAY-1
  6
CONTINUOUS
 62
     2
100
AcDbLine
 10
1400.3
 20
831.06989
 30
0.0
 11
1400.3
 21
844.050631
 31
0.0
  0
LINE
  5
6F2
100
AcDbEntity
  8
LAY-1
  6
CONTINUOUS
 62
     2
100
AcDbLine
 10
1393.8
 20
830.050631
 30
0.0
 11
1392.3
 21
830.050631
 31
0.0
  0
LINE
  5
6F3
100
AcDbEntity
  8
LAY-1
  6
CONTINUOUS
 62
     2
100
AcDbLine
 10
1393.8
 20
830.050631
 30
0.0
 11
1399.72265
 21
830.050631
 31
0.0
  0
LINE
  5
6F4
100
AcDbEntity
  8
LAY-1
  6
CONTINUOUS
 62
     2
100
AcDbLine
 10
1393.8
 20
830.050631
 30
0.0
 11
1393.8
 21
845.050631
 31
0.0
  0
LINE
  5
6F5
100
AcDbEntity
  8
LAY-1
  6
CONTINUOUS
 62
     2
100
AcDbLine
 10
1400.3
 20
831.050631
 30
0.0
 11
1399.72265
 21
830.050631
 31
0.0
  0
LINE
  5
6F6
100
AcDbEntity
  8
LAY-1
  6
CONTINUOUS
 62
     2
100
AcDbLine
 10
1400.3
 20
844.050631
 30
0.0
 11
1399.72265
 21
845.050631
 31
0.0
  0
ARC
  5
6F7
100
AcDbEntity
  8
LAY-1
  6
CONTINUOUS
 62
     2
100
AcDbCircle
 10
1397.002992
 20
843.1672
 30
0.0
 40
3.297008
100
AcDbArc
 50
325.576995
 51
34.703566
  0
LINE
  5
6F8
100
AcDbEntity
  8
LAY-1
  6
CONTINUOUS
 62
     2
100
AcDbLine
 10
1399.72265
 20
833.797854
 30
0.0
 11
1393.8
 21
833.797854
 31
0.0
  0
ARC
  5
6F9
100
AcDbEntity
  8
LAY-1
  6
CONTINUOUS
 62
     2
100
AcDbCircle
 10
1396.971212
 20
831.924242
 30
0.0
 40
3.328788
100
AcDbArc
 50
325.746813
 51
34.253187
  0
LINE
  5
6FA
100
AcDbEntity
  8
LAY-1
  6
CONTINUOUS
 62
     2
100
AcDbLine
 10
1393.8
 20
841.303408
 30
0.0
 11
1399.72265
 21
841.303408
 31
0.0
  0
LINE
  5
6FB
100
AcDbEntity
  8
LAY-1
  6
CONTINUOUS
 62
     2
100
AcDbLine
 10
1392.3
 20
845.050631
 30
0.0
 11
1393.8
 21
845.050631
 31
0.0
  0
ARC
  5
6FC
100
AcDbEntity
  8
LAY-1
  6
CONTINUOUS
 62
     2
100
AcDbCircle
 10
1387.8148
 20
777.477864
 30
0.0
 40
12.4852
100
AcDbArc
 50
342.507675
 51
17.492325
  0
LINE
  5
6FD
100
AcDbEntity
  8
LAY-1
  6
CONTINUOUS
 62
     2
100
AcDbLine
 10
1399.72265
 20
784.977864
 30
0.0
 11
1393.8
 21
784.977864
 31
0.0
  0
LINE
  5
6FE
100
AcDbEntity
  8
LAY-1
  6
CONTINUOUS
 62
     2
100
AcDbLine
 10
1400.3
 20
770.997123
 30
0.0
 11
1400.3
 21
783.977864
 31
0.0
  0
LINE
  5
6FF
100
AcDbEntity
  8
LAY-1
  6
CONTINUOUS
 62
     2
100
AcDbLine
 10
1393.8
 20
769.977864
 30
0.0
 11
1392.3
 21
769.977864
 31
0.0
  0
LINE
  5
700
100
AcDbEntity
  8
LAY-1
  6
CONTINUOUS
 62
     2
100
AcDbLine
 10
1393.8
 20
769.977864
 30
0.0
 11
1399.72265
 21
769.977864
 31
0.0
  0
LINE
  5
701
100
AcDbEntity
  8
LAY-1
  6
CONTINUOUS
 62
     2
100
AcDbLine
 10
1393.8
 20
769.977864
 30
0.0
 11
1393.8
 21
784.977864
 31
0.0
  0
LINE
  5
702
100
AcDbEntity
  8
LAY-1
  6
CONTINUOUS
 62
     2
100
AcDbLine
 10
1400.3
 20
770.977864
 30
0.0
 11
1399.72265
 21
769.977864
 31
0.0
  0
LINE
  5
703
100
AcDbEntity
  8
LAY-1
  6
CONTINUOUS
 62
     2
100
AcDbLine
 10
1400.3
 20
783.977864
 30
0.0
 11
1399.72265
 21
784.977864
 31
0.0
  0
ARC
  5
704
100
AcDbEntity
  8
LAY-1
  6
CONTINUOUS
 62
     2
100
AcDbCircle
 10
1397.002992
 20
783.094433
 30
0.0
 40
3.297008
100
AcDbArc
 50
325.576995
 51
34.703566
  0
LINE
  5
705
100
AcDbEntity
  8
LAY-1
  6
CONTINUOUS
 62
     2
100
AcDbLine
 10
1399.72265
 20
773.725087
 30
0.0
 11
1393.8
 21
773.725087
 31
0.0
  0
ARC
  5
706
100
AcDbEntity
  8
LAY-1
  6
CONTINUOUS
 62
     2
100
AcDbCircle
 10
1396.971212
 20
771.851475
 30
0.0
 40
3.328788
100
AcDbArc
 50
325.746813
 51
34.253187
  0
LINE
  5
707
100
AcDbEntity
  8
LAY-1
  6
CONTINUOUS
 62
     2
100
AcDbLine
 10
1393.8
 20
781.23064
 30
0.0
 11
1399.72265
 21
781.23064
 31
0.0
  0
LINE
  5
708
100
AcDbEntity
  8
LAY-1
  6
CONTINUOUS
 62
     2
100
AcDbLine
 10
1392.3
 20
784.977864
 30
0.0
 11
1393.8
 21
784.977864
 31
0.0
  0
ARC
  5
709
100
AcDbEntity
  8
LAY-1
  6
CONTINUOUS
 62
     2
100
AcDbCircle
 10
1371.28207
 20
815.811381
 30
0.0
 40
20.0
100
AcDbArc
 50
111.352421
 51
174.141585
  0
ARC
  5
70A
100
AcDbEntity
  8
LAY-1
  6
CONTINUOUS
 62
     2
100
AcDbCircle
 10
1385.200675
 20
821.025408
 30
0.0
 40
17.5
100
AcDbArc
 50
17.379499
 51
32.551769
  0
LINE
  5
70B
100
AcDbEntity
  8
LAY-1
  6
CONTINUOUS
 62
     2
100
AcDbLine
 10
1370.5
 20
735.0
 30
0.0
 11
1370.5
 21
615.5
 31
0.0
  0
LINE
  5
70C
100
AcDbEntity
  8
LAY-1
  6
CONTINUOUS
 62
     2
100
AcDbLine
 10
1370.5
 20
854.5
 30
0.0
 11
1370.5
 21
735.0
 31
0.0
  0
LINE
  5
70D
100
AcDbEntity
  8
LAY-1
  6
CONTINUOUS
 62
     2
100
AcDbLine
 10
1344.5
 20
710.0
 30
0.0
 11
1344.5
 21
760.0
 31
0.0
  0
LINE
  5
70E
100
AcDbEntity
  8
LAY-1
  6
CONTINUOUS
 62
     2
100
AcDbLine
 10
1344.5
 20
710.0
 30
0.0
 11
1368.569799
 21
709.159464
 31
0.0
  0
LINE
  5
70F
100
AcDbEntity
  8
LAY-1
  6
CONTINUOUS
 62
     2
100
AcDbLine
 10
1344.5
 20
760.0
 30
0.0
 11
1368.569799
 21
760.840536
 31
0.0
  0
ARC
  5
710
100
AcDbEntity
  8
LAY-1
  6
CONTINUOUS
 62
     2
100
AcDbCircle
 10
1368.5
 20
707.160682
 30
0.0
 40
2.0
100
AcDbArc
 50
0.0
 51
88.0
  0
ARC
  5
711
100
AcDbEntity
  8
LAY-1
  6
CONTINUOUS
 62
     2
100
AcDbCircle
 10
1368.5
 20
762.839318
 30
0.0
 40
2.0
100
AcDbArc
 50
272.0
 51
0.0
  0
LINE
  5
712
100
AcDbEntity
  8
LAY-1
  6
CONTINUOUS
 62
     2
100
AcDbLine
 10
1392.3
 20
615.0
 30
0.0
 11
1392.3
 21
735.0
 31
0.0
  0
LINE
  5
713
100
AcDbEntity
  8
LAY-1
  6
CONTINUOUS
 62
     2
100
AcDbLine
 10
1392.3
 20
855.0
 30
0.0
 11
1392.3
 21
735.0
 31
0.0
  0
ARC
  5
714
100
AcDbEntity
  8
LAY-1
  6
CONTINUOUS
 62
     2
100
AcDbCircle
 10
1416.8
 20
702.0
 30
0.0
 40
3.0
100
AcDbArc
 50
90.0
 51
180.0
  0
LINE
  5
715
100
AcDbEntity
  8
LAY-1
  6
CONTINUOUS
 62
     2
100
AcDbLine
 10
1417.3
 20
705.0
 30
0.0
 11
1416.8
 21
705.0
 31
0.0
  0
LINE
  5
716
100
AcDbEntity
  8
LAY-1
  6
CONTINUOUS
 62
     2
100
AcDbLine
 10
1417.3
 20
765.0
 30
0.0
 11
1416.8
 21
765.0
 31
0.0
  0
LINE
  5
717
100
AcDbEntity
  8
LAY-1
  6
CONTINUOUS
 62
     2
100
AcDbLine
 10
1417.3
 20
765.0
 30
0.0
 11
1417.3
 21
705.0
 31
0.0
  0
POLYLINE
  5
718
100
AcDbEntity
  8
LAY-1
  6
CONTINUOUS
 62
     2
100
AcDb2dPolyline
 66
     1
 10
0.0
 20
0.0
 30
0.0
 70
   128
  0
VERTEX
  5
719
100
AcDbEntity
  8
LAY-1
  6
CONTINUOUS
 62
     2
100
AcDbVertex
100
AcDb2dVertex
 10
1001.0
 20
1166.914995
 30
0.0
  0
VERTEX
  5
71A
100
AcDbEntity
  8
LAY-1
  6
CONTINUOUS
 62
     2
100
AcDbVertex
100
AcDb2dVertex
 10
1003.157903
 20
1166.983218
 30
0.0
  0
VERTEX
  5
71B
100
AcDbEntity
  8
LAY-1
  6
CONTINUOUS
 62
     2
100
AcDbVertex
100
AcDb2dVertex
 10
1005.734146
 20
1167.144657
 30
0.0
  0
VERTEX
  5
71C
100
AcDbEntity
  8
LAY-1
  6
CONTINUOUS
 62
     2
100
AcDbVertex
100
AcDb2dVertex
 10
1008.265759
 20
1167.421482
 30
0.0
  0
VERTEX
  5
71D
100
AcDbEntity
  8
LAY-1
  6
CONTINUOUS
 62
     2
100
AcDbVertex
100
AcDb2dVertex
 10
1010.823932
 20
1167.823272
 30
0.0
  0
VERTEX
  5
71E
100
AcDbEntity
  8
LAY-1
  6
CONTINUOUS
 62
     2
100
AcDbVertex
100
AcDb2dVertex
 10
1013.288656
 20
1168.328586
 30
0.0
  0
VERTEX
  5
71F
100
AcDbEntity
  8
LAY-1
  6
CONTINUOUS
 62
     2
100
AcDbVertex
100
AcDb2dVertex
 10
1015.763561
 20
1168.957628
 30
0.0
  0
VERTEX
  5
720
100
AcDbEntity
  8
LAY-1
  6
CONTINUOUS
 62
     2
100
AcDbVertex
100
AcDb2dVertex
 10
1018.096872
 20
1169.666479
 30
0.0
  0
VERTEX
  5
721
100
AcDbEntity
  8
LAY-1
  6
CONTINUOUS
 62
     2
100
AcDbVertex
100
AcDb2dVertex
 10
1020.348485
 20
1170.463475
 30
0.0
  0
VERTEX
  5
722
100
AcDbEntity
  8
LAY-1
  6
CONTINUOUS
 62
     2
100
AcDbVertex
100
AcDb2dVertex
 10
1022.419511
 20
1171.3
 30
0.0
  0
VERTEX
  5
723
100
AcDbEntity
  8
LAY-1
  6
CONTINUOUS
 62
     2
100
AcDbVertex
100
AcDb2dVertex
 10
1024.282866
 20
1172.143668
 30
0.0
  0
SEQEND
  5
724
100
AcDbEntity
  8
LAY-1
  6
CONTINUOUS
 62
     2
  0
POLYLINE
  5
725
100
AcDbEntity
  8
LAY-1
  6
CONTINUOUS
 62
     2
100
AcDb2dPolyline
 66
     1
 10
0.0
 20
0.0
 30
0.0
 70
   128
  0
VERTEX
  5
726
100
AcDbEntity
  8
LAY-1
  6
CONTINUOUS
 62
     2
100
AcDbVertex
100
AcDb2dVertex
 10
1001.0
 20
1166.914995
 30
0.0
  0
VERTEX
  5
727
100
AcDbEntity
  8
LAY-1
  6
CONTINUOUS
 62
     2
100
AcDbVertex
100
AcDb2dVertex
 10
998.842097
 20
1166.983218
 30
0.0
  0
VERTEX
  5
728
100
AcDbEntity
  8
LAY-1
  6
CONTINUOUS
 62
     2
100
AcDbVertex
100
AcDb2dVertex
 10
996.265854
 20
1167.144657
 30
0.0
  0
VERTEX
  5
729
100
AcDbEntity
  8
LAY-1
  6
CONTINUOUS
 62
     2
100
AcDbVertex
100
AcDb2dVertex
 10
993.734241
 20
1167.421482
 30
0.0
  0
VERTEX
  5
72A
100
AcDbEntity
  8
LAY-1
  6
CONTINUOUS
 62
     2
100
AcDbVertex
100
AcDb2dVertex
 10
991.176068
 20
1167.823272
 30
0.0
  0
VERTEX
  5
72B
100
AcDbEntity
  8
LAY-1
  6
CONTINUOUS
 62
     2
100
AcDbVertex
100
AcDb2dVertex
 10
988.711344
 20
1168.328586
 30
0.0
  0
VERTEX
  5
72C
100
AcDbEntity
  8
LAY-1
  6
CONTINUOUS
 62
     2
100
AcDbVertex
100
AcDb2dVertex
 10
986.236439
 20
1168.957628
 30
0.0
  0
VERTEX
  5
72D
100
AcDbEntity
  8
LAY-1
  6
CONTINUOUS
 62
     2
100
AcDbVertex
100
AcDb2dVertex
 10
983.903128
 20
1169.666479
 30
0.0
  0
VERTEX
  5
72E
100
AcDbEntity
  8
LAY-1
  6
CONTINUOUS
 62
     2
100
AcDbVertex
100
AcDb2dVertex
 10
981.651515
 20
1170.463475
 30
0.0
  0
VERTEX
  5
72F
100
AcDbEntity
  8
LAY-1
  6
CONTINUOUS
 62
     2
100
AcDbVertex
100
AcDb2dVertex
 10
979.580489
 20
1171.3
 30
0.0
  0
VERTEX
  5
730
100
AcDbEntity
  8
LAY-1
  6
CONTINUOUS
 62
     2
100
AcDbVertex
100
AcDb2dVertex
 10
977.717134
 20
1172.143668
 30
0.0
  0
SEQEND
  5
731
100
AcDbEntity
  8
LAY-1
  6
CONTINUOUS
 62
     2
  0
ELLIPSE
  5
732
100
AcDbEntity
  8
LAY-1
  6
CONTINUOUS
 62
     2
100
AcDbEllipse
 10
979.269325
 20
1172.143668
 30
0.0
 11
1.9913031875868898
 21
-0.1863105340718002
 31
0.0
210
0.0
220
0.0
230
1.0
 40
0.1139
 41
3.4662793430729062
 42
3.8292725962065672
  0
POLYLINE
  5
733
100
AcDbEntity
  8
LAY-1
  6
CONTINUOUS
 62
     2
100
AcDb2dPolyline
 66
     1
 10
0.0
 20
0.0
 30
0.0
 70
   128
  0
VERTEX
  5
734
100
AcDbEntity
  8
LAY-1
  6
CONTINUOUS
 62
     2
100
AcDbVertex
100
AcDb2dVertex
 10
977.369999
 20
1172.224709
 30
0.0
  0
VERTEX
  5
735
100
AcDbEntity
  8
LAY-1
  6
CONTINUOUS
 62
     2
100
AcDbVertex
100
AcDb2dVertex
 10
977.375297
 20
1172.247889
 30
0.0
  0
SEQEND
  5
736
100
AcDbEntity
  8
LAY-1
  6
CONTINUOUS
 62
     2
  0
LINE
  5
737
100
AcDbEntity
  8
LAY-2
  6
CONTINUOUS
 62
     4
100
AcDbLine
 10
1293.893453
 20
224.52
 30
0.0
 11
1723.973453
 21
224.52
 31
0.0
  0
LINE
  5
738
100
AcDbEntity
  8
LAY-2
  6
CONTINUOUS
 62
     1
100
AcDbLine
 10
1293.893453
 20
253.8
 30
0.0
 11
1723.973453
 21
253.8
 31
0.0
  0
LINE
  5
739
100
AcDbEntity
  8
LAY-2
  6
CONTINUOUS
 62
     4
100
AcDbLine
 10
1293.893453
 20
354.6
 30
0.0
 11
1723.973453
 21
354.6
 31
0.0
  0
LINE
  5
73A
100
AcDbEntity
  8
LAY-2
  6
CONTINUOUS
 62
     1
100
AcDbLine
 10
1293.893453
 20
287.4
 30
0.0
 11
1723.973453
 21
287.4
 31
0.0
  0
LINE
  5
73B
100
AcDbEntity
  8
LAY-2
  6
CONTINUOUS
 62
     1
100
AcDbLine
 10
1293.893453
 20
321.0
 30
0.0
 11
1723.973453
 21
321.0
 31
0.0
  0
LINE
  5
73C
100
AcDbEntity
  8
LAY-2
  6
CONTINUOUS
 62
     1
100
AcDbLine
 10
1365.893453
 20
354.6
 30
0.0
 11
1365.893453
 21
253.8
 31
0.0
  0
LINE
  5
73D
100
AcDbEntity
  8
LAY-2
  6
CONTINUOUS
 62
     4
100
AcDbLine
 10
1293.893453
 20
195.24
 30
0.0
 11
1723.973453
 21
195.24
 31
0.0
  0
LINE
  5
73E
100
AcDbEntity
  8
LAY-2
  6
CONTINUOUS
 62
     4
100
AcDbLine
 10
1723.973453
 20
195.24
 30
0.0
 11
1723.973453
 21
354.6
 31
0.0
  0
LINE
  5
73F
100
AcDbEntity
  8
LAY-2
  6
CONTINUOUS
 62
     4
100
AcDbLine
 10
1293.893453
 20
195.24
 30
0.0
 11
1293.893453
 21
354.6
 31
0.0
  0
TEXT
  5
740
100
AcDbEntity
  8
LAY-2
  6
CONTINUOUS
 62
     3
100
AcDbText
 10
1305.221453
 20
292.392
 30
0.0
 40
24.0
  1
型式
 41
0.984714
  7
EXCADSTD
 72
     5
 11
1356.79794
 21
292.392
 31
0.0
100
AcDbText
  0
TEXT
  5
741
100
AcDbEntity
  8
LAY-2
  6
CONTINUOUS
 62
     3
100
AcDbText
 10
1304.645453
 20
258.6
 30
0.0
 40
24.0
  1
品名
 41
0.984714
  7
EXCADSTD
 72
     5
 11
1356.22194
 21
258.6
 31
0.0
100
AcDbText
  0
TEXT
  5
742
100
AcDbEntity
  8
LAY-2
  6
CONTINUOUS
 62
     3
100
AcDbText
 10
1446.725453
 20
227.688
 30
0.0
 40
24.0
  1
外観図
 41
1.47392
  7
EXCADSTD
 72
     5
 11
1573.061451
 21
227.688
 31
0.0
100
AcDbText
  0
TEXT
  5
743
100
AcDbEntity
  8
LAY-2
  6
CONTINUOUS
 62
     3
100
AcDbText
 10
1296.965453
 20
325.224
 30
0.0
 40
24.0
  1
作成日
 41
0.84
  7
EXCADSTD
 72
     5
 11
1368.965453
 21
325.224
 31
0.0
100
AcDbText
  0
TEXT
  5
744
100
AcDbEntity
  8
LAY-2
  6
CONTINUOUS
 62
     3
100
AcDbText
 10
1377.816653
 20
292.104
 30
0.0
 40
24.0
  1
ＳＧ－２４Ａ
 41
0.84
  7
EXCADSTD
 72
     5
 11
1521.816653
 21
292.104
 31
0.0
100
AcDbText
  0
TEXT
  5
745
100
AcDbEntity
  8
LAY-2
  6
CONTINUOUS
 62
     3
100
AcDbText
 10
1377.778253
 20
258.6192
 30
0.0
 40
24.0
  1
ガバナ
 41
0.84
  7
EXCADSTD
 72
     5
 11
1449.778253
 21
258.6192
 31
0.0
100
AcDbText
  0
INSERT
  5
746
100
AcDbEntity
  8
LAY-2
  6
CONTINUOUS
 62
     0
100
AcDbBlockReference
  2
SYM-1
 10
1503.551536
 20
210.2655
 30
0.0
 41
3.51
 42
3.51
  0
TEXT
  5
747
100
AcDbEntity
  8
LAY-2
  6
CONTINUOUS
 62
     3
100
AcDbText
 10
1390.469453
 20
325.224
 30
0.0
 40
24.0
  1
２０１４年　６月１０日
 41
0.84
  7
EXCADSTD
 72
     5
 11
1654.469453
 21
325.224
 31
0.0
100
AcDbText
  0
LINE
  5
748
100
AcDbEntity
  8
LAY-5
  6
CONTINUOUS
 62
     1
100
AcDbLine
 10
595.0
 20
855.0
 30
0.0
 11
810.5
 21
855.0
 31
0.0
  0
LINE
  5
749
100
AcDbEntity
  8
LAY-5
  6
CONTINUOUS
 62
     1
100
AcDbLine
 10
595.0
 20
615.0
 30
0.0
 11
810.5
 21
615.0
 31
0.0
  0
TEXT
  5
74A
100
AcDbEntity
  8
LAY-5
  6
CONTINUOUS
 62
     3
100
AcDbText
 10
809.25
 20
695.0
 30
0.0
 40
20.0
  1
φ
 50
90.0
 41
0.84
  7
EXCADSTD
 72
     5
 11
809.25
 21
711.0
 31
0.0
100
AcDbText
  0
TEXT
  5
74B
100
AcDbEntity
  8
LAY-5
  6
CONTINUOUS
 62
     3
100
AcDbText
 10
809.25
 20
715.0
 30
0.0
 40
20.0
  1
２４０
 50
90.0
 41
0.84
  7
EXCADSTD
 72
     5
 11
809.25
 21
775.0
 31
0.0
100
AcDbText
  0
LINE
  5
74C
100
AcDbEntity
  8
LAY-5
  6
CONTINUOUS
 62
     1
100
AcDbLine
 10
810.0
 20
855.0
 30
0.0
 11
810.0
 21
615.0
 31
0.0
  0
LINE
  5
74D
100
AcDbEntity
  8
LAY-5
  6
CONTINUOUS
 62
     1
100
AcDbLine
 10
812.5
 20
840.0
 30
0.0
 11
810.0
 21
855.0
 31
0.0
  0
LINE
  5
74E
100
AcDbEntity
  8
LAY-5
  6
CONTINUOUS
 62
     1
100
AcDbLine
 10
810.0
 20
855.0
 30
0.0
 11
807.5
 21
840.0
 31
0.0
  0
LINE
  5
74F
100
AcDbEntity
  8
LAY-5
  6
CONTINUOUS
 62
     1
100
AcDbLine
 10
807.5
 20
630.0
 30
0.0
 11
810.0
 21
615.0
 31
0.0
  0
LINE
  5
750
100
AcDbEntity
  8
LAY-5
  6
CONTINUOUS
 62
     1
100
AcDbLine
 10
810.0
 20
615.0
 30
0.0
 11
812.5
 21
630.0
 31
0.0
  0
LINE
  5
751
100
AcDbEntity
  8
LAY-5
  6
CONTINUOUS
 62
     1
100
AcDbLine
 10
508.7
 20
905.000038
 30
0.0
 11
508.7
 21
926.3
 31
0.0
  0
LINE
  5
752
100
AcDbEntity
  8
LAY-5
  6
CONTINUOUS
 62
     1
100
AcDbLine
 10
751.7
 20
755.0
 30
0.0
 11
751.7
 21
926.3
 31
0.0
  0
TEXT
  5
753
100
AcDbEntity
  8
LAY-5
  6
CONTINUOUS
 62
     3
100
AcDbText
 10
600.2
 20
926.55
 30
0.0
 40
20.0
  1
２４３
 41
0.84
  7
EXCADSTD
 72
     5
 11
660.2
 21
926.55
 31
0.0
100
AcDbText
  0
LINE
  5
754
100
AcDbEntity
  8
LAY-5
  6
CONTINUOUS
 62
     1
100
AcDbLine
 10
508.7
 20
925.8
 30
0.0
 11
751.7
 21
925.8
 31
0.0
  0
LINE
  5
755
100
AcDbEntity
  8
LAY-5
  6
CONTINUOUS
 62
     1
100
AcDbLine
 10
523.7
 20
928.3
 30
0.0
 11
508.7
 21
925.8
 31
0.0
  0
LINE
  5
756
100
AcDbEntity
  8
LAY-5
  6
CONTINUOUS
 62
     1
100
AcDbLine
 10
508.7
 20
925.8
 30
0.0
 11
523.7
 21
923.3
 31
0.0
  0
LINE
  5
757
100
AcDbEntity
  8
LAY-5
  6
CONTINUOUS
 62
     1
100
AcDbLine
 10
736.7
 20
923.3
 30
0.0
 11
751.7
 21
925.8
 31
0.0
  0
LINE
  5
758
100
AcDbEntity
  8
LAY-5
  6
CONTINUOUS
 62
     1
100
AcDbLine
 10
751.7
 20
925.8
 30
0.0
 11
736.7
 21
928.3
 31
0.0
  0
LINE
  5
759
100
AcDbEntity
  8
LAY-5
  6
CONTINUOUS
 62
     1
100
AcDbLine
 10
458.7
 20
764.273503
 30
0.0
 11
458.7
 21
1000.5
 31
0.0
  0
LINE
  5
75A
100
AcDbEntity
  8
LAY-5
  6
CONTINUOUS
 62
     1
100
AcDbLine
 10
751.7
 20
755.0
 30
0.0
 11
751.7
 21
1000.5
 31
0.0
  0
TEXT
  5
75B
100
AcDbEntity
  8
LAY-5
  6
CONTINUOUS
 62
     3
100
AcDbText
 10
575.2
 20
1000.75
 30
0.0
 40
20.0
  1
２９３
 41
0.84
  7
EXCADSTD
 72
     5
 11
635.2
 21
1000.75
 31
0.0
100
AcDbText
  0
LINE
  5
75C
100
AcDbEntity
  8
LAY-5
  6
CONTINUOUS
 62
     1
100
AcDbLine
 10
458.7
 20
1000.0
 30
0.0
 11
751.7
 21
1000.0
 31
0.0
  0
LINE
  5
75D
100
AcDbEntity
  8
LAY-5
  6
CONTINUOUS
 62
     1
100
AcDbLine
 10
473.7
 20
1002.5
 30
0.0
 11
458.7
 21
1000.0
 31
0.0
  0
LINE
  5
75E
100
AcDbEntity
  8
LAY-5
  6
CONTINUOUS
 62
     1
100
AcDbLine
 10
458.7
 20
1000.0
 30
0.0
 11
473.7
 21
997.5
 31
0.0
  0
LINE
  5
75F
100
AcDbEntity
  8
LAY-5
  6
CONTINUOUS
 62
     1
100
AcDbLine
 10
736.7
 20
997.5
 30
0.0
 11
751.7
 21
1000.0
 31
0.0
  0
LINE
  5
760
100
AcDbEntity
  8
LAY-5
  6
CONTINUOUS
 62
     1
100
AcDbLine
 10
751.7
 20
1000.0
 30
0.0
 11
736.7
 21
1002.5
 31
0.0
  0
LINE
  5
761
100
AcDbEntity
  8
LAY-5
  6
CONTINUOUS
 62
     1
100
AcDbLine
 10
458.7
 20
764.273503
 30
0.0
 11
458.7
 21
926.3
 31
0.0
  0
LINE
  5
762
100
AcDbEntity
  8
LAY-5
  6
CONTINUOUS
 62
     1
100
AcDbLine
 10
508.7
 20
885.800041
 30
0.0
 11
508.7
 21
926.3
 31
0.0
  0
TEXT
  5
763
100
AcDbEntity
  8
LAY-5
  6
CONTINUOUS
 62
     3
100
AcDbText
 10
463.7
 20
926.55
 30
0.0
 40
20.0
  1
５０
 41
0.84
  7
EXCADSTD
 72
     5
 11
500.364
 21
926.55
 31
0.0
100
AcDbText
  0
LINE
  5
764
100
AcDbEntity
  8
LAY-5
  6
CONTINUOUS
 62
     1
100
AcDbLine
 10
458.7
 20
925.8
 30
0.0
 11
508.7
 21
925.8
 31
0.0
  0
LINE
  5
765
100
AcDbEntity
  8
LAY-5
  6
CONTINUOUS
 62
     1
100
AcDbLine
 10
473.7
 20
928.3
 30
0.0
 11
458.7
 21
925.8
 31
0.0
  0
LINE
  5
766
100
AcDbEntity
  8
LAY-5
  6
CONTINUOUS
 62
     1
100
AcDbLine
 10
458.7
 20
925.8
 30
0.0
 11
473.7
 21
923.3
 31
0.0
  0
LINE
  5
767
100
AcDbEntity
  8
LAY-5
  6
CONTINUOUS
 62
     1
100
AcDbLine
 10
493.7
 20
923.3
 30
0.0
 11
508.7
 21
925.8
 31
0.0
  0
LINE
  5
768
100
AcDbEntity
  8
LAY-5
  6
CONTINUOUS
 62
     1
100
AcDbLine
 10
508.7
 20
925.8
 30
0.0
 11
493.7
 21
928.3
 31
0.0
  0
LINE
  5
769
100
AcDbEntity
  8
LAY-5
  6
CONTINUOUS
 62
     1
100
AcDbLine
 10
482.141888
 20
805.0
 30
0.0
 11
390.5
 21
805.0
 31
0.0
  0
LINE
  5
76A
100
AcDbEntity
  8
LAY-5
  6
CONTINUOUS
 62
     1
100
AcDbLine
 10
482.141888
 20
665.0
 30
0.0
 11
390.5
 21
665.0
 31
0.0
  0
TEXT
  5
76B
100
AcDbEntity
  8
LAY-5
  6
CONTINUOUS
 62
     3
100
AcDbText
 10
390.25
 20
705.0
 30
0.0
 40
20.0
  1
１４０
 50
90.0
 41
0.84
  7
EXCADSTD
 72
     5
 11
390.25
 21
765.0
 31
0.0
100
AcDbText
  0
LINE
  5
76C
100
AcDbEntity
  8
LAY-5
  6
CONTINUOUS
 62
     1
100
AcDbLine
 10
391.0
 20
805.0
 30
0.0
 11
391.0
 21
665.0
 31
0.0
  0
LINE
  5
76D
100
AcDbEntity
  8
LAY-5
  6
CONTINUOUS
 62
     1
100
AcDbLine
 10
393.5
 20
790.0
 30
0.0
 11
391.0
 21
805.0
 31
0.0
  0
LINE
  5
76E
100
AcDbEntity
  8
LAY-5
  6
CONTINUOUS
 62
     1
100
AcDbLine
 10
391.0
 20
805.0
 30
0.0
 11
388.5
 21
790.0
 31
0.0
  0
LINE
  5
76F
100
AcDbEntity
  8
LAY-5
  6
CONTINUOUS
 62
     1
100
AcDbLine
 10
388.5
 20
680.0
 30
0.0
 11
391.0
 21
665.0
 31
0.0
  0
LINE
  5
770
100
AcDbEntity
  8
LAY-5
  6
CONTINUOUS
 62
     1
100
AcDbLine
 10
391.0
 20
665.0
 30
0.0
 11
393.5
 21
680.0
 31
0.0
  0
TEXT
  5
771
100
AcDbEntity
  8
LAY-5
  6
CONTINUOUS
 62
     3
100
AcDbText
 10
677.434042
 20
652.678657
 30
0.0
 40
20.0
  1
Ｒｃ１/４
 50
360.0
 41
0.7848
  7
EXCADSTD
 72
     5
 11
767.434042
 21
652.678657
 31
0.0
100
AcDbText
  0
POLYLINE
  5
772
100
AcDbEntity
  8
LAY-5
  6
CONTINUOUS
 62
     1
100
AcDb2dPolyline
 66
     1
 10
0.0
 20
0.0
 30
0.0
 70
   128
  0
VERTEX
  5
773
100
AcDbEntity
  8
LAY-5
  6
CONTINUOUS
 62
     1
100
AcDbVertex
100
AcDb2dVertex
 10
618.137121
 20
730.741907
 30
0.0
  0
VERTEX
  5
774
100
AcDbEntity
  8
LAY-5
  6
CONTINUOUS
 62
     1
100
AcDbVertex
100
AcDb2dVertex
 10
671.984042
 20
649.3
 30
0.0
  0
VERTEX
  5
775
100
AcDbEntity
  8
LAY-5
  6
CONTINUOUS
 62
     1
100
AcDbVertex
100
AcDb2dVertex
 10
767.984042
 20
649.3
 30
0.0
  0
SEQEND
  5
776
100
AcDbEntity
  8
LAY-5
  6
CONTINUOUS
 62
     1
  0
LINE
  5
777
100
AcDbEntity
  8
LAY-5
  6
CONTINUOUS
 62
     1
100
AcDbLine
 10
628.495347
 20
719.608303
 30
0.0
 11
618.137121
 21
730.741907
 31
0.0
  0
LINE
  5
778
100
AcDbEntity
  8
LAY-5
  6
CONTINUOUS
 62
     1
100
AcDbLine
 10
618.137121
 20
730.741907
 30
0.0
 11
624.324545
 21
716.850695
 31
0.0
  0
TEXT
  5
779
100
AcDbEntity
  8
LAY-5
  6
CONTINUOUS
 62
     3
100
AcDbText
 10
542.434042
 20
553.678657
 30
0.0
 40
20.0
  1
Ｒｃ１
 50
360.0
 41
0.84
  7
EXCADSTD
 72
     5
 11
602.434042
 21
553.678657
 31
0.0
100
AcDbText
  0
TEXT
  5
77A
100
AcDbEntity
  8
LAY-5
  6
CONTINUOUS
 62
     3
100
AcDbText
 10
565.434042
 20
885.678657
 30
0.0
 40
20.0
  1
Ｒｃ１
 50
360.0
 41
0.84
  7
EXCADSTD
 72
     5
 11
625.434042
 21
885.678657
 31
0.0
100
AcDbText
  0
POLYLINE
  5
77B
100
AcDbEntity
  8
LAY-5
  6
CONTINUOUS
 62
     1
100
AcDb2dPolyline
 66
     1
 10
0.0
 20
0.0
 30
0.0
 70
   128
  0
VERTEX
  5
77C
100
AcDbEntity
  8
LAY-5
  6
CONTINUOUS
 62
     1
100
AcDbVertex
100
AcDb2dVertex
 10
520.5
 20
805.0
 30
0.0
  0
VERTEX
  5
77D
100
AcDbEntity
  8
LAY-5
  6
CONTINUOUS
 62
     1
100
AcDbVertex
100
AcDb2dVertex
 10
560.984042
 20
883.0
 30
0.0
  0
VERTEX
  5
77E
100
AcDbEntity
  8
LAY-5
  6
CONTINUOUS
 62
     1
100
AcDbVertex
100
AcDb2dVertex
 10
623.3
 20
883.0
 30
0.0
  0
SEQEND
  5
77F
100
AcDbEntity
  8
LAY-5
  6
CONTINUOUS
 62
     1
  0
LINE
  5
780
100
AcDbEntity
  8
LAY-5
  6
CONTINUOUS
 62
     1
100
AcDbLine
 10
525.191158
 20
819.465236
 30
0.0
 11
520.5
 21
805.0
 31
0.0
  0
LINE
  5
781
100
AcDbEntity
  8
LAY-5
  6
CONTINUOUS
 62
     1
100
AcDbLine
 10
520.5
 20
805.0
 30
0.0
 11
529.629009
 21
817.161874
 31
0.0
  0
POLYLINE
  5
782
100
AcDbEntity
  8
LAY-5
  6
CONTINUOUS
 62
     1
100
AcDb2dPolyline
 66
     1
 10
0.0
 20
0.0
 30
0.0
 70
   128
  0
VERTEX
  5
783
100
AcDbEntity
  8
LAY-5
  6
CONTINUOUS
 62
     1
100
AcDbVertex
100
AcDb2dVertex
 10
516.7
 20
665.0
 30
0.0
  0
VERTEX
  5
784
100
AcDbEntity
  8
LAY-5
  6
CONTINUOUS
 62
     1
100
AcDbVertex
100
AcDb2dVertex
 10
532.984042
 20
552.0
 30
0.0
  0
VERTEX
  5
785
100
AcDbEntity
  8
LAY-5
  6
CONTINUOUS
 62
     1
100
AcDbVertex
100
AcDb2dVertex
 10
600.6
 20
552.0
 30
0.0
  0
SEQEND
  5
786
100
AcDbEntity
  8
LAY-5
  6
CONTINUOUS
 62
     1
  0
LINE
  5
787
100
AcDbEntity
  8
LAY-5
  6
CONTINUOUS
 62
     1
100
AcDbLine
 10
521.313937
 20
650.509949
 30
0.0
 11
516.7
 21
665.0
 31
0.0
  0
LINE
  5
788
100
AcDbEntity
  8
LAY-5
  6
CONTINUOUS
 62
     1
100
AcDbLine
 10
516.7
 20
665.0
 30
0.0
 11
516.365058
 21
649.796783
 31
0.0
  0
ENDSEC
  0
SECTION
  2
OBJECTS
  0
DICTIONARY
  5
19
100
AcDbDictionary
  3
ACAD_GROUP
350
1A
  3
ACAD_MLINESTYLE
350
1B
  0
DICTIONARY
  5
1A
102
{ACAD_REACTORS
330
19
102
}
100
AcDbDictionary
  0
DICTIONARY
  5
1B
102
{ACAD_REACTORS
330
19
102
}
100
AcDbDictionary
  3
STANDARD
350
1C
  0
MLINESTYLE
  5
1C
102
{ACAD_REACTORS
330
1B
102
}
100
AcDbMlineStyle
  2
Standard
 70
     0
  3

 62
     0
 51
90.0
 52
90.0
 71
     2
 49
0.5
 62
   256
  6
ByLayer
 49
-0.5
 62
   256
  6
ByLayer
  0
ENDSEC
  0
EOF
