  0
SECTION
  2
HEADER
  9
$ACADVER
  1
AC1014
  9
$ACADMAINTVER
 70
     0
  9
$DWGCODEPAGE
  3
ANSI_932
  9
$INSBASE
 10
0.0
 20
0.0
 30
0.0
  9
$EXTMIN
 10
118.0
 20
89.113667
 30
0.0
  9
$EXTMAX
 10
1965.08
 20
1760.986221
 30
0.0
  9
$LIMMIN
 10
0.0
 20
0.0
  9
$LIMMAX
 10
420.0
 20
297.0
  9
$ORTHOMODE
 70
     0
  9
$REGENMODE
 70
     1
  9
$FILLMODE
 70
     1
  9
$QTEXTMODE
 70
     0
  9
$MIRRTEXT
 70
     1
  9
$DRAGMODE
 70
     2
  9
$LTSCALE
 40
1.0
  9
$OSMODE
 70
     0
  9
$ATTMODE
 70
     1
  9
$TEXTSIZE
 40
0.2
  9
$TRACEWID
 40
0.05
  9
$TEXTSTYLE
  7
STANDARD
  9
$CLAYER
  8
LAY-1
  9
$CELTYPE
  6
CONTINUOUS
  9
$CECOLOR
 62
   256
  9
$CELTSCALE
 40
1.0
  9
$DELOBJ
 70
     1
  9
$DISPSILH
 70
     0
  9
$DIMSCALE
 40
1.0
  9
$DIMASZ
 40
0.18
  9
$DIMEXO
 40
0.0625
  9
$DIMDLI
 40
0.38
  9
$DIMRND
 40
0.0
  9
$DIMDLE
 40
0.0
  9
$DIMEXE
 40
0.18
  9
$DIMTP
 40
0.0
  9
$DIMTM
 40
0.0
  9
$DIMTXT
 40
0.18
  9
$DIMCEN
 40
0.09
  9
$DIMTSZ
 40
0.0
  9
$DIMTOL
 70
     0
  9
$DIMLIM
 70
     0
  9
$DIMTIH
 70
     1
  9
$DIMTOH
 70
     1
  9
$DIMSE1
 70
     0
  9
$DIMSE2
 70
     0
  9
$DIMTAD
 70
     0
  9
$DIMZIN
 70
     0
  9
$DIMBLK
  1

  9
$DIMASO
 70
     1
  9
$DIMSHO
 70
     1
  9
$DIMPOST
  1

  9
$DIMAPOST
  1

  9
$DIMALT
 70
     0
  9
$DIMALTD
 70
     2
  9
$DIMALTF
 40
25.4
  9
$DIMLFAC
 40
1.0
  9
$DIMTOFL
 70
     0
  9
$DIMTVP
 40
0.0
  9
$DIMTIX
 70
     0
  9
$DIMSOXD
 70
     0
  9
$DIMSAH
 70
     0
  9
$DIMBLK1
  1

  9
$DIMBLK2
  1

  9
$DIMSTYLE
  2
STANDARD
  9
$DIMCLRD
 70
     0
  9
$DIMCLRE
 70
     0
  9
$DIMCLRT
 70
     0
  9
$DIMTFAC
 40
1.0
  9
$DIMGAP
 40
0.09
  9
$DIMJUST
 70
     0
  9
$DIMSD1
 70
     0
  9
$DIMSD2
 70
     0
  9
$DIMTOLJ
 70
     1
  9
$DIMTZIN
 70
     0
  9
$DIMALTZ
 70
     0
  9
$DIMALTTZ
 70
     0
  9
$DIMFIT
 70
     3
  9
$DIMUPT
 70
     0
  9
$DIMUNIT
 70
     2
  9
$DIMDEC
 70
     4
  9
$DIMTDEC
 70
     4
  9
$DIMALTU
 70
     2
  9
$DIMALTTD
 70
     2
  9
$DIMTXSTY
  7
STANDARD
  9
$DIMAUNIT
 70
     0
  9
$LUNITS
 70
     2
  9
$LUPREC
 70
     4
  9
$SKETCHINC
 40
0.1
  9
$FILLETRAD
 40
0.0
  9
$AUNITS
 70
     0
  9
$AUPREC
 70
     0
  9
$MENU
  1
acad
  9
$ELEVATION
 40
0.0
  9
$PELEVATION
 40
0.0
  9
$THICKNESS
 40
0.0
  9
$LIMCHECK
 70
     0
  9
$BLIPMODE
 70
     1
  9
$CHAMFERA
 40
0.0
  9
$CHAMFERB
 40
0.0
  9
$CHAMFERC
 40
0.0
  9
$CHAMFERD
 40
0.0
  9
$SKPOLY
 70
     0
  9
$TDCREATE
 40
2458330.144865185
  9
$TDUPDATE
 40
2458330.144865185
  9
$TDINDWG
 40
0.0000000000
  9
$TDUSRTIMER
 40
0.0000000000
  9
$USRTIMER
 70
     1
  9
$ANGBASE
 50
0.0
  9
$ANGDIR
 70
     0
  9
$PDMODE
 70
     0
  9
$PDSIZE
 40
0.0
  9
$PLINEWID
 40
0.0
  9
$COORDS
 70
     1
  9
$SPLFRAME
 70
     0
  9
$SPLINETYPE
 70
     6
  9
$SPLINESEGS
 70
     8
  9
$ATTDIA
 70
     0
  9
$ATTREQ
 70
     1
  9
$HANDLING
 70
     1
  9
$HANDSEED
  5
676
  9
$SURFTAB1
 70
     6
  9
$SURFTAB2
 70
     6
  9
$SURFTYPE
 70
     6
  9
$SURFU
 70
     6
  9
$SURFV
 70
     6
  9
$UCSNAME
  2

  9
$UCSORG
 10
0.0
 20
0.0
 30
0.0
  9
$UCSXDIR
 10
1.0
 20
0.0
 30
0.0
  9
$UCSYDIR
 10
0.0
 20
1.0
 30
0.0
  9
$PUCSNAME
  2

  9
$PUCSORG
 10
0.0
 20
0.0
 30
0.0
  9
$PUCSXDIR
 10
1.0
 20
0.0
 30
0.0
  9
$PUCSYDIR
 10
0.0
 20
1.0
 30
0.0
  9
$USERI1
 70
     0
  9
$USERI2
 70
     0
  9
$USERI3
 70
     0
  9
$USERI4
 70
     0
  9
$USERI5
 70
     0
  9
$USERR1
 40
0.0
  9
$USERR2
 40
0.0
  9
$USERR3
 40
0.0
  9
$USERR4
 40
0.0
  9
$USERR5
 40
0.0
  9
$WORLDVIEW
 70
     1
  9
$SHADEDGE
 70
     3
  9
$SHADEDIF
 70
    70
  9
$TILEMODE
 70
     1
  9
$MAXACTVP
 70
    16
  9
$PINSBASE
 10
0.0
 20
0.0
 30
0.0
  9
$PLIMCHECK
 70
     0
  9
$PEXTMIN
 10
1.000000E+20
 20
1.000000E+20
 30
1.000000E+20
  9
$PEXTMAX
 10
-1.000000E+20
 20
-1.000000E+20
 30
-1.000000E+20
  9
$PLIMMIN
 10
0.0
 20
0.0
  9
$PLIMMAX
 10
12.0
 20
9.0
  9
$UNITMODE
 70
     0
  9
$VISRETAIN
 70
     0
  9
$PLINEGEN
 70
     1
  9
$PSLTSCALE
 70
     0
  9
$TREEDEPTH
 70
  3020
  9
$PICKSTYLE
 70
     1
  9
$CMLSTYLE
  2
Standard
  9
$CMLJUST
 70
     0
  9
$CMLSCALE
 40
1.0
  9
$PROXYGRAPHICS
 70
     0
  9
$MEASUREMENT
 70
     0
  0
ENDSEC
  0
SECTION
  2
CLASSES
  0
CLASS
  1
LWPOLYLINE
  2
AcDbPolyline
  3
"AutoCAD"
 90
        0
280
     0
281
     1
  0
CLASS
  1
IMAGE
  2
AcDbRasterImage
  3
ISM
 90
      127
280
     0
281
     1
  0
CLASS
  1
OLE2FRAME
  2
AcDbOle2Frame
  3
""
 90
        0
280
     0
281
     1
  0
CLASS
  1
HATCH
  2
AcDbHatch
  3
"ACAD_SEDONA"
 90
        0
280
     0
281
     1
  0
CLASS
  1
DICTIONARYVAR
  2
AcDbDictionaryVar
  3
"AutoCAD"
 90
        0
280
     0
281
     0
  0
CLASS
  1
RASTERVARIABLES
  2
AcDbRasterVariables
  3
ISM
 90
        0
280
     0
281
     0
  0
CLASS
  1
IMAGEDEF
  2
AcDbRasterImageDef
  3
ISM
 90
        0
280
     0
281
     0
  0
CLASS
  1
IMAGEDEF_REACTOR
  2
AcDbRasterImageDefReactor
  3
ISM
 90
        1
280
     0
281
     0
  0
CLASS
  1
IDBUFFER
  2
AcDbIdBuffer
  3
"Acad"
 90
        0
280
     0
281
     0
  0
CLASS
  1
SPATIAL_FILTER
  2
AcDbSpatialFilter
  3
"Acad"
 90
        0
280
     0
281
     0
  0
CLASS
  1
XRECORD
  2
AcDbXrecord
  3
"<Built In>"
 90
        0
280
     0
281
     0
  0
CLASS
  1
SORTENTSTABLE
  2
AcDbSortentsTable
  3
"AutoCAD"
 90
        0
280
     0
281
     0
  0
CLASS
  1
LAYER_INDEX
  2
AcDbLayerIndex
  3
"Acad"
 90
        0
280
     0
281
     0
  0
CLASS
  1
SPATIAL_INDEX
  2
AcDbSpatialIndex
  3
"Acad"
 90
        0
280
     0
281
     0
  0
CLASS
  1
OBJECT_PTR
  2
CAseDLPNTableRecord
  3
"ASE-LPNTableRecord"
 90
        1
280
     0
281
     0
  0
CLASS
  1
LAYOUT
  2
AcDbLayout
  3
"AutoCAD 2000"
 90
        0
280
     0
281
     0
  0
CLASS
  1
PLOTSETTINGS
  2
AcDbPlotSettings
  3
"AutoCAD 2000"
 90
        0
280
     0
281
     0
  0
CLASS
  1
ACDBDICTIONARYWDFLT
  2
AcDbDictionaryWithDefault
  3
"AutoCAD 2000"
 90
        0
280
     0
281
     0
  0
CLASS
  1
ACDBPLACEHOLDER
  2
AcDbPlaceHolder
  3
"AutoCAD 2000"
 90
        0
280
     0
281
     0
  0
CLASS
  1
VBA_PROJECT
  2
AcDbVbaProject
  3
"acadvba"
 90
        0
280
     0
281
     0
  0
CLASS
  1
WIPEOUT
  2
AcDbWipeout
  3
WipeOut|AutoCAD Express Tool|expresstools@autodesk.com
 90
      127
280
     0
281
     1
  0
CLASS
  1
WIPEOUTVARIABLES
  2
AcDbWipeoutVariables
  3
WipeOut|AutoCAD Express Tool|expresstools@autodesk.com
 90
        0
280
     0
281
     0
  0
CLASS
  1
RTEXT
  2
RText
  3
RText|AutoCAD Express Tool|expresstools@autodesk.com
 90
        0
280
     0
281
     1
  0
CLASS
  1
ARCALIGNEDTEXT
  2
AcDbArcAlignedText
  3
ATEXT|AutoCAD Express Tool|expresstools@autodesk.com
 90
        0
280
     0
281
     1
  0
ENDSEC
  0
SECTION
  2
TABLES
  0
TABLE
  2
VPORT
  5
7
100
AcDbSymbolTable
 70
     1
  0
VPORT
  5
15
100
AcDbSymbolTableRecord
100
AcDbViewportTableRecord
  2
*ACTIVE
 70
     0
 10
0.0
 20
0.0
 11
1.0
 21
1.0
 12
1041.54
 22
925.049944
 13
0.0
 23
0.0
 14
1.0
 24
1.0
 15
0.0
 25
0.0
 16
0.0
 26
0.0
 36
1.0
 17
0.0
 27
0.0
 37
0.0
 40
1671.872555
 41
1.722533
 42
50.0
 43
0.0
 44
0.0
 50
0.0
 51
0.0
 71
     0
 72
  1000
 73
     1
 74
     1
 75
     0
 76
     0
 77
     0
 78
     0
  0
ENDTAB
  0
TABLE
  2
LTYPE
  5
4
100
AcDbSymbolTable
 70
     9
  0
LTYPE
  5
11
100
AcDbSymbolTableRecord
100
AcDbLinetypeTableRecord
  2
BYBLOCK
 70
    64
  3

 72
    65
 73
     0
 40
0.0
  0
LTYPE
  5
12
100
AcDbSymbolTableRecord
100
AcDbLinetypeTableRecord
  2
BYLAYER
 70
    64
  3

 72
    65
 73
     0
 40
0.0
  0
LTYPE
  5
13
100
AcDbSymbolTableRecord
100
AcDbLinetypeTableRecord
  2
CONTINUOUS
 70
    64
  3
実線
 72
    65
 73
     0
 40
0.0
  0
LTYPE
  5
1D
100
AcDbSymbolTableRecord
100
AcDbLinetypeTableRecord
  2
EXLTYPE1
 70
    64
  3
破線
 72
    65
 73
     2
 40
4.0
 49
3.0
 74
     0
 49
-1.0
 74
     0
  0
LTYPE
  5
1E
100
AcDbSymbolTableRecord
100
AcDbLinetypeTableRecord
  2
EXLTYPE2
 70
    64
  3
点線
 72
    65
 73
     2
 40
2.0
 49
1.0
 74
     0
 49
-1.0
 74
     0
  0
LTYPE
  5
1F
100
AcDbSymbolTableRecord
100
AcDbLinetypeTableRecord
  2
EXLTYPE3
 70
    64
  3
一点鎖線
 72
    65
 73
     4
 40
33.0
 49
30.0
 74
     0
 49
-1.0
 74
     0
 49
1.0
 74
     0
 49
-1.0
 74
     0
  0
LTYPE
  5
20
100
AcDbSymbolTableRecord
100
AcDbLinetypeTableRecord
  2
EXLTYPE4
 70
    64
  3
二点鎖線
 72
    65
 73
     6
 40
35.0
 49
30.0
 74
     0
 49
-1.0
 74
     0
 49
1.0
 74
     0
 49
-1.0
 74
     0
 49
1.0
 74
     0
 49
-1.0
 74
     0
  0
LTYPE
  5
21
100
AcDbSymbolTableRecord
100
AcDbLinetypeTableRecord
  2
EXLTYPE5
 70
    64
  3
三点鎖線
 72
    65
 73
     8
 40
37.0
 49
30.0
 74
     0
 49
-1.0
 74
     0
 49
1.0
 74
     0
 49
-1.0
 74
     0
 49
1.0
 74
     0
 49
-1.0
 74
     0
 49
1.0
 74
     0
 49
-1.0
 74
     0
  0
LTYPE
  5
22
100
AcDbSymbolTableRecord
100
AcDbLinetypeTableRecord
  2
EXLTYPE6
 70
    64
  3
四点鎖線
 72
    65
 73
    10
 40
39.0
 49
30.0
 74
     0
 49
-1.0
 74
     0
 49
1.0
 74
     0
 49
-1.0
 74
     0
 49
1.0
 74
     0
 49
-1.0
 74
     0
 49
1.0
 74
     0
 49
-1.0
 74
     0
 49
1.0
 74
     0
 49
-1.0
 74
     0
  0
ENDTAB
  0
TABLE
  2
LAYER
  5
2
100
AcDbSymbolTable
 70
     4
  0
LAYER
  5
14
100
AcDbSymbolTableRecord
100
AcDbLayerTableRecord
  2
0
 70
     0
 62
     7
  6
CONTINUOUS
  0
LAYER
  5
25
100
AcDbSymbolTableRecord
100
AcDbLayerTableRecord
  2
LAY-1
 70
    64
 62
     3
  6
CONTINUOUS
  0
LAYER
  5
26
100
AcDbSymbolTableRecord
100
AcDbLayerTableRecord
  2
LAY-2
 70
    64
 62
     7
  6
CONTINUOUS
  0
LAYER
  5
27
100
AcDbSymbolTableRecord
100
AcDbLayerTableRecord
  2
LAY-5
 70
    64
 62
     1
  6
CONTINUOUS
  0
ENDTAB
  0
TABLE
  2
STYLE
  5
3
100
AcDbSymbolTable
 70
     3
  0
STYLE
  5
17
100
AcDbSymbolTableRecord
100
AcDbTextStyleTableRecord
  2
STANDARD
 70
     0
 40
0.0
 41
1.0
 50
0.0
 71
     0
 42
0.0
  3
monotxt
  4
extfont
  0
STYLE
  5
23
100
AcDbSymbolTableRecord
100
AcDbTextStyleTableRecord
  2
EXCADSTD
 70
    64
 40
0.0
 41
1.0
 50
0.0
 71
     0
 42
0.2
  3
monotxt
  4
extfont
  0
STYLE
  5
24
100
AcDbSymbolTableRecord
100
AcDbTextStyleTableRecord
  2
EXCADVERT
 70
    68
 40
0.0
 41
1.0
 50
0.0
 71
     0
 42
0.286885
  3
monotxt
  4
extfont
  0
ENDTAB
  0
TABLE
  2
VIEW
  5
5
100
AcDbSymbolTable
 70
     0
  0
ENDTAB
  0
TABLE
  2
UCS
  5
6
100
AcDbSymbolTable
 70
     0
  0
ENDTAB
  0
TABLE
  2
APPID
  5
8
100
AcDbSymbolTable
 70
     1
  0
APPID
  5
16
100
AcDbSymbolTableRecord
100
AcDbRegAppTableRecord
  2
ACAD
 70
     0
  0
ENDTAB
  0
TABLE
  2
DIMSTYLE
  5
9
100
AcDbSymbolTable
 70
     1
  0
DIMSTYLE
105
18
100
AcDbSymbolTableRecord
100
AcDbDimStyleTableRecord
  2
STANDARD
 70
     0
  3

  4

  5

  6

  7

 40
1.0
 41
0.18
 42
0.0625
 43
0.38
 44
0.18
 45
0.0
 46
0.0
 47
0.0
 48
0.0
 71
     0
 72
     0
 73
     1
 74
     1
 75
     0
 76
     0
 77
     0
 78
     0
140
0.18
141
0.09
142
0.0
143
25.4
144
1.0
145
0.0
146
1.0
147
0.09
170
     0
171
     2
172
     1
173
     0
174
     0
175
     0
176
     0
177
     0
178
     0
270
     2
271
     4
272
     4
273
     2
274
     2
275
     0
280
     0
281
     0
282
     0
283
     1
284
     0
285
     0
286
     0
287
     3
288
     0
340
17
  0
ENDTAB
  0
TABLE
  2
BLOCK_RECORD
  5
1
100
AcDbSymbolTable
 70
    15
  0
BLOCK_RECORD
  5
A
100
AcDbSymbolTableRecord
100
AcDbBlockTableRecord
  2
*MODEL_SPACE
  0
BLOCK_RECORD
  5
B
100
AcDbSymbolTableRecord
100
AcDbBlockTableRecord
  2
*PAPER_SPACE
  0
BLOCK_RECORD
  5
28
100
AcDbSymbolTableRecord
100
AcDbBlockTableRecord
  2
_EX_NORM
  0
BLOCK_RECORD
  5
29
100
AcDbSymbolTableRecord
100
AcDbBlockTableRecord
  2
_EX_BNORM
  0
BLOCK_RECORD
  5
2A
100
AcDbSymbolTableRecord
100
AcDbBlockTableRecord
  2
_EX_BCIR
  0
BLOCK_RECORD
  5
2B
100
AcDbSymbolTableRecord
100
AcDbBlockTableRecord
  2
_EX_RCIVIL
  0
BLOCK_RECORD
  5
2C
100
AcDbSymbolTableRecord
100
AcDbBlockTableRecord
  2
_EX_SLANT
  0
BLOCK_RECORD
  5
2D
100
AcDbSymbolTableRecord
100
AcDbBlockTableRecord
  2
_EX_NONE
  0
BLOCK_RECORD
  5
2E
100
AcDbSymbolTableRecord
100
AcDbBlockTableRecord
  2
_EX_CIVIL
  0
BLOCK_RECORD
  5
2F
100
AcDbSymbolTableRecord
100
AcDbBlockTableRecord
  2
_EX_WCIR
  0
BLOCK_RECORD
  5
30
100
AcDbSymbolTableRecord
100
AcDbBlockTableRecord
  2
_EX_WCIR2
  0
BLOCK_RECORD
  5
31
100
AcDbSymbolTableRecord
100
AcDbBlockTableRecord
  2
_EX_WNORM
  0
BLOCK_RECORD
  5
32
100
AcDbSymbolTableRecord
100
AcDbBlockTableRecord
  2
_EX_NNORM
  0
BLOCK_RECORD
  5
33
100
AcDbSymbolTableRecord
100
AcDbBlockTableRecord
  2
_EX_BBOX
  0
BLOCK_RECORD
  5
34
100
AcDbSymbolTableRecord
100
AcDbBlockTableRecord
  2
_EX_WBOX
  0
BLOCK_RECORD
  5
35
100
AcDbSymbolTableRecord
100
AcDbBlockTableRecord
  2
_EX_INTEGRAL
  0
BLOCK_RECORD
  5
36
100
AcDbSymbolTableRecord
100
AcDbBlockTableRecord
  2
SYM-1
  0
ENDTAB
  0
ENDSEC
  0
SECTION
  2
BLOCKS
  0
BLOCK
  5
D
100
AcDbEntity
  8
0
100
AcDbBlockBegin
  2
*MODEL_SPACE
 70
     0
 10
0.0
 20
0.0
 30
0.0
  3
*MODEL_SPACE
  1

  0
ENDBLK
  5
E
100
AcDbEntity
  8
0
100
AcDbBlockEnd
  0
BLOCK
  5
F
100
AcDbEntity
 67
     1
  8
0
100
AcDbBlockBegin
  2
*PAPER_SPACE
 70
     0
 10
0.0
 20
0.0
 30
0.0
  3
*PAPER_SPACE
  1

  0
ENDBLK
  5
10
100
AcDbEntity
 67
     1
  8
0
100
AcDbBlockEnd
  0
BLOCK
  5
37
100
AcDbEntity
  8
0
100
AcDbBlockBegin
  2
_EX_NORM
 70
     0
 10
0.0
 20
0.0
 30
0.0
  3
_EX_NORM
  1

  0
LINE
  5
38
100
AcDbEntity
  8
0
  6
CONTINUOUS
 62
     0
100
AcDbLine
 10
0.0
 20
0.0
 30
0.0
 11
-1.0
 21
0.0
 31
0.0
  0
LINE
  5
39
100
AcDbEntity
  8
0
  6
CONTINUOUS
 62
     0
100
AcDbLine
 10
0.0
 20
0.0
 30
0.0
 11
-1.0
 21
0.166667
 31
0.0
  0
LINE
  5
3A
100
AcDbEntity
  8
0
  6
CONTINUOUS
 62
     0
100
AcDbLine
 10
0.0
 20
0.0
 30
0.0
 11
-1.0
 21
-0.166667
 31
0.0
  0
ENDBLK
  5
3B
100
AcDbEntity
  8
0
100
AcDbBlockEnd
  0
BLOCK
  5
3C
100
AcDbEntity
  8
0
100
AcDbBlockBegin
  2
_EX_BNORM
 70
     0
 10
0.0
 20
0.0
 30
0.0
  3
_EX_BNORM
  1

  0
LINE
  5
3D
100
AcDbEntity
  8
0
  6
CONTINUOUS
 62
     0
100
AcDbLine
 10
0.0
 20
0.0
 30
0.0
 11
-1.0
 21
0.0
 31
0.0
  0
LINE
  5
3E
100
AcDbEntity
  8
0
  6
CONTINUOUS
 62
     0
100
AcDbLine
 10
0.0
 20
0.0
 30
0.0
 11
-1.0
 21
0.166667
 31
0.0
  0
LINE
  5
3F
100
AcDbEntity
  8
0
  6
CONTINUOUS
 62
     0
100
AcDbLine
 10
0.0
 20
0.0
 30
0.0
 11
-1.0
 21
-0.166667
 31
0.0
  0
LINE
  5
40
100
AcDbEntity
  8
0
  6
CONTINUOUS
 62
     0
100
AcDbLine
 10
0.0
 20
0.0
 30
0.0
 11
-1.0
 21
0.083333
 31
0.0
  0
LINE
  5
41
100
AcDbEntity
  8
0
  6
CONTINUOUS
 62
     0
100
AcDbLine
 10
0.0
 20
0.0
 30
0.0
 11
-1.0
 21
-0.083333
 31
0.0
  0
LINE
  5
42
100
AcDbEntity
  8
0
  6
CONTINUOUS
 62
     0
100
AcDbLine
 10
-1.0
 20
0.166667
 30
0.0
 11
-1.0
 21
-0.166667
 31
0.0
  0
ENDBLK
  5
43
100
AcDbEntity
  8
0
100
AcDbBlockEnd
  0
BLOCK
  5
44
100
AcDbEntity
  8
0
100
AcDbBlockBegin
  2
_EX_BCIR
 70
     0
 10
0.0
 20
0.0
 30
0.0
  3
_EX_BCIR
  1

  0
LINE
  5
45
100
AcDbEntity
  8
0
  6
CONTINUOUS
 62
     0
100
AcDbLine
 10
0.0
 20
0.0
 30
0.0
 11
-1.0
 21
0.0
 31
0.0
  0
CIRCLE
  5
46
100
AcDbEntity
  8
0
  6
CONTINUOUS
 62
     0
100
AcDbCircle
 10
0.0
 20
0.0
 30
0.0
 40
0.5
  0
CIRCLE
  5
47
100
AcDbEntity
  8
0
  6
CONTINUOUS
 62
     0
100
AcDbCircle
 10
0.0
 20
0.0
 30
0.0
 40
0.25
  0
ENDBLK
  5
48
100
AcDbEntity
  8
0
100
AcDbBlockEnd
  0
BLOCK
  5
49
100
AcDbEntity
  8
0
100
AcDbBlockBegin
  2
_EX_RCIVIL
 70
     0
 10
0.0
 20
0.0
 30
0.0
  3
_EX_RCIVIL
  1

  0
LINE
  5
4A
100
AcDbEntity
  8
0
  6
CONTINUOUS
 62
     0
100
AcDbLine
 10
0.0
 20
0.0
 30
0.0
 11
-1.0
 21
0.0
 31
0.0
  0
LINE
  5
4B
100
AcDbEntity
  8
0
  6
CONTINUOUS
 62
     0
100
AcDbLine
 10
-1.0
 20
-0.25
 30
0.0
 11
0.0
 21
-0.25
 31
0.0
  0
LINE
  5
4C
100
AcDbEntity
  8
0
  6
CONTINUOUS
 62
     0
100
AcDbLine
 10
-1.0
 20
-0.125
 30
0.0
 11
0.0
 21
-0.125
 31
0.0
  0
ENDBLK
  5
4D
100
AcDbEntity
  8
0
100
AcDbBlockEnd
  0
BLOCK
  5
4E
100
AcDbEntity
  8
0
100
AcDbBlockBegin
  2
_EX_SLANT
 70
     0
 10
0.0
 20
0.0
 30
0.0
  3
_EX_SLANT
  1

  0
LINE
  5
4F
100
AcDbEntity
  8
0
  6
CONTINUOUS
 62
     0
100
AcDbLine
 10
0.0
 20
0.0
 30
0.0
 11
-1.0
 21
0.0
 31
0.0
  0
LINE
  5
50
100
AcDbEntity
  8
0
  6
CONTINUOUS
 62
     0
100
AcDbLine
 10
0.707107
 20
0.707107
 30
0.0
 11
-0.707107
 21
-0.707107
 31
0.0
  0
ENDBLK
  5
51
100
AcDbEntity
  8
0
100
AcDbBlockEnd
  0
BLOCK
  5
52
100
AcDbEntity
  8
0
100
AcDbBlockBegin
  2
_EX_NONE
 70
     0
 10
0.0
 20
0.0
 30
0.0
  3
_EX_NONE
  1

  0
LINE
  5
53
100
AcDbEntity
  8
0
  6
CONTINUOUS
 62
     0
100
AcDbLine
 10
0.0
 20
0.0
 30
0.0
 11
-1.0
 21
0.0
 31
0.0
  0
ENDBLK
  5
54
100
AcDbEntity
  8
0
100
AcDbBlockEnd
  0
BLOCK
  5
55
100
AcDbEntity
  8
0
100
AcDbBlockBegin
  2
_EX_CIVIL
 70
     0
 10
0.0
 20
0.0
 30
0.0
  3
_EX_CIVIL
  1

  0
LINE
  5
56
100
AcDbEntity
  8
0
  6
CONTINUOUS
 62
     0
100
AcDbLine
 10
0.0
 20
0.0
 30
0.0
 11
-1.0
 21
0.0
 31
0.0
  0
LINE
  5
57
100
AcDbEntity
  8
0
  6
CONTINUOUS
 62
     0
100
AcDbLine
 10
-1.0
 20
0.25
 30
0.0
 11
0.0
 21
0.25
 31
0.0
  0
LINE
  5
58
100
AcDbEntity
  8
0
  6
CONTINUOUS
 62
     0
100
AcDbLine
 10
-1.0
 20
0.125
 30
0.0
 11
0.0
 21
0.125
 31
0.0
  0
ENDBLK
  5
59
100
AcDbEntity
  8
0
100
AcDbBlockEnd
  0
BLOCK
  5
5A
100
AcDbEntity
  8
0
100
AcDbBlockBegin
  2
_EX_WCIR
 70
     0
 10
0.0
 20
0.0
 30
0.0
  3
_EX_WCIR
  1

  0
LINE
  5
5B
100
AcDbEntity
  8
0
  6
CONTINUOUS
 62
     0
100
AcDbLine
 10
0.0
 20
0.0
 30
0.0
 11
-1.0
 21
0.0
 31
0.0
  0
CIRCLE
  5
5C
100
AcDbEntity
  8
0
  6
CONTINUOUS
 62
     0
100
AcDbCircle
 10
0.0
 20
0.0
 30
0.0
 40
0.5
  0
ENDBLK
  5
5D
100
AcDbEntity
  8
0
100
AcDbBlockEnd
  0
BLOCK
  5
5E
100
AcDbEntity
  8
0
100
AcDbBlockBegin
  2
_EX_WCIR2
 70
     0
 10
0.0
 20
0.0
 30
0.0
  3
_EX_WCIR2
  1

  0
LINE
  5
5F
100
AcDbEntity
  8
0
  6
CONTINUOUS
 62
     0
100
AcDbLine
 10
-0.5
 20
0.0
 30
0.0
 11
-1.0
 21
0.0
 31
0.0
  0
CIRCLE
  5
60
100
AcDbEntity
  8
0
  6
CONTINUOUS
 62
     0
100
AcDbCircle
 10
0.0
 20
0.0
 30
0.0
 40
0.5
  0
ENDBLK
  5
61
100
AcDbEntity
  8
0
100
AcDbBlockEnd
  0
BLOCK
  5
62
100
AcDbEntity
  8
0
100
AcDbBlockBegin
  2
_EX_WNORM
 70
     0
 10
0.0
 20
0.0
 30
0.0
  3
_EX_WNORM
  1

  0
LINE
  5
63
100
AcDbEntity
  8
0
  6
CONTINUOUS
 62
     0
100
AcDbLine
 10
-1.0
 20
0.0
 30
0.0
 11
-1.0
 21
0.0
 31
0.0
  0
LINE
  5
64
100
AcDbEntity
  8
0
  6
CONTINUOUS
 62
     0
100
AcDbLine
 10
0.0
 20
0.0
 30
0.0
 11
-1.0
 21
0.166667
 31
0.0
  0
LINE
  5
65
100
AcDbEntity
  8
0
  6
CONTINUOUS
 62
     0
100
AcDbLine
 10
0.0
 20
0.0
 30
0.0
 11
-1.0
 21
-0.166667
 31
0.0
  0
LINE
  5
66
100
AcDbEntity
  8
0
  6
CONTINUOUS
 62
     0
100
AcDbLine
 10
-1.0
 20
0.166667
 30
0.0
 11
-1.0
 21
-0.166667
 31
0.0
  0
ENDBLK
  5
67
100
AcDbEntity
  8
0
100
AcDbBlockEnd
  0
BLOCK
  5
68
100
AcDbEntity
  8
0
100
AcDbBlockBegin
  2
_EX_NNORM
 70
     0
 10
0.0
 20
0.0
 30
0.0
  3
_EX_NNORM
  1

  0
LINE
  5
69
100
AcDbEntity
  8
0
  6
CONTINUOUS
 62
     0
100
AcDbLine
 10
0.0
 20
0.0
 30
0.0
 11
-1.0
 21
0.0
 31
0.0
  0
LINE
  5
6A
100
AcDbEntity
  8
0
  6
CONTINUOUS
 62
     0
100
AcDbLine
 10
0.0
 20
0.0
 30
0.0
 11
-1.0
 21
0.166667
 31
0.0
  0
LINE
  5
6B
100
AcDbEntity
  8
0
  6
CONTINUOUS
 62
     0
100
AcDbLine
 10
0.0
 20
0.0
 30
0.0
 11
-1.0
 21
-0.166667
 31
0.0
  0
LINE
  5
6C
100
AcDbEntity
  8
0
  6
CONTINUOUS
 62
     0
100
AcDbLine
 10
-1.0
 20
0.166667
 30
0.0
 11
-1.0
 21
-0.166667
 31
0.0
  0
ENDBLK
  5
6D
100
AcDbEntity
  8
0
100
AcDbBlockEnd
  0
BLOCK
  5
6E
100
AcDbEntity
  8
0
100
AcDbBlockBegin
  2
_EX_BBOX
 70
     0
 10
0.0
 20
0.0
 30
0.0
  3
_EX_BBOX
  1

  0
LINE
  5
6F
100
AcDbEntity
  8
0
  6
CONTINUOUS
 62
     0
100
AcDbLine
 10
0.0
 20
0.0
 30
0.0
 11
-1.0
 21
0.0
 31
0.0
  0
LINE
  5
70
100
AcDbEntity
  8
0
  6
CONTINUOUS
 62
     0
100
AcDbLine
 10
-0.5
 20
0.5
 30
0.0
 11
0.5
 21
0.5
 31
0.0
  0
LINE
  5
71
100
AcDbEntity
  8
0
  6
CONTINUOUS
 62
     0
100
AcDbLine
 10
0.5
 20
0.5
 30
0.0
 11
0.5
 21
-0.5
 31
0.0
  0
LINE
  5
72
100
AcDbEntity
  8
0
  6
CONTINUOUS
 62
     0
100
AcDbLine
 10
0.5
 20
-0.5
 30
0.0
 11
-0.5
 21
-0.5
 31
0.0
  0
LINE
  5
73
100
AcDbEntity
  8
0
  6
CONTINUOUS
 62
     0
100
AcDbLine
 10
-0.5
 20
-0.5
 30
0.0
 11
-0.5
 21
0.5
 31
0.0
  0
LINE
  5
74
100
AcDbEntity
  8
0
  6
CONTINUOUS
 62
     0
100
AcDbLine
 10
-0.25
 20
0.25
 30
0.0
 11
0.25
 21
0.25
 31
0.0
  0
LINE
  5
75
100
AcDbEntity
  8
0
  6
CONTINUOUS
 62
     0
100
AcDbLine
 10
0.25
 20
0.25
 30
0.0
 11
0.25
 21
-0.25
 31
0.0
  0
LINE
  5
76
100
AcDbEntity
  8
0
  6
CONTINUOUS
 62
     0
100
AcDbLine
 10
0.25
 20
-0.25
 30
0.0
 11
-0.25
 21
-0.25
 31
0.0
  0
LINE
  5
77
100
AcDbEntity
  8
0
  6
CONTINUOUS
 62
     0
100
AcDbLine
 10
-0.25
 20
-0.25
 30
0.0
 11
-0.25
 21
0.25
 31
0.0
  0
ENDBLK
  5
78
100
AcDbEntity
  8
0
100
AcDbBlockEnd
  0
BLOCK
  5
79
100
AcDbEntity
  8
0
100
AcDbBlockBegin
  2
_EX_WBOX
 70
     0
 10
0.0
 20
0.0
 30
0.0
  3
_EX_WBOX
  1

  0
LINE
  5
7A
100
AcDbEntity
  8
0
  6
CONTINUOUS
 62
     0
100
AcDbLine
 10
-0.5
 20
0.0
 30
0.0
 11
-1.0
 21
0.0
 31
0.0
  0
LINE
  5
7B
100
AcDbEntity
  8
0
  6
CONTINUOUS
 62
     0
100
AcDbLine
 10
-0.5
 20
0.5
 30
0.0
 11
0.5
 21
0.5
 31
0.0
  0
LINE
  5
7C
100
AcDbEntity
  8
0
  6
CONTINUOUS
 62
     0
100
AcDbLine
 10
0.5
 20
0.5
 30
0.0
 11
0.5
 21
-0.5
 31
0.0
  0
LINE
  5
7D
100
AcDbEntity
  8
0
  6
CONTINUOUS
 62
     0
100
AcDbLine
 10
0.5
 20
-0.5
 30
0.0
 11
-0.5
 21
-0.5
 31
0.0
  0
LINE
  5
7E
100
AcDbEntity
  8
0
  6
CONTINUOUS
 62
     0
100
AcDbLine
 10
-0.5
 20
-0.5
 30
0.0
 11
-0.5
 21
0.5
 31
0.0
  0
ENDBLK
  5
7F
100
AcDbEntity
  8
0
100
AcDbBlockEnd
  0
BLOCK
  5
80
100
AcDbEntity
  8
0
100
AcDbBlockBegin
  2
_EX_INTEGRAL
 70
     0
 10
0.0
 20
0.0
 30
0.0
  3
_EX_INTEGRAL
  1

  0
LINE
  5
81
100
AcDbEntity
  8
0
  6
CONTINUOUS
 62
     0
100
AcDbLine
 10
0.0
 20
0.0
 30
0.0
 11
-1.0
 21
0.0
 31
0.0
  0
ARC
  5
82
100
AcDbEntity
  8
0
  6
CONTINUOUS
 62
     0
100
AcDbCircle
 10
0.542115
 20
0.164992
 30
0.0
 40
0.56667
100
AcDbArc
 50
73.07249
 51
196.927513
  0
ARC
  5
83
100
AcDbEntity
  8
0
  6
CONTINUOUS
 62
     0
100
AcDbCircle
 10
-0.542115
 20
-0.164992
 30
0.0
 40
0.56667
100
AcDbArc
 50
253.072487
 51
16.927513
  0
ENDBLK
  5
84
100
AcDbEntity
  8
0
100
AcDbBlockEnd
  0
BLOCK
  5
85
100
AcDbEntity
  8
0
100
AcDbBlockBegin
  2
SYM-1
 70
     0
 10
0.0
 20
0.0
 30
0.0
  3
SYM-1
  1

  0
HATCH
  5
86
100
AcDbEntity
  8
0
  6
CONTINUOUS
 62
     3
100
AcDbHatch
 10
0.0
 20
0.0
 30
0.0
210
0.0
220
0.0
230
1.0
  2
SOLID
 70
     1
 71
     1
 91
        1
 92
        1
 93
       16
 72
     1
 10
24.351152239011505
 20
-2.0357142857144446
 11
25.613295096154353
 21
-2.0357142857144446
 72
     1
 10
25.613295096154353
 20
-2.0357142857144446
 11
25.613295096154353
 21
-2.8500000000001648
 72
     1
 10
25.613295096154353
 20
-2.8500000000001648
 11
22.23400938186861
 21
-2.8500000000001648
 72
     1
 10
22.23400938186861
 20
-2.8500000000001648
 11
22.23400938186861
 21
-2.0357142857144446
 72
     1
 10
22.23400938186861
 20
-2.0357142857144446
 11
23.536866524725802
 21
-2.0357142857144446
 72
     1
 10
23.536866524725802
 20
-2.0357142857144446
 11
23.536866524725802
 21
0.3257142857141346
 72
     1
 10
23.536866524725802
 20
0.3257142857141346
 11
22.519009381868621
 21
0.3257142857141346
 72
     1
 10
22.519009381868621
 20
0.3257142857141346
 11
22.519009381868621
 21
1.1399999999998514
 72
     1
 10
22.519009381868621
 20
1.1399999999998514
 11
23.536866524725802
 21
1.1399999999998514
 72
     1
 10
23.536866524725802
 20
1.1399999999998514
 11
23.536866524725802
 21
2.8499999999998487
 72
     1
 10
23.536866524725802
 20
2.8499999999998487
 11
24.351152239011505
 21
2.8499999999998487
 72
     1
 10
24.351152239011505
 20
2.8499999999998487
 11
24.351152239011505
 21
1.1399999999998514
 72
     1
 10
24.351152239011505
 20
1.1399999999998514
 11
25.531866524725821
 21
1.1399999999998514
 72
     1
 10
25.531866524725821
 20
1.1399999999998514
 11
25.531866524725821
 21
0.3257142857141346
 72
     1
 10
25.531866524725821
 20
0.3257142857141346
 11
24.351152239011505
 21
0.3257142857141346
 72
     1
 10
24.351152239011505
 20
0.3257142857141346
 11
24.351152239011505
 21
-2.0357142857144446
 97
        0
 75
     0
 76
     1
 98
        1
 10
0.0
 20
0.0
  0
HATCH
  5
87
100
AcDbEntity
  8
0
  6
CONTINUOUS
 62
     3
100
AcDbHatch
 10
0.0
 20
0.0
 30
0.0
210
0.0
220
0.0
230
1.0
  2
SOLID
 70
     1
 71
     1
 91
        1
 92
        1
 93
       17
 72
     2
 10
15.796286246552746
 20
4.4303755974531924
 40
7.328571428571454
 50
44.165469
 51
51.472792
 73
     0
 72
     1
 10
20.361152239011439
 20
-1.3028571428572775
 11
19.948878200429583
 21
-0.5887775613918898
 72
     2
 10
15.796286246552746
 20
4.4303755974531924
 40
6.5142857142857364
 50
309.602625
 51
331.307968
 73
     1
 72
     1
 10
21.510701937024301
 20
1.3028571428570004
 11
20.157580810440017
 21
1.3028571428570004
 72
     1
 10
20.157580810440017
 20
1.3028571428570004
 11
20.157580810440017
 21
2.0357142857141319
 72
     1
 10
20.157580810440017
 20
2.0357142857141319
 11
21.053295096154336
 21
2.0357142857141319
 72
     1
 10
21.053295096154336
 20
2.0357142857141319
 11
21.053295096154336
 21
2.8499999999998487
 72
     1
 10
21.053295096154336
 20
2.8499999999998487
 11
21.786152239011507
 21
2.8499999999998487
 72
     1
 10
21.786152239011507
 20
2.8499999999998487
 11
21.786152239011507
 21
2.0357142857141319
 72
     1
 10
21.786152239011507
 20
2.0357142857141319
 11
22.722580810439986
 21
2.0357142857141319
 72
     2
 10
15.796286246552746
 20
4.4303755974531924
 40
7.328571428571454
 50
19.072051
 51
32.871988
 73
     0
 72
     1
 10
21.951445818831196
 20
0.4526916201288422
 11
22.926152239011437
 21
-0.4885714285715821
 72
     1
 10
22.926152239011437
 20
-0.4885714285715821
 11
22.350277580116831
 21
-1.0644460874662265
 72
     1
 10
22.350277580116831
 20
-1.0644460874662265
 11
21.786152239011507
 21
-0.5196765779765897
 72
     1
 10
21.786152239011507
 20
-0.5196765779765897
 11
21.786152239011507
 21
-2.8500000000001648
 72
     1
 10
21.786152239011507
 20
-2.8500000000001648
 11
21.053295096154336
 21
-2.8500000000001648
 72
     1
 10
21.053295096154336
 20
-2.8500000000001648
 11
21.053295096154336
 21
-0.6756813096801793
 97
        0
 75
     0
 76
     1
 98
        1
 10
0.0
 20
0.0
  0
HATCH
  5
88
100
AcDbEntity
  8
0
  6
CONTINUOUS
 62
     3
100
AcDbHatch
 10
0.0
 20
0.0
 30
0.0
210
0.0
220
0.0
230
1.0
  2
SOLID
 70
     1
 71
     1
 91
        1
 92
        1
 93
       12
 72
     2
 10
26.09465466477446
 20
-6.5604295733743392
 40
11.481428571428609
 50
150.903074
 51
156.790773
 73
     1
 72
     1
 10
15.542396441700383
 20
-2.035714285714505
 11
18.049394029288031
 21
-2.0357142857144055
 72
     2
 10
10.927987441101074
 20
-4.0835590566205937
 40
7.4100000000000241
 50
16.043216
 51
21.362935
 73
     1
 72
     1
 10
17.828858648663306
 20
-1.3842857142858769
 11
18.610437953297115
 21
-1.3842857142858769
 72
     2
 10
10.927987441101074
 20
-4.0835590566205937
 40
8.1428571428571708
 50
340.64078
 51
351.286733
 73
     0
 72
     1
 10
18.976866524725686
 20
-2.8500000000001648
 11
14.457580810439971
 21
-2.8500000000001648
 72
     2
 10
26.09465466477446
 20
-6.5604295733743392
 40
12.214285714285754
 50
197.684652
 51
207.200855
 73
     0
 72
     1
 10
15.231152239011401
 20
-0.9771428571430043
 11
14.091152239011485
 21
-0.9771428571430043
 72
     1
 10
14.091152239011485
 20
-0.9771428571430043
 11
14.091152239011485
 21
-0.162857142857284
 72
     1
 10
14.091152239011485
 20
-0.162857142857284
 11
19.302580810440098
 21
-0.162857142857284
 72
     1
 10
19.302580810440098
 20
-0.162857142857284
 11
19.302580810440098
 21
-0.9771428571430043
 72
     1
 10
19.302580810440098
 20
-0.9771428571430043
 11
16.062201750099412
 21
-0.9771428571430043
 97
        0
 75
     0
 76
     1
 98
        1
 10
0.0
 20
0.0
  0
HATCH
  5
89
100
AcDbEntity
  8
0
  6
CONTINUOUS
 62
     3
100
AcDbHatch
 10
0.0
 20
0.0
 30
0.0
210
0.0
220
0.0
230
1.0
  2
SOLID
 70
     1
 71
     1
 91
        1
 92
        1
 93
       10
 72
     2
 10
26.143491684008573
 20
11.064410217386417
 40
13.028571428571473
 50
129.545698
 51
136.474664
 73
     0
 72
     1
 10
16.696866524725998
 20
2.0919553376225579
 11
16.696866524725998
 21
2.8499999999998487
 72
     1
 10
16.696866524725998
 20
2.8499999999998487
 11
17.104009381868686
 21
2.8499999999998487
 72
     2
 10
26.143491684008573
 20
11.064410217386417
 40
12.214285714285754
 50
222.262231
 51
237.763996
 73
     1
 72
     1
 10
19.628295096154382
 20
0.7328571428570001
 11
19.100346295490944
 21
0.1036722629605507
 72
     2
 10
26.143491684008573
 20
11.064410217386417
 40
13.028571428571473
 50
122.723968
 51
128.230009
 73
     0
 72
     1
 10
18.08115223901148
 20
0.830038905819066
 11
18.08115223901148
 21
0.2035714285712729
 72
     1
 10
18.08115223901148
 20
0.2035714285712729
 11
16.696866524725998
 21
0.2035714285712729
 72
     1
 10
16.696866524725998
 20
0.2035714285712729
 11
16.696866524725998
 21
1.0178571428569896
 72
     1
 10
16.696866524725998
 20
1.0178571428569896
 11
17.848285550942784
 21
1.0178571428569896
 97
        0
 75
     0
 76
     1
 98
        1
 10
0.0
 20
0.0
  0
HATCH
  5
8A
100
AcDbEntity
  8
0
  6
CONTINUOUS
 62
     3
100
AcDbHatch
 10
0.0
 20
0.0
 30
0.0
210
0.0
220
0.0
230
1.0
  2
SOLID
 70
     1
 71
     1
 91
        1
 92
        1
 93
       10
 72
     2
 10
7.2502413654429532
 20
11.064410217386417
 40
13.028571428571473
 50
51.769991
 51
57.276032
 73
     0
 72
     1
 10
14.293386753960569
 20
0.1036722629605329
 11
13.76543795329713
 21
0.7328571428569894
 72
     2
 10
7.2502413654429532
 20
11.064410217386417
 40
12.214285714285754
 50
302.236004
 51
317.737769
 73
     1
 72
     1
 10
16.289723667582841
 20
2.8499999999998487
 11
16.696866524725998
 21
2.8499999999998487
 72
     1
 10
16.696866524725998
 20
2.8499999999998487
 11
16.696866524725998
 21
2.0919553376230482
 72
     2
 10
7.2502413654429532
 20
11.064410217386417
 40
13.028571428571473
 50
43.525336
 51
50.454302
 73
     0
 72
     1
 10
15.545447498508743
 20
1.0178571428569896
 11
16.696866524725998
 21
1.0178571428569896
 72
     1
 10
16.696866524725998
 20
1.0178571428569896
 11
16.696866524725998
 21
0.2035714285712729
 72
     1
 10
16.696866524725998
 20
0.2035714285712729
 11
15.312580810440046
 21
0.2035714285712729
 72
     1
 10
15.312580810440046
 20
0.2035714285712729
 11
15.312580810440046
 21
0.8300389058190589
 97
        0
 75
     0
 76
     1
 98
        1
 10
0.0
 20
0.0
  0
HATCH
  5
8B
100
AcDbEntity
  8
0
  6
CONTINUOUS
 62
     3
100
AcDbHatch
 10
0.0
 20
0.0
 30
0.0
210
0.0
220
0.0
230
1.0
  2
SOLID
 70
     1
 71
     1
 91
        1
 92
        1
 93
       18
 72
     2
 10
1.2571935216656343
 20
-0.8093264034321166
 40
11.400000000000038
 50
14.02954
 51
18.723021
 73
     1
 72
     1
 10
12.053921279331213
 20
2.8499999999998487
 11
12.910437953297141
 21
2.8499999999998487
 72
     2
 10
1.2571935216656343
 20
-0.8093264034321166
 40
12.214285714285754
 50
342.566782
 51
346.922981
 73
     0
 72
     1
 10
13.15472366758285
 20
1.9542857142855716
 11
13.480437953297177
 21
1.9542857142855716
 72
     1
 10
13.480437953297177
 20
1.9542857142855716
 11
13.480437953297177
 21
1.1399999999998407
 72
     1
 10
13.480437953297177
 20
1.1399999999998407
 11
11.958092734747289
 21
1.1399999999998514
 72
     2
 10
20.401866524725683
 20
2.4835714285712918
 40
8.5500000000000291
 50
189.041096
 51
204.65198
 73
     1
 72
     2
 10
14.334076117775972
 20
-0.301141422634494
 40
1.8737206404808271
 50
204.65198
 51
242.897449
 73
     1
 72
     1
 10
13.480437953297177
 20
-1.9691135215345774
 11
13.480437953297177
 21
-2.8500000000001648
 72
     2
 10
14.334076117775972
 20
-0.301141422634494
 40
2.6880063547665438
 50
108.516212
 51
155.34802
 73
     0
 72
     2
 10
20.401866524725683
 20
2.4835714285712918
 40
9.3642857142857441
 50
155.34802
 51
171.750831
 73
     0
 72
     1
 10
11.134468683092756
 20
1.1399999999998549
 11
8.0247236675828972
 21
1.1399999999998407
 72
     1
 10
8.0247236675828972
 20
1.1399999999998407
 11
8.0247236675828972
 21
1.9542857142855716
 72
     1
 10
8.0247236675828972
 20
1.9542857142855716
 11
11.050355927894167
 21
1.9542857142855716
 72
     1
 10
11.050355927894167
 20
1.9542857142855716
 11
11.019076895792274
 21
2.8499999999998487
 72
     1
 10
11.019076895792274
 20
2.8499999999998487
 11
11.833858953292697
 21
2.8499999999998487
 72
     1
 10
11.833858953292697
 20
2.8499999999998487
 11
11.865137985394604
 21
1.9542857142855716
 72
     1
 10
11.865137985394604
 20
1.9542857142855716
 11
12.317141444816265
 21
1.9542857142855716
 97
        0
 75
     0
 76
     1
 98
        1
 10
0.0
 20
0.0
  0
HATCH
  5
8C
100
AcDbEntity
  8
0
  6
CONTINUOUS
 62
     3
100
AcDbHatch
 10
0.0
 20
0.0
 30
0.0
210
0.0
220
0.0
230
1.0
  2
SOLID
 70
     1
 71
     1
 91
        1
 92
        1
 93
       12
 72
     2
 10
5.4617420309248317
 20
38.027820957415145
 40
39.900000000000134
 50
276.500664
 51
278.269357
 73
     1
 72
     1
 10
11.200437953297204
 20
-1.457332823601817
 11
11.20043795329719
 21
-2.2800000000001504
 72
     2
 10
5.4617420309248317
 20
38.027820957415145
 40
40.71428571428585
 50
81.897153
 51
86.39082
 73
     0
 72
     1
 10
8.024723667582883
 20
-2.6057142857144413
 11
8.024723667582883
 21
-1.7897772264302034
 72
     2
 10
5.4617420309248317
 20
38.027820957415145
 40
39.900000000000134
 50
273.682937
 51
275.325087
 73
     1
 72
     1
 10
9.1647236675828836
 20
-1.6999769553635602
 11
9.1647236675828836
 21
-0.4071428571430218
 72
     1
 10
9.1647236675828836
 20
-0.4071428571430218
 11
8.0247236675828972
 21
-0.4071428571430218
 72
     1
 10
8.0247236675828972
 20
-0.4071428571430218
 11
8.0247236675828972
 21
0.4071428571426949
 72
     1
 10
8.0247236675828972
 20
0.4071428571426949
 11
10.95615223901148
 21
0.4071428571426949
 72
     1
 10
10.95615223901148
 20
0.4071428571426949
 11
10.95615223901148
 21
-0.4071428571430218
 72
     1
 10
10.95615223901148
 20
-0.4071428571430218
 11
9.9790093818686287
 21
-0.4071428571430218
 72
     1
 10
9.9790093818686287
 20
-0.4071428571430218
 11
9.9790093818685861
 21
-1.6156437710884397
 97
        0
 75
     0
 76
     1
 98
        1
 10
0.0
 20
0.0
  0
HATCH
  5
8D
100
AcDbEntity
  8
0
  6
CONTINUOUS
 62
     3
100
AcDbHatch
 10
0.0
 20
0.0
 30
0.0
210
0.0
220
0.0
230
1.0
  2
SOLID
 70
     1
 71
     1
 91
        1
 92
        1
 93
       30
 72
     2
 10
-1.8979256098940809
 20
4.1519130391923014
 40
8.9164285714286002
 50
37.940537
 51
46.713808
 73
     0
 72
     1
 10
4.21556076329842
 20
-2.3386942385728418
 11
3.6682950961542744
 21
-1.7914285714286962
 72
     2
 10
-1.8979256098940809
 20
4.1519130391923014
 40
8.1428571428571743
 50
313.123325
 51
325.95222
 73
     1
 72
     1
 10
4.8490093818684983
 20
-0.4071428571430076
 11
3.8718665247257533
 21
-0.4071428571430076
 72
     1
 10
3.8718665247257533
 20
-0.4071428571430076
 11
3.8718665247257533
 21
0.4071428571427092
 72
     1
 10
3.8718665247257533
 20
0.4071428571427092
 11
5.1340093818686157
 21
0.4071428571427092
 72
     1
 10
5.1340093818686157
 20
0.4071428571427092
 11
5.1340093818686157
 21
1.2214285714284152
 72
     1
 10
5.1340093818686157
 20
1.2214285714284152
 11
4.7280236542212677
 21
1.2214285714284152
 72
     2
 10
-3.9789687629962955
 20
2.9438069062169916
 40
8.8757142857143183
 50
11.189535
 51
14.746058
 73
     0
 72
     1
 10
4.6044101437030562
 20
0.6846232869284066
 11
3.9125808104399411
 21
0.9364285714284044
 72
     2
 10
-3.9789687629962955
 20
2.9438069062169916
 40
8.1428571428571743
 50
345.728313
 51
357.620387
 73
     1
 72
     1
 10
4.1568665247257641
 20
2.6057142857165694
 11
4.8844833536651819
 21
2.4774158071570227
 72
     2
 10
-3.9789687629962955
 20
2.9438069062169916
 40
8.8757142857143183
 50
3.012102
 51
6.401006
 73
     0
 72
     1
 10
4.8414139890361767
 20
1.9542857142855716
 11
5.1340093818686157
 21
1.9542857142855716
 72
     1
 10
5.1340093818686157
 20
1.9542857142855716
 11
5.1340093818686157
 21
2.8499999999998487
 72
     1
 10
5.1340093818686157
 20
2.8499999999998487
 11
5.948295096154304
 21
2.8499999999998487
 72
     1
 10
5.948295096154304
 20
2.8499999999998487
 11
5.948295096154304
 21
1.9542857142855716
 72
     1
 10
5.948295096154304
 20
1.9542857142855716
 11
7.0475808104400599
 21
1.9542857142855716
 72
     1
 10
7.0475808104400599
 20
1.9542857142855716
 11
7.0475808104400599
 21
1.2214285714284152
 72
     1
 10
7.0475808104400599
 20
1.2214285714284152
 11
5.948295096154304
 21
1.2214285714284152
 72
     1
 10
5.948295096154304
 20
1.2214285714284152
 11
5.948295096154304
 21
0.4071428571427092
 72
     1
 10
5.948295096154304
 20
0.4071428571427092
 11
7.2104379532971521
 21
0.4071428571427092
 72
     1
 10
7.2104379532971521
 20
0.4071428571427092
 11
7.2104379532971521
 21
-0.4071428571430076
 72
     1
 10
7.2104379532971521
 20
-0.4071428571430076
 11
6.2332950961542579
 21
-0.4071428571430076
 72
     2
 10
12.98023008791683
 20
4.1519130391922907
 40
8.1428571428571743
 50
214.04778
 51
226.876675
 73
     1
 72
     1
 10
7.4140093818684889
 20
-1.7914285714286962
 11
6.866743714724322
 21
-2.3386942385728453
 72
     2
 10
12.98023008791683
 20
4.1519130391922907
 40
8.9164285714286002
 50
133.286192
 51
142.059463
 73
     0
 72
     1
 10
5.948295096154304
 20
-1.330293518482641
 11
5.948295096154304
 21
-2.8500000000001648
 72
     1
 10
5.948295096154304
 20
-2.8500000000001648
 11
5.1340093818686157
 21
-2.8500000000001648
 72
     1
 10
5.1340093818686157
 20
-2.8500000000001648
 11
5.1340093818686157
 21
-1.3302935184824136
 97
        0
 75
     0
 76
     1
 98
        1
 10
0.0
 20
0.0
  0
HATCH
  5
8E
100
AcDbEntity
  8
0
  6
CONTINUOUS
 62
     3
100
AcDbHatch
 10
0.0
 20
0.0
 30
0.0
210
0.0
220
0.0
230
1.0
  2
SOLID
 70
     1
 71
     1
 91
        1
 92
        1
 93
       19
 72
     2
 10
-5.2499698511775321
 20
3.0651230633969284
 40
8.8757142857143165
 50
27.683433
 51
32.280505
 73
     0
 72
     1
 10
2.2539459810095721
 20
-1.6750827617845943
 11
1.6732950961542841
 21
-1.2214285714287314
 72
     2
 10
-5.2499698511775321
 20
3.0651230633969284
 40
8.1428571428571708
 50
328.236207
 51
344.845745
 73
     1
 72
     1
 10
2.6097236675827773
 20
0.9364285714284151
 11
1.8768665247257346
 21
0.9364285714284151
 72
     1
 10
1.8768665247257346
 20
0.9364285714284151
 11
1.8768665247257346
 21
1.7507142857141353
 72
     1
 10
1.8768665247257346
 20
1.7507142857141353
 11
2.6097236675829052
 21
1.7507142857141353
 72
     1
 10
2.6097236675829052
 20
1.7507142857141353
 11
2.6097236675829052
 21
2.8499999999998487
 72
     1
 10
2.6097236675829052
 20
2.8499999999998487
 11
3.4240093818685935
 21
2.8499999999998487
 72
     1
 10
3.4240093818685935
 20
2.8499999999998487
 11
3.4240093818685935
 21
1.7507142857141353
 72
     1
 10
3.4240093818685935
 20
1.7507142857141353
 11
3.7904379532971788
 21
1.7507142857141353
 72
     1
 10
3.7904379532971788
 20
1.7507142857141353
 11
3.7904379532971788
 21
0.9364285714284151
 72
     1
 10
3.7904379532971788
 20
0.9364285714284151
 11
3.4240093818685367
 21
0.9364285714284151
 72
     1
 10
3.4240093818685367
 20
0.9364285714284151
 11
3.8718665247257533
 21
0.2968222855516665
 72
     1
 10
3.8718665247257533
 20
0.2968222855516665
 11
3.8718665247257533
 21
-0.1989042363292235
 72
     1
 10
3.8718665247257533
 20
-0.1989042363292235
 11
3.6275808104399871
 21
-0.4900326139487277
 72
     1
 10
3.6275808104399871
 20
-0.4900326139487277
 11
3.4240093818685935
 21
-0.1993024840048498
 72
     1
 10
3.4240093818685935
 20
-0.1993024840048498
 11
3.4240093818685935
 21
-2.8500000000001648
 72
     1
 10
3.4240093818685935
 20
-2.8500000000001648
 11
2.6097236675829052
 21
-2.8500000000001648
 72
     1
 10
2.6097236675829052
 20
-2.8500000000001648
 11
2.6097236675829052
 21
-1.0584096299120844
 97
        0
 75
     0
 76
     1
 98
        1
 10
0.0
 20
0.0
  0
HATCH
  5
8F
100
AcDbEntity
  8
0
  6
CONTINUOUS
 62
     3
100
AcDbHatch
 10
0.0
 20
0.0
 30
0.0
210
0.0
220
0.0
230
1.0
  2
SOLID
 70
     1
 71
     1
 91
        1
 92
        1
 93
        8
 72
     2
 10
-1.8298808996504405
 20
-0.4560000000002766
 40
1.596000000000013
 50
270.0
 51
330.0
 73
     1
 72
     2
 10
-2.619696067901863
 20
-0.00000000000027
 40
2.508000000000012
 50
330.0
 51
30.0
 73
     1
 72
     2
 10
-1.8298808996504405
 20
0.4559999999997331
 40
1.5960000000000121
 50
30.0
 51
90.0
 73
     1
 72
     1
 10
-1.82988089965
 20
2.0519999999997438
 11
-1.82988089965
 21
2.9639999999999276
 72
     2
 10
-1.8298808996504974
 20
0.4559999999999214
 40
2.508000000000008
 50
270.0
 51
330.0
 73
     0
 72
     2
 10
-2.6196960679017494
 20
-0.0000000000001243
 40
3.420000000000015
 50
330.0
 51
30.0
 73
     0
 72
     2
 10
-1.8298808996503837
 20
-0.456000000000369
 40
2.5080000000000053
 50
30.0
 51
90.0
 73
     0
 72
     1
 10
-1.82988089965
 20
-2.9640000000003752
 11
-1.82988089965
 21
-2.0520000000002909
 97
        0
 75
     0
 76
     1
 98
        1
 10
0.0
 20
0.0
  0
HATCH
  5
90
100
AcDbEntity
  8
0
  6
CONTINUOUS
 62
     3
100
AcDbHatch
 10
0.0
 20
0.0
 30
0.0
210
0.0
220
0.0
230
1.0
  2
SOLID
 70
     1
 71
     1
 91
        1
 92
        1
 93
        8
 72
     2
 10
-1.8298808996503837
 20
-0.456000000000369
 40
2.5080000000000053
 50
90.0
 51
150.0
 73
     0
 72
     2
 10
-1.0400657313991175
 20
-0.0000000000003126
 40
3.4200000000000181
 50
150.0
 51
210.0
 73
     0
 72
     2
 10
-1.8298808996504974
 20
0.4559999999999214
 40
2.508000000000008
 50
210.0
 51
270.0
 73
     0
 72
     1
 10
-1.82988089965
 20
2.9639999999999276
 11
-1.82988089965
 21
2.0519999999997438
 72
     2
 10
-1.8298808996504405
 20
0.4559999999997331
 40
1.5960000000000121
 50
90.0
 51
150.0
 73
     1
 72
     2
 10
-1.040065731399018
 20
-0.00000000000027
 40
2.5080000000000129
 50
150.0
 51
210.0
 73
     1
 72
     2
 10
-1.8298808996504405
 20
-0.4560000000002766
 40
1.596000000000013
 50
210.0
 51
270.0
 73
     1
 72
     1
 10
-1.82988089965
 20
-2.0520000000002909
 11
-1.82988089965
 21
-2.9640000000003752
 97
        0
 75
     0
 76
     1
 98
        1
 10
0.0
 20
0.0
  0
HATCH
  5
91
100
AcDbEntity
  8
0
  6
CONTINUOUS
 62
     3
100
AcDbHatch
 10
0.0
 20
0.0
 30
0.0
210
0.0
220
0.0
230
1.0
  2
SOLID
 70
     1
 71
     1
 91
        1
 92
        1
 93
        4
 72
     1
 10
-5.3638808996504608
 20
-1.0260000000002698
 11
-6.2758808996504385
 21
-1.0260000000002698
 72
     1
 10
-6.2758808996504385
 20
-1.0260000000002698
 11
-6.2758808996504385
 21
-0.1140000000002743
 72
     1
 10
-6.2758808996504385
 20
-0.1140000000002743
 11
-5.3638808996504608
 21
-0.1140000000002743
 72
     1
 10
-5.3638808996504608
 20
-0.1140000000002743
 11
-5.3638808996504608
 21
-1.0260000000003267
 97
        0
 75
     0
 76
     1
 98
        1
 10
0.0
 20
0.0
  0
HATCH
  5
92
100
AcDbEntity
  8
0
  6
CONTINUOUS
 62
     3
100
AcDbHatch
 10
0.0
 20
0.0
 30
0.0
210
0.0
220
0.0
230
1.0
  2
SOLID
 70
     1
 71
     1
 91
        1
 92
        1
 93
       16
 72
     1
 10
-9.6958808996504686
 20
1.9379999999997324
 11
-10.949880899650459
 21
1.9379999999997324
 72
     1
 10
-10.949880899650459
 20
1.9379999999997324
 11
-11.177880899650468
 21
0.6839999999997275
 72
     1
 10
-11.177880899650468
 20
0.6839999999997275
 11
-11.861880899650437
 21
0.6839999999997275
 72
     1
 10
-11.861880899650437
 20
0.6839999999997275
 11
-11.861880899650437
 21
2.8499999999997421
 72
     1
 10
-11.861880899650437
 20
2.8499999999997421
 11
-6.6178808996504515
 21
2.8499999999997421
 72
     1
 10
-6.6178808996504515
 20
2.8499999999997421
 11
-6.6178808996504515
 21
0.6839999999997275
 72
     1
 10
-6.6178808996504515
 20
0.6839999999997275
 11
-7.3018808996504205
 21
0.6839999999997275
 72
     1
 10
-7.3018808996504205
 20
0.6839999999997275
 11
-7.5298808996504292
 21
1.9379999999997324
 72
     1
 10
-7.5298808996504292
 20
1.9379999999997324
 11
-8.7838808996504767
 21
1.9379999999997324
 72
     1
 10
-8.7838808996504767
 20
1.9379999999997324
 11
-8.7838808996504341
 21
-1.9380000000002759
 72
     1
 10
-8.7838808996504341
 20
-1.9380000000002759
 11
-7.8718808996504421
 21
-2.1660000000002846
 72
     1
 10
-7.8718808996504421
 20
-2.1660000000002846
 11
-7.8718808996504421
 21
-2.8500000000002856
 72
     1
 10
-7.8718808996504421
 20
-2.8500000000002856
 11
-10.607880899650446
 21
-2.8500000000002856
 72
     1
 10
-10.607880899650446
 20
-2.8500000000002856
 11
-10.607880899650446
 21
-2.1660000000002846
 72
     1
 10
-10.607880899650446
 20
-2.1660000000002846
 11
-9.6958808996504686
 21
-1.9380000000002759
 72
     1
 10
-9.6958808996504686
 20
-1.9380000000002759
 11
-9.6958808996504686
 21
1.9379999999997324
 97
        0
 75
     0
 76
     1
 98
        1
 10
0.0
 20
0.0
  0
HATCH
  5
93
100
AcDbEntity
  8
0
  6
CONTINUOUS
 62
     3
100
AcDbHatch
 10
0.0
 20
0.0
 30
0.0
210
0.0
220
0.0
230
1.0
  2
SOLID
 70
     1
 71
     1
 91
        1
 92
        1
 93
        4
 72
     1
 10
-13.115880899650485
 20
-1.0260000000002698
 11
-13.115880899650428
 21
-0.1140000000002175
 72
     1
 10
-13.115880899650428
 20
-0.1140000000002175
 11
-12.20388089965045
 21
-0.1140000000002743
 72
     1
 10
-12.20388089965045
 20
-0.1140000000002743
 11
-12.20388089965045
 21
-1.0260000000002698
 72
     1
 10
-12.20388089965045
 20
-1.0260000000002698
 11
-13.115880899650428
 21
-1.0260000000002698
 97
        0
 75
     0
 76
     1
 98
        1
 10
0.0
 20
0.0
  0
HATCH
  5
94
100
AcDbEntity
  8
0
  6
CONTINUOUS
 62
     3
100
AcDbHatch
 10
0.0
 20
0.0
 30
0.0
210
0.0
220
0.0
230
1.0
  2
SOLID
 70
     1
 71
     1
 91
        1
 92
        1
 93
       12
 72
     1
 10
-14.141880899650467
 20
2.8499999999997421
 11
-14.141880899650467
 21
2.1659999999997304
 72
     1
 10
-14.141880899650467
 20
2.1659999999997304
 11
-15.053880899650444
 21
1.9379999999997324
 72
     1
 10
-15.053880899650444
 20
1.9379999999997324
 11
-15.053880899650444
 21
-1.9380000000002759
 72
     1
 10
-15.053880899650444
 20
-1.9380000000002759
 11
-14.141880899650467
 21
-2.1660000000002846
 72
     1
 10
-14.141880899650467
 20
-2.1660000000002846
 11
-14.141880899650467
 21
-2.8500000000002856
 72
     1
 10
-14.141880899650467
 20
-2.8500000000002856
 11
-16.877880899650467
 21
-2.8500000000002856
 72
     1
 10
-16.877880899650467
 20
-2.8500000000002856
 11
-16.877880899650467
 21
-2.1660000000002846
 72
     1
 10
-16.877880899650467
 20
-2.1660000000002846
 11
-15.965880899650482
 21
-1.9380000000002759
 72
     1
 10
-15.965880899650482
 20
-1.9380000000002759
 11
-15.965880899650482
 21
1.9379999999997324
 72
     1
 10
-15.965880899650482
 20
1.9379999999997324
 11
-16.877880899650467
 21
2.165999999999741
 72
     1
 10
-16.877880899650467
 20
2.165999999999741
 11
-16.877880899650467
 21
2.8499999999997421
 72
     1
 10
-16.877880899650467
 20
2.8499999999997421
 11
-14.141880899650467
 21
2.8499999999997421
 97
        0
 75
     0
 76
     1
 98
        1
 10
0.0
 20
0.0
  0
HATCH
  5
95
100
AcDbEntity
  8
0
  6
CONTINUOUS
 62
     3
100
AcDbHatch
 10
0.0
 20
0.0
 30
0.0
210
0.0
220
0.0
230
1.0
  2
SOLID
 70
     1
 71
     1
 91
        1
 92
        1
 93
       15
 72
     2
 10
-23.082241990843084
 20
-0.0000000000001492
 40
2.531053105310535
 50
124.301153
 51
180.0
 73
     0
 72
     1
 10
-25.613295096153617
 20
0.0
 11
-24.658234262528236
 21
0.0
 72
     2
 10
-22.195587997901765
 20
-0.000000000000135
 40
2.46264626462647
 50
180.0
 51
199.464384
 73
     1
 72
     2
 10
-24.557343260027135
 20
0.2731786481661374
 40
1.094509450945121
 50
272.086657
 51
294.619977
 73
     1
 72
     2
 10
-24.243863734539655
 20
-0.4108897586745677
 40
0.342034203420344
 50
294.619977
 51
0.0
 73
     1
 72
     1
 10
-23.901829531119287
 20
-0.4108897586745677
 11
-23.901829531119287
 21
0.0
 72
     1
 10
-23.901829531119287
 20
0.0
 11
-23.080947442910482
 21
0.0
 72
     1
 10
-23.080947442910482
 20
0.0
 11
-23.080947442910482
 21
-0.4116155274721614
 72
     2
 10
-22.73891323949012
 20
-0.4116155274721614
 40
0.34203420342033
 50
180.0
 51
245.380023
 73
     1
 72
     2
 10
-22.425433714002583
 20
0.2724528793686645
 40
1.0945094509452411
 50
245.380023
 51
267.913343
 73
     1
 72
     1
 10
-22.465285876753814
 20
-0.8213308027789985
 11
-22.465285876753814
 21
-1.0265513248311819
 72
     1
 10
-22.465285876753814
 20
-1.0265513248311819
 11
-24.434073870576871
 21
-1.0265513248311962
 72
     2
 10
-22.195587997901708
 20
-0.000000000000135
 40
2.4626462646264669
 50
204.635803
 51
268.19864
 73
     1
 72
     1
 10
-22.272999999999005
 20
-2.4614292609397985
 11
-22.272999999999005
 21
-2.8039503813289706
 72
     2
 10
-22.195587997901765
 20
1.2997299729972909
 40
4.1044104410441236
 50
91.080702
 51
124.301153
 73
     0
 97
        0
 75
     0
 76
     1
 98
        1
 10
0.0
 20
0.0
  0
HATCH
  5
96
100
AcDbEntity
  8
0
  6
CONTINUOUS
 62
     3
100
AcDbHatch
 10
0.0
 20
0.0
 30
0.0
210
0.0
220
0.0
230
1.0
  2
SOLID
 70
     1
 71
     1
 91
        1
 92
        1
 93
       24
 72
     2
 10
-22.67055612196938
 20
0.3420342034202015
 40
0.342034203420347
 50
90.0
 51
157.380135
 73
     1
 72
     2
 10
-21.849674033760575
 20
-0.0000000000001101
 40
1.231323132313237
 50
157.380135
 51
180.0
 73
     1
 72
     1
 10
-23.080997166073811
 20
0.0
 11
-23.901829531119287
 21
0.0
 72
     1
 10
-23.901829531119287
 20
0.0
 11
-23.901829531119287
 21
1.7757720729310194
 72
     2
 10
-22.195587997901765
 20
-0.000000000000135
 40
2.46264626462647
 50
133.856042
 51
180.0
 73
     1
 72
     1
 10
-24.658234262528236
 20
0.0
 11
-25.613295096153617
 21
0.0
 72
     2
 10
-23.082241990843084
 20
-0.0000000000001492
 40
2.531053105310535
 50
180.0
 51
235.698847
 73
     0
 72
     2
 10
-22.195587997901708
 20
-1.2997299729975893
 40
4.1044104410441324
 50
235.698847
 51
245.436008
 73
     0
 72
     1
 10
-23.901829531119287
 20
2.4332212587861193
 11
-23.901829531119287
 21
2.8049575222742433
 72
     2
 10
-24.243863734539655
 20
2.8049575222742433
 40
0.3420342034203421
 50
0.0
 51
65.380023
 73
     1
 72
     2
 10
-24.557343260027135
 20
2.1208891154335525
 40
1.0945094509450961
 50
65.380023
 51
87.913343
 73
     1
 72
     1
 10
-24.517491097275904
 20
3.2146727975810734
 11
-24.517491097275904
 21
3.4198933196332746
 72
     1
 10
-24.517491097275904
 20
3.4198933196332746
 11
-22.465285876753814
 21
3.4198933196332746
 72
     1
 10
-22.465285876753814
 20
3.4198933196332746
 11
-22.465285876753814
 21
3.2146727975810769
 72
     2
 10
-22.425433714002583
 20
2.1208891154335525
 40
1.094509450945101
 50
92.086657
 51
114.619977
 73
     1
 72
     2
 10
-22.738913239490063
 20
2.8049575222742575
 40
0.342034203420347
 50
114.619977
 51
180.0
 73
     1
 72
     1
 10
-23.080947442910432
 20
2.8049575222742433
 11
-23.080947442910432
 21
2.7080529205341897
 72
     2
 10
-22.195587997901765
 20
-1.2997299729975893
 40
4.1044104410441218
 50
257.542857
 51
268.919298
 73
     0
 72
     1
 10
-22.272999999999005
 20
2.8039503813286721
 11
-22.272999999999005
 21
2.4614292609395321
 72
     2
 10
-22.195587997901708
 20
-0.000000000000135
 40
2.46264626462647
 50
91.80136
 51
111.070443
 73
     1
 72
     1
 10
-23.080947442910482
 20
2.2979915747913111
 11
-23.080947442910482
 21
1.0261026102608923
 72
     1
 10
-23.080947442910482
 20
1.0261026102608923
 11
-22.272999999998969
 21
1.0261026102608923
 72
     1
 10
-22.272999999998969
 20
1.0261026102608923
 11
-22.272999999999005
 21
0.6840684068405416
 72
     1
 10
-22.272999999999005
 20
0.6840684068405416
 11
-22.67055612196938
 21
0.6840684068405416
 97
        0
 75
     0
 76
     1
 98
        1
 10
0.0
 20
0.0
  0
HATCH
  5
97
100
AcDbEntity
  8
0
  6
CONTINUOUS
 62
     3
100
AcDbHatch
 10
0.0
 20
0.0
 30
0.0
210
0.0
220
0.0
230
1.0
  2
SOLID
 70
     1
 71
     1
 91
        1
 92
        1
 93
       14
 72
     2
 10
-22.195587997901765
 20
-0.000000000000135
 40
2.4626462646264748
 50
0.0
 51
9.281799
 73
     1
 72
     2
 10
-20.102741104833992
 20
0.3420342034202015
 40
0.34203420342034
 50
9.281799
 51
90.0
 73
     1
 72
     1
 10
-20.102741104833992
 20
0.6840684068405416
 11
-20.827451184220411
 21
0.6840684068405416
 72
     1
 10
-20.827451184220411
 20
0.6840684068405416
 11
-20.827451184220411
 21
0.0
 72
     1
 10
-20.827451184220411
 20
0.0
 11
-21.648333272429209
 21
0.0
 72
     1
 10
-21.648333272429209
 20
0.0
 11
-21.648333272429209
 21
0.6840684068405416
 72
     1
 10
-21.648333272429209
 20
0.6840684068405416
 11
-22.272999999999005
 21
0.6840684068405416
 72
     1
 10
-22.272999999999005
 20
0.6840684068405416
 11
-22.272999999999005
 21
1.0261026102608923
 72
     1
 10
-22.272999999999005
 20
1.0261026102608923
 11
-19.956896402818945
 21
1.0261026102608675
 72
     2
 10
-22.195587997901708
 20
-0.000000000000135
 40
2.46264626462647
 50
24.624318
 51
91.80136
 73
     1
 72
     1
 10
-22.272999999999005
 20
2.4614292609395321
 11
-22.272999999999005
 21
2.8039503813286721
 72
     2
 10
-22.195587997901765
 20
-1.2997299729975893
 40
4.1044104410441218
 50
268.919298
 51
304.301153
 73
     0
 72
     2
 10
-21.308934004960445
 20
-0.0000000000001492
 40
2.5310531053105372
 50
304.301153
 51
0.0
 73
     0
 72
     1
 10
-18.777880899649912
 20
0.0
 11
-19.732941733275293
 21
0.0
 97
        0
 75
     0
 76
     1
 98
        1
 10
0.0
 20
0.0
  0
HATCH
  5
98
100
AcDbEntity
  8
0
  6
CONTINUOUS
 62
     3
100
AcDbHatch
 10
0.0
 20
0.0
 30
0.0
210
0.0
220
0.0
230
1.0
  2
SOLID
 70
     1
 71
     1
 91
        1
 92
        1
 93
       19
 72
     2
 10
-22.195587997901765
 20
-0.000000000000135
 40
2.4626462646264748
 50
303.748989
 51
0.0
 73
     1
 72
     1
 10
-19.732941733275293
 20
0.0
 11
-18.777880899649912
 21
0.0
 72
     2
 10
-21.308934004960445
 20
-0.0000000000001492
 40
2.5310531053105372
 50
0.0
 51
55.698847
 73
     0
 72
     2
 10
-22.195587997901708
 20
1.2997299729973051
 40
4.1044104410441289
 50
55.698847
 51
70.528779
 73
     0
 72
     1
 10
-20.827451184220411
 20
-2.5699453011829512
 11
-20.827451184220411
 21
-2.8054062368445436
 72
     2
 10
-20.485416980800043
 20
-2.8054062368445436
 40
0.342034203420344
 50
180.0
 51
245.380023
 73
     1
 72
     2
 10
-20.171937455312563
 20
-2.1213378300038528
 40
1.094509450945099
 50
245.380023
 51
267.913343
 73
     1
 72
     1
 10
-20.211789618063744
 20
-3.2151215121513772
 11
-20.211789618063744
 21
-3.4203420342035784
 72
     1
 10
-20.211789618063744
 20
-3.4203420342035784
 11
-22.263994838585827
 21
-3.4203420342035784
 72
     1
 10
-22.263994838585827
 20
-3.4203420342035784
 11
-22.263994838585827
 21
-3.2151215121513737
 72
     2
 10
-22.303847001337058
 20
-2.1213378300038528
 40
1.094509450945099
 50
272.086657
 51
294.619977
 73
     1
 72
     2
 10
-21.990367475849578
 20
-2.8054062368445436
 40
0.342034203420344
 50
294.619977
 51
0.0
 73
     1
 72
     1
 10
-21.648333272429209
 20
-2.8054062368445436
 11
-21.648333272429209
 21
-2.7680332125876284
 72
     2
 10
-22.195587997901765
 20
1.2997299729972909
 40
4.1044104410441236
 50
82.337744
 51
91.080702
 73
     0
 72
     1
 10
-22.272999999999005
 20
-2.8039503813289706
 11
-22.272999999999005
 21
-2.4614292609397985
 72
     2
 10
-22.195587997901708
 20
-0.000000000000135
 40
2.4626462646264669
 50
268.19864
 51
282.839588
 73
     1
 72
     1
 10
-21.648333272429209
 20
-2.4010703634269781
 11
-21.648333272429209
 21
0.0
 72
     1
 10
-21.648333272429209
 20
0.0
 11
-20.827451184220411
 21
0.0
 72
     1
 10
-20.827451184220411
 20
0.0
 11
-20.827451184220411
 21
-2.047639686011447
 97
        0
 75
     0
 76
     1
 98
        1
 10
0.0
 20
0.0
  0
ENDBLK
  5
99
100
AcDbEntity
  8
0
100
AcDbBlockEnd
  0
ENDSEC
  0
SECTION
  2
ENTITIES
  0
ARC
  5
9A
100
AcDbEntity
  8
LAY-1
  6
CONTINUOUS
 62
     7
100
AcDbCircle
 10
1042.715922
 20
924.473281
 30
0.0
 40
175.89245
100
AcDbArc
 50
90.0
 51
101.644996
  0
ARC
  5
9B
100
AcDbEntity
  8
LAY-1
  6
CONTINUOUS
 62
     7
100
AcDbCircle
 10
994.672637
 20
1103.773263
 30
0.0
 40
14.375
100
AcDbArc
 50
239.268227
 51
330.731773
  0
ARC
  5
9C
100
AcDbEntity
  8
LAY-1
  6
CONTINUOUS
 62
     7
100
AcDbCircle
 10
1042.715922
 20
924.473281
 30
0.0
 40
175.89245
100
AcDbArc
 50
78.355004
 51
90.0
  0
ARC
  5
9D
100
AcDbEntity
  8
LAY-1
  6
CONTINUOUS
 62
     7
100
AcDbCircle
 10
1090.759207
 20
1103.773263
 30
0.0
 40
14.375
100
AcDbArc
 50
209.268227
 51
300.731773
  0
LINE
  5
9E
100
AcDbEntity
  8
LAY-1
  6
CONTINUOUS
 62
     7
100
AcDbLine
 10
1090.759207
 20
1113.155204
 30
0.0
 11
1082.634207
 21
1108.464234
 31
0.0
  0
LINE
  5
9F
100
AcDbEntity
  8
LAY-1
  6
CONTINUOUS
 62
     7
100
AcDbLine
 10
1098.884207
 20
1108.464234
 30
0.0
 11
1090.759207
 21
1113.155204
 31
0.0
  0
LINE
  5
A0
100
AcDbEntity
  8
LAY-1
  6
CONTINUOUS
 62
     7
100
AcDbLine
 10
1098.884207
 20
1099.082292
 30
0.0
 11
1098.884207
 21
1108.464234
 31
0.0
  0
LINE
  5
A1
100
AcDbEntity
  8
LAY-1
  6
CONTINUOUS
 62
     7
100
AcDbLine
 10
1090.759207
 20
1094.391321
 30
0.0
 11
1098.884207
 21
1099.082292
 31
0.0
  0
LINE
  5
A2
100
AcDbEntity
  8
LAY-1
  6
CONTINUOUS
 62
     7
100
AcDbLine
 10
1082.634207
 20
1099.082292
 30
0.0
 11
1090.759207
 21
1094.391321
 31
0.0
  0
LINE
  5
A3
100
AcDbEntity
  8
LAY-1
  6
CONTINUOUS
 62
     7
100
AcDbLine
 10
1082.634207
 20
1108.464234
 30
0.0
 11
1082.634207
 21
1099.082292
 31
0.0
  0
LINE
  5
A4
100
AcDbEntity
  8
LAY-1
  6
CONTINUOUS
 62
     7
100
AcDbLine
 10
986.547637
 20
1108.464234
 30
0.0
 11
986.547637
 21
1099.082292
 31
0.0
  0
LINE
  5
A5
100
AcDbEntity
  8
LAY-1
  6
CONTINUOUS
 62
     7
100
AcDbLine
 10
986.547637
 20
1099.082292
 30
0.0
 11
994.672637
 21
1094.391321
 31
0.0
  0
LINE
  5
A6
100
AcDbEntity
  8
LAY-1
  6
CONTINUOUS
 62
     7
100
AcDbLine
 10
994.672637
 20
1094.391321
 30
0.0
 11
1002.797637
 21
1099.082292
 31
0.0
  0
LINE
  5
A7
100
AcDbEntity
  8
LAY-1
  6
CONTINUOUS
 62
     7
100
AcDbLine
 10
1002.797637
 20
1099.082292
 30
0.0
 11
1002.797637
 21
1108.464234
 31
0.0
  0
LINE
  5
A8
100
AcDbEntity
  8
LAY-1
  6
CONTINUOUS
 62
     7
100
AcDbLine
 10
1002.797637
 20
1108.464234
 30
0.0
 11
994.672637
 21
1113.155204
 31
0.0
  0
LINE
  5
A9
100
AcDbEntity
  8
LAY-1
  6
CONTINUOUS
 62
     7
100
AcDbLine
 10
994.672637
 20
1113.155204
 30
0.0
 11
986.547637
 21
1108.464234
 31
0.0
  0
ARC
  5
AA
100
AcDbEntity
  8
LAY-1
  6
CONTINUOUS
 62
     7
100
AcDbCircle
 10
1042.715922
 20
924.473281
 30
0.0
 40
175.89245
100
AcDbArc
 50
108.355004
 51
131.644996
  0
ARC
  5
AB
100
AcDbEntity
  8
LAY-1
  6
CONTINUOUS
 62
     7
100
AcDbCircle
 10
911.459226
 20
1055.729977
 30
0.0
 40
14.375
100
AcDbArc
 50
269.268227
 51
0.731773
  0
LINE
  5
AC
100
AcDbEntity
  8
LAY-1
  6
CONTINUOUS
 62
     7
100
AcDbLine
 10
903.334226
 20
1060.420948
 30
0.0
 11
903.334226
 21
1051.039006
 31
0.0
  0
LINE
  5
AD
100
AcDbEntity
  8
LAY-1
  6
CONTINUOUS
 62
     7
100
AcDbLine
 10
903.334226
 20
1051.039006
 30
0.0
 11
911.459226
 21
1046.348035
 31
0.0
  0
LINE
  5
AE
100
AcDbEntity
  8
LAY-1
  6
CONTINUOUS
 62
     7
100
AcDbLine
 10
911.459226
 20
1046.348035
 30
0.0
 11
919.584226
 21
1051.039006
 31
0.0
  0
LINE
  5
AF
100
AcDbEntity
  8
LAY-1
  6
CONTINUOUS
 62
     7
100
AcDbLine
 10
919.584226
 20
1051.039006
 30
0.0
 11
919.584226
 21
1060.420948
 31
0.0
  0
LINE
  5
B0
100
AcDbEntity
  8
LAY-1
  6
CONTINUOUS
 62
     7
100
AcDbLine
 10
919.584226
 20
1060.420948
 30
0.0
 11
911.459226
 21
1065.111919
 31
0.0
  0
LINE
  5
B1
100
AcDbEntity
  8
LAY-1
  6
CONTINUOUS
 62
     7
100
AcDbLine
 10
911.459226
 20
1065.111919
 30
0.0
 11
903.334226
 21
1060.420948
 31
0.0
  0
ARC
  5
B2
100
AcDbEntity
  8
LAY-1
  6
CONTINUOUS
 62
     7
100
AcDbCircle
 10
1042.715922
 20
924.473281
 30
0.0
 40
175.89245
100
AcDbArc
 50
138.355004
 51
161.644996
  0
ARC
  5
B3
100
AcDbEntity
  8
LAY-1
  6
CONTINUOUS
 62
     7
100
AcDbCircle
 10
863.41594
 20
972.516566
 30
0.0
 40
14.375
100
AcDbArc
 50
299.268227
 51
30.731773
  0
ARC
  5
B4
100
AcDbEntity
  8
LAY-1
  6
CONTINUOUS
 62
     7
100
AcDbCircle
 10
863.41594
 20
876.429996
 30
0.0
 40
14.375
100
AcDbArc
 50
329.268227
 51
60.731773
  0
LINE
  5
B5
100
AcDbEntity
  8
LAY-1
  6
CONTINUOUS
 62
     7
100
AcDbLine
 10
938.162487
 20
908.473281
 30
0.0
 11
893.789275
 21
908.473281
 31
0.0
  0
ARC
  5
B6
100
AcDbEntity
  8
LAY-1
  6
CONTINUOUS
 62
     7
100
AcDbCircle
 10
893.789275
 20
903.473281
 30
0.0
 40
5.0
100
AcDbArc
 50
90.0
 51
135.0
  0
LINE
  5
B7
100
AcDbEntity
  8
LAY-1
  6
CONTINUOUS
 62
     7
100
AcDbLine
 10
890.253741
 20
907.008815
 30
0.0
 11
884.182673
 21
900.937747
 31
0.0
  0
ARC
  5
B8
100
AcDbEntity
  8
LAY-1
  6
CONTINUOUS
 62
     7
100
AcDbCircle
 10
880.647139
 20
904.473281
 30
0.0
 40
5.0
100
AcDbArc
 50
270.0
 51
315.0
  0
LINE
  5
B9
100
AcDbEntity
  8
LAY-1
  6
CONTINUOUS
 62
     7
100
AcDbLine
 10
844.284573
 20
899.473281
 30
0.0
 11
880.647139
 21
899.473281
 31
0.0
  0
LINE
  5
BA
100
AcDbEntity
  8
LAY-1
  6
CONTINUOUS
 62
     7
100
AcDbLine
 10
938.162487
 20
940.473281
 30
0.0
 11
893.789275
 21
940.473281
 31
0.0
  0
ARC
  5
BB
100
AcDbEntity
  8
LAY-1
  6
CONTINUOUS
 62
     7
100
AcDbCircle
 10
893.789275
 20
945.473281
 30
0.0
 40
5.0
100
AcDbArc
 50
225.0
 51
270.0
  0
LINE
  5
BC
100
AcDbEntity
  8
LAY-1
  6
CONTINUOUS
 62
     7
100
AcDbLine
 10
890.253741
 20
941.937747
 30
0.0
 11
884.182673
 21
948.008815
 31
0.0
  0
ARC
  5
BD
100
AcDbEntity
  8
LAY-1
  6
CONTINUOUS
 62
     7
100
AcDbCircle
 10
880.647139
 20
944.473281
 30
0.0
 40
5.0
100
AcDbArc
 50
45.0
 51
90.0
  0
LINE
  5
BE
100
AcDbEntity
  8
LAY-1
  6
CONTINUOUS
 62
     7
100
AcDbLine
 10
844.284573
 20
949.473281
 30
0.0
 11
880.647139
 21
949.473281
 31
0.0
  0
LINE
  5
BF
100
AcDbEntity
  8
LAY-1
  6
CONTINUOUS
 62
     7
100
AcDbLine
 10
883.115922
 20
946.19714
 30
0.0
 11
883.115922
 21
902.749422
 31
0.0
  0
LINE
  5
C0
100
AcDbEntity
  8
LAY-1
  6
CONTINUOUS
 62
     7
100
AcDbLine
 10
891.915922
 20
910.749422
 30
0.0
 11
891.915922
 21
938.19714
 31
0.0
  0
ARC
  5
C1
100
AcDbEntity
  8
LAY-1
  6
CONTINUOUS
 62
     7
100
AcDbCircle
 10
1042.715922
 20
924.473281
 30
0.0
 40
175.89245
100
AcDbArc
 50
168.355004
 51
171.828747
  0
ARC
  5
C2
100
AcDbEntity
  8
LAY-1
  6
CONTINUOUS
 62
     7
100
AcDbCircle
 10
1042.715922
 20
924.473281
 30
0.0
 40
175.89245
100
AcDbArc
 50
188.171253
 51
191.644996
  0
LINE
  5
C3
100
AcDbEntity
  8
LAY-1
  6
CONTINUOUS
 62
     7
100
AcDbLine
 10
855.29094
 20
881.120967
 30
0.0
 11
855.29094
 21
871.739025
 31
0.0
  0
LINE
  5
C4
100
AcDbEntity
  8
LAY-1
  6
CONTINUOUS
 62
     7
100
AcDbLine
 10
871.54094
 20
871.739025
 30
0.0
 11
871.54094
 21
881.120967
 31
0.0
  0
LINE
  5
C5
100
AcDbEntity
  8
LAY-1
  6
CONTINUOUS
 62
     7
100
AcDbLine
 10
871.54094
 20
881.120967
 30
0.0
 11
863.41594
 21
885.811938
 31
0.0
  0
LINE
  5
C6
100
AcDbEntity
  8
LAY-1
  6
CONTINUOUS
 62
     7
100
AcDbLine
 10
863.41594
 20
885.811938
 30
0.0
 11
855.29094
 21
881.120967
 31
0.0
  0
LINE
  5
C7
100
AcDbEntity
  8
LAY-1
  6
CONTINUOUS
 62
     7
100
AcDbLine
 10
855.29094
 20
977.207537
 30
0.0
 11
855.29094
 21
967.825595
 31
0.0
  0
LINE
  5
C8
100
AcDbEntity
  8
LAY-1
  6
CONTINUOUS
 62
     7
100
AcDbLine
 10
863.41594
 20
981.898508
 30
0.0
 11
855.29094
 21
977.207537
 31
0.0
  0
LINE
  5
C9
100
AcDbEntity
  8
LAY-1
  6
CONTINUOUS
 62
     7
100
AcDbLine
 10
871.54094
 20
977.207537
 30
0.0
 11
863.41594
 21
981.898508
 31
0.0
  0
LINE
  5
CA
100
AcDbEntity
  8
LAY-1
  6
CONTINUOUS
 62
     7
100
AcDbLine
 10
871.54094
 20
967.825595
 30
0.0
 11
871.54094
 21
977.207537
 31
0.0
  0
LINE
  5
CB
100
AcDbEntity
  8
LAY-1
  6
CONTINUOUS
 62
     7
100
AcDbLine
 10
863.41594
 20
963.134624
 30
0.0
 11
871.54094
 21
967.825595
 31
0.0
  0
LINE
  5
CC
100
AcDbEntity
  8
LAY-1
  6
CONTINUOUS
 62
     7
100
AcDbLine
 10
855.29094
 20
967.825595
 30
0.0
 11
863.41594
 21
963.134624
 31
0.0
  0
ELLIPSE
  5
CD
100
AcDbEntity
  8
LAY-1
  6
CONTINUOUS
 62
     7
100
AcDbEllipse
 10
938.162487
 20
924.473281
 30
0.0
 11
-30.904362819289986
 21
-0.0000000000000237
 31
0.0
210
0.0
220
0.0
230
1.0
 40
0.517726
 41
1.5707963267948966
 42
4.7123889803846897
  0
ARC
  5
CE
100
AcDbEntity
  8
LAY-1
  6
CONTINUOUS
 62
     7
100
AcDbCircle
 10
1042.715922
 20
924.473281
 30
0.0
 40
175.89245
100
AcDbArc
 50
48.355004
 51
71.644996
  0
ARC
  5
CF
100
AcDbEntity
  8
LAY-1
  6
CONTINUOUS
 62
     7
100
AcDbCircle
 10
1173.972618
 20
1055.729977
 30
0.0
 40
14.375
100
AcDbArc
 50
179.268227
 51
270.731773
  0
LINE
  5
D0
100
AcDbEntity
  8
LAY-1
  6
CONTINUOUS
 62
     7
100
AcDbLine
 10
1173.972618
 20
1065.111919
 30
0.0
 11
1165.847618
 21
1060.420948
 31
0.0
  0
LINE
  5
D1
100
AcDbEntity
  8
LAY-1
  6
CONTINUOUS
 62
     7
100
AcDbLine
 10
1182.097618
 20
1060.420948
 30
0.0
 11
1173.972618
 21
1065.111919
 31
0.0
  0
LINE
  5
D2
100
AcDbEntity
  8
LAY-1
  6
CONTINUOUS
 62
     7
100
AcDbLine
 10
1182.097618
 20
1051.039006
 30
0.0
 11
1182.097618
 21
1060.420948
 31
0.0
  0
LINE
  5
D3
100
AcDbEntity
  8
LAY-1
  6
CONTINUOUS
 62
     7
100
AcDbLine
 10
1173.972618
 20
1046.348035
 30
0.0
 11
1182.097618
 21
1051.039006
 31
0.0
  0
LINE
  5
D4
100
AcDbEntity
  8
LAY-1
  6
CONTINUOUS
 62
     7
100
AcDbLine
 10
1165.847618
 20
1051.039006
 30
0.0
 11
1173.972618
 21
1046.348035
 31
0.0
  0
LINE
  5
D5
100
AcDbEntity
  8
LAY-1
  6
CONTINUOUS
 62
     7
100
AcDbLine
 10
1165.847618
 20
1060.420948
 30
0.0
 11
1165.847618
 21
1051.039006
 31
0.0
  0
ARC
  5
D6
100
AcDbEntity
  8
LAY-1
  6
CONTINUOUS
 62
     7
100
AcDbCircle
 10
1042.715922
 20
924.473281
 30
0.0
 40
175.89245
100
AcDbArc
 50
18.355004
 51
41.644996
  0
ARC
  5
D7
100
AcDbEntity
  8
LAY-1
  6
CONTINUOUS
 62
     7
100
AcDbCircle
 10
1222.015903
 20
972.516566
 30
0.0
 40
14.375
100
AcDbArc
 50
149.268227
 51
240.731773
  0
LINE
  5
D8
100
AcDbEntity
  8
LAY-1
  6
CONTINUOUS
 62
     7
100
AcDbLine
 10
1213.890903
 20
977.207537
 30
0.0
 11
1213.890903
 21
967.825595
 31
0.0
  0
LINE
  5
D9
100
AcDbEntity
  8
LAY-1
  6
CONTINUOUS
 62
     7
100
AcDbLine
 10
1230.140903
 20
967.825595
 30
0.0
 11
1230.140903
 21
977.207537
 31
0.0
  0
LINE
  5
DA
100
AcDbEntity
  8
LAY-1
  6
CONTINUOUS
 62
     7
100
AcDbLine
 10
1230.140903
 20
977.207537
 30
0.0
 11
1222.015903
 21
981.898508
 31
0.0
  0
LINE
  5
DB
100
AcDbEntity
  8
LAY-1
  6
CONTINUOUS
 62
     7
100
AcDbLine
 10
1222.015903
 20
981.898508
 30
0.0
 11
1213.890903
 21
977.207537
 31
0.0
  0
ARC
  5
DC
100
AcDbEntity
  8
LAY-1
  6
CONTINUOUS
 62
     7
100
AcDbCircle
 10
1222.015903
 20
876.429996
 30
0.0
 40
14.375
100
AcDbArc
 50
119.268227
 51
210.731773
  0
CIRCLE
  5
DD
100
AcDbEntity
  8
LAY-1
  6
CONTINUOUS
 62
     7
100
AcDbCircle
 10
1207.715922
 20
924.473281
 30
0.0
 40
24.930158
  0
ARC
  5
DE
100
AcDbEntity
  8
LAY-1
  6
CONTINUOUS
 62
     7
100
AcDbCircle
 10
1042.715922
 20
924.473281
 30
0.0
 40
175.89245
100
AcDbArc
 50
348.355004
 51
352.452592
  0
ARC
  5
DF
100
AcDbEntity
  8
LAY-1
  6
CONTINUOUS
 62
     7
100
AcDbCircle
 10
1042.715922
 20
924.473281
 30
0.0
 40
175.89245
100
AcDbArc
 50
7.547408
 51
11.644996
  0
LINE
  5
E0
100
AcDbEntity
  8
LAY-1
  6
CONTINUOUS
 62
     7
100
AcDbLine
 10
1213.890903
 20
871.739025
 30
0.0
 11
1222.015903
 21
867.048054
 31
0.0
  0
LINE
  5
E1
100
AcDbEntity
  8
LAY-1
  6
CONTINUOUS
 62
     7
100
AcDbLine
 10
1213.890903
 20
881.120967
 30
0.0
 11
1213.890903
 21
871.739025
 31
0.0
  0
LINE
  5
E2
100
AcDbEntity
  8
LAY-1
  6
CONTINUOUS
 62
     7
100
AcDbLine
 10
1222.015903
 20
867.048054
 30
0.0
 11
1230.140903
 21
871.739025
 31
0.0
  0
LINE
  5
E3
100
AcDbEntity
  8
LAY-1
  6
CONTINUOUS
 62
     7
100
AcDbLine
 10
1230.140903
 20
871.739025
 30
0.0
 11
1230.140903
 21
881.120967
 31
0.0
  0
LINE
  5
E4
100
AcDbEntity
  8
LAY-1
  6
CONTINUOUS
 62
     7
100
AcDbLine
 10
1230.140903
 20
881.120967
 30
0.0
 11
1222.015903
 21
885.811938
 31
0.0
  0
LINE
  5
E5
100
AcDbEntity
  8
LAY-1
  6
CONTINUOUS
 62
     7
100
AcDbLine
 10
1222.015903
 20
885.811938
 30
0.0
 11
1213.890903
 21
881.120967
 31
0.0
  0
ARC
  5
E6
100
AcDbEntity
  8
LAY-1
  6
CONTINUOUS
 62
     7
100
AcDbCircle
 10
1042.715922
 20
924.473281
 30
0.0
 40
175.89245
100
AcDbArc
 50
318.355004
 51
341.644996
  0
ARC
  5
E7
100
AcDbEntity
  8
LAY-1
  6
CONTINUOUS
 62
     7
100
AcDbCircle
 10
1173.972618
 20
793.216585
 30
0.0
 40
14.375
100
AcDbArc
 50
89.268227
 51
180.731773
  0
LINE
  5
E8
100
AcDbEntity
  8
LAY-1
  6
CONTINUOUS
 62
     7
100
AcDbLine
 10
1165.847618
 20
797.907556
 30
0.0
 11
1165.847618
 21
788.525614
 31
0.0
  0
LINE
  5
E9
100
AcDbEntity
  8
LAY-1
  6
CONTINUOUS
 62
     7
100
AcDbLine
 10
1165.847618
 20
788.525614
 30
0.0
 11
1173.972618
 21
783.834643
 31
0.0
  0
LINE
  5
EA
100
AcDbEntity
  8
LAY-1
  6
CONTINUOUS
 62
     7
100
AcDbLine
 10
1173.972618
 20
783.834643
 30
0.0
 11
1182.097618
 21
788.525614
 31
0.0
  0
LINE
  5
EB
100
AcDbEntity
  8
LAY-1
  6
CONTINUOUS
 62
     7
100
AcDbLine
 10
1182.097618
 20
788.525614
 30
0.0
 11
1182.097618
 21
797.907556
 31
0.0
  0
LINE
  5
EC
100
AcDbEntity
  8
LAY-1
  6
CONTINUOUS
 62
     7
100
AcDbLine
 10
1182.097618
 20
797.907556
 30
0.0
 11
1173.972618
 21
802.598527
 31
0.0
  0
LINE
  5
ED
100
AcDbEntity
  8
LAY-1
  6
CONTINUOUS
 62
     7
100
AcDbLine
 10
1173.972618
 20
802.598527
 30
0.0
 11
1165.847618
 21
797.907556
 31
0.0
  0
ARC
  5
EE
100
AcDbEntity
  8
LAY-1
  6
CONTINUOUS
 62
     7
100
AcDbCircle
 10
1042.715922
 20
924.473281
 30
0.0
 40
175.89245
100
AcDbArc
 50
288.355004
 51
311.644996
  0
ARC
  5
EF
100
AcDbEntity
  8
LAY-1
  6
CONTINUOUS
 62
     7
100
AcDbCircle
 10
1090.759207
 20
745.1733
 30
0.0
 40
14.375
100
AcDbArc
 50
59.268227
 51
150.731773
  0
LINE
  5
F0
100
AcDbEntity
  8
LAY-1
  6
CONTINUOUS
 62
     7
100
AcDbLine
 10
1082.634207
 20
749.864271
 30
0.0
 11
1082.634207
 21
740.482329
 31
0.0
  0
LINE
  5
F1
100
AcDbEntity
  8
LAY-1
  6
CONTINUOUS
 62
     7
100
AcDbLine
 10
1082.634207
 20
740.482329
 30
0.0
 11
1090.759207
 21
735.791358
 31
0.0
  0
LINE
  5
F2
100
AcDbEntity
  8
LAY-1
  6
CONTINUOUS
 62
     7
100
AcDbLine
 10
1090.759207
 20
735.791358
 30
0.0
 11
1098.884207
 21
740.482329
 31
0.0
  0
LINE
  5
F3
100
AcDbEntity
  8
LAY-1
  6
CONTINUOUS
 62
     7
100
AcDbLine
 10
1098.884207
 20
740.482329
 30
0.0
 11
1098.884207
 21
749.864271
 31
0.0
  0
LINE
  5
F4
100
AcDbEntity
  8
LAY-1
  6
CONTINUOUS
 62
     7
100
AcDbLine
 10
1098.884207
 20
749.864271
 30
0.0
 11
1090.759207
 21
754.555241
 31
0.0
  0
LINE
  5
F5
100
AcDbEntity
  8
LAY-1
  6
CONTINUOUS
 62
     7
100
AcDbLine
 10
1090.759207
 20
754.555241
 30
0.0
 11
1082.634207
 21
749.864271
 31
0.0
  0
ARC
  5
F6
100
AcDbEntity
  8
LAY-1
  6
CONTINUOUS
 62
     7
100
AcDbCircle
 10
1042.715922
 20
924.473281
 30
0.0
 40
175.89245
100
AcDbArc
 50
270.0
 51
281.644996
  0
ARC
  5
F7
100
AcDbEntity
  8
LAY-1
  6
CONTINUOUS
 62
     7
100
AcDbCircle
 10
994.672637
 20
745.1733
 30
0.0
 40
14.375
100
AcDbArc
 50
29.268227
 51
120.731773
  0
LINE
  5
F8
100
AcDbEntity
  8
LAY-1
  6
CONTINUOUS
 62
     7
100
AcDbLine
 10
986.547637
 20
749.864271
 30
0.0
 11
986.547637
 21
740.482329
 31
0.0
  0
LINE
  5
F9
100
AcDbEntity
  8
LAY-1
  6
CONTINUOUS
 62
     7
100
AcDbLine
 10
986.547637
 20
740.482329
 30
0.0
 11
994.672637
 21
735.791358
 31
0.0
  0
LINE
  5
FA
100
AcDbEntity
  8
LAY-1
  6
CONTINUOUS
 62
     7
100
AcDbLine
 10
994.672637
 20
735.791358
 30
0.0
 11
1002.797637
 21
740.482329
 31
0.0
  0
LINE
  5
FB
100
AcDbEntity
  8
LAY-1
  6
CONTINUOUS
 62
     7
100
AcDbLine
 10
1002.797637
 20
740.482329
 30
0.0
 11
1002.797637
 21
749.864271
 31
0.0
  0
LINE
  5
FC
100
AcDbEntity
  8
LAY-1
  6
CONTINUOUS
 62
     7
100
AcDbLine
 10
1002.797637
 20
749.864271
 30
0.0
 11
994.672637
 21
754.555241
 31
0.0
  0
LINE
  5
FD
100
AcDbEntity
  8
LAY-1
  6
CONTINUOUS
 62
     7
100
AcDbLine
 10
994.672637
 20
754.555241
 30
0.0
 11
986.547637
 21
749.864271
 31
0.0
  0
ARC
  5
FE
100
AcDbEntity
  8
LAY-1
  6
CONTINUOUS
 62
     7
100
AcDbCircle
 10
1042.715922
 20
924.473281
 30
0.0
 40
175.89245
100
AcDbArc
 50
258.355004
 51
270.0
  0
ARC
  5
FF
100
AcDbEntity
  8
LAY-1
  6
CONTINUOUS
 62
     7
100
AcDbCircle
 10
1042.715922
 20
924.473281
 30
0.0
 40
175.89245
100
AcDbArc
 50
228.355004
 51
251.644996
  0
ARC
  5
100
100
AcDbEntity
  8
LAY-1
  6
CONTINUOUS
 62
     7
100
AcDbCircle
 10
911.459226
 20
793.216585
 30
0.0
 40
14.375
100
AcDbArc
 50
359.268227
 51
90.731773
  0
LINE
  5
101
100
AcDbEntity
  8
LAY-1
  6
CONTINUOUS
 62
     7
100
AcDbLine
 10
903.334226
 20
797.907556
 30
0.0
 11
903.334226
 21
788.525614
 31
0.0
  0
LINE
  5
102
100
AcDbEntity
  8
LAY-1
  6
CONTINUOUS
 62
     7
100
AcDbLine
 10
903.334226
 20
788.525614
 30
0.0
 11
911.459226
 21
783.834643
 31
0.0
  0
LINE
  5
103
100
AcDbEntity
  8
LAY-1
  6
CONTINUOUS
 62
     7
100
AcDbLine
 10
911.459226
 20
783.834643
 30
0.0
 11
919.584226
 21
788.525614
 31
0.0
  0
LINE
  5
104
100
AcDbEntity
  8
LAY-1
  6
CONTINUOUS
 62
     7
100
AcDbLine
 10
919.584226
 20
788.525614
 30
0.0
 11
919.584226
 21
797.907556
 31
0.0
  0
LINE
  5
105
100
AcDbEntity
  8
LAY-1
  6
CONTINUOUS
 62
     7
100
AcDbLine
 10
919.584226
 20
797.907556
 30
0.0
 11
911.459226
 21
802.598527
 31
0.0
  0
LINE
  5
106
100
AcDbEntity
  8
LAY-1
  6
CONTINUOUS
 62
     7
100
AcDbLine
 10
911.459226
 20
802.598527
 30
0.0
 11
903.334226
 21
797.907556
 31
0.0
  0
ARC
  5
107
100
AcDbEntity
  8
LAY-1
  6
CONTINUOUS
 62
     7
100
AcDbCircle
 10
1042.715922
 20
924.473281
 30
0.0
 40
175.89245
100
AcDbArc
 50
198.355004
 51
221.644996
  0
LINE
  5
108
100
AcDbEntity
  8
LAY-1
  6
CONTINUOUS
 62
     7
100
AcDbLine
 10
863.41594
 20
867.048054
 30
0.0
 11
871.54094
 21
871.739025
 31
0.0
  0
LINE
  5
109
100
AcDbEntity
  8
LAY-1
  6
CONTINUOUS
 62
     7
100
AcDbLine
 10
855.29094
 20
871.739025
 30
0.0
 11
863.41594
 21
867.048054
 31
0.0
  0
CIRCLE
  5
10A
100
AcDbEntity
  8
LAY-1
  6
CONTINUOUS
 62
     7
100
AcDbCircle
 10
1042.715922
 20
924.473281
 30
0.0
 40
53.575396
  0
LINE
  5
10B
100
AcDbEntity
  8
LAY-1
  6
CONTINUOUS
 62
     7
100
AcDbLine
 10
1213.890903
 20
967.825595
 30
0.0
 11
1222.015903
 21
963.134624
 31
0.0
  0
LINE
  5
10C
100
AcDbEntity
  8
LAY-1
  6
CONTINUOUS
 62
     7
100
AcDbLine
 10
1222.015903
 20
963.134624
 30
0.0
 11
1230.140903
 21
967.825595
 31
0.0
  0
LINE
  5
10D
100
AcDbEntity
  8
LAY-1
  6
CONTINUOUS
 62
     7
100
AcDbLine
 10
965.215922
 20
1109.723281
 30
0.0
 11
967.333978
 21
1109.723281
 31
0.0
  0
LINE
  5
10E
100
AcDbEntity
  8
LAY-1
  6
CONTINUOUS
 62
     7
100
AcDbLine
 10
1118.097866
 20
1109.723281
 30
0.0
 11
1120.215922
 21
1109.723281
 31
0.0
  0
CIRCLE
  5
10F
100
AcDbEntity
  8
LAY-1
  6
CONTINUOUS
 62
     7
100
AcDbCircle
 10
1042.715922
 20
924.473281
 30
0.0
 40
200.0
  0
LINE
  5
110
100
AcDbEntity
  8
LAY-1
  6
EXLTYPE3
 62
     1
100
AcDbLine
 10
1258.720922
 20
925.049944
 30
0.0
 11
834.415922
 21
925.049944
 31
0.0
  0
LINE
  5
111
100
AcDbEntity
  8
LAY-1
  6
EXLTYPE3
 62
     1
100
AcDbLine
 10
686.915922
 20
925.049944
 30
0.0
 11
206.715922
 21
925.049944
 31
0.0
  0
LINE
  5
112
100
AcDbEntity
  8
LAY-1
  6
CONTINUOUS
 62
     7
100
AcDbLine
 10
1249.819598
 20
916.96704
 30
0.0
 11
1250.444813
 21
918.049944
 31
0.0
  0
LINE
  5
113
100
AcDbEntity
  8
LAY-1
  6
CONTINUOUS
 62
     7
100
AcDbLine
 10
1249.819598
 20
916.96704
 30
0.0
 11
1244.444813
 21
916.96704
 31
0.0
  0
LINE
  5
114
100
AcDbEntity
  8
LAY-1
  6
CONTINUOUS
 62
     7
100
AcDbLine
 10
1250.444813
 20
918.049944
 30
0.0
 11
1250.444813
 21
925.049944
 31
0.0
  0
LINE
  5
115
100
AcDbEntity
  8
LAY-1
  6
EXLTYPE4
 62
     1
100
AcDbLine
 10
1244.444813
 20
918.049944
 30
0.0
 11
1250.444813
 21
918.049944
 31
0.0
  0
LINE
  5
116
100
AcDbEntity
  8
LAY-1
  6
CONTINUOUS
 62
     7
100
AcDbLine
 10
1249.819598
 20
933.132848
 30
0.0
 11
1250.444813
 21
932.049944
 31
0.0
  0
LINE
  5
117
100
AcDbEntity
  8
LAY-1
  6
CONTINUOUS
 62
     7
100
AcDbLine
 10
1249.819598
 20
933.132848
 30
0.0
 11
1244.444813
 21
933.132848
 31
0.0
  0
LINE
  5
118
100
AcDbEntity
  8
LAY-1
  6
CONTINUOUS
 62
     7
100
AcDbLine
 10
1244.444813
 20
933.132848
 30
0.0
 11
1244.444813
 21
931.768127
 31
0.0
  0
LINE
  5
119
100
AcDbEntity
  8
LAY-1
  6
CONTINUOUS
 62
     7
100
AcDbLine
 10
1250.444813
 20
932.049944
 30
0.0
 11
1250.444813
 21
925.049944
 31
0.0
  0
LINE
  5
11A
100
AcDbEntity
  8
LAY-1
  6
EXLTYPE4
 62
     1
100
AcDbLine
 10
1244.444813
 20
932.049944
 30
0.0
 11
1250.444813
 21
932.049944
 31
0.0
  0
LINE
  5
11B
100
AcDbEntity
  8
LAY-1
  6
CONTINUOUS
 62
     7
100
AcDbLine
 10
1244.444813
 20
916.96704
 30
0.0
 11
1244.444813
 21
931.768127
 31
0.0
  0
LINE
  5
11C
100
AcDbEntity
  8
LAY-1
  6
CONTINUOUS
 62
     7
100
AcDbLine
 10
1242.582841
 20
931.768127
 30
0.0
 11
1244.444813
 21
931.768127
 31
0.0
  0
LINE
  5
11D
100
AcDbEntity
  8
LAY-1
  6
CONTINUOUS
 62
     1
100
AcDbLine
 10
1242.609959
 20
930.98281
 30
0.0
 11
1244.444813
 21
931.768127
 31
0.0
  0
LINE
  5
11E
100
AcDbEntity
  8
LAY-1
  6
CONTINUOUS
 62
     1
100
AcDbLine
 10
1242.643798
 20
919.102595
 30
0.0
 11
1244.444813
 21
918.331761
 31
0.0
  0
LINE
  5
11F
100
AcDbEntity
  8
LAY-1
  6
CONTINUOUS
 62
     7
100
AcDbLine
 10
1242.621604
 20
918.331761
 30
0.0
 11
1244.444813
 21
918.331761
 31
0.0
  0
LINE
  5
120
100
AcDbEntity
  8
LAY-1
  6
CONTINUOUS
 62
     7
100
AcDbLine
 10
255.578732
 20
795.049944
 30
0.0
 11
255.578732
 21
837.249078
 31
0.0
  0
ARC
  5
121
100
AcDbEntity
  8
LAY-1
  6
CONTINUOUS
 62
     7
100
AcDbCircle
 10
409.266753
 20
925.049944
 30
0.0
 40
177.0
100
AcDbArc
 50
150.260982
 51
161.431648
  0
LINE
  5
122
100
AcDbEntity
  8
LAY-1
  6
CONTINUOUS
 62
     7
100
AcDbLine
 10
255.578732
 20
1055.049944
 30
0.0
 11
255.578732
 21
1012.85081
 31
0.0
  0
LINE
  5
123
100
AcDbEntity
  8
LAY-1
  6
CONTINUOUS
 62
     7
100
AcDbLine
 10
347.954775
 20
1055.049944
 30
0.0
 11
347.954775
 21
1012.85081
 31
0.0
  0
LINE
  5
124
100
AcDbEntity
  8
LAY-1
  6
CONTINUOUS
 62
     7
100
AcDbLine
 10
347.954775
 20
835.049944
 30
0.0
 11
347.954775
 21
795.049944
 31
0.0
  0
LINE
  5
125
100
AcDbEntity
  8
LAY-1
  6
CONTINUOUS
 62
     7
100
AcDbLine
 10
347.954775
 20
1055.049944
 30
0.0
 11
255.578732
 21
1055.049944
 31
0.0
  0
LINE
  5
126
100
AcDbEntity
  8
LAY-1
  6
CONTINUOUS
 62
     7
100
AcDbLine
 10
347.954775
 20
795.049944
 30
0.0
 11
255.578732
 21
795.049944
 31
0.0
  0
ARC
  5
127
100
AcDbEntity
  8
LAY-1
  6
CONTINUOUS
 62
     7
100
AcDbCircle
 10
194.266753
 20
925.049944
 30
0.0
 40
177.0
100
AcDbArc
 50
24.80341
 51
29.739018
  0
ARC
  5
128
100
AcDbEntity
  8
LAY-1
  6
CONTINUOUS
 62
     7
100
AcDbCircle
 10
409.266753
 20
925.049944
 30
0.0
 40
177.0
100
AcDbArc
 50
198.568352
 51
209.739018
  0
ARC
  5
129
100
AcDbEntity
  8
LAY-1
  6
CONTINUOUS
 62
     7
100
AcDbCircle
 10
239.584698
 20
982.049944
 30
0.0
 40
2.0
100
AcDbArc
 50
275.201175
 51
341.431648
  0
ARC
  5
12A
100
AcDbEntity
  8
LAY-1
  6
CONTINUOUS
 62
     7
100
AcDbCircle
 10
371.167168
 20
1013.049944
 30
0.0
 40
2.0
100
AcDbArc
 50
90.0
 51
160.0
  0
ARC
  5
12B
100
AcDbEntity
  8
LAY-1
  6
CONTINUOUS
 62
     7
100
AcDbCircle
 10
370.831136
 20
1017.049944
 30
0.0
 40
2.0
100
AcDbArc
 50
270.0
 51
350.626874
  0
ARC
  5
12C
100
AcDbEntity
  8
LAY-1
  6
CONTINUOUS
 62
     7
100
AcDbCircle
 10
426.766753
 20
1055.049944
 30
0.0
 40
47.0
100
AcDbArc
 50
118.685402
 51
170.626874
  0
LINE
  5
12D
100
AcDbEntity
  8
LAY-1
  6
CONTINUOUS
 62
     7
100
AcDbLine
 10
372.804433
 20
1016.724218
 30
0.0
 11
380.394266
 21
1062.704515
 31
0.0
  0
LINE
  5
12E
100
AcDbEntity
  8
LAY-1
  6
CONTINUOUS
 62
     7
100
AcDbLine
 10
372.528066
 20
835.049944
 30
0.0
 11
380.394266
 21
787.395373
 31
0.0
  0
LINE
  5
12F
100
AcDbEntity
  8
LAY-1
  6
CONTINUOUS
 62
     7
100
AcDbLine
 10
347.954775
 20
835.049944
 30
0.0
 11
372.528066
 21
835.049944
 31
0.0
  0
ARC
  5
130
100
AcDbEntity
  8
LAY-1
  6
CONTINUOUS
 62
     7
100
AcDbCircle
 10
426.766753
 20
795.049944
 30
0.0
 40
47.0
100
AcDbArc
 50
189.373126
 51
241.314598
  0
ARC
  5
131
100
AcDbEntity
  8
LAY-1
  6
CONTINUOUS
 62
     7
100
AcDbCircle
 10
359.477711
 20
1001.400055
 30
0.0
 40
5.0
100
AcDbArc
 50
204.80341
 51
340.0
  0
LINE
  5
132
100
AcDbEntity
  8
LAY-1
  6
CONTINUOUS
 62
     7
100
AcDbLine
 10
369.287783
 20
1013.733984
 30
0.0
 11
364.176174
 21
999.689954
 31
0.0
  0
ARC
  5
133
100
AcDbEntity
  8
LAY-1
  6
CONTINUOUS
 62
     7
100
AcDbCircle
 10
239.584698
 20
868.049944
 30
0.0
 40
2.0
100
AcDbArc
 50
18.568352
 51
84.798825
  0
LINE
  5
134
100
AcDbEntity
  8
LAY-1
  6
CONTINUOUS
 62
     7
100
AcDbLine
 10
239.766753
 20
899.049944
 30
0.0
 11
239.766753
 21
870.049944
 31
0.0
  0
LINE
  5
135
100
AcDbEntity
  8
LAY-1
  6
CONTINUOUS
 62
     7
100
AcDbLine
 10
238.766753
 20
951.049944
 30
0.0
 11
238.766753
 21
980.049944
 31
0.0
  0
LINE
  5
136
100
AcDbEntity
  8
LAY-1
  6
CONTINUOUS
 62
     7
100
AcDbLine
 10
239.766753
 20
980.049944
 30
0.0
 11
230.766753
 21
980.049944
 31
0.0
  0
LINE
  5
137
100
AcDbEntity
  8
LAY-1
  6
CONTINUOUS
 62
     7
100
AcDbLine
 10
229.766753
 20
979.049944
 30
0.0
 11
229.766753
 21
925.049944
 31
0.0
  0
ARC
  5
138
100
AcDbEntity
  8
LAY-1
  6
CONTINUOUS
 62
     7
100
AcDbCircle
 10
230.766753
 20
979.049944
 30
0.0
 40
1.0
100
AcDbArc
 50
90.0
 51
180.0
  0
ARC
  5
139
100
AcDbEntity
  8
LAY-1
  6
CONTINUOUS
 62
     7
100
AcDbCircle
 10
230.766753
 20
871.049944
 30
0.0
 40
1.0
100
AcDbArc
 50
180.0
 51
270.0
  0
LINE
  5
13A
100
AcDbEntity
  8
LAY-1
  6
CONTINUOUS
 62
     7
100
AcDbLine
 10
229.766753
 20
871.049944
 30
0.0
 11
229.766753
 21
925.049944
 31
0.0
  0
LINE
  5
13B
100
AcDbEntity
  8
LAY-1
  6
CONTINUOUS
 62
     7
100
AcDbLine
 10
239.766004
 20
870.049944
 30
0.0
 11
230.766753
 21
870.049944
 31
0.0
  0
LINE
  5
13C
100
AcDbEntity
  8
LAY-1
  6
EXLTYPE3
 62
     1
100
AcDbLine
 10
301.766753
 20
1084.472479
 30
0.0
 11
301.766753
 21
766.440789
 31
0.0
  0
LINE
  5
13D
100
AcDbEntity
  8
LAY-1
  6
CONTINUOUS
 62
     7
100
AcDbLine
 10
421.766753
 20
725.049944
 30
0.0
 11
405.766753
 21
725.049944
 31
0.0
  0
LINE
  5
13E
100
AcDbEntity
  8
LAY-1
  6
CONTINUOUS
 62
     2
100
AcDbLine
 10
444.266753
 20
725.049944
 30
0.0
 11
444.266753
 21
730.948111
 31
0.0
  0
LINE
  5
13F
100
AcDbEntity
  8
LAY-1
  6
CONTINUOUS
 62
     2
100
AcDbLine
 10
444.266753
 20
730.948111
 30
0.0
 11
444.266753
 21
746.929549
 31
0.0
  0
LINE
  5
140
100
AcDbEntity
  8
LAY-1
  6
CONTINUOUS
 62
     7
100
AcDbLine
 10
444.266753
 20
925.049944
 30
0.0
 11
444.266753
 21
725.049944
 31
0.0
  0
LINE
  5
141
100
AcDbEntity
  8
LAY-1
  6
CONTINUOUS
 62
     7
100
AcDbLine
 10
444.266753
 20
925.049944
 30
0.0
 11
444.266753
 21
1125.049944
 31
0.0
  0
LINE
  5
142
100
AcDbEntity
  8
LAY-1
  6
CONTINUOUS
 62
     7
100
AcDbLine
 10
423.766753
 20
725.049944
 30
0.0
 11
444.266753
 21
725.049944
 31
0.0
  0
LINE
  5
143
100
AcDbEntity
  8
LAY-1
  6
CONTINUOUS
 62
     7
100
AcDbLine
 10
423.766753
 20
725.049944
 30
0.0
 11
421.766753
 21
727.049944
 31
0.0
  0
LINE
  5
144
100
AcDbEntity
  8
LAY-1
  6
CONTINUOUS
 62
     7
100
AcDbLine
 10
423.766753
 20
1125.049944
 30
0.0
 11
421.766753
 21
1123.049944
 31
0.0
  0
LINE
  5
145
100
AcDbEntity
  8
LAY-1
  6
CONTINUOUS
 62
     7
100
AcDbLine
 10
423.766753
 20
1125.049944
 30
0.0
 11
444.266753
 21
1125.049944
 31
0.0
  0
CIRCLE
  5
146
100
AcDbEntity
  8
LAY-1
  6
CONTINUOUS
 62
     7
100
AcDbCircle
 10
482.766753
 20
925.049944
 30
0.0
 40
18.75
  0
CIRCLE
  5
147
100
AcDbEntity
  8
LAY-1
  6
CONTINUOUS
 62
     1
100
AcDbCircle
 10
482.766753
 20
925.049944
 30
0.0
 40
16.6245
  0
CIRCLE
  5
148
100
AcDbEntity
  8
LAY-1
  6
CONTINUOUS
 62
     7
100
AcDbCircle
 10
482.766753
 20
925.049944
 30
0.0
 40
15.097788
  0
CIRCLE
  5
149
100
AcDbEntity
  8
LAY-1
  6
CONTINUOUS
 62
     7
100
AcDbCircle
 10
482.766753
 20
925.049944
 30
0.0
 40
9.5
  0
CIRCLE
  5
14A
100
AcDbEntity
  8
LAY-1
  6
CONTINUOUS
 62
     7
100
AcDbCircle
 10
482.766753
 20
925.049944
 30
0.0
 40
7.5
  0
LINE
  5
14B
100
AcDbEntity
  8
LAY-1
  6
CONTINUOUS
 62
     7
100
AcDbLine
 10
485.379965
 20
949.912991
 30
0.0
 11
446.953168
 21
953.95181
 31
0.0
  0
ARC
  5
14C
100
AcDbEntity
  8
LAY-1
  6
CONTINUOUS
 62
     7
100
AcDbCircle
 10
447.266753
 20
956.935376
 30
0.0
 40
3.0
100
AcDbArc
 50
180.0
 51
264.0
  0
ARC
  5
14D
100
AcDbEntity
  8
LAY-1
  6
CONTINUOUS
 62
     7
100
AcDbCircle
 10
482.766753
 20
925.049944
 30
0.0
 40
25.0
100
AcDbArc
 50
0.0
 51
84.0
  0
ARC
  5
14E
100
AcDbEntity
  8
LAY-1
  6
CONTINUOUS
 62
     7
100
AcDbCircle
 10
482.766753
 20
925.049944
 30
0.0
 40
25.0
100
AcDbArc
 50
276.0
 51
0.0
  0
LINE
  5
14F
100
AcDbEntity
  8
LAY-1
  6
CONTINUOUS
 62
     7
100
AcDbLine
 10
485.379965
 20
900.186897
 30
0.0
 11
446.953168
 21
896.148077
 31
0.0
  0
ARC
  5
150
100
AcDbEntity
  8
LAY-1
  6
CONTINUOUS
 62
     7
100
AcDbCircle
 10
447.266753
 20
893.164512
 30
0.0
 40
3.0
100
AcDbArc
 50
96.0
 51
180.0
  0
LINE
  5
151
100
AcDbEntity
  8
LAY-1
  6
EXLTYPE3
 62
     1
100
AcDbLine
 10
482.766753
 20
956.649944
 30
0.0
 11
482.766753
 21
892.749944
 31
0.0
  0
LINE
  5
152
100
AcDbEntity
  8
LAY-1
  6
CONTINUOUS
 62
     7
100
AcDbLine
 10
421.766753
 20
1125.049944
 30
0.0
 11
405.766753
 21
1125.049944
 31
0.0
  0
LINE
  5
153
100
AcDbEntity
  8
LAY-1
  6
CONTINUOUS
 62
     7
100
AcDbLine
 10
421.766753
 20
725.049944
 30
0.0
 11
421.766753
 21
1125.049944
 31
0.0
  0
LINE
  5
154
100
AcDbEntity
  8
LAY-1
  6
CONTINUOUS
 62
     7
100
AcDbLine
 10
420.766753
 20
1125.049944
 30
0.0
 11
420.766753
 21
725.049944
 31
0.0
  0
LINE
  5
155
100
AcDbEntity
  8
LAY-1
  6
CONTINUOUS
 62
     7
100
AcDbLine
 10
405.766753
 20
1125.049944
 30
0.0
 11
405.766753
 21
725.049944
 31
0.0
  0
LINE
  5
156
100
AcDbEntity
  8
LAY-1
  6
CONTINUOUS
 62
     7
100
AcDbLine
 10
446.266753
 20
751.444405
 30
0.0
 11
445.266753
 21
753.176456
 31
0.0
  0
LINE
  5
157
100
AcDbEntity
  8
LAY-1
  6
CONTINUOUS
 62
     7
100
AcDbLine
 10
445.266753
 20
734.701247
 30
0.0
 11
446.266753
 21
736.433298
 31
0.0
  0
LINE
  5
158
100
AcDbEntity
  8
LAY-1
  6
CONTINUOUS
 62
     7
100
AcDbLine
 10
445.266753
 20
734.701247
 30
0.0
 11
444.266753
 21
734.701247
 31
0.0
  0
LINE
  5
159
100
AcDbEntity
  8
LAY-1
  6
CONTINUOUS
 62
     7
100
AcDbLine
 10
454.266753
 20
751.938852
 30
0.0
 11
453.552222
 21
753.176456
 31
0.0
  0
LINE
  5
15A
100
AcDbEntity
  8
LAY-1
  6
CONTINUOUS
 62
     7
100
AcDbLine
 10
453.552222
 20
753.176456
 30
0.0
 11
446.266753
 21
753.176456
 31
0.0
  0
ARC
  5
15B
100
AcDbEntity
  8
LAY-1
  6
CONTINUOUS
 62
     7
100
AcDbCircle
 10
438.981284
 20
743.938852
 30
0.0
 40
15.285469
100
AcDbArc
 50
342.412046
 51
17.587954
  0
LINE
  5
15C
100
AcDbEntity
  8
LAY-1
  6
CONTINUOUS
 62
     7
100
AcDbLine
 10
453.552222
 20
734.701247
 30
0.0
 11
454.266753
 21
735.938852
 31
0.0
  0
ARC
  5
15D
100
AcDbEntity
  8
LAY-1
  6
CONTINUOUS
 62
     7
100
AcDbCircle
 10
450.177437
 20
737.010648
 30
0.0
 40
4.089316
100
AcDbArc
 50
325.615753
 51
34.384247
  0
LINE
  5
15E
100
AcDbEntity
  8
LAY-1
  6
CONTINUOUS
 62
     7
100
AcDbLine
 10
446.266753
 20
734.701247
 30
0.0
 11
453.552222
 21
734.701247
 31
0.0
  0
ARC
  5
15F
100
AcDbEntity
  8
LAY-1
  6
CONTINUOUS
 62
     7
100
AcDbCircle
 10
450.177437
 20
750.867055
 30
0.0
 40
4.089316
100
AcDbArc
 50
325.615753
 51
34.384247
  0
LINE
  5
160
100
AcDbEntity
  8
LAY-1
  6
CONTINUOUS
 62
     7
100
AcDbLine
 10
453.552222
 20
739.320049
 30
0.0
 11
446.266753
 21
739.320049
 31
0.0
  0
LINE
  5
161
100
AcDbEntity
  8
LAY-1
  6
CONTINUOUS
 62
     7
100
AcDbLine
 10
446.266753
 20
748.557654
 30
0.0
 11
453.552222
 21
748.557654
 31
0.0
  0
LINE
  5
162
100
AcDbEntity
  8
LAY-1
  6
CONTINUOUS
 62
     7
100
AcDbLine
 10
454.266753
 20
735.938852
 30
0.0
 11
454.266753
 21
751.938852
 31
0.0
  0
LINE
  5
163
100
AcDbEntity
  8
LAY-1
  6
CONTINUOUS
 62
     7
100
AcDbLine
 10
444.266753
 20
753.176456
 30
0.0
 11
445.266753
 21
753.176456
 31
0.0
  0
LINE
  5
164
100
AcDbEntity
  8
LAY-1
  6
CONTINUOUS
 62
     7
100
AcDbLine
 10
446.266753
 20
734.701247
 30
0.0
 11
446.266753
 21
753.176456
 31
0.0
  0
LINE
  5
165
100
AcDbEntity
  8
LAY-1
  6
CONTINUOUS
 62
     7
100
AcDbLine
 10
454.516753
 20
748.938852
 30
0.0
 11
454.516753
 21
738.938852
 31
0.0
  0
LINE
  5
166
100
AcDbEntity
  8
LAY-1
  6
CONTINUOUS
 62
     7
100
AcDbLine
 10
455.266753
 20
739.688852
 30
0.0
 11
454.516753
 21
738.938852
 31
0.0
  0
LINE
  5
167
100
AcDbEntity
  8
LAY-1
  6
CONTINUOUS
 62
     7
100
AcDbLine
 10
455.266753
 20
748.188852
 30
0.0
 11
455.266753
 21
739.688852
 31
0.0
  0
LINE
  5
168
100
AcDbEntity
  8
LAY-1
  6
CONTINUOUS
 62
     7
100
AcDbLine
 10
454.516753
 20
748.938852
 30
0.0
 11
455.266753
 21
748.188852
 31
0.0
  0
LINE
  5
169
100
AcDbEntity
  8
LAY-1
  6
CONTINUOUS
 62
     7
100
AcDbLine
 10
454.516753
 20
738.938852
 30
0.0
 11
454.266753
 21
738.938852
 31
0.0
  0
LINE
  5
16A
100
AcDbEntity
  8
LAY-1
  6
CONTINUOUS
 62
     7
100
AcDbLine
 10
454.266753
 20
748.938852
 30
0.0
 11
454.516753
 21
748.938852
 31
0.0
  0
LINE
  5
16B
100
AcDbEntity
  8
LAY-1
  6
CONTINUOUS
 62
     7
100
AcDbLine
 10
445.266753
 20
753.176456
 30
0.0
 11
445.266753
 21
734.701247
 31
0.0
  0
LINE
  5
16C
100
AcDbEntity
  8
LAY-1
  6
CONTINUOUS
 62
     7
100
AcDbLine
 10
400.081284
 20
753.176456
 30
0.0
 11
405.766753
 21
753.176456
 31
0.0
  0
LINE
  5
16D
100
AcDbEntity
  8
LAY-1
  6
CONTINUOUS
 62
     7
100
AcDbLine
 10
405.766753
 20
748.557654
 30
0.0
 11
400.081284
 21
748.557654
 31
0.0
  0
LINE
  5
16E
100
AcDbEntity
  8
LAY-1
  6
CONTINUOUS
 62
     7
100
AcDbLine
 10
405.766753
 20
734.701247
 30
0.0
 11
400.081284
 21
734.701247
 31
0.0
  0
LINE
  5
16F
100
AcDbEntity
  8
LAY-1
  6
CONTINUOUS
 62
     7
100
AcDbLine
 10
400.081284
 20
739.320049
 30
0.0
 11
405.766753
 21
739.320049
 31
0.0
  0
ARC
  5
170
100
AcDbEntity
  8
LAY-1
  6
CONTINUOUS
 62
     7
100
AcDbCircle
 10
403.45607
 20
750.867055
 30
0.0
 40
4.089316
100
AcDbArc
 50
145.615753
 51
214.384247
  0
LINE
  5
171
100
AcDbEntity
  8
LAY-1
  6
CONTINUOUS
 62
     7
100
AcDbLine
 10
399.366753
 20
735.938852
 30
0.0
 11
399.366753
 21
751.938852
 31
0.0
  0
LINE
  5
172
100
AcDbEntity
  8
LAY-1
  6
CONTINUOUS
 62
     7
100
AcDbLine
 10
400.081284
 20
734.701247
 30
0.0
 11
399.366753
 21
735.938852
 31
0.0
  0
ARC
  5
173
100
AcDbEntity
  8
LAY-1
  6
CONTINUOUS
 62
     7
100
AcDbCircle
 10
403.45607
 20
737.010648
 30
0.0
 40
4.089316
100
AcDbArc
 50
145.615753
 51
214.384247
  0
ARC
  5
174
100
AcDbEntity
  8
LAY-1
  6
CONTINUOUS
 62
     7
100
AcDbCircle
 10
414.652222
 20
743.938852
 30
0.0
 40
15.285469
100
AcDbArc
 50
162.412046
 51
197.587954
  0
LINE
  5
175
100
AcDbEntity
  8
LAY-1
  6
CONTINUOUS
 62
     7
100
AcDbLine
 10
399.366753
 20
751.938852
 30
0.0
 11
400.081284
 21
753.176456
 31
0.0
  0
LINE
  5
176
100
AcDbEntity
  8
LAY-1
  6
CONTINUOUS
 62
     7
100
AcDbLine
 10
446.266753
 20
799.972976
 30
0.0
 11
445.266753
 21
801.705027
 31
0.0
  0
LINE
  5
177
100
AcDbEntity
  8
LAY-1
  6
CONTINUOUS
 62
     7
100
AcDbLine
 10
445.266753
 20
783.229818
 30
0.0
 11
446.266753
 21
784.961869
 31
0.0
  0
LINE
  5
178
100
AcDbEntity
  8
LAY-1
  6
CONTINUOUS
 62
     7
100
AcDbLine
 10
445.266753
 20
783.229818
 30
0.0
 11
444.266753
 21
783.229818
 31
0.0
  0
LINE
  5
179
100
AcDbEntity
  8
LAY-1
  6
CONTINUOUS
 62
     7
100
AcDbLine
 10
454.266753
 20
800.467423
 30
0.0
 11
453.552222
 21
801.705027
 31
0.0
  0
LINE
  5
17A
100
AcDbEntity
  8
LAY-1
  6
CONTINUOUS
 62
     7
100
AcDbLine
 10
453.552222
 20
801.705027
 30
0.0
 11
446.266753
 21
801.705027
 31
0.0
  0
ARC
  5
17B
100
AcDbEntity
  8
LAY-1
  6
CONTINUOUS
 62
     7
100
AcDbCircle
 10
438.981284
 20
792.467423
 30
0.0
 40
15.285469
100
AcDbArc
 50
342.412046
 51
17.587954
  0
LINE
  5
17C
100
AcDbEntity
  8
LAY-1
  6
CONTINUOUS
 62
     7
100
AcDbLine
 10
453.552222
 20
783.229818
 30
0.0
 11
454.266753
 21
784.467423
 31
0.0
  0
ARC
  5
17D
100
AcDbEntity
  8
LAY-1
  6
CONTINUOUS
 62
     7
100
AcDbCircle
 10
450.177437
 20
785.539219
 30
0.0
 40
4.089316
100
AcDbArc
 50
325.615753
 51
34.384247
  0
LINE
  5
17E
100
AcDbEntity
  8
LAY-1
  6
CONTINUOUS
 62
     7
100
AcDbLine
 10
446.266753
 20
783.229818
 30
0.0
 11
453.552222
 21
783.229818
 31
0.0
  0
ARC
  5
17F
100
AcDbEntity
  8
LAY-1
  6
CONTINUOUS
 62
     7
100
AcDbCircle
 10
450.177437
 20
799.395626
 30
0.0
 40
4.089316
100
AcDbArc
 50
325.615753
 51
34.384247
  0
LINE
  5
180
100
AcDbEntity
  8
LAY-1
  6
CONTINUOUS
 62
     7
100
AcDbLine
 10
453.552222
 20
787.84862
 30
0.0
 11
446.266753
 21
787.84862
 31
0.0
  0
LINE
  5
181
100
AcDbEntity
  8
LAY-1
  6
CONTINUOUS
 62
     7
100
AcDbLine
 10
446.266753
 20
797.086225
 30
0.0
 11
453.552222
 21
797.086225
 31
0.0
  0
LINE
  5
182
100
AcDbEntity
  8
LAY-1
  6
CONTINUOUS
 62
     7
100
AcDbLine
 10
454.266753
 20
784.467423
 30
0.0
 11
454.266753
 21
800.467423
 31
0.0
  0
LINE
  5
183
100
AcDbEntity
  8
LAY-1
  6
CONTINUOUS
 62
     7
100
AcDbLine
 10
444.266753
 20
801.705027
 30
0.0
 11
445.266753
 21
801.705027
 31
0.0
  0
LINE
  5
184
100
AcDbEntity
  8
LAY-1
  6
CONTINUOUS
 62
     7
100
AcDbLine
 10
446.266753
 20
783.229818
 30
0.0
 11
446.266753
 21
801.705027
 31
0.0
  0
LINE
  5
185
100
AcDbEntity
  8
LAY-1
  6
CONTINUOUS
 62
     7
100
AcDbLine
 10
454.516753
 20
797.467423
 30
0.0
 11
454.516753
 21
787.467423
 31
0.0
  0
LINE
  5
186
100
AcDbEntity
  8
LAY-1
  6
CONTINUOUS
 62
     7
100
AcDbLine
 10
455.266753
 20
788.217423
 30
0.0
 11
454.516753
 21
787.467423
 31
0.0
  0
LINE
  5
187
100
AcDbEntity
  8
LAY-1
  6
CONTINUOUS
 62
     7
100
AcDbLine
 10
455.266753
 20
796.717423
 30
0.0
 11
455.266753
 21
788.217423
 31
0.0
  0
LINE
  5
188
100
AcDbEntity
  8
LAY-1
  6
CONTINUOUS
 62
     7
100
AcDbLine
 10
454.516753
 20
797.467423
 30
0.0
 11
455.266753
 21
796.717423
 31
0.0
  0
LINE
  5
189
100
AcDbEntity
  8
LAY-1
  6
CONTINUOUS
 62
     7
100
AcDbLine
 10
454.516753
 20
787.467423
 30
0.0
 11
454.266753
 21
787.467423
 31
0.0
  0
LINE
  5
18A
100
AcDbEntity
  8
LAY-1
  6
CONTINUOUS
 62
     7
100
AcDbLine
 10
454.266753
 20
797.467423
 30
0.0
 11
454.516753
 21
797.467423
 31
0.0
  0
LINE
  5
18B
100
AcDbEntity
  8
LAY-1
  6
CONTINUOUS
 62
     7
100
AcDbLine
 10
445.266753
 20
801.705027
 30
0.0
 11
445.266753
 21
783.229818
 31
0.0
  0
LINE
  5
18C
100
AcDbEntity
  8
LAY-1
  6
CONTINUOUS
 62
     7
100
AcDbLine
 10
400.081284
 20
801.705027
 30
0.0
 11
405.766753
 21
801.705027
 31
0.0
  0
LINE
  5
18D
100
AcDbEntity
  8
LAY-1
  6
CONTINUOUS
 62
     7
100
AcDbLine
 10
405.766753
 20
797.086225
 30
0.0
 11
400.081284
 21
797.086225
 31
0.0
  0
LINE
  5
18E
100
AcDbEntity
  8
LAY-1
  6
CONTINUOUS
 62
     7
100
AcDbLine
 10
405.766753
 20
783.229818
 30
0.0
 11
400.081284
 21
783.229818
 31
0.0
  0
LINE
  5
18F
100
AcDbEntity
  8
LAY-1
  6
CONTINUOUS
 62
     7
100
AcDbLine
 10
400.081284
 20
787.84862
 30
0.0
 11
405.766753
 21
787.84862
 31
0.0
  0
ARC
  5
190
100
AcDbEntity
  8
LAY-1
  6
CONTINUOUS
 62
     7
100
AcDbCircle
 10
403.45607
 20
799.395626
 30
0.0
 40
4.089316
100
AcDbArc
 50
145.615753
 51
214.384247
  0
LINE
  5
191
100
AcDbEntity
  8
LAY-1
  6
CONTINUOUS
 62
     7
100
AcDbLine
 10
399.366753
 20
784.467423
 30
0.0
 11
399.366753
 21
800.467423
 31
0.0
  0
LINE
  5
192
100
AcDbEntity
  8
LAY-1
  6
CONTINUOUS
 62
     7
100
AcDbLine
 10
400.081284
 20
783.229818
 30
0.0
 11
399.366753
 21
784.467423
 31
0.0
  0
ARC
  5
193
100
AcDbEntity
  8
LAY-1
  6
CONTINUOUS
 62
     7
100
AcDbCircle
 10
403.45607
 20
785.539219
 30
0.0
 40
4.089316
100
AcDbArc
 50
145.615753
 51
214.384247
  0
ARC
  5
194
100
AcDbEntity
  8
LAY-1
  6
CONTINUOUS
 62
     7
100
AcDbCircle
 10
414.652222
 20
792.467423
 30
0.0
 40
15.285469
100
AcDbArc
 50
162.412046
 51
197.587954
  0
LINE
  5
195
100
AcDbEntity
  8
LAY-1
  6
CONTINUOUS
 62
     7
100
AcDbLine
 10
399.366753
 20
800.467423
 30
0.0
 11
400.081284
 21
801.705027
 31
0.0
  0
LINE
  5
196
100
AcDbEntity
  8
LAY-1
  6
CONTINUOUS
 62
     7
100
AcDbLine
 10
446.266753
 20
884.026927
 30
0.0
 11
445.266753
 21
885.758977
 31
0.0
  0
LINE
  5
197
100
AcDbEntity
  8
LAY-1
  6
CONTINUOUS
 62
     7
100
AcDbLine
 10
445.266753
 20
867.283769
 30
0.0
 11
446.266753
 21
869.01582
 31
0.0
  0
LINE
  5
198
100
AcDbEntity
  8
LAY-1
  6
CONTINUOUS
 62
     7
100
AcDbLine
 10
445.266753
 20
867.283769
 30
0.0
 11
444.266753
 21
867.283769
 31
0.0
  0
LINE
  5
199
100
AcDbEntity
  8
LAY-1
  6
CONTINUOUS
 62
     7
100
AcDbLine
 10
454.266753
 20
884.521373
 30
0.0
 11
453.552222
 21
885.758977
 31
0.0
  0
LINE
  5
19A
100
AcDbEntity
  8
LAY-1
  6
CONTINUOUS
 62
     7
100
AcDbLine
 10
453.552222
 20
885.758977
 30
0.0
 11
446.266753
 21
885.758977
 31
0.0
  0
ARC
  5
19B
100
AcDbEntity
  8
LAY-1
  6
CONTINUOUS
 62
     7
100
AcDbCircle
 10
438.981284
 20
876.521373
 30
0.0
 40
15.285469
100
AcDbArc
 50
342.412046
 51
17.587954
  0
LINE
  5
19C
100
AcDbEntity
  8
LAY-1
  6
CONTINUOUS
 62
     7
100
AcDbLine
 10
453.552222
 20
867.283769
 30
0.0
 11
454.266753
 21
868.521373
 31
0.0
  0
ARC
  5
19D
100
AcDbEntity
  8
LAY-1
  6
CONTINUOUS
 62
     7
100
AcDbCircle
 10
450.177437
 20
869.59317
 30
0.0
 40
4.089316
100
AcDbArc
 50
325.615753
 51
34.384247
  0
LINE
  5
19E
100
AcDbEntity
  8
LAY-1
  6
CONTINUOUS
 62
     7
100
AcDbLine
 10
446.266753
 20
867.283769
 30
0.0
 11
453.552222
 21
867.283769
 31
0.0
  0
ARC
  5
19F
100
AcDbEntity
  8
LAY-1
  6
CONTINUOUS
 62
     7
100
AcDbCircle
 10
450.177437
 20
883.449576
 30
0.0
 40
4.089316
100
AcDbArc
 50
325.615753
 51
34.384247
  0
LINE
  5
1A0
100
AcDbEntity
  8
LAY-1
  6
CONTINUOUS
 62
     7
100
AcDbLine
 10
453.552222
 20
871.902571
 30
0.0
 11
446.266753
 21
871.902571
 31
0.0
  0
LINE
  5
1A1
100
AcDbEntity
  8
LAY-1
  6
CONTINUOUS
 62
     7
100
AcDbLine
 10
446.266753
 20
881.140175
 30
0.0
 11
453.552222
 21
881.140175
 31
0.0
  0
LINE
  5
1A2
100
AcDbEntity
  8
LAY-1
  6
CONTINUOUS
 62
     7
100
AcDbLine
 10
454.266753
 20
868.521373
 30
0.0
 11
454.266753
 21
884.521373
 31
0.0
  0
LINE
  5
1A3
100
AcDbEntity
  8
LAY-1
  6
CONTINUOUS
 62
     7
100
AcDbLine
 10
444.266753
 20
885.758977
 30
0.0
 11
445.266753
 21
885.758977
 31
0.0
  0
LINE
  5
1A4
100
AcDbEntity
  8
LAY-1
  6
CONTINUOUS
 62
     7
100
AcDbLine
 10
446.266753
 20
867.283769
 30
0.0
 11
446.266753
 21
885.758977
 31
0.0
  0
LINE
  5
1A5
100
AcDbEntity
  8
LAY-1
  6
CONTINUOUS
 62
     7
100
AcDbLine
 10
454.516753
 20
881.521373
 30
0.0
 11
454.516753
 21
871.521373
 31
0.0
  0
LINE
  5
1A6
100
AcDbEntity
  8
LAY-1
  6
CONTINUOUS
 62
     7
100
AcDbLine
 10
455.266753
 20
872.271373
 30
0.0
 11
454.516753
 21
871.521373
 31
0.0
  0
LINE
  5
1A7
100
AcDbEntity
  8
LAY-1
  6
CONTINUOUS
 62
     7
100
AcDbLine
 10
455.266753
 20
880.771373
 30
0.0
 11
455.266753
 21
872.271373
 31
0.0
  0
LINE
  5
1A8
100
AcDbEntity
  8
LAY-1
  6
CONTINUOUS
 62
     7
100
AcDbLine
 10
454.516753
 20
881.521373
 30
0.0
 11
455.266753
 21
880.771373
 31
0.0
  0
LINE
  5
1A9
100
AcDbEntity
  8
LAY-1
  6
CONTINUOUS
 62
     7
100
AcDbLine
 10
454.516753
 20
871.521373
 30
0.0
 11
454.266753
 21
871.521373
 31
0.0
  0
LINE
  5
1AA
100
AcDbEntity
  8
LAY-1
  6
CONTINUOUS
 62
     7
100
AcDbLine
 10
454.266753
 20
881.521373
 30
0.0
 11
454.516753
 21
881.521373
 31
0.0
  0
LINE
  5
1AB
100
AcDbEntity
  8
LAY-1
  6
CONTINUOUS
 62
     7
100
AcDbLine
 10
445.266753
 20
885.758977
 30
0.0
 11
445.266753
 21
867.283769
 31
0.0
  0
LINE
  5
1AC
100
AcDbEntity
  8
LAY-1
  6
CONTINUOUS
 62
     7
100
AcDbLine
 10
400.081284
 20
885.758977
 30
0.0
 11
405.766753
 21
885.758977
 31
0.0
  0
LINE
  5
1AD
100
AcDbEntity
  8
LAY-1
  6
CONTINUOUS
 62
     7
100
AcDbLine
 10
405.766753
 20
881.140175
 30
0.0
 11
400.081284
 21
881.140175
 31
0.0
  0
LINE
  5
1AE
100
AcDbEntity
  8
LAY-1
  6
CONTINUOUS
 62
     7
100
AcDbLine
 10
405.766753
 20
867.283769
 30
0.0
 11
400.081284
 21
867.283769
 31
0.0
  0
LINE
  5
1AF
100
AcDbEntity
  8
LAY-1
  6
CONTINUOUS
 62
     7
100
AcDbLine
 10
400.081284
 20
871.902571
 30
0.0
 11
405.766753
 21
871.902571
 31
0.0
  0
ARC
  5
1B0
100
AcDbEntity
  8
LAY-1
  6
CONTINUOUS
 62
     7
100
AcDbCircle
 10
403.45607
 20
883.449576
 30
0.0
 40
4.089316
100
AcDbArc
 50
145.615753
 51
214.384247
  0
LINE
  5
1B1
100
AcDbEntity
  8
LAY-1
  6
CONTINUOUS
 62
     7
100
AcDbLine
 10
399.366753
 20
868.521373
 30
0.0
 11
399.366753
 21
884.521373
 31
0.0
  0
LINE
  5
1B2
100
AcDbEntity
  8
LAY-1
  6
CONTINUOUS
 62
     7
100
AcDbLine
 10
400.081284
 20
867.283769
 30
0.0
 11
399.366753
 21
868.521373
 31
0.0
  0
ARC
  5
1B3
100
AcDbEntity
  8
LAY-1
  6
CONTINUOUS
 62
     7
100
AcDbCircle
 10
403.45607
 20
869.59317
 30
0.0
 40
4.089316
100
AcDbArc
 50
145.615753
 51
214.384247
  0
ARC
  5
1B4
100
AcDbEntity
  8
LAY-1
  6
CONTINUOUS
 62
     7
100
AcDbCircle
 10
414.652222
 20
876.521373
 30
0.0
 40
15.285469
100
AcDbArc
 50
162.412046
 51
197.587954
  0
LINE
  5
1B5
100
AcDbEntity
  8
LAY-1
  6
CONTINUOUS
 62
     7
100
AcDbLine
 10
399.366753
 20
884.521373
 30
0.0
 11
400.081284
 21
885.758977
 31
0.0
  0
LINE
  5
1B6
100
AcDbEntity
  8
LAY-1
  6
CONTINUOUS
 62
     7
100
AcDbLine
 10
446.266753
 20
966.072961
 30
0.0
 11
445.266753
 21
964.340911
 31
0.0
  0
LINE
  5
1B7
100
AcDbEntity
  8
LAY-1
  6
CONTINUOUS
 62
     7
100
AcDbLine
 10
445.266753
 20
982.816119
 30
0.0
 11
446.266753
 21
981.084068
 31
0.0
  0
LINE
  5
1B8
100
AcDbEntity
  8
LAY-1
  6
CONTINUOUS
 62
     7
100
AcDbLine
 10
445.266753
 20
982.816119
 30
0.0
 11
444.266753
 21
982.816119
 31
0.0
  0
LINE
  5
1B9
100
AcDbEntity
  8
LAY-1
  6
CONTINUOUS
 62
     7
100
AcDbLine
 10
454.266753
 20
965.578515
 30
0.0
 11
453.552222
 21
964.340911
 31
0.0
  0
LINE
  5
1BA
100
AcDbEntity
  8
LAY-1
  6
CONTINUOUS
 62
     7
100
AcDbLine
 10
453.552222
 20
964.340911
 30
0.0
 11
446.266753
 21
964.340911
 31
0.0
  0
ARC
  5
1BB
100
AcDbEntity
  8
LAY-1
  6
CONTINUOUS
 62
     7
100
AcDbCircle
 10
438.981284
 20
973.578515
 30
0.0
 40
15.285469
100
AcDbArc
 50
342.412046
 51
17.587954
  0
LINE
  5
1BC
100
AcDbEntity
  8
LAY-1
  6
CONTINUOUS
 62
     7
100
AcDbLine
 10
453.552222
 20
982.816119
 30
0.0
 11
454.266753
 21
981.578515
 31
0.0
  0
ARC
  5
1BD
100
AcDbEntity
  8
LAY-1
  6
CONTINUOUS
 62
     7
100
AcDbCircle
 10
450.177437
 20
980.506718
 30
0.0
 40
4.089316
100
AcDbArc
 50
325.615753
 51
34.384247
  0
LINE
  5
1BE
100
AcDbEntity
  8
LAY-1
  6
CONTINUOUS
 62
     7
100
AcDbLine
 10
446.266753
 20
982.816119
 30
0.0
 11
453.552222
 21
982.816119
 31
0.0
  0
ARC
  5
1BF
100
AcDbEntity
  8
LAY-1
  6
CONTINUOUS
 62
     7
100
AcDbCircle
 10
450.177437
 20
966.650312
 30
0.0
 40
4.089316
100
AcDbArc
 50
325.615753
 51
34.384247
  0
LINE
  5
1C0
100
AcDbEntity
  8
LAY-1
  6
CONTINUOUS
 62
     7
100
AcDbLine
 10
453.552222
 20
978.197317
 30
0.0
 11
446.266753
 21
978.197317
 31
0.0
  0
LINE
  5
1C1
100
AcDbEntity
  8
LAY-1
  6
CONTINUOUS
 62
     7
100
AcDbLine
 10
446.266753
 20
968.959713
 30
0.0
 11
453.552222
 21
968.959713
 31
0.0
  0
LINE
  5
1C2
100
AcDbEntity
  8
LAY-1
  6
CONTINUOUS
 62
     7
100
AcDbLine
 10
454.266753
 20
981.578515
 30
0.0
 11
454.266753
 21
965.578515
 31
0.0
  0
LINE
  5
1C3
100
AcDbEntity
  8
LAY-1
  6
CONTINUOUS
 62
     7
100
AcDbLine
 10
444.266753
 20
964.340911
 30
0.0
 11
445.266753
 21
964.340911
 31
0.0
  0
LINE
  5
1C4
100
AcDbEntity
  8
LAY-1
  6
CONTINUOUS
 62
     7
100
AcDbLine
 10
446.266753
 20
982.816119
 30
0.0
 11
446.266753
 21
964.340911
 31
0.0
  0
LINE
  5
1C5
100
AcDbEntity
  8
LAY-1
  6
CONTINUOUS
 62
     7
100
AcDbLine
 10
454.516753
 20
968.578515
 30
0.0
 11
454.516753
 21
978.578515
 31
0.0
  0
LINE
  5
1C6
100
AcDbEntity
  8
LAY-1
  6
CONTINUOUS
 62
     7
100
AcDbLine
 10
455.266753
 20
977.828515
 30
0.0
 11
454.516753
 21
978.578515
 31
0.0
  0
LINE
  5
1C7
100
AcDbEntity
  8
LAY-1
  6
CONTINUOUS
 62
     7
100
AcDbLine
 10
455.266753
 20
969.328515
 30
0.0
 11
455.266753
 21
977.828515
 31
0.0
  0
LINE
  5
1C8
100
AcDbEntity
  8
LAY-1
  6
CONTINUOUS
 62
     7
100
AcDbLine
 10
454.516753
 20
968.578515
 30
0.0
 11
455.266753
 21
969.328515
 31
0.0
  0
LINE
  5
1C9
100
AcDbEntity
  8
LAY-1
  6
CONTINUOUS
 62
     7
100
AcDbLine
 10
454.516753
 20
978.578515
 30
0.0
 11
454.266753
 21
978.578515
 31
0.0
  0
LINE
  5
1CA
100
AcDbEntity
  8
LAY-1
  6
CONTINUOUS
 62
     7
100
AcDbLine
 10
454.266753
 20
968.578515
 30
0.0
 11
454.516753
 21
968.578515
 31
0.0
  0
LINE
  5
1CB
100
AcDbEntity
  8
LAY-1
  6
CONTINUOUS
 62
     7
100
AcDbLine
 10
445.266753
 20
964.340911
 30
0.0
 11
445.266753
 21
982.816119
 31
0.0
  0
LINE
  5
1CC
100
AcDbEntity
  8
LAY-1
  6
CONTINUOUS
 62
     7
100
AcDbLine
 10
400.081284
 20
964.340911
 30
0.0
 11
405.766753
 21
964.340911
 31
0.0
  0
LINE
  5
1CD
100
AcDbEntity
  8
LAY-1
  6
CONTINUOUS
 62
     7
100
AcDbLine
 10
405.766753
 20
968.959713
 30
0.0
 11
400.081284
 21
968.959713
 31
0.0
  0
LINE
  5
1CE
100
AcDbEntity
  8
LAY-1
  6
CONTINUOUS
 62
     7
100
AcDbLine
 10
405.766753
 20
982.816119
 30
0.0
 11
400.081284
 21
982.816119
 31
0.0
  0
LINE
  5
1CF
100
AcDbEntity
  8
LAY-1
  6
CONTINUOUS
 62
     7
100
AcDbLine
 10
400.081284
 20
978.197317
 30
0.0
 11
405.766753
 21
978.197317
 31
0.0
  0
ARC
  5
1D0
100
AcDbEntity
  8
LAY-1
  6
CONTINUOUS
 62
     7
100
AcDbCircle
 10
403.45607
 20
966.650312
 30
0.0
 40
4.089316
100
AcDbArc
 50
145.615753
 51
214.384247
  0
LINE
  5
1D1
100
AcDbEntity
  8
LAY-1
  6
CONTINUOUS
 62
     7
100
AcDbLine
 10
399.366753
 20
981.578515
 30
0.0
 11
399.366753
 21
965.578515
 31
0.0
  0
LINE
  5
1D2
100
AcDbEntity
  8
LAY-1
  6
CONTINUOUS
 62
     7
100
AcDbLine
 10
400.081284
 20
982.816119
 30
0.0
 11
399.366753
 21
981.578515
 31
0.0
  0
ARC
  5
1D3
100
AcDbEntity
  8
LAY-1
  6
CONTINUOUS
 62
     7
100
AcDbCircle
 10
403.45607
 20
980.506718
 30
0.0
 40
4.089316
100
AcDbArc
 50
145.615753
 51
214.384247
  0
ARC
  5
1D4
100
AcDbEntity
  8
LAY-1
  6
CONTINUOUS
 62
     7
100
AcDbCircle
 10
414.652222
 20
973.578515
 30
0.0
 40
15.285469
100
AcDbArc
 50
162.412046
 51
197.587954
  0
LINE
  5
1D5
100
AcDbEntity
  8
LAY-1
  6
CONTINUOUS
 62
     7
100
AcDbLine
 10
399.366753
 20
965.578515
 30
0.0
 11
400.081284
 21
964.340911
 31
0.0
  0
LINE
  5
1D6
100
AcDbEntity
  8
LAY-1
  6
CONTINUOUS
 62
     7
100
AcDbLine
 10
446.266753
 20
1050.126912
 30
0.0
 11
445.266753
 21
1048.394861
 31
0.0
  0
LINE
  5
1D7
100
AcDbEntity
  8
LAY-1
  6
CONTINUOUS
 62
     7
100
AcDbLine
 10
445.266753
 20
1066.87007
 30
0.0
 11
446.266753
 21
1065.138019
 31
0.0
  0
LINE
  5
1D8
100
AcDbEntity
  8
LAY-1
  6
CONTINUOUS
 62
     7
100
AcDbLine
 10
445.266753
 20
1066.87007
 30
0.0
 11
444.266753
 21
1066.87007
 31
0.0
  0
LINE
  5
1D9
100
AcDbEntity
  8
LAY-1
  6
CONTINUOUS
 62
     7
100
AcDbLine
 10
454.266753
 20
1049.632465
 30
0.0
 11
453.552222
 21
1048.394861
 31
0.0
  0
LINE
  5
1DA
100
AcDbEntity
  8
LAY-1
  6
CONTINUOUS
 62
     7
100
AcDbLine
 10
453.552222
 20
1048.394861
 30
0.0
 11
446.266753
 21
1048.394861
 31
0.0
  0
ARC
  5
1DB
100
AcDbEntity
  8
LAY-1
  6
CONTINUOUS
 62
     7
100
AcDbCircle
 10
438.981284
 20
1057.632465
 30
0.0
 40
15.285469
100
AcDbArc
 50
342.412046
 51
17.587954
  0
LINE
  5
1DC
100
AcDbEntity
  8
LAY-1
  6
CONTINUOUS
 62
     7
100
AcDbLine
 10
453.552222
 20
1066.87007
 30
0.0
 11
454.266753
 21
1065.632465
 31
0.0
  0
ARC
  5
1DD
100
AcDbEntity
  8
LAY-1
  6
CONTINUOUS
 62
     7
100
AcDbCircle
 10
450.177437
 20
1064.560669
 30
0.0
 40
4.089316
100
AcDbArc
 50
325.615753
 51
34.384247
  0
LINE
  5
1DE
100
AcDbEntity
  8
LAY-1
  6
CONTINUOUS
 62
     7
100
AcDbLine
 10
446.266753
 20
1066.87007
 30
0.0
 11
453.552222
 21
1066.87007
 31
0.0
  0
ARC
  5
1DF
100
AcDbEntity
  8
LAY-1
  6
CONTINUOUS
 62
     7
100
AcDbCircle
 10
450.177437
 20
1050.704262
 30
0.0
 40
4.089316
100
AcDbArc
 50
325.615753
 51
34.384247
  0
LINE
  5
1E0
100
AcDbEntity
  8
LAY-1
  6
CONTINUOUS
 62
     7
100
AcDbLine
 10
453.552222
 20
1062.251268
 30
0.0
 11
446.266753
 21
1062.251268
 31
0.0
  0
LINE
  5
1E1
100
AcDbEntity
  8
LAY-1
  6
CONTINUOUS
 62
     7
100
AcDbLine
 10
446.266753
 20
1053.013663
 30
0.0
 11
453.552222
 21
1053.013663
 31
0.0
  0
LINE
  5
1E2
100
AcDbEntity
  8
LAY-1
  6
CONTINUOUS
 62
     7
100
AcDbLine
 10
454.266753
 20
1065.632465
 30
0.0
 11
454.266753
 21
1049.632465
 31
0.0
  0
LINE
  5
1E3
100
AcDbEntity
  8
LAY-1
  6
CONTINUOUS
 62
     7
100
AcDbLine
 10
444.266753
 20
1048.394861
 30
0.0
 11
445.266753
 21
1048.394861
 31
0.0
  0
LINE
  5
1E4
100
AcDbEntity
  8
LAY-1
  6
CONTINUOUS
 62
     7
100
AcDbLine
 10
446.266753
 20
1066.87007
 30
0.0
 11
446.266753
 21
1048.394861
 31
0.0
  0
LINE
  5
1E5
100
AcDbEntity
  8
LAY-1
  6
CONTINUOUS
 62
     7
100
AcDbLine
 10
454.516753
 20
1052.632465
 30
0.0
 11
454.516753
 21
1062.632465
 31
0.0
  0
LINE
  5
1E6
100
AcDbEntity
  8
LAY-1
  6
CONTINUOUS
 62
     7
100
AcDbLine
 10
455.266753
 20
1061.882465
 30
0.0
 11
454.516753
 21
1062.632465
 31
0.0
  0
LINE
  5
1E7
100
AcDbEntity
  8
LAY-1
  6
CONTINUOUS
 62
     7
100
AcDbLine
 10
455.266753
 20
1053.382465
 30
0.0
 11
455.266753
 21
1061.882465
 31
0.0
  0
LINE
  5
1E8
100
AcDbEntity
  8
LAY-1
  6
CONTINUOUS
 62
     7
100
AcDbLine
 10
454.516753
 20
1052.632465
 30
0.0
 11
455.266753
 21
1053.382465
 31
0.0
  0
LINE
  5
1E9
100
AcDbEntity
  8
LAY-1
  6
CONTINUOUS
 62
     7
100
AcDbLine
 10
454.516753
 20
1062.632465
 30
0.0
 11
454.266753
 21
1062.632465
 31
0.0
  0
LINE
  5
1EA
100
AcDbEntity
  8
LAY-1
  6
CONTINUOUS
 62
     7
100
AcDbLine
 10
454.266753
 20
1052.632465
 30
0.0
 11
454.516753
 21
1052.632465
 31
0.0
  0
LINE
  5
1EB
100
AcDbEntity
  8
LAY-1
  6
CONTINUOUS
 62
     7
100
AcDbLine
 10
445.266753
 20
1048.394861
 30
0.0
 11
445.266753
 21
1066.87007
 31
0.0
  0
LINE
  5
1EC
100
AcDbEntity
  8
LAY-1
  6
CONTINUOUS
 62
     7
100
AcDbLine
 10
400.081284
 20
1048.394861
 30
0.0
 11
405.766753
 21
1048.394861
 31
0.0
  0
LINE
  5
1ED
100
AcDbEntity
  8
LAY-1
  6
CONTINUOUS
 62
     7
100
AcDbLine
 10
405.766753
 20
1053.013663
 30
0.0
 11
400.081284
 21
1053.013663
 31
0.0
  0
LINE
  5
1EE
100
AcDbEntity
  8
LAY-1
  6
CONTINUOUS
 62
     7
100
AcDbLine
 10
405.766753
 20
1066.87007
 30
0.0
 11
400.081284
 21
1066.87007
 31
0.0
  0
LINE
  5
1EF
100
AcDbEntity
  8
LAY-1
  6
CONTINUOUS
 62
     7
100
AcDbLine
 10
400.081284
 20
1062.251268
 30
0.0
 11
405.766753
 21
1062.251268
 31
0.0
  0
ARC
  5
1F0
100
AcDbEntity
  8
LAY-1
  6
CONTINUOUS
 62
     7
100
AcDbCircle
 10
403.45607
 20
1050.704262
 30
0.0
 40
4.089316
100
AcDbArc
 50
145.615753
 51
214.384247
  0
LINE
  5
1F1
100
AcDbEntity
  8
LAY-1
  6
CONTINUOUS
 62
     7
100
AcDbLine
 10
399.366753
 20
1065.632465
 30
0.0
 11
399.366753
 21
1049.632465
 31
0.0
  0
LINE
  5
1F2
100
AcDbEntity
  8
LAY-1
  6
CONTINUOUS
 62
     7
100
AcDbLine
 10
400.081284
 20
1066.87007
 30
0.0
 11
399.366753
 21
1065.632465
 31
0.0
  0
ARC
  5
1F3
100
AcDbEntity
  8
LAY-1
  6
CONTINUOUS
 62
     7
100
AcDbCircle
 10
403.45607
 20
1064.560669
 30
0.0
 40
4.089316
100
AcDbArc
 50
145.615753
 51
214.384247
  0
ARC
  5
1F4
100
AcDbEntity
  8
LAY-1
  6
CONTINUOUS
 62
     7
100
AcDbCircle
 10
414.652222
 20
1057.632465
 30
0.0
 40
15.285469
100
AcDbArc
 50
162.412046
 51
197.587954
  0
LINE
  5
1F5
100
AcDbEntity
  8
LAY-1
  6
CONTINUOUS
 62
     7
100
AcDbLine
 10
399.366753
 20
1049.632465
 30
0.0
 11
400.081284
 21
1048.394861
 31
0.0
  0
LINE
  5
1F6
100
AcDbEntity
  8
LAY-1
  6
CONTINUOUS
 62
     7
100
AcDbLine
 10
446.266753
 20
1098.655483
 30
0.0
 11
445.266753
 21
1096.923432
 31
0.0
  0
LINE
  5
1F7
100
AcDbEntity
  8
LAY-1
  6
CONTINUOUS
 62
     7
100
AcDbLine
 10
445.266753
 20
1115.398641
 30
0.0
 11
446.266753
 21
1113.66659
 31
0.0
  0
LINE
  5
1F8
100
AcDbEntity
  8
LAY-1
  6
CONTINUOUS
 62
     7
100
AcDbLine
 10
445.266753
 20
1115.398641
 30
0.0
 11
444.266753
 21
1115.398641
 31
0.0
  0
LINE
  5
1F9
100
AcDbEntity
  8
LAY-1
  6
CONTINUOUS
 62
     7
100
AcDbLine
 10
454.266753
 20
1098.161036
 30
0.0
 11
453.552222
 21
1096.923432
 31
0.0
  0
LINE
  5
1FA
100
AcDbEntity
  8
LAY-1
  6
CONTINUOUS
 62
     7
100
AcDbLine
 10
453.552222
 20
1096.923432
 30
0.0
 11
446.266753
 21
1096.923432
 31
0.0
  0
ARC
  5
1FB
100
AcDbEntity
  8
LAY-1
  6
CONTINUOUS
 62
     7
100
AcDbCircle
 10
438.981284
 20
1106.161036
 30
0.0
 40
15.285469
100
AcDbArc
 50
342.412046
 51
17.587954
  0
LINE
  5
1FC
100
AcDbEntity
  8
LAY-1
  6
CONTINUOUS
 62
     7
100
AcDbLine
 10
453.552222
 20
1115.398641
 30
0.0
 11
454.266753
 21
1114.161036
 31
0.0
  0
ARC
  5
1FD
100
AcDbEntity
  8
LAY-1
  6
CONTINUOUS
 62
     7
100
AcDbCircle
 10
450.177437
 20
1113.08924
 30
0.0
 40
4.089316
100
AcDbArc
 50
325.615753
 51
34.384247
  0
LINE
  5
1FE
100
AcDbEntity
  8
LAY-1
  6
CONTINUOUS
 62
     7
100
AcDbLine
 10
446.266753
 20
1115.398641
 30
0.0
 11
453.552222
 21
1115.398641
 31
0.0
  0
ARC
  5
1FF
100
AcDbEntity
  8
LAY-1
  6
CONTINUOUS
 62
     7
100
AcDbCircle
 10
450.177437
 20
1099.232833
 30
0.0
 40
4.089316
100
AcDbArc
 50
325.615753
 51
34.384247
  0
LINE
  5
200
100
AcDbEntity
  8
LAY-1
  6
CONTINUOUS
 62
     7
100
AcDbLine
 10
453.552222
 20
1110.779839
 30
0.0
 11
446.266753
 21
1110.779839
 31
0.0
  0
LINE
  5
201
100
AcDbEntity
  8
LAY-1
  6
CONTINUOUS
 62
     7
100
AcDbLine
 10
446.266753
 20
1101.542234
 30
0.0
 11
453.552222
 21
1101.542234
 31
0.0
  0
LINE
  5
202
100
AcDbEntity
  8
LAY-1
  6
CONTINUOUS
 62
     7
100
AcDbLine
 10
454.266753
 20
1114.161036
 30
0.0
 11
454.266753
 21
1098.161036
 31
0.0
  0
LINE
  5
203
100
AcDbEntity
  8
LAY-1
  6
CONTINUOUS
 62
     7
100
AcDbLine
 10
444.266753
 20
1096.923432
 30
0.0
 11
445.266753
 21
1096.923432
 31
0.0
  0
LINE
  5
204
100
AcDbEntity
  8
LAY-1
  6
CONTINUOUS
 62
     7
100
AcDbLine
 10
446.266753
 20
1115.398641
 30
0.0
 11
446.266753
 21
1096.923432
 31
0.0
  0
LINE
  5
205
100
AcDbEntity
  8
LAY-1
  6
CONTINUOUS
 62
     7
100
AcDbLine
 10
454.516753
 20
1101.161036
 30
0.0
 11
454.516753
 21
1111.161036
 31
0.0
  0
LINE
  5
206
100
AcDbEntity
  8
LAY-1
  6
CONTINUOUS
 62
     7
100
AcDbLine
 10
455.266753
 20
1110.411036
 30
0.0
 11
454.516753
 21
1111.161036
 31
0.0
  0
LINE
  5
207
100
AcDbEntity
  8
LAY-1
  6
CONTINUOUS
 62
     7
100
AcDbLine
 10
455.266753
 20
1101.911036
 30
0.0
 11
455.266753
 21
1110.411036
 31
0.0
  0
LINE
  5
208
100
AcDbEntity
  8
LAY-1
  6
CONTINUOUS
 62
     7
100
AcDbLine
 10
454.516753
 20
1101.161036
 30
0.0
 11
455.266753
 21
1101.911036
 31
0.0
  0
LINE
  5
209
100
AcDbEntity
  8
LAY-1
  6
CONTINUOUS
 62
     7
100
AcDbLine
 10
454.516753
 20
1111.161036
 30
0.0
 11
454.266753
 21
1111.161036
 31
0.0
  0
LINE
  5
20A
100
AcDbEntity
  8
LAY-1
  6
CONTINUOUS
 62
     7
100
AcDbLine
 10
454.266753
 20
1101.161036
 30
0.0
 11
454.516753
 21
1101.161036
 31
0.0
  0
LINE
  5
20B
100
AcDbEntity
  8
LAY-1
  6
CONTINUOUS
 62
     7
100
AcDbLine
 10
445.266753
 20
1096.923432
 30
0.0
 11
445.266753
 21
1115.398641
 31
0.0
  0
ARC
  5
20C
100
AcDbEntity
  8
LAY-1
  6
CONTINUOUS
 62
     7
100
AcDbCircle
 10
402.766753
 20
751.18652
 30
0.0
 40
3.0
100
AcDbArc
 50
41.552964
 51
61.314598
  0
LINE
  5
20D
100
AcDbEntity
  8
LAY-1
  6
CONTINUOUS
 62
     7
100
AcDbLine
 10
400.081284
 20
1096.923432
 30
0.0
 11
405.766753
 21
1096.923432
 31
0.0
  0
LINE
  5
20E
100
AcDbEntity
  8
LAY-1
  6
CONTINUOUS
 62
     7
100
AcDbLine
 10
405.766753
 20
1101.542234
 30
0.0
 11
400.081284
 21
1101.542234
 31
0.0
  0
LINE
  5
20F
100
AcDbEntity
  8
LAY-1
  6
CONTINUOUS
 62
     7
100
AcDbLine
 10
405.766753
 20
1115.398641
 30
0.0
 11
400.081284
 21
1115.398641
 31
0.0
  0
LINE
  5
210
100
AcDbEntity
  8
LAY-1
  6
CONTINUOUS
 62
     7
100
AcDbLine
 10
400.081284
 20
1110.779839
 30
0.0
 11
405.766753
 21
1110.779839
 31
0.0
  0
ARC
  5
211
100
AcDbEntity
  8
LAY-1
  6
CONTINUOUS
 62
     7
100
AcDbCircle
 10
403.45607
 20
1099.232833
 30
0.0
 40
4.089316
100
AcDbArc
 50
145.615753
 51
214.384247
  0
LINE
  5
212
100
AcDbEntity
  8
LAY-1
  6
CONTINUOUS
 62
     7
100
AcDbLine
 10
399.366753
 20
1114.161036
 30
0.0
 11
399.366753
 21
1098.161036
 31
0.0
  0
LINE
  5
213
100
AcDbEntity
  8
LAY-1
  6
CONTINUOUS
 62
     7
100
AcDbLine
 10
400.081284
 20
1115.398641
 30
0.0
 11
399.366753
 21
1114.161036
 31
0.0
  0
ARC
  5
214
100
AcDbEntity
  8
LAY-1
  6
CONTINUOUS
 62
     7
100
AcDbCircle
 10
403.45607
 20
1113.08924
 30
0.0
 40
4.089316
100
AcDbArc
 50
145.615753
 51
214.384247
  0
ARC
  5
215
100
AcDbEntity
  8
LAY-1
  6
CONTINUOUS
 62
     7
100
AcDbCircle
 10
414.652222
 20
1106.161036
 30
0.0
 40
15.285469
100
AcDbArc
 50
162.412046
 51
197.587954
  0
LINE
  5
216
100
AcDbEntity
  8
LAY-1
  6
CONTINUOUS
 62
     7
100
AcDbLine
 10
399.366753
 20
1098.161036
 30
0.0
 11
400.081284
 21
1096.923432
 31
0.0
  0
ARC
  5
217
100
AcDbEntity
  8
LAY-1
  6
CONTINUOUS
 62
     7
100
AcDbCircle
 10
402.766753
 20
1098.913368
 30
0.0
 40
3.0
100
AcDbArc
 50
298.685402
 51
318.447036
  0
LINE
  5
218
100
AcDbEntity
  8
LAY-1
  6
CONTINUOUS
 62
     7
100
AcDbLine
 10
227.266753
 20
885.212775
 30
0.0
 11
227.266753
 21
892.712775
 31
0.0
  0
LINE
  5
219
100
AcDbEntity
  8
LAY-1
  6
CONTINUOUS
 62
     7
100
AcDbLine
 10
222.344103
 20
892.712775
 30
0.0
 11
221.766753
 21
891.712775
 31
0.0
  0
LINE
  5
21A
100
AcDbEntity
  8
LAY-1
  6
CONTINUOUS
 62
     7
100
AcDbLine
 10
221.766753
 20
885.212775
 30
0.0
 11
221.766753
 21
891.712775
 31
0.0
  0
LINE
  5
21B
100
AcDbEntity
  8
LAY-1
  6
CONTINUOUS
 62
     7
100
AcDbLine
 10
222.344103
 20
888.965552
 30
0.0
 11
227.266753
 21
888.965552
 31
0.0
  0
ARC
  5
21C
100
AcDbEntity
  8
LAY-1
  6
CONTINUOUS
 62
     7
100
AcDbCircle
 10
225.095542
 20
890.839164
 30
0.0
 40
3.328788
100
AcDbArc
 50
145.746813
 51
214.253187
  0
LINE
  5
21D
100
AcDbEntity
  8
LAY-1
  6
CONTINUOUS
 62
     7
100
AcDbLine
 10
227.266753
 20
885.212775
 30
0.0
 11
227.266753
 21
877.712775
 31
0.0
  0
LINE
  5
21E
100
AcDbEntity
  8
LAY-1
  6
CONTINUOUS
 62
     7
100
AcDbLine
 10
222.344103
 20
877.712775
 30
0.0
 11
221.766753
 21
878.712775
 31
0.0
  0
LINE
  5
21F
100
AcDbEntity
  8
LAY-1
  6
CONTINUOUS
 62
     7
100
AcDbLine
 10
221.766753
 20
885.212775
 30
0.0
 11
221.766753
 21
878.712775
 31
0.0
  0
LINE
  5
220
100
AcDbEntity
  8
LAY-1
  6
CONTINUOUS
 62
     7
100
AcDbLine
 10
222.344103
 20
881.459999
 30
0.0
 11
227.266753
 21
881.459999
 31
0.0
  0
ARC
  5
221
100
AcDbEntity
  8
LAY-1
  6
CONTINUOUS
 62
     7
100
AcDbCircle
 10
225.095542
 20
879.586387
 30
0.0
 40
3.328788
100
AcDbArc
 50
145.746813
 51
214.253187
  0
ARC
  5
222
100
AcDbEntity
  8
LAY-1
  6
CONTINUOUS
 62
     7
100
AcDbCircle
 10
234.251953
 20
885.212775
 30
0.0
 40
12.4852
100
AcDbArc
 50
162.507675
 51
197.492325
  0
LINE
  5
223
100
AcDbEntity
  8
LAY-1
  6
CONTINUOUS
 62
     7
100
AcDbLine
 10
229.766753
 20
877.712775
 30
0.0
 11
222.344103
 21
877.712775
 31
0.0
  0
LINE
  5
224
100
AcDbEntity
  8
LAY-1
  6
CONTINUOUS
 62
     7
100
AcDbLine
 10
229.766753
 20
892.712775
 30
0.0
 11
222.344103
 21
892.712775
 31
0.0
  0
LINE
  5
225
100
AcDbEntity
  8
LAY-1
  6
CONTINUOUS
 62
     7
100
AcDbLine
 10
227.266753
 20
964.887113
 30
0.0
 11
227.266753
 21
957.387113
 31
0.0
  0
LINE
  5
226
100
AcDbEntity
  8
LAY-1
  6
CONTINUOUS
 62
     7
100
AcDbLine
 10
222.344103
 20
957.387113
 30
0.0
 11
221.766753
 21
958.387113
 31
0.0
  0
LINE
  5
227
100
AcDbEntity
  8
LAY-1
  6
CONTINUOUS
 62
     7
100
AcDbLine
 10
221.766753
 20
964.887113
 30
0.0
 11
221.766753
 21
958.387113
 31
0.0
  0
LINE
  5
228
100
AcDbEntity
  8
LAY-1
  6
CONTINUOUS
 62
     7
100
AcDbLine
 10
222.344103
 20
961.134336
 30
0.0
 11
227.266753
 21
961.134336
 31
0.0
  0
ARC
  5
229
100
AcDbEntity
  8
LAY-1
  6
CONTINUOUS
 62
     7
100
AcDbCircle
 10
225.095542
 20
959.260724
 30
0.0
 40
3.328788
100
AcDbArc
 50
145.746813
 51
214.253187
  0
LINE
  5
22A
100
AcDbEntity
  8
LAY-1
  6
CONTINUOUS
 62
     7
100
AcDbLine
 10
227.266753
 20
964.887113
 30
0.0
 11
227.266753
 21
972.387113
 31
0.0
  0
LINE
  5
22B
100
AcDbEntity
  8
LAY-1
  6
CONTINUOUS
 62
     7
100
AcDbLine
 10
222.344103
 20
972.387113
 30
0.0
 11
221.766753
 21
971.387113
 31
0.0
  0
LINE
  5
22C
100
AcDbEntity
  8
LAY-1
  6
CONTINUOUS
 62
     7
100
AcDbLine
 10
221.766753
 20
964.887113
 30
0.0
 11
221.766753
 21
971.387113
 31
0.0
  0
LINE
  5
22D
100
AcDbEntity
  8
LAY-1
  6
CONTINUOUS
 62
     7
100
AcDbLine
 10
222.344103
 20
968.639889
 30
0.0
 11
227.266753
 21
968.639889
 31
0.0
  0
ARC
  5
22E
100
AcDbEntity
  8
LAY-1
  6
CONTINUOUS
 62
     7
100
AcDbCircle
 10
225.095542
 20
970.513501
 30
0.0
 40
3.328788
100
AcDbArc
 50
145.746813
 51
214.253187
  0
ARC
  5
22F
100
AcDbEntity
  8
LAY-1
  6
CONTINUOUS
 62
     7
100
AcDbCircle
 10
234.251953
 20
964.887113
 30
0.0
 40
12.4852
100
AcDbArc
 50
162.507675
 51
197.492325
  0
LINE
  5
230
100
AcDbEntity
  8
LAY-1
  6
CONTINUOUS
 62
     7
100
AcDbLine
 10
229.766753
 20
972.387113
 30
0.0
 11
222.344103
 21
972.387113
 31
0.0
  0
LINE
  5
231
100
AcDbEntity
  8
LAY-1
  6
CONTINUOUS
 62
     7
100
AcDbLine
 10
229.766753
 20
957.387113
 30
0.0
 11
222.344103
 21
957.387113
 31
0.0
  0
LINE
  5
232
100
AcDbEntity
  8
LAY-1
  6
CONTINUOUS
 62
     7
100
AcDbLine
 10
227.266753
 20
925.049944
 30
0.0
 11
227.266753
 21
932.549944
 31
0.0
  0
LINE
  5
233
100
AcDbEntity
  8
LAY-1
  6
CONTINUOUS
 62
     7
100
AcDbLine
 10
222.344103
 20
932.549944
 30
0.0
 11
221.766753
 21
931.549944
 31
0.0
  0
LINE
  5
234
100
AcDbEntity
  8
LAY-1
  6
CONTINUOUS
 62
     7
100
AcDbLine
 10
221.766753
 20
925.049944
 30
0.0
 11
221.766753
 21
931.549944
 31
0.0
  0
LINE
  5
235
100
AcDbEntity
  8
LAY-1
  6
CONTINUOUS
 62
     7
100
AcDbLine
 10
222.344103
 20
928.802721
 30
0.0
 11
227.266753
 21
928.802721
 31
0.0
  0
ARC
  5
236
100
AcDbEntity
  8
LAY-1
  6
CONTINUOUS
 62
     7
100
AcDbCircle
 10
225.095542
 20
930.676332
 30
0.0
 40
3.328788
100
AcDbArc
 50
145.746813
 51
214.253187
  0
LINE
  5
237
100
AcDbEntity
  8
LAY-1
  6
CONTINUOUS
 62
     7
100
AcDbLine
 10
227.266753
 20
925.049944
 30
0.0
 11
227.266753
 21
917.549944
 31
0.0
  0
LINE
  5
238
100
AcDbEntity
  8
LAY-1
  6
CONTINUOUS
 62
     7
100
AcDbLine
 10
222.344103
 20
917.549944
 30
0.0
 11
221.766753
 21
918.549944
 31
0.0
  0
LINE
  5
239
100
AcDbEntity
  8
LAY-1
  6
CONTINUOUS
 62
     7
100
AcDbLine
 10
221.766753
 20
925.049944
 30
0.0
 11
221.766753
 21
918.549944
 31
0.0
  0
LINE
  5
23A
100
AcDbEntity
  8
LAY-1
  6
CONTINUOUS
 62
     7
100
AcDbLine
 10
222.344103
 20
921.297167
 30
0.0
 11
227.266753
 21
921.297167
 31
0.0
  0
ARC
  5
23B
100
AcDbEntity
  8
LAY-1
  6
CONTINUOUS
 62
     7
100
AcDbCircle
 10
225.095542
 20
919.423556
 30
0.0
 40
3.328788
100
AcDbArc
 50
145.746813
 51
214.253187
  0
ARC
  5
23C
100
AcDbEntity
  8
LAY-1
  6
CONTINUOUS
 62
     7
100
AcDbCircle
 10
234.251953
 20
925.049944
 30
0.0
 40
12.4852
100
AcDbArc
 50
162.507675
 51
197.492325
  0
LINE
  5
23D
100
AcDbEntity
  8
LAY-1
  6
CONTINUOUS
 62
     7
100
AcDbLine
 10
229.766753
 20
917.549944
 30
0.0
 11
222.344103
 21
917.549944
 31
0.0
  0
LINE
  5
23E
100
AcDbEntity
  8
LAY-1
  6
CONTINUOUS
 62
     7
100
AcDbLine
 10
229.766753
 20
932.549944
 30
0.0
 11
222.344103
 21
932.549944
 31
0.0
  0
LINE
  5
23F
100
AcDbEntity
  8
LAY-1
  6
EXLTYPE3
 62
     1
100
AcDbLine
 10
1398.515922
 20
925.049944
 30
0.0
 11
1878.715922
 21
925.049944
 31
0.0
  0
LINE
  5
240
100
AcDbEntity
  8
LAY-1
  6
CONTINUOUS
 62
     7
100
AcDbLine
 10
1829.853112
 20
795.049944
 30
0.0
 11
1829.853112
 21
837.249078
 31
0.0
  0
ARC
  5
241
100
AcDbEntity
  8
LAY-1
  6
CONTINUOUS
 62
     7
100
AcDbCircle
 10
1676.16509
 20
925.049944
 30
0.0
 40
177.0
100
AcDbArc
 50
18.568352
 51
29.739018
  0
LINE
  5
242
100
AcDbEntity
  8
LAY-1
  6
CONTINUOUS
 62
     7
100
AcDbLine
 10
1829.853112
 20
1055.049944
 30
0.0
 11
1829.853112
 21
1012.85081
 31
0.0
  0
LINE
  5
243
100
AcDbEntity
  8
LAY-1
  6
CONTINUOUS
 62
     7
100
AcDbLine
 10
1737.477069
 20
1055.049944
 30
0.0
 11
1737.477069
 21
1012.85081
 31
0.0
  0
LINE
  5
244
100
AcDbEntity
  8
LAY-1
  6
CONTINUOUS
 62
     7
100
AcDbLine
 10
1737.477069
 20
835.049944
 30
0.0
 11
1737.477069
 21
795.049944
 31
0.0
  0
LINE
  5
245
100
AcDbEntity
  8
LAY-1
  6
CONTINUOUS
 62
     7
100
AcDbLine
 10
1737.477069
 20
1055.049944
 30
0.0
 11
1829.853112
 21
1055.049944
 31
0.0
  0
LINE
  5
246
100
AcDbEntity
  8
LAY-1
  6
CONTINUOUS
 62
     7
100
AcDbLine
 10
1737.477069
 20
795.049944
 30
0.0
 11
1829.853112
 21
795.049944
 31
0.0
  0
ARC
  5
247
100
AcDbEntity
  8
LAY-1
  6
CONTINUOUS
 62
     7
100
AcDbCircle
 10
1891.16509
 20
925.049944
 30
0.0
 40
177.0
100
AcDbArc
 50
150.260982
 51
155.19659
  0
ARC
  5
248
100
AcDbEntity
  8
LAY-1
  6
CONTINUOUS
 62
     7
100
AcDbCircle
 10
1676.16509
 20
925.049944
 30
0.0
 40
177.0
100
AcDbArc
 50
330.260982
 51
341.431648
  0
ARC
  5
249
100
AcDbEntity
  8
LAY-1
  6
CONTINUOUS
 62
     7
100
AcDbCircle
 10
1845.847146
 20
982.049944
 30
0.0
 40
2.0
100
AcDbArc
 50
198.568352
 51
264.798825
  0
ARC
  5
24A
100
AcDbEntity
  8
LAY-1
  6
CONTINUOUS
 62
     7
100
AcDbCircle
 10
1714.264675
 20
1013.049944
 30
0.0
 40
2.0
100
AcDbArc
 50
20.0
 51
90.0
  0
ARC
  5
24B
100
AcDbEntity
  8
LAY-1
  6
CONTINUOUS
 62
     7
100
AcDbCircle
 10
1714.600708
 20
1017.049944
 30
0.0
 40
2.0
100
AcDbArc
 50
189.373126
 51
270.0
  0
ARC
  5
24C
100
AcDbEntity
  8
LAY-1
  6
CONTINUOUS
 62
     7
100
AcDbCircle
 10
1658.66509
 20
1055.049944
 30
0.0
 40
47.0
100
AcDbArc
 50
9.373126
 51
61.314598
  0
LINE
  5
24D
100
AcDbEntity
  8
LAY-1
  6
CONTINUOUS
 62
     7
100
AcDbLine
 10
1712.62741
 20
1016.724218
 30
0.0
 11
1705.037577
 21
1062.704515
 31
0.0
  0
LINE
  5
24E
100
AcDbEntity
  8
LAY-1
  6
CONTINUOUS
 62
     7
100
AcDbLine
 10
1712.903778
 20
835.049944
 30
0.0
 11
1705.037577
 21
787.395373
 31
0.0
  0
LINE
  5
24F
100
AcDbEntity
  8
LAY-1
  6
CONTINUOUS
 62
     7
100
AcDbLine
 10
1737.477069
 20
835.049944
 30
0.0
 11
1712.903778
 21
835.049944
 31
0.0
  0
ARC
  5
250
100
AcDbEntity
  8
LAY-1
  6
CONTINUOUS
 62
     7
100
AcDbCircle
 10
1658.66509
 20
795.049944
 30
0.0
 40
47.0
100
AcDbArc
 50
298.685402
 51
350.626874
  0
ARC
  5
251
100
AcDbEntity
  8
LAY-1
  6
CONTINUOUS
 62
     7
100
AcDbCircle
 10
1725.954133
 20
1001.400055
 30
0.0
 40
5.0
100
AcDbArc
 50
200.0
 51
335.19659
  0
LINE
  5
252
100
AcDbEntity
  8
LAY-1
  6
CONTINUOUS
 62
     7
100
AcDbLine
 10
1716.144061
 20
1013.733984
 30
0.0
 11
1721.25567
 21
999.689954
 31
0.0
  0
ARC
  5
253
100
AcDbEntity
  8
LAY-1
  6
CONTINUOUS
 62
     7
100
AcDbCircle
 10
1845.847146
 20
868.049944
 30
0.0
 40
2.0
100
AcDbArc
 50
95.201175
 51
161.431648
  0
LINE
  5
254
100
AcDbEntity
  8
LAY-1
  6
CONTINUOUS
 62
     7
100
AcDbLine
 10
1845.66509
 20
899.049944
 30
0.0
 11
1845.66509
 21
870.049944
 31
0.0
  0
LINE
  5
255
100
AcDbEntity
  8
LAY-1
  6
CONTINUOUS
 62
     7
100
AcDbLine
 10
1845.66509
 20
980.049944
 30
0.0
 11
1854.66509
 21
980.049944
 31
0.0
  0
LINE
  5
256
100
AcDbEntity
  8
LAY-1
  6
CONTINUOUS
 62
     7
100
AcDbLine
 10
1855.66509
 20
979.049944
 30
0.0
 11
1855.66509
 21
925.049944
 31
0.0
  0
ARC
  5
257
100
AcDbEntity
  8
LAY-1
  6
CONTINUOUS
 62
     7
100
AcDbCircle
 10
1854.66509
 20
979.049944
 30
0.0
 40
1.0
100
AcDbArc
 50
0.0
 51
90.0
  0
ARC
  5
258
100
AcDbEntity
  8
LAY-1
  6
CONTINUOUS
 62
     7
100
AcDbCircle
 10
1854.66509
 20
871.049944
 30
0.0
 40
1.0
100
AcDbArc
 50
270.0
 51
0.0
  0
LINE
  5
259
100
AcDbEntity
  8
LAY-1
  6
CONTINUOUS
 62
     7
100
AcDbLine
 10
1855.66509
 20
871.049944
 30
0.0
 11
1855.66509
 21
925.049944
 31
0.0
  0
LINE
  5
25A
100
AcDbEntity
  8
LAY-1
  6
CONTINUOUS
 62
     7
100
AcDbLine
 10
1845.66584
 20
870.049944
 30
0.0
 11
1854.66509
 21
870.049944
 31
0.0
  0
LINE
  5
25B
100
AcDbEntity
  8
LAY-1
  6
CONTINUOUS
 62
     7
100
AcDbLine
 10
1846.66509
 20
899.049944
 30
0.0
 11
1846.66509
 21
870.049944
 31
0.0
  0
LINE
  5
25C
100
AcDbEntity
  8
LAY-1
  6
EXLTYPE3
 62
     1
100
AcDbLine
 10
1783.66509
 20
1084.472479
 30
0.0
 11
1783.66509
 21
766.440789
 31
0.0
  0
LINE
  5
25D
100
AcDbEntity
  8
LAY-1
  6
CONTINUOUS
 62
     7
100
AcDbLine
 10
1663.66509
 20
725.049944
 30
0.0
 11
1679.66509
 21
725.049944
 31
0.0
  0
LINE
  5
25E
100
AcDbEntity
  8
LAY-1
  6
CONTINUOUS
 62
     7
100
AcDbLine
 10
1663.66509
 20
1125.049944
 30
0.0
 11
1679.66509
 21
1125.049944
 31
0.0
  0
LINE
  5
25F
100
AcDbEntity
  8
LAY-1
  6
CONTINUOUS
 62
     7
100
AcDbLine
 10
1664.66509
 20
1125.049944
 30
0.0
 11
1664.66509
 21
725.049944
 31
0.0
  0
LINE
  5
260
100
AcDbEntity
  8
LAY-1
  6
CONTINUOUS
 62
     7
100
AcDbLine
 10
1679.66509
 20
1125.049944
 30
0.0
 11
1679.66509
 21
725.049944
 31
0.0
  0
LINE
  5
261
100
AcDbEntity
  8
LAY-1
  6
CONTINUOUS
 62
     7
100
AcDbLine
 10
1685.350559
 20
753.176456
 30
0.0
 11
1679.66509
 21
753.176456
 31
0.0
  0
LINE
  5
262
100
AcDbEntity
  8
LAY-1
  6
CONTINUOUS
 62
     7
100
AcDbLine
 10
1679.66509
 20
748.557654
 30
0.0
 11
1685.350559
 21
748.557654
 31
0.0
  0
LINE
  5
263
100
AcDbEntity
  8
LAY-1
  6
CONTINUOUS
 62
     7
100
AcDbLine
 10
1679.66509
 20
734.701247
 30
0.0
 11
1685.350559
 21
734.701247
 31
0.0
  0
LINE
  5
264
100
AcDbEntity
  8
LAY-1
  6
CONTINUOUS
 62
     7
100
AcDbLine
 10
1685.350559
 20
739.320049
 30
0.0
 11
1679.66509
 21
739.320049
 31
0.0
  0
ARC
  5
265
100
AcDbEntity
  8
LAY-1
  6
CONTINUOUS
 62
     7
100
AcDbCircle
 10
1681.975774
 20
750.867055
 30
0.0
 40
4.089316
100
AcDbArc
 50
325.615753
 51
34.384247
  0
LINE
  5
266
100
AcDbEntity
  8
LAY-1
  6
CONTINUOUS
 62
     7
100
AcDbLine
 10
1686.06509
 20
735.938852
 30
0.0
 11
1686.06509
 21
751.938852
 31
0.0
  0
LINE
  5
267
100
AcDbEntity
  8
LAY-1
  6
CONTINUOUS
 62
     7
100
AcDbLine
 10
1685.350559
 20
734.701247
 30
0.0
 11
1686.06509
 21
735.938852
 31
0.0
  0
ARC
  5
268
100
AcDbEntity
  8
LAY-1
  6
CONTINUOUS
 62
     7
100
AcDbCircle
 10
1681.975774
 20
737.010648
 30
0.0
 40
4.089316
100
AcDbArc
 50
325.615753
 51
34.384247
  0
ARC
  5
269
100
AcDbEntity
  8
LAY-1
  6
CONTINUOUS
 62
     7
100
AcDbCircle
 10
1670.779622
 20
743.938852
 30
0.0
 40
15.285469
100
AcDbArc
 50
342.412046
 51
17.587954
  0
LINE
  5
26A
100
AcDbEntity
  8
LAY-1
  6
CONTINUOUS
 62
     7
100
AcDbLine
 10
1686.06509
 20
751.938852
 30
0.0
 11
1685.350559
 21
753.176456
 31
0.0
  0
LINE
  5
26B
100
AcDbEntity
  8
LAY-1
  6
CONTINUOUS
 62
     7
100
AcDbLine
 10
1685.350559
 20
801.705027
 30
0.0
 11
1679.66509
 21
801.705027
 31
0.0
  0
LINE
  5
26C
100
AcDbEntity
  8
LAY-1
  6
CONTINUOUS
 62
     7
100
AcDbLine
 10
1679.66509
 20
797.086225
 30
0.0
 11
1685.350559
 21
797.086225
 31
0.0
  0
LINE
  5
26D
100
AcDbEntity
  8
LAY-1
  6
CONTINUOUS
 62
     7
100
AcDbLine
 10
1679.66509
 20
783.229818
 30
0.0
 11
1685.350559
 21
783.229818
 31
0.0
  0
LINE
  5
26E
100
AcDbEntity
  8
LAY-1
  6
CONTINUOUS
 62
     7
100
AcDbLine
 10
1685.350559
 20
787.84862
 30
0.0
 11
1679.66509
 21
787.84862
 31
0.0
  0
ARC
  5
26F
100
AcDbEntity
  8
LAY-1
  6
CONTINUOUS
 62
     7
100
AcDbCircle
 10
1681.975774
 20
799.395626
 30
0.0
 40
4.089316
100
AcDbArc
 50
325.615753
 51
34.384247
  0
LINE
  5
270
100
AcDbEntity
  8
LAY-1
  6
CONTINUOUS
 62
     7
100
AcDbLine
 10
1686.06509
 20
784.467423
 30
0.0
 11
1686.06509
 21
800.467423
 31
0.0
  0
LINE
  5
271
100
AcDbEntity
  8
LAY-1
  6
CONTINUOUS
 62
     7
100
AcDbLine
 10
1685.350559
 20
783.229818
 30
0.0
 11
1686.06509
 21
784.467423
 31
0.0
  0
ARC
  5
272
100
AcDbEntity
  8
LAY-1
  6
CONTINUOUS
 62
     7
100
AcDbCircle
 10
1681.975774
 20
785.539219
 30
0.0
 40
4.089316
100
AcDbArc
 50
325.615753
 51
34.384247
  0
ARC
  5
273
100
AcDbEntity
  8
LAY-1
  6
CONTINUOUS
 62
     7
100
AcDbCircle
 10
1670.779622
 20
792.467423
 30
0.0
 40
15.285469
100
AcDbArc
 50
342.412046
 51
17.587954
  0
LINE
  5
274
100
AcDbEntity
  8
LAY-1
  6
CONTINUOUS
 62
     7
100
AcDbLine
 10
1686.06509
 20
800.467423
 30
0.0
 11
1685.350559
 21
801.705027
 31
0.0
  0
LINE
  5
275
100
AcDbEntity
  8
LAY-1
  6
CONTINUOUS
 62
     7
100
AcDbLine
 10
1685.350559
 20
885.758977
 30
0.0
 11
1679.66509
 21
885.758977
 31
0.0
  0
LINE
  5
276
100
AcDbEntity
  8
LAY-1
  6
CONTINUOUS
 62
     7
100
AcDbLine
 10
1679.66509
 20
881.140175
 30
0.0
 11
1685.350559
 21
881.140175
 31
0.0
  0
LINE
  5
277
100
AcDbEntity
  8
LAY-1
  6
CONTINUOUS
 62
     7
100
AcDbLine
 10
1679.66509
 20
867.283769
 30
0.0
 11
1685.350559
 21
867.283769
 31
0.0
  0
LINE
  5
278
100
AcDbEntity
  8
LAY-1
  6
CONTINUOUS
 62
     7
100
AcDbLine
 10
1685.350559
 20
871.902571
 30
0.0
 11
1679.66509
 21
871.902571
 31
0.0
  0
ARC
  5
279
100
AcDbEntity
  8
LAY-1
  6
CONTINUOUS
 62
     7
100
AcDbCircle
 10
1681.975774
 20
883.449576
 30
0.0
 40
4.089316
100
AcDbArc
 50
325.615753
 51
34.384247
  0
LINE
  5
27A
100
AcDbEntity
  8
LAY-1
  6
CONTINUOUS
 62
     7
100
AcDbLine
 10
1686.06509
 20
868.521373
 30
0.0
 11
1686.06509
 21
884.521373
 31
0.0
  0
LINE
  5
27B
100
AcDbEntity
  8
LAY-1
  6
CONTINUOUS
 62
     7
100
AcDbLine
 10
1685.350559
 20
867.283769
 30
0.0
 11
1686.06509
 21
868.521373
 31
0.0
  0
ARC
  5
27C
100
AcDbEntity
  8
LAY-1
  6
CONTINUOUS
 62
     7
100
AcDbCircle
 10
1681.975774
 20
869.59317
 30
0.0
 40
4.089316
100
AcDbArc
 50
325.615753
 51
34.384247
  0
ARC
  5
27D
100
AcDbEntity
  8
LAY-1
  6
CONTINUOUS
 62
     7
100
AcDbCircle
 10
1670.779622
 20
876.521373
 30
0.0
 40
15.285469
100
AcDbArc
 50
342.412046
 51
17.587954
  0
LINE
  5
27E
100
AcDbEntity
  8
LAY-1
  6
CONTINUOUS
 62
     7
100
AcDbLine
 10
1686.06509
 20
884.521373
 30
0.0
 11
1685.350559
 21
885.758977
 31
0.0
  0
LINE
  5
27F
100
AcDbEntity
  8
LAY-1
  6
CONTINUOUS
 62
     7
100
AcDbLine
 10
1685.350559
 20
964.340911
 30
0.0
 11
1679.66509
 21
964.340911
 31
0.0
  0
LINE
  5
280
100
AcDbEntity
  8
LAY-1
  6
CONTINUOUS
 62
     7
100
AcDbLine
 10
1679.66509
 20
968.959713
 30
0.0
 11
1685.350559
 21
968.959713
 31
0.0
  0
LINE
  5
281
100
AcDbEntity
  8
LAY-1
  6
CONTINUOUS
 62
     7
100
AcDbLine
 10
1679.66509
 20
982.816119
 30
0.0
 11
1685.350559
 21
982.816119
 31
0.0
  0
LINE
  5
282
100
AcDbEntity
  8
LAY-1
  6
CONTINUOUS
 62
     7
100
AcDbLine
 10
1685.350559
 20
978.197317
 30
0.0
 11
1679.66509
 21
978.197317
 31
0.0
  0
ARC
  5
283
100
AcDbEntity
  8
LAY-1
  6
CONTINUOUS
 62
     7
100
AcDbCircle
 10
1681.975774
 20
966.650312
 30
0.0
 40
4.089316
100
AcDbArc
 50
325.615753
 51
34.384247
  0
LINE
  5
284
100
AcDbEntity
  8
LAY-1
  6
CONTINUOUS
 62
     7
100
AcDbLine
 10
1686.06509
 20
981.578515
 30
0.0
 11
1686.06509
 21
965.578515
 31
0.0
  0
LINE
  5
285
100
AcDbEntity
  8
LAY-1
  6
CONTINUOUS
 62
     7
100
AcDbLine
 10
1685.350559
 20
982.816119
 30
0.0
 11
1686.06509
 21
981.578515
 31
0.0
  0
ARC
  5
286
100
AcDbEntity
  8
LAY-1
  6
CONTINUOUS
 62
     7
100
AcDbCircle
 10
1681.975774
 20
980.506718
 30
0.0
 40
4.089316
100
AcDbArc
 50
325.615753
 51
34.384247
  0
ARC
  5
287
100
AcDbEntity
  8
LAY-1
  6
CONTINUOUS
 62
     7
100
AcDbCircle
 10
1670.779622
 20
973.578515
 30
0.0
 40
15.285469
100
AcDbArc
 50
342.412046
 51
17.587954
  0
LINE
  5
288
100
AcDbEntity
  8
LAY-1
  6
CONTINUOUS
 62
     7
100
AcDbLine
 10
1686.06509
 20
965.578515
 30
0.0
 11
1685.350559
 21
964.340911
 31
0.0
  0
LINE
  5
289
100
AcDbEntity
  8
LAY-1
  6
CONTINUOUS
 62
     7
100
AcDbLine
 10
1685.350559
 20
1048.394861
 30
0.0
 11
1679.66509
 21
1048.394861
 31
0.0
  0
LINE
  5
28A
100
AcDbEntity
  8
LAY-1
  6
CONTINUOUS
 62
     7
100
AcDbLine
 10
1679.66509
 20
1053.013663
 30
0.0
 11
1685.350559
 21
1053.013663
 31
0.0
  0
LINE
  5
28B
100
AcDbEntity
  8
LAY-1
  6
CONTINUOUS
 62
     7
100
AcDbLine
 10
1679.66509
 20
1066.87007
 30
0.0
 11
1685.350559
 21
1066.87007
 31
0.0
  0
LINE
  5
28C
100
AcDbEntity
  8
LAY-1
  6
CONTINUOUS
 62
     7
100
AcDbLine
 10
1685.350559
 20
1062.251268
 30
0.0
 11
1679.66509
 21
1062.251268
 31
0.0
  0
ARC
  5
28D
100
AcDbEntity
  8
LAY-1
  6
CONTINUOUS
 62
     7
100
AcDbCircle
 10
1681.975774
 20
1050.704262
 30
0.0
 40
4.089316
100
AcDbArc
 50
325.615753
 51
34.384247
  0
LINE
  5
28E
100
AcDbEntity
  8
LAY-1
  6
CONTINUOUS
 62
     7
100
AcDbLine
 10
1686.06509
 20
1065.632465
 30
0.0
 11
1686.06509
 21
1049.632465
 31
0.0
  0
LINE
  5
28F
100
AcDbEntity
  8
LAY-1
  6
CONTINUOUS
 62
     7
100
AcDbLine
 10
1685.350559
 20
1066.87007
 30
0.0
 11
1686.06509
 21
1065.632465
 31
0.0
  0
ARC
  5
290
100
AcDbEntity
  8
LAY-1
  6
CONTINUOUS
 62
     7
100
AcDbCircle
 10
1681.975774
 20
1064.560669
 30
0.0
 40
4.089316
100
AcDbArc
 50
325.615753
 51
34.384247
  0
ARC
  5
291
100
AcDbEntity
  8
LAY-1
  6
CONTINUOUS
 62
     7
100
AcDbCircle
 10
1670.779622
 20
1057.632465
 30
0.0
 40
15.285469
100
AcDbArc
 50
342.412046
 51
17.587954
  0
LINE
  5
292
100
AcDbEntity
  8
LAY-1
  6
CONTINUOUS
 62
     7
100
AcDbLine
 10
1686.06509
 20
1049.632465
 30
0.0
 11
1685.350559
 21
1048.394861
 31
0.0
  0
ARC
  5
293
100
AcDbEntity
  8
LAY-1
  6
CONTINUOUS
 62
     7
100
AcDbCircle
 10
1682.66509
 20
751.18652
 30
0.0
 40
3.0
100
AcDbArc
 50
118.685402
 51
138.447036
  0
LINE
  5
294
100
AcDbEntity
  8
LAY-1
  6
CONTINUOUS
 62
     7
100
AcDbLine
 10
1685.350559
 20
1096.923432
 30
0.0
 11
1679.66509
 21
1096.923432
 31
0.0
  0
LINE
  5
295
100
AcDbEntity
  8
LAY-1
  6
CONTINUOUS
 62
     7
100
AcDbLine
 10
1679.66509
 20
1101.542234
 30
0.0
 11
1685.350559
 21
1101.542234
 31
0.0
  0
LINE
  5
296
100
AcDbEntity
  8
LAY-1
  6
CONTINUOUS
 62
     7
100
AcDbLine
 10
1679.66509
 20
1115.398641
 30
0.0
 11
1685.350559
 21
1115.398641
 31
0.0
  0
LINE
  5
297
100
AcDbEntity
  8
LAY-1
  6
CONTINUOUS
 62
     7
100
AcDbLine
 10
1685.350559
 20
1110.779839
 30
0.0
 11
1679.66509
 21
1110.779839
 31
0.0
  0
ARC
  5
298
100
AcDbEntity
  8
LAY-1
  6
CONTINUOUS
 62
     7
100
AcDbCircle
 10
1681.975774
 20
1099.232833
 30
0.0
 40
4.089316
100
AcDbArc
 50
325.615753
 51
34.384247
  0
LINE
  5
299
100
AcDbEntity
  8
LAY-1
  6
CONTINUOUS
 62
     7
100
AcDbLine
 10
1686.06509
 20
1114.161036
 30
0.0
 11
1686.06509
 21
1098.161036
 31
0.0
  0
LINE
  5
29A
100
AcDbEntity
  8
LAY-1
  6
CONTINUOUS
 62
     7
100
AcDbLine
 10
1685.350559
 20
1115.398641
 30
0.0
 11
1686.06509
 21
1114.161036
 31
0.0
  0
ARC
  5
29B
100
AcDbEntity
  8
LAY-1
  6
CONTINUOUS
 62
     7
100
AcDbCircle
 10
1681.975774
 20
1113.08924
 30
0.0
 40
4.089316
100
AcDbArc
 50
325.615753
 51
34.384247
  0
ARC
  5
29C
100
AcDbEntity
  8
LAY-1
  6
CONTINUOUS
 62
     7
100
AcDbCircle
 10
1670.779622
 20
1106.161036
 30
0.0
 40
15.285469
100
AcDbArc
 50
342.412046
 51
17.587954
  0
LINE
  5
29D
100
AcDbEntity
  8
LAY-1
  6
CONTINUOUS
 62
     7
100
AcDbLine
 10
1686.06509
 20
1098.161036
 30
0.0
 11
1685.350559
 21
1096.923432
 31
0.0
  0
ARC
  5
29E
100
AcDbEntity
  8
LAY-1
  6
CONTINUOUS
 62
     7
100
AcDbCircle
 10
1682.66509
 20
1098.913368
 30
0.0
 40
3.0
100
AcDbArc
 50
221.552964
 51
241.314598
  0
LINE
  5
29F
100
AcDbEntity
  8
LAY-1
  6
CONTINUOUS
 62
     7
100
AcDbLine
 10
1858.16509
 20
885.212775
 30
0.0
 11
1858.16509
 21
892.712775
 31
0.0
  0
LINE
  5
2A0
100
AcDbEntity
  8
LAY-1
  6
CONTINUOUS
 62
     7
100
AcDbLine
 10
1863.08774
 20
892.712775
 30
0.0
 11
1863.66509
 21
891.712775
 31
0.0
  0
LINE
  5
2A1
100
AcDbEntity
  8
LAY-1
  6
CONTINUOUS
 62
     7
100
AcDbLine
 10
1863.66509
 20
885.212775
 30
0.0
 11
1863.66509
 21
891.712775
 31
0.0
  0
LINE
  5
2A2
100
AcDbEntity
  8
LAY-1
  6
CONTINUOUS
 62
     7
100
AcDbLine
 10
1863.08774
 20
888.965552
 30
0.0
 11
1858.16509
 21
888.965552
 31
0.0
  0
ARC
  5
2A3
100
AcDbEntity
  8
LAY-1
  6
CONTINUOUS
 62
     7
100
AcDbCircle
 10
1860.336302
 20
890.839164
 30
0.0
 40
3.328788
100
AcDbArc
 50
325.746813
 51
34.253187
  0
LINE
  5
2A4
100
AcDbEntity
  8
LAY-1
  6
CONTINUOUS
 62
     7
100
AcDbLine
 10
1858.16509
 20
885.212775
 30
0.0
 11
1858.16509
 21
877.712775
 31
0.0
  0
LINE
  5
2A5
100
AcDbEntity
  8
LAY-1
  6
CONTINUOUS
 62
     7
100
AcDbLine
 10
1863.08774
 20
877.712775
 30
0.0
 11
1863.66509
 21
878.712775
 31
0.0
  0
LINE
  5
2A6
100
AcDbEntity
  8
LAY-1
  6
CONTINUOUS
 62
     7
100
AcDbLine
 10
1863.66509
 20
885.212775
 30
0.0
 11
1863.66509
 21
878.712775
 31
0.0
  0
LINE
  5
2A7
100
AcDbEntity
  8
LAY-1
  6
CONTINUOUS
 62
     7
100
AcDbLine
 10
1863.08774
 20
881.459999
 30
0.0
 11
1858.16509
 21
881.459999
 31
0.0
  0
ARC
  5
2A8
100
AcDbEntity
  8
LAY-1
  6
CONTINUOUS
 62
     7
100
AcDbCircle
 10
1860.336302
 20
879.586387
 30
0.0
 40
3.328788
100
AcDbArc
 50
325.746813
 51
34.253187
  0
ARC
  5
2A9
100
AcDbEntity
  8
LAY-1
  6
CONTINUOUS
 62
     7
100
AcDbCircle
 10
1851.179891
 20
885.212775
 30
0.0
 40
12.4852
100
AcDbArc
 50
342.507675
 51
17.492325
  0
LINE
  5
2AA
100
AcDbEntity
  8
LAY-1
  6
CONTINUOUS
 62
     7
100
AcDbLine
 10
1855.66509
 20
877.712775
 30
0.0
 11
1863.08774
 21
877.712775
 31
0.0
  0
LINE
  5
2AB
100
AcDbEntity
  8
LAY-1
  6
CONTINUOUS
 62
     7
100
AcDbLine
 10
1855.66509
 20
892.712775
 30
0.0
 11
1863.08774
 21
892.712775
 31
0.0
  0
LINE
  5
2AC
100
AcDbEntity
  8
LAY-1
  6
CONTINUOUS
 62
     7
100
AcDbLine
 10
1858.16509
 20
964.887113
 30
0.0
 11
1858.16509
 21
957.387113
 31
0.0
  0
LINE
  5
2AD
100
AcDbEntity
  8
LAY-1
  6
CONTINUOUS
 62
     7
100
AcDbLine
 10
1863.08774
 20
957.387113
 30
0.0
 11
1863.66509
 21
958.387113
 31
0.0
  0
LINE
  5
2AE
100
AcDbEntity
  8
LAY-1
  6
CONTINUOUS
 62
     7
100
AcDbLine
 10
1863.66509
 20
964.887113
 30
0.0
 11
1863.66509
 21
958.387113
 31
0.0
  0
LINE
  5
2AF
100
AcDbEntity
  8
LAY-1
  6
CONTINUOUS
 62
     7
100
AcDbLine
 10
1863.08774
 20
961.134336
 30
0.0
 11
1858.16509
 21
961.134336
 31
0.0
  0
ARC
  5
2B0
100
AcDbEntity
  8
LAY-1
  6
CONTINUOUS
 62
     7
100
AcDbCircle
 10
1860.336302
 20
959.260724
 30
0.0
 40
3.328788
100
AcDbArc
 50
325.746813
 51
34.253187
  0
LINE
  5
2B1
100
AcDbEntity
  8
LAY-1
  6
CONTINUOUS
 62
     7
100
AcDbLine
 10
1858.16509
 20
964.887113
 30
0.0
 11
1858.16509
 21
972.387113
 31
0.0
  0
LINE
  5
2B2
100
AcDbEntity
  8
LAY-1
  6
CONTINUOUS
 62
     7
100
AcDbLine
 10
1863.08774
 20
972.387113
 30
0.0
 11
1863.66509
 21
971.387113
 31
0.0
  0
LINE
  5
2B3
100
AcDbEntity
  8
LAY-1
  6
CONTINUOUS
 62
     7
100
AcDbLine
 10
1863.66509
 20
964.887113
 30
0.0
 11
1863.66509
 21
971.387113
 31
0.0
  0
LINE
  5
2B4
100
AcDbEntity
  8
LAY-1
  6
CONTINUOUS
 62
     7
100
AcDbLine
 10
1863.08774
 20
968.639889
 30
0.0
 11
1858.16509
 21
968.639889
 31
0.0
  0
ARC
  5
2B5
100
AcDbEntity
  8
LAY-1
  6
CONTINUOUS
 62
     7
100
AcDbCircle
 10
1860.336302
 20
970.513501
 30
0.0
 40
3.328788
100
AcDbArc
 50
325.746813
 51
34.253187
  0
ARC
  5
2B6
100
AcDbEntity
  8
LAY-1
  6
CONTINUOUS
 62
     7
100
AcDbCircle
 10
1851.179891
 20
964.887113
 30
0.0
 40
12.4852
100
AcDbArc
 50
342.507675
 51
17.492325
  0
LINE
  5
2B7
100
AcDbEntity
  8
LAY-1
  6
CONTINUOUS
 62
     7
100
AcDbLine
 10
1855.66509
 20
972.387113
 30
0.0
 11
1863.08774
 21
972.387113
 31
0.0
  0
LINE
  5
2B8
100
AcDbEntity
  8
LAY-1
  6
CONTINUOUS
 62
     7
100
AcDbLine
 10
1855.66509
 20
957.387113
 30
0.0
 11
1863.08774
 21
957.387113
 31
0.0
  0
LINE
  5
2B9
100
AcDbEntity
  8
LAY-1
  6
CONTINUOUS
 62
     7
100
AcDbLine
 10
1858.16509
 20
925.049944
 30
0.0
 11
1858.16509
 21
932.549944
 31
0.0
  0
LINE
  5
2BA
100
AcDbEntity
  8
LAY-1
  6
CONTINUOUS
 62
     7
100
AcDbLine
 10
1863.08774
 20
932.549944
 30
0.0
 11
1863.66509
 21
931.549944
 31
0.0
  0
LINE
  5
2BB
100
AcDbEntity
  8
LAY-1
  6
CONTINUOUS
 62
     7
100
AcDbLine
 10
1863.66509
 20
925.049944
 30
0.0
 11
1863.66509
 21
931.549944
 31
0.0
  0
LINE
  5
2BC
100
AcDbEntity
  8
LAY-1
  6
CONTINUOUS
 62
     7
100
AcDbLine
 10
1863.08774
 20
928.802721
 30
0.0
 11
1858.16509
 21
928.802721
 31
0.0
  0
ARC
  5
2BD
100
AcDbEntity
  8
LAY-1
  6
CONTINUOUS
 62
     7
100
AcDbCircle
 10
1860.336302
 20
930.676332
 30
0.0
 40
3.328788
100
AcDbArc
 50
325.746813
 51
34.253187
  0
LINE
  5
2BE
100
AcDbEntity
  8
LAY-1
  6
CONTINUOUS
 62
     7
100
AcDbLine
 10
1858.16509
 20
925.049944
 30
0.0
 11
1858.16509
 21
917.549944
 31
0.0
  0
LINE
  5
2BF
100
AcDbEntity
  8
LAY-1
  6
CONTINUOUS
 62
     7
100
AcDbLine
 10
1863.08774
 20
917.549944
 30
0.0
 11
1863.66509
 21
918.549944
 31
0.0
  0
LINE
  5
2C0
100
AcDbEntity
  8
LAY-1
  6
CONTINUOUS
 62
     7
100
AcDbLine
 10
1863.66509
 20
925.049944
 30
0.0
 11
1863.66509
 21
918.549944
 31
0.0
  0
LINE
  5
2C1
100
AcDbEntity
  8
LAY-1
  6
CONTINUOUS
 62
     7
100
AcDbLine
 10
1863.08774
 20
921.297167
 30
0.0
 11
1858.16509
 21
921.297167
 31
0.0
  0
ARC
  5
2C2
100
AcDbEntity
  8
LAY-1
  6
CONTINUOUS
 62
     7
100
AcDbCircle
 10
1860.336302
 20
919.423556
 30
0.0
 40
3.328788
100
AcDbArc
 50
325.746813
 51
34.253187
  0
ARC
  5
2C3
100
AcDbEntity
  8
LAY-1
  6
CONTINUOUS
 62
     7
100
AcDbCircle
 10
1851.179891
 20
925.049944
 30
0.0
 40
12.4852
100
AcDbArc
 50
342.507675
 51
17.492325
  0
LINE
  5
2C4
100
AcDbEntity
  8
LAY-1
  6
CONTINUOUS
 62
     7
100
AcDbLine
 10
1855.66509
 20
917.549944
 30
0.0
 11
1863.08774
 21
917.549944
 31
0.0
  0
LINE
  5
2C5
100
AcDbEntity
  8
LAY-1
  6
CONTINUOUS
 62
     7
100
AcDbLine
 10
1855.66509
 20
932.549944
 30
0.0
 11
1863.08774
 21
932.549944
 31
0.0
  0
LINE
  5
2C6
100
AcDbEntity
  8
LAY-1
  6
CONTINUOUS
 62
     2
100
AcDbLine
 10
1641.16509
 20
725.049944
 30
0.0
 11
1641.16509
 21
730.948111
 31
0.0
  0
LINE
  5
2C7
100
AcDbEntity
  8
LAY-1
  6
CONTINUOUS
 62
     2
100
AcDbLine
 10
1641.16509
 20
730.948111
 30
0.0
 11
1641.16509
 21
746.929549
 31
0.0
  0
LINE
  5
2C8
100
AcDbEntity
  8
LAY-1
  6
CONTINUOUS
 62
     7
100
AcDbLine
 10
1641.16509
 20
925.049944
 30
0.0
 11
1641.16509
 21
725.049944
 31
0.0
  0
ARC
  5
2C9
100
AcDbEntity
  8
LAY-1
  6
CONTINUOUS
 62
     7
100
AcDbCircle
 10
1635.709989
 20
753.111164
 30
0.0
 40
4.344899
100
AcDbArc
 50
145.615753
 51
214.384247
  0
ARC
  5
2CA
100
AcDbEntity
  8
LAY-1
  6
CONTINUOUS
 62
     7
100
AcDbCircle
 10
1635.709989
 20
738.388732
 30
0.0
 40
4.344899
100
AcDbArc
 50
145.615753
 51
214.384247
  0
ARC
  5
2CB
100
AcDbEntity
  8
LAY-1
  6
CONTINUOUS
 62
     7
100
AcDbCircle
 10
1647.605901
 20
745.749948
 30
0.0
 40
16.240811
100
AcDbArc
 50
162.412046
 51
197.587954
  0
LINE
  5
2CC
100
AcDbEntity
  8
LAY-1
  6
CONTINUOUS
 62
     7
100
AcDbLine
 10
1632.12428
 20
755.564903
 30
0.0
 11
1641.16509
 21
755.564903
 31
0.0
  0
LINE
  5
2CD
100
AcDbEntity
  8
LAY-1
  6
CONTINUOUS
 62
     7
100
AcDbLine
 10
1631.36509
 20
754.249948
 30
0.0
 11
1632.12428
 21
755.564903
 31
0.0
  0
LINE
  5
2CE
100
AcDbEntity
  8
LAY-1
  6
CONTINUOUS
 62
     7
100
AcDbLine
 10
1631.36509
 20
737.249948
 30
0.0
 11
1631.36509
 21
754.249948
 31
0.0
  0
LINE
  5
2CF
100
AcDbEntity
  8
LAY-1
  6
CONTINUOUS
 62
     7
100
AcDbLine
 10
1632.12428
 20
735.934994
 30
0.0
 11
1631.36509
 21
737.249948
 31
0.0
  0
LINE
  5
2D0
100
AcDbEntity
  8
LAY-1
  6
CONTINUOUS
 62
     7
100
AcDbLine
 10
1641.16509
 20
735.934994
 30
0.0
 11
1632.12428
 21
735.934994
 31
0.0
  0
LINE
  5
2D1
100
AcDbEntity
  8
LAY-1
  6
CONTINUOUS
 62
     7
100
AcDbLine
 10
1639.36509
 20
750.657425
 30
0.0
 11
1632.12428
 21
750.657425
 31
0.0
  0
LINE
  5
2D2
100
AcDbEntity
  8
LAY-1
  6
CONTINUOUS
 62
     7
100
AcDbLine
 10
1632.12428
 20
740.842471
 30
0.0
 11
1639.36509
 21
740.842471
 31
0.0
  0
LINE
  5
2D3
100
AcDbEntity
  8
LAY-1
  6
CONTINUOUS
 62
     7
100
AcDbLine
 10
1639.36509
 20
735.934994
 30
0.0
 11
1639.36509
 21
755.564903
 31
0.0
  0
ARC
  5
2D4
100
AcDbEntity
  8
LAY-1
  6
CONTINUOUS
 62
     7
100
AcDbCircle
 10
1635.709989
 20
801.154453
 30
0.0
 40
4.344899
100
AcDbArc
 50
145.615753
 51
214.384247
  0
ARC
  5
2D5
100
AcDbEntity
  8
LAY-1
  6
CONTINUOUS
 62
     7
100
AcDbCircle
 10
1635.709989
 20
786.432021
 30
0.0
 40
4.344899
100
AcDbArc
 50
145.615753
 51
214.384247
  0
ARC
  5
2D6
100
AcDbEntity
  8
LAY-1
  6
CONTINUOUS
 62
     7
100
AcDbCircle
 10
1647.605901
 20
793.793237
 30
0.0
 40
16.240811
100
AcDbArc
 50
162.412046
 51
197.587954
  0
LINE
  5
2D7
100
AcDbEntity
  8
LAY-1
  6
CONTINUOUS
 62
     7
100
AcDbLine
 10
1632.12428
 20
803.608192
 30
0.0
 11
1641.16509
 21
803.608192
 31
0.0
  0
LINE
  5
2D8
100
AcDbEntity
  8
LAY-1
  6
CONTINUOUS
 62
     7
100
AcDbLine
 10
1631.36509
 20
802.293237
 30
0.0
 11
1632.12428
 21
803.608192
 31
0.0
  0
LINE
  5
2D9
100
AcDbEntity
  8
LAY-1
  6
CONTINUOUS
 62
     7
100
AcDbLine
 10
1631.36509
 20
785.293237
 30
0.0
 11
1631.36509
 21
802.293237
 31
0.0
  0
LINE
  5
2DA
100
AcDbEntity
  8
LAY-1
  6
CONTINUOUS
 62
     7
100
AcDbLine
 10
1632.12428
 20
783.978283
 30
0.0
 11
1631.36509
 21
785.293237
 31
0.0
  0
LINE
  5
2DB
100
AcDbEntity
  8
LAY-1
  6
CONTINUOUS
 62
     7
100
AcDbLine
 10
1641.16509
 20
783.978283
 30
0.0
 11
1632.12428
 21
783.978283
 31
0.0
  0
LINE
  5
2DC
100
AcDbEntity
  8
LAY-1
  6
CONTINUOUS
 62
     7
100
AcDbLine
 10
1639.36509
 20
798.700715
 30
0.0
 11
1632.12428
 21
798.700715
 31
0.0
  0
LINE
  5
2DD
100
AcDbEntity
  8
LAY-1
  6
CONTINUOUS
 62
     7
100
AcDbLine
 10
1632.12428
 20
788.88576
 30
0.0
 11
1639.36509
 21
788.88576
 31
0.0
  0
LINE
  5
2DE
100
AcDbEntity
  8
LAY-1
  6
CONTINUOUS
 62
     7
100
AcDbLine
 10
1639.36509
 20
783.978283
 30
0.0
 11
1639.36509
 21
803.608192
 31
0.0
  0
ARC
  5
2DF
100
AcDbEntity
  8
LAY-1
  6
CONTINUOUS
 62
     7
100
AcDbCircle
 10
1635.709989
 20
884.367871
 30
0.0
 40
4.344899
100
AcDbArc
 50
145.615753
 51
214.384247
  0
ARC
  5
2E0
100
AcDbEntity
  8
LAY-1
  6
CONTINUOUS
 62
     7
100
AcDbCircle
 10
1635.709989
 20
869.645439
 30
0.0
 40
4.344899
100
AcDbArc
 50
145.615753
 51
214.384247
  0
ARC
  5
2E1
100
AcDbEntity
  8
LAY-1
  6
CONTINUOUS
 62
     7
100
AcDbCircle
 10
1647.605901
 20
877.006655
 30
0.0
 40
16.240811
100
AcDbArc
 50
162.412046
 51
197.587954
  0
LINE
  5
2E2
100
AcDbEntity
  8
LAY-1
  6
CONTINUOUS
 62
     7
100
AcDbLine
 10
1632.12428
 20
886.821609
 30
0.0
 11
1641.16509
 21
886.821609
 31
0.0
  0
LINE
  5
2E3
100
AcDbEntity
  8
LAY-1
  6
CONTINUOUS
 62
     7
100
AcDbLine
 10
1631.36509
 20
885.506655
 30
0.0
 11
1632.12428
 21
886.821609
 31
0.0
  0
LINE
  5
2E4
100
AcDbEntity
  8
LAY-1
  6
CONTINUOUS
 62
     7
100
AcDbLine
 10
1631.36509
 20
868.506655
 30
0.0
 11
1631.36509
 21
885.506655
 31
0.0
  0
LINE
  5
2E5
100
AcDbEntity
  8
LAY-1
  6
CONTINUOUS
 62
     7
100
AcDbLine
 10
1632.12428
 20
867.1917
 30
0.0
 11
1631.36509
 21
868.506655
 31
0.0
  0
LINE
  5
2E6
100
AcDbEntity
  8
LAY-1
  6
CONTINUOUS
 62
     7
100
AcDbLine
 10
1641.16509
 20
867.1917
 30
0.0
 11
1632.12428
 21
867.1917
 31
0.0
  0
LINE
  5
2E7
100
AcDbEntity
  8
LAY-1
  6
CONTINUOUS
 62
     7
100
AcDbLine
 10
1639.36509
 20
881.914132
 30
0.0
 11
1632.12428
 21
881.914132
 31
0.0
  0
LINE
  5
2E8
100
AcDbEntity
  8
LAY-1
  6
CONTINUOUS
 62
     7
100
AcDbLine
 10
1632.12428
 20
872.099178
 30
0.0
 11
1639.36509
 21
872.099178
 31
0.0
  0
LINE
  5
2E9
100
AcDbEntity
  8
LAY-1
  6
CONTINUOUS
 62
     7
100
AcDbLine
 10
1639.36509
 20
867.1917
 30
0.0
 11
1639.36509
 21
886.821609
 31
0.0
  0
ARC
  5
2EA
100
AcDbEntity
  8
LAY-1
  6
CONTINUOUS
 62
     7
100
AcDbCircle
 10
1635.709989
 20
980.454449
 30
0.0
 40
4.344899
100
AcDbArc
 50
145.615753
 51
214.384247
  0
ARC
  5
2EB
100
AcDbEntity
  8
LAY-1
  6
CONTINUOUS
 62
     7
100
AcDbCircle
 10
1635.709989
 20
965.732017
 30
0.0
 40
4.344899
100
AcDbArc
 50
145.615753
 51
214.384247
  0
ARC
  5
2EC
100
AcDbEntity
  8
LAY-1
  6
CONTINUOUS
 62
     7
100
AcDbCircle
 10
1647.605901
 20
973.093233
 30
0.0
 40
16.240811
100
AcDbArc
 50
162.412046
 51
197.587954
  0
LINE
  5
2ED
100
AcDbEntity
  8
LAY-1
  6
CONTINUOUS
 62
     7
100
AcDbLine
 10
1632.12428
 20
982.908188
 30
0.0
 11
1641.16509
 21
982.908188
 31
0.0
  0
LINE
  5
2EE
100
AcDbEntity
  8
LAY-1
  6
CONTINUOUS
 62
     7
100
AcDbLine
 10
1631.36509
 20
981.593233
 30
0.0
 11
1632.12428
 21
982.908188
 31
0.0
  0
LINE
  5
2EF
100
AcDbEntity
  8
LAY-1
  6
CONTINUOUS
 62
     7
100
AcDbLine
 10
1631.36509
 20
964.593233
 30
0.0
 11
1631.36509
 21
981.593233
 31
0.0
  0
LINE
  5
2F0
100
AcDbEntity
  8
LAY-1
  6
CONTINUOUS
 62
     7
100
AcDbLine
 10
1632.12428
 20
963.278278
 30
0.0
 11
1631.36509
 21
964.593233
 31
0.0
  0
LINE
  5
2F1
100
AcDbEntity
  8
LAY-1
  6
CONTINUOUS
 62
     7
100
AcDbLine
 10
1641.16509
 20
963.278278
 30
0.0
 11
1632.12428
 21
963.278278
 31
0.0
  0
LINE
  5
2F2
100
AcDbEntity
  8
LAY-1
  6
CONTINUOUS
 62
     7
100
AcDbLine
 10
1639.36509
 20
978.00071
 30
0.0
 11
1632.12428
 21
978.00071
 31
0.0
  0
LINE
  5
2F3
100
AcDbEntity
  8
LAY-1
  6
CONTINUOUS
 62
     7
100
AcDbLine
 10
1632.12428
 20
968.185756
 30
0.0
 11
1639.36509
 21
968.185756
 31
0.0
  0
LINE
  5
2F4
100
AcDbEntity
  8
LAY-1
  6
CONTINUOUS
 62
     7
100
AcDbLine
 10
1639.36509
 20
963.278278
 30
0.0
 11
1639.36509
 21
982.908188
 31
0.0
  0
ARC
  5
2F5
100
AcDbEntity
  8
LAY-1
  6
CONTINUOUS
 62
     7
100
AcDbCircle
 10
1635.709989
 20
1063.667867
 30
0.0
 40
4.344899
100
AcDbArc
 50
145.615753
 51
214.384247
  0
ARC
  5
2F6
100
AcDbEntity
  8
LAY-1
  6
CONTINUOUS
 62
     7
100
AcDbCircle
 10
1635.709989
 20
1048.945435
 30
0.0
 40
4.344899
100
AcDbArc
 50
145.615753
 51
214.384247
  0
ARC
  5
2F7
100
AcDbEntity
  8
LAY-1
  6
CONTINUOUS
 62
     7
100
AcDbCircle
 10
1647.605901
 20
1056.306651
 30
0.0
 40
16.240811
100
AcDbArc
 50
162.412046
 51
197.587954
  0
LINE
  5
2F8
100
AcDbEntity
  8
LAY-1
  6
CONTINUOUS
 62
     7
100
AcDbLine
 10
1632.12428
 20
1066.121605
 30
0.0
 11
1641.16509
 21
1066.121605
 31
0.0
  0
LINE
  5
2F9
100
AcDbEntity
  8
LAY-1
  6
CONTINUOUS
 62
     7
100
AcDbLine
 10
1631.36509
 20
1064.806651
 30
0.0
 11
1632.12428
 21
1066.121605
 31
0.0
  0
LINE
  5
2FA
100
AcDbEntity
  8
LAY-1
  6
CONTINUOUS
 62
     7
100
AcDbLine
 10
1631.36509
 20
1047.806651
 30
0.0
 11
1631.36509
 21
1064.806651
 31
0.0
  0
LINE
  5
2FB
100
AcDbEntity
  8
LAY-1
  6
CONTINUOUS
 62
     7
100
AcDbLine
 10
1632.12428
 20
1046.491696
 30
0.0
 11
1631.36509
 21
1047.806651
 31
0.0
  0
LINE
  5
2FC
100
AcDbEntity
  8
LAY-1
  6
CONTINUOUS
 62
     7
100
AcDbLine
 10
1641.16509
 20
1046.491696
 30
0.0
 11
1632.12428
 21
1046.491696
 31
0.0
  0
LINE
  5
2FD
100
AcDbEntity
  8
LAY-1
  6
CONTINUOUS
 62
     7
100
AcDbLine
 10
1639.36509
 20
1061.214128
 30
0.0
 11
1632.12428
 21
1061.214128
 31
0.0
  0
LINE
  5
2FE
100
AcDbEntity
  8
LAY-1
  6
CONTINUOUS
 62
     7
100
AcDbLine
 10
1632.12428
 20
1051.399173
 30
0.0
 11
1639.36509
 21
1051.399173
 31
0.0
  0
LINE
  5
2FF
100
AcDbEntity
  8
LAY-1
  6
CONTINUOUS
 62
     7
100
AcDbLine
 10
1639.36509
 20
1046.491696
 30
0.0
 11
1639.36509
 21
1066.121605
 31
0.0
  0
LINE
  5
300
100
AcDbEntity
  8
LAY-1
  6
CONTINUOUS
 62
     7
100
AcDbLine
 10
1641.16509
 20
925.049944
 30
0.0
 11
1641.16509
 21
1125.049944
 31
0.0
  0
ARC
  5
301
100
AcDbEntity
  8
LAY-1
  6
CONTINUOUS
 62
     7
100
AcDbCircle
 10
1635.709989
 20
1111.711156
 30
0.0
 40
4.344899
100
AcDbArc
 50
145.615753
 51
214.384247
  0
ARC
  5
302
100
AcDbEntity
  8
LAY-1
  6
CONTINUOUS
 62
     7
100
AcDbCircle
 10
1635.709989
 20
1096.988724
 30
0.0
 40
4.344899
100
AcDbArc
 50
145.615753
 51
214.384247
  0
ARC
  5
303
100
AcDbEntity
  8
LAY-1
  6
CONTINUOUS
 62
     7
100
AcDbCircle
 10
1647.605901
 20
1104.34994
 30
0.0
 40
16.240811
100
AcDbArc
 50
162.412046
 51
197.587954
  0
LINE
  5
304
100
AcDbEntity
  8
LAY-1
  6
CONTINUOUS
 62
     7
100
AcDbLine
 10
1632.12428
 20
1114.164894
 30
0.0
 11
1641.16509
 21
1114.164894
 31
0.0
  0
LINE
  5
305
100
AcDbEntity
  8
LAY-1
  6
CONTINUOUS
 62
     7
100
AcDbLine
 10
1631.36509
 20
1112.84994
 30
0.0
 11
1632.12428
 21
1114.164894
 31
0.0
  0
LINE
  5
306
100
AcDbEntity
  8
LAY-1
  6
CONTINUOUS
 62
     7
100
AcDbLine
 10
1631.36509
 20
1095.84994
 30
0.0
 11
1631.36509
 21
1112.84994
 31
0.0
  0
LINE
  5
307
100
AcDbEntity
  8
LAY-1
  6
CONTINUOUS
 62
     7
100
AcDbLine
 10
1632.12428
 20
1094.534985
 30
0.0
 11
1631.36509
 21
1095.84994
 31
0.0
  0
LINE
  5
308
100
AcDbEntity
  8
LAY-1
  6
CONTINUOUS
 62
     7
100
AcDbLine
 10
1641.16509
 20
1094.534985
 30
0.0
 11
1632.12428
 21
1094.534985
 31
0.0
  0
LINE
  5
309
100
AcDbEntity
  8
LAY-1
  6
CONTINUOUS
 62
     7
100
AcDbLine
 10
1639.36509
 20
1109.257417
 30
0.0
 11
1632.12428
 21
1109.257417
 31
0.0
  0
LINE
  5
30A
100
AcDbEntity
  8
LAY-1
  6
CONTINUOUS
 62
     7
100
AcDbLine
 10
1632.12428
 20
1099.442463
 30
0.0
 11
1639.36509
 21
1099.442463
 31
0.0
  0
LINE
  5
30B
100
AcDbEntity
  8
LAY-1
  6
CONTINUOUS
 62
     7
100
AcDbLine
 10
1639.36509
 20
1094.534985
 30
0.0
 11
1639.36509
 21
1114.164894
 31
0.0
  0
LINE
  5
30C
100
AcDbEntity
  8
LAY-1
  6
CONTINUOUS
 62
     7
100
AcDbLine
 10
1661.66509
 20
725.049944
 30
0.0
 11
1641.16509
 21
725.049944
 31
0.0
  0
LINE
  5
30D
100
AcDbEntity
  8
LAY-1
  6
CONTINUOUS
 62
     7
100
AcDbLine
 10
1661.66509
 20
725.049944
 30
0.0
 11
1663.66509
 21
727.049944
 31
0.0
  0
LINE
  5
30E
100
AcDbEntity
  8
LAY-1
  6
CONTINUOUS
 62
     7
100
AcDbLine
 10
1661.66509
 20
1125.049944
 30
0.0
 11
1663.66509
 21
1123.049944
 31
0.0
  0
LINE
  5
30F
100
AcDbEntity
  8
LAY-1
  6
CONTINUOUS
 62
     7
100
AcDbLine
 10
1661.66509
 20
1125.049944
 30
0.0
 11
1641.16509
 21
1125.049944
 31
0.0
  0
LINE
  5
310
100
AcDbEntity
  8
LAY-1
  6
CONTINUOUS
 62
     7
100
AcDbLine
 10
1604.66509
 20
900.119794
 30
0.0
 11
1604.66509
 21
949.980094
 31
0.0
  0
LINE
  5
311
100
AcDbEntity
  8
LAY-1
  6
CONTINUOUS
 62
     7
100
AcDbLine
 10
1604.66509
 20
949.980094
 30
0.0
 11
1638.269789
 21
951.153596
 31
0.0
  0
ARC
  5
312
100
AcDbEntity
  8
LAY-1
  6
CONTINUOUS
 62
     7
100
AcDbCircle
 10
1638.16509
 20
954.151768
 30
0.0
 40
3.0
100
AcDbArc
 50
272.0
 51
0.0
  0
LINE
  5
313
100
AcDbEntity
  8
LAY-1
  6
CONTINUOUS
 62
     7
100
AcDbLine
 10
1604.66509
 20
900.119794
 30
0.0
 11
1638.269789
 21
898.946292
 31
0.0
  0
ARC
  5
314
100
AcDbEntity
  8
LAY-1
  6
CONTINUOUS
 62
     7
100
AcDbCircle
 10
1638.16509
 20
895.94812
 30
0.0
 40
3.0
100
AcDbArc
 50
0.0
 51
88.0
  0
LINE
  5
315
100
AcDbEntity
  8
LAY-1
  6
CONTINUOUS
 62
     7
100
AcDbLine
 10
1663.66509
 20
725.049944
 30
0.0
 11
1663.66509
 21
1125.049944
 31
0.0
  0
LINE
  5
316
100
AcDbEntity
  8
LAY-1
  6
CONTINUOUS
 62
     3
100
AcDbLine
 10
1239.717943
 20
258.984894
 30
0.0
 11
1239.71806
 21
258.988268
 31
0.0
  0
ARC
  5
317
100
AcDbEntity
  8
LAY-1
  6
CONTINUOUS
 62
     7
100
AcDbCircle
 10
1217.122587
 20
284.523281
 30
0.0
 40
3.0
100
AcDbArc
 50
90.0
 51
151.314598
  0
LINE
  5
318
100
AcDbEntity
  8
LAY-1
  6
CONTINUOUS
 62
     7
100
AcDbLine
 10
868.490618
 20
287.523281
 30
0.0
 11
842.806603
 21
287.523281
 31
0.0
  0
ARC
  5
319
100
AcDbEntity
  8
LAY-1
  6
CONTINUOUS
 62
     7
100
AcDbCircle
 10
912.354043
 20
308.523281
 30
0.0
 40
47.0
100
AcDbArc
 50
208.685402
 51
261.805179
  0
LINE
  5
31A
100
AcDbEntity
  8
LAY-1
  6
CONTINUOUS
 62
     7
100
AcDbLine
 10
951.119953
 20
254.790842
 30
0.0
 11
905.654688
 21
262.003193
 31
0.0
  0
ARC
  5
31B
100
AcDbEntity
  8
LAY-1
  6
CONTINUOUS
 62
     7
100
AcDbCircle
 10
950.806603
 20
252.815541
 30
0.0
 40
2.0
100
AcDbArc
 50
0.0
 51
80.986035
  0
ARC
  5
31C
100
AcDbEntity
  8
LAY-1
  6
CONTINUOUS
 62
     7
100
AcDbCircle
 10
954.806603
 20
252.923696
 30
0.0
 40
2.0
100
AcDbArc
 50
180.0
 51
250.0
  0
ARC
  5
31D
100
AcDbEntity
  8
LAY-1
  6
CONTINUOUS
 62
     7
100
AcDbCircle
 10
868.490618
 20
284.523281
 30
0.0
 40
3.0
100
AcDbArc
 50
28.685402
 51
90.0
  0
LINE
  5
31E
100
AcDbEntity
  8
LAY-1
  6
CONTINUOUS
 62
     7
100
AcDbLine
 10
1242.806603
 20
302.523281
 30
0.0
 11
842.806603
 21
302.523281
 31
0.0
  0
ARC
  5
31F
100
AcDbEntity
  8
LAY-1
  6
CONTINUOUS
 62
     7
100
AcDbCircle
 10
1136.364252
 20
247.563281
 30
0.0
 40
5.0
100
AcDbArc
 50
90.0
 51
110.0
  0
ARC
  5
320
100
AcDbEntity
  8
LAY-1
  6
CONTINUOUS
 62
     7
100
AcDbCircle
 10
1134.625241
 20
252.815541
 30
0.0
 40
2.0
100
AcDbArc
 50
99.013965
 51
180.0
  0
ARC
  5
321
100
AcDbEntity
  8
LAY-1
  6
CONTINUOUS
 62
     7
100
AcDbCircle
 10
1130.625241
 20
252.923696
 30
0.0
 40
2.0
100
AcDbArc
 50
290.0
 51
0.0
  0
ARC
  5
322
100
AcDbEntity
  8
LAY-1
  6
CONTINUOUS
 62
     7
100
AcDbCircle
 10
1173.259163
 20
308.523281
 30
0.0
 40
47.0
100
AcDbArc
 50
281.168246
 51
331.314598
  0
LINE
  5
323
100
AcDbEntity
  8
LAY-1
  6
CONTINUOUS
 62
     7
100
AcDbLine
 10
1134.31189
 20
254.790842
 30
0.0
 11
1182.362624
 21
262.413336
 31
0.0
  0
LINE
  5
324
100
AcDbEntity
  8
LAY-1
  6
CONTINUOUS
 62
     7
100
AcDbLine
 10
1241.947665
 20
259.701098
 30
0.0
 11
1241.947665
 21
258.845098
 31
0.0
  0
LINE
  5
325
100
AcDbEntity
  8
LAY-1
  6
CONTINUOUS
 62
     7
100
AcDbLine
 10
1241.947665
 20
258.845098
 30
0.0
 11
1243.947665
 21
258.845098
 31
0.0
  0
LINE
  5
326
100
AcDbEntity
  8
LAY-1
  6
CONTINUOUS
 62
     1
100
AcDbLine
 10
1241.947665
 20
259.701098
 30
0.0
 11
1243.947665
 21
258.845098
 31
0.0
  0
LINE
  5
327
100
AcDbEntity
  8
LAY-1
  6
CONTINUOUS
 62
     7
100
AcDbLine
 10
1249.32245
 20
257.480377
 30
0.0
 11
1249.947665
 21
258.563281
 31
0.0
  0
LINE
  5
328
100
AcDbEntity
  8
LAY-1
  6
CONTINUOUS
 62
     7
100
AcDbLine
 10
1249.32245
 20
257.480377
 30
0.0
 11
1243.947665
 21
257.480377
 31
0.0
  0
LINE
  5
329
100
AcDbEntity
  8
LAY-1
  6
CONTINUOUS
 62
     7
100
AcDbLine
 10
1243.947665
 20
257.480377
 30
0.0
 11
1243.947665
 21
258.845098
 31
0.0
  0
LINE
  5
32A
100
AcDbEntity
  8
LAY-1
  6
CONTINUOUS
 62
     7
100
AcDbLine
 10
1249.947665
 20
258.563281
 30
0.0
 11
1249.947665
 21
265.563281
 31
0.0
  0
LINE
  5
32B
100
AcDbEntity
  8
LAY-1
  6
EXLTYPE4
 62
     1
100
AcDbLine
 10
1243.947665
 20
258.563281
 30
0.0
 11
1249.947665
 21
258.563281
 31
0.0
  0
LINE
  5
32C
100
AcDbEntity
  8
LAY-1
  6
CONTINUOUS
 62
     7
100
AcDbLine
 10
1241.947665
 20
271.425464
 30
0.0
 11
1241.947665
 21
272.281464
 31
0.0
  0
LINE
  5
32D
100
AcDbEntity
  8
LAY-1
  6
CONTINUOUS
 62
     7
100
AcDbLine
 10
1241.947665
 20
272.281464
 30
0.0
 11
1243.947665
 21
272.281464
 31
0.0
  0
LINE
  5
32E
100
AcDbEntity
  8
LAY-1
  6
CONTINUOUS
 62
     1
100
AcDbLine
 10
1241.947665
 20
271.425464
 30
0.0
 11
1243.947665
 21
272.281464
 31
0.0
  0
LINE
  5
32F
100
AcDbEntity
  8
LAY-1
  6
CONTINUOUS
 62
     7
100
AcDbLine
 10
1249.32245
 20
273.646185
 30
0.0
 11
1249.947665
 21
272.563281
 31
0.0
  0
LINE
  5
330
100
AcDbEntity
  8
LAY-1
  6
CONTINUOUS
 62
     7
100
AcDbLine
 10
1249.32245
 20
273.646185
 30
0.0
 11
1243.947665
 21
273.646185
 31
0.0
  0
LINE
  5
331
100
AcDbEntity
  8
LAY-1
  6
CONTINUOUS
 62
     7
100
AcDbLine
 10
1249.947665
 20
272.563281
 30
0.0
 11
1249.947665
 21
265.563281
 31
0.0
  0
LINE
  5
332
100
AcDbEntity
  8
LAY-1
  6
EXLTYPE4
 62
     1
100
AcDbLine
 10
1243.947665
 20
272.563281
 30
0.0
 11
1249.947665
 21
272.563281
 31
0.0
  0
LINE
  5
333
100
AcDbEntity
  8
LAY-1
  6
CONTINUOUS
 62
     7
100
AcDbLine
 10
1240.180114
 20
272.21974
 30
0.0
 11
1241.947665
 21
272.281464
 31
0.0
  0
LINE
  5
334
100
AcDbEntity
  8
LAY-1
  6
CONTINUOUS
 62
     1
100
AcDbLine
 10
1241.947665
 20
271.425464
 30
0.0
 11
1240.150185
 21
271.362695
 31
0.0
  0
LINE
  5
335
100
AcDbEntity
  8
LAY-1
  6
CONTINUOUS
 62
     1
100
AcDbLine
 10
1241.947665
 20
259.701098
 30
0.0
 11
1239.745638
 21
259.777994
 31
0.0
  0
LINE
  5
336
100
AcDbEntity
  8
LAY-1
  6
EXLTYPE4
 62
     1
100
AcDbLine
 10
1239.721548
 20
258.984781
 30
0.0
 11
1239.71806
 21
258.988268
 31
0.0
  0
LINE
  5
337
100
AcDbEntity
  8
LAY-1
  6
CONTINUOUS
 62
     7
100
AcDbLine
 10
1239.715782
 20
258.923037
 30
0.0
 11
1241.947665
 21
258.845098
 31
0.0
  0
LINE
  5
338
100
AcDbEntity
  8
LAY-1
  6
EXLTYPE4
 62
     1
100
AcDbLine
 10
1239.721548
 20
258.984781
 30
0.0
 11
1239.717943
 21
258.984894
 31
0.0
  0
LINE
  5
339
100
AcDbEntity
  8
LAY-1
  6
CONTINUOUS
 62
     7
100
AcDbLine
 10
1243.947665
 20
273.646185
 30
0.0
 11
1243.947665
 21
258.845098
 31
0.0
  0
ARC
  5
33A
100
AcDbEntity
  8
LAY-1
  6
CONTINUOUS
 62
     7
100
AcDbCircle
 10
1237.562317
 20
254.563281
 30
0.0
 40
2.0
100
AcDbArc
 50
270.0
 51
358.0
  0
LINE
  5
33B
100
AcDbEntity
  8
LAY-1
  6
CONTINUOUS
 62
     7
100
AcDbLine
 10
1237.562317
 20
252.563281
 30
0.0
 11
1136.364252
 21
252.563281
 31
0.0
  0
LINE
  5
33C
100
AcDbEntity
  8
LAY-1
  6
CONTINUOUS
 62
     7
100
AcDbLine
 10
1239.561099
 20
254.493482
 30
0.0
 11
1240.647121
 21
285.59308
 31
0.0
  0
ARC
  5
33D
100
AcDbEntity
  8
LAY-1
  6
CONTINUOUS
 62
     7
100
AcDbCircle
 10
1242.645903
 20
285.523281
 30
0.0
 40
2.0
100
AcDbArc
 50
90.0
 51
178.0
  0
LINE
  5
33E
100
AcDbEntity
  8
LAY-1
  6
CONTINUOUS
 62
     7
100
AcDbLine
 10
1042.715922
 20
111.563281
 30
0.0
 11
1096.715922
 21
111.563281
 31
0.0
  0
ARC
  5
33F
100
AcDbEntity
  8
LAY-1
  6
CONTINUOUS
 62
     7
100
AcDbCircle
 10
1096.715922
 20
112.563281
 30
0.0
 40
1.0
100
AcDbArc
 50
270.0
 51
0.0
  0
LINE
  5
340
100
AcDbEntity
  8
LAY-1
  6
CONTINUOUS
 62
     7
100
AcDbLine
 10
1042.715922
 20
111.563281
 30
0.0
 11
988.715922
 21
111.563281
 31
0.0
  0
ARC
  5
341
100
AcDbEntity
  8
LAY-1
  6
CONTINUOUS
 62
     7
100
AcDbCircle
 10
988.715922
 20
112.563281
 30
0.0
 40
1.0
100
AcDbArc
 50
180.0
 51
270.0
  0
LINE
  5
342
100
AcDbEntity
  8
LAY-1
  6
CONTINUOUS
 62
     7
100
AcDbLine
 10
1016.715922
 20
120.563281
 30
0.0
 11
987.715922
 21
120.563281
 31
0.0
  0
LINE
  5
343
100
AcDbEntity
  8
LAY-1
  6
CONTINUOUS
 62
     7
100
AcDbLine
 10
987.715922
 20
112.563281
 30
0.0
 11
987.715922
 21
121.563281
 31
0.0
  0
LINE
  5
344
100
AcDbEntity
  8
LAY-1
  6
CONTINUOUS
 62
     7
100
AcDbLine
 10
1097.715922
 20
112.563281
 30
0.0
 11
1097.715922
 21
121.563281
 31
0.0
  0
LINE
  5
345
100
AcDbEntity
  8
LAY-1
  6
CONTINUOUS
 62
     7
100
AcDbLine
 10
1097.715922
 20
121.563281
 30
0.0
 11
987.715922
 21
121.563281
 31
0.0
  0
LINE
  5
346
100
AcDbEntity
  8
LAY-1
  6
CONTINUOUS
 62
     7
100
AcDbLine
 10
1082.715922
 20
160.46927
 30
0.0
 11
1082.715922
 21
206.657292
 31
0.0
  0
LINE
  5
347
100
AcDbEntity
  8
LAY-1
  6
CONTINUOUS
 62
     7
100
AcDbLine
 10
1042.715922
 20
229.751303
 30
0.0
 11
1002.715922
 21
206.657292
 31
0.0
  0
LINE
  5
348
100
AcDbEntity
  8
LAY-1
  6
CONTINUOUS
 62
     7
100
AcDbLine
 10
1042.715922
 20
137.37526
 30
0.0
 11
1082.715922
 21
160.46927
 31
0.0
  0
LINE
  5
349
100
AcDbEntity
  8
LAY-1
  6
CONTINUOUS
 62
     7
100
AcDbLine
 10
1002.715922
 20
160.46927
 30
0.0
 11
1042.715922
 21
137.37526
 31
0.0
  0
LINE
  5
34A
100
AcDbEntity
  8
LAY-1
  6
CONTINUOUS
 62
     7
100
AcDbLine
 10
1082.715922
 20
206.657292
 30
0.0
 11
1042.715922
 21
229.751303
 31
0.0
  0
LINE
  5
34B
100
AcDbEntity
  8
LAY-1
  6
CONTINUOUS
 62
     7
100
AcDbLine
 10
1002.715922
 20
206.657292
 30
0.0
 11
1002.715922
 21
160.46927
 31
0.0
  0
CIRCLE
  5
34C
100
AcDbEntity
  8
LAY-1
  6
CONTINUOUS
 62
     7
100
AcDbCircle
 10
1042.715922
 20
183.563281
 30
0.0
 40
24.5
  0
CIRCLE
  5
34D
100
AcDbEntity
  8
LAY-1
  6
CONTINUOUS
 62
     7
100
AcDbCircle
 10
1042.715922
 20
183.563281
 30
0.0
 40
24.5
  0
CIRCLE
  5
34E
100
AcDbEntity
  8
LAY-1
  6
CONTINUOUS
 62
     7
100
AcDbCircle
 10
1042.715922
 20
183.563281
 30
0.0
 40
26.0
  0
CIRCLE
  5
34F
100
AcDbEntity
  8
LAY-1
  6
CONTINUOUS
 62
     7
100
AcDbCircle
 10
1042.715922
 20
183.563281
 30
0.0
 40
26.0
  0
CIRCLE
  5
350
100
AcDbEntity
  8
LAY-1
  6
CONTINUOUS
 62
     7
100
AcDbCircle
 10
1042.715922
 20
183.563281
 30
0.0
 40
27.290933
  0
LINE
  5
351
100
AcDbEntity
  8
LAY-1
  6
CONTINUOUS
 62
     7
100
AcDbLine
 10
1018.400289
 20
180.563281
 30
0.0
 11
1067.031555
 21
180.563281
 31
0.0
  0
ARC
  5
352
100
AcDbEntity
  8
LAY-1
  6
CONTINUOUS
 62
     7
100
AcDbCircle
 10
1042.715922
 20
183.563281
 30
0.0
 40
69.5
100
AcDbArc
 50
137.826456
 51
215.153737
  0
ARC
  5
353
100
AcDbEntity
  8
LAY-1
  6
CONTINUOUS
 62
     7
100
AcDbCircle
 10
1042.715922
 20
183.563281
 30
0.0
 40
69.5
100
AcDbArc
 50
324.846263
 51
42.173544
  0
LINE
  5
354
100
AcDbEntity
  8
LAY-1
  6
CONTINUOUS
 62
     7
100
AcDbLine
 10
1097.715922
 20
137.78938
 30
0.0
 11
1097.715922
 21
121.563281
 31
0.0
  0
LINE
  5
355
100
AcDbEntity
  8
LAY-1
  6
CONTINUOUS
 62
     7
100
AcDbLine
 10
987.715922
 20
137.78938
 30
0.0
 11
987.715922
 21
121.563281
 31
0.0
  0
ARC
  5
356
100
AcDbEntity
  8
LAY-1
  6
CONTINUOUS
 62
     7
100
AcDbCircle
 10
987.502878
 20
233.580976
 30
0.0
 40
5.0
100
AcDbArc
 50
317.826456
 51
67.0618
  0
ARC
  5
357
100
AcDbEntity
  8
LAY-1
  6
CONTINUOUS
 62
     7
100
AcDbCircle
 10
1097.928966
 20
233.580976
 30
0.0
 40
5.0
100
AcDbArc
 50
107.0618
 51
222.173544
  0
ARC
  5
358
100
AcDbEntity
  8
LAY-1
  6
CONTINUOUS
 62
     7
100
AcDbCircle
 10
1107.715922
 20
137.78938
 30
0.0
 40
10.0
100
AcDbArc
 50
144.846263
 51
180.0
  0
ARC
  5
359
100
AcDbEntity
  8
LAY-1
  6
CONTINUOUS
 62
     7
100
AcDbCircle
 10
977.715922
 20
137.78938
 30
0.0
 40
10.0
100
AcDbArc
 50
0.0
 51
35.153737
  0
LINE
  5
35A
100
AcDbEntity
  8
LAY-1
  6
CONTINUOUS
 62
     7
100
AcDbLine
 10
1082.55309
 20
109.063281
 30
0.0
 11
1075.05309
 21
109.063281
 31
0.0
  0
LINE
  5
35B
100
AcDbEntity
  8
LAY-1
  6
CONTINUOUS
 62
     7
100
AcDbLine
 10
1075.05309
 20
104.140631
 30
0.0
 11
1076.05309
 21
103.563281
 31
0.0
  0
LINE
  5
35C
100
AcDbEntity
  8
LAY-1
  6
CONTINUOUS
 62
     7
100
AcDbLine
 10
1082.55309
 20
103.563281
 30
0.0
 11
1076.05309
 21
103.563281
 31
0.0
  0
LINE
  5
35D
100
AcDbEntity
  8
LAY-1
  6
CONTINUOUS
 62
     7
100
AcDbLine
 10
1078.800314
 20
104.140631
 30
0.0
 11
1078.800314
 21
109.063281
 31
0.0
  0
ARC
  5
35E
100
AcDbEntity
  8
LAY-1
  6
CONTINUOUS
 62
     7
100
AcDbCircle
 10
1076.926702
 20
106.89207
 30
0.0
 40
3.328788
100
AcDbArc
 50
235.746813
 51
304.253187
  0
LINE
  5
35F
100
AcDbEntity
  8
LAY-1
  6
CONTINUOUS
 62
     7
100
AcDbLine
 10
1082.55309
 20
109.063281
 30
0.0
 11
1090.05309
 21
109.063281
 31
0.0
  0
LINE
  5
360
100
AcDbEntity
  8
LAY-1
  6
CONTINUOUS
 62
     7
100
AcDbLine
 10
1090.05309
 20
104.140631
 30
0.0
 11
1089.05309
 21
103.563281
 31
0.0
  0
LINE
  5
361
100
AcDbEntity
  8
LAY-1
  6
CONTINUOUS
 62
     7
100
AcDbLine
 10
1082.55309
 20
103.563281
 30
0.0
 11
1089.05309
 21
103.563281
 31
0.0
  0
LINE
  5
362
100
AcDbEntity
  8
LAY-1
  6
CONTINUOUS
 62
     7
100
AcDbLine
 10
1086.305867
 20
104.140631
 30
0.0
 11
1086.305867
 21
109.063281
 31
0.0
  0
ARC
  5
363
100
AcDbEntity
  8
LAY-1
  6
CONTINUOUS
 62
     7
100
AcDbCircle
 10
1088.179479
 20
106.89207
 30
0.0
 40
3.328788
100
AcDbArc
 50
235.746813
 51
304.253187
  0
ARC
  5
364
100
AcDbEntity
  8
LAY-1
  6
CONTINUOUS
 62
     7
100
AcDbCircle
 10
1082.55309
 20
116.048481
 30
0.0
 40
12.4852
100
AcDbArc
 50
252.507675
 51
287.492325
  0
LINE
  5
365
100
AcDbEntity
  8
LAY-1
  6
CONTINUOUS
 62
     7
100
AcDbLine
 10
1090.05309
 20
111.563281
 30
0.0
 11
1090.05309
 21
104.140631
 31
0.0
  0
LINE
  5
366
100
AcDbEntity
  8
LAY-1
  6
CONTINUOUS
 62
     7
100
AcDbLine
 10
1075.05309
 20
111.563281
 30
0.0
 11
1075.05309
 21
104.140631
 31
0.0
  0
LINE
  5
367
100
AcDbEntity
  8
LAY-1
  6
CONTINUOUS
 62
     7
100
AcDbLine
 10
1002.878753
 20
109.063281
 30
0.0
 11
1010.378753
 21
109.063281
 31
0.0
  0
LINE
  5
368
100
AcDbEntity
  8
LAY-1
  6
CONTINUOUS
 62
     7
100
AcDbLine
 10
1010.378753
 20
104.140631
 30
0.0
 11
1009.378753
 21
103.563281
 31
0.0
  0
LINE
  5
369
100
AcDbEntity
  8
LAY-1
  6
CONTINUOUS
 62
     7
100
AcDbLine
 10
1002.878753
 20
103.563281
 30
0.0
 11
1009.378753
 21
103.563281
 31
0.0
  0
LINE
  5
36A
100
AcDbEntity
  8
LAY-1
  6
CONTINUOUS
 62
     7
100
AcDbLine
 10
1006.63153
 20
104.140631
 30
0.0
 11
1006.63153
 21
109.063281
 31
0.0
  0
ARC
  5
36B
100
AcDbEntity
  8
LAY-1
  6
CONTINUOUS
 62
     7
100
AcDbCircle
 10
1008.505142
 20
106.89207
 30
0.0
 40
3.328788
100
AcDbArc
 50
235.746813
 51
304.253187
  0
LINE
  5
36C
100
AcDbEntity
  8
LAY-1
  6
CONTINUOUS
 62
     7
100
AcDbLine
 10
1002.878753
 20
109.063281
 30
0.0
 11
995.378753
 21
109.063281
 31
0.0
  0
LINE
  5
36D
100
AcDbEntity
  8
LAY-1
  6
CONTINUOUS
 62
     7
100
AcDbLine
 10
995.378753
 20
104.140631
 30
0.0
 11
996.378753
 21
103.563281
 31
0.0
  0
LINE
  5
36E
100
AcDbEntity
  8
LAY-1
  6
CONTINUOUS
 62
     7
100
AcDbLine
 10
1002.878753
 20
103.563281
 30
0.0
 11
996.378753
 21
103.563281
 31
0.0
  0
LINE
  5
36F
100
AcDbEntity
  8
LAY-1
  6
CONTINUOUS
 62
     7
100
AcDbLine
 10
999.125976
 20
104.140631
 30
0.0
 11
999.125976
 21
109.063281
 31
0.0
  0
ARC
  5
370
100
AcDbEntity
  8
LAY-1
  6
CONTINUOUS
 62
     7
100
AcDbCircle
 10
997.252365
 20
106.89207
 30
0.0
 40
3.328788
100
AcDbArc
 50
235.746813
 51
304.253187
  0
ARC
  5
371
100
AcDbEntity
  8
LAY-1
  6
CONTINUOUS
 62
     7
100
AcDbCircle
 10
1002.878753
 20
116.048481
 30
0.0
 40
12.4852
100
AcDbArc
 50
252.507675
 51
287.492325
  0
LINE
  5
372
100
AcDbEntity
  8
LAY-1
  6
CONTINUOUS
 62
     7
100
AcDbLine
 10
995.378753
 20
111.563281
 30
0.0
 11
995.378753
 21
104.140631
 31
0.0
  0
LINE
  5
373
100
AcDbEntity
  8
LAY-1
  6
CONTINUOUS
 62
     7
100
AcDbLine
 10
1010.378753
 20
111.563281
 30
0.0
 11
1010.378753
 21
104.140631
 31
0.0
  0
LINE
  5
374
100
AcDbEntity
  8
LAY-1
  6
CONTINUOUS
 62
     7
100
AcDbLine
 10
1042.715922
 20
109.063281
 30
0.0
 11
1035.215922
 21
109.063281
 31
0.0
  0
LINE
  5
375
100
AcDbEntity
  8
LAY-1
  6
CONTINUOUS
 62
     7
100
AcDbLine
 10
1035.215922
 20
104.140631
 30
0.0
 11
1036.215922
 21
103.563281
 31
0.0
  0
LINE
  5
376
100
AcDbEntity
  8
LAY-1
  6
CONTINUOUS
 62
     7
100
AcDbLine
 10
1042.715922
 20
103.563281
 30
0.0
 11
1036.215922
 21
103.563281
 31
0.0
  0
LINE
  5
377
100
AcDbEntity
  8
LAY-1
  6
CONTINUOUS
 62
     7
100
AcDbLine
 10
1038.963145
 20
104.140631
 30
0.0
 11
1038.963145
 21
109.063281
 31
0.0
  0
ARC
  5
378
100
AcDbEntity
  8
LAY-1
  6
CONTINUOUS
 62
     7
100
AcDbCircle
 10
1037.089533
 20
106.89207
 30
0.0
 40
3.328788
100
AcDbArc
 50
235.746813
 51
304.253187
  0
LINE
  5
379
100
AcDbEntity
  8
LAY-1
  6
CONTINUOUS
 62
     7
100
AcDbLine
 10
1042.715922
 20
109.063281
 30
0.0
 11
1050.215922
 21
109.063281
 31
0.0
  0
LINE
  5
37A
100
AcDbEntity
  8
LAY-1
  6
CONTINUOUS
 62
     7
100
AcDbLine
 10
1050.215922
 20
104.140631
 30
0.0
 11
1049.215922
 21
103.563281
 31
0.0
  0
LINE
  5
37B
100
AcDbEntity
  8
LAY-1
  6
CONTINUOUS
 62
     7
100
AcDbLine
 10
1042.715922
 20
103.563281
 30
0.0
 11
1049.215922
 21
103.563281
 31
0.0
  0
LINE
  5
37C
100
AcDbEntity
  8
LAY-1
  6
CONTINUOUS
 62
     7
100
AcDbLine
 10
1046.468699
 20
104.140631
 30
0.0
 11
1046.468699
 21
109.063281
 31
0.0
  0
ARC
  5
37D
100
AcDbEntity
  8
LAY-1
  6
CONTINUOUS
 62
     7
100
AcDbCircle
 10
1048.34231
 20
106.89207
 30
0.0
 40
3.328788
100
AcDbArc
 50
235.746813
 51
304.253187
  0
ARC
  5
37E
100
AcDbEntity
  8
LAY-1
  6
CONTINUOUS
 62
     7
100
AcDbCircle
 10
1042.715922
 20
116.048481
 30
0.0
 40
12.4852
100
AcDbArc
 50
252.507675
 51
287.492325
  0
LINE
  5
37F
100
AcDbEntity
  8
LAY-1
  6
CONTINUOUS
 62
     7
100
AcDbLine
 10
1050.215922
 20
111.563281
 30
0.0
 11
1050.215922
 21
104.140631
 31
0.0
  0
LINE
  5
380
100
AcDbEntity
  8
LAY-1
  6
CONTINUOUS
 62
     7
100
AcDbLine
 10
1035.215922
 20
111.563281
 30
0.0
 11
1035.215922
 21
104.140631
 31
0.0
  0
LINE
  5
381
100
AcDbEntity
  8
LAY-1
  6
CONTINUOUS
 62
     7
100
AcDbLine
 10
1242.806603
 20
287.523281
 30
0.0
 11
868.490618
 21
287.523281
 31
0.0
  0
LINE
  5
382
100
AcDbEntity
  8
LAY-1
  6
CONTINUOUS
 62
     7
100
AcDbLine
 10
1134.654152
 20
252.261744
 30
0.0
 11
1095.980276
 21
238.185605
 31
0.0
  0
LINE
  5
383
100
AcDbEntity
  8
LAY-1
  6
CONTINUOUS
 62
     7
100
AcDbLine
 10
954.122562
 20
251.044311
 30
0.0
 11
989.451568
 21
238.185605
 31
0.0
  0
ARC
  5
384
100
AcDbEntity
  8
LAY-1
  6
CONTINUOUS
 62
     7
100
AcDbCircle
 10
1042.715922
 20
494.452565
 30
0.0
 40
259.029654
100
AcDbArc
 50
250.0
 51
290.0
  0
LINE
  5
385
100
AcDbEntity
  8
LAY-1
  6
CONTINUOUS
 62
     2
100
AcDbLine
 10
1242.715922
 20
326.023281
 30
0.0
 11
1236.817755
 21
326.023281
 31
0.0
  0
LINE
  5
386
100
AcDbEntity
  8
LAY-1
  6
CONTINUOUS
 62
     2
100
AcDbLine
 10
1236.817755
 20
326.023281
 30
0.0
 11
1220.836317
 21
326.023281
 31
0.0
  0
LINE
  5
387
100
AcDbEntity
  8
LAY-1
  6
CONTINUOUS
 62
     7
100
AcDbLine
 10
1042.715922
 20
326.023281
 30
0.0
 11
1242.715922
 21
326.023281
 31
0.0
  0
ARC
  5
388
100
AcDbEntity
  8
LAY-1
  6
CONTINUOUS
 62
     7
100
AcDbCircle
 10
1214.654702
 20
331.478382
 30
0.0
 40
4.344899
100
AcDbArc
 50
55.615753
 51
124.384247
  0
ARC
  5
389
100
AcDbEntity
  8
LAY-1
  6
CONTINUOUS
 62
     7
100
AcDbCircle
 10
1229.377134
 20
331.478382
 30
0.0
 40
4.344899
100
AcDbArc
 50
55.615753
 51
124.384247
  0
ARC
  5
38A
100
AcDbEntity
  8
LAY-1
  6
CONTINUOUS
 62
     7
100
AcDbCircle
 10
1222.015918
 20
319.58247
 30
0.0
 40
16.240811
100
AcDbArc
 50
72.412046
 51
107.587954
  0
LINE
  5
38B
100
AcDbEntity
  8
LAY-1
  6
CONTINUOUS
 62
     7
100
AcDbLine
 10
1212.200963
 20
335.064092
 30
0.0
 11
1212.200963
 21
326.023281
 31
0.0
  0
LINE
  5
38C
100
AcDbEntity
  8
LAY-1
  6
CONTINUOUS
 62
     7
100
AcDbLine
 10
1213.515918
 20
335.823281
 30
0.0
 11
1212.200963
 21
335.064092
 31
0.0
  0
LINE
  5
38D
100
AcDbEntity
  8
LAY-1
  6
CONTINUOUS
 62
     7
100
AcDbLine
 10
1230.515918
 20
335.823281
 30
0.0
 11
1213.515918
 21
335.823281
 31
0.0
  0
LINE
  5
38E
100
AcDbEntity
  8
LAY-1
  6
CONTINUOUS
 62
     7
100
AcDbLine
 10
1231.830872
 20
335.064092
 30
0.0
 11
1230.515918
 21
335.823281
 31
0.0
  0
LINE
  5
38F
100
AcDbEntity
  8
LAY-1
  6
CONTINUOUS
 62
     7
100
AcDbLine
 10
1231.830872
 20
326.023281
 30
0.0
 11
1231.830872
 21
335.064092
 31
0.0
  0
LINE
  5
390
100
AcDbEntity
  8
LAY-1
  6
CONTINUOUS
 62
     7
100
AcDbLine
 10
1217.10844
 20
327.823281
 30
0.0
 11
1217.10844
 21
335.064092
 31
0.0
  0
LINE
  5
391
100
AcDbEntity
  8
LAY-1
  6
CONTINUOUS
 62
     7
100
AcDbLine
 10
1226.923395
 20
335.064092
 30
0.0
 11
1226.923395
 21
327.823281
 31
0.0
  0
LINE
  5
392
100
AcDbEntity
  8
LAY-1
  6
CONTINUOUS
 62
     7
100
AcDbLine
 10
1231.830872
 20
327.823281
 30
0.0
 11
1212.200963
 21
327.823281
 31
0.0
  0
ARC
  5
393
100
AcDbEntity
  8
LAY-1
  6
CONTINUOUS
 62
     7
100
AcDbCircle
 10
1166.611413
 20
331.478382
 30
0.0
 40
4.344899
100
AcDbArc
 50
55.615753
 51
124.384247
  0
ARC
  5
394
100
AcDbEntity
  8
LAY-1
  6
CONTINUOUS
 62
     7
100
AcDbCircle
 10
1181.333844
 20
331.478382
 30
0.0
 40
4.344899
100
AcDbArc
 50
55.615753
 51
124.384247
  0
ARC
  5
395
100
AcDbEntity
  8
LAY-1
  6
CONTINUOUS
 62
     7
100
AcDbCircle
 10
1173.972629
 20
319.58247
 30
0.0
 40
16.240811
100
AcDbArc
 50
72.412046
 51
107.587954
  0
LINE
  5
396
100
AcDbEntity
  8
LAY-1
  6
CONTINUOUS
 62
     7
100
AcDbLine
 10
1164.157674
 20
335.064092
 30
0.0
 11
1164.157674
 21
326.023281
 31
0.0
  0
LINE
  5
397
100
AcDbEntity
  8
LAY-1
  6
CONTINUOUS
 62
     7
100
AcDbLine
 10
1165.472629
 20
335.823281
 30
0.0
 11
1164.157674
 21
335.064092
 31
0.0
  0
LINE
  5
398
100
AcDbEntity
  8
LAY-1
  6
CONTINUOUS
 62
     7
100
AcDbLine
 10
1182.472629
 20
335.823281
 30
0.0
 11
1165.472629
 21
335.823281
 31
0.0
  0
LINE
  5
399
100
AcDbEntity
  8
LAY-1
  6
CONTINUOUS
 62
     7
100
AcDbLine
 10
1183.787583
 20
335.064092
 30
0.0
 11
1182.472629
 21
335.823281
 31
0.0
  0
LINE
  5
39A
100
AcDbEntity
  8
LAY-1
  6
CONTINUOUS
 62
     7
100
AcDbLine
 10
1183.787583
 20
326.023281
 30
0.0
 11
1183.787583
 21
335.064092
 31
0.0
  0
LINE
  5
39B
100
AcDbEntity
  8
LAY-1
  6
CONTINUOUS
 62
     7
100
AcDbLine
 10
1169.065151
 20
327.823281
 30
0.0
 11
1169.065151
 21
335.064092
 31
0.0
  0
LINE
  5
39C
100
AcDbEntity
  8
LAY-1
  6
CONTINUOUS
 62
     7
100
AcDbLine
 10
1178.880106
 20
335.064092
 30
0.0
 11
1178.880106
 21
327.823281
 31
0.0
  0
LINE
  5
39D
100
AcDbEntity
  8
LAY-1
  6
CONTINUOUS
 62
     7
100
AcDbLine
 10
1183.787583
 20
327.823281
 30
0.0
 11
1164.157674
 21
327.823281
 31
0.0
  0
ARC
  5
39E
100
AcDbEntity
  8
LAY-1
  6
CONTINUOUS
 62
     7
100
AcDbCircle
 10
1083.397995
 20
331.478382
 30
0.0
 40
4.344899
100
AcDbArc
 50
55.615753
 51
124.384247
  0
ARC
  5
39F
100
AcDbEntity
  8
LAY-1
  6
CONTINUOUS
 62
     7
100
AcDbCircle
 10
1098.120427
 20
331.478382
 30
0.0
 40
4.344899
100
AcDbArc
 50
55.615753
 51
124.384247
  0
ARC
  5
3A0
100
AcDbEntity
  8
LAY-1
  6
CONTINUOUS
 62
     7
100
AcDbCircle
 10
1090.759211
 20
319.58247
 30
0.0
 40
16.240811
100
AcDbArc
 50
72.412046
 51
107.587954
  0
LINE
  5
3A1
100
AcDbEntity
  8
LAY-1
  6
CONTINUOUS
 62
     7
100
AcDbLine
 10
1080.944256
 20
335.064092
 30
0.0
 11
1080.944256
 21
326.023281
 31
0.0
  0
LINE
  5
3A2
100
AcDbEntity
  8
LAY-1
  6
CONTINUOUS
 62
     7
100
AcDbLine
 10
1082.259211
 20
335.823281
 30
0.0
 11
1080.944256
 21
335.064092
 31
0.0
  0
LINE
  5
3A3
100
AcDbEntity
  8
LAY-1
  6
CONTINUOUS
 62
     7
100
AcDbLine
 10
1099.259211
 20
335.823281
 30
0.0
 11
1082.259211
 21
335.823281
 31
0.0
  0
LINE
  5
3A4
100
AcDbEntity
  8
LAY-1
  6
CONTINUOUS
 62
     7
100
AcDbLine
 10
1100.574165
 20
335.064092
 30
0.0
 11
1099.259211
 21
335.823281
 31
0.0
  0
LINE
  5
3A5
100
AcDbEntity
  8
LAY-1
  6
CONTINUOUS
 62
     7
100
AcDbLine
 10
1100.574165
 20
326.023281
 30
0.0
 11
1100.574165
 21
335.064092
 31
0.0
  0
LINE
  5
3A6
100
AcDbEntity
  8
LAY-1
  6
CONTINUOUS
 62
     7
100
AcDbLine
 10
1085.851734
 20
327.823281
 30
0.0
 11
1085.851734
 21
335.064092
 31
0.0
  0
LINE
  5
3A7
100
AcDbEntity
  8
LAY-1
  6
CONTINUOUS
 62
     7
100
AcDbLine
 10
1095.666688
 20
335.064092
 30
0.0
 11
1095.666688
 21
327.823281
 31
0.0
  0
LINE
  5
3A8
100
AcDbEntity
  8
LAY-1
  6
CONTINUOUS
 62
     7
100
AcDbLine
 10
1100.574165
 20
327.823281
 30
0.0
 11
1080.944256
 21
327.823281
 31
0.0
  0
ARC
  5
3A9
100
AcDbEntity
  8
LAY-1
  6
CONTINUOUS
 62
     7
100
AcDbCircle
 10
987.311417
 20
331.478382
 30
0.0
 40
4.344899
100
AcDbArc
 50
55.615753
 51
124.384247
  0
ARC
  5
3AA
100
AcDbEntity
  8
LAY-1
  6
CONTINUOUS
 62
     7
100
AcDbCircle
 10
1002.033849
 20
331.478382
 30
0.0
 40
4.344899
100
AcDbArc
 50
55.615753
 51
124.384247
  0
ARC
  5
3AB
100
AcDbEntity
  8
LAY-1
  6
CONTINUOUS
 62
     7
100
AcDbCircle
 10
994.672633
 20
319.58247
 30
0.0
 40
16.240811
100
AcDbArc
 50
72.412046
 51
107.587954
  0
LINE
  5
3AC
100
AcDbEntity
  8
LAY-1
  6
CONTINUOUS
 62
     7
100
AcDbLine
 10
984.857678
 20
335.064092
 30
0.0
 11
984.857678
 21
326.023281
 31
0.0
  0
LINE
  5
3AD
100
AcDbEntity
  8
LAY-1
  6
CONTINUOUS
 62
     7
100
AcDbLine
 10
986.172633
 20
335.823281
 30
0.0
 11
984.857678
 21
335.064092
 31
0.0
  0
LINE
  5
3AE
100
AcDbEntity
  8
LAY-1
  6
CONTINUOUS
 62
     7
100
AcDbLine
 10
1003.172633
 20
335.823281
 30
0.0
 11
986.172633
 21
335.823281
 31
0.0
  0
LINE
  5
3AF
100
AcDbEntity
  8
LAY-1
  6
CONTINUOUS
 62
     7
100
AcDbLine
 10
1004.487587
 20
335.064092
 30
0.0
 11
1003.172633
 21
335.823281
 31
0.0
  0
LINE
  5
3B0
100
AcDbEntity
  8
LAY-1
  6
CONTINUOUS
 62
     7
100
AcDbLine
 10
1004.487587
 20
326.023281
 30
0.0
 11
1004.487587
 21
335.064092
 31
0.0
  0
LINE
  5
3B1
100
AcDbEntity
  8
LAY-1
  6
CONTINUOUS
 62
     7
100
AcDbLine
 10
989.765155
 20
327.823281
 30
0.0
 11
989.765155
 21
335.064092
 31
0.0
  0
LINE
  5
3B2
100
AcDbEntity
  8
LAY-1
  6
CONTINUOUS
 62
     7
100
AcDbLine
 10
999.58011
 20
335.064092
 30
0.0
 11
999.58011
 21
327.823281
 31
0.0
  0
LINE
  5
3B3
100
AcDbEntity
  8
LAY-1
  6
CONTINUOUS
 62
     7
100
AcDbLine
 10
1004.487587
 20
327.823281
 30
0.0
 11
984.857678
 21
327.823281
 31
0.0
  0
ARC
  5
3B4
100
AcDbEntity
  8
LAY-1
  6
CONTINUOUS
 62
     7
100
AcDbCircle
 10
904.097999
 20
331.478382
 30
0.0
 40
4.344899
100
AcDbArc
 50
55.615753
 51
124.384247
  0
ARC
  5
3B5
100
AcDbEntity
  8
LAY-1
  6
CONTINUOUS
 62
     7
100
AcDbCircle
 10
918.820431
 20
331.478382
 30
0.0
 40
4.344899
100
AcDbArc
 50
55.615753
 51
124.384247
  0
ARC
  5
3B6
100
AcDbEntity
  8
LAY-1
  6
CONTINUOUS
 62
     7
100
AcDbCircle
 10
911.459215
 20
319.58247
 30
0.0
 40
16.240811
100
AcDbArc
 50
72.412046
 51
107.587954
  0
LINE
  5
3B7
100
AcDbEntity
  8
LAY-1
  6
CONTINUOUS
 62
     7
100
AcDbLine
 10
901.64426
 20
335.064092
 30
0.0
 11
901.64426
 21
326.023281
 31
0.0
  0
LINE
  5
3B8
100
AcDbEntity
  8
LAY-1
  6
CONTINUOUS
 62
     7
100
AcDbLine
 10
902.959215
 20
335.823281
 30
0.0
 11
901.64426
 21
335.064092
 31
0.0
  0
LINE
  5
3B9
100
AcDbEntity
  8
LAY-1
  6
CONTINUOUS
 62
     7
100
AcDbLine
 10
919.959215
 20
335.823281
 30
0.0
 11
902.959215
 21
335.823281
 31
0.0
  0
LINE
  5
3BA
100
AcDbEntity
  8
LAY-1
  6
CONTINUOUS
 62
     7
100
AcDbLine
 10
921.27417
 20
335.064092
 30
0.0
 11
919.959215
 21
335.823281
 31
0.0
  0
LINE
  5
3BB
100
AcDbEntity
  8
LAY-1
  6
CONTINUOUS
 62
     7
100
AcDbLine
 10
921.27417
 20
326.023281
 30
0.0
 11
921.27417
 21
335.064092
 31
0.0
  0
LINE
  5
3BC
100
AcDbEntity
  8
LAY-1
  6
CONTINUOUS
 62
     7
100
AcDbLine
 10
906.551738
 20
327.823281
 30
0.0
 11
906.551738
 21
335.064092
 31
0.0
  0
LINE
  5
3BD
100
AcDbEntity
  8
LAY-1
  6
CONTINUOUS
 62
     7
100
AcDbLine
 10
916.366692
 20
335.064092
 30
0.0
 11
916.366692
 21
327.823281
 31
0.0
  0
LINE
  5
3BE
100
AcDbEntity
  8
LAY-1
  6
CONTINUOUS
 62
     7
100
AcDbLine
 10
921.27417
 20
327.823281
 30
0.0
 11
901.64426
 21
327.823281
 31
0.0
  0
LINE
  5
3BF
100
AcDbEntity
  8
LAY-1
  6
CONTINUOUS
 62
     7
100
AcDbLine
 10
1042.715922
 20
326.023281
 30
0.0
 11
842.715922
 21
326.023281
 31
0.0
  0
ARC
  5
3C0
100
AcDbEntity
  8
LAY-1
  6
CONTINUOUS
 62
     7
100
AcDbCircle
 10
856.05471
 20
331.478382
 30
0.0
 40
4.344899
100
AcDbArc
 50
55.615753
 51
124.384247
  0
ARC
  5
3C1
100
AcDbEntity
  8
LAY-1
  6
CONTINUOUS
 62
     7
100
AcDbCircle
 10
870.777142
 20
331.478382
 30
0.0
 40
4.344899
100
AcDbArc
 50
55.615753
 51
124.384247
  0
ARC
  5
3C2
100
AcDbEntity
  8
LAY-1
  6
CONTINUOUS
 62
     7
100
AcDbCircle
 10
863.415926
 20
319.58247
 30
0.0
 40
16.240811
100
AcDbArc
 50
72.412046
 51
107.587954
  0
LINE
  5
3C3
100
AcDbEntity
  8
LAY-1
  6
CONTINUOUS
 62
     7
100
AcDbLine
 10
853.600971
 20
335.064092
 30
0.0
 11
853.600971
 21
326.023281
 31
0.0
  0
LINE
  5
3C4
100
AcDbEntity
  8
LAY-1
  6
CONTINUOUS
 62
     7
100
AcDbLine
 10
854.915926
 20
335.823281
 30
0.0
 11
853.600971
 21
335.064092
 31
0.0
  0
LINE
  5
3C5
100
AcDbEntity
  8
LAY-1
  6
CONTINUOUS
 62
     7
100
AcDbLine
 10
871.915926
 20
335.823281
 30
0.0
 11
854.915926
 21
335.823281
 31
0.0
  0
LINE
  5
3C6
100
AcDbEntity
  8
LAY-1
  6
CONTINUOUS
 62
     7
100
AcDbLine
 10
873.230881
 20
335.064092
 30
0.0
 11
871.915926
 21
335.823281
 31
0.0
  0
LINE
  5
3C7
100
AcDbEntity
  8
LAY-1
  6
CONTINUOUS
 62
     7
100
AcDbLine
 10
873.230881
 20
326.023281
 30
0.0
 11
873.230881
 21
335.064092
 31
0.0
  0
LINE
  5
3C8
100
AcDbEntity
  8
LAY-1
  6
CONTINUOUS
 62
     7
100
AcDbLine
 10
858.508449
 20
327.823281
 30
0.0
 11
858.508449
 21
335.064092
 31
0.0
  0
LINE
  5
3C9
100
AcDbEntity
  8
LAY-1
  6
CONTINUOUS
 62
     7
100
AcDbLine
 10
868.323403
 20
335.064092
 30
0.0
 11
868.323403
 21
327.823281
 31
0.0
  0
LINE
  5
3CA
100
AcDbEntity
  8
LAY-1
  6
CONTINUOUS
 62
     7
100
AcDbLine
 10
873.230881
 20
327.823281
 30
0.0
 11
853.600971
 21
327.823281
 31
0.0
  0
LINE
  5
3CB
100
AcDbEntity
  8
LAY-1
  6
CONTINUOUS
 62
     7
100
AcDbLine
 10
1242.715922
 20
305.523281
 30
0.0
 11
1242.715922
 21
326.023281
 31
0.0
  0
LINE
  5
3CC
100
AcDbEntity
  8
LAY-1
  6
CONTINUOUS
 62
     7
100
AcDbLine
 10
1242.715922
 20
305.523281
 30
0.0
 11
1240.715922
 21
303.523281
 31
0.0
  0
LINE
  5
3CD
100
AcDbEntity
  8
LAY-1
  6
CONTINUOUS
 62
     7
100
AcDbLine
 10
842.715922
 20
305.523281
 30
0.0
 11
844.715922
 21
303.523281
 31
0.0
  0
LINE
  5
3CE
100
AcDbEntity
  8
LAY-1
  6
CONTINUOUS
 62
     7
100
AcDbLine
 10
1242.806603
 20
287.523281
 30
0.0
 11
1242.806603
 21
303.523281
 31
0.0
  0
LINE
  5
3CF
100
AcDbEntity
  8
LAY-1
  6
CONTINUOUS
 62
     7
100
AcDbLine
 10
1242.806603
 20
303.523281
 30
0.0
 11
842.806603
 21
303.523281
 31
0.0
  0
LINE
  5
3D0
100
AcDbEntity
  8
LAY-1
  6
CONTINUOUS
 62
     7
100
AcDbLine
 10
842.806603
 20
303.523281
 30
0.0
 11
842.806603
 21
287.523281
 31
0.0
  0
LINE
  5
3D1
100
AcDbEntity
  8
LAY-1
  6
EXLTYPE3
 62
     1
100
AcDbLine
 10
1042.715922
 20
585.113667
 30
0.0
 11
1042.715922
 21
89.113667
 31
0.0
  0
LINE
  5
3D2
100
AcDbEntity
  8
LAY-1
  6
EXLTYPE3
 62
     1
100
AcDbLine
 10
963.251755
 20
183.563281
 30
0.0
 11
1127.715922
 21
183.563281
 31
0.0
  0
LINE
  5
3D3
100
AcDbEntity
  8
LAY-1
  6
EXLTYPE3
 62
     1
100
AcDbLine
 10
1042.715922
 20
1139.549944
 30
0.0
 11
1042.715922
 21
705.473281
 31
0.0
  0
LINE
  5
3D4
100
AcDbEntity
  8
LAY-1
  6
CONTINUOUS
 62
     3
100
AcDbLine
 10
1239.717943
 20
1591.114994
 30
0.0
 11
1239.71806
 21
1591.111619
 31
0.0
  0
ARC
  5
3D5
100
AcDbEntity
  8
LAY-1
  6
CONTINUOUS
 62
     7
100
AcDbCircle
 10
1217.122587
 20
1565.576607
 30
0.0
 40
3.0
100
AcDbArc
 50
208.685402
 51
270.0
  0
LINE
  5
3D6
100
AcDbEntity
  8
LAY-1
  6
CONTINUOUS
 62
     7
100
AcDbLine
 10
868.490618
 20
1562.576607
 30
0.0
 11
842.806603
 21
1562.576607
 31
0.0
  0
ARC
  5
3D7
100
AcDbEntity
  8
LAY-1
  6
CONTINUOUS
 62
     7
100
AcDbCircle
 10
912.354043
 20
1541.576607
 30
0.0
 40
47.0
100
AcDbArc
 50
98.194821
 51
151.314598
  0
LINE
  5
3D8
100
AcDbEntity
  8
LAY-1
  6
CONTINUOUS
 62
     7
100
AcDbLine
 10
951.119953
 20
1595.309046
 30
0.0
 11
905.654688
 21
1588.096695
 31
0.0
  0
ARC
  5
3D9
100
AcDbEntity
  8
LAY-1
  6
CONTINUOUS
 62
     7
100
AcDbCircle
 10
950.806603
 20
1597.284347
 30
0.0
 40
2.0
100
AcDbArc
 50
279.013965
 51
0.0
  0
ARC
  5
3DA
100
AcDbEntity
  8
LAY-1
  6
CONTINUOUS
 62
     7
100
AcDbCircle
 10
954.806603
 20
1597.176192
 30
0.0
 40
2.0
100
AcDbArc
 50
110.0
 51
180.0
  0
ARC
  5
3DB
100
AcDbEntity
  8
LAY-1
  6
CONTINUOUS
 62
     7
100
AcDbCircle
 10
868.490618
 20
1565.576607
 30
0.0
 40
3.0
100
AcDbArc
 50
270.0
 51
331.314598
  0
LINE
  5
3DC
100
AcDbEntity
  8
LAY-1
  6
CONTINUOUS
 62
     7
100
AcDbLine
 10
1242.806603
 20
1547.576607
 30
0.0
 11
842.806603
 21
1547.576607
 31
0.0
  0
ARC
  5
3DD
100
AcDbEntity
  8
LAY-1
  6
CONTINUOUS
 62
     7
100
AcDbCircle
 10
1136.364252
 20
1602.536607
 30
0.0
 40
5.0
100
AcDbArc
 50
250.0
 51
270.0
  0
ARC
  5
3DE
100
AcDbEntity
  8
LAY-1
  6
CONTINUOUS
 62
     7
100
AcDbCircle
 10
1134.625241
 20
1597.284347
 30
0.0
 40
2.0
100
AcDbArc
 50
180.0
 51
260.986035
  0
ARC
  5
3DF
100
AcDbEntity
  8
LAY-1
  6
CONTINUOUS
 62
     7
100
AcDbCircle
 10
1130.625241
 20
1597.176192
 30
0.0
 40
2.0
100
AcDbArc
 50
0.0
 51
70.0
  0
ARC
  5
3E0
100
AcDbEntity
  8
LAY-1
  6
CONTINUOUS
 62
     7
100
AcDbCircle
 10
1173.259163
 20
1541.576607
 30
0.0
 40
47.0
100
AcDbArc
 50
28.685402
 51
78.831754
  0
LINE
  5
3E1
100
AcDbEntity
  8
LAY-1
  6
CONTINUOUS
 62
     7
100
AcDbLine
 10
1134.31189
 20
1595.309046
 30
0.0
 11
1182.362624
 21
1587.686552
 31
0.0
  0
LINE
  5
3E2
100
AcDbEntity
  8
LAY-1
  6
CONTINUOUS
 62
     7
100
AcDbLine
 10
1241.947665
 20
1590.39879
 30
0.0
 11
1241.947665
 21
1591.25479
 31
0.0
  0
LINE
  5
3E3
100
AcDbEntity
  8
LAY-1
  6
CONTINUOUS
 62
     7
100
AcDbLine
 10
1241.947665
 20
1591.25479
 30
0.0
 11
1243.947665
 21
1591.25479
 31
0.0
  0
LINE
  5
3E4
100
AcDbEntity
  8
LAY-1
  6
CONTINUOUS
 62
     1
100
AcDbLine
 10
1241.947665
 20
1590.39879
 30
0.0
 11
1243.947665
 21
1591.25479
 31
0.0
  0
LINE
  5
3E5
100
AcDbEntity
  8
LAY-1
  6
CONTINUOUS
 62
     7
100
AcDbLine
 10
1249.32245
 20
1592.619511
 30
0.0
 11
1249.947665
 21
1591.536607
 31
0.0
  0
LINE
  5
3E6
100
AcDbEntity
  8
LAY-1
  6
CONTINUOUS
 62
     7
100
AcDbLine
 10
1249.32245
 20
1592.619511
 30
0.0
 11
1243.947665
 21
1592.619511
 31
0.0
  0
LINE
  5
3E7
100
AcDbEntity
  8
LAY-1
  6
CONTINUOUS
 62
     7
100
AcDbLine
 10
1243.947665
 20
1592.619511
 30
0.0
 11
1243.947665
 21
1591.25479
 31
0.0
  0
LINE
  5
3E8
100
AcDbEntity
  8
LAY-1
  6
CONTINUOUS
 62
     7
100
AcDbLine
 10
1249.947665
 20
1591.536607
 30
0.0
 11
1249.947665
 21
1584.536607
 31
0.0
  0
LINE
  5
3E9
100
AcDbEntity
  8
LAY-1
  6
EXLTYPE4
 62
     1
100
AcDbLine
 10
1243.947665
 20
1591.536607
 30
0.0
 11
1249.947665
 21
1591.536607
 31
0.0
  0
LINE
  5
3EA
100
AcDbEntity
  8
LAY-1
  6
CONTINUOUS
 62
     7
100
AcDbLine
 10
1241.947665
 20
1578.674424
 30
0.0
 11
1241.947665
 21
1577.818424
 31
0.0
  0
LINE
  5
3EB
100
AcDbEntity
  8
LAY-1
  6
CONTINUOUS
 62
     7
100
AcDbLine
 10
1241.947665
 20
1577.818424
 30
0.0
 11
1243.947665
 21
1577.818424
 31
0.0
  0
LINE
  5
3EC
100
AcDbEntity
  8
LAY-1
  6
CONTINUOUS
 62
     1
100
AcDbLine
 10
1241.947665
 20
1578.674424
 30
0.0
 11
1243.947665
 21
1577.818424
 31
0.0
  0
LINE
  5
3ED
100
AcDbEntity
  8
LAY-1
  6
CONTINUOUS
 62
     7
100
AcDbLine
 10
1249.32245
 20
1576.453703
 30
0.0
 11
1249.947665
 21
1577.536607
 31
0.0
  0
LINE
  5
3EE
100
AcDbEntity
  8
LAY-1
  6
CONTINUOUS
 62
     7
100
AcDbLine
 10
1249.32245
 20
1576.453703
 30
0.0
 11
1243.947665
 21
1576.453703
 31
0.0
  0
LINE
  5
3EF
100
AcDbEntity
  8
LAY-1
  6
CONTINUOUS
 62
     7
100
AcDbLine
 10
1249.947665
 20
1577.536607
 30
0.0
 11
1249.947665
 21
1584.536607
 31
0.0
  0
LINE
  5
3F0
100
AcDbEntity
  8
LAY-1
  6
EXLTYPE4
 62
     1
100
AcDbLine
 10
1243.947665
 20
1577.536607
 30
0.0
 11
1249.947665
 21
1577.536607
 31
0.0
  0
LINE
  5
3F1
100
AcDbEntity
  8
LAY-1
  6
CONTINUOUS
 62
     7
100
AcDbLine
 10
1240.180114
 20
1577.880148
 30
0.0
 11
1241.947665
 21
1577.818424
 31
0.0
  0
LINE
  5
3F2
100
AcDbEntity
  8
LAY-1
  6
CONTINUOUS
 62
     1
100
AcDbLine
 10
1241.947665
 20
1578.674424
 30
0.0
 11
1240.150185
 21
1578.737193
 31
0.0
  0
LINE
  5
3F3
100
AcDbEntity
  8
LAY-1
  6
CONTINUOUS
 62
     1
100
AcDbLine
 10
1241.947665
 20
1590.39879
 30
0.0
 11
1239.745638
 21
1590.321893
 31
0.0
  0
LINE
  5
3F4
100
AcDbEntity
  8
LAY-1
  6
EXLTYPE4
 62
     1
100
AcDbLine
 10
1239.721548
 20
1591.115107
 30
0.0
 11
1239.71806
 21
1591.111619
 31
0.0
  0
LINE
  5
3F5
100
AcDbEntity
  8
LAY-1
  6
CONTINUOUS
 62
     7
100
AcDbLine
 10
1239.715782
 20
1591.176851
 30
0.0
 11
1241.947665
 21
1591.25479
 31
0.0
  0
LINE
  5
3F6
100
AcDbEntity
  8
LAY-1
  6
EXLTYPE4
 62
     1
100
AcDbLine
 10
1239.721548
 20
1591.115107
 30
0.0
 11
1239.717943
 21
1591.114994
 31
0.0
  0
LINE
  5
3F7
100
AcDbEntity
  8
LAY-1
  6
CONTINUOUS
 62
     7
100
AcDbLine
 10
1243.947665
 20
1576.453703
 30
0.0
 11
1243.947665
 21
1591.25479
 31
0.0
  0
ARC
  5
3F8
100
AcDbEntity
  8
LAY-1
  6
CONTINUOUS
 62
     7
100
AcDbCircle
 10
1237.562317
 20
1595.536607
 30
0.0
 40
2.0
100
AcDbArc
 50
2.0
 51
90.0
  0
LINE
  5
3F9
100
AcDbEntity
  8
LAY-1
  6
CONTINUOUS
 62
     7
100
AcDbLine
 10
1237.562317
 20
1597.536607
 30
0.0
 11
1136.364252
 21
1597.536607
 31
0.0
  0
LINE
  5
3FA
100
AcDbEntity
  8
LAY-1
  6
CONTINUOUS
 62
     7
100
AcDbLine
 10
1239.561099
 20
1595.606406
 30
0.0
 11
1240.647121
 21
1564.506808
 31
0.0
  0
ARC
  5
3FB
100
AcDbEntity
  8
LAY-1
  6
CONTINUOUS
 62
     7
100
AcDbCircle
 10
1242.645903
 20
1564.576607
 30
0.0
 40
2.0
100
AcDbArc
 50
182.0
 51
270.0
  0
LINE
  5
3FC
100
AcDbEntity
  8
LAY-1
  6
CONTINUOUS
 62
     7
100
AcDbLine
 10
1042.715922
 20
1738.536607
 30
0.0
 11
1096.715922
 21
1738.536607
 31
0.0
  0
ARC
  5
3FD
100
AcDbEntity
  8
LAY-1
  6
CONTINUOUS
 62
     7
100
AcDbCircle
 10
1096.715922
 20
1737.536607
 30
0.0
 40
1.0
100
AcDbArc
 50
0.0
 51
90.0
  0
LINE
  5
3FE
100
AcDbEntity
  8
LAY-1
  6
CONTINUOUS
 62
     7
100
AcDbLine
 10
1042.715922
 20
1738.536607
 30
0.0
 11
988.715922
 21
1738.536607
 31
0.0
  0
ARC
  5
3FF
100
AcDbEntity
  8
LAY-1
  6
CONTINUOUS
 62
     7
100
AcDbCircle
 10
988.715922
 20
1737.536607
 30
0.0
 40
1.0
100
AcDbArc
 50
90.0
 51
180.0
  0
LINE
  5
400
100
AcDbEntity
  8
LAY-1
  6
CONTINUOUS
 62
     7
100
AcDbLine
 10
1016.715922
 20
1729.536607
 30
0.0
 11
987.715922
 21
1729.536607
 31
0.0
  0
LINE
  5
401
100
AcDbEntity
  8
LAY-1
  6
CONTINUOUS
 62
     7
100
AcDbLine
 10
987.715922
 20
1737.536607
 30
0.0
 11
987.715922
 21
1728.536607
 31
0.0
  0
LINE
  5
402
100
AcDbEntity
  8
LAY-1
  6
CONTINUOUS
 62
     7
100
AcDbLine
 10
1097.715922
 20
1737.536607
 30
0.0
 11
1097.715922
 21
1728.536607
 31
0.0
  0
LINE
  5
403
100
AcDbEntity
  8
LAY-1
  6
CONTINUOUS
 62
     7
100
AcDbLine
 10
1097.715922
 20
1728.536607
 30
0.0
 11
987.715922
 21
1728.536607
 31
0.0
  0
ARC
  5
404
100
AcDbEntity
  8
LAY-1
  6
CONTINUOUS
 62
     7
100
AcDbCircle
 10
1042.715922
 20
1666.536607
 30
0.0
 40
69.5
100
AcDbArc
 50
144.846263
 51
222.173544
  0
ARC
  5
405
100
AcDbEntity
  8
LAY-1
  6
CONTINUOUS
 62
     7
100
AcDbCircle
 10
1042.715922
 20
1666.536607
 30
0.0
 40
69.5
100
AcDbArc
 50
317.826456
 51
35.153737
  0
LINE
  5
406
100
AcDbEntity
  8
LAY-1
  6
CONTINUOUS
 62
     7
100
AcDbLine
 10
1097.715922
 20
1712.310508
 30
0.0
 11
1097.715922
 21
1728.536607
 31
0.0
  0
LINE
  5
407
100
AcDbEntity
  8
LAY-1
  6
CONTINUOUS
 62
     7
100
AcDbLine
 10
987.715922
 20
1712.310508
 30
0.0
 11
987.715922
 21
1728.536607
 31
0.0
  0
ARC
  5
408
100
AcDbEntity
  8
LAY-1
  6
CONTINUOUS
 62
     7
100
AcDbCircle
 10
987.502878
 20
1616.518912
 30
0.0
 40
5.0
100
AcDbArc
 50
292.9382
 51
42.173544
  0
ARC
  5
409
100
AcDbEntity
  8
LAY-1
  6
CONTINUOUS
 62
     7
100
AcDbCircle
 10
1097.928966
 20
1616.518912
 30
0.0
 40
5.0
100
AcDbArc
 50
137.826456
 51
252.9382
  0
ARC
  5
40A
100
AcDbEntity
  8
LAY-1
  6
CONTINUOUS
 62
     7
100
AcDbCircle
 10
1107.715922
 20
1712.310508
 30
0.0
 40
10.0
100
AcDbArc
 50
180.0
 51
215.153737
  0
ARC
  5
40B
100
AcDbEntity
  8
LAY-1
  6
CONTINUOUS
 62
     7
100
AcDbCircle
 10
977.715922
 20
1712.310508
 30
0.0
 40
10.0
100
AcDbArc
 50
324.846263
 51
0.0
  0
LINE
  5
40C
100
AcDbEntity
  8
LAY-1
  6
CONTINUOUS
 62
     7
100
AcDbLine
 10
1082.55309
 20
1741.036607
 30
0.0
 11
1075.05309
 21
1741.036607
 31
0.0
  0
LINE
  5
40D
100
AcDbEntity
  8
LAY-1
  6
CONTINUOUS
 62
     7
100
AcDbLine
 10
1075.05309
 20
1745.959257
 30
0.0
 11
1076.05309
 21
1746.536607
 31
0.0
  0
LINE
  5
40E
100
AcDbEntity
  8
LAY-1
  6
CONTINUOUS
 62
     7
100
AcDbLine
 10
1082.55309
 20
1746.536607
 30
0.0
 11
1076.05309
 21
1746.536607
 31
0.0
  0
LINE
  5
40F
100
AcDbEntity
  8
LAY-1
  6
CONTINUOUS
 62
     7
100
AcDbLine
 10
1078.800314
 20
1745.959257
 30
0.0
 11
1078.800314
 21
1741.036607
 31
0.0
  0
ARC
  5
410
100
AcDbEntity
  8
LAY-1
  6
CONTINUOUS
 62
     7
100
AcDbCircle
 10
1076.926702
 20
1743.207818
 30
0.0
 40
3.328788
100
AcDbArc
 50
55.746813
 51
124.253187
  0
LINE
  5
411
100
AcDbEntity
  8
LAY-1
  6
CONTINUOUS
 62
     7
100
AcDbLine
 10
1082.55309
 20
1741.036607
 30
0.0
 11
1090.05309
 21
1741.036607
 31
0.0
  0
LINE
  5
412
100
AcDbEntity
  8
LAY-1
  6
CONTINUOUS
 62
     7
100
AcDbLine
 10
1090.05309
 20
1745.959257
 30
0.0
 11
1089.05309
 21
1746.536607
 31
0.0
  0
LINE
  5
413
100
AcDbEntity
  8
LAY-1
  6
CONTINUOUS
 62
     7
100
AcDbLine
 10
1082.55309
 20
1746.536607
 30
0.0
 11
1089.05309
 21
1746.536607
 31
0.0
  0
LINE
  5
414
100
AcDbEntity
  8
LAY-1
  6
CONTINUOUS
 62
     7
100
AcDbLine
 10
1086.305867
 20
1745.959257
 30
0.0
 11
1086.305867
 21
1741.036607
 31
0.0
  0
ARC
  5
415
100
AcDbEntity
  8
LAY-1
  6
CONTINUOUS
 62
     7
100
AcDbCircle
 10
1088.179479
 20
1743.207818
 30
0.0
 40
3.328788
100
AcDbArc
 50
55.746813
 51
124.253187
  0
ARC
  5
416
100
AcDbEntity
  8
LAY-1
  6
CONTINUOUS
 62
     7
100
AcDbCircle
 10
1082.55309
 20
1734.051407
 30
0.0
 40
12.4852
100
AcDbArc
 50
72.507675
 51
107.492325
  0
LINE
  5
417
100
AcDbEntity
  8
LAY-1
  6
CONTINUOUS
 62
     7
100
AcDbLine
 10
1090.05309
 20
1738.536607
 30
0.0
 11
1090.05309
 21
1745.959257
 31
0.0
  0
LINE
  5
418
100
AcDbEntity
  8
LAY-1
  6
CONTINUOUS
 62
     7
100
AcDbLine
 10
1075.05309
 20
1738.536607
 30
0.0
 11
1075.05309
 21
1745.959257
 31
0.0
  0
LINE
  5
419
100
AcDbEntity
  8
LAY-1
  6
CONTINUOUS
 62
     7
100
AcDbLine
 10
1002.878753
 20
1741.036607
 30
0.0
 11
1010.378753
 21
1741.036607
 31
0.0
  0
LINE
  5
41A
100
AcDbEntity
  8
LAY-1
  6
CONTINUOUS
 62
     7
100
AcDbLine
 10
1010.378753
 20
1745.959257
 30
0.0
 11
1009.378753
 21
1746.536607
 31
0.0
  0
LINE
  5
41B
100
AcDbEntity
  8
LAY-1
  6
CONTINUOUS
 62
     7
100
AcDbLine
 10
1002.878753
 20
1746.536607
 30
0.0
 11
1009.378753
 21
1746.536607
 31
0.0
  0
LINE
  5
41C
100
AcDbEntity
  8
LAY-1
  6
CONTINUOUS
 62
     7
100
AcDbLine
 10
1006.63153
 20
1745.959257
 30
0.0
 11
1006.63153
 21
1741.036607
 31
0.0
  0
ARC
  5
41D
100
AcDbEntity
  8
LAY-1
  6
CONTINUOUS
 62
     7
100
AcDbCircle
 10
1008.505142
 20
1743.207818
 30
0.0
 40
3.328788
100
AcDbArc
 50
55.746813
 51
124.253187
  0
LINE
  5
41E
100
AcDbEntity
  8
LAY-1
  6
CONTINUOUS
 62
     7
100
AcDbLine
 10
1002.878753
 20
1741.036607
 30
0.0
 11
995.378753
 21
1741.036607
 31
0.0
  0
LINE
  5
41F
100
AcDbEntity
  8
LAY-1
  6
CONTINUOUS
 62
     7
100
AcDbLine
 10
995.378753
 20
1745.959257
 30
0.0
 11
996.378753
 21
1746.536607
 31
0.0
  0
LINE
  5
420
100
AcDbEntity
  8
LAY-1
  6
CONTINUOUS
 62
     7
100
AcDbLine
 10
1002.878753
 20
1746.536607
 30
0.0
 11
996.378753
 21
1746.536607
 31
0.0
  0
LINE
  5
421
100
AcDbEntity
  8
LAY-1
  6
CONTINUOUS
 62
     7
100
AcDbLine
 10
999.125976
 20
1745.959257
 30
0.0
 11
999.125976
 21
1741.036607
 31
0.0
  0
ARC
  5
422
100
AcDbEntity
  8
LAY-1
  6
CONTINUOUS
 62
     7
100
AcDbCircle
 10
997.252365
 20
1743.207818
 30
0.0
 40
3.328788
100
AcDbArc
 50
55.746813
 51
124.253187
  0
ARC
  5
423
100
AcDbEntity
  8
LAY-1
  6
CONTINUOUS
 62
     7
100
AcDbCircle
 10
1002.878753
 20
1734.051407
 30
0.0
 40
12.4852
100
AcDbArc
 50
72.507675
 51
107.492325
  0
LINE
  5
424
100
AcDbEntity
  8
LAY-1
  6
CONTINUOUS
 62
     7
100
AcDbLine
 10
995.378753
 20
1738.536607
 30
0.0
 11
995.378753
 21
1745.959257
 31
0.0
  0
LINE
  5
425
100
AcDbEntity
  8
LAY-1
  6
CONTINUOUS
 62
     7
100
AcDbLine
 10
1010.378753
 20
1738.536607
 30
0.0
 11
1010.378753
 21
1745.959257
 31
0.0
  0
LINE
  5
426
100
AcDbEntity
  8
LAY-1
  6
CONTINUOUS
 62
     7
100
AcDbLine
 10
1042.715922
 20
1741.036607
 30
0.0
 11
1035.215922
 21
1741.036607
 31
0.0
  0
LINE
  5
427
100
AcDbEntity
  8
LAY-1
  6
CONTINUOUS
 62
     7
100
AcDbLine
 10
1035.215922
 20
1745.959257
 30
0.0
 11
1036.215922
 21
1746.536607
 31
0.0
  0
LINE
  5
428
100
AcDbEntity
  8
LAY-1
  6
CONTINUOUS
 62
     7
100
AcDbLine
 10
1042.715922
 20
1746.536607
 30
0.0
 11
1036.215922
 21
1746.536607
 31
0.0
  0
LINE
  5
429
100
AcDbEntity
  8
LAY-1
  6
CONTINUOUS
 62
     7
100
AcDbLine
 10
1038.963145
 20
1745.959257
 30
0.0
 11
1038.963145
 21
1741.036607
 31
0.0
  0
ARC
  5
42A
100
AcDbEntity
  8
LAY-1
  6
CONTINUOUS
 62
     7
100
AcDbCircle
 10
1037.089533
 20
1743.207818
 30
0.0
 40
3.328788
100
AcDbArc
 50
55.746813
 51
124.253187
  0
LINE
  5
42B
100
AcDbEntity
  8
LAY-1
  6
CONTINUOUS
 62
     7
100
AcDbLine
 10
1042.715922
 20
1741.036607
 30
0.0
 11
1050.215922
 21
1741.036607
 31
0.0
  0
LINE
  5
42C
100
AcDbEntity
  8
LAY-1
  6
CONTINUOUS
 62
     7
100
AcDbLine
 10
1050.215922
 20
1745.959257
 30
0.0
 11
1049.215922
 21
1746.536607
 31
0.0
  0
LINE
  5
42D
100
AcDbEntity
  8
LAY-1
  6
CONTINUOUS
 62
     7
100
AcDbLine
 10
1042.715922
 20
1746.536607
 30
0.0
 11
1049.215922
 21
1746.536607
 31
0.0
  0
LINE
  5
42E
100
AcDbEntity
  8
LAY-1
  6
CONTINUOUS
 62
     7
100
AcDbLine
 10
1046.468699
 20
1745.959257
 30
0.0
 11
1046.468699
 21
1741.036607
 31
0.0
  0
ARC
  5
42F
100
AcDbEntity
  8
LAY-1
  6
CONTINUOUS
 62
     7
100
AcDbCircle
 10
1048.34231
 20
1743.207818
 30
0.0
 40
3.328788
100
AcDbArc
 50
55.746813
 51
124.253187
  0
ARC
  5
430
100
AcDbEntity
  8
LAY-1
  6
CONTINUOUS
 62
     7
100
AcDbCircle
 10
1042.715922
 20
1734.051407
 30
0.0
 40
12.4852
100
AcDbArc
 50
72.507675
 51
107.492325
  0
LINE
  5
431
100
AcDbEntity
  8
LAY-1
  6
CONTINUOUS
 62
     7
100
AcDbLine
 10
1050.215922
 20
1738.536607
 30
0.0
 11
1050.215922
 21
1745.959257
 31
0.0
  0
LINE
  5
432
100
AcDbEntity
  8
LAY-1
  6
CONTINUOUS
 62
     7
100
AcDbLine
 10
1035.215922
 20
1738.536607
 30
0.0
 11
1035.215922
 21
1745.959257
 31
0.0
  0
LINE
  5
433
100
AcDbEntity
  8
LAY-1
  6
CONTINUOUS
 62
     7
100
AcDbLine
 10
1242.806603
 20
1562.576607
 30
0.0
 11
868.490618
 21
1562.576607
 31
0.0
  0
LINE
  5
434
100
AcDbEntity
  8
LAY-1
  6
CONTINUOUS
 62
     7
100
AcDbLine
 10
1134.654152
 20
1597.838144
 30
0.0
 11
1095.980276
 21
1611.914283
 31
0.0
  0
LINE
  5
435
100
AcDbEntity
  8
LAY-1
  6
CONTINUOUS
 62
     7
100
AcDbLine
 10
954.122562
 20
1599.055577
 30
0.0
 11
989.451568
 21
1611.914283
 31
0.0
  0
ARC
  5
436
100
AcDbEntity
  8
LAY-1
  6
CONTINUOUS
 62
     7
100
AcDbCircle
 10
1042.715922
 20
1355.647323
 30
0.0
 40
259.029654
100
AcDbArc
 50
70.0
 51
110.0
  0
LINE
  5
437
100
AcDbEntity
  8
LAY-1
  6
CONTINUOUS
 62
     2
100
AcDbLine
 10
1242.715922
 20
1524.076607
 30
0.0
 11
1236.817755
 21
1524.076607
 31
0.0
  0
LINE
  5
438
100
AcDbEntity
  8
LAY-1
  6
CONTINUOUS
 62
     2
100
AcDbLine
 10
1236.817755
 20
1524.076607
 30
0.0
 11
1220.836317
 21
1524.076607
 31
0.0
  0
LINE
  5
439
100
AcDbEntity
  8
LAY-1
  6
CONTINUOUS
 62
     7
100
AcDbLine
 10
1042.715922
 20
1524.076607
 30
0.0
 11
1242.715922
 21
1524.076607
 31
0.0
  0
ARC
  5
43A
100
AcDbEntity
  8
LAY-1
  6
CONTINUOUS
 62
     7
100
AcDbCircle
 10
1214.654702
 20
1518.621506
 30
0.0
 40
4.344899
100
AcDbArc
 50
235.615753
 51
304.384247
  0
ARC
  5
43B
100
AcDbEntity
  8
LAY-1
  6
CONTINUOUS
 62
     7
100
AcDbCircle
 10
1229.377134
 20
1518.621506
 30
0.0
 40
4.344899
100
AcDbArc
 50
235.615753
 51
304.384247
  0
ARC
  5
43C
100
AcDbEntity
  8
LAY-1
  6
CONTINUOUS
 62
     7
100
AcDbCircle
 10
1222.015918
 20
1530.517417
 30
0.0
 40
16.240811
100
AcDbArc
 50
252.412046
 51
287.587954
  0
LINE
  5
43D
100
AcDbEntity
  8
LAY-1
  6
CONTINUOUS
 62
     7
100
AcDbLine
 10
1212.200963
 20
1515.035796
 30
0.0
 11
1212.200963
 21
1524.076607
 31
0.0
  0
LINE
  5
43E
100
AcDbEntity
  8
LAY-1
  6
CONTINUOUS
 62
     7
100
AcDbLine
 10
1213.515918
 20
1514.276607
 30
0.0
 11
1212.200963
 21
1515.035796
 31
0.0
  0
LINE
  5
43F
100
AcDbEntity
  8
LAY-1
  6
CONTINUOUS
 62
     7
100
AcDbLine
 10
1230.515918
 20
1514.276607
 30
0.0
 11
1213.515918
 21
1514.276607
 31
0.0
  0
LINE
  5
440
100
AcDbEntity
  8
LAY-1
  6
CONTINUOUS
 62
     7
100
AcDbLine
 10
1231.830872
 20
1515.035796
 30
0.0
 11
1230.515918
 21
1514.276607
 31
0.0
  0
LINE
  5
441
100
AcDbEntity
  8
LAY-1
  6
CONTINUOUS
 62
     7
100
AcDbLine
 10
1231.830872
 20
1524.076607
 30
0.0
 11
1231.830872
 21
1515.035796
 31
0.0
  0
LINE
  5
442
100
AcDbEntity
  8
LAY-1
  6
CONTINUOUS
 62
     7
100
AcDbLine
 10
1217.10844
 20
1522.276607
 30
0.0
 11
1217.10844
 21
1515.035796
 31
0.0
  0
LINE
  5
443
100
AcDbEntity
  8
LAY-1
  6
CONTINUOUS
 62
     7
100
AcDbLine
 10
1226.923395
 20
1515.035796
 30
0.0
 11
1226.923395
 21
1522.276607
 31
0.0
  0
LINE
  5
444
100
AcDbEntity
  8
LAY-1
  6
CONTINUOUS
 62
     7
100
AcDbLine
 10
1231.830872
 20
1522.276607
 30
0.0
 11
1212.200963
 21
1522.276607
 31
0.0
  0
ARC
  5
445
100
AcDbEntity
  8
LAY-1
  6
CONTINUOUS
 62
     7
100
AcDbCircle
 10
1166.611413
 20
1518.621506
 30
0.0
 40
4.344899
100
AcDbArc
 50
235.615753
 51
304.384247
  0
ARC
  5
446
100
AcDbEntity
  8
LAY-1
  6
CONTINUOUS
 62
     7
100
AcDbCircle
 10
1181.333844
 20
1518.621506
 30
0.0
 40
4.344899
100
AcDbArc
 50
235.615753
 51
304.384247
  0
ARC
  5
447
100
AcDbEntity
  8
LAY-1
  6
CONTINUOUS
 62
     7
100
AcDbCircle
 10
1173.972629
 20
1530.517417
 30
0.0
 40
16.240811
100
AcDbArc
 50
252.412046
 51
287.587954
  0
LINE
  5
448
100
AcDbEntity
  8
LAY-1
  6
CONTINUOUS
 62
     7
100
AcDbLine
 10
1164.157674
 20
1515.035796
 30
0.0
 11
1164.157674
 21
1524.076607
 31
0.0
  0
LINE
  5
449
100
AcDbEntity
  8
LAY-1
  6
CONTINUOUS
 62
     7
100
AcDbLine
 10
1165.472629
 20
1514.276607
 30
0.0
 11
1164.157674
 21
1515.035796
 31
0.0
  0
LINE
  5
44A
100
AcDbEntity
  8
LAY-1
  6
CONTINUOUS
 62
     7
100
AcDbLine
 10
1182.472629
 20
1514.276607
 30
0.0
 11
1165.472629
 21
1514.276607
 31
0.0
  0
LINE
  5
44B
100
AcDbEntity
  8
LAY-1
  6
CONTINUOUS
 62
     7
100
AcDbLine
 10
1183.787583
 20
1515.035796
 30
0.0
 11
1182.472629
 21
1514.276607
 31
0.0
  0
LINE
  5
44C
100
AcDbEntity
  8
LAY-1
  6
CONTINUOUS
 62
     7
100
AcDbLine
 10
1183.787583
 20
1524.076607
 30
0.0
 11
1183.787583
 21
1515.035796
 31
0.0
  0
LINE
  5
44D
100
AcDbEntity
  8
LAY-1
  6
CONTINUOUS
 62
     7
100
AcDbLine
 10
1169.065151
 20
1522.276607
 30
0.0
 11
1169.065151
 21
1515.035796
 31
0.0
  0
LINE
  5
44E
100
AcDbEntity
  8
LAY-1
  6
CONTINUOUS
 62
     7
100
AcDbLine
 10
1178.880106
 20
1515.035796
 30
0.0
 11
1178.880106
 21
1522.276607
 31
0.0
  0
LINE
  5
44F
100
AcDbEntity
  8
LAY-1
  6
CONTINUOUS
 62
     7
100
AcDbLine
 10
1183.787583
 20
1522.276607
 30
0.0
 11
1164.157674
 21
1522.276607
 31
0.0
  0
ARC
  5
450
100
AcDbEntity
  8
LAY-1
  6
CONTINUOUS
 62
     7
100
AcDbCircle
 10
1083.397995
 20
1518.621506
 30
0.0
 40
4.344899
100
AcDbArc
 50
235.615753
 51
304.384247
  0
ARC
  5
451
100
AcDbEntity
  8
LAY-1
  6
CONTINUOUS
 62
     7
100
AcDbCircle
 10
1098.120427
 20
1518.621506
 30
0.0
 40
4.344899
100
AcDbArc
 50
235.615753
 51
304.384247
  0
ARC
  5
452
100
AcDbEntity
  8
LAY-1
  6
CONTINUOUS
 62
     7
100
AcDbCircle
 10
1090.759211
 20
1530.517417
 30
0.0
 40
16.240811
100
AcDbArc
 50
252.412046
 51
287.587954
  0
LINE
  5
453
100
AcDbEntity
  8
LAY-1
  6
CONTINUOUS
 62
     7
100
AcDbLine
 10
1080.944256
 20
1515.035796
 30
0.0
 11
1080.944256
 21
1524.076607
 31
0.0
  0
LINE
  5
454
100
AcDbEntity
  8
LAY-1
  6
CONTINUOUS
 62
     7
100
AcDbLine
 10
1082.259211
 20
1514.276607
 30
0.0
 11
1080.944256
 21
1515.035796
 31
0.0
  0
LINE
  5
455
100
AcDbEntity
  8
LAY-1
  6
CONTINUOUS
 62
     7
100
AcDbLine
 10
1099.259211
 20
1514.276607
 30
0.0
 11
1082.259211
 21
1514.276607
 31
0.0
  0
LINE
  5
456
100
AcDbEntity
  8
LAY-1
  6
CONTINUOUS
 62
     7
100
AcDbLine
 10
1100.574165
 20
1515.035796
 30
0.0
 11
1099.259211
 21
1514.276607
 31
0.0
  0
LINE
  5
457
100
AcDbEntity
  8
LAY-1
  6
CONTINUOUS
 62
     7
100
AcDbLine
 10
1100.574165
 20
1524.076607
 30
0.0
 11
1100.574165
 21
1515.035796
 31
0.0
  0
LINE
  5
458
100
AcDbEntity
  8
LAY-1
  6
CONTINUOUS
 62
     7
100
AcDbLine
 10
1085.851734
 20
1522.276607
 30
0.0
 11
1085.851734
 21
1515.035796
 31
0.0
  0
LINE
  5
459
100
AcDbEntity
  8
LAY-1
  6
CONTINUOUS
 62
     7
100
AcDbLine
 10
1095.666688
 20
1515.035796
 30
0.0
 11
1095.666688
 21
1522.276607
 31
0.0
  0
LINE
  5
45A
100
AcDbEntity
  8
LAY-1
  6
CONTINUOUS
 62
     7
100
AcDbLine
 10
1100.574165
 20
1522.276607
 30
0.0
 11
1080.944256
 21
1522.276607
 31
0.0
  0
ARC
  5
45B
100
AcDbEntity
  8
LAY-1
  6
CONTINUOUS
 62
     7
100
AcDbCircle
 10
987.311417
 20
1518.621506
 30
0.0
 40
4.344899
100
AcDbArc
 50
235.615753
 51
304.384247
  0
ARC
  5
45C
100
AcDbEntity
  8
LAY-1
  6
CONTINUOUS
 62
     7
100
AcDbCircle
 10
1002.033849
 20
1518.621506
 30
0.0
 40
4.344899
100
AcDbArc
 50
235.615753
 51
304.384247
  0
ARC
  5
45D
100
AcDbEntity
  8
LAY-1
  6
CONTINUOUS
 62
     7
100
AcDbCircle
 10
994.672633
 20
1530.517417
 30
0.0
 40
16.240811
100
AcDbArc
 50
252.412046
 51
287.587954
  0
LINE
  5
45E
100
AcDbEntity
  8
LAY-1
  6
CONTINUOUS
 62
     7
100
AcDbLine
 10
984.857678
 20
1515.035796
 30
0.0
 11
984.857678
 21
1524.076607
 31
0.0
  0
LINE
  5
45F
100
AcDbEntity
  8
LAY-1
  6
CONTINUOUS
 62
     7
100
AcDbLine
 10
986.172633
 20
1514.276607
 30
0.0
 11
984.857678
 21
1515.035796
 31
0.0
  0
LINE
  5
460
100
AcDbEntity
  8
LAY-1
  6
CONTINUOUS
 62
     7
100
AcDbLine
 10
1003.172633
 20
1514.276607
 30
0.0
 11
986.172633
 21
1514.276607
 31
0.0
  0
LINE
  5
461
100
AcDbEntity
  8
LAY-1
  6
CONTINUOUS
 62
     7
100
AcDbLine
 10
1004.487587
 20
1515.035796
 30
0.0
 11
1003.172633
 21
1514.276607
 31
0.0
  0
LINE
  5
462
100
AcDbEntity
  8
LAY-1
  6
CONTINUOUS
 62
     7
100
AcDbLine
 10
1004.487587
 20
1524.076607
 30
0.0
 11
1004.487587
 21
1515.035796
 31
0.0
  0
LINE
  5
463
100
AcDbEntity
  8
LAY-1
  6
CONTINUOUS
 62
     7
100
AcDbLine
 10
989.765155
 20
1522.276607
 30
0.0
 11
989.765155
 21
1515.035796
 31
0.0
  0
LINE
  5
464
100
AcDbEntity
  8
LAY-1
  6
CONTINUOUS
 62
     7
100
AcDbLine
 10
999.58011
 20
1515.035796
 30
0.0
 11
999.58011
 21
1522.276607
 31
0.0
  0
LINE
  5
465
100
AcDbEntity
  8
LAY-1
  6
CONTINUOUS
 62
     7
100
AcDbLine
 10
1004.487587
 20
1522.276607
 30
0.0
 11
984.857678
 21
1522.276607
 31
0.0
  0
ARC
  5
466
100
AcDbEntity
  8
LAY-1
  6
CONTINUOUS
 62
     7
100
AcDbCircle
 10
904.097999
 20
1518.621506
 30
0.0
 40
4.344899
100
AcDbArc
 50
235.615753
 51
304.384247
  0
ARC
  5
467
100
AcDbEntity
  8
LAY-1
  6
CONTINUOUS
 62
     7
100
AcDbCircle
 10
918.820431
 20
1518.621506
 30
0.0
 40
4.344899
100
AcDbArc
 50
235.615753
 51
304.384247
  0
ARC
  5
468
100
AcDbEntity
  8
LAY-1
  6
CONTINUOUS
 62
     7
100
AcDbCircle
 10
911.459215
 20
1530.517417
 30
0.0
 40
16.240811
100
AcDbArc
 50
252.412046
 51
287.587954
  0
LINE
  5
469
100
AcDbEntity
  8
LAY-1
  6
CONTINUOUS
 62
     7
100
AcDbLine
 10
901.64426
 20
1515.035796
 30
0.0
 11
901.64426
 21
1524.076607
 31
0.0
  0
LINE
  5
46A
100
AcDbEntity
  8
LAY-1
  6
CONTINUOUS
 62
     7
100
AcDbLine
 10
902.959215
 20
1514.276607
 30
0.0
 11
901.64426
 21
1515.035796
 31
0.0
  0
LINE
  5
46B
100
AcDbEntity
  8
LAY-1
  6
CONTINUOUS
 62
     7
100
AcDbLine
 10
919.959215
 20
1514.276607
 30
0.0
 11
902.959215
 21
1514.276607
 31
0.0
  0
LINE
  5
46C
100
AcDbEntity
  8
LAY-1
  6
CONTINUOUS
 62
     7
100
AcDbLine
 10
921.27417
 20
1515.035796
 30
0.0
 11
919.959215
 21
1514.276607
 31
0.0
  0
LINE
  5
46D
100
AcDbEntity
  8
LAY-1
  6
CONTINUOUS
 62
     7
100
AcDbLine
 10
921.27417
 20
1524.076607
 30
0.0
 11
921.27417
 21
1515.035796
 31
0.0
  0
LINE
  5
46E
100
AcDbEntity
  8
LAY-1
  6
CONTINUOUS
 62
     7
100
AcDbLine
 10
906.551738
 20
1522.276607
 30
0.0
 11
906.551738
 21
1515.035796
 31
0.0
  0
LINE
  5
46F
100
AcDbEntity
  8
LAY-1
  6
CONTINUOUS
 62
     7
100
AcDbLine
 10
916.366692
 20
1515.035796
 30
0.0
 11
916.366692
 21
1522.276607
 31
0.0
  0
LINE
  5
470
100
AcDbEntity
  8
LAY-1
  6
CONTINUOUS
 62
     7
100
AcDbLine
 10
921.27417
 20
1522.276607
 30
0.0
 11
901.64426
 21
1522.276607
 31
0.0
  0
LINE
  5
471
100
AcDbEntity
  8
LAY-1
  6
CONTINUOUS
 62
     7
100
AcDbLine
 10
1042.715922
 20
1524.076607
 30
0.0
 11
842.715922
 21
1524.076607
 31
0.0
  0
ARC
  5
472
100
AcDbEntity
  8
LAY-1
  6
CONTINUOUS
 62
     7
100
AcDbCircle
 10
856.05471
 20
1518.621506
 30
0.0
 40
4.344899
100
AcDbArc
 50
235.615753
 51
304.384247
  0
ARC
  5
473
100
AcDbEntity
  8
LAY-1
  6
CONTINUOUS
 62
     7
100
AcDbCircle
 10
870.777142
 20
1518.621506
 30
0.0
 40
4.344899
100
AcDbArc
 50
235.615753
 51
304.384247
  0
ARC
  5
474
100
AcDbEntity
  8
LAY-1
  6
CONTINUOUS
 62
     7
100
AcDbCircle
 10
863.415926
 20
1530.517417
 30
0.0
 40
16.240811
100
AcDbArc
 50
252.412046
 51
287.587954
  0
LINE
  5
475
100
AcDbEntity
  8
LAY-1
  6
CONTINUOUS
 62
     7
100
AcDbLine
 10
853.600971
 20
1515.035796
 30
0.0
 11
853.600971
 21
1524.076607
 31
0.0
  0
LINE
  5
476
100
AcDbEntity
  8
LAY-1
  6
CONTINUOUS
 62
     7
100
AcDbLine
 10
854.915926
 20
1514.276607
 30
0.0
 11
853.600971
 21
1515.035796
 31
0.0
  0
LINE
  5
477
100
AcDbEntity
  8
LAY-1
  6
CONTINUOUS
 62
     7
100
AcDbLine
 10
871.915926
 20
1514.276607
 30
0.0
 11
854.915926
 21
1514.276607
 31
0.0
  0
LINE
  5
478
100
AcDbEntity
  8
LAY-1
  6
CONTINUOUS
 62
     7
100
AcDbLine
 10
873.230881
 20
1515.035796
 30
0.0
 11
871.915926
 21
1514.276607
 31
0.0
  0
LINE
  5
479
100
AcDbEntity
  8
LAY-1
  6
CONTINUOUS
 62
     7
100
AcDbLine
 10
873.230881
 20
1524.076607
 30
0.0
 11
873.230881
 21
1515.035796
 31
0.0
  0
LINE
  5
47A
100
AcDbEntity
  8
LAY-1
  6
CONTINUOUS
 62
     7
100
AcDbLine
 10
858.508449
 20
1522.276607
 30
0.0
 11
858.508449
 21
1515.035796
 31
0.0
  0
LINE
  5
47B
100
AcDbEntity
  8
LAY-1
  6
CONTINUOUS
 62
     7
100
AcDbLine
 10
868.323403
 20
1515.035796
 30
0.0
 11
868.323403
 21
1522.276607
 31
0.0
  0
LINE
  5
47C
100
AcDbEntity
  8
LAY-1
  6
CONTINUOUS
 62
     7
100
AcDbLine
 10
873.230881
 20
1522.276607
 30
0.0
 11
853.600971
 21
1522.276607
 31
0.0
  0
LINE
  5
47D
100
AcDbEntity
  8
LAY-1
  6
CONTINUOUS
 62
     7
100
AcDbLine
 10
1242.715922
 20
1544.576607
 30
0.0
 11
1242.715922
 21
1524.076607
 31
0.0
  0
LINE
  5
47E
100
AcDbEntity
  8
LAY-1
  6
CONTINUOUS
 62
     7
100
AcDbLine
 10
1242.715922
 20
1544.576607
 30
0.0
 11
1240.715922
 21
1546.576607
 31
0.0
  0
LINE
  5
47F
100
AcDbEntity
  8
LAY-1
  6
CONTINUOUS
 62
     7
100
AcDbLine
 10
842.715922
 20
1544.576607
 30
0.0
 11
844.715922
 21
1546.576607
 31
0.0
  0
LINE
  5
480
100
AcDbEntity
  8
LAY-1
  6
CONTINUOUS
 62
     7
100
AcDbLine
 10
1242.806603
 20
1562.576607
 30
0.0
 11
1242.806603
 21
1546.576607
 31
0.0
  0
LINE
  5
481
100
AcDbEntity
  8
LAY-1
  6
CONTINUOUS
 62
     7
100
AcDbLine
 10
1242.806603
 20
1546.576607
 30
0.0
 11
842.806603
 21
1546.576607
 31
0.0
  0
LINE
  5
482
100
AcDbEntity
  8
LAY-1
  6
CONTINUOUS
 62
     7
100
AcDbLine
 10
842.806603
 20
1546.576607
 30
0.0
 11
842.806603
 21
1562.576607
 31
0.0
  0
LINE
  5
483
100
AcDbEntity
  8
LAY-1
  6
EXLTYPE3
 62
     1
100
AcDbLine
 10
1042.715922
 20
1264.986221
 30
0.0
 11
1042.715922
 21
1760.986221
 31
0.0
  0
LINE
  5
484
100
AcDbEntity
  8
LAY-1
  6
CONTINUOUS
 62
     7
100
AcDbLine
 10
1845.66509
 20
980.049944
 30
0.0
 11
1845.66509
 21
899.049944
 31
0.0
  0
LINE
  5
485
100
AcDbEntity
  8
LAY-1
  6
CONTINUOUS
 62
     7
100
AcDbLine
 10
1846.66509
 20
899.049944
 30
0.0
 11
1846.66509
 21
980.049944
 31
0.0
  0
LINE
  5
486
100
AcDbEntity
  8
LAY-1
  6
CONTINUOUS
 62
     7
100
AcDbLine
 10
1819.915922
 20
1012.85081
 30
0.0
 11
1748.115922
 21
1012.85081
 31
0.0
  0
LINE
  5
487
100
AcDbEntity
  8
LAY-1
  6
CONTINUOUS
 62
     7
100
AcDbLine
 10
1754.015922
 20
835.049944
 30
0.0
 11
1817.015922
 21
835.049944
 31
0.0
  0
ARC
  5
488
100
AcDbEntity
  8
LAY-1
  6
CONTINUOUS
 62
     7
100
AcDbCircle
 10
612.696037
 20
925.049944
 30
0.0
 40
259.029654
100
AcDbArc
 50
160.0
 51
200.331459
  0
ARC
  5
489
100
AcDbEntity
  8
LAY-1
  6
CONTINUOUS
 62
     7
100
AcDbCircle
 10
1472.735806
 20
925.049944
 30
0.0
 40
259.029654
100
AcDbArc
 50
339.668541
 51
20.0
  0
ARC
  5
48A
100
AcDbEntity
  8
LAY-1
  6
CONTINUOUS
 62
     7
100
AcDbCircle
 10
1891.16509
 20
925.049944
 30
0.0
 40
177.0
100
AcDbArc
 50
157.702971
 51
160.141517
  0
ARC
  5
48B
100
AcDbEntity
  8
LAY-1
  6
CONTINUOUS
 62
     7
100
AcDbCircle
 10
1891.16509
 20
925.049944
 30
0.0
 40
177.0
100
AcDbArc
 50
199.858483
 51
206.826565
  0
LINE
  5
48C
100
AcDbEntity
  8
LAY-1
  6
CONTINUOUS
 62
     7
100
AcDbLine
 10
238.766753
 20
951.049944
 30
0.0
 11
238.766753
 21
870.049944
 31
0.0
  0
LINE
  5
48D
100
AcDbEntity
  8
LAY-1
  6
CONTINUOUS
 62
     7
100
AcDbLine
 10
239.766753
 20
980.049944
 30
0.0
 11
239.766753
 21
899.049944
 31
0.0
  0
ARC
  5
48E
100
AcDbEntity
  8
LAY-1
  6
CONTINUOUS
 62
     7
100
AcDbCircle
 10
194.266753
 20
925.049944
 30
0.0
 40
177.0
100
AcDbArc
 50
19.858483
 51
22.297029
  0
ARC
  5
48F
100
AcDbEntity
  8
LAY-1
  6
CONTINUOUS
 62
     7
100
AcDbCircle
 10
194.266753
 20
925.049944
 30
0.0
 40
177.0
100
AcDbArc
 50
333.173435
 51
340.141517
  0
LINE
  5
490
100
AcDbEntity
  8
LAY-1
  6
CONTINUOUS
 62
     7
100
AcDbLine
 10
331.415922
 20
835.049944
 30
0.0
 11
268.415922
 21
835.049944
 31
0.0
  0
LINE
  5
491
100
AcDbEntity
  8
LAY-1
  6
CONTINUOUS
 62
     7
100
AcDbLine
 10
265.515922
 20
1012.85081
 30
0.0
 11
337.315922
 21
1012.85081
 31
0.0
  0
POLYLINE
  5
492
100
AcDbEntity
  8
LAY-1
  6
CONTINUOUS
 62
     7
100
AcDb2dPolyline
 66
     1
 10
0.0
 20
0.0
 30
0.0
 70
   128
  0
VERTEX
  5
493
100
AcDbEntity
  8
LAY-1
  6
CONTINUOUS
 62
     7
100
AcDbVertex
100
AcDb2dVertex
 10
1709.747994
 20
925.049944
 30
0.0
  0
VERTEX
  5
494
100
AcDbEntity
  8
LAY-1
  6
CONTINUOUS
 62
     7
100
AcDbVertex
100
AcDb2dVertex
 10
1705.706542
 20
932.049944
 30
0.0
  0
VERTEX
  5
495
100
AcDbEntity
  8
LAY-1
  6
CONTINUOUS
 62
     7
100
AcDbVertex
100
AcDb2dVertex
 10
1697.623639
 20
932.049944
 30
0.0
  0
VERTEX
  5
496
100
AcDbEntity
  8
LAY-1
  6
CONTINUOUS
 62
     7
100
AcDbVertex
100
AcDb2dVertex
 10
1693.582187
 20
925.049944
 30
0.0
  0
VERTEX
  5
497
100
AcDbEntity
  8
LAY-1
  6
CONTINUOUS
 62
     7
100
AcDbVertex
100
AcDb2dVertex
 10
1697.623639
 20
918.049944
 30
0.0
  0
VERTEX
  5
498
100
AcDbEntity
  8
LAY-1
  6
CONTINUOUS
 62
     7
100
AcDbVertex
100
AcDb2dVertex
 10
1705.706542
 20
918.049944
 30
0.0
  0
VERTEX
  5
499
100
AcDbEntity
  8
LAY-1
  6
CONTINUOUS
 62
     7
100
AcDbVertex
100
AcDb2dVertex
 10
1709.747994
 20
925.049944
 30
0.0
  0
SEQEND
  5
49A
100
AcDbEntity
  8
LAY-1
  6
CONTINUOUS
 62
     7
  0
CIRCLE
  5
49B
100
AcDbEntity
  8
LAY-1
  6
CONTINUOUS
 62
     7
100
AcDbCircle
 10
1701.66509
 20
925.049944
 30
0.0
 40
7.0
  0
ARC
  5
49C
100
AcDbEntity
  8
LAY-1
  6
CONTINUOUS
 62
     7
100
AcDbCircle
 10
1701.66509
 20
925.049944
 30
0.0
 40
13.0
100
AcDbArc
 50
274.380624
 51
85.978997
  0
LINE
  5
49D
100
AcDbEntity
  8
LAY-1
  6
CONTINUOUS
 62
     7
100
AcDbLine
 10
1682.400329
 20
939.807603
 30
0.0
 11
1702.757329
 21
938.003979
 31
0.0
  0
ARC
  5
49E
100
AcDbEntity
  8
LAY-1
  6
CONTINUOUS
 62
     7
100
AcDbCircle
 10
1682.66509
 20
942.795897
 30
0.0
 40
3.0
100
AcDbArc
 50
180.0
 51
264.936832
  0
LINE
  5
49F
100
AcDbEntity
  8
LAY-1
  6
CONTINUOUS
 62
     7
100
AcDbLine
 10
1682.400329
 20
910.292285
 30
0.0
 11
1702.757329
 21
912.095909
 31
0.0
  0
ARC
  5
4A0
100
AcDbEntity
  8
LAY-1
  6
CONTINUOUS
 62
     7
100
AcDbCircle
 10
1682.66509
 20
907.303991
 30
0.0
 40
3.0
100
AcDbArc
 50
95.063168
 51
180.0
  0
LINE
  5
4A1
100
AcDbEntity
  8
LAY-1
  6
EXLTYPE3
 62
     1
100
AcDbLine
 10
1701.66509
 20
938.777429
 30
0.0
 11
1701.66509
 21
910.577429
 31
0.0
  0
LINE
  5
4A2
100
AcDbEntity
  8
LAY-1
  6
CONTINUOUS
 62
     7
100
AcDbLine
 10
1016.515922
 20
120.563281
 30
0.0
 11
1097.715922
 21
120.563281
 31
0.0
  0
LINE
  5
4A3
100
AcDbEntity
  8
LAY-1
  6
CONTINUOUS
 62
     7
100
AcDbLine
 10
1016.715922
 20
1729.536607
 30
0.0
 11
1097.715922
 21
1729.536607
 31
0.0
  0
LINE
  5
4A4
100
AcDbEntity
  8
LAY-1
  6
CONTINUOUS
 62
     7
100
AcDbLine
 10
1002.715922
 20
1643.442596
 30
0.0
 11
1042.715922
 21
1620.348585
 31
0.0
  0
LINE
  5
4A5
100
AcDbEntity
  8
LAY-1
  6
CONTINUOUS
 62
     7
100
AcDbLine
 10
1082.715922
 20
1689.630618
 30
0.0
 11
1042.715922
 21
1712.724628
 31
0.0
  0
LINE
  5
4A6
100
AcDbEntity
  8
LAY-1
  6
CONTINUOUS
 62
     7
100
AcDbLine
 10
1042.715922
 20
1712.724628
 30
0.0
 11
1002.715922
 21
1689.630618
 31
0.0
  0
LINE
  5
4A7
100
AcDbEntity
  8
LAY-1
  6
CONTINUOUS
 62
     7
100
AcDbLine
 10
1042.715922
 20
1620.348585
 30
0.0
 11
1082.715922
 21
1643.442596
 31
0.0
  0
LINE
  5
4A8
100
AcDbEntity
  8
LAY-1
  6
CONTINUOUS
 62
     7
100
AcDbLine
 10
1002.715922
 20
1689.630618
 30
0.0
 11
1002.715922
 21
1643.442596
 31
0.0
  0
LINE
  5
4A9
100
AcDbEntity
  8
LAY-1
  6
CONTINUOUS
 62
     7
100
AcDbLine
 10
1082.715922
 20
1643.442596
 30
0.0
 11
1082.715922
 21
1689.630618
 31
0.0
  0
CIRCLE
  5
4AA
100
AcDbEntity
  8
LAY-1
  6
CONTINUOUS
 62
     7
100
AcDbCircle
 10
1042.715922
 20
1666.536607
 30
0.0
 40
27.510917
  0
LINE
  5
4AB
100
AcDbEntity
  8
LAY-1
  6
CONTINUOUS
 62
     7
100
AcDbLine
 10
1068.345018
 20
1656.536607
 30
0.0
 11
1017.086826
 21
1656.536607
 31
0.0
  0
LINE
  5
4AC
100
AcDbEntity
  8
LAY-1
  6
EXLTYPE3
 62
     1
100
AcDbLine
 10
1130.415922
 20
1666.536607
 30
0.0
 11
961.015922
 21
1666.536607
 31
0.0
  0
LINE
  5
4AD
100
AcDbEntity
  8
LAY-1
  6
CONTINUOUS
 62
     7
100
AcDbLine
 10
291.831184
 20
1104.40846
 30
0.0
 11
291.831184
 21
1124.40846
 31
0.0
  0
LINE
  5
4AE
100
AcDbEntity
  8
LAY-1
  6
CONTINUOUS
 62
     7
100
AcDbLine
 10
281.831184
 20
1104.40846
 30
0.0
 11
291.831184
 21
1104.40846
 31
0.0
  0
LINE
  5
4AF
100
AcDbEntity
  8
LAY-1
  6
CONTINUOUS
 62
     7
100
AcDbLine
 10
301.702322
 20
1084.40846
 30
0.0
 11
281.831184
 21
1104.40846
 31
0.0
  0
LINE
  5
4B0
100
AcDbEntity
  8
LAY-1
  6
CONTINUOUS
 62
     7
100
AcDbLine
 10
321.831184
 20
1104.40846
 30
0.0
 11
301.702322
 21
1084.40846
 31
0.0
  0
LINE
  5
4B1
100
AcDbEntity
  8
LAY-1
  6
CONTINUOUS
 62
     7
100
AcDbLine
 10
311.831184
 20
1104.40846
 30
0.0
 11
321.831184
 21
1104.40846
 31
0.0
  0
LINE
  5
4B2
100
AcDbEntity
  8
LAY-1
  6
CONTINUOUS
 62
     7
100
AcDbLine
 10
311.831184
 20
1124.40846
 30
0.0
 11
311.831184
 21
1104.40846
 31
0.0
  0
LINE
  5
4B3
100
AcDbEntity
  8
LAY-1
  6
CONTINUOUS
 62
     7
100
AcDbLine
 10
291.831184
 20
1124.40846
 30
0.0
 11
311.831184
 21
1124.40846
 31
0.0
  0
POLYLINE
  5
4B4
100
AcDbEntity
  8
LAY-1
  6
CONTINUOUS
 62
     7
100
AcDb2dPolyline
 66
     1
 10
0.0
 20
0.0
 30
0.0
 70
   128
  0
VERTEX
  5
4B5
100
AcDbEntity
  8
LAY-1
  6
CONTINUOUS
 62
     7
100
AcDbVertex
100
AcDb2dVertex
 10
1069.197908
 20
1021.777198
 30
0.0
  0
VERTEX
  5
4B6
100
AcDbEntity
  8
LAY-1
  6
CONTINUOUS
 62
     7
100
AcDbVertex
100
AcDb2dVertex
 10
1069.197908
 20
1025.13745
 30
0.0
  0
VERTEX
  5
4B7
100
AcDbEntity
  8
LAY-1
  6
CONTINUOUS
 62
     7
100
AcDbVertex
100
AcDb2dVertex
 10
1065.837656
 20
1025.13745
 30
0.0
  0
VERTEX
  5
4B8
100
AcDbEntity
  8
LAY-1
  6
CONTINUOUS
 62
     7
100
AcDbVertex
100
AcDb2dVertex
 10
1065.837656
 20
1021.777198
 30
0.0
  0
VERTEX
  5
4B9
100
AcDbEntity
  8
LAY-1
  6
CONTINUOUS
 62
     7
100
AcDbVertex
100
AcDb2dVertex
 10
1069.197908
 20
1021.777198
 30
0.0
  0
SEQEND
  5
4BA
100
AcDbEntity
  8
LAY-1
  6
CONTINUOUS
 62
     7
  0
POLYLINE
  5
4BB
100
AcDbEntity
  8
LAY-1
  6
CONTINUOUS
 62
     7
100
AcDb2dPolyline
 66
     1
 10
0.0
 20
0.0
 30
0.0
 70
   128
  0
VERTEX
  5
4BC
100
AcDbEntity
  8
LAY-1
  6
CONTINUOUS
 62
     7
100
AcDbVertex
100
AcDb2dVertex
 10
1043.996018
 20
1025.13745
 30
0.0
  0
VERTEX
  5
4BD
100
AcDbEntity
  8
LAY-1
  6
CONTINUOUS
 62
     7
100
AcDbVertex
100
AcDb2dVertex
 10
1043.996018
 20
1021.777198
 30
0.0
  0
VERTEX
  5
4BE
100
AcDbEntity
  8
LAY-1
  6
CONTINUOUS
 62
     7
100
AcDbVertex
100
AcDb2dVertex
 10
1043.996018
 20
1025.13745
 30
0.0
  0
VERTEX
  5
4BF
100
AcDbEntity
  8
LAY-1
  6
CONTINUOUS
 62
     7
100
AcDbVertex
100
AcDb2dVertex
 10
1040.635766
 20
1025.13745
 30
0.0
  0
VERTEX
  5
4C0
100
AcDbEntity
  8
LAY-1
  6
CONTINUOUS
 62
     7
100
AcDbVertex
100
AcDb2dVertex
 10
1040.635766
 20
1021.777198
 30
0.0
  0
VERTEX
  5
4C1
100
AcDbEntity
  8
LAY-1
  6
CONTINUOUS
 62
     7
100
AcDbVertex
100
AcDb2dVertex
 10
1043.996018
 20
1021.777198
 30
0.0
  0
SEQEND
  5
4C2
100
AcDbEntity
  8
LAY-1
  6
CONTINUOUS
 62
     7
  0
POLYLINE
  5
4C3
100
AcDbEntity
  8
LAY-1
  6
CONTINUOUS
 62
     7
100
AcDb2dPolyline
 66
     1
 10
0.0
 20
0.0
 30
0.0
 70
   128
  0
VERTEX
  5
4C4
100
AcDbEntity
  8
LAY-1
  6
CONTINUOUS
 62
     7
100
AcDbVertex
100
AcDb2dVertex
 10
1026.774726
 20
1015.056694
 30
0.0
  0
VERTEX
  5
4C5
100
AcDbEntity
  8
LAY-1
  6
CONTINUOUS
 62
     7
100
AcDbVertex
100
AcDb2dVertex
 10
1026.774726
 20
1017.576883
 30
0.0
  0
VERTEX
  5
4C6
100
AcDbEntity
  8
LAY-1
  6
CONTINUOUS
 62
     7
100
AcDbVertex
100
AcDb2dVertex
 10
1030.134978
 20
1018.416946
 30
0.0
  0
VERTEX
  5
4C7
100
AcDbEntity
  8
LAY-1
  6
CONTINUOUS
 62
     7
100
AcDbVertex
100
AcDb2dVertex
 10
1030.134978
 20
1032.698017
 30
0.0
  0
VERTEX
  5
4C8
100
AcDbEntity
  8
LAY-1
  6
CONTINUOUS
 62
     7
100
AcDbVertex
100
AcDb2dVertex
 10
1026.774726
 20
1033.53808
 30
0.0
  0
VERTEX
  5
4C9
100
AcDbEntity
  8
LAY-1
  6
CONTINUOUS
 62
     7
100
AcDbVertex
100
AcDb2dVertex
 10
1026.774726
 20
1036.058269
 30
0.0
  0
VERTEX
  5
4CA
100
AcDbEntity
  8
LAY-1
  6
CONTINUOUS
 62
     7
100
AcDbVertex
100
AcDb2dVertex
 10
1036.855482
 20
1036.058269
 30
0.0
  0
VERTEX
  5
4CB
100
AcDbEntity
  8
LAY-1
  6
CONTINUOUS
 62
     7
100
AcDbVertex
100
AcDb2dVertex
 10
1036.855482
 20
1033.53808
 30
0.0
  0
VERTEX
  5
4CC
100
AcDbEntity
  8
LAY-1
  6
CONTINUOUS
 62
     7
100
AcDbVertex
100
AcDb2dVertex
 10
1033.49523
 20
1032.698017
 30
0.0
  0
VERTEX
  5
4CD
100
AcDbEntity
  8
LAY-1
  6
CONTINUOUS
 62
     7
100
AcDbVertex
100
AcDb2dVertex
 10
1033.49523
 20
1018.416946
 30
0.0
  0
VERTEX
  5
4CE
100
AcDbEntity
  8
LAY-1
  6
CONTINUOUS
 62
     7
100
AcDbVertex
100
AcDb2dVertex
 10
1036.855482
 20
1017.576883
 30
0.0
  0
VERTEX
  5
4CF
100
AcDbEntity
  8
LAY-1
  6
CONTINUOUS
 62
     7
100
AcDbVertex
100
AcDb2dVertex
 10
1036.855482
 20
1015.056694
 30
0.0
  0
VERTEX
  5
4D0
100
AcDbEntity
  8
LAY-1
  6
CONTINUOUS
 62
     7
100
AcDbVertex
100
AcDb2dVertex
 10
1026.774726
 20
1015.056694
 30
0.0
  0
SEQEND
  5
4D1
100
AcDbEntity
  8
LAY-1
  6
CONTINUOUS
 62
     7
  0
POLYLINE
  5
4D2
100
AcDbEntity
  8
LAY-1
  6
CONTINUOUS
 62
     7
100
AcDb2dPolyline
 66
     1
 10
0.0
 20
0.0
 30
0.0
 70
   128
  0
VERTEX
  5
4D3
100
AcDbEntity
  8
LAY-1
  6
CONTINUOUS
 62
     7
100
AcDbVertex
100
AcDb2dVertex
 10
1049.876459
 20
1017.576883
 30
0.0
  0
VERTEX
  5
4D4
100
AcDbEntity
  8
LAY-1
  6
CONTINUOUS
 62
     7
100
AcDbVertex
100
AcDb2dVertex
 10
1053.236711
 20
1018.416946
 30
0.0
  0
VERTEX
  5
4D5
100
AcDbEntity
  8
LAY-1
  6
CONTINUOUS
 62
     7
100
AcDbVertex
100
AcDb2dVertex
 10
1053.236711
 20
1032.698017
 30
0.0
  0
VERTEX
  5
4D6
100
AcDbEntity
  8
LAY-1
  6
CONTINUOUS
 62
     7
100
AcDbVertex
100
AcDb2dVertex
 10
1048.616364
 20
1032.698017
 30
0.0
  0
VERTEX
  5
4D7
100
AcDbEntity
  8
LAY-1
  6
CONTINUOUS
 62
     7
100
AcDbVertex
100
AcDb2dVertex
 10
1047.776301
 20
1028.077671
 30
0.0
  0
VERTEX
  5
4D8
100
AcDbEntity
  8
LAY-1
  6
CONTINUOUS
 62
     7
100
AcDbVertex
100
AcDb2dVertex
 10
1045.256112
 20
1028.077671
 30
0.0
  0
VERTEX
  5
4D9
100
AcDbEntity
  8
LAY-1
  6
CONTINUOUS
 62
     7
100
AcDbVertex
100
AcDb2dVertex
 10
1045.256112
 20
1036.058269
 30
0.0
  0
VERTEX
  5
4DA
100
AcDbEntity
  8
LAY-1
  6
CONTINUOUS
 62
     7
100
AcDbVertex
100
AcDb2dVertex
 10
1064.577561
 20
1036.058269
 30
0.0
  0
VERTEX
  5
4DB
100
AcDbEntity
  8
LAY-1
  6
CONTINUOUS
 62
     7
100
AcDbVertex
100
AcDb2dVertex
 10
1064.577561
 20
1028.077671
 30
0.0
  0
VERTEX
  5
4DC
100
AcDbEntity
  8
LAY-1
  6
CONTINUOUS
 62
     7
100
AcDbVertex
100
AcDb2dVertex
 10
1062.057372
 20
1028.077671
 30
0.0
  0
VERTEX
  5
4DD
100
AcDbEntity
  8
LAY-1
  6
CONTINUOUS
 62
     7
100
AcDbVertex
100
AcDb2dVertex
 10
1061.217309
 20
1032.698017
 30
0.0
  0
VERTEX
  5
4DE
100
AcDbEntity
  8
LAY-1
  6
CONTINUOUS
 62
     7
100
AcDbVertex
100
AcDb2dVertex
 10
1056.596963
 20
1032.698017
 30
0.0
  0
VERTEX
  5
4DF
100
AcDbEntity
  8
LAY-1
  6
CONTINUOUS
 62
     7
100
AcDbVertex
100
AcDb2dVertex
 10
1056.596963
 20
1018.416946
 30
0.0
  0
VERTEX
  5
4E0
100
AcDbEntity
  8
LAY-1
  6
CONTINUOUS
 62
     7
100
AcDbVertex
100
AcDb2dVertex
 10
1059.957215
 20
1017.576883
 30
0.0
  0
VERTEX
  5
4E1
100
AcDbEntity
  8
LAY-1
  6
CONTINUOUS
 62
     7
100
AcDbVertex
100
AcDb2dVertex
 10
1059.957215
 20
1015.056694
 30
0.0
  0
VERTEX
  5
4E2
100
AcDbEntity
  8
LAY-1
  6
CONTINUOUS
 62
     7
100
AcDbVertex
100
AcDb2dVertex
 10
1049.876459
 20
1015.056694
 30
0.0
  0
VERTEX
  5
4E3
100
AcDbEntity
  8
LAY-1
  6
CONTINUOUS
 62
     7
100
AcDbVertex
100
AcDb2dVertex
 10
1049.876459
 20
1017.576883
 30
0.0
  0
SEQEND
  5
4E4
100
AcDbEntity
  8
LAY-1
  6
CONTINUOUS
 62
     7
  0
ARC
  5
4E5
100
AcDbEntity
  8
LAY-1
  6
CONTINUOUS
 62
     7
100
AcDbCircle
 10
1082.218884
 20
1023.877356
 30
0.0
 40
9.240693
100
AcDbArc
 50
210.0
 51
330.0
  0
ARC
  5
4E6
100
AcDbEntity
  8
LAY-1
  6
CONTINUOUS
 62
     7
100
AcDbCircle
 10
1085.128948
 20
1025.557482
 30
0.0
 40
12.600945
100
AcDbArc
 50
150.0
 51
210.0
  0
ARC
  5
4E7
100
AcDbEntity
  8
LAY-1
  6
CONTINUOUS
 62
     7
100
AcDbCircle
 10
1082.218884
 20
1027.237608
 30
0.0
 40
9.240693
100
AcDbArc
 50
30.0
 51
150.0
  0
ARC
  5
4E8
100
AcDbEntity
  8
LAY-1
  6
CONTINUOUS
 62
     7
100
AcDbCircle
 10
1079.308821
 20
1025.557482
 30
0.0
 40
12.600945
100
AcDbArc
 50
330.0
 51
30.0
  0
ARC
  5
4E9
100
AcDbEntity
  8
LAY-1
  6
CONTINUOUS
 62
     7
100
AcDbCircle
 10
1082.218884
 20
1023.877356
 30
0.0
 40
5.880441
100
AcDbArc
 50
210.0
 51
330.0
  0
ARC
  5
4EA
100
AcDbEntity
  8
LAY-1
  6
CONTINUOUS
 62
     7
100
AcDbCircle
 10
1085.128948
 20
1025.557482
 30
0.0
 40
9.240693
100
AcDbArc
 50
150.0
 51
210.0
  0
ARC
  5
4EB
100
AcDbEntity
  8
LAY-1
  6
CONTINUOUS
 62
     7
100
AcDbCircle
 10
1082.218884
 20
1027.237608
 30
0.0
 40
5.880441
100
AcDbArc
 50
30.0
 51
150.0
  0
ARC
  5
4EC
100
AcDbEntity
  8
LAY-1
  6
CONTINUOUS
 62
     7
100
AcDbCircle
 10
1079.308821
 20
1025.557482
 30
0.0
 40
9.240693
100
AcDbArc
 50
330.0
 51
30.0
  0
POLYLINE
  5
4ED
100
AcDbEntity
  8
LAY-1
  6
CONTINUOUS
 62
     7
100
AcDb2dPolyline
 66
     1
 10
0.0
 20
0.0
 30
0.0
 70
   128
  0
VERTEX
  5
4EE
100
AcDbEntity
  8
LAY-1
  6
CONTINUOUS
 62
     7
100
AcDbVertex
100
AcDb2dVertex
 10
1002.589363
 20
1029.653057
 30
0.0
  0
VERTEX
  5
4EF
100
AcDbEntity
  8
LAY-1
  6
CONTINUOUS
 62
     7
100
AcDbVertex
100
AcDb2dVertex
 10
1015.058669
 20
1029.653057
 30
0.0
  0
SEQEND
  5
4F0
100
AcDbEntity
  8
LAY-1
  6
CONTINUOUS
 62
     7
  0
ARC
  5
4F1
100
AcDbEntity
  8
LAY-1
  6
CONTINUOUS
 62
     7
100
AcDbCircle
 10
1006.123177
 20
1025.557482
 30
0.0
 40
9.829382
100
AcDbArc
 50
24.624318
 51
111.070443
  0
POLYLINE
  5
4F2
100
AcDbEntity
  8
LAY-1
  6
CONTINUOUS
 62
     7
100
AcDb2dPolyline
 66
     1
 10
0.0
 20
0.0
 30
0.0
 70
   128
  0
VERTEX
  5
4F3
100
AcDbEntity
  8
LAY-1
  6
CONTINUOUS
 62
     7
100
AcDbVertex
100
AcDb2dVertex
 10
1002.589363
 20
1034.729662
 30
0.0
  0
VERTEX
  5
4F4
100
AcDbEntity
  8
LAY-1
  6
CONTINUOUS
 62
     7
100
AcDbVertex
100
AcDb2dVertex
 10
1002.589363
 20
1029.651266
 30
0.0
  0
SEQEND
  5
4F5
100
AcDbEntity
  8
LAY-1
  6
CONTINUOUS
 62
     7
  0
ARC
  5
4F6
100
AcDbEntity
  8
LAY-1
  6
CONTINUOUS
 62
     7
100
AcDbCircle
 10
1006.123177
 20
1020.369752
 30
0.0
 40
16.382303
100
AcDbArc
 50
114.563992
 51
124.301153
  0
ARC
  5
4F7
100
AcDbEntity
  8
LAY-1
  6
CONTINUOUS
 62
     7
100
AcDbCircle
 10
1002.584196
 20
1025.557482
 30
0.0
 40
10.10242
100
AcDbArc
 50
124.301153
 51
235.698847
  0
ARC
  5
4F8
100
AcDbEntity
  8
LAY-1
  6
CONTINUOUS
 62
     7
100
AcDbCircle
 10
1006.123177
 20
1030.745211
 30
0.0
 40
16.382303
100
AcDbArc
 50
235.698847
 51
277.662256
  0
POLYLINE
  5
4F9
100
AcDbEntity
  8
LAY-1
  6
CONTINUOUS
 62
     7
100
AcDb2dPolyline
 66
     1
 10
0.0
 20
0.0
 30
0.0
 70
   128
  0
VERTEX
  5
4FA
100
AcDbEntity
  8
LAY-1
  6
CONTINUOUS
 62
     7
100
AcDbVertex
100
AcDb2dVertex
 10
1008.307485
 20
1014.509182
 30
0.0
  0
VERTEX
  5
4FB
100
AcDbEntity
  8
LAY-1
  6
CONTINUOUS
 62
     7
100
AcDbVertex
100
AcDb2dVertex
 10
1008.307485
 20
1014.360011
 30
0.0
  0
SEQEND
  5
4FC
100
AcDbEntity
  8
LAY-1
  6
CONTINUOUS
 62
     7
  0
ARC
  5
4FD
100
AcDbEntity
  8
LAY-1
  6
CONTINUOUS
 62
     7
100
AcDbCircle
 10
1006.942293
 20
1014.360011
 30
0.0
 40
1.365192
100
AcDbArc
 50
294.619977
 51
0.0
  0
ARC
  5
4FE
100
AcDbEntity
  8
LAY-1
  6
CONTINUOUS
 62
     7
100
AcDbCircle
 10
1005.691074
 20
1017.090395
 30
0.0
 40
4.368614
100
AcDbArc
 50
272.086657
 51
294.619977
  0
POLYLINE
  5
4FF
100
AcDbEntity
  8
LAY-1
  6
CONTINUOUS
 62
     7
100
AcDb2dPolyline
 66
     1
 10
0.0
 20
0.0
 30
0.0
 70
   128
  0
VERTEX
  5
500
100
AcDbEntity
  8
LAY-1
  6
CONTINUOUS
 62
     7
100
AcDbVertex
100
AcDb2dVertex
 10
1005.850139
 20
1012.724678
 30
0.0
  0
VERTEX
  5
501
100
AcDbEntity
  8
LAY-1
  6
CONTINUOUS
 62
     7
100
AcDbVertex
100
AcDb2dVertex
 10
1005.850139
 20
1011.905563
 30
0.0
  0
VERTEX
  5
502
100
AcDbEntity
  8
LAY-1
  6
CONTINUOUS
 62
     7
100
AcDbVertex
100
AcDb2dVertex
 10
1014.04129
 20
1011.905563
 30
0.0
  0
VERTEX
  5
503
100
AcDbEntity
  8
LAY-1
  6
CONTINUOUS
 62
     7
100
AcDbVertex
100
AcDb2dVertex
 10
1014.04129
 20
1012.724678
 30
0.0
  0
SEQEND
  5
504
100
AcDbEntity
  8
LAY-1
  6
CONTINUOUS
 62
     7
  0
ARC
  5
505
100
AcDbEntity
  8
LAY-1
  6
CONTINUOUS
 62
     7
100
AcDbCircle
 10
1014.200356
 20
1017.090395
 30
0.0
 40
4.368614
100
AcDbArc
 50
245.380023
 51
267.913343
  0
ARC
  5
506
100
AcDbEntity
  8
LAY-1
  6
CONTINUOUS
 62
     7
100
AcDbCircle
 10
1012.949137
 20
1014.360011
 30
0.0
 40
1.365192
100
AcDbArc
 50
180.0
 51
245.380023
  0
POLYLINE
  5
507
100
AcDbEntity
  8
LAY-1
  6
CONTINUOUS
 62
     7
100
AcDb2dPolyline
 66
     1
 10
0.0
 20
0.0
 30
0.0
 70
   128
  0
VERTEX
  5
508
100
AcDbEntity
  8
LAY-1
  6
CONTINUOUS
 62
     7
100
AcDbVertex
100
AcDb2dVertex
 10
1011.583945
 20
1014.360011
 30
0.0
  0
VERTEX
  5
509
100
AcDbEntity
  8
LAY-1
  6
CONTINUOUS
 62
     7
100
AcDbVertex
100
AcDb2dVertex
 10
1011.583945
 20
1015.299828
 30
0.0
  0
SEQEND
  5
50A
100
AcDbEntity
  8
LAY-1
  6
CONTINUOUS
 62
     7
  0
ARC
  5
50B
100
AcDbEntity
  8
LAY-1
  6
CONTINUOUS
 62
     7
100
AcDbCircle
 10
1006.123177
 20
1030.745211
 30
0.0
 40
16.382303
100
AcDbArc
 50
289.471221
 51
304.301153
  0
ARC
  5
50C
100
AcDbEntity
  8
LAY-1
  6
CONTINUOUS
 62
     7
100
AcDbCircle
 10
1009.662159
 20
1025.557482
 30
0.0
 40
10.10242
100
AcDbArc
 50
304.301153
 51
55.698847
  0
ARC
  5
50D
100
AcDbEntity
  8
LAY-1
  6
CONTINUOUS
 62
     7
100
AcDbCircle
 10
1006.123177
 20
1020.369752
 30
0.0
 40
16.382303
100
AcDbArc
 50
55.698847
 51
102.457143
  0
POLYLINE
  5
50E
100
AcDbEntity
  8
LAY-1
  6
CONTINUOUS
 62
     7
100
AcDb2dPolyline
 66
     1
 10
0.0
 20
0.0
 30
0.0
 70
   128
  0
VERTEX
  5
50F
100
AcDbEntity
  8
LAY-1
  6
CONTINUOUS
 62
     7
100
AcDbVertex
100
AcDb2dVertex
 10
1002.589363
 20
1036.366377
 30
0.0
  0
VERTEX
  5
510
100
AcDbEntity
  8
LAY-1
  6
CONTINUOUS
 62
     7
100
AcDbVertex
100
AcDb2dVertex
 10
1002.589363
 20
1036.753161
 30
0.0
  0
SEQEND
  5
511
100
AcDbEntity
  8
LAY-1
  6
CONTINUOUS
 62
     7
  0
ARC
  5
512
100
AcDbEntity
  8
LAY-1
  6
CONTINUOUS
 62
     7
100
AcDbCircle
 10
1003.954555
 20
1036.753161
 30
0.0
 40
1.365192
100
AcDbArc
 50
114.619977
 51
180.0
  0
ARC
  5
513
100
AcDbEntity
  8
LAY-1
  6
CONTINUOUS
 62
     7
100
AcDbCircle
 10
1005.205774
 20
1034.022777
 30
0.0
 40
4.368614
100
AcDbArc
 50
92.086657
 51
114.619977
  0
POLYLINE
  5
514
100
AcDbEntity
  8
LAY-1
  6
CONTINUOUS
 62
     7
100
AcDb2dPolyline
 66
     1
 10
0.0
 20
0.0
 30
0.0
 70
   128
  0
VERTEX
  5
515
100
AcDbEntity
  8
LAY-1
  6
CONTINUOUS
 62
     7
100
AcDbVertex
100
AcDb2dVertex
 10
1005.046708
 20
1038.388495
 30
0.0
  0
VERTEX
  5
516
100
AcDbEntity
  8
LAY-1
  6
CONTINUOUS
 62
     7
100
AcDbVertex
100
AcDb2dVertex
 10
1005.046708
 20
1039.20761
 30
0.0
  0
VERTEX
  5
517
100
AcDbEntity
  8
LAY-1
  6
CONTINUOUS
 62
     7
100
AcDbVertex
100
AcDb2dVertex
 10
996.855557
 20
1039.20761
 30
0.0
  0
VERTEX
  5
518
100
AcDbEntity
  8
LAY-1
  6
CONTINUOUS
 62
     7
100
AcDbVertex
100
AcDb2dVertex
 10
996.855557
 20
1038.388495
 30
0.0
  0
SEQEND
  5
519
100
AcDbEntity
  8
LAY-1
  6
CONTINUOUS
 62
     7
  0
ARC
  5
51A
100
AcDbEntity
  8
LAY-1
  6
CONTINUOUS
 62
     7
100
AcDbCircle
 10
996.696491
 20
1034.022777
 30
0.0
 40
4.368614
100
AcDbArc
 50
65.380023
 51
87.913343
  0
ARC
  5
51B
100
AcDbEntity
  8
LAY-1
  6
CONTINUOUS
 62
     7
100
AcDbCircle
 10
997.94771
 20
1036.753161
 30
0.0
 40
1.365192
100
AcDbArc
 50
0.0
 51
65.380023
  0
POLYLINE
  5
51C
100
AcDbEntity
  8
LAY-1
  6
CONTINUOUS
 62
     7
100
AcDb2dPolyline
 66
     1
 10
0.0
 20
0.0
 30
0.0
 70
   128
  0
VERTEX
  5
51D
100
AcDbEntity
  8
LAY-1
  6
CONTINUOUS
 62
     7
100
AcDbVertex
100
AcDb2dVertex
 10
999.312902
 20
1036.753161
 30
0.0
  0
VERTEX
  5
51E
100
AcDbEntity
  8
LAY-1
  6
CONTINUOUS
 62
     7
100
AcDbVertex
100
AcDb2dVertex
 10
999.312902
 20
1035.269417
 30
0.0
  0
SEQEND
  5
51F
100
AcDbEntity
  8
LAY-1
  6
CONTINUOUS
 62
     7
  0
ARC
  5
520
100
AcDbEntity
  8
LAY-1
  6
CONTINUOUS
 62
     7
100
AcDbCircle
 10
997.94771
 20
1023.91746
 30
0.0
 40
1.365192
100
AcDbArc
 50
294.619977
 51
0.0
  0
POLYLINE
  5
521
100
AcDbEntity
  8
LAY-1
  6
CONTINUOUS
 62
     7
100
AcDb2dPolyline
 66
     1
 10
0.0
 20
0.0
 30
0.0
 70
   128
  0
VERTEX
  5
522
100
AcDbEntity
  8
LAY-1
  6
CONTINUOUS
 62
     7
100
AcDbVertex
100
AcDb2dVertex
 10
999.312902
 20
1023.91746
 30
0.0
  0
VERTEX
  5
523
100
AcDbEntity
  8
LAY-1
  6
CONTINUOUS
 62
     7
100
AcDbVertex
100
AcDb2dVertex
 10
999.312902
 20
1032.645281
 30
0.0
  0
SEQEND
  5
524
100
AcDbEntity
  8
LAY-1
  6
CONTINUOUS
 62
     7
  0
ARC
  5
525
100
AcDbEntity
  8
LAY-1
  6
CONTINUOUS
 62
     7
100
AcDbCircle
 10
1006.123177
 20
1025.557482
 30
0.0
 40
9.829382
100
AcDbArc
 50
133.856042
 51
199.464384
  0
ARC
  5
526
100
AcDbEntity
  8
LAY-1
  6
CONTINUOUS
 62
     7
100
AcDbCircle
 10
996.696491
 20
1026.647844
 30
0.0
 40
4.368614
100
AcDbArc
 50
272.086657
 51
294.619977
  0
POLYLINE
  5
527
100
AcDbEntity
  8
LAY-1
  6
CONTINUOUS
 62
     7
100
AcDb2dPolyline
 66
     1
 10
0.0
 20
0.0
 30
0.0
 70
   128
  0
VERTEX
  5
528
100
AcDbEntity
  8
LAY-1
  6
CONTINUOUS
 62
     7
100
AcDbVertex
100
AcDb2dVertex
 10
1011.583945
 20
1028.287865
 30
0.0
  0
VERTEX
  5
529
100
AcDbEntity
  8
LAY-1
  6
CONTINUOUS
 62
     7
100
AcDbVertex
100
AcDb2dVertex
 10
1011.583945
 20
1017.384553
 30
0.0
  0
SEQEND
  5
52A
100
AcDbEntity
  8
LAY-1
  6
CONTINUOUS
 62
     7
  0
ARC
  5
52B
100
AcDbEntity
  8
LAY-1
  6
CONTINUOUS
 62
     7
100
AcDbCircle
 10
1006.123177
 20
1025.557482
 30
0.0
 40
9.829382
100
AcDbArc
 50
303.748989
 51
9.281799
  0
ARC
  5
52C
100
AcDbEntity
  8
LAY-1
  6
CONTINUOUS
 62
     7
100
AcDbCircle
 10
1014.476546
 20
1026.922674
 30
0.0
 40
1.365192
100
AcDbArc
 50
9.281799
 51
90.0
  0
POLYLINE
  5
52D
100
AcDbEntity
  8
LAY-1
  6
CONTINUOUS
 62
     7
100
AcDb2dPolyline
 66
     1
 10
0.0
 20
0.0
 30
0.0
 70
   128
  0
VERTEX
  5
52E
100
AcDbEntity
  8
LAY-1
  6
CONTINUOUS
 62
     7
100
AcDbVertex
100
AcDb2dVertex
 10
1014.476546
 20
1028.287865
 30
0.0
  0
VERTEX
  5
52F
100
AcDbEntity
  8
LAY-1
  6
CONTINUOUS
 62
     7
100
AcDbVertex
100
AcDb2dVertex
 10
1011.583945
 20
1028.287865
 30
0.0
  0
SEQEND
  5
530
100
AcDbEntity
  8
LAY-1
  6
CONTINUOUS
 62
     7
  0
POLYLINE
  5
531
100
AcDbEntity
  8
LAY-1
  6
CONTINUOUS
 62
     7
100
AcDb2dPolyline
 66
     1
 10
0.0
 20
0.0
 30
0.0
 70
   128
  0
VERTEX
  5
532
100
AcDbEntity
  8
LAY-1
  6
CONTINUOUS
 62
     7
100
AcDbVertex
100
AcDb2dVertex
 10
1002.589363
 20
1025.601649
 30
0.0
  0
VERTEX
  5
533
100
AcDbEntity
  8
LAY-1
  6
CONTINUOUS
 62
     7
100
AcDbVertex
100
AcDb2dVertex
 10
1002.589363
 20
1023.914564
 30
0.0
  0
SEQEND
  5
534
100
AcDbEntity
  8
LAY-1
  6
CONTINUOUS
 62
     7
  0
ARC
  5
535
100
AcDbEntity
  8
LAY-1
  6
CONTINUOUS
 62
     7
100
AcDbCircle
 10
1003.954555
 20
1023.914564
 30
0.0
 40
1.365192
100
AcDbArc
 50
180.0
 51
245.380023
  0
ARC
  5
536
100
AcDbEntity
  8
LAY-1
  6
CONTINUOUS
 62
     7
100
AcDbCircle
 10
1005.205774
 20
1026.644947
 30
0.0
 40
4.368614
100
AcDbArc
 50
245.380023
 51
267.913343
  0
POLYLINE
  5
537
100
AcDbEntity
  8
LAY-1
  6
CONTINUOUS
 62
     7
100
AcDb2dPolyline
 66
     1
 10
0.0
 20
0.0
 30
0.0
 70
   128
  0
VERTEX
  5
538
100
AcDbEntity
  8
LAY-1
  6
CONTINUOUS
 62
     7
100
AcDbVertex
100
AcDb2dVertex
 10
1005.046708
 20
1022.27923
 30
0.0
  0
VERTEX
  5
539
100
AcDbEntity
  8
LAY-1
  6
CONTINUOUS
 62
     7
100
AcDbVertex
100
AcDb2dVertex
 10
1005.046708
 20
1021.460115
 30
0.0
  0
VERTEX
  5
53A
100
AcDbEntity
  8
LAY-1
  6
CONTINUOUS
 62
     7
100
AcDbVertex
100
AcDb2dVertex
 10
997.188507
 20
1021.460115
 30
0.0
  0
SEQEND
  5
53B
100
AcDbEntity
  8
LAY-1
  6
CONTINUOUS
 62
     7
  0
ARC
  5
53C
100
AcDbEntity
  8
LAY-1
  6
CONTINUOUS
 62
     7
100
AcDbCircle
 10
1006.123177
 20
1025.557482
 30
0.0
 40
9.829382
100
AcDbArc
 50
204.635803
 51
282.839588
  0
POLYLINE
  5
53D
100
AcDbEntity
  8
LAY-1
  6
CONTINUOUS
 62
     7
100
AcDb2dPolyline
 66
     1
 10
0.0
 20
0.0
 30
0.0
 70
   128
  0
VERTEX
  5
53E
100
AcDbEntity
  8
LAY-1
  6
CONTINUOUS
 62
     7
100
AcDbVertex
100
AcDb2dVertex
 10
1008.307485
 20
1015.973873
 30
0.0
  0
VERTEX
  5
53F
100
AcDbEntity
  8
LAY-1
  6
CONTINUOUS
 62
     7
100
AcDbVertex
100
AcDb2dVertex
 10
1008.307485
 20
1028.287865
 30
0.0
  0
VERTEX
  5
540
100
AcDbEntity
  8
LAY-1
  6
CONTINUOUS
 62
     7
100
AcDbVertex
100
AcDb2dVertex
 10
1004.227394
 20
1028.287865
 30
0.0
  0
SEQEND
  5
541
100
AcDbEntity
  8
LAY-1
  6
CONTINUOUS
 62
     7
  0
ARC
  5
542
100
AcDbEntity
  8
LAY-1
  6
CONTINUOUS
 62
     7
100
AcDbCircle
 10
1004.227394
 20
1026.922674
 30
0.0
 40
1.365192
100
AcDbArc
 50
90.0
 51
157.380135
  0
ARC
  5
543
100
AcDbEntity
  8
LAY-1
  6
CONTINUOUS
 62
     7
100
AcDbCircle
 10
1007.503855
 20
1025.557482
 30
0.0
 40
4.914691
100
AcDbArc
 50
157.380135
 51
180.514911
  0
LINE
  5
544
100
AcDbEntity
  8
LAY-1
  6
CONTINUOUS
 62
     7
100
AcDbLine
 10
842.715922
 20
1524.076607
 30
0.0
 11
842.715922
 21
1544.576607
 31
0.0
  0
LINE
  5
545
100
AcDbEntity
  8
LAY-1
  6
CONTINUOUS
 62
     1
100
AcDbLine
 10
987.370076
 20
1294.969885
 30
0.0
 11
987.370075
 21
1301.23073
 31
0.0
  0
LINE
  5
546
100
AcDbEntity
  8
LAY-1
  6
CONTINUOUS
 62
     1
100
AcDbLine
 10
1098.061765
 20
1294.9699
 30
0.0
 11
1098.061765
 21
1301.230745
 31
0.0
  0
LINE
  5
547
100
AcDbEntity
  8
LAY-1
  6
EXLTYPE4
 62
     1
100
AcDbLine
 10
1185.715895
 20
1487.076602
 30
0.0
 11
1185.715894
 21
1488.576602
 31
0.0
  0
LINE
  5
548
100
AcDbEntity
  8
LAY-1
  6
CONTINUOUS
 62
     1
100
AcDbLine
 10
1229.715894
 20
1488.576607
 30
0.0
 11
1185.715894
 21
1488.576607
 31
0.0
  0
LINE
  5
549
100
AcDbEntity
  8
LAY-1
  6
CONTINUOUS
 62
     1
100
AcDbLine
 10
1229.715895
 20
1487.076607
 30
0.0
 11
1229.715895
 21
1488.576607
 31
0.0
  0
LINE
  5
54A
100
AcDbEntity
  8
LAY-1
  6
EXLTYPE4
 62
     1
100
AcDbLine
 10
1233.854471
 20
1521.181307
 30
0.0
 11
1232.730917
 21
1489.006809
 31
0.0
  0
LINE
  5
54B
100
AcDbEntity
  8
LAY-1
  6
EXLTYPE4
 62
     1
100
AcDbLine
 10
1233.854471
 20
1521.181307
 30
0.0
 11
1232.730917
 21
1489.006809
 31
0.0
  0
LINE
  5
54C
100
AcDbEntity
  8
LAY-1
  6
CONTINUOUS
 62
     7
100
AcDbLine
 10
1242.715885
 20
1524.076606
 30
0.0
 11
1236.817717
 21
1524.076606
 31
0.0
  0
LINE
  5
54D
100
AcDbEntity
  8
LAY-1
  6
CONTINUOUS
 62
     7
100
AcDbLine
 10
1242.71589
 20
1524.076609
 30
0.0
 11
1234.817722
 21
1524.076608
 31
0.0
  0
LINE
  5
54E
100
AcDbEntity
  8
LAY-1
  6
CONTINUOUS
 62
     7
100
AcDbLine
 10
1236.852643
 20
1524.076608
 30
0.0
 11
1242.71589
 21
1524.076609
 31
0.0
  0
LINE
  5
54F
100
AcDbEntity
  8
LAY-1
  6
CONTINUOUS
 62
     7
100
AcDbLine
 10
1225.080135
 20
1524.076607
 30
0.0
 11
1236.852643
 21
1524.076608
 31
0.0
  0
LINE
  5
550
100
AcDbEntity
  8
LAY-1
  6
CONTINUOUS
 62
     7
100
AcDbLine
 10
1242.71589
 20
1524.076609
 30
0.0
 11
1234.817722
 21
1524.076608
 31
0.0
  0
LINE
  5
551
100
AcDbEntity
  8
LAY-1
  6
CONTINUOUS
 62
     7
100
AcDbLine
 10
1092.715919
 20
1301.576589
 30
0.0
 11
1096.71592
 21
1301.576589
 31
0.0
  0
LINE
  5
552
100
AcDbEntity
  8
LAY-1
  6
CONTINUOUS
 62
     7
100
AcDbLine
 10
1096.71592
 20
1301.576589
 30
0.0
 11
1092.71592
 21
1301.576589
 31
0.0
  0
ARC
  5
553
100
AcDbEntity
  8
LAY-1
  6
CONTINUOUS
 62
     7
100
AcDbCircle
 10
989.71592
 20
1296.839915
 30
0.0
 40
3.0
100
AcDbArc
 50
180.000008
 51
254.393124
  0
ARC
  5
554
100
AcDbEntity
  8
LAY-1
  6
CONTINUOUS
 62
     7
100
AcDbCircle
 10
1042.715895
 20
1486.576582
 30
0.0
 40
200.0
100
AcDbArc
 50
254.393124
 51
270.000008
  0
ARC
  5
555
100
AcDbEntity
  8
LAY-1
  6
CONTINUOUS
 62
     7
100
AcDbCircle
 10
1042.715895
 20
1486.576582
 30
0.0
 40
200.0
100
AcDbArc
 50
270.000008
 51
285.606891
  0
LINE
  5
556
100
AcDbEntity
  8
LAY-1
  6
CONTINUOUS
 62
     7
100
AcDbLine
 10
986.71592
 20
1300.576575
 30
0.0
 11
986.71592
 21
1296.704896
 31
0.0
  0
LINE
  5
557
100
AcDbEntity
  8
LAY-1
  6
CONTINUOUS
 62
     7
100
AcDbLine
 10
986.71592
 20
1300.576575
 30
0.0
 11
987.71592
 21
1301.576575
 31
0.0
  0
ARC
  5
558
100
AcDbEntity
  8
LAY-1
  6
CONTINUOUS
 62
     7
100
AcDbCircle
 10
1095.71592
 20
1296.83993
 30
0.0
 40
3.0
100
AcDbArc
 50
285.606891
 51
0.000008
  0
LINE
  5
559
100
AcDbEntity
  8
LAY-1
  6
CONTINUOUS
 62
     7
100
AcDbLine
 10
1098.71592
 20
1300.57659
 30
0.0
 11
1098.71592
 21
1296.704911
 31
0.0
  0
LINE
  5
55A
100
AcDbEntity
  8
LAY-1
  6
CONTINUOUS
 62
     7
100
AcDbLine
 10
1098.71592
 20
1300.57659
 30
0.0
 11
1097.71592
 21
1301.57659
 31
0.0
  0
LINE
  5
55B
100
AcDbEntity
  8
LAY-1
  6
CONTINUOUS
 62
     7
100
AcDbLine
 10
987.71592
 20
1301.576575
 30
0.0
 11
992.71592
 21
1301.576575
 31
0.0
  0
LINE
  5
55C
100
AcDbEntity
  8
LAY-1
  6
CONTINUOUS
 62
     7
100
AcDbLine
 10
1097.71592
 20
1301.57659
 30
0.0
 11
1092.71592
 21
1301.576589
 31
0.0
  0
ARC
  5
55D
100
AcDbEntity
  8
LAY-1
  6
CONTINUOUS
 62
     7
100
AcDbCircle
 10
942.709452
 20
1444.2443
 30
0.0
 40
40.0
100
AcDbArc
 50
34.516001
 51
78.023875
  0
ARC
  5
55E
100
AcDbEntity
  8
LAY-1
  6
CONTINUOUS
 62
     7
100
AcDbCircle
 10
942.709452
 20
1444.2443
 30
0.0
 40
40.0
100
AcDbArc
 50
2.000008
 51
34.516001
  0
LINE
  5
55F
100
AcDbEntity
  8
LAY-1
  6
CONTINUOUS
 62
     7
100
AcDbLine
 10
987.69847
 20
1302.07627
 30
0.0
 11
982.685085
 21
1445.640285
 31
0.0
  0
LINE
  5
560
100
AcDbEntity
  8
LAY-1
  6
CONTINUOUS
 62
     7
100
AcDbLine
 10
1097.733369
 20
1302.076285
 30
0.0
 11
1102.746716
 21
1445.640301
 31
0.0
  0
ARC
  5
561
100
AcDbEntity
  8
LAY-1
  6
CONTINUOUS
 62
     7
100
AcDbCircle
 10
1142.722349
 20
1444.244327
 30
0.0
 40
40.0
100
AcDbArc
 50
102.873571
 51
178.000008
  0
LINE
  5
562
100
AcDbEntity
  8
LAY-1
  6
CONTINUOUS
 62
     7
100
AcDbLine
 10
1133.188835
 20
1483.112073
 30
0.0
 11
1151.264476
 21
1486.946302
 31
0.0
  0
ARC
  5
563
100
AcDbEntity
  8
LAY-1
  6
CONTINUOUS
 62
     7
100
AcDbCircle
 10
1172.01491
 20
1389.122893
 30
0.0
 40
100.0
100
AcDbArc
 50
90.000008
 51
101.97614
  0
LINE
  5
564
100
AcDbEntity
  8
LAY-1
  6
CONTINUOUS
 62
     7
100
AcDbLine
 10
1172.014896
 20
1489.122893
 30
0.0
 11
1181.215894
 21
1489.122894
 31
0.0
  0
ARC
  5
565
100
AcDbEntity
  8
LAY-1
  6
CONTINUOUS
 62
     7
100
AcDbCircle
 10
1181.215889
 20
1531.122894
 30
0.0
 40
42.0
100
AcDbArc
 50
270.000008
 51
313.311583
  0
LINE
  5
566
100
AcDbEntity
  8
LAY-1
  6
CONTINUOUS
 62
     7
100
AcDbLine
 10
1236.852643
 20
1524.076608
 30
0.0
 11
1242.71589
 21
1524.076609
 31
0.0
  0
LINE
  5
567
100
AcDbEntity
  8
LAY-1
  6
CONTINUOUS
 62
     7
100
AcDbLine
 10
1097.733369
 20
1302.076285
 30
0.0
 11
1097.21592
 21
1301.57659
 31
0.0
  0
LINE
  5
568
100
AcDbEntity
  8
LAY-1
  6
CONTINUOUS
 62
     7
100
AcDbLine
 10
987.69847
 20
1302.07627
 30
0.0
 11
988.21592
 21
1301.576575
 31
0.0
  0
LINE
  5
569
100
AcDbEntity
  8
LAY-1
  6
CONTINUOUS
 62
     7
100
AcDbLine
 10
1225.080135
 20
1524.076607
 30
0.0
 11
1236.852643
 21
1524.076608
 31
0.0
  0
LINE
  5
56A
100
AcDbEntity
  8
LAY-1
  6
CONTINUOUS
 62
     7
100
AcDbLine
 10
992.71592
 20
1301.576575
 30
0.0
 11
1092.71592
 21
1301.576575
 31
0.0
  0
LINE
  5
56B
100
AcDbEntity
  8
LAY-1
  6
CONTINUOUS
 62
     7
100
AcDbLine
 10
951.009615
 20
1483.373666
 30
0.0
 11
934.167313
 21
1486.946273
 31
0.0
  0
ARC
  5
56C
100
AcDbEntity
  8
LAY-1
  6
CONTINUOUS
 62
     7
100
AcDbCircle
 10
913.416906
 20
1389.122858
 30
0.0
 40
100.0
100
AcDbArc
 50
78.023875
 51
90.000008
  0
LINE
  5
56D
100
AcDbEntity
  8
LAY-1
  6
CONTINUOUS
 62
     7
100
AcDbLine
 10
904.215894
 20
1489.122856
 30
0.0
 11
913.416892
 21
1489.122858
 31
0.0
  0
ARC
  5
56E
100
AcDbEntity
  8
LAY-1
  6
CONTINUOUS
 62
     7
100
AcDbCircle
 10
1181.215889
 20
1531.122894
 30
0.0
 40
42.0
100
AcDbArc
 50
292.659269
 51
313.311583
  0
ARC
  5
56F
100
AcDbEntity
  8
LAY-1
  6
CONTINUOUS
 62
     7
100
AcDbCircle
 10
1181.215889
 20
1531.122894
 30
0.0
 40
42.0
100
AcDbArc
 50
273.701987
 51
293.57269
  0
LINE
  5
570
100
AcDbEntity
  8
LAY-1
  6
CONTINUOUS
 62
     7
100
AcDbLine
 10
1236.817717
 20
1524.076606
 30
0.0
 11
1225.080135
 21
1524.076606
 31
0.0
  0
LINE
  5
571
100
AcDbEntity
  8
LAY-1
  6
CONTINUOUS
 62
     7
100
AcDbLine
 10
1231.253508
 20
1524.076607
 30
0.0
 11
854.178336
 21
1524.076607
 31
0.0
  0
ARC
  5
572
100
AcDbEntity
  8
LAY-1
  6
CONTINUOUS
 62
     7
100
AcDbCircle
 10
1181.215889
 20
1531.122894
 30
0.0
 40
42.0
100
AcDbArc
 50
313.311583
 51
333.795303
  0
ARC
  5
573
100
AcDbEntity
  8
LAY-1
  6
CONTINUOUS
 62
     7
100
AcDbCircle
 10
843.002539
 20
1526.084771
 30
0.0
 40
2.0
100
AcDbArc
 50
261.759727
 51
270.000008
  0
LINE
  5
574
100
AcDbEntity
  8
LAY-1
  6
CONTINUOUS
 62
     7
100
AcDbLine
 10
842.71589
 20
1524.076555
 30
0.0
 11
860.351644
 21
1524.076557
 31
0.0
  0
LINE
  5
575
100
AcDbEntity
  8
LAY-1
  6
CONTINUOUS
 62
     7
100
AcDbLine
 10
847.614792
 20
1462.971857
 30
0.0
 11
845.548078
 21
1522.15457
 31
0.0
  0
LINE
  5
576
100
AcDbEntity
  8
LAY-1
  6
CONTINUOUS
 62
     7
100
AcDbLine
 10
843.002539
 20
1524.084771
 30
0.0
 11
843.549296
 21
1524.084771
 31
0.0
  0
ARC
  5
577
100
AcDbEntity
  8
LAY-1
  6
CONTINUOUS
 62
     7
100
AcDbCircle
 10
843.549296
 20
1522.084771
 30
0.0
 40
2.0
100
AcDbArc
 50
2.000008
 51
90.000008
  0
LINE
  5
578
100
AcDbEntity
  8
LAY-1
  6
CONTINUOUS
 62
     7
100
AcDbLine
 10
896.251431
 20
1467.612096
 30
0.0
 11
896.251431
 21
1489.88492
 31
0.0
  0
LINE
  5
579
100
AcDbEntity
  8
LAY-1
  6
CONTINUOUS
 62
     7
100
AcDbLine
 10
886.64483
 20
1460.076561
 30
0.0
 11
886.64483
 21
1492.975013
 31
0.0
  0
ARC
  5
57A
100
AcDbEntity
  8
LAY-1
  6
CONTINUOUS
 62
     7
100
AcDbCircle
 10
971.548331
 20
1464.076572
 30
0.0
 40
5.0
100
AcDbArc
 50
34.516001
 51
90.000008
  0
LINE
  5
57B
100
AcDbEntity
  8
LAY-1
  6
CONTINUOUS
 62
     7
100
AcDbLine
 10
971.54833
 20
1469.076572
 30
0.0
 11
899.786965
 21
1469.076563
 31
0.0
  0
ARC
  5
57C
100
AcDbEntity
  8
LAY-1
  6
CONTINUOUS
 62
     7
100
AcDbCircle
 10
899.786966
 20
1464.076563
 30
0.0
 40
5.0
100
AcDbArc
 50
90.000008
 51
135.000008
  0
LINE
  5
57D
100
AcDbEntity
  8
LAY-1
  6
CONTINUOUS
 62
     7
100
AcDbLine
 10
890.180364
 20
1461.541027
 30
0.0
 11
896.251431
 21
1467.612096
 31
0.0
  0
ARC
  5
57E
100
AcDbEntity
  8
LAY-1
  6
CONTINUOUS
 62
     7
100
AcDbCircle
 10
886.64483
 20
1465.076561
 30
0.0
 40
5.0
100
AcDbArc
 50
270.000008
 51
315.000008
  0
LINE
  5
57F
100
AcDbEntity
  8
LAY-1
  6
CONTINUOUS
 62
     7
100
AcDbLine
 10
850.612965
 20
1460.076556
 30
0.0
 11
886.64483
 21
1460.076561
 31
0.0
  0
ARC
  5
580
100
AcDbEntity
  8
LAY-1
  6
CONTINUOUS
 62
     7
100
AcDbCircle
 10
850.612964
 20
1463.076556
 30
0.0
 40
3.0
100
AcDbArc
 50
182.000008
 51
270.000008
  0
ARC
  5
581
100
AcDbEntity
  8
LAY-1
  6
CONTINUOUS
 62
     7
100
AcDbCircle
 10
1184.715894
 20
1489.076601
 30
0.0
 40
2.0
100
AcDbArc
 50
180.000008
 51
270.000008
  0
ARC
  5
582
100
AcDbEntity
  8
LAY-1
  6
CONTINUOUS
 62
     7
100
AcDbCircle
 10
1181.215889
 20
1531.122894
 30
0.0
 40
42.0
100
AcDbArc
 50
270.000008
 51
272.046721
  0
ARC
  5
583
100
AcDbEntity
  8
LAY-1
  6
CONTINUOUS
 62
     7
100
AcDbCircle
 10
1181.215889
 20
1531.122894
 30
0.0
 40
42.0
100
AcDbArc
 50
272.046721
 51
273.701987
  0
LINE
  5
584
100
AcDbEntity
  8
LAY-1
  6
CONTINUOUS
 62
     7
100
AcDbLine
 10
1182.715894
 20
1489.149688
 30
0.0
 11
1182.715894
 21
1489.076601
 31
0.0
  0
LINE
  5
585
100
AcDbEntity
  8
LAY-1
  6
CONTINUOUS
 62
     7
100
AcDbLine
 10
1184.715895
 20
1487.076601
 30
0.0
 11
1230.732136
 21
1487.076608
 31
0.0
  0
ARC
  5
586
100
AcDbEntity
  8
LAY-1
  6
CONTINUOUS
 62
     7
100
AcDbCircle
 10
1230.732136
 20
1489.076608
 30
0.0
 40
2.0
100
AcDbArc
 50
270.000008
 51
358.000008
  0
LINE
  5
587
100
AcDbEntity
  8
LAY-1
  6
CONTINUOUS
 62
     7
100
AcDbLine
 10
1233.955577
 20
1524.076608
 30
0.0
 11
1233.854471
 21
1521.181307
 31
0.0
  0
LINE
  5
588
100
AcDbEntity
  8
LAY-1
  6
CONTINUOUS
 62
     7
100
AcDbLine
 10
1233.955577
 20
1524.076608
 30
0.0
 11
1233.854471
 21
1521.181307
 31
0.0
  0
LINE
  5
589
100
AcDbEntity
  8
LAY-1
  6
CONTINUOUS
 62
     7
100
AcDbLine
 10
1233.819545
 20
1521.181304
 30
0.0
 11
1232.646043
 21
1487.576606
 31
0.0
  0
ARC
  5
58A
100
AcDbEntity
  8
LAY-1
  6
CONTINUOUS
 62
     7
100
AcDbCircle
 10
1181.215889
 20
1531.122894
 30
0.0
 40
42.0
100
AcDbArc
 50
313.311583
 51
336.352908
  0
ARC
  5
58B
100
AcDbEntity
  8
LAY-1
  6
CONTINUOUS
 62
     7
100
AcDbCircle
 10
904.215889
 20
1531.122856
 30
0.0
 40
42.0
100
AcDbArc
 50
203.647036
 51
270.000008
  0
LINE
  5
58C
100
AcDbEntity
  8
LAY-1
  6
CONTINUOUS
 62
     1
100
AcDbLine
 10
1412.058369
 20
869.704098
 30
0.0
 11
1418.319213
 21
869.704097
 31
0.0
  0
LINE
  5
58D
100
AcDbEntity
  8
LAY-1
  6
CONTINUOUS
 62
     1
100
AcDbLine
 10
1412.058384
 20
980.395788
 30
0.0
 11
1418.319228
 21
980.395787
 31
0.0
  0
LINE
  5
58E
100
AcDbEntity
  8
LAY-1
  6
CONTINUOUS
 62
     7
100
AcDbLine
 10
1641.165089
 20
1125.049907
 30
0.0
 11
1641.165089
 21
1119.15174
 31
0.0
  0
LINE
  5
58F
100
AcDbEntity
  8
LAY-1
  6
CONTINUOUS
 62
     7
100
AcDbLine
 10
1641.165093
 20
1125.049912
 30
0.0
 11
1641.165092
 21
1117.151745
 31
0.0
  0
LINE
  5
590
100
AcDbEntity
  8
LAY-1
  6
CONTINUOUS
 62
     7
100
AcDbLine
 10
1641.165092
 20
1119.186665
 30
0.0
 11
1641.165093
 21
1125.049912
 31
0.0
  0
LINE
  5
591
100
AcDbEntity
  8
LAY-1
  6
CONTINUOUS
 62
     7
100
AcDbLine
 10
1641.16509
 20
1107.414157
 30
0.0
 11
1641.165092
 21
1119.186665
 31
0.0
  0
LINE
  5
592
100
AcDbEntity
  8
LAY-1
  6
CONTINUOUS
 62
     7
100
AcDbLine
 10
1641.165093
 20
1125.049912
 30
0.0
 11
1641.165092
 21
1117.151745
 31
0.0
  0
LINE
  5
593
100
AcDbEntity
  8
LAY-1
  6
CONTINUOUS
 62
     7
100
AcDbLine
 10
1418.665072
 20
975.049942
 30
0.0
 11
1418.665073
 21
979.049942
 31
0.0
  0
LINE
  5
594
100
AcDbEntity
  8
LAY-1
  6
CONTINUOUS
 62
     7
100
AcDbLine
 10
1418.665073
 20
979.049942
 30
0.0
 11
1418.665072
 21
975.049942
 31
0.0
  0
ARC
  5
595
100
AcDbEntity
  8
LAY-1
  6
CONTINUOUS
 62
     7
100
AcDbCircle
 10
1413.928399
 20
872.049943
 30
0.0
 40
3.0
100
AcDbArc
 50
195.606876
 51
269.999992
  0
ARC
  5
596
100
AcDbEntity
  8
LAY-1
  6
CONTINUOUS
 62
     7
100
AcDbCircle
 10
1603.665066
 20
925.049917
 30
0.0
 40
200.0
100
AcDbArc
 50
179.999992
 51
195.606876
  0
ARC
  5
597
100
AcDbEntity
  8
LAY-1
  6
CONTINUOUS
 62
     7
100
AcDbCircle
 10
1603.665066
 20
925.049917
 30
0.0
 40
200.0
100
AcDbArc
 50
164.393109
 51
179.999992
  0
LINE
  5
598
100
AcDbEntity
  8
LAY-1
  6
CONTINUOUS
 62
     7
100
AcDbLine
 10
1417.665058
 20
869.049942
 30
0.0
 11
1413.793379
 21
869.049943
 31
0.0
  0
LINE
  5
599
100
AcDbEntity
  8
LAY-1
  6
CONTINUOUS
 62
     7
100
AcDbLine
 10
1417.665058
 20
869.049942
 30
0.0
 11
1418.665058
 21
870.049942
 31
0.0
  0
ARC
  5
59A
100
AcDbEntity
  8
LAY-1
  6
CONTINUOUS
 62
     7
100
AcDbCircle
 10
1413.928413
 20
978.049943
 30
0.0
 40
3.0
100
AcDbArc
 50
89.999992
 51
164.393109
  0
LINE
  5
59B
100
AcDbEntity
  8
LAY-1
  6
CONTINUOUS
 62
     7
100
AcDbLine
 10
1417.665073
 20
981.049942
 30
0.0
 11
1413.793394
 21
981.049943
 31
0.0
  0
LINE
  5
59C
100
AcDbEntity
  8
LAY-1
  6
CONTINUOUS
 62
     7
100
AcDbLine
 10
1417.665073
 20
981.049942
 30
0.0
 11
1418.665073
 21
980.049942
 31
0.0
  0
LINE
  5
59D
100
AcDbEntity
  8
LAY-1
  6
CONTINUOUS
 62
     7
100
AcDbLine
 10
1418.665058
 20
870.049942
 30
0.0
 11
1418.665059
 21
875.049942
 31
0.0
  0
LINE
  5
59E
100
AcDbEntity
  8
LAY-1
  6
CONTINUOUS
 62
     7
100
AcDbLine
 10
1418.665073
 20
980.049942
 30
0.0
 11
1418.665072
 21
975.049942
 31
0.0
  0
LINE
  5
59F
100
AcDbEntity
  8
LAY-1
  6
CONTINUOUS
 62
     7
100
AcDbLine
 10
1641.165039
 20
725.049912
 30
0.0
 11
1641.165041
 21
742.685667
 31
0.0
  0
ARC
  5
5A0
100
AcDbEntity
  8
LAY-1
  6
CONTINUOUS
 62
     7
100
AcDbCircle
 10
1561.332783
 20
825.043474
 30
0.0
 40
40.0
100
AcDbArc
 50
11.976125
 51
55.483999
  0
ARC
  5
5A1
100
AcDbEntity
  8
LAY-1
  6
CONTINUOUS
 62
     7
100
AcDbCircle
 10
1561.332783
 20
825.043474
 30
0.0
 40
40.0
100
AcDbArc
 50
55.483999
 51
87.999992
  0
LINE
  5
5A2
100
AcDbEntity
  8
LAY-1
  6
CONTINUOUS
 62
     7
100
AcDbLine
 10
1419.164754
 20
870.032492
 30
0.0
 11
1562.728769
 21
865.019107
 31
0.0
  0
LINE
  5
5A3
100
AcDbEntity
  8
LAY-1
  6
CONTINUOUS
 62
     7
100
AcDbLine
 10
1419.164769
 20
980.067392
 30
0.0
 11
1562.728785
 21
985.080738
 31
0.0
  0
ARC
  5
5A4
100
AcDbEntity
  8
LAY-1
  6
CONTINUOUS
 62
     7
100
AcDbCircle
 10
1561.33281
 20
1025.056371
 30
0.0
 40
40.0
100
AcDbArc
 50
271.999992
 51
347.126429
  0
LINE
  5
5A5
100
AcDbEntity
  8
LAY-1
  6
CONTINUOUS
 62
     7
100
AcDbLine
 10
1600.200556
 20
1015.522857
 30
0.0
 11
1604.034786
 21
1033.598498
 31
0.0
  0
ARC
  5
5A6
100
AcDbEntity
  8
LAY-1
  6
CONTINUOUS
 62
     7
100
AcDbCircle
 10
1506.211376
 20
1054.348932
 30
0.0
 40
100.0
100
AcDbArc
 50
348.02386
 51
359.999992
  0
LINE
  5
5A7
100
AcDbEntity
  8
LAY-1
  6
CONTINUOUS
 62
     7
100
AcDbLine
 10
1606.211376
 20
1054.348919
 30
0.0
 11
1606.211377
 21
1063.549916
 31
0.0
  0
ARC
  5
5A8
100
AcDbEntity
  8
LAY-1
  6
CONTINUOUS
 62
     7
100
AcDbCircle
 10
1648.211377
 20
1063.549911
 30
0.0
 40
42.0
100
AcDbArc
 50
136.688417
 51
179.999992
  0
LINE
  5
5A9
100
AcDbEntity
  8
LAY-1
  6
CONTINUOUS
 62
     7
100
AcDbLine
 10
1641.165092
 20
1119.186665
 30
0.0
 11
1641.165093
 21
1125.049912
 31
0.0
  0
LINE
  5
5AA
100
AcDbEntity
  8
LAY-1
  6
CONTINUOUS
 62
     7
100
AcDbLine
 10
1419.164769
 20
980.067392
 30
0.0
 11
1418.665073
 21
979.549942
 31
0.0
  0
LINE
  5
5AB
100
AcDbEntity
  8
LAY-1
  6
CONTINUOUS
 62
     7
100
AcDbLine
 10
1419.164754
 20
870.032492
 30
0.0
 11
1418.665058
 21
870.549942
 31
0.0
  0
LINE
  5
5AC
100
AcDbEntity
  8
LAY-1
  6
CONTINUOUS
 62
     7
100
AcDbLine
 10
1641.16509
 20
1107.414157
 30
0.0
 11
1641.165092
 21
1119.186665
 31
0.0
  0
LINE
  5
5AD
100
AcDbEntity
  8
LAY-1
  6
CONTINUOUS
 62
     7
100
AcDbLine
 10
1418.665059
 20
875.049942
 30
0.0
 11
1418.665059
 21
975.049942
 31
0.0
  0
LINE
  5
5AE
100
AcDbEntity
  8
LAY-1
  6
CONTINUOUS
 62
     7
100
AcDbLine
 10
1600.462149
 20
833.343637
 30
0.0
 11
1604.034756
 21
816.501335
 31
0.0
  0
ARC
  5
5AF
100
AcDbEntity
  8
LAY-1
  6
CONTINUOUS
 62
     7
100
AcDbCircle
 10
1506.211341
 20
795.750928
 30
0.0
 40
100.0
100
AcDbArc
 50
359.999992
 51
11.976125
  0
ARC
  5
5B0
100
AcDbEntity
  8
LAY-1
  6
CONTINUOUS
 62
     7
100
AcDbCircle
 10
1648.211377
 20
1063.549911
 30
0.0
 40
42.0
100
AcDbArc
 50
136.688417
 51
157.340731
  0
ARC
  5
5B1
100
AcDbEntity
  8
LAY-1
  6
CONTINUOUS
 62
     7
100
AcDbCircle
 10
1648.211377
 20
1063.549911
 30
0.0
 40
42.0
100
AcDbArc
 50
156.42731
 51
176.298013
  0
LINE
  5
5B2
100
AcDbEntity
  8
LAY-1
  6
CONTINUOUS
 62
     7
100
AcDbLine
 10
1641.165089
 20
1119.15174
 30
0.0
 11
1641.165089
 21
1107.414157
 31
0.0
  0
LINE
  5
5B3
100
AcDbEntity
  8
LAY-1
  6
CONTINUOUS
 62
     7
100
AcDbLine
 10
1641.16509
 20
1113.58753
 30
0.0
 11
1641.16509
 21
736.512358
 31
0.0
  0
ARC
  5
5B4
100
AcDbEntity
  8
LAY-1
  6
CONTINUOUS
 62
     7
100
AcDbCircle
 10
1648.211377
 20
1063.549911
 30
0.0
 40
42.0
100
AcDbArc
 50
116.204697
 51
136.688417
  0
LINE
  5
5B5
100
AcDbEntity
  8
LAY-1
  6
CONTINUOUS
 62
     7
100
AcDbLine
 10
1606.21134
 20
786.549916
 30
0.0
 11
1606.211341
 21
795.750914
 31
0.0
  0
ARC
  5
5B6
100
AcDbEntity
  8
LAY-1
  6
CONTINUOUS
 62
     7
100
AcDbCircle
 10
1648.21134
 20
786.549911
 30
0.0
 40
42.0
100
AcDbArc
 50
179.999992
 51
246.352964
  0
ARC
  5
5B7
100
AcDbEntity
  8
LAY-1
  6
CONTINUOUS
 62
     7
100
AcDbCircle
 10
1648.211377
 20
1063.549911
 30
0.0
 40
42.0
100
AcDbArc
 50
113.412411
 51
136.688417
  0
LINE
  5
5B8
100
AcDbEntity
  8
LAY-1
  6
CONTINUOUS
 62
     7
100
AcDbLine
 10
842.715922
 20
326.023281
 30
0.0
 11
842.715922
 21
305.523281
 31
0.0
  0
LINE
  5
5B9
100
AcDbEntity
  8
LAY-1
  6
CONTINUOUS
 62
     1
100
AcDbLine
 10
987.370076
 20
555.130003
 30
0.0
 11
987.370075
 21
548.869158
 31
0.0
  0
LINE
  5
5BA
100
AcDbEntity
  8
LAY-1
  6
CONTINUOUS
 62
     1
100
AcDbLine
 10
1098.061765
 20
555.129988
 30
0.0
 11
1098.061765
 21
548.869143
 31
0.0
  0
LINE
  5
5BB
100
AcDbEntity
  8
LAY-1
  6
CONTINUOUS
 62
     1
100
AcDbLine
 10
1229.715894
 20
361.52328
 30
0.0
 11
1185.715894
 21
361.52328
 31
0.0
  0
LINE
  5
5BC
100
AcDbEntity
  8
LAY-1
  6
CONTINUOUS
 62
     1
100
AcDbLine
 10
1229.715895
 20
363.02328
 30
0.0
 11
1229.715895
 21
361.52328
 31
0.0
  0
LINE
  5
5BD
100
AcDbEntity
  8
LAY-1
  6
EXLTYPE4
 62
     1
100
AcDbLine
 10
1233.854471
 20
328.918581
 30
0.0
 11
1232.730917
 21
361.093079
 31
0.0
  0
LINE
  5
5BE
100
AcDbEntity
  8
LAY-1
  6
EXLTYPE4
 62
     1
100
AcDbLine
 10
1185.715895
 20
363.023286
 30
0.0
 11
1185.715894
 21
361.523286
 31
0.0
  0
LINE
  5
5BF
100
AcDbEntity
  8
LAY-1
  6
EXLTYPE4
 62
     1
100
AcDbLine
 10
1233.854471
 20
328.918581
 30
0.0
 11
1232.730917
 21
361.093079
 31
0.0
  0
LINE
  5
5C0
100
AcDbEntity
  8
LAY-1
  6
CONTINUOUS
 62
     7
100
AcDbLine
 10
1242.715885
 20
326.023282
 30
0.0
 11
1236.817717
 21
326.023282
 31
0.0
  0
LINE
  5
5C1
100
AcDbEntity
  8
LAY-1
  6
CONTINUOUS
 62
     7
100
AcDbLine
 10
1242.71589
 20
326.023279
 30
0.0
 11
1234.817722
 21
326.02328
 31
0.0
  0
LINE
  5
5C2
100
AcDbEntity
  8
LAY-1
  6
CONTINUOUS
 62
     7
100
AcDbLine
 10
1236.852643
 20
326.02328
 30
0.0
 11
1242.71589
 21
326.023279
 31
0.0
  0
LINE
  5
5C3
100
AcDbEntity
  8
LAY-1
  6
CONTINUOUS
 62
     7
100
AcDbLine
 10
1225.080135
 20
326.023281
 30
0.0
 11
1236.852643
 21
326.02328
 31
0.0
  0
LINE
  5
5C4
100
AcDbEntity
  8
LAY-1
  6
CONTINUOUS
 62
     7
100
AcDbLine
 10
1242.71589
 20
326.023279
 30
0.0
 11
1234.817722
 21
326.02328
 31
0.0
  0
LINE
  5
5C5
100
AcDbEntity
  8
LAY-1
  6
CONTINUOUS
 62
     7
100
AcDbLine
 10
1092.715919
 20
548.523299
 30
0.0
 11
1096.71592
 21
548.523299
 31
0.0
  0
LINE
  5
5C6
100
AcDbEntity
  8
LAY-1
  6
CONTINUOUS
 62
     7
100
AcDbLine
 10
1096.71592
 20
548.523299
 30
0.0
 11
1092.71592
 21
548.523299
 31
0.0
  0
ARC
  5
5C7
100
AcDbEntity
  8
LAY-1
  6
CONTINUOUS
 62
     7
100
AcDbCircle
 10
989.71592
 20
553.259973
 30
0.0
 40
3.0
100
AcDbArc
 50
105.606876
 51
179.999992
  0
ARC
  5
5C8
100
AcDbEntity
  8
LAY-1
  6
CONTINUOUS
 62
     7
100
AcDbCircle
 10
1042.715895
 20
363.523306
 30
0.0
 40
200.0
100
AcDbArc
 50
89.999992
 51
105.606876
  0
ARC
  5
5C9
100
AcDbEntity
  8
LAY-1
  6
CONTINUOUS
 62
     7
100
AcDbCircle
 10
1042.715895
 20
363.523306
 30
0.0
 40
200.0
100
AcDbArc
 50
74.393109
 51
89.999992
  0
LINE
  5
5CA
100
AcDbEntity
  8
LAY-1
  6
CONTINUOUS
 62
     7
100
AcDbLine
 10
986.71592
 20
549.523313
 30
0.0
 11
986.71592
 21
553.394992
 31
0.0
  0
LINE
  5
5CB
100
AcDbEntity
  8
LAY-1
  6
CONTINUOUS
 62
     7
100
AcDbLine
 10
986.71592
 20
549.523313
 30
0.0
 11
987.71592
 21
548.523313
 31
0.0
  0
ARC
  5
5CC
100
AcDbEntity
  8
LAY-1
  6
CONTINUOUS
 62
     7
100
AcDbCircle
 10
1095.71592
 20
553.259958
 30
0.0
 40
3.0
100
AcDbArc
 50
359.999992
 51
74.393109
  0
LINE
  5
5CD
100
AcDbEntity
  8
LAY-1
  6
CONTINUOUS
 62
     7
100
AcDbLine
 10
1098.71592
 20
549.523298
 30
0.0
 11
1098.71592
 21
553.394977
 31
0.0
  0
LINE
  5
5CE
100
AcDbEntity
  8
LAY-1
  6
CONTINUOUS
 62
     7
100
AcDbLine
 10
1098.71592
 20
549.523298
 30
0.0
 11
1097.71592
 21
548.523298
 31
0.0
  0
LINE
  5
5CF
100
AcDbEntity
  8
LAY-1
  6
CONTINUOUS
 62
     7
100
AcDbLine
 10
987.71592
 20
548.523313
 30
0.0
 11
992.71592
 21
548.523313
 31
0.0
  0
LINE
  5
5D0
100
AcDbEntity
  8
LAY-1
  6
CONTINUOUS
 62
     7
100
AcDbLine
 10
1097.71592
 20
548.523298
 30
0.0
 11
1092.71592
 21
548.523299
 31
0.0
  0
LINE
  5
5D1
100
AcDbEntity
  8
LAY-1
  6
CONTINUOUS
 62
     7
100
AcDbLine
 10
842.71589
 20
326.023333
 30
0.0
 11
860.351644
 21
326.023331
 31
0.0
  0
ARC
  5
5D2
100
AcDbEntity
  8
LAY-1
  6
CONTINUOUS
 62
     7
100
AcDbCircle
 10
942.709452
 20
405.855588
 30
0.0
 40
40.0
100
AcDbArc
 50
281.976125
 51
325.483999
  0
ARC
  5
5D3
100
AcDbEntity
  8
LAY-1
  6
CONTINUOUS
 62
     7
100
AcDbCircle
 10
942.709452
 20
405.855588
 30
0.0
 40
40.0
100
AcDbArc
 50
325.483999
 51
357.999992
  0
LINE
  5
5D4
100
AcDbEntity
  8
LAY-1
  6
CONTINUOUS
 62
     7
100
AcDbLine
 10
987.69847
 20
548.023618
 30
0.0
 11
982.685085
 21
404.459603
 31
0.0
  0
LINE
  5
5D5
100
AcDbEntity
  8
LAY-1
  6
CONTINUOUS
 62
     7
100
AcDbLine
 10
1097.733369
 20
548.023603
 30
0.0
 11
1102.746716
 21
404.459587
 31
0.0
  0
ARC
  5
5D6
100
AcDbEntity
  8
LAY-1
  6
CONTINUOUS
 62
     7
100
AcDbCircle
 10
1142.722349
 20
405.855561
 30
0.0
 40
40.0
100
AcDbArc
 50
181.999992
 51
257.126429
  0
LINE
  5
5D7
100
AcDbEntity
  8
LAY-1
  6
CONTINUOUS
 62
     7
100
AcDbLine
 10
1133.188835
 20
366.987815
 30
0.0
 11
1151.264476
 21
363.153586
 31
0.0
  0
ARC
  5
5D8
100
AcDbEntity
  8
LAY-1
  6
CONTINUOUS
 62
     7
100
AcDbCircle
 10
1172.01491
 20
460.976995
 30
0.0
 40
100.0
100
AcDbArc
 50
258.02386
 51
269.999992
  0
LINE
  5
5D9
100
AcDbEntity
  8
LAY-1
  6
CONTINUOUS
 62
     7
100
AcDbLine
 10
1172.014896
 20
360.976995
 30
0.0
 11
1181.215894
 21
360.976994
 31
0.0
  0
ARC
  5
5DA
100
AcDbEntity
  8
LAY-1
  6
CONTINUOUS
 62
     7
100
AcDbCircle
 10
1181.215889
 20
318.976994
 30
0.0
 40
42.0
100
AcDbArc
 50
46.688417
 51
89.999992
  0
LINE
  5
5DB
100
AcDbEntity
  8
LAY-1
  6
CONTINUOUS
 62
     7
100
AcDbLine
 10
1236.852643
 20
326.02328
 30
0.0
 11
1242.71589
 21
326.023279
 31
0.0
  0
LINE
  5
5DC
100
AcDbEntity
  8
LAY-1
  6
CONTINUOUS
 62
     7
100
AcDbLine
 10
1097.733369
 20
548.023603
 30
0.0
 11
1097.21592
 21
548.523298
 31
0.0
  0
LINE
  5
5DD
100
AcDbEntity
  8
LAY-1
  6
CONTINUOUS
 62
     7
100
AcDbLine
 10
987.69847
 20
548.023618
 30
0.0
 11
988.21592
 21
548.523313
 31
0.0
  0
ARC
  5
5DE
100
AcDbEntity
  8
LAY-1
  6
CONTINUOUS
 62
     7
100
AcDbCircle
 10
843.002539
 20
324.015117
 30
0.0
 40
2.0
100
AcDbArc
 50
89.999992
 51
98.240273
  0
LINE
  5
5DF
100
AcDbEntity
  8
LAY-1
  6
CONTINUOUS
 62
     7
100
AcDbLine
 10
843.002539
 20
326.015117
 30
0.0
 11
843.549296
 21
326.015117
 31
0.0
  0
LINE
  5
5E0
100
AcDbEntity
  8
LAY-1
  6
CONTINUOUS
 62
     7
100
AcDbLine
 10
1225.080135
 20
326.023281
 30
0.0
 11
1236.852643
 21
326.02328
 31
0.0
  0
LINE
  5
5E1
100
AcDbEntity
  8
LAY-1
  6
CONTINUOUS
 62
     7
100
AcDbLine
 10
992.71592
 20
548.523313
 30
0.0
 11
1092.71592
 21
548.523313
 31
0.0
  0
LINE
  5
5E2
100
AcDbEntity
  8
LAY-1
  6
CONTINUOUS
 62
     7
100
AcDbLine
 10
951.009615
 20
366.726222
 30
0.0
 11
934.167313
 21
363.153615
 31
0.0
  0
ARC
  5
5E3
100
AcDbEntity
  8
LAY-1
  6
CONTINUOUS
 62
     7
100
AcDbCircle
 10
913.416906
 20
460.97703
 30
0.0
 40
100.0
100
AcDbArc
 50
269.999992
 51
281.976125
  0
LINE
  5
5E4
100
AcDbEntity
  8
LAY-1
  6
CONTINUOUS
 62
     7
100
AcDbLine
 10
904.215894
 20
360.977032
 30
0.0
 11
913.416892
 21
360.97703
 31
0.0
  0
LINE
  5
5E5
100
AcDbEntity
  8
LAY-1
  6
CONTINUOUS
 62
     7
100
AcDbLine
 10
886.64483
 20
390.023327
 30
0.0
 11
886.64483
 21
357.124875
 31
0.0
  0
LINE
  5
5E6
100
AcDbEntity
  8
LAY-1
  6
CONTINUOUS
 62
     7
100
AcDbLine
 10
896.251431
 20
382.487792
 30
0.0
 11
896.251431
 21
360.214968
 31
0.0
  0
ARC
  5
5E7
100
AcDbEntity
  8
LAY-1
  6
CONTINUOUS
 62
     7
100
AcDbCircle
 10
843.549296
 20
328.015117
 30
0.0
 40
2.0
100
AcDbArc
 50
269.999992
 51
357.999992
  0
LINE
  5
5E8
100
AcDbEntity
  8
LAY-1
  6
CONTINUOUS
 62
     7
100
AcDbLine
 10
847.614792
 20
387.128031
 30
0.0
 11
845.548078
 21
327.945318
 31
0.0
  0
ARC
  5
5E9
100
AcDbEntity
  8
LAY-1
  6
CONTINUOUS
 62
     7
100
AcDbCircle
 10
850.612964
 20
387.023332
 30
0.0
 40
3.0
100
AcDbArc
 50
89.999992
 51
177.999992
  0
LINE
  5
5EA
100
AcDbEntity
  8
LAY-1
  6
CONTINUOUS
 62
     7
100
AcDbLine
 10
850.612965
 20
390.023332
 30
0.0
 11
886.64483
 21
390.023327
 31
0.0
  0
ARC
  5
5EB
100
AcDbEntity
  8
LAY-1
  6
CONTINUOUS
 62
     7
100
AcDbCircle
 10
886.64483
 20
385.023327
 30
0.0
 40
5.0
100
AcDbArc
 50
44.999992
 51
89.999992
  0
LINE
  5
5EC
100
AcDbEntity
  8
LAY-1
  6
CONTINUOUS
 62
     7
100
AcDbLine
 10
890.180364
 20
388.55886
 30
0.0
 11
896.251431
 21
382.487792
 31
0.0
  0
ARC
  5
5ED
100
AcDbEntity
  8
LAY-1
  6
CONTINUOUS
 62
     7
100
AcDbCircle
 10
899.786966
 20
386.023325
 30
0.0
 40
5.0
100
AcDbArc
 50
224.999992
 51
269.999992
  0
LINE
  5
5EE
100
AcDbEntity
  8
LAY-1
  6
CONTINUOUS
 62
     7
100
AcDbLine
 10
971.54833
 20
381.023316
 30
0.0
 11
899.786965
 21
381.023325
 31
0.0
  0
ARC
  5
5EF
100
AcDbEntity
  8
LAY-1
  6
CONTINUOUS
 62
     7
100
AcDbCircle
 10
971.548331
 20
386.023316
 30
0.0
 40
5.0
100
AcDbArc
 50
269.999992
 51
325.483999
  0
LINE
  5
5F0
100
AcDbEntity
  8
LAY-1
  6
CONTINUOUS
 62
     7
100
AcDbLine
 10
1233.819545
 20
328.918584
 30
0.0
 11
1232.646043
 21
362.523282
 31
0.0
  0
LINE
  5
5F1
100
AcDbEntity
  8
LAY-1
  6
CONTINUOUS
 62
     7
100
AcDbLine
 10
1233.955577
 20
326.02328
 30
0.0
 11
1233.854471
 21
328.918581
 31
0.0
  0
LINE
  5
5F2
100
AcDbEntity
  8
LAY-1
  6
CONTINUOUS
 62
     7
100
AcDbLine
 10
1233.955577
 20
326.02328
 30
0.0
 11
1233.854471
 21
328.918581
 31
0.0
  0
LINE
  5
5F3
100
AcDbEntity
  8
LAY-1
  6
CONTINUOUS
 62
     7
100
AcDbLine
 10
1182.715894
 20
360.9502
 30
0.0
 11
1182.715894
 21
361.023287
 31
0.0
  0
ARC
  5
5F4
100
AcDbEntity
  8
LAY-1
  6
CONTINUOUS
 62
     7
100
AcDbCircle
 10
1181.215889
 20
318.976994
 30
0.0
 40
42.0
100
AcDbArc
 50
86.298013
 51
87.953279
  0
ARC
  5
5F5
100
AcDbEntity
  8
LAY-1
  6
CONTINUOUS
 62
     7
100
AcDbCircle
 10
1181.215889
 20
318.976994
 30
0.0
 40
42.0
100
AcDbArc
 50
87.953279
 51
89.999992
  0
ARC
  5
5F6
100
AcDbEntity
  8
LAY-1
  6
CONTINUOUS
 62
     7
100
AcDbCircle
 10
1181.215889
 20
318.976994
 30
0.0
 40
42.0
100
AcDbArc
 50
46.688417
 51
67.340731
  0
ARC
  5
5F7
100
AcDbEntity
  8
LAY-1
  6
CONTINUOUS
 62
     7
100
AcDbCircle
 10
1181.215889
 20
318.976994
 30
0.0
 40
42.0
100
AcDbArc
 50
66.42731
 51
86.298013
  0
ARC
  5
5F8
100
AcDbEntity
  8
LAY-1
  6
CONTINUOUS
 62
     7
100
AcDbCircle
 10
1230.732136
 20
361.02328
 30
0.0
 40
2.0
100
AcDbArc
 50
1.999992
 51
89.999992
  0
ARC
  5
5F9
100
AcDbEntity
  8
LAY-1
  6
CONTINUOUS
 62
     7
100
AcDbCircle
 10
1184.715894
 20
361.023287
 30
0.0
 40
2.0
100
AcDbArc
 50
89.999992
 51
179.999992
  0
LINE
  5
5FA
100
AcDbEntity
  8
LAY-1
  6
CONTINUOUS
 62
     7
100
AcDbLine
 10
1184.715895
 20
363.023287
 30
0.0
 11
1230.732136
 21
363.02328
 31
0.0
  0
LINE
  5
5FB
100
AcDbEntity
  8
LAY-1
  6
CONTINUOUS
 62
     7
100
AcDbLine
 10
1236.817717
 20
326.023282
 30
0.0
 11
1225.080135
 21
326.023282
 31
0.0
  0
LINE
  5
5FC
100
AcDbEntity
  8
LAY-1
  6
CONTINUOUS
 62
     7
100
AcDbLine
 10
1231.253508
 20
326.023281
 30
0.0
 11
854.178336
 21
326.023281
 31
0.0
  0
ARC
  5
5FD
100
AcDbEntity
  8
LAY-1
  6
CONTINUOUS
 62
     7
100
AcDbCircle
 10
1181.215889
 20
318.976994
 30
0.0
 40
42.0
100
AcDbArc
 50
26.204697
 51
46.688417
  0
ARC
  5
5FE
100
AcDbEntity
  8
LAY-1
  6
CONTINUOUS
 62
     7
100
AcDbCircle
 10
904.215889
 20
318.977032
 30
0.0
 40
42.0
100
AcDbArc
 50
89.999992
 51
156.352964
  0
ARC
  5
5FF
100
AcDbEntity
  8
LAY-1
  6
CONTINUOUS
 62
     7
100
AcDbCircle
 10
1181.215889
 20
318.976994
 30
0.0
 40
42.0
100
AcDbArc
 50
23.647092
 51
46.688417
  0
LINE
  5
600
100
AcDbEntity
  8
LAY-1
  6
CONTINUOUS
 62
     1
100
AcDbLine
 10
673.373475
 20
980.39579
 30
0.0
 11
667.11263
 21
980.395791
 31
0.0
  0
LINE
  5
601
100
AcDbEntity
  8
LAY-1
  6
CONTINUOUS
 62
     1
100
AcDbLine
 10
673.37346
 20
869.7041
 30
0.0
 11
667.112615
 21
869.704101
 31
0.0
  0
LINE
  5
602
100
AcDbEntity
  8
LAY-1
  6
CONTINUOUS
 62
     7
100
AcDbLine
 10
444.266754
 20
725.049981
 30
0.0
 11
444.266754
 21
730.948148
 31
0.0
  0
LINE
  5
603
100
AcDbEntity
  8
LAY-1
  6
CONTINUOUS
 62
     7
100
AcDbLine
 10
444.266751
 20
725.049976
 30
0.0
 11
444.266752
 21
732.948143
 31
0.0
  0
LINE
  5
604
100
AcDbEntity
  8
LAY-1
  6
CONTINUOUS
 62
     7
100
AcDbLine
 10
444.266752
 20
730.913223
 30
0.0
 11
444.266751
 21
725.049976
 31
0.0
  0
LINE
  5
605
100
AcDbEntity
  8
LAY-1
  6
CONTINUOUS
 62
     7
100
AcDbLine
 10
444.266753
 20
742.685731
 30
0.0
 11
444.266752
 21
730.913223
 31
0.0
  0
LINE
  5
606
100
AcDbEntity
  8
LAY-1
  6
CONTINUOUS
 62
     7
100
AcDbLine
 10
444.266751
 20
725.049976
 30
0.0
 11
444.266752
 21
732.948143
 31
0.0
  0
LINE
  5
607
100
AcDbEntity
  8
LAY-1
  6
CONTINUOUS
 62
     7
100
AcDbLine
 10
666.766771
 20
875.049946
 30
0.0
 11
666.766771
 21
871.049946
 31
0.0
  0
LINE
  5
608
100
AcDbEntity
  8
LAY-1
  6
CONTINUOUS
 62
     7
100
AcDbLine
 10
666.766771
 20
871.049946
 30
0.0
 11
666.766771
 21
875.049946
 31
0.0
  0
ARC
  5
609
100
AcDbEntity
  8
LAY-1
  6
CONTINUOUS
 62
     7
100
AcDbCircle
 10
671.503445
 20
978.049945
 30
0.0
 40
3.0
100
AcDbArc
 50
15.606876
 51
89.999992
  0
ARC
  5
60A
100
AcDbEntity
  8
LAY-1
  6
CONTINUOUS
 62
     7
100
AcDbCircle
 10
481.766778
 20
925.049971
 30
0.0
 40
200.0
100
AcDbArc
 50
359.999992
 51
15.606876
  0
ARC
  5
60B
100
AcDbEntity
  8
LAY-1
  6
CONTINUOUS
 62
     7
100
AcDbCircle
 10
481.766778
 20
925.049971
 30
0.0
 40
200.0
100
AcDbArc
 50
344.393109
 51
359.999992
  0
LINE
  5
60C
100
AcDbEntity
  8
LAY-1
  6
CONTINUOUS
 62
     7
100
AcDbLine
 10
667.766786
 20
981.049946
 30
0.0
 11
671.638464
 21
981.049945
 31
0.0
  0
LINE
  5
60D
100
AcDbEntity
  8
LAY-1
  6
CONTINUOUS
 62
     7
100
AcDbLine
 10
667.766786
 20
981.049946
 30
0.0
 11
666.766785
 21
980.049946
 31
0.0
  0
ARC
  5
60E
100
AcDbEntity
  8
LAY-1
  6
CONTINUOUS
 62
     7
100
AcDbCircle
 10
671.50343
 20
872.049945
 30
0.0
 40
3.0
100
AcDbArc
 50
269.999992
 51
344.393109
  0
LINE
  5
60F
100
AcDbEntity
  8
LAY-1
  6
CONTINUOUS
 62
     7
100
AcDbLine
 10
667.76677
 20
869.049946
 30
0.0
 11
671.638449
 21
869.049945
 31
0.0
  0
LINE
  5
610
100
AcDbEntity
  8
LAY-1
  6
CONTINUOUS
 62
     7
100
AcDbLine
 10
667.76677
 20
869.049946
 30
0.0
 11
666.76677
 21
870.049946
 31
0.0
  0
LINE
  5
611
100
AcDbEntity
  8
LAY-1
  6
CONTINUOUS
 62
     7
100
AcDbLine
 10
666.766785
 20
980.049946
 30
0.0
 11
666.766785
 21
975.049946
 31
0.0
  0
LINE
  5
612
100
AcDbEntity
  8
LAY-1
  6
CONTINUOUS
 62
     7
100
AcDbLine
 10
666.76677
 20
870.049946
 30
0.0
 11
666.766771
 21
875.049946
 31
0.0
  0
LINE
  5
613
100
AcDbEntity
  8
LAY-1
  6
CONTINUOUS
 62
     7
100
AcDbLine
 10
444.266805
 20
1125.049976
 30
0.0
 11
444.266803
 21
1107.414221
 31
0.0
  0
ARC
  5
614
100
AcDbEntity
  8
LAY-1
  6
CONTINUOUS
 62
     7
100
AcDbCircle
 10
524.09906
 20
1025.056414
 30
0.0
 40
40.0
100
AcDbArc
 50
191.976125
 51
235.483999
  0
ARC
  5
615
100
AcDbEntity
  8
LAY-1
  6
CONTINUOUS
 62
     7
100
AcDbCircle
 10
524.09906
 20
1025.056414
 30
0.0
 40
40.0
100
AcDbArc
 50
235.483999
 51
267.999992
  0
LINE
  5
616
100
AcDbEntity
  8
LAY-1
  6
CONTINUOUS
 62
     7
100
AcDbLine
 10
666.26709
 20
980.067396
 30
0.0
 11
522.703075
 21
985.080781
 31
0.0
  0
LINE
  5
617
100
AcDbEntity
  8
LAY-1
  6
CONTINUOUS
 62
     7
100
AcDbLine
 10
666.267075
 20
870.032496
 30
0.0
 11
522.703059
 21
865.01915
 31
0.0
  0
ARC
  5
618
100
AcDbEntity
  8
LAY-1
  6
CONTINUOUS
 62
     7
100
AcDbCircle
 10
524.099033
 20
825.043517
 30
0.0
 40
40.0
100
AcDbArc
 50
91.999992
 51
167.126429
  0
LINE
  5
619
100
AcDbEntity
  8
LAY-1
  6
CONTINUOUS
 62
     7
100
AcDbLine
 10
485.231287
 20
834.577031
 30
0.0
 11
481.397058
 21
816.50139
 31
0.0
  0
ARC
  5
61A
100
AcDbEntity
  8
LAY-1
  6
CONTINUOUS
 62
     7
100
AcDbCircle
 10
579.220467
 20
795.750956
 30
0.0
 40
100.0
100
AcDbArc
 50
168.02386
 51
179.999992
  0
LINE
  5
61B
100
AcDbEntity
  8
LAY-1
  6
CONTINUOUS
 62
     7
100
AcDbLine
 10
479.220467
 20
795.750969
 30
0.0
 11
479.220466
 21
786.549971
 31
0.0
  0
ARC
  5
61C
100
AcDbEntity
  8
LAY-1
  6
CONTINUOUS
 62
     7
100
AcDbCircle
 10
437.220466
 20
786.549977
 30
0.0
 40
42.0
100
AcDbArc
 50
316.688417
 51
359.999992
  0
LINE
  5
61D
100
AcDbEntity
  8
LAY-1
  6
CONTINUOUS
 62
     7
100
AcDbLine
 10
444.266752
 20
730.913223
 30
0.0
 11
444.266751
 21
725.049976
 31
0.0
  0
LINE
  5
61E
100
AcDbEntity
  8
LAY-1
  6
CONTINUOUS
 62
     7
100
AcDbLine
 10
666.267075
 20
870.032496
 30
0.0
 11
666.766771
 21
870.549946
 31
0.0
  0
LINE
  5
61F
100
AcDbEntity
  8
LAY-1
  6
CONTINUOUS
 62
     7
100
AcDbLine
 10
666.26709
 20
980.067396
 30
0.0
 11
666.766785
 21
979.549946
 31
0.0
  0
LINE
  5
620
100
AcDbEntity
  8
LAY-1
  6
CONTINUOUS
 62
     7
100
AcDbLine
 10
444.266753
 20
742.685731
 30
0.0
 11
444.266752
 21
730.913223
 31
0.0
  0
LINE
  5
621
100
AcDbEntity
  8
LAY-1
  6
CONTINUOUS
 62
     7
100
AcDbLine
 10
666.766785
 20
975.049946
 30
0.0
 11
666.766785
 21
875.049946
 31
0.0
  0
LINE
  5
622
100
AcDbEntity
  8
LAY-1
  6
CONTINUOUS
 62
     7
100
AcDbLine
 10
484.969694
 20
1016.756251
 30
0.0
 11
481.397087
 21
1033.598553
 31
0.0
  0
ARC
  5
623
100
AcDbEntity
  8
LAY-1
  6
CONTINUOUS
 62
     7
100
AcDbCircle
 10
579.220503
 20
1054.34896
 30
0.0
 40
100.0
100
AcDbArc
 50
179.999992
 51
191.976125
  0
LINE
  5
624
100
AcDbEntity
  8
LAY-1
  6
CONTINUOUS
 62
     7
100
AcDbLine
 10
479.220504
 20
1063.549971
 30
0.0
 11
479.220503
 21
1054.348974
 31
0.0
  0
ARC
  5
625
100
AcDbEntity
  8
LAY-1
  6
CONTINUOUS
 62
     7
100
AcDbCircle
 10
437.220466
 20
786.549977
 30
0.0
 40
42.0
100
AcDbArc
 50
316.688417
 51
337.340731
  0
ARC
  5
626
100
AcDbEntity
  8
LAY-1
  6
CONTINUOUS
 62
     7
100
AcDbCircle
 10
437.220466
 20
786.549977
 30
0.0
 40
42.0
100
AcDbArc
 50
336.42731
 51
356.298013
  0
LINE
  5
627
100
AcDbEntity
  8
LAY-1
  6
CONTINUOUS
 62
     7
100
AcDbLine
 10
444.266754
 20
730.948148
 30
0.0
 11
444.266754
 21
742.685731
 31
0.0
  0
LINE
  5
628
100
AcDbEntity
  8
LAY-1
  6
CONTINUOUS
 62
     7
100
AcDbLine
 10
444.266753
 20
736.512358
 30
0.0
 11
444.266753
 21
1113.58753
 31
0.0
  0
ARC
  5
629
100
AcDbEntity
  8
LAY-1
  6
CONTINUOUS
 62
     7
100
AcDbCircle
 10
437.220466
 20
786.549977
 30
0.0
 40
42.0
100
AcDbArc
 50
296.204697
 51
316.688417
  0
ARC
  5
62A
100
AcDbEntity
  8
LAY-1
  6
CONTINUOUS
 62
     7
100
AcDbCircle
 10
437.220466
 20
786.549977
 30
0.0
 40
42.0
100
AcDbArc
 50
295.000125
 51
316.688417
  0
ARC
  5
62B
100
AcDbEntity
  8
LAY-1
  6
CONTINUOUS
 62
     7
100
AcDbCircle
 10
437.220504
 20
1063.549977
 30
0.0
 40
42.0
100
AcDbArc
 50
359.999992
 51
64.80623
  0
LINE
  5
62C
100
AcDbEntity
  8
LAY-2
  6
CONTINUOUS
 62
     4
100
AcDbLine
 10
1535.0
 20
258.28
 30
0.0
 11
1965.08
 21
258.28
 31
0.0
  0
LINE
  5
62D
100
AcDbEntity
  8
LAY-2
  6
CONTINUOUS
 62
     1
100
AcDbLine
 10
1535.0
 20
287.56
 30
0.0
 11
1965.08
 21
287.56
 31
0.0
  0
LINE
  5
62E
100
AcDbEntity
  8
LAY-2
  6
CONTINUOUS
 62
     4
100
AcDbLine
 10
1535.0
 20
388.36
 30
0.0
 11
1965.08
 21
388.36
 31
0.0
  0
LINE
  5
62F
100
AcDbEntity
  8
LAY-2
  6
CONTINUOUS
 62
     1
100
AcDbLine
 10
1535.0
 20
321.16
 30
0.0
 11
1965.08
 21
321.16
 31
0.0
  0
LINE
  5
630
100
AcDbEntity
  8
LAY-2
  6
CONTINUOUS
 62
     1
100
AcDbLine
 10
1535.0
 20
354.76
 30
0.0
 11
1965.08
 21
354.76
 31
0.0
  0
LINE
  5
631
100
AcDbEntity
  8
LAY-2
  6
CONTINUOUS
 62
     1
100
AcDbLine
 10
1607.0
 20
388.36
 30
0.0
 11
1607.0
 21
287.56
 31
0.0
  0
LINE
  5
632
100
AcDbEntity
  8
LAY-2
  6
CONTINUOUS
 62
     4
100
AcDbLine
 10
1535.0
 20
229.0
 30
0.0
 11
1965.08
 21
229.0
 31
0.0
  0
LINE
  5
633
100
AcDbEntity
  8
LAY-2
  6
CONTINUOUS
 62
     4
100
AcDbLine
 10
1965.08
 20
229.0
 30
0.0
 11
1965.08
 21
388.36
 31
0.0
  0
LINE
  5
634
100
AcDbEntity
  8
LAY-2
  6
CONTINUOUS
 62
     4
100
AcDbLine
 10
1535.0
 20
229.0
 30
0.0
 11
1535.0
 21
388.36
 31
0.0
  0
TEXT
  5
635
100
AcDbEntity
  8
LAY-2
  6
CONTINUOUS
 62
     3
100
AcDbText
 10
1546.328
 20
326.152
 30
0.0
 40
24.0
  1
型式
 41
0.864119
  7
EXCADSTD
 72
     5
 11
1591.588081
 21
326.152
 31
0.0
100
AcDbText
  0
TEXT
  5
636
100
AcDbEntity
  8
LAY-2
  6
CONTINUOUS
 62
     3
100
AcDbText
 10
1545.752
 20
292.36
 30
0.0
 40
24.0
  1
品名
 41
0.864119
  7
EXCADSTD
 72
     5
 11
1591.012081
 21
292.36
 31
0.0
100
AcDbText
  0
TEXT
  5
637
100
AcDbEntity
  8
LAY-2
  6
CONTINUOUS
 62
     3
100
AcDbText
 10
1687.832
 20
261.448
 30
0.0
 40
24.0
  1
外観図
 41
0.945653
  7
EXCADSTD
 72
     5
 11
1768.888
 21
261.448
 31
0.0
100
AcDbText
  0
TEXT
  5
638
100
AcDbEntity
  8
LAY-2
  6
CONTINUOUS
 62
     3
100
AcDbText
 10
1538.072
 20
358.984
 30
0.0
 40
24.0
  1
作成日
 41
0.84
  7
EXCADSTD
 72
     5
 11
1610.072
 21
358.984
 31
0.0
100
AcDbText
  0
TEXT
  5
639
100
AcDbEntity
  8
LAY-2
  6
CONTINUOUS
 62
     3
100
AcDbText
 10
1618.8848
 20
292.3792
 30
0.0
 40
24.0
  1
ガバナ
 41
0.84
  7
EXCADSTD
 72
     5
 11
1690.8848
 21
292.3792
 31
0.0
100
AcDbText
  0
TEXT
  5
63A
100
AcDbEntity
  8
LAY-2
  6
CONTINUOUS
 62
     3
100
AcDbText
 10
1618.9232
 20
325.864
 30
0.0
 40
24.0
  1
ＳＧ－３６ＡＲＡ
 41
0.84
  7
EXCADSTD
 72
     5
 11
1810.9232
 21
325.864
 31
0.0
100
AcDbText
  0
INSERT
  5
63B
100
AcDbEntity
  8
LAY-2
  6
CONTINUOUS
 62
     0
100
AcDbBlockReference
  2
SYM-1
 10
1744.658083
 20
244.0255
 30
0.0
 41
3.51
 42
3.51
  0
TEXT
  5
63C
100
AcDbEntity
  8
LAY-2
  6
CONTINUOUS
 62
     3
100
AcDbText
 10
1631.576
 20
358.984
 30
0.0
 40
24.0
  1
２０１８年　８月　３日
 41
0.84
  7
EXCADSTD
 72
     5
 11
1895.576
 21
358.984
 31
0.0
100
AcDbText
  0
TEXT
  5
63D
100
AcDbEntity
  8
LAY-5
  6
CONTINUOUS
 62
     3
100
AcDbText
 10
741.0
 20
865.049944
 30
0.0
 40
30.0
  1
φ
 50
90.0
 41
0.84
  7
EXCADSTD
 72
     5
 11
741.0
 21
889.049944
 31
0.0
100
AcDbText
  0
TEXT
  5
63E
100
AcDbEntity
  8
LAY-5
  6
CONTINUOUS
 62
     3
100
AcDbText
 10
741.0
 20
895.049944
 30
0.0
 40
30.0
  1
４００
 50
90.0
 41
0.84
  7
EXCADSTD
 72
     5
 11
741.0
 21
985.049944
 31
0.0
100
AcDbText
  0
LINE
  5
63F
100
AcDbEntity
  8
LAY-5
  6
CONTINUOUS
 62
     1
100
AcDbLine
 10
444.266753
 20
1125.049944
 30
0.0
 11
742.5
 21
1125.049944
 31
0.0
  0
LINE
  5
640
100
AcDbEntity
  8
LAY-5
  6
CONTINUOUS
 62
     1
100
AcDbLine
 10
444.266753
 20
725.049944
 30
0.0
 11
742.5
 21
725.049944
 31
0.0
  0
LINE
  5
641
100
AcDbEntity
  8
LAY-5
  6
CONTINUOUS
 62
     1
100
AcDbLine
 10
742.0
 20
1125.049944
 30
0.0
 11
742.0
 21
725.049944
 31
0.0
  0
LINE
  5
642
100
AcDbEntity
  8
LAY-5
  6
CONTINUOUS
 62
     1
100
AcDbLine
 10
742.333333
 20
1123.049944
 30
0.0
 11
742.0
 21
1125.049944
 31
0.0
  0
LINE
  5
643
100
AcDbEntity
  8
LAY-5
  6
CONTINUOUS
 62
     1
100
AcDbLine
 10
742.0
 20
1125.049944
 30
0.0
 11
741.666667
 21
1123.049944
 31
0.0
  0
LINE
  5
644
100
AcDbEntity
  8
LAY-5
  6
CONTINUOUS
 62
     1
100
AcDbLine
 10
741.666667
 20
727.049944
 30
0.0
 11
742.0
 21
725.049944
 31
0.0
  0
LINE
  5
645
100
AcDbEntity
  8
LAY-5
  6
CONTINUOUS
 62
     1
100
AcDbLine
 10
742.0
 20
725.049944
 30
0.0
 11
742.333333
 21
727.049944
 31
0.0
  0
TEXT
  5
646
100
AcDbEntity
  8
LAY-5
  6
CONTINUOUS
 62
     3
100
AcDbText
 10
447.241753
 20
616.0
 30
0.0
 40
30.0
  1
３８１
 41
0.84
  7
EXCADSTD
 72
     5
 11
537.241753
 21
616.0
 31
0.0
100
AcDbText
  0
LINE
  5
647
100
AcDbEntity
  8
LAY-5
  6
CONTINUOUS
 62
     1
100
AcDbLine
 10
682.716753
 20
925.049944
 30
0.0
 11
682.716753
 21
614.5
 31
0.0
  0
LINE
  5
648
100
AcDbEntity
  8
LAY-5
  6
CONTINUOUS
 62
     1
100
AcDbLine
 10
301.766753
 20
795.049944
 30
0.0
 11
301.766753
 21
614.5
 31
0.0
  0
LINE
  5
649
100
AcDbEntity
  8
LAY-5
  6
CONTINUOUS
 62
     1
100
AcDbLine
 10
682.716753
 20
615.0
 30
0.0
 11
301.766753
 21
615.0
 31
0.0
  0
LINE
  5
64A
100
AcDbEntity
  8
LAY-5
  6
CONTINUOUS
 62
     1
100
AcDbLine
 10
680.716753
 20
614.666667
 30
0.0
 11
682.716753
 21
615.0
 31
0.0
  0
LINE
  5
64B
100
AcDbEntity
  8
LAY-5
  6
CONTINUOUS
 62
     1
100
AcDbLine
 10
682.716753
 20
615.0
 30
0.0
 11
680.716753
 21
615.333333
 31
0.0
  0
LINE
  5
64C
100
AcDbEntity
  8
LAY-5
  6
CONTINUOUS
 62
     1
100
AcDbLine
 10
303.766753
 20
615.333333
 30
0.0
 11
301.766753
 21
615.0
 31
0.0
  0
LINE
  5
64D
100
AcDbEntity
  8
LAY-5
  6
CONTINUOUS
 62
     1
100
AcDbLine
 10
301.766753
 20
615.0
 30
0.0
 11
303.766753
 21
614.666667
 31
0.0
  0
TEXT
  5
64E
100
AcDbEntity
  8
LAY-5
  6
CONTINUOUS
 62
     3
100
AcDbText
 10
231.766753
 20
616.0
 30
0.0
 40
30.0
  1
８０
 41
0.84
  7
EXCADSTD
 72
     5
 11
286.762753
 21
616.0
 31
0.0
100
AcDbText
  0
LINE
  5
64F
100
AcDbEntity
  8
LAY-5
  6
CONTINUOUS
 62
     1
100
AcDbLine
 10
301.766753
 20
795.049944
 30
0.0
 11
301.766753
 21
614.5
 31
0.0
  0
LINE
  5
650
100
AcDbEntity
  8
LAY-5
  6
CONTINUOUS
 62
     1
100
AcDbLine
 10
221.766753
 20
878.712775
 30
0.0
 11
221.766753
 21
614.5
 31
0.0
  0
LINE
  5
651
100
AcDbEntity
  8
LAY-5
  6
CONTINUOUS
 62
     1
100
AcDbLine
 10
301.766753
 20
615.0
 30
0.0
 11
221.766753
 21
615.0
 31
0.0
  0
LINE
  5
652
100
AcDbEntity
  8
LAY-5
  6
CONTINUOUS
 62
     1
100
AcDbLine
 10
299.766753
 20
614.666667
 30
0.0
 11
301.766753
 21
615.0
 31
0.0
  0
LINE
  5
653
100
AcDbEntity
  8
LAY-5
  6
CONTINUOUS
 62
     1
100
AcDbLine
 10
301.766753
 20
615.0
 30
0.0
 11
299.766753
 21
615.333333
 31
0.0
  0
LINE
  5
654
100
AcDbEntity
  8
LAY-5
  6
CONTINUOUS
 62
     1
100
AcDbLine
 10
223.766753
 20
615.333333
 30
0.0
 11
221.766753
 21
615.0
 31
0.0
  0
LINE
  5
655
100
AcDbEntity
  8
LAY-5
  6
CONTINUOUS
 62
     1
100
AcDbLine
 10
221.766753
 20
615.0
 30
0.0
 11
223.766753
 21
614.666667
 31
0.0
  0
TEXT
  5
656
100
AcDbEntity
  8
LAY-5
  6
CONTINUOUS
 62
     3
100
AcDbText
 10
148.0
 20
880.049944
 30
0.0
 40
30.0
  1
２６０
 50
90.0
 41
0.84
  7
EXCADSTD
 72
     5
 11
148.0
 21
970.049944
 31
0.0
100
AcDbText
  0
LINE
  5
657
100
AcDbEntity
  8
LAY-5
  6
CONTINUOUS
 62
     1
100
AcDbLine
 10
255.578732
 20
1055.049944
 30
0.0
 11
148.5
 21
1055.049944
 31
0.0
  0
LINE
  5
658
100
AcDbEntity
  8
LAY-5
  6
CONTINUOUS
 62
     1
100
AcDbLine
 10
255.578732
 20
795.049944
 30
0.0
 11
148.5
 21
795.049944
 31
0.0
  0
LINE
  5
659
100
AcDbEntity
  8
LAY-5
  6
CONTINUOUS
 62
     1
100
AcDbLine
 10
149.0
 20
1055.049944
 30
0.0
 11
149.0
 21
795.049944
 31
0.0
  0
LINE
  5
65A
100
AcDbEntity
  8
LAY-5
  6
CONTINUOUS
 62
     1
100
AcDbLine
 10
149.333333
 20
1053.049944
 30
0.0
 11
149.0
 21
1055.049944
 31
0.0
  0
LINE
  5
65B
100
AcDbEntity
  8
LAY-5
  6
CONTINUOUS
 62
     1
100
AcDbLine
 10
149.0
 20
1055.049944
 30
0.0
 11
148.666667
 21
1053.049944
 31
0.0
  0
LINE
  5
65C
100
AcDbEntity
  8
LAY-5
  6
CONTINUOUS
 62
     1
100
AcDbLine
 10
148.666667
 20
797.049944
 30
0.0
 11
149.0
 21
795.049944
 31
0.0
  0
LINE
  5
65D
100
AcDbEntity
  8
LAY-5
  6
CONTINUOUS
 62
     1
100
AcDbLine
 10
149.0
 20
795.049944
 30
0.0
 11
149.333333
 21
797.049944
 31
0.0
  0
POLYLINE
  5
65E
100
AcDbEntity
  8
LAY-5
  6
CONTINUOUS
 62
     1
100
AcDb2dPolyline
 66
     1
 10
0.0
 20
0.0
 30
0.0
 70
   128
  0
VERTEX
  5
65F
100
AcDbEntity
  8
LAY-5
  6
CONTINUOUS
 62
     1
100
AcDbVertex
100
AcDb2dVertex
 10
489.287735
 20
949.1845
 30
0.0
  0
VERTEX
  5
660
100
AcDbEntity
  8
LAY-5
  6
CONTINUOUS
 62
     1
100
AcDbVertex
100
AcDb2dVertex
 10
540.935643
 20
1038.641302
 30
0.0
  0
VERTEX
  5
661
100
AcDbEntity
  8
LAY-5
  6
CONTINUOUS
 62
     1
100
AcDbVertex
100
AcDb2dVertex
 10
647.4
 20
1038.641302
 30
0.0
  0
SEQEND
  5
662
100
AcDbEntity
  8
LAY-5
  6
CONTINUOUS
 62
     1
  0
LINE
  5
663
100
AcDbEntity
  8
LAY-5
  6
CONTINUOUS
 62
     1
100
AcDbLine
 10
489.99906
 20
951.083218
 30
0.0
 11
489.287735
 21
949.1845
 31
0.0
  0
LINE
  5
664
100
AcDbEntity
  8
LAY-5
  6
CONTINUOUS
 62
     1
100
AcDbLine
 10
489.287735
 20
949.1845
 30
0.0
 11
490.57641
 21
950.749884
 31
0.0
  0
TEXT
  5
665
100
AcDbEntity
  8
LAY-5
  6
CONTINUOUS
 62
     3
100
AcDbText
 10
549.167822
 20
1038.941302
 30
0.0
 40
30.0
  1
Ｒｃ１
 41
0.84
  7
EXCADSTD
 72
     5
 11
639.167822
 21
1038.941302
 31
0.0
100
AcDbText
  0
POLYLINE
  5
666
100
AcDbEntity
  8
LAY-5
  6
CONTINUOUS
 62
     1
100
AcDb2dPolyline
 66
     1
 10
0.0
 20
0.0
 30
0.0
 70
   128
  0
VERTEX
  5
667
100
AcDbEntity
  8
LAY-5
  6
CONTINUOUS
 62
     1
100
AcDbVertex
100
AcDb2dVertex
 10
301.766753
 20
1055.049944
 30
0.0
  0
VERTEX
  5
668
100
AcDbEntity
  8
LAY-5
  6
CONTINUOUS
 62
     1
100
AcDbVertex
100
AcDb2dVertex
 10
383.608229
 20
1196.803539
 30
0.0
  0
VERTEX
  5
669
100
AcDbEntity
  8
LAY-5
  6
CONTINUOUS
 62
     1
100
AcDbVertex
100
AcDb2dVertex
 10
565.0
 20
1196.803539
 30
0.0
  0
SEQEND
  5
66A
100
AcDbEntity
  8
LAY-5
  6
CONTINUOUS
 62
     1
  0
LINE
  5
66B
100
AcDbEntity
  8
LAY-5
  6
CONTINUOUS
 62
     1
100
AcDbLine
 10
302.478078
 20
1056.948661
 30
0.0
 11
301.766753
 21
1055.049944
 31
0.0
  0
LINE
  5
66C
100
AcDbEntity
  8
LAY-5
  6
CONTINUOUS
 62
     1
100
AcDbLine
 10
301.766753
 20
1055.049944
 30
0.0
 11
303.055428
 21
1056.615328
 31
0.0
  0
TEXT
  5
66D
100
AcDbEntity
  8
LAY-5
  6
CONTINUOUS
 62
     3
100
AcDbText
 10
429.304115
 20
1197.103539
 30
0.0
 40
30.0
  1
Ｒｃ２
 41
0.84
  7
EXCADSTD
 72
     5
 11
519.304115
 21
1197.103539
 31
0.0
100
AcDbText
  0
POLYLINE
  5
66E
100
AcDbEntity
  8
LAY-5
  6
CONTINUOUS
 62
     1
100
AcDb2dPolyline
 66
     1
 10
0.0
 20
0.0
 30
0.0
 70
   128
  0
VERTEX
  5
66F
100
AcDbEntity
  8
LAY-5
  6
CONTINUOUS
 62
     1
100
AcDbVertex
100
AcDb2dVertex
 10
301.766753
 20
795.049944
 30
0.0
  0
VERTEX
  5
670
100
AcDbEntity
  8
LAY-5
  6
CONTINUOUS
 62
     1
100
AcDbVertex
100
AcDb2dVertex
 10
373.050962
 20
529.013655
 30
0.0
  0
VERTEX
  5
671
100
AcDbEntity
  8
LAY-5
  6
CONTINUOUS
 62
     1
100
AcDbVertex
100
AcDb2dVertex
 10
586.0
 20
529.013655
 30
0.0
  0
SEQEND
  5
672
100
AcDbEntity
  8
LAY-5
  6
CONTINUOUS
 62
     1
  0
LINE
  5
673
100
AcDbEntity
  8
LAY-5
  6
CONTINUOUS
 62
     1
100
AcDbLine
 10
302.606367
 20
793.204365
 30
0.0
 11
301.766753
 21
795.049944
 31
0.0
  0
LINE
  5
674
100
AcDbEntity
  8
LAY-5
  6
CONTINUOUS
 62
     1
100
AcDbLine
 10
301.766753
 20
795.049944
 30
0.0
 11
301.962416
 21
793.031819
 31
0.0
  0
TEXT
  5
675
100
AcDbEntity
  8
LAY-5
  6
CONTINUOUS
 62
     3
100
AcDbText
 10
434.525481
 20
529.313655
 30
0.0
 40
30.0
  1
Ｒｃ２
 41
0.84
  7
EXCADSTD
 72
     5
 11
524.525481
 21
529.313655
 31
0.0
100
AcDbText
  0
ENDSEC
  0
SECTION
  2
OBJECTS
  0
DICTIONARY
  5
19
100
AcDbDictionary
  3
ACAD_GROUP
350
1A
  3
ACAD_MLINESTYLE
350
1B
  0
DICTIONARY
  5
1A
102
{ACAD_REACTORS
330
19
102
}
100
AcDbDictionary
  0
DICTIONARY
  5
1B
102
{ACAD_REACTORS
330
19
102
}
100
AcDbDictionary
  3
STANDARD
350
1C
  0
MLINESTYLE
  5
1C
102
{ACAD_REACTORS
330
1B
102
}
100
AcDbMlineStyle
  2
Standard
 70
     0
  3

 62
     0
 51
90.0
 52
90.0
 71
     2
 49
0.5
 62
   256
  6
ByLayer
 49
-0.5
 62
   256
  6
ByLayer
  0
ENDSEC
  0
EOF
