  0
SECTION
  2
HEADER
  9
$ACADVER
  1
AC1014
  9
$ACADMAINTVER
 70
     9
  9
$DWGCODEPAGE
  3
ANSI_932
  9
$INSBASE
 10
0.0
 20
0.0
 30
0.0
  9
$EXTMIN
 10
69.33307050000002
 20
27.61908856988217
 30
0.0
  9
$EXTMAX
 10
402.91
 20
283.53601288901
 30
0.0
  9
$LIMMIN
 10
0.0
 20
0.0
  9
$LIMMAX
 10
420.0
 20
297.0
  9
$ORTHOMODE
 70
     0
  9
$REGENMODE
 70
     1
  9
$FILLMODE
 70
     1
  9
$QTEXTMODE
 70
     0
  9
$MIRRTEXT
 70
     1
  9
$DRAGMODE
 70
     2
  9
$LTSCALE
 40
1.0
  9
$OSMODE
 70
    37
  9
$ATTMODE
 70
     1
  9
$TEXTSIZE
 40
2.5
  9
$TRACEWID
 40
1.0
  9
$TEXTSTYLE
  7
STANDARD
  9
$CLAYER
  8
LAY-1
  9
$CELTYPE
  6
BYLAYER
  9
$CECOLOR
 62
   256
  9
$CELTSCALE
 40
1.0
  9
$DELOBJ
 70
     1
  9
$DISPSILH
 70
     0
  9
$DIMSCALE
 40
1.0
  9
$DIMASZ
 40
2.5
  9
$DIMEXO
 40
0.625
  9
$DIMDLI
 40
3.75
  9
$DIMRND
 40
0.0
  9
$DIMDLE
 40
0.0
  9
$DIMEXE
 40
1.25
  9
$DIMTP
 40
0.0
  9
$DIMTM
 40
0.0
  9
$DIMTXT
 40
2.5
  9
$DIMCEN
 40
2.5
  9
$DIMTSZ
 40
0.0
  9
$DIMTOL
 70
     0
  9
$DIMLIM
 70
     0
  9
$DIMTIH
 70
     0
  9
$DIMTOH
 70
     0
  9
$DIMSE1
 70
     0
  9
$DIMSE2
 70
     0
  9
$DIMTAD
 70
     1
  9
$DIMZIN
 70
     8
  9
$DIMBLK
  1

  9
$DIMASO
 70
     1
  9
$DIMSHO
 70
     1
  9
$DIMPOST
  1

  9
$DIMAPOST
  1

  9
$DIMALT
 70
     0
  9
$DIMALTD
 70
     3
  9
$DIMALTF
 40
0.03937007874016
  9
$DIMLFAC
 40
1.0
  9
$DIMTOFL
 70
     1
  9
$DIMTVP
 40
0.0
  9
$DIMTIX
 70
     0
  9
$DIMSOXD
 70
     0
  9
$DIMSAH
 70
     0
  9
$DIMBLK1
  1

  9
$DIMBLK2
  1

  9
$DIMSTYLE
  2
ISO-25
  9
$DIMCLRD
 70
     0
  9
$DIMCLRE
 70
     0
  9
$DIMCLRT
 70
     0
  9
$DIMTFAC
 40
1.0
  9
$DIMGAP
 40
0.625
  9
$DIMJUST
 70
     0
  9
$DIMSD1
 70
     0
  9
$DIMSD2
 70
     0
  9
$DIMTOLJ
 70
     0
  9
$DIMTZIN
 70
     8
  9
$DIMALTZ
 70
     0
  9
$DIMALTTZ
 70
     0
  9
$DIMFIT
 70
     3
  9
$DIMUPT
 70
     0
  9
$DIMUNIT
 70
     2
  9
$DIMDEC
 70
     2
  9
$DIMTDEC
 70
     2
  9
$DIMALTU
 70
     2
  9
$DIMALTTD
 70
     3
  9
$DIMTXSTY
  7
STANDARD
  9
$DIMAUNIT
 70
     0
  9
$LUNITS
 70
     2
  9
$LUPREC
 70
     4
  9
$SKETCHINC
 40
1.0
  9
$FILLETRAD
 40
10.0
  9
$AUNITS
 70
     0
  9
$AUPREC
 70
     0
  9
$MENU
  1
.
  9
$ELEVATION
 40
0.0
  9
$PELEVATION
 40
0.0
  9
$THICKNESS
 40
0.0
  9
$LIMCHECK
 70
     0
  9
$CHAMFERA
 40
0.0
  9
$CHAMFERB
 40
0.0
  9
$CHAMFERC
 40
0.0
  9
$CHAMFERD
 40
0.0
  9
$SKPOLY
 70
     0
  9
$TDCREATE
 40
2459287.393170718
  9
$TDUPDATE
 40
2459287.393171621
  9
$TDINDWG
 40
0.0000000116
  9
$TDUSRTIMER
 40
0.0000000116
  9
$USRTIMER
 70
     1
  9
$ANGBASE
 50
0.0
  9
$ANGDIR
 70
     0
  9
$PDMODE
 70
     0
  9
$PDSIZE
 40
0.0
  9
$PLINEWID
 40
0.0
  9
$COORDS
 70
     1
  9
$SPLFRAME
 70
     0
  9
$SPLINETYPE
 70
     6
  9
$SPLINESEGS
 70
     8
  9
$ATTDIA
 70
     0
  9
$ATTREQ
 70
     1
  9
$HANDLING
 70
     1
  9
$HANDSEED
  5
501
  9
$SURFTAB1
 70
     6
  9
$SURFTAB2
 70
     6
  9
$SURFTYPE
 70
     6
  9
$SURFU
 70
     6
  9
$SURFV
 70
     6
  9
$UCSNAME
  2

  9
$UCSORG
 10
0.0
 20
0.0
 30
0.0
  9
$UCSXDIR
 10
1.0
 20
0.0
 30
0.0
  9
$UCSYDIR
 10
0.0
 20
1.0
 30
0.0
  9
$PUCSNAME
  2

  9
$PUCSORG
 10
0.0
 20
0.0
 30
0.0
  9
$PUCSXDIR
 10
1.0
 20
0.0
 30
0.0
  9
$PUCSYDIR
 10
0.0
 20
1.0
 30
0.0
  9
$USERI1
 70
     0
  9
$USERI2
 70
     0
  9
$USERI3
 70
     0
  9
$USERI4
 70
     0
  9
$USERI5
 70
     0
  9
$USERR1
 40
0.0
  9
$USERR2
 40
0.0
  9
$USERR3
 40
0.0
  9
$USERR4
 40
0.0
  9
$USERR5
 40
0.0
  9
$WORLDVIEW
 70
     1
  9
$SHADEDGE
 70
     3
  9
$SHADEDIF
 70
    70
  9
$TILEMODE
 70
     1
  9
$MAXACTVP
 70
    64
  9
$PINSBASE
 10
0.0
 20
0.0
 30
0.0
  9
$PLIMCHECK
 70
     0
  9
$PEXTMIN
 10
1.000000000000000E+20
 20
1.000000000000000E+20
 30
1.000000000000000E+20
  9
$PEXTMAX
 10
-1.000000000000000E+20
 20
-1.000000000000000E+20
 30
-1.000000000000000E+20
  9
$PLIMMIN
 10
0.0
 20
0.0
  9
$PLIMMAX
 10
420.0
 20
297.0
  9
$UNITMODE
 70
     0
  9
$VISRETAIN
 70
     1
  9
$PLINEGEN
 70
     0
  9
$PSLTSCALE
 70
     1
  9
$TREEDEPTH
 70
  3020
  9
$PICKSTYLE
 70
     1
  9
$CMLSTYLE
  2
STANDARD
  9
$CMLJUST
 70
     0
  9
$CMLSCALE
 40
20.0
  9
$PROXYGRAPHICS
 70
     1
  9
$MEASUREMENT
 70
     1
  0
ENDSEC
  0
SECTION
  2
CLASSES
  0
CLASS
  1
ACDBDICTIONARYWDFLT
  2
AcDbDictionaryWithDefault
  3
ObjectDBX Classes
 90
        0
280
     0
281
     0
  0
CLASS
  1
VISUALSTYLE
  2
AcDbVisualStyle
  3
ObjectDBX Classes
 90
     4095
280
     0
281
     0
  0
CLASS
  1
MATERIAL
  2
AcDbMaterial
  3
ObjectDBX Classes
 90
     1153
280
     0
281
     0
  0
CLASS
  1
SCALE
  2
AcDbScale
  3
ObjectDBX Classes
 90
     1153
280
     0
281
     0
  0
CLASS
  1
TABLESTYLE
  2
AcDbTableStyle
  3
ObjectDBX Classes
 90
     4095
280
     0
281
     0
  0
CLASS
  1
MLEADERSTYLE
  2
AcDbMLeaderStyle
  3
ACDB_MLEADERSTYLE_CLASS
 90
     4095
280
     0
281
     0
  0
CLASS
  1
SUN
  2
AcDbSun
  3
SCENEOE
 90
     1153
280
     0
281
     0
  0
CLASS
  1
DICTIONARYVAR
  2
AcDbDictionaryVar
  3
ObjectDBX Classes
 90
        0
280
     0
281
     0
  0
CLASS
  1
XRECORD
  2
AcDbXrecord
  3
ObjectDBX Classes
 90
        0
280
     0
281
     0
  0
CLASS
  1
LWPOLYLINE
  2
AcDbPolyline
  3
ObjectDBX Classes
 90
        0
280
     0
281
     1
  0
CLASS
  1
HATCH
  2
AcDbHatch
  3
ObjectDBX Classes
 90
        0
280
     0
281
     1
  0
CLASS
  1
ACDBPLACEHOLDER
  2
AcDbPlaceHolder
  3
ObjectDBX Classes
 90
        0
280
     0
281
     0
  0
CLASS
  1
LAYOUT
  2
AcDbLayout
  3
ObjectDBX Classes
 90
        0
280
     0
281
     0
  0
ENDSEC
  0
SECTION
  2
TABLES
  0
TABLE
  2
VPORT
  5
8
102
{ACAD_XDICTIONARY
360
4F6
102
}
330
0
100
AcDbSymbolTable
 70
     1
  0
VPORT
  5
29
330
8
100
AcDbSymbolTableRecord
100
AcDbViewportTableRecord
  2
*ACTIVE
 70
     0
 10
0.0
 20
0.0
 11
1.0
 21
1.0
 12
235.905
 22
155.5775507294461
 13
0.0
 23
0.0
 14
10.0
 24
10.0
 15
10.0
 25
10.0
 16
0.0
 26
0.0
 36
1.0
 17
0.0
 27
0.0
 37
0.0
 40
255.9169243191278
 41
1.305150102474232
 42
50.0
 43
0.0
 44
0.0
 50
0.0
 51
0.0
 71
     0
 72
  1000
 73
     1
 74
     3
 75
     0
 76
     0
 77
     0
 78
     0
  0
ENDTAB
  0
TABLE
  2
LTYPE
  5
5
330
0
100
AcDbSymbolTable
 70
     7
  0
LTYPE
  5
14
330
5
100
AcDbSymbolTableRecord
100
AcDbLinetypeTableRecord
  2
BYBLOCK
 70
     0
  3

 72
    65
 73
     0
 40
0.0
  0
LTYPE
  5
15
330
5
100
AcDbSymbolTableRecord
100
AcDbLinetypeTableRecord
  2
BYLAYER
 70
     0
  3

 72
    65
 73
     0
 40
0.0
  0
LTYPE
  5
16
330
5
100
AcDbSymbolTableRecord
100
AcDbLinetypeTableRecord
  2
CONTINUOUS
 70
     0
  3
Solid line
 72
    65
 73
     0
 40
0.0
  0
LTYPE
  5
6E
330
5
100
AcDbSymbolTableRecord
100
AcDbLinetypeTableRecord
  2
EXLTYPE0
 70
     0
  3
破線
 72
    65
 73
     2
 40
4.0
 49
3.0
 74
     0
 49
-1.0
 74
     0
  0
LTYPE
  5
6F
330
5
100
AcDbSymbolTableRecord
100
AcDbLinetypeTableRecord
  2
EXLTYPE1
 70
     0
  3
点線
 72
    65
 73
     2
 40
2.0
 49
1.0
 74
     0
 49
-1.0
 74
     0
  0
LTYPE
  5
70
330
5
100
AcDbSymbolTableRecord
100
AcDbLinetypeTableRecord
  2
EXLTYPE2
 70
     0
  3
一点鎖線
 72
    65
 73
     4
 40
33.0
 49
30.0
 74
     0
 49
-1.0
 74
     0
 49
1.0
 74
     0
 49
-1.0
 74
     0
  0
LTYPE
  5
71
330
5
100
AcDbSymbolTableRecord
100
AcDbLinetypeTableRecord
  2
EXLTYPE3
 70
     0
  3
二点鎖線
 72
    65
 73
     6
 40
35.0
 49
30.0
 74
     0
 49
-1.0
 74
     0
 49
1.0
 74
     0
 49
-1.0
 74
     0
 49
1.0
 74
     0
 49
-1.0
 74
     0
  0
LTYPE
  5
72
330
5
100
AcDbSymbolTableRecord
100
AcDbLinetypeTableRecord
  2
EXLTYPE4
 70
     0
  3
三点鎖線
 72
    65
 73
     8
 40
37.0
 49
30.0
 74
     0
 49
-1.0
 74
     0
 49
1.0
 74
     0
 49
-1.0
 74
     0
 49
1.0
 74
     0
 49
-1.0
 74
     0
 49
1.0
 74
     0
 49
-1.0
 74
     0
  0
LTYPE
  5
73
330
5
100
AcDbSymbolTableRecord
100
AcDbLinetypeTableRecord
  2
EXLTYPE5
 70
     0
  3
四点鎖線
 72
    65
 73
    10
 40
39.0
 49
30.0
 74
     0
 49
-1.0
 74
     0
 49
1.0
 74
     0
 49
-1.0
 74
     0
 49
1.0
 74
     0
 49
-1.0
 74
     0
 49
1.0
 74
     0
 49
-1.0
 74
     0
 49
1.0
 74
     0
 49
-1.0
 74
     0
  0
ENDTAB
  0
TABLE
  2
LAYER
  5
2
330
0
100
AcDbSymbolTable
 70
     4
  0
LAYER
  5
10
330
2
100
AcDbSymbolTableRecord
100
AcDbLayerTableRecord
  2
0
 70
     0
 62
     7
  6
CONTINUOUS
  0
LAYER
  5
76
330
2
100
AcDbSymbolTableRecord
100
AcDbLayerTableRecord
  2
LAY-1
 70
     0
 62
     3
  6
CONTINUOUS
  0
LAYER
  5
77
330
2
100
AcDbSymbolTableRecord
100
AcDbLayerTableRecord
  2
LAY-2
 70
     0
 62
     7
  6
CONTINUOUS
  0
LAYER
  5
78
330
2
100
AcDbSymbolTableRecord
100
AcDbLayerTableRecord
  2
LAY-5
 70
     0
 62
     1
  6
CONTINUOUS
  0
ENDTAB
  0
TABLE
  2
STYLE
  5
3
330
0
100
AcDbSymbolTable
 70
     3
  0
STYLE
  5
11
330
3
100
AcDbSymbolTableRecord
100
AcDbTextStyleTableRecord
  2
STANDARD
 70
     0
 40
0.0
 41
1.0
 50
0.0
 71
     0
 42
2.5
  3
monotxt
  4
extfont
  0
STYLE
  5
74
330
3
100
AcDbSymbolTableRecord
100
AcDbTextStyleTableRecord
  2
EXCADSTD
 70
     0
 40
0.0
 41
1.0
 50
0.0
 71
     0
 42
2.5
  3
monotxt
  4
extfont
  0
STYLE
  5
75
330
3
100
AcDbSymbolTableRecord
100
AcDbTextStyleTableRecord
  2
EXCADVERT
 70
     4
 40
0.0
 41
1.0
 50
0.0
 71
     0
 42
2.5
  3
monotxt
  4
extfont
  0
ENDTAB
  0
TABLE
  2
VIEW
  5
6
330
0
100
AcDbSymbolTable
 70
     0
  0
ENDTAB
  0
TABLE
  2
UCS
  5
7
330
0
100
AcDbSymbolTable
 70
     0
  0
ENDTAB
  0
TABLE
  2
APPID
  5
9
330
0
100
AcDbSymbolTable
 70
     2
  0
APPID
  5
12
330
9
100
AcDbSymbolTableRecord
100
AcDbRegAppTableRecord
  2
ACAD
 70
     0
  0
APPID
  5
500
330
9
100
AcDbSymbolTableRecord
100
AcDbRegAppTableRecord
  2
ACAD_MLEADERVER
 70
     0
  0
ENDTAB
  0
TABLE
  2
DIMSTYLE
  5
A
330
0
100
AcDbSymbolTable
 70
     1
  0
DIMSTYLE
105
27
330
A
100
AcDbSymbolTableRecord
100
AcDbDimStyleTableRecord
  2
ISO-25
 70
     0
  3

  4

  5

  6

  7

 40
1.0
 41
2.5
 42
0.625
 43
3.75
 44
1.25
 45
0.0
 46
0.0
 47
0.0
 48
0.0
140
2.5
141
2.5
142
0.0
143
0.03937007874016
144
1.0
145
0.0
146
1.0
147
0.625
 71
     0
 72
     0
 73
     0
 74
     0
 75
     0
 76
     0
 77
     1
 78
     8
170
     0
171
     3
172
     1
173
     0
174
     0
175
     0
176
     0
177
     0
178
     0
270
     2
271
     2
272
     2
273
     2
274
     3
340
11
275
     0
280
     0
281
     0
282
     0
283
     0
284
     8
285
     0
286
     0
287
     5
288
     0
  0
ENDTAB
  0
TABLE
  2
BLOCK_RECORD
  5
1
330
0
100
AcDbSymbolTable
 70
    15
  0
BLOCK_RECORD
  5
1F
330
1
100
AcDbSymbolTableRecord
100
AcDbBlockTableRecord
  2
*MODEL_SPACE
  0
BLOCK_RECORD
  5
1B
330
1
100
AcDbSymbolTableRecord
100
AcDbBlockTableRecord
  2
*PAPER_SPACE
  0
BLOCK_RECORD
  5
79
330
1
100
AcDbSymbolTableRecord
100
AcDbBlockTableRecord
  2
EX_NORM
  0
BLOCK_RECORD
  5
7C
330
1
100
AcDbSymbolTableRecord
100
AcDbBlockTableRecord
  2
EX_BNORM
  0
BLOCK_RECORD
  5
7F
330
1
100
AcDbSymbolTableRecord
100
AcDbBlockTableRecord
  2
EX_BCIR
  0
BLOCK_RECORD
  5
82
330
1
100
AcDbSymbolTableRecord
100
AcDbBlockTableRecord
  2
EX_RCIVIL
  0
BLOCK_RECORD
  5
85
330
1
100
AcDbSymbolTableRecord
100
AcDbBlockTableRecord
  2
EX_SLANT
  0
BLOCK_RECORD
  5
88
330
1
100
AcDbSymbolTableRecord
100
AcDbBlockTableRecord
  2
EX_NONE
  0
BLOCK_RECORD
  5
8B
330
1
100
AcDbSymbolTableRecord
100
AcDbBlockTableRecord
  2
EX_CIVIL
  0
BLOCK_RECORD
  5
8E
330
1
100
AcDbSymbolTableRecord
100
AcDbBlockTableRecord
  2
EX_WCIR
  0
BLOCK_RECORD
  5
91
330
1
100
AcDbSymbolTableRecord
100
AcDbBlockTableRecord
  2
EX_WCIR2
  0
BLOCK_RECORD
  5
94
330
1
100
AcDbSymbolTableRecord
100
AcDbBlockTableRecord
  2
EX_WNORM
  0
BLOCK_RECORD
  5
97
330
1
100
AcDbSymbolTableRecord
100
AcDbBlockTableRecord
  2
EX_NNORM
  0
BLOCK_RECORD
  5
9A
330
1
100
AcDbSymbolTableRecord
100
AcDbBlockTableRecord
  2
EX_BBOX
  0
BLOCK_RECORD
  5
9D
330
1
100
AcDbSymbolTableRecord
100
AcDbBlockTableRecord
  2
EX_WBOX
  0
BLOCK_RECORD
  5
A0
330
1
100
AcDbSymbolTableRecord
100
AcDbBlockTableRecord
  2
EX_INTEGRAL
  0
BLOCK_RECORD
  5
A3
330
1
100
AcDbSymbolTableRecord
100
AcDbBlockTableRecord
  2
SYM-1
  0
ENDTAB
  0
ENDSEC
  0
SECTION
  2
BLOCKS
  0
BLOCK
  5
20
330
1F
100
AcDbEntity
  8
0
100
AcDbBlockBegin
  2
*MODEL_SPACE
 70
     0
 10
0.0
 20
0.0
 30
0.0
  3
*MODEL_SPACE
  1

  0
ENDBLK
  5
21
330
1F
100
AcDbEntity
  8
0
100
AcDbBlockEnd
  0
BLOCK
  5
1C
330
1B
100
AcDbEntity
 67
     1
  8
0
100
AcDbBlockBegin
  2
*PAPER_SPACE
 70
     0
 10
0.0
 20
0.0
 30
0.0
  3
*PAPER_SPACE
  1

  0
ENDBLK
  5
1D
330
1B
100
AcDbEntity
 67
     1
  8
0
100
AcDbBlockEnd
  0
BLOCK
  5
7A
330
79
100
AcDbEntity
  8
0
100
AcDbBlockBegin
  2
EX_NORM
 70
     0
 10
0.0
 20
0.0
 30
0.0
  3
EX_NORM
  1

  0
LINE
  5
A6
330
79
100
AcDbEntity
  8
0
  6
CONTINUOUS
 62
     0
100
AcDbLine
 10
0.0
 20
0.0
 30
0.0
 11
-1.0
 21
0.0
 31
0.0
  0
LINE
  5
A7
330
79
100
AcDbEntity
  8
0
  6
CONTINUOUS
 62
     0
100
AcDbLine
 10
0.0
 20
0.0
 30
0.0
 11
-1.0
 21
0.166666667
 31
0.0
  0
LINE
  5
A8
330
79
100
AcDbEntity
  8
0
  6
CONTINUOUS
 62
     0
100
AcDbLine
 10
0.0
 20
0.0
 30
0.0
 11
-1.0
 21
-0.166666667
 31
0.0
  0
ENDBLK
  5
7B
330
79
100
AcDbEntity
  8
0
100
AcDbBlockEnd
  0
BLOCK
  5
7D
330
7C
100
AcDbEntity
  8
0
100
AcDbBlockBegin
  2
EX_BNORM
 70
     0
 10
0.0
 20
0.0
 30
0.0
  3
EX_BNORM
  1

  0
LINE
  5
A9
330
7C
100
AcDbEntity
  8
0
  6
CONTINUOUS
 62
     0
100
AcDbLine
 10
0.0
 20
0.0
 30
0.0
 11
-1.0
 21
0.0
 31
0.0
  0
LINE
  5
AA
330
7C
100
AcDbEntity
  8
0
  6
CONTINUOUS
 62
     0
100
AcDbLine
 10
0.0
 20
0.0
 30
0.0
 11
-1.0
 21
0.166666667
 31
0.0
  0
LINE
  5
AB
330
7C
100
AcDbEntity
  8
0
  6
CONTINUOUS
 62
     0
100
AcDbLine
 10
0.0
 20
0.0
 30
0.0
 11
-1.0
 21
-0.166666667
 31
0.0
  0
LINE
  5
AC
330
7C
100
AcDbEntity
  8
0
  6
CONTINUOUS
 62
     0
100
AcDbLine
 10
0.0
 20
0.0
 30
0.0
 11
-1.0
 21
0.083333333
 31
0.0
  0
LINE
  5
AD
330
7C
100
AcDbEntity
  8
0
  6
CONTINUOUS
 62
     0
100
AcDbLine
 10
0.0
 20
0.0
 30
0.0
 11
-1.0
 21
-0.083333333
 31
0.0
  0
LINE
  5
AE
330
7C
100
AcDbEntity
  8
0
  6
CONTINUOUS
 62
     0
100
AcDbLine
 10
-1.0
 20
0.166666667
 30
0.0
 11
-1.0
 21
-0.166666667
 31
0.0
  0
ENDBLK
  5
7E
330
7C
100
AcDbEntity
  8
0
100
AcDbBlockEnd
  0
BLOCK
  5
80
330
7F
100
AcDbEntity
  8
0
100
AcDbBlockBegin
  2
EX_BCIR
 70
     0
 10
0.0
 20
0.0
 30
0.0
  3
EX_BCIR
  1

  0
LINE
  5
AF
330
7F
100
AcDbEntity
  8
0
  6
CONTINUOUS
 62
     0
100
AcDbLine
 10
0.0
 20
0.0
 30
0.0
 11
-1.0
 21
0.0
 31
0.0
  0
CIRCLE
  5
B0
330
7F
100
AcDbEntity
  8
0
  6
CONTINUOUS
 62
     0
100
AcDbCircle
 10
0.0
 20
0.0
 30
0.0
 40
0.5
  0
CIRCLE
  5
B1
330
7F
100
AcDbEntity
  8
0
  6
CONTINUOUS
 62
     0
100
AcDbCircle
 10
0.0
 20
0.0
 30
0.0
 40
0.25
  0
ENDBLK
  5
81
330
7F
100
AcDbEntity
  8
0
100
AcDbBlockEnd
  0
BLOCK
  5
83
330
82
100
AcDbEntity
  8
0
100
AcDbBlockBegin
  2
EX_RCIVIL
 70
     0
 10
0.0
 20
0.0
 30
0.0
  3
EX_RCIVIL
  1

  0
LINE
  5
B2
330
82
100
AcDbEntity
  8
0
  6
CONTINUOUS
 62
     0
100
AcDbLine
 10
0.0
 20
0.0
 30
0.0
 11
-1.0
 21
0.0
 31
0.0
  0
LINE
  5
B3
330
82
100
AcDbEntity
  8
0
  6
CONTINUOUS
 62
     0
100
AcDbLine
 10
-1.0
 20
-0.25
 30
0.0
 11
0.0
 21
-0.25
 31
0.0
  0
LINE
  5
B4
330
82
100
AcDbEntity
  8
0
  6
CONTINUOUS
 62
     0
100
AcDbLine
 10
-1.0
 20
-0.125
 30
0.0
 11
0.0
 21
-0.125
 31
0.0
  0
ENDBLK
  5
84
330
82
100
AcDbEntity
  8
0
100
AcDbBlockEnd
  0
BLOCK
  5
86
330
85
100
AcDbEntity
  8
0
100
AcDbBlockBegin
  2
EX_SLANT
 70
     0
 10
0.0
 20
0.0
 30
0.0
  3
EX_SLANT
  1

  0
LINE
  5
B5
330
85
100
AcDbEntity
  8
0
  6
CONTINUOUS
 62
     0
100
AcDbLine
 10
0.0
 20
0.0
 30
0.0
 11
-1.0
 21
0.0
 31
0.0
  0
LINE
  5
B6
330
85
100
AcDbEntity
  8
0
  6
CONTINUOUS
 62
     0
100
AcDbLine
 10
0.707106781
 20
0.707106781
 30
0.0
 11
-0.707106781
 21
-0.707106781
 31
0.0
  0
ENDBLK
  5
87
330
85
100
AcDbEntity
  8
0
100
AcDbBlockEnd
  0
BLOCK
  5
89
330
88
100
AcDbEntity
  8
0
100
AcDbBlockBegin
  2
EX_NONE
 70
     0
 10
0.0
 20
0.0
 30
0.0
  3
EX_NONE
  1

  0
LINE
  5
B7
330
88
100
AcDbEntity
  8
0
  6
CONTINUOUS
 62
     0
100
AcDbLine
 10
0.0
 20
0.0
 30
0.0
 11
-1.0
 21
0.0
 31
0.0
  0
ENDBLK
  5
8A
330
88
100
AcDbEntity
  8
0
100
AcDbBlockEnd
  0
BLOCK
  5
8C
330
8B
100
AcDbEntity
  8
0
100
AcDbBlockBegin
  2
EX_CIVIL
 70
     0
 10
0.0
 20
0.0
 30
0.0
  3
EX_CIVIL
  1

  0
LINE
  5
B8
330
8B
100
AcDbEntity
  8
0
  6
CONTINUOUS
 62
     0
100
AcDbLine
 10
0.0
 20
0.0
 30
0.0
 11
-1.0
 21
0.0
 31
0.0
  0
LINE
  5
B9
330
8B
100
AcDbEntity
  8
0
  6
CONTINUOUS
 62
     0
100
AcDbLine
 10
-1.0
 20
0.25
 30
0.0
 11
0.0
 21
0.25
 31
0.0
  0
LINE
  5
BA
330
8B
100
AcDbEntity
  8
0
  6
CONTINUOUS
 62
     0
100
AcDbLine
 10
-1.0
 20
0.125
 30
0.0
 11
0.0
 21
0.125
 31
0.0
  0
ENDBLK
  5
8D
330
8B
100
AcDbEntity
  8
0
100
AcDbBlockEnd
  0
BLOCK
  5
8F
330
8E
100
AcDbEntity
  8
0
100
AcDbBlockBegin
  2
EX_WCIR
 70
     0
 10
0.0
 20
0.0
 30
0.0
  3
EX_WCIR
  1

  0
LINE
  5
BB
330
8E
100
AcDbEntity
  8
0
  6
CONTINUOUS
 62
     0
100
AcDbLine
 10
0.0
 20
0.0
 30
0.0
 11
-1.0
 21
0.0
 31
0.0
  0
CIRCLE
  5
BC
330
8E
100
AcDbEntity
  8
0
  6
CONTINUOUS
 62
     0
100
AcDbCircle
 10
0.0
 20
0.0
 30
0.0
 40
0.5
  0
ENDBLK
  5
90
330
8E
100
AcDbEntity
  8
0
100
AcDbBlockEnd
  0
BLOCK
  5
92
330
91
100
AcDbEntity
  8
0
100
AcDbBlockBegin
  2
EX_WCIR2
 70
     0
 10
0.0
 20
0.0
 30
0.0
  3
EX_WCIR2
  1

  0
LINE
  5
BD
330
91
100
AcDbEntity
  8
0
  6
CONTINUOUS
 62
     0
100
AcDbLine
 10
-0.5
 20
0.0
 30
0.0
 11
-1.0
 21
0.0
 31
0.0
  0
CIRCLE
  5
BE
330
91
100
AcDbEntity
  8
0
  6
CONTINUOUS
 62
     0
100
AcDbCircle
 10
0.0
 20
0.0
 30
0.0
 40
0.5
  0
ENDBLK
  5
93
330
91
100
AcDbEntity
  8
0
100
AcDbBlockEnd
  0
BLOCK
  5
95
330
94
100
AcDbEntity
  8
0
100
AcDbBlockBegin
  2
EX_WNORM
 70
     0
 10
0.0
 20
0.0
 30
0.0
  3
EX_WNORM
  1

  0
LINE
  5
BF
330
94
100
AcDbEntity
  8
0
  6
CONTINUOUS
 62
     0
100
AcDbLine
 10
-1.0
 20
0.0
 30
0.0
 11
-1.0
 21
0.0
 31
0.0
  0
LINE
  5
C0
330
94
100
AcDbEntity
  8
0
  6
CONTINUOUS
 62
     0
100
AcDbLine
 10
0.0
 20
0.0
 30
0.0
 11
-1.0
 21
0.166666667
 31
0.0
  0
LINE
  5
C1
330
94
100
AcDbEntity
  8
0
  6
CONTINUOUS
 62
     0
100
AcDbLine
 10
0.0
 20
0.0
 30
0.0
 11
-1.0
 21
-0.166666667
 31
0.0
  0
LINE
  5
C2
330
94
100
AcDbEntity
  8
0
  6
CONTINUOUS
 62
     0
100
AcDbLine
 10
-1.0
 20
0.166666667
 30
0.0
 11
-1.0
 21
-0.166666667
 31
0.0
  0
ENDBLK
  5
96
330
94
100
AcDbEntity
  8
0
100
AcDbBlockEnd
  0
BLOCK
  5
98
330
97
100
AcDbEntity
  8
0
100
AcDbBlockBegin
  2
EX_NNORM
 70
     0
 10
0.0
 20
0.0
 30
0.0
  3
EX_NNORM
  1

  0
LINE
  5
C3
330
97
100
AcDbEntity
  8
0
  6
CONTINUOUS
 62
     0
100
AcDbLine
 10
0.0
 20
0.0
 30
0.0
 11
-1.0
 21
0.0
 31
0.0
  0
LINE
  5
C4
330
97
100
AcDbEntity
  8
0
  6
CONTINUOUS
 62
     0
100
AcDbLine
 10
0.0
 20
0.0
 30
0.0
 11
-1.0
 21
0.166666667
 31
0.0
  0
LINE
  5
C5
330
97
100
AcDbEntity
  8
0
  6
CONTINUOUS
 62
     0
100
AcDbLine
 10
0.0
 20
0.0
 30
0.0
 11
-1.0
 21
-0.166666667
 31
0.0
  0
LINE
  5
C6
330
97
100
AcDbEntity
  8
0
  6
CONTINUOUS
 62
     0
100
AcDbLine
 10
-1.0
 20
0.166666667
 30
0.0
 11
-1.0
 21
-0.166666667
 31
0.0
  0
ENDBLK
  5
99
330
97
100
AcDbEntity
  8
0
100
AcDbBlockEnd
  0
BLOCK
  5
9B
330
9A
100
AcDbEntity
  8
0
100
AcDbBlockBegin
  2
EX_BBOX
 70
     0
 10
0.0
 20
0.0
 30
0.0
  3
EX_BBOX
  1

  0
LINE
  5
C7
330
9A
100
AcDbEntity
  8
0
  6
CONTINUOUS
 62
     0
100
AcDbLine
 10
0.0
 20
0.0
 30
0.0
 11
-1.0
 21
0.0
 31
0.0
  0
LINE
  5
C8
330
9A
100
AcDbEntity
  8
0
  6
CONTINUOUS
 62
     0
100
AcDbLine
 10
-0.5
 20
0.5
 30
0.0
 11
0.5
 21
0.5
 31
0.0
  0
LINE
  5
C9
330
9A
100
AcDbEntity
  8
0
  6
CONTINUOUS
 62
     0
100
AcDbLine
 10
0.5
 20
0.5
 30
0.0
 11
0.5
 21
-0.5
 31
0.0
  0
LINE
  5
CA
330
9A
100
AcDbEntity
  8
0
  6
CONTINUOUS
 62
     0
100
AcDbLine
 10
0.5
 20
-0.5
 30
0.0
 11
-0.5
 21
-0.5
 31
0.0
  0
LINE
  5
CB
330
9A
100
AcDbEntity
  8
0
  6
CONTINUOUS
 62
     0
100
AcDbLine
 10
-0.5
 20
-0.5
 30
0.0
 11
-0.5
 21
0.5
 31
0.0
  0
LINE
  5
CC
330
9A
100
AcDbEntity
  8
0
  6
CONTINUOUS
 62
     0
100
AcDbLine
 10
-0.25
 20
0.25
 30
0.0
 11
0.25
 21
0.25
 31
0.0
  0
LINE
  5
CD
330
9A
100
AcDbEntity
  8
0
  6
CONTINUOUS
 62
     0
100
AcDbLine
 10
0.25
 20
0.25
 30
0.0
 11
0.25
 21
-0.25
 31
0.0
  0
LINE
  5
CE
330
9A
100
AcDbEntity
  8
0
  6
CONTINUOUS
 62
     0
100
AcDbLine
 10
0.25
 20
-0.25
 30
0.0
 11
-0.25
 21
-0.25
 31
0.0
  0
LINE
  5
CF
330
9A
100
AcDbEntity
  8
0
  6
CONTINUOUS
 62
     0
100
AcDbLine
 10
-0.25
 20
-0.25
 30
0.0
 11
-0.25
 21
0.25
 31
0.0
  0
ENDBLK
  5
9C
330
9A
100
AcDbEntity
  8
0
100
AcDbBlockEnd
  0
BLOCK
  5
9E
330
9D
100
AcDbEntity
  8
0
100
AcDbBlockBegin
  2
EX_WBOX
 70
     0
 10
0.0
 20
0.0
 30
0.0
  3
EX_WBOX
  1

  0
LINE
  5
D0
330
9D
100
AcDbEntity
  8
0
  6
CONTINUOUS
 62
     0
100
AcDbLine
 10
-0.5
 20
0.0
 30
0.0
 11
-1.0
 21
0.0
 31
0.0
  0
LINE
  5
D1
330
9D
100
AcDbEntity
  8
0
  6
CONTINUOUS
 62
     0
100
AcDbLine
 10
-0.5
 20
0.5
 30
0.0
 11
0.5
 21
0.5
 31
0.0
  0
LINE
  5
D2
330
9D
100
AcDbEntity
  8
0
  6
CONTINUOUS
 62
     0
100
AcDbLine
 10
0.5
 20
0.5
 30
0.0
 11
0.5
 21
-0.5
 31
0.0
  0
LINE
  5
D3
330
9D
100
AcDbEntity
  8
0
  6
CONTINUOUS
 62
     0
100
AcDbLine
 10
0.5
 20
-0.5
 30
0.0
 11
-0.5
 21
-0.5
 31
0.0
  0
LINE
  5
D4
330
9D
100
AcDbEntity
  8
0
  6
CONTINUOUS
 62
     0
100
AcDbLine
 10
-0.5
 20
-0.5
 30
0.0
 11
-0.5
 21
0.5
 31
0.0
  0
ENDBLK
  5
9F
330
9D
100
AcDbEntity
  8
0
100
AcDbBlockEnd
  0
BLOCK
  5
A1
330
A0
100
AcDbEntity
  8
0
100
AcDbBlockBegin
  2
EX_INTEGRAL
 70
     0
 10
0.0
 20
0.0
 30
0.0
  3
EX_INTEGRAL
  1

  0
LINE
  5
D5
330
A0
100
AcDbEntity
  8
0
  6
CONTINUOUS
 62
     0
100
AcDbLine
 10
0.0
 20
0.0
 30
0.0
 11
-1.0
 21
0.0
 31
0.0
  0
ARC
  5
D6
330
A0
100
AcDbEntity
  8
0
  6
CONTINUOUS
 62
     0
100
AcDbCircle
 10
0.542115
 20
0.164992
 30
0.0
 40
0.56667
100
AcDbArc
 50
73.07249033629006
 51
196.9275130221199
  0
ARC
  5
D7
330
A0
100
AcDbEntity
  8
0
  6
CONTINUOUS
 62
     0
100
AcDbCircle
 10
-0.542115
 20
-0.164992
 30
0.0
 40
0.56667
100
AcDbArc
 50
253.0724869220464
 51
16.9275130559125
  0
ENDBLK
  5
A2
330
A0
100
AcDbEntity
  8
0
100
AcDbBlockEnd
  0
BLOCK
  5
A4
330
A3
100
AcDbEntity
  8
0
100
AcDbBlockBegin
  2
SYM-1
 70
     0
 10
0.0
 20
0.0
 30
0.0
  3
SYM-1
  1

  0
HATCH
  5
D8
330
A3
100
AcDbEntity
  8
0
  6
CONTINUOUS
 62
     3
100
AcDbHatch
 10
0.0
 20
0.0
 30
0.0
210
0.0
220
0.0
230
1.0
  2
SOLID
 70
     1
 71
     1
 91
        1
 92
        3
 72
     0
 73
     1
 93
       16
 10
24.3511522390115
 20
-2.035714285714445
 10
25.61329509615435
 20
-2.035714285714445
 10
25.61329509615435
 20
-2.850000000000165
 10
22.23400938186861
 20
-2.850000000000165
 10
22.23400938186861
 20
-2.035714285714445
 10
23.5368665247258
 20
-2.035714285714445
 10
23.5368665247258
 20
0.3257142857141346
 10
22.51900938186862
 20
0.3257142857141346
 10
22.51900938186862
 20
1.139999999999851
 10
23.5368665247258
 20
1.139999999999851
 10
23.5368665247258
 20
2.849999999999849
 10
24.3511522390115
 20
2.849999999999849
 10
24.3511522390115
 20
1.139999999999851
 10
25.53186652472582
 20
1.139999999999851
 10
25.53186652472582
 20
0.3257142857141346
 10
24.3511522390115
 20
0.3257142857141346
 97
        0
 75
     0
 76
     1
 98
        1
 10
0.0
 20
0.0
  0
HATCH
  5
D9
330
A3
100
AcDbEntity
  8
0
  6
CONTINUOUS
 62
     3
100
AcDbHatch
 10
0.0
 20
0.0
 30
0.0
210
0.0
220
0.0
230
1.0
  2
SOLID
 70
     1
 71
     1
 91
        1
 92
        3
 72
     1
 73
     1
 93
       17
 10
21.05329509615432
 20
-0.6756813096801944
 42
-0.0318950211674973
 10
20.36115223901144
 20
-1.302857142857277
 42
0.0
 10
19.94887820042958
 20
-0.5887775613918915
 42
0.0949916016553095
 10
21.5107019370243
 20
1.302857142857
 42
0.0
 10
20.15758081044002
 20
1.302857142857
 42
0.0
 10
20.15758081044002
 20
2.035714285714132
 42
0.0
 10
21.05329509615434
 20
2.035714285714132
 42
0.0
 10
21.05329509615434
 20
2.849999999999849
 42
0.0
 10
21.78615223901151
 20
2.849999999999849
 42
0.0
 10
21.78615223901151
 20
2.035714285714132
 42
0.0
 10
22.72258081043999
 20
2.035714285714128
 42
-0.0602864643380152
 10
21.9514458188312
 20
0.4526916201288422
 42
0.0
 10
22.92615223901144
 20
-0.4885714285715821
 42
0.0
 10
22.35027758011683
 20
-1.064446087466226
 42
0.0
 10
21.78615223901151
 20
-0.5196765779765897
 42
0.0
 10
21.78615223901151
 20
-2.850000000000165
 42
0.0
 10
21.05329509615434
 20
-2.850000000000165
 42
0.0
 97
        0
 75
     0
 76
     1
 98
        1
 10
0.0
 20
0.0
  0
HATCH
  5
DA
330
A3
100
AcDbEntity
  8
0
  6
CONTINUOUS
 62
     3
100
AcDbHatch
 10
0.0
 20
0.0
 30
0.0
210
0.0
220
0.0
230
1.0
  2
SOLID
 70
     1
 71
     1
 91
        1
 92
        3
 72
     1
 73
     1
 93
       12
 10
16.0622017500994
 20
-0.9771428571430203
 42
0.0256955875094629
 10
15.54239644170038
 20
-2.035714285714505
 42
0.0
 10
18.04939402928803
 20
-2.035714285714407
 42
0.0232158240455905
 10
17.82885864866331
 20
-1.384285714285877
 42
0.0
 10
18.61043795329712
 20
-1.384285714285877
 42
-0.046485170158253
 10
18.97686652472569
 20
-2.850000000000165
 42
0.0
 10
14.45758081043997
 20
-2.850000000000166
 42
-0.041546145622575
 10
15.2311522390114
 20
-0.9771428571430043
 42
0.0
 10
14.09115223901149
 20
-0.9771428571430043
 42
0.0
 10
14.09115223901149
 20
-0.162857142857284
 42
0.0
 10
19.3025808104401
 20
-0.162857142857284
 42
0.0
 10
19.3025808104401
 20
-0.9771428571430043
 42
0.0
 97
        0
 75
     0
 76
     1
 98
        1
 10
0.0
 20
0.0
  0
HATCH
  5
DB
330
A3
100
AcDbEntity
  8
0
  6
CONTINUOUS
 62
     3
100
AcDbHatch
 10
0.0
 20
0.0
 30
0.0
210
0.0
220
0.0
230
1.0
  2
SOLID
 70
     1
 71
     1
 91
        1
 92
        3
 72
     1
 73
     1
 93
       10
 10
17.84828555094278
 20
1.017857142856991
 42
-0.0302425323326154
 10
16.696866524726
 20
2.091955337622558
 42
0.0
 10
16.696866524726
 20
2.849999999999849
 42
0.0
 10
17.10400938186868
 20
2.849999999999856
 42
0.0677425484492925
 10
19.62829509615438
 20
0.7328571428570001
 42
0.0
 10
19.10034629549093
 20
0.1036722629605595
 42
-0.0240292596661282
 10
18.08115223901148
 20
0.830038905819066
 42
0.0
 10
18.08115223901148
 20
0.2035714285712729
 42
0.0
 10
16.696866524726
 20
0.2035714285712729
 42
0.0
 10
16.696866524726
 20
1.01785714285699
 42
0.0
 97
        0
 75
     0
 76
     1
 98
        1
 10
0.0
 20
0.0
  0
HATCH
  5
DC
330
A3
100
AcDbEntity
  8
0
  6
CONTINUOUS
 62
     3
100
AcDbHatch
 10
0.0
 20
0.0
 30
0.0
210
0.0
220
0.0
230
1.0
  2
SOLID
 70
     1
 71
     1
 91
        1
 92
        3
 72
     1
 73
     1
 93
       10
 10
15.31258081044003
 20
0.83003890581905
 42
-0.0240292596661285
 10
14.29338675396057
 20
0.1036722629605329
 42
0.0
 10
13.76543795329713
 20
0.7328571428569965
 42
0.0677425484492926
 10
16.28972366758284
 20
2.849999999999849
 42
0.0
 10
16.696866524726
 20
2.849999999999849
 42
0.0
 10
16.69686652472578
 20
2.091955337622815
 42
-0.0302425323326223
 10
15.54544749850874
 20
1.01785714285699
 42
0.0
 10
16.696866524726
 20
1.01785714285699
 42
0.0
 10
16.696866524726
 20
0.2035714285712729
 42
0.0
 10
15.31258081044005
 20
0.2035714285712729
 42
0.0
 97
        0
 75
     0
 76
     1
 98
        1
 10
0.0
 20
0.0
  0
HATCH
  5
DD
330
A3
100
AcDbEntity
  8
0
  6
CONTINUOUS
 62
     3
100
AcDbHatch
 10
0.0
 20
0.0
 30
0.0
210
0.0
220
0.0
230
1.0
  2
SOLID
 70
     1
 71
     1
 91
        1
 92
        3
 72
     1
 73
     1
 93
       18
 10
12.3171414448163
 20
1.954285714285571
 42
0.0204820379415322
 10
12.05392127933121
 20
2.849999999999849
 42
0.0
 10
12.91043795329714
 20
2.84999999999985
 42
-0.0190097908790505
 10
13.15472366758285
 20
1.954285714285572
 42
0.0
 10
13.48043795329718
 20
1.954285714285572
 42
0.0
 10
13.48043795329718
 20
1.139999999999841
 42
0.0
 10
11.95809273474724
 20
1.139999999999852
 42
0.0682208717797832
 10
12.63112998335417
 20
-1.082680610277512
 42
0.1684438597742044
 10
13.48043795329718
 20
-1.969113521534577
 42
0.0
 10
13.48043795329718
 20
-2.850000000000173
 42
-0.2072347897570727
 10
11.89105983655683
 20
-1.422323661596438
 42
-0.0716932219901562
 10
11.13446868309276
 20
1.139999999999855
 42
0.0
 10
8.024723667582897
 20
1.139999999999841
 42
0.0
 10
8.024723667582897
 20
1.954285714285572
 42
0.0
 10
11.05035592789417
 20
1.954285714285572
 42
0.0
 10
11.01907689579227
 20
2.849999999999849
 42
0.0
 10
11.8338589532927
 20
2.849999999999849
 42
0.0
 10
11.8651379853946
 20
1.954285714285572
 42
0.0
 97
        0
 75
     0
 76
     1
 98
        1
 10
0.0
 20
0.0
  0
HATCH
  5
DE
330
A3
100
AcDbEntity
  8
0
  6
CONTINUOUS
 62
     3
100
AcDbHatch
 10
0.0
 20
0.0
 30
0.0
210
0.0
220
0.0
230
1.0
  2
SOLID
 70
     1
 71
     1
 91
        1
 92
        3
 72
     1
 73
     1
 93
       12
 10
9.979009381868545
 20
-1.61564377108845
 42
0.0077175353602689
 10
11.2004379532972
 20
-1.457332823601817
 42
0.0
 10
11.20043795329709
 20
-2.280000000000165
 42
-0.0196098337601156
 10
8.024723667582883
 20
-2.605714285714441
 42
0.0
 10
8.024723667582867
 20
-1.789777226430203
 42
0.0071653516467131
 10
9.164723667582884
 20
-1.69997695536356
 42
0.0
 10
9.164723667582884
 20
-0.4071428571430218
 42
0.0
 10
8.024723667582897
 20
-0.4071428571430218
 42
0.0
 10
8.024723667582897
 20
0.4071428571426949
 42
0.0
 10
10.95615223901148
 20
0.4071428571426949
 42
0.0
 10
10.95615223901148
 20
-0.4071428571430218
 42
0.0
 10
9.979009381868629
 20
-0.4071428571430218
 42
0.0
 97
        0
 75
     0
 76
     1
 98
        1
 10
0.0
 20
0.0
  0
HATCH
  5
DF
330
A3
100
AcDbEntity
  8
0
  6
CONTINUOUS
 62
     3
100
AcDbHatch
 10
0.0
 20
0.0
 30
0.0
210
0.0
220
0.0
230
1.0
  2
SOLID
 70
     1
 71
     1
 91
        1
 92
        3
 72
     1
 73
     1
 93
       30
 10
5.134009381868571
 20
-1.330293518482469
 42
-0.0382993261020998
 10
4.21556076329842
 20
-2.338694238572842
 42
0.0
 10
3.66829509615426
 20
-1.791428571428681
 42
0.0560351536284794
 10
4.849009381868498
 20
-0.4071428571430076
 42
0.0
 10
3.871866524725753
 20
-0.4071428571430076
 42
0.0
 10
3.871866524725753
 20
0.4071428571427091
 42
0.0
 10
5.134009381868616
 20
0.4071428571427091
 42
0.0
 10
5.134009381868616
 20
1.221428571428415
 42
0.0
 10
4.728023654221268
 20
1.221428571428411
 42
-0.0155195045322601
 10
4.604410143703056
 20
0.6846232869284066
 42
0.0
 10
3.912580810439931
 20
0.9364285714284013
 42
0.051935582642784
 10
4.156866524725764
 20
2.605714285716569
 42
0.0
 10
4.884483353665184
 20
2.477415807157004
 42
-0.0147879602104266
 10
4.841413989036177
 20
1.954285714285572
 42
0.0
 10
5.134009381868616
 20
1.954285714285572
 42
0.0
 10
5.134009381868616
 20
2.849999999999849
 42
0.0
 10
5.948295096154304
 20
2.849999999999849
 42
0.0
 10
5.948295096154304
 20
1.954285714285572
 42
0.0
 10
7.04758081044006
 20
1.954285714285572
 42
0.0
 10
7.04758081044006
 20
1.221428571428415
 42
0.0
 10
5.948295096154304
 20
1.221428571428415
 42
0.0
 10
5.948295096154304
 20
0.4071428571427091
 42
0.0
 10
7.210437953297152
 20
0.4071428571427091
 42
0.0
 10
7.210437953297152
 20
-0.4071428571430076
 42
0.0
 10
6.233295096154248
 20
-0.4071428571430191
 42
0.0560351536284794
 10
7.414009381868489
 20
-1.791428571428696
 42
0.0
 10
6.866743714724319
 20
-2.338694238572846
 42
-0.0382993261020937
 10
5.948295096154304
 20
-1.330293518482641
 42
0.0
 10
5.948295096154304
 20
-2.850000000000165
 42
0.0
 10
5.134009381868616
 20
-2.850000000000165
 42
0.0
 97
        0
 75
     0
 76
     1
 98
        1
 10
0.0
 20
0.0
  0
HATCH
  5
E0
330
A3
100
AcDbEntity
  8
0
  6
CONTINUOUS
 62
     3
100
AcDbHatch
 10
0.0
 20
0.0
 30
0.0
210
0.0
220
0.0
230
1.0
  2
SOLID
 70
     1
 71
     1
 91
        1
 92
        3
 72
     1
 73
     1
 93
       19
 10
2.609723667582885
 20
-1.058409629912136
 42
-0.0200612023046241
 10
2.253945981009572
 20
-1.675082761784594
 42
0.0
 10
1.6732950961543
 20
-1.221428571428717
 42
0.0725999339496624
 10
2.609723667582777
 20
0.9364285714284151
 42
0.0
 10
1.876866524725735
 20
0.9364285714284151
 42
0.0
 10
1.876866524725735
 20
1.750714285714135
 42
0.0
 10
2.609723667582905
 20
1.750714285714135
 42
0.0
 10
2.609723667582905
 20
2.849999999999849
 42
0.0
 10
3.424009381868593
 20
2.849999999999849
 42
0.0
 10
3.424009381868593
 20
1.750714285714135
 42
0.0
 10
3.790437953297179
 20
1.750714285714135
 42
0.0
 10
3.790437953297179
 20
0.9364285714284151
 42
0.0
 10
3.424009381868537
 20
0.9364285714284151
 42
0.0
 10
3.871866524725753
 20
0.2968222855516665
 42
0.0
 10
3.871866524725753
 20
-0.1989042363292235
 42
0.0
 10
3.627580810439987
 20
-0.4900326139487277
 42
0.0
 10
3.424009381868593
 20
-0.1993024840048498
 42
0.0
 10
3.424009381868593
 20
-2.850000000000165
 42
0.0
 10
2.609723667582905
 20
-2.850000000000165
 42
0.0
 97
        0
 75
     0
 76
     1
 98
        1
 10
0.0
 20
0.0
  0
HATCH
  5
E1
330
A3
100
AcDbEntity
  8
0
  6
CONTINUOUS
 62
     3
100
AcDbHatch
 10
0.0
 20
0.0
 30
0.0
210
0.0
220
0.0
230
1.0
  2
SOLID
 70
     1
 71
     1
 91
        1
 92
        3
 72
     1
 73
     1
 93
        8
 10
-1.829880899650007
 20
-2.05200000000029
 42
0.2679491924310503
 10
-0.4477043552104791
 20
-1.254000000000273
 42
0.267949192431121
 10
-0.4477043552104631
 20
1.253999999999734
 42
0.2679491924310509
 10
-1.82988089965
 20
2.051999999999744
 42
0.0
 10
-1.829880899650007
 20
2.963999999999929
 42
-0.2679491924310369
 10
0.3421108130409469
 20
1.710000000000051
 42
-0.2679491924311528
 10
0.3421108130406774
 20
-1.710000000000919
 42
-0.2679491924310151
 10
-1.82988089965
 20
-2.964000000000375
 42
0.0
 97
        0
 75
     0
 76
     1
 98
        1
 10
0.0
 20
0.0
  0
HATCH
  5
E2
330
A3
100
AcDbEntity
  8
0
  6
CONTINUOUS
 62
     3
100
AcDbHatch
 10
0.0
 20
0.0
 30
0.0
210
0.0
220
0.0
230
1.0
  2
SOLID
 70
     1
 71
     1
 91
        1
 92
        3
 72
     1
 73
     1
 93
        8
 10
-1.829880899650008
 20
-2.964000000000374
 42
-0.2679491924311271
 10
-4.001872612341819
 20
-1.710000000000485
 42
-0.2679491924311523
 10
-4.001872612341573
 20
1.710000000000452
 42
-0.2679491924311101
 10
-1.82988089965
 20
2.963999999999928
 42
0.0
 10
-1.829880899650007
 20
2.051999999999745
 42
0.2679491924311969
 10
-3.212057444090408
 20
1.253999999999726
 42
0.2679491924311206
 10
-3.212057444090417
 20
-1.25400000000028
 42
0.267949192431196
 10
-1.82988089965
 20
-2.052000000000291
 42
0.0
 97
        0
 75
     0
 76
     1
 98
        1
 10
0.0
 20
0.0
  0
HATCH
  5
E3
330
A3
100
AcDbEntity
  8
0
  6
CONTINUOUS
 62
     3
100
AcDbHatch
 10
0.0
 20
0.0
 30
0.0
210
0.0
220
0.0
230
1.0
  2
SOLID
 70
     1
 71
     1
 91
        1
 92
        3
 72
     0
 73
     1
 93
        4
 10
-5.363880899650461
 20
-1.02600000000027
 10
-6.275880899650438
 20
-1.02600000000027
 10
-6.275880899650438
 20
-0.1140000000002743
 10
-5.363880899650461
 20
-0.1140000000002743
 97
        0
 75
     0
 76
     1
 98
        1
 10
0.0
 20
0.0
  0
HATCH
  5
E4
330
A3
100
AcDbEntity
  8
0
  6
CONTINUOUS
 62
     3
100
AcDbHatch
 10
0.0
 20
0.0
 30
0.0
210
0.0
220
0.0
230
1.0
  2
SOLID
 70
     1
 71
     1
 91
        1
 92
        3
 72
     0
 73
     1
 93
       16
 10
-9.695880899650469
 20
1.937999999999732
 10
-10.94988089965046
 20
1.937999999999732
 10
-11.17788089965047
 20
0.6839999999997275
 10
-11.86188089965044
 20
0.6839999999997275
 10
-11.86188089965044
 20
2.849999999999742
 10
-6.617880899650451
 20
2.849999999999742
 10
-6.617880899650451
 20
0.6839999999997275
 10
-7.301880899650421
 20
0.6839999999997275
 10
-7.529880899650429
 20
1.937999999999732
 10
-8.783880899650477
 20
1.937999999999732
 10
-8.783880899650434
 20
-1.938000000000276
 10
-7.871880899650442
 20
-2.166000000000285
 10
-7.871880899650442
 20
-2.850000000000286
 10
-10.60788089965045
 20
-2.850000000000286
 10
-10.60788089965045
 20
-2.166000000000285
 10
-9.695880899650469
 20
-1.938000000000276
 97
        0
 75
     0
 76
     1
 98
        1
 10
0.0
 20
0.0
  0
HATCH
  5
E5
330
A3
100
AcDbEntity
  8
0
  6
CONTINUOUS
 62
     3
100
AcDbHatch
 10
0.0
 20
0.0
 30
0.0
210
0.0
220
0.0
230
1.0
  2
SOLID
 70
     1
 71
     1
 91
        1
 92
        3
 72
     0
 73
     1
 93
        4
 10
-13.11588089965048
 20
-1.02600000000027
 10
-13.11588089965043
 20
-0.1140000000002175
 10
-12.20388089965045
 20
-0.1140000000002743
 10
-12.20388089965045
 20
-1.02600000000027
 97
        0
 75
     0
 76
     1
 98
        1
 10
0.0
 20
0.0
  0
HATCH
  5
E6
330
A3
100
AcDbEntity
  8
0
  6
CONTINUOUS
 62
     3
100
AcDbHatch
 10
0.0
 20
0.0
 30
0.0
210
0.0
220
0.0
230
1.0
  2
SOLID
 70
     1
 71
     1
 91
        1
 92
        3
 72
     0
 73
     1
 93
       12
 10
-14.14188089965047
 20
2.849999999999742
 10
-14.14188089965047
 20
2.16599999999973
 10
-15.05388089965044
 20
1.937999999999732
 10
-15.05388089965044
 20
-1.938000000000276
 10
-14.14188089965047
 20
-2.166000000000285
 10
-14.14188089965047
 20
-2.850000000000286
 10
-16.87788089965047
 20
-2.850000000000286
 10
-16.87788089965047
 20
-2.166000000000285
 10
-15.96588089965048
 20
-1.938000000000276
 10
-15.96588089965048
 20
1.937999999999732
 10
-16.87788089965047
 20
2.165999999999741
 10
-16.87788089965047
 20
2.849999999999742
 97
        0
 75
     0
 76
     1
 98
        1
 10
0.0
 20
0.0
  0
HATCH
  5
E7
330
A3
100
AcDbEntity
  8
0
  6
CONTINUOUS
 62
     3
100
AcDbHatch
 10
0.0
 20
0.0
 30
0.0
210
0.0
220
0.0
230
1.0
  2
SOLID
 70
     1
 71
     1
 91
        1
 92
        3
 72
     1
 73
     1
 93
       15
 10
-24.50859841427041
 20
-2.090869956561225
 42
-0.2479327466132013
 10
-25.61329509615362
 20
0.0
 42
0.0
 10
-24.65823426252824
 20
-0.0000000000000002
 42
0.0851341857469254
 10
-24.51749109727588
 20
-0.8206050339814059
 42
0.0986382041447898
 10
-24.10137304113623
 20
-0.7218299436021526
 42
0.2932733248970212
 10
-23.90182953111929
 20
-0.4108897586745677
 42
0.0
 10
-23.90182953111929
 20
0.0
 42
0.0
 10
-23.08094744291048
 20
0.0
 42
0.0
 10
-23.08094744291045
 20
-0.4116155274721613
 42
0.2932733248970227
 10
-22.88140393289353
 20
-0.7225557123997662
 42
0.0986382041447956
 10
-22.46528587675381
 20
-0.8213308027789985
 42
0.0
 10
-22.46528587675381
 20
-1.026551324831182
 42
0.0
 10
-24.43407387057687
 20
-1.026551324831195
 42
0.2846821906946901
 10
-22.272999999999
 20
-2.461429260939799
 42
0.0
 10
-22.27299999999901
 20
-2.803950381328971
 42
-0.1459753572646559
 97
        0
 75
     0
 76
     1
 98
        1
 10
0.0
 20
0.0
  0
HATCH
  5
E8
330
A3
100
AcDbEntity
  8
0
  6
CONTINUOUS
 62
     3
100
AcDbHatch
 10
0.0
 20
0.0
 30
0.0
210
0.0
220
0.0
230
1.0
  2
SOLID
 70
     1
 71
     1
 91
        1
 92
        3
 72
     1
 73
     1
 93
       24
 10
-22.67055612196938
 20
0.6840684068405485
 42
0.3027756377320026
 10
-22.98628000204974
 20
0.4735858201203201
 42
0.0990195135927522
 10
-23.08099716607381
 20
0.0
 42
0.0
 10
-23.90182953111929
 20
0.0
 42
0.0
 10
-23.90182953111929
 20
1.775772072931018
 42
0.2041065183978106
 10
-24.65823426252824
 20
0.0
 42
0.0
 10
-25.61329509615362
 20
-0.0000000000000005
 42
-0.2479327466131622
 10
-24.50859841427033
 20
2.090869956560942
 42
-0.0425119632079822
 10
-23.90182953111929
 20
2.433221258786119
 42
0.0
 10
-23.90182953111931
 20
2.804957522274243
 42
0.2932733248970212
 10
-24.10137304113625
 20
3.115897707201849
 42
0.0986382041447921
 10
-24.5174910972759
 20
3.214672797581073
 42
0.0
 10
-24.5174910972759
 20
3.419893319633275
 42
0.0
 10
-22.46528587675381
 20
3.419893319633275
 42
0.0
 10
-22.46528587675386
 20
3.214672797581075
 42
0.0986382041447851
 10
-22.88140393289352
 20
3.115897707201833
 42
0.2932733248969983
 10
-23.08094744291043
 20
2.804957522274243
 42
0.0
 10
-23.08094744291043
 20
2.708052920534188
 42
-0.0496798992579211
 10
-22.272999999999
 20
2.803950381328672
 42
0.0
 10
-22.272999999999
 20
2.461429260939532
 42
0.0842759109890063
 10
-23.08094744291048
 20
2.297991574791311
 42
0.0
 10
-23.08094744291048
 20
1.026102610260892
 42
0.0
 10
-22.27299999999897
 20
1.026102610260892
 42
0.0
 10
-22.272999999999
 20
0.6840684068405416
 42
0.0
 97
        0
 75
     0
 76
     1
 98
        1
 10
0.0
 20
0.0
  0
HATCH
  5
E9
330
A3
100
AcDbEntity
  8
0
  6
CONTINUOUS
 62
     3
100
AcDbHatch
 10
0.0
 20
0.0
 30
0.0
210
0.0
220
0.0
230
1.0
  2
SOLID
 70
     1
 71
     1
 91
        1
 92
        3
 72
     1
 73
     1
 93
       14
 10
-19.73294173327529
 20
0.0
 42
0.0405216457160254
 10
-19.76518515433919
 20
0.3972010104234832
 42
0.3675231814697204
 10
-20.10274110483399
 20
0.6840684068405416
 42
0.0
 10
-20.82745118422041
 20
0.6840684068405416
 42
0.0
 10
-20.82745118422041
 20
0.0
 42
0.0
 10
-21.64833327242921
 20
0.0
 42
0.0
 10
-21.64833327242921
 20
0.6840684068405416
 42
0.0
 10
-22.272999999999
 20
0.6840684068405416
 42
0.0
 10
-22.272999999999
 20
1.026102610260892
 42
0.0
 10
-19.95689640281894
 20
1.026102610260884
 42
0.3018084962625866
 10
-22.272999999999
 20
2.461429260939532
 42
0.0
 10
-22.272999999999
 20
2.80395038132867
 42
-0.1556207860285077
 10
-19.88257758153312
 20
2.09086995656093
 42
-0.2479327466131704
 10
-18.77788089964991
 20
0.0
 42
0.0
 97
        0
 75
     0
 76
     1
 98
        1
 10
0.0
 20
0.0
  0
HATCH
  5
EA
330
A3
100
AcDbEntity
  8
0
  6
CONTINUOUS
 62
     3
100
AcDbHatch
 10
0.0
 20
0.0
 30
0.0
210
0.0
220
0.0
230
1.0
  2
SOLID
 70
     1
 71
     1
 91
        1
 92
        3
 72
     1
 73
     1
 93
       19
 10
-20.8274511842204
 20
-2.047639686011457
 42
0.2504916501726884
 10
-19.73294173327529
 20
0.0
 42
0.0
 10
-18.77788089964991
 20
0.0
 42
-0.2479327466132034
 10
-19.88257758153318
 20
-2.090869956561292
 42
-0.0647982499650098
 10
-20.82745118422041
 20
-2.569945301182951
 42
0.0
 10
-20.82745118422039
 20
-2.805406236844544
 42
0.2932733248970212
 10
-20.62790767420345
 20
-3.116346421772153
 42
0.0986382041447949
 10
-20.21178961806374
 20
-3.215121512151377
 42
0.0
 10
-20.21178961806374
 20
-3.420342034203578
 42
0.0
 10
-22.26399483858583
 20
-3.420342034203578
 42
0.0
 10
-22.26399483858581
 20
-3.215121512151375
 42
0.0986382041447934
 10
-21.84787678244615
 20
-3.116346421772128
 42
0.2932733248970212
 10
-21.64833327242921
 20
-2.805406236844544
 42
0.0
 10
-21.64833327242921
 20
-2.768033212587629
 42
-0.0381668652852349
 10
-22.272999999999
 20
-2.803950381328971
 42
0.0
 10
-22.272999999999
 20
-2.461429260939799
 42
0.0639702334410101
 10
-21.64833327242921
 20
-2.401070363426978
 42
0.0
 10
-21.64833327242921
 20
0.0
 42
0.0
 10
-20.82745118422041
 20
0.0
 42
0.0
 97
        0
 75
     0
 76
     1
 98
        1
 10
0.0
 20
0.0
  0
ENDBLK
  5
A5
330
A3
100
AcDbEntity
  8
0
100
AcDbBlockEnd
  0
ENDSEC
  0
SECTION
  2
ENTITIES
  0
ARC
  5
EB
330
1F
100
AcDbEntity
  8
LAY-1
  6
CONTINUOUS
 62
     7
100
AcDbCircle
 10
194.62628296306
 20
179.353614452733
 30
0.0
 40
2.25
100
AcDbArc
 50
9.052568776079926
 51
189.0525687760802
  0
ARC
  5
EC
330
1F
100
AcDbEntity
  8
LAY-1
  6
CONTINUOUS
 62
     7
100
AcDbCircle
 10
185.749913047374
 20
170.477456747007
 30
0.0
 40
2.25
100
AcDbArc
 50
80.96181244559948
 51
260.9618124456012
  0
ARC
  5
ED
330
1F
100
AcDbEntity
  8
LAY-1
  6
CONTINUOUS
 62
     7
100
AcDbCircle
 10
194.623157296899
 20
125.382320016547
 30
0.0
 40
2.25
100
AcDbArc
 50
170.9629897741202
 51
350.9629897741204
  0
LINE
  5
EE
330
1F
100
AcDbEntity
  8
LAY-1
  6
CONTINUOUS
 62
     7
100
AcDbLine
 10
225.236176191765
 20
119.366918336957
 30
0.0
 11
225.236176191764
 21
124.490826951111
 31
0.0
  0
LINE
  5
EF
330
1F
100
AcDbEntity
  8
LAY-1
  6
CONTINUOUS
 62
     7
100
AcDbLine
 10
200.236176191765
 20
119.366918336954
 30
0.0
 11
225.236176191765
 21
119.366918336957
 31
0.0
  0
LINE
  5
F0
330
1F
100
AcDbEntity
  8
LAY-1
  6
CONTINUOUS
 62
     7
100
AcDbLine
 10
200.236176191765
 20
124.489588094557
 30
0.0
 11
200.236176191765
 21
119.366918336954
 31
0.0
  0
LINE
  5
F1
330
1F
100
AcDbEntity
  8
LAY-1
  6
CONTINUOUS
 62
     7
100
AcDbLine
 10
200.236176191765
 20
185.366918336948
 30
0.0
 11
200.236176191765
 21
180.247411204877
 31
0.0
  0
LINE
  5
F2
330
1F
100
AcDbEntity
  8
LAY-1
  6
CONTINUOUS
 62
     7
100
AcDbLine
 10
225.236176191764
 20
185.366918336956
 30
0.0
 11
200.236176191765
 21
185.366918336948
 31
0.0
  0
LINE
  5
F3
330
1F
100
AcDbEntity
  8
LAY-1
  6
CONTINUOUS
 62
     7
100
AcDbLine
 10
225.236176191765
 20
180.247780438635
 30
0.0
 11
225.236176191764
 21
185.366918336956
 31
0.0
  0
ARC
  5
F4
330
1F
100
AcDbEntity
  8
LAY-1
  6
CONTINUOUS
 62
     7
100
AcDbCircle
 10
185.748751705375
 20
134.258110546515
 30
0.0
 40
2.25
100
AcDbArc
 50
99.04963770540067
 51
279.0496377053992
  0
ARC
  5
F5
330
1F
100
AcDbEntity
  8
LAY-1
  6
CONTINUOUS
 62
     7
100
AcDbCircle
 10
230.850177564237
 20
125.382979516285
 30
0.0
 40
2.25
100
AcDbArc
 50
189.0296876941198
 51
9.029687694119907
  0
ARC
  5
F6
330
1F
100
AcDbEntity
  8
LAY-1
  6
CONTINUOUS
 62
     7
100
AcDbCircle
 10
239.717941362878
 20
134.249679357171
 30
0.0
 40
2.25
100
AcDbArc
 50
260.9479064430008
 51
80.94790644300038
  0
ARC
  5
F7
330
1F
100
AcDbEntity
  8
LAY-1
  6
CONTINUOUS
 62
     7
100
AcDbCircle
 10
230.844712395131
 20
179.354525058779
 30
0.0
 40
2.25
100
AcDbArc
 50
350.9506708347599
 51
170.9506708347604
  0
ARC
  5
F8
330
1F
100
AcDbEntity
  8
LAY-1
  6
CONTINUOUS
 62
     7
100
AcDbCircle
 10
239.723825225572
 20
170.475391481546
 30
0.0
 40
2.25
100
AcDbArc
 50
279.0488952665999
 51
99.04889526660001
  0
ARC
  5
F9
330
1F
100
AcDbEntity
  8
LAY-1
  6
CONTINUOUS
 62
     7
100
AcDbCircle
 10
208.736176191765
 20
162.613869102923
 30
0.0
 40
1.0
100
AcDbArc
 50
291.3236862634809
 51
0.0000000000000573
  0
LINE
  5
FA
330
1F
100
AcDbEntity
  8
LAY-1
  6
CONTINUOUS
 62
     7
100
AcDbLine
 10
239.736176191765
 20
149.480166991015
 30
0.0
 11
239.736176191765
 21
155.253669682912
 31
0.0
  0
LINE
  5
FB
330
1F
100
AcDbEntity
  8
LAY-1
  6
CONTINUOUS
 62
     7
100
AcDbLine
 10
223.552830018157
 20
151.366918336963
 30
0.0
 11
226.99020949935
 21
151.366918336963
 31
0.0
  0
LINE
  5
FC
330
1F
100
AcDbEntity
  8
LAY-1
  6
CONTINUOUS
 62
     7
100
AcDbLine
 10
226.99020949935
 20
153.366918336963
 30
0.0
 11
223.552830018157
 21
153.366918336963
 31
0.0
  0
ARC
  5
FD
330
1F
100
AcDbEntity
  8
LAY-1
  6
CONTINUOUS
 62
     7
100
AcDbCircle
 10
223.552830018157
 20
154.366918336963
 30
0.0
 40
1.0
100
AcDbArc
 50
190.4756816962793
 51
270.0000000000001
  0
ARC
  5
FE
330
1F
100
AcDbEntity
  8
LAY-1
  6
CONTINUOUS
 62
     7
100
AcDbCircle
 10
223.552830018157
 20
150.366918336963
 30
0.0
 40
1.0
100
AcDbArc
 50
90.00000000000004
 51
169.5243183037212
  0
ARC
  5
FF
330
1F
100
AcDbEntity
  8
LAY-1
  6
CONTINUOUS
 62
     7
100
AcDbCircle
 10
226.99020949935
 20
154.366918336963
 30
0.0
 40
1.0
100
AcDbArc
 50
270.0000000000001
 51
345.5224878139205
  0
ARC
  5
100
330
1F
100
AcDbEntity
  8
LAY-1
  6
CONTINUOUS
 62
     7
100
AcDbCircle
 10
226.99020949935
 20
150.366918336963
 30
0.0
 40
1.0
100
AcDbArc
 50
14.47751218607949
 51
90.00000000000004
  0
CIRCLE
  5
101
330
1F
100
AcDbEntity
  8
LAY-1
  6
CONTINUOUS
 62
     7
100
AcDbCircle
 10
234.736176191765
 20
152.366918336963
 30
0.0
 40
7.000000000000004
  0
LINE
  5
102
330
1F
100
AcDbEntity
  8
LAY-1
  6
CONTINUOUS
 62
     7
100
AcDbLine
 10
234.736176191765
 20
146.593415645061
 30
0.0
 11
239.736176191765
 21
149.480166991015
 31
0.0
  0
LINE
  5
103
330
1F
100
AcDbEntity
  8
LAY-1
  6
CONTINUOUS
 62
     7
100
AcDbLine
 10
229.736176191765
 20
149.480166991015
 30
0.0
 11
234.736176191765
 21
146.593415645061
 31
0.0
  0
LINE
  5
104
330
1F
100
AcDbEntity
  8
LAY-1
  6
CONTINUOUS
 62
     7
100
AcDbLine
 10
229.736176191765
 20
155.253669682905
 30
0.0
 11
229.736176191765
 21
149.480166991015
 31
0.0
  0
LINE
  5
105
330
1F
100
AcDbEntity
  8
LAY-1
  6
CONTINUOUS
 62
     7
100
AcDbLine
 10
234.736176191765
 20
158.140421028854
 30
0.0
 11
229.736176191765
 21
155.253669682905
 31
0.0
  0
LINE
  5
106
330
1F
100
AcDbEntity
  8
LAY-1
  6
CONTINUOUS
 62
     7
100
AcDbLine
 10
239.736176191765
 20
155.253669682912
 30
0.0
 11
234.736176191765
 21
158.140421028854
 31
0.0
  0
ARC
  5
107
330
1F
100
AcDbEntity
  8
LAY-1
  6
CONTINUOUS
 62
     7
100
AcDbCircle
 10
216.736176191765
 20
162.613869102923
 30
0.0
 40
1.0
100
AcDbArc
 50
180.0000000000002
 51
248.6763137365225
  0
CIRCLE
  5
108
330
1F
100
AcDbEntity
  8
LAY-1
  6
CONTINUOUS
 62
     7
100
AcDbCircle
 10
190.46231258439
 20
174.640781944341
 30
0.0
 40
4.0
  0
CIRCLE
  5
109
330
1F
100
AcDbEntity
  8
LAY-1
  6
CONTINUOUS
 62
     7
100
AcDbCircle
 10
235.010039799141
 20
174.640781944339
 30
0.0
 40
4.0
  0
CIRCLE
  5
10A
330
1F
100
AcDbEntity
  8
LAY-1
  6
CONTINUOUS
 62
     7
100
AcDbCircle
 10
235.01003979914
 20
130.093054729586
 30
0.0
 40
4.0
  0
CIRCLE
  5
10B
330
1F
100
AcDbEntity
  8
LAY-1
  6
CONTINUOUS
 62
     7
100
AcDbCircle
 10
190.462312584389
 20
130.093054729587
 30
0.0
 40
4.0
  0
ARC
  5
10C
330
1F
100
AcDbEntity
  8
LAY-1
  6
CONTINUOUS
 62
     7
100
AcDbCircle
 10
212.736176191765
 20
152.366918336963
 30
0.0
 40
29.50000000000002
100
AcDbArc
 50
350.0228374192801
 51
9.048895266599997
  0
ARC
  5
10D
330
1F
100
AcDbEntity
  8
LAY-1
  6
CONTINUOUS
 62
     7
100
AcDbCircle
 10
212.736176191765
 20
152.366918336963
 30
0.0
 40
29.50000000000002
100
AcDbArc
 50
259.8765490033205
 51
280.3255804188
  0
ARC
  5
10E
330
1F
100
AcDbEntity
  8
LAY-1
  6
CONTINUOUS
 62
     7
100
AcDbCircle
 10
212.736176191765
 20
152.366918336963
 30
0.0
 40
29.50000000000002
100
AcDbArc
 50
171.8776241618401
 51
190.2420601214404
  0
LINE
  5
10F
330
1F
100
AcDbEntity
  8
LAY-1
  6
CONTINUOUS
 62
     7
100
AcDbLine
 10
238.959734696674
 20
175.273166492229
 30
0.0
 11
241.884830194075
 21
156.906298234438
 31
0.0
  0
LINE
  5
110
330
1F
100
AcDbEntity
  8
LAY-1
  6
CONTINUOUS
 62
     7
100
AcDbLine
 10
217.453165930965
 20
181.487358028017
 30
0.0
 11
235.662538955226
 21
178.587203722521
 31
0.0
  0
LINE
  5
111
330
1F
100
AcDbEntity
  8
LAY-1
  6
CONTINUOUS
 62
     7
100
AcDbLine
 10
189.743462601458
 20
178.57565865169
 30
0.0
 11
208.062468475084
 21
181.494335939268
 31
0.0
  0
LINE
  5
112
330
1F
100
AcDbEntity
  8
LAY-1
  6
CONTINUOUS
 62
     7
100
AcDbLine
 10
186.51912990518
 20
129.421258362831
 30
0.0
 11
183.58792513701
 21
147.824951753093
 31
0.0
  0
LINE
  5
113
330
1F
100
AcDbEntity
  8
LAY-1
  6
CONTINUOUS
 62
     7
100
AcDbLine
 10
207.878049800593
 20
123.274173601538
 30
0.0
 11
189.733782454891
 21
126.159958767064
 31
0.0
  0
LINE
  5
114
330
1F
100
AcDbEntity
  8
LAY-1
  6
CONTINUOUS
 62
     7
100
AcDbLine
 10
235.733208878924
 20
126.158969514184
 30
0.0
 11
218.023799411802
 21
123.344667551007
 31
0.0
  0
LINE
  5
115
330
1F
100
AcDbEntity
  8
LAY-1
  6
CONTINUOUS
 62
     7
100
AcDbLine
 10
209.736176191765
 20
164.366918336961
 30
0.0
 11
209.736176191765
 21
162.613869102923
 31
0.0
  0
LINE
  5
116
330
1F
100
AcDbEntity
  8
LAY-1
  6
CONTINUOUS
 62
     7
100
AcDbLine
 10
215.736176191764
 20
164.366918336963
 30
0.0
 11
209.736176191765
 21
164.366918336961
 31
0.0
  0
LINE
  5
117
330
1F
100
AcDbEntity
  8
LAY-1
  6
CONTINUOUS
 62
     7
100
AcDbLine
 10
215.736176191765
 20
162.613869102923
 30
0.0
 11
215.736176191764
 21
164.366918336963
 31
0.0
  0
LINE
  5
118
330
1F
100
AcDbEntity
  8
LAY-1
  6
CONTINUOUS
 62
     7
100
AcDbLine
 10
241.939910320831
 20
148.196557091357
 30
0.0
 11
238.986088675472
 21
129.655978840269
 31
0.0
  0
ARC
  5
119
330
1F
100
AcDbEntity
  8
LAY-1
  6
CONTINUOUS
 62
     7
100
AcDbCircle
 10
212.736176191765
 20
152.366918336963
 30
0.0
 40
26.50000000000002
100
AcDbArc
 50
12.74980978979988
 51
347.2501902102001
  0
ARC
  5
11A
330
1F
100
AcDbEntity
  8
LAY-1
  6
CONTINUOUS
 62
     7
100
AcDbCircle
 10
190.46231258439
 20
174.640781944341
 30
0.0
 40
4.0
100
AcDbArc
 50
97.7521236040799
 51
171.4383992419204
  0
ARC
  5
11B
330
1F
100
AcDbEntity
  8
LAY-1
  6
CONTINUOUS
 62
     7
100
AcDbCircle
 10
190.462312584389
 20
130.093054729587
 30
0.0
 40
4.0
100
AcDbArc
 50
189.6685962627609
 51
262.4199780387601
  0
ARC
  5
11C
330
1F
100
AcDbEntity
  8
LAY-1
  6
CONTINUOUS
 62
     7
100
AcDbCircle
 10
212.736176191765
 20
152.366918336963
 30
0.0
 40
29.50000000000002
100
AcDbArc
 50
80.79902665236003
 51
101.22239363688
  0
ARC
  5
11D
330
1F
100
AcDbEntity
  8
LAY-1
  6
CONTINUOUS
 62
     7
100
AcDbCircle
 10
235.01003979914
 20
130.093054729586
 30
0.0
 40
4.0
100
AcDbArc
 50
280.4159106802805
 51
353.7268232457599
  0
ARC
  5
11E
330
1F
100
AcDbEntity
  8
LAY-1
  6
CONTINUOUS
 62
     7
100
AcDbCircle
 10
235.010039799141
 20
174.640781944339
 30
0.0
 40
4.0
100
AcDbArc
 50
9.048895266600056
 51
80.61168306024038
  0
CIRCLE
  5
11F
330
1F
100
AcDbEntity
  8
LAY-1
  6
CONTINUOUS
 62
     7
100
AcDbCircle
 10
212.7361761917513
 20
152.3669183369545
 30
0.0
 40
10.00000000001326
  0
LINE
  5
120
330
1F
100
AcDbEntity
  8
LAY-1
  6
CONTINUOUS
 62
     7
100
AcDbLine
 10
183.532103796419
 20
156.534910122873
 30
0.0
 11
186.517340546803
 21
175.301989644431
 31
0.0
  0
LINE
  5
121
330
1F
100
AcDbEntity
  8
LAY-1
  6
EXLTYPE2
 62
     1
100
AcDbLine
 10
234.736176191765
 20
161.718836335329
 30
0.0
 11
234.736176191765
 21
142.885954428504
 31
0.0
  0
CIRCLE
  5
122
330
1F
100
AcDbEntity
  8
LAY-1
  6
CONTINUOUS
 62
     7
100
AcDbCircle
 10
234.73617619177
 20
152.36691833696
 30
0.0
 40
5.000000000005798
  0
LINE
  5
123
330
1F
100
AcDbEntity
  8
LAY-1
  6
CONTINUOUS
 62
     7
100
AcDbLine
 10
192.2300795373597
 20
129.0472775526091
 30
0.0
 11
191.5229727561756
 21
128.3401707714247
 31
0.0
  0
LINE
  5
124
330
1F
100
AcDbEntity
  8
LAY-1
  6
CONTINUOUS
 62
     7
100
AcDbLine
 10
189.4016524126197
 20
131.8757046773491
 30
0.0
 11
188.6945456314353
 21
131.168597896165
 31
0.0
  0
LINE
  5
125
330
1F
100
AcDbEntity
  8
LAY-1
  6
CONTINUOUS
 62
     7
100
AcDbLine
 10
191.5229727561595
 20
131.8757046773437
 30
0.0
 11
192.2300795373474
 21
131.1685978961561
 31
0.0
  0
LINE
  5
126
330
1F
100
AcDbEntity
  8
LAY-1
  6
CONTINUOUS
 62
     7
100
AcDbLine
 10
188.6945456314399
 20
129.0472775526241
 30
0.0
 11
189.4016524126275
 21
128.3401707714362
 31
0.0
  0
LINE
  5
127
330
1F
100
AcDbEntity
  8
LAY-1
  6
CONTINUOUS
 62
     7
100
AcDbLine
 10
192.2300795373474
 20
131.1685978961561
 30
0.0
 11
191.5229727561732
 21
130.4614911149816
 31
0.0
  0
LINE
  5
128
330
1F
100
AcDbEntity
  8
LAY-1
  6
CONTINUOUS
 62
     7
100
AcDbLine
 10
191.5229727561733
 20
129.7543843337951
 30
0.0
 11
192.2300795373596
 21
129.0472775526092
 31
0.0
  0
ARC
  5
129
330
1F
100
AcDbEntity
  8
LAY-1
  6
CONTINUOUS
 62
     7
100
AcDbCircle
 10
191.8765261467666
 20
130.1079377243884
 30
0.0
 40
0.5
100
AcDbArc
 50
135.0000000000132
 51
225.0000000000003
  0
LINE
  5
12A
330
1F
100
AcDbEntity
  8
LAY-1
  6
CONTINUOUS
 62
     7
100
AcDbLine
 10
190.1087591938028
 20
129.0472775526105
 30
0.0
 11
189.4016524126285
 21
128.3401707714359
 31
0.0
  0
LINE
  5
12B
330
1F
100
AcDbEntity
  8
LAY-1
  6
CONTINUOUS
 62
     7
100
AcDbLine
 10
190.8158659749894
 20
129.0472775526106
 30
0.0
 11
191.5229727561754
 21
128.3401707714249
 31
0.0
  0
ARC
  5
12C
330
1F
100
AcDbEntity
  8
LAY-1
  6
CONTINUOUS
 62
     7
100
AcDbCircle
 10
190.4623125843961
 20
128.6937241620173
 30
0.0
 40
0.5
100
AcDbArc
 50
45.00000000000004
 51
135.0000000000132
  0
LINE
  5
12D
330
1F
100
AcDbEntity
  8
LAY-1
  6
CONTINUOUS
 62
     7
100
AcDbLine
 10
188.6945456314349
 20
131.1685978961643
 30
0.0
 11
189.401652412615
 21
130.4614911149845
 31
0.0
  0
LINE
  5
12E
330
1F
100
AcDbEntity
  8
LAY-1
  6
CONTINUOUS
 62
     7
100
AcDbLine
 10
188.6945456314405
 20
129.0472775526235
 30
0.0
 11
189.4016524126149
 21
129.7543843337982
 31
0.0
  0
ARC
  5
12F
330
1F
100
AcDbEntity
  8
LAY-1
  6
CONTINUOUS
 62
     7
100
AcDbCircle
 10
189.0480990220217
 20
130.1079377243912
 30
0.0
 40
0.5
100
AcDbArc
 50
315.000000000013
 51
45.00000000000004
  0
LINE
  5
130
330
1F
100
AcDbEntity
  8
LAY-1
  6
CONTINUOUS
 62
     7
100
AcDbLine
 10
189.401652412619
 20
131.8757046773484
 30
0.0
 11
190.1087591937988
 21
131.168597896169
 31
0.0
  0
LINE
  5
131
330
1F
100
AcDbEntity
  8
LAY-1
  6
CONTINUOUS
 62
     7
100
AcDbLine
 10
190.8158659749853
 20
131.1685978961692
 30
0.0
 11
191.5229727561595
 21
131.8757046773437
 31
0.0
  0
ARC
  5
132
330
1F
100
AcDbEntity
  8
LAY-1
  6
CONTINUOUS
 62
     7
100
AcDbCircle
 10
190.462312584392
 20
131.5221512867623
 30
0.0
 40
0.5
100
AcDbArc
 50
225.0000000000003
 51
315.000000000013
  0
LINE
  5
133
330
1F
100
AcDbEntity
  8
LAY-1
  6
CONTINUOUS
 62
     7
100
AcDbLine
 10
192.2300795373597
 20
173.5801217725555
 30
0.0
 11
191.5229727561756
 21
172.8730149913711
 31
0.0
  0
LINE
  5
134
330
1F
100
AcDbEntity
  8
LAY-1
  6
CONTINUOUS
 62
     7
100
AcDbLine
 10
189.4016524126197
 20
176.4085488972955
 30
0.0
 11
188.6945456314353
 21
175.7014421161115
 31
0.0
  0
LINE
  5
135
330
1F
100
AcDbEntity
  8
LAY-1
  6
CONTINUOUS
 62
     7
100
AcDbLine
 10
191.5229727561595
 20
176.4085488972901
 30
0.0
 11
192.2300795373474
 21
175.7014421161025
 31
0.0
  0
LINE
  5
136
330
1F
100
AcDbEntity
  8
LAY-1
  6
CONTINUOUS
 62
     7
100
AcDbLine
 10
188.6945456314399
 20
173.5801217725705
 30
0.0
 11
189.4016524126275
 21
172.8730149913826
 31
0.0
  0
LINE
  5
137
330
1F
100
AcDbEntity
  8
LAY-1
  6
CONTINUOUS
 62
     7
100
AcDbLine
 10
192.2300795373474
 20
175.7014421161025
 30
0.0
 11
191.5229727561732
 21
174.994335334928
 31
0.0
  0
LINE
  5
138
330
1F
100
AcDbEntity
  8
LAY-1
  6
CONTINUOUS
 62
     7
100
AcDbLine
 10
191.5229727561733
 20
174.2872285537416
 30
0.0
 11
192.2300795373596
 21
173.5801217725556
 31
0.0
  0
ARC
  5
139
330
1F
100
AcDbEntity
  8
LAY-1
  6
CONTINUOUS
 62
     7
100
AcDbCircle
 10
191.8765261467666
 20
174.6407819443348
 30
0.0
 40
0.5
100
AcDbArc
 50
135.0000000000132
 51
225.0000000000003
  0
LINE
  5
13A
330
1F
100
AcDbEntity
  8
LAY-1
  6
CONTINUOUS
 62
     7
100
AcDbLine
 10
190.1087591938028
 20
173.5801217725569
 30
0.0
 11
189.4016524126285
 21
172.8730149913823
 31
0.0
  0
LINE
  5
13B
330
1F
100
AcDbEntity
  8
LAY-1
  6
CONTINUOUS
 62
     7
100
AcDbLine
 10
190.8158659749894
 20
173.580121772557
 30
0.0
 11
191.5229727561754
 21
172.8730149913713
 31
0.0
  0
ARC
  5
13C
330
1F
100
AcDbEntity
  8
LAY-1
  6
CONTINUOUS
 62
     7
100
AcDbCircle
 10
190.4623125843961
 20
173.2265683819637
 30
0.0
 40
0.5
100
AcDbArc
 50
45.00000000000004
 51
135.0000000000132
  0
LINE
  5
13D
330
1F
100
AcDbEntity
  8
LAY-1
  6
CONTINUOUS
 62
     7
100
AcDbLine
 10
188.6945456314349
 20
175.7014421161107
 30
0.0
 11
189.401652412615
 21
174.9943353349309
 31
0.0
  0
LINE
  5
13E
330
1F
100
AcDbEntity
  8
LAY-1
  6
CONTINUOUS
 62
     7
100
AcDbLine
 10
188.6945456314405
 20
173.5801217725699
 30
0.0
 11
189.4016524126149
 21
174.2872285537446
 31
0.0
  0
ARC
  5
13F
330
1F
100
AcDbEntity
  8
LAY-1
  6
CONTINUOUS
 62
     7
100
AcDbCircle
 10
189.0480990220217
 20
174.6407819443376
 30
0.0
 40
0.5
100
AcDbArc
 50
315.000000000013
 51
45.00000000000004
  0
LINE
  5
140
330
1F
100
AcDbEntity
  8
LAY-1
  6
CONTINUOUS
 62
     7
100
AcDbLine
 10
189.401652412619
 20
176.4085488972948
 30
0.0
 11
190.1087591937988
 21
175.7014421161155
 31
0.0
  0
LINE
  5
141
330
1F
100
AcDbEntity
  8
LAY-1
  6
CONTINUOUS
 62
     7
100
AcDbLine
 10
190.8158659749853
 20
175.7014421161156
 30
0.0
 11
191.5229727561595
 21
176.4085488972901
 31
0.0
  0
ARC
  5
142
330
1F
100
AcDbEntity
  8
LAY-1
  6
CONTINUOUS
 62
     7
100
AcDbCircle
 10
190.462312584392
 20
176.0549955067087
 30
0.0
 40
0.5
100
AcDbArc
 50
225.0000000000003
 51
315.000000000013
  0
LINE
  5
143
330
1F
100
AcDbEntity
  8
LAY-1
  6
CONTINUOUS
 62
     7
100
AcDbLine
 10
236.7778067521097
 20
173.5801217725555
 30
0.0
 11
236.0706999709256
 21
172.8730149913711
 31
0.0
  0
LINE
  5
144
330
1F
100
AcDbEntity
  8
LAY-1
  6
CONTINUOUS
 62
     7
100
AcDbLine
 10
233.9493796273696
 20
176.4085488972955
 30
0.0
 11
233.2422728461853
 21
175.7014421161115
 31
0.0
  0
LINE
  5
145
330
1F
100
AcDbEntity
  8
LAY-1
  6
CONTINUOUS
 62
     7
100
AcDbLine
 10
236.0706999709095
 20
176.4085488972901
 30
0.0
 11
236.7778067520974
 21
175.7014421161025
 31
0.0
  0
LINE
  5
146
330
1F
100
AcDbEntity
  8
LAY-1
  6
CONTINUOUS
 62
     7
100
AcDbLine
 10
233.2422728461899
 20
173.5801217725705
 30
0.0
 11
233.9493796273775
 21
172.8730149913826
 31
0.0
  0
LINE
  5
147
330
1F
100
AcDbEntity
  8
LAY-1
  6
CONTINUOUS
 62
     7
100
AcDbLine
 10
236.7778067520974
 20
175.7014421161025
 30
0.0
 11
236.0706999709232
 21
174.994335334928
 31
0.0
  0
LINE
  5
148
330
1F
100
AcDbEntity
  8
LAY-1
  6
CONTINUOUS
 62
     7
100
AcDbLine
 10
236.0706999709233
 20
174.2872285537416
 30
0.0
 11
236.7778067521096
 21
173.5801217725556
 31
0.0
  0
ARC
  5
149
330
1F
100
AcDbEntity
  8
LAY-1
  6
CONTINUOUS
 62
     7
100
AcDbCircle
 10
236.4242533615165
 20
174.6407819443348
 30
0.0
 40
0.5
100
AcDbArc
 50
135.0000000000132
 51
225.0000000000003
  0
LINE
  5
14A
330
1F
100
AcDbEntity
  8
LAY-1
  6
CONTINUOUS
 62
     7
100
AcDbLine
 10
234.6564864085528
 20
173.5801217725569
 30
0.0
 11
233.9493796273784
 21
172.8730149913823
 31
0.0
  0
LINE
  5
14B
330
1F
100
AcDbEntity
  8
LAY-1
  6
CONTINUOUS
 62
     7
100
AcDbLine
 10
235.3635931897394
 20
173.580121772557
 30
0.0
 11
236.0706999709254
 21
172.8730149913713
 31
0.0
  0
ARC
  5
14C
330
1F
100
AcDbEntity
  8
LAY-1
  6
CONTINUOUS
 62
     7
100
AcDbCircle
 10
235.0100397991461
 20
173.2265683819637
 30
0.0
 40
0.5
100
AcDbArc
 50
45.00000000000004
 51
135.0000000000132
  0
LINE
  5
14D
330
1F
100
AcDbEntity
  8
LAY-1
  6
CONTINUOUS
 62
     7
100
AcDbLine
 10
233.2422728461848
 20
175.7014421161107
 30
0.0
 11
233.949379627365
 21
174.9943353349309
 31
0.0
  0
LINE
  5
14E
330
1F
100
AcDbEntity
  8
LAY-1
  6
CONTINUOUS
 62
     7
100
AcDbLine
 10
233.2422728461905
 20
173.5801217725699
 30
0.0
 11
233.9493796273649
 21
174.2872285537446
 31
0.0
  0
ARC
  5
14F
330
1F
100
AcDbEntity
  8
LAY-1
  6
CONTINUOUS
 62
     7
100
AcDbCircle
 10
233.5958262367717
 20
174.6407819443376
 30
0.0
 40
0.5
100
AcDbArc
 50
315.000000000013
 51
45.00000000000004
  0
LINE
  5
150
330
1F
100
AcDbEntity
  8
LAY-1
  6
CONTINUOUS
 62
     7
100
AcDbLine
 10
233.949379627369
 20
176.4085488972948
 30
0.0
 11
234.6564864085487
 21
175.7014421161155
 31
0.0
  0
LINE
  5
151
330
1F
100
AcDbEntity
  8
LAY-1
  6
CONTINUOUS
 62
     7
100
AcDbLine
 10
235.3635931897353
 20
175.7014421161156
 30
0.0
 11
236.0706999709095
 21
176.4085488972901
 31
0.0
  0
ARC
  5
152
330
1F
100
AcDbEntity
  8
LAY-1
  6
CONTINUOUS
 62
     7
100
AcDbCircle
 10
235.010039799142
 20
176.0549955067087
 30
0.0
 40
0.5
100
AcDbArc
 50
225.0000000000003
 51
315.000000000013
  0
LINE
  5
153
330
1F
100
AcDbEntity
  8
LAY-1
  6
CONTINUOUS
 62
     7
100
AcDbLine
 10
236.7778067521097
 20
129.0323945578055
 30
0.0
 11
236.0706999709256
 21
128.3252877766211
 31
0.0
  0
LINE
  5
154
330
1F
100
AcDbEntity
  8
LAY-1
  6
CONTINUOUS
 62
     7
100
AcDbLine
 10
233.9493796273696
 20
131.8608216825455
 30
0.0
 11
233.2422728461853
 21
131.1537149013614
 31
0.0
  0
LINE
  5
155
330
1F
100
AcDbEntity
  8
LAY-1
  6
CONTINUOUS
 62
     7
100
AcDbLine
 10
236.0706999709095
 20
131.8608216825401
 30
0.0
 11
236.7778067520974
 21
131.1537149013525
 31
0.0
  0
LINE
  5
156
330
1F
100
AcDbEntity
  8
LAY-1
  6
CONTINUOUS
 62
     7
100
AcDbLine
 10
233.2422728461899
 20
129.0323945578205
 30
0.0
 11
233.9493796273775
 21
128.3252877766326
 31
0.0
  0
LINE
  5
157
330
1F
100
AcDbEntity
  8
LAY-1
  6
CONTINUOUS
 62
     7
100
AcDbLine
 10
236.7778067520974
 20
131.1537149013525
 30
0.0
 11
236.0706999709232
 21
130.446608120178
 31
0.0
  0
LINE
  5
158
330
1F
100
AcDbEntity
  8
LAY-1
  6
CONTINUOUS
 62
     7
100
AcDbLine
 10
236.0706999709233
 20
129.7395013389915
 30
0.0
 11
236.7778067521096
 21
129.0323945578056
 31
0.0
  0
ARC
  5
159
330
1F
100
AcDbEntity
  8
LAY-1
  6
CONTINUOUS
 62
     7
100
AcDbCircle
 10
236.4242533615165
 20
130.0930547295848
 30
0.0
 40
0.5
100
AcDbArc
 50
135.0000000000131
 51
225.0000000000003
  0
LINE
  5
15A
330
1F
100
AcDbEntity
  8
LAY-1
  6
CONTINUOUS
 62
     7
100
AcDbLine
 10
234.6564864085528
 20
129.0323945578069
 30
0.0
 11
233.9493796273784
 21
128.3252877766323
 31
0.0
  0
LINE
  5
15B
330
1F
100
AcDbEntity
  8
LAY-1
  6
CONTINUOUS
 62
     7
100
AcDbLine
 10
235.3635931897394
 20
129.032394557807
 30
0.0
 11
236.0706999709254
 21
128.3252877766213
 31
0.0
  0
ARC
  5
15C
330
1F
100
AcDbEntity
  8
LAY-1
  6
CONTINUOUS
 62
     7
100
AcDbCircle
 10
235.0100397991461
 20
128.6788411672137
 30
0.0
 40
0.5
100
AcDbArc
 50
45.00000000000004
 51
135.0000000000131
  0
LINE
  5
15D
330
1F
100
AcDbEntity
  8
LAY-1
  6
CONTINUOUS
 62
     7
100
AcDbLine
 10
233.2422728461848
 20
131.1537149013607
 30
0.0
 11
233.949379627365
 21
130.4466081201809
 31
0.0
  0
LINE
  5
15E
330
1F
100
AcDbEntity
  8
LAY-1
  6
CONTINUOUS
 62
     7
100
AcDbLine
 10
233.2422728461905
 20
129.0323945578199
 30
0.0
 11
233.9493796273649
 21
129.7395013389946
 31
0.0
  0
ARC
  5
15F
330
1F
100
AcDbEntity
  8
LAY-1
  6
CONTINUOUS
 62
     7
100
AcDbCircle
 10
233.5958262367717
 20
130.0930547295876
 30
0.0
 40
0.5
100
AcDbArc
 50
315.000000000013
 51
45.00000000000004
  0
LINE
  5
160
330
1F
100
AcDbEntity
  8
LAY-1
  6
CONTINUOUS
 62
     7
100
AcDbLine
 10
233.949379627369
 20
131.8608216825448
 30
0.0
 11
234.6564864085487
 21
131.1537149013654
 31
0.0
  0
LINE
  5
161
330
1F
100
AcDbEntity
  8
LAY-1
  6
CONTINUOUS
 62
     7
100
AcDbLine
 10
235.3635931897353
 20
131.1537149013656
 30
0.0
 11
236.0706999709095
 21
131.8608216825401
 31
0.0
  0
ARC
  5
162
330
1F
100
AcDbEntity
  8
LAY-1
  6
CONTINUOUS
 62
     7
100
AcDbCircle
 10
235.010039799142
 20
131.5072682919587
 30
0.0
 40
0.5
100
AcDbArc
 50
225.0000000000003
 51
315.000000000013
  0
LINE
  5
163
330
1F
100
AcDbEntity
  8
LAY-1
  6
EXLTYPE2
 62
     1
100
AcDbLine
 10
212.736176191765
 20
193.940720222788
 30
0.0
 11
212.736176191765
 21
112.282521329912
 31
0.0
  0
TEXT
  5
164
330
1F
100
AcDbEntity
  8
LAY-1
  6
CONTINUOUS
 62
     3
100
AcDbText
 10
333.1179999999999
 20
47.69743320000009
 30
0.0
 40
3.1181104
  1
型式
 41
1.760849960901652
  7
EXCADSTD
 72
     5
 11
341.7459671907424
 21
47.69743320000009
 31
0.0
100
AcDbText
  0
TEXT
  5
165
330
1F
100
AcDbEntity
  8
LAY-1
  6
CONTINUOUS
 62
     3
100
AcDbText
 10
333.0219999999999
 20
42.06543320000009
 30
0.0
 40
3.1181104
  1
品名
 41
1.760849960901652
  7
EXCADSTD
 72
     5
 11
341.6499671907424
 21
42.06543320000009
 31
0.0
100
AcDbText
  0
LINE
  5
166
330
1F
100
AcDbEntity
  8
LAY-1
  6
CONTINUOUS
 62
     4
100
AcDbLine
 10
331.23
 20
35.85000000000009
 30
0.0
 11
402.91
 21
35.85000000000009
 31
0.0
  0
LINE
  5
167
330
1F
100
AcDbEntity
  8
LAY-1
  6
CONTINUOUS
 62
     1
100
AcDbLine
 10
331.23
 20
40.73000000000009
 30
0.0
 11
402.91
 21
40.73000000000009
 31
0.0
  0
TEXT
  5
168
330
1F
100
AcDbEntity
  8
LAY-1
  6
CONTINUOUS
 62
     3
100
AcDbText
 10
356.702
 20
36.9134332000001
 30
0.0
 40
3.1181104
  1
外観図
 41
2.632270902717889
  7
EXCADSTD
 72
     5
 11
376.6350131022135
 21
36.9134332000001
 31
0.0
100
AcDbText
  0
LINE
  5
169
330
1F
100
AcDbEntity
  8
LAY-1
  6
CONTINUOUS
 62
     4
100
AcDbLine
 10
331.23
 20
57.5300000000001
 30
0.0
 11
402.91
 21
57.5300000000001
 31
0.0
  0
LINE
  5
16A
330
1F
100
AcDbEntity
  8
LAY-1
  6
CONTINUOUS
 62
     1
100
AcDbLine
 10
331.23
 20
46.3300000000001
 30
0.0
 11
402.91
 21
46.3300000000001
 31
0.0
  0
LINE
  5
16B
330
1F
100
AcDbEntity
  8
LAY-1
  6
CONTINUOUS
 62
     1
100
AcDbLine
 10
331.23
 20
51.93000000000009
 30
0.0
 11
402.91
 21
51.93000000000009
 31
0.0
  0
LINE
  5
16C
330
1F
100
AcDbEntity
  8
LAY-1
  6
CONTINUOUS
 62
     1
100
AcDbLine
 10
343.23
 20
57.5300000000001
 30
0.0
 11
343.23
 21
40.73000000000009
 31
0.0
  0
LINE
  5
16D
330
1F
100
AcDbEntity
  8
LAY-1
  6
CONTINUOUS
 62
     4
100
AcDbLine
 10
331.23
 20
30.97000000000009
 30
0.0
 11
402.91
 21
30.97000000000009
 31
0.0
  0
LINE
  5
16E
330
1F
100
AcDbEntity
  8
LAY-1
  6
CONTINUOUS
 62
     4
100
AcDbLine
 10
402.91
 20
30.97000000000009
 30
0.0
 11
402.91
 21
57.5300000000001
 31
0.0
  0
LINE
  5
16F
330
1F
100
AcDbEntity
  8
LAY-1
  6
CONTINUOUS
 62
     4
100
AcDbLine
 10
331.23
 20
30.97000000000009
 30
0.0
 11
331.23
 21
57.5300000000001
 31
0.0
  0
TEXT
  5
170
330
1F
100
AcDbEntity
  8
LAY-1
  6
CONTINUOUS
 62
     3
100
AcDbText
 10
331.742
 20
53.1694332000001
 30
0.0
 40
3.1181104
  1
作成日
 41
1.500154407240852
  7
EXCADSTD
 72
     5
 11
343.102
 21
53.1694332000001
 31
0.0
100
AcDbText
  0
TEXT
  5
171
330
1F
100
AcDbEntity
  8
LAY-1
  6
CONTINUOUS
 62
     3
100
AcDbText
 10
345.2171999999999
 20
47.64943320000009
 30
0.0
 40
3.1181104
  1
ＳＧＸ－１０Ａ
 41
1.498093047698094
  7
EXCADSTD
 72
     5
 11
372.5771999999999
 21
47.64943320000009
 31
0.0
100
AcDbText
  0
TEXT
  5
172
330
1F
100
AcDbEntity
  8
LAY-1
  6
CONTINUOUS
 62
     3
100
AcDbText
 10
345.2107999999999
 20
42.06863320000008
 30
0.0
 40
3.1181104
  1
ガバナ
 41
1.500154407240852
  7
EXCADSTD
 72
     5
 11
356.5708
 21
42.06863320000008
 31
0.0
100
AcDbText
  0
ARC
  5
173
330
1F
100
AcDbEntity
  8
LAY-1
  6
CONTINUOUS
 62
     7
100
AcDbCircle
 10
183.736176191747
 20
247.438961832694
 30
0.0
 40
0.5
100
AcDbArc
 50
90.0000000000002
 51
180.0000000000002
  0
ARC
  5
174
330
1F
100
AcDbEntity
  8
LAY-1
  6
CONTINUOUS
 62
     7
100
AcDbCircle
 10
198.583328055156
 20
248.938961832697
 30
0.0
 40
1.0
100
AcDbArc
 50
270.0000000000002
 51
357.9999999998401
  0
LINE
  5
175
330
1F
100
AcDbEntity
  8
LAY-1
  6
CONTINUOUS
 62
     7
100
AcDbLine
 10
212.736176191758
 20
212.938961832694
 30
0.0
 11
202.736176191748
 21
212.938961832694
 31
0.0
  0
ARC
  5
176
330
1F
100
AcDbEntity
  8
LAY-1
  6
CONTINUOUS
 62
     7
100
AcDbCircle
 10
184.236176191747
 20
242.438961832694
 30
0.0
 40
1.0
100
AcDbArc
 50
180.0000000000002
 51
270.0000000000002
  0
LINE
  5
177
330
1F
100
AcDbEntity
  8
LAY-1
  6
CONTINUOUS
 62
     7
100
AcDbLine
 10
193.003050310338
 20
276.438961832694
 30
0.0
 11
192.041510432035
 21
248.904062335992
 31
0.0
  0
LINE
  5
178
330
1F
100
AcDbEntity
  8
LAY-1
  6
CONTINUOUS
 62
     7
100
AcDbLine
 10
232.469302073139
 20
276.438961832694
 30
0.0
 11
233.430841951442
 21
248.904062335992
 31
0.0
  0
LINE
  5
179
330
1F
100
AcDbEntity
  8
LAY-1
  6
CONTINUOUS
 62
     7
100
AcDbLine
 10
183.736176191747
 20
247.938961832694
 30
0.0
 11
198.583328055156
 21
247.938961832697
 31
0.0
  0
LINE
  5
17A
330
1F
100
AcDbEntity
  8
LAY-1
  6
CONTINUOUS
 62
     7
100
AcDbLine
 10
242.236176191748
 20
247.438961832694
 30
0.0
 11
242.236176191748
 21
244.438961832694
 31
0.0
  0
LINE
  5
17B
330
1F
100
AcDbEntity
  8
LAY-1
  6
CONTINUOUS
 62
     7
100
AcDbLine
 10
242.236176191748
 20
244.438961832694
 30
0.0
 11
212.736176191748
 21
244.438961832694
 31
0.0
  0
LINE
  5
17C
330
1F
100
AcDbEntity
  8
LAY-1
  6
CONTINUOUS
 62
     7
100
AcDbLine
 10
183.236176191748
 20
244.438961832694
 30
0.0
 11
183.236176191747
 21
247.438961832694
 31
0.0
  0
LINE
  5
17D
330
1F
100
AcDbEntity
  8
LAY-1
  6
CONTINUOUS
 62
     7
100
AcDbLine
 10
233.774207465935
 20
253.87269867018
 30
0.0
 11
232.986176191747
 21
276.438961832694
 31
0.0
  0
LINE
  5
17E
330
1F
100
AcDbEntity
  8
LAY-1
  6
CONTINUOUS
 62
     7
100
AcDbLine
 10
232.986176191747
 20
276.438961832694
 30
0.0
 11
212.736176191738
 21
276.438961832694
 31
0.0
  0
LINE
  5
17F
330
1F
100
AcDbEntity
  8
LAY-1
  6
CONTINUOUS
 62
     7
100
AcDbLine
 10
192.486176191748
 20
276.438961832694
 30
0.0
 11
191.698144917559
 21
253.8726986701801
 31
0.0
  0
LINE
  5
180
330
1F
100
AcDbEntity
  8
LAY-1
  6
CONTINUOUS
 62
     7
100
AcDbLine
 10
241.736176191748
 20
247.938961832694
 30
0.0
 11
226.88902432833
 21
247.938961832694
 31
0.0
  0
LINE
  5
181
330
1F
100
AcDbEntity
  8
LAY-1
  6
CONTINUOUS
 62
     7
100
AcDbLine
 10
212.736176191748
 20
244.438961832694
 30
0.0
 11
183.236176191748
 21
244.438961832694
 31
0.0
  0
ARC
  5
182
330
1F
100
AcDbEntity
  8
LAY-1
  6
CONTINUOUS
 62
     7
100
AcDbCircle
 10
240.09710265808
 20
240.438961832694
 30
0.0
 40
1.0
100
AcDbArc
 50
90.0000000000002
 51
177.9999999998402
  0
ARC
  5
183
330
1F
100
AcDbEntity
  8
LAY-1
  6
CONTINUOUS
 62
     7
100
AcDbCircle
 10
241.236176191748
 20
242.438961832694
 30
0.0
 40
1.0
100
AcDbArc
 50
270.0000000000002
 51
0.0000000000000573
  0
ARC
  5
184
330
1F
100
AcDbEntity
  8
LAY-1
  6
CONTINUOUS
 62
     7
100
AcDbCircle
 10
185.375249725417
 20
240.438961832694
 30
0.0
 40
1.0
100
AcDbArc
 50
2.000000000160051
 51
90.0000000000002
  0
ARC
  5
185
330
1F
100
AcDbEntity
  8
LAY-1
  6
CONTINUOUS
 62
     7
100
AcDbCircle
 10
225.111764743793
 20
234.438961832694
 30
0.0
 40
2.0
100
AcDbArc
 50
90.0000000000002
 51
178.9999999999205
  0
ARC
  5
186
330
1F
100
AcDbEntity
  8
LAY-1
  6
CONTINUOUS
 62
     7
100
AcDbCircle
 10
207.972720224452
 20
273.938961832694
 30
0.0
 40
1.0
100
AcDbArc
 50
90.0000000000002
 51
134.9999999999994
  0
ARC
  5
187
330
1F
100
AcDbEntity
  8
LAY-1
  6
CONTINUOUS
 62
     7
100
AcDbCircle
 10
200.360587639704
 20
234.438961832694
 30
0.0
 40
2.0
100
AcDbArc
 50
1.000000000079911
 51
90.0000000000002
  0
ARC
  5
188
330
1F
100
AcDbEntity
  8
LAY-1
  6
CONTINUOUS
 62
     7
100
AcDbCircle
 10
235.57689932399
 20
239.938961832694
 30
0.0
 40
3.500000000000002
100
AcDbArc
 50
270.0000000000002
 51
357.9999999998401
  0
ARC
  5
189
330
1F
100
AcDbEntity
  8
LAY-1
  6
CONTINUOUS
 62
     7
100
AcDbCircle
 10
189.895453059507
 20
239.938961832694
 30
0.0
 40
3.500000000000002
100
AcDbArc
 50
182.0000000001602
 51
270.0000000000002
  0
LINE
  5
18A
330
1F
100
AcDbEntity
  8
LAY-1
  6
CONTINUOUS
 62
     7
100
AcDbLine
 10
242.236176191748
 20
244.438961832694
 30
0.0
 11
242.236176191748
 21
242.438961832694
 31
0.0
  0
LINE
  5
18B
330
1F
100
AcDbEntity
  8
LAY-1
  6
CONTINUOUS
 62
     7
100
AcDbLine
 10
241.236176191748
 20
241.438961832694
 30
0.0
 11
212.736176191749
 21
241.438961832694
 31
0.0
  0
LINE
  5
18C
330
1F
100
AcDbEntity
  8
LAY-1
  6
CONTINUOUS
 62
     7
100
AcDbLine
 10
239.097711831061
 20
240.473861329397
 30
0.0
 11
239.074767218556
 21
239.816813594235
 31
0.0
  0
LINE
  5
18D
330
1F
100
AcDbEntity
  8
LAY-1
  6
CONTINUOUS
 62
     7
100
AcDbLine
 10
235.57689932399
 20
236.438961832694
 30
0.0
 11
212.736176191751
 21
236.438961832694
 31
0.0
  0
LINE
  5
18E
330
1F
100
AcDbEntity
  8
LAY-1
  6
CONTINUOUS
 62
     7
100
AcDbLine
 10
189.894538743059
 20
236.438961832694
 30
0.0
 11
212.736176191751
 21
236.438961832694
 31
0.0
  0
LINE
  5
18F
330
1F
100
AcDbEntity
  8
LAY-1
  6
CONTINUOUS
 62
     7
100
AcDbLine
 10
183.236176191748
 20
244.438961832694
 30
0.0
 11
183.236176191747
 21
242.438961832694
 31
0.0
  0
LINE
  5
190
330
1F
100
AcDbEntity
  8
LAY-1
  6
CONTINUOUS
 62
     7
100
AcDbLine
 10
184.236176191748
 20
241.438961832694
 30
0.0
 11
212.736176191749
 21
241.438961832694
 31
0.0
  0
LINE
  5
191
330
1F
100
AcDbEntity
  8
LAY-1
  6
CONTINUOUS
 62
     7
100
AcDbLine
 10
186.374640552436
 20
240.473861329397
 30
0.0
 11
186.39758516494
 21
239.816813594235
 31
0.0
  0
LINE
  5
192
330
1F
100
AcDbEntity
  8
LAY-1
  6
CONTINUOUS
 62
     7
100
AcDbLine
 10
213.736176191739
 20
275.438961832694
 30
0.0
 11
213.736176191739
 21
274.938961832694
 31
0.0
  0
LINE
  5
193
330
1F
100
AcDbEntity
  8
LAY-1
  6
CONTINUOUS
 62
     7
100
AcDbLine
 10
222.736176191748
 20
212.938961832694
 30
0.0
 11
212.736176191758
 21
212.938961832694
 31
0.0
  0
LINE
  5
194
330
1F
100
AcDbEntity
  8
LAY-1
  6
CONTINUOUS
 62
     7
100
AcDbLine
 10
202.736176191748
 20
212.938961832694
 30
0.0
 11
202.360283030017
 21
234.473866645569
 31
0.0
  0
LINE
  5
195
330
1F
100
AcDbEntity
  8
LAY-1
  6
CONTINUOUS
 62
     7
100
AcDbLine
 10
223.11206935348
 20
234.473866645569
 30
0.0
 11
222.736176191748
 21
212.938961832694
 31
0.0
  0
LINE
  5
196
330
1F
100
AcDbEntity
  8
LAY-1
  6
CONTINUOUS
 62
     7
100
AcDbLine
 10
203.236176191758
 20
211.938961832695
 30
0.0
 11
203.236176191758
 21
208.938961832694
 31
0.0
  0
LINE
  5
197
330
1F
100
AcDbEntity
  8
LAY-1
  6
CONTINUOUS
 62
     7
100
AcDbLine
 10
202.236176191758
 20
211.938961832694
 30
0.0
 11
202.736176191748
 21
211.938961832694
 31
0.0
  0
LINE
  5
198
330
1F
100
AcDbEntity
  8
LAY-1
  6
CONTINUOUS
 62
     7
100
AcDbLine
 10
202.236176191758
 20
208.938961832694
 30
0.0
 11
202.236176191758
 21
211.938961832694
 31
0.0
  0
LINE
  5
199
330
1F
100
AcDbEntity
  8
LAY-1
  6
CONTINUOUS
 62
     7
100
AcDbLine
 10
229.79247918106
 20
225.438961832694
 30
0.0
 11
229.871044846169
 21
227.938961832694
 31
0.0
  0
LINE
  5
19A
330
1F
100
AcDbEntity
  8
LAY-1
  6
CONTINUOUS
 62
     7
100
AcDbLine
 10
229.736176191746
 20
225.438961832694
 30
0.0
 11
229.79247918106
 21
225.438961832694
 31
0.0
  0
LINE
  5
19B
330
1F
100
AcDbEntity
  8
LAY-1
  6
CONTINUOUS
 62
     7
100
AcDbLine
 10
229.736176191746
 20
221.438961832694
 30
0.0
 11
229.736176191746
 21
225.438961832694
 31
0.0
  0
LINE
  5
19C
330
1F
100
AcDbEntity
  8
LAY-1
  6
CONTINUOUS
 62
     7
100
AcDbLine
 10
239.7361761917469
 20
221.438961832694
 30
0.0
 11
229.736176191746
 21
221.438961832694
 31
0.0
  0
LINE
  5
19D
330
1F
100
AcDbEntity
  8
LAY-1
  6
CONTINUOUS
 62
     7
100
AcDbLine
 10
239.736176191746
 20
225.438961832694
 30
0.0
 11
239.7361761917469
 21
221.438961832694
 31
0.0
  0
LINE
  5
19E
330
1F
100
AcDbEntity
  8
LAY-1
  6
CONTINUOUS
 62
     7
100
AcDbLine
 10
223.2361761917589
 20
208.938961832694
 30
0.0
 11
202.236176191758
 21
208.938961832694
 31
0.0
  0
ARC
  5
19F
330
1F
100
AcDbEntity
  8
LAY-1
  6
CONTINUOUS
 62
     7
100
AcDbCircle
 10
235.010039799124
 20
244.838961832694
 30
0.0
 40
6.500000000000004
100
AcDbArc
 50
240.0000000001201
 51
299.99999999988
  0
LINE
  5
1A0
330
1F
100
AcDbEntity
  8
LAY-1
  6
CONTINUOUS
 62
     7
100
AcDbLine
 10
193.003050310338
 20
278.938961832694
 30
0.0
 11
193.003050310338
 21
279.869088851616
 31
0.0
  0
LINE
  5
1A1
330
1F
100
AcDbEntity
  8
LAY-1
  6
CONTINUOUS
 62
     7
100
AcDbLine
 10
223.236176191758
 20
211.938961832694
 30
0.0
 11
223.2361761917589
 21
208.938961832694
 31
0.0
  0
LINE
  5
1A2
330
1F
100
AcDbEntity
  8
LAY-1
  6
CONTINUOUS
 62
     7
100
AcDbLine
 10
222.7361761917489
 20
211.938961832694
 30
0.0
 11
223.236176191758
 21
211.938961832694
 31
0.0
  0
LINE
  5
1A3
330
1F
100
AcDbEntity
  8
LAY-1
  6
CONTINUOUS
 62
     7
100
AcDbLine
 10
227.227524823307
 20
228.938961832694
 30
0.0
 11
223.506805862158
 21
228.938961832694
 31
0.0
  0
LINE
  5
1A4
330
1F
100
AcDbEntity
  8
LAY-1
  6
CONTINUOUS
 62
     7
100
AcDbLine
 10
227.725703152793
 20
228.538961832694
 30
0.0
 11
227.59638335588
 21
235.947688035913
 31
0.0
  0
LINE
  5
1A5
330
1F
100
AcDbEntity
  8
LAY-1
  6
CONTINUOUS
 62
     7
100
AcDbLine
 10
241.244827560191
 20
227.938961832694
 30
0.0
 11
228.227524823307
 21
227.938961832694
 31
0.0
  0
LINE
  5
1A6
330
1F
100
AcDbEntity
  8
LAY-1
  6
CONTINUOUS
 62
     7
100
AcDbLine
 10
241.974653290641
 20
241.601305678004
 30
0.0
 11
241.74475140777
 21
228.430235629476
 31
0.0
  0
LINE
  5
1A7
330
1F
100
AcDbEntity
  8
LAY-1
  6
CONTINUOUS
 62
     7
100
AcDbLine
 10
201.003050310338
 20
279.869088851617
 30
0.0
 11
201.003050310338
 21
278.938961832694
 31
0.0
  0
ARC
  5
1A8
330
1F
100
AcDbEntity
  8
LAY-1
  6
CONTINUOUS
 62
     7
100
AcDbCircle
 10
227.096459508302
 20
235.938961832694
 30
0.0
 40
0.5
100
AcDbArc
 50
1.000000000079911
 51
90.0000000000002
  0
ARC
  5
1A9
330
1F
100
AcDbEntity
  8
LAY-1
  6
CONTINUOUS
 62
     7
100
AcDbCircle
 10
223.506805862158
 20
228.438961832694
 30
0.0
 40
0.5
100
AcDbArc
 50
90.0000000000002
 51
178.9999999999205
  0
ARC
  5
1AA
330
1F
100
AcDbEntity
  8
LAY-1
  6
CONTINUOUS
 62
     7
100
AcDbCircle
 10
242.474577138219
 20
241.592579474785
 30
0.0
 40
0.5
100
AcDbArc
 50
145.6494334124393
 51
178.9999999999205
  0
ARC
  5
1AB
330
1F
100
AcDbEntity
  8
LAY-1
  6
CONTINUOUS
 62
     7
100
AcDbCircle
 10
227.227524823307
 20
228.438961832694
 30
0.0
 40
0.5
100
AcDbArc
 50
0.0000000000000573
 51
90.0000000000002
  0
LINE
  5
1AC
330
1F
100
AcDbEntity
  8
LAY-1
  6
CONTINUOUS
 62
     7
100
AcDbLine
 10
211.736176191739
 20
274.938961832694
 30
0.0
 11
211.736176191739
 21
275.438961832694
 31
0.0
  0
LINE
  5
1AD
330
1F
100
AcDbEntity
  8
LAY-1
  6
CONTINUOUS
 62
     7
100
AcDbLine
 10
224.469302073137
 20
278.938961832694
 30
0.0
 11
224.469302073137
 21
279.869088851617
 31
0.0
  0
LINE
  5
1AE
330
1F
100
AcDbEntity
  8
LAY-1
  6
CONTINUOUS
 62
     7
100
AcDbLine
 10
222.736176191748
 20
212.938961832694
 30
0.0
 11
222.7361761917489
 21
211.938961832694
 31
0.0
  0
LINE
  5
1AF
330
1F
100
AcDbEntity
  8
LAY-1
  6
CONTINUOUS
 62
     7
100
AcDbLine
 10
222.7361761917489
 20
211.938961832694
 30
0.0
 11
212.736176191758
 21
211.938961832706
 31
0.0
  0
LINE
  5
1B0
330
1F
100
AcDbEntity
  8
LAY-1
  6
CONTINUOUS
 62
     7
100
AcDbLine
 10
202.736176191748
 20
211.938961832694
 30
0.0
 11
202.736176191748
 21
212.938961832694
 31
0.0
  0
LINE
  5
1B1
330
1F
100
AcDbEntity
  8
LAY-1
  6
CONTINUOUS
 62
     7
100
AcDbLine
 10
232.469302073137
 20
279.869088851616
 30
0.0
 11
232.469302073137
 21
278.938961832694
 31
0.0
  0
ARC
  5
1B2
330
1F
100
AcDbEntity
  8
LAY-1
  6
CONTINUOUS
 62
     7
100
AcDbCircle
 10
225.969302073137
 20
279.869088851617
 30
0.0
 40
1.5
100
AcDbArc
 50
119.999999999881
 51
180.0000000000002
  0
ARC
  5
1B3
330
1F
100
AcDbEntity
  8
LAY-1
  6
CONTINUOUS
 62
     7
100
AcDbCircle
 10
230.969302073137
 20
279.869088851616
 30
0.0
 40
1.5
100
AcDbArc
 50
0.0000000000000573
 51
60.00000000012023
  0
ARC
  5
1B4
330
1F
100
AcDbEntity
  8
LAY-1
  6
CONTINUOUS
 62
     7
100
AcDbCircle
 10
199.503050310338
 20
279.869088851617
 30
0.0
 40
1.5
100
AcDbArc
 50
0.0000000000000573
 51
60.00000000012051
  0
ARC
  5
1B5
330
1F
100
AcDbEntity
  8
LAY-1
  6
CONTINUOUS
 62
     7
100
AcDbCircle
 10
194.503050310338
 20
279.869088851616
 30
0.0
 40
1.5
100
AcDbArc
 50
119.999999999881
 51
180.0000000000002
  0
ARC
  5
1B6
330
1F
100
AcDbEntity
  8
LAY-1
  6
CONTINUOUS
 62
     7
100
AcDbCircle
 10
197.003050310339
 20
275.538961832694
 30
0.0
 40
6.500000000000004
100
AcDbArc
 50
60.00000000012023
 51
119.9999999998802
  0
ARC
  5
1B7
330
1F
100
AcDbEntity
  8
LAY-1
  6
CONTINUOUS
 62
     7
100
AcDbCircle
 10
228.469302073136
 20
275.538961832694
 30
0.0
 40
6.500000000000004
100
AcDbArc
 50
60.00000000011983
 51
119.9999999998802
  0
ARC
  5
1B8
330
1F
100
AcDbEntity
  8
LAY-1
  6
CONTINUOUS
 62
     7
100
AcDbCircle
 10
237.510039799125
 20
240.508834813772
 30
0.0
 40
1.5
100
AcDbArc
 50
299.9999999998797
 51
0.0000000000000573
  0
ARC
  5
1B9
330
1F
100
AcDbEntity
  8
LAY-1
  6
CONTINUOUS
 62
     7
100
AcDbCircle
 10
232.510039799125
 20
240.508834813772
 30
0.0
 40
1.5
100
AcDbArc
 50
180.0000000000002
 51
240.0000000001205
  0
LINE
  5
1BA
330
1F
100
AcDbEntity
  8
LAY-1
  6
CONTINUOUS
 62
     7
100
AcDbLine
 10
231.010039799125
 20
240.508834813772
 30
0.0
 11
231.010039799125
 21
241.438961832694
 31
0.0
  0
LINE
  5
1BB
330
1F
100
AcDbEntity
  8
LAY-1
  6
CONTINUOUS
 62
     7
100
AcDbLine
 10
239.010039799125
 20
241.438961832694
 30
0.0
 11
239.010039799125
 21
240.508834813772
 31
0.0
  0
ARC
  5
1BC
330
1F
100
AcDbEntity
  8
LAY-1
  6
CONTINUOUS
 62
     7
100
AcDbCircle
 10
228.227524823307
 20
228.438961832694
 30
0.0
 40
0.5
100
AcDbArc
 50
180.0000000000002
 51
270.0000000000002
  0
ARC
  5
1BD
330
1F
100
AcDbEntity
  8
LAY-1
  6
CONTINUOUS
 62
     7
100
AcDbCircle
 10
241.244827560191
 20
228.438961832694
 30
0.0
 40
0.5
100
AcDbArc
 50
270.0000000000002
 51
358.9999999999202
  0
LINE
  5
1BE
330
1F
100
AcDbEntity
  8
LAY-1
  6
CONTINUOUS
 62
     7
100
AcDbLine
 10
201.003050310338
 20
276.438961832694
 30
0.0
 11
201.274861199347
 21
268.655316369962
 31
0.0
  0
LINE
  5
1BF
330
1F
100
AcDbEntity
  8
LAY-1
  6
CONTINUOUS
 62
     7
100
AcDbLine
 10
210.736176191739
 20
275.438961832694
 30
0.0
 11
210.736176191739
 21
274.938961832694
 31
0.0
  0
LINE
  5
1C0
330
1F
100
AcDbEntity
  8
LAY-1
  6
CONTINUOUS
 62
     7
100
AcDbLine
 10
224.469302073139
 20
276.438961832694
 30
0.0
 11
224.19749118413
 21
268.655316369971
 31
0.0
  0
LINE
  5
1C1
330
1F
100
AcDbEntity
  8
LAY-1
  6
CONTINUOUS
 62
     7
100
AcDbLine
 10
214.736176191739
 20
275.438961832694
 30
0.0
 11
210.736176191739
 21
275.438961832694
 31
0.0
  0
LINE
  5
1C2
330
1F
100
AcDbEntity
  8
LAY-1
  6
CONTINUOUS
 62
     7
100
AcDbLine
 10
214.736176191739
 20
274.938961832694
 30
0.0
 11
214.736176191739
 21
275.438961832694
 31
0.0
  0
LINE
  5
1C3
330
1F
100
AcDbEntity
  8
LAY-1
  6
CONTINUOUS
 62
     7
100
AcDbLine
 10
225.85349401454
 20
249.938961832694
 30
0.0
 11
199.618858368946
 21
249.938961832694
 31
0.0
  0
LINE
  5
1C4
330
1F
100
AcDbEntity
  8
LAY-1
  6
CONTINUOUS
 62
     7
100
AcDbLine
 10
200.222428914398
 20
267.222960846361
 30
0.0
 11
199.582718882175
 21
248.904062335995
 31
0.0
  0
LINE
  5
1C5
330
1F
100
AcDbEntity
  8
LAY-1
  6
CONTINUOUS
 62
     7
100
AcDbLine
 10
207.265613443266
 20
274.64606861388
 30
0.0
 11
200.514712960231
 21
267.895168130845
 31
0.0
  0
LINE
  5
1C6
330
1F
100
AcDbEntity
  8
LAY-1
  6
CONTINUOUS
 62
     7
100
AcDbLine
 10
217.499632159033
 20
274.938961832694
 30
0.0
 11
207.972720224452
 21
274.938961832694
 31
0.0
  0
LINE
  5
1C7
330
1F
100
AcDbEntity
  8
LAY-1
  6
CONTINUOUS
 62
     7
100
AcDbLine
 10
224.957639423255
 20
267.895168130845
 30
0.0
 11
218.20673894022
 21
274.646068613881
 31
0.0
  0
LINE
  5
1C8
330
1F
100
AcDbEntity
  8
LAY-1
  6
CONTINUOUS
 62
     7
100
AcDbLine
 10
183.236176191745
 20
252.938961832694
 30
0.0
 11
190.947236790321
 21
252.938961832696
 31
0.0
  0
LINE
  5
1C9
330
1F
100
AcDbEntity
  8
LAY-1
  6
CONTINUOUS
 62
     7
100
AcDbLine
 10
183.236176191747
 20
247.438961832694
 30
0.0
 11
183.236176191745
 21
252.938961832694
 31
0.0
  0
LINE
  5
1CA
330
1F
100
AcDbEntity
  8
LAY-1
  6
CONTINUOUS
 62
     7
100
AcDbLine
 10
242.236176191746
 20
252.938961832694
 30
0.0
 11
234.67148447979
 21
252.938961832694
 31
0.0
  0
LINE
  5
1CB
330
1F
100
AcDbEntity
  8
LAY-1
  6
CONTINUOUS
 62
     7
100
AcDbLine
 10
242.236176191748
 20
247.438961832694
 30
0.0
 11
242.236176191746
 21
252.938961832694
 31
0.0
  0
ARC
  5
1CC
330
1F
100
AcDbEntity
  8
LAY-1
  6
CONTINUOUS
 62
     7
100
AcDbCircle
 10
191.042119605016
 20
248.938961832694
 30
0.0
 40
1.0
100
AcDbArc
 50
270.0000000000002
 51
357.9999999998401
  0
ARC
  5
1CD
330
1F
100
AcDbEntity
  8
LAY-1
  6
CONTINUOUS
 62
     7
100
AcDbCircle
 10
234.430232778461
 20
248.938961832694
 30
0.0
 40
1.0
100
AcDbArc
 50
182.0000000001602
 51
270.0000000000002
  0
ARC
  5
1CE
330
1F
100
AcDbEntity
  8
LAY-1
  6
CONTINUOUS
 62
     7
100
AcDbCircle
 10
185.395357186431
 20
248.938961832694
 30
0.0
 40
1.0
100
AcDbArc
 50
270.0000000000002
 51
350.40593177316
  0
ARC
  5
1CF
330
1F
100
AcDbEntity
  8
LAY-1
  6
CONTINUOUS
 62
     7
100
AcDbCircle
 10
240.076995197065
 20
248.938961832694
 30
0.0
 40
1.0
100
AcDbArc
 50
189.5940682268401
 51
270.0000000000002
  0
ARC
  5
1D0
330
1F
100
AcDbEntity
  8
LAY-1
  6
CONTINUOUS
 62
     7
100
AcDbCircle
 10
190.69875409054
 20
253.9075981668821
 30
0.0
 40
1.0
100
AcDbArc
 50
275.8609062824398
 51
357.9999999998401
  0
LINE
  5
1D1
330
1F
100
AcDbEntity
  8
LAY-1
  6
CONTINUOUS
 62
     7
100
AcDbLine
 10
212.736176191758
 20
211.938961832706
 30
0.0
 11
202.736176191748
 21
211.938961832694
 31
0.0
  0
ARC
  5
1D2
330
1F
100
AcDbEntity
  8
LAY-1
  6
CONTINUOUS
 62
     7
100
AcDbCircle
 10
234.773598292954
 20
253.907598166883
 30
0.0
 40
1.0
100
AcDbArc
 50
182.0000000001602
 51
264.1390937175607
  0
ARC
  5
1D3
330
1F
100
AcDbEntity
  8
LAY-1
  6
CONTINUOUS
 62
     7
100
AcDbCircle
 10
191.311436969531
 20
247.938961832694
 30
0.0
 40
5.0
100
AcDbArc
 50
95.8609062824404
 51
170.4059317731608
  0
LINE
  5
1D4
330
1F
100
AcDbEntity
  8
LAY-1
  6
CONTINUOUS
 62
     7
100
AcDbLine
 10
232.986176191747
 20
276.438961832694
 30
0.0
 11
232.986176191747
 21
278.438961832694
 31
0.0
  0
LINE
  5
1D5
330
1F
100
AcDbEntity
  8
LAY-1
  6
CONTINUOUS
 62
     7
100
AcDbLine
 10
232.486176191747
 20
278.938961832694
 30
0.0
 11
212.736176191738
 21
278.938961832694
 31
0.0
  0
ARC
  5
1D6
330
1F
100
AcDbEntity
  8
LAY-1
  6
CONTINUOUS
 62
     7
100
AcDbCircle
 10
234.160915413966
 20
247.938961832694
 30
0.0
 40
5.0
100
AcDbArc
 50
9.594068226839875
 51
84.13909371756043
  0
LINE
  5
1D7
330
1F
100
AcDbEntity
  8
LAY-1
  6
CONTINUOUS
 62
     7
100
AcDbLine
 10
224.627187998543
 20
280.538961832694
 30
0.0
 11
200.845164384932
 21
280.538961832694
 31
0.0
  0
ARC
  5
1D8
330
1F
100
AcDbEntity
  8
LAY-1
  6
CONTINUOUS
 62
     7
100
AcDbCircle
 10
217.499632159033
 20
273.938961832694
 30
0.0
 40
1.0
100
AcDbArc
 50
45.00000000000033
 51
90.0000000000002
  0
LINE
  5
1D9
330
1F
100
AcDbEntity
  8
LAY-1
  6
CONTINUOUS
 62
     7
100
AcDbLine
 10
212.736176191738
 20
278.938961832694
 30
0.0
 11
192.986176191747
 21
278.938961832694
 31
0.0
  0
LINE
  5
1DA
330
1F
100
AcDbEntity
  8
LAY-1
  6
CONTINUOUS
 62
     7
100
AcDbLine
 10
192.486176191747
 20
278.438961832694
 30
0.0
 11
192.486176191748
 21
276.438961832694
 31
0.0
  0
LINE
  5
1DB
330
1F
100
AcDbEntity
  8
LAY-1
  6
CONTINUOUS
 62
     7
100
AcDbLine
 10
225.889633501311
 20
248.904062335991
 30
0.0
 11
225.249923469088
 21
267.222960846361
 31
0.0
  0
ARC
  5
1DC
330
1F
100
AcDbEntity
  8
LAY-1
  6
CONTINUOUS
 62
     7
100
AcDbCircle
 10
241.736176191748
 20
247.438961832694
 30
0.0
 40
0.5
100
AcDbArc
 50
0.0000000000000573
 51
90.0000000000002
  0
ARC
  5
1DD
330
1F
100
AcDbEntity
  8
LAY-1
  6
CONTINUOUS
 62
     7
100
AcDbCircle
 10
224.250532642068
 20
267.188061349659
 30
0.0
 40
1.0
100
AcDbArc
 50
2.000000000160051
 51
45.00000000000033
  0
LINE
  5
1DE
330
1F
100
AcDbEntity
  8
LAY-1
  6
CONTINUOUS
 62
     7
100
AcDbLine
 10
212.736176191738
 20
276.438961832694
 30
0.0
 11
192.486176191748
 21
276.438961832694
 31
0.0
  0
ARC
  5
1DF
330
1F
100
AcDbEntity
  8
LAY-1
  6
CONTINUOUS
 62
     7
100
AcDbCircle
 10
192.986176191747
 20
278.438961832694
 30
0.0
 40
0.5
100
AcDbArc
 50
90.0000000000002
 51
180.0000000000002
  0
ARC
  5
1E0
330
1F
100
AcDbEntity
  8
LAY-1
  6
CONTINUOUS
 62
     7
100
AcDbCircle
 10
232.486176191747
 20
278.438961832694
 30
0.0
 40
0.5
100
AcDbArc
 50
0.0000000000000573
 51
90.0000000000002
  0
ARC
  5
1E1
330
1F
100
AcDbEntity
  8
LAY-1
  6
CONTINUOUS
 62
     7
100
AcDbCircle
 10
190.462312584372
 20
244.8389618326941
 30
0.0
 40
6.500000000000004
100
AcDbArc
 50
240.0000000001201
 51
299.99999999988
  0
ARC
  5
1E2
330
1F
100
AcDbEntity
  8
LAY-1
  6
CONTINUOUS
 62
     7
100
AcDbCircle
 10
226.88902432833
 20
248.938961832694
 30
0.0
 40
1.0
100
AcDbArc
 50
182.0000000001602
 51
270.0000000000002
  0
ARC
  5
1E3
330
1F
100
AcDbEntity
  8
LAY-1
  6
CONTINUOUS
 62
     7
100
AcDbCircle
 10
192.962312584372
 20
240.508834813772
 30
0.0
 40
1.5
100
AcDbArc
 50
299.9999999998797
 51
0.0000000000000573
  0
LINE
  5
1E4
330
1F
100
AcDbEntity
  8
LAY-1
  6
CONTINUOUS
 62
     7
100
AcDbLine
 10
209.736176191751
 20
236.438961832694
 30
0.0
 11
209.736176191753
 21
212.938961832694
 31
0.0
  0
LINE
  5
1E5
330
1F
100
AcDbEntity
  8
LAY-1
  6
CONTINUOUS
 62
     7
100
AcDbLine
 10
215.736176191751
 20
212.938961832694
 30
0.0
 11
215.736176191751
 21
236.438961832694
 31
0.0
  0
ARC
  5
1E6
330
1F
100
AcDbEntity
  8
LAY-1
  6
CONTINUOUS
 62
     7
100
AcDbCircle
 10
201.221819741417
 20
267.188061349659
 30
0.0
 40
1.0
100
AcDbArc
 50
134.9999999999994
 51
177.9999999998402
  0
CIRCLE
  5
1E7
330
1F
100
AcDbEntity
  8
LAY-1
  6
CONTINUOUS
 62
     7
100
AcDbCircle
 10
212.736176191743
 20
262.438961832694
 30
0.0
 40
7.500000000000004
  0
CIRCLE
  5
1E8
330
1F
100
AcDbEntity
  8
LAY-1
  6
CONTINUOUS
 62
     7
100
AcDbCircle
 10
212.736176191743
 20
262.438961832694
 30
0.0
 40
8.5
  0
CIRCLE
  5
1E9
330
1F
100
AcDbEntity
  8
LAY-1
  6
CONTINUOUS
 62
     7
100
AcDbCircle
 10
212.736176191743
 20
262.438961832694
 30
0.0
 40
5.25
  0
LINE
  5
1EA
330
1F
100
AcDbEntity
  8
LAY-1
  6
CONTINUOUS
 62
     7
100
AcDbLine
 10
239.679873202432
 20
225.438961832694
 30
0.0
 11
239.736176191746
 21
225.438961832694
 31
0.0
  0
LINE
  5
1EB
330
1F
100
AcDbEntity
  8
LAY-1
  6
CONTINUOUS
 62
     7
100
AcDbLine
 10
239.601307537324
 20
227.938961832694
 30
0.0
 11
239.679873202432
 21
225.438961832694
 31
0.0
  0
ARC
  5
1EC
330
1F
100
AcDbEntity
  8
LAY-1
  6
CONTINUOUS
 62
     7
100
AcDbCircle
 10
187.962312584372
 20
240.508834813772
 30
0.0
 40
1.5
100
AcDbArc
 50
180.0000000000002
 51
240.0000000001205
  0
LINE
  5
1ED
330
1F
100
AcDbEntity
  8
LAY-1
  6
CONTINUOUS
 62
     7
100
AcDbLine
 10
186.462312584372
 20
240.508834813772
 30
0.0
 11
186.462312584372
 21
241.438961832694
 31
0.0
  0
LINE
  5
1EE
330
1F
100
AcDbEntity
  8
LAY-1
  6
CONTINUOUS
 62
     7
100
AcDbLine
 10
194.462312584372
 20
241.438961832694
 30
0.0
 11
194.462312584372
 21
240.508834813772
 31
0.0
  0
LINE
  5
1EF
330
1F
100
AcDbEntity
  8
LAY-1
  6
EXLTYPE2
 62
     1
100
AcDbLine
 10
238.586708101169
 20
262.438961832694
 30
0.0
 11
206.386176191743
 21
262.438961832694
 31
0.0
  0
LINE
  5
1F0
330
1F
100
AcDbEntity
  8
LAY-1
  6
EXLTYPE2
 62
     1
100
AcDbLine
 10
197.003050310338
 20
283.53601288901
 30
0.0
 11
197.003050310339
 21
273.877122043939
 31
0.0
  0
LINE
  5
1F1
330
1F
100
AcDbEntity
  8
LAY-1
  6
EXLTYPE2
 62
     1
100
AcDbLine
 10
228.469302073139
 20
273.750031374925
 30
0.0
 11
228.469302073136
 21
283.53601288901
 31
0.0
  0
LINE
  5
1F2
330
1F
100
AcDbEntity
  8
LAY-1
  6
EXLTYPE2
 62
     1
100
AcDbLine
 10
206.386176191743
 20
262.438961832694
 30
0.0
 11
186.885644282327
 21
262.438961832696
 31
0.0
  0
LINE
  5
1F3
330
1F
100
AcDbEntity
  8
LAY-1
  6
EXLTYPE2
 62
     1
100
AcDbLine
 10
235.010039799125
 20
237.470846030623
 30
0.0
 11
235.010039799123
 21
248.995793564499
 31
0.0
  0
LINE
  5
1F4
330
1F
100
AcDbEntity
  8
LAY-1
  6
EXLTYPE2
 62
     1
100
AcDbLine
 10
190.462312584373
 20
237.455464957607
 30
0.0
 11
190.462312584371
 21
248.793513066434
 31
0.0
  0
LINE
  5
1F5
330
1F
100
AcDbEntity
  8
LAY-1
  6
CONTINUOUS
 62
     1
100
AcDbLine
 10
230.370201272014
 20
226.43960584688
 30
0.0
 11
230.417320432123
 21
227.938961832694
 31
0.0
  0
LINE
  5
1F6
330
1F
100
AcDbEntity
  8
LAY-1
  6
CONTINUOUS
 62
     1
100
AcDbLine
 10
229.79247918106
 20
225.438961832694
 30
0.0
 11
230.370201272014
 21
226.43960584688
 31
0.0
  0
LINE
  5
1F7
330
1F
100
AcDbEntity
  8
LAY-1
  6
CONTINUOUS
 62
     1
100
AcDbLine
 10
239.102151111479
 20
226.43960584688
 30
0.0
 11
239.679873202432
 21
225.438961832694
 31
0.0
  0
LINE
  5
1F8
330
1F
100
AcDbEntity
  8
LAY-1
  6
CONTINUOUS
 62
     1
100
AcDbLine
 10
239.055031951375
 20
227.938961832694
 30
0.0
 11
239.102151111479
 21
226.43960584688
 31
0.0
  0
LINE
  5
1F9
330
1F
100
AcDbEntity
  8
LAY-1
  6
CONTINUOUS
 62
     7
100
AcDbLine
 10
239.679873202432
 20
225.438961832695
 30
0.0
 11
234.736176191748
 21
225.438961832695
 31
0.0
  0
LINE
  5
1FA
330
1F
100
AcDbEntity
  8
LAY-1
  6
CONTINUOUS
 62
     7
100
AcDbLine
 10
229.7924791810611
 20
225.4389618326919
 30
0.0
 11
234.7361761917451
 21
225.438961832695
 31
0.0
  0
LINE
  5
1FB
330
1F
100
AcDbEntity
  8
LAY-1
  6
EXLTYPE1
 62
     1
100
AcDbLine
 10
229.836176191749
 20
227.938961832694
 30
0.0
 11
229.8721761917464
 21
227.9749618326914
 31
0.0
  0
LINE
  5
1FC
330
1F
100
AcDbEntity
  8
LAY-1
  6
EXLTYPE1
 62
     1
100
AcDbLine
 10
229.8721761917464
 20
227.9749618326914
 30
0.0
 11
229.871044846169
 21
227.938961832694
 31
0.0
  0
LINE
  5
1FD
330
1F
100
AcDbEntity
  8
LAY-1
  6
EXLTYPE1
 62
     1
100
AcDbLine
 10
239.636176191749
 20
227.938961832694
 30
0.0
 11
239.6001761917463
 21
227.9749618326966
 31
0.0
  0
LINE
  5
1FE
330
1F
100
AcDbEntity
  8
LAY-1
  6
EXLTYPE1
 62
     1
100
AcDbLine
 10
239.601307537324
 20
227.938961832694
 30
0.0
 11
239.6001761917463
 21
227.9749618326966
 31
0.0
  0
LINE
  5
1FF
330
1F
100
AcDbEntity
  8
LAY-1
  6
CONTINUOUS
 62
     7
100
AcDbLine
 10
234.7361761917425
 20
226.4396058468641
 30
0.0
 11
239.648426697428
 21
226.439605846882
 31
0.0
  0
LINE
  5
200
330
1F
100
AcDbEntity
  8
LAY-1
  6
CONTINUOUS
 62
     7
100
AcDbLine
 10
229.823925686065
 20
226.43960584688
 30
0.0
 11
234.736176191748
 21
226.43960584688
 31
0.0
  0
LINE
  5
201
330
1F
100
AcDbEntity
  8
LAY-1
  6
CONTINUOUS
 62
     7
100
AcDbLine
 10
208.241076990767
 20
211.938961832695
 30
0.0
 11
208.241076990767
 21
208.938961832694
 31
0.0
  0
LINE
  5
202
330
1F
100
AcDbEntity
  8
LAY-1
  6
CONTINUOUS
 62
     7
100
AcDbLine
 10
222.252740723121
 20
211.950727136031
 30
0.0
 11
222.252740723121
 21
208.938961832694
 31
0.0
  0
LINE
  5
203
330
1F
100
AcDbEntity
  8
LAY-1
  6
CONTINUOUS
 62
     7
100
AcDbLine
 10
221.249702058441
 20
208.938961832694
 30
0.0
 11
221.2497020584399
 21
211.950727136031
 31
0.0
  0
LINE
  5
204
330
1F
100
AcDbEntity
  8
LAY-1
  6
CONTINUOUS
 62
     7
100
AcDbLine
 10
220.2466633937599
 20
211.950727136031
 30
0.0
 11
220.2466633937599
 21
208.938961832694
 31
0.0
  0
LINE
  5
205
330
1F
100
AcDbEntity
  8
LAY-1
  6
CONTINUOUS
 62
     7
100
AcDbLine
 10
219.250878588791
 20
208.938961832694
 30
0.0
 11
219.2508785887899
 21
211.950727136031
 31
0.0
  0
LINE
  5
206
330
1F
100
AcDbEntity
  8
LAY-1
  6
CONTINUOUS
 62
     7
100
AcDbLine
 10
218.250878588789
 20
208.938961832694
 30
0.0
 11
218.2508785887879
 21
211.950727136031
 31
0.0
  0
LINE
  5
207
330
1F
100
AcDbEntity
  8
LAY-1
  6
CONTINUOUS
 62
     7
100
AcDbLine
 10
217.247839924109
 20
211.950727136031
 30
0.0
 11
217.247839924109
 21
208.938961832694
 31
0.0
  0
LINE
  5
208
330
1F
100
AcDbEntity
  8
LAY-1
  6
CONTINUOUS
 62
     7
100
AcDbLine
 10
216.244801259429
 20
208.938961832694
 30
0.0
 11
216.244801259428
 21
211.950727136031
 31
0.0
  0
LINE
  5
209
330
1F
100
AcDbEntity
  8
LAY-1
  6
CONTINUOUS
 62
     7
100
AcDbLine
 10
215.241762594748
 20
211.950727136031
 30
0.0
 11
215.241762594748
 21
208.938961832694
 31
0.0
  0
LINE
  5
20A
330
1F
100
AcDbEntity
  8
LAY-1
  6
CONTINUOUS
 62
     7
100
AcDbLine
 10
214.245977789779
 20
208.938961832694
 30
0.0
 11
214.245977789778
 21
211.950727136031
 31
0.0
  0
LINE
  5
20B
330
1F
100
AcDbEntity
  8
LAY-1
  6
CONTINUOUS
 62
     7
100
AcDbLine
 10
213.245977789777
 20
208.938961832694
 30
0.0
 11
213.245977789776
 21
211.950727136031
 31
0.0
  0
LINE
  5
20C
330
1F
100
AcDbEntity
  8
LAY-1
  6
CONTINUOUS
 62
     7
100
AcDbLine
 10
212.242939125097
 20
211.950727136031
 30
0.0
 11
212.242939125097
 21
208.938961832694
 31
0.0
  0
LINE
  5
20D
330
1F
100
AcDbEntity
  8
LAY-1
  6
CONTINUOUS
 62
     7
100
AcDbLine
 10
211.239900460417
 20
208.938961832694
 30
0.0
 11
211.239900460416
 21
211.950727136031
 31
0.0
  0
LINE
  5
20E
330
1F
100
AcDbEntity
  8
LAY-1
  6
CONTINUOUS
 62
     7
100
AcDbLine
 10
210.236861795736
 20
211.950727136031
 30
0.0
 11
210.236861795736
 21
208.938961832694
 31
0.0
  0
LINE
  5
20F
330
1F
100
AcDbEntity
  8
LAY-1
  6
CONTINUOUS
 62
     7
100
AcDbLine
 10
209.241076990767
 20
208.938961832694
 30
0.0
 11
209.241076990766
 21
211.950727136031
 31
0.0
  0
LINE
  5
210
330
1F
100
AcDbEntity
  8
LAY-1
  6
CONTINUOUS
 62
     7
100
AcDbLine
 10
207.238038326088
 20
211.950727136031
 30
0.0
 11
207.238038326088
 21
208.938961832694
 31
0.0
  0
LINE
  5
211
330
1F
100
AcDbEntity
  8
LAY-1
  6
CONTINUOUS
 62
     7
100
AcDbLine
 10
206.234999661408
 20
208.938961832694
 30
0.0
 11
206.234999661407
 21
211.950727136031
 31
0.0
  0
LINE
  5
212
330
1F
100
AcDbEntity
  8
LAY-1
  6
CONTINUOUS
 62
     7
100
AcDbLine
 10
205.231960996727
 20
211.950727136031
 30
0.0
 11
205.231960996727
 21
208.938961832694
 31
0.0
  0
LINE
  5
213
330
1F
100
AcDbEntity
  8
LAY-1
  6
CONTINUOUS
 62
     7
100
AcDbLine
 10
204.236176191758
 20
208.938961832694
 30
0.0
 11
204.236176191757
 21
211.950727136031
 31
0.0
  0
LINE
  5
214
330
1F
100
AcDbEntity
  8
LAY-1
  6
CONTINUOUS
 62
     7
100
AcDbLine
 10
233.066707300569
 20
244.438961832694
 30
0.0
 11
233.066707300569
 21
247.938961832694
 31
0.0
  0
LINE
  5
215
330
1F
100
AcDbEntity
  8
LAY-1
  6
CONTINUOUS
 62
     7
100
AcDbLine
 10
228.622717489693
 20
244.438961832694
 30
0.0
 11
228.622717489693
 21
247.938961832694
 31
0.0
  0
LINE
  5
216
330
1F
100
AcDbEntity
  8
LAY-1
  6
CONTINUOUS
 62
     7
100
AcDbLine
 10
192.405645082927
 20
244.4389618326813
 30
0.0
 11
192.4056450829248
 21
247.9389618326813
 31
0.0
  0
LINE
  5
217
330
1F
100
AcDbEntity
  8
LAY-1
  6
CONTINUOUS
 62
     7
100
AcDbLine
 10
196.849634893803
 20
244.4389618326841
 30
0.0
 11
196.8496348938008
 21
247.9389618326841
 31
0.0
  0
ARC
  5
218
330
1F
100
AcDbEntity
  8
LAY-1
  6
CONTINUOUS
 62
     7
100
AcDbCircle
 10
234.736176191744
 20
230.0222951660735
 30
0.0
 40
8.583333333379572
100
AcDbArc
 50
250.3471403685674
 51
289.6528596316317
  0
ARC
  5
219
330
1F
100
AcDbEntity
  8
LAY-1
  6
CONTINUOUS
 62
     7
100
AcDbCircle
 10
228.96267349987
 20
230.0222951660695
 30
0.0
 40
8.583333333379572
100
AcDbArc
 50
275.1703276050872
 51
289.6528596315129
  0
ARC
  5
21A
330
1F
100
AcDbEntity
  8
LAY-1
  6
CONTINUOUS
 62
     7
100
AcDbCircle
 10
240.5096788836259
 20
230.0222951660695
 30
0.0
 40
8.583333333379572
100
AcDbArc
 50
250.3471403684873
 51
264.8296723949132
  0
ARC
  5
21B
330
1F
100
AcDbEntity
  8
LAY-1
  6
CONTINUOUS
 62
     7
100
AcDbCircle
 10
240.5096788836259
 20
216.8556284993205
 30
0.0
 40
8.583333333379572
100
AcDbArc
 50
95.1703276050873
 51
109.652859631513
  0
ARC
  5
21C
330
1F
100
AcDbEntity
  8
LAY-1
  6
CONTINUOUS
 62
     7
100
AcDbCircle
 10
234.736176191744
 20
216.8556284993165
 30
0.0
 40
8.583333333379572
100
AcDbArc
 50
70.34714036836863
 51
109.6528596314329
  0
ARC
  5
21D
330
1F
100
AcDbEntity
  8
LAY-1
  6
CONTINUOUS
 62
     7
100
AcDbCircle
 10
228.96267349987
 20
216.8556284993205
 30
0.0
 40
8.583333333379572
100
AcDbArc
 50
70.3471403684874
 51
84.82967239491292
  0
LINE
  5
21E
330
1F
100
AcDbEntity
  8
LAY-1
  6
CONTINUOUS
 62
     7
100
AcDbLine
 10
237.622927537703
 20
221.9389618326781
 30
0.0
 11
237.622927537703
 21
224.9389618327119
 31
0.0
  0
LINE
  5
21F
330
1F
100
AcDbEntity
  8
LAY-1
  6
CONTINUOUS
 62
     7
100
AcDbLine
 10
231.8494248458126
 20
221.9389618326851
 30
0.0
 11
231.8494248458106
 21
224.9389618327056
 31
0.0
  0
LINE
  5
220
330
1F
100
AcDbEntity
  8
LAY-1
  6
CONTINUOUS
 62
     7
100
AcDbLine
 10
239.369951334761
 20
244.438961832694
 30
0.0
 11
239.369951334761
 21
247.938961832694
 31
0.0
  0
LINE
  5
221
330
1F
100
AcDbEntity
  8
LAY-1
  6
CONTINUOUS
 62
     7
100
AcDbLine
 10
186.102401048735
 20
244.4389618326775
 30
0.0
 11
186.1024010487328
 21
247.9389618326775
 31
0.0
  0
LINE
  5
222
330
1F
100
AcDbEntity
  8
LAY-1
  6
EXLTYPE2
 62
     1
100
AcDbLine
 10
212.73617619176
 20
207.0520069301776
 30
0.0
 11
212.736176191736
 21
283.026866223271
 31
0.0
  0
LINE
  5
223
330
1F
100
AcDbEntity
  8
LAY-1
  6
CONTINUOUS
 62
     7
100
AcDbLine
 10
200.2361761917659
 20
235.9389618326902
 30
0.0
 11
200.2361761917658
 21
236.4389618326902
 31
0.0
  0
LINE
  5
224
330
1F
100
AcDbEntity
  8
LAY-1
  6
CONTINUOUS
 62
     7
100
AcDbLine
 10
193.2361761917656
 20
235.938961832688
 30
0.0
 11
193.2361761917654
 21
236.438961832688
 31
0.0
  0
LINE
  5
225
330
1F
100
AcDbEntity
  8
LAY-1
  6
CONTINUOUS
 62
     7
100
AcDbLine
 10
200.23617619177
 20
235.93896183269
 30
0.0
 11
193.23617619177
 21
235.93896183269
 31
0.0
  0
ARC
  5
226
330
1F
100
AcDbEntity
  8
LAY-1
  6
CONTINUOUS
 62
     7
100
AcDbCircle
 10
183.7361761917688
 20
63.71613962618986
 30
0.0
 40
0.5
100
AcDbArc
 50
180.0000000000362
 51
270.0000000000392
  0
ARC
  5
227
330
1F
100
AcDbEntity
  8
LAY-1
  6
CONTINUOUS
 62
     7
100
AcDbCircle
 10
198.5833280551787
 20
62.21613962619612
 30
0.0
 40
1.0
100
AcDbArc
 50
2.000000000195918
 51
90.00000000003595
  0
LINE
  5
228
330
1F
100
AcDbEntity
  8
LAY-1
  6
CONTINUOUS
 62
     7
100
AcDbLine
 10
212.7361761917583
 20
98.21613962620793
 30
0.0
 11
202.7361761917483
 21
98.2161396262018
 31
0.0
  0
ARC
  5
229
330
1F
100
AcDbEntity
  8
LAY-1
  6
CONTINUOUS
 62
     7
100
AcDbCircle
 10
184.2361761917657
 20
68.7161396261902
 30
0.0
 40
1.0
100
AcDbArc
 50
90.00000000003595
 51
180.0000000000362
  0
LINE
  5
22A
330
1F
100
AcDbEntity
  8
LAY-1
  6
CONTINUOUS
 62
     7
100
AcDbLine
 10
193.0030503103779
 20
34.71613962619566
 30
0.0
 11
192.0415104320577
 21
62.25103912289709
 31
0.0
  0
LINE
  5
22B
330
1F
100
AcDbEntity
  8
LAY-1
  6
CONTINUOUS
 62
     7
100
AcDbLine
 10
232.4693020731789
 20
34.71613962622022
 30
0.0
 11
233.4308419514647
 21
62.2510391229229
 31
0.0
  0
LINE
  5
22C
330
1F
100
AcDbEntity
  8
LAY-1
  6
CONTINUOUS
 62
     7
100
AcDbLine
 10
183.7361761917691
 20
63.21613962618986
 30
0.0
 11
198.5833280551781
 21
63.21613962619612
 31
0.0
  0
LINE
  5
22D
330
1F
100
AcDbEntity
  8
LAY-1
  6
CONTINUOUS
 62
     7
100
AcDbLine
 10
242.2361761917698
 20
63.71613962622636
 30
0.0
 11
242.2361761917679
 21
66.71613962622635
 31
0.0
  0
LINE
  5
22E
330
1F
100
AcDbEntity
  8
LAY-1
  6
CONTINUOUS
 62
     7
100
AcDbLine
 10
242.2361761917679
 20
66.71613962622635
 30
0.0
 11
212.7361761917679
 21
66.71613962620793
 31
0.0
  0
LINE
  5
22F
330
1F
100
AcDbEntity
  8
LAY-1
  6
CONTINUOUS
 62
     7
100
AcDbLine
 10
183.2361761917679
 20
66.71613962618952
 30
0.0
 11
183.2361761917688
 21
63.71613962618952
 31
0.0
  0
LINE
  5
230
330
1F
100
AcDbEntity
  8
LAY-1
  6
CONTINUOUS
 62
     7
100
AcDbLine
 10
233.7742074659608
 20
57.28240278873503
 30
0.0
 11
232.9861761917869
 21
34.71613962622056
 31
0.0
  0
LINE
  5
231
330
1F
100
AcDbEntity
  8
LAY-1
  6
CONTINUOUS
 62
     7
100
AcDbLine
 10
232.9861761917869
 20
34.71613962622056
 30
0.0
 11
212.7361761917779
 21
34.71613962620794
 31
0.0
  0
LINE
  5
232
330
1F
100
AcDbEntity
  8
LAY-1
  6
CONTINUOUS
 62
     7
100
AcDbLine
 10
192.4861761917879
 20
34.71613962619532
 30
0.0
 11
191.6981449175848
 21
57.28240278870889
 31
0.0
  0
LINE
  5
233
330
1F
100
AcDbEntity
  8
LAY-1
  6
CONTINUOUS
 62
     7
100
AcDbLine
 10
241.7361761917701
 20
63.21613962622602
 30
0.0
 11
226.8890243283521
 21
63.21613962621681
 31
0.0
  0
LINE
  5
234
330
1F
100
AcDbEntity
  8
LAY-1
  6
CONTINUOUS
 62
     7
100
AcDbLine
 10
212.7361761917679
 20
66.71613962620793
 30
0.0
 11
183.2361761917679
 21
66.71613962618952
 31
0.0
  0
ARC
  5
235
330
1F
100
AcDbEntity
  8
LAY-1
  6
CONTINUOUS
 62
     7
100
AcDbCircle
 10
240.0971026580974
 20
70.71613962622499
 30
0.0
 40
1.0
100
AcDbArc
 50
182.0000000001962
 51
270.0000000000392
  0
ARC
  5
236
330
1F
100
AcDbEntity
  8
LAY-1
  6
CONTINUOUS
 62
     7
100
AcDbCircle
 10
241.2361761917666
 20
68.71613962622567
 30
0.0
 40
1.0
100
AcDbArc
 50
0.0000000000358099
 51
90.00000000003276
  0
ARC
  5
237
330
1F
100
AcDbEntity
  8
LAY-1
  6
CONTINUOUS
 62
     7
100
AcDbCircle
 10
185.3752497254344
 20
70.71613962619088
 30
0.0
 40
1.0
100
AcDbArc
 50
270.0000000000362
 51
357.9999999998761
  0
ARC
  5
238
330
1F
100
AcDbEntity
  8
LAY-1
  6
CONTINUOUS
 62
     7
100
AcDbCircle
 10
225.1117647438067
 20
76.71613962621566
 30
0.0
 40
2.0
100
AcDbArc
 50
181.0000000001161
 51
270.0000000000362
  0
ARC
  5
239
330
1F
100
AcDbEntity
  8
LAY-1
  6
CONTINUOUS
 62
     7
100
AcDbCircle
 10
207.9727202244903
 20
37.21613962620498
 30
0.0
 40
1.0
100
AcDbArc
 50
225.0000000000341
 51
270.0000000000362
  0
ARC
  5
23A
330
1F
100
AcDbEntity
  8
LAY-1
  6
CONTINUOUS
 62
     7
100
AcDbCircle
 10
200.3605876397177
 20
76.71613962620032
 30
0.0
 40
2.0
100
AcDbArc
 50
270.0000000000362
 51
358.9999999999553
  0
ARC
  5
23B
330
1F
100
AcDbEntity
  8
LAY-1
  6
CONTINUOUS
 62
     7
100
AcDbCircle
 10
235.5768993240071
 20
71.21613962622214
 30
0.0
 40
3.500000000000002
100
AcDbArc
 50
2.000000000195975
 51
90.0000000000355
  0
ARC
  5
23C
330
1F
100
AcDbEntity
  8
LAY-1
  6
CONTINUOUS
 62
     7
100
AcDbCircle
 10
189.8954530595241
 20
71.21613962619372
 30
0.0
 40
3.500000000000002
100
AcDbArc
 50
90.0000000000355
 51
177.9999999998759
  0
LINE
  5
23D
330
1F
100
AcDbEntity
  8
LAY-1
  6
CONTINUOUS
 62
     7
100
AcDbLine
 10
242.2361761917679
 20
66.71613962622635
 30
0.0
 11
242.2361761917666
 21
68.71613962622635
 31
0.0
  0
LINE
  5
23E
330
1F
100
AcDbEntity
  8
LAY-1
  6
CONTINUOUS
 62
     7
100
AcDbLine
 10
241.2361761917661
 20
69.71613962622567
 30
0.0
 11
212.736176191767
 21
69.71613962620793
 31
0.0
  0
LINE
  5
23F
330
1F
100
AcDbEntity
  8
LAY-1
  6
CONTINUOUS
 62
     7
100
AcDbLine
 10
239.0977118310784
 20
70.6812401295214
 30
0.0
 11
239.074767218573
 21
71.3382878646834
 31
0.0
  0
LINE
  5
240
330
1F
100
AcDbEntity
  8
LAY-1
  6
CONTINUOUS
 62
     7
100
AcDbLine
 10
235.5768993240049
 20
74.71613962622226
 30
0.0
 11
212.736176191766
 21
74.71613962620793
 31
0.0
  0
LINE
  5
241
330
1F
100
AcDbEntity
  8
LAY-1
  6
CONTINUOUS
 62
     7
100
AcDbLine
 10
189.8945387430739
 20
74.71613962619372
 30
0.0
 11
212.736176191766
 21
74.71613962620793
 31
0.0
  0
LINE
  5
242
330
1F
100
AcDbEntity
  8
LAY-1
  6
CONTINUOUS
 62
     7
100
AcDbLine
 10
183.2361761917679
 20
66.71613962618952
 30
0.0
 11
183.2361761917657
 21
68.71613962618952
 31
0.0
  0
LINE
  5
243
330
1F
100
AcDbEntity
  8
LAY-1
  6
CONTINUOUS
 62
     7
100
AcDbLine
 10
184.2361761917661
 20
69.7161396261902
 30
0.0
 11
212.736176191767
 21
69.71613962620793
 31
0.0
  0
LINE
  5
244
330
1F
100
AcDbEntity
  8
LAY-1
  6
CONTINUOUS
 62
     7
100
AcDbLine
 10
186.3746405524535
 20
70.68124012948854
 30
0.0
 11
186.3975851649571
 21
71.33828786465054
 31
0.0
  0
LINE
  5
245
330
1F
100
AcDbEntity
  8
LAY-1
  6
CONTINUOUS
 62
     7
100
AcDbLine
 10
222.7361761917483
 20
98.21613962621419
 30
0.0
 11
212.7361761917583
 21
98.21613962620793
 31
0.0
  0
LINE
  5
246
330
1F
100
AcDbEntity
  8
LAY-1
  6
CONTINUOUS
 62
     7
100
AcDbLine
 10
202.7361761917483
 20
98.2161396262018
 30
0.0
 11
202.3602830300307
 21
76.68123481332648
 31
0.0
  0
LINE
  5
247
330
1F
100
AcDbEntity
  8
LAY-1
  6
CONTINUOUS
 62
     7
100
AcDbLine
 10
223.1120693534937
 20
76.68123481333944
 30
0.0
 11
222.7361761917483
 21
98.21613962621419
 31
0.0
  0
LINE
  5
248
330
1F
100
AcDbEntity
  8
LAY-1
  6
CONTINUOUS
 62
     7
100
AcDbLine
 10
203.2361761917577
 20
99.21613962620111
 30
0.0
 11
203.2361761917559
 21
102.2161396262021
 31
0.0
  0
LINE
  5
249
330
1F
100
AcDbEntity
  8
LAY-1
  6
CONTINUOUS
 62
     7
100
AcDbLine
 10
202.2361761917577
 20
99.21613962620145
 30
0.0
 11
202.7361761917477
 21
99.2161396262018
 31
0.0
  0
LINE
  5
24A
330
1F
100
AcDbEntity
  8
LAY-1
  6
CONTINUOUS
 62
     7
100
AcDbLine
 10
202.2361761917559
 20
102.2161396262015
 30
0.0
 11
202.2361761917577
 21
99.21613962620145
 31
0.0
  0
LINE
  5
24B
330
1F
100
AcDbEntity
  8
LAY-1
  6
CONTINUOUS
 62
     7
100
AcDbLine
 10
229.7924791810681
 20
85.71613962621862
 30
0.0
 11
229.8710448461787
 21
83.21613962621862
 31
0.0
  0
LINE
  5
24C
330
1F
100
AcDbEntity
  8
LAY-1
  6
CONTINUOUS
 62
     7
100
AcDbLine
 10
229.7361761917541
 20
85.71613962621862
 30
0.0
 11
229.7924791810681
 21
85.71613962621862
 31
0.0
  0
LINE
  5
24D
330
1F
100
AcDbEntity
  8
LAY-1
  6
CONTINUOUS
 62
     7
100
AcDbLine
 10
229.7361761917517
 20
89.71613962621862
 30
0.0
 11
229.7361761917541
 21
85.71613962621862
 31
0.0
  0
LINE
  5
24E
330
1F
100
AcDbEntity
  8
LAY-1
  6
CONTINUOUS
 62
     7
100
AcDbLine
 10
239.7361761917526
 20
89.71613962622476
 30
0.0
 11
229.7361761917517
 21
89.71613962621862
 31
0.0
  0
LINE
  5
24F
330
1F
100
AcDbEntity
  8
LAY-1
  6
CONTINUOUS
 62
     7
100
AcDbLine
 10
239.7361761917541
 20
85.71613962622476
 30
0.0
 11
239.7361761917526
 21
89.71613962622476
 31
0.0
  0
LINE
  5
250
330
1F
100
AcDbEntity
  8
LAY-1
  6
CONTINUOUS
 62
     7
100
AcDbLine
 10
223.2361761917568
 20
102.2161396262145
 30
0.0
 11
202.2361761917559
 21
102.2161396262015
 31
0.0
  0
ARC
  5
251
330
1F
100
AcDbEntity
  8
LAY-1
  6
CONTINUOUS
 62
     7
100
AcDbCircle
 10
235.0100397991442
 20
66.31613962622183
 30
0.0
 40
6.500000000000004
100
AcDbArc
 50
60.00000000015575
 51
119.9999999999157
  0
LINE
  5
252
330
1F
100
AcDbEntity
  8
LAY-1
  6
CONTINUOUS
 62
     7
100
AcDbLine
 10
193.0030503103795
 20
32.21613962619566
 30
0.0
 11
193.00305031038
 21
31.28601260727365
 31
0.0
  0
LINE
  5
253
330
1F
100
AcDbEntity
  8
LAY-1
  6
CONTINUOUS
 62
     7
100
AcDbLine
 10
223.2361761917577
 20
99.21613962621453
 30
0.0
 11
223.2361761917568
 21
102.2161396262145
 31
0.0
  0
LINE
  5
254
330
1F
100
AcDbEntity
  8
LAY-1
  6
CONTINUOUS
 62
     7
100
AcDbLine
 10
222.7361761917487
 20
99.21613962621419
 30
0.0
 11
223.2361761917577
 21
99.21613962621453
 31
0.0
  0
LINE
  5
255
330
1F
100
AcDbEntity
  8
LAY-1
  6
CONTINUOUS
 62
     7
100
AcDbLine
 10
227.2275248233173
 20
82.21613962621703
 30
0.0
 11
223.5068058621683
 21
82.21613962621464
 31
0.0
  0
LINE
  5
256
330
1F
100
AcDbEntity
  8
LAY-1
  6
CONTINUOUS
 62
     7
100
AcDbLine
 10
227.725703152803
 20
82.61613962621735
 30
0.0
 11
227.5963833558946
 21
75.20741342299814
 31
0.0
  0
LINE
  5
257
330
1F
100
AcDbEntity
  8
LAY-1
  6
CONTINUOUS
 62
     7
100
AcDbLine
 10
241.2448275602007
 20
83.21613962622578
 30
0.0
 11
228.2275248233166
 21
83.2161396262176
 31
0.0
  0
LINE
  5
258
330
1F
100
AcDbEntity
  8
LAY-1
  6
CONTINUOUS
 62
     7
100
AcDbLine
 10
241.9746532906592
 20
69.5537957809162
 30
0.0
 11
241.74475140778
 21
82.72486582944398
 31
0.0
  0
LINE
  5
259
330
1F
100
AcDbEntity
  8
LAY-1
  6
CONTINUOUS
 62
     7
100
AcDbLine
 10
201.00305031038
 20
31.28601260727763
 30
0.0
 11
201.0030503103795
 21
32.21613962620066
 31
0.0
  0
ARC
  5
25A
330
1F
100
AcDbEntity
  8
LAY-1
  6
CONTINUOUS
 62
     7
100
AcDbCircle
 10
227.0964595083166
 20
75.21613962621691
 30
0.0
 40
0.5
100
AcDbArc
 50
270.0000000000392
 51
358.9999999999562
  0
ARC
  5
25B
330
1F
100
AcDbEntity
  8
LAY-1
  6
CONTINUOUS
 62
     7
100
AcDbCircle
 10
223.506805862168
 20
82.71613962621464
 30
0.0
 40
0.5
100
AcDbArc
 50
181.0000000001161
 51
270.0000000000326
  0
ARC
  5
25C
330
1F
100
AcDbEntity
  8
LAY-1
  6
CONTINUOUS
 62
     7
100
AcDbCircle
 10
242.4745771382372
 20
69.56252198413543
 30
0.0
 40
0.5
100
AcDbArc
 50
181.0000000001158
 51
214.3505665875979
  0
ARC
  5
25D
330
1F
100
AcDbEntity
  8
LAY-1
  6
CONTINUOUS
 62
     7
100
AcDbCircle
 10
227.227524823317
 20
82.71613962621703
 30
0.0
 40
0.5
100
AcDbArc
 50
270.0000000000392
 51
0.0000000000358099
  0
LINE
  5
25E
330
1F
100
AcDbEntity
  8
LAY-1
  6
CONTINUOUS
 62
     7
100
AcDbLine
 10
224.4693020731785
 20
32.21613962621533
 30
0.0
 11
224.469302073179
 21
31.2860126072923
 31
0.0
  0
LINE
  5
25F
330
1F
100
AcDbEntity
  8
LAY-1
  6
CONTINUOUS
 62
     7
100
AcDbLine
 10
222.7361761917483
 20
98.21613962621419
 30
0.0
 11
222.7361761917487
 21
99.21613962621419
 31
0.0
  0
LINE
  5
260
330
1F
100
AcDbEntity
  8
LAY-1
  6
CONTINUOUS
 62
     7
100
AcDbLine
 10
222.7361761917487
 20
99.21613962621419
 30
0.0
 11
212.7361761917577
 21
99.21613962619588
 31
0.0
  0
LINE
  5
261
330
1F
100
AcDbEntity
  8
LAY-1
  6
CONTINUOUS
 62
     7
100
AcDbLine
 10
202.7361761917477
 20
99.2161396262018
 30
0.0
 11
202.7361761917483
 21
98.2161396262018
 31
0.0
  0
LINE
  5
262
330
1F
100
AcDbEntity
  8
LAY-1
  6
CONTINUOUS
 62
     7
100
AcDbLine
 10
232.469302073179
 20
31.28601260729821
 30
0.0
 11
232.4693020731785
 21
32.21613962622022
 31
0.0
  0
ARC
  5
263
330
1F
100
AcDbEntity
  8
LAY-1
  6
CONTINUOUS
 62
     7
100
AcDbCircle
 10
225.969302073179
 20
31.28601260729321
 30
0.0
 40
1.5
100
AcDbArc
 50
180.0000000000354
 51
240.0000000001536
  0
ARC
  5
264
330
1F
100
AcDbEntity
  8
LAY-1
  6
CONTINUOUS
 62
     7
100
AcDbCircle
 10
230.969302073179
 20
31.2860126072973
 30
0.0
 40
1.5
100
AcDbArc
 50
299.9999999999146
 51
0.0000000000352942
  0
ARC
  5
265
330
1F
100
AcDbEntity
  8
LAY-1
  6
CONTINUOUS
 62
     7
100
AcDbCircle
 10
199.50305031038
 20
31.28601260727672
 30
0.0
 40
1.5
100
AcDbArc
 50
299.9999999999146
 51
0.0000000000352942
  0
ARC
  5
266
330
1F
100
AcDbEntity
  8
LAY-1
  6
CONTINUOUS
 62
     7
100
AcDbCircle
 10
194.50305031038
 20
31.28601260727456
 30
0.0
 40
1.5
100
AcDbArc
 50
180.0000000000362
 51
240.0000000001555
  0
ARC
  5
267
330
1F
100
AcDbEntity
  8
LAY-1
  6
CONTINUOUS
 62
     7
100
AcDbCircle
 10
197.0030503103783
 20
35.61613962619814
 30
0.0
 40
6.500000000000004
100
AcDbArc
 50
240.0000000001559
 51
299.9999999999156
  0
ARC
  5
268
330
1F
100
AcDbEntity
  8
LAY-1
  6
CONTINUOUS
 62
     7
100
AcDbCircle
 10
228.4693020731753
 20
35.61613962621781
 30
0.0
 40
6.500000000000004
100
AcDbArc
 50
240.0000000001555
 51
299.9999999999158
  0
ARC
  5
269
330
1F
100
AcDbEntity
  8
LAY-1
  6
CONTINUOUS
 62
     7
100
AcDbCircle
 10
237.5100397991424
 20
70.6462666451454
 30
0.0
 40
1.5
100
AcDbArc
 50
0.0000000000358099
 51
60.00000000015575
  0
ARC
  5
26A
330
1F
100
AcDbEntity
  8
LAY-1
  6
CONTINUOUS
 62
     7
100
AcDbCircle
 10
232.5100397991424
 20
70.64626664514233
 30
0.0
 40
1.5
100
AcDbArc
 50
119.9999999999156
 51
180.0000000000362
  0
LINE
  5
26B
330
1F
100
AcDbEntity
  8
LAY-1
  6
CONTINUOUS
 62
     7
100
AcDbLine
 10
231.0100397991424
 20
70.64626664514131
 30
0.0
 11
231.010039799143
 21
69.7161396262193
 31
0.0
  0
LINE
  5
26C
330
1F
100
AcDbEntity
  8
LAY-1
  6
CONTINUOUS
 62
     7
100
AcDbLine
 10
239.010039799143
 20
69.7161396262243
 30
0.0
 11
239.0100397991424
 21
70.64626664514631
 31
0.0
  0
ARC
  5
26D
330
1F
100
AcDbEntity
  8
LAY-1
  6
CONTINUOUS
 62
     7
100
AcDbCircle
 10
228.227524823317
 20
82.7161396262176
 30
0.0
 40
0.5
100
AcDbArc
 50
90.00000000003917
 51
180.0000000000362
  0
ARC
  5
26E
330
1F
100
AcDbEntity
  8
LAY-1
  6
CONTINUOUS
 62
     7
100
AcDbCircle
 10
241.244827560201
 20
82.71613962622578
 30
0.0
 40
0.5
100
AcDbArc
 50
1.000000000115835
 51
90.00000000003276
  0
LINE
  5
26F
330
1F
100
AcDbEntity
  8
LAY-1
  6
CONTINUOUS
 62
     7
100
AcDbLine
 10
201.0030503103779
 20
34.71613962620066
 30
0.0
 11
201.274861199382
 21
42.49978508893279
 31
0.0
  0
LINE
  5
270
330
1F
100
AcDbEntity
  8
LAY-1
  6
CONTINUOUS
 62
     7
100
AcDbLine
 10
224.4693020731789
 20
34.71613962621533
 30
0.0
 11
224.197491184165
 21
42.49978508893813
 31
0.0
  0
LINE
  5
271
330
1F
100
AcDbEntity
  8
LAY-1
  6
CONTINUOUS
 62
     7
100
AcDbLine
 10
225.8534940145634
 20
61.21613962621613
 30
0.0
 11
199.6188583689693
 21
61.21613962619976
 31
0.0
  0
LINE
  5
272
330
1F
100
AcDbEntity
  8
LAY-1
  6
CONTINUOUS
 62
     7
100
AcDbLine
 10
200.2224289144321
 20
43.93214061253313
 30
0.0
 11
199.5827188821977
 21
62.2510391228988
 31
0.0
  0
LINE
  5
273
330
1F
100
AcDbEntity
  8
LAY-1
  6
CONTINUOUS
 62
     7
100
AcDbLine
 10
207.2656134433047
 20
36.50903284501855
 30
0.0
 11
200.5147129602655
 21
43.25993332804936
 31
0.0
  0
LINE
  5
274
330
1F
100
AcDbEntity
  8
LAY-1
  6
CONTINUOUS
 62
     7
100
AcDbLine
 10
217.4996321590719
 20
36.2161396262109
 30
0.0
 11
207.9727202244909
 21
36.21613962620498
 31
0.0
  0
LINE
  5
275
330
1F
100
AcDbEntity
  8
LAY-1
  6
CONTINUOUS
 62
     7
100
AcDbLine
 10
224.9576394232895
 20
43.2599333280646
 30
0.0
 11
218.2067389402587
 21
36.50903284502434
 31
0.0
  0
LINE
  5
276
330
1F
100
AcDbEntity
  8
LAY-1
  6
CONTINUOUS
 62
     7
100
AcDbLine
 10
183.2361761917702
 20
58.21613962618952
 30
0.0
 11
190.9472367903462
 21
58.21613962619237
 31
0.0
  0
LINE
  5
277
330
1F
100
AcDbEntity
  8
LAY-1
  6
CONTINUOUS
 62
     7
100
AcDbLine
 10
183.2361761917688
 20
63.71613962618952
 30
0.0
 11
183.2361761917702
 21
58.21613962618952
 31
0.0
  0
LINE
  5
278
330
1F
100
AcDbEntity
  8
LAY-1
  6
CONTINUOUS
 62
     7
100
AcDbLine
 10
242.2361761917712
 20
58.21613962622636
 30
0.0
 11
234.6714844798152
 21
58.21613962622158
 31
0.0
  0
LINE
  5
279
330
1F
100
AcDbEntity
  8
LAY-1
  6
CONTINUOUS
 62
     7
100
AcDbLine
 10
242.2361761917698
 20
63.71613962622636
 30
0.0
 11
242.2361761917712
 21
58.21613962622636
 31
0.0
  0
ARC
  5
27A
330
1F
100
AcDbEntity
  8
LAY-1
  6
CONTINUOUS
 62
     7
100
AcDbCircle
 10
191.0421196050387
 20
62.21613962619441
 30
0.0
 40
1.0
100
AcDbArc
 50
2.000000000195975
 51
90.00000000003595
  0
ARC
  5
27B
330
1F
100
AcDbEntity
  8
LAY-1
  6
CONTINUOUS
 62
     7
100
AcDbCircle
 10
234.4302327784838
 20
62.21613962622147
 30
0.0
 40
1.0
100
AcDbArc
 50
90.00000000003917
 51
177.9999999998759
  0
ARC
  5
27C
330
1F
100
AcDbEntity
  8
LAY-1
  6
CONTINUOUS
 62
     7
100
AcDbCircle
 10
185.3953571864537
 20
62.21613962619089
 30
0.0
 40
1.0
100
AcDbArc
 50
9.594068226876086
 51
90.00000000003276
  0
ARC
  5
27D
330
1F
100
AcDbEntity
  8
LAY-1
  6
CONTINUOUS
 62
     7
100
AcDbCircle
 10
240.0769951970878
 20
62.21613962622499
 30
0.0
 40
1.0
100
AcDbArc
 50
90.00000000003917
 51
170.4059317731968
  0
ARC
  5
27E
330
1F
100
AcDbEntity
  8
LAY-1
  6
CONTINUOUS
 62
     7
100
AcDbCircle
 10
190.6987540905658
 20
57.24750329200621
 30
0.0
 40
1.0
100
AcDbArc
 50
2.000000000195918
 51
84.13909371759485
  0
LINE
  5
27F
330
1F
100
AcDbEntity
  8
LAY-1
  6
CONTINUOUS
 62
     7
100
AcDbLine
 10
212.7361761917577
 20
99.21613962619588
 30
0.0
 11
202.7361761917477
 21
99.2161396262018
 31
0.0
  0
ARC
  5
280
330
1F
100
AcDbEntity
  8
LAY-1
  6
CONTINUOUS
 62
     7
100
AcDbCircle
 10
234.7735982929799
 20
57.2475032920327
 30
0.0
 40
1.0
100
AcDbArc
 50
95.86090628247725
 51
177.9999999998759
  0
ARC
  5
281
330
1F
100
AcDbEntity
  8
LAY-1
  6
CONTINUOUS
 62
     7
100
AcDbCircle
 10
191.3114369695531
 20
63.21613962619464
 30
0.0
 40
5.0
100
AcDbArc
 50
189.5940682268751
 51
264.1390937175959
  0
LINE
  5
282
330
1F
100
AcDbEntity
  8
LAY-1
  6
CONTINUOUS
 62
     7
100
AcDbLine
 10
232.9861761917869
 20
34.71613962622056
 30
0.0
 11
232.9861761917881
 21
32.71613962622056
 31
0.0
  0
LINE
  5
283
330
1F
100
AcDbEntity
  8
LAY-1
  6
CONTINUOUS
 62
     7
100
AcDbLine
 10
232.4861761917885
 20
32.21613962622022
 30
0.0
 11
212.7361761917794
 21
32.21613962620794
 31
0.0
  0
ARC
  5
284
330
1F
100
AcDbEntity
  8
LAY-1
  6
CONTINUOUS
 62
     7
100
AcDbCircle
 10
234.1609154139881
 20
63.21613962622136
 30
0.0
 40
5.0
100
AcDbArc
 50
275.8609062824754
 51
350.4059317731961
  0
LINE
  5
285
330
1F
100
AcDbEntity
  8
LAY-1
  6
CONTINUOUS
 62
     7
100
AcDbLine
 10
224.6271879985855
 20
30.61613962621542
 30
0.0
 11
200.8451643849744
 21
30.61613962620053
 31
0.0
  0
ARC
  5
286
330
1F
100
AcDbEntity
  8
LAY-1
  6
CONTINUOUS
 62
     7
100
AcDbCircle
 10
217.4996321590713
 20
37.2161396262109
 30
0.0
 40
1.0
100
AcDbArc
 50
270.0000000000362
 51
315.0000000000339
  0
LINE
  5
287
330
1F
100
AcDbEntity
  8
LAY-1
  6
CONTINUOUS
 62
     7
100
AcDbLine
 10
212.7361761917794
 20
32.21613962620794
 30
0.0
 11
192.9861761917884
 21
32.21613962619566
 31
0.0
  0
LINE
  5
288
330
1F
100
AcDbEntity
  8
LAY-1
  6
CONTINUOUS
 62
     7
100
AcDbLine
 10
192.4861761917881
 20
32.71613962619532
 30
0.0
 11
192.4861761917879
 21
34.71613962619532
 31
0.0
  0
LINE
  5
289
330
1F
100
AcDbEntity
  8
LAY-1
  6
CONTINUOUS
 62
     7
100
AcDbLine
 10
225.8896335013337
 20
62.25103912291915
 30
0.0
 11
225.2499234691221
 21
43.93214061254881
 31
0.0
  0
ARC
  5
28A
330
1F
100
AcDbEntity
  8
LAY-1
  6
CONTINUOUS
 62
     7
100
AcDbCircle
 10
241.7361761917698
 20
63.71613962622602
 30
0.0
 40
0.5
100
AcDbArc
 50
270.0000000000326
 51
0.0000000000358099
  0
ARC
  5
28B
330
1F
100
AcDbEntity
  8
LAY-1
  6
CONTINUOUS
 62
     7
100
AcDbCircle
 10
224.2505326421021
 20
43.96704010925013
 30
0.0
 40
1.0
100
AcDbArc
 50
315.0000000000335
 51
357.9999999998761
  0
LINE
  5
28C
330
1F
100
AcDbEntity
  8
LAY-1
  6
CONTINUOUS
 62
     7
100
AcDbLine
 10
212.7361761917779
 20
34.71613962620794
 30
0.0
 11
192.4861761917879
 21
34.71613962619532
 31
0.0
  0
ARC
  5
28D
330
1F
100
AcDbEntity
  8
LAY-1
  6
CONTINUOUS
 62
     7
100
AcDbCircle
 10
192.9861761917881
 20
32.71613962619566
 30
0.0
 40
0.5
100
AcDbArc
 50
180.0000000000362
 51
270.0000000000326
  0
ARC
  5
28E
330
1F
100
AcDbEntity
  8
LAY-1
  6
CONTINUOUS
 62
     7
100
AcDbCircle
 10
232.4861761917881
 20
32.71613962622022
 30
0.0
 40
0.5
100
AcDbArc
 50
270.0000000000392
 51
0.0000000000358099
  0
ARC
  5
28F
330
1F
100
AcDbEntity
  8
LAY-1
  6
CONTINUOUS
 62
     7
100
AcDbCircle
 10
190.4623125843922
 20
66.31613962619409
 30
0.0
 40
6.500000000000004
100
AcDbArc
 50
60.00000000015626
 51
119.9999999999161
  0
ARC
  5
290
330
1F
100
AcDbEntity
  8
LAY-1
  6
CONTINUOUS
 62
     7
100
AcDbCircle
 10
226.8890243283527
 20
62.21613962621681
 30
0.0
 40
1.0
100
AcDbArc
 50
90.00000000003595
 51
177.9999999998759
  0
ARC
  5
291
330
1F
100
AcDbEntity
  8
LAY-1
  6
CONTINUOUS
 62
     7
100
AcDbCircle
 10
192.9623125843895
 20
70.64626664511766
 30
0.0
 40
1.5
100
AcDbArc
 50
0.0000000000358099
 51
60.00000000015575
  0
ARC
  5
292
330
1F
100
AcDbEntity
  8
LAY-1
  6
CONTINUOUS
 62
     7
100
AcDbCircle
 10
201.2218197414511
 20
43.9670401092358
 30
0.0
 40
1.0
100
AcDbArc
 50
182.0000000001959
 51
225.0000000000358
  0
CIRCLE
  5
293
330
1F
100
AcDbEntity
  8
LAY-1
  6
CONTINUOUS
 62
     7
100
AcDbCircle
 10
212.7361761917741
 20
48.71613962620794
 30
0.0
 40
7.500000000000004
  0
CIRCLE
  5
294
330
1F
100
AcDbEntity
  8
LAY-1
  6
CONTINUOUS
 62
     7
100
AcDbCircle
 10
212.7361761917741
 20
48.71613962620794
 30
0.0
 40
8.5
  0
CIRCLE
  5
295
330
1F
100
AcDbEntity
  8
LAY-1
  6
CONTINUOUS
 62
     7
100
AcDbCircle
 10
212.7361761917741
 20
48.71613962620794
 30
0.0
 40
5.25
  0
LINE
  5
296
330
1F
100
AcDbEntity
  8
LAY-1
  6
CONTINUOUS
 62
     7
100
AcDbLine
 10
239.6798732024401
 20
85.71613962622476
 30
0.0
 11
239.7361761917541
 21
85.71613962622476
 31
0.0
  0
LINE
  5
297
330
1F
100
AcDbEntity
  8
LAY-1
  6
CONTINUOUS
 62
     7
100
AcDbLine
 10
239.6013075373336
 20
83.21613962622476
 30
0.0
 11
239.6798732024401
 21
85.71613962622476
 31
0.0
  0
ARC
  5
298
330
1F
100
AcDbEntity
  8
LAY-1
  6
CONTINUOUS
 62
     7
100
AcDbCircle
 10
187.9623125843895
 20
70.64626664511448
 30
0.0
 40
1.5
100
AcDbArc
 50
119.9999999999156
 51
180.0000000000362
  0
LINE
  5
299
330
1F
100
AcDbEntity
  8
LAY-1
  6
CONTINUOUS
 62
     7
100
AcDbLine
 10
186.4623125843895
 20
70.64626664511357
 30
0.0
 11
186.46231258439
 21
69.71613962619156
 31
0.0
  0
LINE
  5
29A
330
1F
100
AcDbEntity
  8
LAY-1
  6
CONTINUOUS
 62
     7
100
AcDbLine
 10
194.46231258439
 20
69.71613962619656
 30
0.0
 11
194.4623125843895
 21
70.64626664511857
 31
0.0
  0
LINE
  5
29B
330
1F
100
AcDbEntity
  8
LAY-1
  6
EXLTYPE2
 62
     1
100
AcDbLine
 10
238.5867081012001
 20
48.71613962622408
 30
0.0
 11
206.3861761917741
 21
48.71613962620396
 31
0.0
  0
LINE
  5
29C
330
1F
100
AcDbEntity
  8
LAY-1
  6
EXLTYPE2
 62
     1
100
AcDbLine
 10
197.0030503103823
 20
27.61908856988217
 30
0.0
 11
197.0030503103773
 21
37.2779794149532
 31
0.0
  0
LINE
  5
29D
330
1F
100
AcDbEntity
  8
LAY-1
  6
EXLTYPE2
 62
     1
100
AcDbLine
 10
228.4693020731772
 20
37.40507008398678
 30
0.0
 11
228.4693020731803
 21
27.61908856990173
 31
0.0
  0
LINE
  5
29E
330
1F
100
AcDbEntity
  8
LAY-1
  6
EXLTYPE2
 62
     1
100
AcDbLine
 10
206.3861761917741
 20
48.71613962620396
 30
0.0
 11
186.8856442823582
 21
48.71613962618986
 31
0.0
  0
LINE
  5
29F
330
1F
100
AcDbEntity
  8
LAY-1
  6
EXLTYPE2
 62
     1
100
AcDbLine
 10
235.0100397991406
 20
73.6842554282928
 30
0.0
 11
235.0100397991457
 21
62.15930789441681
 31
0.0
  0
LINE
  5
2A0
330
1F
100
AcDbEntity
  8
LAY-1
  6
EXLTYPE2
 62
     1
100
AcDbLine
 10
190.4623125843886
 20
73.69963650128105
 30
0.0
 11
190.4623125843936
 21
62.36158839245403
 31
0.0
  0
LINE
  5
2A1
330
1F
100
AcDbEntity
  8
LAY-1
  6
CONTINUOUS
 62
     1
100
AcDbLine
 10
230.3702012720227
 20
84.71549561203292
 30
0.0
 11
230.4173204321327
 21
83.21613962621896
 31
0.0
  0
LINE
  5
2A2
330
1F
100
AcDbEntity
  8
LAY-1
  6
CONTINUOUS
 62
     1
100
AcDbLine
 10
229.7924791810681
 20
85.71613962621862
 30
0.0
 11
230.3702012720227
 21
84.71549561203292
 31
0.0
  0
LINE
  5
2A3
330
1F
100
AcDbEntity
  8
LAY-1
  6
CONTINUOUS
 62
     1
100
AcDbLine
 10
239.1021511114877
 20
84.71549561203838
 30
0.0
 11
239.6798732024401
 21
85.71613962622476
 31
0.0
  0
LINE
  5
2A4
330
1F
100
AcDbEntity
  8
LAY-1
  6
CONTINUOUS
 62
     1
100
AcDbLine
 10
239.0550319513847
 20
83.21613962622442
 30
0.0
 11
239.1021511114877
 21
84.71549561203838
 31
0.0
  0
LINE
  5
2A5
330
1F
100
AcDbEntity
  8
LAY-1
  6
CONTINUOUS
 62
     7
100
AcDbLine
 10
239.6798732024401
 20
85.71613962622374
 30
0.0
 11
234.7361761917561
 21
85.71613962622067
 31
0.0
  0
LINE
  5
2A6
330
1F
100
AcDbEntity
  8
LAY-1
  6
CONTINUOUS
 62
     7
100
AcDbLine
 10
229.7924791810692
 20
85.71613962622067
 30
0.0
 11
234.7361761917533
 21
85.71613962622067
 31
0.0
  0
LINE
  5
2A7
330
1F
100
AcDbEntity
  8
LAY-1
  6
EXLTYPE1
 62
     1
100
AcDbLine
 10
229.8361761917586
 20
83.21613962621862
 30
0.0
 11
229.8721761917562
 21
83.18013962622118
 31
0.0
  0
LINE
  5
2A8
330
1F
100
AcDbEntity
  8
LAY-1
  6
EXLTYPE1
 62
     1
100
AcDbLine
 10
229.8721761917562
 20
83.18013962622118
 30
0.0
 11
229.8710448461787
 21
83.21613962621862
 31
0.0
  0
LINE
  5
2A9
330
1F
100
AcDbEntity
  8
LAY-1
  6
EXLTYPE1
 62
     1
100
AcDbLine
 10
239.6361761917587
 20
83.21613962622476
 30
0.0
 11
239.600176191756
 21
83.18013962622209
 31
0.0
  0
LINE
  5
2AA
330
1F
100
AcDbEntity
  8
LAY-1
  6
EXLTYPE1
 62
     1
100
AcDbLine
 10
239.6013075373336
 20
83.21613962622476
 30
0.0
 11
239.600176191756
 21
83.18013962622209
 31
0.0
  0
LINE
  5
2AB
330
1F
100
AcDbEntity
  8
LAY-1
  6
CONTINUOUS
 62
     7
100
AcDbLine
 10
234.7361761917512
 20
84.71549561205157
 30
0.0
 11
239.6484266974367
 21
84.71549561203668
 31
0.0
  0
LINE
  5
2AC
330
1F
100
AcDbEntity
  8
LAY-1
  6
CONTINUOUS
 62
     7
100
AcDbLine
 10
229.8239256860737
 20
84.71549561203258
 30
0.0
 11
234.7361761917568
 21
84.71549561203565
 31
0.0
  0
LINE
  5
2AD
330
1F
100
AcDbEntity
  8
LAY-1
  6
CONTINUOUS
 62
     7
100
AcDbLine
 10
208.2410769907667
 20
99.21613962620418
 30
0.0
 11
208.2410769907648
 21
102.2161396262052
 31
0.0
  0
LINE
  5
2AE
330
1F
100
AcDbEntity
  8
LAY-1
  6
CONTINUOUS
 62
     7
100
AcDbLine
 10
222.2527407231207
 20
99.20437432287693
 30
0.0
 11
222.2527407231188
 21
102.216139626214
 31
0.0
  0
LINE
  5
2AF
330
1F
100
AcDbEntity
  8
LAY-1
  6
CONTINUOUS
 62
     7
100
AcDbLine
 10
221.2497020584389
 20
102.2161396262133
 30
0.0
 11
221.2497020584397
 21
99.20437432287625
 31
0.0
  0
LINE
  5
2B0
330
1F
100
AcDbEntity
  8
LAY-1
  6
CONTINUOUS
 62
     7
100
AcDbLine
 10
220.2466633937597
 20
99.20437432287568
 30
0.0
 11
220.2466633937578
 21
102.2161396262127
 31
0.0
  0
LINE
  5
2B1
330
1F
100
AcDbEntity
  8
LAY-1
  6
CONTINUOUS
 62
     7
100
AcDbLine
 10
219.2508785887889
 20
102.216139626212
 30
0.0
 11
219.2508785887897
 21
99.204374322875
 31
0.0
  0
LINE
  5
2B2
330
1F
100
AcDbEntity
  8
LAY-1
  6
CONTINUOUS
 62
     7
100
AcDbLine
 10
218.2508785887869
 20
102.2161396262115
 30
0.0
 11
218.2508785887877
 21
99.20437432287443
 31
0.0
  0
LINE
  5
2B3
330
1F
100
AcDbEntity
  8
LAY-1
  6
CONTINUOUS
 62
     7
100
AcDbLine
 10
217.2478399241087
 20
99.20437432287375
 30
0.0
 11
217.2478399241068
 21
102.2161396262108
 31
0.0
  0
LINE
  5
2B4
330
1F
100
AcDbEntity
  8
LAY-1
  6
CONTINUOUS
 62
     7
100
AcDbLine
 10
216.2448012594269
 20
102.2161396262102
 30
0.0
 11
216.2448012594277
 21
99.20437432287318
 31
0.0
  0
LINE
  5
2B5
330
1F
100
AcDbEntity
  8
LAY-1
  6
CONTINUOUS
 62
     7
100
AcDbLine
 10
215.2417625947477
 20
99.2043743228725
 30
0.0
 11
215.2417625947458
 21
102.2161396262095
 31
0.0
  0
LINE
  5
2B6
330
1F
100
AcDbEntity
  8
LAY-1
  6
CONTINUOUS
 62
     7
100
AcDbLine
 10
214.2459777897769
 20
102.216139626209
 30
0.0
 11
214.2459777897777
 21
99.20437432287193
 31
0.0
  0
LINE
  5
2B7
330
1F
100
AcDbEntity
  8
LAY-1
  6
CONTINUOUS
 62
     7
100
AcDbLine
 10
213.2459777897748
 20
102.2161396262083
 30
0.0
 11
213.2459777897757
 21
99.20437432287125
 31
0.0
  0
LINE
  5
2B8
330
1F
100
AcDbEntity
  8
LAY-1
  6
CONTINUOUS
 62
     7
100
AcDbLine
 10
212.2429391250967
 20
99.20437432287068
 30
0.0
 11
212.2429391250949
 21
102.2161396262077
 31
0.0
  0
LINE
  5
2B9
330
1F
100
AcDbEntity
  8
LAY-1
  6
CONTINUOUS
 62
     7
100
AcDbLine
 10
211.2399004604148
 20
102.216139626207
 30
0.0
 11
211.2399004604158
 21
99.20437432287
 31
0.0
  0
LINE
  5
2BA
330
1F
100
AcDbEntity
  8
LAY-1
  6
CONTINUOUS
 62
     7
100
AcDbLine
 10
210.2368617957357
 20
99.20437432286943
 30
0.0
 11
210.2368617957339
 21
102.2161396262065
 31
0.0
  0
LINE
  5
2BB
330
1F
100
AcDbEntity
  8
LAY-1
  6
CONTINUOUS
 62
     7
100
AcDbLine
 10
209.2410769907648
 20
102.2161396262058
 30
0.0
 11
209.2410769907657
 21
99.20437432286874
 31
0.0
  0
LINE
  5
2BC
330
1F
100
AcDbEntity
  8
LAY-1
  6
CONTINUOUS
 62
     7
100
AcDbLine
 10
207.2380383260877
 20
99.2043743228675
 30
0.0
 11
207.2380383260858
 21
102.2161396262045
 31
0.0
  0
LINE
  5
2BD
330
1F
100
AcDbEntity
  8
LAY-1
  6
CONTINUOUS
 62
     7
100
AcDbLine
 10
206.2349996614059
 20
102.216139626204
 30
0.0
 11
206.2349996614067
 21
99.20437432286693
 31
0.0
  0
LINE
  5
2BE
330
1F
100
AcDbEntity
  8
LAY-1
  6
CONTINUOUS
 62
     7
100
AcDbLine
 10
205.2319609967267
 20
99.20437432286624
 30
0.0
 11
205.2319609967248
 21
102.2161396262033
 31
0.0
  0
LINE
  5
2BF
330
1F
100
AcDbEntity
  8
LAY-1
  6
CONTINUOUS
 62
     7
100
AcDbLine
 10
204.2361761917559
 20
102.2161396262027
 30
0.0
 11
204.2361761917567
 21
99.20437432286568
 31
0.0
  0
LINE
  5
2C0
330
1F
100
AcDbEntity
  8
LAY-1
  6
CONTINUOUS
 62
     7
100
AcDbLine
 10
233.0667073005889
 20
66.71613962622067
 30
0.0
 11
233.0667073005912
 21
63.21613962622067
 31
0.0
  0
LINE
  5
2C1
330
1F
100
AcDbEntity
  8
LAY-1
  6
CONTINUOUS
 62
     7
100
AcDbLine
 10
228.622717489713
 20
66.71613962621782
 30
0.0
 11
228.6227174897151
 21
63.21613962621783
 31
0.0
  0
LINE
  5
2C2
330
1F
100
AcDbEntity
  8
LAY-1
  6
CONTINUOUS
 62
     7
100
AcDbLine
 10
192.405645082947
 20
66.71613962620793
 30
0.0
 11
192.405645082947
 21
63.21613962620794
 31
0.0
  0
LINE
  5
2C3
330
1F
100
AcDbEntity
  8
LAY-1
  6
CONTINUOUS
 62
     7
100
AcDbLine
 10
196.8496348938229
 20
66.71613962620793
 30
0.0
 11
196.8496348938229
 21
63.21613962620794
 31
0.0
  0
ARC
  5
2C4
330
1F
100
AcDbEntity
  8
LAY-1
  6
CONTINUOUS
 62
     7
100
AcDbCircle
 10
234.736176191755
 20
81.13280629284216
 30
0.0
 40
8.583333333379572
100
AcDbArc
 50
70.34714036840414
 51
109.6528596314683
  0
ARC
  5
2C5
330
1F
100
AcDbEntity
  8
LAY-1
  6
CONTINUOUS
 62
     7
100
AcDbCircle
 10
228.962673499881
 20
81.1328062928425
 30
0.0
 40
8.583333333379572
100
AcDbArc
 50
70.34714036852291
 51
84.82967239494835
  0
ARC
  5
2C6
330
1F
100
AcDbEntity
  8
LAY-1
  6
CONTINUOUS
 62
     7
100
AcDbCircle
 10
240.5096788836369
 20
81.13280629284978
 30
0.0
 40
8.583333333379572
100
AcDbArc
 50
95.1703276051235
 51
109.6528596315489
  0
ARC
  5
2C7
330
1F
100
AcDbEntity
  8
LAY-1
  6
CONTINUOUS
 62
     7
100
AcDbCircle
 10
240.5096788836287
 20
94.29947295959883
 30
0.0
 40
8.583333333379572
100
AcDbArc
 50
250.347140368523
 51
264.8296723949492
  0
ARC
  5
2C8
330
1F
100
AcDbEntity
  8
LAY-1
  6
CONTINUOUS
 62
     7
100
AcDbCircle
 10
234.7361761917468
 20
94.29947295959917
 30
0.0
 40
8.583333333379572
100
AcDbArc
 50
250.3471403686027
 51
289.6528596316673
  0
ARC
  5
2C9
330
1F
100
AcDbEntity
  8
LAY-1
  6
CONTINUOUS
 62
     7
100
AcDbCircle
 10
228.9626734998728
 20
94.29947295959155
 30
0.0
 40
8.583333333379572
100
AcDbArc
 50
275.170327605123
 51
289.6528596315484
  0
LINE
  5
2CA
330
1F
100
AcDbEntity
  8
LAY-1
  6
CONTINUOUS
 62
     7
100
AcDbLine
 10
237.622927537709
 20
89.21613962623942
 30
0.0
 11
237.6229275377108
 21
86.21613962620555
 31
0.0
  0
LINE
  5
2CB
330
1F
100
AcDbEntity
  8
LAY-1
  6
CONTINUOUS
 62
     7
100
AcDbLine
 10
231.8494248458186
 20
89.21613962622874
 30
0.0
 11
231.8494248458184
 21
86.21613962620827
 31
0.0
  0
LINE
  5
2CC
330
1F
100
AcDbEntity
  8
LAY-1
  6
CONTINUOUS
 62
     7
100
AcDbLine
 10
239.3699513347809
 20
66.71613962622453
 30
0.0
 11
239.3699513347831
 21
63.21613962622454
 31
0.0
  0
LINE
  5
2CD
330
1F
100
AcDbEntity
  8
LAY-1
  6
CONTINUOUS
 62
     7
100
AcDbLine
 10
186.102401048755
 20
66.71613962620793
 30
0.0
 11
186.102401048755
 21
63.21613962620794
 31
0.0
  0
LINE
  5
2CE
330
1F
100
AcDbEntity
  8
LAY-1
  6
EXLTYPE2
 62
     1
100
AcDbLine
 10
212.7361761917567
 20
104.1030945287244
 30
0.0
 11
212.7361761917799
 21
28.12823523563092
 31
0.0
  0
LINE
  5
2CF
330
1F
100
AcDbEntity
  8
LAY-1
  6
CONTINUOUS
 62
     7
100
AcDbLine
 10
200.2361761917659
 20
74.71613962620015
 30
0.0
 11
200.2361761917657
 21
75.21613962620015
 31
0.0
  0
LINE
  5
2D0
330
1F
100
AcDbEntity
  8
LAY-1
  6
CONTINUOUS
 62
     7
100
AcDbLine
 10
200.23617619177
 20
75.21613962619998
 30
0.0
 11
196.7361761917655
 21
75.21613962619998
 31
0.0
  0
LINE
  5
2D1
330
1F
100
AcDbEntity
  8
LAY-1
  6
CONTINUOUS
 62
     7
100
AcDbLine
 10
193.2361761917655
 20
74.71613962619799
 30
0.0
 11
193.2361761917654
 21
75.21613962619799
 31
0.0
  0
LINE
  5
2D2
330
1F
100
AcDbEntity
  8
LAY-1
  6
CONTINUOUS
 62
     7
100
AcDbLine
 10
193.2361761917611
 20
75.21613962619782
 30
0.0
 11
196.7361761917655
 21
75.21613962619998
 31
0.0
  0
ARC
  5
2D3
330
1F
100
AcDbEntity
  8
LAY-1
  6
CONTINUOUS
 62
     7
100
AcDbCircle
 10
121.782302952328
 20
123.866918336954
 30
0.0
 40
1.0
100
AcDbArc
 50
270.0000000000002
 51
0.0000000000000573
  0
LINE
  5
2D4
330
1F
100
AcDbEntity
  8
LAY-1
  6
CONTINUOUS
 62
     7
100
AcDbLine
 10
89.282302952328
 20
185.366918336954
 30
0.0
 11
114.282302952328
 21
185.366918336957
 31
0.0
  0
LINE
  5
2D5
330
1F
100
AcDbEntity
  8
LAY-1
  6
CONTINUOUS
 62
     7
100
AcDbLine
 10
114.282302952328
 20
119.366918336954
 30
0.0
 11
89.282302952328
 21
119.366918336946
 31
0.0
  0
LINE
  5
2D6
330
1F
100
AcDbEntity
  8
LAY-1
  6
CONTINUOUS
 62
     7
100
AcDbLine
 10
89.282302952328
 20
185.366918336954
 30
0.0
 11
89.282302952328
 21
173.634988265998
 31
0.0
  0
LINE
  5
2D7
330
1F
100
AcDbEntity
  8
LAY-1
  6
CONTINUOUS
 62
     7
100
AcDbLine
 10
88.31720244902999
 20
172.635597438979
 30
0.0
 11
87.782302952328
 21
172.616918336954
 31
0.0
  0
LINE
  5
2D8
330
1F
100
AcDbEntity
  8
LAY-1
  6
CONTINUOUS
 62
     7
100
AcDbLine
 10
89.282302952328
 20
131.098848407909
 30
0.0
 11
89.282302952328
 21
119.366918336946
 31
0.0
  0
ARC
  5
2D9
330
1F
100
AcDbEntity
  8
LAY-1
  6
CONTINUOUS
 62
     7
100
AcDbCircle
 10
88.282302952328
 20
173.634988265998
 30
0.0
 40
1.0
100
AcDbArc
 50
272.0000000001601
 51
0.0000000000000573
  0
ARC
  5
2DA
330
1F
100
AcDbEntity
  8
LAY-1
  6
CONTINUOUS
 62
     7
100
AcDbCircle
 10
88.282302952328
 20
131.098848407909
 30
0.0
 40
1.0
100
AcDbArc
 50
0.0000000000000573
 51
87.99999999983993
  0
ARC
  5
2DB
330
1F
100
AcDbEntity
  8
LAY-1
  6
CONTINUOUS
 62
     7
100
AcDbCircle
 10
123.782302952328
 20
125.005991870623
 30
0.0
 40
1.0
100
AcDbArc
 50
92.00000000016009
 51
180.0000000000002
  0
ARC
  5
2DC
330
1F
100
AcDbEntity
  8
LAY-1
  6
CONTINUOUS
 62
     7
100
AcDbCircle
 10
129.782302952328
 20
139.99132978491
 30
0.0
 40
2.0
100
AcDbArc
 50
91.0000000000801
 51
180.0000000000002
  0
ARC
  5
2DD
330
1F
100
AcDbEntity
  8
LAY-1
  6
CONTINUOUS
 62
     7
100
AcDbCircle
 10
124.282302952328
 20
129.526195204714
 30
0.0
 40
3.500000000000002
100
AcDbArc
 50
272.0000000001601
 51
0.0000000000000573
  0
LINE
  5
2DE
330
1F
100
AcDbEntity
  8
LAY-1
  6
CONTINUOUS
 62
     7
100
AcDbLine
 10
119.782302952328
 20
122.866918336954
 30
0.0
 11
121.782302952328
 21
122.866918336954
 31
0.0
  0
LINE
  5
2DF
330
1F
100
AcDbEntity
  8
LAY-1
  6
CONTINUOUS
 62
     7
100
AcDbLine
 10
123.747403455625
 20
126.005382697642
 30
0.0
 11
124.404451190787
 21
126.028327310147
 31
0.0
  0
LINE
  5
2E0
330
1F
100
AcDbEntity
  8
LAY-1
  6
CONTINUOUS
 62
     7
100
AcDbLine
 10
129.747398139453
 20
164.742811498687
 30
0.0
 11
151.282302952328
 21
164.366918336955
 31
0.0
  0
LINE
  5
2E1
330
1F
100
AcDbEntity
  8
LAY-1
  6
CONTINUOUS
 62
     7
100
AcDbLine
 10
151.282302952328
 20
142.366918336955
 30
0.0
 11
129.747398139453
 21
141.991025175223
 31
0.0
  0
LINE
  5
2E2
330
1F
100
AcDbEntity
  8
LAY-1
  6
CONTINUOUS
 62
     7
100
AcDbLine
 10
152.282302952328
 20
141.866918336964
 30
0.0
 11
152.282302952328
 21
142.366918336955
 31
0.0
  0
LINE
  5
2E3
330
1F
100
AcDbEntity
  8
LAY-1
  6
CONTINUOUS
 62
     7
100
AcDbLine
 10
155.282302952328
 20
141.866918336965
 30
0.0
 11
152.282302952328
 21
141.866918336964
 31
0.0
  0
LINE
  5
2E4
330
1F
100
AcDbEntity
  8
LAY-1
  6
CONTINUOUS
 62
     7
100
AcDbLine
 10
155.282302952328
 20
162.866918336965
 30
0.0
 11
155.282302952328
 21
141.866918336965
 31
0.0
  0
LINE
  5
2E5
330
1F
100
AcDbEntity
  8
LAY-1
  6
CONTINUOUS
 62
     7
100
AcDbLine
 10
152.282302952328
 20
162.866918336965
 30
0.0
 11
155.282302952328
 21
162.866918336965
 31
0.0
  0
LINE
  5
2E6
330
1F
100
AcDbEntity
  8
LAY-1
  6
CONTINUOUS
 62
     7
100
AcDbLine
 10
152.282302952328
 20
162.366918336955
 30
0.0
 11
152.282302952328
 21
162.866918336965
 31
0.0
  0
LINE
  5
2E7
330
1F
100
AcDbEntity
  8
LAY-1
  6
CONTINUOUS
 62
     7
100
AcDbLine
 10
151.282302952328
 20
162.366918336955
 30
0.0
 11
152.282302952328
 21
162.366918336955
 31
0.0
  0
LINE
  5
2E8
330
1F
100
AcDbEntity
  8
LAY-1
  6
CONTINUOUS
 62
     7
100
AcDbLine
 10
152.282302952328
 20
142.366918336955
 30
0.0
 11
151.282302952328
 21
142.366918336955
 31
0.0
  0
LINE
  5
2E9
330
1F
100
AcDbEntity
  8
LAY-1
  6
CONTINUOUS
 62
     7
100
AcDbLine
 10
87.782302952328
 20
172.616918336954
 30
0.0
 11
85.782302952328
 21
172.616918336953
 31
0.0
  0
LINE
  5
2EA
330
1F
100
AcDbEntity
  8
LAY-1
  6
CONTINUOUS
 62
     7
100
AcDbLine
 10
85.782302952328
 20
132.116918336954
 30
0.0
 11
87.782302952328
 21
132.116918336954
 31
0.0
  0
ARC
  5
2EB
330
1F
100
AcDbEntity
  8
LAY-1
  6
CONTINUOUS
 62
     7
100
AcDbCircle
 10
85.782302952328
 20
132.616918336954
 30
0.0
 40
0.5
100
AcDbArc
 50
180.0000000000002
 51
270.0000000000002
  0
LINE
  5
2EC
330
1F
100
AcDbEntity
  8
LAY-1
  6
EXLTYPE2
 62
     1
100
AcDbLine
 10
158.226201923076
 20
152.366918336967
 30
0.0
 11
81.194398561751
 21
152.366918336943
 31
0.0
  0
LINE
  5
2ED
330
1F
100
AcDbEntity
  8
LAY-1
  6
CONTINUOUS
 62
     7
100
AcDbLine
 10
152.282302952328
 20
162.366918336955
 30
0.0
 11
152.2823029523312
 21
152.3669183369651
 31
0.0
  0
LINE
  5
2EE
330
1F
100
AcDbEntity
  8
LAY-1
  6
CONTINUOUS
 62
     7
100
AcDbLine
 10
152.2823029523257
 20
152.3669183369651
 30
0.0
 11
152.282302952328
 21
142.366918336955
 31
0.0
  0
LINE
  5
2EF
330
1F
100
AcDbEntity
  8
LAY-1
  6
CONTINUOUS
 62
     7
100
AcDbLine
 10
151.282302952328
 20
164.366918336955
 30
0.0
 11
151.2823029523318
 21
152.3669183369648
 31
0.0
  0
LINE
  5
2F0
330
1F
100
AcDbEntity
  8
LAY-1
  6
CONTINUOUS
 62
     7
100
AcDbLine
 10
151.2823029523257
 20
152.3669183369648
 30
0.0
 11
151.282302952328
 21
142.366918336955
 31
0.0
  0
LINE
  5
2F1
330
1F
100
AcDbEntity
  8
LAY-1
  6
CONTINUOUS
 62
     7
100
AcDbLine
 10
129.747398139453
 20
162.742811498687
 30
0.0
 11
151.282302952328
 21
162.366918336955
 31
0.0
  0
LINE
  5
2F2
330
1F
100
AcDbEntity
  8
LAY-1
  6
CONTINUOUS
 62
     7
100
AcDbLine
 10
127.782302952328
 20
166.742506888999
 30
0.0
 11
127.782302952328
 21
164.742506888999
 31
0.0
  0
ARC
  5
2F3
330
1F
100
AcDbEntity
  8
LAY-1
  6
CONTINUOUS
 62
     7
100
AcDbCircle
 10
129.782302952328
 20
164.742506888999
 30
0.0
 40
2.0
100
AcDbArc
 50
180.0000000000002
 51
268.9999999999204
  0
LINE
  5
2F4
330
1F
100
AcDbEntity
  8
LAY-1
  6
CONTINUOUS
 62
     7
100
AcDbLine
 10
123.747403455625
 20
178.728453976268
 30
0.0
 11
124.404451190787
 21
178.705509363763
 31
0.0
  0
LINE
  5
2F5
330
1F
100
AcDbEntity
  8
LAY-1
  6
CONTINUOUS
 62
     7
100
AcDbLine
 10
119.782302952328
 20
181.866918336955
 30
0.0
 11
121.782302952328
 21
181.866918336955
 31
0.0
  0
ARC
  5
2F6
330
1F
100
AcDbEntity
  8
LAY-1
  6
CONTINUOUS
 62
     7
100
AcDbCircle
 10
124.282302952328
 20
175.207641469196
 30
0.0
 40
3.500000000000002
100
AcDbArc
 50
0.0000000000000573
 51
87.99999999983993
  0
ARC
  5
2F7
330
1F
100
AcDbEntity
  8
LAY-1
  6
CONTINUOUS
 62
     7
100
AcDbCircle
 10
129.782302952328
 20
166.742506888999
 30
0.0
 40
2.0
100
AcDbArc
 50
180.0000000000002
 51
268.9999999999204
  0
ARC
  5
2F8
330
1F
100
AcDbEntity
  8
LAY-1
  6
CONTINUOUS
 62
     7
100
AcDbCircle
 10
121.782302952328
 20
180.866918336955
 30
0.0
 40
1.0
100
AcDbArc
 50
0.0000000000000573
 51
90.00000000000004
  0
ARC
  5
2F9
330
1F
100
AcDbEntity
  8
LAY-1
  6
CONTINUOUS
 62
     7
100
AcDbCircle
 10
123.782302952328
 20
179.727844803287
 30
0.0
 40
1.0
100
AcDbArc
 50
180.0000000000002
 51
267.9999999998401
  0
LINE
  5
2FA
330
1F
100
AcDbEntity
  8
LAY-1
  6
CONTINUOUS
 62
     7
100
AcDbLine
 10
127.782302952328
 20
175.207641469196
 30
0.0
 11
127.7823029523352
 21
152.3669183369575
 31
0.0
  0
LINE
  5
2FB
330
1F
100
AcDbEntity
  8
LAY-1
  6
CONTINUOUS
 62
     7
100
AcDbLine
 10
127.782302952328
 20
129.525280888265
 30
0.0
 11
127.7823029523209
 21
152.3669183369575
 31
0.0
  0
LINE
  5
2FC
330
1F
100
AcDbEntity
  8
LAY-1
  6
CONTINUOUS
 62
     7
100
AcDbLine
 10
122.782302952328
 20
123.866918336954
 30
0.0
 11
122.7823029523191
 21
152.366918336956
 31
0.0
  0
LINE
  5
2FD
330
1F
100
AcDbEntity
  8
LAY-1
  6
CONTINUOUS
 62
     7
100
AcDbLine
 10
122.782302952328
 20
180.866918336955
 30
0.0
 11
122.782302952328
 21
152.3669183369601
 31
0.0
  0
LINE
  5
2FE
330
1F
100
AcDbEntity
  8
LAY-1
  6
CONTINUOUS
 62
     7
100
AcDbLine
 10
119.782302952328
 20
181.866918336955
 30
0.0
 11
119.7823029523372
 21
152.3669183369551
 31
0.0
  0
LINE
  5
2FF
330
1F
100
AcDbEntity
  8
LAY-1
  6
CONTINUOUS
 62
     7
100
AcDbLine
 10
119.7823029523201
 20
152.3669183369551
 30
0.0
 11
119.782302952328
 21
122.866918336954
 31
0.0
  0
ARC
  5
300
330
1F
100
AcDbEntity
  8
LAY-1
  6
CONTINUOUS
 62
     7
100
AcDbCircle
 10
119.382302952331
 20
174.640781944339
 30
0.0
 40
6.500000000000004
100
AcDbArc
 50
330.00000000012
 51
29.99999999987998
  0
ARC
  5
301
330
1F
100
AcDbEntity
  8
LAY-1
  6
CONTINUOUS
 62
     7
100
AcDbCircle
 10
123.712429971253
 20
177.140781944339
 30
0.0
 40
1.5
100
AcDbArc
 50
29.99999999987957
 51
90.00000000000004
  0
ARC
  5
302
330
1F
100
AcDbEntity
  8
LAY-1
  6
CONTINUOUS
 62
     7
100
AcDbCircle
 10
123.712429971253
 20
172.140781944339
 30
0.0
 40
1.5
100
AcDbArc
 50
270.0000000000002
 51
330.0000000001205
  0
LINE
  5
303
330
1F
100
AcDbEntity
  8
LAY-1
  6
CONTINUOUS
 62
     7
100
AcDbLine
 10
123.712429971253
 20
170.640781944339
 30
0.0
 11
122.782302952331
 21
170.640781944339
 31
0.0
  0
LINE
  5
304
330
1F
100
AcDbEntity
  8
LAY-1
  6
CONTINUOUS
 62
     7
100
AcDbLine
 10
122.782302952331
 20
178.640781944339
 30
0.0
 11
123.712429971253
 21
178.640781944339
 31
0.0
  0
ARC
  5
305
330
1F
100
AcDbEntity
  8
LAY-1
  6
CONTINUOUS
 62
     7
100
AcDbCircle
 10
119.382302952331
 20
130.1035785961091
 30
0.0
 40
6.500000000000004
100
AcDbArc
 50
330.00000000012
 51
29.99999999987998
  0
ARC
  5
306
330
1F
100
AcDbEntity
  8
LAY-1
  6
CONTINUOUS
 62
     7
100
AcDbCircle
 10
123.712429971253
 20
132.6035785961091
 30
0.0
 40
1.5
100
AcDbArc
 50
29.99999999987957
 51
90.00000000000004
  0
ARC
  5
307
330
1F
100
AcDbEntity
  8
LAY-1
  6
CONTINUOUS
 62
     7
100
AcDbCircle
 10
123.712429971253
 20
127.603578596109
 30
0.0
 40
1.5
100
AcDbArc
 50
270.0000000000002
 51
330.0000000001205
  0
LINE
  5
308
330
1F
100
AcDbEntity
  8
LAY-1
  6
CONTINUOUS
 62
     7
100
AcDbLine
 10
123.712429971253
 20
126.103578596109
 30
0.0
 11
122.782302952331
 21
126.103578596109
 31
0.0
  0
LINE
  5
309
330
1F
100
AcDbEntity
  8
LAY-1
  6
CONTINUOUS
 62
     7
100
AcDbLine
 10
122.782302952331
 20
134.1035785961091
 30
0.0
 11
123.712429971253
 21
134.1035785961091
 31
0.0
  0
LINE
  5
30A
330
1F
100
AcDbEntity
  8
LAY-1
  6
EXLTYPE2
 62
     1
100
AcDbLine
 10
126.56925785482
 20
130.103578596139
 30
0.0
 11
121.46925785482
 21
130.103578596139
 31
0.0
  0
LINE
  5
30B
330
1F
100
AcDbEntity
  8
LAY-1
  6
EXLTYPE2
 62
     1
100
AcDbLine
 10
126.76925785482
 20
174.6407819443401
 30
0.0
 11
121.46925785482
 21
174.6407819443401
 31
0.0
  0
LINE
  5
30C
330
1F
100
AcDbEntity
  8
LAY-1
  6
CONTINUOUS
 62
     7
100
AcDbLine
 10
152.2823029523
 20
142.866918336961
 30
0.0
 11
155.282302952301
 21
142.866918336961
 31
0.0
  0
LINE
  5
30D
330
1F
100
AcDbEntity
  8
LAY-1
  6
CONTINUOUS
 62
     7
100
AcDbLine
 10
152.2823029523
 20
147.87181913597
 30
0.0
 11
155.282302952301
 21
147.87181913597
 31
0.0
  0
LINE
  5
30E
330
1F
100
AcDbEntity
  8
LAY-1
  6
CONTINUOUS
 62
     7
100
AcDbLine
 10
152.270537648964
 20
161.883482868324
 30
0.0
 11
155.282302952301
 21
161.883482868324
 31
0.0
  0
LINE
  5
30F
330
1F
100
AcDbEntity
  8
LAY-1
  6
CONTINUOUS
 62
     7
100
AcDbLine
 10
155.282302952301
 20
160.880444203644
 30
0.0
 11
152.270537648964
 21
160.880444203643
 31
0.0
  0
LINE
  5
310
330
1F
100
AcDbEntity
  8
LAY-1
  6
CONTINUOUS
 62
     7
100
AcDbLine
 10
152.270537648964
 20
159.877405538963
 30
0.0
 11
155.282302952301
 21
159.877405538963
 31
0.0
  0
LINE
  5
311
330
1F
100
AcDbEntity
  8
LAY-1
  6
CONTINUOUS
 62
     7
100
AcDbLine
 10
155.282302952301
 20
158.881620733994
 30
0.0
 11
152.270537648964
 21
158.881620733993
 31
0.0
  0
LINE
  5
312
330
1F
100
AcDbEntity
  8
LAY-1
  6
CONTINUOUS
 62
     7
100
AcDbLine
 10
155.282302952301
 20
157.881620733992
 30
0.0
 11
152.270537648964
 21
157.881620733991
 31
0.0
  0
LINE
  5
313
330
1F
100
AcDbEntity
  8
LAY-1
  6
CONTINUOUS
 62
     7
100
AcDbLine
 10
152.270537648964
 20
156.878582069312
 30
0.0
 11
155.282302952301
 21
156.878582069312
 31
0.0
  0
LINE
  5
314
330
1F
100
AcDbEntity
  8
LAY-1
  6
CONTINUOUS
 62
     7
100
AcDbLine
 10
155.282302952301
 20
155.875543404632
 30
0.0
 11
152.270537648964
 21
155.875543404631
 31
0.0
  0
LINE
  5
315
330
1F
100
AcDbEntity
  8
LAY-1
  6
CONTINUOUS
 62
     7
100
AcDbLine
 10
152.270537648964
 20
154.872504739951
 30
0.0
 11
155.282302952301
 21
154.872504739951
 31
0.0
  0
LINE
  5
316
330
1F
100
AcDbEntity
  8
LAY-1
  6
CONTINUOUS
 62
     7
100
AcDbLine
 10
155.282302952301
 20
153.876719934982
 30
0.0
 11
152.270537648964
 21
153.876719934981
 31
0.0
  0
LINE
  5
317
330
1F
100
AcDbEntity
  8
LAY-1
  6
CONTINUOUS
 62
     7
100
AcDbLine
 10
155.282302952301
 20
152.87671993498
 30
0.0
 11
152.270537648964
 21
152.876719934979
 31
0.0
  0
LINE
  5
318
330
1F
100
AcDbEntity
  8
LAY-1
  6
CONTINUOUS
 62
     7
100
AcDbLine
 10
152.270537648964
 20
151.8736812703
 30
0.0
 11
155.282302952301
 21
151.8736812703
 31
0.0
  0
LINE
  5
319
330
1F
100
AcDbEntity
  8
LAY-1
  6
CONTINUOUS
 62
     7
100
AcDbLine
 10
155.282302952301
 20
150.87064260562
 30
0.0
 11
152.270537648964
 21
150.870642605619
 31
0.0
  0
LINE
  5
31A
330
1F
100
AcDbEntity
  8
LAY-1
  6
CONTINUOUS
 62
     7
100
AcDbLine
 10
152.270537648964
 20
149.867603940939
 30
0.0
 11
155.282302952301
 21
149.867603940939
 31
0.0
  0
LINE
  5
31B
330
1F
100
AcDbEntity
  8
LAY-1
  6
CONTINUOUS
 62
     7
100
AcDbLine
 10
155.282302952301
 20
148.87181913597
 30
0.0
 11
152.270537648964
 21
148.871819135969
 31
0.0
  0
LINE
  5
31C
330
1F
100
AcDbEntity
  8
LAY-1
  6
CONTINUOUS
 62
     7
100
AcDbLine
 10
152.270537648964
 20
146.868780471291
 30
0.0
 11
155.282302952301
 21
146.868780471291
 31
0.0
  0
LINE
  5
31D
330
1F
100
AcDbEntity
  8
LAY-1
  6
CONTINUOUS
 62
     7
100
AcDbLine
 10
155.282302952301
 20
145.865741806611
 30
0.0
 11
152.270537648964
 21
145.86574180661
 31
0.0
  0
LINE
  5
31E
330
1F
100
AcDbEntity
  8
LAY-1
  6
CONTINUOUS
 62
     7
100
AcDbLine
 10
152.270537648964
 20
144.86270314193
 30
0.0
 11
155.282302952301
 21
144.86270314193
 31
0.0
  0
LINE
  5
31F
330
1F
100
AcDbEntity
  8
LAY-1
  6
CONTINUOUS
 62
     7
100
AcDbLine
 10
155.282302952301
 20
143.866918336961
 30
0.0
 11
152.270537648964
 21
143.86691833696
 31
0.0
  0
LINE
  5
320
330
1F
100
AcDbEntity
  8
LAY-1
  6
CONTINUOUS
 62
     7
100
AcDbLine
 10
116.2823029523
 20
168.25539306677
 30
0.0
 11
119.7823029523322
 21
168.25539306677
 31
0.0
  0
LINE
  5
321
330
1F
100
AcDbEntity
  8
LAY-1
  6
CONTINUOUS
 62
     7
100
AcDbLine
 10
119.7823029523309
 20
172.69952042724
 30
0.0
 11
116.2823029523
 21
172.6995204272401
 31
0.0
  0
LINE
  5
322
330
1F
100
AcDbEntity
  8
LAY-1
  6
CONTINUOUS
 62
     7
100
AcDbLine
 10
116.2823029523
 20
136.4784436071419
 30
0.0
 11
119.7823029523421
 21
136.47844360714
 31
0.0
  0
LINE
  5
323
330
1F
100
AcDbEntity
  8
LAY-1
  6
CONTINUOUS
 62
     7
100
AcDbLine
 10
116.2823029523
 20
132.0343162466719
 30
0.0
 11
119.7823029523435
 21
132.03431624667
 31
0.0
  0
LINE
  5
324
330
1F
100
AcDbEntity
  8
LAY-1
  6
CONTINUOUS
 62
     7
100
AcDbLine
 10
111.2823029522999
 20
162.1169183369524
 30
0.0
 11
111.282302952306
 21
142.6169183369524
 31
0.0
  0
LINE
  5
325
330
1F
100
AcDbEntity
  8
LAY-1
  6
CONTINUOUS
 62
     7
100
AcDbLine
 10
116.2823029523
 20
142.6169183369539
 30
0.0
 11
111.282302952306
 21
142.6169183369539
 31
0.0
  0
LINE
  5
326
330
1F
100
AcDbEntity
  8
LAY-1
  6
CONTINUOUS
 62
     7
100
AcDbLine
 10
116.2823029522939
 20
162.1169183369539
 30
0.0
 11
111.2823029522999
 21
162.1169183369539
 31
0.0
  0
LINE
  5
327
330
1F
100
AcDbEntity
  8
LAY-1
  6
CONTINUOUS
 62
     7
100
AcDbLine
 10
116.2823029523
 20
181.8669183369501
 30
0.0
 11
116.2823029523
 21
162.1169183369539
 31
0.0
  0
LINE
  5
328
330
1F
100
AcDbEntity
  8
LAY-1
  6
CONTINUOUS
 62
     7
100
AcDbLine
 10
116.2823029523
 20
142.6169183369539
 30
0.0
 11
116.2823029523
 21
122.866918336954
 31
0.0
  0
LINE
  5
329
330
1F
100
AcDbEntity
  8
LAY-1
  6
CONTINUOUS
 62
     7
100
AcDbLine
 10
87.782302952301
 20
172.100044218349
 30
0.0
 11
115.317202449003
 21
173.0615840966521
 31
0.0
  0
ARC
  5
32A
330
1F
100
AcDbEntity
  8
LAY-1
  6
CONTINUOUS
 62
     7
100
AcDbCircle
 10
115.282302952301
 20
174.0609749236711
 30
0.0
 40
1.0
100
AcDbArc
 50
272.0000000001601
 51
0.0000000000000573
  0
LINE
  5
32B
330
1F
100
AcDbEntity
  8
LAY-1
  6
CONTINUOUS
 62
     7
100
AcDbLine
 10
87.782302952328
 20
172.616918336954
 30
0.0
 11
87.7823029523343
 21
152.3669183369451
 31
0.0
  0
LINE
  5
32C
330
1F
100
AcDbEntity
  8
LAY-1
  6
CONTINUOUS
 62
     7
100
AcDbLine
 10
87.78230295234061
 20
132.1169183369361
 30
0.0
 11
87.7823029523343
 21
152.366918336945
 31
0.0
  0
ARC
  5
32D
330
1F
100
AcDbEntity
  8
LAY-1
  6
CONTINUOUS
 62
     7
100
AcDbCircle
 10
116.282302952301
 20
161.606349271126
 30
0.0
 40
5.0
100
AcDbArc
 50
99.5940682268399
 51
174.1390937175605
  0
LINE
  5
32E
330
1F
100
AcDbEntity
  8
LAY-1
  6
CONTINUOUS
 62
     7
100
AcDbLine
 10
87.782302952301
 20
164.100044218349
 30
0.0
 11
111.5670035106859
 21
163.2694641727202
 31
0.0
  0
LINE
  5
32F
330
1F
100
AcDbEntity
  8
LAY-1
  6
CONTINUOUS
 62
     7
100
AcDbLine
 10
87.782302952301
 20
132.116918336958
 30
0.0
 11
88.31720244903065
 21
132.0982392349315
 31
0.0
  0
ARC
  5
330
330
1F
100
AcDbEntity
  8
LAY-1
  6
CONTINUOUS
 62
     7
100
AcDbCircle
 10
115.282302952301
 20
137.2114076196711
 30
0.0
 40
1.0
100
AcDbArc
 50
0.0000000000000573
 51
80.40593177315982
  0
ARC
  5
331
330
1F
100
AcDbEntity
  8
LAY-1
  6
CONTINUOUS
 62
     7
100
AcDbCircle
 10
116.282302952301
 20
143.127487402771
 30
0.0
 40
5.0
100
AcDbArc
 50
185.8609062824404
 51
260.4059317731607
  0
LINE
  5
332
330
1F
100
AcDbEntity
  8
LAY-1
  6
CONTINUOUS
 62
     7
100
AcDbLine
 10
87.782302952301
 20
140.633792455548
 30
0.0
 11
111.5670035106863
 21
141.4643725011759
 31
0.0
  0
LINE
  5
333
330
1F
100
AcDbEntity
  8
LAY-1
  6
CONTINUOUS
 62
     7
100
AcDbLine
 10
87.782302952301
 20
132.633792455548
 30
0.0
 11
116.2823029523
 21
131.638550525033
 31
0.0
  0
ARC
  5
334
330
1F
100
AcDbEntity
  8
LAY-1
  6
CONTINUOUS
 62
     7
100
AcDbCircle
 10
116.2823029522989
 20
133.489058914427
 30
0.0
 40
4.3505083893962
100
AcDbArc
 50
203.1567021528191
 51
264.0833276632956
  0
ARC
  5
335
330
1F
100
AcDbEntity
  8
LAY-1
  6
CONTINUOUS
 62
     7
100
AcDbCircle
 10
115.7823029523
 20
128.6643898443659
 30
0.0
 40
0.5
100
AcDbArc
 50
0.0000000000000573
 51
84.08332766329731
  0
ARC
  5
336
330
1F
100
AcDbEntity
  8
LAY-1
  6
CONTINUOUS
 62
     7
100
AcDbCircle
 10
115.2823029522916
 20
167.5224290542362
 30
0.0
 40
1.0
100
AcDbArc
 50
279.5940682268751
 51
0.0000000000358099
  0
ARC
  5
337
330
1F
100
AcDbEntity
  8
LAY-1
  6
CONTINUOUS
 62
     7
100
AcDbCircle
 10
116.2823029522871
 20
171.2447777594809
 30
0.0
 40
4.3505083893962
100
AcDbArc
 50
95.91667233674045
 51
156.8432978472168
  0
ARC
  5
338
330
1F
100
AcDbEntity
  8
LAY-1
  6
CONTINUOUS
 62
     7
100
AcDbCircle
 10
115.7823029522852
 20
176.0694468295417
 30
0.0
 40
0.5
100
AcDbArc
 50
275.9166723367389
 51
0.0000000000358099
  0
LINE
  5
339
330
1F
100
AcDbEntity
  8
LAY-1
  6
CONTINUOUS
 62
     7
100
AcDbLine
 10
96.32609665415009
 20
185.3669183369549
 30
0.0
 11
96.32609665415
 21
172.3984000687964
 31
0.0
  0
LINE
  5
33A
330
1F
100
AcDbEntity
  8
LAY-1
  6
CONTINUOUS
 62
     7
100
AcDbLine
 10
96.32609665417067
 20
119.3669183369406
 30
0.0
 11
96.32609665416248
 21
132.335436605099
 31
0.0
  0
LINE
  5
33B
330
1F
100
AcDbEntity
  8
LAY-1
  6
CONTINUOUS
 62
     7
100
AcDbLine
 10
114.282302952328
 20
185.366918336957
 30
0.0
 11
114.282302952328
 21
182.366918336954
 31
0.0
  0
LINE
  5
33C
330
1F
100
AcDbEntity
  8
LAY-1
  6
CONTINUOUS
 62
     7
100
AcDbLine
 10
114.7823029523281
 20
181.8669183369541
 30
0.0
 11
119.782302952328
 21
181.866918336955
 31
0.0
  0
ARC
  5
33D
330
1F
100
AcDbEntity
  8
LAY-1
  6
CONTINUOUS
 62
     7
100
AcDbCircle
 10
114.782302952328
 20
182.366918336954
 30
0.0
 40
0.5
100
AcDbArc
 50
180.0000000000002
 51
270.0000000000099
  0
LINE
  5
33E
330
1F
100
AcDbEntity
  8
LAY-1
  6
CONTINUOUS
 62
     7
100
AcDbLine
 10
119.782302952328
 20
122.866918336954
 30
0.0
 11
114.782302952328
 21
122.8669183369522
 31
0.0
  0
LINE
  5
33F
330
1F
100
AcDbEntity
  8
LAY-1
  6
CONTINUOUS
 62
     7
100
AcDbLine
 10
114.282302952328
 20
122.3669183369522
 30
0.0
 11
114.282302952328
 21
119.366918336954
 31
0.0
  0
ARC
  5
340
330
1F
100
AcDbEntity
  8
LAY-1
  6
CONTINUOUS
 62
     7
100
AcDbCircle
 10
114.7823029523282
 20
122.3669183369522
 30
0.0
 40
0.5
100
AcDbArc
 50
90.00000000001957
 51
180.0000000000002
  0
LINE
  5
341
330
1F
100
AcDbEntity
  8
LAY-1
  6
CONTINUOUS
 62
     7
100
AcDbLine
 10
85.282302952328
 20
172.116918336953
 30
0.0
 11
85.28230295233416
 21
152.3669183369443
 31
0.0
  0
LINE
  5
342
330
1F
100
AcDbEntity
  8
LAY-1
  6
CONTINUOUS
 62
     7
100
AcDbLine
 10
85.282302952328
 20
152.3669183369501
 30
0.0
 11
85.282302952328
 21
132.616918336954
 31
0.0
  0
LINE
  5
343
330
1F
100
AcDbEntity
  8
LAY-1
  6
CONTINUOUS
 62
     7
100
AcDbLine
 10
85.282302952301
 20
132.633792455518
 30
0.0
 11
84.35217593337902
 21
132.633792455518
 31
0.0
  0
ARC
  5
344
330
1F
100
AcDbEntity
  8
LAY-1
  6
CONTINUOUS
 62
     7
100
AcDbCircle
 10
84.35217593337902
 20
134.133792455518
 30
0.0
 40
1.5
100
AcDbArc
 50
209.9999999998809
 51
270.0000000000002
  0
ARC
  5
345
330
1F
100
AcDbEntity
  8
LAY-1
  6
CONTINUOUS
 62
     7
100
AcDbCircle
 10
88.682302952301
 20
136.6337924555191
 30
0.0
 40
6.500000000000004
100
AcDbArc
 50
150.0000000001204
 51
209.9999999998801
  0
LINE
  5
346
330
1F
100
AcDbEntity
  8
LAY-1
  6
CONTINUOUS
 62
     7
100
AcDbLine
 10
84.35217593337799
 20
140.633792455518
 30
0.0
 11
85.282302952301
 21
140.633792455518
 31
0.0
  0
ARC
  5
347
330
1F
100
AcDbEntity
  8
LAY-1
  6
CONTINUOUS
 62
     7
100
AcDbCircle
 10
84.35217593337799
 20
139.133792455518
 30
0.0
 40
1.5
100
AcDbArc
 50
90.00000000000004
 51
150.0000000001204
  0
LINE
  5
348
330
1F
100
AcDbEntity
  8
LAY-1
  6
EXLTYPE2
 62
     1
100
AcDbLine
 10
80.68525189598498
 20
136.633792455518
 30
0.0
 11
90.344142741056
 21
136.6337924555191
 31
0.0
  0
LINE
  5
349
330
1F
100
AcDbEntity
  8
LAY-1
  6
EXLTYPE2
 62
     1
100
AcDbLine
 10
80.6852518959752
 20
168.1000442183677
 30
0.0
 11
90.34414274104617
 21
168.1000442183727
 31
0.0
  0
LINE
  5
34A
330
1F
100
AcDbEntity
  8
LAY-1
  6
CONTINUOUS
 62
     7
100
AcDbLine
 10
85.28230295228869
 20
172.1000442183705
 30
0.0
 11
84.35217593336671
 21
172.10004421837
 31
0.0
  0
ARC
  5
34B
330
1F
100
AcDbEntity
  8
LAY-1
  6
CONTINUOUS
 62
     7
100
AcDbCircle
 10
84.35217593336765
 20
170.60004421837
 30
0.0
 40
1.5
100
AcDbArc
 50
90.00000000003533
 51
150.0000000001554
  0
ARC
  5
34C
330
1F
100
AcDbEntity
  8
LAY-1
  6
CONTINUOUS
 62
     7
100
AcDbCircle
 10
88.6823029522912
 20
168.1000442183716
 30
0.0
 40
6.500000000000004
100
AcDbArc
 50
150.0000000001559
 51
209.9999999999156
  0
LINE
  5
34D
330
1F
100
AcDbEntity
  8
LAY-1
  6
CONTINUOUS
 62
     7
100
AcDbLine
 10
84.35217593337066
 20
164.10004421837
 30
0.0
 11
85.28230295229369
 21
164.1000442183705
 31
0.0
  0
ARC
  5
34E
330
1F
100
AcDbEntity
  8
LAY-1
  6
CONTINUOUS
 62
     7
100
AcDbCircle
 10
84.35217593336975
 20
165.60004421837
 30
0.0
 40
1.5
100
AcDbArc
 50
209.9999999999152
 51
270.0000000000354
  0
LINE
  5
34F
330
1F
100
AcDbEntity
  8
LAY-1
  6
CONTINUOUS
 62
     7
100
AcDbLine
 10
83.682302952328
 20
164.2579301437585
 30
0.0
 11
83.682302952328
 21
140.4759065301254
 31
0.0
  0
ARC
  5
350
330
1F
100
AcDbEntity
  8
LAY-1
  6
CONTINUOUS
 62
     7
100
AcDbCircle
 10
85.78230295231569
 20
172.1169183369348
 30
0.0
 40
0.5
100
AcDbArc
 50
90.00000000003595
 51
180.0000000000362
  0
ARC
  5
351
330
1F
100
AcDbEntity
  8
LAY-1
  6
CONTINUOUS
 62
     7
100
AcDbCircle
 10
85.782302952328
 20
172.116918336953
 30
0.0
 40
0.5
100
AcDbArc
 50
90.00000000000004
 51
180.0000000000002
  0
LINE
  5
352
330
1F
100
AcDbEntity
  8
LAY-1
  6
CONTINUOUS
 62
     7
100
AcDbLine
 10
89.282302952328
 20
174.6169183369556
 30
0.0
 11
88.782302952328
 21
174.6169183369553
 31
0.0
  0
LINE
  5
353
330
1F
100
AcDbEntity
  8
LAY-1
  6
CONTINUOUS
 62
     7
100
AcDbLine
 10
89.282302952328
 20
182.6169183369612
 30
0.0
 11
88.782302952328
 21
182.616918336961
 31
0.0
  0
LINE
  5
354
330
1F
100
AcDbEntity
  8
LAY-1
  6
CONTINUOUS
 62
     7
100
AcDbLine
 10
88.78230295233001
 20
182.6169183369601
 30
0.0
 11
88.78230295233001
 21
174.6169183369601
 31
0.0
  0
LINE
  5
355
330
1F
100
AcDbEntity
  8
LAY-1
  6
CONTINUOUS
 62
     7
100
AcDbLine
 10
89.282302952328
 20
177.6169183369612
 30
0.0
 11
88.78230295233001
 21
177.6169183369612
 31
0.0
  0
LINE
  5
356
330
1F
100
AcDbEntity
  8
LAY-1
  6
CONTINUOUS
 62
     7
100
AcDbLine
 10
128.2823029523283
 20
156.30441833695
 30
0.0
 11
128.2823029523283
 21
148.42941833695
 31
0.0
  0
LINE
  5
357
330
1F
100
AcDbEntity
  8
LAY-1
  6
CONTINUOUS
 62
     7
100
AcDbLine
 10
128.2823029523307
 20
148.4294183369237
 30
0.0
 11
127.7823029523221
 21
148.4294183369236
 31
0.0
  0
LINE
  5
358
330
1F
100
AcDbEntity
  8
LAY-1
  6
CONTINUOUS
 62
     7
100
AcDbLine
 10
128.2823029523283
 20
156.3044183369247
 30
0.0
 11
127.7823029523197
 21
156.3044183369246
 31
0.0
  0
LINE
  5
359
330
1F
100
AcDbEntity
  8
LAY-1
  6
EXLTYPE2
 62
     1
100
AcDbLine
 10
101.782302952328
 20
187.871039233106
 30
0.0
 11
101.782302952328
 21
116.50309452872
 31
0.0
  0
ARC
  5
35A
330
1F
100
AcDbEntity
  8
LAY-1
  6
CONTINUOUS
 62
     7
100
AcDbCircle
 10
304.2900494312019
 20
123.866918336954
 30
0.0
 40
1.0
100
AcDbArc
 50
180.0
 51
270.0000000000002
  0
LINE
  5
35B
330
1F
100
AcDbEntity
  8
LAY-1
  6
CONTINUOUS
 62
     7
100
AcDbLine
 10
336.7900494312019
 20
185.366918336954
 30
0.0
 11
311.7900494312019
 21
185.366918336957
 31
0.0
  0
LINE
  5
35C
330
1F
100
AcDbEntity
  8
LAY-1
  6
CONTINUOUS
 62
     7
100
AcDbLine
 10
311.7900494312019
 20
119.366918336954
 30
0.0
 11
336.7900494312019
 21
119.366918336946
 31
0.0
  0
LINE
  5
35D
330
1F
100
AcDbEntity
  8
LAY-1
  6
CONTINUOUS
 62
     7
100
AcDbLine
 10
336.7900494312019
 20
185.366918336954
 30
0.0
 11
336.7900494312019
 21
173.634988265998
 31
0.0
  0
LINE
  5
35E
330
1F
100
AcDbEntity
  8
LAY-1
  6
CONTINUOUS
 62
     7
100
AcDbLine
 10
337.7551499344999
 20
172.635597438979
 30
0.0
 11
338.2900494312019
 21
172.616918336954
 31
0.0
  0
LINE
  5
35F
330
1F
100
AcDbEntity
  8
LAY-1
  6
CONTINUOUS
 62
     7
100
AcDbLine
 10
336.7900494312019
 20
131.098848407909
 30
0.0
 11
336.7900494312019
 21
119.366918336946
 31
0.0
  0
ARC
  5
360
330
1F
100
AcDbEntity
  8
LAY-1
  6
CONTINUOUS
 62
     7
100
AcDbCircle
 10
337.7900494312019
 20
173.634988265998
 30
0.0
 40
1.0
100
AcDbArc
 50
180.0
 51
267.9999999998401
  0
ARC
  5
361
330
1F
100
AcDbEntity
  8
LAY-1
  6
CONTINUOUS
 62
     7
100
AcDbCircle
 10
337.7900494312019
 20
131.098848407909
 30
0.0
 40
1.0
100
AcDbArc
 50
92.00000000016014
 51
180.0
  0
ARC
  5
362
330
1F
100
AcDbEntity
  8
LAY-1
  6
CONTINUOUS
 62
     7
100
AcDbCircle
 10
302.2900494312019
 20
125.005991870623
 30
0.0
 40
1.0
100
AcDbArc
 50
0.0000000000000573
 51
87.99999999983993
  0
ARC
  5
363
330
1F
100
AcDbEntity
  8
LAY-1
  6
CONTINUOUS
 62
     7
100
AcDbCircle
 10
296.2900494312019
 20
139.99132978491
 30
0.0
 40
2.0
100
AcDbArc
 50
0.0000000000000573
 51
88.99999999992006
  0
ARC
  5
364
330
1F
100
AcDbEntity
  8
LAY-1
  6
CONTINUOUS
 62
     7
100
AcDbCircle
 10
301.7900494312019
 20
129.526195204714
 30
0.0
 40
3.500000000000002
100
AcDbArc
 50
180.0
 51
267.9999999998401
  0
LINE
  5
365
330
1F
100
AcDbEntity
  8
LAY-1
  6
CONTINUOUS
 62
     7
100
AcDbLine
 10
306.2900494312019
 20
122.866918336954
 30
0.0
 11
304.2900494312019
 21
122.866918336954
 31
0.0
  0
LINE
  5
366
330
1F
100
AcDbEntity
  8
LAY-1
  6
CONTINUOUS
 62
     7
100
AcDbLine
 10
302.3249489279049
 20
126.005382697642
 30
0.0
 11
301.6679011927429
 21
126.028327310147
 31
0.0
  0
LINE
  5
367
330
1F
100
AcDbEntity
  8
LAY-1
  6
CONTINUOUS
 62
     7
100
AcDbLine
 10
296.3249542440769
 20
164.742811498687
 30
0.0
 11
274.7900494312019
 21
164.366918336955
 31
0.0
  0
LINE
  5
368
330
1F
100
AcDbEntity
  8
LAY-1
  6
CONTINUOUS
 62
     7
100
AcDbLine
 10
274.7900494312019
 20
142.366918336955
 30
0.0
 11
296.3249542440769
 21
141.991025175223
 31
0.0
  0
LINE
  5
369
330
1F
100
AcDbEntity
  8
LAY-1
  6
CONTINUOUS
 62
     7
100
AcDbLine
 10
273.7900494312019
 20
141.866918336964
 30
0.0
 11
273.7900494312019
 21
142.366918336955
 31
0.0
  0
LINE
  5
36A
330
1F
100
AcDbEntity
  8
LAY-1
  6
CONTINUOUS
 62
     7
100
AcDbLine
 10
270.7900494312019
 20
141.866918336965
 30
0.0
 11
273.7900494312019
 21
141.866918336964
 31
0.0
  0
LINE
  5
36B
330
1F
100
AcDbEntity
  8
LAY-1
  6
CONTINUOUS
 62
     7
100
AcDbLine
 10
270.7900494312019
 20
162.866918336965
 30
0.0
 11
270.7900494312019
 21
141.866918336965
 31
0.0
  0
LINE
  5
36C
330
1F
100
AcDbEntity
  8
LAY-1
  6
CONTINUOUS
 62
     7
100
AcDbLine
 10
273.7900494312019
 20
162.866918336965
 30
0.0
 11
270.7900494312019
 21
162.866918336965
 31
0.0
  0
LINE
  5
36D
330
1F
100
AcDbEntity
  8
LAY-1
  6
CONTINUOUS
 62
     7
100
AcDbLine
 10
273.7900494312019
 20
162.366918336955
 30
0.0
 11
273.7900494312019
 21
162.866918336965
 31
0.0
  0
LINE
  5
36E
330
1F
100
AcDbEntity
  8
LAY-1
  6
CONTINUOUS
 62
     7
100
AcDbLine
 10
274.7900494312019
 20
162.366918336955
 30
0.0
 11
273.7900494312019
 21
162.366918336955
 31
0.0
  0
LINE
  5
36F
330
1F
100
AcDbEntity
  8
LAY-1
  6
CONTINUOUS
 62
     7
100
AcDbLine
 10
273.7900494312019
 20
142.366918336955
 30
0.0
 11
274.7900494312019
 21
142.366918336955
 31
0.0
  0
LINE
  5
370
330
1F
100
AcDbEntity
  8
LAY-1
  6
CONTINUOUS
 62
     7
100
AcDbLine
 10
338.2900494312019
 20
172.616918336954
 30
0.0
 11
340.2900494312019
 21
172.616918336953
 31
0.0
  0
LINE
  5
371
330
1F
100
AcDbEntity
  8
LAY-1
  6
CONTINUOUS
 62
     7
100
AcDbLine
 10
340.2900494312019
 20
132.116918336954
 30
0.0
 11
338.2900494312019
 21
132.116918336954
 31
0.0
  0
ARC
  5
372
330
1F
100
AcDbEntity
  8
LAY-1
  6
CONTINUOUS
 62
     7
100
AcDbCircle
 10
340.2900494312019
 20
132.616918336954
 30
0.0
 40
0.5
100
AcDbArc
 50
270.0000000000002
 51
0.0000000000000573
  0
LINE
  5
373
330
1F
100
AcDbEntity
  8
LAY-1
  6
EXLTYPE2
 62
     1
100
AcDbLine
 10
267.8461504604539
 20
152.366918336967
 30
0.0
 11
344.8779538217789
 21
152.366918336943
 31
0.0
  0
LINE
  5
374
330
1F
100
AcDbEntity
  8
LAY-1
  6
CONTINUOUS
 62
     7
100
AcDbLine
 10
273.7900494312019
 20
162.366918336955
 30
0.0
 11
273.7900494311988
 21
152.3669183369651
 31
0.0
  0
LINE
  5
375
330
1F
100
AcDbEntity
  8
LAY-1
  6
CONTINUOUS
 62
     7
100
AcDbLine
 10
273.7900494312042
 20
152.3669183369651
 30
0.0
 11
273.7900494312019
 21
142.366918336955
 31
0.0
  0
LINE
  5
376
330
1F
100
AcDbEntity
  8
LAY-1
  6
CONTINUOUS
 62
     7
100
AcDbLine
 10
274.7900494312019
 20
164.366918336955
 30
0.0
 11
274.7900494311982
 21
152.3669183369648
 31
0.0
  0
LINE
  5
377
330
1F
100
AcDbEntity
  8
LAY-1
  6
CONTINUOUS
 62
     7
100
AcDbLine
 10
274.7900494312042
 20
152.3669183369648
 30
0.0
 11
274.7900494312019
 21
142.366918336955
 31
0.0
  0
LINE
  5
378
330
1F
100
AcDbEntity
  8
LAY-1
  6
CONTINUOUS
 62
     7
100
AcDbLine
 10
296.3249542440769
 20
162.742811498687
 30
0.0
 11
274.7900494312019
 21
162.366918336955
 31
0.0
  0
LINE
  5
379
330
1F
100
AcDbEntity
  8
LAY-1
  6
CONTINUOUS
 62
     7
100
AcDbLine
 10
298.2900494312019
 20
166.742506888999
 30
0.0
 11
298.2900494312019
 21
164.742506888999
 31
0.0
  0
ARC
  5
37A
330
1F
100
AcDbEntity
  8
LAY-1
  6
CONTINUOUS
 62
     7
100
AcDbCircle
 10
296.2900494312019
 20
164.742506888999
 30
0.0
 40
2.0
100
AcDbArc
 50
271.0000000000801
 51
0.0000000000000573
  0
LINE
  5
37B
330
1F
100
AcDbEntity
  8
LAY-1
  6
CONTINUOUS
 62
     7
100
AcDbLine
 10
302.3249489279049
 20
178.728453976268
 30
0.0
 11
301.6679011927429
 21
178.705509363763
 31
0.0
  0
LINE
  5
37C
330
1F
100
AcDbEntity
  8
LAY-1
  6
CONTINUOUS
 62
     7
100
AcDbLine
 10
306.2900494312019
 20
181.866918336955
 30
0.0
 11
304.2900494312019
 21
181.866918336955
 31
0.0
  0
ARC
  5
37D
330
1F
100
AcDbEntity
  8
LAY-1
  6
CONTINUOUS
 62
     7
100
AcDbCircle
 10
301.7900494312019
 20
175.207641469196
 30
0.0
 40
3.500000000000002
100
AcDbArc
 50
92.00000000016014
 51
180.0
  0
ARC
  5
37E
330
1F
100
AcDbEntity
  8
LAY-1
  6
CONTINUOUS
 62
     7
100
AcDbCircle
 10
296.2900494312019
 20
166.742506888999
 30
0.0
 40
2.0
100
AcDbArc
 50
271.0000000000801
 51
0.0000000000000573
  0
ARC
  5
37F
330
1F
100
AcDbEntity
  8
LAY-1
  6
CONTINUOUS
 62
     7
100
AcDbCircle
 10
304.2900494312019
 20
180.866918336955
 30
0.0
 40
1.0
100
AcDbArc
 50
90.00000000000004
 51
180.0
  0
ARC
  5
380
330
1F
100
AcDbEntity
  8
LAY-1
  6
CONTINUOUS
 62
     7
100
AcDbCircle
 10
302.2900494312019
 20
179.727844803287
 30
0.0
 40
1.0
100
AcDbArc
 50
272.0000000001601
 51
0.0000000000000573
  0
LINE
  5
381
330
1F
100
AcDbEntity
  8
LAY-1
  6
CONTINUOUS
 62
     7
100
AcDbLine
 10
303.2900494312019
 20
123.866918336954
 30
0.0
 11
303.2900494312108
 21
152.3669183369559
 31
0.0
  0
LINE
  5
382
330
1F
100
AcDbEntity
  8
LAY-1
  6
CONTINUOUS
 62
     7
100
AcDbLine
 10
303.2900494312019
 20
180.866918336955
 30
0.0
 11
303.2900494312019
 21
152.36691833696
 31
0.0
  0
LINE
  5
383
330
1F
100
AcDbEntity
  8
LAY-1
  6
CONTINUOUS
 62
     7
100
AcDbLine
 10
306.2900494312019
 20
181.866918336955
 30
0.0
 11
306.2900494311927
 21
152.366918336955
 31
0.0
  0
LINE
  5
384
330
1F
100
AcDbEntity
  8
LAY-1
  6
CONTINUOUS
 62
     7
100
AcDbLine
 10
306.2900494312099
 20
152.366918336955
 30
0.0
 11
306.2900494312019
 21
122.866918336954
 31
0.0
  0
ARC
  5
385
330
1F
100
AcDbEntity
  8
LAY-1
  6
CONTINUOUS
 62
     7
100
AcDbCircle
 10
306.6900494311989
 20
174.640781944339
 30
0.0
 40
6.500000000000004
100
AcDbArc
 50
150.0000000001202
 51
209.9999999998801
  0
ARC
  5
386
330
1F
100
AcDbEntity
  8
LAY-1
  6
CONTINUOUS
 62
     7
100
AcDbCircle
 10
302.3599224122769
 20
177.140781944339
 30
0.0
 40
1.5
100
AcDbArc
 50
90.00000000000004
 51
150.0000000001208
  0
ARC
  5
387
330
1F
100
AcDbEntity
  8
LAY-1
  6
CONTINUOUS
 62
     7
100
AcDbCircle
 10
302.3599224122769
 20
172.140781944339
 30
0.0
 40
1.5
100
AcDbArc
 50
209.9999999998795
 51
270.0000000000002
  0
LINE
  5
388
330
1F
100
AcDbEntity
  8
LAY-1
  6
CONTINUOUS
 62
     7
100
AcDbLine
 10
302.3599224122769
 20
170.640781944339
 30
0.0
 11
303.290049431199
 21
170.640781944339
 31
0.0
  0
LINE
  5
389
330
1F
100
AcDbEntity
  8
LAY-1
  6
CONTINUOUS
 62
     7
100
AcDbLine
 10
303.290049431199
 20
178.640781944339
 30
0.0
 11
302.3599224122769
 21
178.640781944339
 31
0.0
  0
ARC
  5
38A
330
1F
100
AcDbEntity
  8
LAY-1
  6
CONTINUOUS
 62
     7
100
AcDbCircle
 10
306.6900494311989
 20
130.103578596109
 30
0.0
 40
6.500000000000004
100
AcDbArc
 50
150.0000000001202
 51
209.9999999998799
  0
ARC
  5
38B
330
1F
100
AcDbEntity
  8
LAY-1
  6
CONTINUOUS
 62
     7
100
AcDbCircle
 10
302.3599224122769
 20
132.603578596109
 30
0.0
 40
1.5
100
AcDbArc
 50
90.00000000000004
 51
150.0000000001208
  0
ARC
  5
38C
330
1F
100
AcDbEntity
  8
LAY-1
  6
CONTINUOUS
 62
     7
100
AcDbCircle
 10
302.3599224122769
 20
127.603578596109
 30
0.0
 40
1.5
100
AcDbArc
 50
209.9999999998795
 51
270.0000000000002
  0
LINE
  5
38D
330
1F
100
AcDbEntity
  8
LAY-1
  6
CONTINUOUS
 62
     7
100
AcDbLine
 10
302.3599224122769
 20
126.103578596109
 30
0.0
 11
303.290049431199
 21
126.103578596109
 31
0.0
  0
LINE
  5
38E
330
1F
100
AcDbEntity
  8
LAY-1
  6
CONTINUOUS
 62
     7
100
AcDbLine
 10
303.290049431199
 20
134.103578596109
 30
0.0
 11
302.3599224122769
 21
134.103578596109
 31
0.0
  0
LINE
  5
38F
330
1F
100
AcDbEntity
  8
LAY-1
  6
EXLTYPE2
 62
     1
100
AcDbLine
 10
299.5030945287099
 20
130.103578596139
 30
0.0
 11
304.60309452871
 21
130.103578596139
 31
0.0
  0
LINE
  5
390
330
1F
100
AcDbEntity
  8
LAY-1
  6
EXLTYPE2
 62
     1
100
AcDbLine
 10
299.3030945287099
 20
174.64078194434
 30
0.0
 11
304.60309452871
 21
174.64078194434
 31
0.0
  0
LINE
  5
391
330
1F
100
AcDbEntity
  8
LAY-1
  6
CONTINUOUS
 62
     7
100
AcDbLine
 10
273.7900494312299
 20
142.866918336961
 30
0.0
 11
270.7900494312289
 21
142.866918336961
 31
0.0
  0
LINE
  5
392
330
1F
100
AcDbEntity
  8
LAY-1
  6
CONTINUOUS
 62
     7
100
AcDbLine
 10
273.7900494312299
 20
147.87181913597
 30
0.0
 11
270.7900494312289
 21
147.87181913597
 31
0.0
  0
LINE
  5
393
330
1F
100
AcDbEntity
  8
LAY-1
  6
CONTINUOUS
 62
     7
100
AcDbLine
 10
273.8018147345659
 20
161.883482868324
 30
0.0
 11
270.7900494312289
 21
161.883482868324
 31
0.0
  0
LINE
  5
394
330
1F
100
AcDbEntity
  8
LAY-1
  6
CONTINUOUS
 62
     7
100
AcDbLine
 10
270.7900494312289
 20
160.880444203644
 30
0.0
 11
273.8018147345659
 21
160.880444203643
 31
0.0
  0
LINE
  5
395
330
1F
100
AcDbEntity
  8
LAY-1
  6
CONTINUOUS
 62
     7
100
AcDbLine
 10
273.8018147345659
 20
159.877405538963
 30
0.0
 11
270.7900494312289
 21
159.877405538963
 31
0.0
  0
LINE
  5
396
330
1F
100
AcDbEntity
  8
LAY-1
  6
CONTINUOUS
 62
     7
100
AcDbLine
 10
270.7900494312289
 20
158.881620733994
 30
0.0
 11
273.8018147345659
 21
158.881620733993
 31
0.0
  0
LINE
  5
397
330
1F
100
AcDbEntity
  8
LAY-1
  6
CONTINUOUS
 62
     7
100
AcDbLine
 10
270.7900494312289
 20
157.881620733992
 30
0.0
 11
273.8018147345659
 21
157.881620733991
 31
0.0
  0
LINE
  5
398
330
1F
100
AcDbEntity
  8
LAY-1
  6
CONTINUOUS
 62
     7
100
AcDbLine
 10
273.8018147345659
 20
156.878582069312
 30
0.0
 11
270.7900494312289
 21
156.878582069312
 31
0.0
  0
LINE
  5
399
330
1F
100
AcDbEntity
  8
LAY-1
  6
CONTINUOUS
 62
     7
100
AcDbLine
 10
270.7900494312289
 20
155.875543404632
 30
0.0
 11
273.8018147345659
 21
155.875543404631
 31
0.0
  0
LINE
  5
39A
330
1F
100
AcDbEntity
  8
LAY-1
  6
CONTINUOUS
 62
     7
100
AcDbLine
 10
273.8018147345659
 20
154.872504739951
 30
0.0
 11
270.7900494312289
 21
154.872504739951
 31
0.0
  0
LINE
  5
39B
330
1F
100
AcDbEntity
  8
LAY-1
  6
CONTINUOUS
 62
     7
100
AcDbLine
 10
270.7900494312289
 20
153.876719934982
 30
0.0
 11
273.8018147345659
 21
153.876719934981
 31
0.0
  0
LINE
  5
39C
330
1F
100
AcDbEntity
  8
LAY-1
  6
CONTINUOUS
 62
     7
100
AcDbLine
 10
270.7900494312289
 20
152.87671993498
 30
0.0
 11
273.8018147345659
 21
152.876719934979
 31
0.0
  0
LINE
  5
39D
330
1F
100
AcDbEntity
  8
LAY-1
  6
CONTINUOUS
 62
     7
100
AcDbLine
 10
273.8018147345659
 20
151.8736812703
 30
0.0
 11
270.7900494312289
 21
151.8736812703
 31
0.0
  0
LINE
  5
39E
330
1F
100
AcDbEntity
  8
LAY-1
  6
CONTINUOUS
 62
     7
100
AcDbLine
 10
270.7900494312289
 20
150.87064260562
 30
0.0
 11
273.8018147345659
 21
150.870642605619
 31
0.0
  0
LINE
  5
39F
330
1F
100
AcDbEntity
  8
LAY-1
  6
CONTINUOUS
 62
     7
100
AcDbLine
 10
273.8018147345659
 20
149.867603940939
 30
0.0
 11
270.7900494312289
 21
149.867603940939
 31
0.0
  0
LINE
  5
3A0
330
1F
100
AcDbEntity
  8
LAY-1
  6
CONTINUOUS
 62
     7
100
AcDbLine
 10
270.7900494312289
 20
148.87181913597
 30
0.0
 11
273.8018147345659
 21
148.871819135969
 31
0.0
  0
LINE
  5
3A1
330
1F
100
AcDbEntity
  8
LAY-1
  6
CONTINUOUS
 62
     7
100
AcDbLine
 10
273.8018147345659
 20
146.868780471291
 30
0.0
 11
270.7900494312289
 21
146.868780471291
 31
0.0
  0
LINE
  5
3A2
330
1F
100
AcDbEntity
  8
LAY-1
  6
CONTINUOUS
 62
     7
100
AcDbLine
 10
270.7900494312289
 20
145.865741806611
 30
0.0
 11
273.8018147345659
 21
145.86574180661
 31
0.0
  0
LINE
  5
3A3
330
1F
100
AcDbEntity
  8
LAY-1
  6
CONTINUOUS
 62
     7
100
AcDbLine
 10
273.8018147345659
 20
144.86270314193
 30
0.0
 11
270.7900494312289
 21
144.86270314193
 31
0.0
  0
LINE
  5
3A4
330
1F
100
AcDbEntity
  8
LAY-1
  6
CONTINUOUS
 62
     7
100
AcDbLine
 10
270.7900494312289
 20
143.866918336961
 30
0.0
 11
273.8018147345659
 21
143.86691833696
 31
0.0
  0
LINE
  5
3A5
330
1F
100
AcDbEntity
  8
LAY-1
  6
CONTINUOUS
 62
     7
100
AcDbLine
 10
309.7900494312299
 20
168.25539306677
 30
0.0
 11
306.2900494311977
 21
168.25539306677
 31
0.0
  0
LINE
  5
3A6
330
1F
100
AcDbEntity
  8
LAY-1
  6
CONTINUOUS
 62
     7
100
AcDbLine
 10
306.2900494311991
 20
172.69952042724
 30
0.0
 11
309.7900494312299
 21
172.69952042724
 31
0.0
  0
LINE
  5
3A7
330
1F
100
AcDbEntity
  8
LAY-1
  6
CONTINUOUS
 62
     7
100
AcDbLine
 10
309.7900494312299
 20
136.4784436071419
 30
0.0
 11
306.2900494311878
 21
136.47844360714
 31
0.0
  0
LINE
  5
3A8
330
1F
100
AcDbEntity
  8
LAY-1
  6
CONTINUOUS
 62
     7
100
AcDbLine
 10
309.7900494312299
 20
132.0343162466718
 30
0.0
 11
306.2900494311864
 21
132.03431624667
 31
0.0
  0
LINE
  5
3A9
330
1F
100
AcDbEntity
  8
LAY-1
  6
CONTINUOUS
 62
     7
100
AcDbLine
 10
314.79004943123
 20
162.1169183369523
 30
0.0
 11
314.7900494312239
 21
142.6169183369523
 31
0.0
  0
LINE
  5
3AA
330
1F
100
AcDbEntity
  8
LAY-1
  6
CONTINUOUS
 62
     7
100
AcDbLine
 10
309.7900494312299
 20
142.6169183369539
 30
0.0
 11
314.7900494312239
 21
142.6169183369539
 31
0.0
  0
LINE
  5
3AB
330
1F
100
AcDbEntity
  8
LAY-1
  6
CONTINUOUS
 62
     7
100
AcDbLine
 10
309.790049431236
 20
162.1169183369539
 30
0.0
 11
314.79004943123
 21
162.1169183369539
 31
0.0
  0
LINE
  5
3AC
330
1F
100
AcDbEntity
  8
LAY-1
  6
CONTINUOUS
 62
     7
100
AcDbLine
 10
309.7900494312299
 20
181.86691833695
 30
0.0
 11
309.7900494312299
 21
162.1169183369539
 31
0.0
  0
LINE
  5
3AD
330
1F
100
AcDbEntity
  8
LAY-1
  6
CONTINUOUS
 62
     7
100
AcDbLine
 10
309.7900494312299
 20
142.6169183369539
 30
0.0
 11
309.7900494312299
 21
122.866918336954
 31
0.0
  0
LINE
  5
3AE
330
1F
100
AcDbEntity
  8
LAY-1
  6
CONTINUOUS
 62
     7
100
AcDbLine
 10
338.290049431229
 20
172.100044218349
 30
0.0
 11
310.755149934527
 21
173.061584096652
 31
0.0
  0
ARC
  5
3AF
330
1F
100
AcDbEntity
  8
LAY-1
  6
CONTINUOUS
 62
     7
100
AcDbCircle
 10
310.790049431229
 20
174.060974923671
 30
0.0
 40
1.0
100
AcDbArc
 50
180.0
 51
267.9999999998401
  0
LINE
  5
3B0
330
1F
100
AcDbEntity
  8
LAY-1
  6
CONTINUOUS
 62
     7
100
AcDbLine
 10
338.2900494312019
 20
172.616918336954
 30
0.0
 11
338.2900494311957
 21
152.366918336945
 31
0.0
  0
LINE
  5
3B1
330
1F
100
AcDbEntity
  8
LAY-1
  6
CONTINUOUS
 62
     7
100
AcDbLine
 10
338.2900494311893
 20
132.1169183369361
 30
0.0
 11
338.2900494311957
 21
152.366918336945
 31
0.0
  0
ARC
  5
3B2
330
1F
100
AcDbEntity
  8
LAY-1
  6
CONTINUOUS
 62
     7
100
AcDbCircle
 10
309.790049431229
 20
161.606349271126
 30
0.0
 40
5.0
100
AcDbArc
 50
5.860906282439272
 51
80.4059317731602
  0
LINE
  5
3B3
330
1F
100
AcDbEntity
  8
LAY-1
  6
CONTINUOUS
 62
     7
100
AcDbLine
 10
338.290049431229
 20
164.100044218349
 30
0.0
 11
314.505348872844
 21
163.2694641727202
 31
0.0
  0
LINE
  5
3B4
330
1F
100
AcDbEntity
  8
LAY-1
  6
CONTINUOUS
 62
     7
100
AcDbLine
 10
338.290049431229
 20
132.116918336958
 30
0.0
 11
337.7551499344993
 21
132.0982392349314
 31
0.0
  0
ARC
  5
3B5
330
1F
100
AcDbEntity
  8
LAY-1
  6
CONTINUOUS
 62
     7
100
AcDbCircle
 10
310.790049431229
 20
137.211407619671
 30
0.0
 40
1.0
100
AcDbArc
 50
99.59406822684019
 51
180.0
  0
ARC
  5
3B6
330
1F
100
AcDbEntity
  8
LAY-1
  6
CONTINUOUS
 62
     7
100
AcDbCircle
 10
309.790049431229
 20
143.127487402771
 30
0.0
 40
5.0
100
AcDbArc
 50
279.5940682268396
 51
354.1390937175596
  0
LINE
  5
3B7
330
1F
100
AcDbEntity
  8
LAY-1
  6
CONTINUOUS
 62
     7
100
AcDbLine
 10
338.290049431229
 20
140.633792455548
 30
0.0
 11
314.5053488728436
 21
141.4643725011759
 31
0.0
  0
LINE
  5
3B8
330
1F
100
AcDbEntity
  8
LAY-1
  6
CONTINUOUS
 62
     7
100
AcDbLine
 10
338.290049431229
 20
132.633792455548
 30
0.0
 11
309.7900494312299
 21
131.6385505250329
 31
0.0
  0
ARC
  5
3B9
330
1F
100
AcDbEntity
  8
LAY-1
  6
CONTINUOUS
 62
     7
100
AcDbCircle
 10
309.790049431231
 20
133.4890589144269
 30
0.0
 40
4.3505083893962
100
AcDbArc
 50
275.9166723367048
 51
336.8432978471811
  0
ARC
  5
3BA
330
1F
100
AcDbEntity
  8
LAY-1
  6
CONTINUOUS
 62
     7
100
AcDbCircle
 10
310.2900494312299
 20
128.6643898443659
 30
0.0
 40
0.5
100
AcDbArc
 50
95.91667233670286
 51
180.0
  0
ARC
  5
3BB
330
1F
100
AcDbEntity
  8
LAY-1
  6
CONTINUOUS
 62
     7
100
AcDbCircle
 10
310.7900494312384
 20
167.5224290542361
 30
0.0
 40
1.0
100
AcDbArc
 50
179.9999999999642
 51
260.4059317731253
  0
ARC
  5
3BC
330
1F
100
AcDbEntity
  8
LAY-1
  6
CONTINUOUS
 62
     7
100
AcDbCircle
 10
309.7900494312428
 20
171.2447777594809
 30
0.0
 40
4.3505083893962
100
AcDbArc
 50
23.15670215278321
 51
84.0833276632594
  0
ARC
  5
3BD
330
1F
100
AcDbEntity
  8
LAY-1
  6
CONTINUOUS
 62
     7
100
AcDbCircle
 10
310.2900494312447
 20
176.0694468295416
 30
0.0
 40
0.5
100
AcDbArc
 50
179.9999999999642
 51
264.0833276632613
  0
LINE
  5
3BE
330
1F
100
AcDbEntity
  8
LAY-1
  6
CONTINUOUS
 62
     7
100
AcDbLine
 10
329.7462557293798
 20
185.3669183369548
 30
0.0
 11
329.7462557293799
 21
172.3984000687964
 31
0.0
  0
LINE
  5
3BF
330
1F
100
AcDbEntity
  8
LAY-1
  6
CONTINUOUS
 62
     7
100
AcDbLine
 10
329.7462557293592
 20
119.3669183369406
 30
0.0
 11
329.7462557293674
 21
132.335436605099
 31
0.0
  0
LINE
  5
3C0
330
1F
100
AcDbEntity
  8
LAY-1
  6
CONTINUOUS
 62
     7
100
AcDbLine
 10
311.7900494312019
 20
185.366918336957
 30
0.0
 11
311.7900494312019
 21
182.366918336954
 31
0.0
  0
LINE
  5
3C1
330
1F
100
AcDbEntity
  8
LAY-1
  6
CONTINUOUS
 62
     7
100
AcDbLine
 10
311.2900494312019
 20
181.8669183369541
 30
0.0
 11
306.2900494312019
 21
181.866918336955
 31
0.0
  0
ARC
  5
3C2
330
1F
100
AcDbEntity
  8
LAY-1
  6
CONTINUOUS
 62
     7
100
AcDbCircle
 10
311.2900494312019
 20
182.366918336954
 30
0.0
 40
0.5
100
AcDbArc
 50
270.0000000000002
 51
0.0000000000000573
  0
LINE
  5
3C3
330
1F
100
AcDbEntity
  8
LAY-1
  6
CONTINUOUS
 62
     7
100
AcDbLine
 10
306.2900494312019
 20
122.866918336954
 30
0.0
 11
311.2900494312019
 21
122.8669183369522
 31
0.0
  0
LINE
  5
3C4
330
1F
100
AcDbEntity
  8
LAY-1
  6
CONTINUOUS
 62
     7
100
AcDbLine
 10
311.7900494312019
 20
122.3669183369522
 30
0.0
 11
311.7900494312019
 21
119.366918336954
 31
0.0
  0
ARC
  5
3C5
330
1F
100
AcDbEntity
  8
LAY-1
  6
CONTINUOUS
 62
     7
100
AcDbCircle
 10
311.2900494312018
 20
122.3669183369522
 30
0.0
 40
0.5
100
AcDbArc
 50
0.0000000000000573
 51
89.9999999999805
  0
LINE
  5
3C6
330
1F
100
AcDbEntity
  8
LAY-1
  6
CONTINUOUS
 62
     7
100
AcDbLine
 10
340.7900494312019
 20
172.116918336953
 30
0.0
 11
340.7900494311958
 21
152.3669183369443
 31
0.0
  0
LINE
  5
3C7
330
1F
100
AcDbEntity
  8
LAY-1
  6
CONTINUOUS
 62
     7
100
AcDbLine
 10
340.7900494312019
 20
152.36691833695
 30
0.0
 11
340.7900494312019
 21
132.616918336954
 31
0.0
  0
LINE
  5
3C8
330
1F
100
AcDbEntity
  8
LAY-1
  6
CONTINUOUS
 62
     7
100
AcDbLine
 10
340.790049431229
 20
132.633792455518
 30
0.0
 11
341.720176450151
 21
132.633792455518
 31
0.0
  0
ARC
  5
3C9
330
1F
100
AcDbEntity
  8
LAY-1
  6
CONTINUOUS
 62
     7
100
AcDbCircle
 10
341.720176450151
 20
134.133792455518
 30
0.0
 40
1.5
100
AcDbArc
 50
270.0000000000002
 51
330.0000000001182
  0
ARC
  5
3CA
330
1F
100
AcDbEntity
  8
LAY-1
  6
CONTINUOUS
 62
     7
100
AcDbCircle
 10
337.390049431229
 20
136.633792455519
 30
0.0
 40
6.500000000000004
100
AcDbArc
 50
330.00000000012
 51
29.99999999987975
  0
LINE
  5
3CB
330
1F
100
AcDbEntity
  8
LAY-1
  6
CONTINUOUS
 62
     7
100
AcDbLine
 10
341.720176450152
 20
140.633792455518
 30
0.0
 11
340.790049431229
 21
140.633792455518
 31
0.0
  0
ARC
  5
3CC
330
1F
100
AcDbEntity
  8
LAY-1
  6
CONTINUOUS
 62
     7
100
AcDbCircle
 10
341.720176450152
 20
139.133792455518
 30
0.0
 40
1.5
100
AcDbArc
 50
29.99999999987986
 51
90.00000000000004
  0
LINE
  5
3CD
330
1F
100
AcDbEntity
  8
LAY-1
  6
EXLTYPE2
 62
     1
100
AcDbLine
 10
345.387100487545
 20
136.633792455518
 30
0.0
 11
335.7282096424739
 21
136.633792455519
 31
0.0
  0
LINE
  5
3CE
330
1F
100
AcDbEntity
  8
LAY-1
  6
EXLTYPE2
 62
     1
100
AcDbLine
 10
345.3871004875547
 20
168.1000442183677
 30
0.0
 11
335.7282096424838
 21
168.1000442183726
 31
0.0
  0
LINE
  5
3CF
330
1F
100
AcDbEntity
  8
LAY-1
  6
CONTINUOUS
 62
     7
100
AcDbLine
 10
340.7900494312412
 20
172.1000442183705
 30
0.0
 11
341.7201764501633
 21
172.1000442183699
 31
0.0
  0
ARC
  5
3D0
330
1F
100
AcDbEntity
  8
LAY-1
  6
CONTINUOUS
 62
     7
100
AcDbCircle
 10
341.7201764501623
 20
170.6000442183699
 30
0.0
 40
1.5
100
AcDbArc
 50
29.99999999984486
 51
89.99999999996531
  0
ARC
  5
3D1
330
1F
100
AcDbEntity
  8
LAY-1
  6
CONTINUOUS
 62
     7
100
AcDbCircle
 10
337.3900494312388
 20
168.1000442183716
 30
0.0
 40
6.500000000000004
100
AcDbArc
 50
330.0000000000849
 51
29.99999999984422
  0
LINE
  5
3D2
330
1F
100
AcDbEntity
  8
LAY-1
  6
CONTINUOUS
 62
     7
100
AcDbLine
 10
341.7201764501593
 20
164.1000442183699
 30
0.0
 11
340.7900494312362
 21
164.1000442183705
 31
0.0
  0
ARC
  5
3D3
330
1F
100
AcDbEntity
  8
LAY-1
  6
CONTINUOUS
 62
     7
100
AcDbCircle
 10
341.7201764501602
 20
165.6000442183699
 30
0.0
 40
1.5
100
AcDbArc
 50
270.0000000000002
 51
330.0000000000863
  0
LINE
  5
3D4
330
1F
100
AcDbEntity
  8
LAY-1
  6
CONTINUOUS
 62
     7
100
AcDbLine
 10
342.3900494312019
 20
164.2579301437584
 30
0.0
 11
342.3900494312019
 21
140.4759065301254
 31
0.0
  0
ARC
  5
3D5
330
1F
100
AcDbEntity
  8
LAY-1
  6
CONTINUOUS
 62
     7
100
AcDbCircle
 10
340.2900494312143
 20
172.1169183369348
 30
0.0
 40
0.5
100
AcDbArc
 50
0.0
 51
89.99999999996744
  0
ARC
  5
3D6
330
1F
100
AcDbEntity
  8
LAY-1
  6
CONTINUOUS
 62
     7
100
AcDbCircle
 10
340.2900494312019
 20
172.116918336953
 30
0.0
 40
0.5
100
AcDbArc
 50
0.0000000000000573
 51
90.00000000000004
  0
LINE
  5
3D7
330
1F
100
AcDbEntity
  8
LAY-1
  6
CONTINUOUS
 62
     7
100
AcDbLine
 10
336.7900494312019
 20
174.6169183369555
 30
0.0
 11
337.2900494312019
 21
174.6169183369553
 31
0.0
  0
LINE
  5
3D8
330
1F
100
AcDbEntity
  8
LAY-1
  6
CONTINUOUS
 62
     7
100
AcDbLine
 10
336.7900494312019
 20
182.6169183369612
 30
0.0
 11
337.2900494312019
 21
182.616918336961
 31
0.0
  0
LINE
  5
3D9
330
1F
100
AcDbEntity
  8
LAY-1
  6
CONTINUOUS
 62
     7
100
AcDbLine
 10
337.2900494312
 20
182.61691833696
 30
0.0
 11
337.2900494312
 21
174.61691833696
 31
0.0
  0
LINE
  5
3DA
330
1F
100
AcDbEntity
  8
LAY-1
  6
CONTINUOUS
 62
     7
100
AcDbLine
 10
336.7900494312019
 20
177.6169183369612
 30
0.0
 11
337.2900494312
 21
177.6169183369612
 31
0.0
  0
LINE
  5
3DB
330
1F
100
AcDbEntity
  8
LAY-1
  6
CONTINUOUS
 62
     7
100
AcDbLine
 10
287.290049431214
 20
157.3106153476401
 30
0.0
 11
289.790049431214
 21
157.2320496825311
 31
0.0
  0
LINE
  5
3DC
330
1F
100
AcDbEntity
  8
LAY-1
  6
CONTINUOUS
 62
     7
100
AcDbLine
 10
287.290049431214
 20
157.366918336954
 30
0.0
 11
287.290049431214
 21
157.3106153476401
 31
0.0
  0
LINE
  5
3DD
330
1F
100
AcDbEntity
  8
LAY-1
  6
CONTINUOUS
 62
     7
100
AcDbLine
 10
283.290049431214
 20
157.366918336954
 30
0.0
 11
287.290049431214
 21
157.366918336954
 31
0.0
  0
LINE
  5
3DE
330
1F
100
AcDbEntity
  8
LAY-1
  6
CONTINUOUS
 62
     7
100
AcDbLine
 10
283.290049431214
 20
147.3669183369531
 30
0.0
 11
283.290049431214
 21
157.366918336954
 31
0.0
  0
LINE
  5
3DF
330
1F
100
AcDbEntity
  8
LAY-1
  6
CONTINUOUS
 62
     7
100
AcDbLine
 10
287.290049431214
 20
147.366918336954
 30
0.0
 11
283.290049431214
 21
147.3669183369531
 31
0.0
  0
LINE
  5
3E0
330
1F
100
AcDbEntity
  8
LAY-1
  6
CONTINUOUS
 62
     7
100
AcDbLine
 10
289.790049431214
 20
145.858266968509
 30
0.0
 11
289.790049431214
 21
158.875569705393
 31
0.0
  0
ARC
  5
3E1
330
1F
100
AcDbEntity
  8
LAY-1
  6
CONTINUOUS
 62
     7
100
AcDbCircle
 10
290.290049431214
 20
158.875569705393
 30
0.0
 40
0.5
100
AcDbArc
 50
90.0000000000002
 51
180.0000000000002
  0
ARC
  5
3E2
330
1F
100
AcDbEntity
  8
LAY-1
  6
CONTINUOUS
 62
     7
100
AcDbCircle
 10
290.290049431214
 20
145.858266968509
 30
0.0
 40
0.5
100
AcDbArc
 50
180.0000000000002
 51
268.9999999999204
  0
LINE
  5
3E3
330
1F
100
AcDbEntity
  8
LAY-1
  6
CONTINUOUS
 62
     7
100
AcDbLine
 10
287.290049431214
 20
147.423221326268
 30
0.0
 11
287.290049431214
 21
147.366918336954
 31
0.0
  0
LINE
  5
3E4
330
1F
100
AcDbEntity
  8
LAY-1
  6
CONTINUOUS
 62
     7
100
AcDbLine
 10
289.790049431214
 20
147.501786991376
 30
0.0
 11
287.290049431214
 21
147.423221326268
 31
0.0
  0
LINE
  5
3E5
330
1F
100
AcDbEntity
  8
LAY-1
  6
CONTINUOUS
 62
     1
100
AcDbLine
 10
288.2906934454001
 20
156.7328932566861
 30
0.0
 11
289.790049431214
 21
156.6857740965771
 31
0.0
  0
LINE
  5
3E6
330
1F
100
AcDbEntity
  8
LAY-1
  6
CONTINUOUS
 62
     1
100
AcDbLine
 10
287.290049431214
 20
157.3106153476401
 30
0.0
 11
288.2906934454001
 21
156.7328932566861
 31
0.0
  0
LINE
  5
3E7
330
1F
100
AcDbEntity
  8
LAY-1
  6
CONTINUOUS
 62
     1
100
AcDbLine
 10
288.2906934454001
 20
148.000943417221
 30
0.0
 11
287.290049431214
 21
147.423221326268
 31
0.0
  0
LINE
  5
3E8
330
1F
100
AcDbEntity
  8
LAY-1
  6
CONTINUOUS
 62
     1
100
AcDbLine
 10
289.790049431214
 20
148.048062577325
 30
0.0
 11
288.2906934454001
 21
148.000943417221
 31
0.0
  0
LINE
  5
3E9
330
1F
100
AcDbEntity
  8
LAY-1
  6
CONTINUOUS
 62
     7
100
AcDbLine
 10
287.290049431215
 20
147.423221326268
 30
0.0
 11
287.290049431215
 21
152.366918336952
 31
0.0
  0
LINE
  5
3EA
330
1F
100
AcDbEntity
  8
LAY-1
  6
CONTINUOUS
 62
     7
100
AcDbLine
 10
287.290049431212
 20
157.3106153476389
 30
0.0
 11
287.290049431215
 21
152.3669183369549
 31
0.0
  0
LINE
  5
3EB
330
1F
100
AcDbEntity
  8
LAY-1
  6
EXLTYPE1
 62
     1
100
AcDbLine
 10
289.790049431214
 20
157.2669183369511
 30
0.0
 11
289.8260494312115
 21
157.2309183369536
 31
0.0
  0
LINE
  5
3EC
330
1F
100
AcDbEntity
  8
LAY-1
  6
EXLTYPE1
 62
     1
100
AcDbLine
 10
289.8260494312115
 20
157.2309183369536
 30
0.0
 11
289.790049431214
 21
157.2320496825311
 31
0.0
  0
LINE
  5
3ED
330
1F
100
AcDbEntity
  8
LAY-1
  6
EXLTYPE1
 62
     1
100
AcDbLine
 10
289.790049431214
 20
147.466918336951
 30
0.0
 11
289.8260494312166
 21
147.5029183369537
 31
0.0
  0
LINE
  5
3EE
330
1F
100
AcDbEntity
  8
LAY-1
  6
EXLTYPE1
 62
     1
100
AcDbLine
 10
289.790049431214
 20
147.501786991376
 30
0.0
 11
289.8260494312166
 21
147.5029183369537
 31
0.0
  0
LINE
  5
3EF
330
1F
100
AcDbEntity
  8
LAY-1
  6
CONTINUOUS
 62
     7
100
AcDbLine
 10
288.2906934453842
 20
152.3669183369576
 30
0.0
 11
288.290693445402
 21
147.454667831272
 31
0.0
  0
LINE
  5
3F0
330
1F
100
AcDbEntity
  8
LAY-1
  6
CONTINUOUS
 62
     7
100
AcDbLine
 10
288.2906934454001
 20
157.279168842635
 30
0.0
 11
288.2906934454001
 21
152.366918336952
 31
0.0
  0
ARC
  5
3F1
330
1F
100
AcDbEntity
  8
LAY-1
  6
CONTINUOUS
 62
     7
100
AcDbCircle
 10
291.8733827645936
 20
152.366918336956
 30
0.0
 40
8.583333333379572
100
AcDbArc
 50
160.3471403685675
 51
199.6528596316318
  0
ARC
  5
3F2
330
1F
100
AcDbEntity
  8
LAY-1
  6
CONTINUOUS
 62
     7
100
AcDbCircle
 10
291.8733827645896
 20
158.14042102883
 30
0.0
 40
8.583333333379572
100
AcDbArc
 50
185.1703276050873
 51
199.652859631513
  0
ARC
  5
3F3
330
1F
100
AcDbEntity
  8
LAY-1
  6
CONTINUOUS
 62
     7
100
AcDbCircle
 10
291.8733827645896
 20
146.5934156450741
 30
0.0
 40
8.583333333379572
100
AcDbArc
 50
160.3471403684874
 51
174.8296723949133
  0
ARC
  5
3F4
330
1F
100
AcDbEntity
  8
LAY-1
  6
CONTINUOUS
 62
     7
100
AcDbCircle
 10
278.7067160978405
 20
146.5934156450741
 30
0.0
 40
8.583333333379572
100
AcDbArc
 50
5.170327605087271
 51
19.65285963151304
  0
ARC
  5
3F5
330
1F
100
AcDbEntity
  8
LAY-1
  6
CONTINUOUS
 62
     7
100
AcDbCircle
 10
278.7067160978365
 20
152.366918336956
 30
0.0
 40
8.583333333379572
100
AcDbArc
 50
340.3471403683689
 51
19.65285963143294
  0
ARC
  5
3F6
330
1F
100
AcDbEntity
  8
LAY-1
  6
CONTINUOUS
 62
     7
100
AcDbCircle
 10
278.7067160978405
 20
158.14042102883
 30
0.0
 40
8.583333333379572
100
AcDbArc
 50
340.3471403684875
 51
354.8296723949131
  0
LINE
  5
3F7
330
1F
100
AcDbEntity
  8
LAY-1
  6
CONTINUOUS
 62
     7
100
AcDbLine
 10
283.7900494311982
 20
149.480166990997
 30
0.0
 11
286.7900494312319
 21
149.480166990997
 31
0.0
  0
LINE
  5
3F8
330
1F
100
AcDbEntity
  8
LAY-1
  6
CONTINUOUS
 62
     7
100
AcDbLine
 10
283.7900494312051
 20
155.2536696828874
 30
0.0
 11
286.7900494312257
 21
155.2536696828894
 31
0.0
  0
LINE
  5
3F9
330
1F
100
AcDbEntity
  8
LAY-1
  6
CONTINUOUS
 62
     7
100
AcDbLine
 10
298.2900494312019
 20
175.207641469196
 30
0.0
 11
298.2900494312019
 21
160.0066350203981
 31
0.0
  0
LINE
  5
3FA
330
1F
100
AcDbEntity
  8
LAY-1
  6
CONTINUOUS
 62
     7
100
AcDbLine
 10
290.390049431214
 20
159.3773913759071
 30
0.0
 11
297.7987756344206
 21
159.5067111728198
 31
0.0
  0
ARC
  5
3FB
330
1F
100
AcDbEntity
  8
LAY-1
  6
CONTINUOUS
 62
     7
100
AcDbCircle
 10
297.7900494312019
 20
160.0066350203981
 30
0.0
 40
0.5
100
AcDbArc
 50
271.0000000000051
 51
0.0000000000000573
  0
LINE
  5
3FC
330
1F
100
AcDbEntity
  8
LAY-1
  6
CONTINUOUS
 62
     7
100
AcDbLine
 10
297.7987756344253
 20
145.2271255010811
 30
0.0
 11
290.281323227996
 21
145.35834312093
 31
0.0
  0
LINE
  5
3FD
330
1F
100
AcDbEntity
  8
LAY-1
  6
CONTINUOUS
 62
     7
100
AcDbLine
 10
298.2900494312019
 20
129.525280888265
 30
0.0
 11
298.2900494312067
 21
144.7272016535027
 31
0.0
  0
ARC
  5
3FE
330
1F
100
AcDbEntity
  8
LAY-1
  6
CONTINUOUS
 62
     7
100
AcDbCircle
 10
297.7900494312067
 20
144.7272016535029
 30
0.0
 40
0.5
100
AcDbArc
 50
0.0
 51
89.00000000000148
  0
ARC
  5
3FF
330
1F
100
AcDbEntity
  8
LAY-1
  6
CONTINUOUS
 62
     7
100
AcDbCircle
 10
300.5382654366139
 20
162.8765362411418
 30
0.0
 40
3.96098196725439
100
AcDbArc
 50
233.4643886799381
 51
268.9999999998449
  0
LINE
  5
400
330
1F
100
AcDbEntity
  8
LAY-1
  6
CONTINUOUS
 62
     7
100
AcDbLine
 10
300.4691367694305
 20
158.9161575506265
 30
0.0
 11
303.2900494312019
 21
158.8669183369582
 31
0.0
  0
ARC
  5
401
330
1F
100
AcDbEntity
  8
LAY-1
  6
CONTINUOUS
 62
     7
100
AcDbCircle
 10
300.5382654366074
 20
141.8573004327718
 30
0.0
 40
3.96098196725439
100
AcDbArc
 50
91.00000000011954
 51
126.5356113200266
  0
LINE
  5
402
330
1F
100
AcDbEntity
  8
LAY-1
  6
CONTINUOUS
 62
     7
100
AcDbLine
 10
300.4691367694264
 20
145.8176791232872
 30
0.0
 11
303.2900494311979
 21
145.8669183369537
 31
0.0
  0
LINE
  5
403
330
1F
100
AcDbEntity
  8
LAY-1
  6
EXLTYPE2
 62
     1
100
AcDbLine
 10
324.2900494312019
 20
187.871039233106
 30
0.0
 11
324.2900494312019
 21
115.40309452872
 31
0.0
  0
CIRCLE
  5
404
330
1F
100
AcDbEntity
  8
LAY-1
  6
CONTINUOUS
 62
     7
100
AcDbCircle
 10
234.7361761917529
 20
87.71613962621703
 30
0.0
 40
1.0
  0
LINE
  5
405
330
1F
100
AcDbEntity
  8
LAY-1
  6
EXLTYPE2
 62
     1
100
AcDbLine
 10
233.49471830985
 20
87.71613962621703
 30
0.0
 11
235.9447183098499
 21
87.71613962621703
 31
0.0
  0
LINE
  5
406
330
1F
100
AcDbEntity
  8
LAY-1
  6
EXLTYPE2
 62
     1
100
AcDbLine
 10
234.736176191752
 20
90.20309452873701
 30
0.0
 11
234.736176191752
 21
82.69309452873702
 31
0.0
  0
LINE
  5
407
330
1F
100
AcDbEntity
  8
LAY-1
  6
EXLTYPE2
 62
     1
100
AcDbLine
 10
176.6999999999997
 20
152.3669183369506
 30
0.0
 11
244.979567730903
 21
152.366918336958
 31
0.0
  0
POLYLINE
  5
408
330
1F
100
AcDbEntity
  8
LAY-1
  6
CONTINUOUS
 62
     1
100
AcDb2dPolyline
 66
     1
 10
0.0
 20
0.0
 30
0.0
 70
   128
  0
VERTEX
  5
409
330
408
100
AcDbEntity
  8
LAY-1
  6
CONTINUOUS
 62
     1
100
AcDbVertex
100
AcDb2dVertex
 10
193.7237117878063
 20
144.6438267007892
 30
0.0
  0
VERTEX
  5
40A
330
408
100
AcDbEntity
  8
LAY-1
  6
CONTINUOUS
 62
     1
100
AcDbVertex
100
AcDb2dVertex
 10
194.6164910476888
 20
144.6438267007892
 30
0.0
  0
SEQEND
  5
40B
330
408
100
AcDbEntity
  8
LAY-1
  6
CONTINUOUS
 62
     1
  0
ARC
  5
40C
330
1F
100
AcDbEntity
  8
LAY-1
  6
CONTINUOUS
 62
     1
100
AcDbCircle
 10
195.3361761917599
 20
145.2650694439922
 30
0.0
 40
1.727999999999999
100
AcDbArc
 50
114.6243183521634
 51
201.0704427581114
  0
POLYLINE
  5
40D
330
1F
100
AcDbEntity
  8
LAY-1
  6
CONTINUOUS
 62
     1
100
AcDb2dPolyline
 66
     1
 10
0.0
 20
0.0
 30
0.0
 70
   128
  0
VERTEX
  5
40E
330
40D
100
AcDbEntity
  8
LAY-1
  6
CONTINUOUS
 62
     1
100
AcDbVertex
100
AcDb2dVertex
 10
194.61617619176
 20
144.6438267007892
 30
0.0
  0
VERTEX
  5
40F
330
40D
100
AcDbEntity
  8
LAY-1
  6
CONTINUOUS
 62
     1
100
AcDbVertex
100
AcDb2dVertex
 10
194.61617619176
 20
146.8359239884997
 30
0.0
  0
SEQEND
  5
410
330
40D
100
AcDbEntity
  8
LAY-1
  6
CONTINUOUS
 62
     1
  0
ARC
  5
411
330
1F
100
AcDbEntity
  8
LAY-1
  6
CONTINUOUS
 62
     1
100
AcDbCircle
 10
195.1444910476887
 20
143.6078630674313
 30
0.0
 40
0.768000000000016
100
AcDbArc
 50
2.086656776320181
 51
24.61997732865673
  0
ARC
  5
412
330
1F
100
AcDbEntity
  8
LAY-1
  6
CONTINUOUS
 62
     1
100
AcDbCircle
 10
195.3361761917599
 20
145.2650694439922
 30
0.0
 40
1.728
100
AcDbArc
 50
223.8560420640234
 51
289.4643838406983
  0
POLYLINE
  5
413
330
1F
100
AcDbEntity
  8
LAY-1
  6
CONTINUOUS
 62
     1
100
AcDb2dPolyline
 66
     1
 10
0.0
 20
0.0
 30
0.0
 70
   128
  0
VERTEX
  5
414
330
413
100
AcDbEntity
  8
LAY-1
  6
CONTINUOUS
 62
     1
100
AcDbVertex
100
AcDb2dVertex
 10
195.6244910476888
 20
144.0678267007892
 30
0.0
  0
VERTEX
  5
415
330
413
100
AcDbEntity
  8
LAY-1
  6
CONTINUOUS
 62
     1
100
AcDbVertex
100
AcDb2dVertex
 10
194.0901449666906
 20
144.0678267007892
 30
0.0
  0
SEQEND
  5
416
330
413
100
AcDbEntity
  8
LAY-1
  6
CONTINUOUS
 62
     1
  0
ARC
  5
417
330
1F
100
AcDbEntity
  8
LAY-1
  6
CONTINUOUS
 62
     1
100
AcDbCircle
 10
195.6244910476888
 20
143.8278267007892
 30
0.0
 40
0.240000000000001
100
AcDbArc
 50
24.61997732865736
 51
90.0000000000002
  0
POLYLINE
  5
418
330
1F
100
AcDbEntity
  8
LAY-1
  6
CONTINUOUS
 62
     1
100
AcDb2dPolyline
 66
     1
 10
0.0
 20
0.0
 30
0.0
 70
   128
  0
VERTEX
  5
419
330
418
100
AcDbEntity
  8
LAY-1
  6
CONTINUOUS
 62
     1
100
AcDbVertex
100
AcDb2dVertex
 10
194.85617619176
 20
146.7335870639069
 30
0.0
  0
VERTEX
  5
41A
330
418
100
AcDbEntity
  8
LAY-1
  6
CONTINUOUS
 62
     1
100
AcDbVertex
100
AcDb2dVertex
 10
194.85617619176
 20
146.2250694439922
 30
0.0
  0
SEQEND
  5
41B
330
418
100
AcDbEntity
  8
LAY-1
  6
CONTINUOUS
 62
     1
  0
ARC
  5
41C
330
1F
100
AcDbEntity
  8
LAY-1
  6
CONTINUOUS
 62
     1
100
AcDbCircle
 10
195.0961761917599
 20
146.7335870639069
 30
0.0
 40
0.239999999999998
100
AcDbArc
 50
99.28179908667656
 51
180.0
  0
ARC
  5
41D
330
1F
100
AcDbEntity
  8
LAY-1
  6
CONTINUOUS
 62
     1
100
AcDbCircle
 10
195.3361761917599
 20
145.2650694439922
 30
0.0
 40
1.728000000000003
100
AcDbArc
 50
33.74898859588826
 51
99.28179908667725
  0
POLYLINE
  5
41E
330
1F
100
AcDbEntity
  8
LAY-1
  6
CONTINUOUS
 62
     1
100
AcDb2dPolyline
 66
     1
 10
0.0
 20
0.0
 30
0.0
 70
   128
  0
VERTEX
  5
41F
330
41E
100
AcDbEntity
  8
LAY-1
  6
CONTINUOUS
 62
     1
100
AcDbVertex
100
AcDb2dVertex
 10
194.85617619176
 20
146.2250694439922
 30
0.0
  0
VERTEX
  5
420
330
41E
100
AcDbEntity
  8
LAY-1
  6
CONTINUOUS
 62
     1
100
AcDbVertex
100
AcDb2dVertex
 10
196.7729726282811
 20
146.2250694439922
 30
0.0
  0
SEQEND
  5
421
330
41E
100
AcDbEntity
  8
LAY-1
  6
CONTINUOUS
 62
     1
  0
POLYLINE
  5
422
330
1F
100
AcDbEntity
  8
LAY-1
  6
CONTINUOUS
 62
     1
100
AcDb2dPolyline
 66
     1
 10
0.0
 20
0.0
 30
0.0
 70
   128
  0
VERTEX
  5
423
330
422
100
AcDbEntity
  8
LAY-1
  6
CONTINUOUS
 62
     1
100
AcDbVertex
100
AcDb2dVertex
 10
193.367981787183
 20
144.0678267007892
 30
0.0
  0
VERTEX
  5
424
330
422
100
AcDbEntity
  8
LAY-1
  6
CONTINUOUS
 62
     1
100
AcDbVertex
100
AcDb2dVertex
 10
193.6288232537527
 20
144.0678267007893
 30
0.0
  0
SEQEND
  5
425
330
422
100
AcDbEntity
  8
LAY-1
  6
CONTINUOUS
 62
     1
  0
ARC
  5
426
330
1F
100
AcDbEntity
  8
LAY-1
  6
CONTINUOUS
 62
     1
100
AcDbCircle
 10
193.367981787183
 20
143.8278267007892
 30
0.0
 40
0.239999999999999
100
AcDbArc
 50
90.00000000000044
 51
155.3800226713431
  0
ARC
  5
427
330
1F
100
AcDbEntity
  8
LAY-1
  6
CONTINUOUS
 62
     1
100
AcDbCircle
 10
193.847981787183
 20
143.6078630674313
 30
0.0
 40
0.767999999999999
100
AcDbArc
 50
155.3800226713434
 51
177.9133432236797
  0
POLYLINE
  5
428
330
1F
100
AcDbEntity
  8
LAY-1
  6
CONTINUOUS
 62
     1
100
AcDb2dPolyline
 66
     1
 10
0.0
 20
0.0
 30
0.0
 70
   128
  0
VERTEX
  5
429
330
428
100
AcDbEntity
  8
LAY-1
  6
CONTINUOUS
 62
     1
100
AcDbVertex
100
AcDb2dVertex
 10
193.0804910476888
 20
145.0758267007892
 30
0.0
  0
VERTEX
  5
42A
330
428
100
AcDbEntity
  8
LAY-1
  6
CONTINUOUS
 62
     1
100
AcDbVertex
100
AcDb2dVertex
 10
192.9364910476888
 20
145.0758267007892
 30
0.0
  0
VERTEX
  5
42B
330
428
100
AcDbEntity
  8
LAY-1
  6
CONTINUOUS
 62
     1
100
AcDbVertex
100
AcDb2dVertex
 10
192.9364910476888
 20
143.6358267007892
 30
0.0
  0
VERTEX
  5
42C
330
428
100
AcDbEntity
  8
LAY-1
  6
CONTINUOUS
 62
     1
100
AcDbVertex
100
AcDb2dVertex
 10
193.0804910476888
 20
143.6358267007892
 30
0.0
  0
SEQEND
  5
42D
330
428
100
AcDbEntity
  8
LAY-1
  6
CONTINUOUS
 62
     1
  0
ARC
  5
42E
330
1F
100
AcDbEntity
  8
LAY-1
  6
CONTINUOUS
 62
     1
100
AcDbCircle
 10
193.847981787183
 20
145.1037903341471
 30
0.0
 40
0.768000000000002
100
AcDbArc
 50
182.0866567763213
 51
204.6199773286578
  0
ARC
  5
42F
330
1F
100
AcDbEntity
  8
LAY-1
  6
CONTINUOUS
 62
     1
100
AcDbCircle
 10
193.367981787183
 20
144.8838267007892
 30
0.0
 40
0.240000000000002
100
AcDbArc
 50
204.6199773286619
 51
270.0000000000011
  0
POLYLINE
  5
430
330
1F
100
AcDbEntity
  8
LAY-1
  6
CONTINUOUS
 62
     1
100
AcDb2dPolyline
 66
     1
 10
0.0
 20
0.0
 30
0.0
 70
   128
  0
VERTEX
  5
431
330
430
100
AcDbEntity
  8
LAY-1
  6
CONTINUOUS
 62
     1
100
AcDbVertex
100
AcDb2dVertex
 10
193.4359782161513
 20
144.6438267007892
 30
0.0
  0
VERTEX
  5
432
330
430
100
AcDbEntity
  8
LAY-1
  6
CONTINUOUS
 62
     1
100
AcDbVertex
100
AcDb2dVertex
 10
193.367981787183
 20
144.6438267007892
 30
0.0
  0
SEQEND
  5
433
330
430
100
AcDbEntity
  8
LAY-1
  6
CONTINUOUS
 62
     1
  0
ARC
  5
434
330
1F
100
AcDbEntity
  8
LAY-1
  6
CONTINUOUS
 62
     1
100
AcDbCircle
 10
196.24817619176
 20
145.2650694439922
 30
0.0
 40
2.880000000000004
100
AcDbArc
 50
145.6988472432168
 51
192.4571428620086
  0
ARC
  5
435
330
1F
100
AcDbEntity
  8
LAY-1
  6
CONTINUOUS
 62
     1
100
AcDbCircle
 10
195.3361761917599
 20
145.8872205510392
 30
0.0
 40
1.775999999999998
100
AcDbArc
 50
34.30115275678311
 51
145.6988472432169
  0
ARC
  5
436
330
1F
100
AcDbEntity
  8
LAY-1
  6
CONTINUOUS
 62
     1
100
AcDbCircle
 10
194.4241761917598
 20
145.2650694439922
 30
0.0
 40
2.880000000000007
100
AcDbArc
 50
19.47122063449041
 51
34.301152756783
  0
POLYLINE
  5
437
330
1F
100
AcDbEntity
  8
LAY-1
  6
CONTINUOUS
 62
     1
100
AcDb2dPolyline
 66
     1
 10
0.0
 20
0.0
 30
0.0
 70
   128
  0
VERTEX
  5
438
330
437
100
AcDbEntity
  8
LAY-1
  6
CONTINUOUS
 62
     1
100
AcDbVertex
100
AcDb2dVertex
 10
197.3046854522657
 20
146.2250694439922
 30
0.0
  0
VERTEX
  5
439
330
437
100
AcDbEntity
  8
LAY-1
  6
CONTINUOUS
 62
     1
100
AcDbVertex
100
AcDb2dVertex
 10
197.1394662315162
 20
146.2250694439922
 30
0.0
  0
SEQEND
  5
43A
330
437
100
AcDbEntity
  8
LAY-1
  6
CONTINUOUS
 62
     1
  0
ARC
  5
43B
330
1F
100
AcDbEntity
  8
LAY-1
  6
CONTINUOUS
 62
     1
100
AcDbCircle
 10
197.3046854522657
 20
146.4650694439922
 30
0.0
 40
0.240000000000001
100
AcDbArc
 50
270.0
 51
335.3800226713427
  0
ARC
  5
43C
330
1F
100
AcDbEntity
  8
LAY-1
  6
CONTINUOUS
 62
     1
100
AcDbCircle
 10
196.8246854522657
 20
146.68503307735
 30
0.0
 40
0.768000000000001
100
AcDbArc
 50
335.3800226713436
 51
357.9133432236807
  0
POLYLINE
  5
43D
330
1F
100
AcDbEntity
  8
LAY-1
  6
CONTINUOUS
 62
     1
100
AcDb2dPolyline
 66
     1
 10
0.0
 20
0.0
 30
0.0
 70
   128
  0
VERTEX
  5
43E
330
43D
100
AcDbEntity
  8
LAY-1
  6
CONTINUOUS
 62
     1
100
AcDbVertex
100
AcDb2dVertex
 10
197.59217619176
 20
145.2170694439922
 30
0.0
  0
VERTEX
  5
43F
330
43D
100
AcDbEntity
  8
LAY-1
  6
CONTINUOUS
 62
     1
100
AcDbVertex
100
AcDb2dVertex
 10
197.73617619176
 20
145.2170694439922
 30
0.0
  0
VERTEX
  5
440
330
43D
100
AcDbEntity
  8
LAY-1
  6
CONTINUOUS
 62
     1
100
AcDbVertex
100
AcDb2dVertex
 10
197.73617619176
 20
146.6570694439922
 30
0.0
  0
VERTEX
  5
441
330
43D
100
AcDbEntity
  8
LAY-1
  6
CONTINUOUS
 62
     1
100
AcDbVertex
100
AcDb2dVertex
 10
197.59217619176
 20
146.6570694439922
 30
0.0
  0
SEQEND
  5
442
330
43D
100
AcDbEntity
  8
LAY-1
  6
CONTINUOUS
 62
     1
  0
ARC
  5
443
330
1F
100
AcDbEntity
  8
LAY-1
  6
CONTINUOUS
 62
     1
100
AcDbCircle
 10
196.8246854522657
 20
145.1891058106343
 30
0.0
 40
0.768000000000001
100
AcDbArc
 50
2.086656776319894
 51
24.61997732865713
  0
ARC
  5
444
330
1F
100
AcDbEntity
  8
LAY-1
  6
CONTINUOUS
 62
     1
100
AcDbCircle
 10
197.3046854522657
 20
145.4090694439922
 30
0.0
 40
0.240000000000001
100
AcDbArc
 50
24.61997732865736
 51
90.0000000000002
  0
POLYLINE
  5
445
330
1F
100
AcDbEntity
  8
LAY-1
  6
CONTINUOUS
 62
     1
100
AcDb2dPolyline
 66
     1
 10
0.0
 20
0.0
 30
0.0
 70
   128
  0
VERTEX
  5
446
330
445
100
AcDbEntity
  8
LAY-1
  6
CONTINUOUS
 62
     1
100
AcDbVertex
100
AcDb2dVertex
 10
197.278461391245
 20
145.6490694439921
 30
0.0
  0
VERTEX
  5
447
330
445
100
AcDbEntity
  8
LAY-1
  6
CONTINUOUS
 62
     1
100
AcDbVertex
100
AcDb2dVertex
 10
197.3046854522657
 20
145.6490694439921
 30
0.0
  0
SEQEND
  5
448
330
445
100
AcDbEntity
  8
LAY-1
  6
CONTINUOUS
 62
     1
  0
ARC
  5
449
330
1F
100
AcDbEntity
  8
LAY-1
  6
CONTINUOUS
 62
     1
100
AcDbCircle
 10
194.4241761917598
 20
145.2650694439922
 30
0.0
 40
2.880000000000004
100
AcDbArc
 50
325.698847243217
 51
7.662255660766092
  0
ARC
  5
44A
330
1F
100
AcDbEntity
  8
LAY-1
  6
CONTINUOUS
 62
     1
100
AcDbCircle
 10
195.3361761917599
 20
144.6429183369451
 30
0.0
 40
1.775999999999996
100
AcDbArc
 50
214.3011527567831
 51
325.698847243217
  0
ARC
  5
44B
330
1F
100
AcDbEntity
  8
LAY-1
  6
CONTINUOUS
 62
     1
100
AcDbCircle
 10
196.24817619176
 20
145.2650694439922
 30
0.0
 40
2.880000000000009
100
AcDbArc
 50
204.5639915333685
 51
214.3011527567833
  0
ARC
  5
44C
330
1F
100
AcDbEntity
  8
LAY-1
  6
CONTINUOUS
 62
     1
100
AcDbCircle
 10
195.3361761917599
 20
145.5077918108306
 30
0.0
 40
0.864000000000001
100
AcDbArc
 50
247.380135051962
 51
270.5149113292632
  0
ARC
  5
44D
330
1F
100
AcDbEntity
  8
LAY-1
  6
CONTINUOUS
 62
     1
100
AcDbCircle
 10
195.0961761917599
 20
144.9317918108306
 30
0.0
 40
0.240000000000002
100
AcDbArc
 50
180.0
 51
247.380135051961
  0
POLYLINE
  5
44E
330
1F
100
AcDbEntity
  8
LAY-1
  6
CONTINUOUS
 62
     1
100
AcDb2dPolyline
 66
     1
 10
0.0
 20
0.0
 30
0.0
 70
   128
  0
VERTEX
  5
44F
330
44E
100
AcDbEntity
  8
LAY-1
  6
CONTINUOUS
 62
     1
100
AcDbVertex
100
AcDb2dVertex
 10
197.0209693541393
 20
145.6490694439921
 30
0.0
  0
VERTEX
  5
450
330
44E
100
AcDbEntity
  8
LAY-1
  6
CONTINUOUS
 62
     1
100
AcDbVertex
100
AcDb2dVertex
 10
194.85617619176
 20
145.6490694439921
 30
0.0
  0
VERTEX
  5
451
330
44E
100
AcDbEntity
  8
LAY-1
  6
CONTINUOUS
 62
     1
100
AcDbVertex
100
AcDb2dVertex
 10
194.85617619176
 20
144.9317918108306
 30
0.0
  0
SEQEND
  5
452
330
44E
100
AcDbEntity
  8
LAY-1
  6
CONTINUOUS
 62
     1
  0
ARC
  5
453
330
1F
100
AcDbEntity
  8
LAY-1
  6
CONTINUOUS
 62
     1
100
AcDbCircle
 10
195.3361761917599
 20
145.2650694439922
 30
0.0
 40
1.727999999999997
100
AcDbArc
 50
294.6358030213192
 51
12.83958840690387
  0
POLYLINE
  5
454
330
1F
100
AcDbEntity
  8
LAY-1
  6
CONTINUOUS
 62
     1
100
AcDb2dPolyline
 66
     1
 10
0.0
 20
0.0
 30
0.0
 70
   128
  0
VERTEX
  5
455
330
454
100
AcDbEntity
  8
LAY-1
  6
CONTINUOUS
 62
     1
100
AcDbVertex
100
AcDb2dVertex
 10
195.9124910476888
 20
145.0758267007892
 30
0.0
  0
VERTEX
  5
456
330
454
100
AcDbEntity
  8
LAY-1
  6
CONTINUOUS
 62
     1
100
AcDbVertex
100
AcDb2dVertex
 10
196.0564910476888
 20
145.0758267007892
 30
0.0
  0
VERTEX
  5
457
330
454
100
AcDbEntity
  8
LAY-1
  6
CONTINUOUS
 62
     1
100
AcDbVertex
100
AcDb2dVertex
 10
196.0564910476888
 20
143.6943592516498
 30
0.0
  0
SEQEND
  5
458
330
454
100
AcDbEntity
  8
LAY-1
  6
CONTINUOUS
 62
     1
  0
ARC
  5
459
330
1F
100
AcDbEntity
  8
LAY-1
  6
CONTINUOUS
 62
     1
100
AcDbCircle
 10
195.1450003081944
 20
145.1037903341471
 30
0.0
 40
0.768000000000099
100
AcDbArc
 50
335.3800226713446
 51
357.9133432236811
  0
ARC
  5
45A
330
1F
100
AcDbEntity
  8
LAY-1
  6
CONTINUOUS
 62
     1
100
AcDbCircle
 10
195.6250003081945
 20
144.8838267007892
 30
0.0
 40
0.23999999999999
100
AcDbArc
 50
270.0
 51
335.3800226713429
  0
POLYLINE
  5
45B
330
1F
100
AcDbEntity
  8
LAY-1
  6
CONTINUOUS
 62
     1
100
AcDb2dPolyline
 66
     1
 10
0.0
 20
0.0
 30
0.0
 70
   128
  0
VERTEX
  5
45C
330
45B
100
AcDbEntity
  8
LAY-1
  6
CONTINUOUS
 62
     1
100
AcDbVertex
100
AcDb2dVertex
 10
195.3284116163613
 20
144.6438267007892
 30
0.0
  0
VERTEX
  5
45D
330
45B
100
AcDbEntity
  8
LAY-1
  6
CONTINUOUS
 62
     1
100
AcDbVertex
100
AcDb2dVertex
 10
195.6250003081945
 20
144.6438267007892
 30
0.0
  0
SEQEND
  5
45E
330
45B
100
AcDbEntity
  8
LAY-1
  6
CONTINUOUS
 62
     1
  0
ARC
  5
45F
330
1F
100
AcDbEntity
  8
LAY-1
  6
CONTINUOUS
 62
     1
100
AcDbCircle
 10
195.7361761917599
 20
159.4669183369399
 30
0.0
 40
1.760000000000002
100
AcDbArc
 50
60.00000000000014
 51
120.0
  0
ARC
  5
460
330
1F
100
AcDbEntity
  8
LAY-1
  6
CONTINUOUS
 62
     1
100
AcDbCircle
 10
195.4161761917598
 20
160.0211745953619
 30
0.0
 40
1.120000000000005
100
AcDbArc
 50
120.0
 51
240.0000000000003
  0
ARC
  5
461
330
1F
100
AcDbEntity
  8
LAY-1
  6
CONTINUOUS
 62
     1
100
AcDbCircle
 10
195.7361761917599
 20
160.575430853784
 30
0.0
 40
1.760000000000003
100
AcDbArc
 50
240.0000000000001
 51
300.0
  0
ARC
  5
462
330
1F
100
AcDbEntity
  8
LAY-1
  6
CONTINUOUS
 62
     1
100
AcDbCircle
 10
196.0561761917599
 20
160.0211745953619
 30
0.0
 40
1.120000000000006
100
AcDbArc
 50
300.0
 51
60.00000000000014
  0
ARC
  5
463
330
1F
100
AcDbEntity
  8
LAY-1
  6
CONTINUOUS
 62
     1
100
AcDbCircle
 10
195.7361761917597
 20
159.4669183369399
 30
0.0
 40
2.400000000000003
100
AcDbArc
 50
59.99999999999698
 51
120.0000000000033
  0
ARC
  5
464
330
1F
100
AcDbEntity
  8
LAY-1
  6
CONTINUOUS
 62
     1
100
AcDbCircle
 10
195.4161761917597
 20
160.0211745953619
 30
0.0
 40
1.759999999999994
100
AcDbArc
 50
120.0000000000034
 51
239.999999999997
  0
ARC
  5
465
330
1F
100
AcDbEntity
  8
LAY-1
  6
CONTINUOUS
 62
     1
100
AcDbCircle
 10
195.7361761917599
 20
160.5754308537839
 30
0.0
 40
2.400000000000004
100
AcDbArc
 50
239.999999999997
 51
300.0000000000033
  0
ARC
  5
466
330
1F
100
AcDbEntity
  8
LAY-1
  6
CONTINUOUS
 62
     1
100
AcDbCircle
 10
196.0561761917599
 20
160.0211745953619
 30
0.0
 40
1.759999999999997
100
AcDbArc
 50
300.0000000000033
 51
59.99999999999698
  0
POLYLINE
  5
467
330
1F
100
AcDbEntity
  8
LAY-1
  6
CONTINUOUS
 62
     1
100
AcDb2dPolyline
 66
     1
 10
0.0
 20
0.0
 30
0.0
 70
   128
  0
VERTEX
  5
468
330
467
100
AcDbEntity
  8
LAY-1
  6
CONTINUOUS
 62
     1
100
AcDbVertex
100
AcDb2dVertex
 10
197.2561761917598
 20
153.8611745953619
 30
0.0
  0
VERTEX
  5
469
330
467
100
AcDbEntity
  8
LAY-1
  6
CONTINUOUS
 62
     1
100
AcDbVertex
100
AcDb2dVertex
 10
197.0961761917598
 20
154.5011745953619
 30
0.0
  0
VERTEX
  5
46A
330
467
100
AcDbEntity
  8
LAY-1
  6
CONTINUOUS
 62
     1
100
AcDbVertex
100
AcDb2dVertex
 10
194.3761761917598
 20
154.5011745953619
 30
0.0
  0
VERTEX
  5
46B
330
467
100
AcDbEntity
  8
LAY-1
  6
CONTINUOUS
 62
     1
100
AcDbVertex
100
AcDb2dVertex
 10
194.3761761917598
 20
153.6211745953619
 30
0.0
  0
VERTEX
  5
46C
330
467
100
AcDbEntity
  8
LAY-1
  6
CONTINUOUS
 62
     1
100
AcDbVertex
100
AcDb2dVertex
 10
195.2561761917598
 20
153.4611745953619
 30
0.0
  0
VERTEX
  5
46D
330
467
100
AcDbEntity
  8
LAY-1
  6
CONTINUOUS
 62
     1
100
AcDbVertex
100
AcDb2dVertex
 10
195.2561761917598
 20
152.9811745953619
 30
0.0
  0
VERTEX
  5
46E
330
467
100
AcDbEntity
  8
LAY-1
  6
CONTINUOUS
 62
     1
100
AcDbVertex
100
AcDb2dVertex
 10
193.7361761917598
 20
152.9811745953619
 30
0.0
  0
VERTEX
  5
46F
330
467
100
AcDbEntity
  8
LAY-1
  6
CONTINUOUS
 62
     1
100
AcDbVertex
100
AcDb2dVertex
 10
193.7361761917598
 20
156.6611745953619
 30
0.0
  0
VERTEX
  5
470
330
467
100
AcDbEntity
  8
LAY-1
  6
CONTINUOUS
 62
     1
100
AcDbVertex
100
AcDb2dVertex
 10
195.2561761917598
 20
156.6611745953619
 30
0.0
  0
VERTEX
  5
471
330
467
100
AcDbEntity
  8
LAY-1
  6
CONTINUOUS
 62
     1
100
AcDbVertex
100
AcDb2dVertex
 10
195.2561761917598
 20
156.1811745953619
 30
0.0
  0
VERTEX
  5
472
330
467
100
AcDbEntity
  8
LAY-1
  6
CONTINUOUS
 62
     1
100
AcDbVertex
100
AcDb2dVertex
 10
194.3761761917598
 20
156.0211745953619
 30
0.0
  0
VERTEX
  5
473
330
467
100
AcDbEntity
  8
LAY-1
  6
CONTINUOUS
 62
     1
100
AcDbVertex
100
AcDb2dVertex
 10
194.3761761917598
 20
155.1411745953619
 30
0.0
  0
VERTEX
  5
474
330
467
100
AcDbEntity
  8
LAY-1
  6
CONTINUOUS
 62
     1
100
AcDbVertex
100
AcDb2dVertex
 10
197.0961761917598
 20
155.1411745953619
 30
0.0
  0
VERTEX
  5
475
330
467
100
AcDbEntity
  8
LAY-1
  6
CONTINUOUS
 62
     1
100
AcDbVertex
100
AcDb2dVertex
 10
197.2561761917598
 20
155.7811745953619
 30
0.0
  0
VERTEX
  5
476
330
467
100
AcDbEntity
  8
LAY-1
  6
CONTINUOUS
 62
     1
100
AcDbVertex
100
AcDb2dVertex
 10
197.7361761917599
 20
155.7811745953619
 30
0.0
  0
VERTEX
  5
477
330
467
100
AcDbEntity
  8
LAY-1
  6
CONTINUOUS
 62
     1
100
AcDbVertex
100
AcDb2dVertex
 10
197.7361761917598
 20
153.8611745953619
 30
0.0
  0
VERTEX
  5
478
330
467
100
AcDbEntity
  8
LAY-1
  6
CONTINUOUS
 62
     1
100
AcDbVertex
100
AcDb2dVertex
 10
197.2561761917598
 20
153.8611745953619
 30
0.0
  0
SEQEND
  5
479
330
467
100
AcDbEntity
  8
LAY-1
  6
CONTINUOUS
 62
     1
  0
POLYLINE
  5
47A
330
1F
100
AcDbEntity
  8
LAY-1
  6
CONTINUOUS
 62
     1
100
AcDb2dPolyline
 66
     1
 10
0.0
 20
0.0
 30
0.0
 70
   128
  0
VERTEX
  5
47B
330
47A
100
AcDbEntity
  8
LAY-1
  6
CONTINUOUS
 62
     1
100
AcDbVertex
100
AcDb2dVertex
 10
197.7361761917598
 20
149.4611745953619
 30
0.0
  0
VERTEX
  5
47C
330
47A
100
AcDbEntity
  8
LAY-1
  6
CONTINUOUS
 62
     1
100
AcDbVertex
100
AcDb2dVertex
 10
197.2561761917598
 20
149.4611745953619
 30
0.0
  0
VERTEX
  5
47D
330
47A
100
AcDbEntity
  8
LAY-1
  6
CONTINUOUS
 62
     1
100
AcDbVertex
100
AcDb2dVertex
 10
197.0961761917598
 20
150.1011745953619
 30
0.0
  0
VERTEX
  5
47E
330
47A
100
AcDbEntity
  8
LAY-1
  6
CONTINUOUS
 62
     1
100
AcDbVertex
100
AcDb2dVertex
 10
194.3761761917598
 20
150.1011745953619
 30
0.0
  0
VERTEX
  5
47F
330
47A
100
AcDbEntity
  8
LAY-1
  6
CONTINUOUS
 62
     1
100
AcDbVertex
100
AcDb2dVertex
 10
194.2161761917598
 20
149.4611745953619
 30
0.0
  0
VERTEX
  5
480
330
47A
100
AcDbEntity
  8
LAY-1
  6
CONTINUOUS
 62
     1
100
AcDbVertex
100
AcDb2dVertex
 10
193.7361761917598
 20
149.4611745953619
 30
0.0
  0
VERTEX
  5
481
330
47A
100
AcDbEntity
  8
LAY-1
  6
CONTINUOUS
 62
     1
100
AcDbVertex
100
AcDb2dVertex
 10
193.7361761917598
 20
151.3811745953619
 30
0.0
  0
VERTEX
  5
482
330
47A
100
AcDbEntity
  8
LAY-1
  6
CONTINUOUS
 62
     1
100
AcDbVertex
100
AcDb2dVertex
 10
194.2161761917598
 20
151.3811745953619
 30
0.0
  0
VERTEX
  5
483
330
47A
100
AcDbEntity
  8
LAY-1
  6
CONTINUOUS
 62
     1
100
AcDbVertex
100
AcDb2dVertex
 10
194.3761761917598
 20
150.7411745953619
 30
0.0
  0
VERTEX
  5
484
330
47A
100
AcDbEntity
  8
LAY-1
  6
CONTINUOUS
 62
     1
100
AcDbVertex
100
AcDb2dVertex
 10
197.0961761917598
 20
150.7411745953619
 30
0.0
  0
VERTEX
  5
485
330
47A
100
AcDbEntity
  8
LAY-1
  6
CONTINUOUS
 62
     1
100
AcDbVertex
100
AcDb2dVertex
 10
197.2561761917598
 20
151.3811745953619
 30
0.0
  0
VERTEX
  5
486
330
47A
100
AcDbEntity
  8
LAY-1
  6
CONTINUOUS
 62
     1
100
AcDbVertex
100
AcDb2dVertex
 10
197.7361761917598
 20
151.3811745953619
 30
0.0
  0
VERTEX
  5
487
330
47A
100
AcDbEntity
  8
LAY-1
  6
CONTINUOUS
 62
     1
100
AcDbVertex
100
AcDb2dVertex
 10
197.7361761917598
 20
149.4611745953619
 30
0.0
  0
SEQEND
  5
488
330
47A
100
AcDbEntity
  8
LAY-1
  6
CONTINUOUS
 62
     1
  0
POLYLINE
  5
489
330
1F
100
AcDbEntity
  8
LAY-1
  6
CONTINUOUS
 62
     1
100
AcDb2dPolyline
 66
     1
 10
0.0
 20
0.0
 30
0.0
 70
   128
  0
VERTEX
  5
48A
330
489
100
AcDbEntity
  8
LAY-1
  6
CONTINUOUS
 62
     1
100
AcDbVertex
100
AcDb2dVertex
 10
195.8161761917598
 20
152.7411745953619
 30
0.0
  0
VERTEX
  5
48B
330
489
100
AcDbEntity
  8
LAY-1
  6
CONTINUOUS
 62
     1
100
AcDbVertex
100
AcDb2dVertex
 10
196.4561761917598
 20
152.7411745953619
 30
0.0
  0
VERTEX
  5
48C
330
489
100
AcDbEntity
  8
LAY-1
  6
CONTINUOUS
 62
     1
100
AcDbVertex
100
AcDb2dVertex
 10
195.8161761917598
 20
152.7411745953619
 30
0.0
  0
VERTEX
  5
48D
330
489
100
AcDbEntity
  8
LAY-1
  6
CONTINUOUS
 62
     1
100
AcDbVertex
100
AcDb2dVertex
 10
195.8161761917598
 20
152.1011745953619
 30
0.0
  0
VERTEX
  5
48E
330
489
100
AcDbEntity
  8
LAY-1
  6
CONTINUOUS
 62
     1
100
AcDbVertex
100
AcDb2dVertex
 10
196.4561761917598
 20
152.1011745953619
 30
0.0
  0
VERTEX
  5
48F
330
489
100
AcDbEntity
  8
LAY-1
  6
CONTINUOUS
 62
     1
100
AcDbVertex
100
AcDb2dVertex
 10
196.4561761917598
 20
152.7411745953619
 30
0.0
  0
SEQEND
  5
490
330
489
100
AcDbEntity
  8
LAY-1
  6
CONTINUOUS
 62
     1
  0
POLYLINE
  5
491
330
1F
100
AcDbEntity
  8
LAY-1
  6
CONTINUOUS
 62
     1
100
AcDb2dPolyline
 66
     1
 10
0.0
 20
0.0
 30
0.0
 70
   128
  0
VERTEX
  5
492
330
491
100
AcDbEntity
  8
LAY-1
  6
CONTINUOUS
 62
     1
100
AcDbVertex
100
AcDb2dVertex
 10
196.4561761917598
 20
157.5411745953619
 30
0.0
  0
VERTEX
  5
493
330
491
100
AcDbEntity
  8
LAY-1
  6
CONTINUOUS
 62
     1
100
AcDbVertex
100
AcDb2dVertex
 10
195.8161761917598
 20
157.5411745953619
 30
0.0
  0
VERTEX
  5
494
330
491
100
AcDbEntity
  8
LAY-1
  6
CONTINUOUS
 62
     1
100
AcDbVertex
100
AcDb2dVertex
 10
195.8161761917598
 20
156.9011745953619
 30
0.0
  0
VERTEX
  5
495
330
491
100
AcDbEntity
  8
LAY-1
  6
CONTINUOUS
 62
     1
100
AcDbVertex
100
AcDb2dVertex
 10
196.4561761917598
 20
156.9011745953619
 30
0.0
  0
VERTEX
  5
496
330
491
100
AcDbEntity
  8
LAY-1
  6
CONTINUOUS
 62
     1
100
AcDbVertex
100
AcDb2dVertex
 10
196.4561761917598
 20
157.5411745953619
 30
0.0
  0
SEQEND
  5
497
330
491
100
AcDbEntity
  8
LAY-1
  6
CONTINUOUS
 62
     1
  0
INSERT
  5
498
330
1F
100
AcDbEntity
  8
LAY-2
  6
CONTINUOUS
 62
     0
100
AcDbBlockReference
  2
SYM-1
 10
366.8718740919379
 20
33.42673500000001
 30
0.0
 41
0.5967000000000001
 42
0.5967000000000001
  0
TEXT
  5
499
330
1F
100
AcDbEntity
  8
LAY-2
  6
CONTINUOUS
 62
     3
100
AcDbText
 10
345.0979200000043
 20
53.51582185378809
 30
0.0
 40
3.180472548526764
  1
２０２１年　３月１２日
 41
1.497553922894604
  7
EXCADSTD
 72
     5
 11
389.3251191729779
 21
53.51582185378809
 31
0.0
100
AcDbText
  0
TEXT
  5
49A
330
1F
100
AcDbEntity
  8
LAY-5
  6
CONTINUOUS
 62
     3
100
AcDbText
 10
167.1307085
 20
147.366918336955
 30
0.0
 40
3.897638
  1
５９
 50
90.0
 41
1.502075219542053
  7
EXCADSTD
 72
     5
 11
167.1307085
 21
156.566918336955
 31
0.0
100
AcDbText
  0
LINE
  5
49B
330
1F
100
AcDbEntity
  8
LAY-5
  6
CONTINUOUS
 62
     1
100
AcDbLine
 10
121.78230295233
 20
181.86691833696
 30
0.0
 11
169.3
 21
181.86691833696
 31
0.0
  0
LINE
  5
49C
330
1F
100
AcDbEntity
  8
LAY-5
  6
CONTINUOUS
 62
     1
100
AcDbLine
 10
121.78230295233
 20
122.86691833695
 30
0.0
 11
169.3
 21
122.86691833695
 31
0.0
  0
LINE
  5
49D
330
1F
100
AcDbEntity
  8
LAY-5
  6
CONTINUOUS
 62
     1
100
AcDbLine
 10
168.8
 20
181.86691833696
 30
0.0
 11
168.8
 21
122.86691833695
 31
0.0
  0
LINE
  5
49E
330
1F
100
AcDbEntity
  8
LAY-5
  6
CONTINUOUS
 62
     1
100
AcDbLine
 10
169.1333333333334
 20
179.86691833696
 30
0.0
 11
168.8
 21
181.86691833696
 31
0.0
  0
LINE
  5
49F
330
1F
100
AcDbEntity
  8
LAY-5
  6
CONTINUOUS
 62
     1
100
AcDbLine
 10
168.8
 20
181.86691833696
 30
0.0
 11
168.4666666666667
 21
179.86691833696
 31
0.0
  0
LINE
  5
4A0
330
1F
100
AcDbEntity
  8
LAY-5
  6
CONTINUOUS
 62
     1
100
AcDbLine
 10
168.4666666666667
 20
124.86691833695
 30
0.0
 11
168.8
 21
122.86691833695
 31
0.0
  0
LINE
  5
4A1
330
1F
100
AcDbEntity
  8
LAY-5
  6
CONTINUOUS
 62
     1
100
AcDbLine
 10
168.8
 20
122.86691833695
 30
0.0
 11
169.1333333333334
 21
124.86691833695
 31
0.0
  0
TEXT
  5
4A2
330
1F
100
AcDbEntity
  8
LAY-5
  6
CONTINUOUS
 62
     3
100
AcDbText
 10
83.23230295231551
 20
92.6692915
 30
0.0
 40
3.897638
  1
１９.６
 41
1.475042148057068
  7
EXCADSTD
 72
     5
 11
99.93230295231551
 21
92.6692915
 31
0.0
100
AcDbText
  0
LINE
  5
4A3
330
1F
100
AcDbEntity
  8
LAY-5
  6
CONTINUOUS
 62
     1
100
AcDbLine
 10
82.18230295230101
 20
136.63379245552
 30
0.0
 11
82.182302952301
 21
90.5
 31
0.0
  0
LINE
  5
4A4
330
1F
100
AcDbEntity
  8
LAY-5
  6
CONTINUOUS
 62
     1
100
AcDbLine
 10
101.78230295233
 20
117.4
 30
0.0
 11
101.78230295233
 21
90.5
 31
0.0
  0
LINE
  5
4A5
330
1F
100
AcDbEntity
  8
LAY-5
  6
CONTINUOUS
 62
     1
100
AcDbLine
 10
82.182302952301
 20
91.0
 30
0.0
 11
101.78230295233
 21
91.0
 31
0.0
  0
LINE
  5
4A6
330
1F
100
AcDbEntity
  8
LAY-5
  6
CONTINUOUS
 62
     1
100
AcDbLine
 10
84.182302952301
 20
91.33333333333333
 30
0.0
 11
82.182302952301
 21
91.0
 31
0.0
  0
LINE
  5
4A7
330
1F
100
AcDbEntity
  8
LAY-5
  6
CONTINUOUS
 62
     1
100
AcDbLine
 10
82.182302952301
 20
91.0
 30
0.0
 11
84.182302952301
 21
90.66666666666667
 31
0.0
  0
LINE
  5
4A8
330
1F
100
AcDbEntity
  8
LAY-5
  6
CONTINUOUS
 62
     1
100
AcDbLine
 10
99.78230295233
 20
90.66666666666667
 30
0.0
 11
101.78230295233
 21
91.0
 31
0.0
  0
LINE
  5
4A9
330
1F
100
AcDbEntity
  8
LAY-5
  6
CONTINUOUS
 62
     1
100
AcDbLine
 10
101.78230295233
 20
91.0
 30
0.0
 11
99.78230295233
 21
91.33333333333333
 31
0.0
  0
TEXT
  5
4AA
330
1F
100
AcDbEntity
  8
LAY-5
  6
CONTINUOUS
 62
     3
100
AcDbText
 10
109.9823029523155
 20
85.1692915
 30
0.0
 40
3.897638
  1
７３.１
 41
1.475042148057068
  7
EXCADSTD
 72
     5
 11
126.6823029523155
 21
85.1692915
 31
0.0
100
AcDbText
  0
LINE
  5
4AB
330
1F
100
AcDbEntity
  8
LAY-5
  6
CONTINUOUS
 62
     1
100
AcDbLine
 10
82.18230295230101
 20
136.63379245552
 30
0.0
 11
82.182302952301
 21
83.0
 31
0.0
  0
LINE
  5
4AC
330
1F
100
AcDbEntity
  8
LAY-5
  6
CONTINUOUS
 62
     1
100
AcDbLine
 10
155.28230295233
 20
141.86691833697
 30
0.0
 11
155.28230295233
 21
83.0
 31
0.0
  0
LINE
  5
4AD
330
1F
100
AcDbEntity
  8
LAY-5
  6
CONTINUOUS
 62
     1
100
AcDbLine
 10
82.182302952301
 20
83.5
 30
0.0
 11
155.28230295233
 21
83.5
 31
0.0
  0
LINE
  5
4AE
330
1F
100
AcDbEntity
  8
LAY-5
  6
CONTINUOUS
 62
     1
100
AcDbLine
 10
84.182302952301
 20
83.83333333333333
 30
0.0
 11
82.182302952301
 21
83.5
 31
0.0
  0
LINE
  5
4AF
330
1F
100
AcDbEntity
  8
LAY-5
  6
CONTINUOUS
 62
     1
100
AcDbLine
 10
82.182302952301
 20
83.5
 30
0.0
 11
84.182302952301
 21
83.16666666666667
 31
0.0
  0
LINE
  5
4B0
330
1F
100
AcDbEntity
  8
LAY-5
  6
CONTINUOUS
 62
     1
100
AcDbLine
 10
153.28230295233
 20
83.16666666666667
 30
0.0
 11
155.28230295233
 21
83.5
 31
0.0
  0
LINE
  5
4B1
330
1F
100
AcDbEntity
  8
LAY-5
  6
CONTINUOUS
 62
     1
100
AcDbLine
 10
155.28230295233
 20
83.5
 30
0.0
 11
153.28230295233
 21
83.83333333333333
 31
0.0
  0
TEXT
  5
4B2
330
1F
100
AcDbEntity
  8
LAY-5
  6
CONTINUOUS
 62
     3
100
AcDbText
 10
73.23070850000002
 20
147.36691833695
 30
0.0
 40
3.897638
  1
６６
 50
90.0
 41
1.502075219542053
  7
EXCADSTD
 72
     5
 11
73.23070850000002
 21
156.56691833695
 31
0.0
100
AcDbText
  0
LINE
  5
4B3
330
1F
100
AcDbEntity
  8
LAY-5
  6
CONTINUOUS
 62
     1
100
AcDbLine
 10
89.282302952328
 20
185.36691833695
 30
0.0
 11
74.4
 21
185.36691833695
 31
0.0
  0
LINE
  5
4B4
330
1F
100
AcDbEntity
  8
LAY-5
  6
CONTINUOUS
 62
     1
100
AcDbLine
 10
89.282302952332
 20
119.36691833695
 30
0.0
 11
74.4
 21
119.36691833695
 31
0.0
  0
LINE
  5
4B5
330
1F
100
AcDbEntity
  8
LAY-5
  6
CONTINUOUS
 62
     1
100
AcDbLine
 10
74.90000000000002
 20
185.36691833695
 30
0.0
 11
74.90000000000002
 21
119.36691833695
 31
0.0
  0
LINE
  5
4B6
330
1F
100
AcDbEntity
  8
LAY-5
  6
CONTINUOUS
 62
     1
100
AcDbLine
 10
75.23333333333333
 20
183.36691833695
 30
0.0
 11
74.9
 21
185.36691833695
 31
0.0
  0
LINE
  5
4B7
330
1F
100
AcDbEntity
  8
LAY-5
  6
CONTINUOUS
 62
     1
100
AcDbLine
 10
74.9
 20
185.36691833695
 30
0.0
 11
74.56666666666668
 21
183.36691833695
 31
0.0
  0
LINE
  5
4B8
330
1F
100
AcDbEntity
  8
LAY-5
  6
CONTINUOUS
 62
     1
100
AcDbLine
 10
74.56666666666668
 20
121.36691833695
 30
0.0
 11
74.9
 21
119.36691833695
 31
0.0
  0
LINE
  5
4B9
330
1F
100
AcDbEntity
  8
LAY-5
  6
CONTINUOUS
 62
     1
100
AcDbLine
 10
74.9
 20
119.36691833695
 30
0.0
 11
75.23333333333333
 21
121.36691833695
 31
0.0
  0
POLYLINE
  5
4BA
330
1F
100
AcDbEntity
  8
LAY-5
  6
CONTINUOUS
 62
     1
100
AcDb2dPolyline
 66
     1
 10
0.0
 20
0.0
 30
0.0
 70
   128
  0
VERTEX
  5
4BB
330
4BA
100
AcDbEntity
  8
LAY-5
  6
CONTINUOUS
 62
     1
100
AcDbVertex
100
AcDb2dVertex
 10
106.3
 20
185.36691833696
 30
0.0
  0
VERTEX
  5
4BC
330
4BA
100
AcDbEntity
  8
LAY-5
  6
CONTINUOUS
 62
     1
100
AcDbVertex
100
AcDb2dVertex
 10
112.71654083152
 20
191.78345916848
 30
0.0
  0
VERTEX
  5
4BD
330
4BA
100
AcDbEntity
  8
LAY-5
  6
CONTINUOUS
 62
     1
100
AcDbVertex
100
AcDb2dVertex
 10
141.9
 20
191.78345916848
 30
0.0
  0
SEQEND
  5
4BE
330
4BA
100
AcDbEntity
  8
LAY-5
  6
CONTINUOUS
 62
     1
  0
LINE
  5
4BF
330
1F
100
AcDbEntity
  8
LAY-5
  6
CONTINUOUS
 62
     1
100
AcDbLine
 10
107.4785113019776
 20
187.0168341597286
 30
0.0
 11
106.3
 21
185.36691833696
 31
0.0
  0
LINE
  5
4C0
330
1F
100
AcDbEntity
  8
LAY-5
  6
CONTINUOUS
 62
     1
100
AcDbLine
 10
106.3
 20
185.36691833696
 30
0.0
 11
107.9499158227687
 21
186.5454296389376
 31
0.0
  0
TEXT
  5
4C1
330
1F
100
AcDbEntity
  8
LAY-5
  6
CONTINUOUS
 62
     3
100
AcDbText
 10
114.70827041576
 20
192.7527506804009
 30
0.0
 40
3.897638
  1
Ｒｃ３／８
 41
1.498697239288212
  7
EXCADSTD
 72
     5
 11
138.90827041576
 21
192.7527506804009
 31
0.0
100
AcDbText
  0
POLYLINE
  5
4C2
330
1F
100
AcDbEntity
  8
LAY-5
  6
CONTINUOUS
 62
     1
100
AcDb2dPolyline
 66
     1
 10
0.0
 20
0.0
 30
0.0
 70
   128
  0
VERTEX
  5
4C3
330
4C2
100
AcDbEntity
  8
LAY-5
  6
CONTINUOUS
 62
     1
100
AcDbVertex
100
AcDb2dVertex
 10
103.7
 20
119.36691833695
 30
0.0
  0
VERTEX
  5
4C4
330
4C2
100
AcDbEntity
  8
LAY-5
  6
CONTINUOUS
 62
     1
100
AcDbVertex
100
AcDb2dVertex
 10
114.08345916848
 20
108.98345916848
 30
0.0
  0
VERTEX
  5
4C5
330
4C2
100
AcDbEntity
  8
LAY-5
  6
CONTINUOUS
 62
     1
100
AcDbVertex
100
AcDb2dVertex
 10
141.9
 20
108.98345916848
 30
0.0
  0
SEQEND
  5
4C6
330
4C2
100
AcDbEntity
  8
LAY-5
  6
CONTINUOUS
 62
     1
  0
LINE
  5
4C7
330
1F
100
AcDbEntity
  8
LAY-5
  6
CONTINUOUS
 62
     1
100
AcDbLine
 10
105.3499158227692
 20
118.1884070349732
 30
0.0
 11
103.7
 21
119.36691833695
 31
0.0
  0
LINE
  5
4C8
330
1F
100
AcDbEntity
  8
LAY-5
  6
CONTINUOUS
 62
     1
100
AcDbLine
 10
103.7
 20
119.36691833695
 30
0.0
 11
104.8785113019784
 21
117.7170025141819
 31
0.0
  0
TEXT
  5
4C9
330
1F
100
AcDbEntity
  8
LAY-5
  6
CONTINUOUS
 62
     3
100
AcDbText
 10
116.49172958424
 20
109.9527506804009
 30
0.0
 40
3.897638
  1
Ｒｃ３／８
 41
1.498697239288211
  7
EXCADSTD
 72
     5
 11
140.69172958424
 21
109.9527506804009
 31
0.0
100
AcDbText
  0
ENDSEC
  0
SECTION
  2
OBJECTS
  0
DICTIONARY
  5
C
330
0
100
AcDbDictionary
  3
ACAD_GROUP
350
D
  3
ACAD_LAYOUT
350
1A
  3
ACAD_MATERIAL
350
43
  3
ACAD_MLEADERSTYLE
350
6B
  3
ACAD_MLINESTYLE
350
17
  3
ACAD_PLOTSETTINGS
350
19
  3
ACAD_SCALELIST
350
47
  3
ACAD_VISUALSTYLE
350
2A
  3
ACDBHEADERROUNDTRIPXREC
350
4CA
  3
ACDBVARIABLEDICTIONARY
350
4EB
  0
DICTIONARY
  5
4F6
330
8
100
AcDbDictionary
280
     1
  3
ACAD_XREC_ROUNDTRIP
360
4F7
  0
DICTIONARY
  5
D
102
{ACAD_REACTORS
330
C
102
}
330
C
100
AcDbDictionary
  0
DICTIONARY
  5
1A
102
{ACAD_REACTORS
330
C
102
}
330
C
100
AcDbDictionary
  0
DICTIONARY
  5
43
102
{ACAD_REACTORS
330
C
102
}
330
C
100
AcDbDictionary
  3
BYBLOCK
350
45
  3
BYLAYER
350
44
  3
GLOBAL
350
46
  0
DICTIONARY
  5
6B
102
{ACAD_REACTORS
330
C
102
}
330
C
100
AcDbDictionary
  3
STANDARD
350
6C
  0
DICTIONARY
  5
17
102
{ACAD_REACTORS
330
C
102
}
330
C
100
AcDbDictionary
  3
STANDARD
350
18
  0
DICTIONARY
  5
19
102
{ACAD_REACTORS
330
C
102
}
330
C
100
AcDbDictionary
  0
DICTIONARY
  5
47
102
{ACAD_REACTORS
330
C
102
}
330
C
100
AcDbDictionary
  3
A0
350
48
  3
A1
350
49
  3
A2
350
4A
  3
A3
350
4B
  3
A4
350
4C
  3
A5
350
4D
  3
A6
350
4E
  3
A7
350
4F
  3
A8
350
50
  3
A9
350
51
  3
B0
350
52
  3
B1
350
53
  3
B2
350
54
  3
B3
350
55
  3
B4
350
56
  3
B5
350
57
  3
B6
350
58
  3
B7
350
59
  3
B8
350
5A
  3
B9
350
5B
  3
C0
350
5C
  3
C1
350
5D
  3
C2
350
5E
  3
C3
350
5F
  3
C4
350
60
  3
C5
350
61
  3
C6
350
62
  3
C7
350
63
  3
C8
350
64
  3
C9
350
65
  3
D0
350
66
  3
D1
350
67
  3
D2
350
68
  0
DICTIONARY
  5
2A
102
{ACAD_REACTORS
330
C
102
}
330
C
100
AcDbDictionary
  3
2DWIREFRAME
350
2F
  3
BASIC
350
32
  3
BRIGHTEN
350
36
  3
COLORCHANGE
350
3A
  3
CONCEPTUAL
350
34
  3
DIM
350
35
  3
EDGECOLOROFF
350
3D
  3
FACEPATTERN
350
39
  3
FLAT
350
2B
  3
FLATWITHEDGES
350
2C
  3
GOURAUD
350
2D
  3
GOURAUDWITHEDGES
350
2E
  3
HIDDEN
350
31
  3
JITTEROFF
350
3B
  3
LINEPATTERN
350
38
  3
OVERHANGOFF
350
3C
  3
REALISTIC
350
33
  3
SHADED
350
42
  3
SHADED_WITH_EDGES
350
41
  3
SHADES_OF_GRAY
350
3E
  3
SKETCHY
350
3F
  3
THICKEN
350
37
  3
WIREFRAME
350
30
  3
X-RAY
350
40
  0
DICTIONARY
  5
4CA
102
{ACAD_REACTORS
330
C
102
}
330
C
100
AcDbDictionary
  3
CEPSNID
350
4D4
  3
CEPSNTYPE
350
4D3
  3
DIMSTYLEDATA
350
4EA
  3
FINGERPRINTGUID
350
4D5
  3
HYPERLINKBASE
350
4CD
  3
INSUNITS
350
4D2
  3
LAYOUTDICT
350
4CF
  3
LWETCUNION
350
4D1
  3
PLOTSETDICT
350
4D0
  3
PSVPSCALE
350
4D7
  3
PUCSBASE
350
4DA
  3
PUCSORGBACK
350
4E0
  3
PUCSORGBOTTOM
350
4DC
  3
PUCSORGFRONT
350
4DF
  3
PUCSORGLEFT
350
4DD
  3
PUCSORGRIGHT
350
4DE
  3
PUCSORGTOP
350
4DB
  3
PUCSORTHOREF
350
4D8
  3
PUCSORTHOVIEW
350
4D9
  3
STYLESHEET
350
4CE
  3
TSTACKALIGN
350
4CB
  3
TSTACKSIZE
350
4CC
  3
UCSBASE
350
4E3
  3
UCSORGBACK
350
4E9
  3
UCSORGBOTTOM
350
4E5
  3
UCSORGFRONT
350
4E8
  3
UCSORGLEFT
350
4E6
  3
UCSORGRIGHT
350
4E7
  3
UCSORGTOP
350
4E4
  3
UCSORTHOREF
350
4E1
  3
UCSORTHOVIEW
350
4E2
  3
VERSIONGUID
350
4D6
  0
DICTIONARY
  5
4EB
102
{ACAD_REACTORS
330
C
102
}
330
C
100
AcDbDictionary
  3
CANNOSCALE
350
4F8
  3
CENTEREXE
350
4F2
  3
CENTERLTYPEFILE
350
4F3
  3
CMLEADERSTYLE
350
4ED
  3
CTABLESTYLE
350
4EC
  3
DIMASSOC
350
4F4
  3
HIDETEXT
350
4F5
  3
MSLTSCALE
350
4F9
  3
PSOLHEIGHT
350
4EF
  3
PSOLWIDTH
350
4EE
  0
XRECORD
  5
4F7
102
{ACAD_REACTORS
330
4F6
102
}
330
4F6
100
AcDbXrecord
102
VTR_0.000_0.000_1.000_1.000_VISUALSTYLE
340
2F
102
VTR_0.000_0.000_1.000_1.000_GRIDDISPLAY
 70
     3
102
VTR_0.000_0.000_1.000_1.000_GRIDMAJOR
 70
     5
102
VTR_0.000_0.000_1.000_1.000_DEFAULTLIGHTING
280
     1
102
VTR_0.000_0.000_1.000_1.000_DEFAULTLIGHTINGTYPE
 70
     1
102
VTR_0.000_0.000_1.000_1.000_BRIGHTNESS
141
0.0
102
VTR_0.000_0.000_1.000_1.000_CONTRAST
142
0.0
  0
MATERIAL
  5
45
102
{ACAD_REACTORS
330
43
102
}
102
{ACAD_XDICTIONARY
360
4FC
102
}
330
43
100
AcDbMaterial
  1
BYBLOCK
  0
MATERIAL
  5
44
102
{ACAD_REACTORS
330
43
102
}
102
{ACAD_XDICTIONARY
360
4FA
102
}
330
43
100
AcDbMaterial
  1
BYLAYER
  0
MATERIAL
  5
46
102
{ACAD_REACTORS
330
43
102
}
102
{ACAD_XDICTIONARY
360
4FE
102
}
330
43
100
AcDbMaterial
  1
GLOBAL
  0
ACAD_PROXY_OBJECT
  5
6C
102
{ACAD_REACTORS
330
6B
102
}
330
6B
100
AcDbProxyObject
 90
      499
 91
      505
 93
      610
310
40901902A4063FBFFFFFE0000000000000020400000000000020404214DD185B99185C990000000000000104090141901A00000000000004100000000000000041025764000000000000039000
340
14
340
0
340
11
340
0
 94
        0
1001
ACAD_MLEADERVER
1070
     2
  0
MLINESTYLE
  5
18
102
{ACAD_REACTORS
330
17
102
}
330
17
100
AcDbMlineStyle
  2
Standard
 70
     0
  3

 62
   256
 51
90.0
 52
90.0
 71
     2
 49
0.5
 62
   256
  6
BYLAYER
 49
-0.5
 62
   256
  6
BYLAYER
  0
ACAD_PROXY_OBJECT
  5
48
102
{ACAD_REACTORS
330
47
102
}
330
47
100
AcDbProxyObject
 90
      499
 91
      503
 93
       41
310
903313A31580
  0
ACAD_PROXY_OBJECT
  5
49
102
{ACAD_REACTORS
330
47
102
}
330
47
100
AcDbProxyObject
 90
      499
 91
      503
 93
      105
310
903313A324000000000000004000
  0
ACAD_PROXY_OBJECT
  5
4A
102
{ACAD_REACTORS
330
47
102
}
330
47
100
AcDbProxyObject
 90
      499
 91
      503
 93
      105
310
903313A344000000000000104000
  0
ACAD_PROXY_OBJECT
  5
4B
102
{ACAD_REACTORS
330
47
102
}
330
47
100
AcDbProxyObject
 90
      499
 91
      503
 93
      105
310
903313A354000000000000144000
  0
ACAD_PROXY_OBJECT
  5
4C
102
{ACAD_REACTORS
330
47
102
}
330
47
100
AcDbProxyObject
 90
      499
 91
      503
 93
      105
310
903313A384000000000000204000
  0
ACAD_PROXY_OBJECT
  5
4D
102
{ACAD_REACTORS
330
47
102
}
330
47
100
AcDbProxyObject
 90
      499
 91
      503
 93
      113
310
904313A31304000000000000244000
  0
ACAD_PROXY_OBJECT
  5
4E
102
{ACAD_REACTORS
330
47
102
}
330
47
100
AcDbProxyObject
 90
      499
 91
      503
 93
      113
310
904313A31364000000000000304000
  0
ACAD_PROXY_OBJECT
  5
4F
102
{ACAD_REACTORS
330
47
102
}
330
47
100
AcDbProxyObject
 90
      499
 91
      503
 93
      113
310
904313A32304000000000000344000
  0
ACAD_PROXY_OBJECT
  5
50
102
{ACAD_REACTORS
330
47
102
}
330
47
100
AcDbProxyObject
 90
      499
 91
      503
 93
      113
310
904313A333040000000000003E4000
  0
ACAD_PROXY_OBJECT
  5
51
102
{ACAD_REACTORS
330
47
102
}
330
47
100
AcDbProxyObject
 90
      499
 91
      503
 93
      113
310
904313A34304000000000000444000
  0
ACAD_PROXY_OBJECT
  5
52
102
{ACAD_REACTORS
330
47
102
}
330
47
100
AcDbProxyObject
 90
      499
 91
      503
 93
      113
310
904313A35304000000000000494000
  0
ACAD_PROXY_OBJECT
  5
53
102
{ACAD_REACTORS
330
47
102
}
330
47
100
AcDbProxyObject
 90
      499
 91
      503
 93
      121
310
905313A3130304000000000000594000
  0
ACAD_PROXY_OBJECT
  5
54
102
{ACAD_REACTORS
330
47
102
}
330
47
100
AcDbProxyObject
 90
      499
 91
      503
 93
      105
310
903323A310000000000000010100
  0
ACAD_PROXY_OBJECT
  5
55
102
{ACAD_REACTORS
330
47
102
}
330
47
100
AcDbProxyObject
 90
      499
 91
      503
 93
      105
310
903343A310000000000000410100
  0
ACAD_PROXY_OBJECT
  5
56
102
{ACAD_REACTORS
330
47
102
}
330
47
100
AcDbProxyObject
 90
      499
 91
      503
 93
      105
310
903383A310000000000000810100
  0
ACAD_PROXY_OBJECT
  5
57
102
{ACAD_REACTORS
330
47
102
}
330
47
100
AcDbProxyObject
 90
      499
 91
      503
 93
      113
310
90431303A310000000000000910100
  0
ACAD_PROXY_OBJECT
  5
58
102
{ACAD_REACTORS
330
47
102
}
330
47
100
AcDbProxyObject
 90
      499
 91
      503
 93
      121
310
9053130303A310000000000001650100
  0
ACAD_PROXY_OBJECT
  5
59
102
{ACAD_REACTORS
330
47
102
}
330
47
100
AcDbProxyObject
 90
      499
 91
      503
 93
      257
310
90E312F31323822203D2031272D3022000000000000200FC000000000000284000
  0
ACAD_PROXY_OBJECT
  5
5A
102
{ACAD_REACTORS
330
47
102
}
330
47
100
AcDbProxyObject
 90
      499
 91
      503
 93
      249
310
90D312F363422203D2031272D3022000000000000240FC000000000000284000
  0
ACAD_PROXY_OBJECT
  5
5B
102
{ACAD_REACTORS
330
47
102
}
330
47
100
AcDbProxyObject
 90
      499
 91
      503
 93
      249
310
90D312F333222203D2031272D3022000000000000280FC000000000000284000
  0
ACAD_PROXY_OBJECT
  5
5C
102
{ACAD_REACTORS
330
47
102
}
330
47
100
AcDbProxyObject
 90
      499
 91
      503
 93
      249
310
90D312F313622203D2031272D30220000000000002C0FC000000000000284000
  0
ACAD_PROXY_OBJECT
  5
5D
102
{ACAD_REACTORS
330
47
102
}
330
47
100
AcDbProxyObject
 90
      499
 91
      503
 93
      249
310
90D332F333222203D2031272D30220000000000002E0FC000000000000284000
  0
ACAD_PROXY_OBJECT
  5
5E
102
{ACAD_REACTORS
330
47
102
}
330
47
100
AcDbProxyObject
 90
      499
 91
      503
 93
      241
310
90C312F3822203D2031272D3022000000000000300FC000000000000284000
  0
ACAD_PROXY_OBJECT
  5
5F
102
{ACAD_REACTORS
330
47
102
}
330
47
100
AcDbProxyObject
 90
      499
 91
      503
 93
      249
310
90D332F313622203D2031272D3022000000000000320FC000000000000284000
  0
ACAD_PROXY_OBJECT
  5
60
102
{ACAD_REACTORS
330
47
102
}
330
47
100
AcDbProxyObject
 90
      499
 91
      503
 93
      241
310
90C312F3422203D2031272D3022000000000000340FC000000000000284000
  0
ACAD_PROXY_OBJECT
  5
61
102
{ACAD_REACTORS
330
47
102
}
330
47
100
AcDbProxyObject
 90
      499
 91
      503
 93
      241
310
90C332F3822203D2031272D3022000000000000360FC000000000000284000
  0
ACAD_PROXY_OBJECT
  5
62
102
{ACAD_REACTORS
330
47
102
}
330
47
100
AcDbProxyObject
 90
      499
 91
      503
 93
      241
310
90C312F3222203D2031272D3022000000000000380FC000000000000284000
  0
ACAD_PROXY_OBJECT
  5
63
102
{ACAD_REACTORS
330
47
102
}
330
47
100
AcDbProxyObject
 90
      499
 91
      503
 93
      241
310
90C332F3422203D2031272D30220000000000003A0FC000000000000284000
  0
ACAD_PROXY_OBJECT
  5
64
102
{ACAD_REACTORS
330
47
102
}
330
47
100
AcDbProxyObject
 90
      499
 91
      503
 93
      161
310
90A3122203D2031272D30224000000000000284000
  0
ACAD_PROXY_OBJECT
  5
65
102
{ACAD_REACTORS
330
47
102
}
330
47
100
AcDbProxyObject
 90
      499
 91
      503
 93
      257
310
90E312D312F3222203D2031272D30220000000000003E0FC000000000000284000
  0
ACAD_PROXY_OBJECT
  5
66
102
{ACAD_REACTORS
330
47
102
}
330
47
100
AcDbProxyObject
 90
      499
 91
      503
 93
      225
310
90A3322203D2031272D302200000000000002100000000000000284000
  0
ACAD_PROXY_OBJECT
  5
67
102
{ACAD_REACTORS
330
47
102
}
330
47
100
AcDbProxyObject
 90
      499
 91
      503
 93
      225
310
90A3622203D2031272D302200000000000006100000000000000284000
  0
ACAD_PROXY_OBJECT
  5
68
102
{ACAD_REACTORS
330
47
102
}
330
47
100
AcDbProxyObject
 90
      499
 91
      503
 93
      249
310
90D31272D3022203D2031272D30220000000000000A100000000000000284000
  0
ACAD_PROXY_OBJECT
  5
2F
102
{ACAD_REACTORS
330
2A
102
}
330
2A
100
AcDbProxyObject
 90
      499
 91
      501
 93
      436
310
42CC9915DA5C99599C985B595049028333333333333E33F0000000000000F90107901411070040501600405405064090741402480A0340
1001
ACAD
1000
AcDbSavedByObjectVersion
1070
     0
  0
ACAD_PROXY_OBJECT
  5
32
102
{ACAD_REACTORS
330
2A
102
}
330
2A
100
AcDbProxyObject
 90
      499
 91
      501
 93
      388
310
4150985CDA58D07406404333333333333E33F0000000000000F90107A41107004050150841D405064090741402480A0350
1001
ACAD
1000
AcDbSavedByObjectVersion
1070
     0
  0
ACAD_PROXY_OBJECT
  5
36
102
{ACAD_REACTORS
330
2A
102
}
330
2A
100
AcDbProxyObject
 90
      499
 91
      501
 93
      428
310
42109C9A59DA1D195B90C409028333333333333E33F0000000000000F9010790141107004050150841D405064090741402480A029950
1001
ACAD
1000
AcDbSavedByObjectVersion
1070
     0
  0
ACAD_PROXY_OBJECT
  5
3A
102
{ACAD_REACTORS
330
2A
102
}
330
2A
100
AcDbProxyObject
 90
      499
 91
      501
 93
      452
310
42D0DBDB1BDC90DA185B99D95104090240C333333333333E33F0000000000000F90108901411070040501508421405064090741402480A0350
1001
ACAD
1000
AcDbSavedByObjectVersion
1070
     0
  0
ACAD_PROXY_OBJECT
  5
34
102
{ACAD_REACTORS
330
2A
102
}
330
2A
100
AcDbProxyObject
 90
      499
 91
      501
 93
      500
310
4290DBDB98D95C1D1D585B10940D028333333333333E33F0000000000000F90107902409070040501000000000018199010841D405064090740C02480A0340
1001
ACAD
1000
AcDbSavedByObjectVersion
1070
     0
  0
ACAD_PROXY_OBJECT
  5
35
102
{ACAD_REACTORS
330
2A
102
}
330
2A
100
AcDbProxyObject
 90
      499
 91
      501
 93
      412
310
40D11A5B50B409028333333333333E33F0000000000000F9010790141107004050150841D405064090741402480A02677FFFFFD0
1001
ACAD
1000
AcDbSavedByObjectVersion
1070
     0
  0
ACAD_PROXY_OBJECT
  5
3D
102
{ACAD_REACTORS
330
2A
102
}
330
2A
100
AcDbProxyObject
 90
      499
 91
      501
 93
      452
310
43115919D950DBDB1BDC93D999916409028333333333333E33F0000000000000F9010790141107004050150841D405064090741402480A0350
1001
ACAD
1000
AcDbSavedByObjectVersion
1070
     0
  0
ACAD_PROXY_OBJECT
  5
39
102
{ACAD_REACTORS
330
2A
102
}
330
2A
100
AcDbProxyObject
 90
      499
 91
      501
 93
      444
310
42D19858D95C185D1D195C9B90F409028333333333333E33F0000000000000F9010790141107004050150841D405064090741402480A0350
1001
ACAD
1000
AcDbSavedByObjectVersion
1070
     0
  0
ACAD_PROXY_OBJECT
  5
2B
102
{ACAD_REACTORS
330
2A
102
}
330
2A
100
AcDbProxyObject
 90
      499
 91
      501
 93
      380
310
41119B185D240901404333333333333E33F0000000000000F9010740A907004050150841D405064090741402480A1B50
1001
ACAD
1000
AcDbSavedByObjectVersion
1070
     0
  0
ACAD_PROXY_OBJECT
  5
2C
102
{ACAD_REACTORS
330
2A
102
}
330
2A
100
AcDbProxyObject
 90
      499
 91
      501
 93
      468
310
43519B185D15DA5D1A115919D95CD0140901404333333333333E33F0000000000000F90107409019070040501600405405064090741402480A1B50
1001
ACAD
1000
AcDbSavedByObjectVersion
1070
     0
  0
ACAD_PROXY_OBJECT
  5
2D
102
{ACAD_REACTORS
330
2A
102
}
330
2A
100
AcDbProxyObject
 90
      499
 91
      501
 93
      404
310
41D1DBDD5C985D5910240902404333333333333E33F0000000000000F9010740A9070040501641D405064090741402480A1B50
1001
ACAD
1000
AcDbSavedByObjectVersion
1070
     0
  0
ACAD_PROXY_OBJECT
  5
2E
102
{ACAD_REACTORS
330
2A
102
}
330
2A
100
AcDbProxyObject
 90
      499
 91
      501
 93
      492
310
4411DBDD5C985D5915DA5D1A115919D95CD0340902404333333333333E33F0000000000000F90107409019070040501600405405064090741402480A1B50
1001
ACAD
1000
AcDbSavedByObjectVersion
1070
     0
  0
ACAD_PROXY_OBJECT
  5
31
102
{ACAD_REACTORS
330
2A
102
}
330
2A
100
AcDbProxyObject
 90
      499
 91
      501
 93
      476
310
41921A5919195B90640502408333333333333E33F0000000000000F901079024090700405020000000000001110200405405064090740C02480A0340
1001
ACAD
1000
AcDbSavedByObjectVersion
1070
     0
  0
ACAD_PROXY_OBJECT
  5
3B
102
{ACAD_REACTORS
330
2A
102
}
330
2A
100
AcDbProxyObject
 90
      499
 91
      501
 93
      428
310
42529A5D1D195C93D999914409028333333333333E33F0000000000000F9010790141107004050150A41D405064090741402480A0350
1001
ACAD
1000
AcDbSavedByObjectVersion
1070
     0
  0
ACAD_PROXY_OBJECT
  5
38
102
{ACAD_REACTORS
330
2A
102
}
330
2A
100
AcDbProxyObject
 90
      499
 91
      501
 93
      444
310
42D31A5B995C185D1D195C9B90E409028333333333333E33F0000000000000F9010790141107004050750841D405064090741402483A0350
1001
ACAD
1000
AcDbSavedByObjectVersion
1070
     0
  0
ACAD_PROXY_OBJECT
  5
3C
102
{ACAD_REACTORS
330
2A
102
}
330
2A
100
AcDbProxyObject
 90
      499
 91
      501
 93
      444
310
42D3DD995C9A185B99D3D999915409028333333333333E33F0000000000000F9010790141107004050150941D405064090741402480A0350
1001
ACAD
1000
AcDbSavedByObjectVersion
1070
     0
  0
ACAD_PROXY_OBJECT
  5
33
102
{ACAD_REACTORS
330
2A
102
}
330
2A
100
AcDbProxyObject
 90
      499
 91
      501
 93
      428
310
425499585B1A5CDD1A58D08409038333333333333E33F0000000000000F9010740A907004050150800405405064090740C02480A1B40
1001
ACAD
1000
AcDbSavedByObjectVersion
1070
     0
  0
ACAD_PROXY_OBJECT
  5
42
102
{ACAD_REACTORS
330
2A
102
}
330
2A
100
AcDbProxyObject
 90
      499
 91
      501
 93
      420
310
4194DA1859195911B40902404333333333333E33F0000000000000F9010740A41107004050150800405405064090840C02480A0B40
1001
ACAD
1000
AcDbSavedByObjectVersion
1070
     0
  0
ACAD_PROXY_OBJECT
  5
41
102
{ACAD_REACTORS
330
2A
102
}
330
2A
100
AcDbProxyObject
 90
      499
 91
      501
 93
      516
310
4454DA18591959081DDA5D1A08195919D95CD1A40902404333333333333E33F0000000000000F901074090142907004050250800405405064090740C02480A0B40
1001
ACAD
1000
AcDbSavedByObjectVersion
1070
     0
  0
ACAD_PROXY_OBJECT
  5
3E
102
{ACAD_REACTORS
330
2A
102
}
330
2A
100
AcDbProxyObject
 90
      499
 91
      501
 93
      532
310
4394DA1859195CC81BD98811DC985E5174090240C333333333333E33F0000000000000F901079024090741D01000000000000111010841D405064090740C02480A0340
1001
ACAD
1000
AcDbSavedByObjectVersion
1070
     0
  0
ACAD_PROXY_OBJECT
  5
3F
102
{ACAD_REACTORS
330
2A
102
}
330
2A
100
AcDbProxyObject
 90
      499
 91
      501
 93
      476
310
41D4DAD95D18DA1E51840502408333333333333E33F0000000000000F901079024090741D01000000000000111010B41D405064090741802480A0340
1001
ACAD
1000
AcDbSavedByObjectVersion
1070
     0
  0
ACAD_PROXY_OBJECT
  5
37
102
{ACAD_REACTORS
330
2A
102
}
330
2A
100
AcDbProxyObject
 90
      499
 91
      501
 93
      412
310
41D51A1A58DAD95B90D409028333333333333E33F0000000000000F9010790141107004050150C41D405064090741402480A0350
1001
ACAD
1000
AcDbSavedByObjectVersion
1070
     0
  0
ACAD_PROXY_OBJECT
  5
30
102
{ACAD_REACTORS
330
2A
102
}
330
2A
100
AcDbProxyObject
 90
      499
 91
      501
 93
      420
310
4255DA5C99599C985B595059028333333333333E33F0000000000000F90107901411070040501600405405064090740C02480A0340
1001
ACAD
1000
AcDbSavedByObjectVersion
1070
     0
  0
ACAD_PROXY_OBJECT
  5
40
102
{ACAD_REACTORS
330
2A
102
}
330
2A
100
AcDbProxyObject
 90
      499
 91
      501
 93
      404
310
41560B54985E51940902404000000000000E03F0000000000000F9010740501907004050150841D405064090740C02480A1B40
1001
ACAD
1000
AcDbSavedByObjectVersion
1070
     0
  0
XRECORD
  5
4D4
102
{ACAD_REACTORS
330
4CA
102
}
330
4CA
100
AcDbXrecord
340
0
  0
XRECORD
  5
4D3
102
{ACAD_REACTORS
330
4CA
102
}
330
4CA
100
AcDbXrecord
 90
        0
  0
XRECORD
  5
4EA
102
{ACAD_REACTORS
330
4CA
102
}
330
4CA
100
AcDbXrecord
1000
DSTYLE
1002
{
1070
   340
340
11
1002
}
  0
XRECORD
  5
4D5
102
{ACAD_REACTORS
330
4CA
102
}
330
4CA
100
AcDbXrecord
  1
{3459cd05-e1da-433f-b706-3c7e8e7a689a}
  0
XRECORD
  5
4CD
102
{ACAD_REACTORS
330
4CA
102
}
330
4CA
100
AcDbXrecord
  1

  0
XRECORD
  5
4D2
102
{ACAD_REACTORS
330
4CA
102
}
330
4CA
100
AcDbXrecord
 90
        4
  0
XRECORD
  5
4CF
102
{ACAD_REACTORS
330
4CA
102
}
330
4CA
100
AcDbXrecord
340
1A
  0
XRECORD
  5
4D1
102
{ACAD_REACTORS
330
4CA
102
}
330
4CA
100
AcDbXrecord
 90
    10781
  0
XRECORD
  5
4D0
102
{ACAD_REACTORS
330
4CA
102
}
330
4CA
100
AcDbXrecord
340
19
  0
XRECORD
  5
4D7
102
{ACAD_REACTORS
330
4CA
102
}
330
4CA
100
AcDbXrecord
 40
0.0
  0
XRECORD
  5
4DA
102
{ACAD_REACTORS
330
4CA
102
}
330
4CA
100
AcDbXrecord
340
0
  0
XRECORD
  5
4E0
102
{ACAD_REACTORS
330
4CA
102
}
330
4CA
100
AcDbXrecord
 10
0.0
 20
0.0
 30
0.0
  0
XRECORD
  5
4DC
102
{ACAD_REACTORS
330
4CA
102
}
330
4CA
100
AcDbXrecord
 10
0.0
 20
0.0
 30
0.0
  0
XRECORD
  5
4DF
102
{ACAD_REACTORS
330
4CA
102
}
330
4CA
100
AcDbXrecord
 10
0.0
 20
0.0
 30
0.0
  0
XRECORD
  5
4DD
102
{ACAD_REACTORS
330
4CA
102
}
330
4CA
100
AcDbXrecord
 10
0.0
 20
0.0
 30
0.0
  0
XRECORD
  5
4DE
102
{ACAD_REACTORS
330
4CA
102
}
330
4CA
100
AcDbXrecord
 10
0.0
 20
0.0
 30
0.0
  0
XRECORD
  5
4DB
102
{ACAD_REACTORS
330
4CA
102
}
330
4CA
100
AcDbXrecord
 10
0.0
 20
0.0
 30
0.0
  0
XRECORD
  5
4D8
102
{ACAD_REACTORS
330
4CA
102
}
330
4CA
100
AcDbXrecord
340
0
  0
XRECORD
  5
4D9
102
{ACAD_REACTORS
330
4CA
102
}
330
4CA
100
AcDbXrecord
 70
     0
  0
XRECORD
  5
4CE
102
{ACAD_REACTORS
330
4CA
102
}
330
4CA
100
AcDbXrecord
  1

  0
XRECORD
  5
4CB
102
{ACAD_REACTORS
330
4CA
102
}
330
4CA
100
AcDbXrecord
 90
        1
  0
XRECORD
  5
4CC
102
{ACAD_REACTORS
330
4CA
102
}
330
4CA
100
AcDbXrecord
 90
       70
  0
XRECORD
  5
4E3
102
{ACAD_REACTORS
330
4CA
102
}
330
4CA
100
AcDbXrecord
340
0
  0
XRECORD
  5
4E9
102
{ACAD_REACTORS
330
4CA
102
}
330
4CA
100
AcDbXrecord
 10
0.0
 20
0.0
 30
0.0
  0
XRECORD
  5
4E5
102
{ACAD_REACTORS
330
4CA
102
}
330
4CA
100
AcDbXrecord
 10
0.0
 20
0.0
 30
0.0
  0
XRECORD
  5
4E8
102
{ACAD_REACTORS
330
4CA
102
}
330
4CA
100
AcDbXrecord
 10
0.0
 20
0.0
 30
0.0
  0
XRECORD
  5
4E6
102
{ACAD_REACTORS
330
4CA
102
}
330
4CA
100
AcDbXrecord
 10
0.0
 20
0.0
 30
0.0
  0
XRECORD
  5
4E7
102
{ACAD_REACTORS
330
4CA
102
}
330
4CA
100
AcDbXrecord
 10
0.0
 20
0.0
 30
0.0
  0
XRECORD
  5
4E4
102
{ACAD_REACTORS
330
4CA
102
}
330
4CA
100
AcDbXrecord
 10
0.0
 20
0.0
 30
0.0
  0
XRECORD
  5
4E1
102
{ACAD_REACTORS
330
4CA
102
}
330
4CA
100
AcDbXrecord
340
0
  0
XRECORD
  5
4E2
102
{ACAD_REACTORS
330
4CA
102
}
330
4CA
100
AcDbXrecord
 70
     0
  0
XRECORD
  5
4D6
102
{ACAD_REACTORS
330
4CA
102
}
330
4CA
100
AcDbXrecord
  1
{FAEB1C32-E019-11D5-929B-00C0DF256EC4}
  0
DICTIONARYVAR
  5
4F8
102
{ACAD_REACTORS
330
4EB
102
}
330
4EB
100
DictionaryVariables
280
     0
  1
1:1
  0
DICTIONARYVAR
  5
4F2
102
{ACAD_REACTORS
330
4EB
102
}
330
4EB
100
DictionaryVariables
280
     0
  1
3.500000
  0
DICTIONARYVAR
  5
4F3
102
{ACAD_REACTORS
330
4EB
102
}
330
4EB
100
DictionaryVariables
280
     0
  1
acadiso.lin
  0
DICTIONARYVAR
  5
4ED
102
{ACAD_REACTORS
330
4EB
102
}
330
4EB
100
DictionaryVariables
280
     0
  1
Standard
  0
DICTIONARYVAR
  5
4EC
102
{ACAD_REACTORS
330
4EB
102
}
330
4EB
100
DictionaryVariables
280
     0
  1
Standard
  0
DICTIONARYVAR
  5
4F4
102
{ACAD_REACTORS
330
4EB
102
}
330
4EB
100
DictionaryVariables
280
     0
  1
2
  0
DICTIONARYVAR
  5
4F5
102
{ACAD_REACTORS
330
4EB
102
}
330
4EB
100
DictionaryVariables
280
     0
  1
1
  0
DICTIONARYVAR
  5
4F9
102
{ACAD_REACTORS
330
4EB
102
}
330
4EB
100
DictionaryVariables
280
     0
  1
1
  0
DICTIONARYVAR
  5
4EF
102
{ACAD_REACTORS
330
4EB
102
}
330
4EB
100
DictionaryVariables
280
     0
  1
80.000000
  0
DICTIONARYVAR
  5
4EE
102
{ACAD_REACTORS
330
4EB
102
}
330
4EB
100
DictionaryVariables
280
     0
  1
5.000000
  0
DICTIONARY
  5
4FC
330
45
100
AcDbDictionary
280
     1
  3
ACAD_XREC_ROUNDTRIP
360
4FD
  0
DICTIONARY
  5
4FA
330
44
100
AcDbDictionary
280
     1
  3
ACAD_XREC_ROUNDTRIP
360
4FB
  0
DICTIONARY
  5
4FE
330
46
100
AcDbDictionary
280
     1
  3
ACAD_XREC_ROUNDTRIP
360
4FF
  0
XRECORD
  5
4FD
102
{ACAD_REACTORS
330
4FC
102
}
330
4FC
100
AcDbXrecord
102
MATERIAL
148
0.0
149
0.0
149
0.0
 93
        0
 94
      127
282
     0
 72
     1
 77
     1
171
     1
175
     1
179
     1
273
     0
  0
XRECORD
  5
4FB
102
{ACAD_REACTORS
330
4FA
102
}
330
4FA
100
AcDbXrecord
102
MATERIAL
148
0.0
149
0.0
149
0.0
 93
        0
 94
      127
282
     0
 72
     1
 77
     1
171
     1
175
     1
179
     1
273
     0
  0
XRECORD
  5
4FF
102
{ACAD_REACTORS
330
4FE
102
}
330
4FE
100
AcDbXrecord
102
MATERIAL
148
0.0
149
0.0
149
0.0
 93
        0
 94
      127
282
     0
 72
     1
 77
     1
171
     1
175
     1
179
     1
273
     0
  0
ENDSEC
  0
EOF
