  0
SECTION
  2
HEADER
  9
$ACADVER
  1
AC1014
  9
$ACADMAINTVER
 70
     0
  9
$DWGCODEPAGE
  3
ANSI_932
  9
$INSBASE
 10
0.0
 20
0.0
 30
0.0
  9
$EXTMIN
 10
-43.0
 20
-77.9
 30
0.0
  9
$EXTMAX
 10
435.8
 20
368.7
 30
0.0
  9
$LIMMIN
 10
0.0
 20
0.0
  9
$LIMMAX
 10
420.0
 20
297.0
  9
$ORTHOMODE
 70
     0
  9
$REGENMODE
 70
     1
  9
$FILLMODE
 70
     1
  9
$QTEXTMODE
 70
     0
  9
$MIRRTEXT
 70
     1
  9
$DRAGMODE
 70
     2
  9
$LTSCALE
 40
1.0
  9
$OSMODE
 70
     0
  9
$ATTMODE
 70
     1
  9
$TEXTSIZE
 40
0.2
  9
$TRACEWID
 40
0.05
  9
$TEXTSTYLE
  7
STANDARD
  9
$CLAYER
  8
LAY-1
  9
$CELTYPE
  6
CONTINUOUS
  9
$CECOLOR
 62
   256
  9
$CELTSCALE
 40
1.0
  9
$DELOBJ
 70
     1
  9
$DISPSILH
 70
     0
  9
$DIMSCALE
 40
1.0
  9
$DIMASZ
 40
0.18
  9
$DIMEXO
 40
0.0625
  9
$DIMDLI
 40
0.38
  9
$DIMRND
 40
0.0
  9
$DIMDLE
 40
0.0
  9
$DIMEXE
 40
0.18
  9
$DIMTP
 40
0.0
  9
$DIMTM
 40
0.0
  9
$DIMTXT
 40
0.18
  9
$DIMCEN
 40
0.09
  9
$DIMTSZ
 40
0.0
  9
$DIMTOL
 70
     0
  9
$DIMLIM
 70
     0
  9
$DIMTIH
 70
     1
  9
$DIMTOH
 70
     1
  9
$DIMSE1
 70
     0
  9
$DIMSE2
 70
     0
  9
$DIMTAD
 70
     0
  9
$DIMZIN
 70
     0
  9
$DIMBLK
  1

  9
$DIMASO
 70
     1
  9
$DIMSHO
 70
     1
  9
$DIMPOST
  1

  9
$DIMAPOST
  1

  9
$DIMALT
 70
     0
  9
$DIMALTD
 70
     2
  9
$DIMALTF
 40
25.4
  9
$DIMLFAC
 40
1.0
  9
$DIMTOFL
 70
     0
  9
$DIMTVP
 40
0.0
  9
$DIMTIX
 70
     0
  9
$DIMSOXD
 70
     0
  9
$DIMSAH
 70
     0
  9
$DIMBLK1
  1

  9
$DIMBLK2
  1

  9
$DIMSTYLE
  2
STANDARD
  9
$DIMCLRD
 70
     0
  9
$DIMCLRE
 70
     0
  9
$DIMCLRT
 70
     0
  9
$DIMTFAC
 40
1.0
  9
$DIMGAP
 40
0.09
  9
$DIMJUST
 70
     0
  9
$DIMSD1
 70
     0
  9
$DIMSD2
 70
     0
  9
$DIMTOLJ
 70
     1
  9
$DIMTZIN
 70
     0
  9
$DIMALTZ
 70
     0
  9
$DIMALTTZ
 70
     0
  9
$DIMFIT
 70
     3
  9
$DIMUPT
 70
     0
  9
$DIMUNIT
 70
     2
  9
$DIMDEC
 70
     4
  9
$DIMTDEC
 70
     4
  9
$DIMALTU
 70
     2
  9
$DIMALTTD
 70
     2
  9
$DIMTXSTY
  7
STANDARD
  9
$DIMAUNIT
 70
     0
  9
$LUNITS
 70
     2
  9
$LUPREC
 70
     4
  9
$SKETCHINC
 40
0.1
  9
$FILLETRAD
 40
0.0
  9
$AUNITS
 70
     0
  9
$AUPREC
 70
     0
  9
$MENU
  1
acad
  9
$ELEVATION
 40
0.0
  9
$PELEVATION
 40
0.0
  9
$THICKNESS
 40
0.0
  9
$LIMCHECK
 70
     0
  9
$BLIPMODE
 70
     1
  9
$CHAMFERA
 40
0.0
  9
$CHAMFERB
 40
0.0
  9
$CHAMFERC
 40
0.0
  9
$CHAMFERD
 40
0.0
  9
$SKPOLY
 70
     0
  9
$TDCREATE
 40
2456723.144865185
  9
$TDUPDATE
 40
2456723.144865185
  9
$TDINDWG
 40
0.0000000000
  9
$TDUSRTIMER
 40
0.0000000000
  9
$USRTIMER
 70
     1
  9
$ANGBASE
 50
0.0
  9
$ANGDIR
 70
     0
  9
$PDMODE
 70
     0
  9
$PDSIZE
 40
0.0
  9
$PLINEWID
 40
0.0
  9
$COORDS
 70
     1
  9
$SPLFRAME
 70
     0
  9
$SPLINETYPE
 70
     6
  9
$SPLINESEGS
 70
     8
  9
$ATTDIA
 70
     0
  9
$ATTREQ
 70
     1
  9
$HANDLING
 70
     1
  9
$HANDSEED
  5
5E8
  9
$SURFTAB1
 70
     6
  9
$SURFTAB2
 70
     6
  9
$SURFTYPE
 70
     6
  9
$SURFU
 70
     6
  9
$SURFV
 70
     6
  9
$UCSNAME
  2

  9
$UCSORG
 10
0.0
 20
0.0
 30
0.0
  9
$UCSXDIR
 10
1.0
 20
0.0
 30
0.0
  9
$UCSYDIR
 10
0.0
 20
1.0
 30
0.0
  9
$PUCSNAME
  2

  9
$PUCSORG
 10
0.0
 20
0.0
 30
0.0
  9
$PUCSXDIR
 10
1.0
 20
0.0
 30
0.0
  9
$PUCSYDIR
 10
0.0
 20
1.0
 30
0.0
  9
$USERI1
 70
     0
  9
$USERI2
 70
     0
  9
$USERI3
 70
     0
  9
$USERI4
 70
     0
  9
$USERI5
 70
     0
  9
$USERR1
 40
0.0
  9
$USERR2
 40
0.0
  9
$USERR3
 40
0.0
  9
$USERR4
 40
0.0
  9
$USERR5
 40
0.0
  9
$WORLDVIEW
 70
     1
  9
$SHADEDGE
 70
     3
  9
$SHADEDIF
 70
    70
  9
$TILEMODE
 70
     1
  9
$MAXACTVP
 70
    16
  9
$PINSBASE
 10
0.0
 20
0.0
 30
0.0
  9
$PLIMCHECK
 70
     0
  9
$PEXTMIN
 10
1.000000E+20
 20
1.000000E+20
 30
1.000000E+20
  9
$PEXTMAX
 10
-1.000000E+20
 20
-1.000000E+20
 30
-1.000000E+20
  9
$PLIMMIN
 10
0.0
 20
0.0
  9
$PLIMMAX
 10
12.0
 20
9.0
  9
$UNITMODE
 70
     0
  9
$VISRETAIN
 70
     0
  9
$PLINEGEN
 70
     1
  9
$PSLTSCALE
 70
     0
  9
$TREEDEPTH
 70
  3020
  9
$PICKSTYLE
 70
     1
  9
$CMLSTYLE
  2
Standard
  9
$CMLJUST
 70
     0
  9
$CMLSCALE
 40
1.0
  9
$PROXYGRAPHICS
 70
     0
  9
$MEASUREMENT
 70
     0
  0
ENDSEC
  0
SECTION
  2
CLASSES
  0
CLASS
  1
LWPOLYLINE
  2
AcDbPolyline
  3
"AutoCAD"
 90
        0
280
     0
281
     1
  0
CLASS
  1
IMAGE
  2
AcDbRasterImage
  3
ISM
 90
      127
280
     0
281
     1
  0
CLASS
  1
OLE2FRAME
  2
AcDbOle2Frame
  3
""
 90
        0
280
     0
281
     1
  0
CLASS
  1
HATCH
  2
AcDbHatch
  3
"ACAD_SEDONA"
 90
        0
280
     0
281
     1
  0
CLASS
  1
DICTIONARYVAR
  2
AcDbDictionaryVar
  3
"AutoCAD"
 90
        0
280
     0
281
     0
  0
CLASS
  1
RASTERVARIABLES
  2
AcDbRasterVariables
  3
ISM
 90
        0
280
     0
281
     0
  0
CLASS
  1
IMAGEDEF
  2
AcDbRasterImageDef
  3
ISM
 90
        0
280
     0
281
     0
  0
CLASS
  1
IMAGEDEF_REACTOR
  2
AcDbRasterImageDefReactor
  3
ISM
 90
        1
280
     0
281
     0
  0
CLASS
  1
IDBUFFER
  2
AcDbIdBuffer
  3
"Acad"
 90
        0
280
     0
281
     0
  0
CLASS
  1
SPATIAL_FILTER
  2
AcDbSpatialFilter
  3
"Acad"
 90
        0
280
     0
281
     0
  0
CLASS
  1
XRECORD
  2
AcDbXrecord
  3
"<Built In>"
 90
        0
280
     0
281
     0
  0
CLASS
  1
SORTENTSTABLE
  2
AcDbSortentsTable
  3
"AutoCAD"
 90
        0
280
     0
281
     0
  0
CLASS
  1
LAYER_INDEX
  2
AcDbLayerIndex
  3
"Acad"
 90
        0
280
     0
281
     0
  0
CLASS
  1
SPATIAL_INDEX
  2
AcDbSpatialIndex
  3
"Acad"
 90
        0
280
     0
281
     0
  0
CLASS
  1
OBJECT_PTR
  2
CAseDLPNTableRecord
  3
"ASE-LPNTableRecord"
 90
        1
280
     0
281
     0
  0
CLASS
  1
LAYOUT
  2
AcDbLayout
  3
"AutoCAD 2000"
 90
        0
280
     0
281
     0
  0
CLASS
  1
PLOTSETTINGS
  2
AcDbPlotSettings
  3
"AutoCAD 2000"
 90
        0
280
     0
281
     0
  0
CLASS
  1
ACDBDICTIONARYWDFLT
  2
AcDbDictionaryWithDefault
  3
"AutoCAD 2000"
 90
        0
280
     0
281
     0
  0
CLASS
  1
ACDBPLACEHOLDER
  2
AcDbPlaceHolder
  3
"AutoCAD 2000"
 90
        0
280
     0
281
     0
  0
CLASS
  1
VBA_PROJECT
  2
AcDbVbaProject
  3
"acadvba"
 90
        0
280
     0
281
     0
  0
CLASS
  1
WIPEOUT
  2
AcDbWipeout
  3
WipeOut|AutoCAD Express Tool|expresstools@autodesk.com
 90
      127
280
     0
281
     1
  0
CLASS
  1
WIPEOUTVARIABLES
  2
AcDbWipeoutVariables
  3
WipeOut|AutoCAD Express Tool|expresstools@autodesk.com
 90
        0
280
     0
281
     0
  0
CLASS
  1
RTEXT
  2
RText
  3
RText|AutoCAD Express Tool|expresstools@autodesk.com
 90
        0
280
     0
281
     1
  0
CLASS
  1
ARCALIGNEDTEXT
  2
AcDbArcAlignedText
  3
ATEXT|AutoCAD Express Tool|expresstools@autodesk.com
 90
        0
280
     0
281
     1
  0
ENDSEC
  0
SECTION
  2
TABLES
  0
TABLE
  2
VPORT
  5
7
100
AcDbSymbolTable
 70
     1
  0
VPORT
  5
15
100
AcDbSymbolTableRecord
100
AcDbViewportTableRecord
  2
*ACTIVE
 70
     0
 10
0.0
 20
0.0
 11
1.0
 21
1.0
 12
196.4
 22
145.4
 13
0.0
 23
0.0
 14
1.0
 24
1.0
 15
0.0
 25
0.0
 16
0.0
 26
0.0
 36
1.0
 17
0.0
 27
0.0
 37
0.0
 40
446.6
 41
1.722533
 42
50.0
 43
0.0
 44
0.0
 50
0.0
 51
0.0
 71
     0
 72
  1000
 73
     1
 74
     1
 75
     0
 76
     0
 77
     0
 78
     0
  0
ENDTAB
  0
TABLE
  2
LTYPE
  5
4
100
AcDbSymbolTable
 70
     9
  0
LTYPE
  5
11
100
AcDbSymbolTableRecord
100
AcDbLinetypeTableRecord
  2
BYBLOCK
 70
    64
  3

 72
    65
 73
     0
 40
0.0
  0
LTYPE
  5
12
100
AcDbSymbolTableRecord
100
AcDbLinetypeTableRecord
  2
BYLAYER
 70
    64
  3

 72
    65
 73
     0
 40
0.0
  0
LTYPE
  5
13
100
AcDbSymbolTableRecord
100
AcDbLinetypeTableRecord
  2
CONTINUOUS
 70
    64
  3
実線
 72
    65
 73
     0
 40
0.0
  0
LTYPE
  5
1D
100
AcDbSymbolTableRecord
100
AcDbLinetypeTableRecord
  2
EXLTYPE1
 70
    64
  3
破線
 72
    65
 73
     2
 40
4.0
 49
2.0
 74
     0
 49
-2.0
 74
     0
  0
LTYPE
  5
1E
100
AcDbSymbolTableRecord
100
AcDbLinetypeTableRecord
  2
EXLTYPE2
 70
    64
  3
点線
 72
    65
 73
     2
 40
2.0
 49
1.0
 74
     0
 49
-1.0
 74
     0
  0
LTYPE
  5
1F
100
AcDbSymbolTableRecord
100
AcDbLinetypeTableRecord
  2
EXLTYPE3
 70
    64
  3
一点鎖線
 72
    65
 73
     4
 40
33.0
 49
30.0
 74
     0
 49
-1.0
 74
     0
 49
1.0
 74
     0
 49
-1.0
 74
     0
  0
LTYPE
  5
20
100
AcDbSymbolTableRecord
100
AcDbLinetypeTableRecord
  2
EXLTYPE4
 70
    64
  3
二点鎖線
 72
    65
 73
     6
 40
35.0
 49
30.0
 74
     0
 49
-1.0
 74
     0
 49
1.0
 74
     0
 49
-1.0
 74
     0
 49
1.0
 74
     0
 49
-1.0
 74
     0
  0
LTYPE
  5
21
100
AcDbSymbolTableRecord
100
AcDbLinetypeTableRecord
  2
EXLTYPE5
 70
    64
  3
三点鎖線
 72
    65
 73
     8
 40
37.0
 49
30.0
 74
     0
 49
-1.0
 74
     0
 49
1.0
 74
     0
 49
-1.0
 74
     0
 49
1.0
 74
     0
 49
-1.0
 74
     0
 49
1.0
 74
     0
 49
-1.0
 74
     0
  0
LTYPE
  5
22
100
AcDbSymbolTableRecord
100
AcDbLinetypeTableRecord
  2
EXLTYPE6
 70
    64
  3
四点鎖線
 72
    65
 73
    10
 40
39.0
 49
30.0
 74
     0
 49
-1.0
 74
     0
 49
1.0
 74
     0
 49
-1.0
 74
     0
 49
1.0
 74
     0
 49
-1.0
 74
     0
 49
1.0
 74
     0
 49
-1.0
 74
     0
 49
1.0
 74
     0
 49
-1.0
 74
     0
  0
ENDTAB
  0
TABLE
  2
LAYER
  5
2
100
AcDbSymbolTable
 70
     3
  0
LAYER
  5
14
100
AcDbSymbolTableRecord
100
AcDbLayerTableRecord
  2
0
 70
     0
 62
     7
  6
CONTINUOUS
  0
LAYER
  5
25
100
AcDbSymbolTableRecord
100
AcDbLayerTableRecord
  2
LAY-1
 70
    64
 62
     7
  6
CONTINUOUS
  0
LAYER
  5
26
100
AcDbSymbolTableRecord
100
AcDbLayerTableRecord
  2
LAY-3
 70
    64
 62
     1
  6
CONTINUOUS
  0
ENDTAB
  0
TABLE
  2
STYLE
  5
3
100
AcDbSymbolTable
 70
     3
  0
STYLE
  5
17
100
AcDbSymbolTableRecord
100
AcDbTextStyleTableRecord
  2
STANDARD
 70
     0
 40
0.0
 41
1.0
 50
0.0
 71
     0
 42
0.0
  3
monotxt
  4
extfont
  0
STYLE
  5
23
100
AcDbSymbolTableRecord
100
AcDbTextStyleTableRecord
  2
EXCADSTD
 70
    64
 40
0.0
 41
1.0
 50
0.0
 71
     0
 42
0.2
  3
monotxt
  4
extfont
  0
STYLE
  5
24
100
AcDbSymbolTableRecord
100
AcDbTextStyleTableRecord
  2
EXCADVERT
 70
    68
 40
0.0
 41
1.0
 50
0.0
 71
     0
 42
0.286885
  3
monotxt
  4
extfont
  0
ENDTAB
  0
TABLE
  2
VIEW
  5
5
100
AcDbSymbolTable
 70
     0
  0
ENDTAB
  0
TABLE
  2
UCS
  5
6
100
AcDbSymbolTable
 70
     0
  0
ENDTAB
  0
TABLE
  2
APPID
  5
8
100
AcDbSymbolTable
 70
     1
  0
APPID
  5
16
100
AcDbSymbolTableRecord
100
AcDbRegAppTableRecord
  2
ACAD
 70
     0
  0
ENDTAB
  0
TABLE
  2
DIMSTYLE
  5
9
100
AcDbSymbolTable
 70
     1
  0
DIMSTYLE
105
18
100
AcDbSymbolTableRecord
100
AcDbDimStyleTableRecord
  2
STANDARD
 70
     0
  3

  4

  5

  6

  7

 40
1.0
 41
0.18
 42
0.0625
 43
0.38
 44
0.18
 45
0.0
 46
0.0
 47
0.0
 48
0.0
 71
     0
 72
     0
 73
     1
 74
     1
 75
     0
 76
     0
 77
     0
 78
     0
140
0.18
141
0.09
142
0.0
143
25.4
144
1.0
145
0.0
146
1.0
147
0.09
170
     0
171
     2
172
     1
173
     0
174
     0
175
     0
176
     0
177
     0
178
     0
270
     2
271
     4
272
     4
273
     2
274
     2
275
     0
280
     0
281
     0
282
     0
283
     1
284
     0
285
     0
286
     0
287
     3
288
     0
340
17
  0
ENDTAB
  0
TABLE
  2
BLOCK_RECORD
  5
1
100
AcDbSymbolTable
 70
    15
  0
BLOCK_RECORD
  5
A
100
AcDbSymbolTableRecord
100
AcDbBlockTableRecord
  2
*MODEL_SPACE
  0
BLOCK_RECORD
  5
B
100
AcDbSymbolTableRecord
100
AcDbBlockTableRecord
  2
*PAPER_SPACE
  0
BLOCK_RECORD
  5
27
100
AcDbSymbolTableRecord
100
AcDbBlockTableRecord
  2
_EX_NORM
  0
BLOCK_RECORD
  5
28
100
AcDbSymbolTableRecord
100
AcDbBlockTableRecord
  2
_EX_BNORM
  0
BLOCK_RECORD
  5
29
100
AcDbSymbolTableRecord
100
AcDbBlockTableRecord
  2
_EX_BCIR
  0
BLOCK_RECORD
  5
2A
100
AcDbSymbolTableRecord
100
AcDbBlockTableRecord
  2
_EX_RCIVIL
  0
BLOCK_RECORD
  5
2B
100
AcDbSymbolTableRecord
100
AcDbBlockTableRecord
  2
_EX_SLANT
  0
BLOCK_RECORD
  5
2C
100
AcDbSymbolTableRecord
100
AcDbBlockTableRecord
  2
_EX_NONE
  0
BLOCK_RECORD
  5
2D
100
AcDbSymbolTableRecord
100
AcDbBlockTableRecord
  2
_EX_CIVIL
  0
BLOCK_RECORD
  5
2E
100
AcDbSymbolTableRecord
100
AcDbBlockTableRecord
  2
_EX_WCIR
  0
BLOCK_RECORD
  5
2F
100
AcDbSymbolTableRecord
100
AcDbBlockTableRecord
  2
_EX_WCIR2
  0
BLOCK_RECORD
  5
30
100
AcDbSymbolTableRecord
100
AcDbBlockTableRecord
  2
_EX_WNORM
  0
BLOCK_RECORD
  5
31
100
AcDbSymbolTableRecord
100
AcDbBlockTableRecord
  2
_EX_NNORM
  0
BLOCK_RECORD
  5
32
100
AcDbSymbolTableRecord
100
AcDbBlockTableRecord
  2
_EX_BBOX
  0
BLOCK_RECORD
  5
33
100
AcDbSymbolTableRecord
100
AcDbBlockTableRecord
  2
_EX_WBOX
  0
BLOCK_RECORD
  5
34
100
AcDbSymbolTableRecord
100
AcDbBlockTableRecord
  2
_EX_INTEGRAL
  0
BLOCK_RECORD
  5
35
100
AcDbSymbolTableRecord
100
AcDbBlockTableRecord
  2
SYM-1
  0
ENDTAB
  0
ENDSEC
  0
SECTION
  2
BLOCKS
  0
BLOCK
  5
D
100
AcDbEntity
  8
0
100
AcDbBlockBegin
  2
*MODEL_SPACE
 70
     0
 10
0.0
 20
0.0
 30
0.0
  3
*MODEL_SPACE
  1

  0
ENDBLK
  5
E
100
AcDbEntity
  8
0
100
AcDbBlockEnd
  0
BLOCK
  5
F
100
AcDbEntity
 67
     1
  8
0
100
AcDbBlockBegin
  2
*PAPER_SPACE
 70
     0
 10
0.0
 20
0.0
 30
0.0
  3
*PAPER_SPACE
  1

  0
ENDBLK
  5
10
100
AcDbEntity
 67
     1
  8
0
100
AcDbBlockEnd
  0
BLOCK
  5
36
100
AcDbEntity
  8
0
100
AcDbBlockBegin
  2
_EX_NORM
 70
     0
 10
0.0
 20
0.0
 30
0.0
  3
_EX_NORM
  1

  0
LINE
  5
37
100
AcDbEntity
  8
0
  6
CONTINUOUS
 62
     0
100
AcDbLine
 10
0.0
 20
0.0
 30
0.0
 11
-1.0
 21
0.0
 31
0.0
  0
LINE
  5
38
100
AcDbEntity
  8
0
  6
CONTINUOUS
 62
     0
100
AcDbLine
 10
0.0
 20
0.0
 30
0.0
 11
-1.0
 21
0.166667
 31
0.0
  0
LINE
  5
39
100
AcDbEntity
  8
0
  6
CONTINUOUS
 62
     0
100
AcDbLine
 10
0.0
 20
0.0
 30
0.0
 11
-1.0
 21
-0.166667
 31
0.0
  0
ENDBLK
  5
3A
100
AcDbEntity
  8
0
100
AcDbBlockEnd
  0
BLOCK
  5
3B
100
AcDbEntity
  8
0
100
AcDbBlockBegin
  2
_EX_BNORM
 70
     0
 10
0.0
 20
0.0
 30
0.0
  3
_EX_BNORM
  1

  0
LINE
  5
3C
100
AcDbEntity
  8
0
  6
CONTINUOUS
 62
     0
100
AcDbLine
 10
0.0
 20
0.0
 30
0.0
 11
-1.0
 21
0.0
 31
0.0
  0
LINE
  5
3D
100
AcDbEntity
  8
0
  6
CONTINUOUS
 62
     0
100
AcDbLine
 10
0.0
 20
0.0
 30
0.0
 11
-1.0
 21
0.166667
 31
0.0
  0
LINE
  5
3E
100
AcDbEntity
  8
0
  6
CONTINUOUS
 62
     0
100
AcDbLine
 10
0.0
 20
0.0
 30
0.0
 11
-1.0
 21
-0.166667
 31
0.0
  0
LINE
  5
3F
100
AcDbEntity
  8
0
  6
CONTINUOUS
 62
     0
100
AcDbLine
 10
0.0
 20
0.0
 30
0.0
 11
-1.0
 21
0.083333
 31
0.0
  0
LINE
  5
40
100
AcDbEntity
  8
0
  6
CONTINUOUS
 62
     0
100
AcDbLine
 10
0.0
 20
0.0
 30
0.0
 11
-1.0
 21
-0.083333
 31
0.0
  0
LINE
  5
41
100
AcDbEntity
  8
0
  6
CONTINUOUS
 62
     0
100
AcDbLine
 10
-1.0
 20
0.166667
 30
0.0
 11
-1.0
 21
-0.166667
 31
0.0
  0
ENDBLK
  5
42
100
AcDbEntity
  8
0
100
AcDbBlockEnd
  0
BLOCK
  5
43
100
AcDbEntity
  8
0
100
AcDbBlockBegin
  2
_EX_BCIR
 70
     0
 10
0.0
 20
0.0
 30
0.0
  3
_EX_BCIR
  1

  0
LINE
  5
44
100
AcDbEntity
  8
0
  6
CONTINUOUS
 62
     0
100
AcDbLine
 10
0.0
 20
0.0
 30
0.0
 11
-1.0
 21
0.0
 31
0.0
  0
CIRCLE
  5
45
100
AcDbEntity
  8
0
  6
CONTINUOUS
 62
     0
100
AcDbCircle
 10
0.0
 20
0.0
 30
0.0
 40
0.5
  0
CIRCLE
  5
46
100
AcDbEntity
  8
0
  6
CONTINUOUS
 62
     0
100
AcDbCircle
 10
0.0
 20
0.0
 30
0.0
 40
0.25
  0
ENDBLK
  5
47
100
AcDbEntity
  8
0
100
AcDbBlockEnd
  0
BLOCK
  5
48
100
AcDbEntity
  8
0
100
AcDbBlockBegin
  2
_EX_RCIVIL
 70
     0
 10
0.0
 20
0.0
 30
0.0
  3
_EX_RCIVIL
  1

  0
LINE
  5
49
100
AcDbEntity
  8
0
  6
CONTINUOUS
 62
     0
100
AcDbLine
 10
0.0
 20
0.0
 30
0.0
 11
-1.0
 21
0.0
 31
0.0
  0
LINE
  5
4A
100
AcDbEntity
  8
0
  6
CONTINUOUS
 62
     0
100
AcDbLine
 10
-1.0
 20
-0.25
 30
0.0
 11
0.0
 21
-0.25
 31
0.0
  0
LINE
  5
4B
100
AcDbEntity
  8
0
  6
CONTINUOUS
 62
     0
100
AcDbLine
 10
-1.0
 20
-0.125
 30
0.0
 11
0.0
 21
-0.125
 31
0.0
  0
ENDBLK
  5
4C
100
AcDbEntity
  8
0
100
AcDbBlockEnd
  0
BLOCK
  5
4D
100
AcDbEntity
  8
0
100
AcDbBlockBegin
  2
_EX_SLANT
 70
     0
 10
0.0
 20
0.0
 30
0.0
  3
_EX_SLANT
  1

  0
LINE
  5
4E
100
AcDbEntity
  8
0
  6
CONTINUOUS
 62
     0
100
AcDbLine
 10
0.0
 20
0.0
 30
0.0
 11
-1.0
 21
0.0
 31
0.0
  0
LINE
  5
4F
100
AcDbEntity
  8
0
  6
CONTINUOUS
 62
     0
100
AcDbLine
 10
0.707107
 20
0.707107
 30
0.0
 11
-0.707107
 21
-0.707107
 31
0.0
  0
ENDBLK
  5
50
100
AcDbEntity
  8
0
100
AcDbBlockEnd
  0
BLOCK
  5
51
100
AcDbEntity
  8
0
100
AcDbBlockBegin
  2
_EX_NONE
 70
     0
 10
0.0
 20
0.0
 30
0.0
  3
_EX_NONE
  1

  0
LINE
  5
52
100
AcDbEntity
  8
0
  6
CONTINUOUS
 62
     0
100
AcDbLine
 10
0.0
 20
0.0
 30
0.0
 11
-1.0
 21
0.0
 31
0.0
  0
ENDBLK
  5
53
100
AcDbEntity
  8
0
100
AcDbBlockEnd
  0
BLOCK
  5
54
100
AcDbEntity
  8
0
100
AcDbBlockBegin
  2
_EX_CIVIL
 70
     0
 10
0.0
 20
0.0
 30
0.0
  3
_EX_CIVIL
  1

  0
LINE
  5
55
100
AcDbEntity
  8
0
  6
CONTINUOUS
 62
     0
100
AcDbLine
 10
0.0
 20
0.0
 30
0.0
 11
-1.0
 21
0.0
 31
0.0
  0
LINE
  5
56
100
AcDbEntity
  8
0
  6
CONTINUOUS
 62
     0
100
AcDbLine
 10
-1.0
 20
0.25
 30
0.0
 11
0.0
 21
0.25
 31
0.0
  0
LINE
  5
57
100
AcDbEntity
  8
0
  6
CONTINUOUS
 62
     0
100
AcDbLine
 10
-1.0
 20
0.125
 30
0.0
 11
0.0
 21
0.125
 31
0.0
  0
ENDBLK
  5
58
100
AcDbEntity
  8
0
100
AcDbBlockEnd
  0
BLOCK
  5
59
100
AcDbEntity
  8
0
100
AcDbBlockBegin
  2
_EX_WCIR
 70
     0
 10
0.0
 20
0.0
 30
0.0
  3
_EX_WCIR
  1

  0
LINE
  5
5A
100
AcDbEntity
  8
0
  6
CONTINUOUS
 62
     0
100
AcDbLine
 10
0.0
 20
0.0
 30
0.0
 11
-1.0
 21
0.0
 31
0.0
  0
CIRCLE
  5
5B
100
AcDbEntity
  8
0
  6
CONTINUOUS
 62
     0
100
AcDbCircle
 10
0.0
 20
0.0
 30
0.0
 40
0.5
  0
ENDBLK
  5
5C
100
AcDbEntity
  8
0
100
AcDbBlockEnd
  0
BLOCK
  5
5D
100
AcDbEntity
  8
0
100
AcDbBlockBegin
  2
_EX_WCIR2
 70
     0
 10
0.0
 20
0.0
 30
0.0
  3
_EX_WCIR2
  1

  0
LINE
  5
5E
100
AcDbEntity
  8
0
  6
CONTINUOUS
 62
     0
100
AcDbLine
 10
-0.5
 20
0.0
 30
0.0
 11
-1.0
 21
0.0
 31
0.0
  0
CIRCLE
  5
5F
100
AcDbEntity
  8
0
  6
CONTINUOUS
 62
     0
100
AcDbCircle
 10
0.0
 20
0.0
 30
0.0
 40
0.5
  0
ENDBLK
  5
60
100
AcDbEntity
  8
0
100
AcDbBlockEnd
  0
BLOCK
  5
61
100
AcDbEntity
  8
0
100
AcDbBlockBegin
  2
_EX_WNORM
 70
     0
 10
0.0
 20
0.0
 30
0.0
  3
_EX_WNORM
  1

  0
LINE
  5
62
100
AcDbEntity
  8
0
  6
CONTINUOUS
 62
     0
100
AcDbLine
 10
-1.0
 20
0.0
 30
0.0
 11
-1.0
 21
0.0
 31
0.0
  0
LINE
  5
63
100
AcDbEntity
  8
0
  6
CONTINUOUS
 62
     0
100
AcDbLine
 10
0.0
 20
0.0
 30
0.0
 11
-1.0
 21
0.166667
 31
0.0
  0
LINE
  5
64
100
AcDbEntity
  8
0
  6
CONTINUOUS
 62
     0
100
AcDbLine
 10
0.0
 20
0.0
 30
0.0
 11
-1.0
 21
-0.166667
 31
0.0
  0
LINE
  5
65
100
AcDbEntity
  8
0
  6
CONTINUOUS
 62
     0
100
AcDbLine
 10
-1.0
 20
0.166667
 30
0.0
 11
-1.0
 21
-0.166667
 31
0.0
  0
ENDBLK
  5
66
100
AcDbEntity
  8
0
100
AcDbBlockEnd
  0
BLOCK
  5
67
100
AcDbEntity
  8
0
100
AcDbBlockBegin
  2
_EX_NNORM
 70
     0
 10
0.0
 20
0.0
 30
0.0
  3
_EX_NNORM
  1

  0
LINE
  5
68
100
AcDbEntity
  8
0
  6
CONTINUOUS
 62
     0
100
AcDbLine
 10
0.0
 20
0.0
 30
0.0
 11
-1.0
 21
0.0
 31
0.0
  0
LINE
  5
69
100
AcDbEntity
  8
0
  6
CONTINUOUS
 62
     0
100
AcDbLine
 10
0.0
 20
0.0
 30
0.0
 11
-1.0
 21
0.166667
 31
0.0
  0
LINE
  5
6A
100
AcDbEntity
  8
0
  6
CONTINUOUS
 62
     0
100
AcDbLine
 10
0.0
 20
0.0
 30
0.0
 11
-1.0
 21
-0.166667
 31
0.0
  0
LINE
  5
6B
100
AcDbEntity
  8
0
  6
CONTINUOUS
 62
     0
100
AcDbLine
 10
-1.0
 20
0.166667
 30
0.0
 11
-1.0
 21
-0.166667
 31
0.0
  0
ENDBLK
  5
6C
100
AcDbEntity
  8
0
100
AcDbBlockEnd
  0
BLOCK
  5
6D
100
AcDbEntity
  8
0
100
AcDbBlockBegin
  2
_EX_BBOX
 70
     0
 10
0.0
 20
0.0
 30
0.0
  3
_EX_BBOX
  1

  0
LINE
  5
6E
100
AcDbEntity
  8
0
  6
CONTINUOUS
 62
     0
100
AcDbLine
 10
0.0
 20
0.0
 30
0.0
 11
-1.0
 21
0.0
 31
0.0
  0
LINE
  5
6F
100
AcDbEntity
  8
0
  6
CONTINUOUS
 62
     0
100
AcDbLine
 10
-0.5
 20
0.5
 30
0.0
 11
0.5
 21
0.5
 31
0.0
  0
LINE
  5
70
100
AcDbEntity
  8
0
  6
CONTINUOUS
 62
     0
100
AcDbLine
 10
0.5
 20
0.5
 30
0.0
 11
0.5
 21
-0.5
 31
0.0
  0
LINE
  5
71
100
AcDbEntity
  8
0
  6
CONTINUOUS
 62
     0
100
AcDbLine
 10
0.5
 20
-0.5
 30
0.0
 11
-0.5
 21
-0.5
 31
0.0
  0
LINE
  5
72
100
AcDbEntity
  8
0
  6
CONTINUOUS
 62
     0
100
AcDbLine
 10
-0.5
 20
-0.5
 30
0.0
 11
-0.5
 21
0.5
 31
0.0
  0
LINE
  5
73
100
AcDbEntity
  8
0
  6
CONTINUOUS
 62
     0
100
AcDbLine
 10
-0.25
 20
0.25
 30
0.0
 11
0.25
 21
0.25
 31
0.0
  0
LINE
  5
74
100
AcDbEntity
  8
0
  6
CONTINUOUS
 62
     0
100
AcDbLine
 10
0.25
 20
0.25
 30
0.0
 11
0.25
 21
-0.25
 31
0.0
  0
LINE
  5
75
100
AcDbEntity
  8
0
  6
CONTINUOUS
 62
     0
100
AcDbLine
 10
0.25
 20
-0.25
 30
0.0
 11
-0.25
 21
-0.25
 31
0.0
  0
LINE
  5
76
100
AcDbEntity
  8
0
  6
CONTINUOUS
 62
     0
100
AcDbLine
 10
-0.25
 20
-0.25
 30
0.0
 11
-0.25
 21
0.25
 31
0.0
  0
ENDBLK
  5
77
100
AcDbEntity
  8
0
100
AcDbBlockEnd
  0
BLOCK
  5
78
100
AcDbEntity
  8
0
100
AcDbBlockBegin
  2
_EX_WBOX
 70
     0
 10
0.0
 20
0.0
 30
0.0
  3
_EX_WBOX
  1

  0
LINE
  5
79
100
AcDbEntity
  8
0
  6
CONTINUOUS
 62
     0
100
AcDbLine
 10
-0.5
 20
0.0
 30
0.0
 11
-1.0
 21
0.0
 31
0.0
  0
LINE
  5
7A
100
AcDbEntity
  8
0
  6
CONTINUOUS
 62
     0
100
AcDbLine
 10
-0.5
 20
0.5
 30
0.0
 11
0.5
 21
0.5
 31
0.0
  0
LINE
  5
7B
100
AcDbEntity
  8
0
  6
CONTINUOUS
 62
     0
100
AcDbLine
 10
0.5
 20
0.5
 30
0.0
 11
0.5
 21
-0.5
 31
0.0
  0
LINE
  5
7C
100
AcDbEntity
  8
0
  6
CONTINUOUS
 62
     0
100
AcDbLine
 10
0.5
 20
-0.5
 30
0.0
 11
-0.5
 21
-0.5
 31
0.0
  0
LINE
  5
7D
100
AcDbEntity
  8
0
  6
CONTINUOUS
 62
     0
100
AcDbLine
 10
-0.5
 20
-0.5
 30
0.0
 11
-0.5
 21
0.5
 31
0.0
  0
ENDBLK
  5
7E
100
AcDbEntity
  8
0
100
AcDbBlockEnd
  0
BLOCK
  5
7F
100
AcDbEntity
  8
0
100
AcDbBlockBegin
  2
_EX_INTEGRAL
 70
     0
 10
0.0
 20
0.0
 30
0.0
  3
_EX_INTEGRAL
  1

  0
LINE
  5
80
100
AcDbEntity
  8
0
  6
CONTINUOUS
 62
     0
100
AcDbLine
 10
0.0
 20
0.0
 30
0.0
 11
-1.0
 21
0.0
 31
0.0
  0
ARC
  5
81
100
AcDbEntity
  8
0
  6
CONTINUOUS
 62
     0
100
AcDbCircle
 10
0.542115
 20
0.164992
 30
0.0
 40
0.56667
100
AcDbArc
 50
73.07249
 51
196.927513
  0
ARC
  5
82
100
AcDbEntity
  8
0
  6
CONTINUOUS
 62
     0
100
AcDbCircle
 10
-0.542115
 20
-0.164992
 30
0.0
 40
0.56667
100
AcDbArc
 50
253.072487
 51
16.927513
  0
ENDBLK
  5
83
100
AcDbEntity
  8
0
100
AcDbBlockEnd
  0
BLOCK
  5
84
100
AcDbEntity
  8
0
100
AcDbBlockBegin
  2
SYM-1
 70
     0
 10
0.0
 20
0.0
 30
0.0
  3
SYM-1
  1

  0
HATCH
  5
85
100
AcDbEntity
  8
0
  6
CONTINUOUS
 62
     3
100
AcDbHatch
 10
0.0
 20
0.0
 30
0.0
210
0.0
220
0.0
230
1.0
  2
SOLID
 70
     1
 71
     1
 91
        1
 92
        1
 93
       16
 72
     1
 10
24.351152239011505
 20
-2.0357142857144446
 11
25.613295096154353
 21
-2.0357142857144446
 72
     1
 10
25.613295096154353
 20
-2.0357142857144446
 11
25.613295096154353
 21
-2.8500000000001648
 72
     1
 10
25.613295096154353
 20
-2.8500000000001648
 11
22.23400938186861
 21
-2.8500000000001648
 72
     1
 10
22.23400938186861
 20
-2.8500000000001648
 11
22.23400938186861
 21
-2.0357142857144446
 72
     1
 10
22.23400938186861
 20
-2.0357142857144446
 11
23.536866524725802
 21
-2.0357142857144446
 72
     1
 10
23.536866524725802
 20
-2.0357142857144446
 11
23.536866524725802
 21
0.3257142857141346
 72
     1
 10
23.536866524725802
 20
0.3257142857141346
 11
22.519009381868621
 21
0.3257142857141346
 72
     1
 10
22.519009381868621
 20
0.3257142857141346
 11
22.519009381868621
 21
1.1399999999998514
 72
     1
 10
22.519009381868621
 20
1.1399999999998514
 11
23.536866524725802
 21
1.1399999999998514
 72
     1
 10
23.536866524725802
 20
1.1399999999998514
 11
23.536866524725802
 21
2.8499999999998487
 72
     1
 10
23.536866524725802
 20
2.8499999999998487
 11
24.351152239011505
 21
2.8499999999998487
 72
     1
 10
24.351152239011505
 20
2.8499999999998487
 11
24.351152239011505
 21
1.1399999999998514
 72
     1
 10
24.351152239011505
 20
1.1399999999998514
 11
25.531866524725821
 21
1.1399999999998514
 72
     1
 10
25.531866524725821
 20
1.1399999999998514
 11
25.531866524725821
 21
0.3257142857141346
 72
     1
 10
25.531866524725821
 20
0.3257142857141346
 11
24.351152239011505
 21
0.3257142857141346
 72
     1
 10
24.351152239011505
 20
0.3257142857141346
 11
24.351152239011505
 21
-2.0357142857144446
 97
        0
 75
     0
 76
     1
 98
        1
 10
0.0
 20
0.0
  0
HATCH
  5
86
100
AcDbEntity
  8
0
  6
CONTINUOUS
 62
     3
100
AcDbHatch
 10
0.0
 20
0.0
 30
0.0
210
0.0
220
0.0
230
1.0
  2
SOLID
 70
     1
 71
     1
 91
        1
 92
        1
 93
       17
 72
     2
 10
15.796286246552746
 20
4.4303755974531924
 40
7.328571428571454
 50
44.165469
 51
51.472792
 73
     0
 72
     1
 10
20.361152239011439
 20
-1.3028571428572775
 11
19.948878200429583
 21
-0.5887775613918898
 72
     2
 10
15.796286246552746
 20
4.4303755974531924
 40
6.5142857142857364
 50
309.602625
 51
331.307968
 73
     1
 72
     1
 10
21.510701937024301
 20
1.3028571428570004
 11
20.157580810440017
 21
1.3028571428570004
 72
     1
 10
20.157580810440017
 20
1.3028571428570004
 11
20.157580810440017
 21
2.0357142857141319
 72
     1
 10
20.157580810440017
 20
2.0357142857141319
 11
21.053295096154336
 21
2.0357142857141319
 72
     1
 10
21.053295096154336
 20
2.0357142857141319
 11
21.053295096154336
 21
2.8499999999998487
 72
     1
 10
21.053295096154336
 20
2.8499999999998487
 11
21.786152239011507
 21
2.8499999999998487
 72
     1
 10
21.786152239011507
 20
2.8499999999998487
 11
21.786152239011507
 21
2.0357142857141319
 72
     1
 10
21.786152239011507
 20
2.0357142857141319
 11
22.722580810439986
 21
2.0357142857141319
 72
     2
 10
15.796286246552746
 20
4.4303755974531924
 40
7.328571428571454
 50
19.072051
 51
32.871988
 73
     0
 72
     1
 10
21.951445818831196
 20
0.4526916201288422
 11
22.926152239011437
 21
-0.4885714285715821
 72
     1
 10
22.926152239011437
 20
-0.4885714285715821
 11
22.350277580116831
 21
-1.0644460874662265
 72
     1
 10
22.350277580116831
 20
-1.0644460874662265
 11
21.786152239011507
 21
-0.5196765779765897
 72
     1
 10
21.786152239011507
 20
-0.5196765779765897
 11
21.786152239011507
 21
-2.8500000000001648
 72
     1
 10
21.786152239011507
 20
-2.8500000000001648
 11
21.053295096154336
 21
-2.8500000000001648
 72
     1
 10
21.053295096154336
 20
-2.8500000000001648
 11
21.053295096154336
 21
-0.6756813096801793
 97
        0
 75
     0
 76
     1
 98
        1
 10
0.0
 20
0.0
  0
HATCH
  5
87
100
AcDbEntity
  8
0
  6
CONTINUOUS
 62
     3
100
AcDbHatch
 10
0.0
 20
0.0
 30
0.0
210
0.0
220
0.0
230
1.0
  2
SOLID
 70
     1
 71
     1
 91
        1
 92
        1
 93
       12
 72
     2
 10
26.09465466477446
 20
-6.5604295733743392
 40
11.481428571428609
 50
150.903074
 51
156.790773
 73
     1
 72
     1
 10
15.542396441700383
 20
-2.035714285714505
 11
18.049394029288031
 21
-2.0357142857144055
 72
     2
 10
10.927987441101074
 20
-4.0835590566205937
 40
7.4100000000000241
 50
16.043216
 51
21.362935
 73
     1
 72
     1
 10
17.828858648663306
 20
-1.3842857142858769
 11
18.610437953297115
 21
-1.3842857142858769
 72
     2
 10
10.927987441101074
 20
-4.0835590566205937
 40
8.1428571428571708
 50
340.64078
 51
351.286733
 73
     0
 72
     1
 10
18.976866524725686
 20
-2.8500000000001648
 11
14.457580810439971
 21
-2.8500000000001648
 72
     2
 10
26.09465466477446
 20
-6.5604295733743392
 40
12.214285714285754
 50
197.684652
 51
207.200855
 73
     0
 72
     1
 10
15.231152239011401
 20
-0.9771428571430043
 11
14.091152239011485
 21
-0.9771428571430043
 72
     1
 10
14.091152239011485
 20
-0.9771428571430043
 11
14.091152239011485
 21
-0.162857142857284
 72
     1
 10
14.091152239011485
 20
-0.162857142857284
 11
19.302580810440098
 21
-0.162857142857284
 72
     1
 10
19.302580810440098
 20
-0.162857142857284
 11
19.302580810440098
 21
-0.9771428571430043
 72
     1
 10
19.302580810440098
 20
-0.9771428571430043
 11
16.062201750099412
 21
-0.9771428571430043
 97
        0
 75
     0
 76
     1
 98
        1
 10
0.0
 20
0.0
  0
HATCH
  5
88
100
AcDbEntity
  8
0
  6
CONTINUOUS
 62
     3
100
AcDbHatch
 10
0.0
 20
0.0
 30
0.0
210
0.0
220
0.0
230
1.0
  2
SOLID
 70
     1
 71
     1
 91
        1
 92
        1
 93
       10
 72
     2
 10
26.143491684008573
 20
11.064410217386417
 40
13.028571428571473
 50
129.545698
 51
136.474664
 73
     0
 72
     1
 10
16.696866524725998
 20
2.0919553376225579
 11
16.696866524725998
 21
2.8499999999998487
 72
     1
 10
16.696866524725998
 20
2.8499999999998487
 11
17.104009381868686
 21
2.8499999999998487
 72
     2
 10
26.143491684008573
 20
11.064410217386417
 40
12.214285714285754
 50
222.262231
 51
237.763996
 73
     1
 72
     1
 10
19.628295096154382
 20
0.7328571428570001
 11
19.100346295490944
 21
0.1036722629605507
 72
     2
 10
26.143491684008573
 20
11.064410217386417
 40
13.028571428571473
 50
122.723968
 51
128.230009
 73
     0
 72
     1
 10
18.08115223901148
 20
0.830038905819066
 11
18.08115223901148
 21
0.2035714285712729
 72
     1
 10
18.08115223901148
 20
0.2035714285712729
 11
16.696866524725998
 21
0.2035714285712729
 72
     1
 10
16.696866524725998
 20
0.2035714285712729
 11
16.696866524725998
 21
1.0178571428569896
 72
     1
 10
16.696866524725998
 20
1.0178571428569896
 11
17.848285550942784
 21
1.0178571428569896
 97
        0
 75
     0
 76
     1
 98
        1
 10
0.0
 20
0.0
  0
HATCH
  5
89
100
AcDbEntity
  8
0
  6
CONTINUOUS
 62
     3
100
AcDbHatch
 10
0.0
 20
0.0
 30
0.0
210
0.0
220
0.0
230
1.0
  2
SOLID
 70
     1
 71
     1
 91
        1
 92
        1
 93
       10
 72
     2
 10
7.2502413654429532
 20
11.064410217386417
 40
13.028571428571473
 50
51.769991
 51
57.276032
 73
     0
 72
     1
 10
14.293386753960569
 20
0.1036722629605329
 11
13.76543795329713
 21
0.7328571428569894
 72
     2
 10
7.2502413654429532
 20
11.064410217386417
 40
12.214285714285754
 50
302.236004
 51
317.737769
 73
     1
 72
     1
 10
16.289723667582841
 20
2.8499999999998487
 11
16.696866524725998
 21
2.8499999999998487
 72
     1
 10
16.696866524725998
 20
2.8499999999998487
 11
16.696866524725998
 21
2.0919553376230482
 72
     2
 10
7.2502413654429532
 20
11.064410217386417
 40
13.028571428571473
 50
43.525336
 51
50.454302
 73
     0
 72
     1
 10
15.545447498508743
 20
1.0178571428569896
 11
16.696866524725998
 21
1.0178571428569896
 72
     1
 10
16.696866524725998
 20
1.0178571428569896
 11
16.696866524725998
 21
0.2035714285712729
 72
     1
 10
16.696866524725998
 20
0.2035714285712729
 11
15.312580810440046
 21
0.2035714285712729
 72
     1
 10
15.312580810440046
 20
0.2035714285712729
 11
15.312580810440046
 21
0.8300389058190589
 97
        0
 75
     0
 76
     1
 98
        1
 10
0.0
 20
0.0
  0
HATCH
  5
8A
100
AcDbEntity
  8
0
  6
CONTINUOUS
 62
     3
100
AcDbHatch
 10
0.0
 20
0.0
 30
0.0
210
0.0
220
0.0
230
1.0
  2
SOLID
 70
     1
 71
     1
 91
        1
 92
        1
 93
       18
 72
     2
 10
1.2571935216656343
 20
-0.8093264034321166
 40
11.400000000000038
 50
14.02954
 51
18.723021
 73
     1
 72
     1
 10
12.053921279331213
 20
2.8499999999998487
 11
12.910437953297141
 21
2.8499999999998487
 72
     2
 10
1.2571935216656343
 20
-0.8093264034321166
 40
12.214285714285754
 50
342.566782
 51
346.922981
 73
     0
 72
     1
 10
13.15472366758285
 20
1.9542857142855716
 11
13.480437953297177
 21
1.9542857142855716
 72
     1
 10
13.480437953297177
 20
1.9542857142855716
 11
13.480437953297177
 21
1.1399999999998407
 72
     1
 10
13.480437953297177
 20
1.1399999999998407
 11
11.958092734747289
 21
1.1399999999998514
 72
     2
 10
20.401866524725683
 20
2.4835714285712918
 40
8.5500000000000291
 50
189.041096
 51
204.65198
 73
     1
 72
     2
 10
14.334076117775972
 20
-0.301141422634494
 40
1.8737206404808271
 50
204.65198
 51
242.897449
 73
     1
 72
     1
 10
13.480437953297177
 20
-1.9691135215345774
 11
13.480437953297177
 21
-2.8500000000001648
 72
     2
 10
14.334076117775972
 20
-0.301141422634494
 40
2.6880063547665438
 50
108.516212
 51
155.34802
 73
     0
 72
     2
 10
20.401866524725683
 20
2.4835714285712918
 40
9.3642857142857441
 50
155.34802
 51
171.750831
 73
     0
 72
     1
 10
11.134468683092756
 20
1.1399999999998549
 11
8.0247236675828972
 21
1.1399999999998407
 72
     1
 10
8.0247236675828972
 20
1.1399999999998407
 11
8.0247236675828972
 21
1.9542857142855716
 72
     1
 10
8.0247236675828972
 20
1.9542857142855716
 11
11.050355927894167
 21
1.9542857142855716
 72
     1
 10
11.050355927894167
 20
1.9542857142855716
 11
11.019076895792274
 21
2.8499999999998487
 72
     1
 10
11.019076895792274
 20
2.8499999999998487
 11
11.833858953292697
 21
2.8499999999998487
 72
     1
 10
11.833858953292697
 20
2.8499999999998487
 11
11.865137985394604
 21
1.9542857142855716
 72
     1
 10
11.865137985394604
 20
1.9542857142855716
 11
12.317141444816265
 21
1.9542857142855716
 97
        0
 75
     0
 76
     1
 98
        1
 10
0.0
 20
0.0
  0
HATCH
  5
8B
100
AcDbEntity
  8
0
  6
CONTINUOUS
 62
     3
100
AcDbHatch
 10
0.0
 20
0.0
 30
0.0
210
0.0
220
0.0
230
1.0
  2
SOLID
 70
     1
 71
     1
 91
        1
 92
        1
 93
       12
 72
     2
 10
5.4617420309248317
 20
38.027820957415145
 40
39.900000000000134
 50
276.500664
 51
278.269357
 73
     1
 72
     1
 10
11.200437953297204
 20
-1.457332823601817
 11
11.20043795329719
 21
-2.2800000000001504
 72
     2
 10
5.4617420309248317
 20
38.027820957415145
 40
40.71428571428585
 50
81.897153
 51
86.39082
 73
     0
 72
     1
 10
8.024723667582883
 20
-2.6057142857144413
 11
8.024723667582883
 21
-1.7897772264302034
 72
     2
 10
5.4617420309248317
 20
38.027820957415145
 40
39.900000000000134
 50
273.682937
 51
275.325087
 73
     1
 72
     1
 10
9.1647236675828836
 20
-1.6999769553635602
 11
9.1647236675828836
 21
-0.4071428571430218
 72
     1
 10
9.1647236675828836
 20
-0.4071428571430218
 11
8.0247236675828972
 21
-0.4071428571430218
 72
     1
 10
8.0247236675828972
 20
-0.4071428571430218
 11
8.0247236675828972
 21
0.4071428571426949
 72
     1
 10
8.0247236675828972
 20
0.4071428571426949
 11
10.95615223901148
 21
0.4071428571426949
 72
     1
 10
10.95615223901148
 20
0.4071428571426949
 11
10.95615223901148
 21
-0.4071428571430218
 72
     1
 10
10.95615223901148
 20
-0.4071428571430218
 11
9.9790093818686287
 21
-0.4071428571430218
 72
     1
 10
9.9790093818686287
 20
-0.4071428571430218
 11
9.9790093818685861
 21
-1.6156437710884397
 97
        0
 75
     0
 76
     1
 98
        1
 10
0.0
 20
0.0
  0
HATCH
  5
8C
100
AcDbEntity
  8
0
  6
CONTINUOUS
 62
     3
100
AcDbHatch
 10
0.0
 20
0.0
 30
0.0
210
0.0
220
0.0
230
1.0
  2
SOLID
 70
     1
 71
     1
 91
        1
 92
        1
 93
       30
 72
     2
 10
-1.8979256098940809
 20
4.1519130391923014
 40
8.9164285714286002
 50
37.940537
 51
46.713808
 73
     0
 72
     1
 10
4.21556076329842
 20
-2.3386942385728418
 11
3.6682950961542744
 21
-1.7914285714286962
 72
     2
 10
-1.8979256098940809
 20
4.1519130391923014
 40
8.1428571428571743
 50
313.123325
 51
325.95222
 73
     1
 72
     1
 10
4.8490093818684983
 20
-0.4071428571430076
 11
3.8718665247257533
 21
-0.4071428571430076
 72
     1
 10
3.8718665247257533
 20
-0.4071428571430076
 11
3.8718665247257533
 21
0.4071428571427092
 72
     1
 10
3.8718665247257533
 20
0.4071428571427092
 11
5.1340093818686157
 21
0.4071428571427092
 72
     1
 10
5.1340093818686157
 20
0.4071428571427092
 11
5.1340093818686157
 21
1.2214285714284152
 72
     1
 10
5.1340093818686157
 20
1.2214285714284152
 11
4.7280236542212677
 21
1.2214285714284152
 72
     2
 10
-3.9789687629962955
 20
2.9438069062169916
 40
8.8757142857143183
 50
11.189535
 51
14.746058
 73
     0
 72
     1
 10
4.6044101437030562
 20
0.6846232869284066
 11
3.9125808104399411
 21
0.9364285714284044
 72
     2
 10
-3.9789687629962955
 20
2.9438069062169916
 40
8.1428571428571743
 50
345.728313
 51
357.620387
 73
     1
 72
     1
 10
4.1568665247257641
 20
2.6057142857165694
 11
4.8844833536651819
 21
2.4774158071570227
 72
     2
 10
-3.9789687629962955
 20
2.9438069062169916
 40
8.8757142857143183
 50
3.012102
 51
6.401006
 73
     0
 72
     1
 10
4.8414139890361767
 20
1.9542857142855716
 11
5.1340093818686157
 21
1.9542857142855716
 72
     1
 10
5.1340093818686157
 20
1.9542857142855716
 11
5.1340093818686157
 21
2.8499999999998487
 72
     1
 10
5.1340093818686157
 20
2.8499999999998487
 11
5.948295096154304
 21
2.8499999999998487
 72
     1
 10
5.948295096154304
 20
2.8499999999998487
 11
5.948295096154304
 21
1.9542857142855716
 72
     1
 10
5.948295096154304
 20
1.9542857142855716
 11
7.0475808104400599
 21
1.9542857142855716
 72
     1
 10
7.0475808104400599
 20
1.9542857142855716
 11
7.0475808104400599
 21
1.2214285714284152
 72
     1
 10
7.0475808104400599
 20
1.2214285714284152
 11
5.948295096154304
 21
1.2214285714284152
 72
     1
 10
5.948295096154304
 20
1.2214285714284152
 11
5.948295096154304
 21
0.4071428571427092
 72
     1
 10
5.948295096154304
 20
0.4071428571427092
 11
7.2104379532971521
 21
0.4071428571427092
 72
     1
 10
7.2104379532971521
 20
0.4071428571427092
 11
7.2104379532971521
 21
-0.4071428571430076
 72
     1
 10
7.2104379532971521
 20
-0.4071428571430076
 11
6.2332950961542579
 21
-0.4071428571430076
 72
     2
 10
12.98023008791683
 20
4.1519130391922907
 40
8.1428571428571743
 50
214.04778
 51
226.876675
 73
     1
 72
     1
 10
7.4140093818684889
 20
-1.7914285714286962
 11
6.866743714724322
 21
-2.3386942385728453
 72
     2
 10
12.98023008791683
 20
4.1519130391922907
 40
8.9164285714286002
 50
133.286192
 51
142.059463
 73
     0
 72
     1
 10
5.948295096154304
 20
-1.330293518482641
 11
5.948295096154304
 21
-2.8500000000001648
 72
     1
 10
5.948295096154304
 20
-2.8500000000001648
 11
5.1340093818686157
 21
-2.8500000000001648
 72
     1
 10
5.1340093818686157
 20
-2.8500000000001648
 11
5.1340093818686157
 21
-1.3302935184824136
 97
        0
 75
     0
 76
     1
 98
        1
 10
0.0
 20
0.0
  0
HATCH
  5
8D
100
AcDbEntity
  8
0
  6
CONTINUOUS
 62
     3
100
AcDbHatch
 10
0.0
 20
0.0
 30
0.0
210
0.0
220
0.0
230
1.0
  2
SOLID
 70
     1
 71
     1
 91
        1
 92
        1
 93
       19
 72
     2
 10
-5.2499698511775321
 20
3.0651230633969284
 40
8.8757142857143165
 50
27.683433
 51
32.280505
 73
     0
 72
     1
 10
2.2539459810095721
 20
-1.6750827617845943
 11
1.6732950961542841
 21
-1.2214285714287314
 72
     2
 10
-5.2499698511775321
 20
3.0651230633969284
 40
8.1428571428571708
 50
328.236207
 51
344.845745
 73
     1
 72
     1
 10
2.6097236675827773
 20
0.9364285714284151
 11
1.8768665247257346
 21
0.9364285714284151
 72
     1
 10
1.8768665247257346
 20
0.9364285714284151
 11
1.8768665247257346
 21
1.7507142857141353
 72
     1
 10
1.8768665247257346
 20
1.7507142857141353
 11
2.6097236675829052
 21
1.7507142857141353
 72
     1
 10
2.6097236675829052
 20
1.7507142857141353
 11
2.6097236675829052
 21
2.8499999999998487
 72
     1
 10
2.6097236675829052
 20
2.8499999999998487
 11
3.4240093818685935
 21
2.8499999999998487
 72
     1
 10
3.4240093818685935
 20
2.8499999999998487
 11
3.4240093818685935
 21
1.7507142857141353
 72
     1
 10
3.4240093818685935
 20
1.7507142857141353
 11
3.7904379532971788
 21
1.7507142857141353
 72
     1
 10
3.7904379532971788
 20
1.7507142857141353
 11
3.7904379532971788
 21
0.9364285714284151
 72
     1
 10
3.7904379532971788
 20
0.9364285714284151
 11
3.4240093818685367
 21
0.9364285714284151
 72
     1
 10
3.4240093818685367
 20
0.9364285714284151
 11
3.8718665247257533
 21
0.2968222855516665
 72
     1
 10
3.8718665247257533
 20
0.2968222855516665
 11
3.8718665247257533
 21
-0.1989042363292235
 72
     1
 10
3.8718665247257533
 20
-0.1989042363292235
 11
3.6275808104399871
 21
-0.4900326139487277
 72
     1
 10
3.6275808104399871
 20
-0.4900326139487277
 11
3.4240093818685935
 21
-0.1993024840048498
 72
     1
 10
3.4240093818685935
 20
-0.1993024840048498
 11
3.4240093818685935
 21
-2.8500000000001648
 72
     1
 10
3.4240093818685935
 20
-2.8500000000001648
 11
2.6097236675829052
 21
-2.8500000000001648
 72
     1
 10
2.6097236675829052
 20
-2.8500000000001648
 11
2.6097236675829052
 21
-1.0584096299120844
 97
        0
 75
     0
 76
     1
 98
        1
 10
0.0
 20
0.0
  0
HATCH
  5
8E
100
AcDbEntity
  8
0
  6
CONTINUOUS
 62
     3
100
AcDbHatch
 10
0.0
 20
0.0
 30
0.0
210
0.0
220
0.0
230
1.0
  2
SOLID
 70
     1
 71
     1
 91
        1
 92
        1
 93
        8
 72
     2
 10
-1.8298808996504405
 20
-0.4560000000002766
 40
1.596000000000013
 50
270.0
 51
330.0
 73
     1
 72
     2
 10
-2.619696067901863
 20
-0.00000000000027
 40
2.508000000000012
 50
330.0
 51
30.0
 73
     1
 72
     2
 10
-1.8298808996504405
 20
0.4559999999997331
 40
1.5960000000000121
 50
30.0
 51
90.0
 73
     1
 72
     1
 10
-1.82988089965
 20
2.0519999999997438
 11
-1.82988089965
 21
2.9639999999999276
 72
     2
 10
-1.8298808996504974
 20
0.4559999999999214
 40
2.508000000000008
 50
270.0
 51
330.0
 73
     0
 72
     2
 10
-2.6196960679017494
 20
-0.0000000000001243
 40
3.420000000000015
 50
330.0
 51
30.0
 73
     0
 72
     2
 10
-1.8298808996503837
 20
-0.456000000000369
 40
2.5080000000000053
 50
30.0
 51
90.0
 73
     0
 72
     1
 10
-1.82988089965
 20
-2.9640000000003752
 11
-1.82988089965
 21
-2.0520000000002909
 97
        0
 75
     0
 76
     1
 98
        1
 10
0.0
 20
0.0
  0
HATCH
  5
8F
100
AcDbEntity
  8
0
  6
CONTINUOUS
 62
     3
100
AcDbHatch
 10
0.0
 20
0.0
 30
0.0
210
0.0
220
0.0
230
1.0
  2
SOLID
 70
     1
 71
     1
 91
        1
 92
        1
 93
        8
 72
     2
 10
-1.8298808996503837
 20
-0.456000000000369
 40
2.5080000000000053
 50
90.0
 51
150.0
 73
     0
 72
     2
 10
-1.0400657313991175
 20
-0.0000000000003126
 40
3.4200000000000181
 50
150.0
 51
210.0
 73
     0
 72
     2
 10
-1.8298808996504974
 20
0.4559999999999214
 40
2.508000000000008
 50
210.0
 51
270.0
 73
     0
 72
     1
 10
-1.82988089965
 20
2.9639999999999276
 11
-1.82988089965
 21
2.0519999999997438
 72
     2
 10
-1.8298808996504405
 20
0.4559999999997331
 40
1.5960000000000121
 50
90.0
 51
150.0
 73
     1
 72
     2
 10
-1.040065731399018
 20
-0.00000000000027
 40
2.5080000000000129
 50
150.0
 51
210.0
 73
     1
 72
     2
 10
-1.8298808996504405
 20
-0.4560000000002766
 40
1.596000000000013
 50
210.0
 51
270.0
 73
     1
 72
     1
 10
-1.82988089965
 20
-2.0520000000002909
 11
-1.82988089965
 21
-2.9640000000003752
 97
        0
 75
     0
 76
     1
 98
        1
 10
0.0
 20
0.0
  0
HATCH
  5
90
100
AcDbEntity
  8
0
  6
CONTINUOUS
 62
     3
100
AcDbHatch
 10
0.0
 20
0.0
 30
0.0
210
0.0
220
0.0
230
1.0
  2
SOLID
 70
     1
 71
     1
 91
        1
 92
        1
 93
        4
 72
     1
 10
-5.3638808996504608
 20
-1.0260000000002698
 11
-6.2758808996504385
 21
-1.0260000000002698
 72
     1
 10
-6.2758808996504385
 20
-1.0260000000002698
 11
-6.2758808996504385
 21
-0.1140000000002743
 72
     1
 10
-6.2758808996504385
 20
-0.1140000000002743
 11
-5.3638808996504608
 21
-0.1140000000002743
 72
     1
 10
-5.3638808996504608
 20
-0.1140000000002743
 11
-5.3638808996504608
 21
-1.0260000000003267
 97
        0
 75
     0
 76
     1
 98
        1
 10
0.0
 20
0.0
  0
HATCH
  5
91
100
AcDbEntity
  8
0
  6
CONTINUOUS
 62
     3
100
AcDbHatch
 10
0.0
 20
0.0
 30
0.0
210
0.0
220
0.0
230
1.0
  2
SOLID
 70
     1
 71
     1
 91
        1
 92
        1
 93
       16
 72
     1
 10
-9.6958808996504686
 20
1.9379999999997324
 11
-10.949880899650459
 21
1.9379999999997324
 72
     1
 10
-10.949880899650459
 20
1.9379999999997324
 11
-11.177880899650468
 21
0.6839999999997275
 72
     1
 10
-11.177880899650468
 20
0.6839999999997275
 11
-11.861880899650437
 21
0.6839999999997275
 72
     1
 10
-11.861880899650437
 20
0.6839999999997275
 11
-11.861880899650437
 21
2.8499999999997421
 72
     1
 10
-11.861880899650437
 20
2.8499999999997421
 11
-6.6178808996504515
 21
2.8499999999997421
 72
     1
 10
-6.6178808996504515
 20
2.8499999999997421
 11
-6.6178808996504515
 21
0.6839999999997275
 72
     1
 10
-6.6178808996504515
 20
0.6839999999997275
 11
-7.3018808996504205
 21
0.6839999999997275
 72
     1
 10
-7.3018808996504205
 20
0.6839999999997275
 11
-7.5298808996504292
 21
1.9379999999997324
 72
     1
 10
-7.5298808996504292
 20
1.9379999999997324
 11
-8.7838808996504767
 21
1.9379999999997324
 72
     1
 10
-8.7838808996504767
 20
1.9379999999997324
 11
-8.7838808996504341
 21
-1.9380000000002759
 72
     1
 10
-8.7838808996504341
 20
-1.9380000000002759
 11
-7.8718808996504421
 21
-2.1660000000002846
 72
     1
 10
-7.8718808996504421
 20
-2.1660000000002846
 11
-7.8718808996504421
 21
-2.8500000000002856
 72
     1
 10
-7.8718808996504421
 20
-2.8500000000002856
 11
-10.607880899650446
 21
-2.8500000000002856
 72
     1
 10
-10.607880899650446
 20
-2.8500000000002856
 11
-10.607880899650446
 21
-2.1660000000002846
 72
     1
 10
-10.607880899650446
 20
-2.1660000000002846
 11
-9.6958808996504686
 21
-1.9380000000002759
 72
     1
 10
-9.6958808996504686
 20
-1.9380000000002759
 11
-9.6958808996504686
 21
1.9379999999997324
 97
        0
 75
     0
 76
     1
 98
        1
 10
0.0
 20
0.0
  0
HATCH
  5
92
100
AcDbEntity
  8
0
  6
CONTINUOUS
 62
     3
100
AcDbHatch
 10
0.0
 20
0.0
 30
0.0
210
0.0
220
0.0
230
1.0
  2
SOLID
 70
     1
 71
     1
 91
        1
 92
        1
 93
        4
 72
     1
 10
-13.115880899650485
 20
-1.0260000000002698
 11
-13.115880899650428
 21
-0.1140000000002175
 72
     1
 10
-13.115880899650428
 20
-0.1140000000002175
 11
-12.20388089965045
 21
-0.1140000000002743
 72
     1
 10
-12.20388089965045
 20
-0.1140000000002743
 11
-12.20388089965045
 21
-1.0260000000002698
 72
     1
 10
-12.20388089965045
 20
-1.0260000000002698
 11
-13.115880899650428
 21
-1.0260000000002698
 97
        0
 75
     0
 76
     1
 98
        1
 10
0.0
 20
0.0
  0
HATCH
  5
93
100
AcDbEntity
  8
0
  6
CONTINUOUS
 62
     3
100
AcDbHatch
 10
0.0
 20
0.0
 30
0.0
210
0.0
220
0.0
230
1.0
  2
SOLID
 70
     1
 71
     1
 91
        1
 92
        1
 93
       12
 72
     1
 10
-14.141880899650467
 20
2.8499999999997421
 11
-14.141880899650467
 21
2.1659999999997304
 72
     1
 10
-14.141880899650467
 20
2.1659999999997304
 11
-15.053880899650444
 21
1.9379999999997324
 72
     1
 10
-15.053880899650444
 20
1.9379999999997324
 11
-15.053880899650444
 21
-1.9380000000002759
 72
     1
 10
-15.053880899650444
 20
-1.9380000000002759
 11
-14.141880899650467
 21
-2.1660000000002846
 72
     1
 10
-14.141880899650467
 20
-2.1660000000002846
 11
-14.141880899650467
 21
-2.8500000000002856
 72
     1
 10
-14.141880899650467
 20
-2.8500000000002856
 11
-16.877880899650467
 21
-2.8500000000002856
 72
     1
 10
-16.877880899650467
 20
-2.8500000000002856
 11
-16.877880899650467
 21
-2.1660000000002846
 72
     1
 10
-16.877880899650467
 20
-2.1660000000002846
 11
-15.965880899650482
 21
-1.9380000000002759
 72
     1
 10
-15.965880899650482
 20
-1.9380000000002759
 11
-15.965880899650482
 21
1.9379999999997324
 72
     1
 10
-15.965880899650482
 20
1.9379999999997324
 11
-16.877880899650467
 21
2.165999999999741
 72
     1
 10
-16.877880899650467
 20
2.165999999999741
 11
-16.877880899650467
 21
2.8499999999997421
 72
     1
 10
-16.877880899650467
 20
2.8499999999997421
 11
-14.141880899650467
 21
2.8499999999997421
 97
        0
 75
     0
 76
     1
 98
        1
 10
0.0
 20
0.0
  0
HATCH
  5
94
100
AcDbEntity
  8
0
  6
CONTINUOUS
 62
     3
100
AcDbHatch
 10
0.0
 20
0.0
 30
0.0
210
0.0
220
0.0
230
1.0
  2
SOLID
 70
     1
 71
     1
 91
        1
 92
        1
 93
       15
 72
     2
 10
-23.082241990843084
 20
-0.0000000000001492
 40
2.531053105310535
 50
124.301153
 51
180.0
 73
     0
 72
     1
 10
-25.613295096153617
 20
0.0
 11
-24.658234262528236
 21
0.0
 72
     2
 10
-22.195587997901765
 20
-0.000000000000135
 40
2.46264626462647
 50
180.0
 51
199.464384
 73
     1
 72
     2
 10
-24.557343260027135
 20
0.2731786481661374
 40
1.094509450945121
 50
272.086657
 51
294.619977
 73
     1
 72
     2
 10
-24.243863734539655
 20
-0.4108897586745677
 40
0.342034203420344
 50
294.619977
 51
0.0
 73
     1
 72
     1
 10
-23.901829531119287
 20
-0.4108897586745677
 11
-23.901829531119287
 21
0.0
 72
     1
 10
-23.901829531119287
 20
0.0
 11
-23.080947442910482
 21
0.0
 72
     1
 10
-23.080947442910482
 20
0.0
 11
-23.080947442910482
 21
-0.4116155274721614
 72
     2
 10
-22.73891323949012
 20
-0.4116155274721614
 40
0.34203420342033
 50
180.0
 51
245.380023
 73
     1
 72
     2
 10
-22.425433714002583
 20
0.2724528793686645
 40
1.0945094509452411
 50
245.380023
 51
267.913343
 73
     1
 72
     1
 10
-22.465285876753814
 20
-0.8213308027789985
 11
-22.465285876753814
 21
-1.0265513248311819
 72
     1
 10
-22.465285876753814
 20
-1.0265513248311819
 11
-24.434073870576871
 21
-1.0265513248311962
 72
     2
 10
-22.195587997901708
 20
-0.000000000000135
 40
2.4626462646264669
 50
204.635803
 51
268.19864
 73
     1
 72
     1
 10
-22.272999999999005
 20
-2.4614292609397985
 11
-22.272999999999005
 21
-2.8039503813289706
 72
     2
 10
-22.195587997901765
 20
1.2997299729972909
 40
4.1044104410441236
 50
91.080702
 51
124.301153
 73
     0
 97
        0
 75
     0
 76
     1
 98
        1
 10
0.0
 20
0.0
  0
HATCH
  5
95
100
AcDbEntity
  8
0
  6
CONTINUOUS
 62
     3
100
AcDbHatch
 10
0.0
 20
0.0
 30
0.0
210
0.0
220
0.0
230
1.0
  2
SOLID
 70
     1
 71
     1
 91
        1
 92
        1
 93
       24
 72
     2
 10
-22.67055612196938
 20
0.3420342034202015
 40
0.342034203420347
 50
90.0
 51
157.380135
 73
     1
 72
     2
 10
-21.849674033760575
 20
-0.0000000000001101
 40
1.231323132313237
 50
157.380135
 51
180.0
 73
     1
 72
     1
 10
-23.080997166073811
 20
0.0
 11
-23.901829531119287
 21
0.0
 72
     1
 10
-23.901829531119287
 20
0.0
 11
-23.901829531119287
 21
1.7757720729310194
 72
     2
 10
-22.195587997901765
 20
-0.000000000000135
 40
2.46264626462647
 50
133.856042
 51
180.0
 73
     1
 72
     1
 10
-24.658234262528236
 20
0.0
 11
-25.613295096153617
 21
0.0
 72
     2
 10
-23.082241990843084
 20
-0.0000000000001492
 40
2.531053105310535
 50
180.0
 51
235.698847
 73
     0
 72
     2
 10
-22.195587997901708
 20
-1.2997299729975893
 40
4.1044104410441324
 50
235.698847
 51
245.436008
 73
     0
 72
     1
 10
-23.901829531119287
 20
2.4332212587861193
 11
-23.901829531119287
 21
2.8049575222742433
 72
     2
 10
-24.243863734539655
 20
2.8049575222742433
 40
0.3420342034203421
 50
0.0
 51
65.380023
 73
     1
 72
     2
 10
-24.557343260027135
 20
2.1208891154335525
 40
1.0945094509450961
 50
65.380023
 51
87.913343
 73
     1
 72
     1
 10
-24.517491097275904
 20
3.2146727975810734
 11
-24.517491097275904
 21
3.4198933196332746
 72
     1
 10
-24.517491097275904
 20
3.4198933196332746
 11
-22.465285876753814
 21
3.4198933196332746
 72
     1
 10
-22.465285876753814
 20
3.4198933196332746
 11
-22.465285876753814
 21
3.2146727975810769
 72
     2
 10
-22.425433714002583
 20
2.1208891154335525
 40
1.094509450945101
 50
92.086657
 51
114.619977
 73
     1
 72
     2
 10
-22.738913239490063
 20
2.8049575222742575
 40
0.342034203420347
 50
114.619977
 51
180.0
 73
     1
 72
     1
 10
-23.080947442910432
 20
2.8049575222742433
 11
-23.080947442910432
 21
2.7080529205341897
 72
     2
 10
-22.195587997901765
 20
-1.2997299729975893
 40
4.1044104410441218
 50
257.542857
 51
268.919298
 73
     0
 72
     1
 10
-22.272999999999005
 20
2.8039503813286721
 11
-22.272999999999005
 21
2.4614292609395321
 72
     2
 10
-22.195587997901708
 20
-0.000000000000135
 40
2.46264626462647
 50
91.80136
 51
111.070443
 73
     1
 72
     1
 10
-23.080947442910482
 20
2.2979915747913111
 11
-23.080947442910482
 21
1.0261026102608923
 72
     1
 10
-23.080947442910482
 20
1.0261026102608923
 11
-22.272999999998969
 21
1.0261026102608923
 72
     1
 10
-22.272999999998969
 20
1.0261026102608923
 11
-22.272999999999005
 21
0.6840684068405416
 72
     1
 10
-22.272999999999005
 20
0.6840684068405416
 11
-22.67055612196938
 21
0.6840684068405416
 97
        0
 75
     0
 76
     1
 98
        1
 10
0.0
 20
0.0
  0
HATCH
  5
96
100
AcDbEntity
  8
0
  6
CONTINUOUS
 62
     3
100
AcDbHatch
 10
0.0
 20
0.0
 30
0.0
210
0.0
220
0.0
230
1.0
  2
SOLID
 70
     1
 71
     1
 91
        1
 92
        1
 93
       14
 72
     2
 10
-22.195587997901765
 20
-0.000000000000135
 40
2.4626462646264748
 50
0.0
 51
9.281799
 73
     1
 72
     2
 10
-20.102741104833992
 20
0.3420342034202015
 40
0.34203420342034
 50
9.281799
 51
90.0
 73
     1
 72
     1
 10
-20.102741104833992
 20
0.6840684068405416
 11
-20.827451184220411
 21
0.6840684068405416
 72
     1
 10
-20.827451184220411
 20
0.6840684068405416
 11
-20.827451184220411
 21
0.0
 72
     1
 10
-20.827451184220411
 20
0.0
 11
-21.648333272429209
 21
0.0
 72
     1
 10
-21.648333272429209
 20
0.0
 11
-21.648333272429209
 21
0.6840684068405416
 72
     1
 10
-21.648333272429209
 20
0.6840684068405416
 11
-22.272999999999005
 21
0.6840684068405416
 72
     1
 10
-22.272999999999005
 20
0.6840684068405416
 11
-22.272999999999005
 21
1.0261026102608923
 72
     1
 10
-22.272999999999005
 20
1.0261026102608923
 11
-19.956896402818945
 21
1.0261026102608675
 72
     2
 10
-22.195587997901708
 20
-0.000000000000135
 40
2.46264626462647
 50
24.624318
 51
91.80136
 73
     1
 72
     1
 10
-22.272999999999005
 20
2.4614292609395321
 11
-22.272999999999005
 21
2.8039503813286721
 72
     2
 10
-22.195587997901765
 20
-1.2997299729975893
 40
4.1044104410441218
 50
268.919298
 51
304.301153
 73
     0
 72
     2
 10
-21.308934004960445
 20
-0.0000000000001492
 40
2.5310531053105372
 50
304.301153
 51
0.0
 73
     0
 72
     1
 10
-18.777880899649912
 20
0.0
 11
-19.732941733275293
 21
0.0
 97
        0
 75
     0
 76
     1
 98
        1
 10
0.0
 20
0.0
  0
HATCH
  5
97
100
AcDbEntity
  8
0
  6
CONTINUOUS
 62
     3
100
AcDbHatch
 10
0.0
 20
0.0
 30
0.0
210
0.0
220
0.0
230
1.0
  2
SOLID
 70
     1
 71
     1
 91
        1
 92
        1
 93
       19
 72
     2
 10
-22.195587997901765
 20
-0.000000000000135
 40
2.4626462646264748
 50
303.748989
 51
0.0
 73
     1
 72
     1
 10
-19.732941733275293
 20
0.0
 11
-18.777880899649912
 21
0.0
 72
     2
 10
-21.308934004960445
 20
-0.0000000000001492
 40
2.5310531053105372
 50
0.0
 51
55.698847
 73
     0
 72
     2
 10
-22.195587997901708
 20
1.2997299729973051
 40
4.1044104410441289
 50
55.698847
 51
70.528779
 73
     0
 72
     1
 10
-20.827451184220411
 20
-2.5699453011829512
 11
-20.827451184220411
 21
-2.8054062368445436
 72
     2
 10
-20.485416980800043
 20
-2.8054062368445436
 40
0.342034203420344
 50
180.0
 51
245.380023
 73
     1
 72
     2
 10
-20.171937455312563
 20
-2.1213378300038528
 40
1.094509450945099
 50
245.380023
 51
267.913343
 73
     1
 72
     1
 10
-20.211789618063744
 20
-3.2151215121513772
 11
-20.211789618063744
 21
-3.4203420342035784
 72
     1
 10
-20.211789618063744
 20
-3.4203420342035784
 11
-22.263994838585827
 21
-3.4203420342035784
 72
     1
 10
-22.263994838585827
 20
-3.4203420342035784
 11
-22.263994838585827
 21
-3.2151215121513737
 72
     2
 10
-22.303847001337058
 20
-2.1213378300038528
 40
1.094509450945099
 50
272.086657
 51
294.619977
 73
     1
 72
     2
 10
-21.990367475849578
 20
-2.8054062368445436
 40
0.342034203420344
 50
294.619977
 51
0.0
 73
     1
 72
     1
 10
-21.648333272429209
 20
-2.8054062368445436
 11
-21.648333272429209
 21
-2.7680332125876284
 72
     2
 10
-22.195587997901765
 20
1.2997299729972909
 40
4.1044104410441236
 50
82.337744
 51
91.080702
 73
     0
 72
     1
 10
-22.272999999999005
 20
-2.8039503813289706
 11
-22.272999999999005
 21
-2.4614292609397985
 72
     2
 10
-22.195587997901708
 20
-0.000000000000135
 40
2.4626462646264669
 50
268.19864
 51
282.839588
 73
     1
 72
     1
 10
-21.648333272429209
 20
-2.4010703634269781
 11
-21.648333272429209
 21
0.0
 72
     1
 10
-21.648333272429209
 20
0.0
 11
-20.827451184220411
 21
0.0
 72
     1
 10
-20.827451184220411
 20
0.0
 11
-20.827451184220411
 21
-2.047639686011447
 97
        0
 75
     0
 76
     1
 98
        1
 10
0.0
 20
0.0
  0
ENDBLK
  5
98
100
AcDbEntity
  8
0
100
AcDbBlockEnd
  0
ENDSEC
  0
SECTION
  2
ENTITIES
  0
LINE
  5
99
100
AcDbEntity
  8
LAY-1
  6
CONTINUOUS
 62
     1
100
AcDbLine
 10
240.51148
 20
138.985059
 30
0.0
 11
240.506756
 21
138.980335
 31
0.0
  0
LINE
  5
9A
100
AcDbEntity
  8
LAY-1
  6
CONTINUOUS
 62
     1
100
AcDbLine
 10
240.367485
 20
139.185778
 30
0.0
 11
240.112511
 21
138.930805
 31
0.0
  0
LINE
  5
9B
100
AcDbEntity
  8
LAY-1
  6
CONTINUOUS
 62
     1
100
AcDbLine
 10
239.980234
 20
139.143242
 30
0.0
 11
239.743426
 21
138.906434
 31
0.0
  0
LINE
  5
9C
100
AcDbEntity
  8
LAY-1
  6
CONTINUOUS
 62
     1
100
AcDbLine
 10
239.616876
 20
139.124599
 30
0.0
 11
239.394999
 21
138.902721
 31
0.0
  0
LINE
  5
9D
100
AcDbEntity
  8
LAY-1
  6
CONTINUOUS
 62
     1
100
AcDbLine
 10
239.277588
 20
139.130025
 30
0.0
 11
239.064074
 21
138.916511
 31
0.0
  0
LINE
  5
9E
100
AcDbEntity
  8
LAY-1
  6
CONTINUOUS
 62
     1
100
AcDbLine
 10
238.958161
 20
139.155313
 30
0.0
 11
238.748341
 21
138.945493
 31
0.0
  0
LINE
  5
9F
100
AcDbEntity
  8
LAY-1
  6
CONTINUOUS
 62
     1
100
AcDbLine
 10
238.65564
 20
139.197506
 30
0.0
 11
238.446048
 21
138.987914
 31
0.0
  0
LINE
  5
A0
100
AcDbEntity
  8
LAY-1
  6
CONTINUOUS
 62
     1
100
AcDbLine
 10
238.367858
 20
139.254439
 30
0.0
 11
238.155835
 21
139.042416
 31
0.0
  0
LINE
  5
A1
100
AcDbEntity
  8
LAY-1
  6
CONTINUOUS
 62
     1
100
AcDbLine
 10
238.093173
 20
139.324468
 30
0.0
 11
237.876622
 21
139.107918
 31
0.0
  0
LINE
  5
A2
100
AcDbEntity
  8
LAY-1
  6
CONTINUOUS
 62
     1
100
AcDbLine
 10
237.83031
 20
139.40632
 30
0.0
 11
237.60754
 21
139.18355
 31
0.0
  0
LINE
  5
A3
100
AcDbEntity
  8
LAY-1
  6
CONTINUOUS
 62
     1
100
AcDbLine
 10
237.578261
 20
139.498985
 30
0.0
 11
237.347879
 21
139.268603
 31
0.0
  0
LINE
  5
A4
100
AcDbEntity
  8
LAY-1
  6
CONTINUOUS
 62
     1
100
AcDbLine
 10
237.336214
 20
139.601653
 30
0.0
 11
237.097053
 21
139.362492
 31
0.0
  0
LINE
  5
A5
100
AcDbEntity
  8
LAY-1
  6
CONTINUOUS
 62
     1
100
AcDbLine
 10
237.103514
 20
139.713668
 30
0.0
 11
236.854579
 21
139.464732
 31
0.0
  0
LINE
  5
A6
100
AcDbEntity
  8
LAY-1
  6
CONTINUOUS
 62
     1
100
AcDbLine
 10
236.879622
 20
139.83449
 30
0.0
 11
236.620052
 21
139.57492
 31
0.0
  0
LINE
  5
A7
100
AcDbEntity
  8
LAY-1
  6
CONTINUOUS
 62
     1
100
AcDbLine
 10
236.664096
 20
139.963679
 30
0.0
 11
236.393136
 21
139.692719
 31
0.0
  0
LINE
  5
A8
100
AcDbEntity
  8
LAY-1
  6
CONTINUOUS
 62
     1
100
AcDbLine
 10
236.456574
 20
140.100871
 30
0.0
 11
236.173552
 21
139.81785
 31
0.0
  0
LINE
  5
A9
100
AcDbEntity
  8
LAY-1
  6
CONTINUOUS
 62
     1
100
AcDbLine
 10
236.256759
 20
140.245771
 30
0.0
 11
235.961069
 21
139.950081
 31
0.0
  0
LINE
  5
AA
100
AcDbEntity
  8
LAY-1
  6
CONTINUOUS
 62
     1
100
AcDbLine
 10
236.064412
 20
140.398138
 30
0.0
 11
235.755497
 21
140.089223
 31
0.0
  0
LINE
  5
AB
100
AcDbEntity
  8
LAY-1
  6
CONTINUOUS
 62
     1
100
AcDbLine
 10
235.879341
 20
140.557782
 30
0.0
 11
235.556685
 21
140.235126
 31
0.0
  0
LINE
  5
AC
100
AcDbEntity
  8
LAY-1
  6
CONTINUOUS
 62
     1
100
AcDbLine
 10
235.701399
 20
140.724555
 30
0.0
 11
235.364516
 21
140.387672
 31
0.0
  0
LINE
  5
AD
100
AcDbEntity
  8
LAY-1
  6
CONTINUOUS
 62
     1
100
AcDbLine
 10
235.530479
 20
140.898349
 30
0.0
 11
235.178905
 21
140.546775
 31
0.0
  0
LINE
  5
AE
100
AcDbEntity
  8
LAY-1
  6
CONTINUOUS
 62
     1
100
AcDbLine
 10
235.36651
 20
141.079094
 30
0.0
 11
234.999794
 21
140.712378
 31
0.0
  0
LINE
  5
AF
100
AcDbEntity
  8
LAY-1
  6
CONTINUOUS
 62
     1
100
AcDbLine
 10
235.209455
 20
141.266755
 30
0.0
 11
234.827154
 21
140.884453
 31
0.0
  0
LINE
  5
B0
100
AcDbEntity
  8
LAY-1
  6
CONTINUOUS
 62
     1
100
AcDbLine
 10
235.059315
 20
141.461328
 30
0.0
 11
234.660984
 21
141.062998
 31
0.0
  0
LINE
  5
B1
100
AcDbEntity
  8
LAY-1
  6
CONTINUOUS
 62
     1
100
AcDbLine
 10
234.91612
 20
141.662849
 30
0.0
 11
234.501312
 21
141.24804
 31
0.0
  0
LINE
  5
B2
100
AcDbEntity
  8
LAY-1
  6
CONTINUOUS
 62
     1
100
AcDbLine
 10
234.77994
 20
141.871383
 30
0.0
 11
234.34819
 21
141.439633
 31
0.0
  0
LINE
  5
B3
100
AcDbEntity
  8
LAY-1
  6
CONTINUOUS
 62
     1
100
AcDbLine
 10
234.650878
 20
142.087035
 30
0.0
 11
234.201702
 21
141.63786
 31
0.0
  0
LINE
  5
B4
100
AcDbEntity
  8
LAY-1
  6
CONTINUOUS
 62
     1
100
AcDbLine
 10
234.529077
 20
142.309949
 30
0.0
 11
234.061964
 21
141.842836
 31
0.0
  0
LINE
  5
B5
100
AcDbEntity
  8
LAY-1
  6
CONTINUOUS
 62
     1
100
AcDbLine
 10
234.414726
 20
142.540312
 30
0.0
 11
233.929122
 21
142.054708
 31
0.0
  0
LINE
  5
B6
100
AcDbEntity
  8
LAY-1
  6
CONTINUOUS
 62
     1
100
AcDbLine
 10
234.308059
 20
142.77836
 30
0.0
 11
233.803363
 21
142.273664
 31
0.0
  0
LINE
  5
B7
100
AcDbEntity
  8
LAY-1
  6
CONTINUOUS
 62
     1
100
AcDbLine
 10
234.209367
 20
143.024382
 30
0.0
 11
233.684913
 21
142.499928
 31
0.0
  0
LINE
  5
B8
100
AcDbEntity
  8
LAY-1
  6
CONTINUOUS
 62
     1
100
AcDbLine
 10
234.119007
 20
143.278737
 30
0.0
 11
233.574047
 21
142.733778
 31
0.0
  0
LINE
  5
B9
100
AcDbEntity
  8
LAY-1
  6
CONTINUOUS
 62
     1
100
AcDbLine
 10
234.037413
 20
143.541858
 30
0.0
 11
233.471098
 21
142.975542
 31
0.0
  0
LINE
  5
BA
100
AcDbEntity
  8
LAY-1
  6
CONTINUOUS
 62
     1
100
AcDbLine
 10
233.965113
 20
143.814272
 30
0.0
 11
233.376461
 21
143.22562
 31
0.0
  0
LINE
  5
BB
100
AcDbEntity
  8
LAY-1
  6
CONTINUOUS
 62
     1
100
AcDbLine
 10
233.902754
 20
144.096628
 30
0.0
 11
233.290614
 21
143.484488
 31
0.0
  0
LINE
  5
BC
100
AcDbEntity
  8
LAY-1
  6
CONTINUOUS
 62
     1
100
AcDbLine
 10
233.85113
 20
144.389718
 30
0.0
 11
233.214133
 21
143.752721
 31
0.0
  0
LINE
  5
BD
100
AcDbEntity
  8
LAY-1
  6
CONTINUOUS
 62
     1
100
AcDbLine
 10
233.811231
 20
144.694534
 30
0.0
 11
233.147714
 21
144.031017
 31
0.0
  0
LINE
  5
BE
100
AcDbEntity
  8
LAY-1
  6
CONTINUOUS
 62
     1
100
AcDbLine
 10
233.784305
 20
145.012322
 30
0.0
 11
233.092212
 21
144.320229
 31
0.0
  0
LINE
  5
BF
100
AcDbEntity
  8
LAY-1
  6
CONTINUOUS
 62
     1
100
AcDbLine
 10
233.771955
 20
145.344687
 30
0.0
 11
233.048685
 21
144.621417
 31
0.0
  0
LINE
  5
C0
100
AcDbEntity
  8
LAY-1
  6
CONTINUOUS
 62
     1
100
AcDbLine
 10
233.776296
 20
145.693743
 30
0.0
 11
233.018466
 21
144.935913
 31
0.0
  0
LINE
  5
C1
100
AcDbEntity
  8
LAY-1
  6
CONTINUOUS
 62
     1
100
AcDbLine
 10
233.800199
 20
146.062361
 30
0.0
 11
233.003266
 21
145.265428
 31
0.0
  0
LINE
  5
C2
100
AcDbEntity
  8
LAY-1
  6
CONTINUOUS
 62
     1
100
AcDbLine
 10
233.847736
 20
146.454612
 30
0.0
 11
233.005339
 21
145.612215
 31
0.0
  0
LINE
  5
C3
100
AcDbEntity
  8
LAY-1
  6
CONTINUOUS
 62
     1
100
AcDbLine
 10
233.925013
 20
146.876604
 30
0.0
 11
233.02775
 21
145.97934
 31
0.0
  0
LINE
  5
C4
100
AcDbEntity
  8
LAY-1
  6
CONTINUOUS
 62
     1
100
AcDbLine
 10
234.041977
 20
147.338281
 30
0.0
 11
233.074853
 21
146.371158
 31
0.0
  0
LINE
  5
C5
100
AcDbEntity
  8
LAY-1
  6
CONTINUOUS
 62
     1
100
AcDbLine
 10
234.217015
 20
147.858034
 30
0.0
 11
233.153206
 21
146.794226
 31
0.0
  0
LINE
  5
C6
100
AcDbEntity
  8
LAY-1
  6
CONTINUOUS
 62
     1
100
AcDbLine
 10
234.492895
 20
148.478629
 30
0.0
 11
233.273545
 21
147.259279
 31
0.0
  0
LINE
  5
C7
100
AcDbEntity
  8
LAY-1
  6
CONTINUOUS
 62
     1
100
AcDbLine
 10
237.103125
 20
151.433573
 30
0.0
 11
236.277242
 21
150.60769
 31
0.0
  0
LINE
  5
C8
100
AcDbEntity
  8
LAY-1
  6
CONTINUOUS
 62
     1
100
AcDbLine
 10
235.055581
 20
149.386029
 30
0.0
 11
233.45592
 21
147.786369
 31
0.0
  0
LINE
  5
C9
100
AcDbEntity
  8
LAY-1
  6
CONTINUOUS
 62
     1
100
AcDbLine
 10
236.476954
 20
151.152117
 30
0.0
 11
233.747883
 21
148.423046
 31
0.0
  0
LINE
  5
CA
100
AcDbEntity
  8
LAY-1
  6
CONTINUOUS
 62
     1
100
AcDbLine
 10
235.505558
 20
150.525436
 30
0.0
 11
234.374564
 21
149.394442
 31
0.0
  0
LINE
  5
CB
100
AcDbEntity
  8
LAY-1
  6
CONTINUOUS
 62
     1
100
AcDbLine
 10
243.165857
 20
137.847576
 30
0.0
 11
243.047764
 21
137.729483
 31
0.0
  0
LINE
  5
CC
100
AcDbEntity
  8
LAY-1
  6
CONTINUOUS
 62
     1
100
AcDbLine
 10
243.083235
 20
138.109668
 30
0.0
 11
242.828951
 21
137.855384
 31
0.0
  0
LINE
  5
CD
100
AcDbEntity
  8
LAY-1
  6
CONTINUOUS
 62
     1
100
AcDbLine
 10
243.000612
 20
138.37176
 30
0.0
 11
242.610137
 21
137.981285
 31
0.0
  0
LINE
  5
CE
100
AcDbEntity
  8
LAY-1
  6
CONTINUOUS
 62
     1
100
AcDbLine
 10
242.91799
 20
138.633852
 30
0.0
 11
242.391324
 21
138.107186
 31
0.0
  0
LINE
  5
CF
100
AcDbEntity
  8
LAY-1
  6
CONTINUOUS
 62
     1
100
AcDbLine
 10
242.835367
 20
138.895944
 30
0.0
 11
242.17251
 21
138.233087
 31
0.0
  0
LINE
  5
D0
100
AcDbEntity
  8
LAY-1
  6
CONTINUOUS
 62
     1
100
AcDbLine
 10
242.752745
 20
139.158036
 30
0.0
 11
241.953697
 21
138.358988
 31
0.0
  0
LINE
  5
D1
100
AcDbEntity
  8
LAY-1
  6
CONTINUOUS
 62
     1
100
AcDbLine
 10
242.670122
 20
139.420129
 30
0.0
 11
241.734883
 21
138.484889
 31
0.0
  0
LINE
  5
D2
100
AcDbEntity
  8
LAY-1
  6
CONTINUOUS
 62
     1
100
AcDbLine
 10
242.5875
 20
139.682221
 30
0.0
 11
241.51607
 21
138.61079
 31
0.0
  0
LINE
  5
D3
100
AcDbEntity
  8
LAY-1
  6
CONTINUOUS
 62
     1
100
AcDbLine
 10
242.5875
 20
140.026935
 30
0.0
 11
241.297256
 21
138.736691
 31
0.0
  0
LINE
  5
D4
100
AcDbEntity
  8
LAY-1
  6
CONTINUOUS
 62
     1
100
AcDbLine
 10
242.5875
 20
140.37165
 30
0.0
 11
241.078443
 21
138.862592
 31
0.0
  0
LINE
  5
D5
100
AcDbEntity
  8
LAY-1
  6
CONTINUOUS
 62
     1
100
AcDbLine
 10
242.5875
 20
140.716364
 30
0.0
 11
240.859629
 21
138.988493
 31
0.0
  0
LINE
  5
D6
100
AcDbEntity
  8
LAY-1
  6
CONTINUOUS
 62
     1
100
AcDbLine
 10
242.5875
 20
141.061079
 30
0.0
 11
240.506756
 21
138.980335
 31
0.0
  0
LINE
  5
D7
100
AcDbEntity
  8
LAY-1
  6
CONTINUOUS
 62
     1
100
AcDbLine
 10
242.5875
 20
141.405793
 30
0.0
 11
240.475
 21
139.293293
 31
0.0
  0
LINE
  5
D8
100
AcDbEntity
  8
LAY-1
  6
CONTINUOUS
 62
     1
100
AcDbLine
 10
242.5875
 20
141.750508
 30
0.0
 11
240.475
 21
139.638008
 31
0.0
  0
LINE
  5
D9
100
AcDbEntity
  8
LAY-1
  6
CONTINUOUS
 62
     1
100
AcDbLine
 10
242.5875
 20
142.095223
 30
0.0
 11
240.475
 21
139.982723
 31
0.0
  0
LINE
  5
DA
100
AcDbEntity
  8
LAY-1
  6
CONTINUOUS
 62
     1
100
AcDbLine
 10
243.576075
 20
143.428512
 30
0.0
 11
243.224563
 21
143.077
 31
0.0
  0
LINE
  5
DB
100
AcDbEntity
  8
LAY-1
  6
CONTINUOUS
 62
     1
100
AcDbLine
 10
242.5875
 20
142.439937
 30
0.0
 11
240.475
 21
140.327437
 31
0.0
  0
LINE
  5
DC
100
AcDbEntity
  8
LAY-1
  6
CONTINUOUS
 62
     1
100
AcDbLine
 10
244.046963
 20
144.244115
 30
0.0
 11
243.052205
 21
143.249357
 31
0.0
  0
LINE
  5
DD
100
AcDbEntity
  8
LAY-1
  6
CONTINUOUS
 62
     1
100
AcDbLine
 10
242.5875
 20
142.784652
 30
0.0
 11
240.475
 21
140.672152
 31
0.0
  0
LINE
  5
DE
100
AcDbEntity
  8
LAY-1
  6
CONTINUOUS
 62
     1
100
AcDbLine
 10
244.517852
 20
145.059718
 30
0.0
 11
242.879848
 21
143.421714
 31
0.0
  0
LINE
  5
DF
100
AcDbEntity
  8
LAY-1
  6
CONTINUOUS
 62
     1
100
AcDbLine
 10
242.5875
 20
143.129366
 30
0.0
 11
240.475
 21
141.016866
 31
0.0
  0
LINE
  5
E0
100
AcDbEntity
  8
LAY-1
  6
CONTINUOUS
 62
     1
100
AcDbLine
 10
244.988741
 20
145.875322
 30
0.0
 11
240.475
 21
141.361581
 31
0.0
  0
LINE
  5
E1
100
AcDbEntity
  8
LAY-1
  6
CONTINUOUS
 62
     1
100
AcDbLine
 10
244.2066
 20
145.437896
 30
0.0
 11
240.475
 21
141.706295
 31
0.0
  0
LINE
  5
E2
100
AcDbEntity
  8
LAY-1
  6
CONTINUOUS
 62
     1
100
AcDbLine
 10
243.82399
 20
145.4
 30
0.0
 11
240.475
 21
142.05101
 31
0.0
  0
LINE
  5
E3
100
AcDbEntity
  8
LAY-1
  6
CONTINUOUS
 62
     1
100
AcDbLine
 10
243.479276
 20
145.4
 30
0.0
 11
240.475
 21
142.395724
 31
0.0
  0
LINE
  5
E4
100
AcDbEntity
  8
LAY-1
  6
CONTINUOUS
 62
     1
100
AcDbLine
 10
243.134561
 20
145.4
 30
0.0
 11
240.475
 21
142.740439
 31
0.0
  0
LINE
  5
E5
100
AcDbEntity
  8
LAY-1
  6
CONTINUOUS
 62
     1
100
AcDbLine
 10
242.789846
 20
145.4
 30
0.0
 11
240.475
 21
143.085154
 31
0.0
  0
LINE
  5
E6
100
AcDbEntity
  8
LAY-1
  6
CONTINUOUS
 62
     1
100
AcDbLine
 10
242.5875
 20
145.542368
 30
0.0
 11
240.475
 21
143.429868
 31
0.0
  0
LINE
  5
E7
100
AcDbEntity
  8
LAY-1
  6
CONTINUOUS
 62
     1
100
AcDbLine
 10
242.5875
 20
145.887083
 30
0.0
 11
240.17073
 21
143.470312
 31
0.0
  0
LINE
  5
E8
100
AcDbEntity
  8
LAY-1
  6
CONTINUOUS
 62
     1
100
AcDbLine
 10
242.5875
 20
146.231797
 30
0.0
 11
239.826015
 21
143.470313
 31
0.0
  0
LINE
  5
E9
100
AcDbEntity
  8
LAY-1
  6
CONTINUOUS
 62
     1
100
AcDbLine
 10
242.5875
 20
146.576512
 30
0.0
 11
239.481301
 21
143.470313
 31
0.0
  0
LINE
  5
EA
100
AcDbEntity
  8
LAY-1
  6
CONTINUOUS
 62
     1
100
AcDbLine
 10
242.5875
 20
146.921226
 30
0.0
 11
239.136586
 21
143.470313
 31
0.0
  0
LINE
  5
EB
100
AcDbEntity
  8
LAY-1
  6
CONTINUOUS
 62
     1
100
AcDbLine
 10
242.5875
 20
147.265941
 30
0.0
 11
238.791872
 21
143.470312
 31
0.0
  0
LINE
  5
EC
100
AcDbEntity
  8
LAY-1
  6
CONTINUOUS
 62
     1
100
AcDbLine
 10
243.34247
 20
148.365625
 30
0.0
 11
243.244314
 21
148.26747
 31
0.0
  0
LINE
  5
ED
100
AcDbEntity
  8
LAY-1
  6
CONTINUOUS
 62
     1
100
AcDbLine
 10
242.5875
 20
147.610655
 30
0.0
 11
240.475
 21
145.498155
 31
0.0
  0
LINE
  5
EE
100
AcDbEntity
  8
LAY-1
  6
CONTINUOUS
 62
     1
100
AcDbLine
 10
240.376845
 20
145.4
 30
0.0
 11
238.447157
 21
143.470312
 31
0.0
  0
LINE
  5
EF
100
AcDbEntity
  8
LAY-1
  6
CONTINUOUS
 62
     1
100
AcDbLine
 10
242.997755
 20
148.365625
 30
0.0
 11
240.475
 21
145.84287
 31
0.0
  0
LINE
  5
F0
100
AcDbEntity
  8
LAY-1
  6
CONTINUOUS
 62
     1
100
AcDbLine
 10
240.03213
 20
145.4
 30
0.0
 11
238.102442
 21
143.470313
 31
0.0
  0
LINE
  5
F1
100
AcDbEntity
  8
LAY-1
  6
CONTINUOUS
 62
     1
100
AcDbLine
 10
242.65304
 20
148.365625
 30
0.0
 11
240.475
 21
146.187585
 31
0.0
  0
LINE
  5
F2
100
AcDbEntity
  8
LAY-1
  6
CONTINUOUS
 62
     1
100
AcDbLine
 10
239.687415
 20
145.4
 30
0.0
 11
237.757728
 21
143.470312
 31
0.0
  0
LINE
  5
F3
100
AcDbEntity
  8
LAY-1
  6
CONTINUOUS
 62
     1
100
AcDbLine
 10
242.308326
 20
148.365625
 30
0.0
 11
240.475
 21
146.532299
 31
0.0
  0
LINE
  5
F4
100
AcDbEntity
  8
LAY-1
  6
CONTINUOUS
 62
     1
100
AcDbLine
 10
239.5
 20
145.557299
 30
0.0
 11
237.413013
 21
143.470313
 31
0.0
  0
LINE
  5
F5
100
AcDbEntity
  8
LAY-1
  6
CONTINUOUS
 62
     1
100
AcDbLine
 10
241.963611
 20
148.365625
 30
0.0
 11
240.475
 21
146.877014
 31
0.0
  0
LINE
  5
F6
100
AcDbEntity
  8
LAY-1
  6
CONTINUOUS
 62
     1
100
AcDbLine
 10
239.5
 20
145.902014
 30
0.0
 11
237.068299
 21
143.470313
 31
0.0
  0
LINE
  5
F7
100
AcDbEntity
  8
LAY-1
  6
CONTINUOUS
 62
     1
100
AcDbLine
 10
241.618897
 20
148.365625
 30
0.0
 11
240.475
 21
147.221728
 31
0.0
  0
LINE
  5
F8
100
AcDbEntity
  8
LAY-1
  6
CONTINUOUS
 62
     1
100
AcDbLine
 10
239.5
 20
146.246728
 30
0.0
 11
236.723584
 21
143.470312
 31
0.0
  0
LINE
  5
F9
100
AcDbEntity
  8
LAY-1
  6
CONTINUOUS
 62
     1
100
AcDbLine
 10
241.274182
 20
148.365625
 30
0.0
 11
240.475
 21
147.566443
 31
0.0
  0
LINE
  5
FA
100
AcDbEntity
  8
LAY-1
  6
CONTINUOUS
 62
     1
100
AcDbLine
 10
239.5
 20
146.591443
 30
0.0
 11
236.37887
 21
143.470313
 31
0.0
  0
LINE
  5
FB
100
AcDbEntity
  8
LAY-1
  6
CONTINUOUS
 62
     1
100
AcDbLine
 10
240.929468
 20
148.365625
 30
0.0
 11
240.475
 21
147.911157
 31
0.0
  0
LINE
  5
FC
100
AcDbEntity
  8
LAY-1
  6
CONTINUOUS
 62
     1
100
AcDbLine
 10
239.5
 20
146.936157
 30
0.0
 11
235.631985
 21
143.068142
 31
0.0
  0
LINE
  5
FD
100
AcDbEntity
  8
LAY-1
  6
CONTINUOUS
 62
     1
100
AcDbLine
 10
240.584753
 20
148.365625
 30
0.0
 11
240.254611
 21
148.035483
 31
0.0
  0
LINE
  5
FE
100
AcDbEntity
  8
LAY-1
  6
CONTINUOUS
 62
     1
100
AcDbLine
 10
239.5
 20
147.280872
 30
0.0
 11
235.505811
 21
143.286682
 31
0.0
  0
LINE
  5
FF
100
AcDbEntity
  8
LAY-1
  6
CONTINUOUS
 62
     1
100
AcDbLine
 10
240.240039
 20
148.365625
 30
0.0
 11
240.014809
 21
148.140396
 31
0.0
  0
LINE
  5
100
100
AcDbEntity
  8
LAY-1
  6
CONTINUOUS
 62
     1
100
AcDbLine
 10
239.5
 20
147.625586
 30
0.0
 11
235.379636
 21
143.505223
 31
0.0
  0
LINE
  5
101
100
AcDbEntity
  8
LAY-1
  6
CONTINUOUS
 62
     1
100
AcDbLine
 10
239.895324
 20
148.365625
 30
0.0
 11
239.775008
 21
148.245309
 31
0.0
  0
LINE
  5
102
100
AcDbEntity
  8
LAY-1
  6
CONTINUOUS
 62
     1
100
AcDbLine
 10
239.5
 20
147.970301
 30
0.0
 11
237.103125
 21
145.573426
 31
0.0
  0
LINE
  5
103
100
AcDbEntity
  8
LAY-1
  6
CONTINUOUS
 62
     1
100
AcDbLine
 10
236.929699
 20
145.4
 30
0.0
 11
235.253462
 21
143.723763
 31
0.0
  0
LINE
  5
104
100
AcDbEntity
  8
LAY-1
  6
CONTINUOUS
 62
     1
100
AcDbLine
 10
239.550609
 20
148.365625
 30
0.0
 11
239.535207
 21
148.350222
 31
0.0
  0
LINE
  5
105
100
AcDbEntity
  8
LAY-1
  6
CONTINUOUS
 62
     1
100
AcDbLine
 10
239.5
 20
148.315016
 30
0.0
 11
237.103125
 21
145.918141
 31
0.0
  0
LINE
  5
106
100
AcDbEntity
  8
LAY-1
  6
CONTINUOUS
 62
     1
100
AcDbLine
 10
236.584984
 20
145.4
 30
0.0
 11
235.127288
 21
143.942303
 31
0.0
  0
LINE
  5
107
100
AcDbEntity
  8
LAY-1
  6
CONTINUOUS
 62
     1
100
AcDbLine
 10
239.5
 20
148.65973
 30
0.0
 11
237.103125
 21
146.262855
 31
0.0
  0
LINE
  5
108
100
AcDbEntity
  8
LAY-1
  6
CONTINUOUS
 62
     1
100
AcDbLine
 10
236.24027
 20
145.4
 30
0.0
 11
235.001113
 21
144.160844
 31
0.0
  0
LINE
  5
109
100
AcDbEntity
  8
LAY-1
  6
CONTINUOUS
 62
     1
100
AcDbLine
 10
239.5
 20
149.004445
 30
0.0
 11
237.103125
 21
146.60757
 31
0.0
  0
LINE
  5
10A
100
AcDbEntity
  8
LAY-1
  6
CONTINUOUS
 62
     1
100
AcDbLine
 10
235.895555
 20
145.4
 30
0.0
 11
234.874939
 21
144.379384
 31
0.0
  0
LINE
  5
10B
100
AcDbEntity
  8
LAY-1
  6
CONTINUOUS
 62
     1
100
AcDbLine
 10
239.5
 20
149.349159
 30
0.0
 11
237.103125
 21
146.952284
 31
0.0
  0
LINE
  5
10C
100
AcDbEntity
  8
LAY-1
  6
CONTINUOUS
 62
     1
100
AcDbLine
 10
235.550841
 20
145.4
 30
0.0
 11
234.748765
 21
144.597924
 31
0.0
  0
LINE
  5
10D
100
AcDbEntity
  8
LAY-1
  6
CONTINUOUS
 62
     1
100
AcDbLine
 10
239.5
 20
149.693874
 30
0.0
 11
237.103125
 21
147.296999
 31
0.0
  0
LINE
  5
10E
100
AcDbEntity
  8
LAY-1
  6
CONTINUOUS
 62
     1
100
AcDbLine
 10
235.206126
 20
145.4
 30
0.0
 11
234.622591
 21
144.816464
 31
0.0
  0
LINE
  5
10F
100
AcDbEntity
  8
LAY-1
  6
CONTINUOUS
 62
     1
100
AcDbLine
 10
239.5
 20
150.038588
 30
0.0
 11
237.103125
 21
147.641713
 31
0.0
  0
LINE
  5
110
100
AcDbEntity
  8
LAY-1
  6
CONTINUOUS
 62
     1
100
AcDbLine
 10
234.861412
 20
145.4
 30
0.0
 11
234.496416
 21
145.035005
 31
0.0
  0
LINE
  5
111
100
AcDbEntity
  8
LAY-1
  6
CONTINUOUS
 62
     1
100
AcDbLine
 10
239.5
 20
150.383303
 30
0.0
 11
237.103125
 21
147.986428
 31
0.0
  0
LINE
  5
112
100
AcDbEntity
  8
LAY-1
  6
CONTINUOUS
 62
     1
100
AcDbLine
 10
234.642002
 20
145.525305
 30
0.0
 11
234.370242
 21
145.253545
 31
0.0
  0
LINE
  5
113
100
AcDbEntity
  8
LAY-1
  6
CONTINUOUS
 62
     1
100
AcDbLine
 10
239.5
 20
150.728017
 30
0.0
 11
237.103125
 21
148.331142
 31
0.0
  0
LINE
  5
114
100
AcDbEntity
  8
LAY-1
  6
CONTINUOUS
 62
     1
100
AcDbLine
 10
234.423462
 20
145.651479
 30
0.0
 11
234.244068
 21
145.472085
 31
0.0
  0
LINE
  5
115
100
AcDbEntity
  8
LAY-1
  6
CONTINUOUS
 62
     1
100
AcDbLine
 10
239.5
 20
151.072732
 30
0.0
 11
237.103125
 21
148.675857
 31
0.0
  0
LINE
  5
116
100
AcDbEntity
  8
LAY-1
  6
CONTINUOUS
 62
     1
100
AcDbLine
 10
234.204922
 20
145.777654
 30
0.0
 11
234.117893
 21
145.690625
 31
0.0
  0
LINE
  5
117
100
AcDbEntity
  8
LAY-1
  6
CONTINUOUS
 62
     1
100
AcDbLine
 10
239.5
 20
151.417447
 30
0.0
 11
237.103125
 21
149.020572
 31
0.0
  0
LINE
  5
118
100
AcDbEntity
  8
LAY-1
  6
CONTINUOUS
 62
     1
100
AcDbLine
 10
239.5
 20
151.762161
 30
0.0
 11
237.103125
 21
149.365286
 31
0.0
  0
LINE
  5
119
100
AcDbEntity
  8
LAY-1
  6
CONTINUOUS
 62
     1
100
AcDbLine
 10
239.922812
 20
152.529687
 30
0.0
 11
237.103125
 21
149.710001
 31
0.0
  0
LINE
  5
11A
100
AcDbEntity
  8
LAY-1
  6
CONTINUOUS
 62
     1
100
AcDbLine
 10
239.578097
 20
152.529687
 30
0.0
 11
237.103125
 21
150.054715
 31
0.0
  0
LINE
  5
11B
100
AcDbEntity
  8
LAY-1
  6
CONTINUOUS
 62
     1
100
AcDbLine
 10
239.233383
 20
152.529687
 30
0.0
 11
237.103125
 21
150.39943
 31
0.0
  0
LINE
  5
11C
100
AcDbEntity
  8
LAY-1
  6
CONTINUOUS
 62
     1
100
AcDbLine
 10
238.888668
 20
152.529687
 30
0.0
 11
237.103125
 21
150.744144
 31
0.0
  0
LINE
  5
11D
100
AcDbEntity
  8
LAY-1
  6
CONTINUOUS
 62
     1
100
AcDbLine
 10
238.543954
 20
152.529688
 30
0.0
 11
237.103125
 21
151.088859
 31
0.0
  0
LINE
  5
11E
100
AcDbEntity
  8
LAY-1
  6
CONTINUOUS
 62
     1
100
AcDbLine
 10
238.199239
 20
152.529688
 30
0.0
 11
237.103125
 21
151.433573
 31
0.0
  0
LINE
  5
11F
100
AcDbEntity
  8
LAY-1
  6
CONTINUOUS
 62
     1
100
AcDbLine
 10
237.854524
 20
152.529687
 30
0.0
 11
237.103125
 21
151.778288
 31
0.0
  0
LINE
  5
120
100
AcDbEntity
  8
LAY-1
  6
CONTINUOUS
 62
     1
100
AcDbLine
 10
237.50981
 20
152.529687
 30
0.0
 11
237.006053
 21
152.025931
 31
0.0
  0
LINE
  5
121
100
AcDbEntity
  8
LAY-1
  6
CONTINUOUS
 62
     1
100
AcDbLine
 10
237.165095
 20
152.529688
 30
0.0
 11
236.822576
 21
152.187168
 31
0.0
  0
LINE
  5
122
100
AcDbEntity
  8
LAY-1
  6
CONTINUOUS
 62
     1
100
AcDbLine
 10
236.820381
 20
152.529687
 30
0.0
 11
236.639099
 21
152.348406
 31
0.0
  0
LINE
  5
123
100
AcDbEntity
  8
LAY-1
  6
CONTINUOUS
 62
     1
100
AcDbLine
 10
236.475666
 20
152.529688
 30
0.0
 11
236.455622
 21
152.509643
 31
0.0
  0
LINE
  5
124
100
AcDbEntity
  8
LAY-1
  6
CONTINUOUS
 62
     1
100
AcDbLine
 10
244.501883
 20
141.251889
 30
0.0
 11
243.648111
 21
140.398117
 31
0.0
  0
LINE
  5
125
100
AcDbEntity
  8
LAY-1
  6
CONTINUOUS
 62
     1
100
AcDbLine
 10
245.217779
 20
142.3125
 30
0.0
 11
242.5875
 21
139.682221
 31
0.0
  0
LINE
  5
126
100
AcDbEntity
  8
LAY-1
  6
CONTINUOUS
 62
     1
100
AcDbLine
 10
245.524032
 20
142.963468
 30
0.0
 11
243.845619
 21
141.285054
 31
0.0
  0
LINE
  5
127
100
AcDbEntity
  8
LAY-1
  6
CONTINUOUS
 62
     1
100
AcDbLine
 10
242.848948
 20
140.288383
 30
0.0
 11
242.5875
 21
140.026935
 31
0.0
  0
LINE
  5
128
100
AcDbEntity
  8
LAY-1
  6
CONTINUOUS
 62
     1
100
AcDbLine
 10
245.7134
 20
143.49755
 30
0.0
 11
244.475028
 21
142.259178
 31
0.0
  0
LINE
  5
129
100
AcDbEntity
  8
LAY-1
  6
CONTINUOUS
 62
     1
100
AcDbLine
 10
245.838156
 20
143.967021
 30
0.0
 11
244.763875
 21
142.892739
 31
0.0
  0
LINE
  5
12A
100
AcDbEntity
  8
LAY-1
  6
CONTINUOUS
 62
     1
100
AcDbLine
 10
245.919665
 20
144.393244
 30
0.0
 11
244.945416
 21
143.418995
 31
0.0
  0
LINE
  5
12B
100
AcDbEntity
  8
LAY-1
  6
CONTINUOUS
 62
     1
100
AcDbLine
 10
245.969195
 20
144.787489
 30
0.0
 11
245.066537
 21
143.88483
 31
0.0
  0
LINE
  5
12C
100
AcDbEntity
  8
LAY-1
  6
CONTINUOUS
 62
     1
100
AcDbLine
 10
245.993566
 20
145.156574
 30
0.0
 11
245.146808
 21
144.309816
 31
0.0
  0
LINE
  5
12D
100
AcDbEntity
  8
LAY-1
  6
CONTINUOUS
 62
     1
100
AcDbLine
 10
245.997279
 20
145.505001
 30
0.0
 11
245.19666
 21
144.704383
 31
0.0
  0
LINE
  5
12E
100
AcDbEntity
  8
LAY-1
  6
CONTINUOUS
 62
     1
100
AcDbLine
 10
245.983489
 20
145.835926
 30
0.0
 11
245.222444
 21
145.074881
 31
0.0
  0
LINE
  5
12F
100
AcDbEntity
  8
LAY-1
  6
CONTINUOUS
 62
     1
100
AcDbLine
 10
245.954507
 20
146.151659
 30
0.0
 11
245.228366
 21
145.425518
 31
0.0
  0
LINE
  5
130
100
AcDbEntity
  8
LAY-1
  6
CONTINUOUS
 62
     1
100
AcDbLine
 10
245.912086
 20
146.453952
 30
0.0
 11
245.217382
 21
145.759248
 31
0.0
  0
LINE
  5
131
100
AcDbEntity
  8
LAY-1
  6
CONTINUOUS
 62
     1
100
AcDbLine
 10
245.857584
 20
146.744165
 30
0.0
 11
245.191659
 21
146.07824
 31
0.0
  0
LINE
  5
132
100
AcDbEntity
  8
LAY-1
  6
CONTINUOUS
 62
     1
100
AcDbLine
 10
245.792082
 20
147.023378
 30
0.0
 11
245.152839
 21
146.384134
 31
0.0
  0
LINE
  5
133
100
AcDbEntity
  8
LAY-1
  6
CONTINUOUS
 62
     1
100
AcDbLine
 10
245.71645
 20
147.29246
 30
0.0
 11
245.102197
 21
146.678207
 31
0.0
  0
LINE
  5
134
100
AcDbEntity
  8
LAY-1
  6
CONTINUOUS
 62
     1
100
AcDbLine
 10
245.631397
 20
147.552121
 30
0.0
 11
245.040742
 21
146.961466
 31
0.0
  0
LINE
  5
135
100
AcDbEntity
  8
LAY-1
  6
CONTINUOUS
 62
     1
100
AcDbLine
 10
245.537508
 20
147.802947
 30
0.0
 11
244.969283
 21
147.234722
 31
0.0
  0
LINE
  5
136
100
AcDbEntity
  8
LAY-1
  6
CONTINUOUS
 62
     1
100
AcDbLine
 10
245.435268
 20
148.045421
 30
0.0
 11
244.888478
 21
147.498632
 31
0.0
  0
LINE
  5
137
100
AcDbEntity
  8
LAY-1
  6
CONTINUOUS
 62
     1
100
AcDbLine
 10
245.32508
 20
148.279948
 30
0.0
 11
244.798865
 21
147.753733
 31
0.0
  0
LINE
  5
138
100
AcDbEntity
  8
LAY-1
  6
CONTINUOUS
 62
     1
100
AcDbLine
 10
245.207281
 20
148.506864
 30
0.0
 11
244.700886
 21
148.000469
 31
0.0
  0
LINE
  5
139
100
AcDbEntity
  8
LAY-1
  6
CONTINUOUS
 62
     1
100
AcDbLine
 10
245.08215
 20
148.726448
 30
0.0
 11
244.594903
 21
148.239201
 31
0.0
  0
LINE
  5
13A
100
AcDbEntity
  8
LAY-1
  6
CONTINUOUS
 62
     1
100
AcDbLine
 10
244.949919
 20
148.938931
 30
0.0
 11
244.481213
 21
148.470225
 31
0.0
  0
LINE
  5
13B
100
AcDbEntity
  8
LAY-1
  6
CONTINUOUS
 62
     1
100
AcDbLine
 10
244.810777
 20
149.144503
 30
0.0
 11
244.360055
 21
148.693782
 31
0.0
  0
LINE
  5
13C
100
AcDbEntity
  8
LAY-1
  6
CONTINUOUS
 62
     1
100
AcDbLine
 10
244.664874
 20
149.343315
 30
0.0
 11
244.231621
 21
148.910062
 31
0.0
  0
LINE
  5
13D
100
AcDbEntity
  8
LAY-1
  6
CONTINUOUS
 62
     1
100
AcDbLine
 10
244.512328
 20
149.535484
 30
0.0
 11
244.096058
 21
149.119213
 31
0.0
  0
LINE
  5
13E
100
AcDbEntity
  8
LAY-1
  6
CONTINUOUS
 62
     1
100
AcDbLine
 10
244.353225
 20
149.721095
 30
0.0
 11
243.953473
 21
149.321343
 31
0.0
  0
LINE
  5
13F
100
AcDbEntity
  8
LAY-1
  6
CONTINUOUS
 62
     1
100
AcDbLine
 10
244.187622
 20
149.900206
 30
0.0
 11
243.803938
 21
149.516522
 31
0.0
  0
LINE
  5
140
100
AcDbEntity
  8
LAY-1
  6
CONTINUOUS
 62
     1
100
AcDbLine
 10
244.015547
 20
150.072846
 30
0.0
 11
243.647487
 21
149.704786
 31
0.0
  0
LINE
  5
141
100
AcDbEntity
  8
LAY-1
  6
CONTINUOUS
 62
     1
100
AcDbLine
 10
243.837002
 20
150.239016
 30
0.0
 11
243.484123
 21
149.886136
 31
0.0
  0
LINE
  5
142
100
AcDbEntity
  8
LAY-1
  6
CONTINUOUS
 62
     1
100
AcDbLine
 10
243.65196
 20
150.398688
 30
0.0
 11
243.313812
 21
150.06054
 31
0.0
  0
LINE
  5
143
100
AcDbEntity
  8
LAY-1
  6
CONTINUOUS
 62
     1
100
AcDbLine
 10
243.460367
 20
150.55181
 30
0.0
 11
243.136487
 21
150.22793
 31
0.0
  0
LINE
  5
144
100
AcDbEntity
  8
LAY-1
  6
CONTINUOUS
 62
     1
100
AcDbLine
 10
243.26214
 20
150.698298
 30
0.0
 11
242.952045
 21
150.388202
 31
0.0
  0
LINE
  5
145
100
AcDbEntity
  8
LAY-1
  6
CONTINUOUS
 62
     1
100
AcDbLine
 10
243.057164
 20
150.838036
 30
0.0
 11
242.76034
 21
150.541212
 31
0.0
  0
LINE
  5
146
100
AcDbEntity
  8
LAY-1
  6
CONTINUOUS
 62
     1
100
AcDbLine
 10
242.845292
 20
150.970878
 30
0.0
 11
242.561187
 21
150.686773
 31
0.0
  0
LINE
  5
147
100
AcDbEntity
  8
LAY-1
  6
CONTINUOUS
 62
     1
100
AcDbLine
 10
242.626336
 20
151.096637
 30
0.0
 11
242.354349
 21
150.82465
 31
0.0
  0
LINE
  5
148
100
AcDbEntity
  8
LAY-1
  6
CONTINUOUS
 62
     1
100
AcDbLine
 10
242.400072
 20
151.215087
 30
0.0
 11
242.139536
 21
150.954551
 31
0.0
  0
LINE
  5
149
100
AcDbEntity
  8
LAY-1
  6
CONTINUOUS
 62
     1
100
AcDbLine
 10
242.166222
 20
151.325953
 30
0.0
 11
241.916391
 21
151.076121
 31
0.0
  0
LINE
  5
14A
100
AcDbEntity
  8
LAY-1
  6
CONTINUOUS
 62
     1
100
AcDbLine
 10
241.924458
 20
151.428902
 30
0.0
 11
241.68448
 21
151.188924
 31
0.0
  0
LINE
  5
14B
100
AcDbEntity
  8
LAY-1
  6
CONTINUOUS
 62
     1
100
AcDbLine
 10
241.67438
 20
151.523539
 30
0.0
 11
241.443274
 21
151.292434
 31
0.0
  0
LINE
  5
14C
100
AcDbEntity
  8
LAY-1
  6
CONTINUOUS
 62
     1
100
AcDbLine
 10
241.415512
 20
151.609386
 30
0.0
 11
241.192129
 21
151.386003
 31
0.0
  0
LINE
  5
14D
100
AcDbEntity
  8
LAY-1
  6
CONTINUOUS
 62
     1
100
AcDbLine
 10
241.147279
 20
151.685867
 30
0.0
 11
240.930247
 21
151.468836
 31
0.0
  0
LINE
  5
14E
100
AcDbEntity
  8
LAY-1
  6
CONTINUOUS
 62
     1
100
AcDbLine
 10
240.868983
 20
151.752286
 30
0.0
 11
240.656642
 21
151.539944
 31
0.0
  0
LINE
  5
14F
100
AcDbEntity
  8
LAY-1
  6
CONTINUOUS
 62
     1
100
AcDbLine
 10
240.579771
 20
151.807788
 30
0.0
 11
240.370063
 21
151.59808
 31
0.0
  0
LINE
  5
150
100
AcDbEntity
  8
LAY-1
  6
CONTINUOUS
 62
     1
100
AcDbLine
 10
240.278583
 20
151.851315
 30
0.0
 11
240.068907
 21
151.641639
 31
0.0
  0
LINE
  5
151
100
AcDbEntity
  8
LAY-1
  6
CONTINUOUS
 62
     1
100
AcDbLine
 10
239.964087
 20
151.881534
 30
0.0
 11
239.751062
 21
151.668508
 31
0.0
  0
LINE
  5
152
100
AcDbEntity
  8
LAY-1
  6
CONTINUOUS
 62
     1
100
AcDbLine
 10
239.634572
 20
151.896734
 30
0.0
 11
239.5
 21
151.762161
 31
0.0
  0
ARC
  5
153
100
AcDbEntity
  8
LAY-1
  6
CONTINUOUS
 62
     2
100
AcDbCircle
 10
212.5
 20
145.4
 30
0.0
 40
53.0
100
AcDbArc
 50
180.0
 51
0.0
  0
ARC
  5
154
100
AcDbEntity
  8
LAY-1
  6
CONTINUOUS
 62
     2
100
AcDbCircle
 10
212.5
 20
145.4
 30
0.0
 40
53.0
100
AcDbArc
 50
0.0
 51
180.0
  0
LINE
  5
155
100
AcDbEntity
  8
LAY-1
  6
EXLTYPE3
 62
     1
100
AcDbLine
 10
239.5
 20
154.87174
 30
0.0
 11
239.5
 21
134.77174
 31
0.0
  0
LINE
  5
156
100
AcDbEntity
  8
LAY-1
  6
EXLTYPE3
 62
     1
100
AcDbLine
 10
212.5
 20
85.4
 30
0.0
 11
212.5
 21
145.4
 31
0.0
  0
LINE
  5
157
100
AcDbEntity
  8
LAY-1
  6
EXLTYPE3
 62
     1
100
AcDbLine
 10
152.5
 20
145.4
 30
0.0
 11
272.5
 21
145.4
 31
0.0
  0
LINE
  5
158
100
AcDbEntity
  8
LAY-1
  6
EXLTYPE3
 62
     1
100
AcDbLine
 10
212.5
 20
205.4
 30
0.0
 11
212.5
 21
145.4
 31
0.0
  0
CIRCLE
  5
159
100
AcDbEntity
  8
LAY-1
  6
CONTINUOUS
 62
     2
100
AcDbCircle
 10
212.5
 20
194.4
 30
0.0
 40
4.0
  0
LINE
  5
15A
100
AcDbEntity
  8
LAY-1
  6
CONTINUOUS
 62
     2
100
AcDbLine
 10
214.7
 20
193.886667
 30
0.0
 11
213.746667
 21
193.886667
 31
0.0
  0
LINE
  5
15B
100
AcDbEntity
  8
LAY-1
  6
CONTINUOUS
 62
     2
100
AcDbLine
 10
213.013333
 20
192.2
 30
0.0
 11
213.013333
 21
193.153333
 31
0.0
  0
ARC
  5
15C
100
AcDbEntity
  8
LAY-1
  6
CONTINUOUS
 62
     2
100
AcDbCircle
 10
213.746667
 20
193.153333
 30
0.0
 40
0.733333
100
AcDbArc
 50
90.0
 51
180.0
  0
LINE
  5
15D
100
AcDbEntity
  8
LAY-1
  6
CONTINUOUS
 62
     2
100
AcDbLine
 10
212.5
 20
192.2
 30
0.0
 11
213.013333
 21
192.2
 31
0.0
  0
LINE
  5
15E
100
AcDbEntity
  8
LAY-1
  6
CONTINUOUS
 62
     2
100
AcDbLine
 10
214.7
 20
194.4
 30
0.0
 11
214.7
 21
193.886667
 31
0.0
  0
LINE
  5
15F
100
AcDbEntity
  8
LAY-1
  6
CONTINUOUS
 62
     2
100
AcDbLine
 10
214.7
 20
194.913333
 30
0.0
 11
213.746667
 21
194.913333
 31
0.0
  0
LINE
  5
160
100
AcDbEntity
  8
LAY-1
  6
CONTINUOUS
 62
     2
100
AcDbLine
 10
213.013333
 20
196.6
 30
0.0
 11
213.013333
 21
195.646667
 31
0.0
  0
ARC
  5
161
100
AcDbEntity
  8
LAY-1
  6
CONTINUOUS
 62
     2
100
AcDbCircle
 10
213.746667
 20
195.646667
 30
0.0
 40
0.733333
100
AcDbArc
 50
180.0
 51
270.0
  0
LINE
  5
162
100
AcDbEntity
  8
LAY-1
  6
CONTINUOUS
 62
     2
100
AcDbLine
 10
212.5
 20
196.6
 30
0.0
 11
213.013333
 21
196.6
 31
0.0
  0
LINE
  5
163
100
AcDbEntity
  8
LAY-1
  6
CONTINUOUS
 62
     2
100
AcDbLine
 10
214.7
 20
194.4
 30
0.0
 11
214.7
 21
194.913333
 31
0.0
  0
LINE
  5
164
100
AcDbEntity
  8
LAY-1
  6
CONTINUOUS
 62
     2
100
AcDbLine
 10
210.3
 20
193.886667
 30
0.0
 11
211.253333
 21
193.886667
 31
0.0
  0
LINE
  5
165
100
AcDbEntity
  8
LAY-1
  6
CONTINUOUS
 62
     2
100
AcDbLine
 10
211.986667
 20
192.2
 30
0.0
 11
211.986667
 21
193.153333
 31
0.0
  0
ARC
  5
166
100
AcDbEntity
  8
LAY-1
  6
CONTINUOUS
 62
     2
100
AcDbCircle
 10
211.253333
 20
193.153333
 30
0.0
 40
0.733333
100
AcDbArc
 50
0.0
 51
90.0
  0
LINE
  5
167
100
AcDbEntity
  8
LAY-1
  6
CONTINUOUS
 62
     2
100
AcDbLine
 10
212.5
 20
192.2
 30
0.0
 11
211.986667
 21
192.2
 31
0.0
  0
LINE
  5
168
100
AcDbEntity
  8
LAY-1
  6
CONTINUOUS
 62
     2
100
AcDbLine
 10
210.3
 20
194.4
 30
0.0
 11
210.3
 21
193.886667
 31
0.0
  0
LINE
  5
169
100
AcDbEntity
  8
LAY-1
  6
CONTINUOUS
 62
     2
100
AcDbLine
 10
210.3
 20
194.913333
 30
0.0
 11
211.253333
 21
194.913333
 31
0.0
  0
LINE
  5
16A
100
AcDbEntity
  8
LAY-1
  6
CONTINUOUS
 62
     2
100
AcDbLine
 10
211.986667
 20
196.6
 30
0.0
 11
211.986667
 21
195.646667
 31
0.0
  0
ARC
  5
16B
100
AcDbEntity
  8
LAY-1
  6
CONTINUOUS
 62
     2
100
AcDbCircle
 10
211.253333
 20
195.646667
 30
0.0
 40
0.733333
100
AcDbArc
 50
270.0
 51
0.0
  0
LINE
  5
16C
100
AcDbEntity
  8
LAY-1
  6
CONTINUOUS
 62
     2
100
AcDbLine
 10
212.5
 20
196.6
 30
0.0
 11
211.986667
 21
196.6
 31
0.0
  0
LINE
  5
16D
100
AcDbEntity
  8
LAY-1
  6
CONTINUOUS
 62
     2
100
AcDbLine
 10
210.3
 20
194.4
 30
0.0
 11
210.3
 21
194.913333
 31
0.0
  0
CIRCLE
  5
16E
100
AcDbEntity
  8
LAY-1
  6
CONTINUOUS
 62
     2
100
AcDbCircle
 10
170.064755
 20
169.9
 30
0.0
 40
4.0
  0
LINE
  5
16F
100
AcDbEntity
  8
LAY-1
  6
CONTINUOUS
 62
     2
100
AcDbLine
 10
172.264755
 20
169.386667
 30
0.0
 11
171.311422
 21
169.386667
 31
0.0
  0
LINE
  5
170
100
AcDbEntity
  8
LAY-1
  6
CONTINUOUS
 62
     2
100
AcDbLine
 10
170.578089
 20
167.7
 30
0.0
 11
170.578089
 21
168.653333
 31
0.0
  0
ARC
  5
171
100
AcDbEntity
  8
LAY-1
  6
CONTINUOUS
 62
     2
100
AcDbCircle
 10
171.311422
 20
168.653333
 30
0.0
 40
0.733333
100
AcDbArc
 50
90.0
 51
180.0
  0
LINE
  5
172
100
AcDbEntity
  8
LAY-1
  6
CONTINUOUS
 62
     2
100
AcDbLine
 10
170.064755
 20
167.7
 30
0.0
 11
170.578089
 21
167.7
 31
0.0
  0
LINE
  5
173
100
AcDbEntity
  8
LAY-1
  6
CONTINUOUS
 62
     2
100
AcDbLine
 10
172.264755
 20
169.9
 30
0.0
 11
172.264755
 21
169.386667
 31
0.0
  0
LINE
  5
174
100
AcDbEntity
  8
LAY-1
  6
CONTINUOUS
 62
     2
100
AcDbLine
 10
172.264755
 20
170.413333
 30
0.0
 11
171.311422
 21
170.413333
 31
0.0
  0
LINE
  5
175
100
AcDbEntity
  8
LAY-1
  6
CONTINUOUS
 62
     2
100
AcDbLine
 10
170.578089
 20
172.1
 30
0.0
 11
170.578089
 21
171.146667
 31
0.0
  0
ARC
  5
176
100
AcDbEntity
  8
LAY-1
  6
CONTINUOUS
 62
     2
100
AcDbCircle
 10
171.311422
 20
171.146667
 30
0.0
 40
0.733333
100
AcDbArc
 50
180.0
 51
270.0
  0
LINE
  5
177
100
AcDbEntity
  8
LAY-1
  6
CONTINUOUS
 62
     2
100
AcDbLine
 10
170.064755
 20
172.1
 30
0.0
 11
170.578089
 21
172.1
 31
0.0
  0
LINE
  5
178
100
AcDbEntity
  8
LAY-1
  6
CONTINUOUS
 62
     2
100
AcDbLine
 10
172.264755
 20
169.9
 30
0.0
 11
172.264755
 21
170.413333
 31
0.0
  0
LINE
  5
179
100
AcDbEntity
  8
LAY-1
  6
CONTINUOUS
 62
     2
100
AcDbLine
 10
167.864755
 20
169.386667
 30
0.0
 11
168.818089
 21
169.386667
 31
0.0
  0
LINE
  5
17A
100
AcDbEntity
  8
LAY-1
  6
CONTINUOUS
 62
     2
100
AcDbLine
 10
169.551422
 20
167.7
 30
0.0
 11
169.551422
 21
168.653333
 31
0.0
  0
ARC
  5
17B
100
AcDbEntity
  8
LAY-1
  6
CONTINUOUS
 62
     2
100
AcDbCircle
 10
168.818089
 20
168.653333
 30
0.0
 40
0.733333
100
AcDbArc
 50
0.0
 51
90.0
  0
LINE
  5
17C
100
AcDbEntity
  8
LAY-1
  6
CONTINUOUS
 62
     2
100
AcDbLine
 10
170.064755
 20
167.7
 30
0.0
 11
169.551422
 21
167.7
 31
0.0
  0
LINE
  5
17D
100
AcDbEntity
  8
LAY-1
  6
CONTINUOUS
 62
     2
100
AcDbLine
 10
167.864755
 20
169.9
 30
0.0
 11
167.864755
 21
169.386667
 31
0.0
  0
LINE
  5
17E
100
AcDbEntity
  8
LAY-1
  6
CONTINUOUS
 62
     2
100
AcDbLine
 10
167.864755
 20
170.413333
 30
0.0
 11
168.818089
 21
170.413333
 31
0.0
  0
LINE
  5
17F
100
AcDbEntity
  8
LAY-1
  6
CONTINUOUS
 62
     2
100
AcDbLine
 10
169.551422
 20
172.1
 30
0.0
 11
169.551422
 21
171.146667
 31
0.0
  0
ARC
  5
180
100
AcDbEntity
  8
LAY-1
  6
CONTINUOUS
 62
     2
100
AcDbCircle
 10
168.818089
 20
171.146667
 30
0.0
 40
0.733333
100
AcDbArc
 50
270.0
 51
0.0
  0
LINE
  5
181
100
AcDbEntity
  8
LAY-1
  6
CONTINUOUS
 62
     2
100
AcDbLine
 10
170.064755
 20
172.1
 30
0.0
 11
169.551422
 21
172.1
 31
0.0
  0
LINE
  5
182
100
AcDbEntity
  8
LAY-1
  6
CONTINUOUS
 62
     2
100
AcDbLine
 10
167.864755
 20
169.9
 30
0.0
 11
167.864755
 21
170.413333
 31
0.0
  0
CIRCLE
  5
183
100
AcDbEntity
  8
LAY-1
  6
CONTINUOUS
 62
     2
100
AcDbCircle
 10
254.935245
 20
120.9
 30
0.0
 40
4.0
  0
LINE
  5
184
100
AcDbEntity
  8
LAY-1
  6
CONTINUOUS
 62
     2
100
AcDbLine
 10
257.135245
 20
120.386667
 30
0.0
 11
256.181911
 21
120.386667
 31
0.0
  0
LINE
  5
185
100
AcDbEntity
  8
LAY-1
  6
CONTINUOUS
 62
     2
100
AcDbLine
 10
255.448578
 20
118.7
 30
0.0
 11
255.448578
 21
119.653333
 31
0.0
  0
ARC
  5
186
100
AcDbEntity
  8
LAY-1
  6
CONTINUOUS
 62
     2
100
AcDbCircle
 10
256.181911
 20
119.653333
 30
0.0
 40
0.733333
100
AcDbArc
 50
90.0
 51
180.0
  0
LINE
  5
187
100
AcDbEntity
  8
LAY-1
  6
CONTINUOUS
 62
     2
100
AcDbLine
 10
254.935245
 20
118.7
 30
0.0
 11
255.448578
 21
118.7
 31
0.0
  0
LINE
  5
188
100
AcDbEntity
  8
LAY-1
  6
CONTINUOUS
 62
     2
100
AcDbLine
 10
257.135245
 20
120.9
 30
0.0
 11
257.135245
 21
120.386667
 31
0.0
  0
LINE
  5
189
100
AcDbEntity
  8
LAY-1
  6
CONTINUOUS
 62
     2
100
AcDbLine
 10
257.135245
 20
121.413333
 30
0.0
 11
256.181911
 21
121.413333
 31
0.0
  0
LINE
  5
18A
100
AcDbEntity
  8
LAY-1
  6
CONTINUOUS
 62
     2
100
AcDbLine
 10
255.448578
 20
123.1
 30
0.0
 11
255.448578
 21
122.146667
 31
0.0
  0
ARC
  5
18B
100
AcDbEntity
  8
LAY-1
  6
CONTINUOUS
 62
     2
100
AcDbCircle
 10
256.181911
 20
122.146667
 30
0.0
 40
0.733333
100
AcDbArc
 50
180.0
 51
270.0
  0
LINE
  5
18C
100
AcDbEntity
  8
LAY-1
  6
CONTINUOUS
 62
     2
100
AcDbLine
 10
254.935245
 20
123.1
 30
0.0
 11
255.448578
 21
123.1
 31
0.0
  0
LINE
  5
18D
100
AcDbEntity
  8
LAY-1
  6
CONTINUOUS
 62
     2
100
AcDbLine
 10
257.135245
 20
120.9
 30
0.0
 11
257.135245
 21
121.413333
 31
0.0
  0
LINE
  5
18E
100
AcDbEntity
  8
LAY-1
  6
CONTINUOUS
 62
     2
100
AcDbLine
 10
252.735245
 20
120.386667
 30
0.0
 11
253.688578
 21
120.386667
 31
0.0
  0
LINE
  5
18F
100
AcDbEntity
  8
LAY-1
  6
CONTINUOUS
 62
     2
100
AcDbLine
 10
254.421911
 20
118.7
 30
0.0
 11
254.421911
 21
119.653333
 31
0.0
  0
ARC
  5
190
100
AcDbEntity
  8
LAY-1
  6
CONTINUOUS
 62
     2
100
AcDbCircle
 10
253.688578
 20
119.653333
 30
0.0
 40
0.733333
100
AcDbArc
 50
0.0
 51
90.0
  0
LINE
  5
191
100
AcDbEntity
  8
LAY-1
  6
CONTINUOUS
 62
     2
100
AcDbLine
 10
254.935245
 20
118.7
 30
0.0
 11
254.421911
 21
118.7
 31
0.0
  0
LINE
  5
192
100
AcDbEntity
  8
LAY-1
  6
CONTINUOUS
 62
     2
100
AcDbLine
 10
252.735245
 20
120.9
 30
0.0
 11
252.735245
 21
120.386667
 31
0.0
  0
LINE
  5
193
100
AcDbEntity
  8
LAY-1
  6
CONTINUOUS
 62
     2
100
AcDbLine
 10
252.735245
 20
121.413333
 30
0.0
 11
253.688578
 21
121.413333
 31
0.0
  0
LINE
  5
194
100
AcDbEntity
  8
LAY-1
  6
CONTINUOUS
 62
     2
100
AcDbLine
 10
254.421911
 20
123.1
 30
0.0
 11
254.421911
 21
122.146667
 31
0.0
  0
ARC
  5
195
100
AcDbEntity
  8
LAY-1
  6
CONTINUOUS
 62
     2
100
AcDbCircle
 10
253.688578
 20
122.146667
 30
0.0
 40
0.733333
100
AcDbArc
 50
270.0
 51
0.0
  0
LINE
  5
196
100
AcDbEntity
  8
LAY-1
  6
CONTINUOUS
 62
     2
100
AcDbLine
 10
254.935245
 20
123.1
 30
0.0
 11
254.421911
 21
123.1
 31
0.0
  0
LINE
  5
197
100
AcDbEntity
  8
LAY-1
  6
CONTINUOUS
 62
     2
100
AcDbLine
 10
252.735245
 20
120.9
 30
0.0
 11
252.735245
 21
121.413333
 31
0.0
  0
CIRCLE
  5
198
100
AcDbEntity
  8
LAY-1
  6
CONTINUOUS
 62
     2
100
AcDbCircle
 10
212.5
 20
96.4
 30
0.0
 40
4.0
  0
LINE
  5
199
100
AcDbEntity
  8
LAY-1
  6
CONTINUOUS
 62
     2
100
AcDbLine
 10
214.7
 20
96.913333
 30
0.0
 11
213.746667
 21
96.913333
 31
0.0
  0
LINE
  5
19A
100
AcDbEntity
  8
LAY-1
  6
CONTINUOUS
 62
     2
100
AcDbLine
 10
213.013333
 20
98.6
 30
0.0
 11
213.013333
 21
97.646667
 31
0.0
  0
ARC
  5
19B
100
AcDbEntity
  8
LAY-1
  6
CONTINUOUS
 62
     2
100
AcDbCircle
 10
213.746667
 20
97.646667
 30
0.0
 40
0.733333
100
AcDbArc
 50
180.0
 51
270.0
  0
LINE
  5
19C
100
AcDbEntity
  8
LAY-1
  6
CONTINUOUS
 62
     2
100
AcDbLine
 10
212.5
 20
98.6
 30
0.0
 11
213.013333
 21
98.6
 31
0.0
  0
LINE
  5
19D
100
AcDbEntity
  8
LAY-1
  6
CONTINUOUS
 62
     2
100
AcDbLine
 10
214.7
 20
96.4
 30
0.0
 11
214.7
 21
96.913333
 31
0.0
  0
LINE
  5
19E
100
AcDbEntity
  8
LAY-1
  6
CONTINUOUS
 62
     2
100
AcDbLine
 10
214.7
 20
95.886667
 30
0.0
 11
213.746667
 21
95.886667
 31
0.0
  0
LINE
  5
19F
100
AcDbEntity
  8
LAY-1
  6
CONTINUOUS
 62
     2
100
AcDbLine
 10
213.013333
 20
94.2
 30
0.0
 11
213.013333
 21
95.153333
 31
0.0
  0
ARC
  5
1A0
100
AcDbEntity
  8
LAY-1
  6
CONTINUOUS
 62
     2
100
AcDbCircle
 10
213.746667
 20
95.153333
 30
0.0
 40
0.733333
100
AcDbArc
 50
90.0
 51
180.0
  0
LINE
  5
1A1
100
AcDbEntity
  8
LAY-1
  6
CONTINUOUS
 62
     2
100
AcDbLine
 10
212.5
 20
94.2
 30
0.0
 11
213.013333
 21
94.2
 31
0.0
  0
LINE
  5
1A2
100
AcDbEntity
  8
LAY-1
  6
CONTINUOUS
 62
     2
100
AcDbLine
 10
214.7
 20
96.4
 30
0.0
 11
214.7
 21
95.886667
 31
0.0
  0
LINE
  5
1A3
100
AcDbEntity
  8
LAY-1
  6
CONTINUOUS
 62
     2
100
AcDbLine
 10
210.3
 20
96.913333
 30
0.0
 11
211.253333
 21
96.913333
 31
0.0
  0
LINE
  5
1A4
100
AcDbEntity
  8
LAY-1
  6
CONTINUOUS
 62
     2
100
AcDbLine
 10
211.986667
 20
98.6
 30
0.0
 11
211.986667
 21
97.646667
 31
0.0
  0
ARC
  5
1A5
100
AcDbEntity
  8
LAY-1
  6
CONTINUOUS
 62
     2
100
AcDbCircle
 10
211.253333
 20
97.646667
 30
0.0
 40
0.733333
100
AcDbArc
 50
270.0
 51
0.0
  0
LINE
  5
1A6
100
AcDbEntity
  8
LAY-1
  6
CONTINUOUS
 62
     2
100
AcDbLine
 10
212.5
 20
98.6
 30
0.0
 11
211.986667
 21
98.6
 31
0.0
  0
LINE
  5
1A7
100
AcDbEntity
  8
LAY-1
  6
CONTINUOUS
 62
     2
100
AcDbLine
 10
210.3
 20
96.4
 30
0.0
 11
210.3
 21
96.913333
 31
0.0
  0
LINE
  5
1A8
100
AcDbEntity
  8
LAY-1
  6
CONTINUOUS
 62
     2
100
AcDbLine
 10
210.3
 20
95.886667
 30
0.0
 11
211.253333
 21
95.886667
 31
0.0
  0
LINE
  5
1A9
100
AcDbEntity
  8
LAY-1
  6
CONTINUOUS
 62
     2
100
AcDbLine
 10
211.986667
 20
94.2
 30
0.0
 11
211.986667
 21
95.153333
 31
0.0
  0
ARC
  5
1AA
100
AcDbEntity
  8
LAY-1
  6
CONTINUOUS
 62
     2
100
AcDbCircle
 10
211.253333
 20
95.153333
 30
0.0
 40
0.733333
100
AcDbArc
 50
0.0
 51
90.0
  0
LINE
  5
1AB
100
AcDbEntity
  8
LAY-1
  6
CONTINUOUS
 62
     2
100
AcDbLine
 10
212.5
 20
94.2
 30
0.0
 11
211.986667
 21
94.2
 31
0.0
  0
LINE
  5
1AC
100
AcDbEntity
  8
LAY-1
  6
CONTINUOUS
 62
     2
100
AcDbLine
 10
210.3
 20
96.4
 30
0.0
 11
210.3
 21
95.886667
 31
0.0
  0
CIRCLE
  5
1AD
100
AcDbEntity
  8
LAY-1
  6
CONTINUOUS
 62
     2
100
AcDbCircle
 10
170.064755
 20
120.9
 30
0.0
 40
4.0
  0
LINE
  5
1AE
100
AcDbEntity
  8
LAY-1
  6
CONTINUOUS
 62
     2
100
AcDbLine
 10
172.264755
 20
121.413333
 30
0.0
 11
171.311422
 21
121.413333
 31
0.0
  0
LINE
  5
1AF
100
AcDbEntity
  8
LAY-1
  6
CONTINUOUS
 62
     2
100
AcDbLine
 10
170.578089
 20
123.1
 30
0.0
 11
170.578089
 21
122.146667
 31
0.0
  0
ARC
  5
1B0
100
AcDbEntity
  8
LAY-1
  6
CONTINUOUS
 62
     2
100
AcDbCircle
 10
171.311422
 20
122.146667
 30
0.0
 40
0.733333
100
AcDbArc
 50
180.0
 51
270.0
  0
LINE
  5
1B1
100
AcDbEntity
  8
LAY-1
  6
CONTINUOUS
 62
     2
100
AcDbLine
 10
170.064755
 20
123.1
 30
0.0
 11
170.578089
 21
123.1
 31
0.0
  0
LINE
  5
1B2
100
AcDbEntity
  8
LAY-1
  6
CONTINUOUS
 62
     2
100
AcDbLine
 10
172.264755
 20
120.9
 30
0.0
 11
172.264755
 21
121.413333
 31
0.0
  0
LINE
  5
1B3
100
AcDbEntity
  8
LAY-1
  6
CONTINUOUS
 62
     2
100
AcDbLine
 10
172.264755
 20
120.386667
 30
0.0
 11
171.311422
 21
120.386667
 31
0.0
  0
LINE
  5
1B4
100
AcDbEntity
  8
LAY-1
  6
CONTINUOUS
 62
     2
100
AcDbLine
 10
170.578089
 20
118.7
 30
0.0
 11
170.578089
 21
119.653333
 31
0.0
  0
ARC
  5
1B5
100
AcDbEntity
  8
LAY-1
  6
CONTINUOUS
 62
     2
100
AcDbCircle
 10
171.311422
 20
119.653333
 30
0.0
 40
0.733333
100
AcDbArc
 50
90.0
 51
180.0
  0
LINE
  5
1B6
100
AcDbEntity
  8
LAY-1
  6
CONTINUOUS
 62
     2
100
AcDbLine
 10
170.064755
 20
118.7
 30
0.0
 11
170.578089
 21
118.7
 31
0.0
  0
LINE
  5
1B7
100
AcDbEntity
  8
LAY-1
  6
CONTINUOUS
 62
     2
100
AcDbLine
 10
172.264755
 20
120.9
 30
0.0
 11
172.264755
 21
120.386667
 31
0.0
  0
LINE
  5
1B8
100
AcDbEntity
  8
LAY-1
  6
CONTINUOUS
 62
     2
100
AcDbLine
 10
167.864755
 20
121.413333
 30
0.0
 11
168.818089
 21
121.413333
 31
0.0
  0
LINE
  5
1B9
100
AcDbEntity
  8
LAY-1
  6
CONTINUOUS
 62
     2
100
AcDbLine
 10
169.551422
 20
123.1
 30
0.0
 11
169.551422
 21
122.146667
 31
0.0
  0
ARC
  5
1BA
100
AcDbEntity
  8
LAY-1
  6
CONTINUOUS
 62
     2
100
AcDbCircle
 10
168.818089
 20
122.146667
 30
0.0
 40
0.733333
100
AcDbArc
 50
270.0
 51
0.0
  0
LINE
  5
1BB
100
AcDbEntity
  8
LAY-1
  6
CONTINUOUS
 62
     2
100
AcDbLine
 10
170.064755
 20
123.1
 30
0.0
 11
169.551422
 21
123.1
 31
0.0
  0
LINE
  5
1BC
100
AcDbEntity
  8
LAY-1
  6
CONTINUOUS
 62
     2
100
AcDbLine
 10
167.864755
 20
120.9
 30
0.0
 11
167.864755
 21
121.413333
 31
0.0
  0
LINE
  5
1BD
100
AcDbEntity
  8
LAY-1
  6
CONTINUOUS
 62
     2
100
AcDbLine
 10
167.864755
 20
120.386667
 30
0.0
 11
168.818089
 21
120.386667
 31
0.0
  0
LINE
  5
1BE
100
AcDbEntity
  8
LAY-1
  6
CONTINUOUS
 62
     2
100
AcDbLine
 10
169.551422
 20
118.7
 30
0.0
 11
169.551422
 21
119.653333
 31
0.0
  0
ARC
  5
1BF
100
AcDbEntity
  8
LAY-1
  6
CONTINUOUS
 62
     2
100
AcDbCircle
 10
168.818089
 20
119.653333
 30
0.0
 40
0.733333
100
AcDbArc
 50
0.0
 51
90.0
  0
LINE
  5
1C0
100
AcDbEntity
  8
LAY-1
  6
CONTINUOUS
 62
     2
100
AcDbLine
 10
170.064755
 20
118.7
 30
0.0
 11
169.551422
 21
118.7
 31
0.0
  0
LINE
  5
1C1
100
AcDbEntity
  8
LAY-1
  6
CONTINUOUS
 62
     2
100
AcDbLine
 10
167.864755
 20
120.9
 30
0.0
 11
167.864755
 21
120.386667
 31
0.0
  0
CIRCLE
  5
1C2
100
AcDbEntity
  8
LAY-1
  6
CONTINUOUS
 62
     2
100
AcDbCircle
 10
254.935245
 20
169.9
 30
0.0
 40
4.0
  0
LINE
  5
1C3
100
AcDbEntity
  8
LAY-1
  6
CONTINUOUS
 62
     2
100
AcDbLine
 10
257.135245
 20
170.413333
 30
0.0
 11
256.181911
 21
170.413333
 31
0.0
  0
LINE
  5
1C4
100
AcDbEntity
  8
LAY-1
  6
CONTINUOUS
 62
     2
100
AcDbLine
 10
255.448578
 20
172.1
 30
0.0
 11
255.448578
 21
171.146667
 31
0.0
  0
ARC
  5
1C5
100
AcDbEntity
  8
LAY-1
  6
CONTINUOUS
 62
     2
100
AcDbCircle
 10
256.181911
 20
171.146667
 30
0.0
 40
0.733333
100
AcDbArc
 50
180.0
 51
270.0
  0
LINE
  5
1C6
100
AcDbEntity
  8
LAY-1
  6
CONTINUOUS
 62
     2
100
AcDbLine
 10
254.935245
 20
172.1
 30
0.0
 11
255.448578
 21
172.1
 31
0.0
  0
LINE
  5
1C7
100
AcDbEntity
  8
LAY-1
  6
CONTINUOUS
 62
     2
100
AcDbLine
 10
257.135245
 20
169.9
 30
0.0
 11
257.135245
 21
170.413333
 31
0.0
  0
LINE
  5
1C8
100
AcDbEntity
  8
LAY-1
  6
CONTINUOUS
 62
     2
100
AcDbLine
 10
257.135245
 20
169.386667
 30
0.0
 11
256.181911
 21
169.386667
 31
0.0
  0
LINE
  5
1C9
100
AcDbEntity
  8
LAY-1
  6
CONTINUOUS
 62
     2
100
AcDbLine
 10
255.448578
 20
167.7
 30
0.0
 11
255.448578
 21
168.653333
 31
0.0
  0
ARC
  5
1CA
100
AcDbEntity
  8
LAY-1
  6
CONTINUOUS
 62
     2
100
AcDbCircle
 10
256.181911
 20
168.653333
 30
0.0
 40
0.733333
100
AcDbArc
 50
90.0
 51
180.0
  0
LINE
  5
1CB
100
AcDbEntity
  8
LAY-1
  6
CONTINUOUS
 62
     2
100
AcDbLine
 10
254.935245
 20
167.7
 30
0.0
 11
255.448578
 21
167.7
 31
0.0
  0
LINE
  5
1CC
100
AcDbEntity
  8
LAY-1
  6
CONTINUOUS
 62
     2
100
AcDbLine
 10
257.135245
 20
169.9
 30
0.0
 11
257.135245
 21
169.386667
 31
0.0
  0
LINE
  5
1CD
100
AcDbEntity
  8
LAY-1
  6
CONTINUOUS
 62
     2
100
AcDbLine
 10
252.735245
 20
170.413333
 30
0.0
 11
253.688578
 21
170.413333
 31
0.0
  0
LINE
  5
1CE
100
AcDbEntity
  8
LAY-1
  6
CONTINUOUS
 62
     2
100
AcDbLine
 10
254.421911
 20
172.1
 30
0.0
 11
254.421911
 21
171.146667
 31
0.0
  0
ARC
  5
1CF
100
AcDbEntity
  8
LAY-1
  6
CONTINUOUS
 62
     2
100
AcDbCircle
 10
253.688578
 20
171.146667
 30
0.0
 40
0.733333
100
AcDbArc
 50
270.0
 51
0.0
  0
LINE
  5
1D0
100
AcDbEntity
  8
LAY-1
  6
CONTINUOUS
 62
     2
100
AcDbLine
 10
254.935245
 20
172.1
 30
0.0
 11
254.421911
 21
172.1
 31
0.0
  0
LINE
  5
1D1
100
AcDbEntity
  8
LAY-1
  6
CONTINUOUS
 62
     2
100
AcDbLine
 10
252.735245
 20
169.9
 30
0.0
 11
252.735245
 21
170.413333
 31
0.0
  0
LINE
  5
1D2
100
AcDbEntity
  8
LAY-1
  6
CONTINUOUS
 62
     2
100
AcDbLine
 10
252.735245
 20
169.386667
 30
0.0
 11
253.688578
 21
169.386667
 31
0.0
  0
LINE
  5
1D3
100
AcDbEntity
  8
LAY-1
  6
CONTINUOUS
 62
     2
100
AcDbLine
 10
254.421911
 20
167.7
 30
0.0
 11
254.421911
 21
168.653333
 31
0.0
  0
ARC
  5
1D4
100
AcDbEntity
  8
LAY-1
  6
CONTINUOUS
 62
     2
100
AcDbCircle
 10
253.688578
 20
168.653333
 30
0.0
 40
0.733333
100
AcDbArc
 50
0.0
 51
90.0
  0
LINE
  5
1D5
100
AcDbEntity
  8
LAY-1
  6
CONTINUOUS
 62
     2
100
AcDbLine
 10
254.935245
 20
167.7
 30
0.0
 11
254.421911
 21
167.7
 31
0.0
  0
LINE
  5
1D6
100
AcDbEntity
  8
LAY-1
  6
CONTINUOUS
 62
     2
100
AcDbLine
 10
252.735245
 20
169.9
 30
0.0
 11
252.735245
 21
169.386667
 31
0.0
  0
ARC
  5
1D7
100
AcDbEntity
  8
LAY-1
  6
CONTINUOUS
 62
     2
100
AcDbCircle
 10
212.5
 20
145.4
 30
0.0
 40
42.463943
100
AcDbArc
 50
203.398988
 51
0.0
  0
LINE
  5
1D8
100
AcDbEntity
  8
LAY-1
  6
CONTINUOUS
 62
     2
100
AcDbLine
 10
162.5
 20
131.9
 30
0.0
 11
162.5
 21
145.4
 31
0.0
  0
ARC
  5
1D9
100
AcDbEntity
  8
LAY-1
  6
CONTINUOUS
 62
     2
100
AcDbCircle
 10
164.0
 20
131.9
 30
0.0
 40
1.5
100
AcDbArc
 50
180.0
 51
270.0
  0
LINE
  5
1DA
100
AcDbEntity
  8
LAY-1
  6
CONTINUOUS
 62
     2
100
AcDbLine
 10
179.757359
 20
130.4
 30
0.0
 11
164.0
 21
130.4
 31
0.0
  0
ARC
  5
1DB
100
AcDbEntity
  8
LAY-1
  6
CONTINUOUS
 62
     2
100
AcDbCircle
 10
179.757359
 20
133.4
 30
0.0
 40
3.0
100
AcDbArc
 50
270.0
 51
315.0
  0
LINE
  5
1DC
100
AcDbEntity
  8
LAY-1
  6
CONTINUOUS
 62
     2
100
AcDbLine
 10
181.87868
 20
131.27868
 30
0.0
 11
187.62132
 21
137.02132
 31
0.0
  0
ARC
  5
1DD
100
AcDbEntity
  8
LAY-1
  6
CONTINUOUS
 62
     2
100
AcDbCircle
 10
189.742641
 20
134.9
 30
0.0
 40
3.0
100
AcDbArc
 50
90.0
 51
135.0
  0
LINE
  5
1DE
100
AcDbEntity
  8
LAY-1
  6
CONTINUOUS
 62
     2
100
AcDbLine
 10
181.0
 20
131.8
 30
0.0
 11
181.0
 21
145.4
 31
0.0
  0
LINE
  5
1DF
100
AcDbEntity
  8
LAY-1
  6
CONTINUOUS
 62
     2
100
AcDbLine
 10
188.5
 20
139.1
 30
0.0
 11
188.5
 21
145.4
 31
0.0
  0
LINE
  5
1E0
100
AcDbEntity
  8
LAY-1
  6
CONTINUOUS
 62
     2
100
AcDbLine
 10
195.184905
 20
137.9
 30
0.0
 11
189.742641
 21
137.9
 31
0.0
  0
LINE
  5
1E1
100
AcDbEntity
  8
LAY-1
  6
CONTINUOUS
 62
     2
100
AcDbLine
 10
162.5
 20
158.9
 30
0.0
 11
162.5
 21
145.4
 31
0.0
  0
ARC
  5
1E2
100
AcDbEntity
  8
LAY-1
  6
CONTINUOUS
 62
     2
100
AcDbCircle
 10
164.0
 20
158.9
 30
0.0
 40
1.5
100
AcDbArc
 50
90.0
 51
180.0
  0
LINE
  5
1E3
100
AcDbEntity
  8
LAY-1
  6
CONTINUOUS
 62
     2
100
AcDbLine
 10
179.757359
 20
160.4
 30
0.0
 11
164.0
 21
160.4
 31
0.0
  0
ARC
  5
1E4
100
AcDbEntity
  8
LAY-1
  6
CONTINUOUS
 62
     2
100
AcDbCircle
 10
179.757359
 20
157.4
 30
0.0
 40
3.0
100
AcDbArc
 50
45.0
 51
90.0
  0
LINE
  5
1E5
100
AcDbEntity
  8
LAY-1
  6
CONTINUOUS
 62
     2
100
AcDbLine
 10
181.87868
 20
159.52132
 30
0.0
 11
187.62132
 21
153.77868
 31
0.0
  0
ARC
  5
1E6
100
AcDbEntity
  8
LAY-1
  6
CONTINUOUS
 62
     2
100
AcDbCircle
 10
189.742641
 20
155.9
 30
0.0
 40
3.0
100
AcDbArc
 50
225.0
 51
270.0
  0
LINE
  5
1E7
100
AcDbEntity
  8
LAY-1
  6
CONTINUOUS
 62
     2
100
AcDbLine
 10
181.0
 20
159.0
 30
0.0
 11
181.0
 21
145.4
 31
0.0
  0
LINE
  5
1E8
100
AcDbEntity
  8
LAY-1
  6
CONTINUOUS
 62
     2
100
AcDbLine
 10
188.5
 20
151.7
 30
0.0
 11
188.5
 21
145.4
 31
0.0
  0
LINE
  5
1E9
100
AcDbEntity
  8
LAY-1
  6
CONTINUOUS
 62
     2
100
AcDbLine
 10
195.184905
 20
152.9
 30
0.0
 11
189.742641
 21
152.9
 31
0.0
  0
ARC
  5
1EA
100
AcDbEntity
  8
LAY-1
  6
CONTINUOUS
 62
     2
100
AcDbCircle
 10
212.5
 20
145.4
 30
0.0
 40
42.463943
100
AcDbArc
 50
0.0
 51
156.601012
  0
LINE
  5
1EB
100
AcDbEntity
  8
LAY-1
  6
CONTINUOUS
 62
     1
100
AcDbLine
 10
240.786595
 20
139.030516
 30
0.0
 11
243.2375
 21
137.620313
 31
0.0
  0
LINE
  5
1EC
100
AcDbEntity
  8
LAY-1
  6
CONTINUOUS
 62
     1
100
AcDbLine
 10
243.2375
 20
137.620313
 30
0.0
 11
242.5875
 21
139.682221
 31
0.0
  0
LINE
  5
1ED
100
AcDbEntity
  8
LAY-1
  6
CONTINUOUS
 62
     1
100
AcDbLine
 10
242.5875
 20
143.470313
 30
0.0
 11
242.5875
 21
140.095312
 31
0.0
  0
ELLIPSE
  5
1EE
100
AcDbEntity
  8
LAY-1
  6
CONTINUOUS
 62
     1
100
AcDbEllipse
 10
239.5
 20
145.4
 30
0.0
 11
0.1845249848200253
 21
-6.2738494838801744
 31
0.0
210
0.0
220
0.0
230
1.0
 40
0.912621
 41
3.5427715523045538
 42
0.1388139713137163
  0
ARC
  5
1EF
100
AcDbEntity
  8
LAY-1
  6
CONTINUOUS
 62
     1
100
AcDbCircle
 10
239.5
 20
145.4
 30
0.0
 40
6.498127
100
AcDbArc
 50
111.645098
 51
281.419721
  0
LINE
  5
1F0
100
AcDbEntity
  8
LAY-1
  6
CONTINUOUS
 62
     1
100
AcDbLine
 10
239.5
 20
145.4
 30
0.0
 11
239.5
 21
151.676018
 31
0.0
  0
LINE
  5
1F1
100
AcDbEntity
  8
LAY-1
  6
CONTINUOUS
 62
     1
100
AcDbLine
 10
237.103125
 20
151.088859
 30
0.0
 11
237.103125
 21
145.4
 31
0.0
  0
LINE
  5
1F2
100
AcDbEntity
  8
LAY-1
  6
CONTINUOUS
 62
     1
100
AcDbLine
 10
237.103125
 20
151.940625
 30
0.0
 11
237.103125
 21
151.433573
 31
0.0
  0
LINE
  5
1F3
100
AcDbEntity
  8
LAY-1
  6
CONTINUOUS
 62
     1
100
AcDbLine
 10
242.5875
 20
143.470313
 30
0.0
 11
242.83125
 21
143.470313
 31
0.0
  0
LINE
  5
1F4
100
AcDbEntity
  8
LAY-1
  6
CONTINUOUS
 62
     1
100
AcDbLine
 10
239.5
 20
151.898127
 30
0.0
 11
240.251563
 21
152.529688
 31
0.0
  0
ARC
  5
1F5
100
AcDbEntity
  8
LAY-1
  6
CONTINUOUS
 62
     1
100
AcDbCircle
 10
239.5
 20
145.4
 30
0.0
 40
6.498127
100
AcDbArc
 50
298.368264
 51
90.0
  0
ELLIPSE
  5
1F6
100
AcDbEntity
  8
LAY-1
  6
CONTINUOUS
 62
     1
100
AcDbEllipse
 10
239.5
 20
145.4
 30
0.0
 11
0.1845249848200253
 21
-6.2738494838801744
 31
0.0
210
0.0
220
0.0
230
1.0
 40
0.912621
 41
0.5369857443297316
 42
3.1093760194933928
  0
LINE
  5
1F7
100
AcDbEntity
  8
LAY-1
  6
CONTINUOUS
 62
     1
100
AcDbLine
 10
240.475
 20
145.4
 30
0.0
 11
239.5
 21
145.4
 31
0.0
  0
LINE
  5
1F8
100
AcDbEntity
  8
LAY-1
  6
CONTINUOUS
 62
     1
100
AcDbLine
 10
240.475
 20
147.939063
 30
0.0
 11
240.475
 21
145.4
 31
0.0
  0
LINE
  5
1F9
100
AcDbEntity
  8
LAY-1
  6
CONTINUOUS
 62
     1
100
AcDbLine
 10
239.5
 20
148.365625
 30
0.0
 11
240.475
 21
147.939063
 31
0.0
  0
LINE
  5
1FA
100
AcDbEntity
  8
LAY-1
  6
CONTINUOUS
 62
     1
100
AcDbLine
 10
243.440625
 20
148.365625
 30
0.0
 11
239.5
 21
148.365625
 31
0.0
  0
LINE
  5
1FB
100
AcDbEntity
  8
LAY-1
  6
CONTINUOUS
 62
     1
100
AcDbLine
 10
242.5875
 20
147.939063
 30
0.0
 11
243.440625
 21
148.365625
 31
0.0
  0
LINE
  5
1FC
100
AcDbEntity
  8
LAY-1
  6
CONTINUOUS
 62
     1
100
AcDbLine
 10
242.5875
 20
145.4
 30
0.0
 11
242.5875
 21
147.939063
 31
0.0
  0
LINE
  5
1FD
100
AcDbEntity
  8
LAY-1
  6
CONTINUOUS
 62
     1
100
AcDbLine
 10
244.140963
 20
145.4
 30
0.0
 11
242.5875
 21
145.4
 31
0.0
  0
LINE
  5
1FE
100
AcDbEntity
  8
LAY-1
  6
CONTINUOUS
 62
     1
100
AcDbLine
 10
245.000989
 20
145.896536
 30
0.0
 11
244.140963
 21
145.4
 31
0.0
  0
LINE
  5
1FF
100
AcDbEntity
  8
LAY-1
  6
CONTINUOUS
 62
     1
100
AcDbLine
 10
243.31875
 20
142.982813
 30
0.0
 11
245.000989
 21
145.896536
 31
0.0
  0
LINE
  5
200
100
AcDbEntity
  8
LAY-1
  6
CONTINUOUS
 62
     1
100
AcDbLine
 10
242.83125
 20
143.470313
 30
0.0
 11
243.31875
 21
142.982813
 31
0.0
  0
LINE
  5
201
100
AcDbEntity
  8
LAY-1
  6
CONTINUOUS
 62
     1
100
AcDbLine
 10
240.475
 20
143.470313
 30
0.0
 11
240.475
 21
139.209801
 31
0.0
  0
LINE
  5
202
100
AcDbEntity
  8
LAY-1
  6
CONTINUOUS
 62
     1
100
AcDbLine
 10
236.16875
 20
143.470313
 30
0.0
 11
240.475
 21
143.470313
 31
0.0
  0
LINE
  5
203
100
AcDbEntity
  8
LAY-1
  6
CONTINUOUS
 62
     1
100
AcDbLine
 10
235.68125
 20
142.982813
 30
0.0
 11
236.16875
 21
143.470313
 31
0.0
  0
LINE
  5
204
100
AcDbEntity
  8
LAY-1
  6
CONTINUOUS
 62
     1
100
AcDbLine
 10
233.999011
 20
145.896536
 30
0.0
 11
235.68125
 21
142.982813
 31
0.0
  0
LINE
  5
205
100
AcDbEntity
  8
LAY-1
  6
CONTINUOUS
 62
     1
100
AcDbLine
 10
234.859037
 20
145.4
 30
0.0
 11
233.999011
 21
145.896536
 31
0.0
  0
LINE
  5
206
100
AcDbEntity
  8
LAY-1
  6
CONTINUOUS
 62
     1
100
AcDbLine
 10
237.103125
 20
145.4
 30
0.0
 11
234.859037
 21
145.4
 31
0.0
  0
LINE
  5
207
100
AcDbEntity
  8
LAY-1
  6
CONTINUOUS
 62
     1
100
AcDbLine
 10
236.432813
 20
152.529688
 30
0.0
 11
237.103125
 21
151.940625
 31
0.0
  0
LINE
  5
208
100
AcDbEntity
  8
LAY-1
  6
CONTINUOUS
 62
     1
100
AcDbLine
 10
240.251563
 20
152.529688
 30
0.0
 11
236.432813
 21
152.529688
 31
0.0
  0
CIRCLE
  5
209
100
AcDbEntity
  8
LAY-1
  6
CONTINUOUS
 62
     1
100
AcDbCircle
 10
239.5
 20
145.4
 30
0.0
 40
6.5
  0
ARC
  5
20A
100
AcDbEntity
  8
LAY-1
  6
CONTINUOUS
 62
     2
100
AcDbCircle
 10
212.5
 20
145.4
 30
0.0
 40
19.0
100
AcDbArc
 50
52.919542
 51
67.080458
  0
POLYLINE
  5
20B
100
AcDbEntity
  8
LAY-1
  6
CONTINUOUS
 62
     2
100
AcDb2dPolyline
 66
     1
 10
0.0
 20
0.0
 30
0.0
 70
   128
  0
VERTEX
  5
20C
100
AcDbEntity
  8
LAY-1
  6
CONTINUOUS
 62
     2
100
AcDbVertex
100
AcDb2dVertex
 10
231.355107
 20
147.741997
 30
0.0
  0
VERTEX
  5
20D
100
AcDbEntity
  8
LAY-1
  6
CONTINUOUS
 62
     2
100
AcDbVertex
100
AcDb2dVertex
 10
223.955782
 20
160.558003
 30
0.0
  0
SEQEND
  5
20E
100
AcDbEntity
  8
LAY-1
  6
CONTINUOUS
 62
     2
  0
ARC
  5
20F
100
AcDbEntity
  8
LAY-1
  6
CONTINUOUS
 62
     2
100
AcDbCircle
 10
212.5
 20
145.4
 30
0.0
 40
19.0
100
AcDbArc
 50
352.919542
 51
7.080458
  0
POLYLINE
  5
210
100
AcDbEntity
  8
LAY-1
  6
CONTINUOUS
 62
     2
100
AcDb2dPolyline
 66
     1
 10
0.0
 20
0.0
 30
0.0
 70
   128
  0
VERTEX
  5
211
100
AcDbEntity
  8
LAY-1
  6
CONTINUOUS
 62
     2
100
AcDbVertex
100
AcDb2dVertex
 10
223.955782
 20
130.241997
 30
0.0
  0
VERTEX
  5
212
100
AcDbEntity
  8
LAY-1
  6
CONTINUOUS
 62
     2
100
AcDbVertex
100
AcDb2dVertex
 10
231.355107
 20
143.058003
 30
0.0
  0
SEQEND
  5
213
100
AcDbEntity
  8
LAY-1
  6
CONTINUOUS
 62
     2
  0
ARC
  5
214
100
AcDbEntity
  8
LAY-1
  6
CONTINUOUS
 62
     2
100
AcDbCircle
 10
212.5
 20
145.4
 30
0.0
 40
19.0
100
AcDbArc
 50
292.919542
 51
307.080458
  0
POLYLINE
  5
215
100
AcDbEntity
  8
LAY-1
  6
CONTINUOUS
 62
     2
100
AcDb2dPolyline
 66
     1
 10
0.0
 20
0.0
 30
0.0
 70
   128
  0
VERTEX
  5
216
100
AcDbEntity
  8
LAY-1
  6
CONTINUOUS
 62
     2
100
AcDbVertex
100
AcDb2dVertex
 10
205.100676
 20
127.9
 30
0.0
  0
VERTEX
  5
217
100
AcDbEntity
  8
LAY-1
  6
CONTINUOUS
 62
     2
100
AcDbVertex
100
AcDb2dVertex
 10
219.899324
 20
127.9
 30
0.0
  0
SEQEND
  5
218
100
AcDbEntity
  8
LAY-1
  6
CONTINUOUS
 62
     2
  0
ARC
  5
219
100
AcDbEntity
  8
LAY-1
  6
CONTINUOUS
 62
     2
100
AcDbCircle
 10
212.5
 20
145.4
 30
0.0
 40
19.0
100
AcDbArc
 50
232.919542
 51
247.080458
  0
POLYLINE
  5
21A
100
AcDbEntity
  8
LAY-1
  6
CONTINUOUS
 62
     2
100
AcDb2dPolyline
 66
     1
 10
0.0
 20
0.0
 30
0.0
 70
   128
  0
VERTEX
  5
21B
100
AcDbEntity
  8
LAY-1
  6
CONTINUOUS
 62
     2
100
AcDbVertex
100
AcDb2dVertex
 10
193.644893
 20
143.058003
 30
0.0
  0
VERTEX
  5
21C
100
AcDbEntity
  8
LAY-1
  6
CONTINUOUS
 62
     2
100
AcDbVertex
100
AcDb2dVertex
 10
201.044218
 20
130.241997
 30
0.0
  0
SEQEND
  5
21D
100
AcDbEntity
  8
LAY-1
  6
CONTINUOUS
 62
     2
  0
ARC
  5
21E
100
AcDbEntity
  8
LAY-1
  6
CONTINUOUS
 62
     2
100
AcDbCircle
 10
212.5
 20
145.4
 30
0.0
 40
19.0
100
AcDbArc
 50
172.919542
 51
187.080458
  0
ARC
  5
21F
100
AcDbEntity
  8
LAY-1
  6
CONTINUOUS
 62
     2
100
AcDbCircle
 10
212.5
 20
145.4
 30
0.0
 40
19.0
100
AcDbArc
 50
112.919542
 51
127.080458
  0
POLYLINE
  5
220
100
AcDbEntity
  8
LAY-1
  6
CONTINUOUS
 62
     2
100
AcDb2dPolyline
 66
     1
 10
0.0
 20
0.0
 30
0.0
 70
   128
  0
VERTEX
  5
221
100
AcDbEntity
  8
LAY-1
  6
CONTINUOUS
 62
     2
100
AcDbVertex
100
AcDb2dVertex
 10
201.044218
 20
160.558003
 30
0.0
  0
VERTEX
  5
222
100
AcDbEntity
  8
LAY-1
  6
CONTINUOUS
 62
     2
100
AcDbVertex
100
AcDb2dVertex
 10
193.644893
 20
147.741997
 30
0.0
  0
SEQEND
  5
223
100
AcDbEntity
  8
LAY-1
  6
CONTINUOUS
 62
     2
  0
POLYLINE
  5
224
100
AcDbEntity
  8
LAY-1
  6
CONTINUOUS
 62
     2
100
AcDb2dPolyline
 66
     1
 10
0.0
 20
0.0
 30
0.0
 70
   128
  0
VERTEX
  5
225
100
AcDbEntity
  8
LAY-1
  6
CONTINUOUS
 62
     2
100
AcDbVertex
100
AcDb2dVertex
 10
219.899324
 20
162.9
 30
0.0
  0
VERTEX
  5
226
100
AcDbEntity
  8
LAY-1
  6
CONTINUOUS
 62
     2
100
AcDbVertex
100
AcDb2dVertex
 10
205.100676
 20
162.9
 30
0.0
  0
SEQEND
  5
227
100
AcDbEntity
  8
LAY-1
  6
CONTINUOUS
 62
     2
  0
ARC
  5
228
100
AcDbEntity
  8
LAY-1
  6
CONTINUOUS
 62
     2
100
AcDbCircle
 10
195.184905
 20
155.9
 30
0.0
 40
3.0
100
AcDbArc
 50
270.0
 51
306.22049
  0
ARC
  5
229
100
AcDbEntity
  8
LAY-1
  6
CONTINUOUS
 62
     2
100
AcDbCircle
 10
195.184905
 20
134.9
 30
0.0
 40
3.0
100
AcDbArc
 50
53.77951
 51
90.0
  0
CIRCLE
  5
22A
100
AcDbEntity
  8
LAY-1
  6
CONTINUOUS
 62
     2
100
AcDbCircle
 10
212.5
 20
145.4
 30
0.0
 40
17.5
  0
ARC
  5
22B
100
AcDbEntity
  8
LAY-1
  6
CONTINUOUS
 62
     2
100
AcDbCircle
 10
212.5
 20
145.4
 30
0.0
 40
14.0
100
AcDbArc
 50
356.873224
 51
0.0
  0
ARC
  5
22C
100
AcDbEntity
  8
LAY-1
  6
CONTINUOUS
 62
     2
100
AcDbCircle
 10
226.22953
 20
144.65
 30
0.0
 40
0.25
100
AcDbArc
 50
270.0
 51
356.873224
  0
LINE
  5
22D
100
AcDbEntity
  8
LAY-1
  6
CONTINUOUS
 62
     2
100
AcDbLine
 10
226.22953
 20
144.4
 30
0.0
 11
226.193064
 21
144.4
 31
0.0
  0
ARC
  5
22E
100
AcDbEntity
  8
LAY-1
  6
CONTINUOUS
 62
     2
100
AcDbCircle
 10
226.193064
 20
144.15
 30
0.0
 40
0.25
100
AcDbArc
 50
90.0
 51
174.784091
  0
ARC
  5
22F
100
AcDbEntity
  8
LAY-1
  6
CONTINUOUS
 62
     2
100
AcDbCircle
 10
212.5
 20
145.4
 30
0.0
 40
13.5
100
AcDbArc
 50
335.215909
 51
354.784091
  0
ARC
  5
230
100
AcDbEntity
  8
LAY-1
  6
CONTINUOUS
 62
     2
100
AcDbCircle
 10
224.983541
 20
139.636
 30
0.0
 40
0.25
100
AcDbArc
 50
155.215909
 51
240.0
  0
LINE
  5
231
100
AcDbEntity
  8
LAY-1
  6
CONTINUOUS
 62
     2
100
AcDbLine
 10
224.858541
 20
139.419493
 30
0.0
 11
224.890122
 21
139.40126
 31
0.0
  0
ARC
  5
232
100
AcDbEntity
  8
LAY-1
  6
CONTINUOUS
 62
     2
100
AcDbCircle
 10
224.765122
 20
139.184754
 30
0.0
 40
0.25
100
AcDbArc
 50
333.126776
 51
60.0
  0
ARC
  5
233
100
AcDbEntity
  8
LAY-1
  6
CONTINUOUS
 62
     2
100
AcDbCircle
 10
212.5
 20
145.4
 30
0.0
 40
14.0
100
AcDbArc
 50
326.873224
 51
333.126776
  0
ARC
  5
234
100
AcDbEntity
  8
LAY-1
  6
CONTINUOUS
 62
     2
100
AcDbCircle
 10
224.015122
 20
137.885716
 30
0.0
 40
0.25
100
AcDbArc
 50
240.0
 51
326.873224
  0
LINE
  5
235
100
AcDbEntity
  8
LAY-1
  6
CONTINUOUS
 62
     2
100
AcDbLine
 10
223.858541
 20
137.687443
 30
0.0
 11
223.890122
 21
137.669209
 31
0.0
  0
ARC
  5
236
100
AcDbEntity
  8
LAY-1
  6
CONTINUOUS
 62
     2
100
AcDbCircle
 10
223.733541
 20
137.470936
 30
0.0
 40
0.25
100
AcDbArc
 50
60.0
 51
144.784091
  0
ARC
  5
237
100
AcDbEntity
  8
LAY-1
  6
CONTINUOUS
 62
     2
100
AcDbCircle
 10
220.014284
 20
133.884878
 30
0.0
 40
0.25
100
AcDbArc
 50
303.126776
 51
30.0
  0
ARC
  5
238
100
AcDbEntity
  8
LAY-1
  6
CONTINUOUS
 62
     2
100
AcDbCircle
 10
212.5
 20
145.4
 30
0.0
 40
13.5
100
AcDbArc
 50
305.215909
 51
324.784091
  0
LINE
  5
239
100
AcDbEntity
  8
LAY-1
  6
CONTINUOUS
 62
     2
100
AcDbLine
 10
220.212557
 20
134.041459
 30
0.0
 11
220.230791
 21
134.009878
 31
0.0
  0
ARC
  5
23A
100
AcDbEntity
  8
LAY-1
  6
CONTINUOUS
 62
     2
100
AcDbCircle
 10
220.429064
 20
134.166459
 30
0.0
 40
0.25
100
AcDbArc
 50
125.215909
 51
210.0
  0
ARC
  5
23B
100
AcDbEntity
  8
LAY-1
  6
CONTINUOUS
 62
     2
100
AcDbCircle
 10
218.264
 20
132.916459
 30
0.0
 40
0.25
100
AcDbArc
 50
30.0
 51
114.784091
  0
LINE
  5
23C
100
AcDbEntity
  8
LAY-1
  6
CONTINUOUS
 62
     2
100
AcDbLine
 10
218.480507
 20
133.041459
 30
0.0
 11
218.49874
 21
133.009878
 31
0.0
  0
ARC
  5
23D
100
AcDbEntity
  8
LAY-1
  6
CONTINUOUS
 62
     2
100
AcDbCircle
 10
212.5
 20
145.4
 30
0.0
 40
14.0
100
AcDbArc
 50
296.873224
 51
303.126776
  0
ARC
  5
23E
100
AcDbEntity
  8
LAY-1
  6
CONTINUOUS
 62
     2
100
AcDbCircle
 10
218.715246
 20
133.134878
 30
0.0
 40
0.25
100
AcDbArc
 50
210.0
 51
296.873224
  0
ARC
  5
23F
100
AcDbEntity
  8
LAY-1
  6
CONTINUOUS
 62
     2
100
AcDbCircle
 10
213.25
 20
131.67047
 30
0.0
 40
0.25
100
AcDbArc
 50
273.126776
 51
0.0
  0
LINE
  5
240
100
AcDbEntity
  8
LAY-1
  6
CONTINUOUS
 62
     2
100
AcDbLine
 10
213.5
 20
131.706936
 30
0.0
 11
213.5
 21
131.67047
 31
0.0
  0
ARC
  5
241
100
AcDbEntity
  8
LAY-1
  6
CONTINUOUS
 62
     2
100
AcDbCircle
 10
212.5
 20
145.4
 30
0.0
 40
13.5
100
AcDbArc
 50
275.215909
 51
294.784091
  0
ARC
  5
242
100
AcDbEntity
  8
LAY-1
  6
CONTINUOUS
 62
     2
100
AcDbCircle
 10
213.75
 20
131.706936
 30
0.0
 40
0.25
100
AcDbArc
 50
95.215909
 51
180.0
  0
ARC
  5
243
100
AcDbEntity
  8
LAY-1
  6
CONTINUOUS
 62
     2
100
AcDbCircle
 10
212.5
 20
145.4
 30
0.0
 40
14.0
100
AcDbArc
 50
270.0
 51
273.126776
  0
ARC
  5
244
100
AcDbEntity
  8
LAY-1
  6
CONTINUOUS
 62
     2
100
AcDbCircle
 10
212.5
 20
145.4
 30
0.0
 40
14.0
100
AcDbArc
 50
180.0
 51
183.126776
  0
ARC
  5
245
100
AcDbEntity
  8
LAY-1
  6
CONTINUOUS
 62
     2
100
AcDbCircle
 10
198.77047
 20
144.65
 30
0.0
 40
0.25
100
AcDbArc
 50
183.126776
 51
270.0
  0
LINE
  5
246
100
AcDbEntity
  8
LAY-1
  6
CONTINUOUS
 62
     2
100
AcDbLine
 10
198.77047
 20
144.4
 30
0.0
 11
198.806936
 21
144.4
 31
0.0
  0
ARC
  5
247
100
AcDbEntity
  8
LAY-1
  6
CONTINUOUS
 62
     2
100
AcDbCircle
 10
198.806936
 20
144.15
 30
0.0
 40
0.25
100
AcDbArc
 50
5.215909
 51
90.0
  0
ARC
  5
248
100
AcDbEntity
  8
LAY-1
  6
CONTINUOUS
 62
     2
100
AcDbCircle
 10
212.5
 20
145.4
 30
0.0
 40
13.5
100
AcDbArc
 50
185.215909
 51
204.784091
  0
ARC
  5
249
100
AcDbEntity
  8
LAY-1
  6
CONTINUOUS
 62
     2
100
AcDbCircle
 10
200.016459
 20
139.636
 30
0.0
 40
0.25
100
AcDbArc
 50
300.0
 51
24.784091
  0
LINE
  5
24A
100
AcDbEntity
  8
LAY-1
  6
CONTINUOUS
 62
     2
100
AcDbLine
 10
200.141459
 20
139.419493
 30
0.0
 11
200.109878
 21
139.40126
 31
0.0
  0
ARC
  5
24B
100
AcDbEntity
  8
LAY-1
  6
CONTINUOUS
 62
     2
100
AcDbCircle
 10
200.234878
 20
139.184754
 30
0.0
 40
0.25
100
AcDbArc
 50
120.0
 51
206.873224
  0
ARC
  5
24C
100
AcDbEntity
  8
LAY-1
  6
CONTINUOUS
 62
     2
100
AcDbCircle
 10
212.5
 20
145.4
 30
0.0
 40
14.0
100
AcDbArc
 50
206.873224
 51
213.126776
  0
ARC
  5
24D
100
AcDbEntity
  8
LAY-1
  6
CONTINUOUS
 62
     2
100
AcDbCircle
 10
200.984878
 20
137.885716
 30
0.0
 40
0.25
100
AcDbArc
 50
213.126776
 51
300.0
  0
LINE
  5
24E
100
AcDbEntity
  8
LAY-1
  6
CONTINUOUS
 62
     2
100
AcDbLine
 10
201.141459
 20
137.687443
 30
0.0
 11
201.109878
 21
137.669209
 31
0.0
  0
ARC
  5
24F
100
AcDbEntity
  8
LAY-1
  6
CONTINUOUS
 62
     2
100
AcDbCircle
 10
201.266459
 20
137.470936
 30
0.0
 40
0.25
100
AcDbArc
 50
35.215909
 51
120.0
  0
ARC
  5
250
100
AcDbEntity
  8
LAY-1
  6
CONTINUOUS
 62
     2
100
AcDbCircle
 10
204.985716
 20
133.884878
 30
0.0
 40
0.25
100
AcDbArc
 50
150.0
 51
236.873224
  0
ARC
  5
251
100
AcDbEntity
  8
LAY-1
  6
CONTINUOUS
 62
     2
100
AcDbCircle
 10
212.5
 20
145.4
 30
0.0
 40
13.5
100
AcDbArc
 50
215.215909
 51
234.784091
  0
LINE
  5
252
100
AcDbEntity
  8
LAY-1
  6
CONTINUOUS
 62
     2
100
AcDbLine
 10
204.787443
 20
134.041459
 30
0.0
 11
204.769209
 21
134.009878
 31
0.0
  0
ARC
  5
253
100
AcDbEntity
  8
LAY-1
  6
CONTINUOUS
 62
     2
100
AcDbCircle
 10
204.570936
 20
134.166459
 30
0.0
 40
0.25
100
AcDbArc
 50
330.0
 51
54.784091
  0
ARC
  5
254
100
AcDbEntity
  8
LAY-1
  6
CONTINUOUS
 62
     2
100
AcDbCircle
 10
206.736
 20
132.916459
 30
0.0
 40
0.25
100
AcDbArc
 50
65.215909
 51
150.0
  0
LINE
  5
255
100
AcDbEntity
  8
LAY-1
  6
CONTINUOUS
 62
     2
100
AcDbLine
 10
206.519493
 20
133.041459
 30
0.0
 11
206.50126
 21
133.009878
 31
0.0
  0
ARC
  5
256
100
AcDbEntity
  8
LAY-1
  6
CONTINUOUS
 62
     2
100
AcDbCircle
 10
212.5
 20
145.4
 30
0.0
 40
14.0
100
AcDbArc
 50
236.873224
 51
243.126776
  0
ARC
  5
257
100
AcDbEntity
  8
LAY-1
  6
CONTINUOUS
 62
     2
100
AcDbCircle
 10
206.284754
 20
133.134878
 30
0.0
 40
0.25
100
AcDbArc
 50
243.126776
 51
330.0
  0
ARC
  5
258
100
AcDbEntity
  8
LAY-1
  6
CONTINUOUS
 62
     2
100
AcDbCircle
 10
211.75
 20
131.67047
 30
0.0
 40
0.25
100
AcDbArc
 50
180.0
 51
266.873224
  0
LINE
  5
259
100
AcDbEntity
  8
LAY-1
  6
CONTINUOUS
 62
     2
100
AcDbLine
 10
211.5
 20
131.706936
 30
0.0
 11
211.5
 21
131.67047
 31
0.0
  0
ARC
  5
25A
100
AcDbEntity
  8
LAY-1
  6
CONTINUOUS
 62
     2
100
AcDbCircle
 10
212.5
 20
145.4
 30
0.0
 40
13.5
100
AcDbArc
 50
245.215909
 51
264.784091
  0
ARC
  5
25B
100
AcDbEntity
  8
LAY-1
  6
CONTINUOUS
 62
     2
100
AcDbCircle
 10
211.25
 20
131.706936
 30
0.0
 40
0.25
100
AcDbArc
 50
0.0
 51
84.784091
  0
ARC
  5
25C
100
AcDbEntity
  8
LAY-1
  6
CONTINUOUS
 62
     2
100
AcDbCircle
 10
212.5
 20
145.4
 30
0.0
 40
14.0
100
AcDbArc
 50
266.873224
 51
270.0
  0
ARC
  5
25D
100
AcDbEntity
  8
LAY-1
  6
CONTINUOUS
 62
     2
100
AcDbCircle
 10
212.5
 20
145.4
 30
0.0
 40
14.0
100
AcDbArc
 50
0.0
 51
3.126776
  0
ARC
  5
25E
100
AcDbEntity
  8
LAY-1
  6
CONTINUOUS
 62
     2
100
AcDbCircle
 10
226.22953
 20
146.15
 30
0.0
 40
0.25
100
AcDbArc
 50
3.126776
 51
90.0
  0
LINE
  5
25F
100
AcDbEntity
  8
LAY-1
  6
CONTINUOUS
 62
     2
100
AcDbLine
 10
226.22953
 20
146.4
 30
0.0
 11
226.193064
 21
146.4
 31
0.0
  0
ARC
  5
260
100
AcDbEntity
  8
LAY-1
  6
CONTINUOUS
 62
     2
100
AcDbCircle
 10
226.193064
 20
146.65
 30
0.0
 40
0.25
100
AcDbArc
 50
185.215909
 51
270.0
  0
ARC
  5
261
100
AcDbEntity
  8
LAY-1
  6
CONTINUOUS
 62
     2
100
AcDbCircle
 10
212.5
 20
145.4
 30
0.0
 40
13.5
100
AcDbArc
 50
5.215909
 51
24.784091
  0
ARC
  5
262
100
AcDbEntity
  8
LAY-1
  6
CONTINUOUS
 62
     2
100
AcDbCircle
 10
224.983541
 20
151.164
 30
0.0
 40
0.25
100
AcDbArc
 50
120.0
 51
204.784091
  0
LINE
  5
263
100
AcDbEntity
  8
LAY-1
  6
CONTINUOUS
 62
     2
100
AcDbLine
 10
224.858541
 20
151.380507
 30
0.0
 11
224.890122
 21
151.39874
 31
0.0
  0
ARC
  5
264
100
AcDbEntity
  8
LAY-1
  6
CONTINUOUS
 62
     2
100
AcDbCircle
 10
224.765122
 20
151.615246
 30
0.0
 40
0.25
100
AcDbArc
 50
300.0
 51
26.873224
  0
ARC
  5
265
100
AcDbEntity
  8
LAY-1
  6
CONTINUOUS
 62
     2
100
AcDbCircle
 10
212.5
 20
145.4
 30
0.0
 40
14.0
100
AcDbArc
 50
26.873224
 51
33.126776
  0
ARC
  5
266
100
AcDbEntity
  8
LAY-1
  6
CONTINUOUS
 62
     2
100
AcDbCircle
 10
224.015122
 20
152.914284
 30
0.0
 40
0.25
100
AcDbArc
 50
33.126776
 51
120.0
  0
LINE
  5
267
100
AcDbEntity
  8
LAY-1
  6
CONTINUOUS
 62
     2
100
AcDbLine
 10
223.858541
 20
153.112557
 30
0.0
 11
223.890122
 21
153.130791
 31
0.0
  0
ARC
  5
268
100
AcDbEntity
  8
LAY-1
  6
CONTINUOUS
 62
     2
100
AcDbCircle
 10
223.733541
 20
153.329064
 30
0.0
 40
0.25
100
AcDbArc
 50
215.215909
 51
300.0
  0
ARC
  5
269
100
AcDbEntity
  8
LAY-1
  6
CONTINUOUS
 62
     2
100
AcDbCircle
 10
220.014284
 20
156.915122
 30
0.0
 40
0.25
100
AcDbArc
 50
330.0
 51
56.873224
  0
ARC
  5
26A
100
AcDbEntity
  8
LAY-1
  6
CONTINUOUS
 62
     2
100
AcDbCircle
 10
212.5
 20
145.4
 30
0.0
 40
13.5
100
AcDbArc
 50
35.215909
 51
54.784091
  0
LINE
  5
26B
100
AcDbEntity
  8
LAY-1
  6
CONTINUOUS
 62
     2
100
AcDbLine
 10
220.212557
 20
156.758541
 30
0.0
 11
220.230791
 21
156.790122
 31
0.0
  0
ARC
  5
26C
100
AcDbEntity
  8
LAY-1
  6
CONTINUOUS
 62
     2
100
AcDbCircle
 10
220.429064
 20
156.633541
 30
0.0
 40
0.25
100
AcDbArc
 50
150.0
 51
234.784091
  0
ARC
  5
26D
100
AcDbEntity
  8
LAY-1
  6
CONTINUOUS
 62
     2
100
AcDbCircle
 10
218.264
 20
157.883541
 30
0.0
 40
0.25
100
AcDbArc
 50
245.215909
 51
330.0
  0
LINE
  5
26E
100
AcDbEntity
  8
LAY-1
  6
CONTINUOUS
 62
     2
100
AcDbLine
 10
218.480507
 20
157.758541
 30
0.0
 11
218.49874
 21
157.790122
 31
0.0
  0
ARC
  5
26F
100
AcDbEntity
  8
LAY-1
  6
CONTINUOUS
 62
     2
100
AcDbCircle
 10
212.5
 20
145.4
 30
0.0
 40
14.0
100
AcDbArc
 50
56.873224
 51
63.126776
  0
ARC
  5
270
100
AcDbEntity
  8
LAY-1
  6
CONTINUOUS
 62
     2
100
AcDbCircle
 10
218.715246
 20
157.665122
 30
0.0
 40
0.25
100
AcDbArc
 50
63.126776
 51
150.0
  0
ARC
  5
271
100
AcDbEntity
  8
LAY-1
  6
CONTINUOUS
 62
     2
100
AcDbCircle
 10
213.25
 20
159.12953
 30
0.0
 40
0.25
100
AcDbArc
 50
0.0
 51
86.873224
  0
LINE
  5
272
100
AcDbEntity
  8
LAY-1
  6
CONTINUOUS
 62
     2
100
AcDbLine
 10
213.5
 20
159.093064
 30
0.0
 11
213.5
 21
159.12953
 31
0.0
  0
ARC
  5
273
100
AcDbEntity
  8
LAY-1
  6
CONTINUOUS
 62
     2
100
AcDbCircle
 10
212.5
 20
145.4
 30
0.0
 40
13.5
100
AcDbArc
 50
65.215909
 51
84.784091
  0
ARC
  5
274
100
AcDbEntity
  8
LAY-1
  6
CONTINUOUS
 62
     2
100
AcDbCircle
 10
213.75
 20
159.093064
 30
0.0
 40
0.25
100
AcDbArc
 50
180.0
 51
264.784091
  0
ARC
  5
275
100
AcDbEntity
  8
LAY-1
  6
CONTINUOUS
 62
     2
100
AcDbCircle
 10
212.5
 20
145.4
 30
0.0
 40
14.0
100
AcDbArc
 50
86.873224
 51
90.0
  0
ARC
  5
276
100
AcDbEntity
  8
LAY-1
  6
CONTINUOUS
 62
     2
100
AcDbCircle
 10
212.5
 20
145.4
 30
0.0
 40
14.0
100
AcDbArc
 50
176.873224
 51
180.0
  0
ARC
  5
277
100
AcDbEntity
  8
LAY-1
  6
CONTINUOUS
 62
     2
100
AcDbCircle
 10
198.77047
 20
146.15
 30
0.0
 40
0.25
100
AcDbArc
 50
90.0
 51
176.873224
  0
LINE
  5
278
100
AcDbEntity
  8
LAY-1
  6
CONTINUOUS
 62
     2
100
AcDbLine
 10
198.77047
 20
146.4
 30
0.0
 11
198.806936
 21
146.4
 31
0.0
  0
ARC
  5
279
100
AcDbEntity
  8
LAY-1
  6
CONTINUOUS
 62
     2
100
AcDbCircle
 10
198.806936
 20
146.65
 30
0.0
 40
0.25
100
AcDbArc
 50
270.0
 51
354.784091
  0
ARC
  5
27A
100
AcDbEntity
  8
LAY-1
  6
CONTINUOUS
 62
     2
100
AcDbCircle
 10
212.5
 20
145.4
 30
0.0
 40
13.5
100
AcDbArc
 50
155.215909
 51
174.784091
  0
ARC
  5
27B
100
AcDbEntity
  8
LAY-1
  6
CONTINUOUS
 62
     2
100
AcDbCircle
 10
200.016459
 20
151.164
 30
0.0
 40
0.25
100
AcDbArc
 50
335.215909
 51
60.0
  0
LINE
  5
27C
100
AcDbEntity
  8
LAY-1
  6
CONTINUOUS
 62
     2
100
AcDbLine
 10
200.141459
 20
151.380507
 30
0.0
 11
200.109878
 21
151.39874
 31
0.0
  0
ARC
  5
27D
100
AcDbEntity
  8
LAY-1
  6
CONTINUOUS
 62
     2
100
AcDbCircle
 10
200.234878
 20
151.615246
 30
0.0
 40
0.25
100
AcDbArc
 50
153.126776
 51
240.0
  0
ARC
  5
27E
100
AcDbEntity
  8
LAY-1
  6
CONTINUOUS
 62
     2
100
AcDbCircle
 10
212.5
 20
145.4
 30
0.0
 40
14.0
100
AcDbArc
 50
146.873224
 51
153.126776
  0
ARC
  5
27F
100
AcDbEntity
  8
LAY-1
  6
CONTINUOUS
 62
     2
100
AcDbCircle
 10
200.984878
 20
152.914284
 30
0.0
 40
0.25
100
AcDbArc
 50
60.0
 51
146.873224
  0
LINE
  5
280
100
AcDbEntity
  8
LAY-1
  6
CONTINUOUS
 62
     2
100
AcDbLine
 10
201.141459
 20
153.112557
 30
0.0
 11
201.109878
 21
153.130791
 31
0.0
  0
ARC
  5
281
100
AcDbEntity
  8
LAY-1
  6
CONTINUOUS
 62
     2
100
AcDbCircle
 10
201.266459
 20
153.329064
 30
0.0
 40
0.25
100
AcDbArc
 50
240.0
 51
324.784091
  0
ARC
  5
282
100
AcDbEntity
  8
LAY-1
  6
CONTINUOUS
 62
     2
100
AcDbCircle
 10
204.985716
 20
156.915122
 30
0.0
 40
0.25
100
AcDbArc
 50
123.126776
 51
210.0
  0
ARC
  5
283
100
AcDbEntity
  8
LAY-1
  6
CONTINUOUS
 62
     2
100
AcDbCircle
 10
212.5
 20
145.4
 30
0.0
 40
13.5
100
AcDbArc
 50
125.215909
 51
144.784091
  0
LINE
  5
284
100
AcDbEntity
  8
LAY-1
  6
CONTINUOUS
 62
     2
100
AcDbLine
 10
204.787443
 20
156.758541
 30
0.0
 11
204.769209
 21
156.790122
 31
0.0
  0
ARC
  5
285
100
AcDbEntity
  8
LAY-1
  6
CONTINUOUS
 62
     2
100
AcDbCircle
 10
204.570936
 20
156.633541
 30
0.0
 40
0.25
100
AcDbArc
 50
305.215909
 51
30.0
  0
ARC
  5
286
100
AcDbEntity
  8
LAY-1
  6
CONTINUOUS
 62
     2
100
AcDbCircle
 10
206.736
 20
157.883541
 30
0.0
 40
0.25
100
AcDbArc
 50
210.0
 51
294.784091
  0
LINE
  5
287
100
AcDbEntity
  8
LAY-1
  6
CONTINUOUS
 62
     2
100
AcDbLine
 10
206.519493
 20
157.758541
 30
0.0
 11
206.50126
 21
157.790122
 31
0.0
  0
ARC
  5
288
100
AcDbEntity
  8
LAY-1
  6
CONTINUOUS
 62
     2
100
AcDbCircle
 10
212.5
 20
145.4
 30
0.0
 40
14.0
100
AcDbArc
 50
116.873224
 51
123.126776
  0
ARC
  5
289
100
AcDbEntity
  8
LAY-1
  6
CONTINUOUS
 62
     2
100
AcDbCircle
 10
206.284754
 20
157.665122
 30
0.0
 40
0.25
100
AcDbArc
 50
30.0
 51
116.873224
  0
ARC
  5
28A
100
AcDbEntity
  8
LAY-1
  6
CONTINUOUS
 62
     2
100
AcDbCircle
 10
211.75
 20
159.12953
 30
0.0
 40
0.25
100
AcDbArc
 50
93.126776
 51
180.0
  0
LINE
  5
28B
100
AcDbEntity
  8
LAY-1
  6
CONTINUOUS
 62
     2
100
AcDbLine
 10
211.5
 20
159.093064
 30
0.0
 11
211.5
 21
159.12953
 31
0.0
  0
ARC
  5
28C
100
AcDbEntity
  8
LAY-1
  6
CONTINUOUS
 62
     2
100
AcDbCircle
 10
212.5
 20
145.4
 30
0.0
 40
13.5
100
AcDbArc
 50
95.215909
 51
114.784091
  0
ARC
  5
28D
100
AcDbEntity
  8
LAY-1
  6
CONTINUOUS
 62
     2
100
AcDbCircle
 10
211.25
 20
159.093064
 30
0.0
 40
0.25
100
AcDbArc
 50
275.215909
 51
0.0
  0
ARC
  5
28E
100
AcDbEntity
  8
LAY-1
  6
CONTINUOUS
 62
     2
100
AcDbCircle
 10
212.5
 20
145.4
 30
0.0
 40
14.0
100
AcDbArc
 50
90.0
 51
93.126776
  0
CIRCLE
  5
28F
100
AcDbEntity
  8
LAY-1
  6
CONTINUOUS
 62
     2
100
AcDbCircle
 10
212.5
 20
145.4
 30
0.0
 40
7.5
  0
CIRCLE
  5
290
100
AcDbEntity
  8
LAY-1
  6
CONTINUOUS
 62
     2
100
AcDbCircle
 10
212.5
 20
145.4
 30
0.0
 40
6.5
  0
LINE
  5
291
100
AcDbEntity
  8
LAY-1
  6
CONTINUOUS
 62
     2
100
AcDbLine
 10
215.137747
 20
143.758547
 30
0.0
 11
215.099125
 21
144.2
 31
0.0
  0
LINE
  5
292
100
AcDbEntity
  8
LAY-1
  6
CONTINUOUS
 62
     2
100
AcDbLine
 10
215.680899
 20
145.4
 30
0.0
 11
216.287711
 21
145.750343
 31
0.0
  0
LINE
  5
293
100
AcDbEntity
  8
LAY-1
  6
CONTINUOUS
 62
     2
100
AcDbLine
 10
215.137747
 20
143.758547
 30
0.0
 11
216.287711
 21
145.750343
 31
0.0
  0
LINE
  5
294
100
AcDbEntity
  8
LAY-1
  6
CONTINUOUS
 62
     2
100
AcDbLine
 10
209.862253
 20
143.758547
 30
0.0
 11
209.900875
 21
144.2
 31
0.0
  0
LINE
  5
295
100
AcDbEntity
  8
LAY-1
  6
CONTINUOUS
 62
     2
100
AcDbLine
 10
209.319101
 20
145.4
 30
0.0
 11
208.712289
 21
145.750343
 31
0.0
  0
LINE
  5
296
100
AcDbEntity
  8
LAY-1
  6
CONTINUOUS
 62
     2
100
AcDbLine
 10
209.862253
 20
143.758547
 30
0.0
 11
208.712289
 21
145.750343
 31
0.0
  0
LINE
  5
297
100
AcDbEntity
  8
LAY-1
  6
CONTINUOUS
 62
     2
100
AcDbLine
 10
209.900875
 20
144.2
 30
0.0
 11
212.5
 21
144.2
 31
0.0
  0
LINE
  5
298
100
AcDbEntity
  8
LAY-1
  6
CONTINUOUS
 62
     2
100
AcDbLine
 10
212.5
 20
151.151618
 30
0.0
 11
213.1
 21
151.37
 31
0.0
  0
LINE
  5
299
100
AcDbEntity
  8
LAY-1
  6
CONTINUOUS
 62
     2
100
AcDbLine
 10
210.7
 20
151.37
 30
0.0
 11
211.3
 21
151.151618
 31
0.0
  0
LINE
  5
29A
100
AcDbEntity
  8
LAY-1
  6
CONTINUOUS
 62
     2
100
AcDbLine
 10
213.1
 20
151.37
 30
0.0
 11
210.7
 21
151.37
 31
0.0
  0
ARC
  5
29B
100
AcDbEntity
  8
LAY-1
  6
CONTINUOUS
 62
     2
100
AcDbCircle
 10
213.7
 20
145.4
 30
0.0
 40
5.0
100
AcDbArc
 50
118.685402
 51
256.11346
  0
ARC
  5
29C
100
AcDbEntity
  8
LAY-1
  6
CONTINUOUS
 62
     2
100
AcDbCircle
 10
212.5
 20
145.4
 30
0.0
 40
5.0
100
AcDbArc
 50
103.88654
 51
270.0
  0
LINE
  5
29D
100
AcDbEntity
  8
LAY-1
  6
CONTINUOUS
 62
     2
100
AcDbLine
 10
212.5
 20
150.4
 30
0.0
 11
212.5
 21
151.151618
 31
0.0
  0
LINE
  5
29E
100
AcDbEntity
  8
LAY-1
  6
CONTINUOUS
 62
     2
100
AcDbLine
 10
211.3
 20
145.4
 30
0.0
 11
211.3
 21
149.786342
 31
0.0
  0
LINE
  5
29F
100
AcDbEntity
  8
LAY-1
  6
CONTINUOUS
 62
     2
100
AcDbLine
 10
211.3
 20
150.253864
 30
0.0
 11
211.3
 21
151.151618
 31
0.0
  0
LINE
  5
2A0
100
AcDbEntity
  8
LAY-1
  6
CONTINUOUS
 62
     2
100
AcDbLine
 10
211.3
 20
145.4
 30
0.0
 11
209.319101
 21
145.4
 31
0.0
  0
LINE
  5
2A1
100
AcDbEntity
  8
LAY-1
  6
CONTINUOUS
 62
     2
100
AcDbLine
 10
212.5
 20
145.4
 30
0.0
 11
212.5
 21
150.253864
 31
0.0
  0
LINE
  5
2A2
100
AcDbEntity
  8
LAY-1
  6
CONTINUOUS
 62
     2
100
AcDbLine
 10
214.3
 20
146.297753
 30
0.0
 11
214.9
 21
146.516136
 31
0.0
  0
LINE
  5
2A3
100
AcDbEntity
  8
LAY-1
  6
CONTINUOUS
 62
     2
100
AcDbLine
 10
212.5
 20
146.516136
 30
0.0
 11
213.1
 21
146.297753
 31
0.0
  0
LINE
  5
2A4
100
AcDbEntity
  8
LAY-1
  6
CONTINUOUS
 62
     2
100
AcDbLine
 10
214.9
 20
146.516136
 30
0.0
 11
212.5
 21
146.516136
 31
0.0
  0
LINE
  5
2A5
100
AcDbEntity
  8
LAY-1
  6
CONTINUOUS
 62
     2
100
AcDbLine
 10
215.680899
 20
145.4
 30
0.0
 11
214.3
 21
145.4
 31
0.0
  0
LINE
  5
2A6
100
AcDbEntity
  8
LAY-1
  6
CONTINUOUS
 62
     2
100
AcDbLine
 10
213.1
 20
145.4
 30
0.0
 11
212.5
 21
145.4
 31
0.0
  0
LINE
  5
2A7
100
AcDbEntity
  8
LAY-1
  6
CONTINUOUS
 62
     2
100
AcDbLine
 10
214.3
 20
145.4
 30
0.0
 11
214.3
 21
146.297753
 31
0.0
  0
LINE
  5
2A8
100
AcDbEntity
  8
LAY-1
  6
CONTINUOUS
 62
     2
100
AcDbLine
 10
213.1
 20
145.4
 30
0.0
 11
213.1
 21
146.297753
 31
0.0
  0
LINE
  5
2A9
100
AcDbEntity
  8
LAY-1
  6
CONTINUOUS
 62
     2
100
AcDbLine
 10
215.099125
 20
144.2
 30
0.0
 11
214.3
 21
144.2
 31
0.0
  0
LINE
  5
2AA
100
AcDbEntity
  8
LAY-1
  6
CONTINUOUS
 62
     2
100
AcDbLine
 10
213.1
 20
144.2
 30
0.0
 11
212.5
 21
144.2
 31
0.0
  0
ARC
  5
2AB
100
AcDbEntity
  8
LAY-1
  6
CONTINUOUS
 62
     2
100
AcDbCircle
 10
211.3
 20
145.4
 30
0.0
 40
5.0
100
AcDbArc
 50
283.88654
 51
291.100196
  0
ARC
  5
2AC
100
AcDbEntity
  8
LAY-1
  6
CONTINUOUS
 62
     2
100
AcDbCircle
 10
211.3
 20
145.4
 30
0.0
 40
5.0
100
AcDbArc
 50
306.869898
 51
76.11346
  0
ARC
  5
2AD
100
AcDbEntity
  8
LAY-1
  6
CONTINUOUS
 62
     2
100
AcDbCircle
 10
212.5
 20
145.4
 30
0.0
 40
5.0
100
AcDbArc
 50
270.0
 51
276.892103
  0
ARC
  5
2AE
100
AcDbEntity
  8
LAY-1
  6
CONTINUOUS
 62
     2
100
AcDbCircle
 10
212.5
 20
145.4
 30
0.0
 40
5.0
100
AcDbArc
 50
291.100196
 51
90.0
  0
LINE
  5
2AF
100
AcDbEntity
  8
LAY-1
  6
CONTINUOUS
 62
     2
100
AcDbLine
 10
213.1
 20
140.735238
 30
0.0
 11
213.1
 21
144.2
 31
0.0
  0
LINE
  5
2B0
100
AcDbEntity
  8
LAY-1
  6
CONTINUOUS
 62
     2
100
AcDbLine
 10
214.3
 20
140.053835
 30
0.0
 11
214.3
 21
140.735238
 31
0.0
  0
LINE
  5
2B1
100
AcDbEntity
  8
LAY-1
  6
CONTINUOUS
 62
     2
100
AcDbLine
 10
214.3
 20
141.4
 30
0.0
 11
214.3
 21
144.2
 31
0.0
  0
LINE
  5
2B2
100
AcDbEntity
  8
LAY-1
  6
CONTINUOUS
 62
     2
100
AcDbLine
 10
214.77853
 20
139.312447
 30
0.0
 11
213.1
 21
140.281547
 31
0.0
  0
LINE
  5
2B3
100
AcDbEntity
  8
LAY-1
  6
CONTINUOUS
 62
     2
100
AcDbLine
 10
214.77853
 20
139.312447
 30
0.0
 11
214.3
 21
140.053835
 31
0.0
  0
LINE
  5
2B4
100
AcDbEntity
  8
LAY-1
  6
CONTINUOUS
 62
     2
100
AcDbLine
 10
213.1
 20
140.281547
 30
0.0
 11
213.1
 21
140.436131
 31
0.0
  0
LINE
  5
2B5
100
AcDbEntity
  8
LAY-1
  6
CONTINUOUS
 62
     2
100
AcDbLine
 10
-5.0
 20
140.283663
 30
0.0
 11
-5.0
 21
145.4
 31
0.0
  0
ARC
  5
2B6
100
AcDbEntity
  8
LAY-1
  6
CONTINUOUS
 62
     2
100
AcDbCircle
 10
-2.5
 20
140.283663
 30
0.0
 40
2.5
100
AcDbArc
 50
180.0
 51
255.0
  0
ARC
  5
2B7
100
AcDbEntity
  8
LAY-1
  6
CONTINUOUS
 62
     2
100
AcDbCircle
 10
-2.5
 20
137.177835
 30
0.0
 40
0.5
100
AcDbArc
 50
0.0
 51
75.0
  0
LINE
  5
2B8
100
AcDbEntity
  8
LAY-1
  6
CONTINUOUS
 62
     2
100
AcDbLine
 10
-5.0
 20
150.516337
 30
0.0
 11
-5.0
 21
145.4
 31
0.0
  0
LINE
  5
2B9
100
AcDbEntity
  8
LAY-1
  6
EXLTYPE3
 62
     1
100
AcDbLine
 10
20.0
 20
195.7
 30
0.0
 11
20.0
 21
97.3
 31
0.0
  0
ARC
  5
2BA
100
AcDbEntity
  8
LAY-1
  6
CONTINUOUS
 62
     2
100
AcDbCircle
 10
43.5
 20
93.4
 30
0.0
 40
1.0
100
AcDbArc
 50
180.0
 51
270.0
  0
LINE
  5
2BB
100
AcDbEntity
  8
LAY-1
  6
CONTINUOUS
 62
     2
100
AcDbLine
 10
0.534905
 20
175.409337
 30
0.0
 11
0.0
 21
175.4
 31
0.0
  0
ARC
  5
2BC
100
AcDbEntity
  8
LAY-1
  6
CONTINUOUS
 62
     2
100
AcDbCircle
 10
0.5
 20
177.409032
 30
0.0
 40
2.0
100
AcDbArc
 50
271.0
 51
0.0
  0
LINE
  5
2BD
100
AcDbEntity
  8
LAY-1
  6
CONTINUOUS
 62
     2
100
AcDbLine
 10
0.534905
 20
115.390663
 30
0.0
 11
0.0
 21
115.4
 31
0.0
  0
ARC
  5
2BE
100
AcDbEntity
  8
LAY-1
  6
CONTINUOUS
 62
     2
100
AcDbCircle
 10
0.5
 20
113.390968
 30
0.0
 40
2.0
100
AcDbArc
 50
0.0
 51
89.0
  0
LINE
  5
2BF
100
AcDbEntity
  8
LAY-1
  6
CONTINUOUS
 62
     2
100
AcDbLine
 10
-2.0
 20
175.4
 30
0.0
 11
0.0
 21
175.4
 31
0.0
  0
LINE
  5
2C0
100
AcDbEntity
  8
LAY-1
  6
CONTINUOUS
 62
     2
100
AcDbLine
 10
-2.0
 20
115.4
 30
0.0
 11
0.0
 21
115.4
 31
0.0
  0
LINE
  5
2C1
100
AcDbEntity
  8
LAY-1
  6
CONTINUOUS
 62
     2
100
AcDbLine
 10
2.5
 20
177.409032
 30
0.0
 11
2.5
 21
185.9
 31
0.0
  0
ARC
  5
2C2
100
AcDbEntity
  8
LAY-1
  6
CONTINUOUS
 62
     2
100
AcDbCircle
 10
4.5
 20
185.9
 30
0.0
 40
2.0
100
AcDbArc
 50
90.0
 51
180.0
  0
LINE
  5
2C3
100
AcDbEntity
  8
LAY-1
  6
CONTINUOUS
 62
     2
100
AcDbLine
 10
2.5
 20
113.390968
 30
0.0
 11
2.5
 21
104.9
 31
0.0
  0
ARC
  5
2C4
100
AcDbEntity
  8
LAY-1
  6
CONTINUOUS
 62
     2
100
AcDbCircle
 10
4.5
 20
104.9
 30
0.0
 40
2.0
100
AcDbArc
 50
180.0
 51
270.0
  0
LINE
  5
2C5
100
AcDbEntity
  8
LAY-1
  6
CONTINUOUS
 62
     2
100
AcDbLine
 10
39.5
 20
187.9
 30
0.0
 11
4.5
 21
187.9
 31
0.0
  0
ARC
  5
2C6
100
AcDbEntity
  8
LAY-1
  6
CONTINUOUS
 62
     2
100
AcDbCircle
 10
39.5
 20
190.9
 30
0.0
 40
3.0
100
AcDbArc
 50
270.0
 51
0.0
  0
LINE
  5
2C7
100
AcDbEntity
  8
LAY-1
  6
CONTINUOUS
 62
     2
100
AcDbLine
 10
39.5
 20
102.9
 30
0.0
 11
4.5
 21
102.9
 31
0.0
  0
ARC
  5
2C8
100
AcDbEntity
  8
LAY-1
  6
CONTINUOUS
 62
     2
100
AcDbCircle
 10
39.5
 20
99.9
 30
0.0
 40
3.0
100
AcDbArc
 50
0.0
 51
90.0
  0
LINE
  5
2C9
100
AcDbEntity
  8
LAY-1
  6
CONTINUOUS
 62
     2
100
AcDbLine
 10
-2.37059
 20
137.660798
 30
0.0
 11
-3.147048
 21
137.868849
 31
0.0
  0
ARC
  5
2CA
100
AcDbEntity
  8
LAY-1
  6
CONTINUOUS
 62
     2
100
AcDbCircle
 10
-2.5
 20
150.516337
 30
0.0
 40
2.5
100
AcDbArc
 50
105.0
 51
180.0
  0
ARC
  5
2CB
100
AcDbEntity
  8
LAY-1
  6
CONTINUOUS
 62
     2
100
AcDbCircle
 10
-2.5
 20
153.622165
 30
0.0
 40
0.5
100
AcDbArc
 50
285.0
 51
0.0
  0
LINE
  5
2CC
100
AcDbEntity
  8
LAY-1
  6
CONTINUOUS
 62
     2
100
AcDbLine
 10
-2.37059
 20
153.139202
 30
0.0
 11
-3.147048
 21
152.931151
 31
0.0
  0
LINE
  5
2CD
100
AcDbEntity
  8
LAY-1
  6
CONTINUOUS
 62
     2
100
AcDbLine
 10
-2.0
 20
175.4
 30
0.0
 11
-2.0
 21
115.4
 31
0.0
  0
LINE
  5
2CE
100
AcDbEntity
  8
LAY-1
  6
CONTINUOUS
 62
     2
100
AcDbLine
 10
0.0
 20
115.4
 30
0.0
 11
0.0
 21
175.4
 31
0.0
  0
ARC
  5
2CF
100
AcDbEntity
  8
LAY-1
  6
CONTINUOUS
 62
     2
100
AcDbCircle
 10
43.5
 20
197.4
 30
0.0
 40
1.0
100
AcDbArc
 50
90.0
 51
180.0
  0
ARC
  5
2D0
100
AcDbEntity
  8
LAY-1
  6
CONTINUOUS
 62
     2
100
AcDbCircle
 10
39.5
 20
188.957685
 30
0.0
 40
3.0
100
AcDbArc
 50
298.072487
 51
0.0
  0
ARC
  5
2D1
100
AcDbEntity
  8
LAY-1
  6
CONTINUOUS
 62
     2
100
AcDbCircle
 10
47.5
 20
173.957685
 30
0.0
 40
14.0
100
AcDbArc
 50
118.072487
 51
180.0
  0
ARC
  5
2D2
100
AcDbEntity
  8
LAY-1
  6
CONTINUOUS
 62
     2
100
AcDbCircle
 10
47.5
 20
116.842315
 30
0.0
 40
14.0
100
AcDbArc
 50
180.0
 51
241.927513
  0
ARC
  5
2D3
100
AcDbEntity
  8
LAY-1
  6
CONTINUOUS
 62
     2
100
AcDbCircle
 10
39.5
 20
101.842315
 30
0.0
 40
3.0
100
AcDbArc
 50
0.0
 51
61.927513
  0
LINE
  5
2D4
100
AcDbEntity
  8
LAY-1
  6
CONTINUOUS
 62
     2
100
AcDbLine
 10
12.751263
 20
187.9
 30
0.0
 11
12.751263
 21
171.5
 31
0.0
  0
LINE
  5
2D5
100
AcDbEntity
  8
LAY-1
  6
CONTINUOUS
 62
     2
100
AcDbLine
 10
11.400854
 20
170.901501
 30
0.0
 11
2.79
 21
175.8
 31
0.0
  0
LINE
  5
2D6
100
AcDbEntity
  8
LAY-1
  6
CONTINUOUS
 62
     2
100
AcDbLine
 10
15.4
 20
170.008984
 30
0.0
 11
32.4
 21
170.008984
 31
0.0
  0
LINE
  5
2D7
100
AcDbEntity
  8
LAY-1
  6
CONTINUOUS
 62
     2
100
AcDbLine
 10
15.4
 20
120.791016
 30
0.0
 11
32.4
 21
120.791016
 31
0.0
  0
LINE
  5
2D8
100
AcDbEntity
  8
LAY-1
  6
CONTINUOUS
 62
     2
100
AcDbLine
 10
12.751263
 20
102.9
 30
0.0
 11
12.751263
 21
119.3
 31
0.0
  0
LINE
  5
2D9
100
AcDbEntity
  8
LAY-1
  6
CONTINUOUS
 62
     2
100
AcDbLine
 10
11.400854
 20
119.898499
 30
0.0
 11
2.79
 21
115.0
 31
0.0
  0
LINE
  5
2DA
100
AcDbEntity
  8
LAY-1
  6
CONTINUOUS
 62
     2
100
AcDbLine
 10
-2.0
 20
131.015224
 30
0.0
 11
-2.930127
 21
131.015224
 31
0.0
  0
ARC
  5
2DB
100
AcDbEntity
  8
LAY-1
  6
CONTINUOUS
 62
     2
100
AcDbCircle
 10
1.4
 20
127.015224
 30
0.0
 40
6.5
100
AcDbArc
 50
150.0
 51
180.0
  0
ARC
  5
2DC
100
AcDbEntity
  8
LAY-1
  6
CONTINUOUS
 62
     2
100
AcDbCircle
 10
-2.930127
 20
129.515224
 30
0.0
 40
1.5
100
AcDbArc
 50
90.0
 51
150.0
  0
LINE
  5
2DD
100
AcDbEntity
  8
LAY-1
  6
CONTINUOUS
 62
     2
100
AcDbLine
 10
-2.0
 20
123.015224
 30
0.0
 11
-2.930127
 21
123.015224
 31
0.0
  0
ARC
  5
2DE
100
AcDbEntity
  8
LAY-1
  6
CONTINUOUS
 62
     2
100
AcDbCircle
 10
1.4
 20
127.015224
 30
0.0
 40
6.5
100
AcDbArc
 50
180.0
 51
210.0
  0
ARC
  5
2DF
100
AcDbEntity
  8
LAY-1
  6
CONTINUOUS
 62
     2
100
AcDbCircle
 10
-2.930127
 20
124.515224
 30
0.0
 40
1.5
100
AcDbArc
 50
210.0
 51
270.0
  0
LINE
  5
2E0
100
AcDbEntity
  8
LAY-1
  6
CONTINUOUS
 62
     2
100
AcDbLine
 10
-2.0
 20
159.784776
 30
0.0
 11
-2.930127
 21
159.784776
 31
0.0
  0
ARC
  5
2E1
100
AcDbEntity
  8
LAY-1
  6
CONTINUOUS
 62
     2
100
AcDbCircle
 10
1.4
 20
163.784776
 30
0.0
 40
6.5
100
AcDbArc
 50
180.0
 51
210.0
  0
ARC
  5
2E2
100
AcDbEntity
  8
LAY-1
  6
CONTINUOUS
 62
     2
100
AcDbCircle
 10
-2.930127
 20
161.284776
 30
0.0
 40
1.5
100
AcDbArc
 50
210.0
 51
270.0
  0
LINE
  5
2E3
100
AcDbEntity
  8
LAY-1
  6
CONTINUOUS
 62
     2
100
AcDbLine
 10
-2.0
 20
167.784776
 30
0.0
 11
-2.930127
 21
167.784776
 31
0.0
  0
ARC
  5
2E4
100
AcDbEntity
  8
LAY-1
  6
CONTINUOUS
 62
     2
100
AcDbCircle
 10
1.4
 20
163.784776
 30
0.0
 40
6.5
100
AcDbArc
 50
150.0
 51
180.0
  0
ARC
  5
2E5
100
AcDbEntity
  8
LAY-1
  6
CONTINUOUS
 62
     2
100
AcDbCircle
 10
-2.930127
 20
166.284776
 30
0.0
 40
1.5
100
AcDbArc
 50
90.0
 51
150.0
  0
ARC
  5
2E6
100
AcDbEntity
  8
LAY-1
  6
CONTINUOUS
 62
     2
100
AcDbCircle
 10
31.5
 20
145.4
 30
0.0
 40
10.0
100
AcDbArc
 50
90.0
 51
270.0
  0
LINE
  5
2E7
100
AcDbEntity
  8
LAY-1
  6
EXLTYPE3
 62
     1
100
AcDbLine
 10
31.5
 20
160.4
 30
0.0
 11
31.5
 21
130.4
 31
0.0
  0
LINE
  5
2E8
100
AcDbEntity
  8
LAY-1
  6
CONTINUOUS
 62
     2
100
AcDbLine
 10
39.604698
 20
135.110882
 30
0.0
 11
31.151005
 21
135.406092
 31
0.0
  0
ARC
  5
2E9
100
AcDbEntity
  8
LAY-1
  6
CONTINUOUS
 62
     2
100
AcDbCircle
 10
39.5
 20
132.11271
 30
0.0
 40
3.0
100
AcDbArc
 50
0.0
 51
88.0
  0
LINE
  5
2EA
100
AcDbEntity
  8
LAY-1
  6
CONTINUOUS
 62
     2
100
AcDbLine
 10
39.604698
 20
155.689118
 30
0.0
 11
31.151005
 21
155.393908
 31
0.0
  0
ARC
  5
2EB
100
AcDbEntity
  8
LAY-1
  6
CONTINUOUS
 62
     2
100
AcDbCircle
 10
39.5
 20
158.68729
 30
0.0
 40
3.0
100
AcDbArc
 50
272.0
 51
0.0
  0
LINE
  5
2EC
100
AcDbEntity
  8
LAY-1
  6
CONTINUOUS
 62
     2
100
AcDbLine
 10
33.5
 20
135.324063
 30
0.0
 11
33.5
 21
116.842315
 31
0.0
  0
LINE
  5
2ED
100
AcDbEntity
  8
LAY-1
  6
CONTINUOUS
 62
     2
100
AcDbLine
 10
33.5
 20
173.957685
 30
0.0
 11
33.5
 21
155.475937
 31
0.0
  0
LINE
  5
2EE
100
AcDbEntity
  8
LAY-1
  6
CONTINUOUS
 62
     2
100
AcDbLine
 10
42.5
 20
93.4
 30
0.0
 11
42.5
 21
197.4
 31
0.0
  0
LINE
  5
2EF
100
AcDbEntity
  8
LAY-1
  6
CONTINUOUS
 62
     2
100
AcDbLine
 10
43.5
 20
198.4
 30
0.0
 11
47.5
 21
198.4
 31
0.0
  0
LINE
  5
2F0
100
AcDbEntity
  8
LAY-1
  6
CONTINUOUS
 62
     2
100
AcDbLine
 10
43.5
 20
92.4
 30
0.0
 11
47.5
 21
92.4
 31
0.0
  0
LINE
  5
2F1
100
AcDbEntity
  8
LAY-1
  6
CONTINUOUS
 62
     2
100
AcDbLine
 10
51.5
 20
197.4
 30
0.0
 11
51.5
 21
145.4
 31
0.0
  0
LINE
  5
2F2
100
AcDbEntity
  8
LAY-1
  6
CONTINUOUS
 62
     2
100
AcDbLine
 10
47.5
 20
145.4
 30
0.0
 11
47.5
 21
198.4
 31
0.0
  0
ARC
  5
2F3
100
AcDbEntity
  8
LAY-1
  6
CONTINUOUS
 62
     2
100
AcDbCircle
 10
50.5
 20
197.4
 30
0.0
 40
1.0
100
AcDbArc
 50
0.0
 51
90.0
  0
LINE
  5
2F4
100
AcDbEntity
  8
LAY-1
  6
CONTINUOUS
 62
     2
100
AcDbLine
 10
47.5
 20
198.4
 30
0.0
 11
50.5
 21
198.4
 31
0.0
  0
LINE
  5
2F5
100
AcDbEntity
  8
LAY-1
  6
CONTINUOUS
 62
     2
100
AcDbLine
 10
51.5
 20
93.4
 30
0.0
 11
51.5
 21
145.4
 31
0.0
  0
LINE
  5
2F6
100
AcDbEntity
  8
LAY-1
  6
CONTINUOUS
 62
     2
100
AcDbLine
 10
47.5
 20
145.4
 30
0.0
 11
47.5
 21
92.4
 31
0.0
  0
LINE
  5
2F7
100
AcDbEntity
  8
LAY-1
  6
CONTINUOUS
 62
     2
100
AcDbLine
 10
47.5
 20
145.4
 30
0.0
 11
47.5
 21
198.4
 31
0.0
  0
ARC
  5
2F8
100
AcDbEntity
  8
LAY-1
  6
CONTINUOUS
 62
     2
100
AcDbCircle
 10
50.5
 20
93.4
 30
0.0
 40
1.0
100
AcDbArc
 50
270.0
 51
0.0
  0
LINE
  5
2F9
100
AcDbEntity
  8
LAY-1
  6
CONTINUOUS
 62
     2
100
AcDbLine
 10
47.5
 20
92.4
 30
0.0
 11
50.5
 21
92.4
 31
0.0
  0
LINE
  5
2FA
100
AcDbEntity
  8
LAY-1
  6
CONTINUOUS
 62
     2
100
AcDbLine
 10
94.5
 20
128.15
 30
0.0
 11
64.369115
 21
127.360995
 31
0.0
  0
ARC
  5
2FB
100
AcDbEntity
  8
LAY-1
  6
CONTINUOUS
 62
     2
100
AcDbCircle
 10
64.5
 20
122.362708
 30
0.0
 40
5.0
100
AcDbArc
 50
91.5
 51
180.0
  0
LINE
  5
2FC
100
AcDbEntity
  8
LAY-1
  6
CONTINUOUS
 62
     2
100
AcDbLine
 10
94.5
 20
162.65
 30
0.0
 11
64.369115
 21
163.439005
 31
0.0
  0
ARC
  5
2FD
100
AcDbEntity
  8
LAY-1
  6
CONTINUOUS
 62
     2
100
AcDbCircle
 10
64.5
 20
168.437292
 30
0.0
 40
5.0
100
AcDbArc
 50
180.0
 51
268.5
  0
LINE
  5
2FE
100
AcDbEntity
  8
LAY-1
  6
CONTINUOUS
 62
     2
100
AcDbLine
 10
104.5
 20
127.9
 30
0.0
 11
104.5
 21
145.4
 31
0.0
  0
LINE
  5
2FF
100
AcDbEntity
  8
LAY-1
  6
CONTINUOUS
 62
     2
100
AcDbLine
 10
95.366025
 20
126.4
 30
0.0
 11
103.633975
 21
126.4
 31
0.0
  0
LINE
  5
300
100
AcDbEntity
  8
LAY-1
  6
CONTINUOUS
 62
     2
100
AcDbLine
 10
94.5
 20
127.9
 30
0.0
 11
94.5
 21
145.4
 31
0.0
  0
LINE
  5
301
100
AcDbEntity
  8
LAY-1
  6
CONTINUOUS
 62
     2
100
AcDbLine
 10
104.5
 20
162.9
 30
0.0
 11
104.5
 21
145.4
 31
0.0
  0
LINE
  5
302
100
AcDbEntity
  8
LAY-1
  6
CONTINUOUS
 62
     2
100
AcDbLine
 10
103.633975
 20
164.4
 30
0.0
 11
95.366025
 21
164.4
 31
0.0
  0
LINE
  5
303
100
AcDbEntity
  8
LAY-1
  6
CONTINUOUS
 62
     2
100
AcDbLine
 10
94.5
 20
162.9
 30
0.0
 11
94.5
 21
145.4
 31
0.0
  0
LINE
  5
304
100
AcDbEntity
  8
LAY-1
  6
CONTINUOUS
 62
     2
100
AcDbLine
 10
94.5
 20
127.9
 30
0.0
 11
95.366025
 21
126.4
 31
0.0
  0
LINE
  5
305
100
AcDbEntity
  8
LAY-1
  6
CONTINUOUS
 62
     2
100
AcDbLine
 10
103.633975
 20
164.4
 30
0.0
 11
104.5
 21
162.9
 31
0.0
  0
LINE
  5
306
100
AcDbEntity
  8
LAY-1
  6
CONTINUOUS
 62
     2
100
AcDbLine
 10
103.633975
 20
126.4
 30
0.0
 11
104.5
 21
127.9
 31
0.0
  0
LINE
  5
307
100
AcDbEntity
  8
LAY-1
  6
CONTINUOUS
 62
     2
100
AcDbLine
 10
94.5
 20
162.9
 30
0.0
 11
95.366025
 21
164.4
 31
0.0
  0
ARC
  5
308
100
AcDbEntity
  8
LAY-1
  6
CONTINUOUS
 62
     2
100
AcDbCircle
 10
9.5
 20
145.4
 30
0.0
 40
100.0
100
AcDbArc
 50
352.45452
 51
0.0
  0
LINE
  5
309
100
AcDbEntity
  8
LAY-1
  6
CONTINUOUS
 62
     2
100
AcDbLine
 10
107.642753
 20
131.4
 30
0.0
 11
104.5
 21
131.4
 31
0.0
  0
ARC
  5
30A
100
AcDbEntity
  8
LAY-1
  6
CONTINUOUS
 62
     2
100
AcDbCircle
 10
107.642753
 20
132.4
 30
0.0
 40
1.0
100
AcDbArc
 50
270.0
 51
352.45452
  0
LINE
  5
30B
100
AcDbEntity
  8
LAY-1
  6
CONTINUOUS
 62
     2
100
AcDbLine
 10
104.5
 20
156.8585
 30
0.0
 11
104.5
 21
159.4
 31
0.0
  0
LINE
  5
30C
100
AcDbEntity
  8
LAY-1
  6
CONTINUOUS
 62
     2
100
AcDbLine
 10
108.5
 20
144.4
 30
0.0
 11
104.5
 21
144.4
 31
0.0
  0
LINE
  5
30D
100
AcDbEntity
  8
LAY-1
  6
CONTINUOUS
 62
     2
100
AcDbLine
 10
107.5
 20
139.534569
 30
0.0
 11
104.5
 21
139.534569
 31
0.0
  0
ARC
  5
30E
100
AcDbEntity
  8
LAY-1
  6
CONTINUOUS
 62
     2
100
AcDbCircle
 10
107.5
 20
140.534569
 30
0.0
 40
1.0
100
AcDbArc
 50
270.0
 51
0.0
  0
LINE
  5
30F
100
AcDbEntity
  8
LAY-1
  6
CONTINUOUS
 62
     2
100
AcDbLine
 10
107.5
 20
139.283905
 30
0.0
 11
104.5
 21
139.283905
 31
0.0
  0
ARC
  5
310
100
AcDbEntity
  8
LAY-1
  6
CONTINUOUS
 62
     2
100
AcDbCircle
 10
107.5
 20
140.283905
 30
0.0
 40
1.0
100
AcDbArc
 50
270.0
 51
0.0
  0
LINE
  5
311
100
AcDbEntity
  8
LAY-1
  6
CONTINUOUS
 62
     2
100
AcDbLine
 10
107.5
 20
137.551855
 30
0.0
 11
104.5
 21
137.551855
 31
0.0
  0
ARC
  5
312
100
AcDbEntity
  8
LAY-1
  6
CONTINUOUS
 62
     2
100
AcDbCircle
 10
107.5
 20
138.551855
 30
0.0
 40
1.0
100
AcDbArc
 50
270.0
 51
0.0
  0
LINE
  5
313
100
AcDbEntity
  8
LAY-1
  6
CONTINUOUS
 62
     2
100
AcDbLine
 10
107.5
 20
134.240776
 30
0.0
 11
104.5
 21
134.240776
 31
0.0
  0
ARC
  5
314
100
AcDbEntity
  8
LAY-1
  6
CONTINUOUS
 62
     2
100
AcDbCircle
 10
107.5
 20
135.240776
 30
0.0
 40
1.0
100
AcDbArc
 50
270.0
 51
0.0
  0
LINE
  5
315
100
AcDbEntity
  8
LAY-1
  6
CONTINUOUS
 62
     2
100
AcDbLine
 10
107.5
 20
133.806613
 30
0.0
 11
104.5
 21
133.806613
 31
0.0
  0
ARC
  5
316
100
AcDbEntity
  8
LAY-1
  6
CONTINUOUS
 62
     2
100
AcDbCircle
 10
107.5
 20
134.806613
 30
0.0
 40
1.0
100
AcDbArc
 50
270.0
 51
0.0
  0
LINE
  5
317
100
AcDbEntity
  8
LAY-1
  6
CONTINUOUS
 62
     2
100
AcDbLine
 10
107.5
 20
132.806613
 30
0.0
 11
104.5
 21
132.806613
 31
0.0
  0
ARC
  5
318
100
AcDbEntity
  8
LAY-1
  6
CONTINUOUS
 62
     2
100
AcDbCircle
 10
107.5
 20
133.806613
 30
0.0
 40
1.0
100
AcDbArc
 50
270.0
 51
0.0
  0
LINE
  5
319
100
AcDbEntity
  8
LAY-1
  6
CONTINUOUS
 62
     2
100
AcDbLine
 10
107.5
 20
131.937088
 30
0.0
 11
104.5
 21
131.937088
 31
0.0
  0
ARC
  5
31A
100
AcDbEntity
  8
LAY-1
  6
CONTINUOUS
 62
     2
100
AcDbCircle
 10
107.5
 20
132.937088
 30
0.0
 40
1.0
100
AcDbArc
 50
270.0
 51
0.0
  0
LINE
  5
31B
100
AcDbEntity
  8
LAY-1
  6
CONTINUOUS
 62
     2
100
AcDbLine
 10
104.5
 20
145.4
 30
0.0
 11
104.5
 21
158.9
 31
0.0
  0
ARC
  5
31C
100
AcDbEntity
  8
LAY-1
  6
CONTINUOUS
 62
     2
100
AcDbCircle
 10
9.5
 20
145.4
 30
0.0
 40
100.0
100
AcDbArc
 50
0.0
 51
7.54548
  0
LINE
  5
31D
100
AcDbEntity
  8
LAY-1
  6
CONTINUOUS
 62
     2
100
AcDbLine
 10
107.642753
 20
159.4
 30
0.0
 11
104.5
 21
159.4
 31
0.0
  0
ARC
  5
31E
100
AcDbEntity
  8
LAY-1
  6
CONTINUOUS
 62
     2
100
AcDbCircle
 10
107.642753
 20
158.4
 30
0.0
 40
1.0
100
AcDbArc
 50
7.54548
 51
90.0
  0
LINE
  5
31F
100
AcDbEntity
  8
LAY-1
  6
CONTINUOUS
 62
     2
100
AcDbLine
 10
104.5
 20
156.8585
 30
0.0
 11
104.5
 21
159.4
 31
0.0
  0
LINE
  5
320
100
AcDbEntity
  8
LAY-1
  6
CONTINUOUS
 62
     2
100
AcDbLine
 10
108.5
 20
146.4
 30
0.0
 11
104.5
 21
146.4
 31
0.0
  0
LINE
  5
321
100
AcDbEntity
  8
LAY-1
  6
CONTINUOUS
 62
     2
100
AcDbLine
 10
107.5
 20
151.265431
 30
0.0
 11
104.5
 21
151.265431
 31
0.0
  0
ARC
  5
322
100
AcDbEntity
  8
LAY-1
  6
CONTINUOUS
 62
     2
100
AcDbCircle
 10
107.5
 20
150.265431
 30
0.0
 40
1.0
100
AcDbArc
 50
0.0
 51
90.0
  0
LINE
  5
323
100
AcDbEntity
  8
LAY-1
  6
CONTINUOUS
 62
     2
100
AcDbLine
 10
107.5
 20
151.516095
 30
0.0
 11
104.5
 21
151.516095
 31
0.0
  0
ARC
  5
324
100
AcDbEntity
  8
LAY-1
  6
CONTINUOUS
 62
     2
100
AcDbCircle
 10
107.5
 20
150.516095
 30
0.0
 40
1.0
100
AcDbArc
 50
0.0
 51
90.0
  0
LINE
  5
325
100
AcDbEntity
  8
LAY-1
  6
CONTINUOUS
 62
     2
100
AcDbLine
 10
107.5
 20
153.248145
 30
0.0
 11
104.5
 21
153.248145
 31
0.0
  0
ARC
  5
326
100
AcDbEntity
  8
LAY-1
  6
CONTINUOUS
 62
     2
100
AcDbCircle
 10
107.5
 20
152.248145
 30
0.0
 40
1.0
100
AcDbArc
 50
0.0
 51
90.0
  0
LINE
  5
327
100
AcDbEntity
  8
LAY-1
  6
CONTINUOUS
 62
     2
100
AcDbLine
 10
107.5
 20
156.559224
 30
0.0
 11
104.5
 21
156.559224
 31
0.0
  0
ARC
  5
328
100
AcDbEntity
  8
LAY-1
  6
CONTINUOUS
 62
     2
100
AcDbCircle
 10
107.5
 20
155.559224
 30
0.0
 40
1.0
100
AcDbArc
 50
0.0
 51
90.0
  0
LINE
  5
329
100
AcDbEntity
  8
LAY-1
  6
CONTINUOUS
 62
     2
100
AcDbLine
 10
107.5
 20
156.993387
 30
0.0
 11
104.5
 21
156.993387
 31
0.0
  0
ARC
  5
32A
100
AcDbEntity
  8
LAY-1
  6
CONTINUOUS
 62
     2
100
AcDbCircle
 10
107.5
 20
155.993387
 30
0.0
 40
1.0
100
AcDbArc
 50
0.0
 51
90.0
  0
LINE
  5
32B
100
AcDbEntity
  8
LAY-1
  6
CONTINUOUS
 62
     2
100
AcDbLine
 10
107.5
 20
157.993387
 30
0.0
 11
104.5
 21
157.993387
 31
0.0
  0
ARC
  5
32C
100
AcDbEntity
  8
LAY-1
  6
CONTINUOUS
 62
     2
100
AcDbCircle
 10
107.5
 20
156.993387
 30
0.0
 40
1.0
100
AcDbArc
 50
0.0
 51
90.0
  0
LINE
  5
32D
100
AcDbEntity
  8
LAY-1
  6
CONTINUOUS
 62
     2
100
AcDbLine
 10
107.5
 20
158.862912
 30
0.0
 11
104.5
 21
158.862912
 31
0.0
  0
ARC
  5
32E
100
AcDbEntity
  8
LAY-1
  6
CONTINUOUS
 62
     2
100
AcDbCircle
 10
107.5
 20
157.862912
 30
0.0
 40
1.0
100
AcDbArc
 50
0.0
 51
90.0
  0
LINE
  5
32F
100
AcDbEntity
  8
LAY-1
  6
CONTINUOUS
 62
     2
100
AcDbLine
 10
108.5
 20
140.534569
 30
0.0
 11
108.5
 21
140.283905
 31
0.0
  0
LINE
  5
330
100
AcDbEntity
  8
LAY-1
  6
CONTINUOUS
 62
     2
100
AcDbLine
 10
108.5
 20
150.265431
 30
0.0
 11
108.5
 21
150.516095
 31
0.0
  0
LINE
  5
331
100
AcDbEntity
  8
LAY-1
  6
CONTINUOUS
 62
     2
100
AcDbLine
 10
108.5
 20
155.559224
 30
0.0
 11
108.5
 21
155.993387
 31
0.0
  0
LINE
  5
332
100
AcDbEntity
  8
LAY-1
  6
CONTINUOUS
 62
     2
100
AcDbLine
 10
108.5
 20
135.240776
 30
0.0
 11
108.5
 21
134.806613
 31
0.0
  0
LINE
  5
333
100
AcDbEntity
  8
LAY-1
  6
CONTINUOUS
 62
     2
100
AcDbLine
 10
104.5
 20
145.4
 30
0.0
 11
104.5
 21
131.4
 31
0.0
  0
ARC
  5
334
100
AcDbEntity
  8
LAY-1
  6
CONTINUOUS
 62
     2
100
AcDbCircle
 10
95.854985
 20
160.627891
 30
0.0
 40
8.645316
100
AcDbArc
 50
334.130796
 51
25.869204
  0
LINE
  5
335
100
AcDbEntity
  8
LAY-1
  6
CONTINUOUS
 62
     2
100
AcDbLine
 10
95.366025
 20
152.799324
 30
0.0
 11
103.6
 21
152.799324
 31
0.0
  0
LINE
  5
336
100
AcDbEntity
  8
LAY-1
  6
CONTINUOUS
 62
     2
100
AcDbLine
 10
103.633975
 20
156.855782
 30
0.0
 11
103.633975
 21
152.799324
 31
0.0
  0
LINE
  5
337
100
AcDbEntity
  8
LAY-1
  6
CONTINUOUS
 62
     2
100
AcDbLine
 10
95.366025
 20
156.855782
 30
0.0
 11
95.366025
 21
152.799324
 31
0.0
  0
LINE
  5
338
100
AcDbEntity
  8
LAY-1
  6
CONTINUOUS
 62
     2
100
AcDbLine
 10
95.366025
 20
156.855782
 30
0.0
 11
103.6
 21
156.855782
 31
0.0
  0
ARC
  5
339
100
AcDbEntity
  8
LAY-1
  6
CONTINUOUS
 62
     2
100
AcDbCircle
 10
103.138574
 20
160.627891
 30
0.0
 40
8.63952
100
AcDbArc
 50
154.112157
 51
205.887843
  0
ARC
  5
33A
100
AcDbEntity
  8
LAY-1
  6
CONTINUOUS
 62
     2
100
AcDbCircle
 10
126.54294
 20
145.4
 30
0.0
 40
32.04294
100
AcDbArc
 50
166.648816
 51
180.0
  0
ARC
  5
33B
100
AcDbEntity
  8
LAY-1
  6
CONTINUOUS
 62
     2
100
AcDbCircle
 10
72.45706
 20
145.4
 30
0.0
 40
32.04294
100
AcDbArc
 50
0.0
 51
13.351184
  0
ARC
  5
33C
100
AcDbEntity
  8
LAY-1
  6
CONTINUOUS
 62
     2
100
AcDbCircle
 10
72.45706
 20
145.4
 30
0.0
 40
32.04294
100
AcDbArc
 50
346.648816
 51
0.0
  0
ARC
  5
33D
100
AcDbEntity
  8
LAY-1
  6
CONTINUOUS
 62
     2
100
AcDbCircle
 10
126.54294
 20
145.4
 30
0.0
 40
32.04294
100
AcDbArc
 50
180.0
 51
193.351184
  0
LINE
  5
33E
100
AcDbEntity
  8
LAY-1
  6
CONTINUOUS
 62
     2
100
AcDbLine
 10
95.366025
 20
133.944218
 30
0.0
 11
103.633975
 21
133.944218
 31
0.0
  0
LINE
  5
33F
100
AcDbEntity
  8
LAY-1
  6
CONTINUOUS
 62
     2
100
AcDbLine
 10
95.366025
 20
138.000676
 30
0.0
 11
103.633975
 21
138.000676
 31
0.0
  0
LINE
  5
340
100
AcDbEntity
  8
LAY-1
  6
CONTINUOUS
 62
     2
100
AcDbLine
 10
95.366025
 20
133.944218
 30
0.0
 11
95.366025
 21
138.000676
 31
0.0
  0
LINE
  5
341
100
AcDbEntity
  8
LAY-1
  6
CONTINUOUS
 62
     2
100
AcDbLine
 10
103.633975
 20
133.944218
 30
0.0
 11
103.633975
 21
138.000676
 31
0.0
  0
ARC
  5
342
100
AcDbEntity
  8
LAY-1
  6
CONTINUOUS
 62
     2
100
AcDbCircle
 10
103.138574
 20
130.172109
 30
0.0
 40
8.63952
100
AcDbArc
 50
154.112157
 51
205.887843
  0
ARC
  5
343
100
AcDbEntity
  8
LAY-1
  6
CONTINUOUS
 62
     2
100
AcDbCircle
 10
95.854985
 20
130.172109
 30
0.0
 40
8.645316
100
AcDbArc
 50
334.130796
 51
25.869204
  0
LINE
  5
344
100
AcDbEntity
  8
LAY-1
  6
CONTINUOUS
 62
     2
100
AcDbLine
 10
52.619415
 20
92.997936
 30
0.0
 11
51.5
 21
92.9
 31
0.0
  0
ARC
  5
345
100
AcDbEntity
  8
LAY-1
  6
CONTINUOUS
 62
     2
100
AcDbCircle
 10
52.506113
 20
94.292989
 30
0.0
 40
1.3
100
AcDbArc
 50
275.0
 51
344.11915
  0
ARC
  5
346
100
AcDbEntity
  8
LAY-1
  6
CONTINUOUS
 62
     2
100
AcDbCircle
 10
45.1
 20
96.4
 30
0.0
 40
9.0
100
AcDbArc
 50
344.11915
 51
15.88085
  0
ARC
  5
347
100
AcDbEntity
  8
LAY-1
  6
CONTINUOUS
 62
     2
100
AcDbCircle
 10
52.506113
 20
98.507011
 30
0.0
 40
1.3
100
AcDbArc
 50
15.88085
 51
85.0
  0
LINE
  5
348
100
AcDbEntity
  8
LAY-1
  6
CONTINUOUS
 62
     2
100
AcDbLine
 10
51.5
 20
99.9
 30
0.0
 11
52.619415
 21
99.802064
 31
0.0
  0
LINE
  5
349
100
AcDbEntity
  8
LAY-1
  6
CONTINUOUS
 62
     2
100
AcDbLine
 10
51.5
 20
92.9
 30
0.0
 11
51.5
 21
96.4
 31
0.0
  0
LINE
  5
34A
100
AcDbEntity
  8
LAY-1
  6
CONTINUOUS
 62
     2
100
AcDbLine
 10
52.619415
 20
117.497936
 30
0.0
 11
51.5
 21
117.4
 31
0.0
  0
ARC
  5
34B
100
AcDbEntity
  8
LAY-1
  6
CONTINUOUS
 62
     2
100
AcDbCircle
 10
52.506113
 20
118.792989
 30
0.0
 40
1.3
100
AcDbArc
 50
275.0
 51
344.11915
  0
ARC
  5
34C
100
AcDbEntity
  8
LAY-1
  6
CONTINUOUS
 62
     2
100
AcDbCircle
 10
45.1
 20
120.9
 30
0.0
 40
9.0
100
AcDbArc
 50
344.11915
 51
15.88085
  0
ARC
  5
34D
100
AcDbEntity
  8
LAY-1
  6
CONTINUOUS
 62
     2
100
AcDbCircle
 10
52.506113
 20
123.007011
 30
0.0
 40
1.3
100
AcDbArc
 50
15.88085
 51
85.0
  0
LINE
  5
34E
100
AcDbEntity
  8
LAY-1
  6
CONTINUOUS
 62
     2
100
AcDbLine
 10
51.5
 20
124.4
 30
0.0
 11
52.619415
 21
124.302064
 31
0.0
  0
LINE
  5
34F
100
AcDbEntity
  8
LAY-1
  6
CONTINUOUS
 62
     2
100
AcDbLine
 10
52.619415
 20
173.302064
 30
0.0
 11
51.5
 21
173.4
 31
0.0
  0
ARC
  5
350
100
AcDbEntity
  8
LAY-1
  6
CONTINUOUS
 62
     2
100
AcDbCircle
 10
52.506113
 20
172.007011
 30
0.0
 40
1.3
100
AcDbArc
 50
15.88085
 51
85.0
  0
ARC
  5
351
100
AcDbEntity
  8
LAY-1
  6
CONTINUOUS
 62
     2
100
AcDbCircle
 10
45.1
 20
169.9
 30
0.0
 40
9.0
100
AcDbArc
 50
344.11915
 51
15.88085
  0
ARC
  5
352
100
AcDbEntity
  8
LAY-1
  6
CONTINUOUS
 62
     2
100
AcDbCircle
 10
52.506113
 20
167.792989
 30
0.0
 40
1.3
100
AcDbArc
 50
275.0
 51
344.11915
  0
LINE
  5
353
100
AcDbEntity
  8
LAY-1
  6
CONTINUOUS
 62
     2
100
AcDbLine
 10
51.5
 20
166.4
 30
0.0
 11
52.619415
 21
166.497936
 31
0.0
  0
LINE
  5
354
100
AcDbEntity
  8
LAY-1
  6
CONTINUOUS
 62
     2
100
AcDbLine
 10
52.619415
 20
197.802064
 30
0.0
 11
51.5
 21
197.9
 31
0.0
  0
ARC
  5
355
100
AcDbEntity
  8
LAY-1
  6
CONTINUOUS
 62
     2
100
AcDbCircle
 10
52.506113
 20
196.507011
 30
0.0
 40
1.3
100
AcDbArc
 50
15.88085
 51
85.0
  0
ARC
  5
356
100
AcDbEntity
  8
LAY-1
  6
CONTINUOUS
 62
     2
100
AcDbCircle
 10
45.1
 20
194.4
 30
0.0
 40
9.0
100
AcDbArc
 50
344.11915
 51
15.88085
  0
ARC
  5
357
100
AcDbEntity
  8
LAY-1
  6
CONTINUOUS
 62
     2
100
AcDbCircle
 10
52.506113
 20
192.292989
 30
0.0
 40
1.3
100
AcDbArc
 50
275.0
 51
344.11915
  0
LINE
  5
358
100
AcDbEntity
  8
LAY-1
  6
CONTINUOUS
 62
     2
100
AcDbLine
 10
51.5
 20
190.9
 30
0.0
 11
52.619415
 21
190.997936
 31
0.0
  0
LINE
  5
359
100
AcDbEntity
  8
LAY-1
  6
CONTINUOUS
 62
     2
100
AcDbLine
 10
51.5
 20
197.9
 30
0.0
 11
51.5
 21
194.4
 31
0.0
  0
ARC
  5
35A
100
AcDbEntity
  8
LAY-1
  6
CONTINUOUS
 62
     2
100
AcDbCircle
 10
47.5
 20
114.9
 30
0.0
 40
12.0
100
AcDbArc
 50
289.471221
 51
0.0
  0
ARC
  5
35B
100
AcDbEntity
  8
LAY-1
  6
CONTINUOUS
 62
     2
100
AcDbCircle
 10
47.5
 20
175.9
 30
0.0
 40
12.0
100
AcDbArc
 50
0.0
 51
70.528779
  0
ARC
  5
35C
100
AcDbEntity
  8
LAY-1
  6
CONTINUOUS
 62
     2
100
AcDbCircle
 10
54.5
 20
164.693598
 30
0.0
 40
3.0
100
AcDbArc
 50
180.0
 51
265.0
  0
LINE
  5
35D
100
AcDbEntity
  8
LAY-1
  6
CONTINUOUS
 62
     2
100
AcDbLine
 10
69.807336
 20
160.34292
 30
0.0
 11
54.238533
 21
161.705014
 31
0.0
  0
ARC
  5
35E
100
AcDbEntity
  8
LAY-1
  6
CONTINUOUS
 62
     2
100
AcDbCircle
 10
68.5
 20
145.4
 30
0.0
 40
15.0
100
AcDbArc
 50
275.0
 51
85.0
  0
LINE
  5
35F
100
AcDbEntity
  8
LAY-1
  6
CONTINUOUS
 62
     2
100
AcDbLine
 10
69.807336
 20
130.45708
 30
0.0
 11
54.238533
 21
129.094986
 31
0.0
  0
ARC
  5
360
100
AcDbEntity
  8
LAY-1
  6
CONTINUOUS
 62
     2
100
AcDbCircle
 10
54.5
 20
126.106402
 30
0.0
 40
3.0
100
AcDbArc
 50
95.0
 51
180.0
  0
CIRCLE
  5
361
100
AcDbEntity
  8
LAY-1
  6
CONTINUOUS
 62
     2
100
AcDbCircle
 10
68.5
 20
145.4
 30
0.0
 40
9.3
  0
CIRCLE
  5
362
100
AcDbEntity
  8
LAY-1
  6
CONTINUOUS
 62
     2
100
AcDbCircle
 10
68.5
 20
145.4
 30
0.0
 40
5.0
  0
LINE
  5
363
100
AcDbEntity
  8
LAY-1
  6
CONTINUOUS
 62
     2
100
AcDbLine
 10
59.5
 20
129.555304
 30
0.0
 11
59.5
 21
114.9
 31
0.0
  0
LINE
  5
364
100
AcDbEntity
  8
LAY-1
  6
CONTINUOUS
 62
     2
100
AcDbLine
 10
59.5
 20
161.244696
 30
0.0
 11
59.5
 21
175.9
 31
0.0
  0
LINE
  5
365
100
AcDbEntity
  8
LAY-1
  6
EXLTYPE3
 62
     1
100
AcDbLine
 10
68.5
 20
160.4
 30
0.0
 11
68.5
 21
130.4
 31
0.0
  0
CIRCLE
  5
366
100
AcDbEntity
  8
LAY-1
  6
CONTINUOUS
 62
     2
100
AcDbCircle
 10
68.5
 20
145.4
 30
0.0
 40
0.5
  0
LINE
  5
367
100
AcDbEntity
  8
LAY-1
  6
EXLTYPE3
 62
     1
100
AcDbLine
 10
112.4
 20
145.4
 30
0.0
 11
-10.8
 21
145.4
 31
0.0
  0
CIRCLE
  5
368
100
AcDbEntity
  8
LAY-1
  6
CONTINUOUS
 62
     1
100
AcDbCircle
 10
68.5
 20
145.4
 30
0.0
 40
10.5
  0
ARC
  5
369
100
AcDbEntity
  8
LAY-1
  6
CONTINUOUS
 62
     2
100
AcDbCircle
 10
160.5
 20
314.4
 30
0.0
 40
1.0
100
AcDbArc
 50
90.0
 51
180.0
  0
LINE
  5
36A
100
AcDbEntity
  8
LAY-1
  6
CONTINUOUS
 62
     2
100
AcDbLine
 10
160.5
 20
315.4
 30
0.0
 11
212.5
 21
315.4
 31
0.0
  0
LINE
  5
36B
100
AcDbEntity
  8
LAY-1
  6
CONTINUOUS
 62
     2
100
AcDbLine
 10
206.07969
 20
355.4
 30
0.0
 11
212.5
 21
355.4
 31
0.0
  0
ARC
  5
36C
100
AcDbEntity
  8
LAY-1
  6
CONTINUOUS
 62
     2
100
AcDbCircle
 10
206.07969
 20
353.4
 30
0.0
 40
2.0
100
AcDbArc
 50
90.0
 51
135.0
  0
LINE
  5
36D
100
AcDbEntity
  8
LAY-1
  6
CONTINUOUS
 62
     2
100
AcDbLine
 10
182.5
 20
357.9
 30
0.0
 11
212.5
 21
357.9
 31
0.0
  0
ARC
  5
36E
100
AcDbEntity
  8
LAY-1
  6
CONTINUOUS
 62
     2
100
AcDbCircle
 10
176.978692
 20
328.077894
 30
0.0
 40
5.0
100
AcDbArc
 50
291.500324
 51
359.0
  0
ARC
  5
36F
100
AcDbEntity
  8
LAY-1
  6
CONTINUOUS
 62
     2
100
AcDbCircle
 10
168.942315
 20
318.4
 30
0.0
 40
3.0
100
AcDbArc
 50
270.0
 51
331.927513
  0
ARC
  5
370
100
AcDbEntity
  8
LAY-1
  6
CONTINUOUS
 62
     2
100
AcDbCircle
 10
183.942315
 20
310.4
 30
0.0
 40
14.0
100
AcDbArc
 50
90.0
 51
151.927513
  0
LINE
  5
371
100
AcDbEntity
  8
LAY-1
  6
CONTINUOUS
 62
     2
100
AcDbLine
 10
182.5
 20
357.9
 30
0.0
 11
181.97793
 21
327.990632
 31
0.0
  0
ARC
  5
372
100
AcDbEntity
  8
LAY-1
  6
CONTINUOUS
 62
     2
100
AcDbCircle
 10
176.731073
 20
333.4
 30
0.0
 40
3.0
100
AcDbArc
 50
60.0
 51
90.0
  0
ARC
  5
373
100
AcDbEntity
  8
LAY-1
  6
CONTINUOUS
 62
     2
100
AcDbCircle
 10
180.138484
 20
337.206233
 30
0.0
 40
2.0
100
AcDbArc
 50
240.0
 51
359.0
  0
LINE
  5
374
100
AcDbEntity
  8
LAY-1
  6
CONTINUOUS
 62
     2
100
AcDbLine
 10
164.466298
 20
336.4
 30
0.0
 11
176.731073
 21
336.4
 31
0.0
  0
ARC
  5
375
100
AcDbEntity
  8
LAY-1
  6
CONTINUOUS
 62
     2
100
AcDbCircle
 10
164.431378
 20
334.4
 30
0.0
 40
2.0
100
AcDbArc
 50
90.0
 51
178.0
  0
ARC
  5
376
100
AcDbEntity
  8
LAY-1
  6
CONTINUOUS
 62
     2
100
AcDbCircle
 10
159.832661
 20
317.324835
 30
0.0
 40
2.0
100
AcDbArc
 50
282.852749
 51
358.0
  0
LINE
  5
377
100
AcDbEntity
  8
LAY-1
  6
CONTINUOUS
 62
     2
100
AcDbLine
 10
162.432596
 20
334.469799
 30
0.0
 11
161.831443
 21
317.255036
 31
0.0
  0
LINE
  5
378
100
AcDbEntity
  8
LAY-1
  6
CONTINUOUS
 62
     2
100
AcDbLine
 10
177.534921
 20
334.8
 30
0.0
 11
177.534921
 21
324.1
 31
0.0
  0
LINE
  5
379
100
AcDbEntity
  8
LAY-1
  6
CONTINUOUS
 62
     2
100
AcDbLine
 10
178.231073
 20
335.998076
 30
0.0
 11
179.138484
 21
335.474182
 31
0.0
  0
ARC
  5
37A
100
AcDbEntity
  8
LAY-1
  6
CONTINUOUS
 62
     2
100
AcDbCircle
 10
196.985593
 20
344.305903
 30
0.0
 40
2.0
100
AcDbArc
 50
135.0
 51
179.0
  0
POLYLINE
  5
37B
100
AcDbEntity
  8
LAY-1
  6
CONTINUOUS
 62
     2
100
AcDb2dPolyline
 66
     1
 10
0.0
 20
0.0
 30
0.0
 70
   128
  0
VERTEX
  5
37C
100
AcDbEntity
  8
LAY-1
  6
CONTINUOUS
 62
     2
100
AcDbVertex
100
AcDb2dVertex
 10
204.665476
 20
354.814214
 30
0.0
  0
VERTEX
  5
37D
100
AcDbEntity
  8
LAY-1
  6
CONTINUOUS
 62
     2
100
AcDbVertex
100
AcDb2dVertex
 10
195.571379
 20
345.720117
 30
0.0
  0
SEQEND
  5
37E
100
AcDbEntity
  8
LAY-1
  6
CONTINUOUS
 62
     2
  0
LINE
  5
37F
100
AcDbEntity
  8
LAY-1
  6
CONTINUOUS
 62
     2
100
AcDbLine
 10
194.985898
 20
344.340808
 30
0.0
 11
194.532185
 21
318.347643
 31
0.0
  0
ARC
  5
380
100
AcDbEntity
  8
LAY-1
  6
CONTINUOUS
 62
     2
100
AcDbCircle
 10
191.532642
 20
318.4
 30
0.0
 40
3.0
100
AcDbArc
 50
270.0
 51
359.0
  0
LINE
  5
381
100
AcDbEntity
  8
LAY-1
  6
CONTINUOUS
 62
     2
100
AcDbLine
 10
183.942315
 20
324.4
 30
0.0
 11
194.637829
 21
324.4
 31
0.0
  0
ARC
  5
382
100
AcDbEntity
  8
LAY-1
  6
CONTINUOUS
 62
     2
100
AcDbCircle
 10
264.5
 20
314.4
 30
0.0
 40
1.0
100
AcDbArc
 50
0.0
 51
90.0
  0
LINE
  5
383
100
AcDbEntity
  8
LAY-1
  6
CONTINUOUS
 62
     2
100
AcDbLine
 10
264.5
 20
315.4
 30
0.0
 11
212.5
 21
315.4
 31
0.0
  0
LINE
  5
384
100
AcDbEntity
  8
LAY-1
  6
CONTINUOUS
 62
     2
100
AcDbLine
 10
218.92031
 20
355.4
 30
0.0
 11
212.5
 21
355.4
 31
0.0
  0
ARC
  5
385
100
AcDbEntity
  8
LAY-1
  6
CONTINUOUS
 62
     2
100
AcDbCircle
 10
218.92031
 20
353.4
 30
0.0
 40
2.0
100
AcDbArc
 50
45.0
 51
90.0
  0
LINE
  5
386
100
AcDbEntity
  8
LAY-1
  6
CONTINUOUS
 62
     2
100
AcDbLine
 10
242.5
 20
357.9
 30
0.0
 11
212.5
 21
357.9
 31
0.0
  0
ARC
  5
387
100
AcDbEntity
  8
LAY-1
  6
CONTINUOUS
 62
     2
100
AcDbCircle
 10
248.021308
 20
328.077894
 30
0.0
 40
5.0
100
AcDbArc
 50
181.0
 51
248.499676
  0
ARC
  5
388
100
AcDbEntity
  8
LAY-1
  6
CONTINUOUS
 62
     2
100
AcDbCircle
 10
256.057685
 20
318.4
 30
0.0
 40
3.0
100
AcDbArc
 50
208.072487
 51
270.0
  0
ARC
  5
389
100
AcDbEntity
  8
LAY-1
  6
CONTINUOUS
 62
     2
100
AcDbCircle
 10
241.057685
 20
310.4
 30
0.0
 40
14.0
100
AcDbArc
 50
28.072487
 51
90.0
  0
LINE
  5
38A
100
AcDbEntity
  8
LAY-1
  6
CONTINUOUS
 62
     2
100
AcDbLine
 10
242.5
 20
357.9
 30
0.0
 11
243.02207
 21
327.990632
 31
0.0
  0
ARC
  5
38B
100
AcDbEntity
  8
LAY-1
  6
CONTINUOUS
 62
     2
100
AcDbCircle
 10
228.014407
 20
344.305903
 30
0.0
 40
2.0
100
AcDbArc
 50
1.0
 51
45.0
  0
POLYLINE
  5
38C
100
AcDbEntity
  8
LAY-1
  6
CONTINUOUS
 62
     2
100
AcDb2dPolyline
 66
     1
 10
0.0
 20
0.0
 30
0.0
 70
   128
  0
VERTEX
  5
38D
100
AcDbEntity
  8
LAY-1
  6
CONTINUOUS
 62
     2
100
AcDbVertex
100
AcDb2dVertex
 10
220.334524
 20
354.814214
 30
0.0
  0
VERTEX
  5
38E
100
AcDbEntity
  8
LAY-1
  6
CONTINUOUS
 62
     2
100
AcDbVertex
100
AcDb2dVertex
 10
229.428621
 20
345.720117
 30
0.0
  0
SEQEND
  5
38F
100
AcDbEntity
  8
LAY-1
  6
CONTINUOUS
 62
     2
  0
LINE
  5
390
100
AcDbEntity
  8
LAY-1
  6
CONTINUOUS
 62
     2
100
AcDbLine
 10
230.014102
 20
344.340808
 30
0.0
 11
230.467815
 21
318.347643
 31
0.0
  0
ARC
  5
391
100
AcDbEntity
  8
LAY-1
  6
CONTINUOUS
 62
     2
100
AcDbCircle
 10
233.467358
 20
318.4
 30
0.0
 40
3.0
100
AcDbArc
 50
181.0
 51
270.0
  0
LINE
  5
392
100
AcDbEntity
  8
LAY-1
  6
CONTINUOUS
 62
     2
100
AcDbLine
 10
241.057685
 20
324.4
 30
0.0
 11
230.362171
 21
324.4
 31
0.0
  0
LINE
  5
393
100
AcDbEntity
  8
LAY-1
  6
EXLTYPE3
 62
     1
100
AcDbLine
 10
237.6
 20
337.9
 30
0.0
 11
186.9
 21
337.9
 31
0.0
  0
LINE
  5
394
100
AcDbEntity
  8
LAY-1
  6
CONTINUOUS
 62
     2
100
AcDbLine
 10
207.383663
 20
362.9
 30
0.0
 11
212.5
 21
362.9
 31
0.0
  0
ARC
  5
395
100
AcDbEntity
  8
LAY-1
  6
CONTINUOUS
 62
     2
100
AcDbCircle
 10
207.383663
 20
360.4
 30
0.0
 40
2.5
100
AcDbArc
 50
90.0
 51
165.0
  0
LINE
  5
396
100
AcDbEntity
  8
LAY-1
  6
CONTINUOUS
 62
     2
100
AcDbLine
 10
204.760798
 20
360.27059
 30
0.0
 11
204.968849
 21
361.047048
 31
0.0
  0
ARC
  5
397
100
AcDbEntity
  8
LAY-1
  6
CONTINUOUS
 62
     2
100
AcDbCircle
 10
204.277835
 20
360.4
 30
0.0
 40
0.5
100
AcDbArc
 50
270.0
 51
345.0
  0
LINE
  5
398
100
AcDbEntity
  8
LAY-1
  6
CONTINUOUS
 62
     2
100
AcDbLine
 10
217.616337
 20
362.9
 30
0.0
 11
212.5
 21
362.9
 31
0.0
  0
ARC
  5
399
100
AcDbEntity
  8
LAY-1
  6
CONTINUOUS
 62
     2
100
AcDbCircle
 10
217.616337
 20
360.4
 30
0.0
 40
2.5
100
AcDbArc
 50
15.0
 51
90.0
  0
LINE
  5
39A
100
AcDbEntity
  8
LAY-1
  6
CONTINUOUS
 62
     2
100
AcDbLine
 10
220.239202
 20
360.27059
 30
0.0
 11
220.031151
 21
361.047048
 31
0.0
  0
ARC
  5
39B
100
AcDbEntity
  8
LAY-1
  6
CONTINUOUS
 62
     2
100
AcDbCircle
 10
220.722165
 20
360.4
 30
0.0
 40
0.5
100
AcDbArc
 50
195.0
 51
270.0
  0
LINE
  5
39C
100
AcDbEntity
  8
LAY-1
  6
CONTINUOUS
 62
     2
100
AcDbLine
 10
242.5
 20
359.9
 30
0.0
 11
242.5
 21
357.9
 31
0.0
  0
LINE
  5
39D
100
AcDbEntity
  8
LAY-1
  6
CONTINUOUS
 62
     2
100
AcDbLine
 10
182.5
 20
359.9
 30
0.0
 11
182.5
 21
357.9
 31
0.0
  0
LINE
  5
39E
100
AcDbEntity
  8
LAY-1
  6
CONTINUOUS
 62
     2
100
AcDbLine
 10
212.5
 20
359.9
 30
0.0
 11
242.5
 21
359.9
 31
0.0
  0
LINE
  5
39F
100
AcDbEntity
  8
LAY-1
  6
CONTINUOUS
 62
     2
100
AcDbLine
 10
212.5
 20
359.9
 30
0.0
 11
182.5
 21
359.9
 31
0.0
  0
LINE
  5
3A0
100
AcDbEntity
  8
LAY-1
  6
CONTINUOUS
 62
     2
100
AcDbLine
 10
197.517288
 20
361.019415
 30
0.0
 11
197.615224
 21
359.9
 31
0.0
  0
LINE
  5
3A1
100
AcDbEntity
  8
LAY-1
  6
CONTINUOUS
 62
     2
100
AcDbLine
 10
190.615224
 20
359.9
 30
0.0
 11
190.71316
 21
361.019415
 31
0.0
  0
ARC
  5
3A2
100
AcDbEntity
  8
LAY-1
  6
CONTINUOUS
 62
     2
100
AcDbCircle
 10
192.008213
 20
360.906113
 30
0.0
 40
1.3
100
AcDbArc
 50
105.88085
 51
175.0
  0
ARC
  5
3A3
100
AcDbEntity
  8
LAY-1
  6
CONTINUOUS
 62
     2
100
AcDbCircle
 10
194.115224
 20
353.5
 30
0.0
 40
9.0
100
AcDbArc
 50
74.11915
 51
105.88085
  0
ARC
  5
3A4
100
AcDbEntity
  8
LAY-1
  6
CONTINUOUS
 62
     2
100
AcDbCircle
 10
196.222234
 20
360.906113
 30
0.0
 40
1.3
100
AcDbArc
 50
5.0
 51
74.11915
  0
LINE
  5
3A5
100
AcDbEntity
  8
LAY-1
  6
EXLTYPE3
 62
     1
100
AcDbLine
 10
194.115224
 20
365.2
 30
0.0
 11
194.115224
 21
353.6
 31
0.0
  0
LINE
  5
3A6
100
AcDbEntity
  8
LAY-1
  6
CONTINUOUS
 62
     2
100
AcDbLine
 10
227.482712
 20
361.019415
 30
0.0
 11
227.384776
 21
359.9
 31
0.0
  0
LINE
  5
3A7
100
AcDbEntity
  8
LAY-1
  6
CONTINUOUS
 62
     2
100
AcDbLine
 10
234.384776
 20
359.9
 30
0.0
 11
234.28684
 21
361.019415
 31
0.0
  0
ARC
  5
3A8
100
AcDbEntity
  8
LAY-1
  6
CONTINUOUS
 62
     2
100
AcDbCircle
 10
232.991787
 20
360.906113
 30
0.0
 40
1.3
100
AcDbArc
 50
5.0
 51
74.11915
  0
ARC
  5
3A9
100
AcDbEntity
  8
LAY-1
  6
CONTINUOUS
 62
     2
100
AcDbCircle
 10
230.884776
 20
353.5
 30
0.0
 40
9.0
100
AcDbArc
 50
74.11915
 51
105.88085
  0
ARC
  5
3AA
100
AcDbEntity
  8
LAY-1
  6
CONTINUOUS
 62
     2
100
AcDbCircle
 10
228.777766
 20
360.906113
 30
0.0
 40
1.3
100
AcDbArc
 50
105.88085
 51
175.0
  0
LINE
  5
3AB
100
AcDbEntity
  8
LAY-1
  6
EXLTYPE3
 62
     1
100
AcDbLine
 10
230.884776
 20
365.2
 30
0.0
 11
230.884776
 21
353.6
 31
0.0
  0
CIRCLE
  5
3AC
100
AcDbEntity
  8
LAY-1
  6
CONTINUOUS
 62
     2
100
AcDbCircle
 10
212.5
 20
337.9
 30
0.0
 40
9.3
  0
CIRCLE
  5
3AD
100
AcDbEntity
  8
LAY-1
  6
CONTINUOUS
 62
     1
100
AcDbCircle
 10
212.5
 20
337.9
 30
0.0
 40
10.5
  0
LINE
  5
3AE
100
AcDbEntity
  8
LAY-1
  6
CONTINUOUS
 62
     2
100
AcDbLine
 10
159.5
 20
314.4
 30
0.0
 11
159.5
 21
310.4
 31
0.0
  0
LINE
  5
3AF
100
AcDbEntity
  8
LAY-1
  6
CONTINUOUS
 62
     2
100
AcDbLine
 10
265.5
 20
310.4
 30
0.0
 11
265.5
 21
314.4
 31
0.0
  0
LINE
  5
3B0
100
AcDbEntity
  8
LAY-1
  6
CONTINUOUS
 62
     2
100
AcDbLine
 10
209.097936
 20
305.280585
 30
0.0
 11
209.0
 21
306.4
 31
0.0
  0
LINE
  5
3B1
100
AcDbEntity
  8
LAY-1
  6
CONTINUOUS
 62
     2
100
AcDbLine
 10
258.435245
 20
306.4
 30
0.0
 11
258.337309
 21
305.280585
 31
0.0
  0
ARC
  5
3B2
100
AcDbEntity
  8
LAY-1
  6
CONTINUOUS
 62
     2
100
AcDbCircle
 10
257.042256
 20
305.393887
 30
0.0
 40
1.3
100
AcDbArc
 50
285.88085
 51
355.0
  0
ARC
  5
3B3
100
AcDbEntity
  8
LAY-1
  6
CONTINUOUS
 62
     2
100
AcDbCircle
 10
254.935245
 20
312.8
 30
0.0
 40
9.0
100
AcDbArc
 50
254.11915
 51
285.88085
  0
ARC
  5
3B4
100
AcDbEntity
  8
LAY-1
  6
CONTINUOUS
 62
     2
100
AcDbCircle
 10
252.828234
 20
305.393887
 30
0.0
 40
1.3
100
AcDbArc
 50
185.0
 51
254.11915
  0
LINE
  5
3B5
100
AcDbEntity
  8
LAY-1
  6
CONTINUOUS
 62
     2
100
AcDbLine
 10
251.533181
 20
305.280585
 30
0.0
 11
251.435245
 21
306.4
 31
0.0
  0
LINE
  5
3B6
100
AcDbEntity
  8
LAY-1
  6
CONTINUOUS
 62
     2
100
AcDbLine
 10
173.564755
 20
306.4
 30
0.0
 11
173.466819
 21
305.280585
 31
0.0
  0
ARC
  5
3B7
100
AcDbEntity
  8
LAY-1
  6
CONTINUOUS
 62
     2
100
AcDbCircle
 10
172.171766
 20
305.393887
 30
0.0
 40
1.3
100
AcDbArc
 50
285.88085
 51
355.0
  0
ARC
  5
3B8
100
AcDbEntity
  8
LAY-1
  6
CONTINUOUS
 62
     2
100
AcDbCircle
 10
170.064755
 20
312.8
 30
0.0
 40
9.0
100
AcDbArc
 50
254.11915
 51
285.88085
  0
ARC
  5
3B9
100
AcDbEntity
  8
LAY-1
  6
CONTINUOUS
 62
     2
100
AcDbCircle
 10
167.957744
 20
305.393887
 30
0.0
 40
1.3
100
AcDbArc
 50
185.0
 51
254.11915
  0
LINE
  5
3BA
100
AcDbEntity
  8
LAY-1
  6
CONTINUOUS
 62
     2
100
AcDbLine
 10
166.662691
 20
305.280585
 30
0.0
 11
166.564755
 21
306.4
 31
0.0
  0
LINE
  5
3BB
100
AcDbEntity
  8
LAY-1
  6
CONTINUOUS
 62
     2
100
AcDbLine
 10
216.0
 20
306.4
 30
0.0
 11
215.902064
 21
305.280585
 31
0.0
  0
ARC
  5
3BC
100
AcDbEntity
  8
LAY-1
  6
CONTINUOUS
 62
     2
100
AcDbCircle
 10
214.607011
 20
305.393887
 30
0.0
 40
1.3
100
AcDbArc
 50
285.88085
 51
355.0
  0
ARC
  5
3BD
100
AcDbEntity
  8
LAY-1
  6
CONTINUOUS
 62
     2
100
AcDbCircle
 10
212.5
 20
312.8
 30
0.0
 40
9.0
100
AcDbArc
 50
254.11915
 51
285.88085
  0
ARC
  5
3BE
100
AcDbEntity
  8
LAY-1
  6
CONTINUOUS
 62
     2
100
AcDbCircle
 10
210.392989
 20
305.393887
 30
0.0
 40
1.3
100
AcDbArc
 50
185.0
 51
254.11915
  0
LINE
  5
3BF
100
AcDbEntity
  8
LAY-1
  6
EXLTYPE3
 62
     1
100
AcDbLine
 10
204.1
 20
289.4
 30
0.0
 11
159.0
 21
289.4
 31
0.0
  0
LINE
  5
3C0
100
AcDbEntity
  8
LAY-1
  6
CONTINUOUS
 62
     2
100
AcDbLine
 10
180.5
 20
276.0
 30
0.0
 11
180.5
 21
296.8
 31
0.0
  0
LINE
  5
3C1
100
AcDbEntity
  8
LAY-1
  6
CONTINUOUS
 62
     2
100
AcDbLine
 10
188.0
 20
282.7
 30
0.0
 11
188.0
 21
296.5
 31
0.0
  0
LINE
  5
3C2
100
AcDbEntity
  8
LAY-1
  6
CONTINUOUS
 62
     2
100
AcDbLine
 10
181.37868
 20
275.27868
 30
0.0
 11
187.12132
 21
281.02132
 31
0.0
  0
ARC
  5
3C3
100
AcDbEntity
  8
LAY-1
  6
CONTINUOUS
 62
     2
100
AcDbCircle
 10
161.0
 20
304.9
 30
0.0
 40
1.5
100
AcDbArc
 50
0.0
 51
90.0
  0
LINE
  5
3C4
100
AcDbEntity
  8
LAY-1
  6
CONTINUOUS
 62
     2
100
AcDbLine
 10
162.5
 20
275.9
 30
0.0
 11
162.5
 21
304.9
 31
0.0
  0
LINE
  5
3C5
100
AcDbEntity
  8
LAY-1
  6
CONTINUOUS
 62
     2
100
AcDbLine
 10
160.5
 20
306.4
 30
0.0
 11
212.5
 21
306.4
 31
0.0
  0
LINE
  5
3C6
100
AcDbEntity
  8
LAY-1
  6
CONTINUOUS
 62
     2
100
AcDbLine
 10
212.5
 20
298.4
 30
0.0
 11
182.0
 21
298.4
 31
0.0
  0
LINE
  5
3C7
100
AcDbEntity
  8
LAY-1
  6
CONTINUOUS
 62
     2
100
AcDbLine
 10
212.5
 20
310.4
 30
0.0
 11
159.5
 21
310.4
 31
0.0
  0
ARC
  5
3C8
100
AcDbEntity
  8
LAY-1
  6
CONTINUOUS
 62
     2
100
AcDbCircle
 10
160.5
 20
307.4
 30
0.0
 40
1.0
100
AcDbArc
 50
180.0
 51
270.0
  0
LINE
  5
3C9
100
AcDbEntity
  8
LAY-1
  6
CONTINUOUS
 62
     2
100
AcDbLine
 10
159.5
 20
310.4
 30
0.0
 11
159.5
 21
307.4
 31
0.0
  0
LINE
  5
3CA
100
AcDbEntity
  8
LAY-1
  6
CONTINUOUS
 62
     2
100
AcDbLine
 10
264.5
 20
306.4
 30
0.0
 11
212.5
 21
306.4
 31
0.0
  0
LINE
  5
3CB
100
AcDbEntity
  8
LAY-1
  6
CONTINUOUS
 62
     2
100
AcDbLine
 10
212.5
 20
298.4
 30
0.0
 11
243.0
 21
298.4
 31
0.0
  0
LINE
  5
3CC
100
AcDbEntity
  8
LAY-1
  6
CONTINUOUS
 62
     2
100
AcDbLine
 10
179.257359
 20
274.4
 30
0.0
 11
164.0
 21
274.4
 31
0.0
  0
ARC
  5
3CD
100
AcDbEntity
  8
LAY-1
  6
CONTINUOUS
 62
     2
100
AcDbCircle
 10
189.242641
 20
278.9
 30
0.0
 40
3.0
100
AcDbArc
 50
90.0
 51
135.0
  0
ARC
  5
3CE
100
AcDbEntity
  8
LAY-1
  6
CONTINUOUS
 62
     2
100
AcDbCircle
 10
179.257359
 20
277.4
 30
0.0
 40
3.0
100
AcDbArc
 50
270.0
 51
315.0
  0
ARC
  5
3CF
100
AcDbEntity
  8
LAY-1
  6
CONTINUOUS
 62
     2
100
AcDbCircle
 10
164.0
 20
275.9
 30
0.0
 40
1.5
100
AcDbArc
 50
180.0
 51
270.0
  0
LINE
  5
3D0
100
AcDbEntity
  8
LAY-1
  6
CONTINUOUS
 62
     2
100
AcDbLine
 10
212.5
 20
310.4
 30
0.0
 11
265.5
 21
310.4
 31
0.0
  0
LINE
  5
3D1
100
AcDbEntity
  8
LAY-1
  6
CONTINUOUS
 62
     2
100
AcDbLine
 10
212.5
 20
310.4
 30
0.0
 11
159.5
 21
310.4
 31
0.0
  0
ARC
  5
3D2
100
AcDbEntity
  8
LAY-1
  6
CONTINUOUS
 62
     2
100
AcDbCircle
 10
264.5
 20
307.4
 30
0.0
 40
1.0
100
AcDbArc
 50
270.0
 51
0.0
  0
LINE
  5
3D3
100
AcDbEntity
  8
LAY-1
  6
CONTINUOUS
 62
     2
100
AcDbLine
 10
265.5
 20
310.4
 30
0.0
 11
265.5
 21
307.4
 31
0.0
  0
ARC
  5
3D4
100
AcDbEntity
  8
LAY-1
  6
CONTINUOUS
 62
     2
100
AcDbCircle
 10
243.0
 20
310.4
 30
0.0
 40
12.0
100
AcDbArc
 50
270.0
 51
327.662241
  0
ARC
  5
3D5
100
AcDbEntity
  8
LAY-1
  6
CONTINUOUS
 62
     2
100
AcDbCircle
 10
182.0
 20
310.4
 30
0.0
 40
12.0
100
AcDbArc
 50
212.337759
 51
270.0
  0
LINE
  5
3D6
100
AcDbEntity
  8
LAY-1
  6
CONTINUOUS
 62
     2
100
AcDbLine
 10
189.242641
 20
281.9
 30
0.0
 11
191.84309
 21
281.9
 31
0.0
  0
ARC
  5
3D7
100
AcDbEntity
  8
LAY-1
  6
CONTINUOUS
 62
     2
100
AcDbCircle
 10
191.84309
 20
278.9
 30
0.0
 40
3.0
100
AcDbArc
 50
1.5
 51
90.0
  0
LINE
  5
3D8
100
AcDbEntity
  8
LAY-1
  6
CONTINUOUS
 62
     2
100
AcDbLine
 10
229.75
 20
263.4
 30
0.0
 11
230.539005
 21
293.530885
 31
0.0
  0
ARC
  5
3D9
100
AcDbEntity
  8
LAY-1
  6
CONTINUOUS
 62
     2
100
AcDbCircle
 10
235.537292
 20
293.4
 30
0.0
 40
5.0
100
AcDbArc
 50
90.0
 51
178.5
  0
LINE
  5
3DA
100
AcDbEntity
  8
LAY-1
  6
CONTINUOUS
 62
     2
100
AcDbLine
 10
195.25
 20
263.4
 30
0.0
 11
194.460995
 21
293.530885
 31
0.0
  0
ARC
  5
3DB
100
AcDbEntity
  8
LAY-1
  6
CONTINUOUS
 62
     2
100
AcDbCircle
 10
189.462708
 20
293.4
 30
0.0
 40
5.0
100
AcDbArc
 50
1.5
 51
90.0
  0
LINE
  5
3DC
100
AcDbEntity
  8
LAY-1
  6
CONTINUOUS
 62
     2
100
AcDbLine
 10
230.0
 20
253.4
 30
0.0
 11
212.5
 21
253.4
 31
0.0
  0
LINE
  5
3DD
100
AcDbEntity
  8
LAY-1
  6
CONTINUOUS
 62
     2
100
AcDbLine
 10
231.5
 20
262.533975
 30
0.0
 11
231.5
 21
254.266025
 31
0.0
  0
LINE
  5
3DE
100
AcDbEntity
  8
LAY-1
  6
CONTINUOUS
 62
     2
100
AcDbLine
 10
230.0
 20
263.4
 30
0.0
 11
212.5
 21
263.4
 31
0.0
  0
LINE
  5
3DF
100
AcDbEntity
  8
LAY-1
  6
CONTINUOUS
 62
     2
100
AcDbLine
 10
195.0
 20
253.4
 30
0.0
 11
212.5
 21
253.4
 31
0.0
  0
LINE
  5
3E0
100
AcDbEntity
  8
LAY-1
  6
CONTINUOUS
 62
     2
100
AcDbLine
 10
193.5
 20
254.266025
 30
0.0
 11
193.5
 21
262.533975
 31
0.0
  0
LINE
  5
3E1
100
AcDbEntity
  8
LAY-1
  6
CONTINUOUS
 62
     2
100
AcDbLine
 10
195.0
 20
263.4
 30
0.0
 11
212.5
 21
263.4
 31
0.0
  0
LINE
  5
3E2
100
AcDbEntity
  8
LAY-1
  6
CONTINUOUS
 62
     2
100
AcDbLine
 10
230.0
 20
263.4
 30
0.0
 11
231.5
 21
262.533975
 31
0.0
  0
LINE
  5
3E3
100
AcDbEntity
  8
LAY-1
  6
CONTINUOUS
 62
     2
100
AcDbLine
 10
193.5
 20
254.266025
 30
0.0
 11
195.0
 21
253.4
 31
0.0
  0
LINE
  5
3E4
100
AcDbEntity
  8
LAY-1
  6
CONTINUOUS
 62
     2
100
AcDbLine
 10
231.5
 20
254.266025
 30
0.0
 11
230.0
 21
253.4
 31
0.0
  0
LINE
  5
3E5
100
AcDbEntity
  8
LAY-1
  6
CONTINUOUS
 62
     2
100
AcDbLine
 10
195.0
 20
263.4
 30
0.0
 11
193.5
 21
262.533975
 31
0.0
  0
ARC
  5
3E6
100
AcDbEntity
  8
LAY-1
  6
CONTINUOUS
 62
     2
100
AcDbCircle
 10
212.5
 20
348.4
 30
0.0
 40
100.0
100
AcDbArc
 50
270.0
 51
277.54548
  0
LINE
  5
3E7
100
AcDbEntity
  8
LAY-1
  6
CONTINUOUS
 62
     2
100
AcDbLine
 10
226.5
 20
250.257247
 30
0.0
 11
226.5
 21
253.4
 31
0.0
  0
ARC
  5
3E8
100
AcDbEntity
  8
LAY-1
  6
CONTINUOUS
 62
     2
100
AcDbCircle
 10
225.5
 20
250.257247
 30
0.0
 40
1.0
100
AcDbArc
 50
277.54548
 51
0.0
  0
LINE
  5
3E9
100
AcDbEntity
  8
LAY-1
  6
CONTINUOUS
 62
     2
100
AcDbLine
 10
201.0415
 20
253.4
 30
0.0
 11
198.5
 21
253.4
 31
0.0
  0
LINE
  5
3EA
100
AcDbEntity
  8
LAY-1
  6
CONTINUOUS
 62
     2
100
AcDbLine
 10
213.5
 20
249.4
 30
0.0
 11
213.5
 21
253.4
 31
0.0
  0
LINE
  5
3EB
100
AcDbEntity
  8
LAY-1
  6
CONTINUOUS
 62
     2
100
AcDbLine
 10
218.365431
 20
250.4
 30
0.0
 11
218.365431
 21
253.4
 31
0.0
  0
ARC
  5
3EC
100
AcDbEntity
  8
LAY-1
  6
CONTINUOUS
 62
     2
100
AcDbCircle
 10
217.365431
 20
250.4
 30
0.0
 40
1.0
100
AcDbArc
 50
270.0
 51
0.0
  0
LINE
  5
3ED
100
AcDbEntity
  8
LAY-1
  6
CONTINUOUS
 62
     2
100
AcDbLine
 10
218.616095
 20
250.4
 30
0.0
 11
218.616095
 21
253.4
 31
0.0
  0
ARC
  5
3EE
100
AcDbEntity
  8
LAY-1
  6
CONTINUOUS
 62
     2
100
AcDbCircle
 10
217.616095
 20
250.4
 30
0.0
 40
1.0
100
AcDbArc
 50
270.0
 51
0.0
  0
LINE
  5
3EF
100
AcDbEntity
  8
LAY-1
  6
CONTINUOUS
 62
     2
100
AcDbLine
 10
220.348145
 20
250.4
 30
0.0
 11
220.348145
 21
253.4
 31
0.0
  0
ARC
  5
3F0
100
AcDbEntity
  8
LAY-1
  6
CONTINUOUS
 62
     2
100
AcDbCircle
 10
219.348145
 20
250.4
 30
0.0
 40
1.0
100
AcDbArc
 50
270.0
 51
0.0
  0
LINE
  5
3F1
100
AcDbEntity
  8
LAY-1
  6
CONTINUOUS
 62
     2
100
AcDbLine
 10
223.659224
 20
250.4
 30
0.0
 11
223.659224
 21
253.4
 31
0.0
  0
ARC
  5
3F2
100
AcDbEntity
  8
LAY-1
  6
CONTINUOUS
 62
     2
100
AcDbCircle
 10
222.659224
 20
250.4
 30
0.0
 40
1.0
100
AcDbArc
 50
270.0
 51
0.0
  0
LINE
  5
3F3
100
AcDbEntity
  8
LAY-1
  6
CONTINUOUS
 62
     2
100
AcDbLine
 10
224.093387
 20
250.4
 30
0.0
 11
224.093387
 21
253.4
 31
0.0
  0
ARC
  5
3F4
100
AcDbEntity
  8
LAY-1
  6
CONTINUOUS
 62
     2
100
AcDbCircle
 10
223.093387
 20
250.4
 30
0.0
 40
1.0
100
AcDbArc
 50
270.0
 51
0.0
  0
LINE
  5
3F5
100
AcDbEntity
  8
LAY-1
  6
CONTINUOUS
 62
     2
100
AcDbLine
 10
225.093387
 20
250.4
 30
0.0
 11
225.093387
 21
253.4
 31
0.0
  0
ARC
  5
3F6
100
AcDbEntity
  8
LAY-1
  6
CONTINUOUS
 62
     2
100
AcDbCircle
 10
224.093387
 20
250.4
 30
0.0
 40
1.0
100
AcDbArc
 50
270.0
 51
0.0
  0
LINE
  5
3F7
100
AcDbEntity
  8
LAY-1
  6
CONTINUOUS
 62
     2
100
AcDbLine
 10
225.962912
 20
250.4
 30
0.0
 11
225.962912
 21
253.4
 31
0.0
  0
ARC
  5
3F8
100
AcDbEntity
  8
LAY-1
  6
CONTINUOUS
 62
     2
100
AcDbCircle
 10
224.962912
 20
250.4
 30
0.0
 40
1.0
100
AcDbArc
 50
270.0
 51
0.0
  0
LINE
  5
3F9
100
AcDbEntity
  8
LAY-1
  6
CONTINUOUS
 62
     2
100
AcDbLine
 10
212.5
 20
253.4
 30
0.0
 11
199.0
 21
253.4
 31
0.0
  0
ARC
  5
3FA
100
AcDbEntity
  8
LAY-1
  6
CONTINUOUS
 62
     2
100
AcDbCircle
 10
212.5
 20
348.4
 30
0.0
 40
100.0
100
AcDbArc
 50
262.45452
 51
270.0
  0
LINE
  5
3FB
100
AcDbEntity
  8
LAY-1
  6
CONTINUOUS
 62
     2
100
AcDbLine
 10
198.5
 20
250.257247
 30
0.0
 11
198.5
 21
253.4
 31
0.0
  0
ARC
  5
3FC
100
AcDbEntity
  8
LAY-1
  6
CONTINUOUS
 62
     2
100
AcDbCircle
 10
199.5
 20
250.257247
 30
0.0
 40
1.0
100
AcDbArc
 50
180.0
 51
262.45452
  0
LINE
  5
3FD
100
AcDbEntity
  8
LAY-1
  6
CONTINUOUS
 62
     2
100
AcDbLine
 10
201.0415
 20
253.4
 30
0.0
 11
198.5
 21
253.4
 31
0.0
  0
LINE
  5
3FE
100
AcDbEntity
  8
LAY-1
  6
CONTINUOUS
 62
     2
100
AcDbLine
 10
211.5
 20
249.4
 30
0.0
 11
211.5
 21
253.4
 31
0.0
  0
LINE
  5
3FF
100
AcDbEntity
  8
LAY-1
  6
CONTINUOUS
 62
     2
100
AcDbLine
 10
206.634569
 20
250.4
 30
0.0
 11
206.634569
 21
253.4
 31
0.0
  0
ARC
  5
400
100
AcDbEntity
  8
LAY-1
  6
CONTINUOUS
 62
     2
100
AcDbCircle
 10
207.634569
 20
250.4
 30
0.0
 40
1.0
100
AcDbArc
 50
180.0
 51
270.0
  0
LINE
  5
401
100
AcDbEntity
  8
LAY-1
  6
CONTINUOUS
 62
     2
100
AcDbLine
 10
206.383905
 20
250.4
 30
0.0
 11
206.383905
 21
253.4
 31
0.0
  0
ARC
  5
402
100
AcDbEntity
  8
LAY-1
  6
CONTINUOUS
 62
     2
100
AcDbCircle
 10
207.383905
 20
250.4
 30
0.0
 40
1.0
100
AcDbArc
 50
180.0
 51
270.0
  0
LINE
  5
403
100
AcDbEntity
  8
LAY-1
  6
CONTINUOUS
 62
     2
100
AcDbLine
 10
204.651855
 20
250.4
 30
0.0
 11
204.651855
 21
253.4
 31
0.0
  0
ARC
  5
404
100
AcDbEntity
  8
LAY-1
  6
CONTINUOUS
 62
     2
100
AcDbCircle
 10
205.651855
 20
250.4
 30
0.0
 40
1.0
100
AcDbArc
 50
180.0
 51
270.0
  0
LINE
  5
405
100
AcDbEntity
  8
LAY-1
  6
CONTINUOUS
 62
     2
100
AcDbLine
 10
201.340776
 20
250.4
 30
0.0
 11
201.340776
 21
253.4
 31
0.0
  0
ARC
  5
406
100
AcDbEntity
  8
LAY-1
  6
CONTINUOUS
 62
     2
100
AcDbCircle
 10
202.340776
 20
250.4
 30
0.0
 40
1.0
100
AcDbArc
 50
180.0
 51
270.0
  0
LINE
  5
407
100
AcDbEntity
  8
LAY-1
  6
CONTINUOUS
 62
     2
100
AcDbLine
 10
200.906613
 20
250.4
 30
0.0
 11
200.906613
 21
253.4
 31
0.0
  0
ARC
  5
408
100
AcDbEntity
  8
LAY-1
  6
CONTINUOUS
 62
     2
100
AcDbCircle
 10
201.906613
 20
250.4
 30
0.0
 40
1.0
100
AcDbArc
 50
180.0
 51
270.0
  0
LINE
  5
409
100
AcDbEntity
  8
LAY-1
  6
CONTINUOUS
 62
     2
100
AcDbLine
 10
199.906613
 20
250.4
 30
0.0
 11
199.906613
 21
253.4
 31
0.0
  0
ARC
  5
40A
100
AcDbEntity
  8
LAY-1
  6
CONTINUOUS
 62
     2
100
AcDbCircle
 10
200.906613
 20
250.4
 30
0.0
 40
1.0
100
AcDbArc
 50
180.0
 51
270.0
  0
LINE
  5
40B
100
AcDbEntity
  8
LAY-1
  6
CONTINUOUS
 62
     2
100
AcDbLine
 10
199.037088
 20
250.4
 30
0.0
 11
199.037088
 21
253.4
 31
0.0
  0
ARC
  5
40C
100
AcDbEntity
  8
LAY-1
  6
CONTINUOUS
 62
     2
100
AcDbCircle
 10
200.037088
 20
250.4
 30
0.0
 40
1.0
100
AcDbArc
 50
180.0
 51
270.0
  0
LINE
  5
40D
100
AcDbEntity
  8
LAY-1
  6
CONTINUOUS
 62
     2
100
AcDbLine
 10
217.365431
 20
249.4
 30
0.0
 11
217.616095
 21
249.4
 31
0.0
  0
LINE
  5
40E
100
AcDbEntity
  8
LAY-1
  6
CONTINUOUS
 62
     2
100
AcDbLine
 10
207.634569
 20
249.4
 30
0.0
 11
207.383905
 21
249.4
 31
0.0
  0
LINE
  5
40F
100
AcDbEntity
  8
LAY-1
  6
CONTINUOUS
 62
     2
100
AcDbLine
 10
202.340776
 20
249.4
 30
0.0
 11
201.906613
 21
249.4
 31
0.0
  0
LINE
  5
410
100
AcDbEntity
  8
LAY-1
  6
CONTINUOUS
 62
     2
100
AcDbLine
 10
222.659224
 20
249.4
 30
0.0
 11
223.093387
 21
249.4
 31
0.0
  0
LINE
  5
411
100
AcDbEntity
  8
LAY-1
  6
CONTINUOUS
 62
     2
100
AcDbLine
 10
212.5
 20
253.4
 30
0.0
 11
226.5
 21
253.4
 31
0.0
  0
ARC
  5
412
100
AcDbEntity
  8
LAY-1
  6
CONTINUOUS
 62
     2
100
AcDbCircle
 10
197.272109
 20
262.045015
 30
0.0
 40
8.645316
100
AcDbArc
 50
244.130796
 51
295.869204
  0
LINE
  5
413
100
AcDbEntity
  8
LAY-1
  6
CONTINUOUS
 62
     2
100
AcDbLine
 10
205.100676
 20
262.533975
 30
0.0
 11
205.100676
 21
254.3
 31
0.0
  0
LINE
  5
414
100
AcDbEntity
  8
LAY-1
  6
CONTINUOUS
 62
     2
100
AcDbLine
 10
201.044218
 20
254.266025
 30
0.0
 11
205.100676
 21
254.266025
 31
0.0
  0
LINE
  5
415
100
AcDbEntity
  8
LAY-1
  6
CONTINUOUS
 62
     2
100
AcDbLine
 10
201.044218
 20
262.533975
 30
0.0
 11
205.100676
 21
262.533975
 31
0.0
  0
LINE
  5
416
100
AcDbEntity
  8
LAY-1
  6
CONTINUOUS
 62
     2
100
AcDbLine
 10
201.044218
 20
262.533975
 30
0.0
 11
201.044218
 21
254.3
 31
0.0
  0
ARC
  5
417
100
AcDbEntity
  8
LAY-1
  6
CONTINUOUS
 62
     2
100
AcDbCircle
 10
197.272109
 20
254.761426
 30
0.0
 40
8.63952
100
AcDbArc
 50
64.112157
 51
115.887843
  0
ARC
  5
418
100
AcDbEntity
  8
LAY-1
  6
CONTINUOUS
 62
     2
100
AcDbCircle
 10
212.5
 20
231.35706
 30
0.0
 40
32.04294
100
AcDbArc
 50
90.0
 51
103.351184
  0
ARC
  5
419
100
AcDbEntity
  8
LAY-1
  6
CONTINUOUS
 62
     2
100
AcDbCircle
 10
212.5
 20
285.44294
 30
0.0
 40
32.04294
100
AcDbArc
 50
256.648816
 51
270.0
  0
ARC
  5
41A
100
AcDbEntity
  8
LAY-1
  6
CONTINUOUS
 62
     2
100
AcDbCircle
 10
212.5
 20
285.44294
 30
0.0
 40
32.04294
100
AcDbArc
 50
270.0
 51
283.351184
  0
ARC
  5
41B
100
AcDbEntity
  8
LAY-1
  6
CONTINUOUS
 62
     2
100
AcDbCircle
 10
212.5
 20
231.35706
 30
0.0
 40
32.04294
100
AcDbArc
 50
76.648816
 51
90.0
  0
LINE
  5
41C
100
AcDbEntity
  8
LAY-1
  6
CONTINUOUS
 62
     2
100
AcDbLine
 10
223.955782
 20
262.533975
 30
0.0
 11
223.955782
 21
254.266025
 31
0.0
  0
LINE
  5
41D
100
AcDbEntity
  8
LAY-1
  6
CONTINUOUS
 62
     2
100
AcDbLine
 10
219.899324
 20
262.533975
 30
0.0
 11
219.899324
 21
254.266025
 31
0.0
  0
LINE
  5
41E
100
AcDbEntity
  8
LAY-1
  6
CONTINUOUS
 62
     2
100
AcDbLine
 10
223.955782
 20
262.533975
 30
0.0
 11
219.899324
 21
262.533975
 31
0.0
  0
LINE
  5
41F
100
AcDbEntity
  8
LAY-1
  6
CONTINUOUS
 62
     2
100
AcDbLine
 10
223.955782
 20
254.266025
 30
0.0
 11
219.899324
 21
254.266025
 31
0.0
  0
ARC
  5
420
100
AcDbEntity
  8
LAY-1
  6
CONTINUOUS
 62
     2
100
AcDbCircle
 10
227.727891
 20
254.761426
 30
0.0
 40
8.63952
100
AcDbArc
 50
64.112157
 51
115.887843
  0
ARC
  5
421
100
AcDbEntity
  8
LAY-1
  6
CONTINUOUS
 62
     2
100
AcDbCircle
 10
227.727891
 20
262.045015
 30
0.0
 40
8.645316
100
AcDbArc
 50
244.130796
 51
295.869204
  0
LINE
  5
422
100
AcDbEntity
  8
LAY-1
  6
EXLTYPE3
 62
     1
100
AcDbLine
 10
212.5
 20
244.8
 30
0.0
 11
212.5
 21
368.7
 31
0.0
  0
LINE
  5
423
100
AcDbEntity
  8
LAY-1
  6
CONTINUOUS
 62
     2
100
AcDbLine
 10
430.0
 20
140.283663
 30
0.0
 11
430.0
 21
145.4
 31
0.0
  0
ARC
  5
424
100
AcDbEntity
  8
LAY-1
  6
CONTINUOUS
 62
     2
100
AcDbCircle
 10
427.5
 20
140.283663
 30
0.0
 40
2.5
100
AcDbArc
 50
285.0
 51
0.0
  0
ARC
  5
425
100
AcDbEntity
  8
LAY-1
  6
CONTINUOUS
 62
     2
100
AcDbCircle
 10
427.5
 20
137.177835
 30
0.0
 40
0.5
100
AcDbArc
 50
105.0
 51
180.0
  0
LINE
  5
426
100
AcDbEntity
  8
LAY-1
  6
CONTINUOUS
 62
     2
100
AcDbLine
 10
430.0
 20
150.516337
 30
0.0
 11
430.0
 21
145.4
 31
0.0
  0
LINE
  5
427
100
AcDbEntity
  8
LAY-1
  6
CONTINUOUS
 62
     2
100
AcDbLine
 10
402.0
 20
94.3
 30
0.0
 11
405.0
 21
97.3
 31
0.0
  0
LINE
  5
428
100
AcDbEntity
  8
LAY-1
  6
CONTINUOUS
 62
     2
100
AcDbLine
 10
403.5
 20
94.3
 30
0.0
 11
403.5
 21
87.3
 31
0.0
  0
LINE
  5
429
100
AcDbEntity
  8
LAY-1
  6
CONTINUOUS
 62
     2
100
AcDbLine
 10
403.5
 20
87.3
 30
0.0
 11
405.0
 21
87.3
 31
0.0
  0
LINE
  5
42A
100
AcDbEntity
  8
LAY-1
  6
CONTINUOUS
 62
     2
100
AcDbLine
 10
402.0
 20
94.3
 30
0.0
 11
403.5
 21
94.3
 31
0.0
  0
LINE
  5
42B
100
AcDbEntity
  8
LAY-1
  6
CONTINUOUS
 62
     2
100
AcDbLine
 10
408.0
 20
94.3
 30
0.0
 11
405.0
 21
97.3
 31
0.0
  0
LINE
  5
42C
100
AcDbEntity
  8
LAY-1
  6
CONTINUOUS
 62
     2
100
AcDbLine
 10
406.5
 20
94.3
 30
0.0
 11
406.5
 21
87.3
 31
0.0
  0
LINE
  5
42D
100
AcDbEntity
  8
LAY-1
  6
CONTINUOUS
 62
     2
100
AcDbLine
 10
406.5
 20
87.3
 30
0.0
 11
405.0
 21
87.3
 31
0.0
  0
LINE
  5
42E
100
AcDbEntity
  8
LAY-1
  6
CONTINUOUS
 62
     2
100
AcDbLine
 10
408.0
 20
94.3
 30
0.0
 11
406.5
 21
94.3
 31
0.0
  0
LINE
  5
42F
100
AcDbEntity
  8
LAY-1
  6
CONTINUOUS
 62
     2
100
AcDbLine
 10
402.0
 20
202.7
 30
0.0
 11
405.0
 21
205.7
 31
0.0
  0
LINE
  5
430
100
AcDbEntity
  8
LAY-1
  6
CONTINUOUS
 62
     2
100
AcDbLine
 10
403.5
 20
202.7
 30
0.0
 11
403.5
 21
195.7
 31
0.0
  0
LINE
  5
431
100
AcDbEntity
  8
LAY-1
  6
CONTINUOUS
 62
     2
100
AcDbLine
 10
403.5
 20
195.7
 30
0.0
 11
405.0
 21
195.7
 31
0.0
  0
LINE
  5
432
100
AcDbEntity
  8
LAY-1
  6
CONTINUOUS
 62
     2
100
AcDbLine
 10
402.0
 20
202.7
 30
0.0
 11
403.5
 21
202.7
 31
0.0
  0
LINE
  5
433
100
AcDbEntity
  8
LAY-1
  6
CONTINUOUS
 62
     2
100
AcDbLine
 10
408.0
 20
202.7
 30
0.0
 11
405.0
 21
205.7
 31
0.0
  0
LINE
  5
434
100
AcDbEntity
  8
LAY-1
  6
CONTINUOUS
 62
     2
100
AcDbLine
 10
406.5
 20
202.7
 30
0.0
 11
406.5
 21
195.7
 31
0.0
  0
LINE
  5
435
100
AcDbEntity
  8
LAY-1
  6
CONTINUOUS
 62
     2
100
AcDbLine
 10
406.5
 20
195.7
 30
0.0
 11
405.0
 21
195.7
 31
0.0
  0
LINE
  5
436
100
AcDbEntity
  8
LAY-1
  6
CONTINUOUS
 62
     2
100
AcDbLine
 10
408.0
 20
202.7
 30
0.0
 11
406.5
 21
202.7
 31
0.0
  0
LINE
  5
437
100
AcDbEntity
  8
LAY-1
  6
EXLTYPE3
 62
     1
100
AcDbLine
 10
405.0
 20
195.7
 30
0.0
 11
405.0
 21
97.3
 31
0.0
  0
ARC
  5
438
100
AcDbEntity
  8
LAY-1
  6
CONTINUOUS
 62
     2
100
AcDbCircle
 10
381.5
 20
93.4
 30
0.0
 40
1.0
100
AcDbArc
 50
270.0
 51
0.0
  0
LINE
  5
439
100
AcDbEntity
  8
LAY-1
  6
CONTINUOUS
 62
     2
100
AcDbLine
 10
424.465095
 20
175.409337
 30
0.0
 11
425.0
 21
175.4
 31
0.0
  0
ARC
  5
43A
100
AcDbEntity
  8
LAY-1
  6
CONTINUOUS
 62
     2
100
AcDbCircle
 10
424.5
 20
177.409032
 30
0.0
 40
2.0
100
AcDbArc
 50
180.0
 51
269.0
  0
LINE
  5
43B
100
AcDbEntity
  8
LAY-1
  6
CONTINUOUS
 62
     2
100
AcDbLine
 10
424.465095
 20
115.390663
 30
0.0
 11
425.0
 21
115.4
 31
0.0
  0
ARC
  5
43C
100
AcDbEntity
  8
LAY-1
  6
CONTINUOUS
 62
     2
100
AcDbCircle
 10
424.5
 20
113.390968
 30
0.0
 40
2.0
100
AcDbArc
 50
91.0
 51
180.0
  0
LINE
  5
43D
100
AcDbEntity
  8
LAY-1
  6
CONTINUOUS
 62
     2
100
AcDbLine
 10
427.0
 20
175.4
 30
0.0
 11
425.0
 21
175.4
 31
0.0
  0
LINE
  5
43E
100
AcDbEntity
  8
LAY-1
  6
CONTINUOUS
 62
     2
100
AcDbLine
 10
427.0
 20
115.4
 30
0.0
 11
425.0
 21
115.4
 31
0.0
  0
LINE
  5
43F
100
AcDbEntity
  8
LAY-1
  6
CONTINUOUS
 62
     2
100
AcDbLine
 10
422.5
 20
177.409032
 30
0.0
 11
422.5
 21
185.9
 31
0.0
  0
ARC
  5
440
100
AcDbEntity
  8
LAY-1
  6
CONTINUOUS
 62
     2
100
AcDbCircle
 10
420.5
 20
185.9
 30
0.0
 40
2.0
100
AcDbArc
 50
0.0
 51
90.0
  0
LINE
  5
441
100
AcDbEntity
  8
LAY-1
  6
CONTINUOUS
 62
     2
100
AcDbLine
 10
422.5
 20
113.390968
 30
0.0
 11
422.5
 21
104.9
 31
0.0
  0
ARC
  5
442
100
AcDbEntity
  8
LAY-1
  6
CONTINUOUS
 62
     2
100
AcDbCircle
 10
420.5
 20
104.9
 30
0.0
 40
2.0
100
AcDbArc
 50
270.0
 51
0.0
  0
LINE
  5
443
100
AcDbEntity
  8
LAY-1
  6
CONTINUOUS
 62
     2
100
AcDbLine
 10
385.5
 20
187.9
 30
0.0
 11
420.5
 21
187.9
 31
0.0
  0
ARC
  5
444
100
AcDbEntity
  8
LAY-1
  6
CONTINUOUS
 62
     2
100
AcDbCircle
 10
385.5
 20
190.9
 30
0.0
 40
3.0
100
AcDbArc
 50
180.0
 51
270.0
  0
LINE
  5
445
100
AcDbEntity
  8
LAY-1
  6
CONTINUOUS
 62
     2
100
AcDbLine
 10
385.5
 20
102.9
 30
0.0
 11
420.5
 21
102.9
 31
0.0
  0
ARC
  5
446
100
AcDbEntity
  8
LAY-1
  6
CONTINUOUS
 62
     2
100
AcDbCircle
 10
385.5
 20
99.9
 30
0.0
 40
3.0
100
AcDbArc
 50
90.0
 51
180.0
  0
LINE
  5
447
100
AcDbEntity
  8
LAY-1
  6
CONTINUOUS
 62
     2
100
AcDbLine
 10
427.37059
 20
137.660798
 30
0.0
 11
428.147048
 21
137.868849
 31
0.0
  0
ARC
  5
448
100
AcDbEntity
  8
LAY-1
  6
CONTINUOUS
 62
     2
100
AcDbCircle
 10
427.5
 20
150.516337
 30
0.0
 40
2.5
100
AcDbArc
 50
0.0
 51
75.0
  0
ARC
  5
449
100
AcDbEntity
  8
LAY-1
  6
CONTINUOUS
 62
     2
100
AcDbCircle
 10
427.5
 20
153.622165
 30
0.0
 40
0.5
100
AcDbArc
 50
180.0
 51
255.0
  0
LINE
  5
44A
100
AcDbEntity
  8
LAY-1
  6
CONTINUOUS
 62
     2
100
AcDbLine
 10
427.37059
 20
153.139202
 30
0.0
 11
428.147048
 21
152.931151
 31
0.0
  0
LINE
  5
44B
100
AcDbEntity
  8
LAY-1
  6
CONTINUOUS
 62
     2
100
AcDbLine
 10
427.0
 20
175.4
 30
0.0
 11
427.0
 21
115.4
 31
0.0
  0
LINE
  5
44C
100
AcDbEntity
  8
LAY-1
  6
CONTINUOUS
 62
     2
100
AcDbLine
 10
425.0
 20
115.4
 30
0.0
 11
425.0
 21
175.4
 31
0.0
  0
ARC
  5
44D
100
AcDbEntity
  8
LAY-1
  6
CONTINUOUS
 62
     2
100
AcDbCircle
 10
381.5
 20
197.4
 30
0.0
 40
1.0
100
AcDbArc
 50
0.0
 51
90.0
  0
LINE
  5
44E
100
AcDbEntity
  8
LAY-1
  6
CONTINUOUS
 62
     2
100
AcDbLine
 10
382.5
 20
93.4
 30
0.0
 11
382.5
 21
197.4
 31
0.0
  0
ARC
  5
44F
100
AcDbEntity
  8
LAY-1
  6
CONTINUOUS
 62
     2
100
AcDbCircle
 10
385.5
 20
188.957685
 30
0.0
 40
3.0
100
AcDbArc
 50
180.0
 51
241.927513
  0
ARC
  5
450
100
AcDbEntity
  8
LAY-1
  6
CONTINUOUS
 62
     2
100
AcDbCircle
 10
377.5
 20
173.957685
 30
0.0
 40
14.0
100
AcDbArc
 50
0.0
 51
61.927513
  0
ARC
  5
451
100
AcDbEntity
  8
LAY-1
  6
CONTINUOUS
 62
     2
100
AcDbCircle
 10
377.5
 20
116.842315
 30
0.0
 40
14.0
100
AcDbArc
 50
298.072487
 51
0.0
  0
ARC
  5
452
100
AcDbEntity
  8
LAY-1
  6
CONTINUOUS
 62
     2
100
AcDbCircle
 10
385.5
 20
101.842315
 30
0.0
 40
3.0
100
AcDbArc
 50
118.072487
 51
180.0
  0
LINE
  5
453
100
AcDbEntity
  8
LAY-1
  6
CONTINUOUS
 62
     2
100
AcDbLine
 10
391.5
 20
173.957685
 30
0.0
 11
391.5
 21
116.842315
 31
0.0
  0
LINE
  5
454
100
AcDbEntity
  8
LAY-1
  6
CONTINUOUS
 62
     2
100
AcDbLine
 10
412.248737
 20
187.9
 30
0.0
 11
412.248737
 21
171.5
 31
0.0
  0
LINE
  5
455
100
AcDbEntity
  8
LAY-1
  6
CONTINUOUS
 62
     2
100
AcDbLine
 10
413.599146
 20
170.901501
 30
0.0
 11
422.21
 21
175.8
 31
0.0
  0
LINE
  5
456
100
AcDbEntity
  8
LAY-1
  6
CONTINUOUS
 62
     2
100
AcDbLine
 10
409.6
 20
170.008984
 30
0.0
 11
392.6
 21
170.008984
 31
0.0
  0
LINE
  5
457
100
AcDbEntity
  8
LAY-1
  6
CONTINUOUS
 62
     2
100
AcDbLine
 10
409.6
 20
120.791016
 30
0.0
 11
392.6
 21
120.791016
 31
0.0
  0
LINE
  5
458
100
AcDbEntity
  8
LAY-1
  6
CONTINUOUS
 62
     2
100
AcDbLine
 10
412.248737
 20
102.9
 30
0.0
 11
412.248737
 21
119.3
 31
0.0
  0
LINE
  5
459
100
AcDbEntity
  8
LAY-1
  6
CONTINUOUS
 62
     2
100
AcDbLine
 10
413.599146
 20
119.898499
 30
0.0
 11
422.21
 21
115.0
 31
0.0
  0
LINE
  5
45A
100
AcDbEntity
  8
LAY-1
  6
CONTINUOUS
 62
     2
100
AcDbLine
 10
427.0
 20
131.015224
 30
0.0
 11
427.930127
 21
131.015224
 31
0.0
  0
ARC
  5
45B
100
AcDbEntity
  8
LAY-1
  6
CONTINUOUS
 62
     2
100
AcDbCircle
 10
423.6
 20
127.015224
 30
0.0
 40
6.5
100
AcDbArc
 50
0.0
 51
30.0
  0
ARC
  5
45C
100
AcDbEntity
  8
LAY-1
  6
CONTINUOUS
 62
     2
100
AcDbCircle
 10
427.930127
 20
129.515224
 30
0.0
 40
1.5
100
AcDbArc
 50
30.0
 51
90.0
  0
LINE
  5
45D
100
AcDbEntity
  8
LAY-1
  6
CONTINUOUS
 62
     2
100
AcDbLine
 10
427.0
 20
123.015224
 30
0.0
 11
427.930127
 21
123.015224
 31
0.0
  0
ARC
  5
45E
100
AcDbEntity
  8
LAY-1
  6
CONTINUOUS
 62
     2
100
AcDbCircle
 10
423.6
 20
127.015224
 30
0.0
 40
6.5
100
AcDbArc
 50
330.0
 51
0.0
  0
ARC
  5
45F
100
AcDbEntity
  8
LAY-1
  6
CONTINUOUS
 62
     2
100
AcDbCircle
 10
427.930127
 20
124.515224
 30
0.0
 40
1.5
100
AcDbArc
 50
270.0
 51
330.0
  0
LINE
  5
460
100
AcDbEntity
  8
LAY-1
  6
CONTINUOUS
 62
     2
100
AcDbLine
 10
427.0
 20
159.784776
 30
0.0
 11
427.930127
 21
159.784776
 31
0.0
  0
ARC
  5
461
100
AcDbEntity
  8
LAY-1
  6
CONTINUOUS
 62
     2
100
AcDbCircle
 10
423.6
 20
163.784776
 30
0.0
 40
6.5
100
AcDbArc
 50
330.0
 51
0.0
  0
ARC
  5
462
100
AcDbEntity
  8
LAY-1
  6
CONTINUOUS
 62
     2
100
AcDbCircle
 10
427.930127
 20
161.284776
 30
0.0
 40
1.5
100
AcDbArc
 50
270.0
 51
330.0
  0
LINE
  5
463
100
AcDbEntity
  8
LAY-1
  6
CONTINUOUS
 62
     2
100
AcDbLine
 10
427.0
 20
167.784776
 30
0.0
 11
427.930127
 21
167.784776
 31
0.0
  0
ARC
  5
464
100
AcDbEntity
  8
LAY-1
  6
CONTINUOUS
 62
     2
100
AcDbCircle
 10
423.6
 20
163.784776
 30
0.0
 40
6.5
100
AcDbArc
 50
0.0
 51
30.0
  0
ARC
  5
465
100
AcDbEntity
  8
LAY-1
  6
CONTINUOUS
 62
     2
100
AcDbCircle
 10
427.930127
 20
166.284776
 30
0.0
 40
1.5
100
AcDbArc
 50
30.0
 51
90.0
  0
LINE
  5
466
100
AcDbEntity
  8
LAY-1
  6
CONTINUOUS
 62
     2
100
AcDbLine
 10
381.5
 20
92.4
 30
0.0
 11
377.5
 21
92.4
 31
0.0
  0
LINE
  5
467
100
AcDbEntity
  8
LAY-1
  6
CONTINUOUS
 62
     2
100
AcDbLine
 10
381.5
 20
198.4
 30
0.0
 11
377.5
 21
198.4
 31
0.0
  0
LINE
  5
468
100
AcDbEntity
  8
LAY-1
  6
CONTINUOUS
 62
     2
100
AcDbLine
 10
373.5
 20
93.4
 30
0.0
 11
373.5
 21
145.4
 31
0.0
  0
LINE
  5
469
100
AcDbEntity
  8
LAY-1
  6
CONTINUOUS
 62
     2
100
AcDbLine
 10
365.5
 20
145.4
 30
0.0
 11
365.5
 21
114.9
 31
0.0
  0
LINE
  5
46A
100
AcDbEntity
  8
LAY-1
  6
CONTINUOUS
 62
     2
100
AcDbLine
 10
377.5
 20
145.4
 30
0.0
 11
377.5
 21
92.4
 31
0.0
  0
ARC
  5
46B
100
AcDbEntity
  8
LAY-1
  6
CONTINUOUS
 62
     2
100
AcDbCircle
 10
374.5
 20
93.4
 30
0.0
 40
1.0
100
AcDbArc
 50
180.0
 51
270.0
  0
LINE
  5
46C
100
AcDbEntity
  8
LAY-1
  6
CONTINUOUS
 62
     2
100
AcDbLine
 10
377.5
 20
92.4
 30
0.0
 11
374.5
 21
92.4
 31
0.0
  0
LINE
  5
46D
100
AcDbEntity
  8
LAY-1
  6
CONTINUOUS
 62
     2
100
AcDbLine
 10
373.5
 20
197.4
 30
0.0
 11
373.5
 21
145.4
 31
0.0
  0
LINE
  5
46E
100
AcDbEntity
  8
LAY-1
  6
CONTINUOUS
 62
     2
100
AcDbLine
 10
365.5
 20
145.4
 30
0.0
 11
365.5
 21
175.9
 31
0.0
  0
LINE
  5
46F
100
AcDbEntity
  8
LAY-1
  6
CONTINUOUS
 62
     2
100
AcDbLine
 10
377.5
 20
145.4
 30
0.0
 11
377.5
 21
198.4
 31
0.0
  0
LINE
  5
470
100
AcDbEntity
  8
LAY-1
  6
CONTINUOUS
 62
     2
100
AcDbLine
 10
377.5
 20
145.4
 30
0.0
 11
377.5
 21
92.4
 31
0.0
  0
ARC
  5
471
100
AcDbEntity
  8
LAY-1
  6
CONTINUOUS
 62
     2
100
AcDbCircle
 10
374.5
 20
197.4
 30
0.0
 40
1.0
100
AcDbArc
 50
90.0
 51
180.0
  0
LINE
  5
472
100
AcDbEntity
  8
LAY-1
  6
CONTINUOUS
 62
     2
100
AcDbLine
 10
377.5
 20
198.4
 30
0.0
 11
374.5
 21
198.4
 31
0.0
  0
LINE
  5
473
100
AcDbEntity
  8
LAY-1
  6
CONTINUOUS
 62
     2
100
AcDbLine
 10
330.5
 20
162.65
 30
0.0
 11
360.630885
 21
163.439005
 31
0.0
  0
ARC
  5
474
100
AcDbEntity
  8
LAY-1
  6
CONTINUOUS
 62
     2
100
AcDbCircle
 10
360.5
 20
168.437292
 30
0.0
 40
5.0
100
AcDbArc
 50
271.5
 51
0.0
  0
LINE
  5
475
100
AcDbEntity
  8
LAY-1
  6
CONTINUOUS
 62
     2
100
AcDbLine
 10
330.5
 20
128.15
 30
0.0
 11
360.630885
 21
127.360995
 31
0.0
  0
ARC
  5
476
100
AcDbEntity
  8
LAY-1
  6
CONTINUOUS
 62
     2
100
AcDbCircle
 10
360.5
 20
122.362708
 30
0.0
 40
5.0
100
AcDbArc
 50
0.0
 51
88.5
  0
LINE
  5
477
100
AcDbEntity
  8
LAY-1
  6
CONTINUOUS
 62
     2
100
AcDbLine
 10
320.5
 20
162.9
 30
0.0
 11
320.5
 21
145.4
 31
0.0
  0
LINE
  5
478
100
AcDbEntity
  8
LAY-1
  6
CONTINUOUS
 62
     2
100
AcDbLine
 10
329.633975
 20
164.4
 30
0.0
 11
321.366025
 21
164.4
 31
0.0
  0
LINE
  5
479
100
AcDbEntity
  8
LAY-1
  6
CONTINUOUS
 62
     2
100
AcDbLine
 10
330.5
 20
162.9
 30
0.0
 11
330.5
 21
145.4
 31
0.0
  0
LINE
  5
47A
100
AcDbEntity
  8
LAY-1
  6
CONTINUOUS
 62
     2
100
AcDbLine
 10
320.5
 20
127.9
 30
0.0
 11
320.5
 21
145.4
 31
0.0
  0
LINE
  5
47B
100
AcDbEntity
  8
LAY-1
  6
CONTINUOUS
 62
     2
100
AcDbLine
 10
321.366025
 20
126.4
 30
0.0
 11
329.633975
 21
126.4
 31
0.0
  0
LINE
  5
47C
100
AcDbEntity
  8
LAY-1
  6
CONTINUOUS
 62
     2
100
AcDbLine
 10
330.5
 20
127.9
 30
0.0
 11
330.5
 21
145.4
 31
0.0
  0
LINE
  5
47D
100
AcDbEntity
  8
LAY-1
  6
CONTINUOUS
 62
     2
100
AcDbLine
 10
330.5
 20
162.9
 30
0.0
 11
329.633975
 21
164.4
 31
0.0
  0
LINE
  5
47E
100
AcDbEntity
  8
LAY-1
  6
CONTINUOUS
 62
     2
100
AcDbLine
 10
321.366025
 20
126.4
 30
0.0
 11
320.5
 21
127.9
 31
0.0
  0
LINE
  5
47F
100
AcDbEntity
  8
LAY-1
  6
CONTINUOUS
 62
     2
100
AcDbLine
 10
321.366025
 20
164.4
 30
0.0
 11
320.5
 21
162.9
 31
0.0
  0
LINE
  5
480
100
AcDbEntity
  8
LAY-1
  6
CONTINUOUS
 62
     2
100
AcDbLine
 10
330.5
 20
127.9
 30
0.0
 11
329.633975
 21
126.4
 31
0.0
  0
ARC
  5
481
100
AcDbEntity
  8
LAY-1
  6
CONTINUOUS
 62
     2
100
AcDbCircle
 10
415.5
 20
145.4
 30
0.0
 40
100.0
100
AcDbArc
 50
172.45452
 51
180.0
  0
LINE
  5
482
100
AcDbEntity
  8
LAY-1
  6
CONTINUOUS
 62
     2
100
AcDbLine
 10
317.357247
 20
159.4
 30
0.0
 11
320.5
 21
159.4
 31
0.0
  0
ARC
  5
483
100
AcDbEntity
  8
LAY-1
  6
CONTINUOUS
 62
     2
100
AcDbCircle
 10
317.357247
 20
158.4
 30
0.0
 40
1.0
100
AcDbArc
 50
90.0
 51
172.45452
  0
LINE
  5
484
100
AcDbEntity
  8
LAY-1
  6
CONTINUOUS
 62
     2
100
AcDbLine
 10
320.5
 20
133.9415
 30
0.0
 11
320.5
 21
131.4
 31
0.0
  0
LINE
  5
485
100
AcDbEntity
  8
LAY-1
  6
CONTINUOUS
 62
     2
100
AcDbLine
 10
316.5
 20
146.4
 30
0.0
 11
320.5
 21
146.4
 31
0.0
  0
LINE
  5
486
100
AcDbEntity
  8
LAY-1
  6
CONTINUOUS
 62
     2
100
AcDbLine
 10
317.5
 20
151.265431
 30
0.0
 11
320.5
 21
151.265431
 31
0.0
  0
ARC
  5
487
100
AcDbEntity
  8
LAY-1
  6
CONTINUOUS
 62
     2
100
AcDbCircle
 10
317.5
 20
150.265431
 30
0.0
 40
1.0
100
AcDbArc
 50
90.0
 51
180.0
  0
LINE
  5
488
100
AcDbEntity
  8
LAY-1
  6
CONTINUOUS
 62
     2
100
AcDbLine
 10
317.5
 20
151.516095
 30
0.0
 11
320.5
 21
151.516095
 31
0.0
  0
ARC
  5
489
100
AcDbEntity
  8
LAY-1
  6
CONTINUOUS
 62
     2
100
AcDbCircle
 10
317.5
 20
150.516095
 30
0.0
 40
1.0
100
AcDbArc
 50
90.0
 51
180.0
  0
LINE
  5
48A
100
AcDbEntity
  8
LAY-1
  6
CONTINUOUS
 62
     2
100
AcDbLine
 10
317.5
 20
153.248145
 30
0.0
 11
320.5
 21
153.248145
 31
0.0
  0
ARC
  5
48B
100
AcDbEntity
  8
LAY-1
  6
CONTINUOUS
 62
     2
100
AcDbCircle
 10
317.5
 20
152.248145
 30
0.0
 40
1.0
100
AcDbArc
 50
90.0
 51
180.0
  0
LINE
  5
48C
100
AcDbEntity
  8
LAY-1
  6
CONTINUOUS
 62
     2
100
AcDbLine
 10
317.5
 20
156.559224
 30
0.0
 11
320.5
 21
156.559224
 31
0.0
  0
ARC
  5
48D
100
AcDbEntity
  8
LAY-1
  6
CONTINUOUS
 62
     2
100
AcDbCircle
 10
317.5
 20
155.559224
 30
0.0
 40
1.0
100
AcDbArc
 50
90.0
 51
180.0
  0
LINE
  5
48E
100
AcDbEntity
  8
LAY-1
  6
CONTINUOUS
 62
     2
100
AcDbLine
 10
317.5
 20
156.993387
 30
0.0
 11
320.5
 21
156.993387
 31
0.0
  0
ARC
  5
48F
100
AcDbEntity
  8
LAY-1
  6
CONTINUOUS
 62
     2
100
AcDbCircle
 10
317.5
 20
155.993387
 30
0.0
 40
1.0
100
AcDbArc
 50
90.0
 51
180.0
  0
LINE
  5
490
100
AcDbEntity
  8
LAY-1
  6
CONTINUOUS
 62
     2
100
AcDbLine
 10
317.5
 20
157.993387
 30
0.0
 11
320.5
 21
157.993387
 31
0.0
  0
ARC
  5
491
100
AcDbEntity
  8
LAY-1
  6
CONTINUOUS
 62
     2
100
AcDbCircle
 10
317.5
 20
156.993387
 30
0.0
 40
1.0
100
AcDbArc
 50
90.0
 51
180.0
  0
LINE
  5
492
100
AcDbEntity
  8
LAY-1
  6
CONTINUOUS
 62
     2
100
AcDbLine
 10
317.5
 20
158.862912
 30
0.0
 11
320.5
 21
158.862912
 31
0.0
  0
ARC
  5
493
100
AcDbEntity
  8
LAY-1
  6
CONTINUOUS
 62
     2
100
AcDbCircle
 10
317.5
 20
157.862912
 30
0.0
 40
1.0
100
AcDbArc
 50
90.0
 51
180.0
  0
LINE
  5
494
100
AcDbEntity
  8
LAY-1
  6
CONTINUOUS
 62
     2
100
AcDbLine
 10
320.5
 20
145.4
 30
0.0
 11
320.5
 21
131.9
 31
0.0
  0
ARC
  5
495
100
AcDbEntity
  8
LAY-1
  6
CONTINUOUS
 62
     2
100
AcDbCircle
 10
415.5
 20
145.4
 30
0.0
 40
100.0
100
AcDbArc
 50
180.0
 51
187.54548
  0
LINE
  5
496
100
AcDbEntity
  8
LAY-1
  6
CONTINUOUS
 62
     2
100
AcDbLine
 10
317.357247
 20
131.4
 30
0.0
 11
320.5
 21
131.4
 31
0.0
  0
ARC
  5
497
100
AcDbEntity
  8
LAY-1
  6
CONTINUOUS
 62
     2
100
AcDbCircle
 10
317.357247
 20
132.4
 30
0.0
 40
1.0
100
AcDbArc
 50
187.54548
 51
270.0
  0
LINE
  5
498
100
AcDbEntity
  8
LAY-1
  6
CONTINUOUS
 62
     2
100
AcDbLine
 10
320.5
 20
133.9415
 30
0.0
 11
320.5
 21
131.4
 31
0.0
  0
LINE
  5
499
100
AcDbEntity
  8
LAY-1
  6
CONTINUOUS
 62
     2
100
AcDbLine
 10
316.5
 20
144.4
 30
0.0
 11
320.5
 21
144.4
 31
0.0
  0
LINE
  5
49A
100
AcDbEntity
  8
LAY-1
  6
CONTINUOUS
 62
     2
100
AcDbLine
 10
317.5
 20
139.534569
 30
0.0
 11
320.5
 21
139.534569
 31
0.0
  0
ARC
  5
49B
100
AcDbEntity
  8
LAY-1
  6
CONTINUOUS
 62
     2
100
AcDbCircle
 10
317.5
 20
140.534569
 30
0.0
 40
1.0
100
AcDbArc
 50
180.0
 51
270.0
  0
LINE
  5
49C
100
AcDbEntity
  8
LAY-1
  6
CONTINUOUS
 62
     2
100
AcDbLine
 10
317.5
 20
139.283905
 30
0.0
 11
320.5
 21
139.283905
 31
0.0
  0
ARC
  5
49D
100
AcDbEntity
  8
LAY-1
  6
CONTINUOUS
 62
     2
100
AcDbCircle
 10
317.5
 20
140.283905
 30
0.0
 40
1.0
100
AcDbArc
 50
180.0
 51
270.0
  0
LINE
  5
49E
100
AcDbEntity
  8
LAY-1
  6
CONTINUOUS
 62
     2
100
AcDbLine
 10
317.5
 20
137.551855
 30
0.0
 11
320.5
 21
137.551855
 31
0.0
  0
ARC
  5
49F
100
AcDbEntity
  8
LAY-1
  6
CONTINUOUS
 62
     2
100
AcDbCircle
 10
317.5
 20
138.551855
 30
0.0
 40
1.0
100
AcDbArc
 50
180.0
 51
270.0
  0
LINE
  5
4A0
100
AcDbEntity
  8
LAY-1
  6
CONTINUOUS
 62
     2
100
AcDbLine
 10
317.5
 20
134.240776
 30
0.0
 11
320.5
 21
134.240776
 31
0.0
  0
ARC
  5
4A1
100
AcDbEntity
  8
LAY-1
  6
CONTINUOUS
 62
     2
100
AcDbCircle
 10
317.5
 20
135.240776
 30
0.0
 40
1.0
100
AcDbArc
 50
180.0
 51
270.0
  0
LINE
  5
4A2
100
AcDbEntity
  8
LAY-1
  6
CONTINUOUS
 62
     2
100
AcDbLine
 10
317.5
 20
133.806613
 30
0.0
 11
320.5
 21
133.806613
 31
0.0
  0
ARC
  5
4A3
100
AcDbEntity
  8
LAY-1
  6
CONTINUOUS
 62
     2
100
AcDbCircle
 10
317.5
 20
134.806613
 30
0.0
 40
1.0
100
AcDbArc
 50
180.0
 51
270.0
  0
LINE
  5
4A4
100
AcDbEntity
  8
LAY-1
  6
CONTINUOUS
 62
     2
100
AcDbLine
 10
317.5
 20
132.806613
 30
0.0
 11
320.5
 21
132.806613
 31
0.0
  0
ARC
  5
4A5
100
AcDbEntity
  8
LAY-1
  6
CONTINUOUS
 62
     2
100
AcDbCircle
 10
317.5
 20
133.806613
 30
0.0
 40
1.0
100
AcDbArc
 50
180.0
 51
270.0
  0
LINE
  5
4A6
100
AcDbEntity
  8
LAY-1
  6
CONTINUOUS
 62
     2
100
AcDbLine
 10
317.5
 20
131.937088
 30
0.0
 11
320.5
 21
131.937088
 31
0.0
  0
ARC
  5
4A7
100
AcDbEntity
  8
LAY-1
  6
CONTINUOUS
 62
     2
100
AcDbCircle
 10
317.5
 20
132.937088
 30
0.0
 40
1.0
100
AcDbArc
 50
180.0
 51
270.0
  0
LINE
  5
4A8
100
AcDbEntity
  8
LAY-1
  6
CONTINUOUS
 62
     2
100
AcDbLine
 10
316.5
 20
150.265431
 30
0.0
 11
316.5
 21
150.516095
 31
0.0
  0
LINE
  5
4A9
100
AcDbEntity
  8
LAY-1
  6
CONTINUOUS
 62
     2
100
AcDbLine
 10
316.5
 20
140.534569
 30
0.0
 11
316.5
 21
140.283905
 31
0.0
  0
LINE
  5
4AA
100
AcDbEntity
  8
LAY-1
  6
CONTINUOUS
 62
     2
100
AcDbLine
 10
316.5
 20
135.240776
 30
0.0
 11
316.5
 21
134.806613
 31
0.0
  0
LINE
  5
4AB
100
AcDbEntity
  8
LAY-1
  6
CONTINUOUS
 62
     2
100
AcDbLine
 10
316.5
 20
155.559224
 30
0.0
 11
316.5
 21
155.993387
 31
0.0
  0
LINE
  5
4AC
100
AcDbEntity
  8
LAY-1
  6
CONTINUOUS
 62
     2
100
AcDbLine
 10
320.5
 20
145.4
 30
0.0
 11
320.5
 21
159.4
 31
0.0
  0
ARC
  5
4AD
100
AcDbEntity
  8
LAY-1
  6
CONTINUOUS
 62
     2
100
AcDbCircle
 10
329.145015
 20
130.172109
 30
0.0
 40
8.645316
100
AcDbArc
 50
154.130796
 51
205.869204
  0
LINE
  5
4AE
100
AcDbEntity
  8
LAY-1
  6
CONTINUOUS
 62
     2
100
AcDbLine
 10
329.633975
 20
138.000676
 30
0.0
 11
321.4
 21
138.000676
 31
0.0
  0
LINE
  5
4AF
100
AcDbEntity
  8
LAY-1
  6
CONTINUOUS
 62
     2
100
AcDbLine
 10
321.366025
 20
133.944218
 30
0.0
 11
321.366025
 21
138.000676
 31
0.0
  0
LINE
  5
4B0
100
AcDbEntity
  8
LAY-1
  6
CONTINUOUS
 62
     2
100
AcDbLine
 10
329.633975
 20
133.944218
 30
0.0
 11
329.633975
 21
138.000676
 31
0.0
  0
LINE
  5
4B1
100
AcDbEntity
  8
LAY-1
  6
CONTINUOUS
 62
     2
100
AcDbLine
 10
329.633975
 20
133.944218
 30
0.0
 11
321.4
 21
133.944218
 31
0.0
  0
ARC
  5
4B2
100
AcDbEntity
  8
LAY-1
  6
CONTINUOUS
 62
     2
100
AcDbCircle
 10
321.861426
 20
130.172109
 30
0.0
 40
8.63952
100
AcDbArc
 50
334.112157
 51
25.887843
  0
ARC
  5
4B3
100
AcDbEntity
  8
LAY-1
  6
CONTINUOUS
 62
     2
100
AcDbCircle
 10
298.45706
 20
145.4
 30
0.0
 40
32.04294
100
AcDbArc
 50
346.648816
 51
0.0
  0
ARC
  5
4B4
100
AcDbEntity
  8
LAY-1
  6
CONTINUOUS
 62
     2
100
AcDbCircle
 10
352.54294
 20
145.4
 30
0.0
 40
32.04294
100
AcDbArc
 50
180.0
 51
193.351184
  0
ARC
  5
4B5
100
AcDbEntity
  8
LAY-1
  6
CONTINUOUS
 62
     2
100
AcDbCircle
 10
352.54294
 20
145.4
 30
0.0
 40
32.04294
100
AcDbArc
 50
166.648816
 51
180.0
  0
ARC
  5
4B6
100
AcDbEntity
  8
LAY-1
  6
CONTINUOUS
 62
     2
100
AcDbCircle
 10
298.45706
 20
145.4
 30
0.0
 40
32.04294
100
AcDbArc
 50
0.0
 51
13.351184
  0
LINE
  5
4B7
100
AcDbEntity
  8
LAY-1
  6
CONTINUOUS
 62
     2
100
AcDbLine
 10
329.633975
 20
156.855782
 30
0.0
 11
321.366025
 21
156.855782
 31
0.0
  0
LINE
  5
4B8
100
AcDbEntity
  8
LAY-1
  6
CONTINUOUS
 62
     2
100
AcDbLine
 10
329.633975
 20
152.799324
 30
0.0
 11
321.366025
 21
152.799324
 31
0.0
  0
LINE
  5
4B9
100
AcDbEntity
  8
LAY-1
  6
CONTINUOUS
 62
     2
100
AcDbLine
 10
329.633975
 20
156.855782
 30
0.0
 11
329.633975
 21
152.799324
 31
0.0
  0
LINE
  5
4BA
100
AcDbEntity
  8
LAY-1
  6
CONTINUOUS
 62
     2
100
AcDbLine
 10
321.366025
 20
156.855782
 30
0.0
 11
321.366025
 21
152.799324
 31
0.0
  0
ARC
  5
4BB
100
AcDbEntity
  8
LAY-1
  6
CONTINUOUS
 62
     2
100
AcDbCircle
 10
321.861426
 20
160.627891
 30
0.0
 40
8.63952
100
AcDbArc
 50
334.112157
 51
25.887843
  0
ARC
  5
4BC
100
AcDbEntity
  8
LAY-1
  6
CONTINUOUS
 62
     2
100
AcDbCircle
 10
329.145015
 20
160.627891
 30
0.0
 40
8.645316
100
AcDbArc
 50
154.130796
 51
205.869204
  0
LINE
  5
4BD
100
AcDbEntity
  8
LAY-1
  6
CONTINUOUS
 62
     2
100
AcDbLine
 10
372.380585
 20
92.997936
 30
0.0
 11
373.5
 21
92.9
 31
0.0
  0
ARC
  5
4BE
100
AcDbEntity
  8
LAY-1
  6
CONTINUOUS
 62
     2
100
AcDbCircle
 10
372.493887
 20
94.292989
 30
0.0
 40
1.3
100
AcDbArc
 50
195.88085
 51
265.0
  0
ARC
  5
4BF
100
AcDbEntity
  8
LAY-1
  6
CONTINUOUS
 62
     2
100
AcDbCircle
 10
379.9
 20
96.4
 30
0.0
 40
9.0
100
AcDbArc
 50
164.11915
 51
195.88085
  0
ARC
  5
4C0
100
AcDbEntity
  8
LAY-1
  6
CONTINUOUS
 62
     2
100
AcDbCircle
 10
372.493887
 20
98.507011
 30
0.0
 40
1.3
100
AcDbArc
 50
95.0
 51
164.11915
  0
LINE
  5
4C1
100
AcDbEntity
  8
LAY-1
  6
CONTINUOUS
 62
     2
100
AcDbLine
 10
373.5
 20
99.9
 30
0.0
 11
372.380585
 21
99.802064
 31
0.0
  0
LINE
  5
4C2
100
AcDbEntity
  8
LAY-1
  6
CONTINUOUS
 62
     2
100
AcDbLine
 10
373.5
 20
92.9
 30
0.0
 11
373.5
 21
96.4
 31
0.0
  0
LINE
  5
4C3
100
AcDbEntity
  8
LAY-1
  6
CONTINUOUS
 62
     2
100
AcDbLine
 10
372.380585
 20
117.497936
 30
0.0
 11
373.5
 21
117.4
 31
0.0
  0
ARC
  5
4C4
100
AcDbEntity
  8
LAY-1
  6
CONTINUOUS
 62
     2
100
AcDbCircle
 10
372.493887
 20
118.792989
 30
0.0
 40
1.3
100
AcDbArc
 50
195.88085
 51
265.0
  0
ARC
  5
4C5
100
AcDbEntity
  8
LAY-1
  6
CONTINUOUS
 62
     2
100
AcDbCircle
 10
379.9
 20
120.9
 30
0.0
 40
9.0
100
AcDbArc
 50
164.11915
 51
195.88085
  0
ARC
  5
4C6
100
AcDbEntity
  8
LAY-1
  6
CONTINUOUS
 62
     2
100
AcDbCircle
 10
372.493887
 20
123.007011
 30
0.0
 40
1.3
100
AcDbArc
 50
95.0
 51
164.11915
  0
LINE
  5
4C7
100
AcDbEntity
  8
LAY-1
  6
CONTINUOUS
 62
     2
100
AcDbLine
 10
373.5
 20
124.4
 30
0.0
 11
372.380585
 21
124.302064
 31
0.0
  0
ARC
  5
4C8
100
AcDbEntity
  8
LAY-1
  6
CONTINUOUS
 62
     2
100
AcDbCircle
 10
377.5
 20
114.9
 30
0.0
 40
12.0
100
AcDbArc
 50
180.0
 51
250.528779
  0
ARC
  5
4C9
100
AcDbEntity
  8
LAY-1
  6
CONTINUOUS
 62
     2
100
AcDbCircle
 10
377.5
 20
175.9
 30
0.0
 40
12.0
100
AcDbArc
 50
109.471221
 51
180.0
  0
LINE
  5
4CA
100
AcDbEntity
  8
LAY-1
  6
CONTINUOUS
 62
     2
100
AcDbLine
 10
372.380585
 20
173.302064
 30
0.0
 11
373.5
 21
173.4
 31
0.0
  0
ARC
  5
4CB
100
AcDbEntity
  8
LAY-1
  6
CONTINUOUS
 62
     2
100
AcDbCircle
 10
372.493887
 20
172.007011
 30
0.0
 40
1.3
100
AcDbArc
 50
95.0
 51
164.11915
  0
ARC
  5
4CC
100
AcDbEntity
  8
LAY-1
  6
CONTINUOUS
 62
     2
100
AcDbCircle
 10
379.9
 20
169.9
 30
0.0
 40
9.0
100
AcDbArc
 50
164.11915
 51
195.88085
  0
ARC
  5
4CD
100
AcDbEntity
  8
LAY-1
  6
CONTINUOUS
 62
     2
100
AcDbCircle
 10
372.493887
 20
167.792989
 30
0.0
 40
1.3
100
AcDbArc
 50
195.88085
 51
265.0
  0
LINE
  5
4CE
100
AcDbEntity
  8
LAY-1
  6
CONTINUOUS
 62
     2
100
AcDbLine
 10
373.5
 20
166.4
 30
0.0
 11
372.380585
 21
166.497936
 31
0.0
  0
LINE
  5
4CF
100
AcDbEntity
  8
LAY-1
  6
CONTINUOUS
 62
     2
100
AcDbLine
 10
372.380585
 20
197.802064
 30
0.0
 11
373.5
 21
197.9
 31
0.0
  0
ARC
  5
4D0
100
AcDbEntity
  8
LAY-1
  6
CONTINUOUS
 62
     2
100
AcDbCircle
 10
372.493887
 20
196.507011
 30
0.0
 40
1.3
100
AcDbArc
 50
95.0
 51
164.11915
  0
ARC
  5
4D1
100
AcDbEntity
  8
LAY-1
  6
CONTINUOUS
 62
     2
100
AcDbCircle
 10
379.9
 20
194.4
 30
0.0
 40
9.0
100
AcDbArc
 50
164.11915
 51
195.88085
  0
ARC
  5
4D2
100
AcDbEntity
  8
LAY-1
  6
CONTINUOUS
 62
     2
100
AcDbCircle
 10
372.493887
 20
192.292989
 30
0.0
 40
1.3
100
AcDbArc
 50
195.88085
 51
265.0
  0
LINE
  5
4D3
100
AcDbEntity
  8
LAY-1
  6
CONTINUOUS
 62
     2
100
AcDbLine
 10
373.5
 20
190.9
 30
0.0
 11
372.380585
 21
190.997936
 31
0.0
  0
LINE
  5
4D4
100
AcDbEntity
  8
LAY-1
  6
CONTINUOUS
 62
     2
100
AcDbLine
 10
373.5
 20
197.9
 30
0.0
 11
373.5
 21
194.4
 31
0.0
  0
LINE
  5
4D5
100
AcDbEntity
  8
LAY-1
  6
EXLTYPE3
 62
     1
100
AcDbLine
 10
312.6
 20
145.4
 30
0.0
 11
435.8
 21
145.4
 31
0.0
  0
ARC
  5
4D6
100
AcDbEntity
  8
LAY-1
  6
CONTINUOUS
 62
     2
100
AcDbCircle
 10
160.5
 20
-23.6
 30
0.0
 40
1.0
100
AcDbArc
 50
180.0
 51
270.0
  0
LINE
  5
4D7
100
AcDbEntity
  8
LAY-1
  6
CONTINUOUS
 62
     2
100
AcDbLine
 10
160.5
 20
-24.6
 30
0.0
 11
212.5
 21
-24.6
 31
0.0
  0
LINE
  5
4D8
100
AcDbEntity
  8
LAY-1
  6
CONTINUOUS
 62
     2
100
AcDbLine
 10
206.07969
 20
-64.6
 30
0.0
 11
212.5
 21
-64.6
 31
0.0
  0
ARC
  5
4D9
100
AcDbEntity
  8
LAY-1
  6
CONTINUOUS
 62
     2
100
AcDbCircle
 10
206.07969
 20
-62.6
 30
0.0
 40
2.0
100
AcDbArc
 50
225.0
 51
270.0
  0
LINE
  5
4DA
100
AcDbEntity
  8
LAY-1
  6
CONTINUOUS
 62
     2
100
AcDbLine
 10
182.5
 20
-67.1
 30
0.0
 11
212.5
 21
-67.1
 31
0.0
  0
ARC
  5
4DB
100
AcDbEntity
  8
LAY-1
  6
CONTINUOUS
 62
     2
100
AcDbCircle
 10
176.978692
 20
-37.277894
 30
0.0
 40
5.0
100
AcDbArc
 50
1.0
 51
68.499676
  0
ARC
  5
4DC
100
AcDbEntity
  8
LAY-1
  6
CONTINUOUS
 62
     2
100
AcDbCircle
 10
168.942315
 20
-27.6
 30
0.0
 40
3.0
100
AcDbArc
 50
28.072487
 51
90.0
  0
ARC
  5
4DD
100
AcDbEntity
  8
LAY-1
  6
CONTINUOUS
 62
     2
100
AcDbCircle
 10
183.942315
 20
-19.6
 30
0.0
 40
14.0
100
AcDbArc
 50
208.072487
 51
270.0
  0
LINE
  5
4DE
100
AcDbEntity
  8
LAY-1
  6
CONTINUOUS
 62
     2
100
AcDbLine
 10
182.5
 20
-67.1
 30
0.0
 11
181.97793
 21
-37.190632
 31
0.0
  0
ARC
  5
4DF
100
AcDbEntity
  8
LAY-1
  6
CONTINUOUS
 62
     2
100
AcDbCircle
 10
176.731073
 20
-42.6
 30
0.0
 40
3.0
100
AcDbArc
 50
270.0
 51
300.0
  0
ARC
  5
4E0
100
AcDbEntity
  8
LAY-1
  6
CONTINUOUS
 62
     2
100
AcDbCircle
 10
180.138484
 20
-46.406233
 30
0.0
 40
2.0
100
AcDbArc
 50
1.0
 51
120.0
  0
LINE
  5
4E1
100
AcDbEntity
  8
LAY-1
  6
CONTINUOUS
 62
     2
100
AcDbLine
 10
164.466298
 20
-45.6
 30
0.0
 11
176.731073
 21
-45.6
 31
0.0
  0
ARC
  5
4E2
100
AcDbEntity
  8
LAY-1
  6
CONTINUOUS
 62
     2
100
AcDbCircle
 10
164.431378
 20
-43.6
 30
0.0
 40
2.0
100
AcDbArc
 50
182.0
 51
270.0
  0
ARC
  5
4E3
100
AcDbEntity
  8
LAY-1
  6
CONTINUOUS
 62
     2
100
AcDbCircle
 10
159.832661
 20
-26.524835
 30
0.0
 40
2.0
100
AcDbArc
 50
2.0
 51
77.147251
  0
LINE
  5
4E4
100
AcDbEntity
  8
LAY-1
  6
CONTINUOUS
 62
     2
100
AcDbLine
 10
162.432596
 20
-43.669799
 30
0.0
 11
161.831443
 21
-26.455036
 31
0.0
  0
LINE
  5
4E5
100
AcDbEntity
  8
LAY-1
  6
CONTINUOUS
 62
     2
100
AcDbLine
 10
177.534921
 20
-44.0
 30
0.0
 11
177.534921
 21
-33.3
 31
0.0
  0
LINE
  5
4E6
100
AcDbEntity
  8
LAY-1
  6
CONTINUOUS
 62
     2
100
AcDbLine
 10
178.231073
 20
-45.198076
 30
0.0
 11
179.138484
 21
-44.674182
 31
0.0
  0
ARC
  5
4E7
100
AcDbEntity
  8
LAY-1
  6
CONTINUOUS
 62
     2
100
AcDbCircle
 10
196.985593
 20
-53.505903
 30
0.0
 40
2.0
100
AcDbArc
 50
181.0
 51
225.0
  0
POLYLINE
  5
4E8
100
AcDbEntity
  8
LAY-1
  6
CONTINUOUS
 62
     2
100
AcDb2dPolyline
 66
     1
 10
0.0
 20
0.0
 30
0.0
 70
   128
  0
VERTEX
  5
4E9
100
AcDbEntity
  8
LAY-1
  6
CONTINUOUS
 62
     2
100
AcDbVertex
100
AcDb2dVertex
 10
204.665476
 20
-64.014214
 30
0.0
  0
VERTEX
  5
4EA
100
AcDbEntity
  8
LAY-1
  6
CONTINUOUS
 62
     2
100
AcDbVertex
100
AcDb2dVertex
 10
195.571379
 20
-54.920117
 30
0.0
  0
SEQEND
  5
4EB
100
AcDbEntity
  8
LAY-1
  6
CONTINUOUS
 62
     2
  0
LINE
  5
4EC
100
AcDbEntity
  8
LAY-1
  6
CONTINUOUS
 62
     2
100
AcDbLine
 10
194.985898
 20
-53.540808
 30
0.0
 11
194.532185
 21
-27.547643
 31
0.0
  0
ARC
  5
4ED
100
AcDbEntity
  8
LAY-1
  6
CONTINUOUS
 62
     2
100
AcDbCircle
 10
191.532642
 20
-27.6
 30
0.0
 40
3.0
100
AcDbArc
 50
1.0
 51
90.0
  0
LINE
  5
4EE
100
AcDbEntity
  8
LAY-1
  6
CONTINUOUS
 62
     2
100
AcDbLine
 10
183.942315
 20
-33.6
 30
0.0
 11
194.637829
 21
-33.6
 31
0.0
  0
ARC
  5
4EF
100
AcDbEntity
  8
LAY-1
  6
CONTINUOUS
 62
     2
100
AcDbCircle
 10
264.5
 20
-23.6
 30
0.0
 40
1.0
100
AcDbArc
 50
270.0
 51
0.0
  0
LINE
  5
4F0
100
AcDbEntity
  8
LAY-1
  6
CONTINUOUS
 62
     2
100
AcDbLine
 10
264.5
 20
-24.6
 30
0.0
 11
212.5
 21
-24.6
 31
0.0
  0
LINE
  5
4F1
100
AcDbEntity
  8
LAY-1
  6
CONTINUOUS
 62
     2
100
AcDbLine
 10
218.92031
 20
-64.6
 30
0.0
 11
212.5
 21
-64.6
 31
0.0
  0
ARC
  5
4F2
100
AcDbEntity
  8
LAY-1
  6
CONTINUOUS
 62
     2
100
AcDbCircle
 10
218.92031
 20
-62.6
 30
0.0
 40
2.0
100
AcDbArc
 50
270.0
 51
315.0
  0
LINE
  5
4F3
100
AcDbEntity
  8
LAY-1
  6
CONTINUOUS
 62
     2
100
AcDbLine
 10
242.5
 20
-67.1
 30
0.0
 11
212.5
 21
-67.1
 31
0.0
  0
ARC
  5
4F4
100
AcDbEntity
  8
LAY-1
  6
CONTINUOUS
 62
     2
100
AcDbCircle
 10
248.021308
 20
-37.277894
 30
0.0
 40
5.0
100
AcDbArc
 50
111.500324
 51
179.0
  0
ARC
  5
4F5
100
AcDbEntity
  8
LAY-1
  6
CONTINUOUS
 62
     2
100
AcDbCircle
 10
256.057685
 20
-27.6
 30
0.0
 40
3.0
100
AcDbArc
 50
90.0
 51
151.927513
  0
ARC
  5
4F6
100
AcDbEntity
  8
LAY-1
  6
CONTINUOUS
 62
     2
100
AcDbCircle
 10
241.057685
 20
-19.6
 30
0.0
 40
14.0
100
AcDbArc
 50
270.0
 51
331.927513
  0
LINE
  5
4F7
100
AcDbEntity
  8
LAY-1
  6
CONTINUOUS
 62
     2
100
AcDbLine
 10
242.5
 20
-67.1
 30
0.0
 11
243.02207
 21
-37.190632
 31
0.0
  0
ARC
  5
4F8
100
AcDbEntity
  8
LAY-1
  6
CONTINUOUS
 62
     2
100
AcDbCircle
 10
228.014407
 20
-53.505903
 30
0.0
 40
2.0
100
AcDbArc
 50
315.0
 51
359.0
  0
POLYLINE
  5
4F9
100
AcDbEntity
  8
LAY-1
  6
CONTINUOUS
 62
     2
100
AcDb2dPolyline
 66
     1
 10
0.0
 20
0.0
 30
0.0
 70
   128
  0
VERTEX
  5
4FA
100
AcDbEntity
  8
LAY-1
  6
CONTINUOUS
 62
     2
100
AcDbVertex
100
AcDb2dVertex
 10
220.334524
 20
-64.014214
 30
0.0
  0
VERTEX
  5
4FB
100
AcDbEntity
  8
LAY-1
  6
CONTINUOUS
 62
     2
100
AcDbVertex
100
AcDb2dVertex
 10
229.428621
 20
-54.920117
 30
0.0
  0
SEQEND
  5
4FC
100
AcDbEntity
  8
LAY-1
  6
CONTINUOUS
 62
     2
  0
LINE
  5
4FD
100
AcDbEntity
  8
LAY-1
  6
CONTINUOUS
 62
     2
100
AcDbLine
 10
230.014102
 20
-53.540808
 30
0.0
 11
230.467815
 21
-27.547643
 31
0.0
  0
ARC
  5
4FE
100
AcDbEntity
  8
LAY-1
  6
CONTINUOUS
 62
     2
100
AcDbCircle
 10
233.467358
 20
-27.6
 30
0.0
 40
3.0
100
AcDbArc
 50
90.0
 51
179.0
  0
LINE
  5
4FF
100
AcDbEntity
  8
LAY-1
  6
CONTINUOUS
 62
     2
100
AcDbLine
 10
241.057685
 20
-33.6
 30
0.0
 11
230.362171
 21
-33.6
 31
0.0
  0
LINE
  5
500
100
AcDbEntity
  8
LAY-1
  6
EXLTYPE3
 62
     1
100
AcDbLine
 10
237.6
 20
-47.1
 30
0.0
 11
186.9
 21
-47.1
 31
0.0
  0
LINE
  5
501
100
AcDbEntity
  8
LAY-1
  6
CONTINUOUS
 62
     2
100
AcDbLine
 10
207.383663
 20
-72.1
 30
0.0
 11
212.5
 21
-72.1
 31
0.0
  0
ARC
  5
502
100
AcDbEntity
  8
LAY-1
  6
CONTINUOUS
 62
     2
100
AcDbCircle
 10
207.383663
 20
-69.6
 30
0.0
 40
2.5
100
AcDbArc
 50
195.0
 51
270.0
  0
LINE
  5
503
100
AcDbEntity
  8
LAY-1
  6
CONTINUOUS
 62
     2
100
AcDbLine
 10
204.760798
 20
-69.47059
 30
0.0
 11
204.968849
 21
-70.247048
 31
0.0
  0
ARC
  5
504
100
AcDbEntity
  8
LAY-1
  6
CONTINUOUS
 62
     2
100
AcDbCircle
 10
204.277835
 20
-69.6
 30
0.0
 40
0.5
100
AcDbArc
 50
15.0
 51
90.0
  0
LINE
  5
505
100
AcDbEntity
  8
LAY-1
  6
CONTINUOUS
 62
     2
100
AcDbLine
 10
217.616337
 20
-72.1
 30
0.0
 11
212.5
 21
-72.1
 31
0.0
  0
ARC
  5
506
100
AcDbEntity
  8
LAY-1
  6
CONTINUOUS
 62
     2
100
AcDbCircle
 10
217.616337
 20
-69.6
 30
0.0
 40
2.5
100
AcDbArc
 50
270.0
 51
345.0
  0
LINE
  5
507
100
AcDbEntity
  8
LAY-1
  6
CONTINUOUS
 62
     2
100
AcDbLine
 10
220.239202
 20
-69.47059
 30
0.0
 11
220.031151
 21
-70.247048
 31
0.0
  0
ARC
  5
508
100
AcDbEntity
  8
LAY-1
  6
CONTINUOUS
 62
     2
100
AcDbCircle
 10
220.722165
 20
-69.6
 30
0.0
 40
0.5
100
AcDbArc
 50
90.0
 51
165.0
  0
LINE
  5
509
100
AcDbEntity
  8
LAY-1
  6
CONTINUOUS
 62
     2
100
AcDbLine
 10
242.5
 20
-69.1
 30
0.0
 11
242.5
 21
-67.1
 31
0.0
  0
LINE
  5
50A
100
AcDbEntity
  8
LAY-1
  6
CONTINUOUS
 62
     2
100
AcDbLine
 10
182.5
 20
-69.1
 30
0.0
 11
182.5
 21
-67.1
 31
0.0
  0
LINE
  5
50B
100
AcDbEntity
  8
LAY-1
  6
CONTINUOUS
 62
     2
100
AcDbLine
 10
212.5
 20
-69.1
 30
0.0
 11
242.5
 21
-69.1
 31
0.0
  0
LINE
  5
50C
100
AcDbEntity
  8
LAY-1
  6
CONTINUOUS
 62
     2
100
AcDbLine
 10
212.5
 20
-69.1
 30
0.0
 11
182.5
 21
-69.1
 31
0.0
  0
LINE
  5
50D
100
AcDbEntity
  8
LAY-1
  6
CONTINUOUS
 62
     2
100
AcDbLine
 10
197.517288
 20
-70.219415
 30
0.0
 11
197.615224
 21
-69.1
 31
0.0
  0
LINE
  5
50E
100
AcDbEntity
  8
LAY-1
  6
CONTINUOUS
 62
     2
100
AcDbLine
 10
190.615224
 20
-69.1
 30
0.0
 11
190.71316
 21
-70.219415
 31
0.0
  0
ARC
  5
50F
100
AcDbEntity
  8
LAY-1
  6
CONTINUOUS
 62
     2
100
AcDbCircle
 10
192.008213
 20
-70.106113
 30
0.0
 40
1.3
100
AcDbArc
 50
185.0
 51
254.11915
  0
ARC
  5
510
100
AcDbEntity
  8
LAY-1
  6
CONTINUOUS
 62
     2
100
AcDbCircle
 10
194.115224
 20
-62.7
 30
0.0
 40
9.0
100
AcDbArc
 50
254.11915
 51
285.88085
  0
ARC
  5
511
100
AcDbEntity
  8
LAY-1
  6
CONTINUOUS
 62
     2
100
AcDbCircle
 10
196.222234
 20
-70.106113
 30
0.0
 40
1.3
100
AcDbArc
 50
285.88085
 51
355.0
  0
LINE
  5
512
100
AcDbEntity
  8
LAY-1
  6
CONTINUOUS
 62
     2
100
AcDbLine
 10
227.482712
 20
-70.219415
 30
0.0
 11
227.384776
 21
-69.1
 31
0.0
  0
LINE
  5
513
100
AcDbEntity
  8
LAY-1
  6
CONTINUOUS
 62
     2
100
AcDbLine
 10
234.384776
 20
-69.1
 30
0.0
 11
234.28684
 21
-70.219415
 31
0.0
  0
ARC
  5
514
100
AcDbEntity
  8
LAY-1
  6
CONTINUOUS
 62
     2
100
AcDbCircle
 10
232.991787
 20
-70.106113
 30
0.0
 40
1.3
100
AcDbArc
 50
285.88085
 51
355.0
  0
ARC
  5
515
100
AcDbEntity
  8
LAY-1
  6
CONTINUOUS
 62
     2
100
AcDbCircle
 10
230.884776
 20
-62.7
 30
0.0
 40
9.0
100
AcDbArc
 50
254.11915
 51
285.88085
  0
ARC
  5
516
100
AcDbEntity
  8
LAY-1
  6
CONTINUOUS
 62
     2
100
AcDbCircle
 10
228.777766
 20
-70.106113
 30
0.0
 40
1.3
100
AcDbArc
 50
185.0
 51
254.11915
  0
CIRCLE
  5
517
100
AcDbEntity
  8
LAY-1
  6
CONTINUOUS
 62
     2
100
AcDbCircle
 10
212.5
 20
-47.1
 30
0.0
 40
9.3
  0
CIRCLE
  5
518
100
AcDbEntity
  8
LAY-1
  6
CONTINUOUS
 62
     1
100
AcDbCircle
 10
212.5
 20
-47.1
 30
0.0
 40
10.5
  0
LINE
  5
519
100
AcDbEntity
  8
LAY-1
  6
CONTINUOUS
 62
     2
100
AcDbLine
 10
159.5
 20
-23.6
 30
0.0
 11
159.5
 21
-19.6
 31
0.0
  0
LINE
  5
51A
100
AcDbEntity
  8
LAY-1
  6
CONTINUOUS
 62
     2
100
AcDbLine
 10
265.5
 20
-19.6
 30
0.0
 11
265.5
 21
-23.6
 31
0.0
  0
LINE
  5
51B
100
AcDbEntity
  8
LAY-1
  6
CONTINUOUS
 62
     2
100
AcDbLine
 10
209.097936
 20
-14.480585
 30
0.0
 11
209.0
 21
-15.6
 31
0.0
  0
LINE
  5
51C
100
AcDbEntity
  8
LAY-1
  6
CONTINUOUS
 62
     2
100
AcDbLine
 10
258.435245
 20
-15.6
 30
0.0
 11
258.337309
 21
-14.480585
 31
0.0
  0
ARC
  5
51D
100
AcDbEntity
  8
LAY-1
  6
CONTINUOUS
 62
     2
100
AcDbCircle
 10
257.042256
 20
-14.593887
 30
0.0
 40
1.3
100
AcDbArc
 50
5.0
 51
74.11915
  0
ARC
  5
51E
100
AcDbEntity
  8
LAY-1
  6
CONTINUOUS
 62
     2
100
AcDbCircle
 10
254.935245
 20
-22.0
 30
0.0
 40
9.0
100
AcDbArc
 50
74.11915
 51
105.88085
  0
ARC
  5
51F
100
AcDbEntity
  8
LAY-1
  6
CONTINUOUS
 62
     2
100
AcDbCircle
 10
252.828234
 20
-14.593887
 30
0.0
 40
1.3
100
AcDbArc
 50
105.88085
 51
175.0
  0
LINE
  5
520
100
AcDbEntity
  8
LAY-1
  6
CONTINUOUS
 62
     2
100
AcDbLine
 10
251.533181
 20
-14.480585
 30
0.0
 11
251.435245
 21
-15.6
 31
0.0
  0
LINE
  5
521
100
AcDbEntity
  8
LAY-1
  6
CONTINUOUS
 62
     2
100
AcDbLine
 10
173.564755
 20
-15.6
 30
0.0
 11
173.466819
 21
-14.480585
 31
0.0
  0
ARC
  5
522
100
AcDbEntity
  8
LAY-1
  6
CONTINUOUS
 62
     2
100
AcDbCircle
 10
172.171766
 20
-14.593887
 30
0.0
 40
1.3
100
AcDbArc
 50
5.0
 51
74.11915
  0
ARC
  5
523
100
AcDbEntity
  8
LAY-1
  6
CONTINUOUS
 62
     2
100
AcDbCircle
 10
170.064755
 20
-22.0
 30
0.0
 40
9.0
100
AcDbArc
 50
74.11915
 51
105.88085
  0
ARC
  5
524
100
AcDbEntity
  8
LAY-1
  6
CONTINUOUS
 62
     2
100
AcDbCircle
 10
167.957744
 20
-14.593887
 30
0.0
 40
1.3
100
AcDbArc
 50
105.88085
 51
175.0
  0
LINE
  5
525
100
AcDbEntity
  8
LAY-1
  6
CONTINUOUS
 62
     2
100
AcDbLine
 10
166.662691
 20
-14.480585
 30
0.0
 11
166.564755
 21
-15.6
 31
0.0
  0
LINE
  5
526
100
AcDbEntity
  8
LAY-1
  6
CONTINUOUS
 62
     2
100
AcDbLine
 10
216.0
 20
-15.6
 30
0.0
 11
215.902064
 21
-14.480585
 31
0.0
  0
ARC
  5
527
100
AcDbEntity
  8
LAY-1
  6
CONTINUOUS
 62
     2
100
AcDbCircle
 10
214.607011
 20
-14.593887
 30
0.0
 40
1.3
100
AcDbArc
 50
5.0
 51
74.11915
  0
ARC
  5
528
100
AcDbEntity
  8
LAY-1
  6
CONTINUOUS
 62
     2
100
AcDbCircle
 10
212.5
 20
-22.0
 30
0.0
 40
9.0
100
AcDbArc
 50
74.11915
 51
105.88085
  0
ARC
  5
529
100
AcDbEntity
  8
LAY-1
  6
CONTINUOUS
 62
     2
100
AcDbCircle
 10
210.392989
 20
-14.593887
 30
0.0
 40
1.3
100
AcDbArc
 50
105.88085
 51
175.0
  0
LINE
  5
52A
100
AcDbEntity
  8
LAY-1
  6
EXLTYPE3
 62
     1
100
AcDbLine
 10
204.1
 20
1.4
 30
0.0
 11
159.0
 21
1.4
 31
0.0
  0
LINE
  5
52B
100
AcDbEntity
  8
LAY-1
  6
CONTINUOUS
 62
     2
100
AcDbLine
 10
180.5
 20
14.8
 30
0.0
 11
180.5
 21
-6.0
 31
0.0
  0
LINE
  5
52C
100
AcDbEntity
  8
LAY-1
  6
CONTINUOUS
 62
     2
100
AcDbLine
 10
188.0
 20
8.1
 30
0.0
 11
188.0
 21
-5.7
 31
0.0
  0
LINE
  5
52D
100
AcDbEntity
  8
LAY-1
  6
CONTINUOUS
 62
     2
100
AcDbLine
 10
181.37868
 20
15.52132
 30
0.0
 11
187.12132
 21
9.77868
 31
0.0
  0
ARC
  5
52E
100
AcDbEntity
  8
LAY-1
  6
CONTINUOUS
 62
     2
100
AcDbCircle
 10
161.0
 20
-14.1
 30
0.0
 40
1.5
100
AcDbArc
 50
270.0
 51
0.0
  0
LINE
  5
52F
100
AcDbEntity
  8
LAY-1
  6
CONTINUOUS
 62
     2
100
AcDbLine
 10
162.5
 20
14.9
 30
0.0
 11
162.5
 21
-14.1
 31
0.0
  0
LINE
  5
530
100
AcDbEntity
  8
LAY-1
  6
CONTINUOUS
 62
     2
100
AcDbLine
 10
160.5
 20
-15.6
 30
0.0
 11
212.5
 21
-15.6
 31
0.0
  0
LINE
  5
531
100
AcDbEntity
  8
LAY-1
  6
CONTINUOUS
 62
     2
100
AcDbLine
 10
212.5
 20
-7.6
 30
0.0
 11
182.0
 21
-7.6
 31
0.0
  0
LINE
  5
532
100
AcDbEntity
  8
LAY-1
  6
CONTINUOUS
 62
     2
100
AcDbLine
 10
212.5
 20
-19.6
 30
0.0
 11
159.5
 21
-19.6
 31
0.0
  0
ARC
  5
533
100
AcDbEntity
  8
LAY-1
  6
CONTINUOUS
 62
     2
100
AcDbCircle
 10
160.5
 20
-16.6
 30
0.0
 40
1.0
100
AcDbArc
 50
90.0
 51
180.0
  0
LINE
  5
534
100
AcDbEntity
  8
LAY-1
  6
CONTINUOUS
 62
     2
100
AcDbLine
 10
159.5
 20
-19.6
 30
0.0
 11
159.5
 21
-16.6
 31
0.0
  0
LINE
  5
535
100
AcDbEntity
  8
LAY-1
  6
CONTINUOUS
 62
     2
100
AcDbLine
 10
264.5
 20
-15.6
 30
0.0
 11
212.5
 21
-15.6
 31
0.0
  0
LINE
  5
536
100
AcDbEntity
  8
LAY-1
  6
CONTINUOUS
 62
     2
100
AcDbLine
 10
212.5
 20
-7.6
 30
0.0
 11
243.0
 21
-7.6
 31
0.0
  0
LINE
  5
537
100
AcDbEntity
  8
LAY-1
  6
CONTINUOUS
 62
     2
100
AcDbLine
 10
179.257359
 20
16.4
 30
0.0
 11
164.0
 21
16.4
 31
0.0
  0
ARC
  5
538
100
AcDbEntity
  8
LAY-1
  6
CONTINUOUS
 62
     2
100
AcDbCircle
 10
189.242641
 20
11.9
 30
0.0
 40
3.0
100
AcDbArc
 50
225.0
 51
270.0
  0
ARC
  5
539
100
AcDbEntity
  8
LAY-1
  6
CONTINUOUS
 62
     2
100
AcDbCircle
 10
179.257359
 20
13.4
 30
0.0
 40
3.0
100
AcDbArc
 50
45.0
 51
90.0
  0
ARC
  5
53A
100
AcDbEntity
  8
LAY-1
  6
CONTINUOUS
 62
     2
100
AcDbCircle
 10
164.0
 20
14.9
 30
0.0
 40
1.5
100
AcDbArc
 50
90.0
 51
180.0
  0
LINE
  5
53B
100
AcDbEntity
  8
LAY-1
  6
CONTINUOUS
 62
     2
100
AcDbLine
 10
212.5
 20
-19.6
 30
0.0
 11
265.5
 21
-19.6
 31
0.0
  0
LINE
  5
53C
100
AcDbEntity
  8
LAY-1
  6
CONTINUOUS
 62
     2
100
AcDbLine
 10
212.5
 20
-19.6
 30
0.0
 11
159.5
 21
-19.6
 31
0.0
  0
ARC
  5
53D
100
AcDbEntity
  8
LAY-1
  6
CONTINUOUS
 62
     2
100
AcDbCircle
 10
264.5
 20
-16.6
 30
0.0
 40
1.0
100
AcDbArc
 50
0.0
 51
90.0
  0
LINE
  5
53E
100
AcDbEntity
  8
LAY-1
  6
CONTINUOUS
 62
     2
100
AcDbLine
 10
265.5
 20
-19.6
 30
0.0
 11
265.5
 21
-16.6
 31
0.0
  0
ARC
  5
53F
100
AcDbEntity
  8
LAY-1
  6
CONTINUOUS
 62
     2
100
AcDbCircle
 10
243.0
 20
-19.6
 30
0.0
 40
12.0
100
AcDbArc
 50
32.337759
 51
90.0
  0
ARC
  5
540
100
AcDbEntity
  8
LAY-1
  6
CONTINUOUS
 62
     2
100
AcDbCircle
 10
182.0
 20
-19.6
 30
0.0
 40
12.0
100
AcDbArc
 50
90.0
 51
147.662241
  0
LINE
  5
541
100
AcDbEntity
  8
LAY-1
  6
CONTINUOUS
 62
     2
100
AcDbLine
 10
189.242641
 20
8.9
 30
0.0
 11
191.84309
 21
8.9
 31
0.0
  0
ARC
  5
542
100
AcDbEntity
  8
LAY-1
  6
CONTINUOUS
 62
     2
100
AcDbCircle
 10
191.84309
 20
11.9
 30
0.0
 40
3.0
100
AcDbArc
 50
270.0
 51
358.5
  0
LINE
  5
543
100
AcDbEntity
  8
LAY-1
  6
CONTINUOUS
 62
     2
100
AcDbLine
 10
229.75
 20
27.4
 30
0.0
 11
230.539005
 21
-2.730885
 31
0.0
  0
ARC
  5
544
100
AcDbEntity
  8
LAY-1
  6
CONTINUOUS
 62
     2
100
AcDbCircle
 10
235.537292
 20
-2.6
 30
0.0
 40
5.0
100
AcDbArc
 50
181.5
 51
270.0
  0
LINE
  5
545
100
AcDbEntity
  8
LAY-1
  6
CONTINUOUS
 62
     2
100
AcDbLine
 10
195.25
 20
27.4
 30
0.0
 11
194.460995
 21
-2.730885
 31
0.0
  0
ARC
  5
546
100
AcDbEntity
  8
LAY-1
  6
CONTINUOUS
 62
     2
100
AcDbCircle
 10
189.462708
 20
-2.6
 30
0.0
 40
5.0
100
AcDbArc
 50
270.0
 51
358.5
  0
LINE
  5
547
100
AcDbEntity
  8
LAY-1
  6
CONTINUOUS
 62
     2
100
AcDbLine
 10
230.0
 20
37.4
 30
0.0
 11
212.5
 21
37.4
 31
0.0
  0
LINE
  5
548
100
AcDbEntity
  8
LAY-1
  6
CONTINUOUS
 62
     2
100
AcDbLine
 10
231.5
 20
28.266025
 30
0.0
 11
231.5
 21
36.533975
 31
0.0
  0
LINE
  5
549
100
AcDbEntity
  8
LAY-1
  6
CONTINUOUS
 62
     2
100
AcDbLine
 10
230.0
 20
27.4
 30
0.0
 11
212.5
 21
27.4
 31
0.0
  0
LINE
  5
54A
100
AcDbEntity
  8
LAY-1
  6
CONTINUOUS
 62
     2
100
AcDbLine
 10
195.0
 20
37.4
 30
0.0
 11
212.5
 21
37.4
 31
0.0
  0
LINE
  5
54B
100
AcDbEntity
  8
LAY-1
  6
CONTINUOUS
 62
     2
100
AcDbLine
 10
193.5
 20
36.533975
 30
0.0
 11
193.5
 21
28.266025
 31
0.0
  0
LINE
  5
54C
100
AcDbEntity
  8
LAY-1
  6
CONTINUOUS
 62
     2
100
AcDbLine
 10
195.0
 20
27.4
 30
0.0
 11
212.5
 21
27.4
 31
0.0
  0
LINE
  5
54D
100
AcDbEntity
  8
LAY-1
  6
CONTINUOUS
 62
     2
100
AcDbLine
 10
230.0
 20
27.4
 30
0.0
 11
231.5
 21
28.266025
 31
0.0
  0
LINE
  5
54E
100
AcDbEntity
  8
LAY-1
  6
CONTINUOUS
 62
     2
100
AcDbLine
 10
193.5
 20
36.533975
 30
0.0
 11
195.0
 21
37.4
 31
0.0
  0
LINE
  5
54F
100
AcDbEntity
  8
LAY-1
  6
CONTINUOUS
 62
     2
100
AcDbLine
 10
231.5
 20
36.533975
 30
0.0
 11
230.0
 21
37.4
 31
0.0
  0
LINE
  5
550
100
AcDbEntity
  8
LAY-1
  6
CONTINUOUS
 62
     2
100
AcDbLine
 10
195.0
 20
27.4
 30
0.0
 11
193.5
 21
28.266025
 31
0.0
  0
ARC
  5
551
100
AcDbEntity
  8
LAY-1
  6
CONTINUOUS
 62
     2
100
AcDbCircle
 10
212.5
 20
-57.6
 30
0.0
 40
100.0
100
AcDbArc
 50
82.45452
 51
90.0
  0
LINE
  5
552
100
AcDbEntity
  8
LAY-1
  6
CONTINUOUS
 62
     2
100
AcDbLine
 10
226.5
 20
40.542753
 30
0.0
 11
226.5
 21
37.4
 31
0.0
  0
ARC
  5
553
100
AcDbEntity
  8
LAY-1
  6
CONTINUOUS
 62
     2
100
AcDbCircle
 10
225.5
 20
40.542753
 30
0.0
 40
1.0
100
AcDbArc
 50
0.0
 51
82.45452
  0
LINE
  5
554
100
AcDbEntity
  8
LAY-1
  6
CONTINUOUS
 62
     2
100
AcDbLine
 10
201.0415
 20
37.4
 30
0.0
 11
198.5
 21
37.4
 31
0.0
  0
LINE
  5
555
100
AcDbEntity
  8
LAY-1
  6
CONTINUOUS
 62
     2
100
AcDbLine
 10
213.5
 20
41.4
 30
0.0
 11
213.5
 21
37.4
 31
0.0
  0
LINE
  5
556
100
AcDbEntity
  8
LAY-1
  6
CONTINUOUS
 62
     2
100
AcDbLine
 10
218.365431
 20
40.4
 30
0.0
 11
218.365431
 21
37.4
 31
0.0
  0
ARC
  5
557
100
AcDbEntity
  8
LAY-1
  6
CONTINUOUS
 62
     2
100
AcDbCircle
 10
217.365431
 20
40.4
 30
0.0
 40
1.0
100
AcDbArc
 50
0.0
 51
90.0
  0
LINE
  5
558
100
AcDbEntity
  8
LAY-1
  6
CONTINUOUS
 62
     2
100
AcDbLine
 10
218.616095
 20
40.4
 30
0.0
 11
218.616095
 21
37.4
 31
0.0
  0
ARC
  5
559
100
AcDbEntity
  8
LAY-1
  6
CONTINUOUS
 62
     2
100
AcDbCircle
 10
217.616095
 20
40.4
 30
0.0
 40
1.0
100
AcDbArc
 50
0.0
 51
90.0
  0
LINE
  5
55A
100
AcDbEntity
  8
LAY-1
  6
CONTINUOUS
 62
     2
100
AcDbLine
 10
220.348145
 20
40.4
 30
0.0
 11
220.348145
 21
37.4
 31
0.0
  0
ARC
  5
55B
100
AcDbEntity
  8
LAY-1
  6
CONTINUOUS
 62
     2
100
AcDbCircle
 10
219.348145
 20
40.4
 30
0.0
 40
1.0
100
AcDbArc
 50
0.0
 51
90.0
  0
LINE
  5
55C
100
AcDbEntity
  8
LAY-1
  6
CONTINUOUS
 62
     2
100
AcDbLine
 10
223.659224
 20
40.4
 30
0.0
 11
223.659224
 21
37.4
 31
0.0
  0
ARC
  5
55D
100
AcDbEntity
  8
LAY-1
  6
CONTINUOUS
 62
     2
100
AcDbCircle
 10
222.659224
 20
40.4
 30
0.0
 40
1.0
100
AcDbArc
 50
0.0
 51
90.0
  0
LINE
  5
55E
100
AcDbEntity
  8
LAY-1
  6
CONTINUOUS
 62
     2
100
AcDbLine
 10
224.093387
 20
40.4
 30
0.0
 11
224.093387
 21
37.4
 31
0.0
  0
ARC
  5
55F
100
AcDbEntity
  8
LAY-1
  6
CONTINUOUS
 62
     2
100
AcDbCircle
 10
223.093387
 20
40.4
 30
0.0
 40
1.0
100
AcDbArc
 50
0.0
 51
90.0
  0
LINE
  5
560
100
AcDbEntity
  8
LAY-1
  6
CONTINUOUS
 62
     2
100
AcDbLine
 10
225.093387
 20
40.4
 30
0.0
 11
225.093387
 21
37.4
 31
0.0
  0
ARC
  5
561
100
AcDbEntity
  8
LAY-1
  6
CONTINUOUS
 62
     2
100
AcDbCircle
 10
224.093387
 20
40.4
 30
0.0
 40
1.0
100
AcDbArc
 50
0.0
 51
90.0
  0
LINE
  5
562
100
AcDbEntity
  8
LAY-1
  6
CONTINUOUS
 62
     2
100
AcDbLine
 10
225.962912
 20
40.4
 30
0.0
 11
225.962912
 21
37.4
 31
0.0
  0
ARC
  5
563
100
AcDbEntity
  8
LAY-1
  6
CONTINUOUS
 62
     2
100
AcDbCircle
 10
224.962912
 20
40.4
 30
0.0
 40
1.0
100
AcDbArc
 50
0.0
 51
90.0
  0
LINE
  5
564
100
AcDbEntity
  8
LAY-1
  6
CONTINUOUS
 62
     2
100
AcDbLine
 10
212.5
 20
37.4
 30
0.0
 11
199.0
 21
37.4
 31
0.0
  0
ARC
  5
565
100
AcDbEntity
  8
LAY-1
  6
CONTINUOUS
 62
     2
100
AcDbCircle
 10
212.5
 20
-57.6
 30
0.0
 40
100.0
100
AcDbArc
 50
90.0
 51
97.54548
  0
LINE
  5
566
100
AcDbEntity
  8
LAY-1
  6
CONTINUOUS
 62
     2
100
AcDbLine
 10
198.5
 20
40.542753
 30
0.0
 11
198.5
 21
37.4
 31
0.0
  0
ARC
  5
567
100
AcDbEntity
  8
LAY-1
  6
CONTINUOUS
 62
     2
100
AcDbCircle
 10
199.5
 20
40.542753
 30
0.0
 40
1.0
100
AcDbArc
 50
97.54548
 51
180.0
  0
LINE
  5
568
100
AcDbEntity
  8
LAY-1
  6
CONTINUOUS
 62
     2
100
AcDbLine
 10
201.0415
 20
37.4
 30
0.0
 11
198.5
 21
37.4
 31
0.0
  0
LINE
  5
569
100
AcDbEntity
  8
LAY-1
  6
CONTINUOUS
 62
     2
100
AcDbLine
 10
211.5
 20
41.4
 30
0.0
 11
211.5
 21
37.4
 31
0.0
  0
LINE
  5
56A
100
AcDbEntity
  8
LAY-1
  6
CONTINUOUS
 62
     2
100
AcDbLine
 10
206.634569
 20
40.4
 30
0.0
 11
206.634569
 21
37.4
 31
0.0
  0
ARC
  5
56B
100
AcDbEntity
  8
LAY-1
  6
CONTINUOUS
 62
     2
100
AcDbCircle
 10
207.634569
 20
40.4
 30
0.0
 40
1.0
100
AcDbArc
 50
90.0
 51
180.0
  0
LINE
  5
56C
100
AcDbEntity
  8
LAY-1
  6
CONTINUOUS
 62
     2
100
AcDbLine
 10
206.383905
 20
40.4
 30
0.0
 11
206.383905
 21
37.4
 31
0.0
  0
ARC
  5
56D
100
AcDbEntity
  8
LAY-1
  6
CONTINUOUS
 62
     2
100
AcDbCircle
 10
207.383905
 20
40.4
 30
0.0
 40
1.0
100
AcDbArc
 50
90.0
 51
180.0
  0
LINE
  5
56E
100
AcDbEntity
  8
LAY-1
  6
CONTINUOUS
 62
     2
100
AcDbLine
 10
204.651855
 20
40.4
 30
0.0
 11
204.651855
 21
37.4
 31
0.0
  0
ARC
  5
56F
100
AcDbEntity
  8
LAY-1
  6
CONTINUOUS
 62
     2
100
AcDbCircle
 10
205.651855
 20
40.4
 30
0.0
 40
1.0
100
AcDbArc
 50
90.0
 51
180.0
  0
LINE
  5
570
100
AcDbEntity
  8
LAY-1
  6
CONTINUOUS
 62
     2
100
AcDbLine
 10
201.340776
 20
40.4
 30
0.0
 11
201.340776
 21
37.4
 31
0.0
  0
ARC
  5
571
100
AcDbEntity
  8
LAY-1
  6
CONTINUOUS
 62
     2
100
AcDbCircle
 10
202.340776
 20
40.4
 30
0.0
 40
1.0
100
AcDbArc
 50
90.0
 51
180.0
  0
LINE
  5
572
100
AcDbEntity
  8
LAY-1
  6
CONTINUOUS
 62
     2
100
AcDbLine
 10
200.906613
 20
40.4
 30
0.0
 11
200.906613
 21
37.4
 31
0.0
  0
ARC
  5
573
100
AcDbEntity
  8
LAY-1
  6
CONTINUOUS
 62
     2
100
AcDbCircle
 10
201.906613
 20
40.4
 30
0.0
 40
1.0
100
AcDbArc
 50
90.0
 51
180.0
  0
LINE
  5
574
100
AcDbEntity
  8
LAY-1
  6
CONTINUOUS
 62
     2
100
AcDbLine
 10
199.906613
 20
40.4
 30
0.0
 11
199.906613
 21
37.4
 31
0.0
  0
ARC
  5
575
100
AcDbEntity
  8
LAY-1
  6
CONTINUOUS
 62
     2
100
AcDbCircle
 10
200.906613
 20
40.4
 30
0.0
 40
1.0
100
AcDbArc
 50
90.0
 51
180.0
  0
LINE
  5
576
100
AcDbEntity
  8
LAY-1
  6
CONTINUOUS
 62
     2
100
AcDbLine
 10
199.037088
 20
40.4
 30
0.0
 11
199.037088
 21
37.4
 31
0.0
  0
ARC
  5
577
100
AcDbEntity
  8
LAY-1
  6
CONTINUOUS
 62
     2
100
AcDbCircle
 10
200.037088
 20
40.4
 30
0.0
 40
1.0
100
AcDbArc
 50
90.0
 51
180.0
  0
LINE
  5
578
100
AcDbEntity
  8
LAY-1
  6
CONTINUOUS
 62
     2
100
AcDbLine
 10
217.365431
 20
41.4
 30
0.0
 11
217.616095
 21
41.4
 31
0.0
  0
LINE
  5
579
100
AcDbEntity
  8
LAY-1
  6
CONTINUOUS
 62
     2
100
AcDbLine
 10
207.634569
 20
41.4
 30
0.0
 11
207.383905
 21
41.4
 31
0.0
  0
LINE
  5
57A
100
AcDbEntity
  8
LAY-1
  6
CONTINUOUS
 62
     2
100
AcDbLine
 10
202.340776
 20
41.4
 30
0.0
 11
201.906613
 21
41.4
 31
0.0
  0
LINE
  5
57B
100
AcDbEntity
  8
LAY-1
  6
CONTINUOUS
 62
     2
100
AcDbLine
 10
222.659224
 20
41.4
 30
0.0
 11
223.093387
 21
41.4
 31
0.0
  0
LINE
  5
57C
100
AcDbEntity
  8
LAY-1
  6
CONTINUOUS
 62
     2
100
AcDbLine
 10
212.5
 20
37.4
 30
0.0
 11
226.5
 21
37.4
 31
0.0
  0
ARC
  5
57D
100
AcDbEntity
  8
LAY-1
  6
CONTINUOUS
 62
     2
100
AcDbCircle
 10
197.272109
 20
28.754985
 30
0.0
 40
8.645316
100
AcDbArc
 50
64.130796
 51
115.869204
  0
LINE
  5
57E
100
AcDbEntity
  8
LAY-1
  6
CONTINUOUS
 62
     2
100
AcDbLine
 10
205.100676
 20
28.266025
 30
0.0
 11
205.100676
 21
36.5
 31
0.0
  0
LINE
  5
57F
100
AcDbEntity
  8
LAY-1
  6
CONTINUOUS
 62
     2
100
AcDbLine
 10
201.044218
 20
36.533975
 30
0.0
 11
205.100676
 21
36.533975
 31
0.0
  0
LINE
  5
580
100
AcDbEntity
  8
LAY-1
  6
CONTINUOUS
 62
     2
100
AcDbLine
 10
201.044218
 20
28.266025
 30
0.0
 11
205.100676
 21
28.266025
 31
0.0
  0
LINE
  5
581
100
AcDbEntity
  8
LAY-1
  6
CONTINUOUS
 62
     2
100
AcDbLine
 10
201.044218
 20
28.266025
 30
0.0
 11
201.044218
 21
36.5
 31
0.0
  0
ARC
  5
582
100
AcDbEntity
  8
LAY-1
  6
CONTINUOUS
 62
     2
100
AcDbCircle
 10
197.272109
 20
36.038574
 30
0.0
 40
8.63952
100
AcDbArc
 50
244.112157
 51
295.887843
  0
ARC
  5
583
100
AcDbEntity
  8
LAY-1
  6
CONTINUOUS
 62
     2
100
AcDbCircle
 10
212.5
 20
59.44294
 30
0.0
 40
32.04294
100
AcDbArc
 50
256.648816
 51
270.0
  0
ARC
  5
584
100
AcDbEntity
  8
LAY-1
  6
CONTINUOUS
 62
     2
100
AcDbCircle
 10
212.5
 20
5.35706
 30
0.0
 40
32.04294
100
AcDbArc
 50
90.0
 51
103.351184
  0
ARC
  5
585
100
AcDbEntity
  8
LAY-1
  6
CONTINUOUS
 62
     2
100
AcDbCircle
 10
212.5
 20
5.35706
 30
0.0
 40
32.04294
100
AcDbArc
 50
76.648816
 51
90.0
  0
ARC
  5
586
100
AcDbEntity
  8
LAY-1
  6
CONTINUOUS
 62
     2
100
AcDbCircle
 10
212.5
 20
59.44294
 30
0.0
 40
32.04294
100
AcDbArc
 50
270.0
 51
283.351184
  0
LINE
  5
587
100
AcDbEntity
  8
LAY-1
  6
CONTINUOUS
 62
     2
100
AcDbLine
 10
223.955782
 20
28.266025
 30
0.0
 11
223.955782
 21
36.533975
 31
0.0
  0
LINE
  5
588
100
AcDbEntity
  8
LAY-1
  6
CONTINUOUS
 62
     2
100
AcDbLine
 10
219.899324
 20
28.266025
 30
0.0
 11
219.899324
 21
36.533975
 31
0.0
  0
LINE
  5
589
100
AcDbEntity
  8
LAY-1
  6
CONTINUOUS
 62
     2
100
AcDbLine
 10
223.955782
 20
28.266025
 30
0.0
 11
219.899324
 21
28.266025
 31
0.0
  0
LINE
  5
58A
100
AcDbEntity
  8
LAY-1
  6
CONTINUOUS
 62
     2
100
AcDbLine
 10
223.955782
 20
36.533975
 30
0.0
 11
219.899324
 21
36.533975
 31
0.0
  0
ARC
  5
58B
100
AcDbEntity
  8
LAY-1
  6
CONTINUOUS
 62
     2
100
AcDbCircle
 10
227.727891
 20
36.038574
 30
0.0
 40
8.63952
100
AcDbArc
 50
244.112157
 51
295.887843
  0
ARC
  5
58C
100
AcDbEntity
  8
LAY-1
  6
CONTINUOUS
 62
     2
100
AcDbCircle
 10
227.727891
 20
28.754985
 30
0.0
 40
8.645316
100
AcDbArc
 50
64.130796
 51
115.869204
  0
LINE
  5
58D
100
AcDbEntity
  8
LAY-1
  6
EXLTYPE3
 62
     1
100
AcDbLine
 10
212.5
 20
46.5
 30
0.0
 11
212.5
 21
-77.9
 31
0.0
  0
TEXT
  5
58E
100
AcDbEntity
  8
LAY-1
  6
CONTINUOUS
 62
     3
100
AcDbText
 10
290.516
 20
-39.316
 30
0.0
 40
8.0
  1
型式
 41
0.984714
  7
EXCADSTD
 72
     5
 11
307.708162
 21
-39.316
 31
0.0
100
AcDbText
  0
TEXT
  5
58F
100
AcDbEntity
  8
LAY-1
  6
CONTINUOUS
 62
     3
100
AcDbText
 10
290.324
 20
-50.58
 30
0.0
 40
8.0
  1
品名
 41
0.984714
  7
EXCADSTD
 72
     5
 11
307.516162
 21
-50.58
 31
0.0
100
AcDbText
  0
LINE
  5
590
100
AcDbEntity
  8
LAY-1
  6
CONTINUOUS
 62
     4
100
AcDbLine
 10
286.74
 20
-61.94
 30
0.0
 11
430.1
 21
-61.94
 31
0.0
  0
LINE
  5
591
100
AcDbEntity
  8
LAY-1
  6
CONTINUOUS
 62
     1
100
AcDbLine
 10
286.74
 20
-52.18
 30
0.0
 11
430.1
 21
-52.18
 31
0.0
  0
TEXT
  5
592
100
AcDbEntity
  8
LAY-1
  6
CONTINUOUS
 62
     3
100
AcDbText
 10
337.684
 20
-60.884
 30
0.0
 40
8.0
  1
外観図
 41
1.47392
  7
EXCADSTD
 72
     5
 11
379.796
 21
-60.884
 31
0.0
100
AcDbText
  0
LINE
  5
593
100
AcDbEntity
  8
LAY-1
  6
CONTINUOUS
 62
     4
100
AcDbLine
 10
286.74
 20
-18.58
 30
0.0
 11
430.1
 21
-18.58
 31
0.0
  0
LINE
  5
594
100
AcDbEntity
  8
LAY-1
  6
CONTINUOUS
 62
     1
100
AcDbLine
 10
286.74
 20
-40.98
 30
0.0
 11
430.1
 21
-40.98
 31
0.0
  0
LINE
  5
595
100
AcDbEntity
  8
LAY-1
  6
CONTINUOUS
 62
     1
100
AcDbLine
 10
286.74
 20
-29.78
 30
0.0
 11
430.1
 21
-29.78
 31
0.0
  0
LINE
  5
596
100
AcDbEntity
  8
LAY-1
  6
CONTINUOUS
 62
     1
100
AcDbLine
 10
310.74
 20
-18.58
 30
0.0
 11
310.74
 21
-52.18
 31
0.0
  0
LINE
  5
597
100
AcDbEntity
  8
LAY-1
  6
CONTINUOUS
 62
     4
100
AcDbLine
 10
286.74
 20
-71.7
 30
0.0
 11
430.1
 21
-71.7
 31
0.0
  0
LINE
  5
598
100
AcDbEntity
  8
LAY-1
  6
CONTINUOUS
 62
     4
100
AcDbLine
 10
430.1
 20
-71.7
 30
0.0
 11
430.1
 21
-18.58
 31
0.0
  0
LINE
  5
599
100
AcDbEntity
  8
LAY-1
  6
CONTINUOUS
 62
     4
100
AcDbLine
 10
286.74
 20
-71.7
 30
0.0
 11
286.74
 21
-18.58
 31
0.0
  0
TEXT
  5
59A
100
AcDbEntity
  8
LAY-1
  6
CONTINUOUS
 62
     3
100
AcDbText
 10
287.764
 20
-28.372
 30
0.0
 40
8.0
  1
作成日
 41
0.84
  7
EXCADSTD
 72
     5
 11
311.764
 21
-28.372
 31
0.0
100
AcDbText
  0
TEXT
  5
59B
100
AcDbEntity
  8
LAY-1
  6
CONTINUOUS
 62
     3
100
AcDbText
 10
319.1144
 20
-39.412
 30
0.0
 40
8.0
  1
ＳＧＸ－１５ＮＺＴ
 41
0.84
  7
EXCADSTD
 72
     5
 11
391.1144
 21
-39.412
 31
0.0
100
AcDbText
  0
TEXT
  5
59C
100
AcDbEntity
  8
LAY-1
  6
CONTINUOUS
 62
     3
100
AcDbText
 10
319.7016
 20
-50.5736
 30
0.0
 40
8.0
  1
均圧弁（外部調整タイプ）
 41
0.84
  7
EXCADSTD
 72
     5
 11
415.7016
 21
-50.5736
 31
0.0
100
AcDbText
  0
INSERT
  5
59D
100
AcDbEntity
  8
LAY-1
  6
CONTINUOUS
 62
     0
100
AcDbBlockReference
  2
SYM-1
 10
355.927167
 20
-66.643985
 30
0.0
 41
1.1583
 42
1.1583
  0
TEXT
  5
59E
100
AcDbEntity
  8
LAY-1
  6
CONTINUOUS
 62
     3
100
AcDbText
 10
313.66008
 20
-28.70768
 30
0.0
 40
7.92
  1
２０１４年　４月　１日
 41
0.84
  7
EXCADSTD
 72
     5
 11
400.780081
 21
-28.70768
 31
0.0
100
AcDbText
  0
LINE
  5
59F
100
AcDbEntity
  8
LAY-3
  6
CONTINUOUS
 62
     1
100
AcDbLine
 10
50.5
 20
198.4
 30
0.0
 11
144.5
 21
198.4
 31
0.0
  0
LINE
  5
5A0
100
AcDbEntity
  8
LAY-3
  6
CONTINUOUS
 62
     1
100
AcDbLine
 10
50.5
 20
92.4
 30
0.0
 11
144.5
 21
92.4
 31
0.0
  0
TEXT
  5
5A1
100
AcDbEntity
  8
LAY-3
  6
CONTINUOUS
 62
     3
100
AcDbText
 10
143.0
 20
125.4
 30
0.0
 40
10.0
  1
φ
 50
90.0
 41
0.84
  7
EXCADSTD
 72
     5
 11
143.0
 21
133.4
 31
0.0
100
AcDbText
  0
TEXT
  5
5A2
100
AcDbEntity
  8
LAY-3
  6
CONTINUOUS
 62
     3
100
AcDbText
 10
143.0
 20
135.4
 30
0.0
 40
10.0
  1
１０６
 50
90.0
 41
0.84
  7
EXCADSTD
 72
     5
 11
143.0
 21
165.4
 31
0.0
100
AcDbText
  0
LINE
  5
5A3
100
AcDbEntity
  8
LAY-3
  6
CONTINUOUS
 62
     1
100
AcDbLine
 10
144.0
 20
198.4
 30
0.0
 11
144.0
 21
92.4
 31
0.0
  0
LINE
  5
5A4
100
AcDbEntity
  8
LAY-3
  6
CONTINUOUS
 62
     1
100
AcDbLine
 10
144.666667
 20
194.4
 30
0.0
 11
144.0
 21
198.4
 31
0.0
  0
LINE
  5
5A5
100
AcDbEntity
  8
LAY-3
  6
CONTINUOUS
 62
     1
100
AcDbLine
 10
144.0
 20
198.4
 30
0.0
 11
143.333333
 21
194.4
 31
0.0
  0
LINE
  5
5A6
100
AcDbEntity
  8
LAY-3
  6
CONTINUOUS
 62
     1
100
AcDbLine
 10
143.333333
 20
96.4
 30
0.0
 11
144.0
 21
92.4
 31
0.0
  0
LINE
  5
5A7
100
AcDbEntity
  8
LAY-3
  6
CONTINUOUS
 62
     1
100
AcDbLine
 10
144.0
 20
92.4
 30
0.0
 11
144.666667
 21
96.4
 31
0.0
  0
POLYLINE
  5
5A8
100
AcDbEntity
  8
LAY-3
  6
CONTINUOUS
 62
     1
100
AcDb2dPolyline
 66
     1
 10
0.0
 20
0.0
 30
0.0
 70
   128
  0
VERTEX
  5
5A9
100
AcDbEntity
  8
LAY-3
  6
CONTINUOUS
 62
     1
100
AcDbVertex
100
AcDb2dVertex
 10
23.6
 20
187.9
 30
0.0
  0
VERTEX
  5
5AA
100
AcDbEntity
  8
LAY-3
  6
CONTINUOUS
 62
     1
100
AcDbVertex
100
AcDb2dVertex
 10
52.55
 20
216.85
 30
0.0
  0
VERTEX
  5
5AB
100
AcDbEntity
  8
LAY-3
  6
CONTINUOUS
 62
     1
100
AcDbVertex
100
AcDb2dVertex
 10
103.0
 20
216.85
 30
0.0
  0
SEQEND
  5
5AC
100
AcDbEntity
  8
LAY-3
  6
CONTINUOUS
 62
     1
  0
LINE
  5
5AD
100
AcDbEntity
  8
LAY-3
  6
CONTINUOUS
 62
     1
100
AcDbLine
 10
25.957023
 20
191.199832
 30
0.0
 11
23.6
 21
187.9
 31
0.0
  0
LINE
  5
5AE
100
AcDbEntity
  8
LAY-3
  6
CONTINUOUS
 62
     1
100
AcDbLine
 10
23.6
 20
187.9
 30
0.0
 11
26.899832
 21
190.257023
 31
0.0
  0
TEXT
  5
5AF
100
AcDbEntity
  8
LAY-3
  6
CONTINUOUS
 62
     3
100
AcDbText
 10
52.775
 20
217.15
 30
0.0
 40
10.0
  1
Ｒｃ１／２
 41
0.84
  7
EXCADSTD
 72
     5
 11
102.775
 21
217.15
 31
0.0
100
AcDbText
  0
POLYLINE
  5
5B0
100
AcDbEntity
  8
LAY-3
  6
CONTINUOUS
 62
     1
100
AcDb2dPolyline
 66
     1
 10
0.0
 20
0.0
 30
0.0
 70
   128
  0
VERTEX
  5
5B1
100
AcDbEntity
  8
LAY-3
  6
CONTINUOUS
 62
     1
100
AcDbVertex
100
AcDb2dVertex
 10
70.138188
 20
154.55458
 30
0.0
  0
VERTEX
  5
5B2
100
AcDbEntity
  8
LAY-3
  6
CONTINUOUS
 62
     1
100
AcDbVertex
100
AcDb2dVertex
 10
81.192537
 20
173.701274
 30
0.0
  0
VERTEX
  5
5B3
100
AcDbEntity
  8
LAY-3
  6
CONTINUOUS
 62
     1
100
AcDbVertex
100
AcDb2dVertex
 10
129.7
 20
173.701274
 30
0.0
  0
SEQEND
  5
5B4
100
AcDbEntity
  8
LAY-3
  6
CONTINUOUS
 62
     1
  0
LINE
  5
5B5
100
AcDbEntity
  8
LAY-3
  6
CONTINUOUS
 62
     1
100
AcDbLine
 10
71.560838
 20
158.352015
 30
0.0
 11
70.138188
 21
154.55458
 31
0.0
  0
LINE
  5
5B6
100
AcDbEntity
  8
LAY-3
  6
CONTINUOUS
 62
     1
100
AcDbLine
 10
70.138188
 20
154.55458
 30
0.0
 11
72.715538
 21
157.685349
 31
0.0
  0
TEXT
  5
5B7
100
AcDbEntity
  8
LAY-3
  6
CONTINUOUS
 62
     3
100
AcDbText
 10
80.446268
 20
174.001274
 30
0.0
 40
10.0
  1
Ｒｃ１／２
 41
0.84
  7
EXCADSTD
 72
     5
 11
130.446268
 21
174.001274
 31
0.0
100
AcDbText
  0
POLYLINE
  5
5B8
100
AcDbEntity
  8
LAY-3
  6
CONTINUOUS
 62
     1
100
AcDb2dPolyline
 66
     1
 10
0.0
 20
0.0
 30
0.0
 70
   128
  0
VERTEX
  5
5B9
100
AcDbEntity
  8
LAY-3
  6
CONTINUOUS
 62
     1
100
AcDbVertex
100
AcDb2dVertex
 10
23.6
 20
102.9
 30
0.0
  0
VERTEX
  5
5BA
100
AcDbEntity
  8
LAY-3
  6
CONTINUOUS
 62
     1
100
AcDbVertex
100
AcDb2dVertex
 10
54.5
 20
72.0
 30
0.0
  0
VERTEX
  5
5BB
100
AcDbEntity
  8
LAY-3
  6
CONTINUOUS
 62
     1
100
AcDbVertex
100
AcDb2dVertex
 10
103.0
 20
72.0
 30
0.0
  0
SEQEND
  5
5BC
100
AcDbEntity
  8
LAY-3
  6
CONTINUOUS
 62
     1
  0
LINE
  5
5BD
100
AcDbEntity
  8
LAY-3
  6
CONTINUOUS
 62
     1
100
AcDbLine
 10
26.899832
 20
100.542977
 30
0.0
 11
23.6
 21
102.9
 31
0.0
  0
LINE
  5
5BE
100
AcDbEntity
  8
LAY-3
  6
CONTINUOUS
 62
     1
100
AcDbLine
 10
23.6
 20
102.9
 30
0.0
 11
25.957023
 21
99.600168
 31
0.0
  0
TEXT
  5
5BF
100
AcDbEntity
  8
LAY-3
  6
CONTINUOUS
 62
     3
100
AcDbText
 10
53.75
 20
72.3
 30
0.0
 40
10.0
  1
Ｒｃ１／２
 41
0.84
  7
EXCADSTD
 72
     5
 11
103.75
 21
72.3
 31
0.0
100
AcDbText
  0
LINE
  5
5C0
100
AcDbEntity
  8
LAY-3
  6
CONTINUOUS
 62
     1
100
AcDbLine
 10
109.5
 20
145.4
 30
0.0
 11
109.5
 21
47.5
 31
0.0
  0
LINE
  5
5C1
100
AcDbEntity
  8
LAY-3
  6
CONTINUOUS
 62
     1
100
AcDbLine
 10
20.0
 20
95.1
 30
0.0
 11
20.0
 21
47.5
 31
0.0
  0
TEXT
  5
5C2
100
AcDbEntity
  8
LAY-3
  6
CONTINUOUS
 62
     3
100
AcDbText
 10
47.25
 20
49.0
 30
0.0
 40
10.0
  1
８９.５
 41
0.77
  7
EXCADSTD
 72
     5
 11
82.25
 21
49.0
 31
0.0
100
AcDbText
  0
LINE
  5
5C3
100
AcDbEntity
  8
LAY-3
  6
CONTINUOUS
 62
     1
100
AcDbLine
 10
109.5
 20
48.0
 30
0.0
 11
20.0
 21
48.0
 31
0.0
  0
LINE
  5
5C4
100
AcDbEntity
  8
LAY-3
  6
CONTINUOUS
 62
     1
100
AcDbLine
 10
105.5
 20
47.333333
 30
0.0
 11
109.5
 21
48.0
 31
0.0
  0
LINE
  5
5C5
100
AcDbEntity
  8
LAY-3
  6
CONTINUOUS
 62
     1
100
AcDbLine
 10
109.5
 20
48.0
 30
0.0
 11
105.5
 21
48.666667
 31
0.0
  0
LINE
  5
5C6
100
AcDbEntity
  8
LAY-3
  6
CONTINUOUS
 62
     1
100
AcDbLine
 10
24.0
 20
48.666667
 30
0.0
 11
20.0
 21
48.0
 31
0.0
  0
LINE
  5
5C7
100
AcDbEntity
  8
LAY-3
  6
CONTINUOUS
 62
     1
100
AcDbLine
 10
20.0
 20
48.0
 30
0.0
 11
24.0
 21
47.333333
 31
0.0
  0
LINE
  5
5C8
100
AcDbEntity
  8
LAY-3
  6
CONTINUOUS
 62
     1
100
AcDbLine
 10
20.0
 20
95.1
 30
0.0
 11
20.0
 21
47.5
 31
0.0
  0
LINE
  5
5C9
100
AcDbEntity
  8
LAY-3
  6
CONTINUOUS
 62
     1
100
AcDbLine
 10
-5.0
 20
145.4
 30
0.0
 11
-5.0
 21
47.5
 31
0.0
  0
TEXT
  5
5CA
100
AcDbEntity
  8
LAY-3
  6
CONTINUOUS
 62
     3
100
AcDbText
 10
-2.5
 20
49.0
 30
0.0
 40
10.0
  1
２５
 41
0.84
  7
EXCADSTD
 72
     5
 11
15.832
 21
49.0
 31
0.0
100
AcDbText
  0
LINE
  5
5CB
100
AcDbEntity
  8
LAY-3
  6
CONTINUOUS
 62
     1
100
AcDbLine
 10
20.0
 20
48.0
 30
0.0
 11
-5.0
 21
48.0
 31
0.0
  0
LINE
  5
5CC
100
AcDbEntity
  8
LAY-3
  6
CONTINUOUS
 62
     1
100
AcDbLine
 10
16.0
 20
47.333333
 30
0.0
 11
20.0
 21
48.0
 31
0.0
  0
LINE
  5
5CD
100
AcDbEntity
  8
LAY-3
  6
CONTINUOUS
 62
     1
100
AcDbLine
 10
20.0
 20
48.0
 30
0.0
 11
16.0
 21
48.666667
 31
0.0
  0
LINE
  5
5CE
100
AcDbEntity
  8
LAY-3
  6
CONTINUOUS
 62
     1
100
AcDbLine
 10
-1.0
 20
48.666667
 30
0.0
 11
-5.0
 21
48.0
 31
0.0
  0
LINE
  5
5CF
100
AcDbEntity
  8
LAY-3
  6
CONTINUOUS
 62
     1
100
AcDbLine
 10
-5.0
 20
48.0
 30
0.0
 11
-1.0
 21
47.333333
 31
0.0
  0
LINE
  5
5D0
100
AcDbEntity
  8
LAY-3
  6
CONTINUOUS
 62
     1
100
AcDbLine
 10
4.5
 20
187.9
 30
0.0
 11
-32.5
 21
187.9
 31
0.0
  0
LINE
  5
5D1
100
AcDbEntity
  8
LAY-3
  6
CONTINUOUS
 62
     1
100
AcDbLine
 10
4.5
 20
102.9
 30
0.0
 11
-32.5
 21
102.9
 31
0.0
  0
TEXT
  5
5D2
100
AcDbEntity
  8
LAY-3
  6
CONTINUOUS
 62
     3
100
AcDbText
 10
-33.0
 20
135.4
 30
0.0
 40
10.0
  1
８５
 50
90.0
 41
0.84
  7
EXCADSTD
 72
     5
 11
-33.0
 21
153.732
 31
0.0
100
AcDbText
  0
LINE
  5
5D3
100
AcDbEntity
  8
LAY-3
  6
CONTINUOUS
 62
     1
100
AcDbLine
 10
-32.0
 20
187.9
 30
0.0
 11
-32.0
 21
102.9
 31
0.0
  0
LINE
  5
5D4
100
AcDbEntity
  8
LAY-3
  6
CONTINUOUS
 62
     1
100
AcDbLine
 10
-31.333333
 20
183.9
 30
0.0
 11
-32.0
 21
187.9
 31
0.0
  0
LINE
  5
5D5
100
AcDbEntity
  8
LAY-3
  6
CONTINUOUS
 62
     1
100
AcDbLine
 10
-32.0
 20
187.9
 30
0.0
 11
-32.666667
 21
183.9
 31
0.0
  0
LINE
  5
5D6
100
AcDbEntity
  8
LAY-3
  6
CONTINUOUS
 62
     1
100
AcDbLine
 10
-32.666667
 20
106.9
 30
0.0
 11
-32.0
 21
102.9
 31
0.0
  0
LINE
  5
5D7
100
AcDbEntity
  8
LAY-3
  6
CONTINUOUS
 62
     1
100
AcDbLine
 10
-32.0
 20
102.9
 30
0.0
 11
-31.333333
 21
106.9
 31
0.0
  0
LINE
  5
5D8
100
AcDbEntity
  8
LAY-3
  6
CONTINUOUS
 62
     2
100
AcDbLine
 10
23.0
 20
94.3
 30
0.0
 11
20.0
 21
97.3
 31
0.0
  0
LINE
  5
5D9
100
AcDbEntity
  8
LAY-3
  6
CONTINUOUS
 62
     2
100
AcDbLine
 10
21.5
 20
94.3
 30
0.0
 11
21.5
 21
87.3
 31
0.0
  0
LINE
  5
5DA
100
AcDbEntity
  8
LAY-3
  6
CONTINUOUS
 62
     2
100
AcDbLine
 10
21.5
 20
87.3
 30
0.0
 11
20.0
 21
87.3
 31
0.0
  0
LINE
  5
5DB
100
AcDbEntity
  8
LAY-3
  6
CONTINUOUS
 62
     2
100
AcDbLine
 10
23.0
 20
94.3
 30
0.0
 11
21.5
 21
94.3
 31
0.0
  0
LINE
  5
5DC
100
AcDbEntity
  8
LAY-3
  6
CONTINUOUS
 62
     2
100
AcDbLine
 10
17.0
 20
94.3
 30
0.0
 11
20.0
 21
97.3
 31
0.0
  0
LINE
  5
5DD
100
AcDbEntity
  8
LAY-3
  6
CONTINUOUS
 62
     2
100
AcDbLine
 10
18.5
 20
94.3
 30
0.0
 11
18.5
 21
87.3
 31
0.0
  0
LINE
  5
5DE
100
AcDbEntity
  8
LAY-3
  6
CONTINUOUS
 62
     2
100
AcDbLine
 10
18.5
 20
87.3
 30
0.0
 11
20.0
 21
87.3
 31
0.0
  0
LINE
  5
5DF
100
AcDbEntity
  8
LAY-3
  6
CONTINUOUS
 62
     2
100
AcDbLine
 10
17.0
 20
94.3
 30
0.0
 11
18.5
 21
94.3
 31
0.0
  0
LINE
  5
5E0
100
AcDbEntity
  8
LAY-3
  6
CONTINUOUS
 62
     2
100
AcDbLine
 10
23.0
 20
202.7
 30
0.0
 11
20.0
 21
205.7
 31
0.0
  0
LINE
  5
5E1
100
AcDbEntity
  8
LAY-3
  6
CONTINUOUS
 62
     2
100
AcDbLine
 10
21.5
 20
202.7
 30
0.0
 11
21.5
 21
195.7
 31
0.0
  0
LINE
  5
5E2
100
AcDbEntity
  8
LAY-3
  6
CONTINUOUS
 62
     2
100
AcDbLine
 10
21.5
 20
195.7
 30
0.0
 11
20.0
 21
195.7
 31
0.0
  0
LINE
  5
5E3
100
AcDbEntity
  8
LAY-3
  6
CONTINUOUS
 62
     2
100
AcDbLine
 10
23.0
 20
202.7
 30
0.0
 11
21.5
 21
202.7
 31
0.0
  0
LINE
  5
5E4
100
AcDbEntity
  8
LAY-3
  6
CONTINUOUS
 62
     2
100
AcDbLine
 10
17.0
 20
202.7
 30
0.0
 11
20.0
 21
205.7
 31
0.0
  0
LINE
  5
5E5
100
AcDbEntity
  8
LAY-3
  6
CONTINUOUS
 62
     2
100
AcDbLine
 10
18.5
 20
202.7
 30
0.0
 11
18.5
 21
195.7
 31
0.0
  0
LINE
  5
5E6
100
AcDbEntity
  8
LAY-3
  6
CONTINUOUS
 62
     2
100
AcDbLine
 10
18.5
 20
195.7
 30
0.0
 11
20.0
 21
195.7
 31
0.0
  0
LINE
  5
5E7
100
AcDbEntity
  8
LAY-3
  6
CONTINUOUS
 62
     2
100
AcDbLine
 10
17.0
 20
202.7
 30
0.0
 11
18.5
 21
202.7
 31
0.0
  0
ENDSEC
  0
SECTION
  2
OBJECTS
  0
DICTIONARY
  5
19
100
AcDbDictionary
  3
ACAD_GROUP
350
1A
  3
ACAD_MLINESTYLE
350
1B
  0
DICTIONARY
  5
1A
102
{ACAD_REACTORS
330
19
102
}
100
AcDbDictionary
  0
DICTIONARY
  5
1B
102
{ACAD_REACTORS
330
19
102
}
100
AcDbDictionary
  3
STANDARD
350
1C
  0
MLINESTYLE
  5
1C
102
{ACAD_REACTORS
330
1B
102
}
100
AcDbMlineStyle
  2
Standard
 70
     0
  3

 62
     0
 51
90.0
 52
90.0
 71
     2
 49
0.5
 62
   256
  6
ByLayer
 49
-0.5
 62
   256
  6
ByLayer
  0
ENDSEC
  0
EOF
