  0
SECTION
  2
HEADER
  9
$ACADVER
  1
AC1014
  9
$ACADMAINTVER
 70
     0
  9
$DWGCODEPAGE
  3
ANSI_932
  9
$INSBASE
 10
0.0
 20
0.0
 30
0.0
  9
$EXTMIN
 10
-91.0
 20
-134.934326
 30
0.0
  9
$EXTMAX
 10
479.813176
 20
418.665674
 30
0.0
  9
$LIMMIN
 10
0.0
 20
0.0
  9
$LIMMAX
 10
420.0
 20
297.0
  9
$ORTHOMODE
 70
     0
  9
$REGENMODE
 70
     1
  9
$FILLMODE
 70
     1
  9
$QTEXTMODE
 70
     0
  9
$MIRRTEXT
 70
     1
  9
$DRAGMODE
 70
     2
  9
$LTSCALE
 40
1.0
  9
$OSMODE
 70
     0
  9
$ATTMODE
 70
     1
  9
$TEXTSIZE
 40
0.2
  9
$TRACEWID
 40
0.05
  9
$TEXTSTYLE
  7
STANDARD
  9
$CLAYER
  8
LAY-1
  9
$CELTYPE
  6
CONTINUOUS
  9
$CECOLOR
 62
   256
  9
$CELTSCALE
 40
1.0
  9
$DELOBJ
 70
     1
  9
$DISPSILH
 70
     0
  9
$DIMSCALE
 40
1.0
  9
$DIMASZ
 40
0.18
  9
$DIMEXO
 40
0.0625
  9
$DIMDLI
 40
0.38
  9
$DIMRND
 40
0.0
  9
$DIMDLE
 40
0.0
  9
$DIMEXE
 40
0.18
  9
$DIMTP
 40
0.0
  9
$DIMTM
 40
0.0
  9
$DIMTXT
 40
0.18
  9
$DIMCEN
 40
0.09
  9
$DIMTSZ
 40
0.0
  9
$DIMTOL
 70
     0
  9
$DIMLIM
 70
     0
  9
$DIMTIH
 70
     1
  9
$DIMTOH
 70
     1
  9
$DIMSE1
 70
     0
  9
$DIMSE2
 70
     0
  9
$DIMTAD
 70
     0
  9
$DIMZIN
 70
     0
  9
$DIMBLK
  1

  9
$DIMASO
 70
     1
  9
$DIMSHO
 70
     1
  9
$DIMPOST
  1

  9
$DIMAPOST
  1

  9
$DIMALT
 70
     0
  9
$DIMALTD
 70
     2
  9
$DIMALTF
 40
25.4
  9
$DIMLFAC
 40
1.0
  9
$DIMTOFL
 70
     0
  9
$DIMTVP
 40
0.0
  9
$DIMTIX
 70
     0
  9
$DIMSOXD
 70
     0
  9
$DIMSAH
 70
     0
  9
$DIMBLK1
  1

  9
$DIMBLK2
  1

  9
$DIMSTYLE
  2
STANDARD
  9
$DIMCLRD
 70
     0
  9
$DIMCLRE
 70
     0
  9
$DIMCLRT
 70
     0
  9
$DIMTFAC
 40
1.0
  9
$DIMGAP
 40
0.09
  9
$DIMJUST
 70
     0
  9
$DIMSD1
 70
     0
  9
$DIMSD2
 70
     0
  9
$DIMTOLJ
 70
     1
  9
$DIMTZIN
 70
     0
  9
$DIMALTZ
 70
     0
  9
$DIMALTTZ
 70
     0
  9
$DIMFIT
 70
     3
  9
$DIMUPT
 70
     0
  9
$DIMUNIT
 70
     2
  9
$DIMDEC
 70
     4
  9
$DIMTDEC
 70
     4
  9
$DIMALTU
 70
     2
  9
$DIMALTTD
 70
     2
  9
$DIMTXSTY
  7
STANDARD
  9
$DIMAUNIT
 70
     0
  9
$LUNITS
 70
     2
  9
$LUPREC
 70
     4
  9
$SKETCHINC
 40
0.1
  9
$FILLETRAD
 40
0.0
  9
$AUNITS
 70
     0
  9
$AUPREC
 70
     0
  9
$MENU
  1
acad
  9
$ELEVATION
 40
0.0
  9
$PELEVATION
 40
0.0
  9
$THICKNESS
 40
0.0
  9
$LIMCHECK
 70
     0
  9
$BLIPMODE
 70
     1
  9
$CHAMFERA
 40
0.0
  9
$CHAMFERB
 40
0.0
  9
$CHAMFERC
 40
0.0
  9
$CHAMFERD
 40
0.0
  9
$SKPOLY
 70
     0
  9
$TDCREATE
 40
2456723.144865185
  9
$TDUPDATE
 40
2456723.144865185
  9
$TDINDWG
 40
0.0000000000
  9
$TDUSRTIMER
 40
0.0000000000
  9
$USRTIMER
 70
     1
  9
$ANGBASE
 50
0.0
  9
$ANGDIR
 70
     0
  9
$PDMODE
 70
     0
  9
$PDSIZE
 40
0.0
  9
$PLINEWID
 40
0.0
  9
$COORDS
 70
     1
  9
$SPLFRAME
 70
     0
  9
$SPLINETYPE
 70
     6
  9
$SPLINESEGS
 70
     8
  9
$ATTDIA
 70
     0
  9
$ATTREQ
 70
     1
  9
$HANDLING
 70
     1
  9
$HANDSEED
  5
5A9
  9
$SURFTAB1
 70
     6
  9
$SURFTAB2
 70
     6
  9
$SURFTYPE
 70
     6
  9
$SURFU
 70
     6
  9
$SURFV
 70
     6
  9
$UCSNAME
  2

  9
$UCSORG
 10
0.0
 20
0.0
 30
0.0
  9
$UCSXDIR
 10
1.0
 20
0.0
 30
0.0
  9
$UCSYDIR
 10
0.0
 20
1.0
 30
0.0
  9
$PUCSNAME
  2

  9
$PUCSORG
 10
0.0
 20
0.0
 30
0.0
  9
$PUCSXDIR
 10
1.0
 20
0.0
 30
0.0
  9
$PUCSYDIR
 10
0.0
 20
1.0
 30
0.0
  9
$USERI1
 70
     0
  9
$USERI2
 70
     0
  9
$USERI3
 70
     0
  9
$USERI4
 70
     0
  9
$USERI5
 70
     0
  9
$USERR1
 40
0.0
  9
$USERR2
 40
0.0
  9
$USERR3
 40
0.0
  9
$USERR4
 40
0.0
  9
$USERR5
 40
0.0
  9
$WORLDVIEW
 70
     1
  9
$SHADEDGE
 70
     3
  9
$SHADEDIF
 70
    70
  9
$TILEMODE
 70
     1
  9
$MAXACTVP
 70
    16
  9
$PINSBASE
 10
0.0
 20
0.0
 30
0.0
  9
$PLIMCHECK
 70
     0
  9
$PEXTMIN
 10
1.000000E+20
 20
1.000000E+20
 30
1.000000E+20
  9
$PEXTMAX
 10
-1.000000E+20
 20
-1.000000E+20
 30
-1.000000E+20
  9
$PLIMMIN
 10
0.0
 20
0.0
  9
$PLIMMAX
 10
12.0
 20
9.0
  9
$UNITMODE
 70
     0
  9
$VISRETAIN
 70
     0
  9
$PLINEGEN
 70
     1
  9
$PSLTSCALE
 70
     0
  9
$TREEDEPTH
 70
  3020
  9
$PICKSTYLE
 70
     1
  9
$CMLSTYLE
  2
Standard
  9
$CMLJUST
 70
     0
  9
$CMLSCALE
 40
1.0
  9
$PROXYGRAPHICS
 70
     0
  9
$MEASUREMENT
 70
     0
  0
ENDSEC
  0
SECTION
  2
CLASSES
  0
CLASS
  1
LWPOLYLINE
  2
AcDbPolyline
  3
"AutoCAD"
 90
        0
280
     0
281
     1
  0
CLASS
  1
IMAGE
  2
AcDbRasterImage
  3
ISM
 90
      127
280
     0
281
     1
  0
CLASS
  1
OLE2FRAME
  2
AcDbOle2Frame
  3
""
 90
        0
280
     0
281
     1
  0
CLASS
  1
HATCH
  2
AcDbHatch
  3
"ACAD_SEDONA"
 90
        0
280
     0
281
     1
  0
CLASS
  1
DICTIONARYVAR
  2
AcDbDictionaryVar
  3
"AutoCAD"
 90
        0
280
     0
281
     0
  0
CLASS
  1
RASTERVARIABLES
  2
AcDbRasterVariables
  3
ISM
 90
        0
280
     0
281
     0
  0
CLASS
  1
IMAGEDEF
  2
AcDbRasterImageDef
  3
ISM
 90
        0
280
     0
281
     0
  0
CLASS
  1
IMAGEDEF_REACTOR
  2
AcDbRasterImageDefReactor
  3
ISM
 90
        1
280
     0
281
     0
  0
CLASS
  1
IDBUFFER
  2
AcDbIdBuffer
  3
"Acad"
 90
        0
280
     0
281
     0
  0
CLASS
  1
SPATIAL_FILTER
  2
AcDbSpatialFilter
  3
"Acad"
 90
        0
280
     0
281
     0
  0
CLASS
  1
XRECORD
  2
AcDbXrecord
  3
"<Built In>"
 90
        0
280
     0
281
     0
  0
CLASS
  1
SORTENTSTABLE
  2
AcDbSortentsTable
  3
"AutoCAD"
 90
        0
280
     0
281
     0
  0
CLASS
  1
LAYER_INDEX
  2
AcDbLayerIndex
  3
"Acad"
 90
        0
280
     0
281
     0
  0
CLASS
  1
SPATIAL_INDEX
  2
AcDbSpatialIndex
  3
"Acad"
 90
        0
280
     0
281
     0
  0
CLASS
  1
OBJECT_PTR
  2
CAseDLPNTableRecord
  3
"ASE-LPNTableRecord"
 90
        1
280
     0
281
     0
  0
CLASS
  1
LAYOUT
  2
AcDbLayout
  3
"AutoCAD 2000"
 90
        0
280
     0
281
     0
  0
CLASS
  1
PLOTSETTINGS
  2
AcDbPlotSettings
  3
"AutoCAD 2000"
 90
        0
280
     0
281
     0
  0
CLASS
  1
ACDBDICTIONARYWDFLT
  2
AcDbDictionaryWithDefault
  3
"AutoCAD 2000"
 90
        0
280
     0
281
     0
  0
CLASS
  1
ACDBPLACEHOLDER
  2
AcDbPlaceHolder
  3
"AutoCAD 2000"
 90
        0
280
     0
281
     0
  0
CLASS
  1
VBA_PROJECT
  2
AcDbVbaProject
  3
"acadvba"
 90
        0
280
     0
281
     0
  0
CLASS
  1
WIPEOUT
  2
AcDbWipeout
  3
WipeOut|AutoCAD Express Tool|expresstools@autodesk.com
 90
      127
280
     0
281
     1
  0
CLASS
  1
WIPEOUTVARIABLES
  2
AcDbWipeoutVariables
  3
WipeOut|AutoCAD Express Tool|expresstools@autodesk.com
 90
        0
280
     0
281
     0
  0
CLASS
  1
RTEXT
  2
RText
  3
RText|AutoCAD Express Tool|expresstools@autodesk.com
 90
        0
280
     0
281
     1
  0
CLASS
  1
ARCALIGNEDTEXT
  2
AcDbArcAlignedText
  3
ATEXT|AutoCAD Express Tool|expresstools@autodesk.com
 90
        0
280
     0
281
     1
  0
ENDSEC
  0
SECTION
  2
TABLES
  0
TABLE
  2
VPORT
  5
7
100
AcDbSymbolTable
 70
     1
  0
VPORT
  5
15
100
AcDbSymbolTableRecord
100
AcDbViewportTableRecord
  2
*ACTIVE
 70
     0
 10
0.0
 20
0.0
 11
1.0
 21
1.0
 12
194.406588
 22
141.865674
 13
0.0
 23
0.0
 14
1.0
 24
1.0
 15
0.0
 25
0.0
 16
0.0
 26
0.0
 36
1.0
 17
0.0
 27
0.0
 37
0.0
 40
553.6
 41
1.722533
 42
50.0
 43
0.0
 44
0.0
 50
0.0
 51
0.0
 71
     0
 72
  1000
 73
     1
 74
     1
 75
     0
 76
     0
 77
     0
 78
     0
  0
ENDTAB
  0
TABLE
  2
LTYPE
  5
4
100
AcDbSymbolTable
 70
     9
  0
LTYPE
  5
11
100
AcDbSymbolTableRecord
100
AcDbLinetypeTableRecord
  2
BYBLOCK
 70
    64
  3

 72
    65
 73
     0
 40
0.0
  0
LTYPE
  5
12
100
AcDbSymbolTableRecord
100
AcDbLinetypeTableRecord
  2
BYLAYER
 70
    64
  3

 72
    65
 73
     0
 40
0.0
  0
LTYPE
  5
13
100
AcDbSymbolTableRecord
100
AcDbLinetypeTableRecord
  2
CONTINUOUS
 70
    64
  3
実線
 72
    65
 73
     0
 40
0.0
  0
LTYPE
  5
1D
100
AcDbSymbolTableRecord
100
AcDbLinetypeTableRecord
  2
EXLTYPE1
 70
    64
  3
破線
 72
    65
 73
     2
 40
4.0
 49
2.0
 74
     0
 49
-2.0
 74
     0
  0
LTYPE
  5
1E
100
AcDbSymbolTableRecord
100
AcDbLinetypeTableRecord
  2
EXLTYPE2
 70
    64
  3
点線
 72
    65
 73
     2
 40
2.0
 49
1.0
 74
     0
 49
-1.0
 74
     0
  0
LTYPE
  5
1F
100
AcDbSymbolTableRecord
100
AcDbLinetypeTableRecord
  2
EXLTYPE3
 70
    64
  3
一点鎖線
 72
    65
 73
     4
 40
33.0
 49
30.0
 74
     0
 49
-1.0
 74
     0
 49
1.0
 74
     0
 49
-1.0
 74
     0
  0
LTYPE
  5
20
100
AcDbSymbolTableRecord
100
AcDbLinetypeTableRecord
  2
EXLTYPE4
 70
    64
  3
二点鎖線
 72
    65
 73
     6
 40
35.0
 49
30.0
 74
     0
 49
-1.0
 74
     0
 49
1.0
 74
     0
 49
-1.0
 74
     0
 49
1.0
 74
     0
 49
-1.0
 74
     0
  0
LTYPE
  5
21
100
AcDbSymbolTableRecord
100
AcDbLinetypeTableRecord
  2
EXLTYPE5
 70
    64
  3
三点鎖線
 72
    65
 73
     8
 40
37.0
 49
30.0
 74
     0
 49
-1.0
 74
     0
 49
1.0
 74
     0
 49
-1.0
 74
     0
 49
1.0
 74
     0
 49
-1.0
 74
     0
 49
1.0
 74
     0
 49
-1.0
 74
     0
  0
LTYPE
  5
22
100
AcDbSymbolTableRecord
100
AcDbLinetypeTableRecord
  2
EXLTYPE6
 70
    64
  3
四点鎖線
 72
    65
 73
    10
 40
39.0
 49
30.0
 74
     0
 49
-1.0
 74
     0
 49
1.0
 74
     0
 49
-1.0
 74
     0
 49
1.0
 74
     0
 49
-1.0
 74
     0
 49
1.0
 74
     0
 49
-1.0
 74
     0
 49
1.0
 74
     0
 49
-1.0
 74
     0
  0
ENDTAB
  0
TABLE
  2
LAYER
  5
2
100
AcDbSymbolTable
 70
     4
  0
LAYER
  5
14
100
AcDbSymbolTableRecord
100
AcDbLayerTableRecord
  2
0
 70
     0
 62
     7
  6
CONTINUOUS
  0
LAYER
  5
25
100
AcDbSymbolTableRecord
100
AcDbLayerTableRecord
  2
LAY-1
 70
    64
 62
     7
  6
CONTINUOUS
  0
LAYER
  5
26
100
AcDbSymbolTableRecord
100
AcDbLayerTableRecord
  2
LAY-3
 70
    64
 62
     1
  6
CONTINUOUS
  0
LAYER
  5
27
100
AcDbSymbolTableRecord
100
AcDbLayerTableRecord
  2
LAY-5
 70
    64
 62
     7
  6
CONTINUOUS
  0
ENDTAB
  0
TABLE
  2
STYLE
  5
3
100
AcDbSymbolTable
 70
     3
  0
STYLE
  5
17
100
AcDbSymbolTableRecord
100
AcDbTextStyleTableRecord
  2
STANDARD
 70
     0
 40
0.0
 41
1.0
 50
0.0
 71
     0
 42
0.0
  3
monotxt
  4
extfont
  0
STYLE
  5
23
100
AcDbSymbolTableRecord
100
AcDbTextStyleTableRecord
  2
EXCADSTD
 70
    64
 40
0.0
 41
1.0
 50
0.0
 71
     0
 42
0.2
  3
monotxt
  4
extfont
  0
STYLE
  5
24
100
AcDbSymbolTableRecord
100
AcDbTextStyleTableRecord
  2
EXCADVERT
 70
    68
 40
0.0
 41
1.0
 50
0.0
 71
     0
 42
0.286885
  3
monotxt
  4
extfont
  0
ENDTAB
  0
TABLE
  2
VIEW
  5
5
100
AcDbSymbolTable
 70
     0
  0
ENDTAB
  0
TABLE
  2
UCS
  5
6
100
AcDbSymbolTable
 70
     0
  0
ENDTAB
  0
TABLE
  2
APPID
  5
8
100
AcDbSymbolTable
 70
     1
  0
APPID
  5
16
100
AcDbSymbolTableRecord
100
AcDbRegAppTableRecord
  2
ACAD
 70
     0
  0
ENDTAB
  0
TABLE
  2
DIMSTYLE
  5
9
100
AcDbSymbolTable
 70
     1
  0
DIMSTYLE
105
18
100
AcDbSymbolTableRecord
100
AcDbDimStyleTableRecord
  2
STANDARD
 70
     0
  3

  4

  5

  6

  7

 40
1.0
 41
0.18
 42
0.0625
 43
0.38
 44
0.18
 45
0.0
 46
0.0
 47
0.0
 48
0.0
 71
     0
 72
     0
 73
     1
 74
     1
 75
     0
 76
     0
 77
     0
 78
     0
140
0.18
141
0.09
142
0.0
143
25.4
144
1.0
145
0.0
146
1.0
147
0.09
170
     0
171
     2
172
     1
173
     0
174
     0
175
     0
176
     0
177
     0
178
     0
270
     2
271
     4
272
     4
273
     2
274
     2
275
     0
280
     0
281
     0
282
     0
283
     1
284
     0
285
     0
286
     0
287
     3
288
     0
340
17
  0
ENDTAB
  0
TABLE
  2
BLOCK_RECORD
  5
1
100
AcDbSymbolTable
 70
    15
  0
BLOCK_RECORD
  5
A
100
AcDbSymbolTableRecord
100
AcDbBlockTableRecord
  2
*MODEL_SPACE
  0
BLOCK_RECORD
  5
B
100
AcDbSymbolTableRecord
100
AcDbBlockTableRecord
  2
*PAPER_SPACE
  0
BLOCK_RECORD
  5
28
100
AcDbSymbolTableRecord
100
AcDbBlockTableRecord
  2
_EX_NORM
  0
BLOCK_RECORD
  5
29
100
AcDbSymbolTableRecord
100
AcDbBlockTableRecord
  2
_EX_BNORM
  0
BLOCK_RECORD
  5
2A
100
AcDbSymbolTableRecord
100
AcDbBlockTableRecord
  2
_EX_BCIR
  0
BLOCK_RECORD
  5
2B
100
AcDbSymbolTableRecord
100
AcDbBlockTableRecord
  2
_EX_RCIVIL
  0
BLOCK_RECORD
  5
2C
100
AcDbSymbolTableRecord
100
AcDbBlockTableRecord
  2
_EX_SLANT
  0
BLOCK_RECORD
  5
2D
100
AcDbSymbolTableRecord
100
AcDbBlockTableRecord
  2
_EX_NONE
  0
BLOCK_RECORD
  5
2E
100
AcDbSymbolTableRecord
100
AcDbBlockTableRecord
  2
_EX_CIVIL
  0
BLOCK_RECORD
  5
2F
100
AcDbSymbolTableRecord
100
AcDbBlockTableRecord
  2
_EX_WCIR
  0
BLOCK_RECORD
  5
30
100
AcDbSymbolTableRecord
100
AcDbBlockTableRecord
  2
_EX_WCIR2
  0
BLOCK_RECORD
  5
31
100
AcDbSymbolTableRecord
100
AcDbBlockTableRecord
  2
_EX_WNORM
  0
BLOCK_RECORD
  5
32
100
AcDbSymbolTableRecord
100
AcDbBlockTableRecord
  2
_EX_NNORM
  0
BLOCK_RECORD
  5
33
100
AcDbSymbolTableRecord
100
AcDbBlockTableRecord
  2
_EX_BBOX
  0
BLOCK_RECORD
  5
34
100
AcDbSymbolTableRecord
100
AcDbBlockTableRecord
  2
_EX_WBOX
  0
BLOCK_RECORD
  5
35
100
AcDbSymbolTableRecord
100
AcDbBlockTableRecord
  2
_EX_INTEGRAL
  0
BLOCK_RECORD
  5
36
100
AcDbSymbolTableRecord
100
AcDbBlockTableRecord
  2
SYM-1
  0
ENDTAB
  0
ENDSEC
  0
SECTION
  2
BLOCKS
  0
BLOCK
  5
D
100
AcDbEntity
  8
0
100
AcDbBlockBegin
  2
*MODEL_SPACE
 70
     0
 10
0.0
 20
0.0
 30
0.0
  3
*MODEL_SPACE
  1

  0
ENDBLK
  5
E
100
AcDbEntity
  8
0
100
AcDbBlockEnd
  0
BLOCK
  5
F
100
AcDbEntity
 67
     1
  8
0
100
AcDbBlockBegin
  2
*PAPER_SPACE
 70
     0
 10
0.0
 20
0.0
 30
0.0
  3
*PAPER_SPACE
  1

  0
ENDBLK
  5
10
100
AcDbEntity
 67
     1
  8
0
100
AcDbBlockEnd
  0
BLOCK
  5
37
100
AcDbEntity
  8
0
100
AcDbBlockBegin
  2
_EX_NORM
 70
     0
 10
0.0
 20
0.0
 30
0.0
  3
_EX_NORM
  1

  0
LINE
  5
38
100
AcDbEntity
  8
0
  6
CONTINUOUS
 62
     0
100
AcDbLine
 10
0.0
 20
0.0
 30
0.0
 11
-1.0
 21
0.0
 31
0.0
  0
LINE
  5
39
100
AcDbEntity
  8
0
  6
CONTINUOUS
 62
     0
100
AcDbLine
 10
0.0
 20
0.0
 30
0.0
 11
-1.0
 21
0.166667
 31
0.0
  0
LINE
  5
3A
100
AcDbEntity
  8
0
  6
CONTINUOUS
 62
     0
100
AcDbLine
 10
0.0
 20
0.0
 30
0.0
 11
-1.0
 21
-0.166667
 31
0.0
  0
ENDBLK
  5
3B
100
AcDbEntity
  8
0
100
AcDbBlockEnd
  0
BLOCK
  5
3C
100
AcDbEntity
  8
0
100
AcDbBlockBegin
  2
_EX_BNORM
 70
     0
 10
0.0
 20
0.0
 30
0.0
  3
_EX_BNORM
  1

  0
LINE
  5
3D
100
AcDbEntity
  8
0
  6
CONTINUOUS
 62
     0
100
AcDbLine
 10
0.0
 20
0.0
 30
0.0
 11
-1.0
 21
0.0
 31
0.0
  0
LINE
  5
3E
100
AcDbEntity
  8
0
  6
CONTINUOUS
 62
     0
100
AcDbLine
 10
0.0
 20
0.0
 30
0.0
 11
-1.0
 21
0.166667
 31
0.0
  0
LINE
  5
3F
100
AcDbEntity
  8
0
  6
CONTINUOUS
 62
     0
100
AcDbLine
 10
0.0
 20
0.0
 30
0.0
 11
-1.0
 21
-0.166667
 31
0.0
  0
LINE
  5
40
100
AcDbEntity
  8
0
  6
CONTINUOUS
 62
     0
100
AcDbLine
 10
0.0
 20
0.0
 30
0.0
 11
-1.0
 21
0.083333
 31
0.0
  0
LINE
  5
41
100
AcDbEntity
  8
0
  6
CONTINUOUS
 62
     0
100
AcDbLine
 10
0.0
 20
0.0
 30
0.0
 11
-1.0
 21
-0.083333
 31
0.0
  0
LINE
  5
42
100
AcDbEntity
  8
0
  6
CONTINUOUS
 62
     0
100
AcDbLine
 10
-1.0
 20
0.166667
 30
0.0
 11
-1.0
 21
-0.166667
 31
0.0
  0
ENDBLK
  5
43
100
AcDbEntity
  8
0
100
AcDbBlockEnd
  0
BLOCK
  5
44
100
AcDbEntity
  8
0
100
AcDbBlockBegin
  2
_EX_BCIR
 70
     0
 10
0.0
 20
0.0
 30
0.0
  3
_EX_BCIR
  1

  0
LINE
  5
45
100
AcDbEntity
  8
0
  6
CONTINUOUS
 62
     0
100
AcDbLine
 10
0.0
 20
0.0
 30
0.0
 11
-1.0
 21
0.0
 31
0.0
  0
CIRCLE
  5
46
100
AcDbEntity
  8
0
  6
CONTINUOUS
 62
     0
100
AcDbCircle
 10
0.0
 20
0.0
 30
0.0
 40
0.5
  0
CIRCLE
  5
47
100
AcDbEntity
  8
0
  6
CONTINUOUS
 62
     0
100
AcDbCircle
 10
0.0
 20
0.0
 30
0.0
 40
0.25
  0
ENDBLK
  5
48
100
AcDbEntity
  8
0
100
AcDbBlockEnd
  0
BLOCK
  5
49
100
AcDbEntity
  8
0
100
AcDbBlockBegin
  2
_EX_RCIVIL
 70
     0
 10
0.0
 20
0.0
 30
0.0
  3
_EX_RCIVIL
  1

  0
LINE
  5
4A
100
AcDbEntity
  8
0
  6
CONTINUOUS
 62
     0
100
AcDbLine
 10
0.0
 20
0.0
 30
0.0
 11
-1.0
 21
0.0
 31
0.0
  0
LINE
  5
4B
100
AcDbEntity
  8
0
  6
CONTINUOUS
 62
     0
100
AcDbLine
 10
-1.0
 20
-0.25
 30
0.0
 11
0.0
 21
-0.25
 31
0.0
  0
LINE
  5
4C
100
AcDbEntity
  8
0
  6
CONTINUOUS
 62
     0
100
AcDbLine
 10
-1.0
 20
-0.125
 30
0.0
 11
0.0
 21
-0.125
 31
0.0
  0
ENDBLK
  5
4D
100
AcDbEntity
  8
0
100
AcDbBlockEnd
  0
BLOCK
  5
4E
100
AcDbEntity
  8
0
100
AcDbBlockBegin
  2
_EX_SLANT
 70
     0
 10
0.0
 20
0.0
 30
0.0
  3
_EX_SLANT
  1

  0
LINE
  5
4F
100
AcDbEntity
  8
0
  6
CONTINUOUS
 62
     0
100
AcDbLine
 10
0.0
 20
0.0
 30
0.0
 11
-1.0
 21
0.0
 31
0.0
  0
LINE
  5
50
100
AcDbEntity
  8
0
  6
CONTINUOUS
 62
     0
100
AcDbLine
 10
0.707107
 20
0.707107
 30
0.0
 11
-0.707107
 21
-0.707107
 31
0.0
  0
ENDBLK
  5
51
100
AcDbEntity
  8
0
100
AcDbBlockEnd
  0
BLOCK
  5
52
100
AcDbEntity
  8
0
100
AcDbBlockBegin
  2
_EX_NONE
 70
     0
 10
0.0
 20
0.0
 30
0.0
  3
_EX_NONE
  1

  0
LINE
  5
53
100
AcDbEntity
  8
0
  6
CONTINUOUS
 62
     0
100
AcDbLine
 10
0.0
 20
0.0
 30
0.0
 11
-1.0
 21
0.0
 31
0.0
  0
ENDBLK
  5
54
100
AcDbEntity
  8
0
100
AcDbBlockEnd
  0
BLOCK
  5
55
100
AcDbEntity
  8
0
100
AcDbBlockBegin
  2
_EX_CIVIL
 70
     0
 10
0.0
 20
0.0
 30
0.0
  3
_EX_CIVIL
  1

  0
LINE
  5
56
100
AcDbEntity
  8
0
  6
CONTINUOUS
 62
     0
100
AcDbLine
 10
0.0
 20
0.0
 30
0.0
 11
-1.0
 21
0.0
 31
0.0
  0
LINE
  5
57
100
AcDbEntity
  8
0
  6
CONTINUOUS
 62
     0
100
AcDbLine
 10
-1.0
 20
0.25
 30
0.0
 11
0.0
 21
0.25
 31
0.0
  0
LINE
  5
58
100
AcDbEntity
  8
0
  6
CONTINUOUS
 62
     0
100
AcDbLine
 10
-1.0
 20
0.125
 30
0.0
 11
0.0
 21
0.125
 31
0.0
  0
ENDBLK
  5
59
100
AcDbEntity
  8
0
100
AcDbBlockEnd
  0
BLOCK
  5
5A
100
AcDbEntity
  8
0
100
AcDbBlockBegin
  2
_EX_WCIR
 70
     0
 10
0.0
 20
0.0
 30
0.0
  3
_EX_WCIR
  1

  0
LINE
  5
5B
100
AcDbEntity
  8
0
  6
CONTINUOUS
 62
     0
100
AcDbLine
 10
0.0
 20
0.0
 30
0.0
 11
-1.0
 21
0.0
 31
0.0
  0
CIRCLE
  5
5C
100
AcDbEntity
  8
0
  6
CONTINUOUS
 62
     0
100
AcDbCircle
 10
0.0
 20
0.0
 30
0.0
 40
0.5
  0
ENDBLK
  5
5D
100
AcDbEntity
  8
0
100
AcDbBlockEnd
  0
BLOCK
  5
5E
100
AcDbEntity
  8
0
100
AcDbBlockBegin
  2
_EX_WCIR2
 70
     0
 10
0.0
 20
0.0
 30
0.0
  3
_EX_WCIR2
  1

  0
LINE
  5
5F
100
AcDbEntity
  8
0
  6
CONTINUOUS
 62
     0
100
AcDbLine
 10
-0.5
 20
0.0
 30
0.0
 11
-1.0
 21
0.0
 31
0.0
  0
CIRCLE
  5
60
100
AcDbEntity
  8
0
  6
CONTINUOUS
 62
     0
100
AcDbCircle
 10
0.0
 20
0.0
 30
0.0
 40
0.5
  0
ENDBLK
  5
61
100
AcDbEntity
  8
0
100
AcDbBlockEnd
  0
BLOCK
  5
62
100
AcDbEntity
  8
0
100
AcDbBlockBegin
  2
_EX_WNORM
 70
     0
 10
0.0
 20
0.0
 30
0.0
  3
_EX_WNORM
  1

  0
LINE
  5
63
100
AcDbEntity
  8
0
  6
CONTINUOUS
 62
     0
100
AcDbLine
 10
-1.0
 20
0.0
 30
0.0
 11
-1.0
 21
0.0
 31
0.0
  0
LINE
  5
64
100
AcDbEntity
  8
0
  6
CONTINUOUS
 62
     0
100
AcDbLine
 10
0.0
 20
0.0
 30
0.0
 11
-1.0
 21
0.166667
 31
0.0
  0
LINE
  5
65
100
AcDbEntity
  8
0
  6
CONTINUOUS
 62
     0
100
AcDbLine
 10
0.0
 20
0.0
 30
0.0
 11
-1.0
 21
-0.166667
 31
0.0
  0
LINE
  5
66
100
AcDbEntity
  8
0
  6
CONTINUOUS
 62
     0
100
AcDbLine
 10
-1.0
 20
0.166667
 30
0.0
 11
-1.0
 21
-0.166667
 31
0.0
  0
ENDBLK
  5
67
100
AcDbEntity
  8
0
100
AcDbBlockEnd
  0
BLOCK
  5
68
100
AcDbEntity
  8
0
100
AcDbBlockBegin
  2
_EX_NNORM
 70
     0
 10
0.0
 20
0.0
 30
0.0
  3
_EX_NNORM
  1

  0
LINE
  5
69
100
AcDbEntity
  8
0
  6
CONTINUOUS
 62
     0
100
AcDbLine
 10
0.0
 20
0.0
 30
0.0
 11
-1.0
 21
0.0
 31
0.0
  0
LINE
  5
6A
100
AcDbEntity
  8
0
  6
CONTINUOUS
 62
     0
100
AcDbLine
 10
0.0
 20
0.0
 30
0.0
 11
-1.0
 21
0.166667
 31
0.0
  0
LINE
  5
6B
100
AcDbEntity
  8
0
  6
CONTINUOUS
 62
     0
100
AcDbLine
 10
0.0
 20
0.0
 30
0.0
 11
-1.0
 21
-0.166667
 31
0.0
  0
LINE
  5
6C
100
AcDbEntity
  8
0
  6
CONTINUOUS
 62
     0
100
AcDbLine
 10
-1.0
 20
0.166667
 30
0.0
 11
-1.0
 21
-0.166667
 31
0.0
  0
ENDBLK
  5
6D
100
AcDbEntity
  8
0
100
AcDbBlockEnd
  0
BLOCK
  5
6E
100
AcDbEntity
  8
0
100
AcDbBlockBegin
  2
_EX_BBOX
 70
     0
 10
0.0
 20
0.0
 30
0.0
  3
_EX_BBOX
  1

  0
LINE
  5
6F
100
AcDbEntity
  8
0
  6
CONTINUOUS
 62
     0
100
AcDbLine
 10
0.0
 20
0.0
 30
0.0
 11
-1.0
 21
0.0
 31
0.0
  0
LINE
  5
70
100
AcDbEntity
  8
0
  6
CONTINUOUS
 62
     0
100
AcDbLine
 10
-0.5
 20
0.5
 30
0.0
 11
0.5
 21
0.5
 31
0.0
  0
LINE
  5
71
100
AcDbEntity
  8
0
  6
CONTINUOUS
 62
     0
100
AcDbLine
 10
0.5
 20
0.5
 30
0.0
 11
0.5
 21
-0.5
 31
0.0
  0
LINE
  5
72
100
AcDbEntity
  8
0
  6
CONTINUOUS
 62
     0
100
AcDbLine
 10
0.5
 20
-0.5
 30
0.0
 11
-0.5
 21
-0.5
 31
0.0
  0
LINE
  5
73
100
AcDbEntity
  8
0
  6
CONTINUOUS
 62
     0
100
AcDbLine
 10
-0.5
 20
-0.5
 30
0.0
 11
-0.5
 21
0.5
 31
0.0
  0
LINE
  5
74
100
AcDbEntity
  8
0
  6
CONTINUOUS
 62
     0
100
AcDbLine
 10
-0.25
 20
0.25
 30
0.0
 11
0.25
 21
0.25
 31
0.0
  0
LINE
  5
75
100
AcDbEntity
  8
0
  6
CONTINUOUS
 62
     0
100
AcDbLine
 10
0.25
 20
0.25
 30
0.0
 11
0.25
 21
-0.25
 31
0.0
  0
LINE
  5
76
100
AcDbEntity
  8
0
  6
CONTINUOUS
 62
     0
100
AcDbLine
 10
0.25
 20
-0.25
 30
0.0
 11
-0.25
 21
-0.25
 31
0.0
  0
LINE
  5
77
100
AcDbEntity
  8
0
  6
CONTINUOUS
 62
     0
100
AcDbLine
 10
-0.25
 20
-0.25
 30
0.0
 11
-0.25
 21
0.25
 31
0.0
  0
ENDBLK
  5
78
100
AcDbEntity
  8
0
100
AcDbBlockEnd
  0
BLOCK
  5
79
100
AcDbEntity
  8
0
100
AcDbBlockBegin
  2
_EX_WBOX
 70
     0
 10
0.0
 20
0.0
 30
0.0
  3
_EX_WBOX
  1

  0
LINE
  5
7A
100
AcDbEntity
  8
0
  6
CONTINUOUS
 62
     0
100
AcDbLine
 10
-0.5
 20
0.0
 30
0.0
 11
-1.0
 21
0.0
 31
0.0
  0
LINE
  5
7B
100
AcDbEntity
  8
0
  6
CONTINUOUS
 62
     0
100
AcDbLine
 10
-0.5
 20
0.5
 30
0.0
 11
0.5
 21
0.5
 31
0.0
  0
LINE
  5
7C
100
AcDbEntity
  8
0
  6
CONTINUOUS
 62
     0
100
AcDbLine
 10
0.5
 20
0.5
 30
0.0
 11
0.5
 21
-0.5
 31
0.0
  0
LINE
  5
7D
100
AcDbEntity
  8
0
  6
CONTINUOUS
 62
     0
100
AcDbLine
 10
0.5
 20
-0.5
 30
0.0
 11
-0.5
 21
-0.5
 31
0.0
  0
LINE
  5
7E
100
AcDbEntity
  8
0
  6
CONTINUOUS
 62
     0
100
AcDbLine
 10
-0.5
 20
-0.5
 30
0.0
 11
-0.5
 21
0.5
 31
0.0
  0
ENDBLK
  5
7F
100
AcDbEntity
  8
0
100
AcDbBlockEnd
  0
BLOCK
  5
80
100
AcDbEntity
  8
0
100
AcDbBlockBegin
  2
_EX_INTEGRAL
 70
     0
 10
0.0
 20
0.0
 30
0.0
  3
_EX_INTEGRAL
  1

  0
LINE
  5
81
100
AcDbEntity
  8
0
  6
CONTINUOUS
 62
     0
100
AcDbLine
 10
0.0
 20
0.0
 30
0.0
 11
-1.0
 21
0.0
 31
0.0
  0
ARC
  5
82
100
AcDbEntity
  8
0
  6
CONTINUOUS
 62
     0
100
AcDbCircle
 10
0.542115
 20
0.164992
 30
0.0
 40
0.56667
100
AcDbArc
 50
73.07249
 51
196.927513
  0
ARC
  5
83
100
AcDbEntity
  8
0
  6
CONTINUOUS
 62
     0
100
AcDbCircle
 10
-0.542115
 20
-0.164992
 30
0.0
 40
0.56667
100
AcDbArc
 50
253.072487
 51
16.927513
  0
ENDBLK
  5
84
100
AcDbEntity
  8
0
100
AcDbBlockEnd
  0
BLOCK
  5
85
100
AcDbEntity
  8
0
100
AcDbBlockBegin
  2
SYM-1
 70
     0
 10
0.0
 20
0.0
 30
0.0
  3
SYM-1
  1

  0
HATCH
  5
86
100
AcDbEntity
  8
0
  6
CONTINUOUS
 62
     3
100
AcDbHatch
 10
0.0
 20
0.0
 30
0.0
210
0.0
220
0.0
230
1.0
  2
SOLID
 70
     1
 71
     1
 91
        1
 92
        1
 93
       16
 72
     1
 10
24.351152239011505
 20
-2.0357142857144446
 11
25.613295096154353
 21
-2.0357142857144446
 72
     1
 10
25.613295096154353
 20
-2.0357142857144446
 11
25.613295096154353
 21
-2.8500000000001648
 72
     1
 10
25.613295096154353
 20
-2.8500000000001648
 11
22.23400938186861
 21
-2.8500000000001648
 72
     1
 10
22.23400938186861
 20
-2.8500000000001648
 11
22.23400938186861
 21
-2.0357142857144446
 72
     1
 10
22.23400938186861
 20
-2.0357142857144446
 11
23.536866524725802
 21
-2.0357142857144446
 72
     1
 10
23.536866524725802
 20
-2.0357142857144446
 11
23.536866524725802
 21
0.3257142857141346
 72
     1
 10
23.536866524725802
 20
0.3257142857141346
 11
22.519009381868621
 21
0.3257142857141346
 72
     1
 10
22.519009381868621
 20
0.3257142857141346
 11
22.519009381868621
 21
1.1399999999998514
 72
     1
 10
22.519009381868621
 20
1.1399999999998514
 11
23.536866524725802
 21
1.1399999999998514
 72
     1
 10
23.536866524725802
 20
1.1399999999998514
 11
23.536866524725802
 21
2.8499999999998487
 72
     1
 10
23.536866524725802
 20
2.8499999999998487
 11
24.351152239011505
 21
2.8499999999998487
 72
     1
 10
24.351152239011505
 20
2.8499999999998487
 11
24.351152239011505
 21
1.1399999999998514
 72
     1
 10
24.351152239011505
 20
1.1399999999998514
 11
25.531866524725821
 21
1.1399999999998514
 72
     1
 10
25.531866524725821
 20
1.1399999999998514
 11
25.531866524725821
 21
0.3257142857141346
 72
     1
 10
25.531866524725821
 20
0.3257142857141346
 11
24.351152239011505
 21
0.3257142857141346
 72
     1
 10
24.351152239011505
 20
0.3257142857141346
 11
24.351152239011505
 21
-2.0357142857144446
 97
        0
 75
     0
 76
     1
 98
        1
 10
0.0
 20
0.0
  0
HATCH
  5
87
100
AcDbEntity
  8
0
  6
CONTINUOUS
 62
     3
100
AcDbHatch
 10
0.0
 20
0.0
 30
0.0
210
0.0
220
0.0
230
1.0
  2
SOLID
 70
     1
 71
     1
 91
        1
 92
        1
 93
       17
 72
     2
 10
15.796286246552746
 20
4.4303755974531924
 40
7.328571428571454
 50
44.165469
 51
51.472792
 73
     0
 72
     1
 10
20.361152239011439
 20
-1.3028571428572775
 11
19.948878200429583
 21
-0.5887775613918898
 72
     2
 10
15.796286246552746
 20
4.4303755974531924
 40
6.5142857142857364
 50
309.602625
 51
331.307968
 73
     1
 72
     1
 10
21.510701937024301
 20
1.3028571428570004
 11
20.157580810440017
 21
1.3028571428570004
 72
     1
 10
20.157580810440017
 20
1.3028571428570004
 11
20.157580810440017
 21
2.0357142857141319
 72
     1
 10
20.157580810440017
 20
2.0357142857141319
 11
21.053295096154336
 21
2.0357142857141319
 72
     1
 10
21.053295096154336
 20
2.0357142857141319
 11
21.053295096154336
 21
2.8499999999998487
 72
     1
 10
21.053295096154336
 20
2.8499999999998487
 11
21.786152239011507
 21
2.8499999999998487
 72
     1
 10
21.786152239011507
 20
2.8499999999998487
 11
21.786152239011507
 21
2.0357142857141319
 72
     1
 10
21.786152239011507
 20
2.0357142857141319
 11
22.722580810439986
 21
2.0357142857141319
 72
     2
 10
15.796286246552746
 20
4.4303755974531924
 40
7.328571428571454
 50
19.072051
 51
32.871988
 73
     0
 72
     1
 10
21.951445818831196
 20
0.4526916201288422
 11
22.926152239011437
 21
-0.4885714285715821
 72
     1
 10
22.926152239011437
 20
-0.4885714285715821
 11
22.350277580116831
 21
-1.0644460874662265
 72
     1
 10
22.350277580116831
 20
-1.0644460874662265
 11
21.786152239011507
 21
-0.5196765779765897
 72
     1
 10
21.786152239011507
 20
-0.5196765779765897
 11
21.786152239011507
 21
-2.8500000000001648
 72
     1
 10
21.786152239011507
 20
-2.8500000000001648
 11
21.053295096154336
 21
-2.8500000000001648
 72
     1
 10
21.053295096154336
 20
-2.8500000000001648
 11
21.053295096154336
 21
-0.6756813096801793
 97
        0
 75
     0
 76
     1
 98
        1
 10
0.0
 20
0.0
  0
HATCH
  5
88
100
AcDbEntity
  8
0
  6
CONTINUOUS
 62
     3
100
AcDbHatch
 10
0.0
 20
0.0
 30
0.0
210
0.0
220
0.0
230
1.0
  2
SOLID
 70
     1
 71
     1
 91
        1
 92
        1
 93
       12
 72
     2
 10
26.09465466477446
 20
-6.5604295733743392
 40
11.481428571428609
 50
150.903074
 51
156.790773
 73
     1
 72
     1
 10
15.542396441700383
 20
-2.035714285714505
 11
18.049394029288031
 21
-2.0357142857144055
 72
     2
 10
10.927987441101074
 20
-4.0835590566205937
 40
7.4100000000000241
 50
16.043216
 51
21.362935
 73
     1
 72
     1
 10
17.828858648663306
 20
-1.3842857142858769
 11
18.610437953297115
 21
-1.3842857142858769
 72
     2
 10
10.927987441101074
 20
-4.0835590566205937
 40
8.1428571428571708
 50
340.64078
 51
351.286733
 73
     0
 72
     1
 10
18.976866524725686
 20
-2.8500000000001648
 11
14.457580810439971
 21
-2.8500000000001648
 72
     2
 10
26.09465466477446
 20
-6.5604295733743392
 40
12.214285714285754
 50
197.684652
 51
207.200855
 73
     0
 72
     1
 10
15.231152239011401
 20
-0.9771428571430043
 11
14.091152239011485
 21
-0.9771428571430043
 72
     1
 10
14.091152239011485
 20
-0.9771428571430043
 11
14.091152239011485
 21
-0.162857142857284
 72
     1
 10
14.091152239011485
 20
-0.162857142857284
 11
19.302580810440098
 21
-0.162857142857284
 72
     1
 10
19.302580810440098
 20
-0.162857142857284
 11
19.302580810440098
 21
-0.9771428571430043
 72
     1
 10
19.302580810440098
 20
-0.9771428571430043
 11
16.062201750099412
 21
-0.9771428571430043
 97
        0
 75
     0
 76
     1
 98
        1
 10
0.0
 20
0.0
  0
HATCH
  5
89
100
AcDbEntity
  8
0
  6
CONTINUOUS
 62
     3
100
AcDbHatch
 10
0.0
 20
0.0
 30
0.0
210
0.0
220
0.0
230
1.0
  2
SOLID
 70
     1
 71
     1
 91
        1
 92
        1
 93
       10
 72
     2
 10
26.143491684008573
 20
11.064410217386417
 40
13.028571428571473
 50
129.545698
 51
136.474664
 73
     0
 72
     1
 10
16.696866524725998
 20
2.0919553376225579
 11
16.696866524725998
 21
2.8499999999998487
 72
     1
 10
16.696866524725998
 20
2.8499999999998487
 11
17.104009381868686
 21
2.8499999999998487
 72
     2
 10
26.143491684008573
 20
11.064410217386417
 40
12.214285714285754
 50
222.262231
 51
237.763996
 73
     1
 72
     1
 10
19.628295096154382
 20
0.7328571428570001
 11
19.100346295490944
 21
0.1036722629605507
 72
     2
 10
26.143491684008573
 20
11.064410217386417
 40
13.028571428571473
 50
122.723968
 51
128.230009
 73
     0
 72
     1
 10
18.08115223901148
 20
0.830038905819066
 11
18.08115223901148
 21
0.2035714285712729
 72
     1
 10
18.08115223901148
 20
0.2035714285712729
 11
16.696866524725998
 21
0.2035714285712729
 72
     1
 10
16.696866524725998
 20
0.2035714285712729
 11
16.696866524725998
 21
1.0178571428569896
 72
     1
 10
16.696866524725998
 20
1.0178571428569896
 11
17.848285550942784
 21
1.0178571428569896
 97
        0
 75
     0
 76
     1
 98
        1
 10
0.0
 20
0.0
  0
HATCH
  5
8A
100
AcDbEntity
  8
0
  6
CONTINUOUS
 62
     3
100
AcDbHatch
 10
0.0
 20
0.0
 30
0.0
210
0.0
220
0.0
230
1.0
  2
SOLID
 70
     1
 71
     1
 91
        1
 92
        1
 93
       10
 72
     2
 10
7.2502413654429532
 20
11.064410217386417
 40
13.028571428571473
 50
51.769991
 51
57.276032
 73
     0
 72
     1
 10
14.293386753960569
 20
0.1036722629605329
 11
13.76543795329713
 21
0.7328571428569894
 72
     2
 10
7.2502413654429532
 20
11.064410217386417
 40
12.214285714285754
 50
302.236004
 51
317.737769
 73
     1
 72
     1
 10
16.289723667582841
 20
2.8499999999998487
 11
16.696866524725998
 21
2.8499999999998487
 72
     1
 10
16.696866524725998
 20
2.8499999999998487
 11
16.696866524725998
 21
2.0919553376230482
 72
     2
 10
7.2502413654429532
 20
11.064410217386417
 40
13.028571428571473
 50
43.525336
 51
50.454302
 73
     0
 72
     1
 10
15.545447498508743
 20
1.0178571428569896
 11
16.696866524725998
 21
1.0178571428569896
 72
     1
 10
16.696866524725998
 20
1.0178571428569896
 11
16.696866524725998
 21
0.2035714285712729
 72
     1
 10
16.696866524725998
 20
0.2035714285712729
 11
15.312580810440046
 21
0.2035714285712729
 72
     1
 10
15.312580810440046
 20
0.2035714285712729
 11
15.312580810440046
 21
0.8300389058190589
 97
        0
 75
     0
 76
     1
 98
        1
 10
0.0
 20
0.0
  0
HATCH
  5
8B
100
AcDbEntity
  8
0
  6
CONTINUOUS
 62
     3
100
AcDbHatch
 10
0.0
 20
0.0
 30
0.0
210
0.0
220
0.0
230
1.0
  2
SOLID
 70
     1
 71
     1
 91
        1
 92
        1
 93
       18
 72
     2
 10
1.2571935216656343
 20
-0.8093264034321166
 40
11.400000000000038
 50
14.02954
 51
18.723021
 73
     1
 72
     1
 10
12.053921279331213
 20
2.8499999999998487
 11
12.910437953297141
 21
2.8499999999998487
 72
     2
 10
1.2571935216656343
 20
-0.8093264034321166
 40
12.214285714285754
 50
342.566782
 51
346.922981
 73
     0
 72
     1
 10
13.15472366758285
 20
1.9542857142855716
 11
13.480437953297177
 21
1.9542857142855716
 72
     1
 10
13.480437953297177
 20
1.9542857142855716
 11
13.480437953297177
 21
1.1399999999998407
 72
     1
 10
13.480437953297177
 20
1.1399999999998407
 11
11.958092734747289
 21
1.1399999999998514
 72
     2
 10
20.401866524725683
 20
2.4835714285712918
 40
8.5500000000000291
 50
189.041096
 51
204.65198
 73
     1
 72
     2
 10
14.334076117775972
 20
-0.301141422634494
 40
1.8737206404808271
 50
204.65198
 51
242.897449
 73
     1
 72
     1
 10
13.480437953297177
 20
-1.9691135215345774
 11
13.480437953297177
 21
-2.8500000000001648
 72
     2
 10
14.334076117775972
 20
-0.301141422634494
 40
2.6880063547665438
 50
108.516212
 51
155.34802
 73
     0
 72
     2
 10
20.401866524725683
 20
2.4835714285712918
 40
9.3642857142857441
 50
155.34802
 51
171.750831
 73
     0
 72
     1
 10
11.134468683092756
 20
1.1399999999998549
 11
8.0247236675828972
 21
1.1399999999998407
 72
     1
 10
8.0247236675828972
 20
1.1399999999998407
 11
8.0247236675828972
 21
1.9542857142855716
 72
     1
 10
8.0247236675828972
 20
1.9542857142855716
 11
11.050355927894167
 21
1.9542857142855716
 72
     1
 10
11.050355927894167
 20
1.9542857142855716
 11
11.019076895792274
 21
2.8499999999998487
 72
     1
 10
11.019076895792274
 20
2.8499999999998487
 11
11.833858953292697
 21
2.8499999999998487
 72
     1
 10
11.833858953292697
 20
2.8499999999998487
 11
11.865137985394604
 21
1.9542857142855716
 72
     1
 10
11.865137985394604
 20
1.9542857142855716
 11
12.317141444816265
 21
1.9542857142855716
 97
        0
 75
     0
 76
     1
 98
        1
 10
0.0
 20
0.0
  0
HATCH
  5
8C
100
AcDbEntity
  8
0
  6
CONTINUOUS
 62
     3
100
AcDbHatch
 10
0.0
 20
0.0
 30
0.0
210
0.0
220
0.0
230
1.0
  2
SOLID
 70
     1
 71
     1
 91
        1
 92
        1
 93
       12
 72
     2
 10
5.4617420309248317
 20
38.027820957415145
 40
39.900000000000134
 50
276.500664
 51
278.269357
 73
     1
 72
     1
 10
11.200437953297204
 20
-1.457332823601817
 11
11.20043795329719
 21
-2.2800000000001504
 72
     2
 10
5.4617420309248317
 20
38.027820957415145
 40
40.71428571428585
 50
81.897153
 51
86.39082
 73
     0
 72
     1
 10
8.024723667582883
 20
-2.6057142857144413
 11
8.024723667582883
 21
-1.7897772264302034
 72
     2
 10
5.4617420309248317
 20
38.027820957415145
 40
39.900000000000134
 50
273.682937
 51
275.325087
 73
     1
 72
     1
 10
9.1647236675828836
 20
-1.6999769553635602
 11
9.1647236675828836
 21
-0.4071428571430218
 72
     1
 10
9.1647236675828836
 20
-0.4071428571430218
 11
8.0247236675828972
 21
-0.4071428571430218
 72
     1
 10
8.0247236675828972
 20
-0.4071428571430218
 11
8.0247236675828972
 21
0.4071428571426949
 72
     1
 10
8.0247236675828972
 20
0.4071428571426949
 11
10.95615223901148
 21
0.4071428571426949
 72
     1
 10
10.95615223901148
 20
0.4071428571426949
 11
10.95615223901148
 21
-0.4071428571430218
 72
     1
 10
10.95615223901148
 20
-0.4071428571430218
 11
9.9790093818686287
 21
-0.4071428571430218
 72
     1
 10
9.9790093818686287
 20
-0.4071428571430218
 11
9.9790093818685861
 21
-1.6156437710884397
 97
        0
 75
     0
 76
     1
 98
        1
 10
0.0
 20
0.0
  0
HATCH
  5
8D
100
AcDbEntity
  8
0
  6
CONTINUOUS
 62
     3
100
AcDbHatch
 10
0.0
 20
0.0
 30
0.0
210
0.0
220
0.0
230
1.0
  2
SOLID
 70
     1
 71
     1
 91
        1
 92
        1
 93
       30
 72
     2
 10
-1.8979256098940809
 20
4.1519130391923014
 40
8.9164285714286002
 50
37.940537
 51
46.713808
 73
     0
 72
     1
 10
4.21556076329842
 20
-2.3386942385728418
 11
3.6682950961542744
 21
-1.7914285714286962
 72
     2
 10
-1.8979256098940809
 20
4.1519130391923014
 40
8.1428571428571743
 50
313.123325
 51
325.95222
 73
     1
 72
     1
 10
4.8490093818684983
 20
-0.4071428571430076
 11
3.8718665247257533
 21
-0.4071428571430076
 72
     1
 10
3.8718665247257533
 20
-0.4071428571430076
 11
3.8718665247257533
 21
0.4071428571427092
 72
     1
 10
3.8718665247257533
 20
0.4071428571427092
 11
5.1340093818686157
 21
0.4071428571427092
 72
     1
 10
5.1340093818686157
 20
0.4071428571427092
 11
5.1340093818686157
 21
1.2214285714284152
 72
     1
 10
5.1340093818686157
 20
1.2214285714284152
 11
4.7280236542212677
 21
1.2214285714284152
 72
     2
 10
-3.9789687629962955
 20
2.9438069062169916
 40
8.8757142857143183
 50
11.189535
 51
14.746058
 73
     0
 72
     1
 10
4.6044101437030562
 20
0.6846232869284066
 11
3.9125808104399411
 21
0.9364285714284044
 72
     2
 10
-3.9789687629962955
 20
2.9438069062169916
 40
8.1428571428571743
 50
345.728313
 51
357.620387
 73
     1
 72
     1
 10
4.1568665247257641
 20
2.6057142857165694
 11
4.8844833536651819
 21
2.4774158071570227
 72
     2
 10
-3.9789687629962955
 20
2.9438069062169916
 40
8.8757142857143183
 50
3.012102
 51
6.401006
 73
     0
 72
     1
 10
4.8414139890361767
 20
1.9542857142855716
 11
5.1340093818686157
 21
1.9542857142855716
 72
     1
 10
5.1340093818686157
 20
1.9542857142855716
 11
5.1340093818686157
 21
2.8499999999998487
 72
     1
 10
5.1340093818686157
 20
2.8499999999998487
 11
5.948295096154304
 21
2.8499999999998487
 72
     1
 10
5.948295096154304
 20
2.8499999999998487
 11
5.948295096154304
 21
1.9542857142855716
 72
     1
 10
5.948295096154304
 20
1.9542857142855716
 11
7.0475808104400599
 21
1.9542857142855716
 72
     1
 10
7.0475808104400599
 20
1.9542857142855716
 11
7.0475808104400599
 21
1.2214285714284152
 72
     1
 10
7.0475808104400599
 20
1.2214285714284152
 11
5.948295096154304
 21
1.2214285714284152
 72
     1
 10
5.948295096154304
 20
1.2214285714284152
 11
5.948295096154304
 21
0.4071428571427092
 72
     1
 10
5.948295096154304
 20
0.4071428571427092
 11
7.2104379532971521
 21
0.4071428571427092
 72
     1
 10
7.2104379532971521
 20
0.4071428571427092
 11
7.2104379532971521
 21
-0.4071428571430076
 72
     1
 10
7.2104379532971521
 20
-0.4071428571430076
 11
6.2332950961542579
 21
-0.4071428571430076
 72
     2
 10
12.98023008791683
 20
4.1519130391922907
 40
8.1428571428571743
 50
214.04778
 51
226.876675
 73
     1
 72
     1
 10
7.4140093818684889
 20
-1.7914285714286962
 11
6.866743714724322
 21
-2.3386942385728453
 72
     2
 10
12.98023008791683
 20
4.1519130391922907
 40
8.9164285714286002
 50
133.286192
 51
142.059463
 73
     0
 72
     1
 10
5.948295096154304
 20
-1.330293518482641
 11
5.948295096154304
 21
-2.8500000000001648
 72
     1
 10
5.948295096154304
 20
-2.8500000000001648
 11
5.1340093818686157
 21
-2.8500000000001648
 72
     1
 10
5.1340093818686157
 20
-2.8500000000001648
 11
5.1340093818686157
 21
-1.3302935184824136
 97
        0
 75
     0
 76
     1
 98
        1
 10
0.0
 20
0.0
  0
HATCH
  5
8E
100
AcDbEntity
  8
0
  6
CONTINUOUS
 62
     3
100
AcDbHatch
 10
0.0
 20
0.0
 30
0.0
210
0.0
220
0.0
230
1.0
  2
SOLID
 70
     1
 71
     1
 91
        1
 92
        1
 93
       19
 72
     2
 10
-5.2499698511775321
 20
3.0651230633969284
 40
8.8757142857143165
 50
27.683433
 51
32.280505
 73
     0
 72
     1
 10
2.2539459810095721
 20
-1.6750827617845943
 11
1.6732950961542841
 21
-1.2214285714287314
 72
     2
 10
-5.2499698511775321
 20
3.0651230633969284
 40
8.1428571428571708
 50
328.236207
 51
344.845745
 73
     1
 72
     1
 10
2.6097236675827773
 20
0.9364285714284151
 11
1.8768665247257346
 21
0.9364285714284151
 72
     1
 10
1.8768665247257346
 20
0.9364285714284151
 11
1.8768665247257346
 21
1.7507142857141353
 72
     1
 10
1.8768665247257346
 20
1.7507142857141353
 11
2.6097236675829052
 21
1.7507142857141353
 72
     1
 10
2.6097236675829052
 20
1.7507142857141353
 11
2.6097236675829052
 21
2.8499999999998487
 72
     1
 10
2.6097236675829052
 20
2.8499999999998487
 11
3.4240093818685935
 21
2.8499999999998487
 72
     1
 10
3.4240093818685935
 20
2.8499999999998487
 11
3.4240093818685935
 21
1.7507142857141353
 72
     1
 10
3.4240093818685935
 20
1.7507142857141353
 11
3.7904379532971788
 21
1.7507142857141353
 72
     1
 10
3.7904379532971788
 20
1.7507142857141353
 11
3.7904379532971788
 21
0.9364285714284151
 72
     1
 10
3.7904379532971788
 20
0.9364285714284151
 11
3.4240093818685367
 21
0.9364285714284151
 72
     1
 10
3.4240093818685367
 20
0.9364285714284151
 11
3.8718665247257533
 21
0.2968222855516665
 72
     1
 10
3.8718665247257533
 20
0.2968222855516665
 11
3.8718665247257533
 21
-0.1989042363292235
 72
     1
 10
3.8718665247257533
 20
-0.1989042363292235
 11
3.6275808104399871
 21
-0.4900326139487277
 72
     1
 10
3.6275808104399871
 20
-0.4900326139487277
 11
3.4240093818685935
 21
-0.1993024840048498
 72
     1
 10
3.4240093818685935
 20
-0.1993024840048498
 11
3.4240093818685935
 21
-2.8500000000001648
 72
     1
 10
3.4240093818685935
 20
-2.8500000000001648
 11
2.6097236675829052
 21
-2.8500000000001648
 72
     1
 10
2.6097236675829052
 20
-2.8500000000001648
 11
2.6097236675829052
 21
-1.0584096299120844
 97
        0
 75
     0
 76
     1
 98
        1
 10
0.0
 20
0.0
  0
HATCH
  5
8F
100
AcDbEntity
  8
0
  6
CONTINUOUS
 62
     3
100
AcDbHatch
 10
0.0
 20
0.0
 30
0.0
210
0.0
220
0.0
230
1.0
  2
SOLID
 70
     1
 71
     1
 91
        1
 92
        1
 93
        8
 72
     2
 10
-1.8298808996504405
 20
-0.4560000000002766
 40
1.596000000000013
 50
270.0
 51
330.0
 73
     1
 72
     2
 10
-2.619696067901863
 20
-0.00000000000027
 40
2.508000000000012
 50
330.0
 51
30.0
 73
     1
 72
     2
 10
-1.8298808996504405
 20
0.4559999999997331
 40
1.5960000000000121
 50
30.0
 51
90.0
 73
     1
 72
     1
 10
-1.82988089965
 20
2.0519999999997438
 11
-1.82988089965
 21
2.9639999999999276
 72
     2
 10
-1.8298808996504974
 20
0.4559999999999214
 40
2.508000000000008
 50
270.0
 51
330.0
 73
     0
 72
     2
 10
-2.6196960679017494
 20
-0.0000000000001243
 40
3.420000000000015
 50
330.0
 51
30.0
 73
     0
 72
     2
 10
-1.8298808996503837
 20
-0.456000000000369
 40
2.5080000000000053
 50
30.0
 51
90.0
 73
     0
 72
     1
 10
-1.82988089965
 20
-2.9640000000003752
 11
-1.82988089965
 21
-2.0520000000002909
 97
        0
 75
     0
 76
     1
 98
        1
 10
0.0
 20
0.0
  0
HATCH
  5
90
100
AcDbEntity
  8
0
  6
CONTINUOUS
 62
     3
100
AcDbHatch
 10
0.0
 20
0.0
 30
0.0
210
0.0
220
0.0
230
1.0
  2
SOLID
 70
     1
 71
     1
 91
        1
 92
        1
 93
        8
 72
     2
 10
-1.8298808996503837
 20
-0.456000000000369
 40
2.5080000000000053
 50
90.0
 51
150.0
 73
     0
 72
     2
 10
-1.0400657313991175
 20
-0.0000000000003126
 40
3.4200000000000181
 50
150.0
 51
210.0
 73
     0
 72
     2
 10
-1.8298808996504974
 20
0.4559999999999214
 40
2.508000000000008
 50
210.0
 51
270.0
 73
     0
 72
     1
 10
-1.82988089965
 20
2.9639999999999276
 11
-1.82988089965
 21
2.0519999999997438
 72
     2
 10
-1.8298808996504405
 20
0.4559999999997331
 40
1.5960000000000121
 50
90.0
 51
150.0
 73
     1
 72
     2
 10
-1.040065731399018
 20
-0.00000000000027
 40
2.5080000000000129
 50
150.0
 51
210.0
 73
     1
 72
     2
 10
-1.8298808996504405
 20
-0.4560000000002766
 40
1.596000000000013
 50
210.0
 51
270.0
 73
     1
 72
     1
 10
-1.82988089965
 20
-2.0520000000002909
 11
-1.82988089965
 21
-2.9640000000003752
 97
        0
 75
     0
 76
     1
 98
        1
 10
0.0
 20
0.0
  0
HATCH
  5
91
100
AcDbEntity
  8
0
  6
CONTINUOUS
 62
     3
100
AcDbHatch
 10
0.0
 20
0.0
 30
0.0
210
0.0
220
0.0
230
1.0
  2
SOLID
 70
     1
 71
     1
 91
        1
 92
        1
 93
        4
 72
     1
 10
-5.3638808996504608
 20
-1.0260000000002698
 11
-6.2758808996504385
 21
-1.0260000000002698
 72
     1
 10
-6.2758808996504385
 20
-1.0260000000002698
 11
-6.2758808996504385
 21
-0.1140000000002743
 72
     1
 10
-6.2758808996504385
 20
-0.1140000000002743
 11
-5.3638808996504608
 21
-0.1140000000002743
 72
     1
 10
-5.3638808996504608
 20
-0.1140000000002743
 11
-5.3638808996504608
 21
-1.0260000000003267
 97
        0
 75
     0
 76
     1
 98
        1
 10
0.0
 20
0.0
  0
HATCH
  5
92
100
AcDbEntity
  8
0
  6
CONTINUOUS
 62
     3
100
AcDbHatch
 10
0.0
 20
0.0
 30
0.0
210
0.0
220
0.0
230
1.0
  2
SOLID
 70
     1
 71
     1
 91
        1
 92
        1
 93
       16
 72
     1
 10
-9.6958808996504686
 20
1.9379999999997324
 11
-10.949880899650459
 21
1.9379999999997324
 72
     1
 10
-10.949880899650459
 20
1.9379999999997324
 11
-11.177880899650468
 21
0.6839999999997275
 72
     1
 10
-11.177880899650468
 20
0.6839999999997275
 11
-11.861880899650437
 21
0.6839999999997275
 72
     1
 10
-11.861880899650437
 20
0.6839999999997275
 11
-11.861880899650437
 21
2.8499999999997421
 72
     1
 10
-11.861880899650437
 20
2.8499999999997421
 11
-6.6178808996504515
 21
2.8499999999997421
 72
     1
 10
-6.6178808996504515
 20
2.8499999999997421
 11
-6.6178808996504515
 21
0.6839999999997275
 72
     1
 10
-6.6178808996504515
 20
0.6839999999997275
 11
-7.3018808996504205
 21
0.6839999999997275
 72
     1
 10
-7.3018808996504205
 20
0.6839999999997275
 11
-7.5298808996504292
 21
1.9379999999997324
 72
     1
 10
-7.5298808996504292
 20
1.9379999999997324
 11
-8.7838808996504767
 21
1.9379999999997324
 72
     1
 10
-8.7838808996504767
 20
1.9379999999997324
 11
-8.7838808996504341
 21
-1.9380000000002759
 72
     1
 10
-8.7838808996504341
 20
-1.9380000000002759
 11
-7.8718808996504421
 21
-2.1660000000002846
 72
     1
 10
-7.8718808996504421
 20
-2.1660000000002846
 11
-7.8718808996504421
 21
-2.8500000000002856
 72
     1
 10
-7.8718808996504421
 20
-2.8500000000002856
 11
-10.607880899650446
 21
-2.8500000000002856
 72
     1
 10
-10.607880899650446
 20
-2.8500000000002856
 11
-10.607880899650446
 21
-2.1660000000002846
 72
     1
 10
-10.607880899650446
 20
-2.1660000000002846
 11
-9.6958808996504686
 21
-1.9380000000002759
 72
     1
 10
-9.6958808996504686
 20
-1.9380000000002759
 11
-9.6958808996504686
 21
1.9379999999997324
 97
        0
 75
     0
 76
     1
 98
        1
 10
0.0
 20
0.0
  0
HATCH
  5
93
100
AcDbEntity
  8
0
  6
CONTINUOUS
 62
     3
100
AcDbHatch
 10
0.0
 20
0.0
 30
0.0
210
0.0
220
0.0
230
1.0
  2
SOLID
 70
     1
 71
     1
 91
        1
 92
        1
 93
        4
 72
     1
 10
-13.115880899650485
 20
-1.0260000000002698
 11
-13.115880899650428
 21
-0.1140000000002175
 72
     1
 10
-13.115880899650428
 20
-0.1140000000002175
 11
-12.20388089965045
 21
-0.1140000000002743
 72
     1
 10
-12.20388089965045
 20
-0.1140000000002743
 11
-12.20388089965045
 21
-1.0260000000002698
 72
     1
 10
-12.20388089965045
 20
-1.0260000000002698
 11
-13.115880899650428
 21
-1.0260000000002698
 97
        0
 75
     0
 76
     1
 98
        1
 10
0.0
 20
0.0
  0
HATCH
  5
94
100
AcDbEntity
  8
0
  6
CONTINUOUS
 62
     3
100
AcDbHatch
 10
0.0
 20
0.0
 30
0.0
210
0.0
220
0.0
230
1.0
  2
SOLID
 70
     1
 71
     1
 91
        1
 92
        1
 93
       12
 72
     1
 10
-14.141880899650467
 20
2.8499999999997421
 11
-14.141880899650467
 21
2.1659999999997304
 72
     1
 10
-14.141880899650467
 20
2.1659999999997304
 11
-15.053880899650444
 21
1.9379999999997324
 72
     1
 10
-15.053880899650444
 20
1.9379999999997324
 11
-15.053880899650444
 21
-1.9380000000002759
 72
     1
 10
-15.053880899650444
 20
-1.9380000000002759
 11
-14.141880899650467
 21
-2.1660000000002846
 72
     1
 10
-14.141880899650467
 20
-2.1660000000002846
 11
-14.141880899650467
 21
-2.8500000000002856
 72
     1
 10
-14.141880899650467
 20
-2.8500000000002856
 11
-16.877880899650467
 21
-2.8500000000002856
 72
     1
 10
-16.877880899650467
 20
-2.8500000000002856
 11
-16.877880899650467
 21
-2.1660000000002846
 72
     1
 10
-16.877880899650467
 20
-2.1660000000002846
 11
-15.965880899650482
 21
-1.9380000000002759
 72
     1
 10
-15.965880899650482
 20
-1.9380000000002759
 11
-15.965880899650482
 21
1.9379999999997324
 72
     1
 10
-15.965880899650482
 20
1.9379999999997324
 11
-16.877880899650467
 21
2.165999999999741
 72
     1
 10
-16.877880899650467
 20
2.165999999999741
 11
-16.877880899650467
 21
2.8499999999997421
 72
     1
 10
-16.877880899650467
 20
2.8499999999997421
 11
-14.141880899650467
 21
2.8499999999997421
 97
        0
 75
     0
 76
     1
 98
        1
 10
0.0
 20
0.0
  0
HATCH
  5
95
100
AcDbEntity
  8
0
  6
CONTINUOUS
 62
     3
100
AcDbHatch
 10
0.0
 20
0.0
 30
0.0
210
0.0
220
0.0
230
1.0
  2
SOLID
 70
     1
 71
     1
 91
        1
 92
        1
 93
       15
 72
     2
 10
-23.082241990843084
 20
-0.0000000000001492
 40
2.531053105310535
 50
124.301153
 51
180.0
 73
     0
 72
     1
 10
-25.613295096153617
 20
0.0
 11
-24.658234262528236
 21
0.0
 72
     2
 10
-22.195587997901765
 20
-0.000000000000135
 40
2.46264626462647
 50
180.0
 51
199.464384
 73
     1
 72
     2
 10
-24.557343260027135
 20
0.2731786481661374
 40
1.094509450945121
 50
272.086657
 51
294.619977
 73
     1
 72
     2
 10
-24.243863734539655
 20
-0.4108897586745677
 40
0.342034203420344
 50
294.619977
 51
0.0
 73
     1
 72
     1
 10
-23.901829531119287
 20
-0.4108897586745677
 11
-23.901829531119287
 21
0.0
 72
     1
 10
-23.901829531119287
 20
0.0
 11
-23.080947442910482
 21
0.0
 72
     1
 10
-23.080947442910482
 20
0.0
 11
-23.080947442910482
 21
-0.4116155274721614
 72
     2
 10
-22.73891323949012
 20
-0.4116155274721614
 40
0.34203420342033
 50
180.0
 51
245.380023
 73
     1
 72
     2
 10
-22.425433714002583
 20
0.2724528793686645
 40
1.0945094509452411
 50
245.380023
 51
267.913343
 73
     1
 72
     1
 10
-22.465285876753814
 20
-0.8213308027789985
 11
-22.465285876753814
 21
-1.0265513248311819
 72
     1
 10
-22.465285876753814
 20
-1.0265513248311819
 11
-24.434073870576871
 21
-1.0265513248311962
 72
     2
 10
-22.195587997901708
 20
-0.000000000000135
 40
2.4626462646264669
 50
204.635803
 51
268.19864
 73
     1
 72
     1
 10
-22.272999999999005
 20
-2.4614292609397985
 11
-22.272999999999005
 21
-2.8039503813289706
 72
     2
 10
-22.195587997901765
 20
1.2997299729972909
 40
4.1044104410441236
 50
91.080702
 51
124.301153
 73
     0
 97
        0
 75
     0
 76
     1
 98
        1
 10
0.0
 20
0.0
  0
HATCH
  5
96
100
AcDbEntity
  8
0
  6
CONTINUOUS
 62
     3
100
AcDbHatch
 10
0.0
 20
0.0
 30
0.0
210
0.0
220
0.0
230
1.0
  2
SOLID
 70
     1
 71
     1
 91
        1
 92
        1
 93
       24
 72
     2
 10
-22.67055612196938
 20
0.3420342034202015
 40
0.342034203420347
 50
90.0
 51
157.380135
 73
     1
 72
     2
 10
-21.849674033760575
 20
-0.0000000000001101
 40
1.231323132313237
 50
157.380135
 51
180.0
 73
     1
 72
     1
 10
-23.080997166073811
 20
0.0
 11
-23.901829531119287
 21
0.0
 72
     1
 10
-23.901829531119287
 20
0.0
 11
-23.901829531119287
 21
1.7757720729310194
 72
     2
 10
-22.195587997901765
 20
-0.000000000000135
 40
2.46264626462647
 50
133.856042
 51
180.0
 73
     1
 72
     1
 10
-24.658234262528236
 20
0.0
 11
-25.613295096153617
 21
0.0
 72
     2
 10
-23.082241990843084
 20
-0.0000000000001492
 40
2.531053105310535
 50
180.0
 51
235.698847
 73
     0
 72
     2
 10
-22.195587997901708
 20
-1.2997299729975893
 40
4.1044104410441324
 50
235.698847
 51
245.436008
 73
     0
 72
     1
 10
-23.901829531119287
 20
2.4332212587861193
 11
-23.901829531119287
 21
2.8049575222742433
 72
     2
 10
-24.243863734539655
 20
2.8049575222742433
 40
0.3420342034203421
 50
0.0
 51
65.380023
 73
     1
 72
     2
 10
-24.557343260027135
 20
2.1208891154335525
 40
1.0945094509450961
 50
65.380023
 51
87.913343
 73
     1
 72
     1
 10
-24.517491097275904
 20
3.2146727975810734
 11
-24.517491097275904
 21
3.4198933196332746
 72
     1
 10
-24.517491097275904
 20
3.4198933196332746
 11
-22.465285876753814
 21
3.4198933196332746
 72
     1
 10
-22.465285876753814
 20
3.4198933196332746
 11
-22.465285876753814
 21
3.2146727975810769
 72
     2
 10
-22.425433714002583
 20
2.1208891154335525
 40
1.094509450945101
 50
92.086657
 51
114.619977
 73
     1
 72
     2
 10
-22.738913239490063
 20
2.8049575222742575
 40
0.342034203420347
 50
114.619977
 51
180.0
 73
     1
 72
     1
 10
-23.080947442910432
 20
2.8049575222742433
 11
-23.080947442910432
 21
2.7080529205341897
 72
     2
 10
-22.195587997901765
 20
-1.2997299729975893
 40
4.1044104410441218
 50
257.542857
 51
268.919298
 73
     0
 72
     1
 10
-22.272999999999005
 20
2.8039503813286721
 11
-22.272999999999005
 21
2.4614292609395321
 72
     2
 10
-22.195587997901708
 20
-0.000000000000135
 40
2.46264626462647
 50
91.80136
 51
111.070443
 73
     1
 72
     1
 10
-23.080947442910482
 20
2.2979915747913111
 11
-23.080947442910482
 21
1.0261026102608923
 72
     1
 10
-23.080947442910482
 20
1.0261026102608923
 11
-22.272999999998969
 21
1.0261026102608923
 72
     1
 10
-22.272999999998969
 20
1.0261026102608923
 11
-22.272999999999005
 21
0.6840684068405416
 72
     1
 10
-22.272999999999005
 20
0.6840684068405416
 11
-22.67055612196938
 21
0.6840684068405416
 97
        0
 75
     0
 76
     1
 98
        1
 10
0.0
 20
0.0
  0
HATCH
  5
97
100
AcDbEntity
  8
0
  6
CONTINUOUS
 62
     3
100
AcDbHatch
 10
0.0
 20
0.0
 30
0.0
210
0.0
220
0.0
230
1.0
  2
SOLID
 70
     1
 71
     1
 91
        1
 92
        1
 93
       14
 72
     2
 10
-22.195587997901765
 20
-0.000000000000135
 40
2.4626462646264748
 50
0.0
 51
9.281799
 73
     1
 72
     2
 10
-20.102741104833992
 20
0.3420342034202015
 40
0.34203420342034
 50
9.281799
 51
90.0
 73
     1
 72
     1
 10
-20.102741104833992
 20
0.6840684068405416
 11
-20.827451184220411
 21
0.6840684068405416
 72
     1
 10
-20.827451184220411
 20
0.6840684068405416
 11
-20.827451184220411
 21
0.0
 72
     1
 10
-20.827451184220411
 20
0.0
 11
-21.648333272429209
 21
0.0
 72
     1
 10
-21.648333272429209
 20
0.0
 11
-21.648333272429209
 21
0.6840684068405416
 72
     1
 10
-21.648333272429209
 20
0.6840684068405416
 11
-22.272999999999005
 21
0.6840684068405416
 72
     1
 10
-22.272999999999005
 20
0.6840684068405416
 11
-22.272999999999005
 21
1.0261026102608923
 72
     1
 10
-22.272999999999005
 20
1.0261026102608923
 11
-19.956896402818945
 21
1.0261026102608675
 72
     2
 10
-22.195587997901708
 20
-0.000000000000135
 40
2.46264626462647
 50
24.624318
 51
91.80136
 73
     1
 72
     1
 10
-22.272999999999005
 20
2.4614292609395321
 11
-22.272999999999005
 21
2.8039503813286721
 72
     2
 10
-22.195587997901765
 20
-1.2997299729975893
 40
4.1044104410441218
 50
268.919298
 51
304.301153
 73
     0
 72
     2
 10
-21.308934004960445
 20
-0.0000000000001492
 40
2.5310531053105372
 50
304.301153
 51
0.0
 73
     0
 72
     1
 10
-18.777880899649912
 20
0.0
 11
-19.732941733275293
 21
0.0
 97
        0
 75
     0
 76
     1
 98
        1
 10
0.0
 20
0.0
  0
HATCH
  5
98
100
AcDbEntity
  8
0
  6
CONTINUOUS
 62
     3
100
AcDbHatch
 10
0.0
 20
0.0
 30
0.0
210
0.0
220
0.0
230
1.0
  2
SOLID
 70
     1
 71
     1
 91
        1
 92
        1
 93
       19
 72
     2
 10
-22.195587997901765
 20
-0.000000000000135
 40
2.4626462646264748
 50
303.748989
 51
0.0
 73
     1
 72
     1
 10
-19.732941733275293
 20
0.0
 11
-18.777880899649912
 21
0.0
 72
     2
 10
-21.308934004960445
 20
-0.0000000000001492
 40
2.5310531053105372
 50
0.0
 51
55.698847
 73
     0
 72
     2
 10
-22.195587997901708
 20
1.2997299729973051
 40
4.1044104410441289
 50
55.698847
 51
70.528779
 73
     0
 72
     1
 10
-20.827451184220411
 20
-2.5699453011829512
 11
-20.827451184220411
 21
-2.8054062368445436
 72
     2
 10
-20.485416980800043
 20
-2.8054062368445436
 40
0.342034203420344
 50
180.0
 51
245.380023
 73
     1
 72
     2
 10
-20.171937455312563
 20
-2.1213378300038528
 40
1.094509450945099
 50
245.380023
 51
267.913343
 73
     1
 72
     1
 10
-20.211789618063744
 20
-3.2151215121513772
 11
-20.211789618063744
 21
-3.4203420342035784
 72
     1
 10
-20.211789618063744
 20
-3.4203420342035784
 11
-22.263994838585827
 21
-3.4203420342035784
 72
     1
 10
-22.263994838585827
 20
-3.4203420342035784
 11
-22.263994838585827
 21
-3.2151215121513737
 72
     2
 10
-22.303847001337058
 20
-2.1213378300038528
 40
1.094509450945099
 50
272.086657
 51
294.619977
 73
     1
 72
     2
 10
-21.990367475849578
 20
-2.8054062368445436
 40
0.342034203420344
 50
294.619977
 51
0.0
 73
     1
 72
     1
 10
-21.648333272429209
 20
-2.8054062368445436
 11
-21.648333272429209
 21
-2.7680332125876284
 72
     2
 10
-22.195587997901765
 20
1.2997299729972909
 40
4.1044104410441236
 50
82.337744
 51
91.080702
 73
     0
 72
     1
 10
-22.272999999999005
 20
-2.8039503813289706
 11
-22.272999999999005
 21
-2.4614292609397985
 72
     2
 10
-22.195587997901708
 20
-0.000000000000135
 40
2.4626462646264669
 50
268.19864
 51
282.839588
 73
     1
 72
     1
 10
-21.648333272429209
 20
-2.4010703634269781
 11
-21.648333272429209
 21
0.0
 72
     1
 10
-21.648333272429209
 20
0.0
 11
-20.827451184220411
 21
0.0
 72
     1
 10
-20.827451184220411
 20
0.0
 11
-20.827451184220411
 21
-2.047639686011447
 97
        0
 75
     0
 76
     1
 98
        1
 10
0.0
 20
0.0
  0
ENDBLK
  5
99
100
AcDbEntity
  8
0
100
AcDbBlockEnd
  0
ENDSEC
  0
SECTION
  2
ENTITIES
  0
TEXT
  5
9A
100
AcDbEntity
  8
LAY-1
  6
CONTINUOUS
 62
     3
100
AcDbText
 10
333.629176
 20
-95.950326
 30
0.0
 40
8.0
  1
型式
 41
0.984714
  7
EXCADSTD
 72
     5
 11
350.821338
 21
-95.950326
 31
0.0
100
AcDbText
  0
TEXT
  5
9B
100
AcDbEntity
  8
LAY-1
  6
CONTINUOUS
 62
     3
100
AcDbText
 10
333.437176
 20
-107.214326
 30
0.0
 40
8.0
  1
品名
 41
0.984714
  7
EXCADSTD
 72
     5
 11
350.629338
 21
-107.214326
 31
0.0
100
AcDbText
  0
LINE
  5
9C
100
AcDbEntity
  8
LAY-1
  6
CONTINUOUS
 62
     4
100
AcDbLine
 10
329.853176
 20
-118.574326
 30
0.0
 11
473.213176
 21
-118.574326
 31
0.0
  0
LINE
  5
9D
100
AcDbEntity
  8
LAY-1
  6
CONTINUOUS
 62
     1
100
AcDbLine
 10
329.853176
 20
-108.814326
 30
0.0
 11
473.213176
 21
-108.814326
 31
0.0
  0
TEXT
  5
9E
100
AcDbEntity
  8
LAY-1
  6
CONTINUOUS
 62
     3
100
AcDbText
 10
380.797176
 20
-117.518326
 30
0.0
 40
8.0
  1
外観図
 41
1.47392
  7
EXCADSTD
 72
     5
 11
422.909175
 21
-117.518326
 31
0.0
100
AcDbText
  0
LINE
  5
9F
100
AcDbEntity
  8
LAY-1
  6
CONTINUOUS
 62
     4
100
AcDbLine
 10
329.853176
 20
-75.214326
 30
0.0
 11
473.213176
 21
-75.214326
 31
0.0
  0
LINE
  5
A0
100
AcDbEntity
  8
LAY-1
  6
CONTINUOUS
 62
     1
100
AcDbLine
 10
329.853176
 20
-97.614326
 30
0.0
 11
473.213176
 21
-97.614326
 31
0.0
  0
LINE
  5
A1
100
AcDbEntity
  8
LAY-1
  6
CONTINUOUS
 62
     1
100
AcDbLine
 10
329.853176
 20
-86.414326
 30
0.0
 11
473.213176
 21
-86.414326
 31
0.0
  0
LINE
  5
A2
100
AcDbEntity
  8
LAY-1
  6
CONTINUOUS
 62
     1
100
AcDbLine
 10
353.853176
 20
-75.214326
 30
0.0
 11
353.853176
 21
-108.814326
 31
0.0
  0
LINE
  5
A3
100
AcDbEntity
  8
LAY-1
  6
CONTINUOUS
 62
     4
100
AcDbLine
 10
329.853176
 20
-128.334326
 30
0.0
 11
473.213176
 21
-128.334326
 31
0.0
  0
LINE
  5
A4
100
AcDbEntity
  8
LAY-1
  6
CONTINUOUS
 62
     4
100
AcDbLine
 10
473.213176
 20
-128.334326
 30
0.0
 11
473.213176
 21
-75.214326
 31
0.0
  0
LINE
  5
A5
100
AcDbEntity
  8
LAY-1
  6
CONTINUOUS
 62
     4
100
AcDbLine
 10
329.853176
 20
-128.334326
 30
0.0
 11
329.853176
 21
-75.214326
 31
0.0
  0
TEXT
  5
A6
100
AcDbEntity
  8
LAY-1
  6
CONTINUOUS
 62
     3
100
AcDbText
 10
330.877176
 20
-85.006326
 30
0.0
 40
8.0
  1
作成日
 41
0.84
  7
EXCADSTD
 72
     5
 11
354.877176
 21
-85.006326
 31
0.0
100
AcDbText
  0
LINE
  5
A7
100
AcDbEntity
  8
LAY-1
  6
EXLTYPE3
 62
     1
100
AcDbLine
 10
87.213176
 20
141.865674
 30
0.0
 11
-73.786824
 21
141.865674
 31
0.0
  0
LINE
  5
A8
100
AcDbEntity
  8
LAY-1
  6
EXLTYPE3
 62
     1
100
AcDbLine
 10
-33.486824
 20
81.565674
 30
0.0
 11
-33.486824
 21
202.865674
 31
0.0
  0
LINE
  5
A9
100
AcDbEntity
  8
LAY-1
  6
EXLTYPE3
 62
     1
100
AcDbLine
 10
18.713176
 20
89.865674
 30
0.0
 11
12.495616
 21
89.865674
 31
0.0
  0
LINE
  5
AA
100
AcDbEntity
  8
LAY-1
  6
EXLTYPE3
 62
     1
100
AcDbLine
 10
17.513176
 20
154.365674
 30
0.0
 11
17.513176
 21
126.965674
 31
0.0
  0
LINE
  5
AB
100
AcDbEntity
  8
LAY-1
  6
CONTINUOUS
 62
     2
100
AcDbLine
 10
-61.486824
 20
178.365674
 30
0.0
 11
-54.401681
 21
178.489345
 31
0.0
  0
LINE
  5
AC
100
AcDbEntity
  8
LAY-1
  6
CONTINUOUS
 62
     2
100
AcDbLine
 10
-61.486824
 20
105.365674
 30
0.0
 11
-54.401681
 21
105.242002
 31
0.0
  0
ARC
  5
AD
100
AcDbEntity
  8
LAY-1
  6
CONTINUOUS
 62
     2
100
AcDbCircle
 10
-50.986824
 20
184.108315
 30
0.0
 40
3.0
100
AcDbArc
 50
180.0
 51
225.0
  0
ARC
  5
AE
100
AcDbEntity
  8
LAY-1
  6
CONTINUOUS
 62
     2
100
AcDbCircle
 10
-54.436586
 20
180.489041
 30
0.0
 40
2.0
100
AcDbArc
 50
271.0
 51
42.827977
  0
LINE
  5
AF
100
AcDbEntity
  8
LAY-1
  6
CONTINUOUS
 62
     2
100
AcDbLine
 10
-52.96979
 20
181.84864
 30
0.0
 11
-53.108144
 21
181.986994
 31
0.0
  0
ARC
  5
B0
100
AcDbEntity
  8
LAY-1
  6
CONTINUOUS
 62
     2
100
AcDbCircle
 10
-50.986824
 20
99.623033
 30
0.0
 40
3.0
100
AcDbArc
 50
135.0
 51
180.0
  0
ARC
  5
B1
100
AcDbEntity
  8
LAY-1
  6
CONTINUOUS
 62
     2
100
AcDbCircle
 10
-54.436586
 20
103.242307
 30
0.0
 40
2.0
100
AcDbArc
 50
317.172023
 51
89.0
  0
LINE
  5
B2
100
AcDbEntity
  8
LAY-1
  6
CONTINUOUS
 62
     2
100
AcDbLine
 10
-53.108144
 20
101.744354
 30
0.0
 11
-52.96979
 21
101.882708
 31
0.0
  0
LINE
  5
B3
100
AcDbEntity
  8
LAY-1
  6
CONTINUOUS
 62
     2
100
AcDbLine
 10
-0.486824
 20
72.865674
 30
0.0
 11
-4.486824
 21
72.865674
 31
0.0
  0
ARC
  5
B4
100
AcDbEntity
  8
LAY-1
  6
CONTINUOUS
 62
     2
100
AcDbCircle
 10
-4.486824
 20
74.865674
 30
0.0
 40
2.0
100
AcDbArc
 50
180.0
 51
270.0
  0
ARC
  5
B5
100
AcDbEntity
  8
LAY-1
  6
CONTINUOUS
 62
     2
100
AcDbCircle
 10
-9.486824
 20
81.004458
 30
0.0
 40
3.0
100
AcDbArc
 50
0.0
 51
30.0
  0
ARC
  5
B6
100
AcDbEntity
  8
LAY-1
  6
CONTINUOUS
 62
     2
100
AcDbCircle
 10
-9.984047
 20
83.865674
 30
0.0
 40
2.0
100
AcDbArc
 50
30.0
 51
90.0
  0
LINE
  5
B7
100
AcDbEntity
  8
LAY-1
  6
CONTINUOUS
 62
     2
100
AcDbLine
 10
-0.486824
 20
210.865674
 30
0.0
 11
-4.486824
 21
210.865674
 31
0.0
  0
ARC
  5
B8
100
AcDbEntity
  8
LAY-1
  6
CONTINUOUS
 62
     2
100
AcDbCircle
 10
-4.486824
 20
208.865674
 30
0.0
 40
2.0
100
AcDbArc
 50
90.0
 51
180.0
  0
ARC
  5
B9
100
AcDbEntity
  8
LAY-1
  6
CONTINUOUS
 62
     2
100
AcDbCircle
 10
-9.486824
 20
202.72689
 30
0.0
 40
3.0
100
AcDbArc
 50
330.0
 51
0.0
  0
ARC
  5
BA
100
AcDbEntity
  8
LAY-1
  6
CONTINUOUS
 62
     2
100
AcDbCircle
 10
-9.984047
 20
199.865674
 30
0.0
 40
2.0
100
AcDbArc
 50
270.0
 51
330.0
  0
LINE
  5
BB
100
AcDbEntity
  8
LAY-1
  6
CONTINUOUS
 62
     2
100
AcDbLine
 10
-53.986824
 20
195.865674
 30
0.0
 11
-53.986824
 21
184.108315
 31
0.0
  0
LINE
  5
BC
100
AcDbEntity
  8
LAY-1
  6
CONTINUOUS
 62
     2
100
AcDbLine
 10
-9.984047
 20
197.865674
 30
0.0
 11
-51.986824
 21
197.865674
 31
0.0
  0
ARC
  5
BD
100
AcDbEntity
  8
LAY-1
  6
CONTINUOUS
 62
     2
100
AcDbCircle
 10
-51.986824
 20
195.865674
 30
0.0
 40
2.0
100
AcDbArc
 50
90.0
 51
180.0
  0
LINE
  5
BE
100
AcDbEntity
  8
LAY-1
  6
CONTINUOUS
 62
     2
100
AcDbLine
 10
-53.986824
 20
87.865674
 30
0.0
 11
-53.986824
 21
99.623033
 31
0.0
  0
LINE
  5
BF
100
AcDbEntity
  8
LAY-1
  6
CONTINUOUS
 62
     2
100
AcDbLine
 10
-9.984047
 20
85.865674
 30
0.0
 11
-51.986824
 21
85.865674
 31
0.0
  0
ARC
  5
C0
100
AcDbEntity
  8
LAY-1
  6
CONTINUOUS
 62
     2
100
AcDbCircle
 10
-51.986824
 20
87.865674
 30
0.0
 40
2.0
100
AcDbArc
 50
180.0
 51
270.0
  0
LINE
  5
C1
100
AcDbEntity
  8
LAY-1
  6
CONTINUOUS
 62
     2
100
AcDbLine
 10
-66.486824
 20
133.285224
 30
0.0
 11
-66.486824
 21
141.865674
 31
0.0
  0
ARC
  5
C2
100
AcDbEntity
  8
LAY-1
  6
CONTINUOUS
 62
     2
100
AcDbCircle
 10
-63.986824
 20
133.285224
 30
0.0
 40
2.5
100
AcDbArc
 50
180.0
 51
260.0
  0
LINE
  5
C3
100
AcDbEntity
  8
LAY-1
  6
CONTINUOUS
 62
     2
100
AcDbLine
 10
-66.486824
 20
150.446124
 30
0.0
 11
-66.486824
 21
141.865674
 31
0.0
  0
ARC
  5
C4
100
AcDbEntity
  8
LAY-1
  6
CONTINUOUS
 62
     2
100
AcDbCircle
 10
-63.986824
 20
150.446124
 30
0.0
 40
2.5
100
AcDbArc
 50
100.0
 51
180.0
  0
ARC
  5
C5
100
AcDbEntity
  8
LAY-1
  6
CONTINUOUS
 62
     2
100
AcDbCircle
 10
-63.986824
 20
153.492404
 30
0.0
 40
0.5
100
AcDbArc
 50
280.0
 51
0.0
  0
LINE
  5
C6
100
AcDbEntity
  8
LAY-1
  6
CONTINUOUS
 62
     2
100
AcDbLine
 10
-63.9
 20
153.0
 30
0.0
 11
-64.420945
 21
152.908143
 31
0.0
  0
LINE
  5
C7
100
AcDbEntity
  8
LAY-1
  6
CONTINUOUS
 62
     2
100
AcDbLine
 10
-61.486824
 20
178.365674
 30
0.0
 11
-63.486824
 21
178.365674
 31
0.0
  0
LINE
  5
C8
100
AcDbEntity
  8
LAY-1
  6
CONTINUOUS
 62
     2
100
AcDbLine
 10
-61.486824
 20
105.365674
 30
0.0
 11
-63.486824
 21
105.365674
 31
0.0
  0
ARC
  5
C9
100
AcDbEntity
  8
LAY-1
  6
CONTINUOUS
 62
     2
100
AcDbCircle
 10
4.513176
 20
209.865674
 30
0.0
 40
1.0
100
AcDbArc
 50
0.0
 51
90.0
  0
LINE
  5
CA
100
AcDbEntity
  8
LAY-1
  6
CONTINUOUS
 62
     2
100
AcDbLine
 10
5.513176
 20
209.865674
 30
0.0
 11
5.513176
 21
209.250412
 31
0.0
  0
ARC
  5
CB
100
AcDbEntity
  8
LAY-1
  6
CONTINUOUS
 62
     2
100
AcDbCircle
 10
32.165611
 20
179.020015
 30
0.0
 40
16.0
100
AcDbArc
 50
188.528444
 51
269.0
  0
LINE
  5
CC
100
AcDbEntity
  8
LAY-1
  6
CONTINUOUS
 62
     2
100
AcDbLine
 10
16.342533
 20
176.647209
 30
0.0
 11
16.090444
 21
178.328263
 31
0.0
  0
LINE
  5
CD
100
AcDbEntity
  8
LAY-1
  6
CONTINUOUS
 62
     2
100
AcDbLine
 10
69.513176
 20
121.365674
 30
0.0
 11
31.886372
 21
120.708896
 31
0.0
  0
LINE
  5
CE
100
AcDbEntity
  8
LAY-1
  6
CONTINUOUS
 62
     2
100
AcDbLine
 10
69.513176
 20
121.865674
 30
0.0
 11
70.513176
 21
121.865674
 31
0.0
  0
LINE
  5
CF
100
AcDbEntity
  8
LAY-1
  6
CONTINUOUS
 62
     2
100
AcDbLine
 10
69.513176
 20
121.365674
 30
0.0
 11
69.513176
 21
124.586044
 31
0.0
  0
ARC
  5
D0
100
AcDbEntity
  8
LAY-1
  6
CONTINUOUS
 62
     2
100
AcDbCircle
 10
32.165611
 20
104.711332
 30
0.0
 40
16.0
100
AcDbArc
 50
91.0
 51
171.471556
  0
LINE
  5
D1
100
AcDbEntity
  8
LAY-1
  6
CONTINUOUS
 62
     2
100
AcDbLine
 10
4.513176
 20
72.865674
 30
0.0
 11
-0.486824
 21
72.865674
 31
0.0
  0
ARC
  5
D2
100
AcDbEntity
  8
LAY-1
  6
CONTINUOUS
 62
     2
100
AcDbCircle
 10
-9.486824
 20
81.004458
 30
0.0
 40
3.0
100
AcDbArc
 50
0.0
 51
30.0
  0
LINE
  5
D3
100
AcDbEntity
  8
LAY-1
  6
CONTINUOUS
 62
     2
100
AcDbLine
 10
-38.486824
 20
76.565674
 30
0.0
 11
-35.486824
 21
76.565674
 31
0.0
  0
LINE
  5
D4
100
AcDbEntity
  8
LAY-1
  6
CONTINUOUS
 62
     2
100
AcDbLine
 10
-33.486824
 20
81.565674
 30
0.0
 11
-38.486824
 21
76.565674
 31
0.0
  0
LINE
  5
D5
100
AcDbEntity
  8
LAY-1
  6
CONTINUOUS
 62
     2
100
AcDbLine
 10
-28.486824
 20
76.565674
 30
0.0
 11
-33.486824
 21
81.565674
 31
0.0
  0
LINE
  5
D6
100
AcDbEntity
  8
LAY-1
  6
CONTINUOUS
 62
     2
100
AcDbLine
 10
-31.486824
 20
76.565674
 30
0.0
 11
-28.486824
 21
76.565674
 31
0.0
  0
LINE
  5
D7
100
AcDbEntity
  8
LAY-1
  6
CONTINUOUS
 62
     2
100
AcDbLine
 10
-31.486824
 20
66.565674
 30
0.0
 11
-31.486824
 21
76.565674
 31
0.0
  0
LINE
  5
D8
100
AcDbEntity
  8
LAY-1
  6
CONTINUOUS
 62
     2
100
AcDbLine
 10
-35.486824
 20
76.565674
 30
0.0
 11
-35.486824
 21
66.565674
 31
0.0
  0
LINE
  5
D9
100
AcDbEntity
  8
LAY-1
  6
CONTINUOUS
 62
     2
100
AcDbLine
 10
-35.486824
 20
66.565674
 30
0.0
 11
-31.486824
 21
66.565674
 31
0.0
  0
LINE
  5
DA
100
AcDbEntity
  8
LAY-1
  6
CONTINUOUS
 62
     2
100
AcDbLine
 10
-0.486824
 20
210.865674
 30
0.0
 11
4.513176
 21
210.865674
 31
0.0
  0
ARC
  5
DB
100
AcDbEntity
  8
LAY-1
  6
CONTINUOUS
 62
     2
100
AcDbCircle
 10
4.513176
 20
73.865674
 30
0.0
 40
1.0
100
AcDbArc
 50
270.0
 51
0.0
  0
ARC
  5
DC
100
AcDbEntity
  8
LAY-1
  6
CONTINUOUS
 62
     2
100
AcDbCircle
 10
6.513176
 20
73.980936
 30
0.0
 40
1.0
100
AcDbArc
 50
92.0
 51
180.0
  0
LINE
  5
DD
100
AcDbEntity
  8
LAY-1
  6
CONTINUOUS
 62
     2
100
AcDbLine
 10
15.548075
 20
75.297051
 30
0.0
 11
6.478276
 21
74.980327
 31
0.0
  0
ARC
  5
DE
100
AcDbEntity
  8
LAY-1
  6
CONTINUOUS
 62
     2
100
AcDbCircle
 10
15.513176
 20
76.296442
 30
0.0
 40
1.0
100
AcDbArc
 50
272.0
 51
0.0
  0
LINE
  5
DF
100
AcDbEntity
  8
LAY-1
  6
CONTINUOUS
 62
     2
100
AcDbLine
 10
16.513176
 20
76.296442
 30
0.0
 11
16.513176
 21
103.434906
 31
0.0
  0
LINE
  5
E0
100
AcDbEntity
  8
LAY-1
  6
CONTINUOUS
 62
     2
100
AcDbLine
 10
14.812229
 20
96.879292
 30
0.0
 11
14.523758
 21
94.955627
 31
0.0
  0
LINE
  5
E1
100
AcDbEntity
  8
LAY-1
  6
CONTINUOUS
 62
     2
100
AcDbLine
 10
16.342533
 20
107.084139
 30
0.0
 11
16.090444
 21
105.403084
 31
0.0
  0
ARC
  5
E2
100
AcDbEntity
  8
LAY-1
  6
CONTINUOUS
 62
     2
100
AcDbCircle
 10
15.513176
 20
103.434906
 30
0.0
 40
1.0
100
AcDbArc
 50
0.0
 51
46.807118
  0
ARC
  5
E3
100
AcDbEntity
  8
LAY-1
  6
CONTINUOUS
 62
     2
100
AcDbCircle
 10
16.539861
 20
104.528486
 30
0.0
 40
0.5
100
AcDbArc
 50
223.424495
 51
226.807118
  0
ARC
  5
E4
100
AcDbEntity
  8
LAY-1
  6
CONTINUOUS
 62
     2
100
AcDbCircle
 10
16.473665
 20
104.587061
 30
0.0
 40
0.5
100
AcDbArc
 50
171.471556
 51
233.566479
  0
LINE
  5
E5
100
AcDbEntity
  8
LAY-1
  6
CONTINUOUS
 62
     2
100
AcDbLine
 10
16.090444
 20
105.403084
 30
0.0
 11
15.979194
 21
104.661211
 31
0.0
  0
ARC
  5
E6
100
AcDbEntity
  8
LAY-1
  6
CONTINUOUS
 62
     2
100
AcDbCircle
 10
-63.986824
 20
130.238944
 30
0.0
 40
0.5
100
AcDbArc
 50
0.0
 51
80.0
  0
LINE
  5
E7
100
AcDbEntity
  8
LAY-1
  6
CONTINUOUS
 62
     2
100
AcDbLine
 10
-63.486824
 20
178.330764
 30
0.0
 11
-63.486824
 21
105.365674
 31
0.0
  0
LINE
  5
E8
100
AcDbEntity
  8
LAY-1
  6
CONTINUOUS
 62
     2
100
AcDbLine
 10
-61.486824
 20
105.365674
 30
0.0
 11
-61.486824
 21
178.365674
 31
0.0
  0
LINE
  5
E9
100
AcDbEntity
  8
LAY-1
  6
CONTINUOUS
 62
     2
100
AcDbLine
 10
-0.486824
 20
210.865674
 30
0.0
 11
-0.486824
 21
72.865674
 31
0.0
  0
LINE
  5
EA
100
AcDbEntity
  8
LAY-1
  6
CONTINUOUS
 62
     2
100
AcDbLine
 10
5.513176
 20
209.250412
 30
0.0
 11
5.513176
 21
73.980936
 31
0.0
  0
LINE
  5
EB
100
AcDbEntity
  8
LAY-1
  6
CONTINUOUS
 62
     2
100
AcDbLine
 10
-6.486824
 20
74.865674
 30
0.0
 11
-6.486824
 21
208.865674
 31
0.0
  0
LINE
  5
EC
100
AcDbEntity
  8
LAY-1
  6
CONTINUOUS
 62
     2
100
AcDbLine
 10
69.513176
 20
162.365674
 30
0.0
 11
69.513176
 21
141.865674
 31
0.0
  0
LINE
  5
ED
100
AcDbEntity
  8
LAY-1
  6
CONTINUOUS
 62
     2
100
AcDbLine
 10
69.513176
 20
122.365674
 30
0.0
 11
69.513176
 21
141.865674
 31
0.0
  0
LINE
  5
EE
100
AcDbEntity
  8
LAY-1
  6
CONTINUOUS
 62
     2
100
AcDbLine
 10
-63.9
 20
130.731348
 30
0.0
 11
-64.420945
 21
130.823204
 31
0.0
  0
LINE
  5
EF
100
AcDbEntity
  8
LAY-1
  6
CONTINUOUS
 62
     2
100
AcDbLine
 10
-41.978202
 20
85.865674
 30
0.0
 11
-41.978202
 21
100.865674
 31
0.0
  0
LINE
  5
F0
100
AcDbEntity
  8
LAY-1
  6
CONTINUOUS
 62
     2
100
AcDbLine
 10
-41.978202
 20
197.865674
 30
0.0
 11
-41.978202
 21
182.865674
 31
0.0
  0
ARC
  5
F1
100
AcDbEntity
  8
LAY-1
  6
CONTINUOUS
 62
     2
100
AcDbCircle
 10
-8.486824
 20
105.272407
 30
0.0
 40
10.0
100
AcDbArc
 50
180.0
 51
210.0
  0
LINE
  5
F2
100
AcDbEntity
  8
LAY-1
  6
CONTINUOUS
 62
     2
100
AcDbLine
 10
-17.4635
 20
100.865674
 30
0.0
 11
-51.986824
 21
100.865674
 31
0.0
  0
LINE
  5
F3
100
AcDbEntity
  8
LAY-1
  6
CONTINUOUS
 62
     2
100
AcDbLine
 10
-6.888748
 20
82.504458
 30
0.0
 11
-17.147078
 21
100.272407
 31
0.0
  0
ARC
  5
F4
100
AcDbEntity
  8
LAY-1
  6
CONTINUOUS
 62
     2
100
AcDbCircle
 10
-8.486824
 20
178.458941
 30
0.0
 40
10.0
100
AcDbArc
 50
150.0
 51
180.0
  0
LINE
  5
F5
100
AcDbEntity
  8
LAY-1
  6
CONTINUOUS
 62
     2
100
AcDbLine
 10
-6.888748
 20
201.22689
 30
0.0
 11
-17.147078
 21
183.458941
 31
0.0
  0
LINE
  5
F6
100
AcDbEntity
  8
LAY-1
  6
CONTINUOUS
 62
     2
100
AcDbLine
 10
-17.4635
 20
182.865674
 30
0.0
 11
-52.96979
 21
182.865674
 31
0.0
  0
LINE
  5
F7
100
AcDbEntity
  8
LAY-1
  6
CONTINUOUS
 62
     2
100
AcDbLine
 10
-64.815989
 20
114.84181
 30
0.0
 11
-63.486824
 21
114.84181
 31
0.0
  0
ARC
  5
F8
100
AcDbEntity
  8
LAY-1
  6
CONTINUOUS
 62
     2
100
AcDbCircle
 10
-59.186824
 20
119.59181
 30
0.0
 40
8.0
100
AcDbArc
 50
180.0
 51
210.0
  0
ARC
  5
F9
100
AcDbEntity
  8
LAY-1
  6
CONTINUOUS
 62
     2
100
AcDbCircle
 10
-64.815989
 20
116.34181
 30
0.0
 40
1.5
100
AcDbArc
 50
210.0
 51
270.0
  0
LINE
  5
FA
100
AcDbEntity
  8
LAY-1
  6
CONTINUOUS
 62
     2
100
AcDbLine
 10
-64.815989
 20
124.34181
 30
0.0
 11
-63.486824
 21
124.34181
 31
0.0
  0
ARC
  5
FB
100
AcDbEntity
  8
LAY-1
  6
CONTINUOUS
 62
     2
100
AcDbCircle
 10
-59.186824
 20
119.59181
 30
0.0
 40
8.0
100
AcDbArc
 50
150.0
 51
180.0
  0
ARC
  5
FC
100
AcDbEntity
  8
LAY-1
  6
CONTINUOUS
 62
     2
100
AcDbCircle
 10
-64.815989
 20
122.84181
 30
0.0
 40
1.5
100
AcDbArc
 50
90.0
 51
150.0
  0
LINE
  5
FD
100
AcDbEntity
  8
LAY-1
  6
CONTINUOUS
 62
     2
100
AcDbLine
 10
-64.815989
 20
168.889537
 30
0.0
 11
-63.486824
 21
168.889537
 31
0.0
  0
ARC
  5
FE
100
AcDbEntity
  8
LAY-1
  6
CONTINUOUS
 62
     2
100
AcDbCircle
 10
-59.186824
 20
164.139537
 30
0.0
 40
8.0
100
AcDbArc
 50
150.0
 51
180.0
  0
ARC
  5
FF
100
AcDbEntity
  8
LAY-1
  6
CONTINUOUS
 62
     2
100
AcDbCircle
 10
-64.815989
 20
167.389537
 30
0.0
 40
1.5
100
AcDbArc
 50
90.0
 51
150.0
  0
LINE
  5
100
100
AcDbEntity
  8
LAY-1
  6
CONTINUOUS
 62
     2
100
AcDbLine
 10
-64.815989
 20
159.389537
 30
0.0
 11
-63.486824
 21
159.389537
 31
0.0
  0
ARC
  5
101
100
AcDbEntity
  8
LAY-1
  6
CONTINUOUS
 62
     2
100
AcDbCircle
 10
-59.186824
 20
164.139537
 30
0.0
 40
8.0
100
AcDbArc
 50
180.0
 51
210.0
  0
ARC
  5
102
100
AcDbEntity
  8
LAY-1
  6
CONTINUOUS
 62
     2
100
AcDbCircle
 10
-64.815989
 20
160.889537
 30
0.0
 40
1.5
100
AcDbArc
 50
210.0
 51
270.0
  0
LINE
  5
103
100
AcDbEntity
  8
LAY-1
  6
CONTINUOUS
 62
     2
100
AcDbLine
 10
6.842341
 20
196.243964
 30
0.0
 11
5.513176
 21
196.243964
 31
0.0
  0
ARC
  5
104
100
AcDbEntity
  8
LAY-1
  6
CONTINUOUS
 62
     2
100
AcDbCircle
 10
1.213176
 20
200.993964
 30
0.0
 40
8.0
100
AcDbArc
 50
330.0
 51
0.0
  0
ARC
  5
105
100
AcDbEntity
  8
LAY-1
  6
CONTINUOUS
 62
     2
100
AcDbCircle
 10
6.842341
 20
197.743964
 30
0.0
 40
1.5
100
AcDbArc
 50
270.0
 51
330.0
  0
LINE
  5
106
100
AcDbEntity
  8
LAY-1
  6
CONTINUOUS
 62
     2
100
AcDbLine
 10
6.842341
 20
205.743964
 30
0.0
 11
5.513176
 21
205.743964
 31
0.0
  0
ARC
  5
107
100
AcDbEntity
  8
LAY-1
  6
CONTINUOUS
 62
     2
100
AcDbCircle
 10
1.213176
 20
200.993964
 30
0.0
 40
8.0
100
AcDbArc
 50
0.0
 51
30.0
  0
ARC
  5
108
100
AcDbEntity
  8
LAY-1
  6
CONTINUOUS
 62
     2
100
AcDbCircle
 10
6.842341
 20
204.243964
 30
0.0
 40
1.5
100
AcDbArc
 50
30.0
 51
90.0
  0
LINE
  5
109
100
AcDbEntity
  8
LAY-1
  6
CONTINUOUS
 62
     2
100
AcDbLine
 10
6.842341
 20
161.607414
 30
0.0
 11
5.513176
 21
161.607414
 31
0.0
  0
ARC
  5
10A
100
AcDbEntity
  8
LAY-1
  6
CONTINUOUS
 62
     2
100
AcDbCircle
 10
1.213176
 20
166.357414
 30
0.0
 40
8.0
100
AcDbArc
 50
330.0
 51
0.0
  0
ARC
  5
10B
100
AcDbEntity
  8
LAY-1
  6
CONTINUOUS
 62
     2
100
AcDbCircle
 10
6.842341
 20
163.107414
 30
0.0
 40
1.5
100
AcDbArc
 50
270.0
 51
330.0
  0
LINE
  5
10C
100
AcDbEntity
  8
LAY-1
  6
CONTINUOUS
 62
     2
100
AcDbLine
 10
6.842341
 20
171.107414
 30
0.0
 11
5.513176
 21
171.107414
 31
0.0
  0
ARC
  5
10D
100
AcDbEntity
  8
LAY-1
  6
CONTINUOUS
 62
     2
100
AcDbCircle
 10
1.213176
 20
166.357414
 30
0.0
 40
8.0
100
AcDbArc
 50
0.0
 51
30.0
  0
ARC
  5
10E
100
AcDbEntity
  8
LAY-1
  6
CONTINUOUS
 62
     2
100
AcDbCircle
 10
6.842341
 20
169.607414
 30
0.0
 40
1.5
100
AcDbArc
 50
30.0
 51
90.0
  0
ARC
  5
10F
100
AcDbEntity
  8
LAY-1
  6
CONTINUOUS
 62
     2
100
AcDbCircle
 10
2.65645
 20
186.996116
 30
0.0
 40
12.0
100
AcDbArc
 50
8.528444
 51
61.294394
  0
LINE
  5
110
100
AcDbEntity
  8
LAY-1
  6
CONTINUOUS
 62
     2
100
AcDbLine
 10
6.842341
 20
122.123934
 30
0.0
 11
5.513176
 21
122.123934
 31
0.0
  0
ARC
  5
111
100
AcDbEntity
  8
LAY-1
  6
CONTINUOUS
 62
     2
100
AcDbCircle
 10
1.213176
 20
117.373934
 30
0.0
 40
8.0
100
AcDbArc
 50
0.0
 51
30.0
  0
ARC
  5
112
100
AcDbEntity
  8
LAY-1
  6
CONTINUOUS
 62
     2
100
AcDbCircle
 10
6.842341
 20
120.623934
 30
0.0
 40
1.5
100
AcDbArc
 50
30.0
 51
90.0
  0
LINE
  5
113
100
AcDbEntity
  8
LAY-1
  6
CONTINUOUS
 62
     2
100
AcDbLine
 10
6.842341
 20
112.623934
 30
0.0
 11
5.513176
 21
112.623934
 31
0.0
  0
ARC
  5
114
100
AcDbEntity
  8
LAY-1
  6
CONTINUOUS
 62
     2
100
AcDbCircle
 10
1.213176
 20
117.373934
 30
0.0
 40
8.0
100
AcDbArc
 50
330.0
 51
0.0
  0
ARC
  5
115
100
AcDbEntity
  8
LAY-1
  6
CONTINUOUS
 62
     2
100
AcDbCircle
 10
6.842341
 20
114.123934
 30
0.0
 40
1.5
100
AcDbArc
 50
270.0
 51
330.0
  0
LINE
  5
116
100
AcDbEntity
  8
LAY-1
  6
CONTINUOUS
 62
     2
100
AcDbLine
 10
6.842341
 20
87.487384
 30
0.0
 11
5.513176
 21
87.487384
 31
0.0
  0
ARC
  5
117
100
AcDbEntity
  8
LAY-1
  6
CONTINUOUS
 62
     2
100
AcDbCircle
 10
1.213176
 20
82.737384
 30
0.0
 40
8.0
100
AcDbArc
 50
0.0
 51
30.0
  0
ARC
  5
118
100
AcDbEntity
  8
LAY-1
  6
CONTINUOUS
 62
     2
100
AcDbCircle
 10
6.842341
 20
85.987384
 30
0.0
 40
1.5
100
AcDbArc
 50
30.0
 51
90.0
  0
LINE
  5
119
100
AcDbEntity
  8
LAY-1
  6
CONTINUOUS
 62
     2
100
AcDbLine
 10
6.842341
 20
77.987384
 30
0.0
 11
5.513176
 21
77.987384
 31
0.0
  0
ARC
  5
11A
100
AcDbEntity
  8
LAY-1
  6
CONTINUOUS
 62
     2
100
AcDbCircle
 10
1.213176
 20
82.737384
 30
0.0
 40
8.0
100
AcDbArc
 50
330.0
 51
0.0
  0
ARC
  5
11B
100
AcDbEntity
  8
LAY-1
  6
CONTINUOUS
 62
     2
100
AcDbCircle
 10
6.842341
 20
79.487384
 30
0.0
 40
1.5
100
AcDbArc
 50
270.0
 51
330.0
  0
LINE
  5
11C
100
AcDbEntity
  8
LAY-1
  6
CONTINUOUS
 62
     2
100
AcDbLine
 10
16.342533
 20
107.084139
 30
0.0
 11
14.77058
 21
96.601556
 31
0.0
  0
ARC
  5
11D
100
AcDbEntity
  8
LAY-1
  6
CONTINUOUS
 62
     2
100
AcDbCircle
 10
2.65645
 20
96.735232
 30
0.0
 40
12.0
100
AcDbArc
 50
298.705606
 51
351.471556
  0
CIRCLE
  5
11E
100
AcDbEntity
  8
LAY-1
  6
CONTINUOUS
 62
     2
100
AcDbCircle
 10
17.513176
 20
141.865674
 30
0.0
 40
8.5
  0
ARC
  5
11F
100
AcDbEntity
  8
LAY-1
  6
CONTINUOUS
 62
     2
100
AcDbCircle
 10
7.513176
 20
154.216101
 30
0.0
 40
2.0
100
AcDbArc
 50
180.0
 51
268.0
  0
LINE
  5
120
100
AcDbEntity
  8
LAY-1
  6
CONTINUOUS
 62
     2
100
AcDbLine
 10
7.443377
 20
152.217319
 30
0.0
 11
17.513176
 21
151.865674
 31
0.0
  0
LINE
  5
121
100
AcDbEntity
  8
LAY-1
  6
CONTINUOUS
 62
     2
100
AcDbLine
 10
7.443377
 20
131.514029
 30
0.0
 11
17.513176
 21
131.865674
 31
0.0
  0
ARC
  5
122
100
AcDbEntity
  8
LAY-1
  6
CONTINUOUS
 62
     2
100
AcDbCircle
 10
7.513176
 20
129.515247
 30
0.0
 40
2.0
100
AcDbArc
 50
92.0
 51
180.0
  0
ARC
  5
123
100
AcDbEntity
  8
LAY-1
  6
CONTINUOUS
 62
     2
100
AcDbCircle
 10
17.513176
 20
141.865674
 30
0.0
 40
10.0
100
AcDbArc
 50
270.0
 51
90.0
  0
LINE
  5
124
100
AcDbEntity
  8
LAY-1
  6
CONTINUOUS
 62
     2
100
AcDbLine
 10
16.090444
 20
178.328263
 30
0.0
 11
14.523758
 21
188.775721
 31
0.0
  0
ARC
  5
125
100
AcDbEntity
  8
LAY-1
  6
CONTINUOUS
 62
     2
100
AcDbCircle
 10
-31.486824
 20
133.797051
 30
0.0
 40
2.0
100
AcDbArc
 50
180.0
 51
268.0
  0
LINE
  5
126
100
AcDbEntity
  8
LAY-1
  6
CONTINUOUS
 62
     2
100
AcDbLine
 10
-33.486824
 20
133.797051
 30
0.0
 11
-33.486824
 21
149.934296
 31
0.0
  0
ARC
  5
127
100
AcDbEntity
  8
LAY-1
  6
CONTINUOUS
 62
     2
100
AcDbCircle
 10
-31.486824
 20
149.934296
 30
0.0
 40
2.0
100
AcDbArc
 50
92.0
 51
180.0
  0
LINE
  5
128
100
AcDbEntity
  8
LAY-1
  6
CONTINUOUS
 62
     2
100
AcDbLine
 10
-12.293448
 20
131.125585
 30
0.0
 11
-31.556623
 21
131.79827
 31
0.0
  0
LINE
  5
129
100
AcDbEntity
  8
LAY-1
  6
CONTINUOUS
 62
     2
100
AcDbLine
 10
-31.556623
 20
151.933078
 30
0.0
 11
-12.293448
 21
152.605763
 31
0.0
  0
ARC
  5
12A
100
AcDbEntity
  8
LAY-1
  6
CONTINUOUS
 62
     2
100
AcDbCircle
 10
-21.397181
 20
141.865674
 30
0.0
 40
14.079328
100
AcDbArc
 50
310.285956
 51
49.714044
  0
LINE
  5
12B
100
AcDbEntity
  8
LAY-1
  6
CONTINUOUS
 62
     2
100
AcDbLine
 10
-18.486824
 20
152.389485
 30
0.0
 11
-18.486824
 21
178.458941
 31
0.0
  0
LINE
  5
12C
100
AcDbEntity
  8
LAY-1
  6
CONTINUOUS
 62
     2
100
AcDbLine
 10
-18.486824
 20
105.272407
 30
0.0
 11
-18.486824
 21
131.341862
 31
0.0
  0
ARC
  5
12D
100
AcDbEntity
  8
LAY-1
  6
CONTINUOUS
 62
     2
100
AcDbCircle
 10
-41.680671
 20
224.416883
 30
0.0
 40
45.052192
100
AcDbArc
 50
256.176929
 51
269.621608
  0
ARC
  5
12E
100
AcDbEntity
  8
LAY-1
  6
CONTINUOUS
 62
     2
100
AcDbCircle
 10
-41.680671
 20
59.314464
 30
0.0
 40
45.052192
100
AcDbArc
 50
90.378392
 51
103.823071
  0
LINE
  5
12F
100
AcDbEntity
  8
LAY-1
  6
CONTINUOUS
 62
     2
100
AcDbLine
 10
-41.978202
 20
104.365674
 30
0.0
 11
-18.445631
 21
104.365674
 31
0.0
  0
LINE
  5
130
100
AcDbEntity
  8
LAY-1
  6
CONTINUOUS
 62
     2
100
AcDbLine
 10
-41.978202
 20
179.365674
 30
0.0
 11
-18.486824
 21
179.365674
 31
0.0
  0
LINE
  5
131
100
AcDbEntity
  8
LAY-1
  6
CONTINUOUS
 62
     2
100
AcDbLine
 10
69.513176
 20
161.865674
 30
0.0
 11
70.513176
 21
161.865674
 31
0.0
  0
LINE
  5
132
100
AcDbEntity
  8
LAY-1
  6
CONTINUOUS
 62
     2
100
AcDbLine
 10
69.513176
 20
162.365674
 30
0.0
 11
69.513176
 21
159.145303
 31
0.0
  0
LINE
  5
133
100
AcDbEntity
  8
LAY-1
  6
CONTINUOUS
 62
     2
100
AcDbLine
 10
79.013176
 20
141.865674
 30
0.0
 11
79.013176
 21
162.365674
 31
0.0
  0
LINE
  5
134
100
AcDbEntity
  8
LAY-1
  6
CONTINUOUS
 62
     2
100
AcDbLine
 10
70.513176
 20
162.365674
 30
0.0
 11
70.513176
 21
141.865674
 31
0.0
  0
LINE
  5
135
100
AcDbEntity
  8
LAY-1
  6
CONTINUOUS
 62
     2
100
AcDbLine
 10
79.013176
 20
162.365674
 30
0.0
 11
77.858475
 21
164.365674
 31
0.0
  0
LINE
  5
136
100
AcDbEntity
  8
LAY-1
  6
CONTINUOUS
 62
     2
100
AcDbLine
 10
70.513176
 20
162.365674
 30
0.0
 11
71.667876
 21
164.365674
 31
0.0
  0
LINE
  5
137
100
AcDbEntity
  8
LAY-1
  6
CONTINUOUS
 62
     2
100
AcDbLine
 10
77.858475
 20
164.365674
 30
0.0
 11
71.667876
 21
164.365674
 31
0.0
  0
LINE
  5
138
100
AcDbEntity
  8
LAY-1
  6
CONTINUOUS
 62
     2
100
AcDbLine
 10
79.013176
 20
153.324174
 30
0.0
 11
79.013176
 21
155.865674
 31
0.0
  0
LINE
  5
139
100
AcDbEntity
  8
LAY-1
  6
CONTINUOUS
 62
     2
100
AcDbLine
 10
79.013176
 20
141.865674
 30
0.0
 11
79.013176
 21
155.365674
 31
0.0
  0
ARC
  5
13A
100
AcDbEntity
  8
LAY-1
  6
CONTINUOUS
 62
     2
100
AcDbCircle
 10
-15.986824
 20
141.865674
 30
0.0
 40
100.0
100
AcDbArc
 50
0.0
 51
7.54548
  0
LINE
  5
13B
100
AcDbEntity
  8
LAY-1
  6
CONTINUOUS
 62
     2
100
AcDbLine
 10
82.155929
 20
155.865674
 30
0.0
 11
79.013176
 21
155.865674
 31
0.0
  0
ARC
  5
13C
100
AcDbEntity
  8
LAY-1
  6
CONTINUOUS
 62
     2
100
AcDbCircle
 10
82.155929
 20
154.865674
 30
0.0
 40
1.0
100
AcDbArc
 50
7.54548
 51
90.0
  0
LINE
  5
13D
100
AcDbEntity
  8
LAY-1
  6
CONTINUOUS
 62
     2
100
AcDbLine
 10
79.013176
 20
153.324174
 30
0.0
 11
79.013176
 21
155.865674
 31
0.0
  0
LINE
  5
13E
100
AcDbEntity
  8
LAY-1
  6
CONTINUOUS
 62
     2
100
AcDbLine
 10
83.013176
 20
142.865674
 30
0.0
 11
79.013176
 21
142.865674
 31
0.0
  0
LINE
  5
13F
100
AcDbEntity
  8
LAY-1
  6
CONTINUOUS
 62
     2
100
AcDbLine
 10
82.013176
 20
147.731104
 30
0.0
 11
79.013176
 21
147.731104
 31
0.0
  0
ARC
  5
140
100
AcDbEntity
  8
LAY-1
  6
CONTINUOUS
 62
     2
100
AcDbCircle
 10
82.013176
 20
146.731104
 30
0.0
 40
1.0
100
AcDbArc
 50
0.0
 51
90.0
  0
LINE
  5
141
100
AcDbEntity
  8
LAY-1
  6
CONTINUOUS
 62
     2
100
AcDbLine
 10
82.013176
 20
147.981768
 30
0.0
 11
79.013176
 21
147.981768
 31
0.0
  0
ARC
  5
142
100
AcDbEntity
  8
LAY-1
  6
CONTINUOUS
 62
     2
100
AcDbCircle
 10
82.013176
 20
146.981768
 30
0.0
 40
1.0
100
AcDbArc
 50
0.0
 51
90.0
  0
LINE
  5
143
100
AcDbEntity
  8
LAY-1
  6
CONTINUOUS
 62
     2
100
AcDbLine
 10
82.013176
 20
149.713819
 30
0.0
 11
79.013176
 21
149.713819
 31
0.0
  0
ARC
  5
144
100
AcDbEntity
  8
LAY-1
  6
CONTINUOUS
 62
     2
100
AcDbCircle
 10
82.013176
 20
148.713819
 30
0.0
 40
1.0
100
AcDbArc
 50
0.0
 51
90.0
  0
LINE
  5
145
100
AcDbEntity
  8
LAY-1
  6
CONTINUOUS
 62
     2
100
AcDbLine
 10
82.013176
 20
153.024898
 30
0.0
 11
79.013176
 21
153.024898
 31
0.0
  0
ARC
  5
146
100
AcDbEntity
  8
LAY-1
  6
CONTINUOUS
 62
     2
100
AcDbCircle
 10
82.013176
 20
152.024898
 30
0.0
 40
1.0
100
AcDbArc
 50
0.0
 51
90.0
  0
LINE
  5
147
100
AcDbEntity
  8
LAY-1
  6
CONTINUOUS
 62
     2
100
AcDbLine
 10
82.013176
 20
153.45906
 30
0.0
 11
79.013176
 21
153.45906
 31
0.0
  0
ARC
  5
148
100
AcDbEntity
  8
LAY-1
  6
CONTINUOUS
 62
     2
100
AcDbCircle
 10
82.013176
 20
152.45906
 30
0.0
 40
1.0
100
AcDbArc
 50
0.0
 51
90.0
  0
LINE
  5
149
100
AcDbEntity
  8
LAY-1
  6
CONTINUOUS
 62
     2
100
AcDbLine
 10
82.013176
 20
154.45906
 30
0.0
 11
79.013176
 21
154.45906
 31
0.0
  0
ARC
  5
14A
100
AcDbEntity
  8
LAY-1
  6
CONTINUOUS
 62
     2
100
AcDbCircle
 10
82.013176
 20
153.45906
 30
0.0
 40
1.0
100
AcDbArc
 50
0.0
 51
90.0
  0
LINE
  5
14B
100
AcDbEntity
  8
LAY-1
  6
CONTINUOUS
 62
     2
100
AcDbLine
 10
82.013176
 20
155.328586
 30
0.0
 11
79.013176
 21
155.328586
 31
0.0
  0
ARC
  5
14C
100
AcDbEntity
  8
LAY-1
  6
CONTINUOUS
 62
     2
100
AcDbCircle
 10
82.013176
 20
154.328586
 30
0.0
 40
1.0
100
AcDbArc
 50
0.0
 51
90.0
  0
LINE
  5
14D
100
AcDbEntity
  8
LAY-1
  6
CONTINUOUS
 62
     2
100
AcDbLine
 10
83.013176
 20
146.731104
 30
0.0
 11
83.013176
 21
146.981768
 31
0.0
  0
LINE
  5
14E
100
AcDbEntity
  8
LAY-1
  6
CONTINUOUS
 62
     2
100
AcDbLine
 10
83.013176
 20
152.024898
 30
0.0
 11
83.013176
 21
152.45906
 31
0.0
  0
LINE
  5
14F
100
AcDbEntity
  8
LAY-1
  6
CONTINUOUS
 62
     2
100
AcDbLine
 10
77.858475
 20
154.982385
 30
0.0
 11
77.858475
 21
151.139292
 31
0.0
  0
LINE
  5
150
100
AcDbEntity
  8
LAY-1
  6
CONTINUOUS
 62
     2
100
AcDbLine
 10
71.667876
 20
154.982385
 30
0.0
 11
71.667876
 21
151.139292
 31
0.0
  0
LINE
  5
151
100
AcDbEntity
  8
LAY-1
  6
CONTINUOUS
 62
     2
100
AcDbLine
 10
71.667876
 20
151.139292
 30
0.0
 11
77.858475
 21
151.139292
 31
0.0
  0
LINE
  5
152
100
AcDbEntity
  8
LAY-1
  6
CONTINUOUS
 62
     2
100
AcDbLine
 10
71.667876
 20
154.982385
 30
0.0
 11
77.858475
 21
154.982385
 31
0.0
  0
ARC
  5
153
100
AcDbEntity
  8
LAY-1
  6
CONTINUOUS
 62
     2
100
AcDbCircle
 10
68.908192
 20
159.67403
 30
0.0
 40
10.105399
100
AcDbArc
 50
332.336945
 51
27.663055
  0
ARC
  5
154
100
AcDbEntity
  8
LAY-1
  6
CONTINUOUS
 62
     2
100
AcDbCircle
 10
80.605893
 20
159.67403
 30
0.0
 40
10.094536
100
AcDbArc
 50
152.30462
 51
207.69538
  0
ARC
  5
155
100
AcDbEntity
  8
LAY-1
  6
CONTINUOUS
 62
     2
100
AcDbCircle
 10
41.196733
 20
141.865674
 30
0.0
 40
37.816443
100
AcDbArc
 50
0.0
 51
14.195258
  0
ARC
  5
156
100
AcDbEntity
  8
LAY-1
  6
CONTINUOUS
 62
     2
100
AcDbCircle
 10
108.329619
 20
141.865674
 30
0.0
 40
37.816443
100
AcDbArc
 50
165.804742
 51
180.0
  0
LINE
  5
157
100
AcDbEntity
  8
LAY-1
  6
CONTINUOUS
 62
     2
100
AcDbLine
 10
79.013176
 20
141.865674
 30
0.0
 11
79.013176
 21
121.365674
 31
0.0
  0
LINE
  5
158
100
AcDbEntity
  8
LAY-1
  6
CONTINUOUS
 62
     2
100
AcDbLine
 10
70.513176
 20
121.365674
 30
0.0
 11
70.513176
 21
141.865674
 31
0.0
  0
LINE
  5
159
100
AcDbEntity
  8
LAY-1
  6
CONTINUOUS
 62
     2
100
AcDbLine
 10
79.013176
 20
121.365674
 30
0.0
 11
77.858475
 21
119.365674
 31
0.0
  0
LINE
  5
15A
100
AcDbEntity
  8
LAY-1
  6
CONTINUOUS
 62
     2
100
AcDbLine
 10
70.513176
 20
121.365674
 30
0.0
 11
71.667876
 21
119.365674
 31
0.0
  0
LINE
  5
15B
100
AcDbEntity
  8
LAY-1
  6
CONTINUOUS
 62
     2
100
AcDbLine
 10
77.858475
 20
119.365674
 30
0.0
 11
71.667876
 21
119.365674
 31
0.0
  0
LINE
  5
15C
100
AcDbEntity
  8
LAY-1
  6
CONTINUOUS
 62
     2
100
AcDbLine
 10
79.013176
 20
130.407174
 30
0.0
 11
79.013176
 21
127.865674
 31
0.0
  0
LINE
  5
15D
100
AcDbEntity
  8
LAY-1
  6
CONTINUOUS
 62
     2
100
AcDbLine
 10
79.013176
 20
141.865674
 30
0.0
 11
79.013176
 21
128.365674
 31
0.0
  0
ARC
  5
15E
100
AcDbEntity
  8
LAY-1
  6
CONTINUOUS
 62
     2
100
AcDbCircle
 10
-15.986824
 20
141.865674
 30
0.0
 40
100.0
100
AcDbArc
 50
352.45452
 51
0.0
  0
LINE
  5
15F
100
AcDbEntity
  8
LAY-1
  6
CONTINUOUS
 62
     2
100
AcDbLine
 10
82.155929
 20
127.865674
 30
0.0
 11
79.013176
 21
127.865674
 31
0.0
  0
ARC
  5
160
100
AcDbEntity
  8
LAY-1
  6
CONTINUOUS
 62
     2
100
AcDbCircle
 10
82.155929
 20
128.865674
 30
0.0
 40
1.0
100
AcDbArc
 50
270.0
 51
352.45452
  0
LINE
  5
161
100
AcDbEntity
  8
LAY-1
  6
CONTINUOUS
 62
     2
100
AcDbLine
 10
79.013176
 20
130.407174
 30
0.0
 11
79.013176
 21
127.865674
 31
0.0
  0
LINE
  5
162
100
AcDbEntity
  8
LAY-1
  6
CONTINUOUS
 62
     2
100
AcDbLine
 10
83.013176
 20
140.865674
 30
0.0
 11
79.013176
 21
140.865674
 31
0.0
  0
LINE
  5
163
100
AcDbEntity
  8
LAY-1
  6
CONTINUOUS
 62
     2
100
AcDbLine
 10
82.013176
 20
136.000243
 30
0.0
 11
79.013176
 21
136.000243
 31
0.0
  0
ARC
  5
164
100
AcDbEntity
  8
LAY-1
  6
CONTINUOUS
 62
     2
100
AcDbCircle
 10
82.013176
 20
137.000243
 30
0.0
 40
1.0
100
AcDbArc
 50
270.0
 51
0.0
  0
LINE
  5
165
100
AcDbEntity
  8
LAY-1
  6
CONTINUOUS
 62
     2
100
AcDbLine
 10
82.013176
 20
135.749579
 30
0.0
 11
79.013176
 21
135.749579
 31
0.0
  0
ARC
  5
166
100
AcDbEntity
  8
LAY-1
  6
CONTINUOUS
 62
     2
100
AcDbCircle
 10
82.013176
 20
136.749579
 30
0.0
 40
1.0
100
AcDbArc
 50
270.0
 51
0.0
  0
LINE
  5
167
100
AcDbEntity
  8
LAY-1
  6
CONTINUOUS
 62
     2
100
AcDbLine
 10
82.013176
 20
134.017528
 30
0.0
 11
79.013176
 21
134.017528
 31
0.0
  0
ARC
  5
168
100
AcDbEntity
  8
LAY-1
  6
CONTINUOUS
 62
     2
100
AcDbCircle
 10
82.013176
 20
135.017528
 30
0.0
 40
1.0
100
AcDbArc
 50
270.0
 51
0.0
  0
LINE
  5
169
100
AcDbEntity
  8
LAY-1
  6
CONTINUOUS
 62
     2
100
AcDbLine
 10
82.013176
 20
130.70645
 30
0.0
 11
79.013176
 21
130.70645
 31
0.0
  0
ARC
  5
16A
100
AcDbEntity
  8
LAY-1
  6
CONTINUOUS
 62
     2
100
AcDbCircle
 10
82.013176
 20
131.70645
 30
0.0
 40
1.0
100
AcDbArc
 50
270.0
 51
0.0
  0
LINE
  5
16B
100
AcDbEntity
  8
LAY-1
  6
CONTINUOUS
 62
     2
100
AcDbLine
 10
82.013176
 20
130.272287
 30
0.0
 11
79.013176
 21
130.272287
 31
0.0
  0
ARC
  5
16C
100
AcDbEntity
  8
LAY-1
  6
CONTINUOUS
 62
     2
100
AcDbCircle
 10
82.013176
 20
131.272287
 30
0.0
 40
1.0
100
AcDbArc
 50
270.0
 51
0.0
  0
LINE
  5
16D
100
AcDbEntity
  8
LAY-1
  6
CONTINUOUS
 62
     2
100
AcDbLine
 10
82.013176
 20
129.272287
 30
0.0
 11
79.013176
 21
129.272287
 31
0.0
  0
ARC
  5
16E
100
AcDbEntity
  8
LAY-1
  6
CONTINUOUS
 62
     2
100
AcDbCircle
 10
82.013176
 20
130.272287
 30
0.0
 40
1.0
100
AcDbArc
 50
270.0
 51
0.0
  0
LINE
  5
16F
100
AcDbEntity
  8
LAY-1
  6
CONTINUOUS
 62
     2
100
AcDbLine
 10
82.013176
 20
128.402762
 30
0.0
 11
79.013176
 21
128.402762
 31
0.0
  0
ARC
  5
170
100
AcDbEntity
  8
LAY-1
  6
CONTINUOUS
 62
     2
100
AcDbCircle
 10
82.013176
 20
129.402762
 30
0.0
 40
1.0
100
AcDbArc
 50
270.0
 51
0.0
  0
LINE
  5
171
100
AcDbEntity
  8
LAY-1
  6
CONTINUOUS
 62
     2
100
AcDbLine
 10
83.013176
 20
137.000243
 30
0.0
 11
83.013176
 21
136.749579
 31
0.0
  0
LINE
  5
172
100
AcDbEntity
  8
LAY-1
  6
CONTINUOUS
 62
     2
100
AcDbLine
 10
83.013176
 20
131.70645
 30
0.0
 11
83.013176
 21
131.272287
 31
0.0
  0
LINE
  5
173
100
AcDbEntity
  8
LAY-1
  6
CONTINUOUS
 62
     2
100
AcDbLine
 10
77.858475
 20
128.748962
 30
0.0
 11
77.858475
 21
132.592055
 31
0.0
  0
LINE
  5
174
100
AcDbEntity
  8
LAY-1
  6
CONTINUOUS
 62
     2
100
AcDbLine
 10
71.667876
 20
128.748962
 30
0.0
 11
71.667876
 21
132.592055
 31
0.0
  0
LINE
  5
175
100
AcDbEntity
  8
LAY-1
  6
CONTINUOUS
 62
     2
100
AcDbLine
 10
71.667876
 20
132.592055
 30
0.0
 11
77.858475
 21
132.592055
 31
0.0
  0
LINE
  5
176
100
AcDbEntity
  8
LAY-1
  6
CONTINUOUS
 62
     2
100
AcDbLine
 10
71.667876
 20
128.748962
 30
0.0
 11
77.858475
 21
128.748962
 31
0.0
  0
ARC
  5
177
100
AcDbEntity
  8
LAY-1
  6
CONTINUOUS
 62
     2
100
AcDbCircle
 10
68.908192
 20
124.057318
 30
0.0
 40
10.105399
100
AcDbArc
 50
332.336945
 51
27.663055
  0
ARC
  5
178
100
AcDbEntity
  8
LAY-1
  6
CONTINUOUS
 62
     2
100
AcDbCircle
 10
80.605893
 20
124.057318
 30
0.0
 40
10.094536
100
AcDbArc
 50
152.30462
 51
207.69538
  0
ARC
  5
179
100
AcDbEntity
  8
LAY-1
  6
CONTINUOUS
 62
     2
100
AcDbCircle
 10
41.196733
 20
141.865674
 30
0.0
 40
37.816443
100
AcDbArc
 50
345.804742
 51
0.0
  0
ARC
  5
17A
100
AcDbEntity
  8
LAY-1
  6
CONTINUOUS
 62
     2
100
AcDbCircle
 10
108.329619
 20
141.865674
 30
0.0
 40
37.816443
100
AcDbArc
 50
180.0
 51
194.195258
  0
CIRCLE
  5
17B
100
AcDbEntity
  8
LAY-1
  6
CONTINUOUS
 62
     2
100
AcDbCircle
 10
17.513176
 20
141.865674
 30
0.0
 40
0.5
  0
LINE
  5
17C
100
AcDbEntity
  8
LAY-1
  6
EXLTYPE3
 62
     1
100
AcDbLine
 10
318.813176
 20
141.865674
 30
0.0
 11
479.813176
 21
141.865674
 31
0.0
  0
LINE
  5
17D
100
AcDbEntity
  8
LAY-1
  6
EXLTYPE3
 62
     1
100
AcDbLine
 10
439.513176
 20
81.565674
 30
0.0
 11
439.513176
 21
202.865674
 31
0.0
  0
LINE
  5
17E
100
AcDbEntity
  8
LAY-1
  6
EXLTYPE3
 62
     1
100
AcDbLine
 10
387.313176
 20
89.865674
 30
0.0
 11
393.530736
 21
89.865674
 31
0.0
  0
LINE
  5
17F
100
AcDbEntity
  8
LAY-1
  6
CONTINUOUS
 62
     2
100
AcDbLine
 10
467.513176
 20
178.365674
 30
0.0
 11
460.428033
 21
178.489345
 31
0.0
  0
LINE
  5
180
100
AcDbEntity
  8
LAY-1
  6
CONTINUOUS
 62
     2
100
AcDbLine
 10
467.513176
 20
105.365674
 30
0.0
 11
460.428033
 21
105.242002
 31
0.0
  0
ARC
  5
181
100
AcDbEntity
  8
LAY-1
  6
CONTINUOUS
 62
     2
100
AcDbCircle
 10
457.013176
 20
184.108315
 30
0.0
 40
3.0
100
AcDbArc
 50
315.0
 51
0.0
  0
ARC
  5
182
100
AcDbEntity
  8
LAY-1
  6
CONTINUOUS
 62
     2
100
AcDbCircle
 10
460.462938
 20
180.489041
 30
0.0
 40
2.0
100
AcDbArc
 50
137.172023
 51
269.0
  0
LINE
  5
183
100
AcDbEntity
  8
LAY-1
  6
CONTINUOUS
 62
     2
100
AcDbLine
 10
458.996142
 20
181.84864
 30
0.0
 11
459.134496
 21
181.986994
 31
0.0
  0
ARC
  5
184
100
AcDbEntity
  8
LAY-1
  6
CONTINUOUS
 62
     2
100
AcDbCircle
 10
457.013176
 20
99.623033
 30
0.0
 40
3.0
100
AcDbArc
 50
0.0
 51
45.0
  0
ARC
  5
185
100
AcDbEntity
  8
LAY-1
  6
CONTINUOUS
 62
     2
100
AcDbCircle
 10
460.462938
 20
103.242307
 30
0.0
 40
2.0
100
AcDbArc
 50
91.0
 51
222.827977
  0
LINE
  5
186
100
AcDbEntity
  8
LAY-1
  6
CONTINUOUS
 62
     2
100
AcDbLine
 10
459.134496
 20
101.744354
 30
0.0
 11
458.996142
 21
101.882708
 31
0.0
  0
LINE
  5
187
100
AcDbEntity
  8
LAY-1
  6
CONTINUOUS
 62
     2
100
AcDbLine
 10
406.513176
 20
72.865674
 30
0.0
 11
410.513176
 21
72.865674
 31
0.0
  0
ARC
  5
188
100
AcDbEntity
  8
LAY-1
  6
CONTINUOUS
 62
     2
100
AcDbCircle
 10
410.513176
 20
74.865674
 30
0.0
 40
2.0
100
AcDbArc
 50
270.0
 51
0.0
  0
ARC
  5
189
100
AcDbEntity
  8
LAY-1
  6
CONTINUOUS
 62
     2
100
AcDbCircle
 10
415.513176
 20
81.004458
 30
0.0
 40
3.0
100
AcDbArc
 50
150.0
 51
180.0
  0
ARC
  5
18A
100
AcDbEntity
  8
LAY-1
  6
CONTINUOUS
 62
     2
100
AcDbCircle
 10
416.010399
 20
83.865674
 30
0.0
 40
2.0
100
AcDbArc
 50
90.0
 51
150.0
  0
LINE
  5
18B
100
AcDbEntity
  8
LAY-1
  6
CONTINUOUS
 62
     2
100
AcDbLine
 10
406.513176
 20
210.865674
 30
0.0
 11
410.513176
 21
210.865674
 31
0.0
  0
ARC
  5
18C
100
AcDbEntity
  8
LAY-1
  6
CONTINUOUS
 62
     2
100
AcDbCircle
 10
410.513176
 20
208.865674
 30
0.0
 40
2.0
100
AcDbArc
 50
0.0
 51
90.0
  0
ARC
  5
18D
100
AcDbEntity
  8
LAY-1
  6
CONTINUOUS
 62
     2
100
AcDbCircle
 10
415.513176
 20
202.72689
 30
0.0
 40
3.0
100
AcDbArc
 50
180.0
 51
210.0
  0
ARC
  5
18E
100
AcDbEntity
  8
LAY-1
  6
CONTINUOUS
 62
     2
100
AcDbCircle
 10
416.010399
 20
199.865674
 30
0.0
 40
2.0
100
AcDbArc
 50
210.0
 51
270.0
  0
LINE
  5
18F
100
AcDbEntity
  8
LAY-1
  6
CONTINUOUS
 62
     2
100
AcDbLine
 10
460.013176
 20
195.865674
 30
0.0
 11
460.013176
 21
184.108315
 31
0.0
  0
LINE
  5
190
100
AcDbEntity
  8
LAY-1
  6
CONTINUOUS
 62
     2
100
AcDbLine
 10
416.010399
 20
197.865674
 30
0.0
 11
458.013176
 21
197.865674
 31
0.0
  0
ARC
  5
191
100
AcDbEntity
  8
LAY-1
  6
CONTINUOUS
 62
     2
100
AcDbCircle
 10
458.013176
 20
195.865674
 30
0.0
 40
2.0
100
AcDbArc
 50
0.0
 51
90.0
  0
LINE
  5
192
100
AcDbEntity
  8
LAY-1
  6
CONTINUOUS
 62
     2
100
AcDbLine
 10
460.013176
 20
87.865674
 30
0.0
 11
460.013176
 21
99.623033
 31
0.0
  0
LINE
  5
193
100
AcDbEntity
  8
LAY-1
  6
CONTINUOUS
 62
     2
100
AcDbLine
 10
416.010399
 20
85.865674
 30
0.0
 11
458.013176
 21
85.865674
 31
0.0
  0
ARC
  5
194
100
AcDbEntity
  8
LAY-1
  6
CONTINUOUS
 62
     2
100
AcDbCircle
 10
458.013176
 20
87.865674
 30
0.0
 40
2.0
100
AcDbArc
 50
270.0
 51
0.0
  0
LINE
  5
195
100
AcDbEntity
  8
LAY-1
  6
CONTINUOUS
 62
     2
100
AcDbLine
 10
472.513176
 20
133.285224
 30
0.0
 11
472.513176
 21
141.865674
 31
0.0
  0
ARC
  5
196
100
AcDbEntity
  8
LAY-1
  6
CONTINUOUS
 62
     2
100
AcDbCircle
 10
470.013176
 20
133.285224
 30
0.0
 40
2.5
100
AcDbArc
 50
280.0
 51
0.0
  0
LINE
  5
197
100
AcDbEntity
  8
LAY-1
  6
CONTINUOUS
 62
     2
100
AcDbLine
 10
472.513176
 20
150.446124
 30
0.0
 11
472.513176
 21
141.865674
 31
0.0
  0
ARC
  5
198
100
AcDbEntity
  8
LAY-1
  6
CONTINUOUS
 62
     2
100
AcDbCircle
 10
470.013176
 20
150.446124
 30
0.0
 40
2.5
100
AcDbArc
 50
0.0
 51
80.0
  0
ARC
  5
199
100
AcDbEntity
  8
LAY-1
  6
CONTINUOUS
 62
     2
100
AcDbCircle
 10
470.013176
 20
153.492404
 30
0.0
 40
0.5
100
AcDbArc
 50
180.0
 51
260.0
  0
LINE
  5
19A
100
AcDbEntity
  8
LAY-1
  6
CONTINUOUS
 62
     2
100
AcDbLine
 10
469.926352
 20
153.0
 30
0.0
 11
470.447296
 21
152.908143
 31
0.0
  0
LINE
  5
19B
100
AcDbEntity
  8
LAY-1
  6
CONTINUOUS
 62
     2
100
AcDbLine
 10
467.513176
 20
178.365674
 30
0.0
 11
469.513176
 21
178.365674
 31
0.0
  0
LINE
  5
19C
100
AcDbEntity
  8
LAY-1
  6
CONTINUOUS
 62
     2
100
AcDbLine
 10
467.513176
 20
105.365674
 30
0.0
 11
469.513176
 21
105.365674
 31
0.0
  0
ARC
  5
19D
100
AcDbEntity
  8
LAY-1
  6
CONTINUOUS
 62
     2
100
AcDbCircle
 10
401.513176
 20
209.865674
 30
0.0
 40
1.0
100
AcDbArc
 50
90.0
 51
180.0
  0
LINE
  5
19E
100
AcDbEntity
  8
LAY-1
  6
CONTINUOUS
 62
     2
100
AcDbLine
 10
400.513176
 20
209.865674
 30
0.0
 11
400.513176
 21
209.250412
 31
0.0
  0
LINE
  5
19F
100
AcDbEntity
  8
LAY-1
  6
CONTINUOUS
 62
     2
100
AcDbLine
 10
391.130757
 20
186.296128
 30
0.0
 11
391.502593
 21
188.775721
 31
0.0
  0
ARC
  5
1A0
100
AcDbEntity
  8
LAY-1
  6
CONTINUOUS
 62
     2
100
AcDbCircle
 10
373.860741
 20
179.020015
 30
0.0
 40
16.0
100
AcDbArc
 50
271.0
 51
351.471556
  0
LINE
  5
1A1
100
AcDbEntity
  8
LAY-1
  6
CONTINUOUS
 62
     2
100
AcDbLine
 10
389.683819
 20
176.647209
 30
0.0
 11
389.935908
 21
178.328263
 31
0.0
  0
LINE
  5
1A2
100
AcDbEntity
  8
LAY-1
  6
CONTINUOUS
 62
     2
100
AcDbLine
 10
336.513176
 20
162.365674
 30
0.0
 11
373.652795
 21
163.013948
 31
0.0
  0
LINE
  5
1A3
100
AcDbEntity
  8
LAY-1
  6
CONTINUOUS
 62
     2
100
AcDbLine
 10
336.513176
 20
121.365674
 30
0.0
 11
374.13998
 21
120.708896
 31
0.0
  0
LINE
  5
1A4
100
AcDbEntity
  8
LAY-1
  6
CONTINUOUS
 62
     2
100
AcDbLine
 10
336.513176
 20
121.865674
 30
0.0
 11
335.513176
 21
121.865674
 31
0.0
  0
LINE
  5
1A5
100
AcDbEntity
  8
LAY-1
  6
CONTINUOUS
 62
     2
100
AcDbLine
 10
336.513176
 20
121.365674
 30
0.0
 11
336.513176
 21
124.586044
 31
0.0
  0
ARC
  5
1A6
100
AcDbEntity
  8
LAY-1
  6
CONTINUOUS
 62
     2
100
AcDbCircle
 10
373.860741
 20
104.711332
 30
0.0
 40
16.0
100
AcDbArc
 50
8.528444
 51
89.0
  0
LINE
  5
1A7
100
AcDbEntity
  8
LAY-1
  6
CONTINUOUS
 62
     2
100
AcDbLine
 10
401.513176
 20
72.865674
 30
0.0
 11
406.513176
 21
72.865674
 31
0.0
  0
ARC
  5
1A8
100
AcDbEntity
  8
LAY-1
  6
CONTINUOUS
 62
     2
100
AcDbCircle
 10
415.513176
 20
81.004458
 30
0.0
 40
3.0
100
AcDbArc
 50
150.0
 51
180.0
  0
LINE
  5
1A9
100
AcDbEntity
  8
LAY-1
  6
CONTINUOUS
 62
     2
100
AcDbLine
 10
444.513176
 20
76.565674
 30
0.0
 11
441.513176
 21
76.565674
 31
0.0
  0
LINE
  5
1AA
100
AcDbEntity
  8
LAY-1
  6
CONTINUOUS
 62
     2
100
AcDbLine
 10
439.513176
 20
81.565674
 30
0.0
 11
444.513176
 21
76.565674
 31
0.0
  0
LINE
  5
1AB
100
AcDbEntity
  8
LAY-1
  6
CONTINUOUS
 62
     2
100
AcDbLine
 10
434.513176
 20
76.565674
 30
0.0
 11
439.513176
 21
81.565674
 31
0.0
  0
LINE
  5
1AC
100
AcDbEntity
  8
LAY-1
  6
CONTINUOUS
 62
     2
100
AcDbLine
 10
437.513176
 20
76.565674
 30
0.0
 11
434.513176
 21
76.565674
 31
0.0
  0
LINE
  5
1AD
100
AcDbEntity
  8
LAY-1
  6
CONTINUOUS
 62
     2
100
AcDbLine
 10
437.513176
 20
66.565674
 30
0.0
 11
437.513176
 21
76.565674
 31
0.0
  0
LINE
  5
1AE
100
AcDbEntity
  8
LAY-1
  6
CONTINUOUS
 62
     2
100
AcDbLine
 10
441.513176
 20
76.565674
 30
0.0
 11
441.513176
 21
66.565674
 31
0.0
  0
LINE
  5
1AF
100
AcDbEntity
  8
LAY-1
  6
CONTINUOUS
 62
     2
100
AcDbLine
 10
441.513176
 20
66.565674
 30
0.0
 11
437.513176
 21
66.565674
 31
0.0
  0
LINE
  5
1B0
100
AcDbEntity
  8
LAY-1
  6
CONTINUOUS
 62
     2
100
AcDbLine
 10
444.513176
 20
212.865674
 30
0.0
 11
441.513176
 21
212.865674
 31
0.0
  0
LINE
  5
1B1
100
AcDbEntity
  8
LAY-1
  6
CONTINUOUS
 62
     2
100
AcDbLine
 10
439.513176
 20
217.865674
 30
0.0
 11
444.513176
 21
212.865674
 31
0.0
  0
LINE
  5
1B2
100
AcDbEntity
  8
LAY-1
  6
CONTINUOUS
 62
     2
100
AcDbLine
 10
434.513176
 20
212.865674
 30
0.0
 11
439.513176
 21
217.865674
 31
0.0
  0
LINE
  5
1B3
100
AcDbEntity
  8
LAY-1
  6
CONTINUOUS
 62
     2
100
AcDbLine
 10
437.513176
 20
212.865674
 30
0.0
 11
434.513176
 21
212.865674
 31
0.0
  0
LINE
  5
1B4
100
AcDbEntity
  8
LAY-1
  6
CONTINUOUS
 62
     2
100
AcDbLine
 10
437.513176
 20
202.865674
 30
0.0
 11
437.513176
 21
212.865674
 31
0.0
  0
LINE
  5
1B5
100
AcDbEntity
  8
LAY-1
  6
CONTINUOUS
 62
     2
100
AcDbLine
 10
441.513176
 20
212.865674
 30
0.0
 11
441.513176
 21
202.865674
 31
0.0
  0
LINE
  5
1B6
100
AcDbEntity
  8
LAY-1
  6
CONTINUOUS
 62
     2
100
AcDbLine
 10
441.513176
 20
202.865674
 30
0.0
 11
437.513176
 21
202.865674
 31
0.0
  0
LINE
  5
1B7
100
AcDbEntity
  8
LAY-1
  6
CONTINUOUS
 62
     2
100
AcDbLine
 10
406.513176
 20
210.865674
 30
0.0
 11
401.513176
 21
210.865674
 31
0.0
  0
ARC
  5
1B8
100
AcDbEntity
  8
LAY-1
  6
CONTINUOUS
 62
     2
100
AcDbCircle
 10
401.513176
 20
73.865674
 30
0.0
 40
1.0
100
AcDbArc
 50
180.0
 51
270.0
  0
ARC
  5
1B9
100
AcDbEntity
  8
LAY-1
  6
CONTINUOUS
 62
     2
100
AcDbCircle
 10
399.513176
 20
73.980936
 30
0.0
 40
1.0
100
AcDbArc
 50
0.0
 51
88.0
  0
LINE
  5
1BA
100
AcDbEntity
  8
LAY-1
  6
CONTINUOUS
 62
     2
100
AcDbLine
 10
390.478276
 20
75.297051
 30
0.0
 11
399.548075
 21
74.980327
 31
0.0
  0
ARC
  5
1BB
100
AcDbEntity
  8
LAY-1
  6
CONTINUOUS
 62
     2
100
AcDbCircle
 10
390.513176
 20
76.296442
 30
0.0
 40
1.0
100
AcDbArc
 50
180.0
 51
268.0
  0
LINE
  5
1BC
100
AcDbEntity
  8
LAY-1
  6
CONTINUOUS
 62
     2
100
AcDbLine
 10
389.513176
 20
76.296442
 30
0.0
 11
389.513176
 21
103.434906
 31
0.0
  0
LINE
  5
1BD
100
AcDbEntity
  8
LAY-1
  6
CONTINUOUS
 62
     2
100
AcDbLine
 10
391.214123
 20
96.879292
 30
0.0
 11
391.502593
 21
94.955627
 31
0.0
  0
LINE
  5
1BE
100
AcDbEntity
  8
LAY-1
  6
CONTINUOUS
 62
     2
100
AcDbLine
 10
389.683819
 20
107.084139
 30
0.0
 11
389.935908
 21
105.403084
 31
0.0
  0
ARC
  5
1BF
100
AcDbEntity
  8
LAY-1
  6
CONTINUOUS
 62
     2
100
AcDbCircle
 10
390.513176
 20
103.434906
 30
0.0
 40
1.0
100
AcDbArc
 50
133.192882
 51
180.0
  0
ARC
  5
1C0
100
AcDbEntity
  8
LAY-1
  6
CONTINUOUS
 62
     2
100
AcDbCircle
 10
389.486491
 20
104.528486
 30
0.0
 40
0.5
100
AcDbArc
 50
313.192882
 51
316.575505
  0
ARC
  5
1C1
100
AcDbEntity
  8
LAY-1
  6
CONTINUOUS
 62
     2
100
AcDbCircle
 10
389.552687
 20
104.587061
 30
0.0
 40
0.5
100
AcDbArc
 50
306.433521
 51
8.528444
  0
LINE
  5
1C2
100
AcDbEntity
  8
LAY-1
  6
CONTINUOUS
 62
     2
100
AcDbLine
 10
389.935908
 20
105.403084
 30
0.0
 11
390.047158
 21
104.661211
 31
0.0
  0
ARC
  5
1C3
100
AcDbEntity
  8
LAY-1
  6
CONTINUOUS
 62
     2
100
AcDbCircle
 10
470.013176
 20
130.238944
 30
0.0
 40
0.5
100
AcDbArc
 50
100.0
 51
180.0
  0
LINE
  5
1C4
100
AcDbEntity
  8
LAY-1
  6
CONTINUOUS
 62
     2
100
AcDbLine
 10
469.513176
 20
178.330764
 30
0.0
 11
469.513176
 21
105.365674
 31
0.0
  0
LINE
  5
1C5
100
AcDbEntity
  8
LAY-1
  6
CONTINUOUS
 62
     2
100
AcDbLine
 10
467.513176
 20
105.365674
 30
0.0
 11
467.513176
 21
178.365674
 31
0.0
  0
LINE
  5
1C6
100
AcDbEntity
  8
LAY-1
  6
CONTINUOUS
 62
     2
100
AcDbLine
 10
406.513176
 20
210.865674
 30
0.0
 11
406.513176
 21
72.865674
 31
0.0
  0
LINE
  5
1C7
100
AcDbEntity
  8
LAY-1
  6
CONTINUOUS
 62
     2
100
AcDbLine
 10
400.513176
 20
209.250412
 30
0.0
 11
400.513176
 21
73.980936
 31
0.0
  0
LINE
  5
1C8
100
AcDbEntity
  8
LAY-1
  6
CONTINUOUS
 62
     2
100
AcDbLine
 10
412.513176
 20
74.865674
 30
0.0
 11
412.513176
 21
208.865674
 31
0.0
  0
LINE
  5
1C9
100
AcDbEntity
  8
LAY-1
  6
CONTINUOUS
 62
     2
100
AcDbLine
 10
336.513176
 20
162.365674
 30
0.0
 11
336.513176
 21
141.865674
 31
0.0
  0
LINE
  5
1CA
100
AcDbEntity
  8
LAY-1
  6
CONTINUOUS
 62
     2
100
AcDbLine
 10
336.513176
 20
122.365674
 30
0.0
 11
336.513176
 21
141.865674
 31
0.0
  0
LINE
  5
1CB
100
AcDbEntity
  8
LAY-1
  6
CONTINUOUS
 62
     2
100
AcDbLine
 10
469.926352
 20
130.731348
 30
0.0
 11
470.447296
 21
130.823204
 31
0.0
  0
LINE
  5
1CC
100
AcDbEntity
  8
LAY-1
  6
CONTINUOUS
 62
     2
100
AcDbLine
 10
448.004554
 20
85.865674
 30
0.0
 11
448.004554
 21
100.865674
 31
0.0
  0
ARC
  5
1CD
100
AcDbEntity
  8
LAY-1
  6
CONTINUOUS
 62
     2
100
AcDbCircle
 10
414.513176
 20
105.272407
 30
0.0
 40
10.0
100
AcDbArc
 50
330.0
 51
0.0
  0
LINE
  5
1CE
100
AcDbEntity
  8
LAY-1
  6
CONTINUOUS
 62
     2
100
AcDbLine
 10
423.489851
 20
100.865674
 30
0.0
 11
458.013176
 21
100.865674
 31
0.0
  0
LINE
  5
1CF
100
AcDbEntity
  8
LAY-1
  6
CONTINUOUS
 62
     2
100
AcDbLine
 10
412.9151
 20
82.504458
 30
0.0
 11
423.17343
 21
100.272407
 31
0.0
  0
ARC
  5
1D0
100
AcDbEntity
  8
LAY-1
  6
CONTINUOUS
 62
     2
100
AcDbCircle
 10
414.513176
 20
178.458941
 30
0.0
 40
10.0
100
AcDbArc
 50
0.0
 51
30.0
  0
LINE
  5
1D1
100
AcDbEntity
  8
LAY-1
  6
CONTINUOUS
 62
     2
100
AcDbLine
 10
412.9151
 20
201.22689
 30
0.0
 11
423.17343
 21
183.458941
 31
0.0
  0
LINE
  5
1D2
100
AcDbEntity
  8
LAY-1
  6
CONTINUOUS
 62
     2
100
AcDbLine
 10
424.513176
 20
105.272407
 30
0.0
 11
424.513176
 21
178.458941
 31
0.0
  0
LINE
  5
1D3
100
AcDbEntity
  8
LAY-1
  6
CONTINUOUS
 62
     2
100
AcDbLine
 10
423.489851
 20
182.865674
 30
0.0
 11
458.996142
 21
182.865674
 31
0.0
  0
LINE
  5
1D4
100
AcDbEntity
  8
LAY-1
  6
CONTINUOUS
 62
     2
100
AcDbLine
 10
470.842341
 20
114.84181
 30
0.0
 11
469.513176
 21
114.84181
 31
0.0
  0
ARC
  5
1D5
100
AcDbEntity
  8
LAY-1
  6
CONTINUOUS
 62
     2
100
AcDbCircle
 10
465.213176
 20
119.59181
 30
0.0
 40
8.0
100
AcDbArc
 50
330.0
 51
0.0
  0
ARC
  5
1D6
100
AcDbEntity
  8
LAY-1
  6
CONTINUOUS
 62
     2
100
AcDbCircle
 10
470.842341
 20
116.34181
 30
0.0
 40
1.5
100
AcDbArc
 50
270.0
 51
330.0
  0
LINE
  5
1D7
100
AcDbEntity
  8
LAY-1
  6
CONTINUOUS
 62
     2
100
AcDbLine
 10
470.842341
 20
124.34181
 30
0.0
 11
469.513176
 21
124.34181
 31
0.0
  0
ARC
  5
1D8
100
AcDbEntity
  8
LAY-1
  6
CONTINUOUS
 62
     2
100
AcDbCircle
 10
465.213176
 20
119.59181
 30
0.0
 40
8.0
100
AcDbArc
 50
0.0
 51
30.0
  0
ARC
  5
1D9
100
AcDbEntity
  8
LAY-1
  6
CONTINUOUS
 62
     2
100
AcDbCircle
 10
470.842341
 20
122.84181
 30
0.0
 40
1.5
100
AcDbArc
 50
30.0
 51
90.0
  0
LINE
  5
1DA
100
AcDbEntity
  8
LAY-1
  6
CONTINUOUS
 62
     2
100
AcDbLine
 10
470.842341
 20
168.889537
 30
0.0
 11
469.513176
 21
168.889537
 31
0.0
  0
ARC
  5
1DB
100
AcDbEntity
  8
LAY-1
  6
CONTINUOUS
 62
     2
100
AcDbCircle
 10
465.213176
 20
164.139537
 30
0.0
 40
8.0
100
AcDbArc
 50
0.0
 51
30.0
  0
ARC
  5
1DC
100
AcDbEntity
  8
LAY-1
  6
CONTINUOUS
 62
     2
100
AcDbCircle
 10
470.842341
 20
167.389537
 30
0.0
 40
1.5
100
AcDbArc
 50
30.0
 51
90.0
  0
LINE
  5
1DD
100
AcDbEntity
  8
LAY-1
  6
CONTINUOUS
 62
     2
100
AcDbLine
 10
470.842341
 20
159.389537
 30
0.0
 11
469.513176
 21
159.389537
 31
0.0
  0
ARC
  5
1DE
100
AcDbEntity
  8
LAY-1
  6
CONTINUOUS
 62
     2
100
AcDbCircle
 10
465.213176
 20
164.139537
 30
0.0
 40
8.0
100
AcDbArc
 50
330.0
 51
0.0
  0
ARC
  5
1DF
100
AcDbEntity
  8
LAY-1
  6
CONTINUOUS
 62
     2
100
AcDbCircle
 10
470.842341
 20
160.889537
 30
0.0
 40
1.5
100
AcDbArc
 50
270.0
 51
330.0
  0
LINE
  5
1E0
100
AcDbEntity
  8
LAY-1
  6
CONTINUOUS
 62
     2
100
AcDbLine
 10
399.184011
 20
196.243964
 30
0.0
 11
400.513176
 21
196.243964
 31
0.0
  0
ARC
  5
1E1
100
AcDbEntity
  8
LAY-1
  6
CONTINUOUS
 62
     2
100
AcDbCircle
 10
404.813176
 20
200.993964
 30
0.0
 40
8.0
100
AcDbArc
 50
180.0
 51
210.0
  0
ARC
  5
1E2
100
AcDbEntity
  8
LAY-1
  6
CONTINUOUS
 62
     2
100
AcDbCircle
 10
399.184011
 20
197.743964
 30
0.0
 40
1.5
100
AcDbArc
 50
210.0
 51
270.0
  0
LINE
  5
1E3
100
AcDbEntity
  8
LAY-1
  6
CONTINUOUS
 62
     2
100
AcDbLine
 10
399.184011
 20
205.743964
 30
0.0
 11
400.513176
 21
205.743964
 31
0.0
  0
ARC
  5
1E4
100
AcDbEntity
  8
LAY-1
  6
CONTINUOUS
 62
     2
100
AcDbCircle
 10
404.813176
 20
200.993964
 30
0.0
 40
8.0
100
AcDbArc
 50
150.0
 51
180.0
  0
ARC
  5
1E5
100
AcDbEntity
  8
LAY-1
  6
CONTINUOUS
 62
     2
100
AcDbCircle
 10
399.184011
 20
204.243964
 30
0.0
 40
1.5
100
AcDbArc
 50
90.0
 51
150.0
  0
LINE
  5
1E6
100
AcDbEntity
  8
LAY-1
  6
CONTINUOUS
 62
     2
100
AcDbLine
 10
399.184011
 20
161.607414
 30
0.0
 11
400.513176
 21
161.607414
 31
0.0
  0
ARC
  5
1E7
100
AcDbEntity
  8
LAY-1
  6
CONTINUOUS
 62
     2
100
AcDbCircle
 10
404.813176
 20
166.357414
 30
0.0
 40
8.0
100
AcDbArc
 50
180.0
 51
210.0
  0
ARC
  5
1E8
100
AcDbEntity
  8
LAY-1
  6
CONTINUOUS
 62
     2
100
AcDbCircle
 10
399.184011
 20
163.107414
 30
0.0
 40
1.5
100
AcDbArc
 50
210.0
 51
270.0
  0
LINE
  5
1E9
100
AcDbEntity
  8
LAY-1
  6
CONTINUOUS
 62
     2
100
AcDbLine
 10
399.184011
 20
171.107414
 30
0.0
 11
400.513176
 21
171.107414
 31
0.0
  0
ARC
  5
1EA
100
AcDbEntity
  8
LAY-1
  6
CONTINUOUS
 62
     2
100
AcDbCircle
 10
404.813176
 20
166.357414
 30
0.0
 40
8.0
100
AcDbArc
 50
150.0
 51
180.0
  0
ARC
  5
1EB
100
AcDbEntity
  8
LAY-1
  6
CONTINUOUS
 62
     2
100
AcDbCircle
 10
399.184011
 20
169.607414
 30
0.0
 40
1.5
100
AcDbArc
 50
90.0
 51
150.0
  0
LINE
  5
1EC
100
AcDbEntity
  8
LAY-1
  6
CONTINUOUS
 62
     2
100
AcDbLine
 10
399.184011
 20
122.123934
 30
0.0
 11
400.513176
 21
122.123934
 31
0.0
  0
ARC
  5
1ED
100
AcDbEntity
  8
LAY-1
  6
CONTINUOUS
 62
     2
100
AcDbCircle
 10
404.813176
 20
117.373934
 30
0.0
 40
8.0
100
AcDbArc
 50
150.0
 51
180.0
  0
ARC
  5
1EE
100
AcDbEntity
  8
LAY-1
  6
CONTINUOUS
 62
     2
100
AcDbCircle
 10
399.184011
 20
120.623934
 30
0.0
 40
1.5
100
AcDbArc
 50
90.0
 51
150.0
  0
LINE
  5
1EF
100
AcDbEntity
  8
LAY-1
  6
CONTINUOUS
 62
     2
100
AcDbLine
 10
399.184011
 20
112.623934
 30
0.0
 11
400.513176
 21
112.623934
 31
0.0
  0
ARC
  5
1F0
100
AcDbEntity
  8
LAY-1
  6
CONTINUOUS
 62
     2
100
AcDbCircle
 10
404.813176
 20
117.373934
 30
0.0
 40
8.0
100
AcDbArc
 50
180.0
 51
210.0
  0
ARC
  5
1F1
100
AcDbEntity
  8
LAY-1
  6
CONTINUOUS
 62
     2
100
AcDbCircle
 10
399.184011
 20
114.123934
 30
0.0
 40
1.5
100
AcDbArc
 50
210.0
 51
270.0
  0
LINE
  5
1F2
100
AcDbEntity
  8
LAY-1
  6
CONTINUOUS
 62
     2
100
AcDbLine
 10
399.184011
 20
87.487384
 30
0.0
 11
400.513176
 21
87.487384
 31
0.0
  0
ARC
  5
1F3
100
AcDbEntity
  8
LAY-1
  6
CONTINUOUS
 62
     2
100
AcDbCircle
 10
404.813176
 20
82.737384
 30
0.0
 40
8.0
100
AcDbArc
 50
150.0
 51
180.0
  0
ARC
  5
1F4
100
AcDbEntity
  8
LAY-1
  6
CONTINUOUS
 62
     2
100
AcDbCircle
 10
399.184011
 20
85.987384
 30
0.0
 40
1.5
100
AcDbArc
 50
90.0
 51
150.0
  0
LINE
  5
1F5
100
AcDbEntity
  8
LAY-1
  6
CONTINUOUS
 62
     2
100
AcDbLine
 10
399.184011
 20
77.987384
 30
0.0
 11
400.513176
 21
77.987384
 31
0.0
  0
ARC
  5
1F6
100
AcDbEntity
  8
LAY-1
  6
CONTINUOUS
 62
     2
100
AcDbCircle
 10
404.813176
 20
82.737384
 30
0.0
 40
8.0
100
AcDbArc
 50
180.0
 51
210.0
  0
ARC
  5
1F7
100
AcDbEntity
  8
LAY-1
  6
CONTINUOUS
 62
     2
100
AcDbCircle
 10
399.184011
 20
79.487384
 30
0.0
 40
1.5
100
AcDbArc
 50
210.0
 51
270.0
  0
LINE
  5
1F8
100
AcDbEntity
  8
LAY-1
  6
CONTINUOUS
 62
     2
100
AcDbLine
 10
389.683819
 20
107.084139
 30
0.0
 11
391.255772
 21
96.601556
 31
0.0
  0
ARC
  5
1F9
100
AcDbEntity
  8
LAY-1
  6
CONTINUOUS
 62
     2
100
AcDbCircle
 10
403.369902
 20
96.735232
 30
0.0
 40
12.0
100
AcDbArc
 50
188.528444
 51
241.294394
  0
ARC
  5
1FA
100
AcDbEntity
  8
LAY-1
  6
CONTINUOUS
 62
     2
100
AcDbCircle
 10
447.707023
 20
224.416883
 30
0.0
 40
45.052192
100
AcDbArc
 50
270.378392
 51
283.823071
  0
LINE
  5
1FB
100
AcDbEntity
  8
LAY-1
  6
CONTINUOUS
 62
     2
100
AcDbLine
 10
448.004554
 20
179.365674
 30
0.0
 11
424.513176
 21
179.365674
 31
0.0
  0
LINE
  5
1FC
100
AcDbEntity
  8
LAY-1
  6
CONTINUOUS
 62
     2
100
AcDbLine
 10
448.004554
 20
197.865674
 30
0.0
 11
448.004554
 21
182.865674
 31
0.0
  0
ARC
  5
1FD
100
AcDbEntity
  8
LAY-1
  6
CONTINUOUS
 62
     2
100
AcDbCircle
 10
447.707023
 20
59.314464
 30
0.0
 40
45.052192
100
AcDbArc
 50
76.176929
 51
89.621608
  0
LINE
  5
1FE
100
AcDbEntity
  8
LAY-1
  6
CONTINUOUS
 62
     2
100
AcDbLine
 10
448.004554
 20
104.365674
 30
0.0
 11
424.471983
 21
104.365674
 31
0.0
  0
LINE
  5
1FF
100
AcDbEntity
  8
LAY-1
  6
CONTINUOUS
 62
     2
100
AcDbLine
 10
389.935908
 20
178.328263
 30
0.0
 11
391.502593
 21
188.775721
 31
0.0
  0
ARC
  5
200
100
AcDbEntity
  8
LAY-1
  6
CONTINUOUS
 62
     2
100
AcDbCircle
 10
403.369902
 20
186.996116
 30
0.0
 40
12.0
100
AcDbArc
 50
118.705606
 51
171.471556
  0
LINE
  5
201
100
AcDbEntity
  8
LAY-1
  6
CONTINUOUS
 62
     2
100
AcDbLine
 10
336.513176
 20
161.865674
 30
0.0
 11
335.513176
 21
161.865674
 31
0.0
  0
LINE
  5
202
100
AcDbEntity
  8
LAY-1
  6
CONTINUOUS
 62
     2
100
AcDbLine
 10
327.013176
 20
141.865674
 30
0.0
 11
327.013176
 21
121.365674
 31
0.0
  0
LINE
  5
203
100
AcDbEntity
  8
LAY-1
  6
CONTINUOUS
 62
     2
100
AcDbLine
 10
335.513176
 20
121.365674
 30
0.0
 11
335.513176
 21
141.865674
 31
0.0
  0
LINE
  5
204
100
AcDbEntity
  8
LAY-1
  6
CONTINUOUS
 62
     2
100
AcDbLine
 10
327.013176
 20
121.365674
 30
0.0
 11
328.167876
 21
119.365674
 31
0.0
  0
LINE
  5
205
100
AcDbEntity
  8
LAY-1
  6
CONTINUOUS
 62
     2
100
AcDbLine
 10
335.513176
 20
121.365674
 30
0.0
 11
334.358475
 21
119.365674
 31
0.0
  0
LINE
  5
206
100
AcDbEntity
  8
LAY-1
  6
CONTINUOUS
 62
     2
100
AcDbLine
 10
328.167876
 20
119.365674
 30
0.0
 11
334.358475
 21
119.365674
 31
0.0
  0
LINE
  5
207
100
AcDbEntity
  8
LAY-1
  6
CONTINUOUS
 62
     2
100
AcDbLine
 10
327.013176
 20
130.407174
 30
0.0
 11
327.013176
 21
127.865674
 31
0.0
  0
LINE
  5
208
100
AcDbEntity
  8
LAY-1
  6
CONTINUOUS
 62
     2
100
AcDbLine
 10
327.013176
 20
141.865674
 30
0.0
 11
327.013176
 21
128.365674
 31
0.0
  0
ARC
  5
209
100
AcDbEntity
  8
LAY-1
  6
CONTINUOUS
 62
     2
100
AcDbCircle
 10
422.013176
 20
141.865674
 30
0.0
 40
100.0
100
AcDbArc
 50
180.0
 51
187.54548
  0
LINE
  5
20A
100
AcDbEntity
  8
LAY-1
  6
CONTINUOUS
 62
     2
100
AcDbLine
 10
323.870423
 20
127.865674
 30
0.0
 11
327.013176
 21
127.865674
 31
0.0
  0
ARC
  5
20B
100
AcDbEntity
  8
LAY-1
  6
CONTINUOUS
 62
     2
100
AcDbCircle
 10
323.870423
 20
128.865674
 30
0.0
 40
1.0
100
AcDbArc
 50
187.54548
 51
270.0
  0
LINE
  5
20C
100
AcDbEntity
  8
LAY-1
  6
CONTINUOUS
 62
     2
100
AcDbLine
 10
327.013176
 20
130.407174
 30
0.0
 11
327.013176
 21
127.865674
 31
0.0
  0
LINE
  5
20D
100
AcDbEntity
  8
LAY-1
  6
CONTINUOUS
 62
     2
100
AcDbLine
 10
323.013176
 20
140.865674
 30
0.0
 11
327.013176
 21
140.865674
 31
0.0
  0
LINE
  5
20E
100
AcDbEntity
  8
LAY-1
  6
CONTINUOUS
 62
     2
100
AcDbLine
 10
324.013176
 20
136.000243
 30
0.0
 11
327.013176
 21
136.000243
 31
0.0
  0
ARC
  5
20F
100
AcDbEntity
  8
LAY-1
  6
CONTINUOUS
 62
     2
100
AcDbCircle
 10
324.013176
 20
137.000243
 30
0.0
 40
1.0
100
AcDbArc
 50
180.0
 51
270.0
  0
LINE
  5
210
100
AcDbEntity
  8
LAY-1
  6
CONTINUOUS
 62
     2
100
AcDbLine
 10
324.013176
 20
135.749579
 30
0.0
 11
327.013176
 21
135.749579
 31
0.0
  0
ARC
  5
211
100
AcDbEntity
  8
LAY-1
  6
CONTINUOUS
 62
     2
100
AcDbCircle
 10
324.013176
 20
136.749579
 30
0.0
 40
1.0
100
AcDbArc
 50
180.0
 51
270.0
  0
LINE
  5
212
100
AcDbEntity
  8
LAY-1
  6
CONTINUOUS
 62
     2
100
AcDbLine
 10
324.013176
 20
134.017528
 30
0.0
 11
327.013176
 21
134.017528
 31
0.0
  0
ARC
  5
213
100
AcDbEntity
  8
LAY-1
  6
CONTINUOUS
 62
     2
100
AcDbCircle
 10
324.013176
 20
135.017528
 30
0.0
 40
1.0
100
AcDbArc
 50
180.0
 51
270.0
  0
LINE
  5
214
100
AcDbEntity
  8
LAY-1
  6
CONTINUOUS
 62
     2
100
AcDbLine
 10
324.013176
 20
130.70645
 30
0.0
 11
327.013176
 21
130.70645
 31
0.0
  0
ARC
  5
215
100
AcDbEntity
  8
LAY-1
  6
CONTINUOUS
 62
     2
100
AcDbCircle
 10
324.013176
 20
131.70645
 30
0.0
 40
1.0
100
AcDbArc
 50
180.0
 51
270.0
  0
LINE
  5
216
100
AcDbEntity
  8
LAY-1
  6
CONTINUOUS
 62
     2
100
AcDbLine
 10
324.013176
 20
130.272287
 30
0.0
 11
327.013176
 21
130.272287
 31
0.0
  0
ARC
  5
217
100
AcDbEntity
  8
LAY-1
  6
CONTINUOUS
 62
     2
100
AcDbCircle
 10
324.013176
 20
131.272287
 30
0.0
 40
1.0
100
AcDbArc
 50
180.0
 51
270.0
  0
LINE
  5
218
100
AcDbEntity
  8
LAY-1
  6
CONTINUOUS
 62
     2
100
AcDbLine
 10
324.013176
 20
129.272287
 30
0.0
 11
327.013176
 21
129.272287
 31
0.0
  0
ARC
  5
219
100
AcDbEntity
  8
LAY-1
  6
CONTINUOUS
 62
     2
100
AcDbCircle
 10
324.013176
 20
130.272287
 30
0.0
 40
1.0
100
AcDbArc
 50
180.0
 51
270.0
  0
LINE
  5
21A
100
AcDbEntity
  8
LAY-1
  6
CONTINUOUS
 62
     2
100
AcDbLine
 10
324.013176
 20
128.402762
 30
0.0
 11
327.013176
 21
128.402762
 31
0.0
  0
ARC
  5
21B
100
AcDbEntity
  8
LAY-1
  6
CONTINUOUS
 62
     2
100
AcDbCircle
 10
324.013176
 20
129.402762
 30
0.0
 40
1.0
100
AcDbArc
 50
180.0
 51
270.0
  0
LINE
  5
21C
100
AcDbEntity
  8
LAY-1
  6
CONTINUOUS
 62
     2
100
AcDbLine
 10
323.013176
 20
137.000243
 30
0.0
 11
323.013176
 21
136.749579
 31
0.0
  0
LINE
  5
21D
100
AcDbEntity
  8
LAY-1
  6
CONTINUOUS
 62
     2
100
AcDbLine
 10
323.013176
 20
131.70645
 30
0.0
 11
323.013176
 21
131.272287
 31
0.0
  0
LINE
  5
21E
100
AcDbEntity
  8
LAY-1
  6
CONTINUOUS
 62
     2
100
AcDbLine
 10
328.167876
 20
128.748962
 30
0.0
 11
328.167876
 21
132.592055
 31
0.0
  0
LINE
  5
21F
100
AcDbEntity
  8
LAY-1
  6
CONTINUOUS
 62
     2
100
AcDbLine
 10
334.358475
 20
128.748962
 30
0.0
 11
334.358475
 21
132.592055
 31
0.0
  0
LINE
  5
220
100
AcDbEntity
  8
LAY-1
  6
CONTINUOUS
 62
     2
100
AcDbLine
 10
334.358475
 20
132.592055
 30
0.0
 11
328.167876
 21
132.592055
 31
0.0
  0
LINE
  5
221
100
AcDbEntity
  8
LAY-1
  6
CONTINUOUS
 62
     2
100
AcDbLine
 10
334.358475
 20
128.748962
 30
0.0
 11
328.167876
 21
128.748962
 31
0.0
  0
ARC
  5
222
100
AcDbEntity
  8
LAY-1
  6
CONTINUOUS
 62
     2
100
AcDbCircle
 10
337.11816
 20
124.057318
 30
0.0
 40
10.105399
100
AcDbArc
 50
152.336945
 51
207.663055
  0
ARC
  5
223
100
AcDbEntity
  8
LAY-1
  6
CONTINUOUS
 62
     2
100
AcDbCircle
 10
325.420459
 20
124.057318
 30
0.0
 40
10.094536
100
AcDbArc
 50
332.30462
 51
27.69538
  0
ARC
  5
224
100
AcDbEntity
  8
LAY-1
  6
CONTINUOUS
 62
     2
100
AcDbCircle
 10
364.829619
 20
141.865674
 30
0.0
 40
37.816443
100
AcDbArc
 50
180.0
 51
194.195258
  0
ARC
  5
225
100
AcDbEntity
  8
LAY-1
  6
CONTINUOUS
 62
     2
100
AcDbCircle
 10
297.696733
 20
141.865674
 30
0.0
 40
37.816443
100
AcDbArc
 50
345.804742
 51
0.0
  0
LINE
  5
226
100
AcDbEntity
  8
LAY-1
  6
CONTINUOUS
 62
     2
100
AcDbLine
 10
327.013176
 20
141.865674
 30
0.0
 11
327.013176
 21
162.365674
 31
0.0
  0
LINE
  5
227
100
AcDbEntity
  8
LAY-1
  6
CONTINUOUS
 62
     2
100
AcDbLine
 10
335.513176
 20
162.365674
 30
0.0
 11
335.513176
 21
141.865674
 31
0.0
  0
LINE
  5
228
100
AcDbEntity
  8
LAY-1
  6
CONTINUOUS
 62
     2
100
AcDbLine
 10
327.013176
 20
162.365674
 30
0.0
 11
328.167876
 21
164.365674
 31
0.0
  0
LINE
  5
229
100
AcDbEntity
  8
LAY-1
  6
CONTINUOUS
 62
     2
100
AcDbLine
 10
335.513176
 20
162.365674
 30
0.0
 11
334.358475
 21
164.365674
 31
0.0
  0
LINE
  5
22A
100
AcDbEntity
  8
LAY-1
  6
CONTINUOUS
 62
     2
100
AcDbLine
 10
328.167876
 20
164.365674
 30
0.0
 11
334.358475
 21
164.365674
 31
0.0
  0
LINE
  5
22B
100
AcDbEntity
  8
LAY-1
  6
CONTINUOUS
 62
     2
100
AcDbLine
 10
327.013176
 20
153.324174
 30
0.0
 11
327.013176
 21
155.865674
 31
0.0
  0
LINE
  5
22C
100
AcDbEntity
  8
LAY-1
  6
CONTINUOUS
 62
     2
100
AcDbLine
 10
327.013176
 20
141.865674
 30
0.0
 11
327.013176
 21
155.365674
 31
0.0
  0
ARC
  5
22D
100
AcDbEntity
  8
LAY-1
  6
CONTINUOUS
 62
     2
100
AcDbCircle
 10
422.013176
 20
141.865674
 30
0.0
 40
100.0
100
AcDbArc
 50
172.45452
 51
180.0
  0
LINE
  5
22E
100
AcDbEntity
  8
LAY-1
  6
CONTINUOUS
 62
     2
100
AcDbLine
 10
323.870423
 20
155.865674
 30
0.0
 11
327.013176
 21
155.865674
 31
0.0
  0
ARC
  5
22F
100
AcDbEntity
  8
LAY-1
  6
CONTINUOUS
 62
     2
100
AcDbCircle
 10
323.870423
 20
154.865674
 30
0.0
 40
1.0
100
AcDbArc
 50
90.0
 51
172.45452
  0
LINE
  5
230
100
AcDbEntity
  8
LAY-1
  6
CONTINUOUS
 62
     2
100
AcDbLine
 10
327.013176
 20
153.324174
 30
0.0
 11
327.013176
 21
155.865674
 31
0.0
  0
LINE
  5
231
100
AcDbEntity
  8
LAY-1
  6
CONTINUOUS
 62
     2
100
AcDbLine
 10
323.013176
 20
142.865674
 30
0.0
 11
327.013176
 21
142.865674
 31
0.0
  0
LINE
  5
232
100
AcDbEntity
  8
LAY-1
  6
CONTINUOUS
 62
     2
100
AcDbLine
 10
324.013176
 20
147.731104
 30
0.0
 11
327.013176
 21
147.731104
 31
0.0
  0
ARC
  5
233
100
AcDbEntity
  8
LAY-1
  6
CONTINUOUS
 62
     2
100
AcDbCircle
 10
324.013176
 20
146.731104
 30
0.0
 40
1.0
100
AcDbArc
 50
90.0
 51
180.0
  0
LINE
  5
234
100
AcDbEntity
  8
LAY-1
  6
CONTINUOUS
 62
     2
100
AcDbLine
 10
324.013176
 20
147.981768
 30
0.0
 11
327.013176
 21
147.981768
 31
0.0
  0
ARC
  5
235
100
AcDbEntity
  8
LAY-1
  6
CONTINUOUS
 62
     2
100
AcDbCircle
 10
324.013176
 20
146.981768
 30
0.0
 40
1.0
100
AcDbArc
 50
90.0
 51
180.0
  0
LINE
  5
236
100
AcDbEntity
  8
LAY-1
  6
CONTINUOUS
 62
     2
100
AcDbLine
 10
324.013176
 20
149.713819
 30
0.0
 11
327.013176
 21
149.713819
 31
0.0
  0
ARC
  5
237
100
AcDbEntity
  8
LAY-1
  6
CONTINUOUS
 62
     2
100
AcDbCircle
 10
324.013176
 20
148.713819
 30
0.0
 40
1.0
100
AcDbArc
 50
90.0
 51
180.0
  0
LINE
  5
238
100
AcDbEntity
  8
LAY-1
  6
CONTINUOUS
 62
     2
100
AcDbLine
 10
324.013176
 20
153.024898
 30
0.0
 11
327.013176
 21
153.024898
 31
0.0
  0
ARC
  5
239
100
AcDbEntity
  8
LAY-1
  6
CONTINUOUS
 62
     2
100
AcDbCircle
 10
324.013176
 20
152.024898
 30
0.0
 40
1.0
100
AcDbArc
 50
90.0
 51
180.0
  0
LINE
  5
23A
100
AcDbEntity
  8
LAY-1
  6
CONTINUOUS
 62
     2
100
AcDbLine
 10
324.013176
 20
153.45906
 30
0.0
 11
327.013176
 21
153.45906
 31
0.0
  0
ARC
  5
23B
100
AcDbEntity
  8
LAY-1
  6
CONTINUOUS
 62
     2
100
AcDbCircle
 10
324.013176
 20
152.45906
 30
0.0
 40
1.0
100
AcDbArc
 50
90.0
 51
180.0
  0
LINE
  5
23C
100
AcDbEntity
  8
LAY-1
  6
CONTINUOUS
 62
     2
100
AcDbLine
 10
324.013176
 20
154.45906
 30
0.0
 11
327.013176
 21
154.45906
 31
0.0
  0
ARC
  5
23D
100
AcDbEntity
  8
LAY-1
  6
CONTINUOUS
 62
     2
100
AcDbCircle
 10
324.013176
 20
153.45906
 30
0.0
 40
1.0
100
AcDbArc
 50
90.0
 51
180.0
  0
LINE
  5
23E
100
AcDbEntity
  8
LAY-1
  6
CONTINUOUS
 62
     2
100
AcDbLine
 10
324.013176
 20
155.328586
 30
0.0
 11
327.013176
 21
155.328586
 31
0.0
  0
ARC
  5
23F
100
AcDbEntity
  8
LAY-1
  6
CONTINUOUS
 62
     2
100
AcDbCircle
 10
324.013176
 20
154.328586
 30
0.0
 40
1.0
100
AcDbArc
 50
90.0
 51
180.0
  0
LINE
  5
240
100
AcDbEntity
  8
LAY-1
  6
CONTINUOUS
 62
     2
100
AcDbLine
 10
323.013176
 20
146.731104
 30
0.0
 11
323.013176
 21
146.981768
 31
0.0
  0
LINE
  5
241
100
AcDbEntity
  8
LAY-1
  6
CONTINUOUS
 62
     2
100
AcDbLine
 10
323.013176
 20
152.024898
 30
0.0
 11
323.013176
 21
152.45906
 31
0.0
  0
LINE
  5
242
100
AcDbEntity
  8
LAY-1
  6
CONTINUOUS
 62
     2
100
AcDbLine
 10
328.167876
 20
154.982385
 30
0.0
 11
328.167876
 21
151.139292
 31
0.0
  0
LINE
  5
243
100
AcDbEntity
  8
LAY-1
  6
CONTINUOUS
 62
     2
100
AcDbLine
 10
334.358475
 20
154.982385
 30
0.0
 11
334.358475
 21
151.139292
 31
0.0
  0
LINE
  5
244
100
AcDbEntity
  8
LAY-1
  6
CONTINUOUS
 62
     2
100
AcDbLine
 10
334.358475
 20
151.139292
 30
0.0
 11
328.167876
 21
151.139292
 31
0.0
  0
LINE
  5
245
100
AcDbEntity
  8
LAY-1
  6
CONTINUOUS
 62
     2
100
AcDbLine
 10
334.358475
 20
154.982385
 30
0.0
 11
328.167876
 21
154.982385
 31
0.0
  0
ARC
  5
246
100
AcDbEntity
  8
LAY-1
  6
CONTINUOUS
 62
     2
100
AcDbCircle
 10
337.11816
 20
159.67403
 30
0.0
 40
10.105399
100
AcDbArc
 50
152.336945
 51
207.663055
  0
ARC
  5
247
100
AcDbEntity
  8
LAY-1
  6
CONTINUOUS
 62
     2
100
AcDbCircle
 10
325.420459
 20
159.67403
 30
0.0
 40
10.094536
100
AcDbArc
 50
332.30462
 51
27.69538
  0
ARC
  5
248
100
AcDbEntity
  8
LAY-1
  6
CONTINUOUS
 62
     2
100
AcDbCircle
 10
364.829619
 20
141.865674
 30
0.0
 40
37.816443
100
AcDbArc
 50
165.804742
 51
180.0
  0
ARC
  5
249
100
AcDbEntity
  8
LAY-1
  6
CONTINUOUS
 62
     2
100
AcDbCircle
 10
297.696733
 20
141.865674
 30
0.0
 40
37.816443
100
AcDbArc
 50
0.0
 51
14.195258
  0
LINE
  5
24A
100
AcDbEntity
  8
LAY-1
  6
EXLTYPE3
 62
     1
100
AcDbLine
 10
203.013176
 20
66.865674
 30
0.0
 11
203.013176
 21
216.865674
 31
0.0
  0
LINE
  5
24B
100
AcDbEntity
  8
LAY-1
  6
EXLTYPE3
 62
     1
100
AcDbLine
 10
281.613176
 20
141.865674
 30
0.0
 11
128.013176
 21
141.865674
 31
0.0
  0
LINE
  5
24C
100
AcDbEntity
  8
LAY-1
  6
CONTINUOUS
 62
     3
100
AcDbLine
 10
244.013176
 20
143.365674
 30
0.0
 11
237.013176
 21
143.365674
 31
0.0
  0
LINE
  5
24D
100
AcDbEntity
  8
LAY-1
  6
CONTINUOUS
 62
     3
100
AcDbLine
 10
244.013176
 20
139.932163
 30
0.0
 11
241.351381
 21
142.165674
 31
0.0
  0
LINE
  5
24E
100
AcDbEntity
  8
LAY-1
  6
CONTINUOUS
 62
     3
100
AcDbLine
 10
241.15995
 20
140.759815
 30
0.0
 11
237.013176
 21
138.365674
 31
0.0
  0
LINE
  5
24F
100
AcDbEntity
  8
LAY-1
  6
CONTINUOUS
 62
     3
100
AcDbLine
 10
240.181701
 20
141.580663
 30
0.0
 11
237.013176
 21
139.751315
 31
0.0
  0
LINE
  5
250
100
AcDbEntity
  8
LAY-1
  6
CONTINUOUS
 62
     3
100
AcDbLine
 10
239.484512
 20
142.165674
 30
0.0
 11
240.181701
 21
141.580663
 31
0.0
  0
LINE
  5
251
100
AcDbEntity
  8
LAY-1
  6
CONTINUOUS
 62
     3
100
AcDbLine
 10
241.15995
 20
140.759815
 30
0.0
 11
244.013176
 21
138.365674
 31
0.0
  0
LINE
  5
252
100
AcDbEntity
  8
LAY-1
  6
CONTINUOUS
 62
     3
100
AcDbLine
 10
244.013176
 20
142.165674
 30
0.0
 11
241.351381
 21
142.165674
 31
0.0
  0
LINE
  5
253
100
AcDbEntity
  8
LAY-1
  6
CONTINUOUS
 62
     3
100
AcDbLine
 10
239.484512
 20
142.165674
 30
0.0
 11
237.013176
 21
142.165674
 31
0.0
  0
LINE
  5
254
100
AcDbEntity
  8
LAY-1
  6
CONTINUOUS
 62
     3
100
AcDbLine
 10
244.013176
 20
143.365674
 30
0.0
 11
244.013176
 21
142.165674
 31
0.0
  0
LINE
  5
255
100
AcDbEntity
  8
LAY-1
  6
CONTINUOUS
 62
     3
100
AcDbLine
 10
244.013176
 20
139.932163
 30
0.0
 11
244.013176
 21
138.365674
 31
0.0
  0
LINE
  5
256
100
AcDbEntity
  8
LAY-1
  6
CONTINUOUS
 62
     3
100
AcDbLine
 10
237.013176
 20
143.365674
 30
0.0
 11
237.013176
 21
142.165674
 31
0.0
  0
LINE
  5
257
100
AcDbEntity
  8
LAY-1
  6
CONTINUOUS
 62
     3
100
AcDbLine
 10
237.013176
 20
139.751315
 30
0.0
 11
237.013176
 21
138.365674
 31
0.0
  0
LINE
  5
258
100
AcDbEntity
  8
LAY-1
  6
CONTINUOUS
 62
     3
100
AcDbLine
 10
233.05804
 20
157.826443
 30
0.0
 11
239.120217
 21
161.326443
 31
0.0
  0
LINE
  5
259
100
AcDbEntity
  8
LAY-1
  6
CONTINUOUS
 62
     3
100
AcDbLine
 10
238.520217
 20
162.365674
 30
0.0
 11
239.120217
 21
161.326443
 31
0.0
  0
LINE
  5
25A
100
AcDbEntity
  8
LAY-1
  6
CONTINUOUS
 62
     3
100
AcDbLine
 10
238.520217
 20
162.365674
 30
0.0
 11
232.45804
 21
158.865674
 31
0.0
  0
LINE
  5
25B
100
AcDbEntity
  8
LAY-1
  6
CONTINUOUS
 62
     3
100
AcDbLine
 10
234.779637
 20
153.943175
 30
0.0
 11
240.118565
 21
156.209416
 31
0.0
  0
LINE
  5
25C
100
AcDbEntity
  8
LAY-1
  6
CONTINUOUS
 62
     3
100
AcDbLine
 10
234.31076
 20
155.047781
 30
0.0
 11
239.649688
 21
157.314022
 31
0.0
  0
LINE
  5
25D
100
AcDbEntity
  8
LAY-1
  6
CONTINUOUS
 62
     3
100
AcDbLine
 10
238.907299
 20
159.062981
 30
0.0
 11
239.649688
 21
157.314022
 31
0.0
  0
LINE
  5
25E
100
AcDbEntity
  8
LAY-1
  6
CONTINUOUS
 62
     3
100
AcDbLine
 10
240.118565
 20
156.209416
 30
0.0
 11
240.860955
 21
154.460457
 31
0.0
  0
LINE
  5
25F
100
AcDbEntity
  8
LAY-1
  6
CONTINUOUS
 62
     3
100
AcDbLine
 10
238.907299
 20
159.062981
 30
0.0
 11
240.011905
 21
159.531858
 31
0.0
  0
LINE
  5
260
100
AcDbEntity
  8
LAY-1
  6
CONTINUOUS
 62
     3
100
AcDbLine
 10
234.31076
 20
155.047781
 30
0.0
 11
234.779637
 21
153.943175
 31
0.0
  0
LINE
  5
261
100
AcDbEntity
  8
LAY-1
  6
CONTINUOUS
 62
     3
100
AcDbLine
 10
241.96556
 20
154.929334
 30
0.0
 11
240.860955
 21
154.460457
 31
0.0
  0
LINE
  5
262
100
AcDbEntity
  8
LAY-1
  6
CONTINUOUS
 62
     3
100
AcDbLine
 10
240.011905
 20
159.531858
 30
0.0
 11
241.96556
 21
154.929334
 31
0.0
  0
ARC
  5
263
100
AcDbEntity
  8
LAY-1
  6
CONTINUOUS
 62
     3
100
AcDbCircle
 10
241.192338
 20
149.899236
 30
0.0
 40
2.0
100
AcDbArc
 50
284.0
 51
14.0
  0
ARC
  5
264
100
AcDbEntity
  8
LAY-1
  6
CONTINUOUS
 62
     3
100
AcDbCircle
 10
240.950416
 20
150.869532
 30
0.0
 40
2.0
100
AcDbArc
 50
14.0
 51
104.0
  0
ARC
  5
265
100
AcDbEntity
  8
LAY-1
  6
CONTINUOUS
 62
     3
100
AcDbCircle
 10
238.039529
 20
150.143766
 30
0.0
 40
2.0
100
AcDbArc
 50
104.0
 51
194.0
  0
ARC
  5
266
100
AcDbEntity
  8
LAY-1
  6
CONTINUOUS
 62
     3
100
AcDbCircle
 10
238.281451
 20
149.17347
 30
0.0
 40
2.0
100
AcDbArc
 50
194.0
 51
284.0
  0
ARC
  5
267
100
AcDbEntity
  8
LAY-1
  6
CONTINUOUS
 62
     3
100
AcDbCircle
 10
238.281451
 20
149.17347
 30
0.0
 40
0.8
100
AcDbArc
 50
194.0
 51
284.0
  0
LINE
  5
268
100
AcDbEntity
  8
LAY-1
  6
CONTINUOUS
 62
     3
100
AcDbLine
 10
237.505214
 20
148.979933
 30
0.0
 11
237.263293
 21
149.950229
 31
0.0
  0
ARC
  5
269
100
AcDbEntity
  8
LAY-1
  6
CONTINUOUS
 62
     3
100
AcDbCircle
 10
238.039529
 20
150.143766
 30
0.0
 40
0.8
100
AcDbArc
 50
104.0
 51
194.0
  0
LINE
  5
26A
100
AcDbEntity
  8
LAY-1
  6
CONTINUOUS
 62
     3
100
AcDbLine
 10
240.756879
 20
151.645768
 30
0.0
 11
237.845992
 21
150.920003
 31
0.0
  0
ARC
  5
26B
100
AcDbEntity
  8
LAY-1
  6
CONTINUOUS
 62
     3
100
AcDbCircle
 10
240.950416
 20
150.869532
 30
0.0
 40
0.8
100
AcDbArc
 50
14.0
 51
104.0
  0
LINE
  5
26C
100
AcDbEntity
  8
LAY-1
  6
CONTINUOUS
 62
     3
100
AcDbLine
 10
241.968575
 20
150.092774
 30
0.0
 11
241.726653
 21
151.063069
 31
0.0
  0
LINE
  5
26D
100
AcDbEntity
  8
LAY-1
  6
CONTINUOUS
 62
     3
100
AcDbLine
 10
238.474989
 20
148.397234
 30
0.0
 11
241.385876
 21
149.123
 31
0.0
  0
ARC
  5
26E
100
AcDbEntity
  8
LAY-1
  6
CONTINUOUS
 62
     3
100
AcDbCircle
 10
241.192338
 20
149.899236
 30
0.0
 40
0.8
100
AcDbArc
 50
284.0
 51
14.0
  0
LINE
  5
26F
100
AcDbEntity
  8
LAY-1
  6
CONTINUOUS
 62
     3
100
AcDbLine
 10
241.676182
 20
147.958645
 30
0.0
 11
238.765295
 21
147.232879
 31
0.0
  0
LINE
  5
270
100
AcDbEntity
  8
LAY-1
  6
CONTINUOUS
 62
     3
100
AcDbLine
 10
236.098938
 20
149.659922
 30
0.0
 11
236.34086
 21
148.689627
 31
0.0
  0
LINE
  5
271
100
AcDbEntity
  8
LAY-1
  6
CONTINUOUS
 62
     3
100
AcDbLine
 10
240.466572
 20
152.810123
 30
0.0
 11
237.555685
 21
152.084358
 31
0.0
  0
LINE
  5
272
100
AcDbEntity
  8
LAY-1
  6
CONTINUOUS
 62
     3
100
AcDbLine
 10
242.891008
 20
151.353376
 30
0.0
 11
243.13293
 21
150.38308
 31
0.0
  0
LINE
  5
273
100
AcDbEntity
  8
LAY-1
  6
CONTINUOUS
 62
     3
100
AcDbLine
 10
239.120217
 20
122.404904
 30
0.0
 11
233.05804
 21
125.904904
 31
0.0
  0
LINE
  5
274
100
AcDbEntity
  8
LAY-1
  6
CONTINUOUS
 62
     3
100
AcDbLine
 10
238.520217
 20
121.365674
 30
0.0
 11
232.45804
 21
124.865674
 31
0.0
  0
LINE
  5
275
100
AcDbEntity
  8
LAY-1
  6
CONTINUOUS
 62
     3
100
AcDbLine
 10
239.120217
 20
122.404904
 30
0.0
 11
238.520217
 21
121.365674
 31
0.0
  0
LINE
  5
276
100
AcDbEntity
  8
LAY-1
  6
CONTINUOUS
 62
     3
100
AcDbLine
 10
241.970362
 20
129.173927
 30
0.0
 11
235.392514
 21
131.568068
 31
0.0
  0
LINE
  5
277
100
AcDbEntity
  8
LAY-1
  6
CONTINUOUS
 62
     3
100
AcDbLine
 10
240.796032
 20
125.947482
 30
0.0
 11
239.058669
 21
128.956684
 31
0.0
  0
LINE
  5
278
100
AcDbEntity
  8
LAY-1
  6
CONTINUOUS
 62
     3
100
AcDbLine
 10
238.39795
 20
127.701082
 30
0.0
 11
233.682413
 21
126.869605
 31
0.0
  0
LINE
  5
279
100
AcDbEntity
  8
LAY-1
  6
CONTINUOUS
 62
     3
100
AcDbLine
 10
237.759444
 20
128.807008
 30
0.0
 11
234.15633
 21
128.171682
 31
0.0
  0
LINE
  5
27A
100
AcDbEntity
  8
LAY-1
  6
CONTINUOUS
 62
     3
100
AcDbLine
 10
237.304386
 20
129.595191
 30
0.0
 11
237.759444
 21
128.807008
 31
0.0
  0
LINE
  5
27B
100
AcDbEntity
  8
LAY-1
  6
CONTINUOUS
 62
     3
100
AcDbLine
 10
238.39795
 20
127.701082
 30
0.0
 11
240.260261
 21
124.475464
 31
0.0
  0
LINE
  5
27C
100
AcDbEntity
  8
LAY-1
  6
CONTINUOUS
 62
     3
100
AcDbLine
 10
241.559938
 20
128.046296
 30
0.0
 11
239.058669
 21
128.956684
 31
0.0
  0
LINE
  5
27D
100
AcDbEntity
  8
LAY-1
  6
CONTINUOUS
 62
     3
100
AcDbLine
 10
237.304386
 20
129.595191
 30
0.0
 11
234.98209
 21
130.440437
 31
0.0
  0
LINE
  5
27E
100
AcDbEntity
  8
LAY-1
  6
CONTINUOUS
 62
     3
100
AcDbLine
 10
235.392514
 20
131.568068
 30
0.0
 11
234.98209
 21
130.440437
 31
0.0
  0
LINE
  5
27F
100
AcDbEntity
  8
LAY-1
  6
CONTINUOUS
 62
     3
100
AcDbLine
 10
241.970362
 20
129.173927
 30
0.0
 11
241.559938
 21
128.046296
 31
0.0
  0
LINE
  5
280
100
AcDbEntity
  8
LAY-1
  6
CONTINUOUS
 62
     3
100
AcDbLine
 10
240.796032
 20
125.947482
 30
0.0
 11
240.260261
 21
124.475464
 31
0.0
  0
ARC
  5
281
100
AcDbEntity
  8
LAY-1
  6
CONTINUOUS
 62
     3
100
AcDbCircle
 10
241.163192
 20
133.552127
 30
0.0
 40
2.0
100
AcDbArc
 50
260.0
 51
350.0
  0
ARC
  5
282
100
AcDbEntity
  8
LAY-1
  6
CONTINUOUS
 62
     3
100
AcDbCircle
 10
241.336841
 20
134.536935
 30
0.0
 40
2.0
100
AcDbArc
 50
350.0
 51
80.0
  0
ARC
  5
283
100
AcDbEntity
  8
LAY-1
  6
CONTINUOUS
 62
     3
100
AcDbCircle
 10
238.382417
 20
135.05788
 30
0.0
 40
2.0
100
AcDbArc
 50
80.0
 51
170.0
  0
ARC
  5
284
100
AcDbEntity
  8
LAY-1
  6
CONTINUOUS
 62
     3
100
AcDbCircle
 10
238.208769
 20
134.073072
 30
0.0
 40
2.0
100
AcDbArc
 50
170.0
 51
260.0
  0
ARC
  5
285
100
AcDbEntity
  8
LAY-1
  6
CONTINUOUS
 62
     3
100
AcDbCircle
 10
238.208769
 20
134.073072
 30
0.0
 40
0.8
100
AcDbArc
 50
170.0
 51
260.0
  0
LINE
  5
286
100
AcDbEntity
  8
LAY-1
  6
CONTINUOUS
 62
     3
100
AcDbLine
 10
237.420923
 20
134.21199
 30
0.0
 11
237.594571
 21
135.196798
 31
0.0
  0
ARC
  5
287
100
AcDbEntity
  8
LAY-1
  6
CONTINUOUS
 62
     3
100
AcDbCircle
 10
238.382417
 20
135.05788
 30
0.0
 40
0.8
100
AcDbArc
 50
80.0
 51
170.0
  0
LINE
  5
288
100
AcDbEntity
  8
LAY-1
  6
CONTINUOUS
 62
     3
100
AcDbLine
 10
241.475759
 20
135.324781
 30
0.0
 11
238.521336
 21
135.845726
 31
0.0
  0
ARC
  5
289
100
AcDbEntity
  8
LAY-1
  6
CONTINUOUS
 62
     3
100
AcDbCircle
 10
241.336841
 20
134.536935
 30
0.0
 40
0.8
100
AcDbArc
 50
350.0
 51
80.0
  0
LINE
  5
28A
100
AcDbEntity
  8
LAY-1
  6
CONTINUOUS
 62
     3
100
AcDbLine
 10
241.951039
 20
133.413209
 30
0.0
 11
242.124687
 21
134.398016
 31
0.0
  0
LINE
  5
28B
100
AcDbEntity
  8
LAY-1
  6
CONTINUOUS
 62
     3
100
AcDbLine
 10
238.069851
 20
133.285226
 30
0.0
 11
241.024274
 21
132.764281
 31
0.0
  0
ARC
  5
28C
100
AcDbEntity
  8
LAY-1
  6
CONTINUOUS
 62
     3
100
AcDbCircle
 10
241.163192
 20
133.552127
 30
0.0
 40
0.8
100
AcDbArc
 50
260.0
 51
350.0
  0
LINE
  5
28D
100
AcDbEntity
  8
LAY-1
  6
CONTINUOUS
 62
     3
100
AcDbLine
 10
240.815896
 20
131.582512
 30
0.0
 11
237.861473
 21
132.103456
 31
0.0
  0
LINE
  5
28E
100
AcDbEntity
  8
LAY-1
  6
CONTINUOUS
 62
     3
100
AcDbLine
 10
243.306456
 20
134.189639
 30
0.0
 11
243.132808
 21
133.204831
 31
0.0
  0
LINE
  5
28F
100
AcDbEntity
  8
LAY-1
  6
CONTINUOUS
 62
     3
100
AcDbLine
 10
236.412802
 20
135.405176
 30
0.0
 11
236.239154
 21
134.420368
 31
0.0
  0
LINE
  5
290
100
AcDbEntity
  8
LAY-1
  6
CONTINUOUS
 62
     3
100
AcDbLine
 10
241.684137
 20
136.506551
 30
0.0
 11
238.729714
 21
137.027495
 31
0.0
  0
LINE
  5
291
100
AcDbEntity
  8
LAY-1
  6
CONTINUOUS
 62
     3
100
AcDbLine
 10
243.306456
 20
134.189639
 30
0.0
 11
243.132808
 21
133.204831
 31
0.0
  0
LINE
  5
292
100
AcDbEntity
  8
LAY-1
  6
CONTINUOUS
 62
     3
100
AcDbLine
 10
236.412802
 20
135.405176
 30
0.0
 11
236.239154
 21
134.420368
 31
0.0
  0
CIRCLE
  5
293
100
AcDbEntity
  8
LAY-1
  6
CONTINUOUS
 62
     2
100
AcDbCircle
 10
143.884886
 20
166.357414
 30
0.0
 40
4.25
  0
LINE
  5
294
100
AcDbEntity
  8
LAY-1
  6
CONTINUOUS
 62
     2
100
AcDbLine
 10
142.753515
 20
166.781678
 30
0.0
 11
141.763565
 21
167.771627
 31
0.0
  0
ARC
  5
295
100
AcDbEntity
  8
LAY-1
  6
CONTINUOUS
 62
     2
100
AcDbCircle
 10
142.329251
 20
166.357414
 30
0.0
 40
0.6
100
AcDbArc
 50
315.0
 51
45.0
  0
LINE
  5
296
100
AcDbEntity
  8
LAY-1
  6
CONTINUOUS
 62
     2
100
AcDbLine
 10
141.763565
 20
164.9432
 30
0.0
 11
142.753515
 21
165.933149
 31
0.0
  0
LINE
  5
297
100
AcDbEntity
  8
LAY-1
  6
CONTINUOUS
 62
     2
100
AcDbLine
 10
141.763565
 20
164.9432
 30
0.0
 11
142.470672
 21
164.236093
 31
0.0
  0
LINE
  5
298
100
AcDbEntity
  8
LAY-1
  6
CONTINUOUS
 62
     2
100
AcDbLine
 10
142.470672
 20
164.236093
 30
0.0
 11
143.460622
 21
165.226043
 31
0.0
  0
ARC
  5
299
100
AcDbEntity
  8
LAY-1
  6
CONTINUOUS
 62
     2
100
AcDbCircle
 10
143.884886
 20
164.801779
 30
0.0
 40
0.6
100
AcDbArc
 50
45.0
 51
135.0
  0
LINE
  5
29A
100
AcDbEntity
  8
LAY-1
  6
CONTINUOUS
 62
     2
100
AcDbLine
 10
145.299099
 20
164.236093
 30
0.0
 11
144.30915
 21
165.226043
 31
0.0
  0
LINE
  5
29B
100
AcDbEntity
  8
LAY-1
  6
CONTINUOUS
 62
     2
100
AcDbLine
 10
145.299099
 20
164.236093
 30
0.0
 11
146.006206
 21
164.9432
 31
0.0
  0
LINE
  5
29C
100
AcDbEntity
  8
LAY-1
  6
CONTINUOUS
 62
     2
100
AcDbLine
 10
145.016257
 20
165.933149
 30
0.0
 11
146.006206
 21
164.9432
 31
0.0
  0
ARC
  5
29D
100
AcDbEntity
  8
LAY-1
  6
CONTINUOUS
 62
     2
100
AcDbCircle
 10
145.440521
 20
166.357414
 30
0.0
 40
0.6
100
AcDbArc
 50
135.0
 51
225.0
  0
LINE
  5
29E
100
AcDbEntity
  8
LAY-1
  6
CONTINUOUS
 62
     2
100
AcDbLine
 10
145.016257
 20
166.781678
 30
0.0
 11
146.006206
 21
167.771627
 31
0.0
  0
LINE
  5
29F
100
AcDbEntity
  8
LAY-1
  6
CONTINUOUS
 62
     2
100
AcDbLine
 10
146.006206
 20
167.771627
 30
0.0
 11
145.299099
 21
168.478734
 31
0.0
  0
LINE
  5
2A0
100
AcDbEntity
  8
LAY-1
  6
CONTINUOUS
 62
     2
100
AcDbLine
 10
144.30915
 20
167.488784
 30
0.0
 11
145.299099
 21
168.478734
 31
0.0
  0
ARC
  5
2A1
100
AcDbEntity
  8
LAY-1
  6
CONTINUOUS
 62
     2
100
AcDbCircle
 10
143.884886
 20
167.913048
 30
0.0
 40
0.6
100
AcDbArc
 50
225.0
 51
315.0
  0
LINE
  5
2A2
100
AcDbEntity
  8
LAY-1
  6
CONTINUOUS
 62
     2
100
AcDbLine
 10
142.470672
 20
168.478734
 30
0.0
 11
143.460622
 21
167.488784
 31
0.0
  0
LINE
  5
2A3
100
AcDbEntity
  8
LAY-1
  6
CONTINUOUS
 62
     2
100
AcDbLine
 10
142.470672
 20
168.478734
 30
0.0
 11
141.763565
 21
167.771627
 31
0.0
  0
CIRCLE
  5
2A4
100
AcDbEntity
  8
LAY-1
  6
CONTINUOUS
 62
     2
100
AcDbCircle
 10
143.884886
 20
117.373934
 30
0.0
 40
4.25
  0
LINE
  5
2A5
100
AcDbEntity
  8
LAY-1
  6
CONTINUOUS
 62
     2
100
AcDbLine
 10
142.753515
 20
117.798198
 30
0.0
 11
141.763565
 21
118.788148
 31
0.0
  0
ARC
  5
2A6
100
AcDbEntity
  8
LAY-1
  6
CONTINUOUS
 62
     2
100
AcDbCircle
 10
142.329251
 20
117.373934
 30
0.0
 40
0.6
100
AcDbArc
 50
315.0
 51
45.0
  0
LINE
  5
2A7
100
AcDbEntity
  8
LAY-1
  6
CONTINUOUS
 62
     2
100
AcDbLine
 10
141.763565
 20
115.959721
 30
0.0
 11
142.753515
 21
116.94967
 31
0.0
  0
LINE
  5
2A8
100
AcDbEntity
  8
LAY-1
  6
CONTINUOUS
 62
     2
100
AcDbLine
 10
141.763565
 20
115.959721
 30
0.0
 11
142.470672
 21
115.252614
 31
0.0
  0
LINE
  5
2A9
100
AcDbEntity
  8
LAY-1
  6
CONTINUOUS
 62
     2
100
AcDbLine
 10
142.470672
 20
115.252614
 30
0.0
 11
143.460622
 21
116.242563
 31
0.0
  0
ARC
  5
2AA
100
AcDbEntity
  8
LAY-1
  6
CONTINUOUS
 62
     2
100
AcDbCircle
 10
143.884886
 20
115.818299
 30
0.0
 40
0.6
100
AcDbArc
 50
45.0
 51
135.0
  0
LINE
  5
2AB
100
AcDbEntity
  8
LAY-1
  6
CONTINUOUS
 62
     2
100
AcDbLine
 10
145.299099
 20
115.252614
 30
0.0
 11
144.30915
 21
116.242563
 31
0.0
  0
LINE
  5
2AC
100
AcDbEntity
  8
LAY-1
  6
CONTINUOUS
 62
     2
100
AcDbLine
 10
145.299099
 20
115.252614
 30
0.0
 11
146.006206
 21
115.959721
 31
0.0
  0
LINE
  5
2AD
100
AcDbEntity
  8
LAY-1
  6
CONTINUOUS
 62
     2
100
AcDbLine
 10
145.016257
 20
116.94967
 30
0.0
 11
146.006206
 21
115.959721
 31
0.0
  0
ARC
  5
2AE
100
AcDbEntity
  8
LAY-1
  6
CONTINUOUS
 62
     2
100
AcDbCircle
 10
145.440521
 20
117.373934
 30
0.0
 40
0.6
100
AcDbArc
 50
135.0
 51
225.0
  0
LINE
  5
2AF
100
AcDbEntity
  8
LAY-1
  6
CONTINUOUS
 62
     2
100
AcDbLine
 10
145.016257
 20
117.798198
 30
0.0
 11
146.006206
 21
118.788148
 31
0.0
  0
LINE
  5
2B0
100
AcDbEntity
  8
LAY-1
  6
CONTINUOUS
 62
     2
100
AcDbLine
 10
146.006206
 20
118.788148
 30
0.0
 11
145.299099
 21
119.495255
 31
0.0
  0
LINE
  5
2B1
100
AcDbEntity
  8
LAY-1
  6
CONTINUOUS
 62
     2
100
AcDbLine
 10
144.30915
 20
118.505305
 30
0.0
 11
145.299099
 21
119.495255
 31
0.0
  0
ARC
  5
2B2
100
AcDbEntity
  8
LAY-1
  6
CONTINUOUS
 62
     2
100
AcDbCircle
 10
143.884886
 20
118.929569
 30
0.0
 40
0.6
100
AcDbArc
 50
225.0
 51
315.0
  0
LINE
  5
2B3
100
AcDbEntity
  8
LAY-1
  6
CONTINUOUS
 62
     2
100
AcDbLine
 10
142.470672
 20
119.495255
 30
0.0
 11
143.460622
 21
118.505305
 31
0.0
  0
LINE
  5
2B4
100
AcDbEntity
  8
LAY-1
  6
CONTINUOUS
 62
     2
100
AcDbLine
 10
142.470672
 20
119.495255
 30
0.0
 11
141.763565
 21
118.788148
 31
0.0
  0
CIRCLE
  5
2B5
100
AcDbEntity
  8
LAY-1
  6
CONTINUOUS
 62
     2
100
AcDbCircle
 10
178.521436
 20
82.737384
 30
0.0
 40
4.25
  0
LINE
  5
2B6
100
AcDbEntity
  8
LAY-1
  6
CONTINUOUS
 62
     2
100
AcDbLine
 10
177.390065
 20
83.161648
 30
0.0
 11
176.400116
 21
84.151597
 31
0.0
  0
ARC
  5
2B7
100
AcDbEntity
  8
LAY-1
  6
CONTINUOUS
 62
     2
100
AcDbCircle
 10
176.965801
 20
82.737384
 30
0.0
 40
0.6
100
AcDbArc
 50
315.0
 51
45.0
  0
LINE
  5
2B8
100
AcDbEntity
  8
LAY-1
  6
CONTINUOUS
 62
     2
100
AcDbLine
 10
176.400116
 20
81.32317
 30
0.0
 11
177.390065
 21
82.31312
 31
0.0
  0
LINE
  5
2B9
100
AcDbEntity
  8
LAY-1
  6
CONTINUOUS
 62
     2
100
AcDbLine
 10
176.400116
 20
81.32317
 30
0.0
 11
177.107223
 21
80.616063
 31
0.0
  0
LINE
  5
2BA
100
AcDbEntity
  8
LAY-1
  6
CONTINUOUS
 62
     2
100
AcDbLine
 10
177.107223
 20
80.616063
 30
0.0
 11
178.097172
 21
81.606013
 31
0.0
  0
ARC
  5
2BB
100
AcDbEntity
  8
LAY-1
  6
CONTINUOUS
 62
     2
100
AcDbCircle
 10
178.521436
 20
81.181749
 30
0.0
 40
0.6
100
AcDbArc
 50
45.0
 51
135.0
  0
LINE
  5
2BC
100
AcDbEntity
  8
LAY-1
  6
CONTINUOUS
 62
     2
100
AcDbLine
 10
179.93565
 20
80.616063
 30
0.0
 11
178.9457
 21
81.606013
 31
0.0
  0
LINE
  5
2BD
100
AcDbEntity
  8
LAY-1
  6
CONTINUOUS
 62
     2
100
AcDbLine
 10
179.93565
 20
80.616063
 30
0.0
 11
180.642757
 21
81.32317
 31
0.0
  0
LINE
  5
2BE
100
AcDbEntity
  8
LAY-1
  6
CONTINUOUS
 62
     2
100
AcDbLine
 10
179.652807
 20
82.31312
 30
0.0
 11
180.642757
 21
81.32317
 31
0.0
  0
ARC
  5
2BF
100
AcDbEntity
  8
LAY-1
  6
CONTINUOUS
 62
     2
100
AcDbCircle
 10
180.077071
 20
82.737384
 30
0.0
 40
0.6
100
AcDbArc
 50
135.0
 51
225.0
  0
LINE
  5
2C0
100
AcDbEntity
  8
LAY-1
  6
CONTINUOUS
 62
     2
100
AcDbLine
 10
179.652807
 20
83.161648
 30
0.0
 11
180.642757
 21
84.151597
 31
0.0
  0
LINE
  5
2C1
100
AcDbEntity
  8
LAY-1
  6
CONTINUOUS
 62
     2
100
AcDbLine
 10
180.642757
 20
84.151597
 30
0.0
 11
179.93565
 21
84.858704
 31
0.0
  0
LINE
  5
2C2
100
AcDbEntity
  8
LAY-1
  6
CONTINUOUS
 62
     2
100
AcDbLine
 10
178.9457
 20
83.868755
 30
0.0
 11
179.93565
 21
84.858704
 31
0.0
  0
ARC
  5
2C3
100
AcDbEntity
  8
LAY-1
  6
CONTINUOUS
 62
     2
100
AcDbCircle
 10
178.521436
 20
84.293019
 30
0.0
 40
0.6
100
AcDbArc
 50
225.0
 51
315.0
  0
LINE
  5
2C4
100
AcDbEntity
  8
LAY-1
  6
CONTINUOUS
 62
     2
100
AcDbLine
 10
177.107223
 20
84.858704
 30
0.0
 11
178.097172
 21
83.868755
 31
0.0
  0
LINE
  5
2C5
100
AcDbEntity
  8
LAY-1
  6
CONTINUOUS
 62
     2
100
AcDbLine
 10
177.107223
 20
84.858704
 30
0.0
 11
176.400116
 21
84.151597
 31
0.0
  0
CIRCLE
  5
2C6
100
AcDbEntity
  8
LAY-1
  6
CONTINUOUS
 62
     2
100
AcDbCircle
 10
178.521436
 20
200.993964
 30
0.0
 40
4.25
  0
LINE
  5
2C7
100
AcDbEntity
  8
LAY-1
  6
CONTINUOUS
 62
     2
100
AcDbLine
 10
177.390065
 20
201.418228
 30
0.0
 11
176.400116
 21
202.408177
 31
0.0
  0
ARC
  5
2C8
100
AcDbEntity
  8
LAY-1
  6
CONTINUOUS
 62
     2
100
AcDbCircle
 10
176.965801
 20
200.993964
 30
0.0
 40
0.6
100
AcDbArc
 50
315.0
 51
45.0
  0
LINE
  5
2C9
100
AcDbEntity
  8
LAY-1
  6
CONTINUOUS
 62
     2
100
AcDbLine
 10
176.400116
 20
199.57975
 30
0.0
 11
177.390065
 21
200.5697
 31
0.0
  0
LINE
  5
2CA
100
AcDbEntity
  8
LAY-1
  6
CONTINUOUS
 62
     2
100
AcDbLine
 10
176.400116
 20
199.57975
 30
0.0
 11
177.107223
 21
198.872644
 31
0.0
  0
LINE
  5
2CB
100
AcDbEntity
  8
LAY-1
  6
CONTINUOUS
 62
     2
100
AcDbLine
 10
177.107223
 20
198.872644
 30
0.0
 11
178.097172
 21
199.862593
 31
0.0
  0
ARC
  5
2CC
100
AcDbEntity
  8
LAY-1
  6
CONTINUOUS
 62
     2
100
AcDbCircle
 10
178.521436
 20
199.438329
 30
0.0
 40
0.6
100
AcDbArc
 50
45.0
 51
135.0
  0
LINE
  5
2CD
100
AcDbEntity
  8
LAY-1
  6
CONTINUOUS
 62
     2
100
AcDbLine
 10
179.93565
 20
198.872644
 30
0.0
 11
178.9457
 21
199.862593
 31
0.0
  0
LINE
  5
2CE
100
AcDbEntity
  8
LAY-1
  6
CONTINUOUS
 62
     2
100
AcDbLine
 10
179.93565
 20
198.872644
 30
0.0
 11
180.642757
 21
199.57975
 31
0.0
  0
LINE
  5
2CF
100
AcDbEntity
  8
LAY-1
  6
CONTINUOUS
 62
     2
100
AcDbLine
 10
179.652807
 20
200.5697
 30
0.0
 11
180.642757
 21
199.57975
 31
0.0
  0
ARC
  5
2D0
100
AcDbEntity
  8
LAY-1
  6
CONTINUOUS
 62
     2
100
AcDbCircle
 10
180.077071
 20
200.993964
 30
0.0
 40
0.6
100
AcDbArc
 50
135.0
 51
225.0
  0
LINE
  5
2D1
100
AcDbEntity
  8
LAY-1
  6
CONTINUOUS
 62
     2
100
AcDbLine
 10
179.652807
 20
201.418228
 30
0.0
 11
180.642757
 21
202.408177
 31
0.0
  0
LINE
  5
2D2
100
AcDbEntity
  8
LAY-1
  6
CONTINUOUS
 62
     2
100
AcDbLine
 10
180.642757
 20
202.408177
 30
0.0
 11
179.93565
 21
203.115284
 31
0.0
  0
LINE
  5
2D3
100
AcDbEntity
  8
LAY-1
  6
CONTINUOUS
 62
     2
100
AcDbLine
 10
178.9457
 20
202.125335
 30
0.0
 11
179.93565
 21
203.115284
 31
0.0
  0
ARC
  5
2D4
100
AcDbEntity
  8
LAY-1
  6
CONTINUOUS
 62
     2
100
AcDbCircle
 10
178.521436
 20
202.549599
 30
0.0
 40
0.6
100
AcDbArc
 50
225.0
 51
315.0
  0
LINE
  5
2D5
100
AcDbEntity
  8
LAY-1
  6
CONTINUOUS
 62
     2
100
AcDbLine
 10
177.107223
 20
203.115284
 30
0.0
 11
178.097172
 21
202.125335
 31
0.0
  0
LINE
  5
2D6
100
AcDbEntity
  8
LAY-1
  6
CONTINUOUS
 62
     2
100
AcDbLine
 10
177.107223
 20
203.115284
 30
0.0
 11
176.400116
 21
202.408177
 31
0.0
  0
LINE
  5
2D7
100
AcDbEntity
  8
LAY-1
  6
CONTINUOUS
 62
     2
100
AcDbLine
 10
134.741659
 20
151.865674
 30
0.0
 11
150.184749
 21
151.865674
 31
0.0
  0
ARC
  5
2D8
100
AcDbEntity
  8
LAY-1
  6
CONTINUOUS
 62
     2
100
AcDbCircle
 10
150.184749
 20
149.865674
 30
0.0
 40
2.0
100
AcDbArc
 50
45.0
 51
90.0
  0
LINE
  5
2D9
100
AcDbEntity
  8
LAY-1
  6
CONTINUOUS
 62
     2
100
AcDbLine
 10
153.427389
 20
149.45146
 30
0.0
 11
151.598962
 21
151.279887
 31
0.0
  0
LINE
  5
2DA
100
AcDbEntity
  8
LAY-1
  6
CONTINUOUS
 62
     2
100
AcDbLine
 10
154.841603
 20
148.865674
 30
0.0
 11
172.513176
 21
148.865674
 31
0.0
  0
ARC
  5
2DB
100
AcDbEntity
  8
LAY-1
  6
CONTINUOUS
 62
     2
100
AcDbCircle
 10
154.841603
 20
150.865674
 30
0.0
 40
2.0
100
AcDbArc
 50
225.0
 51
270.0
  0
LINE
  5
2DC
100
AcDbEntity
  8
LAY-1
  6
CONTINUOUS
 62
     2
100
AcDbLine
 10
151.013176
 20
150.935674
 30
0.0
 11
151.013176
 21
141.865674
 31
0.0
  0
LINE
  5
2DD
100
AcDbEntity
  8
LAY-1
  6
CONTINUOUS
 62
     2
100
AcDbLine
 10
154.013176
 20
148.145674
 30
0.0
 11
154.013176
 21
141.865674
 31
0.0
  0
LINE
  5
2DE
100
AcDbEntity
  8
LAY-1
  6
CONTINUOUS
 62
     2
100
AcDbLine
 10
134.741659
 20
131.865674
 30
0.0
 11
150.184749
 21
131.865674
 31
0.0
  0
ARC
  5
2DF
100
AcDbEntity
  8
LAY-1
  6
CONTINUOUS
 62
     2
100
AcDbCircle
 10
150.184749
 20
133.865674
 30
0.0
 40
2.0
100
AcDbArc
 50
270.0
 51
315.0
  0
LINE
  5
2E0
100
AcDbEntity
  8
LAY-1
  6
CONTINUOUS
 62
     2
100
AcDbLine
 10
153.427389
 20
134.279887
 30
0.0
 11
151.598962
 21
132.45146
 31
0.0
  0
LINE
  5
2E1
100
AcDbEntity
  8
LAY-1
  6
CONTINUOUS
 62
     2
100
AcDbLine
 10
154.841603
 20
134.865674
 30
0.0
 11
172.513176
 21
134.865674
 31
0.0
  0
ARC
  5
2E2
100
AcDbEntity
  8
LAY-1
  6
CONTINUOUS
 62
     2
100
AcDbCircle
 10
154.841603
 20
132.865674
 30
0.0
 40
2.0
100
AcDbArc
 50
90.0
 51
135.0
  0
LINE
  5
2E3
100
AcDbEntity
  8
LAY-1
  6
CONTINUOUS
 62
     2
100
AcDbLine
 10
151.013176
 20
132.795674
 30
0.0
 11
151.013176
 21
141.865674
 31
0.0
  0
LINE
  5
2E4
100
AcDbEntity
  8
LAY-1
  6
CONTINUOUS
 62
     2
100
AcDbLine
 10
154.013176
 20
135.585674
 30
0.0
 11
154.013176
 21
141.865674
 31
0.0
  0
LINE
  5
2E5
100
AcDbEntity
  8
LAY-1
  6
CONTINUOUS
 62
     2
100
AcDbLine
 10
172.513176
 20
148.865674
 30
0.0
 11
176.917107
 21
144.807072
 31
0.0
  0
LINE
  5
2E6
100
AcDbEntity
  8
LAY-1
  6
CONTINUOUS
 62
     2
100
AcDbLine
 10
172.513176
 20
134.865674
 30
0.0
 11
176.917107
 21
138.924275
 31
0.0
  0
ARC
  5
2E7
100
AcDbEntity
  8
LAY-1
  6
CONTINUOUS
 62
     2
100
AcDbCircle
 10
174.206355
 20
141.865674
 30
0.0
 40
4.0
100
AcDbArc
 50
312.663233
 51
47.336767
  0
ARC
  5
2E8
100
AcDbEntity
  8
LAY-1
  6
CONTINUOUS
 62
     2
100
AcDbCircle
 10
203.013176
 20
141.865674
 30
0.0
 40
56.622648
100
AcDbArc
 50
190.172234
 51
255.569168
  0
LINE
  5
2E9
100
AcDbEntity
  8
LAY-1
  6
CONTINUOUS
 62
     2
100
AcDbLine
 10
201.013176
 20
79.365674
 30
0.0
 11
201.013176
 21
101.365674
 31
0.0
  0
CIRCLE
  5
2EA
100
AcDbEntity
  8
LAY-1
  6
CONTINUOUS
 62
     2
100
AcDbCircle
 10
203.013176
 20
90.365674
 30
0.0
 40
14.5
  0
CIRCLE
  5
2EB
100
AcDbEntity
  8
LAY-1
  6
CONTINUOUS
 62
     2
100
AcDbCircle
 10
203.013176
 20
90.365674
 30
0.0
 40
12.75
  0
LINE
  5
2EC
100
AcDbEntity
  8
LAY-1
  6
CONTINUOUS
 62
     2
100
AcDbLine
 10
205.013176
 20
79.365674
 30
0.0
 11
205.013176
 21
101.365674
 31
0.0
  0
LINE
  5
2ED
100
AcDbEntity
  8
LAY-1
  6
CONTINUOUS
 62
     2
100
AcDbLine
 10
201.013176
 20
101.365674
 30
0.0
 11
205.013176
 21
101.365674
 31
0.0
  0
LINE
  5
2EE
100
AcDbEntity
  8
LAY-1
  6
CONTINUOUS
 62
     2
100
AcDbLine
 10
205.013176
 20
79.365674
 30
0.0
 11
201.013176
 21
79.365674
 31
0.0
  0
ARC
  5
2EF
100
AcDbEntity
  8
LAY-1
  6
CONTINUOUS
 62
     2
100
AcDbCircle
 10
203.013176
 20
141.865674
 30
0.0
 40
56.622648
100
AcDbArc
 50
284.430832
 51
169.827766
  0
CIRCLE
  5
2F0
100
AcDbEntity
  8
LAY-1
  6
CONTINUOUS
 62
     2
100
AcDbCircle
 10
203.013176
 20
141.865674
 30
0.0
 40
69.0
  0
CIRCLE
  5
2F1
100
AcDbEntity
  8
LAY-1
  6
CONTINUOUS
 62
     2
100
AcDbCircle
 10
262.141466
 20
166.357414
 30
0.0
 40
4.25
  0
LINE
  5
2F2
100
AcDbEntity
  8
LAY-1
  6
CONTINUOUS
 62
     2
100
AcDbLine
 10
263.272837
 20
166.781678
 30
0.0
 11
264.262786
 21
167.771627
 31
0.0
  0
ARC
  5
2F3
100
AcDbEntity
  8
LAY-1
  6
CONTINUOUS
 62
     2
100
AcDbCircle
 10
263.697101
 20
166.357414
 30
0.0
 40
0.6
100
AcDbArc
 50
135.0
 51
225.0
  0
LINE
  5
2F4
100
AcDbEntity
  8
LAY-1
  6
CONTINUOUS
 62
     2
100
AcDbLine
 10
264.262786
 20
164.9432
 30
0.0
 11
263.272837
 21
165.933149
 31
0.0
  0
LINE
  5
2F5
100
AcDbEntity
  8
LAY-1
  6
CONTINUOUS
 62
     2
100
AcDbLine
 10
264.262786
 20
164.9432
 30
0.0
 11
263.55568
 21
164.236093
 31
0.0
  0
LINE
  5
2F6
100
AcDbEntity
  8
LAY-1
  6
CONTINUOUS
 62
     2
100
AcDbLine
 10
263.55568
 20
164.236093
 30
0.0
 11
262.56573
 21
165.226043
 31
0.0
  0
ARC
  5
2F7
100
AcDbEntity
  8
LAY-1
  6
CONTINUOUS
 62
     2
100
AcDbCircle
 10
262.141466
 20
164.801779
 30
0.0
 40
0.6
100
AcDbArc
 50
45.0
 51
135.0
  0
LINE
  5
2F8
100
AcDbEntity
  8
LAY-1
  6
CONTINUOUS
 62
     2
100
AcDbLine
 10
260.727252
 20
164.236093
 30
0.0
 11
261.717202
 21
165.226043
 31
0.0
  0
LINE
  5
2F9
100
AcDbEntity
  8
LAY-1
  6
CONTINUOUS
 62
     2
100
AcDbLine
 10
260.727252
 20
164.236093
 30
0.0
 11
260.020146
 21
164.9432
 31
0.0
  0
LINE
  5
2FA
100
AcDbEntity
  8
LAY-1
  6
CONTINUOUS
 62
     2
100
AcDbLine
 10
261.010095
 20
165.933149
 30
0.0
 11
260.020146
 21
164.9432
 31
0.0
  0
ARC
  5
2FB
100
AcDbEntity
  8
LAY-1
  6
CONTINUOUS
 62
     2
100
AcDbCircle
 10
260.585831
 20
166.357414
 30
0.0
 40
0.6
100
AcDbArc
 50
315.0
 51
45.0
  0
LINE
  5
2FC
100
AcDbEntity
  8
LAY-1
  6
CONTINUOUS
 62
     2
100
AcDbLine
 10
261.010095
 20
166.781678
 30
0.0
 11
260.020146
 21
167.771627
 31
0.0
  0
LINE
  5
2FD
100
AcDbEntity
  8
LAY-1
  6
CONTINUOUS
 62
     2
100
AcDbLine
 10
260.020146
 20
167.771627
 30
0.0
 11
260.727252
 21
168.478734
 31
0.0
  0
LINE
  5
2FE
100
AcDbEntity
  8
LAY-1
  6
CONTINUOUS
 62
     2
100
AcDbLine
 10
261.717202
 20
167.488784
 30
0.0
 11
260.727252
 21
168.478734
 31
0.0
  0
ARC
  5
2FF
100
AcDbEntity
  8
LAY-1
  6
CONTINUOUS
 62
     2
100
AcDbCircle
 10
262.141466
 20
167.913048
 30
0.0
 40
0.6
100
AcDbArc
 50
225.0
 51
315.0
  0
LINE
  5
300
100
AcDbEntity
  8
LAY-1
  6
CONTINUOUS
 62
     2
100
AcDbLine
 10
263.55568
 20
168.478734
 30
0.0
 11
262.56573
 21
167.488784
 31
0.0
  0
LINE
  5
301
100
AcDbEntity
  8
LAY-1
  6
CONTINUOUS
 62
     2
100
AcDbLine
 10
263.55568
 20
168.478734
 30
0.0
 11
264.262786
 21
167.771627
 31
0.0
  0
CIRCLE
  5
302
100
AcDbEntity
  8
LAY-1
  6
CONTINUOUS
 62
     2
100
AcDbCircle
 10
227.504916
 20
200.993964
 30
0.0
 40
4.25
  0
LINE
  5
303
100
AcDbEntity
  8
LAY-1
  6
CONTINUOUS
 62
     2
100
AcDbLine
 10
228.636286
 20
201.418228
 30
0.0
 11
229.626236
 21
202.408177
 31
0.0
  0
ARC
  5
304
100
AcDbEntity
  8
LAY-1
  6
CONTINUOUS
 62
     2
100
AcDbCircle
 10
229.060551
 20
200.993964
 30
0.0
 40
0.6
100
AcDbArc
 50
135.0
 51
225.0
  0
LINE
  5
305
100
AcDbEntity
  8
LAY-1
  6
CONTINUOUS
 62
     2
100
AcDbLine
 10
229.626236
 20
199.57975
 30
0.0
 11
228.636286
 21
200.5697
 31
0.0
  0
LINE
  5
306
100
AcDbEntity
  8
LAY-1
  6
CONTINUOUS
 62
     2
100
AcDbLine
 10
229.626236
 20
199.57975
 30
0.0
 11
228.919129
 21
198.872644
 31
0.0
  0
LINE
  5
307
100
AcDbEntity
  8
LAY-1
  6
CONTINUOUS
 62
     2
100
AcDbLine
 10
228.919129
 20
198.872644
 30
0.0
 11
227.92918
 21
199.862593
 31
0.0
  0
ARC
  5
308
100
AcDbEntity
  8
LAY-1
  6
CONTINUOUS
 62
     2
100
AcDbCircle
 10
227.504916
 20
199.438329
 30
0.0
 40
0.6
100
AcDbArc
 50
45.0
 51
135.0
  0
LINE
  5
309
100
AcDbEntity
  8
LAY-1
  6
CONTINUOUS
 62
     2
100
AcDbLine
 10
226.090702
 20
198.872644
 30
0.0
 11
227.080652
 21
199.862593
 31
0.0
  0
LINE
  5
30A
100
AcDbEntity
  8
LAY-1
  6
CONTINUOUS
 62
     2
100
AcDbLine
 10
226.090702
 20
198.872644
 30
0.0
 11
225.383595
 21
199.57975
 31
0.0
  0
LINE
  5
30B
100
AcDbEntity
  8
LAY-1
  6
CONTINUOUS
 62
     2
100
AcDbLine
 10
226.373545
 20
200.5697
 30
0.0
 11
225.383595
 21
199.57975
 31
0.0
  0
ARC
  5
30C
100
AcDbEntity
  8
LAY-1
  6
CONTINUOUS
 62
     2
100
AcDbCircle
 10
225.949281
 20
200.993964
 30
0.0
 40
0.6
100
AcDbArc
 50
315.0
 51
45.0
  0
LINE
  5
30D
100
AcDbEntity
  8
LAY-1
  6
CONTINUOUS
 62
     2
100
AcDbLine
 10
226.373545
 20
201.418228
 30
0.0
 11
225.383595
 21
202.408177
 31
0.0
  0
LINE
  5
30E
100
AcDbEntity
  8
LAY-1
  6
CONTINUOUS
 62
     2
100
AcDbLine
 10
225.383595
 20
202.408177
 30
0.0
 11
226.090702
 21
203.115284
 31
0.0
  0
LINE
  5
30F
100
AcDbEntity
  8
LAY-1
  6
CONTINUOUS
 62
     2
100
AcDbLine
 10
227.080652
 20
202.125335
 30
0.0
 11
226.090702
 21
203.115284
 31
0.0
  0
ARC
  5
310
100
AcDbEntity
  8
LAY-1
  6
CONTINUOUS
 62
     2
100
AcDbCircle
 10
227.504916
 20
202.549599
 30
0.0
 40
0.6
100
AcDbArc
 50
225.0
 51
315.0
  0
LINE
  5
311
100
AcDbEntity
  8
LAY-1
  6
CONTINUOUS
 62
     2
100
AcDbLine
 10
228.919129
 20
203.115284
 30
0.0
 11
227.92918
 21
202.125335
 31
0.0
  0
LINE
  5
312
100
AcDbEntity
  8
LAY-1
  6
CONTINUOUS
 62
     2
100
AcDbLine
 10
228.919129
 20
203.115284
 30
0.0
 11
229.626236
 21
202.408177
 31
0.0
  0
CIRCLE
  5
313
100
AcDbEntity
  8
LAY-1
  6
CONTINUOUS
 62
     2
100
AcDbCircle
 10
262.141466
 20
117.373934
 30
0.0
 40
4.25
  0
LINE
  5
314
100
AcDbEntity
  8
LAY-1
  6
CONTINUOUS
 62
     2
100
AcDbLine
 10
263.272837
 20
117.798198
 30
0.0
 11
264.262786
 21
118.788148
 31
0.0
  0
ARC
  5
315
100
AcDbEntity
  8
LAY-1
  6
CONTINUOUS
 62
     2
100
AcDbCircle
 10
263.697101
 20
117.373934
 30
0.0
 40
0.6
100
AcDbArc
 50
135.0
 51
225.0
  0
LINE
  5
316
100
AcDbEntity
  8
LAY-1
  6
CONTINUOUS
 62
     2
100
AcDbLine
 10
264.262786
 20
115.959721
 30
0.0
 11
263.272837
 21
116.94967
 31
0.0
  0
LINE
  5
317
100
AcDbEntity
  8
LAY-1
  6
CONTINUOUS
 62
     2
100
AcDbLine
 10
264.262786
 20
115.959721
 30
0.0
 11
263.55568
 21
115.252614
 31
0.0
  0
LINE
  5
318
100
AcDbEntity
  8
LAY-1
  6
CONTINUOUS
 62
     2
100
AcDbLine
 10
263.55568
 20
115.252614
 30
0.0
 11
262.56573
 21
116.242563
 31
0.0
  0
ARC
  5
319
100
AcDbEntity
  8
LAY-1
  6
CONTINUOUS
 62
     2
100
AcDbCircle
 10
262.141466
 20
115.818299
 30
0.0
 40
0.6
100
AcDbArc
 50
45.0
 51
135.0
  0
LINE
  5
31A
100
AcDbEntity
  8
LAY-1
  6
CONTINUOUS
 62
     2
100
AcDbLine
 10
260.727252
 20
115.252614
 30
0.0
 11
261.717202
 21
116.242563
 31
0.0
  0
LINE
  5
31B
100
AcDbEntity
  8
LAY-1
  6
CONTINUOUS
 62
     2
100
AcDbLine
 10
260.727252
 20
115.252614
 30
0.0
 11
260.020146
 21
115.959721
 31
0.0
  0
LINE
  5
31C
100
AcDbEntity
  8
LAY-1
  6
CONTINUOUS
 62
     2
100
AcDbLine
 10
261.010095
 20
116.94967
 30
0.0
 11
260.020146
 21
115.959721
 31
0.0
  0
ARC
  5
31D
100
AcDbEntity
  8
LAY-1
  6
CONTINUOUS
 62
     2
100
AcDbCircle
 10
260.585831
 20
117.373934
 30
0.0
 40
0.6
100
AcDbArc
 50
315.0
 51
45.0
  0
LINE
  5
31E
100
AcDbEntity
  8
LAY-1
  6
CONTINUOUS
 62
     2
100
AcDbLine
 10
261.010095
 20
117.798198
 30
0.0
 11
260.020146
 21
118.788148
 31
0.0
  0
LINE
  5
31F
100
AcDbEntity
  8
LAY-1
  6
CONTINUOUS
 62
     2
100
AcDbLine
 10
260.020146
 20
118.788148
 30
0.0
 11
260.727252
 21
119.495255
 31
0.0
  0
LINE
  5
320
100
AcDbEntity
  8
LAY-1
  6
CONTINUOUS
 62
     2
100
AcDbLine
 10
261.717202
 20
118.505305
 30
0.0
 11
260.727252
 21
119.495255
 31
0.0
  0
ARC
  5
321
100
AcDbEntity
  8
LAY-1
  6
CONTINUOUS
 62
     2
100
AcDbCircle
 10
262.141466
 20
118.929569
 30
0.0
 40
0.6
100
AcDbArc
 50
225.0
 51
315.0
  0
LINE
  5
322
100
AcDbEntity
  8
LAY-1
  6
CONTINUOUS
 62
     2
100
AcDbLine
 10
263.55568
 20
119.495255
 30
0.0
 11
262.56573
 21
118.505305
 31
0.0
  0
LINE
  5
323
100
AcDbEntity
  8
LAY-1
  6
CONTINUOUS
 62
     2
100
AcDbLine
 10
263.55568
 20
119.495255
 30
0.0
 11
264.262786
 21
118.788148
 31
0.0
  0
CIRCLE
  5
324
100
AcDbEntity
  8
LAY-1
  6
CONTINUOUS
 62
     2
100
AcDbCircle
 10
227.504916
 20
82.737384
 30
0.0
 40
4.25
  0
LINE
  5
325
100
AcDbEntity
  8
LAY-1
  6
CONTINUOUS
 62
     2
100
AcDbLine
 10
228.636286
 20
83.161648
 30
0.0
 11
229.626236
 21
84.151597
 31
0.0
  0
ARC
  5
326
100
AcDbEntity
  8
LAY-1
  6
CONTINUOUS
 62
     2
100
AcDbCircle
 10
229.060551
 20
82.737384
 30
0.0
 40
0.6
100
AcDbArc
 50
135.0
 51
225.0
  0
LINE
  5
327
100
AcDbEntity
  8
LAY-1
  6
CONTINUOUS
 62
     2
100
AcDbLine
 10
229.626236
 20
81.32317
 30
0.0
 11
228.636286
 21
82.31312
 31
0.0
  0
LINE
  5
328
100
AcDbEntity
  8
LAY-1
  6
CONTINUOUS
 62
     2
100
AcDbLine
 10
229.626236
 20
81.32317
 30
0.0
 11
228.919129
 21
80.616063
 31
0.0
  0
LINE
  5
329
100
AcDbEntity
  8
LAY-1
  6
CONTINUOUS
 62
     2
100
AcDbLine
 10
228.919129
 20
80.616063
 30
0.0
 11
227.92918
 21
81.606013
 31
0.0
  0
ARC
  5
32A
100
AcDbEntity
  8
LAY-1
  6
CONTINUOUS
 62
     2
100
AcDbCircle
 10
227.504916
 20
81.181749
 30
0.0
 40
0.6
100
AcDbArc
 50
45.0
 51
135.0
  0
LINE
  5
32B
100
AcDbEntity
  8
LAY-1
  6
CONTINUOUS
 62
     2
100
AcDbLine
 10
226.090702
 20
80.616063
 30
0.0
 11
227.080652
 21
81.606013
 31
0.0
  0
LINE
  5
32C
100
AcDbEntity
  8
LAY-1
  6
CONTINUOUS
 62
     2
100
AcDbLine
 10
226.090702
 20
80.616063
 30
0.0
 11
225.383595
 21
81.32317
 31
0.0
  0
LINE
  5
32D
100
AcDbEntity
  8
LAY-1
  6
CONTINUOUS
 62
     2
100
AcDbLine
 10
226.373545
 20
82.31312
 30
0.0
 11
225.383595
 21
81.32317
 31
0.0
  0
ARC
  5
32E
100
AcDbEntity
  8
LAY-1
  6
CONTINUOUS
 62
     2
100
AcDbCircle
 10
225.949281
 20
82.737384
 30
0.0
 40
0.6
100
AcDbArc
 50
315.0
 51
45.0
  0
LINE
  5
32F
100
AcDbEntity
  8
LAY-1
  6
CONTINUOUS
 62
     2
100
AcDbLine
 10
226.373545
 20
83.161648
 30
0.0
 11
225.383595
 21
84.151597
 31
0.0
  0
LINE
  5
330
100
AcDbEntity
  8
LAY-1
  6
CONTINUOUS
 62
     2
100
AcDbLine
 10
225.383595
 20
84.151597
 30
0.0
 11
226.090702
 21
84.858704
 31
0.0
  0
LINE
  5
331
100
AcDbEntity
  8
LAY-1
  6
CONTINUOUS
 62
     2
100
AcDbLine
 10
227.080652
 20
83.868755
 30
0.0
 11
226.090702
 21
84.858704
 31
0.0
  0
ARC
  5
332
100
AcDbEntity
  8
LAY-1
  6
CONTINUOUS
 62
     2
100
AcDbCircle
 10
227.504916
 20
84.293019
 30
0.0
 40
0.6
100
AcDbArc
 50
225.0
 51
315.0
  0
LINE
  5
333
100
AcDbEntity
  8
LAY-1
  6
CONTINUOUS
 62
     2
100
AcDbLine
 10
228.919129
 20
84.858704
 30
0.0
 11
227.92918
 21
83.868755
 31
0.0
  0
LINE
  5
334
100
AcDbEntity
  8
LAY-1
  6
CONTINUOUS
 62
     2
100
AcDbLine
 10
228.919129
 20
84.858704
 30
0.0
 11
229.626236
 21
84.151597
 31
0.0
  0
ARC
  5
335
100
AcDbEntity
  8
LAY-1
  6
CONTINUOUS
 62
     2
100
AcDbCircle
 10
203.013176
 20
141.865674
 30
0.0
 40
22.5
100
AcDbArc
 50
180.0
 51
185.659353
  0
POLYLINE
  5
336
100
AcDbEntity
  8
LAY-1
  6
CONTINUOUS
 62
     2
100
AcDb2dPolyline
 66
     1
 10
0.0
 20
0.0
 30
0.0
 70
   128
  0
VERTEX
  5
337
100
AcDbEntity
  8
LAY-1
  6
CONTINUOUS
 62
     2
100
AcDbVertex
100
AcDb2dVertex
 10
180.622846
 20
139.646863
 30
0.0
  0
VERTEX
  5
338
100
AcDbEntity
  8
LAY-1
  6
CONTINUOUS
 62
     2
100
AcDbVertex
100
AcDb2dVertex
 10
189.896464
 20
123.584485
 30
0.0
  0
SEQEND
  5
339
100
AcDbEntity
  8
LAY-1
  6
CONTINUOUS
 62
     2
  0
ARC
  5
33A
100
AcDbEntity
  8
LAY-1
  6
CONTINUOUS
 62
     2
100
AcDbCircle
 10
203.013176
 20
141.865674
 30
0.0
 40
22.5
100
AcDbArc
 50
234.340647
 51
245.659353
  0
POLYLINE
  5
33B
100
AcDbEntity
  8
LAY-1
  6
CONTINUOUS
 62
     2
100
AcDb2dPolyline
 66
     1
 10
0.0
 20
0.0
 30
0.0
 70
   128
  0
VERTEX
  5
33C
100
AcDbEntity
  8
LAY-1
  6
CONTINUOUS
 62
     2
100
AcDbVertex
100
AcDb2dVertex
 10
193.739557
 20
121.365674
 30
0.0
  0
VERTEX
  5
33D
100
AcDbEntity
  8
LAY-1
  6
CONTINUOUS
 62
     2
100
AcDbVertex
100
AcDb2dVertex
 10
212.286794
 20
121.365674
 30
0.0
  0
SEQEND
  5
33E
100
AcDbEntity
  8
LAY-1
  6
CONTINUOUS
 62
     2
  0
ARC
  5
33F
100
AcDbEntity
  8
LAY-1
  6
CONTINUOUS
 62
     2
100
AcDbCircle
 10
203.013176
 20
141.865674
 30
0.0
 40
22.5
100
AcDbArc
 50
294.340647
 51
305.659353
  0
ARC
  5
340
100
AcDbEntity
  8
LAY-1
  6
CONTINUOUS
 62
     2
100
AcDbCircle
 10
203.013176
 20
141.865674
 30
0.0
 40
22.5
100
AcDbArc
 50
354.340647
 51
0.0
  0
POLYLINE
  5
341
100
AcDbEntity
  8
LAY-1
  6
CONTINUOUS
 62
     2
100
AcDb2dPolyline
 66
     1
 10
0.0
 20
0.0
 30
0.0
 70
   128
  0
VERTEX
  5
342
100
AcDbEntity
  8
LAY-1
  6
CONTINUOUS
 62
     2
100
AcDbVertex
100
AcDb2dVertex
 10
216.129887
 20
123.584485
 30
0.0
  0
VERTEX
  5
343
100
AcDbEntity
  8
LAY-1
  6
CONTINUOUS
 62
     2
100
AcDbVertex
100
AcDb2dVertex
 10
225.403506
 20
139.646863
 30
0.0
  0
SEQEND
  5
344
100
AcDbEntity
  8
LAY-1
  6
CONTINUOUS
 62
     2
  0
ARC
  5
345
100
AcDbEntity
  8
LAY-1
  6
CONTINUOUS
 62
     2
100
AcDbCircle
 10
203.013176
 20
141.865674
 30
0.0
 40
20.5
100
AcDbArc
 50
180.0
 51
0.0
  0
ARC
  5
346
100
AcDbEntity
  8
LAY-1
  6
CONTINUOUS
 62
     2
100
AcDbCircle
 10
203.013176
 20
141.865674
 30
0.0
 40
14.0
100
AcDbArc
 50
270.0
 51
273.126776
  0
ARC
  5
347
100
AcDbEntity
  8
LAY-1
  6
CONTINUOUS
 62
     2
100
AcDbCircle
 10
203.763176
 20
128.136144
 30
0.0
 40
0.25
100
AcDbArc
 50
273.126776
 51
0.0
  0
LINE
  5
348
100
AcDbEntity
  8
LAY-1
  6
CONTINUOUS
 62
     2
100
AcDbLine
 10
204.013176
 20
128.136144
 30
0.0
 11
204.013176
 21
128.17261
 31
0.0
  0
ARC
  5
349
100
AcDbEntity
  8
LAY-1
  6
CONTINUOUS
 62
     2
100
AcDbCircle
 10
204.263176
 20
128.17261
 30
0.0
 40
0.25
100
AcDbArc
 50
95.215909
 51
180.0
  0
ARC
  5
34A
100
AcDbEntity
  8
LAY-1
  6
CONTINUOUS
 62
     2
100
AcDbCircle
 10
203.013176
 20
141.865674
 30
0.0
 40
13.5
100
AcDbArc
 50
275.215909
 51
294.784091
  0
ARC
  5
34B
100
AcDbEntity
  8
LAY-1
  6
CONTINUOUS
 62
     2
100
AcDbCircle
 10
208.777176
 20
129.382133
 30
0.0
 40
0.25
100
AcDbArc
 50
30.0
 51
114.784091
  0
LINE
  5
34C
100
AcDbEntity
  8
LAY-1
  6
CONTINUOUS
 62
     2
100
AcDbLine
 10
208.993682
 20
129.507133
 30
0.0
 11
209.011916
 21
129.475552
 31
0.0
  0
ARC
  5
34D
100
AcDbEntity
  8
LAY-1
  6
CONTINUOUS
 62
     2
100
AcDbCircle
 10
209.228422
 20
129.600552
 30
0.0
 40
0.25
100
AcDbArc
 50
210.0
 51
296.873224
  0
ARC
  5
34E
100
AcDbEntity
  8
LAY-1
  6
CONTINUOUS
 62
     2
100
AcDbCircle
 10
203.013176
 20
141.865674
 30
0.0
 40
14.0
100
AcDbArc
 50
296.873224
 51
303.126776
  0
ARC
  5
34F
100
AcDbEntity
  8
LAY-1
  6
CONTINUOUS
 62
     2
100
AcDbCircle
 10
210.52746
 20
130.350552
 30
0.0
 40
0.25
100
AcDbArc
 50
303.126776
 51
30.0
  0
LINE
  5
350
100
AcDbEntity
  8
LAY-1
  6
CONTINUOUS
 62
     2
100
AcDbLine
 10
210.725733
 20
130.507133
 30
0.0
 11
210.743966
 21
130.475552
 31
0.0
  0
ARC
  5
351
100
AcDbEntity
  8
LAY-1
  6
CONTINUOUS
 62
     2
100
AcDbCircle
 10
210.94224
 20
130.632133
 30
0.0
 40
0.25
100
AcDbArc
 50
125.215909
 51
210.0
  0
ARC
  5
352
100
AcDbEntity
  8
LAY-1
  6
CONTINUOUS
 62
     2
100
AcDbCircle
 10
214.528298
 20
134.35139
 30
0.0
 40
0.25
100
AcDbArc
 50
240.0
 51
326.873224
  0
ARC
  5
353
100
AcDbEntity
  8
LAY-1
  6
CONTINUOUS
 62
     2
100
AcDbCircle
 10
203.013176
 20
141.865674
 30
0.0
 40
13.5
100
AcDbArc
 50
305.215909
 51
324.784091
  0
LINE
  5
354
100
AcDbEntity
  8
LAY-1
  6
CONTINUOUS
 62
     2
100
AcDbLine
 10
214.371717
 20
134.153116
 30
0.0
 11
214.403298
 21
134.134883
 31
0.0
  0
ARC
  5
355
100
AcDbEntity
  8
LAY-1
  6
CONTINUOUS
 62
     2
100
AcDbCircle
 10
214.246717
 20
133.93661
 30
0.0
 40
0.25
100
AcDbArc
 50
60.0
 51
144.784091
  0
ARC
  5
356
100
AcDbEntity
  8
LAY-1
  6
CONTINUOUS
 62
     2
100
AcDbCircle
 10
215.496717
 20
136.101674
 30
0.0
 40
0.25
100
AcDbArc
 50
155.215909
 51
240.0
  0
LINE
  5
357
100
AcDbEntity
  8
LAY-1
  6
CONTINUOUS
 62
     2
100
AcDbLine
 10
215.371717
 20
135.885167
 30
0.0
 11
215.403298
 21
135.866934
 31
0.0
  0
ARC
  5
358
100
AcDbEntity
  8
LAY-1
  6
CONTINUOUS
 62
     2
100
AcDbCircle
 10
203.013176
 20
141.865674
 30
0.0
 40
14.0
100
AcDbArc
 50
326.873224
 51
333.126776
  0
ARC
  5
359
100
AcDbEntity
  8
LAY-1
  6
CONTINUOUS
 62
     2
100
AcDbCircle
 10
215.278298
 20
135.650428
 30
0.0
 40
0.25
100
AcDbArc
 50
333.126776
 51
60.0
  0
ARC
  5
35A
100
AcDbEntity
  8
LAY-1
  6
CONTINUOUS
 62
     2
100
AcDbCircle
 10
216.742706
 20
141.115674
 30
0.0
 40
0.25
100
AcDbArc
 50
270.0
 51
356.873224
  0
LINE
  5
35B
100
AcDbEntity
  8
LAY-1
  6
CONTINUOUS
 62
     2
100
AcDbLine
 10
216.70624
 20
140.865674
 30
0.0
 11
216.742706
 21
140.865674
 31
0.0
  0
ARC
  5
35C
100
AcDbEntity
  8
LAY-1
  6
CONTINUOUS
 62
     2
100
AcDbCircle
 10
203.013176
 20
141.865674
 30
0.0
 40
13.5
100
AcDbArc
 50
335.215909
 51
354.784091
  0
ARC
  5
35D
100
AcDbEntity
  8
LAY-1
  6
CONTINUOUS
 62
     2
100
AcDbCircle
 10
216.70624
 20
140.615674
 30
0.0
 40
0.25
100
AcDbArc
 50
90.0
 51
174.784091
  0
ARC
  5
35E
100
AcDbEntity
  8
LAY-1
  6
CONTINUOUS
 62
     2
100
AcDbCircle
 10
203.013176
 20
141.865674
 30
0.0
 40
14.0
100
AcDbArc
 50
356.873224
 51
0.0
  0
ARC
  5
35F
100
AcDbEntity
  8
LAY-1
  6
CONTINUOUS
 62
     2
100
AcDbCircle
 10
203.013176
 20
141.865674
 30
0.0
 40
14.0
100
AcDbArc
 50
266.873224
 51
270.0
  0
ARC
  5
360
100
AcDbEntity
  8
LAY-1
  6
CONTINUOUS
 62
     2
100
AcDbCircle
 10
202.263176
 20
128.136144
 30
0.0
 40
0.25
100
AcDbArc
 50
180.0
 51
266.873224
  0
LINE
  5
361
100
AcDbEntity
  8
LAY-1
  6
CONTINUOUS
 62
     2
100
AcDbLine
 10
202.013176
 20
128.136144
 30
0.0
 11
202.013176
 21
128.17261
 31
0.0
  0
ARC
  5
362
100
AcDbEntity
  8
LAY-1
  6
CONTINUOUS
 62
     2
100
AcDbCircle
 10
201.763176
 20
128.17261
 30
0.0
 40
0.25
100
AcDbArc
 50
0.0
 51
84.784091
  0
ARC
  5
363
100
AcDbEntity
  8
LAY-1
  6
CONTINUOUS
 62
     2
100
AcDbCircle
 10
203.013176
 20
141.865674
 30
0.0
 40
13.5
100
AcDbArc
 50
245.215909
 51
264.784091
  0
ARC
  5
364
100
AcDbEntity
  8
LAY-1
  6
CONTINUOUS
 62
     2
100
AcDbCircle
 10
197.249176
 20
129.382133
 30
0.0
 40
0.25
100
AcDbArc
 50
65.215909
 51
150.0
  0
LINE
  5
365
100
AcDbEntity
  8
LAY-1
  6
CONTINUOUS
 62
     2
100
AcDbLine
 10
197.032669
 20
129.507133
 30
0.0
 11
197.014436
 21
129.475552
 31
0.0
  0
ARC
  5
366
100
AcDbEntity
  8
LAY-1
  6
CONTINUOUS
 62
     2
100
AcDbCircle
 10
196.79793
 20
129.600552
 30
0.0
 40
0.25
100
AcDbArc
 50
243.126776
 51
330.0
  0
ARC
  5
367
100
AcDbEntity
  8
LAY-1
  6
CONTINUOUS
 62
     2
100
AcDbCircle
 10
203.013176
 20
141.865674
 30
0.0
 40
14.0
100
AcDbArc
 50
236.873224
 51
243.126776
  0
ARC
  5
368
100
AcDbEntity
  8
LAY-1
  6
CONTINUOUS
 62
     2
100
AcDbCircle
 10
195.498892
 20
130.350552
 30
0.0
 40
0.25
100
AcDbArc
 50
150.0
 51
236.873224
  0
LINE
  5
369
100
AcDbEntity
  8
LAY-1
  6
CONTINUOUS
 62
     2
100
AcDbLine
 10
195.300619
 20
130.507133
 30
0.0
 11
195.282385
 21
130.475552
 31
0.0
  0
ARC
  5
36A
100
AcDbEntity
  8
LAY-1
  6
CONTINUOUS
 62
     2
100
AcDbCircle
 10
195.084112
 20
130.632133
 30
0.0
 40
0.25
100
AcDbArc
 50
330.0
 51
54.784091
  0
ARC
  5
36B
100
AcDbEntity
  8
LAY-1
  6
CONTINUOUS
 62
     2
100
AcDbCircle
 10
191.498054
 20
134.35139
 30
0.0
 40
0.25
100
AcDbArc
 50
213.126776
 51
300.0
  0
ARC
  5
36C
100
AcDbEntity
  8
LAY-1
  6
CONTINUOUS
 62
     2
100
AcDbCircle
 10
203.013176
 20
141.865674
 30
0.0
 40
13.5
100
AcDbArc
 50
215.215909
 51
234.784091
  0
LINE
  5
36D
100
AcDbEntity
  8
LAY-1
  6
CONTINUOUS
 62
     2
100
AcDbLine
 10
191.654635
 20
134.153116
 30
0.0
 11
191.623054
 21
134.134883
 31
0.0
  0
ARC
  5
36E
100
AcDbEntity
  8
LAY-1
  6
CONTINUOUS
 62
     2
100
AcDbCircle
 10
191.779635
 20
133.93661
 30
0.0
 40
0.25
100
AcDbArc
 50
35.215909
 51
120.0
  0
ARC
  5
36F
100
AcDbEntity
  8
LAY-1
  6
CONTINUOUS
 62
     2
100
AcDbCircle
 10
190.529635
 20
136.101674
 30
0.0
 40
0.25
100
AcDbArc
 50
300.0
 51
24.784091
  0
LINE
  5
370
100
AcDbEntity
  8
LAY-1
  6
CONTINUOUS
 62
     2
100
AcDbLine
 10
190.654635
 20
135.885167
 30
0.0
 11
190.623054
 21
135.866934
 31
0.0
  0
ARC
  5
371
100
AcDbEntity
  8
LAY-1
  6
CONTINUOUS
 62
     2
100
AcDbCircle
 10
203.013176
 20
141.865674
 30
0.0
 40
14.0
100
AcDbArc
 50
206.873224
 51
213.126776
  0
ARC
  5
372
100
AcDbEntity
  8
LAY-1
  6
CONTINUOUS
 62
     2
100
AcDbCircle
 10
190.748054
 20
135.650428
 30
0.0
 40
0.25
100
AcDbArc
 50
120.0
 51
206.873224
  0
ARC
  5
373
100
AcDbEntity
  8
LAY-1
  6
CONTINUOUS
 62
     2
100
AcDbCircle
 10
189.283646
 20
141.115674
 30
0.0
 40
0.25
100
AcDbArc
 50
183.126776
 51
270.0
  0
LINE
  5
374
100
AcDbEntity
  8
LAY-1
  6
CONTINUOUS
 62
     2
100
AcDbLine
 10
189.320112
 20
140.865674
 30
0.0
 11
189.283646
 21
140.865674
 31
0.0
  0
ARC
  5
375
100
AcDbEntity
  8
LAY-1
  6
CONTINUOUS
 62
     2
100
AcDbCircle
 10
203.013176
 20
141.865674
 30
0.0
 40
13.5
100
AcDbArc
 50
185.215909
 51
204.784091
  0
ARC
  5
376
100
AcDbEntity
  8
LAY-1
  6
CONTINUOUS
 62
     2
100
AcDbCircle
 10
189.320112
 20
140.615674
 30
0.0
 40
0.25
100
AcDbArc
 50
5.215909
 51
90.0
  0
ARC
  5
377
100
AcDbEntity
  8
LAY-1
  6
CONTINUOUS
 62
     2
100
AcDbCircle
 10
203.013176
 20
141.865674
 30
0.0
 40
14.0
100
AcDbArc
 50
180.0
 51
183.126776
  0
ARC
  5
378
100
AcDbEntity
  8
LAY-1
  6
CONTINUOUS
 62
     2
100
AcDbCircle
 10
203.013176
 20
141.865674
 30
0.0
 40
22.5
100
AcDbArc
 50
174.340647
 51
180.0
  0
POLYLINE
  5
379
100
AcDbEntity
  8
LAY-1
  6
CONTINUOUS
 62
     2
100
AcDb2dPolyline
 66
     1
 10
0.0
 20
0.0
 30
0.0
 70
   128
  0
VERTEX
  5
37A
100
AcDbEntity
  8
LAY-1
  6
CONTINUOUS
 62
     2
100
AcDbVertex
100
AcDb2dVertex
 10
180.622846
 20
144.084485
 30
0.0
  0
VERTEX
  5
37B
100
AcDbEntity
  8
LAY-1
  6
CONTINUOUS
 62
     2
100
AcDbVertex
100
AcDb2dVertex
 10
189.896464
 20
160.146863
 30
0.0
  0
SEQEND
  5
37C
100
AcDbEntity
  8
LAY-1
  6
CONTINUOUS
 62
     2
  0
ARC
  5
37D
100
AcDbEntity
  8
LAY-1
  6
CONTINUOUS
 62
     2
100
AcDbCircle
 10
203.013176
 20
141.865674
 30
0.0
 40
22.5
100
AcDbArc
 50
114.340647
 51
125.659353
  0
POLYLINE
  5
37E
100
AcDbEntity
  8
LAY-1
  6
CONTINUOUS
 62
     2
100
AcDb2dPolyline
 66
     1
 10
0.0
 20
0.0
 30
0.0
 70
   128
  0
VERTEX
  5
37F
100
AcDbEntity
  8
LAY-1
  6
CONTINUOUS
 62
     2
100
AcDbVertex
100
AcDb2dVertex
 10
193.739557
 20
162.365674
 30
0.0
  0
VERTEX
  5
380
100
AcDbEntity
  8
LAY-1
  6
CONTINUOUS
 62
     2
100
AcDbVertex
100
AcDb2dVertex
 10
212.286794
 20
162.365674
 30
0.0
  0
SEQEND
  5
381
100
AcDbEntity
  8
LAY-1
  6
CONTINUOUS
 62
     2
  0
ARC
  5
382
100
AcDbEntity
  8
LAY-1
  6
CONTINUOUS
 62
     2
100
AcDbCircle
 10
203.013176
 20
141.865674
 30
0.0
 40
22.5
100
AcDbArc
 50
54.340647
 51
65.659353
  0
ARC
  5
383
100
AcDbEntity
  8
LAY-1
  6
CONTINUOUS
 62
     2
100
AcDbCircle
 10
203.013176
 20
141.865674
 30
0.0
 40
22.5
100
AcDbArc
 50
0.0
 51
5.659353
  0
POLYLINE
  5
384
100
AcDbEntity
  8
LAY-1
  6
CONTINUOUS
 62
     2
100
AcDb2dPolyline
 66
     1
 10
0.0
 20
0.0
 30
0.0
 70
   128
  0
VERTEX
  5
385
100
AcDbEntity
  8
LAY-1
  6
CONTINUOUS
 62
     2
100
AcDbVertex
100
AcDb2dVertex
 10
216.129887
 20
160.146863
 30
0.0
  0
VERTEX
  5
386
100
AcDbEntity
  8
LAY-1
  6
CONTINUOUS
 62
     2
100
AcDbVertex
100
AcDb2dVertex
 10
225.403506
 20
144.084485
 30
0.0
  0
SEQEND
  5
387
100
AcDbEntity
  8
LAY-1
  6
CONTINUOUS
 62
     2
  0
ARC
  5
388
100
AcDbEntity
  8
LAY-1
  6
CONTINUOUS
 62
     2
100
AcDbCircle
 10
203.013176
 20
141.865674
 30
0.0
 40
20.5
100
AcDbArc
 50
0.0
 51
180.0
  0
ARC
  5
389
100
AcDbEntity
  8
LAY-1
  6
CONTINUOUS
 62
     2
100
AcDbCircle
 10
203.013176
 20
141.865674
 30
0.0
 40
14.0
100
AcDbArc
 50
86.873224
 51
90.0
  0
ARC
  5
38A
100
AcDbEntity
  8
LAY-1
  6
CONTINUOUS
 62
     2
100
AcDbCircle
 10
203.763176
 20
155.595204
 30
0.0
 40
0.25
100
AcDbArc
 50
0.0
 51
86.873224
  0
LINE
  5
38B
100
AcDbEntity
  8
LAY-1
  6
CONTINUOUS
 62
     2
100
AcDbLine
 10
204.013176
 20
155.595204
 30
0.0
 11
204.013176
 21
155.558738
 31
0.0
  0
ARC
  5
38C
100
AcDbEntity
  8
LAY-1
  6
CONTINUOUS
 62
     2
100
AcDbCircle
 10
204.263176
 20
155.558738
 30
0.0
 40
0.25
100
AcDbArc
 50
180.0
 51
264.784091
  0
ARC
  5
38D
100
AcDbEntity
  8
LAY-1
  6
CONTINUOUS
 62
     2
100
AcDbCircle
 10
203.013176
 20
141.865674
 30
0.0
 40
13.5
100
AcDbArc
 50
65.215909
 51
84.784091
  0
ARC
  5
38E
100
AcDbEntity
  8
LAY-1
  6
CONTINUOUS
 62
     2
100
AcDbCircle
 10
208.777176
 20
154.349215
 30
0.0
 40
0.25
100
AcDbArc
 50
245.215909
 51
330.0
  0
LINE
  5
38F
100
AcDbEntity
  8
LAY-1
  6
CONTINUOUS
 62
     2
100
AcDbLine
 10
208.993682
 20
154.224215
 30
0.0
 11
209.011916
 21
154.255796
 31
0.0
  0
ARC
  5
390
100
AcDbEntity
  8
LAY-1
  6
CONTINUOUS
 62
     2
100
AcDbCircle
 10
209.228422
 20
154.130796
 30
0.0
 40
0.25
100
AcDbArc
 50
63.126776
 51
150.0
  0
ARC
  5
391
100
AcDbEntity
  8
LAY-1
  6
CONTINUOUS
 62
     2
100
AcDbCircle
 10
203.013176
 20
141.865674
 30
0.0
 40
14.0
100
AcDbArc
 50
56.873224
 51
63.126776
  0
ARC
  5
392
100
AcDbEntity
  8
LAY-1
  6
CONTINUOUS
 62
     2
100
AcDbCircle
 10
210.52746
 20
153.380796
 30
0.0
 40
0.25
100
AcDbArc
 50
330.0
 51
56.873224
  0
LINE
  5
393
100
AcDbEntity
  8
LAY-1
  6
CONTINUOUS
 62
     2
100
AcDbLine
 10
210.725733
 20
153.224215
 30
0.0
 11
210.743966
 21
153.255796
 31
0.0
  0
ARC
  5
394
100
AcDbEntity
  8
LAY-1
  6
CONTINUOUS
 62
     2
100
AcDbCircle
 10
210.94224
 20
153.099215
 30
0.0
 40
0.25
100
AcDbArc
 50
150.0
 51
234.784091
  0
ARC
  5
395
100
AcDbEntity
  8
LAY-1
  6
CONTINUOUS
 62
     2
100
AcDbCircle
 10
214.528298
 20
149.379958
 30
0.0
 40
0.25
100
AcDbArc
 50
33.126776
 51
120.0
  0
ARC
  5
396
100
AcDbEntity
  8
LAY-1
  6
CONTINUOUS
 62
     2
100
AcDbCircle
 10
203.013176
 20
141.865674
 30
0.0
 40
13.5
100
AcDbArc
 50
35.215909
 51
54.784091
  0
LINE
  5
397
100
AcDbEntity
  8
LAY-1
  6
CONTINUOUS
 62
     2
100
AcDbLine
 10
214.371717
 20
149.578231
 30
0.0
 11
214.403298
 21
149.596464
 31
0.0
  0
ARC
  5
398
100
AcDbEntity
  8
LAY-1
  6
CONTINUOUS
 62
     2
100
AcDbCircle
 10
214.246717
 20
149.794738
 30
0.0
 40
0.25
100
AcDbArc
 50
215.215909
 51
300.0
  0
ARC
  5
399
100
AcDbEntity
  8
LAY-1
  6
CONTINUOUS
 62
     2
100
AcDbCircle
 10
215.496717
 20
147.629674
 30
0.0
 40
0.25
100
AcDbArc
 50
120.0
 51
204.784091
  0
LINE
  5
39A
100
AcDbEntity
  8
LAY-1
  6
CONTINUOUS
 62
     2
100
AcDbLine
 10
215.371717
 20
147.84618
 30
0.0
 11
215.403298
 21
147.864414
 31
0.0
  0
ARC
  5
39B
100
AcDbEntity
  8
LAY-1
  6
CONTINUOUS
 62
     2
100
AcDbCircle
 10
203.013176
 20
141.865674
 30
0.0
 40
14.0
100
AcDbArc
 50
26.873224
 51
33.126776
  0
ARC
  5
39C
100
AcDbEntity
  8
LAY-1
  6
CONTINUOUS
 62
     2
100
AcDbCircle
 10
215.278298
 20
148.08092
 30
0.0
 40
0.25
100
AcDbArc
 50
300.0
 51
26.873224
  0
ARC
  5
39D
100
AcDbEntity
  8
LAY-1
  6
CONTINUOUS
 62
     2
100
AcDbCircle
 10
216.742706
 20
142.615674
 30
0.0
 40
0.25
100
AcDbArc
 50
3.126776
 51
90.0
  0
LINE
  5
39E
100
AcDbEntity
  8
LAY-1
  6
CONTINUOUS
 62
     2
100
AcDbLine
 10
216.70624
 20
142.865674
 30
0.0
 11
216.742706
 21
142.865674
 31
0.0
  0
ARC
  5
39F
100
AcDbEntity
  8
LAY-1
  6
CONTINUOUS
 62
     2
100
AcDbCircle
 10
203.013176
 20
141.865674
 30
0.0
 40
13.5
100
AcDbArc
 50
5.215909
 51
24.784091
  0
ARC
  5
3A0
100
AcDbEntity
  8
LAY-1
  6
CONTINUOUS
 62
     2
100
AcDbCircle
 10
216.70624
 20
143.115674
 30
0.0
 40
0.25
100
AcDbArc
 50
185.215909
 51
270.0
  0
ARC
  5
3A1
100
AcDbEntity
  8
LAY-1
  6
CONTINUOUS
 62
     2
100
AcDbCircle
 10
203.013176
 20
141.865674
 30
0.0
 40
14.0
100
AcDbArc
 50
0.0
 51
3.126776
  0
ARC
  5
3A2
100
AcDbEntity
  8
LAY-1
  6
CONTINUOUS
 62
     2
100
AcDbCircle
 10
203.013176
 20
141.865674
 30
0.0
 40
14.0
100
AcDbArc
 50
90.0
 51
93.126776
  0
ARC
  5
3A3
100
AcDbEntity
  8
LAY-1
  6
CONTINUOUS
 62
     2
100
AcDbCircle
 10
202.263176
 20
155.595204
 30
0.0
 40
0.25
100
AcDbArc
 50
93.126776
 51
180.0
  0
LINE
  5
3A4
100
AcDbEntity
  8
LAY-1
  6
CONTINUOUS
 62
     2
100
AcDbLine
 10
202.013176
 20
155.595204
 30
0.0
 11
202.013176
 21
155.558738
 31
0.0
  0
ARC
  5
3A5
100
AcDbEntity
  8
LAY-1
  6
CONTINUOUS
 62
     2
100
AcDbCircle
 10
201.763176
 20
155.558738
 30
0.0
 40
0.25
100
AcDbArc
 50
275.215909
 51
0.0
  0
ARC
  5
3A6
100
AcDbEntity
  8
LAY-1
  6
CONTINUOUS
 62
     2
100
AcDbCircle
 10
203.013176
 20
141.865674
 30
0.0
 40
13.5
100
AcDbArc
 50
95.215909
 51
114.784091
  0
ARC
  5
3A7
100
AcDbEntity
  8
LAY-1
  6
CONTINUOUS
 62
     2
100
AcDbCircle
 10
197.249176
 20
154.349215
 30
0.0
 40
0.25
100
AcDbArc
 50
210.0
 51
294.784091
  0
LINE
  5
3A8
100
AcDbEntity
  8
LAY-1
  6
CONTINUOUS
 62
     2
100
AcDbLine
 10
197.032669
 20
154.224215
 30
0.0
 11
197.014436
 21
154.255796
 31
0.0
  0
ARC
  5
3A9
100
AcDbEntity
  8
LAY-1
  6
CONTINUOUS
 62
     2
100
AcDbCircle
 10
196.79793
 20
154.130796
 30
0.0
 40
0.25
100
AcDbArc
 50
30.0
 51
116.873224
  0
ARC
  5
3AA
100
AcDbEntity
  8
LAY-1
  6
CONTINUOUS
 62
     2
100
AcDbCircle
 10
203.013176
 20
141.865674
 30
0.0
 40
14.0
100
AcDbArc
 50
116.873224
 51
123.126776
  0
ARC
  5
3AB
100
AcDbEntity
  8
LAY-1
  6
CONTINUOUS
 62
     2
100
AcDbCircle
 10
195.498892
 20
153.380796
 30
0.0
 40
0.25
100
AcDbArc
 50
123.126776
 51
210.0
  0
LINE
  5
3AC
100
AcDbEntity
  8
LAY-1
  6
CONTINUOUS
 62
     2
100
AcDbLine
 10
195.300619
 20
153.224215
 30
0.0
 11
195.282385
 21
153.255796
 31
0.0
  0
ARC
  5
3AD
100
AcDbEntity
  8
LAY-1
  6
CONTINUOUS
 62
     2
100
AcDbCircle
 10
195.084112
 20
153.099215
 30
0.0
 40
0.25
100
AcDbArc
 50
305.215909
 51
30.0
  0
ARC
  5
3AE
100
AcDbEntity
  8
LAY-1
  6
CONTINUOUS
 62
     2
100
AcDbCircle
 10
191.498054
 20
149.379958
 30
0.0
 40
0.25
100
AcDbArc
 50
60.0
 51
146.873224
  0
ARC
  5
3AF
100
AcDbEntity
  8
LAY-1
  6
CONTINUOUS
 62
     2
100
AcDbCircle
 10
203.013176
 20
141.865674
 30
0.0
 40
13.5
100
AcDbArc
 50
125.215909
 51
144.784091
  0
LINE
  5
3B0
100
AcDbEntity
  8
LAY-1
  6
CONTINUOUS
 62
     2
100
AcDbLine
 10
191.654635
 20
149.578231
 30
0.0
 11
191.623054
 21
149.596464
 31
0.0
  0
ARC
  5
3B1
100
AcDbEntity
  8
LAY-1
  6
CONTINUOUS
 62
     2
100
AcDbCircle
 10
191.779635
 20
149.794738
 30
0.0
 40
0.25
100
AcDbArc
 50
240.0
 51
324.784091
  0
ARC
  5
3B2
100
AcDbEntity
  8
LAY-1
  6
CONTINUOUS
 62
     2
100
AcDbCircle
 10
190.529635
 20
147.629674
 30
0.0
 40
0.25
100
AcDbArc
 50
335.215909
 51
60.0
  0
LINE
  5
3B3
100
AcDbEntity
  8
LAY-1
  6
CONTINUOUS
 62
     2
100
AcDbLine
 10
190.654635
 20
147.84618
 30
0.0
 11
190.623054
 21
147.864414
 31
0.0
  0
ARC
  5
3B4
100
AcDbEntity
  8
LAY-1
  6
CONTINUOUS
 62
     2
100
AcDbCircle
 10
203.013176
 20
141.865674
 30
0.0
 40
14.0
100
AcDbArc
 50
146.873224
 51
153.126776
  0
ARC
  5
3B5
100
AcDbEntity
  8
LAY-1
  6
CONTINUOUS
 62
     2
100
AcDbCircle
 10
190.748054
 20
148.08092
 30
0.0
 40
0.25
100
AcDbArc
 50
153.126776
 51
240.0
  0
ARC
  5
3B6
100
AcDbEntity
  8
LAY-1
  6
CONTINUOUS
 62
     2
100
AcDbCircle
 10
189.283646
 20
142.615674
 30
0.0
 40
0.25
100
AcDbArc
 50
90.0
 51
176.873224
  0
LINE
  5
3B7
100
AcDbEntity
  8
LAY-1
  6
CONTINUOUS
 62
     2
100
AcDbLine
 10
189.320112
 20
142.865674
 30
0.0
 11
189.283646
 21
142.865674
 31
0.0
  0
ARC
  5
3B8
100
AcDbEntity
  8
LAY-1
  6
CONTINUOUS
 62
     2
100
AcDbCircle
 10
203.013176
 20
141.865674
 30
0.0
 40
13.5
100
AcDbArc
 50
155.215909
 51
174.784091
  0
ARC
  5
3B9
100
AcDbEntity
  8
LAY-1
  6
CONTINUOUS
 62
     2
100
AcDbCircle
 10
189.320112
 20
143.115674
 30
0.0
 40
0.25
100
AcDbArc
 50
270.0
 51
354.784091
  0
ARC
  5
3BA
100
AcDbEntity
  8
LAY-1
  6
CONTINUOUS
 62
     2
100
AcDbCircle
 10
203.013176
 20
141.865674
 30
0.0
 40
14.0
100
AcDbArc
 50
176.873224
 51
180.0
  0
CIRCLE
  5
3BB
100
AcDbEntity
  8
LAY-1
  6
CONTINUOUS
 62
     2
100
AcDbCircle
 10
203.013176
 20
141.865674
 30
0.0
 40
7.5
  0
CIRCLE
  5
3BC
100
AcDbEntity
  8
LAY-1
  6
CONTINUOUS
 62
     2
100
AcDbCircle
 10
203.013176
 20
141.865674
 30
0.0
 40
6.5
  0
LINE
  5
3BD
100
AcDbEntity
  8
LAY-1
  6
CONTINUOUS
 62
     2
100
AcDbLine
 10
205.650923
 20
140.224221
 30
0.0
 11
205.612301
 21
140.665674
 31
0.0
  0
LINE
  5
3BE
100
AcDbEntity
  8
LAY-1
  6
CONTINUOUS
 62
     2
100
AcDbLine
 10
206.194075
 20
141.865674
 30
0.0
 11
206.800887
 21
142.216017
 31
0.0
  0
LINE
  5
3BF
100
AcDbEntity
  8
LAY-1
  6
CONTINUOUS
 62
     2
100
AcDbLine
 10
205.650923
 20
140.224221
 30
0.0
 11
206.800887
 21
142.216017
 31
0.0
  0
LINE
  5
3C0
100
AcDbEntity
  8
LAY-1
  6
CONTINUOUS
 62
     2
100
AcDbLine
 10
200.375429
 20
140.224221
 30
0.0
 11
200.414051
 21
140.665674
 31
0.0
  0
LINE
  5
3C1
100
AcDbEntity
  8
LAY-1
  6
CONTINUOUS
 62
     2
100
AcDbLine
 10
199.832277
 20
141.865674
 30
0.0
 11
199.225465
 21
142.216017
 31
0.0
  0
LINE
  5
3C2
100
AcDbEntity
  8
LAY-1
  6
CONTINUOUS
 62
     2
100
AcDbLine
 10
200.375429
 20
140.224221
 30
0.0
 11
199.225465
 21
142.216017
 31
0.0
  0
LINE
  5
3C3
100
AcDbEntity
  8
LAY-1
  6
CONTINUOUS
 62
     2
100
AcDbLine
 10
200.414051
 20
140.665674
 30
0.0
 11
203.013176
 21
140.665674
 31
0.0
  0
LINE
  5
3C4
100
AcDbEntity
  8
LAY-1
  6
CONTINUOUS
 62
     2
100
AcDbLine
 10
203.013176
 20
147.617292
 30
0.0
 11
203.613176
 21
147.835674
 31
0.0
  0
LINE
  5
3C5
100
AcDbEntity
  8
LAY-1
  6
CONTINUOUS
 62
     2
100
AcDbLine
 10
201.213176
 20
147.835674
 30
0.0
 11
201.813176
 21
147.617292
 31
0.0
  0
LINE
  5
3C6
100
AcDbEntity
  8
LAY-1
  6
CONTINUOUS
 62
     2
100
AcDbLine
 10
203.613176
 20
147.835674
 30
0.0
 11
201.213176
 21
147.835674
 31
0.0
  0
ARC
  5
3C7
100
AcDbEntity
  8
LAY-1
  6
CONTINUOUS
 62
     2
100
AcDbCircle
 10
204.213176
 20
141.865674
 30
0.0
 40
5.0
100
AcDbArc
 50
118.685402
 51
256.11346
  0
ARC
  5
3C8
100
AcDbEntity
  8
LAY-1
  6
CONTINUOUS
 62
     2
100
AcDbCircle
 10
203.013176
 20
141.865674
 30
0.0
 40
5.0
100
AcDbArc
 50
103.88654
 51
270.0
  0
LINE
  5
3C9
100
AcDbEntity
  8
LAY-1
  6
CONTINUOUS
 62
     2
100
AcDbLine
 10
203.013176
 20
146.865674
 30
0.0
 11
203.013176
 21
147.617292
 31
0.0
  0
LINE
  5
3CA
100
AcDbEntity
  8
LAY-1
  6
CONTINUOUS
 62
     2
100
AcDbLine
 10
201.813176
 20
141.865674
 30
0.0
 11
201.813176
 21
146.252016
 31
0.0
  0
LINE
  5
3CB
100
AcDbEntity
  8
LAY-1
  6
CONTINUOUS
 62
     2
100
AcDbLine
 10
201.813176
 20
146.719538
 30
0.0
 11
201.813176
 21
147.617292
 31
0.0
  0
LINE
  5
3CC
100
AcDbEntity
  8
LAY-1
  6
CONTINUOUS
 62
     2
100
AcDbLine
 10
201.813176
 20
141.865674
 30
0.0
 11
199.832277
 21
141.865674
 31
0.0
  0
LINE
  5
3CD
100
AcDbEntity
  8
LAY-1
  6
CONTINUOUS
 62
     2
100
AcDbLine
 10
203.013176
 20
141.865674
 30
0.0
 11
203.013176
 21
146.719538
 31
0.0
  0
LINE
  5
3CE
100
AcDbEntity
  8
LAY-1
  6
CONTINUOUS
 62
     2
100
AcDbLine
 10
204.813176
 20
142.763427
 30
0.0
 11
205.413176
 21
142.981809
 31
0.0
  0
LINE
  5
3CF
100
AcDbEntity
  8
LAY-1
  6
CONTINUOUS
 62
     2
100
AcDbLine
 10
203.013176
 20
142.981809
 30
0.0
 11
203.613176
 21
142.763427
 31
0.0
  0
LINE
  5
3D0
100
AcDbEntity
  8
LAY-1
  6
CONTINUOUS
 62
     2
100
AcDbLine
 10
205.413176
 20
142.981809
 30
0.0
 11
203.013176
 21
142.981809
 31
0.0
  0
LINE
  5
3D1
100
AcDbEntity
  8
LAY-1
  6
CONTINUOUS
 62
     2
100
AcDbLine
 10
206.194075
 20
141.865674
 30
0.0
 11
204.813176
 21
141.865674
 31
0.0
  0
LINE
  5
3D2
100
AcDbEntity
  8
LAY-1
  6
CONTINUOUS
 62
     2
100
AcDbLine
 10
203.613176
 20
141.865674
 30
0.0
 11
203.013176
 21
141.865674
 31
0.0
  0
LINE
  5
3D3
100
AcDbEntity
  8
LAY-1
  6
CONTINUOUS
 62
     2
100
AcDbLine
 10
204.813176
 20
141.865674
 30
0.0
 11
204.813176
 21
142.763427
 31
0.0
  0
LINE
  5
3D4
100
AcDbEntity
  8
LAY-1
  6
CONTINUOUS
 62
     2
100
AcDbLine
 10
203.613176
 20
141.865674
 30
0.0
 11
203.613176
 21
142.763427
 31
0.0
  0
LINE
  5
3D5
100
AcDbEntity
  8
LAY-1
  6
CONTINUOUS
 62
     2
100
AcDbLine
 10
205.612301
 20
140.665674
 30
0.0
 11
204.813176
 21
140.665674
 31
0.0
  0
LINE
  5
3D6
100
AcDbEntity
  8
LAY-1
  6
CONTINUOUS
 62
     2
100
AcDbLine
 10
203.613176
 20
140.665674
 30
0.0
 11
203.013176
 21
140.665674
 31
0.0
  0
ARC
  5
3D7
100
AcDbEntity
  8
LAY-1
  6
CONTINUOUS
 62
     2
100
AcDbCircle
 10
201.813176
 20
141.865674
 30
0.0
 40
5.0
100
AcDbArc
 50
283.88654
 51
291.100196
  0
ARC
  5
3D8
100
AcDbEntity
  8
LAY-1
  6
CONTINUOUS
 62
     2
100
AcDbCircle
 10
201.813176
 20
141.865674
 30
0.0
 40
5.0
100
AcDbArc
 50
306.869898
 51
76.11346
  0
ARC
  5
3D9
100
AcDbEntity
  8
LAY-1
  6
CONTINUOUS
 62
     2
100
AcDbCircle
 10
203.013176
 20
141.865674
 30
0.0
 40
5.0
100
AcDbArc
 50
270.0
 51
276.892103
  0
ARC
  5
3DA
100
AcDbEntity
  8
LAY-1
  6
CONTINUOUS
 62
     2
100
AcDbCircle
 10
203.013176
 20
141.865674
 30
0.0
 40
5.0
100
AcDbArc
 50
291.100196
 51
90.0
  0
LINE
  5
3DB
100
AcDbEntity
  8
LAY-1
  6
CONTINUOUS
 62
     2
100
AcDbLine
 10
203.613176
 20
137.200912
 30
0.0
 11
203.613176
 21
140.665674
 31
0.0
  0
LINE
  5
3DC
100
AcDbEntity
  8
LAY-1
  6
CONTINUOUS
 62
     2
100
AcDbLine
 10
204.813176
 20
136.519509
 30
0.0
 11
204.813176
 21
137.200912
 31
0.0
  0
LINE
  5
3DD
100
AcDbEntity
  8
LAY-1
  6
CONTINUOUS
 62
     2
100
AcDbLine
 10
204.813176
 20
137.865674
 30
0.0
 11
204.813176
 21
140.665674
 31
0.0
  0
LINE
  5
3DE
100
AcDbEntity
  8
LAY-1
  6
CONTINUOUS
 62
     2
100
AcDbLine
 10
205.291706
 20
135.778121
 30
0.0
 11
203.613176
 21
136.747221
 31
0.0
  0
LINE
  5
3DF
100
AcDbEntity
  8
LAY-1
  6
CONTINUOUS
 62
     2
100
AcDbLine
 10
205.291706
 20
135.778121
 30
0.0
 11
204.813176
 21
136.519509
 31
0.0
  0
LINE
  5
3E0
100
AcDbEntity
  8
LAY-1
  6
CONTINUOUS
 62
     2
100
AcDbLine
 10
203.613176
 20
136.747221
 30
0.0
 11
203.613176
 21
136.901804
 31
0.0
  0
LINE
  5
3E1
100
AcDbEntity
  8
LAY-1
  6
EXLTYPE3
 62
     1
100
AcDbLine
 10
153.013176
 20
-71.634326
 30
0.0
 11
153.013176
 21
-97.44367
 31
0.0
  0
LINE
  5
3E2
100
AcDbEntity
  8
LAY-1
  6
EXLTYPE3
 62
     1
100
AcDbLine
 10
203.013176
 20
-94.634326
 30
0.0
 11
173.513176
 21
-94.634326
 31
0.0
  0
ARC
  5
3E3
100
AcDbEntity
  8
LAY-1
  6
CONTINUOUS
 62
     1
100
AcDbCircle
 10
203.013176
 20
-94.634326
 30
0.0
 40
13.219548
100
AcDbArc
 50
90.0
 51
270.0
  0
LINE
  5
3E4
100
AcDbEntity
  8
LAY-1
  6
EXLTYPE3
 62
     1
100
AcDbLine
 10
203.013176
 20
29.665674
 30
0.0
 11
203.013176
 21
-134.934326
 31
0.0
  0
LINE
  5
3E5
100
AcDbEntity
  8
LAY-1
  6
EXLTYPE3
 62
     1
100
AcDbLine
 10
203.013176
 20
-94.634326
 30
0.0
 11
232.513176
 21
-94.634326
 31
0.0
  0
ARC
  5
3E6
100
AcDbEntity
  8
LAY-1
  6
CONTINUOUS
 62
     1
100
AcDbCircle
 10
203.013176
 20
-94.634326
 30
0.0
 40
13.219548
100
AcDbArc
 50
270.0
 51
90.0
  0
LINE
  5
3E7
100
AcDbEntity
  8
LAY-1
  6
CONTINUOUS
 62
     2
100
AcDbLine
 10
136.013176
 20
-67.634326
 30
0.0
 11
203.013176
 21
-67.634326
 31
0.0
  0
LINE
  5
3E8
100
AcDbEntity
  8
LAY-1
  6
CONTINUOUS
 62
     2
100
AcDbLine
 10
151.566337
 20
-35.220113
 30
0.0
 11
153.394764
 21
-37.04854
 31
0.0
  0
ARC
  5
3E9
100
AcDbEntity
  8
LAY-1
  6
CONTINUOUS
 62
     2
100
AcDbCircle
 10
150.152124
 20
-36.634326
 30
0.0
 40
2.0
100
AcDbArc
 50
45.0
 51
90.0
  0
ARC
  5
3EA
100
AcDbEntity
  8
LAY-1
  6
CONTINUOUS
 62
     2
100
AcDbCircle
 10
154.808978
 20
-35.634326
 30
0.0
 40
2.0
100
AcDbArc
 50
225.0
 51
270.0
  0
LINE
  5
3EB
100
AcDbEntity
  8
LAY-1
  6
CONTINUOUS
 62
     2
100
AcDbLine
 10
135.013176
 20
-34.634326
 30
0.0
 11
150.152124
 21
-34.634326
 31
0.0
  0
ARC
  5
3EC
100
AcDbEntity
  8
LAY-1
  6
CONTINUOUS
 62
     2
100
AcDbCircle
 10
135.013176
 20
-35.634326
 30
0.0
 40
1.0
100
AcDbArc
 50
90.0
 51
180.0
  0
ARC
  5
3ED
100
AcDbEntity
  8
LAY-1
  6
CONTINUOUS
 62
     2
100
AcDbCircle
 10
187.163359
 20
-54.634326
 30
0.0
 40
1.0
100
AcDbArc
 50
270.0
 51
358.0
  0
LINE
  5
3EE
100
AcDbEntity
  8
LAY-1
  6
CONTINUOUS
 62
     2
100
AcDbLine
 10
189.478865
 20
-44.634326
 30
0.0
 11
203.013176
 21
-44.634326
 31
0.0
  0
LINE
  5
3EF
100
AcDbEntity
  8
LAY-1
  6
CONTINUOUS
 62
     2
100
AcDbLine
 10
188.479474
 20
-45.599427
 30
0.0
 11
188.162749
 21
-54.669226
 31
0.0
  0
ARC
  5
3F0
100
AcDbEntity
  8
LAY-1
  6
CONTINUOUS
 62
     2
100
AcDbCircle
 10
189.478865
 20
-45.634326
 30
0.0
 40
1.0
100
AcDbArc
 50
90.0
 51
178.0
  0
LINE
  5
3F1
100
AcDbEntity
  8
LAY-1
  6
CONTINUOUS
 62
     2
100
AcDbLine
 10
182.980551
 20
8.365674
 30
0.0
 11
182.980551
 21
9.365674
 31
0.0
  0
LINE
  5
3F2
100
AcDbEntity
  8
LAY-1
  6
CONTINUOUS
 62
     2
100
AcDbLine
 10
134.513176
 20
-55.634326
 30
0.0
 11
203.013176
 21
-55.634326
 31
0.0
  0
ARC
  5
3F3
100
AcDbEntity
  8
LAY-1
  6
CONTINUOUS
 62
     2
100
AcDbCircle
 10
134.513176
 20
-56.134326
 30
0.0
 40
0.5
100
AcDbArc
 50
90.0
 51
180.0
  0
LINE
  5
3F4
100
AcDbEntity
  8
LAY-1
  6
CONTINUOUS
 62
     2
100
AcDbLine
 10
183.271436
 20
-53.49713
 30
0.0
 11
183.271436
 21
-55.634326
 31
0.0
  0
LINE
  5
3F5
100
AcDbEntity
  8
LAY-1
  6
CONTINUOUS
 62
     2
100
AcDbLine
 10
173.771436
 20
-53.49713
 30
0.0
 11
173.771436
 21
-55.634326
 31
0.0
  0
ARC
  5
3F6
100
AcDbEntity
  8
LAY-1
  6
CONTINUOUS
 62
     2
100
AcDbCircle
 10
178.521436
 20
-59.934326
 30
0.0
 40
8.0
100
AcDbArc
 50
53.576426
 51
126.423574
  0
ARC
  5
3F7
100
AcDbEntity
  8
LAY-1
  6
CONTINUOUS
 62
     2
100
AcDbCircle
 10
143.884886
 20
-59.934326
 30
0.0
 40
8.0
100
AcDbArc
 50
53.576426
 51
126.423574
  0
LINE
  5
3F8
100
AcDbEntity
  8
LAY-1
  6
CONTINUOUS
 62
     2
100
AcDbLine
 10
139.134886
 20
-53.49713
 30
0.0
 11
139.134886
 21
-55.634326
 31
0.0
  0
LINE
  5
3F9
100
AcDbEntity
  8
LAY-1
  6
CONTINUOUS
 62
     2
100
AcDbLine
 10
148.634886
 20
-53.49713
 30
0.0
 11
148.634886
 21
-55.634326
 31
0.0
  0
LINE
  5
3FA
100
AcDbEntity
  8
LAY-1
  6
CONTINUOUS
 62
     2
100
AcDbLine
 10
195.350225
 20
-115.134326
 30
0.0
 11
203.013176
 21
-115.134326
 31
0.0
  0
ARC
  5
3FB
100
AcDbEntity
  8
LAY-1
  6
CONTINUOUS
 62
     2
100
AcDbCircle
 10
195.350225
 20
-113.134326
 30
0.0
 40
2.0
100
AcDbArc
 50
225.0
 51
270.0
  0
LINE
  5
3FC
100
AcDbEntity
  8
LAY-1
  6
CONTINUOUS
 62
     2
100
AcDbLine
 10
183.305724
 20
-103.918252
 30
0.0
 11
193.936011
 21
-114.54854
 31
0.0
  0
ARC
  5
3FD
100
AcDbEntity
  8
LAY-1
  6
CONTINUOUS
 62
     2
100
AcDbCircle
 10
184.719937
 20
-102.504038
 30
0.0
 40
2.0
100
AcDbArc
 50
181.5
 51
225.0
  0
LINE
  5
3FE
100
AcDbEntity
  8
LAY-1
  6
CONTINUOUS
 62
     2
100
AcDbLine
 10
134.013176
 20
-61.634326
 30
0.0
 11
203.013176
 21
-61.634326
 31
0.0
  0
ARC
  5
3FF
100
AcDbEntity
  8
LAY-1
  6
CONTINUOUS
 62
     2
100
AcDbCircle
 10
136.013176
 20
-65.634326
 30
0.0
 40
2.0
100
AcDbArc
 50
180.0
 51
270.0
  0
LINE
  5
400
100
AcDbEntity
  8
LAY-1
  6
CONTINUOUS
 62
     2
100
AcDbLine
 10
181.933658
 20
-72.503441
 30
0.0
 11
182.720623
 21
-102.556392
 31
0.0
  0
ARC
  5
401
100
AcDbEntity
  8
LAY-1
  6
CONTINUOUS
 62
     2
100
AcDbCircle
 10
176.935372
 20
-72.634326
 30
0.0
 40
5.0
100
AcDbArc
 50
1.5
 51
90.0
  0
ARC
  5
402
100
AcDbEntity
  8
LAY-1
  6
CONTINUOUS
 62
     2
100
AcDbCircle
 10
142.15196
 20
-70.634326
 30
0.0
 40
3.0
100
AcDbArc
 50
60.0
 51
90.0
  0
LINE
  5
403
100
AcDbEntity
  8
LAY-1
  6
CONTINUOUS
 62
     2
100
AcDbLine
 10
143.65196
 20
-68.03625
 30
0.0
 11
163.333327
 21
-79.399292
 31
0.0
  0
ARC
  5
404
100
AcDbEntity
  8
LAY-1
  6
CONTINUOUS
 62
     2
100
AcDbCircle
 10
160.833327
 20
-83.729419
 30
0.0
 40
5.0
100
AcDbArc
 50
1.0
 51
60.0
  0
ARC
  5
405
100
AcDbEntity
  8
LAY-1
  6
CONTINUOUS
 62
     2
100
AcDbCircle
 10
166.419909
 20
-69.634326
 30
0.0
 40
10.0
100
AcDbArc
 50
240.0
 51
270.0
  0
LINE
  5
406
100
AcDbEntity
  8
LAY-1
  6
CONTINUOUS
 62
     2
100
AcDbLine
 10
166.419909
 20
-79.634326
 30
0.0
 11
182.120387
 21
-79.634326
 31
0.0
  0
LINE
  5
407
100
AcDbEntity
  8
LAY-1
  6
CONTINUOUS
 62
     2
100
AcDbLine
 10
166.513176
 20
-122.634326
 30
0.0
 11
165.832565
 21
-83.642157
 31
0.0
  0
LINE
  5
408
100
AcDbEntity
  8
LAY-1
  6
CONTINUOUS
 62
     2
100
AcDbLine
 10
134.013176
 20
-65.634326
 30
0.0
 11
134.013176
 21
-35.634326
 31
0.0
  0
ARC
  5
409
100
AcDbEntity
  8
LAY-1
  6
CONTINUOUS
 62
     2
100
AcDbCircle
 10
203.013176
 20
-94.634326
 30
0.0
 40
12.020063
100
AcDbArc
 50
90.0
 51
270.0
  0
LINE
  5
40A
100
AcDbEntity
  8
LAY-1
  6
CONTINUOUS
 62
     2
100
AcDbLine
 10
194.432726
 20
-127.634326
 30
0.0
 11
203.013176
 21
-127.634326
 31
0.0
  0
ARC
  5
40B
100
AcDbEntity
  8
LAY-1
  6
CONTINUOUS
 62
     2
100
AcDbCircle
 10
194.432726
 20
-125.134326
 30
0.0
 40
2.5
100
AcDbArc
 50
190.0
 51
270.0
  0
ARC
  5
40C
100
AcDbEntity
  8
LAY-1
  6
CONTINUOUS
 62
     2
100
AcDbCircle
 10
191.386446
 20
-125.134326
 30
0.0
 40
0.5
100
AcDbArc
 50
10.0
 51
90.0
  0
LINE
  5
40D
100
AcDbEntity
  8
LAY-1
  6
CONTINUOUS
 62
     2
100
AcDbLine
 10
191.87885
 20
-125.047502
 30
0.0
 11
191.970706
 21
-125.568447
 31
0.0
  0
LINE
  5
40E
100
AcDbEntity
  8
LAY-1
  6
CONTINUOUS
 62
     2
100
AcDbLine
 10
166.513176
 20
-122.634326
 30
0.0
 11
203.013176
 21
-122.634326
 31
0.0
  0
LINE
  5
40F
100
AcDbEntity
  8
LAY-1
  6
CONTINUOUS
 62
     2
100
AcDbLine
 10
203.013176
 20
-124.634326
 30
0.0
 11
166.513176
 21
-124.634326
 31
0.0
  0
LINE
  5
410
100
AcDbEntity
  8
LAY-1
  6
CONTINUOUS
 62
     2
100
AcDbLine
 10
185.489312
 20
-125.963491
 30
0.0
 11
185.489312
 21
-124.634326
 31
0.0
  0
ARC
  5
411
100
AcDbEntity
  8
LAY-1
  6
CONTINUOUS
 62
     2
100
AcDbCircle
 10
180.739312
 20
-120.334326
 30
0.0
 40
8.0
100
AcDbArc
 50
270.0
 51
300.0
  0
ARC
  5
412
100
AcDbEntity
  8
LAY-1
  6
CONTINUOUS
 62
     2
100
AcDbCircle
 10
183.989312
 20
-125.963491
 30
0.0
 40
1.5
100
AcDbArc
 50
300.0
 51
0.0
  0
LINE
  5
413
100
AcDbEntity
  8
LAY-1
  6
CONTINUOUS
 62
     2
100
AcDbLine
 10
175.989312
 20
-125.963491
 30
0.0
 11
175.989312
 21
-124.634326
 31
0.0
  0
ARC
  5
414
100
AcDbEntity
  8
LAY-1
  6
CONTINUOUS
 62
     2
100
AcDbCircle
 10
180.739312
 20
-120.334326
 30
0.0
 40
8.0
100
AcDbArc
 50
240.0
 51
270.0
  0
ARC
  5
415
100
AcDbEntity
  8
LAY-1
  6
CONTINUOUS
 62
     2
100
AcDbCircle
 10
177.489312
 20
-125.963491
 30
0.0
 40
1.5
100
AcDbArc
 50
180.0
 51
240.0
  0
LINE
  5
416
100
AcDbEntity
  8
LAY-1
  6
CONTINUOUS
 62
     2
100
AcDbLine
 10
166.513176
 20
-124.634326
 30
0.0
 11
166.513176
 21
-122.634326
 31
0.0
  0
ARC
  5
417
100
AcDbEntity
  8
LAY-1
  6
CONTINUOUS
 62
     2
100
AcDbCircle
 10
144.944553
 20
-92.634326
 30
0.0
 40
2.0
100
AcDbArc
 50
182.0
 51
270.0
  0
LINE
  5
418
100
AcDbEntity
  8
LAY-1
  6
CONTINUOUS
 62
     2
100
AcDbLine
 10
142.137719
 20
-69.564527
 30
0.0
 11
142.945772
 21
-92.704125
 31
0.0
  0
ARC
  5
419
100
AcDbEntity
  8
LAY-1
  6
CONTINUOUS
 62
     2
100
AcDbCircle
 10
140.138938
 20
-69.634326
 30
0.0
 40
2.0
100
AcDbArc
 50
2.0
 51
90.0
  0
LINE
  5
41A
100
AcDbEntity
  8
LAY-1
  6
CONTINUOUS
 62
     2
100
AcDbLine
 10
144.944553
 20
-94.634326
 30
0.0
 11
161.081798
 21
-94.634326
 31
0.0
  0
ARC
  5
41B
100
AcDbEntity
  8
LAY-1
  6
CONTINUOUS
 62
     2
100
AcDbCircle
 10
164.244076
 20
-94.134326
 30
0.0
 40
1.5
100
AcDbArc
 50
90.0
 51
154.623066
  0
ARC
  5
41C
100
AcDbEntity
  8
LAY-1
  6
CONTINUOUS
 62
     2
100
AcDbCircle
 10
164.453968
 20
-82.029139
 30
0.0
 40
1.0
100
AcDbArc
 50
25.155102
 51
178.0
  0
LINE
  5
41D
100
AcDbEntity
  8
LAY-1
  6
CONTINUOUS
 62
     2
100
AcDbLine
 10
163.08058
 20
-92.704125
 30
0.0
 11
163.454577
 21
-81.994239
 31
0.0
  0
ARC
  5
41E
100
AcDbEntity
  8
LAY-1
  6
CONTINUOUS
 62
     2
100
AcDbCircle
 10
161.081798
 20
-92.634326
 30
0.0
 40
2.0
100
AcDbArc
 50
270.0
 51
358.0
  0
LINE
  5
41F
100
AcDbEntity
  8
LAY-1
  6
CONTINUOUS
 62
     2
100
AcDbLine
 10
164.244076
 20
-92.634326
 30
0.0
 11
164.515478
 21
-92.634326
 31
0.0
  0
ARC
  5
420
100
AcDbEntity
  8
LAY-1
  6
CONTINUOUS
 62
     2
100
AcDbCircle
 10
164.515478
 20
-94.134326
 30
0.0
 40
1.5
100
AcDbArc
 50
1.0
 51
90.0
  0
ARC
  5
421
100
AcDbEntity
  8
LAY-1
  6
CONTINUOUS
 62
     2
100
AcDbCircle
 10
157.850108
 20
-58.491052
 30
0.0
 40
12.0
100
AcDbArc
 50
98.528444
 51
151.226927
  0
LINE
  5
422
100
AcDbEntity
  8
LAY-1
  6
CONTINUOUS
 62
     2
100
AcDbLine
 10
168.199016
 20
-44.804969
 30
0.0
 11
156.070504
 21
-46.623744
 31
0.0
  0
ARC
  5
423
100
AcDbEntity
  8
LAY-1
  6
CONTINUOUS
 62
     2
100
AcDbCircle
 10
165.826209
 20
-28.981891
 30
0.0
 40
16.0
100
AcDbArc
 50
278.528444
 51
359.0
  0
ARC
  5
424
100
AcDbEntity
  8
LAY-1
  6
CONTINUOUS
 62
     2
100
AcDbCircle
 10
176.887622
 20
-33.634326
 30
0.0
 40
4.0
100
AcDbArc
 50
270.0
 51
337.188358
  0
LINE
  5
425
100
AcDbEntity
  8
LAY-1
  6
CONTINUOUS
 62
     2
100
AcDbLine
 10
182.480551
 20
8.365674
 30
0.0
 11
181.823772
 21
-29.26113
 31
0.0
  0
LINE
  5
426
100
AcDbEntity
  8
LAY-1
  6
CONTINUOUS
 62
     2
100
AcDbLine
 10
182.480551
 20
8.365674
 30
0.0
 11
203.013176
 21
8.365674
 31
0.0
  0
LINE
  5
427
100
AcDbEntity
  8
LAY-1
  6
CONTINUOUS
 62
     2
100
AcDbLine
 10
154.808978
 20
-37.634326
 30
0.0
 11
176.887622
 21
-37.634326
 31
0.0
  0
LINE
  5
428
100
AcDbEntity
  8
LAY-1
  6
CONTINUOUS
 62
     2
100
AcDbLine
 10
153.980551
 20
-38.368831
 30
0.0
 11
153.980551
 21
-47.132068
 31
0.0
  0
LINE
  5
429
100
AcDbEntity
  8
LAY-1
  6
CONTINUOUS
 62
     2
100
AcDbLine
 10
150.980551
 20
-35.289988
 30
0.0
 11
150.980551
 21
-48.651886
 31
0.0
  0
LINE
  5
42A
100
AcDbEntity
  8
LAY-1
  6
CONTINUOUS
 62
     2
100
AcDbLine
 10
270.013176
 20
-67.634326
 30
0.0
 11
203.013176
 21
-67.634326
 31
0.0
  0
ARC
  5
42B
100
AcDbEntity
  8
LAY-1
  6
CONTINUOUS
 62
     2
100
AcDbCircle
 10
218.862993
 20
-54.634326
 30
0.0
 40
1.0
100
AcDbArc
 50
182.0
 51
270.0
  0
LINE
  5
42C
100
AcDbEntity
  8
LAY-1
  6
CONTINUOUS
 62
     2
100
AcDbLine
 10
216.547487
 20
-44.634326
 30
0.0
 11
203.013176
 21
-44.634326
 31
0.0
  0
LINE
  5
42D
100
AcDbEntity
  8
LAY-1
  6
CONTINUOUS
 62
     2
100
AcDbLine
 10
217.546878
 20
-45.599427
 30
0.0
 11
217.863602
 21
-54.669226
 31
0.0
  0
ARC
  5
42E
100
AcDbEntity
  8
LAY-1
  6
CONTINUOUS
 62
     2
100
AcDbCircle
 10
216.547487
 20
-45.634326
 30
0.0
 40
1.0
100
AcDbArc
 50
2.0
 51
90.0
  0
LINE
  5
42F
100
AcDbEntity
  8
LAY-1
  6
CONTINUOUS
 62
     2
100
AcDbLine
 10
223.045801
 20
8.365674
 30
0.0
 11
223.045801
 21
9.365674
 31
0.0
  0
LINE
  5
430
100
AcDbEntity
  8
LAY-1
  6
CONTINUOUS
 62
     2
100
AcDbLine
 10
271.513176
 20
-55.634326
 30
0.0
 11
203.013176
 21
-55.634326
 31
0.0
  0
ARC
  5
431
100
AcDbEntity
  8
LAY-1
  6
CONTINUOUS
 62
     2
100
AcDbCircle
 10
271.513176
 20
-56.134326
 30
0.0
 40
0.5
100
AcDbArc
 50
0.0
 51
90.0
  0
LINE
  5
432
100
AcDbEntity
  8
LAY-1
  6
CONTINUOUS
 62
     2
100
AcDbLine
 10
222.754916
 20
-53.49713
 30
0.0
 11
222.754916
 21
-55.634326
 31
0.0
  0
LINE
  5
433
100
AcDbEntity
  8
LAY-1
  6
CONTINUOUS
 62
     2
100
AcDbLine
 10
232.254916
 20
-53.49713
 30
0.0
 11
232.254916
 21
-55.634326
 31
0.0
  0
ARC
  5
434
100
AcDbEntity
  8
LAY-1
  6
CONTINUOUS
 62
     2
100
AcDbCircle
 10
227.504916
 20
-59.934326
 30
0.0
 40
8.0
100
AcDbArc
 50
53.576426
 51
126.423574
  0
ARC
  5
435
100
AcDbEntity
  8
LAY-1
  6
CONTINUOUS
 62
     2
100
AcDbCircle
 10
262.141466
 20
-59.934326
 30
0.0
 40
8.0
100
AcDbArc
 50
53.576426
 51
126.423574
  0
LINE
  5
436
100
AcDbEntity
  8
LAY-1
  6
CONTINUOUS
 62
     2
100
AcDbLine
 10
266.891466
 20
-53.49713
 30
0.0
 11
266.891466
 21
-55.634326
 31
0.0
  0
LINE
  5
437
100
AcDbEntity
  8
LAY-1
  6
CONTINUOUS
 62
     2
100
AcDbLine
 10
257.391466
 20
-53.49713
 30
0.0
 11
257.391466
 21
-55.634326
 31
0.0
  0
LINE
  5
438
100
AcDbEntity
  8
LAY-1
  6
CONTINUOUS
 62
     2
100
AcDbLine
 10
210.676127
 20
-115.134326
 30
0.0
 11
203.013176
 21
-115.134326
 31
0.0
  0
ARC
  5
439
100
AcDbEntity
  8
LAY-1
  6
CONTINUOUS
 62
     2
100
AcDbCircle
 10
210.676127
 20
-113.134326
 30
0.0
 40
2.0
100
AcDbArc
 50
270.0
 51
315.0
  0
LINE
  5
43A
100
AcDbEntity
  8
LAY-1
  6
CONTINUOUS
 62
     2
100
AcDbLine
 10
222.720628
 20
-103.918252
 30
0.0
 11
212.09034
 21
-114.54854
 31
0.0
  0
ARC
  5
43B
100
AcDbEntity
  8
LAY-1
  6
CONTINUOUS
 62
     2
100
AcDbCircle
 10
221.306415
 20
-102.504038
 30
0.0
 40
2.0
100
AcDbArc
 50
315.0
 51
358.5
  0
LINE
  5
43C
100
AcDbEntity
  8
LAY-1
  6
CONTINUOUS
 62
     2
100
AcDbLine
 10
272.013176
 20
-61.634326
 30
0.0
 11
203.013176
 21
-61.634326
 31
0.0
  0
ARC
  5
43D
100
AcDbEntity
  8
LAY-1
  6
CONTINUOUS
 62
     2
100
AcDbCircle
 10
270.013176
 20
-65.634326
 30
0.0
 40
2.0
100
AcDbArc
 50
270.0
 51
0.0
  0
LINE
  5
43E
100
AcDbEntity
  8
LAY-1
  6
CONTINUOUS
 62
     2
100
AcDbLine
 10
224.092694
 20
-72.503441
 30
0.0
 11
223.305729
 21
-102.556392
 31
0.0
  0
ARC
  5
43F
100
AcDbEntity
  8
LAY-1
  6
CONTINUOUS
 62
     2
100
AcDbCircle
 10
229.09098
 20
-72.634326
 30
0.0
 40
5.0
100
AcDbArc
 50
90.0
 51
178.5
  0
ARC
  5
440
100
AcDbEntity
  8
LAY-1
  6
CONTINUOUS
 62
     2
100
AcDbCircle
 10
263.874392
 20
-70.634326
 30
0.0
 40
3.0
100
AcDbArc
 50
90.0
 51
120.0
  0
LINE
  5
441
100
AcDbEntity
  8
LAY-1
  6
CONTINUOUS
 62
     2
100
AcDbLine
 10
262.374392
 20
-68.03625
 30
0.0
 11
242.693025
 21
-79.399292
 31
0.0
  0
ARC
  5
442
100
AcDbEntity
  8
LAY-1
  6
CONTINUOUS
 62
     2
100
AcDbCircle
 10
245.193025
 20
-83.729419
 30
0.0
 40
5.0
100
AcDbArc
 50
120.0
 51
179.0
  0
ARC
  5
443
100
AcDbEntity
  8
LAY-1
  6
CONTINUOUS
 62
     2
100
AcDbCircle
 10
239.606443
 20
-69.634326
 30
0.0
 40
10.0
100
AcDbArc
 50
270.0
 51
300.0
  0
LINE
  5
444
100
AcDbEntity
  8
LAY-1
  6
CONTINUOUS
 62
     2
100
AcDbLine
 10
239.606443
 20
-79.634326
 30
0.0
 11
223.905965
 21
-79.634326
 31
0.0
  0
LINE
  5
445
100
AcDbEntity
  8
LAY-1
  6
CONTINUOUS
 62
     2
100
AcDbLine
 10
239.513176
 20
-122.634326
 30
0.0
 11
240.193787
 21
-83.642157
 31
0.0
  0
ARC
  5
446
100
AcDbEntity
  8
LAY-1
  6
CONTINUOUS
 62
     2
100
AcDbCircle
 10
203.013176
 20
-94.634326
 30
0.0
 40
12.020063
100
AcDbArc
 50
270.0
 51
90.0
  0
LINE
  5
447
100
AcDbEntity
  8
LAY-1
  6
CONTINUOUS
 62
     2
100
AcDbLine
 10
211.593626
 20
-127.634326
 30
0.0
 11
203.013176
 21
-127.634326
 31
0.0
  0
ARC
  5
448
100
AcDbEntity
  8
LAY-1
  6
CONTINUOUS
 62
     2
100
AcDbCircle
 10
211.593626
 20
-125.134326
 30
0.0
 40
2.5
100
AcDbArc
 50
270.0
 51
350.0
  0
ARC
  5
449
100
AcDbEntity
  8
LAY-1
  6
CONTINUOUS
 62
     2
100
AcDbCircle
 10
214.639906
 20
-125.134326
 30
0.0
 40
0.5
100
AcDbArc
 50
90.0
 51
170.0
  0
LINE
  5
44A
100
AcDbEntity
  8
LAY-1
  6
CONTINUOUS
 62
     2
100
AcDbLine
 10
214.147502
 20
-125.047502
 30
0.0
 11
214.055645
 21
-125.568447
 31
0.0
  0
LINE
  5
44B
100
AcDbEntity
  8
LAY-1
  6
CONTINUOUS
 62
     2
100
AcDbLine
 10
239.513176
 20
-122.634326
 30
0.0
 11
203.013176
 21
-122.634326
 31
0.0
  0
LINE
  5
44C
100
AcDbEntity
  8
LAY-1
  6
CONTINUOUS
 62
     2
100
AcDbLine
 10
203.013176
 20
-124.634326
 30
0.0
 11
239.513176
 21
-124.634326
 31
0.0
  0
LINE
  5
44D
100
AcDbEntity
  8
LAY-1
  6
CONTINUOUS
 62
     2
100
AcDbLine
 10
220.53704
 20
-125.963491
 30
0.0
 11
220.53704
 21
-124.634326
 31
0.0
  0
ARC
  5
44E
100
AcDbEntity
  8
LAY-1
  6
CONTINUOUS
 62
     2
100
AcDbCircle
 10
225.28704
 20
-120.334326
 30
0.0
 40
8.0
100
AcDbArc
 50
240.0
 51
270.0
  0
ARC
  5
44F
100
AcDbEntity
  8
LAY-1
  6
CONTINUOUS
 62
     2
100
AcDbCircle
 10
222.03704
 20
-125.963491
 30
0.0
 40
1.5
100
AcDbArc
 50
180.0
 51
240.0
  0
LINE
  5
450
100
AcDbEntity
  8
LAY-1
  6
CONTINUOUS
 62
     2
100
AcDbLine
 10
230.03704
 20
-125.963491
 30
0.0
 11
230.03704
 21
-124.634326
 31
0.0
  0
ARC
  5
451
100
AcDbEntity
  8
LAY-1
  6
CONTINUOUS
 62
     2
100
AcDbCircle
 10
225.28704
 20
-120.334326
 30
0.0
 40
8.0
100
AcDbArc
 50
270.0
 51
300.0
  0
ARC
  5
452
100
AcDbEntity
  8
LAY-1
  6
CONTINUOUS
 62
     2
100
AcDbCircle
 10
228.53704
 20
-125.963491
 30
0.0
 40
1.5
100
AcDbArc
 50
300.0
 51
0.0
  0
LINE
  5
453
100
AcDbEntity
  8
LAY-1
  6
CONTINUOUS
 62
     2
100
AcDbLine
 10
239.513176
 20
-124.634326
 30
0.0
 11
239.513176
 21
-122.634326
 31
0.0
  0
ARC
  5
454
100
AcDbEntity
  8
LAY-1
  6
CONTINUOUS
 62
     2
100
AcDbCircle
 10
248.176243
 20
-58.491052
 30
0.0
 40
12.0
100
AcDbArc
 50
28.773073
 51
81.471556
  0
LINE
  5
455
100
AcDbEntity
  8
LAY-1
  6
CONTINUOUS
 62
     2
100
AcDbLine
 10
237.827336
 20
-44.804969
 30
0.0
 11
249.955848
 21
-46.623744
 31
0.0
  0
ARC
  5
456
100
AcDbEntity
  8
LAY-1
  6
CONTINUOUS
 62
     2
100
AcDbCircle
 10
240.200142
 20
-28.981891
 30
0.0
 40
16.0
100
AcDbArc
 50
181.0
 51
261.471556
  0
LINE
  5
457
100
AcDbEntity
  8
LAY-1
  6
CONTINUOUS
 62
     2
100
AcDbLine
 10
223.545801
 20
8.365674
 30
0.0
 11
224.202579
 21
-29.26113
 31
0.0
  0
LINE
  5
458
100
AcDbEntity
  8
LAY-1
  6
CONTINUOUS
 62
     2
100
AcDbLine
 10
223.545801
 20
8.365674
 30
0.0
 11
203.013176
 21
8.365674
 31
0.0
  0
LINE
  5
459
100
AcDbEntity
  8
LAY-1
  6
CONTINUOUS
 62
     2
100
AcDbLine
 10
272.013176
 20
-65.634326
 30
0.0
 11
272.013176
 21
-56.134326
 31
0.0
  0
LINE
  5
45A
100
AcDbEntity
  8
LAY-1
  6
CONTINUOUS
 62
     2
100
AcDbLine
 10
203.013176
 20
17.865674
 30
0.0
 11
182.513176
 21
17.865674
 31
0.0
  0
LINE
  5
45B
100
AcDbEntity
  8
LAY-1
  6
CONTINUOUS
 62
     2
100
AcDbLine
 10
182.513176
 20
9.365674
 30
0.0
 11
203.013176
 21
9.365674
 31
0.0
  0
LINE
  5
45C
100
AcDbEntity
  8
LAY-1
  6
CONTINUOUS
 62
     2
100
AcDbLine
 10
182.513176
 20
17.865674
 30
0.0
 11
180.513176
 21
16.710973
 31
0.0
  0
LINE
  5
45D
100
AcDbEntity
  8
LAY-1
  6
CONTINUOUS
 62
     2
100
AcDbLine
 10
182.513176
 20
9.365674
 30
0.0
 11
180.513176
 21
10.520374
 31
0.0
  0
LINE
  5
45E
100
AcDbEntity
  8
LAY-1
  6
CONTINUOUS
 62
     2
100
AcDbLine
 10
180.513176
 20
16.710973
 30
0.0
 11
180.513176
 21
10.520374
 31
0.0
  0
LINE
  5
45F
100
AcDbEntity
  8
LAY-1
  6
CONTINUOUS
 62
     2
100
AcDbLine
 10
191.554676
 20
17.865674
 30
0.0
 11
189.013176
 21
17.865674
 31
0.0
  0
LINE
  5
460
100
AcDbEntity
  8
LAY-1
  6
CONTINUOUS
 62
     2
100
AcDbLine
 10
203.013176
 20
17.865674
 30
0.0
 11
189.513176
 21
17.865674
 31
0.0
  0
ARC
  5
461
100
AcDbEntity
  8
LAY-1
  6
CONTINUOUS
 62
     2
100
AcDbCircle
 10
203.013176
 20
-77.134326
 30
0.0
 40
100.0
100
AcDbArc
 50
90.0
 51
97.54548
  0
LINE
  5
462
100
AcDbEntity
  8
LAY-1
  6
CONTINUOUS
 62
     2
100
AcDbLine
 10
189.013176
 20
21.008427
 30
0.0
 11
189.013176
 21
17.865674
 31
0.0
  0
ARC
  5
463
100
AcDbEntity
  8
LAY-1
  6
CONTINUOUS
 62
     2
100
AcDbCircle
 10
190.013176
 20
21.008427
 30
0.0
 40
1.0
100
AcDbArc
 50
97.54548
 51
180.0
  0
LINE
  5
464
100
AcDbEntity
  8
LAY-1
  6
CONTINUOUS
 62
     2
100
AcDbLine
 10
191.554676
 20
17.865674
 30
0.0
 11
189.013176
 21
17.865674
 31
0.0
  0
LINE
  5
465
100
AcDbEntity
  8
LAY-1
  6
CONTINUOUS
 62
     2
100
AcDbLine
 10
202.013176
 20
21.865674
 30
0.0
 11
202.013176
 21
17.865674
 31
0.0
  0
LINE
  5
466
100
AcDbEntity
  8
LAY-1
  6
CONTINUOUS
 62
     2
100
AcDbLine
 10
197.147745
 20
20.865674
 30
0.0
 11
197.147745
 21
17.865674
 31
0.0
  0
ARC
  5
467
100
AcDbEntity
  8
LAY-1
  6
CONTINUOUS
 62
     2
100
AcDbCircle
 10
198.147745
 20
20.865674
 30
0.0
 40
1.0
100
AcDbArc
 50
90.0
 51
180.0
  0
LINE
  5
468
100
AcDbEntity
  8
LAY-1
  6
CONTINUOUS
 62
     2
100
AcDbLine
 10
196.897081
 20
20.865674
 30
0.0
 11
196.897081
 21
17.865674
 31
0.0
  0
ARC
  5
469
100
AcDbEntity
  8
LAY-1
  6
CONTINUOUS
 62
     2
100
AcDbCircle
 10
197.897081
 20
20.865674
 30
0.0
 40
1.0
100
AcDbArc
 50
90.0
 51
180.0
  0
LINE
  5
46A
100
AcDbEntity
  8
LAY-1
  6
CONTINUOUS
 62
     2
100
AcDbLine
 10
195.16503
 20
20.865674
 30
0.0
 11
195.16503
 21
17.865674
 31
0.0
  0
ARC
  5
46B
100
AcDbEntity
  8
LAY-1
  6
CONTINUOUS
 62
     2
100
AcDbCircle
 10
196.16503
 20
20.865674
 30
0.0
 40
1.0
100
AcDbArc
 50
90.0
 51
180.0
  0
LINE
  5
46C
100
AcDbEntity
  8
LAY-1
  6
CONTINUOUS
 62
     2
100
AcDbLine
 10
191.853952
 20
20.865674
 30
0.0
 11
191.853952
 21
17.865674
 31
0.0
  0
ARC
  5
46D
100
AcDbEntity
  8
LAY-1
  6
CONTINUOUS
 62
     2
100
AcDbCircle
 10
192.853952
 20
20.865674
 30
0.0
 40
1.0
100
AcDbArc
 50
90.0
 51
180.0
  0
LINE
  5
46E
100
AcDbEntity
  8
LAY-1
  6
CONTINUOUS
 62
     2
100
AcDbLine
 10
191.419789
 20
20.865674
 30
0.0
 11
191.419789
 21
17.865674
 31
0.0
  0
ARC
  5
46F
100
AcDbEntity
  8
LAY-1
  6
CONTINUOUS
 62
     2
100
AcDbCircle
 10
192.419789
 20
20.865674
 30
0.0
 40
1.0
100
AcDbArc
 50
90.0
 51
180.0
  0
LINE
  5
470
100
AcDbEntity
  8
LAY-1
  6
CONTINUOUS
 62
     2
100
AcDbLine
 10
190.419789
 20
20.865674
 30
0.0
 11
190.419789
 21
17.865674
 31
0.0
  0
ARC
  5
471
100
AcDbEntity
  8
LAY-1
  6
CONTINUOUS
 62
     2
100
AcDbCircle
 10
191.419789
 20
20.865674
 30
0.0
 40
1.0
100
AcDbArc
 50
90.0
 51
180.0
  0
LINE
  5
472
100
AcDbEntity
  8
LAY-1
  6
CONTINUOUS
 62
     2
100
AcDbLine
 10
189.550264
 20
20.865674
 30
0.0
 11
189.550264
 21
17.865674
 31
0.0
  0
ARC
  5
473
100
AcDbEntity
  8
LAY-1
  6
CONTINUOUS
 62
     2
100
AcDbCircle
 10
190.550264
 20
20.865674
 30
0.0
 40
1.0
100
AcDbArc
 50
90.0
 51
180.0
  0
LINE
  5
474
100
AcDbEntity
  8
LAY-1
  6
CONTINUOUS
 62
     2
100
AcDbLine
 10
198.147745
 20
21.865674
 30
0.0
 11
197.897081
 21
21.865674
 31
0.0
  0
LINE
  5
475
100
AcDbEntity
  8
LAY-1
  6
CONTINUOUS
 62
     2
100
AcDbLine
 10
192.853952
 20
21.865674
 30
0.0
 11
192.419789
 21
21.865674
 31
0.0
  0
LINE
  5
476
100
AcDbEntity
  8
LAY-1
  6
CONTINUOUS
 62
     2
100
AcDbLine
 10
189.896464
 20
16.710973
 30
0.0
 11
193.739557
 21
16.710973
 31
0.0
  0
LINE
  5
477
100
AcDbEntity
  8
LAY-1
  6
CONTINUOUS
 62
     2
100
AcDbLine
 10
189.896464
 20
10.520374
 30
0.0
 11
193.739557
 21
10.520374
 31
0.0
  0
LINE
  5
478
100
AcDbEntity
  8
LAY-1
  6
CONTINUOUS
 62
     2
100
AcDbLine
 10
193.739557
 20
10.520374
 30
0.0
 11
193.739557
 21
16.710973
 31
0.0
  0
LINE
  5
479
100
AcDbEntity
  8
LAY-1
  6
CONTINUOUS
 62
     2
100
AcDbLine
 10
189.896464
 20
10.520374
 30
0.0
 11
189.896464
 21
16.710973
 31
0.0
  0
ARC
  5
47A
100
AcDbEntity
  8
LAY-1
  6
CONTINUOUS
 62
     2
100
AcDbCircle
 10
185.20482
 20
7.76069
 30
0.0
 40
10.105399
100
AcDbArc
 50
62.336945
 51
117.663055
  0
ARC
  5
47B
100
AcDbEntity
  8
LAY-1
  6
CONTINUOUS
 62
     2
100
AcDbCircle
 10
185.20482
 20
19.458391
 30
0.0
 40
10.094536
100
AcDbArc
 50
242.30462
 51
297.69538
  0
ARC
  5
47C
100
AcDbEntity
  8
LAY-1
  6
CONTINUOUS
 62
     2
100
AcDbCircle
 10
203.013176
 20
-19.950769
 30
0.0
 40
37.816443
100
AcDbArc
 50
90.0
 51
104.195258
  0
ARC
  5
47D
100
AcDbEntity
  8
LAY-1
  6
CONTINUOUS
 62
     2
100
AcDbCircle
 10
203.013176
 20
47.182116
 30
0.0
 40
37.816443
100
AcDbArc
 50
255.804742
 51
270.0
  0
LINE
  5
47E
100
AcDbEntity
  8
LAY-1
  6
CONTINUOUS
 62
     2
100
AcDbLine
 10
203.013176
 20
17.865674
 30
0.0
 11
223.513176
 21
17.865674
 31
0.0
  0
LINE
  5
47F
100
AcDbEntity
  8
LAY-1
  6
CONTINUOUS
 62
     2
100
AcDbLine
 10
223.513176
 20
9.365674
 30
0.0
 11
203.013176
 21
9.365674
 31
0.0
  0
LINE
  5
480
100
AcDbEntity
  8
LAY-1
  6
CONTINUOUS
 62
     2
100
AcDbLine
 10
223.513176
 20
17.865674
 30
0.0
 11
225.513176
 21
16.710973
 31
0.0
  0
LINE
  5
481
100
AcDbEntity
  8
LAY-1
  6
CONTINUOUS
 62
     2
100
AcDbLine
 10
223.513176
 20
9.365674
 30
0.0
 11
225.513176
 21
10.520374
 31
0.0
  0
LINE
  5
482
100
AcDbEntity
  8
LAY-1
  6
CONTINUOUS
 62
     2
100
AcDbLine
 10
225.513176
 20
16.710973
 30
0.0
 11
225.513176
 21
10.520374
 31
0.0
  0
LINE
  5
483
100
AcDbEntity
  8
LAY-1
  6
CONTINUOUS
 62
     2
100
AcDbLine
 10
214.471676
 20
17.865674
 30
0.0
 11
217.013176
 21
17.865674
 31
0.0
  0
LINE
  5
484
100
AcDbEntity
  8
LAY-1
  6
CONTINUOUS
 62
     2
100
AcDbLine
 10
203.013176
 20
17.865674
 30
0.0
 11
216.513176
 21
17.865674
 31
0.0
  0
ARC
  5
485
100
AcDbEntity
  8
LAY-1
  6
CONTINUOUS
 62
     2
100
AcDbCircle
 10
203.013176
 20
-77.134326
 30
0.0
 40
100.0
100
AcDbArc
 50
82.45452
 51
90.0
  0
LINE
  5
486
100
AcDbEntity
  8
LAY-1
  6
CONTINUOUS
 62
     2
100
AcDbLine
 10
217.013176
 20
21.008427
 30
0.0
 11
217.013176
 21
17.865674
 31
0.0
  0
ARC
  5
487
100
AcDbEntity
  8
LAY-1
  6
CONTINUOUS
 62
     2
100
AcDbCircle
 10
216.013176
 20
21.008427
 30
0.0
 40
1.0
100
AcDbArc
 50
0.0
 51
82.45452
  0
LINE
  5
488
100
AcDbEntity
  8
LAY-1
  6
CONTINUOUS
 62
     2
100
AcDbLine
 10
214.471676
 20
17.865674
 30
0.0
 11
217.013176
 21
17.865674
 31
0.0
  0
LINE
  5
489
100
AcDbEntity
  8
LAY-1
  6
CONTINUOUS
 62
     2
100
AcDbLine
 10
204.013176
 20
21.865674
 30
0.0
 11
204.013176
 21
17.865674
 31
0.0
  0
LINE
  5
48A
100
AcDbEntity
  8
LAY-1
  6
CONTINUOUS
 62
     2
100
AcDbLine
 10
208.878607
 20
20.865674
 30
0.0
 11
208.878607
 21
17.865674
 31
0.0
  0
ARC
  5
48B
100
AcDbEntity
  8
LAY-1
  6
CONTINUOUS
 62
     2
100
AcDbCircle
 10
207.878607
 20
20.865674
 30
0.0
 40
1.0
100
AcDbArc
 50
0.0
 51
90.0
  0
LINE
  5
48C
100
AcDbEntity
  8
LAY-1
  6
CONTINUOUS
 62
     2
100
AcDbLine
 10
209.129271
 20
20.865674
 30
0.0
 11
209.129271
 21
17.865674
 31
0.0
  0
ARC
  5
48D
100
AcDbEntity
  8
LAY-1
  6
CONTINUOUS
 62
     2
100
AcDbCircle
 10
208.129271
 20
20.865674
 30
0.0
 40
1.0
100
AcDbArc
 50
0.0
 51
90.0
  0
LINE
  5
48E
100
AcDbEntity
  8
LAY-1
  6
CONTINUOUS
 62
     2
100
AcDbLine
 10
210.861321
 20
20.865674
 30
0.0
 11
210.861321
 21
17.865674
 31
0.0
  0
ARC
  5
48F
100
AcDbEntity
  8
LAY-1
  6
CONTINUOUS
 62
     2
100
AcDbCircle
 10
209.861321
 20
20.865674
 30
0.0
 40
1.0
100
AcDbArc
 50
0.0
 51
90.0
  0
LINE
  5
490
100
AcDbEntity
  8
LAY-1
  6
CONTINUOUS
 62
     2
100
AcDbLine
 10
214.1724
 20
20.865674
 30
0.0
 11
214.1724
 21
17.865674
 31
0.0
  0
ARC
  5
491
100
AcDbEntity
  8
LAY-1
  6
CONTINUOUS
 62
     2
100
AcDbCircle
 10
213.1724
 20
20.865674
 30
0.0
 40
1.0
100
AcDbArc
 50
0.0
 51
90.0
  0
LINE
  5
492
100
AcDbEntity
  8
LAY-1
  6
CONTINUOUS
 62
     2
100
AcDbLine
 10
214.606563
 20
20.865674
 30
0.0
 11
214.606563
 21
17.865674
 31
0.0
  0
ARC
  5
493
100
AcDbEntity
  8
LAY-1
  6
CONTINUOUS
 62
     2
100
AcDbCircle
 10
213.606563
 20
20.865674
 30
0.0
 40
1.0
100
AcDbArc
 50
0.0
 51
90.0
  0
LINE
  5
494
100
AcDbEntity
  8
LAY-1
  6
CONTINUOUS
 62
     2
100
AcDbLine
 10
215.606563
 20
20.865674
 30
0.0
 11
215.606563
 21
17.865674
 31
0.0
  0
ARC
  5
495
100
AcDbEntity
  8
LAY-1
  6
CONTINUOUS
 62
     2
100
AcDbCircle
 10
214.606563
 20
20.865674
 30
0.0
 40
1.0
100
AcDbArc
 50
0.0
 51
90.0
  0
LINE
  5
496
100
AcDbEntity
  8
LAY-1
  6
CONTINUOUS
 62
     2
100
AcDbLine
 10
216.476088
 20
20.865674
 30
0.0
 11
216.476088
 21
17.865674
 31
0.0
  0
ARC
  5
497
100
AcDbEntity
  8
LAY-1
  6
CONTINUOUS
 62
     2
100
AcDbCircle
 10
215.476088
 20
20.865674
 30
0.0
 40
1.0
100
AcDbArc
 50
0.0
 51
90.0
  0
LINE
  5
498
100
AcDbEntity
  8
LAY-1
  6
CONTINUOUS
 62
     2
100
AcDbLine
 10
207.878607
 20
21.865674
 30
0.0
 11
208.129271
 21
21.865674
 31
0.0
  0
LINE
  5
499
100
AcDbEntity
  8
LAY-1
  6
CONTINUOUS
 62
     2
100
AcDbLine
 10
213.1724
 20
21.865674
 30
0.0
 11
213.606563
 21
21.865674
 31
0.0
  0
LINE
  5
49A
100
AcDbEntity
  8
LAY-1
  6
CONTINUOUS
 62
     2
100
AcDbLine
 10
216.129887
 20
16.710973
 30
0.0
 11
212.286794
 21
16.710973
 31
0.0
  0
LINE
  5
49B
100
AcDbEntity
  8
LAY-1
  6
CONTINUOUS
 62
     2
100
AcDbLine
 10
216.129887
 20
10.520374
 30
0.0
 11
212.286794
 21
10.520374
 31
0.0
  0
LINE
  5
49C
100
AcDbEntity
  8
LAY-1
  6
CONTINUOUS
 62
     2
100
AcDbLine
 10
212.286794
 20
10.520374
 30
0.0
 11
212.286794
 21
16.710973
 31
0.0
  0
LINE
  5
49D
100
AcDbEntity
  8
LAY-1
  6
CONTINUOUS
 62
     2
100
AcDbLine
 10
216.129887
 20
10.520374
 30
0.0
 11
216.129887
 21
16.710973
 31
0.0
  0
ARC
  5
49E
100
AcDbEntity
  8
LAY-1
  6
CONTINUOUS
 62
     2
100
AcDbCircle
 10
220.821532
 20
7.76069
 30
0.0
 40
10.105399
100
AcDbArc
 50
62.336945
 51
117.663055
  0
ARC
  5
49F
100
AcDbEntity
  8
LAY-1
  6
CONTINUOUS
 62
     2
100
AcDbCircle
 10
220.821532
 20
19.458391
 30
0.0
 40
10.094536
100
AcDbArc
 50
242.30462
 51
297.69538
  0
ARC
  5
4A0
100
AcDbEntity
  8
LAY-1
  6
CONTINUOUS
 62
     2
100
AcDbCircle
 10
203.013176
 20
-19.950769
 30
0.0
 40
37.816443
100
AcDbArc
 50
75.804742
 51
90.0
  0
ARC
  5
4A1
100
AcDbEntity
  8
LAY-1
  6
CONTINUOUS
 62
     2
100
AcDbCircle
 10
203.013176
 20
47.182116
 30
0.0
 40
37.816443
100
AcDbArc
 50
270.0
 51
284.195258
  0
LINE
  5
4A2
100
AcDbEntity
  8
LAY-1
  6
EXLTYPE3
 62
     1
100
AcDbLine
 10
153.013176
 20
355.365674
 30
0.0
 11
153.013176
 21
381.175018
 31
0.0
  0
LINE
  5
4A3
100
AcDbEntity
  8
LAY-1
  6
EXLTYPE3
 62
     1
100
AcDbLine
 10
203.013176
 20
378.365674
 30
0.0
 11
173.513176
 21
378.365674
 31
0.0
  0
ARC
  5
4A4
100
AcDbEntity
  8
LAY-1
  6
CONTINUOUS
 62
     1
100
AcDbCircle
 10
203.013176
 20
378.365674
 30
0.0
 40
13.219548
100
AcDbArc
 50
90.0
 51
270.0
  0
LINE
  5
4A5
100
AcDbEntity
  8
LAY-1
  6
EXLTYPE3
 62
     1
100
AcDbLine
 10
203.013176
 20
254.065674
 30
0.0
 11
203.013176
 21
418.665674
 31
0.0
  0
LINE
  5
4A6
100
AcDbEntity
  8
LAY-1
  6
EXLTYPE3
 62
     1
100
AcDbLine
 10
203.013176
 20
378.365674
 30
0.0
 11
232.513176
 21
378.365674
 31
0.0
  0
ARC
  5
4A7
100
AcDbEntity
  8
LAY-1
  6
CONTINUOUS
 62
     1
100
AcDbCircle
 10
203.013176
 20
378.365674
 30
0.0
 40
13.219548
100
AcDbArc
 50
270.0
 51
90.0
  0
LINE
  5
4A8
100
AcDbEntity
  8
LAY-1
  6
CONTINUOUS
 62
     2
100
AcDbLine
 10
136.013176
 20
351.365674
 30
0.0
 11
203.013176
 21
351.365674
 31
0.0
  0
LINE
  5
4A9
100
AcDbEntity
  8
LAY-1
  6
CONTINUOUS
 62
     2
100
AcDbLine
 10
151.566337
 20
318.95146
 30
0.0
 11
153.394764
 21
320.779887
 31
0.0
  0
ARC
  5
4AA
100
AcDbEntity
  8
LAY-1
  6
CONTINUOUS
 62
     2
100
AcDbCircle
 10
150.152124
 20
320.365674
 30
0.0
 40
2.0
100
AcDbArc
 50
270.0
 51
315.0
  0
ARC
  5
4AB
100
AcDbEntity
  8
LAY-1
  6
CONTINUOUS
 62
     2
100
AcDbCircle
 10
154.808978
 20
319.365674
 30
0.0
 40
2.0
100
AcDbArc
 50
90.0
 51
135.0
  0
LINE
  5
4AC
100
AcDbEntity
  8
LAY-1
  6
CONTINUOUS
 62
     2
100
AcDbLine
 10
135.013176
 20
318.365674
 30
0.0
 11
150.152124
 21
318.365674
 31
0.0
  0
ARC
  5
4AD
100
AcDbEntity
  8
LAY-1
  6
CONTINUOUS
 62
     2
100
AcDbCircle
 10
135.013176
 20
319.365674
 30
0.0
 40
1.0
100
AcDbArc
 50
180.0
 51
270.0
  0
LINE
  5
4AE
100
AcDbEntity
  8
LAY-1
  6
CONTINUOUS
 62
     2
100
AcDbLine
 10
182.980551
 20
275.365674
 30
0.0
 11
182.980551
 21
274.365674
 31
0.0
  0
LINE
  5
4AF
100
AcDbEntity
  8
LAY-1
  6
CONTINUOUS
 62
     2
100
AcDbLine
 10
134.513176
 20
339.365674
 30
0.0
 11
203.013176
 21
339.365674
 31
0.0
  0
ARC
  5
4B0
100
AcDbEntity
  8
LAY-1
  6
CONTINUOUS
 62
     2
100
AcDbCircle
 10
134.513176
 20
339.865674
 30
0.0
 40
0.5
100
AcDbArc
 50
180.0
 51
270.0
  0
LINE
  5
4B1
100
AcDbEntity
  8
LAY-1
  6
CONTINUOUS
 62
     2
100
AcDbLine
 10
183.271436
 20
337.228477
 30
0.0
 11
183.271436
 21
339.365674
 31
0.0
  0
LINE
  5
4B2
100
AcDbEntity
  8
LAY-1
  6
CONTINUOUS
 62
     2
100
AcDbLine
 10
173.771436
 20
337.228477
 30
0.0
 11
173.771436
 21
339.365674
 31
0.0
  0
ARC
  5
4B3
100
AcDbEntity
  8
LAY-1
  6
CONTINUOUS
 62
     2
100
AcDbCircle
 10
178.521436
 20
343.665674
 30
0.0
 40
8.0
100
AcDbArc
 50
233.576426
 51
306.423574
  0
ARC
  5
4B4
100
AcDbEntity
  8
LAY-1
  6
CONTINUOUS
 62
     2
100
AcDbCircle
 10
143.884886
 20
343.665674
 30
0.0
 40
8.0
100
AcDbArc
 50
233.576426
 51
306.423574
  0
LINE
  5
4B5
100
AcDbEntity
  8
LAY-1
  6
CONTINUOUS
 62
     2
100
AcDbLine
 10
139.134886
 20
337.228477
 30
0.0
 11
139.134886
 21
339.365674
 31
0.0
  0
LINE
  5
4B6
100
AcDbEntity
  8
LAY-1
  6
CONTINUOUS
 62
     2
100
AcDbLine
 10
148.634886
 20
337.228477
 30
0.0
 11
148.634886
 21
339.365674
 31
0.0
  0
LINE
  5
4B7
100
AcDbEntity
  8
LAY-1
  6
CONTINUOUS
 62
     2
100
AcDbLine
 10
195.350225
 20
398.865674
 30
0.0
 11
203.013176
 21
398.865674
 31
0.0
  0
ARC
  5
4B8
100
AcDbEntity
  8
LAY-1
  6
CONTINUOUS
 62
     2
100
AcDbCircle
 10
195.350225
 20
396.865674
 30
0.0
 40
2.0
100
AcDbArc
 50
90.0
 51
135.0
  0
LINE
  5
4B9
100
AcDbEntity
  8
LAY-1
  6
CONTINUOUS
 62
     2
100
AcDbLine
 10
183.305724
 20
387.6496
 30
0.0
 11
193.936011
 21
398.279887
 31
0.0
  0
ARC
  5
4BA
100
AcDbEntity
  8
LAY-1
  6
CONTINUOUS
 62
     2
100
AcDbCircle
 10
184.719937
 20
386.235386
 30
0.0
 40
2.0
100
AcDbArc
 50
135.0
 51
178.5
  0
LINE
  5
4BB
100
AcDbEntity
  8
LAY-1
  6
CONTINUOUS
 62
     2
100
AcDbLine
 10
134.013176
 20
345.365674
 30
0.0
 11
203.013176
 21
345.365674
 31
0.0
  0
ARC
  5
4BC
100
AcDbEntity
  8
LAY-1
  6
CONTINUOUS
 62
     2
100
AcDbCircle
 10
136.013176
 20
349.365674
 30
0.0
 40
2.0
100
AcDbArc
 50
90.0
 51
180.0
  0
LINE
  5
4BD
100
AcDbEntity
  8
LAY-1
  6
CONTINUOUS
 62
     2
100
AcDbLine
 10
181.933658
 20
356.234789
 30
0.0
 11
182.720623
 21
386.28774
 31
0.0
  0
ARC
  5
4BE
100
AcDbEntity
  8
LAY-1
  6
CONTINUOUS
 62
     2
100
AcDbCircle
 10
176.935372
 20
356.365674
 30
0.0
 40
5.0
100
AcDbArc
 50
270.0
 51
358.5
  0
ARC
  5
4BF
100
AcDbEntity
  8
LAY-1
  6
CONTINUOUS
 62
     2
100
AcDbCircle
 10
142.15196
 20
354.365674
 30
0.0
 40
3.0
100
AcDbArc
 50
270.0
 51
300.0
  0
LINE
  5
4C0
100
AcDbEntity
  8
LAY-1
  6
CONTINUOUS
 62
     2
100
AcDbLine
 10
143.65196
 20
351.767598
 30
0.0
 11
163.333327
 21
363.13064
 31
0.0
  0
ARC
  5
4C1
100
AcDbEntity
  8
LAY-1
  6
CONTINUOUS
 62
     2
100
AcDbCircle
 10
160.833327
 20
367.460767
 30
0.0
 40
5.0
100
AcDbArc
 50
300.0
 51
359.0
  0
ARC
  5
4C2
100
AcDbEntity
  8
LAY-1
  6
CONTINUOUS
 62
     2
100
AcDbCircle
 10
166.419909
 20
353.365674
 30
0.0
 40
10.0
100
AcDbArc
 50
90.0
 51
120.0
  0
LINE
  5
4C3
100
AcDbEntity
  8
LAY-1
  6
CONTINUOUS
 62
     2
100
AcDbLine
 10
166.419909
 20
363.365674
 30
0.0
 11
182.120387
 21
363.365674
 31
0.0
  0
LINE
  5
4C4
100
AcDbEntity
  8
LAY-1
  6
CONTINUOUS
 62
     2
100
AcDbLine
 10
166.513176
 20
406.365674
 30
0.0
 11
165.832565
 21
367.373505
 31
0.0
  0
LINE
  5
4C5
100
AcDbEntity
  8
LAY-1
  6
CONTINUOUS
 62
     2
100
AcDbLine
 10
134.013176
 20
349.365674
 30
0.0
 11
134.013176
 21
319.365674
 31
0.0
  0
ARC
  5
4C6
100
AcDbEntity
  8
LAY-1
  6
CONTINUOUS
 62
     2
100
AcDbCircle
 10
203.013176
 20
378.365674
 30
0.0
 40
12.020063
100
AcDbArc
 50
90.0
 51
270.0
  0
LINE
  5
4C7
100
AcDbEntity
  8
LAY-1
  6
CONTINUOUS
 62
     2
100
AcDbLine
 10
194.432726
 20
411.365674
 30
0.0
 11
203.013176
 21
411.365674
 31
0.0
  0
ARC
  5
4C8
100
AcDbEntity
  8
LAY-1
  6
CONTINUOUS
 62
     2
100
AcDbCircle
 10
194.432726
 20
408.865674
 30
0.0
 40
2.5
100
AcDbArc
 50
90.0
 51
170.0
  0
ARC
  5
4C9
100
AcDbEntity
  8
LAY-1
  6
CONTINUOUS
 62
     2
100
AcDbCircle
 10
191.386446
 20
408.865674
 30
0.0
 40
0.5
100
AcDbArc
 50
270.0
 51
350.0
  0
LINE
  5
4CA
100
AcDbEntity
  8
LAY-1
  6
CONTINUOUS
 62
     2
100
AcDbLine
 10
191.87885
 20
408.77885
 30
0.0
 11
191.970706
 21
409.299794
 31
0.0
  0
LINE
  5
4CB
100
AcDbEntity
  8
LAY-1
  6
CONTINUOUS
 62
     2
100
AcDbLine
 10
166.513176
 20
406.365674
 30
0.0
 11
203.013176
 21
406.365674
 31
0.0
  0
LINE
  5
4CC
100
AcDbEntity
  8
LAY-1
  6
CONTINUOUS
 62
     2
100
AcDbLine
 10
203.013176
 20
408.365674
 30
0.0
 11
166.513176
 21
408.365674
 31
0.0
  0
LINE
  5
4CD
100
AcDbEntity
  8
LAY-1
  6
CONTINUOUS
 62
     2
100
AcDbLine
 10
185.489312
 20
409.694839
 30
0.0
 11
185.489312
 21
408.365674
 31
0.0
  0
ARC
  5
4CE
100
AcDbEntity
  8
LAY-1
  6
CONTINUOUS
 62
     2
100
AcDbCircle
 10
180.739312
 20
404.065674
 30
0.0
 40
8.0
100
AcDbArc
 50
60.0
 51
90.0
  0
ARC
  5
4CF
100
AcDbEntity
  8
LAY-1
  6
CONTINUOUS
 62
     2
100
AcDbCircle
 10
183.989312
 20
409.694839
 30
0.0
 40
1.5
100
AcDbArc
 50
0.0
 51
60.0
  0
LINE
  5
4D0
100
AcDbEntity
  8
LAY-1
  6
CONTINUOUS
 62
     2
100
AcDbLine
 10
175.989312
 20
409.694839
 30
0.0
 11
175.989312
 21
408.365674
 31
0.0
  0
ARC
  5
4D1
100
AcDbEntity
  8
LAY-1
  6
CONTINUOUS
 62
     2
100
AcDbCircle
 10
180.739312
 20
404.065674
 30
0.0
 40
8.0
100
AcDbArc
 50
90.0
 51
120.0
  0
ARC
  5
4D2
100
AcDbEntity
  8
LAY-1
  6
CONTINUOUS
 62
     2
100
AcDbCircle
 10
177.489312
 20
409.694839
 30
0.0
 40
1.5
100
AcDbArc
 50
120.0
 51
180.0
  0
LINE
  5
4D3
100
AcDbEntity
  8
LAY-1
  6
CONTINUOUS
 62
     2
100
AcDbLine
 10
166.513176
 20
408.365674
 30
0.0
 11
166.513176
 21
406.365674
 31
0.0
  0
ARC
  5
4D4
100
AcDbEntity
  8
LAY-1
  6
CONTINUOUS
 62
     2
100
AcDbCircle
 10
144.944553
 20
376.365674
 30
0.0
 40
2.0
100
AcDbArc
 50
90.0
 51
178.0
  0
LINE
  5
4D5
100
AcDbEntity
  8
LAY-1
  6
CONTINUOUS
 62
     2
100
AcDbLine
 10
142.137719
 20
353.295875
 30
0.0
 11
142.945772
 21
376.435473
 31
0.0
  0
ARC
  5
4D6
100
AcDbEntity
  8
LAY-1
  6
CONTINUOUS
 62
     2
100
AcDbCircle
 10
140.138938
 20
353.365674
 30
0.0
 40
2.0
100
AcDbArc
 50
270.0
 51
358.0
  0
LINE
  5
4D7
100
AcDbEntity
  8
LAY-1
  6
CONTINUOUS
 62
     2
100
AcDbLine
 10
144.944553
 20
378.365674
 30
0.0
 11
161.081798
 21
378.365674
 31
0.0
  0
ARC
  5
4D8
100
AcDbEntity
  8
LAY-1
  6
CONTINUOUS
 62
     2
100
AcDbCircle
 10
164.244076
 20
377.865674
 30
0.0
 40
1.5
100
AcDbArc
 50
205.376934
 51
270.0
  0
ARC
  5
4D9
100
AcDbEntity
  8
LAY-1
  6
CONTINUOUS
 62
     2
100
AcDbCircle
 10
164.453968
 20
365.760487
 30
0.0
 40
1.0
100
AcDbArc
 50
182.0
 51
334.844898
  0
LINE
  5
4DA
100
AcDbEntity
  8
LAY-1
  6
CONTINUOUS
 62
     2
100
AcDbLine
 10
163.08058
 20
376.435473
 30
0.0
 11
163.454577
 21
365.725587
 31
0.0
  0
ARC
  5
4DB
100
AcDbEntity
  8
LAY-1
  6
CONTINUOUS
 62
     2
100
AcDbCircle
 10
161.081798
 20
376.365674
 30
0.0
 40
2.0
100
AcDbArc
 50
2.0
 51
90.0
  0
LINE
  5
4DC
100
AcDbEntity
  8
LAY-1
  6
CONTINUOUS
 62
     2
100
AcDbLine
 10
164.244076
 20
376.365674
 30
0.0
 11
164.515478
 21
376.365674
 31
0.0
  0
ARC
  5
4DD
100
AcDbEntity
  8
LAY-1
  6
CONTINUOUS
 62
     2
100
AcDbCircle
 10
164.515478
 20
377.865674
 30
0.0
 40
1.5
100
AcDbArc
 50
270.0
 51
359.0
  0
ARC
  5
4DE
100
AcDbEntity
  8
LAY-1
  6
CONTINUOUS
 62
     2
100
AcDbCircle
 10
157.850108
 20
342.2224
 30
0.0
 40
12.0
100
AcDbArc
 50
208.773073
 51
261.471556
  0
LINE
  5
4DF
100
AcDbEntity
  8
LAY-1
  6
CONTINUOUS
 62
     2
100
AcDbLine
 10
168.199016
 20
328.536317
 30
0.0
 11
156.070504
 21
330.355091
 31
0.0
  0
ARC
  5
4E0
100
AcDbEntity
  8
LAY-1
  6
CONTINUOUS
 62
     2
100
AcDbCircle
 10
165.826209
 20
312.713239
 30
0.0
 40
16.0
100
AcDbArc
 50
1.0
 51
81.471556
  0
ARC
  5
4E1
100
AcDbEntity
  8
LAY-1
  6
CONTINUOUS
 62
     2
100
AcDbCircle
 10
176.887622
 20
317.365674
 30
0.0
 40
4.0
100
AcDbArc
 50
22.811642
 51
90.0
  0
LINE
  5
4E2
100
AcDbEntity
  8
LAY-1
  6
CONTINUOUS
 62
     2
100
AcDbLine
 10
182.480551
 20
275.365674
 30
0.0
 11
181.823772
 21
312.992478
 31
0.0
  0
LINE
  5
4E3
100
AcDbEntity
  8
LAY-1
  6
CONTINUOUS
 62
     2
100
AcDbLine
 10
182.480551
 20
275.365674
 30
0.0
 11
203.013176
 21
275.365674
 31
0.0
  0
LINE
  5
4E4
100
AcDbEntity
  8
LAY-1
  6
CONTINUOUS
 62
     2
100
AcDbLine
 10
154.808978
 20
321.365674
 30
0.0
 11
176.887622
 21
321.365674
 31
0.0
  0
LINE
  5
4E5
100
AcDbEntity
  8
LAY-1
  6
CONTINUOUS
 62
     2
100
AcDbLine
 10
153.980551
 20
322.100179
 30
0.0
 11
153.980551
 21
330.863415
 31
0.0
  0
LINE
  5
4E6
100
AcDbEntity
  8
LAY-1
  6
CONTINUOUS
 62
     2
100
AcDbLine
 10
150.980551
 20
319.021335
 30
0.0
 11
150.980551
 21
332.383234
 31
0.0
  0
LINE
  5
4E7
100
AcDbEntity
  8
LAY-1
  6
CONTINUOUS
 62
     2
100
AcDbLine
 10
270.013176
 20
351.365674
 30
0.0
 11
203.013176
 21
351.365674
 31
0.0
  0
LINE
  5
4E8
100
AcDbEntity
  8
LAY-1
  6
CONTINUOUS
 62
     2
100
AcDbLine
 10
223.045801
 20
275.365674
 30
0.0
 11
223.045801
 21
274.365674
 31
0.0
  0
LINE
  5
4E9
100
AcDbEntity
  8
LAY-1
  6
CONTINUOUS
 62
     2
100
AcDbLine
 10
271.513176
 20
339.365674
 30
0.0
 11
203.013176
 21
339.365674
 31
0.0
  0
ARC
  5
4EA
100
AcDbEntity
  8
LAY-1
  6
CONTINUOUS
 62
     2
100
AcDbCircle
 10
271.513176
 20
339.865674
 30
0.0
 40
0.5
100
AcDbArc
 50
270.0
 51
0.0
  0
LINE
  5
4EB
100
AcDbEntity
  8
LAY-1
  6
CONTINUOUS
 62
     2
100
AcDbLine
 10
222.754916
 20
337.228477
 30
0.0
 11
222.754916
 21
339.365674
 31
0.0
  0
LINE
  5
4EC
100
AcDbEntity
  8
LAY-1
  6
CONTINUOUS
 62
     2
100
AcDbLine
 10
232.254916
 20
337.228477
 30
0.0
 11
232.254916
 21
339.365674
 31
0.0
  0
ARC
  5
4ED
100
AcDbEntity
  8
LAY-1
  6
CONTINUOUS
 62
     2
100
AcDbCircle
 10
227.504916
 20
343.665674
 30
0.0
 40
8.0
100
AcDbArc
 50
233.576426
 51
306.423574
  0
ARC
  5
4EE
100
AcDbEntity
  8
LAY-1
  6
CONTINUOUS
 62
     2
100
AcDbCircle
 10
262.141466
 20
343.665674
 30
0.0
 40
8.0
100
AcDbArc
 50
233.576426
 51
306.423574
  0
LINE
  5
4EF
100
AcDbEntity
  8
LAY-1
  6
CONTINUOUS
 62
     2
100
AcDbLine
 10
266.891466
 20
337.228477
 30
0.0
 11
266.891466
 21
339.365674
 31
0.0
  0
LINE
  5
4F0
100
AcDbEntity
  8
LAY-1
  6
CONTINUOUS
 62
     2
100
AcDbLine
 10
257.391466
 20
337.228477
 30
0.0
 11
257.391466
 21
339.365674
 31
0.0
  0
LINE
  5
4F1
100
AcDbEntity
  8
LAY-1
  6
CONTINUOUS
 62
     2
100
AcDbLine
 10
210.676127
 20
398.865674
 30
0.0
 11
203.013176
 21
398.865674
 31
0.0
  0
ARC
  5
4F2
100
AcDbEntity
  8
LAY-1
  6
CONTINUOUS
 62
     2
100
AcDbCircle
 10
210.676127
 20
396.865674
 30
0.0
 40
2.0
100
AcDbArc
 50
45.0
 51
90.0
  0
LINE
  5
4F3
100
AcDbEntity
  8
LAY-1
  6
CONTINUOUS
 62
     2
100
AcDbLine
 10
222.720628
 20
387.6496
 30
0.0
 11
212.09034
 21
398.279887
 31
0.0
  0
ARC
  5
4F4
100
AcDbEntity
  8
LAY-1
  6
CONTINUOUS
 62
     2
100
AcDbCircle
 10
221.306415
 20
386.235386
 30
0.0
 40
2.0
100
AcDbArc
 50
1.5
 51
45.0
  0
LINE
  5
4F5
100
AcDbEntity
  8
LAY-1
  6
CONTINUOUS
 62
     2
100
AcDbLine
 10
272.013176
 20
345.365674
 30
0.0
 11
203.013176
 21
345.365674
 31
0.0
  0
ARC
  5
4F6
100
AcDbEntity
  8
LAY-1
  6
CONTINUOUS
 62
     2
100
AcDbCircle
 10
270.013176
 20
349.365674
 30
0.0
 40
2.0
100
AcDbArc
 50
0.0
 51
90.0
  0
LINE
  5
4F7
100
AcDbEntity
  8
LAY-1
  6
CONTINUOUS
 62
     2
100
AcDbLine
 10
224.092694
 20
356.234789
 30
0.0
 11
223.305729
 21
386.28774
 31
0.0
  0
ARC
  5
4F8
100
AcDbEntity
  8
LAY-1
  6
CONTINUOUS
 62
     2
100
AcDbCircle
 10
229.09098
 20
356.365674
 30
0.0
 40
5.0
100
AcDbArc
 50
181.5
 51
270.0
  0
ARC
  5
4F9
100
AcDbEntity
  8
LAY-1
  6
CONTINUOUS
 62
     2
100
AcDbCircle
 10
263.874392
 20
354.365674
 30
0.0
 40
3.0
100
AcDbArc
 50
240.0
 51
270.0
  0
LINE
  5
4FA
100
AcDbEntity
  8
LAY-1
  6
CONTINUOUS
 62
     2
100
AcDbLine
 10
262.374392
 20
351.767598
 30
0.0
 11
242.693025
 21
363.13064
 31
0.0
  0
ARC
  5
4FB
100
AcDbEntity
  8
LAY-1
  6
CONTINUOUS
 62
     2
100
AcDbCircle
 10
245.193025
 20
367.460767
 30
0.0
 40
5.0
100
AcDbArc
 50
181.0
 51
240.0
  0
ARC
  5
4FC
100
AcDbEntity
  8
LAY-1
  6
CONTINUOUS
 62
     2
100
AcDbCircle
 10
239.606443
 20
353.365674
 30
0.0
 40
10.0
100
AcDbArc
 50
60.0
 51
90.0
  0
LINE
  5
4FD
100
AcDbEntity
  8
LAY-1
  6
CONTINUOUS
 62
     2
100
AcDbLine
 10
239.606443
 20
363.365674
 30
0.0
 11
223.905965
 21
363.365674
 31
0.0
  0
LINE
  5
4FE
100
AcDbEntity
  8
LAY-1
  6
CONTINUOUS
 62
     2
100
AcDbLine
 10
239.513176
 20
406.365674
 30
0.0
 11
240.193787
 21
367.373505
 31
0.0
  0
ARC
  5
4FF
100
AcDbEntity
  8
LAY-1
  6
CONTINUOUS
 62
     2
100
AcDbCircle
 10
203.013176
 20
378.365674
 30
0.0
 40
12.020063
100
AcDbArc
 50
270.0
 51
90.0
  0
LINE
  5
500
100
AcDbEntity
  8
LAY-1
  6
CONTINUOUS
 62
     2
100
AcDbLine
 10
211.593626
 20
411.365674
 30
0.0
 11
203.013176
 21
411.365674
 31
0.0
  0
ARC
  5
501
100
AcDbEntity
  8
LAY-1
  6
CONTINUOUS
 62
     2
100
AcDbCircle
 10
211.593626
 20
408.865674
 30
0.0
 40
2.5
100
AcDbArc
 50
10.0
 51
90.0
  0
ARC
  5
502
100
AcDbEntity
  8
LAY-1
  6
CONTINUOUS
 62
     2
100
AcDbCircle
 10
214.639906
 20
408.865674
 30
0.0
 40
0.5
100
AcDbArc
 50
190.0
 51
270.0
  0
LINE
  5
503
100
AcDbEntity
  8
LAY-1
  6
CONTINUOUS
 62
     2
100
AcDbLine
 10
214.147502
 20
408.77885
 30
0.0
 11
214.055645
 21
409.299794
 31
0.0
  0
LINE
  5
504
100
AcDbEntity
  8
LAY-1
  6
CONTINUOUS
 62
     2
100
AcDbLine
 10
239.513176
 20
406.365674
 30
0.0
 11
203.013176
 21
406.365674
 31
0.0
  0
LINE
  5
505
100
AcDbEntity
  8
LAY-1
  6
CONTINUOUS
 62
     2
100
AcDbLine
 10
203.013176
 20
408.365674
 30
0.0
 11
239.513176
 21
408.365674
 31
0.0
  0
LINE
  5
506
100
AcDbEntity
  8
LAY-1
  6
CONTINUOUS
 62
     2
100
AcDbLine
 10
220.53704
 20
409.694839
 30
0.0
 11
220.53704
 21
408.365674
 31
0.0
  0
ARC
  5
507
100
AcDbEntity
  8
LAY-1
  6
CONTINUOUS
 62
     2
100
AcDbCircle
 10
225.28704
 20
404.065674
 30
0.0
 40
8.0
100
AcDbArc
 50
90.0
 51
120.0
  0
ARC
  5
508
100
AcDbEntity
  8
LAY-1
  6
CONTINUOUS
 62
     2
100
AcDbCircle
 10
222.03704
 20
409.694839
 30
0.0
 40
1.5
100
AcDbArc
 50
120.0
 51
180.0
  0
LINE
  5
509
100
AcDbEntity
  8
LAY-1
  6
CONTINUOUS
 62
     2
100
AcDbLine
 10
230.03704
 20
409.694839
 30
0.0
 11
230.03704
 21
408.365674
 31
0.0
  0
ARC
  5
50A
100
AcDbEntity
  8
LAY-1
  6
CONTINUOUS
 62
     2
100
AcDbCircle
 10
225.28704
 20
404.065674
 30
0.0
 40
8.0
100
AcDbArc
 50
60.0
 51
90.0
  0
ARC
  5
50B
100
AcDbEntity
  8
LAY-1
  6
CONTINUOUS
 62
     2
100
AcDbCircle
 10
228.53704
 20
409.694839
 30
0.0
 40
1.5
100
AcDbArc
 50
0.0
 51
60.0
  0
LINE
  5
50C
100
AcDbEntity
  8
LAY-1
  6
CONTINUOUS
 62
     2
100
AcDbLine
 10
239.513176
 20
408.365674
 30
0.0
 11
239.513176
 21
406.365674
 31
0.0
  0
ARC
  5
50D
100
AcDbEntity
  8
LAY-1
  6
CONTINUOUS
 62
     2
100
AcDbCircle
 10
248.176243
 20
342.2224
 30
0.0
 40
12.0
100
AcDbArc
 50
278.528444
 51
331.226927
  0
LINE
  5
50E
100
AcDbEntity
  8
LAY-1
  6
CONTINUOUS
 62
     2
100
AcDbLine
 10
237.827336
 20
328.536317
 30
0.0
 11
249.955848
 21
330.355091
 31
0.0
  0
ARC
  5
50F
100
AcDbEntity
  8
LAY-1
  6
CONTINUOUS
 62
     2
100
AcDbCircle
 10
240.200142
 20
312.713239
 30
0.0
 40
16.0
100
AcDbArc
 50
98.528444
 51
179.0
  0
LINE
  5
510
100
AcDbEntity
  8
LAY-1
  6
CONTINUOUS
 62
     2
100
AcDbLine
 10
223.545801
 20
275.365674
 30
0.0
 11
224.202579
 21
312.992478
 31
0.0
  0
LINE
  5
511
100
AcDbEntity
  8
LAY-1
  6
CONTINUOUS
 62
     2
100
AcDbLine
 10
223.545801
 20
275.365674
 30
0.0
 11
203.013176
 21
275.365674
 31
0.0
  0
LINE
  5
512
100
AcDbEntity
  8
LAY-1
  6
CONTINUOUS
 62
     2
100
AcDbLine
 10
272.013176
 20
349.365674
 30
0.0
 11
272.013176
 21
339.865674
 31
0.0
  0
LINE
  5
513
100
AcDbEntity
  8
LAY-1
  6
CONTINUOUS
 62
     2
100
AcDbLine
 10
203.013176
 20
265.865674
 30
0.0
 11
223.513176
 21
265.865674
 31
0.0
  0
LINE
  5
514
100
AcDbEntity
  8
LAY-1
  6
CONTINUOUS
 62
     2
100
AcDbLine
 10
223.513176
 20
274.365674
 30
0.0
 11
203.013176
 21
274.365674
 31
0.0
  0
LINE
  5
515
100
AcDbEntity
  8
LAY-1
  6
CONTINUOUS
 62
     2
100
AcDbLine
 10
223.513176
 20
265.865674
 30
0.0
 11
225.513176
 21
267.020374
 31
0.0
  0
LINE
  5
516
100
AcDbEntity
  8
LAY-1
  6
CONTINUOUS
 62
     2
100
AcDbLine
 10
223.513176
 20
274.365674
 30
0.0
 11
225.513176
 21
273.210973
 31
0.0
  0
LINE
  5
517
100
AcDbEntity
  8
LAY-1
  6
CONTINUOUS
 62
     2
100
AcDbLine
 10
225.513176
 20
267.020374
 30
0.0
 11
225.513176
 21
273.210973
 31
0.0
  0
LINE
  5
518
100
AcDbEntity
  8
LAY-1
  6
CONTINUOUS
 62
     2
100
AcDbLine
 10
214.471676
 20
265.865674
 30
0.0
 11
217.013176
 21
265.865674
 31
0.0
  0
LINE
  5
519
100
AcDbEntity
  8
LAY-1
  6
CONTINUOUS
 62
     2
100
AcDbLine
 10
203.013176
 20
265.865674
 30
0.0
 11
216.513176
 21
265.865674
 31
0.0
  0
ARC
  5
51A
100
AcDbEntity
  8
LAY-1
  6
CONTINUOUS
 62
     2
100
AcDbCircle
 10
203.013176
 20
360.865674
 30
0.0
 40
100.0
100
AcDbArc
 50
270.0
 51
277.54548
  0
LINE
  5
51B
100
AcDbEntity
  8
LAY-1
  6
CONTINUOUS
 62
     2
100
AcDbLine
 10
217.013176
 20
262.722921
 30
0.0
 11
217.013176
 21
265.865674
 31
0.0
  0
ARC
  5
51C
100
AcDbEntity
  8
LAY-1
  6
CONTINUOUS
 62
     2
100
AcDbCircle
 10
216.013176
 20
262.722921
 30
0.0
 40
1.0
100
AcDbArc
 50
277.54548
 51
0.0
  0
LINE
  5
51D
100
AcDbEntity
  8
LAY-1
  6
CONTINUOUS
 62
     2
100
AcDbLine
 10
214.471676
 20
265.865674
 30
0.0
 11
217.013176
 21
265.865674
 31
0.0
  0
LINE
  5
51E
100
AcDbEntity
  8
LAY-1
  6
CONTINUOUS
 62
     2
100
AcDbLine
 10
204.013176
 20
261.865674
 30
0.0
 11
204.013176
 21
265.865674
 31
0.0
  0
LINE
  5
51F
100
AcDbEntity
  8
LAY-1
  6
CONTINUOUS
 62
     2
100
AcDbLine
 10
208.878607
 20
262.865674
 30
0.0
 11
208.878607
 21
265.865674
 31
0.0
  0
ARC
  5
520
100
AcDbEntity
  8
LAY-1
  6
CONTINUOUS
 62
     2
100
AcDbCircle
 10
207.878607
 20
262.865674
 30
0.0
 40
1.0
100
AcDbArc
 50
270.0
 51
0.0
  0
LINE
  5
521
100
AcDbEntity
  8
LAY-1
  6
CONTINUOUS
 62
     2
100
AcDbLine
 10
209.129271
 20
262.865674
 30
0.0
 11
209.129271
 21
265.865674
 31
0.0
  0
ARC
  5
522
100
AcDbEntity
  8
LAY-1
  6
CONTINUOUS
 62
     2
100
AcDbCircle
 10
208.129271
 20
262.865674
 30
0.0
 40
1.0
100
AcDbArc
 50
270.0
 51
0.0
  0
LINE
  5
523
100
AcDbEntity
  8
LAY-1
  6
CONTINUOUS
 62
     2
100
AcDbLine
 10
210.861321
 20
262.865674
 30
0.0
 11
210.861321
 21
265.865674
 31
0.0
  0
ARC
  5
524
100
AcDbEntity
  8
LAY-1
  6
CONTINUOUS
 62
     2
100
AcDbCircle
 10
209.861321
 20
262.865674
 30
0.0
 40
1.0
100
AcDbArc
 50
270.0
 51
0.0
  0
LINE
  5
525
100
AcDbEntity
  8
LAY-1
  6
CONTINUOUS
 62
     2
100
AcDbLine
 10
214.1724
 20
262.865674
 30
0.0
 11
214.1724
 21
265.865674
 31
0.0
  0
ARC
  5
526
100
AcDbEntity
  8
LAY-1
  6
CONTINUOUS
 62
     2
100
AcDbCircle
 10
213.1724
 20
262.865674
 30
0.0
 40
1.0
100
AcDbArc
 50
270.0
 51
0.0
  0
LINE
  5
527
100
AcDbEntity
  8
LAY-1
  6
CONTINUOUS
 62
     2
100
AcDbLine
 10
214.606563
 20
262.865674
 30
0.0
 11
214.606563
 21
265.865674
 31
0.0
  0
ARC
  5
528
100
AcDbEntity
  8
LAY-1
  6
CONTINUOUS
 62
     2
100
AcDbCircle
 10
213.606563
 20
262.865674
 30
0.0
 40
1.0
100
AcDbArc
 50
270.0
 51
0.0
  0
LINE
  5
529
100
AcDbEntity
  8
LAY-1
  6
CONTINUOUS
 62
     2
100
AcDbLine
 10
215.606563
 20
262.865674
 30
0.0
 11
215.606563
 21
265.865674
 31
0.0
  0
ARC
  5
52A
100
AcDbEntity
  8
LAY-1
  6
CONTINUOUS
 62
     2
100
AcDbCircle
 10
214.606563
 20
262.865674
 30
0.0
 40
1.0
100
AcDbArc
 50
270.0
 51
0.0
  0
LINE
  5
52B
100
AcDbEntity
  8
LAY-1
  6
CONTINUOUS
 62
     2
100
AcDbLine
 10
216.476088
 20
262.865674
 30
0.0
 11
216.476088
 21
265.865674
 31
0.0
  0
ARC
  5
52C
100
AcDbEntity
  8
LAY-1
  6
CONTINUOUS
 62
     2
100
AcDbCircle
 10
215.476088
 20
262.865674
 30
0.0
 40
1.0
100
AcDbArc
 50
270.0
 51
0.0
  0
LINE
  5
52D
100
AcDbEntity
  8
LAY-1
  6
CONTINUOUS
 62
     2
100
AcDbLine
 10
207.878607
 20
261.865674
 30
0.0
 11
208.129271
 21
261.865674
 31
0.0
  0
LINE
  5
52E
100
AcDbEntity
  8
LAY-1
  6
CONTINUOUS
 62
     2
100
AcDbLine
 10
213.1724
 20
261.865674
 30
0.0
 11
213.606563
 21
261.865674
 31
0.0
  0
LINE
  5
52F
100
AcDbEntity
  8
LAY-1
  6
CONTINUOUS
 62
     2
100
AcDbLine
 10
216.129887
 20
267.020374
 30
0.0
 11
212.286794
 21
267.020374
 31
0.0
  0
LINE
  5
530
100
AcDbEntity
  8
LAY-1
  6
CONTINUOUS
 62
     2
100
AcDbLine
 10
216.129887
 20
273.210973
 30
0.0
 11
212.286794
 21
273.210973
 31
0.0
  0
LINE
  5
531
100
AcDbEntity
  8
LAY-1
  6
CONTINUOUS
 62
     2
100
AcDbLine
 10
212.286794
 20
273.210973
 30
0.0
 11
212.286794
 21
267.020374
 31
0.0
  0
LINE
  5
532
100
AcDbEntity
  8
LAY-1
  6
CONTINUOUS
 62
     2
100
AcDbLine
 10
216.129887
 20
273.210973
 30
0.0
 11
216.129887
 21
267.020374
 31
0.0
  0
ARC
  5
533
100
AcDbEntity
  8
LAY-1
  6
CONTINUOUS
 62
     2
100
AcDbCircle
 10
220.821532
 20
275.970658
 30
0.0
 40
10.105399
100
AcDbArc
 50
242.336945
 51
297.663055
  0
ARC
  5
534
100
AcDbEntity
  8
LAY-1
  6
CONTINUOUS
 62
     2
100
AcDbCircle
 10
220.821532
 20
264.272957
 30
0.0
 40
10.094536
100
AcDbArc
 50
62.30462
 51
117.69538
  0
ARC
  5
535
100
AcDbEntity
  8
LAY-1
  6
CONTINUOUS
 62
     2
100
AcDbCircle
 10
203.013176
 20
303.682116
 30
0.0
 40
37.816443
100
AcDbArc
 50
270.0
 51
284.195258
  0
ARC
  5
536
100
AcDbEntity
  8
LAY-1
  6
CONTINUOUS
 62
     2
100
AcDbCircle
 10
203.013176
 20
236.549231
 30
0.0
 40
37.816443
100
AcDbArc
 50
75.804742
 51
90.0
  0
LINE
  5
537
100
AcDbEntity
  8
LAY-1
  6
CONTINUOUS
 62
     2
100
AcDbLine
 10
203.013176
 20
265.865674
 30
0.0
 11
182.513176
 21
265.865674
 31
0.0
  0
LINE
  5
538
100
AcDbEntity
  8
LAY-1
  6
CONTINUOUS
 62
     2
100
AcDbLine
 10
182.513176
 20
274.365674
 30
0.0
 11
203.013176
 21
274.365674
 31
0.0
  0
LINE
  5
539
100
AcDbEntity
  8
LAY-1
  6
CONTINUOUS
 62
     2
100
AcDbLine
 10
182.513176
 20
265.865674
 30
0.0
 11
180.513176
 21
267.020374
 31
0.0
  0
LINE
  5
53A
100
AcDbEntity
  8
LAY-1
  6
CONTINUOUS
 62
     2
100
AcDbLine
 10
182.513176
 20
274.365674
 30
0.0
 11
180.513176
 21
273.210973
 31
0.0
  0
LINE
  5
53B
100
AcDbEntity
  8
LAY-1
  6
CONTINUOUS
 62
     2
100
AcDbLine
 10
180.513176
 20
267.020374
 30
0.0
 11
180.513176
 21
273.210973
 31
0.0
  0
LINE
  5
53C
100
AcDbEntity
  8
LAY-1
  6
CONTINUOUS
 62
     2
100
AcDbLine
 10
191.554676
 20
265.865674
 30
0.0
 11
189.013176
 21
265.865674
 31
0.0
  0
LINE
  5
53D
100
AcDbEntity
  8
LAY-1
  6
CONTINUOUS
 62
     2
100
AcDbLine
 10
203.013176
 20
265.865674
 30
0.0
 11
189.513176
 21
265.865674
 31
0.0
  0
ARC
  5
53E
100
AcDbEntity
  8
LAY-1
  6
CONTINUOUS
 62
     2
100
AcDbCircle
 10
203.013176
 20
360.865674
 30
0.0
 40
100.0
100
AcDbArc
 50
262.45452
 51
270.0
  0
LINE
  5
53F
100
AcDbEntity
  8
LAY-1
  6
CONTINUOUS
 62
     2
100
AcDbLine
 10
189.013176
 20
262.722921
 30
0.0
 11
189.013176
 21
265.865674
 31
0.0
  0
ARC
  5
540
100
AcDbEntity
  8
LAY-1
  6
CONTINUOUS
 62
     2
100
AcDbCircle
 10
190.013176
 20
262.722921
 30
0.0
 40
1.0
100
AcDbArc
 50
180.0
 51
262.45452
  0
LINE
  5
541
100
AcDbEntity
  8
LAY-1
  6
CONTINUOUS
 62
     2
100
AcDbLine
 10
191.554676
 20
265.865674
 30
0.0
 11
189.013176
 21
265.865674
 31
0.0
  0
LINE
  5
542
100
AcDbEntity
  8
LAY-1
  6
CONTINUOUS
 62
     2
100
AcDbLine
 10
202.013176
 20
261.865674
 30
0.0
 11
202.013176
 21
265.865674
 31
0.0
  0
LINE
  5
543
100
AcDbEntity
  8
LAY-1
  6
CONTINUOUS
 62
     2
100
AcDbLine
 10
197.147745
 20
262.865674
 30
0.0
 11
197.147745
 21
265.865674
 31
0.0
  0
ARC
  5
544
100
AcDbEntity
  8
LAY-1
  6
CONTINUOUS
 62
     2
100
AcDbCircle
 10
198.147745
 20
262.865674
 30
0.0
 40
1.0
100
AcDbArc
 50
180.0
 51
270.0
  0
LINE
  5
545
100
AcDbEntity
  8
LAY-1
  6
CONTINUOUS
 62
     2
100
AcDbLine
 10
196.897081
 20
262.865674
 30
0.0
 11
196.897081
 21
265.865674
 31
0.0
  0
ARC
  5
546
100
AcDbEntity
  8
LAY-1
  6
CONTINUOUS
 62
     2
100
AcDbCircle
 10
197.897081
 20
262.865674
 30
0.0
 40
1.0
100
AcDbArc
 50
180.0
 51
270.0
  0
LINE
  5
547
100
AcDbEntity
  8
LAY-1
  6
CONTINUOUS
 62
     2
100
AcDbLine
 10
195.16503
 20
262.865674
 30
0.0
 11
195.16503
 21
265.865674
 31
0.0
  0
ARC
  5
548
100
AcDbEntity
  8
LAY-1
  6
CONTINUOUS
 62
     2
100
AcDbCircle
 10
196.16503
 20
262.865674
 30
0.0
 40
1.0
100
AcDbArc
 50
180.0
 51
270.0
  0
LINE
  5
549
100
AcDbEntity
  8
LAY-1
  6
CONTINUOUS
 62
     2
100
AcDbLine
 10
191.853952
 20
262.865674
 30
0.0
 11
191.853952
 21
265.865674
 31
0.0
  0
ARC
  5
54A
100
AcDbEntity
  8
LAY-1
  6
CONTINUOUS
 62
     2
100
AcDbCircle
 10
192.853952
 20
262.865674
 30
0.0
 40
1.0
100
AcDbArc
 50
180.0
 51
270.0
  0
LINE
  5
54B
100
AcDbEntity
  8
LAY-1
  6
CONTINUOUS
 62
     2
100
AcDbLine
 10
191.419789
 20
262.865674
 30
0.0
 11
191.419789
 21
265.865674
 31
0.0
  0
ARC
  5
54C
100
AcDbEntity
  8
LAY-1
  6
CONTINUOUS
 62
     2
100
AcDbCircle
 10
192.419789
 20
262.865674
 30
0.0
 40
1.0
100
AcDbArc
 50
180.0
 51
270.0
  0
LINE
  5
54D
100
AcDbEntity
  8
LAY-1
  6
CONTINUOUS
 62
     2
100
AcDbLine
 10
190.419789
 20
262.865674
 30
0.0
 11
190.419789
 21
265.865674
 31
0.0
  0
ARC
  5
54E
100
AcDbEntity
  8
LAY-1
  6
CONTINUOUS
 62
     2
100
AcDbCircle
 10
191.419789
 20
262.865674
 30
0.0
 40
1.0
100
AcDbArc
 50
180.0
 51
270.0
  0
LINE
  5
54F
100
AcDbEntity
  8
LAY-1
  6
CONTINUOUS
 62
     2
100
AcDbLine
 10
189.550264
 20
262.865674
 30
0.0
 11
189.550264
 21
265.865674
 31
0.0
  0
ARC
  5
550
100
AcDbEntity
  8
LAY-1
  6
CONTINUOUS
 62
     2
100
AcDbCircle
 10
190.550264
 20
262.865674
 30
0.0
 40
1.0
100
AcDbArc
 50
180.0
 51
270.0
  0
LINE
  5
551
100
AcDbEntity
  8
LAY-1
  6
CONTINUOUS
 62
     2
100
AcDbLine
 10
198.147745
 20
261.865674
 30
0.0
 11
197.897081
 21
261.865674
 31
0.0
  0
LINE
  5
552
100
AcDbEntity
  8
LAY-1
  6
CONTINUOUS
 62
     2
100
AcDbLine
 10
192.853952
 20
261.865674
 30
0.0
 11
192.419789
 21
261.865674
 31
0.0
  0
LINE
  5
553
100
AcDbEntity
  8
LAY-1
  6
CONTINUOUS
 62
     2
100
AcDbLine
 10
189.896464
 20
267.020374
 30
0.0
 11
193.739557
 21
267.020374
 31
0.0
  0
LINE
  5
554
100
AcDbEntity
  8
LAY-1
  6
CONTINUOUS
 62
     2
100
AcDbLine
 10
189.896464
 20
273.210973
 30
0.0
 11
193.739557
 21
273.210973
 31
0.0
  0
LINE
  5
555
100
AcDbEntity
  8
LAY-1
  6
CONTINUOUS
 62
     2
100
AcDbLine
 10
193.739557
 20
273.210973
 30
0.0
 11
193.739557
 21
267.020374
 31
0.0
  0
LINE
  5
556
100
AcDbEntity
  8
LAY-1
  6
CONTINUOUS
 62
     2
100
AcDbLine
 10
189.896464
 20
273.210973
 30
0.0
 11
189.896464
 21
267.020374
 31
0.0
  0
ARC
  5
557
100
AcDbEntity
  8
LAY-1
  6
CONTINUOUS
 62
     2
100
AcDbCircle
 10
185.20482
 20
275.970658
 30
0.0
 40
10.105399
100
AcDbArc
 50
242.336945
 51
297.663055
  0
ARC
  5
558
100
AcDbEntity
  8
LAY-1
  6
CONTINUOUS
 62
     2
100
AcDbCircle
 10
185.20482
 20
264.272957
 30
0.0
 40
10.094536
100
AcDbArc
 50
62.30462
 51
117.69538
  0
ARC
  5
559
100
AcDbEntity
  8
LAY-1
  6
CONTINUOUS
 62
     2
100
AcDbCircle
 10
203.013176
 20
303.682116
 30
0.0
 40
37.816443
100
AcDbArc
 50
255.804742
 51
270.0
  0
ARC
  5
55A
100
AcDbEntity
  8
LAY-1
  6
CONTINUOUS
 62
     2
100
AcDbCircle
 10
203.013176
 20
236.549231
 30
0.0
 40
37.816443
100
AcDbArc
 50
90.0
 51
104.195258
  0
CIRCLE
  5
55B
100
AcDbEntity
  8
LAY-1
  6
CONTINUOUS
 62
     1
100
AcDbCircle
 10
17.513176
 20
141.865674
 30
0.0
 40
6.5785
  0
LINE
  5
55C
100
AcDbEntity
  8
LAY-1
  6
EXLTYPE3
 62
     1
100
AcDbLine
 10
8.013176
 20
141.865674
 30
0.0
 11
26.413176
 21
141.865674
 31
0.0
  0
LINE
  5
55D
100
AcDbEntity
  8
LAY-1
  6
EXLTYPE3
 62
     1
100
AcDbLine
 10
17.513176
 20
174.365674
 30
0.0
 11
17.513176
 21
151.265674
 31
0.0
  0
LINE
  5
55E
100
AcDbEntity
  8
LAY-1
  6
EXLTYPE3
 62
     1
100
AcDbLine
 10
17.513176
 20
149.265674
 30
0.0
 11
17.513176
 21
133.865674
 31
0.0
  0
LINE
  5
55F
100
AcDbEntity
  8
LAY-1
  6
EXLTYPE3
 62
     1
100
AcDbLine
 10
17.513176
 20
132.165674
 30
0.0
 11
17.513176
 21
113.865674
 31
0.0
  0
LINE
  5
560
100
AcDbEntity
  8
LAY-1
  6
CONTINUOUS
 62
     2
100
AcDbLine
 10
69.513176
 20
162.365674
 30
0.0
 11
31.886372
 21
163.022452
 31
0.0
  0
CIRCLE
  5
561
100
AcDbEntity
  8
LAY-1
  6
CONTINUOUS
 62
     2
100
AcDbCircle
 10
17.513176
 20
141.865674
 30
0.0
 40
5.694886
  0
TEXT
  5
562
100
AcDbEntity
  8
LAY-1
  6
CONTINUOUS
 62
     3
100
AcDbText
 10
362.227576
 20
-96.046326
 30
0.0
 40
8.0
  1
ＳＧＸ－２０ＮＺＴ
 41
0.84
  7
EXCADSTD
 72
     5
 11
434.227576
 21
-96.046326
 31
0.0
100
AcDbText
  0
TEXT
  5
563
100
AcDbEntity
  8
LAY-1
  6
CONTINUOUS
 62
     3
100
AcDbText
 10
362.814776
 20
-107.207926
 30
0.0
 40
8.0
  1
均圧弁（外部調整タイプ）
 41
0.84
  7
EXCADSTD
 72
     5
 11
458.814776
 21
-107.207926
 31
0.0
100
AcDbText
  0
LINE
  5
564
100
AcDbEntity
  8
LAY-1
  6
CONTINUOUS
 62
     3
100
AcDbLine
 10
232.45804
 20
158.865674
 30
0.0
 11
233.05804
 21
157.826443
 31
0.0
  0
LINE
  5
565
100
AcDbEntity
  8
LAY-1
  6
CONTINUOUS
 62
     3
100
AcDbLine
 10
233.05804
 20
125.904904
 30
0.0
 11
232.45804
 21
124.865674
 31
0.0
  0
LINE
  5
566
100
AcDbEntity
  8
LAY-1
  6
CONTINUOUS
 62
     3
100
AcDbLine
 10
234.15633
 20
128.171682
 30
0.0
 11
233.620559
 21
126.699664
 31
0.0
  0
POLYLINE
  5
567
100
AcDbEntity
  8
LAY-3
  6
CONTINUOUS
 62
     1
100
AcDb2dPolyline
 66
     1
 10
0.0
 20
0.0
 30
0.0
 70
   128
  0
VERTEX
  5
568
100
AcDbEntity
  8
LAY-3
  6
CONTINUOUS
 62
     1
100
AcDbVertex
100
AcDb2dVertex
 10
-31.3
 20
197.865674
 30
0.0
  0
VERTEX
  5
569
100
AcDbEntity
  8
LAY-3
  6
CONTINUOUS
 62
     1
100
AcDbVertex
100
AcDb2dVertex
 10
-5.165674
 20
224.0
 30
0.0
  0
VERTEX
  5
56A
100
AcDbEntity
  8
LAY-3
  6
CONTINUOUS
 62
     1
100
AcDbVertex
100
AcDb2dVertex
 10
42.167163
 20
224.0
 30
0.0
  0
SEQEND
  5
56B
100
AcDbEntity
  8
LAY-3
  6
CONTINUOUS
 62
     1
  0
LINE
  5
56C
100
AcDbEntity
  8
LAY-3
  6
CONTINUOUS
 62
     1
100
AcDbLine
 10
-28.942977
 20
201.165506
 30
0.0
 11
-31.3
 21
197.865674
 31
0.0
  0
LINE
  5
56D
100
AcDbEntity
  8
LAY-3
  6
CONTINUOUS
 62
     1
100
AcDbLine
 10
-31.3
 20
197.865674
 30
0.0
 11
-28.000168
 21
200.222696
 31
0.0
  0
TEXT
  5
56E
100
AcDbEntity
  8
LAY-3
  6
CONTINUOUS
 62
     3
100
AcDbText
 10
-6.499255
 20
224.3
 30
0.0
 40
10.0
  1
Ｒｃ３／４
 41
0.84
  7
EXCADSTD
 72
     5
 11
43.500745
 21
224.3
 31
0.0
100
AcDbText
  0
LINE
  5
56F
100
AcDbEntity
  8
LAY-3
  6
CONTINUOUS
 62
     2
100
AcDbLine
 10
-38.486824
 20
212.865674
 30
0.0
 11
-35.486824
 21
212.865674
 31
0.0
  0
LINE
  5
570
100
AcDbEntity
  8
LAY-3
  6
CONTINUOUS
 62
     2
100
AcDbLine
 10
-33.486824
 20
217.865674
 30
0.0
 11
-38.486824
 21
212.865674
 31
0.0
  0
LINE
  5
571
100
AcDbEntity
  8
LAY-3
  6
CONTINUOUS
 62
     2
100
AcDbLine
 10
-28.486824
 20
212.865674
 30
0.0
 11
-33.486824
 21
217.865674
 31
0.0
  0
LINE
  5
572
100
AcDbEntity
  8
LAY-3
  6
CONTINUOUS
 62
     2
100
AcDbLine
 10
-31.486824
 20
212.865674
 30
0.0
 11
-28.486824
 21
212.865674
 31
0.0
  0
LINE
  5
573
100
AcDbEntity
  8
LAY-3
  6
CONTINUOUS
 62
     2
100
AcDbLine
 10
-31.486824
 20
202.865674
 30
0.0
 11
-31.486824
 21
212.865674
 31
0.0
  0
LINE
  5
574
100
AcDbEntity
  8
LAY-3
  6
CONTINUOUS
 62
     2
100
AcDbLine
 10
-35.486824
 20
212.865674
 30
0.0
 11
-35.486824
 21
202.865674
 31
0.0
  0
LINE
  5
575
100
AcDbEntity
  8
LAY-3
  6
CONTINUOUS
 62
     2
100
AcDbLine
 10
-35.486824
 20
202.865674
 30
0.0
 11
-31.486824
 21
202.865674
 31
0.0
  0
LINE
  5
576
100
AcDbEntity
  8
LAY-3
  6
CONTINUOUS
 62
     1
100
AcDbLine
 10
-51.986824
 20
197.865674
 30
0.0
 11
-80.5
 21
197.865674
 31
0.0
  0
LINE
  5
577
100
AcDbEntity
  8
LAY-3
  6
CONTINUOUS
 62
     1
100
AcDbLine
 10
-51.986824
 20
85.865674
 30
0.0
 11
-80.5
 21
85.865674
 31
0.0
  0
TEXT
  5
578
100
AcDbEntity
  8
LAY-3
  6
CONTINUOUS
 62
     3
100
AcDbText
 10
-81.0
 20
126.865674
 30
0.0
 40
10.0
  1
１１２
 50
90.0
 41
0.84
  7
EXCADSTD
 72
     5
 11
-81.0
 21
156.865674
 31
0.0
100
AcDbText
  0
LINE
  5
579
100
AcDbEntity
  8
LAY-3
  6
CONTINUOUS
 62
     1
100
AcDbLine
 10
-80.0
 20
197.865674
 30
0.0
 11
-80.0
 21
85.865674
 31
0.0
  0
LINE
  5
57A
100
AcDbEntity
  8
LAY-3
  6
CONTINUOUS
 62
     1
100
AcDbLine
 10
-79.333333
 20
193.865674
 30
0.0
 11
-80.0
 21
197.865674
 31
0.0
  0
LINE
  5
57B
100
AcDbEntity
  8
LAY-3
  6
CONTINUOUS
 62
     1
100
AcDbLine
 10
-80.0
 20
197.865674
 30
0.0
 11
-80.666667
 21
193.865674
 31
0.0
  0
LINE
  5
57C
100
AcDbEntity
  8
LAY-3
  6
CONTINUOUS
 62
     1
100
AcDbLine
 10
-80.666667
 20
89.865674
 30
0.0
 11
-80.0
 21
85.865674
 31
0.0
  0
LINE
  5
57D
100
AcDbEntity
  8
LAY-3
  6
CONTINUOUS
 62
     1
100
AcDbLine
 10
-80.0
 20
85.865674
 30
0.0
 11
-79.333333
 21
89.865674
 31
0.0
  0
LINE
  5
57E
100
AcDbEntity
  8
LAY-3
  6
CONTINUOUS
 62
     1
100
AcDbLine
 10
-67.186824
 20
164.139537
 30
0.0
 11
-67.186824
 21
31.5
 31
0.0
  0
LINE
  5
57F
100
AcDbEntity
  8
LAY-3
  6
CONTINUOUS
 62
     1
100
AcDbLine
 10
-33.486824
 20
80.865674
 30
0.0
 11
-33.486824
 21
31.5
 31
0.0
  0
TEXT
  5
580
100
AcDbEntity
  8
LAY-3
  6
CONTINUOUS
 62
     3
100
AcDbText
 10
-67.836824
 20
33.0
 30
0.0
 40
10.0
  1
３３.７
 41
0.77
  7
EXCADSTD
 72
     5
 11
-32.836824
 21
33.0
 31
0.0
100
AcDbText
  0
LINE
  5
581
100
AcDbEntity
  8
LAY-3
  6
CONTINUOUS
 62
     1
100
AcDbLine
 10
-67.186824
 20
32.0
 30
0.0
 11
-33.486824
 21
32.0
 31
0.0
  0
LINE
  5
582
100
AcDbEntity
  8
LAY-3
  6
CONTINUOUS
 62
     1
100
AcDbLine
 10
-63.186824
 20
32.666667
 30
0.0
 11
-67.186824
 21
32.0
 31
0.0
  0
LINE
  5
583
100
AcDbEntity
  8
LAY-3
  6
CONTINUOUS
 62
     1
100
AcDbLine
 10
-67.186824
 20
32.0
 30
0.0
 11
-63.186824
 21
31.333333
 31
0.0
  0
LINE
  5
584
100
AcDbEntity
  8
LAY-3
  6
CONTINUOUS
 62
     1
100
AcDbLine
 10
-37.486824
 20
31.333333
 30
0.0
 11
-33.486824
 21
32.0
 31
0.0
  0
LINE
  5
585
100
AcDbEntity
  8
LAY-3
  6
CONTINUOUS
 62
     1
100
AcDbLine
 10
-33.486824
 20
32.0
 30
0.0
 11
-37.486824
 21
32.666667
 31
0.0
  0
LINE
  5
586
100
AcDbEntity
  8
LAY-3
  6
CONTINUOUS
 62
     1
100
AcDbLine
 10
-33.486824
 20
80.865674
 30
0.0
 11
-33.486824
 21
31.5
 31
0.0
  0
LINE
  5
587
100
AcDbEntity
  8
LAY-3
  6
CONTINUOUS
 62
     1
100
AcDbLine
 10
84.013176
 20
141.865674
 30
0.0
 11
84.013176
 21
31.5
 31
0.0
  0
TEXT
  5
588
100
AcDbEntity
  8
LAY-3
  6
CONTINUOUS
 62
     3
100
AcDbText
 10
2.763176
 20
33.0
 30
0.0
 40
10.0
  1
１１７.５
 41
0.7848
  7
EXCADSTD
 72
     5
 11
47.763176
 21
33.0
 31
0.0
100
AcDbText
  0
LINE
  5
589
100
AcDbEntity
  8
LAY-3
  6
CONTINUOUS
 62
     1
100
AcDbLine
 10
-33.486824
 20
32.0
 30
0.0
 11
84.013176
 21
32.0
 31
0.0
  0
LINE
  5
58A
100
AcDbEntity
  8
LAY-3
  6
CONTINUOUS
 62
     1
100
AcDbLine
 10
-29.486824
 20
32.666667
 30
0.0
 11
-33.486824
 21
32.0
 31
0.0
  0
LINE
  5
58B
100
AcDbEntity
  8
LAY-3
  6
CONTINUOUS
 62
     1
100
AcDbLine
 10
-33.486824
 20
32.0
 30
0.0
 11
-29.486824
 21
31.333333
 31
0.0
  0
LINE
  5
58C
100
AcDbEntity
  8
LAY-3
  6
CONTINUOUS
 62
     1
100
AcDbLine
 10
80.013176
 20
31.333333
 30
0.0
 11
84.013176
 21
32.0
 31
0.0
  0
LINE
  5
58D
100
AcDbEntity
  8
LAY-3
  6
CONTINUOUS
 62
     1
100
AcDbLine
 10
84.013176
 20
32.0
 30
0.0
 11
80.013176
 21
32.666667
 31
0.0
  0
POLYLINE
  5
58E
100
AcDbEntity
  8
LAY-3
  6
CONTINUOUS
 62
     1
100
AcDb2dPolyline
 66
     1
 10
0.0
 20
0.0
 30
0.0
 70
   128
  0
VERTEX
  5
58F
100
AcDbEntity
  8
LAY-3
  6
CONTINUOUS
 62
     1
100
AcDbVertex
100
AcDb2dVertex
 10
-28.8
 20
85.865674
 30
0.0
  0
VERTEX
  5
590
100
AcDbEntity
  8
LAY-3
  6
CONTINUOUS
 62
     1
100
AcDbVertex
100
AcDb2dVertex
 10
1.065674
 20
56.0
 30
0.0
  0
VERTEX
  5
591
100
AcDbEntity
  8
LAY-3
  6
CONTINUOUS
 62
     1
100
AcDbVertex
100
AcDb2dVertex
 10
56.732837
 20
56.0
 30
0.0
  0
SEQEND
  5
592
100
AcDbEntity
  8
LAY-3
  6
CONTINUOUS
 62
     1
  0
LINE
  5
593
100
AcDbEntity
  8
LAY-3
  6
CONTINUOUS
 62
     1
100
AcDbLine
 10
-25.500168
 20
83.508651
 30
0.0
 11
-28.8
 21
85.865674
 31
0.0
  0
LINE
  5
594
100
AcDbEntity
  8
LAY-3
  6
CONTINUOUS
 62
     1
100
AcDbLine
 10
-28.8
 20
85.865674
 30
0.0
 11
-26.442977
 21
82.565842
 31
0.0
  0
TEXT
  5
595
100
AcDbEntity
  8
LAY-3
  6
CONTINUOUS
 62
     3
100
AcDbText
 10
3.899255
 20
56.3
 30
0.0
 40
10.0
  1
Ｒｃ３／４
 41
0.84
  7
EXCADSTD
 72
     5
 11
53.899255
 21
56.3
 31
0.0
100
AcDbText
  0
LINE
  5
596
100
AcDbEntity
  8
LAY-3
  6
CONTINUOUS
 62
     1
100
AcDbLine
 10
4.513176
 20
210.865674
 30
0.0
 11
112.5
 21
210.865674
 31
0.0
  0
LINE
  5
597
100
AcDbEntity
  8
LAY-3
  6
CONTINUOUS
 62
     1
100
AcDbLine
 10
4.513176
 20
72.865674
 30
0.0
 11
112.5
 21
72.865674
 31
0.0
  0
TEXT
  5
598
100
AcDbEntity
  8
LAY-3
  6
CONTINUOUS
 62
     3
100
AcDbText
 10
111.0
 20
121.865674
 30
0.0
 40
10.0
  1
φ
 50
90.0
 41
0.84
  7
EXCADSTD
 72
     5
 11
111.0
 21
129.865674
 31
0.0
100
AcDbText
  0
TEXT
  5
599
100
AcDbEntity
  8
LAY-3
  6
CONTINUOUS
 62
     3
100
AcDbText
 10
111.0
 20
131.865674
 30
0.0
 40
10.0
  1
１３８
 50
90.0
 41
0.84
  7
EXCADSTD
 72
     5
 11
111.0
 21
161.865674
 31
0.0
100
AcDbText
  0
LINE
  5
59A
100
AcDbEntity
  8
LAY-3
  6
CONTINUOUS
 62
     1
100
AcDbLine
 10
112.0
 20
210.865674
 30
0.0
 11
112.0
 21
72.865674
 31
0.0
  0
LINE
  5
59B
100
AcDbEntity
  8
LAY-3
  6
CONTINUOUS
 62
     1
100
AcDbLine
 10
112.666667
 20
206.865674
 30
0.0
 11
112.0
 21
210.865674
 31
0.0
  0
LINE
  5
59C
100
AcDbEntity
  8
LAY-3
  6
CONTINUOUS
 62
     1
100
AcDbLine
 10
112.0
 20
210.865674
 30
0.0
 11
111.333333
 21
206.865674
 31
0.0
  0
LINE
  5
59D
100
AcDbEntity
  8
LAY-3
  6
CONTINUOUS
 62
     1
100
AcDbLine
 10
111.333333
 20
76.865674
 30
0.0
 11
112.0
 21
72.865674
 31
0.0
  0
LINE
  5
59E
100
AcDbEntity
  8
LAY-3
  6
CONTINUOUS
 62
     1
100
AcDbLine
 10
112.0
 20
72.865674
 30
0.0
 11
112.666667
 21
76.865674
 31
0.0
  0
POLYLINE
  5
59F
100
AcDbEntity
  8
LAY-3
  6
CONTINUOUS
 62
     1
100
AcDb2dPolyline
 66
     1
 10
0.0
 20
0.0
 30
0.0
 70
   128
  0
VERTEX
  5
5A0
100
AcDbEntity
  8
LAY-3
  6
CONTINUOUS
 62
     1
100
AcDbVertex
100
AcDb2dVertex
 10
20.815855
 20
147.555047
 30
0.0
  0
VERTEX
  5
5A1
100
AcDbEntity
  8
LAY-3
  6
CONTINUOUS
 62
     1
100
AcDbVertex
100
AcDb2dVertex
 10
49.260808
 20
176.0
 30
0.0
  0
VERTEX
  5
5A2
100
AcDbEntity
  8
LAY-3
  6
CONTINUOUS
 62
     1
100
AcDbVertex
100
AcDb2dVertex
 10
96.989118
 20
176.0
 30
0.0
  0
SEQEND
  5
5A3
100
AcDbEntity
  8
LAY-3
  6
CONTINUOUS
 62
     1
  0
LINE
  5
5A4
100
AcDbEntity
  8
LAY-3
  6
CONTINUOUS
 62
     1
100
AcDbLine
 10
23.172878
 20
150.854879
 30
0.0
 11
20.815855
 21
147.555047
 31
0.0
  0
LINE
  5
5A5
100
AcDbEntity
  8
LAY-3
  6
CONTINUOUS
 62
     1
100
AcDbLine
 10
20.815855
 20
147.555047
 30
0.0
 11
24.115687
 21
149.91207
 31
0.0
  0
TEXT
  5
5A6
100
AcDbEntity
  8
LAY-3
  6
CONTINUOUS
 62
     3
100
AcDbText
 10
48.124963
 20
176.3
 30
0.0
 40
10.0
  1
Ｒｃ１／４
 41
0.84
  7
EXCADSTD
 72
     5
 11
98.124963
 21
176.3
 31
0.0
100
AcDbText
  0
INSERT
  5
5A7
100
AcDbEntity
  8
LAY-5
  6
CONTINUOUS
 62
     0
100
AcDbBlockReference
  2
SYM-1
 10
399.040343
 20
-123.278311
 30
0.0
 41
1.1583
 42
1.1583
  0
TEXT
  5
5A8
100
AcDbEntity
  8
LAY-5
  6
CONTINUOUS
 62
     3
100
AcDbText
 10
356.773256
 20
-85.342006
 30
0.0
 40
7.92
  1
２０１４年　４月　１日
 41
0.84
  7
EXCADSTD
 72
     5
 11
443.893257
 21
-85.342006
 31
0.0
100
AcDbText
  0
ENDSEC
  0
SECTION
  2
OBJECTS
  0
DICTIONARY
  5
19
100
AcDbDictionary
  3
ACAD_GROUP
350
1A
  3
ACAD_MLINESTYLE
350
1B
  0
DICTIONARY
  5
1A
102
{ACAD_REACTORS
330
19
102
}
100
AcDbDictionary
  0
DICTIONARY
  5
1B
102
{ACAD_REACTORS
330
19
102
}
100
AcDbDictionary
  3
STANDARD
350
1C
  0
MLINESTYLE
  5
1C
102
{ACAD_REACTORS
330
1B
102
}
100
AcDbMlineStyle
  2
Standard
 70
     0
  3

 62
     0
 51
90.0
 52
90.0
 71
     2
 49
0.5
 62
   256
  6
ByLayer
 49
-0.5
 62
   256
  6
ByLayer
  0
ENDSEC
  0
EOF
