  0
SECTION
  2
HEADER
  9
$ACADVER
  1
AC1014
  9
$ACADMAINTVER
 70
     0
  9
$DWGCODEPAGE
  3
ANSI_932
  9
$INSBASE
 10
0.0
 20
0.0
 30
0.0
  9
$EXTMIN
 10
56.6
 20
14.2
 30
0.0
  9
$EXTMAX
 10
856.8
 20
556.4
 30
0.0
  9
$LIMMIN
 10
0.0
 20
0.0
  9
$LIMMAX
 10
420.0
 20
297.0
  9
$ORTHOMODE
 70
     0
  9
$REGENMODE
 70
     1
  9
$FILLMODE
 70
     1
  9
$QTEXTMODE
 70
     0
  9
$MIRRTEXT
 70
     1
  9
$DRAGMODE
 70
     2
  9
$LTSCALE
 40
1.0
  9
$OSMODE
 70
     0
  9
$ATTMODE
 70
     1
  9
$TEXTSIZE
 40
0.2
  9
$TRACEWID
 40
0.05
  9
$TEXTSTYLE
  7
STANDARD
  9
$CLAYER
  8
LAY-1
  9
$CELTYPE
  6
CONTINUOUS
  9
$CECOLOR
 62
   256
  9
$CELTSCALE
 40
1.0
  9
$DELOBJ
 70
     1
  9
$DISPSILH
 70
     0
  9
$DIMSCALE
 40
1.0
  9
$DIMASZ
 40
0.18
  9
$DIMEXO
 40
0.0625
  9
$DIMDLI
 40
0.38
  9
$DIMRND
 40
0.0
  9
$DIMDLE
 40
0.0
  9
$DIMEXE
 40
0.18
  9
$DIMTP
 40
0.0
  9
$DIMTM
 40
0.0
  9
$DIMTXT
 40
0.18
  9
$DIMCEN
 40
0.09
  9
$DIMTSZ
 40
0.0
  9
$DIMTOL
 70
     0
  9
$DIMLIM
 70
     0
  9
$DIMTIH
 70
     1
  9
$DIMTOH
 70
     1
  9
$DIMSE1
 70
     0
  9
$DIMSE2
 70
     0
  9
$DIMTAD
 70
     0
  9
$DIMZIN
 70
     0
  9
$DIMBLK
  1

  9
$DIMASO
 70
     1
  9
$DIMSHO
 70
     1
  9
$DIMPOST
  1

  9
$DIMAPOST
  1

  9
$DIMALT
 70
     0
  9
$DIMALTD
 70
     2
  9
$DIMALTF
 40
25.4
  9
$DIMLFAC
 40
1.0
  9
$DIMTOFL
 70
     0
  9
$DIMTVP
 40
0.0
  9
$DIMTIX
 70
     0
  9
$DIMSOXD
 70
     0
  9
$DIMSAH
 70
     0
  9
$DIMBLK1
  1

  9
$DIMBLK2
  1

  9
$DIMSTYLE
  2
STANDARD
  9
$DIMCLRD
 70
     0
  9
$DIMCLRE
 70
     0
  9
$DIMCLRT
 70
     0
  9
$DIMTFAC
 40
1.0
  9
$DIMGAP
 40
0.09
  9
$DIMJUST
 70
     0
  9
$DIMSD1
 70
     0
  9
$DIMSD2
 70
     0
  9
$DIMTOLJ
 70
     1
  9
$DIMTZIN
 70
     0
  9
$DIMALTZ
 70
     0
  9
$DIMALTTZ
 70
     0
  9
$DIMFIT
 70
     3
  9
$DIMUPT
 70
     0
  9
$DIMUNIT
 70
     2
  9
$DIMDEC
 70
     4
  9
$DIMTDEC
 70
     4
  9
$DIMALTU
 70
     2
  9
$DIMALTTD
 70
     2
  9
$DIMTXSTY
  7
STANDARD
  9
$DIMAUNIT
 70
     0
  9
$LUNITS
 70
     2
  9
$LUPREC
 70
     4
  9
$SKETCHINC
 40
0.1
  9
$FILLETRAD
 40
0.0
  9
$AUNITS
 70
     0
  9
$AUPREC
 70
     0
  9
$MENU
  1
acad
  9
$ELEVATION
 40
0.0
  9
$PELEVATION
 40
0.0
  9
$THICKNESS
 40
0.0
  9
$LIMCHECK
 70
     0
  9
$BLIPMODE
 70
     1
  9
$CHAMFERA
 40
0.0
  9
$CHAMFERB
 40
0.0
  9
$CHAMFERC
 40
0.0
  9
$CHAMFERD
 40
0.0
  9
$SKPOLY
 70
     0
  9
$TDCREATE
 40
2457980.144865185
  9
$TDUPDATE
 40
2457980.144865185
  9
$TDINDWG
 40
0.0000000000
  9
$TDUSRTIMER
 40
0.0000000000
  9
$USRTIMER
 70
     1
  9
$ANGBASE
 50
0.0
  9
$ANGDIR
 70
     0
  9
$PDMODE
 70
     0
  9
$PDSIZE
 40
0.0
  9
$PLINEWID
 40
0.0
  9
$COORDS
 70
     1
  9
$SPLFRAME
 70
     0
  9
$SPLINETYPE
 70
     6
  9
$SPLINESEGS
 70
     8
  9
$ATTDIA
 70
     0
  9
$ATTREQ
 70
     1
  9
$HANDLING
 70
     1
  9
$HANDSEED
  5
53A
  9
$SURFTAB1
 70
     6
  9
$SURFTAB2
 70
     6
  9
$SURFTYPE
 70
     6
  9
$SURFU
 70
     6
  9
$SURFV
 70
     6
  9
$UCSNAME
  2

  9
$UCSORG
 10
0.0
 20
0.0
 30
0.0
  9
$UCSXDIR
 10
1.0
 20
0.0
 30
0.0
  9
$UCSYDIR
 10
0.0
 20
1.0
 30
0.0
  9
$PUCSNAME
  2

  9
$PUCSORG
 10
0.0
 20
0.0
 30
0.0
  9
$PUCSXDIR
 10
1.0
 20
0.0
 30
0.0
  9
$PUCSYDIR
 10
0.0
 20
1.0
 30
0.0
  9
$USERI1
 70
     0
  9
$USERI2
 70
     0
  9
$USERI3
 70
     0
  9
$USERI4
 70
     0
  9
$USERI5
 70
     0
  9
$USERR1
 40
0.0
  9
$USERR2
 40
0.0
  9
$USERR3
 40
0.0
  9
$USERR4
 40
0.0
  9
$USERR5
 40
0.0
  9
$WORLDVIEW
 70
     1
  9
$SHADEDGE
 70
     3
  9
$SHADEDIF
 70
    70
  9
$TILEMODE
 70
     1
  9
$MAXACTVP
 70
    16
  9
$PINSBASE
 10
0.0
 20
0.0
 30
0.0
  9
$PLIMCHECK
 70
     0
  9
$PEXTMIN
 10
1.000000E+20
 20
1.000000E+20
 30
1.000000E+20
  9
$PEXTMAX
 10
-1.000000E+20
 20
-1.000000E+20
 30
-1.000000E+20
  9
$PLIMMIN
 10
0.0
 20
0.0
  9
$PLIMMAX
 10
12.0
 20
9.0
  9
$UNITMODE
 70
     0
  9
$VISRETAIN
 70
     0
  9
$PLINEGEN
 70
     1
  9
$PSLTSCALE
 70
     0
  9
$TREEDEPTH
 70
  3020
  9
$PICKSTYLE
 70
     1
  9
$CMLSTYLE
  2
Standard
  9
$CMLJUST
 70
     0
  9
$CMLSCALE
 40
1.0
  9
$PROXYGRAPHICS
 70
     0
  9
$MEASUREMENT
 70
     0
  0
ENDSEC
  0
SECTION
  2
CLASSES
  0
CLASS
  1
LWPOLYLINE
  2
AcDbPolyline
  3
"AutoCAD"
 90
        0
280
     0
281
     1
  0
CLASS
  1
IMAGE
  2
AcDbRasterImage
  3
ISM
 90
      127
280
     0
281
     1
  0
CLASS
  1
OLE2FRAME
  2
AcDbOle2Frame
  3
""
 90
        0
280
     0
281
     1
  0
CLASS
  1
HATCH
  2
AcDbHatch
  3
"ACAD_SEDONA"
 90
        0
280
     0
281
     1
  0
CLASS
  1
DICTIONARYVAR
  2
AcDbDictionaryVar
  3
"AutoCAD"
 90
        0
280
     0
281
     0
  0
CLASS
  1
RASTERVARIABLES
  2
AcDbRasterVariables
  3
ISM
 90
        0
280
     0
281
     0
  0
CLASS
  1
IMAGEDEF
  2
AcDbRasterImageDef
  3
ISM
 90
        0
280
     0
281
     0
  0
CLASS
  1
IMAGEDEF_REACTOR
  2
AcDbRasterImageDefReactor
  3
ISM
 90
        1
280
     0
281
     0
  0
CLASS
  1
IDBUFFER
  2
AcDbIdBuffer
  3
"Acad"
 90
        0
280
     0
281
     0
  0
CLASS
  1
SPATIAL_FILTER
  2
AcDbSpatialFilter
  3
"Acad"
 90
        0
280
     0
281
     0
  0
CLASS
  1
XRECORD
  2
AcDbXrecord
  3
"<Built In>"
 90
        0
280
     0
281
     0
  0
CLASS
  1
SORTENTSTABLE
  2
AcDbSortentsTable
  3
"AutoCAD"
 90
        0
280
     0
281
     0
  0
CLASS
  1
LAYER_INDEX
  2
AcDbLayerIndex
  3
"Acad"
 90
        0
280
     0
281
     0
  0
CLASS
  1
SPATIAL_INDEX
  2
AcDbSpatialIndex
  3
"Acad"
 90
        0
280
     0
281
     0
  0
CLASS
  1
OBJECT_PTR
  2
CAseDLPNTableRecord
  3
"ASE-LPNTableRecord"
 90
        1
280
     0
281
     0
  0
CLASS
  1
LAYOUT
  2
AcDbLayout
  3
"AutoCAD 2000"
 90
        0
280
     0
281
     0
  0
CLASS
  1
PLOTSETTINGS
  2
AcDbPlotSettings
  3
"AutoCAD 2000"
 90
        0
280
     0
281
     0
  0
CLASS
  1
ACDBDICTIONARYWDFLT
  2
AcDbDictionaryWithDefault
  3
"AutoCAD 2000"
 90
        0
280
     0
281
     0
  0
CLASS
  1
ACDBPLACEHOLDER
  2
AcDbPlaceHolder
  3
"AutoCAD 2000"
 90
        0
280
     0
281
     0
  0
CLASS
  1
VBA_PROJECT
  2
AcDbVbaProject
  3
"acadvba"
 90
        0
280
     0
281
     0
  0
CLASS
  1
WIPEOUT
  2
AcDbWipeout
  3
WipeOut|AutoCAD Express Tool|expresstools@autodesk.com
 90
      127
280
     0
281
     1
  0
CLASS
  1
WIPEOUTVARIABLES
  2
AcDbWipeoutVariables
  3
WipeOut|AutoCAD Express Tool|expresstools@autodesk.com
 90
        0
280
     0
281
     0
  0
CLASS
  1
RTEXT
  2
RText
  3
RText|AutoCAD Express Tool|expresstools@autodesk.com
 90
        0
280
     0
281
     1
  0
CLASS
  1
ARCALIGNEDTEXT
  2
AcDbArcAlignedText
  3
ATEXT|AutoCAD Express Tool|expresstools@autodesk.com
 90
        0
280
     0
281
     1
  0
ENDSEC
  0
SECTION
  2
TABLES
  0
TABLE
  2
VPORT
  5
7
100
AcDbSymbolTable
 70
     1
  0
VPORT
  5
15
100
AcDbSymbolTableRecord
100
AcDbViewportTableRecord
  2
*ACTIVE
 70
     0
 10
0.0
 20
0.0
 11
1.0
 21
1.0
 12
456.7
 22
285.3
 13
0.0
 23
0.0
 14
1.0
 24
1.0
 15
0.0
 25
0.0
 16
0.0
 26
0.0
 36
1.0
 17
0.0
 27
0.0
 37
0.0
 40
542.2
 41
1.722533
 42
50.0
 43
0.0
 44
0.0
 50
0.0
 51
0.0
 71
     0
 72
  1000
 73
     1
 74
     1
 75
     0
 76
     0
 77
     0
 78
     0
  0
ENDTAB
  0
TABLE
  2
LTYPE
  5
4
100
AcDbSymbolTable
 70
     9
  0
LTYPE
  5
11
100
AcDbSymbolTableRecord
100
AcDbLinetypeTableRecord
  2
BYBLOCK
 70
    64
  3

 72
    65
 73
     0
 40
0.0
  0
LTYPE
  5
12
100
AcDbSymbolTableRecord
100
AcDbLinetypeTableRecord
  2
BYLAYER
 70
    64
  3

 72
    65
 73
     0
 40
0.0
  0
LTYPE
  5
13
100
AcDbSymbolTableRecord
100
AcDbLinetypeTableRecord
  2
CONTINUOUS
 70
    64
  3
実線
 72
    65
 73
     0
 40
0.0
  0
LTYPE
  5
1D
100
AcDbSymbolTableRecord
100
AcDbLinetypeTableRecord
  2
EXLTYPE1
 70
    64
  3
破線
 72
    65
 73
     2
 40
4.0
 49
3.0
 74
     0
 49
-1.0
 74
     0
  0
LTYPE
  5
1E
100
AcDbSymbolTableRecord
100
AcDbLinetypeTableRecord
  2
EXLTYPE2
 70
    64
  3
点線
 72
    65
 73
     2
 40
2.0
 49
1.0
 74
     0
 49
-1.0
 74
     0
  0
LTYPE
  5
1F
100
AcDbSymbolTableRecord
100
AcDbLinetypeTableRecord
  2
EXLTYPE3
 70
    64
  3
一点鎖線
 72
    65
 73
     4
 40
33.0
 49
30.0
 74
     0
 49
-1.0
 74
     0
 49
1.0
 74
     0
 49
-1.0
 74
     0
  0
LTYPE
  5
20
100
AcDbSymbolTableRecord
100
AcDbLinetypeTableRecord
  2
EXLTYPE4
 70
    64
  3
二点鎖線
 72
    65
 73
     6
 40
35.0
 49
30.0
 74
     0
 49
-1.0
 74
     0
 49
1.0
 74
     0
 49
-1.0
 74
     0
 49
1.0
 74
     0
 49
-1.0
 74
     0
  0
LTYPE
  5
21
100
AcDbSymbolTableRecord
100
AcDbLinetypeTableRecord
  2
EXLTYPE5
 70
    64
  3
三点鎖線
 72
    65
 73
     8
 40
37.0
 49
30.0
 74
     0
 49
-1.0
 74
     0
 49
1.0
 74
     0
 49
-1.0
 74
     0
 49
1.0
 74
     0
 49
-1.0
 74
     0
 49
1.0
 74
     0
 49
-1.0
 74
     0
  0
LTYPE
  5
22
100
AcDbSymbolTableRecord
100
AcDbLinetypeTableRecord
  2
EXLTYPE6
 70
    64
  3
四点鎖線
 72
    65
 73
    10
 40
39.0
 49
30.0
 74
     0
 49
-1.0
 74
     0
 49
1.0
 74
     0
 49
-1.0
 74
     0
 49
1.0
 74
     0
 49
-1.0
 74
     0
 49
1.0
 74
     0
 49
-1.0
 74
     0
 49
1.0
 74
     0
 49
-1.0
 74
     0
  0
ENDTAB
  0
TABLE
  2
LAYER
  5
2
100
AcDbSymbolTable
 70
     3
  0
LAYER
  5
14
100
AcDbSymbolTableRecord
100
AcDbLayerTableRecord
  2
0
 70
     0
 62
     7
  6
CONTINUOUS
  0
LAYER
  5
25
100
AcDbSymbolTableRecord
100
AcDbLayerTableRecord
  2
LAY-1
 70
    64
 62
     7
  6
CONTINUOUS
  0
LAYER
  5
26
100
AcDbSymbolTableRecord
100
AcDbLayerTableRecord
  2
LAY-2
 70
    64
 62
     1
  6
CONTINUOUS
  0
ENDTAB
  0
TABLE
  2
STYLE
  5
3
100
AcDbSymbolTable
 70
     3
  0
STYLE
  5
17
100
AcDbSymbolTableRecord
100
AcDbTextStyleTableRecord
  2
STANDARD
 70
     0
 40
0.0
 41
1.0
 50
0.0
 71
     0
 42
0.0
  3
monotxt
  4
extfont
  0
STYLE
  5
23
100
AcDbSymbolTableRecord
100
AcDbTextStyleTableRecord
  2
EXCADSTD
 70
    64
 40
0.0
 41
1.0
 50
0.0
 71
     0
 42
0.2
  3
monotxt
  4
extfont
  0
STYLE
  5
24
100
AcDbSymbolTableRecord
100
AcDbTextStyleTableRecord
  2
EXCADVERT
 70
    68
 40
0.0
 41
1.0
 50
0.0
 71
     0
 42
0.286885
  3
monotxt
  4
extfont
  0
ENDTAB
  0
TABLE
  2
VIEW
  5
5
100
AcDbSymbolTable
 70
     0
  0
ENDTAB
  0
TABLE
  2
UCS
  5
6
100
AcDbSymbolTable
 70
     0
  0
ENDTAB
  0
TABLE
  2
APPID
  5
8
100
AcDbSymbolTable
 70
     1
  0
APPID
  5
16
100
AcDbSymbolTableRecord
100
AcDbRegAppTableRecord
  2
ACAD
 70
     0
  0
ENDTAB
  0
TABLE
  2
DIMSTYLE
  5
9
100
AcDbSymbolTable
 70
     1
  0
DIMSTYLE
105
18
100
AcDbSymbolTableRecord
100
AcDbDimStyleTableRecord
  2
STANDARD
 70
     0
  3

  4

  5

  6

  7

 40
1.0
 41
0.18
 42
0.0625
 43
0.38
 44
0.18
 45
0.0
 46
0.0
 47
0.0
 48
0.0
 71
     0
 72
     0
 73
     1
 74
     1
 75
     0
 76
     0
 77
     0
 78
     0
140
0.18
141
0.09
142
0.0
143
25.4
144
1.0
145
0.0
146
1.0
147
0.09
170
     0
171
     2
172
     1
173
     0
174
     0
175
     0
176
     0
177
     0
178
     0
270
     2
271
     4
272
     4
273
     2
274
     2
275
     0
280
     0
281
     0
282
     0
283
     1
284
     0
285
     0
286
     0
287
     3
288
     0
340
17
  0
ENDTAB
  0
TABLE
  2
BLOCK_RECORD
  5
1
100
AcDbSymbolTable
 70
    14
  0
BLOCK_RECORD
  5
A
100
AcDbSymbolTableRecord
100
AcDbBlockTableRecord
  2
*MODEL_SPACE
  0
BLOCK_RECORD
  5
B
100
AcDbSymbolTableRecord
100
AcDbBlockTableRecord
  2
*PAPER_SPACE
  0
BLOCK_RECORD
  5
27
100
AcDbSymbolTableRecord
100
AcDbBlockTableRecord
  2
_EX_NORM
  0
BLOCK_RECORD
  5
28
100
AcDbSymbolTableRecord
100
AcDbBlockTableRecord
  2
_EX_BNORM
  0
BLOCK_RECORD
  5
29
100
AcDbSymbolTableRecord
100
AcDbBlockTableRecord
  2
_EX_BCIR
  0
BLOCK_RECORD
  5
2A
100
AcDbSymbolTableRecord
100
AcDbBlockTableRecord
  2
_EX_RCIVIL
  0
BLOCK_RECORD
  5
2B
100
AcDbSymbolTableRecord
100
AcDbBlockTableRecord
  2
_EX_SLANT
  0
BLOCK_RECORD
  5
2C
100
AcDbSymbolTableRecord
100
AcDbBlockTableRecord
  2
_EX_NONE
  0
BLOCK_RECORD
  5
2D
100
AcDbSymbolTableRecord
100
AcDbBlockTableRecord
  2
_EX_CIVIL
  0
BLOCK_RECORD
  5
2E
100
AcDbSymbolTableRecord
100
AcDbBlockTableRecord
  2
_EX_WCIR
  0
BLOCK_RECORD
  5
2F
100
AcDbSymbolTableRecord
100
AcDbBlockTableRecord
  2
_EX_WCIR2
  0
BLOCK_RECORD
  5
30
100
AcDbSymbolTableRecord
100
AcDbBlockTableRecord
  2
_EX_WNORM
  0
BLOCK_RECORD
  5
31
100
AcDbSymbolTableRecord
100
AcDbBlockTableRecord
  2
_EX_NNORM
  0
BLOCK_RECORD
  5
32
100
AcDbSymbolTableRecord
100
AcDbBlockTableRecord
  2
_EX_BBOX
  0
BLOCK_RECORD
  5
33
100
AcDbSymbolTableRecord
100
AcDbBlockTableRecord
  2
_EX_WBOX
  0
BLOCK_RECORD
  5
34
100
AcDbSymbolTableRecord
100
AcDbBlockTableRecord
  2
_EX_INTEGRAL
  0
ENDTAB
  0
ENDSEC
  0
SECTION
  2
BLOCKS
  0
BLOCK
  5
D
100
AcDbEntity
  8
0
100
AcDbBlockBegin
  2
*MODEL_SPACE
 70
     0
 10
0.0
 20
0.0
 30
0.0
  3
*MODEL_SPACE
  1

  0
ENDBLK
  5
E
100
AcDbEntity
  8
0
100
AcDbBlockEnd
  0
BLOCK
  5
F
100
AcDbEntity
 67
     1
  8
0
100
AcDbBlockBegin
  2
*PAPER_SPACE
 70
     0
 10
0.0
 20
0.0
 30
0.0
  3
*PAPER_SPACE
  1

  0
ENDBLK
  5
10
100
AcDbEntity
 67
     1
  8
0
100
AcDbBlockEnd
  0
BLOCK
  5
35
100
AcDbEntity
  8
0
100
AcDbBlockBegin
  2
_EX_NORM
 70
     0
 10
0.0
 20
0.0
 30
0.0
  3
_EX_NORM
  1

  0
LINE
  5
36
100
AcDbEntity
  8
0
  6
CONTINUOUS
 62
     0
100
AcDbLine
 10
0.0
 20
0.0
 30
0.0
 11
-1.0
 21
0.0
 31
0.0
  0
LINE
  5
37
100
AcDbEntity
  8
0
  6
CONTINUOUS
 62
     0
100
AcDbLine
 10
0.0
 20
0.0
 30
0.0
 11
-1.0
 21
0.166667
 31
0.0
  0
LINE
  5
38
100
AcDbEntity
  8
0
  6
CONTINUOUS
 62
     0
100
AcDbLine
 10
0.0
 20
0.0
 30
0.0
 11
-1.0
 21
-0.166667
 31
0.0
  0
ENDBLK
  5
39
100
AcDbEntity
  8
0
100
AcDbBlockEnd
  0
BLOCK
  5
3A
100
AcDbEntity
  8
0
100
AcDbBlockBegin
  2
_EX_BNORM
 70
     0
 10
0.0
 20
0.0
 30
0.0
  3
_EX_BNORM
  1

  0
LINE
  5
3B
100
AcDbEntity
  8
0
  6
CONTINUOUS
 62
     0
100
AcDbLine
 10
0.0
 20
0.0
 30
0.0
 11
-1.0
 21
0.0
 31
0.0
  0
LINE
  5
3C
100
AcDbEntity
  8
0
  6
CONTINUOUS
 62
     0
100
AcDbLine
 10
0.0
 20
0.0
 30
0.0
 11
-1.0
 21
0.166667
 31
0.0
  0
LINE
  5
3D
100
AcDbEntity
  8
0
  6
CONTINUOUS
 62
     0
100
AcDbLine
 10
0.0
 20
0.0
 30
0.0
 11
-1.0
 21
-0.166667
 31
0.0
  0
LINE
  5
3E
100
AcDbEntity
  8
0
  6
CONTINUOUS
 62
     0
100
AcDbLine
 10
0.0
 20
0.0
 30
0.0
 11
-1.0
 21
0.083333
 31
0.0
  0
LINE
  5
3F
100
AcDbEntity
  8
0
  6
CONTINUOUS
 62
     0
100
AcDbLine
 10
0.0
 20
0.0
 30
0.0
 11
-1.0
 21
-0.083333
 31
0.0
  0
LINE
  5
40
100
AcDbEntity
  8
0
  6
CONTINUOUS
 62
     0
100
AcDbLine
 10
-1.0
 20
0.166667
 30
0.0
 11
-1.0
 21
-0.166667
 31
0.0
  0
ENDBLK
  5
41
100
AcDbEntity
  8
0
100
AcDbBlockEnd
  0
BLOCK
  5
42
100
AcDbEntity
  8
0
100
AcDbBlockBegin
  2
_EX_BCIR
 70
     0
 10
0.0
 20
0.0
 30
0.0
  3
_EX_BCIR
  1

  0
LINE
  5
43
100
AcDbEntity
  8
0
  6
CONTINUOUS
 62
     0
100
AcDbLine
 10
0.0
 20
0.0
 30
0.0
 11
-1.0
 21
0.0
 31
0.0
  0
CIRCLE
  5
44
100
AcDbEntity
  8
0
  6
CONTINUOUS
 62
     0
100
AcDbCircle
 10
0.0
 20
0.0
 30
0.0
 40
0.5
  0
CIRCLE
  5
45
100
AcDbEntity
  8
0
  6
CONTINUOUS
 62
     0
100
AcDbCircle
 10
0.0
 20
0.0
 30
0.0
 40
0.25
  0
ENDBLK
  5
46
100
AcDbEntity
  8
0
100
AcDbBlockEnd
  0
BLOCK
  5
47
100
AcDbEntity
  8
0
100
AcDbBlockBegin
  2
_EX_RCIVIL
 70
     0
 10
0.0
 20
0.0
 30
0.0
  3
_EX_RCIVIL
  1

  0
LINE
  5
48
100
AcDbEntity
  8
0
  6
CONTINUOUS
 62
     0
100
AcDbLine
 10
0.0
 20
0.0
 30
0.0
 11
-1.0
 21
0.0
 31
0.0
  0
LINE
  5
49
100
AcDbEntity
  8
0
  6
CONTINUOUS
 62
     0
100
AcDbLine
 10
-1.0
 20
-0.25
 30
0.0
 11
0.0
 21
-0.25
 31
0.0
  0
LINE
  5
4A
100
AcDbEntity
  8
0
  6
CONTINUOUS
 62
     0
100
AcDbLine
 10
-1.0
 20
-0.125
 30
0.0
 11
0.0
 21
-0.125
 31
0.0
  0
ENDBLK
  5
4B
100
AcDbEntity
  8
0
100
AcDbBlockEnd
  0
BLOCK
  5
4C
100
AcDbEntity
  8
0
100
AcDbBlockBegin
  2
_EX_SLANT
 70
     0
 10
0.0
 20
0.0
 30
0.0
  3
_EX_SLANT
  1

  0
LINE
  5
4D
100
AcDbEntity
  8
0
  6
CONTINUOUS
 62
     0
100
AcDbLine
 10
0.0
 20
0.0
 30
0.0
 11
-1.0
 21
0.0
 31
0.0
  0
LINE
  5
4E
100
AcDbEntity
  8
0
  6
CONTINUOUS
 62
     0
100
AcDbLine
 10
0.707107
 20
0.707107
 30
0.0
 11
-0.707107
 21
-0.707107
 31
0.0
  0
ENDBLK
  5
4F
100
AcDbEntity
  8
0
100
AcDbBlockEnd
  0
BLOCK
  5
50
100
AcDbEntity
  8
0
100
AcDbBlockBegin
  2
_EX_NONE
 70
     0
 10
0.0
 20
0.0
 30
0.0
  3
_EX_NONE
  1

  0
LINE
  5
51
100
AcDbEntity
  8
0
  6
CONTINUOUS
 62
     0
100
AcDbLine
 10
0.0
 20
0.0
 30
0.0
 11
-1.0
 21
0.0
 31
0.0
  0
ENDBLK
  5
52
100
AcDbEntity
  8
0
100
AcDbBlockEnd
  0
BLOCK
  5
53
100
AcDbEntity
  8
0
100
AcDbBlockBegin
  2
_EX_CIVIL
 70
     0
 10
0.0
 20
0.0
 30
0.0
  3
_EX_CIVIL
  1

  0
LINE
  5
54
100
AcDbEntity
  8
0
  6
CONTINUOUS
 62
     0
100
AcDbLine
 10
0.0
 20
0.0
 30
0.0
 11
-1.0
 21
0.0
 31
0.0
  0
LINE
  5
55
100
AcDbEntity
  8
0
  6
CONTINUOUS
 62
     0
100
AcDbLine
 10
-1.0
 20
0.25
 30
0.0
 11
0.0
 21
0.25
 31
0.0
  0
LINE
  5
56
100
AcDbEntity
  8
0
  6
CONTINUOUS
 62
     0
100
AcDbLine
 10
-1.0
 20
0.125
 30
0.0
 11
0.0
 21
0.125
 31
0.0
  0
ENDBLK
  5
57
100
AcDbEntity
  8
0
100
AcDbBlockEnd
  0
BLOCK
  5
58
100
AcDbEntity
  8
0
100
AcDbBlockBegin
  2
_EX_WCIR
 70
     0
 10
0.0
 20
0.0
 30
0.0
  3
_EX_WCIR
  1

  0
LINE
  5
59
100
AcDbEntity
  8
0
  6
CONTINUOUS
 62
     0
100
AcDbLine
 10
0.0
 20
0.0
 30
0.0
 11
-1.0
 21
0.0
 31
0.0
  0
CIRCLE
  5
5A
100
AcDbEntity
  8
0
  6
CONTINUOUS
 62
     0
100
AcDbCircle
 10
0.0
 20
0.0
 30
0.0
 40
0.5
  0
ENDBLK
  5
5B
100
AcDbEntity
  8
0
100
AcDbBlockEnd
  0
BLOCK
  5
5C
100
AcDbEntity
  8
0
100
AcDbBlockBegin
  2
_EX_WCIR2
 70
     0
 10
0.0
 20
0.0
 30
0.0
  3
_EX_WCIR2
  1

  0
LINE
  5
5D
100
AcDbEntity
  8
0
  6
CONTINUOUS
 62
     0
100
AcDbLine
 10
-0.5
 20
0.0
 30
0.0
 11
-1.0
 21
0.0
 31
0.0
  0
CIRCLE
  5
5E
100
AcDbEntity
  8
0
  6
CONTINUOUS
 62
     0
100
AcDbCircle
 10
0.0
 20
0.0
 30
0.0
 40
0.5
  0
ENDBLK
  5
5F
100
AcDbEntity
  8
0
100
AcDbBlockEnd
  0
BLOCK
  5
60
100
AcDbEntity
  8
0
100
AcDbBlockBegin
  2
_EX_WNORM
 70
     0
 10
0.0
 20
0.0
 30
0.0
  3
_EX_WNORM
  1

  0
LINE
  5
61
100
AcDbEntity
  8
0
  6
CONTINUOUS
 62
     0
100
AcDbLine
 10
-1.0
 20
0.0
 30
0.0
 11
-1.0
 21
0.0
 31
0.0
  0
LINE
  5
62
100
AcDbEntity
  8
0
  6
CONTINUOUS
 62
     0
100
AcDbLine
 10
0.0
 20
0.0
 30
0.0
 11
-1.0
 21
0.166667
 31
0.0
  0
LINE
  5
63
100
AcDbEntity
  8
0
  6
CONTINUOUS
 62
     0
100
AcDbLine
 10
0.0
 20
0.0
 30
0.0
 11
-1.0
 21
-0.166667
 31
0.0
  0
LINE
  5
64
100
AcDbEntity
  8
0
  6
CONTINUOUS
 62
     0
100
AcDbLine
 10
-1.0
 20
0.166667
 30
0.0
 11
-1.0
 21
-0.166667
 31
0.0
  0
ENDBLK
  5
65
100
AcDbEntity
  8
0
100
AcDbBlockEnd
  0
BLOCK
  5
66
100
AcDbEntity
  8
0
100
AcDbBlockBegin
  2
_EX_NNORM
 70
     0
 10
0.0
 20
0.0
 30
0.0
  3
_EX_NNORM
  1

  0
LINE
  5
67
100
AcDbEntity
  8
0
  6
CONTINUOUS
 62
     0
100
AcDbLine
 10
0.0
 20
0.0
 30
0.0
 11
-1.0
 21
0.0
 31
0.0
  0
LINE
  5
68
100
AcDbEntity
  8
0
  6
CONTINUOUS
 62
     0
100
AcDbLine
 10
0.0
 20
0.0
 30
0.0
 11
-1.0
 21
0.166667
 31
0.0
  0
LINE
  5
69
100
AcDbEntity
  8
0
  6
CONTINUOUS
 62
     0
100
AcDbLine
 10
0.0
 20
0.0
 30
0.0
 11
-1.0
 21
-0.166667
 31
0.0
  0
LINE
  5
6A
100
AcDbEntity
  8
0
  6
CONTINUOUS
 62
     0
100
AcDbLine
 10
-1.0
 20
0.166667
 30
0.0
 11
-1.0
 21
-0.166667
 31
0.0
  0
ENDBLK
  5
6B
100
AcDbEntity
  8
0
100
AcDbBlockEnd
  0
BLOCK
  5
6C
100
AcDbEntity
  8
0
100
AcDbBlockBegin
  2
_EX_BBOX
 70
     0
 10
0.0
 20
0.0
 30
0.0
  3
_EX_BBOX
  1

  0
LINE
  5
6D
100
AcDbEntity
  8
0
  6
CONTINUOUS
 62
     0
100
AcDbLine
 10
0.0
 20
0.0
 30
0.0
 11
-1.0
 21
0.0
 31
0.0
  0
LINE
  5
6E
100
AcDbEntity
  8
0
  6
CONTINUOUS
 62
     0
100
AcDbLine
 10
-0.5
 20
0.5
 30
0.0
 11
0.5
 21
0.5
 31
0.0
  0
LINE
  5
6F
100
AcDbEntity
  8
0
  6
CONTINUOUS
 62
     0
100
AcDbLine
 10
0.5
 20
0.5
 30
0.0
 11
0.5
 21
-0.5
 31
0.0
  0
LINE
  5
70
100
AcDbEntity
  8
0
  6
CONTINUOUS
 62
     0
100
AcDbLine
 10
0.5
 20
-0.5
 30
0.0
 11
-0.5
 21
-0.5
 31
0.0
  0
LINE
  5
71
100
AcDbEntity
  8
0
  6
CONTINUOUS
 62
     0
100
AcDbLine
 10
-0.5
 20
-0.5
 30
0.0
 11
-0.5
 21
0.5
 31
0.0
  0
LINE
  5
72
100
AcDbEntity
  8
0
  6
CONTINUOUS
 62
     0
100
AcDbLine
 10
-0.25
 20
0.25
 30
0.0
 11
0.25
 21
0.25
 31
0.0
  0
LINE
  5
73
100
AcDbEntity
  8
0
  6
CONTINUOUS
 62
     0
100
AcDbLine
 10
0.25
 20
0.25
 30
0.0
 11
0.25
 21
-0.25
 31
0.0
  0
LINE
  5
74
100
AcDbEntity
  8
0
  6
CONTINUOUS
 62
     0
100
AcDbLine
 10
0.25
 20
-0.25
 30
0.0
 11
-0.25
 21
-0.25
 31
0.0
  0
LINE
  5
75
100
AcDbEntity
  8
0
  6
CONTINUOUS
 62
     0
100
AcDbLine
 10
-0.25
 20
-0.25
 30
0.0
 11
-0.25
 21
0.25
 31
0.0
  0
ENDBLK
  5
76
100
AcDbEntity
  8
0
100
AcDbBlockEnd
  0
BLOCK
  5
77
100
AcDbEntity
  8
0
100
AcDbBlockBegin
  2
_EX_WBOX
 70
     0
 10
0.0
 20
0.0
 30
0.0
  3
_EX_WBOX
  1

  0
LINE
  5
78
100
AcDbEntity
  8
0
  6
CONTINUOUS
 62
     0
100
AcDbLine
 10
-0.5
 20
0.0
 30
0.0
 11
-1.0
 21
0.0
 31
0.0
  0
LINE
  5
79
100
AcDbEntity
  8
0
  6
CONTINUOUS
 62
     0
100
AcDbLine
 10
-0.5
 20
0.5
 30
0.0
 11
0.5
 21
0.5
 31
0.0
  0
LINE
  5
7A
100
AcDbEntity
  8
0
  6
CONTINUOUS
 62
     0
100
AcDbLine
 10
0.5
 20
0.5
 30
0.0
 11
0.5
 21
-0.5
 31
0.0
  0
LINE
  5
7B
100
AcDbEntity
  8
0
  6
CONTINUOUS
 62
     0
100
AcDbLine
 10
0.5
 20
-0.5
 30
0.0
 11
-0.5
 21
-0.5
 31
0.0
  0
LINE
  5
7C
100
AcDbEntity
  8
0
  6
CONTINUOUS
 62
     0
100
AcDbLine
 10
-0.5
 20
-0.5
 30
0.0
 11
-0.5
 21
0.5
 31
0.0
  0
ENDBLK
  5
7D
100
AcDbEntity
  8
0
100
AcDbBlockEnd
  0
BLOCK
  5
7E
100
AcDbEntity
  8
0
100
AcDbBlockBegin
  2
_EX_INTEGRAL
 70
     0
 10
0.0
 20
0.0
 30
0.0
  3
_EX_INTEGRAL
  1

  0
LINE
  5
7F
100
AcDbEntity
  8
0
  6
CONTINUOUS
 62
     0
100
AcDbLine
 10
0.0
 20
0.0
 30
0.0
 11
-1.0
 21
0.0
 31
0.0
  0
ARC
  5
80
100
AcDbEntity
  8
0
  6
CONTINUOUS
 62
     0
100
AcDbCircle
 10
0.542115
 20
0.164992
 30
0.0
 40
0.56667
100
AcDbArc
 50
73.07249
 51
196.927513
  0
ARC
  5
81
100
AcDbEntity
  8
0
  6
CONTINUOUS
 62
     0
100
AcDbCircle
 10
-0.542115
 20
-0.164992
 30
0.0
 40
0.56667
100
AcDbArc
 50
253.072487
 51
16.927513
  0
ENDBLK
  5
82
100
AcDbEntity
  8
0
100
AcDbBlockEnd
  0
ENDSEC
  0
SECTION
  2
ENTITIES
  0
LINE
  5
83
100
AcDbEntity
  8
LAY-1
  6
CONTINUOUS
 62
     7
100
AcDbLine
 10
73.567375
 20
313.744338
 30
0.0
 11
73.567375
 21
300.38244
 31
0.0
  0
LINE
  5
84
100
AcDbEntity
  8
LAY-1
  6
CONTINUOUS
 62
     7
100
AcDbLine
 10
76.567375
 20
310.665495
 30
0.0
 11
76.567375
 21
301.902258
 31
0.0
  0
LINE
  5
85
100
AcDbEntity
  8
LAY-1
  6
CONTINUOUS
 62
     7
100
AcDbLine
 10
77.395802
 20
311.4
 30
0.0
 11
99.474446
 21
311.4
 31
0.0
  0
LINE
  5
86
100
AcDbEntity
  8
LAY-1
  6
CONTINUOUS
 62
     7
100
AcDbLine
 10
105.067375
 20
357.4
 30
0.0
 11
125.6
 21
357.4
 31
0.0
  0
LINE
  5
87
100
AcDbEntity
  8
LAY-1
  6
CONTINUOUS
 62
     7
100
AcDbLine
 10
105.067375
 20
357.4
 30
0.0
 11
104.410597
 21
319.773196
 31
0.0
  0
ARC
  5
88
100
AcDbEntity
  8
LAY-1
  6
CONTINUOUS
 62
     7
100
AcDbCircle
 10
99.474446
 20
315.4
 30
0.0
 40
4.0
100
AcDbArc
 50
270.0
 51
337.188358
  0
ARC
  5
89
100
AcDbEntity
  8
LAY-1
  6
CONTINUOUS
 62
     7
100
AcDbCircle
 10
88.413033
 20
320.052435
 30
0.0
 40
16.0
100
AcDbArc
 50
278.528444
 51
359.0
  0
LINE
  5
8A
100
AcDbEntity
  8
LAY-1
  6
CONTINUOUS
 62
     7
100
AcDbLine
 10
90.78584
 20
304.229357
 30
0.0
 11
78.657328
 21
302.410583
 31
0.0
  0
ARC
  5
8B
100
AcDbEntity
  8
LAY-1
  6
CONTINUOUS
 62
     7
100
AcDbCircle
 10
80.436933
 20
290.543274
 30
0.0
 40
12.0
100
AcDbArc
 50
98.528444
 51
151.226927
  0
ARC
  5
8C
100
AcDbEntity
  8
LAY-1
  6
CONTINUOUS
 62
     7
100
AcDbCircle
 10
57.65194
 20
279.513976
 30
0.0
 40
2.0
100
AcDbArc
 50
2.0
 51
76.28957
  0
LINE
  5
8D
100
AcDbEntity
  8
LAY-1
  6
CONTINUOUS
 62
     7
100
AcDbLine
 10
59.650722
 20
279.583775
 30
0.0
 11
60.532596
 21
254.330201
 31
0.0
  0
ARC
  5
8E
100
AcDbEntity
  8
LAY-1
  6
CONTINUOUS
 62
     7
100
AcDbCircle
 10
62.531378
 20
254.4
 30
0.0
 40
2.0
100
AcDbArc
 50
182.0
 51
270.0
  0
LINE
  5
8F
100
AcDbEntity
  8
LAY-1
  6
CONTINUOUS
 62
     7
100
AcDbLine
 10
62.531378
 20
252.4
 30
0.0
 11
78.668622
 21
252.4
 31
0.0
  0
LINE
  5
90
100
AcDbEntity
  8
LAY-1
  6
CONTINUOUS
 62
     7
100
AcDbLine
 10
81.063642
 20
265.676961
 30
0.0
 11
80.667404
 21
254.330201
 31
0.0
  0
ARC
  5
91
100
AcDbEntity
  8
LAY-1
  6
CONTINUOUS
 62
     7
100
AcDbCircle
 10
82.063033
 20
265.642062
 30
0.0
 40
1.0
100
AcDbArc
 50
19.745101
 51
178.0
  0
ARC
  5
92
100
AcDbEntity
  8
LAY-1
  6
CONTINUOUS
 62
     7
100
AcDbCircle
 10
81.89576
 20
252.796396
 30
0.0
 40
1.603604
100
AcDbArc
 50
1.0
 51
153.576654
  0
ARC
  5
93
100
AcDbEntity
  8
LAY-1
  6
CONTINUOUS
 62
     7
100
AcDbCircle
 10
78.668622
 20
254.4
 30
0.0
 40
2.0
100
AcDbArc
 50
270.0
 51
358.0
  0
LINE
  5
94
100
AcDbEntity
  8
LAY-1
  6
CONTINUOUS
 62
     7
100
AcDbLine
 10
120.6
 20
275.581312
 30
0.0
 11
125.6
 21
275.581312
 31
0.0
  0
LINE
  5
95
100
AcDbEntity
  8
LAY-1
  6
CONTINUOUS
 62
     7
100
AcDbLine
 10
125.6
 20
276.581312
 30
0.0
 11
120.6
 21
276.581312
 31
0.0
  0
LINE
  5
96
100
AcDbEntity
  8
LAY-1
  6
CONTINUOUS
 62
     7
100
AcDbLine
 10
120.6
 20
284.581312
 30
0.0
 11
125.6
 21
284.581312
 31
0.0
  0
LINE
  5
97
100
AcDbEntity
  8
LAY-1
  6
CONTINUOUS
 62
     7
100
AcDbLine
 10
120.6
 20
285.581312
 30
0.0
 11
125.6
 21
285.581312
 31
0.0
  0
ARC
  5
98
100
AcDbEntity
  8
LAY-1
  6
CONTINUOUS
 62
     7
100
AcDbCircle
 10
120.6
 20
280.581312
 30
0.0
 40
4.0
100
AcDbArc
 50
90.0
 51
270.0
  0
ARC
  5
99
100
AcDbEntity
  8
LAY-1
  6
CONTINUOUS
 62
     7
100
AcDbCircle
 10
120.6
 20
280.581312
 30
0.0
 40
5.0
100
AcDbArc
 50
90.0
 51
270.0
  0
ARC
  5
9A
100
AcDbEntity
  8
LAY-1
  6
CONTINUOUS
 62
     7
100
AcDbCircle
 10
104.378703
 20
259.877187
 30
0.0
 40
2.0
100
AcDbArc
 50
135.0
 51
181.5
  0
LINE
  5
9B
100
AcDbEntity
  8
LAY-1
  6
CONTINUOUS
 62
     7
100
AcDbLine
 10
115.487302
 20
273.814214
 30
0.0
 11
102.964489
 21
261.291401
 31
0.0
  0
ARC
  5
9C
100
AcDbEntity
  8
LAY-1
  6
CONTINUOUS
 62
     7
100
AcDbCircle
 10
116.901515
 20
272.4
 30
0.0
 40
2.0
100
AcDbArc
 50
90.0
 51
135.0
  0
LINE
  5
9D
100
AcDbEntity
  8
LAY-1
  6
CONTINUOUS
 62
     7
100
AcDbLine
 10
116.901515
 20
274.4
 30
0.0
 11
125.6
 21
274.4
 31
0.0
  0
ARC
  5
9E
100
AcDbEntity
  8
LAY-1
  6
CONTINUOUS
 62
     7
100
AcDbCircle
 10
116.901515
 20
272.4
 30
0.0
 40
2.0
100
AcDbArc
 50
90.0
 51
135.0
  0
LINE
  5
9F
100
AcDbEntity
  8
LAY-1
  6
CONTINUOUS
 62
     7
100
AcDbLine
 10
58.6
 20
281.4
 30
0.0
 11
96.943638
 21
281.4
 31
0.0
  0
LINE
  5
A0
100
AcDbEntity
  8
LAY-1
  6
EXLTYPE3
 62
     1
100
AcDbLine
 10
125.6
 20
251.4
 30
0.0
 11
95.6
 21
251.4
 31
0.0
  0
ARC
  5
A1
100
AcDbEntity
  8
LAY-1
  6
CONTINUOUS
 62
     7
100
AcDbCircle
 10
103.040602
 20
215.070835
 30
0.0
 40
1.5
100
AcDbArc
 50
300.0
 51
0.0
  0
ARC
  5
A2
100
AcDbEntity
  8
LAY-1
  6
CONTINUOUS
 62
     7
100
AcDbCircle
 10
99.790602
 20
220.7
 30
0.0
 40
8.0
100
AcDbArc
 50
270.0
 51
300.0
  0
LINE
  5
A3
100
AcDbEntity
  8
LAY-1
  6
CONTINUOUS
 62
     7
100
AcDbLine
 10
104.540602
 20
215.070835
 30
0.0
 11
104.540602
 21
216.4
 31
0.0
  0
ARC
  5
A4
100
AcDbEntity
  8
LAY-1
  6
CONTINUOUS
 62
     7
100
AcDbCircle
 10
96.540602
 20
215.070835
 30
0.0
 40
1.5
100
AcDbArc
 50
180.0
 51
240.0
  0
ARC
  5
A5
100
AcDbEntity
  8
LAY-1
  6
CONTINUOUS
 62
     7
100
AcDbCircle
 10
99.790602
 20
220.7
 30
0.0
 40
8.0
100
AcDbArc
 50
240.0
 51
270.0
  0
LINE
  5
A6
100
AcDbEntity
  8
LAY-1
  6
CONTINUOUS
 62
     7
100
AcDbLine
 10
95.040602
 20
215.070835
 30
0.0
 11
95.040602
 21
216.4
 31
0.0
  0
LINE
  5
A7
100
AcDbEntity
  8
LAY-1
  6
CONTINUOUS
 62
     7
100
AcDbLine
 10
84.1
 20
216.4
 30
0.0
 11
125.6
 21
216.4
 31
0.0
  0
LINE
  5
A8
100
AcDbEntity
  8
LAY-1
  6
CONTINUOUS
 62
     7
100
AcDbLine
 10
84.1
 20
218.4
 30
0.0
 11
84.1
 21
216.4
 31
0.0
  0
LINE
  5
A9
100
AcDbEntity
  8
LAY-1
  6
EXLTYPE3
 62
     1
100
AcDbLine
 10
125.6
 20
375.7
 30
0.0
 11
125.6
 21
205.7
 31
0.0
  0
LINE
  5
AA
100
AcDbEntity
  8
LAY-1
  6
CONTINUOUS
 62
     7
100
AcDbLine
 10
115.01955
 20
213.4
 30
0.0
 11
125.6
 21
213.4
 31
0.0
  0
ARC
  5
AB
100
AcDbEntity
  8
LAY-1
  6
CONTINUOUS
 62
     7
100
AcDbCircle
 10
115.01955
 20
215.9
 30
0.0
 40
2.5
100
AcDbArc
 50
190.0
 51
270.0
  0
ARC
  5
AC
100
AcDbEntity
  8
LAY-1
  6
CONTINUOUS
 62
     7
100
AcDbCircle
 10
111.97327
 20
215.9
 30
0.0
 40
0.5
100
AcDbArc
 50
10.0
 51
90.0
  0
LINE
  5
AD
100
AcDbEntity
  8
LAY-1
  6
CONTINUOUS
 62
     7
100
AcDbLine
 10
112.465674
 20
215.986824
 30
0.0
 11
112.55753
 21
215.46588
 31
0.0
  0
LINE
  5
AE
100
AcDbEntity
  8
LAY-1
  6
CONTINUOUS
 62
     7
100
AcDbLine
 10
56.6
 20
283.4
 30
0.0
 11
56.6
 21
313.4
 31
0.0
  0
LINE
  5
AF
100
AcDbEntity
  8
LAY-1
  6
CONTINUOUS
 62
     7
100
AcDbLine
 10
71.22171
 20
295.537197
 30
0.0
 11
71.22171
 21
293.4
 31
0.0
  0
LINE
  5
B0
100
AcDbEntity
  8
LAY-1
  6
CONTINUOUS
 62
     7
100
AcDbLine
 10
61.72171
 20
295.537197
 30
0.0
 11
61.72171
 21
293.4
 31
0.0
  0
ARC
  5
B1
100
AcDbEntity
  8
LAY-1
  6
CONTINUOUS
 62
     7
100
AcDbCircle
 10
66.47171
 20
289.1
 30
0.0
 40
8.0
100
AcDbArc
 50
53.576426
 51
126.423574
  0
ARC
  5
B2
100
AcDbEntity
  8
LAY-1
  6
CONTINUOUS
 62
     7
100
AcDbCircle
 10
101.10826
 20
289.1
 30
0.0
 40
8.0
100
AcDbArc
 50
53.576426
 51
126.423574
  0
LINE
  5
B3
100
AcDbEntity
  8
LAY-1
  6
CONTINUOUS
 62
     7
100
AcDbLine
 10
96.35826
 20
295.537197
 30
0.0
 11
96.35826
 21
293.4
 31
0.0
  0
LINE
  5
B4
100
AcDbEntity
  8
LAY-1
  6
CONTINUOUS
 62
     7
100
AcDbLine
 10
105.85826
 20
295.537197
 30
0.0
 11
105.85826
 21
293.4
 31
0.0
  0
ARC
  5
B5
100
AcDbEntity
  8
LAY-1
  6
CONTINUOUS
 62
     7
100
AcDbCircle
 10
57.1
 20
292.9
 30
0.0
 40
0.5
100
AcDbArc
 50
90.0
 51
180.0
  0
LINE
  5
B6
100
AcDbEntity
  8
LAY-1
  6
CONTINUOUS
 62
     7
100
AcDbLine
 10
57.1
 20
293.4
 30
0.0
 11
125.6
 21
293.4
 31
0.0
  0
LINE
  5
B7
100
AcDbEntity
  8
LAY-1
  6
CONTINUOUS
 62
     7
100
AcDbLine
 10
104.6
 20
359.9
 30
0.0
 11
125.6
 21
359.9
 31
0.0
  0
LINE
  5
B8
100
AcDbEntity
  8
LAY-1
  6
CONTINUOUS
 62
     7
100
AcDbLine
 10
104.6
 20
358.4
 30
0.0
 11
125.6
 21
358.4
 31
0.0
  0
LINE
  5
B9
100
AcDbEntity
  8
LAY-1
  6
CONTINUOUS
 62
     7
100
AcDbLine
 10
105.567375
 20
357.4
 30
0.0
 11
105.567375
 21
358.4
 31
0.0
  0
LINE
  5
BA
100
AcDbEntity
  8
LAY-1
  6
CONTINUOUS
 62
     7
100
AcDbLine
 10
104.6
 20
358.4
 30
0.0
 11
104.6
 21
359.9
 31
0.0
  0
ARC
  5
BB
100
AcDbEntity
  8
LAY-1
  6
CONTINUOUS
 62
     7
100
AcDbCircle
 10
117.6
 20
345.793164
 30
0.0
 40
23.106836
100
AcDbArc
 50
69.743842
 51
110.256158
  0
LINE
  5
BC
100
AcDbEntity
  8
LAY-1
  6
CONTINUOUS
 62
     7
100
AcDbLine
 10
109.6
 20
368.9
 30
0.0
 11
125.6
 21
368.9
 31
0.0
  0
LINE
  5
BD
100
AcDbEntity
  8
LAY-1
  6
CONTINUOUS
 62
     7
100
AcDbLine
 10
109.6
 20
359.9
 30
0.0
 11
109.6
 21
368.9
 31
0.0
  0
ARC
  5
BE
100
AcDbEntity
  8
LAY-1
  6
CONTINUOUS
 62
     7
100
AcDbCircle
 10
112.065689
 20
303.4
 30
0.0
 40
1.0
100
AcDbArc
 50
90.0
 51
178.0
  0
LINE
  5
BF
100
AcDbEntity
  8
LAY-1
  6
CONTINUOUS
 62
     7
100
AcDbLine
 10
111.066298
 20
303.434899
 30
0.0
 11
110.749574
 21
294.365101
 31
0.0
  0
LINE
  5
C0
100
AcDbEntity
  8
LAY-1
  6
CONTINUOUS
 62
     7
100
AcDbLine
 10
112.065689
 20
304.4
 30
0.0
 11
125.6
 21
304.4
 31
0.0
  0
ARC
  5
C1
100
AcDbEntity
  8
LAY-1
  6
CONTINUOUS
 62
     7
100
AcDbCircle
 10
109.750183
 20
294.4
 30
0.0
 40
1.0
100
AcDbArc
 50
270.0
 51
358.0
  0
ARC
  5
C2
100
AcDbEntity
  8
LAY-1
  6
CONTINUOUS
 62
     7
100
AcDbCircle
 10
57.6
 20
313.4
 30
0.0
 40
1.0
100
AcDbArc
 50
90.0
 51
180.0
  0
LINE
  5
C3
100
AcDbEntity
  8
LAY-1
  6
CONTINUOUS
 62
     7
100
AcDbLine
 10
57.6
 20
314.4
 30
0.0
 11
72.738948
 21
314.4
 31
0.0
  0
ARC
  5
C4
100
AcDbEntity
  8
LAY-1
  6
CONTINUOUS
 62
     7
100
AcDbCircle
 10
77.395802
 20
313.4
 30
0.0
 40
2.0
100
AcDbArc
 50
225.0
 51
270.0
  0
ARC
  5
C5
100
AcDbEntity
  8
LAY-1
  6
CONTINUOUS
 62
     7
100
AcDbCircle
 10
72.738948
 20
312.4
 30
0.0
 40
2.0
100
AcDbArc
 50
45.0
 51
90.0
  0
LINE
  5
C6
100
AcDbEntity
  8
LAY-1
  6
CONTINUOUS
 62
     7
100
AcDbLine
 10
74.153161
 20
313.814214
 30
0.0
 11
75.981588
 21
311.985786
 31
0.0
  0
ARC
  5
C7
100
AcDbEntity
  8
LAY-1
  6
CONTINUOUS
 62
     1
100
AcDbCircle
 10
125.6
 20
251.4
 30
0.0
 40
16.613032
100
AcDbArc
 50
90.0
 51
270.0
  0
ARC
  5
C8
100
AcDbEntity
  8
LAY-1
  6
CONTINUOUS
 62
     7
100
AcDbCircle
 10
125.6
 20
251.4
 30
0.0
 40
17.0
100
AcDbArc
 50
90.0
 51
270.0
  0
LINE
  5
C9
100
AcDbEntity
  8
LAY-1
  6
CONTINUOUS
 62
     7
100
AcDbLine
 10
120.2
 20
237.310508
 30
0.0
 11
120.2
 21
237.293605
 31
0.0
  0
ARC
  5
CA
100
AcDbEntity
  8
LAY-1
  6
CONTINUOUS
 62
     7
100
AcDbCircle
 10
125.6
 20
251.4
 30
0.0
 40
15.088863
100
AcDbArc
 50
90.0
 51
270.0
  0
ARC
  5
CB
100
AcDbEntity
  8
LAY-1
  6
CONTINUOUS
 62
     7
100
AcDbCircle
 10
98.60826
 20
276.4
 30
0.0
 40
2.0
100
AcDbArc
 50
180.0
 51
270.0
  0
LINE
  5
CC
100
AcDbEntity
  8
LAY-1
  6
CONTINUOUS
 62
     7
100
AcDbLine
 10
96.60826
 20
279.4
 30
0.0
 11
96.60826
 21
276.4
 31
0.0
  0
LINE
  5
CD
100
AcDbEntity
  8
LAY-1
  6
CONTINUOUS
 62
     7
100
AcDbLine
 10
98.60826
 20
274.4
 30
0.0
 11
100.04941
 21
274.4
 31
0.0
  0
ARC
  5
CE
100
AcDbEntity
  8
LAY-1
  6
CONTINUOUS
 62
     7
100
AcDbCircle
 10
58.6
 20
283.4
 30
0.0
 40
2.0
100
AcDbArc
 50
180.0
 51
270.0
  0
ARC
  5
CF
100
AcDbEntity
  8
LAY-1
  6
CONTINUOUS
 62
     7
100
AcDbCircle
 10
94.60826
 20
279.4
 30
0.0
 40
2.0
100
AcDbArc
 50
0.0
 51
90.0
  0
ARC
  5
D0
100
AcDbEntity
  8
LAY-1
  6
CONTINUOUS
 62
     7
100
AcDbCircle
 10
100.04941
 20
272.4
 30
0.0
 40
2.0
100
AcDbArc
 50
1.5
 51
90.0
  0
ARC
  5
D1
100
AcDbEntity
  8
LAY-1
  6
CONTINUOUS
 62
     7
100
AcDbCircle
 10
96.943638
 20
276.4
 30
0.0
 40
5.0
100
AcDbArc
 50
1.5
 51
90.0
  0
LINE
  5
D2
100
AcDbEntity
  8
LAY-1
  6
CONTINUOUS
 62
     7
100
AcDbLine
 10
102.835292
 20
242.414554
 30
0.0
 11
101.941925
 21
276.530885
 31
0.0
  0
LINE
  5
D3
100
AcDbEntity
  8
LAY-1
  6
CONTINUOUS
 62
     7
100
AcDbLine
 10
85.588391
 20
267.4
 30
0.0
 11
102.181025
 21
267.4
 31
0.0
  0
ARC
  5
D4
100
AcDbEntity
  8
LAY-1
  6
CONTINUOUS
 62
     7
100
AcDbCircle
 10
78.298213
 20
264.290717
 30
0.0
 40
5.0
100
AcDbArc
 50
1.0
 51
60.921211
  0
LINE
  5
D5
100
AcDbEntity
  8
LAY-1
  6
CONTINUOUS
 62
     7
100
AcDbLine
 10
84.1
 20
218.4
 30
0.0
 11
83.297451
 21
264.377979
 31
0.0
  0
ARC
  5
D6
100
AcDbEntity
  8
LAY-1
  6
CONTINUOUS
 62
     7
100
AcDbCircle
 10
85.588391
 20
277.4
 30
0.0
 40
10.0
100
AcDbArc
 50
225.0
 51
270.0
  0
LINE
  5
D7
100
AcDbEntity
  8
LAY-1
  6
CONTINUOUS
 62
     7
100
AcDbLine
 10
68.324935
 20
280.52132
 30
0.0
 11
78.517323
 21
270.328932
 31
0.0
  0
ARC
  5
D8
100
AcDbEntity
  8
LAY-1
  6
CONTINUOUS
 62
     7
100
AcDbCircle
 10
66.203615
 20
278.4
 30
0.0
 40
3.0
100
AcDbArc
 50
45.0
 51
90.0
  0
LINE
  5
D9
100
AcDbEntity
  8
LAY-1
  6
CONTINUOUS
 62
     7
100
AcDbLine
 10
56.6
 20
287.4
 30
0.0
 11
125.6
 21
287.4
 31
0.0
  0
ARC
  5
DA
100
AcDbEntity
  8
LAY-1
  6
CONTINUOUS
 62
     7
100
AcDbCircle
 10
118.407021
 20
260.9
 30
0.0
 40
1.5
100
AcDbArc
 50
2.0
 51
90.0
  0
LINE
  5
DB
100
AcDbEntity
  8
LAY-1
  6
CONTINUOUS
 62
     7
100
AcDbLine
 10
115.401961
 20
262.4
 30
0.0
 11
125.6
 21
262.4
 31
0.0
  0
LINE
  5
DC
100
AcDbEntity
  8
LAY-1
  6
CONTINUOUS
 62
     7
100
AcDbLine
 10
120.066298
 20
256.365101
 30
0.0
 11
119.906108
 21
260.952349
 31
0.0
  0
LINE
  5
DD
100
AcDbEntity
  8
LAY-1
  6
CONTINUOUS
 62
     7
100
AcDbLine
 10
125.6
 20
255.4
 30
0.0
 11
121.065689
 21
255.4
 31
0.0
  0
ARC
  5
DE
100
AcDbEntity
  8
LAY-1
  6
CONTINUOUS
 62
     7
100
AcDbCircle
 10
121.065689
 20
256.4
 30
0.0
 40
1.0
100
AcDbArc
 50
182.0
 51
270.0
  0
LINE
  5
DF
100
AcDbEntity
  8
LAY-1
  6
CONTINUOUS
 62
     7
100
AcDbLine
 10
110.63337
 20
250.4
 30
0.0
 11
125.6
 21
250.4
 31
0.0
  0
LINE
  5
E0
100
AcDbEntity
  8
LAY-1
  6
CONTINUOUS
 62
     7
100
AcDbLine
 10
111.143168
 20
247.4
 30
0.0
 11
125.6
 21
247.4
 31
0.0
  0
LINE
  5
E1
100
AcDbEntity
  8
LAY-1
  6
CONTINUOUS
 62
     7
100
AcDbLine
 10
116.901515
 20
228.4
 30
0.0
 11
125.6
 21
228.4
 31
0.0
  0
ARC
  5
E2
100
AcDbEntity
  8
LAY-1
  6
CONTINUOUS
 62
     7
100
AcDbCircle
 10
104.834607
 20
242.466908
 30
0.0
 40
2.0
100
AcDbArc
 50
181.5
 51
225.0
  0
LINE
  5
E3
100
AcDbEntity
  8
LAY-1
  6
CONTINUOUS
 62
     7
100
AcDbLine
 10
115.487302
 20
228.985786
 30
0.0
 11
103.420393
 21
241.052695
 31
0.0
  0
ARC
  5
E4
100
AcDbEntity
  8
LAY-1
  6
CONTINUOUS
 62
     7
100
AcDbCircle
 10
116.901515
 20
230.4
 30
0.0
 40
2.0
100
AcDbArc
 50
225.0
 51
270.0
  0
ARC
  5
E5
100
AcDbEntity
  8
LAY-1
  6
CONTINUOUS
 62
     7
100
AcDbCircle
 10
104.834607
 20
242.466908
 30
0.0
 40
2.0
100
AcDbArc
 50
181.5
 51
225.0
  0
LINE
  5
E6
100
AcDbEntity
  8
LAY-1
  6
CONTINUOUS
 62
     7
100
AcDbLine
 10
115.487302
 20
228.985786
 30
0.0
 11
103.420393
 21
241.052695
 31
0.0
  0
LINE
  5
E7
100
AcDbEntity
  8
LAY-1
  6
CONTINUOUS
 62
     7
100
AcDbLine
 10
116.901515
 20
228.4
 30
0.0
 11
125.6
 21
228.4
 31
0.0
  0
ARC
  5
E8
100
AcDbEntity
  8
LAY-1
  6
CONTINUOUS
 62
     7
100
AcDbCircle
 10
116.901515
 20
230.4
 30
0.0
 40
2.0
100
AcDbArc
 50
225.0
 51
270.0
  0
LINE
  5
E9
100
AcDbEntity
  8
LAY-1
  6
CONTINUOUS
 62
     7
100
AcDbLine
 10
84.1
 20
218.4
 30
0.0
 11
125.6
 21
218.4
 31
0.0
  0
LINE
  5
EA
100
AcDbEntity
  8
LAY-1
  6
CONTINUOUS
 62
     7
100
AcDbLine
 10
121.7
 20
255.4
 30
0.0
 11
121.7
 21
250.4
 31
0.0
  0
LINE
  5
EB
100
AcDbEntity
  8
LAY-1
  6
EXLTYPE3
 62
     1
100
AcDbLine
 10
325.6
 20
375.7
 30
0.0
 11
325.6
 21
205.7
 31
0.0
  0
LINE
  5
EC
100
AcDbEntity
  8
LAY-1
  6
CONTINUOUS
 62
     7
100
AcDbLine
 10
367.1
 20
218.4
 30
0.0
 11
367.1
 21
216.4
 31
0.0
  0
LINE
  5
ED
100
AcDbEntity
  8
LAY-1
  6
CONTINUOUS
 62
     7
100
AcDbLine
 10
325.6
 20
218.4
 30
0.0
 11
367.1
 21
218.4
 31
0.0
  0
LINE
  5
EE
100
AcDbEntity
  8
LAY-1
  6
CONTINUOUS
 62
     7
100
AcDbLine
 10
284.1
 20
218.4
 30
0.0
 11
284.1
 21
216.4
 31
0.0
  0
LINE
  5
EF
100
AcDbEntity
  8
LAY-1
  6
CONTINUOUS
 62
     7
100
AcDbLine
 10
315.01955
 20
213.4
 30
0.0
 11
325.6
 21
213.4
 31
0.0
  0
ARC
  5
F0
100
AcDbEntity
  8
LAY-1
  6
CONTINUOUS
 62
     7
100
AcDbCircle
 10
315.01955
 20
215.9
 30
0.0
 40
2.5
100
AcDbArc
 50
190.0
 51
270.0
  0
ARC
  5
F1
100
AcDbEntity
  8
LAY-1
  6
CONTINUOUS
 62
     7
100
AcDbCircle
 10
311.97327
 20
215.9
 30
0.0
 40
0.5
100
AcDbArc
 50
10.0
 51
90.0
  0
LINE
  5
F2
100
AcDbEntity
  8
LAY-1
  6
CONTINUOUS
 62
     7
100
AcDbLine
 10
312.465674
 20
215.986824
 30
0.0
 11
312.55753
 21
215.46588
 31
0.0
  0
LINE
  5
F3
100
AcDbEntity
  8
LAY-1
  6
CONTINUOUS
 62
     7
100
AcDbLine
 10
336.18045
 20
213.4
 30
0.0
 11
325.6
 21
213.4
 31
0.0
  0
ARC
  5
F4
100
AcDbEntity
  8
LAY-1
  6
CONTINUOUS
 62
     7
100
AcDbCircle
 10
336.18045
 20
215.9
 30
0.0
 40
2.5
100
AcDbArc
 50
270.0
 51
350.0
  0
ARC
  5
F5
100
AcDbEntity
  8
LAY-1
  6
CONTINUOUS
 62
     7
100
AcDbCircle
 10
339.22673
 20
215.9
 30
0.0
 40
0.5
100
AcDbArc
 50
90.0
 51
170.0
  0
LINE
  5
F6
100
AcDbEntity
  8
LAY-1
  6
CONTINUOUS
 62
     7
100
AcDbLine
 10
375.6
 20
228.4
 30
0.0
 11
373.185786
 21
230.814214
 31
0.0
  0
LINE
  5
F7
100
AcDbEntity
  8
LAY-1
  6
CONTINUOUS
 62
     7
100
AcDbLine
 10
257.6
 20
228.4
 30
0.0
 11
274.771573
 21
228.4
 31
0.0
  0
LINE
  5
F8
100
AcDbEntity
  8
LAY-1
  6
CONTINUOUS
 62
     7
100
AcDbLine
 10
395.6
 20
272.4
 30
0.0
 11
395.6
 21
230.4
 31
0.0
  0
LINE
  5
F9
100
AcDbEntity
  8
LAY-1
  6
CONTINUOUS
 62
     7
100
AcDbLine
 10
394.6
 20
287.4
 30
0.0
 11
394.6
 21
275.045751
 31
0.0
  0
ARC
  5
FA
100
AcDbEntity
  8
LAY-1
  6
CONTINUOUS
 62
     7
100
AcDbCircle
 10
396.6
 20
275.045751
 30
0.0
 40
2.0
100
AcDbArc
 50
180.0
 51
221.409622
  0
ARC
  5
FB
100
AcDbEntity
  8
LAY-1
  6
CONTINUOUS
 62
     7
100
AcDbCircle
 10
393.6
 20
272.4
 30
0.0
 40
2.0
100
AcDbArc
 50
0.0
 51
41.409622
  0
LINE
  5
FC
100
AcDbEntity
  8
LAY-1
  6
CONTINUOUS
 62
     7
100
AcDbLine
 10
255.6
 20
272.4
 30
0.0
 11
255.6
 21
230.4
 31
0.0
  0
ARC
  5
FD
100
AcDbEntity
  8
LAY-1
  6
CONTINUOUS
 62
     7
100
AcDbCircle
 10
254.6
 20
275.045751
 30
0.0
 40
2.0
100
AcDbArc
 50
318.590378
 51
0.0
  0
LINE
  5
FE
100
AcDbEntity
  8
LAY-1
  6
EXLTYPE3
 62
     1
100
AcDbLine
 10
251.3
 20
251.4
 30
0.0
 11
399.3
 21
251.4
 31
0.0
  0
ARC
  5
FF
100
AcDbEntity
  8
LAY-1
  6
CONTINUOUS
 62
     7
100
AcDbCircle
 10
393.6
 20
230.4
 30
0.0
 40
2.0
100
AcDbArc
 50
270.0
 51
0.0
  0
LINE
  5
100
100
AcDbEntity
  8
LAY-1
  6
CONTINUOUS
 62
     7
100
AcDbLine
 10
393.6
 20
228.4
 30
0.0
 11
376.428427
 21
228.4
 31
0.0
  0
ARC
  5
101
100
AcDbEntity
  8
LAY-1
  6
CONTINUOUS
 62
     7
100
AcDbCircle
 10
257.6
 20
230.4
 30
0.0
 40
2.0
100
AcDbArc
 50
180.0
 51
270.0
  0
ARC
  5
102
100
AcDbEntity
  8
LAY-1
  6
CONTINUOUS
 62
     7
100
AcDbCircle
 10
280.924992
 20
228.4
 30
0.0
 40
3.0
100
AcDbArc
 50
1.0
 51
90.0
  0
ARC
  5
103
100
AcDbEntity
  8
LAY-1
  6
CONTINUOUS
 62
     7
100
AcDbCircle
 10
370.275008
 20
228.4
 30
0.0
 40
3.0
100
AcDbArc
 50
90.0
 51
179.0
  0
LINE
  5
104
100
AcDbEntity
  8
LAY-1
  6
CONTINUOUS
 62
     7
100
AcDbLine
 10
371.771573
 20
231.4
 30
0.0
 11
370.275008
 21
231.4
 31
0.0
  0
LINE
  5
105
100
AcDbEntity
  8
LAY-1
  6
CONTINUOUS
 62
     7
100
AcDbLine
 10
284.1
 20
218.4
 30
0.0
 11
325.6
 21
218.4
 31
0.0
  0
LINE
  5
106
100
AcDbEntity
  8
LAY-1
  6
CONTINUOUS
 62
     7
100
AcDbLine
 10
279.428427
 20
231.4
 30
0.0
 11
281.1
 21
231.4
 31
0.0
  0
ARC
  5
107
100
AcDbEntity
  8
LAY-1
  6
CONTINUOUS
 62
     7
100
AcDbCircle
 10
371.771573
 20
229.4
 30
0.0
 40
2.0
100
AcDbArc
 50
45.0
 51
90.0
  0
ARC
  5
108
100
AcDbEntity
  8
LAY-1
  6
CONTINUOUS
 62
     7
100
AcDbCircle
 10
376.428427
 20
230.4
 30
0.0
 40
2.0
100
AcDbArc
 50
225.0
 51
270.0
  0
ARC
  5
109
100
AcDbEntity
  8
LAY-1
  6
CONTINUOUS
 62
     7
100
AcDbCircle
 10
279.428427
 20
229.4
 30
0.0
 40
2.0
100
AcDbArc
 50
90.0
 51
135.0
  0
ARC
  5
10A
100
AcDbEntity
  8
LAY-1
  6
CONTINUOUS
 62
     7
100
AcDbCircle
 10
274.771573
 20
230.4
 30
0.0
 40
2.0
100
AcDbArc
 50
270.0
 51
315.0
  0
LINE
  5
10B
100
AcDbEntity
  8
LAY-1
  6
EXLTYPE3
 62
     1
100
AcDbLine
 10
250.6
 20
481.4
 30
0.0
 11
400.6
 21
481.4
 31
0.0
  0
ARC
  5
10C
100
AcDbEntity
  8
LAY-1
  6
CONTINUOUS
 62
     7
100
AcDbCircle
 10
256.6
 20
503.4
 30
0.0
 40
1.0
100
AcDbArc
 50
90.0
 51
180.0
  0
LINE
  5
10D
100
AcDbEntity
  8
LAY-1
  6
CONTINUOUS
 62
     7
100
AcDbLine
 10
260.546176
 20
504.4
 30
0.0
 11
256.6
 21
504.4
 31
0.0
  0
LINE
  5
10E
100
AcDbEntity
  8
LAY-1
  6
CONTINUOUS
 62
     7
100
AcDbLine
 10
255.6
 20
503.4
 30
0.0
 11
255.6
 21
481.4
 31
0.0
  0
ARC
  5
10F
100
AcDbEntity
  8
LAY-1
  6
CONTINUOUS
 62
     7
100
AcDbCircle
 10
394.6
 20
503.4
 30
0.0
 40
1.0
100
AcDbArc
 50
0.0
 51
90.0
  0
LINE
  5
110
100
AcDbEntity
  8
LAY-1
  6
CONTINUOUS
 62
     7
100
AcDbLine
 10
390.653824
 20
504.4
 30
0.0
 11
394.6
 21
504.4
 31
0.0
  0
LINE
  5
111
100
AcDbEntity
  8
LAY-1
  6
CONTINUOUS
 62
     7
100
AcDbLine
 10
395.6
 20
503.4
 30
0.0
 11
395.6
 21
481.4
 31
0.0
  0
ARC
  5
112
100
AcDbEntity
  8
LAY-1
  6
CONTINUOUS
 62
     7
100
AcDbCircle
 10
325.6
 20
481.4
 30
0.0
 40
69.0
100
AcDbArc
 50
0.0
 51
180.0
  0
ARC
  5
113
100
AcDbEntity
  8
LAY-1
  6
CONTINUOUS
 62
     7
100
AcDbCircle
 10
325.6
 20
481.4
 30
0.0
 40
56.622648
100
AcDbArc
 50
0.0
 51
79.827766
  0
ARC
  5
114
100
AcDbEntity
  8
LAY-1
  6
CONTINUOUS
 62
     7
100
AcDbCircle
 10
325.6
 20
481.4
 30
0.0
 40
21.0
100
AcDbArc
 50
0.0
 51
90.0
  0
ARC
  5
115
100
AcDbEntity
  8
LAY-1
  6
CONTINUOUS
 62
     7
100
AcDbCircle
 10
325.6
 20
481.4
 30
0.0
 40
21.0
100
AcDbArc
 50
90.0
 51
180.0
  0
ARC
  5
116
100
AcDbEntity
  8
LAY-1
  6
CONTINUOUS
 62
     7
100
AcDbCircle
 10
274.1
 20
481.4
 30
0.0
 40
14.5
100
AcDbArc
 50
0.0
 51
180.0
  0
ARC
  5
117
100
AcDbEntity
  8
LAY-1
  6
CONTINUOUS
 62
     7
100
AcDbCircle
 10
274.1
 20
481.4
 30
0.0
 40
12.75
100
AcDbArc
 50
0.0
 51
180.0
  0
LINE
  5
118
100
AcDbEntity
  8
LAY-1
  6
CONTINUOUS
 62
     7
100
AcDbLine
 10
285.1
 20
483.4
 30
0.0
 11
285.1
 21
481.4
 31
0.0
  0
LINE
  5
119
100
AcDbEntity
  8
LAY-1
  6
CONTINUOUS
 62
     7
100
AcDbLine
 10
263.1
 20
481.4
 30
0.0
 11
263.1
 21
483.4
 31
0.0
  0
LINE
  5
11A
100
AcDbEntity
  8
LAY-1
  6
CONTINUOUS
 62
     7
100
AcDbLine
 10
263.1
 20
483.4
 30
0.0
 11
285.1
 21
483.4
 31
0.0
  0
ARC
  5
11B
100
AcDbEntity
  8
LAY-1
  6
CONTINUOUS
 62
     7
100
AcDbCircle
 10
325.6
 20
481.4
 30
0.0
 40
56.622648
100
AcDbArc
 50
100.172234
 51
165.569168
  0
ARC
  5
11C
100
AcDbEntity
  8
LAY-1
  6
CONTINUOUS
 62
     7
100
AcDbCircle
 10
325.6
 20
510.20682
 30
0.0
 40
4.0
100
AcDbArc
 50
222.663233
 51
317.336767
  0
LINE
  5
11D
100
AcDbEntity
  8
LAY-1
  6
CONTINUOUS
 62
     7
100
AcDbLine
 10
318.6
 20
511.9
 30
0.0
 11
322.658602
 21
507.496069
 31
0.0
  0
LINE
  5
11E
100
AcDbEntity
  8
LAY-1
  6
CONTINUOUS
 62
     7
100
AcDbLine
 10
332.6
 20
511.9
 30
0.0
 11
328.541398
 21
507.496069
 31
0.0
  0
LINE
  5
11F
100
AcDbEntity
  8
LAY-1
  6
CONTINUOUS
 62
     7
100
AcDbLine
 10
319.32
 20
530.4
 30
0.0
 11
325.6
 21
530.4
 31
0.0
  0
LINE
  5
120
100
AcDbEntity
  8
LAY-1
  6
CONTINUOUS
 62
     7
100
AcDbLine
 10
316.53
 20
533.4
 30
0.0
 11
325.6
 21
533.4
 31
0.0
  0
ARC
  5
121
100
AcDbEntity
  8
LAY-1
  6
CONTINUOUS
 62
     7
100
AcDbCircle
 10
316.6
 20
529.571573
 30
0.0
 40
2.0
100
AcDbArc
 50
0.0
 51
45.0
  0
LINE
  5
122
100
AcDbEntity
  8
LAY-1
  6
CONTINUOUS
 62
     7
100
AcDbLine
 10
318.6
 20
529.571573
 30
0.0
 11
318.6
 21
511.9
 31
0.0
  0
LINE
  5
123
100
AcDbEntity
  8
LAY-1
  6
CONTINUOUS
 62
     7
100
AcDbLine
 10
318.014214
 20
530.985786
 30
0.0
 11
316.185786
 21
532.814214
 31
0.0
  0
ARC
  5
124
100
AcDbEntity
  8
LAY-1
  6
CONTINUOUS
 62
     7
100
AcDbCircle
 10
317.6
 20
534.228427
 30
0.0
 40
2.0
100
AcDbArc
 50
180.0
 51
225.0
  0
LINE
  5
125
100
AcDbEntity
  8
LAY-1
  6
CONTINUOUS
 62
     7
100
AcDbLine
 10
315.6
 20
549.671517
 30
0.0
 11
315.6
 21
534.228427
 31
0.0
  0
LINE
  5
126
100
AcDbEntity
  8
LAY-1
  6
CONTINUOUS
 62
     7
100
AcDbLine
 10
331.88
 20
530.4
 30
0.0
 11
325.6
 21
530.4
 31
0.0
  0
LINE
  5
127
100
AcDbEntity
  8
LAY-1
  6
CONTINUOUS
 62
     7
100
AcDbLine
 10
334.67
 20
533.4
 30
0.0
 11
325.6
 21
533.4
 31
0.0
  0
ARC
  5
128
100
AcDbEntity
  8
LAY-1
  6
CONTINUOUS
 62
     7
100
AcDbCircle
 10
334.6
 20
529.571573
 30
0.0
 40
2.0
100
AcDbArc
 50
135.0
 51
180.0
  0
LINE
  5
129
100
AcDbEntity
  8
LAY-1
  6
CONTINUOUS
 62
     7
100
AcDbLine
 10
332.6
 20
529.571573
 30
0.0
 11
332.6
 21
511.9
 31
0.0
  0
LINE
  5
12A
100
AcDbEntity
  8
LAY-1
  6
CONTINUOUS
 62
     7
100
AcDbLine
 10
333.185786
 20
530.985786
 30
0.0
 11
335.014214
 21
532.814214
 31
0.0
  0
ARC
  5
12B
100
AcDbEntity
  8
LAY-1
  6
CONTINUOUS
 62
     7
100
AcDbCircle
 10
333.6
 20
534.228427
 30
0.0
 40
2.0
100
AcDbArc
 50
315.0
 51
0.0
  0
LINE
  5
12C
100
AcDbEntity
  8
LAY-1
  6
CONTINUOUS
 62
     7
100
AcDbLine
 10
335.6
 20
549.671517
 30
0.0
 11
335.6
 21
534.228427
 31
0.0
  0
LINE
  5
12D
100
AcDbEntity
  8
LAY-1
  6
CONTINUOUS
 62
     7
100
AcDbLine
 10
386.84961
 20
507.305953
 30
0.0
 11
386.142504
 21
508.01306
 31
0.0
  0
LINE
  5
12E
100
AcDbEntity
  8
LAY-1
  6
CONTINUOUS
 62
     7
100
AcDbLine
 10
386.84961
 20
507.305953
 30
0.0
 11
385.859661
 21
506.316004
 31
0.0
  0
ARC
  5
12F
100
AcDbEntity
  8
LAY-1
  6
CONTINUOUS
 62
     7
100
AcDbCircle
 10
386.283925
 20
505.89174
 30
0.0
 40
0.6
100
AcDbArc
 50
135.0
 51
225.0
  0
LINE
  5
130
100
AcDbEntity
  8
LAY-1
  6
CONTINUOUS
 62
     7
100
AcDbLine
 10
385.859661
 20
505.467476
 30
0.0
 11
386.84961
 21
504.477526
 31
0.0
  0
LINE
  5
131
100
AcDbEntity
  8
LAY-1
  6
CONTINUOUS
 62
     7
100
AcDbLine
 10
386.142504
 20
503.770419
 30
0.0
 11
386.84961
 21
504.477526
 31
0.0
  0
LINE
  5
132
100
AcDbEntity
  8
LAY-1
  6
CONTINUOUS
 62
     7
100
AcDbLine
 10
385.152554
 20
504.760369
 30
0.0
 11
386.142504
 21
503.770419
 31
0.0
  0
ARC
  5
133
100
AcDbEntity
  8
LAY-1
  6
CONTINUOUS
 62
     7
100
AcDbCircle
 10
384.72829
 20
504.336105
 30
0.0
 40
0.6
100
AcDbArc
 50
45.0
 51
135.0
  0
LINE
  5
134
100
AcDbEntity
  8
LAY-1
  6
CONTINUOUS
 62
     7
100
AcDbLine
 10
384.304026
 20
504.760369
 30
0.0
 11
383.314077
 21
503.770419
 31
0.0
  0
LINE
  5
135
100
AcDbEntity
  8
LAY-1
  6
CONTINUOUS
 62
     7
100
AcDbLine
 10
382.60697
 20
504.477526
 30
0.0
 11
383.314077
 21
503.770419
 31
0.0
  0
LINE
  5
136
100
AcDbEntity
  8
LAY-1
  6
CONTINUOUS
 62
     7
100
AcDbLine
 10
382.60697
 20
504.477526
 30
0.0
 11
383.596919
 21
505.467476
 31
0.0
  0
ARC
  5
137
100
AcDbEntity
  8
LAY-1
  6
CONTINUOUS
 62
     7
100
AcDbCircle
 10
383.172655
 20
505.89174
 30
0.0
 40
0.6
100
AcDbArc
 50
315.0
 51
45.0
  0
LINE
  5
138
100
AcDbEntity
  8
LAY-1
  6
CONTINUOUS
 62
     7
100
AcDbLine
 10
382.60697
 20
507.305953
 30
0.0
 11
383.596919
 21
506.316004
 31
0.0
  0
LINE
  5
139
100
AcDbEntity
  8
LAY-1
  6
CONTINUOUS
 62
     7
100
AcDbLine
 10
383.314077
 20
508.01306
 30
0.0
 11
382.60697
 21
507.305953
 31
0.0
  0
LINE
  5
13A
100
AcDbEntity
  8
LAY-1
  6
CONTINUOUS
 62
     7
100
AcDbLine
 10
383.314077
 20
508.01306
 30
0.0
 11
384.304026
 21
507.023111
 31
0.0
  0
ARC
  5
13B
100
AcDbEntity
  8
LAY-1
  6
CONTINUOUS
 62
     7
100
AcDbCircle
 10
384.72829
 20
507.447375
 30
0.0
 40
0.6
100
AcDbArc
 50
225.0
 51
315.0
  0
LINE
  5
13C
100
AcDbEntity
  8
LAY-1
  6
CONTINUOUS
 62
     7
100
AcDbLine
 10
385.152554
 20
507.023111
 30
0.0
 11
386.142504
 21
508.01306
 31
0.0
  0
CIRCLE
  5
13D
100
AcDbEntity
  8
LAY-1
  6
CONTINUOUS
 62
     7
100
AcDbCircle
 10
384.72829
 20
505.89174
 30
0.0
 40
4.25
  0
LINE
  5
13E
100
AcDbEntity
  8
LAY-1
  6
CONTINUOUS
 62
     7
100
AcDbLine
 10
268.59303
 20
507.305953
 30
0.0
 11
267.885923
 21
508.01306
 31
0.0
  0
LINE
  5
13F
100
AcDbEntity
  8
LAY-1
  6
CONTINUOUS
 62
     7
100
AcDbLine
 10
268.59303
 20
507.305953
 30
0.0
 11
267.603081
 21
506.316004
 31
0.0
  0
ARC
  5
140
100
AcDbEntity
  8
LAY-1
  6
CONTINUOUS
 62
     7
100
AcDbCircle
 10
268.027345
 20
505.89174
 30
0.0
 40
0.6
100
AcDbArc
 50
135.0
 51
225.0
  0
LINE
  5
141
100
AcDbEntity
  8
LAY-1
  6
CONTINUOUS
 62
     7
100
AcDbLine
 10
267.603081
 20
505.467476
 30
0.0
 11
268.59303
 21
504.477526
 31
0.0
  0
LINE
  5
142
100
AcDbEntity
  8
LAY-1
  6
CONTINUOUS
 62
     7
100
AcDbLine
 10
267.885923
 20
503.770419
 30
0.0
 11
268.59303
 21
504.477526
 31
0.0
  0
LINE
  5
143
100
AcDbEntity
  8
LAY-1
  6
CONTINUOUS
 62
     7
100
AcDbLine
 10
266.895974
 20
504.760369
 30
0.0
 11
267.885923
 21
503.770419
 31
0.0
  0
ARC
  5
144
100
AcDbEntity
  8
LAY-1
  6
CONTINUOUS
 62
     7
100
AcDbCircle
 10
266.47171
 20
504.336105
 30
0.0
 40
0.6
100
AcDbArc
 50
45.0
 51
135.0
  0
LINE
  5
145
100
AcDbEntity
  8
LAY-1
  6
CONTINUOUS
 62
     7
100
AcDbLine
 10
266.047446
 20
504.760369
 30
0.0
 11
265.057496
 21
503.770419
 31
0.0
  0
LINE
  5
146
100
AcDbEntity
  8
LAY-1
  6
CONTINUOUS
 62
     7
100
AcDbLine
 10
264.35039
 20
504.477526
 30
0.0
 11
265.057496
 21
503.770419
 31
0.0
  0
LINE
  5
147
100
AcDbEntity
  8
LAY-1
  6
CONTINUOUS
 62
     7
100
AcDbLine
 10
264.35039
 20
504.477526
 30
0.0
 11
265.340339
 21
505.467476
 31
0.0
  0
ARC
  5
148
100
AcDbEntity
  8
LAY-1
  6
CONTINUOUS
 62
     7
100
AcDbCircle
 10
264.916075
 20
505.89174
 30
0.0
 40
0.6
100
AcDbArc
 50
315.0
 51
45.0
  0
LINE
  5
149
100
AcDbEntity
  8
LAY-1
  6
CONTINUOUS
 62
     7
100
AcDbLine
 10
264.35039
 20
507.305953
 30
0.0
 11
265.340339
 21
506.316004
 31
0.0
  0
LINE
  5
14A
100
AcDbEntity
  8
LAY-1
  6
CONTINUOUS
 62
     7
100
AcDbLine
 10
265.057496
 20
508.01306
 30
0.0
 11
264.35039
 21
507.305953
 31
0.0
  0
LINE
  5
14B
100
AcDbEntity
  8
LAY-1
  6
CONTINUOUS
 62
     7
100
AcDbLine
 10
265.057496
 20
508.01306
 30
0.0
 11
266.047446
 21
507.023111
 31
0.0
  0
ARC
  5
14C
100
AcDbEntity
  8
LAY-1
  6
CONTINUOUS
 62
     7
100
AcDbCircle
 10
266.47171
 20
507.447375
 30
0.0
 40
0.6
100
AcDbArc
 50
225.0
 51
315.0
  0
LINE
  5
14D
100
AcDbEntity
  8
LAY-1
  6
CONTINUOUS
 62
     7
100
AcDbLine
 10
266.895974
 20
507.023111
 30
0.0
 11
267.885923
 21
508.01306
 31
0.0
  0
CIRCLE
  5
14E
100
AcDbEntity
  8
LAY-1
  6
CONTINUOUS
 62
     7
100
AcDbCircle
 10
266.47171
 20
505.89174
 30
0.0
 40
4.25
  0
LINE
  5
14F
100
AcDbEntity
  8
LAY-1
  6
CONTINUOUS
 62
     7
100
AcDbLine
 10
303.229581
 20
541.942504
 30
0.0
 11
302.522474
 21
542.64961
 31
0.0
  0
LINE
  5
150
100
AcDbEntity
  8
LAY-1
  6
CONTINUOUS
 62
     7
100
AcDbLine
 10
303.229581
 20
541.942504
 30
0.0
 11
302.239631
 21
540.952554
 31
0.0
  0
ARC
  5
151
100
AcDbEntity
  8
LAY-1
  6
CONTINUOUS
 62
     7
100
AcDbCircle
 10
302.663895
 20
540.52829
 30
0.0
 40
0.6
100
AcDbArc
 50
135.0
 51
225.0
  0
LINE
  5
152
100
AcDbEntity
  8
LAY-1
  6
CONTINUOUS
 62
     7
100
AcDbLine
 10
302.239631
 20
540.104026
 30
0.0
 11
303.229581
 21
539.114077
 31
0.0
  0
LINE
  5
153
100
AcDbEntity
  8
LAY-1
  6
CONTINUOUS
 62
     7
100
AcDbLine
 10
302.522474
 20
538.40697
 30
0.0
 11
303.229581
 21
539.114077
 31
0.0
  0
LINE
  5
154
100
AcDbEntity
  8
LAY-1
  6
CONTINUOUS
 62
     7
100
AcDbLine
 10
301.532524
 20
539.396919
 30
0.0
 11
302.522474
 21
538.40697
 31
0.0
  0
ARC
  5
155
100
AcDbEntity
  8
LAY-1
  6
CONTINUOUS
 62
     7
100
AcDbCircle
 10
301.10826
 20
538.972655
 30
0.0
 40
0.6
100
AcDbArc
 50
45.0
 51
135.0
  0
LINE
  5
156
100
AcDbEntity
  8
LAY-1
  6
CONTINUOUS
 62
     7
100
AcDbLine
 10
300.683996
 20
539.396919
 30
0.0
 11
299.694047
 21
538.40697
 31
0.0
  0
LINE
  5
157
100
AcDbEntity
  8
LAY-1
  6
CONTINUOUS
 62
     7
100
AcDbLine
 10
298.98694
 20
539.114077
 30
0.0
 11
299.694047
 21
538.40697
 31
0.0
  0
LINE
  5
158
100
AcDbEntity
  8
LAY-1
  6
CONTINUOUS
 62
     7
100
AcDbLine
 10
298.98694
 20
539.114077
 30
0.0
 11
299.976889
 21
540.104026
 31
0.0
  0
ARC
  5
159
100
AcDbEntity
  8
LAY-1
  6
CONTINUOUS
 62
     7
100
AcDbCircle
 10
299.552625
 20
540.52829
 30
0.0
 40
0.6
100
AcDbArc
 50
315.0
 51
45.0
  0
LINE
  5
15A
100
AcDbEntity
  8
LAY-1
  6
CONTINUOUS
 62
     7
100
AcDbLine
 10
298.98694
 20
541.942504
 30
0.0
 11
299.976889
 21
540.952554
 31
0.0
  0
LINE
  5
15B
100
AcDbEntity
  8
LAY-1
  6
CONTINUOUS
 62
     7
100
AcDbLine
 10
299.694047
 20
542.64961
 30
0.0
 11
298.98694
 21
541.942504
 31
0.0
  0
LINE
  5
15C
100
AcDbEntity
  8
LAY-1
  6
CONTINUOUS
 62
     7
100
AcDbLine
 10
299.694047
 20
542.64961
 30
0.0
 11
300.683996
 21
541.659661
 31
0.0
  0
ARC
  5
15D
100
AcDbEntity
  8
LAY-1
  6
CONTINUOUS
 62
     7
100
AcDbCircle
 10
301.10826
 20
542.083925
 30
0.0
 40
0.6
100
AcDbArc
 50
225.0
 51
315.0
  0
LINE
  5
15E
100
AcDbEntity
  8
LAY-1
  6
CONTINUOUS
 62
     7
100
AcDbLine
 10
301.532524
 20
541.659661
 30
0.0
 11
302.522474
 21
542.64961
 31
0.0
  0
CIRCLE
  5
15F
100
AcDbEntity
  8
LAY-1
  6
CONTINUOUS
 62
     7
100
AcDbCircle
 10
301.10826
 20
540.52829
 30
0.0
 40
4.25
  0
LINE
  5
160
100
AcDbEntity
  8
LAY-1
  6
CONTINUOUS
 62
     7
100
AcDbLine
 10
352.21306
 20
541.942504
 30
0.0
 11
351.505953
 21
542.64961
 31
0.0
  0
LINE
  5
161
100
AcDbEntity
  8
LAY-1
  6
CONTINUOUS
 62
     7
100
AcDbLine
 10
352.21306
 20
541.942504
 30
0.0
 11
351.223111
 21
540.952554
 31
0.0
  0
ARC
  5
162
100
AcDbEntity
  8
LAY-1
  6
CONTINUOUS
 62
     7
100
AcDbCircle
 10
351.647375
 20
540.52829
 30
0.0
 40
0.6
100
AcDbArc
 50
135.0
 51
225.0
  0
LINE
  5
163
100
AcDbEntity
  8
LAY-1
  6
CONTINUOUS
 62
     7
100
AcDbLine
 10
351.223111
 20
540.104026
 30
0.0
 11
352.21306
 21
539.114077
 31
0.0
  0
LINE
  5
164
100
AcDbEntity
  8
LAY-1
  6
CONTINUOUS
 62
     7
100
AcDbLine
 10
351.505953
 20
538.40697
 30
0.0
 11
352.21306
 21
539.114077
 31
0.0
  0
LINE
  5
165
100
AcDbEntity
  8
LAY-1
  6
CONTINUOUS
 62
     7
100
AcDbLine
 10
350.516004
 20
539.396919
 30
0.0
 11
351.505953
 21
538.40697
 31
0.0
  0
ARC
  5
166
100
AcDbEntity
  8
LAY-1
  6
CONTINUOUS
 62
     7
100
AcDbCircle
 10
350.09174
 20
538.972655
 30
0.0
 40
0.6
100
AcDbArc
 50
45.0
 51
135.0
  0
LINE
  5
167
100
AcDbEntity
  8
LAY-1
  6
CONTINUOUS
 62
     7
100
AcDbLine
 10
349.667476
 20
539.396919
 30
0.0
 11
348.677526
 21
538.40697
 31
0.0
  0
LINE
  5
168
100
AcDbEntity
  8
LAY-1
  6
CONTINUOUS
 62
     7
100
AcDbLine
 10
347.970419
 20
539.114077
 30
0.0
 11
348.677526
 21
538.40697
 31
0.0
  0
LINE
  5
169
100
AcDbEntity
  8
LAY-1
  6
CONTINUOUS
 62
     7
100
AcDbLine
 10
347.970419
 20
539.114077
 30
0.0
 11
348.960369
 21
540.104026
 31
0.0
  0
ARC
  5
16A
100
AcDbEntity
  8
LAY-1
  6
CONTINUOUS
 62
     7
100
AcDbCircle
 10
348.536105
 20
540.52829
 30
0.0
 40
0.6
100
AcDbArc
 50
315.0
 51
45.0
  0
LINE
  5
16B
100
AcDbEntity
  8
LAY-1
  6
CONTINUOUS
 62
     7
100
AcDbLine
 10
347.970419
 20
541.942504
 30
0.0
 11
348.960369
 21
540.952554
 31
0.0
  0
LINE
  5
16C
100
AcDbEntity
  8
LAY-1
  6
CONTINUOUS
 62
     7
100
AcDbLine
 10
348.677526
 20
542.64961
 30
0.0
 11
347.970419
 21
541.942504
 31
0.0
  0
LINE
  5
16D
100
AcDbEntity
  8
LAY-1
  6
CONTINUOUS
 62
     7
100
AcDbLine
 10
348.677526
 20
542.64961
 30
0.0
 11
349.667476
 21
541.659661
 31
0.0
  0
ARC
  5
16E
100
AcDbEntity
  8
LAY-1
  6
CONTINUOUS
 62
     7
100
AcDbCircle
 10
350.09174
 20
542.083925
 30
0.0
 40
0.6
100
AcDbArc
 50
225.0
 51
315.0
  0
LINE
  5
16F
100
AcDbEntity
  8
LAY-1
  6
CONTINUOUS
 62
     7
100
AcDbLine
 10
350.516004
 20
541.659661
 30
0.0
 11
351.505953
 21
542.64961
 31
0.0
  0
CIRCLE
  5
170
100
AcDbEntity
  8
LAY-1
  6
CONTINUOUS
 62
     7
100
AcDbCircle
 10
350.09174
 20
540.52829
 30
0.0
 40
4.25
  0
ARC
  5
171
100
AcDbEntity
  8
LAY-1
  6
CONTINUOUS
 62
     7
100
AcDbCircle
 10
325.6
 20
481.4
 30
0.0
 40
16.0
100
AcDbArc
 50
0.0
 51
180.0
  0
ARC
  5
172
100
AcDbEntity
  8
LAY-1
  6
CONTINUOUS
 62
     7
100
AcDbCircle
 10
325.6
 20
481.4
 30
0.0
 40
21.0
100
AcDbArc
 50
0.0
 51
180.0
  0
LINE
  5
173
100
AcDbEntity
  8
LAY-1
  6
CONTINUOUS
 62
     7
100
AcDbLine
 10
307.124791
 20
481.4
 30
0.0
 11
316.362396
 21
497.4
 31
0.0
  0
LINE
  5
174
100
AcDbEntity
  8
LAY-1
  6
CONTINUOUS
 62
     7
100
AcDbLine
 10
344.075209
 20
481.4
 30
0.0
 11
334.837604
 21
497.4
 31
0.0
  0
LINE
  5
175
100
AcDbEntity
  8
LAY-1
  6
CONTINUOUS
 62
     7
100
AcDbLine
 10
334.837604
 20
497.4
 30
0.0
 11
316.362396
 21
497.4
 31
0.0
  0
ARC
  5
176
100
AcDbEntity
  8
LAY-1
  6
CONTINUOUS
 62
     7
100
AcDbCircle
 10
256.6
 20
459.4
 30
0.0
 40
1.0
100
AcDbArc
 50
180.0
 51
270.0
  0
LINE
  5
177
100
AcDbEntity
  8
LAY-1
  6
CONTINUOUS
 62
     7
100
AcDbLine
 10
260.546176
 20
458.4
 30
0.0
 11
256.6
 21
458.4
 31
0.0
  0
LINE
  5
178
100
AcDbEntity
  8
LAY-1
  6
CONTINUOUS
 62
     7
100
AcDbLine
 10
255.6
 20
459.4
 30
0.0
 11
255.6
 21
481.4
 31
0.0
  0
ARC
  5
179
100
AcDbEntity
  8
LAY-1
  6
CONTINUOUS
 62
     7
100
AcDbCircle
 10
394.6
 20
459.4
 30
0.0
 40
1.0
100
AcDbArc
 50
270.0
 51
0.0
  0
LINE
  5
17A
100
AcDbEntity
  8
LAY-1
  6
CONTINUOUS
 62
     7
100
AcDbLine
 10
390.653824
 20
458.4
 30
0.0
 11
394.6
 21
458.4
 31
0.0
  0
LINE
  5
17B
100
AcDbEntity
  8
LAY-1
  6
CONTINUOUS
 62
     7
100
AcDbLine
 10
395.6
 20
459.4
 30
0.0
 11
395.6
 21
481.4
 31
0.0
  0
ARC
  5
17C
100
AcDbEntity
  8
LAY-1
  6
CONTINUOUS
 62
     7
100
AcDbCircle
 10
325.6
 20
481.4
 30
0.0
 40
69.0
100
AcDbArc
 50
180.0
 51
0.0
  0
ARC
  5
17D
100
AcDbEntity
  8
LAY-1
  6
CONTINUOUS
 62
     7
100
AcDbCircle
 10
325.6
 20
481.4
 30
0.0
 40
21.0
100
AcDbArc
 50
270.0
 51
0.0
  0
ARC
  5
17E
100
AcDbEntity
  8
LAY-1
  6
CONTINUOUS
 62
     7
100
AcDbCircle
 10
325.6
 20
481.4
 30
0.0
 40
21.0
100
AcDbArc
 50
180.0
 51
270.0
  0
ARC
  5
17F
100
AcDbEntity
  8
LAY-1
  6
CONTINUOUS
 62
     7
100
AcDbCircle
 10
274.1
 20
481.4
 30
0.0
 40
14.5
100
AcDbArc
 50
180.0
 51
0.0
  0
ARC
  5
180
100
AcDbEntity
  8
LAY-1
  6
CONTINUOUS
 62
     7
100
AcDbCircle
 10
274.1
 20
481.4
 30
0.0
 40
12.75
100
AcDbArc
 50
180.0
 51
0.0
  0
LINE
  5
181
100
AcDbEntity
  8
LAY-1
  6
CONTINUOUS
 62
     7
100
AcDbLine
 10
285.1
 20
479.4
 30
0.0
 11
285.1
 21
481.4
 31
0.0
  0
LINE
  5
182
100
AcDbEntity
  8
LAY-1
  6
CONTINUOUS
 62
     7
100
AcDbLine
 10
263.1
 20
481.4
 30
0.0
 11
263.1
 21
479.4
 31
0.0
  0
LINE
  5
183
100
AcDbEntity
  8
LAY-1
  6
CONTINUOUS
 62
     7
100
AcDbLine
 10
263.1
 20
479.4
 30
0.0
 11
285.1
 21
479.4
 31
0.0
  0
LINE
  5
184
100
AcDbEntity
  8
LAY-1
  6
CONTINUOUS
 62
     7
100
AcDbLine
 10
386.84961
 20
455.494047
 30
0.0
 11
386.142504
 21
454.78694
 31
0.0
  0
LINE
  5
185
100
AcDbEntity
  8
LAY-1
  6
CONTINUOUS
 62
     7
100
AcDbLine
 10
386.84961
 20
455.494047
 30
0.0
 11
385.859661
 21
456.483996
 31
0.0
  0
ARC
  5
186
100
AcDbEntity
  8
LAY-1
  6
CONTINUOUS
 62
     7
100
AcDbCircle
 10
386.283925
 20
456.90826
 30
0.0
 40
0.6
100
AcDbArc
 50
135.0
 51
225.0
  0
LINE
  5
187
100
AcDbEntity
  8
LAY-1
  6
CONTINUOUS
 62
     7
100
AcDbLine
 10
385.859661
 20
457.332524
 30
0.0
 11
386.84961
 21
458.322474
 31
0.0
  0
LINE
  5
188
100
AcDbEntity
  8
LAY-1
  6
CONTINUOUS
 62
     7
100
AcDbLine
 10
386.142504
 20
459.029581
 30
0.0
 11
386.84961
 21
458.322474
 31
0.0
  0
LINE
  5
189
100
AcDbEntity
  8
LAY-1
  6
CONTINUOUS
 62
     7
100
AcDbLine
 10
385.152554
 20
458.039631
 30
0.0
 11
386.142504
 21
459.029581
 31
0.0
  0
ARC
  5
18A
100
AcDbEntity
  8
LAY-1
  6
CONTINUOUS
 62
     7
100
AcDbCircle
 10
384.72829
 20
458.463895
 30
0.0
 40
0.6
100
AcDbArc
 50
225.0
 51
315.0
  0
LINE
  5
18B
100
AcDbEntity
  8
LAY-1
  6
CONTINUOUS
 62
     7
100
AcDbLine
 10
384.304026
 20
458.039631
 30
0.0
 11
383.314077
 21
459.029581
 31
0.0
  0
LINE
  5
18C
100
AcDbEntity
  8
LAY-1
  6
CONTINUOUS
 62
     7
100
AcDbLine
 10
382.60697
 20
458.322474
 30
0.0
 11
383.314077
 21
459.029581
 31
0.0
  0
LINE
  5
18D
100
AcDbEntity
  8
LAY-1
  6
CONTINUOUS
 62
     7
100
AcDbLine
 10
382.60697
 20
458.322474
 30
0.0
 11
383.596919
 21
457.332524
 31
0.0
  0
ARC
  5
18E
100
AcDbEntity
  8
LAY-1
  6
CONTINUOUS
 62
     7
100
AcDbCircle
 10
383.172655
 20
456.90826
 30
0.0
 40
0.6
100
AcDbArc
 50
315.0
 51
45.0
  0
LINE
  5
18F
100
AcDbEntity
  8
LAY-1
  6
CONTINUOUS
 62
     7
100
AcDbLine
 10
382.60697
 20
455.494047
 30
0.0
 11
383.596919
 21
456.483996
 31
0.0
  0
LINE
  5
190
100
AcDbEntity
  8
LAY-1
  6
CONTINUOUS
 62
     7
100
AcDbLine
 10
383.314077
 20
454.78694
 30
0.0
 11
382.60697
 21
455.494047
 31
0.0
  0
LINE
  5
191
100
AcDbEntity
  8
LAY-1
  6
CONTINUOUS
 62
     7
100
AcDbLine
 10
383.314077
 20
454.78694
 30
0.0
 11
384.304026
 21
455.776889
 31
0.0
  0
ARC
  5
192
100
AcDbEntity
  8
LAY-1
  6
CONTINUOUS
 62
     7
100
AcDbCircle
 10
384.72829
 20
455.352625
 30
0.0
 40
0.6
100
AcDbArc
 50
45.0
 51
135.0
  0
LINE
  5
193
100
AcDbEntity
  8
LAY-1
  6
CONTINUOUS
 62
     7
100
AcDbLine
 10
385.152554
 20
455.776889
 30
0.0
 11
386.142504
 21
454.78694
 31
0.0
  0
CIRCLE
  5
194
100
AcDbEntity
  8
LAY-1
  6
CONTINUOUS
 62
     7
100
AcDbCircle
 10
384.72829
 20
456.90826
 30
0.0
 40
4.25
  0
LINE
  5
195
100
AcDbEntity
  8
LAY-1
  6
CONTINUOUS
 62
     7
100
AcDbLine
 10
268.59303
 20
455.494047
 30
0.0
 11
267.885923
 21
454.78694
 31
0.0
  0
LINE
  5
196
100
AcDbEntity
  8
LAY-1
  6
CONTINUOUS
 62
     7
100
AcDbLine
 10
268.59303
 20
455.494047
 30
0.0
 11
267.603081
 21
456.483996
 31
0.0
  0
ARC
  5
197
100
AcDbEntity
  8
LAY-1
  6
CONTINUOUS
 62
     7
100
AcDbCircle
 10
268.027345
 20
456.90826
 30
0.0
 40
0.6
100
AcDbArc
 50
135.0
 51
225.0
  0
LINE
  5
198
100
AcDbEntity
  8
LAY-1
  6
CONTINUOUS
 62
     7
100
AcDbLine
 10
267.603081
 20
457.332524
 30
0.0
 11
268.59303
 21
458.322474
 31
0.0
  0
LINE
  5
199
100
AcDbEntity
  8
LAY-1
  6
CONTINUOUS
 62
     7
100
AcDbLine
 10
267.885923
 20
459.029581
 30
0.0
 11
268.59303
 21
458.322474
 31
0.0
  0
LINE
  5
19A
100
AcDbEntity
  8
LAY-1
  6
CONTINUOUS
 62
     7
100
AcDbLine
 10
266.895974
 20
458.039631
 30
0.0
 11
267.885923
 21
459.029581
 31
0.0
  0
ARC
  5
19B
100
AcDbEntity
  8
LAY-1
  6
CONTINUOUS
 62
     7
100
AcDbCircle
 10
266.47171
 20
458.463895
 30
0.0
 40
0.6
100
AcDbArc
 50
225.0
 51
315.0
  0
LINE
  5
19C
100
AcDbEntity
  8
LAY-1
  6
CONTINUOUS
 62
     7
100
AcDbLine
 10
266.047446
 20
458.039631
 30
0.0
 11
265.057496
 21
459.029581
 31
0.0
  0
LINE
  5
19D
100
AcDbEntity
  8
LAY-1
  6
CONTINUOUS
 62
     7
100
AcDbLine
 10
264.35039
 20
458.322474
 30
0.0
 11
265.057496
 21
459.029581
 31
0.0
  0
LINE
  5
19E
100
AcDbEntity
  8
LAY-1
  6
CONTINUOUS
 62
     7
100
AcDbLine
 10
264.35039
 20
458.322474
 30
0.0
 11
265.340339
 21
457.332524
 31
0.0
  0
ARC
  5
19F
100
AcDbEntity
  8
LAY-1
  6
CONTINUOUS
 62
     7
100
AcDbCircle
 10
264.916075
 20
456.90826
 30
0.0
 40
0.6
100
AcDbArc
 50
315.0
 51
45.0
  0
LINE
  5
1A0
100
AcDbEntity
  8
LAY-1
  6
CONTINUOUS
 62
     7
100
AcDbLine
 10
264.35039
 20
455.494047
 30
0.0
 11
265.340339
 21
456.483996
 31
0.0
  0
LINE
  5
1A1
100
AcDbEntity
  8
LAY-1
  6
CONTINUOUS
 62
     7
100
AcDbLine
 10
265.057496
 20
454.78694
 30
0.0
 11
264.35039
 21
455.494047
 31
0.0
  0
LINE
  5
1A2
100
AcDbEntity
  8
LAY-1
  6
CONTINUOUS
 62
     7
100
AcDbLine
 10
265.057496
 20
454.78694
 30
0.0
 11
266.047446
 21
455.776889
 31
0.0
  0
ARC
  5
1A3
100
AcDbEntity
  8
LAY-1
  6
CONTINUOUS
 62
     7
100
AcDbCircle
 10
266.47171
 20
455.352625
 30
0.0
 40
0.6
100
AcDbArc
 50
45.0
 51
135.0
  0
LINE
  5
1A4
100
AcDbEntity
  8
LAY-1
  6
CONTINUOUS
 62
     7
100
AcDbLine
 10
266.895974
 20
455.776889
 30
0.0
 11
267.885923
 21
454.78694
 31
0.0
  0
CIRCLE
  5
1A5
100
AcDbEntity
  8
LAY-1
  6
CONTINUOUS
 62
     7
100
AcDbCircle
 10
266.47171
 20
456.90826
 30
0.0
 40
4.25
  0
LINE
  5
1A6
100
AcDbEntity
  8
LAY-1
  6
CONTINUOUS
 62
     7
100
AcDbLine
 10
303.229581
 20
420.857496
 30
0.0
 11
302.522474
 21
420.15039
 31
0.0
  0
LINE
  5
1A7
100
AcDbEntity
  8
LAY-1
  6
CONTINUOUS
 62
     7
100
AcDbLine
 10
303.229581
 20
420.857496
 30
0.0
 11
302.239631
 21
421.847446
 31
0.0
  0
ARC
  5
1A8
100
AcDbEntity
  8
LAY-1
  6
CONTINUOUS
 62
     7
100
AcDbCircle
 10
302.663895
 20
422.27171
 30
0.0
 40
0.6
100
AcDbArc
 50
135.0
 51
225.0
  0
LINE
  5
1A9
100
AcDbEntity
  8
LAY-1
  6
CONTINUOUS
 62
     7
100
AcDbLine
 10
302.239631
 20
422.695974
 30
0.0
 11
303.229581
 21
423.685923
 31
0.0
  0
LINE
  5
1AA
100
AcDbEntity
  8
LAY-1
  6
CONTINUOUS
 62
     7
100
AcDbLine
 10
302.522474
 20
424.39303
 30
0.0
 11
303.229581
 21
423.685923
 31
0.0
  0
LINE
  5
1AB
100
AcDbEntity
  8
LAY-1
  6
CONTINUOUS
 62
     7
100
AcDbLine
 10
301.532524
 20
423.403081
 30
0.0
 11
302.522474
 21
424.39303
 31
0.0
  0
ARC
  5
1AC
100
AcDbEntity
  8
LAY-1
  6
CONTINUOUS
 62
     7
100
AcDbCircle
 10
301.10826
 20
423.827345
 30
0.0
 40
0.6
100
AcDbArc
 50
225.0
 51
315.0
  0
LINE
  5
1AD
100
AcDbEntity
  8
LAY-1
  6
CONTINUOUS
 62
     7
100
AcDbLine
 10
300.683996
 20
423.403081
 30
0.0
 11
299.694047
 21
424.39303
 31
0.0
  0
LINE
  5
1AE
100
AcDbEntity
  8
LAY-1
  6
CONTINUOUS
 62
     7
100
AcDbLine
 10
298.98694
 20
423.685923
 30
0.0
 11
299.694047
 21
424.39303
 31
0.0
  0
LINE
  5
1AF
100
AcDbEntity
  8
LAY-1
  6
CONTINUOUS
 62
     7
100
AcDbLine
 10
298.98694
 20
423.685923
 30
0.0
 11
299.976889
 21
422.695974
 31
0.0
  0
ARC
  5
1B0
100
AcDbEntity
  8
LAY-1
  6
CONTINUOUS
 62
     7
100
AcDbCircle
 10
299.552625
 20
422.27171
 30
0.0
 40
0.6
100
AcDbArc
 50
315.0
 51
45.0
  0
LINE
  5
1B1
100
AcDbEntity
  8
LAY-1
  6
CONTINUOUS
 62
     7
100
AcDbLine
 10
298.98694
 20
420.857496
 30
0.0
 11
299.976889
 21
421.847446
 31
0.0
  0
LINE
  5
1B2
100
AcDbEntity
  8
LAY-1
  6
CONTINUOUS
 62
     7
100
AcDbLine
 10
299.694047
 20
420.15039
 30
0.0
 11
298.98694
 21
420.857496
 31
0.0
  0
LINE
  5
1B3
100
AcDbEntity
  8
LAY-1
  6
CONTINUOUS
 62
     7
100
AcDbLine
 10
299.694047
 20
420.15039
 30
0.0
 11
300.683996
 21
421.140339
 31
0.0
  0
ARC
  5
1B4
100
AcDbEntity
  8
LAY-1
  6
CONTINUOUS
 62
     7
100
AcDbCircle
 10
301.10826
 20
420.716075
 30
0.0
 40
0.6
100
AcDbArc
 50
45.0
 51
135.0
  0
LINE
  5
1B5
100
AcDbEntity
  8
LAY-1
  6
CONTINUOUS
 62
     7
100
AcDbLine
 10
301.532524
 20
421.140339
 30
0.0
 11
302.522474
 21
420.15039
 31
0.0
  0
CIRCLE
  5
1B6
100
AcDbEntity
  8
LAY-1
  6
CONTINUOUS
 62
     7
100
AcDbCircle
 10
301.10826
 20
422.27171
 30
0.0
 40
4.25
  0
LINE
  5
1B7
100
AcDbEntity
  8
LAY-1
  6
CONTINUOUS
 62
     7
100
AcDbLine
 10
352.21306
 20
420.857496
 30
0.0
 11
351.505953
 21
420.15039
 31
0.0
  0
LINE
  5
1B8
100
AcDbEntity
  8
LAY-1
  6
CONTINUOUS
 62
     7
100
AcDbLine
 10
352.21306
 20
420.857496
 30
0.0
 11
351.223111
 21
421.847446
 31
0.0
  0
ARC
  5
1B9
100
AcDbEntity
  8
LAY-1
  6
CONTINUOUS
 62
     7
100
AcDbCircle
 10
351.647375
 20
422.27171
 30
0.0
 40
0.6
100
AcDbArc
 50
135.0
 51
225.0
  0
LINE
  5
1BA
100
AcDbEntity
  8
LAY-1
  6
CONTINUOUS
 62
     7
100
AcDbLine
 10
351.223111
 20
422.695974
 30
0.0
 11
352.21306
 21
423.685923
 31
0.0
  0
LINE
  5
1BB
100
AcDbEntity
  8
LAY-1
  6
CONTINUOUS
 62
     7
100
AcDbLine
 10
351.505953
 20
424.39303
 30
0.0
 11
352.21306
 21
423.685923
 31
0.0
  0
LINE
  5
1BC
100
AcDbEntity
  8
LAY-1
  6
CONTINUOUS
 62
     7
100
AcDbLine
 10
350.516004
 20
423.403081
 30
0.0
 11
351.505953
 21
424.39303
 31
0.0
  0
ARC
  5
1BD
100
AcDbEntity
  8
LAY-1
  6
CONTINUOUS
 62
     7
100
AcDbCircle
 10
350.09174
 20
423.827345
 30
0.0
 40
0.6
100
AcDbArc
 50
225.0
 51
315.0
  0
LINE
  5
1BE
100
AcDbEntity
  8
LAY-1
  6
CONTINUOUS
 62
     7
100
AcDbLine
 10
349.667476
 20
423.403081
 30
0.0
 11
348.677526
 21
424.39303
 31
0.0
  0
LINE
  5
1BF
100
AcDbEntity
  8
LAY-1
  6
CONTINUOUS
 62
     7
100
AcDbLine
 10
347.970419
 20
423.685923
 30
0.0
 11
348.677526
 21
424.39303
 31
0.0
  0
LINE
  5
1C0
100
AcDbEntity
  8
LAY-1
  6
CONTINUOUS
 62
     7
100
AcDbLine
 10
347.970419
 20
423.685923
 30
0.0
 11
348.960369
 21
422.695974
 31
0.0
  0
ARC
  5
1C1
100
AcDbEntity
  8
LAY-1
  6
CONTINUOUS
 62
     7
100
AcDbCircle
 10
348.536105
 20
422.27171
 30
0.0
 40
0.6
100
AcDbArc
 50
315.0
 51
45.0
  0
LINE
  5
1C2
100
AcDbEntity
  8
LAY-1
  6
CONTINUOUS
 62
     7
100
AcDbLine
 10
347.970419
 20
420.857496
 30
0.0
 11
348.960369
 21
421.847446
 31
0.0
  0
LINE
  5
1C3
100
AcDbEntity
  8
LAY-1
  6
CONTINUOUS
 62
     7
100
AcDbLine
 10
348.677526
 20
420.15039
 30
0.0
 11
347.970419
 21
420.857496
 31
0.0
  0
LINE
  5
1C4
100
AcDbEntity
  8
LAY-1
  6
CONTINUOUS
 62
     7
100
AcDbLine
 10
348.677526
 20
420.15039
 30
0.0
 11
349.667476
 21
421.140339
 31
0.0
  0
ARC
  5
1C5
100
AcDbEntity
  8
LAY-1
  6
CONTINUOUS
 62
     7
100
AcDbCircle
 10
350.09174
 20
420.716075
 30
0.0
 40
0.6
100
AcDbArc
 50
45.0
 51
135.0
  0
LINE
  5
1C6
100
AcDbEntity
  8
LAY-1
  6
CONTINUOUS
 62
     7
100
AcDbLine
 10
350.516004
 20
421.140339
 30
0.0
 11
351.505953
 21
420.15039
 31
0.0
  0
CIRCLE
  5
1C7
100
AcDbEntity
  8
LAY-1
  6
CONTINUOUS
 62
     7
100
AcDbCircle
 10
350.09174
 20
422.27171
 30
0.0
 40
4.25
  0
ARC
  5
1C8
100
AcDbEntity
  8
LAY-1
  6
CONTINUOUS
 62
     7
100
AcDbCircle
 10
325.6
 20
481.4
 30
0.0
 40
16.0
100
AcDbArc
 50
180.0
 51
0.0
  0
ARC
  5
1C9
100
AcDbEntity
  8
LAY-1
  6
CONTINUOUS
 62
     7
100
AcDbCircle
 10
325.6
 20
481.4
 30
0.0
 40
21.0
100
AcDbArc
 50
180.0
 51
0.0
  0
LINE
  5
1CA
100
AcDbEntity
  8
LAY-1
  6
CONTINUOUS
 62
     7
100
AcDbLine
 10
307.124791
 20
481.4
 30
0.0
 11
316.362396
 21
465.4
 31
0.0
  0
LINE
  5
1CB
100
AcDbEntity
  8
LAY-1
  6
CONTINUOUS
 62
     7
100
AcDbLine
 10
344.075209
 20
481.4
 30
0.0
 11
334.837604
 21
465.4
 31
0.0
  0
LINE
  5
1CC
100
AcDbEntity
  8
LAY-1
  6
CONTINUOUS
 62
     7
100
AcDbLine
 10
334.837604
 20
465.4
 30
0.0
 11
316.362396
 21
465.4
 31
0.0
  0
LINE
  5
1CD
100
AcDbEntity
  8
LAY-1
  6
EXLTYPE3
 62
     1
100
AcDbLine
 10
325.6
 20
404.2
 30
0.0
 11
325.6
 21
556.4
 31
0.0
  0
ARC
  5
1CE
100
AcDbEntity
  8
LAY-1
  6
CONTINUOUS
 62
     7
100
AcDbCircle
 10
325.6
 20
481.4
 30
0.0
 40
56.622648
100
AcDbArc
 50
270.0
 51
0.0
  0
ARC
  5
1CF
100
AcDbEntity
  8
LAY-1
  6
CONTINUOUS
 62
     7
100
AcDbCircle
 10
325.6
 20
481.4
 30
0.0
 40
56.622648
100
AcDbArc
 50
194.430832
 51
270.0
  0
LINE
  5
1D0
100
AcDbEntity
  8
LAY-1
  6
CONTINUOUS
 62
     7
100
AcDbLine
 10
146.132625
 20
357.4
 30
0.0
 11
125.6
 21
357.4
 31
0.0
  0
LINE
  5
1D1
100
AcDbEntity
  8
LAY-1
  6
CONTINUOUS
 62
     7
100
AcDbLine
 10
146.132625
 20
357.4
 30
0.0
 11
146.789403
 21
319.773196
 31
0.0
  0
ARC
  5
1D2
100
AcDbEntity
  8
LAY-1
  6
CONTINUOUS
 62
     7
100
AcDbCircle
 10
162.786967
 20
320.052435
 30
0.0
 40
16.0
100
AcDbArc
 50
181.0
 51
261.471556
  0
LINE
  5
1D3
100
AcDbEntity
  8
LAY-1
  6
CONTINUOUS
 62
     7
100
AcDbLine
 10
160.41416
 20
304.229357
 30
0.0
 11
172.542672
 21
302.410583
 31
0.0
  0
ARC
  5
1D4
100
AcDbEntity
  8
LAY-1
  6
CONTINUOUS
 62
     7
100
AcDbCircle
 10
170.763067
 20
290.543274
 30
0.0
 40
12.0
100
AcDbArc
 50
28.773073
 51
81.471556
  0
LINE
  5
1D5
100
AcDbEntity
  8
LAY-1
  6
CONTINUOUS
 62
     7
100
AcDbLine
 10
130.6
 20
275.581312
 30
0.0
 11
125.6
 21
275.581312
 31
0.0
  0
LINE
  5
1D6
100
AcDbEntity
  8
LAY-1
  6
CONTINUOUS
 62
     7
100
AcDbLine
 10
125.6
 20
276.581312
 30
0.0
 11
130.6
 21
276.581312
 31
0.0
  0
LINE
  5
1D7
100
AcDbEntity
  8
LAY-1
  6
CONTINUOUS
 62
     7
100
AcDbLine
 10
130.6
 20
284.581312
 30
0.0
 11
125.6
 21
284.581312
 31
0.0
  0
LINE
  5
1D8
100
AcDbEntity
  8
LAY-1
  6
CONTINUOUS
 62
     7
100
AcDbLine
 10
130.6
 20
285.581312
 30
0.0
 11
125.6
 21
285.581312
 31
0.0
  0
ARC
  5
1D9
100
AcDbEntity
  8
LAY-1
  6
CONTINUOUS
 62
     7
100
AcDbCircle
 10
130.6
 20
280.581312
 30
0.0
 40
4.0
100
AcDbArc
 50
270.0
 51
90.0
  0
ARC
  5
1DA
100
AcDbEntity
  8
LAY-1
  6
CONTINUOUS
 62
     7
100
AcDbCircle
 10
130.6
 20
280.581312
 30
0.0
 40
5.0
100
AcDbArc
 50
270.0
 51
90.0
  0
ARC
  5
1DB
100
AcDbEntity
  8
LAY-1
  6
CONTINUOUS
 62
     7
100
AcDbCircle
 10
146.821297
 20
259.877187
 30
0.0
 40
2.0
100
AcDbArc
 50
358.5
 51
45.0
  0
ARC
  5
1DC
100
AcDbEntity
  8
LAY-1
  6
CONTINUOUS
 62
     7
100
AcDbCircle
 10
134.298485
 20
272.4
 30
0.0
 40
2.0
100
AcDbArc
 50
45.0
 51
90.0
  0
LINE
  5
1DD
100
AcDbEntity
  8
LAY-1
  6
CONTINUOUS
 62
     7
100
AcDbLine
 10
134.298485
 20
274.4
 30
0.0
 11
125.6
 21
274.4
 31
0.0
  0
ARC
  5
1DE
100
AcDbEntity
  8
LAY-1
  6
CONTINUOUS
 62
     7
100
AcDbCircle
 10
134.298485
 20
272.4
 30
0.0
 40
2.0
100
AcDbArc
 50
45.0
 51
90.0
  0
LINE
  5
1DF
100
AcDbEntity
  8
LAY-1
  6
CONTINUOUS
 62
     7
100
AcDbLine
 10
192.6
 20
281.4
 30
0.0
 11
154.256362
 21
281.4
 31
0.0
  0
LINE
  5
1E0
100
AcDbEntity
  8
LAY-1
  6
EXLTYPE3
 62
     1
100
AcDbLine
 10
125.6
 20
251.4
 30
0.0
 11
155.6
 21
251.4
 31
0.0
  0
ARC
  5
1E1
100
AcDbEntity
  8
LAY-1
  6
CONTINUOUS
 62
     7
100
AcDbCircle
 10
148.159398
 20
215.070835
 30
0.0
 40
1.5
100
AcDbArc
 50
180.0
 51
240.0
  0
ARC
  5
1E2
100
AcDbEntity
  8
LAY-1
  6
CONTINUOUS
 62
     7
100
AcDbCircle
 10
151.409398
 20
220.7
 30
0.0
 40
8.0
100
AcDbArc
 50
240.0
 51
270.0
  0
LINE
  5
1E3
100
AcDbEntity
  8
LAY-1
  6
CONTINUOUS
 62
     7
100
AcDbLine
 10
146.659398
 20
215.070835
 30
0.0
 11
146.659398
 21
216.4
 31
0.0
  0
ARC
  5
1E4
100
AcDbEntity
  8
LAY-1
  6
CONTINUOUS
 62
     7
100
AcDbCircle
 10
154.659398
 20
215.070835
 30
0.0
 40
1.5
100
AcDbArc
 50
300.0
 51
0.0
  0
ARC
  5
1E5
100
AcDbEntity
  8
LAY-1
  6
CONTINUOUS
 62
     7
100
AcDbCircle
 10
151.409398
 20
220.7
 30
0.0
 40
8.0
100
AcDbArc
 50
270.0
 51
300.0
  0
LINE
  5
1E6
100
AcDbEntity
  8
LAY-1
  6
CONTINUOUS
 62
     7
100
AcDbLine
 10
156.159398
 20
215.070835
 30
0.0
 11
156.159398
 21
216.4
 31
0.0
  0
LINE
  5
1E7
100
AcDbEntity
  8
LAY-1
  6
CONTINUOUS
 62
     7
100
AcDbLine
 10
167.1
 20
216.4
 30
0.0
 11
125.6
 21
216.4
 31
0.0
  0
LINE
  5
1E8
100
AcDbEntity
  8
LAY-1
  6
CONTINUOUS
 62
     7
100
AcDbLine
 10
167.1
 20
218.4
 30
0.0
 11
167.1
 21
216.4
 31
0.0
  0
LINE
  5
1E9
100
AcDbEntity
  8
LAY-1
  6
CONTINUOUS
 62
     7
100
AcDbLine
 10
136.18045
 20
213.4
 30
0.0
 11
125.6
 21
213.4
 31
0.0
  0
ARC
  5
1EA
100
AcDbEntity
  8
LAY-1
  6
CONTINUOUS
 62
     7
100
AcDbCircle
 10
136.18045
 20
215.9
 30
0.0
 40
2.5
100
AcDbArc
 50
270.0
 51
350.0
  0
ARC
  5
1EB
100
AcDbEntity
  8
LAY-1
  6
CONTINUOUS
 62
     7
100
AcDbCircle
 10
139.22673
 20
215.9
 30
0.0
 40
0.5
100
AcDbArc
 50
90.0
 51
170.0
  0
LINE
  5
1EC
100
AcDbEntity
  8
LAY-1
  6
CONTINUOUS
 62
     7
100
AcDbLine
 10
138.734326
 20
215.986824
 30
0.0
 11
138.64247
 21
215.46588
 31
0.0
  0
LINE
  5
1ED
100
AcDbEntity
  8
LAY-1
  6
CONTINUOUS
 62
     7
100
AcDbLine
 10
179.97829
 20
295.537197
 30
0.0
 11
179.97829
 21
293.4
 31
0.0
  0
LINE
  5
1EE
100
AcDbEntity
  8
LAY-1
  6
CONTINUOUS
 62
     7
100
AcDbLine
 10
189.47829
 20
295.537197
 30
0.0
 11
189.47829
 21
293.4
 31
0.0
  0
ARC
  5
1EF
100
AcDbEntity
  8
LAY-1
  6
CONTINUOUS
 62
     7
100
AcDbCircle
 10
184.72829
 20
289.1
 30
0.0
 40
8.0
100
AcDbArc
 50
53.576426
 51
126.423574
  0
ARC
  5
1F0
100
AcDbEntity
  8
LAY-1
  6
CONTINUOUS
 62
     7
100
AcDbCircle
 10
150.09174
 20
289.1
 30
0.0
 40
8.0
100
AcDbArc
 50
53.576426
 51
126.423574
  0
LINE
  5
1F1
100
AcDbEntity
  8
LAY-1
  6
CONTINUOUS
 62
     7
100
AcDbLine
 10
154.84174
 20
295.537197
 30
0.0
 11
154.84174
 21
293.4
 31
0.0
  0
LINE
  5
1F2
100
AcDbEntity
  8
LAY-1
  6
CONTINUOUS
 62
     7
100
AcDbLine
 10
145.34174
 20
295.537197
 30
0.0
 11
145.34174
 21
293.4
 31
0.0
  0
ARC
  5
1F3
100
AcDbEntity
  8
LAY-1
  6
CONTINUOUS
 62
     7
100
AcDbCircle
 10
194.1
 20
292.9
 30
0.0
 40
0.5
100
AcDbArc
 50
0.0
 51
90.0
  0
LINE
  5
1F4
100
AcDbEntity
  8
LAY-1
  6
CONTINUOUS
 62
     7
100
AcDbLine
 10
194.1
 20
293.4
 30
0.0
 11
125.6
 21
293.4
 31
0.0
  0
LINE
  5
1F5
100
AcDbEntity
  8
LAY-1
  6
CONTINUOUS
 62
     7
100
AcDbLine
 10
146.6
 20
359.9
 30
0.0
 11
125.6
 21
359.9
 31
0.0
  0
LINE
  5
1F6
100
AcDbEntity
  8
LAY-1
  6
CONTINUOUS
 62
     7
100
AcDbLine
 10
146.6
 20
358.4
 30
0.0
 11
125.6
 21
358.4
 31
0.0
  0
LINE
  5
1F7
100
AcDbEntity
  8
LAY-1
  6
CONTINUOUS
 62
     7
100
AcDbLine
 10
145.632625
 20
357.4
 30
0.0
 11
145.632625
 21
358.4
 31
0.0
  0
LINE
  5
1F8
100
AcDbEntity
  8
LAY-1
  6
CONTINUOUS
 62
     7
100
AcDbLine
 10
146.6
 20
358.4
 30
0.0
 11
146.6
 21
359.9
 31
0.0
  0
ARC
  5
1F9
100
AcDbEntity
  8
LAY-1
  6
CONTINUOUS
 62
     7
100
AcDbCircle
 10
133.6
 20
345.793164
 30
0.0
 40
23.106836
100
AcDbArc
 50
69.743842
 51
110.256158
  0
LINE
  5
1FA
100
AcDbEntity
  8
LAY-1
  6
CONTINUOUS
 62
     7
100
AcDbLine
 10
141.6
 20
368.9
 30
0.0
 11
125.6
 21
368.9
 31
0.0
  0
LINE
  5
1FB
100
AcDbEntity
  8
LAY-1
  6
CONTINUOUS
 62
     7
100
AcDbLine
 10
141.6
 20
359.9
 30
0.0
 11
141.6
 21
368.9
 31
0.0
  0
ARC
  5
1FC
100
AcDbEntity
  8
LAY-1
  6
CONTINUOUS
 62
     7
100
AcDbCircle
 10
139.134311
 20
303.4
 30
0.0
 40
1.0
100
AcDbArc
 50
2.0
 51
90.0
  0
LINE
  5
1FD
100
AcDbEntity
  8
LAY-1
  6
CONTINUOUS
 62
     7
100
AcDbLine
 10
140.133702
 20
303.434899
 30
0.0
 11
140.450426
 21
294.365101
 31
0.0
  0
LINE
  5
1FE
100
AcDbEntity
  8
LAY-1
  6
CONTINUOUS
 62
     7
100
AcDbLine
 10
139.134311
 20
304.4
 30
0.0
 11
125.6
 21
304.4
 31
0.0
  0
ARC
  5
1FF
100
AcDbEntity
  8
LAY-1
  6
CONTINUOUS
 62
     7
100
AcDbCircle
 10
141.449817
 20
294.4
 30
0.0
 40
1.0
100
AcDbArc
 50
182.0
 51
270.0
  0
ARC
  5
200
100
AcDbEntity
  8
LAY-1
  6
CONTINUOUS
 62
     1
100
AcDbCircle
 10
125.6
 20
251.4
 30
0.0
 40
16.613032
100
AcDbArc
 50
270.0
 51
90.0
  0
ARC
  5
201
100
AcDbEntity
  8
LAY-1
  6
CONTINUOUS
 62
     7
100
AcDbCircle
 10
125.6
 20
251.4
 30
0.0
 40
17.0
100
AcDbArc
 50
270.0
 51
90.0
  0
LINE
  5
202
100
AcDbEntity
  8
LAY-1
  6
CONTINUOUS
 62
     7
100
AcDbLine
 10
131.0
 20
237.310508
 30
0.0
 11
131.0
 21
237.293605
 31
0.0
  0
ARC
  5
203
100
AcDbEntity
  8
LAY-1
  6
CONTINUOUS
 62
     7
100
AcDbCircle
 10
125.6
 20
251.4
 30
0.0
 40
15.088863
100
AcDbArc
 50
270.0
 51
90.0
  0
ARC
  5
204
100
AcDbEntity
  8
LAY-1
  6
CONTINUOUS
 62
     7
100
AcDbCircle
 10
152.59174
 20
276.4
 30
0.0
 40
2.0
100
AcDbArc
 50
270.0
 51
0.0
  0
LINE
  5
205
100
AcDbEntity
  8
LAY-1
  6
CONTINUOUS
 62
     7
100
AcDbLine
 10
154.59174
 20
279.4
 30
0.0
 11
154.59174
 21
276.4
 31
0.0
  0
LINE
  5
206
100
AcDbEntity
  8
LAY-1
  6
CONTINUOUS
 62
     7
100
AcDbLine
 10
152.59174
 20
274.4
 30
0.0
 11
151.15059
 21
274.4
 31
0.0
  0
ARC
  5
207
100
AcDbEntity
  8
LAY-1
  6
CONTINUOUS
 62
     7
100
AcDbCircle
 10
192.6
 20
283.4
 30
0.0
 40
2.0
100
AcDbArc
 50
270.0
 51
0.0
  0
ARC
  5
208
100
AcDbEntity
  8
LAY-1
  6
CONTINUOUS
 62
     7
100
AcDbCircle
 10
156.59174
 20
279.4
 30
0.0
 40
2.0
100
AcDbArc
 50
90.0
 51
180.0
  0
ARC
  5
209
100
AcDbEntity
  8
LAY-1
  6
CONTINUOUS
 62
     7
100
AcDbCircle
 10
151.15059
 20
272.4
 30
0.0
 40
2.0
100
AcDbArc
 50
90.0
 51
178.5
  0
ARC
  5
20A
100
AcDbEntity
  8
LAY-1
  6
CONTINUOUS
 62
     7
100
AcDbCircle
 10
154.256362
 20
276.4
 30
0.0
 40
5.0
100
AcDbArc
 50
90.0
 51
178.5
  0
LINE
  5
20B
100
AcDbEntity
  8
LAY-1
  6
CONTINUOUS
 62
     7
100
AcDbLine
 10
148.364708
 20
242.414554
 30
0.0
 11
149.258075
 21
276.530885
 31
0.0
  0
LINE
  5
20C
100
AcDbEntity
  8
LAY-1
  6
CONTINUOUS
 62
     7
100
AcDbLine
 10
165.611609
 20
267.4
 30
0.0
 11
149.018975
 21
267.4
 31
0.0
  0
ARC
  5
20D
100
AcDbEntity
  8
LAY-1
  6
CONTINUOUS
 62
     7
100
AcDbCircle
 10
172.901787
 20
264.290717
 30
0.0
 40
5.0
100
AcDbArc
 50
119.078789
 51
179.0
  0
LINE
  5
20E
100
AcDbEntity
  8
LAY-1
  6
CONTINUOUS
 62
     7
100
AcDbLine
 10
167.1
 20
218.4
 30
0.0
 11
167.902549
 21
264.377979
 31
0.0
  0
ARC
  5
20F
100
AcDbEntity
  8
LAY-1
  6
CONTINUOUS
 62
     7
100
AcDbCircle
 10
184.996385
 20
278.4
 30
0.0
 40
3.0
100
AcDbArc
 50
90.0
 51
135.0
  0
LINE
  5
210
100
AcDbEntity
  8
LAY-1
  6
CONTINUOUS
 62
     7
100
AcDbLine
 10
194.6
 20
287.4
 30
0.0
 11
125.6
 21
287.4
 31
0.0
  0
ARC
  5
211
100
AcDbEntity
  8
LAY-1
  6
CONTINUOUS
 62
     7
100
AcDbCircle
 10
132.792979
 20
260.9
 30
0.0
 40
1.5
100
AcDbArc
 50
90.0
 51
178.0
  0
LINE
  5
212
100
AcDbEntity
  8
LAY-1
  6
CONTINUOUS
 62
     7
100
AcDbLine
 10
135.798039
 20
262.4
 30
0.0
 11
125.6
 21
262.4
 31
0.0
  0
LINE
  5
213
100
AcDbEntity
  8
LAY-1
  6
CONTINUOUS
 62
     7
100
AcDbLine
 10
131.133702
 20
256.365101
 30
0.0
 11
131.293892
 21
260.952349
 31
0.0
  0
LINE
  5
214
100
AcDbEntity
  8
LAY-1
  6
CONTINUOUS
 62
     7
100
AcDbLine
 10
125.6
 20
255.4
 30
0.0
 11
130.134311
 21
255.4
 31
0.0
  0
ARC
  5
215
100
AcDbEntity
  8
LAY-1
  6
CONTINUOUS
 62
     7
100
AcDbCircle
 10
130.134311
 20
256.4
 30
0.0
 40
1.0
100
AcDbArc
 50
270.0
 51
358.0
  0
LINE
  5
216
100
AcDbEntity
  8
LAY-1
  6
CONTINUOUS
 62
     7
100
AcDbLine
 10
140.56663
 20
250.4
 30
0.0
 11
125.6
 21
250.4
 31
0.0
  0
LINE
  5
217
100
AcDbEntity
  8
LAY-1
  6
CONTINUOUS
 62
     7
100
AcDbLine
 10
140.056832
 20
247.4
 30
0.0
 11
125.6
 21
247.4
 31
0.0
  0
LINE
  5
218
100
AcDbEntity
  8
LAY-1
  6
CONTINUOUS
 62
     7
100
AcDbLine
 10
134.298485
 20
228.4
 30
0.0
 11
125.6
 21
228.4
 31
0.0
  0
ARC
  5
219
100
AcDbEntity
  8
LAY-1
  6
CONTINUOUS
 62
     7
100
AcDbCircle
 10
146.365393
 20
242.466908
 30
0.0
 40
2.0
100
AcDbArc
 50
315.0
 51
358.5
  0
ARC
  5
21A
100
AcDbEntity
  8
LAY-1
  6
CONTINUOUS
 62
     7
100
AcDbCircle
 10
134.298485
 20
230.4
 30
0.0
 40
2.0
100
AcDbArc
 50
270.0
 51
315.0
  0
ARC
  5
21B
100
AcDbEntity
  8
LAY-1
  6
CONTINUOUS
 62
     7
100
AcDbCircle
 10
146.365393
 20
242.466908
 30
0.0
 40
2.0
100
AcDbArc
 50
315.0
 51
358.5
  0
LINE
  5
21C
100
AcDbEntity
  8
LAY-1
  6
CONTINUOUS
 62
     7
100
AcDbLine
 10
135.712698
 20
228.985786
 30
0.0
 11
147.779607
 21
241.052695
 31
0.0
  0
LINE
  5
21D
100
AcDbEntity
  8
LAY-1
  6
CONTINUOUS
 62
     7
100
AcDbLine
 10
134.298485
 20
228.4
 30
0.0
 11
125.6
 21
228.4
 31
0.0
  0
ARC
  5
21E
100
AcDbEntity
  8
LAY-1
  6
CONTINUOUS
 62
     7
100
AcDbCircle
 10
134.298485
 20
230.4
 30
0.0
 40
2.0
100
AcDbArc
 50
270.0
 51
315.0
  0
LINE
  5
21F
100
AcDbEntity
  8
LAY-1
  6
CONTINUOUS
 62
     7
100
AcDbLine
 10
167.1
 20
218.4
 30
0.0
 11
125.6
 21
218.4
 31
0.0
  0
LINE
  5
220
100
AcDbEntity
  8
LAY-1
  6
CONTINUOUS
 62
     7
100
AcDbLine
 10
129.5
 20
255.4
 30
0.0
 11
129.5
 21
250.4
 31
0.0
  0
LINE
  5
221
100
AcDbEntity
  8
LAY-1
  6
CONTINUOUS
 62
     7
100
AcDbLine
 10
194.6
 20
283.4
 30
0.0
 11
194.6
 21
292.9
 31
0.0
  0
LINE
  5
222
100
AcDbEntity
  8
LAY-1
  6
CONTINUOUS
 62
     7
100
AcDbLine
 10
182.875065
 20
280.52132
 30
0.0
 11
172.682677
 21
270.328932
 31
0.0
  0
ARC
  5
223
100
AcDbEntity
  8
LAY-1
  6
CONTINUOUS
 62
     7
100
AcDbCircle
 10
165.611609
 20
277.4
 30
0.0
 40
10.0
100
AcDbArc
 50
270.0
 51
315.0
  0
LINE
  5
224
100
AcDbEntity
  8
LAY-1
  6
CONTINUOUS
 62
     7
100
AcDbLine
 10
577.632625
 20
313.744338
 30
0.0
 11
577.632625
 21
300.38244
 31
0.0
  0
LINE
  5
225
100
AcDbEntity
  8
LAY-1
  6
CONTINUOUS
 62
     7
100
AcDbLine
 10
574.632625
 20
310.665495
 30
0.0
 11
574.632625
 21
301.902258
 31
0.0
  0
LINE
  5
226
100
AcDbEntity
  8
LAY-1
  6
CONTINUOUS
 62
     7
100
AcDbLine
 10
573.804198
 20
311.4
 30
0.0
 11
551.725554
 21
311.4
 31
0.0
  0
LINE
  5
227
100
AcDbEntity
  8
LAY-1
  6
CONTINUOUS
 62
     7
100
AcDbLine
 10
546.132625
 20
357.4
 30
0.0
 11
525.6
 21
357.4
 31
0.0
  0
LINE
  5
228
100
AcDbEntity
  8
LAY-1
  6
CONTINUOUS
 62
     7
100
AcDbLine
 10
546.132625
 20
357.4
 30
0.0
 11
546.789403
 21
319.773196
 31
0.0
  0
ARC
  5
229
100
AcDbEntity
  8
LAY-1
  6
CONTINUOUS
 62
     7
100
AcDbCircle
 10
551.725554
 20
315.4
 30
0.0
 40
4.0
100
AcDbArc
 50
202.811642
 51
270.0
  0
ARC
  5
22A
100
AcDbEntity
  8
LAY-1
  6
CONTINUOUS
 62
     7
100
AcDbCircle
 10
562.786967
 20
320.052435
 30
0.0
 40
16.0
100
AcDbArc
 50
181.0
 51
261.471556
  0
LINE
  5
22B
100
AcDbEntity
  8
LAY-1
  6
CONTINUOUS
 62
     7
100
AcDbLine
 10
560.41416
 20
304.229357
 30
0.0
 11
572.542672
 21
302.410583
 31
0.0
  0
ARC
  5
22C
100
AcDbEntity
  8
LAY-1
  6
CONTINUOUS
 62
     7
100
AcDbCircle
 10
570.763067
 20
290.543274
 30
0.0
 40
12.0
100
AcDbArc
 50
28.773073
 51
81.471556
  0
ARC
  5
22D
100
AcDbEntity
  8
LAY-1
  6
CONTINUOUS
 62
     7
100
AcDbCircle
 10
593.54806
 20
279.513976
 30
0.0
 40
2.0
100
AcDbArc
 50
103.71043
 51
178.0
  0
LINE
  5
22E
100
AcDbEntity
  8
LAY-1
  6
CONTINUOUS
 62
     7
100
AcDbLine
 10
591.549278
 20
279.583775
 30
0.0
 11
590.667404
 21
254.330201
 31
0.0
  0
ARC
  5
22F
100
AcDbEntity
  8
LAY-1
  6
CONTINUOUS
 62
     7
100
AcDbCircle
 10
588.668622
 20
254.4
 30
0.0
 40
2.0
100
AcDbArc
 50
270.0
 51
358.0
  0
LINE
  5
230
100
AcDbEntity
  8
LAY-1
  6
CONTINUOUS
 62
     7
100
AcDbLine
 10
588.668622
 20
252.4
 30
0.0
 11
572.531378
 21
252.4
 31
0.0
  0
LINE
  5
231
100
AcDbEntity
  8
LAY-1
  6
CONTINUOUS
 62
     7
100
AcDbLine
 10
570.136358
 20
265.676961
 30
0.0
 11
570.532596
 21
254.330201
 31
0.0
  0
ARC
  5
232
100
AcDbEntity
  8
LAY-1
  6
CONTINUOUS
 62
     7
100
AcDbCircle
 10
569.136967
 20
265.642062
 30
0.0
 40
1.0
100
AcDbArc
 50
2.0
 51
160.254899
  0
ARC
  5
233
100
AcDbEntity
  8
LAY-1
  6
CONTINUOUS
 62
     7
100
AcDbCircle
 10
569.30424
 20
252.796396
 30
0.0
 40
1.603604
100
AcDbArc
 50
26.423346
 51
179.0
  0
ARC
  5
234
100
AcDbEntity
  8
LAY-1
  6
CONTINUOUS
 62
     7
100
AcDbCircle
 10
572.531378
 20
254.4
 30
0.0
 40
2.0
100
AcDbArc
 50
182.0
 51
270.0
  0
ARC
  5
235
100
AcDbEntity
  8
LAY-1
  6
CONTINUOUS
 62
     7
100
AcDbCircle
 10
546.821297
 20
259.877187
 30
0.0
 40
2.0
100
AcDbArc
 50
358.5
 51
45.0
  0
LINE
  5
236
100
AcDbEntity
  8
LAY-1
  6
CONTINUOUS
 62
     7
100
AcDbLine
 10
535.712698
 20
273.814214
 30
0.0
 11
548.235511
 21
261.291401
 31
0.0
  0
ARC
  5
237
100
AcDbEntity
  8
LAY-1
  6
CONTINUOUS
 62
     7
100
AcDbCircle
 10
534.298485
 20
272.4
 30
0.0
 40
2.0
100
AcDbArc
 50
45.0
 51
90.0
  0
LINE
  5
238
100
AcDbEntity
  8
LAY-1
  6
CONTINUOUS
 62
     7
100
AcDbLine
 10
534.298485
 20
274.4
 30
0.0
 11
525.6
 21
274.4
 31
0.0
  0
ARC
  5
239
100
AcDbEntity
  8
LAY-1
  6
CONTINUOUS
 62
     7
100
AcDbCircle
 10
534.298485
 20
272.4
 30
0.0
 40
2.0
100
AcDbArc
 50
45.0
 51
90.0
  0
LINE
  5
23A
100
AcDbEntity
  8
LAY-1
  6
CONTINUOUS
 62
     7
100
AcDbLine
 10
592.6
 20
281.4
 30
0.0
 11
554.256362
 21
281.4
 31
0.0
  0
LINE
  5
23B
100
AcDbEntity
  8
LAY-1
  6
EXLTYPE3
 62
     1
100
AcDbLine
 10
525.6
 20
251.4
 30
0.0
 11
555.6
 21
251.4
 31
0.0
  0
ARC
  5
23C
100
AcDbEntity
  8
LAY-1
  6
CONTINUOUS
 62
     7
100
AcDbCircle
 10
548.159398
 20
215.070835
 30
0.0
 40
1.5
100
AcDbArc
 50
180.0
 51
240.0
  0
ARC
  5
23D
100
AcDbEntity
  8
LAY-1
  6
CONTINUOUS
 62
     7
100
AcDbCircle
 10
551.409398
 20
220.7
 30
0.0
 40
8.0
100
AcDbArc
 50
240.0
 51
270.0
  0
LINE
  5
23E
100
AcDbEntity
  8
LAY-1
  6
CONTINUOUS
 62
     7
100
AcDbLine
 10
546.659398
 20
215.070835
 30
0.0
 11
546.659398
 21
216.4
 31
0.0
  0
ARC
  5
23F
100
AcDbEntity
  8
LAY-1
  6
CONTINUOUS
 62
     7
100
AcDbCircle
 10
554.659398
 20
215.070835
 30
0.0
 40
1.5
100
AcDbArc
 50
300.0
 51
0.0
  0
ARC
  5
240
100
AcDbEntity
  8
LAY-1
  6
CONTINUOUS
 62
     7
100
AcDbCircle
 10
551.409398
 20
220.7
 30
0.0
 40
8.0
100
AcDbArc
 50
270.0
 51
300.0
  0
LINE
  5
241
100
AcDbEntity
  8
LAY-1
  6
CONTINUOUS
 62
     7
100
AcDbLine
 10
556.159398
 20
215.070835
 30
0.0
 11
556.159398
 21
216.4
 31
0.0
  0
LINE
  5
242
100
AcDbEntity
  8
LAY-1
  6
CONTINUOUS
 62
     7
100
AcDbLine
 10
567.1
 20
216.4
 30
0.0
 11
525.6
 21
216.4
 31
0.0
  0
LINE
  5
243
100
AcDbEntity
  8
LAY-1
  6
CONTINUOUS
 62
     7
100
AcDbLine
 10
567.1
 20
218.4
 30
0.0
 11
567.1
 21
216.4
 31
0.0
  0
LINE
  5
244
100
AcDbEntity
  8
LAY-1
  6
EXLTYPE3
 62
     1
100
AcDbLine
 10
525.6
 20
375.7
 30
0.0
 11
525.6
 21
205.7
 31
0.0
  0
LINE
  5
245
100
AcDbEntity
  8
LAY-1
  6
CONTINUOUS
 62
     7
100
AcDbLine
 10
536.18045
 20
213.4
 30
0.0
 11
525.6
 21
213.4
 31
0.0
  0
ARC
  5
246
100
AcDbEntity
  8
LAY-1
  6
CONTINUOUS
 62
     7
100
AcDbCircle
 10
536.18045
 20
215.9
 30
0.0
 40
2.5
100
AcDbArc
 50
270.0
 51
350.0
  0
ARC
  5
247
100
AcDbEntity
  8
LAY-1
  6
CONTINUOUS
 62
     7
100
AcDbCircle
 10
539.22673
 20
215.9
 30
0.0
 40
0.5
100
AcDbArc
 50
90.0
 51
170.0
  0
LINE
  5
248
100
AcDbEntity
  8
LAY-1
  6
CONTINUOUS
 62
     7
100
AcDbLine
 10
538.734326
 20
215.986824
 30
0.0
 11
538.64247
 21
215.46588
 31
0.0
  0
LINE
  5
249
100
AcDbEntity
  8
LAY-1
  6
CONTINUOUS
 62
     7
100
AcDbLine
 10
594.6
 20
283.4
 30
0.0
 11
594.6
 21
313.4
 31
0.0
  0
LINE
  5
24A
100
AcDbEntity
  8
LAY-1
  6
CONTINUOUS
 62
     7
100
AcDbLine
 10
579.97829
 20
295.537197
 30
0.0
 11
579.97829
 21
293.4
 31
0.0
  0
LINE
  5
24B
100
AcDbEntity
  8
LAY-1
  6
CONTINUOUS
 62
     7
100
AcDbLine
 10
589.47829
 20
295.537197
 30
0.0
 11
589.47829
 21
293.4
 31
0.0
  0
ARC
  5
24C
100
AcDbEntity
  8
LAY-1
  6
CONTINUOUS
 62
     7
100
AcDbCircle
 10
584.72829
 20
289.1
 30
0.0
 40
8.0
100
AcDbArc
 50
53.576426
 51
126.423574
  0
ARC
  5
24D
100
AcDbEntity
  8
LAY-1
  6
CONTINUOUS
 62
     7
100
AcDbCircle
 10
550.09174
 20
289.1
 30
0.0
 40
8.0
100
AcDbArc
 50
53.576426
 51
126.423574
  0
LINE
  5
24E
100
AcDbEntity
  8
LAY-1
  6
CONTINUOUS
 62
     7
100
AcDbLine
 10
554.84174
 20
295.537197
 30
0.0
 11
554.84174
 21
293.4
 31
0.0
  0
LINE
  5
24F
100
AcDbEntity
  8
LAY-1
  6
CONTINUOUS
 62
     7
100
AcDbLine
 10
545.34174
 20
295.537197
 30
0.0
 11
545.34174
 21
293.4
 31
0.0
  0
ARC
  5
250
100
AcDbEntity
  8
LAY-1
  6
CONTINUOUS
 62
     7
100
AcDbCircle
 10
594.1
 20
292.9
 30
0.0
 40
0.5
100
AcDbArc
 50
0.0
 51
90.0
  0
LINE
  5
251
100
AcDbEntity
  8
LAY-1
  6
CONTINUOUS
 62
     7
100
AcDbLine
 10
594.1
 20
293.4
 30
0.0
 11
525.6
 21
293.4
 31
0.0
  0
LINE
  5
252
100
AcDbEntity
  8
LAY-1
  6
CONTINUOUS
 62
     7
100
AcDbLine
 10
546.6
 20
359.9
 30
0.0
 11
525.6
 21
359.9
 31
0.0
  0
LINE
  5
253
100
AcDbEntity
  8
LAY-1
  6
CONTINUOUS
 62
     7
100
AcDbLine
 10
546.6
 20
358.4
 30
0.0
 11
525.6
 21
358.4
 31
0.0
  0
LINE
  5
254
100
AcDbEntity
  8
LAY-1
  6
CONTINUOUS
 62
     7
100
AcDbLine
 10
545.632625
 20
357.4
 30
0.0
 11
545.632625
 21
358.4
 31
0.0
  0
LINE
  5
255
100
AcDbEntity
  8
LAY-1
  6
CONTINUOUS
 62
     7
100
AcDbLine
 10
546.6
 20
358.4
 30
0.0
 11
546.6
 21
359.9
 31
0.0
  0
ARC
  5
256
100
AcDbEntity
  8
LAY-1
  6
CONTINUOUS
 62
     7
100
AcDbCircle
 10
533.6
 20
345.793164
 30
0.0
 40
23.106836
100
AcDbArc
 50
69.743842
 51
110.256158
  0
LINE
  5
257
100
AcDbEntity
  8
LAY-1
  6
CONTINUOUS
 62
     7
100
AcDbLine
 10
541.6
 20
368.9
 30
0.0
 11
525.6
 21
368.9
 31
0.0
  0
LINE
  5
258
100
AcDbEntity
  8
LAY-1
  6
CONTINUOUS
 62
     7
100
AcDbLine
 10
541.6
 20
359.9
 30
0.0
 11
541.6
 21
368.9
 31
0.0
  0
ARC
  5
259
100
AcDbEntity
  8
LAY-1
  6
CONTINUOUS
 62
     7
100
AcDbCircle
 10
539.134311
 20
303.4
 30
0.0
 40
1.0
100
AcDbArc
 50
2.0
 51
90.0
  0
LINE
  5
25A
100
AcDbEntity
  8
LAY-1
  6
CONTINUOUS
 62
     7
100
AcDbLine
 10
540.133702
 20
303.434899
 30
0.0
 11
540.450426
 21
294.365101
 31
0.0
  0
LINE
  5
25B
100
AcDbEntity
  8
LAY-1
  6
CONTINUOUS
 62
     7
100
AcDbLine
 10
539.134311
 20
304.4
 30
0.0
 11
525.6
 21
304.4
 31
0.0
  0
ARC
  5
25C
100
AcDbEntity
  8
LAY-1
  6
CONTINUOUS
 62
     7
100
AcDbCircle
 10
541.449817
 20
294.4
 30
0.0
 40
1.0
100
AcDbArc
 50
182.0
 51
270.0
  0
ARC
  5
25D
100
AcDbEntity
  8
LAY-1
  6
CONTINUOUS
 62
     7
100
AcDbCircle
 10
593.6
 20
313.4
 30
0.0
 40
1.0
100
AcDbArc
 50
0.0
 51
90.0
  0
LINE
  5
25E
100
AcDbEntity
  8
LAY-1
  6
CONTINUOUS
 62
     7
100
AcDbLine
 10
593.6
 20
314.4
 30
0.0
 11
578.461052
 21
314.4
 31
0.0
  0
ARC
  5
25F
100
AcDbEntity
  8
LAY-1
  6
CONTINUOUS
 62
     7
100
AcDbCircle
 10
573.804198
 20
313.4
 30
0.0
 40
2.0
100
AcDbArc
 50
270.0
 51
315.0
  0
ARC
  5
260
100
AcDbEntity
  8
LAY-1
  6
CONTINUOUS
 62
     7
100
AcDbCircle
 10
578.461052
 20
312.4
 30
0.0
 40
2.0
100
AcDbArc
 50
90.0
 51
135.0
  0
LINE
  5
261
100
AcDbEntity
  8
LAY-1
  6
CONTINUOUS
 62
     7
100
AcDbLine
 10
577.046839
 20
313.814214
 30
0.0
 11
575.218412
 21
311.985786
 31
0.0
  0
ARC
  5
262
100
AcDbEntity
  8
LAY-1
  6
CONTINUOUS
 62
     1
100
AcDbCircle
 10
525.6
 20
251.4
 30
0.0
 40
16.613032
100
AcDbArc
 50
270.0
 51
90.0
  0
ARC
  5
263
100
AcDbEntity
  8
LAY-1
  6
CONTINUOUS
 62
     7
100
AcDbCircle
 10
525.6
 20
251.4
 30
0.0
 40
17.0
100
AcDbArc
 50
270.0
 51
90.0
  0
LINE
  5
264
100
AcDbEntity
  8
LAY-1
  6
CONTINUOUS
 62
     7
100
AcDbLine
 10
531.0
 20
237.310508
 30
0.0
 11
531.0
 21
237.293605
 31
0.0
  0
ARC
  5
265
100
AcDbEntity
  8
LAY-1
  6
CONTINUOUS
 62
     7
100
AcDbCircle
 10
525.6
 20
251.4
 30
0.0
 40
15.088863
100
AcDbArc
 50
270.0
 51
90.0
  0
ARC
  5
266
100
AcDbEntity
  8
LAY-1
  6
CONTINUOUS
 62
     7
100
AcDbCircle
 10
552.59174
 20
276.4
 30
0.0
 40
2.0
100
AcDbArc
 50
270.0
 51
0.0
  0
LINE
  5
267
100
AcDbEntity
  8
LAY-1
  6
CONTINUOUS
 62
     7
100
AcDbLine
 10
554.59174
 20
279.4
 30
0.0
 11
554.59174
 21
276.4
 31
0.0
  0
LINE
  5
268
100
AcDbEntity
  8
LAY-1
  6
CONTINUOUS
 62
     7
100
AcDbLine
 10
552.59174
 20
274.4
 30
0.0
 11
551.15059
 21
274.4
 31
0.0
  0
ARC
  5
269
100
AcDbEntity
  8
LAY-1
  6
CONTINUOUS
 62
     7
100
AcDbCircle
 10
592.6
 20
283.4
 30
0.0
 40
2.0
100
AcDbArc
 50
270.0
 51
0.0
  0
ARC
  5
26A
100
AcDbEntity
  8
LAY-1
  6
CONTINUOUS
 62
     7
100
AcDbCircle
 10
556.59174
 20
279.4
 30
0.0
 40
2.0
100
AcDbArc
 50
90.0
 51
180.0
  0
ARC
  5
26B
100
AcDbEntity
  8
LAY-1
  6
CONTINUOUS
 62
     7
100
AcDbCircle
 10
551.15059
 20
272.4
 30
0.0
 40
2.0
100
AcDbArc
 50
90.0
 51
178.5
  0
ARC
  5
26C
100
AcDbEntity
  8
LAY-1
  6
CONTINUOUS
 62
     7
100
AcDbCircle
 10
554.256362
 20
276.4
 30
0.0
 40
5.0
100
AcDbArc
 50
90.0
 51
178.5
  0
LINE
  5
26D
100
AcDbEntity
  8
LAY-1
  6
CONTINUOUS
 62
     7
100
AcDbLine
 10
548.364708
 20
242.414554
 30
0.0
 11
549.258075
 21
276.530885
 31
0.0
  0
LINE
  5
26E
100
AcDbEntity
  8
LAY-1
  6
CONTINUOUS
 62
     7
100
AcDbLine
 10
565.611609
 20
267.4
 30
0.0
 11
549.018975
 21
267.4
 31
0.0
  0
ARC
  5
26F
100
AcDbEntity
  8
LAY-1
  6
CONTINUOUS
 62
     7
100
AcDbCircle
 10
572.901787
 20
264.290717
 30
0.0
 40
5.0
100
AcDbArc
 50
119.078789
 51
179.0
  0
LINE
  5
270
100
AcDbEntity
  8
LAY-1
  6
CONTINUOUS
 62
     7
100
AcDbLine
 10
567.1
 20
218.4
 30
0.0
 11
567.902549
 21
264.377979
 31
0.0
  0
ARC
  5
271
100
AcDbEntity
  8
LAY-1
  6
CONTINUOUS
 62
     7
100
AcDbCircle
 10
565.611609
 20
277.4
 30
0.0
 40
10.0
100
AcDbArc
 50
270.0
 51
315.0
  0
LINE
  5
272
100
AcDbEntity
  8
LAY-1
  6
CONTINUOUS
 62
     7
100
AcDbLine
 10
582.875065
 20
280.52132
 30
0.0
 11
572.682677
 21
270.328932
 31
0.0
  0
ARC
  5
273
100
AcDbEntity
  8
LAY-1
  6
CONTINUOUS
 62
     7
100
AcDbCircle
 10
584.996385
 20
278.4
 30
0.0
 40
3.0
100
AcDbArc
 50
90.0
 51
135.0
  0
LINE
  5
274
100
AcDbEntity
  8
LAY-1
  6
CONTINUOUS
 62
     7
100
AcDbLine
 10
594.6
 20
287.4
 30
0.0
 11
525.6
 21
287.4
 31
0.0
  0
LINE
  5
275
100
AcDbEntity
  8
LAY-1
  6
CONTINUOUS
 62
     7
100
AcDbLine
 10
534.298485
 20
228.4
 30
0.0
 11
525.6
 21
228.4
 31
0.0
  0
ARC
  5
276
100
AcDbEntity
  8
LAY-1
  6
CONTINUOUS
 62
     7
100
AcDbCircle
 10
546.365393
 20
242.466908
 30
0.0
 40
2.0
100
AcDbArc
 50
315.0
 51
358.5
  0
LINE
  5
277
100
AcDbEntity
  8
LAY-1
  6
CONTINUOUS
 62
     7
100
AcDbLine
 10
535.712698
 20
228.985786
 30
0.0
 11
547.779607
 21
241.052695
 31
0.0
  0
ARC
  5
278
100
AcDbEntity
  8
LAY-1
  6
CONTINUOUS
 62
     7
100
AcDbCircle
 10
534.298485
 20
230.4
 30
0.0
 40
2.0
100
AcDbArc
 50
270.0
 51
315.0
  0
ARC
  5
279
100
AcDbEntity
  8
LAY-1
  6
CONTINUOUS
 62
     7
100
AcDbCircle
 10
546.365393
 20
242.466908
 30
0.0
 40
2.0
100
AcDbArc
 50
315.0
 51
358.5
  0
LINE
  5
27A
100
AcDbEntity
  8
LAY-1
  6
CONTINUOUS
 62
     7
100
AcDbLine
 10
535.712698
 20
228.985786
 30
0.0
 11
547.779607
 21
241.052695
 31
0.0
  0
LINE
  5
27B
100
AcDbEntity
  8
LAY-1
  6
CONTINUOUS
 62
     7
100
AcDbLine
 10
534.298485
 20
228.4
 30
0.0
 11
525.6
 21
228.4
 31
0.0
  0
ARC
  5
27C
100
AcDbEntity
  8
LAY-1
  6
CONTINUOUS
 62
     7
100
AcDbCircle
 10
534.298485
 20
230.4
 30
0.0
 40
2.0
100
AcDbArc
 50
270.0
 51
315.0
  0
LINE
  5
27D
100
AcDbEntity
  8
LAY-1
  6
CONTINUOUS
 62
     7
100
AcDbLine
 10
567.1
 20
218.4
 30
0.0
 11
525.6
 21
218.4
 31
0.0
  0
LINE
  5
27E
100
AcDbEntity
  8
LAY-1
  6
CONTINUOUS
 62
     7
100
AcDbLine
 10
505.067375
 20
357.4
 30
0.0
 11
525.6
 21
357.4
 31
0.0
  0
LINE
  5
27F
100
AcDbEntity
  8
LAY-1
  6
CONTINUOUS
 62
     7
100
AcDbLine
 10
505.067375
 20
357.4
 30
0.0
 11
504.410597
 21
319.773196
 31
0.0
  0
ARC
  5
280
100
AcDbEntity
  8
LAY-1
  6
CONTINUOUS
 62
     7
100
AcDbCircle
 10
488.413033
 20
320.052435
 30
0.0
 40
16.0
100
AcDbArc
 50
278.528444
 51
359.0
  0
LINE
  5
281
100
AcDbEntity
  8
LAY-1
  6
CONTINUOUS
 62
     7
100
AcDbLine
 10
490.78584
 20
304.229357
 30
0.0
 11
478.657328
 21
302.410583
 31
0.0
  0
ARC
  5
282
100
AcDbEntity
  8
LAY-1
  6
CONTINUOUS
 62
     7
100
AcDbCircle
 10
480.436933
 20
290.543274
 30
0.0
 40
12.0
100
AcDbArc
 50
98.528444
 51
151.226927
  0
ARC
  5
283
100
AcDbEntity
  8
LAY-1
  6
CONTINUOUS
 62
     7
100
AcDbCircle
 10
504.378703
 20
259.877187
 30
0.0
 40
2.0
100
AcDbArc
 50
135.0
 51
181.5
  0
LINE
  5
284
100
AcDbEntity
  8
LAY-1
  6
CONTINUOUS
 62
     7
100
AcDbLine
 10
515.487302
 20
273.814214
 30
0.0
 11
502.964489
 21
261.291401
 31
0.0
  0
ARC
  5
285
100
AcDbEntity
  8
LAY-1
  6
CONTINUOUS
 62
     7
100
AcDbCircle
 10
516.901515
 20
272.4
 30
0.0
 40
2.0
100
AcDbArc
 50
90.0
 51
135.0
  0
LINE
  5
286
100
AcDbEntity
  8
LAY-1
  6
CONTINUOUS
 62
     7
100
AcDbLine
 10
516.901515
 20
274.4
 30
0.0
 11
525.6
 21
274.4
 31
0.0
  0
ARC
  5
287
100
AcDbEntity
  8
LAY-1
  6
CONTINUOUS
 62
     7
100
AcDbCircle
 10
516.901515
 20
272.4
 30
0.0
 40
2.0
100
AcDbArc
 50
90.0
 51
135.0
  0
LINE
  5
288
100
AcDbEntity
  8
LAY-1
  6
CONTINUOUS
 62
     7
100
AcDbLine
 10
458.6
 20
281.4
 30
0.0
 11
496.943638
 21
281.4
 31
0.0
  0
LINE
  5
289
100
AcDbEntity
  8
LAY-1
  6
EXLTYPE3
 62
     1
100
AcDbLine
 10
525.6
 20
251.4
 30
0.0
 11
495.6
 21
251.4
 31
0.0
  0
ARC
  5
28A
100
AcDbEntity
  8
LAY-1
  6
CONTINUOUS
 62
     7
100
AcDbCircle
 10
503.040602
 20
215.070835
 30
0.0
 40
1.5
100
AcDbArc
 50
300.0
 51
0.0
  0
ARC
  5
28B
100
AcDbEntity
  8
LAY-1
  6
CONTINUOUS
 62
     7
100
AcDbCircle
 10
499.790602
 20
220.7
 30
0.0
 40
8.0
100
AcDbArc
 50
270.0
 51
300.0
  0
LINE
  5
28C
100
AcDbEntity
  8
LAY-1
  6
CONTINUOUS
 62
     7
100
AcDbLine
 10
504.540602
 20
215.070835
 30
0.0
 11
504.540602
 21
216.4
 31
0.0
  0
ARC
  5
28D
100
AcDbEntity
  8
LAY-1
  6
CONTINUOUS
 62
     7
100
AcDbCircle
 10
496.540602
 20
215.070835
 30
0.0
 40
1.5
100
AcDbArc
 50
180.0
 51
240.0
  0
ARC
  5
28E
100
AcDbEntity
  8
LAY-1
  6
CONTINUOUS
 62
     7
100
AcDbCircle
 10
499.790602
 20
220.7
 30
0.0
 40
8.0
100
AcDbArc
 50
240.0
 51
270.0
  0
LINE
  5
28F
100
AcDbEntity
  8
LAY-1
  6
CONTINUOUS
 62
     7
100
AcDbLine
 10
495.040602
 20
215.070835
 30
0.0
 11
495.040602
 21
216.4
 31
0.0
  0
LINE
  5
290
100
AcDbEntity
  8
LAY-1
  6
CONTINUOUS
 62
     7
100
AcDbLine
 10
484.1
 20
216.4
 30
0.0
 11
525.6
 21
216.4
 31
0.0
  0
LINE
  5
291
100
AcDbEntity
  8
LAY-1
  6
CONTINUOUS
 62
     7
100
AcDbLine
 10
484.1
 20
218.4
 30
0.0
 11
484.1
 21
216.4
 31
0.0
  0
LINE
  5
292
100
AcDbEntity
  8
LAY-1
  6
CONTINUOUS
 62
     7
100
AcDbLine
 10
515.01955
 20
213.4
 30
0.0
 11
525.6
 21
213.4
 31
0.0
  0
ARC
  5
293
100
AcDbEntity
  8
LAY-1
  6
CONTINUOUS
 62
     7
100
AcDbCircle
 10
515.01955
 20
215.9
 30
0.0
 40
2.5
100
AcDbArc
 50
190.0
 51
270.0
  0
ARC
  5
294
100
AcDbEntity
  8
LAY-1
  6
CONTINUOUS
 62
     7
100
AcDbCircle
 10
511.97327
 20
215.9
 30
0.0
 40
0.5
100
AcDbArc
 50
10.0
 51
90.0
  0
LINE
  5
295
100
AcDbEntity
  8
LAY-1
  6
CONTINUOUS
 62
     7
100
AcDbLine
 10
512.465674
 20
215.986824
 30
0.0
 11
512.55753
 21
215.46588
 31
0.0
  0
LINE
  5
296
100
AcDbEntity
  8
LAY-1
  6
CONTINUOUS
 62
     7
100
AcDbLine
 10
471.22171
 20
295.537197
 30
0.0
 11
471.22171
 21
293.4
 31
0.0
  0
LINE
  5
297
100
AcDbEntity
  8
LAY-1
  6
CONTINUOUS
 62
     7
100
AcDbLine
 10
461.72171
 20
295.537197
 30
0.0
 11
461.72171
 21
293.4
 31
0.0
  0
ARC
  5
298
100
AcDbEntity
  8
LAY-1
  6
CONTINUOUS
 62
     7
100
AcDbCircle
 10
466.47171
 20
289.1
 30
0.0
 40
8.0
100
AcDbArc
 50
53.576426
 51
126.423574
  0
ARC
  5
299
100
AcDbEntity
  8
LAY-1
  6
CONTINUOUS
 62
     7
100
AcDbCircle
 10
501.10826
 20
289.1
 30
0.0
 40
8.0
100
AcDbArc
 50
53.576426
 51
126.423574
  0
LINE
  5
29A
100
AcDbEntity
  8
LAY-1
  6
CONTINUOUS
 62
     7
100
AcDbLine
 10
496.35826
 20
295.537197
 30
0.0
 11
496.35826
 21
293.4
 31
0.0
  0
LINE
  5
29B
100
AcDbEntity
  8
LAY-1
  6
CONTINUOUS
 62
     7
100
AcDbLine
 10
505.85826
 20
295.537197
 30
0.0
 11
505.85826
 21
293.4
 31
0.0
  0
ARC
  5
29C
100
AcDbEntity
  8
LAY-1
  6
CONTINUOUS
 62
     7
100
AcDbCircle
 10
457.1
 20
292.9
 30
0.0
 40
0.5
100
AcDbArc
 50
90.0
 51
180.0
  0
LINE
  5
29D
100
AcDbEntity
  8
LAY-1
  6
CONTINUOUS
 62
     7
100
AcDbLine
 10
457.1
 20
293.4
 30
0.0
 11
525.6
 21
293.4
 31
0.0
  0
LINE
  5
29E
100
AcDbEntity
  8
LAY-1
  6
CONTINUOUS
 62
     7
100
AcDbLine
 10
504.6
 20
359.9
 30
0.0
 11
525.6
 21
359.9
 31
0.0
  0
LINE
  5
29F
100
AcDbEntity
  8
LAY-1
  6
CONTINUOUS
 62
     7
100
AcDbLine
 10
504.6
 20
358.4
 30
0.0
 11
525.6
 21
358.4
 31
0.0
  0
LINE
  5
2A0
100
AcDbEntity
  8
LAY-1
  6
CONTINUOUS
 62
     7
100
AcDbLine
 10
505.567375
 20
357.4
 30
0.0
 11
505.567375
 21
358.4
 31
0.0
  0
LINE
  5
2A1
100
AcDbEntity
  8
LAY-1
  6
CONTINUOUS
 62
     7
100
AcDbLine
 10
504.6
 20
358.4
 30
0.0
 11
504.6
 21
359.9
 31
0.0
  0
ARC
  5
2A2
100
AcDbEntity
  8
LAY-1
  6
CONTINUOUS
 62
     7
100
AcDbCircle
 10
517.6
 20
345.793164
 30
0.0
 40
23.106836
100
AcDbArc
 50
69.743842
 51
110.256158
  0
LINE
  5
2A3
100
AcDbEntity
  8
LAY-1
  6
CONTINUOUS
 62
     7
100
AcDbLine
 10
509.6
 20
368.9
 30
0.0
 11
525.6
 21
368.9
 31
0.0
  0
LINE
  5
2A4
100
AcDbEntity
  8
LAY-1
  6
CONTINUOUS
 62
     7
100
AcDbLine
 10
509.6
 20
359.9
 30
0.0
 11
509.6
 21
368.9
 31
0.0
  0
ARC
  5
2A5
100
AcDbEntity
  8
LAY-1
  6
CONTINUOUS
 62
     7
100
AcDbCircle
 10
512.065689
 20
303.4
 30
0.0
 40
1.0
100
AcDbArc
 50
90.0
 51
178.0
  0
LINE
  5
2A6
100
AcDbEntity
  8
LAY-1
  6
CONTINUOUS
 62
     7
100
AcDbLine
 10
511.066298
 20
303.434899
 30
0.0
 11
510.749574
 21
294.365101
 31
0.0
  0
LINE
  5
2A7
100
AcDbEntity
  8
LAY-1
  6
CONTINUOUS
 62
     7
100
AcDbLine
 10
512.065689
 20
304.4
 30
0.0
 11
525.6
 21
304.4
 31
0.0
  0
ARC
  5
2A8
100
AcDbEntity
  8
LAY-1
  6
CONTINUOUS
 62
     7
100
AcDbCircle
 10
509.750183
 20
294.4
 30
0.0
 40
1.0
100
AcDbArc
 50
270.0
 51
358.0
  0
ARC
  5
2A9
100
AcDbEntity
  8
LAY-1
  6
CONTINUOUS
 62
     1
100
AcDbCircle
 10
525.6
 20
251.4
 30
0.0
 40
16.613032
100
AcDbArc
 50
90.0
 51
270.0
  0
ARC
  5
2AA
100
AcDbEntity
  8
LAY-1
  6
CONTINUOUS
 62
     7
100
AcDbCircle
 10
525.6
 20
251.4
 30
0.0
 40
17.0
100
AcDbArc
 50
90.0
 51
270.0
  0
LINE
  5
2AB
100
AcDbEntity
  8
LAY-1
  6
CONTINUOUS
 62
     7
100
AcDbLine
 10
520.2
 20
237.310508
 30
0.0
 11
520.2
 21
237.293605
 31
0.0
  0
ARC
  5
2AC
100
AcDbEntity
  8
LAY-1
  6
CONTINUOUS
 62
     7
100
AcDbCircle
 10
525.6
 20
251.4
 30
0.0
 40
15.088863
100
AcDbArc
 50
90.0
 51
270.0
  0
ARC
  5
2AD
100
AcDbEntity
  8
LAY-1
  6
CONTINUOUS
 62
     7
100
AcDbCircle
 10
498.60826
 20
276.4
 30
0.0
 40
2.0
100
AcDbArc
 50
180.0
 51
270.0
  0
LINE
  5
2AE
100
AcDbEntity
  8
LAY-1
  6
CONTINUOUS
 62
     7
100
AcDbLine
 10
496.60826
 20
279.4
 30
0.0
 11
496.60826
 21
276.4
 31
0.0
  0
LINE
  5
2AF
100
AcDbEntity
  8
LAY-1
  6
CONTINUOUS
 62
     7
100
AcDbLine
 10
498.60826
 20
274.4
 30
0.0
 11
500.04941
 21
274.4
 31
0.0
  0
ARC
  5
2B0
100
AcDbEntity
  8
LAY-1
  6
CONTINUOUS
 62
     7
100
AcDbCircle
 10
458.6
 20
283.4
 30
0.0
 40
2.0
100
AcDbArc
 50
180.0
 51
270.0
  0
ARC
  5
2B1
100
AcDbEntity
  8
LAY-1
  6
CONTINUOUS
 62
     7
100
AcDbCircle
 10
494.60826
 20
279.4
 30
0.0
 40
2.0
100
AcDbArc
 50
0.0
 51
90.0
  0
ARC
  5
2B2
100
AcDbEntity
  8
LAY-1
  6
CONTINUOUS
 62
     7
100
AcDbCircle
 10
500.04941
 20
272.4
 30
0.0
 40
2.0
100
AcDbArc
 50
1.5
 51
90.0
  0
ARC
  5
2B3
100
AcDbEntity
  8
LAY-1
  6
CONTINUOUS
 62
     7
100
AcDbCircle
 10
496.943638
 20
276.4
 30
0.0
 40
5.0
100
AcDbArc
 50
1.5
 51
90.0
  0
LINE
  5
2B4
100
AcDbEntity
  8
LAY-1
  6
CONTINUOUS
 62
     7
100
AcDbLine
 10
502.835292
 20
242.414554
 30
0.0
 11
501.941925
 21
276.530885
 31
0.0
  0
LINE
  5
2B5
100
AcDbEntity
  8
LAY-1
  6
CONTINUOUS
 62
     7
100
AcDbLine
 10
485.588391
 20
267.4
 30
0.0
 11
502.181025
 21
267.4
 31
0.0
  0
ARC
  5
2B6
100
AcDbEntity
  8
LAY-1
  6
CONTINUOUS
 62
     7
100
AcDbCircle
 10
478.298213
 20
264.290717
 30
0.0
 40
5.0
100
AcDbArc
 50
1.0
 51
60.921211
  0
LINE
  5
2B7
100
AcDbEntity
  8
LAY-1
  6
CONTINUOUS
 62
     7
100
AcDbLine
 10
484.1
 20
218.4
 30
0.0
 11
483.297451
 21
264.377979
 31
0.0
  0
ARC
  5
2B8
100
AcDbEntity
  8
LAY-1
  6
CONTINUOUS
 62
     7
100
AcDbCircle
 10
466.203615
 20
278.4
 30
0.0
 40
3.0
100
AcDbArc
 50
45.0
 51
90.0
  0
LINE
  5
2B9
100
AcDbEntity
  8
LAY-1
  6
CONTINUOUS
 62
     7
100
AcDbLine
 10
456.6
 20
287.4
 30
0.0
 11
525.6
 21
287.4
 31
0.0
  0
LINE
  5
2BA
100
AcDbEntity
  8
LAY-1
  6
CONTINUOUS
 62
     7
100
AcDbLine
 10
516.901515
 20
228.4
 30
0.0
 11
525.6
 21
228.4
 31
0.0
  0
ARC
  5
2BB
100
AcDbEntity
  8
LAY-1
  6
CONTINUOUS
 62
     7
100
AcDbCircle
 10
504.834607
 20
242.466908
 30
0.0
 40
2.0
100
AcDbArc
 50
181.5
 51
225.0
  0
LINE
  5
2BC
100
AcDbEntity
  8
LAY-1
  6
CONTINUOUS
 62
     7
100
AcDbLine
 10
515.487302
 20
228.985786
 30
0.0
 11
503.420393
 21
241.052695
 31
0.0
  0
ARC
  5
2BD
100
AcDbEntity
  8
LAY-1
  6
CONTINUOUS
 62
     7
100
AcDbCircle
 10
516.901515
 20
230.4
 30
0.0
 40
2.0
100
AcDbArc
 50
225.0
 51
270.0
  0
ARC
  5
2BE
100
AcDbEntity
  8
LAY-1
  6
CONTINUOUS
 62
     7
100
AcDbCircle
 10
504.834607
 20
242.466908
 30
0.0
 40
2.0
100
AcDbArc
 50
181.5
 51
225.0
  0
LINE
  5
2BF
100
AcDbEntity
  8
LAY-1
  6
CONTINUOUS
 62
     7
100
AcDbLine
 10
515.487302
 20
228.985786
 30
0.0
 11
503.420393
 21
241.052695
 31
0.0
  0
LINE
  5
2C0
100
AcDbEntity
  8
LAY-1
  6
CONTINUOUS
 62
     7
100
AcDbLine
 10
516.901515
 20
228.4
 30
0.0
 11
525.6
 21
228.4
 31
0.0
  0
ARC
  5
2C1
100
AcDbEntity
  8
LAY-1
  6
CONTINUOUS
 62
     7
100
AcDbCircle
 10
516.901515
 20
230.4
 30
0.0
 40
2.0
100
AcDbArc
 50
225.0
 51
270.0
  0
LINE
  5
2C2
100
AcDbEntity
  8
LAY-1
  6
CONTINUOUS
 62
     7
100
AcDbLine
 10
484.1
 20
218.4
 30
0.0
 11
525.6
 21
218.4
 31
0.0
  0
LINE
  5
2C3
100
AcDbEntity
  8
LAY-1
  6
CONTINUOUS
 62
     7
100
AcDbLine
 10
456.6
 20
283.4
 30
0.0
 11
456.6
 21
292.9
 31
0.0
  0
LINE
  5
2C4
100
AcDbEntity
  8
LAY-1
  6
CONTINUOUS
 62
     7
100
AcDbLine
 10
468.324935
 20
280.52132
 30
0.0
 11
478.517323
 21
270.328932
 31
0.0
  0
ARC
  5
2C5
100
AcDbEntity
  8
LAY-1
  6
CONTINUOUS
 62
     7
100
AcDbCircle
 10
485.588391
 20
277.4
 30
0.0
 40
10.0
100
AcDbArc
 50
225.0
 51
270.0
  0
CIRCLE
  5
2C6
100
AcDbEntity
  8
LAY-1
  6
CONTINUOUS
 62
     7
100
AcDbCircle
 10
525.6
 20
251.4
 30
0.0
 40
11.0
  0
CIRCLE
  5
2C7
100
AcDbEntity
  8
LAY-1
  6
CONTINUOUS
 62
     7
100
AcDbCircle
 10
525.6
 20
251.4
 30
0.0
 40
8.5
  0
ARC
  5
2C8
100
AcDbEntity
  8
LAY-1
  6
CONTINUOUS
 62
     7
100
AcDbCircle
 10
393.6
 20
292.4
 30
0.0
 40
1.0
100
AcDbArc
 50
0.0
 51
90.0
  0
LINE
  5
2C9
100
AcDbEntity
  8
LAY-1
  6
CONTINUOUS
 62
     7
100
AcDbLine
 10
393.6
 20
293.4
 30
0.0
 11
392.984738
 21
293.4
 31
0.0
  0
LINE
  5
2CA
100
AcDbEntity
  8
LAY-1
  6
CONTINUOUS
 62
     7
100
AcDbLine
 10
362.06259
 20
303.977268
 30
0.0
 11
370.030454
 21
302.782419
 31
0.0
  0
ARC
  5
2CB
100
AcDbEntity
  8
LAY-1
  6
CONTINUOUS
 62
     7
100
AcDbCircle
 10
362.754341
 20
320.052435
 30
0.0
 40
16.0
100
AcDbArc
 50
181.0
 51
261.471556
  0
LINE
  5
2CC
100
AcDbEntity
  8
LAY-1
  6
CONTINUOUS
 62
     7
100
AcDbLine
 10
360.381535
 20
304.229357
 30
0.0
 11
362.06259
 21
303.977268
 31
0.0
  0
LINE
  5
2CD
100
AcDbEntity
  8
LAY-1
  6
CONTINUOUS
 62
     7
100
AcDbLine
 10
346.1
 20
357.4
 30
0.0
 11
346.748274
 21
320.260381
 31
0.0
  0
LINE
  5
2CE
100
AcDbEntity
  8
LAY-1
  6
CONTINUOUS
 62
     7
100
AcDbLine
 10
345.1
 20
357.4
 30
0.0
 11
342.87963
 21
357.4
 31
0.0
  0
LINE
  5
2CF
100
AcDbEntity
  8
LAY-1
  6
CONTINUOUS
 62
     7
100
AcDbLine
 10
344.1
 20
367.456624
 30
0.0
 11
341.6
 21
368.9
 31
0.0
  0
LINE
  5
2D0
100
AcDbEntity
  8
LAY-1
  6
CONTINUOUS
 62
     7
100
AcDbLine
 10
344.1
 20
359.9
 30
0.0
 11
344.1
 21
367.456624
 31
0.0
  0
LINE
  5
2D1
100
AcDbEntity
  8
LAY-1
  6
CONTINUOUS
 62
     7
100
AcDbLine
 10
346.6
 20
358.4
 30
0.0
 11
346.6
 21
359.9
 31
0.0
  0
LINE
  5
2D2
100
AcDbEntity
  8
LAY-1
  6
CONTINUOUS
 62
     7
100
AcDbLine
 10
345.6
 20
357.4
 30
0.0
 11
345.6
 21
358.4
 31
0.0
  0
LINE
  5
2D3
100
AcDbEntity
  8
LAY-1
  6
CONTINUOUS
 62
     7
100
AcDbLine
 10
325.6
 20
368.9
 30
0.0
 11
325.632625
 21
368.9
 31
0.0
  0
LINE
  5
2D4
100
AcDbEntity
  8
LAY-1
  6
CONTINUOUS
 62
     7
100
AcDbLine
 10
341.6
 20
368.9
 30
0.0
 11
325.567375
 21
368.9
 31
0.0
  0
LINE
  5
2D5
100
AcDbEntity
  8
LAY-1
  6
CONTINUOUS
 62
     7
100
AcDbLine
 10
307.1
 20
367.456624
 30
0.0
 11
309.6
 21
368.9
 31
0.0
  0
LINE
  5
2D6
100
AcDbEntity
  8
LAY-1
  6
CONTINUOUS
 62
     7
100
AcDbLine
 10
307.1
 20
359.9
 30
0.0
 11
307.1
 21
367.456624
 31
0.0
  0
LINE
  5
2D7
100
AcDbEntity
  8
LAY-1
  6
CONTINUOUS
 62
     7
100
AcDbLine
 10
325.6
 20
368.9
 30
0.0
 11
325.567375
 21
368.9
 31
0.0
  0
LINE
  5
2D8
100
AcDbEntity
  8
LAY-1
  6
CONTINUOUS
 62
     7
100
AcDbLine
 10
309.6
 20
368.9
 30
0.0
 11
325.632625
 21
368.9
 31
0.0
  0
LINE
  5
2D9
100
AcDbEntity
  8
LAY-1
  6
CONTINUOUS
 62
     7
100
AcDbLine
 10
306.1
 20
357.4
 30
0.0
 11
308.32037
 21
357.4
 31
0.0
  0
LINE
  5
2DA
100
AcDbEntity
  8
LAY-1
  6
CONTINUOUS
 62
     7
100
AcDbLine
 10
304.6
 20
358.4
 30
0.0
 11
304.6
 21
359.9
 31
0.0
  0
LINE
  5
2DB
100
AcDbEntity
  8
LAY-1
  6
CONTINUOUS
 62
     7
100
AcDbLine
 10
305.6
 20
357.4
 30
0.0
 11
305.6
 21
358.4
 31
0.0
  0
ARC
  5
2DC
100
AcDbEntity
  8
LAY-1
  6
CONTINUOUS
 62
     7
100
AcDbCircle
 10
288.445659
 20
320.052435
 30
0.0
 40
16.0
100
AcDbArc
 50
278.528444
 51
359.0
  0
LINE
  5
2DD
100
AcDbEntity
  8
LAY-1
  6
CONTINUOUS
 62
     7
100
AcDbLine
 10
256.6
 20
292.4
 30
0.0
 11
256.6
 21
287.4
 31
0.0
  0
LINE
  5
2DE
100
AcDbEntity
  8
LAY-1
  6
CONTINUOUS
 62
     7
100
AcDbLine
 10
394.6
 20
287.4
 30
0.0
 11
394.6
 21
292.4
 31
0.0
  0
ARC
  5
2DF
100
AcDbEntity
  8
LAY-1
  6
CONTINUOUS
 62
     7
100
AcDbCircle
 10
257.6
 20
292.4
 30
0.0
 40
1.0
100
AcDbArc
 50
90.0
 51
180.0
  0
LINE
  5
2E0
100
AcDbEntity
  8
LAY-1
  6
CONTINUOUS
 62
     7
100
AcDbLine
 10
257.6
 20
293.4
 30
0.0
 11
257.715262
 21
293.4
 31
0.0
  0
ARC
  5
2E1
100
AcDbEntity
  8
LAY-1
  6
CONTINUOUS
 62
     7
100
AcDbCircle
 10
257.715262
 20
294.4
 30
0.0
 40
1.0
100
AcDbArc
 50
270.0
 51
358.0
  0
LINE
  5
2E2
100
AcDbEntity
  8
LAY-1
  6
CONTINUOUS
 62
     7
100
AcDbLine
 10
259.031377
 20
303.434899
 30
0.0
 11
258.714653
 21
294.365101
 31
0.0
  0
ARC
  5
2E3
100
AcDbEntity
  8
LAY-1
  6
CONTINUOUS
 62
     7
100
AcDbCircle
 10
260.030768
 20
303.4
 30
0.0
 40
1.0
100
AcDbArc
 50
90.0
 51
178.0
  0
LINE
  5
2E4
100
AcDbEntity
  8
LAY-1
  6
CONTINUOUS
 62
     7
100
AcDbLine
 10
257.6
 20
293.4
 30
0.0
 11
257.715262
 21
293.4
 31
0.0
  0
LINE
  5
2E5
100
AcDbEntity
  8
LAY-1
  6
CONTINUOUS
 62
     7
100
AcDbLine
 10
260.030768
 20
304.4
 30
0.0
 11
287.169232
 21
304.4
 31
0.0
  0
LINE
  5
2E6
100
AcDbEntity
  8
LAY-1
  6
CONTINUOUS
 62
     7
100
AcDbLine
 10
280.613618
 20
302.699053
 30
0.0
 11
278.689953
 21
302.410583
 31
0.0
  0
LINE
  5
2E7
100
AcDbEntity
  8
LAY-1
  6
CONTINUOUS
 62
     7
100
AcDbLine
 10
290.818465
 20
304.229357
 30
0.0
 11
289.13741
 21
303.977268
 31
0.0
  0
ARC
  5
2E8
100
AcDbEntity
  8
LAY-1
  6
CONTINUOUS
 62
     7
100
AcDbCircle
 10
287.169232
 20
303.4
 30
0.0
 40
1.0
100
AcDbArc
 50
43.192882
 51
90.0
  0
ARC
  5
2E9
100
AcDbEntity
  8
LAY-1
  6
CONTINUOUS
 62
     7
100
AcDbCircle
 10
288.262812
 20
304.426685
 30
0.0
 40
0.5
100
AcDbArc
 50
223.192882
 51
226.575505
  0
ARC
  5
2EA
100
AcDbEntity
  8
LAY-1
  6
CONTINUOUS
 62
     7
100
AcDbCircle
 10
288.321387
 20
304.360489
 30
0.0
 40
0.5
100
AcDbArc
 50
216.433521
 51
278.528444
  0
LINE
  5
2EB
100
AcDbEntity
  8
LAY-1
  6
CONTINUOUS
 62
     7
100
AcDbLine
 10
289.13741
 20
303.977268
 30
0.0
 11
288.395537
 21
303.866018
 31
0.0
  0
LINE
  5
2EC
100
AcDbEntity
  8
LAY-1
  6
CONTINUOUS
 62
     7
100
AcDbLine
 10
346.6
 20
359.9
 30
0.0
 11
325.6
 21
359.9
 31
0.0
  0
LINE
  5
2ED
100
AcDbEntity
  8
LAY-1
  6
CONTINUOUS
 62
     7
100
AcDbLine
 10
325.6
 20
358.4
 30
0.0
 11
346.6
 21
358.4
 31
0.0
  0
LINE
  5
2EE
100
AcDbEntity
  8
LAY-1
  6
CONTINUOUS
 62
     7
100
AcDbLine
 10
346.1
 20
357.4
 30
0.0
 11
325.6
 21
357.4
 31
0.0
  0
LINE
  5
2EF
100
AcDbEntity
  8
LAY-1
  6
CONTINUOUS
 62
     7
100
AcDbLine
 10
305.1
 20
357.4
 30
0.0
 11
325.6
 21
357.4
 31
0.0
  0
LINE
  5
2F0
100
AcDbEntity
  8
LAY-1
  6
CONTINUOUS
 62
     7
100
AcDbLine
 10
325.6
 20
358.4
 30
0.0
 11
304.6
 21
358.4
 31
0.0
  0
LINE
  5
2F1
100
AcDbEntity
  8
LAY-1
  6
CONTINUOUS
 62
     7
100
AcDbLine
 10
304.6
 20
359.9
 30
0.0
 11
325.6
 21
359.9
 31
0.0
  0
LINE
  5
2F2
100
AcDbEntity
  8
LAY-1
  6
CONTINUOUS
 62
     7
100
AcDbLine
 10
278.689953
 20
302.410583
 30
0.0
 11
289.13741
 21
303.977268
 31
0.0
  0
LINE
  5
2F3
100
AcDbEntity
  8
LAY-1
  6
CONTINUOUS
 62
     7
100
AcDbLine
 10
257.715262
 20
293.4
 30
0.0
 11
325.6
 21
293.4
 31
0.0
  0
LINE
  5
2F4
100
AcDbEntity
  8
LAY-1
  6
CONTINUOUS
 62
     7
100
AcDbLine
 10
392.984738
 20
293.4
 30
0.0
 11
325.6
 21
293.4
 31
0.0
  0
LINE
  5
2F5
100
AcDbEntity
  8
LAY-1
  6
CONTINUOUS
 62
     7
100
AcDbLine
 10
304.206948
 20
306.237075
 30
0.0
 11
325.6
 21
306.237075
 31
0.0
  0
LINE
  5
2F6
100
AcDbEntity
  8
LAY-1
  6
CONTINUOUS
 62
     7
100
AcDbLine
 10
305.1
 20
357.4
 30
0.0
 11
304.443222
 21
319.773196
 31
0.0
  0
LINE
  5
2F7
100
AcDbEntity
  8
LAY-1
  6
CONTINUOUS
 62
     7
100
AcDbLine
 10
305.85826
 20
294.729165
 30
0.0
 11
305.85826
 21
293.4
 31
0.0
  0
ARC
  5
2F8
100
AcDbEntity
  8
LAY-1
  6
CONTINUOUS
 62
     7
100
AcDbCircle
 10
301.10826
 20
289.1
 30
0.0
 40
8.0
100
AcDbArc
 50
60.0
 51
90.0
  0
ARC
  5
2F9
100
AcDbEntity
  8
LAY-1
  6
CONTINUOUS
 62
     7
100
AcDbCircle
 10
304.35826
 20
294.729165
 30
0.0
 40
1.5
100
AcDbArc
 50
0.0
 51
60.0
  0
LINE
  5
2FA
100
AcDbEntity
  8
LAY-1
  6
CONTINUOUS
 62
     7
100
AcDbLine
 10
296.35826
 20
294.729165
 30
0.0
 11
296.35826
 21
293.4
 31
0.0
  0
ARC
  5
2FB
100
AcDbEntity
  8
LAY-1
  6
CONTINUOUS
 62
     7
100
AcDbCircle
 10
301.10826
 20
289.1
 30
0.0
 40
8.0
100
AcDbArc
 50
90.0
 51
120.0
  0
ARC
  5
2FC
100
AcDbEntity
  8
LAY-1
  6
CONTINUOUS
 62
     7
100
AcDbCircle
 10
297.85826
 20
294.729165
 30
0.0
 40
1.5
100
AcDbArc
 50
120.0
 51
180.0
  0
LINE
  5
2FD
100
AcDbEntity
  8
LAY-1
  6
CONTINUOUS
 62
     7
100
AcDbLine
 10
271.22171
 20
294.729165
 30
0.0
 11
271.22171
 21
293.4
 31
0.0
  0
ARC
  5
2FE
100
AcDbEntity
  8
LAY-1
  6
CONTINUOUS
 62
     7
100
AcDbCircle
 10
266.47171
 20
289.1
 30
0.0
 40
8.0
100
AcDbArc
 50
60.0
 51
90.0
  0
ARC
  5
2FF
100
AcDbEntity
  8
LAY-1
  6
CONTINUOUS
 62
     7
100
AcDbCircle
 10
269.72171
 20
294.729165
 30
0.0
 40
1.5
100
AcDbArc
 50
0.0
 51
60.0
  0
LINE
  5
300
100
AcDbEntity
  8
LAY-1
  6
CONTINUOUS
 62
     7
100
AcDbLine
 10
261.72171
 20
294.729165
 30
0.0
 11
261.72171
 21
293.4
 31
0.0
  0
ARC
  5
301
100
AcDbEntity
  8
LAY-1
  6
CONTINUOUS
 62
     7
100
AcDbCircle
 10
266.47171
 20
289.1
 30
0.0
 40
8.0
100
AcDbArc
 50
90.0
 51
120.0
  0
ARC
  5
302
100
AcDbEntity
  8
LAY-1
  6
CONTINUOUS
 62
     7
100
AcDbCircle
 10
263.22171
 20
294.729165
 30
0.0
 40
1.5
100
AcDbArc
 50
120.0
 51
180.0
  0
ARC
  5
303
100
AcDbEntity
  8
LAY-1
  6
CONTINUOUS
 62
     7
100
AcDbCircle
 10
280.469558
 20
290.543274
 30
0.0
 40
12.0
100
AcDbArc
 50
98.528444
 51
151.294394
  0
LINE
  5
304
100
AcDbEntity
  8
LAY-1
  6
CONTINUOUS
 62
     7
100
AcDbLine
 10
345.34174
 20
294.729165
 30
0.0
 11
345.34174
 21
293.4
 31
0.0
  0
ARC
  5
305
100
AcDbEntity
  8
LAY-1
  6
CONTINUOUS
 62
     7
100
AcDbCircle
 10
350.09174
 20
289.1
 30
0.0
 40
8.0
100
AcDbArc
 50
90.0
 51
120.0
  0
ARC
  5
306
100
AcDbEntity
  8
LAY-1
  6
CONTINUOUS
 62
     7
100
AcDbCircle
 10
346.84174
 20
294.729165
 30
0.0
 40
1.5
100
AcDbArc
 50
120.0
 51
180.0
  0
LINE
  5
307
100
AcDbEntity
  8
LAY-1
  6
CONTINUOUS
 62
     7
100
AcDbLine
 10
354.84174
 20
294.729165
 30
0.0
 11
354.84174
 21
293.4
 31
0.0
  0
ARC
  5
308
100
AcDbEntity
  8
LAY-1
  6
CONTINUOUS
 62
     7
100
AcDbCircle
 10
350.09174
 20
289.1
 30
0.0
 40
8.0
100
AcDbArc
 50
60.0
 51
90.0
  0
ARC
  5
309
100
AcDbEntity
  8
LAY-1
  6
CONTINUOUS
 62
     7
100
AcDbCircle
 10
353.34174
 20
294.729165
 30
0.0
 40
1.5
100
AcDbArc
 50
0.0
 51
60.0
  0
LINE
  5
30A
100
AcDbEntity
  8
LAY-1
  6
CONTINUOUS
 62
     7
100
AcDbLine
 10
379.97829
 20
294.729165
 30
0.0
 11
379.97829
 21
293.4
 31
0.0
  0
ARC
  5
30B
100
AcDbEntity
  8
LAY-1
  6
CONTINUOUS
 62
     7
100
AcDbCircle
 10
384.72829
 20
289.1
 30
0.0
 40
8.0
100
AcDbArc
 50
90.0
 51
120.0
  0
ARC
  5
30C
100
AcDbEntity
  8
LAY-1
  6
CONTINUOUS
 62
     7
100
AcDbCircle
 10
381.47829
 20
294.729165
 30
0.0
 40
1.5
100
AcDbArc
 50
120.0
 51
180.0
  0
LINE
  5
30D
100
AcDbEntity
  8
LAY-1
  6
CONTINUOUS
 62
     7
100
AcDbLine
 10
389.47829
 20
294.729165
 30
0.0
 11
389.47829
 21
293.4
 31
0.0
  0
ARC
  5
30E
100
AcDbEntity
  8
LAY-1
  6
CONTINUOUS
 62
     7
100
AcDbCircle
 10
384.72829
 20
289.1
 30
0.0
 40
8.0
100
AcDbArc
 50
60.0
 51
90.0
  0
ARC
  5
30F
100
AcDbEntity
  8
LAY-1
  6
CONTINUOUS
 62
     7
100
AcDbCircle
 10
387.97829
 20
294.729165
 30
0.0
 40
1.5
100
AcDbArc
 50
0.0
 51
60.0
  0
ARC
  5
310
100
AcDbEntity
  8
LAY-1
  6
CONTINUOUS
 62
     7
100
AcDbCircle
 10
370.730442
 20
290.543274
 30
0.0
 40
12.0
100
AcDbArc
 50
28.705606
 51
81.471556
  0
LINE
  5
311
100
AcDbEntity
  8
LAY-1
  6
CONTINUOUS
 62
     7
100
AcDbLine
 10
334.837604
 20
368.9
 30
0.0
 11
334.837604
 21
359.9
 31
0.0
  0
LINE
  5
312
100
AcDbEntity
  8
LAY-1
  6
CONTINUOUS
 62
     7
100
AcDbLine
 10
316.362396
 20
368.9
 30
0.0
 11
316.362396
 21
359.9
 31
0.0
  0
LINE
  5
313
100
AcDbEntity
  8
LAY-1
  6
CONTINUOUS
 62
     7
100
AcDbLine
 10
346.993052
 20
306.237075
 30
0.0
 11
325.6
 21
306.237075
 31
0.0
  0
LINE
  5
314
100
AcDbEntity
  8
LAY-1
  6
CONTINUOUS
 62
     7
100
AcDbLine
 10
370.030454
 20
302.782419
 30
0.0
 11
372.510047
 21
302.410583
 31
0.0
  0
LINE
  5
315
100
AcDbEntity
  8
LAY-1
  6
CONTINUOUS
 62
     7
100
AcDbLine
 10
325.6
 20
287.4
 30
0.0
 11
394.6
 21
287.4
 31
0.0
  0
LINE
  5
316
100
AcDbEntity
  8
LAY-1
  6
CONTINUOUS
 62
     7
100
AcDbLine
 10
325.6
 20
287.4
 30
0.0
 11
256.6
 21
287.4
 31
0.0
  0
ARC
  5
317
100
AcDbEntity
  8
LAY-1
  6
CONTINUOUS
 62
     7
100
AcDbCircle
 10
285.588391
 20
277.4
 30
0.0
 40
10.0
100
AcDbArc
 50
225.0
 51
270.0
  0
ARC
  5
318
100
AcDbEntity
  8
LAY-1
  6
CONTINUOUS
 62
     7
100
AcDbCircle
 10
258.6
 20
283.4
 30
0.0
 40
2.0
100
AcDbArc
 50
180.0
 51
270.0
  0
LINE
  5
319
100
AcDbEntity
  8
LAY-1
  6
CONTINUOUS
 62
     7
100
AcDbLine
 10
325.6
 20
281.4
 30
0.0
 11
258.6
 21
281.4
 31
0.0
  0
LINE
  5
31A
100
AcDbEntity
  8
LAY-1
  6
CONTINUOUS
 62
     7
100
AcDbLine
 10
285.588391
 20
267.4
 30
0.0
 11
325.6
 21
267.4
 31
0.0
  0
LINE
  5
31B
100
AcDbEntity
  8
LAY-1
  6
CONTINUOUS
 62
     7
100
AcDbLine
 10
325.6
 20
216.4
 30
0.0
 11
367.1
 21
216.4
 31
0.0
  0
LINE
  5
31C
100
AcDbEntity
  8
LAY-1
  6
CONTINUOUS
 62
     7
100
AcDbLine
 10
325.6
 20
216.4
 30
0.0
 11
284.1
 21
216.4
 31
0.0
  0
LINE
  5
31D
100
AcDbEntity
  8
LAY-1
  6
CONTINUOUS
 62
     7
100
AcDbLine
 10
365.611609
 20
267.4
 30
0.0
 11
325.6
 21
267.4
 31
0.0
  0
ARC
  5
31E
100
AcDbEntity
  8
LAY-1
  6
CONTINUOUS
 62
     7
100
AcDbCircle
 10
365.611609
 20
277.4
 30
0.0
 40
10.0
100
AcDbArc
 50
270.0
 51
315.0
  0
LINE
  5
31F
100
AcDbEntity
  8
LAY-1
  6
CONTINUOUS
 62
     7
100
AcDbLine
 10
325.6
 20
281.4
 30
0.0
 11
392.6
 21
281.4
 31
0.0
  0
ARC
  5
320
100
AcDbEntity
  8
LAY-1
  6
CONTINUOUS
 62
     7
100
AcDbCircle
 10
392.6
 20
283.4
 30
0.0
 40
2.0
100
AcDbArc
 50
270.0
 51
0.0
  0
CIRCLE
  5
321
100
AcDbEntity
  8
LAY-1
  6
CONTINUOUS
 62
     7
100
AcDbCircle
 10
325.6
 20
101.0
 30
0.0
 40
41.5
  0
ARC
  5
322
100
AcDbEntity
  8
LAY-1
  6
CONTINUOUS
 62
     7
100
AcDbCircle
 10
274.357359
 20
121.0
 30
0.0
 40
3.0
100
AcDbArc
 50
45.0
 51
90.0
  0
LINE
  5
323
100
AcDbEntity
  8
LAY-1
  6
CONTINUOUS
 62
     7
100
AcDbLine
 10
276.47868
 20
123.12132
 30
0.0
 11
277.135534
 21
122.464466
 31
0.0
  0
ARC
  5
324
100
AcDbEntity
  8
LAY-1
  6
CONTINUOUS
 62
     7
100
AcDbCircle
 10
280.671068
 20
126.0
 30
0.0
 40
5.0
100
AcDbArc
 50
225.0
 51
270.0
  0
LINE
  5
325
100
AcDbEntity
  8
LAY-1
  6
CONTINUOUS
 62
     7
100
AcDbLine
 10
275.6
 20
122.834672
 30
0.0
 11
275.6
 21
101.0
 31
0.0
  0
LINE
  5
326
100
AcDbEntity
  8
LAY-1
  6
CONTINUOUS
 62
     7
100
AcDbLine
 10
278.6
 20
121.0
 30
0.0
 11
278.6
 21
101.0
 31
0.0
  0
ARC
  5
327
100
AcDbEntity
  8
LAY-1
  6
CONTINUOUS
 62
     7
100
AcDbCircle
 10
274.357359
 20
81.0
 30
0.0
 40
3.0
100
AcDbArc
 50
270.0
 51
315.0
  0
LINE
  5
328
100
AcDbEntity
  8
LAY-1
  6
CONTINUOUS
 62
     7
100
AcDbLine
 10
276.47868
 20
78.87868
 30
0.0
 11
277.135534
 21
79.535534
 31
0.0
  0
ARC
  5
329
100
AcDbEntity
  8
LAY-1
  6
CONTINUOUS
 62
     7
100
AcDbCircle
 10
280.671068
 20
76.0
 30
0.0
 40
5.0
100
AcDbArc
 50
90.0
 51
135.0
  0
LINE
  5
32A
100
AcDbEntity
  8
LAY-1
  6
CONTINUOUS
 62
     7
100
AcDbLine
 10
275.6
 20
79.165328
 30
0.0
 11
275.6
 21
101.0
 31
0.0
  0
LINE
  5
32B
100
AcDbEntity
  8
LAY-1
  6
CONTINUOUS
 62
     7
100
AcDbLine
 10
278.6
 20
81.0
 30
0.0
 11
278.6
 21
101.0
 31
0.0
  0
ARC
  5
32C
100
AcDbEntity
  8
LAY-1
  6
CONTINUOUS
 62
     7
100
AcDbCircle
 10
376.842641
 20
121.0
 30
0.0
 40
3.0
100
AcDbArc
 50
90.0
 51
135.0
  0
LINE
  5
32D
100
AcDbEntity
  8
LAY-1
  6
CONTINUOUS
 62
     7
100
AcDbLine
 10
374.72132
 20
123.12132
 30
0.0
 11
374.064466
 21
122.464466
 31
0.0
  0
LINE
  5
32E
100
AcDbEntity
  8
LAY-1
  6
CONTINUOUS
 62
     7
100
AcDbLine
 10
395.6
 20
110.526912
 30
0.0
 11
375.6
 21
110.526912
 31
0.0
  0
LINE
  5
32F
100
AcDbEntity
  8
LAY-1
  6
CONTINUOUS
 62
     7
100
AcDbLine
 10
375.6
 20
122.834672
 30
0.0
 11
375.6
 21
101.0
 31
0.0
  0
LINE
  5
330
100
AcDbEntity
  8
LAY-1
  6
CONTINUOUS
 62
     7
100
AcDbLine
 10
372.6
 20
121.0
 30
0.0
 11
372.6
 21
101.0
 31
0.0
  0
ARC
  5
331
100
AcDbEntity
  8
LAY-1
  6
CONTINUOUS
 62
     7
100
AcDbCircle
 10
376.842641
 20
81.0
 30
0.0
 40
3.0
100
AcDbArc
 50
225.0
 51
270.0
  0
LINE
  5
332
100
AcDbEntity
  8
LAY-1
  6
CONTINUOUS
 62
     7
100
AcDbLine
 10
374.72132
 20
78.87868
 30
0.0
 11
374.064466
 21
79.535534
 31
0.0
  0
ARC
  5
333
100
AcDbEntity
  8
LAY-1
  6
CONTINUOUS
 62
     7
100
AcDbCircle
 10
370.528932
 20
76.0
 30
0.0
 40
5.0
100
AcDbArc
 50
45.0
 51
90.0
  0
LINE
  5
334
100
AcDbEntity
  8
LAY-1
  6
CONTINUOUS
 62
     7
100
AcDbLine
 10
395.6
 20
91.473088
 30
0.0
 11
375.6
 21
91.473088
 31
0.0
  0
LINE
  5
335
100
AcDbEntity
  8
LAY-1
  6
CONTINUOUS
 62
     7
100
AcDbLine
 10
375.6
 20
79.165328
 30
0.0
 11
375.6
 21
101.0
 31
0.0
  0
LINE
  5
336
100
AcDbEntity
  8
LAY-1
  6
CONTINUOUS
 62
     7
100
AcDbLine
 10
372.6
 20
81.0
 30
0.0
 11
372.6
 21
101.0
 31
0.0
  0
ARC
  5
337
100
AcDbEntity
  8
LAY-1
  6
CONTINUOUS
 62
     7
100
AcDbCircle
 10
325.6
 20
101.0
 30
0.0
 40
56.689643
100
AcDbArc
 50
23.936119
 51
156.063881
  0
LINE
  5
338
100
AcDbEntity
  8
LAY-1
  6
CONTINUOUS
 62
     7
100
AcDbLine
 10
271.6
 20
101.0
 30
0.0
 11
266.6
 21
106.0
 31
0.0
  0
LINE
  5
339
100
AcDbEntity
  8
LAY-1
  6
CONTINUOUS
 62
     7
100
AcDbLine
 10
266.6
 20
106.0
 30
0.0
 11
266.6
 21
103.5
 31
0.0
  0
LINE
  5
33A
100
AcDbEntity
  8
LAY-1
  6
CONTINUOUS
 62
     7
100
AcDbLine
 10
271.6
 20
101.0
 30
0.0
 11
266.6
 21
96.0
 31
0.0
  0
LINE
  5
33B
100
AcDbEntity
  8
LAY-1
  6
CONTINUOUS
 62
     7
100
AcDbLine
 10
266.6
 20
96.0
 30
0.0
 11
266.6
 21
98.5
 31
0.0
  0
LINE
  5
33C
100
AcDbEntity
  8
LAY-1
  6
CONTINUOUS
 62
     7
100
AcDbLine
 10
255.6
 20
110.526912
 30
0.0
 11
275.6
 21
110.526912
 31
0.0
  0
LINE
  5
33D
100
AcDbEntity
  8
LAY-1
  6
CONTINUOUS
 62
     7
100
AcDbLine
 10
255.6
 20
91.473088
 30
0.0
 11
275.6
 21
91.473088
 31
0.0
  0
LINE
  5
33E
100
AcDbEntity
  8
LAY-1
  6
CONTINUOUS
 62
     7
100
AcDbLine
 10
259.6
 20
101.0
 30
0.0
 11
259.6
 21
103.5
 31
0.0
  0
LINE
  5
33F
100
AcDbEntity
  8
LAY-1
  6
CONTINUOUS
 62
     7
100
AcDbLine
 10
259.6
 20
101.0
 30
0.0
 11
259.6
 21
98.5
 31
0.0
  0
LINE
  5
340
100
AcDbEntity
  8
LAY-1
  6
CONTINUOUS
 62
     7
100
AcDbLine
 10
266.6
 20
103.5
 30
0.0
 11
259.6
 21
103.5
 31
0.0
  0
LINE
  5
341
100
AcDbEntity
  8
LAY-1
  6
CONTINUOUS
 62
     7
100
AcDbLine
 10
266.6
 20
98.5
 30
0.0
 11
259.6
 21
98.5
 31
0.0
  0
LINE
  5
342
100
AcDbEntity
  8
LAY-1
  6
EXLTYPE3
 62
     1
100
AcDbLine
 10
245.6
 20
101.0
 30
0.0
 11
405.6
 21
101.0
 31
0.0
  0
ARC
  5
343
100
AcDbEntity
  8
LAY-1
  6
CONTINUOUS
 62
     7
100
AcDbCircle
 10
390.728284
 20
125.5
 30
0.0
 40
1.5
100
AcDbArc
 50
180.07888
 51
270.0
  0
ARC
  5
344
100
AcDbEntity
  8
LAY-1
  6
CONTINUOUS
 62
     7
100
AcDbCircle
 10
384.72829
 20
125.49174
 30
0.0
 40
4.5
100
AcDbArc
 50
0.07888
 51
179.92112
  0
ARC
  5
345
100
AcDbEntity
  8
LAY-1
  6
CONTINUOUS
 62
     7
100
AcDbCircle
 10
378.728296
 20
125.5
 30
0.0
 40
1.5
100
AcDbArc
 50
270.0
 51
359.92112
  0
ARC
  5
346
100
AcDbEntity
  8
LAY-1
  6
CONTINUOUS
 62
     7
100
AcDbCircle
 10
390.728284
 20
76.5
 30
0.0
 40
1.5
100
AcDbArc
 50
90.0
 51
179.92112
  0
ARC
  5
347
100
AcDbEntity
  8
LAY-1
  6
CONTINUOUS
 62
     7
100
AcDbCircle
 10
384.72829
 20
76.50826
 30
0.0
 40
4.5
100
AcDbArc
 50
180.07888
 51
359.92112
  0
ARC
  5
348
100
AcDbEntity
  8
LAY-1
  6
CONTINUOUS
 62
     7
100
AcDbCircle
 10
378.728296
 20
76.5
 30
0.0
 40
1.5
100
AcDbArc
 50
0.07888
 51
90.0
  0
ARC
  5
349
100
AcDbEntity
  8
LAY-1
  6
CONTINUOUS
 62
     7
100
AcDbCircle
 10
260.471716
 20
125.5
 30
0.0
 40
1.5
100
AcDbArc
 50
270.0
 51
359.92112
  0
ARC
  5
34A
100
AcDbEntity
  8
LAY-1
  6
CONTINUOUS
 62
     7
100
AcDbCircle
 10
266.47171
 20
125.49174
 30
0.0
 40
4.5
100
AcDbArc
 50
0.07888
 51
179.92112
  0
ARC
  5
34B
100
AcDbEntity
  8
LAY-1
  6
CONTINUOUS
 62
     7
100
AcDbCircle
 10
272.471704
 20
125.5
 30
0.0
 40
1.5
100
AcDbArc
 50
180.07888
 51
270.0
  0
ARC
  5
34C
100
AcDbEntity
  8
LAY-1
  6
CONTINUOUS
 62
     7
100
AcDbCircle
 10
260.471716
 20
76.5
 30
0.0
 40
1.5
100
AcDbArc
 50
0.07888
 51
90.0
  0
ARC
  5
34D
100
AcDbEntity
  8
LAY-1
  6
CONTINUOUS
 62
     7
100
AcDbCircle
 10
266.47171
 20
76.50826
 30
0.0
 40
4.5
100
AcDbArc
 50
180.07888
 51
359.92112
  0
ARC
  5
34E
100
AcDbEntity
  8
LAY-1
  6
CONTINUOUS
 62
     7
100
AcDbCircle
 10
272.471704
 20
76.5
 30
0.0
 40
1.5
100
AcDbArc
 50
90.0
 51
179.92112
  0
LINE
  5
34F
100
AcDbEntity
  8
LAY-1
  6
EXLTYPE3
 62
     1
100
AcDbLine
 10
325.6
 20
161.004672
 30
0.0
 11
325.6
 21
37.604672
 31
0.0
  0
LINE
  5
350
100
AcDbEntity
  8
LAY-1
  6
EXLTYPE3
 62
     1
100
AcDbLine
 10
325.6
 20
161.004672
 30
0.0
 11
325.6
 21
37.604672
 31
0.0
  0
LINE
  5
351
100
AcDbEntity
  8
LAY-1
  6
CONTINUOUS
 62
     7
100
AcDbLine
 10
395.6
 20
122.0
 30
0.0
 11
395.6
 21
101.0
 31
0.0
  0
LINE
  5
352
100
AcDbEntity
  8
LAY-1
  6
CONTINUOUS
 62
     7
100
AcDbLine
 10
393.6
 20
124.0
 30
0.0
 11
376.842641
 21
124.0
 31
0.0
  0
LINE
  5
353
100
AcDbEntity
  8
LAY-1
  6
CONTINUOUS
 62
     7
100
AcDbLine
 10
395.6
 20
80.0
 30
0.0
 11
395.6
 21
101.0
 31
0.0
  0
LINE
  5
354
100
AcDbEntity
  8
LAY-1
  6
CONTINUOUS
 62
     7
100
AcDbLine
 10
393.6
 20
78.0
 30
0.0
 11
376.842641
 21
78.0
 31
0.0
  0
LINE
  5
355
100
AcDbEntity
  8
LAY-1
  6
CONTINUOUS
 62
     7
100
AcDbLine
 10
257.6
 20
78.0
 30
0.0
 11
274.357359
 21
78.0
 31
0.0
  0
LINE
  5
356
100
AcDbEntity
  8
LAY-1
  6
CONTINUOUS
 62
     7
100
AcDbLine
 10
255.6
 20
80.0
 30
0.0
 11
255.6
 21
101.0
 31
0.0
  0
LINE
  5
357
100
AcDbEntity
  8
LAY-1
  6
CONTINUOUS
 62
     7
100
AcDbLine
 10
255.6
 20
122.0
 30
0.0
 11
255.6
 21
101.0
 31
0.0
  0
LINE
  5
358
100
AcDbEntity
  8
LAY-1
  6
CONTINUOUS
 62
     7
100
AcDbLine
 10
257.6
 20
124.0
 30
0.0
 11
274.357359
 21
124.0
 31
0.0
  0
ARC
  5
359
100
AcDbEntity
  8
LAY-1
  6
CONTINUOUS
 62
     7
100
AcDbCircle
 10
393.6
 20
80.0
 30
0.0
 40
2.0
100
AcDbArc
 50
270.0
 51
0.0
  0
ARC
  5
35A
100
AcDbEntity
  8
LAY-1
  6
CONTINUOUS
 62
     7
100
AcDbCircle
 10
393.6
 20
122.0
 30
0.0
 40
2.0
100
AcDbArc
 50
0.0
 51
90.0
  0
ARC
  5
35B
100
AcDbEntity
  8
LAY-1
  6
CONTINUOUS
 62
     7
100
AcDbCircle
 10
257.6
 20
122.0
 30
0.0
 40
2.0
100
AcDbArc
 50
90.0
 51
180.0
  0
ARC
  5
35C
100
AcDbEntity
  8
LAY-1
  6
CONTINUOUS
 62
     7
100
AcDbCircle
 10
257.6
 20
80.0
 30
0.0
 40
2.0
100
AcDbArc
 50
180.0
 51
270.0
  0
ARC
  5
35D
100
AcDbEntity
  8
LAY-1
  6
CONTINUOUS
 62
     7
100
AcDbCircle
 10
370.528932
 20
126.0
 30
0.0
 40
5.0
100
AcDbArc
 50
270.0
 51
315.0
  0
LINE
  5
35E
100
AcDbEntity
  8
LAY-1
  6
CONTINUOUS
 62
     7
100
AcDbLine
 10
370.528932
 20
121.0
 30
0.0
 11
364.80778
 21
121.0
 31
0.0
  0
ARC
  5
35F
100
AcDbEntity
  8
LAY-1
  6
CONTINUOUS
 62
     7
100
AcDbCircle
 10
364.80778
 20
126.0
 30
0.0
 40
5.0
100
AcDbArc
 50
212.522748
 51
270.0
  0
LINE
  5
360
100
AcDbEntity
  8
LAY-1
  6
CONTINUOUS
 62
     7
100
AcDbLine
 10
370.528932
 20
81.0
 30
0.0
 11
364.80778
 21
81.0
 31
0.0
  0
ARC
  5
361
100
AcDbEntity
  8
LAY-1
  6
CONTINUOUS
 62
     7
100
AcDbCircle
 10
364.80778
 20
76.0
 30
0.0
 40
5.0
100
AcDbArc
 50
90.0
 51
147.477252
  0
LINE
  5
362
100
AcDbEntity
  8
LAY-1
  6
CONTINUOUS
 62
     7
100
AcDbLine
 10
280.671068
 20
121.0
 30
0.0
 11
286.39222
 21
121.0
 31
0.0
  0
LINE
  5
363
100
AcDbEntity
  8
LAY-1
  6
CONTINUOUS
 62
     7
100
AcDbLine
 10
280.671068
 20
81.0
 30
0.0
 11
286.39222
 21
81.0
 31
0.0
  0
ARC
  5
364
100
AcDbEntity
  8
LAY-1
  6
CONTINUOUS
 62
     7
100
AcDbCircle
 10
286.39222
 20
76.0
 30
0.0
 40
5.0
100
AcDbArc
 50
32.522748
 51
90.0
  0
ARC
  5
365
100
AcDbEntity
  8
LAY-1
  6
CONTINUOUS
 62
     7
100
AcDbCircle
 10
286.39222
 20
126.0
 30
0.0
 40
5.0
100
AcDbArc
 50
270.0
 51
327.477252
  0
LINE
  5
366
100
AcDbEntity
  8
LAY-1
  6
EXLTYPE3
 62
     1
100
AcDbLine
 10
310.6
 20
46.0
 30
0.0
 11
340.6
 21
46.0
 31
0.0
  0
CIRCLE
  5
367
100
AcDbEntity
  8
LAY-1
  6
CONTINUOUS
 62
     7
100
AcDbCircle
 10
325.6
 20
46.0
 30
0.0
 40
5.553148
  0
CIRCLE
  5
368
100
AcDbEntity
  8
LAY-1
  6
CONTINUOUS
 62
     7
100
AcDbCircle
 10
325.6
 20
46.0
 30
0.0
 40
7.1
  0
CIRCLE
  5
369
100
AcDbEntity
  8
LAY-1
  6
CONTINUOUS
 62
     7
100
AcDbCircle
 10
325.6
 20
46.0
 30
0.0
 40
2.0
  0
ARC
  5
36A
100
AcDbEntity
  8
LAY-1
  6
CONTINUOUS
 62
     7
100
AcDbCircle
 10
325.6
 20
101.0
 30
0.0
 40
56.689643
100
AcDbArc
 50
280.126639
 51
336.063881
  0
ARC
  5
36B
100
AcDbEntity
  8
LAY-1
  6
CONTINUOUS
 62
     7
100
AcDbCircle
 10
325.6
 20
101.0
 30
0.0
 40
56.689643
100
AcDbArc
 50
203.936119
 51
259.873361
  0
ARC
  5
36C
100
AcDbEntity
  8
LAY-1
  6
CONTINUOUS
 62
     7
100
AcDbCircle
 10
329.1
 20
57.47824
 30
0.0
 40
2.0
100
AcDbArc
 50
180.0
 51
253.042237
  0
LINE
  5
36D
100
AcDbEntity
  8
LAY-1
  6
CONTINUOUS
 62
     7
100
AcDbLine
 10
327.1
 20
57.641033
 30
0.0
 11
327.1
 21
57.47824
 31
0.0
  0
ARC
  5
36E
100
AcDbEntity
  8
LAY-1
  6
CONTINUOUS
 62
     7
100
AcDbCircle
 10
329.1
 20
57.641033
 30
0.0
 40
2.0
100
AcDbArc
 50
94.614994
 51
180.0
  0
ARC
  5
36F
100
AcDbEntity
  8
LAY-1
  6
CONTINUOUS
 62
     7
100
AcDbCircle
 10
322.1
 20
57.641033
 30
0.0
 40
2.0
100
AcDbArc
 50
0.0
 51
85.385006
  0
LINE
  5
370
100
AcDbEntity
  8
LAY-1
  6
CONTINUOUS
 62
     7
100
AcDbLine
 10
324.1
 20
57.641033
 30
0.0
 11
324.1
 21
57.47824
 31
0.0
  0
ARC
  5
371
100
AcDbEntity
  8
LAY-1
  6
CONTINUOUS
 62
     7
100
AcDbCircle
 10
322.1
 20
57.47824
 30
0.0
 40
2.0
100
AcDbArc
 50
286.957763
 51
0.0
  0
ARC
  5
372
100
AcDbEntity
  8
LAY-1
  6
CONTINUOUS
 62
     7
100
AcDbCircle
 10
325.6
 20
101.0
 30
0.0
 40
69.0
100
AcDbArc
 50
19.471221
 51
90.0
  0
ARC
  5
373
100
AcDbEntity
  8
LAY-1
  6
CONTINUOUS
 62
     7
100
AcDbCircle
 10
325.6
 20
101.0
 30
0.0
 40
69.0
100
AcDbArc
 50
90.0
 51
160.528779
  0
ARC
  5
374
100
AcDbEntity
  8
LAY-1
  6
CONTINUOUS
 62
     7
100
AcDbCircle
 10
325.6
 20
101.0
 30
0.0
 40
69.0
100
AcDbArc
 50
199.471221
 51
270.0
  0
ARC
  5
375
100
AcDbEntity
  8
LAY-1
  6
CONTINUOUS
 62
     7
100
AcDbCircle
 10
325.6
 20
46.0
 30
0.0
 40
10.0
100
AcDbArc
 50
270.0
 51
90.0
  0
ARC
  5
376
100
AcDbEntity
  8
LAY-1
  6
CONTINUOUS
 62
     7
100
AcDbCircle
 10
325.6
 20
46.0
 30
0.0
 40
10.0
100
AcDbArc
 50
90.0
 51
270.0
  0
ARC
  5
377
100
AcDbEntity
  8
LAY-1
  6
CONTINUOUS
 62
     7
100
AcDbCircle
 10
325.6
 20
101.0
 30
0.0
 40
69.0
100
AcDbArc
 50
270.0
 51
340.528779
  0
LINE
  5
378
100
AcDbEntity
  8
LAY-1
  6
EXLTYPE3
 62
     1
100
AcDbLine
 10
325.6
 20
184.2
 30
0.0
 11
325.6
 21
14.2
 31
0.0
  0
CIRCLE
  5
379
100
AcDbEntity
  8
LAY-1
  6
CONTINUOUS
 62
     7
100
AcDbCircle
 10
299.790602
 20
126.809398
 30
0.0
 40
4.75
  0
LINE
  5
37A
100
AcDbEntity
  8
LAY-1
  6
CONTINUOUS
 62
     7
100
AcDbLine
 10
297.340602
 20
127.381064
 30
0.0
 11
298.402269
 21
127.381064
 31
0.0
  0
LINE
  5
37B
100
AcDbEntity
  8
LAY-1
  6
CONTINUOUS
 62
     7
100
AcDbLine
 10
299.218936
 20
129.259398
 30
0.0
 11
299.218936
 21
128.197731
 31
0.0
  0
ARC
  5
37C
100
AcDbEntity
  8
LAY-1
  6
CONTINUOUS
 62
     7
100
AcDbCircle
 10
298.402269
 20
128.197731
 30
0.0
 40
0.816667
100
AcDbArc
 50
270.0
 51
0.0
  0
LINE
  5
37D
100
AcDbEntity
  8
LAY-1
  6
CONTINUOUS
 62
     7
100
AcDbLine
 10
299.790602
 20
129.259398
 30
0.0
 11
299.218936
 21
129.259398
 31
0.0
  0
LINE
  5
37E
100
AcDbEntity
  8
LAY-1
  6
CONTINUOUS
 62
     7
100
AcDbLine
 10
297.340602
 20
126.809398
 30
0.0
 11
297.340602
 21
127.381064
 31
0.0
  0
LINE
  5
37F
100
AcDbEntity
  8
LAY-1
  6
CONTINUOUS
 62
     7
100
AcDbLine
 10
297.340602
 20
126.237731
 30
0.0
 11
298.402269
 21
126.237731
 31
0.0
  0
LINE
  5
380
100
AcDbEntity
  8
LAY-1
  6
CONTINUOUS
 62
     7
100
AcDbLine
 10
299.218936
 20
124.359398
 30
0.0
 11
299.218936
 21
125.421064
 31
0.0
  0
ARC
  5
381
100
AcDbEntity
  8
LAY-1
  6
CONTINUOUS
 62
     7
100
AcDbCircle
 10
298.402269
 20
125.421064
 30
0.0
 40
0.816667
100
AcDbArc
 50
0.0
 51
90.0
  0
LINE
  5
382
100
AcDbEntity
  8
LAY-1
  6
CONTINUOUS
 62
     7
100
AcDbLine
 10
299.790602
 20
124.359398
 30
0.0
 11
299.218936
 21
124.359398
 31
0.0
  0
LINE
  5
383
100
AcDbEntity
  8
LAY-1
  6
CONTINUOUS
 62
     7
100
AcDbLine
 10
297.340602
 20
126.809398
 30
0.0
 11
297.340602
 21
126.237731
 31
0.0
  0
LINE
  5
384
100
AcDbEntity
  8
LAY-1
  6
CONTINUOUS
 62
     7
100
AcDbLine
 10
302.240602
 20
127.381064
 30
0.0
 11
301.178936
 21
127.381064
 31
0.0
  0
LINE
  5
385
100
AcDbEntity
  8
LAY-1
  6
CONTINUOUS
 62
     7
100
AcDbLine
 10
300.362269
 20
129.259398
 30
0.0
 11
300.362269
 21
128.197731
 31
0.0
  0
ARC
  5
386
100
AcDbEntity
  8
LAY-1
  6
CONTINUOUS
 62
     7
100
AcDbCircle
 10
301.178936
 20
128.197731
 30
0.0
 40
0.816667
100
AcDbArc
 50
180.0
 51
270.0
  0
LINE
  5
387
100
AcDbEntity
  8
LAY-1
  6
CONTINUOUS
 62
     7
100
AcDbLine
 10
299.790602
 20
129.259398
 30
0.0
 11
300.362269
 21
129.259398
 31
0.0
  0
LINE
  5
388
100
AcDbEntity
  8
LAY-1
  6
CONTINUOUS
 62
     7
100
AcDbLine
 10
302.240602
 20
126.809398
 30
0.0
 11
302.240602
 21
127.381064
 31
0.0
  0
LINE
  5
389
100
AcDbEntity
  8
LAY-1
  6
CONTINUOUS
 62
     7
100
AcDbLine
 10
302.240602
 20
126.237731
 30
0.0
 11
301.178936
 21
126.237731
 31
0.0
  0
LINE
  5
38A
100
AcDbEntity
  8
LAY-1
  6
CONTINUOUS
 62
     7
100
AcDbLine
 10
300.362269
 20
124.359398
 30
0.0
 11
300.362269
 21
125.421064
 31
0.0
  0
ARC
  5
38B
100
AcDbEntity
  8
LAY-1
  6
CONTINUOUS
 62
     7
100
AcDbCircle
 10
301.178936
 20
125.421064
 30
0.0
 40
0.816667
100
AcDbArc
 50
90.0
 51
180.0
  0
LINE
  5
38C
100
AcDbEntity
  8
LAY-1
  6
CONTINUOUS
 62
     7
100
AcDbLine
 10
299.790602
 20
124.359398
 30
0.0
 11
300.362269
 21
124.359398
 31
0.0
  0
LINE
  5
38D
100
AcDbEntity
  8
LAY-1
  6
CONTINUOUS
 62
     7
100
AcDbLine
 10
302.240602
 20
126.809398
 30
0.0
 11
302.240602
 21
126.237731
 31
0.0
  0
CIRCLE
  5
38E
100
AcDbEntity
  8
LAY-1
  6
CONTINUOUS
 62
     7
100
AcDbCircle
 10
351.409398
 20
75.190602
 30
0.0
 40
4.75
  0
LINE
  5
38F
100
AcDbEntity
  8
LAY-1
  6
CONTINUOUS
 62
     7
100
AcDbLine
 10
348.959398
 20
75.762269
 30
0.0
 11
350.021064
 21
75.762269
 31
0.0
  0
LINE
  5
390
100
AcDbEntity
  8
LAY-1
  6
CONTINUOUS
 62
     7
100
AcDbLine
 10
350.837731
 20
77.640602
 30
0.0
 11
350.837731
 21
76.578936
 31
0.0
  0
ARC
  5
391
100
AcDbEntity
  8
LAY-1
  6
CONTINUOUS
 62
     7
100
AcDbCircle
 10
350.021064
 20
76.578936
 30
0.0
 40
0.816667
100
AcDbArc
 50
270.0
 51
0.0
  0
LINE
  5
392
100
AcDbEntity
  8
LAY-1
  6
CONTINUOUS
 62
     7
100
AcDbLine
 10
351.409398
 20
77.640602
 30
0.0
 11
350.837731
 21
77.640602
 31
0.0
  0
LINE
  5
393
100
AcDbEntity
  8
LAY-1
  6
CONTINUOUS
 62
     7
100
AcDbLine
 10
348.959398
 20
75.190602
 30
0.0
 11
348.959398
 21
75.762269
 31
0.0
  0
LINE
  5
394
100
AcDbEntity
  8
LAY-1
  6
CONTINUOUS
 62
     7
100
AcDbLine
 10
348.959398
 20
74.618936
 30
0.0
 11
350.021064
 21
74.618936
 31
0.0
  0
LINE
  5
395
100
AcDbEntity
  8
LAY-1
  6
CONTINUOUS
 62
     7
100
AcDbLine
 10
350.837731
 20
72.740602
 30
0.0
 11
350.837731
 21
73.802269
 31
0.0
  0
ARC
  5
396
100
AcDbEntity
  8
LAY-1
  6
CONTINUOUS
 62
     7
100
AcDbCircle
 10
350.021064
 20
73.802269
 30
0.0
 40
0.816667
100
AcDbArc
 50
0.0
 51
90.0
  0
LINE
  5
397
100
AcDbEntity
  8
LAY-1
  6
CONTINUOUS
 62
     7
100
AcDbLine
 10
351.409398
 20
72.740602
 30
0.0
 11
350.837731
 21
72.740602
 31
0.0
  0
LINE
  5
398
100
AcDbEntity
  8
LAY-1
  6
CONTINUOUS
 62
     7
100
AcDbLine
 10
348.959398
 20
75.190602
 30
0.0
 11
348.959398
 21
74.618936
 31
0.0
  0
LINE
  5
399
100
AcDbEntity
  8
LAY-1
  6
CONTINUOUS
 62
     7
100
AcDbLine
 10
353.859398
 20
75.762269
 30
0.0
 11
352.797731
 21
75.762269
 31
0.0
  0
LINE
  5
39A
100
AcDbEntity
  8
LAY-1
  6
CONTINUOUS
 62
     7
100
AcDbLine
 10
351.981064
 20
77.640602
 30
0.0
 11
351.981064
 21
76.578936
 31
0.0
  0
ARC
  5
39B
100
AcDbEntity
  8
LAY-1
  6
CONTINUOUS
 62
     7
100
AcDbCircle
 10
352.797731
 20
76.578936
 30
0.0
 40
0.816667
100
AcDbArc
 50
180.0
 51
270.0
  0
LINE
  5
39C
100
AcDbEntity
  8
LAY-1
  6
CONTINUOUS
 62
     7
100
AcDbLine
 10
351.409398
 20
77.640602
 30
0.0
 11
351.981064
 21
77.640602
 31
0.0
  0
LINE
  5
39D
100
AcDbEntity
  8
LAY-1
  6
CONTINUOUS
 62
     7
100
AcDbLine
 10
353.859398
 20
75.190602
 30
0.0
 11
353.859398
 21
75.762269
 31
0.0
  0
LINE
  5
39E
100
AcDbEntity
  8
LAY-1
  6
CONTINUOUS
 62
     7
100
AcDbLine
 10
353.859398
 20
74.618936
 30
0.0
 11
352.797731
 21
74.618936
 31
0.0
  0
LINE
  5
39F
100
AcDbEntity
  8
LAY-1
  6
CONTINUOUS
 62
     7
100
AcDbLine
 10
351.981064
 20
72.740602
 30
0.0
 11
351.981064
 21
73.802269
 31
0.0
  0
ARC
  5
3A0
100
AcDbEntity
  8
LAY-1
  6
CONTINUOUS
 62
     7
100
AcDbCircle
 10
352.797731
 20
73.802269
 30
0.0
 40
0.816667
100
AcDbArc
 50
90.0
 51
180.0
  0
LINE
  5
3A1
100
AcDbEntity
  8
LAY-1
  6
CONTINUOUS
 62
     7
100
AcDbLine
 10
351.409398
 20
72.740602
 30
0.0
 11
351.981064
 21
72.740602
 31
0.0
  0
LINE
  5
3A2
100
AcDbEntity
  8
LAY-1
  6
CONTINUOUS
 62
     7
100
AcDbLine
 10
353.859398
 20
75.190602
 30
0.0
 11
353.859398
 21
74.618936
 31
0.0
  0
CIRCLE
  5
3A3
100
AcDbEntity
  8
LAY-1
  6
CONTINUOUS
 62
     7
100
AcDbCircle
 10
299.790602
 20
75.190602
 30
0.0
 40
4.75
  0
LINE
  5
3A4
100
AcDbEntity
  8
LAY-1
  6
CONTINUOUS
 62
     7
100
AcDbLine
 10
297.340602
 20
74.618936
 30
0.0
 11
298.402269
 21
74.618936
 31
0.0
  0
LINE
  5
3A5
100
AcDbEntity
  8
LAY-1
  6
CONTINUOUS
 62
     7
100
AcDbLine
 10
299.218936
 20
72.740602
 30
0.0
 11
299.218936
 21
73.802269
 31
0.0
  0
ARC
  5
3A6
100
AcDbEntity
  8
LAY-1
  6
CONTINUOUS
 62
     7
100
AcDbCircle
 10
298.402269
 20
73.802269
 30
0.0
 40
0.816667
100
AcDbArc
 50
0.0
 51
90.0
  0
LINE
  5
3A7
100
AcDbEntity
  8
LAY-1
  6
CONTINUOUS
 62
     7
100
AcDbLine
 10
299.790602
 20
72.740602
 30
0.0
 11
299.218936
 21
72.740602
 31
0.0
  0
LINE
  5
3A8
100
AcDbEntity
  8
LAY-1
  6
CONTINUOUS
 62
     7
100
AcDbLine
 10
297.340602
 20
75.190602
 30
0.0
 11
297.340602
 21
74.618936
 31
0.0
  0
LINE
  5
3A9
100
AcDbEntity
  8
LAY-1
  6
CONTINUOUS
 62
     7
100
AcDbLine
 10
297.340602
 20
75.762269
 30
0.0
 11
298.402269
 21
75.762269
 31
0.0
  0
LINE
  5
3AA
100
AcDbEntity
  8
LAY-1
  6
CONTINUOUS
 62
     7
100
AcDbLine
 10
299.218936
 20
77.640602
 30
0.0
 11
299.218936
 21
76.578936
 31
0.0
  0
ARC
  5
3AB
100
AcDbEntity
  8
LAY-1
  6
CONTINUOUS
 62
     7
100
AcDbCircle
 10
298.402269
 20
76.578936
 30
0.0
 40
0.816667
100
AcDbArc
 50
270.0
 51
0.0
  0
LINE
  5
3AC
100
AcDbEntity
  8
LAY-1
  6
CONTINUOUS
 62
     7
100
AcDbLine
 10
299.790602
 20
77.640602
 30
0.0
 11
299.218936
 21
77.640602
 31
0.0
  0
LINE
  5
3AD
100
AcDbEntity
  8
LAY-1
  6
CONTINUOUS
 62
     7
100
AcDbLine
 10
297.340602
 20
75.190602
 30
0.0
 11
297.340602
 21
75.762269
 31
0.0
  0
LINE
  5
3AE
100
AcDbEntity
  8
LAY-1
  6
CONTINUOUS
 62
     7
100
AcDbLine
 10
302.240602
 20
74.618936
 30
0.0
 11
301.178936
 21
74.618936
 31
0.0
  0
LINE
  5
3AF
100
AcDbEntity
  8
LAY-1
  6
CONTINUOUS
 62
     7
100
AcDbLine
 10
300.362269
 20
72.740602
 30
0.0
 11
300.362269
 21
73.802269
 31
0.0
  0
ARC
  5
3B0
100
AcDbEntity
  8
LAY-1
  6
CONTINUOUS
 62
     7
100
AcDbCircle
 10
301.178936
 20
73.802269
 30
0.0
 40
0.816667
100
AcDbArc
 50
90.0
 51
180.0
  0
LINE
  5
3B1
100
AcDbEntity
  8
LAY-1
  6
CONTINUOUS
 62
     7
100
AcDbLine
 10
299.790602
 20
72.740602
 30
0.0
 11
300.362269
 21
72.740602
 31
0.0
  0
LINE
  5
3B2
100
AcDbEntity
  8
LAY-1
  6
CONTINUOUS
 62
     7
100
AcDbLine
 10
302.240602
 20
75.190602
 30
0.0
 11
302.240602
 21
74.618936
 31
0.0
  0
LINE
  5
3B3
100
AcDbEntity
  8
LAY-1
  6
CONTINUOUS
 62
     7
100
AcDbLine
 10
302.240602
 20
75.762269
 30
0.0
 11
301.178936
 21
75.762269
 31
0.0
  0
LINE
  5
3B4
100
AcDbEntity
  8
LAY-1
  6
CONTINUOUS
 62
     7
100
AcDbLine
 10
300.362269
 20
77.640602
 30
0.0
 11
300.362269
 21
76.578936
 31
0.0
  0
ARC
  5
3B5
100
AcDbEntity
  8
LAY-1
  6
CONTINUOUS
 62
     7
100
AcDbCircle
 10
301.178936
 20
76.578936
 30
0.0
 40
0.816667
100
AcDbArc
 50
180.0
 51
270.0
  0
LINE
  5
3B6
100
AcDbEntity
  8
LAY-1
  6
CONTINUOUS
 62
     7
100
AcDbLine
 10
299.790602
 20
77.640602
 30
0.0
 11
300.362269
 21
77.640602
 31
0.0
  0
LINE
  5
3B7
100
AcDbEntity
  8
LAY-1
  6
CONTINUOUS
 62
     7
100
AcDbLine
 10
302.240602
 20
75.190602
 30
0.0
 11
302.240602
 21
75.762269
 31
0.0
  0
CIRCLE
  5
3B8
100
AcDbEntity
  8
LAY-1
  6
CONTINUOUS
 62
     7
100
AcDbCircle
 10
351.409398
 20
126.809398
 30
0.0
 40
4.75
  0
LINE
  5
3B9
100
AcDbEntity
  8
LAY-1
  6
CONTINUOUS
 62
     7
100
AcDbLine
 10
348.959398
 20
126.237731
 30
0.0
 11
350.021064
 21
126.237731
 31
0.0
  0
LINE
  5
3BA
100
AcDbEntity
  8
LAY-1
  6
CONTINUOUS
 62
     7
100
AcDbLine
 10
350.837731
 20
124.359398
 30
0.0
 11
350.837731
 21
125.421064
 31
0.0
  0
ARC
  5
3BB
100
AcDbEntity
  8
LAY-1
  6
CONTINUOUS
 62
     7
100
AcDbCircle
 10
350.021064
 20
125.421064
 30
0.0
 40
0.816667
100
AcDbArc
 50
0.0
 51
90.0
  0
LINE
  5
3BC
100
AcDbEntity
  8
LAY-1
  6
CONTINUOUS
 62
     7
100
AcDbLine
 10
351.409398
 20
124.359398
 30
0.0
 11
350.837731
 21
124.359398
 31
0.0
  0
LINE
  5
3BD
100
AcDbEntity
  8
LAY-1
  6
CONTINUOUS
 62
     7
100
AcDbLine
 10
348.959398
 20
126.809398
 30
0.0
 11
348.959398
 21
126.237731
 31
0.0
  0
LINE
  5
3BE
100
AcDbEntity
  8
LAY-1
  6
CONTINUOUS
 62
     7
100
AcDbLine
 10
348.959398
 20
127.381064
 30
0.0
 11
350.021064
 21
127.381064
 31
0.0
  0
LINE
  5
3BF
100
AcDbEntity
  8
LAY-1
  6
CONTINUOUS
 62
     7
100
AcDbLine
 10
350.837731
 20
129.259398
 30
0.0
 11
350.837731
 21
128.197731
 31
0.0
  0
ARC
  5
3C0
100
AcDbEntity
  8
LAY-1
  6
CONTINUOUS
 62
     7
100
AcDbCircle
 10
350.021064
 20
128.197731
 30
0.0
 40
0.816667
100
AcDbArc
 50
270.0
 51
0.0
  0
LINE
  5
3C1
100
AcDbEntity
  8
LAY-1
  6
CONTINUOUS
 62
     7
100
AcDbLine
 10
351.409398
 20
129.259398
 30
0.0
 11
350.837731
 21
129.259398
 31
0.0
  0
LINE
  5
3C2
100
AcDbEntity
  8
LAY-1
  6
CONTINUOUS
 62
     7
100
AcDbLine
 10
348.959398
 20
126.809398
 30
0.0
 11
348.959398
 21
127.381064
 31
0.0
  0
LINE
  5
3C3
100
AcDbEntity
  8
LAY-1
  6
CONTINUOUS
 62
     7
100
AcDbLine
 10
353.859398
 20
126.237731
 30
0.0
 11
352.797731
 21
126.237731
 31
0.0
  0
LINE
  5
3C4
100
AcDbEntity
  8
LAY-1
  6
CONTINUOUS
 62
     7
100
AcDbLine
 10
351.981064
 20
124.359398
 30
0.0
 11
351.981064
 21
125.421064
 31
0.0
  0
ARC
  5
3C5
100
AcDbEntity
  8
LAY-1
  6
CONTINUOUS
 62
     7
100
AcDbCircle
 10
352.797731
 20
125.421064
 30
0.0
 40
0.816667
100
AcDbArc
 50
90.0
 51
180.0
  0
LINE
  5
3C6
100
AcDbEntity
  8
LAY-1
  6
CONTINUOUS
 62
     7
100
AcDbLine
 10
351.409398
 20
124.359398
 30
0.0
 11
351.981064
 21
124.359398
 31
0.0
  0
LINE
  5
3C7
100
AcDbEntity
  8
LAY-1
  6
CONTINUOUS
 62
     7
100
AcDbLine
 10
353.859398
 20
126.809398
 30
0.0
 11
353.859398
 21
126.237731
 31
0.0
  0
LINE
  5
3C8
100
AcDbEntity
  8
LAY-1
  6
CONTINUOUS
 62
     7
100
AcDbLine
 10
353.859398
 20
127.381064
 30
0.0
 11
352.797731
 21
127.381064
 31
0.0
  0
LINE
  5
3C9
100
AcDbEntity
  8
LAY-1
  6
CONTINUOUS
 62
     7
100
AcDbLine
 10
351.981064
 20
129.259398
 30
0.0
 11
351.981064
 21
128.197731
 31
0.0
  0
ARC
  5
3CA
100
AcDbEntity
  8
LAY-1
  6
CONTINUOUS
 62
     7
100
AcDbCircle
 10
352.797731
 20
128.197731
 30
0.0
 40
0.816667
100
AcDbArc
 50
180.0
 51
270.0
  0
LINE
  5
3CB
100
AcDbEntity
  8
LAY-1
  6
CONTINUOUS
 62
     7
100
AcDbLine
 10
351.409398
 20
129.259398
 30
0.0
 11
351.981064
 21
129.259398
 31
0.0
  0
LINE
  5
3CC
100
AcDbEntity
  8
LAY-1
  6
CONTINUOUS
 62
     7
100
AcDbLine
 10
353.859398
 20
126.809398
 30
0.0
 11
353.859398
 21
127.381064
 31
0.0
  0
LINE
  5
3CD
100
AcDbEntity
  8
LAY-1
  6
CONTINUOUS
 62
     7
100
AcDbLine
 10
338.734326
 20
215.986824
 30
0.0
 11
338.64247
 21
215.46588
 31
0.0
  0
CIRCLE
  5
3CE
100
AcDbEntity
  8
LAY-1
  6
CONTINUOUS
 62
     7
100
AcDbCircle
 10
325.6
 20
101.0
 30
0.0
 40
12.678199
  0
LINE
  5
3CF
100
AcDbEntity
  8
LAY-1
  6
CONTINUOUS
 62
     7
100
AcDbLine
 10
367.1
 20
218.4
 30
0.0
 11
367.902549
 21
264.377979
 31
0.0
  0
ARC
  5
3D0
100
AcDbEntity
  8
LAY-1
  6
CONTINUOUS
 62
     7
100
AcDbCircle
 10
372.901787
 20
264.290717
 30
0.0
 40
5.0
100
AcDbArc
 50
119.078789
 51
179.0
  0
LINE
  5
3D1
100
AcDbEntity
  8
LAY-1
  6
CONTINUOUS
 62
     7
100
AcDbLine
 10
284.1
 20
218.4
 30
0.0
 11
283.297451
 21
264.377979
 31
0.0
  0
ARC
  5
3D2
100
AcDbEntity
  8
LAY-1
  6
CONTINUOUS
 62
     7
100
AcDbCircle
 10
278.298213
 20
264.290717
 30
0.0
 40
5.0
100
AcDbArc
 50
1.0
 51
60.921211
  0
LINE
  5
3D3
100
AcDbEntity
  8
LAY-1
  6
CONTINUOUS
 62
     7
100
AcDbLine
 10
135.712698
 20
273.814214
 30
0.0
 11
148.235511
 21
261.291401
 31
0.0
  0
LINE
  5
3D4
100
AcDbEntity
  8
LAY-1
  6
CONTINUOUS
 62
     7
100
AcDbLine
 10
256.6
 20
287.4
 30
0.0
 11
256.6
 21
275.045751
 31
0.0
  0
ARC
  5
3D5
100
AcDbEntity
  8
LAY-1
  6
CONTINUOUS
 62
     7
100
AcDbCircle
 10
257.6
 20
272.4
 30
0.0
 40
2.0
100
AcDbArc
 50
138.590378
 51
180.0
  0
LINE
  5
3D6
100
AcDbEntity
  8
LAY-1
  6
CONTINUOUS
 62
     7
100
AcDbLine
 10
256.6
 20
274.132051
 30
0.0
 11
258.102017
 21
260.683807
 31
0.0
  0
LINE
  5
3D7
100
AcDbEntity
  8
LAY-1
  6
CONTINUOUS
 62
     7
100
AcDbLine
 10
255.6
 20
260.683807
 30
0.0
 11
258.102017
 21
260.683807
 31
0.0
  0
LINE
  5
3D8
100
AcDbEntity
  8
LAY-1
  6
CONTINUOUS
 62
     7
100
AcDbLine
 10
135.712698
 20
228.985786
 30
0.0
 11
147.779607
 21
241.052695
 31
0.0
  0
LINE
  5
3D9
100
AcDbEntity
  8
LAY-1
  6
CONTINUOUS
 62
     7
100
AcDbLine
 10
276.185786
 20
228.985786
 30
0.0
 11
278.014214
 21
230.814214
 31
0.0
  0
LINE
  5
3DA
100
AcDbEntity
  8
LAY-1
  6
CONTINUOUS
 62
     7
100
AcDbLine
 10
255.6
 20
241.616909
 30
0.0
 11
275.6
 21
241.616909
 31
0.0
  0
LINE
  5
3DB
100
AcDbEntity
  8
LAY-1
  6
CONTINUOUS
 62
     7
100
AcDbLine
 10
275.6
 20
229.56
 30
0.0
 11
275.6
 21
268.4
 31
0.0
  0
LINE
  5
3DC
100
AcDbEntity
  8
LAY-1
  6
CONTINUOUS
 62
     7
100
AcDbLine
 10
375.6
 20
229.56
 30
0.0
 11
375.6
 21
268.4
 31
0.0
  0
LINE
  5
3DD
100
AcDbEntity
  8
LAY-1
  6
CONTINUOUS
 62
     7
100
AcDbLine
 10
395.6
 20
241.616909
 30
0.0
 11
375.6
 21
241.616909
 31
0.0
  0
LINE
  5
3DE
100
AcDbEntity
  8
LAY-1
  6
CONTINUOUS
 62
     7
100
AcDbLine
 10
395.6
 20
260.683807
 30
0.0
 11
393.097983
 21
260.683807
 31
0.0
  0
LINE
  5
3DF
100
AcDbEntity
  8
LAY-1
  6
CONTINUOUS
 62
     7
100
AcDbLine
 10
394.6
 20
274.132051
 30
0.0
 11
393.097983
 21
260.683807
 31
0.0
  0
ARC
  5
3E0
100
AcDbEntity
  8
LAY-1
  6
CONTINUOUS
 62
     7
100
AcDbCircle
 10
263.97171
 20
276.4
 30
0.0
 40
2.0
100
AcDbArc
 50
180.0
 51
270.0
  0
LINE
  5
3E1
100
AcDbEntity
  8
LAY-1
  6
CONTINUOUS
 62
     7
100
AcDbLine
 10
261.97171
 20
279.4
 30
0.0
 11
261.97171
 21
276.4
 31
0.0
  0
ARC
  5
3E2
100
AcDbEntity
  8
LAY-1
  6
CONTINUOUS
 62
     7
100
AcDbCircle
 10
259.97171
 20
279.4
 30
0.0
 40
2.0
100
AcDbArc
 50
0.0
 51
90.0
  0
LINE
  5
3E3
100
AcDbEntity
  8
LAY-1
  6
CONTINUOUS
 62
     7
100
AcDbLine
 10
263.97171
 20
274.4
 30
0.0
 11
266.47171
 21
274.4
 31
0.0
  0
LINE
  5
3E4
100
AcDbEntity
  8
LAY-1
  6
CONTINUOUS
 62
     7
100
AcDbLine
 10
268.97171
 20
274.4
 30
0.0
 11
266.47171
 21
274.4
 31
0.0
  0
ARC
  5
3E5
100
AcDbEntity
  8
LAY-1
  6
CONTINUOUS
 62
     7
100
AcDbCircle
 10
268.97171
 20
276.4
 30
0.0
 40
2.0
100
AcDbArc
 50
270.0
 51
0.0
  0
LINE
  5
3E6
100
AcDbEntity
  8
LAY-1
  6
CONTINUOUS
 62
     7
100
AcDbLine
 10
270.97171
 20
279.4
 30
0.0
 11
270.97171
 21
276.4
 31
0.0
  0
ARC
  5
3E7
100
AcDbEntity
  8
LAY-1
  6
CONTINUOUS
 62
     7
100
AcDbCircle
 10
272.97171
 20
279.4
 30
0.0
 40
2.0
100
AcDbArc
 50
90.0
 51
180.0
  0
LINE
  5
3E8
100
AcDbEntity
  8
LAY-1
  6
CONTINUOUS
 62
     7
100
AcDbLine
 10
271.763128
 20
277.083128
 30
0.0
 11
278.517323
 21
270.328932
 31
0.0
  0
ARC
  5
3E9
100
AcDbEntity
  8
LAY-1
  6
CONTINUOUS
 62
     7
100
AcDbCircle
 10
387.22829
 20
276.4
 30
0.0
 40
2.0
100
AcDbArc
 50
270.0
 51
0.0
  0
LINE
  5
3EA
100
AcDbEntity
  8
LAY-1
  6
CONTINUOUS
 62
     7
100
AcDbLine
 10
389.22829
 20
279.4
 30
0.0
 11
389.22829
 21
276.4
 31
0.0
  0
ARC
  5
3EB
100
AcDbEntity
  8
LAY-1
  6
CONTINUOUS
 62
     7
100
AcDbCircle
 10
391.22829
 20
279.4
 30
0.0
 40
2.0
100
AcDbArc
 50
90.0
 51
180.0
  0
LINE
  5
3EC
100
AcDbEntity
  8
LAY-1
  6
CONTINUOUS
 62
     7
100
AcDbLine
 10
387.22829
 20
274.4
 30
0.0
 11
384.72829
 21
274.4
 31
0.0
  0
LINE
  5
3ED
100
AcDbEntity
  8
LAY-1
  6
CONTINUOUS
 62
     7
100
AcDbLine
 10
382.22829
 20
274.4
 30
0.0
 11
384.72829
 21
274.4
 31
0.0
  0
ARC
  5
3EE
100
AcDbEntity
  8
LAY-1
  6
CONTINUOUS
 62
     7
100
AcDbCircle
 10
382.22829
 20
276.4
 30
0.0
 40
2.0
100
AcDbArc
 50
180.0
 51
270.0
  0
LINE
  5
3EF
100
AcDbEntity
  8
LAY-1
  6
CONTINUOUS
 62
     7
100
AcDbLine
 10
380.22829
 20
279.4
 30
0.0
 11
380.22829
 21
276.4
 31
0.0
  0
ARC
  5
3F0
100
AcDbEntity
  8
LAY-1
  6
CONTINUOUS
 62
     7
100
AcDbCircle
 10
378.22829
 20
279.4
 30
0.0
 40
2.0
100
AcDbArc
 50
0.0
 51
90.0
  0
LINE
  5
3F1
100
AcDbEntity
  8
LAY-1
  6
CONTINUOUS
 62
     7
100
AcDbLine
 10
379.436872
 20
277.083128
 30
0.0
 11
372.682677
 21
270.328932
 31
0.0
  0
ARC
  5
3F2
100
AcDbEntity
  8
LAY-1
  6
CONTINUOUS
 62
     7
100
AcDbCircle
 10
348.159398
 20
215.070835
 30
0.0
 40
1.5
100
AcDbArc
 50
180.0
 51
240.0
  0
ARC
  5
3F3
100
AcDbEntity
  8
LAY-1
  6
CONTINUOUS
 62
     7
100
AcDbCircle
 10
351.409398
 20
220.7
 30
0.0
 40
8.0
100
AcDbArc
 50
240.0
 51
270.0
  0
LINE
  5
3F4
100
AcDbEntity
  8
LAY-1
  6
CONTINUOUS
 62
     7
100
AcDbLine
 10
346.659398
 20
215.070835
 30
0.0
 11
346.659398
 21
216.4
 31
0.0
  0
ARC
  5
3F5
100
AcDbEntity
  8
LAY-1
  6
CONTINUOUS
 62
     7
100
AcDbCircle
 10
354.659398
 20
215.070835
 30
0.0
 40
1.5
100
AcDbArc
 50
300.0
 51
0.0
  0
ARC
  5
3F6
100
AcDbEntity
  8
LAY-1
  6
CONTINUOUS
 62
     7
100
AcDbCircle
 10
351.409398
 20
220.7
 30
0.0
 40
8.0
100
AcDbArc
 50
270.0
 51
300.0
  0
LINE
  5
3F7
100
AcDbEntity
  8
LAY-1
  6
CONTINUOUS
 62
     7
100
AcDbLine
 10
356.159398
 20
215.070835
 30
0.0
 11
356.159398
 21
216.4
 31
0.0
  0
ARC
  5
3F8
100
AcDbEntity
  8
LAY-1
  6
CONTINUOUS
 62
     7
100
AcDbCircle
 10
303.040602
 20
215.070835
 30
0.0
 40
1.5
100
AcDbArc
 50
300.0
 51
0.0
  0
ARC
  5
3F9
100
AcDbEntity
  8
LAY-1
  6
CONTINUOUS
 62
     7
100
AcDbCircle
 10
299.790602
 20
220.7
 30
0.0
 40
8.0
100
AcDbArc
 50
270.0
 51
300.0
  0
LINE
  5
3FA
100
AcDbEntity
  8
LAY-1
  6
CONTINUOUS
 62
     7
100
AcDbLine
 10
304.540602
 20
215.070835
 30
0.0
 11
304.540602
 21
216.4
 31
0.0
  0
ARC
  5
3FB
100
AcDbEntity
  8
LAY-1
  6
CONTINUOUS
 62
     7
100
AcDbCircle
 10
296.540602
 20
215.070835
 30
0.0
 40
1.5
100
AcDbArc
 50
180.0
 51
240.0
  0
ARC
  5
3FC
100
AcDbEntity
  8
LAY-1
  6
CONTINUOUS
 62
     7
100
AcDbCircle
 10
299.790602
 20
220.7
 30
0.0
 40
8.0
100
AcDbArc
 50
240.0
 51
270.0
  0
LINE
  5
3FD
100
AcDbEntity
  8
LAY-1
  6
CONTINUOUS
 62
     7
100
AcDbLine
 10
295.040602
 20
215.070835
 30
0.0
 11
295.040602
 21
216.4
 31
0.0
  0
LINE
  5
3FE
100
AcDbEntity
  8
LAY-1
  6
EXLTYPE3
 62
     1
100
AcDbLine
 10
725.6
 20
375.7
 30
0.0
 11
725.6
 21
205.7
 31
0.0
  0
LINE
  5
3FF
100
AcDbEntity
  8
LAY-1
  6
CONTINUOUS
 62
     7
100
AcDbLine
 10
684.1
 20
218.4
 30
0.0
 11
684.1
 21
216.4
 31
0.0
  0
LINE
  5
400
100
AcDbEntity
  8
LAY-1
  6
CONTINUOUS
 62
     7
100
AcDbLine
 10
725.6
 20
218.4
 30
0.0
 11
684.1
 21
218.4
 31
0.0
  0
LINE
  5
401
100
AcDbEntity
  8
LAY-1
  6
CONTINUOUS
 62
     7
100
AcDbLine
 10
767.1
 20
218.4
 30
0.0
 11
767.1
 21
216.4
 31
0.0
  0
LINE
  5
402
100
AcDbEntity
  8
LAY-1
  6
CONTINUOUS
 62
     7
100
AcDbLine
 10
736.18045
 20
213.4
 30
0.0
 11
725.6
 21
213.4
 31
0.0
  0
ARC
  5
403
100
AcDbEntity
  8
LAY-1
  6
CONTINUOUS
 62
     7
100
AcDbCircle
 10
736.18045
 20
215.9
 30
0.0
 40
2.5
100
AcDbArc
 50
270.0
 51
350.0
  0
ARC
  5
404
100
AcDbEntity
  8
LAY-1
  6
CONTINUOUS
 62
     7
100
AcDbCircle
 10
739.22673
 20
215.9
 30
0.0
 40
0.5
100
AcDbArc
 50
90.0
 51
170.0
  0
LINE
  5
405
100
AcDbEntity
  8
LAY-1
  6
CONTINUOUS
 62
     7
100
AcDbLine
 10
738.734326
 20
215.986824
 30
0.0
 11
738.64247
 21
215.46588
 31
0.0
  0
LINE
  5
406
100
AcDbEntity
  8
LAY-1
  6
CONTINUOUS
 62
     7
100
AcDbLine
 10
715.01955
 20
213.4
 30
0.0
 11
725.6
 21
213.4
 31
0.0
  0
ARC
  5
407
100
AcDbEntity
  8
LAY-1
  6
CONTINUOUS
 62
     7
100
AcDbCircle
 10
715.01955
 20
215.9
 30
0.0
 40
2.5
100
AcDbArc
 50
190.0
 51
270.0
  0
ARC
  5
408
100
AcDbEntity
  8
LAY-1
  6
CONTINUOUS
 62
     7
100
AcDbCircle
 10
711.97327
 20
215.9
 30
0.0
 40
0.5
100
AcDbArc
 50
10.0
 51
90.0
  0
LINE
  5
409
100
AcDbEntity
  8
LAY-1
  6
CONTINUOUS
 62
     7
100
AcDbLine
 10
675.6
 20
228.4
 30
0.0
 11
678.014214
 21
230.814214
 31
0.0
  0
LINE
  5
40A
100
AcDbEntity
  8
LAY-1
  6
CONTINUOUS
 62
     7
100
AcDbLine
 10
793.6
 20
228.4
 30
0.0
 11
776.428427
 21
228.4
 31
0.0
  0
LINE
  5
40B
100
AcDbEntity
  8
LAY-1
  6
CONTINUOUS
 62
     7
100
AcDbLine
 10
655.6
 20
272.4
 30
0.0
 11
655.6
 21
230.4
 31
0.0
  0
LINE
  5
40C
100
AcDbEntity
  8
LAY-1
  6
CONTINUOUS
 62
     7
100
AcDbLine
 10
656.6
 20
287.4
 30
0.0
 11
656.6
 21
275.045751
 31
0.0
  0
ARC
  5
40D
100
AcDbEntity
  8
LAY-1
  6
CONTINUOUS
 62
     7
100
AcDbCircle
 10
654.6
 20
275.045751
 30
0.0
 40
2.0
100
AcDbArc
 50
318.590378
 51
0.0
  0
ARC
  5
40E
100
AcDbEntity
  8
LAY-1
  6
CONTINUOUS
 62
     7
100
AcDbCircle
 10
657.6
 20
272.4
 30
0.0
 40
2.0
100
AcDbArc
 50
138.590378
 51
180.0
  0
LINE
  5
40F
100
AcDbEntity
  8
LAY-1
  6
CONTINUOUS
 62
     7
100
AcDbLine
 10
795.6
 20
272.4
 30
0.0
 11
795.6
 21
230.4
 31
0.0
  0
ARC
  5
410
100
AcDbEntity
  8
LAY-1
  6
CONTINUOUS
 62
     7
100
AcDbCircle
 10
796.6
 20
275.045751
 30
0.0
 40
2.0
100
AcDbArc
 50
180.0
 51
221.409622
  0
LINE
  5
411
100
AcDbEntity
  8
LAY-1
  6
EXLTYPE3
 62
     1
100
AcDbLine
 10
799.9
 20
251.4
 30
0.0
 11
651.9
 21
251.4
 31
0.0
  0
ARC
  5
412
100
AcDbEntity
  8
LAY-1
  6
CONTINUOUS
 62
     7
100
AcDbCircle
 10
657.6
 20
230.4
 30
0.0
 40
2.0
100
AcDbArc
 50
180.0
 51
270.0
  0
LINE
  5
413
100
AcDbEntity
  8
LAY-1
  6
CONTINUOUS
 62
     7
100
AcDbLine
 10
657.6
 20
228.4
 30
0.0
 11
674.771573
 21
228.4
 31
0.0
  0
ARC
  5
414
100
AcDbEntity
  8
LAY-1
  6
CONTINUOUS
 62
     7
100
AcDbCircle
 10
793.6
 20
230.4
 30
0.0
 40
2.0
100
AcDbArc
 50
270.0
 51
0.0
  0
ARC
  5
415
100
AcDbEntity
  8
LAY-1
  6
CONTINUOUS
 62
     7
100
AcDbCircle
 10
770.275008
 20
228.4
 30
0.0
 40
3.0
100
AcDbArc
 50
90.0
 51
179.0
  0
ARC
  5
416
100
AcDbEntity
  8
LAY-1
  6
CONTINUOUS
 62
     7
100
AcDbCircle
 10
680.924992
 20
228.4
 30
0.0
 40
3.0
100
AcDbArc
 50
1.0
 51
90.0
  0
LINE
  5
417
100
AcDbEntity
  8
LAY-1
  6
CONTINUOUS
 62
     7
100
AcDbLine
 10
679.428427
 20
231.4
 30
0.0
 11
680.924992
 21
231.4
 31
0.0
  0
LINE
  5
418
100
AcDbEntity
  8
LAY-1
  6
CONTINUOUS
 62
     7
100
AcDbLine
 10
767.1
 20
218.4
 30
0.0
 11
725.6
 21
218.4
 31
0.0
  0
LINE
  5
419
100
AcDbEntity
  8
LAY-1
  6
CONTINUOUS
 62
     7
100
AcDbLine
 10
771.771573
 20
231.4
 30
0.0
 11
770.1
 21
231.4
 31
0.0
  0
ARC
  5
41A
100
AcDbEntity
  8
LAY-1
  6
CONTINUOUS
 62
     7
100
AcDbCircle
 10
679.428427
 20
229.4
 30
0.0
 40
2.0
100
AcDbArc
 50
90.0
 51
135.0
  0
ARC
  5
41B
100
AcDbEntity
  8
LAY-1
  6
CONTINUOUS
 62
     7
100
AcDbCircle
 10
674.771573
 20
230.4
 30
0.0
 40
2.0
100
AcDbArc
 50
270.0
 51
315.0
  0
ARC
  5
41C
100
AcDbEntity
  8
LAY-1
  6
CONTINUOUS
 62
     7
100
AcDbCircle
 10
771.771573
 20
229.4
 30
0.0
 40
2.0
100
AcDbArc
 50
45.0
 51
90.0
  0
ARC
  5
41D
100
AcDbEntity
  8
LAY-1
  6
CONTINUOUS
 62
     7
100
AcDbCircle
 10
776.428427
 20
230.4
 30
0.0
 40
2.0
100
AcDbArc
 50
225.0
 51
270.0
  0
ARC
  5
41E
100
AcDbEntity
  8
LAY-1
  6
CONTINUOUS
 62
     7
100
AcDbCircle
 10
657.6
 20
292.4
 30
0.0
 40
1.0
100
AcDbArc
 50
90.0
 51
180.0
  0
LINE
  5
41F
100
AcDbEntity
  8
LAY-1
  6
CONTINUOUS
 62
     7
100
AcDbLine
 10
657.6
 20
293.4
 30
0.0
 11
658.215262
 21
293.4
 31
0.0
  0
LINE
  5
420
100
AcDbEntity
  8
LAY-1
  6
CONTINUOUS
 62
     7
100
AcDbLine
 10
689.13741
 20
303.977268
 30
0.0
 11
681.169546
 21
302.782419
 31
0.0
  0
ARC
  5
421
100
AcDbEntity
  8
LAY-1
  6
CONTINUOUS
 62
     7
100
AcDbCircle
 10
688.445659
 20
320.052435
 30
0.0
 40
16.0
100
AcDbArc
 50
278.528444
 51
359.0
  0
LINE
  5
422
100
AcDbEntity
  8
LAY-1
  6
CONTINUOUS
 62
     7
100
AcDbLine
 10
690.818465
 20
304.229357
 30
0.0
 11
689.13741
 21
303.977268
 31
0.0
  0
LINE
  5
423
100
AcDbEntity
  8
LAY-1
  6
CONTINUOUS
 62
     7
100
AcDbLine
 10
705.1
 20
357.4
 30
0.0
 11
704.451726
 21
320.260381
 31
0.0
  0
LINE
  5
424
100
AcDbEntity
  8
LAY-1
  6
CONTINUOUS
 62
     7
100
AcDbLine
 10
706.1
 20
357.4
 30
0.0
 11
708.32037
 21
357.4
 31
0.0
  0
LINE
  5
425
100
AcDbEntity
  8
LAY-1
  6
CONTINUOUS
 62
     7
100
AcDbLine
 10
707.1
 20
367.456624
 30
0.0
 11
709.6
 21
368.9
 31
0.0
  0
LINE
  5
426
100
AcDbEntity
  8
LAY-1
  6
CONTINUOUS
 62
     7
100
AcDbLine
 10
707.1
 20
359.9
 30
0.0
 11
707.1
 21
367.456624
 31
0.0
  0
LINE
  5
427
100
AcDbEntity
  8
LAY-1
  6
CONTINUOUS
 62
     7
100
AcDbLine
 10
704.6
 20
358.4
 30
0.0
 11
704.6
 21
359.9
 31
0.0
  0
LINE
  5
428
100
AcDbEntity
  8
LAY-1
  6
CONTINUOUS
 62
     7
100
AcDbLine
 10
705.6
 20
357.4
 30
0.0
 11
705.6
 21
358.4
 31
0.0
  0
LINE
  5
429
100
AcDbEntity
  8
LAY-1
  6
CONTINUOUS
 62
     7
100
AcDbLine
 10
725.6
 20
368.9
 30
0.0
 11
725.567375
 21
368.9
 31
0.0
  0
LINE
  5
42A
100
AcDbEntity
  8
LAY-1
  6
CONTINUOUS
 62
     7
100
AcDbLine
 10
709.6
 20
368.9
 30
0.0
 11
725.632625
 21
368.9
 31
0.0
  0
LINE
  5
42B
100
AcDbEntity
  8
LAY-1
  6
CONTINUOUS
 62
     7
100
AcDbLine
 10
744.1
 20
367.456624
 30
0.0
 11
741.6
 21
368.9
 31
0.0
  0
LINE
  5
42C
100
AcDbEntity
  8
LAY-1
  6
CONTINUOUS
 62
     7
100
AcDbLine
 10
744.1
 20
359.9
 30
0.0
 11
744.1
 21
367.456624
 31
0.0
  0
LINE
  5
42D
100
AcDbEntity
  8
LAY-1
  6
CONTINUOUS
 62
     7
100
AcDbLine
 10
725.6
 20
368.9
 30
0.0
 11
725.632625
 21
368.9
 31
0.0
  0
LINE
  5
42E
100
AcDbEntity
  8
LAY-1
  6
CONTINUOUS
 62
     7
100
AcDbLine
 10
741.6
 20
368.9
 30
0.0
 11
725.567375
 21
368.9
 31
0.0
  0
LINE
  5
42F
100
AcDbEntity
  8
LAY-1
  6
CONTINUOUS
 62
     7
100
AcDbLine
 10
745.1
 20
357.4
 30
0.0
 11
742.87963
 21
357.4
 31
0.0
  0
LINE
  5
430
100
AcDbEntity
  8
LAY-1
  6
CONTINUOUS
 62
     7
100
AcDbLine
 10
746.6
 20
358.4
 30
0.0
 11
746.6
 21
359.9
 31
0.0
  0
LINE
  5
431
100
AcDbEntity
  8
LAY-1
  6
CONTINUOUS
 62
     7
100
AcDbLine
 10
745.6
 20
357.4
 30
0.0
 11
745.6
 21
358.4
 31
0.0
  0
ARC
  5
432
100
AcDbEntity
  8
LAY-1
  6
CONTINUOUS
 62
     7
100
AcDbCircle
 10
762.754341
 20
320.052435
 30
0.0
 40
16.0
100
AcDbArc
 50
181.0
 51
261.471556
  0
LINE
  5
433
100
AcDbEntity
  8
LAY-1
  6
CONTINUOUS
 62
     7
100
AcDbLine
 10
794.6
 20
292.4
 30
0.0
 11
794.6
 21
287.4
 31
0.0
  0
LINE
  5
434
100
AcDbEntity
  8
LAY-1
  6
CONTINUOUS
 62
     7
100
AcDbLine
 10
656.6
 20
287.4
 30
0.0
 11
656.6
 21
292.4
 31
0.0
  0
ARC
  5
435
100
AcDbEntity
  8
LAY-1
  6
CONTINUOUS
 62
     7
100
AcDbCircle
 10
793.6
 20
292.4
 30
0.0
 40
1.0
100
AcDbArc
 50
0.0
 51
90.0
  0
LINE
  5
436
100
AcDbEntity
  8
LAY-1
  6
CONTINUOUS
 62
     7
100
AcDbLine
 10
793.6
 20
293.4
 30
0.0
 11
793.484738
 21
293.4
 31
0.0
  0
ARC
  5
437
100
AcDbEntity
  8
LAY-1
  6
CONTINUOUS
 62
     7
100
AcDbCircle
 10
793.484738
 20
294.4
 30
0.0
 40
1.0
100
AcDbArc
 50
182.0
 51
270.0
  0
LINE
  5
438
100
AcDbEntity
  8
LAY-1
  6
CONTINUOUS
 62
     7
100
AcDbLine
 10
792.168623
 20
303.434899
 30
0.0
 11
792.485347
 21
294.365101
 31
0.0
  0
ARC
  5
439
100
AcDbEntity
  8
LAY-1
  6
CONTINUOUS
 62
     7
100
AcDbCircle
 10
791.169232
 20
303.4
 30
0.0
 40
1.0
100
AcDbArc
 50
2.0
 51
90.0
  0
LINE
  5
43A
100
AcDbEntity
  8
LAY-1
  6
CONTINUOUS
 62
     7
100
AcDbLine
 10
793.6
 20
293.4
 30
0.0
 11
793.484738
 21
293.4
 31
0.0
  0
LINE
  5
43B
100
AcDbEntity
  8
LAY-1
  6
CONTINUOUS
 62
     7
100
AcDbLine
 10
791.169232
 20
304.4
 30
0.0
 11
764.030768
 21
304.4
 31
0.0
  0
LINE
  5
43C
100
AcDbEntity
  8
LAY-1
  6
CONTINUOUS
 62
     7
100
AcDbLine
 10
770.586382
 20
302.699053
 30
0.0
 11
772.510047
 21
302.410583
 31
0.0
  0
LINE
  5
43D
100
AcDbEntity
  8
LAY-1
  6
CONTINUOUS
 62
     7
100
AcDbLine
 10
760.381535
 20
304.229357
 30
0.0
 11
762.06259
 21
303.977268
 31
0.0
  0
ARC
  5
43E
100
AcDbEntity
  8
LAY-1
  6
CONTINUOUS
 62
     7
100
AcDbCircle
 10
764.030768
 20
303.4
 30
0.0
 40
1.0
100
AcDbArc
 50
90.0
 51
136.807118
  0
ARC
  5
43F
100
AcDbEntity
  8
LAY-1
  6
CONTINUOUS
 62
     7
100
AcDbCircle
 10
762.937188
 20
304.426685
 30
0.0
 40
0.5
100
AcDbArc
 50
313.424495
 51
316.807118
  0
ARC
  5
440
100
AcDbEntity
  8
LAY-1
  6
CONTINUOUS
 62
     7
100
AcDbCircle
 10
762.878613
 20
304.360489
 30
0.0
 40
0.5
100
AcDbArc
 50
261.471556
 51
323.566479
  0
LINE
  5
441
100
AcDbEntity
  8
LAY-1
  6
CONTINUOUS
 62
     7
100
AcDbLine
 10
762.06259
 20
303.977268
 30
0.0
 11
762.804463
 21
303.866018
 31
0.0
  0
LINE
  5
442
100
AcDbEntity
  8
LAY-1
  6
CONTINUOUS
 62
     7
100
AcDbLine
 10
704.6
 20
359.9
 30
0.0
 11
725.6
 21
359.9
 31
0.0
  0
LINE
  5
443
100
AcDbEntity
  8
LAY-1
  6
CONTINUOUS
 62
     7
100
AcDbLine
 10
725.6
 20
358.4
 30
0.0
 11
704.6
 21
358.4
 31
0.0
  0
LINE
  5
444
100
AcDbEntity
  8
LAY-1
  6
CONTINUOUS
 62
     7
100
AcDbLine
 10
705.1
 20
357.4
 30
0.0
 11
725.6
 21
357.4
 31
0.0
  0
LINE
  5
445
100
AcDbEntity
  8
LAY-1
  6
CONTINUOUS
 62
     7
100
AcDbLine
 10
746.1
 20
357.4
 30
0.0
 11
725.6
 21
357.4
 31
0.0
  0
LINE
  5
446
100
AcDbEntity
  8
LAY-1
  6
CONTINUOUS
 62
     7
100
AcDbLine
 10
725.6
 20
358.4
 30
0.0
 11
746.6
 21
358.4
 31
0.0
  0
LINE
  5
447
100
AcDbEntity
  8
LAY-1
  6
CONTINUOUS
 62
     7
100
AcDbLine
 10
746.6
 20
359.9
 30
0.0
 11
725.6
 21
359.9
 31
0.0
  0
LINE
  5
448
100
AcDbEntity
  8
LAY-1
  6
CONTINUOUS
 62
     7
100
AcDbLine
 10
772.510047
 20
302.410583
 30
0.0
 11
762.06259
 21
303.977268
 31
0.0
  0
LINE
  5
449
100
AcDbEntity
  8
LAY-1
  6
CONTINUOUS
 62
     7
100
AcDbLine
 10
793.484738
 20
293.4
 30
0.0
 11
725.6
 21
293.4
 31
0.0
  0
LINE
  5
44A
100
AcDbEntity
  8
LAY-1
  6
CONTINUOUS
 62
     7
100
AcDbLine
 10
658.215262
 20
293.4
 30
0.0
 11
725.6
 21
293.4
 31
0.0
  0
LINE
  5
44B
100
AcDbEntity
  8
LAY-1
  6
CONTINUOUS
 62
     7
100
AcDbLine
 10
746.1
 20
357.4
 30
0.0
 11
746.756778
 21
319.773196
 31
0.0
  0
LINE
  5
44C
100
AcDbEntity
  8
LAY-1
  6
CONTINUOUS
 62
     7
100
AcDbLine
 10
745.34174
 20
294.729165
 30
0.0
 11
745.34174
 21
293.4
 31
0.0
  0
ARC
  5
44D
100
AcDbEntity
  8
LAY-1
  6
CONTINUOUS
 62
     7
100
AcDbCircle
 10
750.09174
 20
289.1
 30
0.0
 40
8.0
100
AcDbArc
 50
90.0
 51
120.0
  0
ARC
  5
44E
100
AcDbEntity
  8
LAY-1
  6
CONTINUOUS
 62
     7
100
AcDbCircle
 10
746.84174
 20
294.729165
 30
0.0
 40
1.5
100
AcDbArc
 50
120.0
 51
180.0
  0
LINE
  5
44F
100
AcDbEntity
  8
LAY-1
  6
CONTINUOUS
 62
     7
100
AcDbLine
 10
754.84174
 20
294.729165
 30
0.0
 11
754.84174
 21
293.4
 31
0.0
  0
ARC
  5
450
100
AcDbEntity
  8
LAY-1
  6
CONTINUOUS
 62
     7
100
AcDbCircle
 10
750.09174
 20
289.1
 30
0.0
 40
8.0
100
AcDbArc
 50
60.0
 51
90.0
  0
ARC
  5
451
100
AcDbEntity
  8
LAY-1
  6
CONTINUOUS
 62
     7
100
AcDbCircle
 10
753.34174
 20
294.729165
 30
0.0
 40
1.5
100
AcDbArc
 50
0.0
 51
60.0
  0
LINE
  5
452
100
AcDbEntity
  8
LAY-1
  6
CONTINUOUS
 62
     7
100
AcDbLine
 10
779.97829
 20
294.729165
 30
0.0
 11
779.97829
 21
293.4
 31
0.0
  0
ARC
  5
453
100
AcDbEntity
  8
LAY-1
  6
CONTINUOUS
 62
     7
100
AcDbCircle
 10
784.72829
 20
289.1
 30
0.0
 40
8.0
100
AcDbArc
 50
90.0
 51
120.0
  0
ARC
  5
454
100
AcDbEntity
  8
LAY-1
  6
CONTINUOUS
 62
     7
100
AcDbCircle
 10
781.47829
 20
294.729165
 30
0.0
 40
1.5
100
AcDbArc
 50
120.0
 51
180.0
  0
LINE
  5
455
100
AcDbEntity
  8
LAY-1
  6
CONTINUOUS
 62
     7
100
AcDbLine
 10
789.47829
 20
294.729165
 30
0.0
 11
789.47829
 21
293.4
 31
0.0
  0
ARC
  5
456
100
AcDbEntity
  8
LAY-1
  6
CONTINUOUS
 62
     7
100
AcDbCircle
 10
784.72829
 20
289.1
 30
0.0
 40
8.0
100
AcDbArc
 50
60.0
 51
90.0
  0
ARC
  5
457
100
AcDbEntity
  8
LAY-1
  6
CONTINUOUS
 62
     7
100
AcDbCircle
 10
787.97829
 20
294.729165
 30
0.0
 40
1.5
100
AcDbArc
 50
0.0
 51
60.0
  0
ARC
  5
458
100
AcDbEntity
  8
LAY-1
  6
CONTINUOUS
 62
     7
100
AcDbCircle
 10
770.730442
 20
290.543274
 30
0.0
 40
12.0
100
AcDbArc
 50
28.705606
 51
81.471556
  0
LINE
  5
459
100
AcDbEntity
  8
LAY-1
  6
CONTINUOUS
 62
     7
100
AcDbLine
 10
705.85826
 20
294.729165
 30
0.0
 11
705.85826
 21
293.4
 31
0.0
  0
ARC
  5
45A
100
AcDbEntity
  8
LAY-1
  6
CONTINUOUS
 62
     7
100
AcDbCircle
 10
701.10826
 20
289.1
 30
0.0
 40
8.0
100
AcDbArc
 50
60.0
 51
90.0
  0
ARC
  5
45B
100
AcDbEntity
  8
LAY-1
  6
CONTINUOUS
 62
     7
100
AcDbCircle
 10
704.35826
 20
294.729165
 30
0.0
 40
1.5
100
AcDbArc
 50
0.0
 51
60.0
  0
LINE
  5
45C
100
AcDbEntity
  8
LAY-1
  6
CONTINUOUS
 62
     7
100
AcDbLine
 10
696.35826
 20
294.729165
 30
0.0
 11
696.35826
 21
293.4
 31
0.0
  0
ARC
  5
45D
100
AcDbEntity
  8
LAY-1
  6
CONTINUOUS
 62
     7
100
AcDbCircle
 10
701.10826
 20
289.1
 30
0.0
 40
8.0
100
AcDbArc
 50
90.0
 51
120.0
  0
ARC
  5
45E
100
AcDbEntity
  8
LAY-1
  6
CONTINUOUS
 62
     7
100
AcDbCircle
 10
697.85826
 20
294.729165
 30
0.0
 40
1.5
100
AcDbArc
 50
120.0
 51
180.0
  0
LINE
  5
45F
100
AcDbEntity
  8
LAY-1
  6
CONTINUOUS
 62
     7
100
AcDbLine
 10
671.22171
 20
294.729165
 30
0.0
 11
671.22171
 21
293.4
 31
0.0
  0
ARC
  5
460
100
AcDbEntity
  8
LAY-1
  6
CONTINUOUS
 62
     7
100
AcDbCircle
 10
666.47171
 20
289.1
 30
0.0
 40
8.0
100
AcDbArc
 50
60.0
 51
90.0
  0
ARC
  5
461
100
AcDbEntity
  8
LAY-1
  6
CONTINUOUS
 62
     7
100
AcDbCircle
 10
669.72171
 20
294.729165
 30
0.0
 40
1.5
100
AcDbArc
 50
0.0
 51
60.0
  0
LINE
  5
462
100
AcDbEntity
  8
LAY-1
  6
CONTINUOUS
 62
     7
100
AcDbLine
 10
661.72171
 20
294.729165
 30
0.0
 11
661.72171
 21
293.4
 31
0.0
  0
ARC
  5
463
100
AcDbEntity
  8
LAY-1
  6
CONTINUOUS
 62
     7
100
AcDbCircle
 10
666.47171
 20
289.1
 30
0.0
 40
8.0
100
AcDbArc
 50
90.0
 51
120.0
  0
ARC
  5
464
100
AcDbEntity
  8
LAY-1
  6
CONTINUOUS
 62
     7
100
AcDbCircle
 10
663.22171
 20
294.729165
 30
0.0
 40
1.5
100
AcDbArc
 50
120.0
 51
180.0
  0
ARC
  5
465
100
AcDbEntity
  8
LAY-1
  6
CONTINUOUS
 62
     7
100
AcDbCircle
 10
680.469558
 20
290.543274
 30
0.0
 40
12.0
100
AcDbArc
 50
98.528444
 51
151.294394
  0
LINE
  5
466
100
AcDbEntity
  8
LAY-1
  6
CONTINUOUS
 62
     7
100
AcDbLine
 10
716.362396
 20
368.9
 30
0.0
 11
716.362396
 21
359.9
 31
0.0
  0
LINE
  5
467
100
AcDbEntity
  8
LAY-1
  6
CONTINUOUS
 62
     7
100
AcDbLine
 10
734.837604
 20
368.9
 30
0.0
 11
734.837604
 21
359.9
 31
0.0
  0
LINE
  5
468
100
AcDbEntity
  8
LAY-1
  6
CONTINUOUS
 62
     7
100
AcDbLine
 10
681.169546
 20
302.782419
 30
0.0
 11
678.689953
 21
302.410583
 31
0.0
  0
LINE
  5
469
100
AcDbEntity
  8
LAY-1
  6
CONTINUOUS
 62
     7
100
AcDbLine
 10
725.6
 20
287.4
 30
0.0
 11
656.6
 21
287.4
 31
0.0
  0
LINE
  5
46A
100
AcDbEntity
  8
LAY-1
  6
CONTINUOUS
 62
     7
100
AcDbLine
 10
725.6
 20
287.4
 30
0.0
 11
794.6
 21
287.4
 31
0.0
  0
ARC
  5
46B
100
AcDbEntity
  8
LAY-1
  6
CONTINUOUS
 62
     7
100
AcDbCircle
 10
765.611609
 20
277.4
 30
0.0
 40
10.0
100
AcDbArc
 50
270.0
 51
315.0
  0
ARC
  5
46C
100
AcDbEntity
  8
LAY-1
  6
CONTINUOUS
 62
     7
100
AcDbCircle
 10
792.6
 20
283.4
 30
0.0
 40
2.0
100
AcDbArc
 50
270.0
 51
0.0
  0
LINE
  5
46D
100
AcDbEntity
  8
LAY-1
  6
CONTINUOUS
 62
     7
100
AcDbLine
 10
725.6
 20
281.4
 30
0.0
 11
792.6
 21
281.4
 31
0.0
  0
LINE
  5
46E
100
AcDbEntity
  8
LAY-1
  6
CONTINUOUS
 62
     7
100
AcDbLine
 10
725.6
 20
216.4
 30
0.0
 11
684.1
 21
216.4
 31
0.0
  0
LINE
  5
46F
100
AcDbEntity
  8
LAY-1
  6
CONTINUOUS
 62
     7
100
AcDbLine
 10
725.6
 20
216.4
 30
0.0
 11
767.1
 21
216.4
 31
0.0
  0
ARC
  5
470
100
AcDbEntity
  8
LAY-1
  6
CONTINUOUS
 62
     7
100
AcDbCircle
 10
685.588391
 20
277.4
 30
0.0
 40
10.0
100
AcDbArc
 50
225.0
 51
270.0
  0
LINE
  5
471
100
AcDbEntity
  8
LAY-1
  6
CONTINUOUS
 62
     7
100
AcDbLine
 10
725.6
 20
281.4
 30
0.0
 11
658.6
 21
281.4
 31
0.0
  0
ARC
  5
472
100
AcDbEntity
  8
LAY-1
  6
CONTINUOUS
 62
     7
100
AcDbCircle
 10
658.6
 20
283.4
 30
0.0
 40
2.0
100
AcDbArc
 50
180.0
 51
270.0
  0
LINE
  5
473
100
AcDbEntity
  8
LAY-1
  6
CONTINUOUS
 62
     7
100
AcDbLine
 10
712.465674
 20
215.986824
 30
0.0
 11
712.55753
 21
215.46588
 31
0.0
  0
LINE
  5
474
100
AcDbEntity
  8
LAY-1
  6
CONTINUOUS
 62
     7
100
AcDbLine
 10
684.1
 20
218.4
 30
0.0
 11
683.297451
 21
264.377979
 31
0.0
  0
ARC
  5
475
100
AcDbEntity
  8
LAY-1
  6
CONTINUOUS
 62
     7
100
AcDbCircle
 10
678.298213
 20
264.290717
 30
0.0
 40
5.0
100
AcDbArc
 50
1.0
 51
60.921211
  0
LINE
  5
476
100
AcDbEntity
  8
LAY-1
  6
CONTINUOUS
 62
     7
100
AcDbLine
 10
767.1
 20
218.4
 30
0.0
 11
767.902549
 21
264.377979
 31
0.0
  0
ARC
  5
477
100
AcDbEntity
  8
LAY-1
  6
CONTINUOUS
 62
     7
100
AcDbCircle
 10
772.901787
 20
264.290717
 30
0.0
 40
5.0
100
AcDbArc
 50
119.078789
 51
179.0
  0
LINE
  5
478
100
AcDbEntity
  8
LAY-1
  6
CONTINUOUS
 62
     7
100
AcDbLine
 10
794.6
 20
287.4
 30
0.0
 11
794.6
 21
275.045751
 31
0.0
  0
ARC
  5
479
100
AcDbEntity
  8
LAY-1
  6
CONTINUOUS
 62
     7
100
AcDbCircle
 10
793.6
 20
272.4
 30
0.0
 40
2.0
100
AcDbArc
 50
0.0
 51
41.409622
  0
LINE
  5
47A
100
AcDbEntity
  8
LAY-1
  6
CONTINUOUS
 62
     7
100
AcDbLine
 10
794.6
 20
274.132051
 30
0.0
 11
793.097983
 21
260.683807
 31
0.0
  0
LINE
  5
47B
100
AcDbEntity
  8
LAY-1
  6
CONTINUOUS
 62
     7
100
AcDbLine
 10
795.6
 20
260.683807
 30
0.0
 11
793.097983
 21
260.683807
 31
0.0
  0
LINE
  5
47C
100
AcDbEntity
  8
LAY-1
  6
CONTINUOUS
 62
     7
100
AcDbLine
 10
775.014214
 20
228.985786
 30
0.0
 11
773.185786
 21
230.814214
 31
0.0
  0
LINE
  5
47D
100
AcDbEntity
  8
LAY-1
  6
CONTINUOUS
 62
     7
100
AcDbLine
 10
795.6
 20
241.616909
 30
0.0
 11
775.6
 21
241.616909
 31
0.0
  0
LINE
  5
47E
100
AcDbEntity
  8
LAY-1
  6
CONTINUOUS
 62
     7
100
AcDbLine
 10
775.6
 20
229.56
 30
0.0
 11
775.6
 21
268.4
 31
0.0
  0
LINE
  5
47F
100
AcDbEntity
  8
LAY-1
  6
CONTINUOUS
 62
     7
100
AcDbLine
 10
675.6
 20
229.56
 30
0.0
 11
675.6
 21
268.4
 31
0.0
  0
LINE
  5
480
100
AcDbEntity
  8
LAY-1
  6
CONTINUOUS
 62
     7
100
AcDbLine
 10
655.6
 20
241.616909
 30
0.0
 11
675.6
 21
241.616909
 31
0.0
  0
LINE
  5
481
100
AcDbEntity
  8
LAY-1
  6
CONTINUOUS
 62
     7
100
AcDbLine
 10
655.6
 20
260.683807
 30
0.0
 11
658.102017
 21
260.683807
 31
0.0
  0
LINE
  5
482
100
AcDbEntity
  8
LAY-1
  6
CONTINUOUS
 62
     7
100
AcDbLine
 10
656.6
 20
274.132051
 30
0.0
 11
658.102017
 21
260.683807
 31
0.0
  0
ARC
  5
483
100
AcDbEntity
  8
LAY-1
  6
CONTINUOUS
 62
     7
100
AcDbCircle
 10
787.22829
 20
276.4
 30
0.0
 40
2.0
100
AcDbArc
 50
270.0
 51
0.0
  0
LINE
  5
484
100
AcDbEntity
  8
LAY-1
  6
CONTINUOUS
 62
     7
100
AcDbLine
 10
789.22829
 20
279.4
 30
0.0
 11
789.22829
 21
276.4
 31
0.0
  0
ARC
  5
485
100
AcDbEntity
  8
LAY-1
  6
CONTINUOUS
 62
     7
100
AcDbCircle
 10
791.22829
 20
279.4
 30
0.0
 40
2.0
100
AcDbArc
 50
90.0
 51
180.0
  0
LINE
  5
486
100
AcDbEntity
  8
LAY-1
  6
CONTINUOUS
 62
     7
100
AcDbLine
 10
787.22829
 20
274.4
 30
0.0
 11
784.72829
 21
274.4
 31
0.0
  0
LINE
  5
487
100
AcDbEntity
  8
LAY-1
  6
CONTINUOUS
 62
     7
100
AcDbLine
 10
782.22829
 20
274.4
 30
0.0
 11
784.72829
 21
274.4
 31
0.0
  0
ARC
  5
488
100
AcDbEntity
  8
LAY-1
  6
CONTINUOUS
 62
     7
100
AcDbCircle
 10
782.22829
 20
276.4
 30
0.0
 40
2.0
100
AcDbArc
 50
180.0
 51
270.0
  0
LINE
  5
489
100
AcDbEntity
  8
LAY-1
  6
CONTINUOUS
 62
     7
100
AcDbLine
 10
780.22829
 20
279.4
 30
0.0
 11
780.22829
 21
276.4
 31
0.0
  0
ARC
  5
48A
100
AcDbEntity
  8
LAY-1
  6
CONTINUOUS
 62
     7
100
AcDbCircle
 10
778.22829
 20
279.4
 30
0.0
 40
2.0
100
AcDbArc
 50
0.0
 51
90.0
  0
LINE
  5
48B
100
AcDbEntity
  8
LAY-1
  6
CONTINUOUS
 62
     7
100
AcDbLine
 10
779.436872
 20
277.083128
 30
0.0
 11
772.682677
 21
270.328932
 31
0.0
  0
ARC
  5
48C
100
AcDbEntity
  8
LAY-1
  6
CONTINUOUS
 62
     7
100
AcDbCircle
 10
663.97171
 20
276.4
 30
0.0
 40
2.0
100
AcDbArc
 50
180.0
 51
270.0
  0
LINE
  5
48D
100
AcDbEntity
  8
LAY-1
  6
CONTINUOUS
 62
     7
100
AcDbLine
 10
661.97171
 20
279.4
 30
0.0
 11
661.97171
 21
276.4
 31
0.0
  0
ARC
  5
48E
100
AcDbEntity
  8
LAY-1
  6
CONTINUOUS
 62
     7
100
AcDbCircle
 10
659.97171
 20
279.4
 30
0.0
 40
2.0
100
AcDbArc
 50
0.0
 51
90.0
  0
LINE
  5
48F
100
AcDbEntity
  8
LAY-1
  6
CONTINUOUS
 62
     7
100
AcDbLine
 10
663.97171
 20
274.4
 30
0.0
 11
666.47171
 21
274.4
 31
0.0
  0
LINE
  5
490
100
AcDbEntity
  8
LAY-1
  6
CONTINUOUS
 62
     7
100
AcDbLine
 10
668.97171
 20
274.4
 30
0.0
 11
666.47171
 21
274.4
 31
0.0
  0
ARC
  5
491
100
AcDbEntity
  8
LAY-1
  6
CONTINUOUS
 62
     7
100
AcDbCircle
 10
668.97171
 20
276.4
 30
0.0
 40
2.0
100
AcDbArc
 50
270.0
 51
0.0
  0
LINE
  5
492
100
AcDbEntity
  8
LAY-1
  6
CONTINUOUS
 62
     7
100
AcDbLine
 10
670.97171
 20
279.4
 30
0.0
 11
670.97171
 21
276.4
 31
0.0
  0
ARC
  5
493
100
AcDbEntity
  8
LAY-1
  6
CONTINUOUS
 62
     7
100
AcDbCircle
 10
672.97171
 20
279.4
 30
0.0
 40
2.0
100
AcDbArc
 50
90.0
 51
180.0
  0
LINE
  5
494
100
AcDbEntity
  8
LAY-1
  6
CONTINUOUS
 62
     7
100
AcDbLine
 10
671.763128
 20
277.083128
 30
0.0
 11
678.517323
 21
270.328932
 31
0.0
  0
ARC
  5
495
100
AcDbEntity
  8
LAY-1
  6
CONTINUOUS
 62
     7
100
AcDbCircle
 10
703.040602
 20
215.070835
 30
0.0
 40
1.5
100
AcDbArc
 50
300.0
 51
0.0
  0
ARC
  5
496
100
AcDbEntity
  8
LAY-1
  6
CONTINUOUS
 62
     7
100
AcDbCircle
 10
699.790602
 20
220.7
 30
0.0
 40
8.0
100
AcDbArc
 50
270.0
 51
300.0
  0
LINE
  5
497
100
AcDbEntity
  8
LAY-1
  6
CONTINUOUS
 62
     7
100
AcDbLine
 10
704.540602
 20
215.070835
 30
0.0
 11
704.540602
 21
216.4
 31
0.0
  0
ARC
  5
498
100
AcDbEntity
  8
LAY-1
  6
CONTINUOUS
 62
     7
100
AcDbCircle
 10
696.540602
 20
215.070835
 30
0.0
 40
1.5
100
AcDbArc
 50
180.0
 51
240.0
  0
ARC
  5
499
100
AcDbEntity
  8
LAY-1
  6
CONTINUOUS
 62
     7
100
AcDbCircle
 10
699.790602
 20
220.7
 30
0.0
 40
8.0
100
AcDbArc
 50
240.0
 51
270.0
  0
LINE
  5
49A
100
AcDbEntity
  8
LAY-1
  6
CONTINUOUS
 62
     7
100
AcDbLine
 10
695.040602
 20
215.070835
 30
0.0
 11
695.040602
 21
216.4
 31
0.0
  0
ARC
  5
49B
100
AcDbEntity
  8
LAY-1
  6
CONTINUOUS
 62
     7
100
AcDbCircle
 10
748.159398
 20
215.070835
 30
0.0
 40
1.5
100
AcDbArc
 50
180.0
 51
240.0
  0
ARC
  5
49C
100
AcDbEntity
  8
LAY-1
  6
CONTINUOUS
 62
     7
100
AcDbCircle
 10
751.409398
 20
220.7
 30
0.0
 40
8.0
100
AcDbArc
 50
240.0
 51
270.0
  0
LINE
  5
49D
100
AcDbEntity
  8
LAY-1
  6
CONTINUOUS
 62
     7
100
AcDbLine
 10
746.659398
 20
215.070835
 30
0.0
 11
746.659398
 21
216.4
 31
0.0
  0
ARC
  5
49E
100
AcDbEntity
  8
LAY-1
  6
CONTINUOUS
 62
     7
100
AcDbCircle
 10
754.659398
 20
215.070835
 30
0.0
 40
1.5
100
AcDbArc
 50
300.0
 51
0.0
  0
ARC
  5
49F
100
AcDbEntity
  8
LAY-1
  6
CONTINUOUS
 62
     7
100
AcDbCircle
 10
751.409398
 20
220.7
 30
0.0
 40
8.0
100
AcDbArc
 50
270.0
 51
300.0
  0
LINE
  5
4A0
100
AcDbEntity
  8
LAY-1
  6
CONTINUOUS
 62
     7
100
AcDbLine
 10
756.159398
 20
215.070835
 30
0.0
 11
756.159398
 21
216.4
 31
0.0
  0
CIRCLE
  5
4A1
100
AcDbEntity
  8
LAY-1
  6
CONTINUOUS
 62
     7
100
AcDbCircle
 10
725.6
 20
305.4
 30
0.0
 40
10.0
  0
ARC
  5
4A2
100
AcDbEntity
  8
LAY-1
  6
CONTINUOUS
 62
     7
100
AcDbCircle
 10
713.249573
 20
295.4
 30
0.0
 40
2.0
100
AcDbArc
 50
270.0
 51
358.0
  0
LINE
  5
4A3
100
AcDbEntity
  8
LAY-1
  6
CONTINUOUS
 62
     7
100
AcDbLine
 10
715.248355
 20
295.330201
 30
0.0
 11
715.6
 21
305.4
 31
0.0
  0
LINE
  5
4A4
100
AcDbEntity
  8
LAY-1
  6
CONTINUOUS
 62
     7
100
AcDbLine
 10
735.951645
 20
295.330201
 30
0.0
 11
735.6
 21
305.4
 31
0.0
  0
ARC
  5
4A5
100
AcDbEntity
  8
LAY-1
  6
CONTINUOUS
 62
     7
100
AcDbCircle
 10
737.950427
 20
295.4
 30
0.0
 40
2.0
100
AcDbArc
 50
182.0
 51
270.0
  0
CIRCLE
  5
4A6
100
AcDbEntity
  8
LAY-1
  6
CONTINUOUS
 62
     7
100
AcDbCircle
 10
725.6
 20
305.4
 30
0.0
 40
1.0
  0
CIRCLE
  5
4A7
100
AcDbEntity
  8
LAY-1
  6
CONTINUOUS
 62
     7
100
AcDbCircle
 10
725.6
 20
305.4
 30
0.0
 40
5.6
  0
CIRCLE
  5
4A8
100
AcDbEntity
  8
LAY-1
  6
CONTINUOUS
 62
     7
100
AcDbCircle
 10
725.6
 20
305.4
 30
0.0
 40
6.75
  0
CIRCLE
  5
4A9
100
AcDbEntity
  8
LAY-1
  6
CONTINUOUS
 62
     7
100
AcDbCircle
 10
725.6
 20
305.4
 30
0.0
 40
8.507203
  0
LINE
  5
4AA
100
AcDbEntity
  8
LAY-1
  6
EXLTYPE3
 62
     1
100
AcDbLine
 10
710.6
 20
305.4
 30
0.0
 11
741.2
 21
305.4
 31
0.0
  0
LINE
  5
4AB
100
AcDbEntity
  8
LAY-1
  6
CONTINUOUS
 62
     7
100
AcDbLine
 10
746.993052
 20
306.237075
 30
0.0
 11
735.564904
 21
306.237075
 31
0.0
  0
LINE
  5
4AC
100
AcDbEntity
  8
LAY-1
  6
CONTINUOUS
 62
     7
100
AcDbLine
 10
704.206948
 20
306.237075
 30
0.0
 11
715.635096
 21
306.237075
 31
0.0
  0
LINE
  5
4AD
100
AcDbEntity
  8
LAY-1
  6
CONTINUOUS
 62
     7
100
AcDbLine
 10
717.531378
 20
252.4
 30
0.0
 11
733.668622
 21
252.4
 31
0.0
  0
ARC
  5
4AE
100
AcDbEntity
  8
LAY-1
  6
CONTINUOUS
 62
     7
100
AcDbCircle
 10
717.531378
 20
254.4
 30
0.0
 40
2.0
100
AcDbArc
 50
182.0
 51
270.0
  0
LINE
  5
4AF
100
AcDbEntity
  8
LAY-1
  6
CONTINUOUS
 62
     7
100
AcDbLine
 10
714.650722
 20
279.583775
 30
0.0
 11
715.532596
 21
254.330201
 31
0.0
  0
ARC
  5
4B0
100
AcDbEntity
  8
LAY-1
  6
CONTINUOUS
 62
     7
100
AcDbCircle
 10
712.65194
 20
279.513976
 30
0.0
 40
2.0
100
AcDbArc
 50
2.0
 51
76.28957
  0
ARC
  5
4B1
100
AcDbEntity
  8
LAY-1
  6
CONTINUOUS
 62
     7
100
AcDbCircle
 10
733.668622
 20
254.4
 30
0.0
 40
2.0
100
AcDbArc
 50
270.0
 51
358.0
  0
LINE
  5
4B2
100
AcDbEntity
  8
LAY-1
  6
CONTINUOUS
 62
     7
100
AcDbLine
 10
736.549278
 20
279.583775
 30
0.0
 11
735.667404
 21
254.330201
 31
0.0
  0
ARC
  5
4B3
100
AcDbEntity
  8
LAY-1
  6
CONTINUOUS
 62
     7
100
AcDbCircle
 10
738.54806
 20
279.513976
 30
0.0
 40
2.0
100
AcDbArc
 50
103.71043
 51
178.0
  0
LINE
  5
4B4
100
AcDbEntity
  8
LAY-1
  6
CONTINUOUS
 62
     7
100
AcDbLine
 10
765.611609
 20
267.4
 30
0.0
 11
736.123812
 21
267.4
 31
0.0
  0
LINE
  5
4B5
100
AcDbEntity
  8
LAY-1
  6
CONTINUOUS
 62
     7
100
AcDbLine
 10
685.588391
 20
267.4
 30
0.0
 11
715.076188
 21
267.4
 31
0.0
  0
CIRCLE
  5
4B6
100
AcDbEntity
  8
LAY-1
  6
CONTINUOUS
 62
     7
100
AcDbCircle
 10
350.09174
 20
41.87171
 30
0.0
 40
2.067
  0
CIRCLE
  5
4B7
100
AcDbEntity
  8
LAY-1
  6
CONTINUOUS
 62
     1
100
AcDbCircle
 10
350.09174
 20
41.87171
 30
0.0
 40
2.5
  0
CIRCLE
  5
4B8
100
AcDbEntity
  8
LAY-1
  6
CONTINUOUS
 62
     7
100
AcDbCircle
 10
301.10826
 20
41.87171
 30
0.0
 40
2.067
  0
CIRCLE
  5
4B9
100
AcDbEntity
  8
LAY-1
  6
CONTINUOUS
 62
     1
100
AcDbCircle
 10
301.10826
 20
41.87171
 30
0.0
 40
2.5
  0
CIRCLE
  5
4BA
100
AcDbEntity
  8
LAY-1
  6
CONTINUOUS
 62
     7
100
AcDbCircle
 10
350.09174
 20
160.12829
 30
0.0
 40
2.067
  0
CIRCLE
  5
4BB
100
AcDbEntity
  8
LAY-1
  6
CONTINUOUS
 62
     1
100
AcDbCircle
 10
350.09174
 20
160.12829
 30
0.0
 40
2.5
  0
CIRCLE
  5
4BC
100
AcDbEntity
  8
LAY-1
  6
CONTINUOUS
 62
     7
100
AcDbCircle
 10
301.10826
 20
160.12829
 30
0.0
 40
2.067
  0
CIRCLE
  5
4BD
100
AcDbEntity
  8
LAY-1
  6
CONTINUOUS
 62
     1
100
AcDbCircle
 10
301.10826
 20
160.12829
 30
0.0
 40
2.5
  0
LINE
  5
4BE
100
AcDbEntity
  8
LAY-1
  6
CONTINUOUS
 62
     7
100
AcDbLine
 10
546.960427
 20
306.237075
 30
0.0
 11
525.567375
 21
306.237075
 31
0.0
  0
LINE
  5
4BF
100
AcDbEntity
  8
LAY-1
  6
CONTINUOUS
 62
     7
100
AcDbLine
 10
146.960427
 20
306.237075
 30
0.0
 11
125.567375
 21
306.237075
 31
0.0
  0
LINE
  5
4C0
100
AcDbEntity
  8
LAY-1
  6
CONTINUOUS
 62
     7
100
AcDbLine
 10
504.239573
 20
306.237075
 30
0.0
 11
525.632625
 21
306.237075
 31
0.0
  0
LINE
  5
4C1
100
AcDbEntity
  8
LAY-1
  6
CONTINUOUS
 62
     7
100
AcDbLine
 10
104.239573
 20
306.237075
 30
0.0
 11
125.632625
 21
306.237075
 31
0.0
  0
LINE
  5
4C2
100
AcDbEntity
  8
LAY-2
  6
CONTINUOUS
 62
     7
100
AcDbLine
 10
814.9
 20
249.4
 30
0.0
 11
814.9
 21
253.4
 31
0.0
  0
LINE
  5
4C3
100
AcDbEntity
  8
LAY-2
  6
CONTINUOUS
 62
     7
100
AcDbLine
 10
804.9
 20
249.4
 30
0.0
 11
814.9
 21
249.4
 31
0.0
  0
LINE
  5
4C4
100
AcDbEntity
  8
LAY-2
  6
CONTINUOUS
 62
     7
100
AcDbLine
 10
814.9
 20
253.4
 30
0.0
 11
804.9
 21
253.4
 31
0.0
  0
LINE
  5
4C5
100
AcDbEntity
  8
LAY-2
  6
CONTINUOUS
 62
     7
100
AcDbLine
 10
804.9
 20
253.4
 30
0.0
 11
804.9
 21
256.4
 31
0.0
  0
LINE
  5
4C6
100
AcDbEntity
  8
LAY-2
  6
CONTINUOUS
 62
     7
100
AcDbLine
 10
804.9
 20
256.4
 30
0.0
 11
799.9
 21
251.4
 31
0.0
  0
LINE
  5
4C7
100
AcDbEntity
  8
LAY-2
  6
CONTINUOUS
 62
     7
100
AcDbLine
 10
799.9
 20
251.4
 30
0.0
 11
804.9
 21
246.4
 31
0.0
  0
LINE
  5
4C8
100
AcDbEntity
  8
LAY-2
  6
CONTINUOUS
 62
     7
100
AcDbLine
 10
804.9
 20
246.4
 30
0.0
 11
804.9
 21
249.4
 31
0.0
  0
LINE
  5
4C9
100
AcDbEntity
  8
LAY-2
  6
CONTINUOUS
 62
     7
100
AcDbLine
 10
641.398447
 20
249.4
 30
0.0
 11
651.398447
 21
249.4
 31
0.0
  0
LINE
  5
4CA
100
AcDbEntity
  8
LAY-2
  6
CONTINUOUS
 62
     7
100
AcDbLine
 10
641.398447
 20
246.4
 30
0.0
 11
641.398447
 21
249.4
 31
0.0
  0
LINE
  5
4CB
100
AcDbEntity
  8
LAY-2
  6
CONTINUOUS
 62
     7
100
AcDbLine
 10
636.398447
 20
251.4
 30
0.0
 11
641.398447
 21
246.4
 31
0.0
  0
LINE
  5
4CC
100
AcDbEntity
  8
LAY-2
  6
CONTINUOUS
 62
     7
100
AcDbLine
 10
641.398447
 20
256.4
 30
0.0
 11
636.398447
 21
251.4
 31
0.0
  0
LINE
  5
4CD
100
AcDbEntity
  8
LAY-2
  6
CONTINUOUS
 62
     7
100
AcDbLine
 10
641.398447
 20
253.4
 30
0.0
 11
641.398447
 21
256.4
 31
0.0
  0
LINE
  5
4CE
100
AcDbEntity
  8
LAY-2
  6
CONTINUOUS
 62
     7
100
AcDbLine
 10
651.398447
 20
253.4
 30
0.0
 11
641.398447
 21
253.4
 31
0.0
  0
LINE
  5
4CF
100
AcDbEntity
  8
LAY-2
  6
CONTINUOUS
 62
     7
100
AcDbLine
 10
651.398447
 20
249.4
 30
0.0
 11
651.398447
 21
253.4
 31
0.0
  0
LINE
  5
4D0
100
AcDbEntity
  8
LAY-2
  6
CONTINUOUS
 62
     7
100
AcDbLine
 10
408.401553
 20
246.4
 30
0.0
 11
408.401553
 21
249.4
 31
0.0
  0
LINE
  5
4D1
100
AcDbEntity
  8
LAY-2
  6
CONTINUOUS
 62
     7
100
AcDbLine
 10
413.401553
 20
251.4
 30
0.0
 11
408.401553
 21
246.4
 31
0.0
  0
LINE
  5
4D2
100
AcDbEntity
  8
LAY-2
  6
CONTINUOUS
 62
     7
100
AcDbLine
 10
408.401553
 20
256.4
 30
0.0
 11
413.401553
 21
251.4
 31
0.0
  0
LINE
  5
4D3
100
AcDbEntity
  8
LAY-2
  6
CONTINUOUS
 62
     7
100
AcDbLine
 10
408.401553
 20
253.4
 30
0.0
 11
408.401553
 21
256.4
 31
0.0
  0
LINE
  5
4D4
100
AcDbEntity
  8
LAY-2
  6
CONTINUOUS
 62
     7
100
AcDbLine
 10
408.401553
 20
249.4
 30
0.0
 11
398.401553
 21
249.4
 31
0.0
  0
LINE
  5
4D5
100
AcDbEntity
  8
LAY-2
  6
CONTINUOUS
 62
     7
100
AcDbLine
 10
398.401553
 20
253.4
 30
0.0
 11
408.401553
 21
253.4
 31
0.0
  0
LINE
  5
4D6
100
AcDbEntity
  8
LAY-2
  6
CONTINUOUS
 62
     7
100
AcDbLine
 10
398.401553
 20
249.4
 30
0.0
 11
398.401553
 21
253.4
 31
0.0
  0
LINE
  5
4D7
100
AcDbEntity
  8
LAY-2
  6
CONTINUOUS
 62
     7
100
AcDbLine
 10
236.3
 20
249.4
 30
0.0
 11
236.3
 21
253.4
 31
0.0
  0
LINE
  5
4D8
100
AcDbEntity
  8
LAY-2
  6
CONTINUOUS
 62
     7
100
AcDbLine
 10
246.3
 20
249.4
 30
0.0
 11
236.3
 21
249.4
 31
0.0
  0
LINE
  5
4D9
100
AcDbEntity
  8
LAY-2
  6
CONTINUOUS
 62
     7
100
AcDbLine
 10
236.3
 20
253.4
 30
0.0
 11
246.3
 21
253.4
 31
0.0
  0
LINE
  5
4DA
100
AcDbEntity
  8
LAY-2
  6
CONTINUOUS
 62
     7
100
AcDbLine
 10
246.3
 20
253.4
 30
0.0
 11
246.3
 21
256.4
 31
0.0
  0
LINE
  5
4DB
100
AcDbEntity
  8
LAY-2
  6
CONTINUOUS
 62
     7
100
AcDbLine
 10
246.3
 20
256.4
 30
0.0
 11
251.3
 21
251.4
 31
0.0
  0
LINE
  5
4DC
100
AcDbEntity
  8
LAY-2
  6
CONTINUOUS
 62
     7
100
AcDbLine
 10
251.3
 20
251.4
 30
0.0
 11
246.3
 21
246.4
 31
0.0
  0
LINE
  5
4DD
100
AcDbEntity
  8
LAY-2
  6
CONTINUOUS
 62
     7
100
AcDbLine
 10
246.3
 20
246.4
 30
0.0
 11
246.3
 21
249.4
 31
0.0
  0
POLYLINE
  5
4DE
100
AcDbEntity
  8
LAY-2
  6
CONTINUOUS
 62
     1
100
AcDb2dPolyline
 66
     1
 10
0.0
 20
0.0
 30
0.0
 70
   128
  0
VERTEX
  5
4DF
100
AcDbEntity
  8
LAY-2
  6
CONTINUOUS
 62
     1
100
AcDbVertex
100
AcDb2dVertex
 10
795.6
 20
255.4
 30
0.0
  0
VERTEX
  5
4E0
100
AcDbEntity
  8
LAY-2
  6
CONTINUOUS
 62
     1
100
AcDbVertex
100
AcDb2dVertex
 10
813.25
 20
273.05
 30
0.0
  0
VERTEX
  5
4E1
100
AcDbEntity
  8
LAY-2
  6
CONTINUOUS
 62
     1
100
AcDbVertex
100
AcDb2dVertex
 10
842.9
 20
273.05
 30
0.0
  0
SEQEND
  5
4E2
100
AcDbEntity
  8
LAY-2
  6
CONTINUOUS
 62
     1
  0
LINE
  5
4E3
100
AcDbEntity
  8
LAY-2
  6
CONTINUOUS
 62
     1
100
AcDbLine
 10
797.957023
 20
258.699832
 30
0.0
 11
795.6
 21
255.4
 31
0.0
  0
LINE
  5
4E4
100
AcDbEntity
  8
LAY-2
  6
CONTINUOUS
 62
     1
100
AcDbLine
 10
795.6
 20
255.4
 30
0.0
 11
798.899832
 21
257.757023
 31
0.0
  0
TEXT
  5
4E5
100
AcDbEntity
  8
LAY-2
  6
CONTINUOUS
 62
     3
100
AcDbText
 10
813.775
 20
273.35
 30
0.0
 40
10.0
  1
Ｒｃ１
 41
0.84
  7
EXCADSTD
 72
     5
 11
843.775
 21
273.35
 31
0.0
100
AcDbText
  0
TEXT
  5
4E6
100
AcDbEntity
  8
LAY-2
  6
CONTINUOUS
 62
     3
100
AcDbText
 10
607.425
 20
273.35
 30
0.0
 40
10.0
  1
Ｒｃ１
 41
0.84
  7
EXCADSTD
 72
     5
 11
637.425
 21
273.35
 31
0.0
100
AcDbText
  0
POLYLINE
  5
4E7
100
AcDbEntity
  8
LAY-2
  6
CONTINUOUS
 62
     1
100
AcDb2dPolyline
 66
     1
 10
0.0
 20
0.0
 30
0.0
 70
   128
  0
VERTEX
  5
4E8
100
AcDbEntity
  8
LAY-2
  6
CONTINUOUS
 62
     1
100
AcDbVertex
100
AcDb2dVertex
 10
655.6
 20
255.4
 30
0.0
  0
VERTEX
  5
4E9
100
AcDbEntity
  8
LAY-2
  6
CONTINUOUS
 62
     1
100
AcDbVertex
100
AcDb2dVertex
 10
637.95
 20
273.05
 30
0.0
  0
VERTEX
  5
4EA
100
AcDbEntity
  8
LAY-2
  6
CONTINUOUS
 62
     1
100
AcDbVertex
100
AcDb2dVertex
 10
608.3
 20
273.05
 30
0.0
  0
SEQEND
  5
4EB
100
AcDbEntity
  8
LAY-2
  6
CONTINUOUS
 62
     1
  0
LINE
  5
4EC
100
AcDbEntity
  8
LAY-2
  6
CONTINUOUS
 62
     1
100
AcDbLine
 10
652.300168
 20
257.757023
 30
0.0
 11
655.6
 21
255.4
 31
0.0
  0
LINE
  5
4ED
100
AcDbEntity
  8
LAY-2
  6
CONTINUOUS
 62
     1
100
AcDbLine
 10
655.6
 20
255.4
 30
0.0
 11
653.242977
 21
258.699832
 31
0.0
  0
TEXT
  5
4EE
100
AcDbEntity
  8
LAY-2
  6
CONTINUOUS
 62
     3
100
AcDbText
 10
747.575
 20
326.55
 30
0.0
 40
10.0
  1
Ｒｃ１／４
 41
0.84
  7
EXCADSTD
 72
     5
 11
797.575
 21
326.55
 31
0.0
100
AcDbText
  0
POLYLINE
  5
4EF
100
AcDbEntity
  8
LAY-2
  6
CONTINUOUS
 62
     1
100
AcDb2dPolyline
 66
     1
 10
0.0
 20
0.0
 30
0.0
 70
   128
  0
VERTEX
  5
4F0
100
AcDbEntity
  8
LAY-2
  6
CONTINUOUS
 62
     1
100
AcDbVertex
100
AcDb2dVertex
 10
730.3
 20
308.6
 30
0.0
  0
VERTEX
  5
4F1
100
AcDbEntity
  8
LAY-2
  6
CONTINUOUS
 62
     1
100
AcDbVertex
100
AcDb2dVertex
 10
747.95
 20
326.25
 30
0.0
  0
VERTEX
  5
4F2
100
AcDbEntity
  8
LAY-2
  6
CONTINUOUS
 62
     1
100
AcDbVertex
100
AcDb2dVertex
 10
794.6
 20
326.25
 30
0.0
  0
SEQEND
  5
4F3
100
AcDbEntity
  8
LAY-2
  6
CONTINUOUS
 62
     1
  0
LINE
  5
4F4
100
AcDbEntity
  8
LAY-2
  6
CONTINUOUS
 62
     1
100
AcDbLine
 10
732.657023
 20
311.899832
 30
0.0
 11
730.3
 21
308.6
 31
0.0
  0
LINE
  5
4F5
100
AcDbEntity
  8
LAY-2
  6
CONTINUOUS
 62
     1
100
AcDbLine
 10
730.3
 20
308.6
 30
0.0
 11
733.599832
 21
310.957023
 31
0.0
  0
TEXT
  5
4F6
100
AcDbEntity
  8
LAY-2
  6
CONTINUOUS
 62
     3
100
AcDbText
 10
710.6
 20
187.2
 30
0.0
 40
10.0
  1
１４０
 41
0.84
  7
EXCADSTD
 72
     5
 11
740.6
 21
187.2
 31
0.0
100
AcDbText
  0
LINE
  5
4F7
100
AcDbEntity
  8
LAY-2
  6
CONTINUOUS
 62
     1
100
AcDbLine
 10
655.6
 20
230.4
 30
0.0
 11
655.6
 21
185.7
 31
0.0
  0
LINE
  5
4F8
100
AcDbEntity
  8
LAY-2
  6
CONTINUOUS
 62
     1
100
AcDbLine
 10
795.6
 20
230.4
 30
0.0
 11
795.6
 21
185.7
 31
0.0
  0
LINE
  5
4F9
100
AcDbEntity
  8
LAY-2
  6
CONTINUOUS
 62
     1
100
AcDbLine
 10
655.6
 20
186.2
 30
0.0
 11
795.6
 21
186.2
 31
0.0
  0
LINE
  5
4FA
100
AcDbEntity
  8
LAY-2
  6
CONTINUOUS
 62
     1
100
AcDbLine
 10
659.6
 20
186.866667
 30
0.0
 11
655.6
 21
186.2
 31
0.0
  0
LINE
  5
4FB
100
AcDbEntity
  8
LAY-2
  6
CONTINUOUS
 62
     1
100
AcDbLine
 10
655.6
 20
186.2
 30
0.0
 11
659.6
 21
185.533333
 31
0.0
  0
LINE
  5
4FC
100
AcDbEntity
  8
LAY-2
  6
CONTINUOUS
 62
     1
100
AcDbLine
 10
791.6
 20
185.533333
 30
0.0
 11
795.6
 21
186.2
 31
0.0
  0
LINE
  5
4FD
100
AcDbEntity
  8
LAY-2
  6
CONTINUOUS
 62
     1
100
AcDbLine
 10
795.6
 20
186.2
 30
0.0
 11
791.6
 21
186.866667
 31
0.0
  0
TEXT
  5
4FE
100
AcDbEntity
  8
LAY-2
  6
CONTINUOUS
 62
     3
100
AcDbText
 10
705.6
 20
381.0
 30
0.0
 40
10.0
  1
φ
 41
0.84
  7
EXCADSTD
 72
     5
 11
713.6
 21
381.0
 31
0.0
100
AcDbText
  0
TEXT
  5
4FF
100
AcDbEntity
  8
LAY-2
  6
CONTINUOUS
 62
     3
100
AcDbText
 10
715.6
 20
381.0
 30
0.0
 40
10.0
  1
１３８
 41
0.84
  7
EXCADSTD
 72
     5
 11
745.6
 21
381.0
 31
0.0
100
AcDbText
  0
LINE
  5
500
100
AcDbEntity
  8
LAY-2
  6
CONTINUOUS
 62
     1
100
AcDbLine
 10
794.6
 20
292.4
 30
0.0
 11
794.6
 21
380.5
 31
0.0
  0
LINE
  5
501
100
AcDbEntity
  8
LAY-2
  6
CONTINUOUS
 62
     1
100
AcDbLine
 10
656.6
 20
292.4
 30
0.0
 11
656.6
 21
380.5
 31
0.0
  0
LINE
  5
502
100
AcDbEntity
  8
LAY-2
  6
CONTINUOUS
 62
     1
100
AcDbLine
 10
794.6
 20
380.0
 30
0.0
 11
656.6
 21
380.0
 31
0.0
  0
LINE
  5
503
100
AcDbEntity
  8
LAY-2
  6
CONTINUOUS
 62
     1
100
AcDbLine
 10
790.6
 20
379.333333
 30
0.0
 11
794.6
 21
380.0
 31
0.0
  0
LINE
  5
504
100
AcDbEntity
  8
LAY-2
  6
CONTINUOUS
 62
     1
100
AcDbLine
 10
794.6
 20
380.0
 30
0.0
 11
790.6
 21
380.666667
 31
0.0
  0
LINE
  5
505
100
AcDbEntity
  8
LAY-2
  6
CONTINUOUS
 62
     1
100
AcDbLine
 10
660.6
 20
380.666667
 30
0.0
 11
656.6
 21
380.0
 31
0.0
  0
LINE
  5
506
100
AcDbEntity
  8
LAY-2
  6
CONTINUOUS
 62
     1
100
AcDbLine
 10
656.6
 20
380.0
 30
0.0
 11
660.6
 21
379.333333
 31
0.0
  0
TEXT
  5
507
100
AcDbEntity
  8
LAY-2
  6
CONTINUOUS
 62
     3
100
AcDbText
 10
855.3
 20
222.4
 30
0.0
 40
10.0
  1
３８
 50
90.0
 41
0.84
  7
EXCADSTD
 72
     5
 11
855.3
 21
240.732
 31
0.0
100
AcDbText
  0
LINE
  5
508
100
AcDbEntity
  8
LAY-2
  6
CONTINUOUS
 62
     1
100
AcDbLine
 10
795.6
 20
251.4
 30
0.0
 11
856.8
 21
251.4
 31
0.0
  0
LINE
  5
509
100
AcDbEntity
  8
LAY-2
  6
CONTINUOUS
 62
     1
100
AcDbLine
 10
725.6
 20
213.4
 30
0.0
 11
856.8
 21
213.4
 31
0.0
  0
LINE
  5
50A
100
AcDbEntity
  8
LAY-2
  6
CONTINUOUS
 62
     1
100
AcDbLine
 10
856.3
 20
251.4
 30
0.0
 11
856.3
 21
213.4
 31
0.0
  0
LINE
  5
50B
100
AcDbEntity
  8
LAY-2
  6
CONTINUOUS
 62
     1
100
AcDbLine
 10
856.966667
 20
247.4
 30
0.0
 11
856.3
 21
251.4
 31
0.0
  0
LINE
  5
50C
100
AcDbEntity
  8
LAY-2
  6
CONTINUOUS
 62
     1
100
AcDbLine
 10
856.3
 20
251.4
 30
0.0
 11
855.633333
 21
247.4
 31
0.0
  0
LINE
  5
50D
100
AcDbEntity
  8
LAY-2
  6
CONTINUOUS
 62
     1
100
AcDbLine
 10
855.633333
 20
217.4
 30
0.0
 11
856.3
 21
213.4
 31
0.0
  0
LINE
  5
50E
100
AcDbEntity
  8
LAY-2
  6
CONTINUOUS
 62
     1
100
AcDbLine
 10
856.3
 20
213.4
 30
0.0
 11
856.966667
 21
217.4
 31
0.0
  0
TEXT
  5
50F
100
AcDbEntity
  8
LAY-2
  6
CONTINUOUS
 62
     3
100
AcDbText
 10
855.3
 20
287.65
 30
0.0
 40
10.0
  1
１１７.５
 50
90.0
 41
0.7848
  7
EXCADSTD
 72
     5
 11
855.3
 21
332.65
 31
0.0
100
AcDbText
  0
LINE
  5
510
100
AcDbEntity
  8
LAY-2
  6
CONTINUOUS
 62
     1
100
AcDbLine
 10
795.6
 20
251.4
 30
0.0
 11
856.8
 21
251.4
 31
0.0
  0
LINE
  5
511
100
AcDbEntity
  8
LAY-2
  6
CONTINUOUS
 62
     1
100
AcDbLine
 10
725.6
 20
368.9
 30
0.0
 11
856.8
 21
368.9
 31
0.0
  0
LINE
  5
512
100
AcDbEntity
  8
LAY-2
  6
CONTINUOUS
 62
     1
100
AcDbLine
 10
856.3
 20
251.4
 30
0.0
 11
856.3
 21
368.9
 31
0.0
  0
LINE
  5
513
100
AcDbEntity
  8
LAY-2
  6
CONTINUOUS
 62
     1
100
AcDbLine
 10
855.633333
 20
255.4
 30
0.0
 11
856.3
 21
251.4
 31
0.0
  0
LINE
  5
514
100
AcDbEntity
  8
LAY-2
  6
CONTINUOUS
 62
     1
100
AcDbLine
 10
856.3
 20
251.4
 30
0.0
 11
856.966667
 21
255.4
 31
0.0
  0
LINE
  5
515
100
AcDbEntity
  8
LAY-2
  6
CONTINUOUS
 62
     1
100
AcDbLine
 10
856.966667
 20
364.9
 30
0.0
 11
856.3
 21
368.9
 31
0.0
  0
LINE
  5
516
100
AcDbEntity
  8
LAY-2
  6
CONTINUOUS
 62
     1
100
AcDbLine
 10
856.3
 20
368.9
 30
0.0
 11
855.633333
 21
364.9
 31
0.0
  0
TEXT
  5
517
100
AcDbEntity
  8
LAY-2
  6
CONTINUOUS
 62
     3
100
AcDbText
 10
525.82
 20
91.38
 30
0.0
 40
10.0
  1
型式
 41
0.984714
  7
EXCADSTD
 72
     5
 11
547.310203
 21
91.38
 31
0.0
100
AcDbText
  0
TEXT
  5
518
100
AcDbEntity
  8
LAY-2
  6
CONTINUOUS
 62
     3
100
AcDbText
 10
525.58
 20
77.3
 30
0.0
 40
10.0
  1
品名
 41
0.984714
  7
EXCADSTD
 72
     5
 11
547.070203
 21
77.3
 31
0.0
100
AcDbText
  0
LINE
  5
519
100
AcDbEntity
  8
LAY-2
  6
CONTINUOUS
 62
     4
100
AcDbLine
 10
521.1
 20
63.1
 30
0.0
 11
700.3
 21
63.1
 31
0.0
  0
LINE
  5
51A
100
AcDbEntity
  8
LAY-2
  6
CONTINUOUS
 62
     1
100
AcDbLine
 10
521.1
 20
75.3
 30
0.0
 11
700.3
 21
75.3
 31
0.0
  0
TEXT
  5
51B
100
AcDbEntity
  8
LAY-2
  6
CONTINUOUS
 62
     3
100
AcDbText
 10
584.78
 20
64.42
 30
0.0
 40
10.0
  1
外観図
 41
1.47392
  7
EXCADSTD
 72
     5
 11
637.419999
 21
64.42
 31
0.0
100
AcDbText
  0
LINE
  5
51C
100
AcDbEntity
  8
LAY-2
  6
CONTINUOUS
 62
     4
100
AcDbLine
 10
521.1
 20
117.3
 30
0.0
 11
700.3
 21
117.3
 31
0.0
  0
LINE
  5
51D
100
AcDbEntity
  8
LAY-2
  6
CONTINUOUS
 62
     1
100
AcDbLine
 10
521.1
 20
89.3
 30
0.0
 11
700.3
 21
89.3
 31
0.0
  0
LINE
  5
51E
100
AcDbEntity
  8
LAY-2
  6
CONTINUOUS
 62
     1
100
AcDbLine
 10
521.1
 20
103.3
 30
0.0
 11
700.3
 21
103.3
 31
0.0
  0
LINE
  5
51F
100
AcDbEntity
  8
LAY-2
  6
CONTINUOUS
 62
     1
100
AcDbLine
 10
551.1
 20
117.3
 30
0.0
 11
551.1
 21
75.3
 31
0.0
  0
LINE
  5
520
100
AcDbEntity
  8
LAY-2
  6
CONTINUOUS
 62
     4
100
AcDbLine
 10
521.1
 20
50.9
 30
0.0
 11
700.3
 21
50.9
 31
0.0
  0
LINE
  5
521
100
AcDbEntity
  8
LAY-2
  6
CONTINUOUS
 62
     4
100
AcDbLine
 10
700.3
 20
50.9
 30
0.0
 11
700.3
 21
117.3
 31
0.0
  0
LINE
  5
522
100
AcDbEntity
  8
LAY-2
  6
CONTINUOUS
 62
     4
100
AcDbLine
 10
521.1
 20
50.9
 30
0.0
 11
521.1
 21
117.3
 31
0.0
  0
TEXT
  5
523
100
AcDbEntity
  8
LAY-2
  6
CONTINUOUS
 62
     3
100
AcDbText
 10
522.38
 20
105.06
 30
0.0
 40
10.0
  1
作成日
 41
0.84
  7
EXCADSTD
 72
     5
 11
552.38
 21
105.06
 31
0.0
100
AcDbText
  0
HATCH
  5
524
100
AcDbEntity
  8
LAY-2
  6
CONTINUOUS
 62
     3
100
AcDbHatch
 10
0.0
 20
0.0
 30
0.0
210
0.0
220
0.0
230
1.0
  2
SOLID
 70
     1
 71
     1
 91
        1
 92
        1
 93
       16
 72
     1
 10
647.22994968062198
 20
53.947928571428335
 11
649.12316396633628
 21
53.947928571428335
 72
     1
 10
649.12316396633628
 20
53.947928571428335
 11
649.12316396633628
 21
52.726499999999746
 72
     1
 10
649.12316396633628
 20
52.726499999999746
 11
644.05423539490766
 21
52.726499999999746
 72
     1
 10
644.05423539490766
 20
52.726499999999746
 11
644.05423539490766
 21
53.947928571428335
 72
     1
 10
644.05423539490766
 20
53.947928571428335
 11
646.00852110919345
 21
53.947928571428335
 72
     1
 10
646.00852110919345
 20
53.947928571428335
 11
646.00852110919345
 21
57.490071428571198
 72
     1
 10
646.00852110919345
 20
57.490071428571198
 11
644.48173539490767
 21
57.490071428571198
 72
     1
 10
644.48173539490767
 20
57.490071428571198
 11
644.48173539490767
 21
58.711499999999774
 72
     1
 10
644.48173539490767
 20
58.711499999999774
 11
646.00852110919345
 21
58.711499999999774
 72
     1
 10
646.00852110919345
 20
58.711499999999774
 11
646.00852110919345
 21
61.276499999999771
 72
     1
 10
646.00852110919345
 20
61.276499999999771
 11
647.22994968062198
 21
61.276499999999771
 72
     1
 10
647.22994968062198
 20
61.276499999999771
 11
647.22994968062198
 21
58.711499999999774
 72
     1
 10
647.22994968062198
 20
58.711499999999774
 11
649.00102110919352
 21
58.711499999999774
 72
     1
 10
649.00102110919352
 20
58.711499999999774
 11
649.00102110919352
 21
57.490071428571198
 72
     1
 10
649.00102110919352
 20
57.490071428571198
 11
647.22994968062198
 21
57.490071428571198
 72
     1
 10
647.22994968062198
 20
57.490071428571198
 11
647.22994968062198
 21
53.947928571428335
 97
        0
 75
     0
 76
     1
 98
        1
 10
0.0
 20
0.0
  0
HATCH
  5
525
100
AcDbEntity
  8
LAY-2
  6
CONTINUOUS
 62
     3
100
AcDbHatch
 10
0.0
 20
0.0
 30
0.0
210
0.0
220
0.0
230
1.0
  2
SOLID
 70
     1
 71
     1
 91
        1
 92
        1
 93
       17
 72
     2
 10
634.3976506919339
 20
63.647063396179789
 40
10.992857142857181
 50
44.165469
 51
51.472792
 73
     0
 72
     1
 10
641.24494968062208
 20
55.047214285714091
 11
640.62653862274919
 21
56.11833365791216
 72
     2
 10
634.3976506919339
 20
63.647063396179789
 40
9.7714285714286042
 50
309.602625
 51
331.307968
 73
     1
 72
     1
 10
642.96927422764134
 20
58.955785714285497
 11
640.93959253776484
 21
58.955785714285497
 72
     1
 10
640.93959253776484
 20
58.955785714285497
 11
640.93959253776484
 21
60.055071428571182
 72
     1
 10
640.93959253776484
 20
60.055071428571182
 11
642.28316396633636
 21
60.055071428571182
 72
     1
 10
642.28316396633636
 20
60.055071428571182
 11
642.28316396633636
 21
61.276499999999771
 72
     1
 10
642.28316396633636
 20
61.276499999999771
 11
643.38244968062213
 21
61.276499999999771
 72
     1
 10
643.38244968062213
 20
61.276499999999771
 11
643.38244968062213
 21
60.055071428571182
 72
     1
 10
643.38244968062213
 20
60.055071428571182
 11
644.78709253776492
 21
60.055071428571182
 72
     2
 10
634.3976506919339
 20
63.647063396179789
 40
10.992857142857181
 50
19.072051
 51
32.871988
 73
     0
 72
     1
 10
643.63039005035148
 20
57.680537430193255
 11
645.09244968062194
 21
56.268642857142638
 72
     1
 10
645.09244968062194
 20
56.268642857142638
 11
644.22863769228002
 21
55.404830868800644
 72
     1
 10
644.22863769228002
 20
55.404830868800644
 11
643.38244968062213
 21
56.221985133035119
 72
     1
 10
643.38244968062213
 20
56.221985133035119
 11
643.38244968062213
 21
52.726499999999746
 72
     1
 10
643.38244968062213
 20
52.726499999999746
 11
642.28316396633636
 21
52.726499999999746
 72
     1
 10
642.28316396633636
 20
52.726499999999746
 11
642.28316396633636
 21
55.987978035479728
 97
        0
 75
     0
 76
     1
 98
        1
 10
0.0
 20
0.0
  0
HATCH
  5
526
100
AcDbEntity
  8
LAY-2
  6
CONTINUOUS
 62
     3
100
AcDbHatch
 10
0.0
 20
0.0
 30
0.0
210
0.0
220
0.0
230
1.0
  2
SOLID
 70
     1
 71
     1
 91
        1
 92
        1
 93
       12
 72
     2
 10
649.84520331926637
 20
47.16085563993849
 40
17.222142857142913
 50
150.903074
 51
156.790773
 73
     1
 72
     1
 10
634.0168159846553
 20
53.947928571428236
 11
637.77731236603699
 21
53.947928571428378
 72
     2
 10
627.09520248375634
 20
50.876161415069106
 40
11.115000000000038
 50
16.043216
 51
21.362935
 73
     1
 72
     1
 10
637.44650929509976
 20
54.925071428571187
 11
638.61887825205054
 21
54.925071428571187
 72
     2
 10
627.09520248375634
 20
50.876161415069106
 40
12.214285714285756
 50
340.64078
 51
351.286733
 73
     0
 72
     1
 10
639.16852110919331
 20
52.726499999999746
 11
632.38959253776466
 21
52.726499999999746
 72
     2
 10
649.84520331926637
 20
47.16085563993849
 40
18.32142857142863
 50
197.684652
 51
207.200855
 73
     0
 72
     1
 10
633.54994968062192
 20
55.535785714285495
 11
631.83994968062211
 21
55.535785714285495
 72
     1
 10
631.83994968062211
 20
55.535785714285495
 11
631.83994968062211
 21
56.757214285714085
 72
     1
 10
631.83994968062211
 20
56.757214285714085
 11
639.65709253776504
 21
56.757214285714085
 72
     1
 10
639.65709253776504
 20
56.757214285714085
 11
639.65709253776504
 21
55.535785714285495
 72
     1
 10
639.65709253776504
 20
55.535785714285495
 11
634.79652394725395
 21
55.535785714285495
 97
        0
 75
     0
 76
     1
 98
        1
 10
0.0
 20
0.0
  0
HATCH
  5
527
100
AcDbEntity
  8
LAY-2
  6
CONTINUOUS
 62
     3
100
AcDbHatch
 10
0.0
 20
0.0
 30
0.0
210
0.0
220
0.0
230
1.0
  2
SOLID
 70
     1
 71
     1
 91
        1
 92
        1
 93
       10
 72
     2
 10
649.91845884811778
 20
73.598115326079622
 40
19.542857142857208
 50
129.545698
 51
136.474664
 73
     0
 72
     1
 10
635.74852110919392
 20
60.139433006433833
 11
635.74852110919392
 21
61.276499999999771
 72
     1
 10
635.74852110919392
 20
61.276499999999771
 11
636.35923539490796
 21
61.276499999999771
 72
     2
 10
649.91845884811778
 20
73.598115326079622
 40
18.32142857142863
 50
222.262231
 51
237.763996
 73
     1
 72
     1
 10
640.14566396633631
 20
58.100785714285507
 11
639.35374076534117
 21
57.157008394440837
 72
     2
 10
649.91845884811778
 20
73.598115326079622
 40
19.542857142857208
 50
122.723968
 51
128.230009
 73
     0
 72
     1
 10
637.82494968062201
 20
58.246558358728592
 11
637.82494968062201
 21
57.306857142856899
 72
     1
 10
637.82494968062201
 20
57.306857142856899
 11
635.74852110919392
 21
57.306857142856899
 72
     1
 10
635.74852110919392
 20
57.306857142856899
 11
635.74852110919392
 21
58.528285714285488
 72
     1
 10
635.74852110919392
 20
58.528285714285488
 11
637.47564964851904
 21
58.528285714285488
 97
        0
 75
     0
 76
     1
 98
        1
 10
0.0
 20
0.0
  0
HATCH
  5
528
100
AcDbEntity
  8
LAY-2
  6
CONTINUOUS
 62
     3
100
AcDbHatch
 10
0.0
 20
0.0
 30
0.0
210
0.0
220
0.0
230
1.0
  2
SOLID
 70
     1
 71
     1
 91
        1
 92
        1
 93
       10
 72
     2
 10
621.57858337026937
 20
73.598115326079622
 40
19.542857142857208
 50
51.769991
 51
57.276032
 73
     0
 72
     1
 10
632.14330145304575
 20
57.157008394440794
 11
631.35137825205061
 21
58.100785714285493
 72
     2
 10
621.57858337026937
 20
73.598115326079622
 40
18.32142857142863
 50
302.236004
 51
317.737769
 73
     1
 72
     1
 10
635.1378068234792
 20
61.276499999999771
 11
635.74852110919392
 21
61.276499999999771
 72
     1
 10
635.74852110919392
 20
61.276499999999771
 11
635.74852110919392
 21
60.139433006434572
 72
     2
 10
621.57858337026937
 20
73.598115326079622
 40
19.542857142857208
 50
43.525336
 51
50.454302
 73
     0
 72
     1
 10
634.02139256986788
 20
58.528285714285488
 11
635.74852110919392
 21
58.528285714285488
 72
     1
 10
635.74852110919392
 20
58.528285714285488
 11
635.74852110919392
 21
57.306857142856899
 72
     1
 10
635.74852110919392
 20
57.306857142856899
 11
633.67209253776491
 21
57.306857142856899
 72
     1
 10
633.67209253776491
 20
57.306857142856899
 11
633.67209253776491
 21
58.246558358728578
 97
        0
 75
     0
 76
     1
 98
        1
 10
0.0
 20
0.0
  0
HATCH
  5
529
100
AcDbEntity
  8
LAY-2
  6
CONTINUOUS
 62
     3
100
AcDbHatch
 10
0.0
 20
0.0
 30
0.0
210
0.0
220
0.0
230
1.0
  2
SOLID
 70
     1
 71
     1
 91
        1
 92
        1
 93
       18
 72
     2
 10
612.58901160460323
 20
55.787510394851822
 40
17.100000000000055
 50
14.02954
 51
18.723021
 73
     1
 72
     1
 10
628.78410324110177
 20
61.276499999999771
 11
630.06887825205058
 21
61.276499999999771
 72
     2
 10
612.58901160460323
 20
55.787510394851822
 40
18.32142857142863
 50
342.566782
 51
346.922981
 73
     0
 72
     1
 10
630.4353068234791
 20
59.932928571428363
 11
630.9238782520506
 21
59.932928571428363
 72
     1
 10
630.9238782520506
 20
59.932928571428363
 11
630.9238782520506
 21
58.711499999999759
 72
     1
 10
630.9238782520506
 20
58.711499999999759
 11
628.64036042422572
 21
58.711499999999774
 72
     2
 10
641.30602110919335
 20
60.726857142856929
 40
12.825000000000044
 50
189.041096
 51
204.65198
 73
     1
 72
     2
 10
632.20433549876884
 20
56.549787866048263
 40
2.8105809607212406
 50
204.65198
 51
242.897449
 73
     1
 72
     1
 10
630.9238782520506
 20
54.047829717698136
 11
630.9238782520506
 21
52.726499999999746
 72
     2
 10
632.20433549876884
 20
56.549787866048263
 40
4.0320095321498153
 50
108.516212
 51
155.34802
 73
     0
 72
     2
 10
641.30602110919335
 20
60.726857142856929
 40
14.046428571428615
 50
155.34802
 51
171.750831
 73
     0
 72
     1
 10
627.40492434674388
 20
58.711499999999774
 11
622.74030682347916
 21
58.711499999999759
 72
     1
 10
622.74030682347916
 20
58.711499999999759
 11
622.74030682347916
 21
59.932928571428363
 72
     1
 10
622.74030682347916
 20
59.932928571428363
 11
627.27875521394594
 21
59.932928571428363
 72
     1
 10
627.27875521394594
 20
59.932928571428363
 11
627.23183666579325
 21
61.276499999999771
 72
     1
 10
627.23183666579325
 20
61.276499999999771
 11
628.45400975204393
 21
61.276499999999771
 72
     1
 10
628.45400975204393
 20
61.276499999999771
 11
628.50092830019662
 21
59.932928571428363
 72
     1
 10
628.50092830019662
 20
59.932928571428363
 11
629.17893348932921
 21
59.932928571428363
 97
        0
 75
     0
 76
     1
 98
        1
 10
0.0
 20
0.0
  0
HATCH
  5
52A
100
AcDbEntity
  8
LAY-2
  6
CONTINUOUS
 62
     3
100
AcDbHatch
 10
0.0
 20
0.0
 30
0.0
210
0.0
220
0.0
230
1.0
  2
SOLID
 70
     1
 71
     1
 91
        1
 92
        1
 93
       12
 72
     2
 10
618.89583436849193
 20
114.04323143612272
 40
59.850000000000193
 50
276.500664
 51
278.269357
 73
     1
 72
     1
 10
627.50387825205053
 20
54.815500764597274
 11
627.50387825205053
 21
53.581499999999778
 72
     2
 10
618.89583436849193
 20
114.04323143612272
 40
61.071428571428775
 50
81.897153
 51
86.39082
 73
     0
 72
     1
 10
622.74030682347916
 20
53.092928571428331
 11
622.74030682347916
 21
54.316834160354702
 72
     2
 10
618.89583436849193
 20
114.04323143612272
 40
59.850000000000193
 50
273.682937
 51
275.325087
 73
     1
 72
     1
 10
624.4503068234792
 20
54.451534566954663
 11
624.4503068234792
 21
56.390785714285457
 72
     1
 10
624.4503068234792
 20
56.390785714285457
 11
622.74030682347916
 21
56.390785714285457
 72
     1
 10
622.74030682347916
 20
56.390785714285457
 11
622.74030682347916
 21
57.612214285714046
 72
     1
 10
622.74030682347916
 20
57.612214285714046
 11
627.13744968062201
 21
57.612214285714046
 72
     1
 10
627.13744968062201
 20
57.612214285714046
 11
627.13744968062201
 21
56.390785714285457
 72
     1
 10
627.13744968062201
 20
56.390785714285457
 11
625.67173539490773
 21
56.390785714285457
 72
     1
 10
625.67173539490773
 20
56.390785714285457
 11
625.67173539490773
 21
54.578034343367349
 97
        0
 75
     0
 76
     1
 98
        1
 10
0.0
 20
0.0
  0
HATCH
  5
52B
100
AcDbEntity
  8
LAY-2
  6
CONTINUOUS
 62
     3
100
AcDbHatch
 10
0.0
 20
0.0
 30
0.0
210
0.0
220
0.0
230
1.0
  2
SOLID
 70
     1
 71
     1
 91
        1
 92
        1
 93
       30
 72
     2
 10
607.85633290726378
 20
63.229369558788463
 40
13.3746428571429
 50
37.940537
 51
46.713808
 73
     0
 72
     1
 10
617.02656246705237
 20
53.493458642140737
 11
616.20566396633626
 21
54.314357142856949
 72
     2
 10
607.85633290726378
 20
63.229369558788463
 40
12.214285714285761
 50
313.123325
 51
325.95222
 73
     1
 72
     1
 10
617.97673539490756
 20
56.390785714285485
 11
616.51102110919351
 21
56.390785714285485
 72
     1
 10
616.51102110919351
 20
56.390785714285485
 11
616.51102110919351
 21
57.61221428571406
 72
     1
 10
616.51102110919351
 20
57.61221428571406
 11
618.4042353949078
 21
57.61221428571406
 72
     1
 10
618.4042353949078
 20
57.61221428571406
 11
618.4042353949078
 21
58.833642857142621
 72
     1
 10
618.4042353949078
 20
58.833642857142621
 11
617.79525680343681
 21
58.833642857142621
 72
     2
 10
604.73476817761025
 20
61.417210359325495
 40
13.313571428571478
 50
11.189535
 51
14.746058
 73
     0
 72
     1
 10
617.60983653765948
 20
58.028434930392606
 11
616.57209253776477
 21
58.406142857142598
 72
     2
 10
604.73476817761025
 20
61.417210359325495
 40
12.214285714285761
 50
345.728313
 51
357.620387
 73
     1
 72
     1
 10
616.93852110919352
 20
60.910071428574838
 11
618.02994635260256
 21
60.717623710735523
 72
     2
 10
604.73476817761025
 20
61.417210359325495
 40
13.313571428571478
 50
3.012102
 51
6.401006
 73
     0
 72
     1
 10
617.96534230565908
 20
59.932928571428363
 11
618.4042353949078
 21
59.932928571428363
 72
     1
 10
618.4042353949078
 20
59.932928571428363
 11
618.4042353949078
 21
61.276499999999771
 72
     1
 10
618.4042353949078
 20
61.276499999999771
 11
619.62566396633633
 21
61.276499999999771
 72
     1
 10
619.62566396633633
 20
61.276499999999771
 11
619.62566396633633
 21
59.932928571428363
 72
     1
 10
619.62566396633633
 20
59.932928571428363
 11
621.27459253776487
 21
59.932928571428363
 72
     1
 10
621.27459253776487
 20
59.932928571428363
 11
621.27459253776487
 21
58.833642857142621
 72
     1
 10
621.27459253776487
 20
58.833642857142621
 11
619.62566396633633
 21
58.833642857142621
 72
     1
 10
619.62566396633633
 20
58.833642857142621
 11
619.62566396633633
 21
57.61221428571406
 72
     1
 10
619.62566396633633
 20
57.61221428571406
 11
621.51887825205063
 21
57.61221428571406
 72
     1
 10
621.51887825205063
 20
57.61221428571406
 11
621.51887825205063
 21
56.390785714285485
 72
     1
 10
621.51887825205063
 20
56.390785714285485
 11
620.05316396633611
 21
56.390785714285485
 72
     2
 10
630.17356645398013
 20
63.229369558788434
 40
12.214285714285761
 50
214.04778
 51
226.876675
 73
     1
 72
     1
 10
621.82423539490742
 20
54.314357142856949
 11
621.00333689419131
 21
53.493458642140737
 72
     2
 10
630.17356645398013
 20
63.229369558788434
 40
13.3746428571429
 50
133.286192
 51
142.059463
 73
     0
 72
     1
 10
619.62566396633633
 20
55.006059722276049
 11
619.62566396633633
 21
52.726499999999746
 72
     1
 10
619.62566396633633
 20
52.726499999999746
 11
618.4042353949078
 21
52.726499999999746
 72
     1
 10
618.4042353949078
 20
52.726499999999746
 11
618.4042353949078
 21
55.006059722276376
 97
        0
 75
     0
 76
     1
 98
        1
 10
0.0
 20
0.0
  0
HATCH
  5
52C
100
AcDbEntity
  8
LAY-2
  6
CONTINUOUS
 62
     3
100
AcDbHatch
 10
0.0
 20
0.0
 30
0.0
210
0.0
220
0.0
230
1.0
  2
SOLID
 70
     1
 71
     1
 91
        1
 92
        1
 93
       19
 72
     2
 10
602.82826654533847
 20
61.599184595095394
 40
13.313571428571473
 50
27.683433
 51
32.280505
 73
     0
 72
     1
 10
614.08414029361916
 20
54.488875857323109
 11
613.2131639663362
 21
55.169357142856896
 72
     2
 10
602.82826654533847
 20
61.599184595095394
 40
12.214285714285756
 50
328.236207
 51
344.845745
 73
     1
 72
     1
 10
614.61780682347899
 20
58.406142857142626
 11
613.51852110919344
 21
58.406142857142626
 72
     1
 10
613.51852110919344
 20
58.406142857142626
 11
613.51852110919344
 21
59.627571428571201
 72
     1
 10
613.51852110919344
 20
59.627571428571201
 11
614.61780682347921
 21
59.627571428571201
 72
     1
 10
614.61780682347921
 20
59.627571428571201
 11
614.61780682347921
 21
61.276499999999771
 72
     1
 10
614.61780682347921
 20
61.276499999999771
 11
615.83923539490775
 21
61.276499999999771
 72
     1
 10
615.83923539490775
 20
61.276499999999771
 11
615.83923539490775
 21
59.627571428571201
 72
     1
 10
615.83923539490775
 20
59.627571428571201
 11
616.38887825205052
 21
59.627571428571201
 72
     1
 10
616.38887825205052
 20
59.627571428571201
 11
616.38887825205052
 21
58.406142857142626
 72
     1
 10
616.38887825205052
 20
58.406142857142626
 11
615.83923539490775
 21
58.406142857142626
 72
     1
 10
615.83923539490775
 20
58.406142857142626
 11
616.51102110919351
 21
57.446733428327505
 72
     1
 10
616.51102110919351
 20
57.446733428327505
 11
616.51102110919351
 21
56.703143645506159
 72
     1
 10
616.51102110919351
 20
56.703143645506159
 11
616.14459253776477
 21
56.266451079076901
 72
     1
 10
616.14459253776477
 20
56.266451079076901
 11
615.83923539490775
 21
56.702546273992724
 72
     1
 10
615.83923539490775
 20
56.702546273992724
 11
615.83923539490775
 21
52.726499999999746
 72
     1
 10
615.83923539490775
 20
52.726499999999746
 11
614.61780682347921
 21
52.726499999999746
 72
     1
 10
614.61780682347921
 20
52.726499999999746
 11
614.61780682347921
 21
55.413885555131884
 97
        0
 75
     0
 76
     1
 98
        1
 10
0.0
 20
0.0
  0
HATCH
  5
52D
100
AcDbEntity
  8
LAY-2
  6
CONTINUOUS
 62
     3
100
AcDbHatch
 10
0.0
 20
0.0
 30
0.0
210
0.0
220
0.0
230
1.0
  2
SOLID
 70
     1
 71
     1
 91
        1
 92
        1
 93
        8
 72
     2
 10
607.95839997262919
 20
56.317499999999583
 40
2.3940000000000192
 50
270.0
 51
330.0
 73
     1
 72
     2
 10
606.77367722025201
 20
57.001499999999581
 40
3.7620000000000182
 50
330.0
 51
30.0
 73
     1
 72
     2
 10
607.95839997262919
 20
57.685499999999593
 40
2.3940000000000183
 50
30.0
 51
90.0
 73
     1
 72
     1
 10
607.95839997262988
 20
60.079499999999612
 11
607.95839997262988
 21
61.447499999999891
 72
     2
 10
607.95839997262897
 20
57.685499999999877
 40
3.7620000000000116
 50
270.0
 51
330.0
 73
     0
 72
     2
 10
606.77367722025224
 20
57.001499999999822
 40
5.130000000000023
 50
330.0
 51
30.0
 73
     0
 72
     2
 10
607.95839997262919
 20
56.317499999999441
 40
3.7620000000000076
 50
30.0
 51
90.0
 73
     0
 72
     1
 10
607.95839997262988
 20
52.555499999999441
 11
607.95839997262988
 21
53.923499999999564
 97
        0
 75
     0
 76
     1
 98
        1
 10
0.0
 20
0.0
  0
HATCH
  5
52E
100
AcDbEntity
  8
LAY-2
  6
CONTINUOUS
 62
     3
100
AcDbHatch
 10
0.0
 20
0.0
 30
0.0
210
0.0
220
0.0
230
1.0
  2
SOLID
 70
     1
 71
     1
 91
        1
 92
        1
 93
        8
 72
     2
 10
607.95839997262919
 20
56.317499999999441
 40
3.7620000000000076
 50
90.0
 51
150.0
 73
     0
 72
     2
 10
609.14312272500615
 20
57.001499999999538
 40
5.1300000000000283
 50
150.0
 51
210.0
 73
     0
 72
     2
 10
607.95839997262897
 20
57.685499999999877
 40
3.7620000000000116
 50
210.0
 51
270.0
 73
     0
 72
     1
 10
607.95839997262988
 20
61.447499999999891
 11
607.95839997262988
 21
60.079499999999612
 72
     2
 10
607.95839997262919
 20
57.685499999999593
 40
2.3940000000000183
 50
90.0
 51
150.0
 73
     1
 72
     2
 10
609.14312272500638
 20
57.001499999999581
 40
3.76200000000002
 50
150.0
 51
210.0
 73
     1
 72
     2
 10
607.95839997262919
 20
56.317499999999583
 40
2.3940000000000192
 50
210.0
 51
270.0
 73
     1
 72
     1
 10
607.95839997262988
 20
53.923499999999564
 11
607.95839997262988
 21
52.555499999999441
 97
        0
 75
     0
 76
     1
 98
        1
 10
0.0
 20
0.0
  0
HATCH
  5
52F
100
AcDbEntity
  8
LAY-2
  6
CONTINUOUS
 62
     3
100
AcDbHatch
 10
0.0
 20
0.0
 30
0.0
210
0.0
220
0.0
230
1.0
  2
SOLID
 70
     1
 71
     1
 91
        1
 92
        1
 93
        4
 72
     1
 10
602.65739997262926
 20
55.462499999999594
 11
601.2893999726291
 21
55.462499999999594
 72
     1
 10
601.2893999726291
 20
55.462499999999594
 11
601.2893999726291
 21
56.830499999999574
 72
     1
 10
601.2893999726291
 20
56.830499999999574
 11
602.65739997262926
 21
56.830499999999574
 72
     1
 10
602.65739997262926
 20
56.830499999999574
 11
602.65739997262926
 21
55.462499999999494
 97
        0
 75
     0
 76
     1
 98
        1
 10
0.0
 20
0.0
  0
HATCH
  5
530
100
AcDbEntity
  8
LAY-2
  6
CONTINUOUS
 62
     3
100
AcDbHatch
 10
0.0
 20
0.0
 30
0.0
210
0.0
220
0.0
230
1.0
  2
SOLID
 70
     1
 71
     1
 91
        1
 92
        1
 93
       16
 72
     1
 10
596.15939997262899
 20
59.908499999999592
 11
594.27839997262913
 21
59.908499999999592
 72
     1
 10
594.27839997262913
 20
59.908499999999592
 11
593.93639997262903
 21
58.027499999999591
 72
     1
 10
593.93639997262903
 20
58.027499999999591
 11
592.91039997262919
 21
58.027499999999591
 72
     1
 10
592.91039997262919
 20
58.027499999999591
 11
592.91039997262919
 21
61.276499999999615
 72
     1
 10
592.91039997262919
 20
61.276499999999615
 11
600.77639997262918
 21
61.276499999999615
 72
     1
 10
600.77639997262918
 20
61.276499999999615
 11
600.77639997262918
 21
58.027499999999591
 72
     1
 10
600.77639997262918
 20
58.027499999999591
 11
599.75039997262911
 21
58.027499999999591
 72
     1
 10
599.75039997262911
 20
58.027499999999591
 11
599.40839997262924
 21
59.908499999999592
 72
     1
 10
599.40839997262924
 20
59.908499999999592
 11
597.52739997262915
 21
59.908499999999592
 72
     1
 10
597.52739997262915
 20
59.908499999999592
 11
597.52739997262915
 21
54.094499999999584
 72
     1
 10
597.52739997262915
 20
54.094499999999584
 11
598.89539997262909
 21
53.752499999999571
 72
     1
 10
598.89539997262909
 20
53.752499999999571
 11
598.89539997262909
 21
52.726499999999575
 72
     1
 10
598.89539997262909
 20
52.726499999999575
 11
594.79139997262905
 21
52.726499999999575
 72
     1
 10
594.79139997262905
 20
52.726499999999575
 11
594.79139997262905
 21
53.752499999999571
 72
     1
 10
594.79139997262905
 20
53.752499999999571
 11
596.15939997262899
 21
54.094499999999584
 72
     1
 10
596.15939997262899
 20
54.094499999999584
 11
596.15939997262899
 21
59.908499999999592
 97
        0
 75
     0
 76
     1
 98
        1
 10
0.0
 20
0.0
  0
HATCH
  5
531
100
AcDbEntity
  8
LAY-2
  6
CONTINUOUS
 62
     3
100
AcDbHatch
 10
0.0
 20
0.0
 30
0.0
210
0.0
220
0.0
230
1.0
  2
SOLID
 70
     1
 71
     1
 91
        1
 92
        1
 93
        4
 72
     1
 10
591.02939997262911
 20
55.462499999999594
 11
591.02939997262911
 21
56.830499999999674
 72
     1
 10
591.02939997262911
 20
56.830499999999674
 11
592.39739997262905
 21
56.830499999999574
 72
     1
 10
592.39739997262905
 20
56.830499999999574
 11
592.39739997262905
 21
55.462499999999594
 72
     1
 10
592.39739997262905
 20
55.462499999999594
 11
591.02939997262911
 21
55.462499999999594
 97
        0
 75
     0
 76
     1
 98
        1
 10
0.0
 20
0.0
  0
HATCH
  5
532
100
AcDbEntity
  8
LAY-2
  6
CONTINUOUS
 62
     3
100
AcDbHatch
 10
0.0
 20
0.0
 30
0.0
210
0.0
220
0.0
230
1.0
  2
SOLID
 70
     1
 71
     1
 91
        1
 92
        1
 93
       12
 72
     1
 10
589.49039997262912
 20
61.276499999999615
 11
589.49039997262912
 21
60.250499999999604
 72
     1
 10
589.49039997262912
 20
60.250499999999604
 11
588.12239997262918
 21
59.908499999999592
 72
     1
 10
588.12239997262918
 20
59.908499999999592
 11
588.12239997262918
 21
54.094499999999584
 72
     1
 10
588.12239997262918
 20
54.094499999999584
 11
589.49039997262912
 21
53.752499999999571
 72
     1
 10
589.49039997262912
 20
53.752499999999571
 11
589.49039997262912
 21
52.726499999999575
 72
     1
 10
589.49039997262912
 20
52.726499999999575
 11
585.38639997262908
 21
52.726499999999575
 72
     1
 10
585.38639997262908
 20
52.726499999999575
 11
585.38639997262908
 21
53.752499999999571
 72
     1
 10
585.38639997262908
 20
53.752499999999571
 11
586.75439997262902
 21
54.094499999999584
 72
     1
 10
586.75439997262902
 20
54.094499999999584
 11
586.75439997262902
 21
59.908499999999592
 72
     1
 10
586.75439997262902
 20
59.908499999999592
 11
585.38639997262908
 21
60.250499999999604
 72
     1
 10
585.38639997262908
 20
60.250499999999604
 11
585.38639997262908
 21
61.276499999999615
 72
     1
 10
585.38639997262908
 20
61.276499999999615
 11
589.49039997262912
 21
61.276499999999615
 97
        0
 75
     0
 76
     1
 98
        1
 10
0.0
 20
0.0
  0
HATCH
  5
533
100
AcDbEntity
  8
LAY-2
  6
CONTINUOUS
 62
     3
100
AcDbHatch
 10
0.0
 20
0.0
 30
0.0
210
0.0
220
0.0
230
1.0
  2
SOLID
 70
     1
 71
     1
 91
        1
 92
        1
 93
       15
 72
     2
 10
576.0798583358403
 20
57.001499999999766
 40
3.7965796579658018
 50
124.301153
 51
180.0
 73
     0
 72
     1
 10
572.28327867787448
 20
57.001499999999993
 11
573.71586992831249
 21
57.001499999999993
 72
     2
 10
577.40983932525205
 20
57.001499999999808
 40
3.6939693969397052
 50
180.0
 51
199.464384
 73
     1
 72
     2
 10
573.86720643206422
 20
57.411267972249206
 40
1.6417641764176811
 50
272.086657
 51
294.619977
 73
     1
 72
     2
 10
574.33742572029541
 20
56.385165361988143
 40
0.513051305130516
 50
294.619977
 51
0.0
 73
     1
 72
     1
 10
574.85047702542602
 20
56.385165361988143
 11
574.85047702542602
 21
57.001499999999993
 72
     1
 10
574.85047702542602
 20
57.001499999999993
 11
576.08180015773905
 21
57.001499999999993
 72
     1
 10
576.08180015773905
 20
57.001499999999993
 11
576.08180015773905
 21
56.384076708791767
 72
     2
 10
576.59485146286966
 20
56.384076708791767
 40
0.513051305130495
 50
180.0
 51
245.380023
 73
     1
 72
     2
 10
577.06507075110085
 20
57.410179319053
 40
1.6417641764178617
 50
245.380023
 51
267.913343
 73
     1
 72
     1
 10
577.005292506974
 20
55.769503795831497
 11
577.005292506974
 21
55.461673012753224
 72
     1
 10
577.005292506974
 20
55.461673012753224
 11
574.05211051623951
 21
55.461673012753209
 72
     2
 10
577.40983932525228
 20
57.001499999999808
 40
3.6939693969397003
 50
204.635803
 51
268.19864
 73
     1
 72
     1
 10
577.29372132210642
 20
53.309356108590308
 11
577.29372132210642
 21
52.795574428006546
 72
     2
 10
577.40983932525205
 20
58.951094959495933
 40
6.1566156615661844
 50
91.080702
 51
124.301153
 73
     0
 97
        0
 75
     0
 76
     1
 98
        1
 10
0.0
 20
0.0
  0
HATCH
  5
534
100
AcDbEntity
  8
LAY-2
  6
CONTINUOUS
 62
     3
100
AcDbHatch
 10
0.0
 20
0.0
 30
0.0
210
0.0
220
0.0
230
1.0
  2
SOLID
 70
     1
 71
     1
 91
        1
 92
        1
 93
       24
 72
     2
 10
576.69738713915081
 20
57.514551305130297
 40
0.5130513051305206
 50
90.0
 51
157.380135
 73
     1
 72
     2
 10
577.92871027146384
 20
57.001499999999837
 40
1.8469846984698555
 50
157.380135
 51
180.0
 73
     1
 72
     1
 10
576.08172557299417
 20
57.001499999999993
 11
574.85047702542602
 21
57.001499999999993
 72
     1
 10
574.85047702542602
 20
57.001499999999993
 11
574.85047702542602
 21
59.665158109396529
 72
     2
 10
577.40983932525205
 20
57.001499999999808
 40
3.6939693969397052
 50
133.856042
 51
180.0
 73
     1
 72
     1
 10
573.71586992831249
 20
57.001499999999993
 11
572.28327867787448
 21
57.001499999999993
 72
     2
 10
576.0798583358403
 20
57.001499999999766
 40
3.7965796579658018
 50
180.0
 51
235.698847
 73
     0
 72
     2
 10
577.40983932525228
 20
55.051905040503627
 40
6.1566156615661978
 50
235.698847
 51
245.436008
 73
     0
 72
     1
 10
574.85047702542602
 20
60.651331888179172
 11
574.85047702542602
 21
61.208936283411376
 72
     2
 10
574.33742572029541
 20
61.208936283411376
 40
0.5130513051305132
 50
0.0
 51
65.380023
 73
     1
 72
     2
 10
573.86720643206422
 20
60.182833673150327
 40
1.641764176417644
 50
65.380023
 51
87.913343
 73
     1
 72
     1
 10
573.92698467619084
 20
61.823509196371617
 11
573.92698467619084
 21
62.131339979449905
 72
     1
 10
573.92698467619084
 20
62.131339979449905
 11
577.005292506974
 21
62.131339979449905
 72
     1
 10
577.005292506974
 20
62.131339979449905
 11
577.005292506974
 21
61.823509196371617
 72
     2
 10
577.06507075110085
 20
60.182833673150327
 40
1.6417641764176516
 50
92.086657
 51
114.619977
 73
     1
 72
     2
 10
576.59485146286966
 20
61.20893628341139
 40
0.5130513051305206
 50
114.619977
 51
180.0
 73
     1
 72
     1
 10
576.08180015773905
 20
61.208936283411376
 11
576.08180015773905
 21
61.063579380801286
 72
     2
 10
577.40983932525205
 20
55.051905040503627
 40
6.1566156615661827
 50
257.542857
 51
268.919298
 73
     0
 72
     1
 10
577.29372132210642
 20
61.207425571992999
 11
577.29372132210642
 21
60.693643891409309
 72
     2
 10
577.40983932525228
 20
57.001499999999808
 40
3.6939693969397052
 50
91.80136
 51
111.070443
 73
     1
 72
     1
 10
576.08180015773905
 20
60.448487362186953
 11
576.08180015773905
 21
58.540653915391331
 72
     1
 10
576.08180015773905
 20
58.540653915391331
 11
577.29372132210642
 21
58.540653915391331
 72
     1
 10
577.29372132210642
 20
58.540653915391331
 11
577.29372132210642
 21
58.027602610260814
 72
     1
 10
577.29372132210642
 20
58.027602610260814
 11
576.69738713915081
 21
58.027602610260814
 97
        0
 75
     0
 76
     1
 98
        1
 10
0.0
 20
0.0
  0
HATCH
  5
535
100
AcDbEntity
  8
LAY-2
  6
CONTINUOUS
 62
     3
100
AcDbHatch
 10
0.0
 20
0.0
 30
0.0
210
0.0
220
0.0
230
1.0
  2
SOLID
 70
     1
 71
     1
 91
        1
 92
        1
 93
       14
 72
     2
 10
577.40983932525205
 20
57.001499999999808
 40
3.6939693969397123
 50
0.0
 51
9.281799
 73
     1
 72
     2
 10
580.54910966485386
 20
57.514551305130297
 40
0.51305130513051
 50
9.281799
 51
90.0
 73
     1
 72
     1
 10
580.54910966485386
 20
58.027602610260814
 11
579.46204454577423
 21
58.027602610260814
 72
     1
 10
579.46204454577423
 20
58.027602610260814
 11
579.46204454577423
 21
57.001499999999993
 72
     1
 10
579.46204454577423
 20
57.001499999999993
 11
578.23072141346097
 21
57.001499999999993
 72
     1
 10
578.23072141346097
 20
57.001499999999993
 11
578.23072141346097
 21
58.027602610260814
 72
     1
 10
578.23072141346097
 20
58.027602610260814
 11
577.29372132210642
 21
58.027602610260814
 72
     1
 10
577.29372132210642
 20
58.027602610260814
 11
577.29372132210642
 21
58.540653915391331
 72
     1
 10
577.29372132210642
 20
58.540653915391331
 11
580.76787671787633
 21
58.540653915391289
 72
     2
 10
577.40983932525228
 20
57.001499999999808
 40
3.6939693969397052
 50
24.624318
 51
91.80136
 73
     1
 72
     1
 10
577.29372132210642
 20
60.693643891409309
 11
577.29372132210642
 21
61.207425571992999
 72
     2
 10
577.40983932525205
 20
55.051905040503627
 40
6.1566156615661827
 50
268.919298
 51
304.301153
 73
     0
 72
     2
 10
578.73982031466426
 20
57.001499999999766
 40
3.7965796579658058
 50
304.301153
 51
0.0
 73
     0
 72
     1
 10
582.53639997263008
 20
57.001499999999993
 11
581.10380872219184
 21
57.001499999999993
 97
        0
 75
     0
 76
     1
 98
        1
 10
0.0
 20
0.0
  0
HATCH
  5
536
100
AcDbEntity
  8
LAY-2
  6
CONTINUOUS
 62
     3
100
AcDbHatch
 10
0.0
 20
0.0
 30
0.0
210
0.0
220
0.0
230
1.0
  2
SOLID
 70
     1
 71
     1
 91
        1
 92
        1
 93
       19
 72
     2
 10
577.40983932525205
 20
57.001499999999808
 40
3.6939693969397123
 50
303.748989
 51
0.0
 73
     1
 72
     1
 10
581.10380872219184
 20
57.001499999999993
 11
582.53639997263008
 21
57.001499999999993
 72
     2
 10
578.73982031466426
 20
57.001499999999766
 40
3.7965796579658058
 50
0.0
 51
55.698847
 73
     0
 72
     2
 10
577.40983932525228
 20
58.951094959495947
 40
6.1566156615661942
 50
55.698847
 51
70.528779
 73
     0
 72
     1
 10
579.46204454577423
 20
53.146582048225582
 11
579.46204454577423
 21
52.793390644733179
 72
     2
 10
579.97509585090484
 20
52.793390644733179
 40
0.513051305130516
 50
180.0
 51
245.380023
 73
     1
 72
     2
 10
580.44531513913603
 20
53.819493254994228
 40
1.6417641764176485
 50
245.380023
 51
267.913343
 73
     1
 72
     1
 10
580.38553689500918
 20
52.178817731772938
 11
580.38553689500918
 21
51.870986948694636
 72
     1
 10
580.38553689500918
 20
51.870986948694636
 11
577.30722906422602
 21
51.870986948694636
 72
     1
 10
577.30722906422602
 20
51.870986948694636
 11
577.30722906422602
 21
52.178817731772938
 72
     2
 10
577.24745082009917
 20
53.819493254994228
 40
1.6417641764176485
 50
272.086657
 51
294.619977
 73
     1
 72
     2
 10
577.71767010833037
 20
52.793390644733179
 40
0.513051305130516
 50
294.619977
 51
0.0
 73
     1
 72
     1
 10
578.23072141346097
 20
52.793390644733179
 11
578.23072141346097
 21
52.849450181118542
 72
     2
 10
577.40983932525205
 20
58.951094959495933
 40
6.1566156615661844
 50
82.337744
 51
91.080702
 73
     0
 72
     1
 10
577.29372132210642
 20
52.795574428006546
 11
577.29372132210642
 21
53.309356108590308
 72
     2
 10
577.40983932525228
 20
57.001499999999808
 40
3.6939693969397003
 50
268.19864
 51
282.839588
 73
     1
 72
     1
 10
578.23072141346097
 20
53.399894454859535
 11
578.23072141346097
 21
57.001499999999993
 72
     1
 10
578.23072141346097
 20
57.001499999999993
 11
579.46204454577423
 21
57.001499999999993
 72
     1
 10
579.46204454577423
 20
57.001499999999993
 11
579.46204454577423
 21
53.930040470982831
 97
        0
 75
     0
 76
     1
 98
        1
 10
0.0
 20
0.0
  0
TEXT
  5
537
100
AcDbEntity
  8
LAY-2
  6
CONTINUOUS
 62
     3
100
AcDbText
 10
555.19
 20
104.86
 30
0.0
 40
10.0
  1
'１７年　９月　８日
 41
0.8132
  7
EXCADSTD
 72
     5
 11
650.19
 21
104.86
 31
0.0
100
AcDbText
  0
TEXT
  5
538
100
AcDbEntity
  8
LAY-2
  6
CONTINUOUS
 62
     3
100
AcDbText
 10
555.81
 20
90.6
 30
0.0
 40
10.0
  1
ＳＧＸ－２５ＮＲ
 41
0.7665
  7
EXCADSTD
 72
     5
 11
628.81
 21
90.6
 31
0.0
100
AcDbText
  0
TEXT
  5
539
100
AcDbEntity
  8
LAY-2
  6
CONTINUOUS
 62
     3
100
AcDbText
 10
555.89
 20
77.16
 30
0.0
 40
10.0
  1
リリーフ弁
 41
0.84
  7
EXCADSTD
 72
     5
 11
605.89
 21
77.16
 31
0.0
100
AcDbText
  0
ENDSEC
  0
SECTION
  2
OBJECTS
  0
DICTIONARY
  5
19
100
AcDbDictionary
  3
ACAD_GROUP
350
1A
  3
ACAD_MLINESTYLE
350
1B
  0
DICTIONARY
  5
1A
102
{ACAD_REACTORS
330
19
102
}
100
AcDbDictionary
  0
DICTIONARY
  5
1B
102
{ACAD_REACTORS
330
19
102
}
100
AcDbDictionary
  3
STANDARD
350
1C
  0
MLINESTYLE
  5
1C
102
{ACAD_REACTORS
330
1B
102
}
100
AcDbMlineStyle
  2
Standard
 70
     0
  3

 62
     0
 51
90.0
 52
90.0
 71
     2
 49
0.5
 62
   256
  6
ByLayer
 49
-0.5
 62
   256
  6
ByLayer
  0
ENDSEC
  0
EOF
