  0
SECTION
  2
HEADER
  9
$ACADVER
  1
AC1014
  9
$ACADMAINTVER
 70
     0
  9
$DWGCODEPAGE
  3
ANSI_932
  9
$INSBASE
 10
0.0
 20
0.0
 30
0.0
  9
$EXTMIN
 10
-115.0
 20
-142.2
 30
0.0
  9
$EXTMAX
 10
475.2
 20
430.2
 30
0.0
  9
$LIMMIN
 10
0.0
 20
0.0
  9
$LIMMAX
 10
420.0
 20
297.0
  9
$ORTHOMODE
 70
     0
  9
$REGENMODE
 70
     1
  9
$FILLMODE
 70
     1
  9
$QTEXTMODE
 70
     0
  9
$MIRRTEXT
 70
     1
  9
$DRAGMODE
 70
     2
  9
$LTSCALE
 40
1.0
  9
$OSMODE
 70
     0
  9
$ATTMODE
 70
     1
  9
$TEXTSIZE
 40
0.2
  9
$TRACEWID
 40
0.05
  9
$TEXTSTYLE
  7
STANDARD
  9
$CLAYER
  8
LAY-1
  9
$CELTYPE
  6
CONTINUOUS
  9
$CECOLOR
 62
   256
  9
$CELTSCALE
 40
1.0
  9
$DELOBJ
 70
     1
  9
$DISPSILH
 70
     0
  9
$DIMSCALE
 40
1.0
  9
$DIMASZ
 40
0.18
  9
$DIMEXO
 40
0.0625
  9
$DIMDLI
 40
0.38
  9
$DIMRND
 40
0.0
  9
$DIMDLE
 40
0.0
  9
$DIMEXE
 40
0.18
  9
$DIMTP
 40
0.0
  9
$DIMTM
 40
0.0
  9
$DIMTXT
 40
0.18
  9
$DIMCEN
 40
0.09
  9
$DIMTSZ
 40
0.0
  9
$DIMTOL
 70
     0
  9
$DIMLIM
 70
     0
  9
$DIMTIH
 70
     1
  9
$DIMTOH
 70
     1
  9
$DIMSE1
 70
     0
  9
$DIMSE2
 70
     0
  9
$DIMTAD
 70
     0
  9
$DIMZIN
 70
     0
  9
$DIMBLK
  1

  9
$DIMASO
 70
     1
  9
$DIMSHO
 70
     1
  9
$DIMPOST
  1

  9
$DIMAPOST
  1

  9
$DIMALT
 70
     0
  9
$DIMALTD
 70
     2
  9
$DIMALTF
 40
25.4
  9
$DIMLFAC
 40
1.0
  9
$DIMTOFL
 70
     0
  9
$DIMTVP
 40
0.0
  9
$DIMTIX
 70
     0
  9
$DIMSOXD
 70
     0
  9
$DIMSAH
 70
     0
  9
$DIMBLK1
  1

  9
$DIMBLK2
  1

  9
$DIMSTYLE
  2
STANDARD
  9
$DIMCLRD
 70
     0
  9
$DIMCLRE
 70
     0
  9
$DIMCLRT
 70
     0
  9
$DIMTFAC
 40
1.0
  9
$DIMGAP
 40
0.09
  9
$DIMJUST
 70
     0
  9
$DIMSD1
 70
     0
  9
$DIMSD2
 70
     0
  9
$DIMTOLJ
 70
     1
  9
$DIMTZIN
 70
     0
  9
$DIMALTZ
 70
     0
  9
$DIMALTTZ
 70
     0
  9
$DIMFIT
 70
     3
  9
$DIMUPT
 70
     0
  9
$DIMUNIT
 70
     2
  9
$DIMDEC
 70
     4
  9
$DIMTDEC
 70
     4
  9
$DIMALTU
 70
     2
  9
$DIMALTTD
 70
     2
  9
$DIMTXSTY
  7
STANDARD
  9
$DIMAUNIT
 70
     0
  9
$LUNITS
 70
     2
  9
$LUPREC
 70
     4
  9
$SKETCHINC
 40
0.1
  9
$FILLETRAD
 40
0.0
  9
$AUNITS
 70
     0
  9
$AUPREC
 70
     0
  9
$MENU
  1
acad
  9
$ELEVATION
 40
0.0
  9
$PELEVATION
 40
0.0
  9
$THICKNESS
 40
0.0
  9
$LIMCHECK
 70
     0
  9
$BLIPMODE
 70
     1
  9
$CHAMFERA
 40
0.0
  9
$CHAMFERB
 40
0.0
  9
$CHAMFERC
 40
0.0
  9
$CHAMFERD
 40
0.0
  9
$SKPOLY
 70
     0
  9
$TDCREATE
 40
2456723.144865185
  9
$TDUPDATE
 40
2456723.144865185
  9
$TDINDWG
 40
0.0000000000
  9
$TDUSRTIMER
 40
0.0000000000
  9
$USRTIMER
 70
     1
  9
$ANGBASE
 50
0.0
  9
$ANGDIR
 70
     0
  9
$PDMODE
 70
     0
  9
$PDSIZE
 40
0.0
  9
$PLINEWID
 40
0.0
  9
$COORDS
 70
     1
  9
$SPLFRAME
 70
     0
  9
$SPLINETYPE
 70
     6
  9
$SPLINESEGS
 70
     8
  9
$ATTDIA
 70
     0
  9
$ATTREQ
 70
     1
  9
$HANDLING
 70
     1
  9
$HANDSEED
  5
607
  9
$SURFTAB1
 70
     6
  9
$SURFTAB2
 70
     6
  9
$SURFTYPE
 70
     6
  9
$SURFU
 70
     6
  9
$SURFV
 70
     6
  9
$UCSNAME
  2

  9
$UCSORG
 10
0.0
 20
0.0
 30
0.0
  9
$UCSXDIR
 10
1.0
 20
0.0
 30
0.0
  9
$UCSYDIR
 10
0.0
 20
1.0
 30
0.0
  9
$PUCSNAME
  2

  9
$PUCSORG
 10
0.0
 20
0.0
 30
0.0
  9
$PUCSXDIR
 10
1.0
 20
0.0
 30
0.0
  9
$PUCSYDIR
 10
0.0
 20
1.0
 30
0.0
  9
$USERI1
 70
     0
  9
$USERI2
 70
     0
  9
$USERI3
 70
     0
  9
$USERI4
 70
     0
  9
$USERI5
 70
     0
  9
$USERR1
 40
0.0
  9
$USERR2
 40
0.0
  9
$USERR3
 40
0.0
  9
$USERR4
 40
0.0
  9
$USERR5
 40
0.0
  9
$WORLDVIEW
 70
     1
  9
$SHADEDGE
 70
     3
  9
$SHADEDIF
 70
    70
  9
$TILEMODE
 70
     1
  9
$MAXACTVP
 70
    16
  9
$PINSBASE
 10
0.0
 20
0.0
 30
0.0
  9
$PLIMCHECK
 70
     0
  9
$PEXTMIN
 10
1.000000E+20
 20
1.000000E+20
 30
1.000000E+20
  9
$PEXTMAX
 10
-1.000000E+20
 20
-1.000000E+20
 30
-1.000000E+20
  9
$PLIMMIN
 10
0.0
 20
0.0
  9
$PLIMMAX
 10
12.0
 20
9.0
  9
$UNITMODE
 70
     0
  9
$VISRETAIN
 70
     0
  9
$PLINEGEN
 70
     1
  9
$PSLTSCALE
 70
     0
  9
$TREEDEPTH
 70
  3020
  9
$PICKSTYLE
 70
     1
  9
$CMLSTYLE
  2
Standard
  9
$CMLJUST
 70
     0
  9
$CMLSCALE
 40
1.0
  9
$PROXYGRAPHICS
 70
     0
  9
$MEASUREMENT
 70
     0
  0
ENDSEC
  0
SECTION
  2
CLASSES
  0
CLASS
  1
LWPOLYLINE
  2
AcDbPolyline
  3
"AutoCAD"
 90
        0
280
     0
281
     1
  0
CLASS
  1
IMAGE
  2
AcDbRasterImage
  3
ISM
 90
      127
280
     0
281
     1
  0
CLASS
  1
OLE2FRAME
  2
AcDbOle2Frame
  3
""
 90
        0
280
     0
281
     1
  0
CLASS
  1
HATCH
  2
AcDbHatch
  3
"ACAD_SEDONA"
 90
        0
280
     0
281
     1
  0
CLASS
  1
DICTIONARYVAR
  2
AcDbDictionaryVar
  3
"AutoCAD"
 90
        0
280
     0
281
     0
  0
CLASS
  1
RASTERVARIABLES
  2
AcDbRasterVariables
  3
ISM
 90
        0
280
     0
281
     0
  0
CLASS
  1
IMAGEDEF
  2
AcDbRasterImageDef
  3
ISM
 90
        0
280
     0
281
     0
  0
CLASS
  1
IMAGEDEF_REACTOR
  2
AcDbRasterImageDefReactor
  3
ISM
 90
        1
280
     0
281
     0
  0
CLASS
  1
IDBUFFER
  2
AcDbIdBuffer
  3
"Acad"
 90
        0
280
     0
281
     0
  0
CLASS
  1
SPATIAL_FILTER
  2
AcDbSpatialFilter
  3
"Acad"
 90
        0
280
     0
281
     0
  0
CLASS
  1
XRECORD
  2
AcDbXrecord
  3
"<Built In>"
 90
        0
280
     0
281
     0
  0
CLASS
  1
SORTENTSTABLE
  2
AcDbSortentsTable
  3
"AutoCAD"
 90
        0
280
     0
281
     0
  0
CLASS
  1
LAYER_INDEX
  2
AcDbLayerIndex
  3
"Acad"
 90
        0
280
     0
281
     0
  0
CLASS
  1
SPATIAL_INDEX
  2
AcDbSpatialIndex
  3
"Acad"
 90
        0
280
     0
281
     0
  0
CLASS
  1
OBJECT_PTR
  2
CAseDLPNTableRecord
  3
"ASE-LPNTableRecord"
 90
        1
280
     0
281
     0
  0
CLASS
  1
LAYOUT
  2
AcDbLayout
  3
"AutoCAD 2000"
 90
        0
280
     0
281
     0
  0
CLASS
  1
PLOTSETTINGS
  2
AcDbPlotSettings
  3
"AutoCAD 2000"
 90
        0
280
     0
281
     0
  0
CLASS
  1
ACDBDICTIONARYWDFLT
  2
AcDbDictionaryWithDefault
  3
"AutoCAD 2000"
 90
        0
280
     0
281
     0
  0
CLASS
  1
ACDBPLACEHOLDER
  2
AcDbPlaceHolder
  3
"AutoCAD 2000"
 90
        0
280
     0
281
     0
  0
CLASS
  1
VBA_PROJECT
  2
AcDbVbaProject
  3
"acadvba"
 90
        0
280
     0
281
     0
  0
CLASS
  1
WIPEOUT
  2
AcDbWipeout
  3
WipeOut|AutoCAD Express Tool|expresstools@autodesk.com
 90
      127
280
     0
281
     1
  0
CLASS
  1
WIPEOUTVARIABLES
  2
AcDbWipeoutVariables
  3
WipeOut|AutoCAD Express Tool|expresstools@autodesk.com
 90
        0
280
     0
281
     0
  0
CLASS
  1
RTEXT
  2
RText
  3
RText|AutoCAD Express Tool|expresstools@autodesk.com
 90
        0
280
     0
281
     1
  0
CLASS
  1
ARCALIGNEDTEXT
  2
AcDbArcAlignedText
  3
ATEXT|AutoCAD Express Tool|expresstools@autodesk.com
 90
        0
280
     0
281
     1
  0
ENDSEC
  0
SECTION
  2
TABLES
  0
TABLE
  2
VPORT
  5
7
100
AcDbSymbolTable
 70
     1
  0
VPORT
  5
15
100
AcDbSymbolTableRecord
100
AcDbViewportTableRecord
  2
*ACTIVE
 70
     0
 10
0.0
 20
0.0
 11
1.0
 21
1.0
 12
180.1
 22
144.0
 13
0.0
 23
0.0
 14
1.0
 24
1.0
 15
0.0
 25
0.0
 16
0.0
 26
0.0
 36
1.0
 17
0.0
 27
0.0
 37
0.0
 40
572.4
 41
1.722533
 42
50.0
 43
0.0
 44
0.0
 50
0.0
 51
0.0
 71
     0
 72
  1000
 73
     1
 74
     1
 75
     0
 76
     0
 77
     0
 78
     0
  0
ENDTAB
  0
TABLE
  2
LTYPE
  5
4
100
AcDbSymbolTable
 70
     9
  0
LTYPE
  5
11
100
AcDbSymbolTableRecord
100
AcDbLinetypeTableRecord
  2
BYBLOCK
 70
    64
  3

 72
    65
 73
     0
 40
0.0
  0
LTYPE
  5
12
100
AcDbSymbolTableRecord
100
AcDbLinetypeTableRecord
  2
BYLAYER
 70
    64
  3

 72
    65
 73
     0
 40
0.0
  0
LTYPE
  5
13
100
AcDbSymbolTableRecord
100
AcDbLinetypeTableRecord
  2
CONTINUOUS
 70
    64
  3
実線
 72
    65
 73
     0
 40
0.0
  0
LTYPE
  5
1D
100
AcDbSymbolTableRecord
100
AcDbLinetypeTableRecord
  2
EXLTYPE1
 70
    64
  3
破線
 72
    65
 73
     2
 40
4.0
 49
2.0
 74
     0
 49
-2.0
 74
     0
  0
LTYPE
  5
1E
100
AcDbSymbolTableRecord
100
AcDbLinetypeTableRecord
  2
EXLTYPE2
 70
    64
  3
点線
 72
    65
 73
     2
 40
2.0
 49
1.0
 74
     0
 49
-1.0
 74
     0
  0
LTYPE
  5
1F
100
AcDbSymbolTableRecord
100
AcDbLinetypeTableRecord
  2
EXLTYPE3
 70
    64
  3
一点鎖線
 72
    65
 73
     4
 40
33.0
 49
30.0
 74
     0
 49
-1.0
 74
     0
 49
1.0
 74
     0
 49
-1.0
 74
     0
  0
LTYPE
  5
20
100
AcDbSymbolTableRecord
100
AcDbLinetypeTableRecord
  2
EXLTYPE4
 70
    64
  3
二点鎖線
 72
    65
 73
     6
 40
35.0
 49
30.0
 74
     0
 49
-1.0
 74
     0
 49
1.0
 74
     0
 49
-1.0
 74
     0
 49
1.0
 74
     0
 49
-1.0
 74
     0
  0
LTYPE
  5
21
100
AcDbSymbolTableRecord
100
AcDbLinetypeTableRecord
  2
EXLTYPE5
 70
    64
  3
三点鎖線
 72
    65
 73
     8
 40
37.0
 49
30.0
 74
     0
 49
-1.0
 74
     0
 49
1.0
 74
     0
 49
-1.0
 74
     0
 49
1.0
 74
     0
 49
-1.0
 74
     0
 49
1.0
 74
     0
 49
-1.0
 74
     0
  0
LTYPE
  5
22
100
AcDbSymbolTableRecord
100
AcDbLinetypeTableRecord
  2
EXLTYPE6
 70
    64
  3
四点鎖線
 72
    65
 73
    10
 40
39.0
 49
30.0
 74
     0
 49
-1.0
 74
     0
 49
1.0
 74
     0
 49
-1.0
 74
     0
 49
1.0
 74
     0
 49
-1.0
 74
     0
 49
1.0
 74
     0
 49
-1.0
 74
     0
 49
1.0
 74
     0
 49
-1.0
 74
     0
  0
ENDTAB
  0
TABLE
  2
LAYER
  5
2
100
AcDbSymbolTable
 70
     4
  0
LAYER
  5
14
100
AcDbSymbolTableRecord
100
AcDbLayerTableRecord
  2
0
 70
     0
 62
     7
  6
CONTINUOUS
  0
LAYER
  5
25
100
AcDbSymbolTableRecord
100
AcDbLayerTableRecord
  2
LAY-1
 70
    64
 62
     7
  6
CONTINUOUS
  0
LAYER
  5
26
100
AcDbSymbolTableRecord
100
AcDbLayerTableRecord
  2
LAY-3
 70
    64
 62
     1
  6
CONTINUOUS
  0
LAYER
  5
27
100
AcDbSymbolTableRecord
100
AcDbLayerTableRecord
  2
LAY-5
 70
    64
 62
     7
  6
CONTINUOUS
  0
ENDTAB
  0
TABLE
  2
STYLE
  5
3
100
AcDbSymbolTable
 70
     3
  0
STYLE
  5
17
100
AcDbSymbolTableRecord
100
AcDbTextStyleTableRecord
  2
STANDARD
 70
     0
 40
0.0
 41
1.0
 50
0.0
 71
     0
 42
0.0
  3
monotxt
  4
extfont
  0
STYLE
  5
23
100
AcDbSymbolTableRecord
100
AcDbTextStyleTableRecord
  2
EXCADSTD
 70
    64
 40
0.0
 41
1.0
 50
0.0
 71
     0
 42
0.2
  3
monotxt
  4
extfont
  0
STYLE
  5
24
100
AcDbSymbolTableRecord
100
AcDbTextStyleTableRecord
  2
EXCADVERT
 70
    68
 40
0.0
 41
1.0
 50
0.0
 71
     0
 42
0.286885
  3
monotxt
  4
extfont
  0
ENDTAB
  0
TABLE
  2
VIEW
  5
5
100
AcDbSymbolTable
 70
     0
  0
ENDTAB
  0
TABLE
  2
UCS
  5
6
100
AcDbSymbolTable
 70
     0
  0
ENDTAB
  0
TABLE
  2
APPID
  5
8
100
AcDbSymbolTable
 70
     1
  0
APPID
  5
16
100
AcDbSymbolTableRecord
100
AcDbRegAppTableRecord
  2
ACAD
 70
     0
  0
ENDTAB
  0
TABLE
  2
DIMSTYLE
  5
9
100
AcDbSymbolTable
 70
     1
  0
DIMSTYLE
105
18
100
AcDbSymbolTableRecord
100
AcDbDimStyleTableRecord
  2
STANDARD
 70
     0
  3

  4

  5

  6

  7

 40
1.0
 41
0.18
 42
0.0625
 43
0.38
 44
0.18
 45
0.0
 46
0.0
 47
0.0
 48
0.0
 71
     0
 72
     0
 73
     1
 74
     1
 75
     0
 76
     0
 77
     0
 78
     0
140
0.18
141
0.09
142
0.0
143
25.4
144
1.0
145
0.0
146
1.0
147
0.09
170
     0
171
     2
172
     1
173
     0
174
     0
175
     0
176
     0
177
     0
178
     0
270
     2
271
     4
272
     4
273
     2
274
     2
275
     0
280
     0
281
     0
282
     0
283
     1
284
     0
285
     0
286
     0
287
     3
288
     0
340
17
  0
ENDTAB
  0
TABLE
  2
BLOCK_RECORD
  5
1
100
AcDbSymbolTable
 70
    15
  0
BLOCK_RECORD
  5
A
100
AcDbSymbolTableRecord
100
AcDbBlockTableRecord
  2
*MODEL_SPACE
  0
BLOCK_RECORD
  5
B
100
AcDbSymbolTableRecord
100
AcDbBlockTableRecord
  2
*PAPER_SPACE
  0
BLOCK_RECORD
  5
28
100
AcDbSymbolTableRecord
100
AcDbBlockTableRecord
  2
_EX_NORM
  0
BLOCK_RECORD
  5
29
100
AcDbSymbolTableRecord
100
AcDbBlockTableRecord
  2
_EX_BNORM
  0
BLOCK_RECORD
  5
2A
100
AcDbSymbolTableRecord
100
AcDbBlockTableRecord
  2
_EX_BCIR
  0
BLOCK_RECORD
  5
2B
100
AcDbSymbolTableRecord
100
AcDbBlockTableRecord
  2
_EX_RCIVIL
  0
BLOCK_RECORD
  5
2C
100
AcDbSymbolTableRecord
100
AcDbBlockTableRecord
  2
_EX_SLANT
  0
BLOCK_RECORD
  5
2D
100
AcDbSymbolTableRecord
100
AcDbBlockTableRecord
  2
_EX_NONE
  0
BLOCK_RECORD
  5
2E
100
AcDbSymbolTableRecord
100
AcDbBlockTableRecord
  2
_EX_CIVIL
  0
BLOCK_RECORD
  5
2F
100
AcDbSymbolTableRecord
100
AcDbBlockTableRecord
  2
_EX_WCIR
  0
BLOCK_RECORD
  5
30
100
AcDbSymbolTableRecord
100
AcDbBlockTableRecord
  2
_EX_WCIR2
  0
BLOCK_RECORD
  5
31
100
AcDbSymbolTableRecord
100
AcDbBlockTableRecord
  2
_EX_WNORM
  0
BLOCK_RECORD
  5
32
100
AcDbSymbolTableRecord
100
AcDbBlockTableRecord
  2
_EX_NNORM
  0
BLOCK_RECORD
  5
33
100
AcDbSymbolTableRecord
100
AcDbBlockTableRecord
  2
_EX_BBOX
  0
BLOCK_RECORD
  5
34
100
AcDbSymbolTableRecord
100
AcDbBlockTableRecord
  2
_EX_WBOX
  0
BLOCK_RECORD
  5
35
100
AcDbSymbolTableRecord
100
AcDbBlockTableRecord
  2
_EX_INTEGRAL
  0
BLOCK_RECORD
  5
36
100
AcDbSymbolTableRecord
100
AcDbBlockTableRecord
  2
SYM-1
  0
ENDTAB
  0
ENDSEC
  0
SECTION
  2
BLOCKS
  0
BLOCK
  5
D
100
AcDbEntity
  8
0
100
AcDbBlockBegin
  2
*MODEL_SPACE
 70
     0
 10
0.0
 20
0.0
 30
0.0
  3
*MODEL_SPACE
  1

  0
ENDBLK
  5
E
100
AcDbEntity
  8
0
100
AcDbBlockEnd
  0
BLOCK
  5
F
100
AcDbEntity
 67
     1
  8
0
100
AcDbBlockBegin
  2
*PAPER_SPACE
 70
     0
 10
0.0
 20
0.0
 30
0.0
  3
*PAPER_SPACE
  1

  0
ENDBLK
  5
10
100
AcDbEntity
 67
     1
  8
0
100
AcDbBlockEnd
  0
BLOCK
  5
37
100
AcDbEntity
  8
0
100
AcDbBlockBegin
  2
_EX_NORM
 70
     0
 10
0.0
 20
0.0
 30
0.0
  3
_EX_NORM
  1

  0
LINE
  5
38
100
AcDbEntity
  8
0
  6
CONTINUOUS
 62
     0
100
AcDbLine
 10
0.0
 20
0.0
 30
0.0
 11
-1.0
 21
0.0
 31
0.0
  0
LINE
  5
39
100
AcDbEntity
  8
0
  6
CONTINUOUS
 62
     0
100
AcDbLine
 10
0.0
 20
0.0
 30
0.0
 11
-1.0
 21
0.166667
 31
0.0
  0
LINE
  5
3A
100
AcDbEntity
  8
0
  6
CONTINUOUS
 62
     0
100
AcDbLine
 10
0.0
 20
0.0
 30
0.0
 11
-1.0
 21
-0.166667
 31
0.0
  0
ENDBLK
  5
3B
100
AcDbEntity
  8
0
100
AcDbBlockEnd
  0
BLOCK
  5
3C
100
AcDbEntity
  8
0
100
AcDbBlockBegin
  2
_EX_BNORM
 70
     0
 10
0.0
 20
0.0
 30
0.0
  3
_EX_BNORM
  1

  0
LINE
  5
3D
100
AcDbEntity
  8
0
  6
CONTINUOUS
 62
     0
100
AcDbLine
 10
0.0
 20
0.0
 30
0.0
 11
-1.0
 21
0.0
 31
0.0
  0
LINE
  5
3E
100
AcDbEntity
  8
0
  6
CONTINUOUS
 62
     0
100
AcDbLine
 10
0.0
 20
0.0
 30
0.0
 11
-1.0
 21
0.166667
 31
0.0
  0
LINE
  5
3F
100
AcDbEntity
  8
0
  6
CONTINUOUS
 62
     0
100
AcDbLine
 10
0.0
 20
0.0
 30
0.0
 11
-1.0
 21
-0.166667
 31
0.0
  0
LINE
  5
40
100
AcDbEntity
  8
0
  6
CONTINUOUS
 62
     0
100
AcDbLine
 10
0.0
 20
0.0
 30
0.0
 11
-1.0
 21
0.083333
 31
0.0
  0
LINE
  5
41
100
AcDbEntity
  8
0
  6
CONTINUOUS
 62
     0
100
AcDbLine
 10
0.0
 20
0.0
 30
0.0
 11
-1.0
 21
-0.083333
 31
0.0
  0
LINE
  5
42
100
AcDbEntity
  8
0
  6
CONTINUOUS
 62
     0
100
AcDbLine
 10
-1.0
 20
0.166667
 30
0.0
 11
-1.0
 21
-0.166667
 31
0.0
  0
ENDBLK
  5
43
100
AcDbEntity
  8
0
100
AcDbBlockEnd
  0
BLOCK
  5
44
100
AcDbEntity
  8
0
100
AcDbBlockBegin
  2
_EX_BCIR
 70
     0
 10
0.0
 20
0.0
 30
0.0
  3
_EX_BCIR
  1

  0
LINE
  5
45
100
AcDbEntity
  8
0
  6
CONTINUOUS
 62
     0
100
AcDbLine
 10
0.0
 20
0.0
 30
0.0
 11
-1.0
 21
0.0
 31
0.0
  0
CIRCLE
  5
46
100
AcDbEntity
  8
0
  6
CONTINUOUS
 62
     0
100
AcDbCircle
 10
0.0
 20
0.0
 30
0.0
 40
0.5
  0
CIRCLE
  5
47
100
AcDbEntity
  8
0
  6
CONTINUOUS
 62
     0
100
AcDbCircle
 10
0.0
 20
0.0
 30
0.0
 40
0.25
  0
ENDBLK
  5
48
100
AcDbEntity
  8
0
100
AcDbBlockEnd
  0
BLOCK
  5
49
100
AcDbEntity
  8
0
100
AcDbBlockBegin
  2
_EX_RCIVIL
 70
     0
 10
0.0
 20
0.0
 30
0.0
  3
_EX_RCIVIL
  1

  0
LINE
  5
4A
100
AcDbEntity
  8
0
  6
CONTINUOUS
 62
     0
100
AcDbLine
 10
0.0
 20
0.0
 30
0.0
 11
-1.0
 21
0.0
 31
0.0
  0
LINE
  5
4B
100
AcDbEntity
  8
0
  6
CONTINUOUS
 62
     0
100
AcDbLine
 10
-1.0
 20
-0.25
 30
0.0
 11
0.0
 21
-0.25
 31
0.0
  0
LINE
  5
4C
100
AcDbEntity
  8
0
  6
CONTINUOUS
 62
     0
100
AcDbLine
 10
-1.0
 20
-0.125
 30
0.0
 11
0.0
 21
-0.125
 31
0.0
  0
ENDBLK
  5
4D
100
AcDbEntity
  8
0
100
AcDbBlockEnd
  0
BLOCK
  5
4E
100
AcDbEntity
  8
0
100
AcDbBlockBegin
  2
_EX_SLANT
 70
     0
 10
0.0
 20
0.0
 30
0.0
  3
_EX_SLANT
  1

  0
LINE
  5
4F
100
AcDbEntity
  8
0
  6
CONTINUOUS
 62
     0
100
AcDbLine
 10
0.0
 20
0.0
 30
0.0
 11
-1.0
 21
0.0
 31
0.0
  0
LINE
  5
50
100
AcDbEntity
  8
0
  6
CONTINUOUS
 62
     0
100
AcDbLine
 10
0.707107
 20
0.707107
 30
0.0
 11
-0.707107
 21
-0.707107
 31
0.0
  0
ENDBLK
  5
51
100
AcDbEntity
  8
0
100
AcDbBlockEnd
  0
BLOCK
  5
52
100
AcDbEntity
  8
0
100
AcDbBlockBegin
  2
_EX_NONE
 70
     0
 10
0.0
 20
0.0
 30
0.0
  3
_EX_NONE
  1

  0
LINE
  5
53
100
AcDbEntity
  8
0
  6
CONTINUOUS
 62
     0
100
AcDbLine
 10
0.0
 20
0.0
 30
0.0
 11
-1.0
 21
0.0
 31
0.0
  0
ENDBLK
  5
54
100
AcDbEntity
  8
0
100
AcDbBlockEnd
  0
BLOCK
  5
55
100
AcDbEntity
  8
0
100
AcDbBlockBegin
  2
_EX_CIVIL
 70
     0
 10
0.0
 20
0.0
 30
0.0
  3
_EX_CIVIL
  1

  0
LINE
  5
56
100
AcDbEntity
  8
0
  6
CONTINUOUS
 62
     0
100
AcDbLine
 10
0.0
 20
0.0
 30
0.0
 11
-1.0
 21
0.0
 31
0.0
  0
LINE
  5
57
100
AcDbEntity
  8
0
  6
CONTINUOUS
 62
     0
100
AcDbLine
 10
-1.0
 20
0.25
 30
0.0
 11
0.0
 21
0.25
 31
0.0
  0
LINE
  5
58
100
AcDbEntity
  8
0
  6
CONTINUOUS
 62
     0
100
AcDbLine
 10
-1.0
 20
0.125
 30
0.0
 11
0.0
 21
0.125
 31
0.0
  0
ENDBLK
  5
59
100
AcDbEntity
  8
0
100
AcDbBlockEnd
  0
BLOCK
  5
5A
100
AcDbEntity
  8
0
100
AcDbBlockBegin
  2
_EX_WCIR
 70
     0
 10
0.0
 20
0.0
 30
0.0
  3
_EX_WCIR
  1

  0
LINE
  5
5B
100
AcDbEntity
  8
0
  6
CONTINUOUS
 62
     0
100
AcDbLine
 10
0.0
 20
0.0
 30
0.0
 11
-1.0
 21
0.0
 31
0.0
  0
CIRCLE
  5
5C
100
AcDbEntity
  8
0
  6
CONTINUOUS
 62
     0
100
AcDbCircle
 10
0.0
 20
0.0
 30
0.0
 40
0.5
  0
ENDBLK
  5
5D
100
AcDbEntity
  8
0
100
AcDbBlockEnd
  0
BLOCK
  5
5E
100
AcDbEntity
  8
0
100
AcDbBlockBegin
  2
_EX_WCIR2
 70
     0
 10
0.0
 20
0.0
 30
0.0
  3
_EX_WCIR2
  1

  0
LINE
  5
5F
100
AcDbEntity
  8
0
  6
CONTINUOUS
 62
     0
100
AcDbLine
 10
-0.5
 20
0.0
 30
0.0
 11
-1.0
 21
0.0
 31
0.0
  0
CIRCLE
  5
60
100
AcDbEntity
  8
0
  6
CONTINUOUS
 62
     0
100
AcDbCircle
 10
0.0
 20
0.0
 30
0.0
 40
0.5
  0
ENDBLK
  5
61
100
AcDbEntity
  8
0
100
AcDbBlockEnd
  0
BLOCK
  5
62
100
AcDbEntity
  8
0
100
AcDbBlockBegin
  2
_EX_WNORM
 70
     0
 10
0.0
 20
0.0
 30
0.0
  3
_EX_WNORM
  1

  0
LINE
  5
63
100
AcDbEntity
  8
0
  6
CONTINUOUS
 62
     0
100
AcDbLine
 10
-1.0
 20
0.0
 30
0.0
 11
-1.0
 21
0.0
 31
0.0
  0
LINE
  5
64
100
AcDbEntity
  8
0
  6
CONTINUOUS
 62
     0
100
AcDbLine
 10
0.0
 20
0.0
 30
0.0
 11
-1.0
 21
0.166667
 31
0.0
  0
LINE
  5
65
100
AcDbEntity
  8
0
  6
CONTINUOUS
 62
     0
100
AcDbLine
 10
0.0
 20
0.0
 30
0.0
 11
-1.0
 21
-0.166667
 31
0.0
  0
LINE
  5
66
100
AcDbEntity
  8
0
  6
CONTINUOUS
 62
     0
100
AcDbLine
 10
-1.0
 20
0.166667
 30
0.0
 11
-1.0
 21
-0.166667
 31
0.0
  0
ENDBLK
  5
67
100
AcDbEntity
  8
0
100
AcDbBlockEnd
  0
BLOCK
  5
68
100
AcDbEntity
  8
0
100
AcDbBlockBegin
  2
_EX_NNORM
 70
     0
 10
0.0
 20
0.0
 30
0.0
  3
_EX_NNORM
  1

  0
LINE
  5
69
100
AcDbEntity
  8
0
  6
CONTINUOUS
 62
     0
100
AcDbLine
 10
0.0
 20
0.0
 30
0.0
 11
-1.0
 21
0.0
 31
0.0
  0
LINE
  5
6A
100
AcDbEntity
  8
0
  6
CONTINUOUS
 62
     0
100
AcDbLine
 10
0.0
 20
0.0
 30
0.0
 11
-1.0
 21
0.166667
 31
0.0
  0
LINE
  5
6B
100
AcDbEntity
  8
0
  6
CONTINUOUS
 62
     0
100
AcDbLine
 10
0.0
 20
0.0
 30
0.0
 11
-1.0
 21
-0.166667
 31
0.0
  0
LINE
  5
6C
100
AcDbEntity
  8
0
  6
CONTINUOUS
 62
     0
100
AcDbLine
 10
-1.0
 20
0.166667
 30
0.0
 11
-1.0
 21
-0.166667
 31
0.0
  0
ENDBLK
  5
6D
100
AcDbEntity
  8
0
100
AcDbBlockEnd
  0
BLOCK
  5
6E
100
AcDbEntity
  8
0
100
AcDbBlockBegin
  2
_EX_BBOX
 70
     0
 10
0.0
 20
0.0
 30
0.0
  3
_EX_BBOX
  1

  0
LINE
  5
6F
100
AcDbEntity
  8
0
  6
CONTINUOUS
 62
     0
100
AcDbLine
 10
0.0
 20
0.0
 30
0.0
 11
-1.0
 21
0.0
 31
0.0
  0
LINE
  5
70
100
AcDbEntity
  8
0
  6
CONTINUOUS
 62
     0
100
AcDbLine
 10
-0.5
 20
0.5
 30
0.0
 11
0.5
 21
0.5
 31
0.0
  0
LINE
  5
71
100
AcDbEntity
  8
0
  6
CONTINUOUS
 62
     0
100
AcDbLine
 10
0.5
 20
0.5
 30
0.0
 11
0.5
 21
-0.5
 31
0.0
  0
LINE
  5
72
100
AcDbEntity
  8
0
  6
CONTINUOUS
 62
     0
100
AcDbLine
 10
0.5
 20
-0.5
 30
0.0
 11
-0.5
 21
-0.5
 31
0.0
  0
LINE
  5
73
100
AcDbEntity
  8
0
  6
CONTINUOUS
 62
     0
100
AcDbLine
 10
-0.5
 20
-0.5
 30
0.0
 11
-0.5
 21
0.5
 31
0.0
  0
LINE
  5
74
100
AcDbEntity
  8
0
  6
CONTINUOUS
 62
     0
100
AcDbLine
 10
-0.25
 20
0.25
 30
0.0
 11
0.25
 21
0.25
 31
0.0
  0
LINE
  5
75
100
AcDbEntity
  8
0
  6
CONTINUOUS
 62
     0
100
AcDbLine
 10
0.25
 20
0.25
 30
0.0
 11
0.25
 21
-0.25
 31
0.0
  0
LINE
  5
76
100
AcDbEntity
  8
0
  6
CONTINUOUS
 62
     0
100
AcDbLine
 10
0.25
 20
-0.25
 30
0.0
 11
-0.25
 21
-0.25
 31
0.0
  0
LINE
  5
77
100
AcDbEntity
  8
0
  6
CONTINUOUS
 62
     0
100
AcDbLine
 10
-0.25
 20
-0.25
 30
0.0
 11
-0.25
 21
0.25
 31
0.0
  0
ENDBLK
  5
78
100
AcDbEntity
  8
0
100
AcDbBlockEnd
  0
BLOCK
  5
79
100
AcDbEntity
  8
0
100
AcDbBlockBegin
  2
_EX_WBOX
 70
     0
 10
0.0
 20
0.0
 30
0.0
  3
_EX_WBOX
  1

  0
LINE
  5
7A
100
AcDbEntity
  8
0
  6
CONTINUOUS
 62
     0
100
AcDbLine
 10
-0.5
 20
0.0
 30
0.0
 11
-1.0
 21
0.0
 31
0.0
  0
LINE
  5
7B
100
AcDbEntity
  8
0
  6
CONTINUOUS
 62
     0
100
AcDbLine
 10
-0.5
 20
0.5
 30
0.0
 11
0.5
 21
0.5
 31
0.0
  0
LINE
  5
7C
100
AcDbEntity
  8
0
  6
CONTINUOUS
 62
     0
100
AcDbLine
 10
0.5
 20
0.5
 30
0.0
 11
0.5
 21
-0.5
 31
0.0
  0
LINE
  5
7D
100
AcDbEntity
  8
0
  6
CONTINUOUS
 62
     0
100
AcDbLine
 10
0.5
 20
-0.5
 30
0.0
 11
-0.5
 21
-0.5
 31
0.0
  0
LINE
  5
7E
100
AcDbEntity
  8
0
  6
CONTINUOUS
 62
     0
100
AcDbLine
 10
-0.5
 20
-0.5
 30
0.0
 11
-0.5
 21
0.5
 31
0.0
  0
ENDBLK
  5
7F
100
AcDbEntity
  8
0
100
AcDbBlockEnd
  0
BLOCK
  5
80
100
AcDbEntity
  8
0
100
AcDbBlockBegin
  2
_EX_INTEGRAL
 70
     0
 10
0.0
 20
0.0
 30
0.0
  3
_EX_INTEGRAL
  1

  0
LINE
  5
81
100
AcDbEntity
  8
0
  6
CONTINUOUS
 62
     0
100
AcDbLine
 10
0.0
 20
0.0
 30
0.0
 11
-1.0
 21
0.0
 31
0.0
  0
ARC
  5
82
100
AcDbEntity
  8
0
  6
CONTINUOUS
 62
     0
100
AcDbCircle
 10
0.542115
 20
0.164992
 30
0.0
 40
0.56667
100
AcDbArc
 50
73.07249
 51
196.927513
  0
ARC
  5
83
100
AcDbEntity
  8
0
  6
CONTINUOUS
 62
     0
100
AcDbCircle
 10
-0.542115
 20
-0.164992
 30
0.0
 40
0.56667
100
AcDbArc
 50
253.072487
 51
16.927513
  0
ENDBLK
  5
84
100
AcDbEntity
  8
0
100
AcDbBlockEnd
  0
BLOCK
  5
85
100
AcDbEntity
  8
0
100
AcDbBlockBegin
  2
SYM-1
 70
     0
 10
0.0
 20
0.0
 30
0.0
  3
SYM-1
  1

  0
HATCH
  5
86
100
AcDbEntity
  8
0
  6
CONTINUOUS
 62
     3
100
AcDbHatch
 10
0.0
 20
0.0
 30
0.0
210
0.0
220
0.0
230
1.0
  2
SOLID
 70
     1
 71
     1
 91
        1
 92
        1
 93
       16
 72
     1
 10
24.351152239011505
 20
-2.0357142857144446
 11
25.613295096154353
 21
-2.0357142857144446
 72
     1
 10
25.613295096154353
 20
-2.0357142857144446
 11
25.613295096154353
 21
-2.8500000000001648
 72
     1
 10
25.613295096154353
 20
-2.8500000000001648
 11
22.23400938186861
 21
-2.8500000000001648
 72
     1
 10
22.23400938186861
 20
-2.8500000000001648
 11
22.23400938186861
 21
-2.0357142857144446
 72
     1
 10
22.23400938186861
 20
-2.0357142857144446
 11
23.536866524725802
 21
-2.0357142857144446
 72
     1
 10
23.536866524725802
 20
-2.0357142857144446
 11
23.536866524725802
 21
0.3257142857141346
 72
     1
 10
23.536866524725802
 20
0.3257142857141346
 11
22.519009381868621
 21
0.3257142857141346
 72
     1
 10
22.519009381868621
 20
0.3257142857141346
 11
22.519009381868621
 21
1.1399999999998514
 72
     1
 10
22.519009381868621
 20
1.1399999999998514
 11
23.536866524725802
 21
1.1399999999998514
 72
     1
 10
23.536866524725802
 20
1.1399999999998514
 11
23.536866524725802
 21
2.8499999999998487
 72
     1
 10
23.536866524725802
 20
2.8499999999998487
 11
24.351152239011505
 21
2.8499999999998487
 72
     1
 10
24.351152239011505
 20
2.8499999999998487
 11
24.351152239011505
 21
1.1399999999998514
 72
     1
 10
24.351152239011505
 20
1.1399999999998514
 11
25.531866524725821
 21
1.1399999999998514
 72
     1
 10
25.531866524725821
 20
1.1399999999998514
 11
25.531866524725821
 21
0.3257142857141346
 72
     1
 10
25.531866524725821
 20
0.3257142857141346
 11
24.351152239011505
 21
0.3257142857141346
 72
     1
 10
24.351152239011505
 20
0.3257142857141346
 11
24.351152239011505
 21
-2.0357142857144446
 97
        0
 75
     0
 76
     1
 98
        1
 10
0.0
 20
0.0
  0
HATCH
  5
87
100
AcDbEntity
  8
0
  6
CONTINUOUS
 62
     3
100
AcDbHatch
 10
0.0
 20
0.0
 30
0.0
210
0.0
220
0.0
230
1.0
  2
SOLID
 70
     1
 71
     1
 91
        1
 92
        1
 93
       17
 72
     2
 10
15.796286246552746
 20
4.4303755974531924
 40
7.328571428571454
 50
44.165469
 51
51.472792
 73
     0
 72
     1
 10
20.361152239011439
 20
-1.3028571428572775
 11
19.948878200429583
 21
-0.5887775613918898
 72
     2
 10
15.796286246552746
 20
4.4303755974531924
 40
6.5142857142857364
 50
309.602625
 51
331.307968
 73
     1
 72
     1
 10
21.510701937024301
 20
1.3028571428570004
 11
20.157580810440017
 21
1.3028571428570004
 72
     1
 10
20.157580810440017
 20
1.3028571428570004
 11
20.157580810440017
 21
2.0357142857141319
 72
     1
 10
20.157580810440017
 20
2.0357142857141319
 11
21.053295096154336
 21
2.0357142857141319
 72
     1
 10
21.053295096154336
 20
2.0357142857141319
 11
21.053295096154336
 21
2.8499999999998487
 72
     1
 10
21.053295096154336
 20
2.8499999999998487
 11
21.786152239011507
 21
2.8499999999998487
 72
     1
 10
21.786152239011507
 20
2.8499999999998487
 11
21.786152239011507
 21
2.0357142857141319
 72
     1
 10
21.786152239011507
 20
2.0357142857141319
 11
22.722580810439986
 21
2.0357142857141319
 72
     2
 10
15.796286246552746
 20
4.4303755974531924
 40
7.328571428571454
 50
19.072051
 51
32.871988
 73
     0
 72
     1
 10
21.951445818831196
 20
0.4526916201288422
 11
22.926152239011437
 21
-0.4885714285715821
 72
     1
 10
22.926152239011437
 20
-0.4885714285715821
 11
22.350277580116831
 21
-1.0644460874662265
 72
     1
 10
22.350277580116831
 20
-1.0644460874662265
 11
21.786152239011507
 21
-0.5196765779765897
 72
     1
 10
21.786152239011507
 20
-0.5196765779765897
 11
21.786152239011507
 21
-2.8500000000001648
 72
     1
 10
21.786152239011507
 20
-2.8500000000001648
 11
21.053295096154336
 21
-2.8500000000001648
 72
     1
 10
21.053295096154336
 20
-2.8500000000001648
 11
21.053295096154336
 21
-0.6756813096801793
 97
        0
 75
     0
 76
     1
 98
        1
 10
0.0
 20
0.0
  0
HATCH
  5
88
100
AcDbEntity
  8
0
  6
CONTINUOUS
 62
     3
100
AcDbHatch
 10
0.0
 20
0.0
 30
0.0
210
0.0
220
0.0
230
1.0
  2
SOLID
 70
     1
 71
     1
 91
        1
 92
        1
 93
       12
 72
     2
 10
26.09465466477446
 20
-6.5604295733743392
 40
11.481428571428609
 50
150.903074
 51
156.790773
 73
     1
 72
     1
 10
15.542396441700383
 20
-2.035714285714505
 11
18.049394029288031
 21
-2.0357142857144055
 72
     2
 10
10.927987441101074
 20
-4.0835590566205937
 40
7.4100000000000241
 50
16.043216
 51
21.362935
 73
     1
 72
     1
 10
17.828858648663306
 20
-1.3842857142858769
 11
18.610437953297115
 21
-1.3842857142858769
 72
     2
 10
10.927987441101074
 20
-4.0835590566205937
 40
8.1428571428571708
 50
340.64078
 51
351.286733
 73
     0
 72
     1
 10
18.976866524725686
 20
-2.8500000000001648
 11
14.457580810439971
 21
-2.8500000000001648
 72
     2
 10
26.09465466477446
 20
-6.5604295733743392
 40
12.214285714285754
 50
197.684652
 51
207.200855
 73
     0
 72
     1
 10
15.231152239011401
 20
-0.9771428571430043
 11
14.091152239011485
 21
-0.9771428571430043
 72
     1
 10
14.091152239011485
 20
-0.9771428571430043
 11
14.091152239011485
 21
-0.162857142857284
 72
     1
 10
14.091152239011485
 20
-0.162857142857284
 11
19.302580810440098
 21
-0.162857142857284
 72
     1
 10
19.302580810440098
 20
-0.162857142857284
 11
19.302580810440098
 21
-0.9771428571430043
 72
     1
 10
19.302580810440098
 20
-0.9771428571430043
 11
16.062201750099412
 21
-0.9771428571430043
 97
        0
 75
     0
 76
     1
 98
        1
 10
0.0
 20
0.0
  0
HATCH
  5
89
100
AcDbEntity
  8
0
  6
CONTINUOUS
 62
     3
100
AcDbHatch
 10
0.0
 20
0.0
 30
0.0
210
0.0
220
0.0
230
1.0
  2
SOLID
 70
     1
 71
     1
 91
        1
 92
        1
 93
       10
 72
     2
 10
26.143491684008573
 20
11.064410217386417
 40
13.028571428571473
 50
129.545698
 51
136.474664
 73
     0
 72
     1
 10
16.696866524725998
 20
2.0919553376225579
 11
16.696866524725998
 21
2.8499999999998487
 72
     1
 10
16.696866524725998
 20
2.8499999999998487
 11
17.104009381868686
 21
2.8499999999998487
 72
     2
 10
26.143491684008573
 20
11.064410217386417
 40
12.214285714285754
 50
222.262231
 51
237.763996
 73
     1
 72
     1
 10
19.628295096154382
 20
0.7328571428570001
 11
19.100346295490944
 21
0.1036722629605507
 72
     2
 10
26.143491684008573
 20
11.064410217386417
 40
13.028571428571473
 50
122.723968
 51
128.230009
 73
     0
 72
     1
 10
18.08115223901148
 20
0.830038905819066
 11
18.08115223901148
 21
0.2035714285712729
 72
     1
 10
18.08115223901148
 20
0.2035714285712729
 11
16.696866524725998
 21
0.2035714285712729
 72
     1
 10
16.696866524725998
 20
0.2035714285712729
 11
16.696866524725998
 21
1.0178571428569896
 72
     1
 10
16.696866524725998
 20
1.0178571428569896
 11
17.848285550942784
 21
1.0178571428569896
 97
        0
 75
     0
 76
     1
 98
        1
 10
0.0
 20
0.0
  0
HATCH
  5
8A
100
AcDbEntity
  8
0
  6
CONTINUOUS
 62
     3
100
AcDbHatch
 10
0.0
 20
0.0
 30
0.0
210
0.0
220
0.0
230
1.0
  2
SOLID
 70
     1
 71
     1
 91
        1
 92
        1
 93
       10
 72
     2
 10
7.2502413654429532
 20
11.064410217386417
 40
13.028571428571473
 50
51.769991
 51
57.276032
 73
     0
 72
     1
 10
14.293386753960569
 20
0.1036722629605329
 11
13.76543795329713
 21
0.7328571428569894
 72
     2
 10
7.2502413654429532
 20
11.064410217386417
 40
12.214285714285754
 50
302.236004
 51
317.737769
 73
     1
 72
     1
 10
16.289723667582841
 20
2.8499999999998487
 11
16.696866524725998
 21
2.8499999999998487
 72
     1
 10
16.696866524725998
 20
2.8499999999998487
 11
16.696866524725998
 21
2.0919553376230482
 72
     2
 10
7.2502413654429532
 20
11.064410217386417
 40
13.028571428571473
 50
43.525336
 51
50.454302
 73
     0
 72
     1
 10
15.545447498508743
 20
1.0178571428569896
 11
16.696866524725998
 21
1.0178571428569896
 72
     1
 10
16.696866524725998
 20
1.0178571428569896
 11
16.696866524725998
 21
0.2035714285712729
 72
     1
 10
16.696866524725998
 20
0.2035714285712729
 11
15.312580810440046
 21
0.2035714285712729
 72
     1
 10
15.312580810440046
 20
0.2035714285712729
 11
15.312580810440046
 21
0.8300389058190589
 97
        0
 75
     0
 76
     1
 98
        1
 10
0.0
 20
0.0
  0
HATCH
  5
8B
100
AcDbEntity
  8
0
  6
CONTINUOUS
 62
     3
100
AcDbHatch
 10
0.0
 20
0.0
 30
0.0
210
0.0
220
0.0
230
1.0
  2
SOLID
 70
     1
 71
     1
 91
        1
 92
        1
 93
       18
 72
     2
 10
1.2571935216656343
 20
-0.8093264034321166
 40
11.400000000000038
 50
14.02954
 51
18.723021
 73
     1
 72
     1
 10
12.053921279331213
 20
2.8499999999998487
 11
12.910437953297141
 21
2.8499999999998487
 72
     2
 10
1.2571935216656343
 20
-0.8093264034321166
 40
12.214285714285754
 50
342.566782
 51
346.922981
 73
     0
 72
     1
 10
13.15472366758285
 20
1.9542857142855716
 11
13.480437953297177
 21
1.9542857142855716
 72
     1
 10
13.480437953297177
 20
1.9542857142855716
 11
13.480437953297177
 21
1.1399999999998407
 72
     1
 10
13.480437953297177
 20
1.1399999999998407
 11
11.958092734747289
 21
1.1399999999998514
 72
     2
 10
20.401866524725683
 20
2.4835714285712918
 40
8.5500000000000291
 50
189.041096
 51
204.65198
 73
     1
 72
     2
 10
14.334076117775972
 20
-0.301141422634494
 40
1.8737206404808271
 50
204.65198
 51
242.897449
 73
     1
 72
     1
 10
13.480437953297177
 20
-1.9691135215345774
 11
13.480437953297177
 21
-2.8500000000001648
 72
     2
 10
14.334076117775972
 20
-0.301141422634494
 40
2.6880063547665438
 50
108.516212
 51
155.34802
 73
     0
 72
     2
 10
20.401866524725683
 20
2.4835714285712918
 40
9.3642857142857441
 50
155.34802
 51
171.750831
 73
     0
 72
     1
 10
11.134468683092756
 20
1.1399999999998549
 11
8.0247236675828972
 21
1.1399999999998407
 72
     1
 10
8.0247236675828972
 20
1.1399999999998407
 11
8.0247236675828972
 21
1.9542857142855716
 72
     1
 10
8.0247236675828972
 20
1.9542857142855716
 11
11.050355927894167
 21
1.9542857142855716
 72
     1
 10
11.050355927894167
 20
1.9542857142855716
 11
11.019076895792274
 21
2.8499999999998487
 72
     1
 10
11.019076895792274
 20
2.8499999999998487
 11
11.833858953292697
 21
2.8499999999998487
 72
     1
 10
11.833858953292697
 20
2.8499999999998487
 11
11.865137985394604
 21
1.9542857142855716
 72
     1
 10
11.865137985394604
 20
1.9542857142855716
 11
12.317141444816265
 21
1.9542857142855716
 97
        0
 75
     0
 76
     1
 98
        1
 10
0.0
 20
0.0
  0
HATCH
  5
8C
100
AcDbEntity
  8
0
  6
CONTINUOUS
 62
     3
100
AcDbHatch
 10
0.0
 20
0.0
 30
0.0
210
0.0
220
0.0
230
1.0
  2
SOLID
 70
     1
 71
     1
 91
        1
 92
        1
 93
       12
 72
     2
 10
5.4617420309248317
 20
38.027820957415145
 40
39.900000000000134
 50
276.500664
 51
278.269357
 73
     1
 72
     1
 10
11.200437953297204
 20
-1.457332823601817
 11
11.20043795329719
 21
-2.2800000000001504
 72
     2
 10
5.4617420309248317
 20
38.027820957415145
 40
40.71428571428585
 50
81.897153
 51
86.39082
 73
     0
 72
     1
 10
8.024723667582883
 20
-2.6057142857144413
 11
8.024723667582883
 21
-1.7897772264302034
 72
     2
 10
5.4617420309248317
 20
38.027820957415145
 40
39.900000000000134
 50
273.682937
 51
275.325087
 73
     1
 72
     1
 10
9.1647236675828836
 20
-1.6999769553635602
 11
9.1647236675828836
 21
-0.4071428571430218
 72
     1
 10
9.1647236675828836
 20
-0.4071428571430218
 11
8.0247236675828972
 21
-0.4071428571430218
 72
     1
 10
8.0247236675828972
 20
-0.4071428571430218
 11
8.0247236675828972
 21
0.4071428571426949
 72
     1
 10
8.0247236675828972
 20
0.4071428571426949
 11
10.95615223901148
 21
0.4071428571426949
 72
     1
 10
10.95615223901148
 20
0.4071428571426949
 11
10.95615223901148
 21
-0.4071428571430218
 72
     1
 10
10.95615223901148
 20
-0.4071428571430218
 11
9.9790093818686287
 21
-0.4071428571430218
 72
     1
 10
9.9790093818686287
 20
-0.4071428571430218
 11
9.9790093818685861
 21
-1.6156437710884397
 97
        0
 75
     0
 76
     1
 98
        1
 10
0.0
 20
0.0
  0
HATCH
  5
8D
100
AcDbEntity
  8
0
  6
CONTINUOUS
 62
     3
100
AcDbHatch
 10
0.0
 20
0.0
 30
0.0
210
0.0
220
0.0
230
1.0
  2
SOLID
 70
     1
 71
     1
 91
        1
 92
        1
 93
       30
 72
     2
 10
-1.8979256098940809
 20
4.1519130391923014
 40
8.9164285714286002
 50
37.940537
 51
46.713808
 73
     0
 72
     1
 10
4.21556076329842
 20
-2.3386942385728418
 11
3.6682950961542744
 21
-1.7914285714286962
 72
     2
 10
-1.8979256098940809
 20
4.1519130391923014
 40
8.1428571428571743
 50
313.123325
 51
325.95222
 73
     1
 72
     1
 10
4.8490093818684983
 20
-0.4071428571430076
 11
3.8718665247257533
 21
-0.4071428571430076
 72
     1
 10
3.8718665247257533
 20
-0.4071428571430076
 11
3.8718665247257533
 21
0.4071428571427092
 72
     1
 10
3.8718665247257533
 20
0.4071428571427092
 11
5.1340093818686157
 21
0.4071428571427092
 72
     1
 10
5.1340093818686157
 20
0.4071428571427092
 11
5.1340093818686157
 21
1.2214285714284152
 72
     1
 10
5.1340093818686157
 20
1.2214285714284152
 11
4.7280236542212677
 21
1.2214285714284152
 72
     2
 10
-3.9789687629962955
 20
2.9438069062169916
 40
8.8757142857143183
 50
11.189535
 51
14.746058
 73
     0
 72
     1
 10
4.6044101437030562
 20
0.6846232869284066
 11
3.9125808104399411
 21
0.9364285714284044
 72
     2
 10
-3.9789687629962955
 20
2.9438069062169916
 40
8.1428571428571743
 50
345.728313
 51
357.620387
 73
     1
 72
     1
 10
4.1568665247257641
 20
2.6057142857165694
 11
4.8844833536651819
 21
2.4774158071570227
 72
     2
 10
-3.9789687629962955
 20
2.9438069062169916
 40
8.8757142857143183
 50
3.012102
 51
6.401006
 73
     0
 72
     1
 10
4.8414139890361767
 20
1.9542857142855716
 11
5.1340093818686157
 21
1.9542857142855716
 72
     1
 10
5.1340093818686157
 20
1.9542857142855716
 11
5.1340093818686157
 21
2.8499999999998487
 72
     1
 10
5.1340093818686157
 20
2.8499999999998487
 11
5.948295096154304
 21
2.8499999999998487
 72
     1
 10
5.948295096154304
 20
2.8499999999998487
 11
5.948295096154304
 21
1.9542857142855716
 72
     1
 10
5.948295096154304
 20
1.9542857142855716
 11
7.0475808104400599
 21
1.9542857142855716
 72
     1
 10
7.0475808104400599
 20
1.9542857142855716
 11
7.0475808104400599
 21
1.2214285714284152
 72
     1
 10
7.0475808104400599
 20
1.2214285714284152
 11
5.948295096154304
 21
1.2214285714284152
 72
     1
 10
5.948295096154304
 20
1.2214285714284152
 11
5.948295096154304
 21
0.4071428571427092
 72
     1
 10
5.948295096154304
 20
0.4071428571427092
 11
7.2104379532971521
 21
0.4071428571427092
 72
     1
 10
7.2104379532971521
 20
0.4071428571427092
 11
7.2104379532971521
 21
-0.4071428571430076
 72
     1
 10
7.2104379532971521
 20
-0.4071428571430076
 11
6.2332950961542579
 21
-0.4071428571430076
 72
     2
 10
12.98023008791683
 20
4.1519130391922907
 40
8.1428571428571743
 50
214.04778
 51
226.876675
 73
     1
 72
     1
 10
7.4140093818684889
 20
-1.7914285714286962
 11
6.866743714724322
 21
-2.3386942385728453
 72
     2
 10
12.98023008791683
 20
4.1519130391922907
 40
8.9164285714286002
 50
133.286192
 51
142.059463
 73
     0
 72
     1
 10
5.948295096154304
 20
-1.330293518482641
 11
5.948295096154304
 21
-2.8500000000001648
 72
     1
 10
5.948295096154304
 20
-2.8500000000001648
 11
5.1340093818686157
 21
-2.8500000000001648
 72
     1
 10
5.1340093818686157
 20
-2.8500000000001648
 11
5.1340093818686157
 21
-1.3302935184824136
 97
        0
 75
     0
 76
     1
 98
        1
 10
0.0
 20
0.0
  0
HATCH
  5
8E
100
AcDbEntity
  8
0
  6
CONTINUOUS
 62
     3
100
AcDbHatch
 10
0.0
 20
0.0
 30
0.0
210
0.0
220
0.0
230
1.0
  2
SOLID
 70
     1
 71
     1
 91
        1
 92
        1
 93
       19
 72
     2
 10
-5.2499698511775321
 20
3.0651230633969284
 40
8.8757142857143165
 50
27.683433
 51
32.280505
 73
     0
 72
     1
 10
2.2539459810095721
 20
-1.6750827617845943
 11
1.6732950961542841
 21
-1.2214285714287314
 72
     2
 10
-5.2499698511775321
 20
3.0651230633969284
 40
8.1428571428571708
 50
328.236207
 51
344.845745
 73
     1
 72
     1
 10
2.6097236675827773
 20
0.9364285714284151
 11
1.8768665247257346
 21
0.9364285714284151
 72
     1
 10
1.8768665247257346
 20
0.9364285714284151
 11
1.8768665247257346
 21
1.7507142857141353
 72
     1
 10
1.8768665247257346
 20
1.7507142857141353
 11
2.6097236675829052
 21
1.7507142857141353
 72
     1
 10
2.6097236675829052
 20
1.7507142857141353
 11
2.6097236675829052
 21
2.8499999999998487
 72
     1
 10
2.6097236675829052
 20
2.8499999999998487
 11
3.4240093818685935
 21
2.8499999999998487
 72
     1
 10
3.4240093818685935
 20
2.8499999999998487
 11
3.4240093818685935
 21
1.7507142857141353
 72
     1
 10
3.4240093818685935
 20
1.7507142857141353
 11
3.7904379532971788
 21
1.7507142857141353
 72
     1
 10
3.7904379532971788
 20
1.7507142857141353
 11
3.7904379532971788
 21
0.9364285714284151
 72
     1
 10
3.7904379532971788
 20
0.9364285714284151
 11
3.4240093818685367
 21
0.9364285714284151
 72
     1
 10
3.4240093818685367
 20
0.9364285714284151
 11
3.8718665247257533
 21
0.2968222855516665
 72
     1
 10
3.8718665247257533
 20
0.2968222855516665
 11
3.8718665247257533
 21
-0.1989042363292235
 72
     1
 10
3.8718665247257533
 20
-0.1989042363292235
 11
3.6275808104399871
 21
-0.4900326139487277
 72
     1
 10
3.6275808104399871
 20
-0.4900326139487277
 11
3.4240093818685935
 21
-0.1993024840048498
 72
     1
 10
3.4240093818685935
 20
-0.1993024840048498
 11
3.4240093818685935
 21
-2.8500000000001648
 72
     1
 10
3.4240093818685935
 20
-2.8500000000001648
 11
2.6097236675829052
 21
-2.8500000000001648
 72
     1
 10
2.6097236675829052
 20
-2.8500000000001648
 11
2.6097236675829052
 21
-1.0584096299120844
 97
        0
 75
     0
 76
     1
 98
        1
 10
0.0
 20
0.0
  0
HATCH
  5
8F
100
AcDbEntity
  8
0
  6
CONTINUOUS
 62
     3
100
AcDbHatch
 10
0.0
 20
0.0
 30
0.0
210
0.0
220
0.0
230
1.0
  2
SOLID
 70
     1
 71
     1
 91
        1
 92
        1
 93
        8
 72
     2
 10
-1.8298808996504405
 20
-0.4560000000002766
 40
1.596000000000013
 50
270.0
 51
330.0
 73
     1
 72
     2
 10
-2.619696067901863
 20
-0.00000000000027
 40
2.508000000000012
 50
330.0
 51
30.0
 73
     1
 72
     2
 10
-1.8298808996504405
 20
0.4559999999997331
 40
1.5960000000000121
 50
30.0
 51
90.0
 73
     1
 72
     1
 10
-1.82988089965
 20
2.0519999999997438
 11
-1.82988089965
 21
2.9639999999999276
 72
     2
 10
-1.8298808996504974
 20
0.4559999999999214
 40
2.508000000000008
 50
270.0
 51
330.0
 73
     0
 72
     2
 10
-2.6196960679017494
 20
-0.0000000000001243
 40
3.420000000000015
 50
330.0
 51
30.0
 73
     0
 72
     2
 10
-1.8298808996503837
 20
-0.456000000000369
 40
2.5080000000000053
 50
30.0
 51
90.0
 73
     0
 72
     1
 10
-1.82988089965
 20
-2.9640000000003752
 11
-1.82988089965
 21
-2.0520000000002909
 97
        0
 75
     0
 76
     1
 98
        1
 10
0.0
 20
0.0
  0
HATCH
  5
90
100
AcDbEntity
  8
0
  6
CONTINUOUS
 62
     3
100
AcDbHatch
 10
0.0
 20
0.0
 30
0.0
210
0.0
220
0.0
230
1.0
  2
SOLID
 70
     1
 71
     1
 91
        1
 92
        1
 93
        8
 72
     2
 10
-1.8298808996503837
 20
-0.456000000000369
 40
2.5080000000000053
 50
90.0
 51
150.0
 73
     0
 72
     2
 10
-1.0400657313991175
 20
-0.0000000000003126
 40
3.4200000000000181
 50
150.0
 51
210.0
 73
     0
 72
     2
 10
-1.8298808996504974
 20
0.4559999999999214
 40
2.508000000000008
 50
210.0
 51
270.0
 73
     0
 72
     1
 10
-1.82988089965
 20
2.9639999999999276
 11
-1.82988089965
 21
2.0519999999997438
 72
     2
 10
-1.8298808996504405
 20
0.4559999999997331
 40
1.5960000000000121
 50
90.0
 51
150.0
 73
     1
 72
     2
 10
-1.040065731399018
 20
-0.00000000000027
 40
2.5080000000000129
 50
150.0
 51
210.0
 73
     1
 72
     2
 10
-1.8298808996504405
 20
-0.4560000000002766
 40
1.596000000000013
 50
210.0
 51
270.0
 73
     1
 72
     1
 10
-1.82988089965
 20
-2.0520000000002909
 11
-1.82988089965
 21
-2.9640000000003752
 97
        0
 75
     0
 76
     1
 98
        1
 10
0.0
 20
0.0
  0
HATCH
  5
91
100
AcDbEntity
  8
0
  6
CONTINUOUS
 62
     3
100
AcDbHatch
 10
0.0
 20
0.0
 30
0.0
210
0.0
220
0.0
230
1.0
  2
SOLID
 70
     1
 71
     1
 91
        1
 92
        1
 93
        4
 72
     1
 10
-5.3638808996504608
 20
-1.0260000000002698
 11
-6.2758808996504385
 21
-1.0260000000002698
 72
     1
 10
-6.2758808996504385
 20
-1.0260000000002698
 11
-6.2758808996504385
 21
-0.1140000000002743
 72
     1
 10
-6.2758808996504385
 20
-0.1140000000002743
 11
-5.3638808996504608
 21
-0.1140000000002743
 72
     1
 10
-5.3638808996504608
 20
-0.1140000000002743
 11
-5.3638808996504608
 21
-1.0260000000003267
 97
        0
 75
     0
 76
     1
 98
        1
 10
0.0
 20
0.0
  0
HATCH
  5
92
100
AcDbEntity
  8
0
  6
CONTINUOUS
 62
     3
100
AcDbHatch
 10
0.0
 20
0.0
 30
0.0
210
0.0
220
0.0
230
1.0
  2
SOLID
 70
     1
 71
     1
 91
        1
 92
        1
 93
       16
 72
     1
 10
-9.6958808996504686
 20
1.9379999999997324
 11
-10.949880899650459
 21
1.9379999999997324
 72
     1
 10
-10.949880899650459
 20
1.9379999999997324
 11
-11.177880899650468
 21
0.6839999999997275
 72
     1
 10
-11.177880899650468
 20
0.6839999999997275
 11
-11.861880899650437
 21
0.6839999999997275
 72
     1
 10
-11.861880899650437
 20
0.6839999999997275
 11
-11.861880899650437
 21
2.8499999999997421
 72
     1
 10
-11.861880899650437
 20
2.8499999999997421
 11
-6.6178808996504515
 21
2.8499999999997421
 72
     1
 10
-6.6178808996504515
 20
2.8499999999997421
 11
-6.6178808996504515
 21
0.6839999999997275
 72
     1
 10
-6.6178808996504515
 20
0.6839999999997275
 11
-7.3018808996504205
 21
0.6839999999997275
 72
     1
 10
-7.3018808996504205
 20
0.6839999999997275
 11
-7.5298808996504292
 21
1.9379999999997324
 72
     1
 10
-7.5298808996504292
 20
1.9379999999997324
 11
-8.7838808996504767
 21
1.9379999999997324
 72
     1
 10
-8.7838808996504767
 20
1.9379999999997324
 11
-8.7838808996504341
 21
-1.9380000000002759
 72
     1
 10
-8.7838808996504341
 20
-1.9380000000002759
 11
-7.8718808996504421
 21
-2.1660000000002846
 72
     1
 10
-7.8718808996504421
 20
-2.1660000000002846
 11
-7.8718808996504421
 21
-2.8500000000002856
 72
     1
 10
-7.8718808996504421
 20
-2.8500000000002856
 11
-10.607880899650446
 21
-2.8500000000002856
 72
     1
 10
-10.607880899650446
 20
-2.8500000000002856
 11
-10.607880899650446
 21
-2.1660000000002846
 72
     1
 10
-10.607880899650446
 20
-2.1660000000002846
 11
-9.6958808996504686
 21
-1.9380000000002759
 72
     1
 10
-9.6958808996504686
 20
-1.9380000000002759
 11
-9.6958808996504686
 21
1.9379999999997324
 97
        0
 75
     0
 76
     1
 98
        1
 10
0.0
 20
0.0
  0
HATCH
  5
93
100
AcDbEntity
  8
0
  6
CONTINUOUS
 62
     3
100
AcDbHatch
 10
0.0
 20
0.0
 30
0.0
210
0.0
220
0.0
230
1.0
  2
SOLID
 70
     1
 71
     1
 91
        1
 92
        1
 93
        4
 72
     1
 10
-13.115880899650485
 20
-1.0260000000002698
 11
-13.115880899650428
 21
-0.1140000000002175
 72
     1
 10
-13.115880899650428
 20
-0.1140000000002175
 11
-12.20388089965045
 21
-0.1140000000002743
 72
     1
 10
-12.20388089965045
 20
-0.1140000000002743
 11
-12.20388089965045
 21
-1.0260000000002698
 72
     1
 10
-12.20388089965045
 20
-1.0260000000002698
 11
-13.115880899650428
 21
-1.0260000000002698
 97
        0
 75
     0
 76
     1
 98
        1
 10
0.0
 20
0.0
  0
HATCH
  5
94
100
AcDbEntity
  8
0
  6
CONTINUOUS
 62
     3
100
AcDbHatch
 10
0.0
 20
0.0
 30
0.0
210
0.0
220
0.0
230
1.0
  2
SOLID
 70
     1
 71
     1
 91
        1
 92
        1
 93
       12
 72
     1
 10
-14.141880899650467
 20
2.8499999999997421
 11
-14.141880899650467
 21
2.1659999999997304
 72
     1
 10
-14.141880899650467
 20
2.1659999999997304
 11
-15.053880899650444
 21
1.9379999999997324
 72
     1
 10
-15.053880899650444
 20
1.9379999999997324
 11
-15.053880899650444
 21
-1.9380000000002759
 72
     1
 10
-15.053880899650444
 20
-1.9380000000002759
 11
-14.141880899650467
 21
-2.1660000000002846
 72
     1
 10
-14.141880899650467
 20
-2.1660000000002846
 11
-14.141880899650467
 21
-2.8500000000002856
 72
     1
 10
-14.141880899650467
 20
-2.8500000000002856
 11
-16.877880899650467
 21
-2.8500000000002856
 72
     1
 10
-16.877880899650467
 20
-2.8500000000002856
 11
-16.877880899650467
 21
-2.1660000000002846
 72
     1
 10
-16.877880899650467
 20
-2.1660000000002846
 11
-15.965880899650482
 21
-1.9380000000002759
 72
     1
 10
-15.965880899650482
 20
-1.9380000000002759
 11
-15.965880899650482
 21
1.9379999999997324
 72
     1
 10
-15.965880899650482
 20
1.9379999999997324
 11
-16.877880899650467
 21
2.165999999999741
 72
     1
 10
-16.877880899650467
 20
2.165999999999741
 11
-16.877880899650467
 21
2.8499999999997421
 72
     1
 10
-16.877880899650467
 20
2.8499999999997421
 11
-14.141880899650467
 21
2.8499999999997421
 97
        0
 75
     0
 76
     1
 98
        1
 10
0.0
 20
0.0
  0
HATCH
  5
95
100
AcDbEntity
  8
0
  6
CONTINUOUS
 62
     3
100
AcDbHatch
 10
0.0
 20
0.0
 30
0.0
210
0.0
220
0.0
230
1.0
  2
SOLID
 70
     1
 71
     1
 91
        1
 92
        1
 93
       15
 72
     2
 10
-23.082241990843084
 20
-0.0000000000001492
 40
2.531053105310535
 50
124.301153
 51
180.0
 73
     0
 72
     1
 10
-25.613295096153617
 20
0.0
 11
-24.658234262528236
 21
0.0
 72
     2
 10
-22.195587997901765
 20
-0.000000000000135
 40
2.46264626462647
 50
180.0
 51
199.464384
 73
     1
 72
     2
 10
-24.557343260027135
 20
0.2731786481661374
 40
1.094509450945121
 50
272.086657
 51
294.619977
 73
     1
 72
     2
 10
-24.243863734539655
 20
-0.4108897586745677
 40
0.342034203420344
 50
294.619977
 51
0.0
 73
     1
 72
     1
 10
-23.901829531119287
 20
-0.4108897586745677
 11
-23.901829531119287
 21
0.0
 72
     1
 10
-23.901829531119287
 20
0.0
 11
-23.080947442910482
 21
0.0
 72
     1
 10
-23.080947442910482
 20
0.0
 11
-23.080947442910482
 21
-0.4116155274721614
 72
     2
 10
-22.73891323949012
 20
-0.4116155274721614
 40
0.34203420342033
 50
180.0
 51
245.380023
 73
     1
 72
     2
 10
-22.425433714002583
 20
0.2724528793686645
 40
1.0945094509452411
 50
245.380023
 51
267.913343
 73
     1
 72
     1
 10
-22.465285876753814
 20
-0.8213308027789985
 11
-22.465285876753814
 21
-1.0265513248311819
 72
     1
 10
-22.465285876753814
 20
-1.0265513248311819
 11
-24.434073870576871
 21
-1.0265513248311962
 72
     2
 10
-22.195587997901708
 20
-0.000000000000135
 40
2.4626462646264669
 50
204.635803
 51
268.19864
 73
     1
 72
     1
 10
-22.272999999999005
 20
-2.4614292609397985
 11
-22.272999999999005
 21
-2.8039503813289706
 72
     2
 10
-22.195587997901765
 20
1.2997299729972909
 40
4.1044104410441236
 50
91.080702
 51
124.301153
 73
     0
 97
        0
 75
     0
 76
     1
 98
        1
 10
0.0
 20
0.0
  0
HATCH
  5
96
100
AcDbEntity
  8
0
  6
CONTINUOUS
 62
     3
100
AcDbHatch
 10
0.0
 20
0.0
 30
0.0
210
0.0
220
0.0
230
1.0
  2
SOLID
 70
     1
 71
     1
 91
        1
 92
        1
 93
       24
 72
     2
 10
-22.67055612196938
 20
0.3420342034202015
 40
0.342034203420347
 50
90.0
 51
157.380135
 73
     1
 72
     2
 10
-21.849674033760575
 20
-0.0000000000001101
 40
1.231323132313237
 50
157.380135
 51
180.0
 73
     1
 72
     1
 10
-23.080997166073811
 20
0.0
 11
-23.901829531119287
 21
0.0
 72
     1
 10
-23.901829531119287
 20
0.0
 11
-23.901829531119287
 21
1.7757720729310194
 72
     2
 10
-22.195587997901765
 20
-0.000000000000135
 40
2.46264626462647
 50
133.856042
 51
180.0
 73
     1
 72
     1
 10
-24.658234262528236
 20
0.0
 11
-25.613295096153617
 21
0.0
 72
     2
 10
-23.082241990843084
 20
-0.0000000000001492
 40
2.531053105310535
 50
180.0
 51
235.698847
 73
     0
 72
     2
 10
-22.195587997901708
 20
-1.2997299729975893
 40
4.1044104410441324
 50
235.698847
 51
245.436008
 73
     0
 72
     1
 10
-23.901829531119287
 20
2.4332212587861193
 11
-23.901829531119287
 21
2.8049575222742433
 72
     2
 10
-24.243863734539655
 20
2.8049575222742433
 40
0.3420342034203421
 50
0.0
 51
65.380023
 73
     1
 72
     2
 10
-24.557343260027135
 20
2.1208891154335525
 40
1.0945094509450961
 50
65.380023
 51
87.913343
 73
     1
 72
     1
 10
-24.517491097275904
 20
3.2146727975810734
 11
-24.517491097275904
 21
3.4198933196332746
 72
     1
 10
-24.517491097275904
 20
3.4198933196332746
 11
-22.465285876753814
 21
3.4198933196332746
 72
     1
 10
-22.465285876753814
 20
3.4198933196332746
 11
-22.465285876753814
 21
3.2146727975810769
 72
     2
 10
-22.425433714002583
 20
2.1208891154335525
 40
1.094509450945101
 50
92.086657
 51
114.619977
 73
     1
 72
     2
 10
-22.738913239490063
 20
2.8049575222742575
 40
0.342034203420347
 50
114.619977
 51
180.0
 73
     1
 72
     1
 10
-23.080947442910432
 20
2.8049575222742433
 11
-23.080947442910432
 21
2.7080529205341897
 72
     2
 10
-22.195587997901765
 20
-1.2997299729975893
 40
4.1044104410441218
 50
257.542857
 51
268.919298
 73
     0
 72
     1
 10
-22.272999999999005
 20
2.8039503813286721
 11
-22.272999999999005
 21
2.4614292609395321
 72
     2
 10
-22.195587997901708
 20
-0.000000000000135
 40
2.46264626462647
 50
91.80136
 51
111.070443
 73
     1
 72
     1
 10
-23.080947442910482
 20
2.2979915747913111
 11
-23.080947442910482
 21
1.0261026102608923
 72
     1
 10
-23.080947442910482
 20
1.0261026102608923
 11
-22.272999999998969
 21
1.0261026102608923
 72
     1
 10
-22.272999999998969
 20
1.0261026102608923
 11
-22.272999999999005
 21
0.6840684068405416
 72
     1
 10
-22.272999999999005
 20
0.6840684068405416
 11
-22.67055612196938
 21
0.6840684068405416
 97
        0
 75
     0
 76
     1
 98
        1
 10
0.0
 20
0.0
  0
HATCH
  5
97
100
AcDbEntity
  8
0
  6
CONTINUOUS
 62
     3
100
AcDbHatch
 10
0.0
 20
0.0
 30
0.0
210
0.0
220
0.0
230
1.0
  2
SOLID
 70
     1
 71
     1
 91
        1
 92
        1
 93
       14
 72
     2
 10
-22.195587997901765
 20
-0.000000000000135
 40
2.4626462646264748
 50
0.0
 51
9.281799
 73
     1
 72
     2
 10
-20.102741104833992
 20
0.3420342034202015
 40
0.34203420342034
 50
9.281799
 51
90.0
 73
     1
 72
     1
 10
-20.102741104833992
 20
0.6840684068405416
 11
-20.827451184220411
 21
0.6840684068405416
 72
     1
 10
-20.827451184220411
 20
0.6840684068405416
 11
-20.827451184220411
 21
0.0
 72
     1
 10
-20.827451184220411
 20
0.0
 11
-21.648333272429209
 21
0.0
 72
     1
 10
-21.648333272429209
 20
0.0
 11
-21.648333272429209
 21
0.6840684068405416
 72
     1
 10
-21.648333272429209
 20
0.6840684068405416
 11
-22.272999999999005
 21
0.6840684068405416
 72
     1
 10
-22.272999999999005
 20
0.6840684068405416
 11
-22.272999999999005
 21
1.0261026102608923
 72
     1
 10
-22.272999999999005
 20
1.0261026102608923
 11
-19.956896402818945
 21
1.0261026102608675
 72
     2
 10
-22.195587997901708
 20
-0.000000000000135
 40
2.46264626462647
 50
24.624318
 51
91.80136
 73
     1
 72
     1
 10
-22.272999999999005
 20
2.4614292609395321
 11
-22.272999999999005
 21
2.8039503813286721
 72
     2
 10
-22.195587997901765
 20
-1.2997299729975893
 40
4.1044104410441218
 50
268.919298
 51
304.301153
 73
     0
 72
     2
 10
-21.308934004960445
 20
-0.0000000000001492
 40
2.5310531053105372
 50
304.301153
 51
0.0
 73
     0
 72
     1
 10
-18.777880899649912
 20
0.0
 11
-19.732941733275293
 21
0.0
 97
        0
 75
     0
 76
     1
 98
        1
 10
0.0
 20
0.0
  0
HATCH
  5
98
100
AcDbEntity
  8
0
  6
CONTINUOUS
 62
     3
100
AcDbHatch
 10
0.0
 20
0.0
 30
0.0
210
0.0
220
0.0
230
1.0
  2
SOLID
 70
     1
 71
     1
 91
        1
 92
        1
 93
       19
 72
     2
 10
-22.195587997901765
 20
-0.000000000000135
 40
2.4626462646264748
 50
303.748989
 51
0.0
 73
     1
 72
     1
 10
-19.732941733275293
 20
0.0
 11
-18.777880899649912
 21
0.0
 72
     2
 10
-21.308934004960445
 20
-0.0000000000001492
 40
2.5310531053105372
 50
0.0
 51
55.698847
 73
     0
 72
     2
 10
-22.195587997901708
 20
1.2997299729973051
 40
4.1044104410441289
 50
55.698847
 51
70.528779
 73
     0
 72
     1
 10
-20.827451184220411
 20
-2.5699453011829512
 11
-20.827451184220411
 21
-2.8054062368445436
 72
     2
 10
-20.485416980800043
 20
-2.8054062368445436
 40
0.342034203420344
 50
180.0
 51
245.380023
 73
     1
 72
     2
 10
-20.171937455312563
 20
-2.1213378300038528
 40
1.094509450945099
 50
245.380023
 51
267.913343
 73
     1
 72
     1
 10
-20.211789618063744
 20
-3.2151215121513772
 11
-20.211789618063744
 21
-3.4203420342035784
 72
     1
 10
-20.211789618063744
 20
-3.4203420342035784
 11
-22.263994838585827
 21
-3.4203420342035784
 72
     1
 10
-22.263994838585827
 20
-3.4203420342035784
 11
-22.263994838585827
 21
-3.2151215121513737
 72
     2
 10
-22.303847001337058
 20
-2.1213378300038528
 40
1.094509450945099
 50
272.086657
 51
294.619977
 73
     1
 72
     2
 10
-21.990367475849578
 20
-2.8054062368445436
 40
0.342034203420344
 50
294.619977
 51
0.0
 73
     1
 72
     1
 10
-21.648333272429209
 20
-2.8054062368445436
 11
-21.648333272429209
 21
-2.7680332125876284
 72
     2
 10
-22.195587997901765
 20
1.2997299729972909
 40
4.1044104410441236
 50
82.337744
 51
91.080702
 73
     0
 72
     1
 10
-22.272999999999005
 20
-2.8039503813289706
 11
-22.272999999999005
 21
-2.4614292609397985
 72
     2
 10
-22.195587997901708
 20
-0.000000000000135
 40
2.4626462646264669
 50
268.19864
 51
282.839588
 73
     1
 72
     1
 10
-21.648333272429209
 20
-2.4010703634269781
 11
-21.648333272429209
 21
0.0
 72
     1
 10
-21.648333272429209
 20
0.0
 11
-20.827451184220411
 21
0.0
 72
     1
 10
-20.827451184220411
 20
0.0
 11
-20.827451184220411
 21
-2.047639686011447
 97
        0
 75
     0
 76
     1
 98
        1
 10
0.0
 20
0.0
  0
ENDBLK
  5
99
100
AcDbEntity
  8
0
100
AcDbBlockEnd
  0
ENDSEC
  0
SECTION
  2
ENTITIES
  0
TEXT
  5
9A
100
AcDbEntity
  8
LAY-1
  6
CONTINUOUS
 62
     3
100
AcDbText
 10
328.616
 20
-102.816
 30
0.0
 40
8.0
  1
型式
 41
0.984714
  7
EXCADSTD
 72
     5
 11
345.808162
 21
-102.816
 31
0.0
100
AcDbText
  0
TEXT
  5
9B
100
AcDbEntity
  8
LAY-1
  6
CONTINUOUS
 62
     3
100
AcDbText
 10
328.424
 20
-114.08
 30
0.0
 40
8.0
  1
品名
 41
0.984714
  7
EXCADSTD
 72
     5
 11
345.616162
 21
-114.08
 31
0.0
100
AcDbText
  0
LINE
  5
9C
100
AcDbEntity
  8
LAY-1
  6
CONTINUOUS
 62
     4
100
AcDbLine
 10
324.84
 20
-125.44
 30
0.0
 11
468.2
 21
-125.44
 31
0.0
  0
LINE
  5
9D
100
AcDbEntity
  8
LAY-1
  6
CONTINUOUS
 62
     1
100
AcDbLine
 10
324.84
 20
-115.68
 30
0.0
 11
468.2
 21
-115.68
 31
0.0
  0
TEXT
  5
9E
100
AcDbEntity
  8
LAY-1
  6
CONTINUOUS
 62
     3
100
AcDbText
 10
375.784
 20
-124.384
 30
0.0
 40
8.0
  1
外観図
 41
1.47392
  7
EXCADSTD
 72
     5
 11
417.896
 21
-124.384
 31
0.0
100
AcDbText
  0
LINE
  5
9F
100
AcDbEntity
  8
LAY-1
  6
CONTINUOUS
 62
     4
100
AcDbLine
 10
324.84
 20
-82.08
 30
0.0
 11
468.2
 21
-82.08
 31
0.0
  0
LINE
  5
A0
100
AcDbEntity
  8
LAY-1
  6
CONTINUOUS
 62
     1
100
AcDbLine
 10
324.84
 20
-104.48
 30
0.0
 11
468.2
 21
-104.48
 31
0.0
  0
LINE
  5
A1
100
AcDbEntity
  8
LAY-1
  6
CONTINUOUS
 62
     1
100
AcDbLine
 10
324.84
 20
-93.28
 30
0.0
 11
468.2
 21
-93.28
 31
0.0
  0
LINE
  5
A2
100
AcDbEntity
  8
LAY-1
  6
CONTINUOUS
 62
     1
100
AcDbLine
 10
348.84
 20
-82.08
 30
0.0
 11
348.84
 21
-115.68
 31
0.0
  0
LINE
  5
A3
100
AcDbEntity
  8
LAY-1
  6
CONTINUOUS
 62
     4
100
AcDbLine
 10
324.84
 20
-135.2
 30
0.0
 11
468.2
 21
-135.2
 31
0.0
  0
LINE
  5
A4
100
AcDbEntity
  8
LAY-1
  6
CONTINUOUS
 62
     4
100
AcDbLine
 10
468.2
 20
-135.2
 30
0.0
 11
468.2
 21
-82.08
 31
0.0
  0
LINE
  5
A5
100
AcDbEntity
  8
LAY-1
  6
CONTINUOUS
 62
     4
100
AcDbLine
 10
324.84
 20
-135.2
 30
0.0
 11
324.84
 21
-82.08
 31
0.0
  0
TEXT
  5
A6
100
AcDbEntity
  8
LAY-1
  6
CONTINUOUS
 62
     3
100
AcDbText
 10
325.864
 20
-91.872
 30
0.0
 40
8.0
  1
作成日
 41
0.84
  7
EXCADSTD
 72
     5
 11
349.864
 21
-91.872
 31
0.0
100
AcDbText
  0
LINE
  5
A7
100
AcDbEntity
  8
LAY-1
  6
EXLTYPE3
 62
     1
100
AcDbLine
 10
190.0
 20
69.0
 30
0.0
 11
190.0
 21
219.0
 31
0.0
  0
LINE
  5
A8
100
AcDbEntity
  8
LAY-1
  6
EXLTYPE3
 62
     1
100
AcDbLine
 10
266.770605
 20
144.0
 30
0.0
 11
115.0
 21
144.0
 31
0.0
  0
LINE
  5
A9
100
AcDbEntity
  8
LAY-1
  6
CONTINUOUS
 62
     3
100
AcDbLine
 10
231.0
 20
145.5
 30
0.0
 11
224.0
 21
145.5
 31
0.0
  0
LINE
  5
AA
100
AcDbEntity
  8
LAY-1
  6
CONTINUOUS
 62
     3
100
AcDbLine
 10
231.0
 20
142.066489
 30
0.0
 11
228.338205
 21
144.3
 31
0.0
  0
LINE
  5
AB
100
AcDbEntity
  8
LAY-1
  6
CONTINUOUS
 62
     3
100
AcDbLine
 10
228.146774
 20
142.894141
 30
0.0
 11
224.0
 21
140.5
 31
0.0
  0
LINE
  5
AC
100
AcDbEntity
  8
LAY-1
  6
CONTINUOUS
 62
     3
100
AcDbLine
 10
227.168525
 20
143.714989
 30
0.0
 11
224.0
 21
141.885641
 31
0.0
  0
LINE
  5
AD
100
AcDbEntity
  8
LAY-1
  6
CONTINUOUS
 62
     3
100
AcDbLine
 10
226.471336
 20
144.3
 30
0.0
 11
227.168525
 21
143.714989
 31
0.0
  0
LINE
  5
AE
100
AcDbEntity
  8
LAY-1
  6
CONTINUOUS
 62
     3
100
AcDbLine
 10
228.146774
 20
142.894141
 30
0.0
 11
231.0
 21
140.5
 31
0.0
  0
LINE
  5
AF
100
AcDbEntity
  8
LAY-1
  6
CONTINUOUS
 62
     3
100
AcDbLine
 10
231.0
 20
144.3
 30
0.0
 11
228.338205
 21
144.3
 31
0.0
  0
LINE
  5
B0
100
AcDbEntity
  8
LAY-1
  6
CONTINUOUS
 62
     3
100
AcDbLine
 10
226.471336
 20
144.3
 30
0.0
 11
224.0
 21
144.3
 31
0.0
  0
LINE
  5
B1
100
AcDbEntity
  8
LAY-1
  6
CONTINUOUS
 62
     3
100
AcDbLine
 10
231.0
 20
145.5
 30
0.0
 11
231.0
 21
144.3
 31
0.0
  0
LINE
  5
B2
100
AcDbEntity
  8
LAY-1
  6
CONTINUOUS
 62
     3
100
AcDbLine
 10
231.0
 20
142.066489
 30
0.0
 11
231.0
 21
140.5
 31
0.0
  0
LINE
  5
B3
100
AcDbEntity
  8
LAY-1
  6
CONTINUOUS
 62
     3
100
AcDbLine
 10
224.0
 20
145.5
 30
0.0
 11
224.0
 21
144.3
 31
0.0
  0
LINE
  5
B4
100
AcDbEntity
  8
LAY-1
  6
CONTINUOUS
 62
     3
100
AcDbLine
 10
224.0
 20
141.885641
 30
0.0
 11
224.0
 21
140.5
 31
0.0
  0
LINE
  5
B5
100
AcDbEntity
  8
LAY-1
  6
CONTINUOUS
 62
     3
100
AcDbLine
 10
220.044864
 20
159.96077
 30
0.0
 11
226.107042
 21
163.46077
 31
0.0
  0
LINE
  5
B6
100
AcDbEntity
  8
LAY-1
  6
CONTINUOUS
 62
     3
100
AcDbLine
 10
225.507042
 20
164.5
 30
0.0
 11
226.107042
 21
163.46077
 31
0.0
  0
LINE
  5
B7
100
AcDbEntity
  8
LAY-1
  6
CONTINUOUS
 62
     3
100
AcDbLine
 10
225.507042
 20
164.5
 30
0.0
 11
219.444864
 21
161.0
 31
0.0
  0
LINE
  5
B8
100
AcDbEntity
  8
LAY-1
  6
CONTINUOUS
 62
     3
100
AcDbLine
 10
221.766461
 20
156.077501
 30
0.0
 11
227.105389
 21
158.343742
 31
0.0
  0
LINE
  5
B9
100
AcDbEntity
  8
LAY-1
  6
CONTINUOUS
 62
     3
100
AcDbLine
 10
221.297584
 20
157.182107
 30
0.0
 11
226.636512
 21
159.448348
 31
0.0
  0
LINE
  5
BA
100
AcDbEntity
  8
LAY-1
  6
CONTINUOUS
 62
     3
100
AcDbLine
 10
225.894123
 20
161.197307
 30
0.0
 11
226.636512
 21
159.448348
 31
0.0
  0
LINE
  5
BB
100
AcDbEntity
  8
LAY-1
  6
CONTINUOUS
 62
     3
100
AcDbLine
 10
227.105389
 20
158.343742
 30
0.0
 11
227.847779
 21
156.594783
 31
0.0
  0
LINE
  5
BC
100
AcDbEntity
  8
LAY-1
  6
CONTINUOUS
 62
     3
100
AcDbLine
 10
225.894123
 20
161.197307
 30
0.0
 11
226.998729
 21
161.666184
 31
0.0
  0
LINE
  5
BD
100
AcDbEntity
  8
LAY-1
  6
CONTINUOUS
 62
     3
100
AcDbLine
 10
221.297584
 20
157.182107
 30
0.0
 11
221.766461
 21
156.077501
 31
0.0
  0
LINE
  5
BE
100
AcDbEntity
  8
LAY-1
  6
CONTINUOUS
 62
     3
100
AcDbLine
 10
228.952384
 20
157.06366
 30
0.0
 11
227.847779
 21
156.594783
 31
0.0
  0
LINE
  5
BF
100
AcDbEntity
  8
LAY-1
  6
CONTINUOUS
 62
     3
100
AcDbLine
 10
226.998729
 20
161.666184
 30
0.0
 11
228.952384
 21
157.06366
 31
0.0
  0
ARC
  5
C0
100
AcDbEntity
  8
LAY-1
  6
CONTINUOUS
 62
     3
100
AcDbCircle
 10
228.179162
 20
152.033562
 30
0.0
 40
2.0
100
AcDbArc
 50
284.0
 51
14.0
  0
ARC
  5
C1
100
AcDbEntity
  8
LAY-1
  6
CONTINUOUS
 62
     3
100
AcDbCircle
 10
227.93724
 20
153.003858
 30
0.0
 40
2.0
100
AcDbArc
 50
14.0
 51
104.0
  0
ARC
  5
C2
100
AcDbEntity
  8
LAY-1
  6
CONTINUOUS
 62
     3
100
AcDbCircle
 10
225.026353
 20
152.278092
 30
0.0
 40
2.0
100
AcDbArc
 50
104.0
 51
194.0
  0
ARC
  5
C3
100
AcDbEntity
  8
LAY-1
  6
CONTINUOUS
 62
     3
100
AcDbCircle
 10
225.268275
 20
151.307797
 30
0.0
 40
2.0
100
AcDbArc
 50
194.0
 51
284.0
  0
ARC
  5
C4
100
AcDbEntity
  8
LAY-1
  6
CONTINUOUS
 62
     3
100
AcDbCircle
 10
225.268275
 20
151.307797
 30
0.0
 40
0.8
100
AcDbArc
 50
194.0
 51
284.0
  0
LINE
  5
C5
100
AcDbEntity
  8
LAY-1
  6
CONTINUOUS
 62
     3
100
AcDbLine
 10
224.492039
 20
151.114259
 30
0.0
 11
224.250117
 21
152.084555
 31
0.0
  0
ARC
  5
C6
100
AcDbEntity
  8
LAY-1
  6
CONTINUOUS
 62
     3
100
AcDbCircle
 10
225.026353
 20
152.278092
 30
0.0
 40
0.8
100
AcDbArc
 50
104.0
 51
194.0
  0
LINE
  5
C7
100
AcDbEntity
  8
LAY-1
  6
CONTINUOUS
 62
     3
100
AcDbLine
 10
227.743703
 20
153.780095
 30
0.0
 11
224.832816
 21
153.054329
 31
0.0
  0
ARC
  5
C8
100
AcDbEntity
  8
LAY-1
  6
CONTINUOUS
 62
     3
100
AcDbCircle
 10
227.93724
 20
153.003858
 30
0.0
 40
0.8
100
AcDbArc
 50
14.0
 51
104.0
  0
LINE
  5
C9
100
AcDbEntity
  8
LAY-1
  6
CONTINUOUS
 62
     3
100
AcDbLine
 10
228.955399
 20
152.2271
 30
0.0
 11
228.713477
 21
153.197396
 31
0.0
  0
LINE
  5
CA
100
AcDbEntity
  8
LAY-1
  6
CONTINUOUS
 62
     3
100
AcDbLine
 10
225.461813
 20
150.53156
 30
0.0
 11
228.3727
 21
151.257326
 31
0.0
  0
ARC
  5
CB
100
AcDbEntity
  8
LAY-1
  6
CONTINUOUS
 62
     3
100
AcDbCircle
 10
228.179162
 20
152.033562
 30
0.0
 40
0.8
100
AcDbArc
 50
284.0
 51
14.0
  0
LINE
  5
CC
100
AcDbEntity
  8
LAY-1
  6
CONTINUOUS
 62
     3
100
AcDbLine
 10
228.663006
 20
150.092971
 30
0.0
 11
225.752119
 21
149.367205
 31
0.0
  0
LINE
  5
CD
100
AcDbEntity
  8
LAY-1
  6
CONTINUOUS
 62
     3
100
AcDbLine
 10
223.085762
 20
151.794249
 30
0.0
 11
223.327684
 21
150.823953
 31
0.0
  0
LINE
  5
CE
100
AcDbEntity
  8
LAY-1
  6
CONTINUOUS
 62
     3
100
AcDbLine
 10
227.453397
 20
154.944449
 30
0.0
 11
224.542509
 21
154.218684
 31
0.0
  0
LINE
  5
CF
100
AcDbEntity
  8
LAY-1
  6
CONTINUOUS
 62
     3
100
AcDbLine
 10
229.877832
 20
153.487702
 30
0.0
 11
230.119754
 21
152.517406
 31
0.0
  0
LINE
  5
D0
100
AcDbEntity
  8
LAY-1
  6
CONTINUOUS
 62
     3
100
AcDbLine
 10
226.107042
 20
124.53923
 30
0.0
 11
220.044864
 21
128.03923
 31
0.0
  0
LINE
  5
D1
100
AcDbEntity
  8
LAY-1
  6
CONTINUOUS
 62
     3
100
AcDbLine
 10
225.507042
 20
123.5
 30
0.0
 11
219.444864
 21
127.0
 31
0.0
  0
LINE
  5
D2
100
AcDbEntity
  8
LAY-1
  6
CONTINUOUS
 62
     3
100
AcDbLine
 10
226.107042
 20
124.53923
 30
0.0
 11
225.507042
 21
123.5
 31
0.0
  0
LINE
  5
D3
100
AcDbEntity
  8
LAY-1
  6
CONTINUOUS
 62
     3
100
AcDbLine
 10
228.957186
 20
131.308254
 30
0.0
 11
222.379338
 21
133.702395
 31
0.0
  0
LINE
  5
D4
100
AcDbEntity
  8
LAY-1
  6
CONTINUOUS
 62
     3
100
AcDbLine
 10
227.782856
 20
128.081808
 30
0.0
 11
226.045493
 21
131.09101
 31
0.0
  0
LINE
  5
D5
100
AcDbEntity
  8
LAY-1
  6
CONTINUOUS
 62
     3
100
AcDbLine
 10
225.384774
 20
129.835408
 30
0.0
 11
220.669237
 21
129.003932
 31
0.0
  0
LINE
  5
D6
100
AcDbEntity
  8
LAY-1
  6
CONTINUOUS
 62
     3
100
AcDbLine
 10
224.746268
 20
130.941334
 30
0.0
 11
221.143154
 21
130.306008
 31
0.0
  0
LINE
  5
D7
100
AcDbEntity
  8
LAY-1
  6
CONTINUOUS
 62
     3
100
AcDbLine
 10
224.29121
 20
131.729517
 30
0.0
 11
224.746268
 21
130.941334
 31
0.0
  0
LINE
  5
D8
100
AcDbEntity
  8
LAY-1
  6
CONTINUOUS
 62
     3
100
AcDbLine
 10
225.384774
 20
129.835408
 30
0.0
 11
227.247085
 21
126.609791
 31
0.0
  0
LINE
  5
D9
100
AcDbEntity
  8
LAY-1
  6
CONTINUOUS
 62
     3
100
AcDbLine
 10
228.546762
 20
130.180622
 30
0.0
 11
226.045493
 21
131.09101
 31
0.0
  0
LINE
  5
DA
100
AcDbEntity
  8
LAY-1
  6
CONTINUOUS
 62
     3
100
AcDbLine
 10
224.29121
 20
131.729517
 30
0.0
 11
221.968914
 21
132.574763
 31
0.0
  0
LINE
  5
DB
100
AcDbEntity
  8
LAY-1
  6
CONTINUOUS
 62
     3
100
AcDbLine
 10
222.379338
 20
133.702395
 30
0.0
 11
221.968914
 21
132.574763
 31
0.0
  0
LINE
  5
DC
100
AcDbEntity
  8
LAY-1
  6
CONTINUOUS
 62
     3
100
AcDbLine
 10
228.957186
 20
131.308254
 30
0.0
 11
228.546762
 21
130.180622
 31
0.0
  0
LINE
  5
DD
100
AcDbEntity
  8
LAY-1
  6
CONTINUOUS
 62
     3
100
AcDbLine
 10
227.782856
 20
128.081808
 30
0.0
 11
227.247085
 21
126.609791
 31
0.0
  0
ARC
  5
DE
100
AcDbEntity
  8
LAY-1
  6
CONTINUOUS
 62
     3
100
AcDbCircle
 10
228.150016
 20
135.686453
 30
0.0
 40
2.0
100
AcDbArc
 50
260.0
 51
350.0
  0
ARC
  5
DF
100
AcDbEntity
  8
LAY-1
  6
CONTINUOUS
 62
     3
100
AcDbCircle
 10
228.323665
 20
136.671261
 30
0.0
 40
2.0
100
AcDbArc
 50
350.0
 51
80.0
  0
ARC
  5
E0
100
AcDbEntity
  8
LAY-1
  6
CONTINUOUS
 62
     3
100
AcDbCircle
 10
225.369241
 20
137.192206
 30
0.0
 40
2.0
100
AcDbArc
 50
80.0
 51
170.0
  0
ARC
  5
E1
100
AcDbEntity
  8
LAY-1
  6
CONTINUOUS
 62
     3
100
AcDbCircle
 10
225.195593
 20
136.207398
 30
0.0
 40
2.0
100
AcDbArc
 50
170.0
 51
260.0
  0
ARC
  5
E2
100
AcDbEntity
  8
LAY-1
  6
CONTINUOUS
 62
     3
100
AcDbCircle
 10
225.195593
 20
136.207398
 30
0.0
 40
0.8
100
AcDbArc
 50
170.0
 51
260.0
  0
LINE
  5
E3
100
AcDbEntity
  8
LAY-1
  6
CONTINUOUS
 62
     3
100
AcDbLine
 10
224.407747
 20
136.346316
 30
0.0
 11
224.581395
 21
137.331124
 31
0.0
  0
ARC
  5
E4
100
AcDbEntity
  8
LAY-1
  6
CONTINUOUS
 62
     3
100
AcDbCircle
 10
225.369241
 20
137.192206
 30
0.0
 40
0.8
100
AcDbArc
 50
80.0
 51
170.0
  0
LINE
  5
E5
100
AcDbEntity
  8
LAY-1
  6
CONTINUOUS
 62
     3
100
AcDbLine
 10
228.462583
 20
137.459107
 30
0.0
 11
225.50816
 21
137.980052
 31
0.0
  0
ARC
  5
E6
100
AcDbEntity
  8
LAY-1
  6
CONTINUOUS
 62
     3
100
AcDbCircle
 10
228.323665
 20
136.671261
 30
0.0
 40
0.8
100
AcDbArc
 50
350.0
 51
80.0
  0
LINE
  5
E7
100
AcDbEntity
  8
LAY-1
  6
CONTINUOUS
 62
     3
100
AcDbLine
 10
228.937863
 20
135.547535
 30
0.0
 11
229.111511
 21
136.532343
 31
0.0
  0
LINE
  5
E8
100
AcDbEntity
  8
LAY-1
  6
CONTINUOUS
 62
     3
100
AcDbLine
 10
225.056675
 20
135.419552
 30
0.0
 11
228.011098
 21
134.898607
 31
0.0
  0
ARC
  5
E9
100
AcDbEntity
  8
LAY-1
  6
CONTINUOUS
 62
     3
100
AcDbCircle
 10
228.150016
 20
135.686453
 30
0.0
 40
0.8
100
AcDbArc
 50
260.0
 51
350.0
  0
LINE
  5
EA
100
AcDbEntity
  8
LAY-1
  6
CONTINUOUS
 62
     3
100
AcDbLine
 10
227.80272
 20
133.716838
 30
0.0
 11
224.848297
 21
134.237782
 31
0.0
  0
LINE
  5
EB
100
AcDbEntity
  8
LAY-1
  6
CONTINUOUS
 62
     3
100
AcDbLine
 10
230.29328
 20
136.323965
 30
0.0
 11
230.119632
 21
135.339157
 31
0.0
  0
LINE
  5
EC
100
AcDbEntity
  8
LAY-1
  6
CONTINUOUS
 62
     3
100
AcDbLine
 10
223.399626
 20
137.539502
 30
0.0
 11
223.225978
 21
136.554694
 31
0.0
  0
LINE
  5
ED
100
AcDbEntity
  8
LAY-1
  6
CONTINUOUS
 62
     3
100
AcDbLine
 10
228.670961
 20
138.640877
 30
0.0
 11
225.716538
 21
139.161821
 31
0.0
  0
LINE
  5
EE
100
AcDbEntity
  8
LAY-1
  6
CONTINUOUS
 62
     3
100
AcDbLine
 10
230.29328
 20
136.323965
 30
0.0
 11
230.119632
 21
135.339157
 31
0.0
  0
LINE
  5
EF
100
AcDbEntity
  8
LAY-1
  6
CONTINUOUS
 62
     3
100
AcDbLine
 10
223.399626
 20
137.539502
 30
0.0
 11
223.225978
 21
136.554694
 31
0.0
  0
ARC
  5
F0
100
AcDbEntity
  8
LAY-1
  6
CONTINUOUS
 62
     2
100
AcDbCircle
 10
168.0
 20
75.0
 30
0.0
 40
1.0
100
AcDbArc
 50
180.0
 51
270.0
  0
LINE
  5
F1
100
AcDbEntity
  8
LAY-1
  6
CONTINUOUS
 62
     2
100
AcDbLine
 10
167.0
 20
78.946176
 30
0.0
 11
167.0
 21
75.0
 31
0.0
  0
ARC
  5
F2
100
AcDbEntity
  8
LAY-1
  6
CONTINUOUS
 62
     2
100
AcDbCircle
 10
168.0
 20
213.0
 30
0.0
 40
1.0
100
AcDbArc
 50
90.0
 51
180.0
  0
LINE
  5
F3
100
AcDbEntity
  8
LAY-1
  6
CONTINUOUS
 62
     2
100
AcDbLine
 10
167.0
 20
209.053824
 30
0.0
 11
167.0
 21
213.0
 31
0.0
  0
LINE
  5
F4
100
AcDbEntity
  8
LAY-1
  6
CONTINUOUS
 62
     2
100
AcDbLine
 10
188.0
 20
81.5
 30
0.0
 11
188.0
 21
103.5
 31
0.0
  0
ARC
  5
F5
100
AcDbEntity
  8
LAY-1
  6
CONTINUOUS
 62
     2
100
AcDbCircle
 10
190.0
 20
144.0
 30
0.0
 40
56.622648
100
AcDbArc
 50
190.172234
 51
255.569168
  0
ARC
  5
F6
100
AcDbEntity
  8
LAY-1
  6
CONTINUOUS
 62
     2
100
AcDbCircle
 10
161.19318
 20
144.0
 30
0.0
 40
4.0
100
AcDbArc
 50
312.663233
 51
47.336767
  0
LINE
  5
F7
100
AcDbEntity
  8
LAY-1
  6
CONTINUOUS
 62
     2
100
AcDbLine
 10
159.5
 20
137.0
 30
0.0
 11
163.903931
 21
141.058602
 31
0.0
  0
LINE
  5
F8
100
AcDbEntity
  8
LAY-1
  6
CONTINUOUS
 62
     2
100
AcDbLine
 10
159.5
 20
151.0
 30
0.0
 11
163.903931
 21
146.941398
 31
0.0
  0
LINE
  5
F9
100
AcDbEntity
  8
LAY-1
  6
CONTINUOUS
 62
     2
100
AcDbLine
 10
141.0
 20
137.72
 30
0.0
 11
141.0
 21
144.0
 31
0.0
  0
LINE
  5
FA
100
AcDbEntity
  8
LAY-1
  6
CONTINUOUS
 62
     2
100
AcDbLine
 10
138.0
 20
134.93
 30
0.0
 11
138.0
 21
144.0
 31
0.0
  0
ARC
  5
FB
100
AcDbEntity
  8
LAY-1
  6
CONTINUOUS
 62
     2
100
AcDbCircle
 10
141.828427
 20
135.0
 30
0.0
 40
2.0
100
AcDbArc
 50
90.0
 51
135.0
  0
LINE
  5
FC
100
AcDbEntity
  8
LAY-1
  6
CONTINUOUS
 62
     2
100
AcDbLine
 10
141.828427
 20
137.0
 30
0.0
 11
159.5
 21
137.0
 31
0.0
  0
LINE
  5
FD
100
AcDbEntity
  8
LAY-1
  6
CONTINUOUS
 62
     2
100
AcDbLine
 10
140.414214
 20
136.414214
 30
0.0
 11
138.585786
 21
134.585786
 31
0.0
  0
ARC
  5
FE
100
AcDbEntity
  8
LAY-1
  6
CONTINUOUS
 62
     2
100
AcDbCircle
 10
137.171573
 20
136.0
 30
0.0
 40
2.0
100
AcDbArc
 50
270.0
 51
315.0
  0
LINE
  5
FF
100
AcDbEntity
  8
LAY-1
  6
CONTINUOUS
 62
     2
100
AcDbLine
 10
121.728483
 20
134.0
 30
0.0
 11
137.171573
 21
134.0
 31
0.0
  0
LINE
  5
100
100
AcDbEntity
  8
LAY-1
  6
CONTINUOUS
 62
     2
100
AcDbLine
 10
141.0
 20
150.28
 30
0.0
 11
141.0
 21
144.0
 31
0.0
  0
LINE
  5
101
100
AcDbEntity
  8
LAY-1
  6
CONTINUOUS
 62
     2
100
AcDbLine
 10
138.0
 20
153.07
 30
0.0
 11
138.0
 21
144.0
 31
0.0
  0
ARC
  5
102
100
AcDbEntity
  8
LAY-1
  6
CONTINUOUS
 62
     2
100
AcDbCircle
 10
141.828427
 20
153.0
 30
0.0
 40
2.0
100
AcDbArc
 50
225.0
 51
270.0
  0
LINE
  5
103
100
AcDbEntity
  8
LAY-1
  6
CONTINUOUS
 62
     2
100
AcDbLine
 10
141.828427
 20
151.0
 30
0.0
 11
159.5
 21
151.0
 31
0.0
  0
LINE
  5
104
100
AcDbEntity
  8
LAY-1
  6
CONTINUOUS
 62
     2
100
AcDbLine
 10
140.414214
 20
151.585786
 30
0.0
 11
138.585786
 21
153.414214
 31
0.0
  0
ARC
  5
105
100
AcDbEntity
  8
LAY-1
  6
CONTINUOUS
 62
     2
100
AcDbCircle
 10
137.171573
 20
152.0
 30
0.0
 40
2.0
100
AcDbArc
 50
45.0
 51
90.0
  0
LINE
  5
106
100
AcDbEntity
  8
LAY-1
  6
CONTINUOUS
 62
     2
100
AcDbLine
 10
121.728483
 20
154.0
 30
0.0
 11
137.171573
 21
154.0
 31
0.0
  0
LINE
  5
107
100
AcDbEntity
  8
LAY-1
  6
CONTINUOUS
 62
     2
100
AcDbLine
 10
164.094047
 20
205.24961
 30
0.0
 11
163.38694
 21
204.542504
 31
0.0
  0
LINE
  5
108
100
AcDbEntity
  8
LAY-1
  6
CONTINUOUS
 62
     2
100
AcDbLine
 10
164.094047
 20
205.24961
 30
0.0
 11
165.083996
 21
204.259661
 31
0.0
  0
ARC
  5
109
100
AcDbEntity
  8
LAY-1
  6
CONTINUOUS
 62
     2
100
AcDbCircle
 10
165.50826
 20
204.683925
 30
0.0
 40
0.6
100
AcDbArc
 50
225.0
 51
315.0
  0
LINE
  5
10A
100
AcDbEntity
  8
LAY-1
  6
CONTINUOUS
 62
     2
100
AcDbLine
 10
165.932524
 20
204.259661
 30
0.0
 11
166.922474
 21
205.24961
 31
0.0
  0
LINE
  5
10B
100
AcDbEntity
  8
LAY-1
  6
CONTINUOUS
 62
     2
100
AcDbLine
 10
167.629581
 20
204.542504
 30
0.0
 11
166.922474
 21
205.24961
 31
0.0
  0
LINE
  5
10C
100
AcDbEntity
  8
LAY-1
  6
CONTINUOUS
 62
     2
100
AcDbLine
 10
166.639631
 20
203.552554
 30
0.0
 11
167.629581
 21
204.542504
 31
0.0
  0
ARC
  5
10D
100
AcDbEntity
  8
LAY-1
  6
CONTINUOUS
 62
     2
100
AcDbCircle
 10
167.063895
 20
203.12829
 30
0.0
 40
0.6
100
AcDbArc
 50
135.0
 51
225.0
  0
LINE
  5
10E
100
AcDbEntity
  8
LAY-1
  6
CONTINUOUS
 62
     2
100
AcDbLine
 10
166.639631
 20
202.704026
 30
0.0
 11
167.629581
 21
201.714077
 31
0.0
  0
LINE
  5
10F
100
AcDbEntity
  8
LAY-1
  6
CONTINUOUS
 62
     2
100
AcDbLine
 10
166.922474
 20
201.00697
 30
0.0
 11
167.629581
 21
201.714077
 31
0.0
  0
LINE
  5
110
100
AcDbEntity
  8
LAY-1
  6
CONTINUOUS
 62
     2
100
AcDbLine
 10
166.922474
 20
201.00697
 30
0.0
 11
165.932524
 21
201.996919
 31
0.0
  0
ARC
  5
111
100
AcDbEntity
  8
LAY-1
  6
CONTINUOUS
 62
     2
100
AcDbCircle
 10
165.50826
 20
201.572655
 30
0.0
 40
0.6
100
AcDbArc
 50
45.0
 51
135.0
  0
LINE
  5
112
100
AcDbEntity
  8
LAY-1
  6
CONTINUOUS
 62
     2
100
AcDbLine
 10
164.094047
 20
201.00697
 30
0.0
 11
165.083996
 21
201.996919
 31
0.0
  0
LINE
  5
113
100
AcDbEntity
  8
LAY-1
  6
CONTINUOUS
 62
     2
100
AcDbLine
 10
163.38694
 20
201.714077
 30
0.0
 11
164.094047
 21
201.00697
 31
0.0
  0
LINE
  5
114
100
AcDbEntity
  8
LAY-1
  6
CONTINUOUS
 62
     2
100
AcDbLine
 10
163.38694
 20
201.714077
 30
0.0
 11
164.376889
 21
202.704026
 31
0.0
  0
ARC
  5
115
100
AcDbEntity
  8
LAY-1
  6
CONTINUOUS
 62
     2
100
AcDbCircle
 10
163.952625
 20
203.12829
 30
0.0
 40
0.6
100
AcDbArc
 50
315.0
 51
45.0
  0
LINE
  5
116
100
AcDbEntity
  8
LAY-1
  6
CONTINUOUS
 62
     2
100
AcDbLine
 10
164.376889
 20
203.552554
 30
0.0
 11
163.38694
 21
204.542504
 31
0.0
  0
CIRCLE
  5
117
100
AcDbEntity
  8
LAY-1
  6
CONTINUOUS
 62
     2
100
AcDbCircle
 10
165.50826
 20
203.12829
 30
0.0
 40
4.25
  0
LINE
  5
118
100
AcDbEntity
  8
LAY-1
  6
CONTINUOUS
 62
     2
100
AcDbLine
 10
164.094047
 20
86.99303
 30
0.0
 11
163.38694
 21
86.285923
 31
0.0
  0
LINE
  5
119
100
AcDbEntity
  8
LAY-1
  6
CONTINUOUS
 62
     2
100
AcDbLine
 10
164.094047
 20
86.99303
 30
0.0
 11
165.083996
 21
86.003081
 31
0.0
  0
ARC
  5
11A
100
AcDbEntity
  8
LAY-1
  6
CONTINUOUS
 62
     2
100
AcDbCircle
 10
165.50826
 20
86.427345
 30
0.0
 40
0.6
100
AcDbArc
 50
225.0
 51
315.0
  0
LINE
  5
11B
100
AcDbEntity
  8
LAY-1
  6
CONTINUOUS
 62
     2
100
AcDbLine
 10
165.932524
 20
86.003081
 30
0.0
 11
166.922474
 21
86.99303
 31
0.0
  0
LINE
  5
11C
100
AcDbEntity
  8
LAY-1
  6
CONTINUOUS
 62
     2
100
AcDbLine
 10
167.629581
 20
86.285923
 30
0.0
 11
166.922474
 21
86.99303
 31
0.0
  0
LINE
  5
11D
100
AcDbEntity
  8
LAY-1
  6
CONTINUOUS
 62
     2
100
AcDbLine
 10
166.639631
 20
85.295974
 30
0.0
 11
167.629581
 21
86.285923
 31
0.0
  0
ARC
  5
11E
100
AcDbEntity
  8
LAY-1
  6
CONTINUOUS
 62
     2
100
AcDbCircle
 10
167.063895
 20
84.87171
 30
0.0
 40
0.6
100
AcDbArc
 50
135.0
 51
225.0
  0
LINE
  5
11F
100
AcDbEntity
  8
LAY-1
  6
CONTINUOUS
 62
     2
100
AcDbLine
 10
166.639631
 20
84.447446
 30
0.0
 11
167.629581
 21
83.457496
 31
0.0
  0
LINE
  5
120
100
AcDbEntity
  8
LAY-1
  6
CONTINUOUS
 62
     2
100
AcDbLine
 10
166.922474
 20
82.75039
 30
0.0
 11
167.629581
 21
83.457496
 31
0.0
  0
LINE
  5
121
100
AcDbEntity
  8
LAY-1
  6
CONTINUOUS
 62
     2
100
AcDbLine
 10
166.922474
 20
82.75039
 30
0.0
 11
165.932524
 21
83.740339
 31
0.0
  0
ARC
  5
122
100
AcDbEntity
  8
LAY-1
  6
CONTINUOUS
 62
     2
100
AcDbCircle
 10
165.50826
 20
83.316075
 30
0.0
 40
0.6
100
AcDbArc
 50
45.0
 51
135.0
  0
LINE
  5
123
100
AcDbEntity
  8
LAY-1
  6
CONTINUOUS
 62
     2
100
AcDbLine
 10
164.094047
 20
82.75039
 30
0.0
 11
165.083996
 21
83.740339
 31
0.0
  0
LINE
  5
124
100
AcDbEntity
  8
LAY-1
  6
CONTINUOUS
 62
     2
100
AcDbLine
 10
163.38694
 20
83.457496
 30
0.0
 11
164.094047
 21
82.75039
 31
0.0
  0
LINE
  5
125
100
AcDbEntity
  8
LAY-1
  6
CONTINUOUS
 62
     2
100
AcDbLine
 10
163.38694
 20
83.457496
 30
0.0
 11
164.376889
 21
84.447446
 31
0.0
  0
ARC
  5
126
100
AcDbEntity
  8
LAY-1
  6
CONTINUOUS
 62
     2
100
AcDbCircle
 10
163.952625
 20
84.87171
 30
0.0
 40
0.6
100
AcDbArc
 50
315.0
 51
45.0
  0
LINE
  5
127
100
AcDbEntity
  8
LAY-1
  6
CONTINUOUS
 62
     2
100
AcDbLine
 10
164.376889
 20
85.295974
 30
0.0
 11
163.38694
 21
86.285923
 31
0.0
  0
CIRCLE
  5
128
100
AcDbEntity
  8
LAY-1
  6
CONTINUOUS
 62
     2
100
AcDbCircle
 10
165.50826
 20
84.87171
 30
0.0
 40
4.25
  0
LINE
  5
129
100
AcDbEntity
  8
LAY-1
  6
CONTINUOUS
 62
     2
100
AcDbLine
 10
129.457496
 20
121.629581
 30
0.0
 11
128.75039
 21
120.922474
 31
0.0
  0
LINE
  5
12A
100
AcDbEntity
  8
LAY-1
  6
CONTINUOUS
 62
     2
100
AcDbLine
 10
129.457496
 20
121.629581
 30
0.0
 11
130.447446
 21
120.639631
 31
0.0
  0
ARC
  5
12B
100
AcDbEntity
  8
LAY-1
  6
CONTINUOUS
 62
     2
100
AcDbCircle
 10
130.87171
 20
121.063895
 30
0.0
 40
0.6
100
AcDbArc
 50
225.0
 51
315.0
  0
LINE
  5
12C
100
AcDbEntity
  8
LAY-1
  6
CONTINUOUS
 62
     2
100
AcDbLine
 10
131.295974
 20
120.639631
 30
0.0
 11
132.285923
 21
121.629581
 31
0.0
  0
LINE
  5
12D
100
AcDbEntity
  8
LAY-1
  6
CONTINUOUS
 62
     2
100
AcDbLine
 10
132.99303
 20
120.922474
 30
0.0
 11
132.285923
 21
121.629581
 31
0.0
  0
LINE
  5
12E
100
AcDbEntity
  8
LAY-1
  6
CONTINUOUS
 62
     2
100
AcDbLine
 10
132.003081
 20
119.932524
 30
0.0
 11
132.99303
 21
120.922474
 31
0.0
  0
ARC
  5
12F
100
AcDbEntity
  8
LAY-1
  6
CONTINUOUS
 62
     2
100
AcDbCircle
 10
132.427345
 20
119.50826
 30
0.0
 40
0.6
100
AcDbArc
 50
135.0
 51
225.0
  0
LINE
  5
130
100
AcDbEntity
  8
LAY-1
  6
CONTINUOUS
 62
     2
100
AcDbLine
 10
132.003081
 20
119.083996
 30
0.0
 11
132.99303
 21
118.094047
 31
0.0
  0
LINE
  5
131
100
AcDbEntity
  8
LAY-1
  6
CONTINUOUS
 62
     2
100
AcDbLine
 10
132.285923
 20
117.38694
 30
0.0
 11
132.99303
 21
118.094047
 31
0.0
  0
LINE
  5
132
100
AcDbEntity
  8
LAY-1
  6
CONTINUOUS
 62
     2
100
AcDbLine
 10
132.285923
 20
117.38694
 30
0.0
 11
131.295974
 21
118.376889
 31
0.0
  0
ARC
  5
133
100
AcDbEntity
  8
LAY-1
  6
CONTINUOUS
 62
     2
100
AcDbCircle
 10
130.87171
 20
117.952625
 30
0.0
 40
0.6
100
AcDbArc
 50
45.0
 51
135.0
  0
LINE
  5
134
100
AcDbEntity
  8
LAY-1
  6
CONTINUOUS
 62
     2
100
AcDbLine
 10
129.457496
 20
117.38694
 30
0.0
 11
130.447446
 21
118.376889
 31
0.0
  0
LINE
  5
135
100
AcDbEntity
  8
LAY-1
  6
CONTINUOUS
 62
     2
100
AcDbLine
 10
128.75039
 20
118.094047
 30
0.0
 11
129.457496
 21
117.38694
 31
0.0
  0
LINE
  5
136
100
AcDbEntity
  8
LAY-1
  6
CONTINUOUS
 62
     2
100
AcDbLine
 10
128.75039
 20
118.094047
 30
0.0
 11
129.740339
 21
119.083996
 31
0.0
  0
ARC
  5
137
100
AcDbEntity
  8
LAY-1
  6
CONTINUOUS
 62
     2
100
AcDbCircle
 10
129.316075
 20
119.50826
 30
0.0
 40
0.6
100
AcDbArc
 50
315.0
 51
45.0
  0
LINE
  5
138
100
AcDbEntity
  8
LAY-1
  6
CONTINUOUS
 62
     2
100
AcDbLine
 10
129.740339
 20
119.932524
 30
0.0
 11
128.75039
 21
120.922474
 31
0.0
  0
CIRCLE
  5
139
100
AcDbEntity
  8
LAY-1
  6
CONTINUOUS
 62
     2
100
AcDbCircle
 10
130.87171
 20
119.50826
 30
0.0
 40
4.25
  0
LINE
  5
13A
100
AcDbEntity
  8
LAY-1
  6
CONTINUOUS
 62
     2
100
AcDbLine
 10
129.457496
 20
170.61306
 30
0.0
 11
128.75039
 21
169.905953
 31
0.0
  0
LINE
  5
13B
100
AcDbEntity
  8
LAY-1
  6
CONTINUOUS
 62
     2
100
AcDbLine
 10
129.457496
 20
170.61306
 30
0.0
 11
130.447446
 21
169.623111
 31
0.0
  0
ARC
  5
13C
100
AcDbEntity
  8
LAY-1
  6
CONTINUOUS
 62
     2
100
AcDbCircle
 10
130.87171
 20
170.047375
 30
0.0
 40
0.6
100
AcDbArc
 50
225.0
 51
315.0
  0
LINE
  5
13D
100
AcDbEntity
  8
LAY-1
  6
CONTINUOUS
 62
     2
100
AcDbLine
 10
131.295974
 20
169.623111
 30
0.0
 11
132.285923
 21
170.61306
 31
0.0
  0
LINE
  5
13E
100
AcDbEntity
  8
LAY-1
  6
CONTINUOUS
 62
     2
100
AcDbLine
 10
132.99303
 20
169.905953
 30
0.0
 11
132.285923
 21
170.61306
 31
0.0
  0
LINE
  5
13F
100
AcDbEntity
  8
LAY-1
  6
CONTINUOUS
 62
     2
100
AcDbLine
 10
132.003081
 20
168.916004
 30
0.0
 11
132.99303
 21
169.905953
 31
0.0
  0
ARC
  5
140
100
AcDbEntity
  8
LAY-1
  6
CONTINUOUS
 62
     2
100
AcDbCircle
 10
132.427345
 20
168.49174
 30
0.0
 40
0.6
100
AcDbArc
 50
135.0
 51
225.0
  0
LINE
  5
141
100
AcDbEntity
  8
LAY-1
  6
CONTINUOUS
 62
     2
100
AcDbLine
 10
132.003081
 20
168.067476
 30
0.0
 11
132.99303
 21
167.077526
 31
0.0
  0
LINE
  5
142
100
AcDbEntity
  8
LAY-1
  6
CONTINUOUS
 62
     2
100
AcDbLine
 10
132.285923
 20
166.370419
 30
0.0
 11
132.99303
 21
167.077526
 31
0.0
  0
LINE
  5
143
100
AcDbEntity
  8
LAY-1
  6
CONTINUOUS
 62
     2
100
AcDbLine
 10
132.285923
 20
166.370419
 30
0.0
 11
131.295974
 21
167.360369
 31
0.0
  0
ARC
  5
144
100
AcDbEntity
  8
LAY-1
  6
CONTINUOUS
 62
     2
100
AcDbCircle
 10
130.87171
 20
166.936105
 30
0.0
 40
0.6
100
AcDbArc
 50
45.0
 51
135.0
  0
LINE
  5
145
100
AcDbEntity
  8
LAY-1
  6
CONTINUOUS
 62
     2
100
AcDbLine
 10
129.457496
 20
166.370419
 30
0.0
 11
130.447446
 21
167.360369
 31
0.0
  0
LINE
  5
146
100
AcDbEntity
  8
LAY-1
  6
CONTINUOUS
 62
     2
100
AcDbLine
 10
128.75039
 20
167.077526
 30
0.0
 11
129.457496
 21
166.370419
 31
0.0
  0
LINE
  5
147
100
AcDbEntity
  8
LAY-1
  6
CONTINUOUS
 62
     2
100
AcDbLine
 10
128.75039
 20
167.077526
 30
0.0
 11
129.740339
 21
168.067476
 31
0.0
  0
ARC
  5
148
100
AcDbEntity
  8
LAY-1
  6
CONTINUOUS
 62
     2
100
AcDbCircle
 10
129.316075
 20
168.49174
 30
0.0
 40
0.6
100
AcDbArc
 50
315.0
 51
45.0
  0
LINE
  5
149
100
AcDbEntity
  8
LAY-1
  6
CONTINUOUS
 62
     2
100
AcDbLine
 10
129.740339
 20
168.916004
 30
0.0
 11
128.75039
 21
169.905953
 31
0.0
  0
CIRCLE
  5
14A
100
AcDbEntity
  8
LAY-1
  6
CONTINUOUS
 62
     2
100
AcDbCircle
 10
130.87171
 20
168.49174
 30
0.0
 40
4.25
  0
CIRCLE
  5
14B
100
AcDbEntity
  8
LAY-1
  6
CONTINUOUS
 62
     2
100
AcDbCircle
 10
190.0
 20
144.0
 30
0.0
 40
69.0
  0
CIRCLE
  5
14C
100
AcDbEntity
  8
LAY-1
  6
CONTINUOUS
 62
     2
100
AcDbCircle
 10
190.0
 20
92.5
 30
0.0
 40
14.5
  0
CIRCLE
  5
14D
100
AcDbEntity
  8
LAY-1
  6
CONTINUOUS
 62
     2
100
AcDbCircle
 10
190.0
 20
92.5
 30
0.0
 40
12.75
  0
ARC
  5
14E
100
AcDbEntity
  8
LAY-1
  6
CONTINUOUS
 62
     2
100
AcDbCircle
 10
190.0
 20
144.0
 30
0.0
 40
56.622648
100
AcDbArc
 50
284.430832
 51
169.827766
  0
ARC
  5
14F
100
AcDbEntity
  8
LAY-1
  6
CONTINUOUS
 62
     2
100
AcDbCircle
 10
212.0
 20
213.0
 30
0.0
 40
1.0
100
AcDbArc
 50
0.0
 51
90.0
  0
LINE
  5
150
100
AcDbEntity
  8
LAY-1
  6
CONTINUOUS
 62
     2
100
AcDbLine
 10
213.0
 20
209.053824
 30
0.0
 11
213.0
 21
213.0
 31
0.0
  0
ARC
  5
151
100
AcDbEntity
  8
LAY-1
  6
CONTINUOUS
 62
     2
100
AcDbCircle
 10
212.0
 20
75.0
 30
0.0
 40
1.0
100
AcDbArc
 50
270.0
 51
0.0
  0
LINE
  5
152
100
AcDbEntity
  8
LAY-1
  6
CONTINUOUS
 62
     2
100
AcDbLine
 10
213.0
 20
78.946176
 30
0.0
 11
213.0
 21
75.0
 31
0.0
  0
LINE
  5
153
100
AcDbEntity
  8
LAY-1
  6
CONTINUOUS
 62
     2
100
AcDbLine
 10
168.0
 20
214.0
 30
0.0
 11
213.0
 21
214.0
 31
0.0
  0
LINE
  5
154
100
AcDbEntity
  8
LAY-1
  6
CONTINUOUS
 62
     2
100
AcDbLine
 10
215.905953
 20
86.99303
 30
0.0
 11
216.61306
 21
86.285923
 31
0.0
  0
LINE
  5
155
100
AcDbEntity
  8
LAY-1
  6
CONTINUOUS
 62
     2
100
AcDbLine
 10
215.905953
 20
86.99303
 30
0.0
 11
214.916004
 21
86.003081
 31
0.0
  0
ARC
  5
156
100
AcDbEntity
  8
LAY-1
  6
CONTINUOUS
 62
     2
100
AcDbCircle
 10
214.49174
 20
86.427345
 30
0.0
 40
0.6
100
AcDbArc
 50
225.0
 51
315.0
  0
LINE
  5
157
100
AcDbEntity
  8
LAY-1
  6
CONTINUOUS
 62
     2
100
AcDbLine
 10
214.067476
 20
86.003081
 30
0.0
 11
213.077526
 21
86.99303
 31
0.0
  0
LINE
  5
158
100
AcDbEntity
  8
LAY-1
  6
CONTINUOUS
 62
     2
100
AcDbLine
 10
212.370419
 20
86.285923
 30
0.0
 11
213.077526
 21
86.99303
 31
0.0
  0
LINE
  5
159
100
AcDbEntity
  8
LAY-1
  6
CONTINUOUS
 62
     2
100
AcDbLine
 10
213.360369
 20
85.295974
 30
0.0
 11
212.370419
 21
86.285923
 31
0.0
  0
ARC
  5
15A
100
AcDbEntity
  8
LAY-1
  6
CONTINUOUS
 62
     2
100
AcDbCircle
 10
212.936105
 20
84.87171
 30
0.0
 40
0.6
100
AcDbArc
 50
315.0
 51
45.0
  0
LINE
  5
15B
100
AcDbEntity
  8
LAY-1
  6
CONTINUOUS
 62
     2
100
AcDbLine
 10
213.360369
 20
84.447446
 30
0.0
 11
212.370419
 21
83.457496
 31
0.0
  0
LINE
  5
15C
100
AcDbEntity
  8
LAY-1
  6
CONTINUOUS
 62
     2
100
AcDbLine
 10
213.077526
 20
82.75039
 30
0.0
 11
212.370419
 21
83.457496
 31
0.0
  0
LINE
  5
15D
100
AcDbEntity
  8
LAY-1
  6
CONTINUOUS
 62
     2
100
AcDbLine
 10
213.077526
 20
82.75039
 30
0.0
 11
214.067476
 21
83.740339
 31
0.0
  0
ARC
  5
15E
100
AcDbEntity
  8
LAY-1
  6
CONTINUOUS
 62
     2
100
AcDbCircle
 10
214.49174
 20
83.316075
 30
0.0
 40
0.6
100
AcDbArc
 50
45.0
 51
135.0
  0
LINE
  5
15F
100
AcDbEntity
  8
LAY-1
  6
CONTINUOUS
 62
     2
100
AcDbLine
 10
215.905953
 20
82.75039
 30
0.0
 11
214.916004
 21
83.740339
 31
0.0
  0
LINE
  5
160
100
AcDbEntity
  8
LAY-1
  6
CONTINUOUS
 62
     2
100
AcDbLine
 10
216.61306
 20
83.457496
 30
0.0
 11
215.905953
 21
82.75039
 31
0.0
  0
LINE
  5
161
100
AcDbEntity
  8
LAY-1
  6
CONTINUOUS
 62
     2
100
AcDbLine
 10
216.61306
 20
83.457496
 30
0.0
 11
215.623111
 21
84.447446
 31
0.0
  0
ARC
  5
162
100
AcDbEntity
  8
LAY-1
  6
CONTINUOUS
 62
     2
100
AcDbCircle
 10
216.047375
 20
84.87171
 30
0.0
 40
0.6
100
AcDbArc
 50
135.0
 51
225.0
  0
LINE
  5
163
100
AcDbEntity
  8
LAY-1
  6
CONTINUOUS
 62
     2
100
AcDbLine
 10
215.623111
 20
85.295974
 30
0.0
 11
216.61306
 21
86.285923
 31
0.0
  0
CIRCLE
  5
164
100
AcDbEntity
  8
LAY-1
  6
CONTINUOUS
 62
     2
100
AcDbCircle
 10
214.49174
 20
84.87171
 30
0.0
 40
4.25
  0
LINE
  5
165
100
AcDbEntity
  8
LAY-1
  6
CONTINUOUS
 62
     2
100
AcDbLine
 10
250.542504
 20
121.629581
 30
0.0
 11
251.24961
 21
120.922474
 31
0.0
  0
LINE
  5
166
100
AcDbEntity
  8
LAY-1
  6
CONTINUOUS
 62
     2
100
AcDbLine
 10
250.542504
 20
121.629581
 30
0.0
 11
249.552554
 21
120.639631
 31
0.0
  0
ARC
  5
167
100
AcDbEntity
  8
LAY-1
  6
CONTINUOUS
 62
     2
100
AcDbCircle
 10
249.12829
 20
121.063895
 30
0.0
 40
0.6
100
AcDbArc
 50
225.0
 51
315.0
  0
LINE
  5
168
100
AcDbEntity
  8
LAY-1
  6
CONTINUOUS
 62
     2
100
AcDbLine
 10
248.704026
 20
120.639631
 30
0.0
 11
247.714077
 21
121.629581
 31
0.0
  0
LINE
  5
169
100
AcDbEntity
  8
LAY-1
  6
CONTINUOUS
 62
     2
100
AcDbLine
 10
247.00697
 20
120.922474
 30
0.0
 11
247.714077
 21
121.629581
 31
0.0
  0
LINE
  5
16A
100
AcDbEntity
  8
LAY-1
  6
CONTINUOUS
 62
     2
100
AcDbLine
 10
247.996919
 20
119.932524
 30
0.0
 11
247.00697
 21
120.922474
 31
0.0
  0
ARC
  5
16B
100
AcDbEntity
  8
LAY-1
  6
CONTINUOUS
 62
     2
100
AcDbCircle
 10
247.572655
 20
119.50826
 30
0.0
 40
0.6
100
AcDbArc
 50
315.0
 51
45.0
  0
LINE
  5
16C
100
AcDbEntity
  8
LAY-1
  6
CONTINUOUS
 62
     2
100
AcDbLine
 10
247.996919
 20
119.083996
 30
0.0
 11
247.00697
 21
118.094047
 31
0.0
  0
LINE
  5
16D
100
AcDbEntity
  8
LAY-1
  6
CONTINUOUS
 62
     2
100
AcDbLine
 10
247.714077
 20
117.38694
 30
0.0
 11
247.00697
 21
118.094047
 31
0.0
  0
LINE
  5
16E
100
AcDbEntity
  8
LAY-1
  6
CONTINUOUS
 62
     2
100
AcDbLine
 10
247.714077
 20
117.38694
 30
0.0
 11
248.704026
 21
118.376889
 31
0.0
  0
ARC
  5
16F
100
AcDbEntity
  8
LAY-1
  6
CONTINUOUS
 62
     2
100
AcDbCircle
 10
249.12829
 20
117.952625
 30
0.0
 40
0.6
100
AcDbArc
 50
45.0
 51
135.0
  0
LINE
  5
170
100
AcDbEntity
  8
LAY-1
  6
CONTINUOUS
 62
     2
100
AcDbLine
 10
250.542504
 20
117.38694
 30
0.0
 11
249.552554
 21
118.376889
 31
0.0
  0
LINE
  5
171
100
AcDbEntity
  8
LAY-1
  6
CONTINUOUS
 62
     2
100
AcDbLine
 10
251.24961
 20
118.094047
 30
0.0
 11
250.542504
 21
117.38694
 31
0.0
  0
LINE
  5
172
100
AcDbEntity
  8
LAY-1
  6
CONTINUOUS
 62
     2
100
AcDbLine
 10
251.24961
 20
118.094047
 30
0.0
 11
250.259661
 21
119.083996
 31
0.0
  0
ARC
  5
173
100
AcDbEntity
  8
LAY-1
  6
CONTINUOUS
 62
     2
100
AcDbCircle
 10
250.683925
 20
119.50826
 30
0.0
 40
0.6
100
AcDbArc
 50
135.0
 51
225.0
  0
LINE
  5
174
100
AcDbEntity
  8
LAY-1
  6
CONTINUOUS
 62
     2
100
AcDbLine
 10
250.259661
 20
119.932524
 30
0.0
 11
251.24961
 21
120.922474
 31
0.0
  0
CIRCLE
  5
175
100
AcDbEntity
  8
LAY-1
  6
CONTINUOUS
 62
     2
100
AcDbCircle
 10
249.12829
 20
119.50826
 30
0.0
 40
4.25
  0
LINE
  5
176
100
AcDbEntity
  8
LAY-1
  6
CONTINUOUS
 62
     2
100
AcDbLine
 10
215.905953
 20
205.24961
 30
0.0
 11
216.61306
 21
204.542504
 31
0.0
  0
LINE
  5
177
100
AcDbEntity
  8
LAY-1
  6
CONTINUOUS
 62
     2
100
AcDbLine
 10
215.905953
 20
205.24961
 30
0.0
 11
214.916004
 21
204.259661
 31
0.0
  0
ARC
  5
178
100
AcDbEntity
  8
LAY-1
  6
CONTINUOUS
 62
     2
100
AcDbCircle
 10
214.49174
 20
204.683925
 30
0.0
 40
0.6
100
AcDbArc
 50
225.0
 51
315.0
  0
LINE
  5
179
100
AcDbEntity
  8
LAY-1
  6
CONTINUOUS
 62
     2
100
AcDbLine
 10
214.067476
 20
204.259661
 30
0.0
 11
213.077526
 21
205.24961
 31
0.0
  0
LINE
  5
17A
100
AcDbEntity
  8
LAY-1
  6
CONTINUOUS
 62
     2
100
AcDbLine
 10
212.370419
 20
204.542504
 30
0.0
 11
213.077526
 21
205.24961
 31
0.0
  0
LINE
  5
17B
100
AcDbEntity
  8
LAY-1
  6
CONTINUOUS
 62
     2
100
AcDbLine
 10
213.360369
 20
203.552554
 30
0.0
 11
212.370419
 21
204.542504
 31
0.0
  0
ARC
  5
17C
100
AcDbEntity
  8
LAY-1
  6
CONTINUOUS
 62
     2
100
AcDbCircle
 10
212.936105
 20
203.12829
 30
0.0
 40
0.6
100
AcDbArc
 50
315.0
 51
45.0
  0
LINE
  5
17D
100
AcDbEntity
  8
LAY-1
  6
CONTINUOUS
 62
     2
100
AcDbLine
 10
213.360369
 20
202.704026
 30
0.0
 11
212.370419
 21
201.714077
 31
0.0
  0
LINE
  5
17E
100
AcDbEntity
  8
LAY-1
  6
CONTINUOUS
 62
     2
100
AcDbLine
 10
213.077526
 20
201.00697
 30
0.0
 11
212.370419
 21
201.714077
 31
0.0
  0
LINE
  5
17F
100
AcDbEntity
  8
LAY-1
  6
CONTINUOUS
 62
     2
100
AcDbLine
 10
213.077526
 20
201.00697
 30
0.0
 11
214.067476
 21
201.996919
 31
0.0
  0
ARC
  5
180
100
AcDbEntity
  8
LAY-1
  6
CONTINUOUS
 62
     2
100
AcDbCircle
 10
214.49174
 20
201.572655
 30
0.0
 40
0.6
100
AcDbArc
 50
45.0
 51
135.0
  0
LINE
  5
181
100
AcDbEntity
  8
LAY-1
  6
CONTINUOUS
 62
     2
100
AcDbLine
 10
215.905953
 20
201.00697
 30
0.0
 11
214.916004
 21
201.996919
 31
0.0
  0
LINE
  5
182
100
AcDbEntity
  8
LAY-1
  6
CONTINUOUS
 62
     2
100
AcDbLine
 10
216.61306
 20
201.714077
 30
0.0
 11
215.905953
 21
201.00697
 31
0.0
  0
LINE
  5
183
100
AcDbEntity
  8
LAY-1
  6
CONTINUOUS
 62
     2
100
AcDbLine
 10
216.61306
 20
201.714077
 30
0.0
 11
215.623111
 21
202.704026
 31
0.0
  0
ARC
  5
184
100
AcDbEntity
  8
LAY-1
  6
CONTINUOUS
 62
     2
100
AcDbCircle
 10
216.047375
 20
203.12829
 30
0.0
 40
0.6
100
AcDbArc
 50
135.0
 51
225.0
  0
LINE
  5
185
100
AcDbEntity
  8
LAY-1
  6
CONTINUOUS
 62
     2
100
AcDbLine
 10
215.623111
 20
203.552554
 30
0.0
 11
216.61306
 21
204.542504
 31
0.0
  0
CIRCLE
  5
186
100
AcDbEntity
  8
LAY-1
  6
CONTINUOUS
 62
     2
100
AcDbCircle
 10
214.49174
 20
203.12829
 30
0.0
 40
4.25
  0
LINE
  5
187
100
AcDbEntity
  8
LAY-1
  6
CONTINUOUS
 62
     2
100
AcDbLine
 10
250.542504
 20
170.61306
 30
0.0
 11
251.24961
 21
169.905953
 31
0.0
  0
LINE
  5
188
100
AcDbEntity
  8
LAY-1
  6
CONTINUOUS
 62
     2
100
AcDbLine
 10
250.542504
 20
170.61306
 30
0.0
 11
249.552554
 21
169.623111
 31
0.0
  0
ARC
  5
189
100
AcDbEntity
  8
LAY-1
  6
CONTINUOUS
 62
     2
100
AcDbCircle
 10
249.12829
 20
170.047375
 30
0.0
 40
0.6
100
AcDbArc
 50
225.0
 51
315.0
  0
LINE
  5
18A
100
AcDbEntity
  8
LAY-1
  6
CONTINUOUS
 62
     2
100
AcDbLine
 10
248.704026
 20
169.623111
 30
0.0
 11
247.714077
 21
170.61306
 31
0.0
  0
LINE
  5
18B
100
AcDbEntity
  8
LAY-1
  6
CONTINUOUS
 62
     2
100
AcDbLine
 10
247.00697
 20
169.905953
 30
0.0
 11
247.714077
 21
170.61306
 31
0.0
  0
LINE
  5
18C
100
AcDbEntity
  8
LAY-1
  6
CONTINUOUS
 62
     2
100
AcDbLine
 10
247.996919
 20
168.916004
 30
0.0
 11
247.00697
 21
169.905953
 31
0.0
  0
ARC
  5
18D
100
AcDbEntity
  8
LAY-1
  6
CONTINUOUS
 62
     2
100
AcDbCircle
 10
247.572655
 20
168.49174
 30
0.0
 40
0.6
100
AcDbArc
 50
315.0
 51
45.0
  0
LINE
  5
18E
100
AcDbEntity
  8
LAY-1
  6
CONTINUOUS
 62
     2
100
AcDbLine
 10
247.996919
 20
168.067476
 30
0.0
 11
247.00697
 21
167.077526
 31
0.0
  0
LINE
  5
18F
100
AcDbEntity
  8
LAY-1
  6
CONTINUOUS
 62
     2
100
AcDbLine
 10
247.714077
 20
166.370419
 30
0.0
 11
247.00697
 21
167.077526
 31
0.0
  0
LINE
  5
190
100
AcDbEntity
  8
LAY-1
  6
CONTINUOUS
 62
     2
100
AcDbLine
 10
247.714077
 20
166.370419
 30
0.0
 11
248.704026
 21
167.360369
 31
0.0
  0
ARC
  5
191
100
AcDbEntity
  8
LAY-1
  6
CONTINUOUS
 62
     2
100
AcDbCircle
 10
249.12829
 20
166.936105
 30
0.0
 40
0.6
100
AcDbArc
 50
45.0
 51
135.0
  0
LINE
  5
192
100
AcDbEntity
  8
LAY-1
  6
CONTINUOUS
 62
     2
100
AcDbLine
 10
250.542504
 20
166.370419
 30
0.0
 11
249.552554
 21
167.360369
 31
0.0
  0
LINE
  5
193
100
AcDbEntity
  8
LAY-1
  6
CONTINUOUS
 62
     2
100
AcDbLine
 10
251.24961
 20
167.077526
 30
0.0
 11
250.542504
 21
166.370419
 31
0.0
  0
LINE
  5
194
100
AcDbEntity
  8
LAY-1
  6
CONTINUOUS
 62
     2
100
AcDbLine
 10
251.24961
 20
167.077526
 30
0.0
 11
250.259661
 21
168.067476
 31
0.0
  0
ARC
  5
195
100
AcDbEntity
  8
LAY-1
  6
CONTINUOUS
 62
     2
100
AcDbCircle
 10
250.683925
 20
168.49174
 30
0.0
 40
0.6
100
AcDbArc
 50
135.0
 51
225.0
  0
LINE
  5
196
100
AcDbEntity
  8
LAY-1
  6
CONTINUOUS
 62
     2
100
AcDbLine
 10
250.259661
 20
168.916004
 30
0.0
 11
251.24961
 21
169.905953
 31
0.0
  0
CIRCLE
  5
197
100
AcDbEntity
  8
LAY-1
  6
CONTINUOUS
 62
     2
100
AcDbCircle
 10
249.12829
 20
168.49174
 30
0.0
 40
4.25
  0
LINE
  5
198
100
AcDbEntity
  8
LAY-1
  6
CONTINUOUS
 62
     2
100
AcDbLine
 10
192.0
 20
81.5
 30
0.0
 11
192.0
 21
103.5
 31
0.0
  0
LINE
  5
199
100
AcDbEntity
  8
LAY-1
  6
CONTINUOUS
 62
     2
100
AcDbLine
 10
192.0
 20
81.5
 30
0.0
 11
188.0
 21
81.5
 31
0.0
  0
LINE
  5
19A
100
AcDbEntity
  8
LAY-1
  6
CONTINUOUS
 62
     2
100
AcDbLine
 10
188.0
 20
103.5
 30
0.0
 11
192.0
 21
103.5
 31
0.0
  0
ARC
  5
19B
100
AcDbEntity
  8
LAY-1
  6
CONTINUOUS
 62
     2
100
AcDbCircle
 10
190.0
 20
144.0
 30
0.0
 40
22.5
100
AcDbArc
 50
180.0
 51
185.659353
  0
POLYLINE
  5
19C
100
AcDbEntity
  8
LAY-1
  6
CONTINUOUS
 62
     2
100
AcDb2dPolyline
 66
     1
 10
0.0
 20
0.0
 30
0.0
 70
   128
  0
VERTEX
  5
19D
100
AcDbEntity
  8
LAY-1
  6
CONTINUOUS
 62
     2
100
AcDbVertex
100
AcDb2dVertex
 10
167.60967
 20
141.781189
 30
0.0
  0
VERTEX
  5
19E
100
AcDbEntity
  8
LAY-1
  6
CONTINUOUS
 62
     2
100
AcDbVertex
100
AcDb2dVertex
 10
176.883288
 20
125.718811
 30
0.0
  0
SEQEND
  5
19F
100
AcDbEntity
  8
LAY-1
  6
CONTINUOUS
 62
     2
  0
ARC
  5
1A0
100
AcDbEntity
  8
LAY-1
  6
CONTINUOUS
 62
     2
100
AcDbCircle
 10
190.0
 20
144.0
 30
0.0
 40
22.5
100
AcDbArc
 50
234.340647
 51
245.659353
  0
POLYLINE
  5
1A1
100
AcDbEntity
  8
LAY-1
  6
CONTINUOUS
 62
     2
100
AcDb2dPolyline
 66
     1
 10
0.0
 20
0.0
 30
0.0
 70
   128
  0
VERTEX
  5
1A2
100
AcDbEntity
  8
LAY-1
  6
CONTINUOUS
 62
     2
100
AcDbVertex
100
AcDb2dVertex
 10
180.726382
 20
123.5
 30
0.0
  0
VERTEX
  5
1A3
100
AcDbEntity
  8
LAY-1
  6
CONTINUOUS
 62
     2
100
AcDbVertex
100
AcDb2dVertex
 10
199.273618
 20
123.5
 30
0.0
  0
SEQEND
  5
1A4
100
AcDbEntity
  8
LAY-1
  6
CONTINUOUS
 62
     2
  0
ARC
  5
1A5
100
AcDbEntity
  8
LAY-1
  6
CONTINUOUS
 62
     2
100
AcDbCircle
 10
190.0
 20
144.0
 30
0.0
 40
22.5
100
AcDbArc
 50
294.340647
 51
305.659353
  0
ARC
  5
1A6
100
AcDbEntity
  8
LAY-1
  6
CONTINUOUS
 62
     2
100
AcDbCircle
 10
190.0
 20
144.0
 30
0.0
 40
22.5
100
AcDbArc
 50
354.340647
 51
0.0
  0
POLYLINE
  5
1A7
100
AcDbEntity
  8
LAY-1
  6
CONTINUOUS
 62
     2
100
AcDb2dPolyline
 66
     1
 10
0.0
 20
0.0
 30
0.0
 70
   128
  0
VERTEX
  5
1A8
100
AcDbEntity
  8
LAY-1
  6
CONTINUOUS
 62
     2
100
AcDbVertex
100
AcDb2dVertex
 10
203.116712
 20
125.718811
 30
0.0
  0
VERTEX
  5
1A9
100
AcDbEntity
  8
LAY-1
  6
CONTINUOUS
 62
     2
100
AcDbVertex
100
AcDb2dVertex
 10
212.39033
 20
141.781189
 30
0.0
  0
SEQEND
  5
1AA
100
AcDbEntity
  8
LAY-1
  6
CONTINUOUS
 62
     2
  0
ARC
  5
1AB
100
AcDbEntity
  8
LAY-1
  6
CONTINUOUS
 62
     2
100
AcDbCircle
 10
190.0
 20
144.0
 30
0.0
 40
20.5
100
AcDbArc
 50
180.0
 51
0.0
  0
ARC
  5
1AC
100
AcDbEntity
  8
LAY-1
  6
CONTINUOUS
 62
     2
100
AcDbCircle
 10
190.0
 20
144.0
 30
0.0
 40
14.0
100
AcDbArc
 50
270.0
 51
273.126776
  0
ARC
  5
1AD
100
AcDbEntity
  8
LAY-1
  6
CONTINUOUS
 62
     2
100
AcDbCircle
 10
190.75
 20
130.27047
 30
0.0
 40
0.25
100
AcDbArc
 50
273.126776
 51
0.0
  0
LINE
  5
1AE
100
AcDbEntity
  8
LAY-1
  6
CONTINUOUS
 62
     2
100
AcDbLine
 10
191.0
 20
130.27047
 30
0.0
 11
191.0
 21
130.306936
 31
0.0
  0
ARC
  5
1AF
100
AcDbEntity
  8
LAY-1
  6
CONTINUOUS
 62
     2
100
AcDbCircle
 10
191.25
 20
130.306936
 30
0.0
 40
0.25
100
AcDbArc
 50
95.215909
 51
180.0
  0
ARC
  5
1B0
100
AcDbEntity
  8
LAY-1
  6
CONTINUOUS
 62
     2
100
AcDbCircle
 10
190.0
 20
144.0
 30
0.0
 40
13.5
100
AcDbArc
 50
275.215909
 51
294.784091
  0
ARC
  5
1B1
100
AcDbEntity
  8
LAY-1
  6
CONTINUOUS
 62
     2
100
AcDbCircle
 10
195.764
 20
131.516459
 30
0.0
 40
0.25
100
AcDbArc
 50
30.0
 51
114.784091
  0
LINE
  5
1B2
100
AcDbEntity
  8
LAY-1
  6
CONTINUOUS
 62
     2
100
AcDbLine
 10
195.980507
 20
131.641459
 30
0.0
 11
195.99874
 21
131.609878
 31
0.0
  0
ARC
  5
1B3
100
AcDbEntity
  8
LAY-1
  6
CONTINUOUS
 62
     2
100
AcDbCircle
 10
196.215246
 20
131.734878
 30
0.0
 40
0.25
100
AcDbArc
 50
210.0
 51
296.873224
  0
ARC
  5
1B4
100
AcDbEntity
  8
LAY-1
  6
CONTINUOUS
 62
     2
100
AcDbCircle
 10
190.0
 20
144.0
 30
0.0
 40
14.0
100
AcDbArc
 50
296.873224
 51
303.126776
  0
ARC
  5
1B5
100
AcDbEntity
  8
LAY-1
  6
CONTINUOUS
 62
     2
100
AcDbCircle
 10
197.514284
 20
132.484878
 30
0.0
 40
0.25
100
AcDbArc
 50
303.126776
 51
30.0
  0
LINE
  5
1B6
100
AcDbEntity
  8
LAY-1
  6
CONTINUOUS
 62
     2
100
AcDbLine
 10
197.712557
 20
132.641459
 30
0.0
 11
197.730791
 21
132.609878
 31
0.0
  0
ARC
  5
1B7
100
AcDbEntity
  8
LAY-1
  6
CONTINUOUS
 62
     2
100
AcDbCircle
 10
197.929064
 20
132.766459
 30
0.0
 40
0.25
100
AcDbArc
 50
125.215909
 51
210.0
  0
ARC
  5
1B8
100
AcDbEntity
  8
LAY-1
  6
CONTINUOUS
 62
     2
100
AcDbCircle
 10
201.515122
 20
136.485716
 30
0.0
 40
0.25
100
AcDbArc
 50
240.0
 51
326.873224
  0
ARC
  5
1B9
100
AcDbEntity
  8
LAY-1
  6
CONTINUOUS
 62
     2
100
AcDbCircle
 10
190.0
 20
144.0
 30
0.0
 40
13.5
100
AcDbArc
 50
305.215909
 51
324.784091
  0
LINE
  5
1BA
100
AcDbEntity
  8
LAY-1
  6
CONTINUOUS
 62
     2
100
AcDbLine
 10
201.358541
 20
136.287443
 30
0.0
 11
201.390122
 21
136.269209
 31
0.0
  0
ARC
  5
1BB
100
AcDbEntity
  8
LAY-1
  6
CONTINUOUS
 62
     2
100
AcDbCircle
 10
201.233541
 20
136.070936
 30
0.0
 40
0.25
100
AcDbArc
 50
60.0
 51
144.784091
  0
ARC
  5
1BC
100
AcDbEntity
  8
LAY-1
  6
CONTINUOUS
 62
     2
100
AcDbCircle
 10
202.483541
 20
138.236
 30
0.0
 40
0.25
100
AcDbArc
 50
155.215909
 51
240.0
  0
LINE
  5
1BD
100
AcDbEntity
  8
LAY-1
  6
CONTINUOUS
 62
     2
100
AcDbLine
 10
202.358541
 20
138.019493
 30
0.0
 11
202.390122
 21
138.00126
 31
0.0
  0
ARC
  5
1BE
100
AcDbEntity
  8
LAY-1
  6
CONTINUOUS
 62
     2
100
AcDbCircle
 10
190.0
 20
144.0
 30
0.0
 40
14.0
100
AcDbArc
 50
326.873224
 51
333.126776
  0
ARC
  5
1BF
100
AcDbEntity
  8
LAY-1
  6
CONTINUOUS
 62
     2
100
AcDbCircle
 10
202.265122
 20
137.784754
 30
0.0
 40
0.25
100
AcDbArc
 50
333.126776
 51
60.0
  0
ARC
  5
1C0
100
AcDbEntity
  8
LAY-1
  6
CONTINUOUS
 62
     2
100
AcDbCircle
 10
203.72953
 20
143.25
 30
0.0
 40
0.25
100
AcDbArc
 50
270.0
 51
356.873224
  0
LINE
  5
1C1
100
AcDbEntity
  8
LAY-1
  6
CONTINUOUS
 62
     2
100
AcDbLine
 10
203.693064
 20
143.0
 30
0.0
 11
203.72953
 21
143.0
 31
0.0
  0
ARC
  5
1C2
100
AcDbEntity
  8
LAY-1
  6
CONTINUOUS
 62
     2
100
AcDbCircle
 10
190.0
 20
144.0
 30
0.0
 40
13.5
100
AcDbArc
 50
335.215909
 51
354.784091
  0
ARC
  5
1C3
100
AcDbEntity
  8
LAY-1
  6
CONTINUOUS
 62
     2
100
AcDbCircle
 10
203.693064
 20
142.75
 30
0.0
 40
0.25
100
AcDbArc
 50
90.0
 51
174.784091
  0
ARC
  5
1C4
100
AcDbEntity
  8
LAY-1
  6
CONTINUOUS
 62
     2
100
AcDbCircle
 10
190.0
 20
144.0
 30
0.0
 40
14.0
100
AcDbArc
 50
356.873224
 51
0.0
  0
ARC
  5
1C5
100
AcDbEntity
  8
LAY-1
  6
CONTINUOUS
 62
     2
100
AcDbCircle
 10
190.0
 20
144.0
 30
0.0
 40
14.0
100
AcDbArc
 50
266.873224
 51
270.0
  0
ARC
  5
1C6
100
AcDbEntity
  8
LAY-1
  6
CONTINUOUS
 62
     2
100
AcDbCircle
 10
189.25
 20
130.27047
 30
0.0
 40
0.25
100
AcDbArc
 50
180.0
 51
266.873224
  0
LINE
  5
1C7
100
AcDbEntity
  8
LAY-1
  6
CONTINUOUS
 62
     2
100
AcDbLine
 10
189.0
 20
130.27047
 30
0.0
 11
189.0
 21
130.306936
 31
0.0
  0
ARC
  5
1C8
100
AcDbEntity
  8
LAY-1
  6
CONTINUOUS
 62
     2
100
AcDbCircle
 10
188.75
 20
130.306936
 30
0.0
 40
0.25
100
AcDbArc
 50
0.0
 51
84.784091
  0
ARC
  5
1C9
100
AcDbEntity
  8
LAY-1
  6
CONTINUOUS
 62
     2
100
AcDbCircle
 10
190.0
 20
144.0
 30
0.0
 40
13.5
100
AcDbArc
 50
245.215909
 51
264.784091
  0
ARC
  5
1CA
100
AcDbEntity
  8
LAY-1
  6
CONTINUOUS
 62
     2
100
AcDbCircle
 10
184.236
 20
131.516459
 30
0.0
 40
0.25
100
AcDbArc
 50
65.215909
 51
150.0
  0
LINE
  5
1CB
100
AcDbEntity
  8
LAY-1
  6
CONTINUOUS
 62
     2
100
AcDbLine
 10
184.019493
 20
131.641459
 30
0.0
 11
184.00126
 21
131.609878
 31
0.0
  0
ARC
  5
1CC
100
AcDbEntity
  8
LAY-1
  6
CONTINUOUS
 62
     2
100
AcDbCircle
 10
183.784754
 20
131.734878
 30
0.0
 40
0.25
100
AcDbArc
 50
243.126776
 51
330.0
  0
ARC
  5
1CD
100
AcDbEntity
  8
LAY-1
  6
CONTINUOUS
 62
     2
100
AcDbCircle
 10
190.0
 20
144.0
 30
0.0
 40
14.0
100
AcDbArc
 50
236.873224
 51
243.126776
  0
ARC
  5
1CE
100
AcDbEntity
  8
LAY-1
  6
CONTINUOUS
 62
     2
100
AcDbCircle
 10
182.485716
 20
132.484878
 30
0.0
 40
0.25
100
AcDbArc
 50
150.0
 51
236.873224
  0
LINE
  5
1CF
100
AcDbEntity
  8
LAY-1
  6
CONTINUOUS
 62
     2
100
AcDbLine
 10
182.287443
 20
132.641459
 30
0.0
 11
182.269209
 21
132.609878
 31
0.0
  0
ARC
  5
1D0
100
AcDbEntity
  8
LAY-1
  6
CONTINUOUS
 62
     2
100
AcDbCircle
 10
182.070936
 20
132.766459
 30
0.0
 40
0.25
100
AcDbArc
 50
330.0
 51
54.784091
  0
ARC
  5
1D1
100
AcDbEntity
  8
LAY-1
  6
CONTINUOUS
 62
     2
100
AcDbCircle
 10
178.484878
 20
136.485716
 30
0.0
 40
0.25
100
AcDbArc
 50
213.126776
 51
300.0
  0
ARC
  5
1D2
100
AcDbEntity
  8
LAY-1
  6
CONTINUOUS
 62
     2
100
AcDbCircle
 10
190.0
 20
144.0
 30
0.0
 40
13.5
100
AcDbArc
 50
215.215909
 51
234.784091
  0
LINE
  5
1D3
100
AcDbEntity
  8
LAY-1
  6
CONTINUOUS
 62
     2
100
AcDbLine
 10
178.641459
 20
136.287443
 30
0.0
 11
178.609878
 21
136.269209
 31
0.0
  0
ARC
  5
1D4
100
AcDbEntity
  8
LAY-1
  6
CONTINUOUS
 62
     2
100
AcDbCircle
 10
178.766459
 20
136.070936
 30
0.0
 40
0.25
100
AcDbArc
 50
35.215909
 51
120.0
  0
ARC
  5
1D5
100
AcDbEntity
  8
LAY-1
  6
CONTINUOUS
 62
     2
100
AcDbCircle
 10
177.516459
 20
138.236
 30
0.0
 40
0.25
100
AcDbArc
 50
300.0
 51
24.784091
  0
LINE
  5
1D6
100
AcDbEntity
  8
LAY-1
  6
CONTINUOUS
 62
     2
100
AcDbLine
 10
177.641459
 20
138.019493
 30
0.0
 11
177.609878
 21
138.00126
 31
0.0
  0
ARC
  5
1D7
100
AcDbEntity
  8
LAY-1
  6
CONTINUOUS
 62
     2
100
AcDbCircle
 10
190.0
 20
144.0
 30
0.0
 40
14.0
100
AcDbArc
 50
206.873224
 51
213.126776
  0
ARC
  5
1D8
100
AcDbEntity
  8
LAY-1
  6
CONTINUOUS
 62
     2
100
AcDbCircle
 10
177.734878
 20
137.784754
 30
0.0
 40
0.25
100
AcDbArc
 50
120.0
 51
206.873224
  0
ARC
  5
1D9
100
AcDbEntity
  8
LAY-1
  6
CONTINUOUS
 62
     2
100
AcDbCircle
 10
176.27047
 20
143.25
 30
0.0
 40
0.25
100
AcDbArc
 50
183.126776
 51
270.0
  0
LINE
  5
1DA
100
AcDbEntity
  8
LAY-1
  6
CONTINUOUS
 62
     2
100
AcDbLine
 10
176.306936
 20
143.0
 30
0.0
 11
176.27047
 21
143.0
 31
0.0
  0
ARC
  5
1DB
100
AcDbEntity
  8
LAY-1
  6
CONTINUOUS
 62
     2
100
AcDbCircle
 10
190.0
 20
144.0
 30
0.0
 40
13.5
100
AcDbArc
 50
185.215909
 51
204.784091
  0
ARC
  5
1DC
100
AcDbEntity
  8
LAY-1
  6
CONTINUOUS
 62
     2
100
AcDbCircle
 10
176.306936
 20
142.75
 30
0.0
 40
0.25
100
AcDbArc
 50
5.215909
 51
90.0
  0
ARC
  5
1DD
100
AcDbEntity
  8
LAY-1
  6
CONTINUOUS
 62
     2
100
AcDbCircle
 10
190.0
 20
144.0
 30
0.0
 40
14.0
100
AcDbArc
 50
180.0
 51
183.126776
  0
ARC
  5
1DE
100
AcDbEntity
  8
LAY-1
  6
CONTINUOUS
 62
     2
100
AcDbCircle
 10
190.0
 20
144.0
 30
0.0
 40
22.5
100
AcDbArc
 50
174.340647
 51
180.0
  0
POLYLINE
  5
1DF
100
AcDbEntity
  8
LAY-1
  6
CONTINUOUS
 62
     2
100
AcDb2dPolyline
 66
     1
 10
0.0
 20
0.0
 30
0.0
 70
   128
  0
VERTEX
  5
1E0
100
AcDbEntity
  8
LAY-1
  6
CONTINUOUS
 62
     2
100
AcDbVertex
100
AcDb2dVertex
 10
167.60967
 20
146.218811
 30
0.0
  0
VERTEX
  5
1E1
100
AcDbEntity
  8
LAY-1
  6
CONTINUOUS
 62
     2
100
AcDbVertex
100
AcDb2dVertex
 10
176.883288
 20
162.281189
 30
0.0
  0
SEQEND
  5
1E2
100
AcDbEntity
  8
LAY-1
  6
CONTINUOUS
 62
     2
  0
ARC
  5
1E3
100
AcDbEntity
  8
LAY-1
  6
CONTINUOUS
 62
     2
100
AcDbCircle
 10
190.0
 20
144.0
 30
0.0
 40
22.5
100
AcDbArc
 50
114.340647
 51
125.659353
  0
POLYLINE
  5
1E4
100
AcDbEntity
  8
LAY-1
  6
CONTINUOUS
 62
     2
100
AcDb2dPolyline
 66
     1
 10
0.0
 20
0.0
 30
0.0
 70
   128
  0
VERTEX
  5
1E5
100
AcDbEntity
  8
LAY-1
  6
CONTINUOUS
 62
     2
100
AcDbVertex
100
AcDb2dVertex
 10
180.726382
 20
164.5
 30
0.0
  0
VERTEX
  5
1E6
100
AcDbEntity
  8
LAY-1
  6
CONTINUOUS
 62
     2
100
AcDbVertex
100
AcDb2dVertex
 10
199.273618
 20
164.5
 30
0.0
  0
SEQEND
  5
1E7
100
AcDbEntity
  8
LAY-1
  6
CONTINUOUS
 62
     2
  0
ARC
  5
1E8
100
AcDbEntity
  8
LAY-1
  6
CONTINUOUS
 62
     2
100
AcDbCircle
 10
190.0
 20
144.0
 30
0.0
 40
22.5
100
AcDbArc
 50
54.340647
 51
65.659353
  0
ARC
  5
1E9
100
AcDbEntity
  8
LAY-1
  6
CONTINUOUS
 62
     2
100
AcDbCircle
 10
190.0
 20
144.0
 30
0.0
 40
22.5
100
AcDbArc
 50
0.0
 51
5.659353
  0
POLYLINE
  5
1EA
100
AcDbEntity
  8
LAY-1
  6
CONTINUOUS
 62
     2
100
AcDb2dPolyline
 66
     1
 10
0.0
 20
0.0
 30
0.0
 70
   128
  0
VERTEX
  5
1EB
100
AcDbEntity
  8
LAY-1
  6
CONTINUOUS
 62
     2
100
AcDbVertex
100
AcDb2dVertex
 10
203.116712
 20
162.281189
 30
0.0
  0
VERTEX
  5
1EC
100
AcDbEntity
  8
LAY-1
  6
CONTINUOUS
 62
     2
100
AcDbVertex
100
AcDb2dVertex
 10
212.39033
 20
146.218811
 30
0.0
  0
SEQEND
  5
1ED
100
AcDbEntity
  8
LAY-1
  6
CONTINUOUS
 62
     2
  0
ARC
  5
1EE
100
AcDbEntity
  8
LAY-1
  6
CONTINUOUS
 62
     2
100
AcDbCircle
 10
190.0
 20
144.0
 30
0.0
 40
20.5
100
AcDbArc
 50
0.0
 51
180.0
  0
ARC
  5
1EF
100
AcDbEntity
  8
LAY-1
  6
CONTINUOUS
 62
     2
100
AcDbCircle
 10
190.0
 20
144.0
 30
0.0
 40
14.0
100
AcDbArc
 50
86.873224
 51
90.0
  0
ARC
  5
1F0
100
AcDbEntity
  8
LAY-1
  6
CONTINUOUS
 62
     2
100
AcDbCircle
 10
190.75
 20
157.72953
 30
0.0
 40
0.25
100
AcDbArc
 50
0.0
 51
86.873224
  0
LINE
  5
1F1
100
AcDbEntity
  8
LAY-1
  6
CONTINUOUS
 62
     2
100
AcDbLine
 10
191.0
 20
157.72953
 30
0.0
 11
191.0
 21
157.693064
 31
0.0
  0
ARC
  5
1F2
100
AcDbEntity
  8
LAY-1
  6
CONTINUOUS
 62
     2
100
AcDbCircle
 10
191.25
 20
157.693064
 30
0.0
 40
0.25
100
AcDbArc
 50
180.0
 51
264.784091
  0
ARC
  5
1F3
100
AcDbEntity
  8
LAY-1
  6
CONTINUOUS
 62
     2
100
AcDbCircle
 10
190.0
 20
144.0
 30
0.0
 40
13.5
100
AcDbArc
 50
65.215909
 51
84.784091
  0
ARC
  5
1F4
100
AcDbEntity
  8
LAY-1
  6
CONTINUOUS
 62
     2
100
AcDbCircle
 10
195.764
 20
156.483541
 30
0.0
 40
0.25
100
AcDbArc
 50
245.215909
 51
330.0
  0
LINE
  5
1F5
100
AcDbEntity
  8
LAY-1
  6
CONTINUOUS
 62
     2
100
AcDbLine
 10
195.980507
 20
156.358541
 30
0.0
 11
195.99874
 21
156.390122
 31
0.0
  0
ARC
  5
1F6
100
AcDbEntity
  8
LAY-1
  6
CONTINUOUS
 62
     2
100
AcDbCircle
 10
196.215246
 20
156.265122
 30
0.0
 40
0.25
100
AcDbArc
 50
63.126776
 51
150.0
  0
ARC
  5
1F7
100
AcDbEntity
  8
LAY-1
  6
CONTINUOUS
 62
     2
100
AcDbCircle
 10
190.0
 20
144.0
 30
0.0
 40
14.0
100
AcDbArc
 50
56.873224
 51
63.126776
  0
ARC
  5
1F8
100
AcDbEntity
  8
LAY-1
  6
CONTINUOUS
 62
     2
100
AcDbCircle
 10
197.514284
 20
155.515122
 30
0.0
 40
0.25
100
AcDbArc
 50
330.0
 51
56.873224
  0
LINE
  5
1F9
100
AcDbEntity
  8
LAY-1
  6
CONTINUOUS
 62
     2
100
AcDbLine
 10
197.712557
 20
155.358541
 30
0.0
 11
197.730791
 21
155.390122
 31
0.0
  0
ARC
  5
1FA
100
AcDbEntity
  8
LAY-1
  6
CONTINUOUS
 62
     2
100
AcDbCircle
 10
197.929064
 20
155.233541
 30
0.0
 40
0.25
100
AcDbArc
 50
150.0
 51
234.784091
  0
ARC
  5
1FB
100
AcDbEntity
  8
LAY-1
  6
CONTINUOUS
 62
     2
100
AcDbCircle
 10
201.515122
 20
151.514284
 30
0.0
 40
0.25
100
AcDbArc
 50
33.126776
 51
120.0
  0
ARC
  5
1FC
100
AcDbEntity
  8
LAY-1
  6
CONTINUOUS
 62
     2
100
AcDbCircle
 10
190.0
 20
144.0
 30
0.0
 40
13.5
100
AcDbArc
 50
35.215909
 51
54.784091
  0
LINE
  5
1FD
100
AcDbEntity
  8
LAY-1
  6
CONTINUOUS
 62
     2
100
AcDbLine
 10
201.358541
 20
151.712557
 30
0.0
 11
201.390122
 21
151.730791
 31
0.0
  0
ARC
  5
1FE
100
AcDbEntity
  8
LAY-1
  6
CONTINUOUS
 62
     2
100
AcDbCircle
 10
201.233541
 20
151.929064
 30
0.0
 40
0.25
100
AcDbArc
 50
215.215909
 51
300.0
  0
ARC
  5
1FF
100
AcDbEntity
  8
LAY-1
  6
CONTINUOUS
 62
     2
100
AcDbCircle
 10
202.483541
 20
149.764
 30
0.0
 40
0.25
100
AcDbArc
 50
120.0
 51
204.784091
  0
LINE
  5
200
100
AcDbEntity
  8
LAY-1
  6
CONTINUOUS
 62
     2
100
AcDbLine
 10
202.358541
 20
149.980507
 30
0.0
 11
202.390122
 21
149.99874
 31
0.0
  0
ARC
  5
201
100
AcDbEntity
  8
LAY-1
  6
CONTINUOUS
 62
     2
100
AcDbCircle
 10
190.0
 20
144.0
 30
0.0
 40
14.0
100
AcDbArc
 50
26.873224
 51
33.126776
  0
ARC
  5
202
100
AcDbEntity
  8
LAY-1
  6
CONTINUOUS
 62
     2
100
AcDbCircle
 10
202.265122
 20
150.215246
 30
0.0
 40
0.25
100
AcDbArc
 50
300.0
 51
26.873224
  0
ARC
  5
203
100
AcDbEntity
  8
LAY-1
  6
CONTINUOUS
 62
     2
100
AcDbCircle
 10
203.72953
 20
144.75
 30
0.0
 40
0.25
100
AcDbArc
 50
3.126776
 51
90.0
  0
LINE
  5
204
100
AcDbEntity
  8
LAY-1
  6
CONTINUOUS
 62
     2
100
AcDbLine
 10
203.693064
 20
145.0
 30
0.0
 11
203.72953
 21
145.0
 31
0.0
  0
ARC
  5
205
100
AcDbEntity
  8
LAY-1
  6
CONTINUOUS
 62
     2
100
AcDbCircle
 10
190.0
 20
144.0
 30
0.0
 40
13.5
100
AcDbArc
 50
5.215909
 51
24.784091
  0
ARC
  5
206
100
AcDbEntity
  8
LAY-1
  6
CONTINUOUS
 62
     2
100
AcDbCircle
 10
203.693064
 20
145.25
 30
0.0
 40
0.25
100
AcDbArc
 50
185.215909
 51
270.0
  0
ARC
  5
207
100
AcDbEntity
  8
LAY-1
  6
CONTINUOUS
 62
     2
100
AcDbCircle
 10
190.0
 20
144.0
 30
0.0
 40
14.0
100
AcDbArc
 50
0.0
 51
3.126776
  0
ARC
  5
208
100
AcDbEntity
  8
LAY-1
  6
CONTINUOUS
 62
     2
100
AcDbCircle
 10
190.0
 20
144.0
 30
0.0
 40
14.0
100
AcDbArc
 50
90.0
 51
93.126776
  0
ARC
  5
209
100
AcDbEntity
  8
LAY-1
  6
CONTINUOUS
 62
     2
100
AcDbCircle
 10
189.25
 20
157.72953
 30
0.0
 40
0.25
100
AcDbArc
 50
93.126776
 51
180.0
  0
LINE
  5
20A
100
AcDbEntity
  8
LAY-1
  6
CONTINUOUS
 62
     2
100
AcDbLine
 10
189.0
 20
157.72953
 30
0.0
 11
189.0
 21
157.693064
 31
0.0
  0
ARC
  5
20B
100
AcDbEntity
  8
LAY-1
  6
CONTINUOUS
 62
     2
100
AcDbCircle
 10
188.75
 20
157.693064
 30
0.0
 40
0.25
100
AcDbArc
 50
275.215909
 51
0.0
  0
ARC
  5
20C
100
AcDbEntity
  8
LAY-1
  6
CONTINUOUS
 62
     2
100
AcDbCircle
 10
190.0
 20
144.0
 30
0.0
 40
13.5
100
AcDbArc
 50
95.215909
 51
114.784091
  0
ARC
  5
20D
100
AcDbEntity
  8
LAY-1
  6
CONTINUOUS
 62
     2
100
AcDbCircle
 10
184.236
 20
156.483541
 30
0.0
 40
0.25
100
AcDbArc
 50
210.0
 51
294.784091
  0
LINE
  5
20E
100
AcDbEntity
  8
LAY-1
  6
CONTINUOUS
 62
     2
100
AcDbLine
 10
184.019493
 20
156.358541
 30
0.0
 11
184.00126
 21
156.390122
 31
0.0
  0
ARC
  5
20F
100
AcDbEntity
  8
LAY-1
  6
CONTINUOUS
 62
     2
100
AcDbCircle
 10
183.784754
 20
156.265122
 30
0.0
 40
0.25
100
AcDbArc
 50
30.0
 51
116.873224
  0
ARC
  5
210
100
AcDbEntity
  8
LAY-1
  6
CONTINUOUS
 62
     2
100
AcDbCircle
 10
190.0
 20
144.0
 30
0.0
 40
14.0
100
AcDbArc
 50
116.873224
 51
123.126776
  0
ARC
  5
211
100
AcDbEntity
  8
LAY-1
  6
CONTINUOUS
 62
     2
100
AcDbCircle
 10
182.485716
 20
155.515122
 30
0.0
 40
0.25
100
AcDbArc
 50
123.126776
 51
210.0
  0
LINE
  5
212
100
AcDbEntity
  8
LAY-1
  6
CONTINUOUS
 62
     2
100
AcDbLine
 10
182.287443
 20
155.358541
 30
0.0
 11
182.269209
 21
155.390122
 31
0.0
  0
ARC
  5
213
100
AcDbEntity
  8
LAY-1
  6
CONTINUOUS
 62
     2
100
AcDbCircle
 10
182.070936
 20
155.233541
 30
0.0
 40
0.25
100
AcDbArc
 50
305.215909
 51
30.0
  0
ARC
  5
214
100
AcDbEntity
  8
LAY-1
  6
CONTINUOUS
 62
     2
100
AcDbCircle
 10
178.484878
 20
151.514284
 30
0.0
 40
0.25
100
AcDbArc
 50
60.0
 51
146.873224
  0
ARC
  5
215
100
AcDbEntity
  8
LAY-1
  6
CONTINUOUS
 62
     2
100
AcDbCircle
 10
190.0
 20
144.0
 30
0.0
 40
13.5
100
AcDbArc
 50
125.215909
 51
144.784091
  0
LINE
  5
216
100
AcDbEntity
  8
LAY-1
  6
CONTINUOUS
 62
     2
100
AcDbLine
 10
178.641459
 20
151.712557
 30
0.0
 11
178.609878
 21
151.730791
 31
0.0
  0
ARC
  5
217
100
AcDbEntity
  8
LAY-1
  6
CONTINUOUS
 62
     2
100
AcDbCircle
 10
178.766459
 20
151.929064
 30
0.0
 40
0.25
100
AcDbArc
 50
240.0
 51
324.784091
  0
ARC
  5
218
100
AcDbEntity
  8
LAY-1
  6
CONTINUOUS
 62
     2
100
AcDbCircle
 10
177.516459
 20
149.764
 30
0.0
 40
0.25
100
AcDbArc
 50
335.215909
 51
60.0
  0
LINE
  5
219
100
AcDbEntity
  8
LAY-1
  6
CONTINUOUS
 62
     2
100
AcDbLine
 10
177.641459
 20
149.980507
 30
0.0
 11
177.609878
 21
149.99874
 31
0.0
  0
ARC
  5
21A
100
AcDbEntity
  8
LAY-1
  6
CONTINUOUS
 62
     2
100
AcDbCircle
 10
190.0
 20
144.0
 30
0.0
 40
14.0
100
AcDbArc
 50
146.873224
 51
153.126776
  0
ARC
  5
21B
100
AcDbEntity
  8
LAY-1
  6
CONTINUOUS
 62
     2
100
AcDbCircle
 10
177.734878
 20
150.215246
 30
0.0
 40
0.25
100
AcDbArc
 50
153.126776
 51
240.0
  0
ARC
  5
21C
100
AcDbEntity
  8
LAY-1
  6
CONTINUOUS
 62
     2
100
AcDbCircle
 10
176.27047
 20
144.75
 30
0.0
 40
0.25
100
AcDbArc
 50
90.0
 51
176.873224
  0
LINE
  5
21D
100
AcDbEntity
  8
LAY-1
  6
CONTINUOUS
 62
     2
100
AcDbLine
 10
176.306936
 20
145.0
 30
0.0
 11
176.27047
 21
145.0
 31
0.0
  0
ARC
  5
21E
100
AcDbEntity
  8
LAY-1
  6
CONTINUOUS
 62
     2
100
AcDbCircle
 10
190.0
 20
144.0
 30
0.0
 40
13.5
100
AcDbArc
 50
155.215909
 51
174.784091
  0
ARC
  5
21F
100
AcDbEntity
  8
LAY-1
  6
CONTINUOUS
 62
     2
100
AcDbCircle
 10
176.306936
 20
145.25
 30
0.0
 40
0.25
100
AcDbArc
 50
270.0
 51
354.784091
  0
ARC
  5
220
100
AcDbEntity
  8
LAY-1
  6
CONTINUOUS
 62
     2
100
AcDbCircle
 10
190.0
 20
144.0
 30
0.0
 40
14.0
100
AcDbArc
 50
176.873224
 51
180.0
  0
CIRCLE
  5
221
100
AcDbEntity
  8
LAY-1
  6
CONTINUOUS
 62
     2
100
AcDbCircle
 10
190.0
 20
144.0
 30
0.0
 40
7.5
  0
CIRCLE
  5
222
100
AcDbEntity
  8
LAY-1
  6
CONTINUOUS
 62
     2
100
AcDbCircle
 10
190.0
 20
144.0
 30
0.0
 40
6.5
  0
LINE
  5
223
100
AcDbEntity
  8
LAY-1
  6
CONTINUOUS
 62
     2
100
AcDbLine
 10
192.637747
 20
142.358547
 30
0.0
 11
192.599125
 21
142.8
 31
0.0
  0
LINE
  5
224
100
AcDbEntity
  8
LAY-1
  6
CONTINUOUS
 62
     2
100
AcDbLine
 10
193.180899
 20
144.0
 30
0.0
 11
193.787711
 21
144.350343
 31
0.0
  0
LINE
  5
225
100
AcDbEntity
  8
LAY-1
  6
CONTINUOUS
 62
     2
100
AcDbLine
 10
192.637747
 20
142.358547
 30
0.0
 11
193.787711
 21
144.350343
 31
0.0
  0
LINE
  5
226
100
AcDbEntity
  8
LAY-1
  6
CONTINUOUS
 62
     2
100
AcDbLine
 10
187.362253
 20
142.358547
 30
0.0
 11
187.400875
 21
142.8
 31
0.0
  0
LINE
  5
227
100
AcDbEntity
  8
LAY-1
  6
CONTINUOUS
 62
     2
100
AcDbLine
 10
186.819101
 20
144.0
 30
0.0
 11
186.212289
 21
144.350343
 31
0.0
  0
LINE
  5
228
100
AcDbEntity
  8
LAY-1
  6
CONTINUOUS
 62
     2
100
AcDbLine
 10
187.362253
 20
142.358547
 30
0.0
 11
186.212289
 21
144.350343
 31
0.0
  0
LINE
  5
229
100
AcDbEntity
  8
LAY-1
  6
CONTINUOUS
 62
     2
100
AcDbLine
 10
187.400875
 20
142.8
 30
0.0
 11
190.0
 21
142.8
 31
0.0
  0
LINE
  5
22A
100
AcDbEntity
  8
LAY-1
  6
CONTINUOUS
 62
     2
100
AcDbLine
 10
190.0
 20
149.751618
 30
0.0
 11
190.6
 21
149.97
 31
0.0
  0
LINE
  5
22B
100
AcDbEntity
  8
LAY-1
  6
CONTINUOUS
 62
     2
100
AcDbLine
 10
188.2
 20
149.97
 30
0.0
 11
188.8
 21
149.751618
 31
0.0
  0
LINE
  5
22C
100
AcDbEntity
  8
LAY-1
  6
CONTINUOUS
 62
     2
100
AcDbLine
 10
190.6
 20
149.97
 30
0.0
 11
188.2
 21
149.97
 31
0.0
  0
ARC
  5
22D
100
AcDbEntity
  8
LAY-1
  6
CONTINUOUS
 62
     2
100
AcDbCircle
 10
191.2
 20
144.0
 30
0.0
 40
5.0
100
AcDbArc
 50
118.685402
 51
256.11346
  0
ARC
  5
22E
100
AcDbEntity
  8
LAY-1
  6
CONTINUOUS
 62
     2
100
AcDbCircle
 10
190.0
 20
144.0
 30
0.0
 40
5.0
100
AcDbArc
 50
103.88654
 51
270.0
  0
LINE
  5
22F
100
AcDbEntity
  8
LAY-1
  6
CONTINUOUS
 62
     2
100
AcDbLine
 10
190.0
 20
149.0
 30
0.0
 11
190.0
 21
149.751618
 31
0.0
  0
LINE
  5
230
100
AcDbEntity
  8
LAY-1
  6
CONTINUOUS
 62
     2
100
AcDbLine
 10
188.8
 20
144.0
 30
0.0
 11
188.8
 21
148.386342
 31
0.0
  0
LINE
  5
231
100
AcDbEntity
  8
LAY-1
  6
CONTINUOUS
 62
     2
100
AcDbLine
 10
188.8
 20
148.853864
 30
0.0
 11
188.8
 21
149.751618
 31
0.0
  0
LINE
  5
232
100
AcDbEntity
  8
LAY-1
  6
CONTINUOUS
 62
     2
100
AcDbLine
 10
188.8
 20
144.0
 30
0.0
 11
186.819101
 21
144.0
 31
0.0
  0
LINE
  5
233
100
AcDbEntity
  8
LAY-1
  6
CONTINUOUS
 62
     2
100
AcDbLine
 10
190.0
 20
144.0
 30
0.0
 11
190.0
 21
148.853864
 31
0.0
  0
LINE
  5
234
100
AcDbEntity
  8
LAY-1
  6
CONTINUOUS
 62
     2
100
AcDbLine
 10
191.8
 20
144.897753
 30
0.0
 11
192.4
 21
145.116136
 31
0.0
  0
LINE
  5
235
100
AcDbEntity
  8
LAY-1
  6
CONTINUOUS
 62
     2
100
AcDbLine
 10
190.0
 20
145.116136
 30
0.0
 11
190.6
 21
144.897753
 31
0.0
  0
LINE
  5
236
100
AcDbEntity
  8
LAY-1
  6
CONTINUOUS
 62
     2
100
AcDbLine
 10
192.4
 20
145.116136
 30
0.0
 11
190.0
 21
145.116136
 31
0.0
  0
LINE
  5
237
100
AcDbEntity
  8
LAY-1
  6
CONTINUOUS
 62
     2
100
AcDbLine
 10
193.180899
 20
144.0
 30
0.0
 11
191.8
 21
144.0
 31
0.0
  0
LINE
  5
238
100
AcDbEntity
  8
LAY-1
  6
CONTINUOUS
 62
     2
100
AcDbLine
 10
190.6
 20
144.0
 30
0.0
 11
190.0
 21
144.0
 31
0.0
  0
LINE
  5
239
100
AcDbEntity
  8
LAY-1
  6
CONTINUOUS
 62
     2
100
AcDbLine
 10
191.8
 20
144.0
 30
0.0
 11
191.8
 21
144.897753
 31
0.0
  0
LINE
  5
23A
100
AcDbEntity
  8
LAY-1
  6
CONTINUOUS
 62
     2
100
AcDbLine
 10
190.6
 20
144.0
 30
0.0
 11
190.6
 21
144.897753
 31
0.0
  0
LINE
  5
23B
100
AcDbEntity
  8
LAY-1
  6
CONTINUOUS
 62
     2
100
AcDbLine
 10
192.599125
 20
142.8
 30
0.0
 11
191.8
 21
142.8
 31
0.0
  0
LINE
  5
23C
100
AcDbEntity
  8
LAY-1
  6
CONTINUOUS
 62
     2
100
AcDbLine
 10
190.6
 20
142.8
 30
0.0
 11
190.0
 21
142.8
 31
0.0
  0
ARC
  5
23D
100
AcDbEntity
  8
LAY-1
  6
CONTINUOUS
 62
     2
100
AcDbCircle
 10
188.8
 20
144.0
 30
0.0
 40
5.0
100
AcDbArc
 50
283.88654
 51
291.100196
  0
ARC
  5
23E
100
AcDbEntity
  8
LAY-1
  6
CONTINUOUS
 62
     2
100
AcDbCircle
 10
188.8
 20
144.0
 30
0.0
 40
5.0
100
AcDbArc
 50
306.869898
 51
76.11346
  0
ARC
  5
23F
100
AcDbEntity
  8
LAY-1
  6
CONTINUOUS
 62
     2
100
AcDbCircle
 10
190.0
 20
144.0
 30
0.0
 40
5.0
100
AcDbArc
 50
270.0
 51
276.892103
  0
ARC
  5
240
100
AcDbEntity
  8
LAY-1
  6
CONTINUOUS
 62
     2
100
AcDbCircle
 10
190.0
 20
144.0
 30
0.0
 40
5.0
100
AcDbArc
 50
291.100196
 51
90.0
  0
LINE
  5
241
100
AcDbEntity
  8
LAY-1
  6
CONTINUOUS
 62
     2
100
AcDbLine
 10
190.6
 20
139.335238
 30
0.0
 11
190.6
 21
142.8
 31
0.0
  0
LINE
  5
242
100
AcDbEntity
  8
LAY-1
  6
CONTINUOUS
 62
     2
100
AcDbLine
 10
191.8
 20
138.653835
 30
0.0
 11
191.8
 21
139.335238
 31
0.0
  0
LINE
  5
243
100
AcDbEntity
  8
LAY-1
  6
CONTINUOUS
 62
     2
100
AcDbLine
 10
191.8
 20
140.0
 30
0.0
 11
191.8
 21
142.8
 31
0.0
  0
LINE
  5
244
100
AcDbEntity
  8
LAY-1
  6
CONTINUOUS
 62
     2
100
AcDbLine
 10
192.27853
 20
137.912447
 30
0.0
 11
190.6
 21
138.881547
 31
0.0
  0
LINE
  5
245
100
AcDbEntity
  8
LAY-1
  6
CONTINUOUS
 62
     2
100
AcDbLine
 10
192.27853
 20
137.912447
 30
0.0
 11
191.8
 21
138.653835
 31
0.0
  0
LINE
  5
246
100
AcDbEntity
  8
LAY-1
  6
CONTINUOUS
 62
     2
100
AcDbLine
 10
190.6
 20
138.881547
 30
0.0
 11
190.6
 21
139.036131
 31
0.0
  0
LINE
  5
247
100
AcDbEntity
  8
LAY-1
  6
CONTINUOUS
 62
     2
100
AcDbLine
 10
168.0
 20
74.0
 30
0.0
 11
212.0
 21
74.0
 31
0.0
  0
LINE
  5
248
100
AcDbEntity
  8
LAY-1
  6
EXLTYPE3
 62
     1
100
AcDbLine
 10
190.0
 20
384.5
 30
0.0
 11
160.0
 21
384.5
 31
0.0
  0
LINE
  5
249
100
AcDbEntity
  8
LAY-1
  6
EXLTYPE3
 62
     1
100
AcDbLine
 10
190.0
 20
260.2
 30
0.0
 11
190.0
 21
430.2
 31
0.0
  0
ARC
  5
24A
100
AcDbEntity
  8
LAY-1
  6
CONTINUOUS
 62
     1
100
AcDbCircle
 10
190.0
 20
384.5
 30
0.0
 40
16.613032
100
AcDbArc
 50
90.0
 51
270.0
  0
LINE
  5
24B
100
AcDbEntity
  8
LAY-1
  6
EXLTYPE3
 62
     1
100
AcDbLine
 10
190.0
 20
384.5
 30
0.0
 11
220.0
 21
384.5
 31
0.0
  0
ARC
  5
24C
100
AcDbEntity
  8
LAY-1
  6
CONTINUOUS
 62
     1
100
AcDbCircle
 10
190.0
 20
384.5
 30
0.0
 40
16.613032
100
AcDbArc
 50
270.0
 51
90.0
  0
LINE
  5
24D
100
AcDbEntity
  8
LAY-1
  6
EXLTYPE3
 62
     1
100
AcDbLine
 10
135.0
 20
357.295605
 30
0.0
 11
135.0
 21
387.309344
 31
0.0
  0
LINE
  5
24E
100
AcDbEntity
  8
LAY-1
  6
CONTINUOUS
 62
     2
100
AcDbLine
 10
170.0
 20
278.5
 30
0.0
 11
170.0
 21
277.5
 31
0.0
  0
LINE
  5
24F
100
AcDbEntity
  8
LAY-1
  6
CONTINUOUS
 62
     2
100
AcDbLine
 10
169.5
 20
278.5
 30
0.0
 11
172.72037
 21
278.5
 31
0.0
  0
LINE
  5
250
100
AcDbEntity
  8
LAY-1
  6
CONTINUOUS
 62
     2
100
AcDbLine
 10
210.5
 20
278.5
 30
0.0
 11
190.0
 21
278.5
 31
0.0
  0
LINE
  5
251
100
AcDbEntity
  8
LAY-1
  6
CONTINUOUS
 62
     2
100
AcDbLine
 10
170.5
 20
278.5
 30
0.0
 11
190.0
 21
278.5
 31
0.0
  0
LINE
  5
252
100
AcDbEntity
  8
LAY-1
  6
CONTINUOUS
 62
     2
100
AcDbLine
 10
210.0
 20
278.5
 30
0.0
 11
210.0
 21
277.5
 31
0.0
  0
LINE
  5
253
100
AcDbEntity
  8
LAY-1
  6
CONTINUOUS
 62
     2
100
AcDbLine
 10
210.5
 20
278.5
 30
0.0
 11
207.27963
 21
278.5
 31
0.0
  0
LINE
  5
254
100
AcDbEntity
  8
LAY-1
  6
CONTINUOUS
 62
     2
100
AcDbLine
 10
190.0
 20
269.0
 30
0.0
 11
210.5
 21
269.0
 31
0.0
  0
LINE
  5
255
100
AcDbEntity
  8
LAY-1
  6
CONTINUOUS
 62
     2
100
AcDbLine
 10
210.5
 20
277.5
 30
0.0
 11
190.0
 21
277.5
 31
0.0
  0
LINE
  5
256
100
AcDbEntity
  8
LAY-1
  6
CONTINUOUS
 62
     2
100
AcDbLine
 10
210.5
 20
269.0
 30
0.0
 11
212.5
 21
270.154701
 31
0.0
  0
LINE
  5
257
100
AcDbEntity
  8
LAY-1
  6
CONTINUOUS
 62
     2
100
AcDbLine
 10
210.5
 20
277.5
 30
0.0
 11
212.5
 21
276.345299
 31
0.0
  0
LINE
  5
258
100
AcDbEntity
  8
LAY-1
  6
CONTINUOUS
 62
     2
100
AcDbLine
 10
212.5
 20
270.154701
 30
0.0
 11
212.5
 21
276.345299
 31
0.0
  0
LINE
  5
259
100
AcDbEntity
  8
LAY-1
  6
CONTINUOUS
 62
     2
100
AcDbLine
 10
201.4585
 20
269.0
 30
0.0
 11
204.0
 21
269.0
 31
0.0
  0
LINE
  5
25A
100
AcDbEntity
  8
LAY-1
  6
CONTINUOUS
 62
     2
100
AcDbLine
 10
190.0
 20
269.0
 30
0.0
 11
203.5
 21
269.0
 31
0.0
  0
ARC
  5
25B
100
AcDbEntity
  8
LAY-1
  6
CONTINUOUS
 62
     2
100
AcDbCircle
 10
190.0
 20
364.0
 30
0.0
 40
100.0
100
AcDbArc
 50
270.0
 51
277.54548
  0
LINE
  5
25C
100
AcDbEntity
  8
LAY-1
  6
CONTINUOUS
 62
     2
100
AcDbLine
 10
204.0
 20
265.857247
 30
0.0
 11
204.0
 21
269.0
 31
0.0
  0
ARC
  5
25D
100
AcDbEntity
  8
LAY-1
  6
CONTINUOUS
 62
     2
100
AcDbCircle
 10
203.0
 20
265.857247
 30
0.0
 40
1.0
100
AcDbArc
 50
277.54548
 51
0.0
  0
LINE
  5
25E
100
AcDbEntity
  8
LAY-1
  6
CONTINUOUS
 62
     2
100
AcDbLine
 10
201.4585
 20
269.0
 30
0.0
 11
204.0
 21
269.0
 31
0.0
  0
LINE
  5
25F
100
AcDbEntity
  8
LAY-1
  6
CONTINUOUS
 62
     2
100
AcDbLine
 10
191.0
 20
265.0
 30
0.0
 11
191.0
 21
269.0
 31
0.0
  0
LINE
  5
260
100
AcDbEntity
  8
LAY-1
  6
CONTINUOUS
 62
     2
100
AcDbLine
 10
195.865431
 20
266.0
 30
0.0
 11
195.865431
 21
269.0
 31
0.0
  0
ARC
  5
261
100
AcDbEntity
  8
LAY-1
  6
CONTINUOUS
 62
     2
100
AcDbCircle
 10
194.865431
 20
266.0
 30
0.0
 40
1.0
100
AcDbArc
 50
270.0
 51
0.0
  0
LINE
  5
262
100
AcDbEntity
  8
LAY-1
  6
CONTINUOUS
 62
     2
100
AcDbLine
 10
196.116095
 20
266.0
 30
0.0
 11
196.116095
 21
269.0
 31
0.0
  0
ARC
  5
263
100
AcDbEntity
  8
LAY-1
  6
CONTINUOUS
 62
     2
100
AcDbCircle
 10
195.116095
 20
266.0
 30
0.0
 40
1.0
100
AcDbArc
 50
270.0
 51
0.0
  0
LINE
  5
264
100
AcDbEntity
  8
LAY-1
  6
CONTINUOUS
 62
     2
100
AcDbLine
 10
197.848145
 20
266.0
 30
0.0
 11
197.848145
 21
269.0
 31
0.0
  0
ARC
  5
265
100
AcDbEntity
  8
LAY-1
  6
CONTINUOUS
 62
     2
100
AcDbCircle
 10
196.848145
 20
266.0
 30
0.0
 40
1.0
100
AcDbArc
 50
270.0
 51
0.0
  0
LINE
  5
266
100
AcDbEntity
  8
LAY-1
  6
CONTINUOUS
 62
     2
100
AcDbLine
 10
201.159224
 20
266.0
 30
0.0
 11
201.159224
 21
269.0
 31
0.0
  0
ARC
  5
267
100
AcDbEntity
  8
LAY-1
  6
CONTINUOUS
 62
     2
100
AcDbCircle
 10
200.159224
 20
266.0
 30
0.0
 40
1.0
100
AcDbArc
 50
270.0
 51
0.0
  0
LINE
  5
268
100
AcDbEntity
  8
LAY-1
  6
CONTINUOUS
 62
     2
100
AcDbLine
 10
201.593387
 20
266.0
 30
0.0
 11
201.593387
 21
269.0
 31
0.0
  0
ARC
  5
269
100
AcDbEntity
  8
LAY-1
  6
CONTINUOUS
 62
     2
100
AcDbCircle
 10
200.593387
 20
266.0
 30
0.0
 40
1.0
100
AcDbArc
 50
270.0
 51
0.0
  0
LINE
  5
26A
100
AcDbEntity
  8
LAY-1
  6
CONTINUOUS
 62
     2
100
AcDbLine
 10
202.593387
 20
266.0
 30
0.0
 11
202.593387
 21
269.0
 31
0.0
  0
ARC
  5
26B
100
AcDbEntity
  8
LAY-1
  6
CONTINUOUS
 62
     2
100
AcDbCircle
 10
201.593387
 20
266.0
 30
0.0
 40
1.0
100
AcDbArc
 50
270.0
 51
0.0
  0
LINE
  5
26C
100
AcDbEntity
  8
LAY-1
  6
CONTINUOUS
 62
     2
100
AcDbLine
 10
203.462912
 20
266.0
 30
0.0
 11
203.462912
 21
269.0
 31
0.0
  0
ARC
  5
26D
100
AcDbEntity
  8
LAY-1
  6
CONTINUOUS
 62
     2
100
AcDbCircle
 10
202.462912
 20
266.0
 30
0.0
 40
1.0
100
AcDbArc
 50
270.0
 51
0.0
  0
LINE
  5
26E
100
AcDbEntity
  8
LAY-1
  6
CONTINUOUS
 62
     2
100
AcDbLine
 10
194.865431
 20
265.0
 30
0.0
 11
195.116095
 21
265.0
 31
0.0
  0
LINE
  5
26F
100
AcDbEntity
  8
LAY-1
  6
CONTINUOUS
 62
     2
100
AcDbLine
 10
200.159224
 20
265.0
 30
0.0
 11
200.593387
 21
265.0
 31
0.0
  0
LINE
  5
270
100
AcDbEntity
  8
LAY-1
  6
CONTINUOUS
 62
     2
100
AcDbLine
 10
203.116712
 20
270.154701
 30
0.0
 11
199.273618
 21
270.154701
 31
0.0
  0
LINE
  5
271
100
AcDbEntity
  8
LAY-1
  6
CONTINUOUS
 62
     2
100
AcDbLine
 10
203.116712
 20
276.345299
 30
0.0
 11
199.273618
 21
276.345299
 31
0.0
  0
LINE
  5
272
100
AcDbEntity
  8
LAY-1
  6
CONTINUOUS
 62
     2
100
AcDbLine
 10
199.273618
 20
276.345299
 30
0.0
 11
199.273618
 21
270.154701
 31
0.0
  0
LINE
  5
273
100
AcDbEntity
  8
LAY-1
  6
CONTINUOUS
 62
     2
100
AcDbLine
 10
203.116712
 20
276.345299
 30
0.0
 11
203.116712
 21
270.154701
 31
0.0
  0
ARC
  5
274
100
AcDbEntity
  8
LAY-1
  6
CONTINUOUS
 62
     2
100
AcDbCircle
 10
207.808356
 20
279.104984
 30
0.0
 40
10.105399
100
AcDbArc
 50
242.336945
 51
297.663055
  0
ARC
  5
275
100
AcDbEntity
  8
LAY-1
  6
CONTINUOUS
 62
     2
100
AcDbCircle
 10
207.808356
 20
267.407283
 30
0.0
 40
10.094536
100
AcDbArc
 50
62.30462
 51
117.69538
  0
ARC
  5
276
100
AcDbEntity
  8
LAY-1
  6
CONTINUOUS
 62
     2
100
AcDbCircle
 10
190.0
 20
306.816443
 30
0.0
 40
37.816443
100
AcDbArc
 50
270.0
 51
284.195258
  0
ARC
  5
277
100
AcDbEntity
  8
LAY-1
  6
CONTINUOUS
 62
     2
100
AcDbCircle
 10
190.0
 20
239.683557
 30
0.0
 40
37.816443
100
AcDbArc
 50
75.804742
 51
90.0
  0
LINE
  5
278
100
AcDbEntity
  8
LAY-1
  6
CONTINUOUS
 62
     2
100
AcDbLine
 10
190.0
 20
269.0
 30
0.0
 11
169.5
 21
269.0
 31
0.0
  0
LINE
  5
279
100
AcDbEntity
  8
LAY-1
  6
CONTINUOUS
 62
     2
100
AcDbLine
 10
169.5
 20
277.5
 30
0.0
 11
190.0
 21
277.5
 31
0.0
  0
LINE
  5
27A
100
AcDbEntity
  8
LAY-1
  6
CONTINUOUS
 62
     2
100
AcDbLine
 10
169.5
 20
269.0
 30
0.0
 11
167.5
 21
270.154701
 31
0.0
  0
LINE
  5
27B
100
AcDbEntity
  8
LAY-1
  6
CONTINUOUS
 62
     2
100
AcDbLine
 10
169.5
 20
277.5
 30
0.0
 11
167.5
 21
276.345299
 31
0.0
  0
LINE
  5
27C
100
AcDbEntity
  8
LAY-1
  6
CONTINUOUS
 62
     2
100
AcDbLine
 10
167.5
 20
270.154701
 30
0.0
 11
167.5
 21
276.345299
 31
0.0
  0
LINE
  5
27D
100
AcDbEntity
  8
LAY-1
  6
CONTINUOUS
 62
     2
100
AcDbLine
 10
178.5415
 20
269.0
 30
0.0
 11
176.0
 21
269.0
 31
0.0
  0
LINE
  5
27E
100
AcDbEntity
  8
LAY-1
  6
CONTINUOUS
 62
     2
100
AcDbLine
 10
190.0
 20
269.0
 30
0.0
 11
176.5
 21
269.0
 31
0.0
  0
ARC
  5
27F
100
AcDbEntity
  8
LAY-1
  6
CONTINUOUS
 62
     2
100
AcDbCircle
 10
190.0
 20
364.0
 30
0.0
 40
100.0
100
AcDbArc
 50
262.45452
 51
270.0
  0
LINE
  5
280
100
AcDbEntity
  8
LAY-1
  6
CONTINUOUS
 62
     2
100
AcDbLine
 10
176.0
 20
265.857247
 30
0.0
 11
176.0
 21
269.0
 31
0.0
  0
ARC
  5
281
100
AcDbEntity
  8
LAY-1
  6
CONTINUOUS
 62
     2
100
AcDbCircle
 10
177.0
 20
265.857247
 30
0.0
 40
1.0
100
AcDbArc
 50
180.0
 51
262.45452
  0
LINE
  5
282
100
AcDbEntity
  8
LAY-1
  6
CONTINUOUS
 62
     2
100
AcDbLine
 10
178.5415
 20
269.0
 30
0.0
 11
176.0
 21
269.0
 31
0.0
  0
LINE
  5
283
100
AcDbEntity
  8
LAY-1
  6
CONTINUOUS
 62
     2
100
AcDbLine
 10
189.0
 20
265.0
 30
0.0
 11
189.0
 21
269.0
 31
0.0
  0
LINE
  5
284
100
AcDbEntity
  8
LAY-1
  6
CONTINUOUS
 62
     2
100
AcDbLine
 10
184.134569
 20
266.0
 30
0.0
 11
184.134569
 21
269.0
 31
0.0
  0
ARC
  5
285
100
AcDbEntity
  8
LAY-1
  6
CONTINUOUS
 62
     2
100
AcDbCircle
 10
185.134569
 20
266.0
 30
0.0
 40
1.0
100
AcDbArc
 50
180.0
 51
270.0
  0
LINE
  5
286
100
AcDbEntity
  8
LAY-1
  6
CONTINUOUS
 62
     2
100
AcDbLine
 10
183.883905
 20
266.0
 30
0.0
 11
183.883905
 21
269.0
 31
0.0
  0
ARC
  5
287
100
AcDbEntity
  8
LAY-1
  6
CONTINUOUS
 62
     2
100
AcDbCircle
 10
184.883905
 20
266.0
 30
0.0
 40
1.0
100
AcDbArc
 50
180.0
 51
270.0
  0
LINE
  5
288
100
AcDbEntity
  8
LAY-1
  6
CONTINUOUS
 62
     2
100
AcDbLine
 10
182.151855
 20
266.0
 30
0.0
 11
182.151855
 21
269.0
 31
0.0
  0
ARC
  5
289
100
AcDbEntity
  8
LAY-1
  6
CONTINUOUS
 62
     2
100
AcDbCircle
 10
183.151855
 20
266.0
 30
0.0
 40
1.0
100
AcDbArc
 50
180.0
 51
270.0
  0
LINE
  5
28A
100
AcDbEntity
  8
LAY-1
  6
CONTINUOUS
 62
     2
100
AcDbLine
 10
178.840776
 20
266.0
 30
0.0
 11
178.840776
 21
269.0
 31
0.0
  0
ARC
  5
28B
100
AcDbEntity
  8
LAY-1
  6
CONTINUOUS
 62
     2
100
AcDbCircle
 10
179.840776
 20
266.0
 30
0.0
 40
1.0
100
AcDbArc
 50
180.0
 51
270.0
  0
LINE
  5
28C
100
AcDbEntity
  8
LAY-1
  6
CONTINUOUS
 62
     2
100
AcDbLine
 10
178.406613
 20
266.0
 30
0.0
 11
178.406613
 21
269.0
 31
0.0
  0
ARC
  5
28D
100
AcDbEntity
  8
LAY-1
  6
CONTINUOUS
 62
     2
100
AcDbCircle
 10
179.406613
 20
266.0
 30
0.0
 40
1.0
100
AcDbArc
 50
180.0
 51
270.0
  0
LINE
  5
28E
100
AcDbEntity
  8
LAY-1
  6
CONTINUOUS
 62
     2
100
AcDbLine
 10
177.406613
 20
266.0
 30
0.0
 11
177.406613
 21
269.0
 31
0.0
  0
ARC
  5
28F
100
AcDbEntity
  8
LAY-1
  6
CONTINUOUS
 62
     2
100
AcDbCircle
 10
178.406613
 20
266.0
 30
0.0
 40
1.0
100
AcDbArc
 50
180.0
 51
270.0
  0
LINE
  5
290
100
AcDbEntity
  8
LAY-1
  6
CONTINUOUS
 62
     2
100
AcDbLine
 10
176.537088
 20
266.0
 30
0.0
 11
176.537088
 21
269.0
 31
0.0
  0
ARC
  5
291
100
AcDbEntity
  8
LAY-1
  6
CONTINUOUS
 62
     2
100
AcDbCircle
 10
177.537088
 20
266.0
 30
0.0
 40
1.0
100
AcDbArc
 50
180.0
 51
270.0
  0
LINE
  5
292
100
AcDbEntity
  8
LAY-1
  6
CONTINUOUS
 62
     2
100
AcDbLine
 10
185.134569
 20
265.0
 30
0.0
 11
184.883905
 21
265.0
 31
0.0
  0
LINE
  5
293
100
AcDbEntity
  8
LAY-1
  6
CONTINUOUS
 62
     2
100
AcDbLine
 10
179.840776
 20
265.0
 30
0.0
 11
179.406613
 21
265.0
 31
0.0
  0
LINE
  5
294
100
AcDbEntity
  8
LAY-1
  6
CONTINUOUS
 62
     2
100
AcDbLine
 10
176.883288
 20
270.154701
 30
0.0
 11
180.726382
 21
270.154701
 31
0.0
  0
LINE
  5
295
100
AcDbEntity
  8
LAY-1
  6
CONTINUOUS
 62
     2
100
AcDbLine
 10
176.883288
 20
276.345299
 30
0.0
 11
180.726382
 21
276.345299
 31
0.0
  0
LINE
  5
296
100
AcDbEntity
  8
LAY-1
  6
CONTINUOUS
 62
     2
100
AcDbLine
 10
180.726382
 20
276.345299
 30
0.0
 11
180.726382
 21
270.154701
 31
0.0
  0
LINE
  5
297
100
AcDbEntity
  8
LAY-1
  6
CONTINUOUS
 62
     2
100
AcDbLine
 10
176.883288
 20
276.345299
 30
0.0
 11
176.883288
 21
270.154701
 31
0.0
  0
ARC
  5
298
100
AcDbEntity
  8
LAY-1
  6
CONTINUOUS
 62
     2
100
AcDbCircle
 10
172.191644
 20
279.104984
 30
0.0
 40
10.105399
100
AcDbArc
 50
242.336945
 51
297.663055
  0
ARC
  5
299
100
AcDbEntity
  8
LAY-1
  6
CONTINUOUS
 62
     2
100
AcDbCircle
 10
172.191644
 20
267.407283
 30
0.0
 40
10.094536
100
AcDbArc
 50
62.30462
 51
117.69538
  0
ARC
  5
29A
100
AcDbEntity
  8
LAY-1
  6
CONTINUOUS
 62
     2
100
AcDbCircle
 10
190.0
 20
306.816443
 30
0.0
 40
37.816443
100
AcDbArc
 50
255.804742
 51
270.0
  0
ARC
  5
29B
100
AcDbEntity
  8
LAY-1
  6
CONTINUOUS
 62
     2
100
AcDbCircle
 10
190.0
 20
239.683557
 30
0.0
 40
37.816443
100
AcDbArc
 50
90.0
 51
104.195258
  0
LINE
  5
29C
100
AcDbEntity
  8
LAY-1
  6
CONTINUOUS
 62
     2
100
AcDbLine
 10
137.967375
 20
322.155662
 30
0.0
 11
137.967375
 21
335.51756
 31
0.0
  0
LINE
  5
29D
100
AcDbEntity
  8
LAY-1
  6
CONTINUOUS
 62
     2
100
AcDbLine
 10
140.967375
 20
325.234505
 30
0.0
 11
140.967375
 21
333.997742
 31
0.0
  0
LINE
  5
29E
100
AcDbEntity
  8
LAY-1
  6
CONTINUOUS
 62
     2
100
AcDbLine
 10
141.795802
 20
324.5
 30
0.0
 11
163.874446
 21
324.5
 31
0.0
  0
LINE
  5
29F
100
AcDbEntity
  8
LAY-1
  6
CONTINUOUS
 62
     2
100
AcDbLine
 10
169.467375
 20
278.5
 30
0.0
 11
168.810597
 21
316.126804
 31
0.0
  0
ARC
  5
2A0
100
AcDbEntity
  8
LAY-1
  6
CONTINUOUS
 62
     2
100
AcDbCircle
 10
163.874446
 20
320.5
 30
0.0
 40
4.0
100
AcDbArc
 50
22.811642
 51
90.0
  0
ARC
  5
2A1
100
AcDbEntity
  8
LAY-1
  6
CONTINUOUS
 62
     2
100
AcDbCircle
 10
152.813033
 20
315.847565
 30
0.0
 40
16.0
100
AcDbArc
 50
1.0
 51
81.471556
  0
LINE
  5
2A2
100
AcDbEntity
  8
LAY-1
  6
CONTINUOUS
 62
     2
100
AcDbLine
 10
155.18584
 20
331.670643
 30
0.0
 11
143.057328
 21
333.489417
 31
0.0
  0
ARC
  5
2A3
100
AcDbEntity
  8
LAY-1
  6
CONTINUOUS
 62
     2
100
AcDbCircle
 10
144.836933
 20
345.356726
 30
0.0
 40
12.0
100
AcDbArc
 50
208.773073
 51
261.471556
  0
ARC
  5
2A4
100
AcDbEntity
  8
LAY-1
  6
CONTINUOUS
 62
     2
100
AcDbCircle
 10
122.05194
 20
356.386024
 30
0.0
 40
2.0
100
AcDbArc
 50
283.71043
 51
358.0
  0
LINE
  5
2A5
100
AcDbEntity
  8
LAY-1
  6
CONTINUOUS
 62
     2
100
AcDbLine
 10
124.050722
 20
356.316225
 30
0.0
 11
124.932596
 21
381.569799
 31
0.0
  0
ARC
  5
2A6
100
AcDbEntity
  8
LAY-1
  6
CONTINUOUS
 62
     2
100
AcDbCircle
 10
126.931378
 20
381.5
 30
0.0
 40
2.0
100
AcDbArc
 50
90.0
 51
178.0
  0
LINE
  5
2A7
100
AcDbEntity
  8
LAY-1
  6
CONTINUOUS
 62
     2
100
AcDbLine
 10
126.931378
 20
383.5
 30
0.0
 11
143.068622
 21
383.5
 31
0.0
  0
LINE
  5
2A8
100
AcDbEntity
  8
LAY-1
  6
CONTINUOUS
 62
     2
100
AcDbLine
 10
145.463642
 20
370.223039
 30
0.0
 11
145.067404
 21
381.569799
 31
0.0
  0
ARC
  5
2A9
100
AcDbEntity
  8
LAY-1
  6
CONTINUOUS
 62
     2
100
AcDbCircle
 10
146.463033
 20
370.257938
 30
0.0
 40
1.0
100
AcDbArc
 50
182.0
 51
340.254899
  0
ARC
  5
2AA
100
AcDbEntity
  8
LAY-1
  6
CONTINUOUS
 62
     2
100
AcDbCircle
 10
146.29576
 20
383.103604
 30
0.0
 40
1.603604
100
AcDbArc
 50
206.423346
 51
359.0
  0
ARC
  5
2AB
100
AcDbEntity
  8
LAY-1
  6
CONTINUOUS
 62
     2
100
AcDbCircle
 10
143.068622
 20
381.5
 30
0.0
 40
2.0
100
AcDbArc
 50
2.0
 51
90.0
  0
ARC
  5
2AC
100
AcDbEntity
  8
LAY-1
  6
CONTINUOUS
 62
     2
100
AcDbCircle
 10
168.778703
 20
376.022813
 30
0.0
 40
2.0
100
AcDbArc
 50
178.5
 51
225.0
  0
LINE
  5
2AD
100
AcDbEntity
  8
LAY-1
  6
CONTINUOUS
 62
     2
100
AcDbLine
 10
179.887302
 20
362.085786
 30
0.0
 11
167.364489
 21
374.608599
 31
0.0
  0
ARC
  5
2AE
100
AcDbEntity
  8
LAY-1
  6
CONTINUOUS
 62
     2
100
AcDbCircle
 10
181.301515
 20
363.5
 30
0.0
 40
2.0
100
AcDbArc
 50
225.0
 51
270.0
  0
LINE
  5
2AF
100
AcDbEntity
  8
LAY-1
  6
CONTINUOUS
 62
     2
100
AcDbLine
 10
181.301515
 20
361.5
 30
0.0
 11
190.0
 21
361.5
 31
0.0
  0
ARC
  5
2B0
100
AcDbEntity
  8
LAY-1
  6
CONTINUOUS
 62
     2
100
AcDbCircle
 10
181.301515
 20
363.5
 30
0.0
 40
2.0
100
AcDbArc
 50
225.0
 51
270.0
  0
LINE
  5
2B1
100
AcDbEntity
  8
LAY-1
  6
CONTINUOUS
 62
     2
100
AcDbLine
 10
123.0
 20
354.5
 30
0.0
 11
161.343638
 21
354.5
 31
0.0
  0
ARC
  5
2B2
100
AcDbEntity
  8
LAY-1
  6
CONTINUOUS
 62
     2
100
AcDbCircle
 10
167.440602
 20
420.829165
 30
0.0
 40
1.5
100
AcDbArc
 50
0.0
 51
60.0
  0
ARC
  5
2B3
100
AcDbEntity
  8
LAY-1
  6
CONTINUOUS
 62
     2
100
AcDbCircle
 10
164.190602
 20
415.2
 30
0.0
 40
8.0
100
AcDbArc
 50
60.0
 51
90.0
  0
LINE
  5
2B4
100
AcDbEntity
  8
LAY-1
  6
CONTINUOUS
 62
     2
100
AcDbLine
 10
168.940602
 20
420.829165
 30
0.0
 11
168.940602
 21
419.5
 31
0.0
  0
ARC
  5
2B5
100
AcDbEntity
  8
LAY-1
  6
CONTINUOUS
 62
     2
100
AcDbCircle
 10
160.940602
 20
420.829165
 30
0.0
 40
1.5
100
AcDbArc
 50
120.0
 51
180.0
  0
ARC
  5
2B6
100
AcDbEntity
  8
LAY-1
  6
CONTINUOUS
 62
     2
100
AcDbCircle
 10
164.190602
 20
415.2
 30
0.0
 40
8.0
100
AcDbArc
 50
90.0
 51
120.0
  0
LINE
  5
2B7
100
AcDbEntity
  8
LAY-1
  6
CONTINUOUS
 62
     2
100
AcDbLine
 10
159.440602
 20
420.829165
 30
0.0
 11
159.440602
 21
419.5
 31
0.0
  0
LINE
  5
2B8
100
AcDbEntity
  8
LAY-1
  6
CONTINUOUS
 62
     2
100
AcDbLine
 10
148.5
 20
419.5
 30
0.0
 11
190.0
 21
419.5
 31
0.0
  0
LINE
  5
2B9
100
AcDbEntity
  8
LAY-1
  6
CONTINUOUS
 62
     2
100
AcDbLine
 10
148.5
 20
417.5
 30
0.0
 11
148.5
 21
419.5
 31
0.0
  0
LINE
  5
2BA
100
AcDbEntity
  8
LAY-1
  6
CONTINUOUS
 62
     2
100
AcDbLine
 10
179.41955
 20
422.5
 30
0.0
 11
190.0
 21
422.5
 31
0.0
  0
ARC
  5
2BB
100
AcDbEntity
  8
LAY-1
  6
CONTINUOUS
 62
     2
100
AcDbCircle
 10
179.41955
 20
420.0
 30
0.0
 40
2.5
100
AcDbArc
 50
90.0
 51
170.0
  0
ARC
  5
2BC
100
AcDbEntity
  8
LAY-1
  6
CONTINUOUS
 62
     2
100
AcDbCircle
 10
176.37327
 20
420.0
 30
0.0
 40
0.5
100
AcDbArc
 50
270.0
 51
350.0
  0
LINE
  5
2BD
100
AcDbEntity
  8
LAY-1
  6
CONTINUOUS
 62
     2
100
AcDbLine
 10
176.865674
 20
419.913176
 30
0.0
 11
176.95753
 21
420.43412
 31
0.0
  0
LINE
  5
2BE
100
AcDbEntity
  8
LAY-1
  6
CONTINUOUS
 62
     2
100
AcDbLine
 10
121.0
 20
352.5
 30
0.0
 11
121.0
 21
322.5
 31
0.0
  0
LINE
  5
2BF
100
AcDbEntity
  8
LAY-1
  6
CONTINUOUS
 62
     2
100
AcDbLine
 10
135.62171
 20
340.362803
 30
0.0
 11
135.62171
 21
342.5
 31
0.0
  0
LINE
  5
2C0
100
AcDbEntity
  8
LAY-1
  6
CONTINUOUS
 62
     2
100
AcDbLine
 10
126.12171
 20
340.362803
 30
0.0
 11
126.12171
 21
342.5
 31
0.0
  0
ARC
  5
2C1
100
AcDbEntity
  8
LAY-1
  6
CONTINUOUS
 62
     2
100
AcDbCircle
 10
130.87171
 20
346.8
 30
0.0
 40
8.0
100
AcDbArc
 50
233.576426
 51
306.423574
  0
ARC
  5
2C2
100
AcDbEntity
  8
LAY-1
  6
CONTINUOUS
 62
     2
100
AcDbCircle
 10
165.50826
 20
346.8
 30
0.0
 40
8.0
100
AcDbArc
 50
233.576426
 51
306.423574
  0
LINE
  5
2C3
100
AcDbEntity
  8
LAY-1
  6
CONTINUOUS
 62
     2
100
AcDbLine
 10
160.75826
 20
340.362803
 30
0.0
 11
160.75826
 21
342.5
 31
0.0
  0
LINE
  5
2C4
100
AcDbEntity
  8
LAY-1
  6
CONTINUOUS
 62
     2
100
AcDbLine
 10
170.25826
 20
340.362803
 30
0.0
 11
170.25826
 21
342.5
 31
0.0
  0
ARC
  5
2C5
100
AcDbEntity
  8
LAY-1
  6
CONTINUOUS
 62
     2
100
AcDbCircle
 10
121.5
 20
343.0
 30
0.0
 40
0.5
100
AcDbArc
 50
180.0
 51
270.0
  0
LINE
  5
2C6
100
AcDbEntity
  8
LAY-1
  6
CONTINUOUS
 62
     2
100
AcDbLine
 10
121.5
 20
342.5
 30
0.0
 11
190.0
 21
342.5
 31
0.0
  0
ARC
  5
2C7
100
AcDbEntity
  8
LAY-1
  6
CONTINUOUS
 62
     2
100
AcDbCircle
 10
122.0
 20
322.5
 30
0.0
 40
1.0
100
AcDbArc
 50
180.0
 51
270.0
  0
LINE
  5
2C8
100
AcDbEntity
  8
LAY-1
  6
CONTINUOUS
 62
     2
100
AcDbLine
 10
122.0
 20
321.5
 30
0.0
 11
137.138948
 21
321.5
 31
0.0
  0
ARC
  5
2C9
100
AcDbEntity
  8
LAY-1
  6
CONTINUOUS
 62
     2
100
AcDbCircle
 10
141.795802
 20
322.5
 30
0.0
 40
2.0
100
AcDbArc
 50
90.0
 51
135.0
  0
ARC
  5
2CA
100
AcDbEntity
  8
LAY-1
  6
CONTINUOUS
 62
     2
100
AcDbCircle
 10
137.138948
 20
323.5
 30
0.0
 40
2.0
100
AcDbArc
 50
270.0
 51
315.0
  0
LINE
  5
2CB
100
AcDbEntity
  8
LAY-1
  6
CONTINUOUS
 62
     2
100
AcDbLine
 10
138.553161
 20
322.085786
 30
0.0
 11
140.381588
 21
323.914214
 31
0.0
  0
LINE
  5
2CC
100
AcDbEntity
  8
LAY-1
  6
CONTINUOUS
 62
     2
100
AcDbLine
 10
184.6
 20
398.589492
 30
0.0
 11
184.6
 21
398.606395
 31
0.0
  0
ARC
  5
2CD
100
AcDbEntity
  8
LAY-1
  6
CONTINUOUS
 62
     2
100
AcDbCircle
 10
190.0
 20
384.5
 30
0.0
 40
15.088863
100
AcDbArc
 50
90.0
 51
270.0
  0
ARC
  5
2CE
100
AcDbEntity
  8
LAY-1
  6
CONTINUOUS
 62
     2
100
AcDbCircle
 10
163.00826
 20
359.5
 30
0.0
 40
2.0
100
AcDbArc
 50
90.0
 51
180.0
  0
LINE
  5
2CF
100
AcDbEntity
  8
LAY-1
  6
CONTINUOUS
 62
     2
100
AcDbLine
 10
161.00826
 20
356.5
 30
0.0
 11
161.00826
 21
359.5
 31
0.0
  0
LINE
  5
2D0
100
AcDbEntity
  8
LAY-1
  6
CONTINUOUS
 62
     2
100
AcDbLine
 10
163.00826
 20
361.5
 30
0.0
 11
164.44941
 21
361.5
 31
0.0
  0
ARC
  5
2D1
100
AcDbEntity
  8
LAY-1
  6
CONTINUOUS
 62
     2
100
AcDbCircle
 10
123.0
 20
352.5
 30
0.0
 40
2.0
100
AcDbArc
 50
90.0
 51
180.0
  0
ARC
  5
2D2
100
AcDbEntity
  8
LAY-1
  6
CONTINUOUS
 62
     2
100
AcDbCircle
 10
159.00826
 20
356.5
 30
0.0
 40
2.0
100
AcDbArc
 50
270.0
 51
0.0
  0
ARC
  5
2D3
100
AcDbEntity
  8
LAY-1
  6
CONTINUOUS
 62
     2
100
AcDbCircle
 10
164.44941
 20
363.5
 30
0.0
 40
2.0
100
AcDbArc
 50
270.0
 51
358.5
  0
ARC
  5
2D4
100
AcDbEntity
  8
LAY-1
  6
CONTINUOUS
 62
     2
100
AcDbCircle
 10
161.343638
 20
359.5
 30
0.0
 40
5.0
100
AcDbArc
 50
270.0
 51
358.5
  0
LINE
  5
2D5
100
AcDbEntity
  8
LAY-1
  6
CONTINUOUS
 62
     2
100
AcDbLine
 10
167.235292
 20
393.485446
 30
0.0
 11
166.341925
 21
359.369115
 31
0.0
  0
LINE
  5
2D6
100
AcDbEntity
  8
LAY-1
  6
CONTINUOUS
 62
     2
100
AcDbLine
 10
149.988391
 20
368.5
 30
0.0
 11
166.581025
 21
368.5
 31
0.0
  0
ARC
  5
2D7
100
AcDbEntity
  8
LAY-1
  6
CONTINUOUS
 62
     2
100
AcDbCircle
 10
142.698213
 20
371.609283
 30
0.0
 40
5.0
100
AcDbArc
 50
299.078789
 51
359.0
  0
LINE
  5
2D8
100
AcDbEntity
  8
LAY-1
  6
CONTINUOUS
 62
     2
100
AcDbLine
 10
148.5
 20
417.5
 30
0.0
 11
147.697451
 21
371.522021
 31
0.0
  0
ARC
  5
2D9
100
AcDbEntity
  8
LAY-1
  6
CONTINUOUS
 62
     2
100
AcDbCircle
 10
149.988391
 20
358.5
 30
0.0
 40
10.0
100
AcDbArc
 50
90.0
 51
135.0
  0
LINE
  5
2DA
100
AcDbEntity
  8
LAY-1
  6
CONTINUOUS
 62
     2
100
AcDbLine
 10
132.724935
 20
355.37868
 30
0.0
 11
142.917323
 21
365.571068
 31
0.0
  0
ARC
  5
2DB
100
AcDbEntity
  8
LAY-1
  6
CONTINUOUS
 62
     2
100
AcDbCircle
 10
130.603615
 20
357.5
 30
0.0
 40
3.0
100
AcDbArc
 50
270.0
 51
315.0
  0
LINE
  5
2DC
100
AcDbEntity
  8
LAY-1
  6
CONTINUOUS
 62
     2
100
AcDbLine
 10
121.0
 20
348.5
 30
0.0
 11
190.0
 21
348.5
 31
0.0
  0
LINE
  5
2DD
100
AcDbEntity
  8
LAY-1
  6
CONTINUOUS
 62
     2
100
AcDbLine
 10
181.301515
 20
407.5
 30
0.0
 11
190.0
 21
407.5
 31
0.0
  0
ARC
  5
2DE
100
AcDbEntity
  8
LAY-1
  6
CONTINUOUS
 62
     2
100
AcDbCircle
 10
169.234607
 20
393.433092
 30
0.0
 40
2.0
100
AcDbArc
 50
135.0
 51
178.5
  0
LINE
  5
2DF
100
AcDbEntity
  8
LAY-1
  6
CONTINUOUS
 62
     2
100
AcDbLine
 10
179.887302
 20
406.914214
 30
0.0
 11
167.820393
 21
394.847305
 31
0.0
  0
ARC
  5
2E0
100
AcDbEntity
  8
LAY-1
  6
CONTINUOUS
 62
     2
100
AcDbCircle
 10
181.301515
 20
405.5
 30
0.0
 40
2.0
100
AcDbArc
 50
90.0
 51
135.0
  0
ARC
  5
2E1
100
AcDbEntity
  8
LAY-1
  6
CONTINUOUS
 62
     2
100
AcDbCircle
 10
169.234607
 20
393.433092
 30
0.0
 40
2.0
100
AcDbArc
 50
135.0
 51
178.5
  0
LINE
  5
2E2
100
AcDbEntity
  8
LAY-1
  6
CONTINUOUS
 62
     2
100
AcDbLine
 10
179.887302
 20
406.914214
 30
0.0
 11
167.820393
 21
394.847305
 31
0.0
  0
LINE
  5
2E3
100
AcDbEntity
  8
LAY-1
  6
CONTINUOUS
 62
     2
100
AcDbLine
 10
181.301515
 20
407.5
 30
0.0
 11
190.0
 21
407.5
 31
0.0
  0
ARC
  5
2E4
100
AcDbEntity
  8
LAY-1
  6
CONTINUOUS
 62
     2
100
AcDbCircle
 10
181.301515
 20
405.5
 30
0.0
 40
2.0
100
AcDbArc
 50
90.0
 51
135.0
  0
LINE
  5
2E5
100
AcDbEntity
  8
LAY-1
  6
CONTINUOUS
 62
     2
100
AcDbLine
 10
148.5
 20
417.5
 30
0.0
 11
190.0
 21
417.5
 31
0.0
  0
LINE
  5
2E6
100
AcDbEntity
  8
LAY-1
  6
CONTINUOUS
 62
     2
100
AcDbLine
 10
210.532625
 20
278.5
 30
0.0
 11
211.189403
 21
316.126804
 31
0.0
  0
ARC
  5
2E7
100
AcDbEntity
  8
LAY-1
  6
CONTINUOUS
 62
     2
100
AcDbCircle
 10
227.186967
 20
315.847565
 30
0.0
 40
16.0
100
AcDbArc
 50
98.528444
 51
179.0
  0
LINE
  5
2E8
100
AcDbEntity
  8
LAY-1
  6
CONTINUOUS
 62
     2
100
AcDbLine
 10
224.81416
 20
331.670643
 30
0.0
 11
236.942672
 21
333.489417
 31
0.0
  0
ARC
  5
2E9
100
AcDbEntity
  8
LAY-1
  6
CONTINUOUS
 62
     2
100
AcDbCircle
 10
235.163067
 20
345.356726
 30
0.0
 40
12.0
100
AcDbArc
 50
278.528444
 51
331.226927
  0
ARC
  5
2EA
100
AcDbEntity
  8
LAY-1
  6
CONTINUOUS
 62
     2
100
AcDbCircle
 10
211.221297
 20
376.022813
 30
0.0
 40
2.0
100
AcDbArc
 50
315.0
 51
1.5
  0
LINE
  5
2EB
100
AcDbEntity
  8
LAY-1
  6
CONTINUOUS
 62
     2
100
AcDbLine
 10
200.112698
 20
362.085786
 30
0.0
 11
212.635511
 21
374.608599
 31
0.0
  0
ARC
  5
2EC
100
AcDbEntity
  8
LAY-1
  6
CONTINUOUS
 62
     2
100
AcDbCircle
 10
198.698485
 20
363.5
 30
0.0
 40
2.0
100
AcDbArc
 50
270.0
 51
315.0
  0
LINE
  5
2ED
100
AcDbEntity
  8
LAY-1
  6
CONTINUOUS
 62
     2
100
AcDbLine
 10
198.698485
 20
361.5
 30
0.0
 11
190.0
 21
361.5
 31
0.0
  0
ARC
  5
2EE
100
AcDbEntity
  8
LAY-1
  6
CONTINUOUS
 62
     2
100
AcDbCircle
 10
198.698485
 20
363.5
 30
0.0
 40
2.0
100
AcDbArc
 50
270.0
 51
315.0
  0
LINE
  5
2EF
100
AcDbEntity
  8
LAY-1
  6
CONTINUOUS
 62
     2
100
AcDbLine
 10
257.0
 20
354.5
 30
0.0
 11
218.656362
 21
354.5
 31
0.0
  0
ARC
  5
2F0
100
AcDbEntity
  8
LAY-1
  6
CONTINUOUS
 62
     2
100
AcDbCircle
 10
212.559398
 20
420.829165
 30
0.0
 40
1.5
100
AcDbArc
 50
120.0
 51
180.0
  0
ARC
  5
2F1
100
AcDbEntity
  8
LAY-1
  6
CONTINUOUS
 62
     2
100
AcDbCircle
 10
215.809398
 20
415.2
 30
0.0
 40
8.0
100
AcDbArc
 50
90.0
 51
120.0
  0
LINE
  5
2F2
100
AcDbEntity
  8
LAY-1
  6
CONTINUOUS
 62
     2
100
AcDbLine
 10
211.059398
 20
420.829165
 30
0.0
 11
211.059398
 21
419.5
 31
0.0
  0
ARC
  5
2F3
100
AcDbEntity
  8
LAY-1
  6
CONTINUOUS
 62
     2
100
AcDbCircle
 10
219.059398
 20
420.829165
 30
0.0
 40
1.5
100
AcDbArc
 50
0.0
 51
60.0
  0
ARC
  5
2F4
100
AcDbEntity
  8
LAY-1
  6
CONTINUOUS
 62
     2
100
AcDbCircle
 10
215.809398
 20
415.2
 30
0.0
 40
8.0
100
AcDbArc
 50
60.0
 51
90.0
  0
LINE
  5
2F5
100
AcDbEntity
  8
LAY-1
  6
CONTINUOUS
 62
     2
100
AcDbLine
 10
220.559398
 20
420.829165
 30
0.0
 11
220.559398
 21
419.5
 31
0.0
  0
LINE
  5
2F6
100
AcDbEntity
  8
LAY-1
  6
CONTINUOUS
 62
     2
100
AcDbLine
 10
231.5
 20
419.5
 30
0.0
 11
190.0
 21
419.5
 31
0.0
  0
LINE
  5
2F7
100
AcDbEntity
  8
LAY-1
  6
CONTINUOUS
 62
     2
100
AcDbLine
 10
231.5
 20
417.5
 30
0.0
 11
231.5
 21
419.5
 31
0.0
  0
LINE
  5
2F8
100
AcDbEntity
  8
LAY-1
  6
CONTINUOUS
 62
     2
100
AcDbLine
 10
200.58045
 20
422.5
 30
0.0
 11
190.0
 21
422.5
 31
0.0
  0
ARC
  5
2F9
100
AcDbEntity
  8
LAY-1
  6
CONTINUOUS
 62
     2
100
AcDbCircle
 10
200.58045
 20
420.0
 30
0.0
 40
2.5
100
AcDbArc
 50
10.0
 51
90.0
  0
ARC
  5
2FA
100
AcDbEntity
  8
LAY-1
  6
CONTINUOUS
 62
     2
100
AcDbCircle
 10
203.62673
 20
420.0
 30
0.0
 40
0.5
100
AcDbArc
 50
190.0
 51
270.0
  0
LINE
  5
2FB
100
AcDbEntity
  8
LAY-1
  6
CONTINUOUS
 62
     2
100
AcDbLine
 10
203.134326
 20
419.913176
 30
0.0
 11
203.04247
 21
420.43412
 31
0.0
  0
LINE
  5
2FC
100
AcDbEntity
  8
LAY-1
  6
CONTINUOUS
 62
     2
100
AcDbLine
 10
244.37829
 20
340.362803
 30
0.0
 11
244.37829
 21
342.5
 31
0.0
  0
LINE
  5
2FD
100
AcDbEntity
  8
LAY-1
  6
CONTINUOUS
 62
     2
100
AcDbLine
 10
253.87829
 20
340.362803
 30
0.0
 11
253.87829
 21
342.5
 31
0.0
  0
ARC
  5
2FE
100
AcDbEntity
  8
LAY-1
  6
CONTINUOUS
 62
     2
100
AcDbCircle
 10
249.12829
 20
346.8
 30
0.0
 40
8.0
100
AcDbArc
 50
233.576426
 51
306.423574
  0
ARC
  5
2FF
100
AcDbEntity
  8
LAY-1
  6
CONTINUOUS
 62
     2
100
AcDbCircle
 10
214.49174
 20
346.8
 30
0.0
 40
8.0
100
AcDbArc
 50
233.576426
 51
306.423574
  0
LINE
  5
300
100
AcDbEntity
  8
LAY-1
  6
CONTINUOUS
 62
     2
100
AcDbLine
 10
219.24174
 20
340.362803
 30
0.0
 11
219.24174
 21
342.5
 31
0.0
  0
LINE
  5
301
100
AcDbEntity
  8
LAY-1
  6
CONTINUOUS
 62
     2
100
AcDbLine
 10
209.74174
 20
340.362803
 30
0.0
 11
209.74174
 21
342.5
 31
0.0
  0
ARC
  5
302
100
AcDbEntity
  8
LAY-1
  6
CONTINUOUS
 62
     2
100
AcDbCircle
 10
258.5
 20
343.0
 30
0.0
 40
0.5
100
AcDbArc
 50
270.0
 51
0.0
  0
LINE
  5
303
100
AcDbEntity
  8
LAY-1
  6
CONTINUOUS
 62
     2
100
AcDbLine
 10
258.5
 20
342.5
 30
0.0
 11
190.0
 21
342.5
 31
0.0
  0
LINE
  5
304
100
AcDbEntity
  8
LAY-1
  6
CONTINUOUS
 62
     2
100
AcDbLine
 10
195.4
 20
398.589492
 30
0.0
 11
195.4
 21
398.606395
 31
0.0
  0
ARC
  5
305
100
AcDbEntity
  8
LAY-1
  6
CONTINUOUS
 62
     2
100
AcDbCircle
 10
190.0
 20
384.5
 30
0.0
 40
15.088863
100
AcDbArc
 50
270.0
 51
90.0
  0
ARC
  5
306
100
AcDbEntity
  8
LAY-1
  6
CONTINUOUS
 62
     2
100
AcDbCircle
 10
216.99174
 20
359.5
 30
0.0
 40
2.0
100
AcDbArc
 50
0.0
 51
90.0
  0
LINE
  5
307
100
AcDbEntity
  8
LAY-1
  6
CONTINUOUS
 62
     2
100
AcDbLine
 10
218.99174
 20
356.5
 30
0.0
 11
218.99174
 21
359.5
 31
0.0
  0
LINE
  5
308
100
AcDbEntity
  8
LAY-1
  6
CONTINUOUS
 62
     2
100
AcDbLine
 10
216.99174
 20
361.5
 30
0.0
 11
215.55059
 21
361.5
 31
0.0
  0
ARC
  5
309
100
AcDbEntity
  8
LAY-1
  6
CONTINUOUS
 62
     2
100
AcDbCircle
 10
257.0
 20
352.5
 30
0.0
 40
2.0
100
AcDbArc
 50
0.0
 51
90.0
  0
ARC
  5
30A
100
AcDbEntity
  8
LAY-1
  6
CONTINUOUS
 62
     2
100
AcDbCircle
 10
220.99174
 20
356.5
 30
0.0
 40
2.0
100
AcDbArc
 50
180.0
 51
270.0
  0
ARC
  5
30B
100
AcDbEntity
  8
LAY-1
  6
CONTINUOUS
 62
     2
100
AcDbCircle
 10
215.55059
 20
363.5
 30
0.0
 40
2.0
100
AcDbArc
 50
181.5
 51
270.0
  0
ARC
  5
30C
100
AcDbEntity
  8
LAY-1
  6
CONTINUOUS
 62
     2
100
AcDbCircle
 10
218.656362
 20
359.5
 30
0.0
 40
5.0
100
AcDbArc
 50
181.5
 51
270.0
  0
LINE
  5
30D
100
AcDbEntity
  8
LAY-1
  6
CONTINUOUS
 62
     2
100
AcDbLine
 10
212.764708
 20
393.485446
 30
0.0
 11
213.658075
 21
359.369115
 31
0.0
  0
LINE
  5
30E
100
AcDbEntity
  8
LAY-1
  6
CONTINUOUS
 62
     2
100
AcDbLine
 10
230.011609
 20
368.5
 30
0.0
 11
213.418975
 21
368.5
 31
0.0
  0
ARC
  5
30F
100
AcDbEntity
  8
LAY-1
  6
CONTINUOUS
 62
     2
100
AcDbCircle
 10
237.301787
 20
371.609283
 30
0.0
 40
5.0
100
AcDbArc
 50
181.0
 51
240.921211
  0
LINE
  5
310
100
AcDbEntity
  8
LAY-1
  6
CONTINUOUS
 62
     2
100
AcDbLine
 10
231.5
 20
417.5
 30
0.0
 11
232.302549
 21
371.522021
 31
0.0
  0
ARC
  5
311
100
AcDbEntity
  8
LAY-1
  6
CONTINUOUS
 62
     2
100
AcDbCircle
 10
230.011609
 20
358.5
 30
0.0
 40
10.0
100
AcDbArc
 50
45.0
 51
90.0
  0
LINE
  5
312
100
AcDbEntity
  8
LAY-1
  6
CONTINUOUS
 62
     2
100
AcDbLine
 10
247.275065
 20
355.37868
 30
0.0
 11
237.082677
 21
365.571068
 31
0.0
  0
ARC
  5
313
100
AcDbEntity
  8
LAY-1
  6
CONTINUOUS
 62
     2
100
AcDbCircle
 10
249.396385
 20
357.5
 30
0.0
 40
3.0
100
AcDbArc
 50
225.0
 51
270.0
  0
LINE
  5
314
100
AcDbEntity
  8
LAY-1
  6
CONTINUOUS
 62
     2
100
AcDbLine
 10
259.0
 20
348.5
 30
0.0
 11
190.0
 21
348.5
 31
0.0
  0
LINE
  5
315
100
AcDbEntity
  8
LAY-1
  6
CONTINUOUS
 62
     2
100
AcDbLine
 10
198.698485
 20
407.5
 30
0.0
 11
190.0
 21
407.5
 31
0.0
  0
ARC
  5
316
100
AcDbEntity
  8
LAY-1
  6
CONTINUOUS
 62
     2
100
AcDbCircle
 10
210.765393
 20
393.433092
 30
0.0
 40
2.0
100
AcDbArc
 50
1.5
 51
45.0
  0
LINE
  5
317
100
AcDbEntity
  8
LAY-1
  6
CONTINUOUS
 62
     2
100
AcDbLine
 10
200.112698
 20
406.914214
 30
0.0
 11
212.179607
 21
394.847305
 31
0.0
  0
ARC
  5
318
100
AcDbEntity
  8
LAY-1
  6
CONTINUOUS
 62
     2
100
AcDbCircle
 10
198.698485
 20
405.5
 30
0.0
 40
2.0
100
AcDbArc
 50
45.0
 51
90.0
  0
ARC
  5
319
100
AcDbEntity
  8
LAY-1
  6
CONTINUOUS
 62
     2
100
AcDbCircle
 10
210.765393
 20
393.433092
 30
0.0
 40
2.0
100
AcDbArc
 50
1.5
 51
45.0
  0
LINE
  5
31A
100
AcDbEntity
  8
LAY-1
  6
CONTINUOUS
 62
     2
100
AcDbLine
 10
200.112698
 20
406.914214
 30
0.0
 11
212.179607
 21
394.847305
 31
0.0
  0
LINE
  5
31B
100
AcDbEntity
  8
LAY-1
  6
CONTINUOUS
 62
     2
100
AcDbLine
 10
198.698485
 20
407.5
 30
0.0
 11
190.0
 21
407.5
 31
0.0
  0
ARC
  5
31C
100
AcDbEntity
  8
LAY-1
  6
CONTINUOUS
 62
     2
100
AcDbCircle
 10
198.698485
 20
405.5
 30
0.0
 40
2.0
100
AcDbArc
 50
45.0
 51
90.0
  0
LINE
  5
31D
100
AcDbEntity
  8
LAY-1
  6
CONTINUOUS
 62
     2
100
AcDbLine
 10
231.5
 20
417.5
 30
0.0
 11
190.0
 21
417.5
 31
0.0
  0
LINE
  5
31E
100
AcDbEntity
  8
LAY-1
  6
CONTINUOUS
 62
     2
100
AcDbLine
 10
259.0
 20
352.5
 30
0.0
 11
259.0
 21
343.0
 31
0.0
  0
LINE
  5
31F
100
AcDbEntity
  8
LAY-1
  6
EXLTYPE3
 62
     1
100
AcDbLine
 10
429.5
 20
69.7
 30
0.0
 11
429.5
 21
217.7
 31
0.0
  0
LINE
  5
320
100
AcDbEntity
  8
LAY-1
  6
EXLTYPE3
 62
     1
100
AcDbLine
 10
374.3
 20
92.032625
 30
0.0
 11
380.51756
 21
92.032625
 31
0.0
  0
LINE
  5
321
100
AcDbEntity
  8
LAY-1
  6
EXLTYPE3
 62
     1
100
AcDbLine
 10
305.2
 20
144.0
 30
0.0
 11
475.2
 21
144.0
 31
0.0
  0
LINE
  5
322
100
AcDbEntity
  8
LAY-1
  6
CONTINUOUS
 62
     2
100
AcDbLine
 10
323.5
 20
164.0
 30
0.0
 11
322.5
 21
164.0
 31
0.0
  0
LINE
  5
323
100
AcDbEntity
  8
LAY-1
  6
CONTINUOUS
 62
     2
100
AcDbLine
 10
323.5
 20
164.5
 30
0.0
 11
323.5
 21
161.27963
 31
0.0
  0
LINE
  5
324
100
AcDbEntity
  8
LAY-1
  6
CONTINUOUS
 62
     2
100
AcDbLine
 10
323.5
 20
123.5
 30
0.0
 11
323.5
 21
144.0
 31
0.0
  0
LINE
  5
325
100
AcDbEntity
  8
LAY-1
  6
CONTINUOUS
 62
     2
100
AcDbLine
 10
323.5
 20
163.5
 30
0.0
 11
323.5
 21
144.0
 31
0.0
  0
LINE
  5
326
100
AcDbEntity
  8
LAY-1
  6
CONTINUOUS
 62
     2
100
AcDbLine
 10
323.5
 20
124.0
 30
0.0
 11
322.5
 21
124.0
 31
0.0
  0
LINE
  5
327
100
AcDbEntity
  8
LAY-1
  6
CONTINUOUS
 62
     2
100
AcDbLine
 10
323.5
 20
123.5
 30
0.0
 11
323.5
 21
126.72037
 31
0.0
  0
LINE
  5
328
100
AcDbEntity
  8
LAY-1
  6
CONTINUOUS
 62
     2
100
AcDbLine
 10
314.0
 20
144.0
 30
0.0
 11
314.0
 21
123.5
 31
0.0
  0
LINE
  5
329
100
AcDbEntity
  8
LAY-1
  6
CONTINUOUS
 62
     2
100
AcDbLine
 10
322.5
 20
123.5
 30
0.0
 11
322.5
 21
144.0
 31
0.0
  0
LINE
  5
32A
100
AcDbEntity
  8
LAY-1
  6
CONTINUOUS
 62
     2
100
AcDbLine
 10
314.0
 20
123.5
 30
0.0
 11
315.154701
 21
121.5
 31
0.0
  0
LINE
  5
32B
100
AcDbEntity
  8
LAY-1
  6
CONTINUOUS
 62
     2
100
AcDbLine
 10
322.5
 20
123.5
 30
0.0
 11
321.345299
 21
121.5
 31
0.0
  0
LINE
  5
32C
100
AcDbEntity
  8
LAY-1
  6
CONTINUOUS
 62
     2
100
AcDbLine
 10
315.154701
 20
121.5
 30
0.0
 11
321.345299
 21
121.5
 31
0.0
  0
LINE
  5
32D
100
AcDbEntity
  8
LAY-1
  6
CONTINUOUS
 62
     2
100
AcDbLine
 10
314.0
 20
132.5415
 30
0.0
 11
314.0
 21
130.0
 31
0.0
  0
LINE
  5
32E
100
AcDbEntity
  8
LAY-1
  6
CONTINUOUS
 62
     2
100
AcDbLine
 10
314.0
 20
144.0
 30
0.0
 11
314.0
 21
130.5
 31
0.0
  0
ARC
  5
32F
100
AcDbEntity
  8
LAY-1
  6
CONTINUOUS
 62
     2
100
AcDbCircle
 10
409.0
 20
144.0
 30
0.0
 40
100.0
100
AcDbArc
 50
180.0
 51
187.54548
  0
LINE
  5
330
100
AcDbEntity
  8
LAY-1
  6
CONTINUOUS
 62
     2
100
AcDbLine
 10
310.857247
 20
130.0
 30
0.0
 11
314.0
 21
130.0
 31
0.0
  0
ARC
  5
331
100
AcDbEntity
  8
LAY-1
  6
CONTINUOUS
 62
     2
100
AcDbCircle
 10
310.857247
 20
131.0
 30
0.0
 40
1.0
100
AcDbArc
 50
187.54548
 51
270.0
  0
LINE
  5
332
100
AcDbEntity
  8
LAY-1
  6
CONTINUOUS
 62
     2
100
AcDbLine
 10
314.0
 20
132.5415
 30
0.0
 11
314.0
 21
130.0
 31
0.0
  0
LINE
  5
333
100
AcDbEntity
  8
LAY-1
  6
CONTINUOUS
 62
     2
100
AcDbLine
 10
310.0
 20
143.0
 30
0.0
 11
314.0
 21
143.0
 31
0.0
  0
LINE
  5
334
100
AcDbEntity
  8
LAY-1
  6
CONTINUOUS
 62
     2
100
AcDbLine
 10
311.0
 20
138.134569
 30
0.0
 11
314.0
 21
138.134569
 31
0.0
  0
ARC
  5
335
100
AcDbEntity
  8
LAY-1
  6
CONTINUOUS
 62
     2
100
AcDbCircle
 10
311.0
 20
139.134569
 30
0.0
 40
1.0
100
AcDbArc
 50
180.0
 51
270.0
  0
LINE
  5
336
100
AcDbEntity
  8
LAY-1
  6
CONTINUOUS
 62
     2
100
AcDbLine
 10
311.0
 20
137.883905
 30
0.0
 11
314.0
 21
137.883905
 31
0.0
  0
ARC
  5
337
100
AcDbEntity
  8
LAY-1
  6
CONTINUOUS
 62
     2
100
AcDbCircle
 10
311.0
 20
138.883905
 30
0.0
 40
1.0
100
AcDbArc
 50
180.0
 51
270.0
  0
LINE
  5
338
100
AcDbEntity
  8
LAY-1
  6
CONTINUOUS
 62
     2
100
AcDbLine
 10
311.0
 20
136.151855
 30
0.0
 11
314.0
 21
136.151855
 31
0.0
  0
ARC
  5
339
100
AcDbEntity
  8
LAY-1
  6
CONTINUOUS
 62
     2
100
AcDbCircle
 10
311.0
 20
137.151855
 30
0.0
 40
1.0
100
AcDbArc
 50
180.0
 51
270.0
  0
LINE
  5
33A
100
AcDbEntity
  8
LAY-1
  6
CONTINUOUS
 62
     2
100
AcDbLine
 10
311.0
 20
132.840776
 30
0.0
 11
314.0
 21
132.840776
 31
0.0
  0
ARC
  5
33B
100
AcDbEntity
  8
LAY-1
  6
CONTINUOUS
 62
     2
100
AcDbCircle
 10
311.0
 20
133.840776
 30
0.0
 40
1.0
100
AcDbArc
 50
180.0
 51
270.0
  0
LINE
  5
33C
100
AcDbEntity
  8
LAY-1
  6
CONTINUOUS
 62
     2
100
AcDbLine
 10
311.0
 20
132.406613
 30
0.0
 11
314.0
 21
132.406613
 31
0.0
  0
ARC
  5
33D
100
AcDbEntity
  8
LAY-1
  6
CONTINUOUS
 62
     2
100
AcDbCircle
 10
311.0
 20
133.406613
 30
0.0
 40
1.0
100
AcDbArc
 50
180.0
 51
270.0
  0
LINE
  5
33E
100
AcDbEntity
  8
LAY-1
  6
CONTINUOUS
 62
     2
100
AcDbLine
 10
311.0
 20
131.406613
 30
0.0
 11
314.0
 21
131.406613
 31
0.0
  0
ARC
  5
33F
100
AcDbEntity
  8
LAY-1
  6
CONTINUOUS
 62
     2
100
AcDbCircle
 10
311.0
 20
132.406613
 30
0.0
 40
1.0
100
AcDbArc
 50
180.0
 51
270.0
  0
LINE
  5
340
100
AcDbEntity
  8
LAY-1
  6
CONTINUOUS
 62
     2
100
AcDbLine
 10
311.0
 20
130.537088
 30
0.0
 11
314.0
 21
130.537088
 31
0.0
  0
ARC
  5
341
100
AcDbEntity
  8
LAY-1
  6
CONTINUOUS
 62
     2
100
AcDbCircle
 10
311.0
 20
131.537088
 30
0.0
 40
1.0
100
AcDbArc
 50
180.0
 51
270.0
  0
LINE
  5
342
100
AcDbEntity
  8
LAY-1
  6
CONTINUOUS
 62
     2
100
AcDbLine
 10
310.0
 20
139.134569
 30
0.0
 11
310.0
 21
138.883905
 31
0.0
  0
LINE
  5
343
100
AcDbEntity
  8
LAY-1
  6
CONTINUOUS
 62
     2
100
AcDbLine
 10
310.0
 20
133.840776
 30
0.0
 11
310.0
 21
133.406613
 31
0.0
  0
LINE
  5
344
100
AcDbEntity
  8
LAY-1
  6
CONTINUOUS
 62
     2
100
AcDbLine
 10
315.154701
 20
130.883288
 30
0.0
 11
315.154701
 21
134.726382
 31
0.0
  0
LINE
  5
345
100
AcDbEntity
  8
LAY-1
  6
CONTINUOUS
 62
     2
100
AcDbLine
 10
321.345299
 20
130.883288
 30
0.0
 11
321.345299
 21
134.726382
 31
0.0
  0
LINE
  5
346
100
AcDbEntity
  8
LAY-1
  6
CONTINUOUS
 62
     2
100
AcDbLine
 10
321.345299
 20
134.726382
 30
0.0
 11
315.154701
 21
134.726382
 31
0.0
  0
LINE
  5
347
100
AcDbEntity
  8
LAY-1
  6
CONTINUOUS
 62
     2
100
AcDbLine
 10
321.345299
 20
130.883288
 30
0.0
 11
315.154701
 21
130.883288
 31
0.0
  0
ARC
  5
348
100
AcDbEntity
  8
LAY-1
  6
CONTINUOUS
 62
     2
100
AcDbCircle
 10
324.104984
 20
126.191644
 30
0.0
 40
10.105399
100
AcDbArc
 50
152.336945
 51
207.663055
  0
ARC
  5
349
100
AcDbEntity
  8
LAY-1
  6
CONTINUOUS
 62
     2
100
AcDbCircle
 10
312.407283
 20
126.191644
 30
0.0
 40
10.094536
100
AcDbArc
 50
332.30462
 51
27.69538
  0
ARC
  5
34A
100
AcDbEntity
  8
LAY-1
  6
CONTINUOUS
 62
     2
100
AcDbCircle
 10
351.816443
 20
144.0
 30
0.0
 40
37.816443
100
AcDbArc
 50
180.0
 51
194.195258
  0
ARC
  5
34B
100
AcDbEntity
  8
LAY-1
  6
CONTINUOUS
 62
     2
100
AcDbCircle
 10
284.683557
 20
144.0
 30
0.0
 40
37.816443
100
AcDbArc
 50
345.804742
 51
0.0
  0
LINE
  5
34C
100
AcDbEntity
  8
LAY-1
  6
CONTINUOUS
 62
     2
100
AcDbLine
 10
314.0
 20
144.0
 30
0.0
 11
314.0
 21
164.5
 31
0.0
  0
LINE
  5
34D
100
AcDbEntity
  8
LAY-1
  6
CONTINUOUS
 62
     2
100
AcDbLine
 10
322.5
 20
164.5
 30
0.0
 11
322.5
 21
144.0
 31
0.0
  0
LINE
  5
34E
100
AcDbEntity
  8
LAY-1
  6
CONTINUOUS
 62
     2
100
AcDbLine
 10
314.0
 20
164.5
 30
0.0
 11
315.154701
 21
166.5
 31
0.0
  0
LINE
  5
34F
100
AcDbEntity
  8
LAY-1
  6
CONTINUOUS
 62
     2
100
AcDbLine
 10
322.5
 20
164.5
 30
0.0
 11
321.345299
 21
166.5
 31
0.0
  0
LINE
  5
350
100
AcDbEntity
  8
LAY-1
  6
CONTINUOUS
 62
     2
100
AcDbLine
 10
315.154701
 20
166.5
 30
0.0
 11
321.345299
 21
166.5
 31
0.0
  0
LINE
  5
351
100
AcDbEntity
  8
LAY-1
  6
CONTINUOUS
 62
     2
100
AcDbLine
 10
314.0
 20
155.4585
 30
0.0
 11
314.0
 21
158.0
 31
0.0
  0
LINE
  5
352
100
AcDbEntity
  8
LAY-1
  6
CONTINUOUS
 62
     2
100
AcDbLine
 10
314.0
 20
144.0
 30
0.0
 11
314.0
 21
157.5
 31
0.0
  0
ARC
  5
353
100
AcDbEntity
  8
LAY-1
  6
CONTINUOUS
 62
     2
100
AcDbCircle
 10
409.0
 20
144.0
 30
0.0
 40
100.0
100
AcDbArc
 50
172.45452
 51
180.0
  0
LINE
  5
354
100
AcDbEntity
  8
LAY-1
  6
CONTINUOUS
 62
     2
100
AcDbLine
 10
310.857247
 20
158.0
 30
0.0
 11
314.0
 21
158.0
 31
0.0
  0
ARC
  5
355
100
AcDbEntity
  8
LAY-1
  6
CONTINUOUS
 62
     2
100
AcDbCircle
 10
310.857247
 20
157.0
 30
0.0
 40
1.0
100
AcDbArc
 50
90.0
 51
172.45452
  0
LINE
  5
356
100
AcDbEntity
  8
LAY-1
  6
CONTINUOUS
 62
     2
100
AcDbLine
 10
314.0
 20
155.4585
 30
0.0
 11
314.0
 21
158.0
 31
0.0
  0
LINE
  5
357
100
AcDbEntity
  8
LAY-1
  6
CONTINUOUS
 62
     2
100
AcDbLine
 10
310.0
 20
145.0
 30
0.0
 11
314.0
 21
145.0
 31
0.0
  0
LINE
  5
358
100
AcDbEntity
  8
LAY-1
  6
CONTINUOUS
 62
     2
100
AcDbLine
 10
311.0
 20
149.865431
 30
0.0
 11
314.0
 21
149.865431
 31
0.0
  0
ARC
  5
359
100
AcDbEntity
  8
LAY-1
  6
CONTINUOUS
 62
     2
100
AcDbCircle
 10
311.0
 20
148.865431
 30
0.0
 40
1.0
100
AcDbArc
 50
90.0
 51
180.0
  0
LINE
  5
35A
100
AcDbEntity
  8
LAY-1
  6
CONTINUOUS
 62
     2
100
AcDbLine
 10
311.0
 20
150.116095
 30
0.0
 11
314.0
 21
150.116095
 31
0.0
  0
ARC
  5
35B
100
AcDbEntity
  8
LAY-1
  6
CONTINUOUS
 62
     2
100
AcDbCircle
 10
311.0
 20
149.116095
 30
0.0
 40
1.0
100
AcDbArc
 50
90.0
 51
180.0
  0
LINE
  5
35C
100
AcDbEntity
  8
LAY-1
  6
CONTINUOUS
 62
     2
100
AcDbLine
 10
311.0
 20
151.848145
 30
0.0
 11
314.0
 21
151.848145
 31
0.0
  0
ARC
  5
35D
100
AcDbEntity
  8
LAY-1
  6
CONTINUOUS
 62
     2
100
AcDbCircle
 10
311.0
 20
150.848145
 30
0.0
 40
1.0
100
AcDbArc
 50
90.0
 51
180.0
  0
LINE
  5
35E
100
AcDbEntity
  8
LAY-1
  6
CONTINUOUS
 62
     2
100
AcDbLine
 10
311.0
 20
155.159224
 30
0.0
 11
314.0
 21
155.159224
 31
0.0
  0
ARC
  5
35F
100
AcDbEntity
  8
LAY-1
  6
CONTINUOUS
 62
     2
100
AcDbCircle
 10
311.0
 20
154.159224
 30
0.0
 40
1.0
100
AcDbArc
 50
90.0
 51
180.0
  0
LINE
  5
360
100
AcDbEntity
  8
LAY-1
  6
CONTINUOUS
 62
     2
100
AcDbLine
 10
311.0
 20
155.593387
 30
0.0
 11
314.0
 21
155.593387
 31
0.0
  0
ARC
  5
361
100
AcDbEntity
  8
LAY-1
  6
CONTINUOUS
 62
     2
100
AcDbCircle
 10
311.0
 20
154.593387
 30
0.0
 40
1.0
100
AcDbArc
 50
90.0
 51
180.0
  0
LINE
  5
362
100
AcDbEntity
  8
LAY-1
  6
CONTINUOUS
 62
     2
100
AcDbLine
 10
311.0
 20
156.593387
 30
0.0
 11
314.0
 21
156.593387
 31
0.0
  0
ARC
  5
363
100
AcDbEntity
  8
LAY-1
  6
CONTINUOUS
 62
     2
100
AcDbCircle
 10
311.0
 20
155.593387
 30
0.0
 40
1.0
100
AcDbArc
 50
90.0
 51
180.0
  0
LINE
  5
364
100
AcDbEntity
  8
LAY-1
  6
CONTINUOUS
 62
     2
100
AcDbLine
 10
311.0
 20
157.462912
 30
0.0
 11
314.0
 21
157.462912
 31
0.0
  0
ARC
  5
365
100
AcDbEntity
  8
LAY-1
  6
CONTINUOUS
 62
     2
100
AcDbCircle
 10
311.0
 20
156.462912
 30
0.0
 40
1.0
100
AcDbArc
 50
90.0
 51
180.0
  0
LINE
  5
366
100
AcDbEntity
  8
LAY-1
  6
CONTINUOUS
 62
     2
100
AcDbLine
 10
310.0
 20
148.865431
 30
0.0
 11
310.0
 21
149.116095
 31
0.0
  0
LINE
  5
367
100
AcDbEntity
  8
LAY-1
  6
CONTINUOUS
 62
     2
100
AcDbLine
 10
310.0
 20
154.159224
 30
0.0
 11
310.0
 21
154.593387
 31
0.0
  0
LINE
  5
368
100
AcDbEntity
  8
LAY-1
  6
CONTINUOUS
 62
     2
100
AcDbLine
 10
315.154701
 20
157.116712
 30
0.0
 11
315.154701
 21
153.273618
 31
0.0
  0
LINE
  5
369
100
AcDbEntity
  8
LAY-1
  6
CONTINUOUS
 62
     2
100
AcDbLine
 10
321.345299
 20
157.116712
 30
0.0
 11
321.345299
 21
153.273618
 31
0.0
  0
LINE
  5
36A
100
AcDbEntity
  8
LAY-1
  6
CONTINUOUS
 62
     2
100
AcDbLine
 10
321.345299
 20
153.273618
 30
0.0
 11
315.154701
 21
153.273618
 31
0.0
  0
LINE
  5
36B
100
AcDbEntity
  8
LAY-1
  6
CONTINUOUS
 62
     2
100
AcDbLine
 10
321.345299
 20
157.116712
 30
0.0
 11
315.154701
 21
157.116712
 31
0.0
  0
ARC
  5
36C
100
AcDbEntity
  8
LAY-1
  6
CONTINUOUS
 62
     2
100
AcDbCircle
 10
324.104984
 20
161.808356
 30
0.0
 40
10.105399
100
AcDbArc
 50
152.336945
 51
207.663055
  0
ARC
  5
36D
100
AcDbEntity
  8
LAY-1
  6
CONTINUOUS
 62
     2
100
AcDbCircle
 10
312.407283
 20
161.808356
 30
0.0
 40
10.094536
100
AcDbArc
 50
332.30462
 51
27.69538
  0
ARC
  5
36E
100
AcDbEntity
  8
LAY-1
  6
CONTINUOUS
 62
     2
100
AcDbCircle
 10
351.816443
 20
144.0
 30
0.0
 40
37.816443
100
AcDbArc
 50
165.804742
 51
180.0
  0
ARC
  5
36F
100
AcDbEntity
  8
LAY-1
  6
CONTINUOUS
 62
     2
100
AcDbCircle
 10
284.683557
 20
144.0
 30
0.0
 40
37.816443
100
AcDbArc
 50
0.0
 51
14.195258
  0
LINE
  5
370
100
AcDbEntity
  8
LAY-1
  6
CONTINUOUS
 62
     2
100
AcDbLine
 10
376.922732
 20
107.570036
 30
0.0
 11
377.033982
 21
106.828162
 31
0.0
  0
ARC
  5
371
100
AcDbEntity
  8
LAY-1
  6
CONTINUOUS
 62
     2
100
AcDbCircle
 10
376.539511
 20
106.754012
 30
0.0
 40
0.5
100
AcDbArc
 50
306.433521
 51
8.528444
  0
ARC
  5
372
100
AcDbEntity
  8
LAY-1
  6
CONTINUOUS
 62
     2
100
AcDbCircle
 10
376.473315
 20
106.695438
 30
0.0
 40
0.5
100
AcDbArc
 50
313.192882
 51
316.575505
  0
ARC
  5
373
100
AcDbEntity
  8
LAY-1
  6
CONTINUOUS
 62
     2
100
AcDbCircle
 10
377.5
 20
105.601857
 30
0.0
 40
1.0
100
AcDbArc
 50
133.192882
 51
180.0
  0
LINE
  5
374
100
AcDbEntity
  8
LAY-1
  6
CONTINUOUS
 62
     2
100
AcDbLine
 10
376.670643
 20
109.25109
 30
0.0
 11
376.922732
 21
107.570036
 31
0.0
  0
ARC
  5
375
100
AcDbEntity
  8
LAY-1
  6
CONTINUOUS
 62
     2
100
AcDbCircle
 10
390.356726
 20
98.902183
 30
0.0
 40
12.0
100
AcDbArc
 50
188.528444
 51
248.840799
  0
LINE
  5
376
100
AcDbEntity
  8
LAY-1
  6
CONTINUOUS
 62
     2
100
AcDbLine
 10
376.5
 20
78.463393
 30
0.0
 11
376.5
 21
105.601857
 31
0.0
  0
LINE
  5
377
100
AcDbEntity
  8
LAY-1
  6
CONTINUOUS
 62
     2
100
AcDbLine
 10
387.5
 20
76.032625
 30
0.0
 11
387.5
 21
76.147887
 31
0.0
  0
ARC
  5
378
100
AcDbEntity
  8
LAY-1
  6
CONTINUOUS
 62
     2
100
AcDbCircle
 10
377.5
 20
78.463393
 30
0.0
 40
1.0
100
AcDbArc
 50
180.0
 51
268.0
  0
LINE
  5
379
100
AcDbEntity
  8
LAY-1
  6
CONTINUOUS
 62
     2
100
AcDbLine
 10
377.465101
 20
77.464002
 30
0.0
 11
386.534899
 21
77.147278
 31
0.0
  0
ARC
  5
37A
100
AcDbEntity
  8
LAY-1
  6
CONTINUOUS
 62
     2
100
AcDbCircle
 10
386.5
 20
76.147887
 30
0.0
 40
1.0
100
AcDbArc
 50
0.0
 51
88.0
  0
LINE
  5
37B
100
AcDbEntity
  8
LAY-1
  6
CONTINUOUS
 62
     2
100
AcDbLine
 10
387.5
 20
76.032625
 30
0.0
 11
387.5
 21
76.147887
 31
0.0
  0
ARC
  5
37C
100
AcDbEntity
  8
LAY-1
  6
CONTINUOUS
 62
     2
100
AcDbCircle
 10
388.5
 20
76.032625
 30
0.0
 40
1.0
100
AcDbArc
 50
180.0
 51
270.0
  0
LINE
  5
37D
100
AcDbEntity
  8
LAY-1
  6
CONTINUOUS
 62
     2
100
AcDbLine
 10
431.5
 20
54.7
 30
0.0
 11
427.5
 21
54.7
 31
0.0
  0
LINE
  5
37E
100
AcDbEntity
  8
LAY-1
  6
CONTINUOUS
 62
     2
100
AcDbLine
 10
431.5
 20
64.7
 30
0.0
 11
431.5
 21
54.7
 31
0.0
  0
LINE
  5
37F
100
AcDbEntity
  8
LAY-1
  6
CONTINUOUS
 62
     2
100
AcDbLine
 10
427.5
 20
54.7
 30
0.0
 11
427.5
 21
64.7
 31
0.0
  0
LINE
  5
380
100
AcDbEntity
  8
LAY-1
  6
CONTINUOUS
 62
     2
100
AcDbLine
 10
427.5
 20
64.7
 30
0.0
 11
424.5
 21
64.7
 31
0.0
  0
LINE
  5
381
100
AcDbEntity
  8
LAY-1
  6
CONTINUOUS
 62
     2
100
AcDbLine
 10
424.5
 20
64.7
 30
0.0
 11
429.5
 21
69.7
 31
0.0
  0
LINE
  5
382
100
AcDbEntity
  8
LAY-1
  6
CONTINUOUS
 62
     2
100
AcDbLine
 10
429.5
 20
69.7
 30
0.0
 11
434.5
 21
64.7
 31
0.0
  0
LINE
  5
383
100
AcDbEntity
  8
LAY-1
  6
CONTINUOUS
 62
     2
100
AcDbLine
 10
434.5
 20
64.7
 30
0.0
 11
431.5
 21
64.7
 31
0.0
  0
LINE
  5
384
100
AcDbEntity
  8
LAY-1
  6
CONTINUOUS
 62
     2
100
AcDbLine
 10
431.5
 20
216.801553
 30
0.0
 11
427.5
 21
216.801553
 31
0.0
  0
LINE
  5
385
100
AcDbEntity
  8
LAY-1
  6
CONTINUOUS
 62
     2
100
AcDbLine
 10
431.5
 20
226.801553
 30
0.0
 11
431.5
 21
216.801553
 31
0.0
  0
LINE
  5
386
100
AcDbEntity
  8
LAY-1
  6
CONTINUOUS
 62
     2
100
AcDbLine
 10
434.5
 20
226.801553
 30
0.0
 11
431.5
 21
226.801553
 31
0.0
  0
LINE
  5
387
100
AcDbEntity
  8
LAY-1
  6
CONTINUOUS
 62
     2
100
AcDbLine
 10
429.5
 20
231.801553
 30
0.0
 11
434.5
 21
226.801553
 31
0.0
  0
LINE
  5
388
100
AcDbEntity
  8
LAY-1
  6
CONTINUOUS
 62
     2
100
AcDbLine
 10
424.5
 20
226.801553
 30
0.0
 11
429.5
 21
231.801553
 31
0.0
  0
LINE
  5
389
100
AcDbEntity
  8
LAY-1
  6
CONTINUOUS
 62
     2
100
AcDbLine
 10
427.5
 20
226.801553
 30
0.0
 11
424.5
 21
226.801553
 31
0.0
  0
LINE
  5
38A
100
AcDbEntity
  8
LAY-1
  6
CONTINUOUS
 62
     2
100
AcDbLine
 10
427.5
 20
216.801553
 30
0.0
 11
427.5
 21
226.801553
 31
0.0
  0
LINE
  5
38B
100
AcDbEntity
  8
LAY-1
  6
CONTINUOUS
 62
     2
100
AcDbLine
 10
376.670643
 20
178.781535
 30
0.0
 11
376.922732
 21
180.46259
 31
0.0
  0
ARC
  5
38C
100
AcDbEntity
  8
LAY-1
  6
CONTINUOUS
 62
     2
100
AcDbCircle
 10
360.847565
 20
181.154341
 30
0.0
 40
16.0
100
AcDbArc
 50
271.0
 51
351.471556
  0
ARC
  5
38D
100
AcDbEntity
  8
LAY-1
  6
CONTINUOUS
 62
     2
100
AcDbCircle
 10
390.356726
 20
189.130442
 30
0.0
 40
12.0
100
AcDbArc
 50
108.827525
 51
116.066617
  0
ARC
  5
38E
100
AcDbEntity
  8
LAY-1
  6
CONTINUOUS
 62
     2
100
AcDbCircle
 10
386.0
 20
201.908116
 30
0.0
 40
1.5
100
AcDbArc
 50
288.827525
 51
0.0
  0
LINE
  5
38F
100
AcDbEntity
  8
LAY-1
  6
CONTINUOUS
 62
     2
100
AcDbLine
 10
387.5
 20
211.384738
 30
0.0
 11
387.5
 21
201.908116
 31
0.0
  0
LINE
  5
390
100
AcDbEntity
  8
LAY-1
  6
CONTINUOUS
 62
     2
100
AcDbLine
 10
387.5
 20
212.0
 30
0.0
 11
387.5
 21
211.384738
 31
0.0
  0
ARC
  5
391
100
AcDbEntity
  8
LAY-1
  6
CONTINUOUS
 62
     2
100
AcDbCircle
 10
388.5
 20
212.0
 30
0.0
 40
1.0
100
AcDbArc
 50
90.0
 51
180.0
  0
LINE
  5
392
100
AcDbEntity
  8
LAY-1
  6
CONTINUOUS
 62
     2
100
AcDbLine
 10
323.5
 20
164.5
 30
0.0
 11
360.639619
 21
165.148274
 31
0.0
  0
ARC
  5
393
100
AcDbEntity
  8
LAY-1
  6
CONTINUOUS
 62
     2
100
AcDbCircle
 10
360.847565
 20
106.845659
 30
0.0
 40
16.0
100
AcDbArc
 50
8.528444
 51
89.0
  0
LINE
  5
394
100
AcDbEntity
  8
LAY-1
  6
CONTINUOUS
 62
     2
100
AcDbLine
 10
323.5
 20
123.5
 30
0.0
 11
361.126804
 21
122.843222
 31
0.0
  0
LINE
  5
395
100
AcDbEntity
  8
LAY-1
  6
CONTINUOUS
 62
     2
100
AcDbLine
 10
462.5
 20
185.5
 30
0.0
 11
464.5
 21
185.5
 31
0.0
  0
LINE
  5
396
100
AcDbEntity
  8
LAY-1
  6
CONTINUOUS
 62
     2
100
AcDbLine
 10
462.5
 20
102.5
 30
0.0
 11
464.5
 21
102.5
 31
0.0
  0
LINE
  5
397
100
AcDbEntity
  8
LAY-1
  6
CONTINUOUS
 62
     2
100
AcDbLine
 10
467.5
 20
133.41955
 30
0.0
 11
467.5
 21
144.0
 31
0.0
  0
ARC
  5
398
100
AcDbEntity
  8
LAY-1
  6
CONTINUOUS
 62
     2
100
AcDbCircle
 10
465.0
 20
130.37327
 30
0.0
 40
0.5
100
AcDbArc
 50
100.0
 51
180.0
  0
LINE
  5
399
100
AcDbEntity
  8
LAY-1
  6
CONTINUOUS
 62
     2
100
AcDbLine
 10
464.913176
 20
130.865674
 30
0.0
 11
465.43412
 21
130.95753
 31
0.0
  0
LINE
  5
39A
100
AcDbEntity
  8
LAY-1
  6
CONTINUOUS
 62
     2
100
AcDbLine
 10
467.5
 20
154.58045
 30
0.0
 11
467.5
 21
144.0
 31
0.0
  0
ARC
  5
39B
100
AcDbEntity
  8
LAY-1
  6
CONTINUOUS
 62
     2
100
AcDbCircle
 10
465.0
 20
154.58045
 30
0.0
 40
2.5
100
AcDbArc
 50
0.0
 51
80.0
  0
ARC
  5
39C
100
AcDbEntity
  8
LAY-1
  6
CONTINUOUS
 62
     2
100
AcDbCircle
 10
465.0
 20
157.62673
 30
0.0
 40
0.5
100
AcDbArc
 50
180.0
 51
260.0
  0
LINE
  5
39D
100
AcDbEntity
  8
LAY-1
  6
CONTINUOUS
 62
     2
100
AcDbLine
 10
464.913176
 20
157.134326
 30
0.0
 11
465.43412
 21
157.04247
 31
0.0
  0
LINE
  5
39E
100
AcDbEntity
  8
LAY-1
  6
CONTINUOUS
 62
     2
100
AcDbLine
 10
452.5
 20
76.0
 30
0.0
 11
452.5
 21
93.171573
 31
0.0
  0
LINE
  5
39F
100
AcDbEntity
  8
LAY-1
  6
CONTINUOUS
 62
     2
100
AcDbLine
 10
451.914214
 20
94.585786
 30
0.0
 11
450.085786
 21
96.414214
 31
0.0
  0
LINE
  5
3A0
100
AcDbEntity
  8
LAY-1
  6
CONTINUOUS
 62
     2
100
AcDbLine
 10
408.5
 20
214.0
 30
0.0
 11
450.5
 21
214.0
 31
0.0
  0
ARC
  5
3A1
100
AcDbEntity
  8
LAY-1
  6
CONTINUOUS
 62
     2
100
AcDbCircle
 10
405.854249
 20
215.0
 30
0.0
 40
2.0
100
AcDbArc
 50
270.0
 51
311.409622
  0
ARC
  5
3A2
100
AcDbEntity
  8
LAY-1
  6
CONTINUOUS
 62
     2
100
AcDbCircle
 10
408.5
 20
212.0
 30
0.0
 40
2.0
100
AcDbArc
 50
90.0
 51
131.409622
  0
LINE
  5
3A3
100
AcDbEntity
  8
LAY-1
  6
CONTINUOUS
 62
     2
100
AcDbLine
 10
408.5
 20
74.0
 30
0.0
 11
450.5
 21
74.0
 31
0.0
  0
ARC
  5
3A4
100
AcDbEntity
  8
LAY-1
  6
CONTINUOUS
 62
     2
100
AcDbCircle
 10
405.854249
 20
73.0
 30
0.0
 40
2.0
100
AcDbArc
 50
48.590378
 51
90.0
  0
ARC
  5
3A5
100
AcDbEntity
  8
LAY-1
  6
CONTINUOUS
 62
     2
100
AcDbCircle
 10
408.5
 20
76.0
 30
0.0
 40
2.0
100
AcDbArc
 50
228.590378
 51
270.0
  0
ARC
  5
3A6
100
AcDbEntity
  8
LAY-1
  6
CONTINUOUS
 62
     2
100
AcDbCircle
 10
450.5
 20
212.0
 30
0.0
 40
2.0
100
AcDbArc
 50
0.0
 51
90.0
  0
LINE
  5
3A7
100
AcDbEntity
  8
LAY-1
  6
CONTINUOUS
 62
     2
100
AcDbLine
 10
452.5
 20
212.0
 30
0.0
 11
452.5
 21
194.828427
 31
0.0
  0
ARC
  5
3A8
100
AcDbEntity
  8
LAY-1
  6
CONTINUOUS
 62
     2
100
AcDbCircle
 10
450.5
 20
76.0
 30
0.0
 40
2.0
100
AcDbArc
 50
270.0
 51
0.0
  0
LINE
  5
3A9
100
AcDbEntity
  8
LAY-1
  6
CONTINUOUS
 62
     2
100
AcDbLine
 10
462.5
 20
102.5
 30
0.0
 11
452.447643
 21
102.324535
 31
0.0
  0
ARC
  5
3AA
100
AcDbEntity
  8
LAY-1
  6
CONTINUOUS
 62
     2
100
AcDbCircle
 10
452.5
 20
99.324992
 30
0.0
 40
3.0
100
AcDbArc
 50
91.0
 51
180.0
  0
ARC
  5
3AB
100
AcDbEntity
  8
LAY-1
  6
CONTINUOUS
 62
     2
100
AcDbCircle
 10
452.5
 20
188.675008
 30
0.0
 40
3.0
100
AcDbArc
 50
180.0
 51
269.0
  0
LINE
  5
3AC
100
AcDbEntity
  8
LAY-1
  6
CONTINUOUS
 62
     2
100
AcDbLine
 10
462.5
 20
185.5
 30
0.0
 11
452.447643
 21
185.675465
 31
0.0
  0
LINE
  5
3AD
100
AcDbEntity
  8
LAY-1
  6
CONTINUOUS
 62
     2
100
AcDbLine
 10
449.5
 20
190.171573
 30
0.0
 11
449.5
 21
188.675008
 31
0.0
  0
LINE
  5
3AE
100
AcDbEntity
  8
LAY-1
  6
CONTINUOUS
 62
     2
100
AcDbLine
 10
449.5
 20
97.828427
 30
0.0
 11
449.5
 21
99.5
 31
0.0
  0
ARC
  5
3AF
100
AcDbEntity
  8
LAY-1
  6
CONTINUOUS
 62
     2
100
AcDbCircle
 10
451.5
 20
190.171573
 30
0.0
 40
2.0
100
AcDbArc
 50
135.0
 51
180.0
  0
ARC
  5
3B0
100
AcDbEntity
  8
LAY-1
  6
CONTINUOUS
 62
     2
100
AcDbCircle
 10
450.5
 20
194.828427
 30
0.0
 40
2.0
100
AcDbArc
 50
315.0
 51
0.0
  0
ARC
  5
3B1
100
AcDbEntity
  8
LAY-1
  6
CONTINUOUS
 62
     2
100
AcDbCircle
 10
451.5
 20
97.828427
 30
0.0
 40
2.0
100
AcDbArc
 50
180.0
 51
225.0
  0
ARC
  5
3B2
100
AcDbEntity
  8
LAY-1
  6
CONTINUOUS
 62
     2
100
AcDbCircle
 10
450.5
 20
93.171573
 30
0.0
 40
2.0
100
AcDbArc
 50
0.0
 51
45.0
  0
LINE
  5
3B3
100
AcDbEntity
  8
LAY-1
  6
CONTINUOUS
 62
     2
100
AcDbLine
 10
405.854249
 20
213.0
 30
0.0
 11
387.9
 21
213.0
 31
0.0
  0
LINE
  5
3B4
100
AcDbEntity
  8
LAY-1
  6
CONTINUOUS
 62
     2
100
AcDbLine
 10
388.5
 20
75.0
 30
0.0
 11
405.854249
 21
75.0
 31
0.0
  0
LINE
  5
3B5
100
AcDbEntity
  8
LAY-1
  6
CONTINUOUS
 62
     2
100
AcDbLine
 10
393.5
 20
213.0
 30
0.0
 11
393.5
 21
75.0
 31
0.0
  0
LINE
  5
3B6
100
AcDbEntity
  8
LAY-1
  6
CONTINUOUS
 62
     2
100
AcDbLine
 10
462.5
 20
102.5
 30
0.0
 11
462.5
 21
185.5
 31
0.0
  0
LINE
  5
3B7
100
AcDbEntity
  8
LAY-1
  6
CONTINUOUS
 62
     2
100
AcDbLine
 10
464.5
 20
185.5
 30
0.0
 11
464.5
 21
102.5
 31
0.0
  0
LINE
  5
3B8
100
AcDbEntity
  8
LAY-1
  6
CONTINUOUS
 62
     2
100
AcDbLine
 10
376.670643
 20
109.218465
 30
0.0
 11
378.484633
 21
97.121861
 31
0.0
  0
ARC
  5
3B9
100
AcDbEntity
  8
LAY-1
  6
CONTINUOUS
 62
     2
100
AcDbCircle
 10
386.0
 20
86.124509
 30
0.0
 40
1.5
100
AcDbArc
 50
0.0
 51
71.172475
  0
ARC
  5
3BA
100
AcDbEntity
  8
LAY-1
  6
CONTINUOUS
 62
     2
100
AcDbCircle
 10
390.356726
 20
98.902183
 30
0.0
 40
12.0
100
AcDbArc
 50
248.840799
 51
251.172475
  0
LINE
  5
3BB
100
AcDbEntity
  8
LAY-1
  6
CONTINUOUS
 62
     2
100
AcDbLine
 10
387.5
 20
76.147887
 30
0.0
 11
387.5
 21
201.908116
 31
0.0
  0
ARC
  5
3BC
100
AcDbEntity
  8
LAY-1
  6
CONTINUOUS
 62
     2
100
AcDbCircle
 10
403.5
 20
184.011609
 30
0.0
 40
10.0
100
AcDbArc
 50
0.0
 51
45.0
  0
LINE
  5
3BD
100
AcDbEntity
  8
LAY-1
  6
CONTINUOUS
 62
     2
100
AcDbLine
 10
413.5
 20
184.011609
 30
0.0
 11
413.5
 21
144.0
 31
0.0
  0
ARC
  5
3BE
100
AcDbEntity
  8
LAY-1
  6
CONTINUOUS
 62
     2
100
AcDbCircle
 10
403.5
 20
103.988391
 30
0.0
 40
10.0
100
AcDbArc
 50
315.0
 51
0.0
  0
LINE
  5
3BF
100
AcDbEntity
  8
LAY-1
  6
CONTINUOUS
 62
     2
100
AcDbLine
 10
413.5
 20
103.988391
 30
0.0
 11
413.5
 21
144.0
 31
0.0
  0
ARC
  5
3C0
100
AcDbEntity
  8
LAY-1
  6
CONTINUOUS
 62
     2
100
AcDbCircle
 10
465.829165
 20
121.440602
 30
0.0
 40
1.5
100
AcDbArc
 50
30.0
 51
90.0
  0
ARC
  5
3C1
100
AcDbEntity
  8
LAY-1
  6
CONTINUOUS
 62
     2
100
AcDbCircle
 10
460.2
 20
118.190602
 30
0.0
 40
8.0
100
AcDbArc
 50
0.0
 51
30.0
  0
LINE
  5
3C2
100
AcDbEntity
  8
LAY-1
  6
CONTINUOUS
 62
     2
100
AcDbLine
 10
465.829165
 20
122.940602
 30
0.0
 11
464.5
 21
122.940602
 31
0.0
  0
ARC
  5
3C3
100
AcDbEntity
  8
LAY-1
  6
CONTINUOUS
 62
     2
100
AcDbCircle
 10
465.829165
 20
114.940602
 30
0.0
 40
1.5
100
AcDbArc
 50
270.0
 51
330.0
  0
ARC
  5
3C4
100
AcDbEntity
  8
LAY-1
  6
CONTINUOUS
 62
     2
100
AcDbCircle
 10
460.2
 20
118.190602
 30
0.0
 40
8.0
100
AcDbArc
 50
330.0
 51
0.0
  0
LINE
  5
3C5
100
AcDbEntity
  8
LAY-1
  6
CONTINUOUS
 62
     2
100
AcDbLine
 10
465.829165
 20
113.440602
 30
0.0
 11
464.5
 21
113.440602
 31
0.0
  0
ARC
  5
3C6
100
AcDbEntity
  8
LAY-1
  6
CONTINUOUS
 62
     2
100
AcDbCircle
 10
465.829165
 20
166.559398
 30
0.0
 40
1.5
100
AcDbArc
 50
270.0
 51
330.0
  0
ARC
  5
3C7
100
AcDbEntity
  8
LAY-1
  6
CONTINUOUS
 62
     2
100
AcDbCircle
 10
460.2
 20
169.809398
 30
0.0
 40
8.0
100
AcDbArc
 50
330.0
 51
0.0
  0
LINE
  5
3C8
100
AcDbEntity
  8
LAY-1
  6
CONTINUOUS
 62
     2
100
AcDbLine
 10
465.829165
 20
165.059398
 30
0.0
 11
464.5
 21
165.059398
 31
0.0
  0
ARC
  5
3C9
100
AcDbEntity
  8
LAY-1
  6
CONTINUOUS
 62
     2
100
AcDbCircle
 10
465.829165
 20
173.059398
 30
0.0
 40
1.5
100
AcDbArc
 50
30.0
 51
90.0
  0
ARC
  5
3CA
100
AcDbEntity
  8
LAY-1
  6
CONTINUOUS
 62
     2
100
AcDbCircle
 10
460.2
 20
169.809398
 30
0.0
 40
8.0
100
AcDbArc
 50
0.0
 51
30.0
  0
LINE
  5
3CB
100
AcDbEntity
  8
LAY-1
  6
CONTINUOUS
 62
     2
100
AcDbLine
 10
465.829165
 20
174.559398
 30
0.0
 11
464.5
 21
174.559398
 31
0.0
  0
LINE
  5
3CC
100
AcDbEntity
  8
LAY-1
  6
CONTINUOUS
 62
     2
100
AcDbLine
 10
451.334672
 20
94.0
 30
0.0
 11
407.653745
 21
94.0
 31
0.0
  0
LINE
  5
3CD
100
AcDbEntity
  8
LAY-1
  6
CONTINUOUS
 62
     2
100
AcDbLine
 10
451.334672
 20
194.0
 30
0.0
 11
407.653745
 21
194.0
 31
0.0
  0
LINE
  5
3CE
100
AcDbEntity
  8
LAY-1
  6
CONTINUOUS
 62
     2
100
AcDbLine
 10
451.914214
 20
193.414214
 30
0.0
 11
450.085786
 21
191.585786
 31
0.0
  0
ARC
  5
3CF
100
AcDbEntity
  8
LAY-1
  6
CONTINUOUS
 62
     2
100
AcDbCircle
 10
437.211495
 20
239.799595
 30
0.0
 40
48.833352
100
AcDbArc
 50
272.130505
 51
286.315123
  0
LINE
  5
3D0
100
AcDbEntity
  8
LAY-1
  6
CONTINUOUS
 62
     2
100
AcDbLine
 10
439.026912
 20
214.0
 30
0.0
 11
439.026912
 21
194.0
 31
0.0
  0
LINE
  5
3D1
100
AcDbEntity
  8
LAY-1
  6
CONTINUOUS
 62
     2
100
AcDbLine
 10
439.026912
 20
191.0
 30
0.0
 11
410.571068
 21
191.0
 31
0.0
  0
ARC
  5
3D2
100
AcDbEntity
  8
LAY-1
  6
CONTINUOUS
 62
     2
100
AcDbCircle
 10
437.211495
 20
48.200405
 30
0.0
 40
48.833352
100
AcDbArc
 50
73.684877
 51
87.869495
  0
LINE
  5
3D3
100
AcDbEntity
  8
LAY-1
  6
CONTINUOUS
 62
     2
100
AcDbLine
 10
439.026912
 20
97.0
 30
0.0
 11
410.571068
 21
97.0
 31
0.0
  0
LINE
  5
3D4
100
AcDbEntity
  8
LAY-1
  6
CONTINUOUS
 62
     2
100
AcDbLine
 10
439.026912
 20
74.0
 30
0.0
 11
439.026912
 21
94.0
 31
0.0
  0
ARC
  5
3D5
100
AcDbEntity
  8
LAY-1
  6
CONTINUOUS
 62
     2
100
AcDbCircle
 10
465.0
 20
133.41955
 30
0.0
 40
2.5
100
AcDbArc
 50
280.0
 51
0.0
  0
LINE
  5
3D6
100
AcDbEntity
  8
LAY-1
  6
CONTINUOUS
 62
     2
100
AcDbLine
 10
419.973088
 20
214.0
 30
0.0
 11
419.973088
 21
209.053824
 31
0.0
  0
LINE
  5
3D7
100
AcDbEntity
  8
LAY-1
  6
CONTINUOUS
 62
     2
100
AcDbLine
 10
403.29355
 20
198.360195
 30
0.0
 11
410.571068
 21
191.082677
 31
0.0
  0
LINE
  5
3D8
100
AcDbEntity
  8
LAY-1
  6
CONTINUOUS
 62
     2
100
AcDbLine
 10
399.5
 20
209.053824
 30
0.0
 11
419.973088
 21
209.053824
 31
0.0
  0
LINE
  5
3D9
100
AcDbEntity
  8
LAY-1
  6
CONTINUOUS
 62
     2
100
AcDbLine
 10
399.5
 20
209.053824
 30
0.0
 11
399.5
 21
144.0
 31
0.0
  0
ARC
  5
3DA
100
AcDbEntity
  8
LAY-1
  6
CONTINUOUS
 62
     2
100
AcDbCircle
 10
404.5
 20
205.896385
 30
0.0
 40
2.0
100
AcDbArc
 50
0.0
 51
90.0
  0
LINE
  5
3DB
100
AcDbEntity
  8
LAY-1
  6
CONTINUOUS
 62
     2
100
AcDbLine
 10
399.5
 20
207.896385
 30
0.0
 11
404.5
 21
207.896385
 31
0.0
  0
LINE
  5
3DC
100
AcDbEntity
  8
LAY-1
  6
CONTINUOUS
 62
     2
100
AcDbLine
 10
406.5
 20
205.896385
 30
0.0
 11
406.5
 21
203.12829
 31
0.0
  0
LINE
  5
3DD
100
AcDbEntity
  8
LAY-1
  6
CONTINUOUS
 62
     2
100
AcDbLine
 10
406.5
 20
200.360195
 30
0.0
 11
406.5
 21
203.12829
 31
0.0
  0
ARC
  5
3DE
100
AcDbEntity
  8
LAY-1
  6
CONTINUOUS
 62
     2
100
AcDbCircle
 10
404.5
 20
200.360195
 30
0.0
 40
2.0
100
AcDbArc
 50
270.0
 51
0.0
  0
LINE
  5
3DF
100
AcDbEntity
  8
LAY-1
  6
CONTINUOUS
 62
     2
100
AcDbLine
 10
399.5
 20
198.360195
 30
0.0
 11
404.5
 21
198.360195
 31
0.0
  0
LINE
  5
3E0
100
AcDbEntity
  8
LAY-1
  6
CONTINUOUS
 62
     2
100
AcDbLine
 10
419.973088
 20
209.053824
 30
0.0
 11
406.5
 21
213.107117
 31
0.0
  0
LINE
  5
3E1
100
AcDbEntity
  8
LAY-1
  6
CONTINUOUS
 62
     2
100
AcDbLine
 10
419.973088
 20
74.0
 30
0.0
 11
419.973088
 21
78.946176
 31
0.0
  0
LINE
  5
3E2
100
AcDbEntity
  8
LAY-1
  6
CONTINUOUS
 62
     2
100
AcDbLine
 10
419.973088
 20
78.946176
 30
0.0
 11
406.5
 21
74.892883
 31
0.0
  0
LINE
  5
3E3
100
AcDbEntity
  8
LAY-1
  6
CONTINUOUS
 62
     2
100
AcDbLine
 10
399.5
 20
78.946176
 30
0.0
 11
419.973088
 21
78.946176
 31
0.0
  0
ARC
  5
3E4
100
AcDbEntity
  8
LAY-1
  6
CONTINUOUS
 62
     2
100
AcDbCircle
 10
404.5
 20
82.103615
 30
0.0
 40
2.0
100
AcDbArc
 50
270.0
 51
0.0
  0
LINE
  5
3E5
100
AcDbEntity
  8
LAY-1
  6
CONTINUOUS
 62
     2
100
AcDbLine
 10
399.5
 20
80.103615
 30
0.0
 11
404.5
 21
80.103615
 31
0.0
  0
LINE
  5
3E6
100
AcDbEntity
  8
LAY-1
  6
CONTINUOUS
 62
     2
100
AcDbLine
 10
406.5
 20
82.103615
 30
0.0
 11
406.5
 21
84.87171
 31
0.0
  0
LINE
  5
3E7
100
AcDbEntity
  8
LAY-1
  6
CONTINUOUS
 62
     2
100
AcDbLine
 10
406.5
 20
87.639805
 30
0.0
 11
406.5
 21
84.87171
 31
0.0
  0
ARC
  5
3E8
100
AcDbEntity
  8
LAY-1
  6
CONTINUOUS
 62
     2
100
AcDbCircle
 10
404.5
 20
87.639805
 30
0.0
 40
2.0
100
AcDbArc
 50
0.0
 51
90.0
  0
LINE
  5
3E9
100
AcDbEntity
  8
LAY-1
  6
CONTINUOUS
 62
     2
100
AcDbLine
 10
399.5
 20
89.639805
 30
0.0
 11
404.5
 21
89.639805
 31
0.0
  0
LINE
  5
3EA
100
AcDbEntity
  8
LAY-1
  6
CONTINUOUS
 62
     2
100
AcDbLine
 10
403.29355
 20
89.639805
 30
0.0
 11
410.571068
 21
96.917323
 31
0.0
  0
LINE
  5
3EB
100
AcDbEntity
  8
LAY-1
  6
CONTINUOUS
 62
     2
100
AcDbLine
 10
399.5
 20
78.946176
 30
0.0
 11
399.5
 21
144.0
 31
0.0
  0
LINE
  5
3EC
100
AcDbEntity
  8
LAY-1
  6
CONTINUOUS
 62
     2
100
AcDbLine
 10
376.922732
 20
180.46259
 30
0.0
 11
378.489417
 21
190.910047
 31
0.0
  0
ARC
  5
3ED
100
AcDbEntity
  8
LAY-1
  6
CONTINUOUS
 62
     2
100
AcDbCircle
 10
390.356726
 20
189.130442
 30
0.0
 40
12.0
100
AcDbArc
 50
116.066617
 51
171.471556
  0
LINE
  5
3EE
100
AcDbEntity
  8
LAY-1
  6
CONTINUOUS
 62
     2
100
AcDbLine
 10
385.362803
 20
89.62171
 30
0.0
 11
387.5
 21
89.62171
 31
0.0
  0
LINE
  5
3EF
100
AcDbEntity
  8
LAY-1
  6
CONTINUOUS
 62
     2
100
AcDbLine
 10
385.362803
 20
80.12171
 30
0.0
 11
387.5
 21
80.12171
 31
0.0
  0
ARC
  5
3F0
100
AcDbEntity
  8
LAY-1
  6
CONTINUOUS
 62
     2
100
AcDbCircle
 10
391.8
 20
84.87171
 30
0.0
 40
8.0
100
AcDbArc
 50
143.576426
 51
216.423574
  0
ARC
  5
3F1
100
AcDbEntity
  8
LAY-1
  6
CONTINUOUS
 62
     2
100
AcDbCircle
 10
391.8
 20
119.50826
 30
0.0
 40
8.0
100
AcDbArc
 50
143.576426
 51
216.423574
  0
LINE
  5
3F2
100
AcDbEntity
  8
LAY-1
  6
CONTINUOUS
 62
     2
100
AcDbLine
 10
385.362803
 20
114.75826
 30
0.0
 11
387.5
 21
114.75826
 31
0.0
  0
LINE
  5
3F3
100
AcDbEntity
  8
LAY-1
  6
CONTINUOUS
 62
     2
100
AcDbLine
 10
385.362803
 20
124.25826
 30
0.0
 11
387.5
 21
124.25826
 31
0.0
  0
ARC
  5
3F4
100
AcDbEntity
  8
LAY-1
  6
CONTINUOUS
 62
     2
100
AcDbCircle
 10
391.8
 20
168.49174
 30
0.0
 40
8.0
100
AcDbArc
 50
143.576426
 51
216.423574
  0
LINE
  5
3F5
100
AcDbEntity
  8
LAY-1
  6
CONTINUOUS
 62
     2
100
AcDbLine
 10
385.362803
 20
173.24174
 30
0.0
 11
387.5
 21
173.24174
 31
0.0
  0
LINE
  5
3F6
100
AcDbEntity
  8
LAY-1
  6
CONTINUOUS
 62
     2
100
AcDbLine
 10
385.362803
 20
163.74174
 30
0.0
 11
387.5
 21
163.74174
 31
0.0
  0
LINE
  5
3F7
100
AcDbEntity
  8
LAY-1
  6
CONTINUOUS
 62
     2
100
AcDbLine
 10
385.362803
 20
198.37829
 30
0.0
 11
387.5
 21
198.37829
 31
0.0
  0
LINE
  5
3F8
100
AcDbEntity
  8
LAY-1
  6
CONTINUOUS
 62
     2
100
AcDbLine
 10
385.362803
 20
207.87829
 30
0.0
 11
387.5
 21
207.87829
 31
0.0
  0
ARC
  5
3F9
100
AcDbEntity
  8
LAY-1
  6
CONTINUOUS
 62
     2
100
AcDbCircle
 10
391.8
 20
203.12829
 30
0.0
 40
8.0
100
AcDbArc
 50
143.576426
 51
216.423574
  0
LINE
  5
3FA
100
AcDbEntity
  8
LAY-1
  6
EXLTYPE3
 62
     1
100
AcDbLine
 10
135.0
 20
-73.5
 30
0.0
 11
135.0
 21
-99.309344
 31
0.0
  0
LINE
  5
3FB
100
AcDbEntity
  8
LAY-1
  6
EXLTYPE3
 62
     1
100
AcDbLine
 10
190.0
 20
-96.5
 30
0.0
 11
160.0
 21
-96.5
 31
0.0
  0
LINE
  5
3FC
100
AcDbEntity
  8
LAY-1
  6
EXLTYPE3
 62
     1
100
AcDbLine
 10
190.0
 20
27.8
 30
0.0
 11
190.0
 21
-142.2
 31
0.0
  0
ARC
  5
3FD
100
AcDbEntity
  8
LAY-1
  6
CONTINUOUS
 62
     1
100
AcDbCircle
 10
190.0
 20
-96.5
 30
0.0
 40
16.613032
100
AcDbArc
 50
90.0
 51
270.0
  0
LINE
  5
3FE
100
AcDbEntity
  8
LAY-1
  6
EXLTYPE3
 62
     1
100
AcDbLine
 10
190.0
 20
-96.5
 30
0.0
 11
220.0
 21
-96.5
 31
0.0
  0
ARC
  5
3FF
100
AcDbEntity
  8
LAY-1
  6
CONTINUOUS
 62
     1
100
AcDbCircle
 10
190.0
 20
-96.5
 30
0.0
 40
16.613032
100
AcDbArc
 50
270.0
 51
90.0
  0
LINE
  5
400
100
AcDbEntity
  8
LAY-1
  6
CONTINUOUS
 62
     2
100
AcDbLine
 10
210.0
 20
9.5
 30
0.0
 11
210.0
 21
10.5
 31
0.0
  0
LINE
  5
401
100
AcDbEntity
  8
LAY-1
  6
CONTINUOUS
 62
     2
100
AcDbLine
 10
210.5
 20
9.5
 30
0.0
 11
207.27963
 21
9.5
 31
0.0
  0
LINE
  5
402
100
AcDbEntity
  8
LAY-1
  6
CONTINUOUS
 62
     2
100
AcDbLine
 10
169.5
 20
9.5
 30
0.0
 11
190.0
 21
9.5
 31
0.0
  0
LINE
  5
403
100
AcDbEntity
  8
LAY-1
  6
CONTINUOUS
 62
     2
100
AcDbLine
 10
209.5
 20
9.5
 30
0.0
 11
190.0
 21
9.5
 31
0.0
  0
LINE
  5
404
100
AcDbEntity
  8
LAY-1
  6
CONTINUOUS
 62
     2
100
AcDbLine
 10
170.0
 20
9.5
 30
0.0
 11
170.0
 21
10.5
 31
0.0
  0
LINE
  5
405
100
AcDbEntity
  8
LAY-1
  6
CONTINUOUS
 62
     2
100
AcDbLine
 10
169.5
 20
9.5
 30
0.0
 11
172.72037
 21
9.5
 31
0.0
  0
LINE
  5
406
100
AcDbEntity
  8
LAY-1
  6
CONTINUOUS
 62
     2
100
AcDbLine
 10
190.0
 20
19.0
 30
0.0
 11
169.5
 21
19.0
 31
0.0
  0
LINE
  5
407
100
AcDbEntity
  8
LAY-1
  6
CONTINUOUS
 62
     2
100
AcDbLine
 10
169.5
 20
10.5
 30
0.0
 11
190.0
 21
10.5
 31
0.0
  0
LINE
  5
408
100
AcDbEntity
  8
LAY-1
  6
CONTINUOUS
 62
     2
100
AcDbLine
 10
169.5
 20
19.0
 30
0.0
 11
167.5
 21
17.845299
 31
0.0
  0
LINE
  5
409
100
AcDbEntity
  8
LAY-1
  6
CONTINUOUS
 62
     2
100
AcDbLine
 10
169.5
 20
10.5
 30
0.0
 11
167.5
 21
11.654701
 31
0.0
  0
LINE
  5
40A
100
AcDbEntity
  8
LAY-1
  6
CONTINUOUS
 62
     2
100
AcDbLine
 10
167.5
 20
17.845299
 30
0.0
 11
167.5
 21
11.654701
 31
0.0
  0
LINE
  5
40B
100
AcDbEntity
  8
LAY-1
  6
CONTINUOUS
 62
     2
100
AcDbLine
 10
178.5415
 20
19.0
 30
0.0
 11
176.0
 21
19.0
 31
0.0
  0
LINE
  5
40C
100
AcDbEntity
  8
LAY-1
  6
CONTINUOUS
 62
     2
100
AcDbLine
 10
190.0
 20
19.0
 30
0.0
 11
176.5
 21
19.0
 31
0.0
  0
ARC
  5
40D
100
AcDbEntity
  8
LAY-1
  6
CONTINUOUS
 62
     2
100
AcDbCircle
 10
190.0
 20
-76.0
 30
0.0
 40
100.0
100
AcDbArc
 50
90.0
 51
97.54548
  0
LINE
  5
40E
100
AcDbEntity
  8
LAY-1
  6
CONTINUOUS
 62
     2
100
AcDbLine
 10
176.0
 20
22.142753
 30
0.0
 11
176.0
 21
19.0
 31
0.0
  0
ARC
  5
40F
100
AcDbEntity
  8
LAY-1
  6
CONTINUOUS
 62
     2
100
AcDbCircle
 10
177.0
 20
22.142753
 30
0.0
 40
1.0
100
AcDbArc
 50
97.54548
 51
180.0
  0
LINE
  5
410
100
AcDbEntity
  8
LAY-1
  6
CONTINUOUS
 62
     2
100
AcDbLine
 10
178.5415
 20
19.0
 30
0.0
 11
176.0
 21
19.0
 31
0.0
  0
LINE
  5
411
100
AcDbEntity
  8
LAY-1
  6
CONTINUOUS
 62
     2
100
AcDbLine
 10
189.0
 20
23.0
 30
0.0
 11
189.0
 21
19.0
 31
0.0
  0
LINE
  5
412
100
AcDbEntity
  8
LAY-1
  6
CONTINUOUS
 62
     2
100
AcDbLine
 10
184.134569
 20
22.0
 30
0.0
 11
184.134569
 21
19.0
 31
0.0
  0
ARC
  5
413
100
AcDbEntity
  8
LAY-1
  6
CONTINUOUS
 62
     2
100
AcDbCircle
 10
185.134569
 20
22.0
 30
0.0
 40
1.0
100
AcDbArc
 50
90.0
 51
180.0
  0
LINE
  5
414
100
AcDbEntity
  8
LAY-1
  6
CONTINUOUS
 62
     2
100
AcDbLine
 10
183.883905
 20
22.0
 30
0.0
 11
183.883905
 21
19.0
 31
0.0
  0
ARC
  5
415
100
AcDbEntity
  8
LAY-1
  6
CONTINUOUS
 62
     2
100
AcDbCircle
 10
184.883905
 20
22.0
 30
0.0
 40
1.0
100
AcDbArc
 50
90.0
 51
180.0
  0
LINE
  5
416
100
AcDbEntity
  8
LAY-1
  6
CONTINUOUS
 62
     2
100
AcDbLine
 10
182.151855
 20
22.0
 30
0.0
 11
182.151855
 21
19.0
 31
0.0
  0
ARC
  5
417
100
AcDbEntity
  8
LAY-1
  6
CONTINUOUS
 62
     2
100
AcDbCircle
 10
183.151855
 20
22.0
 30
0.0
 40
1.0
100
AcDbArc
 50
90.0
 51
180.0
  0
LINE
  5
418
100
AcDbEntity
  8
LAY-1
  6
CONTINUOUS
 62
     2
100
AcDbLine
 10
178.840776
 20
22.0
 30
0.0
 11
178.840776
 21
19.0
 31
0.0
  0
ARC
  5
419
100
AcDbEntity
  8
LAY-1
  6
CONTINUOUS
 62
     2
100
AcDbCircle
 10
179.840776
 20
22.0
 30
0.0
 40
1.0
100
AcDbArc
 50
90.0
 51
180.0
  0
LINE
  5
41A
100
AcDbEntity
  8
LAY-1
  6
CONTINUOUS
 62
     2
100
AcDbLine
 10
178.406613
 20
22.0
 30
0.0
 11
178.406613
 21
19.0
 31
0.0
  0
ARC
  5
41B
100
AcDbEntity
  8
LAY-1
  6
CONTINUOUS
 62
     2
100
AcDbCircle
 10
179.406613
 20
22.0
 30
0.0
 40
1.0
100
AcDbArc
 50
90.0
 51
180.0
  0
LINE
  5
41C
100
AcDbEntity
  8
LAY-1
  6
CONTINUOUS
 62
     2
100
AcDbLine
 10
177.406613
 20
22.0
 30
0.0
 11
177.406613
 21
19.0
 31
0.0
  0
ARC
  5
41D
100
AcDbEntity
  8
LAY-1
  6
CONTINUOUS
 62
     2
100
AcDbCircle
 10
178.406613
 20
22.0
 30
0.0
 40
1.0
100
AcDbArc
 50
90.0
 51
180.0
  0
LINE
  5
41E
100
AcDbEntity
  8
LAY-1
  6
CONTINUOUS
 62
     2
100
AcDbLine
 10
176.537088
 20
22.0
 30
0.0
 11
176.537088
 21
19.0
 31
0.0
  0
ARC
  5
41F
100
AcDbEntity
  8
LAY-1
  6
CONTINUOUS
 62
     2
100
AcDbCircle
 10
177.537088
 20
22.0
 30
0.0
 40
1.0
100
AcDbArc
 50
90.0
 51
180.0
  0
LINE
  5
420
100
AcDbEntity
  8
LAY-1
  6
CONTINUOUS
 62
     2
100
AcDbLine
 10
185.134569
 20
23.0
 30
0.0
 11
184.883905
 21
23.0
 31
0.0
  0
LINE
  5
421
100
AcDbEntity
  8
LAY-1
  6
CONTINUOUS
 62
     2
100
AcDbLine
 10
179.840776
 20
23.0
 30
0.0
 11
179.406613
 21
23.0
 31
0.0
  0
LINE
  5
422
100
AcDbEntity
  8
LAY-1
  6
CONTINUOUS
 62
     2
100
AcDbLine
 10
176.883288
 20
17.845299
 30
0.0
 11
180.726382
 21
17.845299
 31
0.0
  0
LINE
  5
423
100
AcDbEntity
  8
LAY-1
  6
CONTINUOUS
 62
     2
100
AcDbLine
 10
176.883288
 20
11.654701
 30
0.0
 11
180.726382
 21
11.654701
 31
0.0
  0
LINE
  5
424
100
AcDbEntity
  8
LAY-1
  6
CONTINUOUS
 62
     2
100
AcDbLine
 10
180.726382
 20
11.654701
 30
0.0
 11
180.726382
 21
17.845299
 31
0.0
  0
LINE
  5
425
100
AcDbEntity
  8
LAY-1
  6
CONTINUOUS
 62
     2
100
AcDbLine
 10
176.883288
 20
11.654701
 30
0.0
 11
176.883288
 21
17.845299
 31
0.0
  0
ARC
  5
426
100
AcDbEntity
  8
LAY-1
  6
CONTINUOUS
 62
     2
100
AcDbCircle
 10
172.191644
 20
8.895016
 30
0.0
 40
10.105399
100
AcDbArc
 50
62.336945
 51
117.663055
  0
ARC
  5
427
100
AcDbEntity
  8
LAY-1
  6
CONTINUOUS
 62
     2
100
AcDbCircle
 10
172.191644
 20
20.592717
 30
0.0
 40
10.094536
100
AcDbArc
 50
242.30462
 51
297.69538
  0
ARC
  5
428
100
AcDbEntity
  8
LAY-1
  6
CONTINUOUS
 62
     2
100
AcDbCircle
 10
190.0
 20
-18.816443
 30
0.0
 40
37.816443
100
AcDbArc
 50
90.0
 51
104.195258
  0
ARC
  5
429
100
AcDbEntity
  8
LAY-1
  6
CONTINUOUS
 62
     2
100
AcDbCircle
 10
190.0
 20
48.316443
 30
0.0
 40
37.816443
100
AcDbArc
 50
255.804742
 51
270.0
  0
LINE
  5
42A
100
AcDbEntity
  8
LAY-1
  6
CONTINUOUS
 62
     2
100
AcDbLine
 10
190.0
 20
19.0
 30
0.0
 11
210.5
 21
19.0
 31
0.0
  0
LINE
  5
42B
100
AcDbEntity
  8
LAY-1
  6
CONTINUOUS
 62
     2
100
AcDbLine
 10
210.5
 20
10.5
 30
0.0
 11
190.0
 21
10.5
 31
0.0
  0
LINE
  5
42C
100
AcDbEntity
  8
LAY-1
  6
CONTINUOUS
 62
     2
100
AcDbLine
 10
210.5
 20
19.0
 30
0.0
 11
212.5
 21
17.845299
 31
0.0
  0
LINE
  5
42D
100
AcDbEntity
  8
LAY-1
  6
CONTINUOUS
 62
     2
100
AcDbLine
 10
210.5
 20
10.5
 30
0.0
 11
212.5
 21
11.654701
 31
0.0
  0
LINE
  5
42E
100
AcDbEntity
  8
LAY-1
  6
CONTINUOUS
 62
     2
100
AcDbLine
 10
212.5
 20
17.845299
 30
0.0
 11
212.5
 21
11.654701
 31
0.0
  0
LINE
  5
42F
100
AcDbEntity
  8
LAY-1
  6
CONTINUOUS
 62
     2
100
AcDbLine
 10
201.4585
 20
19.0
 30
0.0
 11
204.0
 21
19.0
 31
0.0
  0
LINE
  5
430
100
AcDbEntity
  8
LAY-1
  6
CONTINUOUS
 62
     2
100
AcDbLine
 10
190.0
 20
19.0
 30
0.0
 11
203.5
 21
19.0
 31
0.0
  0
ARC
  5
431
100
AcDbEntity
  8
LAY-1
  6
CONTINUOUS
 62
     2
100
AcDbCircle
 10
190.0
 20
-76.0
 30
0.0
 40
100.0
100
AcDbArc
 50
82.45452
 51
90.0
  0
LINE
  5
432
100
AcDbEntity
  8
LAY-1
  6
CONTINUOUS
 62
     2
100
AcDbLine
 10
204.0
 20
22.142753
 30
0.0
 11
204.0
 21
19.0
 31
0.0
  0
ARC
  5
433
100
AcDbEntity
  8
LAY-1
  6
CONTINUOUS
 62
     2
100
AcDbCircle
 10
203.0
 20
22.142753
 30
0.0
 40
1.0
100
AcDbArc
 50
0.0
 51
82.45452
  0
LINE
  5
434
100
AcDbEntity
  8
LAY-1
  6
CONTINUOUS
 62
     2
100
AcDbLine
 10
201.4585
 20
19.0
 30
0.0
 11
204.0
 21
19.0
 31
0.0
  0
LINE
  5
435
100
AcDbEntity
  8
LAY-1
  6
CONTINUOUS
 62
     2
100
AcDbLine
 10
191.0
 20
23.0
 30
0.0
 11
191.0
 21
19.0
 31
0.0
  0
LINE
  5
436
100
AcDbEntity
  8
LAY-1
  6
CONTINUOUS
 62
     2
100
AcDbLine
 10
195.865431
 20
22.0
 30
0.0
 11
195.865431
 21
19.0
 31
0.0
  0
ARC
  5
437
100
AcDbEntity
  8
LAY-1
  6
CONTINUOUS
 62
     2
100
AcDbCircle
 10
194.865431
 20
22.0
 30
0.0
 40
1.0
100
AcDbArc
 50
0.0
 51
90.0
  0
LINE
  5
438
100
AcDbEntity
  8
LAY-1
  6
CONTINUOUS
 62
     2
100
AcDbLine
 10
196.116095
 20
22.0
 30
0.0
 11
196.116095
 21
19.0
 31
0.0
  0
ARC
  5
439
100
AcDbEntity
  8
LAY-1
  6
CONTINUOUS
 62
     2
100
AcDbCircle
 10
195.116095
 20
22.0
 30
0.0
 40
1.0
100
AcDbArc
 50
0.0
 51
90.0
  0
LINE
  5
43A
100
AcDbEntity
  8
LAY-1
  6
CONTINUOUS
 62
     2
100
AcDbLine
 10
197.848145
 20
22.0
 30
0.0
 11
197.848145
 21
19.0
 31
0.0
  0
ARC
  5
43B
100
AcDbEntity
  8
LAY-1
  6
CONTINUOUS
 62
     2
100
AcDbCircle
 10
196.848145
 20
22.0
 30
0.0
 40
1.0
100
AcDbArc
 50
0.0
 51
90.0
  0
LINE
  5
43C
100
AcDbEntity
  8
LAY-1
  6
CONTINUOUS
 62
     2
100
AcDbLine
 10
201.159224
 20
22.0
 30
0.0
 11
201.159224
 21
19.0
 31
0.0
  0
ARC
  5
43D
100
AcDbEntity
  8
LAY-1
  6
CONTINUOUS
 62
     2
100
AcDbCircle
 10
200.159224
 20
22.0
 30
0.0
 40
1.0
100
AcDbArc
 50
0.0
 51
90.0
  0
LINE
  5
43E
100
AcDbEntity
  8
LAY-1
  6
CONTINUOUS
 62
     2
100
AcDbLine
 10
201.593387
 20
22.0
 30
0.0
 11
201.593387
 21
19.0
 31
0.0
  0
ARC
  5
43F
100
AcDbEntity
  8
LAY-1
  6
CONTINUOUS
 62
     2
100
AcDbCircle
 10
200.593387
 20
22.0
 30
0.0
 40
1.0
100
AcDbArc
 50
0.0
 51
90.0
  0
LINE
  5
440
100
AcDbEntity
  8
LAY-1
  6
CONTINUOUS
 62
     2
100
AcDbLine
 10
202.593387
 20
22.0
 30
0.0
 11
202.593387
 21
19.0
 31
0.0
  0
ARC
  5
441
100
AcDbEntity
  8
LAY-1
  6
CONTINUOUS
 62
     2
100
AcDbCircle
 10
201.593387
 20
22.0
 30
0.0
 40
1.0
100
AcDbArc
 50
0.0
 51
90.0
  0
LINE
  5
442
100
AcDbEntity
  8
LAY-1
  6
CONTINUOUS
 62
     2
100
AcDbLine
 10
203.462912
 20
22.0
 30
0.0
 11
203.462912
 21
19.0
 31
0.0
  0
ARC
  5
443
100
AcDbEntity
  8
LAY-1
  6
CONTINUOUS
 62
     2
100
AcDbCircle
 10
202.462912
 20
22.0
 30
0.0
 40
1.0
100
AcDbArc
 50
0.0
 51
90.0
  0
LINE
  5
444
100
AcDbEntity
  8
LAY-1
  6
CONTINUOUS
 62
     2
100
AcDbLine
 10
194.865431
 20
23.0
 30
0.0
 11
195.116095
 21
23.0
 31
0.0
  0
LINE
  5
445
100
AcDbEntity
  8
LAY-1
  6
CONTINUOUS
 62
     2
100
AcDbLine
 10
200.159224
 20
23.0
 30
0.0
 11
200.593387
 21
23.0
 31
0.0
  0
LINE
  5
446
100
AcDbEntity
  8
LAY-1
  6
CONTINUOUS
 62
     2
100
AcDbLine
 10
203.116712
 20
17.845299
 30
0.0
 11
199.273618
 21
17.845299
 31
0.0
  0
LINE
  5
447
100
AcDbEntity
  8
LAY-1
  6
CONTINUOUS
 62
     2
100
AcDbLine
 10
203.116712
 20
11.654701
 30
0.0
 11
199.273618
 21
11.654701
 31
0.0
  0
LINE
  5
448
100
AcDbEntity
  8
LAY-1
  6
CONTINUOUS
 62
     2
100
AcDbLine
 10
199.273618
 20
11.654701
 30
0.0
 11
199.273618
 21
17.845299
 31
0.0
  0
LINE
  5
449
100
AcDbEntity
  8
LAY-1
  6
CONTINUOUS
 62
     2
100
AcDbLine
 10
203.116712
 20
11.654701
 30
0.0
 11
203.116712
 21
17.845299
 31
0.0
  0
ARC
  5
44A
100
AcDbEntity
  8
LAY-1
  6
CONTINUOUS
 62
     2
100
AcDbCircle
 10
207.808356
 20
8.895016
 30
0.0
 40
10.105399
100
AcDbArc
 50
62.336945
 51
117.663055
  0
ARC
  5
44B
100
AcDbEntity
  8
LAY-1
  6
CONTINUOUS
 62
     2
100
AcDbCircle
 10
207.808356
 20
20.592717
 30
0.0
 40
10.094536
100
AcDbArc
 50
242.30462
 51
297.69538
  0
ARC
  5
44C
100
AcDbEntity
  8
LAY-1
  6
CONTINUOUS
 62
     2
100
AcDbCircle
 10
190.0
 20
-18.816443
 30
0.0
 40
37.816443
100
AcDbArc
 50
75.804742
 51
90.0
  0
ARC
  5
44D
100
AcDbEntity
  8
LAY-1
  6
CONTINUOUS
 62
     2
100
AcDbCircle
 10
190.0
 20
48.316443
 30
0.0
 40
37.816443
100
AcDbArc
 50
270.0
 51
284.195258
  0
LINE
  5
44E
100
AcDbEntity
  8
LAY-1
  6
CONTINUOUS
 62
     2
100
AcDbLine
 10
137.967375
 20
-34.155662
 30
0.0
 11
137.967375
 21
-47.51756
 31
0.0
  0
LINE
  5
44F
100
AcDbEntity
  8
LAY-1
  6
CONTINUOUS
 62
     2
100
AcDbLine
 10
140.967375
 20
-37.234505
 30
0.0
 11
140.967375
 21
-45.997742
 31
0.0
  0
LINE
  5
450
100
AcDbEntity
  8
LAY-1
  6
CONTINUOUS
 62
     2
100
AcDbLine
 10
141.795802
 20
-36.5
 30
0.0
 11
163.874446
 21
-36.5
 31
0.0
  0
LINE
  5
451
100
AcDbEntity
  8
LAY-1
  6
CONTINUOUS
 62
     2
100
AcDbLine
 10
169.467375
 20
9.5
 30
0.0
 11
168.810597
 21
-28.126804
 31
0.0
  0
ARC
  5
452
100
AcDbEntity
  8
LAY-1
  6
CONTINUOUS
 62
     2
100
AcDbCircle
 10
163.874446
 20
-32.5
 30
0.0
 40
4.0
100
AcDbArc
 50
270.0
 51
337.188358
  0
ARC
  5
453
100
AcDbEntity
  8
LAY-1
  6
CONTINUOUS
 62
     2
100
AcDbCircle
 10
152.813033
 20
-27.847565
 30
0.0
 40
16.0
100
AcDbArc
 50
278.528444
 51
359.0
  0
LINE
  5
454
100
AcDbEntity
  8
LAY-1
  6
CONTINUOUS
 62
     2
100
AcDbLine
 10
155.18584
 20
-43.670643
 30
0.0
 11
143.057328
 21
-45.489417
 31
0.0
  0
ARC
  5
455
100
AcDbEntity
  8
LAY-1
  6
CONTINUOUS
 62
     2
100
AcDbCircle
 10
144.836933
 20
-57.356726
 30
0.0
 40
12.0
100
AcDbArc
 50
98.528444
 51
151.226927
  0
ARC
  5
456
100
AcDbEntity
  8
LAY-1
  6
CONTINUOUS
 62
     2
100
AcDbCircle
 10
122.05194
 20
-68.386024
 30
0.0
 40
2.0
100
AcDbArc
 50
2.0
 51
76.28957
  0
LINE
  5
457
100
AcDbEntity
  8
LAY-1
  6
CONTINUOUS
 62
     2
100
AcDbLine
 10
124.050722
 20
-68.316225
 30
0.0
 11
124.932596
 21
-93.569799
 31
0.0
  0
ARC
  5
458
100
AcDbEntity
  8
LAY-1
  6
CONTINUOUS
 62
     2
100
AcDbCircle
 10
126.931378
 20
-93.5
 30
0.0
 40
2.0
100
AcDbArc
 50
182.0
 51
270.0
  0
LINE
  5
459
100
AcDbEntity
  8
LAY-1
  6
CONTINUOUS
 62
     2
100
AcDbLine
 10
126.931378
 20
-95.5
 30
0.0
 11
143.068622
 21
-95.5
 31
0.0
  0
LINE
  5
45A
100
AcDbEntity
  8
LAY-1
  6
CONTINUOUS
 62
     2
100
AcDbLine
 10
145.463642
 20
-82.223039
 30
0.0
 11
145.067404
 21
-93.569799
 31
0.0
  0
ARC
  5
45B
100
AcDbEntity
  8
LAY-1
  6
CONTINUOUS
 62
     2
100
AcDbCircle
 10
146.463033
 20
-82.257938
 30
0.0
 40
1.0
100
AcDbArc
 50
19.745101
 51
178.0
  0
ARC
  5
45C
100
AcDbEntity
  8
LAY-1
  6
CONTINUOUS
 62
     2
100
AcDbCircle
 10
146.29576
 20
-95.103604
 30
0.0
 40
1.603604
100
AcDbArc
 50
1.0
 51
153.576654
  0
ARC
  5
45D
100
AcDbEntity
  8
LAY-1
  6
CONTINUOUS
 62
     2
100
AcDbCircle
 10
143.068622
 20
-93.5
 30
0.0
 40
2.0
100
AcDbArc
 50
270.0
 51
358.0
  0
ARC
  5
45E
100
AcDbEntity
  8
LAY-1
  6
CONTINUOUS
 62
     2
100
AcDbCircle
 10
168.778703
 20
-88.022813
 30
0.0
 40
2.0
100
AcDbArc
 50
135.0
 51
181.5
  0
ARC
  5
45F
100
AcDbEntity
  8
LAY-1
  6
CONTINUOUS
 62
     2
100
AcDbCircle
 10
181.301515
 20
-75.5
 30
0.0
 40
2.0
100
AcDbArc
 50
90.0
 51
135.0
  0
LINE
  5
460
100
AcDbEntity
  8
LAY-1
  6
CONTINUOUS
 62
     2
100
AcDbLine
 10
181.301515
 20
-73.5
 30
0.0
 11
190.0
 21
-73.5
 31
0.0
  0
ARC
  5
461
100
AcDbEntity
  8
LAY-1
  6
CONTINUOUS
 62
     2
100
AcDbCircle
 10
181.301515
 20
-75.5
 30
0.0
 40
2.0
100
AcDbArc
 50
90.0
 51
135.0
  0
LINE
  5
462
100
AcDbEntity
  8
LAY-1
  6
CONTINUOUS
 62
     2
100
AcDbLine
 10
123.0
 20
-66.5
 30
0.0
 11
161.343638
 21
-66.5
 31
0.0
  0
ARC
  5
463
100
AcDbEntity
  8
LAY-1
  6
CONTINUOUS
 62
     2
100
AcDbCircle
 10
167.440602
 20
-132.829165
 30
0.0
 40
1.5
100
AcDbArc
 50
300.0
 51
0.0
  0
ARC
  5
464
100
AcDbEntity
  8
LAY-1
  6
CONTINUOUS
 62
     2
100
AcDbCircle
 10
164.190602
 20
-127.2
 30
0.0
 40
8.0
100
AcDbArc
 50
270.0
 51
300.0
  0
LINE
  5
465
100
AcDbEntity
  8
LAY-1
  6
CONTINUOUS
 62
     2
100
AcDbLine
 10
168.940602
 20
-132.829165
 30
0.0
 11
168.940602
 21
-131.5
 31
0.0
  0
ARC
  5
466
100
AcDbEntity
  8
LAY-1
  6
CONTINUOUS
 62
     2
100
AcDbCircle
 10
160.940602
 20
-132.829165
 30
0.0
 40
1.5
100
AcDbArc
 50
180.0
 51
240.0
  0
ARC
  5
467
100
AcDbEntity
  8
LAY-1
  6
CONTINUOUS
 62
     2
100
AcDbCircle
 10
164.190602
 20
-127.2
 30
0.0
 40
8.0
100
AcDbArc
 50
240.0
 51
270.0
  0
LINE
  5
468
100
AcDbEntity
  8
LAY-1
  6
CONTINUOUS
 62
     2
100
AcDbLine
 10
159.440602
 20
-132.829165
 30
0.0
 11
159.440602
 21
-131.5
 31
0.0
  0
LINE
  5
469
100
AcDbEntity
  8
LAY-1
  6
CONTINUOUS
 62
     2
100
AcDbLine
 10
148.5
 20
-131.5
 30
0.0
 11
190.0
 21
-131.5
 31
0.0
  0
LINE
  5
46A
100
AcDbEntity
  8
LAY-1
  6
CONTINUOUS
 62
     2
100
AcDbLine
 10
148.5
 20
-129.5
 30
0.0
 11
148.5
 21
-131.5
 31
0.0
  0
LINE
  5
46B
100
AcDbEntity
  8
LAY-1
  6
CONTINUOUS
 62
     2
100
AcDbLine
 10
179.41955
 20
-134.5
 30
0.0
 11
190.0
 21
-134.5
 31
0.0
  0
ARC
  5
46C
100
AcDbEntity
  8
LAY-1
  6
CONTINUOUS
 62
     2
100
AcDbCircle
 10
179.41955
 20
-132.0
 30
0.0
 40
2.5
100
AcDbArc
 50
190.0
 51
270.0
  0
ARC
  5
46D
100
AcDbEntity
  8
LAY-1
  6
CONTINUOUS
 62
     2
100
AcDbCircle
 10
176.37327
 20
-132.0
 30
0.0
 40
0.5
100
AcDbArc
 50
10.0
 51
90.0
  0
LINE
  5
46E
100
AcDbEntity
  8
LAY-1
  6
CONTINUOUS
 62
     2
100
AcDbLine
 10
176.865674
 20
-131.913176
 30
0.0
 11
176.95753
 21
-132.43412
 31
0.0
  0
LINE
  5
46F
100
AcDbEntity
  8
LAY-1
  6
CONTINUOUS
 62
     2
100
AcDbLine
 10
121.0
 20
-64.5
 30
0.0
 11
121.0
 21
-34.5
 31
0.0
  0
LINE
  5
470
100
AcDbEntity
  8
LAY-1
  6
CONTINUOUS
 62
     2
100
AcDbLine
 10
135.62171
 20
-52.362803
 30
0.0
 11
135.62171
 21
-54.5
 31
0.0
  0
LINE
  5
471
100
AcDbEntity
  8
LAY-1
  6
CONTINUOUS
 62
     2
100
AcDbLine
 10
126.12171
 20
-52.362803
 30
0.0
 11
126.12171
 21
-54.5
 31
0.0
  0
ARC
  5
472
100
AcDbEntity
  8
LAY-1
  6
CONTINUOUS
 62
     2
100
AcDbCircle
 10
130.87171
 20
-58.8
 30
0.0
 40
8.0
100
AcDbArc
 50
53.576426
 51
126.423574
  0
ARC
  5
473
100
AcDbEntity
  8
LAY-1
  6
CONTINUOUS
 62
     2
100
AcDbCircle
 10
165.50826
 20
-58.8
 30
0.0
 40
8.0
100
AcDbArc
 50
53.576426
 51
126.423574
  0
LINE
  5
474
100
AcDbEntity
  8
LAY-1
  6
CONTINUOUS
 62
     2
100
AcDbLine
 10
160.75826
 20
-52.362803
 30
0.0
 11
160.75826
 21
-54.5
 31
0.0
  0
LINE
  5
475
100
AcDbEntity
  8
LAY-1
  6
CONTINUOUS
 62
     2
100
AcDbLine
 10
170.25826
 20
-52.362803
 30
0.0
 11
170.25826
 21
-54.5
 31
0.0
  0
ARC
  5
476
100
AcDbEntity
  8
LAY-1
  6
CONTINUOUS
 62
     2
100
AcDbCircle
 10
121.5
 20
-55.0
 30
0.0
 40
0.5
100
AcDbArc
 50
90.0
 51
180.0
  0
LINE
  5
477
100
AcDbEntity
  8
LAY-1
  6
CONTINUOUS
 62
     2
100
AcDbLine
 10
121.5
 20
-54.5
 30
0.0
 11
190.0
 21
-54.5
 31
0.0
  0
ARC
  5
478
100
AcDbEntity
  8
LAY-1
  6
CONTINUOUS
 62
     2
100
AcDbCircle
 10
176.465689
 20
-44.5
 30
0.0
 40
1.0
100
AcDbArc
 50
90.0
 51
178.0
  0
LINE
  5
479
100
AcDbEntity
  8
LAY-1
  6
CONTINUOUS
 62
     2
100
AcDbLine
 10
175.466298
 20
-44.465101
 30
0.0
 11
175.149574
 21
-53.534899
 31
0.0
  0
LINE
  5
47A
100
AcDbEntity
  8
LAY-1
  6
CONTINUOUS
 62
     2
100
AcDbLine
 10
176.465689
 20
-43.5
 30
0.0
 11
190.0
 21
-43.5
 31
0.0
  0
ARC
  5
47B
100
AcDbEntity
  8
LAY-1
  6
CONTINUOUS
 62
     2
100
AcDbCircle
 10
174.150183
 20
-53.5
 30
0.0
 40
1.0
100
AcDbArc
 50
270.0
 51
358.0
  0
ARC
  5
47C
100
AcDbEntity
  8
LAY-1
  6
CONTINUOUS
 62
     2
100
AcDbCircle
 10
122.0
 20
-34.5
 30
0.0
 40
1.0
100
AcDbArc
 50
90.0
 51
180.0
  0
LINE
  5
47D
100
AcDbEntity
  8
LAY-1
  6
CONTINUOUS
 62
     2
100
AcDbLine
 10
122.0
 20
-33.5
 30
0.0
 11
137.138948
 21
-33.5
 31
0.0
  0
ARC
  5
47E
100
AcDbEntity
  8
LAY-1
  6
CONTINUOUS
 62
     2
100
AcDbCircle
 10
141.795802
 20
-34.5
 30
0.0
 40
2.0
100
AcDbArc
 50
225.0
 51
270.0
  0
ARC
  5
47F
100
AcDbEntity
  8
LAY-1
  6
CONTINUOUS
 62
     2
100
AcDbCircle
 10
137.138948
 20
-35.5
 30
0.0
 40
2.0
100
AcDbArc
 50
45.0
 51
90.0
  0
LINE
  5
480
100
AcDbEntity
  8
LAY-1
  6
CONTINUOUS
 62
     2
100
AcDbLine
 10
138.553161
 20
-34.085786
 30
0.0
 11
140.381588
 21
-35.914214
 31
0.0
  0
LINE
  5
481
100
AcDbEntity
  8
LAY-1
  6
CONTINUOUS
 62
     2
100
AcDbLine
 10
184.6
 20
-110.589492
 30
0.0
 11
184.6
 21
-110.606395
 31
0.0
  0
ARC
  5
482
100
AcDbEntity
  8
LAY-1
  6
CONTINUOUS
 62
     2
100
AcDbCircle
 10
190.0
 20
-96.5
 30
0.0
 40
15.088863
100
AcDbArc
 50
90.0
 51
270.0
  0
ARC
  5
483
100
AcDbEntity
  8
LAY-1
  6
CONTINUOUS
 62
     2
100
AcDbCircle
 10
163.00826
 20
-71.5
 30
0.0
 40
2.0
100
AcDbArc
 50
180.0
 51
270.0
  0
LINE
  5
484
100
AcDbEntity
  8
LAY-1
  6
CONTINUOUS
 62
     2
100
AcDbLine
 10
161.00826
 20
-68.5
 30
0.0
 11
161.00826
 21
-71.5
 31
0.0
  0
LINE
  5
485
100
AcDbEntity
  8
LAY-1
  6
CONTINUOUS
 62
     2
100
AcDbLine
 10
163.00826
 20
-73.5
 30
0.0
 11
164.44941
 21
-73.5
 31
0.0
  0
ARC
  5
486
100
AcDbEntity
  8
LAY-1
  6
CONTINUOUS
 62
     2
100
AcDbCircle
 10
123.0
 20
-64.5
 30
0.0
 40
2.0
100
AcDbArc
 50
180.0
 51
270.0
  0
ARC
  5
487
100
AcDbEntity
  8
LAY-1
  6
CONTINUOUS
 62
     2
100
AcDbCircle
 10
159.00826
 20
-68.5
 30
0.0
 40
2.0
100
AcDbArc
 50
0.0
 51
90.0
  0
ARC
  5
488
100
AcDbEntity
  8
LAY-1
  6
CONTINUOUS
 62
     2
100
AcDbCircle
 10
164.44941
 20
-75.5
 30
0.0
 40
2.0
100
AcDbArc
 50
1.5
 51
90.0
  0
ARC
  5
489
100
AcDbEntity
  8
LAY-1
  6
CONTINUOUS
 62
     2
100
AcDbCircle
 10
161.343638
 20
-71.5
 30
0.0
 40
5.0
100
AcDbArc
 50
1.5
 51
90.0
  0
LINE
  5
48A
100
AcDbEntity
  8
LAY-1
  6
CONTINUOUS
 62
     2
100
AcDbLine
 10
167.235292
 20
-105.485446
 30
0.0
 11
166.341925
 21
-71.369115
 31
0.0
  0
LINE
  5
48B
100
AcDbEntity
  8
LAY-1
  6
CONTINUOUS
 62
     2
100
AcDbLine
 10
149.988391
 20
-80.5
 30
0.0
 11
166.581025
 21
-80.5
 31
0.0
  0
ARC
  5
48C
100
AcDbEntity
  8
LAY-1
  6
CONTINUOUS
 62
     2
100
AcDbCircle
 10
142.698213
 20
-83.609283
 30
0.0
 40
5.0
100
AcDbArc
 50
1.0
 51
60.921211
  0
LINE
  5
48D
100
AcDbEntity
  8
LAY-1
  6
CONTINUOUS
 62
     2
100
AcDbLine
 10
148.5
 20
-129.5
 30
0.0
 11
147.697451
 21
-83.522021
 31
0.0
  0
ARC
  5
48E
100
AcDbEntity
  8
LAY-1
  6
CONTINUOUS
 62
     2
100
AcDbCircle
 10
149.988391
 20
-70.5
 30
0.0
 40
10.0
100
AcDbArc
 50
225.0
 51
270.0
  0
LINE
  5
48F
100
AcDbEntity
  8
LAY-1
  6
CONTINUOUS
 62
     2
100
AcDbLine
 10
132.724935
 20
-67.37868
 30
0.0
 11
142.917323
 21
-77.571068
 31
0.0
  0
ARC
  5
490
100
AcDbEntity
  8
LAY-1
  6
CONTINUOUS
 62
     2
100
AcDbCircle
 10
130.603615
 20
-69.5
 30
0.0
 40
3.0
100
AcDbArc
 50
45.0
 51
90.0
  0
LINE
  5
491
100
AcDbEntity
  8
LAY-1
  6
CONTINUOUS
 62
     2
100
AcDbLine
 10
121.0
 20
-60.5
 30
0.0
 11
190.0
 21
-60.5
 31
0.0
  0
LINE
  5
492
100
AcDbEntity
  8
LAY-1
  6
CONTINUOUS
 62
     2
100
AcDbLine
 10
181.301515
 20
-119.5
 30
0.0
 11
190.0
 21
-119.5
 31
0.0
  0
ARC
  5
493
100
AcDbEntity
  8
LAY-1
  6
CONTINUOUS
 62
     2
100
AcDbCircle
 10
169.234607
 20
-105.433092
 30
0.0
 40
2.0
100
AcDbArc
 50
181.5
 51
225.0
  0
LINE
  5
494
100
AcDbEntity
  8
LAY-1
  6
CONTINUOUS
 62
     2
100
AcDbLine
 10
179.887302
 20
-118.914214
 30
0.0
 11
167.820393
 21
-106.847305
 31
0.0
  0
ARC
  5
495
100
AcDbEntity
  8
LAY-1
  6
CONTINUOUS
 62
     2
100
AcDbCircle
 10
181.301515
 20
-117.5
 30
0.0
 40
2.0
100
AcDbArc
 50
225.0
 51
270.0
  0
ARC
  5
496
100
AcDbEntity
  8
LAY-1
  6
CONTINUOUS
 62
     2
100
AcDbCircle
 10
169.234607
 20
-105.433092
 30
0.0
 40
2.0
100
AcDbArc
 50
181.5
 51
225.0
  0
LINE
  5
497
100
AcDbEntity
  8
LAY-1
  6
CONTINUOUS
 62
     2
100
AcDbLine
 10
179.887302
 20
-118.914214
 30
0.0
 11
167.820393
 21
-106.847305
 31
0.0
  0
LINE
  5
498
100
AcDbEntity
  8
LAY-1
  6
CONTINUOUS
 62
     2
100
AcDbLine
 10
181.301515
 20
-119.5
 30
0.0
 11
190.0
 21
-119.5
 31
0.0
  0
ARC
  5
499
100
AcDbEntity
  8
LAY-1
  6
CONTINUOUS
 62
     2
100
AcDbCircle
 10
181.301515
 20
-117.5
 30
0.0
 40
2.0
100
AcDbArc
 50
225.0
 51
270.0
  0
LINE
  5
49A
100
AcDbEntity
  8
LAY-1
  6
CONTINUOUS
 62
     2
100
AcDbLine
 10
148.5
 20
-129.5
 30
0.0
 11
190.0
 21
-129.5
 31
0.0
  0
LINE
  5
49B
100
AcDbEntity
  8
LAY-1
  6
CONTINUOUS
 62
     2
100
AcDbLine
 10
210.532625
 20
9.5
 30
0.0
 11
211.189403
 21
-28.126804
 31
0.0
  0
ARC
  5
49C
100
AcDbEntity
  8
LAY-1
  6
CONTINUOUS
 62
     2
100
AcDbCircle
 10
227.186967
 20
-27.847565
 30
0.0
 40
16.0
100
AcDbArc
 50
181.0
 51
261.471556
  0
LINE
  5
49D
100
AcDbEntity
  8
LAY-1
  6
CONTINUOUS
 62
     2
100
AcDbLine
 10
224.81416
 20
-43.670643
 30
0.0
 11
236.942672
 21
-45.489417
 31
0.0
  0
ARC
  5
49E
100
AcDbEntity
  8
LAY-1
  6
CONTINUOUS
 62
     2
100
AcDbCircle
 10
235.163067
 20
-57.356726
 30
0.0
 40
12.0
100
AcDbArc
 50
28.773073
 51
81.471556
  0
ARC
  5
49F
100
AcDbEntity
  8
LAY-1
  6
CONTINUOUS
 62
     2
100
AcDbCircle
 10
211.221297
 20
-88.022813
 30
0.0
 40
2.0
100
AcDbArc
 50
358.5
 51
45.0
  0
ARC
  5
4A0
100
AcDbEntity
  8
LAY-1
  6
CONTINUOUS
 62
     2
100
AcDbCircle
 10
198.698485
 20
-75.5
 30
0.0
 40
2.0
100
AcDbArc
 50
45.0
 51
90.0
  0
LINE
  5
4A1
100
AcDbEntity
  8
LAY-1
  6
CONTINUOUS
 62
     2
100
AcDbLine
 10
198.698485
 20
-73.5
 30
0.0
 11
190.0
 21
-73.5
 31
0.0
  0
ARC
  5
4A2
100
AcDbEntity
  8
LAY-1
  6
CONTINUOUS
 62
     2
100
AcDbCircle
 10
198.698485
 20
-75.5
 30
0.0
 40
2.0
100
AcDbArc
 50
45.0
 51
90.0
  0
LINE
  5
4A3
100
AcDbEntity
  8
LAY-1
  6
CONTINUOUS
 62
     2
100
AcDbLine
 10
257.0
 20
-66.5
 30
0.0
 11
218.656362
 21
-66.5
 31
0.0
  0
ARC
  5
4A4
100
AcDbEntity
  8
LAY-1
  6
CONTINUOUS
 62
     2
100
AcDbCircle
 10
212.559398
 20
-132.829165
 30
0.0
 40
1.5
100
AcDbArc
 50
180.0
 51
240.0
  0
ARC
  5
4A5
100
AcDbEntity
  8
LAY-1
  6
CONTINUOUS
 62
     2
100
AcDbCircle
 10
215.809398
 20
-127.2
 30
0.0
 40
8.0
100
AcDbArc
 50
240.0
 51
270.0
  0
LINE
  5
4A6
100
AcDbEntity
  8
LAY-1
  6
CONTINUOUS
 62
     2
100
AcDbLine
 10
211.059398
 20
-132.829165
 30
0.0
 11
211.059398
 21
-131.5
 31
0.0
  0
ARC
  5
4A7
100
AcDbEntity
  8
LAY-1
  6
CONTINUOUS
 62
     2
100
AcDbCircle
 10
219.059398
 20
-132.829165
 30
0.0
 40
1.5
100
AcDbArc
 50
300.0
 51
0.0
  0
ARC
  5
4A8
100
AcDbEntity
  8
LAY-1
  6
CONTINUOUS
 62
     2
100
AcDbCircle
 10
215.809398
 20
-127.2
 30
0.0
 40
8.0
100
AcDbArc
 50
270.0
 51
300.0
  0
LINE
  5
4A9
100
AcDbEntity
  8
LAY-1
  6
CONTINUOUS
 62
     2
100
AcDbLine
 10
220.559398
 20
-132.829165
 30
0.0
 11
220.559398
 21
-131.5
 31
0.0
  0
LINE
  5
4AA
100
AcDbEntity
  8
LAY-1
  6
CONTINUOUS
 62
     2
100
AcDbLine
 10
231.5
 20
-131.5
 30
0.0
 11
190.0
 21
-131.5
 31
0.0
  0
LINE
  5
4AB
100
AcDbEntity
  8
LAY-1
  6
CONTINUOUS
 62
     2
100
AcDbLine
 10
231.5
 20
-129.5
 30
0.0
 11
231.5
 21
-131.5
 31
0.0
  0
LINE
  5
4AC
100
AcDbEntity
  8
LAY-1
  6
CONTINUOUS
 62
     2
100
AcDbLine
 10
200.58045
 20
-134.5
 30
0.0
 11
190.0
 21
-134.5
 31
0.0
  0
ARC
  5
4AD
100
AcDbEntity
  8
LAY-1
  6
CONTINUOUS
 62
     2
100
AcDbCircle
 10
200.58045
 20
-132.0
 30
0.0
 40
2.5
100
AcDbArc
 50
270.0
 51
350.0
  0
ARC
  5
4AE
100
AcDbEntity
  8
LAY-1
  6
CONTINUOUS
 62
     2
100
AcDbCircle
 10
203.62673
 20
-132.0
 30
0.0
 40
0.5
100
AcDbArc
 50
90.0
 51
170.0
  0
LINE
  5
4AF
100
AcDbEntity
  8
LAY-1
  6
CONTINUOUS
 62
     2
100
AcDbLine
 10
203.134326
 20
-131.913176
 30
0.0
 11
203.04247
 21
-132.43412
 31
0.0
  0
LINE
  5
4B0
100
AcDbEntity
  8
LAY-1
  6
CONTINUOUS
 62
     2
100
AcDbLine
 10
244.37829
 20
-52.362803
 30
0.0
 11
244.37829
 21
-54.5
 31
0.0
  0
LINE
  5
4B1
100
AcDbEntity
  8
LAY-1
  6
CONTINUOUS
 62
     2
100
AcDbLine
 10
253.87829
 20
-52.362803
 30
0.0
 11
253.87829
 21
-54.5
 31
0.0
  0
ARC
  5
4B2
100
AcDbEntity
  8
LAY-1
  6
CONTINUOUS
 62
     2
100
AcDbCircle
 10
249.12829
 20
-58.8
 30
0.0
 40
8.0
100
AcDbArc
 50
53.576426
 51
126.423574
  0
ARC
  5
4B3
100
AcDbEntity
  8
LAY-1
  6
CONTINUOUS
 62
     2
100
AcDbCircle
 10
214.49174
 20
-58.8
 30
0.0
 40
8.0
100
AcDbArc
 50
53.576426
 51
126.423574
  0
LINE
  5
4B4
100
AcDbEntity
  8
LAY-1
  6
CONTINUOUS
 62
     2
100
AcDbLine
 10
219.24174
 20
-52.362803
 30
0.0
 11
219.24174
 21
-54.5
 31
0.0
  0
LINE
  5
4B5
100
AcDbEntity
  8
LAY-1
  6
CONTINUOUS
 62
     2
100
AcDbLine
 10
209.74174
 20
-52.362803
 30
0.0
 11
209.74174
 21
-54.5
 31
0.0
  0
ARC
  5
4B6
100
AcDbEntity
  8
LAY-1
  6
CONTINUOUS
 62
     2
100
AcDbCircle
 10
258.5
 20
-55.0
 30
0.0
 40
0.5
100
AcDbArc
 50
0.0
 51
90.0
  0
LINE
  5
4B7
100
AcDbEntity
  8
LAY-1
  6
CONTINUOUS
 62
     2
100
AcDbLine
 10
258.5
 20
-54.5
 30
0.0
 11
190.0
 21
-54.5
 31
0.0
  0
ARC
  5
4B8
100
AcDbEntity
  8
LAY-1
  6
CONTINUOUS
 62
     2
100
AcDbCircle
 10
203.534311
 20
-44.5
 30
0.0
 40
1.0
100
AcDbArc
 50
2.0
 51
90.0
  0
LINE
  5
4B9
100
AcDbEntity
  8
LAY-1
  6
CONTINUOUS
 62
     2
100
AcDbLine
 10
204.533702
 20
-44.465101
 30
0.0
 11
204.850426
 21
-53.534899
 31
0.0
  0
LINE
  5
4BA
100
AcDbEntity
  8
LAY-1
  6
CONTINUOUS
 62
     2
100
AcDbLine
 10
203.534311
 20
-43.5
 30
0.0
 11
190.0
 21
-43.5
 31
0.0
  0
ARC
  5
4BB
100
AcDbEntity
  8
LAY-1
  6
CONTINUOUS
 62
     2
100
AcDbCircle
 10
205.849817
 20
-53.5
 30
0.0
 40
1.0
100
AcDbArc
 50
182.0
 51
270.0
  0
LINE
  5
4BC
100
AcDbEntity
  8
LAY-1
  6
CONTINUOUS
 62
     2
100
AcDbLine
 10
195.4
 20
-110.589492
 30
0.0
 11
195.4
 21
-110.606395
 31
0.0
  0
ARC
  5
4BD
100
AcDbEntity
  8
LAY-1
  6
CONTINUOUS
 62
     2
100
AcDbCircle
 10
190.0
 20
-96.5
 30
0.0
 40
15.088863
100
AcDbArc
 50
270.0
 51
90.0
  0
ARC
  5
4BE
100
AcDbEntity
  8
LAY-1
  6
CONTINUOUS
 62
     2
100
AcDbCircle
 10
216.99174
 20
-71.5
 30
0.0
 40
2.0
100
AcDbArc
 50
270.0
 51
0.0
  0
LINE
  5
4BF
100
AcDbEntity
  8
LAY-1
  6
CONTINUOUS
 62
     2
100
AcDbLine
 10
218.99174
 20
-68.5
 30
0.0
 11
218.99174
 21
-71.5
 31
0.0
  0
LINE
  5
4C0
100
AcDbEntity
  8
LAY-1
  6
CONTINUOUS
 62
     2
100
AcDbLine
 10
216.99174
 20
-73.5
 30
0.0
 11
215.55059
 21
-73.5
 31
0.0
  0
ARC
  5
4C1
100
AcDbEntity
  8
LAY-1
  6
CONTINUOUS
 62
     2
100
AcDbCircle
 10
257.0
 20
-64.5
 30
0.0
 40
2.0
100
AcDbArc
 50
270.0
 51
0.0
  0
ARC
  5
4C2
100
AcDbEntity
  8
LAY-1
  6
CONTINUOUS
 62
     2
100
AcDbCircle
 10
220.99174
 20
-68.5
 30
0.0
 40
2.0
100
AcDbArc
 50
90.0
 51
180.0
  0
ARC
  5
4C3
100
AcDbEntity
  8
LAY-1
  6
CONTINUOUS
 62
     2
100
AcDbCircle
 10
215.55059
 20
-75.5
 30
0.0
 40
2.0
100
AcDbArc
 50
90.0
 51
178.5
  0
ARC
  5
4C4
100
AcDbEntity
  8
LAY-1
  6
CONTINUOUS
 62
     2
100
AcDbCircle
 10
218.656362
 20
-71.5
 30
0.0
 40
5.0
100
AcDbArc
 50
90.0
 51
178.5
  0
LINE
  5
4C5
100
AcDbEntity
  8
LAY-1
  6
CONTINUOUS
 62
     2
100
AcDbLine
 10
212.764708
 20
-105.485446
 30
0.0
 11
213.658075
 21
-71.369115
 31
0.0
  0
LINE
  5
4C6
100
AcDbEntity
  8
LAY-1
  6
CONTINUOUS
 62
     2
100
AcDbLine
 10
230.011609
 20
-80.5
 30
0.0
 11
213.418975
 21
-80.5
 31
0.0
  0
ARC
  5
4C7
100
AcDbEntity
  8
LAY-1
  6
CONTINUOUS
 62
     2
100
AcDbCircle
 10
237.301787
 20
-83.609283
 30
0.0
 40
5.0
100
AcDbArc
 50
119.078789
 51
179.0
  0
LINE
  5
4C8
100
AcDbEntity
  8
LAY-1
  6
CONTINUOUS
 62
     2
100
AcDbLine
 10
231.5
 20
-129.5
 30
0.0
 11
232.302549
 21
-83.522021
 31
0.0
  0
ARC
  5
4C9
100
AcDbEntity
  8
LAY-1
  6
CONTINUOUS
 62
     2
100
AcDbCircle
 10
230.011609
 20
-70.5
 30
0.0
 40
10.0
100
AcDbArc
 50
270.0
 51
315.0
  0
LINE
  5
4CA
100
AcDbEntity
  8
LAY-1
  6
CONTINUOUS
 62
     2
100
AcDbLine
 10
247.275065
 20
-67.37868
 30
0.0
 11
237.082677
 21
-77.571068
 31
0.0
  0
ARC
  5
4CB
100
AcDbEntity
  8
LAY-1
  6
CONTINUOUS
 62
     2
100
AcDbCircle
 10
249.396385
 20
-69.5
 30
0.0
 40
3.0
100
AcDbArc
 50
90.0
 51
135.0
  0
LINE
  5
4CC
100
AcDbEntity
  8
LAY-1
  6
CONTINUOUS
 62
     2
100
AcDbLine
 10
259.0
 20
-60.5
 30
0.0
 11
190.0
 21
-60.5
 31
0.0
  0
LINE
  5
4CD
100
AcDbEntity
  8
LAY-1
  6
CONTINUOUS
 62
     2
100
AcDbLine
 10
198.698485
 20
-119.5
 30
0.0
 11
190.0
 21
-119.5
 31
0.0
  0
ARC
  5
4CE
100
AcDbEntity
  8
LAY-1
  6
CONTINUOUS
 62
     2
100
AcDbCircle
 10
210.765393
 20
-105.433092
 30
0.0
 40
2.0
100
AcDbArc
 50
315.0
 51
358.5
  0
LINE
  5
4CF
100
AcDbEntity
  8
LAY-1
  6
CONTINUOUS
 62
     2
100
AcDbLine
 10
200.112698
 20
-118.914214
 30
0.0
 11
212.179607
 21
-106.847305
 31
0.0
  0
ARC
  5
4D0
100
AcDbEntity
  8
LAY-1
  6
CONTINUOUS
 62
     2
100
AcDbCircle
 10
198.698485
 20
-117.5
 30
0.0
 40
2.0
100
AcDbArc
 50
270.0
 51
315.0
  0
ARC
  5
4D1
100
AcDbEntity
  8
LAY-1
  6
CONTINUOUS
 62
     2
100
AcDbCircle
 10
210.765393
 20
-105.433092
 30
0.0
 40
2.0
100
AcDbArc
 50
315.0
 51
358.5
  0
LINE
  5
4D2
100
AcDbEntity
  8
LAY-1
  6
CONTINUOUS
 62
     2
100
AcDbLine
 10
200.112698
 20
-118.914214
 30
0.0
 11
212.179607
 21
-106.847305
 31
0.0
  0
LINE
  5
4D3
100
AcDbEntity
  8
LAY-1
  6
CONTINUOUS
 62
     2
100
AcDbLine
 10
198.698485
 20
-119.5
 30
0.0
 11
190.0
 21
-119.5
 31
0.0
  0
ARC
  5
4D4
100
AcDbEntity
  8
LAY-1
  6
CONTINUOUS
 62
     2
100
AcDbCircle
 10
198.698485
 20
-117.5
 30
0.0
 40
2.0
100
AcDbArc
 50
270.0
 51
315.0
  0
LINE
  5
4D5
100
AcDbEntity
  8
LAY-1
  6
CONTINUOUS
 62
     2
100
AcDbLine
 10
231.5
 20
-129.5
 30
0.0
 11
190.0
 21
-129.5
 31
0.0
  0
LINE
  5
4D6
100
AcDbEntity
  8
LAY-1
  6
CONTINUOUS
 62
     2
100
AcDbLine
 10
259.0
 20
-64.5
 30
0.0
 11
259.0
 21
-55.0
 31
0.0
  0
LINE
  5
4D7
100
AcDbEntity
  8
LAY-1
  6
CONTINUOUS
 62
     2
100
AcDbLine
 10
200.112698
 20
-74.085786
 30
0.0
 11
212.635511
 21
-86.608599
 31
0.0
  0
LINE
  5
4D8
100
AcDbEntity
  8
LAY-1
  6
CONTINUOUS
 62
     2
100
AcDbLine
 10
179.887302
 20
-74.085786
 30
0.0
 11
167.364489
 21
-86.608599
 31
0.0
  0
LINE
  5
4D9
100
AcDbEntity
  8
LAY-1
  6
EXLTYPE3
 62
     1
100
AcDbLine
 10
-49.5
 20
69.7
 30
0.0
 11
-49.5
 21
217.7
 31
0.0
  0
LINE
  5
4DA
100
AcDbEntity
  8
LAY-1
  6
EXLTYPE3
 62
     1
100
AcDbLine
 10
5.7
 20
92.032625
 30
0.0
 11
-0.51756
 21
92.032625
 31
0.0
  0
LINE
  5
4DB
100
AcDbEntity
  8
LAY-1
  6
EXLTYPE3
 62
     1
100
AcDbLine
 10
74.8
 20
144.0
 30
0.0
 11
-95.2
 21
144.0
 31
0.0
  0
LINE
  5
4DC
100
AcDbEntity
  8
LAY-1
  6
EXLTYPE3
 62
     1
100
AcDbLine
 10
4.5
 20
156.5
 30
0.0
 11
4.5
 21
129.1
 31
0.0
  0
LINE
  5
4DD
100
AcDbEntity
  8
LAY-1
  6
CONTINUOUS
 62
     2
100
AcDbLine
 10
56.5
 20
124.0
 30
0.0
 11
57.5
 21
124.0
 31
0.0
  0
LINE
  5
4DE
100
AcDbEntity
  8
LAY-1
  6
CONTINUOUS
 62
     2
100
AcDbLine
 10
56.5
 20
123.5
 30
0.0
 11
56.5
 21
126.72037
 31
0.0
  0
LINE
  5
4DF
100
AcDbEntity
  8
LAY-1
  6
CONTINUOUS
 62
     2
100
AcDbLine
 10
56.5
 20
164.5
 30
0.0
 11
56.5
 21
144.0
 31
0.0
  0
LINE
  5
4E0
100
AcDbEntity
  8
LAY-1
  6
CONTINUOUS
 62
     2
100
AcDbLine
 10
56.5
 20
124.5
 30
0.0
 11
56.5
 21
144.0
 31
0.0
  0
LINE
  5
4E1
100
AcDbEntity
  8
LAY-1
  6
CONTINUOUS
 62
     2
100
AcDbLine
 10
56.5
 20
164.0
 30
0.0
 11
57.5
 21
164.0
 31
0.0
  0
LINE
  5
4E2
100
AcDbEntity
  8
LAY-1
  6
CONTINUOUS
 62
     2
100
AcDbLine
 10
56.5
 20
164.5
 30
0.0
 11
56.5
 21
161.27963
 31
0.0
  0
LINE
  5
4E3
100
AcDbEntity
  8
LAY-1
  6
CONTINUOUS
 62
     2
100
AcDbLine
 10
66.0
 20
144.0
 30
0.0
 11
66.0
 21
164.5
 31
0.0
  0
LINE
  5
4E4
100
AcDbEntity
  8
LAY-1
  6
CONTINUOUS
 62
     2
100
AcDbLine
 10
57.5
 20
164.5
 30
0.0
 11
57.5
 21
144.0
 31
0.0
  0
LINE
  5
4E5
100
AcDbEntity
  8
LAY-1
  6
CONTINUOUS
 62
     2
100
AcDbLine
 10
66.0
 20
164.5
 30
0.0
 11
64.845299
 21
166.5
 31
0.0
  0
LINE
  5
4E6
100
AcDbEntity
  8
LAY-1
  6
CONTINUOUS
 62
     2
100
AcDbLine
 10
57.5
 20
164.5
 30
0.0
 11
58.654701
 21
166.5
 31
0.0
  0
LINE
  5
4E7
100
AcDbEntity
  8
LAY-1
  6
CONTINUOUS
 62
     2
100
AcDbLine
 10
64.845299
 20
166.5
 30
0.0
 11
58.654701
 21
166.5
 31
0.0
  0
LINE
  5
4E8
100
AcDbEntity
  8
LAY-1
  6
CONTINUOUS
 62
     2
100
AcDbLine
 10
66.0
 20
155.4585
 30
0.0
 11
66.0
 21
158.0
 31
0.0
  0
LINE
  5
4E9
100
AcDbEntity
  8
LAY-1
  6
CONTINUOUS
 62
     2
100
AcDbLine
 10
66.0
 20
144.0
 30
0.0
 11
66.0
 21
157.5
 31
0.0
  0
ARC
  5
4EA
100
AcDbEntity
  8
LAY-1
  6
CONTINUOUS
 62
     2
100
AcDbCircle
 10
-29.0
 20
144.0
 30
0.0
 40
100.0
100
AcDbArc
 50
0.0
 51
7.54548
  0
LINE
  5
4EB
100
AcDbEntity
  8
LAY-1
  6
CONTINUOUS
 62
     2
100
AcDbLine
 10
69.142753
 20
158.0
 30
0.0
 11
66.0
 21
158.0
 31
0.0
  0
ARC
  5
4EC
100
AcDbEntity
  8
LAY-1
  6
CONTINUOUS
 62
     2
100
AcDbCircle
 10
69.142753
 20
157.0
 30
0.0
 40
1.0
100
AcDbArc
 50
7.54548
 51
90.0
  0
LINE
  5
4ED
100
AcDbEntity
  8
LAY-1
  6
CONTINUOUS
 62
     2
100
AcDbLine
 10
66.0
 20
155.4585
 30
0.0
 11
66.0
 21
158.0
 31
0.0
  0
LINE
  5
4EE
100
AcDbEntity
  8
LAY-1
  6
CONTINUOUS
 62
     2
100
AcDbLine
 10
70.0
 20
145.0
 30
0.0
 11
66.0
 21
145.0
 31
0.0
  0
LINE
  5
4EF
100
AcDbEntity
  8
LAY-1
  6
CONTINUOUS
 62
     2
100
AcDbLine
 10
69.0
 20
149.865431
 30
0.0
 11
66.0
 21
149.865431
 31
0.0
  0
ARC
  5
4F0
100
AcDbEntity
  8
LAY-1
  6
CONTINUOUS
 62
     2
100
AcDbCircle
 10
69.0
 20
148.865431
 30
0.0
 40
1.0
100
AcDbArc
 50
0.0
 51
90.0
  0
LINE
  5
4F1
100
AcDbEntity
  8
LAY-1
  6
CONTINUOUS
 62
     2
100
AcDbLine
 10
69.0
 20
150.116095
 30
0.0
 11
66.0
 21
150.116095
 31
0.0
  0
ARC
  5
4F2
100
AcDbEntity
  8
LAY-1
  6
CONTINUOUS
 62
     2
100
AcDbCircle
 10
69.0
 20
149.116095
 30
0.0
 40
1.0
100
AcDbArc
 50
0.0
 51
90.0
  0
LINE
  5
4F3
100
AcDbEntity
  8
LAY-1
  6
CONTINUOUS
 62
     2
100
AcDbLine
 10
69.0
 20
151.848145
 30
0.0
 11
66.0
 21
151.848145
 31
0.0
  0
ARC
  5
4F4
100
AcDbEntity
  8
LAY-1
  6
CONTINUOUS
 62
     2
100
AcDbCircle
 10
69.0
 20
150.848145
 30
0.0
 40
1.0
100
AcDbArc
 50
0.0
 51
90.0
  0
LINE
  5
4F5
100
AcDbEntity
  8
LAY-1
  6
CONTINUOUS
 62
     2
100
AcDbLine
 10
69.0
 20
155.159224
 30
0.0
 11
66.0
 21
155.159224
 31
0.0
  0
ARC
  5
4F6
100
AcDbEntity
  8
LAY-1
  6
CONTINUOUS
 62
     2
100
AcDbCircle
 10
69.0
 20
154.159224
 30
0.0
 40
1.0
100
AcDbArc
 50
0.0
 51
90.0
  0
LINE
  5
4F7
100
AcDbEntity
  8
LAY-1
  6
CONTINUOUS
 62
     2
100
AcDbLine
 10
69.0
 20
155.593387
 30
0.0
 11
66.0
 21
155.593387
 31
0.0
  0
ARC
  5
4F8
100
AcDbEntity
  8
LAY-1
  6
CONTINUOUS
 62
     2
100
AcDbCircle
 10
69.0
 20
154.593387
 30
0.0
 40
1.0
100
AcDbArc
 50
0.0
 51
90.0
  0
LINE
  5
4F9
100
AcDbEntity
  8
LAY-1
  6
CONTINUOUS
 62
     2
100
AcDbLine
 10
69.0
 20
156.593387
 30
0.0
 11
66.0
 21
156.593387
 31
0.0
  0
ARC
  5
4FA
100
AcDbEntity
  8
LAY-1
  6
CONTINUOUS
 62
     2
100
AcDbCircle
 10
69.0
 20
155.593387
 30
0.0
 40
1.0
100
AcDbArc
 50
0.0
 51
90.0
  0
LINE
  5
4FB
100
AcDbEntity
  8
LAY-1
  6
CONTINUOUS
 62
     2
100
AcDbLine
 10
69.0
 20
157.462912
 30
0.0
 11
66.0
 21
157.462912
 31
0.0
  0
ARC
  5
4FC
100
AcDbEntity
  8
LAY-1
  6
CONTINUOUS
 62
     2
100
AcDbCircle
 10
69.0
 20
156.462912
 30
0.0
 40
1.0
100
AcDbArc
 50
0.0
 51
90.0
  0
LINE
  5
4FD
100
AcDbEntity
  8
LAY-1
  6
CONTINUOUS
 62
     2
100
AcDbLine
 10
70.0
 20
148.865431
 30
0.0
 11
70.0
 21
149.116095
 31
0.0
  0
LINE
  5
4FE
100
AcDbEntity
  8
LAY-1
  6
CONTINUOUS
 62
     2
100
AcDbLine
 10
70.0
 20
154.159224
 30
0.0
 11
70.0
 21
154.593387
 31
0.0
  0
LINE
  5
4FF
100
AcDbEntity
  8
LAY-1
  6
CONTINUOUS
 62
     2
100
AcDbLine
 10
64.845299
 20
157.116712
 30
0.0
 11
64.845299
 21
153.273618
 31
0.0
  0
LINE
  5
500
100
AcDbEntity
  8
LAY-1
  6
CONTINUOUS
 62
     2
100
AcDbLine
 10
58.654701
 20
157.116712
 30
0.0
 11
58.654701
 21
153.273618
 31
0.0
  0
LINE
  5
501
100
AcDbEntity
  8
LAY-1
  6
CONTINUOUS
 62
     2
100
AcDbLine
 10
58.654701
 20
153.273618
 30
0.0
 11
64.845299
 21
153.273618
 31
0.0
  0
LINE
  5
502
100
AcDbEntity
  8
LAY-1
  6
CONTINUOUS
 62
     2
100
AcDbLine
 10
58.654701
 20
157.116712
 30
0.0
 11
64.845299
 21
157.116712
 31
0.0
  0
ARC
  5
503
100
AcDbEntity
  8
LAY-1
  6
CONTINUOUS
 62
     2
100
AcDbCircle
 10
55.895016
 20
161.808356
 30
0.0
 40
10.105399
100
AcDbArc
 50
332.336945
 51
27.663055
  0
ARC
  5
504
100
AcDbEntity
  8
LAY-1
  6
CONTINUOUS
 62
     2
100
AcDbCircle
 10
67.592717
 20
161.808356
 30
0.0
 40
10.094536
100
AcDbArc
 50
152.30462
 51
207.69538
  0
ARC
  5
505
100
AcDbEntity
  8
LAY-1
  6
CONTINUOUS
 62
     2
100
AcDbCircle
 10
28.183557
 20
144.0
 30
0.0
 40
37.816443
100
AcDbArc
 50
0.0
 51
14.195258
  0
ARC
  5
506
100
AcDbEntity
  8
LAY-1
  6
CONTINUOUS
 62
     2
100
AcDbCircle
 10
95.316443
 20
144.0
 30
0.0
 40
37.816443
100
AcDbArc
 50
165.804742
 51
180.0
  0
LINE
  5
507
100
AcDbEntity
  8
LAY-1
  6
CONTINUOUS
 62
     2
100
AcDbLine
 10
66.0
 20
144.0
 30
0.0
 11
66.0
 21
123.5
 31
0.0
  0
LINE
  5
508
100
AcDbEntity
  8
LAY-1
  6
CONTINUOUS
 62
     2
100
AcDbLine
 10
57.5
 20
123.5
 30
0.0
 11
57.5
 21
144.0
 31
0.0
  0
LINE
  5
509
100
AcDbEntity
  8
LAY-1
  6
CONTINUOUS
 62
     2
100
AcDbLine
 10
66.0
 20
123.5
 30
0.0
 11
64.845299
 21
121.5
 31
0.0
  0
LINE
  5
50A
100
AcDbEntity
  8
LAY-1
  6
CONTINUOUS
 62
     2
100
AcDbLine
 10
57.5
 20
123.5
 30
0.0
 11
58.654701
 21
121.5
 31
0.0
  0
LINE
  5
50B
100
AcDbEntity
  8
LAY-1
  6
CONTINUOUS
 62
     2
100
AcDbLine
 10
64.845299
 20
121.5
 30
0.0
 11
58.654701
 21
121.5
 31
0.0
  0
LINE
  5
50C
100
AcDbEntity
  8
LAY-1
  6
CONTINUOUS
 62
     2
100
AcDbLine
 10
66.0
 20
132.5415
 30
0.0
 11
66.0
 21
130.0
 31
0.0
  0
LINE
  5
50D
100
AcDbEntity
  8
LAY-1
  6
CONTINUOUS
 62
     2
100
AcDbLine
 10
66.0
 20
144.0
 30
0.0
 11
66.0
 21
130.5
 31
0.0
  0
ARC
  5
50E
100
AcDbEntity
  8
LAY-1
  6
CONTINUOUS
 62
     2
100
AcDbCircle
 10
-29.0
 20
144.0
 30
0.0
 40
100.0
100
AcDbArc
 50
352.45452
 51
0.0
  0
LINE
  5
50F
100
AcDbEntity
  8
LAY-1
  6
CONTINUOUS
 62
     2
100
AcDbLine
 10
69.142753
 20
130.0
 30
0.0
 11
66.0
 21
130.0
 31
0.0
  0
ARC
  5
510
100
AcDbEntity
  8
LAY-1
  6
CONTINUOUS
 62
     2
100
AcDbCircle
 10
69.142753
 20
131.0
 30
0.0
 40
1.0
100
AcDbArc
 50
270.0
 51
352.45452
  0
LINE
  5
511
100
AcDbEntity
  8
LAY-1
  6
CONTINUOUS
 62
     2
100
AcDbLine
 10
66.0
 20
132.5415
 30
0.0
 11
66.0
 21
130.0
 31
0.0
  0
LINE
  5
512
100
AcDbEntity
  8
LAY-1
  6
CONTINUOUS
 62
     2
100
AcDbLine
 10
70.0
 20
143.0
 30
0.0
 11
66.0
 21
143.0
 31
0.0
  0
LINE
  5
513
100
AcDbEntity
  8
LAY-1
  6
CONTINUOUS
 62
     2
100
AcDbLine
 10
69.0
 20
138.134569
 30
0.0
 11
66.0
 21
138.134569
 31
0.0
  0
ARC
  5
514
100
AcDbEntity
  8
LAY-1
  6
CONTINUOUS
 62
     2
100
AcDbCircle
 10
69.0
 20
139.134569
 30
0.0
 40
1.0
100
AcDbArc
 50
270.0
 51
0.0
  0
LINE
  5
515
100
AcDbEntity
  8
LAY-1
  6
CONTINUOUS
 62
     2
100
AcDbLine
 10
69.0
 20
137.883905
 30
0.0
 11
66.0
 21
137.883905
 31
0.0
  0
ARC
  5
516
100
AcDbEntity
  8
LAY-1
  6
CONTINUOUS
 62
     2
100
AcDbCircle
 10
69.0
 20
138.883905
 30
0.0
 40
1.0
100
AcDbArc
 50
270.0
 51
0.0
  0
LINE
  5
517
100
AcDbEntity
  8
LAY-1
  6
CONTINUOUS
 62
     2
100
AcDbLine
 10
69.0
 20
136.151855
 30
0.0
 11
66.0
 21
136.151855
 31
0.0
  0
ARC
  5
518
100
AcDbEntity
  8
LAY-1
  6
CONTINUOUS
 62
     2
100
AcDbCircle
 10
69.0
 20
137.151855
 30
0.0
 40
1.0
100
AcDbArc
 50
270.0
 51
0.0
  0
LINE
  5
519
100
AcDbEntity
  8
LAY-1
  6
CONTINUOUS
 62
     2
100
AcDbLine
 10
69.0
 20
132.840776
 30
0.0
 11
66.0
 21
132.840776
 31
0.0
  0
ARC
  5
51A
100
AcDbEntity
  8
LAY-1
  6
CONTINUOUS
 62
     2
100
AcDbCircle
 10
69.0
 20
133.840776
 30
0.0
 40
1.0
100
AcDbArc
 50
270.0
 51
0.0
  0
LINE
  5
51B
100
AcDbEntity
  8
LAY-1
  6
CONTINUOUS
 62
     2
100
AcDbLine
 10
69.0
 20
132.406613
 30
0.0
 11
66.0
 21
132.406613
 31
0.0
  0
ARC
  5
51C
100
AcDbEntity
  8
LAY-1
  6
CONTINUOUS
 62
     2
100
AcDbCircle
 10
69.0
 20
133.406613
 30
0.0
 40
1.0
100
AcDbArc
 50
270.0
 51
0.0
  0
LINE
  5
51D
100
AcDbEntity
  8
LAY-1
  6
CONTINUOUS
 62
     2
100
AcDbLine
 10
69.0
 20
131.406613
 30
0.0
 11
66.0
 21
131.406613
 31
0.0
  0
ARC
  5
51E
100
AcDbEntity
  8
LAY-1
  6
CONTINUOUS
 62
     2
100
AcDbCircle
 10
69.0
 20
132.406613
 30
0.0
 40
1.0
100
AcDbArc
 50
270.0
 51
0.0
  0
LINE
  5
51F
100
AcDbEntity
  8
LAY-1
  6
CONTINUOUS
 62
     2
100
AcDbLine
 10
69.0
 20
130.537088
 30
0.0
 11
66.0
 21
130.537088
 31
0.0
  0
ARC
  5
520
100
AcDbEntity
  8
LAY-1
  6
CONTINUOUS
 62
     2
100
AcDbCircle
 10
69.0
 20
131.537088
 30
0.0
 40
1.0
100
AcDbArc
 50
270.0
 51
0.0
  0
LINE
  5
521
100
AcDbEntity
  8
LAY-1
  6
CONTINUOUS
 62
     2
100
AcDbLine
 10
70.0
 20
139.134569
 30
0.0
 11
70.0
 21
138.883905
 31
0.0
  0
LINE
  5
522
100
AcDbEntity
  8
LAY-1
  6
CONTINUOUS
 62
     2
100
AcDbLine
 10
70.0
 20
133.840776
 30
0.0
 11
70.0
 21
133.406613
 31
0.0
  0
LINE
  5
523
100
AcDbEntity
  8
LAY-1
  6
CONTINUOUS
 62
     2
100
AcDbLine
 10
64.845299
 20
130.883288
 30
0.0
 11
64.845299
 21
134.726382
 31
0.0
  0
LINE
  5
524
100
AcDbEntity
  8
LAY-1
  6
CONTINUOUS
 62
     2
100
AcDbLine
 10
58.654701
 20
130.883288
 30
0.0
 11
58.654701
 21
134.726382
 31
0.0
  0
LINE
  5
525
100
AcDbEntity
  8
LAY-1
  6
CONTINUOUS
 62
     2
100
AcDbLine
 10
58.654701
 20
134.726382
 30
0.0
 11
64.845299
 21
134.726382
 31
0.0
  0
LINE
  5
526
100
AcDbEntity
  8
LAY-1
  6
CONTINUOUS
 62
     2
100
AcDbLine
 10
58.654701
 20
130.883288
 30
0.0
 11
64.845299
 21
130.883288
 31
0.0
  0
ARC
  5
527
100
AcDbEntity
  8
LAY-1
  6
CONTINUOUS
 62
     2
100
AcDbCircle
 10
55.895016
 20
126.191644
 30
0.0
 40
10.105399
100
AcDbArc
 50
332.336945
 51
27.663055
  0
ARC
  5
528
100
AcDbEntity
  8
LAY-1
  6
CONTINUOUS
 62
     2
100
AcDbCircle
 10
67.592717
 20
126.191644
 30
0.0
 40
10.094536
100
AcDbArc
 50
152.30462
 51
207.69538
  0
ARC
  5
529
100
AcDbEntity
  8
LAY-1
  6
CONTINUOUS
 62
     2
100
AcDbCircle
 10
28.183557
 20
144.0
 30
0.0
 40
37.816443
100
AcDbArc
 50
345.804742
 51
0.0
  0
ARC
  5
52A
100
AcDbEntity
  8
LAY-1
  6
CONTINUOUS
 62
     2
100
AcDbCircle
 10
95.316443
 20
144.0
 30
0.0
 40
37.816443
100
AcDbArc
 50
180.0
 51
194.195258
  0
LINE
  5
52B
100
AcDbEntity
  8
LAY-1
  6
CONTINUOUS
 62
     2
100
AcDbLine
 10
3.077268
 20
107.570036
 30
0.0
 11
2.966018
 21
106.828162
 31
0.0
  0
ARC
  5
52C
100
AcDbEntity
  8
LAY-1
  6
CONTINUOUS
 62
     2
100
AcDbCircle
 10
3.460489
 20
106.754012
 30
0.0
 40
0.5
100
AcDbArc
 50
171.471556
 51
233.566479
  0
ARC
  5
52D
100
AcDbEntity
  8
LAY-1
  6
CONTINUOUS
 62
     2
100
AcDbCircle
 10
3.526685
 20
106.695438
 30
0.0
 40
0.5
100
AcDbArc
 50
223.424495
 51
226.807118
  0
ARC
  5
52E
100
AcDbEntity
  8
LAY-1
  6
CONTINUOUS
 62
     2
100
AcDbCircle
 10
2.5
 20
105.601857
 30
0.0
 40
1.0
100
AcDbArc
 50
0.0
 51
46.807118
  0
LINE
  5
52F
100
AcDbEntity
  8
LAY-1
  6
CONTINUOUS
 62
     2
100
AcDbLine
 10
3.329357
 20
109.25109
 30
0.0
 11
3.077268
 21
107.570036
 31
0.0
  0
ARC
  5
530
100
AcDbEntity
  8
LAY-1
  6
CONTINUOUS
 62
     2
100
AcDbCircle
 10
-10.356726
 20
98.902183
 30
0.0
 40
12.0
100
AcDbArc
 50
291.159201
 51
351.471556
  0
LINE
  5
531
100
AcDbEntity
  8
LAY-1
  6
CONTINUOUS
 62
     2
100
AcDbLine
 10
3.5
 20
78.463393
 30
0.0
 11
3.5
 21
105.601857
 31
0.0
  0
LINE
  5
532
100
AcDbEntity
  8
LAY-1
  6
CONTINUOUS
 62
     2
100
AcDbLine
 10
-7.5
 20
76.032625
 30
0.0
 11
-7.5
 21
76.147887
 31
0.0
  0
ARC
  5
533
100
AcDbEntity
  8
LAY-1
  6
CONTINUOUS
 62
     2
100
AcDbCircle
 10
2.5
 20
78.463393
 30
0.0
 40
1.0
100
AcDbArc
 50
272.0
 51
0.0
  0
LINE
  5
534
100
AcDbEntity
  8
LAY-1
  6
CONTINUOUS
 62
     2
100
AcDbLine
 10
2.534899
 20
77.464002
 30
0.0
 11
-6.534899
 21
77.147278
 31
0.0
  0
ARC
  5
535
100
AcDbEntity
  8
LAY-1
  6
CONTINUOUS
 62
     2
100
AcDbCircle
 10
-6.5
 20
76.147887
 30
0.0
 40
1.0
100
AcDbArc
 50
92.0
 51
180.0
  0
LINE
  5
536
100
AcDbEntity
  8
LAY-1
  6
CONTINUOUS
 62
     2
100
AcDbLine
 10
-7.5
 20
76.032625
 30
0.0
 11
-7.5
 21
76.147887
 31
0.0
  0
ARC
  5
537
100
AcDbEntity
  8
LAY-1
  6
CONTINUOUS
 62
     2
100
AcDbCircle
 10
-8.5
 20
76.032625
 30
0.0
 40
1.0
100
AcDbArc
 50
270.0
 51
0.0
  0
LINE
  5
538
100
AcDbEntity
  8
LAY-1
  6
CONTINUOUS
 62
     2
100
AcDbLine
 10
3.329357
 20
178.781535
 30
0.0
 11
3.077268
 21
180.46259
 31
0.0
  0
ARC
  5
539
100
AcDbEntity
  8
LAY-1
  6
CONTINUOUS
 62
     2
100
AcDbCircle
 10
19.152435
 20
181.154341
 30
0.0
 40
16.0
100
AcDbArc
 50
188.528444
 51
269.0
  0
ARC
  5
53A
100
AcDbEntity
  8
LAY-1
  6
CONTINUOUS
 62
     2
100
AcDbCircle
 10
-10.356726
 20
189.130442
 30
0.0
 40
12.0
100
AcDbArc
 50
8.528444
 51
63.933383
  0
ARC
  5
53B
100
AcDbEntity
  8
LAY-1
  6
CONTINUOUS
 62
     2
100
AcDbCircle
 10
-10.356726
 20
189.130442
 30
0.0
 40
12.0
100
AcDbArc
 50
63.933383
 51
71.172475
  0
ARC
  5
53C
100
AcDbEntity
  8
LAY-1
  6
CONTINUOUS
 62
     2
100
AcDbCircle
 10
-6.0
 20
201.908116
 30
0.0
 40
1.5
100
AcDbArc
 50
180.0
 51
251.172475
  0
LINE
  5
53D
100
AcDbEntity
  8
LAY-1
  6
CONTINUOUS
 62
     2
100
AcDbLine
 10
-7.5
 20
211.384738
 30
0.0
 11
-7.5
 21
201.908116
 31
0.0
  0
LINE
  5
53E
100
AcDbEntity
  8
LAY-1
  6
CONTINUOUS
 62
     2
100
AcDbLine
 10
-7.5
 20
212.0
 30
0.0
 11
-7.5
 21
211.384738
 31
0.0
  0
ARC
  5
53F
100
AcDbEntity
  8
LAY-1
  6
CONTINUOUS
 62
     2
100
AcDbCircle
 10
-8.5
 20
212.0
 30
0.0
 40
1.0
100
AcDbArc
 50
0.0
 51
90.0
  0
ARC
  5
540
100
AcDbEntity
  8
LAY-1
  6
CONTINUOUS
 62
     2
100
AcDbCircle
 10
19.152435
 20
106.845659
 30
0.0
 40
16.0
100
AcDbArc
 50
91.0
 51
171.471556
  0
LINE
  5
541
100
AcDbEntity
  8
LAY-1
  6
CONTINUOUS
 62
     2
100
AcDbLine
 10
56.5
 20
123.5
 30
0.0
 11
18.873196
 21
122.843222
 31
0.0
  0
LINE
  5
542
100
AcDbEntity
  8
LAY-1
  6
CONTINUOUS
 62
     2
100
AcDbLine
 10
-82.5
 20
185.5
 30
0.0
 11
-84.5
 21
185.5
 31
0.0
  0
LINE
  5
543
100
AcDbEntity
  8
LAY-1
  6
CONTINUOUS
 62
     2
100
AcDbLine
 10
-82.5
 20
102.5
 30
0.0
 11
-84.5
 21
102.5
 31
0.0
  0
LINE
  5
544
100
AcDbEntity
  8
LAY-1
  6
CONTINUOUS
 62
     2
100
AcDbLine
 10
-87.5
 20
133.41955
 30
0.0
 11
-87.5
 21
144.0
 31
0.0
  0
ARC
  5
545
100
AcDbEntity
  8
LAY-1
  6
CONTINUOUS
 62
     2
100
AcDbCircle
 10
-85.0
 20
130.37327
 30
0.0
 40
0.5
100
AcDbArc
 50
0.0
 51
80.0
  0
LINE
  5
546
100
AcDbEntity
  8
LAY-1
  6
CONTINUOUS
 62
     2
100
AcDbLine
 10
-84.913176
 20
130.865674
 30
0.0
 11
-85.43412
 21
130.95753
 31
0.0
  0
LINE
  5
547
100
AcDbEntity
  8
LAY-1
  6
CONTINUOUS
 62
     2
100
AcDbLine
 10
-87.5
 20
154.58045
 30
0.0
 11
-87.5
 21
144.0
 31
0.0
  0
ARC
  5
548
100
AcDbEntity
  8
LAY-1
  6
CONTINUOUS
 62
     2
100
AcDbCircle
 10
-85.0
 20
154.58045
 30
0.0
 40
2.5
100
AcDbArc
 50
100.0
 51
180.0
  0
ARC
  5
549
100
AcDbEntity
  8
LAY-1
  6
CONTINUOUS
 62
     2
100
AcDbCircle
 10
-85.0
 20
157.62673
 30
0.0
 40
0.5
100
AcDbArc
 50
280.0
 51
0.0
  0
LINE
  5
54A
100
AcDbEntity
  8
LAY-1
  6
CONTINUOUS
 62
     2
100
AcDbLine
 10
-84.913176
 20
157.134326
 30
0.0
 11
-85.43412
 21
157.04247
 31
0.0
  0
LINE
  5
54B
100
AcDbEntity
  8
LAY-1
  6
CONTINUOUS
 62
     2
100
AcDbLine
 10
-72.5
 20
76.0
 30
0.0
 11
-72.5
 21
93.171573
 31
0.0
  0
LINE
  5
54C
100
AcDbEntity
  8
LAY-1
  6
CONTINUOUS
 62
     2
100
AcDbLine
 10
-71.914214
 20
94.585786
 30
0.0
 11
-70.085786
 21
96.414214
 31
0.0
  0
LINE
  5
54D
100
AcDbEntity
  8
LAY-1
  6
CONTINUOUS
 62
     2
100
AcDbLine
 10
-28.5
 20
214.0
 30
0.0
 11
-70.5
 21
214.0
 31
0.0
  0
ARC
  5
54E
100
AcDbEntity
  8
LAY-1
  6
CONTINUOUS
 62
     2
100
AcDbCircle
 10
-25.854249
 20
215.0
 30
0.0
 40
2.0
100
AcDbArc
 50
228.590378
 51
270.0
  0
ARC
  5
54F
100
AcDbEntity
  8
LAY-1
  6
CONTINUOUS
 62
     2
100
AcDbCircle
 10
-28.5
 20
212.0
 30
0.0
 40
2.0
100
AcDbArc
 50
48.590378
 51
90.0
  0
LINE
  5
550
100
AcDbEntity
  8
LAY-1
  6
CONTINUOUS
 62
     2
100
AcDbLine
 10
-28.5
 20
74.0
 30
0.0
 11
-70.5
 21
74.0
 31
0.0
  0
ARC
  5
551
100
AcDbEntity
  8
LAY-1
  6
CONTINUOUS
 62
     2
100
AcDbCircle
 10
-25.854249
 20
73.0
 30
0.0
 40
2.0
100
AcDbArc
 50
90.0
 51
131.409622
  0
ARC
  5
552
100
AcDbEntity
  8
LAY-1
  6
CONTINUOUS
 62
     2
100
AcDbCircle
 10
-28.5
 20
76.0
 30
0.0
 40
2.0
100
AcDbArc
 50
270.0
 51
311.409622
  0
ARC
  5
553
100
AcDbEntity
  8
LAY-1
  6
CONTINUOUS
 62
     2
100
AcDbCircle
 10
-70.5
 20
212.0
 30
0.0
 40
2.0
100
AcDbArc
 50
90.0
 51
180.0
  0
LINE
  5
554
100
AcDbEntity
  8
LAY-1
  6
CONTINUOUS
 62
     2
100
AcDbLine
 10
-72.5
 20
212.0
 30
0.0
 11
-72.5
 21
194.828427
 31
0.0
  0
ARC
  5
555
100
AcDbEntity
  8
LAY-1
  6
CONTINUOUS
 62
     2
100
AcDbCircle
 10
-70.5
 20
76.0
 30
0.0
 40
2.0
100
AcDbArc
 50
180.0
 51
270.0
  0
LINE
  5
556
100
AcDbEntity
  8
LAY-1
  6
CONTINUOUS
 62
     2
100
AcDbLine
 10
-82.5
 20
102.5
 30
0.0
 11
-72.447643
 21
102.324535
 31
0.0
  0
ARC
  5
557
100
AcDbEntity
  8
LAY-1
  6
CONTINUOUS
 62
     2
100
AcDbCircle
 10
-72.5
 20
99.324992
 30
0.0
 40
3.0
100
AcDbArc
 50
0.0
 51
89.0
  0
ARC
  5
558
100
AcDbEntity
  8
LAY-1
  6
CONTINUOUS
 62
     2
100
AcDbCircle
 10
-72.5
 20
188.675008
 30
0.0
 40
3.0
100
AcDbArc
 50
271.0
 51
0.0
  0
LINE
  5
559
100
AcDbEntity
  8
LAY-1
  6
CONTINUOUS
 62
     2
100
AcDbLine
 10
-82.5
 20
185.5
 30
0.0
 11
-72.447643
 21
185.675465
 31
0.0
  0
LINE
  5
55A
100
AcDbEntity
  8
LAY-1
  6
CONTINUOUS
 62
     2
100
AcDbLine
 10
-69.5
 20
190.171573
 30
0.0
 11
-69.5
 21
188.675008
 31
0.0
  0
LINE
  5
55B
100
AcDbEntity
  8
LAY-1
  6
CONTINUOUS
 62
     2
100
AcDbLine
 10
-69.5
 20
97.828427
 30
0.0
 11
-69.5
 21
99.5
 31
0.0
  0
ARC
  5
55C
100
AcDbEntity
  8
LAY-1
  6
CONTINUOUS
 62
     2
100
AcDbCircle
 10
-71.5
 20
190.171573
 30
0.0
 40
2.0
100
AcDbArc
 50
0.0
 51
45.0
  0
ARC
  5
55D
100
AcDbEntity
  8
LAY-1
  6
CONTINUOUS
 62
     2
100
AcDbCircle
 10
-70.5
 20
194.828427
 30
0.0
 40
2.0
100
AcDbArc
 50
180.0
 51
225.0
  0
ARC
  5
55E
100
AcDbEntity
  8
LAY-1
  6
CONTINUOUS
 62
     2
100
AcDbCircle
 10
-71.5
 20
97.828427
 30
0.0
 40
2.0
100
AcDbArc
 50
315.0
 51
0.0
  0
ARC
  5
55F
100
AcDbEntity
  8
LAY-1
  6
CONTINUOUS
 62
     2
100
AcDbCircle
 10
-70.5
 20
93.171573
 30
0.0
 40
2.0
100
AcDbArc
 50
135.0
 51
180.0
  0
LINE
  5
560
100
AcDbEntity
  8
LAY-1
  6
CONTINUOUS
 62
     2
100
AcDbLine
 10
-25.854249
 20
213.0
 30
0.0
 11
-7.9
 21
213.0
 31
0.0
  0
LINE
  5
561
100
AcDbEntity
  8
LAY-1
  6
CONTINUOUS
 62
     2
100
AcDbLine
 10
-8.5
 20
75.0
 30
0.0
 11
-25.854249
 21
75.0
 31
0.0
  0
LINE
  5
562
100
AcDbEntity
  8
LAY-1
  6
CONTINUOUS
 62
     2
100
AcDbLine
 10
-13.5
 20
213.0
 30
0.0
 11
-13.5
 21
75.0
 31
0.0
  0
LINE
  5
563
100
AcDbEntity
  8
LAY-1
  6
CONTINUOUS
 62
     2
100
AcDbLine
 10
-82.5
 20
102.5
 30
0.0
 11
-82.5
 21
185.5
 31
0.0
  0
LINE
  5
564
100
AcDbEntity
  8
LAY-1
  6
CONTINUOUS
 62
     2
100
AcDbLine
 10
-84.5
 20
185.5
 30
0.0
 11
-84.5
 21
102.5
 31
0.0
  0
LINE
  5
565
100
AcDbEntity
  8
LAY-1
  6
CONTINUOUS
 62
     2
100
AcDbLine
 10
3.329357
 20
109.218465
 30
0.0
 11
1.515367
 21
97.121861
 31
0.0
  0
ARC
  5
566
100
AcDbEntity
  8
LAY-1
  6
CONTINUOUS
 62
     2
100
AcDbCircle
 10
-6.0
 20
86.124509
 30
0.0
 40
1.5
100
AcDbArc
 50
108.827525
 51
180.0
  0
ARC
  5
567
100
AcDbEntity
  8
LAY-1
  6
CONTINUOUS
 62
     2
100
AcDbCircle
 10
-10.356726
 20
98.902183
 30
0.0
 40
12.0
100
AcDbArc
 50
288.827525
 51
291.159201
  0
ARC
  5
568
100
AcDbEntity
  8
LAY-1
  6
CONTINUOUS
 62
     2
100
AcDbCircle
 10
-23.5
 20
184.011609
 30
0.0
 40
10.0
100
AcDbArc
 50
135.0
 51
180.0
  0
ARC
  5
569
100
AcDbEntity
  8
LAY-1
  6
CONTINUOUS
 62
     2
100
AcDbCircle
 10
-17.5
 20
211.0
 30
0.0
 40
2.0
100
AcDbArc
 50
90.0
 51
180.0
  0
LINE
  5
56A
100
AcDbEntity
  8
LAY-1
  6
CONTINUOUS
 62
     2
100
AcDbLine
 10
-19.5
 20
211.0
 30
0.0
 11
-19.5
 21
144.0
 31
0.0
  0
ARC
  5
56B
100
AcDbEntity
  8
LAY-1
  6
CONTINUOUS
 62
     2
100
AcDbCircle
 10
-23.5
 20
103.988391
 30
0.0
 40
10.0
100
AcDbArc
 50
180.0
 51
225.0
  0
LINE
  5
56C
100
AcDbEntity
  8
LAY-1
  6
CONTINUOUS
 62
     2
100
AcDbLine
 10
-19.5
 20
77.0
 30
0.0
 11
-19.5
 21
144.0
 31
0.0
  0
ARC
  5
56D
100
AcDbEntity
  8
LAY-1
  6
CONTINUOUS
 62
     2
100
AcDbCircle
 10
-17.5
 20
77.0
 30
0.0
 40
2.0
100
AcDbArc
 50
180.0
 51
270.0
  0
ARC
  5
56E
100
AcDbEntity
  8
LAY-1
  6
CONTINUOUS
 62
     2
100
AcDbCircle
 10
-85.829165
 20
121.440602
 30
0.0
 40
1.5
100
AcDbArc
 50
90.0
 51
150.0
  0
ARC
  5
56F
100
AcDbEntity
  8
LAY-1
  6
CONTINUOUS
 62
     2
100
AcDbCircle
 10
-80.2
 20
118.190602
 30
0.0
 40
8.0
100
AcDbArc
 50
150.0
 51
180.0
  0
LINE
  5
570
100
AcDbEntity
  8
LAY-1
  6
CONTINUOUS
 62
     2
100
AcDbLine
 10
-85.829165
 20
122.940602
 30
0.0
 11
-84.5
 21
122.940602
 31
0.0
  0
ARC
  5
571
100
AcDbEntity
  8
LAY-1
  6
CONTINUOUS
 62
     2
100
AcDbCircle
 10
-85.829165
 20
114.940602
 30
0.0
 40
1.5
100
AcDbArc
 50
210.0
 51
270.0
  0
ARC
  5
572
100
AcDbEntity
  8
LAY-1
  6
CONTINUOUS
 62
     2
100
AcDbCircle
 10
-80.2
 20
118.190602
 30
0.0
 40
8.0
100
AcDbArc
 50
180.0
 51
210.0
  0
LINE
  5
573
100
AcDbEntity
  8
LAY-1
  6
CONTINUOUS
 62
     2
100
AcDbLine
 10
-85.829165
 20
113.440602
 30
0.0
 11
-84.5
 21
113.440602
 31
0.0
  0
ARC
  5
574
100
AcDbEntity
  8
LAY-1
  6
CONTINUOUS
 62
     2
100
AcDbCircle
 10
-85.829165
 20
166.559398
 30
0.0
 40
1.5
100
AcDbArc
 50
210.0
 51
270.0
  0
ARC
  5
575
100
AcDbEntity
  8
LAY-1
  6
CONTINUOUS
 62
     2
100
AcDbCircle
 10
-80.2
 20
169.809398
 30
0.0
 40
8.0
100
AcDbArc
 50
180.0
 51
210.0
  0
LINE
  5
576
100
AcDbEntity
  8
LAY-1
  6
CONTINUOUS
 62
     2
100
AcDbLine
 10
-85.829165
 20
165.059398
 30
0.0
 11
-84.5
 21
165.059398
 31
0.0
  0
ARC
  5
577
100
AcDbEntity
  8
LAY-1
  6
CONTINUOUS
 62
     2
100
AcDbCircle
 10
-85.829165
 20
173.059398
 30
0.0
 40
1.5
100
AcDbArc
 50
90.0
 51
150.0
  0
ARC
  5
578
100
AcDbEntity
  8
LAY-1
  6
CONTINUOUS
 62
     2
100
AcDbCircle
 10
-80.2
 20
169.809398
 30
0.0
 40
8.0
100
AcDbArc
 50
150.0
 51
180.0
  0
LINE
  5
579
100
AcDbEntity
  8
LAY-1
  6
CONTINUOUS
 62
     2
100
AcDbLine
 10
-85.829165
 20
174.559398
 30
0.0
 11
-84.5
 21
174.559398
 31
0.0
  0
LINE
  5
57A
100
AcDbEntity
  8
LAY-1
  6
CONTINUOUS
 62
     2
100
AcDbLine
 10
-71.334672
 20
94.0
 30
0.0
 11
-27.653745
 21
94.0
 31
0.0
  0
LINE
  5
57B
100
AcDbEntity
  8
LAY-1
  6
CONTINUOUS
 62
     2
100
AcDbLine
 10
-71.334672
 20
194.0
 30
0.0
 11
-27.653745
 21
194.0
 31
0.0
  0
LINE
  5
57C
100
AcDbEntity
  8
LAY-1
  6
CONTINUOUS
 62
     2
100
AcDbLine
 10
-71.914214
 20
193.414214
 30
0.0
 11
-70.085786
 21
191.585786
 31
0.0
  0
ARC
  5
57D
100
AcDbEntity
  8
LAY-1
  6
CONTINUOUS
 62
     2
100
AcDbCircle
 10
-57.211495
 20
239.799595
 30
0.0
 40
48.833352
100
AcDbArc
 50
253.684877
 51
267.869495
  0
LINE
  5
57E
100
AcDbEntity
  8
LAY-1
  6
CONTINUOUS
 62
     2
100
AcDbLine
 10
-59.026912
 20
214.0
 30
0.0
 11
-59.026912
 21
194.0
 31
0.0
  0
LINE
  5
57F
100
AcDbEntity
  8
LAY-1
  6
CONTINUOUS
 62
     2
100
AcDbLine
 10
-59.026912
 20
191.0
 30
0.0
 11
-30.571068
 21
191.0
 31
0.0
  0
ARC
  5
580
100
AcDbEntity
  8
LAY-1
  6
CONTINUOUS
 62
     2
100
AcDbCircle
 10
-57.211495
 20
48.200405
 30
0.0
 40
48.833352
100
AcDbArc
 50
92.130505
 51
106.315123
  0
LINE
  5
581
100
AcDbEntity
  8
LAY-1
  6
CONTINUOUS
 62
     2
100
AcDbLine
 10
-59.026912
 20
97.0
 30
0.0
 11
-30.571068
 21
97.0
 31
0.0
  0
LINE
  5
582
100
AcDbEntity
  8
LAY-1
  6
CONTINUOUS
 62
     2
100
AcDbLine
 10
-59.026912
 20
74.0
 30
0.0
 11
-59.026912
 21
94.0
 31
0.0
  0
ARC
  5
583
100
AcDbEntity
  8
LAY-1
  6
CONTINUOUS
 62
     2
100
AcDbCircle
 10
-85.0
 20
133.41955
 30
0.0
 40
2.5
100
AcDbArc
 50
180.0
 51
260.0
  0
LINE
  5
584
100
AcDbEntity
  8
LAY-1
  6
CONTINUOUS
 62
     2
100
AcDbLine
 10
-48.5
 20
135.931378
 30
0.0
 11
-48.5
 21
152.068622
 31
0.0
  0
ARC
  5
585
100
AcDbEntity
  8
LAY-1
  6
CONTINUOUS
 62
     2
100
AcDbCircle
 10
-46.5
 20
135.931378
 30
0.0
 40
2.0
100
AcDbArc
 50
180.0
 51
268.0
  0
ARC
  5
586
100
AcDbEntity
  8
LAY-1
  6
CONTINUOUS
 62
     2
100
AcDbCircle
 10
-46.5
 20
152.068622
 30
0.0
 40
2.0
100
AcDbArc
 50
92.0
 51
180.0
  0
LINE
  5
587
100
AcDbEntity
  8
LAY-1
  6
CONTINUOUS
 62
     2
100
AcDbLine
 10
-22.653745
 20
154.902571
 30
0.0
 11
-46.569799
 21
154.067404
 31
0.0
  0
LINE
  5
588
100
AcDbEntity
  8
LAY-1
  6
CONTINUOUS
 62
     2
100
AcDbLine
 10
-22.653745
 20
133.097429
 30
0.0
 11
-46.569799
 21
133.932596
 31
0.0
  0
LINE
  5
589
100
AcDbEntity
  8
LAY-1
  6
CONTINUOUS
 62
     2
100
AcDbLine
 10
-33.5
 20
103.988391
 30
0.0
 11
-33.5
 21
133.476188
 31
0.0
  0
LINE
  5
58A
100
AcDbEntity
  8
LAY-1
  6
CONTINUOUS
 62
     2
100
AcDbLine
 10
-33.5
 20
184.011609
 30
0.0
 11
-33.5
 21
154.523812
 31
0.0
  0
ARC
  5
58B
100
AcDbEntity
  8
LAY-1
  6
CONTINUOUS
 62
     2
100
AcDbCircle
 10
-39.922098
 20
144.0
 30
0.0
 40
20.422098
100
AcDbArc
 50
327.733268
 51
32.266732
  0
LINE
  5
58C
100
AcDbEntity
  8
LAY-1
  6
CONTINUOUS
 62
     2
100
AcDbLine
 10
-7.5
 20
76.147887
 30
0.0
 11
-7.5
 21
131.649573
 31
0.0
  0
LINE
  5
58D
100
AcDbEntity
  8
LAY-1
  6
CONTINUOUS
 62
     2
100
AcDbLine
 10
-7.5
 20
156.350427
 30
0.0
 11
-7.5
 21
201.908116
 31
0.0
  0
LINE
  5
58E
100
AcDbEntity
  8
LAY-1
  6
CONTINUOUS
 62
     2
100
AcDbLine
 10
3.077268
 20
180.46259
 30
0.0
 11
1.510583
 21
190.910047
 31
0.0
  0
LINE
  5
58F
100
AcDbEntity
  8
LAY-1
  6
CONTINUOUS
 62
     2
100
AcDbLine
 10
56.5
 20
164.5
 30
0.0
 11
18.873196
 21
165.156778
 31
0.0
  0
ARC
  5
590
100
AcDbEntity
  8
LAY-1
  6
CONTINUOUS
 62
     2
100
AcDbCircle
 10
4.5
 20
144.0
 30
0.0
 40
10.0
100
AcDbArc
 50
270.0
 51
90.0
  0
CIRCLE
  5
591
100
AcDbEntity
  8
LAY-1
  6
CONTINUOUS
 62
     2
100
AcDbCircle
 10
4.5
 20
144.0
 30
0.0
 40
8.5
  0
LINE
  5
592
100
AcDbEntity
  8
LAY-1
  6
CONTINUOUS
 62
     2
100
AcDbLine
 10
-5.569799
 20
133.648355
 30
0.0
 11
4.5
 21
134.0
 31
0.0
  0
ARC
  5
593
100
AcDbEntity
  8
LAY-1
  6
CONTINUOUS
 62
     2
100
AcDbCircle
 10
-5.5
 20
131.649573
 30
0.0
 40
2.0
100
AcDbArc
 50
92.0
 51
180.0
  0
LINE
  5
594
100
AcDbEntity
  8
LAY-1
  6
CONTINUOUS
 62
     2
100
AcDbLine
 10
-5.569799
 20
154.351645
 30
0.0
 11
4.5
 21
154.0
 31
0.0
  0
ARC
  5
595
100
AcDbEntity
  8
LAY-1
  6
CONTINUOUS
 62
     2
100
AcDbCircle
 10
-5.5
 20
156.350427
 30
0.0
 40
2.0
100
AcDbArc
 50
180.0
 51
268.0
  0
LINE
  5
596
100
AcDbEntity
  8
LAY-1
  6
CONTINUOUS
 62
     2
100
AcDbLine
 10
-39.973088
 20
214.0
 30
0.0
 11
-39.973088
 21
209.053824
 31
0.0
  0
LINE
  5
597
100
AcDbEntity
  8
LAY-1
  6
CONTINUOUS
 62
     2
100
AcDbLine
 10
-39.973088
 20
209.053824
 30
0.0
 11
-26.5
 21
213.107117
 31
0.0
  0
LINE
  5
598
100
AcDbEntity
  8
LAY-1
  6
CONTINUOUS
 62
     2
100
AcDbLine
 10
-19.5
 20
209.053824
 30
0.0
 11
-39.973088
 21
209.053824
 31
0.0
  0
ARC
  5
599
100
AcDbEntity
  8
LAY-1
  6
CONTINUOUS
 62
     2
100
AcDbCircle
 10
-24.5
 20
205.896385
 30
0.0
 40
2.0
100
AcDbArc
 50
90.0
 51
180.0
  0
LINE
  5
59A
100
AcDbEntity
  8
LAY-1
  6
CONTINUOUS
 62
     2
100
AcDbLine
 10
-19.5
 20
207.896385
 30
0.0
 11
-24.5
 21
207.896385
 31
0.0
  0
LINE
  5
59B
100
AcDbEntity
  8
LAY-1
  6
CONTINUOUS
 62
     2
100
AcDbLine
 10
-26.5
 20
205.896385
 30
0.0
 11
-26.5
 21
203.12829
 31
0.0
  0
LINE
  5
59C
100
AcDbEntity
  8
LAY-1
  6
CONTINUOUS
 62
     2
100
AcDbLine
 10
-26.5
 20
200.360195
 30
0.0
 11
-26.5
 21
203.12829
 31
0.0
  0
ARC
  5
59D
100
AcDbEntity
  8
LAY-1
  6
CONTINUOUS
 62
     2
100
AcDbCircle
 10
-24.5
 20
200.360195
 30
0.0
 40
2.0
100
AcDbArc
 50
180.0
 51
270.0
  0
LINE
  5
59E
100
AcDbEntity
  8
LAY-1
  6
CONTINUOUS
 62
     2
100
AcDbLine
 10
-19.5
 20
198.360195
 30
0.0
 11
-24.5
 21
198.360195
 31
0.0
  0
ARC
  5
59F
100
AcDbEntity
  8
LAY-1
  6
CONTINUOUS
 62
     2
100
AcDbCircle
 10
-24.5
 20
82.103615
 30
0.0
 40
2.0
100
AcDbArc
 50
180.0
 51
270.0
  0
LINE
  5
5A0
100
AcDbEntity
  8
LAY-1
  6
CONTINUOUS
 62
     2
100
AcDbLine
 10
-19.5
 20
80.103615
 30
0.0
 11
-24.5
 21
80.103615
 31
0.0
  0
LINE
  5
5A1
100
AcDbEntity
  8
LAY-1
  6
CONTINUOUS
 62
     2
100
AcDbLine
 10
-26.5
 20
82.103615
 30
0.0
 11
-26.5
 21
84.87171
 31
0.0
  0
LINE
  5
5A2
100
AcDbEntity
  8
LAY-1
  6
CONTINUOUS
 62
     2
100
AcDbLine
 10
-26.5
 20
87.639805
 30
0.0
 11
-26.5
 21
84.87171
 31
0.0
  0
ARC
  5
5A3
100
AcDbEntity
  8
LAY-1
  6
CONTINUOUS
 62
     2
100
AcDbCircle
 10
-24.5
 20
87.639805
 30
0.0
 40
2.0
100
AcDbArc
 50
90.0
 51
180.0
  0
LINE
  5
5A4
100
AcDbEntity
  8
LAY-1
  6
CONTINUOUS
 62
     2
100
AcDbLine
 10
-19.5
 20
89.639805
 30
0.0
 11
-24.5
 21
89.639805
 31
0.0
  0
LINE
  5
5A5
100
AcDbEntity
  8
LAY-1
  6
CONTINUOUS
 62
     2
100
AcDbLine
 10
-19.5
 20
78.946176
 30
0.0
 11
-39.973088
 21
78.946176
 31
0.0
  0
LINE
  5
5A6
100
AcDbEntity
  8
LAY-1
  6
CONTINUOUS
 62
     2
100
AcDbLine
 10
-39.973088
 20
78.946176
 30
0.0
 11
-26.5
 21
74.892883
 31
0.0
  0
LINE
  5
5A7
100
AcDbEntity
  8
LAY-1
  6
CONTINUOUS
 62
     2
100
AcDbLine
 10
-39.973088
 20
74.0
 30
0.0
 11
-39.973088
 21
78.946176
 31
0.0
  0
LINE
  5
5A8
100
AcDbEntity
  8
LAY-1
  6
CONTINUOUS
 62
     2
100
AcDbLine
 10
-23.29355
 20
89.639805
 30
0.0
 11
-30.571068
 21
96.917323
 31
0.0
  0
LINE
  5
5A9
100
AcDbEntity
  8
LAY-1
  6
CONTINUOUS
 62
     2
100
AcDbLine
 10
-23.29355
 20
198.360195
 30
0.0
 11
-30.571068
 21
191.082677
 31
0.0
  0
LINE
  5
5AA
100
AcDbEntity
  8
LAY-1
  6
CONTINUOUS
 62
     2
100
AcDbLine
 10
-11.362803
 20
198.37829
 30
0.0
 11
-13.5
 21
198.37829
 31
0.0
  0
LINE
  5
5AB
100
AcDbEntity
  8
LAY-1
  6
CONTINUOUS
 62
     2
100
AcDbLine
 10
-11.362803
 20
207.87829
 30
0.0
 11
-13.5
 21
207.87829
 31
0.0
  0
ARC
  5
5AC
100
AcDbEntity
  8
LAY-1
  6
CONTINUOUS
 62
     2
100
AcDbCircle
 10
-17.8
 20
203.12829
 30
0.0
 40
8.0
100
AcDbArc
 50
323.576426
 51
36.423574
  0
ARC
  5
5AD
100
AcDbEntity
  8
LAY-1
  6
CONTINUOUS
 62
     2
100
AcDbCircle
 10
-17.8
 20
168.49174
 30
0.0
 40
8.0
100
AcDbArc
 50
323.576426
 51
36.423574
  0
LINE
  5
5AE
100
AcDbEntity
  8
LAY-1
  6
CONTINUOUS
 62
     2
100
AcDbLine
 10
-11.362803
 20
173.24174
 30
0.0
 11
-13.5
 21
173.24174
 31
0.0
  0
LINE
  5
5AF
100
AcDbEntity
  8
LAY-1
  6
CONTINUOUS
 62
     2
100
AcDbLine
 10
-11.362803
 20
163.74174
 30
0.0
 11
-13.5
 21
163.74174
 31
0.0
  0
ARC
  5
5B0
100
AcDbEntity
  8
LAY-1
  6
CONTINUOUS
 62
     2
100
AcDbCircle
 10
-17.8
 20
119.50826
 30
0.0
 40
8.0
100
AcDbArc
 50
323.576426
 51
36.423574
  0
LINE
  5
5B1
100
AcDbEntity
  8
LAY-1
  6
CONTINUOUS
 62
     2
100
AcDbLine
 10
-11.362803
 20
114.75826
 30
0.0
 11
-13.5
 21
114.75826
 31
0.0
  0
LINE
  5
5B2
100
AcDbEntity
  8
LAY-1
  6
CONTINUOUS
 62
     2
100
AcDbLine
 10
-11.362803
 20
124.25826
 30
0.0
 11
-13.5
 21
124.25826
 31
0.0
  0
LINE
  5
5B3
100
AcDbEntity
  8
LAY-1
  6
CONTINUOUS
 62
     2
100
AcDbLine
 10
-11.362803
 20
89.62171
 30
0.0
 11
-13.5
 21
89.62171
 31
0.0
  0
LINE
  5
5B4
100
AcDbEntity
  8
LAY-1
  6
CONTINUOUS
 62
     2
100
AcDbLine
 10
-11.362803
 20
80.12171
 30
0.0
 11
-13.5
 21
80.12171
 31
0.0
  0
ARC
  5
5B5
100
AcDbEntity
  8
LAY-1
  6
CONTINUOUS
 62
     2
100
AcDbCircle
 10
-17.8
 20
84.87171
 30
0.0
 40
8.0
100
AcDbArc
 50
323.576426
 51
36.423574
  0
CIRCLE
  5
5B6
100
AcDbEntity
  8
LAY-1
  6
CONTINUOUS
 62
     2
100
AcDbCircle
 10
4.5
 20
144.0
 30
0.0
 40
0.5
  0
CIRCLE
  5
5B7
100
AcDbEntity
  8
LAY-1
  6
CONTINUOUS
 62
     1
100
AcDbCircle
 10
4.5
 20
144.0
 30
0.0
 40
6.5785
  0
CIRCLE
  5
5B8
100
AcDbEntity
  8
LAY-1
  6
CONTINUOUS
 62
     2
100
AcDbCircle
 10
4.5
 20
144.0
 30
0.0
 40
5.694886
  0
TEXT
  5
5B9
100
AcDbEntity
  8
LAY-1
  6
CONTINUOUS
 62
     3
100
AcDbText
 10
357.2144
 20
-102.912
 30
0.0
 40
8.0
  1
ＳＧＸ－２５ＮＺＴ
 41
0.84
  7
EXCADSTD
 72
     5
 11
429.2144
 21
-102.912
 31
0.0
100
AcDbText
  0
TEXT
  5
5BA
100
AcDbEntity
  8
LAY-1
  6
CONTINUOUS
 62
     3
100
AcDbText
 10
357.8016
 20
-114.0736
 30
0.0
 40
8.0
  1
均圧弁（外部調整タイプ）
 41
0.84
  7
EXCADSTD
 72
     5
 11
453.8016
 21
-114.0736
 31
0.0
100
AcDbText
  0
LINE
  5
5BB
100
AcDbEntity
  8
LAY-1
  6
CONTINUOUS
 62
     3
100
AcDbLine
 10
220.044864
 20
128.03923
 30
0.0
 11
219.444864
 21
127.0
 31
0.0
  0
LINE
  5
5BC
100
AcDbEntity
  8
LAY-1
  6
CONTINUOUS
 62
     3
100
AcDbLine
 10
221.143154
 20
130.306008
 30
0.0
 11
220.607383
 21
128.83399
 31
0.0
  0
LINE
  5
5BD
100
AcDbEntity
  8
LAY-1
  6
CONTINUOUS
 62
     3
100
AcDbLine
 10
219.444864
 20
161.0
 30
0.0
 11
220.044864
 21
159.96077
 31
0.0
  0
LINE
  5
5BE
100
AcDbEntity
  8
LAY-3
  6
CONTINUOUS
 62
     1
100
AcDbLine
 10
-8.5
 20
213.0
 30
0.0
 11
104.5
 21
213.0
 31
0.0
  0
LINE
  5
5BF
100
AcDbEntity
  8
LAY-3
  6
CONTINUOUS
 62
     1
100
AcDbLine
 10
-8.5
 20
75.0
 30
0.0
 11
104.5
 21
75.0
 31
0.0
  0
TEXT
  5
5C0
100
AcDbEntity
  8
LAY-3
  6
CONTINUOUS
 62
     3
100
AcDbText
 10
103.0
 20
124.0
 30
0.0
 40
10.0
  1
φ
 50
90.0
 41
0.84
  7
EXCADSTD
 72
     5
 11
103.0
 21
132.0
 31
0.0
100
AcDbText
  0
TEXT
  5
5C1
100
AcDbEntity
  8
LAY-3
  6
CONTINUOUS
 62
     3
100
AcDbText
 10
103.0
 20
134.0
 30
0.0
 40
10.0
  1
１３８
 50
90.0
 41
0.84
  7
EXCADSTD
 72
     5
 11
103.0
 21
164.0
 31
0.0
100
AcDbText
  0
LINE
  5
5C2
100
AcDbEntity
  8
LAY-3
  6
CONTINUOUS
 62
     1
100
AcDbLine
 10
104.0
 20
213.0
 30
0.0
 11
104.0
 21
75.0
 31
0.0
  0
LINE
  5
5C3
100
AcDbEntity
  8
LAY-3
  6
CONTINUOUS
 62
     1
100
AcDbLine
 10
104.666667
 20
209.0
 30
0.0
 11
104.0
 21
213.0
 31
0.0
  0
LINE
  5
5C4
100
AcDbEntity
  8
LAY-3
  6
CONTINUOUS
 62
     1
100
AcDbLine
 10
104.0
 20
213.0
 30
0.0
 11
103.333333
 21
209.0
 31
0.0
  0
LINE
  5
5C5
100
AcDbEntity
  8
LAY-3
  6
CONTINUOUS
 62
     1
100
AcDbLine
 10
103.333333
 20
79.0
 30
0.0
 11
104.0
 21
75.0
 31
0.0
  0
LINE
  5
5C6
100
AcDbEntity
  8
LAY-3
  6
CONTINUOUS
 62
     1
100
AcDbLine
 10
104.0
 20
75.0
 30
0.0
 11
104.666667
 21
79.0
 31
0.0
  0
POLYLINE
  5
5C7
100
AcDbEntity
  8
LAY-3
  6
CONTINUOUS
 62
     1
100
AcDb2dPolyline
 66
     1
 10
0.0
 20
0.0
 30
0.0
 70
   128
  0
VERTEX
  5
5C8
100
AcDbEntity
  8
LAY-3
  6
CONTINUOUS
 62
     1
100
AcDbVertex
100
AcDb2dVertex
 10
7.802679
 20
149.689374
 30
0.0
  0
VERTEX
  5
5C9
100
AcDbEntity
  8
LAY-3
  6
CONTINUOUS
 62
     1
100
AcDbVertex
100
AcDb2dVertex
 10
36.247632
 20
178.134326
 30
0.0
  0
VERTEX
  5
5CA
100
AcDbEntity
  8
LAY-3
  6
CONTINUOUS
 62
     1
100
AcDbVertex
100
AcDb2dVertex
 10
83.975942
 20
178.134326
 30
0.0
  0
SEQEND
  5
5CB
100
AcDbEntity
  8
LAY-3
  6
CONTINUOUS
 62
     1
  0
LINE
  5
5CC
100
AcDbEntity
  8
LAY-3
  6
CONTINUOUS
 62
     1
100
AcDbLine
 10
10.159702
 20
152.989205
 30
0.0
 11
7.802679
 21
149.689374
 31
0.0
  0
LINE
  5
5CD
100
AcDbEntity
  8
LAY-3
  6
CONTINUOUS
 62
     1
100
AcDbLine
 10
7.802679
 20
149.689374
 30
0.0
 11
11.102511
 21
152.046396
 31
0.0
  0
TEXT
  5
5CE
100
AcDbEntity
  8
LAY-3
  6
CONTINUOUS
 62
     3
100
AcDbText
 10
35.111787
 20
178.434326
 30
0.0
 40
10.0
  1
Ｒｃ１／４
 41
0.84
  7
EXCADSTD
 72
     5
 11
85.111787
 21
178.434326
 31
0.0
100
AcDbText
  0
TEXT
  5
5CF
100
AcDbEntity
  8
LAY-3
  6
CONTINUOUS
 62
     3
100
AcDbText
 10
-25.95
 20
56.3
 30
0.0
 40
10.0
  1
Ｒｃ１
 41
0.84
  7
EXCADSTD
 72
     5
 11
4.05
 21
56.3
 31
0.0
100
AcDbText
  0
POLYLINE
  5
5D0
100
AcDbEntity
  8
LAY-3
  6
CONTINUOUS
 62
     1
100
AcDb2dPolyline
 66
     1
 10
0.0
 20
0.0
 30
0.0
 70
   128
  0
VERTEX
  5
5D1
100
AcDbEntity
  8
LAY-3
  6
CONTINUOUS
 62
     1
100
AcDbVertex
100
AcDb2dVertex
 10
-44.5
 20
74.0
 30
0.0
  0
VERTEX
  5
5D2
100
AcDbEntity
  8
LAY-3
  6
CONTINUOUS
 62
     1
100
AcDbVertex
100
AcDb2dVertex
 10
-26.5
 20
56.0
 30
0.0
  0
VERTEX
  5
5D3
100
AcDbEntity
  8
LAY-3
  6
CONTINUOUS
 62
     1
100
AcDbVertex
100
AcDb2dVertex
 10
4.6
 20
56.0
 30
0.0
  0
SEQEND
  5
5D4
100
AcDbEntity
  8
LAY-3
  6
CONTINUOUS
 62
     1
  0
LINE
  5
5D5
100
AcDbEntity
  8
LAY-3
  6
CONTINUOUS
 62
     1
100
AcDbLine
 10
-41.200168
 20
71.642977
 30
0.0
 11
-44.5
 21
74.0
 31
0.0
  0
LINE
  5
5D6
100
AcDbEntity
  8
LAY-3
  6
CONTINUOUS
 62
     1
100
AcDbLine
 10
-44.5
 20
74.0
 30
0.0
 11
-42.142977
 21
70.700168
 31
0.0
  0
LINE
  5
5D7
100
AcDbEntity
  8
LAY-3
  6
CONTINUOUS
 62
     1
100
AcDbLine
 10
-49.5
 20
69.7
 30
0.0
 11
-49.5
 21
31.5
 31
0.0
  0
LINE
  5
5D8
100
AcDbEntity
  8
LAY-3
  6
CONTINUOUS
 62
     1
100
AcDbLine
 10
71.0
 20
144.0
 30
0.0
 11
71.0
 21
31.5
 31
0.0
  0
TEXT
  5
5D9
100
AcDbEntity
  8
LAY-3
  6
CONTINUOUS
 62
     3
100
AcDbText
 10
-11.75
 20
33.0
 30
0.0
 40
10.0
  1
１２０.５
 41
0.7848
  7
EXCADSTD
 72
     5
 11
33.25
 21
33.0
 31
0.0
100
AcDbText
  0
LINE
  5
5DA
100
AcDbEntity
  8
LAY-3
  6
CONTINUOUS
 62
     1
100
AcDbLine
 10
-49.5
 20
32.0
 30
0.0
 11
71.0
 21
32.0
 31
0.0
  0
LINE
  5
5DB
100
AcDbEntity
  8
LAY-3
  6
CONTINUOUS
 62
     1
100
AcDbLine
 10
-45.5
 20
32.666667
 30
0.0
 11
-49.5
 21
32.0
 31
0.0
  0
LINE
  5
5DC
100
AcDbEntity
  8
LAY-3
  6
CONTINUOUS
 62
     1
100
AcDbLine
 10
-49.5
 20
32.0
 30
0.0
 11
-45.5
 21
31.333333
 31
0.0
  0
LINE
  5
5DD
100
AcDbEntity
  8
LAY-3
  6
CONTINUOUS
 62
     1
100
AcDbLine
 10
67.0
 20
31.333333
 30
0.0
 11
71.0
 21
32.0
 31
0.0
  0
LINE
  5
5DE
100
AcDbEntity
  8
LAY-3
  6
CONTINUOUS
 62
     1
100
AcDbLine
 10
71.0
 20
32.0
 30
0.0
 11
67.0
 21
32.666667
 31
0.0
  0
LINE
  5
5DF
100
AcDbEntity
  8
LAY-3
  6
CONTINUOUS
 62
     1
100
AcDbLine
 10
-88.2
 20
169.809398
 30
0.0
 11
-88.2
 21
31.5
 31
0.0
  0
LINE
  5
5E0
100
AcDbEntity
  8
LAY-3
  6
CONTINUOUS
 62
     1
100
AcDbLine
 10
-49.5
 20
69.7
 30
0.0
 11
-49.5
 21
31.5
 31
0.0
  0
TEXT
  5
5E1
100
AcDbEntity
  8
LAY-3
  6
CONTINUOUS
 62
     3
100
AcDbText
 10
-86.35
 20
33.0
 30
0.0
 40
10.0
  1
３８.７
 41
0.77
  7
EXCADSTD
 72
     5
 11
-51.35
 21
33.0
 31
0.0
100
AcDbText
  0
LINE
  5
5E2
100
AcDbEntity
  8
LAY-3
  6
CONTINUOUS
 62
     1
100
AcDbLine
 10
-88.2
 20
32.0
 30
0.0
 11
-49.5
 21
32.0
 31
0.0
  0
LINE
  5
5E3
100
AcDbEntity
  8
LAY-3
  6
CONTINUOUS
 62
     1
100
AcDbLine
 10
-84.2
 20
32.666667
 30
0.0
 11
-88.2
 21
32.0
 31
0.0
  0
LINE
  5
5E4
100
AcDbEntity
  8
LAY-3
  6
CONTINUOUS
 62
     1
100
AcDbLine
 10
-88.2
 20
32.0
 30
0.0
 11
-84.2
 21
31.333333
 31
0.0
  0
LINE
  5
5E5
100
AcDbEntity
  8
LAY-3
  6
CONTINUOUS
 62
     1
100
AcDbLine
 10
-53.5
 20
31.333333
 30
0.0
 11
-49.5
 21
32.0
 31
0.0
  0
LINE
  5
5E6
100
AcDbEntity
  8
LAY-3
  6
CONTINUOUS
 62
     1
100
AcDbLine
 10
-49.5
 20
32.0
 30
0.0
 11
-53.5
 21
32.666667
 31
0.0
  0
LINE
  5
5E7
100
AcDbEntity
  8
LAY-3
  6
CONTINUOUS
 62
     1
100
AcDbLine
 10
-70.5
 20
214.0
 30
0.0
 11
-104.5
 21
214.0
 31
0.0
  0
LINE
  5
5E8
100
AcDbEntity
  8
LAY-3
  6
CONTINUOUS
 62
     1
100
AcDbLine
 10
-70.5
 20
74.0
 30
0.0
 11
-104.5
 21
74.0
 31
0.0
  0
TEXT
  5
5E9
100
AcDbEntity
  8
LAY-3
  6
CONTINUOUS
 62
     3
100
AcDbText
 10
-105.0
 20
129.0
 30
0.0
 40
10.0
  1
１４０
 50
90.0
 41
0.84
  7
EXCADSTD
 72
     5
 11
-105.0
 21
159.0
 31
0.0
100
AcDbText
  0
LINE
  5
5EA
100
AcDbEntity
  8
LAY-3
  6
CONTINUOUS
 62
     1
100
AcDbLine
 10
-104.0
 20
214.0
 30
0.0
 11
-104.0
 21
74.0
 31
0.0
  0
LINE
  5
5EB
100
AcDbEntity
  8
LAY-3
  6
CONTINUOUS
 62
     1
100
AcDbLine
 10
-103.333333
 20
210.0
 30
0.0
 11
-104.0
 21
214.0
 31
0.0
  0
LINE
  5
5EC
100
AcDbEntity
  8
LAY-3
  6
CONTINUOUS
 62
     1
100
AcDbLine
 10
-104.0
 20
214.0
 30
0.0
 11
-104.666667
 21
210.0
 31
0.0
  0
LINE
  5
5ED
100
AcDbEntity
  8
LAY-3
  6
CONTINUOUS
 62
     1
100
AcDbLine
 10
-104.666667
 20
78.0
 30
0.0
 11
-104.0
 21
74.0
 31
0.0
  0
LINE
  5
5EE
100
AcDbEntity
  8
LAY-3
  6
CONTINUOUS
 62
     1
100
AcDbLine
 10
-104.0
 20
74.0
 30
0.0
 11
-103.333333
 21
78.0
 31
0.0
  0
TEXT
  5
5EF
100
AcDbEntity
  8
LAY-3
  6
CONTINUOUS
 62
     3
100
AcDbText
 10
-26.9
 20
232.3
 30
0.0
 40
10.0
  1
Ｒｃ１
 41
0.84
  7
EXCADSTD
 72
     5
 11
3.1
 21
232.3
 31
0.0
100
AcDbText
  0
POLYLINE
  5
5F0
100
AcDbEntity
  8
LAY-3
  6
CONTINUOUS
 62
     1
100
AcDb2dPolyline
 66
     1
 10
0.0
 20
0.0
 30
0.0
 70
   128
  0
VERTEX
  5
5F1
100
AcDbEntity
  8
LAY-3
  6
CONTINUOUS
 62
     1
100
AcDbVertex
100
AcDb2dVertex
 10
-44.5
 20
214.0
 30
0.0
  0
VERTEX
  5
5F2
100
AcDbEntity
  8
LAY-3
  6
CONTINUOUS
 62
     1
100
AcDbVertex
100
AcDb2dVertex
 10
-26.5
 20
232.0
 30
0.0
  0
VERTEX
  5
5F3
100
AcDbEntity
  8
LAY-3
  6
CONTINUOUS
 62
     1
100
AcDbVertex
100
AcDb2dVertex
 10
2.7
 20
232.0
 30
0.0
  0
SEQEND
  5
5F4
100
AcDbEntity
  8
LAY-3
  6
CONTINUOUS
 62
     1
  0
LINE
  5
5F5
100
AcDbEntity
  8
LAY-3
  6
CONTINUOUS
 62
     1
100
AcDbLine
 10
-42.142977
 20
217.299832
 30
0.0
 11
-44.5
 21
214.0
 31
0.0
  0
LINE
  5
5F6
100
AcDbEntity
  8
LAY-3
  6
CONTINUOUS
 62
     1
100
AcDbLine
 10
-44.5
 20
214.0
 30
0.0
 11
-41.200168
 21
216.357023
 31
0.0
  0
LINE
  5
5F7
100
AcDbEntity
  8
LAY-3
  6
CONTINUOUS
 62
     2
100
AcDbLine
 10
-51.5
 20
216.801553
 30
0.0
 11
-47.5
 21
216.801553
 31
0.0
  0
LINE
  5
5F8
100
AcDbEntity
  8
LAY-3
  6
CONTINUOUS
 62
     2
100
AcDbLine
 10
-51.5
 20
226.801553
 30
0.0
 11
-51.5
 21
216.801553
 31
0.0
  0
LINE
  5
5F9
100
AcDbEntity
  8
LAY-3
  6
CONTINUOUS
 62
     2
100
AcDbLine
 10
-54.5
 20
226.801553
 30
0.0
 11
-51.5
 21
226.801553
 31
0.0
  0
LINE
  5
5FA
100
AcDbEntity
  8
LAY-3
  6
CONTINUOUS
 62
     2
100
AcDbLine
 10
-49.5
 20
231.801553
 30
0.0
 11
-54.5
 21
226.801553
 31
0.0
  0
LINE
  5
5FB
100
AcDbEntity
  8
LAY-3
  6
CONTINUOUS
 62
     2
100
AcDbLine
 10
-44.5
 20
226.801553
 30
0.0
 11
-49.5
 21
231.801553
 31
0.0
  0
LINE
  5
5FC
100
AcDbEntity
  8
LAY-3
  6
CONTINUOUS
 62
     2
100
AcDbLine
 10
-47.5
 20
226.801553
 30
0.0
 11
-44.5
 21
226.801553
 31
0.0
  0
LINE
  5
5FD
100
AcDbEntity
  8
LAY-3
  6
CONTINUOUS
 62
     2
100
AcDbLine
 10
-47.5
 20
216.801553
 30
0.0
 11
-47.5
 21
226.801553
 31
0.0
  0
LINE
  5
5FE
100
AcDbEntity
  8
LAY-3
  6
CONTINUOUS
 62
     2
100
AcDbLine
 10
-51.5
 20
54.7
 30
0.0
 11
-47.5
 21
54.7
 31
0.0
  0
LINE
  5
5FF
100
AcDbEntity
  8
LAY-3
  6
CONTINUOUS
 62
     2
100
AcDbLine
 10
-51.5
 20
64.7
 30
0.0
 11
-51.5
 21
54.7
 31
0.0
  0
LINE
  5
600
100
AcDbEntity
  8
LAY-3
  6
CONTINUOUS
 62
     2
100
AcDbLine
 10
-47.5
 20
54.7
 30
0.0
 11
-47.5
 21
64.7
 31
0.0
  0
LINE
  5
601
100
AcDbEntity
  8
LAY-3
  6
CONTINUOUS
 62
     2
100
AcDbLine
 10
-47.5
 20
64.7
 30
0.0
 11
-44.5
 21
64.7
 31
0.0
  0
LINE
  5
602
100
AcDbEntity
  8
LAY-3
  6
CONTINUOUS
 62
     2
100
AcDbLine
 10
-44.5
 20
64.7
 30
0.0
 11
-49.5
 21
69.7
 31
0.0
  0
LINE
  5
603
100
AcDbEntity
  8
LAY-3
  6
CONTINUOUS
 62
     2
100
AcDbLine
 10
-49.5
 20
69.7
 30
0.0
 11
-54.5
 21
64.7
 31
0.0
  0
LINE
  5
604
100
AcDbEntity
  8
LAY-3
  6
CONTINUOUS
 62
     2
100
AcDbLine
 10
-54.5
 20
64.7
 30
0.0
 11
-51.5
 21
64.7
 31
0.0
  0
INSERT
  5
605
100
AcDbEntity
  8
LAY-5
  6
CONTINUOUS
 62
     0
100
AcDbBlockReference
  2
SYM-1
 10
394.027167
 20
-130.143985
 30
0.0
 41
1.1583
 42
1.1583
  0
TEXT
  5
606
100
AcDbEntity
  8
LAY-5
  6
CONTINUOUS
 62
     3
100
AcDbText
 10
351.76008
 20
-92.20768
 30
0.0
 40
7.92
  1
２０１４年　４月　１日
 41
0.84
  7
EXCADSTD
 72
     5
 11
438.880081
 21
-92.20768
 31
0.0
100
AcDbText
  0
ENDSEC
  0
SECTION
  2
OBJECTS
  0
DICTIONARY
  5
19
100
AcDbDictionary
  3
ACAD_GROUP
350
1A
  3
ACAD_MLINESTYLE
350
1B
  0
DICTIONARY
  5
1A
102
{ACAD_REACTORS
330
19
102
}
100
AcDbDictionary
  0
DICTIONARY
  5
1B
102
{ACAD_REACTORS
330
19
102
}
100
AcDbDictionary
  3
STANDARD
350
1C
  0
MLINESTYLE
  5
1C
102
{ACAD_REACTORS
330
1B
102
}
100
AcDbMlineStyle
  2
Standard
 70
     0
  3

 62
     0
 51
90.0
 52
90.0
 71
     2
 49
0.5
 62
   256
  6
ByLayer
 49
-0.5
 62
   256
  6
ByLayer
  0
ENDSEC
  0
EOF
