  0
SECTION
  2
HEADER
  9
$ACADVER
  1
AC1014
  9
$ACADMAINTVER
 70
     0
  9
$DWGCODEPAGE
  3
ANSI_932
  9
$INSBASE
 10
0.0
 20
0.0
 30
0.0
  9
$EXTMIN
 10
71.1
 20
9.636273
 30
0.0
  9
$EXTMAX
 10
360.68
 20
288.7
 30
0.0
  9
$LIMMIN
 10
0.0
 20
0.0
  9
$LIMMAX
 10
420.0
 20
297.0
  9
$ORTHOMODE
 70
     0
  9
$REGENMODE
 70
     1
  9
$FILLMODE
 70
     1
  9
$QTEXTMODE
 70
     0
  9
$MIRRTEXT
 70
     1
  9
$DRAGMODE
 70
     2
  9
$LTSCALE
 40
1.0
  9
$OSMODE
 70
     0
  9
$ATTMODE
 70
     1
  9
$TEXTSIZE
 40
0.2
  9
$TRACEWID
 40
0.05
  9
$TEXTSTYLE
  7
STANDARD
  9
$CLAYER
  8
LAY-1
  9
$CELTYPE
  6
CONTINUOUS
  9
$CECOLOR
 62
   256
  9
$CELTSCALE
 40
1.0
  9
$DELOBJ
 70
     1
  9
$DISPSILH
 70
     0
  9
$DIMSCALE
 40
1.0
  9
$DIMASZ
 40
0.18
  9
$DIMEXO
 40
0.0625
  9
$DIMDLI
 40
0.38
  9
$DIMRND
 40
0.0
  9
$DIMDLE
 40
0.0
  9
$DIMEXE
 40
0.18
  9
$DIMTP
 40
0.0
  9
$DIMTM
 40
0.0
  9
$DIMTXT
 40
0.18
  9
$DIMCEN
 40
0.09
  9
$DIMTSZ
 40
0.0
  9
$DIMTOL
 70
     0
  9
$DIMLIM
 70
     0
  9
$DIMTIH
 70
     1
  9
$DIMTOH
 70
     1
  9
$DIMSE1
 70
     0
  9
$DIMSE2
 70
     0
  9
$DIMTAD
 70
     0
  9
$DIMZIN
 70
     0
  9
$DIMBLK
  1

  9
$DIMASO
 70
     1
  9
$DIMSHO
 70
     1
  9
$DIMPOST
  1

  9
$DIMAPOST
  1

  9
$DIMALT
 70
     0
  9
$DIMALTD
 70
     2
  9
$DIMALTF
 40
25.4
  9
$DIMLFAC
 40
1.0
  9
$DIMTOFL
 70
     0
  9
$DIMTVP
 40
0.0
  9
$DIMTIX
 70
     0
  9
$DIMSOXD
 70
     0
  9
$DIMSAH
 70
     0
  9
$DIMBLK1
  1

  9
$DIMBLK2
  1

  9
$DIMSTYLE
  2
STANDARD
  9
$DIMCLRD
 70
     0
  9
$DIMCLRE
 70
     0
  9
$DIMCLRT
 70
     0
  9
$DIMTFAC
 40
1.0
  9
$DIMGAP
 40
0.09
  9
$DIMJUST
 70
     0
  9
$DIMSD1
 70
     0
  9
$DIMSD2
 70
     0
  9
$DIMTOLJ
 70
     1
  9
$DIMTZIN
 70
     0
  9
$DIMALTZ
 70
     0
  9
$DIMALTTZ
 70
     0
  9
$DIMFIT
 70
     3
  9
$DIMUPT
 70
     0
  9
$DIMUNIT
 70
     2
  9
$DIMDEC
 70
     4
  9
$DIMTDEC
 70
     4
  9
$DIMALTU
 70
     2
  9
$DIMALTTD
 70
     2
  9
$DIMTXSTY
  7
STANDARD
  9
$DIMAUNIT
 70
     0
  9
$LUNITS
 70
     2
  9
$LUPREC
 70
     4
  9
$SKETCHINC
 40
0.1
  9
$FILLETRAD
 40
0.0
  9
$AUNITS
 70
     0
  9
$AUPREC
 70
     0
  9
$MENU
  1
acad
  9
$ELEVATION
 40
0.0
  9
$PELEVATION
 40
0.0
  9
$THICKNESS
 40
0.0
  9
$LIMCHECK
 70
     0
  9
$BLIPMODE
 70
     1
  9
$CHAMFERA
 40
0.0
  9
$CHAMFERB
 40
0.0
  9
$CHAMFERC
 40
0.0
  9
$CHAMFERD
 40
0.0
  9
$SKPOLY
 70
     0
  9
$TDCREATE
 40
2457781.144865185
  9
$TDUPDATE
 40
2457781.144865185
  9
$TDINDWG
 40
0.0000000000
  9
$TDUSRTIMER
 40
0.0000000000
  9
$USRTIMER
 70
     1
  9
$ANGBASE
 50
0.0
  9
$ANGDIR
 70
     0
  9
$PDMODE
 70
     0
  9
$PDSIZE
 40
0.0
  9
$PLINEWID
 40
0.0
  9
$COORDS
 70
     1
  9
$SPLFRAME
 70
     0
  9
$SPLINETYPE
 70
     6
  9
$SPLINESEGS
 70
     8
  9
$ATTDIA
 70
     0
  9
$ATTREQ
 70
     1
  9
$HANDLING
 70
     1
  9
$HANDSEED
  5
4A9
  9
$SURFTAB1
 70
     6
  9
$SURFTAB2
 70
     6
  9
$SURFTYPE
 70
     6
  9
$SURFU
 70
     6
  9
$SURFV
 70
     6
  9
$UCSNAME
  2

  9
$UCSORG
 10
0.0
 20
0.0
 30
0.0
  9
$UCSXDIR
 10
1.0
 20
0.0
 30
0.0
  9
$UCSYDIR
 10
0.0
 20
1.0
 30
0.0
  9
$PUCSNAME
  2

  9
$PUCSORG
 10
0.0
 20
0.0
 30
0.0
  9
$PUCSXDIR
 10
1.0
 20
0.0
 30
0.0
  9
$PUCSYDIR
 10
0.0
 20
1.0
 30
0.0
  9
$USERI1
 70
     0
  9
$USERI2
 70
     0
  9
$USERI3
 70
     0
  9
$USERI4
 70
     0
  9
$USERI5
 70
     0
  9
$USERR1
 40
0.0
  9
$USERR2
 40
0.0
  9
$USERR3
 40
0.0
  9
$USERR4
 40
0.0
  9
$USERR5
 40
0.0
  9
$WORLDVIEW
 70
     1
  9
$SHADEDGE
 70
     3
  9
$SHADEDIF
 70
    70
  9
$TILEMODE
 70
     1
  9
$MAXACTVP
 70
    16
  9
$PINSBASE
 10
0.0
 20
0.0
 30
0.0
  9
$PLIMCHECK
 70
     0
  9
$PEXTMIN
 10
1.000000E+20
 20
1.000000E+20
 30
1.000000E+20
  9
$PEXTMAX
 10
-1.000000E+20
 20
-1.000000E+20
 30
-1.000000E+20
  9
$PLIMMIN
 10
0.0
 20
0.0
  9
$PLIMMAX
 10
12.0
 20
9.0
  9
$UNITMODE
 70
     0
  9
$VISRETAIN
 70
     0
  9
$PLINEGEN
 70
     1
  9
$PSLTSCALE
 70
     0
  9
$TREEDEPTH
 70
  3020
  9
$PICKSTYLE
 70
     1
  9
$CMLSTYLE
  2
Standard
  9
$CMLJUST
 70
     0
  9
$CMLSCALE
 40
1.0
  9
$PROXYGRAPHICS
 70
     0
  9
$MEASUREMENT
 70
     0
  0
ENDSEC
  0
SECTION
  2
CLASSES
  0
CLASS
  1
LWPOLYLINE
  2
AcDbPolyline
  3
"AutoCAD"
 90
        0
280
     0
281
     1
  0
CLASS
  1
IMAGE
  2
AcDbRasterImage
  3
ISM
 90
      127
280
     0
281
     1
  0
CLASS
  1
OLE2FRAME
  2
AcDbOle2Frame
  3
""
 90
        0
280
     0
281
     1
  0
CLASS
  1
HATCH
  2
AcDbHatch
  3
"ACAD_SEDONA"
 90
        0
280
     0
281
     1
  0
CLASS
  1
DICTIONARYVAR
  2
AcDbDictionaryVar
  3
"AutoCAD"
 90
        0
280
     0
281
     0
  0
CLASS
  1
RASTERVARIABLES
  2
AcDbRasterVariables
  3
ISM
 90
        0
280
     0
281
     0
  0
CLASS
  1
IMAGEDEF
  2
AcDbRasterImageDef
  3
ISM
 90
        0
280
     0
281
     0
  0
CLASS
  1
IMAGEDEF_REACTOR
  2
AcDbRasterImageDefReactor
  3
ISM
 90
        1
280
     0
281
     0
  0
CLASS
  1
IDBUFFER
  2
AcDbIdBuffer
  3
"Acad"
 90
        0
280
     0
281
     0
  0
CLASS
  1
SPATIAL_FILTER
  2
AcDbSpatialFilter
  3
"Acad"
 90
        0
280
     0
281
     0
  0
CLASS
  1
XRECORD
  2
AcDbXrecord
  3
"<Built In>"
 90
        0
280
     0
281
     0
  0
CLASS
  1
SORTENTSTABLE
  2
AcDbSortentsTable
  3
"AutoCAD"
 90
        0
280
     0
281
     0
  0
CLASS
  1
LAYER_INDEX
  2
AcDbLayerIndex
  3
"Acad"
 90
        0
280
     0
281
     0
  0
CLASS
  1
SPATIAL_INDEX
  2
AcDbSpatialIndex
  3
"Acad"
 90
        0
280
     0
281
     0
  0
CLASS
  1
OBJECT_PTR
  2
CAseDLPNTableRecord
  3
"ASE-LPNTableRecord"
 90
        1
280
     0
281
     0
  0
CLASS
  1
LAYOUT
  2
AcDbLayout
  3
"AutoCAD 2000"
 90
        0
280
     0
281
     0
  0
CLASS
  1
PLOTSETTINGS
  2
AcDbPlotSettings
  3
"AutoCAD 2000"
 90
        0
280
     0
281
     0
  0
CLASS
  1
ACDBDICTIONARYWDFLT
  2
AcDbDictionaryWithDefault
  3
"AutoCAD 2000"
 90
        0
280
     0
281
     0
  0
CLASS
  1
ACDBPLACEHOLDER
  2
AcDbPlaceHolder
  3
"AutoCAD 2000"
 90
        0
280
     0
281
     0
  0
CLASS
  1
VBA_PROJECT
  2
AcDbVbaProject
  3
"acadvba"
 90
        0
280
     0
281
     0
  0
CLASS
  1
WIPEOUT
  2
AcDbWipeout
  3
WipeOut|AutoCAD Express Tool|expresstools@autodesk.com
 90
      127
280
     0
281
     1
  0
CLASS
  1
WIPEOUTVARIABLES
  2
AcDbWipeoutVariables
  3
WipeOut|AutoCAD Express Tool|expresstools@autodesk.com
 90
        0
280
     0
281
     0
  0
CLASS
  1
RTEXT
  2
RText
  3
RText|AutoCAD Express Tool|expresstools@autodesk.com
 90
        0
280
     0
281
     1
  0
CLASS
  1
ARCALIGNEDTEXT
  2
AcDbArcAlignedText
  3
ATEXT|AutoCAD Express Tool|expresstools@autodesk.com
 90
        0
280
     0
281
     1
  0
ENDSEC
  0
SECTION
  2
TABLES
  0
TABLE
  2
VPORT
  5
7
100
AcDbSymbolTable
 70
     1
  0
VPORT
  5
15
100
AcDbSymbolTableRecord
100
AcDbViewportTableRecord
  2
*ACTIVE
 70
     0
 10
0.0
 20
0.0
 11
1.0
 21
1.0
 12
215.89
 22
149.168137
 13
0.0
 23
0.0
 14
1.0
 24
1.0
 15
0.0
 25
0.0
 16
0.0
 26
0.0
 36
1.0
 17
0.0
 27
0.0
 37
0.0
 40
279.063727
 41
1.722533
 42
50.0
 43
0.0
 44
0.0
 50
0.0
 51
0.0
 71
     0
 72
  1000
 73
     1
 74
     1
 75
     0
 76
     0
 77
     0
 78
     0
  0
ENDTAB
  0
TABLE
  2
LTYPE
  5
4
100
AcDbSymbolTable
 70
     9
  0
LTYPE
  5
11
100
AcDbSymbolTableRecord
100
AcDbLinetypeTableRecord
  2
BYBLOCK
 70
    64
  3

 72
    65
 73
     0
 40
0.0
  0
LTYPE
  5
12
100
AcDbSymbolTableRecord
100
AcDbLinetypeTableRecord
  2
BYLAYER
 70
    64
  3

 72
    65
 73
     0
 40
0.0
  0
LTYPE
  5
13
100
AcDbSymbolTableRecord
100
AcDbLinetypeTableRecord
  2
CONTINUOUS
 70
    64
  3
実線
 72
    65
 73
     0
 40
0.0
  0
LTYPE
  5
1D
100
AcDbSymbolTableRecord
100
AcDbLinetypeTableRecord
  2
EXLTYPE1
 70
    64
  3
破線
 72
    65
 73
     2
 40
4.0
 49
3.0
 74
     0
 49
-1.0
 74
     0
  0
LTYPE
  5
1E
100
AcDbSymbolTableRecord
100
AcDbLinetypeTableRecord
  2
EXLTYPE2
 70
    64
  3
点線
 72
    65
 73
     2
 40
2.0
 49
1.0
 74
     0
 49
-1.0
 74
     0
  0
LTYPE
  5
1F
100
AcDbSymbolTableRecord
100
AcDbLinetypeTableRecord
  2
EXLTYPE3
 70
    64
  3
一点鎖線
 72
    65
 73
     4
 40
33.0
 49
30.0
 74
     0
 49
-1.0
 74
     0
 49
1.0
 74
     0
 49
-1.0
 74
     0
  0
LTYPE
  5
20
100
AcDbSymbolTableRecord
100
AcDbLinetypeTableRecord
  2
EXLTYPE4
 70
    64
  3
二点鎖線
 72
    65
 73
     6
 40
35.0
 49
30.0
 74
     0
 49
-1.0
 74
     0
 49
1.0
 74
     0
 49
-1.0
 74
     0
 49
1.0
 74
     0
 49
-1.0
 74
     0
  0
LTYPE
  5
21
100
AcDbSymbolTableRecord
100
AcDbLinetypeTableRecord
  2
EXLTYPE5
 70
    64
  3
三点鎖線
 72
    65
 73
     8
 40
37.0
 49
30.0
 74
     0
 49
-1.0
 74
     0
 49
1.0
 74
     0
 49
-1.0
 74
     0
 49
1.0
 74
     0
 49
-1.0
 74
     0
 49
1.0
 74
     0
 49
-1.0
 74
     0
  0
LTYPE
  5
22
100
AcDbSymbolTableRecord
100
AcDbLinetypeTableRecord
  2
EXLTYPE6
 70
    64
  3
四点鎖線
 72
    65
 73
    10
 40
39.0
 49
30.0
 74
     0
 49
-1.0
 74
     0
 49
1.0
 74
     0
 49
-1.0
 74
     0
 49
1.0
 74
     0
 49
-1.0
 74
     0
 49
1.0
 74
     0
 49
-1.0
 74
     0
 49
1.0
 74
     0
 49
-1.0
 74
     0
  0
ENDTAB
  0
TABLE
  2
LAYER
  5
2
100
AcDbSymbolTable
 70
     5
  0
LAYER
  5
14
100
AcDbSymbolTableRecord
100
AcDbLayerTableRecord
  2
0
 70
     0
 62
     7
  6
CONTINUOUS
  0
LAYER
  5
25
100
AcDbSymbolTableRecord
100
AcDbLayerTableRecord
  2
LAY-1
 70
    64
 62
     7
  6
CONTINUOUS
  0
LAYER
  5
26
100
AcDbSymbolTableRecord
100
AcDbLayerTableRecord
  2
LAY-2
 70
    64
 62
     7
  6
CONTINUOUS
  0
LAYER
  5
27
100
AcDbSymbolTableRecord
100
AcDbLayerTableRecord
  2
LAY-3
 70
    65
 62
     4
  6
CONTINUOUS
  0
LAYER
  5
28
100
AcDbSymbolTableRecord
100
AcDbLayerTableRecord
  2
LAY-4
 70
    65
 62
     4
  6
CONTINUOUS
  0
ENDTAB
  0
TABLE
  2
STYLE
  5
3
100
AcDbSymbolTable
 70
     3
  0
STYLE
  5
17
100
AcDbSymbolTableRecord
100
AcDbTextStyleTableRecord
  2
STANDARD
 70
     0
 40
0.0
 41
1.0
 50
0.0
 71
     0
 42
0.0
  3
monotxt
  4
extfont
  0
STYLE
  5
23
100
AcDbSymbolTableRecord
100
AcDbTextStyleTableRecord
  2
EXCADSTD
 70
    64
 40
0.0
 41
1.0
 50
0.0
 71
     0
 42
0.2
  3
monotxt
  4
extfont
  0
STYLE
  5
24
100
AcDbSymbolTableRecord
100
AcDbTextStyleTableRecord
  2
EXCADVERT
 70
    68
 40
0.0
 41
1.0
 50
0.0
 71
     0
 42
0.286885
  3
monotxt
  4
extfont
  0
ENDTAB
  0
TABLE
  2
VIEW
  5
5
100
AcDbSymbolTable
 70
     0
  0
ENDTAB
  0
TABLE
  2
UCS
  5
6
100
AcDbSymbolTable
 70
     0
  0
ENDTAB
  0
TABLE
  2
APPID
  5
8
100
AcDbSymbolTable
 70
     1
  0
APPID
  5
16
100
AcDbSymbolTableRecord
100
AcDbRegAppTableRecord
  2
ACAD
 70
     0
  0
ENDTAB
  0
TABLE
  2
DIMSTYLE
  5
9
100
AcDbSymbolTable
 70
     1
  0
DIMSTYLE
105
18
100
AcDbSymbolTableRecord
100
AcDbDimStyleTableRecord
  2
STANDARD
 70
     0
  3

  4

  5

  6

  7

 40
1.0
 41
0.18
 42
0.0625
 43
0.38
 44
0.18
 45
0.0
 46
0.0
 47
0.0
 48
0.0
 71
     0
 72
     0
 73
     1
 74
     1
 75
     0
 76
     0
 77
     0
 78
     0
140
0.18
141
0.09
142
0.0
143
25.4
144
1.0
145
0.0
146
1.0
147
0.09
170
     0
171
     2
172
     1
173
     0
174
     0
175
     0
176
     0
177
     0
178
     0
270
     2
271
     4
272
     4
273
     2
274
     2
275
     0
280
     0
281
     0
282
     0
283
     1
284
     0
285
     0
286
     0
287
     3
288
     0
340
17
  0
ENDTAB
  0
TABLE
  2
BLOCK_RECORD
  5
1
100
AcDbSymbolTable
 70
    15
  0
BLOCK_RECORD
  5
A
100
AcDbSymbolTableRecord
100
AcDbBlockTableRecord
  2
*MODEL_SPACE
  0
BLOCK_RECORD
  5
B
100
AcDbSymbolTableRecord
100
AcDbBlockTableRecord
  2
*PAPER_SPACE
  0
BLOCK_RECORD
  5
29
100
AcDbSymbolTableRecord
100
AcDbBlockTableRecord
  2
_EX_NORM
  0
BLOCK_RECORD
  5
2A
100
AcDbSymbolTableRecord
100
AcDbBlockTableRecord
  2
_EX_BNORM
  0
BLOCK_RECORD
  5
2B
100
AcDbSymbolTableRecord
100
AcDbBlockTableRecord
  2
_EX_BCIR
  0
BLOCK_RECORD
  5
2C
100
AcDbSymbolTableRecord
100
AcDbBlockTableRecord
  2
_EX_RCIVIL
  0
BLOCK_RECORD
  5
2D
100
AcDbSymbolTableRecord
100
AcDbBlockTableRecord
  2
_EX_SLANT
  0
BLOCK_RECORD
  5
2E
100
AcDbSymbolTableRecord
100
AcDbBlockTableRecord
  2
_EX_NONE
  0
BLOCK_RECORD
  5
2F
100
AcDbSymbolTableRecord
100
AcDbBlockTableRecord
  2
_EX_CIVIL
  0
BLOCK_RECORD
  5
30
100
AcDbSymbolTableRecord
100
AcDbBlockTableRecord
  2
_EX_WCIR
  0
BLOCK_RECORD
  5
31
100
AcDbSymbolTableRecord
100
AcDbBlockTableRecord
  2
_EX_WCIR2
  0
BLOCK_RECORD
  5
32
100
AcDbSymbolTableRecord
100
AcDbBlockTableRecord
  2
_EX_WNORM
  0
BLOCK_RECORD
  5
33
100
AcDbSymbolTableRecord
100
AcDbBlockTableRecord
  2
_EX_NNORM
  0
BLOCK_RECORD
  5
34
100
AcDbSymbolTableRecord
100
AcDbBlockTableRecord
  2
_EX_BBOX
  0
BLOCK_RECORD
  5
35
100
AcDbSymbolTableRecord
100
AcDbBlockTableRecord
  2
_EX_WBOX
  0
BLOCK_RECORD
  5
36
100
AcDbSymbolTableRecord
100
AcDbBlockTableRecord
  2
_EX_INTEGRAL
  0
BLOCK_RECORD
  5
37
100
AcDbSymbolTableRecord
100
AcDbBlockTableRecord
  2
SYM-1
  0
ENDTAB
  0
ENDSEC
  0
SECTION
  2
BLOCKS
  0
BLOCK
  5
D
100
AcDbEntity
  8
0
100
AcDbBlockBegin
  2
*MODEL_SPACE
 70
     0
 10
0.0
 20
0.0
 30
0.0
  3
*MODEL_SPACE
  1

  0
ENDBLK
  5
E
100
AcDbEntity
  8
0
100
AcDbBlockEnd
  0
BLOCK
  5
F
100
AcDbEntity
 67
     1
  8
0
100
AcDbBlockBegin
  2
*PAPER_SPACE
 70
     0
 10
0.0
 20
0.0
 30
0.0
  3
*PAPER_SPACE
  1

  0
ENDBLK
  5
10
100
AcDbEntity
 67
     1
  8
0
100
AcDbBlockEnd
  0
BLOCK
  5
38
100
AcDbEntity
  8
0
100
AcDbBlockBegin
  2
_EX_NORM
 70
     0
 10
0.0
 20
0.0
 30
0.0
  3
_EX_NORM
  1

  0
LINE
  5
39
100
AcDbEntity
  8
0
  6
CONTINUOUS
 62
     0
100
AcDbLine
 10
0.0
 20
0.0
 30
0.0
 11
-1.0
 21
0.0
 31
0.0
  0
LINE
  5
3A
100
AcDbEntity
  8
0
  6
CONTINUOUS
 62
     0
100
AcDbLine
 10
0.0
 20
0.0
 30
0.0
 11
-1.0
 21
0.166667
 31
0.0
  0
LINE
  5
3B
100
AcDbEntity
  8
0
  6
CONTINUOUS
 62
     0
100
AcDbLine
 10
0.0
 20
0.0
 30
0.0
 11
-1.0
 21
-0.166667
 31
0.0
  0
ENDBLK
  5
3C
100
AcDbEntity
  8
0
100
AcDbBlockEnd
  0
BLOCK
  5
3D
100
AcDbEntity
  8
0
100
AcDbBlockBegin
  2
_EX_BNORM
 70
     0
 10
0.0
 20
0.0
 30
0.0
  3
_EX_BNORM
  1

  0
LINE
  5
3E
100
AcDbEntity
  8
0
  6
CONTINUOUS
 62
     0
100
AcDbLine
 10
0.0
 20
0.0
 30
0.0
 11
-1.0
 21
0.0
 31
0.0
  0
LINE
  5
3F
100
AcDbEntity
  8
0
  6
CONTINUOUS
 62
     0
100
AcDbLine
 10
0.0
 20
0.0
 30
0.0
 11
-1.0
 21
0.166667
 31
0.0
  0
LINE
  5
40
100
AcDbEntity
  8
0
  6
CONTINUOUS
 62
     0
100
AcDbLine
 10
0.0
 20
0.0
 30
0.0
 11
-1.0
 21
-0.166667
 31
0.0
  0
LINE
  5
41
100
AcDbEntity
  8
0
  6
CONTINUOUS
 62
     0
100
AcDbLine
 10
0.0
 20
0.0
 30
0.0
 11
-1.0
 21
0.083333
 31
0.0
  0
LINE
  5
42
100
AcDbEntity
  8
0
  6
CONTINUOUS
 62
     0
100
AcDbLine
 10
0.0
 20
0.0
 30
0.0
 11
-1.0
 21
-0.083333
 31
0.0
  0
LINE
  5
43
100
AcDbEntity
  8
0
  6
CONTINUOUS
 62
     0
100
AcDbLine
 10
-1.0
 20
0.166667
 30
0.0
 11
-1.0
 21
-0.166667
 31
0.0
  0
ENDBLK
  5
44
100
AcDbEntity
  8
0
100
AcDbBlockEnd
  0
BLOCK
  5
45
100
AcDbEntity
  8
0
100
AcDbBlockBegin
  2
_EX_BCIR
 70
     0
 10
0.0
 20
0.0
 30
0.0
  3
_EX_BCIR
  1

  0
LINE
  5
46
100
AcDbEntity
  8
0
  6
CONTINUOUS
 62
     0
100
AcDbLine
 10
0.0
 20
0.0
 30
0.0
 11
-1.0
 21
0.0
 31
0.0
  0
CIRCLE
  5
47
100
AcDbEntity
  8
0
  6
CONTINUOUS
 62
     0
100
AcDbCircle
 10
0.0
 20
0.0
 30
0.0
 40
0.5
  0
CIRCLE
  5
48
100
AcDbEntity
  8
0
  6
CONTINUOUS
 62
     0
100
AcDbCircle
 10
0.0
 20
0.0
 30
0.0
 40
0.25
  0
ENDBLK
  5
49
100
AcDbEntity
  8
0
100
AcDbBlockEnd
  0
BLOCK
  5
4A
100
AcDbEntity
  8
0
100
AcDbBlockBegin
  2
_EX_RCIVIL
 70
     0
 10
0.0
 20
0.0
 30
0.0
  3
_EX_RCIVIL
  1

  0
LINE
  5
4B
100
AcDbEntity
  8
0
  6
CONTINUOUS
 62
     0
100
AcDbLine
 10
0.0
 20
0.0
 30
0.0
 11
-1.0
 21
0.0
 31
0.0
  0
LINE
  5
4C
100
AcDbEntity
  8
0
  6
CONTINUOUS
 62
     0
100
AcDbLine
 10
-1.0
 20
-0.25
 30
0.0
 11
0.0
 21
-0.25
 31
0.0
  0
LINE
  5
4D
100
AcDbEntity
  8
0
  6
CONTINUOUS
 62
     0
100
AcDbLine
 10
-1.0
 20
-0.125
 30
0.0
 11
0.0
 21
-0.125
 31
0.0
  0
ENDBLK
  5
4E
100
AcDbEntity
  8
0
100
AcDbBlockEnd
  0
BLOCK
  5
4F
100
AcDbEntity
  8
0
100
AcDbBlockBegin
  2
_EX_SLANT
 70
     0
 10
0.0
 20
0.0
 30
0.0
  3
_EX_SLANT
  1

  0
LINE
  5
50
100
AcDbEntity
  8
0
  6
CONTINUOUS
 62
     0
100
AcDbLine
 10
0.0
 20
0.0
 30
0.0
 11
-1.0
 21
0.0
 31
0.0
  0
LINE
  5
51
100
AcDbEntity
  8
0
  6
CONTINUOUS
 62
     0
100
AcDbLine
 10
0.707107
 20
0.707107
 30
0.0
 11
-0.707107
 21
-0.707107
 31
0.0
  0
ENDBLK
  5
52
100
AcDbEntity
  8
0
100
AcDbBlockEnd
  0
BLOCK
  5
53
100
AcDbEntity
  8
0
100
AcDbBlockBegin
  2
_EX_NONE
 70
     0
 10
0.0
 20
0.0
 30
0.0
  3
_EX_NONE
  1

  0
LINE
  5
54
100
AcDbEntity
  8
0
  6
CONTINUOUS
 62
     0
100
AcDbLine
 10
0.0
 20
0.0
 30
0.0
 11
-1.0
 21
0.0
 31
0.0
  0
ENDBLK
  5
55
100
AcDbEntity
  8
0
100
AcDbBlockEnd
  0
BLOCK
  5
56
100
AcDbEntity
  8
0
100
AcDbBlockBegin
  2
_EX_CIVIL
 70
     0
 10
0.0
 20
0.0
 30
0.0
  3
_EX_CIVIL
  1

  0
LINE
  5
57
100
AcDbEntity
  8
0
  6
CONTINUOUS
 62
     0
100
AcDbLine
 10
0.0
 20
0.0
 30
0.0
 11
-1.0
 21
0.0
 31
0.0
  0
LINE
  5
58
100
AcDbEntity
  8
0
  6
CONTINUOUS
 62
     0
100
AcDbLine
 10
-1.0
 20
0.25
 30
0.0
 11
0.0
 21
0.25
 31
0.0
  0
LINE
  5
59
100
AcDbEntity
  8
0
  6
CONTINUOUS
 62
     0
100
AcDbLine
 10
-1.0
 20
0.125
 30
0.0
 11
0.0
 21
0.125
 31
0.0
  0
ENDBLK
  5
5A
100
AcDbEntity
  8
0
100
AcDbBlockEnd
  0
BLOCK
  5
5B
100
AcDbEntity
  8
0
100
AcDbBlockBegin
  2
_EX_WCIR
 70
     0
 10
0.0
 20
0.0
 30
0.0
  3
_EX_WCIR
  1

  0
LINE
  5
5C
100
AcDbEntity
  8
0
  6
CONTINUOUS
 62
     0
100
AcDbLine
 10
0.0
 20
0.0
 30
0.0
 11
-1.0
 21
0.0
 31
0.0
  0
CIRCLE
  5
5D
100
AcDbEntity
  8
0
  6
CONTINUOUS
 62
     0
100
AcDbCircle
 10
0.0
 20
0.0
 30
0.0
 40
0.5
  0
ENDBLK
  5
5E
100
AcDbEntity
  8
0
100
AcDbBlockEnd
  0
BLOCK
  5
5F
100
AcDbEntity
  8
0
100
AcDbBlockBegin
  2
_EX_WCIR2
 70
     0
 10
0.0
 20
0.0
 30
0.0
  3
_EX_WCIR2
  1

  0
LINE
  5
60
100
AcDbEntity
  8
0
  6
CONTINUOUS
 62
     0
100
AcDbLine
 10
-0.5
 20
0.0
 30
0.0
 11
-1.0
 21
0.0
 31
0.0
  0
CIRCLE
  5
61
100
AcDbEntity
  8
0
  6
CONTINUOUS
 62
     0
100
AcDbCircle
 10
0.0
 20
0.0
 30
0.0
 40
0.5
  0
ENDBLK
  5
62
100
AcDbEntity
  8
0
100
AcDbBlockEnd
  0
BLOCK
  5
63
100
AcDbEntity
  8
0
100
AcDbBlockBegin
  2
_EX_WNORM
 70
     0
 10
0.0
 20
0.0
 30
0.0
  3
_EX_WNORM
  1

  0
LINE
  5
64
100
AcDbEntity
  8
0
  6
CONTINUOUS
 62
     0
100
AcDbLine
 10
-1.0
 20
0.0
 30
0.0
 11
-1.0
 21
0.0
 31
0.0
  0
LINE
  5
65
100
AcDbEntity
  8
0
  6
CONTINUOUS
 62
     0
100
AcDbLine
 10
0.0
 20
0.0
 30
0.0
 11
-1.0
 21
0.166667
 31
0.0
  0
LINE
  5
66
100
AcDbEntity
  8
0
  6
CONTINUOUS
 62
     0
100
AcDbLine
 10
0.0
 20
0.0
 30
0.0
 11
-1.0
 21
-0.166667
 31
0.0
  0
LINE
  5
67
100
AcDbEntity
  8
0
  6
CONTINUOUS
 62
     0
100
AcDbLine
 10
-1.0
 20
0.166667
 30
0.0
 11
-1.0
 21
-0.166667
 31
0.0
  0
ENDBLK
  5
68
100
AcDbEntity
  8
0
100
AcDbBlockEnd
  0
BLOCK
  5
69
100
AcDbEntity
  8
0
100
AcDbBlockBegin
  2
_EX_NNORM
 70
     0
 10
0.0
 20
0.0
 30
0.0
  3
_EX_NNORM
  1

  0
LINE
  5
6A
100
AcDbEntity
  8
0
  6
CONTINUOUS
 62
     0
100
AcDbLine
 10
0.0
 20
0.0
 30
0.0
 11
-1.0
 21
0.0
 31
0.0
  0
LINE
  5
6B
100
AcDbEntity
  8
0
  6
CONTINUOUS
 62
     0
100
AcDbLine
 10
0.0
 20
0.0
 30
0.0
 11
-1.0
 21
0.166667
 31
0.0
  0
LINE
  5
6C
100
AcDbEntity
  8
0
  6
CONTINUOUS
 62
     0
100
AcDbLine
 10
0.0
 20
0.0
 30
0.0
 11
-1.0
 21
-0.166667
 31
0.0
  0
LINE
  5
6D
100
AcDbEntity
  8
0
  6
CONTINUOUS
 62
     0
100
AcDbLine
 10
-1.0
 20
0.166667
 30
0.0
 11
-1.0
 21
-0.166667
 31
0.0
  0
ENDBLK
  5
6E
100
AcDbEntity
  8
0
100
AcDbBlockEnd
  0
BLOCK
  5
6F
100
AcDbEntity
  8
0
100
AcDbBlockBegin
  2
_EX_BBOX
 70
     0
 10
0.0
 20
0.0
 30
0.0
  3
_EX_BBOX
  1

  0
LINE
  5
70
100
AcDbEntity
  8
0
  6
CONTINUOUS
 62
     0
100
AcDbLine
 10
0.0
 20
0.0
 30
0.0
 11
-1.0
 21
0.0
 31
0.0
  0
LINE
  5
71
100
AcDbEntity
  8
0
  6
CONTINUOUS
 62
     0
100
AcDbLine
 10
-0.5
 20
0.5
 30
0.0
 11
0.5
 21
0.5
 31
0.0
  0
LINE
  5
72
100
AcDbEntity
  8
0
  6
CONTINUOUS
 62
     0
100
AcDbLine
 10
0.5
 20
0.5
 30
0.0
 11
0.5
 21
-0.5
 31
0.0
  0
LINE
  5
73
100
AcDbEntity
  8
0
  6
CONTINUOUS
 62
     0
100
AcDbLine
 10
0.5
 20
-0.5
 30
0.0
 11
-0.5
 21
-0.5
 31
0.0
  0
LINE
  5
74
100
AcDbEntity
  8
0
  6
CONTINUOUS
 62
     0
100
AcDbLine
 10
-0.5
 20
-0.5
 30
0.0
 11
-0.5
 21
0.5
 31
0.0
  0
LINE
  5
75
100
AcDbEntity
  8
0
  6
CONTINUOUS
 62
     0
100
AcDbLine
 10
-0.25
 20
0.25
 30
0.0
 11
0.25
 21
0.25
 31
0.0
  0
LINE
  5
76
100
AcDbEntity
  8
0
  6
CONTINUOUS
 62
     0
100
AcDbLine
 10
0.25
 20
0.25
 30
0.0
 11
0.25
 21
-0.25
 31
0.0
  0
LINE
  5
77
100
AcDbEntity
  8
0
  6
CONTINUOUS
 62
     0
100
AcDbLine
 10
0.25
 20
-0.25
 30
0.0
 11
-0.25
 21
-0.25
 31
0.0
  0
LINE
  5
78
100
AcDbEntity
  8
0
  6
CONTINUOUS
 62
     0
100
AcDbLine
 10
-0.25
 20
-0.25
 30
0.0
 11
-0.25
 21
0.25
 31
0.0
  0
ENDBLK
  5
79
100
AcDbEntity
  8
0
100
AcDbBlockEnd
  0
BLOCK
  5
7A
100
AcDbEntity
  8
0
100
AcDbBlockBegin
  2
_EX_WBOX
 70
     0
 10
0.0
 20
0.0
 30
0.0
  3
_EX_WBOX
  1

  0
LINE
  5
7B
100
AcDbEntity
  8
0
  6
CONTINUOUS
 62
     0
100
AcDbLine
 10
-0.5
 20
0.0
 30
0.0
 11
-1.0
 21
0.0
 31
0.0
  0
LINE
  5
7C
100
AcDbEntity
  8
0
  6
CONTINUOUS
 62
     0
100
AcDbLine
 10
-0.5
 20
0.5
 30
0.0
 11
0.5
 21
0.5
 31
0.0
  0
LINE
  5
7D
100
AcDbEntity
  8
0
  6
CONTINUOUS
 62
     0
100
AcDbLine
 10
0.5
 20
0.5
 30
0.0
 11
0.5
 21
-0.5
 31
0.0
  0
LINE
  5
7E
100
AcDbEntity
  8
0
  6
CONTINUOUS
 62
     0
100
AcDbLine
 10
0.5
 20
-0.5
 30
0.0
 11
-0.5
 21
-0.5
 31
0.0
  0
LINE
  5
7F
100
AcDbEntity
  8
0
  6
CONTINUOUS
 62
     0
100
AcDbLine
 10
-0.5
 20
-0.5
 30
0.0
 11
-0.5
 21
0.5
 31
0.0
  0
ENDBLK
  5
80
100
AcDbEntity
  8
0
100
AcDbBlockEnd
  0
BLOCK
  5
81
100
AcDbEntity
  8
0
100
AcDbBlockBegin
  2
_EX_INTEGRAL
 70
     0
 10
0.0
 20
0.0
 30
0.0
  3
_EX_INTEGRAL
  1

  0
LINE
  5
82
100
AcDbEntity
  8
0
  6
CONTINUOUS
 62
     0
100
AcDbLine
 10
0.0
 20
0.0
 30
0.0
 11
-1.0
 21
0.0
 31
0.0
  0
ARC
  5
83
100
AcDbEntity
  8
0
  6
CONTINUOUS
 62
     0
100
AcDbCircle
 10
0.542115
 20
0.164992
 30
0.0
 40
0.56667
100
AcDbArc
 50
73.07249
 51
196.927513
  0
ARC
  5
84
100
AcDbEntity
  8
0
  6
CONTINUOUS
 62
     0
100
AcDbCircle
 10
-0.542115
 20
-0.164992
 30
0.0
 40
0.56667
100
AcDbArc
 50
253.072487
 51
16.927513
  0
ENDBLK
  5
85
100
AcDbEntity
  8
0
100
AcDbBlockEnd
  0
BLOCK
  5
86
100
AcDbEntity
  8
0
100
AcDbBlockBegin
  2
SYM-1
 70
     0
 10
0.0
 20
0.0
 30
0.0
  3
SYM-1
  1

  0
LINE
  5
87
100
AcDbEntity
  8
0
  6
CONTINUOUS
 62
     2
100
AcDbLine
 10
-5.85
 20
2.15
 30
0.0
 11
-5.85
 21
5.85
 31
0.0
  0
LINE
  5
88
100
AcDbEntity
  8
0
  6
CONTINUOUS
 62
     2
100
AcDbLine
 10
-5.85
 20
5.85
 30
0.0
 11
0.0
 21
0.0
 31
0.0
  0
LINE
  5
89
100
AcDbEntity
  8
0
  6
CONTINUOUS
 62
     2
100
AcDbLine
 10
-5.85
 20
-2.15
 30
0.0
 11
-5.85
 21
-5.85
 31
0.0
  0
LINE
  5
8A
100
AcDbEntity
  8
0
  6
CONTINUOUS
 62
     2
100
AcDbLine
 10
-5.85
 20
-5.85
 30
0.0
 11
0.0
 21
0.0
 31
0.0
  0
LINE
  5
8B
100
AcDbEntity
  8
0
  6
CONTINUOUS
 62
     2
100
AcDbLine
 10
-19.85
 20
2.15
 30
0.0
 11
-5.85
 21
2.15
 31
0.0
  0
LINE
  5
8C
100
AcDbEntity
  8
0
  6
CONTINUOUS
 62
     2
100
AcDbLine
 10
-19.85
 20
-2.15
 30
0.0
 11
-5.85
 21
-2.15
 31
0.0
  0
LINE
  5
8D
100
AcDbEntity
  8
0
  6
CONTINUOUS
 62
     2
100
AcDbLine
 10
-19.85
 20
2.15
 30
0.0
 11
-19.85
 21
-2.15
 31
0.0
  0
ENDBLK
  5
8E
100
AcDbEntity
  8
0
100
AcDbBlockEnd
  0
ENDSEC
  0
SECTION
  2
ENTITIES
  0
LINE
  5
8F
100
AcDbEntity
  8
LAY-1
  6
EXLTYPE3
 62
     1
100
AcDbLine
 10
204.354012
 20
157.346485
 30
0.0
 11
204.354012
 21
215.746485
 31
0.0
  0
LINE
  5
90
100
AcDbEntity
  8
LAY-1
  6
EXLTYPE3
 62
     1
100
AcDbLine
 10
181.466112
 20
208.734385
 30
0.0
 11
189.554155
 21
200.646341
 31
0.0
  0
LINE
  5
91
100
AcDbEntity
  8
LAY-1
  6
EXLTYPE3
 62
     1
100
AcDbLine
 10
182.173219
 20
163.665691
 30
0.0
 11
190.261262
 21
171.753734
 31
0.0
  0
LINE
  5
92
100
AcDbEntity
  8
LAY-1
  6
EXLTYPE3
 62
     1
100
AcDbLine
 10
227.241912
 20
208.734385
 30
0.0
 11
219.153869
 21
200.646341
 31
0.0
  0
LINE
  5
93
100
AcDbEntity
  8
LAY-1
  6
EXLTYPE3
 62
     1
100
AcDbLine
 10
226.534806
 20
163.665691
 30
0.0
 11
218.446762
 21
171.753734
 31
0.0
  0
LINE
  5
94
100
AcDbEntity
  8
LAY-1
  6
EXLTYPE3
 62
     1
100
AcDbLine
 10
176.404012
 20
185.846485
 30
0.0
 11
235.054012
 21
185.846485
 31
0.0
  0
ARC
  5
95
100
AcDbEntity
  8
LAY-1
  6
CONTINUOUS
 62
     2
100
AcDbCircle
 10
185.969236
 20
167.461708
 30
0.0
 40
4.0
100
AcDbArc
 50
185.284863
 51
264.715137
  0
ARC
  5
96
100
AcDbEntity
  8
LAY-1
  6
CONTINUOUS
 62
     2
100
AcDbCircle
 10
204.354012
 20
185.846485
 30
0.0
 40
24.0
100
AcDbArc
 50
180.0
 51
185.284863
  0
LINE
  5
97
100
AcDbEntity
  8
LAY-1
  6
CONTINUOUS
 62
     2
100
AcDbLine
 10
181.98624
 20
167.093278
 30
0.0
 11
180.456035
 21
183.635904
 31
0.0
  0
ARC
  5
98
100
AcDbEntity
  8
LAY-1
  6
CONTINUOUS
 62
     2
100
AcDbCircle
 10
204.354012
 20
185.846485
 30
0.0
 40
24.0
100
AcDbArc
 50
174.715137
 51
180.0
  0
LINE
  5
99
100
AcDbEntity
  8
LAY-1
  6
CONTINUOUS
 62
     2
100
AcDbLine
 10
180.456035
 20
188.057065
 30
0.0
 11
181.98624
 21
204.599691
 31
0.0
  0
ARC
  5
9A
100
AcDbEntity
  8
LAY-1
  6
CONTINUOUS
 62
     2
100
AcDbCircle
 10
185.969236
 20
204.231261
 30
0.0
 40
4.0
100
AcDbArc
 50
95.284863
 51
174.715137
  0
LINE
  5
9B
100
AcDbEntity
  8
LAY-1
  6
CONTINUOUS
 62
     2
100
AcDbLine
 10
185.600806
 20
208.214257
 30
0.0
 11
202.143432
 21
209.744462
 31
0.0
  0
ARC
  5
9C
100
AcDbEntity
  8
LAY-1
  6
CONTINUOUS
 62
     2
100
AcDbCircle
 10
204.354012
 20
185.846485
 30
0.0
 40
24.0
100
AcDbArc
 50
90.0
 51
95.284863
  0
ARC
  5
9D
100
AcDbEntity
  8
LAY-1
  6
CONTINUOUS
 62
     2
100
AcDbCircle
 10
181.349763
 20
192.346485
 30
0.0
 40
0.5
100
AcDbArc
 50
90.0
 51
174.825371
  0
ARC
  5
9E
100
AcDbEntity
  8
LAY-1
  6
CONTINUOUS
 62
     2
100
AcDbCircle
 10
181.349763
 20
179.346485
 30
0.0
 40
0.5
100
AcDbArc
 50
185.174629
 51
270.0
  0
ARC
  5
9F
100
AcDbEntity
  8
LAY-1
  6
CONTINUOUS
 62
     2
100
AcDbCircle
 10
181.349763
 20
179.346485
 30
0.0
 40
0.5
100
AcDbArc
 50
185.174629
 51
270.0
  0
LINE
  5
A0
100
AcDbEntity
  8
LAY-1
  6
CONTINUOUS
 62
     2
100
AcDbLine
 10
181.349763
 20
178.846485
 30
0.0
 11
190.439799
 21
178.846485
 31
0.0
  0
ARC
  5
A1
100
AcDbEntity
  8
LAY-1
  6
CONTINUOUS
 62
     2
100
AcDbCircle
 10
190.439799
 20
179.846485
 30
0.0
 40
1.0
100
AcDbArc
 50
270.0
 51
315.0
  0
LINE
  5
A2
100
AcDbEntity
  8
LAY-1
  6
CONTINUOUS
 62
     2
100
AcDbLine
 10
191.146905
 20
179.139378
 30
0.0
 11
192.561119
 21
180.553591
 31
0.0
  0
ARC
  5
A3
100
AcDbEntity
  8
LAY-1
  6
CONTINUOUS
 62
     2
100
AcDbCircle
 10
193.268226
 20
179.846485
 30
0.0
 40
1.0
100
AcDbArc
 50
90.0
 51
135.0
  0
LINE
  5
A4
100
AcDbEntity
  8
LAY-1
  6
CONTINUOUS
 62
     2
100
AcDbLine
 10
190.854012
 20
191.484824
 30
0.0
 11
190.854012
 21
180.584824
 31
0.0
  0
ARC
  5
A5
100
AcDbEntity
  8
LAY-1
  6
CONTINUOUS
 62
     2
100
AcDbCircle
 10
190.439799
 20
191.846485
 30
0.0
 40
1.0
100
AcDbArc
 50
45.0
 51
90.0
  0
LINE
  5
A6
100
AcDbEntity
  8
LAY-1
  6
CONTINUOUS
 62
     2
100
AcDbLine
 10
191.146905
 20
192.553591
 30
0.0
 11
192.561119
 21
191.139378
 31
0.0
  0
ARC
  5
A7
100
AcDbEntity
  8
LAY-1
  6
CONTINUOUS
 62
     2
100
AcDbCircle
 10
193.268226
 20
191.846485
 30
0.0
 40
1.0
100
AcDbArc
 50
225.0
 51
270.0
  0
LINE
  5
A8
100
AcDbEntity
  8
LAY-1
  6
CONTINUOUS
 62
     2
100
AcDbLine
 10
181.349763
 20
192.846485
 30
0.0
 11
190.439799
 21
192.846485
 31
0.0
  0
LINE
  5
A9
100
AcDbEntity
  8
LAY-1
  6
CONTINUOUS
 62
     2
100
AcDbLine
 10
193.268226
 20
180.846485
 30
0.0
 11
195.134468
 21
180.846485
 31
0.0
  0
LINE
  5
AA
100
AcDbEntity
  8
LAY-1
  6
CONTINUOUS
 62
     2
100
AcDbLine
 10
193.268226
 20
190.846485
 30
0.0
 11
195.134468
 21
190.846485
 31
0.0
  0
LINE
  5
AB
100
AcDbEntity
  8
LAY-1
  6
CONTINUOUS
 62
     2
100
AcDbLine
 10
202.143432
 20
161.948507
 30
0.0
 11
185.600806
 21
163.478712
 31
0.0
  0
ARC
  5
AC
100
AcDbEntity
  8
LAY-1
  6
CONTINUOUS
 62
     2
100
AcDbCircle
 10
204.354012
 20
185.846485
 30
0.0
 40
24.0
100
AcDbArc
 50
264.715137
 51
270.0
  0
ARC
  5
AD
100
AcDbEntity
  8
LAY-1
  6
CONTINUOUS
 62
     2
100
AcDbCircle
 10
195.134468
 20
179.846485
 30
0.0
 40
1.0
100
AcDbArc
 50
33.055731
 51
90.0
  0
ARC
  5
AE
100
AcDbEntity
  8
LAY-1
  6
CONTINUOUS
 62
     2
100
AcDbCircle
 10
195.134468
 20
191.846485
 30
0.0
 40
1.0
100
AcDbArc
 50
270.0
 51
326.944269
  0
ARC
  5
AF
100
AcDbEntity
  8
LAY-1
  6
CONTINUOUS
 62
     2
100
AcDbCircle
 10
199.604012
 20
194.361178
 30
0.0
 40
0.25
100
AcDbArc
 50
119.155365
 51
180.0
  0
LINE
  5
B0
100
AcDbEntity
  8
LAY-1
  6
CONTINUOUS
 62
     2
100
AcDbLine
 10
199.354012
 20
194.062323
 30
0.0
 11
199.354012
 21
194.361178
 31
0.0
  0
ARC
  5
B1
100
AcDbEntity
  8
LAY-1
  6
CONTINUOUS
 62
     2
100
AcDbCircle
 10
199.104012
 20
194.062323
 30
0.0
 40
0.25
100
AcDbArc
 50
302.57897
 51
0.0
  0
ARC
  5
B2
100
AcDbEntity
  8
LAY-1
  6
CONTINUOUS
 62
     2
100
AcDbCircle
 10
195.839319
 20
181.096485
 30
0.0
 40
0.25
100
AcDbArc
 50
209.155365
 51
270.0
  0
LINE
  5
B3
100
AcDbEntity
  8
LAY-1
  6
CONTINUOUS
 62
     2
100
AcDbLine
 10
196.138174
 20
180.846485
 30
0.0
 11
195.839319
 21
180.846485
 31
0.0
  0
ARC
  5
B4
100
AcDbEntity
  8
LAY-1
  6
CONTINUOUS
 62
     2
100
AcDbCircle
 10
196.138174
 20
180.596485
 30
0.0
 40
0.25
100
AcDbArc
 50
32.57897
 51
90.0
  0
ARC
  5
B5
100
AcDbEntity
  8
LAY-1
  6
CONTINUOUS
 62
     2
100
AcDbCircle
 10
199.604012
 20
177.331791
 30
0.0
 40
0.25
100
AcDbArc
 50
180.0
 51
240.844635
  0
LINE
  5
B6
100
AcDbEntity
  8
LAY-1
  6
CONTINUOUS
 62
     2
100
AcDbLine
 10
199.354012
 20
177.630646
 30
0.0
 11
199.354012
 21
177.331791
 31
0.0
  0
ARC
  5
B7
100
AcDbEntity
  8
LAY-1
  6
CONTINUOUS
 62
     2
100
AcDbCircle
 10
199.104012
 20
177.630646
 30
0.0
 40
0.25
100
AcDbArc
 50
0.0
 51
57.42103
  0
ARC
  5
B8
100
AcDbEntity
  8
LAY-1
  6
CONTINUOUS
 62
     2
100
AcDbCircle
 10
204.354012
 20
185.846485
 30
0.0
 40
9.5
100
AcDbArc
 50
212.57897
 51
237.42103
  0
ARC
  5
B9
100
AcDbEntity
  8
LAY-1
  6
CONTINUOUS
 62
     2
100
AcDbCircle
 10
204.354012
 20
185.846485
 30
0.0
 40
9.5
100
AcDbArc
 50
122.57897
 51
147.42103
  0
ARC
  5
BA
100
AcDbEntity
  8
LAY-1
  6
CONTINUOUS
 62
     2
100
AcDbCircle
 10
196.138174
 20
191.096485
 30
0.0
 40
0.25
100
AcDbArc
 50
270.0
 51
327.42103
  0
ARC
  5
BB
100
AcDbEntity
  8
LAY-1
  6
CONTINUOUS
 62
     2
100
AcDbCircle
 10
204.354012
 20
185.846485
 30
0.0
 40
10.0
100
AcDbArc
 50
150.844635
 51
209.155365
  0
ARC
  5
BC
100
AcDbEntity
  8
LAY-1
  6
CONTINUOUS
 62
     2
100
AcDbCircle
 10
195.839319
 20
190.596485
 30
0.0
 40
0.25
100
AcDbArc
 50
90.0
 51
150.844635
  0
LINE
  5
BD
100
AcDbEntity
  8
LAY-1
  6
CONTINUOUS
 62
     2
100
AcDbLine
 10
196.138174
 20
190.846485
 30
0.0
 11
195.839319
 21
190.846485
 31
0.0
  0
ARC
  5
BE
100
AcDbEntity
  8
LAY-1
  6
CONTINUOUS
 62
     2
100
AcDbCircle
 10
187.169236
 20
166.261708
 30
0.0
 40
0.7
100
AcDbArc
 50
90.0
 51
180.0
  0
LINE
  5
BF
100
AcDbEntity
  8
LAY-1
  6
CONTINUOUS
 62
     2
100
AcDbLine
 10
187.169236
 20
166.961708
 30
0.0
 11
188.219236
 21
166.961708
 31
0.0
  0
LINE
  5
C0
100
AcDbEntity
  8
LAY-1
  6
CONTINUOUS
 62
     2
100
AcDbLine
 10
186.469236
 20
165.211708
 30
0.0
 11
186.469236
 21
166.261708
 31
0.0
  0
ARC
  5
C1
100
AcDbEntity
  8
LAY-1
  6
CONTINUOUS
 62
     2
100
AcDbCircle
 10
184.769236
 20
166.261708
 30
0.0
 40
0.7
100
AcDbArc
 50
0.0
 51
90.0
  0
LINE
  5
C2
100
AcDbEntity
  8
LAY-1
  6
CONTINUOUS
 62
     2
100
AcDbLine
 10
185.469236
 20
165.211708
 30
0.0
 11
185.469236
 21
166.261708
 31
0.0
  0
LINE
  5
C3
100
AcDbEntity
  8
LAY-1
  6
CONTINUOUS
 62
     2
100
AcDbLine
 10
183.719236
 20
166.961708
 30
0.0
 11
184.769236
 21
166.961708
 31
0.0
  0
ARC
  5
C4
100
AcDbEntity
  8
LAY-1
  6
CONTINUOUS
 62
     2
100
AcDbCircle
 10
184.769236
 20
168.661708
 30
0.0
 40
0.7
100
AcDbArc
 50
270.0
 51
0.0
  0
LINE
  5
C5
100
AcDbEntity
  8
LAY-1
  6
CONTINUOUS
 62
     2
100
AcDbLine
 10
183.719236
 20
167.961708
 30
0.0
 11
184.769236
 21
167.961708
 31
0.0
  0
LINE
  5
C6
100
AcDbEntity
  8
LAY-1
  6
CONTINUOUS
 62
     2
100
AcDbLine
 10
185.469236
 20
168.661708
 30
0.0
 11
185.469236
 21
169.711708
 31
0.0
  0
ARC
  5
C7
100
AcDbEntity
  8
LAY-1
  6
CONTINUOUS
 62
     2
100
AcDbCircle
 10
187.169236
 20
168.661708
 30
0.0
 40
0.7
100
AcDbArc
 50
180.0
 51
270.0
  0
LINE
  5
C8
100
AcDbEntity
  8
LAY-1
  6
CONTINUOUS
 62
     2
100
AcDbLine
 10
186.469236
 20
168.661708
 30
0.0
 11
186.469236
 21
169.711708
 31
0.0
  0
LINE
  5
C9
100
AcDbEntity
  8
LAY-1
  6
CONTINUOUS
 62
     2
100
AcDbLine
 10
187.169236
 20
167.961708
 30
0.0
 11
188.219236
 21
167.961708
 31
0.0
  0
LINE
  5
CA
100
AcDbEntity
  8
LAY-1
  6
CONTINUOUS
 62
     2
100
AcDbLine
 10
186.469236
 20
169.711708
 30
0.0
 11
185.469236
 21
169.711708
 31
0.0
  0
LINE
  5
CB
100
AcDbEntity
  8
LAY-1
  6
CONTINUOUS
 62
     2
100
AcDbLine
 10
186.469236
 20
165.211708
 30
0.0
 11
185.469236
 21
165.211708
 31
0.0
  0
LINE
  5
CC
100
AcDbEntity
  8
LAY-1
  6
CONTINUOUS
 62
     2
100
AcDbLine
 10
188.219236
 20
166.961708
 30
0.0
 11
188.219236
 21
167.961708
 31
0.0
  0
LINE
  5
CD
100
AcDbEntity
  8
LAY-1
  6
CONTINUOUS
 62
     2
100
AcDbLine
 10
183.719236
 20
166.961708
 30
0.0
 11
183.719236
 21
167.961708
 31
0.0
  0
CIRCLE
  5
CE
100
AcDbEntity
  8
LAY-1
  6
CONTINUOUS
 62
     2
100
AcDbCircle
 10
185.973547
 20
167.457397
 30
0.0
 40
3.5
  0
ARC
  5
CF
100
AcDbEntity
  8
LAY-1
  6
CONTINUOUS
 62
     2
100
AcDbCircle
 10
187.169236
 20
203.031261
 30
0.0
 40
0.7
100
AcDbArc
 50
90.0
 51
180.0
  0
LINE
  5
D0
100
AcDbEntity
  8
LAY-1
  6
CONTINUOUS
 62
     2
100
AcDbLine
 10
187.169236
 20
203.731261
 30
0.0
 11
188.219236
 21
203.731261
 31
0.0
  0
LINE
  5
D1
100
AcDbEntity
  8
LAY-1
  6
CONTINUOUS
 62
     2
100
AcDbLine
 10
186.469236
 20
201.981261
 30
0.0
 11
186.469236
 21
203.031261
 31
0.0
  0
ARC
  5
D2
100
AcDbEntity
  8
LAY-1
  6
CONTINUOUS
 62
     2
100
AcDbCircle
 10
184.769236
 20
203.031261
 30
0.0
 40
0.7
100
AcDbArc
 50
0.0
 51
90.0
  0
LINE
  5
D3
100
AcDbEntity
  8
LAY-1
  6
CONTINUOUS
 62
     2
100
AcDbLine
 10
185.469236
 20
201.981261
 30
0.0
 11
185.469236
 21
203.031261
 31
0.0
  0
LINE
  5
D4
100
AcDbEntity
  8
LAY-1
  6
CONTINUOUS
 62
     2
100
AcDbLine
 10
183.719236
 20
203.731261
 30
0.0
 11
184.769236
 21
203.731261
 31
0.0
  0
ARC
  5
D5
100
AcDbEntity
  8
LAY-1
  6
CONTINUOUS
 62
     2
100
AcDbCircle
 10
184.769236
 20
205.431261
 30
0.0
 40
0.7
100
AcDbArc
 50
270.0
 51
0.0
  0
LINE
  5
D6
100
AcDbEntity
  8
LAY-1
  6
CONTINUOUS
 62
     2
100
AcDbLine
 10
183.719236
 20
204.731261
 30
0.0
 11
184.769236
 21
204.731261
 31
0.0
  0
LINE
  5
D7
100
AcDbEntity
  8
LAY-1
  6
CONTINUOUS
 62
     2
100
AcDbLine
 10
185.469236
 20
205.431261
 30
0.0
 11
185.469236
 21
206.481261
 31
0.0
  0
ARC
  5
D8
100
AcDbEntity
  8
LAY-1
  6
CONTINUOUS
 62
     2
100
AcDbCircle
 10
187.169236
 20
205.431261
 30
0.0
 40
0.7
100
AcDbArc
 50
180.0
 51
270.0
  0
LINE
  5
D9
100
AcDbEntity
  8
LAY-1
  6
CONTINUOUS
 62
     2
100
AcDbLine
 10
186.469236
 20
205.431261
 30
0.0
 11
186.469236
 21
206.481261
 31
0.0
  0
LINE
  5
DA
100
AcDbEntity
  8
LAY-1
  6
CONTINUOUS
 62
     2
100
AcDbLine
 10
187.169236
 20
204.731261
 30
0.0
 11
188.219236
 21
204.731261
 31
0.0
  0
LINE
  5
DB
100
AcDbEntity
  8
LAY-1
  6
CONTINUOUS
 62
     2
100
AcDbLine
 10
186.469236
 20
206.481261
 30
0.0
 11
185.469236
 21
206.481261
 31
0.0
  0
LINE
  5
DC
100
AcDbEntity
  8
LAY-1
  6
CONTINUOUS
 62
     2
100
AcDbLine
 10
186.469236
 20
201.981261
 30
0.0
 11
185.469236
 21
201.981261
 31
0.0
  0
LINE
  5
DD
100
AcDbEntity
  8
LAY-1
  6
CONTINUOUS
 62
     2
100
AcDbLine
 10
188.219236
 20
203.731261
 30
0.0
 11
188.219236
 21
204.731261
 31
0.0
  0
LINE
  5
DE
100
AcDbEntity
  8
LAY-1
  6
CONTINUOUS
 62
     2
100
AcDbLine
 10
183.719236
 20
203.731261
 30
0.0
 11
183.719236
 21
204.731261
 31
0.0
  0
CIRCLE
  5
DF
100
AcDbEntity
  8
LAY-1
  6
CONTINUOUS
 62
     2
100
AcDbCircle
 10
185.973547
 20
204.22695
 30
0.0
 40
3.5
  0
ARC
  5
E0
100
AcDbEntity
  8
LAY-1
  6
CONTINUOUS
 62
     2
100
AcDbCircle
 10
204.354012
 20
185.846485
 30
0.0
 40
21.413612
100
AcDbArc
 50
199.080415
 51
270.0
  0
ARC
  5
E1
100
AcDbEntity
  8
LAY-1
  6
CONTINUOUS
 62
     2
100
AcDbCircle
 10
204.354012
 20
185.846485
 30
0.0
 40
10.0
100
AcDbArc
 50
240.844635
 51
270.0
  0
ARC
  5
E2
100
AcDbEntity
  8
LAY-1
  6
CONTINUOUS
 62
     2
100
AcDbCircle
 10
204.354012
 20
185.846485
 30
0.0
 40
10.0
100
AcDbArc
 50
90.0
 51
119.155365
  0
ARC
  5
E3
100
AcDbEntity
  8
LAY-1
  6
CONTINUOUS
 62
     2
100
AcDbCircle
 10
204.354012
 20
185.846485
 30
0.0
 40
10.0
100
AcDbArc
 50
90.0
 51
270.0
  0
ARC
  5
E4
100
AcDbEntity
  8
LAY-1
  6
CONTINUOUS
 62
     2
100
AcDbCircle
 10
204.354012
 20
185.846485
 30
0.0
 40
21.413612
100
AcDbArc
 50
90.0
 51
160.919585
  0
ARC
  5
E5
100
AcDbEntity
  8
LAY-1
  6
CONTINUOUS
 62
     2
100
AcDbCircle
 10
222.738788
 20
167.461708
 30
0.0
 40
4.0
100
AcDbArc
 50
275.284863
 51
354.715137
  0
ARC
  5
E6
100
AcDbEntity
  8
LAY-1
  6
CONTINUOUS
 62
     2
100
AcDbCircle
 10
204.354012
 20
185.846485
 30
0.0
 40
24.0
100
AcDbArc
 50
354.715137
 51
0.0
  0
LINE
  5
E7
100
AcDbEntity
  8
LAY-1
  6
CONTINUOUS
 62
     2
100
AcDbLine
 10
226.721785
 20
167.093278
 30
0.0
 11
228.25199
 21
183.635904
 31
0.0
  0
ARC
  5
E8
100
AcDbEntity
  8
LAY-1
  6
CONTINUOUS
 62
     2
100
AcDbCircle
 10
204.354012
 20
185.846485
 30
0.0
 40
24.0
100
AcDbArc
 50
0.0
 51
5.284863
  0
LINE
  5
E9
100
AcDbEntity
  8
LAY-1
  6
CONTINUOUS
 62
     2
100
AcDbLine
 10
228.25199
 20
188.057065
 30
0.0
 11
226.721785
 21
204.599691
 31
0.0
  0
ARC
  5
EA
100
AcDbEntity
  8
LAY-1
  6
CONTINUOUS
 62
     2
100
AcDbCircle
 10
222.738788
 20
204.231261
 30
0.0
 40
4.0
100
AcDbArc
 50
5.284863
 51
84.715137
  0
LINE
  5
EB
100
AcDbEntity
  8
LAY-1
  6
CONTINUOUS
 62
     2
100
AcDbLine
 10
223.107219
 20
208.214257
 30
0.0
 11
206.564593
 21
209.744462
 31
0.0
  0
ARC
  5
EC
100
AcDbEntity
  8
LAY-1
  6
CONTINUOUS
 62
     2
100
AcDbCircle
 10
204.354012
 20
185.846485
 30
0.0
 40
24.0
100
AcDbArc
 50
84.715137
 51
90.0
  0
LINE
  5
ED
100
AcDbEntity
  8
LAY-1
  6
CONTINUOUS
 62
     2
100
AcDbLine
 10
206.564593
 20
161.948507
 30
0.0
 11
223.107219
 21
163.478712
 31
0.0
  0
ARC
  5
EE
100
AcDbEntity
  8
LAY-1
  6
CONTINUOUS
 62
     2
100
AcDbCircle
 10
204.354012
 20
185.846485
 30
0.0
 40
24.0
100
AcDbArc
 50
270.0
 51
275.284863
  0
ARC
  5
EF
100
AcDbEntity
  8
LAY-1
  6
CONTINUOUS
 62
     2
100
AcDbCircle
 10
209.104012
 20
194.361178
 30
0.0
 40
0.25
100
AcDbArc
 50
0.0
 51
60.844635
  0
LINE
  5
F0
100
AcDbEntity
  8
LAY-1
  6
CONTINUOUS
 62
     2
100
AcDbLine
 10
209.354012
 20
194.062323
 30
0.0
 11
209.354012
 21
194.361178
 31
0.0
  0
ARC
  5
F1
100
AcDbEntity
  8
LAY-1
  6
CONTINUOUS
 62
     2
100
AcDbCircle
 10
209.604012
 20
194.062323
 30
0.0
 40
0.25
100
AcDbArc
 50
180.0
 51
237.42103
  0
ARC
  5
F2
100
AcDbEntity
  8
LAY-1
  6
CONTINUOUS
 62
     2
100
AcDbCircle
 10
212.868705
 20
181.096485
 30
0.0
 40
0.25
100
AcDbArc
 50
270.0
 51
330.844635
  0
LINE
  5
F3
100
AcDbEntity
  8
LAY-1
  6
CONTINUOUS
 62
     2
100
AcDbLine
 10
212.569851
 20
180.846485
 30
0.0
 11
212.868705
 21
180.846485
 31
0.0
  0
ARC
  5
F4
100
AcDbEntity
  8
LAY-1
  6
CONTINUOUS
 62
     2
100
AcDbCircle
 10
212.569851
 20
180.596485
 30
0.0
 40
0.25
100
AcDbArc
 50
90.0
 51
147.42103
  0
ARC
  5
F5
100
AcDbEntity
  8
LAY-1
  6
CONTINUOUS
 62
     2
100
AcDbCircle
 10
209.104012
 20
177.331791
 30
0.0
 40
0.25
100
AcDbArc
 50
299.155365
 51
0.0
  0
LINE
  5
F6
100
AcDbEntity
  8
LAY-1
  6
CONTINUOUS
 62
     2
100
AcDbLine
 10
209.354012
 20
177.630646
 30
0.0
 11
209.354012
 21
177.331791
 31
0.0
  0
ARC
  5
F7
100
AcDbEntity
  8
LAY-1
  6
CONTINUOUS
 62
     2
100
AcDbCircle
 10
209.604012
 20
177.630646
 30
0.0
 40
0.25
100
AcDbArc
 50
122.57897
 51
180.0
  0
ARC
  5
F8
100
AcDbEntity
  8
LAY-1
  6
CONTINUOUS
 62
     2
100
AcDbCircle
 10
204.354012
 20
185.846485
 30
0.0
 40
9.5
100
AcDbArc
 50
302.57897
 51
327.42103
  0
ARC
  5
F9
100
AcDbEntity
  8
LAY-1
  6
CONTINUOUS
 62
     2
100
AcDbCircle
 10
204.354012
 20
185.846485
 30
0.0
 40
9.5
100
AcDbArc
 50
32.57897
 51
57.42103
  0
ARC
  5
FA
100
AcDbEntity
  8
LAY-1
  6
CONTINUOUS
 62
     2
100
AcDbCircle
 10
212.569851
 20
191.096485
 30
0.0
 40
0.25
100
AcDbArc
 50
212.57897
 51
270.0
  0
ARC
  5
FB
100
AcDbEntity
  8
LAY-1
  6
CONTINUOUS
 62
     2
100
AcDbCircle
 10
204.354012
 20
185.846485
 30
0.0
 40
10.0
100
AcDbArc
 50
330.844635
 51
29.155365
  0
ARC
  5
FC
100
AcDbEntity
  8
LAY-1
  6
CONTINUOUS
 62
     2
100
AcDbCircle
 10
212.868705
 20
190.596485
 30
0.0
 40
0.25
100
AcDbArc
 50
29.155365
 51
90.0
  0
LINE
  5
FD
100
AcDbEntity
  8
LAY-1
  6
CONTINUOUS
 62
     2
100
AcDbLine
 10
212.569851
 20
190.846485
 30
0.0
 11
212.868705
 21
190.846485
 31
0.0
  0
ARC
  5
FE
100
AcDbEntity
  8
LAY-1
  6
CONTINUOUS
 62
     2
100
AcDbCircle
 10
221.538788
 20
166.261708
 30
0.0
 40
0.7
100
AcDbArc
 50
0.0
 51
90.0
  0
LINE
  5
FF
100
AcDbEntity
  8
LAY-1
  6
CONTINUOUS
 62
     2
100
AcDbLine
 10
221.538788
 20
166.961708
 30
0.0
 11
220.488789
 21
166.961708
 31
0.0
  0
LINE
  5
100
100
AcDbEntity
  8
LAY-1
  6
CONTINUOUS
 62
     2
100
AcDbLine
 10
222.238788
 20
165.211708
 30
0.0
 11
222.238788
 21
166.261708
 31
0.0
  0
ARC
  5
101
100
AcDbEntity
  8
LAY-1
  6
CONTINUOUS
 62
     2
100
AcDbCircle
 10
223.938788
 20
166.261708
 30
0.0
 40
0.7
100
AcDbArc
 50
90.0
 51
180.0
  0
LINE
  5
102
100
AcDbEntity
  8
LAY-1
  6
CONTINUOUS
 62
     2
100
AcDbLine
 10
223.238788
 20
165.211708
 30
0.0
 11
223.238788
 21
166.261708
 31
0.0
  0
LINE
  5
103
100
AcDbEntity
  8
LAY-1
  6
CONTINUOUS
 62
     2
100
AcDbLine
 10
224.988788
 20
166.961708
 30
0.0
 11
223.938788
 21
166.961708
 31
0.0
  0
ARC
  5
104
100
AcDbEntity
  8
LAY-1
  6
CONTINUOUS
 62
     2
100
AcDbCircle
 10
223.938788
 20
168.661708
 30
0.0
 40
0.7
100
AcDbArc
 50
180.0
 51
270.0
  0
LINE
  5
105
100
AcDbEntity
  8
LAY-1
  6
CONTINUOUS
 62
     2
100
AcDbLine
 10
224.988788
 20
167.961708
 30
0.0
 11
223.938788
 21
167.961708
 31
0.0
  0
LINE
  5
106
100
AcDbEntity
  8
LAY-1
  6
CONTINUOUS
 62
     2
100
AcDbLine
 10
223.238788
 20
168.661708
 30
0.0
 11
223.238788
 21
169.711708
 31
0.0
  0
ARC
  5
107
100
AcDbEntity
  8
LAY-1
  6
CONTINUOUS
 62
     2
100
AcDbCircle
 10
221.538788
 20
168.661708
 30
0.0
 40
0.7
100
AcDbArc
 50
270.0
 51
0.0
  0
LINE
  5
108
100
AcDbEntity
  8
LAY-1
  6
CONTINUOUS
 62
     2
100
AcDbLine
 10
222.238788
 20
168.661708
 30
0.0
 11
222.238788
 21
169.711708
 31
0.0
  0
LINE
  5
109
100
AcDbEntity
  8
LAY-1
  6
CONTINUOUS
 62
     2
100
AcDbLine
 10
221.538788
 20
167.961708
 30
0.0
 11
220.488789
 21
167.961708
 31
0.0
  0
LINE
  5
10A
100
AcDbEntity
  8
LAY-1
  6
CONTINUOUS
 62
     2
100
AcDbLine
 10
222.238788
 20
169.711708
 30
0.0
 11
223.238788
 21
169.711708
 31
0.0
  0
LINE
  5
10B
100
AcDbEntity
  8
LAY-1
  6
CONTINUOUS
 62
     2
100
AcDbLine
 10
222.238788
 20
165.211708
 30
0.0
 11
223.238788
 21
165.211708
 31
0.0
  0
LINE
  5
10C
100
AcDbEntity
  8
LAY-1
  6
CONTINUOUS
 62
     2
100
AcDbLine
 10
220.488789
 20
166.961708
 30
0.0
 11
220.488789
 21
167.961708
 31
0.0
  0
LINE
  5
10D
100
AcDbEntity
  8
LAY-1
  6
CONTINUOUS
 62
     2
100
AcDbLine
 10
224.988788
 20
166.961708
 30
0.0
 11
224.988788
 21
167.961708
 31
0.0
  0
CIRCLE
  5
10E
100
AcDbEntity
  8
LAY-1
  6
CONTINUOUS
 62
     2
100
AcDbCircle
 10
222.734477
 20
167.457397
 30
0.0
 40
3.5
  0
ARC
  5
10F
100
AcDbEntity
  8
LAY-1
  6
CONTINUOUS
 62
     2
100
AcDbCircle
 10
221.538788
 20
203.031261
 30
0.0
 40
0.7
100
AcDbArc
 50
0.0
 51
90.0
  0
LINE
  5
110
100
AcDbEntity
  8
LAY-1
  6
CONTINUOUS
 62
     2
100
AcDbLine
 10
221.538788
 20
203.731261
 30
0.0
 11
220.488789
 21
203.731261
 31
0.0
  0
LINE
  5
111
100
AcDbEntity
  8
LAY-1
  6
CONTINUOUS
 62
     2
100
AcDbLine
 10
222.238788
 20
201.981261
 30
0.0
 11
222.238788
 21
203.031261
 31
0.0
  0
ARC
  5
112
100
AcDbEntity
  8
LAY-1
  6
CONTINUOUS
 62
     2
100
AcDbCircle
 10
223.938788
 20
203.031261
 30
0.0
 40
0.7
100
AcDbArc
 50
90.0
 51
180.0
  0
LINE
  5
113
100
AcDbEntity
  8
LAY-1
  6
CONTINUOUS
 62
     2
100
AcDbLine
 10
223.238788
 20
201.981261
 30
0.0
 11
223.238788
 21
203.031261
 31
0.0
  0
LINE
  5
114
100
AcDbEntity
  8
LAY-1
  6
CONTINUOUS
 62
     2
100
AcDbLine
 10
224.988788
 20
203.731261
 30
0.0
 11
223.938788
 21
203.731261
 31
0.0
  0
ARC
  5
115
100
AcDbEntity
  8
LAY-1
  6
CONTINUOUS
 62
     2
100
AcDbCircle
 10
223.938788
 20
205.431261
 30
0.0
 40
0.7
100
AcDbArc
 50
180.0
 51
270.0
  0
LINE
  5
116
100
AcDbEntity
  8
LAY-1
  6
CONTINUOUS
 62
     2
100
AcDbLine
 10
224.988788
 20
204.731261
 30
0.0
 11
223.938788
 21
204.731261
 31
0.0
  0
LINE
  5
117
100
AcDbEntity
  8
LAY-1
  6
CONTINUOUS
 62
     2
100
AcDbLine
 10
223.238788
 20
205.431261
 30
0.0
 11
223.238788
 21
206.481261
 31
0.0
  0
ARC
  5
118
100
AcDbEntity
  8
LAY-1
  6
CONTINUOUS
 62
     2
100
AcDbCircle
 10
221.538788
 20
205.431261
 30
0.0
 40
0.7
100
AcDbArc
 50
270.0
 51
0.0
  0
LINE
  5
119
100
AcDbEntity
  8
LAY-1
  6
CONTINUOUS
 62
     2
100
AcDbLine
 10
222.238788
 20
205.431261
 30
0.0
 11
222.238788
 21
206.481261
 31
0.0
  0
LINE
  5
11A
100
AcDbEntity
  8
LAY-1
  6
CONTINUOUS
 62
     2
100
AcDbLine
 10
221.538788
 20
204.731261
 30
0.0
 11
220.488789
 21
204.731261
 31
0.0
  0
LINE
  5
11B
100
AcDbEntity
  8
LAY-1
  6
CONTINUOUS
 62
     2
100
AcDbLine
 10
222.238788
 20
206.481261
 30
0.0
 11
223.238788
 21
206.481261
 31
0.0
  0
LINE
  5
11C
100
AcDbEntity
  8
LAY-1
  6
CONTINUOUS
 62
     2
100
AcDbLine
 10
222.238788
 20
201.981261
 30
0.0
 11
223.238788
 21
201.981261
 31
0.0
  0
LINE
  5
11D
100
AcDbEntity
  8
LAY-1
  6
CONTINUOUS
 62
     2
100
AcDbLine
 10
220.488789
 20
203.731261
 30
0.0
 11
220.488789
 21
204.731261
 31
0.0
  0
LINE
  5
11E
100
AcDbEntity
  8
LAY-1
  6
CONTINUOUS
 62
     2
100
AcDbLine
 10
224.988788
 20
203.731261
 30
0.0
 11
224.988788
 21
204.731261
 31
0.0
  0
CIRCLE
  5
11F
100
AcDbEntity
  8
LAY-1
  6
CONTINUOUS
 62
     2
100
AcDbCircle
 10
222.734477
 20
204.22695
 30
0.0
 40
3.5
  0
ARC
  5
120
100
AcDbEntity
  8
LAY-1
  6
CONTINUOUS
 62
     2
100
AcDbCircle
 10
204.354012
 20
185.846485
 30
0.0
 40
10.0
100
AcDbArc
 50
270.0
 51
299.155365
  0
ARC
  5
121
100
AcDbEntity
  8
LAY-1
  6
CONTINUOUS
 62
     2
100
AcDbCircle
 10
204.354012
 20
185.846485
 30
0.0
 40
10.0
100
AcDbArc
 50
60.844635
 51
90.0
  0
ARC
  5
122
100
AcDbEntity
  8
LAY-1
  6
CONTINUOUS
 62
     2
100
AcDbCircle
 10
204.354012
 20
185.846485
 30
0.0
 40
10.0
100
AcDbArc
 50
270.0
 51
90.0
  0
ARC
  5
123
100
AcDbEntity
  8
LAY-1
  6
CONTINUOUS
 62
     2
100
AcDbCircle
 10
204.354012
 20
185.846485
 30
0.0
 40
21.413612
100
AcDbArc
 50
270.0
 51
90.0
  0
ARC
  5
124
100
AcDbEntity
  8
LAY-1
  6
EXLTYPE3
 62
     1
100
AcDbCircle
 10
204.354012
 20
185.846485
 30
0.0
 40
26.0
100
AcDbArc
 50
32.292221
 51
56.474545
  0
ARC
  5
125
100
AcDbEntity
  8
LAY-1
  6
EXLTYPE3
 62
     1
100
AcDbCircle
 10
204.354012
 20
185.846485
 30
0.0
 40
26.0
100
AcDbArc
 50
123.331024
 51
147.006584
  0
ARC
  5
126
100
AcDbEntity
  8
LAY-1
  6
EXLTYPE3
 62
     1
100
AcDbCircle
 10
204.354012
 20
185.846485
 30
0.0
 40
26.0
100
AcDbArc
 50
213.453471
 51
236.389615
  0
ARC
  5
127
100
AcDbEntity
  8
LAY-1
  6
EXLTYPE3
 62
     1
100
AcDbCircle
 10
204.354012
 20
185.846485
 30
0.0
 40
26.0
100
AcDbArc
 50
303.471664
 51
326.342176
  0
ARC
  5
128
100
AcDbEntity
  8
LAY-1
  6
CONTINUOUS
 62
     3
100
AcDbCircle
 10
218.349612
 20
179.882568
 30
0.0
 40
0.8904
100
AcDbArc
 50
120.0
 51
240.0
  0
ARC
  5
129
100
AcDbEntity
  8
LAY-1
  6
CONTINUOUS
 62
     3
100
AcDbCircle
 10
218.604012
 20
179.441934
 30
0.0
 40
1.3992
100
AcDbArc
 50
60.0
 51
120.0
  0
ARC
  5
12A
100
AcDbEntity
  8
LAY-1
  6
CONTINUOUS
 62
     3
100
AcDbCircle
 10
218.858412
 20
179.882568
 30
0.0
 40
0.8904
100
AcDbArc
 50
300.0
 51
60.0
  0
ARC
  5
12B
100
AcDbEntity
  8
LAY-1
  6
CONTINUOUS
 62
     3
100
AcDbCircle
 10
218.604012
 20
180.323201
 30
0.0
 40
1.3992
100
AcDbArc
 50
240.0
 51
300.0
  0
ARC
  5
12C
100
AcDbEntity
  8
LAY-1
  6
CONTINUOUS
 62
     3
100
AcDbCircle
 10
218.349612
 20
179.882568
 30
0.0
 40
1.3992
100
AcDbArc
 50
120.0
 51
240.0
  0
ARC
  5
12D
100
AcDbEntity
  8
LAY-1
  6
CONTINUOUS
 62
     3
100
AcDbCircle
 10
218.604012
 20
179.441934
 30
0.0
 40
1.908
100
AcDbArc
 50
60.0
 51
120.0
  0
ARC
  5
12E
100
AcDbEntity
  8
LAY-1
  6
CONTINUOUS
 62
     3
100
AcDbCircle
 10
218.858412
 20
179.882568
 30
0.0
 40
1.3992
100
AcDbArc
 50
300.0
 51
60.0
  0
POLYLINE
  5
12F
100
AcDbEntity
  8
LAY-1
  6
CONTINUOUS
 62
     3
100
AcDb2dPolyline
 66
     1
 10
0.0
 20
0.0
 30
0.0
 70
   128
  0
VERTEX
  5
130
100
AcDbEntity
  8
LAY-1
  6
CONTINUOUS
 62
     3
100
AcDbVertex
100
AcDb2dVertex
 10
218.031612
 20
181.854168
 30
0.0
  0
VERTEX
  5
131
100
AcDbEntity
  8
LAY-1
  6
CONTINUOUS
 62
     3
100
AcDbVertex
100
AcDb2dVertex
 10
218.540412
 20
181.854168
 30
0.0
  0
VERTEX
  5
132
100
AcDbEntity
  8
LAY-1
  6
CONTINUOUS
 62
     3
100
AcDbVertex
100
AcDb2dVertex
 10
218.540412
 20
182.362968
 30
0.0
  0
VERTEX
  5
133
100
AcDbEntity
  8
LAY-1
  6
CONTINUOUS
 62
     3
100
AcDbVertex
100
AcDb2dVertex
 10
218.031612
 20
182.362968
 30
0.0
  0
VERTEX
  5
134
100
AcDbEntity
  8
LAY-1
  6
CONTINUOUS
 62
     3
100
AcDbVertex
100
AcDb2dVertex
 10
218.031612
 20
181.854168
 30
0.0
  0
SEQEND
  5
135
100
AcDbEntity
  8
LAY-1
  6
CONTINUOUS
 62
     3
  0
POLYLINE
  5
136
100
AcDbEntity
  8
LAY-1
  6
CONTINUOUS
 62
     3
100
AcDb2dPolyline
 66
     1
 10
0.0
 20
0.0
 30
0.0
 70
   128
  0
VERTEX
  5
137
100
AcDbEntity
  8
LAY-1
  6
CONTINUOUS
 62
     3
100
AcDbVertex
100
AcDb2dVertex
 10
217.395612
 20
184.779768
 30
0.0
  0
VERTEX
  5
138
100
AcDbEntity
  8
LAY-1
  6
CONTINUOUS
 62
     3
100
AcDbVertex
100
AcDb2dVertex
 10
217.522812
 20
184.270968
 30
0.0
  0
VERTEX
  5
139
100
AcDbEntity
  8
LAY-1
  6
CONTINUOUS
 62
     3
100
AcDbVertex
100
AcDb2dVertex
 10
219.685212
 20
184.270968
 30
0.0
  0
VERTEX
  5
13A
100
AcDbEntity
  8
LAY-1
  6
CONTINUOUS
 62
     3
100
AcDbVertex
100
AcDb2dVertex
 10
219.685212
 20
184.970568
 30
0.0
  0
VERTEX
  5
13B
100
AcDbEntity
  8
LAY-1
  6
CONTINUOUS
 62
     3
100
AcDbVertex
100
AcDb2dVertex
 10
218.985612
 20
185.097768
 30
0.0
  0
VERTEX
  5
13C
100
AcDbEntity
  8
LAY-1
  6
CONTINUOUS
 62
     3
100
AcDbVertex
100
AcDb2dVertex
 10
218.985612
 20
185.479368
 30
0.0
  0
VERTEX
  5
13D
100
AcDbEntity
  8
LAY-1
  6
CONTINUOUS
 62
     3
100
AcDbVertex
100
AcDb2dVertex
 10
220.194012
 20
185.479368
 30
0.0
  0
VERTEX
  5
13E
100
AcDbEntity
  8
LAY-1
  6
CONTINUOUS
 62
     3
100
AcDbVertex
100
AcDb2dVertex
 10
220.194012
 20
182.553768
 30
0.0
  0
VERTEX
  5
13F
100
AcDbEntity
  8
LAY-1
  6
CONTINUOUS
 62
     3
100
AcDbVertex
100
AcDb2dVertex
 10
218.985612
 20
182.553768
 30
0.0
  0
VERTEX
  5
140
100
AcDbEntity
  8
LAY-1
  6
CONTINUOUS
 62
     3
100
AcDbVertex
100
AcDb2dVertex
 10
218.985612
 20
182.935368
 30
0.0
  0
VERTEX
  5
141
100
AcDbEntity
  8
LAY-1
  6
CONTINUOUS
 62
     3
100
AcDbVertex
100
AcDb2dVertex
 10
219.685212
 20
183.062568
 30
0.0
  0
VERTEX
  5
142
100
AcDbEntity
  8
LAY-1
  6
CONTINUOUS
 62
     3
100
AcDbVertex
100
AcDb2dVertex
 10
219.685212
 20
183.762168
 30
0.0
  0
VERTEX
  5
143
100
AcDbEntity
  8
LAY-1
  6
CONTINUOUS
 62
     3
100
AcDbVertex
100
AcDb2dVertex
 10
217.522812
 20
183.762168
 30
0.0
  0
VERTEX
  5
144
100
AcDbEntity
  8
LAY-1
  6
CONTINUOUS
 62
     3
100
AcDbVertex
100
AcDb2dVertex
 10
217.395612
 20
183.253368
 30
0.0
  0
VERTEX
  5
145
100
AcDbEntity
  8
LAY-1
  6
CONTINUOUS
 62
     3
100
AcDbVertex
100
AcDb2dVertex
 10
217.014012
 20
183.253368
 30
0.0
  0
VERTEX
  5
146
100
AcDbEntity
  8
LAY-1
  6
CONTINUOUS
 62
     3
100
AcDbVertex
100
AcDb2dVertex
 10
217.014012
 20
184.779768
 30
0.0
  0
VERTEX
  5
147
100
AcDbEntity
  8
LAY-1
  6
CONTINUOUS
 62
     3
100
AcDbVertex
100
AcDb2dVertex
 10
217.395612
 20
184.779768
 30
0.0
  0
SEQEND
  5
148
100
AcDbEntity
  8
LAY-1
  6
CONTINUOUS
 62
     3
  0
POLYLINE
  5
149
100
AcDbEntity
  8
LAY-1
  6
CONTINUOUS
 62
     3
100
AcDb2dPolyline
 66
     1
 10
0.0
 20
0.0
 30
0.0
 70
   128
  0
VERTEX
  5
14A
100
AcDbEntity
  8
LAY-1
  6
CONTINUOUS
 62
     3
100
AcDbVertex
100
AcDb2dVertex
 10
218.540412
 20
185.670168
 30
0.0
  0
VERTEX
  5
14B
100
AcDbEntity
  8
LAY-1
  6
CONTINUOUS
 62
     3
100
AcDbVertex
100
AcDb2dVertex
 10
218.031612
 20
185.670168
 30
0.0
  0
VERTEX
  5
14C
100
AcDbEntity
  8
LAY-1
  6
CONTINUOUS
 62
     3
100
AcDbVertex
100
AcDb2dVertex
 10
218.540412
 20
185.670168
 30
0.0
  0
VERTEX
  5
14D
100
AcDbEntity
  8
LAY-1
  6
CONTINUOUS
 62
     3
100
AcDbVertex
100
AcDb2dVertex
 10
218.540412
 20
186.178968
 30
0.0
  0
VERTEX
  5
14E
100
AcDbEntity
  8
LAY-1
  6
CONTINUOUS
 62
     3
100
AcDbVertex
100
AcDb2dVertex
 10
218.031612
 20
186.178968
 30
0.0
  0
VERTEX
  5
14F
100
AcDbEntity
  8
LAY-1
  6
CONTINUOUS
 62
     3
100
AcDbVertex
100
AcDb2dVertex
 10
218.031612
 20
185.670168
 30
0.0
  0
SEQEND
  5
150
100
AcDbEntity
  8
LAY-1
  6
CONTINUOUS
 62
     3
  0
POLYLINE
  5
151
100
AcDbEntity
  8
LAY-1
  6
CONTINUOUS
 62
     3
100
AcDb2dPolyline
 66
     1
 10
0.0
 20
0.0
 30
0.0
 70
   128
  0
VERTEX
  5
152
100
AcDbEntity
  8
LAY-1
  6
CONTINUOUS
 62
     3
100
AcDbVertex
100
AcDb2dVertex
 10
217.014012
 20
188.277768
 30
0.0
  0
VERTEX
  5
153
100
AcDbEntity
  8
LAY-1
  6
CONTINUOUS
 62
     3
100
AcDbVertex
100
AcDb2dVertex
 10
217.395612
 20
188.277768
 30
0.0
  0
VERTEX
  5
154
100
AcDbEntity
  8
LAY-1
  6
CONTINUOUS
 62
     3
100
AcDbVertex
100
AcDb2dVertex
 10
217.522812
 20
187.768968
 30
0.0
  0
VERTEX
  5
155
100
AcDbEntity
  8
LAY-1
  6
CONTINUOUS
 62
     3
100
AcDbVertex
100
AcDb2dVertex
 10
219.685212
 20
187.768968
 30
0.0
  0
VERTEX
  5
156
100
AcDbEntity
  8
LAY-1
  6
CONTINUOUS
 62
     3
100
AcDbVertex
100
AcDb2dVertex
 10
219.812412
 20
188.277768
 30
0.0
  0
VERTEX
  5
157
100
AcDbEntity
  8
LAY-1
  6
CONTINUOUS
 62
     3
100
AcDbVertex
100
AcDb2dVertex
 10
220.194012
 20
188.277768
 30
0.0
  0
VERTEX
  5
158
100
AcDbEntity
  8
LAY-1
  6
CONTINUOUS
 62
     3
100
AcDbVertex
100
AcDb2dVertex
 10
220.194012
 20
186.751368
 30
0.0
  0
VERTEX
  5
159
100
AcDbEntity
  8
LAY-1
  6
CONTINUOUS
 62
     3
100
AcDbVertex
100
AcDb2dVertex
 10
219.812412
 20
186.751368
 30
0.0
  0
VERTEX
  5
15A
100
AcDbEntity
  8
LAY-1
  6
CONTINUOUS
 62
     3
100
AcDbVertex
100
AcDb2dVertex
 10
219.685212
 20
187.260168
 30
0.0
  0
VERTEX
  5
15B
100
AcDbEntity
  8
LAY-1
  6
CONTINUOUS
 62
     3
100
AcDbVertex
100
AcDb2dVertex
 10
217.522812
 20
187.260168
 30
0.0
  0
VERTEX
  5
15C
100
AcDbEntity
  8
LAY-1
  6
CONTINUOUS
 62
     3
100
AcDbVertex
100
AcDb2dVertex
 10
217.395612
 20
186.751368
 30
0.0
  0
VERTEX
  5
15D
100
AcDbEntity
  8
LAY-1
  6
CONTINUOUS
 62
     3
100
AcDbVertex
100
AcDb2dVertex
 10
217.014012
 20
186.751368
 30
0.0
  0
VERTEX
  5
15E
100
AcDbEntity
  8
LAY-1
  6
CONTINUOUS
 62
     3
100
AcDbVertex
100
AcDb2dVertex
 10
217.014012
 20
188.277768
 30
0.0
  0
SEQEND
  5
15F
100
AcDbEntity
  8
LAY-1
  6
CONTINUOUS
 62
     3
  0
ARC
  5
160
100
AcDbEntity
  8
LAY-1
  6
CONTINUOUS
 62
     3
100
AcDbCircle
 10
218.604012
 20
180.323201
 30
0.0
 40
1.908
100
AcDbArc
 50
240.0
 51
300.0
  0
ARC
  5
161
100
AcDbEntity
  8
LAY-1
  6
CONTINUOUS
 62
     3
100
AcDbCircle
 10
218.604012
 20
191.597833
 30
0.0
 40
1.26
100
AcDbArc
 50
294.624318
 51
21.070443
  0
ARC
  5
162
100
AcDbEntity
  8
LAY-1
  6
CONTINUOUS
 62
     3
100
AcDbCircle
 10
217.939012
 20
191.597833
 30
0.0
 40
2.1
100
AcDbArc
 50
24.563992
 51
34.301153
  0
ARC
  5
163
100
AcDbEntity
  8
LAY-1
  6
CONTINUOUS
 62
     3
100
AcDbCircle
 10
218.604012
 20
192.051485
 30
0.0
 40
1.295
100
AcDbArc
 50
34.301153
 51
145.698847
  0
ARC
  5
164
100
AcDbEntity
  8
LAY-1
  6
CONTINUOUS
 62
     3
100
AcDbCircle
 10
219.269012
 20
191.597833
 30
0.0
 40
2.1
100
AcDbArc
 50
145.698847
 51
187.662256
  0
ARC
  5
165
100
AcDbEntity
  8
LAY-1
  6
CONTINUOUS
 62
     3
100
AcDbCircle
 10
217.168641
 20
191.492833
 30
0.0
 40
0.175
100
AcDbArc
 50
204.619977
 51
270.0
  0
ARC
  5
166
100
AcDbEntity
  8
LAY-1
  6
CONTINUOUS
 62
     3
100
AcDbCircle
 10
217.518641
 20
191.653223
 30
0.0
 40
0.56
100
AcDbArc
 50
182.086657
 51
204.619977
  0
ARC
  5
167
100
AcDbEntity
  8
LAY-1
  6
CONTINUOUS
 62
     3
100
AcDbCircle
 10
217.518641
 20
190.562443
 30
0.0
 40
0.56
100
AcDbArc
 50
155.380023
 51
177.913343
  0
ARC
  5
168
100
AcDbEntity
  8
LAY-1
  6
CONTINUOUS
 62
     3
100
AcDbCircle
 10
217.168641
 20
190.722833
 30
0.0
 40
0.175
100
AcDbArc
 50
90.0
 51
155.380023
  0
ARC
  5
169
100
AcDbEntity
  8
LAY-1
  6
CONTINUOUS
 62
     3
100
AcDbCircle
 10
219.269012
 20
191.597833
 30
0.0
 40
2.1
100
AcDbArc
 50
199.471221
 51
214.301153
  0
ARC
  5
16A
100
AcDbEntity
  8
LAY-1
  6
CONTINUOUS
 62
     3
100
AcDbCircle
 10
218.604012
 20
191.144181
 30
0.0
 40
1.295
100
AcDbArc
 50
214.301153
 51
325.698847
  0
ARC
  5
16B
100
AcDbEntity
  8
LAY-1
  6
CONTINUOUS
 62
     3
100
AcDbCircle
 10
217.939012
 20
191.597833
 30
0.0
 40
2.1
100
AcDbArc
 50
325.698847
 51
12.457143
  0
ARC
  5
16C
100
AcDbEntity
  8
LAY-1
  6
CONTINUOUS
 62
     3
100
AcDbCircle
 10
220.039154
 20
191.875822
 30
0.0
 40
0.175
100
AcDbArc
 50
24.619977
 51
90.0
  0
ARC
  5
16D
100
AcDbEntity
  8
LAY-1
  6
CONTINUOUS
 62
     3
100
AcDbCircle
 10
219.689154
 20
191.715432
 30
0.0
 40
0.56
100
AcDbArc
 50
2.086657
 51
24.619977
  0
ARC
  5
16E
100
AcDbEntity
  8
LAY-1
  6
CONTINUOUS
 62
     3
100
AcDbCircle
 10
219.689154
 20
192.806212
 30
0.0
 40
0.56
100
AcDbArc
 50
335.380023
 51
357.913343
  0
ARC
  5
16F
100
AcDbEntity
  8
LAY-1
  6
CONTINUOUS
 62
     3
100
AcDbCircle
 10
220.039154
 20
192.645822
 30
0.0
 40
0.175
100
AcDbArc
 50
270.0
 51
335.380023
  0
ARC
  5
170
100
AcDbEntity
  8
LAY-1
  6
CONTINUOUS
 62
     3
100
AcDbCircle
 10
218.393783
 20
192.645822
 30
0.0
 40
0.175
100
AcDbArc
 50
204.619977
 51
270.0
  0
ARC
  5
171
100
AcDbEntity
  8
LAY-1
  6
CONTINUOUS
 62
     3
100
AcDbCircle
 10
218.604012
 20
191.597833
 30
0.0
 40
1.26
100
AcDbArc
 50
43.856042
 51
109.464384
  0
ARC
  5
172
100
AcDbEntity
  8
LAY-1
  6
CONTINUOUS
 62
     3
100
AcDbCircle
 10
218.743783
 20
192.806212
 30
0.0
 40
0.56
100
AcDbArc
 50
182.086657
 51
204.619977
  0
ARC
  5
173
100
AcDbEntity
  8
LAY-1
  6
CONTINUOUS
 62
     3
100
AcDbCircle
 10
218.604012
 20
191.597833
 30
0.0
 40
1.26
100
AcDbArc
 50
213.748989
 51
279.281799
  0
ARC
  5
174
100
AcDbEntity
  8
LAY-1
  6
CONTINUOUS
 62
     3
100
AcDbCircle
 10
218.779012
 20
190.527039
 30
0.0
 40
0.175
100
AcDbArc
 50
279.281799
 51
0.0
  0
ARC
  5
175
100
AcDbEntity
  8
LAY-1
  6
CONTINUOUS
 62
     3
100
AcDbCircle
 10
218.393411
 20
191.875822
 30
0.0
 40
0.175
100
AcDbArc
 50
90.0
 51
155.380023
  0
ARC
  5
176
100
AcDbEntity
  8
LAY-1
  6
CONTINUOUS
 62
     3
100
AcDbCircle
 10
218.743411
 20
191.715432
 30
0.0
 40
0.56
100
AcDbArc
 50
155.380023
 51
177.913343
  0
ARC
  5
177
100
AcDbEntity
  8
LAY-1
  6
CONTINUOUS
 62
     3
100
AcDbCircle
 10
218.604012
 20
191.597833
 30
0.0
 40
1.26
100
AcDbArc
 50
114.635803
 51
192.839588
  0
ARC
  5
178
100
AcDbEntity
  8
LAY-1
  6
CONTINUOUS
 62
     3
100
AcDbCircle
 10
218.779012
 20
191.840848
 30
0.0
 40
0.175
100
AcDbArc
 50
0.0
 51
67.380135
  0
ARC
  5
179
100
AcDbEntity
  8
LAY-1
  6
CONTINUOUS
 62
     3
100
AcDbCircle
 10
218.604012
 20
191.420848
 30
0.0
 40
0.63
100
AcDbArc
 50
67.380135
 51
90.514911
  0
LINE
  5
17A
100
AcDbEntity
  8
LAY-1
  6
CONTINUOUS
 62
     3
100
AcDbLine
 10
219.129012
 20
192.050822
 30
0.0
 11
219.129012
 21
190.452418
 31
0.0
  0
LINE
  5
17B
100
AcDbEntity
  8
LAY-1
  6
CONTINUOUS
 62
     3
100
AcDbLine
 10
219.779767
 20
192.050822
 30
0.0
 11
219.128783
 21
192.050822
 31
0.0
  0
LINE
  5
17C
100
AcDbEntity
  8
LAY-1
  6
CONTINUOUS
 62
     3
100
AcDbLine
 10
217.187763
 20
191.317833
 30
0.0
 11
217.168641
 21
191.317833
 31
0.0
  0
LINE
  5
17D
100
AcDbEntity
  8
LAY-1
  6
CONTINUOUS
 62
     3
100
AcDbLine
 10
216.959012
 20
191.632833
 30
0.0
 11
216.854012
 21
191.632833
 31
0.0
  0
LINE
  5
17E
100
AcDbEntity
  8
LAY-1
  6
CONTINUOUS
 62
     3
100
AcDbLine
 10
216.854012
 20
191.632833
 30
0.0
 11
216.854012
 21
190.582833
 31
0.0
  0
LINE
  5
17F
100
AcDbEntity
  8
LAY-1
  6
CONTINUOUS
 62
     3
100
AcDbLine
 10
216.854012
 20
190.582833
 30
0.0
 11
216.959012
 21
190.582833
 31
0.0
  0
LINE
  5
180
100
AcDbEntity
  8
LAY-1
  6
CONTINUOUS
 62
     3
100
AcDbLine
 10
217.168641
 20
190.897833
 30
0.0
 11
217.289113
 21
190.897833
 31
0.0
  0
LINE
  5
181
100
AcDbEntity
  8
LAY-1
  6
CONTINUOUS
 62
     3
100
AcDbLine
 10
219.989573
 20
192.050822
 30
0.0
 11
220.039154
 21
192.050822
 31
0.0
  0
LINE
  5
182
100
AcDbEntity
  8
LAY-1
  6
CONTINUOUS
 62
     3
100
AcDbLine
 10
220.248783
 20
191.735822
 30
0.0
 11
220.353783
 21
191.735822
 31
0.0
  0
LINE
  5
183
100
AcDbEntity
  8
LAY-1
  6
CONTINUOUS
 62
     3
100
AcDbLine
 10
220.353783
 20
191.735822
 30
0.0
 11
220.353783
 21
192.785822
 31
0.0
  0
LINE
  5
184
100
AcDbEntity
  8
LAY-1
  6
CONTINUOUS
 62
     3
100
AcDbLine
 10
220.353783
 20
192.785822
 30
0.0
 11
220.248783
 21
192.785822
 31
0.0
  0
LINE
  5
185
100
AcDbEntity
  8
LAY-1
  6
CONTINUOUS
 62
     3
100
AcDbLine
 10
220.039154
 20
192.470822
 30
0.0
 11
219.848957
 21
192.470822
 31
0.0
  0
LINE
  5
186
100
AcDbEntity
  8
LAY-1
  6
CONTINUOUS
 62
     3
100
AcDbLine
 10
218.393783
 20
192.470822
 30
0.0
 11
219.512577
 21
192.470822
 31
0.0
  0
LINE
  5
187
100
AcDbEntity
  8
LAY-1
  6
CONTINUOUS
 62
     3
100
AcDbLine
 10
218.954012
 20
190.897833
 30
0.0
 11
217.556348
 21
190.897833
 31
0.0
  0
LINE
  5
188
100
AcDbEntity
  8
LAY-1
  6
CONTINUOUS
 62
     3
100
AcDbLine
 10
218.954012
 20
190.527039
 30
0.0
 11
218.954012
 21
190.897833
 31
0.0
  0
LINE
  5
189
100
AcDbEntity
  8
LAY-1
  6
CONTINUOUS
 62
     3
100
AcDbLine
 10
218.609674
 20
192.050822
 30
0.0
 11
218.393411
 21
192.050822
 31
0.0
  0
LINE
  5
18A
100
AcDbEntity
  8
LAY-1
  6
CONTINUOUS
 62
     3
100
AcDbLine
 10
218.183783
 20
191.735822
 30
0.0
 11
218.078783
 21
191.735822
 31
0.0
  0
LINE
  5
18B
100
AcDbEntity
  8
LAY-1
  6
CONTINUOUS
 62
     3
100
AcDbLine
 10
218.078783
 20
191.735822
 30
0.0
 11
218.078783
 21
192.743142
 31
0.0
  0
LINE
  5
18C
100
AcDbEntity
  8
LAY-1
  6
CONTINUOUS
 62
     3
100
AcDbLine
 10
217.375517
 20
191.317833
 30
0.0
 11
218.954012
 21
191.317833
 31
0.0
  0
LINE
  5
18D
100
AcDbEntity
  8
LAY-1
  6
CONTINUOUS
 62
     3
100
AcDbLine
 10
218.954012
 20
191.317833
 30
0.0
 11
218.954012
 21
191.840848
 31
0.0
  0
LINE
  5
18E
100
AcDbEntity
  8
LAY-1
  6
EXLTYPE3
 62
     1
100
AcDbLine
 10
204.354012
 20
96.5
 30
0.0
 11
185.241169
 21
96.5
 31
0.0
  0
LINE
  5
18F
100
AcDbEntity
  8
LAY-1
  6
EXLTYPE3
 62
     1
100
AcDbLine
 10
204.354012
 20
139.85
 30
0.0
 11
204.354012
 21
79.5
 31
0.0
  0
LINE
  5
190
100
AcDbEntity
  8
LAY-1
  6
EXLTYPE3
 62
     1
100
AcDbLine
 10
204.354012
 20
96.5
 30
0.0
 11
223.466855
 21
96.5
 31
0.0
  0
LINE
  5
191
100
AcDbEntity
  8
LAY-1
  6
CONTINUOUS
 62
     2
100
AcDbLine
 10
228.354012
 20
113.1
 30
0.0
 11
228.354012
 21
112.1
 31
0.0
  0
ARC
  5
192
100
AcDbEntity
  8
LAY-1
  6
CONTINUOUS
 62
     2
100
AcDbCircle
 10
200.62609
 20
87.5
 30
0.0
 40
1.0
100
AcDbArc
 50
225.0
 51
270.0
  0
ARC
  5
193
100
AcDbEntity
  8
LAY-1
  6
CONTINUOUS
 62
     2
100
AcDbCircle
 10
195.339656
 20
92.786434
 30
0.0
 40
1.0
100
AcDbArc
 50
182.0
 51
225.0
  0
LINE
  5
194
100
AcDbEntity
  8
LAY-1
  6
CONTINUOUS
 62
     2
100
AcDbLine
 10
203.354012
 20
86.5
 30
0.0
 11
203.354012
 21
86.0
 31
0.0
  0
LINE
  5
195
100
AcDbEntity
  8
LAY-1
  6
CONTINUOUS
 62
     2
100
AcDbLine
 10
202.354012
 20
86.0
 30
0.0
 11
202.354012
 21
86.5
 31
0.0
  0
LINE
  5
196
100
AcDbEntity
  8
LAY-1
  6
CONTINUOUS
 62
     2
100
AcDbLine
 10
193.988336
 20
84.5
 30
0.0
 11
193.988336
 21
102.829473
 31
0.0
  0
LINE
  5
197
100
AcDbEntity
  8
LAY-1
  6
CONTINUOUS
 62
     2
100
AcDbLine
 10
187.62609
 20
84.5
 30
0.0
 11
204.354012
 21
84.5
 31
0.0
  0
LINE
  5
198
100
AcDbEntity
  8
LAY-1
  6
CONTINUOUS
 62
     2
100
AcDbLine
 10
187.62609
 20
84.5
 30
0.0
 11
186.822913
 21
107.5
 31
0.0
  0
ARC
  5
199
100
AcDbEntity
  8
LAY-1
  6
CONTINUOUS
 62
     2
100
AcDbCircle
 10
192.859548
 20
106.5
 30
0.0
 40
1.0
100
AcDbArc
 50
2.0
 51
90.0
  0
LINE
  5
19A
100
AcDbEntity
  8
LAY-1
  6
CONTINUOUS
 62
     2
100
AcDbLine
 10
180.354012
 20
112.1
 30
0.0
 11
180.354012
 21
107.5
 31
0.0
  0
ARC
  5
19B
100
AcDbEntity
  8
LAY-1
  6
CONTINUOUS
 62
     2
100
AcDbCircle
 10
180.854012
 20
129.1
 30
0.0
 40
0.5
100
AcDbArc
 50
90.0
 51
180.0
  0
LINE
  5
19C
100
AcDbEntity
  8
LAY-1
  6
CONTINUOUS
 62
     2
100
AcDbLine
 10
193.268226
 20
127.6
 30
0.0
 11
193.257857
 21
127.6
 31
0.0
  0
ARC
  5
19D
100
AcDbEntity
  8
LAY-1
  6
CONTINUOUS
 62
     2
100
AcDbCircle
 10
190.439799
 20
128.6
 30
0.0
 40
1.0
100
AcDbArc
 50
45.0
 51
90.0
  0
ARC
  5
19E
100
AcDbEntity
  8
LAY-1
  6
CONTINUOUS
 62
     2
100
AcDbCircle
 10
193.257857
 20
128.6
 30
0.0
 40
1.0
100
AcDbArc
 50
270.594064
 51
359.0
  0
ARC
  5
19F
100
AcDbEntity
  8
LAY-1
  6
CONTINUOUS
 62
     2
100
AcDbCircle
 10
193.268226
 20
128.6
 30
0.0
 40
1.0
100
AcDbArc
 50
225.0
 51
269.405936
  0
LINE
  5
1A0
100
AcDbEntity
  8
LAY-1
  6
CONTINUOUS
 62
     2
100
AcDbLine
 10
181.854012
 20
112.1
 30
0.0
 11
180.354012
 21
112.1
 31
0.0
  0
LINE
  5
1A1
100
AcDbEntity
  8
LAY-1
  6
CONTINUOUS
 62
     2
100
AcDbLine
 10
180.354012
 20
112.1
 30
0.0
 11
180.354012
 21
129.1
 31
0.0
  0
ARC
  5
1A2
100
AcDbEntity
  8
LAY-1
  6
CONTINUOUS
 62
     2
100
AcDbCircle
 10
180.854012
 20
113.1
 30
0.0
 40
0.5
100
AcDbArc
 50
90.0
 51
180.0
  0
ARC
  5
1A3
100
AcDbEntity
  8
LAY-1
  6
CONTINUOUS
 62
     2
100
AcDbCircle
 10
192.100609
 20
119.6
 30
0.0
 40
2.0
100
AcDbArc
 50
270.0
 51
359.0
  0
LINE
  5
1A4
100
AcDbEntity
  8
LAY-1
  6
CONTINUOUS
 62
     2
100
AcDbLine
 10
194.354012
 20
134.1
 30
0.0
 11
194.100304
 21
119.565095
 31
0.0
  0
LINE
  5
1A5
100
AcDbEntity
  8
LAY-1
  6
CONTINUOUS
 62
     2
100
AcDbLine
 10
191.146905
 20
129.307107
 30
0.0
 11
192.561119
 21
127.892893
 31
0.0
  0
LINE
  5
1A6
100
AcDbEntity
  8
LAY-1
  6
CONTINUOUS
 62
     2
100
AcDbLine
 10
180.854012
 20
129.6
 30
0.0
 11
190.439799
 21
129.6
 31
0.0
  0
LINE
  5
1A7
100
AcDbEntity
  8
LAY-1
  6
CONTINUOUS
 62
     2
100
AcDbLine
 10
190.854012
 20
128.8
 30
0.0
 11
190.854012
 21
117.95
 31
0.0
  0
LINE
  5
1A8
100
AcDbEntity
  8
LAY-1
  6
CONTINUOUS
 62
     2
100
AcDbLine
 10
194.354012
 20
134.1
 30
0.0
 11
194.354012
 21
135.1
 31
0.0
  0
ARC
  5
1A9
100
AcDbEntity
  8
LAY-1
  6
CONTINUOUS
 62
     2
100
AcDbCircle
 10
195.354012
 20
136.69006
 30
0.0
 40
1.0
100
AcDbArc
 50
95.215909
 51
180.0
  0
LINE
  5
1AA
100
AcDbEntity
  8
LAY-1
  6
CONTINUOUS
 62
     2
100
AcDbLine
 10
194.354012
 20
136.69006
 30
0.0
 11
194.354012
 21
135.1
 31
0.0
  0
LINE
  5
1AB
100
AcDbEntity
  8
LAY-1
  6
CONTINUOUS
 62
     2
100
AcDbLine
 10
199.354012
 20
135.1
 30
0.0
 11
199.354012
 21
137.974922
 31
0.0
  0
LINE
  5
1AC
100
AcDbEntity
  8
LAY-1
  6
CONTINUOUS
 62
     2
100
AcDbLine
 10
195.693758
 20
135.1
 30
0.0
 11
195.693758
 21
137.724294
 31
0.0
  0
LINE
  5
1AD
100
AcDbEntity
  8
LAY-1
  6
CONTINUOUS
 62
     2
100
AcDbLine
 10
196.276265
 20
135.1
 30
0.0
 11
196.276265
 21
137.773216
 31
0.0
  0
ARC
  5
1AE
100
AcDbEntity
  8
LAY-1
  6
CONTINUOUS
 62
     2
100
AcDbCircle
 10
183.55739
 20
114.54211
 30
0.0
 40
1.5
100
AcDbArc
 50
97.490978
 51
175.0
  0
LINE
  5
1AF
100
AcDbEntity
  8
LAY-1
  6
CONTINUOUS
 62
     2
100
AcDbLine
 10
181.969236
 20
113.6
 30
0.0
 11
182.063097
 21
114.672844
 31
0.0
  0
ARC
  5
1B0
100
AcDbEntity
  8
LAY-1
  6
CONTINUOUS
 62
     2
100
AcDbCircle
 10
185.969236
 20
96.2
 30
0.0
 40
20.0
100
AcDbArc
 50
82.509022
 51
97.490978
  0
ARC
  5
1B1
100
AcDbEntity
  8
LAY-1
  6
CONTINUOUS
 62
     2
100
AcDbCircle
 10
188.381082
 20
114.54211
 30
0.0
 40
1.5
100
AcDbArc
 50
5.0
 51
82.509022
  0
LINE
  5
1B2
100
AcDbEntity
  8
LAY-1
  6
CONTINUOUS
 62
     2
100
AcDbLine
 10
189.969236
 20
113.6
 30
0.0
 11
189.875374
 21
114.672844
 31
0.0
  0
ARC
  5
1B3
100
AcDbEntity
  8
LAY-1
  6
CONTINUOUS
 62
     2
100
AcDbCircle
 10
186.460908
 20
114.1
 30
0.0
 40
3.5
100
AcDbArc
 50
90.0
 51
146.062423
  0
ARC
  5
1B4
100
AcDbEntity
  8
LAY-1
  6
CONTINUOUS
 62
     2
100
AcDbCircle
 10
198.079683
 20
82.8
 30
0.0
 40
0.5
100
AcDbArc
 50
15.0
 51
90.0
  0
LINE
  5
1B5
100
AcDbEntity
  8
LAY-1
  6
CONTINUOUS
 62
     2
100
AcDbLine
 10
198.562646
 20
82.92941
 30
0.0
 11
198.795602
 21
82.060008
 31
0.0
  0
ARC
  5
1B6
100
AcDbEntity
  8
LAY-1
  6
CONTINUOUS
 62
     2
100
AcDbCircle
 10
200.437676
 20
82.5
 30
0.0
 40
1.7
100
AcDbArc
 50
195.0
 51
270.0
  0
LINE
  5
1B7
100
AcDbEntity
  8
LAY-1
  6
CONTINUOUS
 62
     2
100
AcDbLine
 10
187.62609
 20
84.5
 30
0.0
 11
187.62609
 21
83.3
 31
0.0
  0
ARC
  5
1B8
100
AcDbEntity
  8
LAY-1
  6
CONTINUOUS
 62
     2
100
AcDbCircle
 10
194.037936
 20
82.35789
 30
0.0
 40
1.5
100
AcDbArc
 50
277.490978
 51
355.0
  0
LINE
  5
1B9
100
AcDbEntity
  8
LAY-1
  6
CONTINUOUS
 62
     2
100
AcDbLine
 10
195.62609
 20
83.3
 30
0.0
 11
195.532228
 21
82.227156
 31
0.0
  0
ARC
  5
1BA
100
AcDbEntity
  8
LAY-1
  6
CONTINUOUS
 62
     2
100
AcDbCircle
 10
191.62609
 20
100.7
 30
0.0
 40
20.0
100
AcDbArc
 50
262.509022
 51
277.490978
  0
ARC
  5
1BB
100
AcDbEntity
  8
LAY-1
  6
CONTINUOUS
 62
     2
100
AcDbCircle
 10
189.214244
 20
82.35789
 30
0.0
 40
1.5
100
AcDbArc
 50
185.0
 51
262.509022
  0
LINE
  5
1BC
100
AcDbEntity
  8
LAY-1
  6
CONTINUOUS
 62
     2
100
AcDbLine
 10
187.62609
 20
83.3
 30
0.0
 11
187.719952
 21
82.227156
 31
0.0
  0
ARC
  5
1BD
100
AcDbEntity
  8
LAY-1
  6
CONTINUOUS
 62
     2
100
AcDbCircle
 10
204.354012
 20
38.1
 30
0.0
 40
100.0
100
AcDbArc
 50
90.0
 51
95.215909
  0
LINE
  5
1BE
100
AcDbEntity
  8
LAY-1
  6
CONTINUOUS
 62
     2
100
AcDbLine
 10
204.354012
 20
135.1
 30
0.0
 11
194.354012
 21
135.1
 31
0.0
  0
LINE
  5
1BF
100
AcDbEntity
  8
LAY-1
  6
CONTINUOUS
 62
     2
100
AcDbLine
 10
194.354012
 20
134.1
 30
0.0
 11
204.354012
 21
134.1
 31
0.0
  0
LINE
  5
1C0
100
AcDbEntity
  8
LAY-1
  6
CONTINUOUS
 62
     2
100
AcDbLine
 10
204.354012
 20
113.6
 30
0.0
 11
180.869012
 21
113.6
 31
0.0
  0
LINE
  5
1C1
100
AcDbEntity
  8
LAY-1
  6
CONTINUOUS
 62
     2
100
AcDbLine
 10
204.354012
 20
112.1
 30
0.0
 11
180.354012
 21
112.1
 31
0.0
  0
LINE
  5
1C2
100
AcDbEntity
  8
LAY-1
  6
CONTINUOUS
 62
     2
100
AcDbLine
 10
204.354012
 20
107.5
 30
0.0
 11
180.354012
 21
107.5
 31
0.0
  0
LINE
  5
1C3
100
AcDbEntity
  8
LAY-1
  6
CONTINUOUS
 62
     2
100
AcDbLine
 10
204.354012
 20
106.5
 30
0.0
 11
193.860158
 21
106.5
 31
0.0
  0
ARC
  5
1C4
100
AcDbEntity
  8
LAY-1
  6
CONTINUOUS
 62
     2
100
AcDbCircle
 10
204.354012
 20
96.5
 30
0.0
 40
5.6
100
AcDbArc
 50
90.0
 51
270.0
  0
ARC
  5
1C5
100
AcDbEntity
  8
LAY-1
  6
CONTINUOUS
 62
     2
100
AcDbCircle
 10
204.354012
 20
96.5
 30
0.0
 40
7.5
100
AcDbArc
 50
90.0
 51
270.0
  0
LINE
  5
1C6
100
AcDbEntity
  8
LAY-1
  6
CONTINUOUS
 62
     2
100
AcDbLine
 10
200.62609
 20
86.5
 30
0.0
 11
204.354012
 21
86.5
 31
0.0
  0
LINE
  5
1C7
100
AcDbEntity
  8
LAY-1
  6
CONTINUOUS
 62
     2
100
AcDbLine
 10
204.354012
 20
86.0
 30
0.0
 11
202.354012
 21
86.0
 31
0.0
  0
LINE
  5
1C8
100
AcDbEntity
  8
LAY-1
  6
CONTINUOUS
 62
     2
100
AcDbLine
 10
204.354012
 20
80.8
 30
0.0
 11
200.437676
 21
80.8
 31
0.0
  0
LINE
  5
1C9
100
AcDbEntity
  8
LAY-1
  6
CONTINUOUS
 62
     2
100
AcDbLine
 10
187.62609
 20
83.3
 30
0.0
 11
204.354012
 21
83.3
 31
0.0
  0
LINE
  5
1CA
100
AcDbEntity
  8
LAY-1
  6
CONTINUOUS
 62
     2
100
AcDbLine
 10
194.632549
 20
92.079328
 30
0.0
 11
199.918983
 21
86.792893
 31
0.0
  0
LINE
  5
1CB
100
AcDbEntity
  8
LAY-1
  6
CONTINUOUS
 62
     2
100
AcDbLine
 10
193.858939
 20
106.534899
 30
0.0
 11
194.340265
 21
92.751535
 31
0.0
  0
ARC
  5
1CC
100
AcDbEntity
  8
LAY-1
  6
CONTINUOUS
 62
     2
100
AcDbCircle
 10
182.538386
 20
106.5
 30
0.0
 40
1.0
100
AcDbArc
 50
10.0
 51
90.0
  0
LINE
  5
1CD
100
AcDbEntity
  8
LAY-1
  6
CONTINUOUS
 62
     2
100
AcDbLine
 10
183.523194
 20
106.673648
 30
0.0
 11
183.660979
 21
105.892231
 31
0.0
  0
ARC
  5
1CE
100
AcDbEntity
  8
LAY-1
  6
CONTINUOUS
 62
     2
100
AcDbCircle
 10
187.107806
 20
106.5
 30
0.0
 40
3.5
100
AcDbArc
 50
190.0
 51
267.906908
  0
ARC
  5
1CF
100
AcDbEntity
  8
LAY-1
  6
CONTINUOUS
 62
     2
100
AcDbCircle
 10
204.354012
 20
96.5
 30
0.0
 40
4.1
100
AcDbArc
 50
90.0
 51
270.0
  0
LINE
  5
1D0
100
AcDbEntity
  8
LAY-1
  6
CONTINUOUS
 62
     2
100
AcDbLine
 10
204.354012
 20
97.35
 30
0.0
 11
200.34309
 21
97.35
 31
0.0
  0
ARC
  5
1D1
100
AcDbEntity
  8
LAY-1
  6
CONTINUOUS
 62
     2
100
AcDbCircle
 10
208.081934
 20
87.5
 30
0.0
 40
1.0
100
AcDbArc
 50
270.0
 51
315.0
  0
ARC
  5
1D2
100
AcDbEntity
  8
LAY-1
  6
CONTINUOUS
 62
     2
100
AcDbCircle
 10
213.368369
 20
92.786434
 30
0.0
 40
1.0
100
AcDbArc
 50
315.0
 51
358.0
  0
LINE
  5
1D3
100
AcDbEntity
  8
LAY-1
  6
CONTINUOUS
 62
     2
100
AcDbLine
 10
205.354012
 20
86.5
 30
0.0
 11
205.354012
 21
86.0
 31
0.0
  0
LINE
  5
1D4
100
AcDbEntity
  8
LAY-1
  6
CONTINUOUS
 62
     2
100
AcDbLine
 10
206.354012
 20
86.0
 30
0.0
 11
206.354012
 21
86.5
 31
0.0
  0
LINE
  5
1D5
100
AcDbEntity
  8
LAY-1
  6
CONTINUOUS
 62
     2
100
AcDbLine
 10
214.719689
 20
84.5
 30
0.0
 11
214.719689
 21
102.829473
 31
0.0
  0
LINE
  5
1D6
100
AcDbEntity
  8
LAY-1
  6
CONTINUOUS
 62
     2
100
AcDbLine
 10
221.081934
 20
84.5
 30
0.0
 11
204.354012
 21
84.5
 31
0.0
  0
LINE
  5
1D7
100
AcDbEntity
  8
LAY-1
  6
CONTINUOUS
 62
     2
100
AcDbLine
 10
221.081934
 20
84.5
 30
0.0
 11
221.885112
 21
107.5
 31
0.0
  0
ARC
  5
1D8
100
AcDbEntity
  8
LAY-1
  6
CONTINUOUS
 62
     2
100
AcDbCircle
 10
215.848476
 20
106.5
 30
0.0
 40
1.0
100
AcDbArc
 50
90.0
 51
178.0
  0
LINE
  5
1D9
100
AcDbEntity
  8
LAY-1
  6
CONTINUOUS
 62
     2
100
AcDbLine
 10
228.354012
 20
112.1
 30
0.0
 11
228.354012
 21
107.5
 31
0.0
  0
LINE
  5
1DA
100
AcDbEntity
  8
LAY-1
  6
CONTINUOUS
 62
     2
100
AcDbLine
 10
226.854012
 20
112.1
 30
0.0
 11
228.354012
 21
112.1
 31
0.0
  0
ARC
  5
1DB
100
AcDbEntity
  8
LAY-1
  6
CONTINUOUS
 62
     2
100
AcDbCircle
 10
227.854012
 20
113.1
 30
0.0
 40
0.5
100
AcDbArc
 50
0.0
 51
90.0
  0
ARC
  5
1DC
100
AcDbEntity
  8
LAY-1
  6
CONTINUOUS
 62
     2
100
AcDbCircle
 10
216.607415
 20
119.6
 30
0.0
 40
2.0
100
AcDbArc
 50
181.0
 51
270.0
  0
LINE
  5
1DD
100
AcDbEntity
  8
LAY-1
  6
CONTINUOUS
 62
     2
100
AcDbLine
 10
214.354012
 20
134.1
 30
0.0
 11
214.60772
 21
119.565095
 31
0.0
  0
LINE
  5
1DE
100
AcDbEntity
  8
LAY-1
  6
CONTINUOUS
 62
     2
100
AcDbLine
 10
214.354012
 20
134.1
 30
0.0
 11
214.354012
 21
135.1
 31
0.0
  0
ARC
  5
1DF
100
AcDbEntity
  8
LAY-1
  6
CONTINUOUS
 62
     2
100
AcDbCircle
 10
213.354012
 20
136.69006
 30
0.0
 40
1.0
100
AcDbArc
 50
0.0
 51
84.784091
  0
LINE
  5
1E0
100
AcDbEntity
  8
LAY-1
  6
CONTINUOUS
 62
     2
100
AcDbLine
 10
214.354012
 20
136.69006
 30
0.0
 11
214.354012
 21
135.1
 31
0.0
  0
LINE
  5
1E1
100
AcDbEntity
  8
LAY-1
  6
CONTINUOUS
 62
     2
100
AcDbLine
 10
209.354012
 20
135.1
 30
0.0
 11
209.354012
 21
137.974922
 31
0.0
  0
LINE
  5
1E2
100
AcDbEntity
  8
LAY-1
  6
CONTINUOUS
 62
     2
100
AcDbLine
 10
213.014266
 20
135.1
 30
0.0
 11
213.014266
 21
137.724294
 31
0.0
  0
LINE
  5
1E3
100
AcDbEntity
  8
LAY-1
  6
CONTINUOUS
 62
     2
100
AcDbLine
 10
212.431759
 20
135.1
 30
0.0
 11
212.431759
 21
137.773216
 31
0.0
  0
ARC
  5
1E4
100
AcDbEntity
  8
LAY-1
  6
CONTINUOUS
 62
     2
100
AcDbCircle
 10
225.150635
 20
114.54211
 30
0.0
 40
1.5
100
AcDbArc
 50
5.0
 51
82.509022
  0
LINE
  5
1E5
100
AcDbEntity
  8
LAY-1
  6
CONTINUOUS
 62
     2
100
AcDbLine
 10
226.738788
 20
113.6
 30
0.0
 11
226.644927
 21
114.672844
 31
0.0
  0
ARC
  5
1E6
100
AcDbEntity
  8
LAY-1
  6
CONTINUOUS
 62
     2
100
AcDbCircle
 10
222.738788
 20
96.2
 30
0.0
 40
20.0
100
AcDbArc
 50
82.509022
 51
97.490978
  0
ARC
  5
1E7
100
AcDbEntity
  8
LAY-1
  6
CONTINUOUS
 62
     2
100
AcDbCircle
 10
220.326942
 20
114.54211
 30
0.0
 40
1.5
100
AcDbArc
 50
97.490978
 51
175.0
  0
LINE
  5
1E8
100
AcDbEntity
  8
LAY-1
  6
CONTINUOUS
 62
     2
100
AcDbLine
 10
218.738788
 20
113.6
 30
0.0
 11
218.83265
 21
114.672844
 31
0.0
  0
ARC
  5
1E9
100
AcDbEntity
  8
LAY-1
  6
CONTINUOUS
 62
     2
100
AcDbCircle
 10
222.247116
 20
114.1
 30
0.0
 40
3.5
100
AcDbArc
 50
33.937577
 51
90.0
  0
ARC
  5
1EA
100
AcDbEntity
  8
LAY-1
  6
CONTINUOUS
 62
     2
100
AcDbCircle
 10
210.628341
 20
82.8
 30
0.0
 40
0.5
100
AcDbArc
 50
90.0
 51
165.0
  0
LINE
  5
1EB
100
AcDbEntity
  8
LAY-1
  6
CONTINUOUS
 62
     2
100
AcDbLine
 10
210.145378
 20
82.92941
 30
0.0
 11
209.912423
 21
82.060008
 31
0.0
  0
ARC
  5
1EC
100
AcDbEntity
  8
LAY-1
  6
CONTINUOUS
 62
     2
100
AcDbCircle
 10
208.270349
 20
82.5
 30
0.0
 40
1.7
100
AcDbArc
 50
270.0
 51
345.0
  0
LINE
  5
1ED
100
AcDbEntity
  8
LAY-1
  6
CONTINUOUS
 62
     2
100
AcDbLine
 10
221.081934
 20
84.5
 30
0.0
 11
221.081934
 21
83.3
 31
0.0
  0
ARC
  5
1EE
100
AcDbEntity
  8
LAY-1
  6
CONTINUOUS
 62
     2
100
AcDbCircle
 10
214.670088
 20
82.35789
 30
0.0
 40
1.5
100
AcDbArc
 50
185.0
 51
262.509022
  0
LINE
  5
1EF
100
AcDbEntity
  8
LAY-1
  6
CONTINUOUS
 62
     2
100
AcDbLine
 10
213.081934
 20
83.3
 30
0.0
 11
213.175796
 21
82.227156
 31
0.0
  0
ARC
  5
1F0
100
AcDbEntity
  8
LAY-1
  6
CONTINUOUS
 62
     2
100
AcDbCircle
 10
217.081934
 20
100.7
 30
0.0
 40
20.0
100
AcDbArc
 50
262.509022
 51
277.490978
  0
ARC
  5
1F1
100
AcDbEntity
  8
LAY-1
  6
CONTINUOUS
 62
     2
100
AcDbCircle
 10
219.493781
 20
82.35789
 30
0.0
 40
1.5
100
AcDbArc
 50
277.490978
 51
355.0
  0
LINE
  5
1F2
100
AcDbEntity
  8
LAY-1
  6
CONTINUOUS
 62
     2
100
AcDbLine
 10
221.081934
 20
83.3
 30
0.0
 11
220.988073
 21
82.227156
 31
0.0
  0
ARC
  5
1F3
100
AcDbEntity
  8
LAY-1
  6
CONTINUOUS
 62
     2
100
AcDbCircle
 10
204.354012
 20
38.1
 30
0.0
 40
100.0
100
AcDbArc
 50
84.784091
 51
90.0
  0
LINE
  5
1F4
100
AcDbEntity
  8
LAY-1
  6
CONTINUOUS
 62
     2
100
AcDbLine
 10
204.354012
 20
135.1
 30
0.0
 11
214.354012
 21
135.1
 31
0.0
  0
LINE
  5
1F5
100
AcDbEntity
  8
LAY-1
  6
CONTINUOUS
 62
     2
100
AcDbLine
 10
214.354012
 20
134.1
 30
0.0
 11
204.354012
 21
134.1
 31
0.0
  0
LINE
  5
1F6
100
AcDbEntity
  8
LAY-1
  6
CONTINUOUS
 62
     2
100
AcDbLine
 10
204.354012
 20
113.6
 30
0.0
 11
227.839012
 21
113.6
 31
0.0
  0
LINE
  5
1F7
100
AcDbEntity
  8
LAY-1
  6
CONTINUOUS
 62
     2
100
AcDbLine
 10
204.354012
 20
112.1
 30
0.0
 11
228.354012
 21
112.1
 31
0.0
  0
LINE
  5
1F8
100
AcDbEntity
  8
LAY-1
  6
CONTINUOUS
 62
     2
100
AcDbLine
 10
204.354012
 20
107.5
 30
0.0
 11
228.354012
 21
107.5
 31
0.0
  0
LINE
  5
1F9
100
AcDbEntity
  8
LAY-1
  6
CONTINUOUS
 62
     2
100
AcDbLine
 10
204.354012
 20
106.5
 30
0.0
 11
214.847866
 21
106.5
 31
0.0
  0
ARC
  5
1FA
100
AcDbEntity
  8
LAY-1
  6
CONTINUOUS
 62
     2
100
AcDbCircle
 10
204.354012
 20
96.5
 30
0.0
 40
5.6
100
AcDbArc
 50
270.0
 51
90.0
  0
ARC
  5
1FB
100
AcDbEntity
  8
LAY-1
  6
CONTINUOUS
 62
     2
100
AcDbCircle
 10
204.354012
 20
96.5
 30
0.0
 40
7.5
100
AcDbArc
 50
270.0
 51
90.0
  0
LINE
  5
1FC
100
AcDbEntity
  8
LAY-1
  6
CONTINUOUS
 62
     2
100
AcDbLine
 10
208.081934
 20
86.5
 30
0.0
 11
204.354012
 21
86.5
 31
0.0
  0
LINE
  5
1FD
100
AcDbEntity
  8
LAY-1
  6
CONTINUOUS
 62
     2
100
AcDbLine
 10
204.354012
 20
86.0
 30
0.0
 11
206.354012
 21
86.0
 31
0.0
  0
LINE
  5
1FE
100
AcDbEntity
  8
LAY-1
  6
CONTINUOUS
 62
     2
100
AcDbLine
 10
204.354012
 20
80.8
 30
0.0
 11
208.270349
 21
80.8
 31
0.0
  0
LINE
  5
1FF
100
AcDbEntity
  8
LAY-1
  6
CONTINUOUS
 62
     2
100
AcDbLine
 10
221.081934
 20
83.3
 30
0.0
 11
204.354012
 21
83.3
 31
0.0
  0
LINE
  5
200
100
AcDbEntity
  8
LAY-1
  6
CONTINUOUS
 62
     2
100
AcDbLine
 10
214.075475
 20
92.079328
 30
0.0
 11
208.789041
 21
86.792893
 31
0.0
  0
LINE
  5
201
100
AcDbEntity
  8
LAY-1
  6
CONTINUOUS
 62
     2
100
AcDbLine
 10
214.849085
 20
106.534899
 30
0.0
 11
214.367759
 21
92.751535
 31
0.0
  0
ARC
  5
202
100
AcDbEntity
  8
LAY-1
  6
CONTINUOUS
 62
     2
100
AcDbCircle
 10
226.169638
 20
106.5
 30
0.0
 40
1.0
100
AcDbArc
 50
90.0
 51
170.0
  0
LINE
  5
203
100
AcDbEntity
  8
LAY-1
  6
CONTINUOUS
 62
     2
100
AcDbLine
 10
225.18483
 20
106.673648
 30
0.0
 11
225.047045
 21
105.892231
 31
0.0
  0
ARC
  5
204
100
AcDbEntity
  8
LAY-1
  6
CONTINUOUS
 62
     2
100
AcDbCircle
 10
221.600218
 20
106.5
 30
0.0
 40
3.5
100
AcDbArc
 50
272.093092
 51
350.0
  0
ARC
  5
205
100
AcDbEntity
  8
LAY-1
  6
CONTINUOUS
 62
     2
100
AcDbCircle
 10
204.354012
 20
96.5
 30
0.0
 40
4.1
100
AcDbArc
 50
270.0
 51
90.0
  0
LINE
  5
206
100
AcDbEntity
  8
LAY-1
  6
CONTINUOUS
 62
     2
100
AcDbLine
 10
204.354012
 20
97.35
 30
0.0
 11
208.364935
 21
97.35
 31
0.0
  0
LINE
  5
207
100
AcDbEntity
  8
LAY-1
  6
CONTINUOUS
 62
     2
100
AcDbLine
 10
222.247116
 20
117.6
 30
0.0
 11
204.354012
 21
117.6
 31
0.0
  0
LINE
  5
208
100
AcDbEntity
  8
LAY-1
  6
CONTINUOUS
 62
     2
100
AcDbLine
 10
186.460908
 20
117.6
 30
0.0
 11
204.354012
 21
117.6
 31
0.0
  0
LINE
  5
209
100
AcDbEntity
  8
LAY-1
  6
EXLTYPE3
 62
     1
100
AcDbLine
 10
109.5
 20
212.846485
 30
0.0
 11
109.5
 21
158.046485
 31
0.0
  0
LINE
  5
20A
100
AcDbEntity
  8
LAY-1
  6
EXLTYPE3
 62
     1
100
AcDbLine
 10
153.45
 20
185.846485
 30
0.0
 11
91.65
 21
185.846485
 31
0.0
  0
ARC
  5
20B
100
AcDbEntity
  8
LAY-1
  6
CONTINUOUS
 62
     2
100
AcDbCircle
 10
100.5
 20
161.846485
 30
0.0
 40
1.0
100
AcDbArc
 50
180.0
 51
270.0
  0
ARC
  5
20C
100
AcDbEntity
  8
LAY-1
  6
CONTINUOUS
 62
     2
100
AcDbCircle
 10
100.5
 20
166.578535
 30
0.0
 40
1.0
100
AcDbArc
 50
150.0
 51
180.0
  0
ARC
  5
20D
100
AcDbEntity
  8
LAY-1
  6
CONTINUOUS
 62
     2
100
AcDbCircle
 10
100.5
 20
205.114434
 30
0.0
 40
1.0
100
AcDbArc
 50
180.0
 51
210.0
  0
LINE
  5
20E
100
AcDbEntity
  8
LAY-1
  6
CONTINUOUS
 62
     2
100
AcDbLine
 10
119.5
 20
160.846485
 30
0.0
 11
100.5
 21
160.846485
 31
0.0
  0
LINE
  5
20F
100
AcDbEntity
  8
LAY-1
  6
CONTINUOUS
 62
     2
100
AcDbLine
 10
99.0
 20
161.946485
 30
0.0
 11
99.0
 21
166.446485
 31
0.0
  0
LINE
  5
210
100
AcDbEntity
  8
LAY-1
  6
CONTINUOUS
 62
     2
100
AcDbLine
 10
99.5
 20
161.946485
 30
0.0
 11
99.0
 21
161.946485
 31
0.0
  0
LINE
  5
211
100
AcDbEntity
  8
LAY-1
  6
CONTINUOUS
 62
     2
100
AcDbLine
 10
99.5
 20
166.446485
 30
0.0
 11
99.0
 21
166.446485
 31
0.0
  0
LINE
  5
212
100
AcDbEntity
  8
LAY-1
  6
CONTINUOUS
 62
     2
100
AcDbLine
 10
119.5
 20
210.846485
 30
0.0
 11
100.5
 21
210.846485
 31
0.0
  0
ARC
  5
213
100
AcDbEntity
  8
LAY-1
  6
CONTINUOUS
 62
     2
100
AcDbCircle
 10
100.5
 20
209.846485
 30
0.0
 40
1.0
100
AcDbArc
 50
90.0
 51
180.0
  0
LINE
  5
214
100
AcDbEntity
  8
LAY-1
  6
CONTINUOUS
 62
     2
100
AcDbLine
 10
97.5
 20
202.574406
 30
0.0
 11
97.5
 21
169.118563
 31
0.0
  0
LINE
  5
215
100
AcDbEntity
  8
LAY-1
  6
CONTINUOUS
 62
     2
100
AcDbLine
 10
99.5
 20
161.846485
 30
0.0
 11
99.5
 21
166.578535
 31
0.0
  0
LINE
  5
216
100
AcDbEntity
  8
LAY-1
  6
CONTINUOUS
 62
     2
100
AcDbLine
 10
99.633975
 20
204.614434
 30
0.0
 11
100.326154
 21
203.415543
 31
0.0
  0
LINE
  5
217
100
AcDbEntity
  8
LAY-1
  6
CONTINUOUS
 62
     2
100
AcDbLine
 10
99.5
 20
209.846485
 30
0.0
 11
99.5
 21
205.114434
 31
0.0
  0
LINE
  5
218
100
AcDbEntity
  8
LAY-1
  6
CONTINUOUS
 62
     2
100
AcDbLine
 10
125.1
 20
161.846485
 30
0.0
 11
119.5
 21
161.846485
 31
0.0
  0
LINE
  5
219
100
AcDbEntity
  8
LAY-1
  6
CONTINUOUS
 62
     2
100
AcDbLine
 10
125.1
 20
161.846485
 30
0.0
 11
125.1
 21
209.846485
 31
0.0
  0
LINE
  5
21A
100
AcDbEntity
  8
LAY-1
  6
CONTINUOUS
 62
     2
100
AcDbLine
 10
125.1
 20
209.846485
 30
0.0
 11
119.5
 21
209.846485
 31
0.0
  0
ARC
  5
21B
100
AcDbEntity
  8
LAY-1
  6
CONTINUOUS
 62
     2
100
AcDbCircle
 10
99.460129
 20
168.777426
 30
0.0
 40
1.0
100
AcDbArc
 50
330.0
 51
13.814382
  0
ARC
  5
21C
100
AcDbEntity
  8
LAY-1
  6
CONTINUOUS
 62
     2
100
AcDbCircle
 10
99.460129
 20
202.915543
 30
0.0
 40
1.0
100
AcDbArc
 50
346.185618
 51
30.0
  0
ARC
  5
21D
100
AcDbEntity
  8
LAY-1
  6
CONTINUOUS
 62
     2
100
AcDbCircle
 10
119.5
 20
199.343073
 30
0.0
 40
1.0
100
AcDbArc
 50
280.0
 51
0.0
  0
ARC
  5
21E
100
AcDbEntity
  8
LAY-1
  6
CONTINUOUS
 62
     2
100
AcDbCircle
 10
119.5
 20
194.773653
 30
0.0
 40
3.5
100
AcDbArc
 50
100.0
 51
177.617641
  0
LINE
  5
21F
100
AcDbEntity
  8
LAY-1
  6
CONTINUOUS
 62
     2
100
AcDbLine
 10
119.673648
 20
198.358265
 30
0.0
 11
118.892231
 21
198.22048
 31
0.0
  0
LINE
  5
220
100
AcDbEntity
  8
LAY-1
  6
CONTINUOUS
 62
     2
100
AcDbLine
 10
116.003025
 20
194.919141
 30
0.0
 11
116.003025
 21
185.846485
 31
0.0
  0
LINE
  5
221
100
AcDbEntity
  8
LAY-1
  6
CONTINUOUS
 62
     2
100
AcDbLine
 10
97.5
 20
196.273645
 30
0.0
 11
116.104857
 21
195.623949
 31
0.0
  0
LINE
  5
222
100
AcDbEntity
  8
LAY-1
  6
CONTINUOUS
 62
     2
100
AcDbLine
 10
97.5
 20
202.574406
 30
0.0
 11
120.5
 21
203.377584
 31
0.0
  0
LINE
  5
223
100
AcDbEntity
  8
LAY-1
  6
CONTINUOUS
 62
     2
100
AcDbLine
 10
97.5
 20
169.118563
 30
0.0
 11
120.5
 21
168.315385
 31
0.0
  0
ARC
  5
224
100
AcDbEntity
  8
LAY-1
  6
CONTINUOUS
 62
     2
100
AcDbCircle
 10
119.5
 20
172.349896
 30
0.0
 40
1.0
100
AcDbArc
 50
0.0
 51
80.0
  0
ARC
  5
225
100
AcDbEntity
  8
LAY-1
  6
CONTINUOUS
 62
     2
100
AcDbCircle
 10
119.5
 20
176.919316
 30
0.0
 40
3.5
100
AcDbArc
 50
182.382359
 51
260.0
  0
LINE
  5
226
100
AcDbEntity
  8
LAY-1
  6
CONTINUOUS
 62
     2
100
AcDbLine
 10
119.673648
 20
173.334704
 30
0.0
 11
118.892231
 21
173.472489
 31
0.0
  0
LINE
  5
227
100
AcDbEntity
  8
LAY-1
  6
CONTINUOUS
 62
     2
100
AcDbLine
 10
116.003025
 20
176.773828
 30
0.0
 11
116.003025
 21
185.846485
 31
0.0
  0
LINE
  5
228
100
AcDbEntity
  8
LAY-1
  6
CONTINUOUS
 62
     2
100
AcDbLine
 10
97.5
 20
175.419324
 30
0.0
 11
116.104857
 21
176.06902
 31
0.0
  0
LINE
  5
229
100
AcDbEntity
  8
LAY-1
  6
CONTINUOUS
 62
     2
100
AcDbLine
 10
99.633975
 20
167.078535
 30
0.0
 11
100.326154
 21
168.277426
 31
0.0
  0
LINE
  5
22A
100
AcDbEntity
  8
LAY-1
  6
CONTINUOUS
 62
     2
100
AcDbLine
 10
100.04
 20
204.846485
 30
0.0
 11
120.5
 21
204.846485
 31
0.0
  0
LINE
  5
22B
100
AcDbEntity
  8
LAY-1
  6
CONTINUOUS
 62
     2
100
AcDbLine
 10
119.5
 20
160.846485
 30
0.0
 11
119.5
 21
166.846485
 31
0.0
  0
LINE
  5
22C
100
AcDbEntity
  8
LAY-1
  6
CONTINUOUS
 62
     2
100
AcDbLine
 10
100.04
 20
166.846485
 30
0.0
 11
120.5
 21
166.846485
 31
0.0
  0
LINE
  5
22D
100
AcDbEntity
  8
LAY-1
  6
CONTINUOUS
 62
     2
100
AcDbLine
 10
120.5
 20
162.669034
 30
0.0
 11
119.5
 21
162.669034
 31
0.0
  0
LINE
  5
22E
100
AcDbEntity
  8
LAY-1
  6
CONTINUOUS
 62
     2
100
AcDbLine
 10
120.5
 20
209.023935
 30
0.0
 11
119.5
 21
209.023935
 31
0.0
  0
LINE
  5
22F
100
AcDbEntity
  8
LAY-1
  6
CONTINUOUS
 62
     2
100
AcDbLine
 10
120.5
 20
162.669034
 30
0.0
 11
120.5
 21
209.023935
 31
0.0
  0
LINE
  5
230
100
AcDbEntity
  8
LAY-1
  6
CONTINUOUS
 62
     2
100
AcDbLine
 10
119.5
 20
210.846485
 30
0.0
 11
119.5
 21
204.846485
 31
0.0
  0
ARC
  5
231
100
AcDbEntity
  8
LAY-1
  6
CONTINUOUS
 62
     2
100
AcDbCircle
 10
95.8
 20
192.120813
 30
0.0
 40
0.5
100
AcDbArc
 50
285.0
 51
0.0
  0
LINE
  5
232
100
AcDbEntity
  8
LAY-1
  6
CONTINUOUS
 62
     2
100
AcDbLine
 10
95.92941
 20
191.63785
 30
0.0
 11
95.060008
 21
191.404895
 31
0.0
  0
ARC
  5
233
100
AcDbEntity
  8
LAY-1
  6
CONTINUOUS
 62
     2
100
AcDbCircle
 10
95.5
 20
189.762821
 30
0.0
 40
1.7
100
AcDbArc
 50
105.0
 51
180.0
  0
ARC
  5
234
100
AcDbEntity
  8
LAY-1
  6
CONTINUOUS
 62
     2
100
AcDbCircle
 10
95.8
 20
179.572156
 30
0.0
 40
0.5
100
AcDbArc
 50
0.0
 51
75.0
  0
LINE
  5
235
100
AcDbEntity
  8
LAY-1
  6
CONTINUOUS
 62
     2
100
AcDbLine
 10
95.92941
 20
180.055119
 30
0.0
 11
95.060008
 21
180.288074
 31
0.0
  0
ARC
  5
236
100
AcDbEntity
  8
LAY-1
  6
CONTINUOUS
 62
     2
100
AcDbCircle
 10
95.5
 20
181.930148
 30
0.0
 40
1.7
100
AcDbArc
 50
180.0
 51
255.0
  0
LINE
  5
237
100
AcDbEntity
  8
LAY-1
  6
CONTINUOUS
 62
     2
100
AcDbLine
 10
93.8
 20
189.762821
 30
0.0
 11
93.8
 21
181.930148
 31
0.0
  0
LINE
  5
238
100
AcDbEntity
  8
LAY-1
  6
CONTINUOUS
 62
     2
100
AcDbLine
 10
97.5
 20
185.846485
 30
0.0
 11
97.5
 21
169.118563
 31
0.0
  0
LINE
  5
239
100
AcDbEntity
  8
LAY-1
  6
CONTINUOUS
 62
     2
100
AcDbLine
 10
97.5
 20
185.846485
 30
0.0
 11
97.5
 21
202.574406
 31
0.0
  0
LINE
  5
23A
100
AcDbEntity
  8
LAY-1
  6
CONTINUOUS
 62
     2
100
AcDbLine
 10
97.5
 20
202.574406
 30
0.0
 11
96.3
 21
202.574406
 31
0.0
  0
LINE
  5
23B
100
AcDbEntity
  8
LAY-1
  6
CONTINUOUS
 62
     2
100
AcDbLine
 10
96.3
 20
202.574406
 30
0.0
 11
96.3
 21
185.846485
 31
0.0
  0
LINE
  5
23C
100
AcDbEntity
  8
LAY-1
  6
CONTINUOUS
 62
     2
100
AcDbLine
 10
96.3
 20
169.118563
 30
0.0
 11
96.3
 21
185.846485
 31
0.0
  0
LINE
  5
23D
100
AcDbEntity
  8
LAY-1
  6
CONTINUOUS
 62
     2
100
AcDbLine
 10
97.5
 20
169.118563
 30
0.0
 11
96.3
 21
169.118563
 31
0.0
  0
ARC
  5
23E
100
AcDbEntity
  8
LAY-1
  6
CONTINUOUS
 62
     2
100
AcDbCircle
 10
95.35789
 20
175.530409
 30
0.0
 40
1.5
100
AcDbArc
 50
95.0
 51
172.509022
  0
LINE
  5
23F
100
AcDbEntity
  8
LAY-1
  6
CONTINUOUS
 62
     2
100
AcDbLine
 10
96.3
 20
177.118563
 30
0.0
 11
95.227156
 21
177.024701
 31
0.0
  0
ARC
  5
240
100
AcDbEntity
  8
LAY-1
  6
CONTINUOUS
 62
     2
100
AcDbCircle
 10
113.7
 20
173.118563
 30
0.0
 40
20.0
100
AcDbArc
 50
172.509022
 51
187.490978
  0
ARC
  5
241
100
AcDbEntity
  8
LAY-1
  6
CONTINUOUS
 62
     2
100
AcDbCircle
 10
95.35789
 20
170.706717
 30
0.0
 40
1.5
100
AcDbArc
 50
187.490978
 51
265.0
  0
LINE
  5
242
100
AcDbEntity
  8
LAY-1
  6
CONTINUOUS
 62
     2
100
AcDbLine
 10
96.3
 20
169.118563
 30
0.0
 11
95.227156
 21
169.212424
 31
0.0
  0
ARC
  5
243
100
AcDbEntity
  8
LAY-1
  6
CONTINUOUS
 62
     2
100
AcDbCircle
 10
95.35789
 20
196.16256
 30
0.0
 40
1.5
100
AcDbArc
 50
187.490978
 51
265.0
  0
LINE
  5
244
100
AcDbEntity
  8
LAY-1
  6
CONTINUOUS
 62
     2
100
AcDbLine
 10
96.3
 20
194.574406
 30
0.0
 11
95.227156
 21
194.668268
 31
0.0
  0
ARC
  5
245
100
AcDbEntity
  8
LAY-1
  6
CONTINUOUS
 62
     2
100
AcDbCircle
 10
113.7
 20
198.574406
 30
0.0
 40
20.0
100
AcDbArc
 50
172.509022
 51
187.490978
  0
ARC
  5
246
100
AcDbEntity
  8
LAY-1
  6
CONTINUOUS
 62
     2
100
AcDbCircle
 10
95.35789
 20
200.986252
 30
0.0
 40
1.5
100
AcDbArc
 50
95.0
 51
172.509022
  0
LINE
  5
247
100
AcDbEntity
  8
LAY-1
  6
CONTINUOUS
 62
     2
100
AcDbLine
 10
96.3
 20
202.574406
 30
0.0
 11
95.227156
 21
202.480545
 31
0.0
  0
LINE
  5
248
100
AcDbEntity
  8
LAY-1
  6
CONTINUOUS
 62
     2
100
AcDbLine
 10
125.1
 20
163.346485
 30
0.0
 11
125.1
 21
161.846485
 31
0.0
  0
ARC
  5
249
100
AcDbEntity
  8
LAY-1
  6
CONTINUOUS
 62
     2
100
AcDbCircle
 10
126.1
 20
162.346485
 30
0.0
 40
0.5
100
AcDbArc
 50
270.0
 51
0.0
  0
ARC
  5
24A
100
AcDbEntity
  8
LAY-1
  6
CONTINUOUS
 62
     2
100
AcDbCircle
 10
132.6
 20
173.593081
 30
0.0
 40
2.0
100
AcDbArc
 50
91.0
 51
180.0
  0
LINE
  5
24B
100
AcDbEntity
  8
LAY-1
  6
CONTINUOUS
 62
     2
100
AcDbLine
 10
147.1
 20
175.846485
 30
0.0
 11
132.565095
 21
175.592777
 31
0.0
  0
LINE
  5
24C
100
AcDbEntity
  8
LAY-1
  6
CONTINUOUS
 62
     2
100
AcDbLine
 10
147.1
 20
175.846485
 30
0.0
 11
148.1
 21
175.846485
 31
0.0
  0
ARC
  5
24D
100
AcDbEntity
  8
LAY-1
  6
CONTINUOUS
 62
     2
100
AcDbCircle
 10
149.69006
 20
176.846485
 30
0.0
 40
1.0
100
AcDbArc
 50
270.0
 51
354.784091
  0
LINE
  5
24E
100
AcDbEntity
  8
LAY-1
  6
CONTINUOUS
 62
     2
100
AcDbLine
 10
149.69006
 20
175.846485
 30
0.0
 11
148.1
 21
175.846485
 31
0.0
  0
LINE
  5
24F
100
AcDbEntity
  8
LAY-1
  6
CONTINUOUS
 62
     2
100
AcDbLine
 10
148.1
 20
180.846485
 30
0.0
 11
150.974922
 21
180.846485
 31
0.0
  0
LINE
  5
250
100
AcDbEntity
  8
LAY-1
  6
CONTINUOUS
 62
     2
100
AcDbLine
 10
148.1
 20
177.18623
 30
0.0
 11
150.724294
 21
177.18623
 31
0.0
  0
LINE
  5
251
100
AcDbEntity
  8
LAY-1
  6
CONTINUOUS
 62
     2
100
AcDbLine
 10
148.1
 20
177.768737
 30
0.0
 11
150.773216
 21
177.768737
 31
0.0
  0
ARC
  5
252
100
AcDbEntity
  8
LAY-1
  6
CONTINUOUS
 62
     2
100
AcDbCircle
 10
127.54211
 20
165.049862
 30
0.0
 40
1.5
100
AcDbArc
 50
275.0
 51
352.509022
  0
LINE
  5
253
100
AcDbEntity
  8
LAY-1
  6
CONTINUOUS
 62
     2
100
AcDbLine
 10
126.6
 20
163.461708
 30
0.0
 11
127.672844
 21
163.55557
 31
0.0
  0
ARC
  5
254
100
AcDbEntity
  8
LAY-1
  6
CONTINUOUS
 62
     2
100
AcDbCircle
 10
109.2
 20
167.461708
 30
0.0
 40
20.0
100
AcDbArc
 50
352.509022
 51
7.490978
  0
ARC
  5
255
100
AcDbEntity
  8
LAY-1
  6
CONTINUOUS
 62
     2
100
AcDbCircle
 10
127.54211
 20
169.873554
 30
0.0
 40
1.5
100
AcDbArc
 50
7.490978
 51
85.0
  0
LINE
  5
256
100
AcDbEntity
  8
LAY-1
  6
CONTINUOUS
 62
     2
100
AcDbLine
 10
126.6
 20
171.461708
 30
0.0
 11
127.672844
 21
171.367847
 31
0.0
  0
ARC
  5
257
100
AcDbEntity
  8
LAY-1
  6
CONTINUOUS
 62
     2
100
AcDbCircle
 10
127.1
 20
167.95338
 30
0.0
 40
3.5
100
AcDbArc
 50
303.937577
 51
0.0
  0
ARC
  5
258
100
AcDbEntity
  8
LAY-1
  6
CONTINUOUS
 62
     2
100
AcDbCircle
 10
51.1
 20
185.846485
 30
0.0
 40
100.0
100
AcDbArc
 50
354.784091
 51
0.0
  0
LINE
  5
259
100
AcDbEntity
  8
LAY-1
  6
CONTINUOUS
 62
     2
100
AcDbLine
 10
148.1
 20
185.846485
 30
0.0
 11
148.1
 21
175.846485
 31
0.0
  0
LINE
  5
25A
100
AcDbEntity
  8
LAY-1
  6
CONTINUOUS
 62
     2
100
AcDbLine
 10
147.1
 20
175.846485
 30
0.0
 11
147.1
 21
185.846485
 31
0.0
  0
LINE
  5
25B
100
AcDbEntity
  8
LAY-1
  6
CONTINUOUS
 62
     2
100
AcDbLine
 10
126.6
 20
185.846485
 30
0.0
 11
126.6
 21
162.361485
 31
0.0
  0
LINE
  5
25C
100
AcDbEntity
  8
LAY-1
  6
CONTINUOUS
 62
     2
100
AcDbLine
 10
125.1
 20
185.846485
 30
0.0
 11
125.1
 21
161.846485
 31
0.0
  0
LINE
  5
25D
100
AcDbEntity
  8
LAY-1
  6
CONTINUOUS
 62
     2
100
AcDbLine
 10
126.1
 20
161.846485
 30
0.0
 11
125.1
 21
161.846485
 31
0.0
  0
LINE
  5
25E
100
AcDbEntity
  8
LAY-1
  6
CONTINUOUS
 62
     2
100
AcDbLine
 10
125.1
 20
208.346485
 30
0.0
 11
125.1
 21
209.846485
 31
0.0
  0
ARC
  5
25F
100
AcDbEntity
  8
LAY-1
  6
CONTINUOUS
 62
     2
100
AcDbCircle
 10
126.1
 20
209.346485
 30
0.0
 40
0.5
100
AcDbArc
 50
0.0
 51
90.0
  0
ARC
  5
260
100
AcDbEntity
  8
LAY-1
  6
CONTINUOUS
 62
     2
100
AcDbCircle
 10
132.6
 20
198.099888
 30
0.0
 40
2.0
100
AcDbArc
 50
180.0
 51
269.0
  0
LINE
  5
261
100
AcDbEntity
  8
LAY-1
  6
CONTINUOUS
 62
     2
100
AcDbLine
 10
147.1
 20
195.846485
 30
0.0
 11
132.565095
 21
196.100192
 31
0.0
  0
LINE
  5
262
100
AcDbEntity
  8
LAY-1
  6
CONTINUOUS
 62
     2
100
AcDbLine
 10
147.1
 20
195.846485
 30
0.0
 11
148.1
 21
195.846485
 31
0.0
  0
ARC
  5
263
100
AcDbEntity
  8
LAY-1
  6
CONTINUOUS
 62
     2
100
AcDbCircle
 10
149.69006
 20
194.846485
 30
0.0
 40
1.0
100
AcDbArc
 50
5.215909
 51
90.0
  0
LINE
  5
264
100
AcDbEntity
  8
LAY-1
  6
CONTINUOUS
 62
     2
100
AcDbLine
 10
149.69006
 20
195.846485
 30
0.0
 11
148.1
 21
195.846485
 31
0.0
  0
LINE
  5
265
100
AcDbEntity
  8
LAY-1
  6
CONTINUOUS
 62
     2
100
AcDbLine
 10
148.1
 20
190.846485
 30
0.0
 11
150.974922
 21
190.846485
 31
0.0
  0
LINE
  5
266
100
AcDbEntity
  8
LAY-1
  6
CONTINUOUS
 62
     2
100
AcDbLine
 10
148.1
 20
194.506739
 30
0.0
 11
150.724294
 21
194.506739
 31
0.0
  0
LINE
  5
267
100
AcDbEntity
  8
LAY-1
  6
CONTINUOUS
 62
     2
100
AcDbLine
 10
148.1
 20
193.924232
 30
0.0
 11
150.773216
 21
193.924232
 31
0.0
  0
ARC
  5
268
100
AcDbEntity
  8
LAY-1
  6
CONTINUOUS
 62
     2
100
AcDbCircle
 10
127.54211
 20
206.643107
 30
0.0
 40
1.5
100
AcDbArc
 50
7.490978
 51
85.0
  0
LINE
  5
269
100
AcDbEntity
  8
LAY-1
  6
CONTINUOUS
 62
     2
100
AcDbLine
 10
126.6
 20
208.231261
 30
0.0
 11
127.672844
 21
208.137399
 31
0.0
  0
ARC
  5
26A
100
AcDbEntity
  8
LAY-1
  6
CONTINUOUS
 62
     2
100
AcDbCircle
 10
109.2
 20
204.231261
 30
0.0
 40
20.0
100
AcDbArc
 50
352.509022
 51
7.490978
  0
ARC
  5
26B
100
AcDbEntity
  8
LAY-1
  6
CONTINUOUS
 62
     2
100
AcDbCircle
 10
127.54211
 20
201.819415
 30
0.0
 40
1.5
100
AcDbArc
 50
275.0
 51
352.509022
  0
LINE
  5
26C
100
AcDbEntity
  8
LAY-1
  6
CONTINUOUS
 62
     2
100
AcDbLine
 10
126.6
 20
200.231261
 30
0.0
 11
127.672844
 21
200.325122
 31
0.0
  0
ARC
  5
26D
100
AcDbEntity
  8
LAY-1
  6
CONTINUOUS
 62
     2
100
AcDbCircle
 10
127.1
 20
203.739589
 30
0.0
 40
3.5
100
AcDbArc
 50
0.0
 51
56.062423
  0
ARC
  5
26E
100
AcDbEntity
  8
LAY-1
  6
CONTINUOUS
 62
     2
100
AcDbCircle
 10
51.1
 20
185.846485
 30
0.0
 40
100.0
100
AcDbArc
 50
0.0
 51
5.215909
  0
LINE
  5
26F
100
AcDbEntity
  8
LAY-1
  6
CONTINUOUS
 62
     2
100
AcDbLine
 10
148.1
 20
185.846485
 30
0.0
 11
148.1
 21
195.846485
 31
0.0
  0
LINE
  5
270
100
AcDbEntity
  8
LAY-1
  6
CONTINUOUS
 62
     2
100
AcDbLine
 10
147.1
 20
195.846485
 30
0.0
 11
147.1
 21
185.846485
 31
0.0
  0
LINE
  5
271
100
AcDbEntity
  8
LAY-1
  6
CONTINUOUS
 62
     2
100
AcDbLine
 10
126.6
 20
185.846485
 30
0.0
 11
126.6
 21
209.331485
 31
0.0
  0
LINE
  5
272
100
AcDbEntity
  8
LAY-1
  6
CONTINUOUS
 62
     2
100
AcDbLine
 10
125.1
 20
185.846485
 30
0.0
 11
125.1
 21
209.846485
 31
0.0
  0
LINE
  5
273
100
AcDbEntity
  8
LAY-1
  6
CONTINUOUS
 62
     2
100
AcDbLine
 10
126.1
 20
209.846485
 30
0.0
 11
125.1
 21
209.846485
 31
0.0
  0
LINE
  5
274
100
AcDbEntity
  8
LAY-1
  6
CONTINUOUS
 62
     2
100
AcDbLine
 10
105.357864
 20
161.846485
 30
0.0
 11
105.357864
 21
166.026485
 31
0.0
  0
LINE
  5
275
100
AcDbEntity
  8
LAY-1
  6
CONTINUOUS
 62
     2
100
AcDbLine
 10
105.536129
 20
167.511778
 30
0.0
 11
105.766238
 21
168.370557
 31
0.0
  0
LINE
  5
276
100
AcDbEntity
  8
LAY-1
  6
CONTINUOUS
 62
     2
100
AcDbLine
 10
105.536129
 20
204.181191
 30
0.0
 11
105.766238
 21
203.322412
 31
0.0
  0
LINE
  5
277
100
AcDbEntity
  8
LAY-1
  6
CONTINUOUS
 62
     2
100
AcDbLine
 10
105.357864
 20
209.846485
 30
0.0
 11
105.357864
 21
205.666485
 31
0.0
  0
ARC
  5
278
100
AcDbEntity
  8
LAY-1
  6
CONTINUOUS
 62
     2
100
AcDbCircle
 10
135.6
 20
185.846485
 30
0.0
 40
7.0
100
AcDbArc
 50
276.350721
 51
83.649279
  0
LINE
  5
279
100
AcDbEntity
  8
LAY-1
  6
CONTINUOUS
 62
     2
100
AcDbLine
 10
136.374514
 20
178.887507
 30
0.0
 11
127.512844
 21
178.112211
 31
0.0
  0
ARC
  5
27A
100
AcDbEntity
  8
LAY-1
  6
CONTINUOUS
 62
     2
100
AcDbCircle
 10
127.6
 20
177.116016
 30
0.0
 40
1.0
100
AcDbArc
 50
95.0
 51
180.0
  0
ARC
  5
27B
100
AcDbEntity
  8
LAY-1
  6
CONTINUOUS
 62
     2
100
AcDbCircle
 10
127.6
 20
194.576953
 30
0.0
 40
1.0
100
AcDbArc
 50
180.0
 51
265.0
  0
LINE
  5
27C
100
AcDbEntity
  8
LAY-1
  6
CONTINUOUS
 62
     2
100
AcDbLine
 10
136.374514
 20
192.805462
 30
0.0
 11
127.512844
 21
193.580758
 31
0.0
  0
CIRCLE
  5
27D
100
AcDbEntity
  8
LAY-1
  6
CONTINUOUS
 62
     2
100
AcDbCircle
 10
135.6
 20
185.846485
 30
0.0
 40
6.0
  0
CIRCLE
  5
27E
100
AcDbEntity
  8
LAY-1
  6
CONTINUOUS
 62
     2
100
AcDbCircle
 10
135.6
 20
185.846485
 30
0.0
 40
4.3
  0
CIRCLE
  5
27F
100
AcDbEntity
  8
LAY-1
  6
CONTINUOUS
 62
     2
100
AcDbCircle
 10
134.1
 20
185.846485
 30
0.0
 40
0.5
  0
LINE
  5
280
100
AcDbEntity
  8
LAY-1
  6
EXLTYPE3
 62
     1
100
AcDbLine
 10
134.1
 20
184.546485
 30
0.0
 11
134.1
 21
187.316485
 31
0.0
  0
LINE
  5
281
100
AcDbEntity
  8
LAY-1
  6
CONTINUOUS
 62
     2
100
AcDbLine
 10
130.6
 20
167.95338
 30
0.0
 11
130.6
 21
178.382302
 31
0.0
  0
LINE
  5
282
100
AcDbEntity
  8
LAY-1
  6
CONTINUOUS
 62
     2
100
AcDbLine
 10
130.6
 20
193.310667
 30
0.0
 11
130.6
 21
203.739589
 31
0.0
  0
CIRCLE
  5
283
100
AcDbEntity
  8
LAY-1
  6
CONTINUOUS
 62
     1
100
AcDbCircle
 10
135.6
 20
185.846485
 30
0.0
 40
4.9
  0
LINE
  5
284
100
AcDbEntity
  8
LAY-1
  6
CONTINUOUS
 62
     1
100
AcDbLine
 10
100.5
 20
210.846485
 30
0.0
 11
77.6
 21
210.846485
 31
0.0
  0
LINE
  5
285
100
AcDbEntity
  8
LAY-1
  6
CONTINUOUS
 62
     1
100
AcDbLine
 10
100.5
 20
160.846485
 30
0.0
 11
77.6
 21
160.846485
 31
0.0
  0
TEXT
  5
286
100
AcDbEntity
  8
LAY-1
  6
CONTINUOUS
 62
     3
100
AcDbText
 10
77.1
 20
182.646484
 30
0.0
 40
3.2
  1
５０
 50
90.0
 41
0.84
  7
EXCADSTD
 72
     5
 11
77.1
 21
188.512725
 31
0.0
100
AcDbText
  0
LINE
  5
287
100
AcDbEntity
  8
LAY-1
  6
CONTINUOUS
 62
     1
100
AcDbLine
 10
78.1
 20
210.846485
 30
0.0
 11
78.1
 21
160.846485
 31
0.0
  0
LINE
  5
288
100
AcDbEntity
  8
LAY-1
  6
CONTINUOUS
 62
     1
100
AcDbLine
 10
78.433333
 20
208.846485
 30
0.0
 11
78.1
 21
210.846485
 31
0.0
  0
LINE
  5
289
100
AcDbEntity
  8
LAY-1
  6
CONTINUOUS
 62
     1
100
AcDbLine
 10
78.1
 20
210.846485
 30
0.0
 11
77.766667
 21
208.846485
 31
0.0
  0
LINE
  5
28A
100
AcDbEntity
  8
LAY-1
  6
CONTINUOUS
 62
     1
100
AcDbLine
 10
77.766667
 20
162.846485
 30
0.0
 11
78.1
 21
160.846485
 31
0.0
  0
LINE
  5
28B
100
AcDbEntity
  8
LAY-1
  6
CONTINUOUS
 62
     1
100
AcDbLine
 10
78.1
 20
160.846485
 30
0.0
 11
78.433333
 21
162.846485
 31
0.0
  0
LINE
  5
28C
100
AcDbEntity
  8
LAY-1
  6
CONTINUOUS
 62
     1
100
AcDbLine
 10
126.1
 20
209.846485
 30
0.0
 11
165.8
 21
209.846485
 31
0.0
  0
LINE
  5
28D
100
AcDbEntity
  8
LAY-1
  6
CONTINUOUS
 62
     1
100
AcDbLine
 10
126.1
 20
161.846485
 30
0.0
 11
165.8
 21
161.846485
 31
0.0
  0
TEXT
  5
28E
100
AcDbEntity
  8
LAY-1
  6
CONTINUOUS
 62
     3
100
AcDbText
 10
164.3
 20
182.646484
 30
0.0
 40
3.2
  1
４８
 50
90.0
 41
0.84
  7
EXCADSTD
 72
     5
 11
164.3
 21
188.512725
 31
0.0
100
AcDbText
  0
LINE
  5
28F
100
AcDbEntity
  8
LAY-1
  6
CONTINUOUS
 62
     1
100
AcDbLine
 10
165.3
 20
209.846485
 30
0.0
 11
165.3
 21
161.846485
 31
0.0
  0
LINE
  5
290
100
AcDbEntity
  8
LAY-1
  6
CONTINUOUS
 62
     1
100
AcDbLine
 10
165.633333
 20
207.846485
 30
0.0
 11
165.3
 21
209.846485
 31
0.0
  0
LINE
  5
291
100
AcDbEntity
  8
LAY-1
  6
CONTINUOUS
 62
     1
100
AcDbLine
 10
165.3
 20
209.846485
 30
0.0
 11
164.966667
 21
207.846485
 31
0.0
  0
LINE
  5
292
100
AcDbEntity
  8
LAY-1
  6
CONTINUOUS
 62
     1
100
AcDbLine
 10
164.966667
 20
163.846485
 30
0.0
 11
165.3
 21
161.846485
 31
0.0
  0
LINE
  5
293
100
AcDbEntity
  8
LAY-1
  6
CONTINUOUS
 62
     1
100
AcDbLine
 10
165.3
 20
161.846485
 30
0.0
 11
165.633333
 21
163.846485
 31
0.0
  0
TEXT
  5
294
100
AcDbEntity
  8
LAY-1
  6
CONTINUOUS
 62
     3
100
AcDbText
 10
72.364616
 20
218.577426
 30
0.0
 40
3.2
  1
Ｒｃ１／４
 41
0.84
  7
EXCADSTD
 72
     5
 11
88.364616
 21
218.577426
 31
0.0
100
AcDbText
  0
POLYLINE
  5
295
100
AcDbEntity
  8
LAY-1
  6
CONTINUOUS
 62
     1
100
AcDb2dPolyline
 66
     1
 10
0.0
 20
0.0
 30
0.0
 70
   128
  0
VERTEX
  5
296
100
AcDbEntity
  8
LAY-1
  6
CONTINUOUS
 62
     1
100
AcDbVertex
100
AcDb2dVertex
 10
102.5
 20
210.846485
 30
0.0
  0
VERTEX
  5
297
100
AcDbEntity
  8
LAY-1
  6
CONTINUOUS
 62
     1
100
AcDbVertex
100
AcDb2dVertex
 10
89.629232
 20
218.277426
 30
0.0
  0
VERTEX
  5
298
100
AcDbEntity
  8
LAY-1
  6
CONTINUOUS
 62
     1
100
AcDbVertex
100
AcDb2dVertex
 10
71.1
 20
218.277426
 30
0.0
  0
SEQEND
  5
299
100
AcDbEntity
  8
LAY-1
  6
CONTINUOUS
 62
     1
  0
LINE
  5
29A
100
AcDbEntity
  8
LAY-1
  6
CONTINUOUS
 62
     1
100
AcDbLine
 10
100.601283
 20
211.557809
 30
0.0
 11
102.5
 21
210.846485
 31
0.0
  0
LINE
  5
29B
100
AcDbEntity
  8
LAY-1
  6
CONTINUOUS
 62
     1
100
AcDbLine
 10
102.5
 20
210.846485
 30
0.0
 11
100.934616
 21
212.13516
 31
0.0
  0
TEXT
  5
29C
100
AcDbEntity
  8
LAY-1
  6
CONTINUOUS
 62
     3
100
AcDbText
 10
72.364616
 20
153.715543
 30
0.0
 40
3.2
  1
Ｒｃ１／４
 41
0.84
  7
EXCADSTD
 72
     5
 11
88.364616
 21
153.715543
 31
0.0
100
AcDbText
  0
POLYLINE
  5
29D
100
AcDbEntity
  8
LAY-1
  6
CONTINUOUS
 62
     1
100
AcDb2dPolyline
 66
     1
 10
0.0
 20
0.0
 30
0.0
 70
   128
  0
VERTEX
  5
29E
100
AcDbEntity
  8
LAY-1
  6
CONTINUOUS
 62
     1
100
AcDbVertex
100
AcDb2dVertex
 10
102.5
 20
160.846485
 30
0.0
  0
VERTEX
  5
29F
100
AcDbEntity
  8
LAY-1
  6
CONTINUOUS
 62
     1
100
AcDbVertex
100
AcDb2dVertex
 10
89.629232
 20
153.415543
 30
0.0
  0
VERTEX
  5
2A0
100
AcDbEntity
  8
LAY-1
  6
CONTINUOUS
 62
     1
100
AcDbVertex
100
AcDb2dVertex
 10
71.1
 20
153.415543
 30
0.0
  0
SEQEND
  5
2A1
100
AcDbEntity
  8
LAY-1
  6
CONTINUOUS
 62
     1
  0
LINE
  5
2A2
100
AcDbEntity
  8
LAY-1
  6
CONTINUOUS
 62
     1
100
AcDbLine
 10
100.934616
 20
159.557809
 30
0.0
 11
102.5
 21
160.846485
 31
0.0
  0
LINE
  5
2A3
100
AcDbEntity
  8
LAY-1
  6
CONTINUOUS
 62
     1
100
AcDbLine
 10
102.5
 20
160.846485
 30
0.0
 11
100.601283
 21
160.13516
 31
0.0
  0
TEXT
  5
2A4
100
AcDbEntity
  8
LAY-1
  6
CONTINUOUS
 62
     3
100
AcDbText
 10
147.265064
 20
166.948335
 30
0.0
 40
3.2
  1
Ｒｃ１／８
 41
0.84
  7
EXCADSTD
 72
     5
 11
163.265064
 21
166.948335
 31
0.0
100
AcDbText
  0
POLYLINE
  5
2A5
100
AcDbEntity
  8
LAY-1
  6
CONTINUOUS
 62
     1
100
AcDb2dPolyline
 66
     1
 10
0.0
 20
0.0
 30
0.0
 70
   128
  0
VERTEX
  5
2A6
100
AcDbEntity
  8
LAY-1
  6
CONTINUOUS
 62
     1
100
AcDbVertex
100
AcDb2dVertex
 10
137.933647
 20
181.537878
 30
0.0
  0
VERTEX
  5
2A7
100
AcDbEntity
  8
LAY-1
  6
CONTINUOUS
 62
     1
100
AcDbVertex
100
AcDb2dVertex
 10
146.530129
 20
166.648335
 30
0.0
  0
VERTEX
  5
2A8
100
AcDbEntity
  8
LAY-1
  6
CONTINUOUS
 62
     1
100
AcDbVertex
100
AcDb2dVertex
 10
164.0
 20
166.648335
 30
0.0
  0
SEQEND
  5
2A9
100
AcDbEntity
  8
LAY-1
  6
CONTINUOUS
 62
     1
  0
LINE
  5
2AA
100
AcDbEntity
  8
LAY-1
  6
CONTINUOUS
 62
     1
100
AcDbLine
 10
139.222322
 20
179.972494
 30
0.0
 11
137.933647
 21
181.537878
 31
0.0
  0
LINE
  5
2AB
100
AcDbEntity
  8
LAY-1
  6
CONTINUOUS
 62
     1
100
AcDbLine
 10
137.933647
 20
181.537878
 30
0.0
 11
138.644972
 21
179.63916
 31
0.0
  0
INSERT
  5
2AC
100
AcDbEntity
  8
LAY-1
  6
CONTINUOUS
 62
     0
100
AcDbBlockReference
  2
SYM-1
 10
109.5
 20
152.2
 30
0.0
 41
0.5
 42
0.5
 50
90.0
  0
INSERT
  5
2AD
100
AcDbEntity
  8
LAY-1
  6
CONTINUOUS
 62
     0
100
AcDbBlockReference
  2
SYM-1
 10
109.5
 20
228.525
 30
0.0
 41
0.5
 42
0.5
 50
90.0
  0
LINE
  5
2AE
100
AcDbEntity
  8
LAY-1
  6
CONTINUOUS
 62
     1
100
AcDbLine
 10
109.5
 20
210.846485
 30
0.0
 11
109.5
 21
236.7
 31
0.0
  0
LINE
  5
2AF
100
AcDbEntity
  8
LAY-1
  6
CONTINUOUS
 62
     1
100
AcDbLine
 10
151.1
 20
185.846485
 30
0.0
 11
151.1
 21
236.7
 31
0.0
  0
TEXT
  5
2B0
100
AcDbEntity
  8
LAY-1
  6
CONTINUOUS
 62
     3
100
AcDbText
 10
124.7
 20
237.2
 30
0.0
 40
3.2
  1
４１.６
 41
0.77
  7
EXCADSTD
 72
     5
 11
135.9
 21
237.2
 31
0.0
100
AcDbText
  0
LINE
  5
2B1
100
AcDbEntity
  8
LAY-1
  6
CONTINUOUS
 62
     1
100
AcDbLine
 10
109.5
 20
236.2
 30
0.0
 11
151.1
 21
236.2
 31
0.0
  0
LINE
  5
2B2
100
AcDbEntity
  8
LAY-1
  6
CONTINUOUS
 62
     1
100
AcDbLine
 10
111.5
 20
236.533333
 30
0.0
 11
109.5
 21
236.2
 31
0.0
  0
LINE
  5
2B3
100
AcDbEntity
  8
LAY-1
  6
CONTINUOUS
 62
     1
100
AcDbLine
 10
109.5
 20
236.2
 30
0.0
 11
111.5
 21
235.866667
 31
0.0
  0
LINE
  5
2B4
100
AcDbEntity
  8
LAY-1
  6
CONTINUOUS
 62
     1
100
AcDbLine
 10
149.1
 20
235.866667
 30
0.0
 11
151.1
 21
236.2
 31
0.0
  0
LINE
  5
2B5
100
AcDbEntity
  8
LAY-1
  6
CONTINUOUS
 62
     1
100
AcDbLine
 10
151.1
 20
236.2
 30
0.0
 11
149.1
 21
236.533333
 31
0.0
  0
LINE
  5
2B6
100
AcDbEntity
  8
LAY-1
  6
CONTINUOUS
 62
     1
100
AcDbLine
 10
93.7
 20
198.574406
 30
0.0
 11
93.7
 21
236.7
 31
0.0
  0
LINE
  5
2B7
100
AcDbEntity
  8
LAY-1
  6
CONTINUOUS
 62
     1
100
AcDbLine
 10
109.5
 20
210.846485
 30
0.0
 11
109.5
 21
236.7
 31
0.0
  0
TEXT
  5
2B8
100
AcDbEntity
  8
LAY-1
  6
CONTINUOUS
 62
     3
100
AcDbText
 10
96.0
 20
237.2
 30
0.0
 40
3.2
  1
１５.８
 41
0.77
  7
EXCADSTD
 72
     5
 11
107.2
 21
237.2
 31
0.0
100
AcDbText
  0
LINE
  5
2B9
100
AcDbEntity
  8
LAY-1
  6
CONTINUOUS
 62
     1
100
AcDbLine
 10
93.7
 20
236.2
 30
0.0
 11
109.5
 21
236.2
 31
0.0
  0
LINE
  5
2BA
100
AcDbEntity
  8
LAY-1
  6
CONTINUOUS
 62
     1
100
AcDbLine
 10
95.7
 20
236.533333
 30
0.0
 11
93.7
 21
236.2
 31
0.0
  0
LINE
  5
2BB
100
AcDbEntity
  8
LAY-1
  6
CONTINUOUS
 62
     1
100
AcDbLine
 10
93.7
 20
236.2
 30
0.0
 11
95.7
 21
235.866667
 31
0.0
  0
LINE
  5
2BC
100
AcDbEntity
  8
LAY-1
  6
CONTINUOUS
 62
     1
100
AcDbLine
 10
107.5
 20
235.866667
 30
0.0
 11
109.5
 21
236.2
 31
0.0
  0
LINE
  5
2BD
100
AcDbEntity
  8
LAY-1
  6
CONTINUOUS
 62
     1
100
AcDbLine
 10
109.5
 20
236.2
 30
0.0
 11
107.5
 21
236.533333
 31
0.0
  0
LINE
  5
2BE
100
AcDbEntity
  8
LAY-1
  6
EXLTYPE3
 62
     1
100
AcDbLine
 10
296.6
 20
212.846485
 30
0.0
 11
296.6
 21
158.046485
 31
0.0
  0
LINE
  5
2BF
100
AcDbEntity
  8
LAY-1
  6
EXLTYPE3
 62
     1
100
AcDbLine
 10
252.65
 20
185.846485
 30
0.0
 11
314.45
 21
185.846485
 31
0.0
  0
ARC
  5
2C0
100
AcDbEntity
  8
LAY-1
  6
CONTINUOUS
 62
     2
100
AcDbCircle
 10
305.6
 20
161.846485
 30
0.0
 40
1.0
100
AcDbArc
 50
270.0
 51
0.0
  0
ARC
  5
2C1
100
AcDbEntity
  8
LAY-1
  6
CONTINUOUS
 62
     2
100
AcDbCircle
 10
305.6
 20
166.578535
 30
0.0
 40
1.0
100
AcDbArc
 50
0.0
 51
30.0
  0
ARC
  5
2C2
100
AcDbEntity
  8
LAY-1
  6
CONTINUOUS
 62
     2
100
AcDbCircle
 10
305.6
 20
205.114434
 30
0.0
 40
1.0
100
AcDbArc
 50
330.0
 51
0.0
  0
LINE
  5
2C3
100
AcDbEntity
  8
LAY-1
  6
CONTINUOUS
 62
     2
100
AcDbLine
 10
286.6
 20
160.846485
 30
0.0
 11
305.6
 21
160.846485
 31
0.0
  0
LINE
  5
2C4
100
AcDbEntity
  8
LAY-1
  6
CONTINUOUS
 62
     2
100
AcDbLine
 10
307.1
 20
161.946485
 30
0.0
 11
307.1
 21
166.446485
 31
0.0
  0
LINE
  5
2C5
100
AcDbEntity
  8
LAY-1
  6
CONTINUOUS
 62
     2
100
AcDbLine
 10
306.6
 20
161.946485
 30
0.0
 11
307.1
 21
161.946485
 31
0.0
  0
LINE
  5
2C6
100
AcDbEntity
  8
LAY-1
  6
CONTINUOUS
 62
     2
100
AcDbLine
 10
306.6
 20
166.446485
 30
0.0
 11
307.1
 21
166.446485
 31
0.0
  0
LINE
  5
2C7
100
AcDbEntity
  8
LAY-1
  6
CONTINUOUS
 62
     2
100
AcDbLine
 10
286.6
 20
210.846485
 30
0.0
 11
305.6
 21
210.846485
 31
0.0
  0
ARC
  5
2C8
100
AcDbEntity
  8
LAY-1
  6
CONTINUOUS
 62
     2
100
AcDbCircle
 10
305.6
 20
209.846485
 30
0.0
 40
1.0
100
AcDbArc
 50
0.0
 51
90.0
  0
LINE
  5
2C9
100
AcDbEntity
  8
LAY-1
  6
CONTINUOUS
 62
     2
100
AcDbLine
 10
308.6
 20
202.574406
 30
0.0
 11
308.6
 21
169.118563
 31
0.0
  0
LINE
  5
2CA
100
AcDbEntity
  8
LAY-1
  6
CONTINUOUS
 62
     2
100
AcDbLine
 10
306.6
 20
161.846485
 30
0.0
 11
306.6
 21
166.578535
 31
0.0
  0
LINE
  5
2CB
100
AcDbEntity
  8
LAY-1
  6
CONTINUOUS
 62
     2
100
AcDbLine
 10
306.466025
 20
204.614434
 30
0.0
 11
305.773846
 21
203.415543
 31
0.0
  0
LINE
  5
2CC
100
AcDbEntity
  8
LAY-1
  6
CONTINUOUS
 62
     2
100
AcDbLine
 10
306.6
 20
209.846485
 30
0.0
 11
306.6
 21
205.114434
 31
0.0
  0
LINE
  5
2CD
100
AcDbEntity
  8
LAY-1
  6
CONTINUOUS
 62
     2
100
AcDbLine
 10
281.0
 20
161.846485
 30
0.0
 11
286.6
 21
161.846485
 31
0.0
  0
LINE
  5
2CE
100
AcDbEntity
  8
LAY-1
  6
CONTINUOUS
 62
     2
100
AcDbLine
 10
281.0
 20
161.846485
 30
0.0
 11
281.0
 21
209.846485
 31
0.0
  0
LINE
  5
2CF
100
AcDbEntity
  8
LAY-1
  6
CONTINUOUS
 62
     2
100
AcDbLine
 10
281.0
 20
209.846485
 30
0.0
 11
286.6
 21
209.846485
 31
0.0
  0
ARC
  5
2D0
100
AcDbEntity
  8
LAY-1
  6
CONTINUOUS
 62
     2
100
AcDbCircle
 10
306.639871
 20
168.777426
 30
0.0
 40
1.0
100
AcDbArc
 50
166.185618
 51
210.0
  0
ARC
  5
2D1
100
AcDbEntity
  8
LAY-1
  6
CONTINUOUS
 62
     2
100
AcDbCircle
 10
306.639871
 20
202.915543
 30
0.0
 40
1.0
100
AcDbArc
 50
150.0
 51
193.814382
  0
ARC
  5
2D2
100
AcDbEntity
  8
LAY-1
  6
CONTINUOUS
 62
     2
100
AcDbCircle
 10
286.6
 20
199.343073
 30
0.0
 40
1.0
100
AcDbArc
 50
180.0
 51
260.0
  0
ARC
  5
2D3
100
AcDbEntity
  8
LAY-1
  6
CONTINUOUS
 62
     2
100
AcDbCircle
 10
286.6
 20
194.773653
 30
0.0
 40
3.5
100
AcDbArc
 50
2.382359
 51
80.0
  0
LINE
  5
2D4
100
AcDbEntity
  8
LAY-1
  6
CONTINUOUS
 62
     2
100
AcDbLine
 10
286.426352
 20
198.358265
 30
0.0
 11
287.207769
 21
198.22048
 31
0.0
  0
LINE
  5
2D5
100
AcDbEntity
  8
LAY-1
  6
CONTINUOUS
 62
     2
100
AcDbLine
 10
290.096975
 20
194.919141
 30
0.0
 11
290.096975
 21
185.846485
 31
0.0
  0
LINE
  5
2D6
100
AcDbEntity
  8
LAY-1
  6
CONTINUOUS
 62
     2
100
AcDbLine
 10
308.6
 20
196.273645
 30
0.0
 11
289.995143
 21
195.623949
 31
0.0
  0
LINE
  5
2D7
100
AcDbEntity
  8
LAY-1
  6
CONTINUOUS
 62
     2
100
AcDbLine
 10
308.6
 20
202.574406
 30
0.0
 11
285.6
 21
203.377584
 31
0.0
  0
LINE
  5
2D8
100
AcDbEntity
  8
LAY-1
  6
CONTINUOUS
 62
     2
100
AcDbLine
 10
308.6
 20
169.118563
 30
0.0
 11
285.6
 21
168.315385
 31
0.0
  0
ARC
  5
2D9
100
AcDbEntity
  8
LAY-1
  6
CONTINUOUS
 62
     2
100
AcDbCircle
 10
286.6
 20
172.349896
 30
0.0
 40
1.0
100
AcDbArc
 50
100.0
 51
180.0
  0
ARC
  5
2DA
100
AcDbEntity
  8
LAY-1
  6
CONTINUOUS
 62
     2
100
AcDbCircle
 10
286.6
 20
176.919316
 30
0.0
 40
3.5
100
AcDbArc
 50
280.0
 51
357.617641
  0
LINE
  5
2DB
100
AcDbEntity
  8
LAY-1
  6
CONTINUOUS
 62
     2
100
AcDbLine
 10
286.426352
 20
173.334704
 30
0.0
 11
287.207769
 21
173.472489
 31
0.0
  0
LINE
  5
2DC
100
AcDbEntity
  8
LAY-1
  6
CONTINUOUS
 62
     2
100
AcDbLine
 10
290.096975
 20
176.773828
 30
0.0
 11
290.096975
 21
185.846485
 31
0.0
  0
LINE
  5
2DD
100
AcDbEntity
  8
LAY-1
  6
CONTINUOUS
 62
     2
100
AcDbLine
 10
308.6
 20
175.419324
 30
0.0
 11
289.995143
 21
176.06902
 31
0.0
  0
LINE
  5
2DE
100
AcDbEntity
  8
LAY-1
  6
CONTINUOUS
 62
     2
100
AcDbLine
 10
306.466025
 20
167.078535
 30
0.0
 11
305.773846
 21
168.277426
 31
0.0
  0
LINE
  5
2DF
100
AcDbEntity
  8
LAY-1
  6
CONTINUOUS
 62
     2
100
AcDbLine
 10
306.06
 20
204.846485
 30
0.0
 11
285.6
 21
204.846485
 31
0.0
  0
LINE
  5
2E0
100
AcDbEntity
  8
LAY-1
  6
CONTINUOUS
 62
     2
100
AcDbLine
 10
286.6
 20
160.846485
 30
0.0
 11
286.6
 21
166.846485
 31
0.0
  0
LINE
  5
2E1
100
AcDbEntity
  8
LAY-1
  6
CONTINUOUS
 62
     2
100
AcDbLine
 10
306.06
 20
166.846485
 30
0.0
 11
285.6
 21
166.846485
 31
0.0
  0
LINE
  5
2E2
100
AcDbEntity
  8
LAY-1
  6
CONTINUOUS
 62
     2
100
AcDbLine
 10
285.6
 20
162.669034
 30
0.0
 11
286.6
 21
162.669034
 31
0.0
  0
LINE
  5
2E3
100
AcDbEntity
  8
LAY-1
  6
CONTINUOUS
 62
     2
100
AcDbLine
 10
285.6
 20
209.023935
 30
0.0
 11
286.6
 21
209.023935
 31
0.0
  0
LINE
  5
2E4
100
AcDbEntity
  8
LAY-1
  6
CONTINUOUS
 62
     2
100
AcDbLine
 10
285.6
 20
162.669034
 30
0.0
 11
285.6
 21
209.023935
 31
0.0
  0
LINE
  5
2E5
100
AcDbEntity
  8
LAY-1
  6
CONTINUOUS
 62
     2
100
AcDbLine
 10
286.6
 20
210.846485
 30
0.0
 11
286.6
 21
204.846485
 31
0.0
  0
ARC
  5
2E6
100
AcDbEntity
  8
LAY-1
  6
CONTINUOUS
 62
     2
100
AcDbCircle
 10
310.3
 20
192.120813
 30
0.0
 40
0.5
100
AcDbArc
 50
180.0
 51
255.0
  0
LINE
  5
2E7
100
AcDbEntity
  8
LAY-1
  6
CONTINUOUS
 62
     2
100
AcDbLine
 10
310.17059
 20
191.63785
 30
0.0
 11
311.039992
 21
191.404895
 31
0.0
  0
ARC
  5
2E8
100
AcDbEntity
  8
LAY-1
  6
CONTINUOUS
 62
     2
100
AcDbCircle
 10
310.6
 20
189.762821
 30
0.0
 40
1.7
100
AcDbArc
 50
0.0
 51
75.0
  0
ARC
  5
2E9
100
AcDbEntity
  8
LAY-1
  6
CONTINUOUS
 62
     2
100
AcDbCircle
 10
310.3
 20
179.572156
 30
0.0
 40
0.5
100
AcDbArc
 50
105.0
 51
180.0
  0
LINE
  5
2EA
100
AcDbEntity
  8
LAY-1
  6
CONTINUOUS
 62
     2
100
AcDbLine
 10
310.17059
 20
180.055119
 30
0.0
 11
311.039992
 21
180.288074
 31
0.0
  0
ARC
  5
2EB
100
AcDbEntity
  8
LAY-1
  6
CONTINUOUS
 62
     2
100
AcDbCircle
 10
310.6
 20
181.930148
 30
0.0
 40
1.7
100
AcDbArc
 50
285.0
 51
0.0
  0
LINE
  5
2EC
100
AcDbEntity
  8
LAY-1
  6
CONTINUOUS
 62
     2
100
AcDbLine
 10
312.3
 20
189.762821
 30
0.0
 11
312.3
 21
181.930148
 31
0.0
  0
LINE
  5
2ED
100
AcDbEntity
  8
LAY-1
  6
CONTINUOUS
 62
     2
100
AcDbLine
 10
308.6
 20
185.846485
 30
0.0
 11
308.6
 21
169.118563
 31
0.0
  0
LINE
  5
2EE
100
AcDbEntity
  8
LAY-1
  6
CONTINUOUS
 62
     2
100
AcDbLine
 10
308.6
 20
185.846485
 30
0.0
 11
308.6
 21
202.574406
 31
0.0
  0
LINE
  5
2EF
100
AcDbEntity
  8
LAY-1
  6
CONTINUOUS
 62
     2
100
AcDbLine
 10
308.6
 20
202.574406
 30
0.0
 11
309.8
 21
202.574406
 31
0.0
  0
LINE
  5
2F0
100
AcDbEntity
  8
LAY-1
  6
CONTINUOUS
 62
     2
100
AcDbLine
 10
309.8
 20
202.574406
 30
0.0
 11
309.8
 21
185.846485
 31
0.0
  0
LINE
  5
2F1
100
AcDbEntity
  8
LAY-1
  6
CONTINUOUS
 62
     2
100
AcDbLine
 10
309.8
 20
169.118563
 30
0.0
 11
309.8
 21
185.846485
 31
0.0
  0
LINE
  5
2F2
100
AcDbEntity
  8
LAY-1
  6
CONTINUOUS
 62
     2
100
AcDbLine
 10
308.6
 20
169.118563
 30
0.0
 11
309.8
 21
169.118563
 31
0.0
  0
ARC
  5
2F3
100
AcDbEntity
  8
LAY-1
  6
CONTINUOUS
 62
     2
100
AcDbCircle
 10
310.74211
 20
175.530409
 30
0.0
 40
1.5
100
AcDbArc
 50
7.490978
 51
85.0
  0
LINE
  5
2F4
100
AcDbEntity
  8
LAY-1
  6
CONTINUOUS
 62
     2
100
AcDbLine
 10
309.8
 20
177.118563
 30
0.0
 11
310.872844
 21
177.024701
 31
0.0
  0
ARC
  5
2F5
100
AcDbEntity
  8
LAY-1
  6
CONTINUOUS
 62
     2
100
AcDbCircle
 10
292.4
 20
173.118563
 30
0.0
 40
20.0
100
AcDbArc
 50
352.509022
 51
7.490978
  0
ARC
  5
2F6
100
AcDbEntity
  8
LAY-1
  6
CONTINUOUS
 62
     2
100
AcDbCircle
 10
310.74211
 20
170.706717
 30
0.0
 40
1.5
100
AcDbArc
 50
275.0
 51
352.509022
  0
LINE
  5
2F7
100
AcDbEntity
  8
LAY-1
  6
CONTINUOUS
 62
     2
100
AcDbLine
 10
309.8
 20
169.118563
 30
0.0
 11
310.872844
 21
169.212424
 31
0.0
  0
ARC
  5
2F8
100
AcDbEntity
  8
LAY-1
  6
CONTINUOUS
 62
     2
100
AcDbCircle
 10
310.74211
 20
196.16256
 30
0.0
 40
1.5
100
AcDbArc
 50
275.0
 51
352.509022
  0
LINE
  5
2F9
100
AcDbEntity
  8
LAY-1
  6
CONTINUOUS
 62
     2
100
AcDbLine
 10
309.8
 20
194.574406
 30
0.0
 11
310.872844
 21
194.668268
 31
0.0
  0
ARC
  5
2FA
100
AcDbEntity
  8
LAY-1
  6
CONTINUOUS
 62
     2
100
AcDbCircle
 10
292.4
 20
198.574406
 30
0.0
 40
20.0
100
AcDbArc
 50
352.509022
 51
7.490978
  0
ARC
  5
2FB
100
AcDbEntity
  8
LAY-1
  6
CONTINUOUS
 62
     2
100
AcDbCircle
 10
310.74211
 20
200.986252
 30
0.0
 40
1.5
100
AcDbArc
 50
7.490978
 51
85.0
  0
LINE
  5
2FC
100
AcDbEntity
  8
LAY-1
  6
CONTINUOUS
 62
     2
100
AcDbLine
 10
309.8
 20
202.574406
 30
0.0
 11
310.872844
 21
202.480545
 31
0.0
  0
LINE
  5
2FD
100
AcDbEntity
  8
LAY-1
  6
CONTINUOUS
 62
     2
100
AcDbLine
 10
281.0
 20
163.346485
 30
0.0
 11
281.0
 21
161.846485
 31
0.0
  0
ARC
  5
2FE
100
AcDbEntity
  8
LAY-1
  6
CONTINUOUS
 62
     2
100
AcDbCircle
 10
280.0
 20
162.346485
 30
0.0
 40
0.5
100
AcDbArc
 50
180.0
 51
270.0
  0
ARC
  5
2FF
100
AcDbEntity
  8
LAY-1
  6
CONTINUOUS
 62
     2
100
AcDbCircle
 10
273.5
 20
173.593081
 30
0.0
 40
2.0
100
AcDbArc
 50
0.0
 51
89.0
  0
LINE
  5
300
100
AcDbEntity
  8
LAY-1
  6
CONTINUOUS
 62
     2
100
AcDbLine
 10
259.0
 20
175.846485
 30
0.0
 11
273.534905
 21
175.592777
 31
0.0
  0
LINE
  5
301
100
AcDbEntity
  8
LAY-1
  6
CONTINUOUS
 62
     2
100
AcDbLine
 10
259.0
 20
175.846485
 30
0.0
 11
258.0
 21
175.846485
 31
0.0
  0
ARC
  5
302
100
AcDbEntity
  8
LAY-1
  6
CONTINUOUS
 62
     2
100
AcDbCircle
 10
256.40994
 20
176.846485
 30
0.0
 40
1.0
100
AcDbArc
 50
185.215909
 51
270.0
  0
LINE
  5
303
100
AcDbEntity
  8
LAY-1
  6
CONTINUOUS
 62
     2
100
AcDbLine
 10
256.40994
 20
175.846485
 30
0.0
 11
258.0
 21
175.846485
 31
0.0
  0
LINE
  5
304
100
AcDbEntity
  8
LAY-1
  6
CONTINUOUS
 62
     2
100
AcDbLine
 10
258.0
 20
180.846485
 30
0.0
 11
255.125078
 21
180.846485
 31
0.0
  0
LINE
  5
305
100
AcDbEntity
  8
LAY-1
  6
CONTINUOUS
 62
     2
100
AcDbLine
 10
258.0
 20
177.18623
 30
0.0
 11
255.375706
 21
177.18623
 31
0.0
  0
LINE
  5
306
100
AcDbEntity
  8
LAY-1
  6
CONTINUOUS
 62
     2
100
AcDbLine
 10
258.0
 20
177.768737
 30
0.0
 11
255.326784
 21
177.768737
 31
0.0
  0
ARC
  5
307
100
AcDbEntity
  8
LAY-1
  6
CONTINUOUS
 62
     2
100
AcDbCircle
 10
278.55789
 20
165.049862
 30
0.0
 40
1.5
100
AcDbArc
 50
187.490978
 51
265.0
  0
LINE
  5
308
100
AcDbEntity
  8
LAY-1
  6
CONTINUOUS
 62
     2
100
AcDbLine
 10
279.5
 20
163.461708
 30
0.0
 11
278.427156
 21
163.55557
 31
0.0
  0
ARC
  5
309
100
AcDbEntity
  8
LAY-1
  6
CONTINUOUS
 62
     2
100
AcDbCircle
 10
296.9
 20
167.461708
 30
0.0
 40
20.0
100
AcDbArc
 50
172.509022
 51
187.490978
  0
ARC
  5
30A
100
AcDbEntity
  8
LAY-1
  6
CONTINUOUS
 62
     2
100
AcDbCircle
 10
278.55789
 20
169.873554
 30
0.0
 40
1.5
100
AcDbArc
 50
95.0
 51
172.509022
  0
LINE
  5
30B
100
AcDbEntity
  8
LAY-1
  6
CONTINUOUS
 62
     2
100
AcDbLine
 10
279.5
 20
171.461708
 30
0.0
 11
278.427156
 21
171.367847
 31
0.0
  0
ARC
  5
30C
100
AcDbEntity
  8
LAY-1
  6
CONTINUOUS
 62
     2
100
AcDbCircle
 10
279.0
 20
167.95338
 30
0.0
 40
3.5
100
AcDbArc
 50
180.0
 51
236.062423
  0
ARC
  5
30D
100
AcDbEntity
  8
LAY-1
  6
CONTINUOUS
 62
     2
100
AcDbCircle
 10
355.0
 20
185.846485
 30
0.0
 40
100.0
100
AcDbArc
 50
180.0
 51
185.215909
  0
LINE
  5
30E
100
AcDbEntity
  8
LAY-1
  6
CONTINUOUS
 62
     2
100
AcDbLine
 10
258.0
 20
185.846485
 30
0.0
 11
258.0
 21
175.846485
 31
0.0
  0
LINE
  5
30F
100
AcDbEntity
  8
LAY-1
  6
CONTINUOUS
 62
     2
100
AcDbLine
 10
259.0
 20
175.846485
 30
0.0
 11
259.0
 21
185.846485
 31
0.0
  0
LINE
  5
310
100
AcDbEntity
  8
LAY-1
  6
CONTINUOUS
 62
     2
100
AcDbLine
 10
279.5
 20
185.846485
 30
0.0
 11
279.5
 21
162.361485
 31
0.0
  0
LINE
  5
311
100
AcDbEntity
  8
LAY-1
  6
CONTINUOUS
 62
     2
100
AcDbLine
 10
281.0
 20
185.846485
 30
0.0
 11
281.0
 21
161.846485
 31
0.0
  0
LINE
  5
312
100
AcDbEntity
  8
LAY-1
  6
CONTINUOUS
 62
     2
100
AcDbLine
 10
280.0
 20
161.846485
 30
0.0
 11
281.0
 21
161.846485
 31
0.0
  0
LINE
  5
313
100
AcDbEntity
  8
LAY-1
  6
CONTINUOUS
 62
     2
100
AcDbLine
 10
281.0
 20
208.346485
 30
0.0
 11
281.0
 21
209.846485
 31
0.0
  0
ARC
  5
314
100
AcDbEntity
  8
LAY-1
  6
CONTINUOUS
 62
     2
100
AcDbCircle
 10
280.0
 20
209.346485
 30
0.0
 40
0.5
100
AcDbArc
 50
90.0
 51
180.0
  0
ARC
  5
315
100
AcDbEntity
  8
LAY-1
  6
CONTINUOUS
 62
     2
100
AcDbCircle
 10
273.5
 20
198.099888
 30
0.0
 40
2.0
100
AcDbArc
 50
271.0
 51
0.0
  0
LINE
  5
316
100
AcDbEntity
  8
LAY-1
  6
CONTINUOUS
 62
     2
100
AcDbLine
 10
259.0
 20
195.846485
 30
0.0
 11
273.534905
 21
196.100192
 31
0.0
  0
LINE
  5
317
100
AcDbEntity
  8
LAY-1
  6
CONTINUOUS
 62
     2
100
AcDbLine
 10
259.0
 20
195.846485
 30
0.0
 11
258.0
 21
195.846485
 31
0.0
  0
ARC
  5
318
100
AcDbEntity
  8
LAY-1
  6
CONTINUOUS
 62
     2
100
AcDbCircle
 10
256.40994
 20
194.846485
 30
0.0
 40
1.0
100
AcDbArc
 50
90.0
 51
174.784091
  0
LINE
  5
319
100
AcDbEntity
  8
LAY-1
  6
CONTINUOUS
 62
     2
100
AcDbLine
 10
256.40994
 20
195.846485
 30
0.0
 11
258.0
 21
195.846485
 31
0.0
  0
LINE
  5
31A
100
AcDbEntity
  8
LAY-1
  6
CONTINUOUS
 62
     2
100
AcDbLine
 10
258.0
 20
190.846485
 30
0.0
 11
255.125078
 21
190.846485
 31
0.0
  0
LINE
  5
31B
100
AcDbEntity
  8
LAY-1
  6
CONTINUOUS
 62
     2
100
AcDbLine
 10
258.0
 20
194.506739
 30
0.0
 11
255.375706
 21
194.506739
 31
0.0
  0
LINE
  5
31C
100
AcDbEntity
  8
LAY-1
  6
CONTINUOUS
 62
     2
100
AcDbLine
 10
258.0
 20
193.924232
 30
0.0
 11
255.326784
 21
193.924232
 31
0.0
  0
ARC
  5
31D
100
AcDbEntity
  8
LAY-1
  6
CONTINUOUS
 62
     2
100
AcDbCircle
 10
278.55789
 20
206.643107
 30
0.0
 40
1.5
100
AcDbArc
 50
95.0
 51
172.509022
  0
LINE
  5
31E
100
AcDbEntity
  8
LAY-1
  6
CONTINUOUS
 62
     2
100
AcDbLine
 10
279.5
 20
208.231261
 30
0.0
 11
278.427156
 21
208.137399
 31
0.0
  0
ARC
  5
31F
100
AcDbEntity
  8
LAY-1
  6
CONTINUOUS
 62
     2
100
AcDbCircle
 10
296.9
 20
204.231261
 30
0.0
 40
20.0
100
AcDbArc
 50
172.509022
 51
187.490978
  0
ARC
  5
320
100
AcDbEntity
  8
LAY-1
  6
CONTINUOUS
 62
     2
100
AcDbCircle
 10
278.55789
 20
201.819415
 30
0.0
 40
1.5
100
AcDbArc
 50
187.490978
 51
265.0
  0
LINE
  5
321
100
AcDbEntity
  8
LAY-1
  6
CONTINUOUS
 62
     2
100
AcDbLine
 10
279.5
 20
200.231261
 30
0.0
 11
278.427156
 21
200.325122
 31
0.0
  0
ARC
  5
322
100
AcDbEntity
  8
LAY-1
  6
CONTINUOUS
 62
     2
100
AcDbCircle
 10
279.0
 20
203.739589
 30
0.0
 40
3.5
100
AcDbArc
 50
123.937577
 51
180.0
  0
ARC
  5
323
100
AcDbEntity
  8
LAY-1
  6
CONTINUOUS
 62
     2
100
AcDbCircle
 10
355.0
 20
185.846485
 30
0.0
 40
100.0
100
AcDbArc
 50
174.784091
 51
180.0
  0
LINE
  5
324
100
AcDbEntity
  8
LAY-1
  6
CONTINUOUS
 62
     2
100
AcDbLine
 10
258.0
 20
185.846485
 30
0.0
 11
258.0
 21
195.846485
 31
0.0
  0
LINE
  5
325
100
AcDbEntity
  8
LAY-1
  6
CONTINUOUS
 62
     2
100
AcDbLine
 10
259.0
 20
195.846485
 30
0.0
 11
259.0
 21
185.846485
 31
0.0
  0
LINE
  5
326
100
AcDbEntity
  8
LAY-1
  6
CONTINUOUS
 62
     2
100
AcDbLine
 10
279.5
 20
185.846485
 30
0.0
 11
279.5
 21
209.331485
 31
0.0
  0
LINE
  5
327
100
AcDbEntity
  8
LAY-1
  6
CONTINUOUS
 62
     2
100
AcDbLine
 10
281.0
 20
185.846485
 30
0.0
 11
281.0
 21
209.846485
 31
0.0
  0
LINE
  5
328
100
AcDbEntity
  8
LAY-1
  6
CONTINUOUS
 62
     2
100
AcDbLine
 10
280.0
 20
209.846485
 30
0.0
 11
281.0
 21
209.846485
 31
0.0
  0
LINE
  5
329
100
AcDbEntity
  8
LAY-1
  6
CONTINUOUS
 62
     2
100
AcDbLine
 10
275.5
 20
203.739589
 30
0.0
 11
275.5
 21
185.846485
 31
0.0
  0
LINE
  5
32A
100
AcDbEntity
  8
LAY-1
  6
CONTINUOUS
 62
     2
100
AcDbLine
 10
275.5
 20
167.95338
 30
0.0
 11
275.5
 21
185.846485
 31
0.0
  0
LINE
  5
32B
100
AcDbEntity
  8
LAY-1
  6
CONTINUOUS
 62
     2
100
AcDbLine
 10
300.742136
 20
161.846485
 30
0.0
 11
300.742136
 21
166.026485
 31
0.0
  0
LINE
  5
32C
100
AcDbEntity
  8
LAY-1
  6
CONTINUOUS
 62
     2
100
AcDbLine
 10
300.563871
 20
167.511778
 30
0.0
 11
300.333762
 21
168.370557
 31
0.0
  0
LINE
  5
32D
100
AcDbEntity
  8
LAY-1
  6
CONTINUOUS
 62
     2
100
AcDbLine
 10
300.563871
 20
204.181191
 30
0.0
 11
300.333762
 21
203.322412
 31
0.0
  0
LINE
  5
32E
100
AcDbEntity
  8
LAY-1
  6
CONTINUOUS
 62
     2
100
AcDbLine
 10
300.742136
 20
209.846485
 30
0.0
 11
300.742136
 21
205.666485
 31
0.0
  0
LINE
  5
32F
100
AcDbEntity
  8
LAY-1
  6
EXLTYPE3
 62
     1
100
AcDbLine
 10
204.354012
 20
271.7
 30
0.0
 11
185.241169
 21
271.7
 31
0.0
  0
LINE
  5
330
100
AcDbEntity
  8
LAY-1
  6
EXLTYPE3
 62
     1
100
AcDbLine
 10
204.354012
 20
228.35
 30
0.0
 11
204.354012
 21
288.7
 31
0.0
  0
LINE
  5
331
100
AcDbEntity
  8
LAY-1
  6
EXLTYPE3
 62
     1
100
AcDbLine
 10
204.354012
 20
271.7
 30
0.0
 11
223.466855
 21
271.7
 31
0.0
  0
LINE
  5
332
100
AcDbEntity
  8
LAY-1
  6
CONTINUOUS
 62
     2
100
AcDbLine
 10
228.354012
 20
255.1
 30
0.0
 11
228.354012
 21
256.1
 31
0.0
  0
ARC
  5
333
100
AcDbEntity
  8
LAY-1
  6
CONTINUOUS
 62
     2
100
AcDbCircle
 10
200.62609
 20
280.7
 30
0.0
 40
1.0
100
AcDbArc
 50
90.0
 51
135.0
  0
ARC
  5
334
100
AcDbEntity
  8
LAY-1
  6
CONTINUOUS
 62
     2
100
AcDbCircle
 10
195.339656
 20
275.413566
 30
0.0
 40
1.0
100
AcDbArc
 50
135.0
 51
178.0
  0
LINE
  5
335
100
AcDbEntity
  8
LAY-1
  6
CONTINUOUS
 62
     2
100
AcDbLine
 10
193.988336
 20
283.7
 30
0.0
 11
193.988336
 21
265.370527
 31
0.0
  0
LINE
  5
336
100
AcDbEntity
  8
LAY-1
  6
CONTINUOUS
 62
     2
100
AcDbLine
 10
187.62609
 20
283.7
 30
0.0
 11
204.354012
 21
283.7
 31
0.0
  0
LINE
  5
337
100
AcDbEntity
  8
LAY-1
  6
CONTINUOUS
 62
     2
100
AcDbLine
 10
187.62609
 20
283.7
 30
0.0
 11
186.822913
 21
260.7
 31
0.0
  0
ARC
  5
338
100
AcDbEntity
  8
LAY-1
  6
CONTINUOUS
 62
     2
100
AcDbCircle
 10
192.859548
 20
261.7
 30
0.0
 40
1.0
100
AcDbArc
 50
270.0
 51
358.0
  0
LINE
  5
339
100
AcDbEntity
  8
LAY-1
  6
CONTINUOUS
 62
     2
100
AcDbLine
 10
180.354012
 20
256.1
 30
0.0
 11
180.354012
 21
260.7
 31
0.0
  0
ARC
  5
33A
100
AcDbEntity
  8
LAY-1
  6
CONTINUOUS
 62
     2
100
AcDbCircle
 10
180.854012
 20
239.1
 30
0.0
 40
0.5
100
AcDbArc
 50
180.0
 51
270.0
  0
LINE
  5
33B
100
AcDbEntity
  8
LAY-1
  6
CONTINUOUS
 62
     2
100
AcDbLine
 10
193.268226
 20
240.6
 30
0.0
 11
193.257857
 21
240.6
 31
0.0
  0
ARC
  5
33C
100
AcDbEntity
  8
LAY-1
  6
CONTINUOUS
 62
     2
100
AcDbCircle
 10
190.439799
 20
239.6
 30
0.0
 40
1.0
100
AcDbArc
 50
270.0
 51
315.0
  0
ARC
  5
33D
100
AcDbEntity
  8
LAY-1
  6
CONTINUOUS
 62
     2
100
AcDbCircle
 10
193.257857
 20
239.6
 30
0.0
 40
1.0
100
AcDbArc
 50
1.0
 51
89.405936
  0
ARC
  5
33E
100
AcDbEntity
  8
LAY-1
  6
CONTINUOUS
 62
     2
100
AcDbCircle
 10
193.268226
 20
239.6
 30
0.0
 40
1.0
100
AcDbArc
 50
90.594064
 51
135.0
  0
LINE
  5
33F
100
AcDbEntity
  8
LAY-1
  6
CONTINUOUS
 62
     2
100
AcDbLine
 10
181.854012
 20
256.1
 30
0.0
 11
180.354012
 21
256.1
 31
0.0
  0
LINE
  5
340
100
AcDbEntity
  8
LAY-1
  6
CONTINUOUS
 62
     2
100
AcDbLine
 10
180.354012
 20
256.1
 30
0.0
 11
180.354012
 21
239.1
 31
0.0
  0
ARC
  5
341
100
AcDbEntity
  8
LAY-1
  6
CONTINUOUS
 62
     2
100
AcDbCircle
 10
180.854012
 20
255.1
 30
0.0
 40
0.5
100
AcDbArc
 50
180.0
 51
270.0
  0
ARC
  5
342
100
AcDbEntity
  8
LAY-1
  6
CONTINUOUS
 62
     2
100
AcDbCircle
 10
192.100609
 20
248.6
 30
0.0
 40
2.0
100
AcDbArc
 50
1.0
 51
90.0
  0
LINE
  5
343
100
AcDbEntity
  8
LAY-1
  6
CONTINUOUS
 62
     2
100
AcDbLine
 10
194.354012
 20
234.1
 30
0.0
 11
194.100304
 21
248.634905
 31
0.0
  0
LINE
  5
344
100
AcDbEntity
  8
LAY-1
  6
CONTINUOUS
 62
     2
100
AcDbLine
 10
191.146905
 20
238.892893
 30
0.0
 11
192.561119
 21
240.307107
 31
0.0
  0
LINE
  5
345
100
AcDbEntity
  8
LAY-1
  6
CONTINUOUS
 62
     2
100
AcDbLine
 10
180.854012
 20
238.6
 30
0.0
 11
190.439799
 21
238.6
 31
0.0
  0
LINE
  5
346
100
AcDbEntity
  8
LAY-1
  6
CONTINUOUS
 62
     2
100
AcDbLine
 10
190.854012
 20
239.4
 30
0.0
 11
190.854012
 21
250.25
 31
0.0
  0
LINE
  5
347
100
AcDbEntity
  8
LAY-1
  6
CONTINUOUS
 62
     2
100
AcDbLine
 10
194.354012
 20
234.1
 30
0.0
 11
194.354012
 21
233.1
 31
0.0
  0
ARC
  5
348
100
AcDbEntity
  8
LAY-1
  6
CONTINUOUS
 62
     2
100
AcDbCircle
 10
195.354012
 20
231.50994
 30
0.0
 40
1.0
100
AcDbArc
 50
180.0
 51
264.784091
  0
LINE
  5
349
100
AcDbEntity
  8
LAY-1
  6
CONTINUOUS
 62
     2
100
AcDbLine
 10
194.354012
 20
231.50994
 30
0.0
 11
194.354012
 21
233.1
 31
0.0
  0
LINE
  5
34A
100
AcDbEntity
  8
LAY-1
  6
CONTINUOUS
 62
     2
100
AcDbLine
 10
199.354012
 20
233.1
 30
0.0
 11
199.354012
 21
230.225078
 31
0.0
  0
LINE
  5
34B
100
AcDbEntity
  8
LAY-1
  6
CONTINUOUS
 62
     2
100
AcDbLine
 10
195.693758
 20
233.1
 30
0.0
 11
195.693758
 21
230.475706
 31
0.0
  0
LINE
  5
34C
100
AcDbEntity
  8
LAY-1
  6
CONTINUOUS
 62
     2
100
AcDbLine
 10
196.276265
 20
233.1
 30
0.0
 11
196.276265
 21
230.426784
 31
0.0
  0
ARC
  5
34D
100
AcDbEntity
  8
LAY-1
  6
CONTINUOUS
 62
     2
100
AcDbCircle
 10
183.55739
 20
253.65789
 30
0.0
 40
1.5
100
AcDbArc
 50
185.0
 51
262.509022
  0
LINE
  5
34E
100
AcDbEntity
  8
LAY-1
  6
CONTINUOUS
 62
     2
100
AcDbLine
 10
181.969236
 20
254.6
 30
0.0
 11
182.063097
 21
253.527156
 31
0.0
  0
ARC
  5
34F
100
AcDbEntity
  8
LAY-1
  6
CONTINUOUS
 62
     2
100
AcDbCircle
 10
185.969236
 20
272.0
 30
0.0
 40
20.0
100
AcDbArc
 50
262.509022
 51
277.490978
  0
ARC
  5
350
100
AcDbEntity
  8
LAY-1
  6
CONTINUOUS
 62
     2
100
AcDbCircle
 10
188.381082
 20
253.65789
 30
0.0
 40
1.5
100
AcDbArc
 50
277.490978
 51
355.0
  0
LINE
  5
351
100
AcDbEntity
  8
LAY-1
  6
CONTINUOUS
 62
     2
100
AcDbLine
 10
189.969236
 20
254.6
 30
0.0
 11
189.875374
 21
253.527156
 31
0.0
  0
ARC
  5
352
100
AcDbEntity
  8
LAY-1
  6
CONTINUOUS
 62
     2
100
AcDbCircle
 10
186.460908
 20
254.1
 30
0.0
 40
3.5
100
AcDbArc
 50
213.937577
 51
270.0
  0
ARC
  5
353
100
AcDbEntity
  8
LAY-1
  6
CONTINUOUS
 62
     2
100
AcDbCircle
 10
198.079683
 20
285.4
 30
0.0
 40
0.5
100
AcDbArc
 50
270.0
 51
345.0
  0
LINE
  5
354
100
AcDbEntity
  8
LAY-1
  6
CONTINUOUS
 62
     2
100
AcDbLine
 10
198.562646
 20
285.27059
 30
0.0
 11
198.795602
 21
286.139992
 31
0.0
  0
ARC
  5
355
100
AcDbEntity
  8
LAY-1
  6
CONTINUOUS
 62
     2
100
AcDbCircle
 10
200.437676
 20
285.7
 30
0.0
 40
1.7
100
AcDbArc
 50
90.0
 51
165.0
  0
LINE
  5
356
100
AcDbEntity
  8
LAY-1
  6
CONTINUOUS
 62
     2
100
AcDbLine
 10
187.62609
 20
283.7
 30
0.0
 11
187.62609
 21
284.9
 31
0.0
  0
ARC
  5
357
100
AcDbEntity
  8
LAY-1
  6
CONTINUOUS
 62
     2
100
AcDbCircle
 10
194.037936
 20
285.84211
 30
0.0
 40
1.5
100
AcDbArc
 50
5.0
 51
82.509022
  0
LINE
  5
358
100
AcDbEntity
  8
LAY-1
  6
CONTINUOUS
 62
     2
100
AcDbLine
 10
195.62609
 20
284.9
 30
0.0
 11
195.532228
 21
285.972844
 31
0.0
  0
ARC
  5
359
100
AcDbEntity
  8
LAY-1
  6
CONTINUOUS
 62
     2
100
AcDbCircle
 10
191.62609
 20
267.5
 30
0.0
 40
20.0
100
AcDbArc
 50
82.509022
 51
97.490978
  0
ARC
  5
35A
100
AcDbEntity
  8
LAY-1
  6
CONTINUOUS
 62
     2
100
AcDbCircle
 10
189.214244
 20
285.84211
 30
0.0
 40
1.5
100
AcDbArc
 50
97.490978
 51
175.0
  0
LINE
  5
35B
100
AcDbEntity
  8
LAY-1
  6
CONTINUOUS
 62
     2
100
AcDbLine
 10
187.62609
 20
284.9
 30
0.0
 11
187.719952
 21
285.972844
 31
0.0
  0
ARC
  5
35C
100
AcDbEntity
  8
LAY-1
  6
CONTINUOUS
 62
     2
100
AcDbCircle
 10
204.354012
 20
330.1
 30
0.0
 40
100.0
100
AcDbArc
 50
264.784091
 51
270.0
  0
LINE
  5
35D
100
AcDbEntity
  8
LAY-1
  6
CONTINUOUS
 62
     2
100
AcDbLine
 10
204.354012
 20
233.1
 30
0.0
 11
194.354012
 21
233.1
 31
0.0
  0
LINE
  5
35E
100
AcDbEntity
  8
LAY-1
  6
CONTINUOUS
 62
     2
100
AcDbLine
 10
194.354012
 20
234.1
 30
0.0
 11
204.354012
 21
234.1
 31
0.0
  0
LINE
  5
35F
100
AcDbEntity
  8
LAY-1
  6
CONTINUOUS
 62
     2
100
AcDbLine
 10
204.354012
 20
254.6
 30
0.0
 11
180.869012
 21
254.6
 31
0.0
  0
LINE
  5
360
100
AcDbEntity
  8
LAY-1
  6
CONTINUOUS
 62
     2
100
AcDbLine
 10
204.354012
 20
256.1
 30
0.0
 11
180.354012
 21
256.1
 31
0.0
  0
LINE
  5
361
100
AcDbEntity
  8
LAY-1
  6
CONTINUOUS
 62
     2
100
AcDbLine
 10
204.354012
 20
260.7
 30
0.0
 11
180.354012
 21
260.7
 31
0.0
  0
LINE
  5
362
100
AcDbEntity
  8
LAY-1
  6
CONTINUOUS
 62
     2
100
AcDbLine
 10
204.354012
 20
261.7
 30
0.0
 11
193.860158
 21
261.7
 31
0.0
  0
ARC
  5
363
100
AcDbEntity
  8
LAY-1
  6
CONTINUOUS
 62
     2
100
AcDbCircle
 10
204.354012
 20
271.7
 30
0.0
 40
5.6
100
AcDbArc
 50
90.0
 51
270.0
  0
ARC
  5
364
100
AcDbEntity
  8
LAY-1
  6
CONTINUOUS
 62
     2
100
AcDbCircle
 10
204.354012
 20
271.7
 30
0.0
 40
7.5
100
AcDbArc
 50
90.0
 51
270.0
  0
LINE
  5
365
100
AcDbEntity
  8
LAY-1
  6
CONTINUOUS
 62
     2
100
AcDbLine
 10
200.62609
 20
281.7
 30
0.0
 11
204.354012
 21
281.7
 31
0.0
  0
LINE
  5
366
100
AcDbEntity
  8
LAY-1
  6
CONTINUOUS
 62
     2
100
AcDbLine
 10
204.354012
 20
287.4
 30
0.0
 11
200.437676
 21
287.4
 31
0.0
  0
LINE
  5
367
100
AcDbEntity
  8
LAY-1
  6
CONTINUOUS
 62
     2
100
AcDbLine
 10
187.62609
 20
284.9
 30
0.0
 11
204.354012
 21
284.9
 31
0.0
  0
LINE
  5
368
100
AcDbEntity
  8
LAY-1
  6
CONTINUOUS
 62
     2
100
AcDbLine
 10
194.632549
 20
276.120672
 30
0.0
 11
199.918983
 21
281.407107
 31
0.0
  0
LINE
  5
369
100
AcDbEntity
  8
LAY-1
  6
CONTINUOUS
 62
     2
100
AcDbLine
 10
193.858939
 20
261.665101
 30
0.0
 11
194.340265
 21
275.448465
 31
0.0
  0
ARC
  5
36A
100
AcDbEntity
  8
LAY-1
  6
CONTINUOUS
 62
     2
100
AcDbCircle
 10
182.538386
 20
261.7
 30
0.0
 40
1.0
100
AcDbArc
 50
270.0
 51
350.0
  0
LINE
  5
36B
100
AcDbEntity
  8
LAY-1
  6
CONTINUOUS
 62
     2
100
AcDbLine
 10
183.523194
 20
261.526352
 30
0.0
 11
183.660979
 21
262.307769
 31
0.0
  0
ARC
  5
36C
100
AcDbEntity
  8
LAY-1
  6
CONTINUOUS
 62
     2
100
AcDbCircle
 10
187.107806
 20
261.7
 30
0.0
 40
3.5
100
AcDbArc
 50
92.093092
 51
170.0
  0
ARC
  5
36D
100
AcDbEntity
  8
LAY-1
  6
CONTINUOUS
 62
     2
100
AcDbCircle
 10
208.081934
 20
280.7
 30
0.0
 40
1.0
100
AcDbArc
 50
45.0
 51
90.0
  0
ARC
  5
36E
100
AcDbEntity
  8
LAY-1
  6
CONTINUOUS
 62
     2
100
AcDbCircle
 10
213.368369
 20
275.413566
 30
0.0
 40
1.0
100
AcDbArc
 50
2.0
 51
45.0
  0
LINE
  5
36F
100
AcDbEntity
  8
LAY-1
  6
CONTINUOUS
 62
     2
100
AcDbLine
 10
214.719689
 20
283.7
 30
0.0
 11
214.719689
 21
265.370527
 31
0.0
  0
LINE
  5
370
100
AcDbEntity
  8
LAY-1
  6
CONTINUOUS
 62
     2
100
AcDbLine
 10
221.081934
 20
283.7
 30
0.0
 11
204.354012
 21
283.7
 31
0.0
  0
LINE
  5
371
100
AcDbEntity
  8
LAY-1
  6
CONTINUOUS
 62
     2
100
AcDbLine
 10
221.081934
 20
283.7
 30
0.0
 11
221.885112
 21
260.7
 31
0.0
  0
ARC
  5
372
100
AcDbEntity
  8
LAY-1
  6
CONTINUOUS
 62
     2
100
AcDbCircle
 10
215.848476
 20
261.7
 30
0.0
 40
1.0
100
AcDbArc
 50
182.0
 51
270.0
  0
LINE
  5
373
100
AcDbEntity
  8
LAY-1
  6
CONTINUOUS
 62
     2
100
AcDbLine
 10
228.354012
 20
256.1
 30
0.0
 11
228.354012
 21
260.7
 31
0.0
  0
LINE
  5
374
100
AcDbEntity
  8
LAY-1
  6
CONTINUOUS
 62
     2
100
AcDbLine
 10
226.854012
 20
256.1
 30
0.0
 11
228.354012
 21
256.1
 31
0.0
  0
ARC
  5
375
100
AcDbEntity
  8
LAY-1
  6
CONTINUOUS
 62
     2
100
AcDbCircle
 10
227.854012
 20
255.1
 30
0.0
 40
0.5
100
AcDbArc
 50
270.0
 51
0.0
  0
ARC
  5
376
100
AcDbEntity
  8
LAY-1
  6
CONTINUOUS
 62
     2
100
AcDbCircle
 10
216.607415
 20
248.6
 30
0.0
 40
2.0
100
AcDbArc
 50
90.0
 51
179.0
  0
LINE
  5
377
100
AcDbEntity
  8
LAY-1
  6
CONTINUOUS
 62
     2
100
AcDbLine
 10
214.354012
 20
234.1
 30
0.0
 11
214.60772
 21
248.634905
 31
0.0
  0
LINE
  5
378
100
AcDbEntity
  8
LAY-1
  6
CONTINUOUS
 62
     2
100
AcDbLine
 10
214.354012
 20
234.1
 30
0.0
 11
214.354012
 21
233.1
 31
0.0
  0
ARC
  5
379
100
AcDbEntity
  8
LAY-1
  6
CONTINUOUS
 62
     2
100
AcDbCircle
 10
213.354012
 20
231.50994
 30
0.0
 40
1.0
100
AcDbArc
 50
275.215909
 51
0.0
  0
LINE
  5
37A
100
AcDbEntity
  8
LAY-1
  6
CONTINUOUS
 62
     2
100
AcDbLine
 10
214.354012
 20
231.50994
 30
0.0
 11
214.354012
 21
233.1
 31
0.0
  0
LINE
  5
37B
100
AcDbEntity
  8
LAY-1
  6
CONTINUOUS
 62
     2
100
AcDbLine
 10
209.354012
 20
233.1
 30
0.0
 11
209.354012
 21
230.225078
 31
0.0
  0
LINE
  5
37C
100
AcDbEntity
  8
LAY-1
  6
CONTINUOUS
 62
     2
100
AcDbLine
 10
213.014266
 20
233.1
 30
0.0
 11
213.014266
 21
230.475706
 31
0.0
  0
LINE
  5
37D
100
AcDbEntity
  8
LAY-1
  6
CONTINUOUS
 62
     2
100
AcDbLine
 10
212.431759
 20
233.1
 30
0.0
 11
212.431759
 21
230.426784
 31
0.0
  0
ARC
  5
37E
100
AcDbEntity
  8
LAY-1
  6
CONTINUOUS
 62
     2
100
AcDbCircle
 10
225.150635
 20
253.65789
 30
0.0
 40
1.5
100
AcDbArc
 50
277.490978
 51
355.0
  0
LINE
  5
37F
100
AcDbEntity
  8
LAY-1
  6
CONTINUOUS
 62
     2
100
AcDbLine
 10
226.738788
 20
254.6
 30
0.0
 11
226.644927
 21
253.527156
 31
0.0
  0
ARC
  5
380
100
AcDbEntity
  8
LAY-1
  6
CONTINUOUS
 62
     2
100
AcDbCircle
 10
222.738788
 20
272.0
 30
0.0
 40
20.0
100
AcDbArc
 50
262.509022
 51
277.490978
  0
ARC
  5
381
100
AcDbEntity
  8
LAY-1
  6
CONTINUOUS
 62
     2
100
AcDbCircle
 10
220.326942
 20
253.65789
 30
0.0
 40
1.5
100
AcDbArc
 50
185.0
 51
262.509022
  0
LINE
  5
382
100
AcDbEntity
  8
LAY-1
  6
CONTINUOUS
 62
     2
100
AcDbLine
 10
218.738788
 20
254.6
 30
0.0
 11
218.83265
 21
253.527156
 31
0.0
  0
ARC
  5
383
100
AcDbEntity
  8
LAY-1
  6
CONTINUOUS
 62
     2
100
AcDbCircle
 10
222.247116
 20
254.1
 30
0.0
 40
3.5
100
AcDbArc
 50
270.0
 51
326.062423
  0
ARC
  5
384
100
AcDbEntity
  8
LAY-1
  6
CONTINUOUS
 62
     2
100
AcDbCircle
 10
210.628341
 20
285.4
 30
0.0
 40
0.5
100
AcDbArc
 50
195.0
 51
270.0
  0
LINE
  5
385
100
AcDbEntity
  8
LAY-1
  6
CONTINUOUS
 62
     2
100
AcDbLine
 10
210.145378
 20
285.27059
 30
0.0
 11
209.912423
 21
286.139992
 31
0.0
  0
ARC
  5
386
100
AcDbEntity
  8
LAY-1
  6
CONTINUOUS
 62
     2
100
AcDbCircle
 10
208.270349
 20
285.7
 30
0.0
 40
1.7
100
AcDbArc
 50
15.0
 51
90.0
  0
LINE
  5
387
100
AcDbEntity
  8
LAY-1
  6
CONTINUOUS
 62
     2
100
AcDbLine
 10
221.081934
 20
283.7
 30
0.0
 11
221.081934
 21
284.9
 31
0.0
  0
ARC
  5
388
100
AcDbEntity
  8
LAY-1
  6
CONTINUOUS
 62
     2
100
AcDbCircle
 10
214.670088
 20
285.84211
 30
0.0
 40
1.5
100
AcDbArc
 50
97.490978
 51
175.0
  0
LINE
  5
389
100
AcDbEntity
  8
LAY-1
  6
CONTINUOUS
 62
     2
100
AcDbLine
 10
213.081934
 20
284.9
 30
0.0
 11
213.175796
 21
285.972844
 31
0.0
  0
ARC
  5
38A
100
AcDbEntity
  8
LAY-1
  6
CONTINUOUS
 62
     2
100
AcDbCircle
 10
217.081934
 20
267.5
 30
0.0
 40
20.0
100
AcDbArc
 50
82.509022
 51
97.490978
  0
ARC
  5
38B
100
AcDbEntity
  8
LAY-1
  6
CONTINUOUS
 62
     2
100
AcDbCircle
 10
219.493781
 20
285.84211
 30
0.0
 40
1.5
100
AcDbArc
 50
5.0
 51
82.509022
  0
LINE
  5
38C
100
AcDbEntity
  8
LAY-1
  6
CONTINUOUS
 62
     2
100
AcDbLine
 10
221.081934
 20
284.9
 30
0.0
 11
220.988073
 21
285.972844
 31
0.0
  0
ARC
  5
38D
100
AcDbEntity
  8
LAY-1
  6
CONTINUOUS
 62
     2
100
AcDbCircle
 10
204.354012
 20
330.1
 30
0.0
 40
100.0
100
AcDbArc
 50
270.0
 51
275.215909
  0
LINE
  5
38E
100
AcDbEntity
  8
LAY-1
  6
CONTINUOUS
 62
     2
100
AcDbLine
 10
204.354012
 20
233.1
 30
0.0
 11
214.354012
 21
233.1
 31
0.0
  0
LINE
  5
38F
100
AcDbEntity
  8
LAY-1
  6
CONTINUOUS
 62
     2
100
AcDbLine
 10
214.354012
 20
234.1
 30
0.0
 11
204.354012
 21
234.1
 31
0.0
  0
LINE
  5
390
100
AcDbEntity
  8
LAY-1
  6
CONTINUOUS
 62
     2
100
AcDbLine
 10
204.354012
 20
254.6
 30
0.0
 11
227.839012
 21
254.6
 31
0.0
  0
LINE
  5
391
100
AcDbEntity
  8
LAY-1
  6
CONTINUOUS
 62
     2
100
AcDbLine
 10
204.354012
 20
256.1
 30
0.0
 11
228.354012
 21
256.1
 31
0.0
  0
LINE
  5
392
100
AcDbEntity
  8
LAY-1
  6
CONTINUOUS
 62
     2
100
AcDbLine
 10
204.354012
 20
260.7
 30
0.0
 11
228.354012
 21
260.7
 31
0.0
  0
LINE
  5
393
100
AcDbEntity
  8
LAY-1
  6
CONTINUOUS
 62
     2
100
AcDbLine
 10
204.354012
 20
261.7
 30
0.0
 11
214.847866
 21
261.7
 31
0.0
  0
ARC
  5
394
100
AcDbEntity
  8
LAY-1
  6
CONTINUOUS
 62
     2
100
AcDbCircle
 10
204.354012
 20
271.7
 30
0.0
 40
5.6
100
AcDbArc
 50
270.0
 51
90.0
  0
ARC
  5
395
100
AcDbEntity
  8
LAY-1
  6
CONTINUOUS
 62
     2
100
AcDbCircle
 10
204.354012
 20
271.7
 30
0.0
 40
7.5
100
AcDbArc
 50
270.0
 51
90.0
  0
LINE
  5
396
100
AcDbEntity
  8
LAY-1
  6
CONTINUOUS
 62
     2
100
AcDbLine
 10
208.081934
 20
281.7
 30
0.0
 11
204.354012
 21
281.7
 31
0.0
  0
LINE
  5
397
100
AcDbEntity
  8
LAY-1
  6
CONTINUOUS
 62
     2
100
AcDbLine
 10
204.354012
 20
287.4
 30
0.0
 11
208.270349
 21
287.4
 31
0.0
  0
LINE
  5
398
100
AcDbEntity
  8
LAY-1
  6
CONTINUOUS
 62
     2
100
AcDbLine
 10
221.081934
 20
284.9
 30
0.0
 11
204.354012
 21
284.9
 31
0.0
  0
LINE
  5
399
100
AcDbEntity
  8
LAY-1
  6
CONTINUOUS
 62
     2
100
AcDbLine
 10
214.075475
 20
276.120672
 30
0.0
 11
208.789041
 21
281.407107
 31
0.0
  0
LINE
  5
39A
100
AcDbEntity
  8
LAY-1
  6
CONTINUOUS
 62
     2
100
AcDbLine
 10
214.849085
 20
261.665101
 30
0.0
 11
214.367759
 21
275.448465
 31
0.0
  0
ARC
  5
39B
100
AcDbEntity
  8
LAY-1
  6
CONTINUOUS
 62
     2
100
AcDbCircle
 10
226.169638
 20
261.7
 30
0.0
 40
1.0
100
AcDbArc
 50
190.0
 51
270.0
  0
LINE
  5
39C
100
AcDbEntity
  8
LAY-1
  6
CONTINUOUS
 62
     2
100
AcDbLine
 10
225.18483
 20
261.526352
 30
0.0
 11
225.047045
 21
262.307769
 31
0.0
  0
ARC
  5
39D
100
AcDbEntity
  8
LAY-1
  6
CONTINUOUS
 62
     2
100
AcDbCircle
 10
221.600218
 20
261.7
 30
0.0
 40
3.5
100
AcDbArc
 50
10.0
 51
87.906908
  0
LINE
  5
39E
100
AcDbEntity
  8
LAY-1
  6
CONTINUOUS
 62
     2
100
AcDbLine
 10
222.247116
 20
250.6
 30
0.0
 11
204.354012
 21
250.6
 31
0.0
  0
LINE
  5
39F
100
AcDbEntity
  8
LAY-1
  6
CONTINUOUS
 62
     2
100
AcDbLine
 10
186.460908
 20
250.6
 30
0.0
 11
204.354012
 21
250.6
 31
0.0
  0
CIRCLE
  5
3A0
100
AcDbEntity
  8
LAY-1
  6
CONTINUOUS
 62
     2
100
AcDbCircle
 10
204.354012
 20
271.7
 30
0.0
 40
4.0
  0
CIRCLE
  5
3A1
100
AcDbEntity
  8
LAY-1
  6
CONTINUOUS
 62
     2
100
AcDbCircle
 10
204.354012
 20
271.7
 30
0.0
 40
2.5
  0
ARC
  5
3A2
100
AcDbEntity
  8
LAY-1
  6
CONTINUOUS
 62
     2
100
AcDbCircle
 10
204.354012
 20
36.2
 30
0.0
 40
24.0
100
AcDbArc
 50
180.0
 51
185.284863
  0
ARC
  5
3A3
100
AcDbEntity
  8
LAY-1
  6
CONTINUOUS
 62
     2
100
AcDbCircle
 10
204.354012
 20
36.2
 30
0.0
 40
24.0
100
AcDbArc
 50
174.715137
 51
180.0
  0
LINE
  5
3A4
100
AcDbEntity
  8
LAY-1
  6
CONTINUOUS
 62
     2
100
AcDbLine
 10
180.456035
 20
38.41058
 30
0.0
 11
181.98624
 21
54.953206
 31
0.0
  0
LINE
  5
3A5
100
AcDbEntity
  8
LAY-1
  6
CONTINUOUS
 62
     2
100
AcDbLine
 10
181.98624
 20
17.446794
 30
0.0
 11
180.456035
 21
33.98942
 31
0.0
  0
ARC
  5
3A6
100
AcDbEntity
  8
LAY-1
  6
CONTINUOUS
 62
     2
100
AcDbCircle
 10
185.969236
 20
54.584776
 30
0.0
 40
4.0
100
AcDbArc
 50
95.284863
 51
174.715137
  0
ARC
  5
3A7
100
AcDbEntity
  8
LAY-1
  6
CONTINUOUS
 62
     2
100
AcDbCircle
 10
222.738788
 20
54.584776
 30
0.0
 40
4.0
100
AcDbArc
 50
5.284863
 51
84.715137
  0
LINE
  5
3A8
100
AcDbEntity
  8
LAY-1
  6
CONTINUOUS
 62
     2
100
AcDbLine
 10
226.721785
 20
54.953206
 30
0.0
 11
228.25199
 21
38.41058
 31
0.0
  0
ARC
  5
3A9
100
AcDbEntity
  8
LAY-1
  6
CONTINUOUS
 62
     2
100
AcDbCircle
 10
204.354012
 20
36.2
 30
0.0
 40
24.0
100
AcDbArc
 50
0.0
 51
5.284863
  0
ARC
  5
3AA
100
AcDbEntity
  8
LAY-1
  6
CONTINUOUS
 62
     2
100
AcDbCircle
 10
204.354012
 20
36.2
 30
0.0
 40
24.0
100
AcDbArc
 50
354.715137
 51
0.0
  0
LINE
  5
3AB
100
AcDbEntity
  8
LAY-1
  6
CONTINUOUS
 62
     2
100
AcDbLine
 10
228.25199
 20
33.98942
 30
0.0
 11
226.721785
 21
17.446794
 31
0.0
  0
ARC
  5
3AC
100
AcDbEntity
  8
LAY-1
  6
CONTINUOUS
 62
     2
100
AcDbCircle
 10
222.738788
 20
17.815224
 30
0.0
 40
4.0
100
AcDbArc
 50
275.284863
 51
354.715137
  0
ARC
  5
3AD
100
AcDbEntity
  8
LAY-1
  6
CONTINUOUS
 62
     2
100
AcDbCircle
 10
185.969236
 20
17.815224
 30
0.0
 40
4.0
100
AcDbArc
 50
185.284863
 51
264.715137
  0
ARC
  5
3AE
100
AcDbEntity
  8
LAY-1
  6
CONTINUOUS
 62
     2
100
AcDbCircle
 10
213.354012
 20
60.2
 30
0.0
 40
1.0
100
AcDbArc
 50
0.0
 51
90.0
  0
LINE
  5
3AF
100
AcDbEntity
  8
LAY-1
  6
CONTINUOUS
 62
     2
100
AcDbLine
 10
213.354012
 20
61.2
 30
0.0
 11
195.354012
 21
61.2
 31
0.0
  0
ARC
  5
3B0
100
AcDbEntity
  8
LAY-1
  6
CONTINUOUS
 62
     2
100
AcDbCircle
 10
195.354012
 20
60.2
 30
0.0
 40
1.0
100
AcDbArc
 50
90.0
 51
180.0
  0
LINE
  5
3B1
100
AcDbEntity
  8
LAY-1
  6
CONTINUOUS
 62
     2
100
AcDbLine
 10
214.354012
 20
59.377451
 30
0.0
 11
223.107219
 21
58.567773
 31
0.0
  0
LINE
  5
3B2
100
AcDbEntity
  8
LAY-1
  6
CONTINUOUS
 62
     2
100
AcDbLine
 10
185.600806
 20
58.567773
 30
0.0
 11
194.354012
 21
59.377451
 31
0.0
  0
LINE
  5
3B3
100
AcDbEntity
  8
LAY-1
  6
CONTINUOUS
 62
     2
100
AcDbLine
 10
208.496148
 20
61.2
 30
0.0
 11
208.496148
 21
55.478006
 31
0.0
  0
LINE
  5
3B4
100
AcDbEntity
  8
LAY-1
  6
CONTINUOUS
 62
     2
100
AcDbLine
 10
200.211877
 20
61.2
 30
0.0
 11
200.211877
 21
55.577001
 31
0.0
  0
LINE
  5
3B5
100
AcDbEntity
  8
LAY-1
  6
CONTINUOUS
 62
     2
100
AcDbLine
 10
194.354012
 20
55.467949
 30
0.0
 11
194.354012
 21
60.2
 31
0.0
  0
ARC
  5
3B6
100
AcDbEntity
  8
LAY-1
  6
CONTINUOUS
 62
     2
100
AcDbCircle
 10
195.354012
 20
55.467949
 30
0.0
 40
1.0
100
AcDbArc
 50
180.0
 51
210.0
  0
ARC
  5
3B7
100
AcDbEntity
  8
LAY-1
  6
CONTINUOUS
 62
     2
100
AcDbCircle
 10
213.354012
 20
55.467949
 30
0.0
 40
1.0
100
AcDbArc
 50
330.0
 51
0.0
  0
LINE
  5
3B8
100
AcDbEntity
  8
LAY-1
  6
CONTINUOUS
 62
     2
100
AcDbLine
 10
214.354012
 20
55.467949
 30
0.0
 11
214.354012
 21
60.2
 31
0.0
  0
LINE
  5
3B9
100
AcDbEntity
  8
LAY-1
  6
CONTINUOUS
 62
     2
100
AcDbLine
 10
213.899954
 20
55.2
 30
0.0
 11
194.793928
 21
55.2
 31
0.0
  0
LINE
  5
3BA
100
AcDbEntity
  8
LAY-1
  6
CONTINUOUS
 62
     2
100
AcDbLine
 10
214.220038
 20
54.967949
 30
0.0
 11
213.487987
 21
53.7
 31
0.0
  0
LINE
  5
3BB
100
AcDbEntity
  8
LAY-1
  6
CONTINUOUS
 62
     2
100
AcDbLine
 10
194.487987
 20
54.967949
 30
0.0
 11
195.220038
 21
53.7
 31
0.0
  0
ARC
  5
3BC
100
AcDbEntity
  8
LAY-1
  6
CONTINUOUS
 62
     2
100
AcDbCircle
 10
213.354012
 20
12.2
 30
0.0
 40
1.0
100
AcDbArc
 50
270.0
 51
0.0
  0
LINE
  5
3BD
100
AcDbEntity
  8
LAY-1
  6
CONTINUOUS
 62
     2
100
AcDbLine
 10
213.354012
 20
11.2
 30
0.0
 11
195.354012
 21
11.2
 31
0.0
  0
ARC
  5
3BE
100
AcDbEntity
  8
LAY-1
  6
CONTINUOUS
 62
     2
100
AcDbCircle
 10
195.354012
 20
12.2
 30
0.0
 40
1.0
100
AcDbArc
 50
180.0
 51
270.0
  0
LINE
  5
3BF
100
AcDbEntity
  8
LAY-1
  6
CONTINUOUS
 62
     2
100
AcDbLine
 10
208.496148
 20
11.2
 30
0.0
 11
208.496148
 21
16.921994
 31
0.0
  0
LINE
  5
3C0
100
AcDbEntity
  8
LAY-1
  6
CONTINUOUS
 62
     2
100
AcDbLine
 10
200.211877
 20
11.2
 30
0.0
 11
200.211877
 21
16.822999
 31
0.0
  0
LINE
  5
3C1
100
AcDbEntity
  8
LAY-1
  6
CONTINUOUS
 62
     2
100
AcDbLine
 10
194.354012
 20
16.932051
 30
0.0
 11
194.354012
 21
12.2
 31
0.0
  0
ARC
  5
3C2
100
AcDbEntity
  8
LAY-1
  6
CONTINUOUS
 62
     2
100
AcDbCircle
 10
195.354012
 20
16.932051
 30
0.0
 40
1.0
100
AcDbArc
 50
150.0
 51
180.0
  0
ARC
  5
3C3
100
AcDbEntity
  8
LAY-1
  6
CONTINUOUS
 62
     2
100
AcDbCircle
 10
213.354012
 20
16.932051
 30
0.0
 40
1.0
100
AcDbArc
 50
0.0
 51
30.0
  0
LINE
  5
3C4
100
AcDbEntity
  8
LAY-1
  6
CONTINUOUS
 62
     2
100
AcDbLine
 10
214.354012
 20
16.932051
 30
0.0
 11
214.354012
 21
12.2
 31
0.0
  0
LINE
  5
3C5
100
AcDbEntity
  8
LAY-1
  6
CONTINUOUS
 62
     2
100
AcDbLine
 10
213.899954
 20
17.2
 30
0.0
 11
194.793928
 21
17.2
 31
0.0
  0
LINE
  5
3C6
100
AcDbEntity
  8
LAY-1
  6
CONTINUOUS
 62
     2
100
AcDbLine
 10
194.487987
 20
17.432051
 30
0.0
 11
195.220038
 21
18.7
 31
0.0
  0
LINE
  5
3C7
100
AcDbEntity
  8
LAY-1
  6
CONTINUOUS
 62
     2
100
AcDbLine
 10
223.107219
 20
13.832227
 30
0.0
 11
214.354012
 21
13.022549
 31
0.0
  0
LINE
  5
3C8
100
AcDbEntity
  8
LAY-1
  6
CONTINUOUS
 62
     2
100
AcDbLine
 10
194.354012
 20
13.022549
 30
0.0
 11
185.600806
 21
13.832227
 31
0.0
  0
LINE
  5
3C9
100
AcDbEntity
  8
LAY-1
  6
EXLTYPE3
 62
     1
100
AcDbLine
 10
204.354012
 20
9.636273
 30
0.0
 11
204.354012
 21
64.437049
 31
0.0
  0
LINE
  5
3CA
100
AcDbEntity
  8
LAY-1
  6
EXLTYPE3
 62
     1
100
AcDbLine
 10
229.385592
 20
36.2
 30
0.0
 11
178.261772
 21
36.2
 31
0.0
  0
CIRCLE
  5
3CB
100
AcDbEntity
  8
LAY-1
  6
CONTINUOUS
 62
     2
100
AcDbCircle
 10
222.738788
 20
17.815224
 30
0.0
 40
1.8
  0
CIRCLE
  5
3CC
100
AcDbEntity
  8
LAY-1
  6
CONTINUOUS
 62
     2
100
AcDbCircle
 10
222.738788
 20
54.584776
 30
0.0
 40
1.8
  0
CIRCLE
  5
3CD
100
AcDbEntity
  8
LAY-1
  6
CONTINUOUS
 62
     2
100
AcDbCircle
 10
185.969236
 20
54.584776
 30
0.0
 40
1.8
  0
CIRCLE
  5
3CE
100
AcDbEntity
  8
LAY-1
  6
CONTINUOUS
 62
     2
100
AcDbCircle
 10
185.969236
 20
17.815224
 30
0.0
 40
1.8
  0
ARC
  5
3CF
100
AcDbEntity
  8
LAY-1
  6
EXLTYPE3
 62
     1
100
AcDbCircle
 10
204.354012
 20
36.2
 30
0.0
 40
26.0
100
AcDbArc
 50
306.43472
 51
322.642921
  0
ARC
  5
3D0
100
AcDbEntity
  8
LAY-1
  6
EXLTYPE3
 62
     1
100
AcDbCircle
 10
204.354012
 20
36.2
 30
0.0
 40
26.0
100
AcDbArc
 50
36.817571
 51
53.255208
  0
ARC
  5
3D1
100
AcDbEntity
  8
LAY-1
  6
EXLTYPE3
 62
     1
100
AcDbCircle
 10
204.354012
 20
36.2
 30
0.0
 40
26.0
100
AcDbArc
 50
126.807021
 51
142.81262
  0
ARC
  5
3D2
100
AcDbEntity
  8
LAY-1
  6
EXLTYPE3
 62
     1
100
AcDbCircle
 10
204.354012
 20
36.2
 30
0.0
 40
26.0
100
AcDbArc
 50
216.736052
 51
232.788367
  0
ARC
  5
3D3
100
AcDbEntity
  8
LAY-1
  6
CONTINUOUS
 62
     2
100
AcDbCircle
 10
223.354012
 20
26.580299
 30
0.0
 40
3.0
100
AcDbArc
 50
180.0
 51
206.361396
  0
LINE
  5
3D4
100
AcDbEntity
  8
LAY-1
  6
CONTINUOUS
 62
     2
100
AcDbLine
 10
195.165287
 20
20.2
 30
0.0
 11
213.973713
 21
20.2
 31
0.0
  0
ARC
  5
3D5
100
AcDbEntity
  8
LAY-1
  6
CONTINUOUS
 62
     2
100
AcDbCircle
 10
217.081934
 20
23.472078
 30
0.0
 40
4.0
100
AcDbArc
 50
243.638604
 51
26.361396
  0
LINE
  5
3D6
100
AcDbEntity
  8
LAY-1
  6
CONTINUOUS
 62
     2
100
AcDbLine
 10
214.220038
 20
17.432051
 30
0.0
 11
213.511804
 21
18.658747
 31
0.0
  0
ARC
  5
3D7
100
AcDbEntity
  8
LAY-1
  6
CONTINUOUS
 62
     2
100
AcDbCircle
 10
214.37783
 20
19.158747
 30
0.0
 40
1.0
100
AcDbArc
 50
78.342656
 51
210.0
  0
ARC
  5
3D8
100
AcDbEntity
  8
LAY-1
  6
CONTINUOUS
 62
     2
100
AcDbCircle
 10
213.973713
 20
17.2
 30
0.0
 40
3.0
100
AcDbArc
 50
63.638604
 51
90.0
  0
ARC
  5
3D9
100
AcDbEntity
  8
LAY-1
  6
CONTINUOUS
 62
     2
100
AcDbCircle
 10
223.354012
 20
45.819701
 30
0.0
 40
3.0
100
AcDbArc
 50
153.638604
 51
180.0
  0
ARC
  5
3DA
100
AcDbEntity
  8
LAY-1
  6
CONTINUOUS
 62
     2
100
AcDbCircle
 10
217.081934
 20
48.927922
 30
0.0
 40
4.0
100
AcDbArc
 50
333.638604
 51
116.361396
  0
ARC
  5
3DB
100
AcDbEntity
  8
LAY-1
  6
CONTINUOUS
 62
     2
100
AcDbCircle
 10
214.37783
 20
53.241253
 30
0.0
 40
1.0
100
AcDbArc
 50
150.0
 51
281.657344
  0
ARC
  5
3DC
100
AcDbEntity
  8
LAY-1
  6
CONTINUOUS
 62
     2
100
AcDbCircle
 10
213.973713
 20
55.2
 30
0.0
 40
3.0
100
AcDbArc
 50
270.0
 51
296.361396
  0
ARC
  5
3DD
100
AcDbEntity
  8
LAY-1
  6
CONTINUOUS
 62
     2
100
AcDbCircle
 10
185.354012
 20
45.819701
 30
0.0
 40
3.0
100
AcDbArc
 50
0.0
 51
26.361396
  0
ARC
  5
3DE
100
AcDbEntity
  8
LAY-1
  6
CONTINUOUS
 62
     2
100
AcDbCircle
 10
191.62609
 20
48.927922
 30
0.0
 40
4.0
100
AcDbArc
 50
63.638604
 51
206.361396
  0
ARC
  5
3DF
100
AcDbEntity
  8
LAY-1
  6
CONTINUOUS
 62
     2
100
AcDbCircle
 10
194.330195
 20
53.241253
 30
0.0
 40
1.0
100
AcDbArc
 50
258.342656
 51
30.0
  0
ARC
  5
3E0
100
AcDbEntity
  8
LAY-1
  6
CONTINUOUS
 62
     2
100
AcDbCircle
 10
194.734311
 20
55.2
 30
0.0
 40
3.0
100
AcDbArc
 50
243.638604
 51
270.0
  0
ARC
  5
3E1
100
AcDbEntity
  8
LAY-1
  6
CONTINUOUS
 62
     2
100
AcDbCircle
 10
191.62609
 20
23.472078
 30
0.0
 40
4.0
100
AcDbArc
 50
153.638604
 51
296.361396
  0
ARC
  5
3E2
100
AcDbEntity
  8
LAY-1
  6
CONTINUOUS
 62
     2
100
AcDbCircle
 10
185.354012
 20
26.580299
 30
0.0
 40
3.0
100
AcDbArc
 50
333.638604
 51
0.0
  0
ARC
  5
3E3
100
AcDbEntity
  8
LAY-1
  6
CONTINUOUS
 62
     2
100
AcDbCircle
 10
194.734311
 20
17.2
 30
0.0
 40
3.0
100
AcDbArc
 50
90.0
 51
116.361396
  0
ARC
  5
3E4
100
AcDbEntity
  8
LAY-1
  6
CONTINUOUS
 62
     2
100
AcDbCircle
 10
194.330195
 20
19.158747
 30
0.0
 40
1.0
100
AcDbArc
 50
330.0
 51
101.657344
  0
LINE
  5
3E5
100
AcDbEntity
  8
LAY-1
  6
CONTINUOUS
 62
     2
100
AcDbLine
 10
220.354012
 20
45.819701
 30
0.0
 11
220.354012
 21
26.580299
 31
0.0
  0
LINE
  5
3E6
100
AcDbEntity
  8
LAY-1
  6
CONTINUOUS
 62
     2
100
AcDbLine
 10
194.734311
 20
52.2
 30
0.0
 11
213.973713
 21
52.2
 31
0.0
  0
LINE
  5
3E7
100
AcDbEntity
  8
LAY-1
  6
CONTINUOUS
 62
     2
100
AcDbLine
 10
188.354012
 20
45.819701
 30
0.0
 11
188.354012
 21
26.580299
 31
0.0
  0
LINE
  5
3E8
100
AcDbEntity
  8
LAY-1
  6
CONTINUOUS
 62
     2
100
AcDbLine
 10
194.734311
 20
20.2
 30
0.0
 11
213.542737
 21
20.2
 31
0.0
  0
LINE
  5
3E9
100
AcDbEntity
  8
LAY-1
  6
CONTINUOUS
 62
     2
100
AcDbLine
 10
205.354012
 20
59.7
 30
0.0
 11
205.354012
 21
58.2
 31
0.0
  0
LINE
  5
3EA
100
AcDbEntity
  8
LAY-1
  6
CONTINUOUS
 62
     2
100
AcDbLine
 10
205.354012
 20
59.7
 30
0.0
 11
203.303727
 21
59.7
 31
0.0
  0
LINE
  5
3EB
100
AcDbEntity
  8
LAY-1
  6
CONTINUOUS
 62
     2
100
AcDbLine
 10
203.354012
 20
59.7
 30
0.0
 11
203.354012
 21
58.2
 31
0.0
  0
LINE
  5
3EC
100
AcDbEntity
  8
LAY-1
  6
CONTINUOUS
 62
     2
100
AcDbLine
 10
204.354012
 20
56.7
 30
0.0
 11
205.854012
 21
58.2
 31
0.0
  0
LINE
  5
3ED
100
AcDbEntity
  8
LAY-1
  6
CONTINUOUS
 62
     2
100
AcDbLine
 10
204.354012
 20
56.7
 30
0.0
 11
202.854012
 21
58.2
 31
0.0
  0
LINE
  5
3EE
100
AcDbEntity
  8
LAY-1
  6
CONTINUOUS
 62
     2
100
AcDbLine
 10
205.854012
 20
58.2
 30
0.0
 11
205.354012
 21
58.2
 31
0.0
  0
LINE
  5
3EF
100
AcDbEntity
  8
LAY-1
  6
CONTINUOUS
 62
     2
100
AcDbLine
 10
203.354012
 20
58.2
 30
0.0
 11
202.854012
 21
58.2
 31
0.0
  0
ARC
  5
3F0
100
AcDbEntity
  8
LAY-1
  6
CONTINUOUS
 62
     2
100
AcDbCircle
 10
204.354012
 20
14.2
 30
0.0
 40
1.26036
100
AcDbArc
 50
294.624318
 51
21.070443
  0
ARC
  5
3F1
100
AcDbEntity
  8
LAY-1
  6
CONTINUOUS
 62
     2
100
AcDbCircle
 10
203.688822
 20
14.2
 30
0.0
 40
2.1006
100
AcDbArc
 50
24.563992
 51
34.301153
  0
ARC
  5
3F2
100
AcDbEntity
  8
LAY-1
  6
CONTINUOUS
 62
     2
100
AcDbCircle
 10
204.354012
 20
14.653781
 30
0.0
 40
1.29537
100
AcDbArc
 50
34.301153
 51
145.698847
  0
ARC
  5
3F3
100
AcDbEntity
  8
LAY-1
  6
CONTINUOUS
 62
     2
100
AcDbCircle
 10
205.019202
 20
14.2
 30
0.0
 40
2.1006
100
AcDbArc
 50
145.698847
 51
187.662256
  0
ARC
  5
3F4
100
AcDbEntity
  8
LAY-1
  6
CONTINUOUS
 62
     2
100
AcDbCircle
 10
202.918231
 20
14.09497
 30
0.0
 40
0.17505
100
AcDbArc
 50
204.619977
 51
270.0
  0
ARC
  5
3F5
100
AcDbEntity
  8
LAY-1
  6
CONTINUOUS
 62
     2
100
AcDbCircle
 10
203.268331
 20
14.255406
 30
0.0
 40
0.56016
100
AcDbArc
 50
182.086657
 51
204.619977
  0
ARC
  5
3F6
100
AcDbEntity
  8
LAY-1
  6
CONTINUOUS
 62
     2
100
AcDbCircle
 10
203.268331
 20
13.164314
 30
0.0
 40
0.56016
100
AcDbArc
 50
155.380023
 51
177.913343
  0
ARC
  5
3F7
100
AcDbEntity
  8
LAY-1
  6
CONTINUOUS
 62
     2
100
AcDbCircle
 10
202.918231
 20
13.32475
 30
0.0
 40
0.17505
100
AcDbArc
 50
90.0
 51
155.380023
  0
ARC
  5
3F8
100
AcDbEntity
  8
LAY-1
  6
CONTINUOUS
 62
     2
100
AcDbCircle
 10
205.019202
 20
14.2
 30
0.0
 40
2.1006
100
AcDbArc
 50
199.471221
 51
214.301153
  0
ARC
  5
3F9
100
AcDbEntity
  8
LAY-1
  6
CONTINUOUS
 62
     2
100
AcDbCircle
 10
204.354012
 20
13.746219
 30
0.0
 40
1.29537
100
AcDbArc
 50
214.301153
 51
325.698847
  0
ARC
  5
3FA
100
AcDbEntity
  8
LAY-1
  6
CONTINUOUS
 62
     2
100
AcDbCircle
 10
203.688822
 20
14.2
 30
0.0
 40
2.1006
100
AcDbArc
 50
325.698847
 51
12.457143
  0
ARC
  5
3FB
100
AcDbEntity
  8
LAY-1
  6
CONTINUOUS
 62
     2
100
AcDbCircle
 10
205.789564
 20
14.478069
 30
0.0
 40
0.17505
100
AcDbArc
 50
24.619977
 51
90.0
  0
ARC
  5
3FC
100
AcDbEntity
  8
LAY-1
  6
CONTINUOUS
 62
     2
100
AcDbCircle
 10
205.439464
 20
14.317633
 30
0.0
 40
0.56016
100
AcDbArc
 50
2.086657
 51
24.619977
  0
ARC
  5
3FD
100
AcDbEntity
  8
LAY-1
  6
CONTINUOUS
 62
     2
100
AcDbCircle
 10
205.439464
 20
15.408725
 30
0.0
 40
0.56016
100
AcDbArc
 50
335.380023
 51
357.913343
  0
ARC
  5
3FE
100
AcDbEntity
  8
LAY-1
  6
CONTINUOUS
 62
     2
100
AcDbCircle
 10
205.789564
 20
15.248289
 30
0.0
 40
0.17505
100
AcDbArc
 50
270.0
 51
335.380023
  0
ARC
  5
3FF
100
AcDbEntity
  8
LAY-1
  6
CONTINUOUS
 62
     2
100
AcDbCircle
 10
204.143722
 20
15.248289
 30
0.0
 40
0.17505
100
AcDbArc
 50
204.619977
 51
270.0
  0
ARC
  5
400
100
AcDbEntity
  8
LAY-1
  6
CONTINUOUS
 62
     2
100
AcDbCircle
 10
204.354012
 20
14.2
 30
0.0
 40
1.26036
100
AcDbArc
 50
43.856042
 51
109.464384
  0
ARC
  5
401
100
AcDbEntity
  8
LAY-1
  6
CONTINUOUS
 62
     2
100
AcDbCircle
 10
204.493822
 20
15.408725
 30
0.0
 40
0.56016
100
AcDbArc
 50
182.086657
 51
204.619977
  0
ARC
  5
402
100
AcDbEntity
  8
LAY-1
  6
CONTINUOUS
 62
     2
100
AcDbCircle
 10
204.354012
 20
14.2
 30
0.0
 40
1.26036
100
AcDbArc
 50
213.748989
 51
279.281799
  0
ARC
  5
403
100
AcDbEntity
  8
LAY-1
  6
CONTINUOUS
 62
     2
100
AcDbCircle
 10
204.529062
 20
13.1289
 30
0.0
 40
0.17505
100
AcDbArc
 50
279.281799
 51
0.0
  0
ARC
  5
404
100
AcDbEntity
  8
LAY-1
  6
CONTINUOUS
 62
     2
100
AcDbCircle
 10
204.143351
 20
14.478069
 30
0.0
 40
0.17505
100
AcDbArc
 50
90.0
 51
155.380023
  0
ARC
  5
405
100
AcDbEntity
  8
LAY-1
  6
CONTINUOUS
 62
     2
100
AcDbCircle
 10
204.493451
 20
14.317633
 30
0.0
 40
0.56016
100
AcDbArc
 50
155.380023
 51
177.913343
  0
ARC
  5
406
100
AcDbEntity
  8
LAY-1
  6
CONTINUOUS
 62
     2
100
AcDbCircle
 10
204.354012
 20
14.2
 30
0.0
 40
1.26036
100
AcDbArc
 50
114.635803
 51
192.839588
  0
ARC
  5
407
100
AcDbEntity
  8
LAY-1
  6
CONTINUOUS
 62
     2
100
AcDbCircle
 10
204.529062
 20
14.443084
 30
0.0
 40
0.17505
100
AcDbArc
 50
0.0
 51
67.380135
  0
ARC
  5
408
100
AcDbEntity
  8
LAY-1
  6
CONTINUOUS
 62
     2
100
AcDbCircle
 10
204.354012
 20
14.022964
 30
0.0
 40
0.63018
100
AcDbArc
 50
67.380135
 51
90.514911
  0
LINE
  5
409
100
AcDbEntity
  8
LAY-1
  6
CONTINUOUS
 62
     2
100
AcDbLine
 10
204.879162
 20
14.653119
 30
0.0
 11
204.879162
 21
13.054258
 31
0.0
  0
LINE
  5
40A
100
AcDbEntity
  8
LAY-1
  6
CONTINUOUS
 62
     2
100
AcDbLine
 10
205.530103
 20
14.653119
 30
0.0
 11
204.878932
 21
14.653119
 31
0.0
  0
LINE
  5
40B
100
AcDbEntity
  8
LAY-1
  6
CONTINUOUS
 62
     2
100
AcDbLine
 10
202.937358
 20
13.91992
 30
0.0
 11
202.918231
 21
13.91992
 31
0.0
  0
LINE
  5
40C
100
AcDbEntity
  8
LAY-1
  6
CONTINUOUS
 62
     2
100
AcDbLine
 10
202.708542
 20
14.23501
 30
0.0
 11
202.603512
 21
14.23501
 31
0.0
  0
LINE
  5
40D
100
AcDbEntity
  8
LAY-1
  6
CONTINUOUS
 62
     2
100
AcDbLine
 10
202.603512
 20
14.23501
 30
0.0
 11
202.603512
 21
13.18471
 31
0.0
  0
LINE
  5
40E
100
AcDbEntity
  8
LAY-1
  6
CONTINUOUS
 62
     2
100
AcDbLine
 10
202.603512
 20
13.18471
 30
0.0
 11
202.708542
 21
13.18471
 31
0.0
  0
LINE
  5
40F
100
AcDbEntity
  8
LAY-1
  6
CONTINUOUS
 62
     2
100
AcDbLine
 10
202.918231
 20
13.4998
 30
0.0
 11
203.038737
 21
13.4998
 31
0.0
  0
LINE
  5
410
100
AcDbEntity
  8
LAY-1
  6
CONTINUOUS
 62
     2
100
AcDbLine
 10
205.739969
 20
14.653119
 30
0.0
 11
205.789564
 21
14.653119
 31
0.0
  0
LINE
  5
411
100
AcDbEntity
  8
LAY-1
  6
CONTINUOUS
 62
     2
100
AcDbLine
 10
205.999252
 20
14.338029
 30
0.0
 11
206.104282
 21
14.338029
 31
0.0
  0
LINE
  5
412
100
AcDbEntity
  8
LAY-1
  6
CONTINUOUS
 62
     2
100
AcDbLine
 10
206.104282
 20
14.338029
 30
0.0
 11
206.104282
 21
15.388329
 31
0.0
  0
LINE
  5
413
100
AcDbEntity
  8
LAY-1
  6
CONTINUOUS
 62
     2
100
AcDbLine
 10
206.104282
 20
15.388329
 30
0.0
 11
205.999252
 21
15.388329
 31
0.0
  0
LINE
  5
414
100
AcDbEntity
  8
LAY-1
  6
CONTINUOUS
 62
     2
100
AcDbLine
 10
205.789564
 20
15.073239
 30
0.0
 11
205.599313
 21
15.073239
 31
0.0
  0
LINE
  5
415
100
AcDbEntity
  8
LAY-1
  6
CONTINUOUS
 62
     2
100
AcDbLine
 10
204.143722
 20
15.073239
 30
0.0
 11
205.262836
 21
15.073239
 31
0.0
  0
LINE
  5
416
100
AcDbEntity
  8
LAY-1
  6
CONTINUOUS
 62
     2
100
AcDbLine
 10
204.704112
 20
13.4998
 30
0.0
 11
203.306049
 21
13.4998
 31
0.0
  0
LINE
  5
417
100
AcDbEntity
  8
LAY-1
  6
CONTINUOUS
 62
     2
100
AcDbLine
 10
204.704112
 20
13.1289
 30
0.0
 11
204.704112
 21
13.4998
 31
0.0
  0
LINE
  5
418
100
AcDbEntity
  8
LAY-1
  6
CONTINUOUS
 62
     2
100
AcDbLine
 10
204.359675
 20
14.653119
 30
0.0
 11
204.143351
 21
14.653119
 31
0.0
  0
LINE
  5
419
100
AcDbEntity
  8
LAY-1
  6
CONTINUOUS
 62
     2
100
AcDbLine
 10
203.933662
 20
14.338029
 30
0.0
 11
203.828632
 21
14.338029
 31
0.0
  0
LINE
  5
41A
100
AcDbEntity
  8
LAY-1
  6
CONTINUOUS
 62
     2
100
AcDbLine
 10
203.828632
 20
14.338029
 30
0.0
 11
203.828632
 21
15.345637
 31
0.0
  0
LINE
  5
41B
100
AcDbEntity
  8
LAY-1
  6
CONTINUOUS
 62
     2
100
AcDbLine
 10
203.125166
 20
13.91992
 30
0.0
 11
204.704112
 21
13.91992
 31
0.0
  0
LINE
  5
41C
100
AcDbEntity
  8
LAY-1
  6
CONTINUOUS
 62
     2
100
AcDbLine
 10
204.704112
 20
13.91992
 30
0.0
 11
204.704112
 21
14.443084
 31
0.0
  0
ARC
  5
41D
100
AcDbEntity
  8
LAY-1
  6
CONTINUOUS
 62
     2
100
AcDbCircle
 10
204.354012
 20
36.2
 30
0.0
 40
21.466607
100
AcDbArc
 50
297.664604
 51
309.18062
  0
ARC
  5
41E
100
AcDbEntity
  8
LAY-1
  6
CONTINUOUS
 62
     2
100
AcDbCircle
 10
204.354012
 20
36.2
 30
0.0
 40
21.466607
100
AcDbArc
 50
230.81938
 51
242.335396
  0
ARC
  5
41F
100
AcDbEntity
  8
LAY-1
  6
CONTINUOUS
 62
     2
100
AcDbCircle
 10
204.354012
 20
36.2
 30
0.0
 40
21.466607
100
AcDbArc
 50
140.81938
 51
219.18062
  0
ARC
  5
420
100
AcDbEntity
  8
LAY-1
  6
CONTINUOUS
 62
     2
100
AcDbCircle
 10
204.354012
 20
36.2
 30
0.0
 40
21.466607
100
AcDbArc
 50
117.664604
 51
129.18062
  0
ARC
  5
421
100
AcDbEntity
  8
LAY-1
  6
CONTINUOUS
 62
     2
100
AcDbCircle
 10
204.354012
 20
36.2
 30
0.0
 40
21.466607
100
AcDbArc
 50
50.81938
 51
62.335396
  0
ARC
  5
422
100
AcDbEntity
  8
LAY-1
  6
CONTINUOUS
 62
     2
100
AcDbCircle
 10
204.354012
 20
36.2
 30
0.0
 40
21.466607
100
AcDbArc
 50
320.81938
 51
39.18062
  0
ARC
  5
423
100
AcDbEntity
  8
LAY-1
  6
CONTINUOUS
 62
     2
100
AcDbCircle
 10
218.281934
 20
50.127922
 30
0.0
 40
0.7
100
AcDbArc
 50
180.0
 51
270.0
  0
LINE
  5
424
100
AcDbEntity
  8
LAY-1
  6
CONTINUOUS
 62
     2
100
AcDbLine
 10
218.281934
 20
49.427922
 30
0.0
 11
219.331934
 21
49.427922
 31
0.0
  0
LINE
  5
425
100
AcDbEntity
  8
LAY-1
  6
CONTINUOUS
 62
     2
100
AcDbLine
 10
217.581934
 20
51.177922
 30
0.0
 11
217.581934
 21
50.127922
 31
0.0
  0
ARC
  5
426
100
AcDbEntity
  8
LAY-1
  6
CONTINUOUS
 62
     2
100
AcDbCircle
 10
215.881934
 20
50.127922
 30
0.0
 40
0.7
100
AcDbArc
 50
270.0
 51
0.0
  0
LINE
  5
427
100
AcDbEntity
  8
LAY-1
  6
CONTINUOUS
 62
     2
100
AcDbLine
 10
216.581934
 20
51.177922
 30
0.0
 11
216.581934
 21
50.127922
 31
0.0
  0
LINE
  5
428
100
AcDbEntity
  8
LAY-1
  6
CONTINUOUS
 62
     2
100
AcDbLine
 10
214.831934
 20
49.427922
 30
0.0
 11
215.881934
 21
49.427922
 31
0.0
  0
ARC
  5
429
100
AcDbEntity
  8
LAY-1
  6
CONTINUOUS
 62
     2
100
AcDbCircle
 10
215.881934
 20
47.727922
 30
0.0
 40
0.7
100
AcDbArc
 50
0.0
 51
90.0
  0
LINE
  5
42A
100
AcDbEntity
  8
LAY-1
  6
CONTINUOUS
 62
     2
100
AcDbLine
 10
214.831934
 20
48.427922
 30
0.0
 11
215.881934
 21
48.427922
 31
0.0
  0
LINE
  5
42B
100
AcDbEntity
  8
LAY-1
  6
CONTINUOUS
 62
     2
100
AcDbLine
 10
216.581934
 20
47.727922
 30
0.0
 11
216.581934
 21
46.677922
 31
0.0
  0
ARC
  5
42C
100
AcDbEntity
  8
LAY-1
  6
CONTINUOUS
 62
     2
100
AcDbCircle
 10
218.281934
 20
47.727922
 30
0.0
 40
0.7
100
AcDbArc
 50
90.0
 51
180.0
  0
LINE
  5
42D
100
AcDbEntity
  8
LAY-1
  6
CONTINUOUS
 62
     2
100
AcDbLine
 10
217.581934
 20
47.727922
 30
0.0
 11
217.581934
 21
46.677922
 31
0.0
  0
LINE
  5
42E
100
AcDbEntity
  8
LAY-1
  6
CONTINUOUS
 62
     2
100
AcDbLine
 10
218.281934
 20
48.427922
 30
0.0
 11
219.331934
 21
48.427922
 31
0.0
  0
LINE
  5
42F
100
AcDbEntity
  8
LAY-1
  6
CONTINUOUS
 62
     2
100
AcDbLine
 10
217.581934
 20
46.677922
 30
0.0
 11
216.581934
 21
46.677922
 31
0.0
  0
LINE
  5
430
100
AcDbEntity
  8
LAY-1
  6
CONTINUOUS
 62
     2
100
AcDbLine
 10
217.581934
 20
51.177922
 30
0.0
 11
216.581934
 21
51.177922
 31
0.0
  0
LINE
  5
431
100
AcDbEntity
  8
LAY-1
  6
CONTINUOUS
 62
     2
100
AcDbLine
 10
219.331934
 20
49.427922
 30
0.0
 11
219.331934
 21
48.427922
 31
0.0
  0
LINE
  5
432
100
AcDbEntity
  8
LAY-1
  6
CONTINUOUS
 62
     2
100
AcDbLine
 10
214.831934
 20
49.427922
 30
0.0
 11
214.831934
 21
48.427922
 31
0.0
  0
CIRCLE
  5
433
100
AcDbEntity
  8
LAY-1
  6
CONTINUOUS
 62
     2
100
AcDbCircle
 10
217.086245
 20
48.932233
 30
0.0
 40
3.5
  0
ARC
  5
434
100
AcDbEntity
  8
LAY-1
  6
CONTINUOUS
 62
     2
100
AcDbCircle
 10
218.281934
 20
24.672078
 30
0.0
 40
0.7
100
AcDbArc
 50
180.0
 51
270.0
  0
LINE
  5
435
100
AcDbEntity
  8
LAY-1
  6
CONTINUOUS
 62
     2
100
AcDbLine
 10
218.281934
 20
23.972078
 30
0.0
 11
219.331934
 21
23.972078
 31
0.0
  0
LINE
  5
436
100
AcDbEntity
  8
LAY-1
  6
CONTINUOUS
 62
     2
100
AcDbLine
 10
217.581934
 20
25.722078
 30
0.0
 11
217.581934
 21
24.672078
 31
0.0
  0
ARC
  5
437
100
AcDbEntity
  8
LAY-1
  6
CONTINUOUS
 62
     2
100
AcDbCircle
 10
215.881934
 20
24.672078
 30
0.0
 40
0.7
100
AcDbArc
 50
270.0
 51
0.0
  0
LINE
  5
438
100
AcDbEntity
  8
LAY-1
  6
CONTINUOUS
 62
     2
100
AcDbLine
 10
216.581934
 20
25.722078
 30
0.0
 11
216.581934
 21
24.672078
 31
0.0
  0
LINE
  5
439
100
AcDbEntity
  8
LAY-1
  6
CONTINUOUS
 62
     2
100
AcDbLine
 10
214.831934
 20
23.972078
 30
0.0
 11
215.881934
 21
23.972078
 31
0.0
  0
ARC
  5
43A
100
AcDbEntity
  8
LAY-1
  6
CONTINUOUS
 62
     2
100
AcDbCircle
 10
215.881934
 20
22.272078
 30
0.0
 40
0.7
100
AcDbArc
 50
0.0
 51
90.0
  0
LINE
  5
43B
100
AcDbEntity
  8
LAY-1
  6
CONTINUOUS
 62
     2
100
AcDbLine
 10
214.831934
 20
22.972078
 30
0.0
 11
215.881934
 21
22.972078
 31
0.0
  0
LINE
  5
43C
100
AcDbEntity
  8
LAY-1
  6
CONTINUOUS
 62
     2
100
AcDbLine
 10
216.581934
 20
22.272078
 30
0.0
 11
216.581934
 21
21.222078
 31
0.0
  0
ARC
  5
43D
100
AcDbEntity
  8
LAY-1
  6
CONTINUOUS
 62
     2
100
AcDbCircle
 10
218.281934
 20
22.272078
 30
0.0
 40
0.7
100
AcDbArc
 50
90.0
 51
180.0
  0
LINE
  5
43E
100
AcDbEntity
  8
LAY-1
  6
CONTINUOUS
 62
     2
100
AcDbLine
 10
217.581934
 20
22.272078
 30
0.0
 11
217.581934
 21
21.222078
 31
0.0
  0
LINE
  5
43F
100
AcDbEntity
  8
LAY-1
  6
CONTINUOUS
 62
     2
100
AcDbLine
 10
218.281934
 20
22.972078
 30
0.0
 11
219.331934
 21
22.972078
 31
0.0
  0
LINE
  5
440
100
AcDbEntity
  8
LAY-1
  6
CONTINUOUS
 62
     2
100
AcDbLine
 10
217.581934
 20
21.222078
 30
0.0
 11
216.581934
 21
21.222078
 31
0.0
  0
LINE
  5
441
100
AcDbEntity
  8
LAY-1
  6
CONTINUOUS
 62
     2
100
AcDbLine
 10
217.581934
 20
25.722078
 30
0.0
 11
216.581934
 21
25.722078
 31
0.0
  0
LINE
  5
442
100
AcDbEntity
  8
LAY-1
  6
CONTINUOUS
 62
     2
100
AcDbLine
 10
219.331934
 20
23.972078
 30
0.0
 11
219.331934
 21
22.972078
 31
0.0
  0
LINE
  5
443
100
AcDbEntity
  8
LAY-1
  6
CONTINUOUS
 62
     2
100
AcDbLine
 10
214.831934
 20
23.972078
 30
0.0
 11
214.831934
 21
22.972078
 31
0.0
  0
CIRCLE
  5
444
100
AcDbEntity
  8
LAY-1
  6
CONTINUOUS
 62
     2
100
AcDbCircle
 10
217.086245
 20
23.476389
 30
0.0
 40
3.5
  0
ARC
  5
445
100
AcDbEntity
  8
LAY-1
  6
CONTINUOUS
 62
     2
100
AcDbCircle
 10
192.82609
 20
24.672078
 30
0.0
 40
0.7
100
AcDbArc
 50
180.0
 51
270.0
  0
LINE
  5
446
100
AcDbEntity
  8
LAY-1
  6
CONTINUOUS
 62
     2
100
AcDbLine
 10
192.82609
 20
23.972078
 30
0.0
 11
193.87609
 21
23.972078
 31
0.0
  0
LINE
  5
447
100
AcDbEntity
  8
LAY-1
  6
CONTINUOUS
 62
     2
100
AcDbLine
 10
192.12609
 20
25.722078
 30
0.0
 11
192.12609
 21
24.672078
 31
0.0
  0
ARC
  5
448
100
AcDbEntity
  8
LAY-1
  6
CONTINUOUS
 62
     2
100
AcDbCircle
 10
190.42609
 20
24.672078
 30
0.0
 40
0.7
100
AcDbArc
 50
270.0
 51
0.0
  0
LINE
  5
449
100
AcDbEntity
  8
LAY-1
  6
CONTINUOUS
 62
     2
100
AcDbLine
 10
191.12609
 20
25.722078
 30
0.0
 11
191.12609
 21
24.672078
 31
0.0
  0
LINE
  5
44A
100
AcDbEntity
  8
LAY-1
  6
CONTINUOUS
 62
     2
100
AcDbLine
 10
189.37609
 20
23.972078
 30
0.0
 11
190.42609
 21
23.972078
 31
0.0
  0
ARC
  5
44B
100
AcDbEntity
  8
LAY-1
  6
CONTINUOUS
 62
     2
100
AcDbCircle
 10
190.42609
 20
22.272078
 30
0.0
 40
0.7
100
AcDbArc
 50
0.0
 51
90.0
  0
LINE
  5
44C
100
AcDbEntity
  8
LAY-1
  6
CONTINUOUS
 62
     2
100
AcDbLine
 10
189.37609
 20
22.972078
 30
0.0
 11
190.42609
 21
22.972078
 31
0.0
  0
LINE
  5
44D
100
AcDbEntity
  8
LAY-1
  6
CONTINUOUS
 62
     2
100
AcDbLine
 10
191.12609
 20
22.272078
 30
0.0
 11
191.12609
 21
21.222078
 31
0.0
  0
ARC
  5
44E
100
AcDbEntity
  8
LAY-1
  6
CONTINUOUS
 62
     2
100
AcDbCircle
 10
192.82609
 20
22.272078
 30
0.0
 40
0.7
100
AcDbArc
 50
90.0
 51
180.0
  0
LINE
  5
44F
100
AcDbEntity
  8
LAY-1
  6
CONTINUOUS
 62
     2
100
AcDbLine
 10
192.12609
 20
22.272078
 30
0.0
 11
192.12609
 21
21.222078
 31
0.0
  0
LINE
  5
450
100
AcDbEntity
  8
LAY-1
  6
CONTINUOUS
 62
     2
100
AcDbLine
 10
192.82609
 20
22.972078
 30
0.0
 11
193.87609
 21
22.972078
 31
0.0
  0
LINE
  5
451
100
AcDbEntity
  8
LAY-1
  6
CONTINUOUS
 62
     2
100
AcDbLine
 10
192.12609
 20
21.222078
 30
0.0
 11
191.12609
 21
21.222078
 31
0.0
  0
LINE
  5
452
100
AcDbEntity
  8
LAY-1
  6
CONTINUOUS
 62
     2
100
AcDbLine
 10
192.12609
 20
25.722078
 30
0.0
 11
191.12609
 21
25.722078
 31
0.0
  0
LINE
  5
453
100
AcDbEntity
  8
LAY-1
  6
CONTINUOUS
 62
     2
100
AcDbLine
 10
193.87609
 20
23.972078
 30
0.0
 11
193.87609
 21
22.972078
 31
0.0
  0
LINE
  5
454
100
AcDbEntity
  8
LAY-1
  6
CONTINUOUS
 62
     2
100
AcDbLine
 10
189.37609
 20
23.972078
 30
0.0
 11
189.37609
 21
22.972078
 31
0.0
  0
CIRCLE
  5
455
100
AcDbEntity
  8
LAY-1
  6
CONTINUOUS
 62
     2
100
AcDbCircle
 10
191.630401
 20
23.476389
 30
0.0
 40
3.5
  0
ARC
  5
456
100
AcDbEntity
  8
LAY-1
  6
CONTINUOUS
 62
     2
100
AcDbCircle
 10
192.82609
 20
50.127922
 30
0.0
 40
0.7
100
AcDbArc
 50
180.0
 51
270.0
  0
LINE
  5
457
100
AcDbEntity
  8
LAY-1
  6
CONTINUOUS
 62
     2
100
AcDbLine
 10
192.82609
 20
49.427922
 30
0.0
 11
193.87609
 21
49.427922
 31
0.0
  0
LINE
  5
458
100
AcDbEntity
  8
LAY-1
  6
CONTINUOUS
 62
     2
100
AcDbLine
 10
192.12609
 20
51.177922
 30
0.0
 11
192.12609
 21
50.127922
 31
0.0
  0
ARC
  5
459
100
AcDbEntity
  8
LAY-1
  6
CONTINUOUS
 62
     2
100
AcDbCircle
 10
190.42609
 20
50.127922
 30
0.0
 40
0.7
100
AcDbArc
 50
270.0
 51
0.0
  0
LINE
  5
45A
100
AcDbEntity
  8
LAY-1
  6
CONTINUOUS
 62
     2
100
AcDbLine
 10
191.12609
 20
51.177922
 30
0.0
 11
191.12609
 21
50.127922
 31
0.0
  0
LINE
  5
45B
100
AcDbEntity
  8
LAY-1
  6
CONTINUOUS
 62
     2
100
AcDbLine
 10
189.37609
 20
49.427922
 30
0.0
 11
190.42609
 21
49.427922
 31
0.0
  0
ARC
  5
45C
100
AcDbEntity
  8
LAY-1
  6
CONTINUOUS
 62
     2
100
AcDbCircle
 10
190.42609
 20
47.727922
 30
0.0
 40
0.7
100
AcDbArc
 50
0.0
 51
90.0
  0
LINE
  5
45D
100
AcDbEntity
  8
LAY-1
  6
CONTINUOUS
 62
     2
100
AcDbLine
 10
189.37609
 20
48.427922
 30
0.0
 11
190.42609
 21
48.427922
 31
0.0
  0
LINE
  5
45E
100
AcDbEntity
  8
LAY-1
  6
CONTINUOUS
 62
     2
100
AcDbLine
 10
191.12609
 20
47.727922
 30
0.0
 11
191.12609
 21
46.677922
 31
0.0
  0
ARC
  5
45F
100
AcDbEntity
  8
LAY-1
  6
CONTINUOUS
 62
     2
100
AcDbCircle
 10
192.82609
 20
47.727922
 30
0.0
 40
0.7
100
AcDbArc
 50
90.0
 51
180.0
  0
LINE
  5
460
100
AcDbEntity
  8
LAY-1
  6
CONTINUOUS
 62
     2
100
AcDbLine
 10
192.12609
 20
47.727922
 30
0.0
 11
192.12609
 21
46.677922
 31
0.0
  0
LINE
  5
461
100
AcDbEntity
  8
LAY-1
  6
CONTINUOUS
 62
     2
100
AcDbLine
 10
192.82609
 20
48.427922
 30
0.0
 11
193.87609
 21
48.427922
 31
0.0
  0
LINE
  5
462
100
AcDbEntity
  8
LAY-1
  6
CONTINUOUS
 62
     2
100
AcDbLine
 10
192.12609
 20
46.677922
 30
0.0
 11
191.12609
 21
46.677922
 31
0.0
  0
LINE
  5
463
100
AcDbEntity
  8
LAY-1
  6
CONTINUOUS
 62
     2
100
AcDbLine
 10
192.12609
 20
51.177922
 30
0.0
 11
191.12609
 21
51.177922
 31
0.0
  0
LINE
  5
464
100
AcDbEntity
  8
LAY-1
  6
CONTINUOUS
 62
     2
100
AcDbLine
 10
193.87609
 20
49.427922
 30
0.0
 11
193.87609
 21
48.427922
 31
0.0
  0
LINE
  5
465
100
AcDbEntity
  8
LAY-1
  6
CONTINUOUS
 62
     2
100
AcDbLine
 10
189.37609
 20
49.427922
 30
0.0
 11
189.37609
 21
48.427922
 31
0.0
  0
CIRCLE
  5
466
100
AcDbEntity
  8
LAY-1
  6
CONTINUOUS
 62
     2
100
AcDbCircle
 10
191.630401
 20
48.932233
 30
0.0
 40
3.5
  0
CIRCLE
  5
467
100
AcDbEntity
  8
LAY-1
  6
CONTINUOUS
 62
     2
100
AcDbCircle
 10
204.354012
 20
36.2
 30
0.0
 40
5.270792
  0
CIRCLE
  5
468
100
AcDbEntity
  8
LAY-1
  6
CONTINUOUS
 62
     2
100
AcDbCircle
 10
204.354012
 20
36.2
 30
0.0
 40
5.940665
  0
LINE
  5
469
100
AcDbEntity
  8
LAY-1
  6
EXLTYPE3
 62
     1
100
AcDbLine
 10
212.527006
 20
44.372994
 30
0.0
 11
226.250711
 21
58.096699
 31
0.0
  0
LINE
  5
46A
100
AcDbEntity
  8
LAY-1
  6
EXLTYPE3
 62
     1
100
AcDbLine
 10
182.351247
 20
58.202765
 30
0.0
 11
195.227006
 21
45.327006
 31
0.0
  0
LINE
  5
46B
100
AcDbEntity
  8
LAY-1
  6
EXLTYPE3
 62
     1
100
AcDbLine
 10
181.738339
 20
13.584327
 30
0.0
 11
195.927006
 21
27.772994
 31
0.0
  0
LINE
  5
46C
100
AcDbEntity
  8
LAY-1
  6
EXLTYPE3
 62
     1
100
AcDbLine
 10
213.477006
 20
27.077006
 30
0.0
 11
226.156512
 21
14.3975
 31
0.0
  0
ARC
  5
46D
100
AcDbEntity
  8
LAY-1
  6
EXLTYPE3
 62
     1
100
AcDbCircle
 10
204.354012
 20
36.2
 30
0.0
 40
18.0
100
AcDbArc
 50
29.580616
 51
59.404312
  0
ARC
  5
46E
100
AcDbEntity
  8
LAY-1
  6
EXLTYPE3
 62
     1
100
AcDbCircle
 10
204.354012
 20
36.2
 30
0.0
 40
18.0
100
AcDbArc
 50
120.241168
 51
149.234041
  0
ARC
  5
46F
100
AcDbEntity
  8
LAY-1
  6
EXLTYPE3
 62
     1
100
AcDbCircle
 10
204.354012
 20
36.2
 30
0.0
 40
18.0
100
AcDbArc
 50
300.85168
 51
330.419384
  0
ARC
  5
470
100
AcDbEntity
  8
LAY-1
  6
EXLTYPE3
 62
     1
100
AcDbCircle
 10
204.354012
 20
36.2
 30
0.0
 40
18.0
100
AcDbArc
 50
211.574638
 51
239.21949
  0
TEXT
  5
471
100
AcDbEntity
  8
LAY-1
  6
CONTINUOUS
 62
     3
100
AcDbText
 10
290.888
 20
81.192
 30
0.0
 40
4.0
  1
型式
 41
0.984714
  7
EXCADSTD
 72
     5
 11
299.484081
 21
81.192
 31
0.0
100
AcDbText
  0
TEXT
  5
472
100
AcDbEntity
  8
LAY-1
  6
CONTINUOUS
 62
     3
100
AcDbText
 10
290.792
 20
75.56
 30
0.0
 40
4.0
  1
品名
 41
0.984714
  7
EXCADSTD
 72
     5
 11
299.388081
 21
75.56
 31
0.0
100
AcDbText
  0
LINE
  5
473
100
AcDbEntity
  8
LAY-1
  6
CONTINUOUS
 62
     4
100
AcDbLine
 10
289.0
 20
69.88
 30
0.0
 11
360.68
 21
69.88
 31
0.0
  0
LINE
  5
474
100
AcDbEntity
  8
LAY-1
  6
CONTINUOUS
 62
     1
100
AcDbLine
 10
289.0
 20
74.76
 30
0.0
 11
360.68
 21
74.76
 31
0.0
  0
TEXT
  5
475
100
AcDbEntity
  8
LAY-1
  6
CONTINUOUS
 62
     3
100
AcDbText
 10
314.472
 20
70.408
 30
0.0
 40
4.0
  1
外観図
 41
1.47392
  7
EXCADSTD
 72
     5
 11
335.528
 21
70.408
 31
0.0
100
AcDbText
  0
LINE
  5
476
100
AcDbEntity
  8
LAY-1
  6
CONTINUOUS
 62
     4
100
AcDbLine
 10
289.0
 20
91.56
 30
0.0
 11
360.68
 21
91.56
 31
0.0
  0
LINE
  5
477
100
AcDbEntity
  8
LAY-1
  6
CONTINUOUS
 62
     1
100
AcDbLine
 10
289.0
 20
80.36
 30
0.0
 11
360.68
 21
80.36
 31
0.0
  0
LINE
  5
478
100
AcDbEntity
  8
LAY-1
  6
CONTINUOUS
 62
     1
100
AcDbLine
 10
289.0
 20
85.96
 30
0.0
 11
360.68
 21
85.96
 31
0.0
  0
LINE
  5
479
100
AcDbEntity
  8
LAY-1
  6
CONTINUOUS
 62
     1
100
AcDbLine
 10
301.0
 20
91.56
 30
0.0
 11
301.0
 21
74.76
 31
0.0
  0
LINE
  5
47A
100
AcDbEntity
  8
LAY-1
  6
CONTINUOUS
 62
     4
100
AcDbLine
 10
289.0
 20
65.0
 30
0.0
 11
360.68
 21
65.0
 31
0.0
  0
LINE
  5
47B
100
AcDbEntity
  8
LAY-1
  6
CONTINUOUS
 62
     4
100
AcDbLine
 10
360.68
 20
65.0
 30
0.0
 11
360.68
 21
91.56
 31
0.0
  0
LINE
  5
47C
100
AcDbEntity
  8
LAY-1
  6
CONTINUOUS
 62
     4
100
AcDbLine
 10
289.0
 20
65.0
 30
0.0
 11
289.0
 21
91.56
 31
0.0
  0
TEXT
  5
47D
100
AcDbEntity
  8
LAY-1
  6
CONTINUOUS
 62
     3
100
AcDbText
 10
289.512
 20
86.664
 30
0.0
 40
4.0
  1
作成日
 41
0.84
  7
EXCADSTD
 72
     5
 11
301.512
 21
86.664
 31
0.0
100
AcDbText
  0
HATCH
  5
47E
100
AcDbEntity
  8
LAY-1
  6
CONTINUOUS
 62
     3
100
AcDbHatch
 10
0.0
 20
0.0
 30
0.0
210
0.0
220
0.0
230
1.0
  2
SOLID
 70
     1
 71
     1
 91
        1
 92
        1
 93
       16
 72
     1
 10
339.45197987224884
 20
66.219171428571329
 11
340.20926558653457
 21
66.219171428571329
 72
     1
 10
340.20926558653457
 20
66.219171428571329
 11
340.20926558653457
 21
65.730599999999896
 72
     1
 10
340.20926558653457
 20
65.730599999999896
 11
338.18169415796308
 21
65.730599999999896
 72
     1
 10
338.18169415796308
 20
65.730599999999896
 11
338.18169415796308
 21
66.219171428571329
 72
     1
 10
338.18169415796308
 20
66.219171428571329
 11
338.96340844367739
 21
66.219171428571329
 72
     1
 10
338.96340844367739
 20
66.219171428571329
 11
338.96340844367739
 21
67.636028571428483
 72
     1
 10
338.96340844367739
 20
67.636028571428483
 11
338.35269415796313
 21
67.636028571428483
 72
     1
 10
338.35269415796313
 20
67.636028571428483
 11
338.35269415796313
 21
68.124599999999901
 72
     1
 10
338.35269415796313
 20
68.124599999999901
 11
338.96340844367739
 21
68.124599999999901
 72
     1
 10
338.96340844367739
 20
68.124599999999901
 11
338.96340844367739
 21
69.150599999999912
 72
     1
 10
338.96340844367739
 20
69.150599999999912
 11
339.45197987224884
 21
69.150599999999912
 72
     1
 10
339.45197987224884
 20
69.150599999999912
 11
339.45197987224884
 21
68.124599999999901
 72
     1
 10
339.45197987224884
 20
68.124599999999901
 11
340.1604084436774
 21
68.124599999999901
 72
     1
 10
340.1604084436774
 20
68.124599999999901
 11
340.1604084436774
 21
67.636028571428483
 72
     1
 10
340.1604084436774
 20
67.636028571428483
 11
339.45197987224884
 21
67.636028571428483
 72
     1
 10
339.45197987224884
 20
67.636028571428483
 11
339.45197987224884
 21
66.219171428571329
 97
        0
 75
     0
 76
     1
 98
        1
 10
0.0
 20
0.0
  0
HATCH
  5
47F
100
AcDbEntity
  8
LAY-1
  6
CONTINUOUS
 62
     3
100
AcDbHatch
 10
0.0
 20
0.0
 30
0.0
210
0.0
220
0.0
230
1.0
  2
SOLID
 70
     1
 71
     1
 91
        1
 92
        1
 93
       17
 72
     2
 10
334.3190602767736
 20
70.098825358471913
 40
4.3971428571428728
 50
44.165469
 51
51.472792
 73
     0
 72
     1
 10
337.05797987224878
 20
66.658885714285631
 11
336.81061544909971
 21
67.087333463164867
 72
     2
 10
334.3190602767736
 20
70.098825358471913
 40
3.9085714285714417
 50
309.602625
 51
331.307968
 73
     1
 72
     1
 10
337.74770969105651
 20
68.222314285714191
 11
336.93583701510596
 21
68.222314285714191
 72
     1
 10
336.93583701510596
 20
68.222314285714191
 11
336.93583701510596
 21
68.662028571428465
 72
     1
 10
336.93583701510596
 20
68.662028571428465
 11
337.47326558653458
 21
68.662028571428465
 72
     1
 10
337.47326558653458
 20
68.662028571428465
 11
337.47326558653458
 21
69.150599999999912
 72
     1
 10
337.47326558653458
 20
69.150599999999912
 11
337.91297987224885
 21
69.150599999999912
 72
     1
 10
337.91297987224885
 20
69.150599999999912
 11
337.91297987224885
 21
68.662028571428465
 72
     1
 10
337.91297987224885
 20
68.662028571428465
 11
338.47483701510595
 21
68.662028571428465
 72
     2
 10
334.3190602767736
 20
70.098825358471913
 40
4.3971428571428728
 50
19.072051
 51
32.871988
 73
     0
 72
     1
 10
338.01215602014065
 20
67.712214972077305
 11
338.59697987224877
 21
67.14745714285705
 72
     1
 10
338.59697987224877
 20
67.14745714285705
 11
338.25145507691207
 21
66.80193234752025
 72
     1
 10
338.25145507691207
 20
66.80193234752025
 11
337.91297987224885
 21
67.128794053214051
 72
     1
 10
337.91297987224885
 20
67.128794053214051
 11
337.91297987224885
 21
65.730599999999896
 72
     1
 10
337.91297987224885
 20
65.730599999999896
 11
337.47326558653458
 21
65.730599999999896
 72
     1
 10
337.47326558653458
 20
65.730599999999896
 11
337.47326558653458
 21
67.035191214191883
 97
        0
 75
     0
 76
     1
 98
        1
 10
0.0
 20
0.0
  0
HATCH
  5
480
100
AcDbEntity
  8
LAY-1
  6
CONTINUOUS
 62
     3
100
AcDbHatch
 10
0.0
 20
0.0
 30
0.0
210
0.0
220
0.0
230
1.0
  2
SOLID
 70
     1
 71
     1
 91
        1
 92
        1
 93
       12
 72
     2
 10
340.49808132770659
 20
63.504342255975388
 40
6.8888571428571659
 50
150.903074
 51
156.790773
 73
     1
 72
     1
 10
334.16672639386218
 20
66.219171428571286
 11
335.67092494641474
 21
66.219171428571343
 72
     2
 10
331.39808099350262
 20
64.99046456602764
 40
4.4460000000000148
 50
16.043216
 51
21.362935
 73
     1
 72
     1
 10
335.53860371803989
 20
66.610028571428472
 11
336.00755130082018
 21
66.610028571428472
 72
     2
 10
331.39808099350262
 20
64.99046456602764
 40
4.8857142857143021
 50
340.64078
 51
351.286733
 73
     0
 72
     1
 10
336.22740844367735
 20
65.730599999999896
 11
333.51583701510594
 21
65.730599999999896
 72
     2
 10
340.49808132770659
 20
63.504342255975388
 40
7.3285714285714523
 50
197.684652
 51
207.200855
 73
     0
 72
     1
 10
333.9799798722488
 20
66.854314285714196
 11
333.29597987224884
 21
66.854314285714196
 72
     1
 10
333.29597987224884
 20
66.854314285714196
 11
333.29597987224884
 21
67.342885714285629
 72
     1
 10
333.29597987224884
 20
67.342885714285629
 11
336.42283701510598
 21
67.342885714285629
 72
     1
 10
336.42283701510598
 20
67.342885714285629
 11
336.42283701510598
 21
66.854314285714196
 72
     1
 10
336.42283701510598
 20
66.854314285714196
 11
334.47860957890157
 21
66.854314285714196
 97
        0
 75
     0
 76
     1
 98
        1
 10
0.0
 20
0.0
  0
HATCH
  5
481
100
AcDbEntity
  8
LAY-1
  6
CONTINUOUS
 62
     3
100
AcDbHatch
 10
0.0
 20
0.0
 30
0.0
210
0.0
220
0.0
230
1.0
  2
SOLID
 70
     1
 71
     1
 91
        1
 92
        1
 93
       10
 72
     2
 10
340.52738353924713
 20
74.079246130431841
 40
7.8171428571428834
 50
129.545698
 51
136.474664
 73
     0
 72
     1
 10
334.85940844367758
 20
68.695773202573534
 11
334.85940844367758
 21
69.150599999999912
 72
     1
 10
334.85940844367758
 20
69.150599999999912
 11
335.10369415796316
 21
69.150599999999912
 72
     2
 10
340.52738353924713
 20
74.079246130431841
 40
7.3285714285714523
 50
222.262231
 51
237.763996
 73
     1
 72
     1
 10
336.61826558653456
 20
67.880314285714206
 11
336.30149630613653
 21
67.50280335777633
 72
     2
 10
340.52738353924713
 20
74.079246130431841
 40
7.8171428571428834
 50
122.723968
 51
128.230009
 73
     0
 72
     1
 10
335.68997987224884
 20
67.938623343491429
 11
335.68997987224884
 21
67.562742857142752
 72
     1
 10
335.68997987224884
 20
67.562742857142752
 11
334.85940844367758
 21
67.562742857142752
 72
     1
 10
334.85940844367758
 20
67.562742857142752
 11
334.85940844367758
 21
68.051314285714199
 72
     1
 10
334.85940844367758
 20
68.051314285714199
 11
335.55025985940762
 21
68.051314285714199
 97
        0
 75
     0
 76
     1
 98
        1
 10
0.0
 20
0.0
  0
HATCH
  5
482
100
AcDbEntity
  8
LAY-1
  6
CONTINUOUS
 62
     3
100
AcDbHatch
 10
0.0
 20
0.0
 30
0.0
210
0.0
220
0.0
230
1.0
  2
SOLID
 70
     1
 71
     1
 91
        1
 92
        1
 93
       10
 72
     2
 10
329.19143334810769
 20
74.079246130431841
 40
7.8171428571428834
 50
51.769991
 51
57.276032
 73
     0
 72
     1
 10
333.41732058121829
 20
67.502803357776315
 11
333.10055130082026
 21
67.880314285714192
 72
     2
 10
329.19143334810769
 20
74.079246130431841
 40
7.3285714285714523
 50
302.236004
 51
317.737769
 73
     1
 72
     1
 10
334.61512272939166
 20
69.150599999999912
 11
334.85940844367758
 21
69.150599999999912
 72
     1
 10
334.85940844367758
 20
69.150599999999912
 11
334.85940844367758
 21
68.695773202573832
 72
     2
 10
329.19143334810769
 20
74.079246130431841
 40
7.8171428571428834
 50
43.525336
 51
50.454302
 73
     0
 72
     1
 10
334.1685570279472
 20
68.051314285714199
 11
334.85940844367758
 21
68.051314285714199
 72
     1
 10
334.85940844367758
 20
68.051314285714199
 11
334.85940844367758
 21
67.562742857142752
 72
     1
 10
334.85940844367758
 20
67.562742857142752
 11
334.02883701510598
 21
67.562742857142752
 72
     1
 10
334.02883701510598
 20
67.562742857142752
 11
334.02883701510598
 21
67.938623343491429
 97
        0
 75
     0
 76
     1
 98
        1
 10
0.0
 20
0.0
  0
HATCH
  5
483
100
AcDbEntity
  8
LAY-1
  6
CONTINUOUS
 62
     3
100
AcDbHatch
 10
0.0
 20
0.0
 30
0.0
210
0.0
220
0.0
230
1.0
  2
SOLID
 70
     1
 71
     1
 91
        1
 92
        1
 93
       18
 72
     2
 10
325.59560464184131
 20
66.955004157940721
 40
6.8400000000000221
 50
14.02954
 51
18.723021
 73
     1
 72
     1
 10
332.07364129644066
 20
69.150599999999912
 11
332.58755130082022
 21
69.150599999999912
 72
     2
 10
325.59560464184131
 20
66.955004157940721
 40
7.3285714285714523
 50
342.566782
 51
346.922981
 73
     0
 72
     1
 10
332.73412272939163
 20
68.613171428571349
 11
332.92955130082021
 21
68.613171428571349
 72
     1
 10
332.92955130082021
 20
68.613171428571349
 11
332.92955130082021
 21
68.124599999999901
 72
     1
 10
332.92955130082021
 20
68.124599999999901
 11
332.01614416969028
 21
68.124599999999901
 72
     2
 10
337.08240844367737
 20
68.930742857142775
 40
5.1300000000000177
 50
189.041096
 51
204.65198
 73
     1
 72
     2
 10
333.44173419950755
 20
67.259915146419303
 40
1.1242323842884963
 50
204.65198
 51
242.897449
 73
     1
 72
     1
 10
332.92955130082021
 20
66.259131887079249
 11
332.92955130082021
 21
65.730599999999896
 72
     2
 10
333.44173419950755
 20
67.259915146419303
 40
1.6128038128599262
 50
108.516212
 51
155.34802
 73
     0
 72
     2
 10
337.08240844367737
 20
68.930742857142775
 40
5.6185714285714461
 50
155.34802
 51
171.750831
 73
     0
 72
     1
 10
331.52196973869763
 20
68.124599999999901
 11
329.65612272939165
 21
68.124599999999901
 72
     1
 10
329.65612272939165
 20
68.124599999999901
 11
329.65612272939165
 21
68.613171428571349
 72
     1
 10
329.65612272939165
 20
68.613171428571349
 11
331.47150208557844
 21
68.613171428571349
 72
     1
 10
331.47150208557844
 20
68.613171428571349
 11
331.45273466631727
 21
69.150599999999912
 72
     1
 10
331.45273466631727
 20
69.150599999999912
 11
331.94160390081754
 21
69.150599999999912
 72
     1
 10
331.94160390081754
 20
69.150599999999912
 11
331.96037132007871
 21
68.613171428571349
 72
     1
 10
331.96037132007871
 20
68.613171428571349
 11
332.23157339573174
 21
68.613171428571349
 97
        0
 75
     0
 76
     1
 98
        1
 10
0.0
 20
0.0
  0
HATCH
  5
484
100
AcDbEntity
  8
LAY-1
  6
CONTINUOUS
 62
     3
100
AcDbHatch
 10
0.0
 20
0.0
 30
0.0
210
0.0
220
0.0
230
1.0
  2
SOLID
 70
     1
 71
     1
 91
        1
 92
        1
 93
       12
 72
     2
 10
328.11833374739683
 20
90.257292574449082
 40
23.940000000000079
 50
276.500664
 51
278.269357
 73
     1
 72
     1
 10
331.56155130082027
 20
66.566200305838905
 11
331.56155130082027
 21
66.072599999999909
 72
     2
 10
328.11833374739683
 20
90.257292574449082
 40
24.428571428571509
 50
81.897153
 51
86.39082
 73
     0
 72
     1
 10
329.65612272939165
 20
65.87717142857133
 11
329.65612272939165
 21
66.366733664141876
 72
     2
 10
328.11833374739683
 20
90.257292574449082
 40
23.940000000000079
 50
273.682937
 51
275.325087
 73
     1
 72
     1
 10
330.34012272939168
 20
66.42061382678186
 11
330.34012272939168
 21
67.19631428571418
 72
     1
 10
330.34012272939168
 20
67.19631428571418
 11
329.65612272939165
 21
67.19631428571418
 72
     1
 10
329.65612272939165
 20
67.19631428571418
 11
329.65612272939165
 21
67.684885714285613
 72
     1
 10
329.65612272939165
 20
67.684885714285613
 11
331.41497987224886
 21
67.684885714285613
 72
     1
 10
331.41497987224886
 20
67.684885714285613
 11
331.41497987224886
 21
67.19631428571418
 72
     1
 10
331.41497987224886
 20
67.19631428571418
 11
330.82869415796313
 21
67.19631428571418
 72
     1
 10
330.82869415796313
 20
67.19631428571418
 11
330.82869415796313
 21
66.471213737346943
 97
        0
 75
     0
 76
     1
 98
        1
 10
0.0
 20
0.0
  0
HATCH
  5
485
100
AcDbEntity
  8
LAY-1
  6
CONTINUOUS
 62
     3
100
AcDbHatch
 10
0.0
 20
0.0
 30
0.0
210
0.0
220
0.0
230
1.0
  2
SOLID
 70
     1
 71
     1
 91
        1
 92
        1
 93
       30
 72
     2
 10
323.70253316290552
 20
69.93174782351538
 40
5.34985714285716
 50
37.940537
 51
46.713808
 73
     0
 72
     1
 10
327.37062498682099
 20
66.03738345685629
 11
327.04226558653454
 21
66.365742857142777
 72
     2
 10
323.70253316290552
 20
69.93174782351538
 40
4.8857142857143048
 50
313.123325
 51
325.95222
 73
     1
 72
     1
 10
327.75069415796304
 20
67.196314285714195
 11
327.16440844367742
 21
67.196314285714195
 72
     1
 10
327.16440844367742
 20
67.196314285714195
 11
327.16440844367742
 21
67.684885714285628
 72
     1
 10
327.16440844367742
 20
67.684885714285628
 11
327.92169415796309
 21
67.684885714285628
 72
     1
 10
327.92169415796309
 20
67.684885714285628
 11
327.92169415796309
 21
68.173457142857046
 72
     1
 10
327.92169415796309
 20
68.173457142857046
 11
327.67810272137467
 21
68.173457142857046
 72
     2
 10
322.45390727104416
 20
69.206884143730193
 40
5.3254285714285912
 50
11.189535
 51
14.746058
 73
     0
 72
     1
 10
327.60393461506374
 20
67.851373972157035
 11
327.18883701510595
 21
68.00245714285704
 72
     2
 10
322.45390727104416
 20
69.206884143730193
 40
4.8857142857143048
 50
345.728313
 51
357.620387
 73
     1
 72
     1
 10
327.33540844367741
 20
69.004028571429927
 11
327.77197854104105
 21
68.927049484294201
 72
     2
 10
322.45390727104416
 20
69.206884143730193
 40
5.3254285714285912
 50
3.012102
 51
6.401006
 73
     0
 72
     1
 10
327.74613692226364
 20
68.613171428571349
 11
327.92169415796309
 21
68.613171428571349
 72
     1
 10
327.92169415796309
 20
68.613171428571349
 11
327.92169415796309
 21
69.150599999999912
 72
     1
 10
327.92169415796309
 20
69.150599999999912
 11
328.41026558653454
 21
69.150599999999912
 72
     1
 10
328.41026558653454
 20
69.150599999999912
 11
328.41026558653454
 21
68.613171428571349
 72
     1
 10
328.41026558653454
 20
68.613171428571349
 11
329.06983701510597
 21
68.613171428571349
 72
     1
 10
329.06983701510597
 20
68.613171428571349
 11
329.06983701510597
 21
68.173457142857046
 72
     1
 10
329.06983701510597
 20
68.173457142857046
 11
328.41026558653454
 21
68.173457142857046
 72
     1
 10
328.41026558653454
 20
68.173457142857046
 11
328.41026558653454
 21
67.684885714285628
 72
     1
 10
328.41026558653454
 20
67.684885714285628
 11
329.16755130082026
 21
67.684885714285628
 72
     1
 10
329.16755130082026
 20
67.684885714285628
 11
329.16755130082026
 21
67.196314285714195
 72
     1
 10
329.16755130082026
 20
67.196314285714195
 11
328.58126558653453
 21
67.196314285714195
 72
     2
 10
332.62942658159204
 20
69.931747823515366
 40
4.8857142857143048
 50
214.04778
 51
226.876675
 73
     1
 72
     1
 10
329.28969415796303
 20
66.365742857142777
 11
328.96133475767652
 21
66.03738345685629
 72
     2
 10
332.62942658159204
 20
69.931747823515366
 40
5.34985714285716
 50
133.286192
 51
142.059463
 73
     0
 72
     1
 10
328.41026558653454
 20
66.642423888910415
 11
328.41026558653454
 21
65.730599999999896
 72
     1
 10
328.41026558653454
 20
65.730599999999896
 11
327.92169415796309
 21
65.730599999999896
 72
     1
 10
327.92169415796309
 20
65.730599999999896
 11
327.92169415796309
 21
66.642423888910542
 97
        0
 75
     0
 76
     1
 98
        1
 10
0.0
 20
0.0
  0
HATCH
  5
486
100
AcDbEntity
  8
LAY-1
  6
CONTINUOUS
 62
     3
100
AcDbHatch
 10
0.0
 20
0.0
 30
0.0
210
0.0
220
0.0
230
1.0
  2
SOLID
 70
     1
 71
     1
 91
        1
 92
        1
 93
       19
 72
     2
 10
321.6913066181354
 20
69.27967383803815
 40
5.3254285714285894
 50
27.683433
 51
32.280505
 73
     0
 72
     1
 10
326.19365611744769
 20
66.435550342929247
 11
325.84526558653454
 21
66.707742857142762
 72
     2
 10
321.6913066181354
 20
69.27967383803815
 40
4.8857142857143021
 50
328.236207
 51
344.845745
 73
     1
 72
     1
 10
326.40712272939163
 20
68.002457142857054
 11
325.96740844367741
 21
68.002457142857054
 72
     1
 10
325.96740844367741
 20
68.002457142857054
 11
325.96740844367741
 21
68.491028571428473
 72
     1
 10
325.96740844367741
 20
68.491028571428473
 11
326.40712272939169
 21
68.491028571428473
 72
     1
 10
326.40712272939169
 20
68.491028571428473
 11
326.40712272939169
 21
69.150599999999912
 72
     1
 10
326.40712272939169
 20
69.150599999999912
 11
326.89569415796313
 21
69.150599999999912
 72
     1
 10
326.89569415796313
 20
69.150599999999912
 11
326.89569415796313
 21
68.491028571428473
 72
     1
 10
326.89569415796313
 20
68.491028571428473
 11
327.11555130082024
 21
68.491028571428473
 72
     1
 10
327.11555130082024
 20
68.491028571428473
 11
327.11555130082024
 21
68.002457142857054
 72
     1
 10
327.11555130082024
 20
68.002457142857054
 11
326.89569415796308
 21
68.002457142857054
 72
     1
 10
326.89569415796308
 20
68.002457142857054
 11
327.16440844367742
 21
67.618693371331005
 72
     1
 10
327.16440844367742
 20
67.618693371331005
 11
327.16440844367742
 21
67.321257458202467
 72
     1
 10
327.16440844367742
 20
67.321257458202467
 11
327.0178370151059
 21
67.146580431630753
 72
     1
 10
327.0178370151059
 20
67.146580431630753
 11
326.89569415796313
 21
67.321018509597081
 72
     1
 10
326.89569415796313
 20
67.321018509597081
 11
326.89569415796313
 21
65.730599999999896
 72
     1
 10
326.89569415796313
 20
65.730599999999896
 11
326.40712272939169
 21
65.730599999999896
 72
     1
 10
326.40712272939169
 20
65.730599999999896
 11
326.40712272939169
 21
66.805554222052749
 97
        0
 75
     0
 76
     1
 98
        1
 10
0.0
 20
0.0
  0
HATCH
  5
487
100
AcDbEntity
  8
LAY-1
  6
CONTINUOUS
 62
     3
100
AcDbHatch
 10
0.0
 20
0.0
 30
0.0
210
0.0
220
0.0
230
1.0
  2
SOLID
 70
     1
 71
     1
 91
        1
 92
        1
 93
        8
 72
     2
 10
323.74335998905167
 20
67.166999999999831
 40
0.9576000000000078
 50
270.0
 51
330.0
 73
     1
 72
     2
 10
323.26947088810084
 20
67.440599999999833
 40
1.5048000000000072
 50
330.0
 51
30.0
 73
     1
 72
     2
 10
323.74335998905167
 20
67.714199999999835
 40
0.9576000000000072
 50
30.0
 51
90.0
 73
     1
 72
     1
 10
323.74335998905195
 20
68.671799999999848
 11
323.74335998905195
 21
69.218999999999951
 72
     2
 10
323.74335998905167
 20
67.714199999999948
 40
1.5048000000000048
 50
270.0
 51
330.0
 73
     0
 72
     2
 10
323.2694708881009
 20
67.440599999999932
 40
2.0520000000000094
 50
330.0
 51
30.0
 73
     0
 72
     2
 10
323.74335998905173
 20
67.166999999999774
 40
1.504800000000003
 50
30.0
 51
90.0
 73
     0
 72
     1
 10
323.74335998905195
 20
65.662199999999771
 11
323.74335998905195
 21
66.209399999999818
 97
        0
 75
     0
 76
     1
 98
        1
 10
0.0
 20
0.0
  0
HATCH
  5
488
100
AcDbEntity
  8
LAY-1
  6
CONTINUOUS
 62
     3
100
AcDbHatch
 10
0.0
 20
0.0
 30
0.0
210
0.0
220
0.0
230
1.0
  2
SOLID
 70
     1
 71
     1
 91
        1
 92
        1
 93
        8
 72
     2
 10
323.74335998905173
 20
67.166999999999774
 40
1.504800000000003
 50
90.0
 51
150.0
 73
     0
 72
     2
 10
324.2172490900025
 20
67.440599999999819
 40
2.0520000000000111
 50
150.0
 51
210.0
 73
     0
 72
     2
 10
323.74335998905167
 20
67.714199999999948
 40
1.5048000000000048
 50
210.0
 51
270.0
 73
     0
 72
     1
 10
323.74335998905195
 20
69.218999999999951
 11
323.74335998905195
 21
68.671799999999848
 72
     2
 10
323.74335998905167
 20
67.714199999999835
 40
0.9576000000000072
 50
90.0
 51
150.0
 73
     1
 72
     2
 10
324.2172490900025
 20
67.440599999999833
 40
1.5048000000000079
 50
150.0
 51
210.0
 73
     1
 72
     2
 10
323.74335998905167
 20
67.166999999999831
 40
0.9576000000000078
 50
210.0
 51
270.0
 73
     1
 72
     1
 10
323.74335998905195
 20
66.209399999999818
 11
323.74335998905195
 21
65.662199999999771
 97
        0
 75
     0
 76
     1
 98
        1
 10
0.0
 20
0.0
  0
HATCH
  5
489
100
AcDbEntity
  8
LAY-1
  6
CONTINUOUS
 62
     3
100
AcDbHatch
 10
0.0
 20
0.0
 30
0.0
210
0.0
220
0.0
230
1.0
  2
SOLID
 70
     1
 71
     1
 91
        1
 92
        1
 93
        4
 72
     1
 10
321.62295998905165
 20
66.824999999999832
 11
321.07575998905168
 21
66.824999999999832
 72
     1
 10
321.07575998905168
 20
66.824999999999832
 11
321.07575998905168
 21
67.372199999999822
 72
     1
 10
321.07575998905168
 20
67.372199999999822
 11
321.62295998905165
 21
67.372199999999822
 72
     1
 10
321.62295998905165
 20
67.372199999999822
 11
321.62295998905165
 21
66.82499999999979
 97
        0
 75
     0
 76
     1
 98
        1
 10
0.0
 20
0.0
  0
HATCH
  5
48A
100
AcDbEntity
  8
LAY-1
  6
CONTINUOUS
 62
     3
100
AcDbHatch
 10
0.0
 20
0.0
 30
0.0
210
0.0
220
0.0
230
1.0
  2
SOLID
 70
     1
 71
     1
 91
        1
 92
        1
 93
       16
 72
     1
 10
319.02375998905165
 20
68.603399999999837
 11
318.27135998905169
 21
68.603399999999837
 72
     1
 10
318.27135998905169
 20
68.603399999999837
 11
318.1345599890517
 21
67.850999999999829
 72
     1
 10
318.1345599890517
 20
67.850999999999829
 11
317.72415998905171
 21
67.850999999999829
 72
     1
 10
317.72415998905171
 20
67.850999999999829
 11
317.72415998905171
 21
69.150599999999841
 72
     1
 10
317.72415998905171
 20
69.150599999999841
 11
320.87055998905169
 21
69.150599999999841
 72
     1
 10
320.87055998905169
 20
69.150599999999841
 11
320.87055998905169
 21
67.850999999999829
 72
     1
 10
320.87055998905169
 20
67.850999999999829
 11
320.4601599890517
 21
67.850999999999829
 72
     1
 10
320.4601599890517
 20
67.850999999999829
 11
320.32335998905171
 21
68.603399999999837
 72
     1
 10
320.32335998905171
 20
68.603399999999837
 11
319.57095998905163
 21
68.603399999999837
 72
     1
 10
319.57095998905163
 20
68.603399999999837
 11
319.57095998905169
 21
66.277799999999829
 72
     1
 10
319.57095998905169
 20
66.277799999999829
 11
320.11815998905172
 21
66.140999999999821
 72
     1
 10
320.11815998905172
 20
66.140999999999821
 11
320.11815998905172
 21
65.730599999999825
 72
     1
 10
320.11815998905172
 20
65.730599999999825
 11
318.47655998905168
 21
65.730599999999825
 72
     1
 10
318.47655998905168
 20
65.730599999999825
 11
318.47655998905168
 21
66.140999999999821
 72
     1
 10
318.47655998905168
 20
66.140999999999821
 11
319.02375998905165
 21
66.277799999999829
 72
     1
 10
319.02375998905165
 20
66.277799999999829
 11
319.02375998905165
 21
68.603399999999837
 97
        0
 75
     0
 76
     1
 98
        1
 10
0.0
 20
0.0
  0
HATCH
  5
48B
100
AcDbEntity
  8
LAY-1
  6
CONTINUOUS
 62
     3
100
AcDbHatch
 10
0.0
 20
0.0
 30
0.0
210
0.0
220
0.0
230
1.0
  2
SOLID
 70
     1
 71
     1
 91
        1
 92
        1
 93
        4
 72
     1
 10
316.97175998905163
 20
66.824999999999832
 11
316.97175998905169
 21
67.372199999999864
 72
     1
 10
316.97175998905169
 20
67.372199999999864
 11
317.51895998905167
 21
67.372199999999822
 72
     1
 10
317.51895998905167
 20
67.372199999999822
 11
317.51895998905167
 21
66.824999999999832
 72
     1
 10
317.51895998905167
 20
66.824999999999832
 11
316.97175998905169
 21
66.824999999999832
 97
        0
 75
     0
 76
     1
 98
        1
 10
0.0
 20
0.0
  0
HATCH
  5
48C
100
AcDbEntity
  8
LAY-1
  6
CONTINUOUS
 62
     3
100
AcDbHatch
 10
0.0
 20
0.0
 30
0.0
210
0.0
220
0.0
230
1.0
  2
SOLID
 70
     1
 71
     1
 91
        1
 92
        1
 93
       12
 72
     1
 10
316.35615998905166
 20
69.150599999999841
 11
316.35615998905166
 21
68.740199999999845
 72
     1
 10
316.35615998905166
 20
68.740199999999845
 11
315.80895998905169
 21
68.603399999999837
 72
     1
 10
315.80895998905169
 20
68.603399999999837
 11
315.80895998905169
 21
66.277799999999829
 72
     1
 10
315.80895998905169
 20
66.277799999999829
 11
316.35615998905166
 21
66.140999999999821
 72
     1
 10
316.35615998905166
 20
66.140999999999821
 11
316.35615998905166
 21
65.730599999999825
 72
     1
 10
316.35615998905166
 20
65.730599999999825
 11
314.71455998905162
 21
65.730599999999825
 72
     1
 10
314.71455998905162
 20
65.730599999999825
 11
314.71455998905162
 21
66.140999999999821
 72
     1
 10
314.71455998905162
 20
66.140999999999821
 11
315.26175998905165
 21
66.277799999999829
 72
     1
 10
315.26175998905165
 20
66.277799999999829
 11
315.26175998905165
 21
68.603399999999837
 72
     1
 10
315.26175998905165
 20
68.603399999999837
 11
314.71455998905162
 21
68.740199999999845
 72
     1
 10
314.71455998905162
 20
68.740199999999845
 11
314.71455998905162
 21
69.150599999999841
 72
     1
 10
314.71455998905162
 20
69.150599999999841
 11
316.35615998905166
 21
69.150599999999841
 97
        0
 75
     0
 76
     1
 98
        1
 10
0.0
 20
0.0
  0
HATCH
  5
48D
100
AcDbEntity
  8
LAY-1
  6
CONTINUOUS
 62
     3
100
AcDbHatch
 10
0.0
 20
0.0
 30
0.0
210
0.0
220
0.0
230
1.0
  2
SOLID
 70
     1
 71
     1
 91
        1
 92
        1
 93
       15
 72
     2
 10
310.9919433343361
 20
67.440599999999904
 40
1.5186318631863209
 50
124.301153
 51
180.0
 73
     0
 72
     1
 10
309.47331147114977
 20
67.440599999999989
 11
310.04634797132496
 21
67.440599999999989
 72
     2
 10
311.5239357301009
 20
67.440599999999918
 40
1.4775877587758821
 50
180.0
 51
199.464384
 73
     1
 72
     2
 10
310.10688257282567
 20
67.604507188899674
 40
0.6567056705670725
 50
272.086657
 51
294.619977
 73
     1
 72
     2
 10
310.29497028811818
 20
67.194066144795258
 40
0.2052205220522064
 50
294.619977
 51
0.0
 73
     1
 72
     1
 10
310.50019081017035
 20
67.194066144795258
 11
310.50019081017035
 21
67.440599999999989
 72
     1
 10
310.50019081017035
 20
67.440599999999989
 11
310.99272006309565
 21
67.440599999999989
 72
     1
 10
310.99272006309565
 20
67.440599999999989
 11
310.99272006309565
 21
67.193630683516702
 72
     2
 10
311.19794058514788
 20
67.193630683516702
 40
0.205220522052198
 50
180.0
 51
245.380023
 73
     1
 72
     2
 10
311.38602830044039
 20
67.604071727621204
 40
0.6567056705671447
 50
245.380023
 51
267.913343
 73
     1
 72
     1
 10
311.36211700278966
 20
66.947801518332597
 11
311.36211700278966
 21
66.824669205101287
 72
     1
 10
311.36211700278966
 20
66.824669205101287
 11
310.18084420649586
 21
66.824669205101287
 72
     2
 10
311.5239357301009
 20
67.440599999999918
 40
1.4775877587758801
 50
204.635803
 51
268.19864
 73
     1
 72
     1
 10
311.47748852884251
 20
65.963742443436118
 11
311.47748852884251
 21
65.758229771202622
 72
     2
 10
311.5239357301009
 20
68.220437983798377
 40
2.462646264626474
 50
91.080702
 51
124.301153
 73
     0
 97
        0
 75
     0
 76
     1
 98
        1
 10
0.0
 20
0.0
  0
HATCH
  5
48E
100
AcDbEntity
  8
LAY-1
  6
CONTINUOUS
 62
     3
100
AcDbHatch
 10
0.0
 20
0.0
 30
0.0
210
0.0
220
0.0
230
1.0
  2
SOLID
 70
     1
 71
     1
 91
        1
 92
        1
 93
       24
 72
     2
 10
311.23895485566032
 20
67.645820522052119
 40
0.2052205220522082
 50
90.0
 51
157.380135
 73
     1
 72
     2
 10
311.73148410858562
 20
67.440599999999932
 40
0.7387938793879422
 50
157.380135
 51
180.0
 73
     1
 72
     1
 10
310.99269022919765
 20
67.440599999999989
 11
310.50019081017035
 21
67.440599999999989
 72
     1
 10
310.50019081017035
 20
67.440599999999989
 11
310.50019081017035
 21
68.506063243758604
 72
     2
 10
311.5239357301009
 20
67.440599999999918
 40
1.4775877587758821
 50
133.856042
 51
180.0
 73
     1
 72
     1
 10
310.04634797132496
 20
67.440599999999989
 11
309.47331147114977
 21
67.440599999999989
 72
     2
 10
310.9919433343361
 20
67.440599999999904
 40
1.5186318631863209
 50
180.0
 51
235.698847
 73
     0
 72
     2
 10
311.5239357301009
 20
66.660762016201446
 40
2.4626462646264793
 50
235.698847
 51
245.436008
 73
     0
 72
     1
 10
310.50019081017035
 20
68.900532755271669
 11
310.50019081017035
 21
69.123574513364545
 72
     2
 10
310.29497028811818
 20
69.123574513364545
 40
0.2052205220522053
 50
0.0
 51
65.380023
 73
     1
 72
     2
 10
310.10688257282567
 20
68.713133469260129
 40
0.6567056705670576
 50
65.380023
 51
87.913343
 73
     1
 72
     1
 10
310.1307938704764
 20
69.36940367854865
 11
310.1307938704764
 21
69.49253599177996
 72
     1
 10
310.1307938704764
 20
69.49253599177996
 11
311.36211700278966
 21
69.49253599177996
 72
     1
 10
311.36211700278966
 20
69.49253599177996
 11
311.36211700278966
 21
69.36940367854865
 72
     2
 10
311.38602830044039
 20
68.713133469260129
 40
0.6567056705670606
 50
92.086657
 51
114.619977
 73
     1
 72
     2
 10
311.19794058514788
 20
69.123574513364559
 40
0.2052205220522082
 50
114.619977
 51
180.0
 73
     1
 72
     1
 10
310.9927200630957
 20
69.123574513364545
 11
310.9927200630957
 21
69.065431752320507
 72
     2
 10
311.5239357301009
 20
66.660762016201446
 40
2.4626462646264731
 50
257.542857
 51
268.919298
 73
     0
 72
     1
 10
311.47748852884251
 20
69.1229702287972
 11
311.47748852884251
 21
68.917457556563718
 72
     2
 10
311.5239357301009
 20
67.440599999999918
 40
1.4775877587758821
 50
91.80136
 51
111.070443
 73
     1
 72
     1
 10
310.99272006309565
 20
68.819394944874773
 11
310.99272006309565
 21
68.056261566156536
 72
     1
 10
310.99272006309565
 20
68.056261566156536
 11
311.47748852884257
 21
68.056261566156536
 72
     1
 10
311.47748852884257
 20
68.056261566156536
 11
311.47748852884251
 21
67.851041044104321
 72
     1
 10
311.47748852884251
 20
67.851041044104321
 11
311.23895485566032
 21
67.851041044104321
 97
        0
 75
     0
 76
     1
 98
        1
 10
0.0
 20
0.0
  0
HATCH
  5
48F
100
AcDbEntity
  8
LAY-1
  6
CONTINUOUS
 62
     3
100
AcDbHatch
 10
0.0
 20
0.0
 30
0.0
210
0.0
220
0.0
230
1.0
  2
SOLID
 70
     1
 71
     1
 91
        1
 92
        1
 93
       14
 72
     2
 10
311.5239357301009
 20
67.440599999999918
 40
1.477587758775885
 50
0.0
 51
9.281799
 73
     1
 72
     2
 10
312.77964386594158
 20
67.645820522052119
 40
0.205220522052204
 50
9.281799
 51
90.0
 73
     1
 72
     1
 10
312.77964386594158
 20
67.851041044104321
 11
312.34481781830971
 21
67.851041044104321
 72
     1
 10
312.34481781830971
 20
67.851041044104321
 11
312.34481781830971
 21
67.440599999999989
 72
     1
 10
312.34481781830971
 20
67.440599999999989
 11
311.85228856538441
 21
67.440599999999989
 72
     1
 10
311.85228856538441
 20
67.440599999999989
 11
311.85228856538441
 21
67.851041044104321
 72
     1
 10
311.85228856538441
 20
67.851041044104321
 11
311.47748852884251
 21
67.851041044104321
 72
     1
 10
311.47748852884251
 20
67.851041044104321
 11
311.47748852884251
 21
68.056261566156536
 72
     1
 10
311.47748852884251
 20
68.056261566156536
 11
312.86715068715057
 21
68.056261566156508
 72
     2
 10
311.5239357301009
 20
67.440599999999918
 40
1.4775877587758821
 50
24.624318
 51
91.80136
 73
     1
 72
     1
 10
311.47748852884251
 20
68.917457556563718
 11
311.47748852884251
 21
69.1229702287972
 72
     2
 10
311.5239357301009
 20
66.660762016201446
 40
2.4626462646264731
 50
268.919298
 51
304.301153
 73
     0
 72
     2
 10
312.05592812586565
 20
67.440599999999904
 40
1.5186318631863223
 50
304.301153
 51
0.0
 73
     0
 72
     1
 10
313.57455998905198
 20
67.440599999999989
 11
313.00152348887673
 21
67.440599999999989
 97
        0
 75
     0
 76
     1
 98
        1
 10
0.0
 20
0.0
  0
HATCH
  5
490
100
AcDbEntity
  8
LAY-1
  6
CONTINUOUS
 62
     3
100
AcDbHatch
 10
0.0
 20
0.0
 30
0.0
210
0.0
220
0.0
230
1.0
  2
SOLID
 70
     1
 71
     1
 91
        1
 92
        1
 93
       19
 72
     2
 10
311.5239357301009
 20
67.440599999999918
 40
1.477587758775885
 50
303.748989
 51
0.0
 73
     1
 72
     1
 10
313.00152348887673
 20
67.440599999999989
 11
313.57455998905198
 21
67.440599999999989
 72
     2
 10
312.05592812586565
 20
67.440599999999904
 40
1.5186318631863223
 50
0.0
 51
55.698847
 73
     0
 72
     2
 10
311.5239357301009
 20
68.220437983798377
 40
2.4626462646264775
 50
55.698847
 51
70.528779
 73
     0
 72
     1
 10
312.34481781830971
 20
65.898632819290228
 11
312.34481781830971
 21
65.757356257893264
 72
     2
 10
312.55003834036188
 20
65.757356257893264
 40
0.2052205220522064
 50
180.0
 51
245.380023
 73
     1
 72
     2
 10
312.73812605565445
 20
66.167797301997695
 40
0.6567056705670594
 50
245.380023
 51
267.913343
 73
     1
 72
     1
 10
312.71421475800366
 20
65.511527092709173
 11
312.71421475800366
 21
65.388394779477849
 72
     1
 10
312.71421475800366
 20
65.388394779477849
 11
311.48289162569046
 21
65.388394779477849
 72
     1
 10
311.48289162569046
 20
65.388394779477849
 11
311.48289162569046
 21
65.511527092709173
 72
     2
 10
311.45898032803973
 20
66.167797301997695
 40
0.6567056705670594
 50
272.086657
 51
294.619977
 73
     1
 72
     2
 10
311.64706804333218
 20
65.757356257893264
 40
0.2052205220522064
 50
294.619977
 51
0.0
 73
     1
 72
     1
 10
311.85228856538441
 20
65.757356257893264
 11
311.85228856538441
 21
65.779780072447409
 72
     2
 10
311.5239357301009
 20
68.220437983798377
 40
2.462646264626474
 50
82.337744
 51
91.080702
 73
     0
 72
     1
 10
311.47748852884251
 20
65.758229771202622
 11
311.47748852884251
 21
65.963742443436118
 72
     2
 10
311.5239357301009
 20
67.440599999999918
 40
1.4775877587758801
 50
268.19864
 51
282.839588
 73
     1
 72
     1
 10
311.85228856538441
 20
65.999957781943806
 11
311.85228856538441
 21
67.440599999999989
 72
     1
 10
311.85228856538441
 20
67.440599999999989
 11
312.34481781830971
 21
67.440599999999989
 72
     1
 10
312.34481781830971
 20
67.440599999999989
 11
312.34481781830971
 21
66.212016188393136
 97
        0
 75
     0
 76
     1
 98
        1
 10
0.0
 20
0.0
  0
TEXT
  5
491
100
AcDbEntity
  8
LAY-1
  6
CONTINUOUS
 62
     3
100
AcDbText
 10
305.096
 20
86.664
 30
0.0
 40
4.0
  1
２０１７年　２月２０日
 41
0.84
  7
EXCADSTD
 72
     5
 11
349.096
 21
86.664
 31
0.0
100
AcDbText
  0
TEXT
  5
492
100
AcDbEntity
  8
LAY-1
  6
CONTINUOUS
 62
     3
100
AcDbText
 10
302.9872
 20
81.144
 30
0.0
 40
4.0
  1
ＳＧＸ－８Ｎ（Ｚ）Ａ
 41
0.84
  7
EXCADSTD
 72
     5
 11
342.9872
 21
81.144
 31
0.0
100
AcDbText
  0
TEXT
  5
493
100
AcDbEntity
  8
LAY-1
  6
CONTINUOUS
 62
     3
100
AcDbText
 10
302.9808
 20
75.5632
 30
0.0
 40
4.0
  1
ガバナ
 41
0.84
  7
EXCADSTD
 72
     5
 11
314.9808
 21
75.5632
 31
0.0
100
AcDbText
  0
LINE
  5
494
100
AcDbEntity
  8
LAY-1
  6
CONTINUOUS
 62
     2
100
AcDbLine
 10
202.554012
 20
129.565095
 30
0.0
 11
202.554012
 21
119.565095
 31
0.0
  0
LINE
  5
495
100
AcDbEntity
  8
LAY-1
  6
CONTINUOUS
 62
     2
100
AcDbLine
 10
202.554012
 20
129.565095
 30
0.0
 11
214.433169
 21
129.565095
 31
0.0
  0
LINE
  5
496
100
AcDbEntity
  8
LAY-1
  6
CONTINUOUS
 62
     2
100
AcDbLine
 10
202.554012
 20
119.565095
 30
0.0
 11
214.60772
 21
119.565095
 31
0.0
  0
LINE
  5
497
100
AcDbEntity
  8
LAY-1
  6
CONTINUOUS
 62
     2
100
AcDbLine
 10
202.554012
 20
248.634905
 30
0.0
 11
202.554012
 21
238.634905
 31
0.0
  0
LINE
  5
498
100
AcDbEntity
  8
LAY-1
  6
CONTINUOUS
 62
     2
100
AcDbLine
 10
202.554012
 20
248.634905
 30
0.0
 11
214.433169
 21
248.634905
 31
0.0
  0
LINE
  5
499
100
AcDbEntity
  8
LAY-1
  6
CONTINUOUS
 62
     2
100
AcDbLine
 10
202.554012
 20
238.634905
 30
0.0
 11
214.60772
 21
238.634905
 31
0.0
  0
LINE
  5
49A
100
AcDbEntity
  8
LAY-1
  6
CONTINUOUS
 62
     2
100
AcDbLine
 10
263.534905
 20
175.767327
 30
0.0
 11
263.534905
 21
195.925642
 31
0.0
  0
LINE
  5
49B
100
AcDbEntity
  8
LAY-1
  6
CONTINUOUS
 62
     2
100
AcDbLine
 10
273.534905
 20
175.592777
 30
0.0
 11
273.534905
 21
196.100192
 31
0.0
  0
TEXT
  5
49C
100
AcDbEntity
  8
LAY-1
  6
CONTINUOUS
 62
     3
100
AcDbText
 10
202.554012
 20
168.846485
 30
0.0
 40
4.0
  1
口
 50
360.0
 41
0.84
  7
EXCADSTD
 72
     5
 11
205.754012
 21
168.846485
 31
0.0
100
AcDbText
  0
ARC
  5
49D
100
AcDbEntity
  8
LAY-1
  6
CONTINUOUS
 62
     2
100
AcDbCircle
 10
196.083028
 20
173.332859
 30
0.0
 40
3.0
100
AcDbArc
 50
135.0
 51
236.536959
  0
ARC
  5
49E
100
AcDbEntity
  8
LAY-1
  6
CONTINUOUS
 62
     2
100
AcDbCircle
 10
196.083028
 20
173.332859
 30
0.0
 40
2.5
100
AcDbArc
 50
135.0
 51
236.536959
  0
ARC
  5
49F
100
AcDbEntity
  8
LAY-1
  6
CONTINUOUS
 62
     2
100
AcDbCircle
 10
196.083028
 20
173.332859
 30
0.0
 40
2.5
100
AcDbArc
 50
56.536959
 51
135.0
  0
ARC
  5
4A0
100
AcDbEntity
  8
LAY-1
  6
CONTINUOUS
 62
     2
100
AcDbCircle
 10
204.354012
 20
185.846485
 30
0.0
 40
12.5
100
AcDbArc
 50
236.536959
 51
303.463041
  0
ARC
  5
4A1
100
AcDbEntity
  8
LAY-1
  6
CONTINUOUS
 62
     2
100
AcDbCircle
 10
204.354012
 20
185.846485
 30
0.0
 40
12.0
100
AcDbArc
 50
236.536959
 51
303.463041
  0
ARC
  5
4A2
100
AcDbEntity
  8
LAY-1
  6
CONTINUOUS
 62
     2
100
AcDbCircle
 10
212.624997
 20
173.332859
 30
0.0
 40
2.5
100
AcDbArc
 50
303.463041
 51
123.463041
  0
ARC
  5
4A3
100
AcDbEntity
  8
LAY-1
  6
CONTINUOUS
 62
     2
100
AcDbCircle
 10
204.354012
 20
185.846485
 30
0.0
 40
17.5
100
AcDbArc
 50
236.536959
 51
303.463041
  0
ARC
  5
4A4
100
AcDbEntity
  8
LAY-1
  6
CONTINUOUS
 62
     2
100
AcDbCircle
 10
204.354012
 20
185.846485
 30
0.0
 40
18.0
100
AcDbArc
 50
236.536959
 51
303.463041
  0
TEXT
  5
4A5
100
AcDbEntity
  8
LAY-1
  6
CONTINUOUS
 62
     3
100
AcDbText
 10
195.251499
 20
170.883464
 30
0.0
 40
4.0
  1
入
 41
0.84
  7
EXCADSTD
 72
     5
 11
198.451499
 21
170.883464
 31
0.0
100
AcDbText
  0
TEXT
  5
4A6
100
AcDbEntity
  8
LAY-1
  6
CONTINUOUS
 62
     3
100
AcDbText
 10
209.861499
 20
170.788464
 30
0.0
 40
4.0
  1
側
 41
0.84
  7
EXCADSTD
 72
     5
 11
213.061499
 21
170.788464
 31
0.0
100
AcDbText
  0
ARC
  5
4A7
100
AcDbEntity
  8
LAY-1
  6
CONTINUOUS
 62
     2
100
AcDbCircle
 10
212.624997
 20
173.332859
 30
0.0
 40
3.0
100
AcDbArc
 50
303.463041
 51
123.463041
  0
ARC
  5
4A8
100
AcDbEntity
  8
LAY-1
  6
CONTINUOUS
 62
     2
100
AcDbCircle
 10
196.083028
 20
173.332859
 30
0.0
 40
3.0
100
AcDbArc
 50
56.536959
 51
135.0
  0
ENDSEC
  0
SECTION
  2
OBJECTS
  0
DICTIONARY
  5
19
100
AcDbDictionary
  3
ACAD_GROUP
350
1A
  3
ACAD_MLINESTYLE
350
1B
  0
DICTIONARY
  5
1A
102
{ACAD_REACTORS
330
19
102
}
100
AcDbDictionary
  0
DICTIONARY
  5
1B
102
{ACAD_REACTORS
330
19
102
}
100
AcDbDictionary
  3
STANDARD
350
1C
  0
MLINESTYLE
  5
1C
102
{ACAD_REACTORS
330
1B
102
}
100
AcDbMlineStyle
  2
Standard
 70
     0
  3

 62
     0
 51
90.0
 52
90.0
 71
     2
 49
0.5
 62
   256
  6
ByLayer
 49
-0.5
 62
   256
  6
ByLayer
  0
ENDSEC
  0
EOF
