  0
SECTION
  2
HEADER
  9
$ACADVER
  1
AC1014
  9
$ACADMAINTVER
 70
     0
  9
$DWGCODEPAGE
  3
ANSI_932
  9
$INSBASE
 10
0.0
 20
0.0
 30
0.0
  9
$EXTMIN
 10
21.4
 20
5.8
 30
0.0
  9
$EXTMAX
 10
447.8
 20
376.574749
 30
0.0
  9
$LIMMIN
 10
0.0
 20
0.0
  9
$LIMMAX
 10
420.0
 20
297.0
  9
$ORTHOMODE
 70
     0
  9
$REGENMODE
 70
     1
  9
$FILLMODE
 70
     1
  9
$QTEXTMODE
 70
     0
  9
$MIRRTEXT
 70
     1
  9
$DRAGMODE
 70
     2
  9
$LTSCALE
 40
1.0
  9
$OSMODE
 70
     0
  9
$ATTMODE
 70
     1
  9
$TEXTSIZE
 40
0.2
  9
$TRACEWID
 40
0.05
  9
$TEXTSTYLE
  7
STANDARD
  9
$CLAYER
  8
LAY-1
  9
$CELTYPE
  6
CONTINUOUS
  9
$CECOLOR
 62
   256
  9
$CELTSCALE
 40
1.0
  9
$DELOBJ
 70
     1
  9
$DISPSILH
 70
     0
  9
$DIMSCALE
 40
1.0
  9
$DIMASZ
 40
0.18
  9
$DIMEXO
 40
0.0625
  9
$DIMDLI
 40
0.38
  9
$DIMRND
 40
0.0
  9
$DIMDLE
 40
0.0
  9
$DIMEXE
 40
0.18
  9
$DIMTP
 40
0.0
  9
$DIMTM
 40
0.0
  9
$DIMTXT
 40
0.18
  9
$DIMCEN
 40
0.09
  9
$DIMTSZ
 40
0.0
  9
$DIMTOL
 70
     0
  9
$DIMLIM
 70
     0
  9
$DIMTIH
 70
     1
  9
$DIMTOH
 70
     1
  9
$DIMSE1
 70
     0
  9
$DIMSE2
 70
     0
  9
$DIMTAD
 70
     0
  9
$DIMZIN
 70
     0
  9
$DIMBLK
  1

  9
$DIMASO
 70
     1
  9
$DIMSHO
 70
     1
  9
$DIMPOST
  1

  9
$DIMAPOST
  1

  9
$DIMALT
 70
     0
  9
$DIMALTD
 70
     2
  9
$DIMALTF
 40
25.4
  9
$DIMLFAC
 40
1.0
  9
$DIMTOFL
 70
     0
  9
$DIMTVP
 40
0.0
  9
$DIMTIX
 70
     0
  9
$DIMSOXD
 70
     0
  9
$DIMSAH
 70
     0
  9
$DIMBLK1
  1

  9
$DIMBLK2
  1

  9
$DIMSTYLE
  2
STANDARD
  9
$DIMCLRD
 70
     0
  9
$DIMCLRE
 70
     0
  9
$DIMCLRT
 70
     0
  9
$DIMTFAC
 40
1.0
  9
$DIMGAP
 40
0.09
  9
$DIMJUST
 70
     0
  9
$DIMSD1
 70
     0
  9
$DIMSD2
 70
     0
  9
$DIMTOLJ
 70
     1
  9
$DIMTZIN
 70
     0
  9
$DIMALTZ
 70
     0
  9
$DIMALTTZ
 70
     0
  9
$DIMFIT
 70
     3
  9
$DIMUPT
 70
     0
  9
$DIMUNIT
 70
     2
  9
$DIMDEC
 70
     4
  9
$DIMTDEC
 70
     4
  9
$DIMALTU
 70
     2
  9
$DIMALTTD
 70
     2
  9
$DIMTXSTY
  7
STANDARD
  9
$DIMAUNIT
 70
     0
  9
$LUNITS
 70
     2
  9
$LUPREC
 70
     4
  9
$SKETCHINC
 40
0.1
  9
$FILLETRAD
 40
0.0
  9
$AUNITS
 70
     0
  9
$AUPREC
 70
     0
  9
$MENU
  1
acad
  9
$ELEVATION
 40
0.0
  9
$PELEVATION
 40
0.0
  9
$THICKNESS
 40
0.0
  9
$LIMCHECK
 70
     0
  9
$BLIPMODE
 70
     1
  9
$CHAMFERA
 40
0.0
  9
$CHAMFERB
 40
0.0
  9
$CHAMFERC
 40
0.0
  9
$CHAMFERD
 40
0.0
  9
$SKPOLY
 70
     0
  9
$TDCREATE
 40
2458207.144865185
  9
$TDUPDATE
 40
2458207.144865185
  9
$TDINDWG
 40
0.0000000000
  9
$TDUSRTIMER
 40
0.0000000000
  9
$USRTIMER
 70
     1
  9
$ANGBASE
 50
0.0
  9
$ANGDIR
 70
     0
  9
$PDMODE
 70
     0
  9
$PDSIZE
 40
0.0
  9
$PLINEWID
 40
0.0
  9
$COORDS
 70
     1
  9
$SPLFRAME
 70
     0
  9
$SPLINETYPE
 70
     6
  9
$SPLINESEGS
 70
     8
  9
$ATTDIA
 70
     0
  9
$ATTREQ
 70
     1
  9
$HANDLING
 70
     1
  9
$HANDSEED
  5
66F
  9
$SURFTAB1
 70
     6
  9
$SURFTAB2
 70
     6
  9
$SURFTYPE
 70
     6
  9
$SURFU
 70
     6
  9
$SURFV
 70
     6
  9
$UCSNAME
  2

  9
$UCSORG
 10
0.0
 20
0.0
 30
0.0
  9
$UCSXDIR
 10
1.0
 20
0.0
 30
0.0
  9
$UCSYDIR
 10
0.0
 20
1.0
 30
0.0
  9
$PUCSNAME
  2

  9
$PUCSORG
 10
0.0
 20
0.0
 30
0.0
  9
$PUCSXDIR
 10
1.0
 20
0.0
 30
0.0
  9
$PUCSYDIR
 10
0.0
 20
1.0
 30
0.0
  9
$USERI1
 70
     0
  9
$USERI2
 70
     0
  9
$USERI3
 70
     0
  9
$USERI4
 70
     0
  9
$USERI5
 70
     0
  9
$USERR1
 40
0.0
  9
$USERR2
 40
0.0
  9
$USERR3
 40
0.0
  9
$USERR4
 40
0.0
  9
$USERR5
 40
0.0
  9
$WORLDVIEW
 70
     1
  9
$SHADEDGE
 70
     3
  9
$SHADEDIF
 70
    70
  9
$TILEMODE
 70
     1
  9
$MAXACTVP
 70
    16
  9
$PINSBASE
 10
0.0
 20
0.0
 30
0.0
  9
$PLIMCHECK
 70
     0
  9
$PEXTMIN
 10
1.000000E+20
 20
1.000000E+20
 30
1.000000E+20
  9
$PEXTMAX
 10
-1.000000E+20
 20
-1.000000E+20
 30
-1.000000E+20
  9
$PLIMMIN
 10
0.0
 20
0.0
  9
$PLIMMAX
 10
12.0
 20
9.0
  9
$UNITMODE
 70
     0
  9
$VISRETAIN
 70
     0
  9
$PLINEGEN
 70
     1
  9
$PSLTSCALE
 70
     0
  9
$TREEDEPTH
 70
  3020
  9
$PICKSTYLE
 70
     1
  9
$CMLSTYLE
  2
Standard
  9
$CMLJUST
 70
     0
  9
$CMLSCALE
 40
1.0
  9
$PROXYGRAPHICS
 70
     0
  9
$MEASUREMENT
 70
     0
  0
ENDSEC
  0
SECTION
  2
CLASSES
  0
CLASS
  1
LWPOLYLINE
  2
AcDbPolyline
  3
"AutoCAD"
 90
        0
280
     0
281
     1
  0
CLASS
  1
IMAGE
  2
AcDbRasterImage
  3
ISM
 90
      127
280
     0
281
     1
  0
CLASS
  1
OLE2FRAME
  2
AcDbOle2Frame
  3
""
 90
        0
280
     0
281
     1
  0
CLASS
  1
HATCH
  2
AcDbHatch
  3
"ACAD_SEDONA"
 90
        0
280
     0
281
     1
  0
CLASS
  1
DICTIONARYVAR
  2
AcDbDictionaryVar
  3
"AutoCAD"
 90
        0
280
     0
281
     0
  0
CLASS
  1
RASTERVARIABLES
  2
AcDbRasterVariables
  3
ISM
 90
        0
280
     0
281
     0
  0
CLASS
  1
IMAGEDEF
  2
AcDbRasterImageDef
  3
ISM
 90
        0
280
     0
281
     0
  0
CLASS
  1
IMAGEDEF_REACTOR
  2
AcDbRasterImageDefReactor
  3
ISM
 90
        1
280
     0
281
     0
  0
CLASS
  1
IDBUFFER
  2
AcDbIdBuffer
  3
"Acad"
 90
        0
280
     0
281
     0
  0
CLASS
  1
SPATIAL_FILTER
  2
AcDbSpatialFilter
  3
"Acad"
 90
        0
280
     0
281
     0
  0
CLASS
  1
XRECORD
  2
AcDbXrecord
  3
"<Built In>"
 90
        0
280
     0
281
     0
  0
CLASS
  1
SORTENTSTABLE
  2
AcDbSortentsTable
  3
"AutoCAD"
 90
        0
280
     0
281
     0
  0
CLASS
  1
LAYER_INDEX
  2
AcDbLayerIndex
  3
"Acad"
 90
        0
280
     0
281
     0
  0
CLASS
  1
SPATIAL_INDEX
  2
AcDbSpatialIndex
  3
"Acad"
 90
        0
280
     0
281
     0
  0
CLASS
  1
OBJECT_PTR
  2
CAseDLPNTableRecord
  3
"ASE-LPNTableRecord"
 90
        1
280
     0
281
     0
  0
CLASS
  1
LAYOUT
  2
AcDbLayout
  3
"AutoCAD 2000"
 90
        0
280
     0
281
     0
  0
CLASS
  1
PLOTSETTINGS
  2
AcDbPlotSettings
  3
"AutoCAD 2000"
 90
        0
280
     0
281
     0
  0
CLASS
  1
ACDBDICTIONARYWDFLT
  2
AcDbDictionaryWithDefault
  3
"AutoCAD 2000"
 90
        0
280
     0
281
     0
  0
CLASS
  1
ACDBPLACEHOLDER
  2
AcDbPlaceHolder
  3
"AutoCAD 2000"
 90
        0
280
     0
281
     0
  0
CLASS
  1
VBA_PROJECT
  2
AcDbVbaProject
  3
"acadvba"
 90
        0
280
     0
281
     0
  0
CLASS
  1
WIPEOUT
  2
AcDbWipeout
  3
WipeOut|AutoCAD Express Tool|expresstools@autodesk.com
 90
      127
280
     0
281
     1
  0
CLASS
  1
WIPEOUTVARIABLES
  2
AcDbWipeoutVariables
  3
WipeOut|AutoCAD Express Tool|expresstools@autodesk.com
 90
        0
280
     0
281
     0
  0
CLASS
  1
RTEXT
  2
RText
  3
RText|AutoCAD Express Tool|expresstools@autodesk.com
 90
        0
280
     0
281
     1
  0
CLASS
  1
ARCALIGNEDTEXT
  2
AcDbArcAlignedText
  3
ATEXT|AutoCAD Express Tool|expresstools@autodesk.com
 90
        0
280
     0
281
     1
  0
ENDSEC
  0
SECTION
  2
TABLES
  0
TABLE
  2
VPORT
  5
7
100
AcDbSymbolTable
 70
     1
  0
VPORT
  5
15
100
AcDbSymbolTableRecord
100
AcDbViewportTableRecord
  2
*ACTIVE
 70
     0
 10
0.0
 20
0.0
 11
1.0
 21
1.0
 12
234.6
 22
191.187375
 13
0.0
 23
0.0
 14
1.0
 24
1.0
 15
0.0
 25
0.0
 16
0.0
 26
0.0
 36
1.0
 17
0.0
 27
0.0
 37
0.0
 40
370.774749
 41
1.722533
 42
50.0
 43
0.0
 44
0.0
 50
0.0
 51
0.0
 71
     0
 72
  1000
 73
     1
 74
     1
 75
     0
 76
     0
 77
     0
 78
     0
  0
ENDTAB
  0
TABLE
  2
LTYPE
  5
4
100
AcDbSymbolTable
 70
     9
  0
LTYPE
  5
11
100
AcDbSymbolTableRecord
100
AcDbLinetypeTableRecord
  2
BYBLOCK
 70
    64
  3

 72
    65
 73
     0
 40
0.0
  0
LTYPE
  5
12
100
AcDbSymbolTableRecord
100
AcDbLinetypeTableRecord
  2
BYLAYER
 70
    64
  3

 72
    65
 73
     0
 40
0.0
  0
LTYPE
  5
13
100
AcDbSymbolTableRecord
100
AcDbLinetypeTableRecord
  2
CONTINUOUS
 70
    64
  3
実線
 72
    65
 73
     0
 40
0.0
  0
LTYPE
  5
1D
100
AcDbSymbolTableRecord
100
AcDbLinetypeTableRecord
  2
EXLTYPE1
 70
    64
  3
破線
 72
    65
 73
     2
 40
4.0
 49
3.0
 74
     0
 49
-1.0
 74
     0
  0
LTYPE
  5
1E
100
AcDbSymbolTableRecord
100
AcDbLinetypeTableRecord
  2
EXLTYPE2
 70
    64
  3
点線
 72
    65
 73
     2
 40
2.0
 49
1.0
 74
     0
 49
-1.0
 74
     0
  0
LTYPE
  5
1F
100
AcDbSymbolTableRecord
100
AcDbLinetypeTableRecord
  2
EXLTYPE3
 70
    64
  3
一点鎖線
 72
    65
 73
     4
 40
33.0
 49
30.0
 74
     0
 49
-1.0
 74
     0
 49
1.0
 74
     0
 49
-1.0
 74
     0
  0
LTYPE
  5
20
100
AcDbSymbolTableRecord
100
AcDbLinetypeTableRecord
  2
EXLTYPE4
 70
    64
  3
二点鎖線
 72
    65
 73
     6
 40
35.0
 49
30.0
 74
     0
 49
-1.0
 74
     0
 49
1.0
 74
     0
 49
-1.0
 74
     0
 49
1.0
 74
     0
 49
-1.0
 74
     0
  0
LTYPE
  5
21
100
AcDbSymbolTableRecord
100
AcDbLinetypeTableRecord
  2
EXLTYPE5
 70
    64
  3
三点鎖線
 72
    65
 73
     8
 40
37.0
 49
30.0
 74
     0
 49
-1.0
 74
     0
 49
1.0
 74
     0
 49
-1.0
 74
     0
 49
1.0
 74
     0
 49
-1.0
 74
     0
 49
1.0
 74
     0
 49
-1.0
 74
     0
  0
LTYPE
  5
22
100
AcDbSymbolTableRecord
100
AcDbLinetypeTableRecord
  2
EXLTYPE6
 70
    64
  3
四点鎖線
 72
    65
 73
    10
 40
39.0
 49
30.0
 74
     0
 49
-1.0
 74
     0
 49
1.0
 74
     0
 49
-1.0
 74
     0
 49
1.0
 74
     0
 49
-1.0
 74
     0
 49
1.0
 74
     0
 49
-1.0
 74
     0
 49
1.0
 74
     0
 49
-1.0
 74
     0
  0
ENDTAB
  0
TABLE
  2
LAYER
  5
2
100
AcDbSymbolTable
 70
     4
  0
LAYER
  5
14
100
AcDbSymbolTableRecord
100
AcDbLayerTableRecord
  2
0
 70
     0
 62
     7
  6
CONTINUOUS
  0
LAYER
  5
25
100
AcDbSymbolTableRecord
100
AcDbLayerTableRecord
  2
LAY-1
 70
    64
 62
     3
  6
CONTINUOUS
  0
LAYER
  5
26
100
AcDbSymbolTableRecord
100
AcDbLayerTableRecord
  2
LAY-2
 70
    64
 62
     7
  6
CONTINUOUS
  0
LAYER
  5
27
100
AcDbSymbolTableRecord
100
AcDbLayerTableRecord
  2
LAY-5
 70
    64
 62
     1
  6
CONTINUOUS
  0
ENDTAB
  0
TABLE
  2
STYLE
  5
3
100
AcDbSymbolTable
 70
     3
  0
STYLE
  5
17
100
AcDbSymbolTableRecord
100
AcDbTextStyleTableRecord
  2
STANDARD
 70
     0
 40
0.0
 41
1.0
 50
0.0
 71
     0
 42
0.0
  3
monotxt
  4
extfont
  0
STYLE
  5
23
100
AcDbSymbolTableRecord
100
AcDbTextStyleTableRecord
  2
EXCADSTD
 70
    64
 40
0.0
 41
1.0
 50
0.0
 71
     0
 42
0.2
  3
monotxt
  4
extfont
  0
STYLE
  5
24
100
AcDbSymbolTableRecord
100
AcDbTextStyleTableRecord
  2
EXCADVERT
 70
    68
 40
0.0
 41
1.0
 50
0.0
 71
     0
 42
0.286885
  3
monotxt
  4
extfont
  0
ENDTAB
  0
TABLE
  2
VIEW
  5
5
100
AcDbSymbolTable
 70
     0
  0
ENDTAB
  0
TABLE
  2
UCS
  5
6
100
AcDbSymbolTable
 70
     0
  0
ENDTAB
  0
TABLE
  2
APPID
  5
8
100
AcDbSymbolTable
 70
     1
  0
APPID
  5
16
100
AcDbSymbolTableRecord
100
AcDbRegAppTableRecord
  2
ACAD
 70
     0
  0
ENDTAB
  0
TABLE
  2
DIMSTYLE
  5
9
100
AcDbSymbolTable
 70
     1
  0
DIMSTYLE
105
18
100
AcDbSymbolTableRecord
100
AcDbDimStyleTableRecord
  2
STANDARD
 70
     0
  3

  4

  5

  6

  7

 40
1.0
 41
0.18
 42
0.0625
 43
0.38
 44
0.18
 45
0.0
 46
0.0
 47
0.0
 48
0.0
 71
     0
 72
     0
 73
     1
 74
     1
 75
     0
 76
     0
 77
     0
 78
     0
140
0.18
141
0.09
142
0.0
143
25.4
144
1.0
145
0.0
146
1.0
147
0.09
170
     0
171
     2
172
     1
173
     0
174
     0
175
     0
176
     0
177
     0
178
     0
270
     2
271
     4
272
     4
273
     2
274
     2
275
     0
280
     0
281
     0
282
     0
283
     1
284
     0
285
     0
286
     0
287
     3
288
     0
340
17
  0
ENDTAB
  0
TABLE
  2
BLOCK_RECORD
  5
1
100
AcDbSymbolTable
 70
    14
  0
BLOCK_RECORD
  5
A
100
AcDbSymbolTableRecord
100
AcDbBlockTableRecord
  2
*MODEL_SPACE
  0
BLOCK_RECORD
  5
B
100
AcDbSymbolTableRecord
100
AcDbBlockTableRecord
  2
*PAPER_SPACE
  0
BLOCK_RECORD
  5
28
100
AcDbSymbolTableRecord
100
AcDbBlockTableRecord
  2
_EX_NORM
  0
BLOCK_RECORD
  5
29
100
AcDbSymbolTableRecord
100
AcDbBlockTableRecord
  2
_EX_BNORM
  0
BLOCK_RECORD
  5
2A
100
AcDbSymbolTableRecord
100
AcDbBlockTableRecord
  2
_EX_BCIR
  0
BLOCK_RECORD
  5
2B
100
AcDbSymbolTableRecord
100
AcDbBlockTableRecord
  2
_EX_RCIVIL
  0
BLOCK_RECORD
  5
2C
100
AcDbSymbolTableRecord
100
AcDbBlockTableRecord
  2
_EX_SLANT
  0
BLOCK_RECORD
  5
2D
100
AcDbSymbolTableRecord
100
AcDbBlockTableRecord
  2
_EX_NONE
  0
BLOCK_RECORD
  5
2E
100
AcDbSymbolTableRecord
100
AcDbBlockTableRecord
  2
_EX_CIVIL
  0
BLOCK_RECORD
  5
2F
100
AcDbSymbolTableRecord
100
AcDbBlockTableRecord
  2
_EX_WCIR
  0
BLOCK_RECORD
  5
30
100
AcDbSymbolTableRecord
100
AcDbBlockTableRecord
  2
_EX_WCIR2
  0
BLOCK_RECORD
  5
31
100
AcDbSymbolTableRecord
100
AcDbBlockTableRecord
  2
_EX_WNORM
  0
BLOCK_RECORD
  5
32
100
AcDbSymbolTableRecord
100
AcDbBlockTableRecord
  2
_EX_NNORM
  0
BLOCK_RECORD
  5
33
100
AcDbSymbolTableRecord
100
AcDbBlockTableRecord
  2
_EX_BBOX
  0
BLOCK_RECORD
  5
34
100
AcDbSymbolTableRecord
100
AcDbBlockTableRecord
  2
_EX_WBOX
  0
BLOCK_RECORD
  5
35
100
AcDbSymbolTableRecord
100
AcDbBlockTableRecord
  2
_EX_INTEGRAL
  0
ENDTAB
  0
ENDSEC
  0
SECTION
  2
BLOCKS
  0
BLOCK
  5
D
100
AcDbEntity
  8
0
100
AcDbBlockBegin
  2
*MODEL_SPACE
 70
     0
 10
0.0
 20
0.0
 30
0.0
  3
*MODEL_SPACE
  1

  0
ENDBLK
  5
E
100
AcDbEntity
  8
0
100
AcDbBlockEnd
  0
BLOCK
  5
F
100
AcDbEntity
 67
     1
  8
0
100
AcDbBlockBegin
  2
*PAPER_SPACE
 70
     0
 10
0.0
 20
0.0
 30
0.0
  3
*PAPER_SPACE
  1

  0
ENDBLK
  5
10
100
AcDbEntity
 67
     1
  8
0
100
AcDbBlockEnd
  0
BLOCK
  5
36
100
AcDbEntity
  8
0
100
AcDbBlockBegin
  2
_EX_NORM
 70
     0
 10
0.0
 20
0.0
 30
0.0
  3
_EX_NORM
  1

  0
LINE
  5
37
100
AcDbEntity
  8
0
  6
CONTINUOUS
 62
     0
100
AcDbLine
 10
0.0
 20
0.0
 30
0.0
 11
-1.0
 21
0.0
 31
0.0
  0
LINE
  5
38
100
AcDbEntity
  8
0
  6
CONTINUOUS
 62
     0
100
AcDbLine
 10
0.0
 20
0.0
 30
0.0
 11
-1.0
 21
0.166667
 31
0.0
  0
LINE
  5
39
100
AcDbEntity
  8
0
  6
CONTINUOUS
 62
     0
100
AcDbLine
 10
0.0
 20
0.0
 30
0.0
 11
-1.0
 21
-0.166667
 31
0.0
  0
ENDBLK
  5
3A
100
AcDbEntity
  8
0
100
AcDbBlockEnd
  0
BLOCK
  5
3B
100
AcDbEntity
  8
0
100
AcDbBlockBegin
  2
_EX_BNORM
 70
     0
 10
0.0
 20
0.0
 30
0.0
  3
_EX_BNORM
  1

  0
LINE
  5
3C
100
AcDbEntity
  8
0
  6
CONTINUOUS
 62
     0
100
AcDbLine
 10
0.0
 20
0.0
 30
0.0
 11
-1.0
 21
0.0
 31
0.0
  0
LINE
  5
3D
100
AcDbEntity
  8
0
  6
CONTINUOUS
 62
     0
100
AcDbLine
 10
0.0
 20
0.0
 30
0.0
 11
-1.0
 21
0.166667
 31
0.0
  0
LINE
  5
3E
100
AcDbEntity
  8
0
  6
CONTINUOUS
 62
     0
100
AcDbLine
 10
0.0
 20
0.0
 30
0.0
 11
-1.0
 21
-0.166667
 31
0.0
  0
LINE
  5
3F
100
AcDbEntity
  8
0
  6
CONTINUOUS
 62
     0
100
AcDbLine
 10
0.0
 20
0.0
 30
0.0
 11
-1.0
 21
0.083333
 31
0.0
  0
LINE
  5
40
100
AcDbEntity
  8
0
  6
CONTINUOUS
 62
     0
100
AcDbLine
 10
0.0
 20
0.0
 30
0.0
 11
-1.0
 21
-0.083333
 31
0.0
  0
LINE
  5
41
100
AcDbEntity
  8
0
  6
CONTINUOUS
 62
     0
100
AcDbLine
 10
-1.0
 20
0.166667
 30
0.0
 11
-1.0
 21
-0.166667
 31
0.0
  0
ENDBLK
  5
42
100
AcDbEntity
  8
0
100
AcDbBlockEnd
  0
BLOCK
  5
43
100
AcDbEntity
  8
0
100
AcDbBlockBegin
  2
_EX_BCIR
 70
     0
 10
0.0
 20
0.0
 30
0.0
  3
_EX_BCIR
  1

  0
LINE
  5
44
100
AcDbEntity
  8
0
  6
CONTINUOUS
 62
     0
100
AcDbLine
 10
0.0
 20
0.0
 30
0.0
 11
-1.0
 21
0.0
 31
0.0
  0
CIRCLE
  5
45
100
AcDbEntity
  8
0
  6
CONTINUOUS
 62
     0
100
AcDbCircle
 10
0.0
 20
0.0
 30
0.0
 40
0.5
  0
CIRCLE
  5
46
100
AcDbEntity
  8
0
  6
CONTINUOUS
 62
     0
100
AcDbCircle
 10
0.0
 20
0.0
 30
0.0
 40
0.25
  0
ENDBLK
  5
47
100
AcDbEntity
  8
0
100
AcDbBlockEnd
  0
BLOCK
  5
48
100
AcDbEntity
  8
0
100
AcDbBlockBegin
  2
_EX_RCIVIL
 70
     0
 10
0.0
 20
0.0
 30
0.0
  3
_EX_RCIVIL
  1

  0
LINE
  5
49
100
AcDbEntity
  8
0
  6
CONTINUOUS
 62
     0
100
AcDbLine
 10
0.0
 20
0.0
 30
0.0
 11
-1.0
 21
0.0
 31
0.0
  0
LINE
  5
4A
100
AcDbEntity
  8
0
  6
CONTINUOUS
 62
     0
100
AcDbLine
 10
-1.0
 20
-0.25
 30
0.0
 11
0.0
 21
-0.25
 31
0.0
  0
LINE
  5
4B
100
AcDbEntity
  8
0
  6
CONTINUOUS
 62
     0
100
AcDbLine
 10
-1.0
 20
-0.125
 30
0.0
 11
0.0
 21
-0.125
 31
0.0
  0
ENDBLK
  5
4C
100
AcDbEntity
  8
0
100
AcDbBlockEnd
  0
BLOCK
  5
4D
100
AcDbEntity
  8
0
100
AcDbBlockBegin
  2
_EX_SLANT
 70
     0
 10
0.0
 20
0.0
 30
0.0
  3
_EX_SLANT
  1

  0
LINE
  5
4E
100
AcDbEntity
  8
0
  6
CONTINUOUS
 62
     0
100
AcDbLine
 10
0.0
 20
0.0
 30
0.0
 11
-1.0
 21
0.0
 31
0.0
  0
LINE
  5
4F
100
AcDbEntity
  8
0
  6
CONTINUOUS
 62
     0
100
AcDbLine
 10
0.707107
 20
0.707107
 30
0.0
 11
-0.707107
 21
-0.707107
 31
0.0
  0
ENDBLK
  5
50
100
AcDbEntity
  8
0
100
AcDbBlockEnd
  0
BLOCK
  5
51
100
AcDbEntity
  8
0
100
AcDbBlockBegin
  2
_EX_NONE
 70
     0
 10
0.0
 20
0.0
 30
0.0
  3
_EX_NONE
  1

  0
LINE
  5
52
100
AcDbEntity
  8
0
  6
CONTINUOUS
 62
     0
100
AcDbLine
 10
0.0
 20
0.0
 30
0.0
 11
-1.0
 21
0.0
 31
0.0
  0
ENDBLK
  5
53
100
AcDbEntity
  8
0
100
AcDbBlockEnd
  0
BLOCK
  5
54
100
AcDbEntity
  8
0
100
AcDbBlockBegin
  2
_EX_CIVIL
 70
     0
 10
0.0
 20
0.0
 30
0.0
  3
_EX_CIVIL
  1

  0
LINE
  5
55
100
AcDbEntity
  8
0
  6
CONTINUOUS
 62
     0
100
AcDbLine
 10
0.0
 20
0.0
 30
0.0
 11
-1.0
 21
0.0
 31
0.0
  0
LINE
  5
56
100
AcDbEntity
  8
0
  6
CONTINUOUS
 62
     0
100
AcDbLine
 10
-1.0
 20
0.25
 30
0.0
 11
0.0
 21
0.25
 31
0.0
  0
LINE
  5
57
100
AcDbEntity
  8
0
  6
CONTINUOUS
 62
     0
100
AcDbLine
 10
-1.0
 20
0.125
 30
0.0
 11
0.0
 21
0.125
 31
0.0
  0
ENDBLK
  5
58
100
AcDbEntity
  8
0
100
AcDbBlockEnd
  0
BLOCK
  5
59
100
AcDbEntity
  8
0
100
AcDbBlockBegin
  2
_EX_WCIR
 70
     0
 10
0.0
 20
0.0
 30
0.0
  3
_EX_WCIR
  1

  0
LINE
  5
5A
100
AcDbEntity
  8
0
  6
CONTINUOUS
 62
     0
100
AcDbLine
 10
0.0
 20
0.0
 30
0.0
 11
-1.0
 21
0.0
 31
0.0
  0
CIRCLE
  5
5B
100
AcDbEntity
  8
0
  6
CONTINUOUS
 62
     0
100
AcDbCircle
 10
0.0
 20
0.0
 30
0.0
 40
0.5
  0
ENDBLK
  5
5C
100
AcDbEntity
  8
0
100
AcDbBlockEnd
  0
BLOCK
  5
5D
100
AcDbEntity
  8
0
100
AcDbBlockBegin
  2
_EX_WCIR2
 70
     0
 10
0.0
 20
0.0
 30
0.0
  3
_EX_WCIR2
  1

  0
LINE
  5
5E
100
AcDbEntity
  8
0
  6
CONTINUOUS
 62
     0
100
AcDbLine
 10
-0.5
 20
0.0
 30
0.0
 11
-1.0
 21
0.0
 31
0.0
  0
CIRCLE
  5
5F
100
AcDbEntity
  8
0
  6
CONTINUOUS
 62
     0
100
AcDbCircle
 10
0.0
 20
0.0
 30
0.0
 40
0.5
  0
ENDBLK
  5
60
100
AcDbEntity
  8
0
100
AcDbBlockEnd
  0
BLOCK
  5
61
100
AcDbEntity
  8
0
100
AcDbBlockBegin
  2
_EX_WNORM
 70
     0
 10
0.0
 20
0.0
 30
0.0
  3
_EX_WNORM
  1

  0
LINE
  5
62
100
AcDbEntity
  8
0
  6
CONTINUOUS
 62
     0
100
AcDbLine
 10
-1.0
 20
0.0
 30
0.0
 11
-1.0
 21
0.0
 31
0.0
  0
LINE
  5
63
100
AcDbEntity
  8
0
  6
CONTINUOUS
 62
     0
100
AcDbLine
 10
0.0
 20
0.0
 30
0.0
 11
-1.0
 21
0.166667
 31
0.0
  0
LINE
  5
64
100
AcDbEntity
  8
0
  6
CONTINUOUS
 62
     0
100
AcDbLine
 10
0.0
 20
0.0
 30
0.0
 11
-1.0
 21
-0.166667
 31
0.0
  0
LINE
  5
65
100
AcDbEntity
  8
0
  6
CONTINUOUS
 62
     0
100
AcDbLine
 10
-1.0
 20
0.166667
 30
0.0
 11
-1.0
 21
-0.166667
 31
0.0
  0
ENDBLK
  5
66
100
AcDbEntity
  8
0
100
AcDbBlockEnd
  0
BLOCK
  5
67
100
AcDbEntity
  8
0
100
AcDbBlockBegin
  2
_EX_NNORM
 70
     0
 10
0.0
 20
0.0
 30
0.0
  3
_EX_NNORM
  1

  0
LINE
  5
68
100
AcDbEntity
  8
0
  6
CONTINUOUS
 62
     0
100
AcDbLine
 10
0.0
 20
0.0
 30
0.0
 11
-1.0
 21
0.0
 31
0.0
  0
LINE
  5
69
100
AcDbEntity
  8
0
  6
CONTINUOUS
 62
     0
100
AcDbLine
 10
0.0
 20
0.0
 30
0.0
 11
-1.0
 21
0.166667
 31
0.0
  0
LINE
  5
6A
100
AcDbEntity
  8
0
  6
CONTINUOUS
 62
     0
100
AcDbLine
 10
0.0
 20
0.0
 30
0.0
 11
-1.0
 21
-0.166667
 31
0.0
  0
LINE
  5
6B
100
AcDbEntity
  8
0
  6
CONTINUOUS
 62
     0
100
AcDbLine
 10
-1.0
 20
0.166667
 30
0.0
 11
-1.0
 21
-0.166667
 31
0.0
  0
ENDBLK
  5
6C
100
AcDbEntity
  8
0
100
AcDbBlockEnd
  0
BLOCK
  5
6D
100
AcDbEntity
  8
0
100
AcDbBlockBegin
  2
_EX_BBOX
 70
     0
 10
0.0
 20
0.0
 30
0.0
  3
_EX_BBOX
  1

  0
LINE
  5
6E
100
AcDbEntity
  8
0
  6
CONTINUOUS
 62
     0
100
AcDbLine
 10
0.0
 20
0.0
 30
0.0
 11
-1.0
 21
0.0
 31
0.0
  0
LINE
  5
6F
100
AcDbEntity
  8
0
  6
CONTINUOUS
 62
     0
100
AcDbLine
 10
-0.5
 20
0.5
 30
0.0
 11
0.5
 21
0.5
 31
0.0
  0
LINE
  5
70
100
AcDbEntity
  8
0
  6
CONTINUOUS
 62
     0
100
AcDbLine
 10
0.5
 20
0.5
 30
0.0
 11
0.5
 21
-0.5
 31
0.0
  0
LINE
  5
71
100
AcDbEntity
  8
0
  6
CONTINUOUS
 62
     0
100
AcDbLine
 10
0.5
 20
-0.5
 30
0.0
 11
-0.5
 21
-0.5
 31
0.0
  0
LINE
  5
72
100
AcDbEntity
  8
0
  6
CONTINUOUS
 62
     0
100
AcDbLine
 10
-0.5
 20
-0.5
 30
0.0
 11
-0.5
 21
0.5
 31
0.0
  0
LINE
  5
73
100
AcDbEntity
  8
0
  6
CONTINUOUS
 62
     0
100
AcDbLine
 10
-0.25
 20
0.25
 30
0.0
 11
0.25
 21
0.25
 31
0.0
  0
LINE
  5
74
100
AcDbEntity
  8
0
  6
CONTINUOUS
 62
     0
100
AcDbLine
 10
0.25
 20
0.25
 30
0.0
 11
0.25
 21
-0.25
 31
0.0
  0
LINE
  5
75
100
AcDbEntity
  8
0
  6
CONTINUOUS
 62
     0
100
AcDbLine
 10
0.25
 20
-0.25
 30
0.0
 11
-0.25
 21
-0.25
 31
0.0
  0
LINE
  5
76
100
AcDbEntity
  8
0
  6
CONTINUOUS
 62
     0
100
AcDbLine
 10
-0.25
 20
-0.25
 30
0.0
 11
-0.25
 21
0.25
 31
0.0
  0
ENDBLK
  5
77
100
AcDbEntity
  8
0
100
AcDbBlockEnd
  0
BLOCK
  5
78
100
AcDbEntity
  8
0
100
AcDbBlockBegin
  2
_EX_WBOX
 70
     0
 10
0.0
 20
0.0
 30
0.0
  3
_EX_WBOX
  1

  0
LINE
  5
79
100
AcDbEntity
  8
0
  6
CONTINUOUS
 62
     0
100
AcDbLine
 10
-0.5
 20
0.0
 30
0.0
 11
-1.0
 21
0.0
 31
0.0
  0
LINE
  5
7A
100
AcDbEntity
  8
0
  6
CONTINUOUS
 62
     0
100
AcDbLine
 10
-0.5
 20
0.5
 30
0.0
 11
0.5
 21
0.5
 31
0.0
  0
LINE
  5
7B
100
AcDbEntity
  8
0
  6
CONTINUOUS
 62
     0
100
AcDbLine
 10
0.5
 20
0.5
 30
0.0
 11
0.5
 21
-0.5
 31
0.0
  0
LINE
  5
7C
100
AcDbEntity
  8
0
  6
CONTINUOUS
 62
     0
100
AcDbLine
 10
0.5
 20
-0.5
 30
0.0
 11
-0.5
 21
-0.5
 31
0.0
  0
LINE
  5
7D
100
AcDbEntity
  8
0
  6
CONTINUOUS
 62
     0
100
AcDbLine
 10
-0.5
 20
-0.5
 30
0.0
 11
-0.5
 21
0.5
 31
0.0
  0
ENDBLK
  5
7E
100
AcDbEntity
  8
0
100
AcDbBlockEnd
  0
BLOCK
  5
7F
100
AcDbEntity
  8
0
100
AcDbBlockBegin
  2
_EX_INTEGRAL
 70
     0
 10
0.0
 20
0.0
 30
0.0
  3
_EX_INTEGRAL
  1

  0
LINE
  5
80
100
AcDbEntity
  8
0
  6
CONTINUOUS
 62
     0
100
AcDbLine
 10
0.0
 20
0.0
 30
0.0
 11
-1.0
 21
0.0
 31
0.0
  0
ARC
  5
81
100
AcDbEntity
  8
0
  6
CONTINUOUS
 62
     0
100
AcDbCircle
 10
0.542115
 20
0.164992
 30
0.0
 40
0.56667
100
AcDbArc
 50
73.07249
 51
196.927513
  0
ARC
  5
82
100
AcDbEntity
  8
0
  6
CONTINUOUS
 62
     0
100
AcDbCircle
 10
-0.542115
 20
-0.164992
 30
0.0
 40
0.56667
100
AcDbArc
 50
253.072487
 51
16.927513
  0
ENDBLK
  5
83
100
AcDbEntity
  8
0
100
AcDbBlockEnd
  0
ENDSEC
  0
SECTION
  2
ENTITIES
  0
LINE
  5
84
100
AcDbEntity
  8
LAY-1
  6
CONTINUOUS
 62
     1
100
AcDbLine
 10
265.350248
 20
29.2
 30
0.0
 11
265.350248
 21
23.0
 31
0.0
  0
LINE
  5
85
100
AcDbEntity
  8
LAY-1
  6
CONTINUOUS
 62
     1
100
AcDbLine
 10
170.350248
 20
83.387375
 30
0.0
 11
170.350248
 21
23.0
 31
0.0
  0
TEXT
  5
86
100
AcDbEntity
  8
LAY-1
  6
CONTINUOUS
 62
     3
100
AcDbText
 10
213.350248
 20
24.5
 30
0.0
 40
4.5
  1
９５
 41
0.84
  7
EXCADSTD
 72
     5
 11
221.599648
 21
24.5
 31
0.0
100
AcDbText
  0
LINE
  5
87
100
AcDbEntity
  8
LAY-1
  6
CONTINUOUS
 62
     1
100
AcDbLine
 10
265.350248
 20
23.5
 30
0.0
 11
170.350248
 21
23.5
 31
0.0
  0
LINE
  5
88
100
AcDbEntity
  8
LAY-1
  6
CONTINUOUS
 62
     1
100
AcDbLine
 10
263.350248
 20
23.166667
 30
0.0
 11
265.350248
 21
23.5
 31
0.0
  0
LINE
  5
89
100
AcDbEntity
  8
LAY-1
  6
CONTINUOUS
 62
     1
100
AcDbLine
 10
265.350248
 20
23.5
 30
0.0
 11
263.350248
 21
23.833333
 31
0.0
  0
LINE
  5
8A
100
AcDbEntity
  8
LAY-1
  6
CONTINUOUS
 62
     1
100
AcDbLine
 10
172.350248
 20
23.833333
 30
0.0
 11
170.350248
 21
23.5
 31
0.0
  0
LINE
  5
8B
100
AcDbEntity
  8
LAY-1
  6
CONTINUOUS
 62
     1
100
AcDbLine
 10
170.350248
 20
23.5
 30
0.0
 11
172.350248
 21
23.166667
 31
0.0
  0
LINE
  5
8C
100
AcDbEntity
  8
LAY-1
  6
CONTINUOUS
 62
     1
100
AcDbLine
 10
261.850248
 20
37.387375
 30
0.0
 11
154.1
 21
37.387375
 31
0.0
  0
LINE
  5
8D
100
AcDbEntity
  8
LAY-1
  6
CONTINUOUS
 62
     1
100
AcDbLine
 10
168.050248
 20
87.887375
 30
0.0
 11
154.1
 21
87.887375
 31
0.0
  0
TEXT
  5
8E
100
AcDbEntity
  8
LAY-1
  6
CONTINUOUS
 62
     3
100
AcDbText
 10
153.6
 20
54.762375
 30
0.0
 40
4.5
  1
５０.５
 50
90.0
 41
0.77
  7
EXCADSTD
 72
     5
 11
153.6
 21
70.512375
 31
0.0
100
AcDbText
  0
LINE
  5
8F
100
AcDbEntity
  8
LAY-1
  6
CONTINUOUS
 62
     1
100
AcDbLine
 10
154.6
 20
37.387375
 30
0.0
 11
154.6
 21
87.887375
 31
0.0
  0
LINE
  5
90
100
AcDbEntity
  8
LAY-1
  6
CONTINUOUS
 62
     1
100
AcDbLine
 10
154.266667
 20
39.387375
 30
0.0
 11
154.6
 21
37.387375
 31
0.0
  0
LINE
  5
91
100
AcDbEntity
  8
LAY-1
  6
CONTINUOUS
 62
     1
100
AcDbLine
 10
154.6
 20
37.387375
 30
0.0
 11
154.933333
 21
39.387375
 31
0.0
  0
LINE
  5
92
100
AcDbEntity
  8
LAY-1
  6
CONTINUOUS
 62
     1
100
AcDbLine
 10
154.933333
 20
85.887375
 30
0.0
 11
154.6
 21
87.887375
 31
0.0
  0
LINE
  5
93
100
AcDbEntity
  8
LAY-1
  6
CONTINUOUS
 62
     1
100
AcDbLine
 10
154.6
 20
87.887375
 30
0.0
 11
154.266667
 21
85.887375
 31
0.0
  0
LINE
  5
94
100
AcDbEntity
  8
LAY-1
  6
CONTINUOUS
 62
     1
100
AcDbLine
 10
168.050248
 20
87.887375
 30
0.0
 11
154.1
 21
87.887375
 31
0.0
  0
LINE
  5
95
100
AcDbEntity
  8
LAY-1
  6
CONTINUOUS
 62
     1
100
AcDbLine
 10
246.744678
 20
140.587375
 30
0.0
 11
154.1
 21
140.587375
 31
0.0
  0
TEXT
  5
96
100
AcDbEntity
  8
LAY-1
  6
CONTINUOUS
 62
     3
100
AcDbText
 10
153.6
 20
106.362375
 30
0.0
 40
4.5
  1
５２.７
 50
90.0
 41
0.77
  7
EXCADSTD
 72
     5
 11
153.6
 21
122.112375
 31
0.0
100
AcDbText
  0
LINE
  5
97
100
AcDbEntity
  8
LAY-1
  6
CONTINUOUS
 62
     1
100
AcDbLine
 10
154.6
 20
87.887375
 30
0.0
 11
154.6
 21
140.587375
 31
0.0
  0
LINE
  5
98
100
AcDbEntity
  8
LAY-1
  6
CONTINUOUS
 62
     1
100
AcDbLine
 10
154.266667
 20
89.887375
 30
0.0
 11
154.6
 21
87.887375
 31
0.0
  0
LINE
  5
99
100
AcDbEntity
  8
LAY-1
  6
CONTINUOUS
 62
     1
100
AcDbLine
 10
154.6
 20
87.887375
 30
0.0
 11
154.933333
 21
89.887375
 31
0.0
  0
LINE
  5
9A
100
AcDbEntity
  8
LAY-1
  6
CONTINUOUS
 62
     1
100
AcDbLine
 10
154.933333
 20
138.587375
 30
0.0
 11
154.6
 21
140.587375
 31
0.0
  0
LINE
  5
9B
100
AcDbEntity
  8
LAY-1
  6
CONTINUOUS
 62
     1
100
AcDbLine
 10
154.6
 20
140.587375
 30
0.0
 11
154.266667
 21
138.587375
 31
0.0
  0
TEXT
  5
9C
100
AcDbEntity
  8
LAY-1
  6
CONTINUOUS
 62
     3
100
AcDbText
 10
296.585533
 20
22.715324
 30
0.0
 40
4.5
  1
迅速継手（カップリング）
 41
0.84
  7
EXCADSTD
 72
     5
 11
350.585533
 21
22.715324
 31
0.0
100
AcDbText
  0
POLYLINE
  5
9D
100
AcDbEntity
  8
LAY-1
  6
CONTINUOUS
 62
     1
100
AcDb2dPolyline
 66
     1
 10
0.0
 20
0.0
 30
0.0
 70
   128
  0
VERTEX
  5
9E
100
AcDbEntity
  8
LAY-1
  6
CONTINUOUS
 62
     1
100
AcDbVertex
100
AcDb2dVertex
 10
280.350248
 20
39.2
 30
0.0
  0
VERTEX
  5
9F
100
AcDbEntity
  8
LAY-1
  6
CONTINUOUS
 62
     1
100
AcDbVertex
100
AcDb2dVertex
 10
295.035533
 20
22.415324
 30
0.0
  0
VERTEX
  5
A0
100
AcDbEntity
  8
LAY-1
  6
CONTINUOUS
 62
     1
100
AcDbVertex
100
AcDb2dVertex
 10
350.935533
 20
22.415324
 30
0.0
  0
SEQEND
  5
A1
100
AcDbEntity
  8
LAY-1
  6
CONTINUOUS
 62
     1
  0
LINE
  5
A2
100
AcDbEntity
  8
LAY-1
  6
CONTINUOUS
 62
     1
100
AcDbLine
 10
281.918059
 20
37.914279
 30
0.0
 11
280.350248
 21
39.2
 31
0.0
  0
LINE
  5
A3
100
AcDbEntity
  8
LAY-1
  6
CONTINUOUS
 62
     1
100
AcDbLine
 10
280.350248
 20
39.2
 30
0.0
 11
281.416322
 21
37.475298
 31
0.0
  0
POLYLINE
  5
A4
100
AcDbEntity
  8
LAY-1
  6
CONTINUOUS
 62
     1
100
AcDb2dPolyline
 66
     1
 10
0.0
 20
0.0
 30
0.0
 70
   128
  0
VERTEX
  5
A5
100
AcDbEntity
  8
LAY-1
  6
CONTINUOUS
 62
     1
100
AcDbVertex
100
AcDb2dVertex
 10
172.350248
 20
95.787375
 30
0.0
  0
VERTEX
  5
A6
100
AcDbEntity
  8
LAY-1
  6
CONTINUOUS
 62
     1
100
AcDbVertex
100
AcDb2dVertex
 10
159.0
 20
117.0
 30
0.0
  0
VERTEX
  5
A7
100
AcDbEntity
  8
LAY-1
  6
CONTINUOUS
 62
     1
100
AcDbVertex
100
AcDb2dVertex
 10
218.4
 20
117.0
 30
0.0
  0
SEQEND
  5
A8
100
AcDbEntity
  8
LAY-1
  6
CONTINUOUS
 62
     1
  0
LINE
  5
A9
100
AcDbEntity
  8
LAY-1
  6
CONTINUOUS
 62
     1
100
AcDbLine
 10
171.002843
 20
97.302502
 30
0.0
 11
172.350248
 21
95.787375
 31
0.0
  0
LINE
  5
AA
100
AcDbEntity
  8
LAY-1
  6
CONTINUOUS
 62
     1
100
AcDbLine
 10
172.350248
 20
95.787375
 30
0.0
 11
171.567068
 21
97.6576
 31
0.0
  0
TEXT
  5
AB
100
AcDbEntity
  8
LAY-1
  6
CONTINUOUS
 62
     3
100
AcDbText
 10
159.65
 20
117.3
 30
0.0
 40
4.5
  1
迅速継手（コンセント継手）
 41
0.84
  7
EXCADSTD
 72
     5
 11
218.15
 21
117.3
 31
0.0
100
AcDbText
  0
LINE
  5
AC
100
AcDbEntity
  8
LAY-1
  6
EXLTYPE3
 62
     1
100
AcDbLine
 10
265.350248
 20
161.187375
 30
0.0
 11
265.350248
 21
244.787375
 31
0.0
  0
LINE
  5
AD
100
AcDbEntity
  8
LAY-1
  6
EXLTYPE3
 62
     1
100
AcDbLine
 10
305.501523
 20
202.887375
 30
0.0
 11
161.150248
 21
202.887375
 31
0.0
  0
LINE
  5
AE
100
AcDbEntity
  8
LAY-1
  6
EXLTYPE3
 62
     1
100
AcDbLine
 10
276.450248
 20
87.887375
 30
0.0
 11
168.050248
 21
87.887375
 31
0.0
  0
LINE
  5
AF
100
AcDbEntity
  8
LAY-1
  6
EXLTYPE3
 62
     1
100
AcDbLine
 10
265.350248
 20
29.2
 30
0.0
 11
265.350248
 21
144.387375
 31
0.0
  0
LINE
  5
B0
100
AcDbEntity
  8
LAY-1
  6
EXLTYPE3
 62
     1
100
AcDbLine
 10
276.450248
 20
317.887375
 30
0.0
 11
168.050248
 21
317.887375
 31
0.0
  0
LINE
  5
B1
100
AcDbEntity
  8
LAY-1
  6
EXLTYPE3
 62
     1
100
AcDbLine
 10
265.350248
 20
376.574749
 30
0.0
 11
265.350248
 21
261.387375
 31
0.0
  0
LINE
  5
B2
100
AcDbEntity
  8
LAY-1
  6
EXLTYPE3
 62
     1
100
AcDbLine
 10
388.012625
 20
220.987375
 30
0.0
 11
388.012625
 21
182.387375
 31
0.0
  0
LINE
  5
B3
100
AcDbEntity
  8
LAY-1
  6
EXLTYPE3
 62
     1
100
AcDbLine
 10
330.0
 20
202.887375
 30
0.0
 11
447.8
 21
202.887375
 31
0.0
  0
LINE
  5
B4
100
AcDbEntity
  8
LAY-1
  6
EXLTYPE3
 62
     1
100
AcDbLine
 10
81.187375
 20
220.987375
 30
0.0
 11
81.187375
 21
182.387375
 31
0.0
  0
LINE
  5
B5
100
AcDbEntity
  8
LAY-1
  6
EXLTYPE3
 62
     1
100
AcDbLine
 10
139.2
 20
202.887375
 30
0.0
 11
21.4
 21
202.887375
 31
0.0
  0
TEXT
  5
B6
100
AcDbEntity
  8
LAY-1
  6
CONTINUOUS
 62
     3
100
AcDbText
 10
331.670035
 20
78.898946
 30
0.0
 40
5.656854
  1
型式
 41
0.984714
  7
EXCADSTD
 72
     5
 11
343.82673
 21
78.898946
 31
0.0
100
AcDbText
  0
TEXT
  5
B7
100
AcDbEntity
  8
LAY-1
  6
CONTINUOUS
 62
     3
100
AcDbText
 10
331.534271
 20
70.934095
 30
0.0
 40
5.656854
  1
品名
 41
0.984714
  7
EXCADSTD
 72
     5
 11
343.690965
 21
70.934095
 31
0.0
100
AcDbText
  0
LINE
  5
B8
100
AcDbEntity
  8
LAY-1
  6
CONTINUOUS
 62
     4
100
AcDbLine
 10
329.0
 20
62.901362
 30
0.0
 11
430.370828
 21
62.901362
 31
0.0
  0
LINE
  5
B9
100
AcDbEntity
  8
LAY-1
  6
CONTINUOUS
 62
     1
100
AcDbLine
 10
329.0
 20
69.802724
 30
0.0
 11
430.370828
 21
69.802724
 31
0.0
  0
TEXT
  5
BA
100
AcDbEntity
  8
LAY-1
  6
CONTINUOUS
 62
     3
100
AcDbText
 10
365.022848
 20
63.648067
 30
0.0
 40
5.656854
  1
外観図
 41
1.47392
  7
EXCADSTD
 72
     5
 11
394.800528
 21
63.648067
 31
0.0
100
AcDbText
  0
LINE
  5
BB
100
AcDbEntity
  8
LAY-1
  6
CONTINUOUS
 62
     4
100
AcDbLine
 10
329.0
 20
93.561512
 30
0.0
 11
430.370828
 21
93.561512
 31
0.0
  0
LINE
  5
BC
100
AcDbEntity
  8
LAY-1
  6
CONTINUOUS
 62
     1
100
AcDbLine
 10
329.0
 20
77.72232
 30
0.0
 11
430.370828
 21
77.72232
 31
0.0
  0
LINE
  5
BD
100
AcDbEntity
  8
LAY-1
  6
CONTINUOUS
 62
     1
100
AcDbLine
 10
329.0
 20
85.641916
 30
0.0
 11
430.370828
 21
85.641916
 31
0.0
  0
LINE
  5
BE
100
AcDbEntity
  8
LAY-1
  6
CONTINUOUS
 62
     1
100
AcDbLine
 10
345.970563
 20
93.561512
 30
0.0
 11
345.970563
 21
69.802724
 31
0.0
  0
LINE
  5
BF
100
AcDbEntity
  8
LAY-1
  6
CONTINUOUS
 62
     4
100
AcDbLine
 10
329.0
 20
56.0
 30
0.0
 11
430.370828
 21
56.0
 31
0.0
  0
LINE
  5
C0
100
AcDbEntity
  8
LAY-1
  6
CONTINUOUS
 62
     4
100
AcDbLine
 10
430.370828
 20
56.0
 30
0.0
 11
430.370828
 21
93.561512
 31
0.0
  0
LINE
  5
C1
100
AcDbEntity
  8
LAY-1
  6
CONTINUOUS
 62
     4
100
AcDbLine
 10
329.0
 20
56.0
 30
0.0
 11
329.0
 21
93.561512
 31
0.0
  0
TEXT
  5
C2
100
AcDbEntity
  8
LAY-1
  6
CONTINUOUS
 62
     3
100
AcDbText
 10
351.763181
 20
86.637523
 30
0.0
 40
5.656854
  1
　　　年　　月　　日
 41
0.84
  7
EXCADSTD
 72
     5
 11
408.331723
 21
86.637523
 31
0.0
100
AcDbText
  0
TEXT
  5
C3
100
AcDbEntity
  8
LAY-1
  6
CONTINUOUS
 62
     3
100
AcDbText
 10
329.724077
 20
86.637523
 30
0.0
 40
5.656854
  1
作成日
 41
0.84
  7
EXCADSTD
 72
     5
 11
346.69464
 21
86.637523
 31
0.0
100
AcDbText
  0
HATCH
  5
C4
100
AcDbEntity
  8
LAY-1
  6
CONTINUOUS
 62
     3
100
AcDbHatch
 10
0.0
 20
0.0
 30
0.0
210
0.0
220
0.0
230
1.0
  2
SOLID
 70
     1
 71
     1
 91
        1
 92
        1
 93
       16
 72
     1
 10
400.34987406418139
 20
57.724168766250145
 11
401.42083779011853
 21
57.724168766250145
 72
     1
 10
401.42083779011853
 20
57.724168766250145
 11
401.42083779011853
 21
57.033224426935845
 72
     1
 10
401.42083779011853
 20
57.033224426935845
 11
398.55341878196418
 21
57.033224426935845
 72
     1
 10
398.55341878196418
 20
57.033224426935845
 11
398.55341878196418
 21
57.724168766250145
 72
     1
 10
398.55341878196418
 20
57.724168766250145
 11
399.65892972486711
 21
57.724168766250145
 72
     1
 10
399.65892972486711
 20
57.724168766250145
 11
399.65892972486711
 21
59.727907350261574
 72
     1
 10
399.65892972486711
 20
59.727907350261574
 11
398.79524930072421
 21
59.727907350261574
 72
     1
 10
398.79524930072421
 20
59.727907350261574
 11
398.79524930072421
 21
60.418851689575874
 72
     1
 10
398.79524930072421
 20
60.418851689575874
 11
399.65892972486711
 21
60.418851689575874
 72
     1
 10
399.65892972486711
 20
60.418851689575874
 11
399.65892972486711
 21
61.86983480213587
 72
     1
 10
399.65892972486711
 20
61.86983480213587
 11
400.34987406418139
 21
61.86983480213587
 72
     1
 10
400.34987406418139
 20
61.86983480213587
 11
400.34987406418139
 21
60.418851689575874
 72
     1
 10
400.34987406418139
 20
60.418851689575874
 11
401.35174335618711
 21
60.418851689575874
 72
     1
 10
401.35174335618711
 20
60.418851689575874
 11
401.35174335618711
 21
59.727907350261574
 72
     1
 10
401.35174335618711
 20
59.727907350261574
 11
400.34987406418139
 21
59.727907350261574
 72
     1
 10
400.34987406418139
 20
59.727907350261574
 11
400.34987406418139
 21
57.724168766250145
 97
        0
 75
     0
 76
     1
 98
        1
 10
0.0
 20
0.0
  0
HATCH
  5
C5
100
AcDbEntity
  8
LAY-1
  6
CONTINUOUS
 62
     3
100
AcDbHatch
 10
0.0
 20
0.0
 30
0.0
210
0.0
220
0.0
230
1.0
  2
SOLID
 70
     1
 71
     1
 91
        1
 92
        1
 93
       17
 72
     2
 10
393.09082956987061
 20
63.210827962022847
 40
6.2184990538285936
 50
44.165469
 51
51.472792
 73
     0
 72
     1
 10
396.96424680154132
 20
58.346018671633033
 11
396.61442068006227
 21
58.951935287849508
 72
     2
 10
393.09082956987061
 20
63.210827962022847
 40
5.527554714514304
 50
309.602625
 51
331.307968
 73
     1
 72
     1
 10
397.93967206403556
 20
60.557040557438739
 11
396.79151071671276
 21
60.557040557438739
 72
     1
 10
396.79151071671276
 20
60.557040557438739
 11
396.79151071671276
 21
61.17889046282157
 72
     1
 10
396.79151071671276
 20
61.17889046282157
 11
397.55154948995852
 21
61.17889046282157
 72
     1
 10
397.55154948995852
 20
61.17889046282157
 11
397.55154948995852
 21
61.86983480213587
 72
     1
 10
397.55154948995852
 20
61.86983480213587
 11
398.17339939534139
 21
61.86983480213587
 72
     1
 10
398.17339939534139
 20
61.86983480213587
 11
398.17339939534139
 21
61.17889046282157
 72
     1
 10
398.17339939534139
 20
61.17889046282157
 11
398.96798538555277
 21
61.17889046282157
 72
     2
 10
393.09082956987061
 20
63.210827962022847
 40
6.2184990538285936
 50
19.072051
 51
32.871988
 73
     0
 72
     1
 10
398.31365564851853
 20
59.835651191146738
 11
399.14072147038132
 21
59.036963010947289
 72
     1
 10
399.14072147038132
 20
59.036963010947289
 11
398.65207561949984
 21
58.548317160065778
 72
     1
 10
398.65207561949984
 20
58.548317160065778
 11
398.17339939534139
 21
59.010569416502662
 72
     1
 10
398.17339939534139
 20
59.010569416502662
 11
398.17339939534139
 21
57.033224426935845
 72
     1
 10
398.17339939534139
 20
57.033224426935845
 11
397.55154948995852
 21
57.033224426935845
 72
     1
 10
397.55154948995852
 20
57.033224426935845
 11
397.55154948995852
 21
58.878195012303038
 97
        0
 75
     0
 76
     1
 98
        1
 10
0.0
 20
0.0
  0
HATCH
  5
C6
100
AcDbEntity
  8
LAY-1
  6
CONTINUOUS
 62
     3
100
AcDbHatch
 10
0.0
 20
0.0
 30
0.0
210
0.0
220
0.0
230
1.0
  2
SOLID
 70
     1
 71
     1
 91
        1
 92
        1
 93
       12
 72
     2
 10
401.82928492762551
 20
53.884820537281399
 40
9.7423151843314599
 50
150.903074
 51
156.790773
 73
     1
 72
     1
 10
392.87539692700977
 20
57.724168766250102
 11
395.00265491696206
 21
57.724168766250173
 72
     2
 10
388.95994105898961
 20
55.986514859975813
 40
6.287593487760021
 50
16.043216
 51
21.362935
 73
     1
 72
     1
 10
394.81552444151851
 20
58.276924237701564
 11
395.47871647201561
 21
58.276924237701564
 72
     2
 10
388.95994105898961
 20
55.986514859975813
 40
6.9094433931428805
 50
340.64078
 51
351.286733
 73
     0
 72
     1
 10
395.78964142470699
 20
57.033224426935845
 11
391.95490034151271
 21
57.033224426935845
 72
     2
 10
401.82928492762551
 20
53.884820537281399
 40
10.364165089714319
 50
197.684652
 51
207.200855
 73
     0
 72
     1
 10
392.61129746386132
 20
58.622396407358735
 11
391.64397538882139
 21
58.622396407358735
 72
     1
 10
391.64397538882139
 20
58.622396407358735
 11
391.64397538882139
 21
59.31334074667302
 72
     1
 10
391.64397538882139
 20
59.31334074667302
 11
396.06601916043286
 21
59.31334074667302
 72
     1
 10
396.06601916043286
 20
59.31334074667302
 11
396.06601916043286
 21
58.622396407358735
 72
     1
 10
396.06601916043286
 20
58.622396407358735
 11
393.31646635642852
 21
58.622396407358735
 97
        0
 75
     0
 76
     1
 98
        1
 10
0.0
 20
0.0
  0
HATCH
  5
C7
100
AcDbEntity
  8
LAY-1
  6
CONTINUOUS
 62
     3
100
AcDbHatch
 10
0.0
 20
0.0
 30
0.0
210
0.0
220
0.0
230
1.0
  2
SOLID
 70
     1
 71
     1
 91
        1
 92
        1
 93
       10
 72
     2
 10
401.87072451252402
 20
68.839992992234244
 40
11.055109429028608
 50
129.545698
 51
136.474664
 73
     0
 72
     1
 10
393.85499727462729
 20
61.226612577764115
 11
393.85499727462729
 21
61.86983480213587
 72
     1
 10
393.85499727462729
 20
61.86983480213587
 11
394.20046944428429
 21
61.86983480213587
 72
     2
 10
401.87072451252402
 20
68.839992992234244
 40
10.364165089714319
 50
222.262231
 51
237.763996
 73
     1
 72
     1
 10
396.34239689615856
 20
60.073379519918731
 11
395.89441748442812
 21
59.539498446580808
 72
     2
 10
401.87072451252402
 20
68.839992992234244
 40
11.055109429028608
 50
122.723968
 51
128.230009
 73
     0
 72
     1
 10
395.0296026514614
 20
60.155840980098134
 11
395.0296026514614
 21
59.624265699364429
 72
     1
 10
395.0296026514614
 20
59.624265699364429
 11
393.85499727462729
 21
59.624265699364429
 72
     1
 10
393.85499727462729
 20
59.624265699364429
 11
393.85499727462729
 21
60.315210038678714
 72
     1
 10
393.85499727462729
 20
60.315210038678714
 11
394.83200871469796
 21
60.315210038678714
 97
        0
 75
     0
 76
     1
 98
        1
 10
0.0
 20
0.0
  0
HATCH
  5
C8
100
AcDbEntity
  8
LAY-1
  6
CONTINUOUS
 62
     3
100
AcDbHatch
 10
0.0
 20
0.0
 30
0.0
210
0.0
220
0.0
230
1.0
  2
SOLID
 70
     1
 71
     1
 91
        1
 92
        1
 93
       10
 72
     2
 10
385.83927003673011
 20
68.839992992234244
 40
11.055109429028608
 50
51.769991
 51
57.276032
 73
     0
 72
     1
 10
391.81557706482602
 20
59.539498446580794
 11
391.36759765309563
 21
60.073379519918717
 72
     2
 10
385.83927003673011
 20
68.839992992234244
 40
10.364165089714319
 50
302.236004
 51
317.737769
 73
     1
 72
     1
 10
393.5095251049699
 20
61.86983480213587
 11
393.85499727462729
 21
61.86983480213587
 72
     1
 10
393.85499727462729
 20
61.86983480213587
 11
393.85499727462729
 21
61.226612577764527
 72
     2
 10
385.83927003673011
 20
68.839992992234244
 40
11.055109429028608
 50
43.525336
 51
50.454302
 73
     0
 72
     1
 10
392.87798583455623
 20
60.315210038678714
 11
393.85499727462729
 21
60.315210038678714
 72
     1
 10
393.85499727462729
 20
60.315210038678714
 11
393.85499727462729
 21
59.624265699364429
 72
     1
 10
393.85499727462729
 20
59.624265699364429
 11
392.68039189779279
 21
59.624265699364429
 72
     1
 10
392.68039189779279
 20
59.624265699364429
 11
392.68039189779279
 21
60.15584098009812
 97
        0
 75
     0
 76
     1
 98
        1
 10
0.0
 20
0.0
  0
HATCH
  5
C9
100
AcDbEntity
  8
LAY-1
  6
CONTINUOUS
 62
     3
100
AcDbHatch
 10
0.0
 20
0.0
 30
0.0
210
0.0
220
0.0
230
1.0
  2
SOLID
 70
     1
 71
     1
 91
        1
 92
        1
 93
       18
 72
     2
 10
380.75400032089095
 20
58.764793390016166
 40
9.6732207504000307
 50
14.02954
 51
18.723021
 73
     1
 72
     1
 10
389.9153276000024
 20
61.86983480213587
 11
390.64210609681561
 21
61.86983480213587
 72
     2
 10
380.75400032089095
 20
58.764793390016166
 40
10.364165089714319
 50
342.566782
 51
346.922981
 73
     0
 72
     1
 10
390.8493893986099
 20
61.109796028890159
 11
391.1257671343356
 21
61.109796028890159
 72
     1
 10
391.1257671343356
 20
61.109796028890159
 11
391.1257671343356
 21
60.41885168957586
 72
     1
 10
391.1257671343356
 20
60.41885168957586
 11
389.834014383691
 21
60.418851689575874
 72
     2
 10
396.99879401850706
 20
61.558909849444447
 40
7.2549155628000248
 50
189.041096
 51
204.65198
 73
     1
 72
     2
 10
391.8501031348593
 20
59.196002644515573
 40
1.5899046824519223
 50
204.65198
 51
242.897449
 73
     1
 72
     1
 10
391.1257671343356
 20
57.780681388535868
 11
391.1257671343356
 21
57.033224426935845
 72
     2
 10
391.8501031348593
 20
59.196002644515573
 40
2.2808490217662101
 50
108.516212
 51
155.34802
 73
     0
 72
     2
 10
396.99879401850706
 20
61.558909849444447
 40
7.9458599021143099
 50
155.34802
 51
171.750831
 73
     0
 72
     1
 10
389.13514620237584
 20
60.418851689575874
 11
386.49644006092996
 21
60.41885168957586
 72
     1
 10
386.49644006092996
 20
60.41885168957586
 11
386.49644006092996
 21
61.109796028890159
 72
     1
 10
386.49644006092996
 20
61.109796028890159
 11
389.0637741629933
 21
61.109796028890159
 72
     1
 10
389.0637741629933
 20
61.109796028890159
 11
389.03723302418803
 21
61.86983480213587
 72
     1
 10
389.03723302418803
 20
61.86983480213587
 11
389.72859852468508
 21
61.86983480213587
 72
     1
 10
389.72859852468508
 20
61.86983480213587
 11
389.75513966349041
 21
61.109796028890159
 72
     1
 10
389.75513966349041
 20
61.109796028890159
 11
390.13867731637902
 21
61.109796028890159
 97
        0
 75
     0
 76
     1
 98
        1
 10
0.0
 20
0.0
  0
HATCH
  5
CA
100
AcDbEntity
  8
LAY-1
  6
CONTINUOUS
 62
     3
100
AcDbHatch
 10
0.0
 20
0.0
 30
0.0
210
0.0
220
0.0
230
1.0
  2
SOLID
 70
     1
 71
     1
 91
        1
 92
        1
 93
       12
 72
     2
 10
384.32167803017421
 20
91.71920564767322
 40
33.856272626400113
 50
276.500664
 51
278.269357
 73
     1
 72
     1
 10
389.19112298425568
 20
58.214941710193528
 11
389.19112298425568
 21
57.516885464455868
 72
     2
 10
384.32167803017421
 20
91.71920564767322
 40
34.547216965714398
 50
81.897153
 51
86.39082
 73
     0
 72
     1
 10
386.49644006092996
 20
57.240507728730137
 11
386.49644006092996
 21
57.93285328073793
 72
     2
 10
384.32167803017421
 20
91.71920564767322
 40
33.856272626400113
 50
273.682937
 51
275.325087
 73
     1
 72
     1
 10
387.46376213596994
 20
58.0090513373584
 11
387.46376213596994
 21
59.106057444878701
 72
     1
 10
387.46376213596994
 20
59.106057444878701
 11
386.49644006092996
 21
59.106057444878701
 72
     1
 10
386.49644006092996
 20
59.106057444878701
 11
386.49644006092996
 21
59.797001784193
 72
     1
 10
386.49644006092996
 20
59.797001784193
 11
388.98383968246139
 21
59.797001784193
 72
     1
 10
388.98383968246139
 20
59.797001784193
 11
388.98383968246139
 21
59.106057444878701
 72
     1
 10
388.98383968246139
 20
59.106057444878701
 11
388.15470647528423
 21
59.106057444878701
 72
     1
 10
388.15470647528423
 20
59.106057444878701
 11
388.15470647528423
 21
58.080610417014313
 97
        0
 75
     0
 76
     1
 98
        1
 10
0.0
 20
0.0
  0
HATCH
  5
CB
100
AcDbEntity
  8
LAY-1
  6
CONTINUOUS
 62
     3
100
AcDbHatch
 10
0.0
 20
0.0
 30
0.0
210
0.0
220
0.0
230
1.0
  2
SOLID
 70
     1
 71
     1
 91
        1
 92
        1
 93
       30
 72
     2
 10
378.07679296533064
 20
62.974544646515938
 40
7.5658405154914519
 50
37.940537
 51
46.713808
 73
     0
 72
     1
 10
383.26425816203704
 20
57.467081751605832
 11
382.79988784559845
 21
57.93145206804445
 72
     2
 10
378.07679296533064
 20
62.974544646515938
 40
6.909443393142884
 50
313.123325
 51
325.95222
 73
     1
 72
     1
 10
383.80175713760411
 20
59.106057444878729
 11
382.97262393042706
 21
59.106057444878729
 72
     1
 10
382.97262393042706
 20
59.106057444878729
 11
382.97262393042706
 21
59.797001784193014
 72
     1
 10
382.97262393042706
 20
59.797001784193014
 11
384.04358765636425
 21
59.797001784193014
 72
     1
 10
384.04358765636425
 20
59.797001784193014
 11
384.04358765636425
 21
60.487946123507299
 72
     1
 10
384.04358765636425
 20
60.487946123507299
 11
383.69909734364103
 21
60.487946123507299
 72
     2
 10
376.31096929769325
 20
61.949432601412227
 40
7.5312932985257408
 50
11.189535
 51
14.746058
 73
     0
 72
     1
 10
383.59420780197655
 20
60.032451736055549
 11
383.00717114739274
 21
60.246115604747274
 72
     2
 10
376.31096929769325
 20
61.949432601412227
 40
6.909443393142884
 50
345.728313
 51
357.620387
 73
     1
 72
     1
 10
383.21445444918709
 20
61.662551500343639
 11
383.83185780076928
 21
61.553686631479877
 72
     2
 10
376.31096929769325
 20
61.949432601412227
 40
7.5312932985257408
 50
3.012102
 51
6.401006
 73
     0
 72
     1
 10
383.79531223308192
 20
61.109796028890159
 11
384.04358765636425
 21
61.109796028890159
 72
     1
 10
384.04358765636425
 20
61.109796028890159
 11
384.04358765636425
 21
61.86983480213587
 72
     1
 10
384.04358765636425
 20
61.86983480213587
 11
384.73453199567848
 21
61.86983480213587
 72
     1
 10
384.73453199567848
 20
61.86983480213587
 11
384.73453199567848
 21
61.109796028890159
 72
     1
 10
384.73453199567848
 20
61.109796028890159
 11
385.66730685375279
 21
61.109796028890159
 72
     1
 10
385.66730685375279
 20
61.109796028890159
 11
385.66730685375279
 21
60.487946123507299
 72
     1
 10
385.66730685375279
 20
60.487946123507299
 11
384.73453199567848
 21
60.487946123507299
 72
     1
 10
384.73453199567848
 20
60.487946123507299
 11
384.73453199567848
 21
59.797001784193014
 72
     1
 10
384.73453199567848
 20
59.797001784193014
 11
385.80549572161561
 21
59.797001784193014
 72
     1
 10
385.80549572161561
 20
59.797001784193014
 11
385.80549572161561
 21
59.106057444878729
 72
     1
 10
385.80549572161561
 20
59.106057444878729
 11
384.97636251443845
 21
59.106057444878729
 72
     2
 10
390.70132668671192
 20
62.974544646515938
 40
6.909443393142884
 50
214.04778
 51
226.876675
 73
     1
 72
     1
 10
385.97823180644411
 20
57.93145206804445
 11
385.51386149000547
 21
57.467081751605832
 72
     2
 10
390.70132668671192
 20
62.974544646515938
 40
7.5658405154914519
 50
133.286192
 51
142.059463
 73
     0
 72
     1
 10
384.73453199567848
 20
58.32273813496505
 11
384.73453199567848
 21
57.033224426935845
 72
     1
 10
384.73453199567848
 20
57.033224426935845
 11
384.04358765636425
 21
57.033224426935845
 72
     1
 10
384.04358765636425
 20
57.033224426935845
 11
384.04358765636425
 21
58.322738134965235
 97
        0
 75
     0
 76
     1
 98
        1
 10
0.0
 20
0.0
  0
HATCH
  5
CC
100
AcDbEntity
  8
LAY-1
  6
CONTINUOUS
 62
     3
100
AcDbHatch
 10
0.0
 20
0.0
 30
0.0
210
0.0
220
0.0
230
1.0
  2
SOLID
 70
     1
 71
     1
 91
        1
 92
        1
 93
       19
 72
     2
 10
375.23248911348486
 20
62.052372774130802
 40
7.5312932985257399
 50
27.683433
 51
32.280505
 73
     0
 72
     1
 10
381.59977282727147
 20
58.03017476103318
 11
381.10707421427844
 21
58.41511310556443
 72
     2
 10
375.23248911348486
 20
62.052372774130802
 40
6.9094433931428805
 50
328.236207
 51
344.845745
 73
     1
 72
     1
 10
381.90166020448981
 20
60.246115604747303
 11
381.27981029910706
 21
60.246115604747303
 72
     1
 10
381.27981029910706
 20
60.246115604747303
 11
381.27981029910706
 21
60.937059944061588
 72
     1
 10
381.27981029910706
 20
60.937059944061588
 11
381.90166020448993
 21
60.937059944061588
 72
     1
 10
381.90166020448993
 20
60.937059944061588
 11
381.90166020448993
 21
61.86983480213587
 72
     1
 10
381.90166020448993
 20
61.86983480213587
 11
382.59260454380421
 21
61.86983480213587
 72
     1
 10
382.59260454380421
 20
61.86983480213587
 11
382.59260454380421
 21
60.937059944061588
 72
     1
 10
382.59260454380421
 20
60.937059944061588
 11
382.90352949649565
 21
60.937059944061588
 72
     1
 10
382.90352949649565
 20
60.937059944061588
 11
382.90352949649565
 21
60.246115604747303
 72
     1
 10
382.90352949649565
 20
60.246115604747303
 11
382.59260454380416
 21
60.246115604747303
 72
     1
 10
382.59260454380416
 20
60.246115604747303
 11
382.97262393042706
 21
59.703391675218413
 72
     1
 10
382.97262393042706
 20
59.703391675218413
 11
382.97262393042706
 21
59.282753773641048
 72
     1
 10
382.97262393042706
 20
59.282753773641048
 11
382.76534062863271
 21
59.03572315404287
 72
     1
 10
382.76534062863271
 20
59.03572315404287
 11
382.59260454380421
 21
59.282415849283183
 72
     1
 10
382.59260454380421
 20
59.282415849283183
 11
382.59260454380421
 21
57.033224426935845
 72
     1
 10
382.59260454380421
 20
57.033224426935845
 11
381.90166020448993
 21
57.033224426935845
 72
     1
 10
381.90166020448993
 20
57.033224426935845
 11
381.90166020448993
 21
58.553439264142241
 97
        0
 75
     0
 76
     1
 98
        1
 10
0.0
 20
0.0
  0
HATCH
  5
CD
100
AcDbEntity
  8
LAY-1
  6
CONTINUOUS
 62
     3
100
AcDbHatch
 10
0.0
 20
0.0
 30
0.0
210
0.0
220
0.0
230
1.0
  2
SOLID
 70
     1
 71
     1
 91
        1
 92
        1
 93
        8
 72
     2
 10
378.13453081647833
 20
59.064600784519769
 40
1.354250905056011
 50
270.0
 51
330.0
 73
     1
 72
     2
 10
377.46435042397741
 20
59.451529614535758
 40
2.1281085650880103
 50
330.0
 51
30.0
 73
     1
 72
     2
 10
378.13453081647833
 20
59.838458444551776
 40
1.3542509050560103
 50
30.0
 51
90.0
 73
     1
 72
     1
 10
378.13453081647873
 20
61.192709349607782
 11
378.13453081647873
 21
61.966567009639931
 72
     2
 10
378.13453081647828
 20
59.838458444551918
 40
2.1281085650880067
 50
270.0
 51
330.0
 73
     0
 72
     2
 10
377.46435042397752
 20
59.4515296145359
 40
2.9019662251200131
 50
330.0
 51
30.0
 73
     0
 72
     2
 10
378.13453081647839
 20
59.064600784519683
 40
2.1281085650880041
 50
30.0
 51
90.0
 73
     0
 72
     1
 10
378.13453081647873
 20
56.93649221943167
 11
378.13453081647873
 21
57.710349879463749
 97
        0
 75
     0
 76
     1
 98
        1
 10
0.0
 20
0.0
  0
HATCH
  5
CE
100
AcDbEntity
  8
LAY-1
  6
CONTINUOUS
 62
     3
100
AcDbHatch
 10
0.0
 20
0.0
 30
0.0
210
0.0
220
0.0
230
1.0
  2
SOLID
 70
     1
 71
     1
 91
        1
 92
        1
 93
        8
 72
     2
 10
378.13453081647839
 20
59.064600784519683
 40
2.1281085650880041
 50
90.0
 51
150.0
 73
     0
 72
     2
 10
378.80471120897914
 20
59.45152961453573
 40
2.9019662251200158
 50
150.0
 51
210.0
 73
     0
 72
     2
 10
378.13453081647828
 20
59.838458444551918
 40
2.1281085650880067
 50
210.0
 51
270.0
 73
     0
 72
     1
 10
378.13453081647873
 20
61.966567009639931
 11
378.13453081647873
 21
61.192709349607782
 72
     2
 10
378.13453081647833
 20
59.838458444551776
 40
1.3542509050560103
 50
90.0
 51
150.0
 73
     1
 72
     2
 10
378.80471120897926
 20
59.451529614535758
 40
2.1281085650880112
 50
150.0
 51
210.0
 73
     1
 72
     2
 10
378.13453081647833
 20
59.064600784519769
 40
1.354250905056011
 50
210.0
 51
270.0
 73
     1
 72
     1
 10
378.13453081647873
 20
57.710349879463749
 11
378.13453081647873
 21
56.93649221943167
 97
        0
 75
     0
 76
     1
 98
        1
 10
0.0
 20
0.0
  0
HATCH
  5
CF
100
AcDbEntity
  8
LAY-1
  6
CONTINUOUS
 62
     3
100
AcDbHatch
 10
0.0
 20
0.0
 30
0.0
210
0.0
220
0.0
230
1.0
  2
SOLID
 70
     1
 71
     1
 91
        1
 92
        1
 93
        4
 72
     1
 10
375.13583238385434
 20
58.580939746999761
 11
374.36197472382236
 21
58.580939746999761
 72
     1
 10
374.36197472382236
 20
58.580939746999761
 11
374.36197472382236
 21
59.354797407031754
 72
     1
 10
374.36197472382236
 20
59.354797407031754
 11
375.13583238385434
 21
59.354797407031754
 72
     1
 10
375.13583238385434
 20
59.354797407031754
 11
375.13583238385434
 21
58.580939746999718
 97
        0
 75
     0
 76
     1
 98
        1
 10
0.0
 20
0.0
  0
HATCH
  5
D0
100
AcDbEntity
  8
LAY-1
  6
CONTINUOUS
 62
     3
100
AcDbHatch
 10
0.0
 20
0.0
 30
0.0
210
0.0
220
0.0
230
1.0
  2
SOLID
 70
     1
 71
     1
 91
        1
 92
        1
 93
       16
 72
     1
 10
371.46000849870234
 20
61.095977142103777
 11
370.39595421615832
 21
61.095977142103777
 72
     1
 10
370.39595421615832
 20
61.095977142103777
 11
370.20248980115031
 21
60.031922859559771
 72
     1
 10
370.20248980115031
 20
60.031922859559771
 11
369.62209655612634
 21
60.031922859559771
 72
     1
 10
369.62209655612634
 20
60.031922859559771
 11
369.62209655612634
 21
61.869834802135784
 72
     1
 10
369.62209655612634
 20
61.869834802135784
 11
374.07177810131037
 21
61.869834802135784
 72
     1
 10
374.07177810131037
 20
61.869834802135784
 11
374.07177810131037
 21
60.031922859559771
 72
     1
 10
374.07177810131037
 20
60.031922859559771
 11
373.49138485628634
 21
60.031922859559771
 72
     1
 10
373.49138485628634
 20
60.031922859559771
 11
373.29792044127834
 21
61.095977142103777
 72
     1
 10
373.29792044127834
 20
61.095977142103777
 11
372.23386615873432
 21
61.095977142103777
 72
     1
 10
372.23386615873432
 20
61.095977142103777
 11
372.23386615873437
 21
57.807082086967768
 72
     1
 10
372.23386615873437
 20
57.807082086967768
 11
373.00772381876635
 21
57.613617671959759
 72
     1
 10
373.00772381876635
 20
57.613617671959759
 11
373.00772381876635
 21
57.03322442693576
 72
     1
 10
373.00772381876635
 20
57.03322442693576
 11
370.68615083867036
 21
57.03322442693576
 72
     1
 10
370.68615083867036
 20
57.03322442693576
 11
370.68615083867036
 21
57.613617671959759
 72
     1
 10
370.68615083867036
 20
57.613617671959759
 11
371.46000849870234
 21
57.807082086967768
 72
     1
 10
371.46000849870234
 20
57.807082086967768
 11
371.46000849870234
 21
61.095977142103777
 97
        0
 75
     0
 76
     1
 98
        1
 10
0.0
 20
0.0
  0
HATCH
  5
D1
100
AcDbEntity
  8
LAY-1
  6
CONTINUOUS
 62
     3
100
AcDbHatch
 10
0.0
 20
0.0
 30
0.0
210
0.0
220
0.0
230
1.0
  2
SOLID
 70
     1
 71
     1
 91
        1
 92
        1
 93
        4
 72
     1
 10
368.55804227358232
 20
58.580939746999761
 11
368.55804227358237
 21
59.354797407031811
 72
     1
 10
368.55804227358237
 20
59.354797407031811
 11
369.3318999336143
 21
59.354797407031754
 72
     1
 10
369.3318999336143
 20
59.354797407031754
 11
369.3318999336143
 21
58.580939746999761
 72
     1
 10
369.3318999336143
 20
58.580939746999761
 11
368.55804227358237
 21
58.580939746999761
 97
        0
 75
     0
 76
     1
 98
        1
 10
0.0
 20
0.0
  0
HATCH
  5
D2
100
AcDbEntity
  8
LAY-1
  6
CONTINUOUS
 62
     3
100
AcDbHatch
 10
0.0
 20
0.0
 30
0.0
210
0.0
220
0.0
230
1.0
  2
SOLID
 70
     1
 71
     1
 91
        1
 92
        1
 93
       12
 72
     1
 10
367.6874524060463
 20
61.869834802135784
 11
367.6874524060463
 21
61.289441557111772
 72
     1
 10
367.6874524060463
 20
61.289441557111772
 11
366.91359474601433
 21
61.095977142103777
 72
     1
 10
366.91359474601433
 20
61.095977142103777
 11
366.91359474601433
 21
57.807082086967768
 72
     1
 10
366.91359474601433
 20
57.807082086967768
 11
367.6874524060463
 21
57.613617671959759
 72
     1
 10
367.6874524060463
 20
57.613617671959759
 11
367.6874524060463
 21
57.03322442693576
 72
     1
 10
367.6874524060463
 20
57.03322442693576
 11
365.36587942595031
 21
57.03322442693576
 72
     1
 10
365.36587942595031
 20
57.03322442693576
 11
365.36587942595031
 21
57.613617671959759
 72
     1
 10
365.36587942595031
 20
57.613617671959759
 11
366.13973708598229
 21
57.807082086967768
 72
     1
 10
366.13973708598229
 20
57.807082086967768
 11
366.13973708598229
 21
61.095977142103777
 72
     1
 10
366.13973708598229
 20
61.095977142103777
 11
365.36587942595031
 21
61.289441557111772
 72
     1
 10
365.36587942595031
 20
61.289441557111772
 11
365.36587942595031
 21
61.869834802135784
 72
     1
 10
365.36587942595031
 20
61.869834802135784
 11
367.6874524060463
 21
61.869834802135784
 97
        0
 75
     0
 76
     1
 98
        1
 10
0.0
 20
0.0
  0
HATCH
  5
D3
100
AcDbEntity
  8
LAY-1
  6
CONTINUOUS
 62
     3
100
AcDbHatch
 10
0.0
 20
0.0
 30
0.0
210
0.0
220
0.0
230
1.0
  2
SOLID
 70
     1
 71
     1
 91
        1
 92
        1
 93
       15
 72
     2
 10
360.10130447416975
 20
59.451529614535872
 40
2.1476697735661596
 50
124.301153
 51
180.0
 73
     0
 72
     1
 10
357.95363470060357
 20
59.451529614535986
 11
358.76403068952629
 21
59.451529614535986
 72
     2
 10
360.85365533407713
 20
59.451529614535886
 40
2.0896246445508617
 50
180.0
 51
199.464384
 73
     1
 72
     2
 10
358.84963954381777
 20
59.683329383659412
 40
0.9287220642448468
 50
272.086657
 51
294.619977
 73
     1
 72
     2
 10
359.11563574125381
 20
59.102878093506376
 40
0.2902256450765094
 50
294.619977
 51
0.0
 73
     1
 72
     1
 10
359.40586138633034
 20
59.102878093506376
 11
359.40586138633034
 21
59.451529614535986
 72
     1
 10
359.40586138633034
 20
59.451529614535986
 11
360.10240293451392
 21
59.451529614535986
 72
     1
 10
360.10240293451392
 20
59.451529614535986
 11
360.10240293451392
 21
59.102262258261391
 72
     2
 10
360.39262857959045
 20
59.102262258261391
 40
0.2902256450764975
 50
180.0
 51
245.380023
 73
     1
 72
     2
 10
360.65862477702655
 20
59.682713548414526
 40
0.9287220642449489
 50
245.380023
 51
267.913343
 73
     1
 72
     1
 10
360.6248090956517
 20
58.754607319414546
 11
360.6248090956517
 21
58.580471932368653
 72
     1
 10
360.6248090956517
 20
58.580471932368653
 11
358.95423708907384
 21
58.580471932368653
 72
     2
 10
360.85365533407725
 20
59.451529614535886
 40
2.0896246445508586
 50
204.635803
 51
268.19864
 73
     1
 72
     1
 10
360.78796907223358
 20
57.362937631854891
 11
360.78796907223358
 21
57.07229882403044
 72
     2
 10
360.85365533407713
 20
60.554387065826717
 40
3.4827077409181078
 50
91.080702
 51
124.301153
 73
     0
 97
        0
 75
     0
 76
     1
 98
        1
 10
0.0
 20
0.0
  0
HATCH
  5
D4
100
AcDbEntity
  8
LAY-1
  6
CONTINUOUS
 62
     3
100
AcDbHatch
 10
0.0
 20
0.0
 30
0.0
210
0.0
220
0.0
230
1.0
  2
SOLID
 70
     1
 71
     1
 91
        1
 92
        1
 93
       24
 72
     2
 10
360.45063151710269
 20
59.74175525961239
 40
0.2902256450765119
 50
90.0
 51
157.380135
 73
     1
 72
     2
 10
361.14717306528627
 20
59.4515296145359
 40
1.0448123222754324
 50
157.380135
 51
180.0
 73
     1
 72
     1
 10
360.10236074301082
 20
59.451529614535986
 11
359.40586138633034
 21
59.451529614535986
 72
     1
 10
359.40586138633034
 20
59.451529614535986
 11
359.40586138633034
 21
60.958322181541007
 72
     2
 10
360.85365533407713
 20
59.451529614535886
 40
2.0896246445508617
 50
133.856042
 51
180.0
 73
     1
 72
     1
 10
358.76403068952629
 20
59.451529614535986
 11
357.95363470060357
 21
59.451529614535986
 72
     2
 10
360.10130447416975
 20
59.451529614535872
 40
2.1476697735661596
 50
180.0
 51
235.698847
 73
     0
 72
     2
 10
360.85365533407725
 20
58.348672163245027
 40
3.4827077409181153
 50
235.698847
 51
245.436008
 73
     0
 72
     1
 10
359.40586138633034
 20
61.516186313729349
 11
359.40586138633034
 21
61.831614992470548
 72
     2
 10
359.11563574125381
 20
61.831614992470548
 40
0.2902256450765077
 50
0.0
 51
65.380023
 73
     1
 72
     2
 10
358.84963954381777
 20
61.251163702317513
 40
0.9287220642448258
 50
65.380023
 51
87.913343
 73
     1
 72
     1
 10
358.88345522519262
 20
62.179269931317378
 11
358.88345522519262
 21
62.353405318363258
 72
     1
 10
358.88345522519262
 20
62.353405318363258
 11
360.6248090956517
 21
62.353405318363258
 72
     1
 10
360.6248090956517
 20
62.353405318363258
 11
360.6248090956517
 21
62.179269931317378
 72
     2
 10
360.65862477702655
 20
61.251163702317513
 40
0.9287220642448301
 50
92.086657
 51
114.619977
 73
     1
 72
     2
 10
360.39262857959051
 20
61.831614992470548
 40
0.2902256450765119
 50
114.619977
 51
180.0
 73
     1
 72
     1
 10
360.10240293451398
 20
61.831614992470548
 11
360.10240293451398
 21
61.749388711386231
 72
     2
 10
360.85365533407713
 20
58.348672163245027
 40
3.4827077409181064
 50
257.542857
 51
268.919298
 73
     0
 72
     1
 10
360.78796907223358
 20
61.830760405041303
 11
360.78796907223358
 21
61.540121597216881
 72
     2
 10
360.85365533407725
 20
59.451529614535886
 40
2.0896246445508617
 50
91.80136
 51
111.070443
 73
     1
 72
     1
 10
360.10240293451392
 20
61.401440122037371
 11
360.10240293451392
 21
60.322206549765397
 72
     1
 10
360.10240293451392
 20
60.322206549765397
 11
360.78796907223364
 21
60.322206549765397
 72
     1
 10
360.78796907223364
 20
60.322206549765397
 11
360.78796907223358
 21
60.031980904688879
 72
     1
 10
360.78796907223358
 20
60.031980904688879
 11
360.45063151710269
 21
60.031980904688879
 97
        0
 75
     0
 76
     1
 98
        1
 10
0.0
 20
0.0
  0
HATCH
  5
D5
100
AcDbEntity
  8
LAY-1
  6
CONTINUOUS
 62
     3
100
AcDbHatch
 10
0.0
 20
0.0
 30
0.0
210
0.0
220
0.0
230
1.0
  2
SOLID
 70
     1
 71
     1
 91
        1
 92
        1
 93
       14
 72
     2
 10
360.85365533407713
 20
59.451529614535886
 40
2.0896246445508657
 50
0.0
 51
9.281799
 73
     1
 72
     2
 10
362.62949480718538
 20
59.74175525961239
 40
0.2902256450765059
 50
9.281799
 51
90.0
 73
     1
 72
     1
 10
362.62949480718538
 20
60.031980904688879
 11
362.0145579143832
 21
60.031980904688879
 72
     1
 10
362.0145579143832
 20
60.031980904688879
 11
362.0145579143832
 21
59.451529614535986
 72
     1
 10
362.0145579143832
 20
59.451529614535986
 11
361.31801636619957
 21
59.451529614535986
 72
     1
 10
361.31801636619957
 20
59.451529614535986
 11
361.31801636619957
 21
60.031980904688879
 72
     1
 10
361.31801636619957
 20
60.031980904688879
 11
360.78796907223358
 21
60.031980904688879
 72
     1
 10
360.78796907223358
 20
60.031980904688879
 11
360.78796907223358
 21
60.322206549765397
 72
     1
 10
360.78796907223358
 20
60.322206549765397
 11
362.75324814033166
 21
60.322206549765383
 72
     2
 10
360.85365533407725
 20
59.451529614535886
 40
2.0896246445508617
 50
24.624318
 51
91.80136
 73
     1
 72
     1
 10
360.78796907223358
 20
61.540121597216881
 11
360.78796907223358
 21
61.830760405041303
 72
     2
 10
360.85365533407713
 20
58.348672163245027
 40
3.4827077409181064
 50
268.919298
 51
304.301153
 73
     0
 72
     2
 10
361.60600619398463
 20
59.451529614535872
 40
2.1476697735661618
 50
304.301153
 51
0.0
 73
     0
 72
     1
 10
363.75367596755081
 20
59.451529614535986
 11
362.94327997862803
 21
59.451529614535986
 97
        0
 75
     0
 76
     1
 98
        1
 10
0.0
 20
0.0
  0
HATCH
  5
D6
100
AcDbEntity
  8
LAY-1
  6
CONTINUOUS
 62
     3
100
AcDbHatch
 10
0.0
 20
0.0
 30
0.0
210
0.0
220
0.0
230
1.0
  2
SOLID
 70
     1
 71
     1
 91
        1
 92
        1
 93
       19
 72
     2
 10
360.85365533407713
 20
59.451529614535886
 40
2.0896246445508657
 50
303.748989
 51
0.0
 73
     1
 72
     1
 10
362.94327997862803
 20
59.451529614535986
 11
363.75367596755081
 21
59.451529614535986
 72
     2
 10
361.60600619398463
 20
59.451529614535872
 40
2.1476697735661618
 50
0.0
 51
55.698847
 73
     0
 72
     2
 10
360.85365533407725
 20
60.554387065826717
 40
3.4827077409181131
 50
55.698847
 51
70.528779
 73
     0
 72
     1
 10
362.0145579143832
 20
57.270858718501273
 11
362.0145579143832
 21
57.071063489663516
 72
     2
 10
362.30478355945968
 20
57.071063489663516
 40
0.2902256450765094
 50
180.0
 51
245.380023
 73
     1
 72
     2
 10
362.57077975689577
 20
57.651514779816551
 40
0.9287220642448284
 50
245.380023
 51
267.913343
 73
     1
 72
     1
 10
362.53696407552093
 20
56.723408550816686
 11
362.53696407552093
 21
56.549273163770778
 72
     1
 10
362.53696407552093
 20
56.549273163770778
 11
360.79561020506191
 21
56.549273163770778
 72
     1
 10
360.79561020506191
 20
56.549273163770778
 11
360.79561020506191
 21
56.723408550816686
 72
     2
 10
360.761794523687
 20
57.651514779816551
 40
0.9287220642448284
 50
272.086657
 51
294.619977
 73
     1
 72
     2
 10
361.02779072112304
 20
57.071063489663516
 40
0.2902256450765094
 50
294.619977
 51
0.0
 73
     1
 72
     1
 10
361.31801636619957
 20
57.071063489663516
 11
361.31801636619957
 21
57.102775552272917
 72
     2
 10
360.85365533407713
 20
60.554387065826717
 40
3.4827077409181078
 50
82.337744
 51
91.080702
 73
     0
 72
     1
 10
360.78796907223358
 20
57.07229882403044
 11
360.78796907223358
 21
57.362937631854891
 72
     2
 10
360.85365533407725
 20
59.451529614535886
 40
2.0896246445508586
 50
268.19864
 51
282.839588
 73
     1
 72
     1
 10
361.31801636619957
 20
57.414153854652454
 11
361.31801636619957
 21
59.451529614535986
 72
     1
 10
361.31801636619957
 20
59.451529614535986
 11
362.0145579143832
 21
59.451529614535986
 72
     1
 10
362.0145579143832
 20
59.451529614535986
 11
362.0145579143832
 21
57.714049728565072
 97
        0
 75
     0
 76
     1
 98
        1
 10
0.0
 20
0.0
  0
TEXT
  5
D7
100
AcDbEntity
  8
LAY-1
  6
CONTINUOUS
 62
     3
100
AcDbText
 10
348.771837
 20
70.938621
 30
0.0
 40
5.656854
  1
高性能型単段式調整器
 41
0.84
  7
EXCADSTD
 72
     5
 11
405.340378
 21
70.938621
 31
0.0
100
AcDbText
  0
TEXT
  5
D8
100
AcDbEntity
  8
LAY-1
  6
CONTINUOUS
 62
     3
100
AcDbText
 10
315.7
 20
198.387375
 30
0.0
 40
4.5
  1
７４
 50
90.0
 41
0.84
  7
EXCADSTD
 72
     5
 11
315.7
 21
206.636775
 31
0.0
100
AcDbText
  0
LINE
  5
D9
100
AcDbEntity
  8
LAY-1
  6
CONTINUOUS
 62
     1
100
AcDbLine
 10
265.350248
 20
165.887375
 30
0.0
 11
317.2
 21
165.887375
 31
0.0
  0
LINE
  5
DA
100
AcDbEntity
  8
LAY-1
  6
CONTINUOUS
 62
     1
100
AcDbLine
 10
265.350248
 20
239.887375
 30
0.0
 11
317.2
 21
239.887375
 31
0.0
  0
LINE
  5
DB
100
AcDbEntity
  8
LAY-1
  6
CONTINUOUS
 62
     1
100
AcDbLine
 10
316.7
 20
165.887375
 30
0.0
 11
316.7
 21
239.887375
 31
0.0
  0
LINE
  5
DC
100
AcDbEntity
  8
LAY-1
  6
CONTINUOUS
 62
     1
100
AcDbLine
 10
316.366667
 20
167.887375
 30
0.0
 11
316.7
 21
165.887375
 31
0.0
  0
LINE
  5
DD
100
AcDbEntity
  8
LAY-1
  6
CONTINUOUS
 62
     1
100
AcDbLine
 10
316.7
 20
165.887375
 30
0.0
 11
317.033333
 21
167.887375
 31
0.0
  0
LINE
  5
DE
100
AcDbEntity
  8
LAY-1
  6
CONTINUOUS
 62
     1
100
AcDbLine
 10
317.033333
 20
237.887375
 30
0.0
 11
316.7
 21
239.887375
 31
0.0
  0
LINE
  5
DF
100
AcDbEntity
  8
LAY-1
  6
CONTINUOUS
 62
     1
100
AcDbLine
 10
316.7
 20
239.887375
 30
0.0
 11
316.366667
 21
237.887375
 31
0.0
  0
ARC
  5
E0
100
AcDbEntity
  8
LAY-1
  6
CONTINUOUS
 62
     7
100
AcDbCircle
 10
301.350248
 20
107.385954
 30
0.0
 40
1.0
100
AcDbArc
 50
271.527036
 51
0.0
  0
ARC
  5
E1
100
AcDbEntity
  8
LAY-1
  6
CONTINUOUS
 62
     7
100
AcDbCircle
 10
301.456842
 20
103.387375
 30
0.0
 40
3.0
100
AcDbArc
 50
91.527036
 51
156.64555
  0
ARC
  5
E2
100
AcDbEntity
  8
LAY-1
  6
CONTINUOUS
 62
     7
100
AcDbCircle
 10
293.653247
 20
106.756929
 30
0.0
 40
5.5
100
AcDbArc
 50
272.0
 51
336.64555
  0
LINE
  5
E3
100
AcDbEntity
  8
LAY-1
  6
CONTINUOUS
 62
     7
100
AcDbLine
 10
288.615275
 20
101.077647
 30
0.0
 11
293.845194
 21
101.260279
 31
0.0
  0
ARC
  5
E4
100
AcDbEntity
  8
LAY-1
  6
CONTINUOUS
 62
     7
100
AcDbCircle
 10
288.685074
 20
99.078865
 30
0.0
 40
2.0
100
AcDbArc
 50
92.0
 51
178.0
  0
LINE
  5
E5
100
AcDbEntity
  8
LAY-1
  6
CONTINUOUS
 62
     7
100
AcDbLine
 10
286.686292
 20
99.148664
 30
0.0
 11
286.559335
 21
95.513083
 31
0.0
  0
LINE
  5
E6
100
AcDbEntity
  8
LAY-1
  6
CONTINUOUS
 62
     7
100
AcDbLine
 10
302.350248
 20
112.887375
 30
0.0
 11
302.350248
 21
107.385954
 31
0.0
  0
LINE
  5
E7
100
AcDbEntity
  8
LAY-1
  6
CONTINUOUS
 62
     7
100
AcDbLine
 10
302.350248
 20
107.385954
 30
0.0
 11
302.350248
 21
108.887375
 31
0.0
  0
LINE
  5
E8
100
AcDbEntity
  8
LAY-1
  6
CONTINUOUS
 62
     7
100
AcDbLine
 10
215.850248
 20
103.887375
 30
0.0
 11
228.350248
 21
103.887375
 31
0.0
  0
LINE
  5
E9
100
AcDbEntity
  8
LAY-1
  6
CONTINUOUS
 62
     7
100
AcDbLine
 10
228.350248
 20
112.887375
 30
0.0
 11
228.350248
 21
103.887375
 31
0.0
  0
ARC
  5
EA
100
AcDbEntity
  8
LAY-1
  6
CONTINUOUS
 62
     7
100
AcDbCircle
 10
215.850248
 20
72.887375
 30
0.0
 40
1.0
100
AcDbArc
 50
180.0
 51
270.0
  0
ARC
  5
EB
100
AcDbEntity
  8
LAY-1
  6
CONTINUOUS
 62
     7
100
AcDbCircle
 10
215.850248
 20
102.887375
 30
0.0
 40
1.0
100
AcDbArc
 50
90.0
 51
180.0
  0
ARC
  5
EC
100
AcDbEntity
  8
LAY-1
  6
CONTINUOUS
 62
     7
100
AcDbCircle
 10
281.062685
 20
95.705031
 30
0.0
 40
5.5
100
AcDbArc
 50
276.963092
 51
358.0
  0
ARC
  5
ED
100
AcDbEntity
  8
LAY-1
  6
CONTINUOUS
 62
     7
100
AcDbCircle
 10
282.09314
 20
87.267723
 30
0.0
 40
3.0
100
AcDbArc
 50
96.963092
 51
178.0
  0
LINE
  5
EE
100
AcDbEntity
  8
LAY-1
  6
CONTINUOUS
 62
     7
100
AcDbLine
 10
233.471568
 20
75.008695
 30
0.0
 11
231.228927
 21
72.766054
 31
0.0
  0
LINE
  5
EF
100
AcDbEntity
  8
LAY-1
  6
CONTINUOUS
 62
     7
100
AcDbLine
 10
215.850248
 20
71.887375
 30
0.0
 11
229.107607
 21
71.887375
 31
0.0
  0
ARC
  5
F0
100
AcDbEntity
  8
LAY-1
  6
CONTINUOUS
 62
     7
100
AcDbCircle
 10
229.107607
 20
74.887375
 30
0.0
 40
3.0
100
AcDbArc
 50
270.0
 51
315.0
  0
LINE
  5
F1
100
AcDbEntity
  8
LAY-1
  6
CONTINUOUS
 62
     7
100
AcDbLine
 10
302.350248
 20
107.385954
 30
0.0
 11
302.350248
 21
108.887375
 31
0.0
  0
ARC
  5
F2
100
AcDbEntity
  8
LAY-1
  6
CONTINUOUS
 62
     7
100
AcDbCircle
 10
281.205817
 20
138.387375
 30
0.0
 40
2.2
100
AcDbArc
 50
3.0
 51
90.0
  0
LINE
  5
F3
100
AcDbEntity
  8
LAY-1
  6
CONTINUOUS
 62
     7
100
AcDbLine
 10
283.801894
 20
130.887375
 30
0.0
 11
283.402802
 21
138.502514
 31
0.0
  0
LINE
  5
F4
100
AcDbEntity
  8
LAY-1
  6
CONTINUOUS
 62
     7
100
AcDbLine
 10
246.744678
 20
140.587375
 30
0.0
 11
281.205817
 21
140.587375
 31
0.0
  0
LINE
  5
F5
100
AcDbEntity
  8
LAY-1
  6
CONTINUOUS
 62
     7
100
AcDbLine
 10
244.285584
 20
127.887375
 30
0.0
 11
243.647915
 21
130.887375
 31
0.0
  0
LINE
  5
F6
100
AcDbEntity
  8
LAY-1
  6
CONTINUOUS
 62
     7
100
AcDbLine
 10
243.700322
 20
131.887375
 30
0.0
 11
243.647915
 21
130.887375
 31
0.0
  0
LINE
  5
F7
100
AcDbEntity
  8
LAY-1
  6
CONTINUOUS
 62
     7
100
AcDbLine
 10
244.201009
 20
131.887375
 30
0.0
 11
244.547693
 21
138.502514
 31
0.0
  0
ARC
  5
F8
100
AcDbEntity
  8
LAY-1
  6
CONTINUOUS
 62
     7
100
AcDbCircle
 10
246.744678
 20
138.387375
 30
0.0
 40
2.2
100
AcDbArc
 50
90.0
 51
177.0
  0
ARC
  5
F9
100
AcDbEntity
  8
LAY-1
  6
CONTINUOUS
 62
     7
100
AcDbCircle
 10
284.774999
 20
123.887375
 30
0.0
 40
2.0
100
AcDbArc
 50
183.0
 51
270.0
  0
ARC
  5
FA
100
AcDbEntity
  8
LAY-1
  6
CONTINUOUS
 62
     7
100
AcDbCircle
 10
294.480649
 20
117.887375
 30
0.0
 40
4.0
100
AcDbArc
 50
3.0
 51
90.0
  0
LINE
  5
FB
100
AcDbEntity
  8
LAY-1
  6
CONTINUOUS
 62
     7
100
AcDbLine
 10
298.541289
 20
116.835039
 30
0.0
 11
298.475167
 21
118.096719
 31
0.0
  0
ARC
  5
FC
100
AcDbEntity
  8
LAY-1
  6
CONTINUOUS
 62
     7
100
AcDbCircle
 10
301.850248
 20
115.387375
 30
0.0
 40
0.5
100
AcDbArc
 50
0.0
 51
90.0
  0
ARC
  5
FD
100
AcDbEntity
  8
LAY-1
  6
CONTINUOUS
 62
     7
100
AcDbCircle
 10
299.539918
 20
116.887375
 30
0.0
 40
1.0
100
AcDbArc
 50
183.0
 51
270.0
  0
ARC
  5
FE
100
AcDbEntity
  8
LAY-1
  6
CONTINUOUS
 62
     7
100
AcDbCircle
 10
245.925496
 20
123.887375
 30
0.0
 40
2.0
100
AcDbArc
 50
270.0
 51
357.0
  0
ARC
  5
FF
100
AcDbEntity
  8
LAY-1
  6
CONTINUOUS
 62
     7
100
AcDbCircle
 10
236.219847
 20
117.887375
 30
0.0
 40
4.0
100
AcDbArc
 50
90.0
 51
177.0
  0
LINE
  5
100
100
AcDbEntity
  8
LAY-1
  6
CONTINUOUS
 62
     7
100
AcDbLine
 10
232.159207
 20
116.835039
 30
0.0
 11
232.225329
 21
118.096719
 31
0.0
  0
ARC
  5
101
100
AcDbEntity
  8
LAY-1
  6
CONTINUOUS
 62
     7
100
AcDbCircle
 10
228.850248
 20
115.387375
 30
0.0
 40
0.5
100
AcDbArc
 50
90.0
 51
180.0
  0
LINE
  5
102
100
AcDbEntity
  8
LAY-1
  6
CONTINUOUS
 62
     7
100
AcDbLine
 10
228.350248
 20
112.887375
 30
0.0
 11
228.350248
 21
115.387375
 31
0.0
  0
LINE
  5
103
100
AcDbEntity
  8
LAY-1
  6
CONTINUOUS
 62
     7
100
AcDbLine
 10
302.350248
 20
115.387375
 30
0.0
 11
302.350248
 21
107.385954
 31
0.0
  0
LINE
  5
104
100
AcDbEntity
  8
LAY-1
  6
CONTINUOUS
 62
     7
100
AcDbLine
 10
190.350248
 20
98.387375
 30
0.0
 11
184.550248
 21
98.387375
 31
0.0
  0
ARC
  5
105
100
AcDbEntity
  8
LAY-1
  6
CONTINUOUS
 62
     7
100
AcDbCircle
 10
184.550248
 20
97.887375
 30
0.0
 40
0.5
100
AcDbArc
 50
90.0
 51
180.0
  0
LINE
  5
106
100
AcDbEntity
  8
LAY-1
  6
CONTINUOUS
 62
     7
100
AcDbLine
 10
190.350248
 20
99.887375
 30
0.0
 11
190.927598
 21
100.887375
 31
0.0
  0
LINE
  5
107
100
AcDbEntity
  8
LAY-1
  6
CONTINUOUS
 62
     7
100
AcDbLine
 10
190.350248
 20
77.387375
 30
0.0
 11
184.550248
 21
77.387375
 31
0.0
  0
ARC
  5
108
100
AcDbEntity
  8
LAY-1
  6
CONTINUOUS
 62
     7
100
AcDbCircle
 10
184.550248
 20
77.887375
 30
0.0
 40
0.5
100
AcDbArc
 50
180.0
 51
270.0
  0
LINE
  5
109
100
AcDbEntity
  8
LAY-1
  6
CONTINUOUS
 62
     7
100
AcDbLine
 10
190.350248
 20
75.887375
 30
0.0
 11
190.927598
 21
74.887375
 31
0.0
  0
LINE
  5
10A
100
AcDbEntity
  8
LAY-1
  6
CONTINUOUS
 62
     7
100
AcDbLine
 10
208.272897
 20
100.887375
 30
0.0
 11
190.927598
 21
100.887375
 31
0.0
  0
LINE
  5
10B
100
AcDbEntity
  8
LAY-1
  6
CONTINUOUS
 62
     7
100
AcDbLine
 10
208.272897
 20
74.887375
 30
0.0
 11
190.927598
 21
74.887375
 31
0.0
  0
ARC
  5
10C
100
AcDbEntity
  8
LAY-1
  6
CONTINUOUS
 62
     7
100
AcDbCircle
 10
235.592888
 20
72.887375
 30
0.0
 40
3.0
100
AcDbArc
 50
90.0
 51
135.0
  0
ARC
  5
10D
100
AcDbEntity
  8
LAY-1
  6
CONTINUOUS
 62
     7
100
AcDbCircle
 10
249.109528
 20
72.887375
 30
0.0
 40
3.0
100
AcDbArc
 50
2.0
 51
90.0
  0
LINE
  5
10E
100
AcDbEntity
  8
LAY-1
  6
CONTINUOUS
 62
     7
100
AcDbLine
 10
252.338353
 20
66.38707
 30
0.0
 11
252.107701
 21
72.992073
 31
0.0
  0
LINE
  5
10F
100
AcDbEntity
  8
LAY-1
  6
CONTINUOUS
 62
     7
100
AcDbLine
 10
252.855802
 20
65.887375
 30
0.0
 11
252.338353
 21
66.38707
 31
0.0
  0
LINE
  5
110
100
AcDbEntity
  8
LAY-1
  6
CONTINUOUS
 62
     7
100
AcDbLine
 10
278.362143
 20
66.38707
 30
0.0
 11
277.844693
 21
65.887375
 31
0.0
  0
LINE
  5
111
100
AcDbEntity
  8
LAY-1
  6
CONTINUOUS
 62
     7
100
AcDbLine
 10
278.362143
 20
66.38707
 30
0.0
 11
279.094967
 21
87.372421
 31
0.0
  0
LINE
  5
112
100
AcDbEntity
  8
LAY-1
  6
CONTINUOUS
 62
     7
100
AcDbLine
 10
228.350248
 20
112.887375
 30
0.0
 11
302.350248
 21
112.887375
 31
0.0
  0
LINE
  5
113
100
AcDbEntity
  8
LAY-1
  6
CONTINUOUS
 62
     7
100
AcDbLine
 10
301.850248
 20
115.887375
 30
0.0
 11
265.350248
 21
115.887375
 31
0.0
  0
LINE
  5
114
100
AcDbEntity
  8
LAY-1
  6
CONTINUOUS
 62
     7
100
AcDbLine
 10
294.480649
 20
121.887375
 30
0.0
 11
265.350248
 21
121.887375
 31
0.0
  0
LINE
  5
115
100
AcDbEntity
  8
LAY-1
  6
CONTINUOUS
 62
     7
100
AcDbLine
 10
282.77774
 20
123.782703
 30
0.0
 11
282.4054
 21
130.887375
 31
0.0
  0
LINE
  5
116
100
AcDbEntity
  8
LAY-1
  6
CONTINUOUS
 62
     7
100
AcDbLine
 10
248.137872
 20
127.887375
 30
0.0
 11
247.922755
 21
123.782703
 31
0.0
  0
LINE
  5
117
100
AcDbEntity
  8
LAY-1
  6
CONTINUOUS
 62
     7
100
AcDbLine
 10
265.350248
 20
121.887375
 30
0.0
 11
236.219847
 21
121.887375
 31
0.0
  0
ARC
  5
118
100
AcDbEntity
  8
LAY-1
  6
CONTINUOUS
 62
     7
100
AcDbCircle
 10
231.160577
 20
116.887375
 30
0.0
 40
1.0
100
AcDbArc
 50
270.0
 51
357.0
  0
LINE
  5
119
100
AcDbEntity
  8
LAY-1
  6
CONTINUOUS
 62
     7
100
AcDbLine
 10
228.850248
 20
115.887375
 30
0.0
 11
265.350248
 21
115.887375
 31
0.0
  0
LINE
  5
11A
100
AcDbEntity
  8
LAY-1
  6
CONTINUOUS
 62
     7
100
AcDbLine
 10
190.350248
 20
87.887375
 30
0.0
 11
190.350248
 21
75.887375
 31
0.0
  0
LINE
  5
11B
100
AcDbEntity
  8
LAY-1
  6
CONTINUOUS
 62
     7
100
AcDbLine
 10
190.350248
 20
87.887375
 30
0.0
 11
190.350248
 21
99.887375
 31
0.0
  0
LINE
  5
11C
100
AcDbEntity
  8
LAY-1
  6
CONTINUOUS
 62
     7
100
AcDbLine
 10
214.850248
 20
87.887375
 30
0.0
 11
214.850248
 21
72.887375
 31
0.0
  0
LINE
  5
11D
100
AcDbEntity
  8
LAY-1
  6
CONTINUOUS
 62
     7
100
AcDbLine
 10
214.850248
 20
87.887375
 30
0.0
 11
214.850248
 21
102.887375
 31
0.0
  0
LINE
  5
11E
100
AcDbEntity
  8
LAY-1
  6
CONTINUOUS
 62
     7
100
AcDbLine
 10
256.850248
 20
84.887375
 30
0.0
 11
256.850248
 21
88.387375
 31
0.0
  0
ARC
  5
11F
100
AcDbEntity
  8
LAY-1
  6
CONTINUOUS
 62
     7
100
AcDbCircle
 10
258.850248
 20
88.387375
 30
0.0
 40
2.0
100
AcDbArc
 50
90.0
 51
180.0
  0
ARC
  5
120
100
AcDbEntity
  8
LAY-1
  6
CONTINUOUS
 62
     7
100
AcDbCircle
 10
252.850248
 20
84.887375
 30
0.0
 40
4.0
100
AcDbArc
 50
270.0
 51
0.0
  0
ARC
  5
121
100
AcDbEntity
  8
LAY-1
  6
CONTINUOUS
 62
     7
100
AcDbCircle
 10
252.850248
 20
84.887375
 30
0.0
 40
4.0
100
AcDbArc
 50
180.0
 51
270.0
  0
LINE
  5
122
100
AcDbEntity
  8
LAY-1
  6
CONTINUOUS
 62
     7
100
AcDbLine
 10
248.850248
 20
88.387375
 30
0.0
 11
248.850248
 21
84.887375
 31
0.0
  0
ARC
  5
123
100
AcDbEntity
  8
LAY-1
  6
CONTINUOUS
 62
     7
100
AcDbCircle
 10
246.850248
 20
88.387375
 30
0.0
 40
2.0
100
AcDbArc
 50
0.0
 51
90.0
  0
LINE
  5
124
100
AcDbEntity
  8
LAY-1
  6
CONTINUOUS
 62
     7
100
AcDbLine
 10
235.349867
 20
77.107266
 30
0.0
 11
235.349867
 21
90.87633
 31
0.0
  0
ARC
  5
125
100
AcDbEntity
  8
LAY-1
  6
CONTINUOUS
 62
     7
100
AcDbCircle
 10
222.279805
 20
76.573666
 30
0.0
 40
8.070443
100
AcDbArc
 50
324.502079
 51
35.497921
  0
ARC
  5
126
100
AcDbEntity
  8
LAY-1
  6
CONTINUOUS
 62
     7
100
AcDbCircle
 10
214.959362
 20
87.887375
 30
0.0
 40
15.390885
100
AcDbArc
 50
334.493937
 51
0.0
  0
LINE
  5
127
100
AcDbEntity
  8
LAY-1
  6
CONTINUOUS
 62
     7
100
AcDbLine
 10
228.850248
 20
81.259958
 30
0.0
 11
216.350248
 21
81.259958
 31
0.0
  0
ARC
  5
128
100
AcDbEntity
  8
LAY-1
  6
CONTINUOUS
 62
     7
100
AcDbCircle
 10
214.959362
 20
87.887375
 30
0.0
 40
15.390885
100
AcDbArc
 50
0.0
 51
25.506063
  0
LINE
  5
129
100
AcDbEntity
  8
LAY-1
  6
CONTINUOUS
 62
     7
100
AcDbLine
 10
228.850248
 20
94.514792
 30
0.0
 11
216.350248
 21
94.514792
 31
0.0
  0
LINE
  5
12A
100
AcDbEntity
  8
LAY-1
  6
CONTINUOUS
 62
     7
100
AcDbLine
 10
228.350248
 20
112.887375
 30
0.0
 11
228.350248
 21
94.514792
 31
0.0
  0
ARC
  5
12B
100
AcDbEntity
  8
LAY-1
  6
CONTINUOUS
 62
     7
100
AcDbCircle
 10
230.241133
 20
87.887375
 30
0.0
 40
15.390885
100
AcDbArc
 50
154.493937
 51
180.0
  0
ARC
  5
12C
100
AcDbEntity
  8
LAY-1
  6
CONTINUOUS
 62
     7
100
AcDbCircle
 10
230.241133
 20
87.887375
 30
0.0
 40
15.390885
100
AcDbArc
 50
180.0
 51
205.506063
  0
ARC
  5
12D
100
AcDbEntity
  8
LAY-1
  6
CONTINUOUS
 62
     7
100
AcDbCircle
 10
229.661139
 20
104.387375
 30
0.0
 40
2.0
100
AcDbArc
 50
3.0
 51
90.0
  0
LINE
  5
12E
100
AcDbEntity
  8
LAY-1
  6
CONTINUOUS
 62
     7
100
AcDbLine
 10
231.658398
 20
104.492047
 30
0.0
 11
232.124435
 21
95.599527
 31
0.0
  0
ARC
  5
12F
100
AcDbEntity
  8
LAY-1
  6
CONTINUOUS
 62
     7
100
AcDbCircle
 10
237.616898
 20
95.887375
 30
0.0
 40
5.5
100
AcDbArc
 50
183.0
 51
270.0
  0
LINE
  5
130
100
AcDbEntity
  8
LAY-1
  6
CONTINUOUS
 62
     7
100
AcDbLine
 10
237.616898
 20
90.387375
 30
0.0
 11
261.336337
 21
90.387375
 31
0.0
  0
LINE
  5
131
100
AcDbEntity
  8
LAY-1
  6
CONTINUOUS
 62
     7
100
AcDbLine
 10
261.336337
 20
90.387375
 30
0.0
 11
281.061788
 21
90.387375
 31
0.0
  0
LINE
  5
132
100
AcDbEntity
  8
LAY-1
  6
CONTINUOUS
 62
     7
100
AcDbLine
 10
231.821107
 20
101.387375
 30
0.0
 11
293.150248
 21
101.387375
 31
0.0
  0
LINE
  5
133
100
AcDbEntity
  8
LAY-1
  6
CONTINUOUS
 62
     7
100
AcDbLine
 10
301.456842
 20
106.387375
 30
0.0
 11
228.350248
 21
106.387375
 31
0.0
  0
LINE
  5
134
100
AcDbEntity
  8
LAY-1
  6
CONTINUOUS
 62
     7
100
AcDbLine
 10
265.350248
 20
65.887375
 30
0.0
 11
277.844693
 21
65.887375
 31
0.0
  0
LINE
  5
135
100
AcDbEntity
  8
LAY-1
  6
CONTINUOUS
 62
     7
100
AcDbLine
 10
208.850248
 20
87.887375
 30
0.0
 11
208.850248
 21
75.887375
 31
0.0
  0
LINE
  5
136
100
AcDbEntity
  8
LAY-1
  6
CONTINUOUS
 62
     7
100
AcDbLine
 10
208.850248
 20
87.887375
 30
0.0
 11
208.850248
 21
99.887375
 31
0.0
  0
ARC
  5
137
100
AcDbEntity
  8
LAY-1
  6
CONTINUOUS
 62
     7
100
AcDbCircle
 10
202.716273
 20
98.27968
 30
0.0
 40
6.133975
100
AcDbArc
 50
335.947969
 51
0.0
  0
LINE
  5
138
100
AcDbEntity
  8
LAY-1
  6
CONTINUOUS
 62
     7
100
AcDbLine
 10
208.298427
 20
92.887375
 30
0.0
 11
208.298427
 21
95.77968
 31
0.0
  0
LINE
  5
139
100
AcDbEntity
  8
LAY-1
  6
CONTINUOUS
 62
     7
100
AcDbLine
 10
208.298427
 20
82.887375
 30
0.0
 11
208.298427
 21
79.99507
 31
0.0
  0
ARC
  5
13A
100
AcDbEntity
  8
LAY-1
  6
CONTINUOUS
 62
     7
100
AcDbCircle
 10
202.716273
 20
77.49507
 30
0.0
 40
6.133975
100
AcDbArc
 50
0.0
 51
24.489304
  0
ARC
  5
13B
100
AcDbEntity
  8
LAY-1
  6
CONTINUOUS
 62
     7
100
AcDbCircle
 10
185.922044
 20
87.887375
 30
0.0
 40
22.928203
100
AcDbArc
 50
347.40418
 51
12.59582
  0
LINE
  5
13C
100
AcDbEntity
  8
LAY-1
  6
CONTINUOUS
 62
     7
100
AcDbLine
 10
208.850248
 20
99.887375
 30
0.0
 11
208.272897
 21
100.887375
 31
0.0
  0
LINE
  5
13D
100
AcDbEntity
  8
LAY-1
  6
CONTINUOUS
 62
     7
100
AcDbLine
 10
208.850248
 20
75.887375
 30
0.0
 11
208.272897
 21
74.887375
 31
0.0
  0
ARC
  5
13E
100
AcDbEntity
  8
LAY-1
  6
CONTINUOUS
 62
     7
100
AcDbCircle
 10
196.484222
 20
98.27968
 30
0.0
 40
6.133975
100
AcDbArc
 50
180.0
 51
204.489304
  0
LINE
  5
13F
100
AcDbEntity
  8
LAY-1
  6
CONTINUOUS
 62
     7
100
AcDbLine
 10
190.902068
 20
92.887375
 30
0.0
 11
190.902068
 21
95.77968
 31
0.0
  0
ARC
  5
140
100
AcDbEntity
  8
LAY-1
  6
CONTINUOUS
 62
     7
100
AcDbCircle
 10
213.278451
 20
87.887375
 30
0.0
 40
22.928203
100
AcDbArc
 50
167.40418
 51
192.59582
  0
LINE
  5
141
100
AcDbEntity
  8
LAY-1
  6
CONTINUOUS
 62
     7
100
AcDbLine
 10
190.902068
 20
82.887375
 30
0.0
 11
190.902068
 21
79.99507
 31
0.0
  0
ARC
  5
142
100
AcDbEntity
  8
LAY-1
  6
CONTINUOUS
 62
     7
100
AcDbCircle
 10
196.484222
 20
77.49507
 30
0.0
 40
6.133975
100
AcDbArc
 50
155.947969
 51
180.0
  0
LINE
  5
143
100
AcDbEntity
  8
LAY-1
  6
CONTINUOUS
 62
     7
100
AcDbLine
 10
190.902068
 20
92.887375
 30
0.0
 11
208.298427
 21
92.887375
 31
0.0
  0
LINE
  5
144
100
AcDbEntity
  8
LAY-1
  6
CONTINUOUS
 62
     7
100
AcDbLine
 10
190.902068
 20
95.77968
 30
0.0
 11
208.31767
 21
95.77968
 31
0.0
  0
LINE
  5
145
100
AcDbEntity
  8
LAY-1
  6
CONTINUOUS
 62
     7
100
AcDbLine
 10
190.902068
 20
82.887375
 30
0.0
 11
208.298427
 21
82.887375
 31
0.0
  0
LINE
  5
146
100
AcDbEntity
  8
LAY-1
  6
CONTINUOUS
 62
     7
100
AcDbLine
 10
190.902068
 20
79.99507
 30
0.0
 11
208.31767
 21
79.99507
 31
0.0
  0
LINE
  5
147
100
AcDbEntity
  8
LAY-1
  6
CONTINUOUS
 62
     7
100
AcDbLine
 10
214.850248
 20
76.887375
 30
0.0
 11
213.867767
 21
75.185669
 31
0.0
  0
LINE
  5
148
100
AcDbEntity
  8
LAY-1
  6
CONTINUOUS
 62
     7
100
AcDbLine
 10
208.850248
 20
76.887375
 30
0.0
 11
209.832728
 21
75.185669
 31
0.0
  0
LINE
  5
149
100
AcDbEntity
  8
LAY-1
  6
CONTINUOUS
 62
     7
100
AcDbLine
 10
209.832728
 20
75.185669
 30
0.0
 11
213.867767
 21
75.185669
 31
0.0
  0
LINE
  5
14A
100
AcDbEntity
  8
LAY-1
  6
CONTINUOUS
 62
     7
100
AcDbLine
 10
214.850248
 20
98.887375
 30
0.0
 11
213.867767
 21
100.589081
 31
0.0
  0
LINE
  5
14B
100
AcDbEntity
  8
LAY-1
  6
CONTINUOUS
 62
     7
100
AcDbLine
 10
208.850248
 20
98.887375
 30
0.0
 11
209.832728
 21
100.589081
 31
0.0
  0
LINE
  5
14C
100
AcDbEntity
  8
LAY-1
  6
CONTINUOUS
 62
     7
100
AcDbLine
 10
209.832728
 20
100.589081
 30
0.0
 11
213.867767
 21
100.589081
 31
0.0
  0
ARC
  5
14D
100
AcDbEntity
  8
LAY-1
  6
CONTINUOUS
 62
     7
100
AcDbCircle
 10
214.473058
 20
97.413654
 30
0.0
 40
5.62281
100
AcDbArc
 50
145.615753
 51
214.384247
  0
ARC
  5
14E
100
AcDbEntity
  8
LAY-1
  6
CONTINUOUS
 62
     7
100
AcDbCircle
 10
229.867767
 20
87.887375
 30
0.0
 40
21.01752
100
AcDbArc
 50
162.412046
 51
197.587954
  0
ARC
  5
14F
100
AcDbEntity
  8
LAY-1
  6
CONTINUOUS
 62
     7
100
AcDbCircle
 10
214.085808
 20
78.483261
 30
0.0
 40
5.23556
100
AcDbArc
 50
144.325655
 51
215.674345
  0
ARC
  5
150
100
AcDbEntity
  8
LAY-1
  6
CONTINUOUS
 62
     7
100
AcDbCircle
 10
209.614688
 20
97.291489
 30
0.0
 40
5.23556
100
AcDbArc
 50
324.325655
 51
35.674345
  0
ARC
  5
151
100
AcDbEntity
  8
LAY-1
  6
CONTINUOUS
 62
     7
100
AcDbCircle
 10
193.832728
 20
87.887375
 30
0.0
 40
21.01752
100
AcDbArc
 50
342.412046
 51
17.587954
  0
ARC
  5
152
100
AcDbEntity
  8
LAY-1
  6
CONTINUOUS
 62
     7
100
AcDbCircle
 10
209.227438
 20
78.361095
 30
0.0
 40
5.62281
100
AcDbArc
 50
325.615753
 51
34.384247
  0
LINE
  5
153
100
AcDbEntity
  8
LAY-1
  6
CONTINUOUS
 62
     7
100
AcDbLine
 10
209.832728
 20
81.536522
 30
0.0
 11
213.867767
 21
81.536522
 31
0.0
  0
LINE
  5
154
100
AcDbEntity
  8
LAY-1
  6
CONTINUOUS
 62
     7
100
AcDbLine
 10
209.832728
 20
94.238228
 30
0.0
 11
213.867767
 21
94.238228
 31
0.0
  0
ARC
  5
155
100
AcDbEntity
  8
LAY-1
  6
CONTINUOUS
 62
     7
100
AcDbCircle
 10
178.144476
 20
87.887375
 30
0.0
 40
9.0
100
AcDbArc
 50
134.375578
 51
150.0
  0
ARC
  5
156
100
AcDbEntity
  8
LAY-1
  6
CONTINUOUS
 62
     7
100
AcDbCircle
 10
178.144476
 20
87.887375
 30
0.0
 40
9.0
100
AcDbArc
 50
210.0
 51
225.624422
  0
LINE
  5
157
100
AcDbEntity
  8
LAY-1
  6
CONTINUOUS
 62
     7
100
AcDbLine
 10
170.350248
 20
91.887375
 30
0.0
 11
170.350248
 21
92.387375
 31
0.0
  0
LINE
  5
158
100
AcDbEntity
  8
LAY-1
  6
CONTINUOUS
 62
     7
100
AcDbLine
 10
170.350248
 20
91.887375
 30
0.0
 11
170.350248
 21
83.387375
 31
0.0
  0
ARC
  5
159
100
AcDbEntity
  8
LAY-1
  6
CONTINUOUS
 62
     7
100
AcDbCircle
 10
178.144476
 20
87.887375
 30
0.0
 40
9.0
100
AcDbArc
 50
134.375578
 51
150.0
  0
ARC
  5
15A
100
AcDbEntity
  8
LAY-1
  6
CONTINUOUS
 62
     7
100
AcDbCircle
 10
172.350248
 20
95.287375
 30
0.0
 40
0.5
100
AcDbArc
 50
90.0
 51
180.0
  0
LINE
  5
15B
100
AcDbEntity
  8
LAY-1
  6
CONTINUOUS
 62
     7
100
AcDbLine
 10
173.750248
 20
95.787375
 30
0.0
 11
174.950248
 21
94.587375
 31
0.0
  0
LINE
  5
15C
100
AcDbEntity
  8
LAY-1
  6
CONTINUOUS
 62
     7
100
AcDbLine
 10
176.950248
 20
95.787375
 30
0.0
 11
175.750248
 21
94.587375
 31
0.0
  0
LINE
  5
15D
100
AcDbEntity
  8
LAY-1
  6
CONTINUOUS
 62
     7
100
AcDbLine
 10
172.350248
 20
95.787375
 30
0.0
 11
173.750248
 21
95.787375
 31
0.0
  0
LINE
  5
15E
100
AcDbEntity
  8
LAY-1
  6
CONTINUOUS
 62
     7
100
AcDbLine
 10
174.950248
 20
94.587375
 30
0.0
 11
175.750248
 21
94.587375
 31
0.0
  0
LINE
  5
15F
100
AcDbEntity
  8
LAY-1
  6
CONTINUOUS
 62
     7
100
AcDbLine
 10
176.950248
 20
95.787375
 30
0.0
 11
184.050248
 21
95.787375
 31
0.0
  0
LINE
  5
160
100
AcDbEntity
  8
LAY-1
  6
CONTINUOUS
 62
     7
100
AcDbLine
 10
170.350248
 20
91.887375
 30
0.0
 11
170.350248
 21
92.387375
 31
0.0
  0
LINE
  5
161
100
AcDbEntity
  8
LAY-1
  6
CONTINUOUS
 62
     7
100
AcDbLine
 10
170.350248
 20
91.887375
 30
0.0
 11
170.350248
 21
83.387375
 31
0.0
  0
ARC
  5
162
100
AcDbEntity
  8
LAY-1
  6
CONTINUOUS
 62
     7
100
AcDbCircle
 10
178.144476
 20
87.887375
 30
0.0
 40
9.0
100
AcDbArc
 50
210.0
 51
225.624422
  0
ARC
  5
163
100
AcDbEntity
  8
LAY-1
  6
CONTINUOUS
 62
     7
100
AcDbCircle
 10
172.350248
 20
80.487375
 30
0.0
 40
0.5
100
AcDbArc
 50
180.0
 51
270.0
  0
LINE
  5
164
100
AcDbEntity
  8
LAY-1
  6
CONTINUOUS
 62
     7
100
AcDbLine
 10
173.750248
 20
79.987375
 30
0.0
 11
174.950248
 21
81.187375
 31
0.0
  0
LINE
  5
165
100
AcDbEntity
  8
LAY-1
  6
CONTINUOUS
 62
     7
100
AcDbLine
 10
176.950248
 20
79.987375
 30
0.0
 11
175.750248
 21
81.187375
 31
0.0
  0
LINE
  5
166
100
AcDbEntity
  8
LAY-1
  6
CONTINUOUS
 62
     7
100
AcDbLine
 10
172.350248
 20
79.987375
 30
0.0
 11
173.750248
 21
79.987375
 31
0.0
  0
LINE
  5
167
100
AcDbEntity
  8
LAY-1
  6
CONTINUOUS
 62
     7
100
AcDbLine
 10
174.950248
 20
81.187375
 30
0.0
 11
175.750248
 21
81.187375
 31
0.0
  0
LINE
  5
168
100
AcDbEntity
  8
LAY-1
  6
CONTINUOUS
 62
     7
100
AcDbLine
 10
176.950248
 20
79.987375
 30
0.0
 11
184.050248
 21
79.987375
 31
0.0
  0
LINE
  5
169
100
AcDbEntity
  8
LAY-1
  6
CONTINUOUS
 62
     7
100
AcDbLine
 10
170.350248
 20
83.887375
 30
0.0
 11
170.350248
 21
83.387375
 31
0.0
  0
LINE
  5
16A
100
AcDbEntity
  8
LAY-1
  6
CONTINUOUS
 62
     7
100
AcDbLine
 10
184.050248
 20
87.887375
 30
0.0
 11
184.050248
 21
77.887375
 31
0.0
  0
LINE
  5
16B
100
AcDbEntity
  8
LAY-1
  6
CONTINUOUS
 62
     7
100
AcDbLine
 10
184.050248
 20
87.887375
 30
0.0
 11
184.050248
 21
97.887375
 31
0.0
  0
LINE
  5
16C
100
AcDbEntity
  8
LAY-1
  6
CONTINUOUS
 62
     7
100
AcDbLine
 10
175.750248
 20
94.587375
 30
0.0
 11
175.750248
 21
81.187375
 31
0.0
  0
LINE
  5
16D
100
AcDbEntity
  8
LAY-1
  6
CONTINUOUS
 62
     7
100
AcDbLine
 10
174.950248
 20
81.187375
 30
0.0
 11
174.950248
 21
94.587375
 31
0.0
  0
LINE
  5
16E
100
AcDbEntity
  8
LAY-1
  6
CONTINUOUS
 62
     7
100
AcDbLine
 10
176.950248
 20
95.787375
 30
0.0
 11
176.950248
 21
79.987375
 31
0.0
  0
LINE
  5
16F
100
AcDbEntity
  8
LAY-1
  6
CONTINUOUS
 62
     7
100
AcDbLine
 10
171.850248
 20
87.887375
 30
0.0
 11
171.850248
 21
80.487375
 31
0.0
  0
LINE
  5
170
100
AcDbEntity
  8
LAY-1
  6
CONTINUOUS
 62
     7
100
AcDbLine
 10
171.850248
 20
87.887375
 30
0.0
 11
171.850248
 21
95.287375
 31
0.0
  0
LINE
  5
171
100
AcDbEntity
  8
LAY-1
  6
CONTINUOUS
 62
     7
100
AcDbLine
 10
173.750248
 20
95.787375
 30
0.0
 11
173.750248
 21
79.987375
 31
0.0
  0
ARC
  5
172
100
AcDbEntity
  8
LAY-1
  6
CONTINUOUS
 62
     7
100
AcDbCircle
 10
222.92069
 20
99.201083
 30
0.0
 40
8.070443
100
AcDbArc
 50
180.0
 51
215.497921
  0
ARC
  5
173
100
AcDbEntity
  8
LAY-1
  6
CONTINUOUS
 62
     7
100
AcDbCircle
 10
222.92069
 20
76.573666
 30
0.0
 40
8.070443
100
AcDbArc
 50
144.502079
 51
180.0
  0
LINE
  5
174
100
AcDbEntity
  8
LAY-1
  6
CONTINUOUS
 62
     7
100
AcDbLine
 10
259.111077
 20
82.888923
 30
0.0
 11
251.961077
 21
75.738923
 31
0.0
  0
LINE
  5
175
100
AcDbEntity
  8
LAY-1
  6
CONTINUOUS
 62
     7
100
AcDbLine
 10
235.592888
 20
75.887375
 30
0.0
 11
249.109528
 21
75.887375
 31
0.0
  0
LINE
  5
176
100
AcDbEntity
  8
LAY-1
  6
CONTINUOUS
 62
     7
100
AcDbLine
 10
283.801894
 20
130.887375
 30
0.0
 11
261.822237
 21
130.887375
 31
0.0
  0
LINE
  5
177
100
AcDbEntity
  8
LAY-1
  6
CONTINUOUS
 62
     7
100
AcDbLine
 10
257.551004
 20
127.887375
 30
0.0
 11
244.285584
 21
127.887375
 31
0.0
  0
LINE
  5
178
100
AcDbEntity
  8
LAY-1
  6
CONTINUOUS
 62
     7
100
AcDbLine
 10
247.785964
 20
131.887375
 30
0.0
 11
248.132649
 21
138.502514
 31
0.0
  0
ARC
  5
179
100
AcDbEntity
  8
LAY-1
  6
CONTINUOUS
 62
     7
100
AcDbCircle
 10
250.329634
 20
138.387375
 30
0.0
 40
2.2
100
AcDbArc
 50
90.0
 51
177.0
  0
LINE
  5
17A
100
AcDbEntity
  8
LAY-1
  6
CONTINUOUS
 62
     7
100
AcDbLine
 10
247.285278
 20
131.887375
 30
0.0
 11
247.077593
 21
127.924499
 31
0.0
  0
LINE
  5
17B
100
AcDbEntity
  8
LAY-1
  6
CONTINUOUS
 62
     7
100
AcDbLine
 10
243.700322
 20
131.887375
 30
0.0
 11
261.822237
 21
131.887375
 31
0.0
  0
LINE
  5
17C
100
AcDbEntity
  8
LAY-1
  6
CONTINUOUS
 62
     7
100
AcDbLine
 10
261.822237
 20
130.887375
 30
0.0
 11
261.822237
 21
131.887375
 31
0.0
  0
LINE
  5
17D
100
AcDbEntity
  8
LAY-1
  6
CONTINUOUS
 62
     7
100
AcDbLine
 10
257.551004
 20
127.887375
 30
0.0
 11
261.822237
 21
130.887375
 31
0.0
  0
LINE
  5
17E
100
AcDbEntity
  8
LAY-1
  6
CONTINUOUS
 62
     7
100
AcDbLine
 10
286.573859
 20
115.887375
 30
0.0
 11
286.573859
 21
116.387375
 31
0.0
  0
ARC
  5
17F
100
AcDbEntity
  8
LAY-1
  6
CONTINUOUS
 62
     7
100
AcDbCircle
 10
287.073859
 20
116.387375
 30
0.0
 40
0.5
100
AcDbArc
 50
90.0
 51
180.0
  0
LINE
  5
180
100
AcDbEntity
  8
LAY-1
  6
CONTINUOUS
 62
     7
100
AcDbLine
 10
287.073859
 20
116.887375
 30
0.0
 11
298.073859
 21
116.887375
 31
0.0
  0
LINE
  5
181
100
AcDbEntity
  8
LAY-1
  6
CONTINUOUS
 62
     7
100
AcDbLine
 10
298.573859
 20
115.887375
 30
0.0
 11
298.573859
 21
116.387375
 31
0.0
  0
ARC
  5
182
100
AcDbEntity
  8
LAY-1
  6
CONTINUOUS
 62
     7
100
AcDbCircle
 10
298.073859
 20
116.387375
 30
0.0
 40
0.5
100
AcDbArc
 50
0.0
 51
90.0
  0
LINE
  5
183
100
AcDbEntity
  8
LAY-1
  6
CONTINUOUS
 62
     7
100
AcDbLine
 10
232.159207
 20
116.835039
 30
0.0
 11
232.225329
 21
118.096719
 31
0.0
  0
LINE
  5
184
100
AcDbEntity
  8
LAY-1
  6
CONTINUOUS
 62
     7
100
AcDbLine
 10
244.126637
 20
115.887375
 30
0.0
 11
244.126637
 21
116.387375
 31
0.0
  0
ARC
  5
185
100
AcDbEntity
  8
LAY-1
  6
CONTINUOUS
 62
     7
100
AcDbCircle
 10
243.626637
 20
116.387375
 30
0.0
 40
0.5
100
AcDbArc
 50
0.0
 51
90.0
  0
LINE
  5
186
100
AcDbEntity
  8
LAY-1
  6
CONTINUOUS
 62
     7
100
AcDbLine
 10
243.626637
 20
116.887375
 30
0.0
 11
232.626637
 21
116.887375
 31
0.0
  0
LINE
  5
187
100
AcDbEntity
  8
LAY-1
  6
CONTINUOUS
 62
     7
100
AcDbLine
 10
232.126637
 20
115.887375
 30
0.0
 11
232.126637
 21
116.387375
 31
0.0
  0
ARC
  5
188
100
AcDbEntity
  8
LAY-1
  6
CONTINUOUS
 62
     7
100
AcDbCircle
 10
232.626637
 20
116.387375
 30
0.0
 40
0.5
100
AcDbArc
 50
90.0
 51
180.0
  0
ARC
  5
189
100
AcDbEntity
  8
LAY-1
  6
CONTINUOUS
 62
     7
100
AcDbCircle
 10
292.573859
 20
111.587375
 30
0.0
 40
8.0
100
AcDbArc
 50
60.0
 51
90.0
  0
ARC
  5
18A
100
AcDbEntity
  8
LAY-1
  6
CONTINUOUS
 62
     7
100
AcDbCircle
 10
295.823859
 20
117.21654
 30
0.0
 40
1.5
100
AcDbArc
 50
0.0
 51
60.0
  0
ARC
  5
18B
100
AcDbEntity
  8
LAY-1
  6
CONTINUOUS
 62
     7
100
AcDbCircle
 10
292.573859
 20
111.587375
 30
0.0
 40
8.0
100
AcDbArc
 50
90.0
 51
120.0
  0
ARC
  5
18C
100
AcDbEntity
  8
LAY-1
  6
CONTINUOUS
 62
     7
100
AcDbCircle
 10
289.323859
 20
117.21654
 30
0.0
 40
1.5
100
AcDbArc
 50
120.0
 51
180.0
  0
LINE
  5
18D
100
AcDbEntity
  8
LAY-1
  6
CONTINUOUS
 62
     7
100
AcDbLine
 10
297.323859
 20
117.21654
 30
0.0
 11
297.323859
 21
116.887375
 31
0.0
  0
LINE
  5
18E
100
AcDbEntity
  8
LAY-1
  6
CONTINUOUS
 62
     7
100
AcDbLine
 10
287.823859
 20
117.21654
 30
0.0
 11
287.823859
 21
116.887375
 31
0.0
  0
ARC
  5
18F
100
AcDbEntity
  8
LAY-1
  6
CONTINUOUS
 62
     7
100
AcDbCircle
 10
238.126637
 20
111.587375
 30
0.0
 40
8.0
100
AcDbArc
 50
90.0
 51
120.0
  0
ARC
  5
190
100
AcDbEntity
  8
LAY-1
  6
CONTINUOUS
 62
     7
100
AcDbCircle
 10
234.876637
 20
117.21654
 30
0.0
 40
1.5
100
AcDbArc
 50
120.0
 51
180.0
  0
ARC
  5
191
100
AcDbEntity
  8
LAY-1
  6
CONTINUOUS
 62
     7
100
AcDbCircle
 10
238.126637
 20
111.587375
 30
0.0
 40
8.0
100
AcDbArc
 50
60.0
 51
90.0
  0
ARC
  5
192
100
AcDbEntity
  8
LAY-1
  6
CONTINUOUS
 62
     7
100
AcDbCircle
 10
241.376637
 20
117.21654
 30
0.0
 40
1.5
100
AcDbArc
 50
0.0
 51
60.0
  0
LINE
  5
193
100
AcDbEntity
  8
LAY-1
  6
CONTINUOUS
 62
     7
100
AcDbLine
 10
233.376637
 20
117.21654
 30
0.0
 11
233.376637
 21
116.887375
 31
0.0
  0
LINE
  5
194
100
AcDbEntity
  8
LAY-1
  6
CONTINUOUS
 62
     7
100
AcDbLine
 10
242.876637
 20
117.21654
 30
0.0
 11
242.876637
 21
116.887375
 31
0.0
  0
LINE
  5
195
100
AcDbEntity
  8
LAY-1
  6
CONTINUOUS
 62
     7
100
AcDbLine
 10
259.500248
 20
14.75
 30
0.0
 11
265.350248
 21
20.6
 31
0.0
  0
LINE
  5
196
100
AcDbEntity
  8
LAY-1
  6
CONTINUOUS
 62
     7
100
AcDbLine
 10
271.200248
 20
14.75
 30
0.0
 11
265.350248
 21
20.6
 31
0.0
  0
LINE
  5
197
100
AcDbEntity
  8
LAY-1
  6
CONTINUOUS
 62
     7
100
AcDbLine
 10
265.350248
 20
65.887375
 30
0.0
 11
252.350248
 21
65.887375
 31
0.0
  0
LINE
  5
198
100
AcDbEntity
  8
LAY-1
  6
CONTINUOUS
 62
     7
100
AcDbLine
 10
265.350248
 20
65.887375
 30
0.0
 11
277.844693
 21
65.887375
 31
0.0
  0
LINE
  5
199
100
AcDbEntity
  8
LAY-1
  6
CONTINUOUS
 62
     7
100
AcDbLine
 10
252.855802
 20
65.887375
 30
0.0
 11
257.350248
 21
65.887375
 31
0.0
  0
LINE
  5
19A
100
AcDbEntity
  8
LAY-1
  6
CONTINUOUS
 62
     7
100
AcDbLine
 10
250.350248
 20
65.485451
 30
0.0
 11
250.350248
 21
58.289298
 31
0.0
  0
LINE
  5
19B
100
AcDbEntity
  8
LAY-1
  6
CONTINUOUS
 62
     7
100
AcDbLine
 10
258.050248
 20
65.887375
 30
0.0
 11
251.850248
 21
65.887375
 31
0.0
  0
LINE
  5
19C
100
AcDbEntity
  8
LAY-1
  6
CONTINUOUS
 62
     7
100
AcDbLine
 10
251.850248
 20
65.887375
 30
0.0
 11
250.350248
 21
65.485451
 31
0.0
  0
LINE
  5
19D
100
AcDbEntity
  8
LAY-1
  6
CONTINUOUS
 62
     7
100
AcDbLine
 10
252.855802
 20
65.887375
 30
0.0
 11
257.350248
 21
65.887375
 31
0.0
  0
ARC
  5
19E
100
AcDbEntity
  8
LAY-1
  6
CONTINUOUS
 62
     7
100
AcDbCircle
 10
251.650248
 20
57.733909
 30
0.0
 40
0.2
100
AcDbArc
 50
0.0
 51
75.0
  0
LINE
  5
19F
100
AcDbEntity
  8
LAY-1
  6
CONTINUOUS
 62
     7
100
AcDbLine
 10
261.850248
 20
37.387375
 30
0.0
 11
260.850248
 21
39.119426
 31
0.0
  0
LINE
  5
1A0
100
AcDbEntity
  8
LAY-1
  6
CONTINUOUS
 62
     7
100
AcDbLine
 10
253.650248
 20
38.887375
 30
0.0
 11
253.350248
 21
39.187375
 31
0.0
  0
LINE
  5
1A1
100
AcDbEntity
  8
LAY-1
  6
CONTINUOUS
 62
     7
100
AcDbLine
 10
253.650248
 20
38.887375
 30
0.0
 11
260.984222
 21
38.887375
 31
0.0
  0
LINE
  5
1A2
100
AcDbEntity
  8
LAY-1
  6
CONTINUOUS
 62
     7
100
AcDbLine
 10
261.850248
 20
37.387375
 30
0.0
 11
265.350248
 21
37.387375
 31
0.0
  0
LINE
  5
1A3
100
AcDbEntity
  8
LAY-1
  6
CONTINUOUS
 62
     7
100
AcDbLine
 10
247.350248
 20
57.083048
 30
0.0
 11
247.850248
 21
57.583048
 31
0.0
  0
LINE
  5
1A4
100
AcDbEntity
  8
LAY-1
  6
CONTINUOUS
 62
     7
100
AcDbLine
 10
250.650248
 20
39.583048
 30
0.0
 11
251.800248
 21
39.583048
 31
0.0
  0
LINE
  5
1A5
100
AcDbEntity
  8
LAY-1
  6
CONTINUOUS
 62
     7
100
AcDbLine
 10
250.350248
 20
39.883048
 30
0.0
 11
250.650248
 21
39.583048
 31
0.0
  0
ARC
  5
1A6
100
AcDbEntity
  8
LAY-1
  6
CONTINUOUS
 62
     7
100
AcDbCircle
 10
249.350248
 20
52.005698
 30
0.0
 40
1.0
100
AcDbArc
 50
0.0
 51
60.0
  0
ARC
  5
1A7
100
AcDbEntity
  8
LAY-1
  6
CONTINUOUS
 62
     7
100
AcDbCircle
 10
248.350248
 20
54.892449
 30
0.0
 40
1.0
100
AcDbArc
 50
180.0
 51
240.0
  0
LINE
  5
1A8
100
AcDbEntity
  8
LAY-1
  6
CONTINUOUS
 62
     7
100
AcDbLine
 10
253.350248
 20
39.583048
 30
0.0
 11
253.350248
 21
39.187375
 31
0.0
  0
LINE
  5
1A9
100
AcDbEntity
  8
LAY-1
  6
CONTINUOUS
 62
     7
100
AcDbLine
 10
253.350248
 20
39.187375
 30
0.0
 11
260.850248
 21
39.187375
 31
0.0
  0
LINE
  5
1AA
100
AcDbEntity
  8
LAY-1
  6
CONTINUOUS
 62
     7
100
AcDbLine
 10
260.850248
 20
39.119426
 30
0.0
 11
260.850248
 21
39.583048
 31
0.0
  0
LINE
  5
1AB
100
AcDbEntity
  8
LAY-1
  6
CONTINUOUS
 62
     7
100
AcDbLine
 10
251.850248
 20
57.583048
 30
0.0
 11
251.850248
 21
57.733909
 31
0.0
  0
LINE
  5
1AC
100
AcDbEntity
  8
LAY-1
  6
CONTINUOUS
 62
     7
100
AcDbLine
 10
251.702011
 20
57.927094
 30
0.0
 11
250.350248
 21
58.289298
 31
0.0
  0
ARC
  5
1AD
100
AcDbEntity
  8
LAY-1
  6
CONTINUOUS
 62
     7
100
AcDbCircle
 10
253.658905
 20
52.037624
 30
0.0
 40
13.84975
100
AcDbArc
 50
76.31481
 51
90.0
  0
LINE
  5
1AE
100
AcDbEntity
  8
LAY-1
  6
CONTINUOUS
 62
     7
100
AcDbLine
 10
258.811899
 20
65.494185
 30
0.0
 11
256.928079
 21
65.494185
 31
0.0
  0
ARC
  5
1AF
100
AcDbEntity
  8
LAY-1
  6
CONTINUOUS
 62
     7
100
AcDbCircle
 10
253.658905
 20
71.737125
 30
0.0
 40
13.84975
100
AcDbArc
 50
270.0
 51
283.653272
  0
LINE
  5
1B0
100
AcDbEntity
  8
LAY-1
  6
CONTINUOUS
 62
     7
100
AcDbLine
 10
258.811899
 20
58.280565
 30
0.0
 11
256.928079
 21
58.280565
 31
0.0
  0
LINE
  5
1B1
100
AcDbEntity
  8
LAY-1
  6
CONTINUOUS
 62
     7
100
AcDbLine
 10
256.928079
 20
58.280565
 30
0.0
 11
256.928079
 21
65.494185
 31
0.0
  0
LINE
  5
1B2
100
AcDbEntity
  8
LAY-1
  6
CONTINUOUS
 62
     7
100
AcDbLine
 10
258.811899
 20
58.280565
 30
0.0
 11
258.811899
 21
65.494185
 31
0.0
  0
LINE
  5
1B3
100
AcDbEntity
  8
LAY-1
  6
CONTINUOUS
 62
     7
100
AcDbLine
 10
251.850248
 20
57.887375
 30
0.0
 11
251.850248
 21
57.733909
 31
0.0
  0
LINE
  5
1B4
100
AcDbEntity
  8
LAY-1
  6
CONTINUOUS
 62
     7
100
AcDbLine
 10
265.350248
 20
65.887375
 30
0.0
 11
252.350248
 21
65.887375
 31
0.0
  0
ARC
  5
1B5
100
AcDbEntity
  8
LAY-1
  6
CONTINUOUS
 62
     7
100
AcDbCircle
 10
261.050248
 20
46.087375
 30
0.0
 40
0.2
100
AcDbArc
 50
180.0
 51
270.0
  0
ARC
  5
1B6
100
AcDbEntity
  8
LAY-1
  6
CONTINUOUS
 62
     7
100
AcDbCircle
 10
261.050248
 20
43.687375
 30
0.0
 40
0.2
100
AcDbArc
 50
90.0
 51
180.0
  0
LINE
  5
1B7
100
AcDbEntity
  8
LAY-1
  6
CONTINUOUS
 62
     7
100
AcDbLine
 10
260.850248
 20
43.087375
 30
0.0
 11
260.850248
 21
43.687375
 31
0.0
  0
ARC
  5
1B8
100
AcDbEntity
  8
LAY-1
  6
CONTINUOUS
 62
     7
100
AcDbCircle
 10
261.050248
 20
43.087375
 30
0.0
 40
0.2
100
AcDbArc
 50
180.0
 51
270.0
  0
ARC
  5
1B9
100
AcDbEntity
  8
LAY-1
  6
CONTINUOUS
 62
     7
100
AcDbCircle
 10
261.050248
 20
40.187375
 30
0.0
 40
0.2
100
AcDbArc
 50
90.0
 51
180.0
  0
LINE
  5
1BA
100
AcDbEntity
  8
LAY-1
  6
CONTINUOUS
 62
     7
100
AcDbLine
 10
260.850248
 20
39.119426
 30
0.0
 11
260.850248
 21
40.187375
 31
0.0
  0
LINE
  5
1BB
100
AcDbEntity
  8
LAY-1
  6
CONTINUOUS
 62
     7
100
AcDbLine
 10
260.850248
 20
46.087375
 30
0.0
 11
260.850248
 21
47.887375
 31
0.0
  0
LINE
  5
1BC
100
AcDbEntity
  8
LAY-1
  6
CONTINUOUS
 62
     7
100
AcDbLine
 10
251.850248
 20
57.887375
 30
0.0
 11
265.350248
 21
57.887375
 31
0.0
  0
ARC
  5
1BD
100
AcDbEntity
  8
LAY-1
  6
CONTINUOUS
 62
     7
100
AcDbCircle
 10
265.350248
 20
112.446975
 30
0.0
 40
54.5596
100
AcDbArc
 50
263.11721
 51
270.0
  0
LINE
  5
1BE
100
AcDbEntity
  8
LAY-1
  6
CONTINUOUS
 62
     7
100
AcDbLine
 10
247.850248
 20
57.583048
 30
0.0
 11
265.350248
 21
57.583048
 31
0.0
  0
ARC
  5
1BF
100
AcDbEntity
  8
LAY-1
  6
CONTINUOUS
 62
     7
100
AcDbCircle
 10
265.350248
 20
11.327774
 30
0.0
 40
54.5596
100
AcDbArc
 50
90.0
 51
96.88279
  0
LINE
  5
1C0
100
AcDbEntity
  8
LAY-1
  6
CONTINUOUS
 62
     7
100
AcDbLine
 10
277.844693
 20
65.887375
 30
0.0
 11
273.350248
 21
65.887375
 31
0.0
  0
LINE
  5
1C1
100
AcDbEntity
  8
LAY-1
  6
CONTINUOUS
 62
     7
100
AcDbLine
 10
280.350248
 20
65.485451
 30
0.0
 11
280.350248
 21
58.289298
 31
0.0
  0
LINE
  5
1C2
100
AcDbEntity
  8
LAY-1
  6
CONTINUOUS
 62
     7
100
AcDbLine
 10
272.650248
 20
65.887375
 30
0.0
 11
278.850248
 21
65.887375
 31
0.0
  0
LINE
  5
1C3
100
AcDbEntity
  8
LAY-1
  6
CONTINUOUS
 62
     7
100
AcDbLine
 10
278.850248
 20
65.887375
 30
0.0
 11
280.350248
 21
65.485451
 31
0.0
  0
LINE
  5
1C4
100
AcDbEntity
  8
LAY-1
  6
CONTINUOUS
 62
     7
100
AcDbLine
 10
277.844693
 20
65.887375
 30
0.0
 11
273.350248
 21
65.887375
 31
0.0
  0
ARC
  5
1C5
100
AcDbEntity
  8
LAY-1
  6
CONTINUOUS
 62
     7
100
AcDbCircle
 10
279.050248
 20
57.733909
 30
0.0
 40
0.2
100
AcDbArc
 50
105.0
 51
180.0
  0
LINE
  5
1C6
100
AcDbEntity
  8
LAY-1
  6
CONTINUOUS
 62
     7
100
AcDbLine
 10
268.850248
 20
37.387375
 30
0.0
 11
269.850248
 21
39.119426
 31
0.0
  0
LINE
  5
1C7
100
AcDbEntity
  8
LAY-1
  6
CONTINUOUS
 62
     7
100
AcDbLine
 10
277.050248
 20
38.887375
 30
0.0
 11
277.350248
 21
39.187375
 31
0.0
  0
LINE
  5
1C8
100
AcDbEntity
  8
LAY-1
  6
CONTINUOUS
 62
     7
100
AcDbLine
 10
277.050248
 20
38.887375
 30
0.0
 11
269.716273
 21
38.887375
 31
0.0
  0
LINE
  5
1C9
100
AcDbEntity
  8
LAY-1
  6
CONTINUOUS
 62
     7
100
AcDbLine
 10
268.850248
 20
37.387375
 30
0.0
 11
265.350248
 21
37.387375
 31
0.0
  0
LINE
  5
1CA
100
AcDbEntity
  8
LAY-1
  6
CONTINUOUS
 62
     7
100
AcDbLine
 10
283.350248
 20
57.083048
 30
0.0
 11
283.350248
 21
54.892449
 31
0.0
  0
LINE
  5
1CB
100
AcDbEntity
  8
LAY-1
  6
CONTINUOUS
 62
     7
100
AcDbLine
 10
283.350248
 20
57.083048
 30
0.0
 11
282.850248
 21
57.583048
 31
0.0
  0
LINE
  5
1CC
100
AcDbEntity
  8
LAY-1
  6
CONTINUOUS
 62
     7
100
AcDbLine
 10
280.050248
 20
39.583048
 30
0.0
 11
278.900248
 21
39.583048
 31
0.0
  0
LINE
  5
1CD
100
AcDbEntity
  8
LAY-1
  6
CONTINUOUS
 62
     7
100
AcDbLine
 10
280.350248
 20
39.883048
 30
0.0
 11
280.050248
 21
39.583048
 31
0.0
  0
LINE
  5
1CE
100
AcDbEntity
  8
LAY-1
  6
CONTINUOUS
 62
     7
100
AcDbLine
 10
280.350248
 20
39.883048
 30
0.0
 11
280.350248
 21
52.005698
 31
0.0
  0
LINE
  5
1CF
100
AcDbEntity
  8
LAY-1
  6
CONTINUOUS
 62
     7
100
AcDbLine
 10
282.850248
 20
54.026424
 30
0.0
 11
280.850248
 21
52.871723
 31
0.0
  0
ARC
  5
1D0
100
AcDbEntity
  8
LAY-1
  6
CONTINUOUS
 62
     7
100
AcDbCircle
 10
281.350248
 20
52.005698
 30
0.0
 40
1.0
100
AcDbArc
 50
120.0
 51
180.0
  0
ARC
  5
1D1
100
AcDbEntity
  8
LAY-1
  6
CONTINUOUS
 62
     7
100
AcDbCircle
 10
282.350248
 20
54.892449
 30
0.0
 40
1.0
100
AcDbArc
 50
300.0
 51
0.0
  0
LINE
  5
1D2
100
AcDbEntity
  8
LAY-1
  6
CONTINUOUS
 62
     7
100
AcDbLine
 10
277.350248
 20
39.583048
 30
0.0
 11
277.350248
 21
39.187375
 31
0.0
  0
LINE
  5
1D3
100
AcDbEntity
  8
LAY-1
  6
CONTINUOUS
 62
     7
100
AcDbLine
 10
277.350248
 20
39.187375
 30
0.0
 11
269.850248
 21
39.187375
 31
0.0
  0
LINE
  5
1D4
100
AcDbEntity
  8
LAY-1
  6
CONTINUOUS
 62
     7
100
AcDbLine
 10
269.850248
 20
39.119426
 30
0.0
 11
269.850248
 21
39.583048
 31
0.0
  0
LINE
  5
1D5
100
AcDbEntity
  8
LAY-1
  6
CONTINUOUS
 62
     7
100
AcDbLine
 10
278.850248
 20
57.583048
 30
0.0
 11
278.850248
 21
57.733909
 31
0.0
  0
LINE
  5
1D6
100
AcDbEntity
  8
LAY-1
  6
CONTINUOUS
 62
     7
100
AcDbLine
 10
278.998484
 20
57.927094
 30
0.0
 11
280.350248
 21
58.289298
 31
0.0
  0
ARC
  5
1D7
100
AcDbEntity
  8
LAY-1
  6
CONTINUOUS
 62
     7
100
AcDbCircle
 10
277.041591
 20
52.037624
 30
0.0
 40
13.84975
100
AcDbArc
 50
90.0
 51
103.68519
  0
LINE
  5
1D8
100
AcDbEntity
  8
LAY-1
  6
CONTINUOUS
 62
     7
100
AcDbLine
 10
271.888596
 20
65.494185
 30
0.0
 11
273.772416
 21
65.494185
 31
0.0
  0
ARC
  5
1D9
100
AcDbEntity
  8
LAY-1
  6
CONTINUOUS
 62
     7
100
AcDbCircle
 10
277.041591
 20
71.737125
 30
0.0
 40
13.84975
100
AcDbArc
 50
256.346728
 51
270.0
  0
LINE
  5
1DA
100
AcDbEntity
  8
LAY-1
  6
CONTINUOUS
 62
     7
100
AcDbLine
 10
271.888596
 20
58.280565
 30
0.0
 11
273.772416
 21
58.280565
 31
0.0
  0
LINE
  5
1DB
100
AcDbEntity
  8
LAY-1
  6
CONTINUOUS
 62
     7
100
AcDbLine
 10
273.772416
 20
58.280565
 30
0.0
 11
273.772416
 21
65.494185
 31
0.0
  0
LINE
  5
1DC
100
AcDbEntity
  8
LAY-1
  6
CONTINUOUS
 62
     7
100
AcDbLine
 10
271.888596
 20
58.280565
 30
0.0
 11
271.888596
 21
65.494185
 31
0.0
  0
LINE
  5
1DD
100
AcDbEntity
  8
LAY-1
  6
CONTINUOUS
 62
     7
100
AcDbLine
 10
278.850248
 20
57.887375
 30
0.0
 11
278.850248
 21
57.733909
 31
0.0
  0
LINE
  5
1DE
100
AcDbEntity
  8
LAY-1
  6
CONTINUOUS
 62
     7
100
AcDbLine
 10
269.850248
 20
39.119426
 30
0.0
 11
269.850248
 21
40.187375
 31
0.0
  0
LINE
  5
1DF
100
AcDbEntity
  8
LAY-1
  6
CONTINUOUS
 62
     7
100
AcDbLine
 10
269.850248
 20
46.087375
 30
0.0
 11
269.850248
 21
47.887375
 31
0.0
  0
LINE
  5
1E0
100
AcDbEntity
  8
LAY-1
  6
CONTINUOUS
 62
     7
100
AcDbLine
 10
278.850248
 20
57.887375
 30
0.0
 11
265.350248
 21
57.887375
 31
0.0
  0
ARC
  5
1E1
100
AcDbEntity
  8
LAY-1
  6
CONTINUOUS
 62
     7
100
AcDbCircle
 10
265.350248
 20
112.446975
 30
0.0
 40
54.5596
100
AcDbArc
 50
270.0
 51
276.88279
  0
LINE
  5
1E2
100
AcDbEntity
  8
LAY-1
  6
CONTINUOUS
 62
     7
100
AcDbLine
 10
282.850248
 20
57.583048
 30
0.0
 11
265.350248
 21
57.583048
 31
0.0
  0
ARC
  5
1E3
100
AcDbEntity
  8
LAY-1
  6
CONTINUOUS
 62
     7
100
AcDbCircle
 10
265.350248
 20
11.327774
 30
0.0
 40
54.5596
100
AcDbArc
 50
83.11721
 51
90.0
  0
LINE
  5
1E4
100
AcDbEntity
  8
LAY-1
  6
CONTINUOUS
 62
     7
100
AcDbLine
 10
269.850248
 20
46.087375
 30
0.0
 11
269.850248
 21
47.887375
 31
0.0
  0
ARC
  5
1E5
100
AcDbEntity
  8
LAY-1
  6
CONTINUOUS
 62
     7
100
AcDbCircle
 10
259.850248
 20
47.887375
 30
0.0
 40
1.0
100
AcDbArc
 50
0.0
 51
48.119042
  0
ARC
  5
1E6
100
AcDbEntity
  8
LAY-1
  6
CONTINUOUS
 62
     7
100
AcDbCircle
 10
270.850248
 20
47.887375
 30
0.0
 40
1.0
100
AcDbArc
 50
131.880958
 51
180.0
  0
LINE
  5
1E7
100
AcDbEntity
  8
LAY-1
  6
CONTINUOUS
 62
     7
100
AcDbLine
 10
264.189429
 20
37.387375
 30
0.0
 11
264.189429
 21
39.819771
 31
0.0
  0
LINE
  5
1E8
100
AcDbEntity
  8
LAY-1
  6
CONTINUOUS
 62
     7
100
AcDbLine
 10
266.511066
 20
37.387375
 30
0.0
 11
266.511066
 21
39.819771
 31
0.0
  0
LINE
  5
1E9
100
AcDbEntity
  8
LAY-1
  6
CONTINUOUS
 62
     7
100
AcDbLine
 10
250.350248
 20
39.883048
 30
0.0
 11
250.350248
 21
52.005698
 31
0.0
  0
LINE
  5
1EA
100
AcDbEntity
  8
LAY-1
  6
CONTINUOUS
 62
     7
100
AcDbLine
 10
247.350248
 20
57.083048
 30
0.0
 11
247.350248
 21
54.892449
 31
0.0
  0
LINE
  5
1EB
100
AcDbEntity
  8
LAY-1
  6
CONTINUOUS
 62
     7
100
AcDbLine
 10
247.850248
 20
54.026424
 30
0.0
 11
249.850248
 21
52.871723
 31
0.0
  0
ELLIPSE
  5
1EC
100
AcDbEntity
  8
LAY-1
  6
CONTINUOUS
 62
     7
100
AcDbEllipse
 10
261.140248
 20
44.887375
 30
0.0
 11
0.0000000000000001
 21
1.0
 31
0.0
210
0.0
220
0.0
230
1.0
 40
0.71
 41
0.0000000000000004
 42
3.1415926535897931
  0
ELLIPSE
  5
1ED
100
AcDbEntity
  8
LAY-1
  6
CONTINUOUS
 62
     7
100
AcDbEllipse
 10
261.360248
 20
41.637375
 30
0.0
 11
0.0000000000000001
 21
1.250000000000498
 31
0.0
210
0.0
220
0.0
230
1.0
 40
0.792
 41
0.0000000000000004
 42
3.1415926535897931
  0
LINE
  5
1EE
100
AcDbEntity
  8
LAY-1
  6
CONTINUOUS
 62
     7
100
AcDbLine
 10
261.050248
 20
40.387375
 30
0.0
 11
265.350248
 21
40.387375
 31
0.0
  0
LINE
  5
1EF
100
AcDbEntity
  8
LAY-1
  6
CONTINUOUS
 62
     7
100
AcDbLine
 10
261.050248
 20
42.887375
 30
0.0
 11
265.350248
 21
42.887375
 31
0.0
  0
LINE
  5
1F0
100
AcDbEntity
  8
LAY-1
  6
CONTINUOUS
 62
     7
100
AcDbLine
 10
261.050248
 20
43.887375
 30
0.0
 11
265.350248
 21
43.887375
 31
0.0
  0
LINE
  5
1F1
100
AcDbEntity
  8
LAY-1
  6
CONTINUOUS
 62
     7
100
AcDbLine
 10
261.050248
 20
45.887375
 30
0.0
 11
265.350248
 21
45.887375
 31
0.0
  0
ARC
  5
1F2
100
AcDbEntity
  8
LAY-1
  6
CONTINUOUS
 62
     7
100
AcDbCircle
 10
269.650248
 20
46.087375
 30
0.0
 40
0.2
100
AcDbArc
 50
270.0
 51
0.0
  0
ARC
  5
1F3
100
AcDbEntity
  8
LAY-1
  6
CONTINUOUS
 62
     7
100
AcDbCircle
 10
269.650248
 20
43.687375
 30
0.0
 40
0.2
100
AcDbArc
 50
0.0
 51
90.0
  0
LINE
  5
1F4
100
AcDbEntity
  8
LAY-1
  6
CONTINUOUS
 62
     7
100
AcDbLine
 10
269.850248
 20
43.087375
 30
0.0
 11
269.850248
 21
43.687375
 31
0.0
  0
ARC
  5
1F5
100
AcDbEntity
  8
LAY-1
  6
CONTINUOUS
 62
     7
100
AcDbCircle
 10
269.650248
 20
43.087375
 30
0.0
 40
0.2
100
AcDbArc
 50
270.0
 51
0.0
  0
ELLIPSE
  5
1F6
100
AcDbEntity
  8
LAY-1
  6
CONTINUOUS
 62
     7
100
AcDbEllipse
 10
269.560248
 20
44.887375
 30
0.0
 11
0.0000000000000001
 21
1.0
 31
0.0
210
0.0
220
0.0
230
1.0
 40
0.71
 41
3.1415926535897931
 42
0.0000000000000004
  0
ELLIPSE
  5
1F7
100
AcDbEntity
  8
LAY-1
  6
CONTINUOUS
 62
     7
100
AcDbEllipse
 10
269.340248
 20
41.637375
 30
0.0
 11
0.0000000000000001
 21
1.250000000000498
 31
0.0
210
0.0
220
0.0
230
1.0
 40
0.792
 41
3.1415926535897931
 42
0.0000000000000004
  0
LINE
  5
1F8
100
AcDbEntity
  8
LAY-1
  6
CONTINUOUS
 62
     7
100
AcDbLine
 10
269.650248
 20
40.387375
 30
0.0
 11
265.350248
 21
40.387375
 31
0.0
  0
LINE
  5
1F9
100
AcDbEntity
  8
LAY-1
  6
CONTINUOUS
 62
     7
100
AcDbLine
 10
269.650248
 20
42.887375
 30
0.0
 11
265.350248
 21
42.887375
 31
0.0
  0
LINE
  5
1FA
100
AcDbEntity
  8
LAY-1
  6
CONTINUOUS
 62
     7
100
AcDbLine
 10
269.650248
 20
43.887375
 30
0.0
 11
265.350248
 21
43.887375
 31
0.0
  0
LINE
  5
1FB
100
AcDbEntity
  8
LAY-1
  6
CONTINUOUS
 62
     7
100
AcDbLine
 10
269.650248
 20
45.887375
 30
0.0
 11
265.350248
 21
45.887375
 31
0.0
  0
ARC
  5
1FC
100
AcDbEntity
  8
LAY-1
  6
CONTINUOUS
 62
     7
100
AcDbCircle
 10
269.650248
 20
40.187375
 30
0.0
 40
0.2
100
AcDbArc
 50
0.0
 51
90.0
  0
ARC
  5
1FD
100
AcDbEntity
  8
LAY-1
  6
CONTINUOUS
 62
     7
100
AcDbCircle
 10
265.350248
 20
29.887375
 30
0.0
 40
10.0
100
AcDbArc
 50
83.333971
 51
96.666029
  0
LINE
  5
1FE
100
AcDbEntity
  8
LAY-1
  6
CONTINUOUS
 62
     7
100
AcDbLine
 10
248.51544
 20
54.315099
 30
0.0
 11
265.350248
 21
54.315099
 31
0.0
  0
LINE
  5
1FF
100
AcDbEntity
  8
LAY-1
  6
CONTINUOUS
 62
     7
100
AcDbLine
 10
250.88544
 20
52.583048
 30
0.0
 11
265.350248
 21
52.583048
 31
0.0
  0
LINE
  5
200
100
AcDbEntity
  8
LAY-1
  6
CONTINUOUS
 62
     7
100
AcDbLine
 10
279.815055
 20
52.583048
 30
0.0
 11
265.350248
 21
52.583048
 31
0.0
  0
LINE
  5
201
100
AcDbEntity
  8
LAY-1
  6
CONTINUOUS
 62
     7
100
AcDbLine
 10
282.185055
 20
54.315099
 30
0.0
 11
265.350248
 21
54.315099
 31
0.0
  0
LINE
  5
202
100
AcDbEntity
  8
LAY-1
  6
CONTINUOUS
 62
     7
100
AcDbLine
 10
272.215055
 20
39.583048
 30
0.0
 11
280.050248
 21
39.583048
 31
0.0
  0
LINE
  5
203
100
AcDbEntity
  8
LAY-1
  6
CONTINUOUS
 62
     7
100
AcDbLine
 10
258.48544
 20
39.583048
 30
0.0
 11
250.650248
 21
39.583048
 31
0.0
  0
POLYLINE
  5
204
100
AcDbEntity
  8
LAY-1
  6
CONTINUOUS
 62
     1
100
AcDb2dPolyline
 66
     1
 10
0.0
 20
0.0
 30
0.0
 70
   128
  0
VERTEX
  5
205
100
AcDbEntity
  8
LAY-1
  6
CONTINUOUS
 62
     1
100
AcDbVertex
100
AcDb2dVertex
 10
258.09544
 20
38.887375
 30
0.0
  0
VERTEX
  5
206
100
AcDbEntity
  8
LAY-1
  6
CONTINUOUS
 62
     1
100
AcDbVertex
100
AcDb2dVertex
 10
258.112451
 20
38.911963
 30
0.0
  0
VERTEX
  5
207
100
AcDbEntity
  8
LAY-1
  6
CONTINUOUS
 62
     1
100
AcDbVertex
100
AcDb2dVertex
 10
258.15949
 20
38.982009
 30
0.0
  0
VERTEX
  5
208
100
AcDbEntity
  8
LAY-1
  6
CONTINUOUS
 62
     1
100
AcDbVertex
100
AcDb2dVertex
 10
258.230564
 20
39.091933
 30
0.0
  0
VERTEX
  5
209
100
AcDbEntity
  8
LAY-1
  6
CONTINUOUS
 62
     1
100
AcDbVertex
100
AcDb2dVertex
 10
258.319682
 20
39.236157
 30
0.0
  0
VERTEX
  5
20A
100
AcDbEntity
  8
LAY-1
  6
CONTINUOUS
 62
     1
100
AcDbVertex
100
AcDb2dVertex
 10
258.420853
 20
39.409101
 30
0.0
  0
VERTEX
  5
20B
100
AcDbEntity
  8
LAY-1
  6
CONTINUOUS
 62
     1
100
AcDbVertex
100
AcDb2dVertex
 10
258.528084
 20
39.605186
 30
0.0
  0
VERTEX
  5
20C
100
AcDbEntity
  8
LAY-1
  6
CONTINUOUS
 62
     1
100
AcDbVertex
100
AcDb2dVertex
 10
258.635385
 20
39.818834
 30
0.0
  0
VERTEX
  5
20D
100
AcDbEntity
  8
LAY-1
  6
CONTINUOUS
 62
     1
100
AcDbVertex
100
AcDb2dVertex
 10
258.736762
 20
40.044465
 30
0.0
  0
VERTEX
  5
20E
100
AcDbEntity
  8
LAY-1
  6
CONTINUOUS
 62
     1
100
AcDbVertex
100
AcDb2dVertex
 10
258.826225
 20
40.276501
 30
0.0
  0
VERTEX
  5
20F
100
AcDbEntity
  8
LAY-1
  6
CONTINUOUS
 62
     1
100
AcDbVertex
100
AcDb2dVertex
 10
258.897781
 20
40.509363
 30
0.0
  0
VERTEX
  5
210
100
AcDbEntity
  8
LAY-1
  6
CONTINUOUS
 62
     1
100
AcDbVertex
100
AcDb2dVertex
 10
258.94544
 20
40.737471
 30
0.0
  0
VERTEX
  5
211
100
AcDbEntity
  8
LAY-1
  6
CONTINUOUS
 62
     1
100
AcDbVertex
100
AcDb2dVertex
 10
258.965433
 20
40.977256
 30
0.0
  0
VERTEX
  5
212
100
AcDbEntity
  8
LAY-1
  6
CONTINUOUS
 62
     1
100
AcDbVertex
100
AcDb2dVertex
 10
258.955349
 20
41.205661
 30
0.0
  0
VERTEX
  5
213
100
AcDbEntity
  8
LAY-1
  6
CONTINUOUS
 62
     1
100
AcDbVertex
100
AcDb2dVertex
 10
258.921154
 20
41.423768
 30
0.0
  0
VERTEX
  5
214
100
AcDbEntity
  8
LAY-1
  6
CONTINUOUS
 62
     1
100
AcDbVertex
100
AcDb2dVertex
 10
258.868814
 20
41.632655
 30
0.0
  0
VERTEX
  5
215
100
AcDbEntity
  8
LAY-1
  6
CONTINUOUS
 62
     1
100
AcDbVertex
100
AcDb2dVertex
 10
258.804293
 20
41.833405
 30
0.0
  0
VERTEX
  5
216
100
AcDbEntity
  8
LAY-1
  6
CONTINUOUS
 62
     1
100
AcDbVertex
100
AcDb2dVertex
 10
258.733557
 20
42.027095
 30
0.0
  0
VERTEX
  5
217
100
AcDbEntity
  8
LAY-1
  6
CONTINUOUS
 62
     1
100
AcDbVertex
100
AcDb2dVertex
 10
258.662571
 20
42.214807
 30
0.0
  0
VERTEX
  5
218
100
AcDbEntity
  8
LAY-1
  6
CONTINUOUS
 62
     1
100
AcDbVertex
100
AcDb2dVertex
 10
258.597301
 20
42.39762
 30
0.0
  0
VERTEX
  5
219
100
AcDbEntity
  8
LAY-1
  6
CONTINUOUS
 62
     1
100
AcDbVertex
100
AcDb2dVertex
 10
258.543712
 20
42.576615
 30
0.0
  0
VERTEX
  5
21A
100
AcDbEntity
  8
LAY-1
  6
CONTINUOUS
 62
     1
100
AcDbVertex
100
AcDb2dVertex
 10
258.50777
 20
42.752872
 30
0.0
  0
VERTEX
  5
21B
100
AcDbEntity
  8
LAY-1
  6
CONTINUOUS
 62
     1
100
AcDbVertex
100
AcDb2dVertex
 10
258.49544
 20
42.927471
 30
0.0
  0
VERTEX
  5
21C
100
AcDbEntity
  8
LAY-1
  6
CONTINUOUS
 62
     1
100
AcDbVertex
100
AcDb2dVertex
 10
258.524331
 20
43.16843
 30
0.0
  0
VERTEX
  5
21D
100
AcDbEntity
  8
LAY-1
  6
CONTINUOUS
 62
     1
100
AcDbVertex
100
AcDb2dVertex
 10
258.600721
 20
43.4091
 30
0.0
  0
VERTEX
  5
21E
100
AcDbEntity
  8
LAY-1
  6
CONTINUOUS
 62
     1
100
AcDbVertex
100
AcDb2dVertex
 10
258.715276
 20
43.650299
 30
0.0
  0
VERTEX
  5
21F
100
AcDbEntity
  8
LAY-1
  6
CONTINUOUS
 62
     1
100
AcDbVertex
100
AcDb2dVertex
 10
258.85866
 20
43.89285
 30
0.0
  0
VERTEX
  5
220
100
AcDbEntity
  8
LAY-1
  6
CONTINUOUS
 62
     1
100
AcDbVertex
100
AcDb2dVertex
 10
259.021538
 20
44.137573
 30
0.0
  0
VERTEX
  5
221
100
AcDbEntity
  8
LAY-1
  6
CONTINUOUS
 62
     1
100
AcDbVertex
100
AcDb2dVertex
 10
259.194576
 20
44.385288
 30
0.0
  0
VERTEX
  5
222
100
AcDbEntity
  8
LAY-1
  6
CONTINUOUS
 62
     1
100
AcDbVertex
100
AcDb2dVertex
 10
259.368439
 20
44.636817
 30
0.0
  0
VERTEX
  5
223
100
AcDbEntity
  8
LAY-1
  6
CONTINUOUS
 62
     1
100
AcDbVertex
100
AcDb2dVertex
 10
259.533792
 20
44.892978
 30
0.0
  0
VERTEX
  5
224
100
AcDbEntity
  8
LAY-1
  6
CONTINUOUS
 62
     1
100
AcDbVertex
100
AcDb2dVertex
 10
259.681299
 20
45.154594
 30
0.0
  0
VERTEX
  5
225
100
AcDbEntity
  8
LAY-1
  6
CONTINUOUS
 62
     1
100
AcDbVertex
100
AcDb2dVertex
 10
259.801627
 20
45.422485
 30
0.0
  0
VERTEX
  5
226
100
AcDbEntity
  8
LAY-1
  6
CONTINUOUS
 62
     1
100
AcDbVertex
100
AcDb2dVertex
 10
259.88544
 20
45.697471
 30
0.0
  0
VERTEX
  5
227
100
AcDbEntity
  8
LAY-1
  6
CONTINUOUS
 62
     1
100
AcDbVertex
100
AcDb2dVertex
 10
259.914525
 20
45.861565
 30
0.0
  0
VERTEX
  5
228
100
AcDbEntity
  8
LAY-1
  6
CONTINUOUS
 62
     1
100
AcDbVertex
100
AcDb2dVertex
 10
259.930559
 20
46.027707
 30
0.0
  0
VERTEX
  5
229
100
AcDbEntity
  8
LAY-1
  6
CONTINUOUS
 62
     1
100
AcDbVertex
100
AcDb2dVertex
 10
259.936136
 20
46.195244
 30
0.0
  0
VERTEX
  5
22A
100
AcDbEntity
  8
LAY-1
  6
CONTINUOUS
 62
     1
100
AcDbVertex
100
AcDb2dVertex
 10
259.93385
 20
46.363524
 30
0.0
  0
VERTEX
  5
22B
100
AcDbEntity
  8
LAY-1
  6
CONTINUOUS
 62
     1
100
AcDbVertex
100
AcDb2dVertex
 10
259.926291
 20
46.531895
 30
0.0
  0
VERTEX
  5
22C
100
AcDbEntity
  8
LAY-1
  6
CONTINUOUS
 62
     1
100
AcDbVertex
100
AcDb2dVertex
 10
259.916054
 20
46.699704
 30
0.0
  0
VERTEX
  5
22D
100
AcDbEntity
  8
LAY-1
  6
CONTINUOUS
 62
     1
100
AcDbVertex
100
AcDb2dVertex
 10
259.905732
 20
46.866297
 30
0.0
  0
VERTEX
  5
22E
100
AcDbEntity
  8
LAY-1
  6
CONTINUOUS
 62
     1
100
AcDbVertex
100
AcDb2dVertex
 10
259.897916
 20
47.031023
 30
0.0
  0
VERTEX
  5
22F
100
AcDbEntity
  8
LAY-1
  6
CONTINUOUS
 62
     1
100
AcDbVertex
100
AcDb2dVertex
 10
259.8952
 20
47.193229
 30
0.0
  0
VERTEX
  5
230
100
AcDbEntity
  8
LAY-1
  6
CONTINUOUS
 62
     1
100
AcDbVertex
100
AcDb2dVertex
 10
259.900177
 20
47.352263
 30
0.0
  0
VERTEX
  5
231
100
AcDbEntity
  8
LAY-1
  6
CONTINUOUS
 62
     1
100
AcDbVertex
100
AcDb2dVertex
 10
259.91544
 20
47.507471
 30
0.0
  0
VERTEX
  5
232
100
AcDbEntity
  8
LAY-1
  6
CONTINUOUS
 62
     1
100
AcDbVertex
100
AcDb2dVertex
 10
259.963885
 20
47.740056
 30
0.0
  0
VERTEX
  5
233
100
AcDbEntity
  8
LAY-1
  6
CONTINUOUS
 62
     1
100
AcDbVertex
100
AcDb2dVertex
 10
260.042344
 20
47.961895
 30
0.0
  0
VERTEX
  5
234
100
AcDbEntity
  8
LAY-1
  6
CONTINUOUS
 62
     1
100
AcDbVertex
100
AcDb2dVertex
 10
260.149704
 20
48.173064
 30
0.0
  0
VERTEX
  5
235
100
AcDbEntity
  8
LAY-1
  6
CONTINUOUS
 62
     1
100
AcDbVertex
100
AcDb2dVertex
 10
260.284851
 20
48.373639
 30
0.0
  0
VERTEX
  5
236
100
AcDbEntity
  8
LAY-1
  6
CONTINUOUS
 62
     1
100
AcDbVertex
100
AcDb2dVertex
 10
260.446673
 20
48.563698
 30
0.0
  0
VERTEX
  5
237
100
AcDbEntity
  8
LAY-1
  6
CONTINUOUS
 62
     1
100
AcDbVertex
100
AcDb2dVertex
 10
260.634057
 20
48.743315
 30
0.0
  0
VERTEX
  5
238
100
AcDbEntity
  8
LAY-1
  6
CONTINUOUS
 62
     1
100
AcDbVertex
100
AcDb2dVertex
 10
260.845889
 20
48.912569
 30
0.0
  0
VERTEX
  5
239
100
AcDbEntity
  8
LAY-1
  6
CONTINUOUS
 62
     1
100
AcDbVertex
100
AcDb2dVertex
 10
261.081056
 20
49.071535
 30
0.0
  0
VERTEX
  5
23A
100
AcDbEntity
  8
LAY-1
  6
CONTINUOUS
 62
     1
100
AcDbVertex
100
AcDb2dVertex
 10
261.338446
 20
49.220289
 30
0.0
  0
VERTEX
  5
23B
100
AcDbEntity
  8
LAY-1
  6
CONTINUOUS
 62
     1
100
AcDbVertex
100
AcDb2dVertex
 10
261.616945
 20
49.358909
 30
0.0
  0
VERTEX
  5
23C
100
AcDbEntity
  8
LAY-1
  6
CONTINUOUS
 62
     1
100
AcDbVertex
100
AcDb2dVertex
 10
261.91544
 20
49.487471
 30
0.0
  0
VERTEX
  5
23D
100
AcDbEntity
  8
LAY-1
  6
CONTINUOUS
 62
     1
100
AcDbVertex
100
AcDb2dVertex
 10
262.314963
 20
49.634699
 30
0.0
  0
VERTEX
  5
23E
100
AcDbEntity
  8
LAY-1
  6
CONTINUOUS
 62
     1
100
AcDbVertex
100
AcDb2dVertex
 10
262.73242
 20
49.766506
 30
0.0
  0
VERTEX
  5
23F
100
AcDbEntity
  8
LAY-1
  6
CONTINUOUS
 62
     1
100
AcDbVertex
100
AcDb2dVertex
 10
263.156016
 20
49.883187
 30
0.0
  0
VERTEX
  5
240
100
AcDbEntity
  8
LAY-1
  6
CONTINUOUS
 62
     1
100
AcDbVertex
100
AcDb2dVertex
 10
263.573955
 20
49.985037
 30
0.0
  0
VERTEX
  5
241
100
AcDbEntity
  8
LAY-1
  6
CONTINUOUS
 62
     1
100
AcDbVertex
100
AcDb2dVertex
 10
263.97444
 20
50.072349
 30
0.0
  0
VERTEX
  5
242
100
AcDbEntity
  8
LAY-1
  6
CONTINUOUS
 62
     1
100
AcDbVertex
100
AcDb2dVertex
 10
264.345675
 20
50.145421
 30
0.0
  0
VERTEX
  5
243
100
AcDbEntity
  8
LAY-1
  6
CONTINUOUS
 62
     1
100
AcDbVertex
100
AcDb2dVertex
 10
264.675865
 20
50.204545
 30
0.0
  0
VERTEX
  5
244
100
AcDbEntity
  8
LAY-1
  6
CONTINUOUS
 62
     1
100
AcDbVertex
100
AcDb2dVertex
 10
264.953214
 20
50.250017
 30
0.0
  0
VERTEX
  5
245
100
AcDbEntity
  8
LAY-1
  6
CONTINUOUS
 62
     1
100
AcDbVertex
100
AcDb2dVertex
 10
265.165924
 20
50.282133
 30
0.0
  0
VERTEX
  5
246
100
AcDbEntity
  8
LAY-1
  6
CONTINUOUS
 62
     1
100
AcDbVertex
100
AcDb2dVertex
 10
265.302201
 20
50.301185
 30
0.0
  0
VERTEX
  5
247
100
AcDbEntity
  8
LAY-1
  6
CONTINUOUS
 62
     1
100
AcDbVertex
100
AcDb2dVertex
 10
265.350248
 20
50.307471
 30
0.0
  0
SEQEND
  5
248
100
AcDbEntity
  8
LAY-1
  6
CONTINUOUS
 62
     1
  0
POLYLINE
  5
249
100
AcDbEntity
  8
LAY-1
  6
CONTINUOUS
 62
     1
100
AcDb2dPolyline
 66
     1
 10
0.0
 20
0.0
 30
0.0
 70
   128
  0
VERTEX
  5
24A
100
AcDbEntity
  8
LAY-1
  6
CONTINUOUS
 62
     1
100
AcDbVertex
100
AcDb2dVertex
 10
272.605055
 20
38.887375
 30
0.0
  0
VERTEX
  5
24B
100
AcDbEntity
  8
LAY-1
  6
CONTINUOUS
 62
     1
100
AcDbVertex
100
AcDb2dVertex
 10
272.588044
 20
38.911963
 30
0.0
  0
VERTEX
  5
24C
100
AcDbEntity
  8
LAY-1
  6
CONTINUOUS
 62
     1
100
AcDbVertex
100
AcDb2dVertex
 10
272.541006
 20
38.982009
 30
0.0
  0
VERTEX
  5
24D
100
AcDbEntity
  8
LAY-1
  6
CONTINUOUS
 62
     1
100
AcDbVertex
100
AcDb2dVertex
 10
272.469931
 20
39.091933
 30
0.0
  0
VERTEX
  5
24E
100
AcDbEntity
  8
LAY-1
  6
CONTINUOUS
 62
     1
100
AcDbVertex
100
AcDb2dVertex
 10
272.380813
 20
39.236157
 30
0.0
  0
VERTEX
  5
24F
100
AcDbEntity
  8
LAY-1
  6
CONTINUOUS
 62
     1
100
AcDbVertex
100
AcDb2dVertex
 10
272.279642
 20
39.409101
 30
0.0
  0
VERTEX
  5
250
100
AcDbEntity
  8
LAY-1
  6
CONTINUOUS
 62
     1
100
AcDbVertex
100
AcDb2dVertex
 10
272.172411
 20
39.605186
 30
0.0
  0
VERTEX
  5
251
100
AcDbEntity
  8
LAY-1
  6
CONTINUOUS
 62
     1
100
AcDbVertex
100
AcDb2dVertex
 10
272.065111
 20
39.818834
 30
0.0
  0
VERTEX
  5
252
100
AcDbEntity
  8
LAY-1
  6
CONTINUOUS
 62
     1
100
AcDbVertex
100
AcDb2dVertex
 10
271.963733
 20
40.044465
 30
0.0
  0
VERTEX
  5
253
100
AcDbEntity
  8
LAY-1
  6
CONTINUOUS
 62
     1
100
AcDbVertex
100
AcDb2dVertex
 10
271.87427
 20
40.276501
 30
0.0
  0
VERTEX
  5
254
100
AcDbEntity
  8
LAY-1
  6
CONTINUOUS
 62
     1
100
AcDbVertex
100
AcDb2dVertex
 10
271.802714
 20
40.509363
 30
0.0
  0
VERTEX
  5
255
100
AcDbEntity
  8
LAY-1
  6
CONTINUOUS
 62
     1
100
AcDbVertex
100
AcDb2dVertex
 10
271.755055
 20
40.737471
 30
0.0
  0
VERTEX
  5
256
100
AcDbEntity
  8
LAY-1
  6
CONTINUOUS
 62
     1
100
AcDbVertex
100
AcDb2dVertex
 10
271.735062
 20
40.977256
 30
0.0
  0
VERTEX
  5
257
100
AcDbEntity
  8
LAY-1
  6
CONTINUOUS
 62
     1
100
AcDbVertex
100
AcDb2dVertex
 10
271.745146
 20
41.205661
 30
0.0
  0
VERTEX
  5
258
100
AcDbEntity
  8
LAY-1
  6
CONTINUOUS
 62
     1
100
AcDbVertex
100
AcDb2dVertex
 10
271.779341
 20
41.423768
 30
0.0
  0
VERTEX
  5
259
100
AcDbEntity
  8
LAY-1
  6
CONTINUOUS
 62
     1
100
AcDbVertex
100
AcDb2dVertex
 10
271.831682
 20
41.632655
 30
0.0
  0
VERTEX
  5
25A
100
AcDbEntity
  8
LAY-1
  6
CONTINUOUS
 62
     1
100
AcDbVertex
100
AcDb2dVertex
 10
271.896203
 20
41.833405
 30
0.0
  0
VERTEX
  5
25B
100
AcDbEntity
  8
LAY-1
  6
CONTINUOUS
 62
     1
100
AcDbVertex
100
AcDb2dVertex
 10
271.966939
 20
42.027095
 30
0.0
  0
VERTEX
  5
25C
100
AcDbEntity
  8
LAY-1
  6
CONTINUOUS
 62
     1
100
AcDbVertex
100
AcDb2dVertex
 10
272.037924
 20
42.214807
 30
0.0
  0
VERTEX
  5
25D
100
AcDbEntity
  8
LAY-1
  6
CONTINUOUS
 62
     1
100
AcDbVertex
100
AcDb2dVertex
 10
272.103194
 20
42.39762
 30
0.0
  0
VERTEX
  5
25E
100
AcDbEntity
  8
LAY-1
  6
CONTINUOUS
 62
     1
100
AcDbVertex
100
AcDb2dVertex
 10
272.156783
 20
42.576615
 30
0.0
  0
VERTEX
  5
25F
100
AcDbEntity
  8
LAY-1
  6
CONTINUOUS
 62
     1
100
AcDbVertex
100
AcDb2dVertex
 10
272.192725
 20
42.752872
 30
0.0
  0
VERTEX
  5
260
100
AcDbEntity
  8
LAY-1
  6
CONTINUOUS
 62
     1
100
AcDbVertex
100
AcDb2dVertex
 10
272.205055
 20
42.927471
 30
0.0
  0
VERTEX
  5
261
100
AcDbEntity
  8
LAY-1
  6
CONTINUOUS
 62
     1
100
AcDbVertex
100
AcDb2dVertex
 10
272.176164
 20
43.16843
 30
0.0
  0
VERTEX
  5
262
100
AcDbEntity
  8
LAY-1
  6
CONTINUOUS
 62
     1
100
AcDbVertex
100
AcDb2dVertex
 10
272.099774
 20
43.4091
 30
0.0
  0
VERTEX
  5
263
100
AcDbEntity
  8
LAY-1
  6
CONTINUOUS
 62
     1
100
AcDbVertex
100
AcDb2dVertex
 10
271.98522
 20
43.650299
 30
0.0
  0
VERTEX
  5
264
100
AcDbEntity
  8
LAY-1
  6
CONTINUOUS
 62
     1
100
AcDbVertex
100
AcDb2dVertex
 10
271.841836
 20
43.89285
 30
0.0
  0
VERTEX
  5
265
100
AcDbEntity
  8
LAY-1
  6
CONTINUOUS
 62
     1
100
AcDbVertex
100
AcDb2dVertex
 10
271.678957
 20
44.137573
 30
0.0
  0
VERTEX
  5
266
100
AcDbEntity
  8
LAY-1
  6
CONTINUOUS
 62
     1
100
AcDbVertex
100
AcDb2dVertex
 10
271.505919
 20
44.385288
 30
0.0
  0
VERTEX
  5
267
100
AcDbEntity
  8
LAY-1
  6
CONTINUOUS
 62
     1
100
AcDbVertex
100
AcDb2dVertex
 10
271.332056
 20
44.636817
 30
0.0
  0
VERTEX
  5
268
100
AcDbEntity
  8
LAY-1
  6
CONTINUOUS
 62
     1
100
AcDbVertex
100
AcDb2dVertex
 10
271.166704
 20
44.892978
 30
0.0
  0
VERTEX
  5
269
100
AcDbEntity
  8
LAY-1
  6
CONTINUOUS
 62
     1
100
AcDbVertex
100
AcDb2dVertex
 10
271.019196
 20
45.154594
 30
0.0
  0
VERTEX
  5
26A
100
AcDbEntity
  8
LAY-1
  6
CONTINUOUS
 62
     1
100
AcDbVertex
100
AcDb2dVertex
 10
270.898868
 20
45.422485
 30
0.0
  0
VERTEX
  5
26B
100
AcDbEntity
  8
LAY-1
  6
CONTINUOUS
 62
     1
100
AcDbVertex
100
AcDb2dVertex
 10
270.815055
 20
45.697471
 30
0.0
  0
VERTEX
  5
26C
100
AcDbEntity
  8
LAY-1
  6
CONTINUOUS
 62
     1
100
AcDbVertex
100
AcDb2dVertex
 10
270.785971
 20
45.861565
 30
0.0
  0
VERTEX
  5
26D
100
AcDbEntity
  8
LAY-1
  6
CONTINUOUS
 62
     1
100
AcDbVertex
100
AcDb2dVertex
 10
270.769936
 20
46.027707
 30
0.0
  0
VERTEX
  5
26E
100
AcDbEntity
  8
LAY-1
  6
CONTINUOUS
 62
     1
100
AcDbVertex
100
AcDb2dVertex
 10
270.764359
 20
46.195244
 30
0.0
  0
VERTEX
  5
26F
100
AcDbEntity
  8
LAY-1
  6
CONTINUOUS
 62
     1
100
AcDbVertex
100
AcDb2dVertex
 10
270.766646
 20
46.363524
 30
0.0
  0
VERTEX
  5
270
100
AcDbEntity
  8
LAY-1
  6
CONTINUOUS
 62
     1
100
AcDbVertex
100
AcDb2dVertex
 10
270.774204
 20
46.531895
 30
0.0
  0
VERTEX
  5
271
100
AcDbEntity
  8
LAY-1
  6
CONTINUOUS
 62
     1
100
AcDbVertex
100
AcDb2dVertex
 10
270.784441
 20
46.699704
 30
0.0
  0
VERTEX
  5
272
100
AcDbEntity
  8
LAY-1
  6
CONTINUOUS
 62
     1
100
AcDbVertex
100
AcDb2dVertex
 10
270.794764
 20
46.866297
 30
0.0
  0
VERTEX
  5
273
100
AcDbEntity
  8
LAY-1
  6
CONTINUOUS
 62
     1
100
AcDbVertex
100
AcDb2dVertex
 10
270.802579
 20
47.031023
 30
0.0
  0
VERTEX
  5
274
100
AcDbEntity
  8
LAY-1
  6
CONTINUOUS
 62
     1
100
AcDbVertex
100
AcDb2dVertex
 10
270.805295
 20
47.193229
 30
0.0
  0
VERTEX
  5
275
100
AcDbEntity
  8
LAY-1
  6
CONTINUOUS
 62
     1
100
AcDbVertex
100
AcDb2dVertex
 10
270.800318
 20
47.352263
 30
0.0
  0
VERTEX
  5
276
100
AcDbEntity
  8
LAY-1
  6
CONTINUOUS
 62
     1
100
AcDbVertex
100
AcDb2dVertex
 10
270.785055
 20
47.507471
 30
0.0
  0
VERTEX
  5
277
100
AcDbEntity
  8
LAY-1
  6
CONTINUOUS
 62
     1
100
AcDbVertex
100
AcDb2dVertex
 10
270.73661
 20
47.740056
 30
0.0
  0
VERTEX
  5
278
100
AcDbEntity
  8
LAY-1
  6
CONTINUOUS
 62
     1
100
AcDbVertex
100
AcDb2dVertex
 10
270.658151
 20
47.961895
 30
0.0
  0
VERTEX
  5
279
100
AcDbEntity
  8
LAY-1
  6
CONTINUOUS
 62
     1
100
AcDbVertex
100
AcDb2dVertex
 10
270.550791
 20
48.173064
 30
0.0
  0
VERTEX
  5
27A
100
AcDbEntity
  8
LAY-1
  6
CONTINUOUS
 62
     1
100
AcDbVertex
100
AcDb2dVertex
 10
270.415644
 20
48.373639
 30
0.0
  0
VERTEX
  5
27B
100
AcDbEntity
  8
LAY-1
  6
CONTINUOUS
 62
     1
100
AcDbVertex
100
AcDb2dVertex
 10
270.253822
 20
48.563698
 30
0.0
  0
VERTEX
  5
27C
100
AcDbEntity
  8
LAY-1
  6
CONTINUOUS
 62
     1
100
AcDbVertex
100
AcDb2dVertex
 10
270.066439
 20
48.743315
 30
0.0
  0
VERTEX
  5
27D
100
AcDbEntity
  8
LAY-1
  6
CONTINUOUS
 62
     1
100
AcDbVertex
100
AcDb2dVertex
 10
269.854607
 20
48.912569
 30
0.0
  0
VERTEX
  5
27E
100
AcDbEntity
  8
LAY-1
  6
CONTINUOUS
 62
     1
100
AcDbVertex
100
AcDb2dVertex
 10
269.619439
 20
49.071535
 30
0.0
  0
VERTEX
  5
27F
100
AcDbEntity
  8
LAY-1
  6
CONTINUOUS
 62
     1
100
AcDbVertex
100
AcDb2dVertex
 10
269.36205
 20
49.220289
 30
0.0
  0
VERTEX
  5
280
100
AcDbEntity
  8
LAY-1
  6
CONTINUOUS
 62
     1
100
AcDbVertex
100
AcDb2dVertex
 10
269.083551
 20
49.358909
 30
0.0
  0
VERTEX
  5
281
100
AcDbEntity
  8
LAY-1
  6
CONTINUOUS
 62
     1
100
AcDbVertex
100
AcDb2dVertex
 10
268.785055
 20
49.487471
 30
0.0
  0
VERTEX
  5
282
100
AcDbEntity
  8
LAY-1
  6
CONTINUOUS
 62
     1
100
AcDbVertex
100
AcDb2dVertex
 10
268.385533
 20
49.634699
 30
0.0
  0
VERTEX
  5
283
100
AcDbEntity
  8
LAY-1
  6
CONTINUOUS
 62
     1
100
AcDbVertex
100
AcDb2dVertex
 10
267.968075
 20
49.766506
 30
0.0
  0
VERTEX
  5
284
100
AcDbEntity
  8
LAY-1
  6
CONTINUOUS
 62
     1
100
AcDbVertex
100
AcDb2dVertex
 10
267.544479
 20
49.883187
 30
0.0
  0
VERTEX
  5
285
100
AcDbEntity
  8
LAY-1
  6
CONTINUOUS
 62
     1
100
AcDbVertex
100
AcDb2dVertex
 10
267.126541
 20
49.985037
 30
0.0
  0
VERTEX
  5
286
100
AcDbEntity
  8
LAY-1
  6
CONTINUOUS
 62
     1
100
AcDbVertex
100
AcDb2dVertex
 10
266.726055
 20
50.072349
 30
0.0
  0
VERTEX
  5
287
100
AcDbEntity
  8
LAY-1
  6
CONTINUOUS
 62
     1
100
AcDbVertex
100
AcDb2dVertex
 10
266.35482
 20
50.145421
 30
0.0
  0
VERTEX
  5
288
100
AcDbEntity
  8
LAY-1
  6
CONTINUOUS
 62
     1
100
AcDbVertex
100
AcDb2dVertex
 10
266.02463
 20
50.204545
 30
0.0
  0
VERTEX
  5
289
100
AcDbEntity
  8
LAY-1
  6
CONTINUOUS
 62
     1
100
AcDbVertex
100
AcDb2dVertex
 10
265.747282
 20
50.250017
 30
0.0
  0
VERTEX
  5
28A
100
AcDbEntity
  8
LAY-1
  6
CONTINUOUS
 62
     1
100
AcDbVertex
100
AcDb2dVertex
 10
265.534571
 20
50.282133
 30
0.0
  0
VERTEX
  5
28B
100
AcDbEntity
  8
LAY-1
  6
CONTINUOUS
 62
     1
100
AcDbVertex
100
AcDb2dVertex
 10
265.398295
 20
50.301185
 30
0.0
  0
VERTEX
  5
28C
100
AcDbEntity
  8
LAY-1
  6
CONTINUOUS
 62
     1
100
AcDbVertex
100
AcDb2dVertex
 10
265.350248
 20
50.307471
 30
0.0
  0
SEQEND
  5
28D
100
AcDbEntity
  8
LAY-1
  6
CONTINUOUS
 62
     1
  0
LINE
  5
28E
100
AcDbEntity
  8
LAY-1
  6
CONTINUOUS
 62
     7
100
AcDbLine
 10
263.200248
 20
5.8
 30
0.0
 11
263.200248
 21
14.75
 31
0.0
  0
LINE
  5
28F
100
AcDbEntity
  8
LAY-1
  6
CONTINUOUS
 62
     7
100
AcDbLine
 10
267.500248
 20
5.8
 30
0.0
 11
267.500248
 21
14.75
 31
0.0
  0
LINE
  5
290
100
AcDbEntity
  8
LAY-1
  6
CONTINUOUS
 62
     7
100
AcDbLine
 10
263.200248
 20
5.8
 30
0.0
 11
267.500248
 21
5.8
 31
0.0
  0
LINE
  5
291
100
AcDbEntity
  8
LAY-1
  6
CONTINUOUS
 62
     7
100
AcDbLine
 10
263.200248
 20
14.75
 30
0.0
 11
259.500248
 21
14.75
 31
0.0
  0
LINE
  5
292
100
AcDbEntity
  8
LAY-1
  6
CONTINUOUS
 62
     7
100
AcDbLine
 10
267.500248
 20
14.75
 30
0.0
 11
271.200248
 21
14.75
 31
0.0
  0
CIRCLE
  5
293
100
AcDbEntity
  8
LAY-1
  6
CONTINUOUS
 62
     7
100
AcDbCircle
 10
260.250248
 20
211.187375
 30
0.0
 40
7.5
  0
ARC
  5
294
100
AcDbEntity
  8
LAY-1
  6
CONTINUOUS
 62
     7
100
AcDbCircle
 10
253.750248
 20
192.387375
 30
0.0
 40
1.5
100
AcDbArc
 50
180.0
 51
270.0
  0
LINE
  5
295
100
AcDbEntity
  8
LAY-1
  6
CONTINUOUS
 62
     7
100
AcDbLine
 10
267.750248
 20
190.887375
 30
0.0
 11
253.750248
 21
190.887375
 31
0.0
  0
LINE
  5
296
100
AcDbEntity
  8
LAY-1
  6
CONTINUOUS
 62
     7
100
AcDbLine
 10
252.250248
 20
201.387375
 30
0.0
 11
252.250248
 21
192.387375
 31
0.0
  0
ARC
  5
297
100
AcDbEntity
  8
LAY-1
  6
CONTINUOUS
 62
     7
100
AcDbCircle
 10
253.750248
 20
201.387375
 30
0.0
 40
1.5
100
AcDbArc
 50
90.0
 51
180.0
  0
LINE
  5
298
100
AcDbEntity
  8
LAY-1
  6
CONTINUOUS
 62
     7
100
AcDbLine
 10
267.750248
 20
202.887375
 30
0.0
 11
253.750248
 21
202.887375
 31
0.0
  0
ARC
  5
299
100
AcDbEntity
  8
LAY-1
  6
CONTINUOUS
 62
     7
100
AcDbCircle
 10
267.750248
 20
201.387375
 30
0.0
 40
1.5
100
AcDbArc
 50
0.0
 51
90.0
  0
LINE
  5
29A
100
AcDbEntity
  8
LAY-1
  6
CONTINUOUS
 62
     7
100
AcDbLine
 10
269.250248
 20
201.387375
 30
0.0
 11
269.250248
 21
192.387375
 31
0.0
  0
ARC
  5
29B
100
AcDbEntity
  8
LAY-1
  6
CONTINUOUS
 62
     7
100
AcDbCircle
 10
267.750248
 20
192.387375
 30
0.0
 40
1.5
100
AcDbArc
 50
270.0
 51
0.0
  0
ARC
  5
29C
100
AcDbEntity
  8
LAY-1
  6
CONTINUOUS
 62
     7
100
AcDbCircle
 10
222.92069
 20
191.573666
 30
0.0
 40
8.070443
100
AcDbArc
 50
215.494601
 51
215.497921
  0
ARC
  5
29D
100
AcDbEntity
  8
LAY-1
  6
CONTINUOUS
 62
     7
100
AcDbCircle
 10
222.92069
 20
191.573666
 30
0.0
 40
8.070443
100
AcDbArc
 50
144.502079
 51
180.0
  0
ARC
  5
29E
100
AcDbEntity
  8
LAY-1
  6
CONTINUOUS
 62
     7
100
AcDbCircle
 10
222.92069
 20
214.201083
 30
0.0
 40
8.070443
100
AcDbArc
 50
180.0
 51
215.497921
  0
ARC
  5
29F
100
AcDbEntity
  8
LAY-1
  6
CONTINUOUS
 62
     7
100
AcDbCircle
 10
222.92069
 20
214.201083
 30
0.0
 40
8.070443
100
AcDbArc
 50
144.502079
 51
144.505399
  0
ARC
  5
2A0
100
AcDbEntity
  8
LAY-1
  6
CONTINUOUS
 62
     7
100
AcDbCircle
 10
214.473058
 20
212.413654
 30
0.0
 40
5.62281
100
AcDbArc
 50
180.0
 51
214.384247
  0
ARC
  5
2A1
100
AcDbEntity
  8
LAY-1
  6
CONTINUOUS
 62
     7
100
AcDbCircle
 10
214.473058
 20
212.413654
 30
0.0
 40
5.62281
100
AcDbArc
 50
145.615753
 51
214.384247
  0
ARC
  5
2A2
100
AcDbEntity
  8
LAY-1
  6
CONTINUOUS
 62
     7
100
AcDbCircle
 10
214.085808
 20
193.483261
 30
0.0
 40
5.23556
100
AcDbArc
 50
144.325655
 51
180.0
  0
ARC
  5
2A3
100
AcDbEntity
  8
LAY-1
  6
CONTINUOUS
 62
     7
100
AcDbCircle
 10
209.227438
 20
193.361095
 30
0.0
 40
5.62281
100
AcDbArc
 50
0.0
 51
34.384247
  0
ARC
  5
2A4
100
AcDbEntity
  8
LAY-1
  6
CONTINUOUS
 62
     7
100
AcDbCircle
 10
209.614688
 20
212.291489
 30
0.0
 40
5.23556
100
AcDbArc
 50
324.325655
 51
0.0
  0
LINE
  5
2A5
100
AcDbEntity
  8
LAY-1
  6
CONTINUOUS
 62
     7
100
AcDbLine
 10
173.750248
 20
210.787375
 30
0.0
 11
173.750248
 21
194.987375
 31
0.0
  0
LINE
  5
2A6
100
AcDbEntity
  8
LAY-1
  6
CONTINUOUS
 62
     7
100
AcDbLine
 10
171.850248
 20
202.887375
 30
0.0
 11
171.850248
 21
210.287375
 31
0.0
  0
LINE
  5
2A7
100
AcDbEntity
  8
LAY-1
  6
CONTINUOUS
 62
     7
100
AcDbLine
 10
171.850248
 20
202.887375
 30
0.0
 11
171.850248
 21
195.487375
 31
0.0
  0
LINE
  5
2A8
100
AcDbEntity
  8
LAY-1
  6
CONTINUOUS
 62
     7
100
AcDbLine
 10
176.950248
 20
210.787375
 30
0.0
 11
176.950248
 21
194.987375
 31
0.0
  0
LINE
  5
2A9
100
AcDbEntity
  8
LAY-1
  6
CONTINUOUS
 62
     7
100
AcDbLine
 10
174.950248
 20
196.187375
 30
0.0
 11
174.950248
 21
209.587375
 31
0.0
  0
LINE
  5
2AA
100
AcDbEntity
  8
LAY-1
  6
CONTINUOUS
 62
     7
100
AcDbLine
 10
175.750248
 20
209.587375
 30
0.0
 11
175.750248
 21
196.187375
 31
0.0
  0
LINE
  5
2AB
100
AcDbEntity
  8
LAY-1
  6
CONTINUOUS
 62
     7
100
AcDbLine
 10
184.050248
 20
202.887375
 30
0.0
 11
184.050248
 21
212.887375
 31
0.0
  0
LINE
  5
2AC
100
AcDbEntity
  8
LAY-1
  6
CONTINUOUS
 62
     7
100
AcDbLine
 10
184.050248
 20
202.887375
 30
0.0
 11
184.050248
 21
192.887375
 31
0.0
  0
LINE
  5
2AD
100
AcDbEntity
  8
LAY-1
  6
CONTINUOUS
 62
     7
100
AcDbLine
 10
170.350248
 20
198.887375
 30
0.0
 11
170.350248
 21
198.387375
 31
0.0
  0
LINE
  5
2AE
100
AcDbEntity
  8
LAY-1
  6
CONTINUOUS
 62
     7
100
AcDbLine
 10
176.950248
 20
194.987375
 30
0.0
 11
184.050248
 21
194.987375
 31
0.0
  0
LINE
  5
2AF
100
AcDbEntity
  8
LAY-1
  6
CONTINUOUS
 62
     7
100
AcDbLine
 10
174.950248
 20
196.187375
 30
0.0
 11
175.750248
 21
196.187375
 31
0.0
  0
LINE
  5
2B0
100
AcDbEntity
  8
LAY-1
  6
CONTINUOUS
 62
     7
100
AcDbLine
 10
172.350248
 20
194.987375
 30
0.0
 11
173.750248
 21
194.987375
 31
0.0
  0
LINE
  5
2B1
100
AcDbEntity
  8
LAY-1
  6
CONTINUOUS
 62
     7
100
AcDbLine
 10
176.950248
 20
194.987375
 30
0.0
 11
175.750248
 21
196.187375
 31
0.0
  0
LINE
  5
2B2
100
AcDbEntity
  8
LAY-1
  6
CONTINUOUS
 62
     7
100
AcDbLine
 10
173.750248
 20
194.987375
 30
0.0
 11
174.950248
 21
196.187375
 31
0.0
  0
ARC
  5
2B3
100
AcDbEntity
  8
LAY-1
  6
CONTINUOUS
 62
     7
100
AcDbCircle
 10
172.350248
 20
195.487375
 30
0.0
 40
0.5
100
AcDbArc
 50
180.0
 51
270.0
  0
ARC
  5
2B4
100
AcDbEntity
  8
LAY-1
  6
CONTINUOUS
 62
     7
100
AcDbCircle
 10
178.144476
 20
202.887375
 30
0.0
 40
9.0
100
AcDbArc
 50
210.0
 51
225.624422
  0
LINE
  5
2B5
100
AcDbEntity
  8
LAY-1
  6
CONTINUOUS
 62
     7
100
AcDbLine
 10
170.350248
 20
206.887375
 30
0.0
 11
170.350248
 21
198.387375
 31
0.0
  0
LINE
  5
2B6
100
AcDbEntity
  8
LAY-1
  6
CONTINUOUS
 62
     7
100
AcDbLine
 10
170.350248
 20
206.887375
 30
0.0
 11
170.350248
 21
207.387375
 31
0.0
  0
LINE
  5
2B7
100
AcDbEntity
  8
LAY-1
  6
CONTINUOUS
 62
     7
100
AcDbLine
 10
176.950248
 20
210.787375
 30
0.0
 11
184.050248
 21
210.787375
 31
0.0
  0
LINE
  5
2B8
100
AcDbEntity
  8
LAY-1
  6
CONTINUOUS
 62
     7
100
AcDbLine
 10
174.950248
 20
209.587375
 30
0.0
 11
175.750248
 21
209.587375
 31
0.0
  0
LINE
  5
2B9
100
AcDbEntity
  8
LAY-1
  6
CONTINUOUS
 62
     7
100
AcDbLine
 10
172.350248
 20
210.787375
 30
0.0
 11
173.750248
 21
210.787375
 31
0.0
  0
LINE
  5
2BA
100
AcDbEntity
  8
LAY-1
  6
CONTINUOUS
 62
     7
100
AcDbLine
 10
176.950248
 20
210.787375
 30
0.0
 11
175.750248
 21
209.587375
 31
0.0
  0
LINE
  5
2BB
100
AcDbEntity
  8
LAY-1
  6
CONTINUOUS
 62
     7
100
AcDbLine
 10
173.750248
 20
210.787375
 30
0.0
 11
174.950248
 21
209.587375
 31
0.0
  0
ARC
  5
2BC
100
AcDbEntity
  8
LAY-1
  6
CONTINUOUS
 62
     7
100
AcDbCircle
 10
172.350248
 20
210.287375
 30
0.0
 40
0.5
100
AcDbArc
 50
90.0
 51
180.0
  0
ARC
  5
2BD
100
AcDbEntity
  8
LAY-1
  6
CONTINUOUS
 62
     7
100
AcDbCircle
 10
178.144476
 20
202.887375
 30
0.0
 40
9.0
100
AcDbArc
 50
134.375578
 51
150.0
  0
LINE
  5
2BE
100
AcDbEntity
  8
LAY-1
  6
CONTINUOUS
 62
     7
100
AcDbLine
 10
170.350248
 20
206.887375
 30
0.0
 11
170.350248
 21
198.387375
 31
0.0
  0
LINE
  5
2BF
100
AcDbEntity
  8
LAY-1
  6
CONTINUOUS
 62
     7
100
AcDbLine
 10
170.350248
 20
206.887375
 30
0.0
 11
170.350248
 21
207.387375
 31
0.0
  0
ARC
  5
2C0
100
AcDbEntity
  8
LAY-1
  6
CONTINUOUS
 62
     7
100
AcDbCircle
 10
178.144476
 20
202.887375
 30
0.0
 40
9.0
100
AcDbArc
 50
210.0
 51
225.624422
  0
ARC
  5
2C1
100
AcDbEntity
  8
LAY-1
  6
CONTINUOUS
 62
     7
100
AcDbCircle
 10
178.144476
 20
202.887375
 30
0.0
 40
9.0
100
AcDbArc
 50
134.375578
 51
150.0
  0
LINE
  5
2C2
100
AcDbEntity
  8
LAY-1
  6
CONTINUOUS
 62
     7
100
AcDbLine
 10
209.832728
 20
209.238228
 30
0.0
 11
213.867767
 21
209.238228
 31
0.0
  0
LINE
  5
2C3
100
AcDbEntity
  8
LAY-1
  6
CONTINUOUS
 62
     7
100
AcDbLine
 10
209.832728
 20
196.536522
 30
0.0
 11
213.867767
 21
196.536522
 31
0.0
  0
ARC
  5
2C4
100
AcDbEntity
  8
LAY-1
  6
CONTINUOUS
 62
     7
100
AcDbCircle
 10
209.227438
 20
193.361095
 30
0.0
 40
5.62281
100
AcDbArc
 50
325.615753
 51
34.384247
  0
ARC
  5
2C5
100
AcDbEntity
  8
LAY-1
  6
CONTINUOUS
 62
     7
100
AcDbCircle
 10
193.832728
 20
202.887375
 30
0.0
 40
21.01752
100
AcDbArc
 50
342.412046
 51
17.587954
  0
ARC
  5
2C6
100
AcDbEntity
  8
LAY-1
  6
CONTINUOUS
 62
     7
100
AcDbCircle
 10
209.614688
 20
212.291489
 30
0.0
 40
5.23556
100
AcDbArc
 50
324.325655
 51
35.674345
  0
ARC
  5
2C7
100
AcDbEntity
  8
LAY-1
  6
CONTINUOUS
 62
     7
100
AcDbCircle
 10
214.085808
 20
193.483261
 30
0.0
 40
5.23556
100
AcDbArc
 50
144.325655
 51
215.674345
  0
ARC
  5
2C8
100
AcDbEntity
  8
LAY-1
  6
CONTINUOUS
 62
     7
100
AcDbCircle
 10
229.867767
 20
202.887375
 30
0.0
 40
21.01752
100
AcDbArc
 50
162.412046
 51
197.587954
  0
LINE
  5
2C9
100
AcDbEntity
  8
LAY-1
  6
CONTINUOUS
 62
     7
100
AcDbLine
 10
209.832728
 20
215.589081
 30
0.0
 11
213.867767
 21
215.589081
 31
0.0
  0
LINE
  5
2CA
100
AcDbEntity
  8
LAY-1
  6
CONTINUOUS
 62
     7
100
AcDbLine
 10
208.850248
 20
213.887375
 30
0.0
 11
209.832728
 21
215.589081
 31
0.0
  0
LINE
  5
2CB
100
AcDbEntity
  8
LAY-1
  6
CONTINUOUS
 62
     7
100
AcDbLine
 10
214.850248
 20
213.887375
 30
0.0
 11
213.867767
 21
215.589081
 31
0.0
  0
LINE
  5
2CC
100
AcDbEntity
  8
LAY-1
  6
CONTINUOUS
 62
     7
100
AcDbLine
 10
209.832728
 20
190.185669
 30
0.0
 11
213.867767
 21
190.185669
 31
0.0
  0
LINE
  5
2CD
100
AcDbEntity
  8
LAY-1
  6
CONTINUOUS
 62
     7
100
AcDbLine
 10
208.850248
 20
191.887375
 30
0.0
 11
209.832728
 21
190.185669
 31
0.0
  0
LINE
  5
2CE
100
AcDbEntity
  8
LAY-1
  6
CONTINUOUS
 62
     7
100
AcDbLine
 10
214.850248
 20
191.887375
 30
0.0
 11
213.867767
 21
190.185669
 31
0.0
  0
LINE
  5
2CF
100
AcDbEntity
  8
LAY-1
  6
CONTINUOUS
 62
     7
100
AcDbLine
 10
190.902068
 20
194.99507
 30
0.0
 11
208.31767
 21
194.99507
 31
0.0
  0
LINE
  5
2D0
100
AcDbEntity
  8
LAY-1
  6
CONTINUOUS
 62
     7
100
AcDbLine
 10
190.902068
 20
197.887375
 30
0.0
 11
208.298427
 21
197.887375
 31
0.0
  0
LINE
  5
2D1
100
AcDbEntity
  8
LAY-1
  6
CONTINUOUS
 62
     7
100
AcDbLine
 10
190.902068
 20
210.77968
 30
0.0
 11
208.31767
 21
210.77968
 31
0.0
  0
LINE
  5
2D2
100
AcDbEntity
  8
LAY-1
  6
CONTINUOUS
 62
     7
100
AcDbLine
 10
190.902068
 20
207.887375
 30
0.0
 11
208.298427
 21
207.887375
 31
0.0
  0
ARC
  5
2D3
100
AcDbEntity
  8
LAY-1
  6
CONTINUOUS
 62
     7
100
AcDbCircle
 10
196.484222
 20
192.49507
 30
0.0
 40
6.133975
100
AcDbArc
 50
155.947969
 51
180.0
  0
LINE
  5
2D4
100
AcDbEntity
  8
LAY-1
  6
CONTINUOUS
 62
     7
100
AcDbLine
 10
190.902068
 20
197.887375
 30
0.0
 11
190.902068
 21
194.99507
 31
0.0
  0
ARC
  5
2D5
100
AcDbEntity
  8
LAY-1
  6
CONTINUOUS
 62
     7
100
AcDbCircle
 10
213.278451
 20
202.887375
 30
0.0
 40
22.928203
100
AcDbArc
 50
167.40418
 51
192.59582
  0
LINE
  5
2D6
100
AcDbEntity
  8
LAY-1
  6
CONTINUOUS
 62
     7
100
AcDbLine
 10
190.902068
 20
207.887375
 30
0.0
 11
190.902068
 21
210.77968
 31
0.0
  0
ARC
  5
2D7
100
AcDbEntity
  8
LAY-1
  6
CONTINUOUS
 62
     7
100
AcDbCircle
 10
196.484222
 20
213.27968
 30
0.0
 40
6.133975
100
AcDbArc
 50
180.0
 51
204.489304
  0
LINE
  5
2D8
100
AcDbEntity
  8
LAY-1
  6
CONTINUOUS
 62
     7
100
AcDbLine
 10
208.850248
 20
190.887375
 30
0.0
 11
208.272897
 21
189.887375
 31
0.0
  0
LINE
  5
2D9
100
AcDbEntity
  8
LAY-1
  6
CONTINUOUS
 62
     7
100
AcDbLine
 10
208.850248
 20
214.887375
 30
0.0
 11
208.272897
 21
215.887375
 31
0.0
  0
ARC
  5
2DA
100
AcDbEntity
  8
LAY-1
  6
CONTINUOUS
 62
     7
100
AcDbCircle
 10
185.922044
 20
202.887375
 30
0.0
 40
22.928203
100
AcDbArc
 50
347.40418
 51
12.59582
  0
ARC
  5
2DB
100
AcDbEntity
  8
LAY-1
  6
CONTINUOUS
 62
     7
100
AcDbCircle
 10
202.716273
 20
192.49507
 30
0.0
 40
6.133975
100
AcDbArc
 50
0.0
 51
24.489304
  0
LINE
  5
2DC
100
AcDbEntity
  8
LAY-1
  6
CONTINUOUS
 62
     7
100
AcDbLine
 10
208.298427
 20
197.887375
 30
0.0
 11
208.298427
 21
194.99507
 31
0.0
  0
LINE
  5
2DD
100
AcDbEntity
  8
LAY-1
  6
CONTINUOUS
 62
     7
100
AcDbLine
 10
208.298427
 20
207.887375
 30
0.0
 11
208.298427
 21
210.77968
 31
0.0
  0
ARC
  5
2DE
100
AcDbEntity
  8
LAY-1
  6
CONTINUOUS
 62
     7
100
AcDbCircle
 10
202.716273
 20
213.27968
 30
0.0
 40
6.133975
100
AcDbArc
 50
335.947969
 51
0.0
  0
LINE
  5
2DF
100
AcDbEntity
  8
LAY-1
  6
CONTINUOUS
 62
     7
100
AcDbLine
 10
208.850248
 20
202.887375
 30
0.0
 11
208.850248
 21
214.887375
 31
0.0
  0
LINE
  5
2E0
100
AcDbEntity
  8
LAY-1
  6
CONTINUOUS
 62
     7
100
AcDbLine
 10
208.850248
 20
202.887375
 30
0.0
 11
208.850248
 21
190.887375
 31
0.0
  0
LINE
  5
2E1
100
AcDbEntity
  8
LAY-1
  6
CONTINUOUS
 62
     7
100
AcDbLine
 10
190.350248
 20
202.887375
 30
0.0
 11
190.350248
 21
214.887375
 31
0.0
  0
LINE
  5
2E2
100
AcDbEntity
  8
LAY-1
  6
CONTINUOUS
 62
     7
100
AcDbLine
 10
190.350248
 20
202.887375
 30
0.0
 11
190.350248
 21
190.887375
 31
0.0
  0
LINE
  5
2E3
100
AcDbEntity
  8
LAY-1
  6
CONTINUOUS
 62
     7
100
AcDbLine
 10
208.272897
 20
189.887375
 30
0.0
 11
190.927598
 21
189.887375
 31
0.0
  0
LINE
  5
2E4
100
AcDbEntity
  8
LAY-1
  6
CONTINUOUS
 62
     7
100
AcDbLine
 10
208.272897
 20
215.887375
 30
0.0
 11
190.927598
 21
215.887375
 31
0.0
  0
LINE
  5
2E5
100
AcDbEntity
  8
LAY-1
  6
CONTINUOUS
 62
     7
100
AcDbLine
 10
190.350248
 20
190.887375
 30
0.0
 11
190.927598
 21
189.887375
 31
0.0
  0
ARC
  5
2E6
100
AcDbEntity
  8
LAY-1
  6
CONTINUOUS
 62
     7
100
AcDbCircle
 10
184.550248
 20
192.887375
 30
0.0
 40
0.5
100
AcDbArc
 50
180.0
 51
270.0
  0
LINE
  5
2E7
100
AcDbEntity
  8
LAY-1
  6
CONTINUOUS
 62
     7
100
AcDbLine
 10
190.350248
 20
192.387375
 30
0.0
 11
184.550248
 21
192.387375
 31
0.0
  0
LINE
  5
2E8
100
AcDbEntity
  8
LAY-1
  6
CONTINUOUS
 62
     7
100
AcDbLine
 10
190.350248
 20
214.887375
 30
0.0
 11
190.927598
 21
215.887375
 31
0.0
  0
ARC
  5
2E9
100
AcDbEntity
  8
LAY-1
  6
CONTINUOUS
 62
     7
100
AcDbCircle
 10
184.550248
 20
212.887375
 30
0.0
 40
0.5
100
AcDbArc
 50
90.0
 51
180.0
  0
LINE
  5
2EA
100
AcDbEntity
  8
LAY-1
  6
CONTINUOUS
 62
     7
100
AcDbLine
 10
190.350248
 20
213.387375
 30
0.0
 11
184.550248
 21
213.387375
 31
0.0
  0
LINE
  5
2EB
100
AcDbEntity
  8
LAY-1
  6
CONTINUOUS
 62
     7
100
AcDbLine
 10
173.750248
 20
210.787375
 30
0.0
 11
173.750248
 21
194.987375
 31
0.0
  0
LINE
  5
2EC
100
AcDbEntity
  8
LAY-1
  6
CONTINUOUS
 62
     7
100
AcDbLine
 10
171.850248
 20
202.887375
 30
0.0
 11
171.850248
 21
210.287375
 31
0.0
  0
LINE
  5
2ED
100
AcDbEntity
  8
LAY-1
  6
CONTINUOUS
 62
     7
100
AcDbLine
 10
171.850248
 20
202.887375
 30
0.0
 11
171.850248
 21
195.487375
 31
0.0
  0
LINE
  5
2EE
100
AcDbEntity
  8
LAY-1
  6
CONTINUOUS
 62
     7
100
AcDbLine
 10
176.950248
 20
210.787375
 30
0.0
 11
176.950248
 21
194.987375
 31
0.0
  0
LINE
  5
2EF
100
AcDbEntity
  8
LAY-1
  6
CONTINUOUS
 62
     7
100
AcDbLine
 10
174.950248
 20
196.187375
 30
0.0
 11
174.950248
 21
209.587375
 31
0.0
  0
LINE
  5
2F0
100
AcDbEntity
  8
LAY-1
  6
CONTINUOUS
 62
     7
100
AcDbLine
 10
175.750248
 20
209.587375
 30
0.0
 11
175.750248
 21
196.187375
 31
0.0
  0
LINE
  5
2F1
100
AcDbEntity
  8
LAY-1
  6
CONTINUOUS
 62
     7
100
AcDbLine
 10
184.050248
 20
202.887375
 30
0.0
 11
184.050248
 21
212.887375
 31
0.0
  0
LINE
  5
2F2
100
AcDbEntity
  8
LAY-1
  6
CONTINUOUS
 62
     7
100
AcDbLine
 10
184.050248
 20
202.887375
 30
0.0
 11
184.050248
 21
192.887375
 31
0.0
  0
LINE
  5
2F3
100
AcDbEntity
  8
LAY-1
  6
CONTINUOUS
 62
     7
100
AcDbLine
 10
170.350248
 20
198.887375
 30
0.0
 11
170.350248
 21
198.387375
 31
0.0
  0
LINE
  5
2F4
100
AcDbEntity
  8
LAY-1
  6
CONTINUOUS
 62
     7
100
AcDbLine
 10
176.950248
 20
194.987375
 30
0.0
 11
184.050248
 21
194.987375
 31
0.0
  0
LINE
  5
2F5
100
AcDbEntity
  8
LAY-1
  6
CONTINUOUS
 62
     7
100
AcDbLine
 10
174.950248
 20
196.187375
 30
0.0
 11
175.750248
 21
196.187375
 31
0.0
  0
LINE
  5
2F6
100
AcDbEntity
  8
LAY-1
  6
CONTINUOUS
 62
     7
100
AcDbLine
 10
172.350248
 20
194.987375
 30
0.0
 11
173.750248
 21
194.987375
 31
0.0
  0
LINE
  5
2F7
100
AcDbEntity
  8
LAY-1
  6
CONTINUOUS
 62
     7
100
AcDbLine
 10
176.950248
 20
194.987375
 30
0.0
 11
175.750248
 21
196.187375
 31
0.0
  0
LINE
  5
2F8
100
AcDbEntity
  8
LAY-1
  6
CONTINUOUS
 62
     7
100
AcDbLine
 10
173.750248
 20
194.987375
 30
0.0
 11
174.950248
 21
196.187375
 31
0.0
  0
ARC
  5
2F9
100
AcDbEntity
  8
LAY-1
  6
CONTINUOUS
 62
     7
100
AcDbCircle
 10
172.350248
 20
195.487375
 30
0.0
 40
0.5
100
AcDbArc
 50
180.0
 51
270.0
  0
ARC
  5
2FA
100
AcDbEntity
  8
LAY-1
  6
CONTINUOUS
 62
     7
100
AcDbCircle
 10
178.144476
 20
202.887375
 30
0.0
 40
9.0
100
AcDbArc
 50
210.0
 51
225.624422
  0
LINE
  5
2FB
100
AcDbEntity
  8
LAY-1
  6
CONTINUOUS
 62
     7
100
AcDbLine
 10
170.350248
 20
206.887375
 30
0.0
 11
170.350248
 21
198.387375
 31
0.0
  0
LINE
  5
2FC
100
AcDbEntity
  8
LAY-1
  6
CONTINUOUS
 62
     7
100
AcDbLine
 10
170.350248
 20
206.887375
 30
0.0
 11
170.350248
 21
207.387375
 31
0.0
  0
LINE
  5
2FD
100
AcDbEntity
  8
LAY-1
  6
CONTINUOUS
 62
     7
100
AcDbLine
 10
176.950248
 20
210.787375
 30
0.0
 11
184.050248
 21
210.787375
 31
0.0
  0
LINE
  5
2FE
100
AcDbEntity
  8
LAY-1
  6
CONTINUOUS
 62
     7
100
AcDbLine
 10
174.950248
 20
209.587375
 30
0.0
 11
175.750248
 21
209.587375
 31
0.0
  0
LINE
  5
2FF
100
AcDbEntity
  8
LAY-1
  6
CONTINUOUS
 62
     7
100
AcDbLine
 10
172.350248
 20
210.787375
 30
0.0
 11
173.750248
 21
210.787375
 31
0.0
  0
LINE
  5
300
100
AcDbEntity
  8
LAY-1
  6
CONTINUOUS
 62
     7
100
AcDbLine
 10
176.950248
 20
210.787375
 30
0.0
 11
175.750248
 21
209.587375
 31
0.0
  0
LINE
  5
301
100
AcDbEntity
  8
LAY-1
  6
CONTINUOUS
 62
     7
100
AcDbLine
 10
173.750248
 20
210.787375
 30
0.0
 11
174.950248
 21
209.587375
 31
0.0
  0
ARC
  5
302
100
AcDbEntity
  8
LAY-1
  6
CONTINUOUS
 62
     7
100
AcDbCircle
 10
172.350248
 20
210.287375
 30
0.0
 40
0.5
100
AcDbArc
 50
90.0
 51
180.0
  0
ARC
  5
303
100
AcDbEntity
  8
LAY-1
  6
CONTINUOUS
 62
     7
100
AcDbCircle
 10
178.144476
 20
202.887375
 30
0.0
 40
9.0
100
AcDbArc
 50
134.375578
 51
150.0
  0
LINE
  5
304
100
AcDbEntity
  8
LAY-1
  6
CONTINUOUS
 62
     7
100
AcDbLine
 10
170.350248
 20
206.887375
 30
0.0
 11
170.350248
 21
198.387375
 31
0.0
  0
LINE
  5
305
100
AcDbEntity
  8
LAY-1
  6
CONTINUOUS
 62
     7
100
AcDbLine
 10
170.350248
 20
206.887375
 30
0.0
 11
170.350248
 21
207.387375
 31
0.0
  0
ARC
  5
306
100
AcDbEntity
  8
LAY-1
  6
CONTINUOUS
 62
     7
100
AcDbCircle
 10
178.144476
 20
202.887375
 30
0.0
 40
9.0
100
AcDbArc
 50
210.0
 51
225.624422
  0
ARC
  5
307
100
AcDbEntity
  8
LAY-1
  6
CONTINUOUS
 62
     7
100
AcDbCircle
 10
178.144476
 20
202.887375
 30
0.0
 40
9.0
100
AcDbArc
 50
134.375578
 51
150.0
  0
LINE
  5
308
100
AcDbEntity
  8
LAY-1
  6
CONTINUOUS
 62
     7
100
AcDbLine
 10
209.832728
 20
209.238228
 30
0.0
 11
213.867767
 21
209.238228
 31
0.0
  0
LINE
  5
309
100
AcDbEntity
  8
LAY-1
  6
CONTINUOUS
 62
     7
100
AcDbLine
 10
209.832728
 20
196.536522
 30
0.0
 11
213.867767
 21
196.536522
 31
0.0
  0
ARC
  5
30A
100
AcDbEntity
  8
LAY-1
  6
CONTINUOUS
 62
     7
100
AcDbCircle
 10
193.832728
 20
202.887375
 30
0.0
 40
21.01752
100
AcDbArc
 50
342.412046
 51
17.587954
  0
ARC
  5
30B
100
AcDbEntity
  8
LAY-1
  6
CONTINUOUS
 62
     7
100
AcDbCircle
 10
229.867767
 20
202.887375
 30
0.0
 40
21.01752
100
AcDbArc
 50
162.412046
 51
197.587954
  0
LINE
  5
30C
100
AcDbEntity
  8
LAY-1
  6
CONTINUOUS
 62
     7
100
AcDbLine
 10
209.832728
 20
215.589081
 30
0.0
 11
213.867767
 21
215.589081
 31
0.0
  0
LINE
  5
30D
100
AcDbEntity
  8
LAY-1
  6
CONTINUOUS
 62
     7
100
AcDbLine
 10
208.850248
 20
213.887375
 30
0.0
 11
209.832728
 21
215.589081
 31
0.0
  0
LINE
  5
30E
100
AcDbEntity
  8
LAY-1
  6
CONTINUOUS
 62
     7
100
AcDbLine
 10
214.850248
 20
213.887375
 30
0.0
 11
213.867767
 21
215.589081
 31
0.0
  0
LINE
  5
30F
100
AcDbEntity
  8
LAY-1
  6
CONTINUOUS
 62
     7
100
AcDbLine
 10
209.832728
 20
190.185669
 30
0.0
 11
213.867767
 21
190.185669
 31
0.0
  0
LINE
  5
310
100
AcDbEntity
  8
LAY-1
  6
CONTINUOUS
 62
     7
100
AcDbLine
 10
208.850248
 20
191.887375
 30
0.0
 11
209.832728
 21
190.185669
 31
0.0
  0
LINE
  5
311
100
AcDbEntity
  8
LAY-1
  6
CONTINUOUS
 62
     7
100
AcDbLine
 10
214.850248
 20
191.887375
 30
0.0
 11
213.867767
 21
190.185669
 31
0.0
  0
LINE
  5
312
100
AcDbEntity
  8
LAY-1
  6
CONTINUOUS
 62
     7
100
AcDbLine
 10
190.902068
 20
194.99507
 30
0.0
 11
208.31767
 21
194.99507
 31
0.0
  0
LINE
  5
313
100
AcDbEntity
  8
LAY-1
  6
CONTINUOUS
 62
     7
100
AcDbLine
 10
190.902068
 20
197.887375
 30
0.0
 11
208.298427
 21
197.887375
 31
0.0
  0
LINE
  5
314
100
AcDbEntity
  8
LAY-1
  6
CONTINUOUS
 62
     7
100
AcDbLine
 10
190.902068
 20
210.77968
 30
0.0
 11
208.31767
 21
210.77968
 31
0.0
  0
LINE
  5
315
100
AcDbEntity
  8
LAY-1
  6
CONTINUOUS
 62
     7
100
AcDbLine
 10
190.902068
 20
207.887375
 30
0.0
 11
208.298427
 21
207.887375
 31
0.0
  0
ARC
  5
316
100
AcDbEntity
  8
LAY-1
  6
CONTINUOUS
 62
     7
100
AcDbCircle
 10
196.484222
 20
192.49507
 30
0.0
 40
6.133975
100
AcDbArc
 50
155.947969
 51
180.0
  0
LINE
  5
317
100
AcDbEntity
  8
LAY-1
  6
CONTINUOUS
 62
     7
100
AcDbLine
 10
190.902068
 20
197.887375
 30
0.0
 11
190.902068
 21
194.99507
 31
0.0
  0
ARC
  5
318
100
AcDbEntity
  8
LAY-1
  6
CONTINUOUS
 62
     7
100
AcDbCircle
 10
213.278451
 20
202.887375
 30
0.0
 40
22.928203
100
AcDbArc
 50
167.40418
 51
192.59582
  0
LINE
  5
319
100
AcDbEntity
  8
LAY-1
  6
CONTINUOUS
 62
     7
100
AcDbLine
 10
190.902068
 20
207.887375
 30
0.0
 11
190.902068
 21
210.77968
 31
0.0
  0
ARC
  5
31A
100
AcDbEntity
  8
LAY-1
  6
CONTINUOUS
 62
     7
100
AcDbCircle
 10
196.484222
 20
213.27968
 30
0.0
 40
6.133975
100
AcDbArc
 50
180.0
 51
204.489304
  0
LINE
  5
31B
100
AcDbEntity
  8
LAY-1
  6
CONTINUOUS
 62
     7
100
AcDbLine
 10
208.850248
 20
190.887375
 30
0.0
 11
208.272897
 21
189.887375
 31
0.0
  0
LINE
  5
31C
100
AcDbEntity
  8
LAY-1
  6
CONTINUOUS
 62
     7
100
AcDbLine
 10
208.850248
 20
214.887375
 30
0.0
 11
208.272897
 21
215.887375
 31
0.0
  0
ARC
  5
31D
100
AcDbEntity
  8
LAY-1
  6
CONTINUOUS
 62
     7
100
AcDbCircle
 10
185.922044
 20
202.887375
 30
0.0
 40
22.928203
100
AcDbArc
 50
347.40418
 51
12.59582
  0
ARC
  5
31E
100
AcDbEntity
  8
LAY-1
  6
CONTINUOUS
 62
     7
100
AcDbCircle
 10
202.716273
 20
192.49507
 30
0.0
 40
6.133975
100
AcDbArc
 50
0.0
 51
24.489304
  0
LINE
  5
31F
100
AcDbEntity
  8
LAY-1
  6
CONTINUOUS
 62
     7
100
AcDbLine
 10
208.298427
 20
197.887375
 30
0.0
 11
208.298427
 21
194.99507
 31
0.0
  0
LINE
  5
320
100
AcDbEntity
  8
LAY-1
  6
CONTINUOUS
 62
     7
100
AcDbLine
 10
208.298427
 20
207.887375
 30
0.0
 11
208.298427
 21
210.77968
 31
0.0
  0
ARC
  5
321
100
AcDbEntity
  8
LAY-1
  6
CONTINUOUS
 62
     7
100
AcDbCircle
 10
202.716273
 20
213.27968
 30
0.0
 40
6.133975
100
AcDbArc
 50
335.947969
 51
0.0
  0
LINE
  5
322
100
AcDbEntity
  8
LAY-1
  6
CONTINUOUS
 62
     7
100
AcDbLine
 10
208.850248
 20
202.887375
 30
0.0
 11
208.850248
 21
214.887375
 31
0.0
  0
LINE
  5
323
100
AcDbEntity
  8
LAY-1
  6
CONTINUOUS
 62
     7
100
AcDbLine
 10
208.850248
 20
202.887375
 30
0.0
 11
208.850248
 21
190.887375
 31
0.0
  0
LINE
  5
324
100
AcDbEntity
  8
LAY-1
  6
CONTINUOUS
 62
     7
100
AcDbLine
 10
190.350248
 20
202.887375
 30
0.0
 11
190.350248
 21
214.887375
 31
0.0
  0
LINE
  5
325
100
AcDbEntity
  8
LAY-1
  6
CONTINUOUS
 62
     7
100
AcDbLine
 10
190.350248
 20
202.887375
 30
0.0
 11
190.350248
 21
190.887375
 31
0.0
  0
LINE
  5
326
100
AcDbEntity
  8
LAY-1
  6
CONTINUOUS
 62
     7
100
AcDbLine
 10
208.272897
 20
189.887375
 30
0.0
 11
190.927598
 21
189.887375
 31
0.0
  0
LINE
  5
327
100
AcDbEntity
  8
LAY-1
  6
CONTINUOUS
 62
     7
100
AcDbLine
 10
208.272897
 20
215.887375
 30
0.0
 11
190.927598
 21
215.887375
 31
0.0
  0
LINE
  5
328
100
AcDbEntity
  8
LAY-1
  6
CONTINUOUS
 62
     7
100
AcDbLine
 10
190.350248
 20
190.887375
 30
0.0
 11
190.927598
 21
189.887375
 31
0.0
  0
ARC
  5
329
100
AcDbEntity
  8
LAY-1
  6
CONTINUOUS
 62
     7
100
AcDbCircle
 10
184.550248
 20
192.887375
 30
0.0
 40
0.5
100
AcDbArc
 50
180.0
 51
270.0
  0
LINE
  5
32A
100
AcDbEntity
  8
LAY-1
  6
CONTINUOUS
 62
     7
100
AcDbLine
 10
190.350248
 20
192.387375
 30
0.0
 11
184.550248
 21
192.387375
 31
0.0
  0
LINE
  5
32B
100
AcDbEntity
  8
LAY-1
  6
CONTINUOUS
 62
     7
100
AcDbLine
 10
190.350248
 20
214.887375
 30
0.0
 11
190.927598
 21
215.887375
 31
0.0
  0
ARC
  5
32C
100
AcDbEntity
  8
LAY-1
  6
CONTINUOUS
 62
     7
100
AcDbCircle
 10
184.550248
 20
212.887375
 30
0.0
 40
0.5
100
AcDbArc
 50
90.0
 51
180.0
  0
LINE
  5
32D
100
AcDbEntity
  8
LAY-1
  6
CONTINUOUS
 62
     7
100
AcDbLine
 10
190.350248
 20
213.387375
 30
0.0
 11
184.550248
 21
213.387375
 31
0.0
  0
ARC
  5
32E
100
AcDbEntity
  8
LAY-1
  6
CONTINUOUS
 62
     7
100
AcDbCircle
 10
265.350248
 20
202.887375
 30
0.0
 40
18.454584
100
AcDbArc
 50
201.721336
 51
158.278664
  0
ARC
  5
32F
100
AcDbEntity
  8
LAY-1
  6
CONTINUOUS
 62
     7
100
AcDbCircle
 10
247.27704
 20
195.687375
 30
0.0
 40
1.0
100
AcDbArc
 50
21.721336
 51
90.0
  0
ARC
  5
330
100
AcDbEntity
  8
LAY-1
  6
CONTINUOUS
 62
     7
100
AcDbCircle
 10
247.27704
 20
210.087375
 30
0.0
 40
1.0
100
AcDbArc
 50
270.0
 51
338.278664
  0
LINE
  5
331
100
AcDbEntity
  8
LAY-1
  6
CONTINUOUS
 62
     7
100
AcDbLine
 10
245.25622
 20
209.087375
 30
0.0
 11
247.27704
 21
209.087375
 31
0.0
  0
ARC
  5
332
100
AcDbEntity
  8
LAY-1
  6
CONTINUOUS
 62
     7
100
AcDbCircle
 10
245.25622
 20
208.087375
 30
0.0
 40
1.0
100
AcDbArc
 50
90.0
 51
180.0
  0
LINE
  5
333
100
AcDbEntity
  8
LAY-1
  6
CONTINUOUS
 62
     7
100
AcDbLine
 10
244.253754
 20
202.887375
 30
0.0
 11
244.253754
 21
208.087375
 31
0.0
  0
LINE
  5
334
100
AcDbEntity
  8
LAY-1
  6
CONTINUOUS
 62
     7
100
AcDbLine
 10
244.253754
 20
197.687375
 30
0.0
 11
244.253754
 21
202.887375
 31
0.0
  0
ARC
  5
335
100
AcDbEntity
  8
LAY-1
  6
CONTINUOUS
 62
     7
100
AcDbCircle
 10
245.25622
 20
197.687375
 30
0.0
 40
1.0
100
AcDbArc
 50
180.0
 51
270.0
  0
LINE
  5
336
100
AcDbEntity
  8
LAY-1
  6
CONTINUOUS
 62
     7
100
AcDbLine
 10
247.27704
 20
196.687375
 30
0.0
 11
245.25622
 21
196.687375
 31
0.0
  0
ARC
  5
337
100
AcDbEntity
  8
LAY-1
  6
CONTINUOUS
 62
     7
100
AcDbCircle
 10
276.570248
 20
193.887375
 30
0.0
 40
1.5
100
AcDbArc
 50
270.0
 51
0.0
  0
LINE
  5
338
100
AcDbEntity
  8
LAY-1
  6
CONTINUOUS
 62
     7
100
AcDbLine
 10
278.070248
 20
211.887375
 30
0.0
 11
278.070248
 21
193.887375
 31
0.0
  0
LINE
  5
339
100
AcDbEntity
  8
LAY-1
  6
CONTINUOUS
 62
     7
100
AcDbLine
 10
271.570248
 20
192.387375
 30
0.0
 11
276.570248
 21
192.387375
 31
0.0
  0
ARC
  5
33A
100
AcDbEntity
  8
LAY-1
  6
CONTINUOUS
 62
     7
100
AcDbCircle
 10
271.570248
 20
193.887375
 30
0.0
 40
1.5
100
AcDbArc
 50
180.0
 51
270.0
  0
LINE
  5
33B
100
AcDbEntity
  8
LAY-1
  6
CONTINUOUS
 62
     7
100
AcDbLine
 10
270.070248
 20
211.887375
 30
0.0
 11
270.070248
 21
193.887375
 31
0.0
  0
ARC
  5
33C
100
AcDbEntity
  8
LAY-1
  6
CONTINUOUS
 62
     7
100
AcDbCircle
 10
271.570248
 20
211.887375
 30
0.0
 40
1.5
100
AcDbArc
 50
90.0
 51
180.0
  0
LINE
  5
33D
100
AcDbEntity
  8
LAY-1
  6
CONTINUOUS
 62
     7
100
AcDbLine
 10
276.570248
 20
213.387375
 30
0.0
 11
271.570248
 21
213.387375
 31
0.0
  0
ARC
  5
33E
100
AcDbEntity
  8
LAY-1
  6
CONTINUOUS
 62
     7
100
AcDbCircle
 10
276.570248
 20
211.887375
 30
0.0
 40
1.5
100
AcDbArc
 50
0.0
 51
90.0
  0
ARC
  5
33F
100
AcDbEntity
  8
LAY-1
  6
CONTINUOUS
 62
     7
100
AcDbCircle
 10
261.643994
 20
220.196521
 30
0.0
 40
1.0
100
AcDbArc
 50
59.890852
 51
103.236105
  0
LINE
  5
340
100
AcDbEntity
  8
LAY-1
  6
CONTINUOUS
 62
     7
100
AcDbLine
 10
260.885556
 20
184.713157
 30
0.0
 11
262.145643
 21
184.713157
 31
0.0
  0
CIRCLE
  5
341
100
AcDbEntity
  8
LAY-1
  6
CONTINUOUS
 62
     7
100
AcDbCircle
 10
238.126637
 20
230.110986
 30
0.0
 40
1.0
  0
ARC
  5
342
100
AcDbEntity
  8
LAY-1
  6
CONTINUOUS
 62
     7
100
AcDbCircle
 10
234.926637
 20
230.110986
 30
0.0
 40
0.3
100
AcDbArc
 50
180.0
 51
240.0
  0
ARC
  5
343
100
AcDbEntity
  8
LAY-1
  6
CONTINUOUS
 62
     7
100
AcDbCircle
 10
239.726637
 20
227.339704
 30
0.0
 40
0.3
100
AcDbArc
 50
240.0
 51
300.0
  0
LINE
  5
344
100
AcDbEntity
  8
LAY-1
  6
CONTINUOUS
 62
     7
100
AcDbLine
 10
239.576637
 20
227.079897
 30
0.0
 11
238.626637
 21
227.62838
 31
0.0
  0
LINE
  5
345
100
AcDbEntity
  8
LAY-1
  6
CONTINUOUS
 62
     7
100
AcDbLine
 10
234.776637
 20
229.851178
 30
0.0
 11
235.726637
 21
229.302695
 31
0.0
  0
ARC
  5
346
100
AcDbEntity
  8
LAY-1
  6
CONTINUOUS
 62
     7
100
AcDbCircle
 10
238.126637
 20
226.762354
 30
0.0
 40
1.0
100
AcDbArc
 50
60.0
 51
120.0
  0
ARC
  5
347
100
AcDbEntity
  8
LAY-1
  6
CONTINUOUS
 62
     7
100
AcDbCircle
 10
235.226637
 20
228.43667
 30
0.0
 40
1.0
100
AcDbArc
 50
0.0
 51
60.0
  0
LINE
  5
348
100
AcDbEntity
  8
LAY-1
  6
CONTINUOUS
 62
     7
100
AcDbLine
 10
236.676637
 20
227.079897
 30
0.0
 11
237.626637
 21
227.62838
 31
0.0
  0
LINE
  5
349
100
AcDbEntity
  8
LAY-1
  6
CONTINUOUS
 62
     7
100
AcDbLine
 10
236.226637
 20
227.339704
 30
0.0
 11
236.226637
 21
228.43667
 31
0.0
  0
ARC
  5
34A
100
AcDbEntity
  8
LAY-1
  6
CONTINUOUS
 62
     7
100
AcDbCircle
 10
236.526637
 20
227.339704
 30
0.0
 40
0.3
100
AcDbArc
 50
180.0
 51
240.0
  0
ARC
  5
34B
100
AcDbEntity
  8
LAY-1
  6
CONTINUOUS
 62
     7
100
AcDbCircle
 10
236.526637
 20
227.339704
 30
0.0
 40
0.3
100
AcDbArc
 50
240.0
 51
300.0
  0
ARC
  5
34C
100
AcDbEntity
  8
LAY-1
  6
CONTINUOUS
 62
     7
100
AcDbCircle
 10
238.126637
 20
233.459617
 30
0.0
 40
1.0
100
AcDbArc
 50
240.0
 51
300.0
  0
LINE
  5
34D
100
AcDbEntity
  8
LAY-1
  6
CONTINUOUS
 62
     7
100
AcDbLine
 10
236.676637
 20
233.142075
 30
0.0
 11
237.626637
 21
232.593592
 31
0.0
  0
LINE
  5
34E
100
AcDbEntity
  8
LAY-1
  6
CONTINUOUS
 62
     7
100
AcDbLine
 10
239.576637
 20
233.142075
 30
0.0
 11
238.626637
 21
232.593592
 31
0.0
  0
ARC
  5
34F
100
AcDbEntity
  8
LAY-1
  6
CONTINUOUS
 62
     7
100
AcDbCircle
 10
239.726637
 20
232.882267
 30
0.0
 40
0.3
100
AcDbArc
 50
60.0
 51
120.0
  0
ARC
  5
350
100
AcDbEntity
  8
LAY-1
  6
CONTINUOUS
 62
     7
100
AcDbCircle
 10
236.526637
 20
232.882267
 30
0.0
 40
0.3
100
AcDbArc
 50
60.0
 51
120.0
  0
ARC
  5
351
100
AcDbEntity
  8
LAY-1
  6
CONTINUOUS
 62
     7
100
AcDbCircle
 10
235.226637
 20
231.785302
 30
0.0
 40
1.0
100
AcDbArc
 50
300.0
 51
0.0
  0
LINE
  5
352
100
AcDbEntity
  8
LAY-1
  6
CONTINUOUS
 62
     7
100
AcDbLine
 10
234.776637
 20
230.370793
 30
0.0
 11
235.726637
 21
230.919276
 31
0.0
  0
LINE
  5
353
100
AcDbEntity
  8
LAY-1
  6
CONTINUOUS
 62
     7
100
AcDbLine
 10
236.226637
 20
232.882267
 30
0.0
 11
236.226637
 21
231.785302
 31
0.0
  0
ARC
  5
354
100
AcDbEntity
  8
LAY-1
  6
CONTINUOUS
 62
     7
100
AcDbCircle
 10
236.526637
 20
232.882267
 30
0.0
 40
0.3
100
AcDbArc
 50
120.0
 51
180.0
  0
ARC
  5
355
100
AcDbEntity
  8
LAY-1
  6
CONTINUOUS
 62
     7
100
AcDbCircle
 10
234.926637
 20
230.110986
 30
0.0
 40
0.3
100
AcDbArc
 50
120.0
 51
180.0
  0
ARC
  5
356
100
AcDbEntity
  8
LAY-1
  6
CONTINUOUS
 62
     7
100
AcDbCircle
 10
241.026637
 20
228.43667
 30
0.0
 40
1.0
100
AcDbArc
 50
120.0
 51
180.0
  0
LINE
  5
357
100
AcDbEntity
  8
LAY-1
  6
CONTINUOUS
 62
     7
100
AcDbLine
 10
241.476637
 20
229.851178
 30
0.0
 11
240.526637
 21
229.302695
 31
0.0
  0
LINE
  5
358
100
AcDbEntity
  8
LAY-1
  6
CONTINUOUS
 62
     7
100
AcDbLine
 10
240.026637
 20
227.339704
 30
0.0
 11
240.026637
 21
228.43667
 31
0.0
  0
ARC
  5
359
100
AcDbEntity
  8
LAY-1
  6
CONTINUOUS
 62
     7
100
AcDbCircle
 10
239.726637
 20
227.339704
 30
0.0
 40
0.3
100
AcDbArc
 50
300.0
 51
0.0
  0
ARC
  5
35A
100
AcDbEntity
  8
LAY-1
  6
CONTINUOUS
 62
     7
100
AcDbCircle
 10
241.326637
 20
230.110986
 30
0.0
 40
0.3
100
AcDbArc
 50
300.0
 51
0.0
  0
ARC
  5
35B
100
AcDbEntity
  8
LAY-1
  6
CONTINUOUS
 62
     7
100
AcDbCircle
 10
241.026637
 20
231.785302
 30
0.0
 40
1.0
100
AcDbArc
 50
180.0
 51
240.0
  0
LINE
  5
35C
100
AcDbEntity
  8
LAY-1
  6
CONTINUOUS
 62
     7
100
AcDbLine
 10
240.026637
 20
232.882267
 30
0.0
 11
240.026637
 21
231.785302
 31
0.0
  0
LINE
  5
35D
100
AcDbEntity
  8
LAY-1
  6
CONTINUOUS
 62
     7
100
AcDbLine
 10
241.476637
 20
230.370793
 30
0.0
 11
240.526637
 21
230.919276
 31
0.0
  0
ARC
  5
35E
100
AcDbEntity
  8
LAY-1
  6
CONTINUOUS
 62
     7
100
AcDbCircle
 10
241.326637
 20
230.110986
 30
0.0
 40
0.3
100
AcDbArc
 50
0.0
 51
60.0
  0
ARC
  5
35F
100
AcDbEntity
  8
LAY-1
  6
CONTINUOUS
 62
     7
100
AcDbCircle
 10
239.726637
 20
232.882267
 30
0.0
 40
0.3
100
AcDbArc
 50
0.0
 51
60.0
  0
CIRCLE
  5
360
100
AcDbEntity
  8
LAY-1
  6
CONTINUOUS
 62
     7
100
AcDbCircle
 10
292.573859
 20
230.110986
 30
0.0
 40
1.0
  0
ARC
  5
361
100
AcDbEntity
  8
LAY-1
  6
CONTINUOUS
 62
     7
100
AcDbCircle
 10
289.373859
 20
230.110986
 30
0.0
 40
0.3
100
AcDbArc
 50
180.0
 51
240.0
  0
ARC
  5
362
100
AcDbEntity
  8
LAY-1
  6
CONTINUOUS
 62
     7
100
AcDbCircle
 10
294.173859
 20
227.339704
 30
0.0
 40
0.3
100
AcDbArc
 50
240.0
 51
300.0
  0
LINE
  5
363
100
AcDbEntity
  8
LAY-1
  6
CONTINUOUS
 62
     7
100
AcDbLine
 10
294.023859
 20
227.079897
 30
0.0
 11
293.073859
 21
227.62838
 31
0.0
  0
LINE
  5
364
100
AcDbEntity
  8
LAY-1
  6
CONTINUOUS
 62
     7
100
AcDbLine
 10
289.223859
 20
229.851178
 30
0.0
 11
290.173859
 21
229.302695
 31
0.0
  0
ARC
  5
365
100
AcDbEntity
  8
LAY-1
  6
CONTINUOUS
 62
     7
100
AcDbCircle
 10
292.573859
 20
226.762354
 30
0.0
 40
1.0
100
AcDbArc
 50
60.0
 51
120.0
  0
ARC
  5
366
100
AcDbEntity
  8
LAY-1
  6
CONTINUOUS
 62
     7
100
AcDbCircle
 10
289.673859
 20
228.43667
 30
0.0
 40
1.0
100
AcDbArc
 50
0.0
 51
60.0
  0
LINE
  5
367
100
AcDbEntity
  8
LAY-1
  6
CONTINUOUS
 62
     7
100
AcDbLine
 10
291.123859
 20
227.079897
 30
0.0
 11
292.073859
 21
227.62838
 31
0.0
  0
LINE
  5
368
100
AcDbEntity
  8
LAY-1
  6
CONTINUOUS
 62
     7
100
AcDbLine
 10
290.673859
 20
227.339704
 30
0.0
 11
290.673859
 21
228.43667
 31
0.0
  0
ARC
  5
369
100
AcDbEntity
  8
LAY-1
  6
CONTINUOUS
 62
     7
100
AcDbCircle
 10
290.973859
 20
227.339704
 30
0.0
 40
0.3
100
AcDbArc
 50
180.0
 51
240.0
  0
ARC
  5
36A
100
AcDbEntity
  8
LAY-1
  6
CONTINUOUS
 62
     7
100
AcDbCircle
 10
290.973859
 20
227.339704
 30
0.0
 40
0.3
100
AcDbArc
 50
240.0
 51
300.0
  0
ARC
  5
36B
100
AcDbEntity
  8
LAY-1
  6
CONTINUOUS
 62
     7
100
AcDbCircle
 10
292.573859
 20
233.459617
 30
0.0
 40
1.0
100
AcDbArc
 50
240.0
 51
300.0
  0
LINE
  5
36C
100
AcDbEntity
  8
LAY-1
  6
CONTINUOUS
 62
     7
100
AcDbLine
 10
291.123859
 20
233.142075
 30
0.0
 11
292.073859
 21
232.593592
 31
0.0
  0
LINE
  5
36D
100
AcDbEntity
  8
LAY-1
  6
CONTINUOUS
 62
     7
100
AcDbLine
 10
294.023859
 20
233.142075
 30
0.0
 11
293.073859
 21
232.593592
 31
0.0
  0
ARC
  5
36E
100
AcDbEntity
  8
LAY-1
  6
CONTINUOUS
 62
     7
100
AcDbCircle
 10
294.173859
 20
232.882267
 30
0.0
 40
0.3
100
AcDbArc
 50
60.0
 51
120.0
  0
ARC
  5
36F
100
AcDbEntity
  8
LAY-1
  6
CONTINUOUS
 62
     7
100
AcDbCircle
 10
290.973859
 20
232.882267
 30
0.0
 40
0.3
100
AcDbArc
 50
60.0
 51
120.0
  0
ARC
  5
370
100
AcDbEntity
  8
LAY-1
  6
CONTINUOUS
 62
     7
100
AcDbCircle
 10
289.673859
 20
231.785302
 30
0.0
 40
1.0
100
AcDbArc
 50
300.0
 51
0.0
  0
LINE
  5
371
100
AcDbEntity
  8
LAY-1
  6
CONTINUOUS
 62
     7
100
AcDbLine
 10
289.223859
 20
230.370793
 30
0.0
 11
290.173859
 21
230.919276
 31
0.0
  0
LINE
  5
372
100
AcDbEntity
  8
LAY-1
  6
CONTINUOUS
 62
     7
100
AcDbLine
 10
290.673859
 20
232.882267
 30
0.0
 11
290.673859
 21
231.785302
 31
0.0
  0
ARC
  5
373
100
AcDbEntity
  8
LAY-1
  6
CONTINUOUS
 62
     7
100
AcDbCircle
 10
290.973859
 20
232.882267
 30
0.0
 40
0.3
100
AcDbArc
 50
120.0
 51
180.0
  0
ARC
  5
374
100
AcDbEntity
  8
LAY-1
  6
CONTINUOUS
 62
     7
100
AcDbCircle
 10
289.373859
 20
230.110986
 30
0.0
 40
0.3
100
AcDbArc
 50
120.0
 51
180.0
  0
ARC
  5
375
100
AcDbEntity
  8
LAY-1
  6
CONTINUOUS
 62
     7
100
AcDbCircle
 10
295.473859
 20
228.43667
 30
0.0
 40
1.0
100
AcDbArc
 50
120.0
 51
180.0
  0
LINE
  5
376
100
AcDbEntity
  8
LAY-1
  6
CONTINUOUS
 62
     7
100
AcDbLine
 10
295.923859
 20
229.851178
 30
0.0
 11
294.973859
 21
229.302695
 31
0.0
  0
LINE
  5
377
100
AcDbEntity
  8
LAY-1
  6
CONTINUOUS
 62
     7
100
AcDbLine
 10
294.473859
 20
227.339704
 30
0.0
 11
294.473859
 21
228.43667
 31
0.0
  0
ARC
  5
378
100
AcDbEntity
  8
LAY-1
  6
CONTINUOUS
 62
     7
100
AcDbCircle
 10
294.173859
 20
227.339704
 30
0.0
 40
0.3
100
AcDbArc
 50
300.0
 51
0.0
  0
ARC
  5
379
100
AcDbEntity
  8
LAY-1
  6
CONTINUOUS
 62
     7
100
AcDbCircle
 10
295.773859
 20
230.110986
 30
0.0
 40
0.3
100
AcDbArc
 50
300.0
 51
0.0
  0
ARC
  5
37A
100
AcDbEntity
  8
LAY-1
  6
CONTINUOUS
 62
     7
100
AcDbCircle
 10
295.473859
 20
231.785302
 30
0.0
 40
1.0
100
AcDbArc
 50
180.0
 51
240.0
  0
LINE
  5
37B
100
AcDbEntity
  8
LAY-1
  6
CONTINUOUS
 62
     7
100
AcDbLine
 10
294.473859
 20
232.882267
 30
0.0
 11
294.473859
 21
231.785302
 31
0.0
  0
LINE
  5
37C
100
AcDbEntity
  8
LAY-1
  6
CONTINUOUS
 62
     7
100
AcDbLine
 10
295.923859
 20
230.370793
 30
0.0
 11
294.973859
 21
230.919276
 31
0.0
  0
ARC
  5
37D
100
AcDbEntity
  8
LAY-1
  6
CONTINUOUS
 62
     7
100
AcDbCircle
 10
295.773859
 20
230.110986
 30
0.0
 40
0.3
100
AcDbArc
 50
0.0
 51
60.0
  0
ARC
  5
37E
100
AcDbEntity
  8
LAY-1
  6
CONTINUOUS
 62
     7
100
AcDbCircle
 10
294.173859
 20
232.882267
 30
0.0
 40
0.3
100
AcDbArc
 50
0.0
 51
60.0
  0
CIRCLE
  5
37F
100
AcDbEntity
  8
LAY-1
  6
CONTINUOUS
 62
     7
100
AcDbCircle
 10
238.126637
 20
175.663764
 30
0.0
 40
1.0
  0
ARC
  5
380
100
AcDbEntity
  8
LAY-1
  6
CONTINUOUS
 62
     7
100
AcDbCircle
 10
234.926637
 20
175.663764
 30
0.0
 40
0.3
100
AcDbArc
 50
180.0
 51
240.0
  0
ARC
  5
381
100
AcDbEntity
  8
LAY-1
  6
CONTINUOUS
 62
     7
100
AcDbCircle
 10
239.726637
 20
172.892482
 30
0.0
 40
0.3
100
AcDbArc
 50
240.0
 51
300.0
  0
LINE
  5
382
100
AcDbEntity
  8
LAY-1
  6
CONTINUOUS
 62
     7
100
AcDbLine
 10
239.576637
 20
172.632675
 30
0.0
 11
238.626637
 21
173.181157
 31
0.0
  0
LINE
  5
383
100
AcDbEntity
  8
LAY-1
  6
CONTINUOUS
 62
     7
100
AcDbLine
 10
234.776637
 20
175.403956
 30
0.0
 11
235.726637
 21
174.855473
 31
0.0
  0
ARC
  5
384
100
AcDbEntity
  8
LAY-1
  6
CONTINUOUS
 62
     7
100
AcDbCircle
 10
238.126637
 20
172.315132
 30
0.0
 40
1.0
100
AcDbArc
 50
60.0
 51
120.0
  0
ARC
  5
385
100
AcDbEntity
  8
LAY-1
  6
CONTINUOUS
 62
     7
100
AcDbCircle
 10
235.226637
 20
173.989448
 30
0.0
 40
1.0
100
AcDbArc
 50
0.0
 51
60.0
  0
LINE
  5
386
100
AcDbEntity
  8
LAY-1
  6
CONTINUOUS
 62
     7
100
AcDbLine
 10
236.676637
 20
172.632675
 30
0.0
 11
237.626637
 21
173.181157
 31
0.0
  0
LINE
  5
387
100
AcDbEntity
  8
LAY-1
  6
CONTINUOUS
 62
     7
100
AcDbLine
 10
236.226637
 20
172.892482
 30
0.0
 11
236.226637
 21
173.989448
 31
0.0
  0
ARC
  5
388
100
AcDbEntity
  8
LAY-1
  6
CONTINUOUS
 62
     7
100
AcDbCircle
 10
236.526637
 20
172.892482
 30
0.0
 40
0.3
100
AcDbArc
 50
180.0
 51
240.0
  0
ARC
  5
389
100
AcDbEntity
  8
LAY-1
  6
CONTINUOUS
 62
     7
100
AcDbCircle
 10
236.526637
 20
172.892482
 30
0.0
 40
0.3
100
AcDbArc
 50
240.0
 51
300.0
  0
ARC
  5
38A
100
AcDbEntity
  8
LAY-1
  6
CONTINUOUS
 62
     7
100
AcDbCircle
 10
238.126637
 20
179.012395
 30
0.0
 40
1.0
100
AcDbArc
 50
240.0
 51
300.0
  0
LINE
  5
38B
100
AcDbEntity
  8
LAY-1
  6
CONTINUOUS
 62
     7
100
AcDbLine
 10
236.676637
 20
178.694853
 30
0.0
 11
237.626637
 21
178.14637
 31
0.0
  0
LINE
  5
38C
100
AcDbEntity
  8
LAY-1
  6
CONTINUOUS
 62
     7
100
AcDbLine
 10
239.576637
 20
178.694853
 30
0.0
 11
238.626637
 21
178.14637
 31
0.0
  0
ARC
  5
38D
100
AcDbEntity
  8
LAY-1
  6
CONTINUOUS
 62
     7
100
AcDbCircle
 10
239.726637
 20
178.435045
 30
0.0
 40
0.3
100
AcDbArc
 50
60.0
 51
120.0
  0
ARC
  5
38E
100
AcDbEntity
  8
LAY-1
  6
CONTINUOUS
 62
     7
100
AcDbCircle
 10
236.526637
 20
178.435045
 30
0.0
 40
0.3
100
AcDbArc
 50
60.0
 51
120.0
  0
ARC
  5
38F
100
AcDbEntity
  8
LAY-1
  6
CONTINUOUS
 62
     7
100
AcDbCircle
 10
235.226637
 20
177.338079
 30
0.0
 40
1.0
100
AcDbArc
 50
300.0
 51
0.0
  0
LINE
  5
390
100
AcDbEntity
  8
LAY-1
  6
CONTINUOUS
 62
     7
100
AcDbLine
 10
234.776637
 20
175.923571
 30
0.0
 11
235.726637
 21
176.472054
 31
0.0
  0
LINE
  5
391
100
AcDbEntity
  8
LAY-1
  6
CONTINUOUS
 62
     7
100
AcDbLine
 10
236.226637
 20
178.435045
 30
0.0
 11
236.226637
 21
177.338079
 31
0.0
  0
ARC
  5
392
100
AcDbEntity
  8
LAY-1
  6
CONTINUOUS
 62
     7
100
AcDbCircle
 10
236.526637
 20
178.435045
 30
0.0
 40
0.3
100
AcDbArc
 50
120.0
 51
180.0
  0
ARC
  5
393
100
AcDbEntity
  8
LAY-1
  6
CONTINUOUS
 62
     7
100
AcDbCircle
 10
234.926637
 20
175.663764
 30
0.0
 40
0.3
100
AcDbArc
 50
120.0
 51
180.0
  0
ARC
  5
394
100
AcDbEntity
  8
LAY-1
  6
CONTINUOUS
 62
     7
100
AcDbCircle
 10
241.026637
 20
173.989448
 30
0.0
 40
1.0
100
AcDbArc
 50
120.0
 51
180.0
  0
LINE
  5
395
100
AcDbEntity
  8
LAY-1
  6
CONTINUOUS
 62
     7
100
AcDbLine
 10
241.476637
 20
175.403956
 30
0.0
 11
240.526637
 21
174.855473
 31
0.0
  0
LINE
  5
396
100
AcDbEntity
  8
LAY-1
  6
CONTINUOUS
 62
     7
100
AcDbLine
 10
240.026637
 20
172.892482
 30
0.0
 11
240.026637
 21
173.989448
 31
0.0
  0
ARC
  5
397
100
AcDbEntity
  8
LAY-1
  6
CONTINUOUS
 62
     7
100
AcDbCircle
 10
239.726637
 20
172.892482
 30
0.0
 40
0.3
100
AcDbArc
 50
300.0
 51
0.0
  0
ARC
  5
398
100
AcDbEntity
  8
LAY-1
  6
CONTINUOUS
 62
     7
100
AcDbCircle
 10
241.326637
 20
175.663764
 30
0.0
 40
0.3
100
AcDbArc
 50
300.0
 51
0.0
  0
ARC
  5
399
100
AcDbEntity
  8
LAY-1
  6
CONTINUOUS
 62
     7
100
AcDbCircle
 10
241.026637
 20
177.338079
 30
0.0
 40
1.0
100
AcDbArc
 50
180.0
 51
240.0
  0
LINE
  5
39A
100
AcDbEntity
  8
LAY-1
  6
CONTINUOUS
 62
     7
100
AcDbLine
 10
240.026637
 20
178.435045
 30
0.0
 11
240.026637
 21
177.338079
 31
0.0
  0
LINE
  5
39B
100
AcDbEntity
  8
LAY-1
  6
CONTINUOUS
 62
     7
100
AcDbLine
 10
241.476637
 20
175.923571
 30
0.0
 11
240.526637
 21
176.472054
 31
0.0
  0
ARC
  5
39C
100
AcDbEntity
  8
LAY-1
  6
CONTINUOUS
 62
     7
100
AcDbCircle
 10
241.326637
 20
175.663764
 30
0.0
 40
0.3
100
AcDbArc
 50
0.0
 51
60.0
  0
ARC
  5
39D
100
AcDbEntity
  8
LAY-1
  6
CONTINUOUS
 62
     7
100
AcDbCircle
 10
239.726637
 20
178.435045
 30
0.0
 40
0.3
100
AcDbArc
 50
0.0
 51
60.0
  0
CIRCLE
  5
39E
100
AcDbEntity
  8
LAY-1
  6
CONTINUOUS
 62
     7
100
AcDbCircle
 10
292.573859
 20
175.663764
 30
0.0
 40
1.0
  0
ARC
  5
39F
100
AcDbEntity
  8
LAY-1
  6
CONTINUOUS
 62
     7
100
AcDbCircle
 10
289.373859
 20
175.663764
 30
0.0
 40
0.3
100
AcDbArc
 50
180.0
 51
240.0
  0
ARC
  5
3A0
100
AcDbEntity
  8
LAY-1
  6
CONTINUOUS
 62
     7
100
AcDbCircle
 10
294.173859
 20
172.892482
 30
0.0
 40
0.3
100
AcDbArc
 50
240.0
 51
300.0
  0
LINE
  5
3A1
100
AcDbEntity
  8
LAY-1
  6
CONTINUOUS
 62
     7
100
AcDbLine
 10
294.023859
 20
172.632675
 30
0.0
 11
293.073859
 21
173.181157
 31
0.0
  0
LINE
  5
3A2
100
AcDbEntity
  8
LAY-1
  6
CONTINUOUS
 62
     7
100
AcDbLine
 10
289.223859
 20
175.403956
 30
0.0
 11
290.173859
 21
174.855473
 31
0.0
  0
ARC
  5
3A3
100
AcDbEntity
  8
LAY-1
  6
CONTINUOUS
 62
     7
100
AcDbCircle
 10
292.573859
 20
172.315132
 30
0.0
 40
1.0
100
AcDbArc
 50
60.0
 51
120.0
  0
ARC
  5
3A4
100
AcDbEntity
  8
LAY-1
  6
CONTINUOUS
 62
     7
100
AcDbCircle
 10
289.673859
 20
173.989448
 30
0.0
 40
1.0
100
AcDbArc
 50
0.0
 51
60.0
  0
LINE
  5
3A5
100
AcDbEntity
  8
LAY-1
  6
CONTINUOUS
 62
     7
100
AcDbLine
 10
291.123859
 20
172.632675
 30
0.0
 11
292.073859
 21
173.181157
 31
0.0
  0
LINE
  5
3A6
100
AcDbEntity
  8
LAY-1
  6
CONTINUOUS
 62
     7
100
AcDbLine
 10
290.673859
 20
172.892482
 30
0.0
 11
290.673859
 21
173.989448
 31
0.0
  0
ARC
  5
3A7
100
AcDbEntity
  8
LAY-1
  6
CONTINUOUS
 62
     7
100
AcDbCircle
 10
290.973859
 20
172.892482
 30
0.0
 40
0.3
100
AcDbArc
 50
180.0
 51
240.0
  0
ARC
  5
3A8
100
AcDbEntity
  8
LAY-1
  6
CONTINUOUS
 62
     7
100
AcDbCircle
 10
290.973859
 20
172.892482
 30
0.0
 40
0.3
100
AcDbArc
 50
240.0
 51
300.0
  0
ARC
  5
3A9
100
AcDbEntity
  8
LAY-1
  6
CONTINUOUS
 62
     7
100
AcDbCircle
 10
292.573859
 20
179.012395
 30
0.0
 40
1.0
100
AcDbArc
 50
240.0
 51
300.0
  0
LINE
  5
3AA
100
AcDbEntity
  8
LAY-1
  6
CONTINUOUS
 62
     7
100
AcDbLine
 10
291.123859
 20
178.694853
 30
0.0
 11
292.073859
 21
178.14637
 31
0.0
  0
LINE
  5
3AB
100
AcDbEntity
  8
LAY-1
  6
CONTINUOUS
 62
     7
100
AcDbLine
 10
294.023859
 20
178.694853
 30
0.0
 11
293.073859
 21
178.14637
 31
0.0
  0
ARC
  5
3AC
100
AcDbEntity
  8
LAY-1
  6
CONTINUOUS
 62
     7
100
AcDbCircle
 10
294.173859
 20
178.435045
 30
0.0
 40
0.3
100
AcDbArc
 50
60.0
 51
120.0
  0
ARC
  5
3AD
100
AcDbEntity
  8
LAY-1
  6
CONTINUOUS
 62
     7
100
AcDbCircle
 10
290.973859
 20
178.435045
 30
0.0
 40
0.3
100
AcDbArc
 50
60.0
 51
120.0
  0
ARC
  5
3AE
100
AcDbEntity
  8
LAY-1
  6
CONTINUOUS
 62
     7
100
AcDbCircle
 10
289.673859
 20
177.338079
 30
0.0
 40
1.0
100
AcDbArc
 50
300.0
 51
0.0
  0
LINE
  5
3AF
100
AcDbEntity
  8
LAY-1
  6
CONTINUOUS
 62
     7
100
AcDbLine
 10
289.223859
 20
175.923571
 30
0.0
 11
290.173859
 21
176.472054
 31
0.0
  0
LINE
  5
3B0
100
AcDbEntity
  8
LAY-1
  6
CONTINUOUS
 62
     7
100
AcDbLine
 10
290.673859
 20
178.435045
 30
0.0
 11
290.673859
 21
177.338079
 31
0.0
  0
ARC
  5
3B1
100
AcDbEntity
  8
LAY-1
  6
CONTINUOUS
 62
     7
100
AcDbCircle
 10
290.973859
 20
178.435045
 30
0.0
 40
0.3
100
AcDbArc
 50
120.0
 51
180.0
  0
ARC
  5
3B2
100
AcDbEntity
  8
LAY-1
  6
CONTINUOUS
 62
     7
100
AcDbCircle
 10
289.373859
 20
175.663764
 30
0.0
 40
0.3
100
AcDbArc
 50
120.0
 51
180.0
  0
ARC
  5
3B3
100
AcDbEntity
  8
LAY-1
  6
CONTINUOUS
 62
     7
100
AcDbCircle
 10
295.473859
 20
173.989448
 30
0.0
 40
1.0
100
AcDbArc
 50
120.0
 51
180.0
  0
LINE
  5
3B4
100
AcDbEntity
  8
LAY-1
  6
CONTINUOUS
 62
     7
100
AcDbLine
 10
295.923859
 20
175.403956
 30
0.0
 11
294.973859
 21
174.855473
 31
0.0
  0
LINE
  5
3B5
100
AcDbEntity
  8
LAY-1
  6
CONTINUOUS
 62
     7
100
AcDbLine
 10
294.473859
 20
172.892482
 30
0.0
 11
294.473859
 21
173.989448
 31
0.0
  0
ARC
  5
3B6
100
AcDbEntity
  8
LAY-1
  6
CONTINUOUS
 62
     7
100
AcDbCircle
 10
294.173859
 20
172.892482
 30
0.0
 40
0.3
100
AcDbArc
 50
300.0
 51
0.0
  0
ARC
  5
3B7
100
AcDbEntity
  8
LAY-1
  6
CONTINUOUS
 62
     7
100
AcDbCircle
 10
295.773859
 20
175.663764
 30
0.0
 40
0.3
100
AcDbArc
 50
300.0
 51
0.0
  0
ARC
  5
3B8
100
AcDbEntity
  8
LAY-1
  6
CONTINUOUS
 62
     7
100
AcDbCircle
 10
295.473859
 20
177.338079
 30
0.0
 40
1.0
100
AcDbArc
 50
180.0
 51
240.0
  0
LINE
  5
3B9
100
AcDbEntity
  8
LAY-1
  6
CONTINUOUS
 62
     7
100
AcDbLine
 10
294.473859
 20
178.435045
 30
0.0
 11
294.473859
 21
177.338079
 31
0.0
  0
LINE
  5
3BA
100
AcDbEntity
  8
LAY-1
  6
CONTINUOUS
 62
     7
100
AcDbLine
 10
295.923859
 20
175.923571
 30
0.0
 11
294.973859
 21
176.472054
 31
0.0
  0
ARC
  5
3BB
100
AcDbEntity
  8
LAY-1
  6
CONTINUOUS
 62
     7
100
AcDbCircle
 10
295.773859
 20
175.663764
 30
0.0
 40
0.3
100
AcDbArc
 50
0.0
 51
60.0
  0
ARC
  5
3BC
100
AcDbEntity
  8
LAY-1
  6
CONTINUOUS
 62
     7
100
AcDbCircle
 10
294.173859
 20
178.435045
 30
0.0
 40
0.3
100
AcDbArc
 50
0.0
 51
60.0
  0
ARC
  5
3BD
100
AcDbEntity
  8
LAY-1
  6
CONTINUOUS
 62
     7
100
AcDbCircle
 10
265.350248
 20
202.887375
 30
0.0
 40
18.714584
100
AcDbArc
 50
102.147249
 51
158.278664
  0
ARC
  5
3BE
100
AcDbEntity
  8
LAY-1
  6
CONTINUOUS
 62
     7
100
AcDbCircle
 10
261.643994
 20
220.196521
 30
0.0
 40
1.0
100
AcDbArc
 50
59.890852
 51
103.236105
  0
LINE
  5
3BF
100
AcDbEntity
  8
LAY-1
  6
CONTINUOUS
 62
     7
100
AcDbLine
 10
260.885556
 20
184.713157
 30
0.0
 11
262.145643
 21
184.713157
 31
0.0
  0
ARC
  5
3C0
100
AcDbEntity
  8
LAY-1
  6
CONTINUOUS
 62
     7
100
AcDbCircle
 10
265.350248
 20
202.887375
 30
0.0
 40
18.714584
100
AcDbArc
 50
201.721336
 51
256.197989
  0
LINE
  5
3C1
100
AcDbEntity
  8
LAY-1
  6
CONTINUOUS
 62
     7
100
AcDbLine
 10
243.993754
 20
202.887375
 30
0.0
 11
243.993754
 21
197.887375
 31
0.0
  0
ARC
  5
3C2
100
AcDbEntity
  8
LAY-1
  6
CONTINUOUS
 62
     7
100
AcDbCircle
 10
247.27704
 20
195.687375
 30
0.0
 40
0.74
100
AcDbArc
 50
21.721336
 51
90.0
  0
ARC
  5
3C3
100
AcDbEntity
  8
LAY-1
  6
CONTINUOUS
 62
     7
100
AcDbCircle
 10
245.25622
 20
197.687375
 30
0.0
 40
1.26
100
AcDbArc
 50
180.0
 51
270.0
  0
LINE
  5
3C4
100
AcDbEntity
  8
LAY-1
  6
CONTINUOUS
 62
     7
100
AcDbLine
 10
245.25622
 20
196.427375
 30
0.0
 11
247.27704
 21
196.427375
 31
0.0
  0
LINE
  5
3C5
100
AcDbEntity
  8
LAY-1
  6
CONTINUOUS
 62
     7
100
AcDbLine
 10
243.993754
 20
202.887375
 30
0.0
 11
243.993754
 21
197.687375
 31
0.0
  0
LINE
  5
3C6
100
AcDbEntity
  8
LAY-1
  6
CONTINUOUS
 62
     7
100
AcDbLine
 10
243.993754
 20
202.887375
 30
0.0
 11
243.993754
 21
207.887375
 31
0.0
  0
ARC
  5
3C7
100
AcDbEntity
  8
LAY-1
  6
CONTINUOUS
 62
     7
100
AcDbCircle
 10
247.27704
 20
210.087375
 30
0.0
 40
0.74
100
AcDbArc
 50
270.0
 51
338.278664
  0
ARC
  5
3C8
100
AcDbEntity
  8
LAY-1
  6
CONTINUOUS
 62
     7
100
AcDbCircle
 10
245.25622
 20
208.087375
 30
0.0
 40
1.26
100
AcDbArc
 50
90.0
 51
180.0
  0
LINE
  5
3C9
100
AcDbEntity
  8
LAY-1
  6
CONTINUOUS
 62
     7
100
AcDbLine
 10
245.25622
 20
209.347375
 30
0.0
 11
247.27704
 21
209.347375
 31
0.0
  0
LINE
  5
3CA
100
AcDbEntity
  8
LAY-1
  6
CONTINUOUS
 62
     7
100
AcDbLine
 10
243.993754
 20
202.887375
 30
0.0
 11
243.993754
 21
208.087375
 31
0.0
  0
ARC
  5
3CB
100
AcDbEntity
  8
LAY-1
  6
CONTINUOUS
 62
     7
100
AcDbCircle
 10
222.279805
 20
191.573666
 30
0.0
 40
8.070443
100
AcDbArc
 50
324.502079
 51
341.19462
  0
ARC
  5
3CC
100
AcDbEntity
  8
LAY-1
  6
CONTINUOUS
 62
     7
100
AcDbCircle
 10
222.279805
 20
214.201083
 30
0.0
 40
8.070443
100
AcDbArc
 50
18.80538
 51
35.497921
  0
LINE
  5
3CD
100
AcDbEntity
  8
LAY-1
  6
CONTINUOUS
 62
     7
100
AcDbLine
 10
230.206973
 20
218.886994
 30
0.0
 11
215.850248
 21
218.886994
 31
0.0
  0
LINE
  5
3CE
100
AcDbEntity
  8
LAY-1
  6
CONTINUOUS
 62
     7
100
AcDbLine
 10
228.914097
 20
209.514792
 30
0.0
 11
216.350248
 21
209.514792
 31
0.0
  0
LINE
  5
3CF
100
AcDbEntity
  8
LAY-1
  6
CONTINUOUS
 62
     7
100
AcDbLine
 10
228.914097
 20
196.259958
 30
0.0
 11
216.350248
 21
196.259958
 31
0.0
  0
LINE
  5
3D0
100
AcDbEntity
  8
LAY-1
  6
CONTINUOUS
 62
     7
100
AcDbLine
 10
230.206973
 20
186.887755
 30
0.0
 11
215.850248
 21
186.887755
 31
0.0
  0
ARC
  5
3D1
100
AcDbEntity
  8
LAY-1
  6
CONTINUOUS
 62
     7
100
AcDbCircle
 10
215.850248
 20
217.886994
 30
0.0
 40
1.0
100
AcDbArc
 50
90.0
 51
180.0
  0
ARC
  5
3D2
100
AcDbEntity
  8
LAY-1
  6
CONTINUOUS
 62
     7
100
AcDbCircle
 10
215.850248
 20
187.887755
 30
0.0
 40
1.0
100
AcDbArc
 50
180.0
 51
270.0
  0
LINE
  5
3D3
100
AcDbEntity
  8
LAY-1
  6
CONTINUOUS
 62
     7
100
AcDbLine
 10
214.850248
 20
202.887375
 30
0.0
 11
214.850248
 21
217.886994
 31
0.0
  0
LINE
  5
3D4
100
AcDbEntity
  8
LAY-1
  6
CONTINUOUS
 62
     7
100
AcDbLine
 10
214.850248
 20
187.887755
 30
0.0
 11
214.850248
 21
202.887375
 31
0.0
  0
ARC
  5
3D5
100
AcDbEntity
  8
LAY-1
  6
CONTINUOUS
 62
     7
100
AcDbCircle
 10
230.241133
 20
202.887375
 30
0.0
 40
15.390885
100
AcDbArc
 50
180.0
 51
205.506063
  0
ARC
  5
3D6
100
AcDbEntity
  8
LAY-1
  6
CONTINUOUS
 62
     7
100
AcDbCircle
 10
230.241133
 20
202.887375
 30
0.0
 40
15.390885
100
AcDbArc
 50
154.493937
 51
180.0
  0
CIRCLE
  5
3D7
100
AcDbEntity
  8
LAY-1
  6
CONTINUOUS
 62
     7
100
AcDbCircle
 10
292.573859
 20
175.663764
 30
0.0
 40
4.75
  0
CIRCLE
  5
3D8
100
AcDbEntity
  8
LAY-1
  6
CONTINUOUS
 62
     7
100
AcDbCircle
 10
238.126637
 20
175.663764
 30
0.0
 40
4.75
  0
CIRCLE
  5
3D9
100
AcDbEntity
  8
LAY-1
  6
CONTINUOUS
 62
     7
100
AcDbCircle
 10
238.126637
 20
230.110986
 30
0.0
 40
4.75
  0
CIRCLE
  5
3DA
100
AcDbEntity
  8
LAY-1
  6
CONTINUOUS
 62
     7
100
AcDbCircle
 10
292.573859
 20
230.110986
 30
0.0
 40
4.75
  0
ARC
  5
3DB
100
AcDbEntity
  8
LAY-1
  6
CONTINUOUS
 62
     7
100
AcDbCircle
 10
292.573859
 20
230.110986
 30
0.0
 40
6.0
100
AcDbArc
 50
249.323668
 51
200.676332
  0
CIRCLE
  5
3DC
100
AcDbEntity
  8
LAY-1
  6
CONTINUOUS
 62
     7
100
AcDbCircle
 10
292.573859
 20
230.110986
 30
0.0
 40
5.0
  0
ARC
  5
3DD
100
AcDbEntity
  8
LAY-1
  6
CONTINUOUS
 62
     7
100
AcDbCircle
 10
238.126637
 20
230.110986
 30
0.0
 40
6.0
100
AcDbArc
 50
339.323668
 51
290.676332
  0
CIRCLE
  5
3DE
100
AcDbEntity
  8
LAY-1
  6
CONTINUOUS
 62
     7
100
AcDbCircle
 10
238.126637
 20
230.110986
 30
0.0
 40
5.0
  0
ARC
  5
3DF
100
AcDbEntity
  8
LAY-1
  6
CONTINUOUS
 62
     7
100
AcDbCircle
 10
292.573859
 20
175.663764
 30
0.0
 40
6.0
100
AcDbArc
 50
159.323668
 51
110.676332
  0
CIRCLE
  5
3E0
100
AcDbEntity
  8
LAY-1
  6
CONTINUOUS
 62
     7
100
AcDbCircle
 10
292.573859
 20
175.663764
 30
0.0
 40
5.0
  0
ARC
  5
3E1
100
AcDbEntity
  8
LAY-1
  6
CONTINUOUS
 62
     7
100
AcDbCircle
 10
238.126637
 20
175.663764
 30
0.0
 40
6.0
100
AcDbArc
 50
69.323668
 51
20.676332
  0
CIRCLE
  5
3E2
100
AcDbEntity
  8
LAY-1
  6
CONTINUOUS
 62
     7
100
AcDbCircle
 10
238.126637
 20
175.663764
 30
0.0
 40
5.0
  0
LINE
  5
3E3
100
AcDbEntity
  8
LAY-1
  6
CONTINUOUS
 62
     7
100
AcDbLine
 10
298.505941
 20
231.011208
 30
0.0
 11
301.931422
 21
208.438745
 31
0.0
  0
LINE
  5
3E4
100
AcDbEntity
  8
LAY-1
  6
CONTINUOUS
 62
     7
100
AcDbLine
 10
232.194554
 20
231.011208
 30
0.0
 11
228.769074
 21
208.438745
 31
0.0
  0
LINE
  5
3E5
100
AcDbEntity
  8
LAY-1
  6
CONTINUOUS
 62
     7
100
AcDbLine
 10
232.194554
 20
174.763541
 30
0.0
 11
228.769074
 21
197.336004
 31
0.0
  0
LINE
  5
3E6
100
AcDbEntity
  8
LAY-1
  6
CONTINUOUS
 62
     7
100
AcDbLine
 10
298.505941
 20
174.763541
 30
0.0
 11
301.931422
 21
197.336004
 31
0.0
  0
ARC
  5
3E7
100
AcDbEntity
  8
LAY-1
  6
CONTINUOUS
 62
     7
100
AcDbCircle
 10
265.350248
 20
202.887375
 30
0.0
 40
37.0
100
AcDbArc
 50
171.370927
 51
188.629073
  0
ARC
  5
3E8
100
AcDbEntity
  8
LAY-1
  6
CONTINUOUS
 62
     7
100
AcDbCircle
 10
265.350248
 20
202.887375
 30
0.0
 40
37.0
100
AcDbArc
 50
351.370927
 51
8.629073
  0
CIRCLE
  5
3E9
100
AcDbEntity
  8
LAY-1
  6
CONTINUOUS
 62
     7
100
AcDbCircle
 10
265.350248
 20
202.887375
 30
0.0
 40
33.124919
  0
ARC
  5
3EA
100
AcDbEntity
  8
LAY-1
  6
CONTINUOUS
 62
     7
100
AcDbCircle
 10
238.126637
 20
175.663764
 30
0.0
 40
6.0
100
AcDbArc
 50
188.629073
 51
261.370927
  0
ARC
  5
3EB
100
AcDbEntity
  8
LAY-1
  6
CONTINUOUS
 62
     7
100
AcDbCircle
 10
292.573859
 20
175.663764
 30
0.0
 40
6.0
100
AcDbArc
 50
278.629073
 51
351.370927
  0
ARC
  5
3EC
100
AcDbEntity
  8
LAY-1
  6
CONTINUOUS
 62
     7
100
AcDbCircle
 10
265.350248
 20
202.887375
 30
0.0
 40
37.0
100
AcDbArc
 50
81.370927
 51
98.629073
  0
LINE
  5
3ED
100
AcDbEntity
  8
LAY-1
  6
CONTINUOUS
 62
     7
100
AcDbLine
 10
270.901618
 20
166.306201
 30
0.0
 11
293.474081
 21
169.731681
 31
0.0
  0
ARC
  5
3EE
100
AcDbEntity
  8
LAY-1
  6
CONTINUOUS
 62
     7
100
AcDbCircle
 10
292.573859
 20
230.110986
 30
0.0
 40
6.0
100
AcDbArc
 50
8.629073
 51
81.370927
  0
LINE
  5
3EF
100
AcDbEntity
  8
LAY-1
  6
CONTINUOUS
 62
     7
100
AcDbLine
 10
270.901618
 20
239.468549
 30
0.0
 11
293.474081
 21
236.043068
 31
0.0
  0
ARC
  5
3F0
100
AcDbEntity
  8
LAY-1
  6
CONTINUOUS
 62
     7
100
AcDbCircle
 10
265.350248
 20
202.887375
 30
0.0
 40
37.0
100
AcDbArc
 50
261.370927
 51
278.629073
  0
ARC
  5
3F1
100
AcDbEntity
  8
LAY-1
  6
CONTINUOUS
 62
     7
100
AcDbCircle
 10
238.126637
 20
230.110986
 30
0.0
 40
6.0
100
AcDbArc
 50
98.629073
 51
171.370927
  0
LINE
  5
3F2
100
AcDbEntity
  8
LAY-1
  6
CONTINUOUS
 62
     7
100
AcDbLine
 10
237.226414
 20
169.731681
 30
0.0
 11
259.798877
 21
166.306201
 31
0.0
  0
LINE
  5
3F3
100
AcDbEntity
  8
LAY-1
  6
CONTINUOUS
 62
     7
100
AcDbLine
 10
259.798877
 20
239.468549
 30
0.0
 11
237.226414
 21
236.043068
 31
0.0
  0
LINE
  5
3F4
100
AcDbEntity
  8
LAY-1
  6
CONTINUOUS
 62
     7
100
AcDbLine
 10
242.267871
 20
225.969751
 30
0.0
 11
233.357729
 21
234.879893
 31
0.0
  0
ARC
  5
3F5
100
AcDbEntity
  8
LAY-1
  6
CONTINUOUS
 62
     7
100
AcDbCircle
 10
265.350248
 20
202.887375
 30
0.0
 40
38.5
100
AcDbArc
 50
124.505339
 51
145.490246
  0
ARC
  5
3F6
100
AcDbEntity
  8
LAY-1
  6
CONTINUOUS
 62
     7
100
AcDbCircle
 10
265.350248
 20
202.887375
 30
0.0
 40
38.5
100
AcDbArc
 50
32.943614
 51
55.11285
  0
LINE
  5
3F7
100
AcDbEntity
  8
LAY-1
  6
CONTINUOUS
 62
     7
100
AcDbLine
 10
297.497624
 20
235.034751
 30
0.0
 11
287.097624
 21
224.634751
 31
0.0
  0
ARC
  5
3F8
100
AcDbEntity
  8
LAY-1
  6
CONTINUOUS
 62
     7
100
AcDbCircle
 10
265.350248
 20
202.887375
 30
0.0
 40
38.5
100
AcDbArc
 50
304.719997
 51
326.513035
  0
LINE
  5
3F9
100
AcDbEntity
  8
LAY-1
  6
CONTINUOUS
 62
     7
100
AcDbLine
 10
297.652871
 20
170.584751
 30
0.0
 11
287.752871
 21
180.484751
 31
0.0
  0
ARC
  5
3FA
100
AcDbEntity
  8
LAY-1
  6
CONTINUOUS
 62
     7
100
AcDbCircle
 10
265.350248
 20
202.887375
 30
0.0
 40
38.5
100
AcDbArc
 50
214.305442
 51
235.480462
  0
LINE
  5
3FB
100
AcDbEntity
  8
LAY-1
  6
CONTINUOUS
 62
     7
100
AcDbLine
 10
244.43055
 20
181.967677
 30
0.0
 11
232.291472
 21
169.828599
 31
0.0
  0
ARC
  5
3FC
100
AcDbEntity
  8
LAY-1
  6
CONTINUOUS
 62
     7
100
AcDbCircle
 10
301.350248
 20
298.388795
 30
0.0
 40
1.0
100
AcDbArc
 50
0.0
 51
88.472964
  0
ARC
  5
3FD
100
AcDbEntity
  8
LAY-1
  6
CONTINUOUS
 62
     7
100
AcDbCircle
 10
301.456842
 20
302.387375
 30
0.0
 40
3.0
100
AcDbArc
 50
203.35445
 51
268.472964
  0
ARC
  5
3FE
100
AcDbEntity
  8
LAY-1
  6
CONTINUOUS
 62
     7
100
AcDbCircle
 10
293.653247
 20
299.01782
 30
0.0
 40
5.5
100
AcDbArc
 50
23.35445
 51
88.0
  0
LINE
  5
3FF
100
AcDbEntity
  8
LAY-1
  6
CONTINUOUS
 62
     7
100
AcDbLine
 10
288.615275
 20
304.697103
 30
0.0
 11
293.845194
 21
304.51447
 31
0.0
  0
ARC
  5
400
100
AcDbEntity
  8
LAY-1
  6
CONTINUOUS
 62
     7
100
AcDbCircle
 10
288.685074
 20
306.695884
 30
0.0
 40
2.0
100
AcDbArc
 50
182.0
 51
268.0
  0
LINE
  5
401
100
AcDbEntity
  8
LAY-1
  6
CONTINUOUS
 62
     7
100
AcDbLine
 10
286.686292
 20
306.626085
 30
0.0
 11
286.559335
 21
310.261666
 31
0.0
  0
LINE
  5
402
100
AcDbEntity
  8
LAY-1
  6
CONTINUOUS
 62
     7
100
AcDbLine
 10
302.350248
 20
292.887375
 30
0.0
 11
302.350248
 21
298.388795
 31
0.0
  0
LINE
  5
403
100
AcDbEntity
  8
LAY-1
  6
CONTINUOUS
 62
     7
100
AcDbLine
 10
302.350248
 20
298.388795
 30
0.0
 11
302.350248
 21
296.887375
 31
0.0
  0
LINE
  5
404
100
AcDbEntity
  8
LAY-1
  6
CONTINUOUS
 62
     7
100
AcDbLine
 10
215.850248
 20
301.887375
 30
0.0
 11
228.350248
 21
301.887375
 31
0.0
  0
LINE
  5
405
100
AcDbEntity
  8
LAY-1
  6
CONTINUOUS
 62
     7
100
AcDbLine
 10
228.350248
 20
292.887375
 30
0.0
 11
228.350248
 21
301.887375
 31
0.0
  0
ARC
  5
406
100
AcDbEntity
  8
LAY-1
  6
CONTINUOUS
 62
     7
100
AcDbCircle
 10
215.850248
 20
332.887375
 30
0.0
 40
1.0
100
AcDbArc
 50
90.0
 51
180.0
  0
ARC
  5
407
100
AcDbEntity
  8
LAY-1
  6
CONTINUOUS
 62
     7
100
AcDbCircle
 10
215.850248
 20
302.887375
 30
0.0
 40
1.0
100
AcDbArc
 50
180.0
 51
270.0
  0
ARC
  5
408
100
AcDbEntity
  8
LAY-1
  6
CONTINUOUS
 62
     7
100
AcDbCircle
 10
281.062685
 20
310.069719
 30
0.0
 40
5.5
100
AcDbArc
 50
2.0
 51
83.036908
  0
ARC
  5
409
100
AcDbEntity
  8
LAY-1
  6
CONTINUOUS
 62
     7
100
AcDbCircle
 10
282.09314
 20
318.507027
 30
0.0
 40
3.0
100
AcDbArc
 50
182.0
 51
263.036908
  0
LINE
  5
40A
100
AcDbEntity
  8
LAY-1
  6
CONTINUOUS
 62
     7
100
AcDbLine
 10
233.471568
 20
330.766054
 30
0.0
 11
231.228927
 21
333.008695
 31
0.0
  0
LINE
  5
40B
100
AcDbEntity
  8
LAY-1
  6
CONTINUOUS
 62
     7
100
AcDbLine
 10
215.850248
 20
333.887375
 30
0.0
 11
229.107607
 21
333.887375
 31
0.0
  0
ARC
  5
40C
100
AcDbEntity
  8
LAY-1
  6
CONTINUOUS
 62
     7
100
AcDbCircle
 10
229.107607
 20
330.887375
 30
0.0
 40
3.0
100
AcDbArc
 50
45.0
 51
90.0
  0
LINE
  5
40D
100
AcDbEntity
  8
LAY-1
  6
CONTINUOUS
 62
     7
100
AcDbLine
 10
302.350248
 20
298.388795
 30
0.0
 11
302.350248
 21
296.887375
 31
0.0
  0
ARC
  5
40E
100
AcDbEntity
  8
LAY-1
  6
CONTINUOUS
 62
     7
100
AcDbCircle
 10
281.205817
 20
267.387375
 30
0.0
 40
2.2
100
AcDbArc
 50
270.0
 51
357.0
  0
LINE
  5
40F
100
AcDbEntity
  8
LAY-1
  6
CONTINUOUS
 62
     7
100
AcDbLine
 10
283.801894
 20
274.887375
 30
0.0
 11
283.402802
 21
267.272236
 31
0.0
  0
LINE
  5
410
100
AcDbEntity
  8
LAY-1
  6
CONTINUOUS
 62
     7
100
AcDbLine
 10
246.744678
 20
265.187375
 30
0.0
 11
281.205817
 21
265.187375
 31
0.0
  0
LINE
  5
411
100
AcDbEntity
  8
LAY-1
  6
CONTINUOUS
 62
     7
100
AcDbLine
 10
244.285584
 20
277.887375
 30
0.0
 11
243.647915
 21
274.887375
 31
0.0
  0
LINE
  5
412
100
AcDbEntity
  8
LAY-1
  6
CONTINUOUS
 62
     7
100
AcDbLine
 10
243.700322
 20
273.887375
 30
0.0
 11
243.647915
 21
274.887375
 31
0.0
  0
LINE
  5
413
100
AcDbEntity
  8
LAY-1
  6
CONTINUOUS
 62
     7
100
AcDbLine
 10
244.201009
 20
273.887375
 30
0.0
 11
244.547693
 21
267.272236
 31
0.0
  0
ARC
  5
414
100
AcDbEntity
  8
LAY-1
  6
CONTINUOUS
 62
     7
100
AcDbCircle
 10
246.744678
 20
267.387375
 30
0.0
 40
2.2
100
AcDbArc
 50
183.0
 51
270.0
  0
ARC
  5
415
100
AcDbEntity
  8
LAY-1
  6
CONTINUOUS
 62
     7
100
AcDbCircle
 10
284.774999
 20
281.887375
 30
0.0
 40
2.0
100
AcDbArc
 50
90.0
 51
177.0
  0
ARC
  5
416
100
AcDbEntity
  8
LAY-1
  6
CONTINUOUS
 62
     7
100
AcDbCircle
 10
294.480649
 20
287.887375
 30
0.0
 40
4.0
100
AcDbArc
 50
270.0
 51
357.0
  0
LINE
  5
417
100
AcDbEntity
  8
LAY-1
  6
CONTINUOUS
 62
     7
100
AcDbLine
 10
298.541289
 20
288.939711
 30
0.0
 11
298.475167
 21
287.678031
 31
0.0
  0
ARC
  5
418
100
AcDbEntity
  8
LAY-1
  6
CONTINUOUS
 62
     7
100
AcDbCircle
 10
301.850248
 20
290.387375
 30
0.0
 40
0.5
100
AcDbArc
 50
270.0
 51
0.0
  0
ARC
  5
419
100
AcDbEntity
  8
LAY-1
  6
CONTINUOUS
 62
     7
100
AcDbCircle
 10
299.539918
 20
288.887375
 30
0.0
 40
1.0
100
AcDbArc
 50
90.0
 51
177.0
  0
ARC
  5
41A
100
AcDbEntity
  8
LAY-1
  6
CONTINUOUS
 62
     7
100
AcDbCircle
 10
245.925496
 20
281.887375
 30
0.0
 40
2.0
100
AcDbArc
 50
3.0
 51
90.0
  0
ARC
  5
41B
100
AcDbEntity
  8
LAY-1
  6
CONTINUOUS
 62
     7
100
AcDbCircle
 10
236.219847
 20
287.887375
 30
0.0
 40
4.0
100
AcDbArc
 50
183.0
 51
270.0
  0
LINE
  5
41C
100
AcDbEntity
  8
LAY-1
  6
CONTINUOUS
 62
     7
100
AcDbLine
 10
232.159207
 20
288.939711
 30
0.0
 11
232.225329
 21
287.678031
 31
0.0
  0
ARC
  5
41D
100
AcDbEntity
  8
LAY-1
  6
CONTINUOUS
 62
     7
100
AcDbCircle
 10
228.850248
 20
290.387375
 30
0.0
 40
0.5
100
AcDbArc
 50
180.0
 51
270.0
  0
LINE
  5
41E
100
AcDbEntity
  8
LAY-1
  6
CONTINUOUS
 62
     7
100
AcDbLine
 10
228.350248
 20
292.887375
 30
0.0
 11
228.350248
 21
290.387375
 31
0.0
  0
LINE
  5
41F
100
AcDbEntity
  8
LAY-1
  6
CONTINUOUS
 62
     7
100
AcDbLine
 10
302.350248
 20
290.387375
 30
0.0
 11
302.350248
 21
298.388795
 31
0.0
  0
LINE
  5
420
100
AcDbEntity
  8
LAY-1
  6
CONTINUOUS
 62
     7
100
AcDbLine
 10
190.350248
 20
307.387375
 30
0.0
 11
184.550248
 21
307.387375
 31
0.0
  0
ARC
  5
421
100
AcDbEntity
  8
LAY-1
  6
CONTINUOUS
 62
     7
100
AcDbCircle
 10
184.550248
 20
307.887375
 30
0.0
 40
0.5
100
AcDbArc
 50
180.0
 51
270.0
  0
LINE
  5
422
100
AcDbEntity
  8
LAY-1
  6
CONTINUOUS
 62
     7
100
AcDbLine
 10
190.350248
 20
305.887375
 30
0.0
 11
190.927598
 21
304.887375
 31
0.0
  0
LINE
  5
423
100
AcDbEntity
  8
LAY-1
  6
CONTINUOUS
 62
     7
100
AcDbLine
 10
190.350248
 20
328.387375
 30
0.0
 11
184.550248
 21
328.387375
 31
0.0
  0
ARC
  5
424
100
AcDbEntity
  8
LAY-1
  6
CONTINUOUS
 62
     7
100
AcDbCircle
 10
184.550248
 20
327.887375
 30
0.0
 40
0.5
100
AcDbArc
 50
90.0
 51
180.0
  0
LINE
  5
425
100
AcDbEntity
  8
LAY-1
  6
CONTINUOUS
 62
     7
100
AcDbLine
 10
190.350248
 20
329.887375
 30
0.0
 11
190.927598
 21
330.887375
 31
0.0
  0
LINE
  5
426
100
AcDbEntity
  8
LAY-1
  6
CONTINUOUS
 62
     7
100
AcDbLine
 10
208.272897
 20
304.887375
 30
0.0
 11
190.927598
 21
304.887375
 31
0.0
  0
LINE
  5
427
100
AcDbEntity
  8
LAY-1
  6
CONTINUOUS
 62
     7
100
AcDbLine
 10
208.272897
 20
330.887375
 30
0.0
 11
190.927598
 21
330.887375
 31
0.0
  0
ARC
  5
428
100
AcDbEntity
  8
LAY-1
  6
CONTINUOUS
 62
     7
100
AcDbCircle
 10
235.592888
 20
332.887375
 30
0.0
 40
3.0
100
AcDbArc
 50
225.0
 51
270.0
  0
ARC
  5
429
100
AcDbEntity
  8
LAY-1
  6
CONTINUOUS
 62
     7
100
AcDbCircle
 10
249.109528
 20
332.887375
 30
0.0
 40
3.0
100
AcDbArc
 50
270.0
 51
358.0
  0
LINE
  5
42A
100
AcDbEntity
  8
LAY-1
  6
CONTINUOUS
 62
     7
100
AcDbLine
 10
252.338353
 20
339.387679
 30
0.0
 11
252.107701
 21
332.782676
 31
0.0
  0
LINE
  5
42B
100
AcDbEntity
  8
LAY-1
  6
CONTINUOUS
 62
     7
100
AcDbLine
 10
278.362143
 20
339.387679
 30
0.0
 11
279.094967
 21
318.402328
 31
0.0
  0
LINE
  5
42C
100
AcDbEntity
  8
LAY-1
  6
CONTINUOUS
 62
     7
100
AcDbLine
 10
228.350248
 20
292.887375
 30
0.0
 11
302.350248
 21
292.887375
 31
0.0
  0
LINE
  5
42D
100
AcDbEntity
  8
LAY-1
  6
CONTINUOUS
 62
     7
100
AcDbLine
 10
301.850248
 20
289.887375
 30
0.0
 11
265.350248
 21
289.887375
 31
0.0
  0
LINE
  5
42E
100
AcDbEntity
  8
LAY-1
  6
CONTINUOUS
 62
     7
100
AcDbLine
 10
294.480649
 20
283.887375
 30
0.0
 11
265.350248
 21
283.887375
 31
0.0
  0
LINE
  5
42F
100
AcDbEntity
  8
LAY-1
  6
CONTINUOUS
 62
     7
100
AcDbLine
 10
282.77774
 20
281.992047
 30
0.0
 11
282.4054
 21
274.887375
 31
0.0
  0
LINE
  5
430
100
AcDbEntity
  8
LAY-1
  6
CONTINUOUS
 62
     7
100
AcDbLine
 10
248.137872
 20
277.887375
 30
0.0
 11
247.922755
 21
281.992047
 31
0.0
  0
LINE
  5
431
100
AcDbEntity
  8
LAY-1
  6
CONTINUOUS
 62
     7
100
AcDbLine
 10
265.350248
 20
283.887375
 30
0.0
 11
236.219847
 21
283.887375
 31
0.0
  0
ARC
  5
432
100
AcDbEntity
  8
LAY-1
  6
CONTINUOUS
 62
     7
100
AcDbCircle
 10
231.160577
 20
288.887375
 30
0.0
 40
1.0
100
AcDbArc
 50
3.0
 51
90.0
  0
LINE
  5
433
100
AcDbEntity
  8
LAY-1
  6
CONTINUOUS
 62
     7
100
AcDbLine
 10
228.850248
 20
289.887375
 30
0.0
 11
265.350248
 21
289.887375
 31
0.0
  0
LINE
  5
434
100
AcDbEntity
  8
LAY-1
  6
CONTINUOUS
 62
     7
100
AcDbLine
 10
190.350248
 20
317.887375
 30
0.0
 11
190.350248
 21
329.887375
 31
0.0
  0
LINE
  5
435
100
AcDbEntity
  8
LAY-1
  6
CONTINUOUS
 62
     7
100
AcDbLine
 10
190.350248
 20
317.887375
 30
0.0
 11
190.350248
 21
305.887375
 31
0.0
  0
LINE
  5
436
100
AcDbEntity
  8
LAY-1
  6
CONTINUOUS
 62
     7
100
AcDbLine
 10
214.850248
 20
317.887375
 30
0.0
 11
214.850248
 21
332.887375
 31
0.0
  0
LINE
  5
437
100
AcDbEntity
  8
LAY-1
  6
CONTINUOUS
 62
     7
100
AcDbLine
 10
214.850248
 20
317.887375
 30
0.0
 11
214.850248
 21
302.887375
 31
0.0
  0
LINE
  5
438
100
AcDbEntity
  8
LAY-1
  6
CONTINUOUS
 62
     7
100
AcDbLine
 10
256.850248
 20
320.887375
 30
0.0
 11
256.850248
 21
317.387375
 31
0.0
  0
ARC
  5
439
100
AcDbEntity
  8
LAY-1
  6
CONTINUOUS
 62
     7
100
AcDbCircle
 10
258.850248
 20
317.387375
 30
0.0
 40
2.0
100
AcDbArc
 50
180.0
 51
270.0
  0
ARC
  5
43A
100
AcDbEntity
  8
LAY-1
  6
CONTINUOUS
 62
     7
100
AcDbCircle
 10
252.850248
 20
320.887375
 30
0.0
 40
4.0
100
AcDbArc
 50
0.0
 51
90.0
  0
ARC
  5
43B
100
AcDbEntity
  8
LAY-1
  6
CONTINUOUS
 62
     7
100
AcDbCircle
 10
252.850248
 20
320.887375
 30
0.0
 40
4.0
100
AcDbArc
 50
90.0
 51
180.0
  0
LINE
  5
43C
100
AcDbEntity
  8
LAY-1
  6
CONTINUOUS
 62
     7
100
AcDbLine
 10
248.850248
 20
317.387375
 30
0.0
 11
248.850248
 21
320.887375
 31
0.0
  0
ARC
  5
43D
100
AcDbEntity
  8
LAY-1
  6
CONTINUOUS
 62
     7
100
AcDbCircle
 10
246.850248
 20
317.387375
 30
0.0
 40
2.0
100
AcDbArc
 50
270.0
 51
0.0
  0
LINE
  5
43E
100
AcDbEntity
  8
LAY-1
  6
CONTINUOUS
 62
     7
100
AcDbLine
 10
235.349867
 20
328.667483
 30
0.0
 11
235.349867
 21
314.89842
 31
0.0
  0
ARC
  5
43F
100
AcDbEntity
  8
LAY-1
  6
CONTINUOUS
 62
     7
100
AcDbCircle
 10
222.279805
 20
329.201083
 30
0.0
 40
8.070443
100
AcDbArc
 50
324.502079
 51
35.497921
  0
ARC
  5
440
100
AcDbEntity
  8
LAY-1
  6
CONTINUOUS
 62
     7
100
AcDbCircle
 10
214.959362
 20
317.887375
 30
0.0
 40
15.390885
100
AcDbArc
 50
0.0
 51
25.506063
  0
LINE
  5
441
100
AcDbEntity
  8
LAY-1
  6
CONTINUOUS
 62
     7
100
AcDbLine
 10
228.850248
 20
324.514792
 30
0.0
 11
216.350248
 21
324.514792
 31
0.0
  0
ARC
  5
442
100
AcDbEntity
  8
LAY-1
  6
CONTINUOUS
 62
     7
100
AcDbCircle
 10
214.959362
 20
317.887375
 30
0.0
 40
15.390885
100
AcDbArc
 50
334.493937
 51
0.0
  0
LINE
  5
443
100
AcDbEntity
  8
LAY-1
  6
CONTINUOUS
 62
     7
100
AcDbLine
 10
228.850248
 20
311.259958
 30
0.0
 11
216.350248
 21
311.259958
 31
0.0
  0
LINE
  5
444
100
AcDbEntity
  8
LAY-1
  6
CONTINUOUS
 62
     7
100
AcDbLine
 10
228.350248
 20
292.887375
 30
0.0
 11
228.350248
 21
311.259958
 31
0.0
  0
ARC
  5
445
100
AcDbEntity
  8
LAY-1
  6
CONTINUOUS
 62
     7
100
AcDbCircle
 10
230.241133
 20
317.887375
 30
0.0
 40
15.390885
100
AcDbArc
 50
180.0
 51
205.506063
  0
ARC
  5
446
100
AcDbEntity
  8
LAY-1
  6
CONTINUOUS
 62
     7
100
AcDbCircle
 10
230.241133
 20
317.887375
 30
0.0
 40
15.390885
100
AcDbArc
 50
154.493937
 51
180.0
  0
ARC
  5
447
100
AcDbEntity
  8
LAY-1
  6
CONTINUOUS
 62
     7
100
AcDbCircle
 10
229.661139
 20
301.387375
 30
0.0
 40
2.0
100
AcDbArc
 50
270.0
 51
357.0
  0
LINE
  5
448
100
AcDbEntity
  8
LAY-1
  6
CONTINUOUS
 62
     7
100
AcDbLine
 10
231.658398
 20
301.282703
 30
0.0
 11
232.124435
 21
310.175222
 31
0.0
  0
ARC
  5
449
100
AcDbEntity
  8
LAY-1
  6
CONTINUOUS
 62
     7
100
AcDbCircle
 10
237.616898
 20
309.887375
 30
0.0
 40
5.5
100
AcDbArc
 50
90.0
 51
177.0
  0
LINE
  5
44A
100
AcDbEntity
  8
LAY-1
  6
CONTINUOUS
 62
     7
100
AcDbLine
 10
237.616898
 20
315.387375
 30
0.0
 11
261.336337
 21
315.387375
 31
0.0
  0
LINE
  5
44B
100
AcDbEntity
  8
LAY-1
  6
CONTINUOUS
 62
     7
100
AcDbLine
 10
261.336337
 20
315.387375
 30
0.0
 11
281.061788
 21
315.387375
 31
0.0
  0
LINE
  5
44C
100
AcDbEntity
  8
LAY-1
  6
CONTINUOUS
 62
     7
100
AcDbLine
 10
231.821107
 20
304.387375
 30
0.0
 11
293.150248
 21
304.387375
 31
0.0
  0
LINE
  5
44D
100
AcDbEntity
  8
LAY-1
  6
CONTINUOUS
 62
     7
100
AcDbLine
 10
301.456842
 20
299.387375
 30
0.0
 11
228.350248
 21
299.387375
 31
0.0
  0
LINE
  5
44E
100
AcDbEntity
  8
LAY-1
  6
CONTINUOUS
 62
     7
100
AcDbLine
 10
265.350248
 20
339.887375
 30
0.0
 11
277.844693
 21
339.887375
 31
0.0
  0
LINE
  5
44F
100
AcDbEntity
  8
LAY-1
  6
CONTINUOUS
 62
     7
100
AcDbLine
 10
278.850248
 20
339.887375
 30
0.0
 11
272.350248
 21
339.887375
 31
0.0
  0
LINE
  5
450
100
AcDbEntity
  8
LAY-1
  6
CONTINUOUS
 62
     7
100
AcDbLine
 10
208.850248
 20
317.887375
 30
0.0
 11
208.850248
 21
329.887375
 31
0.0
  0
LINE
  5
451
100
AcDbEntity
  8
LAY-1
  6
CONTINUOUS
 62
     7
100
AcDbLine
 10
208.850248
 20
317.887375
 30
0.0
 11
208.850248
 21
305.887375
 31
0.0
  0
ARC
  5
452
100
AcDbEntity
  8
LAY-1
  6
CONTINUOUS
 62
     7
100
AcDbCircle
 10
202.716273
 20
307.49507
 30
0.0
 40
6.133975
100
AcDbArc
 50
0.0
 51
24.052031
  0
LINE
  5
453
100
AcDbEntity
  8
LAY-1
  6
CONTINUOUS
 62
     7
100
AcDbLine
 10
208.298427
 20
312.887375
 30
0.0
 11
208.298427
 21
309.99507
 31
0.0
  0
LINE
  5
454
100
AcDbEntity
  8
LAY-1
  6
CONTINUOUS
 62
     7
100
AcDbLine
 10
208.298427
 20
322.887375
 30
0.0
 11
208.298427
 21
325.77968
 31
0.0
  0
ARC
  5
455
100
AcDbEntity
  8
LAY-1
  6
CONTINUOUS
 62
     7
100
AcDbCircle
 10
202.716273
 20
328.27968
 30
0.0
 40
6.133975
100
AcDbArc
 50
335.510696
 51
0.0
  0
ARC
  5
456
100
AcDbEntity
  8
LAY-1
  6
CONTINUOUS
 62
     7
100
AcDbCircle
 10
185.922044
 20
317.887375
 30
0.0
 40
22.928203
100
AcDbArc
 50
347.40418
 51
12.59582
  0
LINE
  5
457
100
AcDbEntity
  8
LAY-1
  6
CONTINUOUS
 62
     7
100
AcDbLine
 10
208.850248
 20
305.887375
 30
0.0
 11
208.272897
 21
304.887375
 31
0.0
  0
LINE
  5
458
100
AcDbEntity
  8
LAY-1
  6
CONTINUOUS
 62
     7
100
AcDbLine
 10
208.850248
 20
329.887375
 30
0.0
 11
208.272897
 21
330.887375
 31
0.0
  0
ARC
  5
459
100
AcDbEntity
  8
LAY-1
  6
CONTINUOUS
 62
     7
100
AcDbCircle
 10
196.484222
 20
307.49507
 30
0.0
 40
6.133975
100
AcDbArc
 50
155.510696
 51
180.0
  0
LINE
  5
45A
100
AcDbEntity
  8
LAY-1
  6
CONTINUOUS
 62
     7
100
AcDbLine
 10
190.902068
 20
312.887375
 30
0.0
 11
190.902068
 21
309.99507
 31
0.0
  0
ARC
  5
45B
100
AcDbEntity
  8
LAY-1
  6
CONTINUOUS
 62
     7
100
AcDbCircle
 10
213.278451
 20
317.887375
 30
0.0
 40
22.928203
100
AcDbArc
 50
167.40418
 51
192.59582
  0
LINE
  5
45C
100
AcDbEntity
  8
LAY-1
  6
CONTINUOUS
 62
     7
100
AcDbLine
 10
190.902068
 20
322.887375
 30
0.0
 11
190.902068
 21
325.77968
 31
0.0
  0
ARC
  5
45D
100
AcDbEntity
  8
LAY-1
  6
CONTINUOUS
 62
     7
100
AcDbCircle
 10
196.484222
 20
328.27968
 30
0.0
 40
6.133975
100
AcDbArc
 50
180.0
 51
204.052031
  0
LINE
  5
45E
100
AcDbEntity
  8
LAY-1
  6
CONTINUOUS
 62
     7
100
AcDbLine
 10
190.902068
 20
312.887375
 30
0.0
 11
208.298427
 21
312.887375
 31
0.0
  0
LINE
  5
45F
100
AcDbEntity
  8
LAY-1
  6
CONTINUOUS
 62
     7
100
AcDbLine
 10
190.902068
 20
309.99507
 30
0.0
 11
208.31767
 21
309.99507
 31
0.0
  0
LINE
  5
460
100
AcDbEntity
  8
LAY-1
  6
CONTINUOUS
 62
     7
100
AcDbLine
 10
190.902068
 20
322.887375
 30
0.0
 11
208.298427
 21
322.887375
 31
0.0
  0
LINE
  5
461
100
AcDbEntity
  8
LAY-1
  6
CONTINUOUS
 62
     7
100
AcDbLine
 10
190.902068
 20
325.77968
 30
0.0
 11
208.31767
 21
325.77968
 31
0.0
  0
LINE
  5
462
100
AcDbEntity
  8
LAY-1
  6
CONTINUOUS
 62
     7
100
AcDbLine
 10
214.850248
 20
328.887375
 30
0.0
 11
213.867767
 21
330.589081
 31
0.0
  0
LINE
  5
463
100
AcDbEntity
  8
LAY-1
  6
CONTINUOUS
 62
     7
100
AcDbLine
 10
208.850248
 20
328.887375
 30
0.0
 11
209.832728
 21
330.589081
 31
0.0
  0
LINE
  5
464
100
AcDbEntity
  8
LAY-1
  6
CONTINUOUS
 62
     7
100
AcDbLine
 10
209.832728
 20
330.589081
 30
0.0
 11
213.867767
 21
330.589081
 31
0.0
  0
LINE
  5
465
100
AcDbEntity
  8
LAY-1
  6
CONTINUOUS
 62
     7
100
AcDbLine
 10
214.850248
 20
306.887375
 30
0.0
 11
213.867767
 21
305.185669
 31
0.0
  0
LINE
  5
466
100
AcDbEntity
  8
LAY-1
  6
CONTINUOUS
 62
     7
100
AcDbLine
 10
208.850248
 20
306.887375
 30
0.0
 11
209.832728
 21
305.185669
 31
0.0
  0
LINE
  5
467
100
AcDbEntity
  8
LAY-1
  6
CONTINUOUS
 62
     7
100
AcDbLine
 10
209.832728
 20
305.185669
 30
0.0
 11
213.867767
 21
305.185669
 31
0.0
  0
ARC
  5
468
100
AcDbEntity
  8
LAY-1
  6
CONTINUOUS
 62
     7
100
AcDbCircle
 10
214.473058
 20
308.361095
 30
0.0
 40
5.62281
100
AcDbArc
 50
145.615753
 51
214.384247
  0
ARC
  5
469
100
AcDbEntity
  8
LAY-1
  6
CONTINUOUS
 62
     7
100
AcDbCircle
 10
229.867767
 20
317.887375
 30
0.0
 40
21.01752
100
AcDbArc
 50
162.412046
 51
197.587954
  0
ARC
  5
46A
100
AcDbEntity
  8
LAY-1
  6
CONTINUOUS
 62
     7
100
AcDbCircle
 10
214.085808
 20
327.291489
 30
0.0
 40
5.23556
100
AcDbArc
 50
144.325655
 51
215.674345
  0
ARC
  5
46B
100
AcDbEntity
  8
LAY-1
  6
CONTINUOUS
 62
     7
100
AcDbCircle
 10
209.614688
 20
308.483261
 30
0.0
 40
5.23556
100
AcDbArc
 50
324.325655
 51
35.674345
  0
ARC
  5
46C
100
AcDbEntity
  8
LAY-1
  6
CONTINUOUS
 62
     7
100
AcDbCircle
 10
193.832728
 20
317.887375
 30
0.0
 40
21.01752
100
AcDbArc
 50
342.412046
 51
17.587954
  0
ARC
  5
46D
100
AcDbEntity
  8
LAY-1
  6
CONTINUOUS
 62
     7
100
AcDbCircle
 10
209.227438
 20
327.413654
 30
0.0
 40
5.62281
100
AcDbArc
 50
325.615753
 51
34.384247
  0
LINE
  5
46E
100
AcDbEntity
  8
LAY-1
  6
CONTINUOUS
 62
     7
100
AcDbLine
 10
209.832728
 20
324.238228
 30
0.0
 11
213.867767
 21
324.238228
 31
0.0
  0
LINE
  5
46F
100
AcDbEntity
  8
LAY-1
  6
CONTINUOUS
 62
     7
100
AcDbLine
 10
209.832728
 20
311.536522
 30
0.0
 11
213.867767
 21
311.536522
 31
0.0
  0
ARC
  5
470
100
AcDbEntity
  8
LAY-1
  6
CONTINUOUS
 62
     7
100
AcDbCircle
 10
178.144476
 20
317.887375
 30
0.0
 40
9.0
100
AcDbArc
 50
210.0
 51
225.624422
  0
ARC
  5
471
100
AcDbEntity
  8
LAY-1
  6
CONTINUOUS
 62
     7
100
AcDbCircle
 10
178.144476
 20
317.887375
 30
0.0
 40
9.0
100
AcDbArc
 50
134.375578
 51
150.0
  0
LINE
  5
472
100
AcDbEntity
  8
LAY-1
  6
CONTINUOUS
 62
     7
100
AcDbLine
 10
170.350248
 20
313.887375
 30
0.0
 11
170.350248
 21
313.387375
 31
0.0
  0
LINE
  5
473
100
AcDbEntity
  8
LAY-1
  6
CONTINUOUS
 62
     7
100
AcDbLine
 10
170.350248
 20
313.887375
 30
0.0
 11
170.350248
 21
322.387375
 31
0.0
  0
ARC
  5
474
100
AcDbEntity
  8
LAY-1
  6
CONTINUOUS
 62
     7
100
AcDbCircle
 10
178.144476
 20
317.887375
 30
0.0
 40
9.0
100
AcDbArc
 50
210.0
 51
225.624422
  0
ARC
  5
475
100
AcDbEntity
  8
LAY-1
  6
CONTINUOUS
 62
     7
100
AcDbCircle
 10
172.350248
 20
310.487375
 30
0.0
 40
0.5
100
AcDbArc
 50
180.0
 51
270.0
  0
LINE
  5
476
100
AcDbEntity
  8
LAY-1
  6
CONTINUOUS
 62
     7
100
AcDbLine
 10
173.750248
 20
309.987375
 30
0.0
 11
174.950248
 21
311.187375
 31
0.0
  0
LINE
  5
477
100
AcDbEntity
  8
LAY-1
  6
CONTINUOUS
 62
     7
100
AcDbLine
 10
176.950248
 20
309.987375
 30
0.0
 11
175.750248
 21
311.187375
 31
0.0
  0
LINE
  5
478
100
AcDbEntity
  8
LAY-1
  6
CONTINUOUS
 62
     7
100
AcDbLine
 10
172.350248
 20
309.987375
 30
0.0
 11
173.750248
 21
309.987375
 31
0.0
  0
LINE
  5
479
100
AcDbEntity
  8
LAY-1
  6
CONTINUOUS
 62
     7
100
AcDbLine
 10
174.950248
 20
311.187375
 30
0.0
 11
175.750248
 21
311.187375
 31
0.0
  0
LINE
  5
47A
100
AcDbEntity
  8
LAY-1
  6
CONTINUOUS
 62
     7
100
AcDbLine
 10
176.950248
 20
309.987375
 30
0.0
 11
184.050248
 21
309.987375
 31
0.0
  0
LINE
  5
47B
100
AcDbEntity
  8
LAY-1
  6
CONTINUOUS
 62
     7
100
AcDbLine
 10
170.350248
 20
313.887375
 30
0.0
 11
170.350248
 21
313.387375
 31
0.0
  0
LINE
  5
47C
100
AcDbEntity
  8
LAY-1
  6
CONTINUOUS
 62
     7
100
AcDbLine
 10
170.350248
 20
313.887375
 30
0.0
 11
170.350248
 21
322.387375
 31
0.0
  0
ARC
  5
47D
100
AcDbEntity
  8
LAY-1
  6
CONTINUOUS
 62
     7
100
AcDbCircle
 10
178.144476
 20
317.887375
 30
0.0
 40
9.0
100
AcDbArc
 50
134.375578
 51
150.0
  0
ARC
  5
47E
100
AcDbEntity
  8
LAY-1
  6
CONTINUOUS
 62
     7
100
AcDbCircle
 10
172.350248
 20
325.287375
 30
0.0
 40
0.5
100
AcDbArc
 50
90.0
 51
180.0
  0
LINE
  5
47F
100
AcDbEntity
  8
LAY-1
  6
CONTINUOUS
 62
     7
100
AcDbLine
 10
173.750248
 20
325.787375
 30
0.0
 11
174.950248
 21
324.587375
 31
0.0
  0
LINE
  5
480
100
AcDbEntity
  8
LAY-1
  6
CONTINUOUS
 62
     7
100
AcDbLine
 10
176.950248
 20
325.787375
 30
0.0
 11
175.750248
 21
324.587375
 31
0.0
  0
LINE
  5
481
100
AcDbEntity
  8
LAY-1
  6
CONTINUOUS
 62
     7
100
AcDbLine
 10
172.350248
 20
325.787375
 30
0.0
 11
173.750248
 21
325.787375
 31
0.0
  0
LINE
  5
482
100
AcDbEntity
  8
LAY-1
  6
CONTINUOUS
 62
     7
100
AcDbLine
 10
174.950248
 20
324.587375
 30
0.0
 11
175.750248
 21
324.587375
 31
0.0
  0
LINE
  5
483
100
AcDbEntity
  8
LAY-1
  6
CONTINUOUS
 62
     7
100
AcDbLine
 10
176.950248
 20
325.787375
 30
0.0
 11
184.050248
 21
325.787375
 31
0.0
  0
LINE
  5
484
100
AcDbEntity
  8
LAY-1
  6
CONTINUOUS
 62
     7
100
AcDbLine
 10
170.350248
 20
321.887375
 30
0.0
 11
170.350248
 21
322.387375
 31
0.0
  0
LINE
  5
485
100
AcDbEntity
  8
LAY-1
  6
CONTINUOUS
 62
     7
100
AcDbLine
 10
184.050248
 20
317.887375
 30
0.0
 11
184.050248
 21
327.887375
 31
0.0
  0
LINE
  5
486
100
AcDbEntity
  8
LAY-1
  6
CONTINUOUS
 62
     7
100
AcDbLine
 10
184.050248
 20
317.887375
 30
0.0
 11
184.050248
 21
307.887375
 31
0.0
  0
LINE
  5
487
100
AcDbEntity
  8
LAY-1
  6
CONTINUOUS
 62
     7
100
AcDbLine
 10
175.750248
 20
311.187375
 30
0.0
 11
175.750248
 21
324.587375
 31
0.0
  0
LINE
  5
488
100
AcDbEntity
  8
LAY-1
  6
CONTINUOUS
 62
     7
100
AcDbLine
 10
174.950248
 20
324.587375
 30
0.0
 11
174.950248
 21
311.187375
 31
0.0
  0
LINE
  5
489
100
AcDbEntity
  8
LAY-1
  6
CONTINUOUS
 62
     7
100
AcDbLine
 10
176.950248
 20
309.987375
 30
0.0
 11
176.950248
 21
325.787375
 31
0.0
  0
LINE
  5
48A
100
AcDbEntity
  8
LAY-1
  6
CONTINUOUS
 62
     7
100
AcDbLine
 10
171.850248
 20
317.887375
 30
0.0
 11
171.850248
 21
325.287375
 31
0.0
  0
LINE
  5
48B
100
AcDbEntity
  8
LAY-1
  6
CONTINUOUS
 62
     7
100
AcDbLine
 10
171.850248
 20
317.887375
 30
0.0
 11
171.850248
 21
310.487375
 31
0.0
  0
LINE
  5
48C
100
AcDbEntity
  8
LAY-1
  6
CONTINUOUS
 62
     7
100
AcDbLine
 10
173.750248
 20
309.987375
 30
0.0
 11
173.750248
 21
325.787375
 31
0.0
  0
ARC
  5
48D
100
AcDbEntity
  8
LAY-1
  6
CONTINUOUS
 62
     7
100
AcDbCircle
 10
222.92069
 20
306.573666
 30
0.0
 40
8.070443
100
AcDbArc
 50
144.502079
 51
180.0
  0
ARC
  5
48E
100
AcDbEntity
  8
LAY-1
  6
CONTINUOUS
 62
     7
100
AcDbCircle
 10
222.92069
 20
329.201083
 30
0.0
 40
8.070443
100
AcDbArc
 50
180.0
 51
215.497921
  0
LINE
  5
48F
100
AcDbEntity
  8
LAY-1
  6
CONTINUOUS
 62
     7
100
AcDbLine
 10
259.111077
 20
322.885826
 30
0.0
 11
251.961077
 21
330.035826
 31
0.0
  0
LINE
  5
490
100
AcDbEntity
  8
LAY-1
  6
CONTINUOUS
 62
     7
100
AcDbLine
 10
235.592888
 20
329.887375
 30
0.0
 11
249.109528
 21
329.887375
 31
0.0
  0
LINE
  5
491
100
AcDbEntity
  8
LAY-1
  6
CONTINUOUS
 62
     7
100
AcDbLine
 10
283.801894
 20
274.887375
 30
0.0
 11
261.822237
 21
274.887375
 31
0.0
  0
LINE
  5
492
100
AcDbEntity
  8
LAY-1
  6
CONTINUOUS
 62
     7
100
AcDbLine
 10
257.551004
 20
277.887375
 30
0.0
 11
244.285584
 21
277.887375
 31
0.0
  0
LINE
  5
493
100
AcDbEntity
  8
LAY-1
  6
CONTINUOUS
 62
     7
100
AcDbLine
 10
247.785964
 20
273.887375
 30
0.0
 11
248.132649
 21
267.272236
 31
0.0
  0
ARC
  5
494
100
AcDbEntity
  8
LAY-1
  6
CONTINUOUS
 62
     7
100
AcDbCircle
 10
250.329634
 20
267.387375
 30
0.0
 40
2.2
100
AcDbArc
 50
183.0
 51
270.0
  0
LINE
  5
495
100
AcDbEntity
  8
LAY-1
  6
CONTINUOUS
 62
     7
100
AcDbLine
 10
247.285278
 20
273.887375
 30
0.0
 11
247.077593
 21
277.850251
 31
0.0
  0
LINE
  5
496
100
AcDbEntity
  8
LAY-1
  6
CONTINUOUS
 62
     7
100
AcDbLine
 10
243.700322
 20
273.887375
 30
0.0
 11
261.822237
 21
273.887375
 31
0.0
  0
LINE
  5
497
100
AcDbEntity
  8
LAY-1
  6
CONTINUOUS
 62
     7
100
AcDbLine
 10
261.822237
 20
274.887375
 30
0.0
 11
261.822237
 21
273.887375
 31
0.0
  0
LINE
  5
498
100
AcDbEntity
  8
LAY-1
  6
CONTINUOUS
 62
     7
100
AcDbLine
 10
257.551004
 20
277.887375
 30
0.0
 11
261.822237
 21
274.887375
 31
0.0
  0
LINE
  5
499
100
AcDbEntity
  8
LAY-1
  6
CONTINUOUS
 62
     7
100
AcDbLine
 10
286.573859
 20
289.887375
 30
0.0
 11
286.573859
 21
289.387375
 31
0.0
  0
ARC
  5
49A
100
AcDbEntity
  8
LAY-1
  6
CONTINUOUS
 62
     7
100
AcDbCircle
 10
287.073859
 20
289.387375
 30
0.0
 40
0.5
100
AcDbArc
 50
180.0
 51
270.0
  0
LINE
  5
49B
100
AcDbEntity
  8
LAY-1
  6
CONTINUOUS
 62
     7
100
AcDbLine
 10
287.073859
 20
288.887375
 30
0.0
 11
298.073859
 21
288.887375
 31
0.0
  0
LINE
  5
49C
100
AcDbEntity
  8
LAY-1
  6
CONTINUOUS
 62
     7
100
AcDbLine
 10
298.573859
 20
289.887375
 30
0.0
 11
298.573859
 21
289.387375
 31
0.0
  0
ARC
  5
49D
100
AcDbEntity
  8
LAY-1
  6
CONTINUOUS
 62
     7
100
AcDbCircle
 10
298.073859
 20
289.387375
 30
0.0
 40
0.5
100
AcDbArc
 50
270.0
 51
0.0
  0
LINE
  5
49E
100
AcDbEntity
  8
LAY-1
  6
CONTINUOUS
 62
     7
100
AcDbLine
 10
232.159207
 20
288.939711
 30
0.0
 11
232.225329
 21
287.678031
 31
0.0
  0
LINE
  5
49F
100
AcDbEntity
  8
LAY-1
  6
CONTINUOUS
 62
     7
100
AcDbLine
 10
244.126637
 20
289.887375
 30
0.0
 11
244.126637
 21
289.387375
 31
0.0
  0
ARC
  5
4A0
100
AcDbEntity
  8
LAY-1
  6
CONTINUOUS
 62
     7
100
AcDbCircle
 10
243.626637
 20
289.387375
 30
0.0
 40
0.5
100
AcDbArc
 50
270.0
 51
0.0
  0
LINE
  5
4A1
100
AcDbEntity
  8
LAY-1
  6
CONTINUOUS
 62
     7
100
AcDbLine
 10
243.626637
 20
288.887375
 30
0.0
 11
232.626637
 21
288.887375
 31
0.0
  0
LINE
  5
4A2
100
AcDbEntity
  8
LAY-1
  6
CONTINUOUS
 62
     7
100
AcDbLine
 10
232.126637
 20
289.887375
 30
0.0
 11
232.126637
 21
289.387375
 31
0.0
  0
ARC
  5
4A3
100
AcDbEntity
  8
LAY-1
  6
CONTINUOUS
 62
     7
100
AcDbCircle
 10
232.626637
 20
289.387375
 30
0.0
 40
0.5
100
AcDbArc
 50
180.0
 51
270.0
  0
ARC
  5
4A4
100
AcDbEntity
  8
LAY-1
  6
CONTINUOUS
 62
     7
100
AcDbCircle
 10
292.573859
 20
294.187375
 30
0.0
 40
8.0
100
AcDbArc
 50
270.0
 51
300.0
  0
ARC
  5
4A5
100
AcDbEntity
  8
LAY-1
  6
CONTINUOUS
 62
     7
100
AcDbCircle
 10
295.823859
 20
288.55821
 30
0.0
 40
1.5
100
AcDbArc
 50
300.0
 51
0.0
  0
ARC
  5
4A6
100
AcDbEntity
  8
LAY-1
  6
CONTINUOUS
 62
     7
100
AcDbCircle
 10
292.573859
 20
294.187375
 30
0.0
 40
8.0
100
AcDbArc
 50
240.0
 51
270.0
  0
ARC
  5
4A7
100
AcDbEntity
  8
LAY-1
  6
CONTINUOUS
 62
     7
100
AcDbCircle
 10
289.323859
 20
288.55821
 30
0.0
 40
1.5
100
AcDbArc
 50
180.0
 51
240.0
  0
LINE
  5
4A8
100
AcDbEntity
  8
LAY-1
  6
CONTINUOUS
 62
     7
100
AcDbLine
 10
297.323859
 20
288.55821
 30
0.0
 11
297.323859
 21
288.887375
 31
0.0
  0
LINE
  5
4A9
100
AcDbEntity
  8
LAY-1
  6
CONTINUOUS
 62
     7
100
AcDbLine
 10
287.823859
 20
288.55821
 30
0.0
 11
287.823859
 21
288.887375
 31
0.0
  0
ARC
  5
4AA
100
AcDbEntity
  8
LAY-1
  6
CONTINUOUS
 62
     7
100
AcDbCircle
 10
238.126637
 20
294.187375
 30
0.0
 40
8.0
100
AcDbArc
 50
240.0
 51
270.0
  0
ARC
  5
4AB
100
AcDbEntity
  8
LAY-1
  6
CONTINUOUS
 62
     7
100
AcDbCircle
 10
234.876637
 20
288.55821
 30
0.0
 40
1.5
100
AcDbArc
 50
180.0
 51
240.0
  0
ARC
  5
4AC
100
AcDbEntity
  8
LAY-1
  6
CONTINUOUS
 62
     7
100
AcDbCircle
 10
238.126637
 20
294.187375
 30
0.0
 40
8.0
100
AcDbArc
 50
270.0
 51
300.0
  0
ARC
  5
4AD
100
AcDbEntity
  8
LAY-1
  6
CONTINUOUS
 62
     7
100
AcDbCircle
 10
241.376637
 20
288.55821
 30
0.0
 40
1.5
100
AcDbArc
 50
300.0
 51
0.0
  0
LINE
  5
4AE
100
AcDbEntity
  8
LAY-1
  6
CONTINUOUS
 62
     7
100
AcDbLine
 10
233.376637
 20
288.55821
 30
0.0
 11
233.376637
 21
288.887375
 31
0.0
  0
LINE
  5
4AF
100
AcDbEntity
  8
LAY-1
  6
CONTINUOUS
 62
     7
100
AcDbLine
 10
242.876637
 20
288.55821
 30
0.0
 11
242.876637
 21
288.887375
 31
0.0
  0
LINE
  5
4B0
100
AcDbEntity
  8
LAY-1
  6
CONTINUOUS
 62
     7
100
AcDbLine
 10
265.350248
 20
339.887375
 30
0.0
 11
277.844693
 21
339.887375
 31
0.0
  0
LINE
  5
4B1
100
AcDbEntity
  8
LAY-1
  6
CONTINUOUS
 62
     7
100
AcDbLine
 10
265.350248
 20
339.887375
 30
0.0
 11
252.350248
 21
339.887375
 31
0.0
  0
LINE
  5
4B2
100
AcDbEntity
  8
LAY-1
  6
CONTINUOUS
 62
     7
100
AcDbLine
 10
265.350248
 20
339.887375
 30
0.0
 11
277.844693
 21
339.887375
 31
0.0
  0
LINE
  5
4B3
100
AcDbEntity
  8
LAY-1
  6
CONTINUOUS
 62
     7
100
AcDbLine
 10
252.855802
 20
339.887375
 30
0.0
 11
257.350248
 21
339.887375
 31
0.0
  0
LINE
  5
4B4
100
AcDbEntity
  8
LAY-1
  6
CONTINUOUS
 62
     7
100
AcDbLine
 10
250.350248
 20
340.289298
 30
0.0
 11
250.350248
 21
347.485451
 31
0.0
  0
LINE
  5
4B5
100
AcDbEntity
  8
LAY-1
  6
CONTINUOUS
 62
     7
100
AcDbLine
 10
258.050248
 20
339.887375
 30
0.0
 11
251.850248
 21
339.887375
 31
0.0
  0
LINE
  5
4B6
100
AcDbEntity
  8
LAY-1
  6
CONTINUOUS
 62
     7
100
AcDbLine
 10
251.850248
 20
339.887375
 30
0.0
 11
250.350248
 21
340.289298
 31
0.0
  0
LINE
  5
4B7
100
AcDbEntity
  8
LAY-1
  6
CONTINUOUS
 62
     7
100
AcDbLine
 10
252.855802
 20
339.887375
 30
0.0
 11
257.350248
 21
339.887375
 31
0.0
  0
ARC
  5
4B8
100
AcDbEntity
  8
LAY-1
  6
CONTINUOUS
 62
     7
100
AcDbCircle
 10
251.650248
 20
348.04084
 30
0.0
 40
0.2
100
AcDbArc
 50
285.0
 51
0.0
  0
LINE
  5
4B9
100
AcDbEntity
  8
LAY-1
  6
CONTINUOUS
 62
     7
100
AcDbLine
 10
253.650248
 20
366.887375
 30
0.0
 11
253.350248
 21
366.587375
 31
0.0
  0
LINE
  5
4BA
100
AcDbEntity
  8
LAY-1
  6
CONTINUOUS
 62
     7
100
AcDbLine
 10
247.350248
 20
348.691702
 30
0.0
 11
247.850248
 21
348.191702
 31
0.0
  0
LINE
  5
4BB
100
AcDbEntity
  8
LAY-1
  6
CONTINUOUS
 62
     7
100
AcDbLine
 10
250.650248
 20
366.191702
 30
0.0
 11
251.800248
 21
366.191702
 31
0.0
  0
LINE
  5
4BC
100
AcDbEntity
  8
LAY-1
  6
CONTINUOUS
 62
     7
100
AcDbLine
 10
250.350248
 20
365.891702
 30
0.0
 11
250.650248
 21
366.191702
 31
0.0
  0
ARC
  5
4BD
100
AcDbEntity
  8
LAY-1
  6
CONTINUOUS
 62
     7
100
AcDbCircle
 10
249.350248
 20
353.769052
 30
0.0
 40
1.0
100
AcDbArc
 50
300.0
 51
0.0
  0
ARC
  5
4BE
100
AcDbEntity
  8
LAY-1
  6
CONTINUOUS
 62
     7
100
AcDbCircle
 10
248.350248
 20
350.8823
 30
0.0
 40
1.0
100
AcDbArc
 50
120.0
 51
180.0
  0
LINE
  5
4BF
100
AcDbEntity
  8
LAY-1
  6
CONTINUOUS
 62
     7
100
AcDbLine
 10
253.350248
 20
366.191702
 30
0.0
 11
253.350248
 21
366.587375
 31
0.0
  0
LINE
  5
4C0
100
AcDbEntity
  8
LAY-1
  6
CONTINUOUS
 62
     7
100
AcDbLine
 10
251.850248
 20
348.191702
 30
0.0
 11
251.850248
 21
348.04084
 31
0.0
  0
LINE
  5
4C1
100
AcDbEntity
  8
LAY-1
  6
CONTINUOUS
 62
     7
100
AcDbLine
 10
251.702011
 20
347.847655
 30
0.0
 11
250.350248
 21
347.485451
 31
0.0
  0
ARC
  5
4C2
100
AcDbEntity
  8
LAY-1
  6
CONTINUOUS
 62
     7
100
AcDbCircle
 10
253.658905
 20
353.737125
 30
0.0
 40
13.84975
100
AcDbArc
 50
270.0
 51
283.68519
  0
LINE
  5
4C3
100
AcDbEntity
  8
LAY-1
  6
CONTINUOUS
 62
     7
100
AcDbLine
 10
258.811899
 20
340.280565
 30
0.0
 11
256.928079
 21
340.280565
 31
0.0
  0
ARC
  5
4C4
100
AcDbEntity
  8
LAY-1
  6
CONTINUOUS
 62
     7
100
AcDbCircle
 10
253.658905
 20
334.037624
 30
0.0
 40
13.84975
100
AcDbArc
 50
76.346728
 51
90.0
  0
LINE
  5
4C5
100
AcDbEntity
  8
LAY-1
  6
CONTINUOUS
 62
     7
100
AcDbLine
 10
258.811899
 20
347.494185
 30
0.0
 11
256.928079
 21
347.494185
 31
0.0
  0
LINE
  5
4C6
100
AcDbEntity
  8
LAY-1
  6
CONTINUOUS
 62
     7
100
AcDbLine
 10
256.928079
 20
347.494185
 30
0.0
 11
256.928079
 21
340.280565
 31
0.0
  0
LINE
  5
4C7
100
AcDbEntity
  8
LAY-1
  6
CONTINUOUS
 62
     7
100
AcDbLine
 10
258.811899
 20
347.494185
 30
0.0
 11
258.811899
 21
340.280565
 31
0.0
  0
LINE
  5
4C8
100
AcDbEntity
  8
LAY-1
  6
CONTINUOUS
 62
     7
100
AcDbLine
 10
251.850248
 20
347.887375
 30
0.0
 11
251.850248
 21
348.04084
 31
0.0
  0
LINE
  5
4C9
100
AcDbEntity
  8
LAY-1
  6
CONTINUOUS
 62
     7
100
AcDbLine
 10
265.350248
 20
339.887375
 30
0.0
 11
252.350248
 21
339.887375
 31
0.0
  0
LINE
  5
4CA
100
AcDbEntity
  8
LAY-1
  6
CONTINUOUS
 62
     7
100
AcDbLine
 10
251.850248
 20
347.887375
 30
0.0
 11
265.350248
 21
347.887375
 31
0.0
  0
ARC
  5
4CB
100
AcDbEntity
  8
LAY-1
  6
CONTINUOUS
 62
     7
100
AcDbCircle
 10
265.350248
 20
293.327774
 30
0.0
 40
54.5596
100
AcDbArc
 50
90.0
 51
96.88279
  0
LINE
  5
4CC
100
AcDbEntity
  8
LAY-1
  6
CONTINUOUS
 62
     7
100
AcDbLine
 10
247.850248
 20
348.191702
 30
0.0
 11
265.350248
 21
348.191702
 31
0.0
  0
ARC
  5
4CD
100
AcDbEntity
  8
LAY-1
  6
CONTINUOUS
 62
     7
100
AcDbCircle
 10
265.350248
 20
394.446975
 30
0.0
 40
54.5596
100
AcDbArc
 50
263.11721
 51
270.0
  0
LINE
  5
4CE
100
AcDbEntity
  8
LAY-1
  6
CONTINUOUS
 62
     7
100
AcDbLine
 10
277.844693
 20
339.887375
 30
0.0
 11
273.350248
 21
339.887375
 31
0.0
  0
LINE
  5
4CF
100
AcDbEntity
  8
LAY-1
  6
CONTINUOUS
 62
     7
100
AcDbLine
 10
280.350248
 20
340.289298
 30
0.0
 11
280.350248
 21
347.485451
 31
0.0
  0
LINE
  5
4D0
100
AcDbEntity
  8
LAY-1
  6
CONTINUOUS
 62
     7
100
AcDbLine
 10
272.650248
 20
339.887375
 30
0.0
 11
278.850248
 21
339.887375
 31
0.0
  0
LINE
  5
4D1
100
AcDbEntity
  8
LAY-1
  6
CONTINUOUS
 62
     7
100
AcDbLine
 10
278.850248
 20
339.887375
 30
0.0
 11
280.350248
 21
340.289298
 31
0.0
  0
LINE
  5
4D2
100
AcDbEntity
  8
LAY-1
  6
CONTINUOUS
 62
     7
100
AcDbLine
 10
277.844693
 20
339.887375
 30
0.0
 11
273.350248
 21
339.887375
 31
0.0
  0
ARC
  5
4D3
100
AcDbEntity
  8
LAY-1
  6
CONTINUOUS
 62
     7
100
AcDbCircle
 10
279.050248
 20
348.04084
 30
0.0
 40
0.2
100
AcDbArc
 50
180.0
 51
255.0
  0
LINE
  5
4D4
100
AcDbEntity
  8
LAY-1
  6
CONTINUOUS
 62
     7
100
AcDbLine
 10
277.050248
 20
366.887375
 30
0.0
 11
277.350248
 21
366.587375
 31
0.0
  0
LINE
  5
4D5
100
AcDbEntity
  8
LAY-1
  6
CONTINUOUS
 62
     7
100
AcDbLine
 10
283.350248
 20
348.691702
 30
0.0
 11
283.350248
 21
350.8823
 31
0.0
  0
LINE
  5
4D6
100
AcDbEntity
  8
LAY-1
  6
CONTINUOUS
 62
     7
100
AcDbLine
 10
283.350248
 20
348.691702
 30
0.0
 11
282.850248
 21
348.191702
 31
0.0
  0
LINE
  5
4D7
100
AcDbEntity
  8
LAY-1
  6
CONTINUOUS
 62
     7
100
AcDbLine
 10
280.050248
 20
366.191702
 30
0.0
 11
278.900248
 21
366.191702
 31
0.0
  0
LINE
  5
4D8
100
AcDbEntity
  8
LAY-1
  6
CONTINUOUS
 62
     7
100
AcDbLine
 10
280.350248
 20
365.891702
 30
0.0
 11
280.050248
 21
366.191702
 31
0.0
  0
LINE
  5
4D9
100
AcDbEntity
  8
LAY-1
  6
CONTINUOUS
 62
     7
100
AcDbLine
 10
280.350248
 20
365.891702
 30
0.0
 11
280.350248
 21
353.769052
 31
0.0
  0
LINE
  5
4DA
100
AcDbEntity
  8
LAY-1
  6
CONTINUOUS
 62
     7
100
AcDbLine
 10
282.850248
 20
351.748326
 30
0.0
 11
280.850248
 21
352.903026
 31
0.0
  0
ARC
  5
4DB
100
AcDbEntity
  8
LAY-1
  6
CONTINUOUS
 62
     7
100
AcDbCircle
 10
281.350248
 20
353.769052
 30
0.0
 40
1.0
100
AcDbArc
 50
180.0
 51
240.0
  0
ARC
  5
4DC
100
AcDbEntity
  8
LAY-1
  6
CONTINUOUS
 62
     7
100
AcDbCircle
 10
282.350248
 20
350.8823
 30
0.0
 40
1.0
100
AcDbArc
 50
0.0
 51
60.0
  0
LINE
  5
4DD
100
AcDbEntity
  8
LAY-1
  6
CONTINUOUS
 62
     7
100
AcDbLine
 10
277.350248
 20
366.191702
 30
0.0
 11
277.350248
 21
366.587375
 31
0.0
  0
LINE
  5
4DE
100
AcDbEntity
  8
LAY-1
  6
CONTINUOUS
 62
     7
100
AcDbLine
 10
278.850248
 20
348.191702
 30
0.0
 11
278.850248
 21
348.04084
 31
0.0
  0
LINE
  5
4DF
100
AcDbEntity
  8
LAY-1
  6
CONTINUOUS
 62
     7
100
AcDbLine
 10
278.998484
 20
347.847655
 30
0.0
 11
280.350248
 21
347.485451
 31
0.0
  0
ARC
  5
4E0
100
AcDbEntity
  8
LAY-1
  6
CONTINUOUS
 62
     7
100
AcDbCircle
 10
277.041591
 20
353.737125
 30
0.0
 40
13.84975
100
AcDbArc
 50
256.31481
 51
270.0
  0
LINE
  5
4E1
100
AcDbEntity
  8
LAY-1
  6
CONTINUOUS
 62
     7
100
AcDbLine
 10
271.888596
 20
340.280565
 30
0.0
 11
273.772416
 21
340.280565
 31
0.0
  0
ARC
  5
4E2
100
AcDbEntity
  8
LAY-1
  6
CONTINUOUS
 62
     7
100
AcDbCircle
 10
277.041591
 20
334.037624
 30
0.0
 40
13.84975
100
AcDbArc
 50
90.0
 51
103.653272
  0
LINE
  5
4E3
100
AcDbEntity
  8
LAY-1
  6
CONTINUOUS
 62
     7
100
AcDbLine
 10
271.888596
 20
347.494185
 30
0.0
 11
273.772416
 21
347.494185
 31
0.0
  0
LINE
  5
4E4
100
AcDbEntity
  8
LAY-1
  6
CONTINUOUS
 62
     7
100
AcDbLine
 10
273.772416
 20
347.494185
 30
0.0
 11
273.772416
 21
340.280565
 31
0.0
  0
LINE
  5
4E5
100
AcDbEntity
  8
LAY-1
  6
CONTINUOUS
 62
     7
100
AcDbLine
 10
271.888596
 20
347.494185
 30
0.0
 11
271.888596
 21
340.280565
 31
0.0
  0
LINE
  5
4E6
100
AcDbEntity
  8
LAY-1
  6
CONTINUOUS
 62
     7
100
AcDbLine
 10
278.850248
 20
347.887375
 30
0.0
 11
278.850248
 21
348.04084
 31
0.0
  0
LINE
  5
4E7
100
AcDbEntity
  8
LAY-1
  6
CONTINUOUS
 62
     7
100
AcDbLine
 10
278.850248
 20
347.887375
 30
0.0
 11
265.350248
 21
347.887375
 31
0.0
  0
ARC
  5
4E8
100
AcDbEntity
  8
LAY-1
  6
CONTINUOUS
 62
     7
100
AcDbCircle
 10
265.350248
 20
293.327774
 30
0.0
 40
54.5596
100
AcDbArc
 50
83.11721
 51
90.0
  0
LINE
  5
4E9
100
AcDbEntity
  8
LAY-1
  6
CONTINUOUS
 62
     7
100
AcDbLine
 10
282.850248
 20
348.191702
 30
0.0
 11
265.350248
 21
348.191702
 31
0.0
  0
ARC
  5
4EA
100
AcDbEntity
  8
LAY-1
  6
CONTINUOUS
 62
     7
100
AcDbCircle
 10
265.350248
 20
394.446975
 30
0.0
 40
54.5596
100
AcDbArc
 50
270.0
 51
276.88279
  0
LINE
  5
4EB
100
AcDbEntity
  8
LAY-1
  6
CONTINUOUS
 62
     7
100
AcDbLine
 10
250.350248
 20
365.891702
 30
0.0
 11
250.350248
 21
353.769052
 31
0.0
  0
LINE
  5
4EC
100
AcDbEntity
  8
LAY-1
  6
CONTINUOUS
 62
     7
100
AcDbLine
 10
247.350248
 20
348.691702
 30
0.0
 11
247.350248
 21
350.8823
 31
0.0
  0
LINE
  5
4ED
100
AcDbEntity
  8
LAY-1
  6
CONTINUOUS
 62
     7
100
AcDbLine
 10
247.850248
 20
351.748326
 30
0.0
 11
249.850248
 21
352.903026
 31
0.0
  0
LINE
  5
4EE
100
AcDbEntity
  8
LAY-1
  6
CONTINUOUS
 62
     7
100
AcDbLine
 10
248.51544
 20
351.459651
 30
0.0
 11
265.350248
 21
351.459651
 31
0.0
  0
LINE
  5
4EF
100
AcDbEntity
  8
LAY-1
  6
CONTINUOUS
 62
     7
100
AcDbLine
 10
250.88544
 20
353.191702
 30
0.0
 11
265.350248
 21
353.191702
 31
0.0
  0
LINE
  5
4F0
100
AcDbEntity
  8
LAY-1
  6
CONTINUOUS
 62
     7
100
AcDbLine
 10
279.815055
 20
353.191702
 30
0.0
 11
265.350248
 21
353.191702
 31
0.0
  0
LINE
  5
4F1
100
AcDbEntity
  8
LAY-1
  6
CONTINUOUS
 62
     7
100
AcDbLine
 10
282.185055
 20
351.459651
 30
0.0
 11
265.350248
 21
351.459651
 31
0.0
  0
LINE
  5
4F2
100
AcDbEntity
  8
LAY-1
  6
CONTINUOUS
 62
     7
100
AcDbLine
 10
265.350248
 20
366.191702
 30
0.0
 11
250.650248
 21
366.191702
 31
0.0
  0
LINE
  5
4F3
100
AcDbEntity
  8
LAY-1
  6
CONTINUOUS
 62
     7
100
AcDbLine
 10
253.350248
 20
366.587375
 30
0.0
 11
265.350248
 21
366.587375
 31
0.0
  0
LINE
  5
4F4
100
AcDbEntity
  8
LAY-1
  6
CONTINUOUS
 62
     7
100
AcDbLine
 10
253.650248
 20
366.887375
 30
0.0
 11
265.350248
 21
366.887375
 31
0.0
  0
LINE
  5
4F5
100
AcDbEntity
  8
LAY-1
  6
CONTINUOUS
 62
     7
100
AcDbLine
 10
265.350248
 20
366.191702
 30
0.0
 11
280.050248
 21
366.191702
 31
0.0
  0
LINE
  5
4F6
100
AcDbEntity
  8
LAY-1
  6
CONTINUOUS
 62
     7
100
AcDbLine
 10
277.350248
 20
366.587375
 30
0.0
 11
265.350248
 21
366.587375
 31
0.0
  0
LINE
  5
4F7
100
AcDbEntity
  8
LAY-1
  6
CONTINUOUS
 62
     7
100
AcDbLine
 10
277.050248
 20
366.887375
 30
0.0
 11
265.350248
 21
366.887375
 31
0.0
  0
LINE
  5
4F8
100
AcDbEntity
  8
LAY-1
  6
CONTINUOUS
 62
     7
100
AcDbLine
 10
261.850248
 20
368.387375
 30
0.0
 11
265.350248
 21
368.387375
 31
0.0
  0
LINE
  5
4F9
100
AcDbEntity
  8
LAY-1
  6
CONTINUOUS
 62
     7
100
AcDbLine
 10
268.850248
 20
368.387375
 30
0.0
 11
265.350248
 21
368.387375
 31
0.0
  0
LINE
  5
4FA
100
AcDbEntity
  8
LAY-1
  6
CONTINUOUS
 62
     7
100
AcDbLine
 10
261.850248
 20
368.387375
 30
0.0
 11
260.984222
 21
366.887375
 31
0.0
  0
LINE
  5
4FB
100
AcDbEntity
  8
LAY-1
  6
CONTINUOUS
 62
     7
100
AcDbLine
 10
264.189429
 20
368.387375
 30
0.0
 11
264.189429
 21
366.887375
 31
0.0
  0
LINE
  5
4FC
100
AcDbEntity
  8
LAY-1
  6
CONTINUOUS
 62
     7
100
AcDbLine
 10
266.511066
 20
368.387375
 30
0.0
 11
266.511066
 21
366.887375
 31
0.0
  0
LINE
  5
4FD
100
AcDbEntity
  8
LAY-1
  6
CONTINUOUS
 62
     7
100
AcDbLine
 10
268.850248
 20
368.387375
 30
0.0
 11
269.716273
 21
366.887375
 31
0.0
  0
LINE
  5
4FE
100
AcDbEntity
  8
LAY-1
  6
CONTINUOUS
 62
     7
100
AcDbLine
 10
278.362143
 20
339.387679
 30
0.0
 11
277.844693
 21
339.887375
 31
0.0
  0
LINE
  5
4FF
100
AcDbEntity
  8
LAY-1
  6
CONTINUOUS
 62
     7
100
AcDbLine
 10
252.855802
 20
339.887375
 30
0.0
 11
252.338353
 21
339.387679
 31
0.0
  0
LINE
  5
500
100
AcDbEntity
  8
LAY-1
  6
CONTINUOUS
 62
     7
100
AcDbLine
 10
106.187375
 20
239.887375
 30
0.0
 11
100.653063
 21
239.887375
 31
0.0
  0
LINE
  5
501
100
AcDbEntity
  8
LAY-1
  6
CONTINUOUS
 62
     7
100
AcDbLine
 10
106.187375
 20
165.887375
 30
0.0
 11
100.687375
 21
165.887375
 31
0.0
  0
ARC
  5
502
100
AcDbEntity
  8
LAY-1
  6
CONTINUOUS
 62
     7
100
AcDbCircle
 10
100.685954
 20
166.887375
 30
0.0
 40
1.0
100
AcDbArc
 50
181.527036
 51
270.0
  0
ARC
  5
503
100
AcDbEntity
  8
LAY-1
  6
CONTINUOUS
 62
     7
100
AcDbCircle
 10
96.687375
 20
166.78078
 30
0.0
 40
3.0
100
AcDbArc
 50
1.527036
 51
66.64555
  0
ARC
  5
504
100
AcDbEntity
  8
LAY-1
  6
CONTINUOUS
 62
     7
100
AcDbCircle
 10
100.056929
 20
174.584376
 30
0.0
 40
5.5
100
AcDbArc
 50
182.0
 51
246.64555
  0
ARC
  5
505
100
AcDbEntity
  8
LAY-1
  6
CONTINUOUS
 62
     7
100
AcDbCircle
 10
92.378865
 20
179.552549
 30
0.0
 40
2.0
100
AcDbArc
 50
2.0
 51
88.0
  0
LINE
  5
506
100
AcDbEntity
  8
LAY-1
  6
CONTINUOUS
 62
     7
100
AcDbLine
 10
92.448664
 20
181.55133
 30
0.0
 11
88.813083
 21
181.678288
 31
0.0
  0
ARC
  5
507
100
AcDbEntity
  8
LAY-1
  6
CONTINUOUS
 62
     7
100
AcDbCircle
 10
100.685954
 20
238.887375
 30
0.0
 40
1.0
100
AcDbArc
 50
90.0
 51
178.472964
  0
ARC
  5
508
100
AcDbEntity
  8
LAY-1
  6
CONTINUOUS
 62
     7
100
AcDbCircle
 10
96.687375
 20
238.993969
 30
0.0
 40
3.0
100
AcDbArc
 50
293.35445
 51
358.472964
  0
ARC
  5
509
100
AcDbEntity
  8
LAY-1
  6
CONTINUOUS
 62
     7
100
AcDbCircle
 10
100.056929
 20
231.190374
 30
0.0
 40
5.5
100
AcDbArc
 50
113.35445
 51
178.0
  0
ARC
  5
50A
100
AcDbEntity
  8
LAY-1
  6
CONTINUOUS
 62
     7
100
AcDbCircle
 10
92.378865
 20
226.222201
 30
0.0
 40
2.0
100
AcDbArc
 50
272.0
 51
358.0
  0
LINE
  5
50B
100
AcDbEntity
  8
LAY-1
  6
CONTINUOUS
 62
     7
100
AcDbLine
 10
92.448664
 20
224.223419
 30
0.0
 11
88.813083
 21
224.096462
 31
0.0
  0
LINE
  5
50C
100
AcDbEntity
  8
LAY-1
  6
CONTINUOUS
 62
     7
100
AcDbLine
 10
78.187375
 20
185.887375
 30
0.0
 11
81.844257
 21
185.887375
 31
0.0
  0
ARC
  5
50D
100
AcDbEntity
  8
LAY-1
  6
CONTINUOUS
 62
     7
100
AcDbCircle
 10
81.844257
 20
182.887375
 30
0.0
 40
3.0
100
AcDbArc
 50
45.739219
 51
90.0
  0
LINE
  5
50E
100
AcDbEntity
  8
LAY-1
  6
CONTINUOUS
 62
     7
100
AcDbLine
 10
78.187375
 20
219.887375
 30
0.0
 11
81.844257
 21
219.887375
 31
0.0
  0
ARC
  5
50F
100
AcDbEntity
  8
LAY-1
  6
CONTINUOUS
 62
     7
100
AcDbCircle
 10
81.844257
 20
222.887375
 30
0.0
 40
3.0
100
AcDbArc
 50
270.0
 51
314.260781
  0
ARC
  5
510
100
AcDbEntity
  8
LAY-1
  6
CONTINUOUS
 62
     7
100
AcDbCircle
 10
75.388385
 20
188.887375
 30
0.0
 40
2.0
100
AcDbArc
 50
225.0
 51
270.0
  0
LINE
  5
511
100
AcDbEntity
  8
LAY-1
  6
CONTINUOUS
 62
     7
100
AcDbLine
 10
73.974171
 20
187.473161
 30
0.0
 11
65.773161
 21
195.674171
 31
0.0
  0
ARC
  5
512
100
AcDbEntity
  8
LAY-1
  6
CONTINUOUS
 62
     7
100
AcDbCircle
 10
67.187375
 20
197.088385
 30
0.0
 40
2.0
100
AcDbArc
 50
180.0
 51
225.0
  0
LINE
  5
513
100
AcDbEntity
  8
LAY-1
  6
CONTINUOUS
 62
     7
100
AcDbLine
 10
65.187375
 20
197.088385
 30
0.0
 11
65.187375
 21
208.686365
 31
0.0
  0
ARC
  5
514
100
AcDbEntity
  8
LAY-1
  6
CONTINUOUS
 62
     7
100
AcDbCircle
 10
67.187375
 20
208.686365
 30
0.0
 40
2.0
100
AcDbArc
 50
135.0
 51
180.0
  0
LINE
  5
515
100
AcDbEntity
  8
LAY-1
  6
CONTINUOUS
 62
     7
100
AcDbLine
 10
65.773161
 20
210.100578
 30
0.0
 11
73.974171
 21
218.301588
 31
0.0
  0
ARC
  5
516
100
AcDbEntity
  8
LAY-1
  6
CONTINUOUS
 62
     7
100
AcDbCircle
 10
75.388385
 20
216.887375
 30
0.0
 40
2.0
100
AcDbArc
 50
90.0
 51
135.0
  0
ARC
  5
517
100
AcDbEntity
  8
LAY-1
  6
CONTINUOUS
 62
     7
100
AcDbCircle
 10
86.986365
 20
216.887375
 30
0.0
 40
2.0
100
AcDbArc
 50
45.0
 51
90.0
  0
LINE
  5
518
100
AcDbEntity
  8
LAY-1
  6
CONTINUOUS
 62
     7
100
AcDbLine
 10
88.400578
 20
218.301588
 30
0.0
 11
96.601588
 21
210.100578
 31
0.0
  0
ARC
  5
519
100
AcDbEntity
  8
LAY-1
  6
CONTINUOUS
 62
     7
100
AcDbCircle
 10
95.187375
 20
208.686365
 30
0.0
 40
2.0
100
AcDbArc
 50
0.0
 51
45.0
  0
ARC
  5
51A
100
AcDbEntity
  8
LAY-1
  6
CONTINUOUS
 62
     7
100
AcDbCircle
 10
95.187375
 20
197.088385
 30
0.0
 40
2.0
100
AcDbArc
 50
315.0
 51
0.0
  0
LINE
  5
51B
100
AcDbEntity
  8
LAY-1
  6
CONTINUOUS
 62
     7
100
AcDbLine
 10
96.601588
 20
195.674171
 30
0.0
 11
88.400578
 21
187.473161
 31
0.0
  0
ARC
  5
51C
100
AcDbEntity
  8
LAY-1
  6
CONTINUOUS
 62
     7
100
AcDbCircle
 10
86.986365
 20
188.887375
 30
0.0
 40
2.0
100
AcDbArc
 50
270.0
 51
315.0
  0
LINE
  5
51D
100
AcDbEntity
  8
LAY-1
  6
CONTINUOUS
 62
     7
100
AcDbLine
 10
97.187375
 20
201.237375
 30
0.0
 11
97.187375
 21
197.088385
 31
0.0
  0
ARC
  5
51E
100
AcDbEntity
  8
LAY-1
  6
CONTINUOUS
 62
     7
100
AcDbCircle
 10
89.005031
 20
187.174937
 30
0.0
 40
5.5
100
AcDbArc
 50
182.997023
 51
268.0
  0
ARC
  5
51F
100
AcDbEntity
  8
LAY-1
  6
CONTINUOUS
 62
     7
100
AcDbCircle
 10
89.005031
 20
218.599812
 30
0.0
 40
5.5
100
AcDbArc
 50
92.0
 51
177.002977
  0
ARC
  5
520
100
AcDbEntity
  8
LAY-1
  6
CONTINUOUS
 62
     7
100
AcDbCircle
 10
78.187375
 20
215.887375
 30
0.0
 40
4.0
100
AcDbArc
 50
90.0
 51
131.409622
  0
ARC
  5
521
100
AcDbEntity
  8
LAY-1
  6
CONTINUOUS
 62
     7
100
AcDbCircle
 10
78.187375
 20
189.887375
 30
0.0
 40
4.0
100
AcDbArc
 50
228.590378
 51
270.0
  0
LINE
  5
522
100
AcDbEntity
  8
LAY-1
  6
CONTINUOUS
 62
     7
100
AcDbLine
 10
97.187375
 20
208.686365
 30
0.0
 11
97.187375
 21
201.237375
 31
0.0
  0
LINE
  5
523
100
AcDbEntity
  8
LAY-1
  6
CONTINUOUS
 62
     7
100
AcDbLine
 10
99.687375
 20
238.887375
 30
0.0
 11
99.687375
 21
221.887375
 31
0.0
  0
LINE
  5
524
100
AcDbEntity
  8
LAY-1
  6
CONTINUOUS
 62
     7
100
AcDbLine
 10
75.388385
 20
218.887375
 30
0.0
 11
96.687375
 21
218.887375
 31
0.0
  0
ARC
  5
525
100
AcDbEntity
  8
LAY-1
  6
CONTINUOUS
 62
     7
100
AcDbCircle
 10
96.687375
 20
221.887375
 30
0.0
 40
3.0
100
AcDbArc
 50
270.0
 51
0.0
  0
LINE
  5
526
100
AcDbEntity
  8
LAY-1
  6
CONTINUOUS
 62
     7
100
AcDbLine
 10
99.687375
 20
183.887375
 30
0.0
 11
99.687375
 21
166.78078
 31
0.0
  0
LINE
  5
527
100
AcDbEntity
  8
LAY-1
  6
CONTINUOUS
 62
     7
100
AcDbLine
 10
75.388385
 20
186.887375
 30
0.0
 11
96.687375
 21
186.887375
 31
0.0
  0
ARC
  5
528
100
AcDbEntity
  8
LAY-1
  6
CONTINUOUS
 62
     7
100
AcDbCircle
 10
96.687375
 20
183.887375
 30
0.0
 40
3.0
100
AcDbArc
 50
0.0
 51
90.0
  0
LINE
  5
529
100
AcDbEntity
  8
LAY-1
  6
CONTINUOUS
 62
     7
100
AcDbLine
 10
60.152475
 20
215.915522
 30
0.0
 11
72.001896
 21
216.329313
 31
0.0
  0
ARC
  5
52A
100
AcDbEntity
  8
LAY-1
  6
CONTINUOUS
 62
     7
100
AcDbCircle
 10
60.187375
 20
214.916131
 30
0.0
 40
1.0
100
AcDbArc
 50
92.0
 51
180.0
  0
LINE
  5
52B
100
AcDbEntity
  8
LAY-1
  6
CONTINUOUS
 62
     7
100
AcDbLine
 10
59.187375
 20
214.916131
 30
0.0
 11
59.187375
 21
190.858618
 31
0.0
  0
LINE
  5
52C
100
AcDbEntity
  8
LAY-1
  6
CONTINUOUS
 62
     7
100
AcDbLine
 10
60.152475
 20
189.859227
 30
0.0
 11
72.001896
 21
189.445436
 31
0.0
  0
ARC
  5
52D
100
AcDbEntity
  8
LAY-1
  6
CONTINUOUS
 62
     7
100
AcDbCircle
 10
60.187375
 20
190.858618
 30
0.0
 40
1.0
100
AcDbArc
 50
180.0
 51
268.0
  0
CIRCLE
  5
52E
100
AcDbEntity
  8
LAY-1
  6
CONTINUOUS
 62
     7
100
AcDbCircle
 10
81.187375
 20
202.887375
 30
0.0
 40
3.7
  0
CIRCLE
  5
52F
100
AcDbEntity
  8
LAY-1
  6
CONTINUOUS
 62
     7
100
AcDbCircle
 10
81.187375
 20
202.887375
 30
0.0
 40
6.432938
  0
CIRCLE
  5
530
100
AcDbEntity
  8
LAY-1
  6
CONTINUOUS
 62
     7
100
AcDbCircle
 10
81.187375
 20
202.887375
 30
0.0
 40
7.9
  0
CIRCLE
  5
531
100
AcDbEntity
  8
LAY-1
  6
CONTINUOUS
 62
     7
100
AcDbCircle
 10
81.187375
 20
202.887375
 30
0.0
 40
10.5
  0
LINE
  5
532
100
AcDbEntity
  8
LAY-1
  6
CONTINUOUS
 62
     7
100
AcDbLine
 10
76.187375
 20
190.887375
 30
0.0
 11
86.187375
 21
190.887375
 31
0.0
  0
ARC
  5
533
100
AcDbEntity
  8
LAY-1
  6
CONTINUOUS
 62
     7
100
AcDbCircle
 10
81.187375
 20
202.887375
 30
0.0
 40
13.0
100
AcDbArc
 50
292.619865
 51
307.380135
  0
ARC
  5
534
100
AcDbEntity
  8
LAY-1
  6
CONTINUOUS
 62
     7
100
AcDbCircle
 10
81.187375
 20
202.887375
 30
0.0
 40
13.0
100
AcDbArc
 50
232.619865
 51
247.380135
  0
LINE
  5
535
100
AcDbEntity
  8
LAY-1
  6
CONTINUOUS
 62
     7
100
AcDbLine
 10
68.29507
 20
201.217502
 30
0.0
 11
73.29507
 21
192.557248
 31
0.0
  0
ARC
  5
536
100
AcDbEntity
  8
LAY-1
  6
CONTINUOUS
 62
     7
100
AcDbCircle
 10
81.187375
 20
202.887375
 30
0.0
 40
13.0
100
AcDbArc
 50
172.619865
 51
187.380135
  0
LINE
  5
537
100
AcDbEntity
  8
LAY-1
  6
CONTINUOUS
 62
     7
100
AcDbLine
 10
73.29507
 20
213.217502
 30
0.0
 11
68.29507
 21
204.557248
 31
0.0
  0
ARC
  5
538
100
AcDbEntity
  8
LAY-1
  6
CONTINUOUS
 62
     7
100
AcDbCircle
 10
81.187375
 20
202.887375
 30
0.0
 40
13.0
100
AcDbArc
 50
112.619865
 51
127.380135
  0
LINE
  5
539
100
AcDbEntity
  8
LAY-1
  6
CONTINUOUS
 62
     7
100
AcDbLine
 10
86.187375
 20
214.887375
 30
0.0
 11
76.187375
 21
214.887375
 31
0.0
  0
ARC
  5
53A
100
AcDbEntity
  8
LAY-1
  6
CONTINUOUS
 62
     7
100
AcDbCircle
 10
81.187375
 20
202.887375
 30
0.0
 40
13.0
100
AcDbArc
 50
52.619865
 51
67.380135
  0
ARC
  5
53B
100
AcDbEntity
  8
LAY-1
  6
CONTINUOUS
 62
     7
100
AcDbCircle
 10
81.187375
 20
202.887375
 30
0.0
 40
13.0
100
AcDbArc
 50
352.619865
 51
7.380135
  0
LINE
  5
53C
100
AcDbEntity
  8
LAY-1
  6
CONTINUOUS
 62
     7
100
AcDbLine
 10
89.07968
 20
192.557248
 30
0.0
 11
94.07968
 21
201.217502
 31
0.0
  0
LINE
  5
53D
100
AcDbEntity
  8
LAY-1
  6
CONTINUOUS
 62
     7
100
AcDbLine
 10
94.07968
 20
204.557248
 30
0.0
 11
89.07968
 21
213.217502
 31
0.0
  0
ARC
  5
53E
100
AcDbEntity
  8
LAY-1
  6
CONTINUOUS
 62
     7
100
AcDbCircle
 10
131.687375
 20
187.031805
 30
0.0
 40
2.2
100
AcDbArc
 50
273.0
 51
0.0
  0
ARC
  5
53F
100
AcDbEntity
  8
LAY-1
  6
CONTINUOUS
 62
     7
100
AcDbCircle
 10
117.187375
 20
183.462623
 30
0.0
 40
2.0
100
AcDbArc
 50
93.0
 51
180.0
  0
ARC
  5
540
100
AcDbEntity
  8
LAY-1
  6
CONTINUOUS
 62
     7
100
AcDbCircle
 10
111.187375
 20
173.756974
 30
0.0
 40
4.0
100
AcDbArc
 50
273.0
 51
0.0
  0
LINE
  5
541
100
AcDbEntity
  8
LAY-1
  6
CONTINUOUS
 62
     7
100
AcDbLine
 10
110.135039
 20
169.696334
 30
0.0
 11
111.396719
 21
169.762456
 31
0.0
  0
ARC
  5
542
100
AcDbEntity
  8
LAY-1
  6
CONTINUOUS
 62
     7
100
AcDbCircle
 10
108.687375
 20
166.387375
 30
0.0
 40
0.5
100
AcDbArc
 50
270.0
 51
0.0
  0
ARC
  5
543
100
AcDbEntity
  8
LAY-1
  6
CONTINUOUS
 62
     7
100
AcDbCircle
 10
110.187375
 20
168.697704
 30
0.0
 40
1.0
100
AcDbArc
 50
93.0
 51
180.0
  0
ARC
  5
544
100
AcDbEntity
  8
LAY-1
  6
CONTINUOUS
 62
     7
100
AcDbCircle
 10
117.187375
 20
222.312126
 30
0.0
 40
2.0
100
AcDbArc
 50
180.0
 51
267.0
  0
ARC
  5
545
100
AcDbEntity
  8
LAY-1
  6
CONTINUOUS
 62
     7
100
AcDbCircle
 10
111.187375
 20
232.017776
 30
0.0
 40
4.0
100
AcDbArc
 50
0.0
 51
87.0
  0
LINE
  5
546
100
AcDbEntity
  8
LAY-1
  6
CONTINUOUS
 62
     7
100
AcDbLine
 10
110.135039
 20
236.078416
 30
0.0
 11
111.396719
 21
236.012294
 31
0.0
  0
ARC
  5
547
100
AcDbEntity
  8
LAY-1
  6
CONTINUOUS
 62
     7
100
AcDbCircle
 10
108.687375
 20
239.387375
 30
0.0
 40
0.5
100
AcDbArc
 50
0.0
 51
90.0
  0
LINE
  5
548
100
AcDbEntity
  8
LAY-1
  6
CONTINUOUS
 62
     7
100
AcDbLine
 10
106.187375
 20
239.887375
 30
0.0
 11
108.687375
 21
239.887375
 31
0.0
  0
LINE
  5
549
100
AcDbEntity
  8
LAY-1
  6
CONTINUOUS
 62
     7
100
AcDbLine
 10
106.187375
 20
239.887375
 30
0.0
 11
106.187375
 21
165.887375
 31
0.0
  0
LINE
  5
54A
100
AcDbEntity
  8
LAY-1
  6
CONTINUOUS
 62
     7
100
AcDbLine
 10
109.187375
 20
166.387375
 30
0.0
 11
109.187375
 21
202.887375
 31
0.0
  0
LINE
  5
54B
100
AcDbEntity
  8
LAY-1
  6
CONTINUOUS
 62
     7
100
AcDbLine
 10
115.187375
 20
173.756974
 30
0.0
 11
115.187375
 21
202.887375
 31
0.0
  0
LINE
  5
54C
100
AcDbEntity
  8
LAY-1
  6
CONTINUOUS
 62
     7
100
AcDbLine
 10
121.187375
 20
220.099751
 30
0.0
 11
117.082703
 21
220.314867
 31
0.0
  0
LINE
  5
54D
100
AcDbEntity
  8
LAY-1
  6
CONTINUOUS
 62
     7
100
AcDbLine
 10
115.187375
 20
202.887375
 30
0.0
 11
115.187375
 21
232.017776
 31
0.0
  0
ARC
  5
54E
100
AcDbEntity
  8
LAY-1
  6
CONTINUOUS
 62
     7
100
AcDbCircle
 10
110.187375
 20
237.077045
 30
0.0
 40
1.0
100
AcDbArc
 50
180.0
 51
267.0
  0
LINE
  5
54F
100
AcDbEntity
  8
LAY-1
  6
CONTINUOUS
 62
     7
100
AcDbLine
 10
109.187375
 20
239.387375
 30
0.0
 11
109.187375
 21
202.887375
 31
0.0
  0
LINE
  5
550
100
AcDbEntity
  8
LAY-1
  6
CONTINUOUS
 62
     7
100
AcDbLine
 10
94.123946
 20
186.887375
 30
0.0
 11
94.560279
 21
174.392428
 31
0.0
  0
LINE
  5
551
100
AcDbEntity
  8
LAY-1
  6
CONTINUOUS
 62
     7
100
AcDbLine
 10
94.127068
 20
218.976783
 30
0.0
 11
94.560279
 21
231.382321
 31
0.0
  0
ARC
  5
552
100
AcDbEntity
  8
LAY-1
  6
CONTINUOUS
 62
     7
100
AcDbCircle
 10
131.687375
 20
218.742944
 30
0.0
 40
2.2
100
AcDbArc
 50
0.0
 51
87.0
  0
LINE
  5
553
100
AcDbEntity
  8
LAY-1
  6
CONTINUOUS
 62
     7
100
AcDbLine
 10
121.187375
 20
221.202038
 30
0.0
 11
124.187375
 21
221.839708
 31
0.0
  0
LINE
  5
554
100
AcDbEntity
  8
LAY-1
  6
CONTINUOUS
 62
     7
100
AcDbLine
 10
125.187375
 20
221.7873
 30
0.0
 11
124.187375
 21
221.839708
 31
0.0
  0
LINE
  5
555
100
AcDbEntity
  8
LAY-1
  6
CONTINUOUS
 62
     7
100
AcDbLine
 10
133.887375
 20
218.742944
 30
0.0
 11
133.887375
 21
187.031805
 31
0.0
  0
LINE
  5
556
100
AcDbEntity
  8
LAY-1
  6
CONTINUOUS
 62
     7
100
AcDbLine
 10
125.187375
 20
221.286614
 30
0.0
 11
131.802514
 21
220.939929
 31
0.0
  0
LINE
  5
557
100
AcDbEntity
  8
LAY-1
  6
CONTINUOUS
 62
     7
100
AcDbLine
 10
121.187375
 20
184.572711
 30
0.0
 11
124.187375
 21
183.935042
 31
0.0
  0
LINE
  5
558
100
AcDbEntity
  8
LAY-1
  6
CONTINUOUS
 62
     7
100
AcDbLine
 10
125.187375
 20
183.987449
 30
0.0
 11
124.187375
 21
183.935042
 31
0.0
  0
LINE
  5
559
100
AcDbEntity
  8
LAY-1
  6
CONTINUOUS
 62
     7
100
AcDbLine
 10
125.187375
 20
221.7873
 30
0.0
 11
125.187375
 21
183.987449
 31
0.0
  0
LINE
  5
55A
100
AcDbEntity
  8
LAY-1
  6
CONTINUOUS
 62
     7
100
AcDbLine
 10
117.082703
 20
185.459882
 30
0.0
 11
121.187375
 21
185.674999
 31
0.0
  0
LINE
  5
55B
100
AcDbEntity
  8
LAY-1
  6
CONTINUOUS
 62
     7
100
AcDbLine
 10
124.187375
 20
197.887375
 30
0.0
 11
124.187375
 21
207.887375
 31
0.0
  0
LINE
  5
55C
100
AcDbEntity
  8
LAY-1
  6
CONTINUOUS
 62
     7
100
AcDbLine
 10
124.1
 20
197.887375
 30
0.0
 11
121.187375
 21
197.887375
 31
0.0
  0
LINE
  5
55D
100
AcDbEntity
  8
LAY-1
  6
CONTINUOUS
 62
     7
100
AcDbLine
 10
124.187375
 20
207.887375
 30
0.0
 11
121.187375
 21
207.887375
 31
0.0
  0
LINE
  5
55E
100
AcDbEntity
  8
LAY-1
  6
CONTINUOUS
 62
     7
100
AcDbLine
 10
121.187375
 20
184.572711
 30
0.0
 11
121.187375
 21
197.887375
 31
0.0
  0
LINE
  5
55F
100
AcDbEntity
  8
LAY-1
  6
CONTINUOUS
 62
     7
100
AcDbLine
 10
121.187375
 20
207.887375
 30
0.0
 11
121.187375
 21
221.202038
 31
0.0
  0
ARC
  5
560
100
AcDbEntity
  8
LAY-1
  6
CONTINUOUS
 62
     7
100
AcDbCircle
 10
131.687375
 20
198.515097
 30
0.0
 40
2.2
100
AcDbArc
 50
273.0
 51
0.0
  0
LINE
  5
561
100
AcDbEntity
  8
LAY-1
  6
CONTINUOUS
 62
     7
100
AcDbLine
 10
121.187375
 20
196.056003
 30
0.0
 11
124.187375
 21
195.418333
 31
0.0
  0
LINE
  5
562
100
AcDbEntity
  8
LAY-1
  6
CONTINUOUS
 62
     7
100
AcDbLine
 10
125.187375
 20
195.470741
 30
0.0
 11
124.187375
 21
195.418333
 31
0.0
  0
LINE
  5
563
100
AcDbEntity
  8
LAY-1
  6
CONTINUOUS
 62
     7
100
AcDbLine
 10
121.187375
 20
209.718747
 30
0.0
 11
124.187375
 21
210.356416
 31
0.0
  0
LINE
  5
564
100
AcDbEntity
  8
LAY-1
  6
CONTINUOUS
 62
     7
100
AcDbLine
 10
125.187375
 20
210.304009
 30
0.0
 11
124.187375
 21
210.356416
 31
0.0
  0
ARC
  5
565
100
AcDbEntity
  8
LAY-1
  6
CONTINUOUS
 62
     7
100
AcDbCircle
 10
131.687375
 20
207.259653
 30
0.0
 40
2.2
100
AcDbArc
 50
0.0
 51
87.0
  0
LINE
  5
566
100
AcDbEntity
  8
LAY-1
  6
CONTINUOUS
 62
     7
100
AcDbLine
 10
125.187375
 20
184.488136
 30
0.0
 11
131.802514
 21
184.83482
 31
0.0
  0
LINE
  5
567
100
AcDbEntity
  8
LAY-1
  6
CONTINUOUS
 62
     7
100
AcDbLine
 10
125.187375
 20
195.971427
 30
0.0
 11
131.802514
 21
196.318112
 31
0.0
  0
LINE
  5
568
100
AcDbEntity
  8
LAY-1
  6
CONTINUOUS
 62
     7
100
AcDbLine
 10
125.187375
 20
209.803322
 30
0.0
 11
131.802514
 21
209.456638
 31
0.0
  0
LINE
  5
569
100
AcDbEntity
  8
LAY-1
  6
CONTINUOUS
 62
     7
100
AcDbLine
 10
109.187375
 20
181.663764
 30
0.0
 11
109.687375
 21
181.663764
 31
0.0
  0
ARC
  5
56A
100
AcDbEntity
  8
LAY-1
  6
CONTINUOUS
 62
     7
100
AcDbCircle
 10
109.687375
 20
181.163764
 30
0.0
 40
0.5
100
AcDbArc
 50
0.0
 51
90.0
  0
LINE
  5
56B
100
AcDbEntity
  8
LAY-1
  6
CONTINUOUS
 62
     7
100
AcDbLine
 10
110.187375
 20
181.163764
 30
0.0
 11
110.187375
 21
170.163764
 31
0.0
  0
LINE
  5
56C
100
AcDbEntity
  8
LAY-1
  6
CONTINUOUS
 62
     7
100
AcDbLine
 10
109.187375
 20
169.663764
 30
0.0
 11
109.687375
 21
169.663764
 31
0.0
  0
ARC
  5
56D
100
AcDbEntity
  8
LAY-1
  6
CONTINUOUS
 62
     7
100
AcDbCircle
 10
109.687375
 20
170.163764
 30
0.0
 40
0.5
100
AcDbArc
 50
270.0
 51
0.0
  0
LINE
  5
56E
100
AcDbEntity
  8
LAY-1
  6
CONTINUOUS
 62
     7
100
AcDbLine
 10
109.187375
 20
224.110986
 30
0.0
 11
109.687375
 21
224.110986
 31
0.0
  0
ARC
  5
56F
100
AcDbEntity
  8
LAY-1
  6
CONTINUOUS
 62
     7
100
AcDbCircle
 10
109.687375
 20
224.610986
 30
0.0
 40
0.5
100
AcDbArc
 50
270.0
 51
0.0
  0
LINE
  5
570
100
AcDbEntity
  8
LAY-1
  6
CONTINUOUS
 62
     7
100
AcDbLine
 10
110.187375
 20
224.610986
 30
0.0
 11
110.187375
 21
235.610986
 31
0.0
  0
LINE
  5
571
100
AcDbEntity
  8
LAY-1
  6
CONTINUOUS
 62
     7
100
AcDbLine
 10
109.187375
 20
236.110986
 30
0.0
 11
109.687375
 21
236.110986
 31
0.0
  0
ARC
  5
572
100
AcDbEntity
  8
LAY-1
  6
CONTINUOUS
 62
     7
100
AcDbCircle
 10
109.687375
 20
235.610986
 30
0.0
 40
0.5
100
AcDbArc
 50
0.0
 51
90.0
  0
ARC
  5
573
100
AcDbEntity
  8
LAY-1
  6
CONTINUOUS
 62
     7
100
AcDbCircle
 10
104.887375
 20
175.663764
 30
0.0
 40
8.0
100
AcDbArc
 50
330.0
 51
0.0
  0
ARC
  5
574
100
AcDbEntity
  8
LAY-1
  6
CONTINUOUS
 62
     7
100
AcDbCircle
 10
110.51654
 20
172.413764
 30
0.0
 40
1.5
100
AcDbArc
 50
270.0
 51
330.0
  0
ARC
  5
575
100
AcDbEntity
  8
LAY-1
  6
CONTINUOUS
 62
     7
100
AcDbCircle
 10
104.887375
 20
175.663764
 30
0.0
 40
8.0
100
AcDbArc
 50
0.0
 51
30.0
  0
ARC
  5
576
100
AcDbEntity
  8
LAY-1
  6
CONTINUOUS
 62
     7
100
AcDbCircle
 10
110.51654
 20
178.913764
 30
0.0
 40
1.5
100
AcDbArc
 50
30.0
 51
90.0
  0
LINE
  5
577
100
AcDbEntity
  8
LAY-1
  6
CONTINUOUS
 62
     7
100
AcDbLine
 10
110.51654
 20
170.913764
 30
0.0
 11
110.187375
 21
170.913764
 31
0.0
  0
LINE
  5
578
100
AcDbEntity
  8
LAY-1
  6
CONTINUOUS
 62
     7
100
AcDbLine
 10
110.51654
 20
180.413764
 30
0.0
 11
110.187375
 21
180.413764
 31
0.0
  0
ARC
  5
579
100
AcDbEntity
  8
LAY-1
  6
CONTINUOUS
 62
     7
100
AcDbCircle
 10
104.887375
 20
230.110986
 30
0.0
 40
8.0
100
AcDbArc
 50
0.0
 51
30.0
  0
ARC
  5
57A
100
AcDbEntity
  8
LAY-1
  6
CONTINUOUS
 62
     7
100
AcDbCircle
 10
110.51654
 20
233.360986
 30
0.0
 40
1.5
100
AcDbArc
 50
30.0
 51
90.0
  0
ARC
  5
57B
100
AcDbEntity
  8
LAY-1
  6
CONTINUOUS
 62
     7
100
AcDbCircle
 10
104.887375
 20
230.110986
 30
0.0
 40
8.0
100
AcDbArc
 50
330.0
 51
0.0
  0
ARC
  5
57C
100
AcDbEntity
  8
LAY-1
  6
CONTINUOUS
 62
     7
100
AcDbCircle
 10
110.51654
 20
226.860986
 30
0.0
 40
1.5
100
AcDbArc
 50
270.0
 51
330.0
  0
LINE
  5
57D
100
AcDbEntity
  8
LAY-1
  6
CONTINUOUS
 62
     7
100
AcDbLine
 10
110.51654
 20
234.860986
 30
0.0
 11
110.187375
 21
234.860986
 31
0.0
  0
LINE
  5
57E
100
AcDbEntity
  8
LAY-1
  6
CONTINUOUS
 62
     7
100
AcDbLine
 10
110.51654
 20
225.360986
 30
0.0
 11
110.187375
 21
225.360986
 31
0.0
  0
LINE
  5
57F
100
AcDbEntity
  8
LAY-1
  6
CONTINUOUS
 62
     7
100
AcDbLine
 10
108.687375
 20
165.887375
 30
0.0
 11
100.685954
 21
165.887375
 31
0.0
  0
LINE
  5
580
100
AcDbEntity
  8
LAY-1
  6
CONTINUOUS
 62
     7
100
AcDbLine
 10
363.012625
 20
165.887375
 30
0.0
 11
368.512625
 21
165.887375
 31
0.0
  0
ARC
  5
581
100
AcDbEntity
  8
LAY-1
  6
CONTINUOUS
 62
     7
100
AcDbCircle
 10
368.514046
 20
166.887375
 30
0.0
 40
1.0
100
AcDbArc
 50
270.0
 51
358.472964
  0
ARC
  5
582
100
AcDbEntity
  8
LAY-1
  6
CONTINUOUS
 62
     7
100
AcDbCircle
 10
372.512625
 20
166.78078
 30
0.0
 40
3.0
100
AcDbArc
 50
113.35445
 51
178.472964
  0
ARC
  5
583
100
AcDbEntity
  8
LAY-1
  6
CONTINUOUS
 62
     7
100
AcDbCircle
 10
369.143071
 20
174.584376
 30
0.0
 40
5.5
100
AcDbArc
 50
293.35445
 51
358.0
  0
ARC
  5
584
100
AcDbEntity
  8
LAY-1
  6
CONTINUOUS
 62
     7
100
AcDbCircle
 10
376.821135
 20
179.552549
 30
0.0
 40
2.0
100
AcDbArc
 50
92.0
 51
178.0
  0
LINE
  5
585
100
AcDbEntity
  8
LAY-1
  6
CONTINUOUS
 62
     7
100
AcDbLine
 10
376.751336
 20
181.55133
 30
0.0
 11
380.386917
 21
181.678288
 31
0.0
  0
ARC
  5
586
100
AcDbEntity
  8
LAY-1
  6
CONTINUOUS
 62
     7
100
AcDbCircle
 10
368.514046
 20
238.887375
 30
0.0
 40
1.0
100
AcDbArc
 50
1.527036
 51
90.0
  0
ARC
  5
587
100
AcDbEntity
  8
LAY-1
  6
CONTINUOUS
 62
     7
100
AcDbCircle
 10
372.512625
 20
238.993969
 30
0.0
 40
3.0
100
AcDbArc
 50
181.527036
 51
246.64555
  0
ARC
  5
588
100
AcDbEntity
  8
LAY-1
  6
CONTINUOUS
 62
     7
100
AcDbCircle
 10
369.143071
 20
231.190374
 30
0.0
 40
5.5
100
AcDbArc
 50
2.0
 51
66.64555
  0
ARC
  5
589
100
AcDbEntity
  8
LAY-1
  6
CONTINUOUS
 62
     7
100
AcDbCircle
 10
376.821135
 20
226.222201
 30
0.0
 40
2.0
100
AcDbArc
 50
182.0
 51
268.0
  0
LINE
  5
58A
100
AcDbEntity
  8
LAY-1
  6
CONTINUOUS
 62
     7
100
AcDbLine
 10
376.751336
 20
224.223419
 30
0.0
 11
380.386917
 21
224.096462
 31
0.0
  0
ARC
  5
58B
100
AcDbEntity
  8
LAY-1
  6
CONTINUOUS
 62
     7
100
AcDbCircle
 10
387.355743
 20
182.887375
 30
0.0
 40
3.0
100
AcDbArc
 50
90.0
 51
134.260781
  0
ARC
  5
58C
100
AcDbEntity
  8
LAY-1
  6
CONTINUOUS
 62
     7
100
AcDbCircle
 10
387.355743
 20
222.887375
 30
0.0
 40
3.0
100
AcDbArc
 50
225.739219
 51
270.0
  0
ARC
  5
58D
100
AcDbEntity
  8
LAY-1
  6
CONTINUOUS
 62
     7
100
AcDbCircle
 10
409.012625
 20
214.916131
 30
0.0
 40
1.0
100
AcDbArc
 50
0.0
 51
88.0
  0
ARC
  5
58E
100
AcDbEntity
  8
LAY-1
  6
CONTINUOUS
 62
     7
100
AcDbCircle
 10
409.012625
 20
190.858618
 30
0.0
 40
1.0
100
AcDbArc
 50
272.0
 51
0.0
  0
LINE
  5
58F
100
AcDbEntity
  8
LAY-1
  6
CONTINUOUS
 62
     7
100
AcDbLine
 10
410.012625
 20
202.887375
 30
0.0
 11
410.012625
 21
215.887375
 31
0.0
  0
ARC
  5
590
100
AcDbEntity
  8
LAY-1
  6
CONTINUOUS
 62
     7
100
AcDbCircle
 10
337.512625
 20
187.031805
 30
0.0
 40
2.2
100
AcDbArc
 50
180.0
 51
267.0
  0
LINE
  5
591
100
AcDbEntity
  8
LAY-1
  6
CONTINUOUS
 62
     7
100
AcDbLine
 10
345.012625
 20
184.435728
 30
0.0
 11
337.397486
 21
184.83482
 31
0.0
  0
ARC
  5
592
100
AcDbEntity
  8
LAY-1
  6
CONTINUOUS
 62
     7
100
AcDbCircle
 10
352.012625
 20
183.462623
 30
0.0
 40
2.0
100
AcDbArc
 50
0.0
 51
87.0
  0
ARC
  5
593
100
AcDbEntity
  8
LAY-1
  6
CONTINUOUS
 62
     7
100
AcDbCircle
 10
358.012625
 20
173.756974
 30
0.0
 40
4.0
100
AcDbArc
 50
180.0
 51
267.0
  0
LINE
  5
594
100
AcDbEntity
  8
LAY-1
  6
CONTINUOUS
 62
     7
100
AcDbLine
 10
359.064961
 20
169.696334
 30
0.0
 11
357.803281
 21
169.762456
 31
0.0
  0
ARC
  5
595
100
AcDbEntity
  8
LAY-1
  6
CONTINUOUS
 62
     7
100
AcDbCircle
 10
360.512625
 20
166.387375
 30
0.0
 40
0.5
100
AcDbArc
 50
180.0
 51
270.0
  0
ARC
  5
596
100
AcDbEntity
  8
LAY-1
  6
CONTINUOUS
 62
     7
100
AcDbCircle
 10
359.012625
 20
168.697704
 30
0.0
 40
1.0
100
AcDbArc
 50
0.0
 51
87.0
  0
ARC
  5
597
100
AcDbEntity
  8
LAY-1
  6
CONTINUOUS
 62
     7
100
AcDbCircle
 10
352.012625
 20
222.312126
 30
0.0
 40
2.0
100
AcDbArc
 50
273.0
 51
0.0
  0
ARC
  5
598
100
AcDbEntity
  8
LAY-1
  6
CONTINUOUS
 62
     7
100
AcDbCircle
 10
358.012625
 20
232.017776
 30
0.0
 40
4.0
100
AcDbArc
 50
93.0
 51
180.0
  0
LINE
  5
599
100
AcDbEntity
  8
LAY-1
  6
CONTINUOUS
 62
     7
100
AcDbLine
 10
359.064961
 20
236.078416
 30
0.0
 11
357.803281
 21
236.012294
 31
0.0
  0
ARC
  5
59A
100
AcDbEntity
  8
LAY-1
  6
CONTINUOUS
 62
     7
100
AcDbCircle
 10
360.512625
 20
239.387375
 30
0.0
 40
0.5
100
AcDbArc
 50
90.0
 51
180.0
  0
LINE
  5
59B
100
AcDbEntity
  8
LAY-1
  6
CONTINUOUS
 62
     7
100
AcDbLine
 10
363.012625
 20
239.887375
 30
0.0
 11
363.012625
 21
165.887375
 31
0.0
  0
LINE
  5
59C
100
AcDbEntity
  8
LAY-1
  6
CONTINUOUS
 62
     7
100
AcDbLine
 10
360.012625
 20
166.387375
 30
0.0
 11
360.012625
 21
202.887375
 31
0.0
  0
LINE
  5
59D
100
AcDbEntity
  8
LAY-1
  6
CONTINUOUS
 62
     7
100
AcDbLine
 10
354.012625
 20
173.756974
 30
0.0
 11
354.012625
 21
202.887375
 31
0.0
  0
LINE
  5
59E
100
AcDbEntity
  8
LAY-1
  6
CONTINUOUS
 62
     7
100
AcDbLine
 10
354.012625
 20
202.887375
 30
0.0
 11
354.012625
 21
232.017776
 31
0.0
  0
ARC
  5
59F
100
AcDbEntity
  8
LAY-1
  6
CONTINUOUS
 62
     7
100
AcDbCircle
 10
359.012625
 20
237.077045
 30
0.0
 40
1.0
100
AcDbArc
 50
273.0
 51
0.0
  0
LINE
  5
5A0
100
AcDbEntity
  8
LAY-1
  6
CONTINUOUS
 62
     7
100
AcDbLine
 10
360.012625
 20
239.387375
 30
0.0
 11
360.012625
 21
202.887375
 31
0.0
  0
LINE
  5
5A1
100
AcDbEntity
  8
LAY-1
  6
CONTINUOUS
 62
     7
100
AcDbLine
 10
369.512625
 20
238.887375
 30
0.0
 11
369.512625
 21
202.887375
 31
0.0
  0
LINE
  5
5A2
100
AcDbEntity
  8
LAY-1
  6
CONTINUOUS
 62
     7
100
AcDbLine
 10
369.512625
 20
202.887375
 30
0.0
 11
369.512625
 21
166.78078
 31
0.0
  0
LINE
  5
5A3
100
AcDbEntity
  8
LAY-1
  6
CONTINUOUS
 62
     7
100
AcDbLine
 10
375.634786
 20
202.887375
 30
0.0
 11
374.639721
 21
231.382321
 31
0.0
  0
LINE
  5
5A4
100
AcDbEntity
  8
LAY-1
  6
CONTINUOUS
 62
     7
100
AcDbLine
 10
375.634786
 20
202.887375
 30
0.0
 11
374.639721
 21
174.392428
 31
0.0
  0
LINE
  5
5A5
100
AcDbEntity
  8
LAY-1
  6
CONTINUOUS
 62
     7
100
AcDbLine
 10
385.694969
 20
187.174937
 30
0.0
 11
385.694969
 21
218.599812
 31
0.0
  0
ARC
  5
5A6
100
AcDbEntity
  8
LAY-1
  6
CONTINUOUS
 62
     7
100
AcDbCircle
 10
380.194969
 20
218.599812
 30
0.0
 40
5.5
100
AcDbArc
 50
0.0
 51
88.0
  0
ARC
  5
5A7
100
AcDbEntity
  8
LAY-1
  6
CONTINUOUS
 62
     7
100
AcDbCircle
 10
380.194969
 20
187.174937
 30
0.0
 40
5.5
100
AcDbArc
 50
272.0
 51
0.0
  0
ARC
  5
5A8
100
AcDbEntity
  8
LAY-1
  6
CONTINUOUS
 62
     7
100
AcDbCircle
 10
337.512625
 20
218.742944
 30
0.0
 40
2.2
100
AcDbArc
 50
93.0
 51
180.0
  0
LINE
  5
5A9
100
AcDbEntity
  8
LAY-1
  6
CONTINUOUS
 62
     7
100
AcDbLine
 10
345.012625
 20
221.339022
 30
0.0
 11
337.397486
 21
220.939929
 31
0.0
  0
LINE
  5
5AA
100
AcDbEntity
  8
LAY-1
  6
CONTINUOUS
 62
     7
100
AcDbLine
 10
345.012625
 20
184.435728
 30
0.0
 11
345.012625
 21
221.339022
 31
0.0
  0
LINE
  5
5AB
100
AcDbEntity
  8
LAY-1
  6
CONTINUOUS
 62
     7
100
AcDbLine
 10
352.117297
 20
185.459882
 30
0.0
 11
345.012625
 21
185.832222
 31
0.0
  0
LINE
  5
5AC
100
AcDbEntity
  8
LAY-1
  6
CONTINUOUS
 62
     7
100
AcDbLine
 10
345.012625
 20
219.942527
 30
0.0
 11
352.117297
 21
220.314867
 31
0.0
  0
LINE
  5
5AD
100
AcDbEntity
  8
LAY-1
  6
CONTINUOUS
 62
     7
100
AcDbLine
 10
335.312625
 20
218.742944
 30
0.0
 11
335.312625
 21
187.031805
 31
0.0
  0
LINE
  5
5AE
100
AcDbEntity
  8
LAY-1
  6
CONTINUOUS
 62
     7
100
AcDbLine
 10
391.012625
 20
185.887375
 30
0.0
 11
387.355743
 21
185.887375
 31
0.0
  0
LINE
  5
5AF
100
AcDbEntity
  8
LAY-1
  6
CONTINUOUS
 62
     7
100
AcDbLine
 10
391.012625
 20
219.887375
 30
0.0
 11
387.355743
 21
219.887375
 31
0.0
  0
ARC
  5
5B0
100
AcDbEntity
  8
LAY-1
  6
CONTINUOUS
 62
     7
100
AcDbCircle
 10
391.012625
 20
215.887375
 30
0.0
 40
4.0
100
AcDbArc
 50
7.461498
 51
90.0
  0
ARC
  5
5B1
100
AcDbEntity
  8
LAY-1
  6
CONTINUOUS
 62
     7
100
AcDbCircle
 10
391.012625
 20
189.887375
 30
0.0
 40
4.0
100
AcDbArc
 50
270.0
 51
352.538502
  0
LINE
  5
5B2
100
AcDbEntity
  8
LAY-1
  6
CONTINUOUS
 62
     7
100
AcDbLine
 10
409.047525
 20
215.915522
 30
0.0
 11
388.527579
 21
216.632094
 31
0.0
  0
ARC
  5
5B3
100
AcDbEntity
  8
LAY-1
  6
CONTINUOUS
 62
     7
100
AcDbCircle
 10
388.632277
 20
219.630267
 30
0.0
 40
3.0
100
AcDbArc
 50
186.963092
 51
268.0
  0
LINE
  5
5B4
100
AcDbEntity
  8
LAY-1
  6
CONTINUOUS
 62
     7
100
AcDbLine
 10
409.047525
 20
189.859227
 30
0.0
 11
388.527579
 21
189.142655
 31
0.0
  0
ARC
  5
5B5
100
AcDbEntity
  8
LAY-1
  6
CONTINUOUS
 62
     7
100
AcDbCircle
 10
388.632277
 20
186.144482
 30
0.0
 40
3.0
100
AcDbArc
 50
92.0
 51
173.036908
  0
LINE
  5
5B6
100
AcDbEntity
  8
LAY-1
  6
CONTINUOUS
 62
     7
100
AcDbLine
 10
360.512625
 20
165.887375
 30
0.0
 11
368.514046
 21
165.887375
 31
0.0
  0
LINE
  5
5B7
100
AcDbEntity
  8
LAY-1
  6
CONTINUOUS
 62
     7
100
AcDbLine
 10
360.512625
 20
239.887375
 30
0.0
 11
368.546937
 21
239.887375
 31
0.0
  0
LINE
  5
5B8
100
AcDbEntity
  8
LAY-1
  6
CONTINUOUS
 62
     7
100
AcDbLine
 10
360.012625
 20
224.110986
 30
0.0
 11
359.512625
 21
224.110986
 31
0.0
  0
ARC
  5
5B9
100
AcDbEntity
  8
LAY-1
  6
CONTINUOUS
 62
     7
100
AcDbCircle
 10
359.512625
 20
224.610986
 30
0.0
 40
0.5
100
AcDbArc
 50
180.0
 51
270.0
  0
LINE
  5
5BA
100
AcDbEntity
  8
LAY-1
  6
CONTINUOUS
 62
     7
100
AcDbLine
 10
359.012625
 20
224.610986
 30
0.0
 11
359.012625
 21
235.610986
 31
0.0
  0
LINE
  5
5BB
100
AcDbEntity
  8
LAY-1
  6
CONTINUOUS
 62
     7
100
AcDbLine
 10
360.012625
 20
236.110986
 30
0.0
 11
359.512625
 21
236.110986
 31
0.0
  0
ARC
  5
5BC
100
AcDbEntity
  8
LAY-1
  6
CONTINUOUS
 62
     7
100
AcDbCircle
 10
359.512625
 20
235.610986
 30
0.0
 40
0.5
100
AcDbArc
 50
90.0
 51
180.0
  0
LINE
  5
5BD
100
AcDbEntity
  8
LAY-1
  6
CONTINUOUS
 62
     7
100
AcDbLine
 10
360.012625
 20
181.663764
 30
0.0
 11
359.512625
 21
181.663764
 31
0.0
  0
ARC
  5
5BE
100
AcDbEntity
  8
LAY-1
  6
CONTINUOUS
 62
     7
100
AcDbCircle
 10
359.512625
 20
181.163764
 30
0.0
 40
0.5
100
AcDbArc
 50
90.0
 51
180.0
  0
LINE
  5
5BF
100
AcDbEntity
  8
LAY-1
  6
CONTINUOUS
 62
     7
100
AcDbLine
 10
359.012625
 20
181.163764
 30
0.0
 11
359.012625
 21
170.163764
 31
0.0
  0
LINE
  5
5C0
100
AcDbEntity
  8
LAY-1
  6
CONTINUOUS
 62
     7
100
AcDbLine
 10
360.012625
 20
169.663764
 30
0.0
 11
359.512625
 21
169.663764
 31
0.0
  0
ARC
  5
5C1
100
AcDbEntity
  8
LAY-1
  6
CONTINUOUS
 62
     7
100
AcDbCircle
 10
359.512625
 20
170.163764
 30
0.0
 40
0.5
100
AcDbArc
 50
180.0
 51
270.0
  0
ARC
  5
5C2
100
AcDbEntity
  8
LAY-1
  6
CONTINUOUS
 62
     7
100
AcDbCircle
 10
364.312625
 20
230.110986
 30
0.0
 40
8.0
100
AcDbArc
 50
150.0
 51
180.0
  0
ARC
  5
5C3
100
AcDbEntity
  8
LAY-1
  6
CONTINUOUS
 62
     7
100
AcDbCircle
 10
358.68346
 20
233.360986
 30
0.0
 40
1.5
100
AcDbArc
 50
90.0
 51
150.0
  0
ARC
  5
5C4
100
AcDbEntity
  8
LAY-1
  6
CONTINUOUS
 62
     7
100
AcDbCircle
 10
364.312625
 20
230.110986
 30
0.0
 40
8.0
100
AcDbArc
 50
180.0
 51
210.0
  0
ARC
  5
5C5
100
AcDbEntity
  8
LAY-1
  6
CONTINUOUS
 62
     7
100
AcDbCircle
 10
358.68346
 20
226.860986
 30
0.0
 40
1.5
100
AcDbArc
 50
210.0
 51
270.0
  0
LINE
  5
5C6
100
AcDbEntity
  8
LAY-1
  6
CONTINUOUS
 62
     7
100
AcDbLine
 10
358.68346
 20
234.860986
 30
0.0
 11
359.012625
 21
234.860986
 31
0.0
  0
LINE
  5
5C7
100
AcDbEntity
  8
LAY-1
  6
CONTINUOUS
 62
     7
100
AcDbLine
 10
358.68346
 20
225.360986
 30
0.0
 11
359.012625
 21
225.360986
 31
0.0
  0
ARC
  5
5C8
100
AcDbEntity
  8
LAY-1
  6
CONTINUOUS
 62
     7
100
AcDbCircle
 10
364.312625
 20
175.663764
 30
0.0
 40
8.0
100
AcDbArc
 50
180.0
 51
210.0
  0
ARC
  5
5C9
100
AcDbEntity
  8
LAY-1
  6
CONTINUOUS
 62
     7
100
AcDbCircle
 10
358.68346
 20
172.413764
 30
0.0
 40
1.5
100
AcDbArc
 50
210.0
 51
270.0
  0
ARC
  5
5CA
100
AcDbEntity
  8
LAY-1
  6
CONTINUOUS
 62
     7
100
AcDbCircle
 10
364.312625
 20
175.663764
 30
0.0
 40
8.0
100
AcDbArc
 50
150.0
 51
180.0
  0
ARC
  5
5CB
100
AcDbEntity
  8
LAY-1
  6
CONTINUOUS
 62
     7
100
AcDbCircle
 10
358.68346
 20
178.913764
 30
0.0
 40
1.5
100
AcDbArc
 50
90.0
 51
150.0
  0
LINE
  5
5CC
100
AcDbEntity
  8
LAY-1
  6
CONTINUOUS
 62
     7
100
AcDbLine
 10
358.68346
 20
170.913764
 30
0.0
 11
359.012625
 21
170.913764
 31
0.0
  0
LINE
  5
5CD
100
AcDbEntity
  8
LAY-1
  6
CONTINUOUS
 62
     7
100
AcDbLine
 10
358.68346
 20
180.413764
 30
0.0
 11
359.012625
 21
180.413764
 31
0.0
  0
LINE
  5
5CE
100
AcDbEntity
  8
LAY-1
  6
CONTINUOUS
 62
     7
100
AcDbLine
 10
59.187375
 20
202.0
 30
0.0
 11
59.187375
 21
214.494445
 31
0.0
  0
LINE
  5
5CF
100
AcDbEntity
  8
LAY-1
  6
CONTINUOUS
 62
     7
100
AcDbLine
 10
59.187375
 20
215.5
 30
0.0
 11
59.187375
 21
209.0
 31
0.0
  0
LINE
  5
5D0
100
AcDbEntity
  8
LAY-1
  6
CONTINUOUS
 62
     7
100
AcDbLine
 10
59.187375
 20
202.0
 30
0.0
 11
59.187375
 21
214.494445
 31
0.0
  0
LINE
  5
5D1
100
AcDbEntity
  8
LAY-1
  6
CONTINUOUS
 62
     7
100
AcDbLine
 10
59.187375
 20
202.0
 30
0.0
 11
59.187375
 21
189.0
 31
0.0
  0
LINE
  5
5D2
100
AcDbEntity
  8
LAY-1
  6
CONTINUOUS
 62
     7
100
AcDbLine
 10
59.187375
 20
202.0
 30
0.0
 11
59.187375
 21
214.494445
 31
0.0
  0
LINE
  5
5D3
100
AcDbEntity
  8
LAY-1
  6
CONTINUOUS
 62
     7
100
AcDbLine
 10
59.187375
 20
189.505555
 30
0.0
 11
59.187375
 21
194.0
 31
0.0
  0
LINE
  5
5D4
100
AcDbEntity
  8
LAY-1
  6
CONTINUOUS
 62
     7
100
AcDbLine
 10
58.785451
 20
187.0
 30
0.0
 11
51.589298
 21
187.0
 31
0.0
  0
LINE
  5
5D5
100
AcDbEntity
  8
LAY-1
  6
CONTINUOUS
 62
     7
100
AcDbLine
 10
59.187375
 20
194.7
 30
0.0
 11
59.187375
 21
188.5
 31
0.0
  0
LINE
  5
5D6
100
AcDbEntity
  8
LAY-1
  6
CONTINUOUS
 62
     7
100
AcDbLine
 10
59.187375
 20
188.5
 30
0.0
 11
58.785451
 21
187.0
 31
0.0
  0
LINE
  5
5D7
100
AcDbEntity
  8
LAY-1
  6
CONTINUOUS
 62
     7
100
AcDbLine
 10
59.187375
 20
189.505555
 30
0.0
 11
59.187375
 21
194.0
 31
0.0
  0
ARC
  5
5D8
100
AcDbEntity
  8
LAY-1
  6
CONTINUOUS
 62
     7
100
AcDbCircle
 10
51.033909
 20
188.3
 30
0.0
 40
0.2
100
AcDbArc
 50
15.0
 51
90.0
  0
LINE
  5
5D9
100
AcDbEntity
  8
LAY-1
  6
CONTINUOUS
 62
     7
100
AcDbLine
 10
32.187375
 20
190.3
 30
0.0
 11
32.487375
 21
190.0
 31
0.0
  0
LINE
  5
5DA
100
AcDbEntity
  8
LAY-1
  6
CONTINUOUS
 62
     7
100
AcDbLine
 10
50.383048
 20
184.0
 30
0.0
 11
50.883048
 21
184.5
 31
0.0
  0
LINE
  5
5DB
100
AcDbEntity
  8
LAY-1
  6
CONTINUOUS
 62
     7
100
AcDbLine
 10
32.883048
 20
187.3
 30
0.0
 11
32.883048
 21
188.45
 31
0.0
  0
LINE
  5
5DC
100
AcDbEntity
  8
LAY-1
  6
CONTINUOUS
 62
     7
100
AcDbLine
 10
33.183048
 20
187.0
 30
0.0
 11
32.883048
 21
187.3
 31
0.0
  0
ARC
  5
5DD
100
AcDbEntity
  8
LAY-1
  6
CONTINUOUS
 62
     7
100
AcDbCircle
 10
45.305698
 20
186.0
 30
0.0
 40
1.0
100
AcDbArc
 50
30.0
 51
90.0
  0
ARC
  5
5DE
100
AcDbEntity
  8
LAY-1
  6
CONTINUOUS
 62
     7
100
AcDbCircle
 10
48.192449
 20
185.0
 30
0.0
 40
1.0
100
AcDbArc
 50
210.0
 51
270.0
  0
LINE
  5
5DF
100
AcDbEntity
  8
LAY-1
  6
CONTINUOUS
 62
     7
100
AcDbLine
 10
32.883048
 20
190.0
 30
0.0
 11
32.487375
 21
190.0
 31
0.0
  0
LINE
  5
5E0
100
AcDbEntity
  8
LAY-1
  6
CONTINUOUS
 62
     7
100
AcDbLine
 10
50.883048
 20
188.5
 30
0.0
 11
51.033909
 21
188.5
 31
0.0
  0
LINE
  5
5E1
100
AcDbEntity
  8
LAY-1
  6
CONTINUOUS
 62
     7
100
AcDbLine
 10
51.227094
 20
188.351764
 30
0.0
 11
51.589298
 21
187.0
 31
0.0
  0
ARC
  5
5E2
100
AcDbEntity
  8
LAY-1
  6
CONTINUOUS
 62
     7
100
AcDbCircle
 10
45.337624
 20
190.308657
 30
0.0
 40
13.84975
100
AcDbArc
 50
0.0
 51
13.68519
  0
LINE
  5
5E3
100
AcDbEntity
  8
LAY-1
  6
CONTINUOUS
 62
     7
100
AcDbLine
 10
58.794185
 20
195.461652
 30
0.0
 11
58.794185
 21
193.577831
 31
0.0
  0
ARC
  5
5E4
100
AcDbEntity
  8
LAY-1
  6
CONTINUOUS
 62
     7
100
AcDbCircle
 10
65.037125
 20
190.308657
 30
0.0
 40
13.84975
100
AcDbArc
 50
166.346728
 51
180.0
  0
LINE
  5
5E5
100
AcDbEntity
  8
LAY-1
  6
CONTINUOUS
 62
     7
100
AcDbLine
 10
51.580565
 20
195.461652
 30
0.0
 11
51.580565
 21
193.577831
 31
0.0
  0
LINE
  5
5E6
100
AcDbEntity
  8
LAY-1
  6
CONTINUOUS
 62
     7
100
AcDbLine
 10
51.580565
 20
193.577831
 30
0.0
 11
58.794185
 21
193.577831
 31
0.0
  0
LINE
  5
5E7
100
AcDbEntity
  8
LAY-1
  6
CONTINUOUS
 62
     7
100
AcDbLine
 10
51.580565
 20
195.461652
 30
0.0
 11
58.794185
 21
195.461652
 31
0.0
  0
LINE
  5
5E8
100
AcDbEntity
  8
LAY-1
  6
CONTINUOUS
 62
     7
100
AcDbLine
 10
51.187375
 20
188.5
 30
0.0
 11
51.033909
 21
188.5
 31
0.0
  0
LINE
  5
5E9
100
AcDbEntity
  8
LAY-1
  6
CONTINUOUS
 62
     7
100
AcDbLine
 10
59.187375
 20
202.0
 30
0.0
 11
59.187375
 21
189.0
 31
0.0
  0
LINE
  5
5EA
100
AcDbEntity
  8
LAY-1
  6
CONTINUOUS
 62
     7
100
AcDbLine
 10
51.187375
 20
188.5
 30
0.0
 11
51.187375
 21
202.0
 31
0.0
  0
ARC
  5
5EB
100
AcDbEntity
  8
LAY-1
  6
CONTINUOUS
 62
     7
100
AcDbCircle
 10
105.746975
 20
202.0
 30
0.0
 40
54.5596
100
AcDbArc
 50
180.0
 51
186.88279
  0
LINE
  5
5EC
100
AcDbEntity
  8
LAY-1
  6
CONTINUOUS
 62
     7
100
AcDbLine
 10
50.883048
 20
184.5
 30
0.0
 11
50.883048
 21
202.0
 31
0.0
  0
ARC
  5
5ED
100
AcDbEntity
  8
LAY-1
  6
CONTINUOUS
 62
     7
100
AcDbCircle
 10
4.627774
 20
202.0
 30
0.0
 40
54.5596
100
AcDbArc
 50
353.11721
 51
0.0
  0
LINE
  5
5EE
100
AcDbEntity
  8
LAY-1
  6
CONTINUOUS
 62
     7
100
AcDbLine
 10
59.187375
 20
214.494445
 30
0.0
 11
59.187375
 21
210.0
 31
0.0
  0
LINE
  5
5EF
100
AcDbEntity
  8
LAY-1
  6
CONTINUOUS
 62
     7
100
AcDbLine
 10
58.785451
 20
217.0
 30
0.0
 11
51.589298
 21
217.0
 31
0.0
  0
LINE
  5
5F0
100
AcDbEntity
  8
LAY-1
  6
CONTINUOUS
 62
     7
100
AcDbLine
 10
59.187375
 20
209.3
 30
0.0
 11
59.187375
 21
215.5
 31
0.0
  0
LINE
  5
5F1
100
AcDbEntity
  8
LAY-1
  6
CONTINUOUS
 62
     7
100
AcDbLine
 10
59.187375
 20
215.5
 30
0.0
 11
58.785451
 21
217.0
 31
0.0
  0
LINE
  5
5F2
100
AcDbEntity
  8
LAY-1
  6
CONTINUOUS
 62
     7
100
AcDbLine
 10
59.187375
 20
214.494445
 30
0.0
 11
59.187375
 21
210.0
 31
0.0
  0
ARC
  5
5F3
100
AcDbEntity
  8
LAY-1
  6
CONTINUOUS
 62
     7
100
AcDbCircle
 10
51.033909
 20
215.7
 30
0.0
 40
0.2
100
AcDbArc
 50
270.0
 51
345.0
  0
LINE
  5
5F4
100
AcDbEntity
  8
LAY-1
  6
CONTINUOUS
 62
     7
100
AcDbLine
 10
32.187375
 20
213.7
 30
0.0
 11
32.487375
 21
214.0
 31
0.0
  0
LINE
  5
5F5
100
AcDbEntity
  8
LAY-1
  6
CONTINUOUS
 62
     7
100
AcDbLine
 10
50.383048
 20
220.0
 30
0.0
 11
48.192449
 21
220.0
 31
0.0
  0
LINE
  5
5F6
100
AcDbEntity
  8
LAY-1
  6
CONTINUOUS
 62
     7
100
AcDbLine
 10
50.383048
 20
220.0
 30
0.0
 11
50.883048
 21
219.5
 31
0.0
  0
LINE
  5
5F7
100
AcDbEntity
  8
LAY-1
  6
CONTINUOUS
 62
     7
100
AcDbLine
 10
32.883048
 20
216.7
 30
0.0
 11
32.883048
 21
215.55
 31
0.0
  0
LINE
  5
5F8
100
AcDbEntity
  8
LAY-1
  6
CONTINUOUS
 62
     7
100
AcDbLine
 10
33.183048
 20
217.0
 30
0.0
 11
32.883048
 21
216.7
 31
0.0
  0
LINE
  5
5F9
100
AcDbEntity
  8
LAY-1
  6
CONTINUOUS
 62
     7
100
AcDbLine
 10
33.183048
 20
217.0
 30
0.0
 11
45.305698
 21
217.0
 31
0.0
  0
LINE
  5
5FA
100
AcDbEntity
  8
LAY-1
  6
CONTINUOUS
 62
     7
100
AcDbLine
 10
47.326424
 20
219.5
 30
0.0
 11
46.171723
 21
217.5
 31
0.0
  0
ARC
  5
5FB
100
AcDbEntity
  8
LAY-1
  6
CONTINUOUS
 62
     7
100
AcDbCircle
 10
45.305698
 20
218.0
 30
0.0
 40
1.0
100
AcDbArc
 50
270.0
 51
330.0
  0
ARC
  5
5FC
100
AcDbEntity
  8
LAY-1
  6
CONTINUOUS
 62
     7
100
AcDbCircle
 10
48.192449
 20
219.0
 30
0.0
 40
1.0
100
AcDbArc
 50
90.0
 51
150.0
  0
LINE
  5
5FD
100
AcDbEntity
  8
LAY-1
  6
CONTINUOUS
 62
     7
100
AcDbLine
 10
32.883048
 20
214.0
 30
0.0
 11
32.487375
 21
214.0
 31
0.0
  0
LINE
  5
5FE
100
AcDbEntity
  8
LAY-1
  6
CONTINUOUS
 62
     7
100
AcDbLine
 10
50.883048
 20
215.5
 30
0.0
 11
51.033909
 21
215.5
 31
0.0
  0
LINE
  5
5FF
100
AcDbEntity
  8
LAY-1
  6
CONTINUOUS
 62
     7
100
AcDbLine
 10
51.227094
 20
215.648236
 30
0.0
 11
51.589298
 21
217.0
 31
0.0
  0
ARC
  5
600
100
AcDbEntity
  8
LAY-1
  6
CONTINUOUS
 62
     7
100
AcDbCircle
 10
45.337624
 20
213.691343
 30
0.0
 40
13.84975
100
AcDbArc
 50
346.31481
 51
0.0
  0
LINE
  5
601
100
AcDbEntity
  8
LAY-1
  6
CONTINUOUS
 62
     7
100
AcDbLine
 10
58.794185
 20
208.538348
 30
0.0
 11
58.794185
 21
210.422169
 31
0.0
  0
ARC
  5
602
100
AcDbEntity
  8
LAY-1
  6
CONTINUOUS
 62
     7
100
AcDbCircle
 10
65.037125
 20
213.691343
 30
0.0
 40
13.84975
100
AcDbArc
 50
180.0
 51
193.653272
  0
LINE
  5
603
100
AcDbEntity
  8
LAY-1
  6
CONTINUOUS
 62
     7
100
AcDbLine
 10
51.580565
 20
208.538348
 30
0.0
 11
51.580565
 21
210.422169
 31
0.0
  0
LINE
  5
604
100
AcDbEntity
  8
LAY-1
  6
CONTINUOUS
 62
     7
100
AcDbLine
 10
51.580565
 20
210.422169
 30
0.0
 11
58.794185
 21
210.422169
 31
0.0
  0
LINE
  5
605
100
AcDbEntity
  8
LAY-1
  6
CONTINUOUS
 62
     7
100
AcDbLine
 10
51.580565
 20
208.538348
 30
0.0
 11
58.794185
 21
208.538348
 31
0.0
  0
LINE
  5
606
100
AcDbEntity
  8
LAY-1
  6
CONTINUOUS
 62
     7
100
AcDbLine
 10
51.187375
 20
215.5
 30
0.0
 11
51.033909
 21
215.5
 31
0.0
  0
LINE
  5
607
100
AcDbEntity
  8
LAY-1
  6
CONTINUOUS
 62
     7
100
AcDbLine
 10
51.187375
 20
215.5
 30
0.0
 11
51.187375
 21
202.0
 31
0.0
  0
ARC
  5
608
100
AcDbEntity
  8
LAY-1
  6
CONTINUOUS
 62
     7
100
AcDbCircle
 10
105.746975
 20
202.0
 30
0.0
 40
54.5596
100
AcDbArc
 50
173.11721
 51
180.0
  0
LINE
  5
609
100
AcDbEntity
  8
LAY-1
  6
CONTINUOUS
 62
     7
100
AcDbLine
 10
50.883048
 20
219.5
 30
0.0
 11
50.883048
 21
202.0
 31
0.0
  0
ARC
  5
60A
100
AcDbEntity
  8
LAY-1
  6
CONTINUOUS
 62
     7
100
AcDbCircle
 10
4.627774
 20
202.0
 30
0.0
 40
54.5596
100
AcDbArc
 50
0.0
 51
6.88279
  0
LINE
  5
60B
100
AcDbEntity
  8
LAY-1
  6
CONTINUOUS
 62
     7
100
AcDbLine
 10
33.183048
 20
187.0
 30
0.0
 11
45.305698
 21
187.0
 31
0.0
  0
LINE
  5
60C
100
AcDbEntity
  8
LAY-1
  6
CONTINUOUS
 62
     7
100
AcDbLine
 10
50.383048
 20
184.0
 30
0.0
 11
48.192449
 21
184.0
 31
0.0
  0
LINE
  5
60D
100
AcDbEntity
  8
LAY-1
  6
CONTINUOUS
 62
     7
100
AcDbLine
 10
47.326424
 20
184.5
 30
0.0
 11
46.171723
 21
186.5
 31
0.0
  0
LINE
  5
60E
100
AcDbEntity
  8
LAY-1
  6
CONTINUOUS
 62
     7
100
AcDbLine
 10
47.615099
 20
185.165192
 30
0.0
 11
47.615099
 21
202.0
 31
0.0
  0
LINE
  5
60F
100
AcDbEntity
  8
LAY-1
  6
CONTINUOUS
 62
     7
100
AcDbLine
 10
45.883048
 20
187.535192
 30
0.0
 11
45.883048
 21
202.0
 31
0.0
  0
LINE
  5
610
100
AcDbEntity
  8
LAY-1
  6
CONTINUOUS
 62
     7
100
AcDbLine
 10
45.883048
 20
216.464808
 30
0.0
 11
45.883048
 21
202.0
 31
0.0
  0
LINE
  5
611
100
AcDbEntity
  8
LAY-1
  6
CONTINUOUS
 62
     7
100
AcDbLine
 10
47.615099
 20
218.834808
 30
0.0
 11
47.615099
 21
202.0
 31
0.0
  0
LINE
  5
612
100
AcDbEntity
  8
LAY-1
  6
CONTINUOUS
 62
     7
100
AcDbLine
 10
32.883048
 20
202.0
 30
0.0
 11
32.883048
 21
187.3
 31
0.0
  0
LINE
  5
613
100
AcDbEntity
  8
LAY-1
  6
CONTINUOUS
 62
     7
100
AcDbLine
 10
32.487375
 20
190.0
 30
0.0
 11
32.487375
 21
202.0
 31
0.0
  0
LINE
  5
614
100
AcDbEntity
  8
LAY-1
  6
CONTINUOUS
 62
     7
100
AcDbLine
 10
32.187375
 20
190.3
 30
0.0
 11
32.187375
 21
202.0
 31
0.0
  0
LINE
  5
615
100
AcDbEntity
  8
LAY-1
  6
CONTINUOUS
 62
     7
100
AcDbLine
 10
32.883048
 20
202.0
 30
0.0
 11
32.883048
 21
216.7
 31
0.0
  0
LINE
  5
616
100
AcDbEntity
  8
LAY-1
  6
CONTINUOUS
 62
     7
100
AcDbLine
 10
32.487375
 20
214.0
 30
0.0
 11
32.487375
 21
202.0
 31
0.0
  0
LINE
  5
617
100
AcDbEntity
  8
LAY-1
  6
CONTINUOUS
 62
     7
100
AcDbLine
 10
32.187375
 20
213.7
 30
0.0
 11
32.187375
 21
202.0
 31
0.0
  0
LINE
  5
618
100
AcDbEntity
  8
LAY-1
  6
CONTINUOUS
 62
     7
100
AcDbLine
 10
30.687375
 20
198.5
 30
0.0
 11
30.687375
 21
202.0
 31
0.0
  0
LINE
  5
619
100
AcDbEntity
  8
LAY-1
  6
CONTINUOUS
 62
     7
100
AcDbLine
 10
30.687375
 20
205.5
 30
0.0
 11
30.687375
 21
202.0
 31
0.0
  0
LINE
  5
61A
100
AcDbEntity
  8
LAY-1
  6
CONTINUOUS
 62
     7
100
AcDbLine
 10
30.687375
 20
198.5
 30
0.0
 11
32.187375
 21
197.633975
 31
0.0
  0
LINE
  5
61B
100
AcDbEntity
  8
LAY-1
  6
CONTINUOUS
 62
     7
100
AcDbLine
 10
30.687375
 20
200.839181
 30
0.0
 11
32.187375
 21
200.839181
 31
0.0
  0
LINE
  5
61C
100
AcDbEntity
  8
LAY-1
  6
CONTINUOUS
 62
     7
100
AcDbLine
 10
30.687375
 20
203.160819
 30
0.0
 11
32.187375
 21
203.160819
 31
0.0
  0
LINE
  5
61D
100
AcDbEntity
  8
LAY-1
  6
CONTINUOUS
 62
     7
100
AcDbLine
 10
30.687375
 20
205.5
 30
0.0
 11
32.187375
 21
206.366025
 31
0.0
  0
LINE
  5
61E
100
AcDbEntity
  8
LAY-1
  6
CONTINUOUS
 62
     7
100
AcDbLine
 10
410.012625
 20
202.887375
 30
0.0
 11
410.012625
 21
190.392929
 31
0.0
  0
LINE
  5
61F
100
AcDbEntity
  8
LAY-1
  6
CONTINUOUS
 62
     7
100
AcDbLine
 10
410.012625
 20
189.387375
 30
0.0
 11
410.012625
 21
195.887375
 31
0.0
  0
LINE
  5
620
100
AcDbEntity
  8
LAY-1
  6
CONTINUOUS
 62
     7
100
AcDbLine
 10
410.012625
 20
202.887375
 30
0.0
 11
410.012625
 21
190.392929
 31
0.0
  0
LINE
  5
621
100
AcDbEntity
  8
LAY-1
  6
CONTINUOUS
 62
     7
100
AcDbLine
 10
410.012625
 20
202.887375
 30
0.0
 11
410.012625
 21
215.887375
 31
0.0
  0
LINE
  5
622
100
AcDbEntity
  8
LAY-1
  6
CONTINUOUS
 62
     7
100
AcDbLine
 10
410.012625
 20
202.887375
 30
0.0
 11
410.012625
 21
190.392929
 31
0.0
  0
LINE
  5
623
100
AcDbEntity
  8
LAY-1
  6
CONTINUOUS
 62
     7
100
AcDbLine
 10
410.012625
 20
215.38182
 30
0.0
 11
410.012625
 21
210.887375
 31
0.0
  0
LINE
  5
624
100
AcDbEntity
  8
LAY-1
  6
CONTINUOUS
 62
     7
100
AcDbLine
 10
410.414549
 20
217.887375
 30
0.0
 11
417.610702
 21
217.887375
 31
0.0
  0
LINE
  5
625
100
AcDbEntity
  8
LAY-1
  6
CONTINUOUS
 62
     7
100
AcDbLine
 10
410.012625
 20
210.187375
 30
0.0
 11
410.012625
 21
216.387375
 31
0.0
  0
LINE
  5
626
100
AcDbEntity
  8
LAY-1
  6
CONTINUOUS
 62
     7
100
AcDbLine
 10
410.012625
 20
216.387375
 30
0.0
 11
410.414549
 21
217.887375
 31
0.0
  0
LINE
  5
627
100
AcDbEntity
  8
LAY-1
  6
CONTINUOUS
 62
     7
100
AcDbLine
 10
410.012625
 20
215.38182
 30
0.0
 11
410.012625
 21
210.887375
 31
0.0
  0
ARC
  5
628
100
AcDbEntity
  8
LAY-1
  6
CONTINUOUS
 62
     7
100
AcDbCircle
 10
418.166091
 20
216.587375
 30
0.0
 40
0.2
100
AcDbArc
 50
195.0
 51
270.0
  0
LINE
  5
629
100
AcDbEntity
  8
LAY-1
  6
CONTINUOUS
 62
     7
100
AcDbLine
 10
437.012625
 20
214.587375
 30
0.0
 11
436.712625
 21
214.887375
 31
0.0
  0
LINE
  5
62A
100
AcDbEntity
  8
LAY-1
  6
CONTINUOUS
 62
     7
100
AcDbLine
 10
418.816952
 20
220.887375
 30
0.0
 11
418.316952
 21
220.387375
 31
0.0
  0
LINE
  5
62B
100
AcDbEntity
  8
LAY-1
  6
CONTINUOUS
 62
     7
100
AcDbLine
 10
436.316952
 20
217.587375
 30
0.0
 11
436.316952
 21
216.437375
 31
0.0
  0
LINE
  5
62C
100
AcDbEntity
  8
LAY-1
  6
CONTINUOUS
 62
     7
100
AcDbLine
 10
436.016952
 20
217.887375
 30
0.0
 11
436.316952
 21
217.587375
 31
0.0
  0
ARC
  5
62D
100
AcDbEntity
  8
LAY-1
  6
CONTINUOUS
 62
     7
100
AcDbCircle
 10
423.894302
 20
218.887375
 30
0.0
 40
1.0
100
AcDbArc
 50
210.0
 51
270.0
  0
ARC
  5
62E
100
AcDbEntity
  8
LAY-1
  6
CONTINUOUS
 62
     7
100
AcDbCircle
 10
421.007551
 20
219.887375
 30
0.0
 40
1.0
100
AcDbArc
 50
30.0
 51
90.0
  0
LINE
  5
62F
100
AcDbEntity
  8
LAY-1
  6
CONTINUOUS
 62
     7
100
AcDbLine
 10
436.316952
 20
214.887375
 30
0.0
 11
436.712625
 21
214.887375
 31
0.0
  0
LINE
  5
630
100
AcDbEntity
  8
LAY-1
  6
CONTINUOUS
 62
     7
100
AcDbLine
 10
418.316952
 20
216.387375
 30
0.0
 11
418.166091
 21
216.387375
 31
0.0
  0
LINE
  5
631
100
AcDbEntity
  8
LAY-1
  6
CONTINUOUS
 62
     7
100
AcDbLine
 10
417.972906
 20
216.535611
 30
0.0
 11
417.610702
 21
217.887375
 31
0.0
  0
ARC
  5
632
100
AcDbEntity
  8
LAY-1
  6
CONTINUOUS
 62
     7
100
AcDbCircle
 10
423.862376
 20
214.578718
 30
0.0
 40
13.84975
100
AcDbArc
 50
180.0
 51
193.68519
  0
LINE
  5
633
100
AcDbEntity
  8
LAY-1
  6
CONTINUOUS
 62
     7
100
AcDbLine
 10
410.405815
 20
209.425723
 30
0.0
 11
410.405815
 21
211.309543
 31
0.0
  0
ARC
  5
634
100
AcDbEntity
  8
LAY-1
  6
CONTINUOUS
 62
     7
100
AcDbCircle
 10
404.162875
 20
214.578718
 30
0.0
 40
13.84975
100
AcDbArc
 50
346.346728
 51
0.0
  0
LINE
  5
635
100
AcDbEntity
  8
LAY-1
  6
CONTINUOUS
 62
     7
100
AcDbLine
 10
417.619435
 20
209.425723
 30
0.0
 11
417.619435
 21
211.309543
 31
0.0
  0
LINE
  5
636
100
AcDbEntity
  8
LAY-1
  6
CONTINUOUS
 62
     7
100
AcDbLine
 10
417.619435
 20
211.309543
 30
0.0
 11
410.405815
 21
211.309543
 31
0.0
  0
LINE
  5
637
100
AcDbEntity
  8
LAY-1
  6
CONTINUOUS
 62
     7
100
AcDbLine
 10
417.619435
 20
209.425723
 30
0.0
 11
410.405815
 21
209.425723
 31
0.0
  0
LINE
  5
638
100
AcDbEntity
  8
LAY-1
  6
CONTINUOUS
 62
     7
100
AcDbLine
 10
418.012625
 20
216.387375
 30
0.0
 11
418.166091
 21
216.387375
 31
0.0
  0
LINE
  5
639
100
AcDbEntity
  8
LAY-1
  6
CONTINUOUS
 62
     7
100
AcDbLine
 10
410.012625
 20
202.887375
 30
0.0
 11
410.012625
 21
215.887375
 31
0.0
  0
LINE
  5
63A
100
AcDbEntity
  8
LAY-1
  6
CONTINUOUS
 62
     7
100
AcDbLine
 10
418.012625
 20
216.387375
 30
0.0
 11
418.012625
 21
202.887375
 31
0.0
  0
ARC
  5
63B
100
AcDbEntity
  8
LAY-1
  6
CONTINUOUS
 62
     7
100
AcDbCircle
 10
363.453025
 20
202.887375
 30
0.0
 40
54.5596
100
AcDbArc
 50
0.0
 51
6.88279
  0
LINE
  5
63C
100
AcDbEntity
  8
LAY-1
  6
CONTINUOUS
 62
     7
100
AcDbLine
 10
418.316952
 20
220.387375
 30
0.0
 11
418.316952
 21
202.887375
 31
0.0
  0
ARC
  5
63D
100
AcDbEntity
  8
LAY-1
  6
CONTINUOUS
 62
     7
100
AcDbCircle
 10
464.572226
 20
202.887375
 30
0.0
 40
54.5596
100
AcDbArc
 50
173.11721
 51
180.0
  0
LINE
  5
63E
100
AcDbEntity
  8
LAY-1
  6
CONTINUOUS
 62
     7
100
AcDbLine
 10
410.012625
 20
190.392929
 30
0.0
 11
410.012625
 21
194.887375
 31
0.0
  0
LINE
  5
63F
100
AcDbEntity
  8
LAY-1
  6
CONTINUOUS
 62
     7
100
AcDbLine
 10
410.414549
 20
187.887375
 30
0.0
 11
417.610702
 21
187.887375
 31
0.0
  0
LINE
  5
640
100
AcDbEntity
  8
LAY-1
  6
CONTINUOUS
 62
     7
100
AcDbLine
 10
410.012625
 20
195.587375
 30
0.0
 11
410.012625
 21
189.387375
 31
0.0
  0
LINE
  5
641
100
AcDbEntity
  8
LAY-1
  6
CONTINUOUS
 62
     7
100
AcDbLine
 10
410.012625
 20
189.387375
 30
0.0
 11
410.414549
 21
187.887375
 31
0.0
  0
LINE
  5
642
100
AcDbEntity
  8
LAY-1
  6
CONTINUOUS
 62
     7
100
AcDbLine
 10
410.012625
 20
190.392929
 30
0.0
 11
410.012625
 21
194.887375
 31
0.0
  0
ARC
  5
643
100
AcDbEntity
  8
LAY-1
  6
CONTINUOUS
 62
     7
100
AcDbCircle
 10
418.166091
 20
189.187375
 30
0.0
 40
0.2
100
AcDbArc
 50
90.0
 51
165.0
  0
LINE
  5
644
100
AcDbEntity
  8
LAY-1
  6
CONTINUOUS
 62
     7
100
AcDbLine
 10
437.012625
 20
191.187375
 30
0.0
 11
436.712625
 21
190.887375
 31
0.0
  0
LINE
  5
645
100
AcDbEntity
  8
LAY-1
  6
CONTINUOUS
 62
     7
100
AcDbLine
 10
418.816952
 20
184.887375
 30
0.0
 11
421.007551
 21
184.887375
 31
0.0
  0
LINE
  5
646
100
AcDbEntity
  8
LAY-1
  6
CONTINUOUS
 62
     7
100
AcDbLine
 10
418.816952
 20
184.887375
 30
0.0
 11
418.316952
 21
185.387375
 31
0.0
  0
LINE
  5
647
100
AcDbEntity
  8
LAY-1
  6
CONTINUOUS
 62
     7
100
AcDbLine
 10
436.316952
 20
188.187375
 30
0.0
 11
436.316952
 21
189.337375
 31
0.0
  0
LINE
  5
648
100
AcDbEntity
  8
LAY-1
  6
CONTINUOUS
 62
     7
100
AcDbLine
 10
436.016952
 20
187.887375
 30
0.0
 11
436.316952
 21
188.187375
 31
0.0
  0
LINE
  5
649
100
AcDbEntity
  8
LAY-1
  6
CONTINUOUS
 62
     7
100
AcDbLine
 10
436.016952
 20
187.887375
 30
0.0
 11
423.894302
 21
187.887375
 31
0.0
  0
LINE
  5
64A
100
AcDbEntity
  8
LAY-1
  6
CONTINUOUS
 62
     7
100
AcDbLine
 10
421.873576
 20
185.387375
 30
0.0
 11
423.028277
 21
187.387375
 31
0.0
  0
ARC
  5
64B
100
AcDbEntity
  8
LAY-1
  6
CONTINUOUS
 62
     7
100
AcDbCircle
 10
423.894302
 20
186.887375
 30
0.0
 40
1.0
100
AcDbArc
 50
90.0
 51
150.0
  0
ARC
  5
64C
100
AcDbEntity
  8
LAY-1
  6
CONTINUOUS
 62
     7
100
AcDbCircle
 10
421.007551
 20
185.887375
 30
0.0
 40
1.0
100
AcDbArc
 50
270.0
 51
330.0
  0
LINE
  5
64D
100
AcDbEntity
  8
LAY-1
  6
CONTINUOUS
 62
     7
100
AcDbLine
 10
436.316952
 20
190.887375
 30
0.0
 11
436.712625
 21
190.887375
 31
0.0
  0
LINE
  5
64E
100
AcDbEntity
  8
LAY-1
  6
CONTINUOUS
 62
     7
100
AcDbLine
 10
418.316952
 20
189.387375
 30
0.0
 11
418.166091
 21
189.387375
 31
0.0
  0
LINE
  5
64F
100
AcDbEntity
  8
LAY-1
  6
CONTINUOUS
 62
     7
100
AcDbLine
 10
417.972906
 20
189.239139
 30
0.0
 11
417.610702
 21
187.887375
 31
0.0
  0
ARC
  5
650
100
AcDbEntity
  8
LAY-1
  6
CONTINUOUS
 62
     7
100
AcDbCircle
 10
423.862376
 20
191.196032
 30
0.0
 40
13.84975
100
AcDbArc
 50
166.31481
 51
180.0
  0
LINE
  5
651
100
AcDbEntity
  8
LAY-1
  6
CONTINUOUS
 62
     7
100
AcDbLine
 10
410.405815
 20
196.349026
 30
0.0
 11
410.405815
 21
194.465206
 31
0.0
  0
ARC
  5
652
100
AcDbEntity
  8
LAY-1
  6
CONTINUOUS
 62
     7
100
AcDbCircle
 10
404.162875
 20
191.196032
 30
0.0
 40
13.84975
100
AcDbArc
 50
0.0
 51
13.653272
  0
LINE
  5
653
100
AcDbEntity
  8
LAY-1
  6
CONTINUOUS
 62
     7
100
AcDbLine
 10
417.619435
 20
196.349026
 30
0.0
 11
417.619435
 21
194.465206
 31
0.0
  0
LINE
  5
654
100
AcDbEntity
  8
LAY-1
  6
CONTINUOUS
 62
     7
100
AcDbLine
 10
417.619435
 20
194.465206
 30
0.0
 11
410.405815
 21
194.465206
 31
0.0
  0
LINE
  5
655
100
AcDbEntity
  8
LAY-1
  6
CONTINUOUS
 62
     7
100
AcDbLine
 10
417.619435
 20
196.349026
 30
0.0
 11
410.405815
 21
196.349026
 31
0.0
  0
LINE
  5
656
100
AcDbEntity
  8
LAY-1
  6
CONTINUOUS
 62
     7
100
AcDbLine
 10
418.012625
 20
189.387375
 30
0.0
 11
418.166091
 21
189.387375
 31
0.0
  0
LINE
  5
657
100
AcDbEntity
  8
LAY-1
  6
CONTINUOUS
 62
     7
100
AcDbLine
 10
418.012625
 20
189.387375
 30
0.0
 11
418.012625
 21
202.887375
 31
0.0
  0
ARC
  5
658
100
AcDbEntity
  8
LAY-1
  6
CONTINUOUS
 62
     7
100
AcDbCircle
 10
363.453025
 20
202.887375
 30
0.0
 40
54.5596
100
AcDbArc
 50
353.11721
 51
0.0
  0
LINE
  5
659
100
AcDbEntity
  8
LAY-1
  6
CONTINUOUS
 62
     7
100
AcDbLine
 10
418.316952
 20
185.387375
 30
0.0
 11
418.316952
 21
202.887375
 31
0.0
  0
ARC
  5
65A
100
AcDbEntity
  8
LAY-1
  6
CONTINUOUS
 62
     7
100
AcDbCircle
 10
464.572226
 20
202.887375
 30
0.0
 40
54.5596
100
AcDbArc
 50
180.0
 51
186.88279
  0
LINE
  5
65B
100
AcDbEntity
  8
LAY-1
  6
CONTINUOUS
 62
     7
100
AcDbLine
 10
436.016952
 20
217.887375
 30
0.0
 11
423.894302
 21
217.887375
 31
0.0
  0
LINE
  5
65C
100
AcDbEntity
  8
LAY-1
  6
CONTINUOUS
 62
     7
100
AcDbLine
 10
418.816952
 20
220.887375
 30
0.0
 11
421.007551
 21
220.887375
 31
0.0
  0
LINE
  5
65D
100
AcDbEntity
  8
LAY-1
  6
CONTINUOUS
 62
     7
100
AcDbLine
 10
421.873576
 20
220.387375
 30
0.0
 11
423.028277
 21
218.387375
 31
0.0
  0
LINE
  5
65E
100
AcDbEntity
  8
LAY-1
  6
CONTINUOUS
 62
     7
100
AcDbLine
 10
421.584901
 20
219.722182
 30
0.0
 11
421.584901
 21
202.887375
 31
0.0
  0
LINE
  5
65F
100
AcDbEntity
  8
LAY-1
  6
CONTINUOUS
 62
     7
100
AcDbLine
 10
423.316952
 20
217.352182
 30
0.0
 11
423.316952
 21
202.887375
 31
0.0
  0
LINE
  5
660
100
AcDbEntity
  8
LAY-1
  6
CONTINUOUS
 62
     7
100
AcDbLine
 10
423.316952
 20
188.422567
 30
0.0
 11
423.316952
 21
202.887375
 31
0.0
  0
LINE
  5
661
100
AcDbEntity
  8
LAY-1
  6
CONTINUOUS
 62
     7
100
AcDbLine
 10
421.584901
 20
186.052567
 30
0.0
 11
421.584901
 21
202.887375
 31
0.0
  0
LINE
  5
662
100
AcDbEntity
  8
LAY-1
  6
CONTINUOUS
 62
     7
100
AcDbLine
 10
436.316952
 20
202.887375
 30
0.0
 11
436.316952
 21
217.587375
 31
0.0
  0
LINE
  5
663
100
AcDbEntity
  8
LAY-1
  6
CONTINUOUS
 62
     7
100
AcDbLine
 10
436.712625
 20
214.887375
 30
0.0
 11
436.712625
 21
202.887375
 31
0.0
  0
LINE
  5
664
100
AcDbEntity
  8
LAY-1
  6
CONTINUOUS
 62
     7
100
AcDbLine
 10
437.012625
 20
214.587375
 30
0.0
 11
437.012625
 21
202.887375
 31
0.0
  0
LINE
  5
665
100
AcDbEntity
  8
LAY-1
  6
CONTINUOUS
 62
     7
100
AcDbLine
 10
436.316952
 20
202.887375
 30
0.0
 11
436.316952
 21
188.187375
 31
0.0
  0
LINE
  5
666
100
AcDbEntity
  8
LAY-1
  6
CONTINUOUS
 62
     7
100
AcDbLine
 10
436.712625
 20
190.887375
 30
0.0
 11
436.712625
 21
202.887375
 31
0.0
  0
LINE
  5
667
100
AcDbEntity
  8
LAY-1
  6
CONTINUOUS
 62
     7
100
AcDbLine
 10
437.012625
 20
191.187375
 30
0.0
 11
437.012625
 21
202.887375
 31
0.0
  0
LINE
  5
668
100
AcDbEntity
  8
LAY-1
  6
CONTINUOUS
 62
     7
100
AcDbLine
 10
438.512625
 20
206.387375
 30
0.0
 11
438.512625
 21
202.887375
 31
0.0
  0
LINE
  5
669
100
AcDbEntity
  8
LAY-1
  6
CONTINUOUS
 62
     7
100
AcDbLine
 10
438.512625
 20
199.387375
 30
0.0
 11
438.512625
 21
202.887375
 31
0.0
  0
LINE
  5
66A
100
AcDbEntity
  8
LAY-1
  6
CONTINUOUS
 62
     7
100
AcDbLine
 10
438.512625
 20
206.387375
 30
0.0
 11
437.012625
 21
207.2534
 31
0.0
  0
LINE
  5
66B
100
AcDbEntity
  8
LAY-1
  6
CONTINUOUS
 62
     7
100
AcDbLine
 10
438.512625
 20
204.048193
 30
0.0
 11
437.012625
 21
204.048193
 31
0.0
  0
LINE
  5
66C
100
AcDbEntity
  8
LAY-1
  6
CONTINUOUS
 62
     7
100
AcDbLine
 10
438.512625
 20
201.726556
 30
0.0
 11
437.012625
 21
201.726556
 31
0.0
  0
LINE
  5
66D
100
AcDbEntity
  8
LAY-1
  6
CONTINUOUS
 62
     7
100
AcDbLine
 10
438.512625
 20
199.387375
 30
0.0
 11
437.012625
 21
198.521349
 31
0.0
  0
TEXT
  5
66E
100
AcDbEntity
  8
LAY-1
  6
CONTINUOUS
 62
     3
100
AcDbText
 10
348.780888
 20
78.831064
 30
0.0
 40
5.656854
  1
ＳＨＴ－１Ｂ
 41
0.84
  7
EXCADSTD
 72
     5
 11
382.722013
 21
78.831064
 31
0.0
100
AcDbText
  0
ENDSEC
  0
SECTION
  2
OBJECTS
  0
DICTIONARY
  5
19
100
AcDbDictionary
  3
ACAD_GROUP
350
1A
  3
ACAD_MLINESTYLE
350
1B
  0
DICTIONARY
  5
1A
102
{ACAD_REACTORS
330
19
102
}
100
AcDbDictionary
  0
DICTIONARY
  5
1B
102
{ACAD_REACTORS
330
19
102
}
100
AcDbDictionary
  3
STANDARD
350
1C
  0
MLINESTYLE
  5
1C
102
{ACAD_REACTORS
330
1B
102
}
100
AcDbMlineStyle
  2
Standard
 70
     0
  3

 62
     0
 51
90.0
 52
90.0
 71
     2
 49
0.5
 62
   256
  6
ByLayer
 49
-0.5
 62
   256
  6
ByLayer
  0
ENDSEC
  0
EOF
