  0
SECTION
  2
HEADER
  9
$ACADVER
  1
AC1014
  9
$ACADMAINTVER
 70
     0
  9
$DWGCODEPAGE
  3
ANSI_932
  9
$INSBASE
 10
0.0
 20
0.0
 30
0.0
  9
$EXTMIN
 10
168.0
 20
11.782538
 30
0.0
  9
$EXTMAX
 10
1848.4
 20
1506.632244
 30
0.0
  9
$LIMMIN
 10
0.0
 20
0.0
  9
$LIMMAX
 10
420.0
 20
297.0
  9
$ORTHOMODE
 70
     0
  9
$REGENMODE
 70
     1
  9
$FILLMODE
 70
     1
  9
$QTEXTMODE
 70
     0
  9
$MIRRTEXT
 70
     1
  9
$DRAGMODE
 70
     2
  9
$LTSCALE
 40
1.0
  9
$OSMODE
 70
     0
  9
$ATTMODE
 70
     1
  9
$TEXTSIZE
 40
0.2
  9
$TRACEWID
 40
0.05
  9
$TEXTSTYLE
  7
STANDARD
  9
$CLAYER
  8
LAY-1
  9
$CELTYPE
  6
CONTINUOUS
  9
$CECOLOR
 62
   256
  9
$CELTSCALE
 40
1.0
  9
$DELOBJ
 70
     1
  9
$DISPSILH
 70
     0
  9
$DIMSCALE
 40
1.0
  9
$DIMASZ
 40
0.18
  9
$DIMEXO
 40
0.0625
  9
$DIMDLI
 40
0.38
  9
$DIMRND
 40
0.0
  9
$DIMDLE
 40
0.0
  9
$DIMEXE
 40
0.18
  9
$DIMTP
 40
0.0
  9
$DIMTM
 40
0.0
  9
$DIMTXT
 40
0.18
  9
$DIMCEN
 40
0.09
  9
$DIMTSZ
 40
0.0
  9
$DIMTOL
 70
     0
  9
$DIMLIM
 70
     0
  9
$DIMTIH
 70
     1
  9
$DIMTOH
 70
     1
  9
$DIMSE1
 70
     0
  9
$DIMSE2
 70
     0
  9
$DIMTAD
 70
     0
  9
$DIMZIN
 70
     0
  9
$DIMBLK
  1

  9
$DIMASO
 70
     1
  9
$DIMSHO
 70
     1
  9
$DIMPOST
  1

  9
$DIMAPOST
  1

  9
$DIMALT
 70
     0
  9
$DIMALTD
 70
     2
  9
$DIMALTF
 40
25.4
  9
$DIMLFAC
 40
1.0
  9
$DIMTOFL
 70
     0
  9
$DIMTVP
 40
0.0
  9
$DIMTIX
 70
     0
  9
$DIMSOXD
 70
     0
  9
$DIMSAH
 70
     0
  9
$DIMBLK1
  1

  9
$DIMBLK2
  1

  9
$DIMSTYLE
  2
STANDARD
  9
$DIMCLRD
 70
     0
  9
$DIMCLRE
 70
     0
  9
$DIMCLRT
 70
     0
  9
$DIMTFAC
 40
1.0
  9
$DIMGAP
 40
0.09
  9
$DIMJUST
 70
     0
  9
$DIMSD1
 70
     0
  9
$DIMSD2
 70
     0
  9
$DIMTOLJ
 70
     1
  9
$DIMTZIN
 70
     0
  9
$DIMALTZ
 70
     0
  9
$DIMALTTZ
 70
     0
  9
$DIMFIT
 70
     3
  9
$DIMUPT
 70
     0
  9
$DIMUNIT
 70
     2
  9
$DIMDEC
 70
     4
  9
$DIMTDEC
 70
     4
  9
$DIMALTU
 70
     2
  9
$DIMALTTD
 70
     2
  9
$DIMTXSTY
  7
STANDARD
  9
$DIMAUNIT
 70
     0
  9
$LUNITS
 70
     2
  9
$LUPREC
 70
     4
  9
$SKETCHINC
 40
0.1
  9
$FILLETRAD
 40
0.0
  9
$AUNITS
 70
     0
  9
$AUPREC
 70
     0
  9
$MENU
  1
acad
  9
$ELEVATION
 40
0.0
  9
$PELEVATION
 40
0.0
  9
$THICKNESS
 40
0.0
  9
$LIMCHECK
 70
     0
  9
$BLIPMODE
 70
     1
  9
$CHAMFERA
 40
0.0
  9
$CHAMFERB
 40
0.0
  9
$CHAMFERC
 40
0.0
  9
$CHAMFERD
 40
0.0
  9
$SKPOLY
 70
     0
  9
$TDCREATE
 40
2456797.144865185
  9
$TDUPDATE
 40
2456797.144865185
  9
$TDINDWG
 40
0.0000000000
  9
$TDUSRTIMER
 40
0.0000000000
  9
$USRTIMER
 70
     1
  9
$ANGBASE
 50
0.0
  9
$ANGDIR
 70
     0
  9
$PDMODE
 70
     0
  9
$PDSIZE
 40
0.0
  9
$PLINEWID
 40
0.0
  9
$COORDS
 70
     1
  9
$SPLFRAME
 70
     0
  9
$SPLINETYPE
 70
     6
  9
$SPLINESEGS
 70
     8
  9
$ATTDIA
 70
     0
  9
$ATTREQ
 70
     1
  9
$HANDLING
 70
     1
  9
$HANDSEED
  5
6BA
  9
$SURFTAB1
 70
     6
  9
$SURFTAB2
 70
     6
  9
$SURFTYPE
 70
     6
  9
$SURFU
 70
     6
  9
$SURFV
 70
     6
  9
$UCSNAME
  2

  9
$UCSORG
 10
0.0
 20
0.0
 30
0.0
  9
$UCSXDIR
 10
1.0
 20
0.0
 30
0.0
  9
$UCSYDIR
 10
0.0
 20
1.0
 30
0.0
  9
$PUCSNAME
  2

  9
$PUCSORG
 10
0.0
 20
0.0
 30
0.0
  9
$PUCSXDIR
 10
1.0
 20
0.0
 30
0.0
  9
$PUCSYDIR
 10
0.0
 20
1.0
 30
0.0
  9
$USERI1
 70
     0
  9
$USERI2
 70
     0
  9
$USERI3
 70
     0
  9
$USERI4
 70
     0
  9
$USERI5
 70
     0
  9
$USERR1
 40
0.0
  9
$USERR2
 40
0.0
  9
$USERR3
 40
0.0
  9
$USERR4
 40
0.0
  9
$USERR5
 40
0.0
  9
$WORLDVIEW
 70
     1
  9
$SHADEDGE
 70
     3
  9
$SHADEDIF
 70
    70
  9
$TILEMODE
 70
     1
  9
$MAXACTVP
 70
    16
  9
$PINSBASE
 10
0.0
 20
0.0
 30
0.0
  9
$PLIMCHECK
 70
     0
  9
$PEXTMIN
 10
1.000000E+20
 20
1.000000E+20
 30
1.000000E+20
  9
$PEXTMAX
 10
-1.000000E+20
 20
-1.000000E+20
 30
-1.000000E+20
  9
$PLIMMIN
 10
0.0
 20
0.0
  9
$PLIMMAX
 10
12.0
 20
9.0
  9
$UNITMODE
 70
     0
  9
$VISRETAIN
 70
     0
  9
$PLINEGEN
 70
     1
  9
$PSLTSCALE
 70
     0
  9
$TREEDEPTH
 70
  3020
  9
$PICKSTYLE
 70
     1
  9
$CMLSTYLE
  2
Standard
  9
$CMLJUST
 70
     0
  9
$CMLSCALE
 40
1.0
  9
$PROXYGRAPHICS
 70
     0
  9
$MEASUREMENT
 70
     0
  0
ENDSEC
  0
SECTION
  2
CLASSES
  0
CLASS
  1
LWPOLYLINE
  2
AcDbPolyline
  3
"AutoCAD"
 90
        0
280
     0
281
     1
  0
CLASS
  1
IMAGE
  2
AcDbRasterImage
  3
ISM
 90
      127
280
     0
281
     1
  0
CLASS
  1
OLE2FRAME
  2
AcDbOle2Frame
  3
""
 90
        0
280
     0
281
     1
  0
CLASS
  1
HATCH
  2
AcDbHatch
  3
"ACAD_SEDONA"
 90
        0
280
     0
281
     1
  0
CLASS
  1
DICTIONARYVAR
  2
AcDbDictionaryVar
  3
"AutoCAD"
 90
        0
280
     0
281
     0
  0
CLASS
  1
RASTERVARIABLES
  2
AcDbRasterVariables
  3
ISM
 90
        0
280
     0
281
     0
  0
CLASS
  1
IMAGEDEF
  2
AcDbRasterImageDef
  3
ISM
 90
        0
280
     0
281
     0
  0
CLASS
  1
IMAGEDEF_REACTOR
  2
AcDbRasterImageDefReactor
  3
ISM
 90
        1
280
     0
281
     0
  0
CLASS
  1
IDBUFFER
  2
AcDbIdBuffer
  3
"Acad"
 90
        0
280
     0
281
     0
  0
CLASS
  1
SPATIAL_FILTER
  2
AcDbSpatialFilter
  3
"Acad"
 90
        0
280
     0
281
     0
  0
CLASS
  1
XRECORD
  2
AcDbXrecord
  3
"<Built In>"
 90
        0
280
     0
281
     0
  0
CLASS
  1
SORTENTSTABLE
  2
AcDbSortentsTable
  3
"AutoCAD"
 90
        0
280
     0
281
     0
  0
CLASS
  1
LAYER_INDEX
  2
AcDbLayerIndex
  3
"Acad"
 90
        0
280
     0
281
     0
  0
CLASS
  1
SPATIAL_INDEX
  2
AcDbSpatialIndex
  3
"Acad"
 90
        0
280
     0
281
     0
  0
CLASS
  1
OBJECT_PTR
  2
CAseDLPNTableRecord
  3
"ASE-LPNTableRecord"
 90
        1
280
     0
281
     0
  0
CLASS
  1
LAYOUT
  2
AcDbLayout
  3
"AutoCAD 2000"
 90
        0
280
     0
281
     0
  0
CLASS
  1
PLOTSETTINGS
  2
AcDbPlotSettings
  3
"AutoCAD 2000"
 90
        0
280
     0
281
     0
  0
CLASS
  1
ACDBDICTIONARYWDFLT
  2
AcDbDictionaryWithDefault
  3
"AutoCAD 2000"
 90
        0
280
     0
281
     0
  0
CLASS
  1
ACDBPLACEHOLDER
  2
AcDbPlaceHolder
  3
"AutoCAD 2000"
 90
        0
280
     0
281
     0
  0
CLASS
  1
VBA_PROJECT
  2
AcDbVbaProject
  3
"acadvba"
 90
        0
280
     0
281
     0
  0
CLASS
  1
WIPEOUT
  2
AcDbWipeout
  3
WipeOut|AutoCAD Express Tool|expresstools@autodesk.com
 90
      127
280
     0
281
     1
  0
CLASS
  1
WIPEOUTVARIABLES
  2
AcDbWipeoutVariables
  3
WipeOut|AutoCAD Express Tool|expresstools@autodesk.com
 90
        0
280
     0
281
     0
  0
CLASS
  1
RTEXT
  2
RText
  3
RText|AutoCAD Express Tool|expresstools@autodesk.com
 90
        0
280
     0
281
     1
  0
CLASS
  1
ARCALIGNEDTEXT
  2
AcDbArcAlignedText
  3
ATEXT|AutoCAD Express Tool|expresstools@autodesk.com
 90
        0
280
     0
281
     1
  0
ENDSEC
  0
SECTION
  2
TABLES
  0
TABLE
  2
VPORT
  5
7
100
AcDbSymbolTable
 70
     1
  0
VPORT
  5
15
100
AcDbSymbolTableRecord
100
AcDbViewportTableRecord
  2
*ACTIVE
 70
     0
 10
0.0
 20
0.0
 11
1.0
 21
1.0
 12
1008.2
 22
759.207391
 13
0.0
 23
0.0
 14
1.0
 24
1.0
 15
0.0
 25
0.0
 16
0.0
 26
0.0
 36
1.0
 17
0.0
 27
0.0
 37
0.0
 40
1494.849706
 41
1.722533
 42
50.0
 43
0.0
 44
0.0
 50
0.0
 51
0.0
 71
     0
 72
  1000
 73
     1
 74
     1
 75
     0
 76
     0
 77
     0
 78
     0
  0
ENDTAB
  0
TABLE
  2
LTYPE
  5
4
100
AcDbSymbolTable
 70
     9
  0
LTYPE
  5
11
100
AcDbSymbolTableRecord
100
AcDbLinetypeTableRecord
  2
BYBLOCK
 70
    64
  3

 72
    65
 73
     0
 40
0.0
  0
LTYPE
  5
12
100
AcDbSymbolTableRecord
100
AcDbLinetypeTableRecord
  2
BYLAYER
 70
    64
  3

 72
    65
 73
     0
 40
0.0
  0
LTYPE
  5
13
100
AcDbSymbolTableRecord
100
AcDbLinetypeTableRecord
  2
CONTINUOUS
 70
    64
  3
実線
 72
    65
 73
     0
 40
0.0
  0
LTYPE
  5
1D
100
AcDbSymbolTableRecord
100
AcDbLinetypeTableRecord
  2
EXLTYPE1
 70
    64
  3
破線
 72
    65
 73
     2
 40
4.0
 49
3.0
 74
     0
 49
-1.0
 74
     0
  0
LTYPE
  5
1E
100
AcDbSymbolTableRecord
100
AcDbLinetypeTableRecord
  2
EXLTYPE2
 70
    64
  3
点線
 72
    65
 73
     2
 40
2.0
 49
1.0
 74
     0
 49
-1.0
 74
     0
  0
LTYPE
  5
1F
100
AcDbSymbolTableRecord
100
AcDbLinetypeTableRecord
  2
EXLTYPE3
 70
    64
  3
一点鎖線
 72
    65
 73
     4
 40
33.0
 49
30.0
 74
     0
 49
-1.0
 74
     0
 49
1.0
 74
     0
 49
-1.0
 74
     0
  0
LTYPE
  5
20
100
AcDbSymbolTableRecord
100
AcDbLinetypeTableRecord
  2
EXLTYPE4
 70
    64
  3
二点鎖線
 72
    65
 73
     6
 40
35.0
 49
30.0
 74
     0
 49
-1.0
 74
     0
 49
1.0
 74
     0
 49
-1.0
 74
     0
 49
1.0
 74
     0
 49
-1.0
 74
     0
  0
LTYPE
  5
21
100
AcDbSymbolTableRecord
100
AcDbLinetypeTableRecord
  2
EXLTYPE5
 70
    64
  3
三点鎖線
 72
    65
 73
     8
 40
37.0
 49
30.0
 74
     0
 49
-1.0
 74
     0
 49
1.0
 74
     0
 49
-1.0
 74
     0
 49
1.0
 74
     0
 49
-1.0
 74
     0
 49
1.0
 74
     0
 49
-1.0
 74
     0
  0
LTYPE
  5
22
100
AcDbSymbolTableRecord
100
AcDbLinetypeTableRecord
  2
EXLTYPE6
 70
    64
  3
四点鎖線
 72
    65
 73
    10
 40
39.0
 49
30.0
 74
     0
 49
-1.0
 74
     0
 49
1.0
 74
     0
 49
-1.0
 74
     0
 49
1.0
 74
     0
 49
-1.0
 74
     0
 49
1.0
 74
     0
 49
-1.0
 74
     0
 49
1.0
 74
     0
 49
-1.0
 74
     0
  0
ENDTAB
  0
TABLE
  2
LAYER
  5
2
100
AcDbSymbolTable
 70
     4
  0
LAYER
  5
14
100
AcDbSymbolTableRecord
100
AcDbLayerTableRecord
  2
0
 70
     0
 62
     7
  6
CONTINUOUS
  0
LAYER
  5
25
100
AcDbSymbolTableRecord
100
AcDbLayerTableRecord
  2
LAY-1
 70
    64
 62
     3
  6
CONTINUOUS
  0
LAYER
  5
26
100
AcDbSymbolTableRecord
100
AcDbLayerTableRecord
  2
LAY-2
 70
    64
 62
     7
  6
CONTINUOUS
  0
LAYER
  5
27
100
AcDbSymbolTableRecord
100
AcDbLayerTableRecord
  2
LAY-5
 70
    64
 62
     1
  6
CONTINUOUS
  0
ENDTAB
  0
TABLE
  2
STYLE
  5
3
100
AcDbSymbolTable
 70
     3
  0
STYLE
  5
17
100
AcDbSymbolTableRecord
100
AcDbTextStyleTableRecord
  2
STANDARD
 70
     0
 40
0.0
 41
1.0
 50
0.0
 71
     0
 42
0.0
  3
monotxt
  4
extfont
  0
STYLE
  5
23
100
AcDbSymbolTableRecord
100
AcDbTextStyleTableRecord
  2
EXCADSTD
 70
    64
 40
0.0
 41
1.0
 50
0.0
 71
     0
 42
0.2
  3
monotxt
  4
extfont
  0
STYLE
  5
24
100
AcDbSymbolTableRecord
100
AcDbTextStyleTableRecord
  2
EXCADVERT
 70
    68
 40
0.0
 41
1.0
 50
0.0
 71
     0
 42
0.286885
  3
monotxt
  4
extfont
  0
ENDTAB
  0
TABLE
  2
VIEW
  5
5
100
AcDbSymbolTable
 70
     0
  0
ENDTAB
  0
TABLE
  2
UCS
  5
6
100
AcDbSymbolTable
 70
     0
  0
ENDTAB
  0
TABLE
  2
APPID
  5
8
100
AcDbSymbolTable
 70
     1
  0
APPID
  5
16
100
AcDbSymbolTableRecord
100
AcDbRegAppTableRecord
  2
ACAD
 70
     0
  0
ENDTAB
  0
TABLE
  2
DIMSTYLE
  5
9
100
AcDbSymbolTable
 70
     1
  0
DIMSTYLE
105
18
100
AcDbSymbolTableRecord
100
AcDbDimStyleTableRecord
  2
STANDARD
 70
     0
  3

  4

  5

  6

  7

 40
1.0
 41
0.18
 42
0.0625
 43
0.38
 44
0.18
 45
0.0
 46
0.0
 47
0.0
 48
0.0
 71
     0
 72
     0
 73
     1
 74
     1
 75
     0
 76
     0
 77
     0
 78
     0
140
0.18
141
0.09
142
0.0
143
25.4
144
1.0
145
0.0
146
1.0
147
0.09
170
     0
171
     2
172
     1
173
     0
174
     0
175
     0
176
     0
177
     0
178
     0
270
     2
271
     4
272
     4
273
     2
274
     2
275
     0
280
     0
281
     0
282
     0
283
     1
284
     0
285
     0
286
     0
287
     3
288
     0
340
17
  0
ENDTAB
  0
TABLE
  2
BLOCK_RECORD
  5
1
100
AcDbSymbolTable
 70
    14
  0
BLOCK_RECORD
  5
A
100
AcDbSymbolTableRecord
100
AcDbBlockTableRecord
  2
*MODEL_SPACE
  0
BLOCK_RECORD
  5
B
100
AcDbSymbolTableRecord
100
AcDbBlockTableRecord
  2
*PAPER_SPACE
  0
BLOCK_RECORD
  5
28
100
AcDbSymbolTableRecord
100
AcDbBlockTableRecord
  2
_EX_NORM
  0
BLOCK_RECORD
  5
29
100
AcDbSymbolTableRecord
100
AcDbBlockTableRecord
  2
_EX_BNORM
  0
BLOCK_RECORD
  5
2A
100
AcDbSymbolTableRecord
100
AcDbBlockTableRecord
  2
_EX_BCIR
  0
BLOCK_RECORD
  5
2B
100
AcDbSymbolTableRecord
100
AcDbBlockTableRecord
  2
_EX_RCIVIL
  0
BLOCK_RECORD
  5
2C
100
AcDbSymbolTableRecord
100
AcDbBlockTableRecord
  2
_EX_SLANT
  0
BLOCK_RECORD
  5
2D
100
AcDbSymbolTableRecord
100
AcDbBlockTableRecord
  2
_EX_NONE
  0
BLOCK_RECORD
  5
2E
100
AcDbSymbolTableRecord
100
AcDbBlockTableRecord
  2
_EX_CIVIL
  0
BLOCK_RECORD
  5
2F
100
AcDbSymbolTableRecord
100
AcDbBlockTableRecord
  2
_EX_WCIR
  0
BLOCK_RECORD
  5
30
100
AcDbSymbolTableRecord
100
AcDbBlockTableRecord
  2
_EX_WCIR2
  0
BLOCK_RECORD
  5
31
100
AcDbSymbolTableRecord
100
AcDbBlockTableRecord
  2
_EX_WNORM
  0
BLOCK_RECORD
  5
32
100
AcDbSymbolTableRecord
100
AcDbBlockTableRecord
  2
_EX_NNORM
  0
BLOCK_RECORD
  5
33
100
AcDbSymbolTableRecord
100
AcDbBlockTableRecord
  2
_EX_BBOX
  0
BLOCK_RECORD
  5
34
100
AcDbSymbolTableRecord
100
AcDbBlockTableRecord
  2
_EX_WBOX
  0
BLOCK_RECORD
  5
35
100
AcDbSymbolTableRecord
100
AcDbBlockTableRecord
  2
_EX_INTEGRAL
  0
ENDTAB
  0
ENDSEC
  0
SECTION
  2
BLOCKS
  0
BLOCK
  5
D
100
AcDbEntity
  8
0
100
AcDbBlockBegin
  2
*MODEL_SPACE
 70
     0
 10
0.0
 20
0.0
 30
0.0
  3
*MODEL_SPACE
  1

  0
ENDBLK
  5
E
100
AcDbEntity
  8
0
100
AcDbBlockEnd
  0
BLOCK
  5
F
100
AcDbEntity
 67
     1
  8
0
100
AcDbBlockBegin
  2
*PAPER_SPACE
 70
     0
 10
0.0
 20
0.0
 30
0.0
  3
*PAPER_SPACE
  1

  0
ENDBLK
  5
10
100
AcDbEntity
 67
     1
  8
0
100
AcDbBlockEnd
  0
BLOCK
  5
36
100
AcDbEntity
  8
0
100
AcDbBlockBegin
  2
_EX_NORM
 70
     0
 10
0.0
 20
0.0
 30
0.0
  3
_EX_NORM
  1

  0
LINE
  5
37
100
AcDbEntity
  8
0
  6
CONTINUOUS
 62
     0
100
AcDbLine
 10
0.0
 20
0.0
 30
0.0
 11
-1.0
 21
0.0
 31
0.0
  0
LINE
  5
38
100
AcDbEntity
  8
0
  6
CONTINUOUS
 62
     0
100
AcDbLine
 10
0.0
 20
0.0
 30
0.0
 11
-1.0
 21
0.166667
 31
0.0
  0
LINE
  5
39
100
AcDbEntity
  8
0
  6
CONTINUOUS
 62
     0
100
AcDbLine
 10
0.0
 20
0.0
 30
0.0
 11
-1.0
 21
-0.166667
 31
0.0
  0
ENDBLK
  5
3A
100
AcDbEntity
  8
0
100
AcDbBlockEnd
  0
BLOCK
  5
3B
100
AcDbEntity
  8
0
100
AcDbBlockBegin
  2
_EX_BNORM
 70
     0
 10
0.0
 20
0.0
 30
0.0
  3
_EX_BNORM
  1

  0
LINE
  5
3C
100
AcDbEntity
  8
0
  6
CONTINUOUS
 62
     0
100
AcDbLine
 10
0.0
 20
0.0
 30
0.0
 11
-1.0
 21
0.0
 31
0.0
  0
LINE
  5
3D
100
AcDbEntity
  8
0
  6
CONTINUOUS
 62
     0
100
AcDbLine
 10
0.0
 20
0.0
 30
0.0
 11
-1.0
 21
0.166667
 31
0.0
  0
LINE
  5
3E
100
AcDbEntity
  8
0
  6
CONTINUOUS
 62
     0
100
AcDbLine
 10
0.0
 20
0.0
 30
0.0
 11
-1.0
 21
-0.166667
 31
0.0
  0
LINE
  5
3F
100
AcDbEntity
  8
0
  6
CONTINUOUS
 62
     0
100
AcDbLine
 10
0.0
 20
0.0
 30
0.0
 11
-1.0
 21
0.083333
 31
0.0
  0
LINE
  5
40
100
AcDbEntity
  8
0
  6
CONTINUOUS
 62
     0
100
AcDbLine
 10
0.0
 20
0.0
 30
0.0
 11
-1.0
 21
-0.083333
 31
0.0
  0
LINE
  5
41
100
AcDbEntity
  8
0
  6
CONTINUOUS
 62
     0
100
AcDbLine
 10
-1.0
 20
0.166667
 30
0.0
 11
-1.0
 21
-0.166667
 31
0.0
  0
ENDBLK
  5
42
100
AcDbEntity
  8
0
100
AcDbBlockEnd
  0
BLOCK
  5
43
100
AcDbEntity
  8
0
100
AcDbBlockBegin
  2
_EX_BCIR
 70
     0
 10
0.0
 20
0.0
 30
0.0
  3
_EX_BCIR
  1

  0
LINE
  5
44
100
AcDbEntity
  8
0
  6
CONTINUOUS
 62
     0
100
AcDbLine
 10
0.0
 20
0.0
 30
0.0
 11
-1.0
 21
0.0
 31
0.0
  0
CIRCLE
  5
45
100
AcDbEntity
  8
0
  6
CONTINUOUS
 62
     0
100
AcDbCircle
 10
0.0
 20
0.0
 30
0.0
 40
0.5
  0
CIRCLE
  5
46
100
AcDbEntity
  8
0
  6
CONTINUOUS
 62
     0
100
AcDbCircle
 10
0.0
 20
0.0
 30
0.0
 40
0.25
  0
ENDBLK
  5
47
100
AcDbEntity
  8
0
100
AcDbBlockEnd
  0
BLOCK
  5
48
100
AcDbEntity
  8
0
100
AcDbBlockBegin
  2
_EX_RCIVIL
 70
     0
 10
0.0
 20
0.0
 30
0.0
  3
_EX_RCIVIL
  1

  0
LINE
  5
49
100
AcDbEntity
  8
0
  6
CONTINUOUS
 62
     0
100
AcDbLine
 10
0.0
 20
0.0
 30
0.0
 11
-1.0
 21
0.0
 31
0.0
  0
LINE
  5
4A
100
AcDbEntity
  8
0
  6
CONTINUOUS
 62
     0
100
AcDbLine
 10
-1.0
 20
-0.25
 30
0.0
 11
0.0
 21
-0.25
 31
0.0
  0
LINE
  5
4B
100
AcDbEntity
  8
0
  6
CONTINUOUS
 62
     0
100
AcDbLine
 10
-1.0
 20
-0.125
 30
0.0
 11
0.0
 21
-0.125
 31
0.0
  0
ENDBLK
  5
4C
100
AcDbEntity
  8
0
100
AcDbBlockEnd
  0
BLOCK
  5
4D
100
AcDbEntity
  8
0
100
AcDbBlockBegin
  2
_EX_SLANT
 70
     0
 10
0.0
 20
0.0
 30
0.0
  3
_EX_SLANT
  1

  0
LINE
  5
4E
100
AcDbEntity
  8
0
  6
CONTINUOUS
 62
     0
100
AcDbLine
 10
0.0
 20
0.0
 30
0.0
 11
-1.0
 21
0.0
 31
0.0
  0
LINE
  5
4F
100
AcDbEntity
  8
0
  6
CONTINUOUS
 62
     0
100
AcDbLine
 10
0.707107
 20
0.707107
 30
0.0
 11
-0.707107
 21
-0.707107
 31
0.0
  0
ENDBLK
  5
50
100
AcDbEntity
  8
0
100
AcDbBlockEnd
  0
BLOCK
  5
51
100
AcDbEntity
  8
0
100
AcDbBlockBegin
  2
_EX_NONE
 70
     0
 10
0.0
 20
0.0
 30
0.0
  3
_EX_NONE
  1

  0
LINE
  5
52
100
AcDbEntity
  8
0
  6
CONTINUOUS
 62
     0
100
AcDbLine
 10
0.0
 20
0.0
 30
0.0
 11
-1.0
 21
0.0
 31
0.0
  0
ENDBLK
  5
53
100
AcDbEntity
  8
0
100
AcDbBlockEnd
  0
BLOCK
  5
54
100
AcDbEntity
  8
0
100
AcDbBlockBegin
  2
_EX_CIVIL
 70
     0
 10
0.0
 20
0.0
 30
0.0
  3
_EX_CIVIL
  1

  0
LINE
  5
55
100
AcDbEntity
  8
0
  6
CONTINUOUS
 62
     0
100
AcDbLine
 10
0.0
 20
0.0
 30
0.0
 11
-1.0
 21
0.0
 31
0.0
  0
LINE
  5
56
100
AcDbEntity
  8
0
  6
CONTINUOUS
 62
     0
100
AcDbLine
 10
-1.0
 20
0.25
 30
0.0
 11
0.0
 21
0.25
 31
0.0
  0
LINE
  5
57
100
AcDbEntity
  8
0
  6
CONTINUOUS
 62
     0
100
AcDbLine
 10
-1.0
 20
0.125
 30
0.0
 11
0.0
 21
0.125
 31
0.0
  0
ENDBLK
  5
58
100
AcDbEntity
  8
0
100
AcDbBlockEnd
  0
BLOCK
  5
59
100
AcDbEntity
  8
0
100
AcDbBlockBegin
  2
_EX_WCIR
 70
     0
 10
0.0
 20
0.0
 30
0.0
  3
_EX_WCIR
  1

  0
LINE
  5
5A
100
AcDbEntity
  8
0
  6
CONTINUOUS
 62
     0
100
AcDbLine
 10
0.0
 20
0.0
 30
0.0
 11
-1.0
 21
0.0
 31
0.0
  0
CIRCLE
  5
5B
100
AcDbEntity
  8
0
  6
CONTINUOUS
 62
     0
100
AcDbCircle
 10
0.0
 20
0.0
 30
0.0
 40
0.5
  0
ENDBLK
  5
5C
100
AcDbEntity
  8
0
100
AcDbBlockEnd
  0
BLOCK
  5
5D
100
AcDbEntity
  8
0
100
AcDbBlockBegin
  2
_EX_WCIR2
 70
     0
 10
0.0
 20
0.0
 30
0.0
  3
_EX_WCIR2
  1

  0
LINE
  5
5E
100
AcDbEntity
  8
0
  6
CONTINUOUS
 62
     0
100
AcDbLine
 10
-0.5
 20
0.0
 30
0.0
 11
-1.0
 21
0.0
 31
0.0
  0
CIRCLE
  5
5F
100
AcDbEntity
  8
0
  6
CONTINUOUS
 62
     0
100
AcDbCircle
 10
0.0
 20
0.0
 30
0.0
 40
0.5
  0
ENDBLK
  5
60
100
AcDbEntity
  8
0
100
AcDbBlockEnd
  0
BLOCK
  5
61
100
AcDbEntity
  8
0
100
AcDbBlockBegin
  2
_EX_WNORM
 70
     0
 10
0.0
 20
0.0
 30
0.0
  3
_EX_WNORM
  1

  0
LINE
  5
62
100
AcDbEntity
  8
0
  6
CONTINUOUS
 62
     0
100
AcDbLine
 10
-1.0
 20
0.0
 30
0.0
 11
-1.0
 21
0.0
 31
0.0
  0
LINE
  5
63
100
AcDbEntity
  8
0
  6
CONTINUOUS
 62
     0
100
AcDbLine
 10
0.0
 20
0.0
 30
0.0
 11
-1.0
 21
0.166667
 31
0.0
  0
LINE
  5
64
100
AcDbEntity
  8
0
  6
CONTINUOUS
 62
     0
100
AcDbLine
 10
0.0
 20
0.0
 30
0.0
 11
-1.0
 21
-0.166667
 31
0.0
  0
LINE
  5
65
100
AcDbEntity
  8
0
  6
CONTINUOUS
 62
     0
100
AcDbLine
 10
-1.0
 20
0.166667
 30
0.0
 11
-1.0
 21
-0.166667
 31
0.0
  0
ENDBLK
  5
66
100
AcDbEntity
  8
0
100
AcDbBlockEnd
  0
BLOCK
  5
67
100
AcDbEntity
  8
0
100
AcDbBlockBegin
  2
_EX_NNORM
 70
     0
 10
0.0
 20
0.0
 30
0.0
  3
_EX_NNORM
  1

  0
LINE
  5
68
100
AcDbEntity
  8
0
  6
CONTINUOUS
 62
     0
100
AcDbLine
 10
0.0
 20
0.0
 30
0.0
 11
-1.0
 21
0.0
 31
0.0
  0
LINE
  5
69
100
AcDbEntity
  8
0
  6
CONTINUOUS
 62
     0
100
AcDbLine
 10
0.0
 20
0.0
 30
0.0
 11
-1.0
 21
0.166667
 31
0.0
  0
LINE
  5
6A
100
AcDbEntity
  8
0
  6
CONTINUOUS
 62
     0
100
AcDbLine
 10
0.0
 20
0.0
 30
0.0
 11
-1.0
 21
-0.166667
 31
0.0
  0
LINE
  5
6B
100
AcDbEntity
  8
0
  6
CONTINUOUS
 62
     0
100
AcDbLine
 10
-1.0
 20
0.166667
 30
0.0
 11
-1.0
 21
-0.166667
 31
0.0
  0
ENDBLK
  5
6C
100
AcDbEntity
  8
0
100
AcDbBlockEnd
  0
BLOCK
  5
6D
100
AcDbEntity
  8
0
100
AcDbBlockBegin
  2
_EX_BBOX
 70
     0
 10
0.0
 20
0.0
 30
0.0
  3
_EX_BBOX
  1

  0
LINE
  5
6E
100
AcDbEntity
  8
0
  6
CONTINUOUS
 62
     0
100
AcDbLine
 10
0.0
 20
0.0
 30
0.0
 11
-1.0
 21
0.0
 31
0.0
  0
LINE
  5
6F
100
AcDbEntity
  8
0
  6
CONTINUOUS
 62
     0
100
AcDbLine
 10
-0.5
 20
0.5
 30
0.0
 11
0.5
 21
0.5
 31
0.0
  0
LINE
  5
70
100
AcDbEntity
  8
0
  6
CONTINUOUS
 62
     0
100
AcDbLine
 10
0.5
 20
0.5
 30
0.0
 11
0.5
 21
-0.5
 31
0.0
  0
LINE
  5
71
100
AcDbEntity
  8
0
  6
CONTINUOUS
 62
     0
100
AcDbLine
 10
0.5
 20
-0.5
 30
0.0
 11
-0.5
 21
-0.5
 31
0.0
  0
LINE
  5
72
100
AcDbEntity
  8
0
  6
CONTINUOUS
 62
     0
100
AcDbLine
 10
-0.5
 20
-0.5
 30
0.0
 11
-0.5
 21
0.5
 31
0.0
  0
LINE
  5
73
100
AcDbEntity
  8
0
  6
CONTINUOUS
 62
     0
100
AcDbLine
 10
-0.25
 20
0.25
 30
0.0
 11
0.25
 21
0.25
 31
0.0
  0
LINE
  5
74
100
AcDbEntity
  8
0
  6
CONTINUOUS
 62
     0
100
AcDbLine
 10
0.25
 20
0.25
 30
0.0
 11
0.25
 21
-0.25
 31
0.0
  0
LINE
  5
75
100
AcDbEntity
  8
0
  6
CONTINUOUS
 62
     0
100
AcDbLine
 10
0.25
 20
-0.25
 30
0.0
 11
-0.25
 21
-0.25
 31
0.0
  0
LINE
  5
76
100
AcDbEntity
  8
0
  6
CONTINUOUS
 62
     0
100
AcDbLine
 10
-0.25
 20
-0.25
 30
0.0
 11
-0.25
 21
0.25
 31
0.0
  0
ENDBLK
  5
77
100
AcDbEntity
  8
0
100
AcDbBlockEnd
  0
BLOCK
  5
78
100
AcDbEntity
  8
0
100
AcDbBlockBegin
  2
_EX_WBOX
 70
     0
 10
0.0
 20
0.0
 30
0.0
  3
_EX_WBOX
  1

  0
LINE
  5
79
100
AcDbEntity
  8
0
  6
CONTINUOUS
 62
     0
100
AcDbLine
 10
-0.5
 20
0.0
 30
0.0
 11
-1.0
 21
0.0
 31
0.0
  0
LINE
  5
7A
100
AcDbEntity
  8
0
  6
CONTINUOUS
 62
     0
100
AcDbLine
 10
-0.5
 20
0.5
 30
0.0
 11
0.5
 21
0.5
 31
0.0
  0
LINE
  5
7B
100
AcDbEntity
  8
0
  6
CONTINUOUS
 62
     0
100
AcDbLine
 10
0.5
 20
0.5
 30
0.0
 11
0.5
 21
-0.5
 31
0.0
  0
LINE
  5
7C
100
AcDbEntity
  8
0
  6
CONTINUOUS
 62
     0
100
AcDbLine
 10
0.5
 20
-0.5
 30
0.0
 11
-0.5
 21
-0.5
 31
0.0
  0
LINE
  5
7D
100
AcDbEntity
  8
0
  6
CONTINUOUS
 62
     0
100
AcDbLine
 10
-0.5
 20
-0.5
 30
0.0
 11
-0.5
 21
0.5
 31
0.0
  0
ENDBLK
  5
7E
100
AcDbEntity
  8
0
100
AcDbBlockEnd
  0
BLOCK
  5
7F
100
AcDbEntity
  8
0
100
AcDbBlockBegin
  2
_EX_INTEGRAL
 70
     0
 10
0.0
 20
0.0
 30
0.0
  3
_EX_INTEGRAL
  1

  0
LINE
  5
80
100
AcDbEntity
  8
0
  6
CONTINUOUS
 62
     0
100
AcDbLine
 10
0.0
 20
0.0
 30
0.0
 11
-1.0
 21
0.0
 31
0.0
  0
ARC
  5
81
100
AcDbEntity
  8
0
  6
CONTINUOUS
 62
     0
100
AcDbCircle
 10
0.542115
 20
0.164992
 30
0.0
 40
0.56667
100
AcDbArc
 50
73.07249
 51
196.927513
  0
ARC
  5
82
100
AcDbEntity
  8
0
  6
CONTINUOUS
 62
     0
100
AcDbCircle
 10
-0.542115
 20
-0.164992
 30
0.0
 40
0.56667
100
AcDbArc
 50
253.072487
 51
16.927513
  0
ENDBLK
  5
83
100
AcDbEntity
  8
0
100
AcDbBlockEnd
  0
ENDSEC
  0
SECTION
  2
ENTITIES
  0
LINE
  5
84
100
AcDbEntity
  8
LAY-1
  6
CONTINUOUS
 62
     1
100
AcDbLine
 10
1507.596513
 20
518.277021
 30
0.0
 11
1507.819189
 21
518.499698
 31
0.0
  0
ARC
  5
85
100
AcDbEntity
  8
LAY-1
  6
CONTINUOUS
 62
     7
100
AcDbCircle
 10
1035.809669
 20
952.4
 30
0.0
 40
2.0
100
AcDbArc
 50
0.0
 51
90.0
  0
LINE
  5
86
100
AcDbEntity
  8
LAY-1
  6
CONTINUOUS
 62
     7
100
AcDbLine
 10
973.809669
 20
954.4
 30
0.0
 11
1035.809669
 21
954.4
 31
0.0
  0
ARC
  5
87
100
AcDbEntity
  8
LAY-1
  6
CONTINUOUS
 62
     7
100
AcDbCircle
 10
973.809669
 20
952.4
 30
0.0
 40
2.0
100
AcDbArc
 50
90.0
 51
180.0
  0
LINE
  5
88
100
AcDbEntity
  8
LAY-1
  6
CONTINUOUS
 62
     7
100
AcDbLine
 10
1037.809669
 20
952.4
 30
0.0
 11
1037.809669
 21
936.4
 31
0.0
  0
ARC
  5
89
100
AcDbEntity
  8
LAY-1
  6
CONTINUOUS
 62
     7
100
AcDbCircle
 10
1035.809669
 20
936.4
 30
0.0
 40
2.0
100
AcDbArc
 50
270.0
 51
0.0
  0
LINE
  5
8A
100
AcDbEntity
  8
LAY-1
  6
CONTINUOUS
 62
     7
100
AcDbLine
 10
973.809669
 20
934.4
 30
0.0
 11
1035.809669
 21
934.4
 31
0.0
  0
LINE
  5
8B
100
AcDbEntity
  8
LAY-1
  6
CONTINUOUS
 62
     7
100
AcDbLine
 10
971.809669
 20
952.4
 30
0.0
 11
971.809669
 21
936.4
 31
0.0
  0
ARC
  5
8C
100
AcDbEntity
  8
LAY-1
  6
CONTINUOUS
 62
     7
100
AcDbCircle
 10
973.809669
 20
936.4
 30
0.0
 40
2.0
100
AcDbArc
 50
180.0
 51
270.0
  0
LINE
  5
8D
100
AcDbEntity
  8
LAY-1
  6
CONTINUOUS
 62
     7
100
AcDbLine
 10
866.0
 20
1093.0
 30
0.0
 11
1142.0
 21
1093.0
 31
0.0
  0
ARC
  5
8E
100
AcDbEntity
  8
LAY-1
  6
CONTINUOUS
 62
     7
100
AcDbCircle
 10
1089.0
 20
944.199957
 30
0.0
 40
25.0
100
AcDbArc
 50
270.0
 51
0.0
  0
ARC
  5
8F
100
AcDbEntity
  8
LAY-1
  6
CONTINUOUS
 62
     7
100
AcDbCircle
 10
919.0
 20
944.199957
 30
0.0
 40
25.0
100
AcDbArc
 50
180.0
 51
270.0
  0
LINE
  5
90
100
AcDbEntity
  8
LAY-1
  6
CONTINUOUS
 62
     7
100
AcDbLine
 10
897.178885
 20
932.0
 30
0.0
 11
1110.821115
 21
932.0
 31
0.0
  0
LINE
  5
91
100
AcDbEntity
  8
LAY-1
  6
CONTINUOUS
 62
     7
100
AcDbLine
 10
919.0
 20
919.199957
 30
0.0
 11
1089.0
 21
919.199957
 31
0.0
  0
CIRCLE
  5
92
100
AcDbEntity
  8
LAY-1
  6
CONTINUOUS
 62
     7
100
AcDbCircle
 10
930.5
 20
974.5
 30
0.0
 40
31.5
  0
ARC
  5
93
100
AcDbEntity
  8
LAY-1
  6
CONTINUOUS
 62
     7
100
AcDbCircle
 10
967.71984
 20
1031.0
 30
0.0
 40
12.0
100
AcDbArc
 50
270.0
 51
326.514623
  0
ARC
  5
94
100
AcDbEntity
  8
LAY-1
  6
CONTINUOUS
 62
     7
100
AcDbCircle
 10
1004.0
 20
1007.0
 30
0.0
 40
31.5
100
AcDbArc
 50
33.485377
 51
146.514623
  0
ARC
  5
95
100
AcDbEntity
  8
LAY-1
  6
CONTINUOUS
 62
     7
100
AcDbCircle
 10
1040.28016
 20
1031.0
 30
0.0
 40
12.0
100
AcDbArc
 50
213.485377
 51
270.0
  0
ARC
  5
96
100
AcDbEntity
  8
LAY-1
  6
CONTINUOUS
 62
     7
100
AcDbCircle
 10
1040.28016
 20
983.0
 30
0.0
 40
12.0
100
AcDbArc
 50
90.0
 51
146.514623
  0
ARC
  5
97
100
AcDbEntity
  8
LAY-1
  6
CONTINUOUS
 62
     7
100
AcDbCircle
 10
1004.0
 20
1007.0
 30
0.0
 40
31.5
100
AcDbArc
 50
303.485377
 51
326.514623
  0
ARC
  5
98
100
AcDbEntity
  8
LAY-1
  6
CONTINUOUS
 62
     7
100
AcDbCircle
 10
1004.0
 20
1007.0
 30
0.0
 40
31.5
100
AcDbArc
 50
213.485377
 51
236.514623
  0
ARC
  5
99
100
AcDbEntity
  8
LAY-1
  6
CONTINUOUS
 62
     7
100
AcDbCircle
 10
967.71984
 20
983.0
 30
0.0
 40
12.0
100
AcDbArc
 50
33.485377
 51
90.0
  0
ARC
  5
9A
100
AcDbEntity
  8
LAY-1
  6
CONTINUOUS
 62
     7
100
AcDbCircle
 10
980.0
 20
970.71984
 30
0.0
 40
12.0
100
AcDbArc
 50
0.0
 51
56.514623
  0
ARC
  5
9B
100
AcDbEntity
  8
LAY-1
  6
CONTINUOUS
 62
     7
100
AcDbCircle
 10
1028.0
 20
970.71984
 30
0.0
 40
12.0
100
AcDbArc
 50
123.485377
 51
180.0
  0
ARC
  5
9C
100
AcDbEntity
  8
LAY-1
  6
CONTINUOUS
 62
     7
100
AcDbCircle
 10
1011.0
 20
962.0
 30
0.0
 40
5.0
100
AcDbArc
 50
270.0
 51
0.0
  0
LINE
  5
9D
100
AcDbEntity
  8
LAY-1
  6
CONTINUOUS
 62
     7
100
AcDbLine
 10
1016.0
 20
970.71984
 30
0.0
 11
1016.0
 21
962.0
 31
0.0
  0
LINE
  5
9E
100
AcDbEntity
  8
LAY-1
  6
CONTINUOUS
 62
     7
100
AcDbLine
 10
1011.0
 20
957.0
 30
0.0
 11
997.0
 21
957.0
 31
0.0
  0
ARC
  5
9F
100
AcDbEntity
  8
LAY-1
  6
CONTINUOUS
 62
     7
100
AcDbCircle
 10
997.0
 20
962.0
 30
0.0
 40
5.0
100
AcDbArc
 50
180.0
 51
270.0
  0
LINE
  5
A0
100
AcDbEntity
  8
LAY-1
  6
CONTINUOUS
 62
     7
100
AcDbLine
 10
992.0
 20
970.71984
 30
0.0
 11
992.0
 21
962.0
 31
0.0
  0
CIRCLE
  5
A1
100
AcDbEntity
  8
LAY-1
  6
CONTINUOUS
 62
     7
100
AcDbCircle
 10
1077.5
 20
974.5
 30
0.0
 40
31.5
  0
ARC
  5
A2
100
AcDbEntity
  8
LAY-1
  6
CONTINUOUS
 62
     7
100
AcDbCircle
 10
1048.0
 20
1000.0
 30
0.0
 40
5.0
100
AcDbArc
 50
270.0
 51
0.0
  0
LINE
  5
A3
100
AcDbEntity
  8
LAY-1
  6
CONTINUOUS
 62
     7
100
AcDbLine
 10
1053.0
 20
1014.0
 30
0.0
 11
1053.0
 21
1000.0
 31
0.0
  0
ARC
  5
A4
100
AcDbEntity
  8
LAY-1
  6
CONTINUOUS
 62
     7
100
AcDbCircle
 10
1048.0
 20
1014.0
 30
0.0
 40
5.0
100
AcDbArc
 50
0.0
 51
90.0
  0
LINE
  5
A5
100
AcDbEntity
  8
LAY-1
  6
CONTINUOUS
 62
     7
100
AcDbLine
 10
1040.28016
 20
1019.0
 30
0.0
 11
1048.0
 21
1019.0
 31
0.0
  0
ARC
  5
A6
100
AcDbEntity
  8
LAY-1
  6
CONTINUOUS
 62
     7
100
AcDbCircle
 10
960.0
 20
1000.0
 30
0.0
 40
5.0
100
AcDbArc
 50
180.0
 51
270.0
  0
LINE
  5
A7
100
AcDbEntity
  8
LAY-1
  6
CONTINUOUS
 62
     7
100
AcDbLine
 10
955.0
 20
1014.0
 30
0.0
 11
955.0
 21
1000.0
 31
0.0
  0
ARC
  5
A8
100
AcDbEntity
  8
LAY-1
  6
CONTINUOUS
 62
     7
100
AcDbCircle
 10
960.0
 20
1014.0
 30
0.0
 40
5.0
100
AcDbArc
 50
90.0
 51
180.0
  0
LINE
  5
A9
100
AcDbEntity
  8
LAY-1
  6
CONTINUOUS
 62
     7
100
AcDbLine
 10
967.71984
 20
1019.0
 30
0.0
 11
960.0
 21
1019.0
 31
0.0
  0
LINE
  5
AA
100
AcDbEntity
  8
LAY-1
  6
CONTINUOUS
 62
     7
100
AcDbLine
 10
966.790331
 20
995.0
 30
0.0
 11
960.0
 21
995.0
 31
0.0
  0
ELLIPSE
  5
AB
100
AcDbEntity
  8
LAY-1
  6
CONTINUOUS
 62
     7
100
AcDbEllipse
 10
1004.0
 20
1007.0
 30
0.0
 11
-110.0000000000001
 21
0.0000000000000135
 31
0.0
210
0.0
220
0.0
230
1.0
 40
0.58
 41
3.1415926535897931
 42
0.0
  0
LINE
  5
AC
100
AcDbEntity
  8
LAY-1
  6
CONTINUOUS
 62
     7
100
AcDbLine
 10
1114.0
 20
944.199957
 30
0.0
 11
1114.0
 21
1007.0
 31
0.0
  0
LINE
  5
AD
100
AcDbEntity
  8
LAY-1
  6
CONTINUOUS
 62
     7
100
AcDbLine
 10
894.0
 20
944.199957
 30
0.0
 11
894.0
 21
1007.0
 31
0.0
  0
LINE
  5
AE
100
AcDbEntity
  8
LAY-1
  6
CONTINUOUS
 62
     7
100
AcDbLine
 10
937.908066
 20
1058.0
 30
0.0
 11
1070.091934
 21
1058.0
 31
0.0
  0
LINE
  5
AF
100
AcDbEntity
  8
LAY-1
  6
CONTINUOUS
 62
     7
100
AcDbLine
 10
1154.0
 20
1024.0
 30
0.0
 11
1154.0
 21
1007.0
 31
0.0
  0
LINE
  5
B0
100
AcDbEntity
  8
LAY-1
  6
CONTINUOUS
 62
     7
100
AcDbLine
 10
1149.451021
 20
996.15
 30
0.0
 11
1154.0
 21
991.601021
 31
0.0
  0
LINE
  5
B1
100
AcDbEntity
  8
LAY-1
  6
CONTINUOUS
 62
     7
100
AcDbLine
 10
1149.451021
 20
1017.85
 30
0.0
 11
1149.451021
 21
996.15
 31
0.0
  0
LINE
  5
B2
100
AcDbEntity
  8
LAY-1
  6
CONTINUOUS
 62
     7
100
AcDbLine
 10
1149.451021
 20
1017.85
 30
0.0
 11
1154.0
 21
1022.398979
 31
0.0
  0
LINE
  5
B3
100
AcDbEntity
  8
LAY-1
  6
CONTINUOUS
 62
     7
100
AcDbLine
 10
1154.0
 20
1007.0
 30
0.0
 11
1154.0
 21
990.0
 31
0.0
  0
LINE
  5
B4
100
AcDbEntity
  8
LAY-1
  6
CONTINUOUS
 62
     7
100
AcDbLine
 10
1154.0
 20
1024.0
 30
0.0
 11
1156.657596
 21
1024.442933
 31
0.0
  0
LINE
  5
B5
100
AcDbEntity
  8
LAY-1
  6
CONTINUOUS
 62
     7
100
AcDbLine
 10
1154.0
 20
990.0
 30
0.0
 11
1156.657596
 21
989.557067
 31
0.0
  0
LINE
  5
B6
100
AcDbEntity
  8
LAY-1
  6
CONTINUOUS
 62
     7
100
AcDbLine
 10
1160.0
 20
1007.0
 30
0.0
 11
1160.0
 21
1054.5
 31
0.0
  0
LINE
  5
B7
100
AcDbEntity
  8
LAY-1
  6
CONTINUOUS
 62
     7
100
AcDbLine
 10
1160.0
 20
959.5
 30
0.0
 11
1160.0
 21
1007.0
 31
0.0
  0
LINE
  5
B8
100
AcDbEntity
  8
LAY-1
  6
CONTINUOUS
 62
     7
100
AcDbLine
 10
1173.0
 20
1007.0
 30
0.0
 11
1173.0
 21
1054.5
 31
0.0
  0
LINE
  5
B9
100
AcDbEntity
  8
LAY-1
  6
CONTINUOUS
 62
     7
100
AcDbLine
 10
1173.0
 20
959.5
 30
0.0
 11
1173.0
 21
1007.0
 31
0.0
  0
ARC
  5
BA
100
AcDbEntity
  8
LAY-1
  6
CONTINUOUS
 62
     7
100
AcDbCircle
 10
1174.0
 20
980.5
 30
0.0
 40
1.0
100
AcDbArc
 50
90.0
 51
180.0
  0
ARC
  5
BB
100
AcDbEntity
  8
LAY-1
  6
CONTINUOUS
 62
     7
100
AcDbCircle
 10
1174.0
 20
1033.5
 30
0.0
 40
1.0
100
AcDbArc
 50
180.0
 51
270.0
  0
ARC
  5
BC
100
AcDbEntity
  8
LAY-1
  6
CONTINUOUS
 62
     7
100
AcDbCircle
 10
1156.0
 20
1028.388508
 30
0.0
 40
4.0
100
AcDbArc
 50
279.462322
 51
0.0
  0
ARC
  5
BD
100
AcDbEntity
  8
LAY-1
  6
CONTINUOUS
 62
     7
100
AcDbCircle
 10
1156.0
 20
985.611492
 30
0.0
 40
4.0
100
AcDbArc
 50
0.0
 51
80.537678
  0
LINE
  5
BE
100
AcDbEntity
  8
LAY-1
  6
CONTINUOUS
 62
     7
100
AcDbLine
 10
1160.0
 20
959.5
 30
0.0
 11
1173.0
 21
959.5
 31
0.0
  0
LINE
  5
BF
100
AcDbEntity
  8
LAY-1
  6
CONTINUOUS
 62
     7
100
AcDbLine
 10
1160.0
 20
1054.5
 30
0.0
 11
1173.0
 21
1054.5
 31
0.0
  0
LINE
  5
C0
100
AcDbEntity
  8
LAY-1
  6
CONTINUOUS
 62
     7
100
AcDbLine
 10
1174.0
 20
981.5
 30
0.0
 11
1174.0
 21
1032.5
 31
0.0
  0
CIRCLE
  5
C1
100
AcDbEntity
  8
LAY-1
  6
CONTINUOUS
 62
     7
100
AcDbCircle
 10
1077.5
 20
974.5
 30
0.0
 40
28.0
  0
CIRCLE
  5
C2
100
AcDbEntity
  8
LAY-1
  6
CONTINUOUS
 62
     7
100
AcDbCircle
 10
1077.5
 20
974.5
 30
0.0
 40
28.5
  0
LINE
  5
C3
100
AcDbEntity
  8
LAY-1
  6
CONTINUOUS
 62
     7
100
AcDbLine
 10
1083.448077
 20
976.500082
 30
0.0
 11
1080.490391
 21
977.03339
 31
0.0
  0
LINE
  5
C4
100
AcDbEntity
  8
LAY-1
  6
CONTINUOUS
 62
     7
100
AcDbLine
 10
1080.490391
 20
977.03339
 30
0.0
 11
1080.60614
 21
980.036543
 31
0.0
  0
LINE
  5
C5
100
AcDbEntity
  8
LAY-1
  6
CONTINUOUS
 62
     7
100
AcDbLine
 10
1083.448077
 20
976.500082
 30
0.0
 11
1058.308692
 21
959.207943
 31
0.0
  0
LINE
  5
C6
100
AcDbEntity
  8
LAY-1
  6
CONTINUOUS
 62
     7
100
AcDbLine
 10
1080.60614
 20
980.036543
 30
0.0
 11
1058.308692
 21
959.207943
 31
0.0
  0
CIRCLE
  5
C7
100
AcDbEntity
  8
LAY-1
  6
CONTINUOUS
 62
     7
100
AcDbCircle
 10
1060.452522
 20
959.504575
 30
0.0
 40
0.981818
  0
ARC
  5
C8
100
AcDbEntity
  8
LAY-1
  6
CONTINUOUS
 62
     7
100
AcDbCircle
 10
1047.0
 20
1002.0
 30
0.0
 40
5.0
100
AcDbArc
 50
270.0
 51
0.0
  0
LINE
  5
C9
100
AcDbEntity
  8
LAY-1
  6
CONTINUOUS
 62
     7
100
AcDbLine
 10
1052.0
 20
1012.0
 30
0.0
 11
1052.0
 21
1002.0
 31
0.0
  0
ARC
  5
CA
100
AcDbEntity
  8
LAY-1
  6
CONTINUOUS
 62
     7
100
AcDbCircle
 10
1047.0
 20
1012.0
 30
0.0
 40
5.0
100
AcDbArc
 50
0.0
 51
90.0
  0
LINE
  5
CB
100
AcDbEntity
  8
LAY-1
  6
CONTINUOUS
 62
     7
100
AcDbLine
 10
1044.5
 20
1004.0
 30
0.0
 11
1047.5
 21
1007.0
 31
0.0
  0
LINE
  5
CC
100
AcDbEntity
  8
LAY-1
  6
CONTINUOUS
 62
     7
100
AcDbLine
 10
1044.5
 20
1005.0
 30
0.0
 11
1044.5
 21
1004.0
 31
0.0
  0
LINE
  5
CD
100
AcDbEntity
  8
LAY-1
  6
CONTINUOUS
 62
     7
100
AcDbLine
 10
1040.5
 20
1005.0
 30
0.0
 11
1044.5
 21
1005.0
 31
0.0
  0
LINE
  5
CE
100
AcDbEntity
  8
LAY-1
  6
CONTINUOUS
 62
     7
100
AcDbLine
 10
1040.5
 20
1009.0
 30
0.0
 11
1040.5
 21
1005.0
 31
0.0
  0
LINE
  5
CF
100
AcDbEntity
  8
LAY-1
  6
CONTINUOUS
 62
     7
100
AcDbLine
 10
1044.5
 20
1010.0
 30
0.0
 11
1044.5
 21
1009.0
 31
0.0
  0
LINE
  5
D0
100
AcDbEntity
  8
LAY-1
  6
CONTINUOUS
 62
     7
100
AcDbLine
 10
1047.5
 20
1007.0
 30
0.0
 11
1044.5
 21
1010.0
 31
0.0
  0
LINE
  5
D1
100
AcDbEntity
  8
LAY-1
  6
CONTINUOUS
 62
     7
100
AcDbLine
 10
1044.5
 20
1009.0
 30
0.0
 11
1040.5
 21
1009.0
 31
0.0
  0
LINE
  5
D2
100
AcDbEntity
  8
LAY-1
  6
CONTINUOUS
 62
     7
100
AcDbLine
 10
1047.0
 20
1017.0
 30
0.0
 11
1038.49036
 21
1017.0
 31
0.0
  0
ARC
  5
D3
100
AcDbEntity
  8
LAY-1
  6
CONTINUOUS
 62
     7
100
AcDbCircle
 10
1038.49036
 20
1027.0
 30
0.0
 40
10.0
100
AcDbArc
 50
210.108252
 51
270.0
  0
LINE
  5
D4
100
AcDbEntity
  8
LAY-1
  6
CONTINUOUS
 62
     7
100
AcDbLine
 10
1036.0
 20
1002.0
 30
0.0
 11
1036.0
 21
1012.0
 31
0.0
  0
ARC
  5
D5
100
AcDbEntity
  8
LAY-1
  6
CONTINUOUS
 62
     7
100
AcDbCircle
 10
1041.0
 20
1002.0
 30
0.0
 40
5.0
100
AcDbArc
 50
180.0
 51
270.0
  0
ARC
  5
D6
100
AcDbEntity
  8
LAY-1
  6
CONTINUOUS
 62
     7
100
AcDbCircle
 10
1041.0
 20
1012.0
 30
0.0
 40
5.0
100
AcDbArc
 50
90.0
 51
180.0
  0
ARC
  5
D7
100
AcDbEntity
  8
LAY-1
  6
CONTINUOUS
 62
     7
100
AcDbCircle
 10
1038.49036
 20
987.0
 30
0.0
 40
10.0
100
AcDbArc
 50
90.0
 51
149.891748
  0
ARC
  5
D8
100
AcDbEntity
  8
LAY-1
  6
CONTINUOUS
 62
     7
100
AcDbCircle
 10
1004.0
 20
1007.0
 30
0.0
 40
29.869599
100
AcDbArc
 50
293.297301
 51
246.702699
  0
ARC
  5
D9
100
AcDbEntity
  8
LAY-1
  6
CONTINUOUS
 62
     7
100
AcDbCircle
 10
1004.0
 20
1007.0
 30
0.0
 40
28.229077
100
AcDbArc
 50
292.365522
 51
247.634478
  0
CIRCLE
  5
DA
100
AcDbEntity
  8
LAY-1
  6
CONTINUOUS
 62
     7
100
AcDbCircle
 10
1004.0
 20
1007.0
 30
0.0
 40
24.0
  0
LINE
  5
DB
100
AcDbEntity
  8
LAY-1
  6
CONTINUOUS
 62
     7
100
AcDbLine
 10
994.807612
 20
1016.192388
 30
0.0
 11
995.514719
 21
1015.485281
 31
0.0
  0
ARC
  5
DC
100
AcDbEntity
  8
LAY-1
  6
CONTINUOUS
 62
     7
100
AcDbCircle
 10
1004.0
 20
1007.0
 30
0.0
 40
15.0
100
AcDbArc
 50
45.0
 51
135.0
  0
ARC
  5
DD
100
AcDbEntity
  8
LAY-1
  6
CONTINUOUS
 62
     7
100
AcDbCircle
 10
1004.0
 20
1007.0
 30
0.0
 40
13.0
100
AcDbArc
 50
45.0
 51
135.0
  0
LINE
  5
DE
100
AcDbEntity
  8
LAY-1
  6
CONTINUOUS
 62
     7
100
AcDbLine
 10
993.393398
 20
1017.606602
 30
0.0
 11
992.686292
 21
1018.313708
 31
0.0
  0
LINE
  5
DF
100
AcDbEntity
  8
LAY-1
  6
CONTINUOUS
 62
     7
100
AcDbLine
 10
1014.606602
 20
1017.606602
 30
0.0
 11
1015.313708
 21
1018.313708
 31
0.0
  0
LINE
  5
E0
100
AcDbEntity
  8
LAY-1
  6
CONTINUOUS
 62
     7
100
AcDbLine
 10
1012.485281
 20
1015.485281
 30
0.0
 11
1013.192388
 21
1016.192388
 31
0.0
  0
LINE
  5
E1
100
AcDbEntity
  8
LAY-1
  6
CONTINUOUS
 62
     7
100
AcDbLine
 10
1012.485281
 20
1015.485281
 30
0.0
 11
1015.751372
 21
1014.508732
 31
0.0
  0
LINE
  5
E2
100
AcDbEntity
  8
LAY-1
  6
CONTINUOUS
 62
     7
100
AcDbLine
 10
1015.313708
 20
1018.313708
 30
0.0
 11
1015.751372
 21
1014.508732
 31
0.0
  0
LINE
  5
E3
100
AcDbEntity
  8
LAY-1
  6
CONTINUOUS
 62
     7
100
AcDbLine
 10
992.686292
 20
1018.313708
 30
0.0
 11
992.248628
 21
1014.508732
 31
0.0
  0
LINE
  5
E4
100
AcDbEntity
  8
LAY-1
  6
CONTINUOUS
 62
     7
100
AcDbLine
 10
995.514719
 20
1015.485281
 30
0.0
 11
992.248628
 21
1014.508732
 31
0.0
  0
LINE
  5
E5
100
AcDbEntity
  8
LAY-1
  6
CONTINUOUS
 62
     7
100
AcDbLine
 10
1015.0
 20
1003.0
 30
0.0
 11
1015.0
 21
1010.0
 31
0.0
  0
LINE
  5
E6
100
AcDbEntity
  8
LAY-1
  6
CONTINUOUS
 62
     7
100
AcDbLine
 10
1014.5
 20
1010.5
 30
0.0
 11
993.5
 21
1010.5
 31
0.0
  0
LINE
  5
E7
100
AcDbEntity
  8
LAY-1
  6
CONTINUOUS
 62
     7
100
AcDbLine
 10
993.0
 20
1010.0
 30
0.0
 11
993.0
 21
1003.0
 31
0.0
  0
LINE
  5
E8
100
AcDbEntity
  8
LAY-1
  6
CONTINUOUS
 62
     7
100
AcDbLine
 10
993.5
 20
1002.5
 30
0.0
 11
1014.5
 21
1002.5
 31
0.0
  0
ARC
  5
E9
100
AcDbEntity
  8
LAY-1
  6
CONTINUOUS
 62
     7
100
AcDbCircle
 10
1014.5
 20
1010.0
 30
0.0
 40
0.5
100
AcDbArc
 50
0.0
 51
90.0
  0
ARC
  5
EA
100
AcDbEntity
  8
LAY-1
  6
CONTINUOUS
 62
     7
100
AcDbCircle
 10
1014.5
 20
1003.0
 30
0.0
 40
0.5
100
AcDbArc
 50
270.0
 51
0.0
  0
ARC
  5
EB
100
AcDbEntity
  8
LAY-1
  6
CONTINUOUS
 62
     7
100
AcDbCircle
 10
993.5
 20
1003.0
 30
0.0
 40
0.5
100
AcDbArc
 50
180.0
 51
270.0
  0
ARC
  5
EC
100
AcDbEntity
  8
LAY-1
  6
CONTINUOUS
 62
     7
100
AcDbCircle
 10
993.5
 20
1010.0
 30
0.0
 40
0.5
100
AcDbArc
 50
90.0
 51
180.0
  0
ARC
  5
ED
100
AcDbEntity
  8
LAY-1
  6
CONTINUOUS
 62
     7
100
AcDbCircle
 10
1004.0
 20
1007.0
 30
0.0
 40
33.5
100
AcDbArc
 50
172.658462
 51
180.0
  0
ARC
  5
EE
100
AcDbEntity
  8
LAY-1
  6
CONTINUOUS
 62
     7
100
AcDbCircle
 10
1004.0
 20
1007.0
 30
0.0
 40
33.5
100
AcDbArc
 50
180.0
 51
187.341538
  0
LINE
  5
EF
100
AcDbEntity
  8
LAY-1
  6
CONTINUOUS
 62
     7
100
AcDbLine
 10
1004.0
 20
974.0
 30
0.0
 11
994.0
 21
974.0
 31
0.0
  0
LINE
  5
F0
100
AcDbEntity
  8
LAY-1
  6
CONTINUOUS
 62
     7
100
AcDbLine
 10
1004.0
 20
974.0
 30
0.0
 11
1014.0
 21
974.0
 31
0.0
  0
LINE
  5
F1
100
AcDbEntity
  8
LAY-1
  6
CONTINUOUS
 62
     7
100
AcDbLine
 10
994.0
 20
974.0
 30
0.0
 11
994.0
 21
976.810423
 31
0.0
  0
ARC
  5
F2
100
AcDbEntity
  8
LAY-1
  6
CONTINUOUS
 62
     7
100
AcDbCircle
 10
991.0
 20
976.810423
 30
0.0
 40
3.0
100
AcDbArc
 50
0.0
 51
66.702699
  0
ARC
  5
F3
100
AcDbEntity
  8
LAY-1
  6
CONTINUOUS
 62
     7
100
AcDbCircle
 10
1017.0
 20
976.810423
 30
0.0
 40
3.0
100
AcDbArc
 50
113.297301
 51
180.0
  0
LINE
  5
F4
100
AcDbEntity
  8
LAY-1
  6
CONTINUOUS
 62
     7
100
AcDbLine
 10
1014.0
 20
974.0
 30
0.0
 11
1014.0
 21
976.810423
 31
0.0
  0
ARC
  5
F5
100
AcDbEntity
  8
LAY-1
  6
CONTINUOUS
 62
     7
100
AcDbCircle
 10
1004.0
 20
929.304174
 30
0.0
 40
51.590276
100
AcDbArc
 50
78.823326
 51
101.176674
  0
CIRCLE
  5
F6
100
AcDbEntity
  8
LAY-1
  6
CONTINUOUS
 62
     7
100
AcDbCircle
 10
930.5
 20
974.5
 30
0.0
 40
27.0
  0
CIRCLE
  5
F7
100
AcDbEntity
  8
LAY-1
  6
CONTINUOUS
 62
     7
100
AcDbCircle
 10
930.5
 20
974.5
 30
0.0
 40
25.772727
  0
LINE
  5
F8
100
AcDbEntity
  8
LAY-1
  6
CONTINUOUS
 62
     7
100
AcDbLine
 10
854.0
 20
1024.0
 30
0.0
 11
854.0
 21
1007.0
 31
0.0
  0
LINE
  5
F9
100
AcDbEntity
  8
LAY-1
  6
CONTINUOUS
 62
     7
100
AcDbLine
 10
858.548979
 20
996.15
 30
0.0
 11
854.0
 21
991.601021
 31
0.0
  0
LINE
  5
FA
100
AcDbEntity
  8
LAY-1
  6
CONTINUOUS
 62
     7
100
AcDbLine
 10
858.548979
 20
1017.85
 30
0.0
 11
858.548979
 21
996.15
 31
0.0
  0
LINE
  5
FB
100
AcDbEntity
  8
LAY-1
  6
CONTINUOUS
 62
     7
100
AcDbLine
 10
858.548979
 20
1017.85
 30
0.0
 11
854.0
 21
1022.398979
 31
0.0
  0
LINE
  5
FC
100
AcDbEntity
  8
LAY-1
  6
CONTINUOUS
 62
     7
100
AcDbLine
 10
854.0
 20
1007.0
 30
0.0
 11
854.0
 21
990.0
 31
0.0
  0
LINE
  5
FD
100
AcDbEntity
  8
LAY-1
  6
CONTINUOUS
 62
     7
100
AcDbLine
 10
854.0
 20
1024.0
 30
0.0
 11
851.342404
 21
1024.442933
 31
0.0
  0
LINE
  5
FE
100
AcDbEntity
  8
LAY-1
  6
CONTINUOUS
 62
     7
100
AcDbLine
 10
854.0
 20
990.0
 30
0.0
 11
851.342404
 21
989.557067
 31
0.0
  0
LINE
  5
FF
100
AcDbEntity
  8
LAY-1
  6
CONTINUOUS
 62
     7
100
AcDbLine
 10
848.0
 20
1007.0
 30
0.0
 11
848.0
 21
1054.5
 31
0.0
  0
LINE
  5
100
100
AcDbEntity
  8
LAY-1
  6
CONTINUOUS
 62
     7
100
AcDbLine
 10
848.0
 20
959.5
 30
0.0
 11
848.0
 21
1007.0
 31
0.0
  0
LINE
  5
101
100
AcDbEntity
  8
LAY-1
  6
CONTINUOUS
 62
     7
100
AcDbLine
 10
835.0
 20
1007.0
 30
0.0
 11
835.0
 21
1054.5
 31
0.0
  0
LINE
  5
102
100
AcDbEntity
  8
LAY-1
  6
CONTINUOUS
 62
     7
100
AcDbLine
 10
835.0
 20
959.5
 30
0.0
 11
835.0
 21
1007.0
 31
0.0
  0
ARC
  5
103
100
AcDbEntity
  8
LAY-1
  6
CONTINUOUS
 62
     7
100
AcDbCircle
 10
834.0
 20
980.5
 30
0.0
 40
1.0
100
AcDbArc
 50
0.0
 51
90.0
  0
ARC
  5
104
100
AcDbEntity
  8
LAY-1
  6
CONTINUOUS
 62
     7
100
AcDbCircle
 10
834.0
 20
1033.5
 30
0.0
 40
1.0
100
AcDbArc
 50
270.0
 51
0.0
  0
ARC
  5
105
100
AcDbEntity
  8
LAY-1
  6
CONTINUOUS
 62
     7
100
AcDbCircle
 10
852.0
 20
1028.388508
 30
0.0
 40
4.0
100
AcDbArc
 50
180.0
 51
260.537678
  0
ARC
  5
106
100
AcDbEntity
  8
LAY-1
  6
CONTINUOUS
 62
     7
100
AcDbCircle
 10
852.0
 20
985.611492
 30
0.0
 40
4.0
100
AcDbArc
 50
99.462322
 51
180.0
  0
LINE
  5
107
100
AcDbEntity
  8
LAY-1
  6
CONTINUOUS
 62
     7
100
AcDbLine
 10
848.0
 20
959.5
 30
0.0
 11
835.0
 21
959.5
 31
0.0
  0
LINE
  5
108
100
AcDbEntity
  8
LAY-1
  6
CONTINUOUS
 62
     7
100
AcDbLine
 10
848.0
 20
1054.5
 30
0.0
 11
835.0
 21
1054.5
 31
0.0
  0
LINE
  5
109
100
AcDbEntity
  8
LAY-1
  6
CONTINUOUS
 62
     7
100
AcDbLine
 10
834.0
 20
981.5
 30
0.0
 11
834.0
 21
1032.5
 31
0.0
  0
LINE
  5
10A
100
AcDbEntity
  8
LAY-1
  6
CONTINUOUS
 62
     7
100
AcDbLine
 10
1142.0
 20
1017.85
 30
0.0
 11
1149.451021
 21
1017.85
 31
0.0
  0
LINE
  5
10B
100
AcDbEntity
  8
LAY-1
  6
CONTINUOUS
 62
     7
100
AcDbLine
 10
1142.0
 20
996.15
 30
0.0
 11
1149.451021
 21
996.15
 31
0.0
  0
LINE
  5
10C
100
AcDbEntity
  8
LAY-1
  6
CONTINUOUS
 62
     7
100
AcDbLine
 10
1089.5
 20
948.45
 30
0.0
 11
1089.5
 21
945.375268
 31
0.0
  0
LINE
  5
10D
100
AcDbEntity
  8
LAY-1
  6
CONTINUOUS
 62
     7
100
AcDbLine
 10
1065.5
 20
948.649468
 30
0.0
 11
1065.5
 21
945.375268
 31
0.0
  0
LINE
  5
10E
100
AcDbEntity
  8
LAY-1
  6
CONTINUOUS
 62
     7
100
AcDbLine
 10
936.448077
 20
975.100082
 30
0.0
 11
933.490391
 21
975.63339
 31
0.0
  0
LINE
  5
10F
100
AcDbEntity
  8
LAY-1
  6
CONTINUOUS
 62
     7
100
AcDbLine
 10
933.490391
 20
975.63339
 30
0.0
 11
933.60614
 21
978.636543
 31
0.0
  0
LINE
  5
110
100
AcDbEntity
  8
LAY-1
  6
CONTINUOUS
 62
     7
100
AcDbLine
 10
936.448077
 20
975.100082
 30
0.0
 11
911.308692
 21
957.807943
 31
0.0
  0
LINE
  5
111
100
AcDbEntity
  8
LAY-1
  6
CONTINUOUS
 62
     7
100
AcDbLine
 10
933.60614
 20
978.636543
 30
0.0
 11
911.308692
 21
957.807943
 31
0.0
  0
CIRCLE
  5
112
100
AcDbEntity
  8
LAY-1
  6
CONTINUOUS
 62
     7
100
AcDbCircle
 10
913.452522
 20
958.104575
 30
0.0
 40
0.981818
  0
LINE
  5
113
100
AcDbEntity
  8
LAY-1
  6
CONTINUOUS
 62
     7
100
AcDbLine
 10
866.0
 20
1017.85
 30
0.0
 11
858.548979
 21
1017.85
 31
0.0
  0
LINE
  5
114
100
AcDbEntity
  8
LAY-1
  6
CONTINUOUS
 62
     7
100
AcDbLine
 10
866.0
 20
996.15
 30
0.0
 11
858.548979
 21
996.15
 31
0.0
  0
LINE
  5
115
100
AcDbEntity
  8
LAY-1
  6
CONTINUOUS
 62
     7
100
AcDbLine
 10
971.864315
 20
1019.738414
 30
0.0
 11
970.774631
 21
1011.280753
 31
0.0
  0
LINE
  5
116
100
AcDbEntity
  8
LAY-1
  6
CONTINUOUS
 62
     7
100
AcDbLine
 10
1036.135685
 20
1019.738414
 30
0.0
 11
1036.461712
 21
1017.207932
 31
0.0
  0
LINE
  5
117
100
AcDbEntity
  8
LAY-1
  6
CONTINUOUS
 62
     7
100
AcDbLine
 10
1036.135685
 20
994.261586
 30
0.0
 11
1036.461712
 21
996.792068
 31
0.0
  0
LINE
  5
118
100
AcDbEntity
  8
LAY-1
  6
CONTINUOUS
 62
     7
100
AcDbLine
 10
1016.738414
 20
974.864315
 30
0.0
 11
1014.0
 21
974.511498
 31
0.0
  0
LINE
  5
119
100
AcDbEntity
  8
LAY-1
  6
CONTINUOUS
 62
     7
100
AcDbLine
 10
991.261586
 20
974.864315
 30
0.0
 11
994.0
 21
974.511498
 31
0.0
  0
LINE
  5
11A
100
AcDbEntity
  8
LAY-1
  6
CONTINUOUS
 62
     7
100
AcDbLine
 10
971.864315
 20
994.261586
 30
0.0
 11
970.774631
 21
1002.719247
 31
0.0
  0
LINE
  5
11B
100
AcDbEntity
  8
LAY-1
  6
CONTINUOUS
 62
     7
100
AcDbLine
 10
1012.0
 20
974.253818
 30
0.0
 11
1012.0
 21
957.0
 31
0.0
  0
LINE
  5
11C
100
AcDbEntity
  8
LAY-1
  6
CONTINUOUS
 62
     7
100
AcDbLine
 10
996.0
 20
974.253818
 30
0.0
 11
996.0
 21
957.0
 31
0.0
  0
ARC
  5
11D
100
AcDbEntity
  8
LAY-1
  6
CONTINUOUS
 62
     7
100
AcDbCircle
 10
909.66429
 20
928.885125
 30
0.0
 40
2.5
100
AcDbArc
 50
90.0
 51
180.0
  0
LINE
  5
11E
100
AcDbEntity
  8
LAY-1
  6
CONTINUOUS
 62
     7
100
AcDbLine
 10
909.66429
 20
931.385125
 30
0.0
 11
954.66429
 21
931.385125
 31
0.0
  0
ARC
  5
11F
100
AcDbEntity
  8
LAY-1
  6
CONTINUOUS
 62
     7
100
AcDbCircle
 10
954.66429
 20
928.885125
 30
0.0
 40
2.5
100
AcDbArc
 50
0.0
 51
90.0
  0
ARC
  5
120
100
AcDbEntity
  8
LAY-1
  6
CONTINUOUS
 62
     7
100
AcDbCircle
 10
954.66429
 20
928.885125
 30
0.0
 40
1.5
100
AcDbArc
 50
0.0
 51
90.0
  0
LINE
  5
121
100
AcDbEntity
  8
LAY-1
  6
CONTINUOUS
 62
     7
100
AcDbLine
 10
909.66429
 20
930.385125
 30
0.0
 11
954.66429
 21
930.385125
 31
0.0
  0
ARC
  5
122
100
AcDbEntity
  8
LAY-1
  6
CONTINUOUS
 62
     7
100
AcDbCircle
 10
909.66429
 20
928.885125
 30
0.0
 40
1.5
100
AcDbArc
 50
90.0
 51
180.0
  0
LINE
  5
123
100
AcDbEntity
  8
LAY-1
  6
CONTINUOUS
 62
     7
100
AcDbLine
 10
957.16429
 20
928.885125
 30
0.0
 11
957.16429
 21
921.885125
 31
0.0
  0
ARC
  5
124
100
AcDbEntity
  8
LAY-1
  6
CONTINUOUS
 62
     7
100
AcDbCircle
 10
954.66429
 20
921.885125
 30
0.0
 40
2.5
100
AcDbArc
 50
270.0
 51
0.0
  0
ARC
  5
125
100
AcDbEntity
  8
LAY-1
  6
CONTINUOUS
 62
     7
100
AcDbCircle
 10
954.66429
 20
921.885125
 30
0.0
 40
1.5
100
AcDbArc
 50
270.0
 51
0.0
  0
LINE
  5
126
100
AcDbEntity
  8
LAY-1
  6
CONTINUOUS
 62
     7
100
AcDbLine
 10
956.16429
 20
928.885125
 30
0.0
 11
956.16429
 21
921.885125
 31
0.0
  0
LINE
  5
127
100
AcDbEntity
  8
LAY-1
  6
CONTINUOUS
 62
     7
100
AcDbLine
 10
908.16429
 20
928.885125
 30
0.0
 11
908.16429
 21
921.885125
 31
0.0
  0
LINE
  5
128
100
AcDbEntity
  8
LAY-1
  6
CONTINUOUS
 62
     7
100
AcDbLine
 10
915.962872
 20
919.385125
 30
0.0
 11
954.66429
 21
919.385125
 31
0.0
  0
LINE
  5
129
100
AcDbEntity
  8
LAY-1
  6
CONTINUOUS
 62
     7
100
AcDbLine
 10
911.393831
 20
920.385125
 30
0.0
 11
954.66429
 21
920.385125
 31
0.0
  0
ARC
  5
12A
100
AcDbEntity
  8
LAY-1
  6
CONTINUOUS
 62
     7
100
AcDbCircle
 10
909.66429
 20
921.885125
 30
0.0
 40
1.5
100
AcDbArc
 50
180.0
 51
188.544591
  0
LINE
  5
12B
100
AcDbEntity
  8
LAY-1
  6
CONTINUOUS
 62
     7
100
AcDbLine
 10
907.16429
 20
928.885125
 30
0.0
 11
907.16429
 21
922.179149
 31
0.0
  0
ARC
  5
12C
100
AcDbEntity
  8
LAY-1
  6
CONTINUOUS
 62
     7
100
AcDbCircle
 10
1056.76429
 20
928.885125
 30
0.0
 40
2.5
100
AcDbArc
 50
90.0
 51
180.0
  0
LINE
  5
12D
100
AcDbEntity
  8
LAY-1
  6
CONTINUOUS
 62
     7
100
AcDbLine
 10
1056.76429
 20
931.385125
 30
0.0
 11
1101.76429
 21
931.385125
 31
0.0
  0
ARC
  5
12E
100
AcDbEntity
  8
LAY-1
  6
CONTINUOUS
 62
     7
100
AcDbCircle
 10
1101.76429
 20
928.885125
 30
0.0
 40
2.5
100
AcDbArc
 50
0.0
 51
90.0
  0
ARC
  5
12F
100
AcDbEntity
  8
LAY-1
  6
CONTINUOUS
 62
     7
100
AcDbCircle
 10
1101.76429
 20
928.885125
 30
0.0
 40
1.5
100
AcDbArc
 50
0.0
 51
90.0
  0
LINE
  5
130
100
AcDbEntity
  8
LAY-1
  6
CONTINUOUS
 62
     7
100
AcDbLine
 10
1056.76429
 20
930.385125
 30
0.0
 11
1101.76429
 21
930.385125
 31
0.0
  0
ARC
  5
131
100
AcDbEntity
  8
LAY-1
  6
CONTINUOUS
 62
     7
100
AcDbCircle
 10
1056.76429
 20
928.885125
 30
0.0
 40
1.5
100
AcDbArc
 50
90.0
 51
180.0
  0
LINE
  5
132
100
AcDbEntity
  8
LAY-1
  6
CONTINUOUS
 62
     7
100
AcDbLine
 10
1054.26429
 20
928.885125
 30
0.0
 11
1054.26429
 21
921.885125
 31
0.0
  0
ARC
  5
133
100
AcDbEntity
  8
LAY-1
  6
CONTINUOUS
 62
     7
100
AcDbCircle
 10
1056.76429
 20
921.885125
 30
0.0
 40
2.5
100
AcDbArc
 50
180.0
 51
270.0
  0
LINE
  5
134
100
AcDbEntity
  8
LAY-1
  6
CONTINUOUS
 62
     7
100
AcDbLine
 10
1055.26429
 20
928.885125
 30
0.0
 11
1055.26429
 21
921.885125
 31
0.0
  0
ARC
  5
135
100
AcDbEntity
  8
LAY-1
  6
CONTINUOUS
 62
     7
100
AcDbCircle
 10
1056.76429
 20
921.885125
 30
0.0
 40
1.5
100
AcDbArc
 50
180.0
 51
270.0
  0
LINE
  5
136
100
AcDbEntity
  8
LAY-1
  6
CONTINUOUS
 62
     7
100
AcDbLine
 10
1104.26429
 20
928.885125
 30
0.0
 11
1104.26429
 21
924.40093
 31
0.0
  0
LINE
  5
137
100
AcDbEntity
  8
LAY-1
  6
CONTINUOUS
 62
     7
100
AcDbLine
 10
1103.26429
 20
928.885125
 30
0.0
 11
1103.26429
 21
923.66876
 31
0.0
  0
LINE
  5
138
100
AcDbEntity
  8
LAY-1
  6
CONTINUOUS
 62
     7
100
AcDbLine
 10
1056.76429
 20
920.385125
 30
0.0
 11
1096.606169
 21
920.385125
 31
0.0
  0
LINE
  5
139
100
AcDbEntity
  8
LAY-1
  6
CONTINUOUS
 62
     7
100
AcDbLine
 10
1056.76429
 20
919.385125
 30
0.0
 11
1092.037128
 21
919.385125
 31
0.0
  0
LINE
  5
13A
100
AcDbEntity
  8
LAY-1
  6
CONTINUOUS
 62
     7
100
AcDbLine
 10
1040.28016
 20
995.0
 30
0.0
 11
1048.0
 21
995.0
 31
0.0
  0
LINE
  5
13B
100
AcDbEntity
  8
LAY-1
  6
CONTINUOUS
 62
     7
100
AcDbLine
 10
1047.506239
 20
997.0
 30
0.0
 11
1038.49036
 21
997.0
 31
0.0
  0
LINE
  5
13C
100
AcDbEntity
  8
LAY-1
  6
CONTINUOUS
 62
     7
100
AcDbLine
 10
1142.0
 20
1093.0
 30
0.0
 11
1142.0
 21
478.0
 31
0.0
  0
LINE
  5
13D
100
AcDbEntity
  8
LAY-1
  6
CONTINUOUS
 62
     7
100
AcDbLine
 10
866.0
 20
1093.0
 30
0.0
 11
866.0
 21
478.0
 31
0.0
  0
LINE
  5
13E
100
AcDbEntity
  8
LAY-1
  6
CONTINUOUS
 62
     7
100
AcDbLine
 10
1142.0
 20
478.0
 30
0.0
 11
866.0
 21
478.0
 31
0.0
  0
LINE
  5
13F
100
AcDbEntity
  8
LAY-1
  6
CONTINUOUS
 62
     7
100
AcDbLine
 10
1119.0
 20
476.0
 30
0.0
 11
1009.0
 21
476.0
 31
0.0
  0
LINE
  5
140
100
AcDbEntity
  8
LAY-1
  6
CONTINUOUS
 62
     7
100
AcDbLine
 10
1009.0
 20
478.0
 30
0.0
 11
1009.0
 21
474.0
 31
0.0
  0
LINE
  5
141
100
AcDbEntity
  8
LAY-1
  6
CONTINUOUS
 62
     7
100
AcDbLine
 10
1119.0
 20
478.0
 30
0.0
 11
1119.0
 21
474.0
 31
0.0
  0
LINE
  5
142
100
AcDbEntity
  8
LAY-1
  6
CONTINUOUS
 62
     7
100
AcDbLine
 10
1119.0
 20
474.0
 30
0.0
 11
1009.0
 21
474.0
 31
0.0
  0
LINE
  5
143
100
AcDbEntity
  8
LAY-1
  6
CONTINUOUS
 62
     7
100
AcDbLine
 10
1109.8
 20
467.5
 30
0.0
 11
1109.05
 21
467.933013
 31
0.0
  0
LINE
  5
144
100
AcDbEntity
  8
LAY-1
  6
CONTINUOUS
 62
     7
100
AcDbLine
 10
1114.8
 20
467.5
 30
0.0
 11
1109.8
 21
467.5
 31
0.0
  0
ARC
  5
145
100
AcDbEntity
  8
LAY-1
  6
CONTINUOUS
 62
     7
100
AcDbCircle
 10
1110.481624
 20
470.083121
 30
0.0
 40
2.583121
100
AcDbArc
 50
236.342803
 51
303.657197
  0
LINE
  5
146
100
AcDbEntity
  8
LAY-1
  6
CONTINUOUS
 62
     7
100
AcDbLine
 10
1119.8
 20
467.5
 30
0.0
 11
1120.55
 21
467.933013
 31
0.0
  0
LINE
  5
147
100
AcDbEntity
  8
LAY-1
  6
CONTINUOUS
 62
     7
100
AcDbLine
 10
1114.8
 20
467.5
 30
0.0
 11
1119.8
 21
467.5
 31
0.0
  0
ARC
  5
148
100
AcDbEntity
  8
LAY-1
  6
CONTINUOUS
 62
     7
100
AcDbCircle
 10
1119.118376
 20
470.083121
 30
0.0
 40
2.583121
100
AcDbArc
 50
236.342803
 51
303.657197
  0
ARC
  5
149
100
AcDbEntity
  8
LAY-1
  6
CONTINUOUS
 62
     7
100
AcDbCircle
 10
1114.8
 20
477.339011
 30
0.0
 40
9.839011
100
AcDbArc
 50
252.938469
 51
287.061531
  0
LINE
  5
14A
100
AcDbEntity
  8
LAY-1
  6
CONTINUOUS
 62
     7
100
AcDbLine
 10
1109.05
 20
467.933013
 30
0.0
 11
1109.05
 21
472.5
 31
0.0
  0
LINE
  5
14B
100
AcDbEntity
  8
LAY-1
  6
CONTINUOUS
 62
     7
100
AcDbLine
 10
1111.913249
 20
467.933013
 30
0.0
 11
1111.913249
 21
472.5
 31
0.0
  0
LINE
  5
14C
100
AcDbEntity
  8
LAY-1
  6
CONTINUOUS
 62
     7
100
AcDbLine
 10
1120.55
 20
467.933013
 30
0.0
 11
1120.55
 21
472.5
 31
0.0
  0
LINE
  5
14D
100
AcDbEntity
  8
LAY-1
  6
CONTINUOUS
 62
     7
100
AcDbLine
 10
1117.686751
 20
467.933013
 30
0.0
 11
1117.686751
 21
472.5
 31
0.0
  0
LINE
  5
14E
100
AcDbEntity
  8
LAY-1
  6
CONTINUOUS
 62
     7
100
AcDbLine
 10
1120.9
 20
472.5
 30
0.0
 11
1120.9
 21
474.0
 31
0.0
  0
LINE
  5
14F
100
AcDbEntity
  8
LAY-1
  6
CONTINUOUS
 62
     7
100
AcDbLine
 10
1114.8
 20
472.5
 30
0.0
 11
1120.9
 21
472.5
 31
0.0
  0
LINE
  5
150
100
AcDbEntity
  8
LAY-1
  6
CONTINUOUS
 62
     7
100
AcDbLine
 10
1114.8
 20
474.0
 30
0.0
 11
1120.9
 21
474.0
 31
0.0
  0
LINE
  5
151
100
AcDbEntity
  8
LAY-1
  6
CONTINUOUS
 62
     7
100
AcDbLine
 10
1108.7
 20
472.5
 30
0.0
 11
1108.7
 21
474.0
 31
0.0
  0
LINE
  5
152
100
AcDbEntity
  8
LAY-1
  6
CONTINUOUS
 62
     7
100
AcDbLine
 10
1114.8
 20
472.5
 30
0.0
 11
1108.7
 21
472.5
 31
0.0
  0
LINE
  5
153
100
AcDbEntity
  8
LAY-1
  6
CONTINUOUS
 62
     7
100
AcDbLine
 10
1113.3
 20
472.5
 30
0.0
 11
1114.8
 21
474.0
 31
0.0
  0
LINE
  5
154
100
AcDbEntity
  8
LAY-1
  6
CONTINUOUS
 62
     7
100
AcDbLine
 10
1116.3
 20
474.0
 30
0.0
 11
1114.8
 21
472.5
 31
0.0
  0
LINE
  5
155
100
AcDbEntity
  8
LAY-1
  6
CONTINUOUS
 62
     7
100
AcDbLine
 10
1080.0
 20
467.5
 30
0.0
 11
1079.25
 21
467.933013
 31
0.0
  0
LINE
  5
156
100
AcDbEntity
  8
LAY-1
  6
CONTINUOUS
 62
     7
100
AcDbLine
 10
1085.0
 20
467.5
 30
0.0
 11
1080.0
 21
467.5
 31
0.0
  0
ARC
  5
157
100
AcDbEntity
  8
LAY-1
  6
CONTINUOUS
 62
     7
100
AcDbCircle
 10
1080.681624
 20
470.083121
 30
0.0
 40
2.583121
100
AcDbArc
 50
236.342803
 51
303.657197
  0
LINE
  5
158
100
AcDbEntity
  8
LAY-1
  6
CONTINUOUS
 62
     7
100
AcDbLine
 10
1090.0
 20
467.5
 30
0.0
 11
1090.75
 21
467.933013
 31
0.0
  0
LINE
  5
159
100
AcDbEntity
  8
LAY-1
  6
CONTINUOUS
 62
     7
100
AcDbLine
 10
1085.0
 20
467.5
 30
0.0
 11
1090.0
 21
467.5
 31
0.0
  0
ARC
  5
15A
100
AcDbEntity
  8
LAY-1
  6
CONTINUOUS
 62
     7
100
AcDbCircle
 10
1089.318376
 20
470.083121
 30
0.0
 40
2.583121
100
AcDbArc
 50
236.342803
 51
303.657197
  0
ARC
  5
15B
100
AcDbEntity
  8
LAY-1
  6
CONTINUOUS
 62
     7
100
AcDbCircle
 10
1085.0
 20
477.339011
 30
0.0
 40
9.839011
100
AcDbArc
 50
252.938469
 51
287.061531
  0
LINE
  5
15C
100
AcDbEntity
  8
LAY-1
  6
CONTINUOUS
 62
     7
100
AcDbLine
 10
1079.25
 20
467.933013
 30
0.0
 11
1079.25
 21
472.5
 31
0.0
  0
LINE
  5
15D
100
AcDbEntity
  8
LAY-1
  6
CONTINUOUS
 62
     7
100
AcDbLine
 10
1082.113249
 20
467.933013
 30
0.0
 11
1082.113249
 21
472.5
 31
0.0
  0
LINE
  5
15E
100
AcDbEntity
  8
LAY-1
  6
CONTINUOUS
 62
     7
100
AcDbLine
 10
1090.75
 20
467.933013
 30
0.0
 11
1090.75
 21
472.5
 31
0.0
  0
LINE
  5
15F
100
AcDbEntity
  8
LAY-1
  6
CONTINUOUS
 62
     7
100
AcDbLine
 10
1087.886751
 20
467.933013
 30
0.0
 11
1087.886751
 21
472.5
 31
0.0
  0
LINE
  5
160
100
AcDbEntity
  8
LAY-1
  6
CONTINUOUS
 62
     7
100
AcDbLine
 10
1091.1
 20
472.5
 30
0.0
 11
1091.1
 21
474.0
 31
0.0
  0
LINE
  5
161
100
AcDbEntity
  8
LAY-1
  6
CONTINUOUS
 62
     7
100
AcDbLine
 10
1085.0
 20
472.5
 30
0.0
 11
1091.1
 21
472.5
 31
0.0
  0
LINE
  5
162
100
AcDbEntity
  8
LAY-1
  6
CONTINUOUS
 62
     7
100
AcDbLine
 10
1078.9
 20
472.5
 30
0.0
 11
1078.9
 21
474.0
 31
0.0
  0
LINE
  5
163
100
AcDbEntity
  8
LAY-1
  6
CONTINUOUS
 62
     7
100
AcDbLine
 10
1085.0
 20
472.5
 30
0.0
 11
1078.9
 21
472.5
 31
0.0
  0
LINE
  5
164
100
AcDbEntity
  8
LAY-1
  6
CONTINUOUS
 62
     7
100
AcDbLine
 10
1083.5
 20
472.5
 30
0.0
 11
1085.0
 21
474.0
 31
0.0
  0
LINE
  5
165
100
AcDbEntity
  8
LAY-1
  6
CONTINUOUS
 62
     7
100
AcDbLine
 10
1086.5
 20
474.0
 30
0.0
 11
1085.0
 21
472.5
 31
0.0
  0
LINE
  5
166
100
AcDbEntity
  8
LAY-1
  6
CONTINUOUS
 62
     7
100
AcDbLine
 10
1038.0
 20
467.5
 30
0.0
 11
1037.25
 21
467.933013
 31
0.0
  0
LINE
  5
167
100
AcDbEntity
  8
LAY-1
  6
CONTINUOUS
 62
     7
100
AcDbLine
 10
1043.0
 20
467.5
 30
0.0
 11
1038.0
 21
467.5
 31
0.0
  0
ARC
  5
168
100
AcDbEntity
  8
LAY-1
  6
CONTINUOUS
 62
     7
100
AcDbCircle
 10
1038.681624
 20
470.083121
 30
0.0
 40
2.583121
100
AcDbArc
 50
236.342803
 51
303.657197
  0
LINE
  5
169
100
AcDbEntity
  8
LAY-1
  6
CONTINUOUS
 62
     7
100
AcDbLine
 10
1048.0
 20
467.5
 30
0.0
 11
1048.75
 21
467.933013
 31
0.0
  0
LINE
  5
16A
100
AcDbEntity
  8
LAY-1
  6
CONTINUOUS
 62
     7
100
AcDbLine
 10
1043.0
 20
467.5
 30
0.0
 11
1048.0
 21
467.5
 31
0.0
  0
ARC
  5
16B
100
AcDbEntity
  8
LAY-1
  6
CONTINUOUS
 62
     7
100
AcDbCircle
 10
1047.318376
 20
470.083121
 30
0.0
 40
2.583121
100
AcDbArc
 50
236.342803
 51
303.657197
  0
ARC
  5
16C
100
AcDbEntity
  8
LAY-1
  6
CONTINUOUS
 62
     7
100
AcDbCircle
 10
1043.0
 20
477.339011
 30
0.0
 40
9.839011
100
AcDbArc
 50
252.938469
 51
287.061531
  0
LINE
  5
16D
100
AcDbEntity
  8
LAY-1
  6
CONTINUOUS
 62
     7
100
AcDbLine
 10
1037.25
 20
467.933013
 30
0.0
 11
1037.25
 21
472.5
 31
0.0
  0
LINE
  5
16E
100
AcDbEntity
  8
LAY-1
  6
CONTINUOUS
 62
     7
100
AcDbLine
 10
1040.113249
 20
467.933013
 30
0.0
 11
1040.113249
 21
472.5
 31
0.0
  0
LINE
  5
16F
100
AcDbEntity
  8
LAY-1
  6
CONTINUOUS
 62
     7
100
AcDbLine
 10
1048.75
 20
467.933013
 30
0.0
 11
1048.75
 21
472.5
 31
0.0
  0
LINE
  5
170
100
AcDbEntity
  8
LAY-1
  6
CONTINUOUS
 62
     7
100
AcDbLine
 10
1045.886751
 20
467.933013
 30
0.0
 11
1045.886751
 21
472.5
 31
0.0
  0
LINE
  5
171
100
AcDbEntity
  8
LAY-1
  6
CONTINUOUS
 62
     7
100
AcDbLine
 10
1049.1
 20
472.5
 30
0.0
 11
1049.1
 21
474.0
 31
0.0
  0
LINE
  5
172
100
AcDbEntity
  8
LAY-1
  6
CONTINUOUS
 62
     7
100
AcDbLine
 10
1043.0
 20
472.5
 30
0.0
 11
1049.1
 21
472.5
 31
0.0
  0
LINE
  5
173
100
AcDbEntity
  8
LAY-1
  6
CONTINUOUS
 62
     7
100
AcDbLine
 10
1036.9
 20
472.5
 30
0.0
 11
1036.9
 21
474.0
 31
0.0
  0
LINE
  5
174
100
AcDbEntity
  8
LAY-1
  6
CONTINUOUS
 62
     7
100
AcDbLine
 10
1043.0
 20
472.5
 30
0.0
 11
1036.9
 21
472.5
 31
0.0
  0
LINE
  5
175
100
AcDbEntity
  8
LAY-1
  6
CONTINUOUS
 62
     7
100
AcDbLine
 10
1041.5
 20
472.5
 30
0.0
 11
1043.0
 21
474.0
 31
0.0
  0
LINE
  5
176
100
AcDbEntity
  8
LAY-1
  6
CONTINUOUS
 62
     7
100
AcDbLine
 10
1044.5
 20
474.0
 30
0.0
 11
1043.0
 21
472.5
 31
0.0
  0
LINE
  5
177
100
AcDbEntity
  8
LAY-1
  6
CONTINUOUS
 62
     7
100
AcDbLine
 10
1008.2
 20
467.5
 30
0.0
 11
1007.45
 21
467.933013
 31
0.0
  0
LINE
  5
178
100
AcDbEntity
  8
LAY-1
  6
CONTINUOUS
 62
     7
100
AcDbLine
 10
1013.2
 20
467.5
 30
0.0
 11
1008.2
 21
467.5
 31
0.0
  0
ARC
  5
179
100
AcDbEntity
  8
LAY-1
  6
CONTINUOUS
 62
     7
100
AcDbCircle
 10
1008.881624
 20
470.083121
 30
0.0
 40
2.583121
100
AcDbArc
 50
236.342803
 51
303.657197
  0
LINE
  5
17A
100
AcDbEntity
  8
LAY-1
  6
CONTINUOUS
 62
     7
100
AcDbLine
 10
1018.2
 20
467.5
 30
0.0
 11
1018.95
 21
467.933013
 31
0.0
  0
LINE
  5
17B
100
AcDbEntity
  8
LAY-1
  6
CONTINUOUS
 62
     7
100
AcDbLine
 10
1013.2
 20
467.5
 30
0.0
 11
1018.2
 21
467.5
 31
0.0
  0
ARC
  5
17C
100
AcDbEntity
  8
LAY-1
  6
CONTINUOUS
 62
     7
100
AcDbCircle
 10
1017.518376
 20
470.083121
 30
0.0
 40
2.583121
100
AcDbArc
 50
236.342803
 51
303.657197
  0
ARC
  5
17D
100
AcDbEntity
  8
LAY-1
  6
CONTINUOUS
 62
     7
100
AcDbCircle
 10
1013.2
 20
477.339011
 30
0.0
 40
9.839011
100
AcDbArc
 50
252.938469
 51
287.061531
  0
LINE
  5
17E
100
AcDbEntity
  8
LAY-1
  6
CONTINUOUS
 62
     7
100
AcDbLine
 10
1007.45
 20
467.933013
 30
0.0
 11
1007.45
 21
472.5
 31
0.0
  0
LINE
  5
17F
100
AcDbEntity
  8
LAY-1
  6
CONTINUOUS
 62
     7
100
AcDbLine
 10
1010.313249
 20
467.933013
 30
0.0
 11
1010.313249
 21
472.5
 31
0.0
  0
LINE
  5
180
100
AcDbEntity
  8
LAY-1
  6
CONTINUOUS
 62
     7
100
AcDbLine
 10
1018.95
 20
467.933013
 30
0.0
 11
1018.95
 21
472.5
 31
0.0
  0
LINE
  5
181
100
AcDbEntity
  8
LAY-1
  6
CONTINUOUS
 62
     7
100
AcDbLine
 10
1016.086751
 20
467.933013
 30
0.0
 11
1016.086751
 21
472.5
 31
0.0
  0
LINE
  5
182
100
AcDbEntity
  8
LAY-1
  6
CONTINUOUS
 62
     7
100
AcDbLine
 10
1019.3
 20
472.5
 30
0.0
 11
1019.3
 21
474.0
 31
0.0
  0
LINE
  5
183
100
AcDbEntity
  8
LAY-1
  6
CONTINUOUS
 62
     7
100
AcDbLine
 10
1013.2
 20
472.5
 30
0.0
 11
1019.3
 21
472.5
 31
0.0
  0
LINE
  5
184
100
AcDbEntity
  8
LAY-1
  6
CONTINUOUS
 62
     7
100
AcDbLine
 10
1007.1
 20
472.5
 30
0.0
 11
1007.1
 21
474.0
 31
0.0
  0
LINE
  5
185
100
AcDbEntity
  8
LAY-1
  6
CONTINUOUS
 62
     7
100
AcDbLine
 10
1013.2
 20
472.5
 30
0.0
 11
1007.1
 21
472.5
 31
0.0
  0
LINE
  5
186
100
AcDbEntity
  8
LAY-1
  6
CONTINUOUS
 62
     7
100
AcDbLine
 10
1013.2
 20
474.0
 30
0.0
 11
1007.1
 21
474.0
 31
0.0
  0
LINE
  5
187
100
AcDbEntity
  8
LAY-1
  6
CONTINUOUS
 62
     7
100
AcDbLine
 10
1011.7
 20
472.5
 30
0.0
 11
1013.2
 21
474.0
 31
0.0
  0
LINE
  5
188
100
AcDbEntity
  8
LAY-1
  6
CONTINUOUS
 62
     7
100
AcDbLine
 10
1014.7
 20
474.0
 30
0.0
 11
1013.2
 21
472.5
 31
0.0
  0
LINE
  5
189
100
AcDbEntity
  8
LAY-1
  6
CONTINUOUS
 62
     7
100
AcDbLine
 10
926.035748
 20
430.0
 30
0.0
 11
925.535748
 21
429.5
 31
0.0
  0
LINE
  5
18A
100
AcDbEntity
  8
LAY-1
  6
CONTINUOUS
 62
     7
100
AcDbLine
 10
926.035748
 20
437.0
 30
0.0
 11
926.035748
 21
430.0
 31
0.0
  0
LINE
  5
18B
100
AcDbEntity
  8
LAY-1
  6
CONTINUOUS
 62
     7
100
AcDbLine
 10
925.035748
 20
438.0
 30
0.0
 11
926.035748
 21
437.0
 31
0.0
  0
LINE
  5
18C
100
AcDbEntity
  8
LAY-1
  6
CONTINUOUS
 62
     7
100
AcDbLine
 10
921.535748
 20
437.0
 30
0.0
 11
926.035748
 21
437.0
 31
0.0
  0
LINE
  5
18D
100
AcDbEntity
  8
LAY-1
  6
CONTINUOUS
 62
     7
100
AcDbLine
 10
883.035748
 20
444.0
 30
0.0
 11
883.035748
 21
437.412745
 31
0.0
  0
LINE
  5
18E
100
AcDbEntity
  8
LAY-1
  6
CONTINUOUS
 62
     7
100
AcDbLine
 10
883.035748
 20
450.5
 30
0.0
 11
883.035748
 21
444.0
 31
0.0
  0
LINE
  5
18F
100
AcDbEntity
  8
LAY-1
  6
CONTINUOUS
 62
     7
100
AcDbLine
 10
882.535748
 20
451.0
 30
0.0
 11
880.535748
 21
451.0
 31
0.0
  0
LINE
  5
190
100
AcDbEntity
  8
LAY-1
  6
CONTINUOUS
 62
     7
100
AcDbLine
 10
880.035748
 20
450.5
 30
0.0
 11
880.035748
 21
444.0
 31
0.0
  0
ARC
  5
191
100
AcDbEntity
  8
LAY-1
  6
CONTINUOUS
 62
     7
100
AcDbCircle
 10
882.535748
 20
450.5
 30
0.0
 40
0.5
100
AcDbArc
 50
0.0
 51
90.0
  0
ARC
  5
192
100
AcDbEntity
  8
LAY-1
  6
CONTINUOUS
 62
     7
100
AcDbCircle
 10
880.535748
 20
450.5
 30
0.0
 40
0.5
100
AcDbArc
 50
90.0
 51
180.0
  0
ARC
  5
193
100
AcDbEntity
  8
LAY-1
  6
CONTINUOUS
 62
     7
100
AcDbCircle
 10
883.535748
 20
450.0
 30
0.0
 40
0.5
100
AcDbArc
 50
180.0
 51
270.0
  0
ARC
  5
194
100
AcDbEntity
  8
LAY-1
  6
CONTINUOUS
 62
     7
100
AcDbCircle
 10
883.535748
 20
438.0
 30
0.0
 40
0.5
100
AcDbArc
 50
90.0
 51
180.0
  0
ARC
  5
195
100
AcDbEntity
  8
LAY-1
  6
CONTINUOUS
 62
     7
100
AcDbCircle
 10
880.535748
 20
437.5
 30
0.0
 40
0.5
100
AcDbArc
 50
180.0
 51
270.0
  0
ARC
  5
196
100
AcDbEntity
  8
LAY-1
  6
CONTINUOUS
 62
     7
100
AcDbCircle
 10
882.535748
 20
437.5
 30
0.0
 40
0.5
100
AcDbArc
 50
270.0
 51
0.0
  0
LINE
  5
197
100
AcDbEntity
  8
LAY-1
  6
CONTINUOUS
 62
     7
100
AcDbLine
 10
880.035748
 20
437.5
 30
0.0
 11
880.035748
 21
444.0
 31
0.0
  0
LINE
  5
198
100
AcDbEntity
  8
LAY-1
  6
CONTINUOUS
 62
     7
100
AcDbLine
 10
882.535748
 20
437.0
 30
0.0
 11
880.535748
 21
437.0
 31
0.0
  0
LINE
  5
199
100
AcDbEntity
  8
LAY-1
  6
CONTINUOUS
 62
     7
100
AcDbLine
 10
883.535748
 20
449.5
 30
0.0
 11
894.535748
 21
449.5
 31
0.0
  0
LINE
  5
19A
100
AcDbEntity
  8
LAY-1
  6
CONTINUOUS
 62
     7
100
AcDbLine
 10
883.535748
 20
438.5
 30
0.0
 11
894.535748
 21
438.5
 31
0.0
  0
LINE
  5
19B
100
AcDbEntity
  8
LAY-1
  6
CONTINUOUS
 62
     7
100
AcDbLine
 10
904.035748
 20
413.885881
 30
0.0
 11
905.223729
 21
413.2
 31
0.0
  0
LINE
  5
19C
100
AcDbEntity
  8
LAY-1
  6
CONTINUOUS
 62
     7
100
AcDbLine
 10
905.223729
 20
413.2
 30
0.0
 11
923.847767
 21
413.2
 31
0.0
  0
LINE
  5
19D
100
AcDbEntity
  8
LAY-1
  6
CONTINUOUS
 62
     7
100
AcDbLine
 10
923.847767
 20
413.2
 30
0.0
 11
925.035748
 21
413.885881
 31
0.0
  0
LINE
  5
19E
100
AcDbEntity
  8
LAY-1
  6
CONTINUOUS
 62
     7
100
AcDbLine
 10
923.847767
 20
413.885881
 30
0.0
 11
925.035748
 21
413.885881
 31
0.0
  0
LINE
  5
19F
100
AcDbEntity
  8
LAY-1
  6
CONTINUOUS
 62
     7
100
AcDbLine
 10
905.223729
 20
413.885881
 30
0.0
 11
904.035748
 21
413.885881
 31
0.0
  0
LINE
  5
1A0
100
AcDbEntity
  8
LAY-1
  6
CONTINUOUS
 62
     7
100
AcDbLine
 10
915.723729
 20
413.885881
 30
0.0
 11
913.347767
 21
413.885881
 31
0.0
  0
ARC
  5
1A1
100
AcDbEntity
  8
LAY-1
  6
CONTINUOUS
 62
     7
100
AcDbCircle
 10
919.785748
 20
425.571266
 30
0.0
 40
12.371266
100
AcDbArc
 50
250.831763
 51
289.168237
  0
ARC
  5
1A2
100
AcDbEntity
  8
LAY-1
  6
CONTINUOUS
 62
     7
100
AcDbCircle
 10
909.285748
 20
425.571266
 30
0.0
 40
12.371266
100
AcDbArc
 50
250.831763
 51
289.168237
  0
LINE
  5
1A3
100
AcDbEntity
  8
LAY-1
  6
CONTINUOUS
 62
     7
100
AcDbLine
 10
922.618651
 20
403.825327
 30
0.0
 11
922.618651
 21
409.200113
 31
0.0
  0
LINE
  5
1A4
100
AcDbEntity
  8
LAY-1
  6
CONTINUOUS
 62
     7
100
AcDbLine
 10
921.535748
 20
403.200113
 30
0.0
 11
922.618651
 21
403.825327
 31
0.0
  0
LINE
  5
1A5
100
AcDbEntity
  8
LAY-1
  6
CONTINUOUS
 62
     7
100
AcDbLine
 10
907.538198
 20
409.200113
 30
0.0
 11
907.677882
 21
413.200113
 31
0.0
  0
LINE
  5
1A6
100
AcDbEntity
  8
LAY-1
  6
CONTINUOUS
 62
     7
100
AcDbLine
 10
921.5333
 20
409.200027
 30
0.0
 11
921.393614
 21
413.200113
 31
0.0
  0
ARC
  5
1A7
100
AcDbEntity
  8
LAY-1
  6
CONTINUOUS
 62
     7
100
AcDbCircle
 10
914.535748
 20
416.574898
 30
0.0
 40
13.374785
100
AcDbArc
 50
252.412046
 51
287.587954
  0
ARC
  5
1A8
100
AcDbEntity
  8
LAY-1
  6
CONTINUOUS
 62
     7
100
AcDbCircle
 10
920.597926
 20
406.778264
 30
0.0
 40
3.578152
100
AcDbArc
 50
235.615753
 51
304.384247
  0
LINE
  5
1A9
100
AcDbEntity
  8
LAY-1
  6
CONTINUOUS
 62
     7
100
AcDbLine
 10
918.5772
 20
409.200113
 30
0.0
 11
918.5772
 21
403.825327
 31
0.0
  0
LINE
  5
1AA
100
AcDbEntity
  8
LAY-1
  6
CONTINUOUS
 62
     7
100
AcDbLine
 10
906.452844
 20
409.200113
 30
0.0
 11
907.538198
 21
409.200113
 31
0.0
  0
LINE
  5
1AB
100
AcDbEntity
  8
LAY-1
  6
CONTINUOUS
 62
     7
100
AcDbLine
 10
906.452844
 20
403.825327
 30
0.0
 11
906.452844
 21
409.200113
 31
0.0
  0
LINE
  5
1AC
100
AcDbEntity
  8
LAY-1
  6
CONTINUOUS
 62
     7
100
AcDbLine
 10
907.535748
 20
403.200113
 30
0.0
 11
906.452844
 21
403.825327
 31
0.0
  0
LINE
  5
1AD
100
AcDbEntity
  8
LAY-1
  6
CONTINUOUS
 62
     7
100
AcDbLine
 10
910.494296
 20
409.200113
 30
0.0
 11
910.494296
 21
403.825327
 31
0.0
  0
ARC
  5
1AE
100
AcDbEntity
  8
LAY-1
  6
CONTINUOUS
 62
     7
100
AcDbCircle
 10
908.47357
 20
406.778264
 30
0.0
 40
3.578152
100
AcDbArc
 50
235.615753
 51
304.384247
  0
LINE
  5
1AF
100
AcDbEntity
  8
LAY-1
  6
CONTINUOUS
 62
     7
100
AcDbLine
 10
921.535748
 20
403.200113
 30
0.0
 11
907.535748
 21
403.200113
 31
0.0
  0
LINE
  5
1B0
100
AcDbEntity
  8
LAY-1
  6
CONTINUOUS
 62
     7
100
AcDbLine
 10
921.498376
 20
410.200113
 30
0.0
 11
914.535748
 21
410.200113
 31
0.0
  0
LINE
  5
1B1
100
AcDbEntity
  8
LAY-1
  6
CONTINUOUS
 62
     7
100
AcDbLine
 10
907.573119
 20
410.200113
 30
0.0
 11
914.535748
 21
410.200113
 31
0.0
  0
LINE
  5
1B2
100
AcDbEntity
  8
LAY-1
  6
CONTINUOUS
 62
     7
100
AcDbLine
 10
907.538198
 20
409.200113
 30
0.0
 11
914.535748
 21
409.200113
 31
0.0
  0
LINE
  5
1B3
100
AcDbEntity
  8
LAY-1
  6
CONTINUOUS
 62
     7
100
AcDbLine
 10
914.305748
 20
409.200113
 30
0.0
 11
922.618651
 21
409.200113
 31
0.0
  0
LINE
  5
1B4
100
AcDbEntity
  8
LAY-1
  6
CONTINUOUS
 62
     7
100
AcDbLine
 10
896.535748
 20
437.5
 30
0.0
 11
896.535748
 21
437.2
 31
0.0
  0
LINE
  5
1B5
100
AcDbEntity
  8
LAY-1
  6
CONTINUOUS
 62
     7
100
AcDbLine
 10
897.535748
 20
441.5
 30
0.0
 11
897.535748
 21
437.5
 31
0.0
  0
LINE
  5
1B6
100
AcDbEntity
  8
LAY-1
  6
CONTINUOUS
 62
     7
100
AcDbLine
 10
923.535748
 20
450.0
 30
0.0
 11
923.535748
 21
438.0
 31
0.0
  0
LINE
  5
1B7
100
AcDbEntity
  8
LAY-1
  6
CONTINUOUS
 62
     7
100
AcDbLine
 10
904.035748
 20
438.0
 30
0.0
 11
914.535748
 21
438.0
 31
0.0
  0
LINE
  5
1B8
100
AcDbEntity
  8
LAY-1
  6
CONTINUOUS
 62
     7
100
AcDbLine
 10
925.535748
 20
429.5
 30
0.0
 11
903.535748
 21
429.5
 31
0.0
  0
LINE
  5
1B9
100
AcDbEntity
  8
LAY-1
  6
CONTINUOUS
 62
     7
100
AcDbLine
 10
925.035748
 20
444.0
 30
0.0
 11
925.035748
 21
438.0
 31
0.0
  0
LINE
  5
1BA
100
AcDbEntity
  8
LAY-1
  6
CONTINUOUS
 62
     7
100
AcDbLine
 10
925.035748
 20
465.5
 30
0.0
 11
925.035748
 21
444.0
 31
0.0
  0
LINE
  5
1BB
100
AcDbEntity
  8
LAY-1
  6
CONTINUOUS
 62
     7
100
AcDbLine
 10
904.535748
 20
466.0
 30
0.0
 11
924.535748
 21
466.0
 31
0.0
  0
LINE
  5
1BC
100
AcDbEntity
  8
LAY-1
  6
CONTINUOUS
 62
     7
100
AcDbLine
 10
904.035748
 20
438.0
 30
0.0
 11
904.035748
 21
465.5
 31
0.0
  0
LINE
  5
1BD
100
AcDbEntity
  8
LAY-1
  6
CONTINUOUS
 62
     7
100
AcDbLine
 10
903.035748
 20
430.0
 30
0.0
 11
903.035748
 21
437.0
 31
0.0
  0
LINE
  5
1BE
100
AcDbEntity
  8
LAY-1
  6
CONTINUOUS
 62
     7
100
AcDbLine
 10
921.535748
 20
437.0
 30
0.0
 11
905.235748
 21
437.0
 31
0.0
  0
LINE
  5
1BF
100
AcDbEntity
  8
LAY-1
  6
CONTINUOUS
 62
     7
100
AcDbLine
 10
923.535748
 20
450.0
 30
0.0
 11
914.535748
 21
450.0
 31
0.0
  0
LINE
  5
1C0
100
AcDbEntity
  8
LAY-1
  6
CONTINUOUS
 62
     7
100
AcDbLine
 10
924.535748
 20
466.0
 30
0.0
 11
925.035748
 21
465.5
 31
0.0
  0
LINE
  5
1C1
100
AcDbEntity
  8
LAY-1
  6
CONTINUOUS
 62
     7
100
AcDbLine
 10
905.223729
 20
465.5
 30
0.0
 11
905.223729
 21
453.5
 31
0.0
  0
LINE
  5
1C2
100
AcDbEntity
  8
LAY-1
  6
CONTINUOUS
 62
     7
100
AcDbLine
 10
903.535748
 20
429.5
 30
0.0
 11
903.035748
 21
430.0
 31
0.0
  0
LINE
  5
1C3
100
AcDbEntity
  8
LAY-1
  6
CONTINUOUS
 62
     7
100
AcDbLine
 10
905.223729
 20
453.5
 30
0.0
 11
913.347767
 21
453.5
 31
0.0
  0
LINE
  5
1C4
100
AcDbEntity
  8
LAY-1
  6
CONTINUOUS
 62
     7
100
AcDbLine
 10
913.347767
 20
453.5
 30
0.0
 11
913.347767
 21
465.5
 31
0.0
  0
LINE
  5
1C5
100
AcDbEntity
  8
LAY-1
  6
CONTINUOUS
 62
     7
100
AcDbLine
 10
915.723729
 20
465.5
 30
0.0
 11
915.723729
 21
453.5
 31
0.0
  0
LINE
  5
1C6
100
AcDbEntity
  8
LAY-1
  6
CONTINUOUS
 62
     7
100
AcDbLine
 10
915.723729
 20
453.5
 30
0.0
 11
923.847767
 21
453.5
 31
0.0
  0
LINE
  5
1C7
100
AcDbEntity
  8
LAY-1
  6
CONTINUOUS
 62
     7
100
AcDbLine
 10
923.847767
 20
453.5
 30
0.0
 11
923.847767
 21
465.5
 31
0.0
  0
LINE
  5
1C8
100
AcDbEntity
  8
LAY-1
  6
CONTINUOUS
 62
     7
100
AcDbLine
 10
904.035748
 20
451.5
 30
0.0
 11
914.535748
 21
451.5
 31
0.0
  0
LINE
  5
1C9
100
AcDbEntity
  8
LAY-1
  6
CONTINUOUS
 62
     7
100
AcDbLine
 10
914.535748
 20
451.5
 30
0.0
 11
925.035748
 21
451.5
 31
0.0
  0
LINE
  5
1CA
100
AcDbEntity
  8
LAY-1
  6
CONTINUOUS
 62
     7
100
AcDbLine
 10
925.035748
 20
451.5
 30
0.0
 11
923.535748
 21
450.0
 31
0.0
  0
LINE
  5
1CB
100
AcDbEntity
  8
LAY-1
  6
CONTINUOUS
 62
     7
100
AcDbLine
 10
914.535748
 20
450.0
 30
0.0
 11
905.535748
 21
450.0
 31
0.0
  0
LINE
  5
1CC
100
AcDbEntity
  8
LAY-1
  6
CONTINUOUS
 62
     7
100
AcDbLine
 10
904.035748
 20
427.314119
 30
0.0
 11
904.035748
 21
413.885881
 31
0.0
  0
LINE
  5
1CD
100
AcDbEntity
  8
LAY-1
  6
CONTINUOUS
 62
     7
100
AcDbLine
 10
925.035748
 20
413.885881
 30
0.0
 11
925.035748
 21
427.314119
 31
0.0
  0
LINE
  5
1CE
100
AcDbEntity
  8
LAY-1
  6
CONTINUOUS
 62
     7
100
AcDbLine
 10
904.035748
 20
427.314119
 30
0.0
 11
905.223729
 21
428.0
 31
0.0
  0
LINE
  5
1CF
100
AcDbEntity
  8
LAY-1
  6
CONTINUOUS
 62
     7
100
AcDbLine
 10
923.847767
 20
428.0
 30
0.0
 11
925.035748
 21
427.314119
 31
0.0
  0
LINE
  5
1D0
100
AcDbEntity
  8
LAY-1
  6
CONTINUOUS
 62
     7
100
AcDbLine
 10
925.035748
 20
427.314119
 30
0.0
 11
923.847767
 21
427.314119
 31
0.0
  0
ARC
  5
1D1
100
AcDbEntity
  8
LAY-1
  6
CONTINUOUS
 62
     7
100
AcDbCircle
 10
909.285748
 20
415.628734
 30
0.0
 40
12.371266
100
AcDbArc
 50
70.831763
 51
109.168237
  0
LINE
  5
1D2
100
AcDbEntity
  8
LAY-1
  6
CONTINUOUS
 62
     7
100
AcDbLine
 10
904.035748
 20
427.314119
 30
0.0
 11
905.223729
 21
427.314119
 31
0.0
  0
ARC
  5
1D3
100
AcDbEntity
  8
LAY-1
  6
CONTINUOUS
 62
     7
100
AcDbCircle
 10
919.785748
 20
415.628734
 30
0.0
 40
12.371266
100
AcDbArc
 50
70.831763
 51
109.168237
  0
LINE
  5
1D4
100
AcDbEntity
  8
LAY-1
  6
CONTINUOUS
 62
     7
100
AcDbLine
 10
913.347767
 20
427.314119
 30
0.0
 11
915.723729
 21
427.314119
 31
0.0
  0
LINE
  5
1D5
100
AcDbEntity
  8
LAY-1
  6
CONTINUOUS
 62
     7
100
AcDbLine
 10
915.723729
 20
427.314119
 30
0.0
 11
915.723729
 21
413.885881
 31
0.0
  0
LINE
  5
1D6
100
AcDbEntity
  8
LAY-1
  6
CONTINUOUS
 62
     7
100
AcDbLine
 10
913.347767
 20
413.885881
 30
0.0
 11
913.347767
 21
427.314119
 31
0.0
  0
LINE
  5
1D7
100
AcDbEntity
  8
LAY-1
  6
CONTINUOUS
 62
     7
100
AcDbLine
 10
905.223729
 20
427.314119
 30
0.0
 11
905.223729
 21
413.885881
 31
0.0
  0
LINE
  5
1D8
100
AcDbEntity
  8
LAY-1
  6
CONTINUOUS
 62
     7
100
AcDbLine
 10
923.847767
 20
413.885881
 30
0.0
 11
923.847767
 21
427.314119
 31
0.0
  0
LINE
  5
1D9
100
AcDbEntity
  8
LAY-1
  6
CONTINUOUS
 62
     7
100
AcDbLine
 10
924.035748
 20
428.0
 30
0.0
 11
924.035748
 21
429.5
 31
0.0
  0
LINE
  5
1DA
100
AcDbEntity
  8
LAY-1
  6
CONTINUOUS
 62
     7
100
AcDbLine
 10
905.035748
 20
428.0
 30
0.0
 11
924.035748
 21
428.0
 31
0.0
  0
ARC
  5
1DB
100
AcDbEntity
  8
LAY-1
  6
CONTINUOUS
 62
     7
100
AcDbCircle
 10
909.285748
 20
449.25
 30
0.0
 40
16.75
100
AcDbArc
 50
75.965352
 51
104.034648
  0
LINE
  5
1DC
100
AcDbEntity
  8
LAY-1
  6
CONTINUOUS
 62
     7
100
AcDbLine
 10
905.035748
 20
429.5
 30
0.0
 11
905.035748
 21
428.0
 31
0.0
  0
ARC
  5
1DD
100
AcDbEntity
  8
LAY-1
  6
CONTINUOUS
 62
     7
100
AcDbCircle
 10
919.785748
 20
449.25
 30
0.0
 40
16.75
100
AcDbArc
 50
75.965352
 51
104.034648
  0
LINE
  5
1DE
100
AcDbEntity
  8
LAY-1
  6
CONTINUOUS
 62
     7
100
AcDbLine
 10
904.035748
 20
465.5
 30
0.0
 11
905.223729
 21
465.5
 31
0.0
  0
LINE
  5
1DF
100
AcDbEntity
  8
LAY-1
  6
CONTINUOUS
 62
     7
100
AcDbLine
 10
913.347767
 20
465.5
 30
0.0
 11
915.723729
 21
465.5
 31
0.0
  0
LINE
  5
1E0
100
AcDbEntity
  8
LAY-1
  6
CONTINUOUS
 62
     7
100
AcDbLine
 10
923.847767
 20
465.5
 30
0.0
 11
925.035748
 21
465.5
 31
0.0
  0
LINE
  5
1E1
100
AcDbEntity
  8
LAY-1
  6
CONTINUOUS
 62
     7
100
AcDbLine
 10
904.035748
 20
465.5
 30
0.0
 11
904.535748
 21
466.0
 31
0.0
  0
LINE
  5
1E2
100
AcDbEntity
  8
LAY-1
  6
CONTINUOUS
 62
     7
100
AcDbLine
 10
925.035748
 20
438.0
 30
0.0
 11
914.535748
 21
438.0
 31
0.0
  0
LINE
  5
1E3
100
AcDbEntity
  8
LAY-1
  6
CONTINUOUS
 62
     7
100
AcDbLine
 10
900.035748
 20
451.0
 30
0.0
 11
894.535748
 21
451.0
 31
0.0
  0
LINE
  5
1E4
100
AcDbEntity
  8
LAY-1
  6
CONTINUOUS
 62
     7
100
AcDbLine
 10
897.035748
 20
436.7
 30
0.0
 11
900.035748
 21
436.7
 31
0.0
  0
LINE
  5
1E5
100
AcDbEntity
  8
LAY-1
  6
CONTINUOUS
 62
     7
100
AcDbLine
 10
900.035748
 20
446.5
 30
0.0
 11
900.035748
 21
441.5
 31
0.0
  0
LINE
  5
1E6
100
AcDbEntity
  8
LAY-1
  6
CONTINUOUS
 62
     7
100
AcDbLine
 10
900.035748
 20
441.5
 30
0.0
 11
897.535748
 21
441.5
 31
0.0
  0
LINE
  5
1E7
100
AcDbEntity
  8
LAY-1
  6
CONTINUOUS
 62
     7
100
AcDbLine
 10
900.035748
 20
451.0
 30
0.0
 11
900.035748
 21
446.5
 31
0.0
  0
LINE
  5
1E8
100
AcDbEntity
  8
LAY-1
  6
CONTINUOUS
 62
     7
100
AcDbLine
 10
894.535748
 20
451.0
 30
0.0
 11
894.535748
 21
437.2
 31
0.0
  0
LINE
  5
1E9
100
AcDbEntity
  8
LAY-1
  6
CONTINUOUS
 62
     7
100
AcDbLine
 10
897.535748
 20
437.5
 30
0.0
 11
903.535748
 21
437.5
 31
0.0
  0
LINE
  5
1EA
100
AcDbEntity
  8
LAY-1
  6
CONTINUOUS
 62
     7
100
AcDbLine
 10
900.035748
 20
450.5
 30
0.0
 11
904.035748
 21
450.5
 31
0.0
  0
ARC
  5
1EB
100
AcDbEntity
  8
LAY-1
  6
CONTINUOUS
 62
     7
100
AcDbCircle
 10
897.035748
 20
437.2
 30
0.0
 40
0.5
100
AcDbArc
 50
180.0
 51
270.0
  0
LINE
  5
1EC
100
AcDbEntity
  8
LAY-1
  6
CONTINUOUS
 62
     7
100
AcDbLine
 10
896.535748
 20
437.5
 30
0.0
 11
897.535748
 21
437.5
 31
0.0
  0
LINE
  5
1ED
100
AcDbEntity
  8
LAY-1
  6
CONTINUOUS
 62
     7
100
AcDbLine
 10
903.035748
 20
437.0
 30
0.0
 11
904.035748
 21
438.0
 31
0.0
  0
LINE
  5
1EE
100
AcDbEntity
  8
LAY-1
  6
CONTINUOUS
 62
     7
100
AcDbLine
 10
905.535748
 20
450.0
 30
0.0
 11
904.035748
 21
451.5
 31
0.0
  0
LINE
  5
1EF
100
AcDbEntity
  8
LAY-1
  6
CONTINUOUS
 62
     7
100
AcDbLine
 10
905.535748
 20
450.0
 30
0.0
 11
905.535748
 21
438.0
 31
0.0
  0
LINE
  5
1F0
100
AcDbEntity
  8
LAY-1
  6
CONTINUOUS
 62
     7
100
AcDbLine
 10
903.035748
 20
437.0
 30
0.0
 11
905.235748
 21
437.0
 31
0.0
  0
ARC
  5
1F1
100
AcDbEntity
  8
LAY-1
  6
CONTINUOUS
 62
     7
100
AcDbCircle
 10
897.035748
 20
437.2
 30
0.0
 40
2.5
100
AcDbArc
 50
180.0
 51
270.0
  0
LINE
  5
1F2
100
AcDbEntity
  8
LAY-1
  6
CONTINUOUS
 62
     7
100
AcDbLine
 10
897.035748
 20
434.7
 30
0.0
 11
900.035748
 21
434.7
 31
0.0
  0
LINE
  5
1F3
100
AcDbEntity
  8
LAY-1
  6
CONTINUOUS
 62
     7
100
AcDbLine
 10
900.035748
 20
436.7
 30
0.0
 11
900.035748
 21
434.7
 31
0.0
  0
LINE
  5
1F4
100
AcDbEntity
  8
LAY-1
  6
CONTINUOUS
 62
     7
100
AcDbLine
 10
990.4
 20
352.0
 30
0.0
 11
987.6
 21
354.8
 31
0.0
  0
LINE
  5
1F5
100
AcDbEntity
  8
LAY-1
  6
CONTINUOUS
 62
     7
100
AcDbLine
 10
957.6
 20
352.0
 30
0.0
 11
960.4
 21
354.8
 31
0.0
  0
LINE
  5
1F6
100
AcDbEntity
  8
LAY-1
  6
CONTINUOUS
 62
     7
100
AcDbLine
 10
987.6
 20
354.8
 30
0.0
 11
960.4
 21
354.8
 31
0.0
  0
LINE
  5
1F7
100
AcDbEntity
  8
LAY-1
  6
CONTINUOUS
 62
     7
100
AcDbLine
 10
974.0
 20
457.06
 30
0.0
 11
960.481687
 21
457.06
 31
0.0
  0
LINE
  5
1F8
100
AcDbEntity
  8
LAY-1
  6
CONTINUOUS
 62
     7
100
AcDbLine
 10
974.0
 20
457.06
 30
0.0
 11
987.518312
 21
457.06
 31
0.0
  0
LINE
  5
1F9
100
AcDbEntity
  8
LAY-1
  6
CONTINUOUS
 62
     7
100
AcDbLine
 10
987.6
 20
478.0
 30
0.0
 11
987.6
 21
459.674
 31
0.0
  0
LINE
  5
1FA
100
AcDbEntity
  8
LAY-1
  6
CONTINUOUS
 62
     7
100
AcDbLine
 10
960.4
 20
478.0
 30
0.0
 11
960.4
 21
459.188853
 31
0.0
  0
LINE
  5
1FB
100
AcDbEntity
  8
LAY-1
  6
CONTINUOUS
 62
     7
100
AcDbLine
 10
987.6
 20
459.674
 30
0.0
 11
987.235187
 21
448.0
 31
0.0
  0
LINE
  5
1FC
100
AcDbEntity
  8
LAY-1
  6
CONTINUOUS
 62
     7
100
AcDbLine
 10
960.4
 20
459.674
 30
0.0
 11
960.764812
 21
448.0
 31
0.0
  0
LINE
  5
1FD
100
AcDbEntity
  8
LAY-1
  6
CONTINUOUS
 62
     7
100
AcDbLine
 10
990.0
 20
408.0
 30
0.0
 11
958.0
 21
408.0
 31
0.0
  0
LINE
  5
1FE
100
AcDbEntity
  8
LAY-1
  6
CONTINUOUS
 62
     7
100
AcDbLine
 10
990.0
 20
448.0
 30
0.0
 11
958.0
 21
448.0
 31
0.0
  0
LINE
  5
1FF
100
AcDbEntity
  8
LAY-1
  6
CONTINUOUS
 62
     7
100
AcDbLine
 10
990.0
 20
448.0
 30
0.0
 11
990.0
 21
408.0
 31
0.0
  0
LINE
  5
200
100
AcDbEntity
  8
LAY-1
  6
CONTINUOUS
 62
     7
100
AcDbLine
 10
958.0
 20
448.0
 30
0.0
 11
958.0
 21
408.0
 31
0.0
  0
LINE
  5
201
100
AcDbEntity
  8
LAY-1
  6
CONTINUOUS
 62
     7
100
AcDbLine
 10
974.0
 20
398.94
 30
0.0
 11
960.481687
 21
398.94
 31
0.0
  0
LINE
  5
202
100
AcDbEntity
  8
LAY-1
  6
CONTINUOUS
 62
     7
100
AcDbLine
 10
974.0
 20
398.94
 30
0.0
 11
987.518312
 21
398.94
 31
0.0
  0
LINE
  5
203
100
AcDbEntity
  8
LAY-1
  6
CONTINUOUS
 62
     7
100
AcDbLine
 10
987.6
 20
396.326
 30
0.0
 11
987.235187
 21
408.0
 31
0.0
  0
LINE
  5
204
100
AcDbEntity
  8
LAY-1
  6
CONTINUOUS
 62
     7
100
AcDbLine
 10
960.4
 20
396.326
 30
0.0
 11
960.764812
 21
408.0
 31
0.0
  0
LINE
  5
205
100
AcDbEntity
  8
LAY-1
  6
CONTINUOUS
 62
     7
100
AcDbLine
 10
987.6
 20
396.811147
 30
0.0
 11
987.6
 21
354.8
 31
0.0
  0
LINE
  5
206
100
AcDbEntity
  8
LAY-1
  6
CONTINUOUS
 62
     7
100
AcDbLine
 10
960.4
 20
396.811147
 30
0.0
 11
960.4
 21
354.8
 31
0.0
  0
LINE
  5
207
100
AcDbEntity
  8
LAY-1
  6
CONTINUOUS
 62
     7
100
AcDbLine
 10
1024.0
 20
352.0
 30
0.0
 11
974.0
 21
352.0
 31
0.0
  0
LINE
  5
208
100
AcDbEntity
  8
LAY-1
  6
CONTINUOUS
 62
     7
100
AcDbLine
 10
924.0
 20
352.0
 30
0.0
 11
974.0
 21
352.0
 31
0.0
  0
LINE
  5
209
100
AcDbEntity
  8
LAY-1
  6
CONTINUOUS
 62
     7
100
AcDbLine
 10
924.0
 20
338.0
 30
0.0
 11
924.0
 21
352.0
 31
0.0
  0
LINE
  5
20A
100
AcDbEntity
  8
LAY-1
  6
CONTINUOUS
 62
     7
100
AcDbLine
 10
1024.0
 20
338.0
 30
0.0
 11
1024.0
 21
352.0
 31
0.0
  0
LINE
  5
20B
100
AcDbEntity
  8
LAY-1
  6
CONTINUOUS
 62
     7
100
AcDbLine
 10
974.0
 20
338.0
 30
0.0
 11
1024.0
 21
338.0
 31
0.0
  0
LINE
  5
20C
100
AcDbEntity
  8
LAY-1
  6
CONTINUOUS
 62
     7
100
AcDbLine
 10
974.0
 20
338.0
 30
0.0
 11
924.0
 21
338.0
 31
0.0
  0
LINE
  5
20D
100
AcDbEntity
  8
LAY-1
  6
CONTINUOUS
 62
     7
100
AcDbLine
 10
1084.0
 20
771.0
 30
0.0
 11
1004.0
 21
771.0
 31
0.0
  0
LINE
  5
20E
100
AcDbEntity
  8
LAY-1
  6
CONTINUOUS
 62
     7
100
AcDbLine
 10
1004.0
 20
701.0
 30
0.0
 11
1084.0
 21
701.0
 31
0.0
  0
LINE
  5
20F
100
AcDbEntity
  8
LAY-1
  6
CONTINUOUS
 62
     7
100
AcDbLine
 10
1084.0
 20
701.0
 30
0.0
 11
1084.0
 21
771.0
 31
0.0
  0
LINE
  5
210
100
AcDbEntity
  8
LAY-1
  6
CONTINUOUS
 62
     7
100
AcDbLine
 10
924.0
 20
771.0
 30
0.0
 11
1004.0
 21
771.0
 31
0.0
  0
LINE
  5
211
100
AcDbEntity
  8
LAY-1
  6
CONTINUOUS
 62
     7
100
AcDbLine
 10
1004.0
 20
701.0
 30
0.0
 11
924.0
 21
701.0
 31
0.0
  0
LINE
  5
212
100
AcDbEntity
  8
LAY-1
  6
CONTINUOUS
 62
     7
100
AcDbLine
 10
924.0
 20
701.0
 30
0.0
 11
924.0
 21
771.0
 31
0.0
  0
LINE
  5
213
100
AcDbEntity
  8
LAY-1
  6
CONTINUOUS
 62
     7
100
AcDbLine
 10
1162.0
 20
891.0
 30
0.0
 11
1162.0
 21
861.0
 31
0.0
  0
LINE
  5
214
100
AcDbEntity
  8
LAY-1
  6
CONTINUOUS
 62
     7
100
AcDbLine
 10
1162.0
 20
891.0
 30
0.0
 11
1142.0
 21
891.0
 31
0.0
  0
LINE
  5
215
100
AcDbEntity
  8
LAY-1
  6
CONTINUOUS
 62
     7
100
AcDbLine
 10
1162.0
 20
861.0
 30
0.0
 11
1142.0
 21
861.0
 31
0.0
  0
LINE
  5
216
100
AcDbEntity
  8
LAY-1
  6
CONTINUOUS
 62
     7
100
AcDbLine
 10
1144.5
 20
866.0
 30
0.0
 11
1142.0
 21
866.0
 31
0.0
  0
LINE
  5
217
100
AcDbEntity
  8
LAY-1
  6
CONTINUOUS
 62
     7
100
AcDbLine
 10
1144.5
 20
886.0
 30
0.0
 11
1142.0
 21
886.0
 31
0.0
  0
LINE
  5
218
100
AcDbEntity
  8
LAY-1
  6
CONTINUOUS
 62
     7
100
AcDbLine
 10
1144.5
 20
863.5
 30
0.0
 11
1144.5
 21
876.0
 31
0.0
  0
LINE
  5
219
100
AcDbEntity
  8
LAY-1
  6
CONTINUOUS
 62
     7
100
AcDbLine
 10
1144.5
 20
888.5
 30
0.0
 11
1144.5
 21
876.0
 31
0.0
  0
LINE
  5
21A
100
AcDbEntity
  8
LAY-1
  6
CONTINUOUS
 62
     7
100
AcDbLine
 10
1153.0
 20
888.0
 30
0.0
 11
1144.5
 21
888.5
 31
0.0
  0
ARC
  5
21B
100
AcDbEntity
  8
LAY-1
  6
CONTINUOUS
 62
     7
100
AcDbCircle
 10
1118.0
 20
876.0
 30
0.0
 40
37.0
100
AcDbArc
 50
341.075356
 51
18.924644
  0
LINE
  5
21C
100
AcDbEntity
  8
LAY-1
  6
CONTINUOUS
 62
     7
100
AcDbLine
 10
1153.0
 20
888.0
 30
0.0
 11
1153.0
 21
864.0
 31
0.0
  0
LINE
  5
21D
100
AcDbEntity
  8
LAY-1
  6
CONTINUOUS
 62
     7
100
AcDbLine
 10
1153.0
 20
864.0
 30
0.0
 11
1144.5
 21
863.5
 31
0.0
  0
ARC
  5
21E
100
AcDbEntity
  8
LAY-1
  6
CONTINUOUS
 62
     7
100
AcDbCircle
 10
1154.0
 20
876.0
 30
0.0
 40
5.0
100
AcDbArc
 50
277.662256
 51
82.337744
  0
LINE
  5
21F
100
AcDbEntity
  8
LAY-1
  6
CONTINUOUS
 62
     7
100
AcDbLine
 10
846.0
 20
891.0
 30
0.0
 11
846.0
 21
861.0
 31
0.0
  0
LINE
  5
220
100
AcDbEntity
  8
LAY-1
  6
CONTINUOUS
 62
     7
100
AcDbLine
 10
846.0
 20
891.0
 30
0.0
 11
866.0
 21
891.0
 31
0.0
  0
LINE
  5
221
100
AcDbEntity
  8
LAY-1
  6
CONTINUOUS
 62
     7
100
AcDbLine
 10
846.0
 20
861.0
 30
0.0
 11
866.0
 21
861.0
 31
0.0
  0
LINE
  5
222
100
AcDbEntity
  8
LAY-1
  6
CONTINUOUS
 62
     7
100
AcDbLine
 10
863.5
 20
866.0
 30
0.0
 11
866.0
 21
866.0
 31
0.0
  0
LINE
  5
223
100
AcDbEntity
  8
LAY-1
  6
CONTINUOUS
 62
     7
100
AcDbLine
 10
863.5
 20
886.0
 30
0.0
 11
866.0
 21
886.0
 31
0.0
  0
LINE
  5
224
100
AcDbEntity
  8
LAY-1
  6
CONTINUOUS
 62
     7
100
AcDbLine
 10
863.5
 20
863.5
 30
0.0
 11
863.5
 21
876.0
 31
0.0
  0
LINE
  5
225
100
AcDbEntity
  8
LAY-1
  6
CONTINUOUS
 62
     7
100
AcDbLine
 10
863.5
 20
888.5
 30
0.0
 11
863.5
 21
876.0
 31
0.0
  0
LINE
  5
226
100
AcDbEntity
  8
LAY-1
  6
CONTINUOUS
 62
     7
100
AcDbLine
 10
855.0
 20
888.0
 30
0.0
 11
863.5
 21
888.5
 31
0.0
  0
ARC
  5
227
100
AcDbEntity
  8
LAY-1
  6
CONTINUOUS
 62
     7
100
AcDbCircle
 10
890.0
 20
876.0
 30
0.0
 40
37.0
100
AcDbArc
 50
161.075356
 51
198.924644
  0
LINE
  5
228
100
AcDbEntity
  8
LAY-1
  6
CONTINUOUS
 62
     7
100
AcDbLine
 10
855.0
 20
888.0
 30
0.0
 11
855.0
 21
864.0
 31
0.0
  0
LINE
  5
229
100
AcDbEntity
  8
LAY-1
  6
CONTINUOUS
 62
     7
100
AcDbLine
 10
855.0
 20
864.0
 30
0.0
 11
863.5
 21
863.5
 31
0.0
  0
ARC
  5
22A
100
AcDbEntity
  8
LAY-1
  6
CONTINUOUS
 62
     7
100
AcDbCircle
 10
854.0
 20
876.0
 30
0.0
 40
5.0
100
AcDbArc
 50
97.662256
 51
262.337744
  0
LINE
  5
22B
100
AcDbEntity
  8
LAY-1
  6
CONTINUOUS
 62
     7
100
AcDbLine
 10
1162.0
 20
511.0
 30
0.0
 11
1162.0
 21
481.0
 31
0.0
  0
LINE
  5
22C
100
AcDbEntity
  8
LAY-1
  6
CONTINUOUS
 62
     7
100
AcDbLine
 10
1162.0
 20
511.0
 30
0.0
 11
1142.0
 21
511.0
 31
0.0
  0
ARC
  5
22D
100
AcDbEntity
  8
LAY-1
  6
CONTINUOUS
 62
     7
100
AcDbCircle
 10
1118.0
 20
496.0
 30
0.0
 40
37.0
100
AcDbArc
 50
341.075356
 51
18.924644
  0
LINE
  5
22E
100
AcDbEntity
  8
LAY-1
  6
CONTINUOUS
 62
     7
100
AcDbLine
 10
1153.0
 20
508.0
 30
0.0
 11
1153.0
 21
484.0
 31
0.0
  0
LINE
  5
22F
100
AcDbEntity
  8
LAY-1
  6
CONTINUOUS
 62
     7
100
AcDbLine
 10
1153.0
 20
508.0
 30
0.0
 11
1144.5
 21
508.5
 31
0.0
  0
LINE
  5
230
100
AcDbEntity
  8
LAY-1
  6
CONTINUOUS
 62
     7
100
AcDbLine
 10
1144.5
 20
508.5
 30
0.0
 11
1144.5
 21
496.0
 31
0.0
  0
LINE
  5
231
100
AcDbEntity
  8
LAY-1
  6
CONTINUOUS
 62
     7
100
AcDbLine
 10
1144.5
 20
486.0
 30
0.0
 11
1142.0
 21
486.0
 31
0.0
  0
LINE
  5
232
100
AcDbEntity
  8
LAY-1
  6
CONTINUOUS
 62
     7
100
AcDbLine
 10
1144.5
 20
506.0
 30
0.0
 11
1142.0
 21
506.0
 31
0.0
  0
LINE
  5
233
100
AcDbEntity
  8
LAY-1
  6
CONTINUOUS
 62
     7
100
AcDbLine
 10
1153.0
 20
484.0
 30
0.0
 11
1144.5
 21
483.5
 31
0.0
  0
LINE
  5
234
100
AcDbEntity
  8
LAY-1
  6
CONTINUOUS
 62
     7
100
AcDbLine
 10
1144.5
 20
483.5
 30
0.0
 11
1144.5
 21
496.0
 31
0.0
  0
ARC
  5
235
100
AcDbEntity
  8
LAY-1
  6
CONTINUOUS
 62
     7
100
AcDbCircle
 10
1154.0
 20
496.0
 30
0.0
 40
5.0
100
AcDbArc
 50
277.662256
 51
82.337744
  0
LINE
  5
236
100
AcDbEntity
  8
LAY-1
  6
CONTINUOUS
 62
     7
100
AcDbLine
 10
846.0
 20
511.0
 30
0.0
 11
846.0
 21
481.0
 31
0.0
  0
LINE
  5
237
100
AcDbEntity
  8
LAY-1
  6
CONTINUOUS
 62
     7
100
AcDbLine
 10
846.0
 20
511.0
 30
0.0
 11
866.0
 21
511.0
 31
0.0
  0
ARC
  5
238
100
AcDbEntity
  8
LAY-1
  6
CONTINUOUS
 62
     7
100
AcDbCircle
 10
890.0
 20
496.0
 30
0.0
 40
37.0
100
AcDbArc
 50
161.075356
 51
198.924644
  0
LINE
  5
239
100
AcDbEntity
  8
LAY-1
  6
CONTINUOUS
 62
     7
100
AcDbLine
 10
855.0
 20
508.0
 30
0.0
 11
855.0
 21
484.0
 31
0.0
  0
LINE
  5
23A
100
AcDbEntity
  8
LAY-1
  6
CONTINUOUS
 62
     7
100
AcDbLine
 10
855.0
 20
508.0
 30
0.0
 11
863.5
 21
508.5
 31
0.0
  0
LINE
  5
23B
100
AcDbEntity
  8
LAY-1
  6
CONTINUOUS
 62
     7
100
AcDbLine
 10
863.5
 20
508.5
 30
0.0
 11
863.5
 21
496.0
 31
0.0
  0
LINE
  5
23C
100
AcDbEntity
  8
LAY-1
  6
CONTINUOUS
 62
     7
100
AcDbLine
 10
863.5
 20
486.0
 30
0.0
 11
866.0
 21
486.0
 31
0.0
  0
LINE
  5
23D
100
AcDbEntity
  8
LAY-1
  6
CONTINUOUS
 62
     7
100
AcDbLine
 10
863.5
 20
506.0
 30
0.0
 11
866.0
 21
506.0
 31
0.0
  0
LINE
  5
23E
100
AcDbEntity
  8
LAY-1
  6
CONTINUOUS
 62
     7
100
AcDbLine
 10
855.0
 20
484.0
 30
0.0
 11
863.5
 21
483.5
 31
0.0
  0
LINE
  5
23F
100
AcDbEntity
  8
LAY-1
  6
CONTINUOUS
 62
     7
100
AcDbLine
 10
863.5
 20
483.5
 30
0.0
 11
863.5
 21
496.0
 31
0.0
  0
ARC
  5
240
100
AcDbEntity
  8
LAY-1
  6
CONTINUOUS
 62
     7
100
AcDbCircle
 10
854.0
 20
496.0
 30
0.0
 40
5.0
100
AcDbArc
 50
97.662256
 51
262.337744
  0
LINE
  5
241
100
AcDbEntity
  8
LAY-1
  6
CONTINUOUS
 62
     7
100
AcDbLine
 10
1142.0
 20
481.0
 30
0.0
 11
1162.0
 21
481.0
 31
0.0
  0
LINE
  5
242
100
AcDbEntity
  8
LAY-1
  6
CONTINUOUS
 62
     7
100
AcDbLine
 10
866.0
 20
481.0
 30
0.0
 11
846.0
 21
481.0
 31
0.0
  0
LINE
  5
243
100
AcDbEntity
  8
LAY-1
  6
CONTINUOUS
 62
     7
100
AcDbLine
 10
1051.5
 20
474.0
 30
0.0
 11
1051.5
 21
456.0
 31
0.0
  0
LINE
  5
244
100
AcDbEntity
  8
LAY-1
  6
CONTINUOUS
 62
     7
100
AcDbLine
 10
1051.5
 20
456.0
 30
0.0
 11
1076.5
 21
456.0
 31
0.0
  0
LINE
  5
245
100
AcDbEntity
  8
LAY-1
  6
CONTINUOUS
 62
     7
100
AcDbLine
 10
1076.5
 20
474.0
 30
0.0
 11
1076.5
 21
456.0
 31
0.0
  0
ARC
  5
246
100
AcDbEntity
  8
LAY-1
  6
CONTINUOUS
 62
     7
100
AcDbCircle
 10
1114.135116
 20
485.144521
 30
0.0
 40
2.0
100
AcDbArc
 50
270.0
 51
0.0
  0
LINE
  5
247
100
AcDbEntity
  8
LAY-1
  6
CONTINUOUS
 62
     7
100
AcDbLine
 10
1116.135116
 20
555.144521
 30
0.0
 11
1116.135116
 21
485.144521
 31
0.0
  0
ARC
  5
248
100
AcDbEntity
  8
LAY-1
  6
CONTINUOUS
 62
     7
100
AcDbCircle
 10
1114.135116
 20
555.144521
 30
0.0
 40
2.0
100
AcDbArc
 50
0.0
 51
90.0
  0
LINE
  5
249
100
AcDbEntity
  8
LAY-1
  6
CONTINUOUS
 62
     7
100
AcDbLine
 10
1011.135116
 20
557.144521
 30
0.0
 11
1114.135116
 21
557.144521
 31
0.0
  0
ARC
  5
24A
100
AcDbEntity
  8
LAY-1
  6
CONTINUOUS
 62
     7
100
AcDbCircle
 10
1011.135116
 20
555.144521
 30
0.0
 40
2.0
100
AcDbArc
 50
90.0
 51
180.0
  0
LINE
  5
24B
100
AcDbEntity
  8
LAY-1
  6
CONTINUOUS
 62
     7
100
AcDbLine
 10
1011.135116
 20
483.144521
 30
0.0
 11
1114.135116
 21
483.144521
 31
0.0
  0
LINE
  5
24C
100
AcDbEntity
  8
LAY-1
  6
CONTINUOUS
 62
     7
100
AcDbLine
 10
1009.135116
 20
555.144521
 30
0.0
 11
1009.135116
 21
485.144521
 31
0.0
  0
ARC
  5
24D
100
AcDbEntity
  8
LAY-1
  6
CONTINUOUS
 62
     7
100
AcDbCircle
 10
1011.135116
 20
485.144521
 30
0.0
 40
2.0
100
AcDbArc
 50
180.0
 51
270.0
  0
LINE
  5
24E
100
AcDbEntity
  8
LAY-1
  6
CONTINUOUS
 62
     7
100
AcDbLine
 10
1011.135116
 20
494.144521
 30
0.0
 11
1114.135116
 21
494.144521
 31
0.0
  0
ARC
  5
24F
100
AcDbEntity
  8
LAY-1
  6
CONTINUOUS
 62
     7
100
AcDbCircle
 10
1112.135116
 20
487.144521
 30
0.0
 40
2.0
100
AcDbArc
 50
270.0
 51
0.0
  0
LINE
  5
250
100
AcDbEntity
  8
LAY-1
  6
CONTINUOUS
 62
     7
100
AcDbLine
 10
1114.135116
 20
487.144521
 30
0.0
 11
1114.135116
 21
520.144521
 31
0.0
  0
LINE
  5
251
100
AcDbEntity
  8
LAY-1
  6
CONTINUOUS
 62
     7
100
AcDbLine
 10
1112.135116
 20
555.144521
 30
0.0
 11
1062.635116
 21
555.144521
 31
0.0
  0
ARC
  5
252
100
AcDbEntity
  8
LAY-1
  6
CONTINUOUS
 62
     7
100
AcDbCircle
 10
1112.135116
 20
553.144521
 30
0.0
 40
2.0
100
AcDbArc
 50
0.0
 51
90.0
  0
LINE
  5
253
100
AcDbEntity
  8
LAY-1
  6
CONTINUOUS
 62
     7
100
AcDbLine
 10
1114.135116
 20
553.144521
 30
0.0
 11
1114.135116
 21
520.144521
 31
0.0
  0
ARC
  5
254
100
AcDbEntity
  8
LAY-1
  6
CONTINUOUS
 62
     7
100
AcDbCircle
 10
1013.135116
 20
553.144521
 30
0.0
 40
2.0
100
AcDbArc
 50
90.0
 51
180.0
  0
LINE
  5
255
100
AcDbEntity
  8
LAY-1
  6
CONTINUOUS
 62
     7
100
AcDbLine
 10
1013.135116
 20
555.144521
 30
0.0
 11
1062.635116
 21
555.144521
 31
0.0
  0
LINE
  5
256
100
AcDbEntity
  8
LAY-1
  6
CONTINUOUS
 62
     7
100
AcDbLine
 10
1011.135116
 20
487.144521
 30
0.0
 11
1011.135116
 21
553.144521
 31
0.0
  0
ARC
  5
257
100
AcDbEntity
  8
LAY-1
  6
CONTINUOUS
 62
     7
100
AcDbCircle
 10
1013.135116
 20
487.144521
 30
0.0
 40
2.0
100
AcDbArc
 50
180.0
 51
270.0
  0
LINE
  5
258
100
AcDbEntity
  8
LAY-1
  6
CONTINUOUS
 62
     7
100
AcDbLine
 10
1112.135116
 20
485.144521
 30
0.0
 11
1013.135116
 21
485.144521
 31
0.0
  0
CIRCLE
  5
259
100
AcDbEntity
  8
LAY-1
  6
CONTINUOUS
 62
     7
100
AcDbCircle
 10
1112.135116
 20
487.144521
 30
0.0
 40
1.75
  0
CIRCLE
  5
25A
100
AcDbEntity
  8
LAY-1
  6
CONTINUOUS
 62
     7
100
AcDbCircle
 10
1112.135116
 20
553.144521
 30
0.0
 40
1.75
  0
CIRCLE
  5
25B
100
AcDbEntity
  8
LAY-1
  6
CONTINUOUS
 62
     7
100
AcDbCircle
 10
1013.135116
 20
487.144521
 30
0.0
 40
1.75
  0
CIRCLE
  5
25C
100
AcDbEntity
  8
LAY-1
  6
CONTINUOUS
 62
     7
100
AcDbCircle
 10
1013.135116
 20
553.144521
 30
0.0
 40
1.75
  0
LINE
  5
25D
100
AcDbEntity
  8
LAY-1
  6
CONTINUOUS
 62
     7
100
AcDbLine
 10
1108.135116
 20
534.144521
 30
0.0
 11
1108.135116
 21
529.144521
 31
0.0
  0
LINE
  5
25E
100
AcDbEntity
  8
LAY-1
  6
CONTINUOUS
 62
     7
100
AcDbLine
 10
1074.135116
 20
534.144521
 30
0.0
 11
1108.135116
 21
534.144521
 31
0.0
  0
LINE
  5
25F
100
AcDbEntity
  8
LAY-1
  6
CONTINUOUS
 62
     7
100
AcDbLine
 10
1108.135116
 20
529.144521
 30
0.0
 11
1074.135116
 21
529.144521
 31
0.0
  0
LINE
  5
260
100
AcDbEntity
  8
LAY-1
  6
CONTINUOUS
 62
     7
100
AcDbLine
 10
1074.135116
 20
534.144521
 30
0.0
 11
1074.135116
 21
529.144521
 31
0.0
  0
LINE
  5
261
100
AcDbEntity
  8
LAY-1
  6
CONTINUOUS
 62
     7
100
AcDbLine
 10
1114.135116
 20
541.144521
 30
0.0
 11
1011.135116
 21
541.144521
 31
0.0
  0
LINE
  5
262
100
AcDbEntity
  8
LAY-1
  6
EXLTYPE3
 62
     1
100
AcDbLine
 10
1175.901021
 20
972.0
 30
0.0
 11
1156.701021
 21
972.0
 31
0.0
  0
LINE
  5
263
100
AcDbEntity
  8
LAY-1
  6
EXLTYPE3
 62
     1
100
AcDbLine
 10
1175.901021
 20
1042.0
 30
0.0
 11
1156.701021
 21
1042.0
 31
0.0
  0
LINE
  5
264
100
AcDbEntity
  8
LAY-1
  6
EXLTYPE3
 62
     1
100
AcDbLine
 10
832.098979
 20
972.0
 30
0.0
 11
851.298979
 21
972.0
 31
0.0
  0
LINE
  5
265
100
AcDbEntity
  8
LAY-1
  6
EXLTYPE3
 62
     1
100
AcDbLine
 10
832.098979
 20
1042.0
 30
0.0
 11
851.298979
 21
1042.0
 31
0.0
  0
LINE
  5
266
100
AcDbEntity
  8
LAY-1
  6
EXLTYPE3
 62
     1
100
AcDbLine
 10
814.609669
 20
1007.0
 30
0.0
 11
1194.609669
 21
1007.0
 31
0.0
  0
LINE
  5
267
100
AcDbEntity
  8
LAY-1
  6
EXLTYPE4
 62
     1
100
AcDbLine
 10
880.035748
 20
426.0
 30
0.0
 11
880.035748
 21
384.0
 31
0.0
  0
LINE
  5
268
100
AcDbEntity
  8
LAY-1
  6
EXLTYPE4
 62
     1
100
AcDbLine
 10
880.035748
 20
384.0
 30
0.0
 11
882.535748
 21
384.0
 31
0.0
  0
LINE
  5
269
100
AcDbEntity
  8
LAY-1
  6
EXLTYPE4
 62
     1
100
AcDbLine
 10
882.535748
 20
384.0
 30
0.0
 11
882.535748
 21
425.095104
 31
0.0
  0
LINE
  5
26A
100
AcDbEntity
  8
LAY-1
  6
EXLTYPE4
 62
     1
100
AcDbLine
 10
894.535748
 20
434.0
 30
0.0
 11
880.035748
 21
426.0
 31
0.0
  0
LINE
  5
26B
100
AcDbEntity
  8
LAY-1
  6
EXLTYPE4
 62
     1
100
AcDbLine
 10
896.535748
 20
432.819242
 30
0.0
 11
882.535748
 21
425.095104
 31
0.0
  0
LINE
  5
26C
100
AcDbEntity
  8
LAY-1
  6
CONTINUOUS
 62
     1
100
AcDbLine
 10
920.537614
 20
413.200113
 30
0.0
 11
920.642376
 21
410.200113
 31
0.0
  0
LINE
  5
26D
100
AcDbEntity
  8
LAY-1
  6
CONTINUOUS
 62
     1
100
AcDbLine
 10
908.533882
 20
413.200113
 30
0.0
 11
908.429119
 21
410.200113
 31
0.0
  0
LINE
  5
26E
100
AcDbEntity
  8
LAY-1
  6
EXLTYPE4
 62
     1
100
AcDbLine
 10
894.535748
 20
437.2
 30
0.0
 11
894.535748
 21
434.0
 31
0.0
  0
LINE
  5
26F
100
AcDbEntity
  8
LAY-1
  6
EXLTYPE4
 62
     1
100
AcDbLine
 10
896.535748
 20
437.2
 30
0.0
 11
896.535748
 21
432.819242
 31
0.0
  0
LINE
  5
270
100
AcDbEntity
  8
LAY-1
  6
CONTINUOUS
 62
     1
100
AcDbLine
 10
961.494903
 20
457.318685
 30
0.0
 11
960.325267
 21
459.344554
 31
0.0
  0
LINE
  5
271
100
AcDbEntity
  8
LAY-1
  6
CONTINUOUS
 62
     1
100
AcDbLine
 10
986.355745
 20
457.06
 30
0.0
 11
987.674733
 21
459.344554
 31
0.0
  0
LINE
  5
272
100
AcDbEntity
  8
LAY-1
  6
CONTINUOUS
 62
     1
100
AcDbLine
 10
986.355745
 20
457.06
 30
0.0
 11
986.07262
 21
448.0
 31
0.0
  0
LINE
  5
273
100
AcDbEntity
  8
LAY-1
  6
CONTINUOUS
 62
     1
100
AcDbLine
 10
961.644255
 20
457.06
 30
0.0
 11
961.92738
 21
448.0
 31
0.0
  0
LINE
  5
274
100
AcDbEntity
  8
LAY-1
  6
CONTINUOUS
 62
     1
100
AcDbLine
 10
961.494903
 20
398.681315
 30
0.0
 11
960.325267
 21
396.655446
 31
0.0
  0
LINE
  5
275
100
AcDbEntity
  8
LAY-1
  6
CONTINUOUS
 62
     1
100
AcDbLine
 10
986.355745
 20
398.94
 30
0.0
 11
987.674733
 21
396.655446
 31
0.0
  0
LINE
  5
276
100
AcDbEntity
  8
LAY-1
  6
CONTINUOUS
 62
     1
100
AcDbLine
 10
986.355745
 20
398.94
 30
0.0
 11
986.07262
 21
408.0
 31
0.0
  0
LINE
  5
277
100
AcDbEntity
  8
LAY-1
  6
CONTINUOUS
 62
     1
100
AcDbLine
 10
961.644255
 20
398.94
 30
0.0
 11
961.92738
 21
408.0
 31
0.0
  0
LINE
  5
278
100
AcDbEntity
  8
LAY-1
  6
EXLTYPE3
 62
     1
100
AcDbLine
 10
936.5
 20
359.3
 30
0.0
 11
936.5
 21
329.7
 31
0.0
  0
LINE
  5
279
100
AcDbEntity
  8
LAY-1
  6
EXLTYPE3
 62
     1
100
AcDbLine
 10
1011.5
 20
359.3
 30
0.0
 11
1011.5
 21
329.7
 31
0.0
  0
LINE
  5
27A
100
AcDbEntity
  8
LAY-1
  6
EXLTYPE3
 62
     1
100
AcDbLine
 10
1004.0
 20
1103.36852
 30
0.0
 11
1004.0
 21
453.0
 31
0.0
  0
LINE
  5
27B
100
AcDbEntity
  8
LAY-1
  6
EXLTYPE3
 62
     1
100
AcDbLine
 10
1160.3
 20
876.0
 30
0.0
 11
1141.0
 21
876.0
 31
0.0
  0
LINE
  5
27C
100
AcDbEntity
  8
LAY-1
  6
EXLTYPE3
 62
     1
100
AcDbLine
 10
1154.0
 20
883.0
 30
0.0
 11
1154.0
 21
868.9
 31
0.0
  0
LINE
  5
27D
100
AcDbEntity
  8
LAY-1
  6
EXLTYPE3
 62
     1
100
AcDbLine
 10
847.7
 20
876.0
 30
0.0
 11
867.0
 21
876.0
 31
0.0
  0
LINE
  5
27E
100
AcDbEntity
  8
LAY-1
  6
EXLTYPE3
 62
     1
100
AcDbLine
 10
854.0
 20
883.0
 30
0.0
 11
854.0
 21
868.9
 31
0.0
  0
LINE
  5
27F
100
AcDbEntity
  8
LAY-1
  6
EXLTYPE3
 62
     1
100
AcDbLine
 10
1154.0
 20
503.0
 30
0.0
 11
1154.0
 21
488.9
 31
0.0
  0
LINE
  5
280
100
AcDbEntity
  8
LAY-1
  6
EXLTYPE3
 62
     1
100
AcDbLine
 10
1160.3
 20
496.0
 30
0.0
 11
1141.0
 21
496.0
 31
0.0
  0
LINE
  5
281
100
AcDbEntity
  8
LAY-1
  6
EXLTYPE3
 62
     1
100
AcDbLine
 10
854.0
 20
503.0
 30
0.0
 11
854.0
 21
488.9
 31
0.0
  0
LINE
  5
282
100
AcDbEntity
  8
LAY-1
  6
EXLTYPE3
 62
     1
100
AcDbLine
 10
847.7
 20
496.0
 30
0.0
 11
867.0
 21
496.0
 31
0.0
  0
LINE
  5
283
100
AcDbEntity
  8
LAY-1
  6
CONTINUOUS
 62
     7
100
AcDbLine
 10
1418.909713
 20
1021.610354
 30
0.0
 11
1418.909713
 21
1007.1
 31
0.0
  0
LINE
  5
284
100
AcDbEntity
  8
LAY-1
  6
CONTINUOUS
 62
     7
100
AcDbLine
 10
1418.909713
 20
992.389646
 30
0.0
 11
1418.909713
 21
1006.9
 31
0.0
  0
LINE
  5
285
100
AcDbEntity
  8
LAY-1
  6
CONTINUOUS
 62
     7
100
AcDbLine
 10
1439.61416
 20
1007.0
 30
0.0
 11
1439.61416
 21
980.146965
 31
0.0
  0
ARC
  5
286
100
AcDbEntity
  8
LAY-1
  6
CONTINUOUS
 62
     7
100
AcDbCircle
 10
1428.909713
 20
992.389646
 30
0.0
 40
10.0
100
AcDbArc
 50
180.0
 51
267.0
  0
ARC
  5
287
100
AcDbEntity
  8
LAY-1
  6
CONTINUOUS
 62
     7
100
AcDbCircle
 10
1438.409713
 20
980.876676
 30
0.0
 40
1.0
100
AcDbArc
 50
5.910908
 51
87.0
  0
ARC
  5
288
100
AcDbEntity
  8
LAY-1
  6
CONTINUOUS
 62
     7
100
AcDbCircle
 10
1442.388445
 20
981.288604
 30
0.0
 40
3.0
100
AcDbArc
 50
185.910908
 51
267.0
  0
LINE
  5
289
100
AcDbEntity
  8
LAY-1
  6
CONTINUOUS
 62
     7
100
AcDbLine
 10
1428.386353
 20
982.40335
 30
0.0
 11
1438.462049
 21
981.875305
 31
0.0
  0
LINE
  5
28A
100
AcDbEntity
  8
LAY-1
  6
CONTINUOUS
 62
     7
100
AcDbLine
 10
1439.61416
 20
1007.0
 30
0.0
 11
1439.61416
 21
1033.853035
 31
0.0
  0
ARC
  5
28B
100
AcDbEntity
  8
LAY-1
  6
CONTINUOUS
 62
     7
100
AcDbCircle
 10
1428.909713
 20
1021.610354
 30
0.0
 40
10.0
100
AcDbArc
 50
93.0
 51
180.0
  0
ARC
  5
28C
100
AcDbEntity
  8
LAY-1
  6
CONTINUOUS
 62
     7
100
AcDbCircle
 10
1438.409713
 20
1033.123324
 30
0.0
 40
1.0
100
AcDbArc
 50
273.0
 51
354.089092
  0
ARC
  5
28D
100
AcDbEntity
  8
LAY-1
  6
CONTINUOUS
 62
     7
100
AcDbCircle
 10
1442.388445
 20
1032.711396
 30
0.0
 40
3.0
100
AcDbArc
 50
93.0
 51
174.089092
  0
LINE
  5
28E
100
AcDbEntity
  8
LAY-1
  6
CONTINUOUS
 62
     7
100
AcDbLine
 10
1428.386353
 20
1031.59665
 30
0.0
 11
1438.462049
 21
1032.124695
 31
0.0
  0
CIRCLE
  5
28F
100
AcDbEntity
  8
LAY-1
  6
CONTINUOUS
 62
     7
100
AcDbCircle
 10
1579.609669
 20
1007.0
 30
0.0
 40
47.5
  0
CIRCLE
  5
290
100
AcDbEntity
  8
LAY-1
  6
CONTINUOUS
 62
     7
100
AcDbCircle
 10
1554.860932
 20
982.251263
 30
0.0
 40
7.5
  0
CIRCLE
  5
291
100
AcDbEntity
  8
LAY-1
  6
CONTINUOUS
 62
     7
100
AcDbCircle
 10
1579.609669
 20
1007.0
 30
0.0
 40
25.5
  0
CIRCLE
  5
292
100
AcDbEntity
  8
LAY-1
  6
CONTINUOUS
 62
     7
100
AcDbCircle
 10
1579.609669
 20
1007.0
 30
0.0
 40
10.85
  0
CIRCLE
  5
293
100
AcDbEntity
  8
LAY-1
  6
CONTINUOUS
 62
     7
100
AcDbCircle
 10
1579.609669
 20
1007.0
 30
0.0
 40
7.15
  0
CIRCLE
  5
294
100
AcDbEntity
  8
LAY-1
  6
CONTINUOUS
 62
     7
100
AcDbCircle
 10
1554.860932
 20
1031.748737
 30
0.0
 40
7.5
  0
CIRCLE
  5
295
100
AcDbEntity
  8
LAY-1
  6
CONTINUOUS
 62
     7
100
AcDbCircle
 10
1604.358406
 20
1031.748737
 30
0.0
 40
7.5
  0
CIRCLE
  5
296
100
AcDbEntity
  8
LAY-1
  6
CONTINUOUS
 62
     7
100
AcDbCircle
 10
1604.358406
 20
982.251263
 30
0.0
 40
7.5
  0
CIRCLE
  5
297
100
AcDbEntity
  8
LAY-1
  6
CONTINUOUS
 62
     7
100
AcDbCircle
 10
1564.609669
 20
927.5
 30
0.0
 40
12.5
  0
CIRCLE
  5
298
100
AcDbEntity
  8
LAY-1
  6
CONTINUOUS
 62
     7
100
AcDbCircle
 10
1564.609669
 20
927.5
 30
0.0
 40
12.0
  0
LINE
  5
299
100
AcDbEntity
  8
LAY-1
  6
CONTINUOUS
 62
     7
100
AcDbLine
 10
1453.609669
 20
1036.303593
 30
0.0
 11
1442.231438
 21
1035.707285
 31
0.0
  0
LINE
  5
29A
100
AcDbEntity
  8
LAY-1
  6
CONTINUOUS
 62
     7
100
AcDbLine
 10
1453.609669
 20
977.696407
 30
0.0
 11
1442.231438
 21
978.292715
 31
0.0
  0
LINE
  5
29B
100
AcDbEntity
  8
LAY-1
  6
CONTINUOUS
 62
     7
100
AcDbLine
 10
1453.609669
 20
1092.0
 30
0.0
 11
1661.609669
 21
1092.0
 31
0.0
  0
LINE
  5
29C
100
AcDbEntity
  8
LAY-1
  6
CONTINUOUS
 62
     7
100
AcDbLine
 10
1661.609669
 20
1022.0
 30
0.0
 11
1624.67906
 21
1022.0
 31
0.0
  0
LINE
  5
29D
100
AcDbEntity
  8
LAY-1
  6
CONTINUOUS
 62
     7
100
AcDbLine
 10
1661.609669
 20
992.0
 30
0.0
 11
1624.67906
 21
992.0
 31
0.0
  0
ARC
  5
29E
100
AcDbEntity
  8
LAY-1
  6
CONTINUOUS
 62
     7
100
AcDbCircle
 10
1539.739185
 20
932.3
 30
0.0
 40
2.5
100
AcDbArc
 50
0.0
 51
90.0
  0
LINE
  5
29F
100
AcDbEntity
  8
LAY-1
  6
CONTINUOUS
 62
     7
100
AcDbLine
 10
1494.739185
 20
934.8
 30
0.0
 11
1539.739185
 21
934.8
 31
0.0
  0
ARC
  5
2A0
100
AcDbEntity
  8
LAY-1
  6
CONTINUOUS
 62
     7
100
AcDbCircle
 10
1494.739185
 20
932.3
 30
0.0
 40
2.5
100
AcDbArc
 50
90.0
 51
180.0
  0
LINE
  5
2A1
100
AcDbEntity
  8
LAY-1
  6
CONTINUOUS
 62
     7
100
AcDbLine
 10
1492.239185
 20
932.3
 30
0.0
 11
1492.239185
 21
922.3
 31
0.0
  0
ARC
  5
2A2
100
AcDbEntity
  8
LAY-1
  6
CONTINUOUS
 62
     7
100
AcDbCircle
 10
1494.739185
 20
922.3
 30
0.0
 40
2.5
100
AcDbArc
 50
180.0
 51
270.0
  0
LINE
  5
2A3
100
AcDbEntity
  8
LAY-1
  6
CONTINUOUS
 62
     7
100
AcDbLine
 10
1542.239185
 20
932.3
 30
0.0
 11
1542.239185
 21
922.3
 31
0.0
  0
LINE
  5
2A4
100
AcDbEntity
  8
LAY-1
  6
CONTINUOUS
 62
     7
100
AcDbLine
 10
1494.739185
 20
919.8
 30
0.0
 11
1539.739185
 21
919.8
 31
0.0
  0
ARC
  5
2A5
100
AcDbEntity
  8
LAY-1
  6
CONTINUOUS
 62
     7
100
AcDbCircle
 10
1539.739185
 20
922.3
 30
0.0
 40
2.5
100
AcDbArc
 50
270.0
 51
0.0
  0
ARC
  5
2A6
100
AcDbEntity
  8
LAY-1
  6
CONTINUOUS
 62
     7
100
AcDbCircle
 10
1539.739185
 20
932.3
 30
0.0
 40
1.5
100
AcDbArc
 50
0.0
 51
90.0
  0
LINE
  5
2A7
100
AcDbEntity
  8
LAY-1
  6
CONTINUOUS
 62
     7
100
AcDbLine
 10
1494.739185
 20
933.8
 30
0.0
 11
1539.739185
 21
933.8
 31
0.0
  0
ARC
  5
2A8
100
AcDbEntity
  8
LAY-1
  6
CONTINUOUS
 62
     7
100
AcDbCircle
 10
1494.739185
 20
932.3
 30
0.0
 40
1.5
100
AcDbArc
 50
90.0
 51
180.0
  0
LINE
  5
2A9
100
AcDbEntity
  8
LAY-1
  6
CONTINUOUS
 62
     7
100
AcDbLine
 10
1493.239185
 20
932.3
 30
0.0
 11
1493.239185
 21
922.3
 31
0.0
  0
ARC
  5
2AA
100
AcDbEntity
  8
LAY-1
  6
CONTINUOUS
 62
     7
100
AcDbCircle
 10
1494.739185
 20
922.3
 30
0.0
 40
1.5
100
AcDbArc
 50
180.0
 51
270.0
  0
LINE
  5
2AB
100
AcDbEntity
  8
LAY-1
  6
CONTINUOUS
 62
     7
100
AcDbLine
 10
1541.239185
 20
932.3
 30
0.0
 11
1541.239185
 21
922.3
 31
0.0
  0
LINE
  5
2AC
100
AcDbEntity
  8
LAY-1
  6
CONTINUOUS
 62
     7
100
AcDbLine
 10
1494.739185
 20
920.8
 30
0.0
 11
1539.739185
 21
920.8
 31
0.0
  0
ARC
  5
2AD
100
AcDbEntity
  8
LAY-1
  6
CONTINUOUS
 62
     7
100
AcDbCircle
 10
1539.739185
 20
922.3
 30
0.0
 40
1.5
100
AcDbArc
 50
270.0
 51
0.0
  0
LINE
  5
2AE
100
AcDbEntity
  8
LAY-1
  6
CONTINUOUS
 62
     7
100
AcDbLine
 10
1493.239185
 20
927.3
 30
0.0
 11
1541.239185
 21
927.3
 31
0.0
  0
ARC
  5
2AF
100
AcDbEntity
  8
LAY-1
  6
CONTINUOUS
 62
     7
100
AcDbCircle
 10
1452.409713
 20
1014.0
 30
0.0
 40
3.0
100
AcDbArc
 50
90.0
 51
180.0
  0
ARC
  5
2B0
100
AcDbEntity
  8
LAY-1
  6
CONTINUOUS
 62
     7
100
AcDbCircle
 10
1452.409713
 20
1000.0
 30
0.0
 40
3.0
100
AcDbArc
 50
180.0
 51
270.0
  0
LINE
  5
2B1
100
AcDbEntity
  8
LAY-1
  6
CONTINUOUS
 62
     7
100
AcDbLine
 10
1452.409713
 20
1017.0
 30
0.0
 11
1453.609669
 21
1017.0
 31
0.0
  0
LINE
  5
2B2
100
AcDbEntity
  8
LAY-1
  6
CONTINUOUS
 62
     7
100
AcDbLine
 10
1452.409713
 20
997.0
 30
0.0
 11
1453.609669
 21
997.0
 31
0.0
  0
LINE
  5
2B3
100
AcDbEntity
  8
LAY-1
  6
CONTINUOUS
 62
     7
100
AcDbLine
 10
1449.409713
 20
1000.0
 30
0.0
 11
1449.409713
 21
1014.0
 31
0.0
  0
LINE
  5
2B4
100
AcDbEntity
  8
LAY-1
  6
CONTINUOUS
 62
     7
100
AcDbLine
 10
1472.609669
 20
338.0
 30
0.0
 11
1472.609669
 21
352.0
 31
0.0
  0
LINE
  5
2B5
100
AcDbEntity
  8
LAY-1
  6
CONTINUOUS
 62
     7
100
AcDbLine
 10
1506.209669
 20
352.0
 30
0.0
 11
1509.009669
 21
354.8
 31
0.0
  0
LINE
  5
2B6
100
AcDbEntity
  8
LAY-1
  6
CONTINUOUS
 62
     7
100
AcDbLine
 10
1522.609669
 20
338.0
 30
0.0
 11
1472.609669
 21
338.0
 31
0.0
  0
LINE
  5
2B7
100
AcDbEntity
  8
LAY-1
  6
CONTINUOUS
 62
     7
100
AcDbLine
 10
1572.609669
 20
338.0
 30
0.0
 11
1572.609669
 21
352.0
 31
0.0
  0
LINE
  5
2B8
100
AcDbEntity
  8
LAY-1
  6
CONTINUOUS
 62
     7
100
AcDbLine
 10
1539.009669
 20
352.0
 30
0.0
 11
1536.209669
 21
354.8
 31
0.0
  0
LINE
  5
2B9
100
AcDbEntity
  8
LAY-1
  6
CONTINUOUS
 62
     7
100
AcDbLine
 10
1522.609669
 20
338.0
 30
0.0
 11
1572.609669
 21
338.0
 31
0.0
  0
LINE
  5
2BA
100
AcDbEntity
  8
LAY-1
  6
CONTINUOUS
 62
     7
100
AcDbLine
 10
1472.609669
 20
352.0
 30
0.0
 11
1522.609669
 21
352.0
 31
0.0
  0
LINE
  5
2BB
100
AcDbEntity
  8
LAY-1
  6
CONTINUOUS
 62
     7
100
AcDbLine
 10
1572.609669
 20
352.0
 30
0.0
 11
1522.609669
 21
352.0
 31
0.0
  0
LINE
  5
2BC
100
AcDbEntity
  8
LAY-1
  6
CONTINUOUS
 62
     7
100
AcDbLine
 10
1509.009669
 20
354.8
 30
0.0
 11
1536.209669
 21
354.8
 31
0.0
  0
LINE
  5
2BD
100
AcDbEntity
  8
LAY-1
  6
CONTINUOUS
 62
     7
100
AcDbLine
 10
1488.609669
 20
478.0
 30
0.0
 11
1488.609669
 21
474.0
 31
0.0
  0
LINE
  5
2BE
100
AcDbEntity
  8
LAY-1
  6
CONTINUOUS
 62
     7
100
AcDbLine
 10
1598.609669
 20
478.0
 30
0.0
 11
1598.609669
 21
474.0
 31
0.0
  0
LINE
  5
2BF
100
AcDbEntity
  8
LAY-1
  6
CONTINUOUS
 62
     7
100
AcDbLine
 10
1497.809669
 20
467.5
 30
0.0
 11
1498.559669
 21
467.933013
 31
0.0
  0
LINE
  5
2C0
100
AcDbEntity
  8
LAY-1
  6
CONTINUOUS
 62
     7
100
AcDbLine
 10
1492.809669
 20
467.5
 30
0.0
 11
1497.809669
 21
467.5
 31
0.0
  0
ARC
  5
2C1
100
AcDbEntity
  8
LAY-1
  6
CONTINUOUS
 62
     7
100
AcDbCircle
 10
1497.128045
 20
470.083121
 30
0.0
 40
2.583121
100
AcDbArc
 50
236.342803
 51
303.657197
  0
LINE
  5
2C2
100
AcDbEntity
  8
LAY-1
  6
CONTINUOUS
 62
     7
100
AcDbLine
 10
1487.809669
 20
467.5
 30
0.0
 11
1487.059669
 21
467.933013
 31
0.0
  0
LINE
  5
2C3
100
AcDbEntity
  8
LAY-1
  6
CONTINUOUS
 62
     7
100
AcDbLine
 10
1492.809669
 20
467.5
 30
0.0
 11
1487.809669
 21
467.5
 31
0.0
  0
ARC
  5
2C4
100
AcDbEntity
  8
LAY-1
  6
CONTINUOUS
 62
     7
100
AcDbCircle
 10
1488.491293
 20
470.083121
 30
0.0
 40
2.583121
100
AcDbArc
 50
236.342803
 51
303.657197
  0
ARC
  5
2C5
100
AcDbEntity
  8
LAY-1
  6
CONTINUOUS
 62
     7
100
AcDbCircle
 10
1492.809669
 20
477.339011
 30
0.0
 40
9.839011
100
AcDbArc
 50
252.938469
 51
287.061531
  0
LINE
  5
2C6
100
AcDbEntity
  8
LAY-1
  6
CONTINUOUS
 62
     7
100
AcDbLine
 10
1498.559669
 20
467.933013
 30
0.0
 11
1498.559669
 21
472.5
 31
0.0
  0
LINE
  5
2C7
100
AcDbEntity
  8
LAY-1
  6
CONTINUOUS
 62
     7
100
AcDbLine
 10
1495.69642
 20
467.933013
 30
0.0
 11
1495.69642
 21
472.5
 31
0.0
  0
LINE
  5
2C8
100
AcDbEntity
  8
LAY-1
  6
CONTINUOUS
 62
     7
100
AcDbLine
 10
1487.059669
 20
467.933013
 30
0.0
 11
1487.059669
 21
472.5
 31
0.0
  0
LINE
  5
2C9
100
AcDbEntity
  8
LAY-1
  6
CONTINUOUS
 62
     7
100
AcDbLine
 10
1489.922918
 20
467.933013
 30
0.0
 11
1489.922918
 21
472.5
 31
0.0
  0
LINE
  5
2CA
100
AcDbEntity
  8
LAY-1
  6
CONTINUOUS
 62
     7
100
AcDbLine
 10
1486.709669
 20
472.5
 30
0.0
 11
1486.709669
 21
474.0
 31
0.0
  0
LINE
  5
2CB
100
AcDbEntity
  8
LAY-1
  6
CONTINUOUS
 62
     7
100
AcDbLine
 10
1492.809669
 20
472.5
 30
0.0
 11
1486.709669
 21
472.5
 31
0.0
  0
LINE
  5
2CC
100
AcDbEntity
  8
LAY-1
  6
CONTINUOUS
 62
     7
100
AcDbLine
 10
1492.809669
 20
474.0
 30
0.0
 11
1486.709669
 21
474.0
 31
0.0
  0
LINE
  5
2CD
100
AcDbEntity
  8
LAY-1
  6
CONTINUOUS
 62
     7
100
AcDbLine
 10
1498.909669
 20
472.5
 30
0.0
 11
1498.909669
 21
474.0
 31
0.0
  0
LINE
  5
2CE
100
AcDbEntity
  8
LAY-1
  6
CONTINUOUS
 62
     7
100
AcDbLine
 10
1492.809669
 20
472.5
 30
0.0
 11
1498.909669
 21
472.5
 31
0.0
  0
LINE
  5
2CF
100
AcDbEntity
  8
LAY-1
  6
CONTINUOUS
 62
     7
100
AcDbLine
 10
1494.309669
 20
472.5
 30
0.0
 11
1492.809669
 21
474.0
 31
0.0
  0
LINE
  5
2D0
100
AcDbEntity
  8
LAY-1
  6
CONTINUOUS
 62
     7
100
AcDbLine
 10
1491.309669
 20
474.0
 30
0.0
 11
1492.809669
 21
472.5
 31
0.0
  0
LINE
  5
2D1
100
AcDbEntity
  8
LAY-1
  6
CONTINUOUS
 62
     7
100
AcDbLine
 10
1599.409669
 20
467.5
 30
0.0
 11
1600.159669
 21
467.933013
 31
0.0
  0
LINE
  5
2D2
100
AcDbEntity
  8
LAY-1
  6
CONTINUOUS
 62
     7
100
AcDbLine
 10
1594.409669
 20
467.5
 30
0.0
 11
1599.409669
 21
467.5
 31
0.0
  0
ARC
  5
2D3
100
AcDbEntity
  8
LAY-1
  6
CONTINUOUS
 62
     7
100
AcDbCircle
 10
1598.728045
 20
470.083121
 30
0.0
 40
2.583121
100
AcDbArc
 50
236.342803
 51
303.657197
  0
LINE
  5
2D4
100
AcDbEntity
  8
LAY-1
  6
CONTINUOUS
 62
     7
100
AcDbLine
 10
1589.409669
 20
467.5
 30
0.0
 11
1588.659669
 21
467.933013
 31
0.0
  0
LINE
  5
2D5
100
AcDbEntity
  8
LAY-1
  6
CONTINUOUS
 62
     7
100
AcDbLine
 10
1594.409669
 20
467.5
 30
0.0
 11
1589.409669
 21
467.5
 31
0.0
  0
ARC
  5
2D6
100
AcDbEntity
  8
LAY-1
  6
CONTINUOUS
 62
     7
100
AcDbCircle
 10
1590.091293
 20
470.083121
 30
0.0
 40
2.583121
100
AcDbArc
 50
236.342803
 51
303.657197
  0
ARC
  5
2D7
100
AcDbEntity
  8
LAY-1
  6
CONTINUOUS
 62
     7
100
AcDbCircle
 10
1594.409669
 20
477.339011
 30
0.0
 40
9.839011
100
AcDbArc
 50
252.938469
 51
287.061531
  0
LINE
  5
2D8
100
AcDbEntity
  8
LAY-1
  6
CONTINUOUS
 62
     7
100
AcDbLine
 10
1600.159669
 20
467.933013
 30
0.0
 11
1600.159669
 21
472.5
 31
0.0
  0
LINE
  5
2D9
100
AcDbEntity
  8
LAY-1
  6
CONTINUOUS
 62
     7
100
AcDbLine
 10
1597.29642
 20
467.933013
 30
0.0
 11
1597.29642
 21
472.5
 31
0.0
  0
LINE
  5
2DA
100
AcDbEntity
  8
LAY-1
  6
CONTINUOUS
 62
     7
100
AcDbLine
 10
1588.659669
 20
467.933013
 30
0.0
 11
1588.659669
 21
472.5
 31
0.0
  0
LINE
  5
2DB
100
AcDbEntity
  8
LAY-1
  6
CONTINUOUS
 62
     7
100
AcDbLine
 10
1591.522918
 20
467.933013
 30
0.0
 11
1591.522918
 21
472.5
 31
0.0
  0
LINE
  5
2DC
100
AcDbEntity
  8
LAY-1
  6
CONTINUOUS
 62
     7
100
AcDbLine
 10
1588.309669
 20
472.5
 30
0.0
 11
1588.309669
 21
474.0
 31
0.0
  0
LINE
  5
2DD
100
AcDbEntity
  8
LAY-1
  6
CONTINUOUS
 62
     7
100
AcDbLine
 10
1594.409669
 20
472.5
 30
0.0
 11
1588.309669
 21
472.5
 31
0.0
  0
LINE
  5
2DE
100
AcDbEntity
  8
LAY-1
  6
CONTINUOUS
 62
     7
100
AcDbLine
 10
1600.509669
 20
472.5
 30
0.0
 11
1600.509669
 21
474.0
 31
0.0
  0
LINE
  5
2DF
100
AcDbEntity
  8
LAY-1
  6
CONTINUOUS
 62
     7
100
AcDbLine
 10
1594.409669
 20
472.5
 30
0.0
 11
1600.509669
 21
472.5
 31
0.0
  0
LINE
  5
2E0
100
AcDbEntity
  8
LAY-1
  6
CONTINUOUS
 62
     7
100
AcDbLine
 10
1594.409669
 20
474.0
 30
0.0
 11
1600.509669
 21
474.0
 31
0.0
  0
LINE
  5
2E1
100
AcDbEntity
  8
LAY-1
  6
CONTINUOUS
 62
     7
100
AcDbLine
 10
1595.909669
 20
472.5
 30
0.0
 11
1594.409669
 21
474.0
 31
0.0
  0
LINE
  5
2E2
100
AcDbEntity
  8
LAY-1
  6
CONTINUOUS
 62
     7
100
AcDbLine
 10
1592.909669
 20
474.0
 30
0.0
 11
1594.409669
 21
472.5
 31
0.0
  0
LINE
  5
2E3
100
AcDbEntity
  8
LAY-1
  6
CONTINUOUS
 62
     7
100
AcDbLine
 10
1506.609669
 20
448.0
 30
0.0
 11
1506.609669
 21
408.0
 31
0.0
  0
LINE
  5
2E4
100
AcDbEntity
  8
LAY-1
  6
CONTINUOUS
 62
     7
100
AcDbLine
 10
1522.609669
 20
398.94
 30
0.0
 11
1536.127982
 21
398.94
 31
0.0
  0
LINE
  5
2E5
100
AcDbEntity
  8
LAY-1
  6
CONTINUOUS
 62
     7
100
AcDbLine
 10
1522.609669
 20
398.94
 30
0.0
 11
1509.091357
 21
398.94
 31
0.0
  0
LINE
  5
2E6
100
AcDbEntity
  8
LAY-1
  6
CONTINUOUS
 62
     7
100
AcDbLine
 10
1509.009669
 20
396.326
 30
0.0
 11
1509.374482
 21
408.0
 31
0.0
  0
LINE
  5
2E7
100
AcDbEntity
  8
LAY-1
  6
CONTINUOUS
 62
     7
100
AcDbLine
 10
1536.209669
 20
398.94
 30
0.0
 11
1536.209669
 21
354.8
 31
0.0
  0
LINE
  5
2E8
100
AcDbEntity
  8
LAY-1
  6
CONTINUOUS
 62
     7
100
AcDbLine
 10
1509.009669
 20
398.94
 30
0.0
 11
1509.009669
 21
354.8
 31
0.0
  0
LINE
  5
2E9
100
AcDbEntity
  8
LAY-1
  6
CONTINUOUS
 62
     7
100
AcDbLine
 10
1543.609669
 20
476.0
 30
0.0
 11
1598.609669
 21
476.0
 31
0.0
  0
LINE
  5
2EA
100
AcDbEntity
  8
LAY-1
  6
CONTINUOUS
 62
     7
100
AcDbLine
 10
1543.609669
 20
474.0
 30
0.0
 11
1598.609669
 21
474.0
 31
0.0
  0
LINE
  5
2EB
100
AcDbEntity
  8
LAY-1
  6
CONTINUOUS
 62
     7
100
AcDbLine
 10
1488.609669
 20
476.0
 30
0.0
 11
1543.609669
 21
476.0
 31
0.0
  0
LINE
  5
2EC
100
AcDbEntity
  8
LAY-1
  6
CONTINUOUS
 62
     7
100
AcDbLine
 10
1488.609669
 20
474.0
 30
0.0
 11
1543.609669
 21
474.0
 31
0.0
  0
LINE
  5
2ED
100
AcDbEntity
  8
LAY-1
  6
CONTINUOUS
 62
     7
100
AcDbLine
 10
1453.609669
 20
1092.0
 30
0.0
 11
1453.609669
 21
478.0
 31
0.0
  0
LINE
  5
2EE
100
AcDbEntity
  8
LAY-1
  6
CONTINUOUS
 62
     7
100
AcDbLine
 10
1661.609669
 20
1092.0
 30
0.0
 11
1661.609669
 21
478.0
 31
0.0
  0
LINE
  5
2EF
100
AcDbEntity
  8
LAY-1
  6
CONTINUOUS
 62
     7
100
AcDbLine
 10
1613.609669
 20
478.0
 30
0.0
 11
1661.609669
 21
478.0
 31
0.0
  0
LINE
  5
2F0
100
AcDbEntity
  8
LAY-1
  6
CONTINUOUS
 62
     7
100
AcDbLine
 10
1473.609669
 20
478.0
 30
0.0
 11
1453.609669
 21
478.0
 31
0.0
  0
LINE
  5
2F1
100
AcDbEntity
  8
LAY-1
  6
CONTINUOUS
 62
     7
100
AcDbLine
 10
1473.609669
 20
478.0
 30
0.0
 11
1613.609669
 21
478.0
 31
0.0
  0
POLYLINE
  5
2F2
100
AcDbEntity
  8
LAY-1
  6
CONTINUOUS
 62
     7
100
AcDb2dPolyline
 66
     1
 10
0.0
 20
0.0
 30
0.0
 70
   128
  0
VERTEX
  5
2F3
100
AcDbEntity
  8
LAY-1
  6
CONTINUOUS
 62
     7
100
AcDbVertex
100
AcDb2dVertex
 10
1512.572132
 20
510.267359
 30
0.0
  0
VERTEX
  5
2F4
100
AcDbEntity
  8
LAY-1
  6
CONTINUOUS
 62
     7
100
AcDbVertex
100
AcDb2dVertex
 10
1507.772132
 20
518.581203
 30
0.0
  0
VERTEX
  5
2F5
100
AcDbEntity
  8
LAY-1
  6
CONTINUOUS
 62
     7
100
AcDbVertex
100
AcDb2dVertex
 10
1502.972132
 20
510.267359
 30
0.0
  0
VERTEX
  5
2F6
100
AcDbEntity
  8
LAY-1
  6
CONTINUOUS
 62
     7
100
AcDbVertex
100
AcDb2dVertex
 10
1512.572132
 20
510.267359
 30
0.0
  0
SEQEND
  5
2F7
100
AcDbEntity
  8
LAY-1
  6
CONTINUOUS
 62
     7
  0
POLYLINE
  5
2F8
100
AcDbEntity
  8
LAY-1
  6
CONTINUOUS
 62
     7
100
AcDb2dPolyline
 66
     1
 10
0.0
 20
0.0
 30
0.0
 70
   128
  0
VERTEX
  5
2F9
100
AcDbEntity
  8
LAY-1
  6
CONTINUOUS
 62
     7
100
AcDbVertex
100
AcDb2dVertex
 10
1513.538155
 20
509.635698
 30
0.0
  0
VERTEX
  5
2FA
100
AcDbEntity
  8
LAY-1
  6
CONTINUOUS
 62
     7
100
AcDbVertex
100
AcDb2dVertex
 10
1507.778155
 20
519.612311
 30
0.0
  0
VERTEX
  5
2FB
100
AcDbEntity
  8
LAY-1
  6
CONTINUOUS
 62
     7
100
AcDbVertex
100
AcDb2dVertex
 10
1502.018155
 20
509.635698
 30
0.0
  0
VERTEX
  5
2FC
100
AcDbEntity
  8
LAY-1
  6
CONTINUOUS
 62
     7
100
AcDbVertex
100
AcDb2dVertex
 10
1513.538155
 20
509.635698
 30
0.0
  0
SEQEND
  5
2FD
100
AcDbEntity
  8
LAY-1
  6
CONTINUOUS
 62
     7
  0
LINE
  5
2FE
100
AcDbEntity
  8
LAY-1
  6
CONTINUOUS
 62
     7
100
AcDbLine
 10
1505.018155
 20
521.39581
 30
0.0
 11
1585.018155
 21
521.39581
 31
0.0
  0
ARC
  5
2FF
100
AcDbEntity
  8
LAY-1
  6
CONTINUOUS
 62
     7
100
AcDbCircle
 10
1505.018155
 20
516.39581
 30
0.0
 40
5.0
100
AcDbArc
 50
90.0
 51
180.0
  0
LINE
  5
300
100
AcDbEntity
  8
LAY-1
  6
CONTINUOUS
 62
     7
100
AcDbLine
 10
1500.018155
 20
516.39581
 30
0.0
 11
1500.018155
 21
492.635698
 31
0.0
  0
LINE
  5
301
100
AcDbEntity
  8
LAY-1
  6
CONTINUOUS
 62
     7
100
AcDbLine
 10
1500.018155
 20
507.635698
 30
0.0
 11
1590.018155
 21
507.635698
 31
0.0
  0
LINE
  5
302
100
AcDbEntity
  8
LAY-1
  6
CONTINUOUS
 62
     7
100
AcDbLine
 10
1505.018155
 20
487.635698
 30
0.0
 11
1585.018155
 21
487.635698
 31
0.0
  0
ARC
  5
303
100
AcDbEntity
  8
LAY-1
  6
CONTINUOUS
 62
     7
100
AcDbCircle
 10
1505.018155
 20
492.635698
 30
0.0
 40
5.0
100
AcDbArc
 50
180.0
 51
270.0
  0
ARC
  5
304
100
AcDbEntity
  8
LAY-1
  6
CONTINUOUS
 62
     7
100
AcDbCircle
 10
1585.018155
 20
492.635698
 30
0.0
 40
5.0
100
AcDbArc
 50
270.0
 51
0.0
  0
LINE
  5
305
100
AcDbEntity
  8
LAY-1
  6
CONTINUOUS
 62
     7
100
AcDbLine
 10
1590.018155
 20
516.39581
 30
0.0
 11
1590.018155
 21
492.635698
 31
0.0
  0
ARC
  5
306
100
AcDbEntity
  8
LAY-1
  6
CONTINUOUS
 62
     7
100
AcDbCircle
 10
1585.018155
 20
516.39581
 30
0.0
 40
5.0
100
AcDbArc
 50
0.0
 51
90.0
  0
CIRCLE
  5
307
100
AcDbEntity
  8
LAY-1
  6
CONTINUOUS
 62
     7
100
AcDbCircle
 10
1622.609669
 20
876.0
 30
0.0
 40
12.5
  0
CIRCLE
  5
308
100
AcDbEntity
  8
LAY-1
  6
CONTINUOUS
 62
     7
100
AcDbCircle
 10
1622.609669
 20
876.0
 30
0.0
 40
12.0
  0
LINE
  5
309
100
AcDbEntity
  8
LAY-1
  6
CONTINUOUS
 62
     7
100
AcDbLine
 10
1663.609669
 20
861.0
 30
0.0
 11
1663.609669
 21
891.0
 31
0.0
  0
LINE
  5
30A
100
AcDbEntity
  8
LAY-1
  6
CONTINUOUS
 62
     7
100
AcDbLine
 10
1661.309669
 20
861.0
 30
0.0
 11
1661.309669
 21
891.0
 31
0.0
  0
LINE
  5
30B
100
AcDbEntity
  8
LAY-1
  6
CONTINUOUS
 62
     7
100
AcDbLine
 10
1661.309669
 20
891.0
 30
0.0
 11
1663.609669
 21
891.0
 31
0.0
  0
LINE
  5
30C
100
AcDbEntity
  8
LAY-1
  6
CONTINUOUS
 62
     7
100
AcDbLine
 10
1661.309669
 20
861.0
 30
0.0
 11
1663.609669
 21
861.0
 31
0.0
  0
LINE
  5
30D
100
AcDbEntity
  8
LAY-1
  6
CONTINUOUS
 62
     7
100
AcDbLine
 10
1661.609669
 20
880.0
 30
0.0
 11
1634.452388
 21
880.0
 31
0.0
  0
LINE
  5
30E
100
AcDbEntity
  8
LAY-1
  6
CONTINUOUS
 62
     7
100
AcDbLine
 10
1661.609669
 20
872.0
 30
0.0
 11
1634.452388
 21
872.0
 31
0.0
  0
CIRCLE
  5
30F
100
AcDbEntity
  8
LAY-1
  6
CONTINUOUS
 62
     7
100
AcDbCircle
 10
1622.609669
 20
496.0
 30
0.0
 40
12.5
  0
CIRCLE
  5
310
100
AcDbEntity
  8
LAY-1
  6
CONTINUOUS
 62
     7
100
AcDbCircle
 10
1622.609669
 20
496.0
 30
0.0
 40
12.0
  0
LINE
  5
311
100
AcDbEntity
  8
LAY-1
  6
CONTINUOUS
 62
     7
100
AcDbLine
 10
1661.309669
 20
511.0
 30
0.0
 11
1661.309669
 21
481.0
 31
0.0
  0
LINE
  5
312
100
AcDbEntity
  8
LAY-1
  6
CONTINUOUS
 62
     7
100
AcDbLine
 10
1663.609669
 20
511.0
 30
0.0
 11
1663.609669
 21
481.0
 31
0.0
  0
LINE
  5
313
100
AcDbEntity
  8
LAY-1
  6
CONTINUOUS
 62
     7
100
AcDbLine
 10
1661.309669
 20
511.0
 30
0.0
 11
1663.609669
 21
511.0
 31
0.0
  0
LINE
  5
314
100
AcDbEntity
  8
LAY-1
  6
CONTINUOUS
 62
     7
100
AcDbLine
 10
1661.309669
 20
481.0
 30
0.0
 11
1663.609669
 21
481.0
 31
0.0
  0
LINE
  5
315
100
AcDbEntity
  8
LAY-1
  6
CONTINUOUS
 62
     7
100
AcDbLine
 10
1661.609669
 20
500.0
 30
0.0
 11
1634.452388
 21
500.0
 31
0.0
  0
LINE
  5
316
100
AcDbEntity
  8
LAY-1
  6
CONTINUOUS
 62
     7
100
AcDbLine
 10
1661.609669
 20
492.0
 30
0.0
 11
1634.452388
 21
492.0
 31
0.0
  0
CIRCLE
  5
317
100
AcDbEntity
  8
LAY-1
  6
CONTINUOUS
 62
     7
100
AcDbCircle
 10
1564.609669
 20
927.5
 30
0.0
 40
17.5
  0
LINE
  5
318
100
AcDbEntity
  8
LAY-1
  6
CONTINUOUS
 62
     7
100
AcDbLine
 10
1585.109669
 20
474.0
 30
0.0
 11
1585.109669
 21
456.0
 31
0.0
  0
LINE
  5
319
100
AcDbEntity
  8
LAY-1
  6
CONTINUOUS
 62
     7
100
AcDbLine
 10
1560.109669
 20
456.0
 30
0.0
 11
1585.109669
 21
456.0
 31
0.0
  0
LINE
  5
31A
100
AcDbEntity
  8
LAY-1
  6
CONTINUOUS
 62
     7
100
AcDbLine
 10
1527.109669
 20
474.0
 30
0.0
 11
1527.109669
 21
456.0
 31
0.0
  0
LINE
  5
31B
100
AcDbEntity
  8
LAY-1
  6
CONTINUOUS
 62
     7
100
AcDbLine
 10
1527.109669
 20
456.0
 30
0.0
 11
1502.109669
 21
456.0
 31
0.0
  0
LINE
  5
31C
100
AcDbEntity
  8
LAY-1
  6
CONTINUOUS
 62
     7
100
AcDbLine
 10
1502.109669
 20
474.0
 30
0.0
 11
1502.109669
 21
456.0
 31
0.0
  0
LINE
  5
31D
100
AcDbEntity
  8
LAY-1
  6
CONTINUOUS
 62
     7
100
AcDbLine
 10
1566.109669
 20
410.5
 30
0.0
 11
1553.047491
 21
410.5
 31
0.0
  0
LINE
  5
31E
100
AcDbEntity
  8
LAY-1
  6
CONTINUOUS
 62
     7
100
AcDbLine
 10
1566.959047
 20
414.0
 30
0.0
 11
1549.797743
 21
414.0
 31
0.0
  0
LINE
  5
31F
100
AcDbEntity
  8
LAY-1
  6
CONTINUOUS
 62
     7
100
AcDbLine
 10
1548.109779
 20
429.500365
 30
0.0
 11
1566.959047
 21
429.500365
 31
0.0
  0
LINE
  5
320
100
AcDbEntity
  8
LAY-1
  6
CONTINUOUS
 62
     7
100
AcDbLine
 10
1548.609774
 20
438.00028
 30
0.0
 11
1566.569047
 21
438.00028
 31
0.0
  0
LINE
  5
321
100
AcDbEntity
  8
LAY-1
  6
CONTINUOUS
 62
     7
100
AcDbLine
 10
1565.109669
 20
404.5
 30
0.0
 11
1552.109669
 21
404.5
 31
0.0
  0
LINE
  5
322
100
AcDbEntity
  8
LAY-1
  6
CONTINUOUS
 62
     7
100
AcDbLine
 10
1565.67248
 20
413.999235
 30
0.0
 11
1565.782448
 21
410.5
 31
0.0
  0
ARC
  5
323
100
AcDbEntity
  8
LAY-1
  6
CONTINUOUS
 62
     7
100
AcDbCircle
 10
1553.047491
 20
406.921848
 30
0.0
 40
3.578152
100
AcDbArc
 50
89.004317
 51
124.384247
  0
LINE
  5
324
100
AcDbEntity
  8
LAY-1
  6
CONTINUOUS
 62
     7
100
AcDbLine
 10
1567.192573
 20
409.874785
 30
0.0
 11
1566.109669
 21
410.5
 31
0.0
  0
LINE
  5
325
100
AcDbEntity
  8
LAY-1
  6
CONTINUOUS
 62
     7
100
AcDbLine
 10
1552.109669
 20
410.5
 30
0.0
 11
1551.026765
 21
409.874785
 31
0.0
  0
LINE
  5
326
100
AcDbEntity
  8
LAY-1
  6
CONTINUOUS
 62
     7
100
AcDbLine
 10
1552.109669
 20
404.5
 30
0.0
 11
1551.026765
 21
405.125215
 31
0.0
  0
LINE
  5
327
100
AcDbEntity
  8
LAY-1
  6
CONTINUOUS
 62
     7
100
AcDbLine
 10
1566.109669
 20
404.5
 30
0.0
 11
1565.109669
 21
404.5
 31
0.0
  0
LINE
  5
328
100
AcDbEntity
  8
LAY-1
  6
CONTINUOUS
 62
     7
100
AcDbLine
 10
1567.192573
 20
405.125215
 30
0.0
 11
1566.109669
 21
404.5
 31
0.0
  0
LINE
  5
329
100
AcDbEntity
  8
LAY-1
  6
CONTINUOUS
 62
     7
100
AcDbLine
 10
1567.192573
 20
409.874785
 30
0.0
 11
1567.192573
 21
405.125215
 31
0.0
  0
LINE
  5
32A
100
AcDbEntity
  8
LAY-1
  6
CONTINUOUS
 62
     7
100
AcDbLine
 10
1553.047491
 20
410.5
 30
0.0
 11
1552.109669
 21
410.5
 31
0.0
  0
LINE
  5
32B
100
AcDbEntity
  8
LAY-1
  6
CONTINUOUS
 62
     7
100
AcDbLine
 10
1569.609564
 20
438.00028
 30
0.0
 11
1566.109599
 21
438.00028
 31
0.0
  0
LINE
  5
32C
100
AcDbEntity
  8
LAY-1
  6
CONTINUOUS
 62
     7
100
AcDbLine
 10
1547.609784
 20
437.00029
 30
0.0
 11
1547.609784
 21
430.00036
 31
0.0
  0
LINE
  5
32D
100
AcDbEntity
  8
LAY-1
  6
CONTINUOUS
 62
     7
100
AcDbLine
 10
1568.421595
 20
414.685874
 30
0.0
 11
1569.609564
 21
415.371748
 31
0.0
  0
LINE
  5
32E
100
AcDbEntity
  8
LAY-1
  6
CONTINUOUS
 62
     7
100
AcDbLine
 10
1568.421595
 20
414.0
 30
0.0
 11
1569.609564
 21
414.685874
 31
0.0
  0
LINE
  5
32F
100
AcDbEntity
  8
LAY-1
  6
CONTINUOUS
 62
     7
100
AcDbLine
 10
1548.609774
 20
438.00028
 30
0.0
 11
1547.609784
 21
437.00029
 31
0.0
  0
LINE
  5
330
100
AcDbEntity
  8
LAY-1
  6
CONTINUOUS
 62
     7
100
AcDbLine
 10
1548.609774
 20
465.500005
 30
0.0
 11
1548.609774
 21
438.00028
 31
0.0
  0
LINE
  5
331
100
AcDbEntity
  8
LAY-1
  6
CONTINUOUS
 62
     7
100
AcDbLine
 10
1569.609564
 20
438.00028
 30
0.0
 11
1569.609564
 21
444.500215
 31
0.0
  0
LINE
  5
332
100
AcDbEntity
  8
LAY-1
  6
CONTINUOUS
 62
     7
100
AcDbLine
 10
1570.609554
 20
437.00029
 30
0.0
 11
1569.609564
 21
438.00028
 31
0.0
  0
LINE
  5
333
100
AcDbEntity
  8
LAY-1
  6
CONTINUOUS
 62
     7
100
AcDbLine
 10
1570.609554
 20
430.00036
 30
0.0
 11
1570.609554
 21
437.00029
 31
0.0
  0
LINE
  5
334
100
AcDbEntity
  8
LAY-1
  6
CONTINUOUS
 62
     7
100
AcDbLine
 10
1549.797743
 20
465.500005
 30
0.0
 11
1548.609774
 21
465.500005
 31
0.0
  0
ARC
  5
335
100
AcDbEntity
  8
LAY-1
  6
CONTINUOUS
 62
     7
100
AcDbCircle
 10
1553.859722
 20
449.250167
 30
0.0
 40
16.749833
100
AcDbArc
 50
75.965352
 51
104.034648
  0
LINE
  5
336
100
AcDbEntity
  8
LAY-1
  6
CONTINUOUS
 62
     7
100
AcDbLine
 10
1568.609574
 20
429.500365
 30
0.0
 11
1568.609574
 21
428.00038
 31
0.0
  0
LINE
  5
337
100
AcDbEntity
  8
LAY-1
  6
CONTINUOUS
 62
     7
100
AcDbLine
 10
1549.609764
 20
428.00038
 30
0.0
 11
1549.609764
 21
429.500365
 31
0.0
  0
LINE
  5
338
100
AcDbEntity
  8
LAY-1
  6
CONTINUOUS
 62
     7
100
AcDbLine
 10
1549.797743
 20
414.685874
 30
0.0
 11
1549.797743
 21
427.314506
 31
0.0
  0
LINE
  5
339
100
AcDbEntity
  8
LAY-1
  6
CONTINUOUS
 62
     7
100
AcDbLine
 10
1568.421595
 20
427.314506
 30
0.0
 11
1568.421595
 21
414.685874
 31
0.0
  0
ARC
  5
33A
100
AcDbEntity
  8
LAY-1
  6
CONTINUOUS
 62
     7
100
AcDbCircle
 10
1564.359617
 20
426.371142
 30
0.0
 40
12.371142
100
AcDbArc
 50
277.168472
 51
289.168237
  0
ARC
  5
33B
100
AcDbEntity
  8
LAY-1
  6
CONTINUOUS
 62
     7
100
AcDbCircle
 10
1553.859722
 20
426.371142
 30
0.0
 40
12.371142
100
AcDbArc
 50
250.831763
 51
262.831527
  0
LINE
  5
33C
100
AcDbEntity
  8
LAY-1
  6
CONTINUOUS
 62
     7
100
AcDbLine
 10
1564.609614
 20
429.500365
 30
0.0
 11
1570.109559
 21
429.500365
 31
0.0
  0
LINE
  5
33D
100
AcDbEntity
  8
LAY-1
  6
CONTINUOUS
 62
     7
100
AcDbLine
 10
1564.609614
 20
428.00038
 30
0.0
 11
1568.421595
 21
428.00038
 31
0.0
  0
ARC
  5
33E
100
AcDbEntity
  8
LAY-1
  6
CONTINUOUS
 62
     7
100
AcDbCircle
 10
1553.859722
 20
415.629238
 30
0.0
 40
12.371142
100
AcDbArc
 50
91.157919
 51
109.168237
  0
LINE
  5
33F
100
AcDbEntity
  8
LAY-1
  6
CONTINUOUS
 62
     7
100
AcDbLine
 10
1569.609564
 20
427.314506
 30
0.0
 11
1568.421595
 21
427.314506
 31
0.0
  0
LINE
  5
340
100
AcDbEntity
  8
LAY-1
  6
CONTINUOUS
 62
     7
100
AcDbLine
 10
1568.421595
 20
414.685874
 30
0.0
 11
1569.609564
 21
414.685874
 31
0.0
  0
ARC
  5
341
100
AcDbEntity
  8
LAY-1
  6
CONTINUOUS
 62
     7
100
AcDbCircle
 10
1564.359617
 20
415.629238
 30
0.0
 40
12.371142
100
AcDbArc
 50
70.831763
 51
88.842081
  0
LINE
  5
342
100
AcDbEntity
  8
LAY-1
  6
CONTINUOUS
 62
     7
100
AcDbLine
 10
1549.797743
 20
414.685874
 30
0.0
 11
1548.609774
 21
414.685874
 31
0.0
  0
LINE
  5
343
100
AcDbEntity
  8
LAY-1
  6
CONTINUOUS
 62
     7
100
AcDbLine
 10
1548.609774
 20
427.314506
 30
0.0
 11
1549.797743
 21
427.314506
 31
0.0
  0
LINE
  5
344
100
AcDbEntity
  8
LAY-1
  6
CONTINUOUS
 62
     7
100
AcDbLine
 10
1549.797743
 20
428.00038
 30
0.0
 11
1548.609774
 21
427.314506
 31
0.0
  0
LINE
  5
345
100
AcDbEntity
  8
LAY-1
  6
CONTINUOUS
 62
     7
100
AcDbLine
 10
1569.609564
 20
427.314506
 30
0.0
 11
1568.421595
 21
428.00038
 31
0.0
  0
LINE
  5
346
100
AcDbEntity
  8
LAY-1
  6
CONTINUOUS
 62
     7
100
AcDbLine
 10
1548.609774
 20
414.685874
 30
0.0
 11
1548.609774
 21
427.314506
 31
0.0
  0
LINE
  5
347
100
AcDbEntity
  8
LAY-1
  6
CONTINUOUS
 62
     7
100
AcDbLine
 10
1549.797743
 20
414.0
 30
0.0
 11
1548.609774
 21
414.685874
 31
0.0
  0
LINE
  5
348
100
AcDbEntity
  8
LAY-1
  6
CONTINUOUS
 62
     7
100
AcDbLine
 10
1568.421595
 20
414.0
 30
0.0
 11
1565.894327
 21
414.0
 31
0.0
  0
LINE
  5
349
100
AcDbEntity
  8
LAY-1
  6
CONTINUOUS
 62
     7
100
AcDbLine
 10
1569.609564
 20
427.314506
 30
0.0
 11
1569.609564
 21
414.685874
 31
0.0
  0
LINE
  5
34A
100
AcDbEntity
  8
LAY-1
  6
CONTINUOUS
 62
     7
100
AcDbLine
 10
1549.797743
 20
453.500125
 30
0.0
 11
1549.797743
 21
465.500005
 31
0.0
  0
LINE
  5
34B
100
AcDbEntity
  8
LAY-1
  6
CONTINUOUS
 62
     7
100
AcDbLine
 10
1557.9217
 20
453.500125
 30
0.0
 11
1549.797743
 21
453.500125
 31
0.0
  0
LINE
  5
34C
100
AcDbEntity
  8
LAY-1
  6
CONTINUOUS
 62
     7
100
AcDbLine
 10
1557.9217
 20
465.500005
 30
0.0
 11
1557.9217
 21
453.500125
 31
0.0
  0
LINE
  5
34D
100
AcDbEntity
  8
LAY-1
  6
CONTINUOUS
 62
     7
100
AcDbLine
 10
1568.421595
 20
453.500125
 30
0.0
 11
1560.297638
 21
453.500125
 31
0.0
  0
LINE
  5
34E
100
AcDbEntity
  8
LAY-1
  6
CONTINUOUS
 62
     7
100
AcDbLine
 10
1547.609784
 20
430.00036
 30
0.0
 11
1548.109779
 21
429.500365
 31
0.0
  0
LINE
  5
34F
100
AcDbEntity
  8
LAY-1
  6
CONTINUOUS
 62
     7
100
AcDbLine
 10
1570.109559
 20
429.500365
 30
0.0
 11
1570.609554
 21
430.00036
 31
0.0
  0
LINE
  5
350
100
AcDbEntity
  8
LAY-1
  6
CONTINUOUS
 62
     7
100
AcDbLine
 10
1549.109769
 20
466.0
 30
0.0
 11
1548.609774
 21
465.500005
 31
0.0
  0
LINE
  5
351
100
AcDbEntity
  8
LAY-1
  6
CONTINUOUS
 62
     7
100
AcDbLine
 10
1552.546921
 20
414.001237
 30
0.0
 11
1552.43689
 21
410.5
 31
0.0
  0
LINE
  5
352
100
AcDbEntity
  8
LAY-1
  6
CONTINUOUS
 62
     7
100
AcDbLine
 10
1549.609764
 20
428.00038
 30
0.0
 11
1564.609614
 21
428.00038
 31
0.0
  0
LINE
  5
353
100
AcDbEntity
  8
LAY-1
  6
CONTINUOUS
 62
     7
100
AcDbLine
 10
1551.026765
 20
409.874785
 30
0.0
 11
1551.026765
 21
405.125215
 31
0.0
  0
LINE
  5
354
100
AcDbEntity
  8
LAY-1
  6
CONTINUOUS
 62
     7
100
AcDbLine
 10
1559.109669
 20
472.01
 30
0.0
 11
1552.343357
 21
472.01
 31
0.0
  0
LINE
  5
355
100
AcDbEntity
  8
LAY-1
  6
CONTINUOUS
 62
     7
100
AcDbLine
 10
1552.281169
 20
474.0
 30
0.0
 11
1552.531169
 21
466.0
 31
0.0
  0
LINE
  5
356
100
AcDbEntity
  8
LAY-1
  6
CONTINUOUS
 62
     7
100
AcDbLine
 10
1569.609564
 20
438.990892
 30
0.0
 11
1577.118867
 21
438.990892
 31
0.0
  0
LINE
  5
357
100
AcDbEntity
  8
LAY-1
  6
CONTINUOUS
 62
     7
100
AcDbLine
 10
1570.609554
 20
437.00029
 30
0.0
 11
1547.609784
 21
437.00029
 31
0.0
  0
LINE
  5
358
100
AcDbEntity
  8
LAY-1
  6
CONTINUOUS
 62
     7
100
AcDbLine
 10
1559.109669
 20
472.01
 30
0.0
 11
1560.109669
 21
472.01
 31
0.0
  0
LINE
  5
359
100
AcDbEntity
  8
LAY-1
  6
CONTINUOUS
 62
     7
100
AcDbLine
 10
1560.109669
 20
466.0
 30
0.0
 11
1549.109769
 21
466.0
 31
0.0
  0
LINE
  5
35A
100
AcDbEntity
  8
LAY-1
  6
CONTINUOUS
 62
     7
100
AcDbLine
 10
1560.297638
 20
453.500125
 30
0.0
 11
1560.297638
 21
456.0
 31
0.0
  0
LINE
  5
35B
100
AcDbEntity
  8
LAY-1
  6
CONTINUOUS
 62
     7
100
AcDbLine
 10
1560.109669
 20
465.500005
 30
0.0
 11
1557.9217
 21
465.500005
 31
0.0
  0
LINE
  5
35C
100
AcDbEntity
  8
LAY-1
  6
CONTINUOUS
 62
     7
100
AcDbLine
 10
1568.421595
 20
456.0
 30
0.0
 11
1568.421595
 21
453.500125
 31
0.0
  0
LINE
  5
35D
100
AcDbEntity
  8
LAY-1
  6
CONTINUOUS
 62
     7
100
AcDbLine
 10
1569.609564
 20
444.500215
 30
0.0
 11
1569.609564
 21
456.0
 31
0.0
  0
LINE
  5
35E
100
AcDbEntity
  8
LAY-1
  6
CONTINUOUS
 62
     7
100
AcDbLine
 10
1560.109669
 20
474.0
 30
0.0
 11
1560.109669
 21
456.0
 31
0.0
  0
LINE
  5
35F
100
AcDbEntity
  8
LAY-1
  6
CONTINUOUS
 62
     7
100
AcDbLine
 10
1581.118827
 20
451.490767
 30
0.0
 11
1577.118867
 21
449.990782
 31
0.0
  0
LINE
  5
360
100
AcDbEntity
  8
LAY-1
  6
CONTINUOUS
 62
     7
100
AcDbLine
 10
1577.118867
 20
449.990782
 30
0.0
 11
1569.609564
 21
449.990782
 31
0.0
  0
LINE
  5
361
100
AcDbEntity
  8
LAY-1
  6
CONTINUOUS
 62
     7
100
AcDbLine
 10
1577.118867
 20
438.990892
 30
0.0
 11
1581.118827
 21
437.490907
 31
0.0
  0
LINE
  5
362
100
AcDbEntity
  8
LAY-1
  6
CONTINUOUS
 62
     7
100
AcDbLine
 10
1581.118827
 20
437.490907
 30
0.0
 11
1588.118757
 21
437.490907
 31
0.0
  0
LINE
  5
363
100
AcDbEntity
  8
LAY-1
  6
CONTINUOUS
 62
     7
100
AcDbLine
 10
1588.118757
 20
451.490767
 30
0.0
 11
1581.118827
 21
451.490767
 31
0.0
  0
ARC
  5
364
100
AcDbEntity
  8
LAY-1
  6
CONTINUOUS
 62
     7
100
AcDbCircle
 10
1614.618492
 20
444.490837
 30
0.0
 40
4.499955
100
AcDbArc
 50
275.347159
 51
84.65284
  0
LINE
  5
365
100
AcDbEntity
  8
LAY-1
  6
CONTINUOUS
 62
     7
100
AcDbLine
 10
1588.118757
 20
437.490907
 30
0.0
 11
1615.037843
 21
440.010464
 31
0.0
  0
LINE
  5
366
100
AcDbEntity
  8
LAY-1
  6
CONTINUOUS
 62
     7
100
AcDbLine
 10
1615.037843
 20
448.97121
 30
0.0
 11
1588.118757
 21
451.490767
 31
0.0
  0
LINE
  5
367
100
AcDbEntity
  8
LAY-1
  6
CONTINUOUS
 62
     7
100
AcDbLine
 10
1538.609669
 20
448.0
 30
0.0
 11
1538.609669
 21
408.0
 31
0.0
  0
LINE
  5
368
100
AcDbEntity
  8
LAY-1
  6
CONTINUOUS
 62
     7
100
AcDbLine
 10
1506.609669
 20
408.0
 30
0.0
 11
1538.609669
 21
408.0
 31
0.0
  0
LINE
  5
369
100
AcDbEntity
  8
LAY-1
  6
CONTINUOUS
 62
     7
100
AcDbLine
 10
1536.209669
 20
396.326
 30
0.0
 11
1535.844857
 21
408.0
 31
0.0
  0
LINE
  5
36A
100
AcDbEntity
  8
LAY-1
  6
CONTINUOUS
 62
     7
100
AcDbLine
 10
1538.609669
 20
448.0
 30
0.0
 11
1522.609669
 21
448.0
 31
0.0
  0
LINE
  5
36B
100
AcDbEntity
  8
LAY-1
  6
CONTINUOUS
 62
     7
100
AcDbLine
 10
1506.609669
 20
448.0
 30
0.0
 11
1522.609669
 21
448.0
 31
0.0
  0
LINE
  5
36C
100
AcDbEntity
  8
LAY-1
  6
CONTINUOUS
 62
     7
100
AcDbLine
 10
1536.209669
 20
459.674
 30
0.0
 11
1535.844857
 21
448.0
 31
0.0
  0
LINE
  5
36D
100
AcDbEntity
  8
LAY-1
  6
CONTINUOUS
 62
     7
100
AcDbLine
 10
1528.109669
 20
457.06
 30
0.0
 11
1536.127982
 21
457.06
 31
0.0
  0
LINE
  5
36E
100
AcDbEntity
  8
LAY-1
  6
CONTINUOUS
 62
     7
100
AcDbLine
 10
1536.209669
 20
474.0
 30
0.0
 11
1536.209669
 21
459.674
 31
0.0
  0
LINE
  5
36F
100
AcDbEntity
  8
LAY-1
  6
CONTINUOUS
 62
     7
100
AcDbLine
 10
1527.109669
 20
457.06
 30
0.0
 11
1529.127332
 21
457.06
 31
0.0
  0
LINE
  5
370
100
AcDbEntity
  8
LAY-1
  6
CONTINUOUS
 62
     7
100
AcDbLine
 10
1509.124482
 20
456.0
 30
0.0
 11
1509.374482
 21
448.0
 31
0.0
  0
LINE
  5
371
100
AcDbEntity
  8
LAY-1
  6
EXLTYPE3
 62
     1
100
AcDbLine
 10
1668.419847
 20
1007.0
 30
0.0
 11
1411.909669
 21
1007.0
 31
0.0
  0
LINE
  5
372
100
AcDbEntity
  8
LAY-1
  6
EXLTYPE3
 62
     1
100
AcDbLine
 10
1579.609669
 20
1057.6
 30
0.0
 11
1579.609669
 21
960.7
 31
0.0
  0
LINE
  5
373
100
AcDbEntity
  8
LAY-1
  6
EXLTYPE3
 62
     1
100
AcDbLine
 10
1485.109669
 20
359.3
 30
0.0
 11
1485.109669
 21
329.7
 31
0.0
  0
LINE
  5
374
100
AcDbEntity
  8
LAY-1
  6
EXLTYPE3
 62
     1
100
AcDbLine
 10
1560.109669
 20
359.3
 30
0.0
 11
1560.109669
 21
329.7
 31
0.0
  0
LINE
  5
375
100
AcDbEntity
  8
LAY-1
  6
CONTINUOUS
 62
     1
100
AcDbLine
 10
1535.114766
 20
398.681315
 30
0.0
 11
1536.284402
 21
396.655446
 31
0.0
  0
LINE
  5
376
100
AcDbEntity
  8
LAY-1
  6
CONTINUOUS
 62
     1
100
AcDbLine
 10
1510.253924
 20
398.94
 30
0.0
 11
1508.934936
 21
396.655446
 31
0.0
  0
LINE
  5
377
100
AcDbEntity
  8
LAY-1
  6
CONTINUOUS
 62
     1
100
AcDbLine
 10
1510.253924
 20
398.94
 30
0.0
 11
1510.537049
 21
408.0
 31
0.0
  0
LINE
  5
378
100
AcDbEntity
  8
LAY-1
  6
EXLTYPE3
 62
     1
100
AcDbLine
 10
1603.639185
 20
496.0
 30
0.0
 11
1644.039185
 21
496.0
 31
0.0
  0
LINE
  5
379
100
AcDbEntity
  8
LAY-1
  6
EXLTYPE3
 62
     1
100
AcDbLine
 10
1622.609669
 20
515.7
 30
0.0
 11
1622.609669
 21
473.8
 31
0.0
  0
LINE
  5
37A
100
AcDbEntity
  8
LAY-1
  6
CONTINUOUS
 62
     1
100
AcDbLine
 10
1572.118917
 20
438.990892
 30
0.0
 11
1572.118917
 21
449.990782
 31
0.0
  0
LINE
  5
37B
100
AcDbEntity
  8
LAY-1
  6
CONTINUOUS
 62
     1
100
AcDbLine
 10
1553.199774
 20
472.01
 30
0.0
 11
1552.294349
 21
473.578243
 31
0.0
  0
LINE
  5
37C
100
AcDbEntity
  8
LAY-1
  6
CONTINUOUS
 62
     1
100
AcDbLine
 10
1553.199774
 20
472.01
 30
0.0
 11
1553.387587
 21
466.0
 31
0.0
  0
ARC
  5
37D
100
AcDbEntity
  8
LAY-1
  6
CONTINUOUS
 62
     1
100
AcDbCircle
 10
1576.618872
 20
444.490837
 30
0.0
 40
9.9999
100
AcDbArc
 50
326.632987
 51
33.367013
  0
LINE
  5
37E
100
AcDbEntity
  8
LAY-1
  6
CONTINUOUS
 62
     1
100
AcDbLine
 10
1584.970435
 20
449.990782
 30
0.0
 11
1585.400719
 21
448.697302
 31
0.0
  0
LINE
  5
37F
100
AcDbEntity
  8
LAY-1
  6
CONTINUOUS
 62
     1
100
AcDbLine
 10
1584.970435
 20
449.990782
 30
0.0
 11
1586.034087
 21
449.046428
 31
0.0
  0
LINE
  5
380
100
AcDbEntity
  8
LAY-1
  6
CONTINUOUS
 62
     1
100
AcDbLine
 10
1584.970435
 20
438.990892
 30
0.0
 11
1586.034087
 21
439.935246
 31
0.0
  0
LINE
  5
381
100
AcDbEntity
  8
LAY-1
  6
CONTINUOUS
 62
     1
100
AcDbLine
 10
1584.970435
 20
438.990892
 30
0.0
 11
1585.400719
 21
440.284372
 31
0.0
  0
LINE
  5
382
100
AcDbEntity
  8
LAY-1
  6
CONTINUOUS
 62
     1
100
AcDbLine
 10
1534.965414
 20
398.94
 30
0.0
 11
1534.682289
 21
408.0
 31
0.0
  0
LINE
  5
383
100
AcDbEntity
  8
LAY-1
  6
CONTINUOUS
 62
     1
100
AcDbLine
 10
1534.965414
 20
457.06
 30
0.0
 11
1536.284402
 21
459.344554
 31
0.0
  0
LINE
  5
384
100
AcDbEntity
  8
LAY-1
  6
CONTINUOUS
 62
     1
100
AcDbLine
 10
1534.965414
 20
457.06
 30
0.0
 11
1534.682289
 21
448.0
 31
0.0
  0
LINE
  5
385
100
AcDbEntity
  8
LAY-1
  6
CONTINUOUS
 62
     1
100
AcDbLine
 10
1510.287049
 20
456.0
 30
0.0
 11
1510.537049
 21
448.0
 31
0.0
  0
LINE
  5
386
100
AcDbEntity
  8
LAY-1
  6
CONTINUOUS
 62
     7
100
AcDbLine
 10
543.309626
 20
1021.610354
 30
0.0
 11
543.309626
 21
1007.1
 31
0.0
  0
LINE
  5
387
100
AcDbEntity
  8
LAY-1
  6
CONTINUOUS
 62
     7
100
AcDbLine
 10
543.309626
 20
992.389646
 30
0.0
 11
543.309626
 21
1006.9
 31
0.0
  0
LINE
  5
388
100
AcDbEntity
  8
LAY-1
  6
CONTINUOUS
 62
     7
100
AcDbLine
 10
522.605178
 20
1007.0
 30
0.0
 11
522.605178
 21
980.146965
 31
0.0
  0
ARC
  5
389
100
AcDbEntity
  8
LAY-1
  6
CONTINUOUS
 62
     7
100
AcDbCircle
 10
533.309626
 20
992.389646
 30
0.0
 40
10.0
100
AcDbArc
 50
273.0
 51
0.0
  0
ARC
  5
38A
100
AcDbEntity
  8
LAY-1
  6
CONTINUOUS
 62
     7
100
AcDbCircle
 10
523.809626
 20
980.876676
 30
0.0
 40
1.0
100
AcDbArc
 50
93.0
 51
174.089092
  0
ARC
  5
38B
100
AcDbEntity
  8
LAY-1
  6
CONTINUOUS
 62
     7
100
AcDbCircle
 10
519.830893
 20
981.288604
 30
0.0
 40
3.0
100
AcDbArc
 50
273.0
 51
354.089092
  0
LINE
  5
38C
100
AcDbEntity
  8
LAY-1
  6
CONTINUOUS
 62
     7
100
AcDbLine
 10
533.832985
 20
982.40335
 30
0.0
 11
523.75729
 21
981.875305
 31
0.0
  0
LINE
  5
38D
100
AcDbEntity
  8
LAY-1
  6
CONTINUOUS
 62
     7
100
AcDbLine
 10
522.605178
 20
1007.0
 30
0.0
 11
522.605178
 21
1033.853035
 31
0.0
  0
ARC
  5
38E
100
AcDbEntity
  8
LAY-1
  6
CONTINUOUS
 62
     7
100
AcDbCircle
 10
533.309626
 20
1021.610354
 30
0.0
 40
10.0
100
AcDbArc
 50
0.0
 51
87.0
  0
ARC
  5
38F
100
AcDbEntity
  8
LAY-1
  6
CONTINUOUS
 62
     7
100
AcDbCircle
 10
523.809626
 20
1033.123324
 30
0.0
 40
1.0
100
AcDbArc
 50
185.910908
 51
267.0
  0
ARC
  5
390
100
AcDbEntity
  8
LAY-1
  6
CONTINUOUS
 62
     7
100
AcDbCircle
 10
519.830893
 20
1032.711396
 30
0.0
 40
3.0
100
AcDbArc
 50
5.910908
 51
87.0
  0
LINE
  5
391
100
AcDbEntity
  8
LAY-1
  6
CONTINUOUS
 62
     7
100
AcDbLine
 10
533.832985
 20
1031.59665
 30
0.0
 11
523.75729
 21
1032.124695
 31
0.0
  0
CIRCLE
  5
392
100
AcDbEntity
  8
LAY-1
  6
CONTINUOUS
 62
     7
100
AcDbCircle
 10
382.609669
 20
1007.0
 30
0.0
 40
47.5
  0
CIRCLE
  5
393
100
AcDbEntity
  8
LAY-1
  6
CONTINUOUS
 62
     7
100
AcDbCircle
 10
407.358406
 20
982.251263
 30
0.0
 40
7.5
  0
CIRCLE
  5
394
100
AcDbEntity
  8
LAY-1
  6
CONTINUOUS
 62
     7
100
AcDbCircle
 10
382.609669
 20
1007.0
 30
0.0
 40
25.5
  0
CIRCLE
  5
395
100
AcDbEntity
  8
LAY-1
  6
CONTINUOUS
 62
     7
100
AcDbCircle
 10
382.609669
 20
1007.0
 30
0.0
 40
10.85
  0
CIRCLE
  5
396
100
AcDbEntity
  8
LAY-1
  6
CONTINUOUS
 62
     7
100
AcDbCircle
 10
382.609669
 20
1007.0
 30
0.0
 40
7.15
  0
CIRCLE
  5
397
100
AcDbEntity
  8
LAY-1
  6
CONTINUOUS
 62
     7
100
AcDbCircle
 10
407.358406
 20
1031.748737
 30
0.0
 40
7.5
  0
CIRCLE
  5
398
100
AcDbEntity
  8
LAY-1
  6
CONTINUOUS
 62
     7
100
AcDbCircle
 10
357.860932
 20
1031.748737
 30
0.0
 40
7.5
  0
CIRCLE
  5
399
100
AcDbEntity
  8
LAY-1
  6
CONTINUOUS
 62
     7
100
AcDbCircle
 10
357.860932
 20
982.251263
 30
0.0
 40
7.5
  0
LINE
  5
39A
100
AcDbEntity
  8
LAY-1
  6
CONTINUOUS
 62
     7
100
AcDbLine
 10
508.609669
 20
1036.303593
 30
0.0
 11
519.987901
 21
1035.707285
 31
0.0
  0
LINE
  5
39B
100
AcDbEntity
  8
LAY-1
  6
CONTINUOUS
 62
     7
100
AcDbLine
 10
508.609669
 20
977.696407
 30
0.0
 11
519.987901
 21
978.292715
 31
0.0
  0
LINE
  5
39C
100
AcDbEntity
  8
LAY-1
  6
CONTINUOUS
 62
     7
100
AcDbLine
 10
300.609669
 20
1092.0
 30
0.0
 11
508.609669
 21
1092.0
 31
0.0
  0
LINE
  5
39D
100
AcDbEntity
  8
LAY-1
  6
CONTINUOUS
 62
     7
100
AcDbLine
 10
300.609669
 20
1022.0
 30
0.0
 11
337.540278
 21
1022.0
 31
0.0
  0
LINE
  5
39E
100
AcDbEntity
  8
LAY-1
  6
CONTINUOUS
 62
     7
100
AcDbLine
 10
300.609669
 20
992.0
 30
0.0
 11
337.540278
 21
992.0
 31
0.0
  0
LINE
  5
39F
100
AcDbEntity
  8
LAY-1
  6
CONTINUOUS
 62
     7
100
AcDbLine
 10
489.609669
 20
338.0
 30
0.0
 11
489.609669
 21
352.0
 31
0.0
  0
LINE
  5
3A0
100
AcDbEntity
  8
LAY-1
  6
CONTINUOUS
 62
     7
100
AcDbLine
 10
456.009669
 20
352.0
 30
0.0
 11
453.209669
 21
354.8
 31
0.0
  0
LINE
  5
3A1
100
AcDbEntity
  8
LAY-1
  6
CONTINUOUS
 62
     7
100
AcDbLine
 10
439.609669
 20
338.0
 30
0.0
 11
489.609669
 21
338.0
 31
0.0
  0
LINE
  5
3A2
100
AcDbEntity
  8
LAY-1
  6
CONTINUOUS
 62
     7
100
AcDbLine
 10
389.609669
 20
338.0
 30
0.0
 11
389.609669
 21
352.0
 31
0.0
  0
LINE
  5
3A3
100
AcDbEntity
  8
LAY-1
  6
CONTINUOUS
 62
     7
100
AcDbLine
 10
423.209669
 20
352.0
 30
0.0
 11
426.009669
 21
354.8
 31
0.0
  0
LINE
  5
3A4
100
AcDbEntity
  8
LAY-1
  6
CONTINUOUS
 62
     7
100
AcDbLine
 10
439.609669
 20
338.0
 30
0.0
 11
389.609669
 21
338.0
 31
0.0
  0
LINE
  5
3A5
100
AcDbEntity
  8
LAY-1
  6
CONTINUOUS
 62
     7
100
AcDbLine
 10
489.609669
 20
352.0
 30
0.0
 11
439.609669
 21
352.0
 31
0.0
  0
LINE
  5
3A6
100
AcDbEntity
  8
LAY-1
  6
CONTINUOUS
 62
     7
100
AcDbLine
 10
389.609669
 20
352.0
 30
0.0
 11
439.609669
 21
352.0
 31
0.0
  0
LINE
  5
3A7
100
AcDbEntity
  8
LAY-1
  6
CONTINUOUS
 62
     7
100
AcDbLine
 10
453.209669
 20
354.8
 30
0.0
 11
426.009669
 21
354.8
 31
0.0
  0
LINE
  5
3A8
100
AcDbEntity
  8
LAY-1
  6
CONTINUOUS
 62
     7
100
AcDbLine
 10
396.209669
 20
476.288
 30
0.0
 11
396.531169
 21
466.0
 31
0.0
  0
LINE
  5
3A9
100
AcDbEntity
  8
LAY-1
  6
CONTINUOUS
 62
     7
100
AcDbLine
 10
403.109669
 20
472.01
 30
0.0
 11
396.343357
 21
472.01
 31
0.0
  0
LINE
  5
3AA
100
AcDbEntity
  8
LAY-1
  6
CONTINUOUS
 62
     7
100
AcDbLine
 10
403.109669
 20
472.01
 30
0.0
 11
409.875982
 21
472.01
 31
0.0
  0
LINE
  5
3AB
100
AcDbEntity
  8
LAY-1
  6
CONTINUOUS
 62
     7
100
AcDbLine
 10
410.009669
 20
476.288
 30
0.0
 11
409.688169
 21
466.0
 31
0.0
  0
LINE
  5
3AC
100
AcDbEntity
  8
LAY-1
  6
CONTINUOUS
 62
     7
100
AcDbLine
 10
410.009669
 20
478.0
 30
0.0
 11
410.009669
 21
476.288
 31
0.0
  0
LINE
  5
3AD
100
AcDbEntity
  8
LAY-1
  6
CONTINUOUS
 62
     7
100
AcDbLine
 10
396.209669
 20
478.0
 30
0.0
 11
396.209669
 21
476.288
 31
0.0
  0
LINE
  5
3AE
100
AcDbEntity
  8
LAY-1
  6
CONTINUOUS
 62
     7
100
AcDbLine
 10
396.600356
 20
437.570255
 30
0.0
 11
396.100361
 21
437.570255
 31
0.0
  0
LINE
  5
3AF
100
AcDbEntity
  8
LAY-1
  6
CONTINUOUS
 62
     7
100
AcDbLine
 10
396.600356
 20
435.19093
 30
0.0
 11
396.600356
 21
437.570255
 31
0.0
  0
LINE
  5
3B0
100
AcDbEntity
  8
LAY-1
  6
CONTINUOUS
 62
     7
100
AcDbLine
 10
400.600316
 20
437.490907
 30
0.0
 11
400.600316
 21
435.19093
 31
0.0
  0
LINE
  5
3B1
100
AcDbEntity
  8
LAY-1
  6
CONTINUOUS
 62
     7
100
AcDbLine
 10
400.800291
 20
448.500175
 30
0.0
 11
398.490913
 21
444.500215
 31
0.0
  0
LINE
  5
3B2
100
AcDbEntity
  8
LAY-1
  6
CONTINUOUS
 62
     7
100
AcDbLine
 10
405.419047
 20
448.500175
 30
0.0
 11
400.800291
 21
448.500175
 31
0.0
  0
LINE
  5
3B3
100
AcDbEntity
  8
LAY-1
  6
CONTINUOUS
 62
     7
100
AcDbLine
 10
398.490913
 20
444.500215
 30
0.0
 11
400.800291
 21
440.500255
 31
0.0
  0
LINE
  5
3B4
100
AcDbEntity
  8
LAY-1
  6
CONTINUOUS
 62
     7
100
AcDbLine
 10
401.109689
 20
446.0002
 30
0.0
 11
401.109689
 21
443.00023
 31
0.0
  0
LINE
  5
3B5
100
AcDbEntity
  8
LAY-1
  6
CONTINUOUS
 62
     7
100
AcDbLine
 10
405.109649
 20
443.00023
 30
0.0
 11
405.109649
 21
446.0002
 31
0.0
  0
CIRCLE
  5
3B6
100
AcDbEntity
  8
LAY-1
  6
CONTINUOUS
 62
     7
100
AcDbCircle
 10
403.109669
 20
444.500215
 30
0.0
 40
2.499975
  0
CIRCLE
  5
3B7
100
AcDbEntity
  8
LAY-1
  6
CONTINUOUS
 62
     7
100
AcDbCircle
 10
403.109669
 20
444.500215
 30
0.0
 40
3.99996
  0
LINE
  5
3B8
100
AcDbEntity
  8
LAY-1
  6
CONTINUOUS
 62
     7
100
AcDbLine
 10
407.728425
 20
444.500215
 30
0.0
 11
405.419047
 21
448.500175
 31
0.0
  0
LINE
  5
3B9
100
AcDbEntity
  8
LAY-1
  6
CONTINUOUS
 62
     7
100
AcDbLine
 10
405.419047
 20
440.500255
 30
0.0
 11
407.728425
 21
444.500215
 31
0.0
  0
LINE
  5
3BA
100
AcDbEntity
  8
LAY-1
  6
CONTINUOUS
 62
     7
100
AcDbLine
 10
400.800291
 20
440.500255
 30
0.0
 11
405.419047
 21
440.500255
 31
0.0
  0
ARC
  5
3BB
100
AcDbEntity
  8
LAY-1
  6
CONTINUOUS
 62
     7
100
AcDbCircle
 10
403.109669
 20
444.500215
 30
0.0
 40
2.099979
100
AcDbArc
 50
197.75279
 51
342.24721
  0
ARC
  5
3BC
100
AcDbEntity
  8
LAY-1
  6
CONTINUOUS
 62
     7
100
AcDbCircle
 10
403.109669
 20
444.500215
 30
0.0
 40
2.099979
100
AcDbArc
 50
17.75279
 51
162.24721
  0
LINE
  5
3BD
100
AcDbEntity
  8
LAY-1
  6
CONTINUOUS
 62
     7
100
AcDbLine
 10
396.600356
 20
435.19093
 30
0.0
 11
400.600316
 21
435.19093
 31
0.0
  0
LINE
  5
3BE
100
AcDbEntity
  8
LAY-1
  6
CONTINUOUS
 62
     7
100
AcDbLine
 10
396.100361
 20
451.490767
 30
0.0
 11
412.100201
 21
451.490767
 31
0.0
  0
LINE
  5
3BF
100
AcDbEntity
  8
LAY-1
  6
CONTINUOUS
 62
     7
100
AcDbLine
 10
412.109579
 20
451.500145
 30
0.0
 11
412.109579
 21
447.00019
 31
0.0
  0
ARC
  5
3C0
100
AcDbEntity
  8
LAY-1
  6
CONTINUOUS
 62
     7
100
AcDbCircle
 10
403.100291
 20
444.490837
 30
0.0
 40
6.99993
100
AcDbArc
 50
270.0
 51
0.0
  0
LINE
  5
3C1
100
AcDbEntity
  8
LAY-1
  6
CONTINUOUS
 62
     7
100
AcDbLine
 10
396.100361
 20
437.490907
 30
0.0
 11
393.100391
 21
438.990892
 31
0.0
  0
LINE
  5
3C2
100
AcDbEntity
  8
LAY-1
  6
CONTINUOUS
 62
     7
100
AcDbLine
 10
393.100391
 20
449.990782
 30
0.0
 11
396.100361
 21
451.490767
 31
0.0
  0
LINE
  5
3C3
100
AcDbEntity
  8
LAY-1
  6
CONTINUOUS
 62
     7
100
AcDbLine
 10
396.109669
 20
410.5
 30
0.0
 11
409.171847
 21
410.5
 31
0.0
  0
LINE
  5
3C4
100
AcDbEntity
  8
LAY-1
  6
CONTINUOUS
 62
     7
100
AcDbLine
 10
395.260291
 20
414.0
 30
0.0
 11
412.421595
 21
414.0
 31
0.0
  0
LINE
  5
3C5
100
AcDbEntity
  8
LAY-1
  6
CONTINUOUS
 62
     7
100
AcDbLine
 10
414.109559
 20
429.500365
 30
0.0
 11
395.260291
 21
429.500365
 31
0.0
  0
LINE
  5
3C6
100
AcDbEntity
  8
LAY-1
  6
CONTINUOUS
 62
     7
100
AcDbLine
 10
393.609764
 20
442.00024
 30
0.0
 11
396.109739
 21
442.00024
 31
0.0
  0
LINE
  5
3C7
100
AcDbEntity
  8
LAY-1
  6
CONTINUOUS
 62
     7
100
AcDbLine
 10
413.609564
 20
438.00028
 30
0.0
 11
395.650291
 21
438.00028
 31
0.0
  0
LINE
  5
3C8
100
AcDbEntity
  8
LAY-1
  6
CONTINUOUS
 62
     7
100
AcDbLine
 10
395.550291
 20
437.00029
 30
0.0
 11
414.609554
 21
437.00029
 31
0.0
  0
LINE
  5
3C9
100
AcDbEntity
  8
LAY-1
  6
CONTINUOUS
 62
     7
100
AcDbLine
 10
397.109669
 20
404.5
 30
0.0
 11
410.109669
 21
404.5
 31
0.0
  0
LINE
  5
3CA
100
AcDbEntity
  8
LAY-1
  6
CONTINUOUS
 62
     7
100
AcDbLine
 10
396.546858
 20
413.999235
 30
0.0
 11
396.43689
 21
410.5
 31
0.0
  0
ARC
  5
3CB
100
AcDbEntity
  8
LAY-1
  6
CONTINUOUS
 62
     7
100
AcDbCircle
 10
409.171847
 20
406.921848
 30
0.0
 40
3.578152
100
AcDbArc
 50
55.615753
 51
90.995683
  0
LINE
  5
3CC
100
AcDbEntity
  8
LAY-1
  6
CONTINUOUS
 62
     7
100
AcDbLine
 10
395.026765
 20
409.874785
 30
0.0
 11
396.109669
 21
410.5
 31
0.0
  0
LINE
  5
3CD
100
AcDbEntity
  8
LAY-1
  6
CONTINUOUS
 62
     7
100
AcDbLine
 10
410.109669
 20
410.5
 30
0.0
 11
411.192573
 21
409.874785
 31
0.0
  0
LINE
  5
3CE
100
AcDbEntity
  8
LAY-1
  6
CONTINUOUS
 62
     7
100
AcDbLine
 10
410.109669
 20
404.5
 30
0.0
 11
411.192573
 21
405.125215
 31
0.0
  0
LINE
  5
3CF
100
AcDbEntity
  8
LAY-1
  6
CONTINUOUS
 62
     7
100
AcDbLine
 10
396.109669
 20
404.5
 30
0.0
 11
397.109669
 21
404.5
 31
0.0
  0
LINE
  5
3D0
100
AcDbEntity
  8
LAY-1
  6
CONTINUOUS
 62
     7
100
AcDbLine
 10
395.026765
 20
405.125215
 30
0.0
 11
396.109669
 21
404.5
 31
0.0
  0
LINE
  5
3D1
100
AcDbEntity
  8
LAY-1
  6
CONTINUOUS
 62
     7
100
AcDbLine
 10
395.026765
 20
409.874785
 30
0.0
 11
395.026765
 21
405.125215
 31
0.0
  0
LINE
  5
3D2
100
AcDbEntity
  8
LAY-1
  6
CONTINUOUS
 62
     7
100
AcDbLine
 10
409.171847
 20
410.5
 30
0.0
 11
410.109669
 21
410.5
 31
0.0
  0
LINE
  5
3D3
100
AcDbEntity
  8
LAY-1
  6
CONTINUOUS
 62
     7
100
AcDbLine
 10
393.609764
 20
447.00019
 30
0.0
 11
393.609764
 21
442.00024
 31
0.0
  0
LINE
  5
3D4
100
AcDbEntity
  8
LAY-1
  6
CONTINUOUS
 62
     7
100
AcDbLine
 10
412.409576
 20
442.00024
 30
0.0
 11
412.409576
 21
437.500285
 31
0.0
  0
LINE
  5
3D5
100
AcDbEntity
  8
LAY-1
  6
CONTINUOUS
 62
     7
100
AcDbLine
 10
392.609774
 20
444.500215
 30
0.0
 11
392.609774
 21
465.500005
 31
0.0
  0
LINE
  5
3D6
100
AcDbEntity
  8
LAY-1
  6
CONTINUOUS
 62
     7
100
AcDbLine
 10
396.109739
 20
437.00029
 30
0.0
 11
393.809762
 21
437.00029
 31
0.0
  0
LINE
  5
3D7
100
AcDbEntity
  8
LAY-1
  6
CONTINUOUS
 62
     7
100
AcDbLine
 10
392.609774
 20
438.00028
 30
0.0
 11
396.109739
 21
438.00028
 31
0.0
  0
LINE
  5
3D8
100
AcDbEntity
  8
LAY-1
  6
CONTINUOUS
 62
     7
100
AcDbLine
 10
414.609554
 20
437.00029
 30
0.0
 11
414.609554
 21
430.00036
 31
0.0
  0
LINE
  5
3D9
100
AcDbEntity
  8
LAY-1
  6
CONTINUOUS
 62
     7
100
AcDbLine
 10
393.797743
 20
414.685874
 30
0.0
 11
392.609774
 21
415.371748
 31
0.0
  0
LINE
  5
3DA
100
AcDbEntity
  8
LAY-1
  6
CONTINUOUS
 62
     7
100
AcDbLine
 10
393.797743
 20
414.0
 30
0.0
 11
392.609774
 21
414.685874
 31
0.0
  0
LINE
  5
3DB
100
AcDbEntity
  8
LAY-1
  6
CONTINUOUS
 62
     7
100
AcDbLine
 10
413.609564
 20
438.00028
 30
0.0
 11
414.609554
 21
437.00029
 31
0.0
  0
LINE
  5
3DC
100
AcDbEntity
  8
LAY-1
  6
CONTINUOUS
 62
     7
100
AcDbLine
 10
413.609564
 20
465.500005
 30
0.0
 11
413.609564
 21
438.00028
 31
0.0
  0
LINE
  5
3DD
100
AcDbEntity
  8
LAY-1
  6
CONTINUOUS
 62
     7
100
AcDbLine
 10
393.109769
 20
466.0
 30
0.0
 11
413.109569
 21
466.0
 31
0.0
  0
LINE
  5
3DE
100
AcDbEntity
  8
LAY-1
  6
CONTINUOUS
 62
     7
100
AcDbLine
 10
393.609764
 20
447.00019
 30
0.0
 11
396.109739
 21
447.00019
 31
0.0
  0
LINE
  5
3DF
100
AcDbEntity
  8
LAY-1
  6
CONTINUOUS
 62
     7
100
AcDbLine
 10
392.609774
 20
438.00028
 30
0.0
 11
392.609774
 21
444.500215
 31
0.0
  0
LINE
  5
3E0
100
AcDbEntity
  8
LAY-1
  6
CONTINUOUS
 62
     7
100
AcDbLine
 10
391.609784
 20
437.00029
 30
0.0
 11
392.609774
 21
438.00028
 31
0.0
  0
LINE
  5
3E1
100
AcDbEntity
  8
LAY-1
  6
CONTINUOUS
 62
     7
100
AcDbLine
 10
391.609784
 20
430.00036
 30
0.0
 11
391.609784
 21
437.00029
 31
0.0
  0
LINE
  5
3E2
100
AcDbEntity
  8
LAY-1
  6
CONTINUOUS
 62
     7
100
AcDbLine
 10
392.609774
 20
465.500005
 30
0.0
 11
393.109769
 21
466.0
 31
0.0
  0
LINE
  5
3E3
100
AcDbEntity
  8
LAY-1
  6
CONTINUOUS
 62
     7
100
AcDbLine
 10
391.609784
 20
437.00029
 30
0.0
 11
393.809762
 21
437.00029
 31
0.0
  0
LINE
  5
3E4
100
AcDbEntity
  8
LAY-1
  6
CONTINUOUS
 62
     7
100
AcDbLine
 10
412.409576
 20
447.00019
 30
0.0
 11
412.409576
 21
450.300157
 31
0.0
  0
LINE
  5
3E5
100
AcDbEntity
  8
LAY-1
  6
CONTINUOUS
 62
     7
100
AcDbLine
 10
406.979026
 20
450.33349
 30
0.0
 11
412.442909
 21
450.33349
 31
0.0
  0
LINE
  5
3E6
100
AcDbEntity
  8
LAY-1
  6
CONTINUOUS
 62
     7
100
AcDbLine
 10
393.776429
 20
450.33349
 30
0.0
 11
396.109739
 21
450.33349
 31
0.0
  0
LINE
  5
3E7
100
AcDbEntity
  8
LAY-1
  6
CONTINUOUS
 62
     7
100
AcDbLine
 10
412.421595
 20
465.500005
 30
0.0
 11
413.609564
 21
465.500005
 31
0.0
  0
LINE
  5
3E8
100
AcDbEntity
  8
LAY-1
  6
CONTINUOUS
 62
     7
100
AcDbLine
 10
401.9217
 20
465.500005
 30
0.0
 11
404.297638
 21
465.500005
 31
0.0
  0
LINE
  5
3E9
100
AcDbEntity
  8
LAY-1
  6
CONTINUOUS
 62
     7
100
AcDbLine
 10
392.609774
 20
465.500005
 30
0.0
 11
393.797743
 21
465.500005
 31
0.0
  0
ARC
  5
3EA
100
AcDbEntity
  8
LAY-1
  6
CONTINUOUS
 62
     7
100
AcDbCircle
 10
408.359617
 20
449.250167
 30
0.0
 40
16.749833
100
AcDbArc
 50
75.965352
 51
104.034648
  0
LINE
  5
3EB
100
AcDbEntity
  8
LAY-1
  6
CONTINUOUS
 62
     7
100
AcDbLine
 10
393.609764
 20
429.500365
 30
0.0
 11
393.609764
 21
428.00038
 31
0.0
  0
ARC
  5
3EC
100
AcDbEntity
  8
LAY-1
  6
CONTINUOUS
 62
     7
100
AcDbCircle
 10
397.859722
 20
449.250167
 30
0.0
 40
16.749833
100
AcDbArc
 50
75.965352
 51
104.034648
  0
LINE
  5
3ED
100
AcDbEntity
  8
LAY-1
  6
CONTINUOUS
 62
     7
100
AcDbLine
 10
412.609574
 20
428.00038
 30
0.0
 11
412.609574
 21
429.500365
 31
0.0
  0
LINE
  5
3EE
100
AcDbEntity
  8
LAY-1
  6
CONTINUOUS
 62
     7
100
AcDbLine
 10
412.421595
 20
414.685874
 30
0.0
 11
412.421595
 21
427.314506
 31
0.0
  0
LINE
  5
3EF
100
AcDbEntity
  8
LAY-1
  6
CONTINUOUS
 62
     7
100
AcDbLine
 10
393.797743
 20
427.314506
 30
0.0
 11
393.797743
 21
414.685874
 31
0.0
  0
ARC
  5
3F0
100
AcDbEntity
  8
LAY-1
  6
CONTINUOUS
 62
     7
100
AcDbCircle
 10
397.859722
 20
426.371142
 30
0.0
 40
12.371142
100
AcDbArc
 50
250.831763
 51
262.831528
  0
ARC
  5
3F1
100
AcDbEntity
  8
LAY-1
  6
CONTINUOUS
 62
     7
100
AcDbCircle
 10
408.359617
 20
426.371142
 30
0.0
 40
12.371142
100
AcDbArc
 50
277.168473
 51
289.168237
  0
LINE
  5
3F2
100
AcDbEntity
  8
LAY-1
  6
CONTINUOUS
 62
     7
100
AcDbLine
 10
397.609724
 20
429.500365
 30
0.0
 11
392.109779
 21
429.500365
 31
0.0
  0
LINE
  5
3F3
100
AcDbEntity
  8
LAY-1
  6
CONTINUOUS
 62
     7
100
AcDbLine
 10
397.609724
 20
428.00038
 30
0.0
 11
393.797743
 21
428.00038
 31
0.0
  0
ARC
  5
3F4
100
AcDbEntity
  8
LAY-1
  6
CONTINUOUS
 62
     7
100
AcDbCircle
 10
408.359617
 20
415.629238
 30
0.0
 40
12.371142
100
AcDbArc
 50
70.831763
 51
88.842081
  0
LINE
  5
3F5
100
AcDbEntity
  8
LAY-1
  6
CONTINUOUS
 62
     7
100
AcDbLine
 10
392.609774
 20
427.314506
 30
0.0
 11
393.797743
 21
427.314506
 31
0.0
  0
LINE
  5
3F6
100
AcDbEntity
  8
LAY-1
  6
CONTINUOUS
 62
     7
100
AcDbLine
 10
393.797743
 20
414.685874
 30
0.0
 11
392.609774
 21
414.685874
 31
0.0
  0
ARC
  5
3F7
100
AcDbEntity
  8
LAY-1
  6
CONTINUOUS
 62
     7
100
AcDbCircle
 10
397.859722
 20
415.629238
 30
0.0
 40
12.371142
100
AcDbArc
 50
91.157919
 51
109.168237
  0
LINE
  5
3F8
100
AcDbEntity
  8
LAY-1
  6
CONTINUOUS
 62
     7
100
AcDbLine
 10
412.421595
 20
414.685874
 30
0.0
 11
413.609564
 21
414.685874
 31
0.0
  0
LINE
  5
3F9
100
AcDbEntity
  8
LAY-1
  6
CONTINUOUS
 62
     7
100
AcDbLine
 10
413.609564
 20
427.314506
 30
0.0
 11
412.421595
 21
427.314506
 31
0.0
  0
LINE
  5
3FA
100
AcDbEntity
  8
LAY-1
  6
CONTINUOUS
 62
     7
100
AcDbLine
 10
412.421595
 20
428.00038
 30
0.0
 11
413.609564
 21
427.314506
 31
0.0
  0
LINE
  5
3FB
100
AcDbEntity
  8
LAY-1
  6
CONTINUOUS
 62
     7
100
AcDbLine
 10
392.609774
 20
427.314506
 30
0.0
 11
393.797743
 21
428.00038
 31
0.0
  0
LINE
  5
3FC
100
AcDbEntity
  8
LAY-1
  6
CONTINUOUS
 62
     7
100
AcDbLine
 10
413.609564
 20
414.685874
 30
0.0
 11
413.609564
 21
427.314506
 31
0.0
  0
LINE
  5
3FD
100
AcDbEntity
  8
LAY-1
  6
CONTINUOUS
 62
     7
100
AcDbLine
 10
412.421595
 20
414.0
 30
0.0
 11
413.609564
 21
414.685874
 31
0.0
  0
LINE
  5
3FE
100
AcDbEntity
  8
LAY-1
  6
CONTINUOUS
 62
     7
100
AcDbLine
 10
393.797743
 20
414.0
 30
0.0
 11
396.325011
 21
414.0
 31
0.0
  0
LINE
  5
3FF
100
AcDbEntity
  8
LAY-1
  6
CONTINUOUS
 62
     7
100
AcDbLine
 10
392.609774
 20
427.314506
 30
0.0
 11
392.609774
 21
414.685874
 31
0.0
  0
LINE
  5
400
100
AcDbEntity
  8
LAY-1
  6
CONTINUOUS
 62
     7
100
AcDbLine
 10
393.776429
 20
450.33349
 30
0.0
 11
392.609774
 21
451.500145
 31
0.0
  0
LINE
  5
401
100
AcDbEntity
  8
LAY-1
  6
CONTINUOUS
 62
     7
100
AcDbLine
 10
413.609564
 20
451.500145
 30
0.0
 11
412.409576
 21
450.300157
 31
0.0
  0
LINE
  5
402
100
AcDbEntity
  8
LAY-1
  6
CONTINUOUS
 62
     7
100
AcDbLine
 10
412.609574
 20
442.00024
 30
0.0
 11
409.647952
 21
442.00024
 31
0.0
  0
LINE
  5
403
100
AcDbEntity
  8
LAY-1
  6
CONTINUOUS
 62
     7
100
AcDbLine
 10
412.609574
 20
447.00019
 30
0.0
 11
412.609574
 21
442.00024
 31
0.0
  0
LINE
  5
404
100
AcDbEntity
  8
LAY-1
  6
CONTINUOUS
 62
     7
100
AcDbLine
 10
392.609774
 20
451.500145
 30
0.0
 11
396.109739
 21
451.500145
 31
0.0
  0
LINE
  5
405
100
AcDbEntity
  8
LAY-1
  6
CONTINUOUS
 62
     7
100
AcDbLine
 10
393.809762
 20
447.00019
 30
0.0
 11
393.809762
 21
450.33349
 31
0.0
  0
LINE
  5
406
100
AcDbEntity
  8
LAY-1
  6
CONTINUOUS
 62
     7
100
AcDbLine
 10
412.421595
 20
453.500125
 30
0.0
 11
412.421595
 21
465.500005
 31
0.0
  0
LINE
  5
407
100
AcDbEntity
  8
LAY-1
  6
CONTINUOUS
 62
     7
100
AcDbLine
 10
404.297638
 20
453.500125
 30
0.0
 11
412.421595
 21
453.500125
 31
0.0
  0
LINE
  5
408
100
AcDbEntity
  8
LAY-1
  6
CONTINUOUS
 62
     7
100
AcDbLine
 10
404.297638
 20
465.500005
 30
0.0
 11
404.297638
 21
453.500125
 31
0.0
  0
LINE
  5
409
100
AcDbEntity
  8
LAY-1
  6
CONTINUOUS
 62
     7
100
AcDbLine
 10
401.9217
 20
453.500125
 30
0.0
 11
401.9217
 21
465.500005
 31
0.0
  0
LINE
  5
40A
100
AcDbEntity
  8
LAY-1
  6
CONTINUOUS
 62
     7
100
AcDbLine
 10
393.797743
 20
453.500125
 30
0.0
 11
401.9217
 21
453.500125
 31
0.0
  0
LINE
  5
40B
100
AcDbEntity
  8
LAY-1
  6
CONTINUOUS
 62
     7
100
AcDbLine
 10
403.109669
 20
451.500145
 30
0.0
 11
412.109579
 21
451.500145
 31
0.0
  0
LINE
  5
40C
100
AcDbEntity
  8
LAY-1
  6
CONTINUOUS
 62
     7
100
AcDbLine
 10
414.609554
 20
430.00036
 30
0.0
 11
414.109559
 21
429.500365
 31
0.0
  0
LINE
  5
40D
100
AcDbEntity
  8
LAY-1
  6
CONTINUOUS
 62
     7
100
AcDbLine
 10
392.109779
 20
429.500365
 30
0.0
 11
391.609784
 21
430.00036
 31
0.0
  0
LINE
  5
40E
100
AcDbEntity
  8
LAY-1
  6
CONTINUOUS
 62
     7
100
AcDbLine
 10
412.109579
 20
451.500145
 30
0.0
 11
413.609564
 21
451.500145
 31
0.0
  0
LINE
  5
40F
100
AcDbEntity
  8
LAY-1
  6
CONTINUOUS
 62
     7
100
AcDbLine
 10
393.797743
 20
465.500005
 30
0.0
 11
393.797743
 21
453.500125
 31
0.0
  0
LINE
  5
410
100
AcDbEntity
  8
LAY-1
  6
CONTINUOUS
 62
     7
100
AcDbLine
 10
413.109569
 20
466.0
 30
0.0
 11
413.609564
 21
465.500005
 31
0.0
  0
LINE
  5
411
100
AcDbEntity
  8
LAY-1
  6
CONTINUOUS
 62
     7
100
AcDbLine
 10
412.609574
 20
447.00019
 30
0.0
 11
409.647952
 21
447.00019
 31
0.0
  0
LINE
  5
412
100
AcDbEntity
  8
LAY-1
  6
CONTINUOUS
 62
     7
100
AcDbLine
 10
393.809762
 20
438.00028
 30
0.0
 11
393.809762
 21
442.00024
 31
0.0
  0
LINE
  5
413
100
AcDbEntity
  8
LAY-1
  6
CONTINUOUS
 62
     7
100
AcDbLine
 10
409.672417
 20
414.001237
 30
0.0
 11
409.782448
 21
410.5
 31
0.0
  0
LINE
  5
414
100
AcDbEntity
  8
LAY-1
  6
CONTINUOUS
 62
     7
100
AcDbLine
 10
412.609574
 20
428.00038
 30
0.0
 11
397.609724
 21
428.00038
 31
0.0
  0
LINE
  5
415
100
AcDbEntity
  8
LAY-1
  6
CONTINUOUS
 62
     7
100
AcDbLine
 10
385.100471
 20
449.990782
 30
0.0
 11
393.100391
 21
449.990782
 31
0.0
  0
LINE
  5
416
100
AcDbEntity
  8
LAY-1
  6
CONTINUOUS
 62
     7
100
AcDbLine
 10
393.100391
 20
438.990892
 30
0.0
 11
385.100471
 21
438.990892
 31
0.0
  0
LINE
  5
417
100
AcDbEntity
  8
LAY-1
  6
CONTINUOUS
 62
     7
100
AcDbLine
 10
381.100511
 20
451.490767
 30
0.0
 11
385.100471
 21
449.990782
 31
0.0
  0
LINE
  5
418
100
AcDbEntity
  8
LAY-1
  6
CONTINUOUS
 62
     7
100
AcDbLine
 10
385.100471
 20
438.990892
 30
0.0
 11
381.100511
 21
437.490907
 31
0.0
  0
LINE
  5
419
100
AcDbEntity
  8
LAY-1
  6
CONTINUOUS
 62
     7
100
AcDbLine
 10
381.100511
 20
437.490907
 30
0.0
 11
374.100581
 21
437.490907
 31
0.0
  0
LINE
  5
41A
100
AcDbEntity
  8
LAY-1
  6
CONTINUOUS
 62
     7
100
AcDbLine
 10
374.100581
 20
451.490767
 30
0.0
 11
381.100511
 21
451.490767
 31
0.0
  0
ARC
  5
41B
100
AcDbEntity
  8
LAY-1
  6
CONTINUOUS
 62
     7
100
AcDbCircle
 10
347.600846
 20
444.490837
 30
0.0
 40
4.499955
100
AcDbArc
 50
95.34716
 51
264.652841
  0
LINE
  5
41C
100
AcDbEntity
  8
LAY-1
  6
CONTINUOUS
 62
     7
100
AcDbLine
 10
374.100581
 20
437.490907
 30
0.0
 11
347.181495
 21
440.010464
 31
0.0
  0
LINE
  5
41D
100
AcDbEntity
  8
LAY-1
  6
CONTINUOUS
 62
     7
100
AcDbLine
 10
347.181495
 20
448.97121
 30
0.0
 11
374.100581
 21
451.490767
 31
0.0
  0
LINE
  5
41E
100
AcDbEntity
  8
LAY-1
  6
CONTINUOUS
 62
     7
100
AcDbLine
 10
411.192573
 20
409.874785
 30
0.0
 11
411.192573
 21
405.125215
 31
0.0
  0
LINE
  5
41F
100
AcDbEntity
  8
LAY-1
  6
CONTINUOUS
 62
     7
100
AcDbLine
 10
473.609669
 20
478.0
 30
0.0
 11
473.609669
 21
474.0
 31
0.0
  0
LINE
  5
420
100
AcDbEntity
  8
LAY-1
  6
CONTINUOUS
 62
     7
100
AcDbLine
 10
363.609669
 20
478.0
 30
0.0
 11
363.609669
 21
474.0
 31
0.0
  0
LINE
  5
421
100
AcDbEntity
  8
LAY-1
  6
CONTINUOUS
 62
     7
100
AcDbLine
 10
396.281169
 20
474.0
 30
0.0
 11
363.609669
 21
474.0
 31
0.0
  0
LINE
  5
422
100
AcDbEntity
  8
LAY-1
  6
CONTINUOUS
 62
     7
100
AcDbLine
 10
464.409669
 20
467.5
 30
0.0
 11
463.659669
 21
467.933013
 31
0.0
  0
LINE
  5
423
100
AcDbEntity
  8
LAY-1
  6
CONTINUOUS
 62
     7
100
AcDbLine
 10
469.409669
 20
467.5
 30
0.0
 11
464.409669
 21
467.5
 31
0.0
  0
ARC
  5
424
100
AcDbEntity
  8
LAY-1
  6
CONTINUOUS
 62
     7
100
AcDbCircle
 10
465.091293
 20
470.083121
 30
0.0
 40
2.583121
100
AcDbArc
 50
236.342803
 51
303.657197
  0
LINE
  5
425
100
AcDbEntity
  8
LAY-1
  6
CONTINUOUS
 62
     7
100
AcDbLine
 10
474.409669
 20
467.5
 30
0.0
 11
475.159669
 21
467.933013
 31
0.0
  0
LINE
  5
426
100
AcDbEntity
  8
LAY-1
  6
CONTINUOUS
 62
     7
100
AcDbLine
 10
469.409669
 20
467.5
 30
0.0
 11
474.409669
 21
467.5
 31
0.0
  0
ARC
  5
427
100
AcDbEntity
  8
LAY-1
  6
CONTINUOUS
 62
     7
100
AcDbCircle
 10
473.728045
 20
470.083121
 30
0.0
 40
2.583121
100
AcDbArc
 50
236.342803
 51
303.657197
  0
ARC
  5
428
100
AcDbEntity
  8
LAY-1
  6
CONTINUOUS
 62
     7
100
AcDbCircle
 10
469.409669
 20
477.339011
 30
0.0
 40
9.839011
100
AcDbArc
 50
252.938469
 51
287.061531
  0
LINE
  5
429
100
AcDbEntity
  8
LAY-1
  6
CONTINUOUS
 62
     7
100
AcDbLine
 10
463.659669
 20
467.933013
 30
0.0
 11
463.659669
 21
472.5
 31
0.0
  0
LINE
  5
42A
100
AcDbEntity
  8
LAY-1
  6
CONTINUOUS
 62
     7
100
AcDbLine
 10
466.522918
 20
467.933013
 30
0.0
 11
466.522918
 21
472.5
 31
0.0
  0
LINE
  5
42B
100
AcDbEntity
  8
LAY-1
  6
CONTINUOUS
 62
     7
100
AcDbLine
 10
475.159669
 20
467.933013
 30
0.0
 11
475.159669
 21
472.5
 31
0.0
  0
LINE
  5
42C
100
AcDbEntity
  8
LAY-1
  6
CONTINUOUS
 62
     7
100
AcDbLine
 10
472.29642
 20
467.933013
 30
0.0
 11
472.29642
 21
472.5
 31
0.0
  0
LINE
  5
42D
100
AcDbEntity
  8
LAY-1
  6
CONTINUOUS
 62
     7
100
AcDbLine
 10
475.509669
 20
472.5
 30
0.0
 11
475.509669
 21
474.0
 31
0.0
  0
LINE
  5
42E
100
AcDbEntity
  8
LAY-1
  6
CONTINUOUS
 62
     7
100
AcDbLine
 10
469.409669
 20
472.5
 30
0.0
 11
475.509669
 21
472.5
 31
0.0
  0
LINE
  5
42F
100
AcDbEntity
  8
LAY-1
  6
CONTINUOUS
 62
     7
100
AcDbLine
 10
469.409669
 20
474.0
 30
0.0
 11
475.509669
 21
474.0
 31
0.0
  0
LINE
  5
430
100
AcDbEntity
  8
LAY-1
  6
CONTINUOUS
 62
     7
100
AcDbLine
 10
463.309669
 20
472.5
 30
0.0
 11
463.309669
 21
474.0
 31
0.0
  0
LINE
  5
431
100
AcDbEntity
  8
LAY-1
  6
CONTINUOUS
 62
     7
100
AcDbLine
 10
469.409669
 20
472.5
 30
0.0
 11
463.309669
 21
472.5
 31
0.0
  0
LINE
  5
432
100
AcDbEntity
  8
LAY-1
  6
CONTINUOUS
 62
     7
100
AcDbLine
 10
467.909669
 20
472.5
 30
0.0
 11
469.409669
 21
474.0
 31
0.0
  0
LINE
  5
433
100
AcDbEntity
  8
LAY-1
  6
CONTINUOUS
 62
     7
100
AcDbLine
 10
470.909669
 20
474.0
 30
0.0
 11
469.409669
 21
472.5
 31
0.0
  0
LINE
  5
434
100
AcDbEntity
  8
LAY-1
  6
CONTINUOUS
 62
     7
100
AcDbLine
 10
362.809669
 20
467.5
 30
0.0
 11
362.059669
 21
467.933013
 31
0.0
  0
LINE
  5
435
100
AcDbEntity
  8
LAY-1
  6
CONTINUOUS
 62
     7
100
AcDbLine
 10
367.809669
 20
467.5
 30
0.0
 11
362.809669
 21
467.5
 31
0.0
  0
ARC
  5
436
100
AcDbEntity
  8
LAY-1
  6
CONTINUOUS
 62
     7
100
AcDbCircle
 10
363.491293
 20
470.083121
 30
0.0
 40
2.583121
100
AcDbArc
 50
236.342803
 51
303.657197
  0
LINE
  5
437
100
AcDbEntity
  8
LAY-1
  6
CONTINUOUS
 62
     7
100
AcDbLine
 10
372.809669
 20
467.5
 30
0.0
 11
373.559669
 21
467.933013
 31
0.0
  0
LINE
  5
438
100
AcDbEntity
  8
LAY-1
  6
CONTINUOUS
 62
     7
100
AcDbLine
 10
367.809669
 20
467.5
 30
0.0
 11
372.809669
 21
467.5
 31
0.0
  0
ARC
  5
439
100
AcDbEntity
  8
LAY-1
  6
CONTINUOUS
 62
     7
100
AcDbCircle
 10
372.128045
 20
470.083121
 30
0.0
 40
2.583121
100
AcDbArc
 50
236.342803
 51
303.657197
  0
ARC
  5
43A
100
AcDbEntity
  8
LAY-1
  6
CONTINUOUS
 62
     7
100
AcDbCircle
 10
367.809669
 20
477.339011
 30
0.0
 40
9.839011
100
AcDbArc
 50
252.938469
 51
287.061531
  0
LINE
  5
43B
100
AcDbEntity
  8
LAY-1
  6
CONTINUOUS
 62
     7
100
AcDbLine
 10
362.059669
 20
467.933013
 30
0.0
 11
362.059669
 21
472.5
 31
0.0
  0
LINE
  5
43C
100
AcDbEntity
  8
LAY-1
  6
CONTINUOUS
 62
     7
100
AcDbLine
 10
364.922918
 20
467.933013
 30
0.0
 11
364.922918
 21
472.5
 31
0.0
  0
LINE
  5
43D
100
AcDbEntity
  8
LAY-1
  6
CONTINUOUS
 62
     7
100
AcDbLine
 10
373.559669
 20
467.933013
 30
0.0
 11
373.559669
 21
472.5
 31
0.0
  0
LINE
  5
43E
100
AcDbEntity
  8
LAY-1
  6
CONTINUOUS
 62
     7
100
AcDbLine
 10
370.69642
 20
467.933013
 30
0.0
 11
370.69642
 21
472.5
 31
0.0
  0
LINE
  5
43F
100
AcDbEntity
  8
LAY-1
  6
CONTINUOUS
 62
     7
100
AcDbLine
 10
373.909669
 20
472.5
 30
0.0
 11
373.909669
 21
474.0
 31
0.0
  0
LINE
  5
440
100
AcDbEntity
  8
LAY-1
  6
CONTINUOUS
 62
     7
100
AcDbLine
 10
367.809669
 20
472.5
 30
0.0
 11
373.909669
 21
472.5
 31
0.0
  0
LINE
  5
441
100
AcDbEntity
  8
LAY-1
  6
CONTINUOUS
 62
     7
100
AcDbLine
 10
361.709669
 20
472.5
 30
0.0
 11
361.709669
 21
474.0
 31
0.0
  0
LINE
  5
442
100
AcDbEntity
  8
LAY-1
  6
CONTINUOUS
 62
     7
100
AcDbLine
 10
367.809669
 20
472.5
 30
0.0
 11
361.709669
 21
472.5
 31
0.0
  0
LINE
  5
443
100
AcDbEntity
  8
LAY-1
  6
CONTINUOUS
 62
     7
100
AcDbLine
 10
367.809669
 20
474.0
 30
0.0
 11
361.709669
 21
474.0
 31
0.0
  0
LINE
  5
444
100
AcDbEntity
  8
LAY-1
  6
CONTINUOUS
 62
     7
100
AcDbLine
 10
366.309669
 20
472.5
 30
0.0
 11
367.809669
 21
474.0
 31
0.0
  0
LINE
  5
445
100
AcDbEntity
  8
LAY-1
  6
CONTINUOUS
 62
     7
100
AcDbLine
 10
369.309669
 20
474.0
 30
0.0
 11
367.809669
 21
472.5
 31
0.0
  0
LINE
  5
446
100
AcDbEntity
  8
LAY-1
  6
CONTINUOUS
 62
     7
100
AcDbLine
 10
439.609669
 20
457.06
 30
0.0
 11
426.091357
 21
457.06
 31
0.0
  0
LINE
  5
447
100
AcDbEntity
  8
LAY-1
  6
CONTINUOUS
 62
     7
100
AcDbLine
 10
439.609669
 20
457.06
 30
0.0
 11
453.127982
 21
457.06
 31
0.0
  0
LINE
  5
448
100
AcDbEntity
  8
LAY-1
  6
CONTINUOUS
 62
     7
100
AcDbLine
 10
453.209669
 20
478.0
 30
0.0
 11
453.209669
 21
459.674
 31
0.0
  0
LINE
  5
449
100
AcDbEntity
  8
LAY-1
  6
CONTINUOUS
 62
     7
100
AcDbLine
 10
426.009669
 20
478.0
 30
0.0
 11
426.009669
 21
459.188853
 31
0.0
  0
LINE
  5
44A
100
AcDbEntity
  8
LAY-1
  6
CONTINUOUS
 62
     7
100
AcDbLine
 10
453.209669
 20
459.674
 30
0.0
 11
452.844857
 21
448.0
 31
0.0
  0
LINE
  5
44B
100
AcDbEntity
  8
LAY-1
  6
CONTINUOUS
 62
     7
100
AcDbLine
 10
426.009669
 20
459.674
 30
0.0
 11
426.374482
 21
448.0
 31
0.0
  0
LINE
  5
44C
100
AcDbEntity
  8
LAY-1
  6
CONTINUOUS
 62
     7
100
AcDbLine
 10
455.609669
 20
408.0
 30
0.0
 11
423.609669
 21
408.0
 31
0.0
  0
LINE
  5
44D
100
AcDbEntity
  8
LAY-1
  6
CONTINUOUS
 62
     7
100
AcDbLine
 10
455.609669
 20
448.0
 30
0.0
 11
423.609669
 21
448.0
 31
0.0
  0
LINE
  5
44E
100
AcDbEntity
  8
LAY-1
  6
CONTINUOUS
 62
     7
100
AcDbLine
 10
455.609669
 20
448.0
 30
0.0
 11
455.609669
 21
408.0
 31
0.0
  0
LINE
  5
44F
100
AcDbEntity
  8
LAY-1
  6
CONTINUOUS
 62
     7
100
AcDbLine
 10
439.609669
 20
398.94
 30
0.0
 11
426.091357
 21
398.94
 31
0.0
  0
LINE
  5
450
100
AcDbEntity
  8
LAY-1
  6
CONTINUOUS
 62
     7
100
AcDbLine
 10
439.609669
 20
398.94
 30
0.0
 11
453.127982
 21
398.94
 31
0.0
  0
LINE
  5
451
100
AcDbEntity
  8
LAY-1
  6
CONTINUOUS
 62
     7
100
AcDbLine
 10
453.209669
 20
396.326
 30
0.0
 11
452.844857
 21
408.0
 31
0.0
  0
LINE
  5
452
100
AcDbEntity
  8
LAY-1
  6
CONTINUOUS
 62
     7
100
AcDbLine
 10
426.009669
 20
396.326
 30
0.0
 11
426.374482
 21
408.0
 31
0.0
  0
LINE
  5
453
100
AcDbEntity
  8
LAY-1
  6
CONTINUOUS
 62
     7
100
AcDbLine
 10
473.609669
 20
476.0
 30
0.0
 11
453.209669
 21
476.0
 31
0.0
  0
LINE
  5
454
100
AcDbEntity
  8
LAY-1
  6
CONTINUOUS
 62
     7
100
AcDbLine
 10
473.609669
 20
474.0
 30
0.0
 11
453.209669
 21
474.0
 31
0.0
  0
LINE
  5
455
100
AcDbEntity
  8
LAY-1
  6
CONTINUOUS
 62
     7
100
AcDbLine
 10
426.009669
 20
476.0
 30
0.0
 11
410.009669
 21
476.0
 31
0.0
  0
LINE
  5
456
100
AcDbEntity
  8
LAY-1
  6
CONTINUOUS
 62
     7
100
AcDbLine
 10
426.009669
 20
474.0
 30
0.0
 11
409.938169
 21
474.0
 31
0.0
  0
LINE
  5
457
100
AcDbEntity
  8
LAY-1
  6
CONTINUOUS
 62
     7
100
AcDbLine
 10
426.009669
 20
398.94
 30
0.0
 11
426.009669
 21
354.8
 31
0.0
  0
LINE
  5
458
100
AcDbEntity
  8
LAY-1
  6
CONTINUOUS
 62
     7
100
AcDbLine
 10
453.209669
 20
398.94
 30
0.0
 11
453.209669
 21
354.8
 31
0.0
  0
LINE
  5
459
100
AcDbEntity
  8
LAY-1
  6
CONTINUOUS
 62
     7
100
AcDbLine
 10
423.609669
 20
448.0
 30
0.0
 11
423.609669
 21
408.0
 31
0.0
  0
LINE
  5
45A
100
AcDbEntity
  8
LAY-1
  6
CONTINUOUS
 62
     7
100
AcDbLine
 10
508.609669
 20
1092.0
 30
0.0
 11
508.609669
 21
478.0
 31
0.0
  0
LINE
  5
45B
100
AcDbEntity
  8
LAY-1
  6
CONTINUOUS
 62
     7
100
AcDbLine
 10
300.609669
 20
1092.0
 30
0.0
 11
300.609669
 21
478.0
 31
0.0
  0
LINE
  5
45C
100
AcDbEntity
  8
LAY-1
  6
CONTINUOUS
 62
     7
100
AcDbLine
 10
488.609669
 20
478.0
 30
0.0
 11
300.909669
 21
478.0
 31
0.0
  0
LINE
  5
45D
100
AcDbEntity
  8
LAY-1
  6
CONTINUOUS
 62
     7
100
AcDbLine
 10
488.609669
 20
478.0
 30
0.0
 11
508.609669
 21
478.0
 31
0.0
  0
CIRCLE
  5
45E
100
AcDbEntity
  8
LAY-1
  6
CONTINUOUS
 62
     7
100
AcDbCircle
 10
339.609669
 20
876.0
 30
0.0
 40
12.5
  0
CIRCLE
  5
45F
100
AcDbEntity
  8
LAY-1
  6
CONTINUOUS
 62
     7
100
AcDbCircle
 10
339.609669
 20
876.0
 30
0.0
 40
12.0
  0
LINE
  5
460
100
AcDbEntity
  8
LAY-1
  6
CONTINUOUS
 62
     7
100
AcDbLine
 10
298.609669
 20
861.0
 30
0.0
 11
298.609669
 21
891.0
 31
0.0
  0
LINE
  5
461
100
AcDbEntity
  8
LAY-1
  6
CONTINUOUS
 62
     7
100
AcDbLine
 10
300.909669
 20
861.0
 30
0.0
 11
300.909669
 21
891.0
 31
0.0
  0
LINE
  5
462
100
AcDbEntity
  8
LAY-1
  6
CONTINUOUS
 62
     7
100
AcDbLine
 10
300.909669
 20
891.0
 30
0.0
 11
298.609669
 21
891.0
 31
0.0
  0
LINE
  5
463
100
AcDbEntity
  8
LAY-1
  6
CONTINUOUS
 62
     7
100
AcDbLine
 10
300.909669
 20
861.0
 30
0.0
 11
298.609669
 21
861.0
 31
0.0
  0
LINE
  5
464
100
AcDbEntity
  8
LAY-1
  6
CONTINUOUS
 62
     7
100
AcDbLine
 10
300.609669
 20
880.0
 30
0.0
 11
327.76695
 21
880.0
 31
0.0
  0
LINE
  5
465
100
AcDbEntity
  8
LAY-1
  6
CONTINUOUS
 62
     7
100
AcDbLine
 10
300.609669
 20
872.0
 30
0.0
 11
327.76695
 21
872.0
 31
0.0
  0
CIRCLE
  5
466
100
AcDbEntity
  8
LAY-1
  6
CONTINUOUS
 62
     7
100
AcDbCircle
 10
339.609669
 20
496.0
 30
0.0
 40
12.5
  0
CIRCLE
  5
467
100
AcDbEntity
  8
LAY-1
  6
CONTINUOUS
 62
     7
100
AcDbCircle
 10
339.609669
 20
496.0
 30
0.0
 40
12.0
  0
LINE
  5
468
100
AcDbEntity
  8
LAY-1
  6
CONTINUOUS
 62
     7
100
AcDbLine
 10
300.909669
 20
511.0
 30
0.0
 11
300.909669
 21
481.0
 31
0.0
  0
LINE
  5
469
100
AcDbEntity
  8
LAY-1
  6
CONTINUOUS
 62
     7
100
AcDbLine
 10
298.609669
 20
511.0
 30
0.0
 11
298.609669
 21
481.0
 31
0.0
  0
LINE
  5
46A
100
AcDbEntity
  8
LAY-1
  6
CONTINUOUS
 62
     7
100
AcDbLine
 10
300.909669
 20
511.0
 30
0.0
 11
298.609669
 21
511.0
 31
0.0
  0
LINE
  5
46B
100
AcDbEntity
  8
LAY-1
  6
CONTINUOUS
 62
     7
100
AcDbLine
 10
300.909669
 20
481.0
 30
0.0
 11
298.609669
 21
481.0
 31
0.0
  0
LINE
  5
46C
100
AcDbEntity
  8
LAY-1
  6
CONTINUOUS
 62
     7
100
AcDbLine
 10
300.609669
 20
500.0
 30
0.0
 11
327.76695
 21
500.0
 31
0.0
  0
LINE
  5
46D
100
AcDbEntity
  8
LAY-1
  6
CONTINUOUS
 62
     7
100
AcDbLine
 10
300.609669
 20
492.0
 30
0.0
 11
327.76695
 21
492.0
 31
0.0
  0
LINE
  5
46E
100
AcDbEntity
  8
LAY-1
  6
CONTINUOUS
 62
     7
100
AcDbLine
 10
460.109669
 20
474.0
 30
0.0
 11
460.109669
 21
456.0
 31
0.0
  0
LINE
  5
46F
100
AcDbEntity
  8
LAY-1
  6
CONTINUOUS
 62
     7
100
AcDbLine
 10
453.094857
 20
456.0
 30
0.0
 11
460.109669
 21
456.0
 31
0.0
  0
LINE
  5
470
100
AcDbEntity
  8
LAY-1
  6
CONTINUOUS
 62
     7
100
AcDbLine
 10
392.609774
 20
456.0
 30
0.0
 11
377.109669
 21
456.0
 31
0.0
  0
LINE
  5
471
100
AcDbEntity
  8
LAY-1
  6
CONTINUOUS
 62
     7
100
AcDbLine
 10
377.109669
 20
474.0
 30
0.0
 11
377.109669
 21
456.0
 31
0.0
  0
LINE
  5
472
100
AcDbEntity
  8
LAY-1
  6
EXLTYPE3
 62
     1
100
AcDbLine
 10
293.799492
 20
1007.0
 30
0.0
 11
550.309669
 21
1007.0
 31
0.0
  0
LINE
  5
473
100
AcDbEntity
  8
LAY-1
  6
EXLTYPE3
 62
     1
100
AcDbLine
 10
382.609669
 20
1057.6
 30
0.0
 11
382.609669
 21
947.0
 31
0.0
  0
LINE
  5
474
100
AcDbEntity
  8
LAY-1
  6
EXLTYPE3
 62
     1
100
AcDbLine
 10
477.109669
 20
359.3
 30
0.0
 11
477.109669
 21
329.7
 31
0.0
  0
LINE
  5
475
100
AcDbEntity
  8
LAY-1
  6
EXLTYPE3
 62
     1
100
AcDbLine
 10
402.109669
 20
359.3
 30
0.0
 11
402.109669
 21
329.7
 31
0.0
  0
LINE
  5
476
100
AcDbEntity
  8
LAY-1
  6
CONTINUOUS
 62
     1
100
AcDbLine
 10
409.019564
 20
472.01
 30
0.0
 11
409.924989
 21
473.578243
 31
0.0
  0
LINE
  5
477
100
AcDbEntity
  8
LAY-1
  6
CONTINUOUS
 62
     1
100
AcDbLine
 10
397.199774
 20
472.01
 30
0.0
 11
396.294349
 21
473.578243
 31
0.0
  0
LINE
  5
478
100
AcDbEntity
  8
LAY-1
  6
CONTINUOUS
 62
     1
100
AcDbLine
 10
397.199774
 20
472.01
 30
0.0
 11
397.387587
 21
466.0
 31
0.0
  0
LINE
  5
479
100
AcDbEntity
  8
LAY-1
  6
CONTINUOUS
 62
     1
100
AcDbLine
 10
409.019564
 20
472.01
 30
0.0
 11
408.831751
 21
466.0
 31
0.0
  0
LINE
  5
47A
100
AcDbEntity
  8
LAY-1
  6
CONTINUOUS
 62
     1
100
AcDbLine
 10
390.100421
 20
438.990892
 30
0.0
 11
390.100421
 21
449.990782
 31
0.0
  0
LINE
  5
47B
100
AcDbEntity
  8
LAY-1
  6
CONTINUOUS
 62
     1
100
AcDbLine
 10
396.100361
 20
435.19093
 30
0.0
 11
396.100361
 21
437.490907
 31
0.0
  0
LINE
  5
47C
100
AcDbEntity
  8
LAY-1
  6
CONTINUOUS
 62
     1
100
AcDbLine
 10
403.100291
 20
437.490907
 30
0.0
 11
400.600316
 21
437.490907
 31
0.0
  0
LINE
  5
47D
100
AcDbEntity
  8
LAY-1
  6
CONTINUOUS
 62
     1
100
AcDbLine
 10
410.100221
 20
446.990812
 30
0.0
 11
410.100221
 21
444.490837
 31
0.0
  0
LINE
  5
47E
100
AcDbEntity
  8
LAY-1
  6
CONTINUOUS
 62
     1
100
AcDbLine
 10
412.100201
 20
446.990812
 30
0.0
 11
410.100221
 21
446.990812
 31
0.0
  0
LINE
  5
47F
100
AcDbEntity
  8
LAY-1
  6
CONTINUOUS
 62
     1
100
AcDbLine
 10
410.109599
 20
444.500215
 30
0.0
 11
410.109599
 21
442.00024
 31
0.0
  0
LINE
  5
480
100
AcDbEntity
  8
LAY-1
  6
CONTINUOUS
 62
     1
100
AcDbLine
 10
397.609724
 20
434.500315
 30
0.0
 11
396.109739
 21
437.500285
 31
0.0
  0
LINE
  5
481
100
AcDbEntity
  8
LAY-1
  6
CONTINUOUS
 62
     1
100
AcDbLine
 10
396.109739
 20
437.500285
 30
0.0
 11
396.109739
 21
453.500125
 31
0.0
  0
LINE
  5
482
100
AcDbEntity
  8
LAY-1
  6
CONTINUOUS
 62
     1
100
AcDbLine
 10
400.609694
 20
453.500125
 30
0.0
 11
400.609694
 21
451.500145
 31
0.0
  0
LINE
  5
483
100
AcDbEntity
  8
LAY-1
  6
CONTINUOUS
 62
     1
100
AcDbLine
 10
400.609694
 20
451.500145
 30
0.0
 11
403.109669
 21
451.500145
 31
0.0
  0
ARC
  5
484
100
AcDbEntity
  8
LAY-1
  6
CONTINUOUS
 62
     1
100
AcDbCircle
 10
403.109669
 20
444.500215
 30
0.0
 40
6.99993
100
AcDbArc
 50
0.0
 51
90.0
  0
LINE
  5
485
100
AcDbEntity
  8
LAY-1
  6
CONTINUOUS
 62
     1
100
AcDbLine
 10
412.409576
 20
437.500285
 30
0.0
 11
410.109599
 21
437.500285
 31
0.0
  0
LINE
  5
486
100
AcDbEntity
  8
LAY-1
  6
CONTINUOUS
 62
     1
100
AcDbLine
 10
410.109599
 20
437.500285
 30
0.0
 11
408.609614
 21
434.500315
 31
0.0
  0
LINE
  5
487
100
AcDbEntity
  8
LAY-1
  6
CONTINUOUS
 62
     1
100
AcDbLine
 10
397.609724
 20
426.500395
 30
0.0
 11
397.609724
 21
434.500315
 31
0.0
  0
LINE
  5
488
100
AcDbEntity
  8
LAY-1
  6
CONTINUOUS
 62
     1
100
AcDbLine
 10
408.609614
 20
431.500345
 30
0.0
 11
397.609724
 21
431.500345
 31
0.0
  0
LINE
  5
489
100
AcDbEntity
  8
LAY-1
  6
CONTINUOUS
 62
     1
100
AcDbLine
 10
408.609614
 20
434.500315
 30
0.0
 11
408.609614
 21
426.500395
 31
0.0
  0
LINE
  5
48A
100
AcDbEntity
  8
LAY-1
  6
CONTINUOUS
 62
     1
100
AcDbLine
 10
408.609614
 20
426.500395
 30
0.0
 11
410.109599
 21
422.500435
 31
0.0
  0
LINE
  5
48B
100
AcDbEntity
  8
LAY-1
  6
CONTINUOUS
 62
     1
100
AcDbLine
 10
410.109599
 20
422.500435
 30
0.0
 11
410.109599
 21
415.500505
 31
0.0
  0
LINE
  5
48C
100
AcDbEntity
  8
LAY-1
  6
CONTINUOUS
 62
     1
100
AcDbLine
 10
410.109599
 20
415.500505
 30
0.0
 11
407.590042
 21
388.581419
 31
0.0
  0
ARC
  5
48D
100
AcDbEntity
  8
LAY-1
  6
CONTINUOUS
 62
     1
100
AcDbCircle
 10
403.109669
 20
389.00077
 30
0.0
 40
4.499955
100
AcDbArc
 50
185.34716
 51
354.652841
  0
LINE
  5
48E
100
AcDbEntity
  8
LAY-1
  6
CONTINUOUS
 62
     1
100
AcDbLine
 10
398.629297
 20
388.581419
 30
0.0
 11
396.109739
 21
415.500505
 31
0.0
  0
LINE
  5
48F
100
AcDbEntity
  8
LAY-1
  6
CONTINUOUS
 62
     1
100
AcDbLine
 10
396.109739
 20
415.500505
 30
0.0
 11
396.109739
 21
422.500435
 31
0.0
  0
LINE
  5
490
100
AcDbEntity
  8
LAY-1
  6
CONTINUOUS
 62
     1
100
AcDbLine
 10
396.109739
 20
422.500435
 30
0.0
 11
397.609724
 21
426.500395
 31
0.0
  0
ARC
  5
491
100
AcDbEntity
  8
LAY-1
  6
CONTINUOUS
 62
     1
100
AcDbCircle
 10
403.109669
 20
427.00039
 30
0.0
 40
9.9999
100
AcDbArc
 50
236.632987
 51
303.367013
  0
LINE
  5
492
100
AcDbEntity
  8
LAY-1
  6
CONTINUOUS
 62
     1
100
AcDbLine
 10
397.609724
 20
418.648827
 30
0.0
 11
398.903204
 21
418.218544
 31
0.0
  0
LINE
  5
493
100
AcDbEntity
  8
LAY-1
  6
CONTINUOUS
 62
     1
100
AcDbLine
 10
397.609724
 20
418.648827
 30
0.0
 11
398.554078
 21
417.585176
 31
0.0
  0
LINE
  5
494
100
AcDbEntity
  8
LAY-1
  6
CONTINUOUS
 62
     1
100
AcDbLine
 10
408.609614
 20
418.648827
 30
0.0
 11
407.66526
 21
417.585176
 31
0.0
  0
LINE
  5
495
100
AcDbEntity
  8
LAY-1
  6
CONTINUOUS
 62
     1
100
AcDbLine
 10
408.609614
 20
418.648827
 30
0.0
 11
407.316134
 21
418.218544
 31
0.0
  0
LINE
  5
496
100
AcDbEntity
  8
LAY-1
  6
CONTINUOUS
 62
     1
100
AcDbLine
 10
410.109599
 20
447.00019
 30
0.0
 11
410.109599
 21
444.500215
 31
0.0
  0
ARC
  5
497
100
AcDbEntity
  8
LAY-1
  6
CONTINUOUS
 62
     1
100
AcDbCircle
 10
385.600466
 20
444.490837
 30
0.0
 40
9.9999
100
AcDbArc
 50
146.632987
 51
213.367013
  0
LINE
  5
498
100
AcDbEntity
  8
LAY-1
  6
CONTINUOUS
 62
     1
100
AcDbLine
 10
377.248903
 20
449.990782
 30
0.0
 11
376.81862
 21
448.697302
 31
0.0
  0
LINE
  5
499
100
AcDbEntity
  8
LAY-1
  6
CONTINUOUS
 62
     1
100
AcDbLine
 10
377.248903
 20
449.990782
 30
0.0
 11
376.185252
 21
449.046428
 31
0.0
  0
LINE
  5
49A
100
AcDbEntity
  8
LAY-1
  6
CONTINUOUS
 62
     1
100
AcDbLine
 10
377.248903
 20
438.990892
 30
0.0
 11
376.185252
 21
439.935246
 31
0.0
  0
LINE
  5
49B
100
AcDbEntity
  8
LAY-1
  6
CONTINUOUS
 62
     1
100
AcDbLine
 10
377.248903
 20
438.990892
 30
0.0
 11
376.81862
 21
440.284372
 31
0.0
  0
LINE
  5
49C
100
AcDbEntity
  8
LAY-1
  6
EXLTYPE3
 62
     1
100
AcDbLine
 10
384.286241
 20
444.500215
 30
0.0
 11
416.509669
 21
444.500215
 31
0.0
  0
LINE
  5
49D
100
AcDbEntity
  8
LAY-1
  6
CONTINUOUS
 62
     1
100
AcDbLine
 10
427.104572
 20
457.318685
 30
0.0
 11
425.934936
 21
459.344554
 31
0.0
  0
LINE
  5
49E
100
AcDbEntity
  8
LAY-1
  6
CONTINUOUS
 62
     1
100
AcDbLine
 10
451.965414
 20
457.06
 30
0.0
 11
453.284402
 21
459.344554
 31
0.0
  0
LINE
  5
49F
100
AcDbEntity
  8
LAY-1
  6
CONTINUOUS
 62
     1
100
AcDbLine
 10
451.965414
 20
457.06
 30
0.0
 11
451.682289
 21
448.0
 31
0.0
  0
LINE
  5
4A0
100
AcDbEntity
  8
LAY-1
  6
CONTINUOUS
 62
     1
100
AcDbLine
 10
427.253924
 20
457.06
 30
0.0
 11
427.537049
 21
448.0
 31
0.0
  0
LINE
  5
4A1
100
AcDbEntity
  8
LAY-1
  6
CONTINUOUS
 62
     1
100
AcDbLine
 10
427.104572
 20
398.681315
 30
0.0
 11
425.934936
 21
396.655446
 31
0.0
  0
LINE
  5
4A2
100
AcDbEntity
  8
LAY-1
  6
CONTINUOUS
 62
     1
100
AcDbLine
 10
451.965414
 20
398.94
 30
0.0
 11
453.284402
 21
396.655446
 31
0.0
  0
LINE
  5
4A3
100
AcDbEntity
  8
LAY-1
  6
CONTINUOUS
 62
     1
100
AcDbLine
 10
451.965414
 20
398.94
 30
0.0
 11
451.682289
 21
408.0
 31
0.0
  0
LINE
  5
4A4
100
AcDbEntity
  8
LAY-1
  6
CONTINUOUS
 62
     1
100
AcDbLine
 10
427.253924
 20
398.94
 30
0.0
 11
427.537049
 21
408.0
 31
0.0
  0
LINE
  5
4A5
100
AcDbEntity
  8
LAY-1
  6
EXLTYPE3
 62
     1
100
AcDbLine
 10
439.609669
 20
478.0
 30
0.0
 11
439.609669
 21
324.9
 31
0.0
  0
LINE
  5
4A6
100
AcDbEntity
  8
LAY-1
  6
EXLTYPE3
 62
     1
100
AcDbLine
 10
339.609669
 20
893.0
 30
0.0
 11
339.609669
 21
858.3
 31
0.0
  0
LINE
  5
4A7
100
AcDbEntity
  8
LAY-1
  6
EXLTYPE3
 62
     1
100
AcDbLine
 10
321.380153
 20
876.0
 30
0.0
 11
360.080153
 21
876.0
 31
0.0
  0
LINE
  5
4A8
100
AcDbEntity
  8
LAY-1
  6
EXLTYPE3
 62
     1
100
AcDbLine
 10
339.609669
 20
515.7
 30
0.0
 11
339.609669
 21
473.8
 31
0.0
  0
LINE
  5
4A9
100
AcDbEntity
  8
LAY-1
  6
EXLTYPE3
 62
     1
100
AcDbLine
 10
358.580153
 20
496.0
 30
0.0
 11
318.180153
 21
496.0
 31
0.0
  0
LINE
  5
4AA
100
AcDbEntity
  8
LAY-1
  6
EXLTYPE3
 62
     1
100
AcDbLine
 10
914.535748
 20
397.5
 30
0.0
 11
914.535748
 21
478.0
 31
0.0
  0
LINE
  5
4AB
100
AcDbEntity
  8
LAY-1
  6
EXLTYPE3
 62
     1
100
AcDbLine
 10
974.0
 20
478.0
 30
0.0
 11
974.0
 21
328.0
 31
0.0
  0
LINE
  5
4AC
100
AcDbEntity
  8
LAY-1
  6
CONTINUOUS
 62
     7
100
AcDbLine
 10
914.535734
 20
470.231645
 30
0.0
 11
907.849992
 21
470.231645
 31
0.0
  0
LINE
  5
4AD
100
AcDbEntity
  8
LAY-1
  6
CONTINUOUS
 62
     7
100
AcDbLine
 10
914.535734
 20
470.231645
 30
0.0
 11
921.221477
 21
470.231645
 31
0.0
  0
LINE
  5
4AE
100
AcDbEntity
  8
LAY-1
  6
CONTINUOUS
 62
     7
100
AcDbLine
 10
907.607259
 20
477.99911
 30
0.0
 11
907.982231
 21
466.0
 31
0.0
  0
LINE
  5
4AF
100
AcDbEntity
  8
LAY-1
  6
CONTINUOUS
 62
     7
100
AcDbLine
 10
921.464238
 20
478.0
 30
0.0
 11
921.089238
 21
466.0
 31
0.0
  0
LINE
  5
4B0
100
AcDbEntity
  8
LAY-1
  6
CONTINUOUS
 62
     1
100
AcDbLine
 10
908.70641
 20
470.231645
 30
0.0
 11
907.800984
 21
471.799887
 31
0.0
  0
LINE
  5
4B1
100
AcDbEntity
  8
LAY-1
  6
CONTINUOUS
 62
     1
100
AcDbLine
 10
920.365059
 20
470.231645
 30
0.0
 11
921.270484
 21
471.799887
 31
0.0
  0
LINE
  5
4B2
100
AcDbEntity
  8
LAY-1
  6
CONTINUOUS
 62
     1
100
AcDbLine
 10
920.365059
 20
470.231645
 30
0.0
 11
920.23282
 21
466.0
 31
0.0
  0
LINE
  5
4B3
100
AcDbEntity
  8
LAY-1
  6
CONTINUOUS
 62
     1
100
AcDbLine
 10
908.70641
 20
470.231645
 30
0.0
 11
908.838649
 21
466.0
 31
0.0
  0
LINE
  5
4B4
100
AcDbEntity
  8
LAY-1
  6
EXLTYPE3
 62
     1
100
AcDbLine
 10
1522.609669
 20
456.0
 30
0.0
 11
1522.609669
 21
330.6
 31
0.0
  0
LINE
  5
4B5
100
AcDbEntity
  8
LAY-1
  6
EXLTYPE3
 62
     1
100
AcDbLine
 10
403.109669
 20
397.5
 30
0.0
 11
403.109669
 21
478.0
 31
0.0
  0
LINE
  5
4B6
100
AcDbEntity
  8
LAY-1
  6
CONTINUOUS
 62
     7
100
AcDbLine
 10
396.218669
 20
476.0
 30
0.0
 11
363.609669
 21
476.0
 31
0.0
  0
LINE
  5
4B7
100
AcDbEntity
  8
LAY-1
  6
EXLTYPE3
 62
     1
100
AcDbLine
 10
1559.209659
 20
401.4
 30
0.0
 11
1559.209659
 21
474.00089
 31
0.0
  0
CIRCLE
  5
4B8
100
AcDbEntity
  8
LAY-1
  6
CONTINUOUS
 62
     7
100
AcDbCircle
 10
1064.0
 20
131.782538
 30
0.0
 40
63.0
  0
CIRCLE
  5
4B9
100
AcDbEntity
  8
LAY-1
  6
CONTINUOUS
 62
     7
100
AcDbCircle
 10
914.0
 20
116.282538
 30
0.0
 40
7.5
  0
LINE
  5
4BA
100
AcDbEntity
  8
LAY-1
  6
CONTINUOUS
 62
     7
100
AcDbLine
 10
1127.0
 20
199.782538
 30
0.0
 11
881.0
 21
199.782538
 31
0.0
  0
LINE
  5
4BB
100
AcDbEntity
  8
LAY-1
  6
CONTINUOUS
 62
     7
100
AcDbLine
 10
1127.0
 20
199.782538
 30
0.0
 11
1127.0
 21
63.782538
 31
0.0
  0
CIRCLE
  5
4BC
100
AcDbEntity
  8
LAY-1
  6
CONTINUOUS
 62
     7
100
AcDbCircle
 10
1085.063204
 20
182.589442
 30
0.0
 40
6.1
  0
CIRCLE
  5
4BD
100
AcDbEntity
  8
LAY-1
  6
CONTINUOUS
 62
     7
100
AcDbCircle
 10
1085.063204
 20
182.589442
 30
0.0
 40
5.0
  0
POLYLINE
  5
4BE
100
AcDbEntity
  8
LAY-1
  6
CONTINUOUS
 62
     7
100
AcDb2dPolyline
 66
     1
 10
0.0
 20
0.0
 30
0.0
 70
   128
  0
VERTEX
  5
4BF
100
AcDbEntity
  8
LAY-1
  6
CONTINUOUS
 62
     7
100
AcDbVertex
100
AcDb2dVertex
 10
1085.063204
 20
188.362944
 30
0.0
  0
VERTEX
  5
4C0
100
AcDbEntity
  8
LAY-1
  6
CONTINUOUS
 62
     7
100
AcDbVertex
100
AcDb2dVertex
 10
1080.063204
 20
185.476193
 30
0.0
  0
VERTEX
  5
4C1
100
AcDbEntity
  8
LAY-1
  6
CONTINUOUS
 62
     7
100
AcDbVertex
100
AcDb2dVertex
 10
1080.063204
 20
179.70269
 30
0.0
  0
VERTEX
  5
4C2
100
AcDbEntity
  8
LAY-1
  6
CONTINUOUS
 62
     7
100
AcDbVertex
100
AcDb2dVertex
 10
1085.063204
 20
176.815939
 30
0.0
  0
VERTEX
  5
4C3
100
AcDbEntity
  8
LAY-1
  6
CONTINUOUS
 62
     7
100
AcDbVertex
100
AcDb2dVertex
 10
1090.063204
 20
179.70269
 30
0.0
  0
VERTEX
  5
4C4
100
AcDbEntity
  8
LAY-1
  6
CONTINUOUS
 62
     7
100
AcDbVertex
100
AcDb2dVertex
 10
1090.063204
 20
185.476193
 30
0.0
  0
VERTEX
  5
4C5
100
AcDbEntity
  8
LAY-1
  6
CONTINUOUS
 62
     7
100
AcDbVertex
100
AcDb2dVertex
 10
1085.063204
 20
188.362944
 30
0.0
  0
SEQEND
  5
4C6
100
AcDbEntity
  8
LAY-1
  6
CONTINUOUS
 62
     7
  0
CIRCLE
  5
4C7
100
AcDbEntity
  8
LAY-1
  6
CONTINUOUS
 62
     7
100
AcDbCircle
 10
1042.952411
 20
182.595913
 30
0.0
 40
6.1
  0
CIRCLE
  5
4C8
100
AcDbEntity
  8
LAY-1
  6
CONTINUOUS
 62
     7
100
AcDbCircle
 10
1042.952411
 20
182.595913
 30
0.0
 40
5.0
  0
POLYLINE
  5
4C9
100
AcDbEntity
  8
LAY-1
  6
CONTINUOUS
 62
     7
100
AcDb2dPolyline
 66
     1
 10
0.0
 20
0.0
 30
0.0
 70
   128
  0
VERTEX
  5
4CA
100
AcDbEntity
  8
LAY-1
  6
CONTINUOUS
 62
     7
100
AcDbVertex
100
AcDb2dVertex
 10
1042.952411
 20
188.369415
 30
0.0
  0
VERTEX
  5
4CB
100
AcDbEntity
  8
LAY-1
  6
CONTINUOUS
 62
     7
100
AcDbVertex
100
AcDb2dVertex
 10
1037.952411
 20
185.482664
 30
0.0
  0
VERTEX
  5
4CC
100
AcDbEntity
  8
LAY-1
  6
CONTINUOUS
 62
     7
100
AcDbVertex
100
AcDb2dVertex
 10
1037.952411
 20
179.709161
 30
0.0
  0
VERTEX
  5
4CD
100
AcDbEntity
  8
LAY-1
  6
CONTINUOUS
 62
     7
100
AcDbVertex
100
AcDb2dVertex
 10
1042.952411
 20
176.82241
 30
0.0
  0
VERTEX
  5
4CE
100
AcDbEntity
  8
LAY-1
  6
CONTINUOUS
 62
     7
100
AcDbVertex
100
AcDb2dVertex
 10
1047.952411
 20
179.709161
 30
0.0
  0
VERTEX
  5
4CF
100
AcDbEntity
  8
LAY-1
  6
CONTINUOUS
 62
     7
100
AcDbVertex
100
AcDb2dVertex
 10
1047.952411
 20
185.482664
 30
0.0
  0
VERTEX
  5
4D0
100
AcDbEntity
  8
LAY-1
  6
CONTINUOUS
 62
     7
100
AcDbVertex
100
AcDb2dVertex
 10
1042.952411
 20
188.369415
 30
0.0
  0
SEQEND
  5
4D1
100
AcDbEntity
  8
LAY-1
  6
CONTINUOUS
 62
     7
  0
CIRCLE
  5
4D2
100
AcDbEntity
  8
LAY-1
  6
CONTINUOUS
 62
     7
100
AcDbCircle
 10
1013.186626
 20
152.830127
 30
0.0
 40
6.1
  0
CIRCLE
  5
4D3
100
AcDbEntity
  8
LAY-1
  6
CONTINUOUS
 62
     7
100
AcDbCircle
 10
1013.186626
 20
152.830127
 30
0.0
 40
5.0
  0
POLYLINE
  5
4D4
100
AcDbEntity
  8
LAY-1
  6
CONTINUOUS
 62
     7
100
AcDb2dPolyline
 66
     1
 10
0.0
 20
0.0
 30
0.0
 70
   128
  0
VERTEX
  5
4D5
100
AcDbEntity
  8
LAY-1
  6
CONTINUOUS
 62
     7
100
AcDbVertex
100
AcDb2dVertex
 10
1013.186626
 20
158.60363
 30
0.0
  0
VERTEX
  5
4D6
100
AcDbEntity
  8
LAY-1
  6
CONTINUOUS
 62
     7
100
AcDbVertex
100
AcDb2dVertex
 10
1008.186626
 20
155.716878
 30
0.0
  0
VERTEX
  5
4D7
100
AcDbEntity
  8
LAY-1
  6
CONTINUOUS
 62
     7
100
AcDbVertex
100
AcDb2dVertex
 10
1008.186626
 20
149.943376
 30
0.0
  0
VERTEX
  5
4D8
100
AcDbEntity
  8
LAY-1
  6
CONTINUOUS
 62
     7
100
AcDbVertex
100
AcDb2dVertex
 10
1013.186626
 20
147.056624
 30
0.0
  0
VERTEX
  5
4D9
100
AcDbEntity
  8
LAY-1
  6
CONTINUOUS
 62
     7
100
AcDbVertex
100
AcDb2dVertex
 10
1018.186626
 20
149.943376
 30
0.0
  0
VERTEX
  5
4DA
100
AcDbEntity
  8
LAY-1
  6
CONTINUOUS
 62
     7
100
AcDbVertex
100
AcDb2dVertex
 10
1018.186626
 20
155.716878
 30
0.0
  0
VERTEX
  5
4DB
100
AcDbEntity
  8
LAY-1
  6
CONTINUOUS
 62
     7
100
AcDbVertex
100
AcDb2dVertex
 10
1013.186626
 20
158.60363
 30
0.0
  0
SEQEND
  5
4DC
100
AcDbEntity
  8
LAY-1
  6
CONTINUOUS
 62
     7
  0
CIRCLE
  5
4DD
100
AcDbEntity
  8
LAY-1
  6
CONTINUOUS
 62
     7
100
AcDbCircle
 10
1013.186626
 20
110.734949
 30
0.0
 40
6.1
  0
CIRCLE
  5
4DE
100
AcDbEntity
  8
LAY-1
  6
CONTINUOUS
 62
     7
100
AcDbCircle
 10
1013.186626
 20
110.734949
 30
0.0
 40
5.0
  0
POLYLINE
  5
4DF
100
AcDbEntity
  8
LAY-1
  6
CONTINUOUS
 62
     7
100
AcDb2dPolyline
 66
     1
 10
0.0
 20
0.0
 30
0.0
 70
   128
  0
VERTEX
  5
4E0
100
AcDbEntity
  8
LAY-1
  6
CONTINUOUS
 62
     7
100
AcDbVertex
100
AcDb2dVertex
 10
1013.186626
 20
116.508452
 30
0.0
  0
VERTEX
  5
4E1
100
AcDbEntity
  8
LAY-1
  6
CONTINUOUS
 62
     7
100
AcDbVertex
100
AcDb2dVertex
 10
1008.186626
 20
113.621701
 30
0.0
  0
VERTEX
  5
4E2
100
AcDbEntity
  8
LAY-1
  6
CONTINUOUS
 62
     7
100
AcDbVertex
100
AcDb2dVertex
 10
1008.186626
 20
107.848198
 30
0.0
  0
VERTEX
  5
4E3
100
AcDbEntity
  8
LAY-1
  6
CONTINUOUS
 62
     7
100
AcDbVertex
100
AcDb2dVertex
 10
1013.186626
 20
104.961447
 30
0.0
  0
VERTEX
  5
4E4
100
AcDbEntity
  8
LAY-1
  6
CONTINUOUS
 62
     7
100
AcDbVertex
100
AcDb2dVertex
 10
1018.186626
 20
107.848198
 30
0.0
  0
VERTEX
  5
4E5
100
AcDbEntity
  8
LAY-1
  6
CONTINUOUS
 62
     7
100
AcDbVertex
100
AcDb2dVertex
 10
1018.186626
 20
113.621701
 30
0.0
  0
VERTEX
  5
4E6
100
AcDbEntity
  8
LAY-1
  6
CONTINUOUS
 62
     7
100
AcDbVertex
100
AcDb2dVertex
 10
1013.186626
 20
116.508452
 30
0.0
  0
SEQEND
  5
4E7
100
AcDbEntity
  8
LAY-1
  6
CONTINUOUS
 62
     7
  0
CIRCLE
  5
4E8
100
AcDbEntity
  8
LAY-1
  6
CONTINUOUS
 62
     7
100
AcDbCircle
 10
1042.936796
 20
80.975635
 30
0.0
 40
6.1
  0
POLYLINE
  5
4E9
100
AcDbEntity
  8
LAY-1
  6
CONTINUOUS
 62
     7
100
AcDb2dPolyline
 66
     1
 10
0.0
 20
0.0
 30
0.0
 70
   128
  0
VERTEX
  5
4EA
100
AcDbEntity
  8
LAY-1
  6
CONTINUOUS
 62
     7
100
AcDbVertex
100
AcDb2dVertex
 10
1042.936796
 20
86.749137
 30
0.0
  0
VERTEX
  5
4EB
100
AcDbEntity
  8
LAY-1
  6
CONTINUOUS
 62
     7
100
AcDbVertex
100
AcDb2dVertex
 10
1037.936796
 20
83.862386
 30
0.0
  0
VERTEX
  5
4EC
100
AcDbEntity
  8
LAY-1
  6
CONTINUOUS
 62
     7
100
AcDbVertex
100
AcDb2dVertex
 10
1037.936796
 20
78.088883
 30
0.0
  0
VERTEX
  5
4ED
100
AcDbEntity
  8
LAY-1
  6
CONTINUOUS
 62
     7
100
AcDbVertex
100
AcDb2dVertex
 10
1042.936796
 20
75.202132
 30
0.0
  0
VERTEX
  5
4EE
100
AcDbEntity
  8
LAY-1
  6
CONTINUOUS
 62
     7
100
AcDbVertex
100
AcDb2dVertex
 10
1047.936796
 20
78.088883
 30
0.0
  0
VERTEX
  5
4EF
100
AcDbEntity
  8
LAY-1
  6
CONTINUOUS
 62
     7
100
AcDbVertex
100
AcDb2dVertex
 10
1047.936796
 20
83.862386
 30
0.0
  0
VERTEX
  5
4F0
100
AcDbEntity
  8
LAY-1
  6
CONTINUOUS
 62
     7
100
AcDbVertex
100
AcDb2dVertex
 10
1042.936796
 20
86.749137
 30
0.0
  0
SEQEND
  5
4F1
100
AcDbEntity
  8
LAY-1
  6
CONTINUOUS
 62
     7
  0
CIRCLE
  5
4F2
100
AcDbEntity
  8
LAY-1
  6
CONTINUOUS
 62
     7
100
AcDbCircle
 10
1042.936796
 20
80.975635
 30
0.0
 40
5.0
  0
CIRCLE
  5
4F3
100
AcDbEntity
  8
LAY-1
  6
CONTINUOUS
 62
     7
100
AcDbCircle
 10
1085.063204
 20
80.975635
 30
0.0
 40
5.0
  0
POLYLINE
  5
4F4
100
AcDbEntity
  8
LAY-1
  6
CONTINUOUS
 62
     7
100
AcDb2dPolyline
 66
     1
 10
0.0
 20
0.0
 30
0.0
 70
   128
  0
VERTEX
  5
4F5
100
AcDbEntity
  8
LAY-1
  6
CONTINUOUS
 62
     7
100
AcDbVertex
100
AcDb2dVertex
 10
1085.063204
 20
86.749137
 30
0.0
  0
VERTEX
  5
4F6
100
AcDbEntity
  8
LAY-1
  6
CONTINUOUS
 62
     7
100
AcDbVertex
100
AcDb2dVertex
 10
1080.063204
 20
83.862386
 30
0.0
  0
VERTEX
  5
4F7
100
AcDbEntity
  8
LAY-1
  6
CONTINUOUS
 62
     7
100
AcDbVertex
100
AcDb2dVertex
 10
1080.063204
 20
78.088883
 30
0.0
  0
VERTEX
  5
4F8
100
AcDbEntity
  8
LAY-1
  6
CONTINUOUS
 62
     7
100
AcDbVertex
100
AcDb2dVertex
 10
1085.063204
 20
75.202132
 30
0.0
  0
VERTEX
  5
4F9
100
AcDbEntity
  8
LAY-1
  6
CONTINUOUS
 62
     7
100
AcDbVertex
100
AcDb2dVertex
 10
1090.063204
 20
78.088883
 30
0.0
  0
VERTEX
  5
4FA
100
AcDbEntity
  8
LAY-1
  6
CONTINUOUS
 62
     7
100
AcDbVertex
100
AcDb2dVertex
 10
1090.063204
 20
83.862386
 30
0.0
  0
VERTEX
  5
4FB
100
AcDbEntity
  8
LAY-1
  6
CONTINUOUS
 62
     7
100
AcDbVertex
100
AcDb2dVertex
 10
1085.063204
 20
86.749137
 30
0.0
  0
SEQEND
  5
4FC
100
AcDbEntity
  8
LAY-1
  6
CONTINUOUS
 62
     7
  0
CIRCLE
  5
4FD
100
AcDbEntity
  8
LAY-1
  6
CONTINUOUS
 62
     7
100
AcDbCircle
 10
1085.063204
 20
80.975635
 30
0.0
 40
6.1
  0
CIRCLE
  5
4FE
100
AcDbEntity
  8
LAY-1
  6
CONTINUOUS
 62
     7
100
AcDbCircle
 10
1114.813374
 20
110.734949
 30
0.0
 40
6.1
  0
POLYLINE
  5
4FF
100
AcDbEntity
  8
LAY-1
  6
CONTINUOUS
 62
     7
100
AcDb2dPolyline
 66
     1
 10
0.0
 20
0.0
 30
0.0
 70
   128
  0
VERTEX
  5
500
100
AcDbEntity
  8
LAY-1
  6
CONTINUOUS
 62
     7
100
AcDbVertex
100
AcDb2dVertex
 10
1114.813374
 20
116.508452
 30
0.0
  0
VERTEX
  5
501
100
AcDbEntity
  8
LAY-1
  6
CONTINUOUS
 62
     7
100
AcDbVertex
100
AcDb2dVertex
 10
1109.813374
 20
113.621701
 30
0.0
  0
VERTEX
  5
502
100
AcDbEntity
  8
LAY-1
  6
CONTINUOUS
 62
     7
100
AcDbVertex
100
AcDb2dVertex
 10
1109.813374
 20
107.848198
 30
0.0
  0
VERTEX
  5
503
100
AcDbEntity
  8
LAY-1
  6
CONTINUOUS
 62
     7
100
AcDbVertex
100
AcDb2dVertex
 10
1114.813374
 20
104.961447
 30
0.0
  0
VERTEX
  5
504
100
AcDbEntity
  8
LAY-1
  6
CONTINUOUS
 62
     7
100
AcDbVertex
100
AcDb2dVertex
 10
1119.813374
 20
107.848198
 30
0.0
  0
VERTEX
  5
505
100
AcDbEntity
  8
LAY-1
  6
CONTINUOUS
 62
     7
100
AcDbVertex
100
AcDb2dVertex
 10
1119.813374
 20
113.621701
 30
0.0
  0
VERTEX
  5
506
100
AcDbEntity
  8
LAY-1
  6
CONTINUOUS
 62
     7
100
AcDbVertex
100
AcDb2dVertex
 10
1114.813374
 20
116.508452
 30
0.0
  0
SEQEND
  5
507
100
AcDbEntity
  8
LAY-1
  6
CONTINUOUS
 62
     7
  0
CIRCLE
  5
508
100
AcDbEntity
  8
LAY-1
  6
CONTINUOUS
 62
     7
100
AcDbCircle
 10
1114.813374
 20
110.734949
 30
0.0
 40
5.0
  0
CIRCLE
  5
509
100
AcDbEntity
  8
LAY-1
  6
CONTINUOUS
 62
     7
100
AcDbCircle
 10
1114.813374
 20
152.830127
 30
0.0
 40
6.1
  0
POLYLINE
  5
50A
100
AcDbEntity
  8
LAY-1
  6
CONTINUOUS
 62
     7
100
AcDb2dPolyline
 66
     1
 10
0.0
 20
0.0
 30
0.0
 70
   128
  0
VERTEX
  5
50B
100
AcDbEntity
  8
LAY-1
  6
CONTINUOUS
 62
     7
100
AcDbVertex
100
AcDb2dVertex
 10
1114.813374
 20
158.60363
 30
0.0
  0
VERTEX
  5
50C
100
AcDbEntity
  8
LAY-1
  6
CONTINUOUS
 62
     7
100
AcDbVertex
100
AcDb2dVertex
 10
1109.813374
 20
155.716878
 30
0.0
  0
VERTEX
  5
50D
100
AcDbEntity
  8
LAY-1
  6
CONTINUOUS
 62
     7
100
AcDbVertex
100
AcDb2dVertex
 10
1109.813374
 20
149.943376
 30
0.0
  0
VERTEX
  5
50E
100
AcDbEntity
  8
LAY-1
  6
CONTINUOUS
 62
     7
100
AcDbVertex
100
AcDb2dVertex
 10
1114.813374
 20
147.056624
 30
0.0
  0
VERTEX
  5
50F
100
AcDbEntity
  8
LAY-1
  6
CONTINUOUS
 62
     7
100
AcDbVertex
100
AcDb2dVertex
 10
1119.813374
 20
149.943376
 30
0.0
  0
VERTEX
  5
510
100
AcDbEntity
  8
LAY-1
  6
CONTINUOUS
 62
     7
100
AcDbVertex
100
AcDb2dVertex
 10
1119.813374
 20
155.716878
 30
0.0
  0
VERTEX
  5
511
100
AcDbEntity
  8
LAY-1
  6
CONTINUOUS
 62
     7
100
AcDbVertex
100
AcDb2dVertex
 10
1114.813374
 20
158.60363
 30
0.0
  0
SEQEND
  5
512
100
AcDbEntity
  8
LAY-1
  6
CONTINUOUS
 62
     7
  0
CIRCLE
  5
513
100
AcDbEntity
  8
LAY-1
  6
CONTINUOUS
 62
     7
100
AcDbCircle
 10
1114.813374
 20
152.830127
 30
0.0
 40
5.0
  0
LINE
  5
514
100
AcDbEntity
  8
LAY-1
  6
CONTINUOUS
 62
     7
100
AcDbLine
 10
902.478865
 20
109.957802
 30
0.0
 11
899.467326
 21
109.957802
 31
0.0
  0
CIRCLE
  5
515
100
AcDbEntity
  8
LAY-1
  6
CONTINUOUS
 62
     7
100
AcDbCircle
 10
914.029826
 20
116.447802
 30
0.0
 40
11.5
  0
POLYLINE
  5
516
100
AcDbEntity
  8
LAY-1
  6
CONTINUOUS
 62
     7
100
AcDb2dPolyline
 66
     1
 10
0.0
 20
0.0
 30
0.0
 70
   128
  0
VERTEX
  5
517
100
AcDbEntity
  8
LAY-1
  6
CONTINUOUS
 62
     7
100
AcDbVertex
100
AcDb2dVertex
 10
914.029826
 20
103.168746
 30
0.0
  0
VERTEX
  5
518
100
AcDbEntity
  8
LAY-1
  6
CONTINUOUS
 62
     7
100
AcDbVertex
100
AcDb2dVertex
 10
902.529826
 20
109.808274
 30
0.0
  0
VERTEX
  5
519
100
AcDbEntity
  8
LAY-1
  6
CONTINUOUS
 62
     7
100
AcDbVertex
100
AcDb2dVertex
 10
902.529826
 20
123.08733
 30
0.0
  0
VERTEX
  5
51A
100
AcDbEntity
  8
LAY-1
  6
CONTINUOUS
 62
     7
100
AcDbVertex
100
AcDb2dVertex
 10
914.029826
 20
129.726858
 30
0.0
  0
VERTEX
  5
51B
100
AcDbEntity
  8
LAY-1
  6
CONTINUOUS
 62
     7
100
AcDbVertex
100
AcDb2dVertex
 10
925.529826
 20
123.08733
 30
0.0
  0
VERTEX
  5
51C
100
AcDbEntity
  8
LAY-1
  6
CONTINUOUS
 62
     7
100
AcDbVertex
100
AcDb2dVertex
 10
925.529826
 20
109.808274
 30
0.0
  0
VERTEX
  5
51D
100
AcDbEntity
  8
LAY-1
  6
CONTINUOUS
 62
     7
100
AcDbVertex
100
AcDb2dVertex
 10
914.029826
 20
103.168746
 30
0.0
  0
SEQEND
  5
51E
100
AcDbEntity
  8
LAY-1
  6
CONTINUOUS
 62
     7
  0
ARC
  5
51F
100
AcDbEntity
  8
LAY-1
  6
CONTINUOUS
 62
     7
100
AcDbCircle
 10
902.478865
 20
108.953956
 30
0.0
 40
1.003846
100
AcDbArc
 50
87.090055
 51
90.0
  0
ARC
  5
520
100
AcDbEntity
  8
LAY-1
  6
CONTINUOUS
 62
     7
100
AcDbCircle
 10
902.478865
 20
124.011648
 30
0.0
 40
1.003846
100
AcDbArc
 50
270.0
 51
272.909945
  0
POLYLINE
  5
521
100
AcDbEntity
  8
LAY-1
  6
CONTINUOUS
 62
     7
100
AcDb2dPolyline
 66
     1
 10
0.0
 20
0.0
 30
0.0
 70
   128
  0
VERTEX
  5
522
100
AcDbEntity
  8
LAY-1
  6
CONTINUOUS
 62
     7
100
AcDbVertex
100
AcDb2dVertex
 10
918.55943
 20
124.157917
 30
0.0
  0
VERTEX
  5
523
100
AcDbEntity
  8
LAY-1
  6
CONTINUOUS
 62
     7
100
AcDbVertex
100
AcDb2dVertex
 10
923.099993
 20
116.271646
 30
0.0
  0
VERTEX
  5
524
100
AcDbEntity
  8
LAY-1
  6
CONTINUOUS
 62
     7
100
AcDbVertex
100
AcDb2dVertex
 10
918.540563
 20
108.396266
 30
0.0
  0
VERTEX
  5
525
100
AcDbEntity
  8
LAY-1
  6
CONTINUOUS
 62
     7
100
AcDbVertex
100
AcDb2dVertex
 10
909.44057
 20
108.407159
 30
0.0
  0
VERTEX
  5
526
100
AcDbEntity
  8
LAY-1
  6
CONTINUOUS
 62
     7
100
AcDbVertex
100
AcDb2dVertex
 10
904.900007
 20
116.293431
 30
0.0
  0
VERTEX
  5
527
100
AcDbEntity
  8
LAY-1
  6
CONTINUOUS
 62
     7
100
AcDbVertex
100
AcDb2dVertex
 10
909.459437
 20
124.16881
 30
0.0
  0
VERTEX
  5
528
100
AcDbEntity
  8
LAY-1
  6
CONTINUOUS
 62
     7
100
AcDbVertex
100
AcDb2dVertex
 10
918.55943
 20
124.157917
 30
0.0
  0
SEQEND
  5
529
100
AcDbEntity
  8
LAY-1
  6
CONTINUOUS
 62
     7
  0
CIRCLE
  5
52A
100
AcDbEntity
  8
LAY-1
  6
CONTINUOUS
 62
     7
100
AcDbCircle
 10
914.0
 20
116.282538
 30
0.0
 40
8.002631
  0
LINE
  5
52B
100
AcDbEntity
  8
LAY-1
  6
CONTINUOUS
 62
     7
100
AcDbLine
 10
898.88
 20
123.007802
 30
0.0
 11
902.478865
 21
123.007802
 31
0.0
  0
CIRCLE
  5
52C
100
AcDbEntity
  8
LAY-1
  6
CONTINUOUS
 62
     7
100
AcDbCircle
 10
974.0
 20
152.782538
 30
0.0
 40
13.6
  0
LINE
  5
52D
100
AcDbEntity
  8
LAY-1
  6
CONTINUOUS
 62
     7
100
AcDbLine
 10
895.0
 20
113.282538
 30
0.0
 11
895.0
 21
122.79474
 31
0.0
  0
LINE
  5
52E
100
AcDbEntity
  8
LAY-1
  6
CONTINUOUS
 62
     7
100
AcDbLine
 10
889.926326
 20
114.023275
 30
0.0
 11
890.332326
 21
114.023275
 31
0.0
  0
LINE
  5
52F
100
AcDbEntity
  8
LAY-1
  6
CONTINUOUS
 62
     7
100
AcDbLine
 10
890.332326
 20
118.286275
 30
0.0
 11
889.926326
 21
118.286275
 31
0.0
  0
LINE
  5
530
100
AcDbEntity
  8
LAY-1
  6
CONTINUOUS
 62
     7
100
AcDbLine
 10
889.824826
 20
114.124775
 30
0.0
 11
890.332326
 21
113.617275
 31
0.0
  0
LINE
  5
531
100
AcDbEntity
  8
LAY-1
  6
CONTINUOUS
 62
     7
100
AcDbLine
 10
889.824826
 20
118.184775
 30
0.0
 11
889.824826
 21
114.124775
 31
0.0
  0
LINE
  5
532
100
AcDbEntity
  8
LAY-1
  6
CONTINUOUS
 62
     7
100
AcDbLine
 10
890.332326
 20
118.692275
 30
0.0
 11
889.824826
 21
118.184775
 31
0.0
  0
ARC
  5
533
100
AcDbEntity
  8
LAY-1
  6
CONTINUOUS
 62
     7
100
AcDbCircle
 10
891.512862
 20
119.656525
 30
0.0
 40
2.075245
100
AcDbArc
 50
325.773646
 51
34.226354
  0
ARC
  5
534
100
AcDbEntity
  8
LAY-1
  6
CONTINUOUS
 62
     7
100
AcDbCircle
 10
885.654534
 20
116.154775
 30
0.0
 40
7.925792
100
AcDbArc
 50
342.869763
 51
17.130237
  0
ARC
  5
535
100
AcDbEntity
  8
LAY-1
  6
CONTINUOUS
 62
     7
100
AcDbCircle
 10
891.486501
 20
112.653025
 30
0.0
 40
2.097093
100
AcDbArc
 50
326.178743
 51
33.821257
  0
ARC
  5
536
100
AcDbEntity
  8
LAY-1
  6
CONTINUOUS
 62
     7
100
AcDbCircle
 10
892.406582
 20
112.653025
 30
0.0
 40
2.080863
100
AcDbArc
 50
145.878821
 51
214.121179
  0
ARC
  5
537
100
AcDbEntity
  8
LAY-1
  6
CONTINUOUS
 62
     7
100
AcDbCircle
 10
898.258119
 20
116.154775
 30
0.0
 40
7.925792
100
AcDbArc
 50
162.869763
 51
197.130237
  0
ARC
  5
538
100
AcDbEntity
  8
LAY-1
  6
CONTINUOUS
 62
     7
100
AcDbCircle
 10
892.43287
 20
119.656525
 30
0.0
 40
2.102678
100
AcDbArc
 50
146.280638
 51
213.719362
  0
LINE
  5
539
100
AcDbEntity
  8
LAY-1
  6
CONTINUOUS
 62
     7
100
AcDbLine
 10
894.899826
 20
120.823775
 30
0.0
 11
893.580326
 21
120.823775
 31
0.0
  0
LINE
  5
53A
100
AcDbEntity
  8
LAY-1
  6
CONTINUOUS
 62
     7
100
AcDbLine
 10
893.580326
 20
120.823775
 30
0.0
 11
893.580326
 21
111.485775
 31
0.0
  0
LINE
  5
53B
100
AcDbEntity
  8
LAY-1
  6
CONTINUOUS
 62
     7
100
AcDbLine
 10
893.580326
 20
111.485775
 30
0.0
 11
894.899826
 21
111.485775
 31
0.0
  0
LINE
  5
53C
100
AcDbEntity
  8
LAY-1
  6
CONTINUOUS
 62
     7
100
AcDbLine
 10
893.22872
 20
111.485775
 30
0.0
 11
890.683933
 21
111.485775
 31
0.0
  0
LINE
  5
53D
100
AcDbEntity
  8
LAY-1
  6
CONTINUOUS
 62
     7
100
AcDbLine
 10
890.683933
 20
113.820275
 30
0.0
 11
893.22872
 21
113.820275
 31
0.0
  0
LINE
  5
53E
100
AcDbEntity
  8
LAY-1
  6
CONTINUOUS
 62
     7
100
AcDbLine
 10
893.22872
 20
118.489275
 30
0.0
 11
890.683933
 21
118.489275
 31
0.0
  0
LINE
  5
53F
100
AcDbEntity
  8
LAY-1
  6
CONTINUOUS
 62
     7
100
AcDbLine
 10
890.683933
 20
120.823775
 30
0.0
 11
893.22872
 21
120.823775
 31
0.0
  0
LINE
  5
540
100
AcDbEntity
  8
LAY-1
  6
CONTINUOUS
 62
     7
100
AcDbLine
 10
890.332326
 20
120.214775
 30
0.0
 11
890.332326
 21
112.094775
 31
0.0
  0
LINE
  5
541
100
AcDbEntity
  8
LAY-1
  6
CONTINUOUS
 62
     7
100
AcDbLine
 10
890.332326
 20
112.094775
 30
0.0
 11
890.683933
 21
111.485775
 31
0.0
  0
LINE
  5
542
100
AcDbEntity
  8
LAY-1
  6
CONTINUOUS
 62
     7
100
AcDbLine
 10
893.22872
 20
111.485775
 30
0.0
 11
893.580326
 21
112.094775
 31
0.0
  0
LINE
  5
543
100
AcDbEntity
  8
LAY-1
  6
CONTINUOUS
 62
     7
100
AcDbLine
 10
893.580326
 20
120.214775
 30
0.0
 11
893.22872
 21
120.823775
 31
0.0
  0
LINE
  5
544
100
AcDbEntity
  8
LAY-1
  6
CONTINUOUS
 62
     7
100
AcDbLine
 10
890.683933
 20
120.823775
 30
0.0
 11
890.332326
 21
120.214775
 31
0.0
  0
LINE
  5
545
100
AcDbEntity
  8
LAY-1
  6
CONTINUOUS
 62
     7
100
AcDbLine
 10
893.580326
 20
116.154775
 30
0.0
 11
894.899826
 21
117.474275
 31
0.0
  0
LINE
  5
546
100
AcDbEntity
  8
LAY-1
  6
CONTINUOUS
 62
     7
100
AcDbLine
 10
894.899826
 20
116.154775
 30
0.0
 11
893.580326
 21
114.835275
 31
0.0
  0
ARC
  5
547
100
AcDbEntity
  8
LAY-1
  6
CONTINUOUS
 62
     7
100
AcDbCircle
 10
897.437326
 20
122.981775
 30
0.0
 40
2.5375
100
AcDbArc
 50
90.0
 51
180.0
  0
ARC
  5
548
100
AcDbEntity
  8
LAY-1
  6
CONTINUOUS
 62
     7
100
AcDbCircle
 10
897.437326
 20
122.981775
 30
0.0
 40
0.5075
100
AcDbArc
 50
90.0
 51
180.0
  0
LINE
  5
549
100
AcDbEntity
  8
LAY-1
  6
CONTINUOUS
 62
     7
100
AcDbLine
 10
894.899826
 20
122.981775
 30
0.0
 11
894.899826
 21
106.224288
 31
0.0
  0
LINE
  5
54A
100
AcDbEntity
  8
LAY-1
  6
CONTINUOUS
 62
     7
100
AcDbLine
 10
897.944826
 20
121.662275
 30
0.0
 11
899.467326
 21
122.677275
 31
0.0
  0
LINE
  5
54B
100
AcDbEntity
  8
LAY-1
  6
CONTINUOUS
 62
     7
100
AcDbLine
 10
897.944826
 20
121.408525
 30
0.0
 11
896.929826
 21
121.408525
 31
0.0
  0
LINE
  5
54C
100
AcDbEntity
  8
LAY-1
  6
CONTINUOUS
 62
     7
100
AcDbLine
 10
897.944826
 20
110.826025
 30
0.0
 11
896.929826
 21
110.826025
 31
0.0
  0
LINE
  5
54D
100
AcDbEntity
  8
LAY-1
  6
CONTINUOUS
 62
     7
100
AcDbLine
 10
897.944826
 20
118.692275
 30
0.0
 11
897.944826
 21
110.572275
 31
0.0
  0
ARC
  5
54E
100
AcDbEntity
  8
LAY-1
  6
CONTINUOUS
 62
     7
100
AcDbCircle
 10
891.512862
 20
119.632317
 30
0.0
 40
2.075245
100
AcDbArc
 50
325.773646
 51
34.226354
  0
ARC
  5
54F
100
AcDbEntity
  8
LAY-1
  6
CONTINUOUS
 62
     7
100
AcDbCircle
 10
885.654534
 20
116.130567
 30
0.0
 40
7.925792
100
AcDbArc
 50
342.869763
 51
17.130237
  0
ARC
  5
550
100
AcDbEntity
  8
LAY-1
  6
CONTINUOUS
 62
     7
100
AcDbCircle
 10
891.486501
 20
112.628817
 30
0.0
 40
2.097093
100
AcDbArc
 50
326.178743
 51
33.821257
  0
LINE
  5
551
100
AcDbEntity
  8
LAY-1
  6
CONTINUOUS
 62
     7
100
AcDbLine
 10
894.899826
 20
120.799567
 30
0.0
 11
893.580326
 21
120.799567
 31
0.0
  0
LINE
  5
552
100
AcDbEntity
  8
LAY-1
  6
CONTINUOUS
 62
     7
100
AcDbLine
 10
893.580326
 20
120.799567
 30
0.0
 11
893.580326
 21
111.461567
 31
0.0
  0
LINE
  5
553
100
AcDbEntity
  8
LAY-1
  6
CONTINUOUS
 62
     7
100
AcDbLine
 10
893.580326
 20
111.461567
 30
0.0
 11
894.899826
 21
111.461567
 31
0.0
  0
LINE
  5
554
100
AcDbEntity
  8
LAY-1
  6
CONTINUOUS
 62
     7
100
AcDbLine
 10
893.22872
 20
111.461567
 30
0.0
 11
893.580326
 21
112.070567
 31
0.0
  0
LINE
  5
555
100
AcDbEntity
  8
LAY-1
  6
CONTINUOUS
 62
     7
100
AcDbLine
 10
893.580326
 20
120.190567
 30
0.0
 11
893.22872
 21
120.799567
 31
0.0
  0
LINE
  5
556
100
AcDbEntity
  8
LAY-1
  6
CONTINUOUS
 62
     7
100
AcDbLine
 10
893.580326
 20
116.130567
 30
0.0
 11
894.899826
 21
117.450067
 31
0.0
  0
LINE
  5
557
100
AcDbEntity
  8
LAY-1
  6
CONTINUOUS
 62
     7
100
AcDbLine
 10
894.899826
 20
116.130567
 30
0.0
 11
893.580326
 21
114.811067
 31
0.0
  0
ARC
  5
558
100
AcDbEntity
  8
LAY-1
  6
CONTINUOUS
 62
     7
100
AcDbCircle
 10
897.437326
 20
122.957567
 30
0.0
 40
2.5375
100
AcDbArc
 50
90.0
 51
180.0
  0
ARC
  5
559
100
AcDbEntity
  8
LAY-1
  6
CONTINUOUS
 62
     7
100
AcDbCircle
 10
897.437326
 20
122.957567
 30
0.0
 40
0.5075
100
AcDbArc
 50
90.0
 51
180.0
  0
LINE
  5
55A
100
AcDbEntity
  8
LAY-1
  6
CONTINUOUS
 62
     7
100
AcDbLine
 10
894.899826
 20
122.957567
 30
0.0
 11
894.899826
 21
106.200081
 31
0.0
  0
LINE
  5
55B
100
AcDbEntity
  8
LAY-1
  6
CONTINUOUS
 62
     7
100
AcDbLine
 10
897.944826
 20
121.384317
 30
0.0
 11
896.929826
 21
121.384317
 31
0.0
  0
LINE
  5
55C
100
AcDbEntity
  8
LAY-1
  6
CONTINUOUS
 62
     7
100
AcDbLine
 10
897.944826
 20
110.801817
 30
0.0
 11
896.929826
 21
110.801817
 31
0.0
  0
LINE
  5
55D
100
AcDbEntity
  8
LAY-1
  6
CONTINUOUS
 62
     7
100
AcDbLine
 10
898.979826
 20
107.283067
 30
0.0
 11
897.929826
 21
106.483067
 31
0.0
  0
LINE
  5
55E
100
AcDbEntity
  8
LAY-1
  6
CONTINUOUS
 62
     7
100
AcDbLine
 10
899.467326
 20
122.583067
 30
0.0
 11
899.467326
 21
122.653067
 31
0.0
  0
LINE
  5
55F
100
AcDbEntity
  8
LAY-1
  6
CONTINUOUS
 62
     7
100
AcDbLine
 10
897.944826
 20
113.518067
 30
0.0
 11
897.944826
 21
122.583067
 31
0.0
  0
LINE
  5
560
100
AcDbEntity
  8
LAY-1
  6
CONTINUOUS
 62
     7
100
AcDbLine
 10
898.979826
 20
124.970067
 30
0.0
 11
897.929826
 21
125.770067
 31
0.0
  0
LINE
  5
561
100
AcDbEntity
  8
LAY-1
  6
CONTINUOUS
 62
     7
100
AcDbLine
 10
897.929826
 20
122.583067
 30
0.0
 11
897.929826
 21
125.770067
 31
0.0
  0
LINE
  5
562
100
AcDbEntity
  8
LAY-1
  6
CONTINUOUS
 62
     7
100
AcDbLine
 10
897.437326
 20
123.465067
 30
0.0
 11
897.929826
 21
123.465067
 31
0.0
  0
LINE
  5
563
100
AcDbEntity
  8
LAY-1
  6
CONTINUOUS
 62
     7
100
AcDbLine
 10
897.929826
 20
125.495067
 30
0.0
 11
897.437326
 21
125.495067
 31
0.0
  0
LINE
  5
564
100
AcDbEntity
  8
LAY-1
  6
CONTINUOUS
 62
     7
100
AcDbLine
 10
896.929826
 20
122.957567
 30
0.0
 11
896.929826
 21
109.692538
 31
0.0
  0
LINE
  5
565
100
AcDbEntity
  8
LAY-1
  6
CONTINUOUS
 62
     7
100
AcDbLine
 10
896.929826
 20
108.542538
 30
0.0
 11
896.929826
 21
106.200081
 31
0.0
  0
LINE
  5
566
100
AcDbEntity
  8
LAY-1
  6
CONTINUOUS
 62
     7
100
AcDbLine
 10
897.929826
 20
108.542538
 30
0.0
 11
897.929826
 21
106.483067
 31
0.0
  0
LINE
  5
567
100
AcDbEntity
  8
LAY-1
  6
CONTINUOUS
 62
     7
100
AcDbLine
 10
898.51
 20
108.542538
 30
0.0
 11
898.51
 21
109.702538
 31
0.0
  0
LINE
  5
568
100
AcDbEntity
  8
LAY-1
  6
CONTINUOUS
 62
     7
100
AcDbLine
 10
894.9
 20
108.542538
 30
0.0
 11
898.51
 21
108.542538
 31
0.0
  0
LINE
  5
569
100
AcDbEntity
  8
LAY-1
  6
CONTINUOUS
 62
     7
100
AcDbLine
 10
897.944826
 20
118.668067
 30
0.0
 11
897.944826
 21
109.692538
 31
0.0
  0
LINE
  5
56A
100
AcDbEntity
  8
LAY-1
  6
CONTINUOUS
 62
     7
100
AcDbLine
 10
894.9
 20
109.702538
 30
0.0
 11
898.51
 21
109.702538
 31
0.0
  0
LINE
  5
56B
100
AcDbEntity
  8
LAY-1
  6
CONTINUOUS
 62
     7
100
AcDbLine
 10
896.929826
 20
122.981775
 30
0.0
 11
896.929826
 21
109.702538
 31
0.0
  0
LINE
  5
56C
100
AcDbEntity
  8
LAY-1
  6
CONTINUOUS
 62
     7
100
AcDbLine
 10
897.437326
 20
123.489275
 30
0.0
 11
897.929826
 21
123.489275
 31
0.0
  0
LINE
  5
56D
100
AcDbEntity
  8
LAY-1
  6
CONTINUOUS
 62
     7
100
AcDbLine
 10
899.467326
 20
122.607275
 30
0.0
 11
899.467326
 21
122.677275
 31
0.0
  0
LINE
  5
56E
100
AcDbEntity
  8
LAY-1
  6
CONTINUOUS
 62
     7
100
AcDbLine
 10
897.944826
 20
110.572275
 30
0.0
 11
899.467326
 21
109.557275
 31
0.0
  0
LINE
  5
56F
100
AcDbEntity
  8
LAY-1
  6
CONTINUOUS
 62
     7
100
AcDbLine
 10
898.979826
 20
109.557275
 30
0.0
 11
898.979826
 21
107.283067
 31
0.0
  0
LINE
  5
570
100
AcDbEntity
  8
LAY-1
  6
CONTINUOUS
 62
     7
100
AcDbLine
 10
898.258991
 20
125.519275
 30
0.0
 11
897.437326
 21
125.519275
 31
0.0
  0
LINE
  5
571
100
AcDbEntity
  8
LAY-1
  6
CONTINUOUS
 62
     7
100
AcDbLine
 10
898.979826
 20
122.720067
 30
0.0
 11
898.979826
 21
124.970067
 31
0.0
  0
LINE
  5
572
100
AcDbEntity
  8
LAY-1
  6
CONTINUOUS
 62
     7
100
AcDbLine
 10
896.929826
 20
106.224288
 30
0.0
 11
894.899826
 21
106.224288
 31
0.0
  0
ARC
  5
573
100
AcDbEntity
  8
LAY-1
  6
CONTINUOUS
 62
     7
100
AcDbCircle
 10
894.392326
 20
106.224288
 30
0.0
 40
2.5375
100
AcDbArc
 50
299.744881
 51
0.0
  0
ARC
  5
574
100
AcDbEntity
  8
LAY-1
  6
CONTINUOUS
 62
     7
100
AcDbCircle
 10
894.392326
 20
106.224288
 30
0.0
 40
0.5075
100
AcDbArc
 50
299.744881
 51
0.0
  0
ARC
  5
575
100
AcDbEntity
  8
LAY-1
  6
CONTINUOUS
 62
     7
100
AcDbCircle
 10
894.392326
 20
106.200081
 30
0.0
 40
0.5075
100
AcDbArc
 50
299.744881
 51
0.0
  0
ARC
  5
576
100
AcDbEntity
  8
LAY-1
  6
CONTINUOUS
 62
     7
100
AcDbCircle
 10
894.392326
 20
106.200081
 30
0.0
 40
2.5375
100
AcDbArc
 50
299.744881
 51
0.0
  0
LINE
  5
577
100
AcDbEntity
  8
LAY-1
  6
CONTINUOUS
 62
     7
100
AcDbLine
 10
894.644117
 20
105.783655
 30
0.0
 11
887.956155
 21
101.961962
 31
0.0
  0
LINE
  5
578
100
AcDbEntity
  8
LAY-1
  6
CONTINUOUS
 62
     7
100
AcDbLine
 10
895.651279
 20
104.021121
 30
0.0
 11
888.971165
 21
100.203913
 31
0.0
  0
LINE
  5
579
100
AcDbEntity
  8
LAY-1
  6
CONTINUOUS
 62
     7
100
AcDbLine
 10
887.702402
 20
102.401475
 30
0.0
 11
889.224917
 21
99.764401
 31
0.0
  0
LINE
  5
57A
100
AcDbEntity
  8
LAY-1
  6
CONTINUOUS
 62
     7
100
AcDbLine
 10
889.224917
 20
99.764401
 30
0.0
 11
883.483036
 21
96.483326
 31
0.0
  0
LINE
  5
57B
100
AcDbEntity
  8
LAY-1
  6
CONTINUOUS
 62
     7
100
AcDbLine
 10
887.702402
 20
102.401475
 30
0.0
 11
881.972293
 21
99.127126
 31
0.0
  0
LINE
  5
57C
100
AcDbEntity
  8
LAY-1
  6
CONTINUOUS
 62
     7
100
AcDbLine
 10
883.227326
 20
56.1938
 30
0.0
 11
883.227326
 21
96.042693
 31
0.0
  0
LINE
  5
57D
100
AcDbEntity
  8
LAY-1
  6
CONTINUOUS
 62
     7
100
AcDbLine
 10
880.182326
 20
96.042693
 30
0.0
 11
880.182326
 21
56.235509
 31
0.0
  0
ARC
  5
57E
100
AcDbEntity
  8
LAY-1
  6
CONTINUOUS
 62
     7
100
AcDbCircle
 10
881.704255
 20
56.1938
 30
0.0
 40
1.5225
100
AcDbArc
 50
178.430171
 51
0.0
  0
ARC
  5
57F
100
AcDbEntity
  8
LAY-1
  6
CONTINUOUS
 62
     7
100
AcDbCircle
 10
883.734826
 20
96.042693
 30
0.0
 40
0.5075
100
AcDbArc
 50
119.744881
 51
180.0
  0
ARC
  5
580
100
AcDbEntity
  8
LAY-1
  6
CONTINUOUS
 62
     7
100
AcDbCircle
 10
883.734826
 20
96.042693
 30
0.0
 40
3.5525
100
AcDbArc
 50
119.744881
 51
180.0
  0
LINE
  5
581
100
AcDbEntity
  8
LAY-1
  6
CONTINUOUS
 62
     7
100
AcDbLine
 10
1127.0
 20
63.782538
 30
0.0
 11
883.227326
 21
63.782538
 31
0.0
  0
LINE
  5
582
100
AcDbEntity
  8
LAY-1
  6
CONTINUOUS
 62
     7
100
AcDbLine
 10
881.0
 20
199.782538
 30
0.0
 11
881.0
 21
98.310066
 31
0.0
  0
LINE
  5
583
100
AcDbEntity
  8
LAY-1
  6
CONTINUOUS
 62
     7
100
AcDbLine
 10
1109.3
 20
61.782538
 30
0.0
 11
1139.0
 21
61.782538
 31
0.0
  0
LINE
  5
584
100
AcDbEntity
  8
LAY-1
  6
CONTINUOUS
 62
     7
100
AcDbLine
 10
1109.0
 20
59.782538
 30
0.0
 11
1137.0
 21
59.782538
 31
0.0
  0
LINE
  5
585
100
AcDbEntity
  8
LAY-1
  6
CONTINUOUS
 62
     7
100
AcDbLine
 10
1109.0
 20
61.782538
 30
0.0
 11
1109.0
 21
59.782538
 31
0.0
  0
LINE
  5
586
100
AcDbEntity
  8
LAY-1
  6
CONTINUOUS
 62
     7
100
AcDbLine
 10
1139.0
 20
13.782538
 30
0.0
 11
1139.0
 21
61.782538
 31
0.0
  0
LINE
  5
587
100
AcDbEntity
  8
LAY-1
  6
CONTINUOUS
 62
     7
100
AcDbLine
 10
1139.0
 20
13.782538
 30
0.0
 11
1162.0
 21
13.782538
 31
0.0
  0
LINE
  5
588
100
AcDbEntity
  8
LAY-1
  6
CONTINUOUS
 62
     7
100
AcDbLine
 10
1162.0
 20
11.782538
 30
0.0
 11
1137.0
 21
11.782538
 31
0.0
  0
LINE
  5
589
100
AcDbEntity
  8
LAY-1
  6
CONTINUOUS
 62
     7
100
AcDbLine
 10
1162.0
 20
13.782538
 30
0.0
 11
1162.0
 21
11.782538
 31
0.0
  0
LINE
  5
58A
100
AcDbEntity
  8
LAY-1
  6
CONTINUOUS
 62
     7
100
AcDbLine
 10
1137.0
 20
59.782538
 30
0.0
 11
1137.0
 21
11.782538
 31
0.0
  0
LINE
  5
58B
100
AcDbEntity
  8
LAY-1
  6
CONTINUOUS
 62
     7
100
AcDbLine
 10
1129.0
 20
51.782538
 30
0.0
 11
1129.0
 21
59.782538
 31
0.0
  0
LINE
  5
58C
100
AcDbEntity
  8
LAY-1
  6
CONTINUOUS
 62
     7
100
AcDbLine
 10
1129.0
 20
51.782538
 30
0.0
 11
879.0
 21
51.782538
 31
0.0
  0
LINE
  5
58D
100
AcDbEntity
  8
LAY-1
  6
CONTINUOUS
 62
     7
100
AcDbLine
 10
899.0
 20
61.782538
 30
0.0
 11
899.0
 21
59.782538
 31
0.0
  0
LINE
  5
58E
100
AcDbEntity
  8
LAY-1
  6
CONTINUOUS
 62
     7
100
AcDbLine
 10
869.0
 20
13.782538
 30
0.0
 11
869.0
 21
61.782538
 31
0.0
  0
LINE
  5
58F
100
AcDbEntity
  8
LAY-1
  6
CONTINUOUS
 62
     7
100
AcDbLine
 10
871.0
 20
59.782538
 30
0.0
 11
871.0
 21
11.782538
 31
0.0
  0
LINE
  5
590
100
AcDbEntity
  8
LAY-1
  6
CONTINUOUS
 62
     7
100
AcDbLine
 10
869.0
 20
13.782538
 30
0.0
 11
846.0
 21
13.782538
 31
0.0
  0
LINE
  5
591
100
AcDbEntity
  8
LAY-1
  6
CONTINUOUS
 62
     7
100
AcDbLine
 10
846.0
 20
11.782538
 30
0.0
 11
871.0
 21
11.782538
 31
0.0
  0
LINE
  5
592
100
AcDbEntity
  8
LAY-1
  6
CONTINUOUS
 62
     7
100
AcDbLine
 10
846.0
 20
13.782538
 30
0.0
 11
846.0
 21
11.782538
 31
0.0
  0
LINE
  5
593
100
AcDbEntity
  8
LAY-1
  6
CONTINUOUS
 62
     7
100
AcDbLine
 10
879.0
 20
51.782538
 30
0.0
 11
879.0
 21
59.782538
 31
0.0
  0
LINE
  5
594
100
AcDbEntity
  8
LAY-1
  6
CONTINUOUS
 62
     7
100
AcDbLine
 10
1129.0
 20
211.782538
 30
0.0
 11
879.0
 21
211.782538
 31
0.0
  0
LINE
  5
595
100
AcDbEntity
  8
LAY-1
  6
CONTINUOUS
 62
     7
100
AcDbLine
 10
898.7
 20
61.782538
 30
0.0
 11
883.227326
 21
61.782538
 31
0.0
  0
LINE
  5
596
100
AcDbEntity
  8
LAY-1
  6
CONTINUOUS
 62
     7
100
AcDbLine
 10
880.182326
 20
61.782538
 30
0.0
 11
869.0
 21
61.782538
 31
0.0
  0
LINE
  5
597
100
AcDbEntity
  8
LAY-1
  6
CONTINUOUS
 62
     7
100
AcDbLine
 10
899.0
 20
59.782538
 30
0.0
 11
883.227326
 21
59.782538
 31
0.0
  0
LINE
  5
598
100
AcDbEntity
  8
LAY-1
  6
CONTINUOUS
 62
     7
100
AcDbLine
 10
880.182326
 20
59.782538
 30
0.0
 11
871.0
 21
59.782538
 31
0.0
  0
LINE
  5
599
100
AcDbEntity
  8
LAY-1
  6
CONTINUOUS
 62
     7
100
AcDbLine
 10
1109.0
 20
61.782538
 30
0.0
 11
899.0
 21
61.782538
 31
0.0
  0
LINE
  5
59A
100
AcDbEntity
  8
LAY-1
  6
CONTINUOUS
 62
     7
100
AcDbLine
 10
1129.0
 20
211.782538
 30
0.0
 11
1129.0
 21
61.782538
 31
0.0
  0
LINE
  5
59B
100
AcDbEntity
  8
LAY-1
  6
CONTINUOUS
 62
     7
100
AcDbLine
 10
1129.0
 20
201.782538
 30
0.0
 11
879.0
 21
201.782538
 31
0.0
  0
LINE
  5
59C
100
AcDbEntity
  8
LAY-1
  6
CONTINUOUS
 62
     7
100
AcDbLine
 10
879.0
 20
211.782538
 30
0.0
 11
879.0
 21
61.782538
 31
0.0
  0
CIRCLE
  5
59D
100
AcDbEntity
  8
LAY-1
  6
CONTINUOUS
 62
     7
100
AcDbCircle
 10
1064.0
 20
160.782538
 30
0.0
 40
12.5
  0
CIRCLE
  5
59E
100
AcDbEntity
  8
LAY-1
  6
CONTINUOUS
 62
     7
100
AcDbCircle
 10
1064.0
 20
160.782538
 30
0.0
 40
9.277431
  0
CIRCLE
  5
59F
100
AcDbEntity
  8
LAY-1
  6
CONTINUOUS
 62
     7
100
AcDbCircle
 10
1064.0
 20
102.782538
 30
0.0
 40
12.5
  0
CIRCLE
  5
5A0
100
AcDbEntity
  8
LAY-1
  6
CONTINUOUS
 62
     7
100
AcDbCircle
 10
1064.0
 20
102.782538
 30
0.0
 40
9.277431
  0
ARC
  5
5A1
100
AcDbEntity
  8
LAY-1
  6
CONTINUOUS
 62
     7
100
AcDbCircle
 10
1082.813374
 20
163.430127
 30
0.0
 40
2.5
100
AcDbArc
 50
90.0
 51
180.0
  0
ARC
  5
5A2
100
AcDbEntity
  8
LAY-1
  6
CONTINUOUS
 62
     7
100
AcDbCircle
 10
1082.813374
 20
163.430127
 30
0.0
 40
1.5
100
AcDbArc
 50
90.0
 51
180.0
  0
LINE
  5
5A3
100
AcDbEntity
  8
LAY-1
  6
CONTINUOUS
 62
     7
100
AcDbLine
 10
1080.313374
 20
163.430127
 30
0.0
 11
1080.313374
 21
158.430127
 31
0.0
  0
ARC
  5
5A4
100
AcDbEntity
  8
LAY-1
  6
CONTINUOUS
 62
     7
100
AcDbCircle
 10
1082.813374
 20
158.430127
 30
0.0
 40
2.5
100
AcDbArc
 50
180.0
 51
270.0
  0
LINE
  5
5A5
100
AcDbEntity
  8
LAY-1
  6
CONTINUOUS
 62
     7
100
AcDbLine
 10
1081.313374
 20
163.430127
 30
0.0
 11
1081.313374
 21
158.430127
 31
0.0
  0
ARC
  5
5A6
100
AcDbEntity
  8
LAY-1
  6
CONTINUOUS
 62
     7
100
AcDbCircle
 10
1082.813374
 20
158.430127
 30
0.0
 40
1.5
100
AcDbArc
 50
180.0
 51
270.0
  0
ARC
  5
5A7
100
AcDbEntity
  8
LAY-1
  6
CONTINUOUS
 62
     7
100
AcDbCircle
 10
1102.813374
 20
163.430127
 30
0.0
 40
2.5
100
AcDbArc
 50
0.0
 51
90.0
  0
LINE
  5
5A8
100
AcDbEntity
  8
LAY-1
  6
CONTINUOUS
 62
     7
100
AcDbLine
 10
1082.813374
 20
165.930127
 30
0.0
 11
1102.813374
 21
165.930127
 31
0.0
  0
ARC
  5
5A9
100
AcDbEntity
  8
LAY-1
  6
CONTINUOUS
 62
     7
100
AcDbCircle
 10
1102.813374
 20
163.430127
 30
0.0
 40
1.5
100
AcDbArc
 50
0.0
 51
90.0
  0
LINE
  5
5AA
100
AcDbEntity
  8
LAY-1
  6
CONTINUOUS
 62
     7
100
AcDbLine
 10
1082.813374
 20
164.930127
 30
0.0
 11
1102.813374
 21
164.930127
 31
0.0
  0
LINE
  5
5AB
100
AcDbEntity
  8
LAY-1
  6
CONTINUOUS
 62
     7
100
AcDbLine
 10
1105.313374
 20
163.430127
 30
0.0
 11
1105.313374
 21
158.430127
 31
0.0
  0
LINE
  5
5AC
100
AcDbEntity
  8
LAY-1
  6
CONTINUOUS
 62
     7
100
AcDbLine
 10
1082.813374
 20
155.930127
 30
0.0
 11
1102.813374
 21
155.930127
 31
0.0
  0
ARC
  5
5AD
100
AcDbEntity
  8
LAY-1
  6
CONTINUOUS
 62
     7
100
AcDbCircle
 10
1102.813374
 20
158.430127
 30
0.0
 40
2.5
100
AcDbArc
 50
270.0
 51
0.0
  0
LINE
  5
5AE
100
AcDbEntity
  8
LAY-1
  6
CONTINUOUS
 62
     7
100
AcDbLine
 10
1104.313374
 20
163.430127
 30
0.0
 11
1104.313374
 21
158.430127
 31
0.0
  0
LINE
  5
5AF
100
AcDbEntity
  8
LAY-1
  6
CONTINUOUS
 62
     7
100
AcDbLine
 10
1082.813374
 20
156.930127
 30
0.0
 11
1102.813374
 21
156.930127
 31
0.0
  0
ARC
  5
5B0
100
AcDbEntity
  8
LAY-1
  6
CONTINUOUS
 62
     7
100
AcDbCircle
 10
1102.813374
 20
158.430127
 30
0.0
 40
1.5
100
AcDbArc
 50
270.0
 51
0.0
  0
ARC
  5
5B1
100
AcDbEntity
  8
LAY-1
  6
CONTINUOUS
 62
     7
100
AcDbCircle
 10
1083.209669
 20
105.482538
 30
0.0
 40
2.5
100
AcDbArc
 50
90.0
 51
180.0
  0
ARC
  5
5B2
100
AcDbEntity
  8
LAY-1
  6
CONTINUOUS
 62
     7
100
AcDbCircle
 10
1083.209669
 20
105.482538
 30
0.0
 40
1.5
100
AcDbArc
 50
90.0
 51
180.0
  0
LINE
  5
5B3
100
AcDbEntity
  8
LAY-1
  6
CONTINUOUS
 62
     7
100
AcDbLine
 10
1080.709669
 20
105.482538
 30
0.0
 11
1080.709669
 21
100.482538
 31
0.0
  0
ARC
  5
5B4
100
AcDbEntity
  8
LAY-1
  6
CONTINUOUS
 62
     7
100
AcDbCircle
 10
1083.209669
 20
100.482538
 30
0.0
 40
2.5
100
AcDbArc
 50
180.0
 51
270.0
  0
LINE
  5
5B5
100
AcDbEntity
  8
LAY-1
  6
CONTINUOUS
 62
     7
100
AcDbLine
 10
1081.709669
 20
105.482538
 30
0.0
 11
1081.709669
 21
100.482538
 31
0.0
  0
ARC
  5
5B6
100
AcDbEntity
  8
LAY-1
  6
CONTINUOUS
 62
     7
100
AcDbCircle
 10
1083.209669
 20
100.482538
 30
0.0
 40
1.5
100
AcDbArc
 50
180.0
 51
270.0
  0
ARC
  5
5B7
100
AcDbEntity
  8
LAY-1
  6
CONTINUOUS
 62
     7
100
AcDbCircle
 10
1103.209669
 20
105.482538
 30
0.0
 40
2.5
100
AcDbArc
 50
0.0
 51
90.0
  0
LINE
  5
5B8
100
AcDbEntity
  8
LAY-1
  6
CONTINUOUS
 62
     7
100
AcDbLine
 10
1083.209669
 20
107.982538
 30
0.0
 11
1103.209669
 21
107.982538
 31
0.0
  0
ARC
  5
5B9
100
AcDbEntity
  8
LAY-1
  6
CONTINUOUS
 62
     7
100
AcDbCircle
 10
1103.209669
 20
105.482538
 30
0.0
 40
1.5
100
AcDbArc
 50
0.0
 51
90.0
  0
LINE
  5
5BA
100
AcDbEntity
  8
LAY-1
  6
CONTINUOUS
 62
     7
100
AcDbLine
 10
1083.209669
 20
106.982538
 30
0.0
 11
1103.209669
 21
106.982538
 31
0.0
  0
LINE
  5
5BB
100
AcDbEntity
  8
LAY-1
  6
CONTINUOUS
 62
     7
100
AcDbLine
 10
1105.709669
 20
105.482538
 30
0.0
 11
1105.709669
 21
100.482538
 31
0.0
  0
LINE
  5
5BC
100
AcDbEntity
  8
LAY-1
  6
CONTINUOUS
 62
     7
100
AcDbLine
 10
1083.209669
 20
97.982538
 30
0.0
 11
1103.209669
 21
97.982538
 31
0.0
  0
ARC
  5
5BD
100
AcDbEntity
  8
LAY-1
  6
CONTINUOUS
 62
     7
100
AcDbCircle
 10
1103.209669
 20
100.482538
 30
0.0
 40
2.5
100
AcDbArc
 50
270.0
 51
0.0
  0
LINE
  5
5BE
100
AcDbEntity
  8
LAY-1
  6
CONTINUOUS
 62
     7
100
AcDbLine
 10
1104.709669
 20
105.482538
 30
0.0
 11
1104.709669
 21
100.482538
 31
0.0
  0
LINE
  5
5BF
100
AcDbEntity
  8
LAY-1
  6
CONTINUOUS
 62
     7
100
AcDbLine
 10
1083.209669
 20
98.982538
 30
0.0
 11
1103.209669
 21
98.982538
 31
0.0
  0
ARC
  5
5C0
100
AcDbEntity
  8
LAY-1
  6
CONTINUOUS
 62
     7
100
AcDbCircle
 10
1103.209669
 20
100.482538
 30
0.0
 40
1.5
100
AcDbArc
 50
270.0
 51
0.0
  0
CIRCLE
  5
5C1
100
AcDbEntity
  8
LAY-1
  6
CONTINUOUS
 62
     1
100
AcDbCircle
 10
1064.0
 20
160.782538
 30
0.0
 40
10.4775
  0
CIRCLE
  5
5C2
100
AcDbEntity
  8
LAY-1
  6
CONTINUOUS
 62
     1
100
AcDbCircle
 10
1064.0
 20
102.782538
 30
0.0
 40
10.4775
  0
LINE
  5
5C3
100
AcDbEntity
  8
LAY-1
  6
EXLTYPE3
 62
     1
100
AcDbLine
 10
997.0
 20
131.782538
 30
0.0
 11
1131.0
 21
131.782538
 31
0.0
  0
LINE
  5
5C4
100
AcDbEntity
  8
LAY-1
  6
EXLTYPE3
 62
     1
100
AcDbLine
 10
1064.0
 20
198.120038
 30
0.0
 11
1064.0
 21
65.445038
 31
0.0
  0
ARC
  5
5C5
100
AcDbEntity
  8
LAY-1
  6
CONTINUOUS
 62
     7
100
AcDbCircle
 10
1035.809669
 20
882.669957
 30
0.0
 40
2.0
100
AcDbArc
 50
0.0
 51
90.0
  0
LINE
  5
5C6
100
AcDbEntity
  8
LAY-1
  6
CONTINUOUS
 62
     7
100
AcDbLine
 10
973.809669
 20
884.669957
 30
0.0
 11
1035.809669
 21
884.669957
 31
0.0
  0
ARC
  5
5C7
100
AcDbEntity
  8
LAY-1
  6
CONTINUOUS
 62
     7
100
AcDbCircle
 10
973.809669
 20
882.669957
 30
0.0
 40
2.0
100
AcDbArc
 50
90.0
 51
180.0
  0
LINE
  5
5C8
100
AcDbEntity
  8
LAY-1
  6
CONTINUOUS
 62
     7
100
AcDbLine
 10
1037.809669
 20
882.669957
 30
0.0
 11
1037.809669
 21
866.669957
 31
0.0
  0
ARC
  5
5C9
100
AcDbEntity
  8
LAY-1
  6
CONTINUOUS
 62
     7
100
AcDbCircle
 10
1035.809669
 20
866.669957
 30
0.0
 40
2.0
100
AcDbArc
 50
270.0
 51
0.0
  0
LINE
  5
5CA
100
AcDbEntity
  8
LAY-1
  6
CONTINUOUS
 62
     7
100
AcDbLine
 10
973.809669
 20
864.669957
 30
0.0
 11
1035.809669
 21
864.669957
 31
0.0
  0
LINE
  5
5CB
100
AcDbEntity
  8
LAY-1
  6
CONTINUOUS
 62
     7
100
AcDbLine
 10
971.809669
 20
882.669957
 30
0.0
 11
971.809669
 21
866.669957
 31
0.0
  0
ARC
  5
5CC
100
AcDbEntity
  8
LAY-1
  6
CONTINUOUS
 62
     7
100
AcDbCircle
 10
973.809669
 20
866.669957
 30
0.0
 40
2.0
100
AcDbArc
 50
180.0
 51
270.0
  0
LINE
  5
5CD
100
AcDbEntity
  8
LAY-1
  6
EXLTYPE3
 62
     1
100
AcDbLine
 10
930.5
 20
1443.6
 30
0.0
 11
930.5
 21
1273.4
 31
0.0
  0
LINE
  5
5CE
100
AcDbEntity
  8
LAY-1
  6
EXLTYPE2
 62
     1
100
AcDbLine
 10
867.0
 20
1251.0
 30
0.0
 11
867.0
 21
1250.1
 31
0.0
  0
LINE
  5
5CF
100
AcDbEntity
  8
LAY-1
  6
EXLTYPE3
 62
     1
100
AcDbLine
 10
832.098979
 20
1318.0
 30
0.0
 11
851.298979
 21
1318.0
 31
0.0
  0
LINE
  5
5D0
100
AcDbEntity
  8
LAY-1
  6
EXLTYPE3
 62
     1
100
AcDbLine
 10
832.098979
 20
1388.0
 30
0.0
 11
851.298979
 21
1388.0
 31
0.0
  0
LINE
  5
5D1
100
AcDbEntity
  8
LAY-1
  6
EXLTYPE3
 62
     1
100
AcDbLine
 10
854.0
 20
1443.4
 30
0.0
 11
854.0
 21
1427.6
 31
0.0
  0
LINE
  5
5D2
100
AcDbEntity
  8
LAY-1
  6
EXLTYPE3
 62
     1
100
AcDbLine
 10
851.1
 20
1396.0
 30
0.0
 11
873.290331
 21
1396.0
 31
0.0
  0
LINE
  5
5D3
100
AcDbEntity
  8
LAY-1
  6
EXLTYPE3
 62
     1
100
AcDbLine
 10
1175.901021
 20
1318.0
 30
0.0
 11
1156.701021
 21
1318.0
 31
0.0
  0
LINE
  5
5D4
100
AcDbEntity
  8
LAY-1
  6
EXLTYPE3
 62
     1
100
AcDbLine
 10
1175.901021
 20
1388.0
 30
0.0
 11
1156.701021
 21
1388.0
 31
0.0
  0
LINE
  5
5D5
100
AcDbEntity
  8
LAY-1
  6
EXLTYPE3
 62
     1
100
AcDbLine
 10
1154.0
 20
1443.4
 30
0.0
 11
1154.0
 21
1427.6
 31
0.0
  0
ARC
  5
5D6
100
AcDbEntity
  8
LAY-1
  6
CONTINUOUS
 62
     7
100
AcDbCircle
 10
1120.0
 20
1251.0
 30
0.0
 40
22.0
100
AcDbArc
 50
270.0
 51
0.0
  0
LINE
  5
5D7
100
AcDbEntity
  8
LAY-1
  6
CONTINUOUS
 62
     7
100
AcDbLine
 10
1142.0
 20
1437.0
 30
0.0
 11
1142.0
 21
1251.0
 31
0.0
  0
ARC
  5
5D8
100
AcDbEntity
  8
LAY-1
  6
CONTINUOUS
 62
     7
100
AcDbCircle
 10
888.0
 20
1251.0
 30
0.0
 40
22.0
100
AcDbArc
 50
180.0
 51
270.0
  0
LINE
  5
5D9
100
AcDbEntity
  8
LAY-1
  6
CONTINUOUS
 62
     7
100
AcDbLine
 10
866.0
 20
1437.0
 30
0.0
 11
866.0
 21
1251.0
 31
0.0
  0
LINE
  5
5DA
100
AcDbEntity
  8
LAY-1
  6
CONTINUOUS
 62
     7
100
AcDbLine
 10
888.0
 20
1229.0
 30
0.0
 11
1120.0
 21
1229.0
 31
0.0
  0
LINE
  5
5DB
100
AcDbEntity
  8
LAY-1
  6
CONTINUOUS
 62
     7
100
AcDbLine
 10
1030.023324
 20
1214.800043
 30
0.0
 11
977.887489
 21
1214.800043
 31
0.0
  0
LINE
  5
5DC
100
AcDbEntity
  8
LAY-1
  6
CONTINUOUS
 62
     7
100
AcDbLine
 10
979.50335
 20
1203.776684
 30
0.0
 11
978.975305
 21
1213.852379
 31
0.0
  0
ARC
  5
5DD
100
AcDbEntity
  8
LAY-1
  6
CONTINUOUS
 62
     7
100
AcDbCircle
 10
1039.846894
 20
1227.800043
 30
0.0
 40
3.0
100
AcDbArc
 50
183.0
 51
270.0
  0
ARC
  5
5DE
100
AcDbEntity
  8
LAY-1
  6
CONTINUOUS
 62
     7
100
AcDbCircle
 10
1018.510354
 20
1204.300043
 30
0.0
 40
10.0
100
AcDbArc
 50
270.0
 51
357.0
  0
LINE
  5
5DF
100
AcDbEntity
  8
LAY-1
  6
CONTINUOUS
 62
     7
100
AcDbLine
 10
1030.023324
 20
1214.800043
 30
0.0
 11
1030.112511
 21
1214.800043
 31
0.0
  0
ARC
  5
5E0
100
AcDbEntity
  8
LAY-1
  6
CONTINUOUS
 62
     7
100
AcDbCircle
 10
1030.112511
 20
1217.800043
 30
0.0
 40
3.0
100
AcDbArc
 50
270.0
 51
357.0
  0
ARC
  5
5E1
100
AcDbEntity
  8
LAY-1
  6
CONTINUOUS
 62
     7
100
AcDbCircle
 10
1030.023324
 20
1213.800043
 30
0.0
 40
1.0
100
AcDbArc
 50
90.0
 51
177.0
  0
ARC
  5
5E2
100
AcDbEntity
  8
LAY-1
  6
CONTINUOUS
 62
     7
100
AcDbCircle
 10
977.976676
 20
1213.800043
 30
0.0
 40
1.0
100
AcDbArc
 50
3.0
 51
90.0
  0
ARC
  5
5E3
100
AcDbEntity
  8
LAY-1
  6
CONTINUOUS
 62
     7
100
AcDbCircle
 10
977.887489
 20
1217.800043
 30
0.0
 40
3.0
100
AcDbArc
 50
183.0
 51
270.0
  0
ARC
  5
5E4
100
AcDbEntity
  8
LAY-1
  6
CONTINUOUS
 62
     7
100
AcDbCircle
 10
989.489646
 20
1204.300043
 30
0.0
 40
10.0
100
AcDbArc
 50
183.0
 51
270.0
  0
LINE
  5
5E5
100
AcDbEntity
  8
LAY-1
  6
CONTINUOUS
 62
     7
100
AcDbLine
 10
989.489646
 20
1194.300043
 30
0.0
 11
1004.0
 21
1194.300043
 31
0.0
  0
LINE
  5
5E6
100
AcDbEntity
  8
LAY-1
  6
CONTINUOUS
 62
     7
100
AcDbLine
 10
1018.510354
 20
1194.300043
 30
0.0
 11
1004.0
 21
1194.300043
 31
0.0
  0
LINE
  5
5E7
100
AcDbEntity
  8
LAY-1
  6
CONTINUOUS
 62
     7
100
AcDbLine
 10
1028.49665
 20
1203.776684
 30
0.0
 11
1029.024695
 21
1213.852379
 31
0.0
  0
LINE
  5
5E8
100
AcDbEntity
  8
LAY-1
  6
CONTINUOUS
 62
     7
100
AcDbLine
 10
1048.874213
 20
1224.800043
 30
0.0
 11
1039.846894
 21
1224.800043
 31
0.0
  0
ARC
  5
5E9
100
AcDbEntity
  8
LAY-1
  6
CONTINUOUS
 62
     7
100
AcDbCircle
 10
1048.874213
 20
1227.800043
 30
0.0
 40
3.0
100
AcDbArc
 50
270.0
 51
357.0
  0
LINE
  5
5EA
100
AcDbEntity
  8
LAY-1
  6
CONTINUOUS
 62
     7
100
AcDbLine
 10
1051.941217
 20
1229.0
 30
0.0
 11
1051.870102
 21
1227.643036
 31
0.0
  0
LINE
  5
5EB
100
AcDbEntity
  8
LAY-1
  6
CONTINUOUS
 62
     7
100
AcDbLine
 10
1036.851005
 20
1227.643036
 30
0.0
 11
1036.77989
 21
1229.0
 31
0.0
  0
LINE
  5
5EC
100
AcDbEntity
  8
LAY-1
  6
CONTINUOUS
 62
     7
100
AcDbLine
 10
1033.703593
 20
1229.0
 30
0.0
 11
1033.1084
 21
1217.643036
 31
0.0
  0
LINE
  5
5ED
100
AcDbEntity
  8
LAY-1
  6
CONTINUOUS
 62
     7
100
AcDbLine
 10
974.296407
 20
1229.0
 30
0.0
 11
974.8916
 21
1217.643036
 31
0.0
  0
LINE
  5
5EE
100
AcDbEntity
  8
LAY-1
  6
CONTINUOUS
 62
     7
100
AcDbLine
 10
900.5
 20
1437.0
 30
0.0
 11
960.5
 21
1437.0
 31
0.0
  0
LINE
  5
5EF
100
AcDbEntity
  8
LAY-1
  6
CONTINUOUS
 62
     7
100
AcDbLine
 10
900.5
 20
1437.0
 30
0.0
 11
900.5
 21
1295.5
 31
0.0
  0
LINE
  5
5F0
100
AcDbEntity
  8
LAY-1
  6
CONTINUOUS
 62
     7
100
AcDbLine
 10
960.5
 20
1437.0
 30
0.0
 11
960.5
 21
1295.5
 31
0.0
  0
LINE
  5
5F1
100
AcDbEntity
  8
LAY-1
  6
CONTINUOUS
 62
     7
100
AcDbLine
 10
960.5
 20
1295.5
 30
0.0
 11
948.0
 21
1295.5
 31
0.0
  0
LINE
  5
5F2
100
AcDbEntity
  8
LAY-1
  6
CONTINUOUS
 62
     7
100
AcDbLine
 10
900.5
 20
1295.5
 30
0.0
 11
913.0
 21
1295.5
 31
0.0
  0
CIRCLE
  5
5F3
100
AcDbEntity
  8
LAY-1
  6
CONTINUOUS
 62
     7
100
AcDbCircle
 10
930.5
 20
1295.5
 30
0.0
 40
17.5
  0
LINE
  5
5F4
100
AcDbEntity
  8
LAY-1
  6
CONTINUOUS
 62
     7
100
AcDbLine
 10
854.0
 20
1370.0
 30
0.0
 11
854.0
 21
1353.0
 31
0.0
  0
LINE
  5
5F5
100
AcDbEntity
  8
LAY-1
  6
CONTINUOUS
 62
     7
100
AcDbLine
 10
858.548979
 20
1342.15
 30
0.0
 11
854.0
 21
1337.601021
 31
0.0
  0
LINE
  5
5F6
100
AcDbEntity
  8
LAY-1
  6
CONTINUOUS
 62
     7
100
AcDbLine
 10
858.548979
 20
1363.85
 30
0.0
 11
858.548979
 21
1342.15
 31
0.0
  0
LINE
  5
5F7
100
AcDbEntity
  8
LAY-1
  6
CONTINUOUS
 62
     7
100
AcDbLine
 10
858.548979
 20
1363.85
 30
0.0
 11
854.0
 21
1368.398979
 31
0.0
  0
LINE
  5
5F8
100
AcDbEntity
  8
LAY-1
  6
CONTINUOUS
 62
     7
100
AcDbLine
 10
854.0
 20
1353.0
 30
0.0
 11
854.0
 21
1336.0
 31
0.0
  0
LINE
  5
5F9
100
AcDbEntity
  8
LAY-1
  6
CONTINUOUS
 62
     7
100
AcDbLine
 10
854.0
 20
1370.0
 30
0.0
 11
851.342404
 21
1370.442933
 31
0.0
  0
LINE
  5
5FA
100
AcDbEntity
  8
LAY-1
  6
CONTINUOUS
 62
     7
100
AcDbLine
 10
854.0
 20
1336.0
 30
0.0
 11
851.342404
 21
1335.557067
 31
0.0
  0
LINE
  5
5FB
100
AcDbEntity
  8
LAY-1
  6
CONTINUOUS
 62
     7
100
AcDbLine
 10
848.0
 20
1353.0
 30
0.0
 11
848.0
 21
1400.5
 31
0.0
  0
LINE
  5
5FC
100
AcDbEntity
  8
LAY-1
  6
CONTINUOUS
 62
     7
100
AcDbLine
 10
848.0
 20
1305.5
 30
0.0
 11
848.0
 21
1353.0
 31
0.0
  0
LINE
  5
5FD
100
AcDbEntity
  8
LAY-1
  6
CONTINUOUS
 62
     7
100
AcDbLine
 10
835.0
 20
1353.0
 30
0.0
 11
835.0
 21
1400.5
 31
0.0
  0
LINE
  5
5FE
100
AcDbEntity
  8
LAY-1
  6
CONTINUOUS
 62
     7
100
AcDbLine
 10
835.0
 20
1305.5
 30
0.0
 11
835.0
 21
1353.0
 31
0.0
  0
LINE
  5
5FF
100
AcDbEntity
  8
LAY-1
  6
CONTINUOUS
 62
     7
100
AcDbLine
 10
834.0
 20
1353.0
 30
0.0
 11
834.0
 21
1327.5
 31
0.0
  0
ARC
  5
600
100
AcDbEntity
  8
LAY-1
  6
CONTINUOUS
 62
     7
100
AcDbCircle
 10
834.0
 20
1326.5
 30
0.0
 40
1.0
100
AcDbArc
 50
0.0
 51
90.0
  0
ARC
  5
601
100
AcDbEntity
  8
LAY-1
  6
CONTINUOUS
 62
     7
100
AcDbCircle
 10
834.0
 20
1379.5
 30
0.0
 40
1.0
100
AcDbArc
 50
270.0
 51
0.0
  0
ARC
  5
602
100
AcDbEntity
  8
LAY-1
  6
CONTINUOUS
 62
     7
100
AcDbCircle
 10
852.0
 20
1374.388508
 30
0.0
 40
4.0
100
AcDbArc
 50
180.0
 51
260.537678
  0
ARC
  5
603
100
AcDbEntity
  8
LAY-1
  6
CONTINUOUS
 62
     7
100
AcDbCircle
 10
852.0
 20
1331.611492
 30
0.0
 40
4.0
100
AcDbArc
 50
99.462322
 51
180.0
  0
LINE
  5
604
100
AcDbEntity
  8
LAY-1
  6
CONTINUOUS
 62
     7
100
AcDbLine
 10
848.0
 20
1305.5
 30
0.0
 11
835.0
 21
1305.5
 31
0.0
  0
LINE
  5
605
100
AcDbEntity
  8
LAY-1
  6
CONTINUOUS
 62
     7
100
AcDbLine
 10
848.0
 20
1400.5
 30
0.0
 11
835.0
 21
1400.5
 31
0.0
  0
LINE
  5
606
100
AcDbEntity
  8
LAY-1
  6
CONTINUOUS
 62
     7
100
AcDbLine
 10
834.0
 20
1327.5
 30
0.0
 11
834.0
 21
1378.5
 31
0.0
  0
LINE
  5
607
100
AcDbEntity
  8
LAY-1
  6
CONTINUOUS
 62
     7
100
AcDbLine
 10
1154.0
 20
1370.0
 30
0.0
 11
1154.0
 21
1353.0
 31
0.0
  0
LINE
  5
608
100
AcDbEntity
  8
LAY-1
  6
CONTINUOUS
 62
     7
100
AcDbLine
 10
1149.451021
 20
1342.15
 30
0.0
 11
1154.0
 21
1337.601021
 31
0.0
  0
LINE
  5
609
100
AcDbEntity
  8
LAY-1
  6
CONTINUOUS
 62
     7
100
AcDbLine
 10
1149.451021
 20
1363.85
 30
0.0
 11
1149.451021
 21
1342.15
 31
0.0
  0
LINE
  5
60A
100
AcDbEntity
  8
LAY-1
  6
CONTINUOUS
 62
     7
100
AcDbLine
 10
1149.451021
 20
1363.85
 30
0.0
 11
1154.0
 21
1368.398979
 31
0.0
  0
LINE
  5
60B
100
AcDbEntity
  8
LAY-1
  6
CONTINUOUS
 62
     7
100
AcDbLine
 10
1154.0
 20
1353.0
 30
0.0
 11
1154.0
 21
1336.0
 31
0.0
  0
LINE
  5
60C
100
AcDbEntity
  8
LAY-1
  6
CONTINUOUS
 62
     7
100
AcDbLine
 10
1154.0
 20
1370.0
 30
0.0
 11
1156.657596
 21
1370.442933
 31
0.0
  0
LINE
  5
60D
100
AcDbEntity
  8
LAY-1
  6
CONTINUOUS
 62
     7
100
AcDbLine
 10
1154.0
 20
1336.0
 30
0.0
 11
1156.657596
 21
1335.557067
 31
0.0
  0
LINE
  5
60E
100
AcDbEntity
  8
LAY-1
  6
CONTINUOUS
 62
     7
100
AcDbLine
 10
1160.0
 20
1353.0
 30
0.0
 11
1160.0
 21
1400.5
 31
0.0
  0
LINE
  5
60F
100
AcDbEntity
  8
LAY-1
  6
CONTINUOUS
 62
     7
100
AcDbLine
 10
1160.0
 20
1305.5
 30
0.0
 11
1160.0
 21
1353.0
 31
0.0
  0
LINE
  5
610
100
AcDbEntity
  8
LAY-1
  6
CONTINUOUS
 62
     7
100
AcDbLine
 10
1173.0
 20
1353.0
 30
0.0
 11
1173.0
 21
1400.5
 31
0.0
  0
LINE
  5
611
100
AcDbEntity
  8
LAY-1
  6
CONTINUOUS
 62
     7
100
AcDbLine
 10
1173.0
 20
1305.5
 30
0.0
 11
1173.0
 21
1353.0
 31
0.0
  0
LINE
  5
612
100
AcDbEntity
  8
LAY-1
  6
CONTINUOUS
 62
     7
100
AcDbLine
 10
1174.0
 20
1353.0
 30
0.0
 11
1174.0
 21
1327.5
 31
0.0
  0
ARC
  5
613
100
AcDbEntity
  8
LAY-1
  6
CONTINUOUS
 62
     7
100
AcDbCircle
 10
1174.0
 20
1326.5
 30
0.0
 40
1.0
100
AcDbArc
 50
90.0
 51
180.0
  0
ARC
  5
614
100
AcDbEntity
  8
LAY-1
  6
CONTINUOUS
 62
     7
100
AcDbCircle
 10
1174.0
 20
1379.5
 30
0.0
 40
1.0
100
AcDbArc
 50
180.0
 51
270.0
  0
ARC
  5
615
100
AcDbEntity
  8
LAY-1
  6
CONTINUOUS
 62
     7
100
AcDbCircle
 10
1156.0
 20
1374.388508
 30
0.0
 40
4.0
100
AcDbArc
 50
279.462322
 51
0.0
  0
ARC
  5
616
100
AcDbEntity
  8
LAY-1
  6
CONTINUOUS
 62
     7
100
AcDbCircle
 10
1156.0
 20
1331.611492
 30
0.0
 40
4.0
100
AcDbArc
 50
0.0
 51
80.537678
  0
LINE
  5
617
100
AcDbEntity
  8
LAY-1
  6
CONTINUOUS
 62
     7
100
AcDbLine
 10
1160.0
 20
1305.5
 30
0.0
 11
1173.0
 21
1305.5
 31
0.0
  0
LINE
  5
618
100
AcDbEntity
  8
LAY-1
  6
CONTINUOUS
 62
     7
100
AcDbLine
 10
1174.0
 20
1327.5
 30
0.0
 11
1174.0
 21
1378.5
 31
0.0
  0
LINE
  5
619
100
AcDbEntity
  8
LAY-1
  6
CONTINUOUS
 62
     7
100
AcDbLine
 10
1149.451021
 20
1363.85
 30
0.0
 11
1142.0
 21
1363.85
 31
0.0
  0
LINE
  5
61A
100
AcDbEntity
  8
LAY-1
  6
CONTINUOUS
 62
     7
100
AcDbLine
 10
1149.451021
 20
1342.15
 30
0.0
 11
1142.0
 21
1342.15
 31
0.0
  0
LINE
  5
61B
100
AcDbEntity
  8
LAY-1
  6
CONTINUOUS
 62
     7
100
AcDbLine
 10
858.548979
 20
1363.85
 30
0.0
 11
866.0
 21
1363.85
 31
0.0
  0
LINE
  5
61C
100
AcDbEntity
  8
LAY-1
  6
CONTINUOUS
 62
     7
100
AcDbLine
 10
858.548979
 20
1342.15
 30
0.0
 11
866.0
 21
1342.15
 31
0.0
  0
LINE
  5
61D
100
AcDbEntity
  8
LAY-1
  6
CONTINUOUS
 62
     7
100
AcDbLine
 10
1142.0
 20
1386.0
 30
0.0
 11
1142.0
 21
1396.0
 31
0.0
  0
LINE
  5
61E
100
AcDbEntity
  8
LAY-1
  6
CONTINUOUS
 62
     7
100
AcDbLine
 10
1142.0
 20
1406.0
 30
0.0
 11
1142.0
 21
1396.0
 31
0.0
  0
LINE
  5
61F
100
AcDbEntity
  8
LAY-1
  6
CONTINUOUS
 62
     7
100
AcDbLine
 10
1144.5
 20
1408.5
 30
0.0
 11
1144.5
 21
1396.0
 31
0.0
  0
LINE
  5
620
100
AcDbEntity
  8
LAY-1
  6
CONTINUOUS
 62
     7
100
AcDbLine
 10
1144.5
 20
1383.5
 30
0.0
 11
1144.5
 21
1396.0
 31
0.0
  0
LINE
  5
621
100
AcDbEntity
  8
LAY-1
  6
CONTINUOUS
 62
     7
100
AcDbLine
 10
1153.0
 20
1384.0
 30
0.0
 11
1144.5
 21
1383.5
 31
0.0
  0
LINE
  5
622
100
AcDbEntity
  8
LAY-1
  6
CONTINUOUS
 62
     7
100
AcDbLine
 10
1144.5
 20
1386.0
 30
0.0
 11
1142.0
 21
1386.0
 31
0.0
  0
LINE
  5
623
100
AcDbEntity
  8
LAY-1
  6
CONTINUOUS
 62
     7
100
AcDbLine
 10
1153.0
 20
1408.0
 30
0.0
 11
1144.5
 21
1408.5
 31
0.0
  0
LINE
  5
624
100
AcDbEntity
  8
LAY-1
  6
CONTINUOUS
 62
     7
100
AcDbLine
 10
1144.5
 20
1406.0
 30
0.0
 11
1142.0
 21
1406.0
 31
0.0
  0
ARC
  5
625
100
AcDbEntity
  8
LAY-1
  6
CONTINUOUS
 62
     7
100
AcDbCircle
 10
1118.0
 20
1396.0
 30
0.0
 40
37.0
100
AcDbArc
 50
341.075356
 51
18.924644
  0
LINE
  5
626
100
AcDbEntity
  8
LAY-1
  6
CONTINUOUS
 62
     7
100
AcDbLine
 10
1153.0
 20
1408.0
 30
0.0
 11
1153.0
 21
1384.0
 31
0.0
  0
LINE
  5
627
100
AcDbEntity
  8
LAY-1
  6
CONTINUOUS
 62
     7
100
AcDbLine
 10
1162.0
 20
1435.0
 30
0.0
 11
1162.0
 21
1437.0
 31
0.0
  0
LINE
  5
628
100
AcDbEntity
  8
LAY-1
  6
CONTINUOUS
 62
     7
100
AcDbLine
 10
846.0
 20
1435.0
 30
0.0
 11
846.0
 21
1437.0
 31
0.0
  0
LINE
  5
629
100
AcDbEntity
  8
LAY-1
  6
CONTINUOUS
 62
     7
100
AcDbLine
 10
866.0
 20
1435.0
 30
0.0
 11
846.0
 21
1435.0
 31
0.0
  0
LINE
  5
62A
100
AcDbEntity
  8
LAY-1
  6
CONTINUOUS
 62
     7
100
AcDbLine
 10
866.0
 20
1386.0
 30
0.0
 11
866.0
 21
1396.0
 31
0.0
  0
LINE
  5
62B
100
AcDbEntity
  8
LAY-1
  6
CONTINUOUS
 62
     7
100
AcDbLine
 10
866.0
 20
1406.0
 30
0.0
 11
866.0
 21
1396.0
 31
0.0
  0
LINE
  5
62C
100
AcDbEntity
  8
LAY-1
  6
CONTINUOUS
 62
     7
100
AcDbLine
 10
863.5
 20
1408.5
 30
0.0
 11
863.5
 21
1396.0
 31
0.0
  0
LINE
  5
62D
100
AcDbEntity
  8
LAY-1
  6
CONTINUOUS
 62
     7
100
AcDbLine
 10
863.5
 20
1383.5
 30
0.0
 11
863.5
 21
1396.0
 31
0.0
  0
LINE
  5
62E
100
AcDbEntity
  8
LAY-1
  6
CONTINUOUS
 62
     7
100
AcDbLine
 10
855.0
 20
1384.0
 30
0.0
 11
863.5
 21
1383.5
 31
0.0
  0
LINE
  5
62F
100
AcDbEntity
  8
LAY-1
  6
CONTINUOUS
 62
     7
100
AcDbLine
 10
863.5
 20
1386.0
 30
0.0
 11
866.0
 21
1386.0
 31
0.0
  0
LINE
  5
630
100
AcDbEntity
  8
LAY-1
  6
CONTINUOUS
 62
     7
100
AcDbLine
 10
855.0
 20
1408.0
 30
0.0
 11
863.5
 21
1408.5
 31
0.0
  0
LINE
  5
631
100
AcDbEntity
  8
LAY-1
  6
CONTINUOUS
 62
     7
100
AcDbLine
 10
863.5
 20
1406.0
 30
0.0
 11
866.0
 21
1406.0
 31
0.0
  0
ARC
  5
632
100
AcDbEntity
  8
LAY-1
  6
CONTINUOUS
 62
     7
100
AcDbCircle
 10
890.0
 20
1396.0
 30
0.0
 40
37.0
100
AcDbArc
 50
161.075356
 51
198.924644
  0
LINE
  5
633
100
AcDbEntity
  8
LAY-1
  6
CONTINUOUS
 62
     7
100
AcDbLine
 10
855.0
 20
1408.0
 30
0.0
 11
855.0
 21
1384.0
 31
0.0
  0
LINE
  5
634
100
AcDbEntity
  8
LAY-1
  6
CONTINUOUS
 62
     7
100
AcDbLine
 10
846.0
 20
1437.0
 30
0.0
 11
900.709669
 21
1437.0
 31
0.0
  0
LINE
  5
635
100
AcDbEntity
  8
LAY-1
  6
CONTINUOUS
 62
     7
100
AcDbLine
 10
1142.0
 20
1435.0
 30
0.0
 11
1162.0
 21
1435.0
 31
0.0
  0
LINE
  5
636
100
AcDbEntity
  8
LAY-1
  6
CONTINUOUS
 62
     7
100
AcDbLine
 10
948.0
 20
1437.0
 30
0.0
 11
1162.0
 21
1437.0
 31
0.0
  0
LINE
  5
637
100
AcDbEntity
  8
LAY-1
  6
EXLTYPE3
 62
     1
100
AcDbLine
 10
1004.0
 20
1189.1
 30
0.0
 11
1004.0
 21
1455.0
 31
0.0
  0
LINE
  5
638
100
AcDbEntity
  8
LAY-1
  6
CONTINUOUS
 62
     7
100
AcDbLine
 10
1160.0
 20
1400.5
 30
0.0
 11
1173.0
 21
1400.5
 31
0.0
  0
LINE
  5
639
100
AcDbEntity
  8
LAY-2
  6
CONTINUOUS
 62
     4
100
AcDbLine
 10
1490.0
 20
106.6
 30
0.0
 11
1848.4
 21
106.6
 31
0.0
  0
LINE
  5
63A
100
AcDbEntity
  8
LAY-2
  6
CONTINUOUS
 62
     1
100
AcDbLine
 10
1490.0
 20
131.0
 30
0.0
 11
1848.4
 21
131.0
 31
0.0
  0
LINE
  5
63B
100
AcDbEntity
  8
LAY-2
  6
CONTINUOUS
 62
     4
100
AcDbLine
 10
1490.0
 20
215.0
 30
0.0
 11
1848.4
 21
215.0
 31
0.0
  0
LINE
  5
63C
100
AcDbEntity
  8
LAY-2
  6
CONTINUOUS
 62
     1
100
AcDbLine
 10
1490.0
 20
159.0
 30
0.0
 11
1848.4
 21
159.0
 31
0.0
  0
LINE
  5
63D
100
AcDbEntity
  8
LAY-2
  6
CONTINUOUS
 62
     1
100
AcDbLine
 10
1490.0
 20
187.0
 30
0.0
 11
1848.4
 21
187.0
 31
0.0
  0
LINE
  5
63E
100
AcDbEntity
  8
LAY-2
  6
CONTINUOUS
 62
     1
100
AcDbLine
 10
1550.0
 20
215.0
 30
0.0
 11
1550.0
 21
131.0
 31
0.0
  0
LINE
  5
63F
100
AcDbEntity
  8
LAY-2
  6
CONTINUOUS
 62
     4
100
AcDbLine
 10
1490.0
 20
82.2
 30
0.0
 11
1848.4
 21
82.2
 31
0.0
  0
LINE
  5
640
100
AcDbEntity
  8
LAY-2
  6
CONTINUOUS
 62
     4
100
AcDbLine
 10
1848.4
 20
82.2
 30
0.0
 11
1848.4
 21
215.0
 31
0.0
  0
LINE
  5
641
100
AcDbEntity
  8
LAY-2
  6
CONTINUOUS
 62
     4
100
AcDbLine
 10
1490.0
 20
82.2
 30
0.0
 11
1490.0
 21
215.0
 31
0.0
  0
HATCH
  5
642
100
AcDbEntity
  8
LAY-2
  6
CONTINUOUS
 62
     3
100
AcDbHatch
 10
0.0
 20
0.0
 30
0.0
210
0.0
220
0.0
230
1.0
  2
SOLID
 70
     1
 71
     1
 91
        1
 92
        1
 93
       16
 72
     1
 10
1742.2598993612442
 20
88.295857142856619
 11
1746.0463279326727
 21
88.295857142856619
 72
     1
 10
1746.0463279326727
 20
88.295857142856619
 11
1746.0463279326727
 21
85.852999999999469
 72
     1
 10
1746.0463279326727
 20
85.852999999999469
 11
1735.9084707898155
 21
85.852999999999469
 72
     1
 10
1735.9084707898155
 20
85.852999999999469
 11
1735.9084707898155
 21
88.295857142856619
 72
     1
 10
1735.9084707898155
 20
88.295857142856619
 11
1739.8170422183871
 21
88.295857142856619
 72
     1
 10
1739.8170422183871
 20
88.295857142856619
 11
1739.8170422183871
 21
95.380142857142374
 72
     1
 10
1739.8170422183871
 20
95.380142857142374
 11
1736.7634707898155
 21
95.380142857142374
 72
     1
 10
1736.7634707898155
 20
95.380142857142374
 11
1736.7634707898155
 21
97.822999999999524
 72
     1
 10
1736.7634707898155
 20
97.822999999999524
 11
1739.8170422183871
 21
97.822999999999524
 72
     1
 10
1739.8170422183871
 20
97.822999999999524
 11
1739.8170422183871
 21
102.95299999999952
 72
     1
 10
1739.8170422183871
 20
102.95299999999952
 11
1742.2598993612442
 21
102.95299999999952
 72
     1
 10
1742.2598993612442
 20
102.95299999999952
 11
1742.2598993612442
 21
97.822999999999524
 72
     1
 10
1742.2598993612442
 20
97.822999999999524
 11
1745.8020422183872
 21
97.822999999999524
 72
     1
 10
1745.8020422183872
 20
97.822999999999524
 11
1745.8020422183872
 21
95.380142857142374
 72
     1
 10
1745.8020422183872
 20
95.380142857142374
 11
1742.2598993612442
 21
95.380142857142374
 72
     1
 10
1742.2598993612442
 20
95.380142857142374
 11
1742.2598993612442
 21
88.295857142856619
 97
        0
 75
     0
 76
     1
 98
        1
 10
0.0
 20
0.0
  0
HATCH
  5
643
100
AcDbEntity
  8
LAY-2
  6
CONTINUOUS
 62
     3
100
AcDbHatch
 10
0.0
 20
0.0
 30
0.0
210
0.0
220
0.0
230
1.0
  2
SOLID
 70
     1
 71
     1
 91
        1
 92
        1
 93
       17
 72
     2
 10
1716.595301383868
 20
107.69412679235955
 40
21.985714285714362
 50
44.165469
 51
51.472792
 73
     0
 72
     1
 10
1730.2898993612441
 20
90.494428571428159
 11
1729.0530772454983
 21
92.636667315824297
 72
     2
 10
1716.595301383868
 20
107.69412679235955
 40
19.542857142857208
 50
309.602625
 51
331.307968
 73
     1
 72
     1
 10
1733.7385484552826
 20
98.311571428570971
 11
1729.6791850755299
 21
98.311571428570971
 72
     1
 10
1729.6791850755299
 20
98.311571428570971
 11
1729.6791850755299
 21
100.51014285714234
 72
     1
 10
1729.6791850755299
 20
100.51014285714234
 11
1732.3663279326727
 21
100.51014285714234
 72
     1
 10
1732.3663279326727
 20
100.51014285714234
 11
1732.3663279326727
 21
102.95299999999952
 72
     1
 10
1732.3663279326727
 20
102.95299999999952
 11
1734.5648993612442
 21
102.95299999999952
 72
     1
 10
1734.5648993612442
 20
102.95299999999952
 11
1734.5648993612442
 21
100.51014285714234
 72
     1
 10
1734.5648993612442
 20
100.51014285714234
 11
1737.3741850755298
 21
100.51014285714234
 72
     2
 10
1716.595301383868
 20
107.69412679235955
 40
21.985714285714362
 50
19.072051
 51
32.871988
 73
     0
 72
     1
 10
1735.0607801007031
 20
95.761074860386486
 11
1737.9848993612441
 21
92.937285714285224
 72
     1
 10
1737.9848993612441
 20
92.937285714285224
 11
1736.2572753845602
 21
91.209661737601266
 72
     1
 10
1736.2572753845602
 20
91.209661737601266
 11
1734.5648993612442
 21
92.843970266070215
 72
     1
 10
1734.5648993612442
 20
92.843970266070215
 11
1734.5648993612442
 21
85.852999999999469
 72
     1
 10
1734.5648993612442
 20
85.852999999999469
 11
1732.3663279326727
 21
85.852999999999469
 72
     1
 10
1732.3663279326727
 20
85.852999999999469
 11
1732.3663279326727
 21
92.375956070959433
 97
        0
 75
     0
 76
     1
 98
        1
 10
0.0
 20
0.0
  0
HATCH
  5
644
100
AcDbEntity
  8
LAY-2
  6
CONTINUOUS
 62
     3
100
AcDbHatch
 10
0.0
 20
0.0
 30
0.0
210
0.0
220
0.0
230
1.0
  2
SOLID
 70
     1
 71
     1
 91
        1
 92
        1
 93
       12
 72
     2
 10
1747.4904066385329
 20
74.721711279876956
 40
34.444285714285826
 50
150.903074
 51
156.790773
 73
     1
 72
     1
 10
1715.8336319693108
 20
88.295857142856448
 11
1723.3546247320739
 21
88.295857142856732
 72
     2
 10
1701.9904049675129
 20
82.152322830138189
 40
22.230000000000075
 50
16.043216
 51
21.362935
 73
     1
 72
     1
 10
1722.6930185901997
 20
90.25014285714235
 11
1725.037756504101
 21
90.25014285714235
 72
     2
 10
1701.9904049675129
 20
82.152322830138189
 40
24.428571428571512
 50
340.64078
 51
351.286733
 73
     0
 72
     1
 10
1726.1370422183868
 20
85.852999999999469
 11
1712.5791850755295
 21
85.852999999999469
 72
     2
 10
1747.4904066385329
 20
74.721711279876956
 40
36.64285714285726
 50
197.684652
 51
207.200855
 73
     0
 72
     1
 10
1714.8998993612438
 20
91.471571428570968
 11
1711.4798993612442
 21
91.471571428570968
 72
     1
 10
1711.4798993612442
 20
91.471571428570968
 11
1711.4798993612442
 21
93.914428571428118
 72
     1
 10
1711.4798993612442
 20
93.914428571428118
 11
1727.11418507553
 21
93.914428571428118
 72
     1
 10
1727.11418507553
 20
93.914428571428118
 11
1727.11418507553
 21
91.471571428570968
 72
     1
 10
1727.11418507553
 20
91.471571428570968
 11
1717.3930478945081
 21
91.471571428570968
 97
        0
 75
     0
 76
     1
 98
        1
 10
0.0
 20
0.0
  0
HATCH
  5
645
100
AcDbEntity
  8
LAY-2
  6
CONTINUOUS
 62
     3
100
AcDbHatch
 10
0.0
 20
0.0
 30
0.0
210
0.0
220
0.0
230
1.0
  2
SOLID
 70
     1
 71
     1
 91
        1
 92
        1
 93
       10
 72
     2
 10
1747.6369176962355
 20
127.59623065215922
 40
39.085714285714417
 50
129.545698
 51
136.474664
 73
     0
 72
     1
 10
1719.2970422183878
 20
100.67886601286767
 11
1719.2970422183878
 21
102.95299999999952
 72
     1
 10
1719.2970422183878
 20
102.95299999999952
 11
1720.5184707898159
 21
102.95299999999952
 72
     2
 10
1747.6369176962355
 20
127.59623065215922
 40
36.64285714285726
 50
222.262231
 51
237.763996
 73
     1
 72
     1
 10
1728.0913279326728
 20
96.601571428570992
 11
1726.5074815306825
 21
94.714016788881622
 72
     2
 10
1747.6369176962355
 20
127.59623065215922
 40
39.085714285714417
 50
122.723968
 51
128.230009
 73
     0
 72
     1
 10
1723.4498993612442
 20
96.893116717457161
 11
1723.4498993612442
 21
95.013714285713775
 72
     1
 10
1723.4498993612442
 20
95.013714285713775
 11
1719.2970422183878
 21
95.013714285713775
 72
     1
 10
1719.2970422183878
 20
95.013714285713775
 11
1719.2970422183878
 21
97.456571428570953
 72
     1
 10
1719.2970422183878
 20
97.456571428570953
 11
1722.751299297038
 21
97.456571428570953
 97
        0
 75
     0
 76
     1
 98
        1
 10
0.0
 20
0.0
  0
HATCH
  5
646
100
AcDbEntity
  8
LAY-2
  6
CONTINUOUS
 62
     3
100
AcDbHatch
 10
0.0
 20
0.0
 30
0.0
210
0.0
220
0.0
230
1.0
  2
SOLID
 70
     1
 71
     1
 91
        1
 92
        1
 93
       10
 72
     2
 10
1690.9571667405387
 20
127.59623065215922
 40
39.085714285714417
 50
51.769991
 51
57.276032
 73
     0
 72
     1
 10
1712.0866029060915
 20
94.714016788881565
 11
1710.5027565041012
 21
96.601571428570935
 72
     2
 10
1690.9571667405387
 20
127.59623065215922
 40
36.64285714285726
 50
302.236004
 51
317.737769
 73
     1
 72
     1
 10
1718.0756136469583
 20
102.95299999999952
 11
1719.2970422183878
 21
102.95299999999952
 72
     1
 10
1719.2970422183878
 20
102.95299999999952
 11
1719.2970422183878
 21
100.67886601286912
 72
     2
 10
1690.9571667405387
 20
127.59623065215922
 40
39.085714285714417
 50
43.525336
 51
50.454302
 73
     0
 72
     1
 10
1715.842785139736
 20
97.456571428570953
 11
1719.2970422183878
 21
97.456571428570953
 72
     1
 10
1719.2970422183878
 20
97.456571428570953
 11
1719.2970422183878
 21
95.013714285713775
 72
     1
 10
1719.2970422183878
 20
95.013714285713775
 11
1715.14418507553
 21
95.013714285713775
 72
     1
 10
1715.14418507553
 20
95.013714285713775
 11
1715.14418507553
 21
96.893116717457133
 97
        0
 75
     0
 76
     1
 98
        1
 10
0.0
 20
0.0
  0
HATCH
  5
647
100
AcDbEntity
  8
LAY-2
  6
CONTINUOUS
 62
     3
100
AcDbHatch
 10
0.0
 20
0.0
 30
0.0
210
0.0
220
0.0
230
1.0
  2
SOLID
 70
     1
 71
     1
 91
        1
 92
        1
 93
       18
 72
     2
 10
1672.9780232092066
 20
91.97502078970362
 40
34.200000000000109
 50
14.02954
 51
18.723021
 73
     1
 72
     1
 10
1705.3682064822035
 20
102.95299999999952
 11
1707.9377565041011
 21
102.95299999999952
 72
     2
 10
1672.9780232092066
 20
91.97502078970362
 40
36.64285714285726
 50
342.566782
 51
346.922981
 73
     0
 72
     1
 10
1708.6706136469584
 20
100.2658571428567
 11
1709.6477565041012
 21
100.2658571428567
 72
     1
 10
1709.6477565041012
 20
100.2658571428567
 11
1709.6477565041012
 21
97.822999999999496
 72
     1
 10
1709.6477565041012
 20
97.822999999999496
 11
1705.0807208484516
 21
97.822999999999524
 72
     2
 10
1730.4120422183869
 20
101.85371428571383
 40
25.650000000000087
 50
189.041096
 51
204.65198
 73
     1
 72
     2
 10
1712.2086709975376
 20
93.499575732096503
 40
5.6211619214424813
 50
204.65198
 51
242.897449
 73
     1
 72
     1
 10
1709.6477565041012
 20
88.495659435396249
 11
1709.6477565041012
 21
85.852999999999469
 72
     2
 10
1712.2086709975376
 20
93.499575732096503
 40
8.0640190642996306
 50
108.516212
 51
155.34802
 73
     0
 72
     2
 10
1730.4120422183869
 20
101.85371428571383
 40
28.09285714285723
 50
155.34802
 51
171.750831
 73
     0
 72
     1
 10
1702.6098486934879
 20
97.822999999999524
 11
1693.2806136469585
 21
97.822999999999496
 72
     1
 10
1693.2806136469585
 20
97.822999999999496
 11
1693.2806136469585
 21
100.2658571428567
 72
     1
 10
1693.2806136469585
 20
100.2658571428567
 11
1702.3575104278921
 21
100.2658571428567
 72
     1
 10
1702.3575104278921
 20
100.2658571428567
 11
1702.2636733315865
 21
102.95299999999952
 72
     1
 10
1702.2636733315865
 20
102.95299999999952
 11
1704.7080195040878
 21
102.95299999999952
 72
     1
 10
1704.7080195040878
 20
102.95299999999952
 11
1704.8018566003934
 21
100.2658571428567
 72
     1
 10
1704.8018566003934
 20
100.2658571428567
 11
1706.1578669786586
 21
100.2658571428567
 97
        0
 75
     0
 76
     1
 98
        1
 10
0.0
 20
0.0
  0
HATCH
  5
648
100
AcDbEntity
  8
LAY-2
  6
CONTINUOUS
 62
     3
100
AcDbHatch
 10
0.0
 20
0.0
 30
0.0
210
0.0
220
0.0
230
1.0
  2
SOLID
 70
     1
 71
     1
 91
        1
 92
        1
 93
       12
 72
     2
 10
1685.591668736984
 20
208.48646287224545
 40
119.70000000000039
 50
276.500664
 51
278.269357
 73
     1
 72
     1
 10
1702.8077565041012
 20
90.031001529194498
 11
1702.8077565041012
 21
87.562999999999533
 72
     2
 10
1685.591668736984
 20
208.48646287224545
 40
122.14285714285755
 50
81.897153
 51
86.39082
 73
     0
 72
     1
 10
1693.2806136469585
 20
86.585857142856639
 11
1693.2806136469585
 21
89.033668320709353
 72
     2
 10
1685.591668736984
 20
208.48646287224545
 40
119.70000000000039
 50
273.682937
 51
275.325087
 73
     1
 72
     1
 10
1696.7006136469583
 20
89.303069133909275
 11
1696.7006136469583
 21
93.181571428570891
 72
     1
 10
1696.7006136469583
 20
93.181571428570891
 11
1693.2806136469585
 21
93.181571428570891
 72
     1
 10
1693.2806136469585
 20
93.181571428570891
 11
1693.2806136469585
 21
95.624428571428041
 72
     1
 10
1693.2806136469585
 20
95.624428571428041
 11
1702.0748993612442
 21
95.624428571428041
 72
     1
 10
1702.0748993612442
 20
95.624428571428041
 11
1702.0748993612442
 21
93.181571428570891
 72
     1
 10
1702.0748993612442
 20
93.181571428570891
 11
1699.1434707898156
 21
93.181571428570891
 72
     1
 10
1699.1434707898156
 20
93.181571428570891
 11
1699.1434707898154
 21
89.556068686734676
 97
        0
 75
     0
 76
     1
 98
        1
 10
0.0
 20
0.0
  0
HATCH
  5
649
100
AcDbEntity
  8
LAY-2
  6
CONTINUOUS
 62
     3
100
AcDbHatch
 10
0.0
 20
0.0
 30
0.0
210
0.0
220
0.0
230
1.0
  2
SOLID
 70
     1
 71
     1
 91
        1
 92
        1
 93
       30
 72
     2
 10
1663.5126658145275
 20
106.85873911757687
 40
26.749285714285801
 50
37.940537
 51
46.713808
 73
     0
 72
     1
 10
1681.8531249341049
 20
87.386917284281424
 11
1680.2113279326725
 21
89.028714285713875
 72
     2
 10
1663.5126658145275
 20
106.85873911757687
 40
24.428571428571523
 50
313.123325
 51
325.95222
 73
     1
 72
     1
 10
1683.7534707898153
 20
93.181571428570976
 11
1680.822042218387
 21
93.181571428570976
 72
     1
 10
1680.822042218387
 20
93.181571428570976
 11
1680.822042218387
 21
95.624428571428098
 72
     1
 10
1680.822042218387
 20
95.624428571428098
 11
1684.6084707898156
 21
95.624428571428098
 72
     1
 10
1684.6084707898156
 20
95.624428571428098
 11
1684.6084707898156
 21
98.067285714285219
 72
     1
 10
1684.6084707898156
 20
98.067285714285219
 11
1683.3905136068736
 21
98.067285714285219
 72
     2
 10
1657.2695363552207
 20
103.23442071865094
 40
26.627142857142957
 50
11.189535
 51
14.746058
 73
     0
 72
     1
 10
1683.0196730753189
 20
96.45686986078519
 11
1680.9441850755295
 21
97.212285714285201
 72
     2
 10
1657.2695363552207
 20
103.23442071865094
 40
24.428571428571523
 50
345.728313
 51
357.620387
 73
     1
 72
     1
 10
1681.677042218387
 20
102.22014285714965
 11
1683.8598927052053
 21
101.83524742147102
 72
     2
 10
1657.2695363552207
 20
103.23442071865094
 40
26.627142857142957
 50
3.012102
 51
6.401006
 73
     0
 72
     1
 10
1683.7306846113183
 20
100.2658571428567
 11
1684.6084707898156
 21
100.2658571428567
 72
     1
 10
1684.6084707898156
 20
100.2658571428567
 11
1684.6084707898156
 21
102.95299999999952
 72
     1
 10
1684.6084707898156
 20
102.95299999999952
 11
1687.0513279326726
 21
102.95299999999952
 72
     1
 10
1687.0513279326726
 20
102.95299999999952
 11
1687.0513279326726
 21
100.2658571428567
 72
     1
 10
1687.0513279326726
 20
100.2658571428567
 11
1690.3491850755299
 21
100.2658571428567
 72
     1
 10
1690.3491850755299
 20
100.2658571428567
 11
1690.3491850755299
 21
98.067285714285219
 72
     1
 10
1690.3491850755299
 20
98.067285714285219
 11
1687.0513279326726
 21
98.067285714285219
 72
     1
 10
1687.0513279326726
 20
98.067285714285219
 11
1687.0513279326726
 21
95.624428571428098
 72
     1
 10
1687.0513279326726
 20
95.624428571428098
 11
1690.8377565041012
 21
95.624428571428098
 72
     1
 10
1690.8377565041012
 20
95.624428571428098
 11
1690.8377565041012
 21
93.181571428570976
 72
     1
 10
1690.8377565041012
 20
93.181571428570976
 11
1687.9063279326724
 21
93.181571428570976
 72
     2
 10
1708.1471329079602
 20
106.85873911757685
 40
24.428571428571523
 50
214.04778
 51
226.876675
 73
     1
 72
     1
 10
1691.448470789815
 20
89.028714285713875
 11
1689.8066737883826
 21
87.386917284281424
 72
     2
 10
1708.1471329079602
 20
106.85873911757685
 40
26.749285714285801
 50
133.286192
 51
142.059463
 73
     0
 72
     1
 10
1687.0513279326726
 20
90.412119444552047
 11
1687.0513279326726
 21
85.852999999999469
 72
     1
 10
1687.0513279326726
 20
85.852999999999469
 11
1684.6084707898156
 21
85.852999999999469
 72
     1
 10
1684.6084707898156
 20
85.852999999999469
 11
1684.6084707898156
 21
90.412119444552729
 97
        0
 75
     0
 76
     1
 98
        1
 10
0.0
 20
0.0
  0
HATCH
  5
64A
100
AcDbEntity
  8
LAY-2
  6
CONTINUOUS
 62
     3
100
AcDbHatch
 10
0.0
 20
0.0
 30
0.0
210
0.0
220
0.0
230
1.0
  2
SOLID
 70
     1
 71
     1
 91
        1
 92
        1
 93
       19
 72
     2
 10
1653.4565330906771
 20
103.59836919019077
 40
26.627142857142946
 50
27.683433
 51
32.280505
 73
     0
 72
     1
 10
1675.9682805872385
 20
89.377751714646195
 11
1674.2263279326726
 21
90.738714285713769
 72
     2
 10
1653.4565330906771
 20
103.59836919019077
 40
24.428571428571512
 50
328.236207
 51
344.845745
 73
     1
 72
     1
 10
1677.0356136469579
 20
97.21228571428523
 11
1674.8370422183868
 21
97.21228571428523
 72
     1
 10
1674.8370422183868
 20
97.21228571428523
 11
1674.8370422183868
 21
99.65514285714238
 72
     1
 10
1674.8370422183868
 20
99.65514285714238
 11
1677.0356136469584
 21
99.65514285714238
 72
     1
 10
1677.0356136469584
 20
99.65514285714238
 11
1677.0356136469584
 21
102.95299999999952
 72
     1
 10
1677.0356136469584
 20
102.95299999999952
 11
1679.4784707898154
 21
102.95299999999952
 72
     1
 10
1679.4784707898154
 20
102.95299999999952
 11
1679.4784707898154
 21
99.65514285714238
 72
     1
 10
1679.4784707898154
 20
99.65514285714238
 11
1680.5777565041012
 21
99.65514285714238
 72
     1
 10
1680.5777565041012
 20
99.65514285714238
 11
1680.5777565041012
 21
97.21228571428523
 72
     1
 10
1680.5777565041012
 20
97.21228571428523
 11
1679.4784707898154
 21
97.21228571428523
 72
     1
 10
1679.4784707898154
 20
97.21228571428523
 11
1680.822042218387
 21
95.293466856654987
 72
     1
 10
1680.822042218387
 20
95.293466856654987
 11
1680.822042218387
 21
93.806287291012296
 72
     1
 10
1680.822042218387
 20
93.806287291012296
 11
1680.0891850755297
 21
92.93290215815378
 72
     1
 10
1680.0891850755297
 20
92.93290215815378
 11
1679.4784707898154
 21
93.805092547985424
 72
     1
 10
1679.4784707898154
 20
93.805092547985424
 11
1679.4784707898154
 21
85.852999999999469
 72
     1
 10
1679.4784707898154
 20
85.852999999999469
 11
1677.0356136469584
 21
85.852999999999469
 72
     1
 10
1677.0356136469584
 20
85.852999999999469
 11
1677.0356136469584
 21
91.227771110263745
 97
        0
 75
     0
 76
     1
 98
        1
 10
0.0
 20
0.0
  0
HATCH
  5
64B
100
AcDbEntity
  8
LAY-2
  6
CONTINUOUS
 62
     3
100
AcDbHatch
 10
0.0
 20
0.0
 30
0.0
210
0.0
220
0.0
230
1.0
  2
SOLID
 70
     1
 71
     1
 91
        1
 92
        1
 93
        8
 72
     2
 10
1663.7167999452583
 20
93.034999999999144
 40
4.7880000000000384
 50
270.0
 51
330.0
 73
     1
 72
     2
 10
1661.347354440504
 20
94.402999999999167
 40
7.5240000000000364
 50
330.0
 51
30.0
 73
     1
 72
     2
 10
1663.7167999452583
 20
95.770999999999162
 40
4.7880000000000367
 50
30.0
 51
90.0
 73
     1
 72
     1
 10
1663.7167999452597
 20
100.5589999999992
 11
1663.7167999452597
 21
103.29499999999973
 72
     2
 10
1663.7167999452581
 20
95.770999999999731
 40
7.5240000000000231
 50
270.0
 51
330.0
 73
     0
 72
     2
 10
1661.3473544405044
 20
94.402999999999622
 40
10.260000000000046
 50
330.0
 51
30.0
 73
     0
 72
     2
 10
1663.7167999452586
 20
93.03499999999886
 40
7.5240000000000151
 50
30.0
 51
90.0
 73
     0
 72
     1
 10
1663.7167999452597
 20
85.51099999999883
 11
1663.7167999452597
 21
88.246999999999105
 97
        0
 75
     0
 76
     1
 98
        1
 10
0.0
 20
0.0
  0
HATCH
  5
64C
100
AcDbEntity
  8
LAY-2
  6
CONTINUOUS
 62
     3
100
AcDbHatch
 10
0.0
 20
0.0
 30
0.0
210
0.0
220
0.0
230
1.0
  2
SOLID
 70
     1
 71
     1
 91
        1
 92
        1
 93
        8
 72
     2
 10
1663.7167999452586
 20
93.03499999999886
 40
7.5240000000000151
 50
90.0
 51
150.0
 73
     0
 72
     2
 10
1666.0862454500123
 20
94.402999999999054
 40
10.260000000000057
 50
150.0
 51
210.0
 73
     0
 72
     2
 10
1663.7167999452581
 20
95.770999999999731
 40
7.5240000000000231
 50
210.0
 51
270.0
 73
     0
 72
     1
 10
1663.7167999452597
 20
103.29499999999973
 11
1663.7167999452597
 21
100.5589999999992
 72
     2
 10
1663.7167999452583
 20
95.770999999999162
 40
4.7880000000000367
 50
90.0
 51
150.0
 73
     1
 72
     2
 10
1666.0862454500127
 20
94.402999999999167
 40
7.52400000000004
 50
150.0
 51
210.0
 73
     1
 72
     2
 10
1663.7167999452583
 20
93.034999999999144
 40
4.7880000000000384
 50
210.0
 51
270.0
 73
     1
 72
     1
 10
1663.7167999452597
 20
88.246999999999105
 11
1663.7167999452597
 21
85.51099999999883
 97
        0
 75
     0
 76
     1
 98
        1
 10
0.0
 20
0.0
  0
HATCH
  5
64D
100
AcDbEntity
  8
LAY-2
  6
CONTINUOUS
 62
     3
100
AcDbHatch
 10
0.0
 20
0.0
 30
0.0
210
0.0
220
0.0
230
1.0
  2
SOLID
 70
     1
 71
     1
 91
        1
 92
        1
 93
        4
 72
     1
 10
1653.1147999452585
 20
91.324999999999136
 11
1650.3787999452584
 21
91.324999999999136
 72
     1
 10
1650.3787999452584
 20
91.324999999999136
 11
1650.3787999452584
 21
94.060999999999126
 72
     1
 10
1650.3787999452584
 20
94.060999999999126
 11
1653.1147999452585
 21
94.060999999999126
 72
     1
 10
1653.1147999452585
 20
94.060999999999126
 11
1653.1147999452585
 21
91.324999999998965
 97
        0
 75
     0
 76
     1
 98
        1
 10
0.0
 20
0.0
  0
HATCH
  5
64E
100
AcDbEntity
  8
LAY-2
  6
CONTINUOUS
 62
     3
100
AcDbHatch
 10
0.0
 20
0.0
 30
0.0
210
0.0
220
0.0
230
1.0
  2
SOLID
 70
     1
 71
     1
 91
        1
 92
        1
 93
       16
 72
     1
 10
1640.1187999452582
 20
100.21699999999919
 11
1636.3567999452582
 21
100.21699999999919
 72
     1
 10
1636.3567999452582
 20
100.21699999999919
 11
1635.6727999452582
 21
96.45499999999916
 72
     1
 10
1635.6727999452582
 20
96.45499999999916
 11
1633.6207999452583
 21
96.45499999999916
 72
     1
 10
1633.6207999452583
 20
96.45499999999916
 11
1633.6207999452583
 21
102.95299999999918
 72
     1
 10
1633.6207999452583
 20
102.95299999999918
 11
1649.3527999452585
 21
102.95299999999918
 72
     1
 10
1649.3527999452585
 20
102.95299999999918
 11
1649.3527999452585
 21
96.45499999999916
 72
     1
 10
1649.3527999452585
 20
96.45499999999916
 11
1647.3007999452584
 21
96.45499999999916
 72
     1
 10
1647.3007999452584
 20
96.45499999999916
 11
1646.6167999452584
 21
100.21699999999919
 72
     1
 10
1646.6167999452584
 20
100.21699999999919
 11
1642.8547999452583
 21
100.21699999999919
 72
     1
 10
1642.8547999452583
 20
100.21699999999919
 11
1642.8547999452585
 21
88.588999999999146
 72
     1
 10
1642.8547999452585
 20
88.588999999999146
 11
1645.5907999452584
 21
87.90499999999912
 72
     1
 10
1645.5907999452584
 20
87.90499999999912
 11
1645.5907999452584
 21
85.852999999999099
 72
     1
 10
1645.5907999452584
 20
85.852999999999099
 11
1637.3827999452583
 21
85.852999999999099
 72
     1
 10
1637.3827999452583
 20
85.852999999999099
 11
1637.3827999452583
 21
87.90499999999912
 72
     1
 10
1637.3827999452583
 20
87.90499999999912
 11
1640.1187999452582
 21
88.588999999999146
 72
     1
 10
1640.1187999452582
 20
88.588999999999146
 11
1640.1187999452582
 21
100.21699999999919
 97
        0
 75
     0
 76
     1
 98
        1
 10
0.0
 20
0.0
  0
HATCH
  5
64F
100
AcDbEntity
  8
LAY-2
  6
CONTINUOUS
 62
     3
100
AcDbHatch
 10
0.0
 20
0.0
 30
0.0
210
0.0
220
0.0
230
1.0
  2
SOLID
 70
     1
 71
     1
 91
        1
 92
        1
 93
        4
 72
     1
 10
1629.8587999452584
 20
91.324999999999136
 11
1629.8587999452584
 21
94.060999999999297
 72
     1
 10
1629.8587999452584
 20
94.060999999999297
 11
1632.5947999452583
 21
94.060999999999126
 72
     1
 10
1632.5947999452583
 20
94.060999999999126
 11
1632.5947999452583
 21
91.324999999999136
 72
     1
 10
1632.5947999452583
 20
91.324999999999136
 11
1629.8587999452584
 21
91.324999999999136
 97
        0
 75
     0
 76
     1
 98
        1
 10
0.0
 20
0.0
  0
HATCH
  5
650
100
AcDbEntity
  8
LAY-2
  6
CONTINUOUS
 62
     3
100
AcDbHatch
 10
0.0
 20
0.0
 30
0.0
210
0.0
220
0.0
230
1.0
  2
SOLID
 70
     1
 71
     1
 91
        1
 92
        1
 93
       12
 72
     1
 10
1626.7807999452584
 20
102.95299999999918
 11
1626.7807999452584
 21
100.90099999999919
 72
     1
 10
1626.7807999452584
 20
100.90099999999919
 11
1624.0447999452585
 21
100.21699999999919
 72
     1
 10
1624.0447999452585
 20
100.21699999999919
 11
1624.0447999452585
 21
88.588999999999146
 72
     1
 10
1624.0447999452585
 20
88.588999999999146
 11
1626.7807999452584
 21
87.90499999999912
 72
     1
 10
1626.7807999452584
 20
87.90499999999912
 11
1626.7807999452584
 21
85.852999999999099
 72
     1
 10
1626.7807999452584
 20
85.852999999999099
 11
1618.5727999452583
 21
85.852999999999099
 72
     1
 10
1618.5727999452583
 20
85.852999999999099
 11
1618.5727999452583
 21
87.90499999999912
 72
     1
 10
1618.5727999452583
 20
87.90499999999912
 11
1621.3087999452582
 21
88.588999999999146
 72
     1
 10
1621.3087999452582
 20
88.588999999999146
 11
1621.3087999452582
 21
100.21699999999919
 72
     1
 10
1621.3087999452582
 20
100.21699999999919
 11
1618.5727999452583
 21
100.90099999999919
 72
     1
 10
1618.5727999452583
 20
100.90099999999919
 11
1618.5727999452583
 21
102.95299999999918
 72
     1
 10
1618.5727999452583
 20
102.95299999999918
 11
1626.7807999452584
 21
102.95299999999918
 97
        0
 75
     0
 76
     1
 98
        1
 10
0.0
 20
0.0
  0
HATCH
  5
651
100
AcDbEntity
  8
LAY-2
  6
CONTINUOUS
 62
     3
100
AcDbHatch
 10
0.0
 20
0.0
 30
0.0
210
0.0
220
0.0
230
1.0
  2
SOLID
 70
     1
 71
     1
 91
        1
 92
        1
 93
       15
 72
     2
 10
1599.9597166716806
 20
94.402999999999508
 40
7.5931593159316035
 50
124.301153
 51
180.0
 73
     0
 72
     1
 10
1592.3665573557489
 20
94.402999999999963
 11
1595.2317398566249
 21
94.402999999999963
 72
     2
 10
1602.6196786505043
 20
94.402999999999565
 40
7.3879387938794103
 50
180.0
 51
199.464384
 73
     1
 72
     2
 10
1595.5344128641284
 20
95.222535944498389
 40
3.2835283528353623
 50
272.086657
 51
294.619977
 73
     1
 72
     2
 10
1596.4748514405908
 20
93.170330723976292
 40
1.026102610261032
 50
294.619977
 51
0.0
 73
     1
 72
     1
 10
1597.500954050852
 20
93.170330723976292
 11
1597.500954050852
 21
94.402999999999963
 72
     1
 10
1597.500954050852
 20
94.402999999999963
 11
1599.9636003154783
 21
94.402999999999963
 72
     1
 10
1599.9636003154783
 20
94.402999999999963
 11
1599.9636003154783
 21
93.168153417583483
 72
     2
 10
1600.9897029257395
 20
93.168153417583483
 40
1.02610261026099
 50
180.0
 51
245.380023
 73
     1
 72
     2
 10
1601.9301415022019
 20
95.220358638105978
 40
3.2835283528357233
 50
245.380023
 51
267.913343
 73
     1
 72
     1
 10
1601.8105850139482
 20
91.939007591662971
 11
1601.8105850139482
 21
91.323346025506424
 72
     1
 10
1601.8105850139482
 20
91.323346025506424
 11
1595.9042210324792
 21
91.323346025506396
 72
     2
 10
1602.6196786505047
 20
94.402999999999565
 40
7.3879387938794006
 50
204.635803
 51
268.19864
 73
     1
 72
     1
 10
1602.3874426442128
 20
87.018712217180564
 11
1602.3874426442128
 21
85.991148856013069
 72
     2
 10
1602.6196786505043
 20
98.302189918991843
 40
12.313231323132369
 50
91.080702
 51
124.301153
 73
     0
 97
        0
 75
     0
 76
     1
 98
        1
 10
0.0
 20
0.0
  0
HATCH
  5
652
100
AcDbEntity
  8
LAY-2
  6
CONTINUOUS
 62
     3
100
AcDbHatch
 10
0.0
 20
0.0
 30
0.0
210
0.0
220
0.0
230
1.0
  2
SOLID
 70
     1
 71
     1
 91
        1
 92
        1
 93
       24
 72
     2
 10
1601.1947742783016
 20
95.4291026102606
 40
1.0261026102610411
 50
90.0
 51
157.380135
 73
     1
 72
     2
 10
1603.6574205429279
 20
94.402999999999651
 40
3.6939693969397109
 50
157.380135
 51
180.0
 73
     1
 72
     1
 10
1599.9634511459883
 20
94.402999999999963
 11
1597.500954050852
 21
94.402999999999963
 72
     1
 10
1597.500954050852
 20
94.402999999999963
 11
1597.500954050852
 21
99.730316218793035
 72
     2
 10
1602.6196786505043
 20
94.402999999999565
 40
7.3879387938794103
 50
133.856042
 51
180.0
 73
     1
 72
     1
 10
1595.2317398566249
 20
94.402999999999963
 11
1592.3665573557489
 21
94.402999999999963
 72
     2
 10
1599.9597166716806
 20
94.402999999999508
 40
7.5931593159316035
 50
180.0
 51
235.698847
 73
     0
 72
     2
 10
1602.6196786505047
 20
90.503810081007202
 40
12.313231323132396
 50
235.698847
 51
245.436008
 73
     0
 72
     1
 10
1597.500954050852
 20
101.70266377635835
 11
1597.500954050852
 21
102.8178725668227
 72
     2
 10
1596.4748514405908
 20
102.8178725668227
 40
1.0261026102610264
 50
0.0
 51
65.380023
 73
     1
 72
     2
 10
1595.5344128641284
 20
100.76566734630063
 40
3.2835283528352881
 50
65.380023
 51
87.913343
 73
     1
 72
     1
 10
1595.6539693523819
 20
104.04701839274321
 11
1595.6539693523819
 21
104.66267995889979
 72
     1
 10
1595.6539693523819
 20
104.66267995889979
 11
1601.8105850139482
 21
104.66267995889979
 72
     1
 10
1601.8105850139482
 20
104.66267995889979
 11
1601.8105850139482
 21
104.04701839274321
 72
     2
 10
1601.9301415022019
 20
100.76566734630063
 40
3.2835283528353032
 50
92.086657
 51
114.619977
 73
     1
 72
     2
 10
1600.9897029257395
 20
102.81787256682276
 40
1.0261026102610411
 50
114.619977
 51
180.0
 73
     1
 72
     1
 10
1599.9636003154783
 20
102.8178725668227
 11
1599.9636003154783
 21
102.52715876160255
 72
     2
 10
1602.6196786505043
 20
90.503810081007202
 40
12.313231323132365
 50
257.542857
 51
268.919298
 73
     0
 72
     1
 10
1602.3874426442128
 20
102.814851143986
 11
1602.3874426442128
 21
101.78728778281857
 72
     2
 10
1602.6196786505047
 20
94.402999999999565
 40
7.3879387938794103
 50
91.80136
 51
111.070443
 73
     1
 72
     1
 10
1599.9636003154783
 20
101.29697472437388
 11
1599.9636003154783
 21
97.48130783078264
 72
     1
 10
1599.9636003154783
 20
97.48130783078264
 11
1602.3874426442128
 21
97.48130783078264
 72
     1
 10
1602.3874426442128
 20
97.48130783078264
 11
1602.3874426442128
 21
96.455205220521577
 72
     1
 10
1602.3874426442128
 20
96.455205220521577
 11
1601.1947742783016
 21
96.455205220521577
 97
        0
 75
     0
 76
     1
 98
        1
 10
0.0
 20
0.0
  0
HATCH
  5
653
100
AcDbEntity
  8
LAY-2
  6
CONTINUOUS
 62
     3
100
AcDbHatch
 10
0.0
 20
0.0
 30
0.0
210
0.0
220
0.0
230
1.0
  2
SOLID
 70
     1
 71
     1
 91
        1
 92
        1
 93
       14
 72
     2
 10
1602.6196786505043
 20
94.402999999999565
 40
7.3879387938794245
 50
0.0
 51
9.281799
 73
     1
 72
     2
 10
1608.8982193297077
 20
95.4291026102606
 40
1.02610261026102
 50
9.281799
 51
90.0
 73
     1
 72
     1
 10
1608.8982193297077
 20
96.455205220521577
 11
1606.7240890915486
 21
96.455205220521577
 72
     1
 10
1606.7240890915486
 20
96.455205220521577
 11
1606.7240890915486
 21
94.402999999999963
 72
     1
 10
1606.7240890915486
 20
94.402999999999963
 11
1604.2614428269221
 21
94.402999999999963
 72
     1
 10
1604.2614428269221
 20
94.402999999999963
 11
1604.2614428269221
 21
96.455205220521577
 72
     1
 10
1604.2614428269221
 20
96.455205220521577
 11
1602.3874426442128
 21
96.455205220521577
 72
     1
 10
1602.3874426442128
 20
96.455205220521577
 11
1602.3874426442128
 21
97.48130783078264
 72
     1
 10
1602.3874426442128
 20
97.48130783078264
 11
1609.3357534357528
 21
97.481307830782555
 72
     2
 10
1602.6196786505047
 20
94.402999999999565
 40
7.3879387938794103
 50
24.624318
 51
91.80136
 73
     1
 72
     1
 10
1602.3874426442128
 20
101.78728778281857
 11
1602.3874426442128
 21
102.814851143986
 72
     2
 10
1602.6196786505043
 20
90.503810081007202
 40
12.313231323132365
 50
268.919298
 51
304.301153
 73
     0
 72
     2
 10
1605.2796406293285
 20
94.402999999999508
 40
7.5931593159316115
 50
304.301153
 51
0.0
 73
     0
 72
     1
 10
1612.8727999452601
 20
94.402999999999963
 11
1610.0076174443839
 21
94.402999999999963
 97
        0
 75
     0
 76
     1
 98
        1
 10
0.0
 20
0.0
  0
HATCH
  5
654
100
AcDbEntity
  8
LAY-2
  6
CONTINUOUS
 62
     3
100
AcDbHatch
 10
0.0
 20
0.0
 30
0.0
210
0.0
220
0.0
230
1.0
  2
SOLID
 70
     1
 71
     1
 91
        1
 92
        1
 93
       19
 72
     2
 10
1602.6196786505043
 20
94.402999999999565
 40
7.3879387938794245
 50
303.748989
 51
0.0
 73
     1
 72
     1
 10
1610.0076174443839
 20
94.402999999999963
 11
1612.8727999452601
 21
94.402999999999963
 72
     2
 10
1605.2796406293285
 20
94.402999999999508
 40
7.5931593159316115
 50
0.0
 51
55.698847
 73
     0
 72
     2
 10
1602.6196786505047
 20
98.302189918991871
 40
12.313231323132388
 50
55.698847
 51
70.528779
 73
     0
 72
     1
 10
1606.7240890915486
 20
86.693164096451142
 11
1606.7240890915486
 21
85.986781289466336
 72
     2
 10
1607.7501917018096
 20
85.986781289466336
 40
1.026102610261032
 50
180.0
 51
245.380023
 73
     1
 72
     2
 10
1608.690630278272
 20
88.038986509988433
 40
3.283528352835297
 50
245.380023
 51
267.913343
 73
     1
 72
     1
 10
1608.5710737900185
 20
84.757635463545853
 11
1608.5710737900185
 21
84.141973897389221
 72
     1
 10
1608.5710737900185
 20
84.141973897389221
 11
1602.4144581284522
 21
84.141973897389221
 72
     1
 10
1602.4144581284522
 20
84.141973897389221
 11
1602.4144581284522
 21
84.757635463545853
 72
     2
 10
1602.2949016401985
 20
88.038986509988433
 40
3.283528352835297
 50
272.086657
 51
294.619977
 73
     1
 72
     2
 10
1603.2353402166609
 20
85.986781289466336
 40
1.026102610261032
 50
294.619977
 51
0.0
 73
     1
 72
     1
 10
1604.2614428269221
 20
85.986781289466336
 11
1604.2614428269221
 21
86.09890036223706
 72
     2
 10
1602.6196786505043
 20
98.302189918991843
 40
12.313231323132369
 50
82.337744
 51
91.080702
 73
     0
 72
     1
 10
1602.3874426442128
 20
85.991148856013069
 11
1602.3874426442128
 21
87.018712217180564
 72
     2
 10
1602.6196786505047
 20
94.402999999999565
 40
7.3879387938794006
 50
268.19864
 51
282.839588
 73
     1
 72
     1
 10
1604.2614428269221
 20
87.199788909719047
 11
1604.2614428269221
 21
94.402999999999963
 72
     1
 10
1604.2614428269221
 20
94.402999999999963
 11
1606.7240890915486
 21
94.402999999999963
 72
     1
 10
1606.7240890915486
 20
94.402999999999963
 11
1606.7240890915486
 21
88.26008094196564
 97
        0
 75
     0
 76
     1
 98
        1
 10
0.0
 20
0.0
  0
TEXT
  5
655
100
AcDbEntity
  8
LAY-2
  6
CONTINUOUS
 62
     3
100
AcDbText
 10
1499.44
 20
163.16
 30
0.0
 40
20.0
  1
型式
 41
0.984714
  7
EXCADSTD
 72
     5
 11
1542.420406
 21
163.16
 31
0.0
100
AcDbText
  0
TEXT
  5
656
100
AcDbEntity
  8
LAY-2
  6
CONTINUOUS
 62
     3
100
AcDbText
 10
1498.96
 20
135.0
 30
0.0
 40
20.0
  1
品名
 41
0.984714
  7
EXCADSTD
 72
     5
 11
1541.940406
 21
135.0
 31
0.0
100
AcDbText
  0
TEXT
  5
657
100
AcDbEntity
  8
LAY-2
  6
CONTINUOUS
 62
     3
100
AcDbText
 10
1617.36
 20
109.24
 30
0.0
 40
20.0
  1
外観図
 41
1.47392
  7
EXCADSTD
 72
     5
 11
1722.639999
 21
109.24
 31
0.0
100
AcDbText
  0
TEXT
  5
658
100
AcDbEntity
  8
LAY-2
  6
CONTINUOUS
 62
     3
100
AcDbText
 10
1492.56
 20
190.52
 30
0.0
 40
20.0
  1
作成日
 41
0.84
  7
EXCADSTD
 72
     5
 11
1552.56
 21
190.52
 31
0.0
100
AcDbText
  0
TEXT
  5
659
100
AcDbEntity
  8
LAY-2
  6
CONTINUOUS
 62
     3
100
AcDbText
 10
1559.904
 20
135.016
 30
0.0
 40
20.0
  1
温水循環式蒸発器
 41
0.84
  7
EXCADSTD
 72
     5
 11
1719.904
 21
135.016
 31
0.0
100
AcDbText
  0
TEXT
  5
65A
100
AcDbEntity
  8
LAY-2
  6
CONTINUOUS
 62
     3
100
AcDbText
 10
1570.48
 20
190.52
 30
0.0
 40
20.0
  1
’１４年　６月１０日
 41
0.84
  7
EXCADSTD
 72
     5
 11
1770.48
 21
190.52
 31
0.0
100
AcDbText
  0
TEXT
  5
65B
100
AcDbEntity
  8
LAY-2
  6
CONTINUOUS
 62
     3
100
AcDbText
 10
1559.936
 20
162.92
 30
0.0
 40
20.0
  1
ＳＭＶ－１００Ｃ
 41
0.84
  7
EXCADSTD
 72
     5
 11
1719.936
 21
162.92
 31
0.0
100
AcDbText
  0
TEXT
  5
65C
100
AcDbEntity
  8
LAY-5
  6
CONTINUOUS
 62
     3
100
AcDbText
 10
1255.91429
 20
1234.969957
 30
0.0
 40
25.0
  1
ＪＩＳ ２０Ｋ １５Ａ フランジ
 41
0.788438
  7
EXCADSTD
 72
     5
 11
1618.41429
 21
1234.969957
 31
0.0
100
AcDbText
  0
POLYLINE
  5
65D
100
AcDbEntity
  8
LAY-5
  6
CONTINUOUS
 62
     1
100
AcDb2dPolyline
 66
     1
 10
0.0
 20
0.0
 30
0.0
 70
   128
  0
VERTEX
  5
65E
100
AcDbEntity
  8
LAY-5
  6
CONTINUOUS
 62
     1
100
AcDbVertex
100
AcDb2dVertex
 10
1173.0
 20
1054.5
 30
0.0
  0
VERTEX
  5
65F
100
AcDbEntity
  8
LAY-5
  6
CONTINUOUS
 62
     1
100
AcDbVertex
100
AcDb2dVertex
 10
1257.268505
 20
1227.798701
 30
0.0
  0
VERTEX
  5
660
100
AcDbEntity
  8
LAY-5
  6
CONTINUOUS
 62
     1
100
AcDbVertex
100
AcDb2dVertex
 10
1627.0
 20
1227.798701
 30
0.0
  0
SEQEND
  5
661
100
AcDbEntity
  8
LAY-5
  6
CONTINUOUS
 62
     1
  0
LINE
  5
662
100
AcDbEntity
  8
LAY-5
  6
CONTINUOUS
 62
     1
100
AcDbLine
 10
1175.874164
 20
1064.221983
 30
0.0
 11
1173.0
 21
1054.5
 31
0.0
  0
LINE
  5
663
100
AcDbEntity
  8
LAY-5
  6
CONTINUOUS
 62
     1
100
AcDbLine
 10
1173.0
 20
1054.5
 30
0.0
 11
1178.871879
 21
1062.764309
 31
0.0
  0
TEXT
  5
664
100
AcDbEntity
  8
LAY-5
  6
CONTINUOUS
 62
     3
100
AcDbText
 10
382.91429
 20
1228.098701
 30
0.0
 40
25.0
  1
ＪＩＳ ２０Ｋ １５Ａ フランジ
 41
0.788438
  7
EXCADSTD
 72
     5
 11
745.41429
 21
1228.098701
 31
0.0
100
AcDbText
  0
POLYLINE
  5
665
100
AcDbEntity
  8
LAY-5
  6
CONTINUOUS
 62
     1
100
AcDb2dPolyline
 66
     1
 10
0.0
 20
0.0
 30
0.0
 70
   128
  0
VERTEX
  5
666
100
AcDbEntity
  8
LAY-5
  6
CONTINUOUS
 62
     1
100
AcDbVertex
100
AcDb2dVertex
 10
835.0
 20
1054.5
 30
0.0
  0
VERTEX
  5
667
100
AcDbEntity
  8
LAY-5
  6
CONTINUOUS
 62
     1
100
AcDbVertex
100
AcDb2dVertex
 10
746.66429
 20
1227.798701
 30
0.0
  0
VERTEX
  5
668
100
AcDbEntity
  8
LAY-5
  6
CONTINUOUS
 62
     1
100
AcDbVertex
100
AcDb2dVertex
 10
385.0
 20
1227.798701
 30
0.0
  0
SEQEND
  5
669
100
AcDbEntity
  8
LAY-5
  6
CONTINUOUS
 62
     1
  0
LINE
  5
66A
100
AcDbEntity
  8
LAY-5
  6
CONTINUOUS
 62
     1
100
AcDbLine
 10
828.973754
 20
1062.652431
 30
0.0
 11
835.0
 21
1054.5
 31
0.0
  0
LINE
  5
66B
100
AcDbEntity
  8
LAY-5
  6
CONTINUOUS
 62
     1
100
AcDbLine
 10
835.0
 20
1054.5
 30
0.0
 11
831.943529
 21
1064.166218
 31
0.0
  0
TEXT
  5
66C
100
AcDbEntity
  8
LAY-5
  6
CONTINUOUS
 62
     3
100
AcDbText
 10
665.41429
 20
1481.632244
 30
0.0
 40
25.0
  1
Ｒｃ １／ ２
 41
0.794444
  7
EXCADSTD
 72
     5
 11
802.91429
 21
1481.632244
 31
0.0
100
AcDbText
  0
POLYLINE
  5
66D
100
AcDbEntity
  8
LAY-5
  6
CONTINUOUS
 62
     1
100
AcDb2dPolyline
 66
     1
 10
0.0
 20
0.0
 30
0.0
 70
   128
  0
VERTEX
  5
66E
100
AcDbEntity
  8
LAY-5
  6
CONTINUOUS
 62
     1
100
AcDbVertex
100
AcDb2dVertex
 10
918.54187
 20
1307.277055
 30
0.0
  0
VERTEX
  5
66F
100
AcDbEntity
  8
LAY-5
  6
CONTINUOUS
 62
     1
100
AcDbVertex
100
AcDb2dVertex
 10
827.66429
 20
1477.332244
 30
0.0
  0
VERTEX
  5
670
100
AcDbEntity
  8
LAY-5
  6
CONTINUOUS
 62
     1
100
AcDbVertex
100
AcDb2dVertex
 10
661.66429
 20
1477.332244
 30
0.0
  0
SEQEND
  5
671
100
AcDbEntity
  8
LAY-5
  6
CONTINUOUS
 62
     1
  0
LINE
  5
672
100
AcDbEntity
  8
LAY-5
  6
CONTINUOUS
 62
     1
100
AcDbLine
 10
912.358725
 20
1315.311138
 30
0.0
 11
918.54187
 21
1307.277055
 31
0.0
  0
LINE
  5
673
100
AcDbEntity
  8
LAY-5
  6
CONTINUOUS
 62
     1
100
AcDbLine
 10
918.54187
 20
1307.277055
 30
0.0
 11
915.298598
 21
1316.882208
 31
0.0
  0
TEXT
  5
674
100
AcDbEntity
  8
LAY-5
  6
CONTINUOUS
 62
     3
100
AcDbText
 10
560.91429
 20
261.969957
 30
0.0
 40
25.0
  1
ＪＩＳ １０Ｋ ２０Ａ フランジ
 41
0.788438
  7
EXCADSTD
 72
     5
 11
923.41429
 21
261.969957
 31
0.0
100
AcDbText
  0
POLYLINE
  5
675
100
AcDbEntity
  8
LAY-5
  6
CONTINUOUS
 62
     1
100
AcDb2dPolyline
 66
     1
 10
0.0
 20
0.0
 30
0.0
 70
   128
  0
VERTEX
  5
676
100
AcDbEntity
  8
LAY-5
  6
CONTINUOUS
 62
     1
100
AcDbVertex
100
AcDb2dVertex
 10
939.0
 20
338.0
 30
0.0
  0
VERTEX
  5
677
100
AcDbEntity
  8
LAY-5
  6
CONTINUOUS
 62
     1
100
AcDbVertex
100
AcDb2dVertex
 10
924.66429
 20
261.669957
 30
0.0
  0
VERTEX
  5
678
100
AcDbEntity
  8
LAY-5
  6
CONTINUOUS
 62
     1
100
AcDbVertex
100
AcDb2dVertex
 10
558.0
 20
261.669957
 30
0.0
  0
SEQEND
  5
679
100
AcDbEntity
  8
LAY-5
  6
CONTINUOUS
 62
     1
  0
LINE
  5
67A
100
AcDbEntity
  8
LAY-5
  6
CONTINUOUS
 62
     1
100
AcDbLine
 10
938.792179
 20
327.864193
 30
0.0
 11
939.0
 21
338.0
 31
0.0
  0
LINE
  5
67B
100
AcDbEntity
  8
LAY-5
  6
CONTINUOUS
 62
     1
100
AcDbLine
 10
939.0
 20
338.0
 30
0.0
 11
935.516123
 21
328.479476
 31
0.0
  0
TEXT
  5
67C
100
AcDbEntity
  8
LAY-5
  6
CONTINUOUS
 62
     3
100
AcDbText
 10
1097.08571
 20
383.969957
 30
0.0
 40
25.0
  1
Ｒｃ １／ ２
 41
0.794444
  7
EXCADSTD
 72
     5
 11
1234.58571
 21
383.969957
 31
0.0
100
AcDbText
  0
TEXT
  5
67D
100
AcDbEntity
  8
LAY-5
  6
CONTINUOUS
 62
     3
100
AcDbText
 10
1100.33571
 20
349.669957
 30
0.0
 40
25.0
  1
循環水接続
 41
0.84
  7
EXCADSTD
 72
     5
 11
1225.33571
 21
349.669957
 31
0.0
100
AcDbText
  0
POLYLINE
  5
67E
100
AcDbEntity
  8
LAY-5
  6
CONTINUOUS
 62
     1
100
AcDb2dPolyline
 66
     1
 10
0.0
 20
0.0
 30
0.0
 70
   128
  0
VERTEX
  5
67F
100
AcDbEntity
  8
LAY-5
  6
CONTINUOUS
 62
     1
100
AcDbVertex
100
AcDb2dVertex
 10
1071.66429
 20
456.0
 30
0.0
  0
VERTEX
  5
680
100
AcDbEntity
  8
LAY-5
  6
CONTINUOUS
 62
     1
100
AcDbVertex
100
AcDb2dVertex
 10
1086.0
 20
379.669957
 30
0.0
  0
VERTEX
  5
681
100
AcDbEntity
  8
LAY-5
  6
CONTINUOUS
 62
     1
100
AcDbVertex
100
AcDb2dVertex
 10
1232.66429
 20
379.669957
 30
0.0
  0
SEQEND
  5
682
100
AcDbEntity
  8
LAY-5
  6
CONTINUOUS
 62
     1
  0
LINE
  5
683
100
AcDbEntity
  8
LAY-5
  6
CONTINUOUS
 62
     1
100
AcDbLine
 10
1075.148167
 20
446.479476
 30
0.0
 11
1071.66429
 21
456.0
 31
0.0
  0
LINE
  5
684
100
AcDbEntity
  8
LAY-5
  6
CONTINUOUS
 62
     1
100
AcDbLine
 10
1071.66429
 20
456.0
 30
0.0
 11
1071.872111
 21
445.864193
 31
0.0
  0
TEXT
  5
685
100
AcDbEntity
  8
LAY-5
  6
CONTINUOUS
 62
     3
100
AcDbText
 10
680.66429
 20
1440.332244
 30
0.0
 40
25.0
  1
安全弁
 41
0.84
  7
EXCADSTD
 72
     5
 11
755.66429
 21
1440.332244
 31
0.0
100
AcDbText
  0
TEXT
  5
686
100
AcDbEntity
  8
LAY-5
  6
CONTINUOUS
 62
     3
100
AcDbText
 10
680.66429
 20
1415.332244
 30
0.0
 40
25.0
  1
放出管
 41
0.84
  7
EXCADSTD
 72
     5
 11
755.66429
 21
1415.332244
 31
0.0
100
AcDbText
  0
TEXT
  5
687
100
AcDbEntity
  8
LAY-5
  6
CONTINUOUS
 62
     3
100
AcDbText
 10
531.66429
 20
1190.798701
 30
0.0
 40
25.0
  1
液入口
 41
0.84
  7
EXCADSTD
 72
     5
 11
606.66429
 21
1190.798701
 31
0.0
100
AcDbText
  0
TEXT
  5
688
100
AcDbEntity
  8
LAY-5
  6
CONTINUOUS
 62
     3
100
AcDbText
 10
1390.66429
 20
1190.669957
 30
0.0
 40
25.0
  1
液入口
 41
0.84
  7
EXCADSTD
 72
     5
 11
1465.66429
 21
1190.669957
 31
0.0
100
AcDbText
  0
TEXT
  5
689
100
AcDbEntity
  8
LAY-5
  6
CONTINUOUS
 62
     3
100
AcDbText
 10
709.66429
 20
226.669957
 30
0.0
 40
25.0
  1
ガス出口
 41
0.84
  7
EXCADSTD
 72
     5
 11
809.66429
 21
226.669957
 31
0.0
100
AcDbText
  0
LINE
  5
68A
100
AcDbEntity
  8
LAY-5
  6
CONTINUOUS
 62
     1
100
AcDbLine
 10
300.609669
 20
1092.0
 30
0.0
 11
300.609669
 21
1156.5
 31
0.0
  0
LINE
  5
68B
100
AcDbEntity
  8
LAY-5
  6
CONTINUOUS
 62
     1
100
AcDbLine
 10
508.609669
 20
1092.0
 30
0.0
 11
508.609669
 21
1156.5
 31
0.0
  0
TEXT
  5
68C
100
AcDbEntity
  8
LAY-5
  6
CONTINUOUS
 62
     3
100
AcDbText
 10
367.109669
 20
1157.0
 30
0.0
 40
25.0
  1
２０８
 41
0.84
  7
EXCADSTD
 72
     5
 11
442.109669
 21
1157.0
 31
0.0
100
AcDbText
  0
LINE
  5
68D
100
AcDbEntity
  8
LAY-5
  6
CONTINUOUS
 62
     1
100
AcDbLine
 10
300.609669
 20
1156.0
 30
0.0
 11
508.609669
 21
1156.0
 31
0.0
  0
LINE
  5
68E
100
AcDbEntity
  8
LAY-5
  6
CONTINUOUS
 62
     1
100
AcDbLine
 10
310.609669
 20
1157.666667
 30
0.0
 11
300.609669
 21
1156.0
 31
0.0
  0
LINE
  5
68F
100
AcDbEntity
  8
LAY-5
  6
CONTINUOUS
 62
     1
100
AcDbLine
 10
300.609669
 20
1156.0
 30
0.0
 11
310.609669
 21
1154.333333
 31
0.0
  0
LINE
  5
690
100
AcDbEntity
  8
LAY-5
  6
CONTINUOUS
 62
     1
100
AcDbLine
 10
498.609669
 20
1154.333333
 30
0.0
 11
508.609669
 21
1156.0
 31
0.0
  0
LINE
  5
691
100
AcDbEntity
  8
LAY-5
  6
CONTINUOUS
 62
     1
100
AcDbLine
 10
508.609669
 20
1156.0
 30
0.0
 11
498.609669
 21
1157.666667
 31
0.0
  0
LINE
  5
692
100
AcDbEntity
  8
LAY-5
  6
CONTINUOUS
 62
     1
100
AcDbLine
 10
300.609669
 20
1092.0
 30
0.0
 11
261.5
 21
1092.0
 31
0.0
  0
LINE
  5
693
100
AcDbEntity
  8
LAY-5
  6
CONTINUOUS
 62
     1
100
AcDbLine
 10
300.609669
 20
1007.0
 30
0.0
 11
261.5
 21
1007.0
 31
0.0
  0
TEXT
  5
694
100
AcDbEntity
  8
LAY-5
  6
CONTINUOUS
 62
     3
100
AcDbText
 10
261.0
 20
1024.5
 30
0.0
 40
25.0
  1
８５
 50
90.0
 41
0.84
  7
EXCADSTD
 72
     5
 11
261.0
 21
1070.33
 31
0.0
100
AcDbText
  0
LINE
  5
695
100
AcDbEntity
  8
LAY-5
  6
CONTINUOUS
 62
     1
100
AcDbLine
 10
262.0
 20
1092.0
 30
0.0
 11
262.0
 21
1007.0
 31
0.0
  0
LINE
  5
696
100
AcDbEntity
  8
LAY-5
  6
CONTINUOUS
 62
     1
100
AcDbLine
 10
263.666667
 20
1082.0
 30
0.0
 11
262.0
 21
1092.0
 31
0.0
  0
LINE
  5
697
100
AcDbEntity
  8
LAY-5
  6
CONTINUOUS
 62
     1
100
AcDbLine
 10
262.0
 20
1092.0
 30
0.0
 11
260.333333
 21
1082.0
 31
0.0
  0
LINE
  5
698
100
AcDbEntity
  8
LAY-5
  6
CONTINUOUS
 62
     1
100
AcDbLine
 10
260.333333
 20
1017.0
 30
0.0
 11
262.0
 21
1007.0
 31
0.0
  0
LINE
  5
699
100
AcDbEntity
  8
LAY-5
  6
CONTINUOUS
 62
     1
100
AcDbLine
 10
262.0
 20
1007.0
 30
0.0
 11
263.666667
 21
1017.0
 31
0.0
  0
LINE
  5
69A
100
AcDbEntity
  8
LAY-5
  6
CONTINUOUS
 62
     1
100
AcDbLine
 10
261.5
 20
1007.0
 30
0.0
 11
262.5
 21
1007.0
 31
0.0
  0
LINE
  5
69B
100
AcDbEntity
  8
LAY-5
  6
CONTINUOUS
 62
     1
100
AcDbLine
 10
389.609669
 20
338.0
 30
0.0
 11
261.5
 21
338.0
 31
0.0
  0
TEXT
  5
69C
100
AcDbEntity
  8
LAY-5
  6
CONTINUOUS
 62
     3
100
AcDbText
 10
261.0
 20
635.0
 30
0.0
 40
25.0
  1
６６９
 50
90.0
 41
0.84
  7
EXCADSTD
 72
     5
 11
261.0
 21
710.0
 31
0.0
100
AcDbText
  0
LINE
  5
69D
100
AcDbEntity
  8
LAY-5
  6
CONTINUOUS
 62
     1
100
AcDbLine
 10
262.0
 20
1007.0
 30
0.0
 11
262.0
 21
338.0
 31
0.0
  0
LINE
  5
69E
100
AcDbEntity
  8
LAY-5
  6
CONTINUOUS
 62
     1
100
AcDbLine
 10
263.666667
 20
997.0
 30
0.0
 11
262.0
 21
1007.0
 31
0.0
  0
LINE
  5
69F
100
AcDbEntity
  8
LAY-5
  6
CONTINUOUS
 62
     1
100
AcDbLine
 10
262.0
 20
1007.0
 30
0.0
 11
260.333333
 21
997.0
 31
0.0
  0
LINE
  5
6A0
100
AcDbEntity
  8
LAY-5
  6
CONTINUOUS
 62
     1
100
AcDbLine
 10
260.333333
 20
348.0
 30
0.0
 11
262.0
 21
338.0
 31
0.0
  0
LINE
  5
6A1
100
AcDbEntity
  8
LAY-5
  6
CONTINUOUS
 62
     1
100
AcDbLine
 10
262.0
 20
338.0
 30
0.0
 11
263.666667
 21
348.0
 31
0.0
  0
LINE
  5
6A2
100
AcDbEntity
  8
LAY-5
  6
CONTINUOUS
 62
     1
100
AcDbLine
 10
300.609669
 20
1092.0
 30
0.0
 11
193.5
 21
1092.0
 31
0.0
  0
LINE
  5
6A3
100
AcDbEntity
  8
LAY-5
  6
CONTINUOUS
 62
     1
100
AcDbLine
 10
262.0
 20
338.0
 30
0.0
 11
193.5
 21
338.0
 31
0.0
  0
TEXT
  5
6A4
100
AcDbEntity
  8
LAY-5
  6
CONTINUOUS
 62
     3
100
AcDbText
 10
193.0
 20
677.5
 30
0.0
 40
25.0
  1
７５４
 50
90.0
 41
0.84
  7
EXCADSTD
 72
     5
 11
193.0
 21
752.5
 31
0.0
100
AcDbText
  0
LINE
  5
6A5
100
AcDbEntity
  8
LAY-5
  6
CONTINUOUS
 62
     1
100
AcDbLine
 10
194.0
 20
1092.0
 30
0.0
 11
194.0
 21
338.0
 31
0.0
  0
LINE
  5
6A6
100
AcDbEntity
  8
LAY-5
  6
CONTINUOUS
 62
     1
100
AcDbLine
 10
195.666667
 20
1082.0
 30
0.0
 11
194.0
 21
1092.0
 31
0.0
  0
LINE
  5
6A7
100
AcDbEntity
  8
LAY-5
  6
CONTINUOUS
 62
     1
100
AcDbLine
 10
194.0
 20
1092.0
 30
0.0
 11
192.333333
 21
1082.0
 31
0.0
  0
LINE
  5
6A8
100
AcDbEntity
  8
LAY-5
  6
CONTINUOUS
 62
     1
100
AcDbLine
 10
192.333333
 20
348.0
 30
0.0
 11
194.0
 21
338.0
 31
0.0
  0
LINE
  5
6A9
100
AcDbEntity
  8
LAY-5
  6
CONTINUOUS
 62
     1
100
AcDbLine
 10
194.0
 20
338.0
 30
0.0
 11
195.666667
 21
348.0
 31
0.0
  0
LINE
  5
6AA
100
AcDbEntity
  8
LAY-5
  6
CONTINUOUS
 62
     1
100
AcDbLine
 10
866.0
 20
1093.0
 30
0.0
 11
866.0
 21
1111.5
 31
0.0
  0
LINE
  5
6AB
100
AcDbEntity
  8
LAY-5
  6
CONTINUOUS
 62
     1
100
AcDbLine
 10
1142.0
 20
1093.0
 30
0.0
 11
1142.0
 21
1111.5
 31
0.0
  0
TEXT
  5
6AC
100
AcDbEntity
  8
LAY-5
  6
CONTINUOUS
 62
     3
100
AcDbText
 10
966.5
 20
1112.0
 30
0.0
 40
25.0
  1
２７６
 41
0.84
  7
EXCADSTD
 72
     5
 11
1041.5
 21
1112.0
 31
0.0
100
AcDbText
  0
LINE
  5
6AD
100
AcDbEntity
  8
LAY-5
  6
CONTINUOUS
 62
     1
100
AcDbLine
 10
866.0
 20
1111.0
 30
0.0
 11
1142.0
 21
1111.0
 31
0.0
  0
LINE
  5
6AE
100
AcDbEntity
  8
LAY-5
  6
CONTINUOUS
 62
     1
100
AcDbLine
 10
876.0
 20
1112.666667
 30
0.0
 11
866.0
 21
1111.0
 31
0.0
  0
LINE
  5
6AF
100
AcDbEntity
  8
LAY-5
  6
CONTINUOUS
 62
     1
100
AcDbLine
 10
866.0
 20
1111.0
 30
0.0
 11
876.0
 21
1109.333333
 31
0.0
  0
LINE
  5
6B0
100
AcDbEntity
  8
LAY-5
  6
CONTINUOUS
 62
     1
100
AcDbLine
 10
1132.0
 20
1109.333333
 30
0.0
 11
1142.0
 21
1111.0
 31
0.0
  0
LINE
  5
6B1
100
AcDbEntity
  8
LAY-5
  6
CONTINUOUS
 62
     1
100
AcDbLine
 10
1142.0
 20
1111.0
 30
0.0
 11
1132.0
 21
1112.666667
 31
0.0
  0
LINE
  5
6B2
100
AcDbEntity
  8
LAY-5
  6
CONTINUOUS
 62
     1
100
AcDbLine
 10
834.0
 20
1007.0
 30
0.0
 11
834.0
 21
1151.5
 31
0.0
  0
LINE
  5
6B3
100
AcDbEntity
  8
LAY-5
  6
CONTINUOUS
 62
     1
100
AcDbLine
 10
1174.0
 20
1007.0
 30
0.0
 11
1174.0
 21
1151.5
 31
0.0
  0
TEXT
  5
6B4
100
AcDbEntity
  8
LAY-5
  6
CONTINUOUS
 62
     3
100
AcDbText
 10
966.5
 20
1152.0
 30
0.0
 40
25.0
  1
３４０
 41
0.84
  7
EXCADSTD
 72
     5
 11
1041.5
 21
1152.0
 31
0.0
100
AcDbText
  0
LINE
  5
6B5
100
AcDbEntity
  8
LAY-5
  6
CONTINUOUS
 62
     1
100
AcDbLine
 10
834.0
 20
1151.0
 30
0.0
 11
1174.0
 21
1151.0
 31
0.0
  0
LINE
  5
6B6
100
AcDbEntity
  8
LAY-5
  6
CONTINUOUS
 62
     1
100
AcDbLine
 10
844.0
 20
1152.666667
 30
0.0
 11
834.0
 21
1151.0
 31
0.0
  0
LINE
  5
6B7
100
AcDbEntity
  8
LAY-5
  6
CONTINUOUS
 62
     1
100
AcDbLine
 10
834.0
 20
1151.0
 30
0.0
 11
844.0
 21
1149.333333
 31
0.0
  0
LINE
  5
6B8
100
AcDbEntity
  8
LAY-5
  6
CONTINUOUS
 62
     1
100
AcDbLine
 10
1164.0
 20
1149.333333
 30
0.0
 11
1174.0
 21
1151.0
 31
0.0
  0
LINE
  5
6B9
100
AcDbEntity
  8
LAY-5
  6
CONTINUOUS
 62
     1
100
AcDbLine
 10
1174.0
 20
1151.0
 30
0.0
 11
1164.0
 21
1152.666667
 31
0.0
  0
ENDSEC
  0
SECTION
  2
OBJECTS
  0
DICTIONARY
  5
19
100
AcDbDictionary
  3
ACAD_GROUP
350
1A
  3
ACAD_MLINESTYLE
350
1B
  0
DICTIONARY
  5
1A
102
{ACAD_REACTORS
330
19
102
}
100
AcDbDictionary
  0
DICTIONARY
  5
1B
102
{ACAD_REACTORS
330
19
102
}
100
AcDbDictionary
  3
STANDARD
350
1C
  0
MLINESTYLE
  5
1C
102
{ACAD_REACTORS
330
1B
102
}
100
AcDbMlineStyle
  2
Standard
 70
     0
  3

 62
     0
 51
90.0
 52
90.0
 71
     2
 49
0.5
 62
   256
  6
ByLayer
 49
-0.5
 62
   256
  6
ByLayer
  0
ENDSEC
  0
EOF
