  0
SECTION
  2
HEADER
  9
$ACADVER
  1
AC1014
  9
$ACADMAINTVER
 70
     0
  9
$DWGCODEPAGE
  3
ANSI_932
  9
$INSBASE
 10
0.0
 20
0.0
 30
0.0
  9
$EXTMIN
 10
164.208453
 20
-26.769819
 30
0.0
  9
$EXTMAX
 10
2014.12136
 20
1494.927308
 30
0.0
  9
$LIMMIN
 10
0.0
 20
0.0
  9
$LIMMAX
 10
420.0
 20
297.0
  9
$ORTHOMODE
 70
     0
  9
$REGENMODE
 70
     1
  9
$FILLMODE
 70
     1
  9
$QTEXTMODE
 70
     0
  9
$MIRRTEXT
 70
     1
  9
$DRAGMODE
 70
     2
  9
$LTSCALE
 40
1.0
  9
$OSMODE
 70
     0
  9
$ATTMODE
 70
     1
  9
$TEXTSIZE
 40
0.2
  9
$TRACEWID
 40
0.05
  9
$TEXTSTYLE
  7
STANDARD
  9
$CLAYER
  8
LAY-1
  9
$CELTYPE
  6
CONTINUOUS
  9
$CECOLOR
 62
   256
  9
$CELTSCALE
 40
1.0
  9
$DELOBJ
 70
     1
  9
$DISPSILH
 70
     0
  9
$DIMSCALE
 40
1.0
  9
$DIMASZ
 40
0.18
  9
$DIMEXO
 40
0.0625
  9
$DIMDLI
 40
0.38
  9
$DIMRND
 40
0.0
  9
$DIMDLE
 40
0.0
  9
$DIMEXE
 40
0.18
  9
$DIMTP
 40
0.0
  9
$DIMTM
 40
0.0
  9
$DIMTXT
 40
0.18
  9
$DIMCEN
 40
0.09
  9
$DIMTSZ
 40
0.0
  9
$DIMTOL
 70
     0
  9
$DIMLIM
 70
     0
  9
$DIMTIH
 70
     1
  9
$DIMTOH
 70
     1
  9
$DIMSE1
 70
     0
  9
$DIMSE2
 70
     0
  9
$DIMTAD
 70
     0
  9
$DIMZIN
 70
     0
  9
$DIMBLK
  1

  9
$DIMASO
 70
     1
  9
$DIMSHO
 70
     1
  9
$DIMPOST
  1

  9
$DIMAPOST
  1

  9
$DIMALT
 70
     0
  9
$DIMALTD
 70
     2
  9
$DIMALTF
 40
25.4
  9
$DIMLFAC
 40
1.0
  9
$DIMTOFL
 70
     0
  9
$DIMTVP
 40
0.0
  9
$DIMTIX
 70
     0
  9
$DIMSOXD
 70
     0
  9
$DIMSAH
 70
     0
  9
$DIMBLK1
  1

  9
$DIMBLK2
  1

  9
$DIMSTYLE
  2
STANDARD
  9
$DIMCLRD
 70
     0
  9
$DIMCLRE
 70
     0
  9
$DIMCLRT
 70
     0
  9
$DIMTFAC
 40
1.0
  9
$DIMGAP
 40
0.09
  9
$DIMJUST
 70
     0
  9
$DIMSD1
 70
     0
  9
$DIMSD2
 70
     0
  9
$DIMTOLJ
 70
     1
  9
$DIMTZIN
 70
     0
  9
$DIMALTZ
 70
     0
  9
$DIMALTTZ
 70
     0
  9
$DIMFIT
 70
     3
  9
$DIMUPT
 70
     0
  9
$DIMUNIT
 70
     2
  9
$DIMDEC
 70
     4
  9
$DIMTDEC
 70
     4
  9
$DIMALTU
 70
     2
  9
$DIMALTTD
 70
     2
  9
$DIMTXSTY
  7
STANDARD
  9
$DIMAUNIT
 70
     0
  9
$LUNITS
 70
     2
  9
$LUPREC
 70
     4
  9
$SKETCHINC
 40
0.1
  9
$FILLETRAD
 40
0.0
  9
$AUNITS
 70
     0
  9
$AUPREC
 70
     0
  9
$MENU
  1
acad
  9
$ELEVATION
 40
0.0
  9
$PELEVATION
 40
0.0
  9
$THICKNESS
 40
0.0
  9
$LIMCHECK
 70
     0
  9
$BLIPMODE
 70
     1
  9
$CHAMFERA
 40
0.0
  9
$CHAMFERB
 40
0.0
  9
$CHAMFERC
 40
0.0
  9
$CHAMFERD
 40
0.0
  9
$SKPOLY
 70
     0
  9
$TDCREATE
 40
2456797.144865185
  9
$TDUPDATE
 40
2456797.144865185
  9
$TDINDWG
 40
0.0000000000
  9
$TDUSRTIMER
 40
0.0000000000
  9
$USRTIMER
 70
     1
  9
$ANGBASE
 50
0.0
  9
$ANGDIR
 70
     0
  9
$PDMODE
 70
     0
  9
$PDSIZE
 40
0.0
  9
$PLINEWID
 40
0.0
  9
$COORDS
 70
     1
  9
$SPLFRAME
 70
     0
  9
$SPLINETYPE
 70
     6
  9
$SPLINESEGS
 70
     8
  9
$ATTDIA
 70
     0
  9
$ATTREQ
 70
     1
  9
$HANDLING
 70
     1
  9
$HANDSEED
  5
7F2
  9
$SURFTAB1
 70
     6
  9
$SURFTAB2
 70
     6
  9
$SURFTYPE
 70
     6
  9
$SURFU
 70
     6
  9
$SURFV
 70
     6
  9
$UCSNAME
  2

  9
$UCSORG
 10
0.0
 20
0.0
 30
0.0
  9
$UCSXDIR
 10
1.0
 20
0.0
 30
0.0
  9
$UCSYDIR
 10
0.0
 20
1.0
 30
0.0
  9
$PUCSNAME
  2

  9
$PUCSORG
 10
0.0
 20
0.0
 30
0.0
  9
$PUCSXDIR
 10
1.0
 20
0.0
 30
0.0
  9
$PUCSYDIR
 10
0.0
 20
1.0
 30
0.0
  9
$USERI1
 70
     0
  9
$USERI2
 70
     0
  9
$USERI3
 70
     0
  9
$USERI4
 70
     0
  9
$USERI5
 70
     0
  9
$USERR1
 40
0.0
  9
$USERR2
 40
0.0
  9
$USERR3
 40
0.0
  9
$USERR4
 40
0.0
  9
$USERR5
 40
0.0
  9
$WORLDVIEW
 70
     1
  9
$SHADEDGE
 70
     3
  9
$SHADEDIF
 70
    70
  9
$TILEMODE
 70
     1
  9
$MAXACTVP
 70
    16
  9
$PINSBASE
 10
0.0
 20
0.0
 30
0.0
  9
$PLIMCHECK
 70
     0
  9
$PEXTMIN
 10
1.000000E+20
 20
1.000000E+20
 30
1.000000E+20
  9
$PEXTMAX
 10
-1.000000E+20
 20
-1.000000E+20
 30
-1.000000E+20
  9
$PLIMMIN
 10
0.0
 20
0.0
  9
$PLIMMAX
 10
12.0
 20
9.0
  9
$UNITMODE
 70
     0
  9
$VISRETAIN
 70
     0
  9
$PLINEGEN
 70
     1
  9
$PSLTSCALE
 70
     0
  9
$TREEDEPTH
 70
  3020
  9
$PICKSTYLE
 70
     1
  9
$CMLSTYLE
  2
Standard
  9
$CMLJUST
 70
     0
  9
$CMLSCALE
 40
1.0
  9
$PROXYGRAPHICS
 70
     0
  9
$MEASUREMENT
 70
     0
  0
ENDSEC
  0
SECTION
  2
CLASSES
  0
CLASS
  1
LWPOLYLINE
  2
AcDbPolyline
  3
"AutoCAD"
 90
        0
280
     0
281
     1
  0
CLASS
  1
IMAGE
  2
AcDbRasterImage
  3
ISM
 90
      127
280
     0
281
     1
  0
CLASS
  1
OLE2FRAME
  2
AcDbOle2Frame
  3
""
 90
        0
280
     0
281
     1
  0
CLASS
  1
HATCH
  2
AcDbHatch
  3
"ACAD_SEDONA"
 90
        0
280
     0
281
     1
  0
CLASS
  1
DICTIONARYVAR
  2
AcDbDictionaryVar
  3
"AutoCAD"
 90
        0
280
     0
281
     0
  0
CLASS
  1
RASTERVARIABLES
  2
AcDbRasterVariables
  3
ISM
 90
        0
280
     0
281
     0
  0
CLASS
  1
IMAGEDEF
  2
AcDbRasterImageDef
  3
ISM
 90
        0
280
     0
281
     0
  0
CLASS
  1
IMAGEDEF_REACTOR
  2
AcDbRasterImageDefReactor
  3
ISM
 90
        1
280
     0
281
     0
  0
CLASS
  1
IDBUFFER
  2
AcDbIdBuffer
  3
"Acad"
 90
        0
280
     0
281
     0
  0
CLASS
  1
SPATIAL_FILTER
  2
AcDbSpatialFilter
  3
"Acad"
 90
        0
280
     0
281
     0
  0
CLASS
  1
XRECORD
  2
AcDbXrecord
  3
"<Built In>"
 90
        0
280
     0
281
     0
  0
CLASS
  1
SORTENTSTABLE
  2
AcDbSortentsTable
  3
"AutoCAD"
 90
        0
280
     0
281
     0
  0
CLASS
  1
LAYER_INDEX
  2
AcDbLayerIndex
  3
"Acad"
 90
        0
280
     0
281
     0
  0
CLASS
  1
SPATIAL_INDEX
  2
AcDbSpatialIndex
  3
"Acad"
 90
        0
280
     0
281
     0
  0
CLASS
  1
OBJECT_PTR
  2
CAseDLPNTableRecord
  3
"ASE-LPNTableRecord"
 90
        1
280
     0
281
     0
  0
CLASS
  1
LAYOUT
  2
AcDbLayout
  3
"AutoCAD 2000"
 90
        0
280
     0
281
     0
  0
CLASS
  1
PLOTSETTINGS
  2
AcDbPlotSettings
  3
"AutoCAD 2000"
 90
        0
280
     0
281
     0
  0
CLASS
  1
ACDBDICTIONARYWDFLT
  2
AcDbDictionaryWithDefault
  3
"AutoCAD 2000"
 90
        0
280
     0
281
     0
  0
CLASS
  1
ACDBPLACEHOLDER
  2
AcDbPlaceHolder
  3
"AutoCAD 2000"
 90
        0
280
     0
281
     0
  0
CLASS
  1
VBA_PROJECT
  2
AcDbVbaProject
  3
"acadvba"
 90
        0
280
     0
281
     0
  0
CLASS
  1
WIPEOUT
  2
AcDbWipeout
  3
WipeOut|AutoCAD Express Tool|expresstools@autodesk.com
 90
      127
280
     0
281
     1
  0
CLASS
  1
WIPEOUTVARIABLES
  2
AcDbWipeoutVariables
  3
WipeOut|AutoCAD Express Tool|expresstools@autodesk.com
 90
        0
280
     0
281
     0
  0
CLASS
  1
RTEXT
  2
RText
  3
RText|AutoCAD Express Tool|expresstools@autodesk.com
 90
        0
280
     0
281
     1
  0
CLASS
  1
ARCALIGNEDTEXT
  2
AcDbArcAlignedText
  3
ATEXT|AutoCAD Express Tool|expresstools@autodesk.com
 90
        0
280
     0
281
     1
  0
ENDSEC
  0
SECTION
  2
TABLES
  0
TABLE
  2
VPORT
  5
7
100
AcDbSymbolTable
 70
     1
  0
VPORT
  5
15
100
AcDbSymbolTableRecord
100
AcDbViewportTableRecord
  2
*ACTIVE
 70
     0
 10
0.0
 20
0.0
 11
1.0
 21
1.0
 12
1089.164906
 22
734.078744
 13
0.0
 23
0.0
 14
1.0
 24
1.0
 15
0.0
 25
0.0
 16
0.0
 26
0.0
 36
1.0
 17
0.0
 27
0.0
 37
0.0
 40
1521.697127
 41
1.722533
 42
50.0
 43
0.0
 44
0.0
 50
0.0
 51
0.0
 71
     0
 72
  1000
 73
     1
 74
     1
 75
     0
 76
     0
 77
     0
 78
     0
  0
ENDTAB
  0
TABLE
  2
LTYPE
  5
4
100
AcDbSymbolTable
 70
     9
  0
LTYPE
  5
11
100
AcDbSymbolTableRecord
100
AcDbLinetypeTableRecord
  2
BYBLOCK
 70
    64
  3

 72
    65
 73
     0
 40
0.0
  0
LTYPE
  5
12
100
AcDbSymbolTableRecord
100
AcDbLinetypeTableRecord
  2
BYLAYER
 70
    64
  3

 72
    65
 73
     0
 40
0.0
  0
LTYPE
  5
13
100
AcDbSymbolTableRecord
100
AcDbLinetypeTableRecord
  2
CONTINUOUS
 70
    64
  3
実線
 72
    65
 73
     0
 40
0.0
  0
LTYPE
  5
1D
100
AcDbSymbolTableRecord
100
AcDbLinetypeTableRecord
  2
EXLTYPE1
 70
    64
  3
破線
 72
    65
 73
     2
 40
4.0
 49
3.0
 74
     0
 49
-1.0
 74
     0
  0
LTYPE
  5
1E
100
AcDbSymbolTableRecord
100
AcDbLinetypeTableRecord
  2
EXLTYPE2
 70
    64
  3
点線
 72
    65
 73
     2
 40
2.0
 49
1.0
 74
     0
 49
-1.0
 74
     0
  0
LTYPE
  5
1F
100
AcDbSymbolTableRecord
100
AcDbLinetypeTableRecord
  2
EXLTYPE3
 70
    64
  3
一点鎖線
 72
    65
 73
     4
 40
33.0
 49
30.0
 74
     0
 49
-1.0
 74
     0
 49
1.0
 74
     0
 49
-1.0
 74
     0
  0
LTYPE
  5
20
100
AcDbSymbolTableRecord
100
AcDbLinetypeTableRecord
  2
EXLTYPE4
 70
    64
  3
二点鎖線
 72
    65
 73
     6
 40
35.0
 49
30.0
 74
     0
 49
-1.0
 74
     0
 49
1.0
 74
     0
 49
-1.0
 74
     0
 49
1.0
 74
     0
 49
-1.0
 74
     0
  0
LTYPE
  5
21
100
AcDbSymbolTableRecord
100
AcDbLinetypeTableRecord
  2
EXLTYPE5
 70
    64
  3
三点鎖線
 72
    65
 73
     8
 40
37.0
 49
30.0
 74
     0
 49
-1.0
 74
     0
 49
1.0
 74
     0
 49
-1.0
 74
     0
 49
1.0
 74
     0
 49
-1.0
 74
     0
 49
1.0
 74
     0
 49
-1.0
 74
     0
  0
LTYPE
  5
22
100
AcDbSymbolTableRecord
100
AcDbLinetypeTableRecord
  2
EXLTYPE6
 70
    64
  3
四点鎖線
 72
    65
 73
    10
 40
39.0
 49
30.0
 74
     0
 49
-1.0
 74
     0
 49
1.0
 74
     0
 49
-1.0
 74
     0
 49
1.0
 74
     0
 49
-1.0
 74
     0
 49
1.0
 74
     0
 49
-1.0
 74
     0
 49
1.0
 74
     0
 49
-1.0
 74
     0
  0
ENDTAB
  0
TABLE
  2
LAYER
  5
2
100
AcDbSymbolTable
 70
     4
  0
LAYER
  5
14
100
AcDbSymbolTableRecord
100
AcDbLayerTableRecord
  2
0
 70
     0
 62
     7
  6
CONTINUOUS
  0
LAYER
  5
25
100
AcDbSymbolTableRecord
100
AcDbLayerTableRecord
  2
LAY-1
 70
    64
 62
     3
  6
CONTINUOUS
  0
LAYER
  5
26
100
AcDbSymbolTableRecord
100
AcDbLayerTableRecord
  2
LAY-2
 70
    64
 62
     7
  6
CONTINUOUS
  0
LAYER
  5
27
100
AcDbSymbolTableRecord
100
AcDbLayerTableRecord
  2
LAY-5
 70
    64
 62
     1
  6
CONTINUOUS
  0
ENDTAB
  0
TABLE
  2
STYLE
  5
3
100
AcDbSymbolTable
 70
     3
  0
STYLE
  5
17
100
AcDbSymbolTableRecord
100
AcDbTextStyleTableRecord
  2
STANDARD
 70
     0
 40
0.0
 41
1.0
 50
0.0
 71
     0
 42
0.0
  3
monotxt
  4
extfont
  0
STYLE
  5
23
100
AcDbSymbolTableRecord
100
AcDbTextStyleTableRecord
  2
EXCADSTD
 70
    64
 40
0.0
 41
1.0
 50
0.0
 71
     0
 42
0.2
  3
monotxt
  4
extfont
  0
STYLE
  5
24
100
AcDbSymbolTableRecord
100
AcDbTextStyleTableRecord
  2
EXCADVERT
 70
    68
 40
0.0
 41
1.0
 50
0.0
 71
     0
 42
0.286885
  3
monotxt
  4
extfont
  0
ENDTAB
  0
TABLE
  2
VIEW
  5
5
100
AcDbSymbolTable
 70
     0
  0
ENDTAB
  0
TABLE
  2
UCS
  5
6
100
AcDbSymbolTable
 70
     0
  0
ENDTAB
  0
TABLE
  2
APPID
  5
8
100
AcDbSymbolTable
 70
     1
  0
APPID
  5
16
100
AcDbSymbolTableRecord
100
AcDbRegAppTableRecord
  2
ACAD
 70
     0
  0
ENDTAB
  0
TABLE
  2
DIMSTYLE
  5
9
100
AcDbSymbolTable
 70
     1
  0
DIMSTYLE
105
18
100
AcDbSymbolTableRecord
100
AcDbDimStyleTableRecord
  2
STANDARD
 70
     0
  3

  4

  5

  6

  7

 40
1.0
 41
0.18
 42
0.0625
 43
0.38
 44
0.18
 45
0.0
 46
0.0
 47
0.0
 48
0.0
 71
     0
 72
     0
 73
     1
 74
     1
 75
     0
 76
     0
 77
     0
 78
     0
140
0.18
141
0.09
142
0.0
143
25.4
144
1.0
145
0.0
146
1.0
147
0.09
170
     0
171
     2
172
     1
173
     0
174
     0
175
     0
176
     0
177
     0
178
     0
270
     2
271
     4
272
     4
273
     2
274
     2
275
     0
280
     0
281
     0
282
     0
283
     1
284
     0
285
     0
286
     0
287
     3
288
     0
340
17
  0
ENDTAB
  0
TABLE
  2
BLOCK_RECORD
  5
1
100
AcDbSymbolTable
 70
    14
  0
BLOCK_RECORD
  5
A
100
AcDbSymbolTableRecord
100
AcDbBlockTableRecord
  2
*MODEL_SPACE
  0
BLOCK_RECORD
  5
B
100
AcDbSymbolTableRecord
100
AcDbBlockTableRecord
  2
*PAPER_SPACE
  0
BLOCK_RECORD
  5
28
100
AcDbSymbolTableRecord
100
AcDbBlockTableRecord
  2
_EX_NORM
  0
BLOCK_RECORD
  5
29
100
AcDbSymbolTableRecord
100
AcDbBlockTableRecord
  2
_EX_BNORM
  0
BLOCK_RECORD
  5
2A
100
AcDbSymbolTableRecord
100
AcDbBlockTableRecord
  2
_EX_BCIR
  0
BLOCK_RECORD
  5
2B
100
AcDbSymbolTableRecord
100
AcDbBlockTableRecord
  2
_EX_RCIVIL
  0
BLOCK_RECORD
  5
2C
100
AcDbSymbolTableRecord
100
AcDbBlockTableRecord
  2
_EX_SLANT
  0
BLOCK_RECORD
  5
2D
100
AcDbSymbolTableRecord
100
AcDbBlockTableRecord
  2
_EX_NONE
  0
BLOCK_RECORD
  5
2E
100
AcDbSymbolTableRecord
100
AcDbBlockTableRecord
  2
_EX_CIVIL
  0
BLOCK_RECORD
  5
2F
100
AcDbSymbolTableRecord
100
AcDbBlockTableRecord
  2
_EX_WCIR
  0
BLOCK_RECORD
  5
30
100
AcDbSymbolTableRecord
100
AcDbBlockTableRecord
  2
_EX_WCIR2
  0
BLOCK_RECORD
  5
31
100
AcDbSymbolTableRecord
100
AcDbBlockTableRecord
  2
_EX_WNORM
  0
BLOCK_RECORD
  5
32
100
AcDbSymbolTableRecord
100
AcDbBlockTableRecord
  2
_EX_NNORM
  0
BLOCK_RECORD
  5
33
100
AcDbSymbolTableRecord
100
AcDbBlockTableRecord
  2
_EX_BBOX
  0
BLOCK_RECORD
  5
34
100
AcDbSymbolTableRecord
100
AcDbBlockTableRecord
  2
_EX_WBOX
  0
BLOCK_RECORD
  5
35
100
AcDbSymbolTableRecord
100
AcDbBlockTableRecord
  2
_EX_INTEGRAL
  0
ENDTAB
  0
ENDSEC
  0
SECTION
  2
BLOCKS
  0
BLOCK
  5
D
100
AcDbEntity
  8
0
100
AcDbBlockBegin
  2
*MODEL_SPACE
 70
     0
 10
0.0
 20
0.0
 30
0.0
  3
*MODEL_SPACE
  1

  0
ENDBLK
  5
E
100
AcDbEntity
  8
0
100
AcDbBlockEnd
  0
BLOCK
  5
F
100
AcDbEntity
 67
     1
  8
0
100
AcDbBlockBegin
  2
*PAPER_SPACE
 70
     0
 10
0.0
 20
0.0
 30
0.0
  3
*PAPER_SPACE
  1

  0
ENDBLK
  5
10
100
AcDbEntity
 67
     1
  8
0
100
AcDbBlockEnd
  0
BLOCK
  5
36
100
AcDbEntity
  8
0
100
AcDbBlockBegin
  2
_EX_NORM
 70
     0
 10
0.0
 20
0.0
 30
0.0
  3
_EX_NORM
  1

  0
LINE
  5
37
100
AcDbEntity
  8
0
  6
CONTINUOUS
 62
     0
100
AcDbLine
 10
0.0
 20
0.0
 30
0.0
 11
-1.0
 21
0.0
 31
0.0
  0
LINE
  5
38
100
AcDbEntity
  8
0
  6
CONTINUOUS
 62
     0
100
AcDbLine
 10
0.0
 20
0.0
 30
0.0
 11
-1.0
 21
0.166667
 31
0.0
  0
LINE
  5
39
100
AcDbEntity
  8
0
  6
CONTINUOUS
 62
     0
100
AcDbLine
 10
0.0
 20
0.0
 30
0.0
 11
-1.0
 21
-0.166667
 31
0.0
  0
ENDBLK
  5
3A
100
AcDbEntity
  8
0
100
AcDbBlockEnd
  0
BLOCK
  5
3B
100
AcDbEntity
  8
0
100
AcDbBlockBegin
  2
_EX_BNORM
 70
     0
 10
0.0
 20
0.0
 30
0.0
  3
_EX_BNORM
  1

  0
LINE
  5
3C
100
AcDbEntity
  8
0
  6
CONTINUOUS
 62
     0
100
AcDbLine
 10
0.0
 20
0.0
 30
0.0
 11
-1.0
 21
0.0
 31
0.0
  0
LINE
  5
3D
100
AcDbEntity
  8
0
  6
CONTINUOUS
 62
     0
100
AcDbLine
 10
0.0
 20
0.0
 30
0.0
 11
-1.0
 21
0.166667
 31
0.0
  0
LINE
  5
3E
100
AcDbEntity
  8
0
  6
CONTINUOUS
 62
     0
100
AcDbLine
 10
0.0
 20
0.0
 30
0.0
 11
-1.0
 21
-0.166667
 31
0.0
  0
LINE
  5
3F
100
AcDbEntity
  8
0
  6
CONTINUOUS
 62
     0
100
AcDbLine
 10
0.0
 20
0.0
 30
0.0
 11
-1.0
 21
0.083333
 31
0.0
  0
LINE
  5
40
100
AcDbEntity
  8
0
  6
CONTINUOUS
 62
     0
100
AcDbLine
 10
0.0
 20
0.0
 30
0.0
 11
-1.0
 21
-0.083333
 31
0.0
  0
LINE
  5
41
100
AcDbEntity
  8
0
  6
CONTINUOUS
 62
     0
100
AcDbLine
 10
-1.0
 20
0.166667
 30
0.0
 11
-1.0
 21
-0.166667
 31
0.0
  0
ENDBLK
  5
42
100
AcDbEntity
  8
0
100
AcDbBlockEnd
  0
BLOCK
  5
43
100
AcDbEntity
  8
0
100
AcDbBlockBegin
  2
_EX_BCIR
 70
     0
 10
0.0
 20
0.0
 30
0.0
  3
_EX_BCIR
  1

  0
LINE
  5
44
100
AcDbEntity
  8
0
  6
CONTINUOUS
 62
     0
100
AcDbLine
 10
0.0
 20
0.0
 30
0.0
 11
-1.0
 21
0.0
 31
0.0
  0
CIRCLE
  5
45
100
AcDbEntity
  8
0
  6
CONTINUOUS
 62
     0
100
AcDbCircle
 10
0.0
 20
0.0
 30
0.0
 40
0.5
  0
CIRCLE
  5
46
100
AcDbEntity
  8
0
  6
CONTINUOUS
 62
     0
100
AcDbCircle
 10
0.0
 20
0.0
 30
0.0
 40
0.25
  0
ENDBLK
  5
47
100
AcDbEntity
  8
0
100
AcDbBlockEnd
  0
BLOCK
  5
48
100
AcDbEntity
  8
0
100
AcDbBlockBegin
  2
_EX_RCIVIL
 70
     0
 10
0.0
 20
0.0
 30
0.0
  3
_EX_RCIVIL
  1

  0
LINE
  5
49
100
AcDbEntity
  8
0
  6
CONTINUOUS
 62
     0
100
AcDbLine
 10
0.0
 20
0.0
 30
0.0
 11
-1.0
 21
0.0
 31
0.0
  0
LINE
  5
4A
100
AcDbEntity
  8
0
  6
CONTINUOUS
 62
     0
100
AcDbLine
 10
-1.0
 20
-0.25
 30
0.0
 11
0.0
 21
-0.25
 31
0.0
  0
LINE
  5
4B
100
AcDbEntity
  8
0
  6
CONTINUOUS
 62
     0
100
AcDbLine
 10
-1.0
 20
-0.125
 30
0.0
 11
0.0
 21
-0.125
 31
0.0
  0
ENDBLK
  5
4C
100
AcDbEntity
  8
0
100
AcDbBlockEnd
  0
BLOCK
  5
4D
100
AcDbEntity
  8
0
100
AcDbBlockBegin
  2
_EX_SLANT
 70
     0
 10
0.0
 20
0.0
 30
0.0
  3
_EX_SLANT
  1

  0
LINE
  5
4E
100
AcDbEntity
  8
0
  6
CONTINUOUS
 62
     0
100
AcDbLine
 10
0.0
 20
0.0
 30
0.0
 11
-1.0
 21
0.0
 31
0.0
  0
LINE
  5
4F
100
AcDbEntity
  8
0
  6
CONTINUOUS
 62
     0
100
AcDbLine
 10
0.707107
 20
0.707107
 30
0.0
 11
-0.707107
 21
-0.707107
 31
0.0
  0
ENDBLK
  5
50
100
AcDbEntity
  8
0
100
AcDbBlockEnd
  0
BLOCK
  5
51
100
AcDbEntity
  8
0
100
AcDbBlockBegin
  2
_EX_NONE
 70
     0
 10
0.0
 20
0.0
 30
0.0
  3
_EX_NONE
  1

  0
LINE
  5
52
100
AcDbEntity
  8
0
  6
CONTINUOUS
 62
     0
100
AcDbLine
 10
0.0
 20
0.0
 30
0.0
 11
-1.0
 21
0.0
 31
0.0
  0
ENDBLK
  5
53
100
AcDbEntity
  8
0
100
AcDbBlockEnd
  0
BLOCK
  5
54
100
AcDbEntity
  8
0
100
AcDbBlockBegin
  2
_EX_CIVIL
 70
     0
 10
0.0
 20
0.0
 30
0.0
  3
_EX_CIVIL
  1

  0
LINE
  5
55
100
AcDbEntity
  8
0
  6
CONTINUOUS
 62
     0
100
AcDbLine
 10
0.0
 20
0.0
 30
0.0
 11
-1.0
 21
0.0
 31
0.0
  0
LINE
  5
56
100
AcDbEntity
  8
0
  6
CONTINUOUS
 62
     0
100
AcDbLine
 10
-1.0
 20
0.25
 30
0.0
 11
0.0
 21
0.25
 31
0.0
  0
LINE
  5
57
100
AcDbEntity
  8
0
  6
CONTINUOUS
 62
     0
100
AcDbLine
 10
-1.0
 20
0.125
 30
0.0
 11
0.0
 21
0.125
 31
0.0
  0
ENDBLK
  5
58
100
AcDbEntity
  8
0
100
AcDbBlockEnd
  0
BLOCK
  5
59
100
AcDbEntity
  8
0
100
AcDbBlockBegin
  2
_EX_WCIR
 70
     0
 10
0.0
 20
0.0
 30
0.0
  3
_EX_WCIR
  1

  0
LINE
  5
5A
100
AcDbEntity
  8
0
  6
CONTINUOUS
 62
     0
100
AcDbLine
 10
0.0
 20
0.0
 30
0.0
 11
-1.0
 21
0.0
 31
0.0
  0
CIRCLE
  5
5B
100
AcDbEntity
  8
0
  6
CONTINUOUS
 62
     0
100
AcDbCircle
 10
0.0
 20
0.0
 30
0.0
 40
0.5
  0
ENDBLK
  5
5C
100
AcDbEntity
  8
0
100
AcDbBlockEnd
  0
BLOCK
  5
5D
100
AcDbEntity
  8
0
100
AcDbBlockBegin
  2
_EX_WCIR2
 70
     0
 10
0.0
 20
0.0
 30
0.0
  3
_EX_WCIR2
  1

  0
LINE
  5
5E
100
AcDbEntity
  8
0
  6
CONTINUOUS
 62
     0
100
AcDbLine
 10
-0.5
 20
0.0
 30
0.0
 11
-1.0
 21
0.0
 31
0.0
  0
CIRCLE
  5
5F
100
AcDbEntity
  8
0
  6
CONTINUOUS
 62
     0
100
AcDbCircle
 10
0.0
 20
0.0
 30
0.0
 40
0.5
  0
ENDBLK
  5
60
100
AcDbEntity
  8
0
100
AcDbBlockEnd
  0
BLOCK
  5
61
100
AcDbEntity
  8
0
100
AcDbBlockBegin
  2
_EX_WNORM
 70
     0
 10
0.0
 20
0.0
 30
0.0
  3
_EX_WNORM
  1

  0
LINE
  5
62
100
AcDbEntity
  8
0
  6
CONTINUOUS
 62
     0
100
AcDbLine
 10
-1.0
 20
0.0
 30
0.0
 11
-1.0
 21
0.0
 31
0.0
  0
LINE
  5
63
100
AcDbEntity
  8
0
  6
CONTINUOUS
 62
     0
100
AcDbLine
 10
0.0
 20
0.0
 30
0.0
 11
-1.0
 21
0.166667
 31
0.0
  0
LINE
  5
64
100
AcDbEntity
  8
0
  6
CONTINUOUS
 62
     0
100
AcDbLine
 10
0.0
 20
0.0
 30
0.0
 11
-1.0
 21
-0.166667
 31
0.0
  0
LINE
  5
65
100
AcDbEntity
  8
0
  6
CONTINUOUS
 62
     0
100
AcDbLine
 10
-1.0
 20
0.166667
 30
0.0
 11
-1.0
 21
-0.166667
 31
0.0
  0
ENDBLK
  5
66
100
AcDbEntity
  8
0
100
AcDbBlockEnd
  0
BLOCK
  5
67
100
AcDbEntity
  8
0
100
AcDbBlockBegin
  2
_EX_NNORM
 70
     0
 10
0.0
 20
0.0
 30
0.0
  3
_EX_NNORM
  1

  0
LINE
  5
68
100
AcDbEntity
  8
0
  6
CONTINUOUS
 62
     0
100
AcDbLine
 10
0.0
 20
0.0
 30
0.0
 11
-1.0
 21
0.0
 31
0.0
  0
LINE
  5
69
100
AcDbEntity
  8
0
  6
CONTINUOUS
 62
     0
100
AcDbLine
 10
0.0
 20
0.0
 30
0.0
 11
-1.0
 21
0.166667
 31
0.0
  0
LINE
  5
6A
100
AcDbEntity
  8
0
  6
CONTINUOUS
 62
     0
100
AcDbLine
 10
0.0
 20
0.0
 30
0.0
 11
-1.0
 21
-0.166667
 31
0.0
  0
LINE
  5
6B
100
AcDbEntity
  8
0
  6
CONTINUOUS
 62
     0
100
AcDbLine
 10
-1.0
 20
0.166667
 30
0.0
 11
-1.0
 21
-0.166667
 31
0.0
  0
ENDBLK
  5
6C
100
AcDbEntity
  8
0
100
AcDbBlockEnd
  0
BLOCK
  5
6D
100
AcDbEntity
  8
0
100
AcDbBlockBegin
  2
_EX_BBOX
 70
     0
 10
0.0
 20
0.0
 30
0.0
  3
_EX_BBOX
  1

  0
LINE
  5
6E
100
AcDbEntity
  8
0
  6
CONTINUOUS
 62
     0
100
AcDbLine
 10
0.0
 20
0.0
 30
0.0
 11
-1.0
 21
0.0
 31
0.0
  0
LINE
  5
6F
100
AcDbEntity
  8
0
  6
CONTINUOUS
 62
     0
100
AcDbLine
 10
-0.5
 20
0.5
 30
0.0
 11
0.5
 21
0.5
 31
0.0
  0
LINE
  5
70
100
AcDbEntity
  8
0
  6
CONTINUOUS
 62
     0
100
AcDbLine
 10
0.5
 20
0.5
 30
0.0
 11
0.5
 21
-0.5
 31
0.0
  0
LINE
  5
71
100
AcDbEntity
  8
0
  6
CONTINUOUS
 62
     0
100
AcDbLine
 10
0.5
 20
-0.5
 30
0.0
 11
-0.5
 21
-0.5
 31
0.0
  0
LINE
  5
72
100
AcDbEntity
  8
0
  6
CONTINUOUS
 62
     0
100
AcDbLine
 10
-0.5
 20
-0.5
 30
0.0
 11
-0.5
 21
0.5
 31
0.0
  0
LINE
  5
73
100
AcDbEntity
  8
0
  6
CONTINUOUS
 62
     0
100
AcDbLine
 10
-0.25
 20
0.25
 30
0.0
 11
0.25
 21
0.25
 31
0.0
  0
LINE
  5
74
100
AcDbEntity
  8
0
  6
CONTINUOUS
 62
     0
100
AcDbLine
 10
0.25
 20
0.25
 30
0.0
 11
0.25
 21
-0.25
 31
0.0
  0
LINE
  5
75
100
AcDbEntity
  8
0
  6
CONTINUOUS
 62
     0
100
AcDbLine
 10
0.25
 20
-0.25
 30
0.0
 11
-0.25
 21
-0.25
 31
0.0
  0
LINE
  5
76
100
AcDbEntity
  8
0
  6
CONTINUOUS
 62
     0
100
AcDbLine
 10
-0.25
 20
-0.25
 30
0.0
 11
-0.25
 21
0.25
 31
0.0
  0
ENDBLK
  5
77
100
AcDbEntity
  8
0
100
AcDbBlockEnd
  0
BLOCK
  5
78
100
AcDbEntity
  8
0
100
AcDbBlockBegin
  2
_EX_WBOX
 70
     0
 10
0.0
 20
0.0
 30
0.0
  3
_EX_WBOX
  1

  0
LINE
  5
79
100
AcDbEntity
  8
0
  6
CONTINUOUS
 62
     0
100
AcDbLine
 10
-0.5
 20
0.0
 30
0.0
 11
-1.0
 21
0.0
 31
0.0
  0
LINE
  5
7A
100
AcDbEntity
  8
0
  6
CONTINUOUS
 62
     0
100
AcDbLine
 10
-0.5
 20
0.5
 30
0.0
 11
0.5
 21
0.5
 31
0.0
  0
LINE
  5
7B
100
AcDbEntity
  8
0
  6
CONTINUOUS
 62
     0
100
AcDbLine
 10
0.5
 20
0.5
 30
0.0
 11
0.5
 21
-0.5
 31
0.0
  0
LINE
  5
7C
100
AcDbEntity
  8
0
  6
CONTINUOUS
 62
     0
100
AcDbLine
 10
0.5
 20
-0.5
 30
0.0
 11
-0.5
 21
-0.5
 31
0.0
  0
LINE
  5
7D
100
AcDbEntity
  8
0
  6
CONTINUOUS
 62
     0
100
AcDbLine
 10
-0.5
 20
-0.5
 30
0.0
 11
-0.5
 21
0.5
 31
0.0
  0
ENDBLK
  5
7E
100
AcDbEntity
  8
0
100
AcDbBlockEnd
  0
BLOCK
  5
7F
100
AcDbEntity
  8
0
100
AcDbBlockBegin
  2
_EX_INTEGRAL
 70
     0
 10
0.0
 20
0.0
 30
0.0
  3
_EX_INTEGRAL
  1

  0
LINE
  5
80
100
AcDbEntity
  8
0
  6
CONTINUOUS
 62
     0
100
AcDbLine
 10
0.0
 20
0.0
 30
0.0
 11
-1.0
 21
0.0
 31
0.0
  0
ARC
  5
81
100
AcDbEntity
  8
0
  6
CONTINUOUS
 62
     0
100
AcDbCircle
 10
0.542115
 20
0.164992
 30
0.0
 40
0.56667
100
AcDbArc
 50
73.07249
 51
196.927513
  0
ARC
  5
82
100
AcDbEntity
  8
0
  6
CONTINUOUS
 62
     0
100
AcDbCircle
 10
-0.542115
 20
-0.164992
 30
0.0
 40
0.56667
100
AcDbArc
 50
253.072487
 51
16.927513
  0
ENDBLK
  5
83
100
AcDbEntity
  8
0
100
AcDbBlockEnd
  0
ENDSEC
  0
SECTION
  2
ENTITIES
  0
LINE
  5
84
100
AcDbEntity
  8
LAY-1
  6
CONTINUOUS
 62
     7
100
AcDbLine
 10
1264.86353
 20
873.59274
 30
0.0
 11
1265.028037
 21
873.757247
 31
0.0
  0
LINE
  5
85
100
AcDbEntity
  8
LAY-1
  6
CONTINUOUS
 62
     7
100
AcDbLine
 10
1265.09029
 20
873.112394
 30
0.0
 11
1266.35297
 21
874.375074
 31
0.0
  0
LINE
  5
86
100
AcDbEntity
  8
LAY-1
  6
CONTINUOUS
 62
     7
100
AcDbLine
 10
1265.319943
 20
872.63494
 30
0.0
 11
1267.677903
 21
874.9929
 31
0.0
  0
LINE
  5
87
100
AcDbEntity
  8
LAY-1
  6
CONTINUOUS
 62
     7
100
AcDbLine
 10
1265.552466
 20
872.160356
 30
0.0
 11
1269.002837
 21
875.610727
 31
0.0
  0
LINE
  5
88
100
AcDbEntity
  8
LAY-1
  6
CONTINUOUS
 62
     7
100
AcDbLine
 10
1265.787838
 20
871.688621
 30
0.0
 11
1269.526247
 21
875.427031
 31
0.0
  0
LINE
  5
89
100
AcDbEntity
  8
LAY-1
  6
CONTINUOUS
 62
     7
100
AcDbLine
 10
1266.026038
 20
871.219715
 30
0.0
 11
1269.754948
 21
874.948625
 31
0.0
  0
LINE
  5
8A
100
AcDbEntity
  8
LAY-1
  6
CONTINUOUS
 62
     7
100
AcDbLine
 10
1266.267047
 20
870.753617
 30
0.0
 11
1269.986737
 21
874.473307
 31
0.0
  0
LINE
  5
8B
100
AcDbEntity
  8
LAY-1
  6
CONTINUOUS
 62
     7
100
AcDbLine
 10
1266.510845
 20
870.290308
 30
0.0
 11
1270.22159
 21
874.001053
 31
0.0
  0
LINE
  5
8C
100
AcDbEntity
  8
LAY-1
  6
CONTINUOUS
 62
     7
100
AcDbLine
 10
1266.757414
 20
869.829771
 30
0.0
 11
1270.459483
 21
873.531839
 31
0.0
  0
LINE
  5
8D
100
AcDbEntity
  8
LAY-1
  6
CONTINUOUS
 62
     7
100
AcDbLine
 10
1267.006736
 20
869.371986
 30
0.0
 11
1270.700391
 21
873.065641
 31
0.0
  0
LINE
  5
8E
100
AcDbEntity
  8
LAY-1
  6
CONTINUOUS
 62
     7
100
AcDbLine
 10
1267.258794
 20
868.916937
 30
0.0
 11
1270.944295
 21
872.602438
 31
0.0
  0
LINE
  5
8F
100
AcDbEntity
  8
LAY-1
  6
CONTINUOUS
 62
     7
100
AcDbLine
 10
1267.51357
 20
868.464606
 30
0.0
 11
1271.191171
 21
872.142207
 31
0.0
  0
LINE
  5
90
100
AcDbEntity
  8
LAY-1
  6
CONTINUOUS
 62
     7
100
AcDbLine
 10
1267.771049
 20
868.014978
 30
0.0
 11
1271.441
 21
871.68493
 31
0.0
  0
LINE
  5
91
100
AcDbEntity
  8
LAY-1
  6
CONTINUOUS
 62
     7
100
AcDbLine
 10
1268.031215
 20
867.568038
 30
0.0
 11
1271.693762
 21
871.230584
 31
0.0
  0
LINE
  5
92
100
AcDbEntity
  8
LAY-1
  6
CONTINUOUS
 62
     7
100
AcDbLine
 10
1268.294053
 20
867.123769
 30
0.0
 11
1271.949437
 21
870.779153
 31
0.0
  0
LINE
  5
93
100
AcDbEntity
  8
LAY-1
  6
CONTINUOUS
 62
     7
100
AcDbLine
 10
1268.559548
 20
866.682157
 30
0.0
 11
1272.208007
 21
870.330616
 31
0.0
  0
LINE
  5
94
100
AcDbEntity
  8
LAY-1
  6
CONTINUOUS
 62
     7
100
AcDbLine
 10
1268.827687
 20
866.24319
 30
0.0
 11
1272.469455
 21
869.884957
 31
0.0
  0
LINE
  5
95
100
AcDbEntity
  8
LAY-1
  6
CONTINUOUS
 62
     7
100
AcDbLine
 10
1269.098456
 20
865.806852
 30
0.0
 11
1272.733763
 21
869.442158
 31
0.0
  0
LINE
  5
96
100
AcDbEntity
  8
LAY-1
  6
CONTINUOUS
 62
     7
100
AcDbLine
 10
1269.371842
 20
865.373131
 30
0.0
 11
1273.000915
 21
869.002204
 31
0.0
  0
LINE
  5
97
100
AcDbEntity
  8
LAY-1
  6
CONTINUOUS
 62
     7
100
AcDbLine
 10
1269.647833
 20
864.942015
 30
0.0
 11
1273.270895
 21
868.565077
 31
0.0
  0
LINE
  5
98
100
AcDbEntity
  8
LAY-1
  6
CONTINUOUS
 62
     7
100
AcDbLine
 10
1269.926416
 20
864.513491
 30
0.0
 11
1273.543688
 21
868.130764
 31
0.0
  0
LINE
  5
99
100
AcDbEntity
  8
LAY-1
  6
CONTINUOUS
 62
     7
100
AcDbLine
 10
1270.207581
 20
864.087549
 30
0.0
 11
1273.81928
 21
867.699249
 31
0.0
  0
LINE
  5
9A
100
AcDbEntity
  8
LAY-1
  6
CONTINUOUS
 62
     7
100
AcDbLine
 10
1270.491315
 20
863.664176
 30
0.0
 11
1274.097657
 21
867.270519
 31
0.0
  0
LINE
  5
9B
100
AcDbEntity
  8
LAY-1
  6
CONTINUOUS
 62
     7
100
AcDbLine
 10
1270.777609
 20
863.243363
 30
0.0
 11
1274.378805
 21
866.84456
 31
0.0
  0
LINE
  5
9C
100
AcDbEntity
  8
LAY-1
  6
CONTINUOUS
 62
     7
100
AcDbLine
 10
1271.066452
 20
862.8251
 30
0.0
 11
1274.662712
 21
866.42136
 31
0.0
  0
LINE
  5
9D
100
AcDbEntity
  8
LAY-1
  6
CONTINUOUS
 62
     7
100
AcDbLine
 10
1271.357834
 20
862.409375
 30
0.0
 11
1274.949365
 21
866.000906
 31
0.0
  0
LINE
  5
9E
100
AcDbEntity
  8
LAY-1
  6
CONTINUOUS
 62
     7
100
AcDbLine
 10
1271.651747
 20
861.996181
 30
0.0
 11
1275.238753
 21
865.583188
 31
0.0
  0
LINE
  5
9F
100
AcDbEntity
  8
LAY-1
  6
CONTINUOUS
 62
     7
100
AcDbLine
 10
1271.948181
 20
861.585509
 30
0.0
 11
1275.530865
 21
865.168192
 31
0.0
  0
LINE
  5
A0
100
AcDbEntity
  8
LAY-1
  6
CONTINUOUS
 62
     7
100
AcDbLine
 10
1272.247128
 20
861.177349
 30
0.0
 11
1275.82569
 21
864.75591
 31
0.0
  0
LINE
  5
A1
100
AcDbEntity
  8
LAY-1
  6
CONTINUOUS
 62
     7
100
AcDbLine
 10
1272.54858
 20
860.771694
 30
0.0
 11
1276.123218
 21
864.346332
 31
0.0
  0
LINE
  5
A2
100
AcDbEntity
  8
LAY-1
  6
CONTINUOUS
 62
     7
100
AcDbLine
 10
1272.852529
 20
860.368536
 30
0.0
 11
1276.423439
 21
863.939446
 31
0.0
  0
LINE
  5
A3
100
AcDbEntity
  8
LAY-1
  6
CONTINUOUS
 62
     7
100
AcDbLine
 10
1273.158968
 20
859.967868
 30
0.0
 11
1276.726345
 21
863.535245
 31
0.0
  0
LINE
  5
A4
100
AcDbEntity
  8
LAY-1
  6
CONTINUOUS
 62
     7
100
AcDbLine
 10
1273.467889
 20
859.569683
 30
0.0
 11
1277.031927
 21
863.13372
 31
0.0
  0
LINE
  5
A5
100
AcDbEntity
  8
LAY-1
  6
CONTINUOUS
 62
     7
100
AcDbLine
 10
1273.779288
 20
859.173975
 30
0.0
 11
1277.340176
 21
862.734863
 31
0.0
  0
LINE
  5
A6
100
AcDbEntity
  8
LAY-1
  6
CONTINUOUS
 62
     7
100
AcDbLine
 10
1274.093157
 20
858.780737
 30
0.0
 11
1277.651086
 21
862.338666
 31
0.0
  0
LINE
  5
A7
100
AcDbEntity
  8
LAY-1
  6
CONTINUOUS
 62
     7
100
AcDbLine
 10
1274.40949
 20
858.389964
 30
0.0
 11
1277.964649
 21
861.945123
 31
0.0
  0
LINE
  5
A8
100
AcDbEntity
  8
LAY-1
  6
CONTINUOUS
 62
     7
100
AcDbLine
 10
1274.728283
 20
858.00165
 30
0.0
 11
1278.280859
 21
861.554225
 31
0.0
  0
LINE
  5
A9
100
AcDbEntity
  8
LAY-1
  6
CONTINUOUS
 62
     7
100
AcDbLine
 10
1275.049531
 20
857.61579
 30
0.0
 11
1278.599708
 21
861.165968
 31
0.0
  0
LINE
  5
AA
100
AcDbEntity
  8
LAY-1
  6
CONTINUOUS
 62
     7
100
AcDbLine
 10
1275.373228
 20
857.232381
 30
0.0
 11
1278.921193
 21
860.780346
 31
0.0
  0
LINE
  5
AB
100
AcDbEntity
  8
LAY-1
  6
CONTINUOUS
 62
     7
100
AcDbLine
 10
1275.69937
 20
856.851417
 30
0.0
 11
1279.245306
 21
860.397353
 31
0.0
  0
LINE
  5
AC
100
AcDbEntity
  8
LAY-1
  6
CONTINUOUS
 62
     7
100
AcDbLine
 10
1276.027955
 20
856.472894
 30
0.0
 11
1279.572044
 21
860.016984
 31
0.0
  0
LINE
  5
AD
100
AcDbEntity
  8
LAY-1
  6
CONTINUOUS
 62
     7
100
AcDbLine
 10
1276.358977
 20
856.096809
 30
0.0
 11
1279.901402
 21
859.639235
 31
0.0
  0
LINE
  5
AE
100
AcDbEntity
  8
LAY-1
  6
CONTINUOUS
 62
     7
100
AcDbLine
 10
1276.692434
 20
855.72316
 30
0.0
 11
1280.233376
 21
859.264102
 31
0.0
  0
LINE
  5
AF
100
AcDbEntity
  8
LAY-1
  6
CONTINUOUS
 62
     7
100
AcDbLine
 10
1277.028323
 20
855.351942
 30
0.0
 11
1280.567963
 21
858.891582
 31
0.0
  0
LINE
  5
B0
100
AcDbEntity
  8
LAY-1
  6
CONTINUOUS
 62
     7
100
AcDbLine
 10
1277.366641
 20
854.983154
 30
0.0
 11
1280.905159
 21
858.521671
 31
0.0
  0
LINE
  5
B1
100
AcDbEntity
  8
LAY-1
  6
CONTINUOUS
 62
     7
100
AcDbLine
 10
1277.707387
 20
854.616793
 30
0.0
 11
1281.244962
 21
858.154367
 31
0.0
  0
LINE
  5
B2
100
AcDbEntity
  8
LAY-1
  6
CONTINUOUS
 62
     7
100
AcDbLine
 10
1278.050559
 20
854.252857
 30
0.0
 11
1281.587369
 21
857.789668
 31
0.0
  0
LINE
  5
B3
100
AcDbEntity
  8
LAY-1
  6
CONTINUOUS
 62
     7
100
AcDbLine
 10
1278.396154
 20
853.891346
 30
0.0
 11
1281.932379
 21
857.427571
 31
0.0
  0
LINE
  5
B4
100
AcDbEntity
  8
LAY-1
  6
CONTINUOUS
 62
     7
100
AcDbLine
 10
1278.744173
 20
853.532258
 30
0.0
 11
1282.27999
 21
857.068076
 31
0.0
  0
LINE
  5
B5
100
AcDbEntity
  8
LAY-1
  6
CONTINUOUS
 62
     7
100
AcDbLine
 10
1279.094613
 20
853.175592
 30
0.0
 11
1282.630202
 21
856.71118
 31
0.0
  0
LINE
  5
B6
100
AcDbEntity
  8
LAY-1
  6
CONTINUOUS
 62
     7
100
AcDbLine
 10
1279.447476
 20
852.821347
 30
0.0
 11
1282.983014
 21
856.356885
 31
0.0
  0
LINE
  5
B7
100
AcDbEntity
  8
LAY-1
  6
CONTINUOUS
 62
     7
100
AcDbLine
 10
1279.802759
 20
852.469524
 30
0.0
 11
1283.338425
 21
856.00519
 31
0.0
  0
LINE
  5
B8
100
AcDbEntity
  8
LAY-1
  6
CONTINUOUS
 62
     7
100
AcDbLine
 10
1280.160465
 20
852.120123
 30
0.0
 11
1283.696436
 21
855.656094
 31
0.0
  0
LINE
  5
B9
100
AcDbEntity
  8
LAY-1
  6
CONTINUOUS
 62
     7
100
AcDbLine
 10
1280.520594
 20
851.773145
 30
0.0
 11
1284.057048
 21
855.309599
 31
0.0
  0
LINE
  5
BA
100
AcDbEntity
  8
LAY-1
  6
CONTINUOUS
 62
     7
100
AcDbLine
 10
1280.883145
 20
851.42859
 30
0.0
 11
1284.420262
 21
854.965706
 31
0.0
  0
LINE
  5
BB
100
AcDbEntity
  8
LAY-1
  6
CONTINUOUS
 62
     7
100
AcDbLine
 10
1281.248122
 20
851.086459
 30
0.0
 11
1284.786079
 21
854.624417
 31
0.0
  0
LINE
  5
BC
100
AcDbEntity
  8
LAY-1
  6
CONTINUOUS
 62
     7
100
AcDbLine
 10
1281.615524
 20
850.746755
 30
0.0
 11
1285.154502
 21
854.285733
 31
0.0
  0
LINE
  5
BD
100
AcDbEntity
  8
LAY-1
  6
CONTINUOUS
 62
     7
100
AcDbLine
 10
1281.985355
 20
850.409479
 30
0.0
 11
1285.525532
 21
853.949657
 31
0.0
  0
LINE
  5
BE
100
AcDbEntity
  8
LAY-1
  6
CONTINUOUS
 62
     7
100
AcDbLine
 10
1282.357617
 20
850.074634
 30
0.0
 11
1285.899174
 21
853.616191
 31
0.0
  0
LINE
  5
BF
100
AcDbEntity
  8
LAY-1
  6
CONTINUOUS
 62
     7
100
AcDbLine
 10
1282.732311
 20
849.742222
 30
0.0
 11
1286.275429
 21
853.285339
 31
0.0
  0
LINE
  5
C0
100
AcDbEntity
  8
LAY-1
  6
CONTINUOUS
 62
     7
100
AcDbLine
 10
1283.109442
 20
849.412246
 30
0.0
 11
1286.654302
 21
852.957106
 31
0.0
  0
LINE
  5
C1
100
AcDbEntity
  8
LAY-1
  6
CONTINUOUS
 62
     7
100
AcDbLine
 10
1283.489012
 20
849.084709
 30
0.0
 11
1287.035797
 21
852.631494
 31
0.0
  0
LINE
  5
C2
100
AcDbEntity
  8
LAY-1
  6
CONTINUOUS
 62
     7
100
AcDbLine
 10
1283.871026
 20
848.759616
 30
0.0
 11
1287.419918
 21
852.308508
 31
0.0
  0
LINE
  5
C3
100
AcDbEntity
  8
LAY-1
  6
CONTINUOUS
 62
     7
100
AcDbLine
 10
1284.255486
 20
848.43697
 30
0.0
 11
1287.806671
 21
851.988154
 31
0.0
  0
LINE
  5
C4
100
AcDbEntity
  8
LAY-1
  6
CONTINUOUS
 62
     7
100
AcDbLine
 10
1284.642399
 20
848.116775
 30
0.0
 11
1288.19606
 21
851.670437
 31
0.0
  0
LINE
  5
C5
100
AcDbEntity
  8
LAY-1
  6
CONTINUOUS
 62
     7
100
AcDbLine
 10
1285.031768
 20
847.799038
 30
0.0
 11
1288.588093
 21
851.355363
 31
0.0
  0
LINE
  5
C6
100
AcDbEntity
  8
LAY-1
  6
CONTINUOUS
 62
     7
100
AcDbLine
 10
1285.423598
 20
847.483761
 30
0.0
 11
1288.982775
 21
851.042938
 31
0.0
  0
LINE
  5
C7
100
AcDbEntity
  8
LAY-1
  6
CONTINUOUS
 62
     7
100
AcDbLine
 10
1285.817896
 20
847.170952
 30
0.0
 11
1289.380113
 21
850.733169
 31
0.0
  0
LINE
  5
C8
100
AcDbEntity
  8
LAY-1
  6
CONTINUOUS
 62
     7
100
AcDbLine
 10
1286.214666
 20
846.860616
 30
0.0
 11
1289.780114
 21
850.426064
 31
0.0
  0
LINE
  5
C9
100
AcDbEntity
  8
LAY-1
  6
CONTINUOUS
 62
     7
100
AcDbLine
 10
1286.613916
 20
846.552759
 30
0.0
 11
1290.182787
 21
850.121629
 31
0.0
  0
LINE
  5
CA
100
AcDbEntity
  8
LAY-1
  6
CONTINUOUS
 62
     7
100
AcDbLine
 10
1287.015652
 20
846.247388
 30
0.0
 11
1290.588139
 21
849.819875
 31
0.0
  0
LINE
  5
CB
100
AcDbEntity
  8
LAY-1
  6
CONTINUOUS
 62
     7
100
AcDbLine
 10
1287.419881
 20
845.94451
 30
0.0
 11
1290.996179
 21
849.520808
 31
0.0
  0
LINE
  5
CC
100
AcDbEntity
  8
LAY-1
  6
CONTINUOUS
 62
     7
100
AcDbLine
 10
1287.82661
 20
845.644133
 30
0.0
 11
1291.406917
 21
849.22444
 31
0.0
  0
LINE
  5
CD
100
AcDbEntity
  8
LAY-1
  6
CONTINUOUS
 62
     7
100
AcDbLine
 10
1288.235848
 20
845.346264
 30
0.0
 11
1291.820363
 21
848.930778
 31
0.0
  0
LINE
  5
CE
100
AcDbEntity
  8
LAY-1
  6
CONTINUOUS
 62
     7
100
AcDbLine
 10
1288.647602
 20
845.050911
 30
0.0
 11
1292.236525
 21
848.639834
 31
0.0
  0
LINE
  5
CF
100
AcDbEntity
  8
LAY-1
  6
CONTINUOUS
 62
     7
100
AcDbLine
 10
1289.061881
 20
844.758083
 30
0.0
 11
1292.655417
 21
848.351619
 31
0.0
  0
LINE
  5
D0
100
AcDbEntity
  8
LAY-1
  6
CONTINUOUS
 62
     7
100
AcDbLine
 10
1289.478694
 20
844.46779
 30
0.0
 11
1293.077048
 21
848.066143
 31
0.0
  0
LINE
  5
D1
100
AcDbEntity
  8
LAY-1
  6
CONTINUOUS
 62
     7
100
AcDbLine
 10
1289.898051
 20
844.18004
 30
0.0
 11
1293.501431
 21
847.783419
 31
0.0
  0
LINE
  5
D2
100
AcDbEntity
  8
LAY-1
  6
CONTINUOUS
 62
     7
100
AcDbLine
 10
1290.319961
 20
843.894843
 30
0.0
 11
1293.928577
 21
847.503459
 31
0.0
  0
LINE
  5
D3
100
AcDbEntity
  8
LAY-1
  6
CONTINUOUS
 62
     7
100
AcDbLine
 10
1290.744436
 20
843.612211
 30
0.0
 11
1294.358501
 21
847.226276
 31
0.0
  0
LINE
  5
D4
100
AcDbEntity
  8
LAY-1
  6
CONTINUOUS
 62
     7
100
AcDbLine
 10
1291.171485
 20
843.332153
 30
0.0
 11
1294.791216
 21
846.951884
 31
0.0
  0
LINE
  5
D5
100
AcDbEntity
  8
LAY-1
  6
CONTINUOUS
 62
     7
100
AcDbLine
 10
1291.60112
 20
843.054681
 30
0.0
 11
1295.226735
 21
846.680296
 31
0.0
  0
LINE
  5
D6
100
AcDbEntity
  8
LAY-1
  6
CONTINUOUS
 62
     7
100
AcDbLine
 10
1292.033353
 20
842.779807
 30
0.0
 11
1295.665074
 21
846.411528
 31
0.0
  0
LINE
  5
D7
100
AcDbEntity
  8
LAY-1
  6
CONTINUOUS
 62
     7
100
AcDbLine
 10
1292.468195
 20
842.507543
 30
0.0
 11
1296.106247
 21
846.145595
 31
0.0
  0
LINE
  5
D8
100
AcDbEntity
  8
LAY-1
  6
CONTINUOUS
 62
     7
100
AcDbLine
 10
1292.90566
 20
842.237901
 30
0.0
 11
1296.550272
 21
845.882513
 31
0.0
  0
LINE
  5
D9
100
AcDbEntity
  8
LAY-1
  6
CONTINUOUS
 62
     7
100
AcDbLine
 10
1293.345761
 20
841.970896
 30
0.0
 11
1296.997164
 21
845.622298
 31
0.0
  0
LINE
  5
DA
100
AcDbEntity
  8
LAY-1
  6
CONTINUOUS
 62
     7
100
AcDbLine
 10
1293.788512
 20
841.706539
 30
0.0
 11
1297.446941
 21
845.364969
 31
0.0
  0
LINE
  5
DB
100
AcDbEntity
  8
LAY-1
  6
CONTINUOUS
 62
     7
100
AcDbLine
 10
1294.233926
 20
841.444846
 30
0.0
 11
1297.899621
 21
845.110542
 31
0.0
  0
LINE
  5
DC
100
AcDbEntity
  8
LAY-1
  6
CONTINUOUS
 62
     7
100
AcDbLine
 10
1294.682018
 20
841.185832
 30
0.0
 11
1298.355223
 21
844.859037
 31
0.0
  0
LINE
  5
DD
100
AcDbEntity
  8
LAY-1
  6
CONTINUOUS
 62
     7
100
AcDbLine
 10
1295.132804
 20
840.929511
 30
0.0
 11
1298.813766
 21
844.610473
 31
0.0
  0
LINE
  5
DE
100
AcDbEntity
  8
LAY-1
  6
CONTINUOUS
 62
     7
100
AcDbLine
 10
1295.5863
 20
840.6759
 30
0.0
 11
1299.275269
 21
844.36487
 31
0.0
  0
LINE
  5
DF
100
AcDbEntity
  8
LAY-1
  6
CONTINUOUS
 62
     7
100
AcDbLine
 10
1296.042521
 20
840.425015
 30
0.0
 11
1299.739756
 21
844.122249
 31
0.0
  0
LINE
  5
E0
100
AcDbEntity
  8
LAY-1
  6
CONTINUOUS
 62
     7
100
AcDbLine
 10
1296.501485
 20
840.176872
 30
0.0
 11
1300.207246
 21
843.882632
 31
0.0
  0
LINE
  5
E1
100
AcDbEntity
  8
LAY-1
  6
CONTINUOUS
 62
     7
100
AcDbLine
 10
1296.96321
 20
839.93149
 30
0.0
 11
1300.677762
 21
843.646042
 31
0.0
  0
LINE
  5
E2
100
AcDbEntity
  8
LAY-1
  6
CONTINUOUS
 62
     7
100
AcDbLine
 10
1297.427714
 20
839.688887
 30
0.0
 11
1301.151328
 21
843.412501
 31
0.0
  0
LINE
  5
E3
100
AcDbEntity
  8
LAY-1
  6
CONTINUOUS
 62
     7
100
AcDbLine
 10
1297.895015
 20
839.449081
 30
0.0
 11
1301.627968
 21
843.182035
 31
0.0
  0
LINE
  5
E4
100
AcDbEntity
  8
LAY-1
  6
CONTINUOUS
 62
     7
100
AcDbLine
 10
1298.365133
 20
839.212093
 30
0.0
 11
1302.107707
 21
842.954667
 31
0.0
  0
LINE
  5
E5
100
AcDbEntity
  8
LAY-1
  6
CONTINUOUS
 62
     7
100
AcDbLine
 10
1298.838088
 20
838.977941
 30
0.0
 11
1302.590572
 21
842.730424
 31
0.0
  0
LINE
  5
E6
100
AcDbEntity
  8
LAY-1
  6
CONTINUOUS
 62
     7
100
AcDbLine
 10
1299.313901
 20
838.746648
 30
0.0
 11
1303.076588
 21
842.509334
 31
0.0
  0
LINE
  5
E7
100
AcDbEntity
  8
LAY-1
  6
CONTINUOUS
 62
     7
100
AcDbLine
 10
1299.792594
 20
838.518234
 30
0.0
 11
1303.565784
 21
842.291423
 31
0.0
  0
LINE
  5
E8
100
AcDbEntity
  8
LAY-1
  6
CONTINUOUS
 62
     7
100
AcDbLine
 10
1300.274189
 20
838.292722
 30
0.0
 11
1304.058189
 21
842.076722
 31
0.0
  0
LINE
  5
E9
100
AcDbEntity
  8
LAY-1
  6
CONTINUOUS
 62
     7
100
AcDbLine
 10
1300.758709
 20
838.070135
 30
0.0
 11
1304.553833
 21
841.865259
 31
0.0
  0
LINE
  5
EA
100
AcDbEntity
  8
LAY-1
  6
CONTINUOUS
 62
     7
100
AcDbLine
 10
1301.246178
 20
837.850497
 30
0.0
 11
1305.052748
 21
841.657067
 31
0.0
  0
LINE
  5
EB
100
AcDbEntity
  8
LAY-1
  6
CONTINUOUS
 62
     7
100
AcDbLine
 10
1301.73662
 20
837.633832
 30
0.0
 11
1305.554964
 21
841.452176
 31
0.0
  0
LINE
  5
EC
100
AcDbEntity
  8
LAY-1
  6
CONTINUOUS
 62
     7
100
AcDbLine
 10
1302.230061
 20
837.420167
 30
0.0
 11
1306.060516
 21
841.250622
 31
0.0
  0
LINE
  5
ED
100
AcDbEntity
  8
LAY-1
  6
CONTINUOUS
 62
     7
100
AcDbLine
 10
1302.726528
 20
837.209526
 30
0.0
 11
1306.569439
 21
841.052437
 31
0.0
  0
LINE
  5
EE
100
AcDbEntity
  8
LAY-1
  6
CONTINUOUS
 62
     7
100
AcDbLine
 10
1303.226046
 20
837.001938
 30
0.0
 11
1307.081767
 21
840.857659
 31
0.0
  0
LINE
  5
EF
100
AcDbEntity
  8
LAY-1
  6
CONTINUOUS
 62
     7
100
AcDbLine
 10
1303.728646
 20
836.797431
 30
0.0
 11
1307.597539
 21
840.666324
 31
0.0
  0
LINE
  5
F0
100
AcDbEntity
  8
LAY-1
  6
CONTINUOUS
 62
     7
100
AcDbLine
 10
1304.234355
 20
836.596034
 30
0.0
 11
1308.116793
 21
840.478471
 31
0.0
  0
LINE
  5
F1
100
AcDbEntity
  8
LAY-1
  6
CONTINUOUS
 62
     7
100
AcDbLine
 10
1304.743205
 20
836.397776
 30
0.0
 11
1308.639569
 21
840.29414
 31
0.0
  0
LINE
  5
F2
100
AcDbEntity
  8
LAY-1
  6
CONTINUOUS
 62
     7
100
AcDbLine
 10
1305.255225
 20
836.20269
 30
0.0
 11
1309.165908
 21
840.113373
 31
0.0
  0
LINE
  5
F3
100
AcDbEntity
  8
LAY-1
  6
CONTINUOUS
 62
     7
100
AcDbLine
 10
1305.770448
 20
836.010806
 30
0.0
 11
1309.695854
 21
839.936212
 31
0.0
  0
LINE
  5
F4
100
AcDbEntity
  8
LAY-1
  6
CONTINUOUS
 62
     7
100
AcDbLine
 10
1306.288908
 20
835.822159
 30
0.0
 11
1310.22945
 21
839.762701
 31
0.0
  0
LINE
  5
F5
100
AcDbEntity
  8
LAY-1
  6
CONTINUOUS
 62
     7
100
AcDbLine
 10
1306.810638
 20
835.636783
 30
0.0
 11
1310.766744
 21
839.592889
 31
0.0
  0
LINE
  5
F6
100
AcDbEntity
  8
LAY-1
  6
CONTINUOUS
 62
     7
100
AcDbLine
 10
1307.335675
 20
835.454713
 30
0.0
 11
1311.307784
 21
839.426821
 31
0.0
  0
LINE
  5
F7
100
AcDbEntity
  8
LAY-1
  6
CONTINUOUS
 62
     7
100
AcDbLine
 10
1307.864055
 20
835.275986
 30
0.0
 11
1311.852618
 21
839.264549
 31
0.0
  0
LINE
  5
F8
100
AcDbEntity
  8
LAY-1
  6
CONTINUOUS
 62
     7
100
AcDbLine
 10
1308.395817
 20
835.100641
 30
0.0
 11
1312.4013
 21
839.106124
 31
0.0
  0
LINE
  5
F9
100
AcDbEntity
  8
LAY-1
  6
CONTINUOUS
 62
     7
100
AcDbLine
 10
1308.930999
 20
834.928717
 30
0.0
 11
1312.953883
 21
838.951601
 31
0.0
  0
LINE
  5
FA
100
AcDbEntity
  8
LAY-1
  6
CONTINUOUS
 62
     7
100
AcDbLine
 10
1314.651823
 20
840.64954
 30
0.0
 11
1314.770276
 21
840.767994
 31
0.0
  0
LINE
  5
FB
100
AcDbEntity
  8
LAY-1
  6
CONTINUOUS
 62
     7
100
AcDbLine
 10
1309.469643
 20
834.760254
 30
0.0
 11
1313.510424
 21
838.801034
 31
0.0
  0
LINE
  5
FC
100
AcDbEntity
  8
LAY-1
  6
CONTINUOUS
 62
     7
100
AcDbLine
 10
1314.50045
 20
839.79106
 30
0.0
 11
1315.061489
 21
840.352099
 31
0.0
  0
LINE
  5
FD
100
AcDbEntity
  8
LAY-1
  6
CONTINUOUS
 62
     7
100
AcDbLine
 10
1310.011791
 20
834.595295
 30
0.0
 11
1314.070979
 21
838.654483
 31
0.0
  0
LINE
  5
FE
100
AcDbEntity
  8
LAY-1
  6
CONTINUOUS
 62
     7
100
AcDbLine
 10
1314.349077
 20
838.93258
 30
0.0
 11
1315.352701
 21
839.936205
 31
0.0
  0
LINE
  5
FF
100
AcDbEntity
  8
LAY-1
  6
CONTINUOUS
 62
     7
100
AcDbLine
 10
1310.557487
 20
834.433884
 30
0.0
 11
1315.643914
 21
839.520311
 31
0.0
  0
LINE
  5
100
100
AcDbEntity
  8
LAY-1
  6
CONTINUOUS
 62
     7
100
AcDbLine
 10
1311.106775
 20
834.276066
 30
0.0
 11
1315.935126
 21
839.104416
 31
0.0
  0
LINE
  5
101
100
AcDbEntity
  8
LAY-1
  6
CONTINUOUS
 62
     7
100
AcDbLine
 10
1311.659704
 20
834.121888
 30
0.0
 11
1316.226338
 21
838.688522
 31
0.0
  0
LINE
  5
102
100
AcDbEntity
  8
LAY-1
  6
CONTINUOUS
 62
     7
100
AcDbLine
 10
1312.216322
 20
833.971399
 30
0.0
 11
1316.517551
 21
838.272627
 31
0.0
  0
LINE
  5
103
100
AcDbEntity
  8
LAY-1
  6
CONTINUOUS
 62
     7
100
AcDbLine
 10
1312.776679
 20
833.824649
 30
0.0
 11
1316.808763
 21
837.856733
 31
0.0
  0
LINE
  5
104
100
AcDbEntity
  8
LAY-1
  6
CONTINUOUS
 62
     7
100
AcDbLine
 10
1313.340828
 20
833.681691
 30
0.0
 11
1317.099975
 21
837.440839
 31
0.0
  0
LINE
  5
105
100
AcDbEntity
  8
LAY-1
  6
CONTINUOUS
 62
     7
100
AcDbLine
 10
1313.289464
 20
832.923221
 30
0.0
 11
1317.391188
 21
837.024944
 31
0.0
  0
LINE
  5
106
100
AcDbEntity
  8
LAY-1
  6
CONTINUOUS
 62
     7
100
AcDbLine
 10
1313.138091
 20
832.064741
 30
0.0
 11
1317.6824
 21
836.60905
 31
0.0
  0
LINE
  5
107
100
AcDbEntity
  8
LAY-1
  6
CONTINUOUS
 62
     7
100
AcDbLine
 10
1312.986718
 20
831.206261
 30
0.0
 11
1317.973613
 21
836.193155
 31
0.0
  0
LINE
  5
108
100
AcDbEntity
  8
LAY-1
  6
CONTINUOUS
 62
     7
100
AcDbLine
 10
1314.833604
 20
832.34604
 30
0.0
 11
1318.264825
 21
835.777261
 31
0.0
  0
LINE
  5
109
100
AcDbEntity
  8
LAY-1
  6
CONTINUOUS
 62
     7
100
AcDbLine
 10
1317.192259
 20
833.997588
 30
0.0
 11
1318.556037
 21
835.361367
 31
0.0
  0
LINE
  5
10A
100
AcDbEntity
  8
LAY-1
  6
CONTINUOUS
 62
     7
100
AcDbLine
 10
1281.408976
 20
850.937157
 30
0.0
 11
1270.908369
 21
863.053242
 31
0.0
  0
LINE
  5
10B
100
AcDbEntity
  8
LAY-1
  6
CONTINUOUS
 62
     7
100
AcDbLine
 10
1284.190356
 20
848.491312
 30
0.0
 11
1268.882678
 21
866.154018
 31
0.0
  0
LINE
  5
10C
100
AcDbEntity
  8
LAY-1
  6
CONTINUOUS
 62
     7
100
AcDbLine
 10
1286.368586
 20
846.74141
 30
0.0
 11
1267.460137
 21
868.55885
 31
0.0
  0
LINE
  5
10D
100
AcDbEntity
  8
LAY-1
  6
CONTINUOUS
 62
     7
100
AcDbLine
 10
1288.245242
 20
845.339477
 30
0.0
 11
1266.33917
 21
870.615714
 31
0.0
  0
LINE
  5
10E
100
AcDbEntity
  8
LAY-1
  6
CONTINUOUS
 62
     7
100
AcDbLine
 10
1289.931419
 20
844.157327
 30
0.0
 11
1265.408682
 21
872.452794
 31
0.0
  0
LINE
  5
10F
100
AcDbEntity
  8
LAY-1
  6
CONTINUOUS
 62
     7
100
AcDbLine
 10
1291.482882
 20
843.130618
 30
0.0
 11
1264.965198
 21
873.727945
 31
0.0
  0
LINE
  5
110
100
AcDbEntity
  8
LAY-1
  6
CONTINUOUS
 62
     7
100
AcDbLine
 10
1292.932362
 20
842.22158
 30
0.0
 11
1265.436413
 21
873.947676
 31
0.0
  0
LINE
  5
111
100
AcDbEntity
  8
LAY-1
  6
CONTINUOUS
 62
     7
100
AcDbLine
 10
1294.301031
 20
841.405787
 30
0.0
 11
1265.907627
 21
874.167407
 31
0.0
  0
LINE
  5
112
100
AcDbEntity
  8
LAY-1
  6
CONTINUOUS
 62
     7
100
AcDbLine
 10
1295.603523
 20
840.666352
 30
0.0
 11
1266.378841
 21
874.387138
 31
0.0
  0
LINE
  5
113
100
AcDbEntity
  8
LAY-1
  6
CONTINUOUS
 62
     7
100
AcDbLine
 10
1296.850456
 20
839.991022
 30
0.0
 11
1266.850056
 21
874.606869
 31
0.0
  0
LINE
  5
114
100
AcDbEntity
  8
LAY-1
  6
CONTINUOUS
 62
     7
100
AcDbLine
 10
1298.049831
 20
839.370568
 30
0.0
 11
1285.003862
 21
854.423609
 31
0.0
  0
LINE
  5
115
100
AcDbEntity
  8
LAY-1
  6
CONTINUOUS
 62
     7
100
AcDbLine
 10
1274.870374
 20
866.116095
 30
0.0
 11
1267.32127
 21
874.8266
 31
0.0
  0
LINE
  5
116
100
AcDbEntity
  8
LAY-1
  6
CONTINUOUS
 62
     7
100
AcDbLine
 10
1299.207852
 20
838.79783
 30
0.0
 11
1287.700272
 21
852.075806
 31
0.0
  0
LINE
  5
117
100
AcDbEntity
  8
LAY-1
  6
CONTINUOUS
 62
     7
100
AcDbLine
 10
1272.929653
 20
869.118828
 30
0.0
 11
1267.792484
 21
875.04633
 31
0.0
  0
LINE
  5
118
100
AcDbEntity
  8
LAY-1
  6
CONTINUOUS
 62
     7
100
AcDbLine
 10
1300.329449
 20
838.267119
 30
0.0
 11
1289.814168
 21
850.400135
 31
0.0
  0
LINE
  5
119
100
AcDbEntity
  8
LAY-1
  6
CONTINUOUS
 62
     7
100
AcDbLine
 10
1271.571446
 20
871.44943
 30
0.0
 11
1268.263699
 21
875.266061
 31
0.0
  0
LINE
  5
11A
100
AcDbEntity
  8
LAY-1
  6
CONTINUOUS
 62
     7
100
AcDbLine
 10
1301.418616
 20
837.773827
 30
0.0
 11
1291.636691
 21
849.060664
 31
0.0
  0
LINE
  5
11B
100
AcDbEntity
  8
LAY-1
  6
CONTINUOUS
 62
     7
100
AcDbLine
 10
1270.504612
 20
873.443832
 30
0.0
 11
1268.734913
 21
875.485792
 31
0.0
  0
LINE
  5
11C
100
AcDbEntity
  8
LAY-1
  6
CONTINUOUS
 62
     7
100
AcDbLine
 10
1302.478645
 20
837.314157
 30
0.0
 11
1293.275106
 21
847.933625
 31
0.0
  0
LINE
  5
11D
100
AcDbEntity
  8
LAY-1
  6
CONTINUOUS
 62
     7
100
AcDbLine
 10
1269.621886
 20
875.225801
 30
0.0
 11
1269.206127
 21
875.705523
 31
0.0
  0
LINE
  5
11E
100
AcDbEntity
  8
LAY-1
  6
CONTINUOUS
 62
     7
100
AcDbLine
 10
1303.512285
 20
836.884934
 30
0.0
 11
1294.783259
 21
846.956888
 31
0.0
  0
LINE
  5
11F
100
AcDbEntity
  8
LAY-1
  6
CONTINUOUS
 62
     7
100
AcDbLine
 10
1304.521863
 20
836.483476
 30
0.0
 11
1296.192762
 21
846.093978
 31
0.0
  0
LINE
  5
120
100
AcDbEntity
  8
LAY-1
  6
CONTINUOUS
 62
     7
100
AcDbLine
 10
1305.509368
 20
836.107487
 30
0.0
 11
1297.524064
 21
845.3213
 31
0.0
  0
LINE
  5
121
100
AcDbEntity
  8
LAY-1
  6
CONTINUOUS
 62
     7
100
AcDbLine
 10
1306.476517
 20
835.754986
 30
0.0
 11
1298.791299
 21
844.622545
 31
0.0
  0
LINE
  5
122
100
AcDbEntity
  8
LAY-1
  6
CONTINUOUS
 62
     7
100
AcDbLine
 10
1307.424804
 20
835.424249
 30
0.0
 11
1300.004728
 21
843.985875
 31
0.0
  0
LINE
  5
123
100
AcDbEntity
  8
LAY-1
  6
CONTINUOUS
 62
     7
100
AcDbLine
 10
1308.355538
 20
835.113765
 30
0.0
 11
1301.172077
 21
843.402373
 31
0.0
  0
LINE
  5
124
100
AcDbEntity
  8
LAY-1
  6
CONTINUOUS
 62
     7
100
AcDbLine
 10
1309.269877
 20
834.822198
 30
0.0
 11
1302.299344
 21
842.865121
 31
0.0
  0
LINE
  5
125
100
AcDbEntity
  8
LAY-1
  6
CONTINUOUS
 62
     7
100
AcDbLine
 10
1313.118396
 20
831.145039
 30
0.0
 11
1313.000009
 21
831.281639
 31
0.0
  0
LINE
  5
126
100
AcDbEntity
  8
LAY-1
  6
CONTINUOUS
 62
     7
100
AcDbLine
 10
1310.168847
 20
834.548365
 30
0.0
 11
1303.391291
 21
842.368621
 31
0.0
  0
LINE
  5
127
100
AcDbEntity
  8
LAY-1
  6
CONTINUOUS
 62
     7
100
AcDbLine
 10
1313.530164
 20
831.433362
 30
0.0
 11
1313.111867
 21
831.916013
 31
0.0
  0
LINE
  5
128
100
AcDbEntity
  8
LAY-1
  6
CONTINUOUS
 62
     7
100
AcDbLine
 10
1311.053365
 20
834.291207
 30
0.0
 11
1304.45178
 21
841.90842
 31
0.0
  0
LINE
  5
129
100
AcDbEntity
  8
LAY-1
  6
CONTINUOUS
 62
     7
100
AcDbLine
 10
1313.941932
 20
831.721684
 30
0.0
 11
1313.223724
 21
832.550386
 31
0.0
  0
LINE
  5
12A
100
AcDbEntity
  8
LAY-1
  6
CONTINUOUS
 62
     7
100
AcDbLine
 10
1311.924254
 20
834.049775
 30
0.0
 11
1305.48399
 21
841.480849
 31
0.0
  0
LINE
  5
12B
100
AcDbEntity
  8
LAY-1
  6
CONTINUOUS
 62
     7
100
AcDbLine
 10
1314.3537
 20
832.010007
 30
0.0
 11
1313.335581
 21
833.18476
 31
0.0
  0
LINE
  5
12C
100
AcDbEntity
  8
LAY-1
  6
CONTINUOUS
 62
     7
100
AcDbLine
 10
1312.782255
 20
833.823213
 30
0.0
 11
1306.490579
 21
841.082839
 31
0.0
  0
LINE
  5
12D
100
AcDbEntity
  8
LAY-1
  6
CONTINUOUS
 62
     7
100
AcDbLine
 10
1314.765468
 20
832.29833
 30
0.0
 11
1307.473797
 21
840.711796
 31
0.0
  0
LINE
  5
12E
100
AcDbEntity
  8
LAY-1
  6
CONTINUOUS
 62
     7
100
AcDbLine
 10
1315.177236
 20
832.586653
 30
0.0
 11
1308.435567
 21
840.365502
 31
0.0
  0
LINE
  5
12F
100
AcDbEntity
  8
LAY-1
  6
CONTINUOUS
 62
     7
100
AcDbLine
 10
1315.589003
 20
832.874976
 30
0.0
 11
1309.377548
 21
840.042041
 31
0.0
  0
LINE
  5
130
100
AcDbEntity
  8
LAY-1
  6
CONTINUOUS
 62
     7
100
AcDbLine
 10
1316.000771
 20
833.163299
 30
0.0
 11
1310.301184
 21
839.739746
 31
0.0
  0
LINE
  5
131
100
AcDbEntity
  8
LAY-1
  6
CONTINUOUS
 62
     7
100
AcDbLine
 10
1316.412539
 20
833.451622
 30
0.0
 11
1311.207742
 21
839.457157
 31
0.0
  0
LINE
  5
132
100
AcDbEntity
  8
LAY-1
  6
CONTINUOUS
 62
     7
100
AcDbLine
 10
1316.824307
 20
833.739945
 30
0.0
 11
1312.098341
 21
839.192983
 31
0.0
  0
LINE
  5
133
100
AcDbEntity
  8
LAY-1
  6
CONTINUOUS
 62
     7
100
AcDbLine
 10
1317.236075
 20
834.028268
 30
0.0
 11
1312.973974
 21
838.946077
 31
0.0
  0
LINE
  5
134
100
AcDbEntity
  8
LAY-1
  6
CONTINUOUS
 62
     7
100
AcDbLine
 10
1317.647843
 20
834.316591
 30
0.0
 11
1313.835526
 21
838.715418
 31
0.0
  0
LINE
  5
135
100
AcDbEntity
  8
LAY-1
  6
CONTINUOUS
 62
     7
100
AcDbLine
 10
1318.059611
 20
834.604914
 30
0.0
 11
1314.342296
 21
838.894124
 31
0.0
  0
LINE
  5
136
100
AcDbEntity
  8
LAY-1
  6
CONTINUOUS
 62
     7
100
AcDbLine
 10
1318.471378
 20
834.893237
 30
0.0
 11
1314.454153
 21
839.528497
 31
0.0
  0
LINE
  5
137
100
AcDbEntity
  8
LAY-1
  6
CONTINUOUS
 62
     7
100
AcDbLine
 10
1317.835565
 20
836.390308
 30
0.0
 11
1314.56601
 21
840.162871
 31
0.0
  0
LINE
  5
138
100
AcDbEntity
  8
LAY-1
  6
CONTINUOUS
 62
     7
100
AcDbLine
 10
1315.052355
 20
840.365144
 30
0.0
 11
1314.677867
 21
840.797245
 31
0.0
  0
LINE
  5
139
100
AcDbEntity
  8
LAY-1
  6
CONTINUOUS
 62
     1
100
AcDbLine
 10
1303.986844
 20
468.292991
 30
0.0
 11
1304.20952
 21
468.515668
 31
0.0
  0
LINE
  5
13A
100
AcDbEntity
  8
LAY-1
  6
CONTINUOUS
 62
     7
100
AcDbLine
 10
677.61068
 20
1466.427308
 30
0.0
 11
677.61068
 21
1453.927308
 31
0.0
  0
LINE
  5
13B
100
AcDbEntity
  8
LAY-1
  6
CONTINUOUS
 62
     7
100
AcDbLine
 10
669.11068
 20
1465.927308
 30
0.0
 11
677.61068
 21
1466.427308
 31
0.0
  0
LINE
  5
13C
100
AcDbEntity
  8
LAY-1
  6
CONTINUOUS
 62
     7
100
AcDbLine
 10
677.61068
 20
1463.927308
 30
0.0
 11
680.11068
 21
1463.927308
 31
0.0
  0
LINE
  5
13D
100
AcDbEntity
  8
LAY-1
  6
CONTINUOUS
 62
     7
100
AcDbLine
 10
669.11068
 20
1441.927308
 30
0.0
 11
677.61068
 21
1441.427308
 31
0.0
  0
LINE
  5
13E
100
AcDbEntity
  8
LAY-1
  6
CONTINUOUS
 62
     7
100
AcDbLine
 10
677.61068
 20
1443.927308
 30
0.0
 11
680.11068
 21
1443.927308
 31
0.0
  0
ARC
  5
13F
100
AcDbEntity
  8
LAY-1
  6
CONTINUOUS
 62
     7
100
AcDbCircle
 10
704.11068
 20
1453.927308
 30
0.0
 40
37.0
100
AcDbArc
 50
161.075356
 51
198.924644
  0
LINE
  5
140
100
AcDbEntity
  8
LAY-1
  6
CONTINUOUS
 62
     7
100
AcDbLine
 10
669.11068
 20
1465.927308
 30
0.0
 11
669.11068
 21
1441.927308
 31
0.0
  0
LINE
  5
141
100
AcDbEntity
  8
LAY-1
  6
CONTINUOUS
 62
     7
100
AcDbLine
 10
677.61068
 20
1441.427308
 30
0.0
 11
677.61068
 21
1453.927308
 31
0.0
  0
LINE
  5
142
100
AcDbEntity
  8
LAY-1
  6
CONTINUOUS
 62
     7
100
AcDbLine
 10
933.91068
 20
1466.427308
 30
0.0
 11
933.91068
 21
1453.927308
 31
0.0
  0
LINE
  5
143
100
AcDbEntity
  8
LAY-1
  6
CONTINUOUS
 62
     7
100
AcDbLine
 10
942.41068
 20
1465.927308
 30
0.0
 11
933.91068
 21
1466.427308
 31
0.0
  0
LINE
  5
144
100
AcDbEntity
  8
LAY-1
  6
CONTINUOUS
 62
     7
100
AcDbLine
 10
933.91068
 20
1463.927308
 30
0.0
 11
931.41068
 21
1463.927308
 31
0.0
  0
LINE
  5
145
100
AcDbEntity
  8
LAY-1
  6
CONTINUOUS
 62
     7
100
AcDbLine
 10
942.41068
 20
1441.927308
 30
0.0
 11
933.91068
 21
1441.427308
 31
0.0
  0
LINE
  5
146
100
AcDbEntity
  8
LAY-1
  6
CONTINUOUS
 62
     7
100
AcDbLine
 10
933.91068
 20
1443.927308
 30
0.0
 11
931.41068
 21
1443.927308
 31
0.0
  0
ARC
  5
147
100
AcDbEntity
  8
LAY-1
  6
CONTINUOUS
 62
     7
100
AcDbCircle
 10
907.41068
 20
1453.927308
 30
0.0
 40
37.0
100
AcDbArc
 50
341.075356
 51
18.924644
  0
LINE
  5
148
100
AcDbEntity
  8
LAY-1
  6
CONTINUOUS
 62
     7
100
AcDbLine
 10
942.41068
 20
1465.927308
 30
0.0
 11
942.41068
 21
1441.927308
 31
0.0
  0
LINE
  5
149
100
AcDbEntity
  8
LAY-1
  6
CONTINUOUS
 62
     7
100
AcDbLine
 10
933.91068
 20
1441.427308
 30
0.0
 11
933.91068
 21
1453.927308
 31
0.0
  0
ARC
  5
14A
100
AcDbEntity
  8
LAY-1
  6
CONTINUOUS
 62
     7
100
AcDbCircle
 10
701.11068
 20
1214.927308
 30
0.0
 40
21.0
100
AcDbArc
 50
180.0
 51
270.0
  0
LINE
  5
14B
100
AcDbEntity
  8
LAY-1
  6
CONTINUOUS
 62
     7
100
AcDbLine
 10
910.41068
 20
1193.927308
 30
0.0
 11
701.11068
 21
1193.927308
 31
0.0
  0
ARC
  5
14C
100
AcDbEntity
  8
LAY-1
  6
CONTINUOUS
 62
     7
100
AcDbCircle
 10
910.41068
 20
1214.927308
 30
0.0
 40
21.0
100
AcDbArc
 50
270.0
 51
0.0
  0
LINE
  5
14D
100
AcDbEntity
  8
LAY-1
  6
CONTINUOUS
 62
     7
100
AcDbLine
 10
931.41068
 20
1473.927308
 30
0.0
 11
931.41068
 21
1214.927308
 31
0.0
  0
LINE
  5
14E
100
AcDbEntity
  8
LAY-1
  6
CONTINUOUS
 62
     7
100
AcDbLine
 10
680.11068
 20
1473.927308
 30
0.0
 11
680.11068
 21
1214.927308
 31
0.0
  0
LINE
  5
14F
100
AcDbEntity
  8
LAY-1
  6
CONTINUOUS
 62
     7
100
AcDbLine
 10
931.41068
 20
1473.927308
 30
0.0
 11
680.11068
 21
1473.927308
 31
0.0
  0
ARC
  5
150
100
AcDbEntity
  8
LAY-1
  6
CONTINUOUS
 62
     7
100
AcDbCircle
 10
806.11068
 20
1267.927308
 30
0.0
 40
17.5
100
AcDbArc
 50
180.0
 51
0.0
  0
CIRCLE
  5
151
100
AcDbEntity
  8
LAY-1
  6
CONTINUOUS
 62
     7
100
AcDbCircle
 10
781.11068
 20
1423.927308
 30
0.0
 40
2.0
  0
CIRCLE
  5
152
100
AcDbEntity
  8
LAY-1
  6
CONTINUOUS
 62
     7
100
AcDbCircle
 10
831.11068
 20
1423.927308
 30
0.0
 40
2.0
  0
CIRCLE
  5
153
100
AcDbEntity
  8
LAY-1
  6
CONTINUOUS
 62
     7
100
AcDbCircle
 10
781.11068
 20
1323.927308
 30
0.0
 40
2.0
  0
CIRCLE
  5
154
100
AcDbEntity
  8
LAY-1
  6
CONTINUOUS
 62
     7
100
AcDbCircle
 10
831.11068
 20
1323.927308
 30
0.0
 40
2.0
  0
CIRCLE
  5
155
100
AcDbEntity
  8
LAY-1
  6
CONTINUOUS
 62
     7
100
AcDbCircle
 10
781.11068
 20
1323.927308
 30
0.0
 40
2.5
  0
CIRCLE
  5
156
100
AcDbEntity
  8
LAY-1
  6
CONTINUOUS
 62
     7
100
AcDbCircle
 10
831.11068
 20
1323.927308
 30
0.0
 40
2.5
  0
CIRCLE
  5
157
100
AcDbEntity
  8
LAY-1
  6
CONTINUOUS
 62
     7
100
AcDbCircle
 10
781.11068
 20
1423.927308
 30
0.0
 40
2.5
  0
CIRCLE
  5
158
100
AcDbEntity
  8
LAY-1
  6
CONTINUOUS
 62
     7
100
AcDbCircle
 10
831.11068
 20
1423.927308
 30
0.0
 40
2.5
  0
LINE
  5
159
100
AcDbEntity
  8
LAY-1
  6
CONTINUOUS
 62
     7
100
AcDbLine
 10
776.11068
 20
1473.927308
 30
0.0
 11
776.11068
 21
1267.927308
 31
0.0
  0
LINE
  5
15A
100
AcDbEntity
  8
LAY-1
  6
CONTINUOUS
 62
     7
100
AcDbLine
 10
836.11068
 20
1473.927308
 30
0.0
 11
836.11068
 21
1267.927308
 31
0.0
  0
LINE
  5
15B
100
AcDbEntity
  8
LAY-1
  6
CONTINUOUS
 62
     7
100
AcDbLine
 10
776.11068
 20
1473.927308
 30
0.0
 11
836.11068
 21
1473.927308
 31
0.0
  0
ARC
  5
15C
100
AcDbEntity
  8
LAY-1
  6
CONTINUOUS
 62
     7
100
AcDbCircle
 10
806.11068
 20
1267.927308
 30
0.0
 40
17.5
100
AcDbArc
 50
0.0
 51
180.0
  0
LINE
  5
15D
100
AcDbEntity
  8
LAY-1
  6
CONTINUOUS
 62
     7
100
AcDbLine
 10
836.11068
 20
1267.927308
 30
0.0
 11
823.61068
 21
1267.927308
 31
0.0
  0
LINE
  5
15E
100
AcDbEntity
  8
LAY-1
  6
CONTINUOUS
 62
     7
100
AcDbLine
 10
776.11068
 20
1267.927308
 30
0.0
 11
788.61068
 21
1267.927308
 31
0.0
  0
LINE
  5
15F
100
AcDbEntity
  8
LAY-1
  6
EXLTYPE3
 62
     1
100
AcDbLine
 10
805.76068
 20
1176.927308
 30
0.0
 11
805.76068
 21
1494.927308
 31
0.0
  0
LINE
  5
160
100
AcDbEntity
  8
LAY-1
  6
CONTINUOUS
 62
     1
100
AcDbLine
 10
697.61068
 20
8.457391
 30
0.0
 11
697.61068
 21
10.457391
 31
0.0
  0
LINE
  5
161
100
AcDbEntity
  8
LAY-1
  6
CONTINUOUS
 62
     1
100
AcDbLine
 10
707.61068
 20
8.457391
 30
0.0
 11
707.61068
 21
10.457391
 31
0.0
  0
LINE
  5
162
100
AcDbEntity
  8
LAY-1
  6
EXLTYPE3
 62
     1
100
AcDbLine
 10
697.61068
 20
131.607391
 30
0.0
 11
913.91068
 21
131.607391
 31
0.0
  0
CIRCLE
  5
163
100
AcDbEntity
  8
LAY-1
  6
CONTINUOUS
 62
     1
100
AcDbCircle
 10
865.76068
 20
146.607391
 30
0.0
 40
10.4775
  0
CIRCLE
  5
164
100
AcDbEntity
  8
LAY-1
  6
CONTINUOUS
 62
     1
100
AcDbCircle
 10
745.76068
 20
131.607391
 30
0.0
 40
10.4775
  0
LINE
  5
165
100
AcDbEntity
  8
LAY-1
  6
CONTINUOUS
 62
     1
100
AcDbLine
 10
811.507703
 20
242.757391
 30
0.0
 11
811.638265
 21
246.911957
 31
0.0
  0
LINE
  5
166
100
AcDbEntity
  8
LAY-1
  6
CONTINUOUS
 62
     1
100
AcDbLine
 10
800.013657
 20
242.757391
 30
0.0
 11
799.883145
 21
246.910361
 31
0.0
  0
LINE
  5
167
100
AcDbEntity
  8
LAY-1
  6
EXLTYPE3
 62
     1
100
AcDbLine
 10
805.76068
 20
1.707391
 30
0.0
 11
805.76068
 21
270.057391
 31
0.0
  0
LINE
  5
168
100
AcDbEntity
  8
LAY-1
  6
CONTINUOUS
 62
     7
100
AcDbLine
 10
712.61068
 20
8.457391
 30
0.0
 11
712.61068
 21
10.457391
 31
0.0
  0
LINE
  5
169
100
AcDbEntity
  8
LAY-1
  6
CONTINUOUS
 62
     7
100
AcDbLine
 10
692.61068
 20
8.457391
 30
0.0
 11
692.61068
 21
10.457391
 31
0.0
  0
LINE
  5
16A
100
AcDbEntity
  8
LAY-1
  6
CONTINUOUS
 62
     7
100
AcDbLine
 10
682.61068
 20
131.607391
 30
0.0
 11
682.61068
 21
8.457391
 31
0.0
  0
LINE
  5
16B
100
AcDbEntity
  8
LAY-1
  6
CONTINUOUS
 62
     7
100
AcDbLine
 10
682.61068
 20
131.607391
 30
0.0
 11
697.61068
 21
131.607391
 31
0.0
  0
LINE
  5
16C
100
AcDbEntity
  8
LAY-1
  6
CONTINUOUS
 62
     7
100
AcDbLine
 10
928.91068
 20
131.607391
 30
0.0
 11
928.91068
 21
8.457391
 31
0.0
  0
LINE
  5
16D
100
AcDbEntity
  8
LAY-1
  6
CONTINUOUS
 62
     7
100
AcDbLine
 10
913.91068
 20
23.457391
 30
0.0
 11
697.61068
 21
23.457391
 31
0.0
  0
LINE
  5
16E
100
AcDbEntity
  8
LAY-1
  6
CONTINUOUS
 62
     7
100
AcDbLine
 10
928.91068
 20
8.457391
 30
0.0
 11
682.61068
 21
8.457391
 31
0.0
  0
LINE
  5
16F
100
AcDbEntity
  8
LAY-1
  6
CONTINUOUS
 62
     7
100
AcDbLine
 10
913.91068
 20
116.607391
 30
0.0
 11
913.91068
 21
23.457391
 31
0.0
  0
LINE
  5
170
100
AcDbEntity
  8
LAY-1
  6
CONTINUOUS
 62
     7
100
AcDbLine
 10
913.91068
 20
131.607391
 30
0.0
 11
928.91068
 21
131.607391
 31
0.0
  0
LINE
  5
171
100
AcDbEntity
  8
LAY-1
  6
CONTINUOUS
 62
     7
100
AcDbLine
 10
913.91068
 20
116.607391
 30
0.0
 11
912.865407
 21
116.607391
 31
0.0
  0
CIRCLE
  5
172
100
AcDbEntity
  8
LAY-1
  6
CONTINUOUS
 62
     7
100
AcDbCircle
 10
805.76068
 20
131.607391
 30
0.0
 40
108.15
  0
LINE
  5
173
100
AcDbEntity
  8
LAY-1
  6
CONTINUOUS
 62
     7
100
AcDbLine
 10
697.61068
 20
131.607391
 30
0.0
 11
697.61068
 21
23.457391
 31
0.0
  0
LINE
  5
174
100
AcDbEntity
  8
LAY-1
  6
CONTINUOUS
 62
     7
100
AcDbLine
 10
716.559831
 20
230.566314
 30
0.0
 11
716.580652
 21
230.602376
 31
0.0
  0
CIRCLE
  5
175
100
AcDbEntity
  8
LAY-1
  6
CONTINUOUS
 62
     7
100
AcDbCircle
 10
865.76068
 20
146.607391
 30
0.0
 40
9.277431
  0
CIRCLE
  5
176
100
AcDbEntity
  8
LAY-1
  6
CONTINUOUS
 62
     7
100
AcDbCircle
 10
865.76068
 20
146.607391
 30
0.0
 40
12.5
  0
CIRCLE
  5
177
100
AcDbEntity
  8
LAY-1
  6
CONTINUOUS
 62
     7
100
AcDbCircle
 10
745.76068
 20
131.607391
 30
0.0
 40
9.277431
  0
CIRCLE
  5
178
100
AcDbEntity
  8
LAY-1
  6
CONTINUOUS
 62
     7
100
AcDbCircle
 10
745.76068
 20
131.607391
 30
0.0
 40
12.5
  0
LINE
  5
179
100
AcDbEntity
  8
LAY-1
  6
CONTINUOUS
 62
     7
100
AcDbLine
 10
926.91068
 20
10.457391
 30
0.0
 11
684.61068
 21
10.457391
 31
0.0
  0
LINE
  5
17A
100
AcDbEntity
  8
LAY-1
  6
CONTINUOUS
 62
     7
100
AcDbLine
 10
684.61068
 20
10.457391
 30
0.0
 11
684.61068
 21
131.607391
 31
0.0
  0
LINE
  5
17B
100
AcDbEntity
  8
LAY-1
  6
CONTINUOUS
 62
     7
100
AcDbLine
 10
926.91068
 20
131.607391
 30
0.0
 11
926.91068
 21
10.457391
 31
0.0
  0
LINE
  5
17C
100
AcDbEntity
  8
LAY-1
  6
CONTINUOUS
 62
     7
100
AcDbLine
 10
697.61068
 20
23.457391
 30
0.0
 11
684.61068
 21
10.457391
 31
0.0
  0
LINE
  5
17D
100
AcDbEntity
  8
LAY-1
  6
CONTINUOUS
 62
     7
100
AcDbLine
 10
913.91068
 20
23.457391
 30
0.0
 11
926.91068
 21
10.457391
 31
0.0
  0
POLYLINE
  5
17E
100
AcDbEntity
  8
LAY-1
  6
CONTINUOUS
 62
     7
100
AcDb2dPolyline
 66
     1
 10
0.0
 20
0.0
 30
0.0
 70
   128
  0
VERTEX
  5
17F
100
AcDbEntity
  8
LAY-1
  6
CONTINUOUS
 62
     7
100
AcDbVertex
100
AcDb2dVertex
 10
714.641075
 20
226.042945
 30
0.0
  0
VERTEX
  5
180
100
AcDbEntity
  8
LAY-1
  6
CONTINUOUS
 62
     7
100
AcDbVertex
100
AcDb2dVertex
 10
706.754803
 20
221.502382
 30
0.0
  0
VERTEX
  5
181
100
AcDbEntity
  8
LAY-1
  6
CONTINUOUS
 62
     7
100
AcDbVertex
100
AcDb2dVertex
 10
698.879424
 20
226.061812
 30
0.0
  0
VERTEX
  5
182
100
AcDbEntity
  8
LAY-1
  6
CONTINUOUS
 62
     7
100
AcDbVertex
100
AcDb2dVertex
 10
698.890317
 20
235.161805
 30
0.0
  0
VERTEX
  5
183
100
AcDbEntity
  8
LAY-1
  6
CONTINUOUS
 62
     7
100
AcDbVertex
100
AcDb2dVertex
 10
706.776589
 20
239.702369
 30
0.0
  0
VERTEX
  5
184
100
AcDbEntity
  8
LAY-1
  6
CONTINUOUS
 62
     7
100
AcDbVertex
100
AcDb2dVertex
 10
714.651968
 20
235.142939
 30
0.0
  0
VERTEX
  5
185
100
AcDbEntity
  8
LAY-1
  6
CONTINUOUS
 62
     7
100
AcDbVertex
100
AcDb2dVertex
 10
714.641075
 20
226.042945
 30
0.0
  0
SEQEND
  5
186
100
AcDbEntity
  8
LAY-1
  6
CONTINUOUS
 62
     7
  0
CIRCLE
  5
187
100
AcDbEntity
  8
LAY-1
  6
CONTINUOUS
 62
     7
100
AcDbCircle
 10
706.765696
 20
230.602375
 30
0.0
 40
8.002631
  0
LINE
  5
188
100
AcDbEntity
  8
LAY-1
  6
CONTINUOUS
 62
     7
100
AcDbLine
 10
702.265696
 20
240.202376
 30
0.0
 11
711.265696
 21
240.202376
 31
0.0
  0
LINE
  5
189
100
AcDbEntity
  8
LAY-1
  6
CONTINUOUS
 62
     7
100
AcDbLine
 10
711.265696
 20
241.602381
 30
0.0
 11
711.265696
 21
239.102375
 31
0.0
  0
LINE
  5
18A
100
AcDbEntity
  8
LAY-1
  6
CONTINUOUS
 62
     7
100
AcDbLine
 10
702.265696
 20
241.602381
 30
0.0
 11
702.265696
 21
239.102375
 31
0.0
  0
LINE
  5
18B
100
AcDbEntity
  8
LAY-1
  6
CONTINUOUS
 62
     7
100
AcDbLine
 10
690.817343
 20
255.602375
 30
0.0
 11
698.413006
 21
255.602375
 31
0.0
  0
LINE
  5
18C
100
AcDbEntity
  8
LAY-1
  6
CONTINUOUS
 62
     7
100
AcDbLine
 10
719.265692
 20
241.602374
 30
0.0
 11
724.265686
 21
244.102372
 31
0.0
  0
LINE
  5
18D
100
AcDbEntity
  8
LAY-1
  6
CONTINUOUS
 62
     7
100
AcDbLine
 10
724.265704
 20
244.102378
 30
0.0
 11
723.712681
 21
254.654716
 31
0.0
  0
LINE
  5
18E
100
AcDbEntity
  8
LAY-1
  6
CONTINUOUS
 62
     7
100
AcDbLine
 10
694.2657
 20
241.602374
 30
0.0
 11
689.265706
 21
244.102372
 31
0.0
  0
LINE
  5
18F
100
AcDbEntity
  8
LAY-1
  6
CONTINUOUS
 62
     7
100
AcDbLine
 10
689.265688
 20
244.102378
 30
0.0
 11
689.818711
 21
254.654716
 31
0.0
  0
LINE
  5
190
100
AcDbEntity
  8
LAY-1
  6
CONTINUOUS
 62
     7
100
AcDbLine
 10
715.039774
 20
255.602375
 30
0.0
 11
722.714049
 21
255.602375
 31
0.0
  0
LINE
  5
191
100
AcDbEntity
  8
LAY-1
  6
CONTINUOUS
 62
     7
100
AcDbLine
 10
704.265696
 20
249.10239
 30
0.0
 11
709.265696
 21
249.10239
 31
0.0
  0
LINE
  5
192
100
AcDbEntity
  8
LAY-1
  6
CONTINUOUS
 62
     7
100
AcDbLine
 10
709.265696
 20
249.10239
 30
0.0
 11
709.265696
 21
249.002384
 31
0.0
  0
LINE
  5
193
100
AcDbEntity
  8
LAY-1
  6
CONTINUOUS
 62
     7
100
AcDbLine
 10
702.165697
 20
245.802381
 30
0.0
 11
711.365695
 21
245.802381
 31
0.0
  0
LINE
  5
194
100
AcDbEntity
  8
LAY-1
  6
CONTINUOUS
 62
     7
100
AcDbLine
 10
702.265696
 20
249.002384
 30
0.0
 11
711.365695
 21
249.002384
 31
0.0
  0
LINE
  5
195
100
AcDbEntity
  8
LAY-1
  6
CONTINUOUS
 62
     7
100
AcDbLine
 10
711.365695
 20
249.002384
 30
0.0
 11
711.365695
 21
244.502381
 31
0.0
  0
LINE
  5
196
100
AcDbEntity
  8
LAY-1
  6
CONTINUOUS
 62
     7
100
AcDbLine
 10
709.075097
 20
249.002384
 30
0.0
 11
709.075097
 21
245.802381
 31
0.0
  0
LINE
  5
197
100
AcDbEntity
  8
LAY-1
  6
CONTINUOUS
 62
     7
100
AcDbLine
 10
702.165697
 20
249.002384
 30
0.0
 11
702.165697
 21
244.502381
 31
0.0
  0
LINE
  5
198
100
AcDbEntity
  8
LAY-1
  6
CONTINUOUS
 62
     7
100
AcDbLine
 10
704.265696
 20
249.10239
 30
0.0
 11
704.265696
 21
249.002384
 31
0.0
  0
LINE
  5
199
100
AcDbEntity
  8
LAY-1
  6
CONTINUOUS
 62
     7
100
AcDbLine
 10
704.456295
 20
249.002384
 30
0.0
 11
704.456295
 21
245.802381
 31
0.0
  0
LINE
  5
19A
100
AcDbEntity
  8
LAY-1
  6
CONTINUOUS
 62
     7
100
AcDbLine
 10
701.515696
 20
244.102381
 30
0.0
 11
714.515697
 21
244.102381
 31
0.0
  0
LINE
  5
19B
100
AcDbEntity
  8
LAY-1
  6
CONTINUOUS
 62
     7
100
AcDbLine
 10
701.515696
 20
245.602381
 30
0.0
 11
701.515696
 21
244.102381
 31
0.0
  0
LINE
  5
19C
100
AcDbEntity
  8
LAY-1
  6
CONTINUOUS
 62
     7
100
AcDbLine
 10
699.015695
 20
245.602381
 30
0.0
 11
701.515696
 21
245.602381
 31
0.0
  0
LINE
  5
19D
100
AcDbEntity
  8
LAY-1
  6
CONTINUOUS
 62
     7
100
AcDbLine
 10
715.039774
 20
255.602379
 30
0.0
 11
714.515696
 21
245.60238
 31
0.0
  0
LINE
  5
19E
100
AcDbEntity
  8
LAY-1
  6
CONTINUOUS
 62
     7
100
AcDbLine
 10
698.491618
 20
255.602379
 30
0.0
 11
699.015695
 21
245.60238
 31
0.0
  0
LINE
  5
19F
100
AcDbEntity
  8
LAY-1
  6
CONTINUOUS
 62
     7
100
AcDbLine
 10
714.515697
 20
245.602381
 30
0.0
 11
714.515697
 21
244.102381
 31
0.0
  0
LINE
  5
1A0
100
AcDbEntity
  8
LAY-1
  6
CONTINUOUS
 62
     7
100
AcDbLine
 10
701.515696
 20
244.502381
 30
0.0
 11
714.515697
 21
244.502381
 31
0.0
  0
LINE
  5
1A1
100
AcDbEntity
  8
LAY-1
  6
CONTINUOUS
 62
     7
100
AcDbLine
 10
700.765696
 20
241.602381
 30
0.0
 11
719.265696
 21
241.602381
 31
0.0
  0
ARC
  5
1A2
100
AcDbEntity
  8
LAY-1
  6
CONTINUOUS
 62
     7
100
AcDbCircle
 10
722.714049
 20
254.602375
 30
0.0
 40
1.0
100
AcDbArc
 50
2.999987
 51
90.000037
  0
ARC
  5
1A3
100
AcDbEntity
  8
LAY-1
  6
CONTINUOUS
 62
     7
100
AcDbCircle
 10
690.817343
 20
254.602375
 30
0.0
 40
1.0
100
AcDbArc
 50
89.999982
 51
177.00004
  0
LINE
  5
1A4
100
AcDbEntity
  8
LAY-1
  6
CONTINUOUS
 62
     7
100
AcDbLine
 10
694.265697
 20
241.602381
 30
0.0
 11
700.765696
 21
241.602381
 31
0.0
  0
LINE
  5
1A5
100
AcDbEntity
  8
LAY-1
  6
CONTINUOUS
 62
     7
100
AcDbLine
 10
696.971561
 20
230.566314
 30
0.0
 11
696.95074
 21
230.602376
 31
0.0
  0
LINE
  5
1A6
100
AcDbEntity
  8
LAY-1
  6
CONTINUOUS
 62
     7
100
AcDbLine
 10
708.02377
 20
222.102375
 30
0.0
 11
711.673182
 21
222.102375
 31
0.0
  0
LINE
  5
1A7
100
AcDbEntity
  8
LAY-1
  6
CONTINUOUS
 62
     7
100
AcDbLine
 10
705.507622
 20
222.102375
 30
0.0
 11
701.85821
 21
222.102375
 31
0.0
  0
LINE
  5
1A8
100
AcDbEntity
  8
LAY-1
  6
CONTINUOUS
 62
     7
100
AcDbLine
 10
716.580653
 20
230.602376
 30
0.0
 11
714.642515
 21
227.245421
 31
0.0
  0
LINE
  5
1A9
100
AcDbEntity
  8
LAY-1
  6
CONTINUOUS
 62
     7
100
AcDbLine
 10
713.603293
 20
225.445436
 30
0.0
 11
711.673175
 21
222.102374
 31
0.0
  0
LINE
  5
1AA
100
AcDbEntity
  8
LAY-1
  6
CONTINUOUS
 62
     7
100
AcDbLine
 10
711.673175
 20
239.102376
 30
0.0
 11
713.611313
 21
235.745423
 31
0.0
  0
LINE
  5
1AB
100
AcDbEntity
  8
LAY-1
  6
CONTINUOUS
 62
     7
100
AcDbLine
 10
714.650534
 20
233.945438
 30
0.0
 11
716.580653
 21
230.602375
 31
0.0
  0
LINE
  5
1AC
100
AcDbEntity
  8
LAY-1
  6
CONTINUOUS
 62
     7
100
AcDbLine
 10
707.812941
 20
239.102375
 30
0.0
 11
711.673182
 21
239.102375
 31
0.0
  0
LINE
  5
1AD
100
AcDbEntity
  8
LAY-1
  6
CONTINUOUS
 62
     7
100
AcDbLine
 10
701.858226
 20
239.102375
 30
0.0
 11
705.734491
 21
239.102375
 31
0.0
  0
LINE
  5
1AE
100
AcDbEntity
  8
LAY-1
  6
CONTINUOUS
 62
     7
100
AcDbLine
 10
696.95074
 20
230.602374
 30
0.0
 11
698.888877
 21
233.959327
 31
0.0
  0
LINE
  5
1AF
100
AcDbEntity
  8
LAY-1
  6
CONTINUOUS
 62
     7
100
AcDbLine
 10
699.928101
 20
235.759315
 30
0.0
 11
701.858218
 21
239.102376
 31
0.0
  0
LINE
  5
1B0
100
AcDbEntity
  8
LAY-1
  6
CONTINUOUS
 62
     7
100
AcDbLine
 10
696.950739
 20
230.602376
 30
0.0
 11
698.880858
 21
227.259312
 31
0.0
  0
LINE
  5
1B1
100
AcDbEntity
  8
LAY-1
  6
CONTINUOUS
 62
     7
100
AcDbLine
 10
699.920079
 20
225.459327
 30
0.0
 11
701.858217
 21
222.102374
 31
0.0
  0
LINE
  5
1B2
100
AcDbEntity
  8
LAY-1
  6
CONTINUOUS
 62
     7
100
AcDbLine
 10
716.559832
 20
230.566313
 30
0.0
 11
734.321919
 21
212.804226
 31
0.0
  0
LINE
  5
1B3
100
AcDbEntity
  8
LAY-1
  6
CONTINUOUS
 62
     7
100
AcDbLine
 10
705.507622
 20
222.102375
 30
0.0
 11
724.563845
 21
203.046152
 31
0.0
  0
CIRCLE
  5
1B4
100
AcDbEntity
  8
LAY-1
  6
CONTINUOUS
 62
     7
100
AcDbCircle
 10
799.26068
 20
112.907391
 30
0.0
 40
7.5
  0
LINE
  5
1B5
100
AcDbEntity
  8
LAY-1
  6
CONTINUOUS
 62
     7
100
AcDbLine
 10
810.781815
 20
119.232128
 30
0.0
 11
813.793354
 21
119.232128
 31
0.0
  0
CIRCLE
  5
1B6
100
AcDbEntity
  8
LAY-1
  6
CONTINUOUS
 62
     7
100
AcDbCircle
 10
799.230854
 20
112.742128
 30
0.0
 40
11.5
  0
POLYLINE
  5
1B7
100
AcDbEntity
  8
LAY-1
  6
CONTINUOUS
 62
     7
100
AcDb2dPolyline
 66
     1
 10
0.0
 20
0.0
 30
0.0
 70
   128
  0
VERTEX
  5
1B8
100
AcDbEntity
  8
LAY-1
  6
CONTINUOUS
 62
     7
100
AcDbVertex
100
AcDb2dVertex
 10
799.230854
 20
126.021184
 30
0.0
  0
VERTEX
  5
1B9
100
AcDbEntity
  8
LAY-1
  6
CONTINUOUS
 62
     7
100
AcDbVertex
100
AcDb2dVertex
 10
810.730854
 20
119.381656
 30
0.0
  0
VERTEX
  5
1BA
100
AcDbEntity
  8
LAY-1
  6
CONTINUOUS
 62
     7
100
AcDbVertex
100
AcDb2dVertex
 10
810.730854
 20
106.1026
 30
0.0
  0
VERTEX
  5
1BB
100
AcDbEntity
  8
LAY-1
  6
CONTINUOUS
 62
     7
100
AcDbVertex
100
AcDb2dVertex
 10
799.230854
 20
99.463071
 30
0.0
  0
VERTEX
  5
1BC
100
AcDbEntity
  8
LAY-1
  6
CONTINUOUS
 62
     7
100
AcDbVertex
100
AcDb2dVertex
 10
787.730854
 20
106.1026
 30
0.0
  0
VERTEX
  5
1BD
100
AcDbEntity
  8
LAY-1
  6
CONTINUOUS
 62
     7
100
AcDbVertex
100
AcDb2dVertex
 10
787.730854
 20
119.381656
 30
0.0
  0
VERTEX
  5
1BE
100
AcDbEntity
  8
LAY-1
  6
CONTINUOUS
 62
     7
100
AcDbVertex
100
AcDb2dVertex
 10
799.230854
 20
126.021184
 30
0.0
  0
SEQEND
  5
1BF
100
AcDbEntity
  8
LAY-1
  6
CONTINUOUS
 62
     7
  0
ARC
  5
1C0
100
AcDbEntity
  8
LAY-1
  6
CONTINUOUS
 62
     7
100
AcDbCircle
 10
810.781815
 20
120.235974
 30
0.0
 40
1.003846
100
AcDbArc
 50
267.090055
 51
270.0
  0
ARC
  5
1C1
100
AcDbEntity
  8
LAY-1
  6
CONTINUOUS
 62
     7
100
AcDbCircle
 10
810.781815
 20
105.178282
 30
0.0
 40
1.003846
100
AcDbArc
 50
90.0
 51
92.909945
  0
POLYLINE
  5
1C2
100
AcDbEntity
  8
LAY-1
  6
CONTINUOUS
 62
     7
100
AcDb2dPolyline
 66
     1
 10
0.0
 20
0.0
 30
0.0
 70
   128
  0
VERTEX
  5
1C3
100
AcDbEntity
  8
LAY-1
  6
CONTINUOUS
 62
     7
100
AcDbVertex
100
AcDb2dVertex
 10
794.70125
 20
105.032012
 30
0.0
  0
VERTEX
  5
1C4
100
AcDbEntity
  8
LAY-1
  6
CONTINUOUS
 62
     7
100
AcDbVertex
100
AcDb2dVertex
 10
790.160687
 20
112.918284
 30
0.0
  0
VERTEX
  5
1C5
100
AcDbEntity
  8
LAY-1
  6
CONTINUOUS
 62
     7
100
AcDbVertex
100
AcDb2dVertex
 10
794.720117
 20
120.793663
 30
0.0
  0
VERTEX
  5
1C6
100
AcDbEntity
  8
LAY-1
  6
CONTINUOUS
 62
     7
100
AcDbVertex
100
AcDb2dVertex
 10
803.82011
 20
120.78277
 30
0.0
  0
VERTEX
  5
1C7
100
AcDbEntity
  8
LAY-1
  6
CONTINUOUS
 62
     7
100
AcDbVertex
100
AcDb2dVertex
 10
808.360673
 20
112.896499
 30
0.0
  0
VERTEX
  5
1C8
100
AcDbEntity
  8
LAY-1
  6
CONTINUOUS
 62
     7
100
AcDbVertex
100
AcDb2dVertex
 10
803.801243
 20
105.021119
 30
0.0
  0
VERTEX
  5
1C9
100
AcDbEntity
  8
LAY-1
  6
CONTINUOUS
 62
     7
100
AcDbVertex
100
AcDb2dVertex
 10
794.70125
 20
105.032012
 30
0.0
  0
SEQEND
  5
1CA
100
AcDbEntity
  8
LAY-1
  6
CONTINUOUS
 62
     7
  0
CIRCLE
  5
1CB
100
AcDbEntity
  8
LAY-1
  6
CONTINUOUS
 62
     7
100
AcDbCircle
 10
799.26068
 20
112.907391
 30
0.0
 40
8.002631
  0
LINE
  5
1CC
100
AcDbEntity
  8
LAY-1
  6
CONTINUOUS
 62
     7
100
AcDbLine
 10
814.38068
 20
106.182128
 30
0.0
 11
810.781815
 21
106.182128
 31
0.0
  0
LINE
  5
1CD
100
AcDbEntity
  8
LAY-1
  6
CONTINUOUS
 62
     7
100
AcDbLine
 10
818.26068
 20
115.907391
 30
0.0
 11
818.26068
 21
106.39519
 31
0.0
  0
LINE
  5
1CE
100
AcDbEntity
  8
LAY-1
  6
CONTINUOUS
 62
     7
100
AcDbLine
 10
823.334354
 20
115.166655
 30
0.0
 11
822.928354
 21
115.166655
 31
0.0
  0
LINE
  5
1CF
100
AcDbEntity
  8
LAY-1
  6
CONTINUOUS
 62
     7
100
AcDbLine
 10
822.928354
 20
110.903655
 30
0.0
 11
823.334354
 21
110.903655
 31
0.0
  0
LINE
  5
1D0
100
AcDbEntity
  8
LAY-1
  6
CONTINUOUS
 62
     7
100
AcDbLine
 10
823.435854
 20
115.065155
 30
0.0
 11
822.928354
 21
115.572655
 31
0.0
  0
LINE
  5
1D1
100
AcDbEntity
  8
LAY-1
  6
CONTINUOUS
 62
     7
100
AcDbLine
 10
823.435854
 20
111.005155
 30
0.0
 11
823.435854
 21
115.065155
 31
0.0
  0
LINE
  5
1D2
100
AcDbEntity
  8
LAY-1
  6
CONTINUOUS
 62
     7
100
AcDbLine
 10
822.928354
 20
110.497655
 30
0.0
 11
823.435854
 21
111.005155
 31
0.0
  0
ARC
  5
1D3
100
AcDbEntity
  8
LAY-1
  6
CONTINUOUS
 62
     7
100
AcDbCircle
 10
821.747818
 20
109.533405
 30
0.0
 40
2.075245
100
AcDbArc
 50
145.773646
 51
214.226354
  0
ARC
  5
1D4
100
AcDbEntity
  8
LAY-1
  6
CONTINUOUS
 62
     7
100
AcDbCircle
 10
827.606146
 20
113.035155
 30
0.0
 40
7.925792
100
AcDbArc
 50
162.869763
 51
197.130237
  0
ARC
  5
1D5
100
AcDbEntity
  8
LAY-1
  6
CONTINUOUS
 62
     7
100
AcDbCircle
 10
821.774179
 20
116.536905
 30
0.0
 40
2.097093
100
AcDbArc
 50
146.178743
 51
213.821257
  0
ARC
  5
1D6
100
AcDbEntity
  8
LAY-1
  6
CONTINUOUS
 62
     7
100
AcDbCircle
 10
820.854098
 20
116.536905
 30
0.0
 40
2.080863
100
AcDbArc
 50
325.878821
 51
34.121179
  0
ARC
  5
1D7
100
AcDbEntity
  8
LAY-1
  6
CONTINUOUS
 62
     7
100
AcDbCircle
 10
815.002561
 20
113.035155
 30
0.0
 40
7.925792
100
AcDbArc
 50
342.869763
 51
17.130237
  0
ARC
  5
1D8
100
AcDbEntity
  8
LAY-1
  6
CONTINUOUS
 62
     7
100
AcDbCircle
 10
820.82781
 20
109.533405
 30
0.0
 40
2.102678
100
AcDbArc
 50
326.280638
 51
33.719362
  0
LINE
  5
1D9
100
AcDbEntity
  8
LAY-1
  6
CONTINUOUS
 62
     7
100
AcDbLine
 10
818.360854
 20
108.366155
 30
0.0
 11
819.680354
 21
108.366155
 31
0.0
  0
LINE
  5
1DA
100
AcDbEntity
  8
LAY-1
  6
CONTINUOUS
 62
     7
100
AcDbLine
 10
819.680354
 20
108.366155
 30
0.0
 11
819.680354
 21
117.704155
 31
0.0
  0
LINE
  5
1DB
100
AcDbEntity
  8
LAY-1
  6
CONTINUOUS
 62
     7
100
AcDbLine
 10
819.680354
 20
117.704155
 30
0.0
 11
818.360854
 21
117.704155
 31
0.0
  0
LINE
  5
1DC
100
AcDbEntity
  8
LAY-1
  6
CONTINUOUS
 62
     7
100
AcDbLine
 10
820.03196
 20
117.704155
 30
0.0
 11
822.576747
 21
117.704155
 31
0.0
  0
LINE
  5
1DD
100
AcDbEntity
  8
LAY-1
  6
CONTINUOUS
 62
     7
100
AcDbLine
 10
822.576747
 20
115.369655
 30
0.0
 11
820.03196
 21
115.369655
 31
0.0
  0
LINE
  5
1DE
100
AcDbEntity
  8
LAY-1
  6
CONTINUOUS
 62
     7
100
AcDbLine
 10
820.03196
 20
110.700655
 30
0.0
 11
822.576747
 21
110.700655
 31
0.0
  0
LINE
  5
1DF
100
AcDbEntity
  8
LAY-1
  6
CONTINUOUS
 62
     7
100
AcDbLine
 10
822.576747
 20
108.366155
 30
0.0
 11
820.03196
 21
108.366155
 31
0.0
  0
LINE
  5
1E0
100
AcDbEntity
  8
LAY-1
  6
CONTINUOUS
 62
     7
100
AcDbLine
 10
822.928354
 20
108.975155
 30
0.0
 11
822.928354
 21
117.095155
 31
0.0
  0
LINE
  5
1E1
100
AcDbEntity
  8
LAY-1
  6
CONTINUOUS
 62
     7
100
AcDbLine
 10
822.928354
 20
117.095155
 30
0.0
 11
822.576747
 21
117.704155
 31
0.0
  0
LINE
  5
1E2
100
AcDbEntity
  8
LAY-1
  6
CONTINUOUS
 62
     7
100
AcDbLine
 10
820.03196
 20
117.704155
 30
0.0
 11
819.680354
 21
117.095155
 31
0.0
  0
LINE
  5
1E3
100
AcDbEntity
  8
LAY-1
  6
CONTINUOUS
 62
     7
100
AcDbLine
 10
819.680354
 20
108.975155
 30
0.0
 11
820.03196
 21
108.366155
 31
0.0
  0
LINE
  5
1E4
100
AcDbEntity
  8
LAY-1
  6
CONTINUOUS
 62
     7
100
AcDbLine
 10
822.576747
 20
108.366155
 30
0.0
 11
822.928354
 21
108.975155
 31
0.0
  0
LINE
  5
1E5
100
AcDbEntity
  8
LAY-1
  6
CONTINUOUS
 62
     7
100
AcDbLine
 10
819.680354
 20
113.035155
 30
0.0
 11
818.360854
 21
111.715655
 31
0.0
  0
LINE
  5
1E6
100
AcDbEntity
  8
LAY-1
  6
CONTINUOUS
 62
     7
100
AcDbLine
 10
818.360854
 20
113.035155
 30
0.0
 11
819.680354
 21
114.354655
 31
0.0
  0
ARC
  5
1E7
100
AcDbEntity
  8
LAY-1
  6
CONTINUOUS
 62
     7
100
AcDbCircle
 10
815.823354
 20
106.208155
 30
0.0
 40
2.5375
100
AcDbArc
 50
270.0
 51
0.0
  0
ARC
  5
1E8
100
AcDbEntity
  8
LAY-1
  6
CONTINUOUS
 62
     7
100
AcDbCircle
 10
815.823354
 20
106.208155
 30
0.0
 40
0.5075
100
AcDbArc
 50
270.0
 51
0.0
  0
LINE
  5
1E9
100
AcDbEntity
  8
LAY-1
  6
CONTINUOUS
 62
     7
100
AcDbLine
 10
818.360854
 20
106.208155
 30
0.0
 11
818.360854
 21
122.965641
 31
0.0
  0
LINE
  5
1EA
100
AcDbEntity
  8
LAY-1
  6
CONTINUOUS
 62
     7
100
AcDbLine
 10
815.315854
 20
107.527655
 30
0.0
 11
813.793354
 21
106.512655
 31
0.0
  0
LINE
  5
1EB
100
AcDbEntity
  8
LAY-1
  6
CONTINUOUS
 62
     7
100
AcDbLine
 10
815.315854
 20
107.781405
 30
0.0
 11
816.330854
 21
107.781405
 31
0.0
  0
LINE
  5
1EC
100
AcDbEntity
  8
LAY-1
  6
CONTINUOUS
 62
     7
100
AcDbLine
 10
815.315854
 20
118.363905
 30
0.0
 11
816.330854
 21
118.363905
 31
0.0
  0
LINE
  5
1ED
100
AcDbEntity
  8
LAY-1
  6
CONTINUOUS
 62
     7
100
AcDbLine
 10
815.315854
 20
110.497655
 30
0.0
 11
815.315854
 21
118.617655
 31
0.0
  0
ARC
  5
1EE
100
AcDbEntity
  8
LAY-1
  6
CONTINUOUS
 62
     7
100
AcDbCircle
 10
821.747818
 20
109.557613
 30
0.0
 40
2.075245
100
AcDbArc
 50
145.773646
 51
214.226354
  0
ARC
  5
1EF
100
AcDbEntity
  8
LAY-1
  6
CONTINUOUS
 62
     7
100
AcDbCircle
 10
827.606146
 20
113.059363
 30
0.0
 40
7.925792
100
AcDbArc
 50
162.869763
 51
197.130237
  0
ARC
  5
1F0
100
AcDbEntity
  8
LAY-1
  6
CONTINUOUS
 62
     7
100
AcDbCircle
 10
821.774179
 20
116.561113
 30
0.0
 40
2.097093
100
AcDbArc
 50
146.178743
 51
213.821257
  0
LINE
  5
1F1
100
AcDbEntity
  8
LAY-1
  6
CONTINUOUS
 62
     7
100
AcDbLine
 10
818.360854
 20
108.390363
 30
0.0
 11
819.680354
 21
108.390363
 31
0.0
  0
LINE
  5
1F2
100
AcDbEntity
  8
LAY-1
  6
CONTINUOUS
 62
     7
100
AcDbLine
 10
819.680354
 20
108.390363
 30
0.0
 11
819.680354
 21
117.728363
 31
0.0
  0
LINE
  5
1F3
100
AcDbEntity
  8
LAY-1
  6
CONTINUOUS
 62
     7
100
AcDbLine
 10
819.680354
 20
117.728363
 30
0.0
 11
818.360854
 21
117.728363
 31
0.0
  0
LINE
  5
1F4
100
AcDbEntity
  8
LAY-1
  6
CONTINUOUS
 62
     7
100
AcDbLine
 10
820.03196
 20
117.728363
 30
0.0
 11
819.680354
 21
117.119363
 31
0.0
  0
LINE
  5
1F5
100
AcDbEntity
  8
LAY-1
  6
CONTINUOUS
 62
     7
100
AcDbLine
 10
819.680354
 20
108.999363
 30
0.0
 11
820.03196
 21
108.390363
 31
0.0
  0
LINE
  5
1F6
100
AcDbEntity
  8
LAY-1
  6
CONTINUOUS
 62
     7
100
AcDbLine
 10
819.680354
 20
113.059363
 30
0.0
 11
818.360854
 21
111.739863
 31
0.0
  0
LINE
  5
1F7
100
AcDbEntity
  8
LAY-1
  6
CONTINUOUS
 62
     7
100
AcDbLine
 10
818.360854
 20
113.059363
 30
0.0
 11
819.680354
 21
114.378863
 31
0.0
  0
ARC
  5
1F8
100
AcDbEntity
  8
LAY-1
  6
CONTINUOUS
 62
     7
100
AcDbCircle
 10
815.823354
 20
106.232363
 30
0.0
 40
2.5375
100
AcDbArc
 50
270.0
 51
0.0
  0
ARC
  5
1F9
100
AcDbEntity
  8
LAY-1
  6
CONTINUOUS
 62
     7
100
AcDbCircle
 10
815.823354
 20
106.232363
 30
0.0
 40
0.5075
100
AcDbArc
 50
270.0
 51
0.0
  0
LINE
  5
1FA
100
AcDbEntity
  8
LAY-1
  6
CONTINUOUS
 62
     7
100
AcDbLine
 10
818.360854
 20
106.232363
 30
0.0
 11
818.360854
 21
122.989849
 31
0.0
  0
LINE
  5
1FB
100
AcDbEntity
  8
LAY-1
  6
CONTINUOUS
 62
     7
100
AcDbLine
 10
815.315854
 20
107.805613
 30
0.0
 11
816.330854
 21
107.805613
 31
0.0
  0
LINE
  5
1FC
100
AcDbEntity
  8
LAY-1
  6
CONTINUOUS
 62
     7
100
AcDbLine
 10
815.315854
 20
118.388113
 30
0.0
 11
816.330854
 21
118.388113
 31
0.0
  0
LINE
  5
1FD
100
AcDbEntity
  8
LAY-1
  6
CONTINUOUS
 62
     7
100
AcDbLine
 10
814.280854
 20
121.906863
 30
0.0
 11
815.330854
 21
122.706863
 31
0.0
  0
LINE
  5
1FE
100
AcDbEntity
  8
LAY-1
  6
CONTINUOUS
 62
     7
100
AcDbLine
 10
813.793354
 20
106.606863
 30
0.0
 11
813.793354
 21
106.536863
 31
0.0
  0
LINE
  5
1FF
100
AcDbEntity
  8
LAY-1
  6
CONTINUOUS
 62
     7
100
AcDbLine
 10
815.315854
 20
115.671863
 30
0.0
 11
815.315854
 21
106.606863
 31
0.0
  0
LINE
  5
200
100
AcDbEntity
  8
LAY-1
  6
CONTINUOUS
 62
     7
100
AcDbLine
 10
814.280854
 20
104.219863
 30
0.0
 11
815.330854
 21
103.419863
 31
0.0
  0
LINE
  5
201
100
AcDbEntity
  8
LAY-1
  6
CONTINUOUS
 62
     7
100
AcDbLine
 10
815.330854
 20
106.606863
 30
0.0
 11
815.330854
 21
103.419863
 31
0.0
  0
LINE
  5
202
100
AcDbEntity
  8
LAY-1
  6
CONTINUOUS
 62
     7
100
AcDbLine
 10
815.823354
 20
105.724863
 30
0.0
 11
815.330854
 21
105.724863
 31
0.0
  0
LINE
  5
203
100
AcDbEntity
  8
LAY-1
  6
CONTINUOUS
 62
     7
100
AcDbLine
 10
815.330854
 20
103.694863
 30
0.0
 11
815.823354
 21
103.694863
 31
0.0
  0
LINE
  5
204
100
AcDbEntity
  8
LAY-1
  6
CONTINUOUS
 62
     7
100
AcDbLine
 10
816.330854
 20
106.232363
 30
0.0
 11
816.330854
 21
119.497391
 31
0.0
  0
LINE
  5
205
100
AcDbEntity
  8
LAY-1
  6
CONTINUOUS
 62
     7
100
AcDbLine
 10
816.330854
 20
120.647391
 30
0.0
 11
816.330854
 21
122.989849
 31
0.0
  0
LINE
  5
206
100
AcDbEntity
  8
LAY-1
  6
CONTINUOUS
 62
     7
100
AcDbLine
 10
815.330854
 20
120.647391
 30
0.0
 11
815.330854
 21
122.706863
 31
0.0
  0
LINE
  5
207
100
AcDbEntity
  8
LAY-1
  6
CONTINUOUS
 62
     7
100
AcDbLine
 10
814.75068
 20
120.647391
 30
0.0
 11
814.75068
 21
119.487391
 31
0.0
  0
LINE
  5
208
100
AcDbEntity
  8
LAY-1
  6
CONTINUOUS
 62
     7
100
AcDbLine
 10
818.36068
 20
120.647391
 30
0.0
 11
814.75068
 21
120.647391
 31
0.0
  0
LINE
  5
209
100
AcDbEntity
  8
LAY-1
  6
CONTINUOUS
 62
     7
100
AcDbLine
 10
815.315854
 20
110.521863
 30
0.0
 11
815.315854
 21
119.497391
 31
0.0
  0
LINE
  5
20A
100
AcDbEntity
  8
LAY-1
  6
CONTINUOUS
 62
     7
100
AcDbLine
 10
818.36068
 20
119.487391
 30
0.0
 11
814.75068
 21
119.487391
 31
0.0
  0
LINE
  5
20B
100
AcDbEntity
  8
LAY-1
  6
CONTINUOUS
 62
     7
100
AcDbLine
 10
816.330854
 20
106.208155
 30
0.0
 11
816.330854
 21
119.487391
 31
0.0
  0
LINE
  5
20C
100
AcDbEntity
  8
LAY-1
  6
CONTINUOUS
 62
     7
100
AcDbLine
 10
815.823354
 20
105.700655
 30
0.0
 11
815.330854
 21
105.700655
 31
0.0
  0
LINE
  5
20D
100
AcDbEntity
  8
LAY-1
  6
CONTINUOUS
 62
     7
100
AcDbLine
 10
813.793354
 20
106.582655
 30
0.0
 11
813.793354
 21
106.512655
 31
0.0
  0
LINE
  5
20E
100
AcDbEntity
  8
LAY-1
  6
CONTINUOUS
 62
     7
100
AcDbLine
 10
815.315854
 20
118.617655
 30
0.0
 11
813.793354
 21
119.632655
 31
0.0
  0
LINE
  5
20F
100
AcDbEntity
  8
LAY-1
  6
CONTINUOUS
 62
     7
100
AcDbLine
 10
814.280854
 20
119.632655
 30
0.0
 11
814.280854
 21
121.906863
 31
0.0
  0
LINE
  5
210
100
AcDbEntity
  8
LAY-1
  6
CONTINUOUS
 62
     7
100
AcDbLine
 10
815.001689
 20
103.670655
 30
0.0
 11
815.823354
 21
103.670655
 31
0.0
  0
LINE
  5
211
100
AcDbEntity
  8
LAY-1
  6
CONTINUOUS
 62
     7
100
AcDbLine
 10
814.280854
 20
106.469863
 30
0.0
 11
814.280854
 21
104.219863
 31
0.0
  0
LINE
  5
212
100
AcDbEntity
  8
LAY-1
  6
CONTINUOUS
 62
     7
100
AcDbLine
 10
816.330854
 20
122.965641
 30
0.0
 11
818.360854
 21
122.965641
 31
0.0
  0
ARC
  5
213
100
AcDbEntity
  8
LAY-1
  6
CONTINUOUS
 62
     7
100
AcDbCircle
 10
818.868354
 20
122.965641
 30
0.0
 40
2.5375
100
AcDbArc
 50
119.744881
 51
180.0
  0
ARC
  5
214
100
AcDbEntity
  8
LAY-1
  6
CONTINUOUS
 62
     7
100
AcDbCircle
 10
818.868354
 20
122.965641
 30
0.0
 40
0.5075
100
AcDbArc
 50
119.744881
 51
180.0
  0
ARC
  5
215
100
AcDbEntity
  8
LAY-1
  6
CONTINUOUS
 62
     7
100
AcDbCircle
 10
818.868354
 20
122.989849
 30
0.0
 40
0.5075
100
AcDbArc
 50
119.744881
 51
180.0
  0
ARC
  5
216
100
AcDbEntity
  8
LAY-1
  6
CONTINUOUS
 62
     7
100
AcDbCircle
 10
818.868354
 20
122.989849
 30
0.0
 40
2.5375
100
AcDbArc
 50
119.744881
 51
180.0
  0
LINE
  5
217
100
AcDbEntity
  8
LAY-1
  6
CONTINUOUS
 62
     7
100
AcDbLine
 10
818.616563
 20
123.406274
 30
0.0
 11
825.304525
 21
127.227967
 31
0.0
  0
LINE
  5
218
100
AcDbEntity
  8
LAY-1
  6
CONTINUOUS
 62
     7
100
AcDbLine
 10
817.609401
 20
125.168808
 30
0.0
 11
824.289515
 21
128.986016
 31
0.0
  0
LINE
  5
219
100
AcDbEntity
  8
LAY-1
  6
CONTINUOUS
 62
     7
100
AcDbLine
 10
825.558278
 20
126.788455
 30
0.0
 11
824.035763
 21
129.425528
 31
0.0
  0
LINE
  5
21A
100
AcDbEntity
  8
LAY-1
  6
CONTINUOUS
 62
     7
100
AcDbLine
 10
824.035763
 20
129.425528
 30
0.0
 11
829.777644
 21
132.706603
 31
0.0
  0
LINE
  5
21B
100
AcDbEntity
  8
LAY-1
  6
CONTINUOUS
 62
     7
100
AcDbLine
 10
825.558278
 20
126.788455
 30
0.0
 11
831.288387
 21
130.062803
 31
0.0
  0
LINE
  5
21C
100
AcDbEntity
  8
LAY-1
  6
CONTINUOUS
 62
     7
100
AcDbLine
 10
830.033354
 20
172.996129
 30
0.0
 11
830.033354
 21
133.147237
 31
0.0
  0
LINE
  5
21D
100
AcDbEntity
  8
LAY-1
  6
CONTINUOUS
 62
     7
100
AcDbLine
 10
833.078354
 20
133.147237
 30
0.0
 11
833.078354
 21
172.95442
 31
0.0
  0
ARC
  5
21E
100
AcDbEntity
  8
LAY-1
  6
CONTINUOUS
 62
     7
100
AcDbCircle
 10
831.556425
 20
172.996129
 30
0.0
 40
1.5225
100
AcDbArc
 50
358.430171
 51
180.0
  0
ARC
  5
21F
100
AcDbEntity
  8
LAY-1
  6
CONTINUOUS
 62
     7
100
AcDbCircle
 10
829.525854
 20
133.147237
 30
0.0
 40
0.5075
100
AcDbArc
 50
299.744881
 51
0.0
  0
ARC
  5
220
100
AcDbEntity
  8
LAY-1
  6
CONTINUOUS
 62
     7
100
AcDbCircle
 10
829.525854
 20
133.147237
 30
0.0
 40
3.5525
100
AcDbArc
 50
299.744881
 51
0.0
  0
LINE
  5
221
100
AcDbEntity
  8
LAY-1
  6
CONTINUOUS
 62
     7
100
AcDbLine
 10
799.226813
 20
242.757391
 30
0.0
 11
799.12288
 21
246.912815
 31
0.0
  0
LINE
  5
222
100
AcDbEntity
  8
LAY-1
  6
CONTINUOUS
 62
     7
100
AcDbLine
 10
812.294547
 20
242.757391
 30
0.0
 11
812.398414
 21
246.910167
 31
0.0
  0
LINE
  5
223
100
AcDbEntity
  8
LAY-1
  6
CONTINUOUS
 62
     7
100
AcDbLine
 10
827.76068
 20
263.909891
 30
0.0
 11
805.76068
 21
263.909891
 31
0.0
  0
LINE
  5
224
100
AcDbEntity
  8
LAY-1
  6
CONTINUOUS
 62
     7
100
AcDbLine
 10
827.76068
 20
259.909891
 30
0.0
 11
827.76068
 21
263.909891
 31
0.0
  0
LINE
  5
225
100
AcDbEntity
  8
LAY-1
  6
CONTINUOUS
 62
     7
100
AcDbLine
 10
805.76068
 20
259.909891
 30
0.0
 11
827.76068
 21
259.909891
 31
0.0
  0
LINE
  5
226
100
AcDbEntity
  8
LAY-1
  6
CONTINUOUS
 62
     7
100
AcDbLine
 10
826.76068
 20
258.909891
 30
0.0
 11
826.76068
 21
259.909891
 31
0.0
  0
LINE
  5
227
100
AcDbEntity
  8
LAY-1
  6
CONTINUOUS
 62
     7
100
AcDbLine
 10
796.26068
 20
246.909891
 30
0.0
 11
794.791025
 21
247.758397
 31
0.0
  0
LINE
  5
228
100
AcDbEntity
  8
LAY-1
  6
CONTINUOUS
 62
     7
100
AcDbLine
 10
794.791025
 20
247.758397
 30
0.0
 11
794.791025
 21
256.061385
 31
0.0
  0
LINE
  5
229
100
AcDbEntity
  8
LAY-1
  6
CONTINUOUS
 62
     7
100
AcDbLine
 10
794.791025
 20
256.061385
 30
0.0
 11
796.26068
 21
256.909891
 31
0.0
  0
LINE
  5
22A
100
AcDbEntity
  8
LAY-1
  6
CONTINUOUS
 62
     7
100
AcDbLine
 10
796.26068
 20
256.909891
 30
0.0
 11
805.76068
 21
256.909891
 31
0.0
  0
ARC
  5
22B
100
AcDbEntity
  8
LAY-1
  6
CONTINUOUS
 62
     7
100
AcDbCircle
 10
797.533439
 20
252.053828
 30
0.0
 40
4.856063
100
AcDbArc
 50
55.615753
 51
124.384247
  0
LINE
  5
22C
100
AcDbEntity
  8
LAY-1
  6
CONTINUOUS
 62
     7
100
AcDbLine
 10
814.26068
 20
246.909891
 30
0.0
 11
805.76068
 21
246.909891
 31
0.0
  0
ARC
  5
22D
100
AcDbEntity
  8
LAY-1
  6
CONTINUOUS
 62
     7
100
AcDbCircle
 10
805.76068
 20
238.758397
 30
0.0
 40
18.151494
100
AcDbArc
 50
72.412046
 51
107.587954
  0
LINE
  5
22E
100
AcDbEntity
  8
LAY-1
  6
CONTINUOUS
 62
     7
100
AcDbLine
 10
796.26068
 20
246.909891
 30
0.0
 11
805.76068
 21
246.909891
 31
0.0
  0
ARC
  5
22F
100
AcDbEntity
  8
LAY-1
  6
CONTINUOUS
 62
     7
100
AcDbCircle
 10
805.76068
 20
265.061385
 30
0.0
 40
18.151494
100
AcDbArc
 50
252.412046
 51
287.587954
  0
ARC
  5
230
100
AcDbEntity
  8
LAY-1
  6
CONTINUOUS
 62
     7
100
AcDbCircle
 10
797.533439
 20
251.765954
 30
0.0
 40
4.856063
100
AcDbArc
 50
235.615753
 51
304.384247
  0
LINE
  5
231
100
AcDbEntity
  8
LAY-1
  6
CONTINUOUS
 62
     7
100
AcDbLine
 10
796.26068
 20
256.909891
 30
0.0
 11
793.76068
 21
256.909891
 31
0.0
  0
LINE
  5
232
100
AcDbEntity
  8
LAY-1
  6
CONTINUOUS
 62
     7
100
AcDbLine
 10
800.275852
 20
247.758397
 30
0.0
 11
800.275852
 21
256.061385
 31
0.0
  0
LINE
  5
233
100
AcDbEntity
  8
LAY-1
  6
CONTINUOUS
 62
     7
100
AcDbLine
 10
793.76068
 20
256.909891
 30
0.0
 11
790.296578
 21
258.909891
 31
0.0
  0
LINE
  5
234
100
AcDbEntity
  8
LAY-1
  6
CONTINUOUS
 62
     7
100
AcDbLine
 10
811.245508
 20
247.758397
 30
0.0
 11
811.245508
 21
256.061385
 31
0.0
  0
ARC
  5
235
100
AcDbEntity
  8
LAY-1
  6
CONTINUOUS
 62
     7
100
AcDbCircle
 10
813.987921
 20
251.765954
 30
0.0
 40
4.856063
100
AcDbArc
 50
235.615753
 51
304.384247
  0
ARC
  5
236
100
AcDbEntity
  8
LAY-1
  6
CONTINUOUS
 62
     7
100
AcDbCircle
 10
813.987921
 20
252.053828
 30
0.0
 40
4.856063
100
AcDbArc
 50
55.615753
 51
124.384247
  0
LINE
  5
237
100
AcDbEntity
  8
LAY-1
  6
CONTINUOUS
 62
     7
100
AcDbLine
 10
816.730335
 20
256.061385
 30
0.0
 11
815.26068
 21
256.909891
 31
0.0
  0
LINE
  5
238
100
AcDbEntity
  8
LAY-1
  6
CONTINUOUS
 62
     7
100
AcDbLine
 10
816.730335
 20
247.758397
 30
0.0
 11
816.730335
 21
256.061385
 31
0.0
  0
LINE
  5
239
100
AcDbEntity
  8
LAY-1
  6
CONTINUOUS
 62
     7
100
AcDbLine
 10
815.26068
 20
246.909891
 30
0.0
 11
816.730335
 21
247.758397
 31
0.0
  0
LINE
  5
23A
100
AcDbEntity
  8
LAY-1
  6
CONTINUOUS
 62
     7
100
AcDbLine
 10
815.26068
 20
256.909891
 30
0.0
 11
805.76068
 21
256.909891
 31
0.0
  0
LINE
  5
23B
100
AcDbEntity
  8
LAY-1
  6
CONTINUOUS
 62
     7
100
AcDbLine
 10
805.76068
 20
258.909891
 30
0.0
 11
784.76068
 21
258.909891
 31
0.0
  0
LINE
  5
23C
100
AcDbEntity
  8
LAY-1
  6
CONTINUOUS
 62
     7
100
AcDbLine
 10
784.76068
 20
258.909891
 30
0.0
 11
784.76068
 21
259.909891
 31
0.0
  0
LINE
  5
23D
100
AcDbEntity
  8
LAY-1
  6
CONTINUOUS
 62
     7
100
AcDbLine
 10
805.76068
 20
259.909891
 30
0.0
 11
783.76068
 21
259.909891
 31
0.0
  0
LINE
  5
23E
100
AcDbEntity
  8
LAY-1
  6
CONTINUOUS
 62
     7
100
AcDbLine
 10
783.76068
 20
259.909891
 30
0.0
 11
783.76068
 21
263.909891
 31
0.0
  0
LINE
  5
23F
100
AcDbEntity
  8
LAY-1
  6
CONTINUOUS
 62
     7
100
AcDbLine
 10
783.76068
 20
263.909891
 30
0.0
 11
805.76068
 21
263.909891
 31
0.0
  0
ARC
  5
240
100
AcDbEntity
  8
LAY-1
  6
CONTINUOUS
 62
     7
100
AcDbCircle
 10
805.76068
 20
184.743225
 30
0.0
 40
82.166667
100
AcDbArc
 50
74.469668
 51
105.530332
  0
LINE
  5
241
100
AcDbEntity
  8
LAY-1
  6
CONTINUOUS
 62
     7
100
AcDbLine
 10
805.76068
 20
258.909891
 30
0.0
 11
826.76068
 21
258.909891
 31
0.0
  0
LINE
  5
242
100
AcDbEntity
  8
LAY-1
  6
CONTINUOUS
 62
     7
100
AcDbLine
 10
817.76068
 20
256.909891
 30
0.0
 11
821.224782
 21
258.909891
 31
0.0
  0
LINE
  5
243
100
AcDbEntity
  8
LAY-1
  6
CONTINUOUS
 62
     7
100
AcDbLine
 10
815.26068
 20
256.909891
 30
0.0
 11
817.76068
 21
256.909891
 31
0.0
  0
LINE
  5
244
100
AcDbEntity
  8
LAY-1
  6
CONTINUOUS
 62
     7
100
AcDbLine
 10
814.76068
 20
242.757391
 30
0.0
 11
796.76068
 21
242.757391
 31
0.0
  0
LINE
  5
245
100
AcDbEntity
  8
LAY-1
  6
CONTINUOUS
 62
     7
100
AcDbLine
 10
814.76068
 20
239.265612
 30
0.0
 11
814.76068
 21
242.757391
 31
0.0
  0
LINE
  5
246
100
AcDbEntity
  8
LAY-1
  6
CONTINUOUS
 62
     7
100
AcDbLine
 10
796.76068
 20
242.757391
 30
0.0
 11
796.76068
 21
239.265612
 31
0.0
  0
ARC
  5
247
100
AcDbEntity
  8
LAY-1
  6
CONTINUOUS
 62
     7
100
AcDbCircle
 10
910.41068
 20
251.457391
 30
0.0
 40
21.0
100
AcDbArc
 50
0.0
 51
90.0
  0
LINE
  5
248
100
AcDbEntity
  8
LAY-1
  6
CONTINUOUS
 62
     7
100
AcDbLine
 10
910.41068
 20
272.457391
 30
0.0
 11
701.11068
 21
272.457391
 31
0.0
  0
ARC
  5
249
100
AcDbEntity
  8
LAY-1
  6
CONTINUOUS
 62
     7
100
AcDbCircle
 10
701.11068
 20
251.457391
 30
0.0
 40
21.0
100
AcDbArc
 50
90.0
 51
180.0
  0
ARC
  5
24A
100
AcDbEntity
  8
LAY-1
  6
CONTINUOUS
 62
     7
100
AcDbCircle
 10
910.41068
 20
267.457391
 30
0.0
 40
21.0
100
AcDbArc
 50
0.0
 51
90.0
  0
LINE
  5
24B
100
AcDbEntity
  8
LAY-1
  6
CONTINUOUS
 62
     7
100
AcDbLine
 10
910.41068
 20
288.457391
 30
0.0
 11
701.11068
 21
288.457391
 31
0.0
  0
ARC
  5
24C
100
AcDbEntity
  8
LAY-1
  6
CONTINUOUS
 62
     7
100
AcDbCircle
 10
701.11068
 20
267.457391
 30
0.0
 40
21.0
100
AcDbArc
 50
90.0
 51
180.0
  0
ARC
  5
24D
100
AcDbEntity
  8
LAY-1
  6
CONTINUOUS
 62
     7
100
AcDbCircle
 10
854.683662
 20
175.0
 30
0.0
 40
1.5
100
AcDbArc
 50
90.0
 51
180.0
  0
LINE
  5
24E
100
AcDbEntity
  8
LAY-1
  6
CONTINUOUS
 62
     7
100
AcDbLine
 10
874.683662
 20
176.5
 30
0.0
 11
854.683662
 21
176.5
 31
0.0
  0
LINE
  5
24F
100
AcDbEntity
  8
LAY-1
  6
CONTINUOUS
 62
     7
100
AcDbLine
 10
853.183662
 20
170.0
 30
0.0
 11
853.183662
 21
175.0
 31
0.0
  0
ARC
  5
250
100
AcDbEntity
  8
LAY-1
  6
CONTINUOUS
 62
     7
100
AcDbCircle
 10
854.683662
 20
175.0
 30
0.0
 40
2.5
100
AcDbArc
 50
90.0
 51
180.0
  0
LINE
  5
251
100
AcDbEntity
  8
LAY-1
  6
CONTINUOUS
 62
     7
100
AcDbLine
 10
874.683662
 20
177.5
 30
0.0
 11
854.683662
 21
177.5
 31
0.0
  0
LINE
  5
252
100
AcDbEntity
  8
LAY-1
  6
CONTINUOUS
 62
     7
100
AcDbLine
 10
852.183662
 20
170.0
 30
0.0
 11
852.183662
 21
175.0
 31
0.0
  0
LINE
  5
253
100
AcDbEntity
  8
LAY-1
  6
CONTINUOUS
 62
     7
100
AcDbLine
 10
874.683662
 20
168.5
 30
0.0
 11
854.683662
 21
168.5
 31
0.0
  0
ARC
  5
254
100
AcDbEntity
  8
LAY-1
  6
CONTINUOUS
 62
     7
100
AcDbCircle
 10
854.683662
 20
170.0
 30
0.0
 40
1.5
100
AcDbArc
 50
180.0
 51
270.0
  0
LINE
  5
255
100
AcDbEntity
  8
LAY-1
  6
CONTINUOUS
 62
     7
100
AcDbLine
 10
874.683662
 20
167.5
 30
0.0
 11
854.683662
 21
167.5
 31
0.0
  0
ARC
  5
256
100
AcDbEntity
  8
LAY-1
  6
CONTINUOUS
 62
     7
100
AcDbCircle
 10
854.683662
 20
170.0
 30
0.0
 40
2.5
100
AcDbArc
 50
180.0
 51
270.0
  0
ARC
  5
257
100
AcDbEntity
  8
LAY-1
  6
CONTINUOUS
 62
     7
100
AcDbCircle
 10
874.683662
 20
175.0
 30
0.0
 40
1.5
100
AcDbArc
 50
0.0
 51
90.0
  0
LINE
  5
258
100
AcDbEntity
  8
LAY-1
  6
CONTINUOUS
 62
     7
100
AcDbLine
 10
876.183662
 20
170.0
 30
0.0
 11
876.183662
 21
175.0
 31
0.0
  0
ARC
  5
259
100
AcDbEntity
  8
LAY-1
  6
CONTINUOUS
 62
     7
100
AcDbCircle
 10
874.683662
 20
175.0
 30
0.0
 40
2.5
100
AcDbArc
 50
0.0
 51
90.0
  0
LINE
  5
25A
100
AcDbEntity
  8
LAY-1
  6
CONTINUOUS
 62
     7
100
AcDbLine
 10
877.183662
 20
170.0
 30
0.0
 11
877.183662
 21
175.0
 31
0.0
  0
ARC
  5
25B
100
AcDbEntity
  8
LAY-1
  6
CONTINUOUS
 62
     7
100
AcDbCircle
 10
874.683662
 20
170.0
 30
0.0
 40
1.5
100
AcDbArc
 50
270.0
 51
0.0
  0
ARC
  5
25C
100
AcDbEntity
  8
LAY-1
  6
CONTINUOUS
 62
     7
100
AcDbCircle
 10
874.683662
 20
170.0
 30
0.0
 40
2.5
100
AcDbArc
 50
270.0
 51
0.0
  0
ARC
  5
25D
100
AcDbEntity
  8
LAY-1
  6
CONTINUOUS
 62
     7
100
AcDbCircle
 10
735.183662
 20
159.5
 30
0.0
 40
1.5
100
AcDbArc
 50
90.0
 51
180.0
  0
LINE
  5
25E
100
AcDbEntity
  8
LAY-1
  6
CONTINUOUS
 62
     7
100
AcDbLine
 10
755.183662
 20
161.0
 30
0.0
 11
735.183662
 21
161.0
 31
0.0
  0
LINE
  5
25F
100
AcDbEntity
  8
LAY-1
  6
CONTINUOUS
 62
     7
100
AcDbLine
 10
733.683662
 20
154.5
 30
0.0
 11
733.683662
 21
159.5
 31
0.0
  0
ARC
  5
260
100
AcDbEntity
  8
LAY-1
  6
CONTINUOUS
 62
     7
100
AcDbCircle
 10
735.183662
 20
159.5
 30
0.0
 40
2.5
100
AcDbArc
 50
90.0
 51
180.0
  0
LINE
  5
261
100
AcDbEntity
  8
LAY-1
  6
CONTINUOUS
 62
     7
100
AcDbLine
 10
755.183662
 20
162.0
 30
0.0
 11
735.183662
 21
162.0
 31
0.0
  0
LINE
  5
262
100
AcDbEntity
  8
LAY-1
  6
CONTINUOUS
 62
     7
100
AcDbLine
 10
732.683662
 20
154.5
 30
0.0
 11
732.683662
 21
159.5
 31
0.0
  0
LINE
  5
263
100
AcDbEntity
  8
LAY-1
  6
CONTINUOUS
 62
     7
100
AcDbLine
 10
755.183662
 20
153.0
 30
0.0
 11
735.183662
 21
153.0
 31
0.0
  0
ARC
  5
264
100
AcDbEntity
  8
LAY-1
  6
CONTINUOUS
 62
     7
100
AcDbCircle
 10
735.183662
 20
154.5
 30
0.0
 40
1.5
100
AcDbArc
 50
180.0
 51
270.0
  0
LINE
  5
265
100
AcDbEntity
  8
LAY-1
  6
CONTINUOUS
 62
     7
100
AcDbLine
 10
755.183662
 20
152.0
 30
0.0
 11
735.183662
 21
152.0
 31
0.0
  0
ARC
  5
266
100
AcDbEntity
  8
LAY-1
  6
CONTINUOUS
 62
     7
100
AcDbCircle
 10
735.183662
 20
154.5
 30
0.0
 40
2.5
100
AcDbArc
 50
180.0
 51
270.0
  0
ARC
  5
267
100
AcDbEntity
  8
LAY-1
  6
CONTINUOUS
 62
     7
100
AcDbCircle
 10
755.183662
 20
159.5
 30
0.0
 40
1.5
100
AcDbArc
 50
0.0
 51
90.0
  0
LINE
  5
268
100
AcDbEntity
  8
LAY-1
  6
CONTINUOUS
 62
     7
100
AcDbLine
 10
756.683662
 20
154.5
 30
0.0
 11
756.683662
 21
159.5
 31
0.0
  0
ARC
  5
269
100
AcDbEntity
  8
LAY-1
  6
CONTINUOUS
 62
     7
100
AcDbCircle
 10
755.183662
 20
159.5
 30
0.0
 40
2.5
100
AcDbArc
 50
0.0
 51
90.0
  0
LINE
  5
26A
100
AcDbEntity
  8
LAY-1
  6
CONTINUOUS
 62
     7
100
AcDbLine
 10
757.683662
 20
154.5
 30
0.0
 11
757.683662
 21
159.5
 31
0.0
  0
ARC
  5
26B
100
AcDbEntity
  8
LAY-1
  6
CONTINUOUS
 62
     7
100
AcDbCircle
 10
755.183662
 20
154.5
 30
0.0
 40
1.5
100
AcDbArc
 50
270.0
 51
0.0
  0
ARC
  5
26C
100
AcDbEntity
  8
LAY-1
  6
CONTINUOUS
 62
     7
100
AcDbCircle
 10
755.183662
 20
154.5
 30
0.0
 40
2.5
100
AcDbArc
 50
270.0
 51
0.0
  0
LINE
  5
26D
100
AcDbEntity
  8
LAY-1
  6
CONTINUOUS
 62
     7
100
AcDbLine
 10
928.91068
 20
8.457391
 30
0.0
 11
931.41068
 21
8.457391
 31
0.0
  0
LINE
  5
26E
100
AcDbEntity
  8
LAY-1
  6
CONTINUOUS
 62
     7
100
AcDbLine
 10
931.41068
 20
267.457391
 30
0.0
 11
931.41068
 21
8.457391
 31
0.0
  0
LINE
  5
26F
100
AcDbEntity
  8
LAY-1
  6
CONTINUOUS
 62
     7
100
AcDbLine
 10
682.61068
 20
8.457391
 30
0.0
 11
680.11068
 21
8.457391
 31
0.0
  0
LINE
  5
270
100
AcDbEntity
  8
LAY-1
  6
CONTINUOUS
 62
     7
100
AcDbLine
 10
680.11068
 20
267.457391
 30
0.0
 11
680.11068
 21
8.457391
 31
0.0
  0
LINE
  5
271
100
AcDbEntity
  8
LAY-1
  6
CONTINUOUS
 62
     7
100
AcDbLine
 10
677.61068
 20
40.957391
 30
0.0
 11
677.61068
 21
28.457391
 31
0.0
  0
LINE
  5
272
100
AcDbEntity
  8
LAY-1
  6
CONTINUOUS
 62
     7
100
AcDbLine
 10
669.11068
 20
40.457391
 30
0.0
 11
677.61068
 21
40.957391
 31
0.0
  0
LINE
  5
273
100
AcDbEntity
  8
LAY-1
  6
CONTINUOUS
 62
     7
100
AcDbLine
 10
677.61068
 20
38.457391
 30
0.0
 11
680.11068
 21
38.457391
 31
0.0
  0
LINE
  5
274
100
AcDbEntity
  8
LAY-1
  6
CONTINUOUS
 62
     7
100
AcDbLine
 10
669.11068
 20
16.457391
 30
0.0
 11
677.61068
 21
15.957391
 31
0.0
  0
LINE
  5
275
100
AcDbEntity
  8
LAY-1
  6
CONTINUOUS
 62
     7
100
AcDbLine
 10
677.61068
 20
18.457391
 30
0.0
 11
680.11068
 21
18.457391
 31
0.0
  0
ARC
  5
276
100
AcDbEntity
  8
LAY-1
  6
CONTINUOUS
 62
     7
100
AcDbCircle
 10
704.11068
 20
28.457391
 30
0.0
 40
37.0
100
AcDbArc
 50
161.075356
 51
198.924644
  0
LINE
  5
277
100
AcDbEntity
  8
LAY-1
  6
CONTINUOUS
 62
     7
100
AcDbLine
 10
669.11068
 20
40.457391
 30
0.0
 11
669.11068
 21
16.457391
 31
0.0
  0
LINE
  5
278
100
AcDbEntity
  8
LAY-1
  6
CONTINUOUS
 62
     7
100
AcDbLine
 10
677.61068
 20
15.957391
 30
0.0
 11
677.61068
 21
28.457391
 31
0.0
  0
LINE
  5
279
100
AcDbEntity
  8
LAY-1
  6
CONTINUOUS
 62
     7
100
AcDbLine
 10
933.91068
 20
15.957391
 30
0.0
 11
933.91068
 21
28.457391
 31
0.0
  0
LINE
  5
27A
100
AcDbEntity
  8
LAY-1
  6
CONTINUOUS
 62
     7
100
AcDbLine
 10
942.41068
 20
16.457391
 30
0.0
 11
933.91068
 21
15.957391
 31
0.0
  0
LINE
  5
27B
100
AcDbEntity
  8
LAY-1
  6
CONTINUOUS
 62
     7
100
AcDbLine
 10
933.91068
 20
18.457391
 30
0.0
 11
931.41068
 21
18.457391
 31
0.0
  0
LINE
  5
27C
100
AcDbEntity
  8
LAY-1
  6
CONTINUOUS
 62
     7
100
AcDbLine
 10
942.41068
 20
40.457391
 30
0.0
 11
933.91068
 21
40.957391
 31
0.0
  0
LINE
  5
27D
100
AcDbEntity
  8
LAY-1
  6
CONTINUOUS
 62
     7
100
AcDbLine
 10
933.91068
 20
38.457391
 30
0.0
 11
931.41068
 21
38.457391
 31
0.0
  0
ARC
  5
27E
100
AcDbEntity
  8
LAY-1
  6
CONTINUOUS
 62
     7
100
AcDbCircle
 10
907.41068
 20
28.457391
 30
0.0
 40
37.0
100
AcDbArc
 50
341.075356
 51
18.924644
  0
LINE
  5
27F
100
AcDbEntity
  8
LAY-1
  6
CONTINUOUS
 62
     7
100
AcDbLine
 10
942.41068
 20
16.457391
 30
0.0
 11
942.41068
 21
40.457391
 31
0.0
  0
LINE
  5
280
100
AcDbEntity
  8
LAY-1
  6
CONTINUOUS
 62
     7
100
AcDbLine
 10
933.91068
 20
40.957391
 30
0.0
 11
933.91068
 21
28.457391
 31
0.0
  0
LINE
  5
281
100
AcDbEntity
  8
LAY-1
  6
EXLTYPE3
 62
     1
100
AcDbLine
 10
167.658453
 20
823.01597
 30
0.0
 11
212.158453
 21
823.01597
 31
0.0
  0
LINE
  5
282
100
AcDbEntity
  8
LAY-1
  6
EXLTYPE3
 62
     1
100
AcDbLine
 10
189.869133
 20
802.177308
 30
0.0
 11
189.869133
 21
840.527308
 31
0.0
  0
LINE
  5
283
100
AcDbEntity
  8
LAY-1
  6
EXLTYPE3
 62
     1
100
AcDbLine
 10
164.208453
 20
523.01597
 30
0.0
 11
209.958453
 21
523.01597
 31
0.0
  0
LINE
  5
284
100
AcDbEntity
  8
LAY-1
  6
EXLTYPE3
 62
     1
100
AcDbLine
 10
189.869133
 20
500.927308
 30
0.0
 11
189.869133
 21
543.227308
 31
0.0
  0
CIRCLE
  5
285
100
AcDbEntity
  8
LAY-1
  6
CONTINUOUS
 62
     7
100
AcDbCircle
 10
189.869133
 20
823.01597
 30
0.0
 40
12.5
  0
CIRCLE
  5
286
100
AcDbEntity
  8
LAY-1
  6
CONTINUOUS
 62
     7
100
AcDbCircle
 10
189.869133
 20
823.01597
 30
0.0
 40
12.0
  0
CIRCLE
  5
287
100
AcDbEntity
  8
LAY-1
  6
CONTINUOUS
 62
     7
100
AcDbCircle
 10
189.869133
 20
523.01597
 30
0.0
 40
12.5
  0
CIRCLE
  5
288
100
AcDbEntity
  8
LAY-1
  6
CONTINUOUS
 62
     7
100
AcDbCircle
 10
189.869133
 20
523.01597
 30
0.0
 40
12.0
  0
LINE
  5
289
100
AcDbEntity
  8
LAY-1
  6
CONTINUOUS
 62
     7
100
AcDbLine
 10
169.869133
 20
1076.01597
 30
0.0
 11
449.869133
 21
1061.341792
 31
0.0
  0
LINE
  5
28A
100
AcDbEntity
  8
LAY-1
  6
CONTINUOUS
 62
     7
100
AcDbLine
 10
433.869133
 20
406.01597
 30
0.0
 11
433.869133
 21
1062.180317
 31
0.0
  0
LINE
  5
28B
100
AcDbEntity
  8
LAY-1
  6
CONTINUOUS
 62
     7
100
AcDbLine
 10
169.869133
 20
527.01597
 30
0.0
 11
178.026414
 21
527.01597
 31
0.0
  0
LINE
  5
28C
100
AcDbEntity
  8
LAY-1
  6
CONTINUOUS
 62
     7
100
AcDbLine
 10
169.869133
 20
519.01597
 30
0.0
 11
178.026414
 21
519.01597
 31
0.0
  0
LINE
  5
28D
100
AcDbEntity
  8
LAY-1
  6
CONTINUOUS
 62
     7
100
AcDbLine
 10
433.869133
 20
406.01597
 30
0.0
 11
179.869133
 21
406.01597
 31
0.0
  0
LINE
  5
28E
100
AcDbEntity
  8
LAY-1
  6
CONTINUOUS
 62
     7
100
AcDbLine
 10
169.869133
 20
416.01597
 30
0.0
 11
169.869133
 21
1076.01597
 31
0.0
  0
ARC
  5
28F
100
AcDbEntity
  8
LAY-1
  6
CONTINUOUS
 62
     7
100
AcDbCircle
 10
179.869133
 20
416.01597
 30
0.0
 40
10.0
100
AcDbArc
 50
180.0
 51
270.0
  0
CIRCLE
  5
290
100
AcDbEntity
  8
LAY-1
  6
CONTINUOUS
 62
     7
100
AcDbCircle
 10
805.76068
 20
818.01597
 30
0.0
 40
25.0
  0
CIRCLE
  5
291
100
AcDbEntity
  8
LAY-1
  6
CONTINUOUS
 62
     7
100
AcDbCircle
 10
805.76068
 20
818.01597
 30
0.0
 40
22.0
  0
CIRCLE
  5
292
100
AcDbEntity
  8
LAY-1
  6
CONTINUOUS
 62
     7
100
AcDbCircle
 10
791.335891
 20
805.327534
 30
0.0
 40
0.830769
  0
LINE
  5
293
100
AcDbEntity
  8
LAY-1
  6
CONTINUOUS
 62
     7
100
AcDbLine
 10
808.291011
 20
820.159608
 30
0.0
 11
808.388952
 21
822.700737
 31
0.0
  0
LINE
  5
294
100
AcDbEntity
  8
LAY-1
  6
CONTINUOUS
 62
     7
100
AcDbLine
 10
810.793668
 20
819.708347
 30
0.0
 11
808.291011
 21
820.159608
 31
0.0
  0
LINE
  5
295
100
AcDbEntity
  8
LAY-1
  6
CONTINUOUS
 62
     7
100
AcDbLine
 10
808.388952
 20
822.700737
 30
0.0
 11
789.521881
 21
805.076538
 31
0.0
  0
LINE
  5
296
100
AcDbEntity
  8
LAY-1
  6
CONTINUOUS
 62
     7
100
AcDbLine
 10
810.793668
 20
819.708347
 30
0.0
 11
789.521881
 21
805.076538
 31
0.0
  0
LINE
  5
297
100
AcDbEntity
  8
LAY-1
  6
CONTINUOUS
 62
     7
100
AcDbLine
 10
680.11068
 20
1061.341792
 30
0.0
 11
931.41068
 21
1061.341792
 31
0.0
  0
LINE
  5
298
100
AcDbEntity
  8
LAY-1
  6
CONTINUOUS
 62
     7
100
AcDbLine
 10
680.11068
 20
1076.01597
 30
0.0
 11
931.41068
 21
1076.01597
 31
0.0
  0
LINE
  5
299
100
AcDbEntity
  8
LAY-1
  6
CONTINUOUS
 62
     7
100
AcDbLine
 10
931.41068
 20
1076.01597
 30
0.0
 11
931.41068
 21
406.01597
 31
0.0
  0
LINE
  5
29A
100
AcDbEntity
  8
LAY-1
  6
CONTINUOUS
 62
     7
100
AcDbLine
 10
680.11068
 20
1076.01597
 30
0.0
 11
680.11068
 21
406.01597
 31
0.0
  0
LINE
  5
29B
100
AcDbEntity
  8
LAY-1
  6
CONTINUOUS
 62
     7
100
AcDbLine
 10
931.41068
 20
406.01597
 30
0.0
 11
680.11068
 21
406.01597
 31
0.0
  0
LINE
  5
29C
100
AcDbEntity
  8
LAY-1
  6
CONTINUOUS
 62
     7
100
AcDbLine
 10
780.79575
 20
890.058579
 30
0.0
 11
780.79575
 21
884.717975
 31
0.0
  0
LINE
  5
29D
100
AcDbEntity
  8
LAY-1
  6
CONTINUOUS
 62
     7
100
AcDbLine
 10
781.79575
 20
890.058579
 30
0.0
 11
781.79575
 21
884.717975
 31
0.0
  0
LINE
  5
29E
100
AcDbEntity
  8
LAY-1
  6
CONTINUOUS
 62
     7
100
AcDbLine
 10
830.79575
 20
890.058579
 30
0.0
 11
830.79575
 21
884.717975
 31
0.0
  0
LINE
  5
29F
100
AcDbEntity
  8
LAY-1
  6
CONTINUOUS
 62
     7
100
AcDbLine
 10
829.79575
 20
890.058579
 30
0.0
 11
829.79575
 21
884.717975
 31
0.0
  0
LINE
  5
2A0
100
AcDbEntity
  8
LAY-1
  6
CONTINUOUS
 62
     7
100
AcDbLine
 10
783.29575
 20
882.217975
 30
0.0
 11
828.29575
 21
882.217975
 31
0.0
  0
LINE
  5
2A1
100
AcDbEntity
  8
LAY-1
  6
CONTINUOUS
 62
     7
100
AcDbLine
 10
783.29575
 20
883.217975
 30
0.0
 11
828.29575
 21
883.217975
 31
0.0
  0
ARC
  5
2A2
100
AcDbEntity
  8
LAY-1
  6
CONTINUOUS
 62
     7
100
AcDbCircle
 10
783.29575
 20
884.717975
 30
0.0
 40
1.5
100
AcDbArc
 50
180.0
 51
270.0
  0
ARC
  5
2A3
100
AcDbEntity
  8
LAY-1
  6
CONTINUOUS
 62
     7
100
AcDbCircle
 10
783.29575
 20
884.717975
 30
0.0
 40
2.5
100
AcDbArc
 50
180.0
 51
270.0
  0
ARC
  5
2A4
100
AcDbEntity
  8
LAY-1
  6
CONTINUOUS
 62
     7
100
AcDbCircle
 10
828.29575
 20
884.717975
 30
0.0
 40
1.5
100
AcDbArc
 50
270.0
 51
0.0
  0
ARC
  5
2A5
100
AcDbEntity
  8
LAY-1
  6
CONTINUOUS
 62
     7
100
AcDbCircle
 10
828.29575
 20
884.717975
 30
0.0
 40
2.5
100
AcDbArc
 50
270.0
 51
0.0
  0
ARC
  5
2A6
100
AcDbEntity
  8
LAY-1
  6
CONTINUOUS
 62
     7
100
AcDbCircle
 10
783.29575
 20
890.058579
 30
0.0
 40
1.5
100
AcDbArc
 50
90.0
 51
180.0
  0
LINE
  5
2A7
100
AcDbEntity
  8
LAY-1
  6
CONTINUOUS
 62
     7
100
AcDbLine
 10
783.29575
 20
891.558579
 30
0.0
 11
828.29575
 21
891.558579
 31
0.0
  0
ARC
  5
2A8
100
AcDbEntity
  8
LAY-1
  6
CONTINUOUS
 62
     7
100
AcDbCircle
 10
828.29575
 20
890.058579
 30
0.0
 40
1.5
100
AcDbArc
 50
0.0
 51
90.0
  0
ARC
  5
2A9
100
AcDbEntity
  8
LAY-1
  6
CONTINUOUS
 62
     7
100
AcDbCircle
 10
828.29575
 20
890.058579
 30
0.0
 40
2.5
100
AcDbArc
 50
0.0
 51
90.0
  0
LINE
  5
2AA
100
AcDbEntity
  8
LAY-1
  6
CONTINUOUS
 62
     7
100
AcDbLine
 10
783.29575
 20
892.558579
 30
0.0
 11
828.29575
 21
892.558579
 31
0.0
  0
ARC
  5
2AB
100
AcDbEntity
  8
LAY-1
  6
CONTINUOUS
 62
     7
100
AcDbCircle
 10
783.29575
 20
890.058579
 30
0.0
 40
2.5
100
AcDbArc
 50
90.0
 51
180.0
  0
LINE
  5
2AC
100
AcDbEntity
  8
LAY-1
  6
CONTINUOUS
 62
     7
100
AcDbLine
 10
783.26068
 20
771.008579
 30
0.0
 11
828.26068
 21
771.008579
 31
0.0
  0
LINE
  5
2AD
100
AcDbEntity
  8
LAY-1
  6
CONTINUOUS
 62
     7
100
AcDbLine
 10
783.26068
 20
772.008579
 30
0.0
 11
828.26068
 21
772.008579
 31
0.0
  0
ARC
  5
2AE
100
AcDbEntity
  8
LAY-1
  6
CONTINUOUS
 62
     7
100
AcDbCircle
 10
783.26068
 20
773.508579
 30
0.0
 40
1.5
100
AcDbArc
 50
180.0
 51
270.0
  0
ARC
  5
2AF
100
AcDbEntity
  8
LAY-1
  6
CONTINUOUS
 62
     7
100
AcDbCircle
 10
783.26068
 20
773.508579
 30
0.0
 40
2.5
100
AcDbArc
 50
180.0
 51
270.0
  0
LINE
  5
2B0
100
AcDbEntity
  8
LAY-1
  6
CONTINUOUS
 62
     7
100
AcDbLine
 10
780.76068
 20
783.508579
 30
0.0
 11
780.76068
 21
773.802603
 31
0.0
  0
LINE
  5
2B1
100
AcDbEntity
  8
LAY-1
  6
CONTINUOUS
 62
     7
100
AcDbLine
 10
781.76068
 20
783.508579
 30
0.0
 11
781.76068
 21
773.508579
 31
0.0
  0
LINE
  5
2B2
100
AcDbEntity
  8
LAY-1
  6
CONTINUOUS
 62
     7
100
AcDbLine
 10
829.76068
 20
783.508579
 30
0.0
 11
829.76068
 21
773.508579
 31
0.0
  0
ARC
  5
2B3
100
AcDbEntity
  8
LAY-1
  6
CONTINUOUS
 62
     7
100
AcDbCircle
 10
828.26068
 20
773.508579
 30
0.0
 40
1.5
100
AcDbArc
 50
270.0
 51
0.0
  0
ARC
  5
2B4
100
AcDbEntity
  8
LAY-1
  6
CONTINUOUS
 62
     7
100
AcDbCircle
 10
828.26068
 20
773.508579
 30
0.0
 40
2.5
100
AcDbArc
 50
270.0
 51
0.0
  0
LINE
  5
2B5
100
AcDbEntity
  8
LAY-1
  6
CONTINUOUS
 62
     7
100
AcDbLine
 10
830.76068
 20
783.508579
 30
0.0
 11
830.76068
 21
773.508579
 31
0.0
  0
ARC
  5
2B6
100
AcDbEntity
  8
LAY-1
  6
CONTINUOUS
 62
     7
100
AcDbCircle
 10
783.26068
 20
783.508579
 30
0.0
 40
1.5
100
AcDbArc
 50
90.0
 51
180.0
  0
LINE
  5
2B7
100
AcDbEntity
  8
LAY-1
  6
CONTINUOUS
 62
     7
100
AcDbLine
 10
783.26068
 20
785.008579
 30
0.0
 11
828.26068
 21
785.008579
 31
0.0
  0
ARC
  5
2B8
100
AcDbEntity
  8
LAY-1
  6
CONTINUOUS
 62
     7
100
AcDbCircle
 10
828.26068
 20
783.508579
 30
0.0
 40
1.5
100
AcDbArc
 50
0.0
 51
90.0
  0
ARC
  5
2B9
100
AcDbEntity
  8
LAY-1
  6
CONTINUOUS
 62
     7
100
AcDbCircle
 10
828.26068
 20
783.508579
 30
0.0
 40
2.5
100
AcDbArc
 50
0.0
 51
90.0
  0
LINE
  5
2BA
100
AcDbEntity
  8
LAY-1
  6
CONTINUOUS
 62
     7
100
AcDbLine
 10
783.26068
 20
786.008579
 30
0.0
 11
828.26068
 21
786.008579
 31
0.0
  0
ARC
  5
2BB
100
AcDbEntity
  8
LAY-1
  6
CONTINUOUS
 62
     7
100
AcDbCircle
 10
783.26068
 20
783.508579
 30
0.0
 40
2.5
100
AcDbArc
 50
90.0
 51
180.0
  0
LINE
  5
2BC
100
AcDbEntity
  8
LAY-1
  6
CONTINUOUS
 62
     7
100
AcDbLine
 10
931.41068
 20
944.51597
 30
0.0
 11
896.41068
 21
944.51597
 31
0.0
  0
LINE
  5
2BD
100
AcDbEntity
  8
LAY-1
  6
CONTINUOUS
 62
     7
100
AcDbLine
 10
931.41068
 20
914.51597
 30
0.0
 11
896.41068
 21
914.51597
 31
0.0
  0
LINE
  5
2BE
100
AcDbEntity
  8
LAY-1
  6
CONTINUOUS
 62
     7
100
AcDbLine
 10
896.41068
 20
944.51597
 30
0.0
 11
896.41068
 21
914.51597
 31
0.0
  0
LINE
  5
2BF
100
AcDbEntity
  8
LAY-1
  6
CONTINUOUS
 62
     7
100
AcDbLine
 10
745.76068
 20
713.51597
 30
0.0
 11
745.76068
 21
613.51597
 31
0.0
  0
ARC
  5
2C0
100
AcDbEntity
  8
LAY-1
  6
CONTINUOUS
 62
     7
100
AcDbCircle
 10
750.76068
 20
613.51597
 30
0.0
 40
5.0
100
AcDbArc
 50
180.0
 51
270.0
  0
ARC
  5
2C1
100
AcDbEntity
  8
LAY-1
  6
CONTINUOUS
 62
     7
100
AcDbCircle
 10
750.76068
 20
713.51597
 30
0.0
 40
5.0
100
AcDbArc
 50
90.0
 51
180.0
  0
LINE
  5
2C2
100
AcDbEntity
  8
LAY-1
  6
CONTINUOUS
 62
     7
100
AcDbLine
 10
860.76068
 20
718.51597
 30
0.0
 11
750.76068
 21
718.51597
 31
0.0
  0
ARC
  5
2C3
100
AcDbEntity
  8
LAY-1
  6
CONTINUOUS
 62
     7
100
AcDbCircle
 10
860.76068
 20
713.51597
 30
0.0
 40
5.0
100
AcDbArc
 50
0.0
 51
90.0
  0
LINE
  5
2C4
100
AcDbEntity
  8
LAY-1
  6
CONTINUOUS
 62
     7
100
AcDbLine
 10
750.76068
 20
608.51597
 30
0.0
 11
860.76068
 21
608.51597
 31
0.0
  0
LINE
  5
2C5
100
AcDbEntity
  8
LAY-1
  6
CONTINUOUS
 62
     7
100
AcDbLine
 10
865.76068
 20
713.51597
 30
0.0
 11
865.76068
 21
613.51597
 31
0.0
  0
ARC
  5
2C6
100
AcDbEntity
  8
LAY-1
  6
CONTINUOUS
 62
     7
100
AcDbCircle
 10
860.76068
 20
613.51597
 30
0.0
 40
5.0
100
AcDbArc
 50
270.0
 51
0.0
  0
LINE
  5
2C7
100
AcDbEntity
  8
LAY-1
  6
CONTINUOUS
 62
     7
100
AcDbLine
 10
906.76068
 20
504.01597
 30
0.0
 11
803.76068
 21
504.01597
 31
0.0
  0
ARC
  5
2C8
100
AcDbEntity
  8
LAY-1
  6
CONTINUOUS
 62
     7
100
AcDbCircle
 10
906.76068
 20
444.01597
 30
0.0
 40
2.0
100
AcDbArc
 50
270.0
 51
0.0
  0
LINE
  5
2C9
100
AcDbEntity
  8
LAY-1
  6
CONTINUOUS
 62
     7
100
AcDbLine
 10
908.76068
 20
514.01597
 30
0.0
 11
908.76068
 21
444.01597
 31
0.0
  0
ARC
  5
2CA
100
AcDbEntity
  8
LAY-1
  6
CONTINUOUS
 62
     7
100
AcDbCircle
 10
906.76068
 20
514.01597
 30
0.0
 40
2.0
100
AcDbArc
 50
0.0
 51
90.0
  0
LINE
  5
2CB
100
AcDbEntity
  8
LAY-1
  6
CONTINUOUS
 62
     7
100
AcDbLine
 10
803.76068
 20
516.01597
 30
0.0
 11
906.76068
 21
516.01597
 31
0.0
  0
ARC
  5
2CC
100
AcDbEntity
  8
LAY-1
  6
CONTINUOUS
 62
     7
100
AcDbCircle
 10
803.76068
 20
514.01597
 30
0.0
 40
2.0
100
AcDbArc
 50
90.0
 51
180.0
  0
LINE
  5
2CD
100
AcDbEntity
  8
LAY-1
  6
CONTINUOUS
 62
     7
100
AcDbLine
 10
801.76068
 20
514.01597
 30
0.0
 11
801.76068
 21
444.01597
 31
0.0
  0
ARC
  5
2CE
100
AcDbEntity
  8
LAY-1
  6
CONTINUOUS
 62
     7
100
AcDbCircle
 10
803.76068
 20
444.01597
 30
0.0
 40
2.0
100
AcDbArc
 50
180.0
 51
270.0
  0
LINE
  5
2CF
100
AcDbEntity
  8
LAY-1
  6
CONTINUOUS
 62
     7
100
AcDbLine
 10
803.76068
 20
453.01597
 30
0.0
 11
906.76068
 21
453.01597
 31
0.0
  0
LINE
  5
2D0
100
AcDbEntity
  8
LAY-1
  6
CONTINUOUS
 62
     7
100
AcDbLine
 10
900.51068
 20
493.01597
 30
0.0
 11
900.51068
 21
488.01597
 31
0.0
  0
LINE
  5
2D1
100
AcDbEntity
  8
LAY-1
  6
CONTINUOUS
 62
     7
100
AcDbLine
 10
866.51068
 20
493.01597
 30
0.0
 11
900.51068
 21
493.01597
 31
0.0
  0
LINE
  5
2D2
100
AcDbEntity
  8
LAY-1
  6
CONTINUOUS
 62
     7
100
AcDbLine
 10
900.51068
 20
488.01597
 30
0.0
 11
866.51068
 21
488.01597
 31
0.0
  0
LINE
  5
2D3
100
AcDbEntity
  8
LAY-1
  6
CONTINUOUS
 62
     7
100
AcDbLine
 10
866.51068
 20
493.01597
 30
0.0
 11
866.51068
 21
488.01597
 31
0.0
  0
LINE
  5
2D4
100
AcDbEntity
  8
LAY-1
  6
CONTINUOUS
 62
     7
100
AcDbLine
 10
838.51068
 20
494.01597
 30
0.0
 11
838.51068
 21
502.01597
 31
0.0
  0
LINE
  5
2D5
100
AcDbEntity
  8
LAY-1
  6
CONTINUOUS
 62
     7
100
AcDbLine
 10
846.51068
 20
494.01597
 30
0.0
 11
838.51068
 21
494.01597
 31
0.0
  0
LINE
  5
2D6
100
AcDbEntity
  8
LAY-1
  6
CONTINUOUS
 62
     7
100
AcDbLine
 10
846.51068
 20
502.01597
 30
0.0
 11
846.51068
 21
494.01597
 31
0.0
  0
LINE
  5
2D7
100
AcDbEntity
  8
LAY-1
  6
CONTINUOUS
 62
     7
100
AcDbLine
 10
838.51068
 20
502.01597
 30
0.0
 11
846.51068
 21
502.01597
 31
0.0
  0
ARC
  5
2D8
100
AcDbEntity
  8
LAY-1
  6
CONTINUOUS
 62
     7
100
AcDbCircle
 10
904.76068
 20
446.01597
 30
0.0
 40
2.0
100
AcDbArc
 50
270.0
 51
0.0
  0
LINE
  5
2D9
100
AcDbEntity
  8
LAY-1
  6
CONTINUOUS
 62
     7
100
AcDbLine
 10
906.76068
 20
446.01597
 30
0.0
 11
906.76068
 21
479.01597
 31
0.0
  0
LINE
  5
2DA
100
AcDbEntity
  8
LAY-1
  6
CONTINUOUS
 62
     7
100
AcDbLine
 10
904.76068
 20
514.01597
 30
0.0
 11
855.26068
 21
514.01597
 31
0.0
  0
ARC
  5
2DB
100
AcDbEntity
  8
LAY-1
  6
CONTINUOUS
 62
     7
100
AcDbCircle
 10
904.76068
 20
512.01597
 30
0.0
 40
2.0
100
AcDbArc
 50
0.0
 51
90.0
  0
LINE
  5
2DC
100
AcDbEntity
  8
LAY-1
  6
CONTINUOUS
 62
     7
100
AcDbLine
 10
906.76068
 20
512.01597
 30
0.0
 11
906.76068
 21
479.01597
 31
0.0
  0
ARC
  5
2DD
100
AcDbEntity
  8
LAY-1
  6
CONTINUOUS
 62
     7
100
AcDbCircle
 10
805.76068
 20
512.01597
 30
0.0
 40
2.0
100
AcDbArc
 50
90.0
 51
180.0
  0
LINE
  5
2DE
100
AcDbEntity
  8
LAY-1
  6
CONTINUOUS
 62
     7
100
AcDbLine
 10
805.76068
 20
514.01597
 30
0.0
 11
855.26068
 21
514.01597
 31
0.0
  0
LINE
  5
2DF
100
AcDbEntity
  8
LAY-1
  6
CONTINUOUS
 62
     7
100
AcDbLine
 10
803.76068
 20
446.01597
 30
0.0
 11
803.76068
 21
512.01597
 31
0.0
  0
ARC
  5
2E0
100
AcDbEntity
  8
LAY-1
  6
CONTINUOUS
 62
     7
100
AcDbCircle
 10
805.76068
 20
446.01597
 30
0.0
 40
2.0
100
AcDbArc
 50
180.0
 51
270.0
  0
LINE
  5
2E1
100
AcDbEntity
  8
LAY-1
  6
CONTINUOUS
 62
     7
100
AcDbLine
 10
904.76068
 20
444.01597
 30
0.0
 11
805.76068
 21
444.01597
 31
0.0
  0
CIRCLE
  5
2E2
100
AcDbEntity
  8
LAY-1
  6
CONTINUOUS
 62
     7
100
AcDbCircle
 10
904.76068
 20
512.01597
 30
0.0
 40
1.75
  0
CIRCLE
  5
2E3
100
AcDbEntity
  8
LAY-1
  6
CONTINUOUS
 62
     7
100
AcDbCircle
 10
904.76068
 20
446.01597
 30
0.0
 40
1.75
  0
CIRCLE
  5
2E4
100
AcDbEntity
  8
LAY-1
  6
CONTINUOUS
 62
     7
100
AcDbCircle
 10
805.76068
 20
512.01597
 30
0.0
 40
1.75
  0
CIRCLE
  5
2E5
100
AcDbEntity
  8
LAY-1
  6
CONTINUOUS
 62
     7
100
AcDbCircle
 10
805.76068
 20
446.01597
 30
0.0
 40
1.75
  0
LINE
  5
2E6
100
AcDbEntity
  8
LAY-1
  6
CONTINUOUS
 62
     7
100
AcDbLine
 10
803.76068
 20
442.01597
 30
0.0
 11
906.76068
 21
442.01597
 31
0.0
  0
CIRCLE
  5
2E7
100
AcDbEntity
  8
LAY-1
  6
CONTINUOUS
 62
     7
100
AcDbCircle
 10
805.76068
 20
930.51597
 30
0.0
 40
27.0
  0
CIRCLE
  5
2E8
100
AcDbEntity
  8
LAY-1
  6
CONTINUOUS
 62
     7
100
AcDbCircle
 10
788.713202
 20
915.520546
 30
0.0
 40
0.981818
  0
LINE
  5
2E9
100
AcDbEntity
  8
LAY-1
  6
CONTINUOUS
 62
     7
100
AcDbLine
 10
808.751071
 20
933.04936
 30
0.0
 11
808.86682
 21
936.052513
 31
0.0
  0
LINE
  5
2EA
100
AcDbEntity
  8
LAY-1
  6
CONTINUOUS
 62
     7
100
AcDbLine
 10
811.708757
 20
932.516052
 30
0.0
 11
808.751071
 21
933.04936
 31
0.0
  0
LINE
  5
2EB
100
AcDbEntity
  8
LAY-1
  6
CONTINUOUS
 62
     7
100
AcDbLine
 10
808.86682
 20
936.052513
 30
0.0
 11
786.569372
 21
915.223914
 31
0.0
  0
LINE
  5
2EC
100
AcDbEntity
  8
LAY-1
  6
CONTINUOUS
 62
     7
100
AcDbLine
 10
811.708757
 20
932.516052
 30
0.0
 11
786.569372
 21
915.223914
 31
0.0
  0
CIRCLE
  5
2ED
100
AcDbEntity
  8
LAY-1
  6
CONTINUOUS
 62
     7
100
AcDbCircle
 10
805.76068
 20
930.51597
 30
0.0
 40
25.772727
  0
CIRCLE
  5
2EE
100
AcDbEntity
  8
LAY-1
  6
CONTINUOUS
 62
     7
100
AcDbCircle
 10
805.76068
 20
930.51597
 30
0.0
 40
30.0
  0
LINE
  5
2EF
100
AcDbEntity
  8
LAY-1
  6
CONTINUOUS
 62
     7
100
AcDbLine
 10
677.61068
 20
835.51597
 30
0.0
 11
677.61068
 21
823.01597
 31
0.0
  0
LINE
  5
2F0
100
AcDbEntity
  8
LAY-1
  6
CONTINUOUS
 62
     7
100
AcDbLine
 10
669.11068
 20
835.01597
 30
0.0
 11
677.61068
 21
835.51597
 31
0.0
  0
LINE
  5
2F1
100
AcDbEntity
  8
LAY-1
  6
CONTINUOUS
 62
     7
100
AcDbLine
 10
677.61068
 20
833.01597
 30
0.0
 11
680.11068
 21
833.01597
 31
0.0
  0
LINE
  5
2F2
100
AcDbEntity
  8
LAY-1
  6
CONTINUOUS
 62
     7
100
AcDbLine
 10
669.11068
 20
811.01597
 30
0.0
 11
677.61068
 21
810.51597
 31
0.0
  0
LINE
  5
2F3
100
AcDbEntity
  8
LAY-1
  6
CONTINUOUS
 62
     7
100
AcDbLine
 10
677.61068
 20
813.01597
 30
0.0
 11
680.11068
 21
813.01597
 31
0.0
  0
ARC
  5
2F4
100
AcDbEntity
  8
LAY-1
  6
CONTINUOUS
 62
     7
100
AcDbCircle
 10
704.11068
 20
823.01597
 30
0.0
 40
37.0
100
AcDbArc
 50
161.075356
 51
198.924644
  0
LINE
  5
2F5
100
AcDbEntity
  8
LAY-1
  6
CONTINUOUS
 62
     7
100
AcDbLine
 10
669.11068
 20
835.01597
 30
0.0
 11
669.11068
 21
811.01597
 31
0.0
  0
LINE
  5
2F6
100
AcDbEntity
  8
LAY-1
  6
CONTINUOUS
 62
     7
100
AcDbLine
 10
677.61068
 20
810.51597
 30
0.0
 11
677.61068
 21
823.01597
 31
0.0
  0
LINE
  5
2F7
100
AcDbEntity
  8
LAY-1
  6
CONTINUOUS
 62
     7
100
AcDbLine
 10
933.91068
 20
835.51597
 30
0.0
 11
933.91068
 21
823.01597
 31
0.0
  0
LINE
  5
2F8
100
AcDbEntity
  8
LAY-1
  6
CONTINUOUS
 62
     7
100
AcDbLine
 10
942.41068
 20
835.01597
 30
0.0
 11
933.91068
 21
835.51597
 31
0.0
  0
LINE
  5
2F9
100
AcDbEntity
  8
LAY-1
  6
CONTINUOUS
 62
     7
100
AcDbLine
 10
933.91068
 20
833.01597
 30
0.0
 11
931.41068
 21
833.01597
 31
0.0
  0
LINE
  5
2FA
100
AcDbEntity
  8
LAY-1
  6
CONTINUOUS
 62
     7
100
AcDbLine
 10
942.41068
 20
811.01597
 30
0.0
 11
933.91068
 21
810.51597
 31
0.0
  0
LINE
  5
2FB
100
AcDbEntity
  8
LAY-1
  6
CONTINUOUS
 62
     7
100
AcDbLine
 10
933.91068
 20
813.01597
 30
0.0
 11
931.41068
 21
813.01597
 31
0.0
  0
ARC
  5
2FC
100
AcDbEntity
  8
LAY-1
  6
CONTINUOUS
 62
     7
100
AcDbCircle
 10
907.41068
 20
823.01597
 30
0.0
 40
37.0
100
AcDbArc
 50
341.075356
 51
18.924644
  0
LINE
  5
2FD
100
AcDbEntity
  8
LAY-1
  6
CONTINUOUS
 62
     7
100
AcDbLine
 10
942.41068
 20
835.01597
 30
0.0
 11
942.41068
 21
811.01597
 31
0.0
  0
LINE
  5
2FE
100
AcDbEntity
  8
LAY-1
  6
CONTINUOUS
 62
     7
100
AcDbLine
 10
933.91068
 20
810.51597
 30
0.0
 11
933.91068
 21
823.01597
 31
0.0
  0
LINE
  5
2FF
100
AcDbEntity
  8
LAY-1
  6
CONTINUOUS
 62
     7
100
AcDbLine
 10
677.61068
 20
535.51597
 30
0.0
 11
677.61068
 21
523.01597
 31
0.0
  0
LINE
  5
300
100
AcDbEntity
  8
LAY-1
  6
CONTINUOUS
 62
     7
100
AcDbLine
 10
669.11068
 20
535.01597
 30
0.0
 11
677.61068
 21
535.51597
 31
0.0
  0
LINE
  5
301
100
AcDbEntity
  8
LAY-1
  6
CONTINUOUS
 62
     7
100
AcDbLine
 10
677.61068
 20
533.01597
 30
0.0
 11
680.11068
 21
533.01597
 31
0.0
  0
LINE
  5
302
100
AcDbEntity
  8
LAY-1
  6
CONTINUOUS
 62
     7
100
AcDbLine
 10
669.11068
 20
511.01597
 30
0.0
 11
677.61068
 21
510.51597
 31
0.0
  0
LINE
  5
303
100
AcDbEntity
  8
LAY-1
  6
CONTINUOUS
 62
     7
100
AcDbLine
 10
677.61068
 20
513.01597
 30
0.0
 11
680.11068
 21
513.01597
 31
0.0
  0
ARC
  5
304
100
AcDbEntity
  8
LAY-1
  6
CONTINUOUS
 62
     7
100
AcDbCircle
 10
704.11068
 20
523.01597
 30
0.0
 40
37.0
100
AcDbArc
 50
161.075356
 51
198.924644
  0
LINE
  5
305
100
AcDbEntity
  8
LAY-1
  6
CONTINUOUS
 62
     7
100
AcDbLine
 10
669.11068
 20
535.01597
 30
0.0
 11
669.11068
 21
511.01597
 31
0.0
  0
LINE
  5
306
100
AcDbEntity
  8
LAY-1
  6
CONTINUOUS
 62
     7
100
AcDbLine
 10
677.61068
 20
510.51597
 30
0.0
 11
677.61068
 21
523.01597
 31
0.0
  0
LINE
  5
307
100
AcDbEntity
  8
LAY-1
  6
CONTINUOUS
 62
     7
100
AcDbLine
 10
933.91068
 20
535.51597
 30
0.0
 11
933.91068
 21
523.01597
 31
0.0
  0
LINE
  5
308
100
AcDbEntity
  8
LAY-1
  6
CONTINUOUS
 62
     7
100
AcDbLine
 10
942.41068
 20
535.01597
 30
0.0
 11
933.91068
 21
535.51597
 31
0.0
  0
LINE
  5
309
100
AcDbEntity
  8
LAY-1
  6
CONTINUOUS
 62
     7
100
AcDbLine
 10
933.91068
 20
533.01597
 30
0.0
 11
931.41068
 21
533.01597
 31
0.0
  0
LINE
  5
30A
100
AcDbEntity
  8
LAY-1
  6
CONTINUOUS
 62
     7
100
AcDbLine
 10
942.41068
 20
511.01597
 30
0.0
 11
933.91068
 21
510.51597
 31
0.0
  0
LINE
  5
30B
100
AcDbEntity
  8
LAY-1
  6
CONTINUOUS
 62
     7
100
AcDbLine
 10
933.91068
 20
513.01597
 30
0.0
 11
931.41068
 21
513.01597
 31
0.0
  0
ARC
  5
30C
100
AcDbEntity
  8
LAY-1
  6
CONTINUOUS
 62
     7
100
AcDbCircle
 10
907.41068
 20
523.01597
 30
0.0
 40
37.0
100
AcDbArc
 50
341.075356
 51
18.924644
  0
LINE
  5
30D
100
AcDbEntity
  8
LAY-1
  6
CONTINUOUS
 62
     7
100
AcDbLine
 10
942.41068
 20
535.01597
 30
0.0
 11
942.41068
 21
511.01597
 31
0.0
  0
LINE
  5
30E
100
AcDbEntity
  8
LAY-1
  6
CONTINUOUS
 62
     7
100
AcDbLine
 10
933.91068
 20
510.51597
 30
0.0
 11
933.91068
 21
523.01597
 31
0.0
  0
LINE
  5
30F
100
AcDbEntity
  8
LAY-1
  6
EXLTYPE3
 62
     1
100
AcDbLine
 10
805.76068
 20
1095.927308
 30
0.0
 11
805.76068
 21
378.927308
 31
0.0
  0
LINE
  5
310
100
AcDbEntity
  8
LAY-1
  6
EXLTYPE3
 62
     1
100
AcDbLine
 10
1441.21068
 20
823.01597
 30
0.0
 11
1396.71068
 21
823.01597
 31
0.0
  0
LINE
  5
311
100
AcDbEntity
  8
LAY-1
  6
EXLTYPE3
 62
     1
100
AcDbLine
 10
1419.0
 20
802.177308
 30
0.0
 11
1419.0
 21
840.527308
 31
0.0
  0
LINE
  5
312
100
AcDbEntity
  8
LAY-1
  6
EXLTYPE3
 62
     1
100
AcDbLine
 10
1444.66068
 20
523.01597
 30
0.0
 11
1398.91068
 21
523.01597
 31
0.0
  0
LINE
  5
313
100
AcDbEntity
  8
LAY-1
  6
EXLTYPE3
 62
     1
100
AcDbLine
 10
1419.0
 20
500.927308
 30
0.0
 11
1419.0
 21
543.227308
 31
0.0
  0
CIRCLE
  5
314
100
AcDbEntity
  8
LAY-1
  6
CONTINUOUS
 62
     7
100
AcDbCircle
 10
1419.0
 20
823.01597
 30
0.0
 40
12.5
  0
CIRCLE
  5
315
100
AcDbEntity
  8
LAY-1
  6
CONTINUOUS
 62
     7
100
AcDbCircle
 10
1419.0
 20
823.01597
 30
0.0
 40
12.0
  0
CIRCLE
  5
316
100
AcDbEntity
  8
LAY-1
  6
CONTINUOUS
 62
     7
100
AcDbCircle
 10
1419.0
 20
523.01597
 30
0.0
 40
12.5
  0
CIRCLE
  5
317
100
AcDbEntity
  8
LAY-1
  6
CONTINUOUS
 62
     7
100
AcDbCircle
 10
1419.0
 20
523.01597
 30
0.0
 40
12.0
  0
LINE
  5
318
100
AcDbEntity
  8
LAY-1
  6
CONTINUOUS
 62
     7
100
AcDbLine
 10
1439.0
 20
1076.01597
 30
0.0
 11
1159.0
 21
1061.341792
 31
0.0
  0
LINE
  5
319
100
AcDbEntity
  8
LAY-1
  6
CONTINUOUS
 62
     7
100
AcDbLine
 10
1175.0
 20
406.01597
 30
0.0
 11
1175.0
 21
1062.180317
 31
0.0
  0
ARC
  5
31A
100
AcDbEntity
  8
LAY-1
  6
CONTINUOUS
 62
     7
100
AcDbCircle
 10
1294.05
 20
949.51597
 30
0.0
 40
20.0
100
AcDbArc
 50
90.0
 51
180.0
  0
LINE
  5
31B
100
AcDbEntity
  8
LAY-1
  6
CONTINUOUS
 62
     7
100
AcDbLine
 10
1367.05
 20
969.51597
 30
0.0
 11
1294.05
 21
969.51597
 31
0.0
  0
ARC
  5
31C
100
AcDbEntity
  8
LAY-1
  6
CONTINUOUS
 62
     7
100
AcDbCircle
 10
1367.05
 20
949.51597
 30
0.0
 40
20.0
100
AcDbArc
 50
0.0
 51
90.0
  0
LINE
  5
31D
100
AcDbEntity
  8
LAY-1
  6
CONTINUOUS
 62
     7
100
AcDbLine
 10
1175.0
 20
944.51597
 30
0.0
 11
1210.0
 21
944.51597
 31
0.0
  0
LINE
  5
31E
100
AcDbEntity
  8
LAY-1
  6
CONTINUOUS
 62
     7
100
AcDbLine
 10
1210.0
 20
914.51597
 30
0.0
 11
1175.0
 21
914.51597
 31
0.0
  0
LINE
  5
31F
100
AcDbEntity
  8
LAY-1
  6
CONTINUOUS
 62
     7
100
AcDbLine
 10
1210.0
 20
944.51597
 30
0.0
 11
1210.0
 21
914.51597
 31
0.0
  0
LINE
  5
320
100
AcDbEntity
  8
LAY-1
  6
CONTINUOUS
 62
     7
100
AcDbLine
 10
1330.990331
 20
826.51597
 30
0.0
 11
1341.990331
 21
826.51597
 31
0.0
  0
LINE
  5
321
100
AcDbEntity
  8
LAY-1
  6
CONTINUOUS
 62
     7
100
AcDbLine
 10
1341.990331
 20
844.51597
 30
0.0
 11
1330.990331
 21
844.51597
 31
0.0
  0
ARC
  5
322
100
AcDbEntity
  8
LAY-1
  6
CONTINUOUS
 62
     7
100
AcDbCircle
 10
1341.990331
 20
835.51597
 30
0.0
 40
9.0
100
AcDbArc
 50
270.0
 51
90.0
  0
LINE
  5
323
100
AcDbEntity
  8
LAY-1
  6
CONTINUOUS
 62
     7
100
AcDbLine
 10
1313.419744
 20
833.662075
 30
0.0
 11
1312.955855
 21
831.031226
 31
0.0
  0
LINE
  5
324
100
AcDbEntity
  8
LAY-1
  6
CONTINUOUS
 62
     7
100
AcDbLine
 10
1312.955855
 20
831.031226
 30
0.0
 11
1318.748134
 21
835.087024
 31
0.0
  0
LINE
  5
325
100
AcDbEntity
  8
LAY-1
  6
CONTINUOUS
 62
     7
100
AcDbLine
 10
1314.692337
 20
840.879303
 30
0.0
 11
1318.748134
 21
835.087024
 31
0.0
  0
LINE
  5
326
100
AcDbEntity
  8
LAY-1
  6
CONTINUOUS
 62
     7
100
AcDbLine
 10
1314.692337
 20
840.879303
 30
0.0
 11
1314.29018
 21
838.59856
 31
0.0
  0
ARC
  5
327
100
AcDbEntity
  8
LAY-1
  6
CONTINUOUS
 62
     7
100
AcDbCircle
 10
1330.990331
 20
904.51597
 30
0.0
 40
68.0
100
AcDbArc
 50
205.0
 51
255.78327
  0
ARC
  5
328
100
AcDbEntity
  8
LAY-1
  6
CONTINUOUS
 62
     7
100
AcDbCircle
 10
1330.990331
 20
904.51597
 30
0.0
 40
73.0
100
AcDbArc
 50
205.0
 51
256.072557
  0
LINE
  5
329
100
AcDbEntity
  8
LAY-1
  6
CONTINUOUS
 62
     7
100
AcDbLine
 10
1264.829862
 20
873.664837
 30
0.0
 11
1269.361401
 21
875.777928
 31
0.0
  0
ARC
  5
32A
100
AcDbEntity
  8
LAY-1
  6
CONTINUOUS
 62
     7
100
AcDbCircle
 10
1330.990331
 20
904.51597
 30
0.0
 40
78.0
100
AcDbArc
 50
180.0
 51
270.0
  0
ARC
  5
32B
100
AcDbEntity
  8
LAY-1
  6
CONTINUOUS
 62
     7
100
AcDbCircle
 10
1330.990331
 20
904.51597
 30
0.0
 40
60.0
100
AcDbArc
 50
180.0
 51
270.0
  0
ARC
  5
32C
100
AcDbEntity
  8
LAY-1
  6
CONTINUOUS
 62
     7
100
AcDbCircle
 10
1261.990331
 20
904.51597
 30
0.0
 40
9.0
100
AcDbArc
 50
0.0
 51
180.0
  0
LINE
  5
32D
100
AcDbEntity
  8
LAY-1
  6
CONTINUOUS
 62
     7
100
AcDbLine
 10
1439.0
 20
527.01597
 30
0.0
 11
1430.842719
 21
527.01597
 31
0.0
  0
LINE
  5
32E
100
AcDbEntity
  8
LAY-1
  6
CONTINUOUS
 62
     7
100
AcDbLine
 10
1439.0
 20
519.01597
 30
0.0
 11
1430.842719
 21
519.01597
 31
0.0
  0
ARC
  5
32F
100
AcDbEntity
  8
LAY-1
  6
CONTINUOUS
 62
     7
100
AcDbCircle
 10
1367.05
 20
906.51597
 30
0.0
 40
20.0
100
AcDbArc
 50
270.0
 51
0.0
  0
LINE
  5
330
100
AcDbEntity
  8
LAY-1
  6
CONTINUOUS
 62
     7
100
AcDbLine
 10
1367.05
 20
886.51597
 30
0.0
 11
1339.673475
 21
886.51597
 31
0.0
  0
LINE
  5
331
100
AcDbEntity
  8
LAY-1
  6
CONTINUOUS
 62
     7
100
AcDbLine
 10
1329.426525
 20
886.51597
 30
0.0
 11
1294.05
 21
886.51597
 31
0.0
  0
ARC
  5
332
100
AcDbEntity
  8
LAY-1
  6
CONTINUOUS
 62
     7
100
AcDbCircle
 10
1294.05
 20
906.51597
 30
0.0
 40
20.0
100
AcDbArc
 50
180.0
 51
270.0
  0
CIRCLE
  5
333
100
AcDbEntity
  8
LAY-1
  6
CONTINUOUS
 62
     7
100
AcDbCircle
 10
1334.55
 20
888.51597
 30
0.0
 40
5.5
  0
LINE
  5
334
100
AcDbEntity
  8
LAY-1
  6
CONTINUOUS
 62
     7
100
AcDbLine
 10
1387.05
 20
949.51597
 30
0.0
 11
1387.05
 21
906.51597
 31
0.0
  0
LINE
  5
335
100
AcDbEntity
  8
LAY-1
  6
CONTINUOUS
 62
     7
100
AcDbLine
 10
1274.05
 20
949.51597
 30
0.0
 11
1274.05
 21
906.51597
 31
0.0
  0
POLYLINE
  5
336
100
AcDbEntity
  8
LAY-1
  6
CONTINUOUS
 62
     7
100
AcDb2dPolyline
 66
     1
 10
0.0
 20
0.0
 30
0.0
 70
   128
  0
VERTEX
  5
337
100
AcDbEntity
  8
LAY-1
  6
CONTINUOUS
 62
     7
100
AcDbVertex
100
AcDb2dVertex
 10
1308.962463
 20
460.28333
 30
0.0
  0
VERTEX
  5
338
100
AcDbEntity
  8
LAY-1
  6
CONTINUOUS
 62
     7
100
AcDbVertex
100
AcDb2dVertex
 10
1304.162463
 20
468.597173
 30
0.0
  0
VERTEX
  5
339
100
AcDbEntity
  8
LAY-1
  6
CONTINUOUS
 62
     7
100
AcDbVertex
100
AcDb2dVertex
 10
1299.362463
 20
460.28333
 30
0.0
  0
VERTEX
  5
33A
100
AcDbEntity
  8
LAY-1
  6
CONTINUOUS
 62
     7
100
AcDbVertex
100
AcDb2dVertex
 10
1308.962463
 20
460.28333
 30
0.0
  0
SEQEND
  5
33B
100
AcDbEntity
  8
LAY-1
  6
CONTINUOUS
 62
     7
  0
POLYLINE
  5
33C
100
AcDbEntity
  8
LAY-1
  6
CONTINUOUS
 62
     7
100
AcDb2dPolyline
 66
     1
 10
0.0
 20
0.0
 30
0.0
 70
   128
  0
VERTEX
  5
33D
100
AcDbEntity
  8
LAY-1
  6
CONTINUOUS
 62
     7
100
AcDbVertex
100
AcDb2dVertex
 10
1309.928486
 20
459.651668
 30
0.0
  0
VERTEX
  5
33E
100
AcDbEntity
  8
LAY-1
  6
CONTINUOUS
 62
     7
100
AcDbVertex
100
AcDb2dVertex
 10
1304.168486
 20
469.628281
 30
0.0
  0
VERTEX
  5
33F
100
AcDbEntity
  8
LAY-1
  6
CONTINUOUS
 62
     7
100
AcDbVertex
100
AcDb2dVertex
 10
1298.408486
 20
459.651668
 30
0.0
  0
VERTEX
  5
340
100
AcDbEntity
  8
LAY-1
  6
CONTINUOUS
 62
     7
100
AcDbVertex
100
AcDb2dVertex
 10
1309.928486
 20
459.651668
 30
0.0
  0
SEQEND
  5
341
100
AcDbEntity
  8
LAY-1
  6
CONTINUOUS
 62
     7
  0
LINE
  5
342
100
AcDbEntity
  8
LAY-1
  6
CONTINUOUS
 62
     7
100
AcDbLine
 10
1301.408486
 20
471.411781
 30
0.0
 11
1381.408486
 21
471.411781
 31
0.0
  0
ARC
  5
343
100
AcDbEntity
  8
LAY-1
  6
CONTINUOUS
 62
     7
100
AcDbCircle
 10
1301.408486
 20
466.411781
 30
0.0
 40
5.0
100
AcDbArc
 50
90.0
 51
180.0
  0
LINE
  5
344
100
AcDbEntity
  8
LAY-1
  6
CONTINUOUS
 62
     7
100
AcDbLine
 10
1296.408486
 20
466.411781
 30
0.0
 11
1296.408486
 21
442.651668
 31
0.0
  0
LINE
  5
345
100
AcDbEntity
  8
LAY-1
  6
CONTINUOUS
 62
     7
100
AcDbLine
 10
1296.408486
 20
457.651668
 30
0.0
 11
1386.408486
 21
457.651668
 31
0.0
  0
LINE
  5
346
100
AcDbEntity
  8
LAY-1
  6
CONTINUOUS
 62
     7
100
AcDbLine
 10
1301.408486
 20
437.651668
 30
0.0
 11
1381.408486
 21
437.651668
 31
0.0
  0
ARC
  5
347
100
AcDbEntity
  8
LAY-1
  6
CONTINUOUS
 62
     7
100
AcDbCircle
 10
1301.408486
 20
442.651668
 30
0.0
 40
5.0
100
AcDbArc
 50
180.0
 51
270.0
  0
ARC
  5
348
100
AcDbEntity
  8
LAY-1
  6
CONTINUOUS
 62
     7
100
AcDbCircle
 10
1381.408486
 20
442.651668
 30
0.0
 40
5.0
100
AcDbArc
 50
270.0
 51
0.0
  0
LINE
  5
349
100
AcDbEntity
  8
LAY-1
  6
CONTINUOUS
 62
     7
100
AcDbLine
 10
1386.408486
 20
466.411781
 30
0.0
 11
1386.408486
 21
442.651668
 31
0.0
  0
ARC
  5
34A
100
AcDbEntity
  8
LAY-1
  6
CONTINUOUS
 62
     7
100
AcDbCircle
 10
1381.408486
 20
466.411781
 30
0.0
 40
5.0
100
AcDbArc
 50
0.0
 51
90.0
  0
LINE
  5
34B
100
AcDbEntity
  8
LAY-1
  6
CONTINUOUS
 62
     7
100
AcDbLine
 10
1175.0
 20
406.01597
 30
0.0
 11
1429.0
 21
406.01597
 31
0.0
  0
LINE
  5
34C
100
AcDbEntity
  8
LAY-1
  6
CONTINUOUS
 62
     7
100
AcDbLine
 10
1439.0
 20
416.01597
 30
0.0
 11
1439.0
 21
1076.01597
 31
0.0
  0
ARC
  5
34D
100
AcDbEntity
  8
LAY-1
  6
CONTINUOUS
 62
     7
100
AcDbCircle
 10
1429.0
 20
416.01597
 30
0.0
 40
10.0
100
AcDbArc
 50
270.0
 51
0.0
  0
LINE
  5
34E
100
AcDbEntity
  8
LAY-1
  6
CONTINUOUS
 62
     1
100
AcDbLine
 10
1876.061465
 20
480.02597
 30
0.0
 11
1875.15604
 21
481.594213
 31
0.0
  0
LINE
  5
34F
100
AcDbEntity
  8
LAY-1
  6
CONTINUOUS
 62
     1
100
AcDbLine
 10
1887.881255
 20
480.02597
 30
0.0
 11
1888.78668
 21
481.594213
 31
0.0
  0
LINE
  5
350
100
AcDbEntity
  8
LAY-1
  6
CONTINUOUS
 62
     1
100
AcDbLine
 10
1887.881255
 20
480.02597
 30
0.0
 11
1887.748756
 21
475.786021
 31
0.0
  0
LINE
  5
351
100
AcDbEntity
  8
LAY-1
  6
CONTINUOUS
 62
     1
100
AcDbLine
 10
1876.061465
 20
480.02597
 30
0.0
 11
1876.193964
 21
475.786021
 31
0.0
  0
LINE
  5
352
100
AcDbEntity
  8
LAY-1
  6
CONTINUOUS
 62
     1
100
AcDbLine
 10
1875.969493
 20
422.994438
 30
0.0
 11
1875.864731
 21
419.994438
 31
0.0
  0
LINE
  5
353
100
AcDbEntity
  8
LAY-1
  6
CONTINUOUS
 62
     1
100
AcDbLine
 10
1887.973226
 20
422.994438
 30
0.0
 11
1888.077988
 21
419.994438
 31
0.0
  0
LINE
  5
354
100
AcDbEntity
  8
LAY-1
  6
EXLTYPE4
 62
     1
100
AcDbLine
 10
1849.39636
 20
1010.836883
 30
0.0
 11
1849.39636
 21
994.41597
 31
0.0
  0
LINE
  5
355
100
AcDbEntity
  8
LAY-1
  6
EXLTYPE4
 62
     1
100
AcDbLine
 10
1881.54636
 20
994.41597
 30
0.0
 11
1849.39636
 21
994.41597
 31
0.0
  0
LINE
  5
356
100
AcDbEntity
  8
LAY-1
  6
EXLTYPE4
 62
     1
100
AcDbLine
 10
1852.47136
 20
1032.51597
 30
0.0
 11
1851.39636
 21
1032.51597
 31
0.0
  0
ARC
  5
357
100
AcDbEntity
  8
LAY-1
  6
EXLTYPE4
 62
     1
100
AcDbCircle
 10
1851.39636
 20
1031.51597
 30
0.0
 40
1.0
100
AcDbArc
 50
90.0
 51
180.0
  0
ARC
  5
358
100
AcDbEntity
  8
LAY-1
  6
EXLTYPE4
 62
     1
100
AcDbCircle
 10
1851.39636
 20
1031.51597
 30
0.0
 40
2.0
100
AcDbArc
 50
90.0
 51
180.0
  0
LINE
  5
359
100
AcDbEntity
  8
LAY-1
  6
EXLTYPE4
 62
     1
100
AcDbLine
 10
1865.47136
 20
1033.51597
 30
0.0
 11
1851.39636
 21
1033.51597
 31
0.0
  0
LINE
  5
35A
100
AcDbEntity
  8
LAY-1
  6
EXLTYPE4
 62
     1
100
AcDbLine
 10
1865.47136
 20
1033.51597
 30
0.0
 11
1879.54636
 21
1033.51597
 31
0.0
  0
ARC
  5
35B
100
AcDbEntity
  8
LAY-1
  6
EXLTYPE4
 62
     1
100
AcDbCircle
 10
1879.54636
 20
1031.51597
 30
0.0
 40
2.0
100
AcDbArc
 50
0.0
 51
90.0
  0
LINE
  5
35C
100
AcDbEntity
  8
LAY-1
  6
EXLTYPE4
 62
     1
100
AcDbLine
 10
1878.47136
 20
1032.51597
 30
0.0
 11
1879.54636
 21
1032.51597
 31
0.0
  0
ARC
  5
35D
100
AcDbEntity
  8
LAY-1
  6
EXLTYPE4
 62
     1
100
AcDbCircle
 10
1879.54636
 20
1031.51597
 30
0.0
 40
1.0
100
AcDbArc
 50
0.0
 51
90.0
  0
LINE
  5
35E
100
AcDbEntity
  8
LAY-1
  6
EXLTYPE4
 62
     1
100
AcDbLine
 10
1881.54636
 20
1031.51597
 30
0.0
 11
1881.54636
 21
994.41597
 31
0.0
  0
POLYLINE
  5
35F
100
AcDbEntity
  8
LAY-1
  6
CONTINUOUS
 62
     1
100
AcDb2dPolyline
 66
     1
 10
0.0
 20
0.0
 30
0.0
 70
   128
  0
VERTEX
  5
360
100
AcDbEntity
  8
LAY-1
  6
CONTINUOUS
 62
     1
100
AcDbVertex
100
AcDb2dVertex
 10
1792.87136
 20
882.31378
 30
0.0
  0
VERTEX
  5
361
100
AcDbEntity
  8
LAY-1
  6
CONTINUOUS
 62
     1
100
AcDbVertex
100
AcDb2dVertex
 10
1792.889635
 20
882.328751
 30
0.0
  0
VERTEX
  5
362
100
AcDbEntity
  8
LAY-1
  6
CONTINUOUS
 62
     1
100
AcDbVertex
100
AcDb2dVertex
 10
1792.94168
 20
882.370419
 30
0.0
  0
VERTEX
  5
363
100
AcDbEntity
  8
LAY-1
  6
CONTINUOUS
 62
     1
100
AcDbVertex
100
AcDb2dVertex
 10
1793.023322
 20
882.433918
 30
0.0
  0
VERTEX
  5
364
100
AcDbEntity
  8
LAY-1
  6
CONTINUOUS
 62
     1
100
AcDbVertex
100
AcDb2dVertex
 10
1793.13039
 20
882.514381
 30
0.0
  0
VERTEX
  5
365
100
AcDbEntity
  8
LAY-1
  6
CONTINUOUS
 62
     1
100
AcDbVertex
100
AcDb2dVertex
 10
1793.258712
 20
882.60694
 30
0.0
  0
VERTEX
  5
366
100
AcDbEntity
  8
LAY-1
  6
CONTINUOUS
 62
     1
100
AcDbVertex
100
AcDb2dVertex
 10
1793.404116
 20
882.70673
 30
0.0
  0
VERTEX
  5
367
100
AcDbEntity
  8
LAY-1
  6
CONTINUOUS
 62
     1
100
AcDbVertex
100
AcDb2dVertex
 10
1793.562431
 20
882.808882
 30
0.0
  0
VERTEX
  5
368
100
AcDbEntity
  8
LAY-1
  6
CONTINUOUS
 62
     1
100
AcDbVertex
100
AcDb2dVertex
 10
1793.729484
 20
882.90853
 30
0.0
  0
VERTEX
  5
369
100
AcDbEntity
  8
LAY-1
  6
CONTINUOUS
 62
     1
100
AcDbVertex
100
AcDb2dVertex
 10
1793.901105
 20
883.000807
 30
0.0
  0
VERTEX
  5
36A
100
AcDbEntity
  8
LAY-1
  6
CONTINUOUS
 62
     1
100
AcDbVertex
100
AcDb2dVertex
 10
1794.073121
 20
883.080846
 30
0.0
  0
VERTEX
  5
36B
100
AcDbEntity
  8
LAY-1
  6
CONTINUOUS
 62
     1
100
AcDbVertex
100
AcDb2dVertex
 10
1794.24136
 20
883.14378
 30
0.0
  0
VERTEX
  5
36C
100
AcDbEntity
  8
LAY-1
  6
CONTINUOUS
 62
     1
100
AcDbVertex
100
AcDb2dVertex
 10
1794.425116
 20
883.190045
 30
0.0
  0
VERTEX
  5
36D
100
AcDbEntity
  8
LAY-1
  6
CONTINUOUS
 62
     1
100
AcDbVertex
100
AcDb2dVertex
 10
1794.599559
 20
883.209189
 30
0.0
  0
VERTEX
  5
36E
100
AcDbEntity
  8
LAY-1
  6
CONTINUOUS
 62
     1
100
AcDbVertex
100
AcDb2dVertex
 10
1794.765786
 20
883.202865
 30
0.0
  0
VERTEX
  5
36F
100
AcDbEntity
  8
LAY-1
  6
CONTINUOUS
 62
     1
100
AcDbVertex
100
AcDb2dVertex
 10
1794.924892
 20
883.172725
 30
0.0
  0
VERTEX
  5
370
100
AcDbEntity
  8
LAY-1
  6
CONTINUOUS
 62
     1
100
AcDbVertex
100
AcDb2dVertex
 10
1795.077975
 20
883.120423
 30
0.0
  0
VERTEX
  5
371
100
AcDbEntity
  8
LAY-1
  6
CONTINUOUS
 62
     1
100
AcDbVertex
100
AcDb2dVertex
 10
1795.22613
 20
883.047612
 30
0.0
  0
VERTEX
  5
372
100
AcDbEntity
  8
LAY-1
  6
CONTINUOUS
 62
     1
100
AcDbVertex
100
AcDb2dVertex
 10
1795.370453
 20
882.955946
 30
0.0
  0
VERTEX
  5
373
100
AcDbEntity
  8
LAY-1
  6
CONTINUOUS
 62
     1
100
AcDbVertex
100
AcDb2dVertex
 10
1795.512042
 20
882.847076
 30
0.0
  0
VERTEX
  5
374
100
AcDbEntity
  8
LAY-1
  6
CONTINUOUS
 62
     1
100
AcDbVertex
100
AcDb2dVertex
 10
1795.651991
 20
882.722656
 30
0.0
  0
VERTEX
  5
375
100
AcDbEntity
  8
LAY-1
  6
CONTINUOUS
 62
     1
100
AcDbVertex
100
AcDb2dVertex
 10
1795.791399
 20
882.58434
 30
0.0
  0
VERTEX
  5
376
100
AcDbEntity
  8
LAY-1
  6
CONTINUOUS
 62
     1
100
AcDbVertex
100
AcDb2dVertex
 10
1795.93136
 20
882.43378
 30
0.0
  0
VERTEX
  5
377
100
AcDbEntity
  8
LAY-1
  6
CONTINUOUS
 62
     1
100
AcDbVertex
100
AcDb2dVertex
 10
1796.031627
 20
882.320933
 30
0.0
  0
VERTEX
  5
378
100
AcDbEntity
  8
LAY-1
  6
CONTINUOUS
 62
     1
100
AcDbVertex
100
AcDb2dVertex
 10
1796.132732
 20
882.206951
 30
0.0
  0
VERTEX
  5
379
100
AcDbEntity
  8
LAY-1
  6
CONTINUOUS
 62
     1
100
AcDbVertex
100
AcDb2dVertex
 10
1796.234681
 20
882.096037
 30
0.0
  0
VERTEX
  5
37A
100
AcDbEntity
  8
LAY-1
  6
CONTINUOUS
 62
     1
100
AcDbVertex
100
AcDb2dVertex
 10
1796.33748
 20
881.992397
 30
0.0
  0
VERTEX
  5
37B
100
AcDbEntity
  8
LAY-1
  6
CONTINUOUS
 62
     1
100
AcDbVertex
100
AcDb2dVertex
 10
1796.441134
 20
881.900235
 30
0.0
  0
VERTEX
  5
37C
100
AcDbEntity
  8
LAY-1
  6
CONTINUOUS
 62
     1
100
AcDbVertex
100
AcDb2dVertex
 10
1796.54565
 20
881.823756
 30
0.0
  0
VERTEX
  5
37D
100
AcDbEntity
  8
LAY-1
  6
CONTINUOUS
 62
     1
100
AcDbVertex
100
AcDb2dVertex
 10
1796.651034
 20
881.767166
 30
0.0
  0
VERTEX
  5
37E
100
AcDbEntity
  8
LAY-1
  6
CONTINUOUS
 62
     1
100
AcDbVertex
100
AcDb2dVertex
 10
1796.757291
 20
881.734668
 30
0.0
  0
VERTEX
  5
37F
100
AcDbEntity
  8
LAY-1
  6
CONTINUOUS
 62
     1
100
AcDbVertex
100
AcDb2dVertex
 10
1796.864427
 20
881.730468
 30
0.0
  0
VERTEX
  5
380
100
AcDbEntity
  8
LAY-1
  6
CONTINUOUS
 62
     1
100
AcDbVertex
100
AcDb2dVertex
 10
1796.972448
 20
881.75877
 30
0.0
  0
VERTEX
  5
381
100
AcDbEntity
  8
LAY-1
  6
CONTINUOUS
 62
     1
100
AcDbVertex
100
AcDb2dVertex
 10
1797.08136
 20
881.82378
 30
0.0
  0
VERTEX
  5
382
100
AcDbEntity
  8
LAY-1
  6
CONTINUOUS
 62
     1
100
AcDbVertex
100
AcDb2dVertex
 10
1797.133924
 20
881.868894
 30
0.0
  0
VERTEX
  5
383
100
AcDbEntity
  8
LAY-1
  6
CONTINUOUS
 62
     1
100
AcDbVertex
100
AcDb2dVertex
 10
1797.185787
 20
881.921081
 30
0.0
  0
VERTEX
  5
384
100
AcDbEntity
  8
LAY-1
  6
CONTINUOUS
 62
     1
100
AcDbVertex
100
AcDb2dVertex
 10
1797.236044
 20
881.977946
 30
0.0
  0
VERTEX
  5
385
100
AcDbEntity
  8
LAY-1
  6
CONTINUOUS
 62
     1
100
AcDbVertex
100
AcDb2dVertex
 10
1797.283786
 20
882.037093
 30
0.0
  0
VERTEX
  5
386
100
AcDbEntity
  8
LAY-1
  6
CONTINUOUS
 62
     1
100
AcDbVertex
100
AcDb2dVertex
 10
1797.328107
 20
882.096126
 30
0.0
  0
VERTEX
  5
387
100
AcDbEntity
  8
LAY-1
  6
CONTINUOUS
 62
     1
100
AcDbVertex
100
AcDb2dVertex
 10
1797.368098
 20
882.152649
 30
0.0
  0
VERTEX
  5
388
100
AcDbEntity
  8
LAY-1
  6
CONTINUOUS
 62
     1
100
AcDbVertex
100
AcDb2dVertex
 10
1797.402853
 20
882.204268
 30
0.0
  0
VERTEX
  5
389
100
AcDbEntity
  8
LAY-1
  6
CONTINUOUS
 62
     1
100
AcDbVertex
100
AcDb2dVertex
 10
1797.431464
 20
882.248586
 30
0.0
  0
VERTEX
  5
38A
100
AcDbEntity
  8
LAY-1
  6
CONTINUOUS
 62
     1
100
AcDbVertex
100
AcDb2dVertex
 10
1797.453023
 20
882.283208
 30
0.0
  0
VERTEX
  5
38B
100
AcDbEntity
  8
LAY-1
  6
CONTINUOUS
 62
     1
100
AcDbVertex
100
AcDb2dVertex
 10
1797.466625
 20
882.305737
 30
0.0
  0
VERTEX
  5
38C
100
AcDbEntity
  8
LAY-1
  6
CONTINUOUS
 62
     1
100
AcDbVertex
100
AcDb2dVertex
 10
1797.47136
 20
882.31378
 30
0.0
  0
SEQEND
  5
38D
100
AcDbEntity
  8
LAY-1
  6
CONTINUOUS
 62
     1
  0
LINE
  5
38E
100
AcDbEntity
  8
LAY-1
  6
EXLTYPE4
 62
     1
100
AcDbLine
 10
1790.57136
 20
904.007335
 30
0.0
 11
1790.57136
 21
901.507335
 31
0.0
  0
LINE
  5
38F
100
AcDbEntity
  8
LAY-1
  6
CONTINUOUS
 62
     1
100
AcDbLine
 10
1792.57136
 20
904.098129
 30
0.0
 11
1792.57136
 21
896.553363
 31
0.0
  0
LINE
  5
390
100
AcDbEntity
  8
LAY-1
  6
CONTINUOUS
 62
     1
100
AcDbLine
 10
1797.77136
 20
904.007335
 30
0.0
 11
1797.77136
 21
896.553363
 31
0.0
  0
LINE
  5
391
100
AcDbEntity
  8
LAY-1
  6
EXLTYPE4
 62
     1
100
AcDbLine
 10
1799.77136
 20
903.846699
 30
0.0
 11
1799.77136
 21
901.507335
 31
0.0
  0
CIRCLE
  5
392
100
AcDbEntity
  8
LAY-1
  6
CONTINUOUS
 62
     1
100
AcDbCircle
 10
1903.17136
 20
929.553363
 30
0.0
 40
10.4775
  0
CIRCLE
  5
393
100
AcDbEntity
  8
LAY-1
  6
CONTINUOUS
 62
     1
100
AcDbCircle
 10
1854.17136
 20
929.553363
 30
0.0
 40
13.2205
  0
LINE
  5
394
100
AcDbEntity
  8
LAY-1
  6
CONTINUOUS
 62
     1
100
AcDbLine
 10
1857.928794
 20
956.01597
 30
0.0
 11
1857.818802
 21
959.51597
 31
0.0
  0
LINE
  5
395
100
AcDbEntity
  8
LAY-1
  6
CONTINUOUS
 62
     1
100
AcDbLine
 10
1881.84438
 20
961.215981
 30
0.0
 11
1881.697504
 21
956.51597
 31
0.0
  0
LINE
  5
396
100
AcDbEntity
  8
LAY-1
  6
CONTINUOUS
 62
     1
100
AcDbLine
 10
1866.49834
 20
961.215981
 30
0.0
 11
1866.645216
 21
956.51597
 31
0.0
  0
LINE
  5
397
100
AcDbEntity
  8
LAY-1
  6
EXLTYPE4
 62
     1
100
AcDbLine
 10
1849.39636
 20
1031.51597
 30
0.0
 11
1849.39636
 21
1020.365981
 31
0.0
  0
LINE
  5
398
100
AcDbEntity
  8
LAY-1
  6
CONTINUOUS
 62
     1
100
AcDbLine
 10
1910.92986
 20
890.87633
 30
0.0
 11
1910.92986
 21
887.37633
 31
0.0
  0
LINE
  5
399
100
AcDbEntity
  8
LAY-1
  6
CONTINUOUS
 62
     7
100
AcDbLine
 10
2001.12136
 20
1061.341792
 30
0.0
 11
1749.82136
 21
1061.341792
 31
0.0
  0
LINE
  5
39A
100
AcDbEntity
  8
LAY-1
  6
CONTINUOUS
 62
     7
100
AcDbLine
 10
2001.12136
 20
1076.01597
 30
0.0
 11
1749.82136
 21
1076.01597
 31
0.0
  0
LINE
  5
39B
100
AcDbEntity
  8
LAY-1
  6
CONTINUOUS
 62
     7
100
AcDbLine
 10
2001.12136
 20
1076.01597
 30
0.0
 11
2001.12136
 21
406.01597
 31
0.0
  0
LINE
  5
39C
100
AcDbEntity
  8
LAY-1
  6
CONTINUOUS
 62
     7
100
AcDbLine
 10
1749.82136
 20
1076.01597
 30
0.0
 11
1749.82136
 21
406.01597
 31
0.0
  0
LINE
  5
39D
100
AcDbEntity
  8
LAY-1
  6
CONTINUOUS
 62
     7
100
AcDbLine
 10
1749.82136
 20
406.01597
 30
0.0
 11
2001.12136
 21
406.01597
 31
0.0
  0
LINE
  5
39E
100
AcDbEntity
  8
LAY-1
  6
CONTINUOUS
 62
     7
100
AcDbLine
 10
1893.47136
 20
475.294324
 30
0.0
 11
1893.409835
 21
475.294324
 31
0.0
  0
POLYLINE
  5
39F
100
AcDbEntity
  8
LAY-1
  6
CONTINUOUS
 62
     7
100
AcDb2dPolyline
 66
     1
 10
0.0
 20
0.0
 30
0.0
 70
   128
  0
VERTEX
  5
3A0
100
AcDbEntity
  8
LAY-1
  6
CONTINUOUS
 62
     7
100
AcDbVertex
100
AcDb2dVertex
 10
1870.466406
 20
447.840483
 30
0.0
  0
VERTEX
  5
3A1
100
AcDbEntity
  8
LAY-1
  6
CONTINUOUS
 62
     7
100
AcDbVertex
100
AcDb2dVertex
 10
1870.078214
 20
447.575511
 30
0.0
  0
VERTEX
  5
3A2
100
AcDbEntity
  8
LAY-1
  6
CONTINUOUS
 62
     7
100
AcDbVertex
100
AcDb2dVertex
 10
1869.86724
 20
447.36407
 30
0.0
  0
VERTEX
  5
3A3
100
AcDbEntity
  8
LAY-1
  6
CONTINUOUS
 62
     7
100
AcDbVertex
100
AcDb2dVertex
 10
1869.728792
 20
447.169999
 30
0.0
  0
VERTEX
  5
3A4
100
AcDbEntity
  8
LAY-1
  6
CONTINUOUS
 62
     7
100
AcDbVertex
100
AcDb2dVertex
 10
1869.629237
 20
446.942172
 30
0.0
  0
VERTEX
  5
3A5
100
AcDbEntity
  8
LAY-1
  6
CONTINUOUS
 62
     7
100
AcDbVertex
100
AcDb2dVertex
 10
1869.606484
 20
446.815729
 30
0.0
  0
VERTEX
  5
3A6
100
AcDbEntity
  8
LAY-1
  6
CONTINUOUS
 62
     7
100
AcDbVertex
100
AcDb2dVertex
 10
1869.606104
 20
446.809789
 30
0.0
  0
SEQEND
  5
3A7
100
AcDbEntity
  8
LAY-1
  6
CONTINUOUS
 62
     7
  0
POLYLINE
  5
3A8
100
AcDbEntity
  8
LAY-1
  6
CONTINUOUS
 62
     7
100
AcDb2dPolyline
 66
     1
 10
0.0
 20
0.0
 30
0.0
 70
   128
  0
VERTEX
  5
3A9
100
AcDbEntity
  8
LAY-1
  6
CONTINUOUS
 62
     7
100
AcDbVertex
100
AcDb2dVertex
 10
1869.606104
 20
459.778859
 30
0.0
  0
VERTEX
  5
3AA
100
AcDbEntity
  8
LAY-1
  6
CONTINUOUS
 62
     7
100
AcDbVertex
100
AcDb2dVertex
 10
1869.605829
 20
459.783149
 30
0.0
  0
VERTEX
  5
3AB
100
AcDbEntity
  8
LAY-1
  6
CONTINUOUS
 62
     7
100
AcDbVertex
100
AcDb2dVertex
 10
1869.624813
 20
459.663044
 30
0.0
  0
VERTEX
  5
3AC
100
AcDbEntity
  8
LAY-1
  6
CONTINUOUS
 62
     7
100
AcDbVertex
100
AcDb2dVertex
 10
1869.680949
 20
459.5091
 30
0.0
  0
VERTEX
  5
3AD
100
AcDbEntity
  8
LAY-1
  6
CONTINUOUS
 62
     7
100
AcDbVertex
100
AcDb2dVertex
 10
1869.80972
 20
459.297109
 30
0.0
  0
VERTEX
  5
3AE
100
AcDbEntity
  8
LAY-1
  6
CONTINUOUS
 62
     7
100
AcDbVertex
100
AcDb2dVertex
 10
1870.18266
 20
458.929402
 30
0.0
  0
VERTEX
  5
3AF
100
AcDbEntity
  8
LAY-1
  6
CONTINUOUS
 62
     7
100
AcDbVertex
100
AcDb2dVertex
 10
1870.466406
 20
458.748165
 30
0.0
  0
SEQEND
  5
3B0
100
AcDbEntity
  8
LAY-1
  6
CONTINUOUS
 62
     7
  0
LINE
  5
3B1
100
AcDbEntity
  8
LAY-1
  6
CONTINUOUS
 62
     7
100
AcDbLine
 10
1870.532885
 20
475.294324
 30
0.0
 11
1870.47136
 21
475.294324
 31
0.0
  0
LINE
  5
3B2
100
AcDbEntity
  8
LAY-1
  6
CONTINUOUS
 62
     7
100
AcDbLine
 10
1893.47136
 20
438.794324
 30
0.0
 11
1881.97136
 21
438.794324
 31
0.0
  0
LINE
  5
3B3
100
AcDbEntity
  8
LAY-1
  6
CONTINUOUS
 62
     7
100
AcDbLine
 10
1881.97136
 20
438.794324
 30
0.0
 11
1870.47136
 21
438.794324
 31
0.0
  0
LINE
  5
3B4
100
AcDbEntity
  8
LAY-1
  6
CONTINUOUS
 62
     7
100
AcDbLine
 10
1865.47136
 20
459.044323
 30
0.0
 11
1865.47136
 21
460.294324
 31
0.0
  0
LINE
  5
3B5
100
AcDbEntity
  8
LAY-1
  6
CONTINUOUS
 62
     7
100
AcDbLine
 10
1871.019818
 20
475.794324
 30
0.0
 11
1870.97136
 21
475.794324
 31
0.0
  0
LINE
  5
3B6
100
AcDbEntity
  8
LAY-1
  6
CONTINUOUS
 62
     7
100
AcDbLine
 10
1892.97136
 20
475.794324
 30
0.0
 11
1892.922902
 21
475.794324
 31
0.0
  0
LINE
  5
3B7
100
AcDbEntity
  8
LAY-1
  6
CONTINUOUS
 62
     7
100
AcDbLine
 10
1871.617568
 20
448.453309
 30
0.0
 11
1870.466406
 21
447.840483
 31
0.0
  0
LINE
  5
3B8
100
AcDbEntity
  8
LAY-1
  6
CONTINUOUS
 62
     7
100
AcDbLine
 10
1870.466406
 20
458.748165
 30
0.0
 11
1871.617568
 21
458.13534
 31
0.0
  0
LINE
  5
3B9
100
AcDbEntity
  8
LAY-1
  6
CONTINUOUS
 62
     7
100
AcDbLine
 10
1869.41016
 20
456.544324
 30
0.0
 11
1866.47136
 21
456.544324
 31
0.0
  0
LINE
  5
3BA
100
AcDbEntity
  8
LAY-1
  6
CONTINUOUS
 62
     7
100
AcDbLine
 10
1866.47136
 20
456.544324
 30
0.0
 11
1866.47136
 21
459.794324
 31
0.0
  0
POLYLINE
  5
3BB
100
AcDbEntity
  8
LAY-1
  6
CONTINUOUS
 62
     7
100
AcDb2dPolyline
 66
     1
 10
0.0
 20
0.0
 30
0.0
 70
   128
  0
VERTEX
  5
3BC
100
AcDbEntity
  8
LAY-1
  6
CONTINUOUS
 62
     7
100
AcDbVertex
100
AcDb2dVertex
 10
1866.47136
 20
456.544324
 30
0.0
  0
VERTEX
  5
3BD
100
AcDbEntity
  8
LAY-1
  6
CONTINUOUS
 62
     7
100
AcDbVertex
100
AcDb2dVertex
 10
1866.491223
 20
456.450042
 30
0.0
  0
VERTEX
  5
3BE
100
AcDbEntity
  8
LAY-1
  6
CONTINUOUS
 62
     7
100
AcDbVertex
100
AcDb2dVertex
 10
1866.54245
 20
456.380949
 30
0.0
  0
VERTEX
  5
3BF
100
AcDbEntity
  8
LAY-1
  6
CONTINUOUS
 62
     7
100
AcDbVertex
100
AcDb2dVertex
 10
1866.660931
 20
456.316541
 30
0.0
  0
VERTEX
  5
3C0
100
AcDbEntity
  8
LAY-1
  6
CONTINUOUS
 62
     7
100
AcDbVertex
100
AcDb2dVertex
 10
1866.823193
 20
456.294323
 30
0.0
  0
SEQEND
  5
3C1
100
AcDbEntity
  8
LAY-1
  6
CONTINUOUS
 62
     7
  0
LINE
  5
3C2
100
AcDbEntity
  8
LAY-1
  6
CONTINUOUS
 62
     7
100
AcDbLine
 10
1866.47136
 20
446.794324
 30
0.0
 11
1866.47136
 21
450.972896
 31
0.0
  0
LINE
  5
3C3
100
AcDbEntity
  8
LAY-1
  6
CONTINUOUS
 62
     7
100
AcDbLine
 10
1866.47136
 20
450.972895
 30
0.0
 11
1869.28257
 21
450.972895
 31
0.0
  0
POLYLINE
  5
3C4
100
AcDbEntity
  8
LAY-1
  6
CONTINUOUS
 62
     7
100
AcDb2dPolyline
 66
     1
 10
0.0
 20
0.0
 30
0.0
 70
   128
  0
VERTEX
  5
3C5
100
AcDbEntity
  8
LAY-1
  6
CONTINUOUS
 62
     7
100
AcDbVertex
100
AcDb2dVertex
 10
1866.921223
 20
451.294324
 30
0.0
  0
VERTEX
  5
3C6
100
AcDbEntity
  8
LAY-1
  6
CONTINUOUS
 62
     7
100
AcDbVertex
100
AcDb2dVertex
 10
1866.640597
 20
451.232839
 30
0.0
  0
VERTEX
  5
3C7
100
AcDbEntity
  8
LAY-1
  6
CONTINUOUS
 62
     7
100
AcDbVertex
100
AcDb2dVertex
 10
1866.552315
 20
451.16858
 30
0.0
  0
VERTEX
  5
3C8
100
AcDbEntity
  8
LAY-1
  6
CONTINUOUS
 62
     7
100
AcDbVertex
100
AcDb2dVertex
 10
1866.489012
 20
451.071475
 30
0.0
  0
VERTEX
  5
3C9
100
AcDbEntity
  8
LAY-1
  6
CONTINUOUS
 62
     7
100
AcDbVertex
100
AcDb2dVertex
 10
1866.47136
 20
450.972895
 30
0.0
  0
SEQEND
  5
3CA
100
AcDbEntity
  8
LAY-1
  6
CONTINUOUS
 62
     7
  0
LINE
  5
3CB
100
AcDbEntity
  8
LAY-1
  6
CONTINUOUS
 62
     7
100
AcDbLine
 10
1868.909561
 20
456.294323
 30
0.0
 11
1868.856893
 21
456.294323
 31
0.0
  0
LINE
  5
3CC
100
AcDbEntity
  8
LAY-1
  6
CONTINUOUS
 62
     7
100
AcDbLine
 10
1868.754094
 20
451.294324
 30
0.0
 11
1868.766626
 21
451.294324
 31
0.0
  0
POLYLINE
  5
3CD
100
AcDbEntity
  8
LAY-1
  6
CONTINUOUS
 62
     7
100
AcDb2dPolyline
 66
     1
 10
0.0
 20
0.0
 30
0.0
 70
   128
  0
VERTEX
  5
3CE
100
AcDbEntity
  8
LAY-1
  6
CONTINUOUS
 62
     7
100
AcDbVertex
100
AcDb2dVertex
 10
1869.41016
 20
456.544324
 30
0.0
  0
VERTEX
  5
3CF
100
AcDbEntity
  8
LAY-1
  6
CONTINUOUS
 62
     7
100
AcDbVertex
100
AcDb2dVertex
 10
1869.406718
 20
456.541828
 30
0.0
  0
VERTEX
  5
3D0
100
AcDbEntity
  8
LAY-1
  6
CONTINUOUS
 62
     7
100
AcDbVertex
100
AcDb2dVertex
 10
1869.236474
 20
456.428464
 30
0.0
  0
VERTEX
  5
3D1
100
AcDbEntity
  8
LAY-1
  6
CONTINUOUS
 62
     7
100
AcDbVertex
100
AcDb2dVertex
 10
1869.029266
 20
456.32282
 30
0.0
  0
VERTEX
  5
3D2
100
AcDbEntity
  8
LAY-1
  6
CONTINUOUS
 62
     7
100
AcDbVertex
100
AcDb2dVertex
 10
1868.909561
 20
456.294323
 30
0.0
  0
SEQEND
  5
3D3
100
AcDbEntity
  8
LAY-1
  6
CONTINUOUS
 62
     7
  0
POLYLINE
  5
3D4
100
AcDbEntity
  8
LAY-1
  6
CONTINUOUS
 62
     7
100
AcDb2dPolyline
 66
     1
 10
0.0
 20
0.0
 30
0.0
 70
   128
  0
VERTEX
  5
3D5
100
AcDbEntity
  8
LAY-1
  6
CONTINUOUS
 62
     7
100
AcDbVertex
100
AcDb2dVertex
 10
1869.28257
 20
450.972895
 30
0.0
  0
VERTEX
  5
3D6
100
AcDbEntity
  8
LAY-1
  6
CONTINUOUS
 62
     7
100
AcDbVertex
100
AcDb2dVertex
 10
1869.191726
 20
452.083048
 30
0.0
  0
VERTEX
  5
3D7
100
AcDbEntity
  8
LAY-1
  6
CONTINUOUS
 62
     7
100
AcDbVertex
100
AcDb2dVertex
 10
1869.158959
 20
453.231374
 30
0.0
  0
VERTEX
  5
3D8
100
AcDbEntity
  8
LAY-1
  6
CONTINUOUS
 62
     7
100
AcDbVertex
100
AcDb2dVertex
 10
1869.185302
 20
454.381685
 30
0.0
  0
VERTEX
  5
3D9
100
AcDbEntity
  8
LAY-1
  6
CONTINUOUS
 62
     7
100
AcDbVertex
100
AcDb2dVertex
 10
1869.269924
 20
455.497726
 30
0.0
  0
VERTEX
  5
3DA
100
AcDbEntity
  8
LAY-1
  6
CONTINUOUS
 62
     7
100
AcDbVertex
100
AcDb2dVertex
 10
1869.41016
 20
456.544324
 30
0.0
  0
SEQEND
  5
3DB
100
AcDbEntity
  8
LAY-1
  6
CONTINUOUS
 62
     7
  0
POLYLINE
  5
3DC
100
AcDbEntity
  8
LAY-1
  6
CONTINUOUS
 62
     7
100
AcDb2dPolyline
 66
     1
 10
0.0
 20
0.0
 30
0.0
 70
   128
  0
VERTEX
  5
3DD
100
AcDbEntity
  8
LAY-1
  6
CONTINUOUS
 62
     7
100
AcDbVertex
100
AcDb2dVertex
 10
1868.766626
 20
451.294324
 30
0.0
  0
VERTEX
  5
3DE
100
AcDbEntity
  8
LAY-1
  6
CONTINUOUS
 62
     7
100
AcDbVertex
100
AcDb2dVertex
 10
1868.845031
 20
451.270952
 30
0.0
  0
VERTEX
  5
3DF
100
AcDbEntity
  8
LAY-1
  6
CONTINUOUS
 62
     7
100
AcDbVertex
100
AcDb2dVertex
 10
1868.986881
 20
451.190534
 30
0.0
  0
VERTEX
  5
3E0
100
AcDbEntity
  8
LAY-1
  6
CONTINUOUS
 62
     7
100
AcDbVertex
100
AcDb2dVertex
 10
1869.226693
 20
451.017647
 30
0.0
  0
VERTEX
  5
3E1
100
AcDbEntity
  8
LAY-1
  6
CONTINUOUS
 62
     7
100
AcDbVertex
100
AcDb2dVertex
 10
1869.279193
 20
450.975645
 30
0.0
  0
VERTEX
  5
3E2
100
AcDbEntity
  8
LAY-1
  6
CONTINUOUS
 62
     7
100
AcDbVertex
100
AcDb2dVertex
 10
1869.28257
 20
450.972895
 30
0.0
  0
SEQEND
  5
3E3
100
AcDbEntity
  8
LAY-1
  6
CONTINUOUS
 62
     7
  0
LINE
  5
3E4
100
AcDbEntity
  8
LAY-1
  6
CONTINUOUS
 62
     7
100
AcDbLine
 10
1891.095504
 20
463.294325
 30
0.0
 11
1892.97136
 21
463.294325
 31
0.0
  0
LINE
  5
3E5
100
AcDbEntity
  8
LAY-1
  6
CONTINUOUS
 62
     7
100
AcDbLine
 10
1891.095504
 20
460.294324
 30
0.0
 11
1892.97136
 21
460.294324
 31
0.0
  0
LINE
  5
3E6
100
AcDbEntity
  8
LAY-1
  6
CONTINUOUS
 62
     7
100
AcDbLine
 10
1893.47136
 20
463.294324
 30
0.0
 11
1892.97136
 21
463.294324
 31
0.0
  0
LINE
  5
3E7
100
AcDbEntity
  8
LAY-1
  6
CONTINUOUS
 62
     7
100
AcDbLine
 10
1893.47136
 20
460.294324
 30
0.0
 11
1892.97136
 21
460.294324
 31
0.0
  0
LINE
  5
3E8
100
AcDbEntity
  8
LAY-1
  6
CONTINUOUS
 62
     7
100
AcDbLine
 10
1892.97136
 20
463.294325
 30
0.0
 11
1892.97136
 21
460.294324
 31
0.0
  0
LINE
  5
3E9
100
AcDbEntity
  8
LAY-1
  6
CONTINUOUS
 62
     7
100
AcDbLine
 10
1893.47136
 20
460.294324
 30
0.0
 11
1893.47136
 21
463.294325
 31
0.0
  0
POLYLINE
  5
3EA
100
AcDbEntity
  8
LAY-1
  6
CONTINUOUS
 62
     7
100
AcDb2dPolyline
 66
     1
 10
0.0
 20
0.0
 30
0.0
 70
   128
  0
VERTEX
  5
3EB
100
AcDbEntity
  8
LAY-1
  6
CONTINUOUS
 62
     7
100
AcDbVertex
100
AcDb2dVertex
 10
1872.439898
 20
447.551738
 30
0.0
  0
VERTEX
  5
3EC
100
AcDbEntity
  8
LAY-1
  6
CONTINUOUS
 62
     7
100
AcDbVertex
100
AcDb2dVertex
 10
1872.316827
 20
447.8292
 30
0.0
  0
VERTEX
  5
3ED
100
AcDbEntity
  8
LAY-1
  6
CONTINUOUS
 62
     7
100
AcDbVertex
100
AcDb2dVertex
 10
1872.11925
 20
448.09047
 30
0.0
  0
VERTEX
  5
3EE
100
AcDbEntity
  8
LAY-1
  6
CONTINUOUS
 62
     7
100
AcDbVertex
100
AcDb2dVertex
 10
1871.864043
 20
448.31286
 30
0.0
  0
VERTEX
  5
3EF
100
AcDbEntity
  8
LAY-1
  6
CONTINUOUS
 62
     7
100
AcDbVertex
100
AcDb2dVertex
 10
1871.625165
 20
448.449918
 30
0.0
  0
VERTEX
  5
3F0
100
AcDbEntity
  8
LAY-1
  6
CONTINUOUS
 62
     7
100
AcDbVertex
100
AcDb2dVertex
 10
1871.617568
 20
448.453309
 30
0.0
  0
SEQEND
  5
3F1
100
AcDbEntity
  8
LAY-1
  6
CONTINUOUS
 62
     7
  0
POLYLINE
  5
3F2
100
AcDbEntity
  8
LAY-1
  6
CONTINUOUS
 62
     7
100
AcDb2dPolyline
 66
     1
 10
0.0
 20
0.0
 30
0.0
 70
   128
  0
VERTEX
  5
3F3
100
AcDbEntity
  8
LAY-1
  6
CONTINUOUS
 62
     7
100
AcDbVertex
100
AcDb2dVertex
 10
1871.617568
 20
458.13534
 30
0.0
  0
VERTEX
  5
3F4
100
AcDbEntity
  8
LAY-1
  6
CONTINUOUS
 62
     7
100
AcDbVertex
100
AcDb2dVertex
 10
1872.006036
 20
457.47842
 30
0.0
  0
VERTEX
  5
3F5
100
AcDbEntity
  8
LAY-1
  6
CONTINUOUS
 62
     7
100
AcDbVertex
100
AcDb2dVertex
 10
1872.405495
 20
456.707318
 30
0.0
  0
VERTEX
  5
3F6
100
AcDbEntity
  8
LAY-1
  6
CONTINUOUS
 62
     7
100
AcDbVertex
100
AcDb2dVertex
 10
1872.768205
 20
455.85034
 30
0.0
  0
VERTEX
  5
3F7
100
AcDbEntity
  8
LAY-1
  6
CONTINUOUS
 62
     7
100
AcDbVertex
100
AcDb2dVertex
 10
1873.054816
 20
454.912861
 30
0.0
  0
VERTEX
  5
3F8
100
AcDbEntity
  8
LAY-1
  6
CONTINUOUS
 62
     7
100
AcDbVertex
100
AcDb2dVertex
 10
1873.22433
 20
453.913574
 30
0.0
  0
VERTEX
  5
3F9
100
AcDbEntity
  8
LAY-1
  6
CONTINUOUS
 62
     7
100
AcDbVertex
100
AcDb2dVertex
 10
1873.253458
 20
453.257426
 30
0.0
  0
VERTEX
  5
3FA
100
AcDbEntity
  8
LAY-1
  6
CONTINUOUS
 62
     7
100
AcDbVertex
100
AcDb2dVertex
 10
1873.191583
 20
452.398216
 30
0.0
  0
VERTEX
  5
3FB
100
AcDbEntity
  8
LAY-1
  6
CONTINUOUS
 62
     7
100
AcDbVertex
100
AcDb2dVertex
 10
1873.028551
 20
451.566668
 30
0.0
  0
VERTEX
  5
3FC
100
AcDbEntity
  8
LAY-1
  6
CONTINUOUS
 62
     7
100
AcDbVertex
100
AcDb2dVertex
 10
1872.657334
 20
450.452775
 30
0.0
  0
VERTEX
  5
3FD
100
AcDbEntity
  8
LAY-1
  6
CONTINUOUS
 62
     7
100
AcDbVertex
100
AcDb2dVertex
 10
1872.194199
 20
449.458123
 30
0.0
  0
VERTEX
  5
3FE
100
AcDbEntity
  8
LAY-1
  6
CONTINUOUS
 62
     7
100
AcDbVertex
100
AcDb2dVertex
 10
1871.617568
 20
448.453309
 30
0.0
  0
SEQEND
  5
3FF
100
AcDbEntity
  8
LAY-1
  6
CONTINUOUS
 62
     7
  0
POLYLINE
  5
400
100
AcDbEntity
  8
LAY-1
  6
CONTINUOUS
 62
     7
100
AcDb2dPolyline
 66
     1
 10
0.0
 20
0.0
 30
0.0
 70
   128
  0
VERTEX
  5
401
100
AcDbEntity
  8
LAY-1
  6
CONTINUOUS
 62
     7
100
AcDbVertex
100
AcDb2dVertex
 10
1872.439898
 20
459.036912
 30
0.0
  0
VERTEX
  5
402
100
AcDbEntity
  8
LAY-1
  6
CONTINUOUS
 62
     7
100
AcDbVertex
100
AcDb2dVertex
 10
1872.317468
 20
458.760523
 30
0.0
  0
VERTEX
  5
403
100
AcDbEntity
  8
LAY-1
  6
CONTINUOUS
 62
     7
100
AcDbVertex
100
AcDb2dVertex
 10
1872.121027
 20
458.500085
 30
0.0
  0
VERTEX
  5
404
100
AcDbEntity
  8
LAY-1
  6
CONTINUOUS
 62
     7
100
AcDbVertex
100
AcDb2dVertex
 10
1871.866184
 20
458.277295
 30
0.0
  0
VERTEX
  5
405
100
AcDbEntity
  8
LAY-1
  6
CONTINUOUS
 62
     7
100
AcDbVertex
100
AcDb2dVertex
 10
1871.625165
 20
458.138731
 30
0.0
  0
VERTEX
  5
406
100
AcDbEntity
  8
LAY-1
  6
CONTINUOUS
 62
     7
100
AcDbVertex
100
AcDb2dVertex
 10
1871.617568
 20
458.13534
 30
0.0
  0
SEQEND
  5
407
100
AcDbEntity
  8
LAY-1
  6
CONTINUOUS
 62
     7
  0
LINE
  5
408
100
AcDbEntity
  8
LAY-1
  6
CONTINUOUS
 62
     7
100
AcDbLine
 10
1893.409835
 20
475.294325
 30
0.0
 11
1893.409835
 21
463.294325
 31
0.0
  0
LINE
  5
409
100
AcDbEntity
  8
LAY-1
  6
CONTINUOUS
 62
     7
100
AcDbLine
 10
1875.602394
 20
475.794326
 30
0.0
 11
1871.019818
 21
475.794326
 31
0.0
  0
LINE
  5
40A
100
AcDbEntity
  8
LAY-1
  6
CONTINUOUS
 62
     7
100
AcDbLine
 10
1870.532885
 20
475.294325
 30
0.0
 11
1875.223301
 21
475.294325
 31
0.0
  0
POLYLINE
  5
40B
100
AcDbEntity
  8
LAY-1
  6
CONTINUOUS
 62
     7
100
AcDb2dPolyline
 66
     1
 10
0.0
 20
0.0
 30
0.0
 70
   128
  0
VERTEX
  5
40C
100
AcDbEntity
  8
LAY-1
  6
CONTINUOUS
 62
     7
100
AcDbVertex
100
AcDb2dVertex
 10
1871.019818
 20
475.794326
 30
0.0
  0
VERTEX
  5
40D
100
AcDbEntity
  8
LAY-1
  6
CONTINUOUS
 62
     7
100
AcDbVertex
100
AcDb2dVertex
 10
1871.013217
 20
475.794277
 30
0.0
  0
VERTEX
  5
40E
100
AcDbEntity
  8
LAY-1
  6
CONTINUOUS
 62
     7
100
AcDbVertex
100
AcDb2dVertex
 10
1870.902466
 20
475.779615
 30
0.0
  0
VERTEX
  5
40F
100
AcDbEntity
  8
LAY-1
  6
CONTINUOUS
 62
     7
100
AcDbVertex
100
AcDb2dVertex
 10
1870.753407
 20
475.712954
 30
0.0
  0
VERTEX
  5
410
100
AcDbEntity
  8
LAY-1
  6
CONTINUOUS
 62
     7
100
AcDbVertex
100
AcDb2dVertex
 10
1870.635495
 20
475.601482
 30
0.0
  0
VERTEX
  5
411
100
AcDbEntity
  8
LAY-1
  6
CONTINUOUS
 62
     7
100
AcDbVertex
100
AcDb2dVertex
 10
1870.559376
 20
475.45709
 30
0.0
  0
VERTEX
  5
412
100
AcDbEntity
  8
LAY-1
  6
CONTINUOUS
 62
     7
100
AcDbVertex
100
AcDb2dVertex
 10
1870.532885
 20
475.294325
 30
0.0
  0
SEQEND
  5
413
100
AcDbEntity
  8
LAY-1
  6
CONTINUOUS
 62
     7
  0
LINE
  5
414
100
AcDbEntity
  8
LAY-1
  6
CONTINUOUS
 62
     7
100
AcDbLine
 10
1892.922902
 20
475.794326
 30
0.0
 11
1888.340326
 21
475.794326
 31
0.0
  0
POLYLINE
  5
415
100
AcDbEntity
  8
LAY-1
  6
CONTINUOUS
 62
     7
100
AcDb2dPolyline
 66
     1
 10
0.0
 20
0.0
 30
0.0
 70
   128
  0
VERTEX
  5
416
100
AcDbEntity
  8
LAY-1
  6
CONTINUOUS
 62
     7
100
AcDbVertex
100
AcDb2dVertex
 10
1892.922902
 20
475.794326
 30
0.0
  0
VERTEX
  5
417
100
AcDbEntity
  8
LAY-1
  6
CONTINUOUS
 62
     7
100
AcDbVertex
100
AcDb2dVertex
 10
1892.929503
 20
475.794277
 30
0.0
  0
VERTEX
  5
418
100
AcDbEntity
  8
LAY-1
  6
CONTINUOUS
 62
     7
100
AcDbVertex
100
AcDb2dVertex
 10
1893.040254
 20
475.779615
 30
0.0
  0
VERTEX
  5
419
100
AcDbEntity
  8
LAY-1
  6
CONTINUOUS
 62
     7
100
AcDbVertex
100
AcDb2dVertex
 10
1893.189313
 20
475.712954
 30
0.0
  0
VERTEX
  5
41A
100
AcDbEntity
  8
LAY-1
  6
CONTINUOUS
 62
     7
100
AcDbVertex
100
AcDb2dVertex
 10
1893.307225
 20
475.601482
 30
0.0
  0
VERTEX
  5
41B
100
AcDbEntity
  8
LAY-1
  6
CONTINUOUS
 62
     7
100
AcDbVertex
100
AcDb2dVertex
 10
1893.383344
 20
475.45709
 30
0.0
  0
VERTEX
  5
41C
100
AcDbEntity
  8
LAY-1
  6
CONTINUOUS
 62
     7
100
AcDbVertex
100
AcDb2dVertex
 10
1893.409835
 20
475.294325
 30
0.0
  0
SEQEND
  5
41D
100
AcDbEntity
  8
LAY-1
  6
CONTINUOUS
 62
     7
  0
LINE
  5
41E
100
AcDbEntity
  8
LAY-1
  6
CONTINUOUS
 62
     7
100
AcDbLine
 10
1888.719419
 20
475.294325
 30
0.0
 11
1893.409835
 21
475.294325
 31
0.0
  0
POLYLINE
  5
41F
100
AcDbEntity
  8
LAY-1
  6
CONTINUOUS
 62
     7
100
AcDb2dPolyline
 66
     1
 10
0.0
 20
0.0
 30
0.0
 70
   128
  0
VERTEX
  5
420
100
AcDbEntity
  8
LAY-1
  6
CONTINUOUS
 62
     7
100
AcDbVertex
100
AcDb2dVertex
 10
1872.439898
 20
459.036912
 30
0.0
  0
VERTEX
  5
421
100
AcDbEntity
  8
LAY-1
  6
CONTINUOUS
 62
     7
100
AcDbVertex
100
AcDb2dVertex
 10
1872.491229
 20
459.158407
 30
0.0
  0
VERTEX
  5
422
100
AcDbEntity
  8
LAY-1
  6
CONTINUOUS
 62
     7
100
AcDbVertex
100
AcDb2dVertex
 10
1872.575772
 20
459.250615
 30
0.0
  0
VERTEX
  5
423
100
AcDbEntity
  8
LAY-1
  6
CONTINUOUS
 62
     7
100
AcDbVertex
100
AcDb2dVertex
 10
1872.726615
 20
459.294324
 30
0.0
  0
SEQEND
  5
424
100
AcDbEntity
  8
LAY-1
  6
CONTINUOUS
 62
     7
  0
POLYLINE
  5
425
100
AcDbEntity
  8
LAY-1
  6
CONTINUOUS
 62
     7
100
AcDb2dPolyline
 66
     1
 10
0.0
 20
0.0
 30
0.0
 70
   128
  0
VERTEX
  5
426
100
AcDbEntity
  8
LAY-1
  6
CONTINUOUS
 62
     7
100
AcDbVertex
100
AcDb2dVertex
 10
1872.726615
 20
447.294324
 30
0.0
  0
VERTEX
  5
427
100
AcDbEntity
  8
LAY-1
  6
CONTINUOUS
 62
     7
100
AcDbVertex
100
AcDb2dVertex
 10
1872.586502
 20
447.331122
 30
0.0
  0
VERTEX
  5
428
100
AcDbEntity
  8
LAY-1
  6
CONTINUOUS
 62
     7
100
AcDbVertex
100
AcDb2dVertex
 10
1872.500573
 20
447.415557
 30
0.0
  0
VERTEX
  5
429
100
AcDbEntity
  8
LAY-1
  6
CONTINUOUS
 62
     7
100
AcDbVertex
100
AcDb2dVertex
 10
1872.439898
 20
447.551738
 30
0.0
  0
SEQEND
  5
42A
100
AcDbEntity
  8
LAY-1
  6
CONTINUOUS
 62
     7
  0
LINE
  5
42B
100
AcDbEntity
  8
LAY-1
  6
CONTINUOUS
 62
     7
100
AcDbLine
 10
1865.47136
 20
456.294323
 30
0.0
 11
1867.97136
 21
456.294323
 31
0.0
  0
LINE
  5
42C
100
AcDbEntity
  8
LAY-1
  6
CONTINUOUS
 62
     7
100
AcDbLine
 10
1865.47136
 20
451.294324
 30
0.0
 11
1867.97136
 21
451.294324
 31
0.0
  0
LINE
  5
42D
100
AcDbEntity
  8
LAY-1
  6
CONTINUOUS
 62
     7
100
AcDbLine
 10
1865.47136
 20
456.294323
 30
0.0
 11
1865.47136
 21
451.294324
 31
0.0
  0
LINE
  5
42E
100
AcDbEntity
  8
LAY-1
  6
CONTINUOUS
 62
     7
100
AcDbLine
 10
1867.97136
 20
456.294323
 30
0.0
 11
1868.856893
 21
456.294323
 31
0.0
  0
POLYLINE
  5
42F
100
AcDbEntity
  8
LAY-1
  6
CONTINUOUS
 62
     7
100
AcDb2dPolyline
 66
     1
 10
0.0
 20
0.0
 30
0.0
 70
   128
  0
VERTEX
  5
430
100
AcDbEntity
  8
LAY-1
  6
CONTINUOUS
 62
     7
100
AcDbVertex
100
AcDb2dVertex
 10
1868.856893
 20
456.294323
 30
0.0
  0
VERTEX
  5
431
100
AcDbEntity
  8
LAY-1
  6
CONTINUOUS
 62
     7
100
AcDbVertex
100
AcDb2dVertex
 10
1868.738826
 20
455.092165
 30
0.0
  0
VERTEX
  5
432
100
AcDbEntity
  8
LAY-1
  6
CONTINUOUS
 62
     7
100
AcDbVertex
100
AcDb2dVertex
 10
1868.681405
 20
453.829859
 30
0.0
  0
VERTEX
  5
433
100
AcDbEntity
  8
LAY-1
  6
CONTINUOUS
 62
     7
100
AcDbVertex
100
AcDb2dVertex
 10
1868.686552
 20
452.549634
 30
0.0
  0
VERTEX
  5
434
100
AcDbEntity
  8
LAY-1
  6
CONTINUOUS
 62
     7
100
AcDbVertex
100
AcDb2dVertex
 10
1868.754094
 20
451.294324
 30
0.0
  0
SEQEND
  5
435
100
AcDbEntity
  8
LAY-1
  6
CONTINUOUS
 62
     7
  0
LINE
  5
436
100
AcDbEntity
  8
LAY-1
  6
CONTINUOUS
 62
     7
100
AcDbLine
 10
1867.97136
 20
451.294324
 30
0.0
 11
1868.754094
 21
451.294324
 31
0.0
  0
LINE
  5
437
100
AcDbEntity
  8
LAY-1
  6
CONTINUOUS
 62
     7
100
AcDbLine
 10
1867.97136
 20
456.294323
 30
0.0
 11
1867.97136
 21
451.294324
 31
0.0
  0
LINE
  5
438
100
AcDbEntity
  8
LAY-1
  6
CONTINUOUS
 62
     7
100
AcDbLine
 10
1877.280944
 20
459.294324
 30
0.0
 11
1872.726616
 21
459.294324
 31
0.0
  0
POLYLINE
  5
439
100
AcDbEntity
  8
LAY-1
  6
CONTINUOUS
 62
     7
100
AcDb2dPolyline
 66
     1
 10
0.0
 20
0.0
 30
0.0
 70
   128
  0
VERTEX
  5
43A
100
AcDbEntity
  8
LAY-1
  6
CONTINUOUS
 62
     7
100
AcDbVertex
100
AcDb2dVertex
 10
1872.726615
 20
459.294324
 30
0.0
  0
VERTEX
  5
43B
100
AcDbEntity
  8
LAY-1
  6
CONTINUOUS
 62
     7
100
AcDbVertex
100
AcDb2dVertex
 10
1871.906604
 20
459.80473
 30
0.0
  0
VERTEX
  5
43C
100
AcDbEntity
  8
LAY-1
  6
CONTINUOUS
 62
     7
100
AcDbVertex
100
AcDb2dVertex
 10
1871.13284
 20
460.294324
 30
0.0
  0
SEQEND
  5
43D
100
AcDbEntity
  8
LAY-1
  6
CONTINUOUS
 62
     7
  0
POLYLINE
  5
43E
100
AcDbEntity
  8
LAY-1
  6
CONTINUOUS
 62
     7
100
AcDb2dPolyline
 66
     1
 10
0.0
 20
0.0
 30
0.0
 70
   128
  0
VERTEX
  5
43F
100
AcDbEntity
  8
LAY-1
  6
CONTINUOUS
 62
     7
100
AcDbVertex
100
AcDb2dVertex
 10
1871.13284
 20
446.294325
 30
0.0
  0
VERTEX
  5
440
100
AcDbEntity
  8
LAY-1
  6
CONTINUOUS
 62
     7
100
AcDbVertex
100
AcDb2dVertex
 10
1872.378138
 20
447.078589
 30
0.0
  0
VERTEX
  5
441
100
AcDbEntity
  8
LAY-1
  6
CONTINUOUS
 62
     7
100
AcDbVertex
100
AcDb2dVertex
 10
1872.726615
 20
447.294324
 30
0.0
  0
SEQEND
  5
442
100
AcDbEntity
  8
LAY-1
  6
CONTINUOUS
 62
     7
  0
LINE
  5
443
100
AcDbEntity
  8
LAY-1
  6
CONTINUOUS
 62
     7
100
AcDbLine
 10
1877.280944
 20
447.294324
 30
0.0
 11
1872.726616
 21
447.294324
 31
0.0
  0
LINE
  5
444
100
AcDbEntity
  8
LAY-1
  6
CONTINUOUS
 62
     7
100
AcDbLine
 10
1870.532885
 20
463.294325
 30
0.0
 11
1870.532885
 21
475.294325
 31
0.0
  0
LINE
  5
445
100
AcDbEntity
  8
LAY-1
  6
CONTINUOUS
 62
     7
100
AcDbLine
 10
1875.223301
 20
463.294324
 30
0.0
 11
1870.532885
 21
463.294324
 31
0.0
  0
LINE
  5
446
100
AcDbEntity
  8
LAY-1
  6
CONTINUOUS
 62
     7
100
AcDbLine
 10
1875.223301
 20
475.294325
 30
0.0
 11
1875.223301
 21
463.294325
 31
0.0
  0
LINE
  5
447
100
AcDbEntity
  8
LAY-1
  6
CONTINUOUS
 62
     7
100
AcDbLine
 10
1877.280944
 20
460.294324
 30
0.0
 11
1871.13284
 21
460.294324
 31
0.0
  0
LINE
  5
448
100
AcDbEntity
  8
LAY-1
  6
CONTINUOUS
 62
     7
100
AcDbLine
 10
1871.13284
 20
460.294324
 30
0.0
 11
1870.47136
 21
460.294324
 31
0.0
  0
LINE
  5
449
100
AcDbEntity
  8
LAY-1
  6
CONTINUOUS
 62
     7
100
AcDbLine
 10
1877.280944
 20
475.294324
 30
0.0
 11
1875.223301
 21
475.294324
 31
0.0
  0
POLYLINE
  5
44A
100
AcDbEntity
  8
LAY-1
  6
CONTINUOUS
 62
     7
100
AcDb2dPolyline
 66
     1
 10
0.0
 20
0.0
 30
0.0
 70
   128
  0
VERTEX
  5
44B
100
AcDbEntity
  8
LAY-1
  6
CONTINUOUS
 62
     7
100
AcDbVertex
100
AcDb2dVertex
 10
1875.602394
 20
475.794326
 30
0.0
  0
VERTEX
  5
44C
100
AcDbEntity
  8
LAY-1
  6
CONTINUOUS
 62
     7
100
AcDbVertex
100
AcDb2dVertex
 10
1875.59727
 20
475.794277
 30
0.0
  0
VERTEX
  5
44D
100
AcDbEntity
  8
LAY-1
  6
CONTINUOUS
 62
     7
100
AcDbVertex
100
AcDb2dVertex
 10
1875.511237
 20
475.779615
 30
0.0
  0
VERTEX
  5
44E
100
AcDbEntity
  8
LAY-1
  6
CONTINUOUS
 62
     7
100
AcDbVertex
100
AcDb2dVertex
 10
1875.395261
 20
475.712954
 30
0.0
  0
VERTEX
  5
44F
100
AcDbEntity
  8
LAY-1
  6
CONTINUOUS
 62
     7
100
AcDbVertex
100
AcDb2dVertex
 10
1875.303371
 20
475.601482
 30
0.0
  0
VERTEX
  5
450
100
AcDbEntity
  8
LAY-1
  6
CONTINUOUS
 62
     7
100
AcDbVertex
100
AcDb2dVertex
 10
1875.243982
 20
475.45709
 30
0.0
  0
VERTEX
  5
451
100
AcDbEntity
  8
LAY-1
  6
CONTINUOUS
 62
     7
100
AcDbVertex
100
AcDb2dVertex
 10
1875.223301
 20
475.294325
 30
0.0
  0
SEQEND
  5
452
100
AcDbEntity
  8
LAY-1
  6
CONTINUOUS
 62
     7
  0
LINE
  5
453
100
AcDbEntity
  8
LAY-1
  6
CONTINUOUS
 62
     7
100
AcDbLine
 10
1877.388784
 20
475.794324
 30
0.0
 11
1875.602394
 21
475.794324
 31
0.0
  0
POLYLINE
  5
454
100
AcDbEntity
  8
LAY-1
  6
CONTINUOUS
 62
     7
100
AcDb2dPolyline
 66
     1
 10
0.0
 20
0.0
 30
0.0
 70
   128
  0
VERTEX
  5
455
100
AcDbEntity
  8
LAY-1
  6
CONTINUOUS
 62
     7
100
AcDbVertex
100
AcDb2dVertex
 10
1877.388784
 20
475.794326
 30
0.0
  0
VERTEX
  5
456
100
AcDbEntity
  8
LAY-1
  6
CONTINUOUS
 62
     7
100
AcDbVertex
100
AcDb2dVertex
 10
1877.387307
 20
475.794277
 30
0.0
  0
VERTEX
  5
457
100
AcDbEntity
  8
LAY-1
  6
CONTINUOUS
 62
     7
100
AcDbVertex
100
AcDb2dVertex
 10
1877.36259
 20
475.779615
 30
0.0
  0
VERTEX
  5
458
100
AcDbEntity
  8
LAY-1
  6
CONTINUOUS
 62
     7
100
AcDbVertex
100
AcDb2dVertex
 10
1877.329507
 20
475.712954
 30
0.0
  0
VERTEX
  5
459
100
AcDbEntity
  8
LAY-1
  6
CONTINUOUS
 62
     7
100
AcDbVertex
100
AcDb2dVertex
 10
1877.303485
 20
475.601482
 30
0.0
  0
VERTEX
  5
45A
100
AcDbEntity
  8
LAY-1
  6
CONTINUOUS
 62
     7
100
AcDbVertex
100
AcDb2dVertex
 10
1877.286754
 20
475.45709
 30
0.0
  0
VERTEX
  5
45B
100
AcDbEntity
  8
LAY-1
  6
CONTINUOUS
 62
     7
100
AcDbVertex
100
AcDb2dVertex
 10
1877.280944
 20
475.294325
 30
0.0
  0
SEQEND
  5
45C
100
AcDbEntity
  8
LAY-1
  6
CONTINUOUS
 62
     7
  0
LINE
  5
45D
100
AcDbEntity
  8
LAY-1
  6
CONTINUOUS
 62
     7
100
AcDbLine
 10
1886.553936
 20
475.794326
 30
0.0
 11
1877.388784
 21
475.794326
 31
0.0
  0
LINE
  5
45E
100
AcDbEntity
  8
LAY-1
  6
CONTINUOUS
 62
     7
100
AcDbLine
 10
1885.47136
 20
447.794324
 30
0.0
 11
1878.47136
 21
447.794324
 31
0.0
  0
LINE
  5
45F
100
AcDbEntity
  8
LAY-1
  6
CONTINUOUS
 62
     7
100
AcDbLine
 10
1885.47136
 20
472.794323
 30
0.0
 11
1885.47136
 21
447.794324
 31
0.0
  0
LINE
  5
460
100
AcDbEntity
  8
LAY-1
  6
CONTINUOUS
 62
     7
100
AcDbLine
 10
1878.47136
 20
472.794323
 30
0.0
 11
1885.47136
 21
472.794323
 31
0.0
  0
LINE
  5
461
100
AcDbEntity
  8
LAY-1
  6
CONTINUOUS
 62
     7
100
AcDbLine
 10
1878.47136
 20
447.794324
 30
0.0
 11
1878.47136
 21
472.794323
 31
0.0
  0
LINE
  5
462
100
AcDbEntity
  8
LAY-1
  6
CONTINUOUS
 62
     7
100
AcDbLine
 10
1877.280944
 20
460.294324
 30
0.0
 11
1877.280944
 21
475.294325
 31
0.0
  0
LINE
  5
463
100
AcDbEntity
  8
LAY-1
  6
CONTINUOUS
 62
     7
100
AcDbLine
 10
1877.280944
 20
475.294325
 30
0.0
 11
1886.661776
 21
475.294325
 31
0.0
  0
LINE
  5
464
100
AcDbEntity
  8
LAY-1
  6
CONTINUOUS
 62
     7
100
AcDbLine
 10
1886.661776
 20
460.294324
 30
0.0
 11
1886.661776
 21
446.294325
 31
0.0
  0
LINE
  5
465
100
AcDbEntity
  8
LAY-1
  6
CONTINUOUS
 62
     7
100
AcDbLine
 10
1877.280944
 20
446.294325
 30
0.0
 11
1877.280944
 21
460.294324
 31
0.0
  0
POLYLINE
  5
466
100
AcDbEntity
  8
LAY-1
  6
CONTINUOUS
 62
     7
100
AcDb2dPolyline
 66
     1
 10
0.0
 20
0.0
 30
0.0
 70
   128
  0
VERTEX
  5
467
100
AcDbEntity
  8
LAY-1
  6
CONTINUOUS
 62
     7
100
AcDbVertex
100
AcDb2dVertex
 10
1888.340326
 20
475.794326
 30
0.0
  0
VERTEX
  5
468
100
AcDbEntity
  8
LAY-1
  6
CONTINUOUS
 62
     7
100
AcDbVertex
100
AcDb2dVertex
 10
1888.34545
 20
475.794277
 30
0.0
  0
VERTEX
  5
469
100
AcDbEntity
  8
LAY-1
  6
CONTINUOUS
 62
     7
100
AcDbVertex
100
AcDb2dVertex
 10
1888.431483
 20
475.779615
 30
0.0
  0
VERTEX
  5
46A
100
AcDbEntity
  8
LAY-1
  6
CONTINUOUS
 62
     7
100
AcDbVertex
100
AcDb2dVertex
 10
1888.547459
 20
475.712954
 30
0.0
  0
VERTEX
  5
46B
100
AcDbEntity
  8
LAY-1
  6
CONTINUOUS
 62
     7
100
AcDbVertex
100
AcDb2dVertex
 10
1888.639349
 20
475.601482
 30
0.0
  0
VERTEX
  5
46C
100
AcDbEntity
  8
LAY-1
  6
CONTINUOUS
 62
     7
100
AcDbVertex
100
AcDb2dVertex
 10
1888.698738
 20
475.45709
 30
0.0
  0
VERTEX
  5
46D
100
AcDbEntity
  8
LAY-1
  6
CONTINUOUS
 62
     7
100
AcDbVertex
100
AcDb2dVertex
 10
1888.719419
 20
475.294325
 30
0.0
  0
SEQEND
  5
46E
100
AcDbEntity
  8
LAY-1
  6
CONTINUOUS
 62
     7
  0
POLYLINE
  5
46F
100
AcDbEntity
  8
LAY-1
  6
CONTINUOUS
 62
     7
100
AcDb2dPolyline
 66
     1
 10
0.0
 20
0.0
 30
0.0
 70
   128
  0
VERTEX
  5
470
100
AcDbEntity
  8
LAY-1
  6
CONTINUOUS
 62
     7
100
AcDbVertex
100
AcDb2dVertex
 10
1886.553936
 20
475.794326
 30
0.0
  0
VERTEX
  5
471
100
AcDbEntity
  8
LAY-1
  6
CONTINUOUS
 62
     7
100
AcDbVertex
100
AcDb2dVertex
 10
1886.555413
 20
475.794277
 30
0.0
  0
VERTEX
  5
472
100
AcDbEntity
  8
LAY-1
  6
CONTINUOUS
 62
     7
100
AcDbVertex
100
AcDb2dVertex
 10
1886.58013
 20
475.779615
 30
0.0
  0
VERTEX
  5
473
100
AcDbEntity
  8
LAY-1
  6
CONTINUOUS
 62
     7
100
AcDbVertex
100
AcDb2dVertex
 10
1886.613213
 20
475.712954
 30
0.0
  0
VERTEX
  5
474
100
AcDbEntity
  8
LAY-1
  6
CONTINUOUS
 62
     7
100
AcDbVertex
100
AcDb2dVertex
 10
1886.639235
 20
475.601482
 30
0.0
  0
VERTEX
  5
475
100
AcDbEntity
  8
LAY-1
  6
CONTINUOUS
 62
     7
100
AcDbVertex
100
AcDb2dVertex
 10
1886.655966
 20
475.45709
 30
0.0
  0
VERTEX
  5
476
100
AcDbEntity
  8
LAY-1
  6
CONTINUOUS
 62
     7
100
AcDbVertex
100
AcDb2dVertex
 10
1886.661776
 20
475.294325
 30
0.0
  0
SEQEND
  5
477
100
AcDbEntity
  8
LAY-1
  6
CONTINUOUS
 62
     7
  0
LINE
  5
478
100
AcDbEntity
  8
LAY-1
  6
CONTINUOUS
 62
     7
100
AcDbLine
 10
1888.340326
 20
475.794324
 30
0.0
 11
1886.553936
 21
475.794324
 31
0.0
  0
LINE
  5
479
100
AcDbEntity
  8
LAY-1
  6
CONTINUOUS
 62
     7
100
AcDbLine
 10
1886.661776
 20
475.294325
 30
0.0
 11
1886.661776
 21
460.294324
 31
0.0
  0
LINE
  5
47A
100
AcDbEntity
  8
LAY-1
  6
CONTINUOUS
 62
     7
100
AcDbLine
 10
1888.719419
 20
475.294324
 30
0.0
 11
1886.661776
 21
475.294324
 31
0.0
  0
LINE
  5
47B
100
AcDbEntity
  8
LAY-1
  6
CONTINUOUS
 62
     7
100
AcDbLine
 10
1888.719419
 20
463.294325
 30
0.0
 11
1888.719419
 21
475.294325
 31
0.0
  0
LINE
  5
47C
100
AcDbEntity
  8
LAY-1
  6
CONTINUOUS
 62
     7
100
AcDbLine
 10
1891.095504
 20
463.294324
 30
0.0
 11
1888.719419
 21
463.294324
 31
0.0
  0
LINE
  5
47D
100
AcDbEntity
  8
LAY-1
  6
CONTINUOUS
 62
     7
100
AcDbLine
 10
1891.095504
 20
460.294324
 30
0.0
 11
1891.095504
 21
463.294325
 31
0.0
  0
LINE
  5
47E
100
AcDbEntity
  8
LAY-1
  6
CONTINUOUS
 62
     7
100
AcDbLine
 10
1892.47136
 20
447.294324
 30
0.0
 11
1886.661776
 21
447.294324
 31
0.0
  0
LINE
  5
47F
100
AcDbEntity
  8
LAY-1
  6
CONTINUOUS
 62
     7
100
AcDbLine
 10
1892.47136
 20
459.294324
 30
0.0
 11
1886.661776
 21
459.294324
 31
0.0
  0
LINE
  5
480
100
AcDbEntity
  8
LAY-1
  6
CONTINUOUS
 62
     7
100
AcDbLine
 10
1891.095504
 20
460.294324
 30
0.0
 11
1886.661776
 21
460.294324
 31
0.0
  0
POLYLINE
  5
481
100
AcDbEntity
  8
LAY-1
  6
CONTINUOUS
 62
     7
100
AcDb2dPolyline
 66
     1
 10
0.0
 20
0.0
 30
0.0
 70
   128
  0
VERTEX
  5
482
100
AcDbEntity
  8
LAY-1
  6
CONTINUOUS
 62
     7
100
AcDbVertex
100
AcDb2dVertex
 10
1886.661776
 20
446.294325
 30
0.0
  0
VERTEX
  5
483
100
AcDbEntity
  8
LAY-1
  6
CONTINUOUS
 62
     7
100
AcDbVertex
100
AcDb2dVertex
 10
1885.467924
 20
446.727439
 30
0.0
  0
VERTEX
  5
484
100
AcDbEntity
  8
LAY-1
  6
CONTINUOUS
 62
     7
100
AcDbVertex
100
AcDb2dVertex
 10
1883.876084
 20
447.121526
 30
0.0
  0
VERTEX
  5
485
100
AcDbEntity
  8
LAY-1
  6
CONTINUOUS
 62
     7
100
AcDbVertex
100
AcDb2dVertex
 10
1882.246539
 20
447.290719
 30
0.0
  0
VERTEX
  5
486
100
AcDbEntity
  8
LAY-1
  6
CONTINUOUS
 62
     7
100
AcDbVertex
100
AcDb2dVertex
 10
1880.271394
 20
447.154283
 30
0.0
  0
VERTEX
  5
487
100
AcDbEntity
  8
LAY-1
  6
CONTINUOUS
 62
     7
100
AcDbVertex
100
AcDb2dVertex
 10
1878.344655
 20
446.685635
 30
0.0
  0
VERTEX
  5
488
100
AcDbEntity
  8
LAY-1
  6
CONTINUOUS
 62
     7
100
AcDbVertex
100
AcDb2dVertex
 10
1877.280944
 20
446.294325
 30
0.0
  0
SEQEND
  5
489
100
AcDbEntity
  8
LAY-1
  6
CONTINUOUS
 62
     7
  0
LINE
  5
48A
100
AcDbEntity
  8
LAY-1
  6
CONTINUOUS
 62
     7
100
AcDbLine
 10
1893.47136
 20
446.294324
 30
0.0
 11
1886.661776
 21
446.294324
 31
0.0
  0
LINE
  5
48B
100
AcDbEntity
  8
LAY-1
  6
CONTINUOUS
 62
     7
100
AcDbLine
 10
1871.13284
 20
446.294324
 30
0.0
 11
1870.47136
 21
446.294324
 31
0.0
  0
LINE
  5
48C
100
AcDbEntity
  8
LAY-1
  6
CONTINUOUS
 62
     7
100
AcDbLine
 10
1877.280944
 20
446.294324
 30
0.0
 11
1871.13284
 21
446.294324
 31
0.0
  0
LINE
  5
48D
100
AcDbEntity
  8
LAY-1
  6
CONTINUOUS
 62
     7
100
AcDbLine
 10
1886.661776
 20
446.294324
 30
0.0
 11
1877.280944
 21
446.294324
 31
0.0
  0
LINE
  5
48E
100
AcDbEntity
  8
LAY-1
  6
CONTINUOUS
 62
     7
100
AcDbLine
 10
1881.97136
 20
438.294324
 30
0.0
 11
1870.97136
 21
438.294324
 31
0.0
  0
LINE
  5
48F
100
AcDbEntity
  8
LAY-1
  6
CONTINUOUS
 62
     7
100
AcDbLine
 10
1892.97136
 20
438.294324
 30
0.0
 11
1881.97136
 21
438.294324
 31
0.0
  0
LINE
  5
490
100
AcDbEntity
  8
LAY-1
  6
CONTINUOUS
 62
     7
100
AcDbLine
 10
1892.47136
 20
423.294324
 30
0.0
 11
1892.386264
 21
423.294324
 31
0.0
  0
LINE
  5
491
100
AcDbEntity
  8
LAY-1
  6
CONTINUOUS
 62
     7
100
AcDbLine
 10
1892.47136
 20
437.294324
 30
0.0
 11
1892.386264
 21
437.294324
 31
0.0
  0
LINE
  5
492
100
AcDbEntity
  8
LAY-1
  6
CONTINUOUS
 62
     7
100
AcDbLine
 10
1870.960514
 20
436.716974
 30
0.0
 11
1870.960514
 21
423.871675
 31
0.0
  0
POLYLINE
  5
493
100
AcDbEntity
  8
LAY-1
  6
CONTINUOUS
 62
     7
100
AcDb2dPolyline
 66
     1
 10
0.0
 20
0.0
 30
0.0
 70
   128
  0
VERTEX
  5
494
100
AcDbEntity
  8
LAY-1
  6
CONTINUOUS
 62
     7
100
AcDbVertex
100
AcDb2dVertex
 10
1892.982206
 20
436.716974
 30
0.0
  0
VERTEX
  5
495
100
AcDbEntity
  8
LAY-1
  6
CONTINUOUS
 62
     7
100
AcDbVertex
100
AcDb2dVertex
 10
1892.810805
 20
436.994771
 30
0.0
  0
VERTEX
  5
496
100
AcDbEntity
  8
LAY-1
  6
CONTINUOUS
 62
     7
100
AcDbVertex
100
AcDb2dVertex
 10
1892.600144
 20
437.216912
 30
0.0
  0
VERTEX
  5
497
100
AcDbEntity
  8
LAY-1
  6
CONTINUOUS
 62
     7
100
AcDbVertex
100
AcDb2dVertex
 10
1892.386264
 20
437.294324
 30
0.0
  0
SEQEND
  5
498
100
AcDbEntity
  8
LAY-1
  6
CONTINUOUS
 62
     7
  0
LINE
  5
499
100
AcDbEntity
  8
LAY-1
  6
CONTINUOUS
 62
     7
100
AcDbLine
 10
1892.982206
 20
436.716974
 30
0.0
 11
1892.982206
 21
423.871675
 31
0.0
  0
POLYLINE
  5
49A
100
AcDbEntity
  8
LAY-1
  6
CONTINUOUS
 62
     7
100
AcDb2dPolyline
 66
     1
 10
0.0
 20
0.0
 30
0.0
 70
   128
  0
VERTEX
  5
49B
100
AcDbEntity
  8
LAY-1
  6
CONTINUOUS
 62
     7
100
AcDbVertex
100
AcDb2dVertex
 10
1892.386264
 20
423.294325
 30
0.0
  0
VERTEX
  5
49C
100
AcDbEntity
  8
LAY-1
  6
CONTINUOUS
 62
     7
100
AcDbVertex
100
AcDb2dVertex
 10
1892.682399
 20
423.441881
 30
0.0
  0
VERTEX
  5
49D
100
AcDbEntity
  8
LAY-1
  6
CONTINUOUS
 62
     7
100
AcDbVertex
100
AcDb2dVertex
 10
1892.982206
 20
423.871675
 30
0.0
  0
SEQEND
  5
49E
100
AcDbEntity
  8
LAY-1
  6
CONTINUOUS
 62
     7
  0
LINE
  5
49F
100
AcDbEntity
  8
LAY-1
  6
CONTINUOUS
 62
     7
100
AcDbLine
 10
1891.790323
 20
436.716974
 30
0.0
 11
1891.790323
 21
423.871675
 31
0.0
  0
LINE
  5
4A0
100
AcDbEntity
  8
LAY-1
  6
CONTINUOUS
 62
     7
100
AcDbLine
 10
1875.608561
 20
423.294324
 30
0.0
 11
1871.47136
 21
423.294324
 31
0.0
  0
POLYLINE
  5
4A1
100
AcDbEntity
  8
LAY-1
  6
CONTINUOUS
 62
     7
100
AcDb2dPolyline
 66
     1
 10
0.0
 20
0.0
 30
0.0
 70
   128
  0
VERTEX
  5
4A2
100
AcDbEntity
  8
LAY-1
  6
CONTINUOUS
 62
     7
100
AcDbVertex
100
AcDb2dVertex
 10
1871.38602
 20
423.362082
 30
0.0
  0
VERTEX
  5
4A3
100
AcDbEntity
  8
LAY-1
  6
CONTINUOUS
 62
     7
100
AcDbVertex
100
AcDb2dVertex
 10
1871.32122
 20
423.387844
 30
0.0
  0
VERTEX
  5
4A4
100
AcDbEntity
  8
LAY-1
  6
CONTINUOUS
 62
     7
100
AcDbVertex
100
AcDb2dVertex
 10
1871.085984
 20
423.660247
 30
0.0
  0
VERTEX
  5
4A5
100
AcDbEntity
  8
LAY-1
  6
CONTINUOUS
 62
     7
100
AcDbVertex
100
AcDb2dVertex
 10
1870.960514
 20
423.871675
 30
0.0
  0
SEQEND
  5
4A6
100
AcDbEntity
  8
LAY-1
  6
CONTINUOUS
 62
     7
  0
LINE
  5
4A7
100
AcDbEntity
  8
LAY-1
  6
CONTINUOUS
 62
     7
100
AcDbLine
 10
1871.877433
 20
423.871674
 30
0.0
 11
1870.960514
 21
423.871674
 31
0.0
  0
LINE
  5
4A8
100
AcDbEntity
  8
LAY-1
  6
CONTINUOUS
 62
     7
100
AcDbLine
 10
1875.608561
 20
437.294324
 30
0.0
 11
1871.47136
 21
437.294324
 31
0.0
  0
LINE
  5
4A9
100
AcDbEntity
  8
LAY-1
  6
CONTINUOUS
 62
     7
100
AcDbLine
 10
1871.877433
 20
436.716974
 30
0.0
 11
1870.960514
 21
436.716974
 31
0.0
  0
POLYLINE
  5
4AA
100
AcDbEntity
  8
LAY-1
  6
CONTINUOUS
 62
     7
100
AcDb2dPolyline
 66
     1
 10
0.0
 20
0.0
 30
0.0
 70
   128
  0
VERTEX
  5
4AB
100
AcDbEntity
  8
LAY-1
  6
CONTINUOUS
 62
     7
100
AcDbVertex
100
AcDb2dVertex
 10
1870.960514
 20
436.716974
 30
0.0
  0
VERTEX
  5
4AC
100
AcDbEntity
  8
LAY-1
  6
CONTINUOUS
 62
     7
100
AcDbVertex
100
AcDb2dVertex
 10
1871.237058
 20
437.123006
 30
0.0
  0
VERTEX
  5
4AD
100
AcDbEntity
  8
LAY-1
  6
CONTINUOUS
 62
     7
100
AcDbVertex
100
AcDb2dVertex
 10
1871.386058
 20
437.202927
 30
0.0
  0
SEQEND
  5
4AE
100
AcDbEntity
  8
LAY-1
  6
CONTINUOUS
 62
     7
  0
LINE
  5
4AF
100
AcDbEntity
  8
LAY-1
  6
CONTINUOUS
 62
     7
100
AcDbLine
 10
1892.386264
 20
423.294324
 30
0.0
 11
1886.023466
 21
423.294324
 31
0.0
  0
LINE
  5
4B0
100
AcDbEntity
  8
LAY-1
  6
CONTINUOUS
 62
     7
100
AcDbLine
 10
1891.790323
 20
423.871674
 30
0.0
 11
1890.350536
 21
423.871674
 31
0.0
  0
POLYLINE
  5
4B1
100
AcDbEntity
  8
LAY-1
  6
CONTINUOUS
 62
     7
100
AcDb2dPolyline
 66
     1
 10
0.0
 20
0.0
 30
0.0
 70
   128
  0
VERTEX
  5
4B2
100
AcDbEntity
  8
LAY-1
  6
CONTINUOUS
 62
     7
100
AcDbVertex
100
AcDb2dVertex
 10
1891.790323
 20
423.871675
 30
0.0
  0
VERTEX
  5
4B3
100
AcDbEntity
  8
LAY-1
  6
CONTINUOUS
 62
     7
100
AcDbVertex
100
AcDb2dVertex
 10
1891.915792
 20
423.660247
 30
0.0
  0
VERTEX
  5
4B4
100
AcDbEntity
  8
LAY-1
  6
CONTINUOUS
 62
     7
100
AcDbVertex
100
AcDb2dVertex
 10
1892.148888
 20
423.389541
 30
0.0
  0
VERTEX
  5
4B5
100
AcDbEntity
  8
LAY-1
  6
CONTINUOUS
 62
     7
100
AcDbVertex
100
AcDb2dVertex
 10
1892.386264
 20
423.294325
 30
0.0
  0
SEQEND
  5
4B6
100
AcDbEntity
  8
LAY-1
  6
CONTINUOUS
 62
     7
  0
LINE
  5
4B7
100
AcDbEntity
  8
LAY-1
  6
CONTINUOUS
 62
     7
100
AcDbLine
 10
1892.386264
 20
437.294324
 30
0.0
 11
1886.023466
 21
437.294324
 31
0.0
  0
POLYLINE
  5
4B8
100
AcDbEntity
  8
LAY-1
  6
CONTINUOUS
 62
     7
100
AcDb2dPolyline
 66
     1
 10
0.0
 20
0.0
 30
0.0
 70
   128
  0
VERTEX
  5
4B9
100
AcDbEntity
  8
LAY-1
  6
CONTINUOUS
 62
     7
100
AcDbVertex
100
AcDb2dVertex
 10
1892.386264
 20
437.294324
 30
0.0
  0
VERTEX
  5
4BA
100
AcDbEntity
  8
LAY-1
  6
CONTINUOUS
 62
     7
100
AcDbVertex
100
AcDb2dVertex
 10
1892.066867
 20
437.123006
 30
0.0
  0
VERTEX
  5
4BB
100
AcDbEntity
  8
LAY-1
  6
CONTINUOUS
 62
     7
100
AcDbVertex
100
AcDb2dVertex
 10
1891.790323
 20
436.716974
 30
0.0
  0
SEQEND
  5
4BC
100
AcDbEntity
  8
LAY-1
  6
CONTINUOUS
 62
     7
  0
LINE
  5
4BD
100
AcDbEntity
  8
LAY-1
  6
CONTINUOUS
 62
     7
100
AcDbLine
 10
1891.790323
 20
436.716974
 30
0.0
 11
1890.350536
 21
436.716974
 31
0.0
  0
POLYLINE
  5
4BE
100
AcDbEntity
  8
LAY-1
  6
CONTINUOUS
 62
     7
100
AcDb2dPolyline
 66
     1
 10
0.0
 20
0.0
 30
0.0
 70
   128
  0
VERTEX
  5
4BF
100
AcDbEntity
  8
LAY-1
  6
CONTINUOUS
 62
     7
100
AcDbVertex
100
AcDb2dVertex
 10
1871.877433
 20
423.871675
 30
0.0
  0
VERTEX
  5
4C0
100
AcDbEntity
  8
LAY-1
  6
CONTINUOUS
 62
     7
100
AcDbVertex
100
AcDb2dVertex
 10
1873.717659
 20
423.447729
 30
0.0
  0
VERTEX
  5
4C1
100
AcDbEntity
  8
LAY-1
  6
CONTINUOUS
 62
     7
100
AcDbVertex
100
AcDb2dVertex
 10
1875.608561
 20
423.294325
 30
0.0
  0
SEQEND
  5
4C2
100
AcDbEntity
  8
LAY-1
  6
CONTINUOUS
 62
     7
  0
LINE
  5
4C3
100
AcDbEntity
  8
LAY-1
  6
CONTINUOUS
 62
     7
100
AcDbLine
 10
1871.877433
 20
436.716974
 30
0.0
 11
1871.877433
 21
423.871675
 31
0.0
  0
POLYLINE
  5
4C4
100
AcDbEntity
  8
LAY-1
  6
CONTINUOUS
 62
     7
100
AcDb2dPolyline
 66
     1
 10
0.0
 20
0.0
 30
0.0
 70
   128
  0
VERTEX
  5
4C5
100
AcDbEntity
  8
LAY-1
  6
CONTINUOUS
 62
     7
100
AcDbVertex
100
AcDb2dVertex
 10
1875.608561
 20
437.294324
 30
0.0
  0
VERTEX
  5
4C6
100
AcDbEntity
  8
LAY-1
  6
CONTINUOUS
 62
     7
100
AcDbVertex
100
AcDb2dVertex
 10
1874.39966
 20
437.231158
 30
0.0
  0
VERTEX
  5
4C7
100
AcDbEntity
  8
LAY-1
  6
CONTINUOUS
 62
     7
100
AcDbVertex
100
AcDb2dVertex
 10
1873.134604
 20
437.033996
 30
0.0
  0
VERTEX
  5
4C8
100
AcDbEntity
  8
LAY-1
  6
CONTINUOUS
 62
     7
100
AcDbVertex
100
AcDb2dVertex
 10
1871.877433
 20
436.716974
 30
0.0
  0
SEQEND
  5
4C9
100
AcDbEntity
  8
LAY-1
  6
CONTINUOUS
 62
     7
  0
LINE
  5
4CA
100
AcDbEntity
  8
LAY-1
  6
CONTINUOUS
 62
     7
100
AcDbLine
 10
1879.33969
 20
436.716974
 30
0.0
 11
1879.33969
 21
423.871675
 31
0.0
  0
POLYLINE
  5
4CB
100
AcDbEntity
  8
LAY-1
  6
CONTINUOUS
 62
     7
100
AcDb2dPolyline
 66
     1
 10
0.0
 20
0.0
 30
0.0
 70
   128
  0
VERTEX
  5
4CC
100
AcDbEntity
  8
LAY-1
  6
CONTINUOUS
 62
     7
100
AcDbVertex
100
AcDb2dVertex
 10
1875.608561
 20
423.294325
 30
0.0
  0
VERTEX
  5
4CD
100
AcDbEntity
  8
LAY-1
  6
CONTINUOUS
 62
     7
100
AcDbVertex
100
AcDb2dVertex
 10
1876.817462
 20
423.357491
 30
0.0
  0
VERTEX
  5
4CE
100
AcDbEntity
  8
LAY-1
  6
CONTINUOUS
 62
     7
100
AcDbVertex
100
AcDb2dVertex
 10
1878.082519
 20
423.554652
 30
0.0
  0
VERTEX
  5
4CF
100
AcDbEntity
  8
LAY-1
  6
CONTINUOUS
 62
     7
100
AcDbVertex
100
AcDb2dVertex
 10
1879.33969
 20
423.871675
 30
0.0
  0
SEQEND
  5
4D0
100
AcDbEntity
  8
LAY-1
  6
CONTINUOUS
 62
     7
  0
LINE
  5
4D1
100
AcDbEntity
  8
LAY-1
  6
CONTINUOUS
 62
     7
100
AcDbLine
 10
1881.696396
 20
423.871674
 30
0.0
 11
1879.33969
 21
423.871674
 31
0.0
  0
LINE
  5
4D2
100
AcDbEntity
  8
LAY-1
  6
CONTINUOUS
 62
     7
100
AcDbLine
 10
1886.023466
 20
423.294324
 30
0.0
 11
1875.608561
 21
423.294324
 31
0.0
  0
LINE
  5
4D3
100
AcDbEntity
  8
LAY-1
  6
CONTINUOUS
 62
     7
100
AcDbLine
 10
1881.696396
 20
436.716974
 30
0.0
 11
1879.33969
 21
436.716974
 31
0.0
  0
POLYLINE
  5
4D4
100
AcDbEntity
  8
LAY-1
  6
CONTINUOUS
 62
     7
100
AcDb2dPolyline
 66
     1
 10
0.0
 20
0.0
 30
0.0
 70
   128
  0
VERTEX
  5
4D5
100
AcDbEntity
  8
LAY-1
  6
CONTINUOUS
 62
     7
100
AcDbVertex
100
AcDb2dVertex
 10
1879.33969
 20
436.716974
 30
0.0
  0
VERTEX
  5
4D6
100
AcDbEntity
  8
LAY-1
  6
CONTINUOUS
 62
     7
100
AcDbVertex
100
AcDb2dVertex
 10
1877.499464
 20
437.140919
 30
0.0
  0
VERTEX
  5
4D7
100
AcDbEntity
  8
LAY-1
  6
CONTINUOUS
 62
     7
100
AcDbVertex
100
AcDb2dVertex
 10
1875.608561
 20
437.294324
 30
0.0
  0
SEQEND
  5
4D8
100
AcDbEntity
  8
LAY-1
  6
CONTINUOUS
 62
     7
  0
LINE
  5
4D9
100
AcDbEntity
  8
LAY-1
  6
CONTINUOUS
 62
     7
100
AcDbLine
 10
1886.023466
 20
437.294324
 30
0.0
 11
1875.608561
 21
437.294324
 31
0.0
  0
POLYLINE
  5
4DA
100
AcDbEntity
  8
LAY-1
  6
CONTINUOUS
 62
     7
100
AcDb2dPolyline
 66
     1
 10
0.0
 20
0.0
 30
0.0
 70
   128
  0
VERTEX
  5
4DB
100
AcDbEntity
  8
LAY-1
  6
CONTINUOUS
 62
     7
100
AcDbVertex
100
AcDb2dVertex
 10
1890.350535
 20
436.716974
 30
0.0
  0
VERTEX
  5
4DC
100
AcDbEntity
  8
LAY-1
  6
CONTINUOUS
 62
     7
100
AcDbVertex
100
AcDb2dVertex
 10
1888.216386
 20
437.140919
 30
0.0
  0
VERTEX
  5
4DD
100
AcDbEntity
  8
LAY-1
  6
CONTINUOUS
 62
     7
100
AcDbVertex
100
AcDb2dVertex
 10
1886.023466
 20
437.294324
 30
0.0
  0
SEQEND
  5
4DE
100
AcDbEntity
  8
LAY-1
  6
CONTINUOUS
 62
     7
  0
LINE
  5
4DF
100
AcDbEntity
  8
LAY-1
  6
CONTINUOUS
 62
     7
100
AcDbLine
 10
1890.350535
 20
436.716974
 30
0.0
 11
1890.350535
 21
423.871675
 31
0.0
  0
POLYLINE
  5
4E0
100
AcDbEntity
  8
LAY-1
  6
CONTINUOUS
 62
     7
100
AcDb2dPolyline
 66
     1
 10
0.0
 20
0.0
 30
0.0
 70
   128
  0
VERTEX
  5
4E1
100
AcDbEntity
  8
LAY-1
  6
CONTINUOUS
 62
     7
100
AcDbVertex
100
AcDb2dVertex
 10
1886.023466
 20
423.294325
 30
0.0
  0
VERTEX
  5
4E2
100
AcDbEntity
  8
LAY-1
  6
CONTINUOUS
 62
     7
100
AcDbVertex
100
AcDb2dVertex
 10
1887.425454
 20
423.357491
 30
0.0
  0
VERTEX
  5
4E3
100
AcDbEntity
  8
LAY-1
  6
CONTINUOUS
 62
     7
100
AcDbVertex
100
AcDb2dVertex
 10
1888.892567
 20
423.554652
 30
0.0
  0
VERTEX
  5
4E4
100
AcDbEntity
  8
LAY-1
  6
CONTINUOUS
 62
     7
100
AcDbVertex
100
AcDb2dVertex
 10
1890.350535
 20
423.871675
 30
0.0
  0
SEQEND
  5
4E5
100
AcDbEntity
  8
LAY-1
  6
CONTINUOUS
 62
     7
  0
POLYLINE
  5
4E6
100
AcDbEntity
  8
LAY-1
  6
CONTINUOUS
 62
     7
100
AcDb2dPolyline
 66
     1
 10
0.0
 20
0.0
 30
0.0
 70
   128
  0
VERTEX
  5
4E7
100
AcDbEntity
  8
LAY-1
  6
CONTINUOUS
 62
     7
100
AcDbVertex
100
AcDb2dVertex
 10
1881.696396
 20
423.871675
 30
0.0
  0
VERTEX
  5
4E8
100
AcDbEntity
  8
LAY-1
  6
CONTINUOUS
 62
     7
100
AcDbVertex
100
AcDb2dVertex
 10
1883.830545
 20
423.447729
 30
0.0
  0
VERTEX
  5
4E9
100
AcDbEntity
  8
LAY-1
  6
CONTINUOUS
 62
     7
100
AcDbVertex
100
AcDb2dVertex
 10
1886.023466
 20
423.294325
 30
0.0
  0
SEQEND
  5
4EA
100
AcDbEntity
  8
LAY-1
  6
CONTINUOUS
 62
     7
  0
LINE
  5
4EB
100
AcDbEntity
  8
LAY-1
  6
CONTINUOUS
 62
     7
100
AcDbLine
 10
1881.696396
 20
436.716974
 30
0.0
 11
1881.696396
 21
423.871675
 31
0.0
  0
POLYLINE
  5
4EC
100
AcDbEntity
  8
LAY-1
  6
CONTINUOUS
 62
     7
100
AcDb2dPolyline
 66
     1
 10
0.0
 20
0.0
 30
0.0
 70
   128
  0
VERTEX
  5
4ED
100
AcDbEntity
  8
LAY-1
  6
CONTINUOUS
 62
     7
100
AcDbVertex
100
AcDb2dVertex
 10
1886.023466
 20
437.294324
 30
0.0
  0
VERTEX
  5
4EE
100
AcDbEntity
  8
LAY-1
  6
CONTINUOUS
 62
     7
100
AcDbVertex
100
AcDb2dVertex
 10
1884.621478
 20
437.231158
 30
0.0
  0
VERTEX
  5
4EF
100
AcDbEntity
  8
LAY-1
  6
CONTINUOUS
 62
     7
100
AcDbVertex
100
AcDb2dVertex
 10
1883.154364
 20
437.033996
 30
0.0
  0
VERTEX
  5
4F0
100
AcDbEntity
  8
LAY-1
  6
CONTINUOUS
 62
     7
100
AcDbVertex
100
AcDb2dVertex
 10
1881.696396
 20
436.716974
 30
0.0
  0
SEQEND
  5
4F1
100
AcDbEntity
  8
LAY-1
  6
CONTINUOUS
 62
     7
  0
LINE
  5
4F2
100
AcDbEntity
  8
LAY-1
  6
CONTINUOUS
 62
     7
100
AcDbLine
 10
1867.97136
 20
460.294324
 30
0.0
 11
1865.47136
 21
460.294324
 31
0.0
  0
LINE
  5
4F3
100
AcDbEntity
  8
LAY-1
  6
CONTINUOUS
 62
     7
100
AcDbLine
 10
1867.97136
 20
459.794325
 30
0.0
 11
1867.97136
 21
460.294324
 31
0.0
  0
LINE
  5
4F4
100
AcDbEntity
  8
LAY-1
  6
CONTINUOUS
 62
     7
100
AcDbLine
 10
1864.47136
 20
460.294324
 30
0.0
 11
1865.47136
 21
460.294324
 31
0.0
  0
ARC
  5
4F5
100
AcDbEntity
  8
LAY-1
  6
CONTINUOUS
 62
     7
100
AcDbCircle
 10
1865.47136
 20
446.994324
 30
0.0
 40
1.0
100
AcDbArc
 50
224.427004
 51
270.0
  0
ARC
  5
4F6
100
AcDbEntity
  8
LAY-1
  6
CONTINUOUS
 62
     7
100
AcDbCircle
 10
1865.47136
 20
446.994324
 30
0.0
 40
3.0
100
AcDbArc
 50
193.493399
 51
270.0
  0
LINE
  5
4F7
100
AcDbEntity
  8
LAY-1
  6
CONTINUOUS
 62
     7
100
AcDbLine
 10
1867.97136
 20
443.994324
 30
0.0
 11
1865.47136
 21
443.994324
 31
0.0
  0
LINE
  5
4F8
100
AcDbEntity
  8
LAY-1
  6
CONTINUOUS
 62
     7
100
AcDbLine
 10
1865.47136
 20
445.994324
 30
0.0
 11
1867.97136
 21
445.994324
 31
0.0
  0
LINE
  5
4F9
100
AcDbEntity
  8
LAY-1
  6
CONTINUOUS
 62
     7
100
AcDbLine
 10
1867.97136
 20
445.994324
 30
0.0
 11
1867.97136
 21
443.994324
 31
0.0
  0
LINE
  5
4FA
100
AcDbEntity
  8
LAY-1
  6
CONTINUOUS
 62
     7
100
AcDbLine
 10
1864.47136
 20
447.504163
 30
0.0
 11
1864.47136
 21
459.084486
 31
0.0
  0
LINE
  5
4FB
100
AcDbEntity
  8
LAY-1
  6
CONTINUOUS
 62
     7
100
AcDbLine
 10
1863.001698
 20
448.794324
 30
0.0
 11
1862.959777
 21
448.794324
 31
0.0
  0
LINE
  5
4FC
100
AcDbEntity
  8
LAY-1
  6
CONTINUOUS
 62
     7
100
AcDbLine
 10
1863.385316
 20
447.794324
 30
0.0
 11
1862.47136
 21
447.794324
 31
0.0
  0
LINE
  5
4FD
100
AcDbEntity
  8
LAY-1
  6
CONTINUOUS
 62
     7
100
AcDbLine
 10
1862.47136
 20
447.794324
 30
0.0
 11
1862.463638
 21
447.794324
 31
0.0
  0
LINE
  5
4FE
100
AcDbEntity
  8
LAY-1
  6
CONTINUOUS
 62
     7
100
AcDbLine
 10
1862.47136
 20
447.794324
 30
0.0
 11
1862.47136
 21
446.994324
 31
0.0
  0
POLYLINE
  5
4FF
100
AcDbEntity
  8
LAY-1
  6
CONTINUOUS
 62
     7
100
AcDb2dPolyline
 66
     1
 10
0.0
 20
0.0
 30
0.0
 70
   128
  0
VERTEX
  5
500
100
AcDbEntity
  8
LAY-1
  6
CONTINUOUS
 62
     7
100
AcDbVertex
100
AcDb2dVertex
 10
1863.385315
 20
447.794324
 30
0.0
  0
VERTEX
  5
501
100
AcDbEntity
  8
LAY-1
  6
CONTINUOUS
 62
     7
100
AcDbVertex
100
AcDb2dVertex
 10
1863.556058
 20
447.809256
 30
0.0
  0
VERTEX
  5
502
100
AcDbEntity
  8
LAY-1
  6
CONTINUOUS
 62
     7
100
AcDbVertex
100
AcDb2dVertex
 10
1863.700877
 20
447.852375
 30
0.0
  0
VERTEX
  5
503
100
AcDbEntity
  8
LAY-1
  6
CONTINUOUS
 62
     7
100
AcDbVertex
100
AcDb2dVertex
 10
1863.818879
 20
447.924634
 30
0.0
  0
VERTEX
  5
504
100
AcDbEntity
  8
LAY-1
  6
CONTINUOUS
 62
     7
100
AcDbVertex
100
AcDb2dVertex
 10
1863.903907
 20
448.044987
 30
0.0
  0
VERTEX
  5
505
100
AcDbEntity
  8
LAY-1
  6
CONTINUOUS
 62
     7
100
AcDbVertex
100
AcDb2dVertex
 10
1863.89757
 20
448.224678
 30
0.0
  0
VERTEX
  5
506
100
AcDbEntity
  8
LAY-1
  6
CONTINUOUS
 62
     7
100
AcDbVertex
100
AcDb2dVertex
 10
1863.717097
 20
448.452776
 30
0.0
  0
VERTEX
  5
507
100
AcDbEntity
  8
LAY-1
  6
CONTINUOUS
 62
     7
100
AcDbVertex
100
AcDb2dVertex
 10
1863.294135
 20
448.692247
 30
0.0
  0
VERTEX
  5
508
100
AcDbEntity
  8
LAY-1
  6
CONTINUOUS
 62
     7
100
AcDbVertex
100
AcDb2dVertex
 10
1863.001698
 20
448.794324
 30
0.0
  0
SEQEND
  5
509
100
AcDbEntity
  8
LAY-1
  6
CONTINUOUS
 62
     7
  0
POLYLINE
  5
50A
100
AcDbEntity
  8
LAY-1
  6
CONTINUOUS
 62
     7
100
AcDb2dPolyline
 66
     1
 10
0.0
 20
0.0
 30
0.0
 70
   128
  0
VERTEX
  5
50B
100
AcDbEntity
  8
LAY-1
  6
CONTINUOUS
 62
     7
100
AcDbVertex
100
AcDb2dVertex
 10
1863.001698
 20
448.794324
 30
0.0
  0
VERTEX
  5
50C
100
AcDbEntity
  8
LAY-1
  6
CONTINUOUS
 62
     7
100
AcDbVertex
100
AcDb2dVertex
 10
1863.499562
 20
448.609423
 30
0.0
  0
VERTEX
  5
50D
100
AcDbEntity
  8
LAY-1
  6
CONTINUOUS
 62
     7
100
AcDbVertex
100
AcDb2dVertex
 10
1863.910748
 20
448.377288
 30
0.0
  0
VERTEX
  5
50E
100
AcDbEntity
  8
LAY-1
  6
CONTINUOUS
 62
     7
100
AcDbVertex
100
AcDb2dVertex
 10
1864.217684
 20
448.107839
 30
0.0
  0
VERTEX
  5
50F
100
AcDbEntity
  8
LAY-1
  6
CONTINUOUS
 62
     7
100
AcDbVertex
100
AcDb2dVertex
 10
1864.407257
 20
447.812591
 30
0.0
  0
VERTEX
  5
510
100
AcDbEntity
  8
LAY-1
  6
CONTINUOUS
 62
     7
100
AcDbVertex
100
AcDb2dVertex
 10
1864.47136
 20
447.504163
 30
0.0
  0
SEQEND
  5
511
100
AcDbEntity
  8
LAY-1
  6
CONTINUOUS
 62
     7
  0
LINE
  5
512
100
AcDbEntity
  8
LAY-1
  6
CONTINUOUS
 62
     7
100
AcDbLine
 10
1864.47136
 20
447.504163
 30
0.0
 11
1864.47136
 21
446.994324
 31
0.0
  0
POLYLINE
  5
513
100
AcDbEntity
  8
LAY-1
  6
CONTINUOUS
 62
     7
100
AcDb2dPolyline
 66
     1
 10
0.0
 20
0.0
 30
0.0
 70
   128
  0
VERTEX
  5
514
100
AcDbEntity
  8
LAY-1
  6
CONTINUOUS
 62
     7
100
AcDbVertex
100
AcDb2dVertex
 10
1864.47136
 20
446.994324
 30
0.0
  0
VERTEX
  5
515
100
AcDbEntity
  8
LAY-1
  6
CONTINUOUS
 62
     7
100
AcDbVertex
100
AcDb2dVertex
 10
1864.490091
 20
446.801687
 30
0.0
  0
VERTEX
  5
516
100
AcDbEntity
  8
LAY-1
  6
CONTINUOUS
 62
     7
100
AcDbVertex
100
AcDb2dVertex
 10
1864.545579
 20
446.616265
 30
0.0
  0
VERTEX
  5
517
100
AcDbEntity
  8
LAY-1
  6
CONTINUOUS
 62
     7
100
AcDbVertex
100
AcDb2dVertex
 10
1864.635748
 20
446.445006
 30
0.0
  0
VERTEX
  5
518
100
AcDbEntity
  8
LAY-1
  6
CONTINUOUS
 62
     7
100
AcDbVertex
100
AcDb2dVertex
 10
1864.757216
 20
446.294325
 30
0.0
  0
SEQEND
  5
519
100
AcDbEntity
  8
LAY-1
  6
CONTINUOUS
 62
     7
  0
LINE
  5
51A
100
AcDbEntity
  8
LAY-1
  6
CONTINUOUS
 62
     7
100
AcDbLine
 10
1864.757216
 20
446.294325
 30
0.0
 11
1862.554169
 21
446.294325
 31
0.0
  0
POLYLINE
  5
51B
100
AcDbEntity
  8
LAY-1
  6
CONTINUOUS
 62
     7
100
AcDb2dPolyline
 66
     1
 10
0.0
 20
0.0
 30
0.0
 70
   128
  0
VERTEX
  5
51C
100
AcDbEntity
  8
LAY-1
  6
CONTINUOUS
 62
     7
100
AcDbVertex
100
AcDb2dVertex
 10
1862.554169
 20
446.294325
 30
0.0
  0
VERTEX
  5
51D
100
AcDbEntity
  8
LAY-1
  6
CONTINUOUS
 62
     7
100
AcDbVertex
100
AcDb2dVertex
 10
1862.508259
 20
446.525249
 30
0.0
  0
VERTEX
  5
51E
100
AcDbEntity
  8
LAY-1
  6
CONTINUOUS
 62
     7
100
AcDbVertex
100
AcDb2dVertex
 10
1862.480598
 20
446.759062
 30
0.0
  0
VERTEX
  5
51F
100
AcDbEntity
  8
LAY-1
  6
CONTINUOUS
 62
     7
100
AcDbVertex
100
AcDb2dVertex
 10
1862.47136
 20
446.994324
 30
0.0
  0
SEQEND
  5
520
100
AcDbEntity
  8
LAY-1
  6
CONTINUOUS
 62
     7
  0
LINE
  5
521
100
AcDbEntity
  8
LAY-1
  6
CONTINUOUS
 62
     7
100
AcDbLine
 10
1863.001698
 20
457.794324
 30
0.0
 11
1862.959777
 21
457.794324
 31
0.0
  0
LINE
  5
522
100
AcDbEntity
  8
LAY-1
  6
CONTINUOUS
 62
     7
100
AcDbLine
 10
1862.47136
 20
458.794324
 30
0.0
 11
1862.463638
 21
458.794324
 31
0.0
  0
LINE
  5
523
100
AcDbEntity
  8
LAY-1
  6
CONTINUOUS
 62
     7
100
AcDbLine
 10
1863.385316
 20
458.794324
 30
0.0
 11
1862.47136
 21
458.794324
 31
0.0
  0
POLYLINE
  5
524
100
AcDbEntity
  8
LAY-1
  6
CONTINUOUS
 62
     7
100
AcDb2dPolyline
 66
     1
 10
0.0
 20
0.0
 30
0.0
 70
   128
  0
VERTEX
  5
525
100
AcDbEntity
  8
LAY-1
  6
CONTINUOUS
 62
     7
100
AcDbVertex
100
AcDb2dVertex
 10
1864.47136
 20
459.084486
 30
0.0
  0
VERTEX
  5
526
100
AcDbEntity
  8
LAY-1
  6
CONTINUOUS
 62
     7
100
AcDbVertex
100
AcDb2dVertex
 10
1864.407257
 20
458.776058
 30
0.0
  0
VERTEX
  5
527
100
AcDbEntity
  8
LAY-1
  6
CONTINUOUS
 62
     7
100
AcDbVertex
100
AcDb2dVertex
 10
1864.217684
 20
458.48081
 30
0.0
  0
VERTEX
  5
528
100
AcDbEntity
  8
LAY-1
  6
CONTINUOUS
 62
     7
100
AcDbVertex
100
AcDb2dVertex
 10
1863.910748
 20
458.211362
 30
0.0
  0
VERTEX
  5
529
100
AcDbEntity
  8
LAY-1
  6
CONTINUOUS
 62
     7
100
AcDbVertex
100
AcDb2dVertex
 10
1863.499562
 20
457.979226
 30
0.0
  0
VERTEX
  5
52A
100
AcDbEntity
  8
LAY-1
  6
CONTINUOUS
 62
     7
100
AcDbVertex
100
AcDb2dVertex
 10
1863.001698
 20
457.794325
 30
0.0
  0
SEQEND
  5
52B
100
AcDbEntity
  8
LAY-1
  6
CONTINUOUS
 62
     7
  0
POLYLINE
  5
52C
100
AcDbEntity
  8
LAY-1
  6
CONTINUOUS
 62
     7
100
AcDb2dPolyline
 66
     1
 10
0.0
 20
0.0
 30
0.0
 70
   128
  0
VERTEX
  5
52D
100
AcDbEntity
  8
LAY-1
  6
CONTINUOUS
 62
     7
100
AcDbVertex
100
AcDb2dVertex
 10
1863.001698
 20
457.794325
 30
0.0
  0
VERTEX
  5
52E
100
AcDbEntity
  8
LAY-1
  6
CONTINUOUS
 62
     7
100
AcDbVertex
100
AcDb2dVertex
 10
1863.572919
 20
458.034671
 30
0.0
  0
VERTEX
  5
52F
100
AcDbEntity
  8
LAY-1
  6
CONTINUOUS
 62
     7
100
AcDbVertex
100
AcDb2dVertex
 10
1863.845554
 20
458.26945
 30
0.0
  0
VERTEX
  5
530
100
AcDbEntity
  8
LAY-1
  6
CONTINUOUS
 62
     7
100
AcDbVertex
100
AcDb2dVertex
 10
1863.917167
 20
458.469127
 30
0.0
  0
VERTEX
  5
531
100
AcDbEntity
  8
LAY-1
  6
CONTINUOUS
 62
     7
100
AcDbVertex
100
AcDb2dVertex
 10
1863.868332
 20
458.61077
 30
0.0
  0
VERTEX
  5
532
100
AcDbEntity
  8
LAY-1
  6
CONTINUOUS
 62
     7
100
AcDbVertex
100
AcDb2dVertex
 10
1863.766708
 20
458.702135
 30
0.0
  0
VERTEX
  5
533
100
AcDbEntity
  8
LAY-1
  6
CONTINUOUS
 62
     7
100
AcDbVertex
100
AcDb2dVertex
 10
1863.645195
 20
458.757098
 30
0.0
  0
VERTEX
  5
534
100
AcDbEntity
  8
LAY-1
  6
CONTINUOUS
 62
     7
100
AcDbVertex
100
AcDb2dVertex
 10
1863.486687
 20
458.789311
 30
0.0
  0
VERTEX
  5
535
100
AcDbEntity
  8
LAY-1
  6
CONTINUOUS
 62
     7
100
AcDbVertex
100
AcDb2dVertex
 10
1863.385315
 20
458.794325
 30
0.0
  0
SEQEND
  5
536
100
AcDbEntity
  8
LAY-1
  6
CONTINUOUS
 62
     7
  0
LINE
  5
537
100
AcDbEntity
  8
LAY-1
  6
CONTINUOUS
 62
     7
100
AcDbLine
 10
1862.47136
 20
460.294324
 30
0.0
 11
1862.47136
 21
458.794325
 31
0.0
  0
LINE
  5
538
100
AcDbEntity
  8
LAY-1
  6
CONTINUOUS
 62
     7
100
AcDbLine
 10
1864.47136
 20
460.294324
 30
0.0
 11
1862.47136
 21
460.294324
 31
0.0
  0
LINE
  5
539
100
AcDbEntity
  8
LAY-1
  6
CONTINUOUS
 62
     7
100
AcDbLine
 10
1864.47136
 20
460.294324
 30
0.0
 11
1864.47136
 21
459.084486
 31
0.0
  0
LINE
  5
53A
100
AcDbEntity
  8
LAY-1
  6
CONTINUOUS
 62
     7
100
AcDbLine
 10
1850.479082
 20
458.794325
 30
0.0
 11
1862.463637
 21
458.794325
 31
0.0
  0
ELLIPSE
  5
53B
100
AcDbEntity
  8
LAY-1
  6
CONTINUOUS
 62
     7
100
AcDbEllipse
 10
1862.463638
 20
457.794324
 30
0.0
 11
-0.0000000000000002
 21
-1.000000000000004
 31
0.0
210
0.0
220
0.0
230
1.0
 40
0.496139
 41
1.5707963267948966
 42
3.1415926535897958
  0
ELLIPSE
  5
53C
100
AcDbEntity
  8
LAY-1
  6
CONTINUOUS
 62
     7
100
AcDbEllipse
 10
1862.463638
 20
448.794324
 30
0.0
 11
-0.0000000000000002
 21
-1.0
 31
0.0
210
0.0
220
0.0
230
1.0
 40
0.496139
 41
0.0000000000000004
 42
1.5707963267948966
  0
LINE
  5
53D
100
AcDbEntity
  8
LAY-1
  6
CONTINUOUS
 62
     7
100
AcDbLine
 10
1862.463637
 20
447.794324
 30
0.0
 11
1850.479082
 21
447.794324
 31
0.0
  0
LINE
  5
53E
100
AcDbEntity
  8
LAY-1
  6
CONTINUOUS
 62
     7
100
AcDbLine
 10
1862.959777
 20
457.794325
 30
0.0
 11
1862.959777
 21
448.794324
 31
0.0
  0
LINE
  5
53F
100
AcDbEntity
  8
LAY-1
  6
CONTINUOUS
 62
     7
100
AcDbLine
 10
1862.959777
 20
448.794324
 30
0.0
 11
1850.975222
 21
448.794324
 31
0.0
  0
LINE
  5
540
100
AcDbEntity
  8
LAY-1
  6
CONTINUOUS
 62
     7
100
AcDbLine
 10
1850.975222
 20
457.794325
 30
0.0
 11
1862.959777
 21
457.794325
 31
0.0
  0
ELLIPSE
  5
541
100
AcDbEntity
  8
LAY-1
  6
CONTINUOUS
 62
     7
100
AcDbEllipse
 10
1850.479082
 20
448.794324
 30
0.0
 11
-0.0000000000000002
 21
-1.0
 31
0.0
210
0.0
220
0.0
230
1.0
 40
0.496139
 41
0.0000000000000004
 42
1.5707963267948966
  0
ELLIPSE
  5
542
100
AcDbEntity
  8
LAY-1
  6
CONTINUOUS
 62
     7
100
AcDbEllipse
 10
1850.479082
 20
457.794324
 30
0.0
 11
-0.0000000000000002
 21
-0.99999999999999
 31
0.0
210
0.0
220
0.0
230
1.0
 40
0.496139
 41
1.5707963267948966
 42
3.1415926535897958
  0
LINE
  5
543
100
AcDbEntity
  8
LAY-1
  6
CONTINUOUS
 62
     7
100
AcDbLine
 10
1850.975222
 20
448.794324
 30
0.0
 11
1850.975222
 21
457.794325
 31
0.0
  0
LINE
  5
544
100
AcDbEntity
  8
LAY-1
  6
CONTINUOUS
 62
     7
100
AcDbLine
 10
1850.47136
 20
448.794324
 30
0.0
 11
1850.975221
 21
448.794324
 31
0.0
  0
LINE
  5
545
100
AcDbEntity
  8
LAY-1
  6
CONTINUOUS
 62
     7
100
AcDbLine
 10
1850.47136
 20
457.794324
 30
0.0
 11
1850.975221
 21
457.794324
 31
0.0
  0
ARC
  5
546
100
AcDbEntity
  8
LAY-1
  6
CONTINUOUS
 62
     7
100
AcDbCircle
 10
1849.47136
 20
447.294324
 30
0.0
 40
1.0
100
AcDbArc
 50
180.0
 51
270.0
  0
ARC
  5
547
100
AcDbEntity
  8
LAY-1
  6
CONTINUOUS
 62
     7
100
AcDbCircle
 10
1849.47136
 20
459.294324
 30
0.0
 40
1.0
100
AcDbArc
 50
90.0
 51
180.0
  0
ARC
  5
548
100
AcDbEntity
  8
LAY-1
  6
CONTINUOUS
 62
     7
100
AcDbCircle
 10
1849.47136
 20
459.294324
 30
0.0
 40
1.0
100
AcDbArc
 50
0.0
 51
90.0
  0
LINE
  5
549
100
AcDbEntity
  8
LAY-1
  6
CONTINUOUS
 62
     7
100
AcDbLine
 10
1849.47136
 20
460.294324
 30
0.0
 11
1849.47136
 21
460.289973
 31
0.0
  0
LINE
  5
54A
100
AcDbEntity
  8
LAY-1
  6
CONTINUOUS
 62
     7
100
AcDbLine
 10
1849.47136
 20
446.294324
 30
0.0
 11
1849.47136
 21
446.298676
 31
0.0
  0
ARC
  5
54B
100
AcDbEntity
  8
LAY-1
  6
CONTINUOUS
 62
     7
100
AcDbCircle
 10
1849.47136
 20
447.294324
 30
0.0
 40
1.0
100
AcDbArc
 50
270.0
 51
0.0
  0
LINE
  5
54C
100
AcDbEntity
  8
LAY-1
  6
CONTINUOUS
 62
     7
100
AcDbLine
 10
1848.471359
 20
459.294324
 30
0.0
 11
1848.471359
 21
456.779094
 31
0.0
  0
ELLIPSE
  5
54D
100
AcDbEntity
  8
LAY-1
  6
CONTINUOUS
 62
     7
100
AcDbEllipse
 10
1849.47136
 20
459.294324
 30
0.0
 11
1.0
 21
-0.0000000000000002
 31
0.0
210
0.0
220
0.0
230
1.0
 40
0.995648
 41
1.5707963267948966
 42
3.1415926535897958
  0
LINE
  5
54E
100
AcDbEntity
  8
LAY-1
  6
CONTINUOUS
 62
     7
100
AcDbLine
 10
1848.471359
 20
449.809555
 30
0.0
 11
1848.471359
 21
447.294324
 31
0.0
  0
ELLIPSE
  5
54F
100
AcDbEntity
  8
LAY-1
  6
CONTINUOUS
 62
     7
100
AcDbEllipse
 10
1849.47136
 20
447.294324
 30
0.0
 11
-0.999999999999999
 21
-0.0000000000000003
 31
0.0
210
0.0
220
0.0
230
1.0
 40
0.995648
 41
0.0000000000000004
 42
1.5707963267948966
  0
LINE
  5
550
100
AcDbEntity
  8
LAY-1
  6
CONTINUOUS
 62
     7
100
AcDbLine
 10
1850.471359
 20
447.294324
 30
0.0
 11
1850.471359
 21
449.809555
 31
0.0
  0
ELLIPSE
  5
551
100
AcDbEntity
  8
LAY-1
  6
CONTINUOUS
 62
     7
100
AcDbEllipse
 10
1849.47136
 20
447.294324
 30
0.0
 11
-1.0
 21
-0.0000000000000003
 31
0.0
210
0.0
220
0.0
230
1.0
 40
0.995648
 41
1.5707963267948966
 42
3.1415926535897958
  0
LINE
  5
552
100
AcDbEntity
  8
LAY-1
  6
CONTINUOUS
 62
     7
100
AcDbLine
 10
1850.471359
 20
456.779094
 30
0.0
 11
1850.471359
 21
459.294324
 31
0.0
  0
ELLIPSE
  5
553
100
AcDbEntity
  8
LAY-1
  6
CONTINUOUS
 62
     7
100
AcDbEllipse
 10
1849.47136
 20
459.294324
 30
0.0
 11
1.0000000000000551
 21
-0.0000000000000002
 31
0.0
210
0.0
220
0.0
230
1.0
 40
0.995648
 41
0.0000000000000004
 42
1.5707963267948966
  0
ELLIPSE
  5
554
100
AcDbEntity
  8
LAY-1
  6
CONTINUOUS
 62
     7
100
AcDbEllipse
 10
1849.47136
 20
456.779093
 30
0.0
 11
1.0
 21
-0.0000000000000002
 31
0.0
210
0.0
220
0.0
230
1.0
 40
0.995648
 41
1.5707963267948966
 42
3.1415926535897958
  0
ELLIPSE
  5
555
100
AcDbEntity
  8
LAY-1
  6
CONTINUOUS
 62
     7
100
AcDbEllipse
 10
1849.47136
 20
449.809555
 30
0.0
 11
1.0
 21
-0.0000000000000002
 31
0.0
210
0.0
220
0.0
230
1.0
 40
0.995648
 41
3.1415926535897958
 42
4.7123889803846897
  0
LINE
  5
556
100
AcDbEntity
  8
LAY-1
  6
CONTINUOUS
 62
     7
100
AcDbLine
 10
1848.47136
 20
456.779093
 30
0.0
 11
1848.47136
 21
449.809555
 31
0.0
  0
ELLIPSE
  5
557
100
AcDbEntity
  8
LAY-1
  6
CONTINUOUS
 62
     7
100
AcDbEllipse
 10
1849.47136
 20
456.779093
 30
0.0
 11
0.999999999999999
 21
-0.0000000000000002
 31
0.0
210
0.0
220
0.0
230
1.0
 40
0.995648
 41
0.0000000000000004
 42
1.5707963267948966
  0
LINE
  5
558
100
AcDbEntity
  8
LAY-1
  6
CONTINUOUS
 62
     7
100
AcDbLine
 10
1850.47136
 20
449.809555
 30
0.0
 11
1850.47136
 21
456.779093
 31
0.0
  0
ELLIPSE
  5
559
100
AcDbEntity
  8
LAY-1
  6
CONTINUOUS
 62
     7
100
AcDbEllipse
 10
1849.47136
 20
449.809555
 30
0.0
 11
0.9999999999999421
 21
-0.0000000000000002
 31
0.0
210
0.0
220
0.0
230
1.0
 40
0.995648
 41
4.7123889803846897
 42
0.0000000000000004
  0
LINE
  5
55A
100
AcDbEntity
  8
LAY-1
  6
CONTINUOUS
 62
     7
100
AcDbLine
 10
1893.47136
 20
475.294325
 30
0.0
 11
1893.47136
 21
463.294325
 31
0.0
  0
ARC
  5
55B
100
AcDbEntity
  8
LAY-1
  6
CONTINUOUS
 62
     7
100
AcDbCircle
 10
1870.97136
 20
475.294324
 30
0.0
 40
0.5
100
AcDbArc
 50
90.0
 51
180.0
  0
ARC
  5
55C
100
AcDbEntity
  8
LAY-1
  6
CONTINUOUS
 62
     7
100
AcDbCircle
 10
1892.97136
 20
475.294324
 30
0.0
 40
0.5
100
AcDbArc
 50
0.0
 51
90.0
  0
POLYLINE
  5
55D
100
AcDbEntity
  8
LAY-1
  6
CONTINUOUS
 62
     7
100
AcDb2dPolyline
 66
     1
 10
0.0
 20
0.0
 30
0.0
 70
   128
  0
VERTEX
  5
55E
100
AcDbEntity
  8
LAY-1
  6
CONTINUOUS
 62
     7
100
AcDbVertex
100
AcDb2dVertex
 10
1870.471859
 20
446.282024
 30
0.0
  0
VERTEX
  5
55F
100
AcDbEntity
  8
LAY-1
  6
CONTINUOUS
 62
     7
100
AcDbVertex
100
AcDb2dVertex
 10
1870.455462
 20
446.317388
 30
0.0
  0
VERTEX
  5
560
100
AcDbEntity
  8
LAY-1
  6
CONTINUOUS
 62
     7
100
AcDbVertex
100
AcDb2dVertex
 10
1870.275683
 20
446.534566
 30
0.0
  0
VERTEX
  5
561
100
AcDbEntity
  8
LAY-1
  6
CONTINUOUS
 62
     7
100
AcDbVertex
100
AcDb2dVertex
 10
1870.063177
 20
446.682457
 30
0.0
  0
VERTEX
  5
562
100
AcDbEntity
  8
LAY-1
  6
CONTINUOUS
 62
     7
100
AcDbVertex
100
AcDb2dVertex
 10
1869.798099
 20
446.775396
 30
0.0
  0
VERTEX
  5
563
100
AcDbEntity
  8
LAY-1
  6
CONTINUOUS
 62
     7
100
AcDbVertex
100
AcDb2dVertex
 10
1869.604839
 20
446.785559
 30
0.0
  0
SEQEND
  5
564
100
AcDbEntity
  8
LAY-1
  6
CONTINUOUS
 62
     7
  0
POLYLINE
  5
565
100
AcDbEntity
  8
LAY-1
  6
CONTINUOUS
 62
     7
100
AcDb2dPolyline
 66
     1
 10
0.0
 20
0.0
 30
0.0
 70
   128
  0
VERTEX
  5
566
100
AcDbEntity
  8
LAY-1
  6
CONTINUOUS
 62
     7
100
AcDbVertex
100
AcDb2dVertex
 10
1869.608048
 20
459.799302
 30
0.0
  0
VERTEX
  5
567
100
AcDbEntity
  8
LAY-1
  6
CONTINUOUS
 62
     7
100
AcDbVertex
100
AcDb2dVertex
 10
1869.651321
 20
459.795217
 30
0.0
  0
VERTEX
  5
568
100
AcDbEntity
  8
LAY-1
  6
CONTINUOUS
 62
     7
100
AcDbVertex
100
AcDb2dVertex
 10
1869.950065
 20
459.856183
 30
0.0
  0
VERTEX
  5
569
100
AcDbEntity
  8
LAY-1
  6
CONTINUOUS
 62
     7
100
AcDbVertex
100
AcDb2dVertex
 10
1870.178876
 20
459.976477
 30
0.0
  0
VERTEX
  5
56A
100
AcDbEntity
  8
LAY-1
  6
CONTINUOUS
 62
     7
100
AcDbVertex
100
AcDb2dVertex
 10
1870.348118
 20
460.127086
 30
0.0
  0
VERTEX
  5
56B
100
AcDbEntity
  8
LAY-1
  6
CONTINUOUS
 62
     7
100
AcDbVertex
100
AcDb2dVertex
 10
1870.466222
 20
460.289232
 30
0.0
  0
VERTEX
  5
56C
100
AcDbEntity
  8
LAY-1
  6
CONTINUOUS
 62
     7
100
AcDbVertex
100
AcDb2dVertex
 10
1870.474905
 20
460.307618
 30
0.0
  0
SEQEND
  5
56D
100
AcDbEntity
  8
LAY-1
  6
CONTINUOUS
 62
     7
  0
LINE
  5
56E
100
AcDbEntity
  8
LAY-1
  6
CONTINUOUS
 62
     7
100
AcDbLine
 10
1866.47136
 20
459.794325
 30
0.0
 11
1869.606104
 21
459.794325
 31
0.0
  0
LINE
  5
56F
100
AcDbEntity
  8
LAY-1
  6
CONTINUOUS
 62
     7
100
AcDbLine
 10
1869.606104
 20
446.794325
 30
0.0
 11
1866.47136
 21
446.794325
 31
0.0
  0
LINE
  5
570
100
AcDbEntity
  8
LAY-1
  6
CONTINUOUS
 62
     7
100
AcDbLine
 10
1864.47136
 20
458.294324
 30
0.0
 11
1866.47136
 21
459.794325
 31
0.0
  0
LINE
  5
571
100
AcDbEntity
  8
LAY-1
  6
CONTINUOUS
 62
     7
100
AcDbLine
 10
1866.47136
 20
446.794325
 30
0.0
 11
1864.47136
 21
448.294324
 31
0.0
  0
LINE
  5
572
100
AcDbEntity
  8
LAY-1
  6
CONTINUOUS
 62
     7
100
AcDbLine
 10
1892.47136
 20
459.294324
 30
0.0
 11
1892.47136
 21
447.294324
 31
0.0
  0
LINE
  5
573
100
AcDbEntity
  8
LAY-1
  6
CONTINUOUS
 62
     7
100
AcDbLine
 10
1870.47136
 20
460.294324
 30
0.0
 11
1870.47136
 21
475.294325
 31
0.0
  0
LINE
  5
574
100
AcDbEntity
  8
LAY-1
  6
CONTINUOUS
 62
     7
100
AcDbLine
 10
1892.47136
 20
447.294324
 30
0.0
 11
1893.47136
 21
446.294325
 31
0.0
  0
LINE
  5
575
100
AcDbEntity
  8
LAY-1
  6
CONTINUOUS
 62
     7
100
AcDbLine
 10
1893.47136
 20
460.294324
 30
0.0
 11
1892.47136
 21
459.294324
 31
0.0
  0
LINE
  5
576
100
AcDbEntity
  8
LAY-1
  6
CONTINUOUS
 62
     7
100
AcDbLine
 10
1893.47136
 20
446.294325
 30
0.0
 11
1893.47136
 21
438.794324
 31
0.0
  0
LINE
  5
577
100
AcDbEntity
  8
LAY-1
  6
CONTINUOUS
 62
     7
100
AcDbLine
 10
1870.47136
 20
438.794324
 30
0.0
 11
1870.47136
 21
446.294325
 31
0.0
  0
ARC
  5
578
100
AcDbEntity
  8
LAY-1
  6
CONTINUOUS
 62
     7
100
AcDbCircle
 10
1870.97136
 20
438.794324
 30
0.0
 40
0.5
100
AcDbArc
 50
180.0
 51
270.0
  0
ARC
  5
579
100
AcDbEntity
  8
LAY-1
  6
CONTINUOUS
 62
     7
100
AcDbCircle
 10
1892.97136
 20
438.794324
 30
0.0
 40
0.5
100
AcDbArc
 50
270.0
 51
0.0
  0
LINE
  5
57A
100
AcDbEntity
  8
LAY-1
  6
CONTINUOUS
 62
     7
100
AcDbLine
 10
1892.557151
 20
423.343856
 30
0.0
 11
1892.47136
 21
423.294325
 31
0.0
  0
LINE
  5
57B
100
AcDbEntity
  8
LAY-1
  6
CONTINUOUS
 62
     7
100
AcDbLine
 10
1892.47136
 20
437.294324
 30
0.0
 11
1892.557151
 21
437.244793
 31
0.0
  0
LINE
  5
57C
100
AcDbEntity
  8
LAY-1
  6
CONTINUOUS
 62
     7
100
AcDbLine
 10
1871.47136
 20
423.294325
 30
0.0
 11
1871.385569
 21
423.343856
 31
0.0
  0
LINE
  5
57D
100
AcDbEntity
  8
LAY-1
  6
CONTINUOUS
 62
     7
100
AcDbLine
 10
1871.385569
 20
437.244793
 30
0.0
 11
1871.47136
 21
437.294324
 31
0.0
  0
LINE
  5
57E
100
AcDbEntity
  8
LAY-1
  6
CONTINUOUS
 62
     7
100
AcDbLine
 10
1872.47136
 20
437.294324
 30
0.0
 11
1872.47136
 21
438.294324
 31
0.0
  0
LINE
  5
57F
100
AcDbEntity
  8
LAY-1
  6
CONTINUOUS
 62
     7
100
AcDbLine
 10
1891.47136
 20
438.294324
 30
0.0
 11
1891.47136
 21
437.294324
 31
0.0
  0
LINE
  5
580
100
AcDbEntity
  8
LAY-1
  6
CONTINUOUS
 62
     7
100
AcDbLine
 10
1890.054263
 20
413.619653
 30
0.0
 11
1890.054263
 21
418.994438
 31
0.0
  0
LINE
  5
581
100
AcDbEntity
  8
LAY-1
  6
CONTINUOUS
 62
     7
100
AcDbLine
 10
1888.971359
 20
412.994438
 30
0.0
 11
1890.054263
 21
413.619653
 31
0.0
  0
LINE
  5
582
100
AcDbEntity
  8
LAY-1
  6
CONTINUOUS
 62
     7
100
AcDbLine
 10
1874.97381
 20
418.994438
 30
0.0
 11
1875.113493
 21
422.994438
 31
0.0
  0
LINE
  5
583
100
AcDbEntity
  8
LAY-1
  6
CONTINUOUS
 62
     7
100
AcDbLine
 10
1888.968912
 20
418.994353
 30
0.0
 11
1888.829226
 21
422.994438
 31
0.0
  0
ARC
  5
584
100
AcDbEntity
  8
LAY-1
  6
CONTINUOUS
 62
     7
100
AcDbCircle
 10
1881.971359
 20
426.369223
 30
0.0
 40
13.374785
100
AcDbArc
 50
252.412046
 51
287.587954
  0
ARC
  5
585
100
AcDbEntity
  8
LAY-1
  6
CONTINUOUS
 62
     7
100
AcDbCircle
 10
1888.033537
 20
416.57259
 30
0.0
 40
3.578152
100
AcDbArc
 50
235.615753
 51
304.384247
  0
LINE
  5
586
100
AcDbEntity
  8
LAY-1
  6
CONTINUOUS
 62
     7
100
AcDbLine
 10
1886.012811
 20
418.994438
 30
0.0
 11
1886.012811
 21
413.619653
 31
0.0
  0
LINE
  5
587
100
AcDbEntity
  8
LAY-1
  6
CONTINUOUS
 62
     7
100
AcDbLine
 10
1873.888456
 20
418.994438
 30
0.0
 11
1874.97381
 21
418.994438
 31
0.0
  0
LINE
  5
588
100
AcDbEntity
  8
LAY-1
  6
CONTINUOUS
 62
     7
100
AcDbLine
 10
1873.888456
 20
413.619653
 30
0.0
 11
1873.888456
 21
418.994438
 31
0.0
  0
LINE
  5
589
100
AcDbEntity
  8
LAY-1
  6
CONTINUOUS
 62
     7
100
AcDbLine
 10
1874.971359
 20
412.994438
 30
0.0
 11
1873.888456
 21
413.619653
 31
0.0
  0
LINE
  5
58A
100
AcDbEntity
  8
LAY-1
  6
CONTINUOUS
 62
     7
100
AcDbLine
 10
1877.929908
 20
418.994438
 30
0.0
 11
1877.929908
 21
413.619653
 31
0.0
  0
ARC
  5
58B
100
AcDbEntity
  8
LAY-1
  6
CONTINUOUS
 62
     7
100
AcDbCircle
 10
1875.909182
 20
416.57259
 30
0.0
 40
3.578152
100
AcDbArc
 50
235.615753
 51
304.384247
  0
LINE
  5
58C
100
AcDbEntity
  8
LAY-1
  6
CONTINUOUS
 62
     7
100
AcDbLine
 10
1888.971359
 20
412.994438
 30
0.0
 11
1874.971359
 21
412.994438
 31
0.0
  0
LINE
  5
58D
100
AcDbEntity
  8
LAY-1
  6
CONTINUOUS
 62
     7
100
AcDbLine
 10
1888.933988
 20
419.994438
 30
0.0
 11
1881.971359
 21
419.994438
 31
0.0
  0
LINE
  5
58E
100
AcDbEntity
  8
LAY-1
  6
CONTINUOUS
 62
     7
100
AcDbLine
 10
1875.008731
 20
419.994438
 30
0.0
 11
1881.971359
 21
419.994438
 31
0.0
  0
LINE
  5
58F
100
AcDbEntity
  8
LAY-1
  6
CONTINUOUS
 62
     7
100
AcDbLine
 10
1874.97381
 20
418.994438
 30
0.0
 11
1881.971359
 21
418.994438
 31
0.0
  0
LINE
  5
590
100
AcDbEntity
  8
LAY-1
  6
CONTINUOUS
 62
     7
100
AcDbLine
 10
1881.741359
 20
418.994438
 30
0.0
 11
1890.054263
 21
418.994438
 31
0.0
  0
LINE
  5
591
100
AcDbEntity
  8
LAY-1
  6
CONTINUOUS
 62
     7
100
AcDbLine
 10
1983.62136
 20
516.01597
 30
0.0
 11
1998.62136
 21
516.01597
 31
0.0
  0
LINE
  5
592
100
AcDbEntity
  8
LAY-1
  6
CONTINUOUS
 62
     7
100
AcDbLine
 10
1983.62136
 20
531.01597
 30
0.0
 11
1995.62136
 21
531.01597
 31
0.0
  0
LINE
  5
593
100
AcDbEntity
  8
LAY-1
  6
CONTINUOUS
 62
     7
100
AcDbLine
 10
1983.62136
 20
831.01597
 30
0.0
 11
1995.62136
 21
831.01597
 31
0.0
  0
LINE
  5
594
100
AcDbEntity
  8
LAY-1
  6
CONTINUOUS
 62
     7
100
AcDbLine
 10
1782.32136
 20
861.01597
 30
0.0
 11
1782.32136
 21
866.01597
 31
0.0
  0
LINE
  5
595
100
AcDbEntity
  8
LAY-1
  6
CONTINUOUS
 62
     7
100
AcDbLine
 10
1983.62136
 20
816.01597
 30
0.0
 11
1998.62136
 21
816.01597
 31
0.0
  0
ARC
  5
596
100
AcDbEntity
  8
LAY-1
  6
CONTINUOUS
 62
     7
100
AcDbCircle
 10
1755.32136
 20
528.01597
 30
0.0
 40
3.0
100
AcDbArc
 50
90.0
 51
180.0
  0
ARC
  5
597
100
AcDbEntity
  8
LAY-1
  6
CONTINUOUS
 62
     7
100
AcDbCircle
 10
1995.62136
 20
528.01597
 30
0.0
 40
3.0
100
AcDbArc
 50
0.0
 51
90.0
  0
ARC
  5
598
100
AcDbEntity
  8
LAY-1
  6
CONTINUOUS
 62
     7
100
AcDbCircle
 10
1995.62136
 20
528.01597
 30
0.0
 40
1.0
100
AcDbArc
 50
0.0
 51
90.0
  0
ARC
  5
599
100
AcDbEntity
  8
LAY-1
  6
CONTINUOUS
 62
     7
100
AcDbCircle
 10
1755.32136
 20
528.01597
 30
0.0
 40
1.0
100
AcDbArc
 50
90.0
 51
180.0
  0
LINE
  5
59A
100
AcDbEntity
  8
LAY-1
  6
CONTINUOUS
 62
     7
100
AcDbLine
 10
1996.62136
 20
516.01597
 30
0.0
 11
1996.62136
 21
528.01597
 31
0.0
  0
LINE
  5
59B
100
AcDbEntity
  8
LAY-1
  6
CONTINUOUS
 62
     7
100
AcDbLine
 10
1755.32136
 20
529.01597
 30
0.0
 11
1767.32136
 21
529.01597
 31
0.0
  0
LINE
  5
59C
100
AcDbEntity
  8
LAY-1
  6
CONTINUOUS
 62
     7
100
AcDbLine
 10
1754.32136
 20
516.01597
 30
0.0
 11
1754.32136
 21
528.01597
 31
0.0
  0
LINE
  5
59D
100
AcDbEntity
  8
LAY-1
  6
CONTINUOUS
 62
     7
100
AcDbLine
 10
1998.62136
 20
516.01597
 30
0.0
 11
1998.62136
 21
528.01597
 31
0.0
  0
LINE
  5
59E
100
AcDbEntity
  8
LAY-1
  6
CONTINUOUS
 62
     7
100
AcDbLine
 10
1968.62136
 20
481.01597
 30
0.0
 11
1988.62136
 21
481.01597
 31
0.0
  0
LINE
  5
59F
100
AcDbEntity
  8
LAY-1
  6
CONTINUOUS
 62
     7
100
AcDbLine
 10
1762.32136
 20
481.01597
 30
0.0
 11
1782.32136
 21
481.01597
 31
0.0
  0
LINE
  5
5A0
100
AcDbEntity
  8
LAY-1
  6
CONTINUOUS
 62
     7
100
AcDbLine
 10
1762.32136
 20
481.01597
 30
0.0
 11
1762.32136
 21
516.01597
 31
0.0
  0
LINE
  5
5A1
100
AcDbEntity
  8
LAY-1
  6
CONTINUOUS
 62
     7
100
AcDbLine
 10
1988.62136
 20
516.01597
 30
0.0
 11
1988.62136
 21
481.01597
 31
0.0
  0
LINE
  5
5A2
100
AcDbEntity
  8
LAY-1
  6
CONTINUOUS
 62
     7
100
AcDbLine
 10
1782.32136
 20
866.01597
 30
0.0
 11
1762.32136
 21
866.01597
 31
0.0
  0
LINE
  5
5A3
100
AcDbEntity
  8
LAY-1
  6
CONTINUOUS
 62
     7
100
AcDbLine
 10
1988.62136
 20
866.01597
 30
0.0
 11
1968.62136
 21
866.01597
 31
0.0
  0
LINE
  5
5A4
100
AcDbEntity
  8
LAY-1
  6
CONTINUOUS
 62
     7
100
AcDbLine
 10
1988.62136
 20
866.01597
 30
0.0
 11
1988.62136
 21
831.01597
 31
0.0
  0
LINE
  5
5A5
100
AcDbEntity
  8
LAY-1
  6
CONTINUOUS
 62
     7
100
AcDbLine
 10
1762.32136
 20
831.01597
 30
0.0
 11
1762.32136
 21
866.01597
 31
0.0
  0
ARC
  5
5A6
100
AcDbEntity
  8
LAY-1
  6
CONTINUOUS
 62
     7
100
AcDbCircle
 10
1995.62136
 20
828.01597
 30
0.0
 40
3.0
100
AcDbArc
 50
0.0
 51
90.0
  0
ARC
  5
5A7
100
AcDbEntity
  8
LAY-1
  6
CONTINUOUS
 62
     7
100
AcDbCircle
 10
1995.62136
 20
828.01597
 30
0.0
 40
1.0
100
AcDbArc
 50
0.0
 51
90.0
  0
LINE
  5
5A8
100
AcDbEntity
  8
LAY-1
  6
CONTINUOUS
 62
     7
100
AcDbLine
 10
1996.62136
 20
816.01597
 30
0.0
 11
1996.62136
 21
828.01597
 31
0.0
  0
LINE
  5
5A9
100
AcDbEntity
  8
LAY-1
  6
CONTINUOUS
 62
     7
100
AcDbLine
 10
1998.62136
 20
816.01597
 30
0.0
 11
1998.62136
 21
828.01597
 31
0.0
  0
LINE
  5
5AA
100
AcDbEntity
  8
LAY-1
  6
CONTINUOUS
 62
     7
100
AcDbLine
 10
1875.07136
 20
484.30397
 30
0.0
 11
1875.339072
 21
475.737192
 31
0.0
  0
LINE
  5
5AB
100
AcDbEntity
  8
LAY-1
  6
CONTINUOUS
 62
     7
100
AcDbLine
 10
1888.87136
 20
484.30397
 30
0.0
 11
1888.603648
 21
475.737192
 31
0.0
  0
LINE
  5
5AC
100
AcDbEntity
  8
LAY-1
  6
CONTINUOUS
 62
     7
100
AcDbLine
 10
1947.97136
 20
472.01597
 30
0.0
 11
1947.97136
 21
486.01597
 31
0.0
  0
LINE
  5
5AD
100
AcDbEntity
  8
LAY-1
  6
CONTINUOUS
 62
     7
100
AcDbLine
 10
1922.97136
 20
486.01597
 30
0.0
 11
1922.97136
 21
472.01597
 31
0.0
  0
LINE
  5
5AE
100
AcDbEntity
  8
LAY-1
  6
CONTINUOUS
 62
     7
100
AcDbLine
 10
1922.97136
 20
472.01597
 30
0.0
 11
1947.97136
 21
472.01597
 31
0.0
  0
LINE
  5
5AF
100
AcDbEntity
  8
LAY-1
  6
CONTINUOUS
 62
     7
100
AcDbLine
 10
1827.97136
 20
472.01597
 30
0.0
 11
1827.97136
 21
486.01597
 31
0.0
  0
LINE
  5
5B0
100
AcDbEntity
  8
LAY-1
  6
CONTINUOUS
 62
     7
100
AcDbLine
 10
1802.97136
 20
486.01597
 30
0.0
 11
1802.97136
 21
472.01597
 31
0.0
  0
LINE
  5
5B1
100
AcDbEntity
  8
LAY-1
  6
CONTINUOUS
 62
     7
100
AcDbLine
 10
1802.97136
 20
472.01597
 30
0.0
 11
1827.97136
 21
472.01597
 31
0.0
  0
LINE
  5
5B2
100
AcDbEntity
  8
LAY-1
  6
CONTINUOUS
 62
     7
100
AcDbLine
 10
1881.97136
 20
480.02597
 30
0.0
 11
1888.737673
 21
480.02597
 31
0.0
  0
LINE
  5
5B3
100
AcDbEntity
  8
LAY-1
  6
CONTINUOUS
 62
     7
100
AcDbLine
 10
1888.87136
 20
486.01597
 30
0.0
 11
1888.87136
 21
484.30397
 31
0.0
  0
LINE
  5
5B4
100
AcDbEntity
  8
LAY-1
  6
CONTINUOUS
 62
     7
100
AcDbLine
 10
1875.07136
 20
486.01597
 30
0.0
 11
1875.07136
 21
484.30397
 31
0.0
  0
LINE
  5
5B5
100
AcDbEntity
  8
LAY-1
  6
CONTINUOUS
 62
     7
100
AcDbLine
 10
1881.97136
 20
480.02597
 30
0.0
 11
1876.061465
 21
480.02597
 31
0.0
  0
LINE
  5
5B6
100
AcDbEntity
  8
LAY-1
  6
CONTINUOUS
 62
     7
100
AcDbLine
 10
1762.32136
 20
866.01597
 30
0.0
 11
1782.32136
 21
866.01597
 31
0.0
  0
LINE
  5
5B7
100
AcDbEntity
  8
LAY-1
  6
CONTINUOUS
 62
     7
100
AcDbLine
 10
1762.32136
 20
866.01597
 30
0.0
 11
1762.32136
 21
831.01597
 31
0.0
  0
CIRCLE
  5
5B8
100
AcDbEntity
  8
LAY-1
  6
CONTINUOUS
 62
     7
100
AcDbCircle
 10
1772.32136
 20
854.01597
 30
0.0
 40
5.0
  0
LINE
  5
5B9
100
AcDbEntity
  8
LAY-1
  6
CONTINUOUS
 62
     7
100
AcDbLine
 10
1782.32136
 20
831.01597
 30
0.0
 11
1782.32136
 21
866.01597
 31
0.0
  0
LINE
  5
5BA
100
AcDbEntity
  8
LAY-1
  6
CONTINUOUS
 62
     7
100
AcDbLine
 10
1755.32136
 20
831.01597
 30
0.0
 11
1983.62136
 21
831.01597
 31
0.0
  0
LINE
  5
5BB
100
AcDbEntity
  8
LAY-1
  6
CONTINUOUS
 62
     7
100
AcDbLine
 10
1765.37136
 20
829.01597
 30
0.0
 11
1995.62136
 21
829.01597
 31
0.0
  0
LINE
  5
5BC
100
AcDbEntity
  8
LAY-1
  6
CONTINUOUS
 62
     7
100
AcDbLine
 10
1752.32136
 20
816.01597
 30
0.0
 11
1988.67136
 21
816.01597
 31
0.0
  0
LINE
  5
5BD
100
AcDbEntity
  8
LAY-1
  6
CONTINUOUS
 62
     7
100
AcDbLine
 10
1755.32136
 20
829.01597
 30
0.0
 11
1767.32136
 21
829.01597
 31
0.0
  0
LINE
  5
5BE
100
AcDbEntity
  8
LAY-1
  6
CONTINUOUS
 62
     7
100
AcDbLine
 10
1968.62136
 20
866.01597
 30
0.0
 11
1968.62136
 21
831.01597
 31
0.0
  0
LINE
  5
5BF
100
AcDbEntity
  8
LAY-1
  6
CONTINUOUS
 62
     7
100
AcDbLine
 10
1782.32136
 20
858.01597
 30
0.0
 11
1968.62136
 21
858.01597
 31
0.0
  0
CIRCLE
  5
5C0
100
AcDbEntity
  8
LAY-1
  6
CONTINUOUS
 62
     7
100
AcDbCircle
 10
1978.62136
 20
854.01597
 30
0.0
 40
5.0
  0
CIRCLE
  5
5C1
100
AcDbEntity
  8
LAY-1
  6
CONTINUOUS
 62
     7
100
AcDbCircle
 10
1903.17136
 20
929.553363
 30
0.0
 40
9.277431
  0
CIRCLE
  5
5C2
100
AcDbEntity
  8
LAY-1
  6
CONTINUOUS
 62
     7
100
AcDbCircle
 10
1854.17136
 20
929.553363
 30
0.0
 40
12.020431
  0
LINE
  5
5C3
100
AcDbEntity
  8
LAY-1
  6
CONTINUOUS
 62
     7
100
AcDbLine
 10
1818.009419
 20
896.51597
 30
0.0
 11
1821.924072
 21
896.51597
 31
0.0
  0
ARC
  5
5C4
100
AcDbEntity
  8
LAY-1
  6
CONTINUOUS
 62
     7
100
AcDbCircle
 10
1818.009419
 20
914.667465
 30
0.0
 40
18.151494
100
AcDbArc
 50
260.686379
 51
275.313621
  0
ARC
  5
5C5
100
AcDbEntity
  8
LAY-1
  6
CONTINUOUS
 62
     7
100
AcDbCircle
 10
1809.782178
 20
901.372034
 30
0.0
 40
4.856063
100
AcDbArc
 50
235.615753
 51
292.198673
  0
LINE
  5
5C6
100
AcDbEntity
  8
LAY-1
  6
CONTINUOUS
 62
     7
100
AcDbLine
 10
1785.17136
 20
942.053363
 30
0.0
 11
1824.671403
 21
942.053363
 31
0.0
  0
LINE
  5
5C7
100
AcDbEntity
  8
LAY-1
  6
CONTINUOUS
 62
     7
100
AcDbLine
 10
1865.74661
 20
959.51597
 30
0.0
 11
1865.47136
 21
959.51597
 31
0.0
  0
LINE
  5
5C8
100
AcDbEntity
  8
LAY-1
  6
CONTINUOUS
 62
     7
100
AcDbLine
 10
1881.059817
 20
1009.721742
 30
0.0
 11
1879.089178
 21
1008.583993
 31
0.0
  0
LINE
  5
5C9
100
AcDbEntity
  8
LAY-1
  6
CONTINUOUS
 62
     7
100
AcDbLine
 10
1881.059817
 20
1007.310199
 30
0.0
 11
1879.103651
 21
1008.439592
 31
0.0
  0
ARC
  5
5CA
100
AcDbEntity
  8
LAY-1
  6
CONTINUOUS
 62
     7
100
AcDbCircle
 10
1877.162703
 20
1015.416692
 30
0.0
 40
6.900721
100
AcDbArc
 50
286.017395
 51
304.384247
  0
ARC
  5
5CB
100
AcDbEntity
  8
LAY-1
  6
CONTINUOUS
 62
     7
100
AcDbCircle
 10
1877.162703
 20
1001.615249
 30
0.0
 40
6.900721
100
AcDbArc
 50
55.615753
 51
73.505407
  0
ARC
  5
5CC
100
AcDbEntity
  8
LAY-1
  6
CONTINUOUS
 62
     7
100
AcDbCircle
 10
1865.47136
 20
931.01597
 30
0.0
 40
27.0
100
AcDbArc
 50
108.168888
 51
112.191607
  0
ARC
  5
5CD
100
AcDbEntity
  8
LAY-1
  6
CONTINUOUS
 62
     7
100
AcDbCircle
 10
1865.47136
 20
931.01597
 30
0.0
 40
25.772727
100
AcDbArc
 50
120.29214
 51
121.067623
  0
ARC
  5
5CE
100
AcDbEntity
  8
LAY-1
  6
CONTINUOUS
 62
     7
100
AcDbCircle
 10
1865.47136
 20
931.01597
 30
0.0
 40
27.0
100
AcDbArc
 50
118.782205
 51
119.511128
  0
LINE
  5
5CF
100
AcDbEntity
  8
LAY-1
  6
CONTINUOUS
 62
     7
100
AcDbLine
 10
1857.072794
 20
956.01597
 30
0.0
 11
1856.868452
 21
962.518224
 31
0.0
  0
POLYLINE
  5
5D0
100
AcDbEntity
  8
LAY-1
  6
CONTINUOUS
 62
     7
100
AcDb2dPolyline
 66
     1
 10
0.0
 20
0.0
 30
0.0
 70
   128
  0
VERTEX
  5
5D1
100
AcDbEntity
  8
LAY-1
  6
CONTINUOUS
 62
     7
100
AcDbVertex
100
AcDb2dVertex
 10
1918.17136
 20
935.766567
 30
0.0
  0
VERTEX
  5
5D2
100
AcDbEntity
  8
LAY-1
  6
CONTINUOUS
 62
     7
100
AcDbVertex
100
AcDb2dVertex
 10
1909.384563
 20
944.553363
 30
0.0
  0
VERTEX
  5
5D3
100
AcDbEntity
  8
LAY-1
  6
CONTINUOUS
 62
     7
100
AcDbVertex
100
AcDb2dVertex
 10
1896.958157
 20
944.553363
 30
0.0
  0
VERTEX
  5
5D4
100
AcDbEntity
  8
LAY-1
  6
CONTINUOUS
 62
     7
100
AcDbVertex
100
AcDb2dVertex
 10
1888.17136
 20
935.766567
 30
0.0
  0
VERTEX
  5
5D5
100
AcDbEntity
  8
LAY-1
  6
CONTINUOUS
 62
     7
100
AcDbVertex
100
AcDb2dVertex
 10
1888.17136
 20
923.34016
 30
0.0
  0
VERTEX
  5
5D6
100
AcDbEntity
  8
LAY-1
  6
CONTINUOUS
 62
     7
100
AcDbVertex
100
AcDb2dVertex
 10
1896.958157
 20
914.553363
 30
0.0
  0
VERTEX
  5
5D7
100
AcDbEntity
  8
LAY-1
  6
CONTINUOUS
 62
     7
100
AcDbVertex
100
AcDb2dVertex
 10
1909.384563
 20
914.553363
 30
0.0
  0
VERTEX
  5
5D8
100
AcDbEntity
  8
LAY-1
  6
CONTINUOUS
 62
     7
100
AcDbVertex
100
AcDb2dVertex
 10
1918.17136
 20
923.34016
 30
0.0
  0
VERTEX
  5
5D9
100
AcDbEntity
  8
LAY-1
  6
CONTINUOUS
 62
     7
100
AcDbVertex
100
AcDb2dVertex
 10
1918.17136
 20
935.766567
 30
0.0
  0
SEQEND
  5
5DA
100
AcDbEntity
  8
LAY-1
  6
CONTINUOUS
 62
     7
  0
LINE
  5
5DB
100
AcDbEntity
  8
LAY-1
  6
CONTINUOUS
 62
     7
100
AcDbLine
 10
1781.97136
 20
915.943663
 30
0.0
 11
1782.67136
 21
915.943663
 31
0.0
  0
LINE
  5
5DC
100
AcDbEntity
  8
LAY-1
  6
CONTINUOUS
 62
     7
100
AcDbLine
 10
1781.97136
 20
921.843663
 30
0.0
 11
1782.67136
 21
921.843663
 31
0.0
  0
LINE
  5
5DD
100
AcDbEntity
  8
LAY-1
  6
CONTINUOUS
 62
     7
100
AcDbLine
 10
1781.97136
 20
916.093663
 30
0.0
 11
1780.77136
 21
916.093663
 31
0.0
  0
LINE
  5
5DE
100
AcDbEntity
  8
LAY-1
  6
CONTINUOUS
 62
     7
100
AcDbLine
 10
1781.97136
 20
921.693663
 30
0.0
 11
1780.77136
 21
921.693663
 31
0.0
  0
ELLIPSE
  5
5DF
100
AcDbEntity
  8
LAY-1
  6
CONTINUOUS
 62
     7
100
AcDbEllipse
 10
1780.77136
 20
918.893663
 30
0.0
 11
-0.0000000000000011
 21
2.8000000000001828
 31
0.0
210
0.0
220
0.0
230
1.0
 40
0.428571
 41
0.0
 42
3.1415926535903642
  0
LINE
  5
5E0
100
AcDbEntity
  8
LAY-1
  6
CONTINUOUS
 62
     7
100
AcDbLine
 10
1781.97136
 20
921.843663
 30
0.0
 11
1781.97136
 21
915.943663
 31
0.0
  0
LINE
  5
5E1
100
AcDbEntity
  8
LAY-1
  6
CONTINUOUS
 62
     7
100
AcDbLine
 10
1808.171403
 20
898.927602
 30
0.0
 11
1808.171403
 21
903.553363
 31
0.0
  0
LINE
  5
5E2
100
AcDbEntity
  8
LAY-1
  6
CONTINUOUS
 62
     7
100
AcDbLine
 10
1808.171403
 20
903.553363
 30
0.0
 11
1808.678947
 21
905.447541
 31
0.0
  0
LINE
  5
5E3
100
AcDbEntity
  8
LAY-1
  6
CONTINUOUS
 62
     7
100
AcDbLine
 10
1791.870931
 20
904.122588
 30
0.0
 11
1808.171403
 21
903.553363
 31
0.0
  0
LINE
  5
5E4
100
AcDbEntity
  8
LAY-1
  6
CONTINUOUS
 62
     7
100
AcDbLine
 10
1824.671403
 20
904.889072
 30
0.0
 11
1785.619054
 21
906.25281
 31
0.0
  0
LINE
  5
5E5
100
AcDbEntity
  8
LAY-1
  6
CONTINUOUS
 62
     7
100
AcDbLine
 10
1824.671403
 20
902.753663
 30
0.0
 11
1826.171447
 21
902.753663
 31
0.0
  0
LINE
  5
5E6
100
AcDbEntity
  8
LAY-1
  6
CONTINUOUS
 62
     7
100
AcDbLine
 10
1824.671403
 20
955.757473
 30
0.0
 11
1824.671403
 21
902.753663
 31
0.0
  0
LINE
  5
5E7
100
AcDbEntity
  8
LAY-1
  6
CONTINUOUS
 62
     7
100
AcDbLine
 10
1785.17136
 20
917.053363
 30
0.0
 11
1824.671403
 21
917.053363
 31
0.0
  0
LINE
  5
5E8
100
AcDbEntity
  8
LAY-1
  6
CONTINUOUS
 62
     7
100
AcDbLine
 10
1826.171447
 20
896.367649
 30
0.0
 11
1826.171447
 21
960.8077
 31
0.0
  0
LINE
  5
5E9
100
AcDbEntity
  8
LAY-1
  6
CONTINUOUS
 62
     7
100
AcDbLine
 10
1798.17136
 20
896.953363
 30
0.0
 11
1798.17136
 21
903.902572
 31
0.0
  0
LINE
  5
5EA
100
AcDbEntity
  8
LAY-1
  6
CONTINUOUS
 62
     7
100
AcDbLine
 10
1801.16136
 20
903.798159
 30
0.0
 11
1801.16136
 21
901.879784
 31
0.0
  0
LINE
  5
5EB
100
AcDbEntity
  8
LAY-1
  6
CONTINUOUS
 62
     7
100
AcDbLine
 10
1792.17136
 20
896.953363
 30
0.0
 11
1792.17136
 21
904.112097
 31
0.0
  0
LINE
  5
5EC
100
AcDbEntity
  8
LAY-1
  6
CONTINUOUS
 62
     7
100
AcDbLine
 10
1785.17136
 20
905.903363
 30
0.0
 11
1785.17136
 21
953.203363
 31
0.0
  0
LINE
  5
5ED
100
AcDbEntity
  8
LAY-1
  6
CONTINUOUS
 62
     7
100
AcDbLine
 10
1782.67136
 20
929.553363
 30
0.0
 11
1782.67136
 21
905.903363
 31
0.0
  0
LINE
  5
5EE
100
AcDbEntity
  8
LAY-1
  6
CONTINUOUS
 62
     7
100
AcDbLine
 10
1782.67136
 20
929.553363
 30
0.0
 11
1782.67136
 21
953.203363
 31
0.0
  0
LINE
  5
5EF
100
AcDbEntity
  8
LAY-1
  6
CONTINUOUS
 62
     7
100
AcDbLine
 10
1828.101648
 20
962.806482
 30
0.0
 11
1832.171403
 21
962.948601
 31
0.0
  0
ARC
  5
5F0
100
AcDbEntity
  8
LAY-1
  6
CONTINUOUS
 62
     7
100
AcDbCircle
 10
1828.171447
 20
960.8077
 30
0.0
 40
2.0
100
AcDbArc
 50
92.0
 51
180.0
  0
ARC
  5
5F1
100
AcDbEntity
  8
LAY-1
  6
CONTINUOUS
 62
     7
100
AcDbCircle
 10
1824.171447
 20
958.88179
 30
0.0
 40
2.0
100
AcDbArc
 50
315.0
 51
0.0
  0
LINE
  5
5F2
100
AcDbEntity
  8
LAY-1
  6
CONTINUOUS
 62
     7
100
AcDbLine
 10
1825.25719
 20
957.139106
 30
0.0
 11
1825.58566
 21
957.467577
 31
0.0
  0
ARC
  5
5F3
100
AcDbEntity
  8
LAY-1
  6
CONTINUOUS
 62
     7
100
AcDbCircle
 10
1810.171403
 20
898.927602
 30
0.0
 40
2.0
100
AcDbArc
 50
180.0
 51
268.0
  0
LINE
  5
5F4
100
AcDbEntity
  8
LAY-1
  6
CONTINUOUS
 62
     7
100
AcDbLine
 10
1810.101604
 20
896.92882
 30
0.0
 11
1832.171403
 21
896.158126
 31
0.0
  0
LINE
  5
5F5
100
AcDbEntity
  8
LAY-1
  6
CONTINUOUS
 62
     7
100
AcDbLine
 10
1789.18136
 20
904.007335
 30
0.0
 11
1789.18136
 21
901.879784
 31
0.0
  0
LINE
  5
5F6
100
AcDbEntity
  8
LAY-1
  6
CONTINUOUS
 62
     7
100
AcDbLine
 10
1790.57136
 20
901.507335
 30
0.0
 11
1789.18136
 21
901.879784
 31
0.0
  0
LINE
  5
5F7
100
AcDbEntity
  8
LAY-1
  6
CONTINUOUS
 62
     7
100
AcDbLine
 10
1790.57136
 20
901.507335
 30
0.0
 11
1792.17136
 21
901.507335
 31
0.0
  0
LINE
  5
5F8
100
AcDbEntity
  8
LAY-1
  6
CONTINUOUS
 62
     7
100
AcDbLine
 10
1792.57136
 20
904.007335
 30
0.0
 11
1789.18136
 21
904.007335
 31
0.0
  0
LINE
  5
5F9
100
AcDbEntity
  8
LAY-1
  6
CONTINUOUS
 62
     7
100
AcDbLine
 10
1799.77136
 20
901.507335
 30
0.0
 11
1801.16136
 21
901.879784
 31
0.0
  0
LINE
  5
5FA
100
AcDbEntity
  8
LAY-1
  6
CONTINUOUS
 62
     7
100
AcDbLine
 10
1799.77136
 20
901.507335
 30
0.0
 11
1798.17136
 21
901.507335
 31
0.0
  0
LINE
  5
5FB
100
AcDbEntity
  8
LAY-1
  6
CONTINUOUS
 62
     7
100
AcDbLine
 10
1792.87136
 20
891.553363
 30
0.0
 11
1792.87136
 21
882.31378
 31
0.0
  0
LINE
  5
5FC
100
AcDbEntity
  8
LAY-1
  6
CONTINUOUS
 62
     7
100
AcDbLine
 10
1797.47136
 20
891.553363
 30
0.0
 11
1797.47136
 21
882.31378
 31
0.0
  0
LINE
  5
5FD
100
AcDbEntity
  8
LAY-1
  6
CONTINUOUS
 62
     7
100
AcDbLine
 10
1797.67136
 20
891.553363
 30
0.0
 11
1795.17136
 21
891.553363
 31
0.0
  0
LINE
  5
5FE
100
AcDbEntity
  8
LAY-1
  6
CONTINUOUS
 62
     7
100
AcDbLine
 10
1797.67136
 20
891.553363
 30
0.0
 11
1797.67136
 21
896.553363
 31
0.0
  0
LINE
  5
5FF
100
AcDbEntity
  8
LAY-1
  6
CONTINUOUS
 62
     7
100
AcDbLine
 10
1797.77136
 20
896.553363
 30
0.0
 11
1798.17136
 21
896.953363
 31
0.0
  0
LINE
  5
600
100
AcDbEntity
  8
LAY-1
  6
CONTINUOUS
 62
     7
100
AcDbLine
 10
1797.77136
 20
896.553363
 30
0.0
 11
1795.17136
 21
896.553363
 31
0.0
  0
LINE
  5
601
100
AcDbEntity
  8
LAY-1
  6
CONTINUOUS
 62
     7
100
AcDbLine
 10
1792.67136
 20
891.553363
 30
0.0
 11
1792.67136
 21
896.553363
 31
0.0
  0
LINE
  5
602
100
AcDbEntity
  8
LAY-1
  6
CONTINUOUS
 62
     7
100
AcDbLine
 10
1792.57136
 20
896.553363
 30
0.0
 11
1795.17136
 21
896.553363
 31
0.0
  0
LINE
  5
603
100
AcDbEntity
  8
LAY-1
  6
CONTINUOUS
 62
     7
100
AcDbLine
 10
1792.57136
 20
896.553363
 30
0.0
 11
1792.17136
 21
896.953363
 31
0.0
  0
LINE
  5
604
100
AcDbEntity
  8
LAY-1
  6
CONTINUOUS
 62
     7
100
AcDbLine
 10
1792.67136
 20
891.553363
 30
0.0
 11
1795.17136
 21
891.553363
 31
0.0
  0
ARC
  5
605
100
AcDbEntity
  8
LAY-1
  6
CONTINUOUS
 62
     7
100
AcDbCircle
 10
1785.671403
 20
951.35483
 30
0.0
 40
1.5
100
AcDbArc
 50
92.0
 51
109.472982
  0
LINE
  5
606
100
AcDbEntity
  8
LAY-1
  6
CONTINUOUS
 62
     7
100
AcDbLine
 10
1782.67136
 20
953.203363
 30
0.0
 11
1785.17136
 21
953.203363
 31
0.0
  0
LINE
  5
607
100
AcDbEntity
  8
LAY-1
  6
CONTINUOUS
 62
     7
100
AcDbLine
 10
1781.97136
 20
946.603363
 30
0.0
 11
1782.67136
 21
946.603363
 31
0.0
  0
LINE
  5
608
100
AcDbEntity
  8
LAY-1
  6
CONTINUOUS
 62
     7
100
AcDbLine
 10
1781.97136
 20
952.503363
 30
0.0
 11
1782.67136
 21
952.503363
 31
0.0
  0
LINE
  5
609
100
AcDbEntity
  8
LAY-1
  6
CONTINUOUS
 62
     7
100
AcDbLine
 10
1781.97136
 20
946.753363
 30
0.0
 11
1780.77136
 21
946.753363
 31
0.0
  0
LINE
  5
60A
100
AcDbEntity
  8
LAY-1
  6
CONTINUOUS
 62
     7
100
AcDbLine
 10
1781.97136
 20
952.353363
 30
0.0
 11
1780.77136
 21
952.353363
 31
0.0
  0
ELLIPSE
  5
60B
100
AcDbEntity
  8
LAY-1
  6
CONTINUOUS
 62
     7
100
AcDbEllipse
 10
1780.77136
 20
949.553363
 30
0.0
 11
-0.0000000000000011
 21
2.8000000000001828
 31
0.0
210
0.0
220
0.0
230
1.0
 40
0.428571
 41
0.0
 42
3.1415926535903642
  0
LINE
  5
60C
100
AcDbEntity
  8
LAY-1
  6
CONTINUOUS
 62
     7
100
AcDbLine
 10
1781.97136
 20
952.503363
 30
0.0
 11
1781.97136
 21
946.603363
 31
0.0
  0
LINE
  5
60D
100
AcDbEntity
  8
LAY-1
  6
CONTINUOUS
 62
     7
100
AcDbLine
 10
1782.67136
 20
905.903363
 30
0.0
 11
1785.17136
 21
905.903363
 31
0.0
  0
ARC
  5
60E
100
AcDbEntity
  8
LAY-1
  6
CONTINUOUS
 62
     7
100
AcDbCircle
 10
1826.671403
 20
955.724893
 30
0.0
 40
2.0
100
AcDbArc
 50
135.0
 51
173.901823
  0
ARC
  5
60F
100
AcDbEntity
  8
LAY-1
  6
CONTINUOUS
 62
     7
100
AcDbCircle
 10
1822.694038
 20
956.149822
 30
0.0
 40
2.0
100
AcDbArc
 50
272.0
 51
353.901823
  0
LINE
  5
610
100
AcDbEntity
  8
LAY-1
  6
CONTINUOUS
 62
     7
100
AcDbLine
 10
1822.763837
 20
954.151041
 30
0.0
 11
1785.619054
 21
952.853916
 31
0.0
  0
ARC
  5
611
100
AcDbEntity
  8
LAY-1
  6
CONTINUOUS
 62
     7
100
AcDbCircle
 10
1785.671403
 20
907.751896
 30
0.0
 40
1.5
100
AcDbArc
 50
250.527018
 51
268.0
  0
ARC
  5
612
100
AcDbEntity
  8
LAY-1
  6
CONTINUOUS
 62
     7
100
AcDbCircle
 10
1791.171403
 20
906.148235
 30
0.0
 40
2.0
100
AcDbArc
 50
209.487718
 51
268.0
  0
ARC
  5
613
100
AcDbEntity
  8
LAY-1
  6
CONTINUOUS
 62
     7
100
AcDbCircle
 10
1787.689559
 20
904.179288
 30
0.0
 40
2.0
100
AcDbArc
 50
29.487718
 51
88.0
  0
LINE
  5
614
100
AcDbEntity
  8
LAY-1
  6
CONTINUOUS
 62
     7
100
AcDbLine
 10
1791.101604
 20
904.149454
 30
0.0
 11
1792.17136
 21
904.112097
 31
0.0
  0
ARC
  5
615
100
AcDbEntity
  8
LAY-1
  6
CONTINUOUS
 62
     7
100
AcDbCircle
 10
1915.47136
 20
872.01597
 30
0.0
 40
2.0
100
AcDbArc
 50
330.0
 51
0.0
  0
ARC
  5
616
100
AcDbEntity
  8
LAY-1
  6
CONTINUOUS
 62
     7
100
AcDbCircle
 10
1848.47136
 20
872.01597
 30
0.0
 40
2.0
100
AcDbArc
 50
180.0
 51
210.0
  0
LINE
  5
617
100
AcDbEntity
  8
LAY-1
  6
CONTINUOUS
 62
     7
100
AcDbLine
 10
1927.17136
 20
901.669816
 30
0.0
 11
1892.38329
 21
901.669816
 31
0.0
  0
LINE
  5
618
100
AcDbEntity
  8
LAY-1
  6
CONTINUOUS
 62
     7
100
AcDbLine
 10
1832.17136
 20
963.01597
 30
0.0
 11
1839.17136
 21
963.01597
 31
0.0
  0
LINE
  5
619
100
AcDbEntity
  8
LAY-1
  6
CONTINUOUS
 62
     7
100
AcDbLine
 10
1839.17136
 20
897.759873
 30
0.0
 11
1832.17136
 21
897.759873
 31
0.0
  0
LINE
  5
61A
100
AcDbEntity
  8
LAY-1
  6
CONTINUOUS
 62
     7
100
AcDbLine
 10
1841.17136
 20
954.795038
 30
0.0
 11
1841.17136
 21
961.163114
 31
0.0
  0
ARC
  5
61B
100
AcDbEntity
  8
LAY-1
  6
CONTINUOUS
 62
     7
100
AcDbCircle
 10
1843.139987
 20
961.51597
 30
0.0
 40
2.0
100
AcDbArc
 50
187.180756
 51
270.0
  0
ARC
  5
61C
100
AcDbEntity
  8
LAY-1
  6
CONTINUOUS
 62
     7
100
AcDbCircle
 10
1839.17136
 20
961.01597
 30
0.0
 40
2.0
100
AcDbArc
 50
7.180756
 51
90.0
  0
LINE
  5
61D
100
AcDbEntity
  8
LAY-1
  6
CONTINUOUS
 62
     7
100
AcDbLine
 10
1843.139987
 20
959.51597
 30
0.0
 11
1850.17136
 21
959.51597
 31
0.0
  0
ARC
  5
61E
100
AcDbEntity
  8
LAY-1
  6
CONTINUOUS
 62
     7
100
AcDbCircle
 10
1843.17136
 20
902.262354
 30
0.0
 40
2.0
100
AcDbArc
 50
90.0
 51
180.0
  0
LINE
  5
61F
100
AcDbEntity
  8
LAY-1
  6
CONTINUOUS
 62
     7
100
AcDbLine
 10
1841.17136
 20
899.759873
 30
0.0
 11
1841.17136
 21
902.262354
 31
0.0
  0
LINE
  5
620
100
AcDbEntity
  8
LAY-1
  6
CONTINUOUS
 62
     7
100
AcDbLine
 10
1850.17136
 20
904.262354
 30
0.0
 11
1843.17136
 21
904.262354
 31
0.0
  0
LINE
  5
621
100
AcDbEntity
  8
LAY-1
  6
CONTINUOUS
 62
     7
100
AcDbLine
 10
1846.47136
 20
872.01597
 30
0.0
 11
1846.47136
 21
887.520361
 31
0.0
  0
LINE
  5
622
100
AcDbEntity
  8
LAY-1
  6
CONTINUOUS
 62
     7
100
AcDbLine
 10
1917.47136
 20
887.756376
 30
0.0
 11
1917.47136
 21
872.01597
 31
0.0
  0
ARC
  5
623
100
AcDbEntity
  8
LAY-1
  6
CONTINUOUS
 62
     7
100
AcDbCircle
 10
1850.17136
 20
957.51597
 30
0.0
 40
2.0
100
AcDbArc
 50
0.0
 51
90.0
  0
ARC
  5
624
100
AcDbEntity
  8
LAY-1
  6
CONTINUOUS
 62
     7
100
AcDbCircle
 10
1839.17136
 20
899.759873
 30
0.0
 40
2.0
100
AcDbArc
 50
270.0
 51
0.0
  0
LINE
  5
625
100
AcDbEntity
  8
LAY-1
  6
CONTINUOUS
 62
     7
100
AcDbLine
 10
1846.47136
 20
881.01597
 30
0.0
 11
1917.47136
 21
881.01597
 31
0.0
  0
LINE
  5
626
100
AcDbEntity
  8
LAY-1
  6
CONTINUOUS
 62
     7
100
AcDbLine
 10
1846.473316
 20
887.520335
 30
0.0
 11
1846.579061
 21
887.756376
 31
0.0
  0
LINE
  5
627
100
AcDbEntity
  8
LAY-1
  6
CONTINUOUS
 62
     7
100
AcDbLine
 10
1871.55943
 20
901.669816
 30
0.0
 11
1841.17136
 21
901.669816
 31
0.0
  0
LINE
  5
628
100
AcDbEntity
  8
LAY-1
  6
CONTINUOUS
 62
     7
100
AcDbLine
 10
1836.97136
 20
871.01597
 30
0.0
 11
1926.97136
 21
871.01597
 31
0.0
  0
LINE
  5
629
100
AcDbEntity
  8
LAY-1
  6
CONTINUOUS
 62
     7
100
AcDbLine
 10
1926.97136
 20
871.01597
 30
0.0
 11
1926.97136
 21
861.01597
 31
0.0
  0
LINE
  5
62A
100
AcDbEntity
  8
LAY-1
  6
CONTINUOUS
 62
     7
100
AcDbLine
 10
1836.97136
 20
871.01597
 30
0.0
 11
1836.97136
 21
861.01597
 31
0.0
  0
LINE
  5
62B
100
AcDbEntity
  8
LAY-1
  6
CONTINUOUS
 62
     7
100
AcDbLine
 10
1851.97136
 20
962.51597
 30
0.0
 11
1865.47136
 21
962.51597
 31
0.0
  0
ARC
  5
62C
100
AcDbEntity
  8
LAY-1
  6
CONTINUOUS
 62
     7
100
AcDbCircle
 10
1865.47136
 20
988.310199
 30
0.0
 40
25.794229
100
AcDbArc
 50
252.412046
 51
270.0
  0
LINE
  5
62D
100
AcDbEntity
  8
LAY-1
  6
CONTINUOUS
 62
     7
100
AcDbLine
 10
1856.962802
 20
959.51597
 30
0.0
 11
1865.47136
 21
959.51597
 31
0.0
  0
ARC
  5
62E
100
AcDbEntity
  8
LAY-1
  6
CONTINUOUS
 62
     7
100
AcDbCircle
 10
1865.47136
 20
982.721742
 30
0.0
 40
25.794229
100
AcDbArc
 50
90.0
 51
107.587954
  0
ARC
  5
62F
100
AcDbEntity
  8
LAY-1
  6
CONTINUOUS
 62
     7
100
AcDbCircle
 10
1865.47136
 20
1034.310199
 30
0.0
 40
25.794229
100
AcDbArc
 50
252.412046
 51
270.0
  0
LINE
  5
630
100
AcDbEntity
  8
LAY-1
  6
CONTINUOUS
 62
     7
100
AcDbLine
 10
1851.97136
 20
1008.51597
 30
0.0
 11
1865.47136
 21
1008.51597
 31
0.0
  0
LINE
  5
631
100
AcDbEntity
  8
LAY-1
  6
CONTINUOUS
 62
     7
100
AcDbLine
 10
1857.677131
 20
1002.51597
 30
0.0
 11
1857.677131
 21
963.721742
 31
0.0
  0
LINE
  5
632
100
AcDbEntity
  8
LAY-1
  6
CONTINUOUS
 62
     7
100
AcDbLine
 10
1849.882903
 20
963.721742
 30
0.0
 11
1849.882903
 21
1007.310199
 31
0.0
  0
ARC
  5
633
100
AcDbEntity
  8
LAY-1
  6
CONTINUOUS
 62
     7
100
AcDbCircle
 10
1853.780017
 20
1015.416692
 30
0.0
 40
6.900721
100
AcDbArc
 50
235.615753
 51
304.384247
  0
LINE
  5
634
100
AcDbEntity
  8
LAY-1
  6
CONTINUOUS
 62
     7
100
AcDbLine
 10
1849.882903
 20
1009.721742
 30
0.0
 11
1851.97136
 21
1008.51597
 31
0.0
  0
LINE
  5
635
100
AcDbEntity
  8
LAY-1
  6
CONTINUOUS
 62
     7
100
AcDbLine
 10
1849.882903
 20
1007.310199
 30
0.0
 11
1851.97136
 21
1008.51597
 31
0.0
  0
ARC
  5
636
100
AcDbEntity
  8
LAY-1
  6
CONTINUOUS
 62
     7
100
AcDbCircle
 10
1853.780017
 20
1001.615249
 30
0.0
 40
6.900721
100
AcDbArc
 50
55.615753
 51
124.384247
  0
LINE
  5
637
100
AcDbEntity
  8
LAY-1
  6
CONTINUOUS
 62
     7
100
AcDbLine
 10
1857.677131
 20
1007.310199
 30
0.0
 11
1857.677131
 21
1002.51597
 31
0.0
  0
LINE
  5
638
100
AcDbEntity
  8
LAY-1
  6
CONTINUOUS
 62
     7
100
AcDbLine
 10
1849.882903
 20
963.721742
 30
0.0
 11
1851.97136
 21
962.51597
 31
0.0
  0
ARC
  5
639
100
AcDbEntity
  8
LAY-1
  6
CONTINUOUS
 62
     7
100
AcDbCircle
 10
1853.780017
 20
969.416692
 30
0.0
 40
6.900721
100
AcDbArc
 50
235.615753
 51
304.384247
  0
ARC
  5
63A
100
AcDbEntity
  8
LAY-1
  6
CONTINUOUS
 62
     7
100
AcDbCircle
 10
1854.47136
 20
955.01597
 30
0.0
 40
2.0
100
AcDbArc
 50
150.0
 51
180.0
  0
LINE
  5
63B
100
AcDbEntity
  8
LAY-1
  6
CONTINUOUS
 62
     7
100
AcDbLine
 10
1849.882903
 20
1010.366261
 30
0.0
 11
1849.882903
 21
1009.721742
 31
0.0
  0
LINE
  5
63C
100
AcDbEntity
  8
LAY-1
  6
CONTINUOUS
 62
     7
100
AcDbLine
 10
1881.059817
 20
1031.310199
 30
0.0
 11
1881.059817
 21
1009.721742
 31
0.0
  0
ARC
  5
63D
100
AcDbEntity
  8
LAY-1
  6
CONTINUOUS
 62
     7
100
AcDbCircle
 10
1865.47136
 20
1006.721742
 30
0.0
 40
25.794229
100
AcDbArc
 50
88.979504
 51
107.587954
  0
LINE
  5
63E
100
AcDbEntity
  8
LAY-1
  6
CONTINUOUS
 62
     7
100
AcDbLine
 10
1877.162703
 20
1032.51597
 30
0.0
 11
1865.47136
 21
1032.51597
 31
0.0
  0
LINE
  5
63F
100
AcDbEntity
  8
LAY-1
  6
CONTINUOUS
 62
     7
100
AcDbLine
 10
1853.780017
 20
1032.51597
 30
0.0
 11
1865.47136
 21
1032.51597
 31
0.0
  0
ARC
  5
640
100
AcDbEntity
  8
LAY-1
  6
CONTINUOUS
 62
     7
100
AcDbCircle
 10
1865.47136
 20
1006.721742
 30
0.0
 40
25.794229
100
AcDbArc
 50
72.412046
 51
87.218047
  0
ARC
  5
641
100
AcDbEntity
  8
LAY-1
  6
CONTINUOUS
 62
     7
100
AcDbCircle
 10
1877.162703
 20
1025.615249
 30
0.0
 40
6.900721
100
AcDbArc
 50
55.615753
 51
124.384247
  0
ARC
  5
642
100
AcDbEntity
  8
LAY-1
  6
CONTINUOUS
 62
     7
100
AcDbCircle
 10
1853.780017
 20
1025.615249
 30
0.0
 40
6.900721
100
AcDbArc
 50
55.615753
 51
124.384247
  0
LINE
  5
643
100
AcDbEntity
  8
LAY-1
  6
CONTINUOUS
 62
     7
100
AcDbLine
 10
1857.677131
 20
1031.310199
 30
0.0
 11
1857.677131
 21
1027.51597
 31
0.0
  0
LINE
  5
644
100
AcDbEntity
  8
LAY-1
  6
CONTINUOUS
 62
     7
100
AcDbLine
 10
1911.47136
 20
887.756376
 30
0.0
 11
1917.47136
 21
887.756376
 31
0.0
  0
LINE
  5
645
100
AcDbEntity
  8
LAY-1
  6
CONTINUOUS
 62
     7
100
AcDbLine
 10
1846.579061
 20
887.756376
 30
0.0
 11
1852.47136
 21
887.756376
 31
0.0
  0
ARC
  5
646
100
AcDbEntity
  8
LAY-1
  6
CONTINUOUS
 62
     7
100
AcDbCircle
 10
1926.17136
 20
948.053363
 30
0.0
 40
2.0
100
AcDbArc
 50
60.0
 51
90.0
  0
LINE
  5
647
100
AcDbEntity
  8
LAY-1
  6
CONTINUOUS
 62
     7
100
AcDbLine
 10
1860.17136
 20
950.053363
 30
0.0
 11
1854.17136
 21
950.053363
 31
0.0
  0
ARC
  5
648
100
AcDbEntity
  8
LAY-1
  6
CONTINUOUS
 62
     7
100
AcDbCircle
 10
1854.17136
 20
952.053363
 30
0.0
 40
2.0
100
AcDbArc
 50
180.0
 51
270.0
  0
LINE
  5
649
100
AcDbEntity
  8
LAY-1
  6
CONTINUOUS
 62
     7
100
AcDbLine
 10
1852.47136
 20
950.999798
 30
0.0
 11
1852.47136
 21
955.01597
 31
0.0
  0
LINE
  5
64A
100
AcDbEntity
  8
LAY-1
  6
CONTINUOUS
 62
     7
100
AcDbLine
 10
1852.832403
 20
956.01597
 30
0.0
 11
1852.832403
 21
950.5677
 31
0.0
  0
LINE
  5
64B
100
AcDbEntity
  8
LAY-1
  6
CONTINUOUS
 62
     7
100
AcDbLine
 10
1930.17136
 20
948.053363
 30
0.0
 11
1929.67136
 21
948.553363
 31
0.0
  0
LINE
  5
64C
100
AcDbEntity
  8
LAY-1
  6
CONTINUOUS
 62
     7
100
AcDbLine
 10
1930.17136
 20
911.053363
 30
0.0
 11
1930.17136
 21
948.053363
 31
0.0
  0
LINE
  5
64D
100
AcDbEntity
  8
LAY-1
  6
CONTINUOUS
 62
     7
100
AcDbLine
 10
1930.17136
 20
911.053363
 30
0.0
 11
1929.67136
 21
910.553363
 31
0.0
  0
LINE
  5
64E
100
AcDbEntity
  8
LAY-1
  6
CONTINUOUS
 62
     7
100
AcDbLine
 10
1929.67136
 20
910.553363
 30
0.0
 11
1927.17136
 21
910.553363
 31
0.0
  0
LINE
  5
64F
100
AcDbEntity
  8
LAY-1
  6
CONTINUOUS
 62
     7
100
AcDbLine
 10
1929.67136
 20
948.553363
 30
0.0
 11
1927.17136
 21
948.553363
 31
0.0
  0
LINE
  5
650
100
AcDbEntity
  8
LAY-1
  6
CONTINUOUS
 62
     7
100
AcDbLine
 10
1930.67136
 20
944.553363
 30
0.0
 11
1930.67136
 21
914.553363
 31
0.0
  0
LINE
  5
651
100
AcDbEntity
  8
LAY-1
  6
CONTINUOUS
 62
     7
100
AcDbLine
 10
1930.67136
 20
914.553363
 30
0.0
 11
1930.17136
 21
914.553363
 31
0.0
  0
LINE
  5
652
100
AcDbEntity
  8
LAY-1
  6
CONTINUOUS
 62
     7
100
AcDbLine
 10
1930.67136
 20
944.553363
 30
0.0
 11
1930.17136
 21
944.553363
 31
0.0
  0
LINE
  5
653
100
AcDbEntity
  8
LAY-1
  6
CONTINUOUS
 62
     7
100
AcDbLine
 10
1936.67136
 20
921.053363
 30
0.0
 11
1936.67136
 21
938.053363
 31
0.0
  0
LINE
  5
654
100
AcDbEntity
  8
LAY-1
  6
CONTINUOUS
 62
     7
100
AcDbLine
 10
1937.17136
 20
938.053363
 30
0.0
 11
1937.17136
 21
921.053363
 31
0.0
  0
LINE
  5
655
100
AcDbEntity
  8
LAY-1
  6
CONTINUOUS
 62
     7
100
AcDbLine
 10
1930.67136
 20
938.053363
 30
0.0
 11
1937.17136
 21
938.053363
 31
0.0
  0
LINE
  5
656
100
AcDbEntity
  8
LAY-1
  6
CONTINUOUS
 62
     7
100
AcDbLine
 10
1937.17136
 20
921.053363
 30
0.0
 11
1930.67136
 21
921.053363
 31
0.0
  0
LINE
  5
657
100
AcDbEntity
  8
LAY-1
  6
CONTINUOUS
 62
     7
100
AcDbLine
 10
1927.17136
 20
925.41597
 30
0.0
 11
1918.17136
 21
925.41597
 31
0.0
  0
ARC
  5
658
100
AcDbEntity
  8
LAY-1
  6
CONTINUOUS
 62
     7
100
AcDbCircle
 10
1850.17136
 20
906.262354
 30
0.0
 40
2.0
100
AcDbArc
 50
270.0
 51
0.0
  0
POLYLINE
  5
659
100
AcDbEntity
  8
LAY-1
  6
CONTINUOUS
 62
     7
100
AcDb2dPolyline
 66
     1
 10
0.0
 20
0.0
 30
0.0
 70
   128
  0
VERTEX
  5
65A
100
AcDbEntity
  8
LAY-1
  6
CONTINUOUS
 62
     7
100
AcDbVertex
100
AcDb2dVertex
 10
1892.509822
 20
901.091825
 30
0.0
  0
VERTEX
  5
65B
100
AcDbEntity
  8
LAY-1
  6
CONTINUOUS
 62
     7
100
AcDbVertex
100
AcDb2dVertex
 10
1891.939906
 20
903.438679
 30
0.0
  0
VERTEX
  5
65C
100
AcDbEntity
  8
LAY-1
  6
CONTINUOUS
 62
     7
100
AcDbVertex
100
AcDb2dVertex
 10
1891.357334
 20
905.653641
 30
0.0
  0
VERTEX
  5
65D
100
AcDbEntity
  8
LAY-1
  6
CONTINUOUS
 62
     7
100
AcDbVertex
100
AcDb2dVertex
 10
1890.762846
 20
907.733899
 30
0.0
  0
VERTEX
  5
65E
100
AcDbEntity
  8
LAY-1
  6
CONTINUOUS
 62
     7
100
AcDbVertex
100
AcDb2dVertex
 10
1890.157196
 20
909.676811
 30
0.0
  0
VERTEX
  5
65F
100
AcDbEntity
  8
LAY-1
  6
CONTINUOUS
 62
     7
100
AcDbVertex
100
AcDb2dVertex
 10
1889.541153
 20
911.47991
 30
0.0
  0
VERTEX
  5
660
100
AcDbEntity
  8
LAY-1
  6
CONTINUOUS
 62
     7
100
AcDbVertex
100
AcDb2dVertex
 10
1888.9155
 20
913.140908
 30
0.0
  0
VERTEX
  5
661
100
AcDbEntity
  8
LAY-1
  6
CONTINUOUS
 62
     7
100
AcDbVertex
100
AcDb2dVertex
 10
1888.281031
 20
914.657695
 30
0.0
  0
VERTEX
  5
662
100
AcDbEntity
  8
LAY-1
  6
CONTINUOUS
 62
     7
100
AcDbVertex
100
AcDb2dVertex
 10
1887.638551
 20
916.028346
 30
0.0
  0
VERTEX
  5
663
100
AcDbEntity
  8
LAY-1
  6
CONTINUOUS
 62
     7
100
AcDbVertex
100
AcDb2dVertex
 10
1886.988876
 20
917.251121
 30
0.0
  0
VERTEX
  5
664
100
AcDbEntity
  8
LAY-1
  6
CONTINUOUS
 62
     7
100
AcDbVertex
100
AcDb2dVertex
 10
1886.33283
 20
918.324467
 30
0.0
  0
VERTEX
  5
665
100
AcDbEntity
  8
LAY-1
  6
CONTINUOUS
 62
     7
100
AcDbVertex
100
AcDb2dVertex
 10
1885.671247
 20
919.247022
 30
0.0
  0
VERTEX
  5
666
100
AcDbEntity
  8
LAY-1
  6
CONTINUOUS
 62
     7
100
AcDbVertex
100
AcDb2dVertex
 10
1885.004967
 20
920.017614
 30
0.0
  0
VERTEX
  5
667
100
AcDbEntity
  8
LAY-1
  6
CONTINUOUS
 62
     7
100
AcDbVertex
100
AcDb2dVertex
 10
1884.334836
 20
920.635264
 30
0.0
  0
VERTEX
  5
668
100
AcDbEntity
  8
LAY-1
  6
CONTINUOUS
 62
     7
100
AcDbVertex
100
AcDb2dVertex
 10
1883.661704
 20
921.09919
 30
0.0
  0
VERTEX
  5
669
100
AcDbEntity
  8
LAY-1
  6
CONTINUOUS
 62
     7
100
AcDbVertex
100
AcDb2dVertex
 10
1882.986425
 20
921.408801
 30
0.0
  0
VERTEX
  5
66A
100
AcDbEntity
  8
LAY-1
  6
CONTINUOUS
 62
     7
100
AcDbVertex
100
AcDb2dVertex
 10
1882.309858
 20
921.563705
 30
0.0
  0
VERTEX
  5
66B
100
AcDbEntity
  8
LAY-1
  6
CONTINUOUS
 62
     7
100
AcDbVertex
100
AcDb2dVertex
 10
1881.632862
 20
921.563705
 30
0.0
  0
VERTEX
  5
66C
100
AcDbEntity
  8
LAY-1
  6
CONTINUOUS
 62
     7
100
AcDbVertex
100
AcDb2dVertex
 10
1880.956295
 20
921.408801
 30
0.0
  0
VERTEX
  5
66D
100
AcDbEntity
  8
LAY-1
  6
CONTINUOUS
 62
     7
100
AcDbVertex
100
AcDb2dVertex
 10
1880.281016
 20
921.09919
 30
0.0
  0
VERTEX
  5
66E
100
AcDbEntity
  8
LAY-1
  6
CONTINUOUS
 62
     7
100
AcDbVertex
100
AcDb2dVertex
 10
1879.607884
 20
920.635264
 30
0.0
  0
VERTEX
  5
66F
100
AcDbEntity
  8
LAY-1
  6
CONTINUOUS
 62
     7
100
AcDbVertex
100
AcDb2dVertex
 10
1878.937753
 20
920.017614
 30
0.0
  0
VERTEX
  5
670
100
AcDbEntity
  8
LAY-1
  6
CONTINUOUS
 62
     7
100
AcDbVertex
100
AcDb2dVertex
 10
1878.271473
 20
919.247022
 30
0.0
  0
VERTEX
  5
671
100
AcDbEntity
  8
LAY-1
  6
CONTINUOUS
 62
     7
100
AcDbVertex
100
AcDb2dVertex
 10
1877.60989
 20
918.324467
 30
0.0
  0
VERTEX
  5
672
100
AcDbEntity
  8
LAY-1
  6
CONTINUOUS
 62
     7
100
AcDbVertex
100
AcDb2dVertex
 10
1876.953844
 20
917.251121
 30
0.0
  0
VERTEX
  5
673
100
AcDbEntity
  8
LAY-1
  6
CONTINUOUS
 62
     7
100
AcDbVertex
100
AcDb2dVertex
 10
1876.304169
 20
916.028346
 30
0.0
  0
VERTEX
  5
674
100
AcDbEntity
  8
LAY-1
  6
CONTINUOUS
 62
     7
100
AcDbVertex
100
AcDb2dVertex
 10
1875.661689
 20
914.657695
 30
0.0
  0
VERTEX
  5
675
100
AcDbEntity
  8
LAY-1
  6
CONTINUOUS
 62
     7
100
AcDbVertex
100
AcDb2dVertex
 10
1875.02722
 20
913.140908
 30
0.0
  0
VERTEX
  5
676
100
AcDbEntity
  8
LAY-1
  6
CONTINUOUS
 62
     7
100
AcDbVertex
100
AcDb2dVertex
 10
1874.401567
 20
911.47991
 30
0.0
  0
VERTEX
  5
677
100
AcDbEntity
  8
LAY-1
  6
CONTINUOUS
 62
     7
100
AcDbVertex
100
AcDb2dVertex
 10
1873.785524
 20
909.676811
 30
0.0
  0
VERTEX
  5
678
100
AcDbEntity
  8
LAY-1
  6
CONTINUOUS
 62
     7
100
AcDbVertex
100
AcDb2dVertex
 10
1873.179874
 20
907.733899
 30
0.0
  0
VERTEX
  5
679
100
AcDbEntity
  8
LAY-1
  6
CONTINUOUS
 62
     7
100
AcDbVertex
100
AcDb2dVertex
 10
1872.585386
 20
905.653641
 30
0.0
  0
VERTEX
  5
67A
100
AcDbEntity
  8
LAY-1
  6
CONTINUOUS
 62
     7
100
AcDbVertex
100
AcDb2dVertex
 10
1872.002814
 20
903.438679
 30
0.0
  0
VERTEX
  5
67B
100
AcDbEntity
  8
LAY-1
  6
CONTINUOUS
 62
     7
100
AcDbVertex
100
AcDb2dVertex
 10
1871.432898
 20
901.091825
 30
0.0
  0
SEQEND
  5
67C
100
AcDbEntity
  8
LAY-1
  6
CONTINUOUS
 62
     7
  0
POLYLINE
  5
67D
100
AcDbEntity
  8
LAY-1
  6
CONTINUOUS
 62
     7
100
AcDb2dPolyline
 66
     1
 10
0.0
 20
0.0
 30
0.0
 70
   128
  0
VERTEX
  5
67E
100
AcDbEntity
  8
LAY-1
  6
CONTINUOUS
 62
     7
100
AcDbVertex
100
AcDb2dVertex
 10
1871.432898
 20
901.091825
 30
0.0
  0
VERTEX
  5
67F
100
AcDbEntity
  8
LAY-1
  6
CONTINUOUS
 62
     7
100
AcDbVertex
100
AcDb2dVertex
 10
1871.073892
 20
899.844921
 30
0.0
  0
VERTEX
  5
680
100
AcDbEntity
  8
LAY-1
  6
CONTINUOUS
 62
     7
100
AcDbVertex
100
AcDb2dVertex
 10
1870.612626
 20
898.652256
 30
0.0
  0
VERTEX
  5
681
100
AcDbEntity
  8
LAY-1
  6
CONTINUOUS
 62
     7
100
AcDbVertex
100
AcDb2dVertex
 10
1869.446096
 20
896.350431
 30
0.0
  0
VERTEX
  5
682
100
AcDbEntity
  8
LAY-1
  6
CONTINUOUS
 62
     7
100
AcDbVertex
100
AcDb2dVertex
 10
1867.838041
 20
893.819366
 30
0.0
  0
VERTEX
  5
683
100
AcDbEntity
  8
LAY-1
  6
CONTINUOUS
 62
     7
100
AcDbVertex
100
AcDb2dVertex
 10
1867.006026
 20
892.646217
 30
0.0
  0
VERTEX
  5
684
100
AcDbEntity
  8
LAY-1
  6
CONTINUOUS
 62
     7
100
AcDbVertex
100
AcDb2dVertex
 10
1866.200181
 20
891.564614
 30
0.0
  0
VERTEX
  5
685
100
AcDbEntity
  8
LAY-1
  6
CONTINUOUS
 62
     7
100
AcDbVertex
100
AcDb2dVertex
 10
1865.80813
 20
891.053363
 30
0.0
  0
SEQEND
  5
686
100
AcDbEntity
  8
LAY-1
  6
CONTINUOUS
 62
     7
  0
ARC
  5
687
100
AcDbEntity
  8
LAY-1
  6
CONTINUOUS
 62
     7
100
AcDbCircle
 10
1919.699922
 20
909.731959
 30
0.0
 40
28.52987
100
AcDbArc
 50
197.628572
 51
220.897144
  0
LINE
  5
688
100
AcDbEntity
  8
LAY-1
  6
CONTINUOUS
 62
     7
100
AcDbLine
 10
1865.80813
 20
891.053363
 30
0.0
 11
1898.13459
 21
891.053363
 31
0.0
  0
ARC
  5
689
100
AcDbEntity
  8
LAY-1
  6
CONTINUOUS
 62
     7
100
AcDbCircle
 10
1836.342032
 20
771.734312
 30
0.0
 40
134.370221
100
AcDbArc
 50
59.73789
 51
62.621413
  0
ARC
  5
68A
100
AcDbEntity
  8
LAY-1
  6
CONTINUOUS
 62
     7
100
AcDbCircle
 10
1925.021882
 20
776.421199
 30
0.0
 40
129.022485
100
AcDbArc
 50
117.318815
 51
120.321882
  0
LINE
  5
68B
100
AcDbEntity
  8
LAY-1
  6
CONTINUOUS
 62
     7
100
AcDbLine
 10
1904.47924
 20
887.37633
 30
0.0
 11
1904.058786
 21
887.793769
 31
0.0
  0
LINE
  5
68C
100
AcDbEntity
  8
LAY-1
  6
CONTINUOUS
 62
     7
100
AcDbLine
 10
1859.883934
 20
887.793769
 30
0.0
 11
1859.439447
 21
887.352469
 31
0.0
  0
LINE
  5
68D
100
AcDbEntity
  8
LAY-1
  6
CONTINUOUS
 62
     7
100
AcDbLine
 10
1767.97136
 20
925.534386
 30
0.0
 11
1770.47136
 21
925.534386
 31
0.0
  0
LINE
  5
68E
100
AcDbEntity
  8
LAY-1
  6
CONTINUOUS
 62
     7
100
AcDbLine
 10
1767.97136
 20
933.534386
 30
0.0
 11
1770.47136
 21
933.534386
 31
0.0
  0
LINE
  5
68F
100
AcDbEntity
  8
LAY-1
  6
CONTINUOUS
 62
     7
100
AcDbLine
 10
1766.97136
 20
926.534386
 30
0.0
 11
1766.97136
 21
932.534386
 31
0.0
  0
LINE
  5
690
100
AcDbEntity
  8
LAY-1
  6
CONTINUOUS
 62
     7
100
AcDbLine
 10
1767.97136
 20
925.534386
 30
0.0
 11
1766.97136
 21
926.534386
 31
0.0
  0
LINE
  5
691
100
AcDbEntity
  8
LAY-1
  6
CONTINUOUS
 62
     7
100
AcDbLine
 10
1767.97136
 20
933.534386
 30
0.0
 11
1766.97136
 21
932.534386
 31
0.0
  0
LINE
  5
692
100
AcDbEntity
  8
LAY-1
  6
CONTINUOUS
 62
     7
100
AcDbLine
 10
1777.17136
 20
925.534386
 30
0.0
 11
1777.17136
 21
922.534386
 31
0.0
  0
LINE
  5
693
100
AcDbEntity
  8
LAY-1
  6
CONTINUOUS
 62
     7
100
AcDbLine
 10
1777.17136
 20
924.61597
 30
0.0
 11
1777.17136
 21
936.534386
 31
0.0
  0
LINE
  5
694
100
AcDbEntity
  8
LAY-1
  6
CONTINUOUS
 62
     7
100
AcDbLine
 10
1770.47136
 20
933.534386
 30
0.0
 11
1777.17136
 21
933.534386
 31
0.0
  0
LINE
  5
695
100
AcDbEntity
  8
LAY-1
  6
CONTINUOUS
 62
     7
100
AcDbLine
 10
1769.77656
 20
925.534386
 30
0.0
 11
1777.17136
 21
925.534386
 31
0.0
  0
LINE
  5
696
100
AcDbEntity
  8
LAY-1
  6
CONTINUOUS
 62
     7
100
AcDbLine
 10
1775.47136
 20
929.553363
 30
0.0
 11
1775.47136
 21
929.534386
 31
0.0
  0
LINE
  5
697
100
AcDbEntity
  8
LAY-1
  6
CONTINUOUS
 62
     7
100
AcDbLine
 10
1777.17136
 20
936.553363
 30
0.0
 11
1782.67136
 21
936.553363
 31
0.0
  0
LINE
  5
698
100
AcDbEntity
  8
LAY-1
  6
CONTINUOUS
 62
     7
100
AcDbLine
 10
1777.17136
 20
922.553363
 30
0.0
 11
1782.67136
 21
922.553363
 31
0.0
  0
LINE
  5
699
100
AcDbEntity
  8
LAY-1
  6
CONTINUOUS
 62
     7
100
AcDbLine
 10
1768.97136
 20
953.553363
 30
0.0
 11
1776.97136
 21
953.553363
 31
0.0
  0
LINE
  5
69A
100
AcDbEntity
  8
LAY-1
  6
CONTINUOUS
 62
     7
100
AcDbLine
 10
1768.97136
 20
947.553363
 30
0.0
 11
1770.47136
 21
947.553363
 31
0.0
  0
LINE
  5
69B
100
AcDbEntity
  8
LAY-1
  6
CONTINUOUS
 62
     7
100
AcDbLine
 10
1768.97136
 20
953.553363
 30
0.0
 11
1768.97136
 21
947.553363
 31
0.0
  0
LINE
  5
69C
100
AcDbEntity
  8
LAY-1
  6
CONTINUOUS
 62
     7
100
AcDbLine
 10
1769.97136
 20
954.553363
 30
0.0
 11
1768.97136
 21
953.553363
 31
0.0
  0
LINE
  5
69D
100
AcDbEntity
  8
LAY-1
  6
CONTINUOUS
 62
     7
100
AcDbLine
 10
1775.97136
 20
954.553363
 30
0.0
 11
1776.97136
 21
953.553363
 31
0.0
  0
LINE
  5
69E
100
AcDbEntity
  8
LAY-1
  6
CONTINUOUS
 62
     7
100
AcDbLine
 10
1769.97136
 20
954.553363
 30
0.0
 11
1775.97136
 21
954.553363
 31
0.0
  0
LINE
  5
69F
100
AcDbEntity
  8
LAY-1
  6
CONTINUOUS
 62
     7
100
AcDbLine
 10
1776.97136
 20
953.553363
 30
0.0
 11
1776.97136
 21
947.553363
 31
0.0
  0
LINE
  5
6A0
100
AcDbEntity
  8
LAY-1
  6
CONTINUOUS
 62
     7
100
AcDbLine
 10
1776.97136
 20
947.553363
 30
0.0
 11
1770.47136
 21
947.553363
 31
0.0
  0
LINE
  5
6A1
100
AcDbEntity
  8
LAY-1
  6
CONTINUOUS
 62
     7
100
AcDbLine
 10
1775.47136
 20
947.553363
 30
0.0
 11
1775.47136
 21
933.534386
 31
0.0
  0
LINE
  5
6A2
100
AcDbEntity
  8
LAY-1
  6
CONTINUOUS
 62
     7
100
AcDbLine
 10
1770.47136
 20
947.553363
 30
0.0
 11
1770.47136
 21
933.534386
 31
0.0
  0
LINE
  5
6A3
100
AcDbEntity
  8
LAY-1
  6
CONTINUOUS
 62
     7
100
AcDbLine
 10
1766.97136
 20
913.753363
 30
0.0
 11
1767.27136
 21
914.053363
 31
0.0
  0
LINE
  5
6A4
100
AcDbEntity
  8
LAY-1
  6
CONTINUOUS
 62
     7
100
AcDbLine
 10
1778.67136
 20
914.053363
 30
0.0
 11
1778.97136
 21
913.753363
 31
0.0
  0
LINE
  5
6A5
100
AcDbEntity
  8
LAY-1
  6
CONTINUOUS
 62
     7
100
AcDbLine
 10
1775.47136
 20
925.534386
 30
0.0
 11
1775.47136
 21
914.053363
 31
0.0
  0
LINE
  5
6A6
100
AcDbEntity
  8
LAY-1
  6
CONTINUOUS
 62
     7
100
AcDbLine
 10
1770.47136
 20
925.534386
 30
0.0
 11
1770.47136
 21
914.053363
 31
0.0
  0
LINE
  5
6A7
100
AcDbEntity
  8
LAY-1
  6
CONTINUOUS
 62
     7
100
AcDbLine
 10
1772.97136
 20
914.053363
 30
0.0
 11
1778.97136
 21
914.053363
 31
0.0
  0
LINE
  5
6A8
100
AcDbEntity
  8
LAY-1
  6
CONTINUOUS
 62
     7
100
AcDbLine
 10
1772.97136
 20
914.053363
 30
0.0
 11
1767.27136
 21
914.053363
 31
0.0
  0
ARC
  5
6A9
100
AcDbEntity
  8
LAY-1
  6
CONTINUOUS
 62
     7
100
AcDbCircle
 10
1864.17136
 20
1005.365981
 30
0.0
 40
15.0
100
AcDbArc
 50
0.0
 51
90.0
  0
LINE
  5
6AA
100
AcDbEntity
  8
LAY-1
  6
CONTINUOUS
 62
     7
100
AcDbLine
 10
1828.009419
 20
1020.365981
 30
0.0
 11
1864.17136
 21
1020.365981
 31
0.0
  0
LINE
  5
6AB
100
AcDbEntity
  8
LAY-1
  6
CONTINUOUS
 62
     7
100
AcDbLine
 10
1826.333086
 20
1010.365981
 30
0.0
 11
1864.17136
 21
1010.365981
 31
0.0
  0
ARC
  5
6AC
100
AcDbEntity
  8
LAY-1
  6
CONTINUOUS
 62
     7
100
AcDbCircle
 10
1864.17136
 20
1005.365981
 30
0.0
 40
5.0
100
AcDbArc
 50
0.0
 51
90.0
  0
LINE
  5
6AD
100
AcDbEntity
  8
LAY-1
  6
CONTINUOUS
 62
     7
100
AcDbLine
 10
1869.17136
 20
1005.365981
 30
0.0
 11
1869.17136
 21
985.365981
 31
0.0
  0
LINE
  5
6AE
100
AcDbEntity
  8
LAY-1
  6
CONTINUOUS
 62
     7
100
AcDbLine
 10
1864.82136
 20
985.365981
 30
0.0
 11
1883.52136
 21
985.365981
 31
0.0
  0
LINE
  5
6AF
100
AcDbEntity
  8
LAY-1
  6
CONTINUOUS
 62
     7
100
AcDbLine
 10
1883.52136
 20
985.365981
 30
0.0
 11
1883.52136
 21
982.365981
 31
0.0
  0
LINE
  5
6B0
100
AcDbEntity
  8
LAY-1
  6
CONTINUOUS
 62
     7
100
AcDbLine
 10
1864.82136
 20
985.365981
 30
0.0
 11
1864.82136
 21
982.365981
 31
0.0
  0
LINE
  5
6B1
100
AcDbEntity
  8
LAY-1
  6
CONTINUOUS
 62
     7
100
AcDbLine
 10
1885.141015
 20
981.517475
 30
0.0
 11
1885.141015
 21
971.214487
 31
0.0
  0
LINE
  5
6B2
100
AcDbEntity
  8
LAY-1
  6
CONTINUOUS
 62
     7
100
AcDbLine
 10
1863.201705
 20
981.517475
 30
0.0
 11
1863.201705
 21
971.214487
 31
0.0
  0
LINE
  5
6B3
100
AcDbEntity
  8
LAY-1
  6
CONTINUOUS
 62
     7
100
AcDbLine
 10
1867.17136
 20
970.365981
 30
0.0
 11
1867.17136
 21
968.365981
 31
0.0
  0
LINE
  5
6B4
100
AcDbEntity
  8
LAY-1
  6
CONTINUOUS
 62
     7
100
AcDbLine
 10
1881.17136
 20
970.365981
 30
0.0
 11
1881.17136
 21
968.365981
 31
0.0
  0
LINE
  5
6B5
100
AcDbEntity
  8
LAY-1
  6
CONTINUOUS
 62
     7
100
AcDbLine
 10
1879.656188
 20
981.517475
 30
0.0
 11
1879.656188
 21
971.214487
 31
0.0
  0
LINE
  5
6B6
100
AcDbEntity
  8
LAY-1
  6
CONTINUOUS
 62
     7
100
AcDbLine
 10
1868.686532
 20
981.517475
 30
0.0
 11
1868.686532
 21
971.214487
 31
0.0
  0
LINE
  5
6B7
100
AcDbEntity
  8
LAY-1
  6
CONTINUOUS
 62
     7
100
AcDbLine
 10
1885.141015
 20
971.214487
 30
0.0
 11
1883.67136
 21
970.365981
 31
0.0
  0
ARC
  5
6B8
100
AcDbEntity
  8
LAY-1
  6
CONTINUOUS
 62
     7
100
AcDbCircle
 10
1882.398601
 20
975.222044
 30
0.0
 40
4.856063
100
AcDbArc
 50
235.615753
 51
304.384247
  0
LINE
  5
6B9
100
AcDbEntity
  8
LAY-1
  6
CONTINUOUS
 62
     7
100
AcDbLine
 10
1874.17136
 20
970.365981
 30
0.0
 11
1883.67136
 21
970.365981
 31
0.0
  0
ARC
  5
6BA
100
AcDbEntity
  8
LAY-1
  6
CONTINUOUS
 62
     7
100
AcDbCircle
 10
1874.17136
 20
988.517475
 30
0.0
 40
18.151494
100
AcDbArc
 50
252.412046
 51
287.587954
  0
ARC
  5
6BB
100
AcDbEntity
  8
LAY-1
  6
CONTINUOUS
 62
     7
100
AcDbCircle
 10
1865.944119
 20
975.222044
 30
0.0
 40
4.856063
100
AcDbArc
 50
235.615753
 51
304.384247
  0
LINE
  5
6BC
100
AcDbEntity
  8
LAY-1
  6
CONTINUOUS
 62
     7
100
AcDbLine
 10
1874.17136
 20
970.365981
 30
0.0
 11
1864.67136
 21
970.365981
 31
0.0
  0
LINE
  5
6BD
100
AcDbEntity
  8
LAY-1
  6
CONTINUOUS
 62
     7
100
AcDbLine
 10
1863.201705
 20
971.214487
 30
0.0
 11
1864.67136
 21
970.365981
 31
0.0
  0
LINE
  5
6BE
100
AcDbEntity
  8
LAY-1
  6
CONTINUOUS
 62
     7
100
AcDbLine
 10
1885.141015
 20
981.517475
 30
0.0
 11
1883.67136
 21
982.365981
 31
0.0
  0
ARC
  5
6BF
100
AcDbEntity
  8
LAY-1
  6
CONTINUOUS
 62
     7
100
AcDbCircle
 10
1882.398601
 20
977.509918
 30
0.0
 40
4.856063
100
AcDbArc
 50
55.615753
 51
124.384247
  0
LINE
  5
6C0
100
AcDbEntity
  8
LAY-1
  6
CONTINUOUS
 62
     7
100
AcDbLine
 10
1874.17136
 20
982.365981
 30
0.0
 11
1883.67136
 21
982.365981
 31
0.0
  0
ARC
  5
6C1
100
AcDbEntity
  8
LAY-1
  6
CONTINUOUS
 62
     7
100
AcDbCircle
 10
1874.17136
 20
964.214487
 30
0.0
 40
18.151494
100
AcDbArc
 50
72.412046
 51
107.587954
  0
ARC
  5
6C2
100
AcDbEntity
  8
LAY-1
  6
CONTINUOUS
 62
     7
100
AcDbCircle
 10
1865.944119
 20
977.509918
 30
0.0
 40
4.856063
100
AcDbArc
 50
55.615753
 51
124.384247
  0
LINE
  5
6C3
100
AcDbEntity
  8
LAY-1
  6
CONTINUOUS
 62
     7
100
AcDbLine
 10
1874.17136
 20
982.365981
 30
0.0
 11
1864.67136
 21
982.365981
 31
0.0
  0
LINE
  5
6C4
100
AcDbEntity
  8
LAY-1
  6
CONTINUOUS
 62
     7
100
AcDbLine
 10
1863.201705
 20
981.517475
 30
0.0
 11
1864.67136
 21
982.365981
 31
0.0
  0
LINE
  5
6C5
100
AcDbEntity
  8
LAY-1
  6
CONTINUOUS
 62
     7
100
AcDbLine
 10
1874.17136
 20
961.215981
 30
0.0
 11
1884.563665
 21
961.215981
 31
0.0
  0
LINE
  5
6C6
100
AcDbEntity
  8
LAY-1
  6
CONTINUOUS
 62
     7
100
AcDbLine
 10
1874.17136
 20
961.215981
 30
0.0
 11
1863.779055
 21
961.215981
 31
0.0
  0
LINE
  5
6C7
100
AcDbEntity
  8
LAY-1
  6
CONTINUOUS
 62
     7
100
AcDbLine
 10
1863.779055
 20
967.562133
 30
0.0
 11
1863.779055
 21
961.215981
 31
0.0
  0
LINE
  5
6C8
100
AcDbEntity
  8
LAY-1
  6
CONTINUOUS
 62
     7
100
AcDbLine
 10
1868.975208
 20
967.562133
 30
0.0
 11
1868.975208
 21
961.215981
 31
0.0
  0
LINE
  5
6C9
100
AcDbEntity
  8
LAY-1
  6
CONTINUOUS
 62
     7
100
AcDbLine
 10
1884.563665
 20
967.562133
 30
0.0
 11
1884.563665
 21
961.215981
 31
0.0
  0
LINE
  5
6CA
100
AcDbEntity
  8
LAY-1
  6
CONTINUOUS
 62
     7
100
AcDbLine
 10
1879.367512
 20
967.562133
 30
0.0
 11
1879.367512
 21
961.215981
 31
0.0
  0
LINE
  5
6CB
100
AcDbEntity
  8
LAY-1
  6
CONTINUOUS
 62
     7
100
AcDbLine
 10
1883.17136
 20
968.365981
 30
0.0
 11
1874.17136
 21
968.365981
 31
0.0
  0
LINE
  5
6CC
100
AcDbEntity
  8
LAY-1
  6
CONTINUOUS
 62
     7
100
AcDbLine
 10
1884.563665
 20
967.562133
 30
0.0
 11
1883.17136
 21
968.365981
 31
0.0
  0
ARC
  5
6CD
100
AcDbEntity
  8
LAY-1
  6
CONTINUOUS
 62
     7
100
AcDbCircle
 10
1881.965589
 20
963.7655
 30
0.0
 40
4.600481
100
AcDbArc
 50
55.615753
 51
124.384247
  0
ARC
  5
6CE
100
AcDbEntity
  8
LAY-1
  6
CONTINUOUS
 62
     7
100
AcDbCircle
 10
1874.17136
 20
951.169828
 30
0.0
 40
17.196152
100
AcDbArc
 50
72.412046
 51
107.587954
  0
ARC
  5
6CF
100
AcDbEntity
  8
LAY-1
  6
CONTINUOUS
 62
     7
100
AcDbCircle
 10
1866.377131
 20
963.7655
 30
0.0
 40
4.600481
100
AcDbArc
 50
55.615753
 51
124.384247
  0
LINE
  5
6D0
100
AcDbEntity
  8
LAY-1
  6
CONTINUOUS
 62
     7
100
AcDbLine
 10
1863.779055
 20
967.562133
 30
0.0
 11
1865.17136
 21
968.365981
 31
0.0
  0
LINE
  5
6D1
100
AcDbEntity
  8
LAY-1
  6
CONTINUOUS
 62
     7
100
AcDbLine
 10
1865.17136
 20
968.365981
 30
0.0
 11
1874.17136
 21
968.365981
 31
0.0
  0
ARC
  5
6D2
100
AcDbEntity
  8
LAY-1
  6
CONTINUOUS
 62
     7
100
AcDbCircle
 10
1828.009419
 20
1005.365981
 30
0.0
 40
15.0
100
AcDbArc
 50
90.0
 51
180.0
  0
LINE
  5
6D3
100
AcDbEntity
  8
LAY-1
  6
CONTINUOUS
 62
     7
100
AcDbLine
 10
1882.700798
 20
961.215981
 30
0.0
 11
1882.553922
 21
956.51597
 31
0.0
  0
LINE
  5
6D4
100
AcDbEntity
  8
LAY-1
  6
CONTINUOUS
 62
     7
100
AcDbLine
 10
1865.641923
 20
961.215981
 30
0.0
 11
1865.788798
 21
956.51597
 31
0.0
  0
LINE
  5
6D5
100
AcDbEntity
  8
LAY-1
  6
CONTINUOUS
 62
     7
100
AcDbLine
 10
1868.054344
 20
1008.51597
 30
0.0
 11
1865.47136
 21
1008.51597
 31
0.0
  0
ARC
  5
6D6
100
AcDbEntity
  8
LAY-1
  6
CONTINUOUS
 62
     7
100
AcDbCircle
 10
1865.47136
 20
1034.310199
 30
0.0
 40
25.794229
100
AcDbArc
 50
270.0
 51
275.523263
  0
LINE
  5
6D7
100
AcDbEntity
  8
LAY-1
  6
CONTINUOUS
 62
     7
100
AcDbLine
 10
1857.677131
 20
1010.365981
 30
0.0
 11
1857.677131
 21
1009.721742
 31
0.0
  0
LINE
  5
6D8
100
AcDbEntity
  8
LAY-1
  6
CONTINUOUS
 62
     7
100
AcDbLine
 10
1857.677131
 20
1027.51597
 30
0.0
 11
1857.677131
 21
1020.365981
 31
0.0
  0
LINE
  5
6D9
100
AcDbEntity
  8
LAY-1
  6
CONTINUOUS
 62
     7
100
AcDbLine
 10
1873.265589
 20
1031.310199
 30
0.0
 11
1873.265589
 21
1017.294728
 31
0.0
  0
ARC
  5
6DA
100
AcDbEntity
  8
LAY-1
  6
CONTINUOUS
 62
     7
100
AcDbCircle
 10
1865.47136
 20
982.721742
 30
0.0
 40
25.794229
100
AcDbArc
 50
84.006695
 51
90.0
  0
LINE
  5
6DB
100
AcDbEntity
  8
LAY-1
  6
CONTINUOUS
 62
     7
100
AcDbLine
 10
1849.882903
 20
1031.310199
 30
0.0
 11
1849.882903
 21
1020.365981
 31
0.0
  0
LINE
  5
6DC
100
AcDbEntity
  8
LAY-1
  6
CONTINUOUS
 62
     7
100
AcDbLine
 10
1823.009419
 20
1004.409088
 30
0.0
 11
1823.009419
 21
954.159617
 31
0.0
  0
LINE
  5
6DD
100
AcDbEntity
  8
LAY-1
  6
CONTINUOUS
 62
     7
100
AcDbLine
 10
1813.009419
 20
1005.365981
 30
0.0
 11
1813.009419
 21
953.810409
 31
0.0
  0
LINE
  5
6DE
100
AcDbEntity
  8
LAY-1
  6
CONTINUOUS
 62
     7
100
AcDbLine
 10
1807.039764
 20
902.942881
 30
0.0
 11
1807.039764
 21
896.714476
 31
0.0
  0
LINE
  5
6DF
100
AcDbEntity
  8
LAY-1
  6
CONTINUOUS
 62
     7
100
AcDbLine
 10
1807.039764
 20
896.714476
 30
0.0
 11
1808.509419
 21
895.86597
 31
0.0
  0
LINE
  5
6E0
100
AcDbEntity
  8
LAY-1
  6
CONTINUOUS
 62
     7
100
AcDbLine
 10
1811.009419
 20
895.86597
 30
0.0
 11
1811.009419
 21
893.86597
 31
0.0
  0
LINE
  5
6E1
100
AcDbEntity
  8
LAY-1
  6
CONTINUOUS
 62
     7
100
AcDbLine
 10
1825.009419
 20
895.758228
 30
0.0
 11
1825.009419
 21
893.86597
 31
0.0
  0
LINE
  5
6E2
100
AcDbEntity
  8
LAY-1
  6
CONTINUOUS
 62
     7
100
AcDbLine
 10
1825.009419
 20
895.86597
 30
0.0
 11
1808.509419
 21
895.86597
 31
0.0
  0
LINE
  5
6E3
100
AcDbEntity
  8
LAY-1
  6
CONTINUOUS
 62
     7
100
AcDbLine
 10
1879.17136
 20
1007.01597
 30
0.0
 11
1879.17136
 21
985.365981
 31
0.0
  0
LINE
  5
6E4
100
AcDbEntity
  8
LAY-1
  6
CONTINUOUS
 62
     7
100
AcDbLine
 10
1881.059817
 20
985.365981
 30
0.0
 11
1881.059817
 21
1007.310199
 31
0.0
  0
ARC
  5
6E5
100
AcDbEntity
  8
LAY-1
  6
CONTINUOUS
 62
     7
100
AcDbCircle
 10
1885.17136
 20
954.51597
 30
0.0
 40
2.0
100
AcDbArc
 50
0.0
 51
90.0
  0
LINE
  5
6E6
100
AcDbEntity
  8
LAY-1
  6
CONTINUOUS
 62
     7
100
AcDbLine
 10
1887.17136
 20
954.51597
 30
0.0
 11
1887.17136
 21
952.053363
 31
0.0
  0
ARC
  5
6E7
100
AcDbEntity
  8
LAY-1
  6
CONTINUOUS
 62
     7
100
AcDbCircle
 10
1889.17136
 20
952.053363
 30
0.0
 40
2.0
100
AcDbArc
 50
180.0
 51
270.0
  0
LINE
  5
6E8
100
AcDbEntity
  8
LAY-1
  6
CONTINUOUS
 62
     7
100
AcDbLine
 10
1885.17136
 20
956.51597
 30
0.0
 11
1863.17136
 21
956.51597
 31
0.0
  0
ARC
  5
6E9
100
AcDbEntity
  8
LAY-1
  6
CONTINUOUS
 62
     7
100
AcDbCircle
 10
1863.17136
 20
954.51597
 30
0.0
 40
2.0
100
AcDbArc
 50
90.0
 51
180.0
  0
LINE
  5
6EA
100
AcDbEntity
  8
LAY-1
  6
CONTINUOUS
 62
     7
100
AcDbLine
 10
1926.17136
 20
950.053363
 30
0.0
 11
1860.17136
 21
950.053363
 31
0.0
  0
LINE
  5
6EB
100
AcDbEntity
  8
LAY-1
  6
CONTINUOUS
 62
     7
100
AcDbLine
 10
1852.739309
 20
956.01597
 30
0.0
 11
1861.61616
 21
956.01597
 31
0.0
  0
ARC
  5
6EC
100
AcDbEntity
  8
LAY-1
  6
CONTINUOUS
 62
     7
100
AcDbCircle
 10
1859.17136
 20
952.053363
 30
0.0
 40
2.0
100
AcDbArc
 50
270.0
 51
0.0
  0
LINE
  5
6ED
100
AcDbEntity
  8
LAY-1
  6
CONTINUOUS
 62
     7
100
AcDbLine
 10
1861.17136
 20
954.51597
 30
0.0
 11
1861.17136
 21
952.053363
 31
0.0
  0
ARC
  5
6EE
100
AcDbEntity
  8
LAY-1
  6
CONTINUOUS
 62
     7
100
AcDbCircle
 10
1847.129729
 20
912.553363
 30
0.0
 40
2.0
100
AcDbArc
 50
225.0
 51
270.0
  0
LINE
  5
6EF
100
AcDbEntity
  8
LAY-1
  6
CONTINUOUS
 62
     7
100
AcDbLine
 10
1847.129729
 20
910.553363
 30
0.0
 11
1854.17136
 21
910.553363
 31
0.0
  0
LINE
  5
6F0
100
AcDbEntity
  8
LAY-1
  6
CONTINUOUS
 62
     7
100
AcDbLine
 10
1845.715516
 20
911.13915
 30
0.0
 11
1835.757146
 21
921.097519
 31
0.0
  0
ARC
  5
6F1
100
AcDbEntity
  8
LAY-1
  6
CONTINUOUS
 62
     7
100
AcDbCircle
 10
1837.17136
 20
922.511733
 30
0.0
 40
2.0
100
AcDbArc
 50
180.0
 51
225.0
  0
LINE
  5
6F2
100
AcDbEntity
  8
LAY-1
  6
CONTINUOUS
 62
     7
100
AcDbLine
 10
1835.17136
 20
922.511733
 30
0.0
 11
1835.17136
 21
936.594994
 31
0.0
  0
ARC
  5
6F3
100
AcDbEntity
  8
LAY-1
  6
CONTINUOUS
 62
     7
100
AcDbCircle
 10
1837.17136
 20
936.594994
 30
0.0
 40
2.0
100
AcDbArc
 50
135.0
 51
180.0
  0
LINE
  5
6F4
100
AcDbEntity
  8
LAY-1
  6
CONTINUOUS
 62
     7
100
AcDbLine
 10
1835.757146
 20
938.009207
 30
0.0
 11
1845.715516
 21
947.967577
 31
0.0
  0
ARC
  5
6F5
100
AcDbEntity
  8
LAY-1
  6
CONTINUOUS
 62
     7
100
AcDbCircle
 10
1847.129729
 20
946.553363
 30
0.0
 40
2.0
100
AcDbArc
 50
90.0
 51
135.0
  0
LINE
  5
6F6
100
AcDbEntity
  8
LAY-1
  6
CONTINUOUS
 62
     7
100
AcDbLine
 10
1847.129729
 20
948.553363
 30
0.0
 11
1854.17136
 21
948.553363
 31
0.0
  0
ARC
  5
6F7
100
AcDbEntity
  8
LAY-1
  6
CONTINUOUS
 62
     7
100
AcDbCircle
 10
1861.212991
 20
912.553363
 30
0.0
 40
2.0
100
AcDbArc
 50
270.0
 51
315.0
  0
LINE
  5
6F8
100
AcDbEntity
  8
LAY-1
  6
CONTINUOUS
 62
     7
100
AcDbLine
 10
1861.212991
 20
910.553363
 30
0.0
 11
1854.17136
 21
910.553363
 31
0.0
  0
LINE
  5
6F9
100
AcDbEntity
  8
LAY-1
  6
CONTINUOUS
 62
     7
100
AcDbLine
 10
1862.627204
 20
911.13915
 30
0.0
 11
1872.585574
 21
921.097519
 31
0.0
  0
ARC
  5
6FA
100
AcDbEntity
  8
LAY-1
  6
CONTINUOUS
 62
     7
100
AcDbCircle
 10
1871.17136
 20
922.511733
 30
0.0
 40
2.0
100
AcDbArc
 50
315.0
 51
0.0
  0
LINE
  5
6FB
100
AcDbEntity
  8
LAY-1
  6
CONTINUOUS
 62
     7
100
AcDbLine
 10
1873.17136
 20
922.511733
 30
0.0
 11
1873.17136
 21
936.594994
 31
0.0
  0
ARC
  5
6FC
100
AcDbEntity
  8
LAY-1
  6
CONTINUOUS
 62
     7
100
AcDbCircle
 10
1871.17136
 20
936.594994
 30
0.0
 40
2.0
100
AcDbArc
 50
0.0
 51
45.0
  0
LINE
  5
6FD
100
AcDbEntity
  8
LAY-1
  6
CONTINUOUS
 62
     7
100
AcDbLine
 10
1872.585574
 20
938.009207
 30
0.0
 11
1862.627204
 21
947.967577
 31
0.0
  0
ARC
  5
6FE
100
AcDbEntity
  8
LAY-1
  6
CONTINUOUS
 62
     7
100
AcDbCircle
 10
1861.212991
 20
946.553363
 30
0.0
 40
2.0
100
AcDbArc
 50
45.0
 51
90.0
  0
LINE
  5
6FF
100
AcDbEntity
  8
LAY-1
  6
CONTINUOUS
 62
     7
100
AcDbLine
 10
1861.212991
 20
948.553363
 30
0.0
 11
1854.17136
 21
948.553363
 31
0.0
  0
LINE
  5
700
100
AcDbEntity
  8
LAY-1
  6
CONTINUOUS
 62
     7
100
AcDbLine
 10
1888.17136
 20
925.41597
 30
0.0
 11
1873.17136
 21
925.41597
 31
0.0
  0
LINE
  5
701
100
AcDbEntity
  8
LAY-1
  6
CONTINUOUS
 62
     7
100
AcDbLine
 10
1852.17136
 20
957.51597
 30
0.0
 11
1852.17136
 21
948.553363
 31
0.0
  0
LINE
  5
702
100
AcDbEntity
  8
LAY-1
  6
CONTINUOUS
 62
     7
100
AcDbLine
 10
1841.17136
 20
943.423421
 30
0.0
 11
1841.17136
 21
954.795038
 31
0.0
  0
LINE
  5
703
100
AcDbEntity
  8
LAY-1
  6
CONTINUOUS
 62
     7
100
AcDbLine
 10
1841.17136
 20
901.669816
 30
0.0
 11
1841.17136
 21
915.683306
 31
0.0
  0
LINE
  5
704
100
AcDbEntity
  8
LAY-1
  6
CONTINUOUS
 62
     7
100
AcDbLine
 10
1852.17136
 20
910.553363
 30
0.0
 11
1852.17136
 21
906.262354
 31
0.0
  0
LINE
  5
705
100
AcDbEntity
  8
LAY-1
  6
CONTINUOUS
 62
     7
100
AcDbLine
 10
1832.17136
 20
963.01597
 30
0.0
 11
1832.17136
 21
884.553363
 31
0.0
  0
ARC
  5
706
100
AcDbEntity
  8
LAY-1
  6
CONTINUOUS
 62
     7
100
AcDbCircle
 10
1926.17136
 20
886.553363
 30
0.0
 40
2.0
100
AcDbArc
 50
270.0
 51
300.0
  0
LINE
  5
707
100
AcDbEntity
  8
LAY-1
  6
CONTINUOUS
 62
     7
100
AcDbLine
 10
1927.17136
 20
949.785414
 30
0.0
 11
1927.17136
 21
884.821312
 31
0.0
  0
LINE
  5
708
100
AcDbEntity
  8
LAY-1
  6
CONTINUOUS
 62
     7
100
AcDbLine
 10
1926.17136
 20
884.553363
 30
0.0
 11
1917.47136
 21
884.553363
 31
0.0
  0
LINE
  5
709
100
AcDbEntity
  8
LAY-1
  6
CONTINUOUS
 62
     7
100
AcDbLine
 10
1846.47136
 20
884.553363
 30
0.0
 11
1832.17136
 21
884.553363
 31
0.0
  0
ARC
  5
70A
100
AcDbEntity
  8
LAY-1
  6
CONTINUOUS
 62
     7
100
AcDbCircle
 10
1765.97136
 20
877.053363
 30
0.0
 40
3.0
100
AcDbArc
 50
180.0
 51
270.0
  0
LINE
  5
70B
100
AcDbEntity
  8
LAY-1
  6
CONTINUOUS
 62
     7
100
AcDbLine
 10
1762.97136
 20
883.753363
 30
0.0
 11
1762.97136
 21
877.053363
 31
0.0
  0
LINE
  5
70C
100
AcDbEntity
  8
LAY-1
  6
CONTINUOUS
 62
     7
100
AcDbLine
 10
1763.27136
 20
884.053363
 30
0.0
 11
1762.97136
 21
883.753363
 31
0.0
  0
LINE
  5
70D
100
AcDbEntity
  8
LAY-1
  6
CONTINUOUS
 62
     7
100
AcDbLine
 10
1908.47136
 20
882.37633
 30
0.0
 11
1914.57136
 21
882.37633
 31
0.0
  0
LINE
  5
70E
100
AcDbEntity
  8
LAY-1
  6
CONTINUOUS
 62
     7
100
AcDbLine
 10
1911.358111
 20
886.943317
 30
0.0
 11
1911.358111
 21
882.37633
 31
0.0
  0
LINE
  5
70F
100
AcDbEntity
  8
LAY-1
  6
CONTINUOUS
 62
     7
100
AcDbLine
 10
1914.22136
 20
886.943317
 30
0.0
 11
1914.22136
 21
882.37633
 31
0.0
  0
ARC
  5
710
100
AcDbEntity
  8
LAY-1
  6
CONTINUOUS
 62
     7
100
AcDbCircle
 10
1908.47136
 20
877.537319
 30
0.0
 40
9.839011
100
AcDbArc
 50
72.938469
 51
107.061531
  0
ARC
  5
711
100
AcDbEntity
  8
LAY-1
  6
CONTINUOUS
 62
     7
100
AcDbCircle
 10
1912.789736
 20
884.793209
 30
0.0
 40
2.583121
100
AcDbArc
 50
56.342803
 51
123.657197
  0
LINE
  5
712
100
AcDbEntity
  8
LAY-1
  6
CONTINUOUS
 62
     7
100
AcDbLine
 10
1908.47136
 20
887.37633
 30
0.0
 11
1913.47136
 21
887.37633
 31
0.0
  0
LINE
  5
713
100
AcDbEntity
  8
LAY-1
  6
CONTINUOUS
 62
     7
100
AcDbLine
 10
1913.47136
 20
887.37633
 30
0.0
 11
1914.22136
 21
886.943317
 31
0.0
  0
LINE
  5
714
100
AcDbEntity
  8
LAY-1
  6
CONTINUOUS
 62
     7
100
AcDbLine
 10
1911.47136
 20
890.33483
 30
0.0
 11
1911.47136
 21
887.37633
 31
0.0
  0
LINE
  5
715
100
AcDbEntity
  8
LAY-1
  6
CONTINUOUS
 62
     7
100
AcDbLine
 10
1908.47136
 20
890.87633
 30
0.0
 11
1910.92986
 21
890.87633
 31
0.0
  0
LINE
  5
716
100
AcDbEntity
  8
LAY-1
  6
CONTINUOUS
 62
     7
100
AcDbLine
 10
1910.92986
 20
890.87633
 30
0.0
 11
1911.47136
 21
890.33483
 31
0.0
  0
LINE
  5
717
100
AcDbEntity
  8
LAY-1
  6
CONTINUOUS
 62
     7
100
AcDbLine
 10
1909.97136
 20
882.37633
 30
0.0
 11
1908.608605
 21
881.013575
 31
0.0
  0
LINE
  5
718
100
AcDbEntity
  8
LAY-1
  6
CONTINUOUS
 62
     7
100
AcDbLine
 10
1914.57136
 20
881.01597
 30
0.0
 11
1914.57136
 21
882.37633
 31
0.0
  0
LINE
  5
719
100
AcDbEntity
  8
LAY-1
  6
CONTINUOUS
 62
     7
100
AcDbLine
 10
1906.01286
 20
890.87633
 30
0.0
 11
1906.01286
 21
887.37633
 31
0.0
  0
LINE
  5
71A
100
AcDbEntity
  8
LAY-1
  6
CONTINUOUS
 62
     7
100
AcDbLine
 10
1908.47136
 20
882.37633
 30
0.0
 11
1902.37136
 21
882.37633
 31
0.0
  0
LINE
  5
71B
100
AcDbEntity
  8
LAY-1
  6
CONTINUOUS
 62
     7
100
AcDbLine
 10
1902.72136
 20
886.943317
 30
0.0
 11
1902.72136
 21
882.37633
 31
0.0
  0
ARC
  5
71C
100
AcDbEntity
  8
LAY-1
  6
CONTINUOUS
 62
     7
100
AcDbCircle
 10
1904.152984
 20
884.793209
 30
0.0
 40
2.583121
100
AcDbArc
 50
56.342803
 51
123.657197
  0
LINE
  5
71D
100
AcDbEntity
  8
LAY-1
  6
CONTINUOUS
 62
     7
100
AcDbLine
 10
1908.47136
 20
887.37633
 30
0.0
 11
1903.47136
 21
887.37633
 31
0.0
  0
LINE
  5
71E
100
AcDbEntity
  8
LAY-1
  6
CONTINUOUS
 62
     7
100
AcDbLine
 10
1903.47136
 20
887.37633
 30
0.0
 11
1902.72136
 21
886.943317
 31
0.0
  0
LINE
  5
71F
100
AcDbEntity
  8
LAY-1
  6
CONTINUOUS
 62
     7
100
AcDbLine
 10
1905.47136
 20
890.33483
 30
0.0
 11
1905.47136
 21
887.37633
 31
0.0
  0
LINE
  5
720
100
AcDbEntity
  8
LAY-1
  6
CONTINUOUS
 62
     7
100
AcDbLine
 10
1908.47136
 20
890.87633
 30
0.0
 11
1906.01286
 21
890.87633
 31
0.0
  0
LINE
  5
721
100
AcDbEntity
  8
LAY-1
  6
CONTINUOUS
 62
     7
100
AcDbLine
 10
1906.01286
 20
890.87633
 30
0.0
 11
1905.47136
 21
890.33483
 31
0.0
  0
LINE
  5
722
100
AcDbEntity
  8
LAY-1
  6
CONTINUOUS
 62
     7
100
AcDbLine
 10
1907.134338
 20
881.039308
 30
0.0
 11
1908.47136
 21
882.37633
 31
0.0
  0
LINE
  5
723
100
AcDbEntity
  8
LAY-1
  6
CONTINUOUS
 62
     7
100
AcDbLine
 10
1902.37136
 20
881.122446
 30
0.0
 11
1902.37136
 21
882.37633
 31
0.0
  0
LINE
  5
724
100
AcDbEntity
  8
LAY-1
  6
CONTINUOUS
 62
     7
100
AcDbLine
 10
1905.584609
 20
886.943317
 30
0.0
 11
1905.584609
 21
882.37633
 31
0.0
  0
LINE
  5
725
100
AcDbEntity
  8
LAY-1
  6
CONTINUOUS
 62
     7
100
AcDbLine
 10
1857.92986
 20
890.87633
 30
0.0
 11
1857.92986
 21
887.37633
 31
0.0
  0
LINE
  5
726
100
AcDbEntity
  8
LAY-1
  6
CONTINUOUS
 62
     7
100
AcDbLine
 10
1853.01286
 20
890.87633
 30
0.0
 11
1853.01286
 21
887.37633
 31
0.0
  0
LINE
  5
727
100
AcDbEntity
  8
LAY-1
  6
CONTINUOUS
 62
     7
100
AcDbLine
 10
1855.47136
 20
882.37633
 30
0.0
 11
1861.57136
 21
882.37633
 31
0.0
  0
LINE
  5
728
100
AcDbEntity
  8
LAY-1
  6
CONTINUOUS
 62
     7
100
AcDbLine
 10
1855.47136
 20
882.37633
 30
0.0
 11
1849.37136
 21
882.37633
 31
0.0
  0
LINE
  5
729
100
AcDbEntity
  8
LAY-1
  6
CONTINUOUS
 62
     7
100
AcDbLine
 10
1861.22136
 20
886.943317
 30
0.0
 11
1861.22136
 21
882.37633
 31
0.0
  0
LINE
  5
72A
100
AcDbEntity
  8
LAY-1
  6
CONTINUOUS
 62
     7
100
AcDbLine
 10
1852.584609
 20
886.943317
 30
0.0
 11
1852.584609
 21
882.37633
 31
0.0
  0
LINE
  5
72B
100
AcDbEntity
  8
LAY-1
  6
CONTINUOUS
 62
     7
100
AcDbLine
 10
1849.72136
 20
886.943317
 30
0.0
 11
1849.72136
 21
882.37633
 31
0.0
  0
ARC
  5
72C
100
AcDbEntity
  8
LAY-1
  6
CONTINUOUS
 62
     7
100
AcDbCircle
 10
1855.47136
 20
877.537319
 30
0.0
 40
9.839011
100
AcDbArc
 50
72.938469
 51
107.061531
  0
ARC
  5
72D
100
AcDbEntity
  8
LAY-1
  6
CONTINUOUS
 62
     7
100
AcDbCircle
 10
1859.789736
 20
884.793209
 30
0.0
 40
2.583121
100
AcDbArc
 50
56.342803
 51
123.657197
  0
LINE
  5
72E
100
AcDbEntity
  8
LAY-1
  6
CONTINUOUS
 62
     7
100
AcDbLine
 10
1860.47136
 20
887.37633
 30
0.0
 11
1861.22136
 21
886.943317
 31
0.0
  0
ARC
  5
72F
100
AcDbEntity
  8
LAY-1
  6
CONTINUOUS
 62
     7
100
AcDbCircle
 10
1851.152984
 20
884.793209
 30
0.0
 40
2.583121
100
AcDbArc
 50
56.342803
 51
123.657197
  0
LINE
  5
730
100
AcDbEntity
  8
LAY-1
  6
CONTINUOUS
 62
     7
100
AcDbLine
 10
1855.47136
 20
887.37633
 30
0.0
 11
1850.47136
 21
887.37633
 31
0.0
  0
LINE
  5
731
100
AcDbEntity
  8
LAY-1
  6
CONTINUOUS
 62
     7
100
AcDbLine
 10
1850.47136
 20
887.37633
 30
0.0
 11
1849.72136
 21
886.943317
 31
0.0
  0
LINE
  5
732
100
AcDbEntity
  8
LAY-1
  6
CONTINUOUS
 62
     7
100
AcDbLine
 10
1858.47136
 20
890.33483
 30
0.0
 11
1858.47136
 21
887.37633
 31
0.0
  0
LINE
  5
733
100
AcDbEntity
  8
LAY-1
  6
CONTINUOUS
 62
     7
100
AcDbLine
 10
1852.47136
 20
890.33483
 30
0.0
 11
1852.47136
 21
887.37633
 31
0.0
  0
LINE
  5
734
100
AcDbEntity
  8
LAY-1
  6
CONTINUOUS
 62
     7
100
AcDbLine
 10
1855.47136
 20
890.87633
 30
0.0
 11
1853.01286
 21
890.87633
 31
0.0
  0
LINE
  5
735
100
AcDbEntity
  8
LAY-1
  6
CONTINUOUS
 62
     7
100
AcDbLine
 10
1853.01286
 20
890.87633
 30
0.0
 11
1852.47136
 21
890.33483
 31
0.0
  0
LINE
  5
736
100
AcDbEntity
  8
LAY-1
  6
CONTINUOUS
 62
     7
100
AcDbLine
 10
1855.47136
 20
890.87633
 30
0.0
 11
1857.92986
 21
890.87633
 31
0.0
  0
LINE
  5
737
100
AcDbEntity
  8
LAY-1
  6
CONTINUOUS
 62
     7
100
AcDbLine
 10
1857.92986
 20
890.87633
 30
0.0
 11
1858.47136
 21
890.33483
 31
0.0
  0
LINE
  5
738
100
AcDbEntity
  8
LAY-1
  6
CONTINUOUS
 62
     7
100
AcDbLine
 10
1853.97136
 20
882.37633
 30
0.0
 11
1855.334115
 21
881.013575
 31
0.0
  0
LINE
  5
739
100
AcDbEntity
  8
LAY-1
  6
CONTINUOUS
 62
     7
100
AcDbLine
 10
1856.808382
 20
881.039308
 30
0.0
 11
1855.47136
 21
882.37633
 31
0.0
  0
LINE
  5
73A
100
AcDbEntity
  8
LAY-1
  6
CONTINUOUS
 62
     7
100
AcDbLine
 10
1861.57136
 20
881.122446
 30
0.0
 11
1861.57136
 21
882.37633
 31
0.0
  0
LINE
  5
73B
100
AcDbEntity
  8
LAY-1
  6
CONTINUOUS
 62
     7
100
AcDbLine
 10
1849.37136
 20
881.01597
 30
0.0
 11
1849.37136
 21
882.37633
 31
0.0
  0
LINE
  5
73C
100
AcDbEntity
  8
LAY-1
  6
CONTINUOUS
 62
     7
100
AcDbLine
 10
1858.358111
 20
886.01597
 30
0.0
 11
1858.358111
 21
882.37633
 31
0.0
  0
LINE
  5
73D
100
AcDbEntity
  8
LAY-1
  6
CONTINUOUS
 62
     7
100
AcDbLine
 10
1858.358111
 20
886.943317
 30
0.0
 11
1858.358111
 21
885.85597
 31
0.0
  0
LINE
  5
73E
100
AcDbEntity
  8
LAY-1
  6
CONTINUOUS
 62
     7
100
AcDbLine
 10
1855.47136
 20
887.37633
 30
0.0
 11
1860.47136
 21
887.37633
 31
0.0
  0
ARC
  5
73F
100
AcDbEntity
  8
LAY-1
  6
CONTINUOUS
 62
     7
100
AcDbCircle
 10
1830.009419
 20
1004.409088
 30
0.0
 40
7.0
100
AcDbArc
 50
121.681068
 51
180.0
  0
LINE
  5
740
100
AcDbEntity
  8
LAY-1
  6
CONTINUOUS
 62
     7
100
AcDbLine
 10
1766.97136
 20
913.753363
 30
0.0
 11
1766.97136
 21
884.053363
 31
0.0
  0
LINE
  5
741
100
AcDbEntity
  8
LAY-1
  6
CONTINUOUS
 62
     7
100
AcDbLine
 10
1782.47136
 20
884.053363
 30
0.0
 11
1763.27136
 21
884.053363
 31
0.0
  0
LINE
  5
742
100
AcDbEntity
  8
LAY-1
  6
CONTINUOUS
 62
     7
100
AcDbLine
 10
1778.97136
 20
913.753363
 30
0.0
 11
1778.97136
 21
884.053363
 31
0.0
  0
ARC
  5
743
100
AcDbEntity
  8
LAY-1
  6
CONTINUOUS
 62
     7
100
AcDbCircle
 10
1779.97136
 20
877.053363
 30
0.0
 40
3.0
100
AcDbArc
 50
270.0
 51
0.0
  0
LINE
  5
744
100
AcDbEntity
  8
LAY-1
  6
CONTINUOUS
 62
     7
100
AcDbLine
 10
1782.97136
 20
883.753363
 30
0.0
 11
1782.97136
 21
877.053363
 31
0.0
  0
LINE
  5
745
100
AcDbEntity
  8
LAY-1
  6
CONTINUOUS
 62
     7
100
AcDbLine
 10
1782.67136
 20
884.053363
 30
0.0
 11
1782.97136
 21
883.753363
 31
0.0
  0
LINE
  5
746
100
AcDbEntity
  8
LAY-1
  6
CONTINUOUS
 62
     7
100
AcDbLine
 10
1779.97136
 20
874.053363
 30
0.0
 11
1765.67136
 21
874.053363
 31
0.0
  0
LINE
  5
747
100
AcDbEntity
  8
LAY-1
  6
CONTINUOUS
 62
     7
100
AcDbLine
 10
1782.32136
 20
861.01597
 30
0.0
 11
1968.62136
 21
861.01597
 31
0.0
  0
LINE
  5
748
100
AcDbEntity
  8
LAY-1
  6
CONTINUOUS
 62
     7
100
AcDbLine
 10
1782.32136
 20
481.01597
 30
0.0
 11
1782.32136
 21
516.427308
 31
0.0
  0
LINE
  5
749
100
AcDbEntity
  8
LAY-1
  6
CONTINUOUS
 62
     7
100
AcDbLine
 10
1755.32136
 20
531.01597
 30
0.0
 11
1988.87136
 21
531.01597
 31
0.0
  0
LINE
  5
74A
100
AcDbEntity
  8
LAY-1
  6
CONTINUOUS
 62
     7
100
AcDbLine
 10
1762.07136
 20
529.01597
 30
0.0
 11
1995.62136
 21
529.01597
 31
0.0
  0
LINE
  5
74B
100
AcDbEntity
  8
LAY-1
  6
CONTINUOUS
 62
     7
100
AcDbLine
 10
1752.32136
 20
516.01597
 30
0.0
 11
1986.07136
 21
516.01597
 31
0.0
  0
LINE
  5
74C
100
AcDbEntity
  8
LAY-1
  6
CONTINUOUS
 62
     7
100
AcDbLine
 10
1968.62136
 20
516.01597
 30
0.0
 11
1968.62136
 21
481.01597
 31
0.0
  0
LINE
  5
74D
100
AcDbEntity
  8
LAY-1
  6
CONTINUOUS
 62
     7
100
AcDbLine
 10
1782.32136
 20
489.01597
 30
0.0
 11
1968.62136
 21
489.01597
 31
0.0
  0
LINE
  5
74E
100
AcDbEntity
  8
LAY-1
  6
CONTINUOUS
 62
     7
100
AcDbLine
 10
1782.32136
 20
486.01597
 30
0.0
 11
1968.62136
 21
486.01597
 31
0.0
  0
CIRCLE
  5
74F
100
AcDbEntity
  8
LAY-1
  6
CONTINUOUS
 62
     7
100
AcDbCircle
 10
1978.62136
 20
493.01597
 30
0.0
 40
5.0
  0
CIRCLE
  5
750
100
AcDbEntity
  8
LAY-1
  6
CONTINUOUS
 62
     7
100
AcDbCircle
 10
1772.32136
 20
493.01597
 30
0.0
 40
5.0
  0
LINE
  5
751
100
AcDbEntity
  8
LAY-1
  6
CONTINUOUS
 62
     7
100
AcDbLine
 10
1747.32136
 20
835.51597
 30
0.0
 11
1747.32136
 21
823.01597
 31
0.0
  0
LINE
  5
752
100
AcDbEntity
  8
LAY-1
  6
CONTINUOUS
 62
     7
100
AcDbLine
 10
1738.82136
 20
835.01597
 30
0.0
 11
1747.32136
 21
835.51597
 31
0.0
  0
LINE
  5
753
100
AcDbEntity
  8
LAY-1
  6
CONTINUOUS
 62
     7
100
AcDbLine
 10
1747.32136
 20
833.01597
 30
0.0
 11
1749.82136
 21
833.01597
 31
0.0
  0
LINE
  5
754
100
AcDbEntity
  8
LAY-1
  6
CONTINUOUS
 62
     7
100
AcDbLine
 10
1738.82136
 20
811.01597
 30
0.0
 11
1747.32136
 21
810.51597
 31
0.0
  0
LINE
  5
755
100
AcDbEntity
  8
LAY-1
  6
CONTINUOUS
 62
     7
100
AcDbLine
 10
1747.32136
 20
813.01597
 30
0.0
 11
1749.82136
 21
813.01597
 31
0.0
  0
ARC
  5
756
100
AcDbEntity
  8
LAY-1
  6
CONTINUOUS
 62
     7
100
AcDbCircle
 10
1773.82136
 20
823.01597
 30
0.0
 40
37.0
100
AcDbArc
 50
161.075356
 51
198.924644
  0
LINE
  5
757
100
AcDbEntity
  8
LAY-1
  6
CONTINUOUS
 62
     7
100
AcDbLine
 10
1738.82136
 20
835.01597
 30
0.0
 11
1738.82136
 21
811.01597
 31
0.0
  0
LINE
  5
758
100
AcDbEntity
  8
LAY-1
  6
CONTINUOUS
 62
     7
100
AcDbLine
 10
1747.32136
 20
810.51597
 30
0.0
 11
1747.32136
 21
823.01597
 31
0.0
  0
ARC
  5
759
100
AcDbEntity
  8
LAY-1
  6
CONTINUOUS
 62
     7
100
AcDbCircle
 10
1755.32136
 20
828.01597
 30
0.0
 40
3.0
100
AcDbArc
 50
90.0
 51
180.0
  0
ARC
  5
75A
100
AcDbEntity
  8
LAY-1
  6
CONTINUOUS
 62
     7
100
AcDbCircle
 10
1755.32136
 20
828.01597
 30
0.0
 40
1.0
100
AcDbArc
 50
90.0
 51
180.0
  0
LINE
  5
75B
100
AcDbEntity
  8
LAY-1
  6
CONTINUOUS
 62
     7
100
AcDbLine
 10
1754.32136
 20
816.01597
 30
0.0
 11
1754.32136
 21
828.01597
 31
0.0
  0
LINE
  5
75C
100
AcDbEntity
  8
LAY-1
  6
CONTINUOUS
 62
     7
100
AcDbLine
 10
1752.32136
 20
816.01597
 30
0.0
 11
1752.32136
 21
828.01597
 31
0.0
  0
LINE
  5
75D
100
AcDbEntity
  8
LAY-1
  6
CONTINUOUS
 62
     7
100
AcDbLine
 10
1747.32136
 20
535.51597
 30
0.0
 11
1747.32136
 21
523.01597
 31
0.0
  0
LINE
  5
75E
100
AcDbEntity
  8
LAY-1
  6
CONTINUOUS
 62
     7
100
AcDbLine
 10
1738.82136
 20
535.01597
 30
0.0
 11
1747.32136
 21
535.51597
 31
0.0
  0
LINE
  5
75F
100
AcDbEntity
  8
LAY-1
  6
CONTINUOUS
 62
     7
100
AcDbLine
 10
1747.32136
 20
533.01597
 30
0.0
 11
1749.82136
 21
533.01597
 31
0.0
  0
LINE
  5
760
100
AcDbEntity
  8
LAY-1
  6
CONTINUOUS
 62
     7
100
AcDbLine
 10
1738.82136
 20
511.01597
 30
0.0
 11
1747.32136
 21
510.51597
 31
0.0
  0
LINE
  5
761
100
AcDbEntity
  8
LAY-1
  6
CONTINUOUS
 62
     7
100
AcDbLine
 10
1747.32136
 20
513.01597
 30
0.0
 11
1749.82136
 21
513.01597
 31
0.0
  0
ARC
  5
762
100
AcDbEntity
  8
LAY-1
  6
CONTINUOUS
 62
     7
100
AcDbCircle
 10
1773.82136
 20
523.01597
 30
0.0
 40
37.0
100
AcDbArc
 50
161.075356
 51
198.924644
  0
LINE
  5
763
100
AcDbEntity
  8
LAY-1
  6
CONTINUOUS
 62
     7
100
AcDbLine
 10
1738.82136
 20
535.01597
 30
0.0
 11
1738.82136
 21
511.01597
 31
0.0
  0
LINE
  5
764
100
AcDbEntity
  8
LAY-1
  6
CONTINUOUS
 62
     7
100
AcDbLine
 10
1747.32136
 20
510.51597
 30
0.0
 11
1747.32136
 21
523.01597
 31
0.0
  0
LINE
  5
765
100
AcDbEntity
  8
LAY-1
  6
CONTINUOUS
 62
     7
100
AcDbLine
 10
1752.32136
 20
516.01597
 30
0.0
 11
1752.32136
 21
528.01597
 31
0.0
  0
LINE
  5
766
100
AcDbEntity
  8
LAY-1
  6
CONTINUOUS
 62
     7
100
AcDbLine
 10
2003.62136
 20
535.51597
 30
0.0
 11
2003.62136
 21
523.01597
 31
0.0
  0
LINE
  5
767
100
AcDbEntity
  8
LAY-1
  6
CONTINUOUS
 62
     7
100
AcDbLine
 10
2012.12136
 20
535.01597
 30
0.0
 11
2003.62136
 21
535.51597
 31
0.0
  0
LINE
  5
768
100
AcDbEntity
  8
LAY-1
  6
CONTINUOUS
 62
     7
100
AcDbLine
 10
2003.62136
 20
533.01597
 30
0.0
 11
2001.12136
 21
533.01597
 31
0.0
  0
LINE
  5
769
100
AcDbEntity
  8
LAY-1
  6
CONTINUOUS
 62
     7
100
AcDbLine
 10
2012.12136
 20
511.01597
 30
0.0
 11
2003.62136
 21
510.51597
 31
0.0
  0
LINE
  5
76A
100
AcDbEntity
  8
LAY-1
  6
CONTINUOUS
 62
     7
100
AcDbLine
 10
2003.62136
 20
513.01597
 30
0.0
 11
2001.12136
 21
513.01597
 31
0.0
  0
ARC
  5
76B
100
AcDbEntity
  8
LAY-1
  6
CONTINUOUS
 62
     7
100
AcDbCircle
 10
1977.12136
 20
523.01597
 30
0.0
 40
37.0
100
AcDbArc
 50
341.075356
 51
18.924644
  0
LINE
  5
76C
100
AcDbEntity
  8
LAY-1
  6
CONTINUOUS
 62
     7
100
AcDbLine
 10
2012.12136
 20
535.01597
 30
0.0
 11
2012.12136
 21
511.01597
 31
0.0
  0
LINE
  5
76D
100
AcDbEntity
  8
LAY-1
  6
CONTINUOUS
 62
     7
100
AcDbLine
 10
2003.62136
 20
510.51597
 30
0.0
 11
2003.62136
 21
523.01597
 31
0.0
  0
LINE
  5
76E
100
AcDbEntity
  8
LAY-1
  6
CONTINUOUS
 62
     7
100
AcDbLine
 10
1988.62136
 20
544.01597
 30
0.0
 11
1988.62136
 21
809.01597
 31
0.0
  0
LINE
  5
76F
100
AcDbEntity
  8
LAY-1
  6
CONTINUOUS
 62
     7
100
AcDbLine
 10
1762.32136
 20
544.01597
 30
0.0
 11
1762.32136
 21
809.01597
 31
0.0
  0
LINE
  5
770
100
AcDbEntity
  8
LAY-1
  6
CONTINUOUS
 62
     7
100
AcDbLine
 10
2003.62136
 20
835.51597
 30
0.0
 11
2003.62136
 21
823.01597
 31
0.0
  0
LINE
  5
771
100
AcDbEntity
  8
LAY-1
  6
CONTINUOUS
 62
     7
100
AcDbLine
 10
2012.12136
 20
835.01597
 30
0.0
 11
2003.62136
 21
835.51597
 31
0.0
  0
LINE
  5
772
100
AcDbEntity
  8
LAY-1
  6
CONTINUOUS
 62
     7
100
AcDbLine
 10
2003.62136
 20
833.01597
 30
0.0
 11
2001.12136
 21
833.01597
 31
0.0
  0
LINE
  5
773
100
AcDbEntity
  8
LAY-1
  6
CONTINUOUS
 62
     7
100
AcDbLine
 10
2012.12136
 20
811.01597
 30
0.0
 11
2003.62136
 21
810.51597
 31
0.0
  0
LINE
  5
774
100
AcDbEntity
  8
LAY-1
  6
CONTINUOUS
 62
     7
100
AcDbLine
 10
2003.62136
 20
813.01597
 30
0.0
 11
2001.12136
 21
813.01597
 31
0.0
  0
ARC
  5
775
100
AcDbEntity
  8
LAY-1
  6
CONTINUOUS
 62
     7
100
AcDbCircle
 10
1977.12136
 20
823.01597
 30
0.0
 40
37.0
100
AcDbArc
 50
341.075356
 51
18.924644
  0
LINE
  5
776
100
AcDbEntity
  8
LAY-1
  6
CONTINUOUS
 62
     7
100
AcDbLine
 10
2012.12136
 20
835.01597
 30
0.0
 11
2012.12136
 21
811.01597
 31
0.0
  0
LINE
  5
777
100
AcDbEntity
  8
LAY-1
  6
CONTINUOUS
 62
     7
100
AcDbLine
 10
2003.62136
 20
810.51597
 30
0.0
 11
2003.62136
 21
823.01597
 31
0.0
  0
LINE
  5
778
100
AcDbEntity
  8
LAY-1
  6
CONTINUOUS
 62
     7
100
AcDbLine
 10
1988.62136
 20
809.01597
 30
0.0
 11
1762.32136
 21
809.01597
 31
0.0
  0
LINE
  5
779
100
AcDbEntity
  8
LAY-1
  6
CONTINUOUS
 62
     7
100
AcDbLine
 10
1767.32136
 20
816.01597
 30
0.0
 11
1767.32136
 21
809.01597
 31
0.0
  0
LINE
  5
77A
100
AcDbEntity
  8
LAY-1
  6
CONTINUOUS
 62
     7
100
AcDbLine
 10
1767.32136
 20
544.01597
 30
0.0
 11
1767.32136
 21
531.01597
 31
0.0
  0
LINE
  5
77B
100
AcDbEntity
  8
LAY-1
  6
CONTINUOUS
 62
     7
100
AcDbLine
 10
1983.62136
 20
816.01597
 30
0.0
 11
1983.62136
 21
809.01597
 31
0.0
  0
LINE
  5
77C
100
AcDbEntity
  8
LAY-1
  6
CONTINUOUS
 62
     7
100
AcDbLine
 10
1983.62136
 20
544.01597
 30
0.0
 11
1983.62136
 21
531.01597
 31
0.0
  0
LINE
  5
77D
100
AcDbEntity
  8
LAY-1
  6
CONTINUOUS
 62
     7
100
AcDbLine
 10
1988.62136
 20
544.01597
 30
0.0
 11
1762.32136
 21
544.01597
 31
0.0
  0
LINE
  5
77E
100
AcDbEntity
  8
LAY-1
  6
EXLTYPE3
 62
     1
100
AcDbLine
 10
1881.97136
 20
486.01597
 30
0.0
 11
1881.97136
 21
410.727308
 31
0.0
  0
LINE
  5
77F
100
AcDbEntity
  8
LAY-1
  6
EXLTYPE3
 62
     1
100
AcDbLine
 10
1875.47136
 20
1095.927308
 30
0.0
 11
1875.47136
 21
378.927308
 31
0.0
  0
TEXT
  5
780
100
AcDbEntity
  8
LAY-2
  6
CONTINUOUS
 62
     3
100
AcDbText
 10
1352.88129
 20
125.48439
 30
0.0
 40
20.0
  1
型式
 41
0.984714
  7
EXCADSTD
 72
     5
 11
1395.861696
 21
125.48439
 31
0.0
100
AcDbText
  0
TEXT
  5
781
100
AcDbEntity
  8
LAY-2
  6
CONTINUOUS
 62
     3
100
AcDbText
 10
1352.40129
 20
97.32439
 30
0.0
 40
20.0
  1
品名
 41
0.984714
  7
EXCADSTD
 72
     5
 11
1395.381696
 21
97.32439
 31
0.0
100
AcDbText
  0
LINE
  5
782
100
AcDbEntity
  8
LAY-2
  6
CONTINUOUS
 62
     4
100
AcDbLine
 10
1343.44129
 20
68.92439
 30
0.0
 11
1701.84129
 21
68.92439
 31
0.0
  0
LINE
  5
783
100
AcDbEntity
  8
LAY-2
  6
CONTINUOUS
 62
     1
100
AcDbLine
 10
1343.44129
 20
93.32439
 30
0.0
 11
1701.84129
 21
93.32439
 31
0.0
  0
TEXT
  5
784
100
AcDbEntity
  8
LAY-2
  6
CONTINUOUS
 62
     3
100
AcDbText
 10
1470.80129
 20
71.56439
 30
0.0
 40
20.0
  1
外観図
 41
1.47392
  7
EXCADSTD
 72
     5
 11
1576.081289
 21
71.56439
 31
0.0
100
AcDbText
  0
LINE
  5
785
100
AcDbEntity
  8
LAY-2
  6
CONTINUOUS
 62
     4
100
AcDbLine
 10
1343.44129
 20
177.32439
 30
0.0
 11
1701.84129
 21
177.32439
 31
0.0
  0
LINE
  5
786
100
AcDbEntity
  8
LAY-2
  6
CONTINUOUS
 62
     1
100
AcDbLine
 10
1343.44129
 20
121.32439
 30
0.0
 11
1701.84129
 21
121.32439
 31
0.0
  0
LINE
  5
787
100
AcDbEntity
  8
LAY-2
  6
CONTINUOUS
 62
     1
100
AcDbLine
 10
1343.44129
 20
149.32439
 30
0.0
 11
1701.84129
 21
149.32439
 31
0.0
  0
LINE
  5
788
100
AcDbEntity
  8
LAY-2
  6
CONTINUOUS
 62
     1
100
AcDbLine
 10
1403.44129
 20
177.32439
 30
0.0
 11
1403.44129
 21
93.32439
 31
0.0
  0
LINE
  5
789
100
AcDbEntity
  8
LAY-2
  6
CONTINUOUS
 62
     4
100
AcDbLine
 10
1343.44129
 20
44.52439
 30
0.0
 11
1701.84129
 21
44.52439
 31
0.0
  0
LINE
  5
78A
100
AcDbEntity
  8
LAY-2
  6
CONTINUOUS
 62
     4
100
AcDbLine
 10
1701.84129
 20
44.52439
 30
0.0
 11
1701.84129
 21
177.32439
 31
0.0
  0
LINE
  5
78B
100
AcDbEntity
  8
LAY-2
  6
CONTINUOUS
 62
     4
100
AcDbLine
 10
1343.44129
 20
44.52439
 30
0.0
 11
1343.44129
 21
177.32439
 31
0.0
  0
TEXT
  5
78C
100
AcDbEntity
  8
LAY-2
  6
CONTINUOUS
 62
     3
100
AcDbText
 10
1346.00129
 20
152.84439
 30
0.0
 40
20.0
  1
作成日
 41
0.84
  7
EXCADSTD
 72
     5
 11
1406.00129
 21
152.84439
 31
0.0
100
AcDbText
  0
HATCH
  5
78D
100
AcDbEntity
  8
LAY-2
  6
CONTINUOUS
 62
     3
100
AcDbHatch
 10
0.0
 20
0.0
 30
0.0
210
0.0
220
0.0
230
1.0
  2
SOLID
 70
     1
 71
     1
 91
        1
 92
        1
 93
       16
 72
     1
 10
1595.7011894616442
 20
50.620247273176645
 11
1599.4876180330727
 21
50.620247273176645
 72
     1
 10
1599.4876180330727
 20
50.620247273176645
 11
1599.4876180330727
 21
48.17739013031948
 72
     1
 10
1599.4876180330727
 20
48.17739013031948
 11
1589.3497608902155
 21
48.17739013031948
 72
     1
 10
1589.3497608902155
 20
48.17739013031948
 11
1589.3497608902155
 21
50.620247273176645
 72
     1
 10
1589.3497608902155
 20
50.620247273176645
 11
1593.2583323187871
 21
50.620247273176645
 72
     1
 10
1593.2583323187871
 20
50.620247273176645
 11
1593.2583323187871
 21
57.704532987462386
 72
     1
 10
1593.2583323187871
 20
57.704532987462386
 11
1590.2047608902155
 21
57.704532987462386
 72
     1
 10
1590.2047608902155
 20
57.704532987462386
 11
1590.2047608902155
 21
60.147390130319536
 72
     1
 10
1590.2047608902155
 20
60.147390130319536
 11
1593.2583323187871
 21
60.147390130319536
 72
     1
 10
1593.2583323187871
 20
60.147390130319536
 11
1593.2583323187871
 21
65.277390130319532
 72
     1
 10
1593.2583323187871
 20
65.277390130319532
 11
1595.7011894616442
 21
65.277390130319532
 72
     1
 10
1595.7011894616442
 20
65.277390130319532
 11
1595.7011894616442
 21
60.147390130319536
 72
     1
 10
1595.7011894616442
 20
60.147390130319536
 11
1599.2433323187872
 21
60.147390130319536
 72
     1
 10
1599.2433323187872
 20
60.147390130319536
 11
1599.2433323187872
 21
57.704532987462386
 72
     1
 10
1599.2433323187872
 20
57.704532987462386
 11
1595.7011894616442
 21
57.704532987462386
 72
     1
 10
1595.7011894616442
 20
57.704532987462386
 11
1595.7011894616442
 21
50.620247273176645
 97
        0
 75
     0
 76
     1
 98
        1
 10
0.0
 20
0.0
  0
HATCH
  5
78E
100
AcDbEntity
  8
LAY-2
  6
CONTINUOUS
 62
     3
100
AcDbHatch
 10
0.0
 20
0.0
 30
0.0
210
0.0
220
0.0
230
1.0
  2
SOLID
 70
     1
 71
     1
 91
        1
 92
        1
 93
       17
 72
     2
 10
1570.036591484268
 20
70.018516922679567
 40
21.985714285714362
 50
44.165469
 51
51.472792
 73
     0
 72
     1
 10
1583.7311894616441
 20
52.818818701748157
 11
1582.4943673458984
 21
54.961057446144309
 72
     2
 10
1570.036591484268
 20
70.018516922679567
 40
19.542857142857208
 50
309.602625
 51
331.307968
 73
     1
 72
     1
 10
1587.1798385556826
 20
60.635961558890983
 11
1583.1204751759299
 21
60.635961558890983
 72
     1
 10
1583.1204751759299
 20
60.635961558890983
 11
1583.1204751759299
 21
62.834532987462353
 72
     1
 10
1583.1204751759299
 20
62.834532987462353
 11
1585.8076180330727
 21
62.834532987462353
 72
     1
 10
1585.8076180330727
 20
62.834532987462353
 11
1585.8076180330727
 21
65.277390130319532
 72
     1
 10
1585.8076180330727
 20
65.277390130319532
 11
1588.0061894616442
 21
65.277390130319532
 72
     1
 10
1588.0061894616442
 20
65.277390130319532
 11
1588.0061894616442
 21
62.834532987462353
 72
     1
 10
1588.0061894616442
 20
62.834532987462353
 11
1590.8154751759298
 21
62.834532987462353
 72
     2
 10
1570.036591484268
 20
70.018516922679567
 40
21.985714285714362
 50
19.072051
 51
32.871988
 73
     0
 72
     1
 10
1588.5020702011032
 20
58.085464990706498
 11
1591.4261894616441
 21
55.26167584460525
 72
     1
 10
1591.4261894616441
 20
55.26167584460525
 11
1589.6985654849602
 21
53.534051867921278
 72
     1
 10
1589.6985654849602
 20
53.534051867921278
 11
1588.0061894616442
 21
55.168360396390227
 72
     1
 10
1588.0061894616442
 20
55.168360396390227
 11
1588.0061894616442
 21
48.17739013031948
 72
     1
 10
1588.0061894616442
 20
48.17739013031948
 11
1585.8076180330727
 21
48.17739013031948
 72
     1
 10
1585.8076180330727
 20
48.17739013031948
 11
1585.8076180330727
 21
54.700346201279444
 97
        0
 75
     0
 76
     1
 98
        1
 10
0.0
 20
0.0
  0
HATCH
  5
78F
100
AcDbEntity
  8
LAY-2
  6
CONTINUOUS
 62
     3
100
AcDbHatch
 10
0.0
 20
0.0
 30
0.0
210
0.0
220
0.0
230
1.0
  2
SOLID
 70
     1
 71
     1
 91
        1
 92
        1
 93
       12
 72
     2
 10
1600.9316967389329
 20
37.046101410196968
 40
34.444285714285826
 50
150.903074
 51
156.790773
 73
     1
 72
     1
 10
1569.2749220697108
 20
50.62024727317646
 11
1576.795914832474
 21
50.620247273176744
 72
     2
 10
1555.4316950679129
 20
44.476712960458201
 40
22.230000000000075
 50
16.043216
 51
21.362935
 73
     1
 72
     1
 10
1576.1343086905997
 20
52.574532987462362
 11
1578.479046604501
 21
52.574532987462362
 72
     2
 10
1555.4316950679129
 20
44.476712960458201
 40
24.428571428571512
 50
340.64078
 51
351.286733
 73
     0
 72
     1
 10
1579.5783323187868
 20
48.17739013031948
 11
1566.0204751759295
 21
48.17739013031948
 72
     2
 10
1600.9316967389329
 20
37.046101410196968
 40
36.64285714285726
 50
197.684652
 51
207.200855
 73
     0
 72
     1
 10
1568.3411894616438
 20
53.79596155889098
 11
1564.9211894616442
 21
53.79596155889098
 72
     1
 10
1564.9211894616442
 20
53.79596155889098
 11
1564.9211894616442
 21
56.238818701748144
 72
     1
 10
1564.9211894616442
 20
56.238818701748144
 11
1580.55547517593
 21
56.238818701748144
 72
     1
 10
1580.55547517593
 20
56.238818701748144
 11
1580.55547517593
 21
53.79596155889098
 72
     1
 10
1580.55547517593
 20
53.79596155889098
 11
1570.8343379949081
 21
53.79596155889098
 97
        0
 75
     0
 76
     1
 98
        1
 10
0.0
 20
0.0
  0
HATCH
  5
790
100
AcDbEntity
  8
LAY-2
  6
CONTINUOUS
 62
     3
100
AcDbHatch
 10
0.0
 20
0.0
 30
0.0
210
0.0
220
0.0
230
1.0
  2
SOLID
 70
     1
 71
     1
 91
        1
 92
        1
 93
       10
 72
     2
 10
1601.0782077966355
 20
89.920620782479233
 40
39.085714285714417
 50
129.545698
 51
136.474664
 73
     0
 72
     1
 10
1572.7383323187878
 20
63.00325614318767
 11
1572.7383323187878
 21
65.277390130319532
 72
     1
 10
1572.7383323187878
 20
65.277390130319532
 11
1573.9597608902159
 21
65.277390130319532
 72
     2
 10
1601.0782077966355
 20
89.920620782479233
 40
36.64285714285726
 50
222.262231
 51
237.763996
 73
     1
 72
     1
 10
1581.5326180330728
 20
58.925961558891004
 11
1579.9487716310825
 21
57.038406919201648
 72
     2
 10
1601.0782077966355
 20
89.920620782479233
 40
39.085714285714417
 50
122.723968
 51
128.230009
 73
     0
 72
     1
 10
1576.8911894616442
 20
59.217506847777173
 11
1576.8911894616442
 21
57.338104416033786
 72
     1
 10
1576.8911894616442
 20
57.338104416033786
 11
1572.7383323187878
 21
57.338104416033786
 72
     1
 10
1572.7383323187878
 20
57.338104416033786
 11
1572.7383323187878
 21
59.780961558890965
 72
     1
 10
1572.7383323187878
 20
59.780961558890965
 11
1576.192589397438
 21
59.780961558890965
 97
        0
 75
     0
 76
     1
 98
        1
 10
0.0
 20
0.0
  0
HATCH
  5
791
100
AcDbEntity
  8
LAY-2
  6
CONTINUOUS
 62
     3
100
AcDbHatch
 10
0.0
 20
0.0
 30
0.0
210
0.0
220
0.0
230
1.0
  2
SOLID
 70
     1
 71
     1
 91
        1
 92
        1
 93
       10
 72
     2
 10
1544.3984568409387
 20
89.920620782479233
 40
39.085714285714417
 50
51.769991
 51
57.276032
 73
     0
 72
     1
 10
1565.5278930064915
 20
57.038406919201577
 11
1563.9440466045012
 21
58.925961558890961
 72
     2
 10
1544.3984568409387
 20
89.920620782479233
 40
36.64285714285726
 50
302.236004
 51
317.737769
 73
     1
 72
     1
 10
1571.5169037473584
 20
65.277390130319532
 11
1572.7383323187878
 21
65.277390130319532
 72
     1
 10
1572.7383323187878
 20
65.277390130319532
 11
1572.7383323187878
 21
63.003256143189134
 72
     2
 10
1544.3984568409387
 20
89.920620782479233
 40
39.085714285714417
 50
43.525336
 51
50.454302
 73
     0
 72
     1
 10
1569.284075240136
 20
59.780961558890965
 11
1572.7383323187878
 21
59.780961558890965
 72
     1
 10
1572.7383323187878
 20
59.780961558890965
 11
1572.7383323187878
 21
57.338104416033786
 72
     1
 10
1572.7383323187878
 20
57.338104416033786
 11
1568.58547517593
 21
57.338104416033786
 72
     1
 10
1568.58547517593
 20
57.338104416033786
 11
1568.58547517593
 21
59.217506847777145
 97
        0
 75
     0
 76
     1
 98
        1
 10
0.0
 20
0.0
  0
HATCH
  5
792
100
AcDbEntity
  8
LAY-2
  6
CONTINUOUS
 62
     3
100
AcDbHatch
 10
0.0
 20
0.0
 30
0.0
210
0.0
220
0.0
230
1.0
  2
SOLID
 70
     1
 71
     1
 91
        1
 92
        1
 93
       18
 72
     2
 10
1526.4193133096067
 20
54.299410920023632
 40
34.200000000000109
 50
14.02954
 51
18.723021
 73
     1
 72
     1
 10
1558.8094965826035
 20
65.277390130319532
 11
1561.3790466045011
 21
65.277390130319532
 72
     2
 10
1526.4193133096067
 20
54.299410920023632
 40
36.64285714285726
 50
342.566782
 51
346.922981
 73
     0
 72
     1
 10
1562.1119037473584
 20
62.590247273176715
 11
1563.0890466045012
 21
62.590247273176715
 72
     1
 10
1563.0890466045012
 20
62.590247273176715
 11
1563.0890466045012
 21
60.147390130319508
 72
     1
 10
1563.0890466045012
 20
60.147390130319508
 11
1558.5220109488516
 21
60.147390130319536
 72
     2
 10
1583.8533323187869
 20
64.178104416033847
 40
25.650000000000087
 50
189.041096
 51
204.65198
 73
     1
 72
     2
 10
1565.6499610979376
 20
55.823965862416514
 40
5.6211619214424813
 50
204.65198
 51
242.897449
 73
     1
 72
     1
 10
1563.0890466045012
 20
50.820049565716246
 11
1563.0890466045012
 21
48.17739013031948
 72
     2
 10
1565.6499610979376
 20
55.823965862416514
 40
8.0640190642996306
 50
108.516212
 51
155.34802
 73
     0
 72
     2
 10
1583.8533323187869
 20
64.178104416033847
 40
28.09285714285723
 50
155.34802
 51
171.750831
 73
     0
 72
     1
 10
1556.051138793888
 20
60.147390130319536
 11
1546.7219037473585
 21
60.147390130319508
 72
     1
 10
1546.7219037473585
 20
60.147390130319508
 11
1546.7219037473585
 21
62.590247273176715
 72
     1
 10
1546.7219037473585
 20
62.590247273176715
 11
1555.7988005282921
 21
62.590247273176715
 72
     1
 10
1555.7988005282921
 20
62.590247273176715
 11
1555.7049634319865
 21
65.277390130319532
 72
     1
 10
1555.7049634319865
 20
65.277390130319532
 11
1558.1493096044878
 21
65.277390130319532
 72
     1
 10
1558.1493096044878
 20
65.277390130319532
 11
1558.2431467007934
 21
62.590247273176715
 72
     1
 10
1558.2431467007934
 20
62.590247273176715
 11
1559.5991570790586
 21
62.590247273176715
 97
        0
 75
     0
 76
     1
 98
        1
 10
0.0
 20
0.0
  0
HATCH
  5
793
100
AcDbEntity
  8
LAY-2
  6
CONTINUOUS
 62
     3
100
AcDbHatch
 10
0.0
 20
0.0
 30
0.0
210
0.0
220
0.0
230
1.0
  2
SOLID
 70
     1
 71
     1
 91
        1
 92
        1
 93
       12
 72
     2
 10
1539.0329588373841
 20
170.81085300256544
 40
119.70000000000039
 50
276.500664
 51
278.269357
 73
     1
 72
     1
 10
1556.2490466045012
 20
52.355391659514524
 11
1556.2490466045012
 21
49.887390130319545
 72
     2
 10
1539.0329588373841
 20
170.81085300256544
 40
122.14285714285755
 50
81.897153
 51
86.39082
 73
     0
 72
     1
 10
1546.7219037473585
 20
48.910247273176651
 11
1546.7219037473585
 21
51.358058451029379
 72
     2
 10
1539.0329588373841
 20
170.81085300256544
 40
119.70000000000039
 50
273.682937
 51
275.325087
 73
     1
 72
     1
 10
1550.1419037473584
 20
51.627459264229302
 11
1550.1419037473584
 21
55.505961558890903
 72
     1
 10
1550.1419037473584
 20
55.505961558890903
 11
1546.7219037473585
 21
55.505961558890903
 72
     1
 10
1546.7219037473585
 20
55.505961558890903
 11
1546.7219037473585
 21
57.948818701748067
 72
     1
 10
1546.7219037473585
 20
57.948818701748067
 11
1555.5161894616442
 21
57.948818701748067
 72
     1
 10
1555.5161894616442
 20
57.948818701748067
 11
1555.5161894616442
 21
55.505961558890903
 72
     1
 10
1555.5161894616442
 20
55.505961558890903
 11
1552.5847608902156
 21
55.505961558890903
 72
     1
 10
1552.5847608902156
 20
55.505961558890903
 11
1552.5847608902154
 21
51.880458817054688
 97
        0
 75
     0
 76
     1
 98
        1
 10
0.0
 20
0.0
  0
HATCH
  5
794
100
AcDbEntity
  8
LAY-2
  6
CONTINUOUS
 62
     3
100
AcDbHatch
 10
0.0
 20
0.0
 30
0.0
210
0.0
220
0.0
230
1.0
  2
SOLID
 70
     1
 71
     1
 91
        1
 92
        1
 93
       30
 72
     2
 10
1516.9539559149275
 20
69.1831292478969
 40
26.749285714285801
 50
37.940537
 51
46.713808
 73
     0
 72
     1
 10
1535.2944150345049
 20
49.71130741460145
 11
1533.6526180330725
 21
51.353104416033887
 72
     2
 10
1516.9539559149275
 20
69.1831292478969
 40
24.428571428571523
 50
313.123325
 51
325.95222
 73
     1
 72
     1
 10
1537.1947608902153
 20
55.505961558890974
 11
1534.263332318787
 21
55.505961558890974
 72
     1
 10
1534.263332318787
 20
55.505961558890974
 11
1534.263332318787
 21
57.94881870174811
 72
     1
 10
1534.263332318787
 20
57.94881870174811
 11
1538.0497608902156
 21
57.94881870174811
 72
     1
 10
1538.0497608902156
 20
57.94881870174811
 11
1538.0497608902156
 21
60.391675844605231
 72
     1
 10
1538.0497608902156
 20
60.391675844605231
 11
1536.8318037072736
 21
60.391675844605231
 72
     2
 10
1510.7108264556207
 20
65.558810848970964
 40
26.627142857142957
 50
11.189535
 51
14.746058
 73
     0
 72
     1
 10
1536.4609631757189
 20
58.781259991105202
 11
1534.3854751759295
 21
59.536675844605199
 72
     2
 10
1510.7108264556207
 20
65.558810848970964
 40
24.428571428571523
 50
345.728313
 51
357.620387
 73
     1
 72
     1
 10
1535.118332318787
 20
64.544532987469665
 11
1537.3011828056053
 21
64.159637551791036
 72
     2
 10
1510.7108264556207
 20
65.558810848970964
 40
26.627142857142957
 50
3.012102
 51
6.401006
 73
     0
 72
     1
 10
1537.1719747117183
 20
62.590247273176715
 11
1538.0497608902156
 21
62.590247273176715
 72
     1
 10
1538.0497608902156
 20
62.590247273176715
 11
1538.0497608902156
 21
65.277390130319532
 72
     1
 10
1538.0497608902156
 20
65.277390130319532
 11
1540.4926180330726
 21
65.277390130319532
 72
     1
 10
1540.4926180330726
 20
65.277390130319532
 11
1540.4926180330726
 21
62.590247273176715
 72
     1
 10
1540.4926180330726
 20
62.590247273176715
 11
1543.7904751759299
 21
62.590247273176715
 72
     1
 10
1543.7904751759299
 20
62.590247273176715
 11
1543.7904751759299
 21
60.391675844605231
 72
     1
 10
1543.7904751759299
 20
60.391675844605231
 11
1540.4926180330726
 21
60.391675844605231
 72
     1
 10
1540.4926180330726
 20
60.391675844605231
 11
1540.4926180330726
 21
57.94881870174811
 72
     1
 10
1540.4926180330726
 20
57.94881870174811
 11
1544.2790466045012
 21
57.94881870174811
 72
     1
 10
1544.2790466045012
 20
57.94881870174811
 11
1544.2790466045012
 21
55.505961558890974
 72
     1
 10
1544.2790466045012
 20
55.505961558890974
 11
1541.3476180330724
 21
55.505961558890974
 72
     2
 10
1561.5884230083602
 20
69.183129247896858
 40
24.428571428571523
 50
214.04778
 51
226.876675
 73
     1
 72
     1
 10
1544.889760890215
 20
51.353104416033887
 11
1543.2479638887826
 21
49.71130741460145
 72
     2
 10
1561.5884230083602
 20
69.183129247896858
 40
26.749285714285801
 50
133.286192
 51
142.059463
 73
     0
 72
     1
 10
1540.4926180330726
 20
52.736509574872073
 11
1540.4926180330726
 21
48.17739013031948
 72
     1
 10
1540.4926180330726
 20
48.17739013031948
 11
1538.0497608902156
 21
48.17739013031948
 72
     1
 10
1538.0497608902156
 20
48.17739013031948
 11
1538.0497608902156
 21
52.736509574872741
 97
        0
 75
     0
 76
     1
 98
        1
 10
0.0
 20
0.0
  0
HATCH
  5
795
100
AcDbEntity
  8
LAY-2
  6
CONTINUOUS
 62
     3
100
AcDbHatch
 10
0.0
 20
0.0
 30
0.0
210
0.0
220
0.0
230
1.0
  2
SOLID
 70
     1
 71
     1
 91
        1
 92
        1
 93
       19
 72
     2
 10
1506.8978231910771
 20
65.922759320510778
 40
26.627142857142946
 50
27.683433
 51
32.280505
 73
     0
 72
     1
 10
1529.4095706876385
 20
51.702141844966206
 11
1527.6676180330726
 21
53.063104416033781
 72
     2
 10
1506.8978231910771
 20
65.922759320510778
 40
24.428571428571512
 50
328.236207
 51
344.845745
 73
     1
 72
     1
 10
1530.4769037473579
 20
59.536675844605242
 11
1528.2783323187869
 21
59.536675844605242
 72
     1
 10
1528.2783323187869
 20
59.536675844605242
 11
1528.2783323187869
 21
61.979532987462392
 72
     1
 10
1528.2783323187869
 20
61.979532987462392
 11
1530.4769037473584
 21
61.979532987462392
 72
     1
 10
1530.4769037473584
 20
61.979532987462392
 11
1530.4769037473584
 21
65.277390130319532
 72
     1
 10
1530.4769037473584
 20
65.277390130319532
 11
1532.9197608902155
 21
65.277390130319532
 72
     1
 10
1532.9197608902155
 20
65.277390130319532
 11
1532.9197608902155
 21
61.979532987462392
 72
     1
 10
1532.9197608902155
 20
61.979532987462392
 11
1534.0190466045012
 21
61.979532987462392
 72
     1
 10
1534.0190466045012
 20
61.979532987462392
 11
1534.0190466045012
 21
59.536675844605242
 72
     1
 10
1534.0190466045012
 20
59.536675844605242
 11
1532.9197608902155
 21
59.536675844605242
 72
     1
 10
1532.9197608902155
 20
59.536675844605242
 11
1534.263332318787
 21
57.617856986974999
 72
     1
 10
1534.263332318787
 20
57.617856986974999
 11
1534.263332318787
 21
56.130677421332308
 72
     1
 10
1534.263332318787
 20
56.130677421332308
 11
1533.5304751759297
 21
55.257292288473792
 72
     1
 10
1533.5304751759297
 20
55.257292288473792
 11
1532.9197608902155
 21
56.129482678305436
 72
     1
 10
1532.9197608902155
 20
56.129482678305436
 11
1532.9197608902155
 21
48.17739013031948
 72
     1
 10
1532.9197608902155
 20
48.17739013031948
 11
1530.4769037473584
 21
48.17739013031948
 72
     1
 10
1530.4769037473584
 20
48.17739013031948
 11
1530.4769037473584
 21
53.552161240583743
 97
        0
 75
     0
 76
     1
 98
        1
 10
0.0
 20
0.0
  0
HATCH
  5
796
100
AcDbEntity
  8
LAY-2
  6
CONTINUOUS
 62
     3
100
AcDbHatch
 10
0.0
 20
0.0
 30
0.0
210
0.0
220
0.0
230
1.0
  2
SOLID
 70
     1
 71
     1
 91
        1
 92
        1
 93
        8
 72
     2
 10
1517.1580900456584
 20
55.359390130319156
 40
4.7880000000000384
 50
270.0
 51
330.0
 73
     1
 72
     2
 10
1514.788644540904
 20
56.727390130319165
 40
7.5240000000000364
 50
330.0
 51
30.0
 73
     1
 72
     2
 10
1517.1580900456584
 20
58.095390130319174
 40
4.7880000000000367
 50
30.0
 51
90.0
 73
     1
 72
     1
 10
1517.1580900456597
 20
62.883390130319214
 11
1517.1580900456597
 21
65.619390130319758
 72
     2
 10
1517.1580900456581
 20
58.095390130319743
 40
7.5240000000000231
 50
270.0
 51
330.0
 73
     0
 72
     2
 10
1514.7886445409044
 20
56.727390130319634
 40
10.260000000000046
 50
330.0
 51
30.0
 73
     0
 72
     2
 10
1517.1580900456586
 20
55.359390130318872
 40
7.5240000000000151
 50
30.0
 51
90.0
 73
     0
 72
     1
 10
1517.1580900456597
 20
47.835390130318856
 11
1517.1580900456597
 21
50.571390130319116
 97
        0
 75
     0
 76
     1
 98
        1
 10
0.0
 20
0.0
  0
HATCH
  5
797
100
AcDbEntity
  8
LAY-2
  6
CONTINUOUS
 62
     3
100
AcDbHatch
 10
0.0
 20
0.0
 30
0.0
210
0.0
220
0.0
230
1.0
  2
SOLID
 70
     1
 71
     1
 91
        1
 92
        1
 93
        8
 72
     2
 10
1517.1580900456586
 20
55.359390130318872
 40
7.5240000000000151
 50
90.0
 51
150.0
 73
     0
 72
     2
 10
1519.5275355504123
 20
56.727390130319066
 40
10.260000000000057
 50
150.0
 51
210.0
 73
     0
 72
     2
 10
1517.1580900456581
 20
58.095390130319743
 40
7.5240000000000231
 50
210.0
 51
270.0
 73
     0
 72
     1
 10
1517.1580900456597
 20
65.619390130319758
 11
1517.1580900456597
 21
62.883390130319214
 72
     2
 10
1517.1580900456584
 20
58.095390130319174
 40
4.7880000000000367
 50
90.0
 51
150.0
 73
     1
 72
     2
 10
1519.5275355504127
 20
56.727390130319165
 40
7.52400000000004
 50
150.0
 51
210.0
 73
     1
 72
     2
 10
1517.1580900456584
 20
55.359390130319156
 40
4.7880000000000384
 50
210.0
 51
270.0
 73
     1
 72
     1
 10
1517.1580900456597
 20
50.571390130319116
 11
1517.1580900456597
 21
47.835390130318856
 97
        0
 75
     0
 76
     1
 98
        1
 10
0.0
 20
0.0
  0
HATCH
  5
798
100
AcDbEntity
  8
LAY-2
  6
CONTINUOUS
 62
     3
100
AcDbHatch
 10
0.0
 20
0.0
 30
0.0
210
0.0
220
0.0
230
1.0
  2
SOLID
 70
     1
 71
     1
 91
        1
 92
        1
 93
        4
 72
     1
 10
1506.5560900456585
 20
53.649390130319162
 11
1503.8200900456584
 21
53.649390130319162
 72
     1
 10
1503.8200900456584
 20
53.649390130319162
 11
1503.8200900456584
 21
56.385390130319138
 72
     1
 10
1503.8200900456584
 20
56.385390130319138
 11
1506.5560900456585
 21
56.385390130319138
 72
     1
 10
1506.5560900456585
 20
56.385390130319138
 11
1506.5560900456585
 21
53.649390130318977
 97
        0
 75
     0
 76
     1
 98
        1
 10
0.0
 20
0.0
  0
HATCH
  5
799
100
AcDbEntity
  8
LAY-2
  6
CONTINUOUS
 62
     3
100
AcDbHatch
 10
0.0
 20
0.0
 30
0.0
210
0.0
220
0.0
230
1.0
  2
SOLID
 70
     1
 71
     1
 91
        1
 92
        1
 93
       16
 72
     1
 10
1493.5600900456582
 20
62.541390130319186
 11
1489.7980900456582
 21
62.541390130319186
 72
     1
 10
1489.7980900456582
 20
62.541390130319186
 11
1489.1140900456583
 21
58.779390130319172
 72
     1
 10
1489.1140900456583
 20
58.779390130319172
 11
1487.0620900456584
 21
58.779390130319172
 72
     1
 10
1487.0620900456584
 20
58.779390130319172
 11
1487.0620900456584
 21
65.277390130319205
 72
     1
 10
1487.0620900456584
 20
65.277390130319205
 11
1502.7940900456585
 21
65.277390130319205
 72
     1
 10
1502.7940900456585
 20
65.277390130319205
 11
1502.7940900456585
 21
58.779390130319172
 72
     1
 10
1502.7940900456585
 20
58.779390130319172
 11
1500.7420900456584
 21
58.779390130319172
 72
     1
 10
1500.7420900456584
 20
58.779390130319172
 11
1500.0580900456584
 21
62.541390130319186
 72
     1
 10
1500.0580900456584
 20
62.541390130319186
 11
1496.2960900456583
 21
62.541390130319186
 72
     1
 10
1496.2960900456583
 20
62.541390130319186
 11
1496.2960900456585
 21
50.913390130319144
 72
     1
 10
1496.2960900456585
 20
50.913390130319144
 11
1499.0320900456584
 21
50.229390130319132
 72
     1
 10
1499.0320900456584
 20
50.229390130319132
 11
1499.0320900456584
 21
48.177390130319125
 72
     1
 10
1499.0320900456584
 20
48.177390130319125
 11
1490.8240900456583
 21
48.177390130319125
 72
     1
 10
1490.8240900456583
 20
48.177390130319125
 11
1490.8240900456583
 21
50.229390130319132
 72
     1
 10
1490.8240900456583
 20
50.229390130319132
 11
1493.5600900456582
 21
50.913390130319144
 72
     1
 10
1493.5600900456582
 20
50.913390130319144
 11
1493.5600900456582
 21
62.541390130319186
 97
        0
 75
     0
 76
     1
 98
        1
 10
0.0
 20
0.0
  0
HATCH
  5
79A
100
AcDbEntity
  8
LAY-2
  6
CONTINUOUS
 62
     3
100
AcDbHatch
 10
0.0
 20
0.0
 30
0.0
210
0.0
220
0.0
230
1.0
  2
SOLID
 70
     1
 71
     1
 91
        1
 92
        1
 93
        4
 72
     1
 10
1483.3000900456584
 20
53.649390130319162
 11
1483.3000900456584
 21
56.385390130319323
 72
     1
 10
1483.3000900456584
 20
56.385390130319323
 11
1486.0360900456583
 21
56.385390130319138
 72
     1
 10
1486.0360900456583
 20
56.385390130319138
 11
1486.0360900456583
 21
53.649390130319162
 72
     1
 10
1486.0360900456583
 20
53.649390130319162
 11
1483.3000900456584
 21
53.649390130319162
 97
        0
 75
     0
 76
     1
 98
        1
 10
0.0
 20
0.0
  0
HATCH
  5
79B
100
AcDbEntity
  8
LAY-2
  6
CONTINUOUS
 62
     3
100
AcDbHatch
 10
0.0
 20
0.0
 30
0.0
210
0.0
220
0.0
230
1.0
  2
SOLID
 70
     1
 71
     1
 91
        1
 92
        1
 93
       12
 72
     1
 10
1480.2220900456584
 20
65.277390130319205
 11
1480.2220900456584
 21
63.225390130319198
 72
     1
 10
1480.2220900456584
 20
63.225390130319198
 11
1477.4860900456586
 21
62.541390130319186
 72
     1
 10
1477.4860900456586
 20
62.541390130319186
 11
1477.4860900456586
 21
50.913390130319144
 72
     1
 10
1477.4860900456586
 20
50.913390130319144
 11
1480.2220900456584
 21
50.229390130319132
 72
     1
 10
1480.2220900456584
 20
50.229390130319132
 11
1480.2220900456584
 21
48.177390130319125
 72
     1
 10
1480.2220900456584
 20
48.177390130319125
 11
1472.0140900456583
 21
48.177390130319125
 72
     1
 10
1472.0140900456583
 20
48.177390130319125
 11
1472.0140900456583
 21
50.229390130319132
 72
     1
 10
1472.0140900456583
 20
50.229390130319132
 11
1474.7500900456582
 21
50.913390130319144
 72
     1
 10
1474.7500900456582
 20
50.913390130319144
 11
1474.7500900456582
 21
62.541390130319186
 72
     1
 10
1474.7500900456582
 20
62.541390130319186
 11
1472.0140900456583
 21
63.225390130319198
 72
     1
 10
1472.0140900456583
 20
63.225390130319198
 11
1472.0140900456583
 21
65.277390130319205
 72
     1
 10
1472.0140900456583
 20
65.277390130319205
 11
1480.2220900456584
 21
65.277390130319205
 97
        0
 75
     0
 76
     1
 98
        1
 10
0.0
 20
0.0
  0
HATCH
  5
79C
100
AcDbEntity
  8
LAY-2
  6
CONTINUOUS
 62
     3
100
AcDbHatch
 10
0.0
 20
0.0
 30
0.0
210
0.0
220
0.0
230
1.0
  2
SOLID
 70
     1
 71
     1
 91
        1
 92
        1
 93
       15
 72
     2
 10
1453.4010067720806
 20
56.72739013031952
 40
7.5931593159316035
 50
124.301153
 51
180.0
 73
     0
 72
     1
 10
1445.8078474561489
 20
56.727390130319975
 11
1448.6730299570249
 21
56.727390130319975
 72
     2
 10
1456.0609687509043
 20
56.727390130319591
 40
7.3879387938794103
 50
180.0
 51
199.464384
 73
     1
 72
     2
 10
1448.9757029645284
 20
57.546926074818401
 40
3.2835283528353623
 50
272.086657
 51
294.619977
 73
     1
 72
     2
 10
1449.9161415409908
 20
55.49472085429629
 40
1.026102610261032
 50
294.619977
 51
0.0
 73
     1
 72
     1
 10
1450.942244151252
 20
55.49472085429629
 11
1450.942244151252
 21
56.727390130319975
 72
     1
 10
1450.942244151252
 20
56.727390130319975
 11
1453.4048904158783
 21
56.727390130319975
 72
     1
 10
1453.4048904158783
 20
56.727390130319975
 11
1453.4048904158783
 21
55.492543547903509
 72
     2
 10
1454.4309930261395
 20
55.492543547903509
 40
1.02610261026099
 50
180.0
 51
245.380023
 73
     1
 72
     2
 10
1455.3714316026019
 20
57.54474876842599
 40
3.2835283528357233
 50
245.380023
 51
267.913343
 73
     1
 72
     1
 10
1455.2518751143482
 20
54.263397721982983
 11
1455.2518751143482
 21
53.647736155826436
 72
     1
 10
1455.2518751143482
 20
53.647736155826436
 11
1449.3455111328792
 21
53.647736155826408
 72
     2
 10
1456.0609687509047
 20
56.727390130319591
 40
7.3879387938794006
 50
204.635803
 51
268.19864
 73
     1
 72
     1
 10
1455.8287327446128
 20
49.34310234750059
 11
1455.8287327446128
 21
48.315538986333081
 72
     2
 10
1456.0609687509043
 20
60.626580049311855
 40
12.313231323132369
 50
91.080702
 51
124.301153
 73
     0
 97
        0
 75
     0
 76
     1
 98
        1
 10
0.0
 20
0.0
  0
HATCH
  5
79D
100
AcDbEntity
  8
LAY-2
  6
CONTINUOUS
 62
     3
100
AcDbHatch
 10
0.0
 20
0.0
 30
0.0
210
0.0
220
0.0
230
1.0
  2
SOLID
 70
     1
 71
     1
 91
        1
 92
        1
 93
       24
 72
     2
 10
1454.6360643787016
 20
57.753492740580597
 40
1.0261026102610411
 50
90.0
 51
157.380135
 73
     1
 72
     2
 10
1457.0987106433279
 20
56.727390130319662
 40
3.6939693969397109
 50
157.380135
 51
180.0
 73
     1
 72
     1
 10
1453.4047412463883
 20
56.727390130319975
 11
1450.942244151252
 21
56.727390130319975
 72
     1
 10
1450.942244151252
 20
56.727390130319975
 11
1450.942244151252
 21
62.054706349113047
 72
     2
 10
1456.0609687509043
 20
56.727390130319591
 40
7.3879387938794103
 50
133.856042
 51
180.0
 73
     1
 72
     1
 10
1448.6730299570249
 20
56.727390130319975
 11
1445.8078474561489
 21
56.727390130319975
 72
     2
 10
1453.4010067720806
 20
56.72739013031952
 40
7.5931593159316035
 50
180.0
 51
235.698847
 73
     0
 72
     2
 10
1456.0609687509047
 20
52.828200211327228
 40
12.313231323132396
 50
235.698847
 51
245.436008
 73
     0
 72
     1
 10
1450.942244151252
 20
64.027053906678347
 11
1450.942244151252
 21
65.142262697142726
 72
     2
 10
1449.9161415409908
 20
65.142262697142726
 40
1.0261026102610264
 50
0.0
 51
65.380023
 73
     1
 72
     2
 10
1448.9757029645284
 20
63.090057476620643
 40
3.2835283528352881
 50
65.380023
 51
87.913343
 73
     1
 72
     1
 10
1449.0952594527819
 20
66.371408523063224
 11
1449.0952594527819
 21
66.987070089219799
 72
     1
 10
1449.0952594527819
 20
66.987070089219799
 11
1455.2518751143482
 21
66.987070089219799
 72
     1
 10
1455.2518751143482
 20
66.987070089219799
 11
1455.2518751143482
 21
66.371408523063224
 72
     2
 10
1455.3714316026019
 20
63.090057476620643
 40
3.2835283528353032
 50
92.086657
 51
114.619977
 73
     1
 72
     2
 10
1454.4309930261395
 20
65.142262697142769
 40
1.0261026102610411
 50
114.619977
 51
180.0
 73
     1
 72
     1
 10
1453.4048904158783
 20
65.142262697142726
 11
1453.4048904158783
 21
64.851548891922562
 72
     2
 10
1456.0609687509043
 20
52.828200211327228
 40
12.313231323132365
 50
257.542857
 51
268.919298
 73
     0
 72
     1
 10
1455.8287327446128
 20
65.139241274306002
 11
1455.8287327446128
 21
64.111677913138593
 72
     2
 10
1456.0609687509047
 20
56.727390130319591
 40
7.3879387938794103
 50
91.80136
 51
111.070443
 73
     1
 72
     1
 10
1453.4048904158783
 20
63.621364854693894
 11
1453.4048904158783
 21
59.805697961102652
 72
     1
 10
1453.4048904158783
 20
59.805697961102652
 11
1455.8287327446128
 21
59.805697961102652
 72
     1
 10
1455.8287327446128
 20
59.805697961102652
 11
1455.8287327446128
 21
58.779595350841603
 72
     1
 10
1455.8287327446128
 20
58.779595350841603
 11
1454.6360643787016
 21
58.779595350841603
 97
        0
 75
     0
 76
     1
 98
        1
 10
0.0
 20
0.0
  0
HATCH
  5
79E
100
AcDbEntity
  8
LAY-2
  6
CONTINUOUS
 62
     3
100
AcDbHatch
 10
0.0
 20
0.0
 30
0.0
210
0.0
220
0.0
230
1.0
  2
SOLID
 70
     1
 71
     1
 91
        1
 92
        1
 93
       14
 72
     2
 10
1456.0609687509043
 20
56.727390130319591
 40
7.3879387938794245
 50
0.0
 51
9.281799
 73
     1
 72
     2
 10
1462.3395094301077
 20
57.753492740580597
 40
1.02610261026102
 50
9.281799
 51
90.0
 73
     1
 72
     1
 10
1462.3395094301077
 20
58.779595350841603
 11
1460.1653791919487
 21
58.779595350841603
 72
     1
 10
1460.1653791919487
 20
58.779595350841603
 11
1460.1653791919487
 21
56.727390130319975
 72
     1
 10
1460.1653791919487
 20
56.727390130319975
 11
1457.7027329273221
 21
56.727390130319975
 72
     1
 10
1457.7027329273221
 20
56.727390130319975
 11
1457.7027329273221
 21
58.779595350841603
 72
     1
 10
1457.7027329273221
 20
58.779595350841603
 11
1455.8287327446128
 21
58.779595350841603
 72
     1
 10
1455.8287327446128
 20
58.779595350841603
 11
1455.8287327446128
 21
59.805697961102652
 72
     1
 10
1455.8287327446128
 20
59.805697961102652
 11
1462.7770435361529
 21
59.805697961102567
 72
     2
 10
1456.0609687509047
 20
56.727390130319591
 40
7.3879387938794103
 50
24.624318
 51
91.80136
 73
     1
 72
     1
 10
1455.8287327446128
 20
64.111677913138593
 11
1455.8287327446128
 21
65.139241274306002
 72
     2
 10
1456.0609687509043
 20
52.828200211327228
 40
12.313231323132365
 50
268.919298
 51
304.301153
 73
     0
 72
     2
 10
1458.7209307297285
 20
56.72739013031952
 40
7.5931593159316115
 50
304.301153
 51
0.0
 73
     0
 72
     1
 10
1466.3140900456601
 20
56.727390130319975
 11
1463.4489075447839
 21
56.727390130319975
 97
        0
 75
     0
 76
     1
 98
        1
 10
0.0
 20
0.0
  0
HATCH
  5
79F
100
AcDbEntity
  8
LAY-2
  6
CONTINUOUS
 62
     3
100
AcDbHatch
 10
0.0
 20
0.0
 30
0.0
210
0.0
220
0.0
230
1.0
  2
SOLID
 70
     1
 71
     1
 91
        1
 92
        1
 93
       19
 72
     2
 10
1456.0609687509043
 20
56.727390130319591
 40
7.3879387938794245
 50
303.748989
 51
0.0
 73
     1
 72
     1
 10
1463.4489075447839
 20
56.727390130319975
 11
1466.3140900456601
 21
56.727390130319975
 72
     2
 10
1458.7209307297285
 20
56.72739013031952
 40
7.5931593159316115
 50
0.0
 51
55.698847
 73
     0
 72
     2
 10
1456.0609687509047
 20
60.626580049311883
 40
12.313231323132388
 50
55.698847
 51
70.528779
 73
     0
 72
     1
 10
1460.1653791919487
 20
49.017554226771139
 11
1460.1653791919487
 21
48.311171419786348
 72
     2
 10
1461.1914818022096
 20
48.311171419786348
 40
1.026102610261032
 50
180.0
 51
245.380023
 73
     1
 72
     2
 10
1462.131920378672
 20
50.363376640308445
 40
3.283528352835297
 50
245.380023
 51
267.913343
 73
     1
 72
     1
 10
1462.0123638904186
 20
47.082025593865865
 11
1462.0123638904186
 21
46.466364027709247
 72
     1
 10
1462.0123638904186
 20
46.466364027709247
 11
1455.8557482288522
 21
46.466364027709247
 72
     1
 10
1455.8557482288522
 20
46.466364027709247
 11
1455.8557482288522
 21
47.082025593865865
 72
     2
 10
1455.7361917405985
 20
50.363376640308445
 40
3.283528352835297
 50
272.086657
 51
294.619977
 73
     1
 72
     2
 10
1456.6766303170609
 20
48.311171419786348
 40
1.026102610261032
 50
294.619977
 51
0.0
 73
     1
 72
     1
 10
1457.7027329273221
 20
48.311171419786348
 11
1457.7027329273221
 21
48.423290492557072
 72
     2
 10
1456.0609687509043
 20
60.626580049311855
 40
12.313231323132369
 50
82.337744
 51
91.080702
 73
     0
 72
     1
 10
1455.8287327446128
 20
48.315538986333081
 11
1455.8287327446128
 21
49.34310234750059
 72
     2
 10
1456.0609687509047
 20
56.727390130319591
 40
7.3879387938794006
 50
268.19864
 51
282.839588
 73
     1
 72
     1
 10
1457.7027329273221
 20
49.524179040039058
 11
1457.7027329273221
 21
56.727390130319975
 72
     1
 10
1457.7027329273221
 20
56.727390130319975
 11
1460.1653791919487
 21
56.727390130319975
 72
     1
 10
1460.1653791919487
 20
56.727390130319975
 11
1460.1653791919487
 21
50.584471072285652
 97
        0
 75
     0
 76
     1
 98
        1
 10
0.0
 20
0.0
  0
TEXT
  5
7A0
100
AcDbEntity
  8
LAY-2
  6
CONTINUOUS
 62
     3
100
AcDbText
 10
1413.34529
 20
97.34039
 30
0.0
 40
20.0
  1
温水循環式蒸発器
 41
0.84
  7
EXCADSTD
 72
     5
 11
1573.34529
 21
97.34039
 31
0.0
100
AcDbText
  0
TEXT
  5
7A1
100
AcDbEntity
  8
LAY-2
  6
CONTINUOUS
 62
     3
100
AcDbText
 10
1423.92129
 20
152.84439
 30
0.0
 40
20.0
  1
’１４年　６月１０日
 41
0.84
  7
EXCADSTD
 72
     5
 11
1623.92129
 21
152.84439
 31
0.0
100
AcDbText
  0
TEXT
  5
7A2
100
AcDbEntity
  8
LAY-2
  6
CONTINUOUS
 62
     3
100
AcDbText
 10
1413.37729
 20
125.24439
 30
0.0
 40
20.0
  1
ＳＭＶ－１００ＤＡ
 41
0.84
  7
EXCADSTD
 72
     5
 11
1593.37729
 21
125.24439
 31
0.0
100
AcDbText
  0
TEXT
  5
7A3
100
AcDbEntity
  8
LAY-5
  6
CONTINUOUS
 62
     3
100
AcDbText
 10
264.369133
 20
1126.0
 30
0.0
 40
25.0
  1
２６４
 41
0.84
  7
EXCADSTD
 72
     5
 11
339.369133
 21
1126.0
 31
0.0
100
AcDbText
  0
LINE
  5
7A4
100
AcDbEntity
  8
LAY-5
  6
CONTINUOUS
 62
     1
100
AcDbLine
 10
433.869133
 20
1062.180317
 30
0.0
 11
433.869133
 21
1125.5
 31
0.0
  0
LINE
  5
7A5
100
AcDbEntity
  8
LAY-5
  6
CONTINUOUS
 62
     1
100
AcDbLine
 10
169.869133
 20
1076.01597
 30
0.0
 11
169.869133
 21
1125.5
 31
0.0
  0
LINE
  5
7A6
100
AcDbEntity
  8
LAY-5
  6
CONTINUOUS
 62
     1
100
AcDbLine
 10
433.869133
 20
1125.0
 30
0.0
 11
169.869133
 21
1125.0
 31
0.0
  0
LINE
  5
7A7
100
AcDbEntity
  8
LAY-5
  6
CONTINUOUS
 62
     1
100
AcDbLine
 10
423.869133
 20
1123.333333
 30
0.0
 11
433.869133
 21
1125.0
 31
0.0
  0
LINE
  5
7A8
100
AcDbEntity
  8
LAY-5
  6
CONTINUOUS
 62
     1
100
AcDbLine
 10
433.869133
 20
1125.0
 30
0.0
 11
423.869133
 21
1126.666667
 31
0.0
  0
LINE
  5
7A9
100
AcDbEntity
  8
LAY-5
  6
CONTINUOUS
 62
     1
100
AcDbLine
 10
179.869133
 20
1126.666667
 30
0.0
 11
169.869133
 21
1125.0
 31
0.0
  0
LINE
  5
7AA
100
AcDbEntity
  8
LAY-5
  6
CONTINUOUS
 62
     1
100
AcDbLine
 10
169.869133
 20
1125.0
 30
0.0
 11
179.869133
 21
1123.333333
 31
0.0
  0
TEXT
  5
7AB
100
AcDbEntity
  8
LAY-5
  6
CONTINUOUS
 62
     3
100
AcDbText
 10
272.369133
 20
1169.0
 30
0.0
 40
25.0
  1
２８０
 41
0.84
  7
EXCADSTD
 72
     5
 11
347.369133
 21
1169.0
 31
0.0
100
AcDbText
  0
LINE
  5
7AC
100
AcDbEntity
  8
LAY-5
  6
CONTINUOUS
 62
     1
100
AcDbLine
 10
169.869133
 20
1076.01597
 30
0.0
 11
169.869133
 21
1168.5
 31
0.0
  0
LINE
  5
7AD
100
AcDbEntity
  8
LAY-5
  6
CONTINUOUS
 62
     1
100
AcDbLine
 10
449.869133
 20
1061.341792
 30
0.0
 11
449.869133
 21
1168.5
 31
0.0
  0
LINE
  5
7AE
100
AcDbEntity
  8
LAY-5
  6
CONTINUOUS
 62
     1
100
AcDbLine
 10
169.869133
 20
1168.0
 30
0.0
 11
449.869133
 21
1168.0
 31
0.0
  0
LINE
  5
7AF
100
AcDbEntity
  8
LAY-5
  6
CONTINUOUS
 62
     1
100
AcDbLine
 10
179.869133
 20
1169.666667
 30
0.0
 11
169.869133
 21
1168.0
 31
0.0
  0
LINE
  5
7B0
100
AcDbEntity
  8
LAY-5
  6
CONTINUOUS
 62
     1
100
AcDbLine
 10
169.869133
 20
1168.0
 30
0.0
 11
179.869133
 21
1166.333333
 31
0.0
  0
LINE
  5
7B1
100
AcDbEntity
  8
LAY-5
  6
CONTINUOUS
 62
     1
100
AcDbLine
 10
439.869133
 20
1166.333333
 30
0.0
 11
449.869133
 21
1168.0
 31
0.0
  0
LINE
  5
7B2
100
AcDbEntity
  8
LAY-5
  6
CONTINUOUS
 62
     1
100
AcDbLine
 10
449.869133
 20
1168.0
 30
0.0
 11
439.869133
 21
1169.666667
 31
0.0
  0
LINE
  5
7B3
100
AcDbEntity
  8
LAY-5
  6
EXLTYPE3
 62
     1
100
AcDbLine
 10
655.5
 20
823.01597
 30
0.0
 11
955.5
 21
823.01597
 31
0.0
  0
LINE
  5
7B4
100
AcDbEntity
  8
LAY-5
  6
CONTINUOUS
 62
     1
100
AcDbLine
 10
667.11068
 20
823.01597
 30
0.0
 11
667.11068
 21
1119.5
 31
0.0
  0
LINE
  5
7B5
100
AcDbEntity
  8
LAY-5
  6
CONTINUOUS
 62
     1
100
AcDbLine
 10
944.41068
 20
823.01597
 30
0.0
 11
944.41068
 21
1119.5
 31
0.0
  0
LINE
  5
7B6
100
AcDbEntity
  8
LAY-5
  6
CONTINUOUS
 62
     1
100
AcDbLine
 10
667.11068
 20
1119.0
 30
0.0
 11
944.41068
 21
1119.0
 31
0.0
  0
LINE
  5
7B7
100
AcDbEntity
  8
LAY-5
  6
CONTINUOUS
 62
     1
100
AcDbLine
 10
677.11068
 20
1120.666667
 30
0.0
 11
667.11068
 21
1119.0
 31
0.0
  0
LINE
  5
7B8
100
AcDbEntity
  8
LAY-5
  6
CONTINUOUS
 62
     1
100
AcDbLine
 10
667.11068
 20
1119.0
 30
0.0
 11
677.11068
 21
1117.333333
 31
0.0
  0
LINE
  5
7B9
100
AcDbEntity
  8
LAY-5
  6
CONTINUOUS
 62
     1
100
AcDbLine
 10
934.41068
 20
1117.333333
 30
0.0
 11
944.41068
 21
1119.0
 31
0.0
  0
LINE
  5
7BA
100
AcDbEntity
  8
LAY-5
  6
CONTINUOUS
 62
     1
100
AcDbLine
 10
944.41068
 20
1119.0
 30
0.0
 11
934.41068
 21
1120.666667
 31
0.0
  0
TEXT
  5
7BB
100
AcDbEntity
  8
LAY-5
  6
CONTINUOUS
 62
     3
100
AcDbText
 10
768.26068
 20
1120.0
 30
0.0
 40
25.0
  1
２７８
 41
0.84
  7
EXCADSTD
 72
     5
 11
843.26068
 21
1120.0
 31
0.0
100
AcDbText
  0
TEXT
  5
7BC
100
AcDbEntity
  8
LAY-5
  6
CONTINUOUS
 62
     3
100
AcDbText
 10
1003.0
 20
703.51597
 30
0.0
 40
25.0
  1
６７０
 50
90.0
 41
0.84
  7
EXCADSTD
 72
     5
 11
1003.0
 21
778.51597
 31
0.0
100
AcDbText
  0
LINE
  5
7BD
100
AcDbEntity
  8
LAY-5
  6
CONTINUOUS
 62
     1
100
AcDbLine
 10
931.41068
 20
1076.01597
 30
0.0
 11
1004.5
 21
1076.01597
 31
0.0
  0
LINE
  5
7BE
100
AcDbEntity
  8
LAY-5
  6
CONTINUOUS
 62
     1
100
AcDbLine
 10
931.41068
 20
406.01597
 30
0.0
 11
1004.5
 21
406.01597
 31
0.0
  0
LINE
  5
7BF
100
AcDbEntity
  8
LAY-5
  6
CONTINUOUS
 62
     1
100
AcDbLine
 10
1004.0
 20
1076.01597
 30
0.0
 11
1004.0
 21
406.01597
 31
0.0
  0
LINE
  5
7C0
100
AcDbEntity
  8
LAY-5
  6
CONTINUOUS
 62
     1
100
AcDbLine
 10
1005.666667
 20
1066.01597
 30
0.0
 11
1004.0
 21
1076.01597
 31
0.0
  0
LINE
  5
7C1
100
AcDbEntity
  8
LAY-5
  6
CONTINUOUS
 62
     1
100
AcDbLine
 10
1004.0
 20
1076.01597
 30
0.0
 11
1002.333333
 21
1066.01597
 31
0.0
  0
LINE
  5
7C2
100
AcDbEntity
  8
LAY-5
  6
CONTINUOUS
 62
     1
100
AcDbLine
 10
1002.333333
 20
416.01597
 30
0.0
 11
1004.0
 21
406.01597
 31
0.0
  0
LINE
  5
7C3
100
AcDbEntity
  8
LAY-5
  6
CONTINUOUS
 62
     1
100
AcDbLine
 10
1004.0
 20
406.01597
 30
0.0
 11
1005.666667
 21
416.01597
 31
0.0
  0
POLYLINE
  5
7C4
100
AcDbEntity
  8
LAY-5
  6
CONTINUOUS
 62
     1
100
AcDb2dPolyline
 66
     1
 10
0.0
 20
0.0
 30
0.0
 70
   128
  0
VERTEX
  5
7C5
100
AcDbEntity
  8
LAY-5
  6
CONTINUOUS
 62
     1
100
AcDbVertex
100
AcDb2dVertex
 10
1896.14812
 20
944.122139
 30
0.0
  0
VERTEX
  5
7C6
100
AcDbEntity
  8
LAY-5
  6
CONTINUOUS
 62
     1
100
AcDbVertex
100
AcDb2dVertex
 10
1714.998277
 20
1111.649741
 30
0.0
  0
VERTEX
  5
7C7
100
AcDbEntity
  8
LAY-5
  6
CONTINUOUS
 62
     1
100
AcDbVertex
100
AcDb2dVertex
 10
1583.781729
 20
1111.649741
 30
0.0
  0
SEQEND
  5
7C8
100
AcDbEntity
  8
LAY-5
  6
CONTINUOUS
 62
     1
  0
LINE
  5
7C9
100
AcDbEntity
  8
LAY-5
  6
CONTINUOUS
 62
     1
100
AcDbLine
 10
1887.674793
 20
949.688152
 30
0.0
 11
1896.14812
 21
944.122139
 31
0.0
  0
LINE
  5
7CA
100
AcDbEntity
  8
LAY-5
  6
CONTINUOUS
 62
     1
100
AcDbLine
 10
1896.14812
 20
944.122139
 30
0.0
 11
1889.938004
 21
952.135392
 31
0.0
  0
TEXT
  5
7CB
100
AcDbEntity
  8
LAY-5
  6
CONTINUOUS
 62
     3
100
AcDbText
 10
1580.640003
 20
1111.949741
 30
0.0
 40
25.0
  1
Ｒｃ １／ ２
 41
0.794444
  7
EXCADSTD
 72
     5
 11
1718.140003
 21
1111.949741
 31
0.0
100
AcDbText
  0
TEXT
  5
7CC
100
AcDbEntity
  8
LAY-5
  6
CONTINUOUS
 62
     3
100
AcDbText
 10
1598.381729
 20
1083.833193
 30
0.0
 40
25.0
  1
液入口
 41
0.84
  7
EXCADSTD
 72
     5
 11
1673.381729
 21
1083.833193
 31
0.0
100
AcDbText
  0
TEXT
  5
7CD
100
AcDbEntity
  8
LAY-5
  6
CONTINUOUS
 62
     3
100
AcDbText
 10
1581.381729
 20
998.833193
 30
0.0
 40
25.0
  1
ガス出口
 41
0.84
  7
EXCADSTD
 72
     5
 11
1681.381729
 21
998.833193
 31
0.0
100
AcDbText
  0
POLYLINE
  5
7CE
100
AcDbEntity
  8
LAY-5
  6
CONTINUOUS
 62
     1
100
AcDb2dPolyline
 66
     1
 10
0.0
 20
0.0
 30
0.0
 70
   128
  0
VERTEX
  5
7CF
100
AcDbEntity
  8
LAY-5
  6
CONTINUOUS
 62
     1
100
AcDbVertex
100
AcDb2dVertex
 10
1841.17136
 20
943.423421
 30
0.0
  0
VERTEX
  5
7D0
100
AcDbEntity
  8
LAY-5
  6
CONTINUOUS
 62
     1
100
AcDbVertex
100
AcDb2dVertex
 10
1717.029229
 20
1026.833193
 30
0.0
  0
VERTEX
  5
7D1
100
AcDbEntity
  8
LAY-5
  6
CONTINUOUS
 62
     1
100
AcDbVertex
100
AcDb2dVertex
 10
1571.381729
 20
1026.833193
 30
0.0
  0
SEQEND
  5
7D2
100
AcDbEntity
  8
LAY-5
  6
CONTINUOUS
 62
     1
  0
LINE
  5
7D3
100
AcDbEntity
  8
LAY-5
  6
CONTINUOUS
 62
     1
100
AcDbLine
 10
1831.941423
 20
947.616992
 30
0.0
 11
1841.17136
 21
943.423421
 31
0.0
  0
LINE
  5
7D4
100
AcDbEntity
  8
LAY-5
  6
CONTINUOUS
 62
     1
100
AcDbLine
 10
1841.17136
 20
943.423421
 30
0.0
 11
1833.800415
 21
950.383805
 31
0.0
  0
TEXT
  5
7D5
100
AcDbEntity
  8
LAY-5
  6
CONTINUOUS
 62
     3
100
AcDbText
 10
1575.455479
 20
1027.133193
 30
0.0
 40
25.0
  1
Ｒｃ ３／ ４
 41
0.794444
  7
EXCADSTD
 72
     5
 11
1712.955479
 21
1027.133193
 31
0.0
100
AcDbText
  0
POLYLINE
  5
7D6
100
AcDbEntity
  8
LAY-5
  6
CONTINUOUS
 62
     1
100
AcDb2dPolyline
 66
     1
 10
0.0
 20
0.0
 30
0.0
 70
   128
  0
VERTEX
  5
7D7
100
AcDbEntity
  8
LAY-5
  6
CONTINUOUS
 62
     1
100
AcDbVertex
100
AcDb2dVertex
 10
871.305039
 20
135.404263
 30
0.0
  0
VERTEX
  5
7D8
100
AcDbEntity
  8
LAY-5
  6
CONTINUOUS
 62
     1
100
AcDbVertex
100
AcDb2dVertex
 10
977.187505
 20
11.230181
 30
0.0
  0
VERTEX
  5
7D9
100
AcDbEntity
  8
LAY-5
  6
CONTINUOUS
 62
     1
100
AcDbVertex
100
AcDb2dVertex
 10
1122.835006
 20
11.230181
 30
0.0
  0
SEQEND
  5
7DA
100
AcDbEntity
  8
LAY-5
  6
CONTINUOUS
 62
     1
  0
LINE
  5
7DB
100
AcDbEntity
  8
LAY-5
  6
CONTINUOUS
 62
     1
100
AcDbLine
 10
879.061627
 20
128.87639
 30
0.0
 11
871.305039
 21
135.404263
 31
0.0
  0
LINE
  5
7DC
100
AcDbEntity
  8
LAY-5
  6
CONTINUOUS
 62
     1
100
AcDbLine
 10
871.305039
 20
135.404263
 30
0.0
 11
876.525204
 21
126.713598
 31
0.0
  0
TEXT
  5
7DD
100
AcDbEntity
  8
LAY-5
  6
CONTINUOUS
 62
     3
100
AcDbText
 10
981.261255
 20
11.530181
 30
0.0
 40
25.0
  1
Ｒｃ ３／ ４
 41
0.794444
  7
EXCADSTD
 72
     5
 11
1118.761255
 21
11.530181
 31
0.0
100
AcDbText
  0
TEXT
  5
7DE
100
AcDbEntity
  8
LAY-5
  6
CONTINUOUS
 62
     3
100
AcDbText
 10
995.842607
 20
-26.769819
 30
0.0
 40
25.0
  1
循環水出口
 41
0.84
  7
EXCADSTD
 72
     5
 11
1120.842607
 21
-26.769819
 31
0.0
100
AcDbText
  0
POLYLINE
  5
7DF
100
AcDbEntity
  8
LAY-5
  6
CONTINUOUS
 62
     1
100
AcDb2dPolyline
 66
     1
 10
0.0
 20
0.0
 30
0.0
 70
   128
  0
VERTEX
  5
7E0
100
AcDbEntity
  8
LAY-5
  6
CONTINUOUS
 62
     1
100
AcDbVertex
100
AcDb2dVertex
 10
740.565696
 20
120.23804
 30
0.0
  0
VERTEX
  5
7E1
100
AcDbEntity
  8
LAY-5
  6
CONTINUOUS
 62
     1
100
AcDbVertex
100
AcDb2dVertex
 10
646.842607
 20
11.230181
 30
0.0
  0
VERTEX
  5
7E2
100
AcDbEntity
  8
LAY-5
  6
CONTINUOUS
 62
     1
100
AcDbVertex
100
AcDb2dVertex
 10
501.195107
 20
11.230181
 30
0.0
  0
SEQEND
  5
7E3
100
AcDbEntity
  8
LAY-5
  6
CONTINUOUS
 62
     1
  0
LINE
  5
7E4
100
AcDbEntity
  8
LAY-5
  6
CONTINUOUS
 62
     1
100
AcDbLine
 10
735.310028
 20
111.5688
 30
0.0
 11
740.565696
 21
120.23804
 31
0.0
  0
LINE
  5
7E5
100
AcDbEntity
  8
LAY-5
  6
CONTINUOUS
 62
     1
100
AcDbLine
 10
740.565696
 20
120.23804
 30
0.0
 11
732.782472
 21
113.741949
 31
0.0
  0
TEXT
  5
7E6
100
AcDbEntity
  8
LAY-5
  6
CONTINUOUS
 62
     3
100
AcDbText
 10
505.268857
 20
11.530181
 30
0.0
 40
25.0
  1
Ｒｃ ３／ ４
 41
0.794444
  7
EXCADSTD
 72
     5
 11
642.768857
 21
11.530181
 31
0.0
100
AcDbText
  0
TEXT
  5
7E7
100
AcDbEntity
  8
LAY-5
  6
CONTINUOUS
 62
     3
100
AcDbText
 10
509.842607
 20
-20.769819
 30
0.0
 40
25.0
  1
循環水入口
 41
0.84
  7
EXCADSTD
 72
     5
 11
634.842607
 21
-20.769819
 31
0.0
100
AcDbText
  0
TEXT
  5
7E8
100
AcDbEntity
  8
LAY-5
  6
CONTINUOUS
 62
     3
100
AcDbText
 10
1579.485973
 20
1227.763144
 30
0.0
 40
25.0
  1
Ｒｃ １／ ２
 41
0.794444
  7
EXCADSTD
 72
     5
 11
1716.985973
 21
1227.763144
 31
0.0
100
AcDbText
  0
POLYLINE
  5
7E9
100
AcDbEntity
  8
LAY-5
  6
CONTINUOUS
 62
     1
100
AcDb2dPolyline
 66
     1
 10
0.0
 20
0.0
 30
0.0
 70
   128
  0
VERTEX
  5
7EA
100
AcDbEntity
  8
LAY-5
  6
CONTINUOUS
 62
     1
100
AcDbVertex
100
AcDb2dVertex
 10
1852.705771
 20
1033.25162
 30
0.0
  0
VERTEX
  5
7EB
100
AcDbEntity
  8
LAY-5
  6
CONTINUOUS
 62
     1
100
AcDbVertex
100
AcDb2dVertex
 10
1713.844247
 20
1227.463144
 30
0.0
  0
VERTEX
  5
7EC
100
AcDbEntity
  8
LAY-5
  6
CONTINUOUS
 62
     1
100
AcDbVertex
100
AcDb2dVertex
 10
1582.627699
 20
1227.463144
 30
0.0
  0
SEQEND
  5
7ED
100
AcDbEntity
  8
LAY-5
  6
CONTINUOUS
 62
     1
  0
LINE
  5
7EE
100
AcDbEntity
  8
LAY-5
  6
CONTINUOUS
 62
     1
100
AcDbLine
 10
1845.533771
 20
1040.416827
 30
0.0
 11
1852.705771
 21
1033.25162
 31
0.0
  0
LINE
  5
7EF
100
AcDbEntity
  8
LAY-5
  6
CONTINUOUS
 62
     1
100
AcDbLine
 10
1852.705771
 20
1033.25162
 30
0.0
 11
1848.245298
 21
1042.355572
 31
0.0
  0
TEXT
  5
7F0
100
AcDbEntity
  8
LAY-5
  6
CONTINUOUS
 62
     3
100
AcDbText
 10
1595.15
 20
1199.831728
 30
0.0
 40
25.0
  1
安全弁
 41
0.84
  7
EXCADSTD
 72
     5
 11
1670.15
 21
1199.831728
 31
0.0
100
AcDbText
  0
TEXT
  5
7F1
100
AcDbEntity
  8
LAY-5
  6
CONTINUOUS
 62
     3
100
AcDbText
 10
1595.15
 20
1174.831728
 30
0.0
 40
25.0
  1
放出管
 41
0.84
  7
EXCADSTD
 72
     5
 11
1670.15
 21
1174.831728
 31
0.0
100
AcDbText
  0
ENDSEC
  0
SECTION
  2
OBJECTS
  0
DICTIONARY
  5
19
100
AcDbDictionary
  3
ACAD_GROUP
350
1A
  3
ACAD_MLINESTYLE
350
1B
  0
DICTIONARY
  5
1A
102
{ACAD_REACTORS
330
19
102
}
100
AcDbDictionary
  0
DICTIONARY
  5
1B
102
{ACAD_REACTORS
330
19
102
}
100
AcDbDictionary
  3
STANDARD
350
1C
  0
MLINESTYLE
  5
1C
102
{ACAD_REACTORS
330
1B
102
}
100
AcDbMlineStyle
  2
Standard
 70
     0
  3

 62
     0
 51
90.0
 52
90.0
 71
     2
 49
0.5
 62
   256
  6
ByLayer
 49
-0.5
 62
   256
  6
ByLayer
  0
ENDSEC
  0
EOF
